  0
SECTION
  2
HEADER
  9
$ACADVER
  1
AC1015
  9
$ACADMAINTVER
 70
    10
  9
$DWGCODEPAGE
  3
ANSI_932
  9
$INSBASE
 10
0.0
 20
0.0
 30
0.0
  9
$EXTMIN
 10
-0.0220937151204908
 20
-0.0333236697674693
 30
-0.0000000349181948
  9
$EXTMAX
 10
362.022097086611
 20
546.0333287549437
 30
0.0000000814935746
  9
$LIMMIN
 10
0.0
 20
0.0
  9
$LIMMAX
 10
362.0
 20
546.0
  9
$ORTHOMODE
 70
     1
  9
$REGENMODE
 70
     1
  9
$FILLMODE
 70
     1
  9
$QTEXTMODE
 70
     0
  9
$MIRRTEXT
 70
     0
  9
$LTSCALE
 40
10.0
  9
$ATTMODE
 70
     1
  9
$TEXTSIZE
 40
6.0
  9
$TRACEWID
 40
0.05
  9
$TEXTSTYLE
  7
ROMANS
  9
$CLAYER
  8
JISSEN
  9
$CELTYPE
  6
BYLAYER
  9
$CECOLOR
 62
   256
  9
$CELTSCALE
 40
1.0
  9
$DISPSILH
 70
     0
  9
$DIMSCALE
 40
2.0
  9
$DIMASZ
 40
1.5
  9
$DIMEXO
 40
1.0
  9
$DIMDLI
 40
6.0
  9
$DIMRND
 40
0.0
  9
$DIMDLE
 40
0.0
  9
$DIMEXE
 40
1.0
  9
$DIMTP
 40
495.0
  9
$DIMTM
 40
0.0
  9
$DIMTXT
 40
3.0
  9
$DIMCEN
 40
0.0
  9
$DIMTSZ
 40
0.0
  9
$DIMTOL
 70
     0
  9
$DIMLIM
 70
     0
  9
$DIMTIH
 70
     0
  9
$DIMTOH
 70
     0
  9
$DIMSE1
 70
     0
  9
$DIMSE2
 70
     0
  9
$DIMTAD
 70
     1
  9
$DIMZIN
 70
     8
  9
$DIMBLK
  1
ARROW
  9
$DIMASO
 70
     0
  9
$DIMSHO
 70
     0
  9
$DIMPOST
  1

  9
$DIMAPOST
  1

  9
$DIMALT
 70
     0
  9
$DIMALTD
 70
     2
  9
$DIMALTF
 40
25.4
  9
$DIMLFAC
 40
1.0
  9
$DIMTOFL
 70
     1
  9
$DIMTVP
 40
0.0
  9
$DIMTIX
 70
     1
  9
$DIMSOXD
 70
     0
  9
$DIMSAH
 70
     0
  9
$DIMBLK1
  1

  9
$DIMBLK2
  1

  9
$DIMSTYLE
  2
IMAO
  9
$DIMCLRD
 70
     0
  9
$DIMCLRE
 70
     0
  9
$DIMCLRT
 70
     0
  9
$DIMTFAC
 40
1.0
  9
$DIMGAP
 40
0.09
  9
$DIMJUST
 70
     0
  9
$DIMSD1
 70
     0
  9
$DIMSD2
 70
     0
  9
$DIMTOLJ
 70
     1
  9
$DIMTZIN
 70
     8
  9
$DIMALTZ
 70
     8
  9
$DIMALTTZ
 70
     8
  9
$DIMUPT
 70
     0
  9
$DIMDEC
 70
     2
  9
$DIMTDEC
 70
     2
  9
$DIMALTU
 70
     2
  9
$DIMALTTD
 70
     2
  9
$DIMTXSTY
  7
ROMANS
  9
$DIMAUNIT
 70
     0
  9
$DIMADEC
 70
     0
  9
$DIMALTRND
 40
0.0
  9
$DIMAZIN
 70
     0
  9
$DIMDSEP
 70
    46
  9
$DIMATFIT
 70
     3
  9
$DIMFRAC
 70
     0
  9
$DIMLDRBLK
  1
ARROW
  9
$DIMLUNIT
 70
     2
  9
$DIMLWD
 70
    -2
  9
$DIMLWE
 70
    -2
  9
$DIMTMOVE
 70
     0
  9
$LUNITS
 70
     2
  9
$LUPREC
 70
     2
  9
$SKETCHINC
 40
0.1
  9
$FILLETRAD
 40
3.0
  9
$AUNITS
 70
     0
  9
$AUPREC
 70
     2
  9
$MENU
  1
stdr12j
  9
$ELEVATION
 40
0.0
  9
$PELEVATION
 40
0.0
  9
$THICKNESS
 40
0.0
  9
$LIMCHECK
 70
     0
  9
$CHAMFERA
 40
0.0
  9
$CHAMFERB
 40
0.0
  9
$CHAMFERC
 40
0.0
  9
$CHAMFERD
 40
0.0
  9
$SKPOLY
 70
     0
  9
$TDCREATE
 40
2449876.477257986
  9
$TDUCREATE
 40
2449876.102257986
  9
$TDUPDATE
 40
2455133.473733773
  9
$TDUUPDATE
 40
2455133.098733773
  9
$TDINDWG
 40
0.1432044792
  9
$TDUSRTIMER
 40
0.1432043634
  9
$USRTIMER
 70
     1
  9
$ANGBASE
 50
0.0
  9
$ANGDIR
 70
     0
  9
$PDMODE
 70
     0
  9
$PDSIZE
 40
0.0
  9
$PLINEWID
 40
0.0
  9
$SPLFRAME
 70
     0
  9
$SPLINETYPE
 70
     6
  9
$SPLINESEGS
 70
     8
  9
$HANDSEED
  5
EA6E5C447
  9
$SURFTAB1
 70
     6
  9
$SURFTAB2
 70
     6
  9
$SURFTYPE
 70
     6
  9
$SURFU
 70
     6
  9
$SURFV
 70
     6
  9
$UCSBASE
  2

  9
$UCSNAME
  2

  9
$UCSORG
 10
0.0
 20
0.0
 30
0.0
  9
$UCSXDIR
 10
1.0
 20
0.0
 30
0.0
  9
$UCSYDIR
 10
0.0
 20
1.0
 30
0.0
  9
$UCSORTHOREF
  2

  9
$UCSORTHOVIEW
 70
     0
  9
$UCSORGTOP
 10
0.0
 20
0.0
 30
0.0
  9
$UCSORGBOTTOM
 10
0.0
 20
0.0
 30
0.0
  9
$UCSORGLEFT
 10
0.0
 20
0.0
 30
0.0
  9
$UCSORGRIGHT
 10
0.0
 20
0.0
 30
0.0
  9
$UCSORGFRONT
 10
0.0
 20
0.0
 30
0.0
  9
$UCSORGBACK
 10
0.0
 20
0.0
 30
0.0
  9
$PUCSBASE
  2

  9
$PUCSNAME
  2

  9
$PUCSORG
 10
0.0
 20
0.0
 30
0.0
  9
$PUCSXDIR
 10
1.0
 20
0.0
 30
0.0
  9
$PUCSYDIR
 10
0.0
 20
1.0
 30
0.0
  9
$PUCSORTHOREF
  2

  9
$PUCSORTHOVIEW
 70
     0
  9
$PUCSORGTOP
 10
0.0
 20
0.0
 30
0.0
  9
$PUCSORGBOTTOM
 10
0.0
 20
0.0
 30
0.0
  9
$PUCSORGLEFT
 10
0.0
 20
0.0
 30
0.0
  9
$PUCSORGRIGHT
 10
0.0
 20
0.0
 30
0.0
  9
$PUCSORGFRONT
 10
0.0
 20
0.0
 30
0.0
  9
$PUCSORGBACK
 10
0.0
 20
0.0
 30
0.0
  9
$USERI1
 70
     4
  9
$USERI2
 70
     1
  9
$USERI3
 70
     2
  9
$USERI4
 70
     2
  9
$USERI5
 70
     0
  9
$USERR1
 40
2.0
  9
$USERR2
 40
3.0
  9
$USERR3
 40
3.0
  9
$USERR4
 40
1.5
  9
$USERR5
 40
10.0
  9
$WORLDVIEW
 70
     1
  9
$SHADEDGE
 70
     3
  9
$SHADEDIF
 70
    70
  9
$TILEMODE
 70
     1
  9
$MAXACTVP
 70
    16
  9
$PINSBASE
 10
0.0
 20
0.0
 30
0.0
  9
$PLIMCHECK
 70
     0
  9
$PEXTMIN
 10
1.000000000000000E+20
 20
1.000000000000000E+20
 30
1.000000000000000E+20
  9
$PEXTMAX
 10
-1.000000000000000E+20
 20
-1.000000000000000E+20
 30
-1.000000000000000E+20
  9
$PLIMMIN
 10
0.0
 20
0.0
  9
$PLIMMAX
 10
12.0
 20
9.0
  9
$UNITMODE
 70
     0
  9
$VISRETAIN
 70
     0
  9
$PLINEGEN
 70
     0
  9
$PSLTSCALE
 70
     0
  9
$TREEDEPTH
 70
  3020
  9
$CMLSTYLE
  2
STANDARD
  9
$CMLJUST
 70
     0
  9
$CMLSCALE
 40
1.0
  9
$PROXYGRAPHICS
 70
     1
  9
$MEASUREMENT
 70
     0
  9
$CELWEIGHT
370
    -1
  9
$ENDCAPS
280
     0
  9
$JOINSTYLE
280
     0
  9
$LWDISPLAY
290
     0
  9
$INSUNITS
 70
     0
  9
$HYPERLINKBASE
  1

  9
$STYLESHEET
  1

  9
$XEDIT
290
     1
  9
$CEPSNTYPE
380
     0
  9
$PSTYLEMODE
290
     1
  9
$FINGERPRINTGUID
  2
{9ED4B7E8-4B02-4EC4-A908-0D7ADED925D2}
  9
$VERSIONGUID
  2
{56439634-8A13-49A6-AB33-031EA2F8EA85}
  9
$EXTNAMES
290
     1
  9
$PSVPSCALE
 40
0.0
  9
$OLESTARTUP
290
     0
  0
ENDSEC
  0
SECTION
  2
CLASSES
  0
CLASS
  1
LWPOLYLINE
  2
AcDbPolyline
  3
AutoCAD 2000
 90
    32768
280
     0
281
     1
  0
CLASS
  1
DICTIONARYVAR
  2
AcDbDictionaryVar
  3
AutoCAD 2000
 90
        0
280
     0
281
     0
  0
CLASS
  1
HATCH
  2
AcDbHatch
  3
AutoCAD 2000
 90
    32768
280
     0
281
     1
  0
CLASS
  1
ACDBDICTIONARYWDFLT
  2
AcDbDictionaryWithDefault
  3
AutoCAD 2000
 90
        0
280
     0
281
     0
  0
CLASS
  1
ACDBPLACEHOLDER
  2
AcDbPlaceHolder
  3
AutoCAD 2000
 90
        0
280
     0
281
     0
  0
CLASS
  1
LAYOUT
  2
AcDbLayout
  3
AutoCAD 2000
 90
        0
280
     0
281
     0
  0
CLASS
  1
LONG_TRANSACTION
  2
AcDbLongTransaction
  3
AutoCAD 2000
 90
    32768
280
     0
281
     0
  0
CLASS
  1
LWPOLYLINE
  2
AcDbPolyline
  3
AutoCAD 2000
 90
    32768
280
     0
281
     1
  0
CLASS
  1
HATCH
  2
AcDbHatch
  3
AutoCAD 2000
 90
    32768
280
     0
281
     1
  0
CLASS
  1
XRECORD
  2
AcDbXrecord
  3
AutoCAD 2000
 90
    32768
280
     0
281
     0
  0
CLASS
  1
LONG_TRANSACTION
  2
AcDbLongTransaction
  3
AutoCAD 2000
 90
    32768
280
     0
281
     0
  0
CLASS
  1
LWPOLYLINE
  2
AcDbPolyline
  3
AutoCAD 2000
 90
    32768
280
     0
281
     1
  0
CLASS
  1
HATCH
  2
AcDbHatch
  3
AutoCAD 2000
 90
    32768
280
     0
281
     1
  0
CLASS
  1
XRECORD
  2
AcDbXrecord
  3
AutoCAD 2000
 90
    32768
280
     0
281
     0
  0
CLASS
  1
LONG_TRANSACTION
  2
AcDbLongTransaction
  3
AutoCAD 2000
 90
    32768
280
     0
281
     0
  0
CLASS
  1
LWPOLYLINE
  2
AcDbPolyline
  3
AutoCAD 2000
 90
    32768
280
     0
281
     1
  0
CLASS
  1
HATCH
  2
AcDbHatch
  3
AutoCAD 2000
 90
    32768
280
     0
281
     1
  0
CLASS
  1
XRECORD
  2
AcDbXrecord
  3
AutoCAD 2000
 90
    32768
280
     0
281
     0
  0
CLASS
  1
LONG_TRANSACTION
  2
AcDbLongTransaction
  3
AutoCAD 2000
 90
    32768
280
     0
281
     0
  0
CLASS
  1
LWPOLYLINE
  2
AcDbPolyline
  3
AutoCAD 2000
 90
    32768
280
     0
281
     1
  0
CLASS
  1
HATCH
  2
AcDbHatch
  3
AutoCAD 2000
 90
    32768
280
     0
281
     1
  0
CLASS
  1
XRECORD
  2
AcDbXrecord
  3
AutoCAD 2000
 90
    32768
280
     0
281
     0
  0
CLASS
  1
LONG_TRANSACTION
  2
AcDbLongTransaction
  3
AutoCAD 2000
 90
    32768
280
     0
281
     0
  0
CLASS
  1
LWPOLYLINE
  2
AcDbPolyline
  3
AutoCAD 2000
 90
    32768
280
     0
281
     1
  0
CLASS
  1
HATCH
  2
AcDbHatch
  3
AutoCAD 2000
 90
    32768
280
     0
281
     1
  0
CLASS
  1
XRECORD
  2
AcDbXrecord
  3
AutoCAD 2000
 90
    32768
280
     0
281
     0
  0
CLASS
  1
PLOTSETTINGS
  2
AcDbPlotSettings
  3
AutoCAD 2000
 90
        0
280
     0
281
     0
  0
ENDSEC
  0
SECTION
  2
TABLES
  0
TABLE
  2
VPORT
  5
EA6E4DC83
330
0
100
AcDbSymbolTable
 70
    10
  0
VPORT
  5
EA6E4DCBB
330
EA6E4DC83
100
AcDbSymbolTableRecord
100
AcDbViewportTableRecord
  2
2
 70
     0
 10
0.5
 20
0.0
 11
1.0
 21
1.0
 12
0.924031
 22
1.052651
 13
0.0
 23
0.0
 14
1.0
 24
1.0
 15
10.0
 25
10.0
 16
0.0
 26
0.0
 36
1.0
 17
0.0
 27
0.0
 37
0.0
 40
2.105302
 41
0.877814
 42
50.0
 43
0.0
 44
0.0
 50
0.0
 51
0.0
 71
     0
 72
   500
 73
     1
 74
     1
 75
     0
 76
     0
 77
     0
 78
     0
281
     0
 65
     1
110
0.0
120
0.0
130
0.0
111
1.0
121
0.0
131
0.0
112
0.0
122
1.0
132
0.0
 79
     0
146
0.0
  0
VPORT
  5
EA6E4DCBC
330
EA6E4DC83
100
AcDbSymbolTableRecord
100
AcDbViewportTableRecord
  2
2
 70
     0
 10
0.0
 20
0.0
 11
0.5
 21
1.0
 12
0.924031
 22
1.052651
 13
0.0
 23
0.0
 14
1.0
 24
1.0
 15
10.0
 25
10.0
 16
0.0
 26
0.0
 36
1.0
 17
0.0
 27
0.0
 37
0.0
 40
2.105302
 41
0.877814
 42
50.0
 43
0.0
 44
0.0
 50
0.0
 51
0.0
 71
     0
 72
   500
 73
     1
 74
     1
 75
     0
 76
     0
 77
     0
 78
     0
281
     0
 65
     1
110
0.0
120
0.0
130
0.0
111
1.0
121
0.0
131
0.0
112
0.0
122
1.0
132
0.0
 79
     0
146
0.0
  0
VPORT
  5
EA6E4DCBD
330
EA6E4DC83
100
AcDbSymbolTableRecord
100
AcDbViewportTableRecord
  2
3
 70
     0
 10
0.0
 20
0.5
 11
1.0
 21
1.0
 12
2.832169999999998
 22
1.052651
 13
0.0
 23
0.0
 14
1.0
 24
1.0
 15
10.0
 25
10.0
 16
0.0
 26
0.0
 36
1.0
 17
0.0
 27
0.0
 37
0.0
 40
2.105302
 41
3.571429
 42
50.0
 43
0.0
 44
0.0
 50
0.0
 51
0.0
 71
     0
 72
   500
 73
     1
 74
     1
 75
     0
 76
     0
 77
     0
 78
     0
281
     0
 65
     1
110
0.0
120
0.0
130
0.0
111
1.0
121
0.0
131
0.0
112
0.0
122
1.0
132
0.0
 79
     0
146
0.0
  0
VPORT
  5
EA6E4DCBE
330
EA6E4DC83
100
AcDbSymbolTableRecord
100
AcDbViewportTableRecord
  2
3
 70
     0
 10
0.0
 20
0.0
 11
1.0
 21
0.5
 12
2.856741999999998
 22
1.052651
 13
0.0
 23
0.0
 14
1.0
 24
1.0
 15
10.0
 25
10.0
 16
0.0
 26
0.0
 36
1.0
 17
0.0
 27
0.0
 37
0.0
 40
2.105302
 41
3.594770999999998
 42
50.0
 43
0.0
 44
0.0
 50
0.0
 51
0.0
 71
     0
 72
   500
 73
     1
 74
     1
 75
     0
 76
     0
 77
     0
 78
     0
281
     0
 65
     1
110
0.0
120
0.0
130
0.0
111
1.0
121
0.0
131
0.0
112
0.0
122
1.0
132
0.0
 79
     0
146
0.0
  0
VPORT
  5
EA6E4DCBF
330
EA6E4DC83
100
AcDbSymbolTableRecord
100
AcDbViewportTableRecord
  2
4
 70
     0
 10
0.5
 20
0.0
 11
1.0
 21
0.5
 12
2.886858
 22
1.052651
 13
0.0
 23
0.0
 14
1.0
 24
1.0
 15
10.0
 25
10.0
 16
0.0
 26
0.0
 36
1.0
 17
0.0
 27
0.0
 37
0.0
 40
4.275206999999999
 41
1.784314
 42
50.0
 43
0.0
 44
0.0
 50
0.0
 51
0.0
 71
     0
 72
   500
 73
     1
 74
     1
 75
     0
 76
     0
 77
     0
 78
     0
281
     0
 65
     1
110
0.0
120
0.0
130
0.0
111
1.0
121
0.0
131
0.0
112
0.0
122
1.0
132
0.0
 79
     0
146
0.0
  0
VPORT
  5
EA6E4DCC0
330
EA6E4DC83
100
AcDbSymbolTableRecord
100
AcDbViewportTableRecord
  2
4
 70
     0
 10
0.5
 20
0.5
 11
1.0
 21
1.0
 12
2.86209
 22
1.052651
 13
0.0
 23
0.0
 14
1.0
 24
1.0
 15
10.0
 25
10.0
 16
0.0
 26
0.0
 36
1.0
 17
0.0
 27
0.0
 37
0.0
 40
4.275206999999999
 41
1.772726999999999
 42
50.0
 43
0.0
 44
0.0
 50
0.0
 51
0.0
 71
     0
 72
   500
 73
     1
 74
     1
 75
     0
 76
     0
 77
     0
 78
     0
281
     0
 65
     1
110
0.0
120
0.0
130
0.0
111
1.0
121
0.0
131
0.0
112
0.0
122
1.0
132
0.0
 79
     0
146
0.0
  0
VPORT
  5
EA6E4DCC1
330
EA6E4DC83
100
AcDbSymbolTableRecord
100
AcDbViewportTableRecord
  2
4
 70
     0
 10
0.0
 20
0.5
 11
0.5
 21
1.0
 12
2.86209
 22
1.052651
 13
0.0
 23
0.0
 14
1.0
 24
1.0
 15
10.0
 25
10.0
 16
0.0
 26
0.0
 36
1.0
 17
0.0
 27
0.0
 37
0.0
 40
4.275206999999999
 41
1.772726999999999
 42
50.0
 43
0.0
 44
0.0
 50
0.0
 51
0.0
 71
     0
 72
   500
 73
     1
 74
     1
 75
     0
 76
     0
 77
     0
 78
     0
281
     0
 65
     1
110
0.0
120
0.0
130
0.0
111
1.0
121
0.0
131
0.0
112
0.0
122
1.0
132
0.0
 79
     0
146
0.0
  0
VPORT
  5
EA6E4DCC2
330
EA6E4DC83
100
AcDbSymbolTableRecord
100
AcDbViewportTableRecord
  2
4
 70
     0
 10
0.0
 20
0.0
 11
0.5
 21
0.5
 12
2.886858
 22
1.052651
 13
0.0
 23
0.0
 14
1.0
 24
1.0
 15
10.0
 25
10.0
 16
0.0
 26
0.0
 36
1.0
 17
0.0
 27
0.0
 37
0.0
 40
4.275206999999999
 41
1.784314
 42
50.0
 43
0.0
 44
0.0
 50
0.0
 51
0.0
 71
     0
 72
   500
 73
     1
 74
     1
 75
     0
 76
     0
 77
     0
 78
     0
281
     0
 65
     1
110
0.0
120
0.0
130
0.0
111
1.0
121
0.0
131
0.0
112
0.0
122
1.0
132
0.0
 79
     0
146
0.0
  0
VPORT
  5
EA6E5C446
330
EA6E4DC83
100
AcDbSymbolTableRecord
100
AcDbViewportTableRecord
  2
*Active
 70
     0
 10
0.0
 20
0.0
 11
1.0
 21
1.0
 12
181.0000016857452
 22
273.0000025425882
 13
0.0
 23
0.0
 14
1.0
 24
1.0
 15
10.0
 25
10.0
 16
0.0
 26
0.0
 36
1.0
 17
0.0
 27
0.0
 37
0.0
 40
550.067140720863
 41
1.537897310513447
 42
50.0
 43
0.0
 44
0.0
 50
0.0
 51
0.0
 71
     0
 72
   500
 73
     1
 74
     0
 75
     0
 76
     0
 77
     0
 78
     0
281
     0
 65
     1
110
0.0
120
0.0
130
0.0
111
1.0
121
0.0
131
0.0
112
0.0
122
1.0
132
0.0
 79
     0
146
0.0
  0
ENDTAB
  0
TABLE
  2
LTYPE
  5
EA6E4DC80
330
0
100
AcDbSymbolTable
 70
     6
  0
LTYPE
  5
EA6E4DC8C
330
EA6E4DC80
100
AcDbSymbolTableRecord
100
AcDbLinetypeTableRecord
  2
BYBLOCK
 70
     0
  3

 72
    65
 73
     0
 40
0.0
  0
LTYPE
  5
EA6E4DC8D
330
EA6E4DC80
100
AcDbSymbolTableRecord
100
AcDbLinetypeTableRecord
  2
BYLAYER
 70
     0
  3

 72
    65
 73
     0
 40
0.0
  0
LTYPE
  5
EA6E4DC8E
330
EA6E4DC80
100
AcDbSymbolTableRecord
100
AcDbLinetypeTableRecord
  2
CONTINUOUS
 70
     0
  3
実線
 72
    65
 73
     0
 40
0.0
  0
LTYPE
  5
EA6E4DCBA
330
EA6E4DC80
100
AcDbSymbolTableRecord
100
AcDbLinetypeTableRecord
  2
HIDDEN
 70
     0
  3
_ _ _ _ _ _ _ _ _ _ _ _ _ _ _ _ _ _ _ _ _ _ _
 72
    65
 73
     2
 40
0.375
 49
0.25
 74
     0
 49
-0.125
 74
     0
  0
LTYPE
  5
EA6E4E3D4
330
EA6E4DC80
100
AcDbSymbolTableRecord
100
AcDbLinetypeTableRecord
  2
CENTER
 70
     0
  3
____ _ ____ _ ____ _ ____ _ ____ _ ____ _ ____
 72
    65
 73
     4
 40
2.0
 49
1.25
 74
     0
 49
-0.25
 74
     0
 49
0.25
 74
     0
 49
-0.25
 74
     0
  0
LTYPE
  5
EA6E4F3EF
330
EA6E4DC80
100
AcDbSymbolTableRecord
100
AcDbLinetypeTableRecord
  2
DASHED
 70
     0
  3
Dashed __ __ __ __ __ __ __ __ __ __ __ __ __ _
 72
    65
 73
     2
 40
0.75
 49
0.5
 74
     0
 49
-0.25
 74
     0
  0
LTYPE
  5
EA6E4F3F0
330
EA6E4DC80
100
AcDbSymbolTableRecord
100
AcDbLinetypeTableRecord
  2
BREAK
 70
     0
  3
破線（通常）
 72
    65
 73
     2
 40
4.0
 49
3.0
 74
     0
 49
-1.0
 74
     0
  0
LTYPE
  5
EA6E4F3F2
330
EA6E4DC80
100
AcDbSymbolTableRecord
100
AcDbLinetypeTableRecord
  2
PHANTOM
 70
     0
  3
_____ _ _ _____ _ _ _____ _ _ _____ _ _ ____
 72
    65
 73
     6
 40
2.5
 49
1.25
 74
     0
 49
-0.25
 74
     0
 49
0.25
 74
     0
 49
-0.25
 74
     0
 49
0.25
 74
     0
 49
-0.25
 74
     0
  0
ENDTAB
  0
TABLE
  2
LAYER
  5
EA6E4DC7D
102
{ACAD_XDICTIONARY
360
EA6E4E3D8
102
}
330
0
100
AcDbSymbolTable
 70
    13
  0
LAYER
  5
EA6E4DC89
330
EA6E4DC7D
100
AcDbSymbolTableRecord
100
AcDbLayerTableRecord
  2
0
 70
     0
 62
     6
  6
CONTINUOUS
370
    -3
390
EA6E4E123
  0
LAYER
  5
EA6E4DCCA
330
EA6E4DC7D
100
AcDbSymbolTableRecord
100
AcDbLayerTableRecord
  2
SUNPOU
 70
     0
 62
     3
  6
CONTINUOUS
370
    -3
390
EA6E4E123
  0
LAYER
  5
EA6E4DCCB
330
EA6E4DC7D
100
AcDbSymbolTableRecord
100
AcDbLayerTableRecord
  2
TEXT
 70
     0
 62
     3
  6
CONTINUOUS
370
    -3
390
EA6E4E123
  0
LAYER
  5
EA6E4DCCC
330
EA6E4DC7D
100
AcDbSymbolTableRecord
100
AcDbLayerTableRecord
  2
SAISEN
 70
     0
 62
     4
  6
CONTINUOUS
370
    -3
390
EA6E4E123
  0
LAYER
  5
EA6E4DCCD
330
EA6E4DC7D
100
AcDbSymbolTableRecord
100
AcDbLayerTableRecord
  2
JISSEN
 70
     0
 62
     7
  6
CONTINUOUS
370
    -3
390
EA6E4E123
  0
LAYER
  5
EA6E4DCCF
330
EA6E4DC7D
100
AcDbSymbolTableRecord
100
AcDbLayerTableRecord
  2
TENSEN
 70
     0
 62
     2
  6
HIDDEN
370
    -3
390
EA6E4E123
  0
LAYER
  5
EA6E4DCD1
330
EA6E4DC7D
100
AcDbSymbolTableRecord
100
AcDbLayerTableRecord
  2
WAKU
 70
     0
 62
     5
  6
CONTINUOUS
370
    -3
390
EA6E4E123
  0
LAYER
  5
EA6E4E3D5
330
EA6E4DC7D
100
AcDbSymbolTableRecord
100
AcDbLayerTableRecord
  2
ITTEN
 70
     0
 62
     1
  6
CENTER
370
    -3
390
EA6E4E123
  0
LAYER
  5
EA6E4E3D6
330
EA6E4DC7D
100
AcDbSymbolTableRecord
100
AcDbLayerTableRecord
  2
HATCH
 70
     0
 62
     4
  6
CONTINUOUS
370
    -3
390
EA6E4E123
  0
LAYER
  5
EA6E4F406
330
EA6E4DC7D
100
AcDbSymbolTableRecord
100
AcDbLayerTableRecord
  2
1
 70
     0
 62
     6
  6
CONTINUOUS
370
    -3
390
EA6E4E123
  0
LAYER
  5
EA6E4F407
330
EA6E4DC7D
100
AcDbSymbolTableRecord
100
AcDbLayerTableRecord
  2
Defpoints
 70
     0
 62
     7
  6
CONTINUOUS
290
     0
370
    -3
390
EA6E4E123
  0
LAYER
  5
EA6E4F417
330
EA6E4DC7D
100
AcDbSymbolTableRecord
100
AcDbLayerTableRecord
  2
SCALE
 70
     0
 62
     7
  6
CONTINUOUS
370
    -3
390
EA6E4E123
  0
LAYER
  5
EA6E4F418
330
EA6E4DC7D
100
AcDbSymbolTableRecord
100
AcDbLayerTableRecord
  2
HOJO
 70
     0
 62
     6
  6
CONTINUOUS
370
    -3
390
EA6E4E123
  0
ENDTAB
  0
TABLE
  2
STYLE
  5
EA6E4DC7E
330
0
100
AcDbSymbolTable
 70
     5
  0
STYLE
  5
EA6E4DC8A
330
EA6E4DC7E
100
AcDbSymbolTableRecord
100
AcDbTextStyleTableRecord
  2
STANDARD
 70
     0
 40
0.0
 41
1.0
 50
0.0
 71
     0
 42
0.2
  3
ROMANS
  4
EXTFONT
  0
STYLE
  5
EA6E4DCB2
330
EA6E4DC7E
100
AcDbSymbolTableRecord
100
AcDbTextStyleTableRecord
  2
K
 70
     0
 40
0.0
 41
1.0
 50
0.0
 71
     0
 42
6.0
  3
SIMPLEX
  4
BIGFONT.SHX
  0
STYLE
  5
EA6E4DCB3
330
EA6E4DC7E
100
AcDbSymbolTableRecord
100
AcDbTextStyleTableRecord
  2
ROMANS
 70
     0
 40
0.0
 41
0.8
 50
0.0
 71
     0
 42
6.0
  3
romans
  4

  0
STYLE
  5
EA6E4DCFB
330
EA6E4DC7E
100
AcDbSymbolTableRecord
100
AcDbTextStyleTableRecord
  2
DIMENSION
 70
     0
 40
0.0
 41
1.0
 50
0.0
 71
     0
 42
2.5
  3
TXT
  4

  0
STYLE
  5
EA6E4F426
330
EA6E4DC7E
100
AcDbSymbolTableRecord
100
AcDbTextStyleTableRecord
  2
35FONT
 70
     0
 40
3.5
 41
0.75
 50
15.0
 71
     0
 42
2.5
  3
SIMPLEX.shx
  4
BIGFONT.shx
  0
ENDTAB
  0
TABLE
  2
VIEW
  5
EA6E4DC81
330
0
100
AcDbSymbolTable
 70
     0
  0
ENDTAB
  0
TABLE
  2
UCS
  5
EA6E4DC82
330
0
100
AcDbSymbolTable
 70
     0
  0
ENDTAB
  0
TABLE
  2
APPID
  5
EA6E4DC84
330
0
100
AcDbSymbolTable
 70
    11
  0
APPID
  5
EA6E4DC8B
330
EA6E4DC84
100
AcDbSymbolTableRecord
100
AcDbRegAppTableRecord
  2
ACAD
 70
     0
  0
APPID
  5
EA6E4E3D7
330
EA6E4DC84
100
AcDbSymbolTableRecord
100
AcDbRegAppTableRecord
  2
ASK_MEN_XD
 70
     0
  0
APPID
  5
EA6E4F43D
330
EA6E4DC84
100
AcDbSymbolTableRecord
100
AcDbRegAppTableRecord
  2
X_OBJNAME
 70
     0
  0
APPID
  5
EA6E4F43E
330
EA6E4DC84
100
AcDbSymbolTableRecord
100
AcDbRegAppTableRecord
  2
X_DEFINELIST
 70
     0
  0
APPID
  5
EA6E4F43F
330
EA6E4DC84
100
AcDbSymbolTableRecord
100
AcDbRegAppTableRecord
  2
ACAD_MLEADERVER
 70
     0
  0
APPID
  5
EA6E4F440
330
EA6E4DC84
100
AcDbSymbolTableRecord
100
AcDbRegAppTableRecord
  2
ACAD_PSEXT
 70
     0
  0
APPID
  5
EA6E4F441
330
EA6E4DC84
100
AcDbSymbolTableRecord
100
AcDbRegAppTableRecord
  2
CONTENTBLOCKICON
 70
     0
  0
APPID
  5
EA6E4F442
330
EA6E4DC84
100
AcDbSymbolTableRecord
100
AcDbRegAppTableRecord
  2
X_PARAM_BALLOON
 70
     0
  0
APPID
  5
EA6E4F443
330
EA6E4DC84
100
AcDbSymbolTableRecord
100
AcDbRegAppTableRecord
  2
X_PARAM_TXTPATERN
 70
     0
  0
APPID
  5
EA6E4F444
330
EA6E4DC84
100
AcDbSymbolTableRecord
100
AcDbRegAppTableRecord
  2
X_PARAM_CTXTPATERN
 70
     0
  0
APPID
  5
EA6E4F445
330
EA6E4DC84
100
AcDbSymbolTableRecord
100
AcDbRegAppTableRecord
  2
X_PARAM_SYSVAL
 70
     0
  0
ENDTAB
  0
TABLE
  2
DIMSTYLE
  5
EA6E4DC85
330
0
100
AcDbSymbolTable
 70
     2
100
AcDbDimStyleTable
 71
     0
  0
DIMSTYLE
105
EA6E4DCC5
330
EA6E4DC85
100
AcDbSymbolTableRecord
100
AcDbDimStyleTableRecord
  2
IMAO
 70
     0
 41
1.5
 42
1.0
 43
6.0
 44
1.0
 47
495.0
 73
     0
 74
     0
 77
     1
 78
     8
140
3.0
141
0.0
172
     1
174
     1
271
     2
272
     2
284
     8
285
     8
286
     8
340
EA6E4DCB3
  0
DIMSTYLE
105
EA6E4DCFC
330
EA6E4DC85
100
AcDbSymbolTableRecord
100
AcDbDimStyleTableRecord
  2
STANDARD
 70
     0
 40
2.0
 41
2.0
 42
0.1
 43
10.0
 44
1.5
 73
     0
 74
     0
 78
     8
140
3.0
145
1.0
147
0.1
172
     1
176
   256
177
   256
178
   256
271
     2
272
     2
284
     8
340
EA6E4DCFB
341
EA6E4DCF5
342
EA6E4DCF5
  0
ENDTAB
  0
TABLE
  2
BLOCK_RECORD
  5
EA6E4DC7C
330
0
100
AcDbSymbolTable
 70
     5
  0
BLOCK_RECORD
  5
EA6E4DC92
102
{ACAD_XDICTIONARY
360
EA6E4E15C
102
}
330
EA6E4DC7C
100
AcDbSymbolTableRecord
100
AcDbBlockTableRecord
  2
*MODEL_SPACE
340
EA6E4EE67
  0
BLOCK_RECORD
  5
EA6E4DC8F
102
{ACAD_XDICTIONARY
360
EA6E4E15A
102
}
330
EA6E4DC7C
100
AcDbSymbolTableRecord
100
AcDbBlockTableRecord
  2
*PAPER_SPACE
340
EA6E4EE68
  0
BLOCK_RECORD
  5
EA6E4DC97
330
EA6E4DC7C
100
AcDbSymbolTableRecord
100
AcDbBlockTableRecord
  2
ARROW
340
0
  0
BLOCK_RECORD
  5
EA6E4DCF5
330
EA6E4DC7C
100
AcDbSymbolTableRecord
100
AcDbBlockTableRecord
  2
AR_OPEN
340
0
  0
BLOCK_RECORD
  5
EA6E4E244
330
EA6E4DC7C
100
AcDbSymbolTableRecord
100
AcDbBlockTableRecord
  2
ARROWANG
340
0
102
{BLKREFS
331
EA6E5C272
331
EA6E5C2B4
331
EA6E5C2B9
331
EA6E5C346
331
EA6E5C34C
331
EA6E5C38C
331
EA6E5C3BE
102
}
  0
BLOCK_RECORD
  5
EA6E4EE9A
330
EA6E4DC7C
100
AcDbSymbolTableRecord
100
AcDbBlockTableRecord
  2
_Open
340
0
102
{BLKREFS
331
EA6E5C34B
331
EA6E5C352
102
}
  0
BLOCK_RECORD
  5
EA6E5BDE2
330
EA6E4DC7C
100
AcDbSymbolTableRecord
100
AcDbBlockTableRecord
  2
*X4
340
0
102
{BLKREFS
331
EA6E5C3C9
102
}
  0
ENDTAB
  0
ENDSEC
  0
SECTION
  2
BLOCKS
  0
BLOCK
  5
EA6E4DCD4
330
EA6E4DC92
100
AcDbEntity
  8
0
100
AcDbBlockBegin
  2
*MODEL_SPACE
 70
     0
 10
0.0
 20
0.0
 30
0.0
  3
*MODEL_SPACE
  1

  0
ENDBLK
  5
EA6E4DCD5
330
EA6E4DC92
100
AcDbEntity
  8
0
100
AcDbBlockEnd
  0
BLOCK
  5
EA6E4DCD2
330
EA6E4DC8F
100
AcDbEntity
 67
     1
  8
0
100
AcDbBlockBegin
  2
*PAPER_SPACE
 70
     0
 10
0.0
 20
0.0
 30
0.0
  3
*PAPER_SPACE
  1

  0
ENDBLK
  5
EA6E4DCD3
330
EA6E4DC8F
100
AcDbEntity
 67
     1
  8
0
100
AcDbBlockEnd
  0
BLOCK
  5
449
330
EA6E4DC97
100
AcDbEntity
  8
0
100
AcDbBlockBegin
  2
ARROW
 70
     0
 10
1.0
 20
0.5
 30
0.0
  3
ARROW
  1

  0
LINE
  5
44A
330
EA6E4DC97
100
AcDbEntity
  8
0
100
AcDbLine
 10
1.0
 20
0.5
 30
0.0
 11
-0.5
 21
0.098076
 31
0.0
  0
LINE
  5
44B
330
EA6E4DC97
100
AcDbEntity
  8
0
100
AcDbLine
 10
0.0
 20
0.5
 30
0.0
 11
1.0
 21
0.5
 31
0.0
  0
LINE
  5
44C
330
EA6E4DC97
100
AcDbEntity
  8
0
100
AcDbLine
 10
1.0
 20
0.5
 30
0.0
 11
-0.5
 21
0.9019239999999999
 31
0.0
  0
ENDBLK
  5
44D
330
EA6E4DC97
100
AcDbEntity
  8
0
100
AcDbBlockEnd
  0
BLOCK
  5
EA6E4DCF9
330
EA6E4DCF5
100
AcDbEntity
  8
0
100
AcDbBlockBegin
  2
AR_OPEN
 70
     0
 10
0.0
 20
0.0
 30
0.0
  3
AR_OPEN
  1

  0
LINE
  5
EA6E4DCF6
330
EA6E4DCF5
100
AcDbEntity
  8
0
 62
     0
100
AcDbLine
 10
-1.0
 20
0.0
 30
0.0
 11
0.0
 21
0.0
 31
0.0
  0
LINE
  5
EA6E4DCF7
330
EA6E4DCF5
100
AcDbEntity
  8
0
 62
     0
100
AcDbLine
 10
0.0
 20
0.0
 30
0.0
 11
-1.0
 21
0.267949
 31
0.0
  0
LINE
  5
EA6E4DCF8
330
EA6E4DCF5
100
AcDbEntity
  8
0
 62
     0
100
AcDbLine
 10
0.0
 20
0.0
 30
0.0
 11
-1.0
 21
-0.267949
 31
0.0
  0
ENDBLK
  5
EA6E4DCFA
330
EA6E4DCF5
100
AcDbEntity
  8
0
100
AcDbBlockEnd
  0
BLOCK
  5
EA6E4E247
330
EA6E4E244
100
AcDbEntity
  8
0
100
AcDbBlockBegin
  2
ARROWANG
 70
     0
 10
0.0
 20
0.0
 30
0.0
  3
ARROWANG
  1

  0
LINE
  5
EA6E4E245
330
EA6E4E244
100
AcDbEntity
  8
SUNPOU
100
AcDbLine
 10
0.0
 20
0.0
 30
0.0
 11
-1.499999999999956
 21
0.401923788646741
 31
0.0
  0
LINE
  5
EA6E4E246
330
EA6E4E244
100
AcDbEntity
  8
SUNPOU
100
AcDbLine
 10
0.0
 20
0.0
 30
0.0
 11
-1.500000000000027
 21
-0.4019237886467124
 31
0.0
  0
ENDBLK
  5
EA6E4E248
330
EA6E4E244
100
AcDbEntity
  8
0
100
AcDbBlockEnd
  0
BLOCK
  5
EA6E4EE9E
330
EA6E4EE9A
100
AcDbEntity
  8
0
100
AcDbBlockBegin
  2
_Open
 70
     0
 10
0.0
 20
0.0
 30
0.0
  3
_Open
  1

  0
LINE
  5
EA6E4EE9B
330
EA6E4EE9A
100
AcDbEntity
  8
0
  6
ByBlock
 62
     0
370
    -2
100
AcDbLine
 10
-1.0
 20
0.1666666666666666
 30
0.0
 11
0.0
 21
0.0
 31
0.0
  0
LINE
  5
EA6E4EE9C
330
EA6E4EE9A
100
AcDbEntity
  8
0
  6
ByBlock
 62
     0
370
    -2
100
AcDbLine
 10
-1.0
 20
-0.1666666666666666
 30
0.0
 11
0.0
 21
0.0
 31
0.0
  0
LINE
  5
EA6E4EE9D
330
EA6E4EE9A
100
AcDbEntity
  8
0
  6
ByBlock
 62
     0
370
    -2
100
AcDbLine
 10
0.0
 20
0.0
 30
0.0
 11
-1.0
 21
0.0
 31
0.0
  0
ENDBLK
  5
EA6E4EE9F
330
EA6E4EE9A
100
AcDbEntity
  8
0
100
AcDbBlockEnd
  0
BLOCK
  5
EA6E5BF6B
330
EA6E5BDE2
100
AcDbEntity
  8
0
100
AcDbBlockBegin
  2
*X4
 70
     1
 10
0.0
 20
0.0
 30
0.0
  3
*X4
  1

  0
LINE
  5
EA6E5BDE3
330
EA6E5BDE2
100
AcDbEntity
  8
0
 62
     0
100
AcDbLine
 10
13.0
 20
1.5
 30
0.0
 11
13.0
 21
3.0
 31
0.0
  0
LINE
  5
EA6E5BDE4
330
EA6E5BDE2
100
AcDbEntity
  8
0
 62
     0
100
AcDbLine
 10
12.8
 20
0.5011846473685893
 30
0.0
 11
12.8
 21
1.501244022154416
 31
0.0
  0
LINE
  5
EA6E5BDE5
330
EA6E5BDE2
100
AcDbEntity
  8
0
 62
     0
100
AcDbLine
 10
12.8
 20
16.49875597784558
 30
0.0
 11
12.8
 21
17.49881535263141
 31
0.0
  0
LINE
  5
EA6E5BDE6
330
EA6E5BDE2
100
AcDbEntity
  8
0
 62
     0
100
AcDbLine
 10
12.8
 20
1.502736746385633
 30
0.0
 11
12.8
 21
3.003293554097716
 31
0.0
  0
LINE
  5
EA6E5BDE7
330
EA6E5BDE2
100
AcDbEntity
  8
0
 62
     0
100
AcDbLine
 10
12.8
 20
14.99670644590227
 30
0.0
 11
12.8
 21
16.49726325361435
 31
0.0
  0
LINE
  5
EA6E5BDE8
330
EA6E5BDE2
100
AcDbEntity
  8
0
 62
     0
100
AcDbLine
 10
12.8
 20
8.252736746385634
 30
0.0
 11
12.8
 21
9.753293554097712
 31
0.0
  0
LINE
  5
EA6E5BDE9
330
EA6E5BDE2
100
AcDbEntity
  8
0
 62
     0
100
AcDbLine
 10
12.6
 20
0.5047390883533396
 30
0.0
 11
12.6
 21
1.504976666345426
 31
0.0
  0
LINE
  5
EA6E5BDEA
330
EA6E5BDE2
100
AcDbEntity
  8
0
 62
     0
100
AcDbLine
 10
12.6
 20
16.49502333365457
 30
0.0
 11
12.6
 21
17.49526091164665
 31
0.0
  0
LINE
  5
EA6E5BDEB
330
EA6E5BDE2
100
AcDbEntity
  8
0
 62
     0
100
AcDbLine
 10
12.6
 20
1.510953142904804
 30
0.0
 11
12.6
 21
3.013184954832298
 31
0.0
  0
LINE
  5
EA6E5BDEC
330
EA6E5BDE2
100
AcDbEntity
  8
0
 62
     0
100
AcDbLine
 10
12.6
 20
14.9868150451677
 30
0.0
 11
12.6
 21
16.48904685709519
 31
0.0
  0
LINE
  5
EA6E5BDED
330
EA6E5BDE2
100
AcDbEntity
  8
0
 62
     0
100
AcDbLine
 10
12.6
 20
8.260953142904803
 30
0.0
 11
12.6
 21
9.763184954832301
 31
0.0
  0
LINE
  5
EA6E5BDEE
330
EA6E5BDE2
100
AcDbEntity
  8
0
 62
     0
100
AcDbLine
 10
12.4
 20
0.5106648206422692
 30
0.0
 11
12.4
 21
1.511199667098658
 31
0.0
  0
LINE
  5
EA6E5BDEF
330
EA6E5BDE2
100
AcDbEntity
  8
0
 62
     0
100
AcDbLine
 10
12.4
 20
16.48880033290133
 30
0.0
 11
12.4
 21
17.48933517935772
 31
0.0
  0
LINE
  5
EA6E5BDF0
330
EA6E5BDE2
100
AcDbEntity
  8
0
 62
     0
100
AcDbLine
 10
12.4
 20
1.524667731119553
 30
0.0
 11
12.4
 21
3.029706593353226
 31
0.0
  0
LINE
  5
EA6E5BDF1
330
EA6E5BDE2
100
AcDbEntity
  8
0
 62
     0
100
AcDbLine
 10
12.4
 20
14.97029340664677
 30
0.0
 11
12.4
 21
16.47533226888044
 31
0.0
  0
LINE
  5
EA6E5BDF2
330
EA6E5BDE2
100
AcDbEntity
  8
0
 62
     0
100
AcDbLine
 10
12.4
 20
8.274667731119556
 30
0.0
 11
12.4
 21
9.779706593353227
 31
0.0
  0
LINE
  5
EA6E5BDF3
330
EA6E5BDE2
100
AcDbEntity
  8
0
 62
     0
100
AcDbLine
 10
12.19999999999999
 20
0.5189643438906657
 30
0.0
 11
12.19999999999999
 21
1.51991591977186
 31
0.0
  0
LINE
  5
EA6E5BDF4
330
EA6E5BDE2
100
AcDbEntity
  8
0
 62
     0
100
AcDbLine
 10
12.19999999999999
 20
16.48008408022814
 30
0.0
 11
12.19999999999999
 21
17.48103565610933
 31
0.0
  0
LINE
  5
EA6E5BDF5
330
EA6E5BDE2
100
AcDbEntity
  8
0
 62
     0
100
AcDbLine
 10
12.19999999999999
 20
1.543911647054931
 30
0.0
 11
12.19999999999999
 21
3.052913047755091
 31
0.0
  0
LINE
  5
EA6E5BDF6
330
EA6E5BDE2
100
AcDbEntity
  8
0
 62
     0
100
AcDbLine
 10
12.19999999999999
 20
14.94708695224491
 30
0.0
 11
12.19999999999999
 21
16.45608835294505
 31
0.0
  0
LINE
  5
EA6E5BDF7
330
EA6E5BDE2
100
AcDbEntity
  8
0
 62
     0
100
AcDbLine
 10
12.19999999999999
 20
8.293911647054933
 30
0.0
 11
12.19999999999999
 21
9.802913047755092
 31
0.0
  0
LINE
  5
EA6E5BDF8
330
EA6E5BDE2
100
AcDbEntity
  8
0
 62
     0
100
AcDbLine
 10
12.0
 20
0.5296411650021327
 30
0.0
 11
12.0
 21
1.531129487302989
 31
0.0
  0
LINE
  5
EA6E5BDF9
330
EA6E5BDE2
100
AcDbEntity
  8
0
 62
     0
100
AcDbLine
 10
12.0
 20
16.468870512697
 30
0.0
 11
12.0
 21
17.47035883499786
 31
0.0
  0
LINE
  5
EA6E5BDFA
330
EA6E5BDE2
100
AcDbEntity
  8
0
 62
     0
100
AcDbLine
 10
12.0
 20
1.568728977850376
 30
0.0
 11
12.0
 21
3.082881996483852
 31
0.0
  0
LINE
  5
EA6E5BDFB
330
EA6E5BDE2
100
AcDbEntity
  8
0
 62
     0
100
AcDbLine
 10
12.0
 20
14.91711800351614
 30
0.0
 11
12.0
 21
16.43127102214962
 31
0.0
  0
LINE
  5
EA6E5BDFC
330
EA6E5BDE2
100
AcDbEntity
  8
0
 62
     0
100
AcDbLine
 10
12.0
 20
8.318728977850376
 30
0.0
 11
12.0
 21
9.832881996483848
 31
0.0
  0
LINE
  5
EA6E5BDFD
330
EA6E5BDE2
100
AcDbEntity
  8
0
 62
     0
100
AcDbLine
 10
11.8
 20
0.5426998055585415
 30
0.0
 11
11.8
 21
1.544845609709006
 31
0.0
  0
LINE
  5
EA6E5BDFE
330
EA6E5BDE2
100
AcDbEntity
  8
0
 62
     0
100
AcDbLine
 10
11.8
 20
16.45515439029098
 30
0.0
 11
11.8
 21
17.45730019444144
 31
0.0
  0
LINE
  5
EA6E5BDFF
330
EA6E5BDE2
100
AcDbEntity
  8
0
 62
     0
100
AcDbLine
 10
11.8
 20
1.599177274433096
 30
0.0
 11
11.8
 21
3.119715547134022
 31
0.0
  0
LINE
  5
EA6E5BE00
330
EA6E5BDE2
100
AcDbEntity
  8
0
 62
     0
100
AcDbLine
 10
11.8
 20
14.88028445286597
 30
0.0
 11
11.8
 21
16.4008227255669
 31
0.0
  0
LINE
  5
EA6E5BE01
330
EA6E5BDE2
100
AcDbEntity
  8
0
 62
     0
100
AcDbLine
 10
11.8
 20
8.349177274433094
 30
0.0
 11
11.8
 21
9.869715547134024
 31
0.0
  0
LINE
  5
EA6E5BE02
330
EA6E5BDE2
100
AcDbEntity
  8
0
 62
     0
100
AcDbLine
 10
11.59999999999999
 20
0.5581458114356864
 30
0.0
 11
11.59999999999999
 21
1.561070716387176
 31
0.0
  0
LINE
  5
EA6E5BE03
330
EA6E5BDE2
100
AcDbEntity
  8
0
 62
     0
100
AcDbLine
 10
11.59999999999999
 20
16.43892928361282
 30
0.0
 11
11.59999999999999
 21
17.44185418856431
 31
0.0
  0
LINE
  5
EA6E5BE04
330
EA6E5BDE2
100
AcDbEntity
  8
0
 62
     0
100
AcDbLine
 10
11.59999999999999
 20
1.635328234354861
 30
0.0
 11
11.59999999999999
 21
3.163542034954736
 31
0.0
  0
LINE
  5
EA6E5BE05
330
EA6E5BDE2
100
AcDbEntity
  8
0
 62
     0
100
AcDbLine
 10
11.59999999999999
 20
14.83645796504525
 30
0.0
 11
11.59999999999999
 21
16.36467176564513
 31
0.0
  0
LINE
  5
EA6E5BE06
330
EA6E5BDE2
100
AcDbEntity
  8
0
 62
     0
100
AcDbLine
 10
11.59999999999999
 20
8.385328234354862
 30
0.0
 11
11.59999999999999
 21
9.913542034954735
 31
0.0
  0
LINE
  5
EA6E5BE07
330
EA6E5BDE2
100
AcDbEntity
  8
0
 62
     0
100
AcDbLine
 10
11.4
 20
0.5759857646525575
 30
0.0
 11
11.4
 21
1.579812441286875
 31
0.0
  0
LINE
  5
EA6E5BE08
330
EA6E5BDE2
100
AcDbEntity
  8
0
 62
     0
100
AcDbLine
 10
11.4
 20
16.42018755871312
 30
0.0
 11
11.4
 21
17.42401423534744
 31
0.0
  0
LINE
  5
EA6E5BE09
330
EA6E5BDE2
100
AcDbEntity
  8
0
 62
     0
100
AcDbLine
 10
11.4
 20
1.677268574155954
 30
0.0
 11
11.4
 21
3.214520049132957
 31
0.0
  0
LINE
  5
EA6E5BE0A
330
EA6E5BDE2
100
AcDbEntity
  8
0
 62
     0
100
AcDbLine
 10
11.4
 20
14.78547995086702
 30
0.0
 11
11.4
 21
16.32273142584404
 31
0.0
  0
LINE
  5
EA6E5BE0B
330
EA6E5BDE2
100
AcDbEntity
  8
0
 62
     0
100
AcDbLine
 10
11.4
 20
8.427268574155956
 30
0.0
 11
11.4
 21
9.964520049132961
 31
0.0
  0
LINE
  5
EA6E5BE0C
330
EA6E5BDE2
100
AcDbEntity
  8
0
 62
     0
100
AcDbLine
 10
11.19999999999999
 20
0.5962272975137566
 30
0.0
 11
11.19999999999999
 21
1.601079641035706
 31
0.0
  0
LINE
  5
EA6E5BE0D
330
EA6E5BDE2
100
AcDbEntity
  8
0
 62
     0
100
AcDbLine
 10
11.19999999999999
 20
16.39892035896429
 30
0.0
 11
11.19999999999999
 21
17.40377270248623
 31
0.0
  0
LINE
  5
EA6E5BE0E
330
EA6E5BDE2
100
AcDbEntity
  8
0
 62
     0
100
AcDbLine
 10
11.19999999999999
 20
1.725101116855704
 30
0.0
 11
11.19999999999999
 21
3.274470700593997
 31
0.0
  0
LINE
  5
EA6E5BE0F
330
EA6E5BDE2
100
AcDbEntity
  8
0
 62
     0
100
AcDbLine
 10
11.19999999999999
 20
14.72552929940599
 30
0.0
 11
11.19999999999999
 21
16.27489888314428
 31
0.0
  0
LINE
  5
EA6E5BE10
330
EA6E5BDE2
100
AcDbEntity
  8
0
 62
     0
100
AcDbLine
 10
11.19999999999999
 20
8.475101116855702
 30
0.0
 11
11.19999999999999
 21
10.02447070059399
 31
0.0
  0
LINE
  5
EA6E5BE11
330
EA6E5BDE2
100
AcDbEntity
  8
0
 62
     0
100
AcDbLine
 10
11.0
 20
0.6188791091165271
 30
0.0
 11
11.0
 21
1.624882416121604
 31
0.0
  0
LINE
  5
EA6E5BE12
330
EA6E5BDE2
100
AcDbEntity
  8
0
 62
     0
100
AcDbLine
 10
11.0
 20
16.37511758387839
 30
0.0
 11
11.0
 21
17.38112089088347
 31
0.0
  0
LINE
  5
EA6E5BE13
330
EA6E5BDE2
100
AcDbEntity
  8
0
 62
     0
100
AcDbLine
 10
11.0
 20
1.778946127801587
 30
0.0
 11
11.0
 21
3.345224713883404
 31
0.0
  0
LINE
  5
EA6E5BE14
330
EA6E5BDE2
100
AcDbEntity
  8
0
 62
     0
100
AcDbLine
 10
11.0
 20
14.65477528611659
 30
0.0
 11
11.0
 21
16.22105387219841
 31
0.0
  0
LINE
  5
EA6E5BE15
330
EA6E5BDE2
100
AcDbEntity
  8
0
 62
     0
100
AcDbLine
 10
11.0
 20
8.528946127801587
 30
0.0
 11
11.0
 21
10.0952247138834
 31
0.0
  0
LINE
  5
EA6E5BE16
330
EA6E5BDE2
100
AcDbEntity
  8
0
 62
     0
100
AcDbLine
 10
10.8
 20
0.6439509843066205
 30
0.0
 11
10.8
 21
1.651232135250402
 31
0.0
  0
LINE
  5
EA6E5BE17
330
EA6E5BDE2
100
AcDbEntity
  8
0
 62
     0
100
AcDbLine
 10
10.8
 20
16.34876786474959
 30
0.0
 11
10.8
 21
17.35604901569336
 31
0.0
  0
LINE
  5
EA6E5BE18
330
EA6E5BDE2
100
AcDbEntity
  8
0
 62
     0
100
AcDbLine
 10
10.8
 20
1.838965527600105
 30
0.0
 11
10.8
 21
3.427362928229201
 31
0.0
  0
LINE
  5
EA6E5BE19
330
EA6E5BDE2
100
AcDbEntity
  8
0
 62
     0
100
AcDbLine
 10
10.8
 20
14.57263707177079
 30
0.0
 11
10.8
 21
16.16103447239989
 31
0.0
  0
LINE
  5
EA6E5BE1A
330
EA6E5BDE2
100
AcDbEntity
  8
0
 62
     0
100
AcDbLine
 10
10.8
 20
8.588965527600102
 30
0.0
 11
10.8
 21
10.17736292822919
 31
0.0
  0
LINE
  5
EA6E5BE1B
330
EA6E5BDE2
100
AcDbEntity
  8
0
 62
     0
100
AcDbLine
 10
10.6
 20
0.6714538151807618
 30
0.0
 11
10.6
 21
1.680141463018063
 31
0.0
  0
LINE
  5
EA6E5BE1C
330
EA6E5BDE2
100
AcDbEntity
  8
0
 62
     0
100
AcDbLine
 10
10.6
 20
16.31985853698194
 30
0.0
 11
10.6
 21
17.32854618481924
 31
0.0
  0
LINE
  5
EA6E5BE1D
330
EA6E5BDE2
100
AcDbEntity
  8
0
 62
     0
100
AcDbLine
 10
10.6
 20
1.906497453997511
 30
0.0
 11
10.6
 21
3.521613256092562
 31
0.0
  0
LINE
  5
EA6E5BE1E
330
EA6E5BDE2
100
AcDbEntity
  8
0
 62
     0
100
AcDbLine
 10
10.6
 20
14.47838674390743
 30
0.0
 11
10.6
 21
16.09350254600249
 31
0.0
  0
LINE
  5
EA6E5BE1F
330
EA6E5BDE2
100
AcDbEntity
  8
0
 62
     0
100
AcDbLine
 10
10.6
 20
8.656497453997507
 30
0.0
 11
10.6
 21
10.27161325609256
 31
0.0
  0
LINE
  5
EA6E5BE20
330
EA6E5BDE2
100
AcDbEntity
  8
0
 62
     0
100
AcDbLine
 10
10.4
 20
0.7013996252478309
 30
0.0
 11
10.4
 21
1.711624391057782
 31
0.0
  0
LINE
  5
EA6E5BE21
330
EA6E5BDE2
100
AcDbEntity
  8
0
 62
     0
100
AcDbLine
 10
10.4
 20
16.28837560894221
 30
0.0
 11
10.4
 21
17.29860037475216
 31
0.0
  0
LINE
  5
EA6E5BE22
330
EA6E5BDE2
100
AcDbEntity
  8
0
 62
     0
100
AcDbLine
 10
10.4
 20
1.982488280859818
 30
0.0
 11
10.4
 21
3.628889777131711
 31
0.0
  0
LINE
  5
EA6E5BE23
330
EA6E5BDE2
100
AcDbEntity
  8
0
 62
     0
100
AcDbLine
 10
10.4
 20
14.37111022286828
 30
0.0
 11
10.4
 21
16.01751171914017
 31
0.0
  0
LINE
  5
EA6E5BE24
330
EA6E5BDE2
100
AcDbEntity
  8
0
 62
     0
100
AcDbLine
 10
10.4
 20
8.732488280859815
 30
0.0
 11
10.4
 21
10.37888977713171
 31
0.0
  0
LINE
  5
EA6E5BE25
330
EA6E5BDE2
100
AcDbEntity
  8
0
 62
     0
100
AcDbLine
 10
10.2
 20
0.7338015963764449
 30
0.0
 11
10.2
 21
1.745696272844693
 31
0.0
  0
LINE
  5
EA6E5BE26
330
EA6E5BDE2
100
AcDbEntity
  8
0
 62
     0
100
AcDbLine
 10
10.2
 20
16.2543037271553
 30
0.0
 11
10.2
 21
17.26619840362355
 31
0.0
  0
LINE
  5
EA6E5BE27
330
EA6E5BDE2
100
AcDbEntity
  8
0
 62
     0
100
AcDbLine
 10
10.2
 20
2.067310355584581
 30
0.0
 11
10.2
 21
3.750348873208846
 31
0.0
  0
LINE
  5
EA6E5BE28
330
EA6E5BDE2
100
AcDbEntity
  8
0
 62
     0
100
AcDbLine
 10
10.2
 20
14.24965112679115
 30
0.0
 11
10.2
 21
15.93268964441541
 31
0.0
  0
LINE
  5
EA6E5BE29
330
EA6E5BDE2
100
AcDbEntity
  8
0
 62
     0
100
AcDbLine
 10
10.2
 20
8.817310355584577
 30
0.0
 11
10.2
 21
10.50034887320884
 31
0.0
  0
LINE
  5
EA6E5BE2A
330
EA6E5BDE2
100
AcDbEntity
  8
0
 62
     0
100
AcDbLine
 10
10.0
 20
0.7686740986732376
 30
0.0
 11
10.0
 21
1.782373862365612
 31
0.0
  0
LINE
  5
EA6E5BE2B
330
EA6E5BDE2
100
AcDbEntity
  8
0
 62
     0
100
AcDbLine
 10
10.0
 20
16.21762613763437
 30
0.0
 11
10.0
 21
17.23132590132675
 31
0.0
  0
LINE
  5
EA6E5BE2C
330
EA6E5BDE2
100
AcDbEntity
  8
0
 62
     0
100
AcDbLine
 10
10.0
 20
2.16140561915966
 30
0.0
 11
10.0
 21
3.890156991938432
 31
0.0
  0
LINE
  5
EA6E5BE2D
330
EA6E5BDE2
100
AcDbEntity
  8
0
 62
     0
100
AcDbLine
 10
10.0
 20
14.10984300806157
 30
0.0
 11
10.0
 21
15.83859438084034
 31
0.0
  0
LINE
  5
EA6E5BE2E
330
EA6E5BDE2
100
AcDbEntity
  8
0
 62
     0
100
AcDbLine
 10
10.0
 20
5.004798018908181
 30
0.0
 11
10.0
 21
6.004798018908182
 31
0.0
  0
LINE
  5
EA6E5BE2F
330
EA6E5BDE2
100
AcDbEntity
  8
0
 62
     0
100
AcDbLine
 10
10.0
 20
8.911405619159657
 30
0.0
 11
10.0
 21
10.64015699193842
 31
0.0
  0
LINE
  5
EA6E5BE30
330
EA6E5BDE2
100
AcDbEntity
  8
0
 62
     0
100
AcDbLine
 10
9.8
 20
0.8060327234544644
 30
0.0
 11
9.8
 21
1.821675356888276
 31
0.0
  0
LINE
  5
EA6E5BE31
330
EA6E5BDE2
100
AcDbEntity
  8
0
 62
     0
100
AcDbLine
 10
9.8
 20
16.17832464311171
 30
0.0
 11
9.8
 21
17.19396727654553
 31
0.0
  0
LINE
  5
EA6E5BE32
330
EA6E5BDE2
100
AcDbEntity
  8
0
 62
     0
100
AcDbLine
 10
9.8
 20
2.265299594642037
 30
0.0
 11
9.8
 21
4.056258282395599
 31
0.0
  0
LINE
  5
EA6E5BE33
330
EA6E5BDE2
100
AcDbEntity
  8
0
 62
     0
100
AcDbLine
 10
9.8
 20
13.9437417176044
 30
0.0
 11
9.8
 21
15.73470040535796
 31
0.0
  0
LINE
  5
EA6E5BE34
330
EA6E5BDE2
100
AcDbEntity
  8
0
 62
     0
100
AcDbLine
 10
9.8
 20
5.004798018908181
 30
0.0
 11
9.8
 21
6.004798018908182
 31
0.0
  0
LINE
  5
EA6E5BE35
330
EA6E5BDE2
100
AcDbEntity
  8
0
 62
     0
100
AcDbLine
 10
9.8
 20
9.015299594642034
 30
0.0
 11
9.8
 21
10.80625828239559
 31
0.0
  0
LINE
  5
EA6E5BE36
330
EA6E5BDE2
100
AcDbEntity
  8
0
 62
     0
100
AcDbLine
 10
9.599999999999999
 20
0.8458943194931476
 30
0.0
 11
9.599999999999999
 21
1.863620444093796
 31
0.0
  0
LINE
  5
EA6E5BE37
330
EA6E5BDE2
100
AcDbEntity
  8
0
 62
     0
100
AcDbLine
 10
9.599999999999999
 20
16.13637955590619
 30
0.0
 11
9.599999999999999
 21
17.15410568050685
 31
0.0
  0
LINE
  5
EA6E5BE38
330
EA6E5BDE2
100
AcDbEntity
  8
0
 62
     0
100
AcDbLine
 10
9.599999999999999
 20
2.379619810236111
 30
0.0
 11
9.599999999999999
 21
4.255129338783956
 31
0.0
  0
LINE
  5
EA6E5BE39
330
EA6E5BDE2
100
AcDbEntity
  8
0
 62
     0
100
AcDbLine
 10
9.599999999999999
 20
13.74487066121605
 30
0.0
 11
9.599999999999999
 21
15.62038018976388
 31
0.0
  0
LINE
  5
EA6E5BE3A
330
EA6E5BDE2
100
AcDbEntity
  8
0
 62
     0
100
AcDbLine
 10
9.599999999999999
 20
5.004798018908181
 30
0.0
 11
9.600000000000003
 21
6.004798018908182
 31
0.0
  0
LINE
  5
EA6E5BE3B
330
EA6E5BDE2
100
AcDbEntity
  8
0
 62
     0
100
AcDbLine
 10
9.599999999999999
 20
9.129619810236112
 30
0.0
 11
9.599999999999999
 21
11.00512933878394
 31
0.0
  0
LINE
  5
EA6E5BE3C
330
EA6E5BDE2
100
AcDbEntity
  8
0
 62
     0
100
AcDbLine
 10
9.4
 20
0.8882770327457548
 30
0.0
 11
9.4
 21
1.908230353869035
 31
0.0
  0
LINE
  5
EA6E5BE3D
330
EA6E5BDE2
100
AcDbEntity
  8
0
 62
     0
100
AcDbLine
 10
9.4
 20
16.09176964613095
 30
0.0
 11
9.4
 21
17.11172296725424
 31
0.0
  0
LINE
  5
EA6E5BE3E
330
EA6E5BDE2
100
AcDbEntity
  8
0
 62
     0
100
AcDbLine
 10
9.4
 20
2.505120428334417
 30
0.0
 11
9.4
 21
4.497576932367894
 31
0.0
  0
LINE
  5
EA6E5BE3F
330
EA6E5BDE2
100
AcDbEntity
  8
0
 62
     0
100
AcDbLine
 10
9.4
 20
13.5024230676321
 30
0.0
 11
9.4
 21
15.49487957166558
 31
0.0
  0
LINE
  5
EA6E5BE40
330
EA6E5BDE2
100
AcDbEntity
  8
0
 62
     0
100
AcDbLine
 10
9.4
 20
5.004798018908181
 30
0.0
 11
9.4
 21
6.004798018908182
 31
0.0
  0
LINE
  5
EA6E5BE41
330
EA6E5BDE2
100
AcDbEntity
  8
0
 62
     0
100
AcDbLine
 10
9.4
 20
9.255120428334413
 30
0.0
 11
9.4
 21
11.24757693236789
 31
0.0
  0
LINE
  5
EA6E5BE42
330
EA6E5BDE2
100
AcDbEntity
  8
0
 62
     0
100
AcDbLine
 10
9.199999999999999
 20
0.9332003497861832
 30
0.0
 11
9.199999999999999
 21
1.955527915091238
 31
0.0
  0
LINE
  5
EA6E5BE43
330
EA6E5BDE2
100
AcDbEntity
  8
0
 62
     0
100
AcDbLine
 10
9.199999999999999
 20
16.04447208490875
 30
0.0
 11
9.199999999999999
 21
17.06679965021381
 31
0.0
  0
LINE
  5
EA6E5BE44
330
EA6E5BDE2
100
AcDbEntity
  8
0
 62
     0
100
AcDbLine
 10
9.199999999999999
 20
2.642715771748799
 30
0.0
 11
9.199999999999999
 21
4.809644645891883
 31
0.0
  0
LINE
  5
EA6E5BE45
330
EA6E5BDE2
100
AcDbEntity
  8
0
 62
     0
100
AcDbLine
 10
9.199999999999999
 20
13.19035535410812
 30
0.0
 11
9.199999999999999
 21
15.3572842282512
 31
0.0
  0
LINE
  5
EA6E5BE46
330
EA6E5BDE2
100
AcDbEntity
  8
0
 62
     0
100
AcDbLine
 10
9.199999999999999
 20
5.004798018908181
 30
0.0
 11
9.199999999999999
 21
6.004798018908182
 31
0.0
  0
LINE
  5
EA6E5BE47
330
EA6E5BDE2
100
AcDbEntity
  8
0
 62
     0
100
AcDbLine
 10
9.199999999999999
 20
9.392715771748797
 30
0.0
 11
9.199999999999999
 21
11.55964464589189
 31
0.0
  0
LINE
  5
EA6E5BE48
330
EA6E5BDE2
100
AcDbEntity
  8
0
 62
     0
100
AcDbLine
 10
9.0
 20
0.9806851452009935
 30
0.0
 11
9.0
 21
2.005537617777612
 31
0.0
  0
LINE
  5
EA6E5BE49
330
EA6E5BDE2
100
AcDbEntity
  8
0
 62
     0
100
AcDbLine
 10
9.0
 20
15.99446238222238
 30
0.0
 11
9.0
 21
17.01931485479899
 31
0.0
  0
LINE
  5
EA6E5BE4A
330
EA6E5BDE2
100
AcDbEntity
  8
0
 62
     0
100
AcDbLine
 10
9.0
 20
2.794145186405889
 30
0.0
 11
9.0
 21
6.004798018908182
 31
0.0
  0
LINE
  5
EA6E5BE4B
330
EA6E5BDE2
100
AcDbEntity
  8
0
 62
     0
100
AcDbLine
 10
9.0
 20
9.5441451864059
 30
0.0
 11
9.0
 21
15.20604659134991
 31
0.0
  0
LINE
  5
EA6E5BE4C
330
EA6E5BDE2
100
AcDbEntity
  8
0
 62
     0
100
AcDbLine
 10
8.8
 20
1.030753733228884
 30
0.0
 11
8.8
 21
2.058285681017128
 31
0.0
  0
LINE
  5
EA6E5BE4D
330
EA6E5BDE2
100
AcDbEntity
  8
0
 62
     0
100
AcDbLine
 10
8.8
 20
15.94171431898286
 30
0.0
 11
8.8
 21
16.96924626677111
 31
0.0
  0
LINE
  5
EA6E5BE4E
330
EA6E5BDE2
100
AcDbEntity
  8
0
 62
     0
100
AcDbLine
 10
8.8
 20
2.964241435429821
 30
0.0
 11
8.8
 21
6.004798018908182
 31
0.0
  0
LINE
  5
EA6E5BE4F
330
EA6E5BDE2
100
AcDbEntity
  8
0
 62
     0
100
AcDbLine
 10
8.8
 20
9.71424143542983
 30
0.0
 11
8.8
 21
15.03741403325012
 31
0.0
  0
LINE
  5
EA6E5BE50
330
EA6E5BDE2
100
AcDbEntity
  8
0
 62
     0
100
AcDbLine
 10
8.599999999999999
 20
1.083429923959655
 30
0.0
 11
8.599999999999999
 21
2.113812192151339
 31
0.0
  0
LINE
  5
EA6E5BE51
330
EA6E5BDE2
100
AcDbEntity
  8
0
 62
     0
100
AcDbLine
 10
8.599999999999999
 20
15.88618780784866
 30
0.0
 11
8.599999999999999
 21
16.91657007604034
 31
0.0
  0
LINE
  5
EA6E5BE52
330
EA6E5BDE2
100
AcDbEntity
  8
0
 62
     0
100
AcDbLine
 10
8.599999999999999
 20
3.156508117249325
 30
0.0
 11
8.599999999999999
 21
6.004798018908182
 31
0.0
  0
LINE
  5
EA6E5BE53
330
EA6E5BDE2
100
AcDbEntity
  8
0
 62
     0
100
AcDbLine
 10
8.599999999999999
 20
9.906508117249334
 30
0.0
 11
8.599999999999999
 21
14.84847420540885
 31
0.0
  0
LINE
  5
EA6E5BE54
330
EA6E5BDE2
100
AcDbEntity
  8
0
 62
     0
100
AcDbLine
 10
8.4
 20
1.138739084443542
 30
0.0
 11
8.4
 21
2.172812631433949
 31
0.0
  0
LINE
  5
EA6E5BE55
330
EA6E5BDE2
100
AcDbEntity
  8
0
 62
     0
100
AcDbLine
 10
8.4
 20
15.82718736856604
 30
0.0
 11
8.4
 21
16.86126091555645
 31
0.0
  0
LINE
  5
EA6E5BE56
330
EA6E5BDE2
100
AcDbEntity
  8
0
 62
     0
100
AcDbLine
 10
8.4
 20
3.375383199960236
 30
0.0
 11
8.4
 21
6.004798018908182
 31
0.0
  0
LINE
  5
EA6E5BE57
330
EA6E5BDE2
100
AcDbEntity
  8
0
 62
     0
100
AcDbLine
 10
8.4
 20
10.12538319996024
 30
0.0
 11
8.4
 21
14.63557161972996
 31
0.0
  0
LINE
  5
EA6E5BE58
330
EA6E5BDE2
100
AcDbEntity
  8
0
 62
     0
100
AcDbLine
 10
8.200000000000001
 20
1.196733304907503
 30
0.0
 11
8.200000000000001
 21
2.235722402390244
 31
0.0
  0
LINE
  5
EA6E5BE59
330
EA6E5BDE2
100
AcDbEntity
  8
0
 62
     0
100
AcDbLine
 10
8.200000000000001
 20
15.76427759760974
 30
0.0
 11
8.200000000000001
 21
16.80326669509248
 31
0.0
  0
LINE
  5
EA6E5BE5A
330
EA6E5BDE2
100
AcDbEntity
  8
0
 62
     0
100
AcDbLine
 10
8.200000000000001
 20
3.627508786341501
 30
0.0
 11
8.200000000000001
 21
6.004798018908182
 31
0.0
  0
LINE
  5
EA6E5BE5B
330
EA6E5BDE2
100
AcDbEntity
  8
0
 62
     0
100
AcDbLine
 10
8.200000000000001
 20
10.3775087863415
 30
0.0
 11
8.200000000000001
 21
14.3934422666304
 31
0.0
  0
LINE
  5
EA6E5BE5C
330
EA6E5BDE2
100
AcDbEntity
  8
0
 62
     0
100
AcDbLine
 10
8.0
 20
1.258070209803342
 30
0.0
 11
8.0
 21
2.302608253196726
 31
0.0
  0
LINE
  5
EA6E5BE5D
330
EA6E5BDE2
100
AcDbEntity
  8
0
 62
     0
100
AcDbLine
 10
8.0
 20
15.69739174680327
 30
0.0
 11
8.0
 21
16.74192979019665
 31
0.0
  0
LINE
  5
EA6E5BE5E
330
EA6E5BDE2
100
AcDbEntity
  8
0
 62
     0
100
AcDbLine
 10
8.0
 20
3.923649376593718
 30
0.0
 11
8.0
 21
6.004798018908182
 31
0.0
  0
LINE
  5
EA6E5BE5F
330
EA6E5BDE2
100
AcDbEntity
  8
0
 62
     0
100
AcDbLine
 10
8.0
 20
10.67364937659373
 30
0.0
 11
8.0
 21
14.11401235389756
 31
0.0
  0
LINE
  5
EA6E5BE60
330
EA6E5BDE2
100
AcDbEntity
  8
0
 62
     0
100
AcDbLine
 10
7.799999999999999
 20
1.323072197862593
 30
0.0
 11
7.799999999999999
 21
2.373542828567604
 31
0.0
  0
LINE
  5
EA6E5BE61
330
EA6E5BDE2
100
AcDbEntity
  8
0
 62
     0
100
AcDbLine
 10
7.799999999999999
 20
15.62645717143239
 30
0.0
 11
7.799999999999999
 21
16.6769278021374
 31
0.0
  0
LINE
  5
EA6E5BE62
330
EA6E5BDE2
100
AcDbEntity
  8
0
 62
     0
100
AcDbLine
 10
7.799999999999999
 20
4.287684463111761
 30
0.0
 11
7.800000000000001
 21
6.004798018908182
 31
0.0
  0
LINE
  5
EA6E5BE63
330
EA6E5BDE2
100
AcDbEntity
  8
0
 62
     0
100
AcDbLine
 10
7.799999999999999
 20
11.03768446311176
 30
0.0
 11
7.799999999999999
 21
13.78369552143277
 31
0.0
  0
LINE
  5
EA6E5BE64
330
EA6E5BDE2
100
AcDbEntity
  8
0
 62
     0
100
AcDbLine
 10
7.599999999999999
 20
1.391799481934756
 30
0.0
 11
7.599999999999999
 21
2.448605117969133
 31
0.0
  0
LINE
  5
EA6E5BE65
330
EA6E5BDE2
100
AcDbEntity
  8
0
 62
     0
100
AcDbLine
 10
7.599999999999999
 20
15.55139488203086
 30
0.0
 11
7.599999999999999
 21
16.60820051806523
 31
0.0
  0
LINE
  5
EA6E5BE66
330
EA6E5BDE2
100
AcDbEntity
  8
0
 62
     0
100
AcDbLine
 10
7.599999999999999
 20
4.840055661165997
 30
0.0
 11
7.599999999999999
 21
6.004798018908182
 31
0.0
  0
LINE
  5
EA6E5BE67
330
EA6E5BDE2
100
AcDbEntity
  8
0
 62
     0
100
AcDbLine
 10
7.599999999999999
 20
11.590055661166
 30
0.0
 11
7.599999999999999
 21
13.31037280736468
 31
0.0
  0
LINE
  5
EA6E5BE68
330
EA6E5BDE2
100
AcDbEntity
  8
0
 62
     0
100
AcDbLine
 10
7.4
 20
1.464317169370111
 30
0.0
 11
7.4
 21
2.527880961894759
 31
0.0
  0
LINE
  5
EA6E5BE69
330
EA6E5BDE2
100
AcDbEntity
  8
0
 62
     0
100
AcDbLine
 10
7.4
 20
15.47211903810524
 30
0.0
 11
7.4
 21
16.53568283062988
 31
0.0
  0
LINE
  5
EA6E5BE6A
330
EA6E5BDE2
100
AcDbEntity
  8
0
 62
     0
100
AcDbLine
 10
7.4
 20
5.010858141058445
 30
0.0
 11
7.4
 21
6.004798018908182
 31
0.0
  0
LINE
  5
EA6E5BE6B
330
EA6E5BDE2
100
AcDbEntity
  8
0
 62
     0
100
AcDbLine
 10
7.2
 20
1.54069561439672
 30
0.0
 11
7.2
 21
2.611463624641877
 31
0.0
  0
LINE
  5
EA6E5BE6C
330
EA6E5BDE2
100
AcDbEntity
  8
0
 62
     0
100
AcDbLine
 10
7.2
 20
15.38853637535811
 30
0.0
 11
7.2
 21
16.45930438560327
 31
0.0
  0
LINE
  5
EA6E5BE6D
330
EA6E5BDE2
100
AcDbEntity
  8
0
 62
     0
100
AcDbLine
 10
7.2
 20
5.009318556112756
 30
0.0
 11
7.2
 21
6.004798018908182
 31
0.0
  0
LINE
  5
EA6E5BE6E
330
EA6E5BDE2
100
AcDbEntity
  8
0
 62
     0
100
AcDbLine
 10
7.0
 20
1.621010812927075
 30
0.0
 11
7.0
 21
2.699454443607051
 31
0.0
  0
LINE
  5
EA6E5BE6F
330
EA6E5BDE2
100
AcDbEntity
  8
0
 62
     0
100
AcDbLine
 10
7.0
 20
15.30054555639295
 30
0.0
 11
7.0
 21
16.37898918707292
 31
0.0
  0
LINE
  5
EA6E5BE70
330
EA6E5BDE2
100
AcDbEntity
  8
0
 62
     0
100
AcDbLine
 10
7.0
 20
5.007778971167066
 30
0.0
 11
7.0
 21
6.004798018908182
 31
0.0
  0
LINE
  5
EA6E5BE71
330
EA6E5BDE2
100
AcDbEntity
  8
0
 62
     0
100
AcDbLine
 10
6.799999999999999
 20
1.705344845571651
 30
0.0
 11
6.799999999999999
 21
2.791963567034779
 31
0.0
  0
LINE
  5
EA6E5BE72
330
EA6E5BDE2
100
AcDbEntity
  8
0
 62
     0
100
AcDbLine
 10
6.799999999999999
 20
15.20803643296522
 30
0.0
 11
6.799999999999999
 21
16.29465515442833
 31
0.0
  0
LINE
  5
EA6E5BE73
330
EA6E5BDE2
100
AcDbEntity
  8
0
 62
     0
100
AcDbLine
 10
6.799999999999999
 20
5.006239386221376
 30
0.0
 11
6.800000000000001
 21
6.004798018908182
 31
0.0
  0
LINE
  5
EA6E5BE74
330
EA6E5BDE2
100
AcDbEntity
  8
0
 62
     0
100
AcDbLine
 10
6.599999999999999
 20
1.793786375640561
 30
0.0
 11
6.599999999999999
 21
2.889110794503253
 31
0.0
  0
LINE
  5
EA6E5BE75
330
EA6E5BDE2
100
AcDbEntity
  8
0
 62
     0
100
AcDbLine
 10
6.599999999999999
 20
15.11088920549675
 30
0.0
 11
6.599999999999999
 21
16.20621362435944
 31
0.0
  0
LINE
  5
EA6E5BE76
330
EA6E5BDE2
100
AcDbEntity
  8
0
 62
     0
100
AcDbLine
 10
6.4
 20
1.886431210121016
 30
0.0
 11
6.4
 21
2.991026537321893
 31
0.0
  0
LINE
  5
EA6E5BE77
330
EA6E5BDE2
100
AcDbEntity
  8
0
 62
     0
100
AcDbLine
 10
6.4
 20
15.00897346267811
 30
0.0
 11
6.4
 21
16.11356878987898
 31
0.0
  0
LINE
  5
EA6E5BE78
330
EA6E5BDE2
100
AcDbEntity
  8
0
 62
     0
100
AcDbLine
 10
6.2
 20
1.983382933076159
 30
0.0
 11
6.2
 21
3.097852919598746
 31
0.0
  0
LINE
  5
EA6E5BE79
330
EA6E5BDE2
100
AcDbEntity
  8
0
 62
     0
100
AcDbLine
 10
6.2
 20
14.90214708040125
 30
0.0
 11
6.2
 21
16.01661706692383
 31
0.0
  0
LINE
  5
EA6E5BE7A
330
EA6E5BDE2
100
AcDbEntity
  8
0
 62
     0
100
AcDbLine
 10
6.0
 20
2.084753622680731
 30
0.0
 11
6.0
 21
3.209745045204609
 31
0.0
  0
LINE
  5
EA6E5BE7B
330
EA6E5BDE2
100
AcDbEntity
  8
0
 62
     0
100
AcDbLine
 10
6.0
 20
14.79025495479539
 30
0.0
 11
6.0
 21
15.91524637731926
 31
0.0
  0
LINE
  5
EA6E5BE7C
330
EA6E5BDE2
100
AcDbEntity
  8
0
 62
     0
100
AcDbLine
 10
5.799999999999999
 20
2.190664665270343
 30
0.0
 11
5.799999999999999
 21
3.326872461473611
 31
0.0
  0
LINE
  5
EA6E5BE7D
330
EA6E5BDE2
100
AcDbEntity
  8
0
 62
     0
100
AcDbLine
 10
5.799999999999999
 20
14.67312753852638
 30
0.0
 11
5.799999999999999
 21
15.80933533472965
 31
0.0
  0
LINE
  5
EA6E5BE7E
330
EA6E5BDE2
100
AcDbEntity
  8
0
 62
     0
100
AcDbLine
 10
5.599999999999999
 20
2.301247682434635
 30
0.0
 11
5.599999999999999
 21
3.449420857581046
 31
0.0
  0
LINE
  5
EA6E5BE7F
330
EA6E5BDE2
100
AcDbEntity
  8
0
 62
     0
100
AcDbLine
 10
5.599999999999999
 20
14.55057914241896
 30
0.0
 11
5.599999999999999
 21
15.69875231756537
 31
0.0
  0
LINE
  5
EA6E5BE80
330
EA6E5BDE2
100
AcDbEntity
  8
0
 62
     0
100
AcDbLine
 10
5.4
 20
2.416645590462048
 30
0.0
 11
5.4
 21
3.577594044593456
 31
0.0
  0
LINE
  5
EA6E5BE81
330
EA6E5BDE2
100
AcDbEntity
  8
0
 62
     0
100
AcDbLine
 10
5.4
 20
14.42240595540654
 30
0.0
 11
5.4
 21
15.58335440953795
 31
0.0
  0
LINE
  5
EA6E5BE82
330
EA6E5BDE2
100
AcDbEntity
  8
0
 62
     0
100
AcDbLine
 10
5.2
 20
2.53701381551804
 30
0.0
 11
5.2
 21
3.711630126781392
 31
0.0
  0
LINE
  5
EA6E5BE83
330
EA6E5BDE2
100
AcDbEntity
  8
0
 62
     0
100
AcDbLine
 10
5.2
 20
14.28836987321861
 30
0.0
 11
5.2
 21
15.46298618448196
 31
0.0
  0
LINE
  5
EA6E5BE84
330
EA6E5BDE2
100
AcDbEntity
  8
0
 62
     0
100
AcDbLine
 10
5.0
 20
2.662521693035724
 30
0.0
 11
5.0
 21
3.853216504577136
 31
0.0
  0
LINE
  5
EA6E5BE85
330
EA6E5BDE2
100
AcDbEntity
  8
0
 62
     0
100
AcDbLine
 10
5.0
 20
14.14678349542286
 30
0.0
 11
5.0
 21
15.33747830696428
 31
0.0
  0
LINE
  5
EA6E5BE86
330
EA6E5BDE2
100
AcDbEntity
  8
0
 62
     0
100
AcDbLine
 10
4.799999999999999
 20
2.793354086221263
 30
0.0
 11
4.799999999999999
 21
4.003783113073376
 31
0.0
  0
LINE
  5
EA6E5BE87
330
EA6E5BDE2
100
AcDbEntity
  8
0
 62
     0
100
AcDbLine
 10
4.799999999999999
 20
13.99621688692662
 30
0.0
 11
4.799999999999999
 21
15.20664591377872
 31
0.0
  0
LINE
  5
EA6E5BE88
330
EA6E5BDE2
100
AcDbEntity
  8
0
 62
     0
100
AcDbLine
 10
4.599999999999999
 20
2.929713266730669
 30
0.0
 11
4.599999999999999
 21
4.163951885275562
 31
0.0
  0
LINE
  5
EA6E5BE89
330
EA6E5BDE2
100
AcDbEntity
  8
0
 62
     0
100
AcDbLine
 10
4.599999999999999
 20
13.83604811472443
 30
0.0
 11
4.599999999999999
 21
15.07028673326932
 31
0.0
  0
LINE
  5
EA6E5BE8A
330
EA6E5BDE2
100
AcDbEntity
  8
0
 62
     0
100
AcDbLine
 10
4.4
 20
3.072155023749401
 30
0.0
 11
4.4
 21
4.334449219425922
 31
0.0
  0
LINE
  5
EA6E5BE8B
330
EA6E5BDE2
100
AcDbEntity
  8
0
 62
     0
100
AcDbLine
 10
4.4
 20
13.66555078057407
 30
0.0
 11
4.4
 21
14.92784497625058
 31
0.0
  0
LINE
  5
EA6E5BE8C
330
EA6E5BDE2
100
AcDbEntity
  8
0
 62
     0
100
AcDbLine
 10
4.2
 20
3.222522228922893
 30
0.0
 11
4.2
 21
4.516131333158581
 31
0.0
  0
LINE
  5
EA6E5BE8D
330
EA6E5BDE2
100
AcDbEntity
  8
0
 62
     0
100
AcDbLine
 10
4.2
 20
13.4838686668414
 30
0.0
 11
4.2
 21
14.77747777107709
 31
0.0
  0
LINE
  5
EA6E5BE8E
330
EA6E5BDE2
100
AcDbEntity
  8
0
 62
     0
100
AcDbLine
 10
4.0
 20
3.381496362144701
 30
0.0
 11
4.0
 21
4.710018288129922
 31
0.0
  0
LINE
  5
EA6E5BE8F
330
EA6E5BDE2
100
AcDbEntity
  8
0
 62
     0
100
AcDbLine
 10
4.0
 20
13.28998171187007
 30
0.0
 11
4.0
 21
14.6185036378553
 31
0.0
  0
LINE
  5
EA6E5BE90
330
EA6E5BDE2
100
AcDbEntity
  8
0
 62
     0
100
AcDbLine
 10
3.799999999999999
 20
3.549655387637881
 30
0.0
 11
3.799999999999999
 21
4.917340616816316
 31
0.0
  0
LINE
  5
EA6E5BE91
330
EA6E5BDE2
100
AcDbEntity
  8
0
 62
     0
100
AcDbLine
 10
3.799999999999999
 20
13.08265938318368
 30
0.0
 11
3.799999999999999
 21
14.4503446123621
 31
0.0
  0
LINE
  5
EA6E5BE92
330
EA6E5BDE2
100
AcDbEntity
  8
0
 62
     0
100
AcDbLine
 10
3.6
 20
3.727668483578981
 30
0.0
 11
3.6
 21
5.139604787888837
 31
0.0
  0
LINE
  5
EA6E5BE93
330
EA6E5BDE2
100
AcDbEntity
  8
0
 62
     0
100
AcDbLine
 10
3.6
 20
12.86039521211116
 30
0.0
 11
3.6
 21
14.27233151642101
 31
0.0
  0
LINE
  5
EA6E5BE94
330
EA6E5BDE2
100
AcDbEntity
  8
0
 62
     0
100
AcDbLine
 10
3.399999999999999
 20
3.916316932017076
 30
0.0
 11
3.399999999999999
 21
5.378687769154121
 31
0.0
  0
LINE
  5
EA6E5BE95
330
EA6E5BDE2
100
AcDbEntity
  8
0
 62
     0
100
AcDbLine
 10
3.399999999999999
 20
12.62131223084586
 30
0.0
 11
3.399999999999999
 21
14.08368306798291
 31
0.0
  0
LINE
  5
EA6E5BE96
330
EA6E5BDE2
100
AcDbEntity
  8
0
 62
     0
100
AcDbLine
 10
3.2
 20
4.116521701929555
 30
0.0
 11
3.2
 21
5.63697830289019
 31
0.0
  0
LINE
  5
EA6E5BE97
330
EA6E5BDE2
100
AcDbEntity
  8
0
 62
     0
100
AcDbLine
 10
3.2
 20
12.36302169710981
 30
0.0
 11
3.2
 21
13.88347829807043
 31
0.0
  0
LINE
  5
EA6E5BE98
330
EA6E5BDE2
100
AcDbEntity
  8
0
 62
     0
100
AcDbLine
 10
3.0
 20
4.329380554923221
 30
0.0
 11
3.0
 21
5.917596726934862
 31
0.0
  0
LINE
  5
EA6E5BE99
330
EA6E5BDE2
100
AcDbEntity
  8
0
 62
     0
100
AcDbLine
 10
3.0
 20
12.08240327306513
 30
0.0
 11
3.0
 21
13.67061944507678
 31
0.0
  0
LINE
  5
EA6E5BE9A
330
EA6E5BDE2
100
AcDbEntity
  8
0
 62
     0
100
AcDbLine
 10
2.799999999999999
 20
4.556219039421013
 30
0.0
 11
2.799999999999999
 21
6.224754572119449
 31
0.0
  0
LINE
  5
EA6E5BE9B
330
EA6E5BDE2
100
AcDbEntity
  8
0
 62
     0
100
AcDbLine
 10
2.799999999999999
 20
11.77524542788054
 30
0.0
 11
2.799999999999999
 21
13.44378096057899
 31
0.0
  0
LINE
  5
EA6E5BE9C
330
EA6E5BDE2
100
AcDbEntity
  8
0
 62
     0
100
AcDbLine
 10
2.6
 20
4.798662328218999
 30
0.0
 11
2.6
 21
6.572120102877027
 31
0.0
  0
LINE
  5
EA6E5BE9D
330
EA6E5BDE2
100
AcDbEntity
  8
0
 62
     0
100
AcDbLine
 10
2.6
 20
11.42787989712297
 30
0.0
 11
2.6
 21
13.20133767178099
 31
0.0
  0
LINE
  5
EA6E5BE9E
330
EA6E5BDE2
100
AcDbEntity
  8
0
 62
     0
100
AcDbLine
 10
2.399999999999999
 20
5.058739397750326
 30
0.0
 11
2.399999999999999
 21
6.997568012831423
 31
0.0
  0
LINE
  5
EA6E5BE9F
330
EA6E5BDE2
100
AcDbEntity
  8
0
 62
     0
100
AcDbLine
 10
2.399999999999999
 20
11.00243198716857
 30
0.0
 11
2.399999999999999
 21
12.94126060224967
 31
0.0
  0
LINE
  5
EA6E5BEA0
330
EA6E5BDE2
100
AcDbEntity
  8
0
 62
     0
100
AcDbLine
 10
2.2
 20
5.339039409038378
 30
0.0
 11
2.2
 21
7.570011562418093
 31
0.0
  0
LINE
  5
EA6E5BEA1
330
EA6E5BDE2
100
AcDbEntity
  8
0
 62
     0
100
AcDbLine
 10
2.2
 20
10.4299884375819
 30
0.0
 11
2.2
 21
12.66096059096161
 31
0.0
  0
LINE
  5
EA6E5BEA2
330
EA6E5BDE2
100
AcDbEntity
  8
0
 62
     0
100
AcDbLine
 10
2.0
 20
5.642956437377446
 30
0.0
 11
2.0
 21
12.35704356262255
 31
0.0
  0
LINE
  5
EA6E5BEA3
330
EA6E5BDE2
100
AcDbEntity
  8
0
 62
     0
100
AcDbLine
 10
1.8
 20
5.97540056854588
 30
0.0
 11
1.8
 21
12.02459943145411
 31
0.0
  0
LINE
  5
EA6E5BEA4
330
EA6E5BDE2
100
AcDbEntity
  8
0
 62
     0
100
AcDbLine
 10
1.6
 20
6.357813161306637
 30
0.0
 11
1.6
 21
11.64218683869336
 31
0.0
  0
LINE
  5
EA6E5BEA5
330
EA6E5BDE2
100
AcDbEntity
  8
0
 62
     0
100
AcDbLine
 10
1.399999999999999
 20
6.824201098360354
 30
0.0
 11
1.399999999999999
 21
11.17579890163963
 31
0.0
  0
LINE
  5
EA6E5BEA6
330
EA6E5BDE2
100
AcDbEntity
  8
0
 62
     0
100
AcDbLine
 10
1.199999999999999
 20
7.448532813692753
 30
0.0
 11
1.199999999999999
 21
10.55146718630725
 31
0.0
  0
LINE
  5
EA6E5BEA7
330
EA6E5BDE2
100
AcDbEntity
  8
0
 62
     0
100
AcDbLine
 10
13.2
 20
0.5011846473685893
 30
0.0
 11
13.2
 21
1.501244022154416
 31
0.0
  0
LINE
  5
EA6E5BEA8
330
EA6E5BDE2
100
AcDbEntity
  8
0
 62
     0
100
AcDbLine
 10
13.2
 20
16.49875597784558
 30
0.0
 11
13.2
 21
17.49881535263141
 31
0.0
  0
LINE
  5
EA6E5BEA9
330
EA6E5BDE2
100
AcDbEntity
  8
0
 62
     0
100
AcDbLine
 10
13.2
 20
1.502736746385633
 30
0.0
 11
13.2
 21
3.003293554097711
 31
0.0
  0
LINE
  5
EA6E5BEAA
330
EA6E5BDE2
100
AcDbEntity
  8
0
 62
     0
100
AcDbLine
 10
13.2
 20
14.99670644590227
 30
0.0
 11
13.2
 21
16.49726325361435
 31
0.0
  0
LINE
  5
EA6E5BEAB
330
EA6E5BDE2
100
AcDbEntity
  8
0
 62
     0
100
AcDbLine
 10
13.2
 20
8.246706445902287
 30
0.0
 11
13.2
 21
9.747263253614363
 31
0.0
  0
LINE
  5
EA6E5BEAC
330
EA6E5BDE2
100
AcDbEntity
  8
0
 62
     0
100
AcDbLine
 10
13.4
 20
0.5047390883533467
 30
0.0
 11
13.4
 21
1.504976666345426
 31
0.0
  0
LINE
  5
EA6E5BEAD
330
EA6E5BDE2
100
AcDbEntity
  8
0
 62
     0
100
AcDbLine
 10
13.4
 20
16.49502333365457
 30
0.0
 11
13.4
 21
17.49526091164666
 31
0.0
  0
LINE
  5
EA6E5BEAE
330
EA6E5BDE2
100
AcDbEntity
  8
0
 62
     0
100
AcDbLine
 10
13.4
 20
1.510953142904803
 30
0.0
 11
13.4
 21
3.013184954832297
 31
0.0
  0
LINE
  5
EA6E5BEAF
330
EA6E5BDE2
100
AcDbEntity
  8
0
 62
     0
100
AcDbLine
 10
13.4
 20
14.9868150451677
 30
0.0
 11
13.4
 21
16.4890468570952
 31
0.0
  0
LINE
  5
EA6E5BEB0
330
EA6E5BDE2
100
AcDbEntity
  8
0
 62
     0
100
AcDbLine
 10
13.4
 20
8.236815045167702
 30
0.0
 11
13.4
 21
9.739046857095198
 31
0.0
  0
LINE
  5
EA6E5BEB1
330
EA6E5BDE2
100
AcDbEntity
  8
0
 62
     0
100
AcDbLine
 10
13.6
 20
0.5106648206422763
 30
0.0
 11
13.6
 21
1.511199667098658
 31
0.0
  0
LINE
  5
EA6E5BEB2
330
EA6E5BDE2
100
AcDbEntity
  8
0
 62
     0
100
AcDbLine
 10
13.6
 20
16.48880033290133
 30
0.0
 11
13.6
 21
17.48933517935772
 31
0.0
  0
LINE
  5
EA6E5BEB3
330
EA6E5BDE2
100
AcDbEntity
  8
0
 62
     0
100
AcDbLine
 10
13.6
 20
1.524667731119555
 30
0.0
 11
13.6
 21
3.029706593353223
 31
0.0
  0
LINE
  5
EA6E5BEB4
330
EA6E5BDE2
100
AcDbEntity
  8
0
 62
     0
100
AcDbLine
 10
13.6
 20
14.97029340664677
 30
0.0
 11
13.6
 21
16.47533226888044
 31
0.0
  0
LINE
  5
EA6E5BEB5
330
EA6E5BDE2
100
AcDbEntity
  8
0
 62
     0
100
AcDbLine
 10
13.6
 20
8.220293406646776
 30
0.0
 11
13.6
 21
9.725332268880443
 31
0.0
  0
LINE
  5
EA6E5BEB6
330
EA6E5BDE2
100
AcDbEntity
  8
0
 62
     0
100
AcDbLine
 10
13.8
 20
0.5189643438906657
 30
0.0
 11
13.8
 21
1.519915919771853
 31
0.0
  0
LINE
  5
EA6E5BEB7
330
EA6E5BDE2
100
AcDbEntity
  8
0
 62
     0
100
AcDbLine
 10
13.8
 20
16.48008408022814
 30
0.0
 11
13.8
 21
17.48103565610933
 31
0.0
  0
LINE
  5
EA6E5BEB8
330
EA6E5BDE2
100
AcDbEntity
  8
0
 62
     0
100
AcDbLine
 10
13.8
 20
1.543911647054934
 30
0.0
 11
13.8
 21
3.052913047755087
 31
0.0
  0
LINE
  5
EA6E5BEB9
330
EA6E5BDE2
100
AcDbEntity
  8
0
 62
     0
100
AcDbLine
 10
13.8
 20
14.94708695224491
 30
0.0
 11
13.8
 21
16.45608835294505
 31
0.0
  0
LINE
  5
EA6E5BEBA
330
EA6E5BDE2
100
AcDbEntity
  8
0
 62
     0
100
AcDbLine
 10
13.8
 20
8.197086952244912
 30
0.0
 11
13.8
 21
9.706088352945066
 31
0.0
  0
LINE
  5
EA6E5BEBB
330
EA6E5BDE2
100
AcDbEntity
  8
0
 62
     0
100
AcDbLine
 10
14.0
 20
0.5296411650021327
 30
0.0
 11
14.0
 21
1.531129487302989
 31
0.0
  0
LINE
  5
EA6E5BEBC
330
EA6E5BDE2
100
AcDbEntity
  8
0
 62
     0
100
AcDbLine
 10
14.0
 20
16.468870512697
 30
0.0
 11
14.0
 21
17.47035883499786
 31
0.0
  0
LINE
  5
EA6E5BEBD
330
EA6E5BDE2
100
AcDbEntity
  8
0
 62
     0
100
AcDbLine
 10
14.0
 20
1.568728977850379
 30
0.0
 11
14.0
 21
3.08288199648385
 31
0.0
  0
LINE
  5
EA6E5BEBE
330
EA6E5BDE2
100
AcDbEntity
  8
0
 62
     0
100
AcDbLine
 10
14.0
 20
14.91711800351614
 30
0.0
 11
14.0
 21
16.43127102214962
 31
0.0
  0
LINE
  5
EA6E5BEBF
330
EA6E5BDE2
100
AcDbEntity
  8
0
 62
     0
100
AcDbLine
 10
14.0
 20
8.167118003516151
 30
0.0
 11
14.0
 21
9.681271022149623
 31
0.0
  0
LINE
  5
EA6E5BEC0
330
EA6E5BDE2
100
AcDbEntity
  8
0
 62
     0
100
AcDbLine
 10
14.19999999999999
 20
0.5426998055585486
 30
0.0
 11
14.19999999999999
 21
1.544845609709006
 31
0.0
  0
LINE
  5
EA6E5BEC1
330
EA6E5BDE2
100
AcDbEntity
  8
0
 62
     0
100
AcDbLine
 10
14.19999999999999
 20
16.45515439029098
 30
0.0
 11
14.19999999999999
 21
17.45730019444144
 31
0.0
  0
LINE
  5
EA6E5BEC2
330
EA6E5BDE2
100
AcDbEntity
  8
0
 62
     0
100
AcDbLine
 10
14.19999999999999
 20
1.599177274433096
 30
0.0
 11
14.19999999999999
 21
3.119715547134022
 31
0.0
  0
LINE
  5
EA6E5BEC3
330
EA6E5BDE2
100
AcDbEntity
  8
0
 62
     0
100
AcDbLine
 10
14.19999999999999
 20
14.88028445286597
 30
0.0
 11
14.19999999999999
 21
16.4008227255669
 31
0.0
  0
LINE
  5
EA6E5BEC4
330
EA6E5BDE2
100
AcDbEntity
  8
0
 62
     0
100
AcDbLine
 10
14.19999999999999
 20
8.130284452865977
 30
0.0
 11
14.19999999999999
 21
9.650822725566902
 31
0.0
  0
LINE
  5
EA6E5BEC5
330
EA6E5BDE2
100
AcDbEntity
  8
0
 62
     0
100
AcDbLine
 10
14.4
 20
0.5581458114356935
 30
0.0
 11
14.4
 21
1.561070716387185
 31
0.0
  0
LINE
  5
EA6E5BEC6
330
EA6E5BDE2
100
AcDbEntity
  8
0
 62
     0
100
AcDbLine
 10
14.4
 20
16.43892928361282
 30
0.0
 11
14.4
 21
17.44185418856431
 31
0.0
  0
LINE
  5
EA6E5BEC7
330
EA6E5BDE2
100
AcDbEntity
  8
0
 62
     0
100
AcDbLine
 10
14.4
 20
1.635328234354861
 30
0.0
 11
14.4
 21
3.163542034954738
 31
0.0
  0
LINE
  5
EA6E5BEC8
330
EA6E5BDE2
100
AcDbEntity
  8
0
 62
     0
100
AcDbLine
 10
14.4
 20
14.83645796504525
 30
0.0
 11
14.4
 21
16.36467176564514
 31
0.0
  0
LINE
  5
EA6E5BEC9
330
EA6E5BDE2
100
AcDbEntity
  8
0
 62
     0
100
AcDbLine
 10
14.4
 20
8.086457965045266
 30
0.0
 11
14.4
 21
9.614671765645139
 31
0.0
  0
LINE
  5
EA6E5BECA
330
EA6E5BDE2
100
AcDbEntity
  8
0
 62
     0
100
AcDbLine
 10
14.59999999999999
 20
0.5759857646525646
 30
0.0
 11
14.59999999999999
 21
1.579812441286875
 31
0.0
  0
LINE
  5
EA6E5BECB
330
EA6E5BDE2
100
AcDbEntity
  8
0
 62
     0
100
AcDbLine
 10
14.59999999999999
 20
16.42018755871312
 30
0.0
 11
14.59999999999999
 21
17.42401423534744
 31
0.0
  0
LINE
  5
EA6E5BECC
330
EA6E5BDE2
100
AcDbEntity
  8
0
 62
     0
100
AcDbLine
 10
14.59999999999999
 20
1.677268574155958
 30
0.0
 11
14.59999999999999
 21
3.214520049132959
 31
0.0
  0
LINE
  5
EA6E5BECD
330
EA6E5BDE2
100
AcDbEntity
  8
0
 62
     0
100
AcDbLine
 10
14.59999999999999
 20
14.78547995086704
 30
0.0
 11
14.59999999999999
 21
16.32273142584404
 31
0.0
  0
LINE
  5
EA6E5BECE
330
EA6E5BDE2
100
AcDbEntity
  8
0
 62
     0
100
AcDbLine
 10
14.59999999999999
 20
8.035479950867044
 30
0.0
 11
14.59999999999999
 21
9.572731425844038
 31
0.0
  0
LINE
  5
EA6E5BECF
330
EA6E5BDE2
100
AcDbEntity
  8
0
 62
     0
100
AcDbLine
 10
14.8
 20
0.5962272975137566
 30
0.0
 11
14.8
 21
1.601079641035706
 31
0.0
  0
LINE
  5
EA6E5BED0
330
EA6E5BDE2
100
AcDbEntity
  8
0
 62
     0
100
AcDbLine
 10
14.8
 20
16.39892035896429
 30
0.0
 11
14.8
 21
17.40377270248623
 31
0.0
  0
LINE
  5
EA6E5BED1
330
EA6E5BDE2
100
AcDbEntity
  8
0
 62
     0
100
AcDbLine
 10
14.8
 20
1.725101116855706
 30
0.0
 11
14.8
 21
3.274470700593996
 31
0.0
  0
LINE
  5
EA6E5BED2
330
EA6E5BDE2
100
AcDbEntity
  8
0
 62
     0
100
AcDbLine
 10
14.8
 20
14.72552929940599
 30
0.0
 11
14.8
 21
16.27489888314428
 31
0.0
  0
LINE
  5
EA6E5BED3
330
EA6E5BDE2
100
AcDbEntity
  8
0
 62
     0
100
AcDbLine
 10
14.8
 20
7.975529299406007
 30
0.0
 11
14.8
 21
9.524898883144292
 31
0.0
  0
LINE
  5
EA6E5BED4
330
EA6E5BDE2
100
AcDbEntity
  8
0
 62
     0
100
AcDbLine
 10
15.0
 20
0.6188791091165271
 30
0.0
 11
15.0
 21
1.624882416121606
 31
0.0
  0
LINE
  5
EA6E5BED5
330
EA6E5BDE2
100
AcDbEntity
  8
0
 62
     0
100
AcDbLine
 10
15.0
 20
16.37511758387839
 30
0.0
 11
15.0
 21
17.38112089088347
 31
0.0
  0
LINE
  5
EA6E5BED6
330
EA6E5BDE2
100
AcDbEntity
  8
0
 62
     0
100
AcDbLine
 10
15.0
 20
1.778946127801589
 30
0.0
 11
15.0
 21
3.345224713883408
 31
0.0
  0
LINE
  5
EA6E5BED7
330
EA6E5BDE2
100
AcDbEntity
  8
0
 62
     0
100
AcDbLine
 10
15.0
 20
14.65477528611659
 30
0.0
 11
15.0
 21
16.22105387219841
 31
0.0
  0
LINE
  5
EA6E5BED8
330
EA6E5BDE2
100
AcDbEntity
  8
0
 62
     0
100
AcDbLine
 10
15.0
 20
7.904775286116595
 30
0.0
 11
15.0
 21
9.471053872198412
 31
0.0
  0
LINE
  5
EA6E5BED9
330
EA6E5BDE2
100
AcDbEntity
  8
0
 62
     0
100
AcDbLine
 10
15.2
 20
0.6439509843066205
 30
0.0
 11
15.2
 21
1.651232135250402
 31
0.0
  0
LINE
  5
EA6E5BEDA
330
EA6E5BDE2
100
AcDbEntity
  8
0
 62
     0
100
AcDbLine
 10
15.2
 20
16.34876786474959
 30
0.0
 11
15.2
 21
17.35604901569337
 31
0.0
  0
LINE
  5
EA6E5BEDB
330
EA6E5BDE2
100
AcDbEntity
  8
0
 62
     0
100
AcDbLine
 10
15.2
 20
1.838965527600104
 30
0.0
 11
15.2
 21
3.427362928229201
 31
0.0
  0
LINE
  5
EA6E5BEDC
330
EA6E5BDE2
100
AcDbEntity
  8
0
 62
     0
100
AcDbLine
 10
15.2
 20
14.5726370717708
 30
0.0
 11
15.2
 21
16.16103447239989
 31
0.0
  0
LINE
  5
EA6E5BEDD
330
EA6E5BDE2
100
AcDbEntity
  8
0
 62
     0
100
AcDbLine
 10
15.2
 20
7.822637071770802
 30
0.0
 11
15.2
 21
9.411034472399894
 31
0.0
  0
LINE
  5
EA6E5BEDE
330
EA6E5BDE2
100
AcDbEntity
  8
0
 62
     0
100
AcDbLine
 10
15.4
 20
0.6714538151807618
 30
0.0
 11
15.4
 21
1.680141463018063
 31
0.0
  0
LINE
  5
EA6E5BEDF
330
EA6E5BDE2
100
AcDbEntity
  8
0
 62
     0
100
AcDbLine
 10
15.4
 20
16.31985853698193
 30
0.0
 11
15.4
 21
17.32854618481924
 31
0.0
  0
LINE
  5
EA6E5BEE0
330
EA6E5BDE2
100
AcDbEntity
  8
0
 62
     0
100
AcDbLine
 10
15.4
 20
1.906497453997511
 30
0.0
 11
15.4
 21
3.521613256092558
 31
0.0
  0
LINE
  5
EA6E5BEE1
330
EA6E5BDE2
100
AcDbEntity
  8
0
 62
     0
100
AcDbLine
 10
15.4
 20
14.47838674390744
 30
0.0
 11
15.4
 21
16.09350254600248
 31
0.0
  0
LINE
  5
EA6E5BEE2
330
EA6E5BDE2
100
AcDbEntity
  8
0
 62
     0
100
AcDbLine
 10
15.4
 20
7.728386743907438
 30
0.0
 11
15.4
 21
9.343502546002484
 31
0.0
  0
LINE
  5
EA6E5BEE3
330
EA6E5BDE2
100
AcDbEntity
  8
0
 62
     0
100
AcDbLine
 10
15.6
 20
0.701399625247838
 30
0.0
 11
15.6
 21
1.711624391057784
 31
0.0
  0
LINE
  5
EA6E5BEE4
330
EA6E5BDE2
100
AcDbEntity
  8
0
 62
     0
100
AcDbLine
 10
15.6
 20
16.28837560894221
 30
0.0
 11
15.6
 21
17.29860037475216
 31
0.0
  0
LINE
  5
EA6E5BEE5
330
EA6E5BDE2
100
AcDbEntity
  8
0
 62
     0
100
AcDbLine
 10
15.6
 20
1.982488280859824
 30
0.0
 11
15.6
 21
3.628889777131711
 31
0.0
  0
LINE
  5
EA6E5BEE6
330
EA6E5BDE2
100
AcDbEntity
  8
0
 62
     0
100
AcDbLine
 10
15.6
 20
14.37111022286828
 30
0.0
 11
15.6
 21
16.01751171914017
 31
0.0
  0
LINE
  5
EA6E5BEE7
330
EA6E5BDE2
100
AcDbEntity
  8
0
 62
     0
100
AcDbLine
 10
15.6
 20
7.621110222868287
 30
0.0
 11
15.6
 21
9.267511719140172
 31
0.0
  0
LINE
  5
EA6E5BEE8
330
EA6E5BDE2
100
AcDbEntity
  8
0
 62
     0
100
AcDbLine
 10
15.8
 20
0.7338015963764449
 30
0.0
 11
15.8
 21
1.745696272844693
 31
0.0
  0
LINE
  5
EA6E5BEE9
330
EA6E5BDE2
100
AcDbEntity
  8
0
 62
     0
100
AcDbLine
 10
15.8
 20
16.2543037271553
 30
0.0
 11
15.8
 21
17.26619840362355
 31
0.0
  0
LINE
  5
EA6E5BEEA
330
EA6E5BDE2
100
AcDbEntity
  8
0
 62
     0
100
AcDbLine
 10
15.8
 20
2.067310355584581
 30
0.0
 11
15.8
 21
3.750348873208841
 31
0.0
  0
LINE
  5
EA6E5BEEB
330
EA6E5BDE2
100
AcDbEntity
  8
0
 62
     0
100
AcDbLine
 10
15.8
 20
14.24965112679115
 30
0.0
 11
15.8
 21
15.9326896444154
 31
0.0
  0
LINE
  5
EA6E5BEEC
330
EA6E5BDE2
100
AcDbEntity
  8
0
 62
     0
100
AcDbLine
 10
15.8
 20
7.499651126791158
 30
0.0
 11
15.8
 21
9.182689644415415
 31
0.0
  0
LINE
  5
EA6E5BEED
330
EA6E5BDE2
100
AcDbEntity
  8
0
 62
     0
100
AcDbLine
 10
16.0
 20
0.7686740986732376
 30
0.0
 11
16.0
 21
1.78237386236562
 31
0.0
  0
LINE
  5
EA6E5BEEE
330
EA6E5BDE2
100
AcDbEntity
  8
0
 62
     0
100
AcDbLine
 10
16.0
 20
16.21762613763437
 30
0.0
 11
16.0
 21
17.23132590132675
 31
0.0
  0
LINE
  5
EA6E5BEEF
330
EA6E5BDE2
100
AcDbEntity
  8
0
 62
     0
100
AcDbLine
 10
16.0
 20
2.16140561915966
 30
0.0
 11
16.0
 21
3.88958648698698
 31
0.0
  0
LINE
  5
EA6E5BEF0
330
EA6E5BDE2
100
AcDbEntity
  8
0
 62
     0
100
AcDbLine
 10
16.0
 20
14.10984300806157
 30
0.0
 11
16.0
 21
15.83859438084033
 31
0.0
  0
LINE
  5
EA6E5BEF1
330
EA6E5BDE2
100
AcDbEntity
  8
0
 62
     0
100
AcDbLine
 10
16.0
 20
7.359843008061576
 30
0.0
 11
16.0
 21
9.088594380840335
 31
0.0
  0
LINE
  5
EA6E5BEF2
330
EA6E5BDE2
100
AcDbEntity
  8
0
 62
     0
100
AcDbLine
 10
16.0
 20
11.99520198109181
 30
0.0
 11
16.0
 21
12.99520198109181
 31
0.0
  0
LINE
  5
EA6E5BEF3
330
EA6E5BDE2
100
AcDbEntity
  8
0
 62
     0
100
AcDbLine
 10
16.2
 20
0.8060327234544644
 30
0.0
 11
16.2
 21
1.821675356888281
 31
0.0
  0
LINE
  5
EA6E5BEF4
330
EA6E5BDE2
100
AcDbEntity
  8
0
 62
     0
100
AcDbLine
 10
16.2
 20
16.17832464311171
 30
0.0
 11
16.2
 21
17.19396727654554
 31
0.0
  0
LINE
  5
EA6E5BEF5
330
EA6E5BDE2
100
AcDbEntity
  8
0
 62
     0
100
AcDbLine
 10
16.2
 20
2.265299594642034
 30
0.0
 11
16.2
 21
4.053212394630294
 31
0.0
  0
LINE
  5
EA6E5BEF6
330
EA6E5BDE2
100
AcDbEntity
  8
0
 62
     0
100
AcDbLine
 10
16.2
 20
13.9437417176044
 30
0.0
 11
16.2
 21
15.73470040535795
 31
0.0
  0
LINE
  5
EA6E5BEF7
330
EA6E5BDE2
100
AcDbEntity
  8
0
 62
     0
100
AcDbLine
 10
16.2
 20
7.19374171760441
 30
0.0
 11
16.2
 21
8.984700405357962
 31
0.0
  0
LINE
  5
EA6E5BEF8
330
EA6E5BDE2
100
AcDbEntity
  8
0
 62
     0
100
AcDbLine
 10
16.2
 20
11.99520198109181
 30
0.0
 11
16.2
 21
12.99520198109181
 31
0.0
  0
LINE
  5
EA6E5BEF9
330
EA6E5BDE2
100
AcDbEntity
  8
0
 62
     0
100
AcDbLine
 10
16.39999999999999
 20
0.8458943194931476
 30
0.0
 11
16.39999999999999
 21
1.8636204440938
 31
0.0
  0
LINE
  5
EA6E5BEFA
330
EA6E5BDE2
100
AcDbEntity
  8
0
 62
     0
100
AcDbLine
 10
16.39999999999999
 20
16.13637955590618
 30
0.0
 11
16.39999999999999
 21
17.15410568050685
 31
0.0
  0
LINE
  5
EA6E5BEFB
330
EA6E5BDE2
100
AcDbEntity
  8
0
 62
     0
100
AcDbLine
 10
16.39999999999999
 20
2.379619810236118
 30
0.0
 11
16.39999999999999
 21
4.246668995439238
 31
0.0
  0
LINE
  5
EA6E5BEFC
330
EA6E5BDE2
100
AcDbEntity
  8
0
 62
     0
100
AcDbLine
 10
16.39999999999999
 20
13.74487066121605
 30
0.0
 11
16.39999999999999
 21
15.62038018976386
 31
0.0
  0
LINE
  5
EA6E5BEFD
330
EA6E5BDE2
100
AcDbEntity
  8
0
 62
     0
100
AcDbLine
 10
16.39999999999999
 20
6.994870661216054
 30
0.0
 11
16.39999999999999
 21
8.87038018976388
 31
0.0
  0
LINE
  5
EA6E5BEFE
330
EA6E5BDE2
100
AcDbEntity
  8
0
 62
     0
100
AcDbLine
 10
16.39999999999999
 20
11.99520198109181
 30
0.0
 11
16.39999999999999
 21
12.99520198109181
 31
0.0
  0
LINE
  5
EA6E5BEFF
330
EA6E5BDE2
100
AcDbEntity
  8
0
 62
     0
100
AcDbLine
 10
16.6
 20
0.8882770327457619
 30
0.0
 11
16.6
 21
1.90823035386904
 31
0.0
  0
LINE
  5
EA6E5BF00
330
EA6E5BDE2
100
AcDbEntity
  8
0
 62
     0
100
AcDbLine
 10
16.6
 20
16.09176964613094
 30
0.0
 11
16.6
 21
17.11172296725424
 31
0.0
  0
LINE
  5
EA6E5BF01
330
EA6E5BDE2
100
AcDbEntity
  8
0
 62
     0
100
AcDbLine
 10
16.6
 20
2.505120428334421
 30
0.0
 11
16.6
 21
4.47863060090183
 31
0.0
  0
LINE
  5
EA6E5BF02
330
EA6E5BDE2
100
AcDbEntity
  8
0
 62
     0
100
AcDbLine
 10
16.6
 20
13.50242306763211
 30
0.0
 11
16.6
 21
15.49487957166557
 31
0.0
  0
LINE
  5
EA6E5BF03
330
EA6E5BDE2
100
AcDbEntity
  8
0
 62
     0
100
AcDbLine
 10
16.6
 20
6.752423067632127
 30
0.0
 11
16.6
 21
8.744879571665576
 31
0.0
  0
LINE
  5
EA6E5BF04
330
EA6E5BDE2
100
AcDbEntity
  8
0
 62
     0
100
AcDbLine
 10
16.6
 20
11.99520198109181
 30
0.0
 11
16.6
 21
12.99520198109181
 31
0.0
  0
LINE
  5
EA6E5BF05
330
EA6E5BDE2
100
AcDbEntity
  8
0
 62
     0
100
AcDbLine
 10
16.8
 20
0.9332003497861903
 30
0.0
 11
16.8
 21
1.955527915091238
 31
0.0
  0
LINE
  5
EA6E5BF06
330
EA6E5BDE2
100
AcDbEntity
  8
0
 62
     0
100
AcDbLine
 10
16.8
 20
16.04447208490875
 30
0.0
 11
16.8
 21
17.06679965021381
 31
0.0
  0
LINE
  5
EA6E5BF07
330
EA6E5BDE2
100
AcDbEntity
  8
0
 62
     0
100
AcDbLine
 10
16.8
 20
2.642715771748798
 30
0.0
 11
16.8
 21
4.764933423039758
 31
0.0
  0
LINE
  5
EA6E5BF08
330
EA6E5BDE2
100
AcDbEntity
  8
0
 62
     0
100
AcDbLine
 10
16.8
 20
13.19035535410814
 30
0.0
 11
16.8
 21
15.35728422825119
 31
0.0
  0
LINE
  5
EA6E5BF09
330
EA6E5BDE2
100
AcDbEntity
  8
0
 62
     0
100
AcDbLine
 10
16.8
 20
6.440355354108133
 30
0.0
 11
16.8
 21
8.607284228251199
 31
0.0
  0
LINE
  5
EA6E5BF0A
330
EA6E5BDE2
100
AcDbEntity
  8
0
 62
     0
100
AcDbLine
 10
16.8
 20
11.99520198109181
 30
0.0
 11
16.8
 21
12.99520198109181
 31
0.0
  0
LINE
  5
EA6E5BF0B
330
EA6E5BDE2
100
AcDbEntity
  8
0
 62
     0
100
AcDbLine
 10
17.0
 20
0.9806851452009935
 30
0.0
 11
17.0
 21
2.005537617777616
 31
0.0
  0
LINE
  5
EA6E5BF0C
330
EA6E5BDE2
100
AcDbEntity
  8
0
 62
     0
100
AcDbLine
 10
17.0
 20
15.99446238222238
 30
0.0
 11
17.0
 21
17.01931485479899
 31
0.0
  0
LINE
  5
EA6E5BF0D
330
EA6E5BDE2
100
AcDbEntity
  8
0
 62
     0
100
AcDbLine
 10
17.0
 20
2.794145186405881
 30
0.0
 11
17.0
 21
5.371692243973805
 31
0.0
  0
LINE
  5
EA6E5BF0E
330
EA6E5BDE2
100
AcDbEntity
  8
0
 62
     0
100
AcDbLine
 10
17.0
 20
11.99520198109181
 30
0.0
 11
17.0
 21
15.2058548135941
 31
0.0
  0
LINE
  5
EA6E5BF0F
330
EA6E5BDE2
100
AcDbEntity
  8
0
 62
     0
100
AcDbLine
 10
17.0
 20
5.625000103238273
 30
0.0
 11
17.0
 21
8.455854813594108
 31
0.0
  0
LINE
  5
EA6E5BF10
330
EA6E5BDE2
100
AcDbEntity
  8
0
 62
     0
100
AcDbLine
 10
17.19999999999999
 20
1.030753733228884
 30
0.0
 11
17.19999999999999
 21
2.058285681017131
 31
0.0
  0
LINE
  5
EA6E5BF11
330
EA6E5BDE2
100
AcDbEntity
  8
0
 62
     0
100
AcDbLine
 10
17.19999999999999
 20
15.94171431898286
 30
0.0
 11
17.19999999999999
 21
16.96924626677112
 31
0.0
  0
LINE
  5
EA6E5BF12
330
EA6E5BDE2
100
AcDbEntity
  8
0
 62
     0
100
AcDbLine
 10
17.19999999999999
 20
2.964241435429824
 30
0.0
 11
17.19999999999999
 21
8.285758564570178
 31
0.0
  0
LINE
  5
EA6E5BF13
330
EA6E5BDE2
100
AcDbEntity
  8
0
 62
     0
100
AcDbLine
 10
17.19999999999999
 20
11.99520198109181
 30
0.0
 11
17.19999999999999
 21
15.03575856457016
 31
0.0
  0
LINE
  5
EA6E5BF14
330
EA6E5BDE2
100
AcDbEntity
  8
0
 62
     0
100
AcDbLine
 10
17.4
 20
1.083429923959662
 30
0.0
 11
17.4
 21
2.113812192151343
 31
0.0
  0
LINE
  5
EA6E5BF15
330
EA6E5BDE2
100
AcDbEntity
  8
0
 62
     0
100
AcDbLine
 10
17.4
 20
15.88618780784865
 30
0.0
 11
17.4
 21
16.91657007604034
 31
0.0
  0
LINE
  5
EA6E5BF16
330
EA6E5BDE2
100
AcDbEntity
  8
0
 62
     0
100
AcDbLine
 10
17.4
 20
3.156508117249323
 30
0.0
 11
17.4
 21
8.093491882750669
 31
0.0
  0
LINE
  5
EA6E5BF17
330
EA6E5BDE2
100
AcDbEntity
  8
0
 62
     0
100
AcDbLine
 10
17.4
 20
11.99520198109181
 30
0.0
 11
17.4
 21
14.84349188275065
 31
0.0
  0
LINE
  5
EA6E5BF18
330
EA6E5BDE2
100
AcDbEntity
  8
0
 62
     0
100
AcDbLine
 10
17.6
 20
1.138739084443542
 30
0.0
 11
17.6
 21
2.172812631433951
 31
0.0
  0
LINE
  5
EA6E5BF19
330
EA6E5BDE2
100
AcDbEntity
  8
0
 62
     0
100
AcDbLine
 10
17.6
 20
15.82718736856604
 30
0.0
 11
17.6
 21
16.86126091555646
 31
0.0
  0
LINE
  5
EA6E5BF1A
330
EA6E5BDE2
100
AcDbEntity
  8
0
 62
     0
100
AcDbLine
 10
17.6
 20
3.375383199960236
 30
0.0
 11
17.6
 21
7.874616800039762
 31
0.0
  0
LINE
  5
EA6E5BF1B
330
EA6E5BDE2
100
AcDbEntity
  8
0
 62
     0
100
AcDbLine
 10
17.6
 20
11.99520198109181
 30
0.0
 11
17.6
 21
14.62461680003975
 31
0.0
  0
LINE
  5
EA6E5BF1C
330
EA6E5BDE2
100
AcDbEntity
  8
0
 62
     0
100
AcDbLine
 10
17.8
 20
1.196733304907507
 30
0.0
 11
17.8
 21
2.235722402390248
 31
0.0
  0
LINE
  5
EA6E5BF1D
330
EA6E5BDE2
100
AcDbEntity
  8
0
 62
     0
100
AcDbLine
 10
17.8
 20
15.76427759760974
 30
0.0
 11
17.8
 21
16.80326669509248
 31
0.0
  0
LINE
  5
EA6E5BF1E
330
EA6E5BDE2
100
AcDbEntity
  8
0
 62
     0
100
AcDbLine
 10
17.8
 20
3.627508786341501
 30
0.0
 11
17.8
 21
7.622491213658497
 31
0.0
  0
LINE
  5
EA6E5BF1F
330
EA6E5BDE2
100
AcDbEntity
  8
0
 62
     0
100
AcDbLine
 10
17.8
 20
11.99520198109181
 30
0.0
 11
17.8
 21
14.37249121365849
 31
0.0
  0
LINE
  5
EA6E5BF20
330
EA6E5BDE2
100
AcDbEntity
  8
0
 62
     0
100
AcDbLine
 10
18.0
 20
1.258070209803346
 30
0.0
 11
18.0
 21
2.30260825319673
 31
0.0
  0
LINE
  5
EA6E5BF21
330
EA6E5BDE2
100
AcDbEntity
  8
0
 62
     0
100
AcDbLine
 10
18.0
 20
15.69739174680327
 30
0.0
 11
18.0
 21
16.74192979019665
 31
0.0
  0
LINE
  5
EA6E5BF22
330
EA6E5BDE2
100
AcDbEntity
  8
0
 62
     0
100
AcDbLine
 10
18.0
 20
3.923649376593703
 30
0.0
 11
18.0
 21
7.326350623406285
 31
0.0
  0
LINE
  5
EA6E5BF23
330
EA6E5BDE2
100
AcDbEntity
  8
0
 62
     0
100
AcDbLine
 10
18.0
 20
11.99520198109181
 30
0.0
 11
18.0
 21
14.07635062340627
 31
0.0
  0
LINE
  5
EA6E5BF24
330
EA6E5BDE2
100
AcDbEntity
  8
0
 62
     0
100
AcDbLine
 10
18.2
 20
1.323072197862596
 30
0.0
 11
18.2
 21
2.373542828567604
 31
0.0
  0
LINE
  5
EA6E5BF25
330
EA6E5BDE2
100
AcDbEntity
  8
0
 62
     0
100
AcDbLine
 10
18.2
 20
15.62645717143239
 30
0.0
 11
18.2
 21
16.67692780213741
 31
0.0
  0
LINE
  5
EA6E5BF26
330
EA6E5BDE2
100
AcDbEntity
  8
0
 62
     0
100
AcDbLine
 10
18.2
 20
4.287684463111763
 30
0.0
 11
18.2
 21
6.962315536888209
 31
0.0
  0
LINE
  5
EA6E5BF27
330
EA6E5BDE2
100
AcDbEntity
  8
0
 62
     0
100
AcDbLine
 10
18.2
 20
11.99520198109181
 30
0.0
 11
18.2
 21
13.71231553688823
 31
0.0
  0
LINE
  5
EA6E5BF28
330
EA6E5BDE2
100
AcDbEntity
  8
0
 62
     0
100
AcDbLine
 10
18.39999999999999
 20
1.391799481934761
 30
0.0
 11
18.39999999999999
 21
2.448605117969133
 31
0.0
  0
LINE
  5
EA6E5BF29
330
EA6E5BDE2
100
AcDbEntity
  8
0
 62
     0
100
AcDbLine
 10
18.39999999999999
 20
15.55139488203086
 30
0.0
 11
18.39999999999999
 21
16.60820051806523
 31
0.0
  0
LINE
  5
EA6E5BF2A
330
EA6E5BDE2
100
AcDbEntity
  8
0
 62
     0
100
AcDbLine
 10
18.39999999999999
 20
4.840055661165976
 30
0.0
 11
18.39999999999999
 21
6.409944338833982
 31
0.0
  0
LINE
  5
EA6E5BF2B
330
EA6E5BDE2
100
AcDbEntity
  8
0
 62
     0
100
AcDbLine
 10
18.39999999999999
 20
11.99520198109181
 30
0.0
 11
18.39999999999999
 21
13.15994433883402
 31
0.0
  0
LINE
  5
EA6E5BF2C
330
EA6E5BDE2
100
AcDbEntity
  8
0
 62
     0
100
AcDbLine
 10
18.6
 20
1.464317169370115
 30
0.0
 11
18.6
 21
2.527880961894759
 31
0.0
  0
LINE
  5
EA6E5BF2D
330
EA6E5BDE2
100
AcDbEntity
  8
0
 62
     0
100
AcDbLine
 10
18.6
 20
15.47211903810524
 30
0.0
 11
18.6
 21
16.53568283062988
 31
0.0
  0
LINE
  5
EA6E5BF2E
330
EA6E5BDE2
100
AcDbEntity
  8
0
 62
     0
100
AcDbLine
 10
18.6
 20
11.99520198109181
 30
0.0
 11
18.6
 21
12.98914185894155
 31
0.0
  0
LINE
  5
EA6E5BF2F
330
EA6E5BDE2
100
AcDbEntity
  8
0
 62
     0
100
AcDbLine
 10
18.8
 20
1.540695614396724
 30
0.0
 11
18.8
 21
2.61146362464188
 31
0.0
  0
LINE
  5
EA6E5BF30
330
EA6E5BDE2
100
AcDbEntity
  8
0
 62
     0
100
AcDbLine
 10
18.8
 20
15.38853637535811
 30
0.0
 11
18.8
 21
16.45930438560327
 31
0.0
  0
LINE
  5
EA6E5BF31
330
EA6E5BDE2
100
AcDbEntity
  8
0
 62
     0
100
AcDbLine
 10
18.8
 20
11.99520198109181
 30
0.0
 11
18.8
 21
12.99068144388724
 31
0.0
  0
LINE
  5
EA6E5BF32
330
EA6E5BDE2
100
AcDbEntity
  8
0
 62
     0
100
AcDbLine
 10
19.0
 20
1.621010812927077
 30
0.0
 11
19.0
 21
2.699454443607051
 31
0.0
  0
LINE
  5
EA6E5BF33
330
EA6E5BDE2
100
AcDbEntity
  8
0
 62
     0
100
AcDbLine
 10
19.0
 20
15.30054555639295
 30
0.0
 11
19.0
 21
16.37898918707292
 31
0.0
  0
LINE
  5
EA6E5BF34
330
EA6E5BDE2
100
AcDbEntity
  8
0
 62
     0
100
AcDbLine
 10
19.0
 20
11.99520198109181
 30
0.0
 11
19.0
 21
12.99222102883293
 31
0.0
  0
LINE
  5
EA6E5BF35
330
EA6E5BDE2
100
AcDbEntity
  8
0
 62
     0
100
AcDbLine
 10
19.19999999999999
 20
1.705344845571659
 30
0.0
 11
19.19999999999999
 21
2.791963567034783
 31
0.0
  0
LINE
  5
EA6E5BF36
330
EA6E5BDE2
100
AcDbEntity
  8
0
 62
     0
100
AcDbLine
 10
19.19999999999999
 20
15.20803643296521
 30
0.0
 11
19.19999999999999
 21
16.29465515442833
 31
0.0
  0
LINE
  5
EA6E5BF37
330
EA6E5BDE2
100
AcDbEntity
  8
0
 62
     0
100
AcDbLine
 10
19.19999999999999
 20
11.99520198109181
 30
0.0
 11
19.19999999999999
 21
12.99376061377861
 31
0.0
  0
LINE
  5
EA6E5BF38
330
EA6E5BDE2
100
AcDbEntity
  8
0
 62
     0
100
AcDbLine
 10
19.39999999999999
 20
1.793786375640563
 30
0.0
 11
19.39999999999999
 21
2.889110794503256
 31
0.0
  0
LINE
  5
EA6E5BF39
330
EA6E5BDE2
100
AcDbEntity
  8
0
 62
     0
100
AcDbLine
 10
19.39999999999999
 20
15.11088920549673
 30
0.0
 11
19.39999999999999
 21
16.20621362435944
 31
0.0
  0
LINE
  5
EA6E5BF3A
330
EA6E5BDE2
100
AcDbEntity
  8
0
 62
     0
100
AcDbLine
 10
19.6
 20
1.88643121012102
 30
0.0
 11
19.6
 21
2.991026537321896
 31
0.0
  0
LINE
  5
EA6E5BF3B
330
EA6E5BDE2
100
AcDbEntity
  8
0
 62
     0
100
AcDbLine
 10
19.6
 20
15.0089734626781
 30
0.0
 11
19.6
 21
16.11356878987898
 31
0.0
  0
LINE
  5
EA6E5BF3C
330
EA6E5BDE2
100
AcDbEntity
  8
0
 62
     0
100
AcDbLine
 10
19.8
 20
1.983382933076164
 30
0.0
 11
19.8
 21
3.097852919598746
 31
0.0
  0
LINE
  5
EA6E5BF3D
330
EA6E5BDE2
100
AcDbEntity
  8
0
 62
     0
100
AcDbLine
 10
19.8
 20
14.90214708040125
 30
0.0
 11
19.8
 21
16.01661706692383
 31
0.0
  0
LINE
  5
EA6E5BF3E
330
EA6E5BDE2
100
AcDbEntity
  8
0
 62
     0
100
AcDbLine
 10
20.0
 20
2.084753622680735
 30
0.0
 11
20.0
 21
3.209745045204609
 31
0.0
  0
LINE
  5
EA6E5BF3F
330
EA6E5BDE2
100
AcDbEntity
  8
0
 62
     0
100
AcDbLine
 10
20.0
 20
14.79025495479539
 30
0.0
 11
20.0
 21
15.91524637731926
 31
0.0
  0
LINE
  5
EA6E5BF40
330
EA6E5BDE2
100
AcDbEntity
  8
0
 62
     0
100
AcDbLine
 10
20.2
 20
2.190664665270349
 30
0.0
 11
20.2
 21
3.326872461473616
 31
0.0
  0
LINE
  5
EA6E5BF41
330
EA6E5BDE2
100
AcDbEntity
  8
0
 62
     0
100
AcDbLine
 10
20.2
 20
14.67312753852637
 30
0.0
 11
20.2
 21
15.80933533472965
 31
0.0
  0
LINE
  5
EA6E5BF42
330
EA6E5BDE2
100
AcDbEntity
  8
0
 62
     0
100
AcDbLine
 10
20.4
 20
2.301247682434638
 30
0.0
 11
20.4
 21
3.449420857581046
 31
0.0
  0
LINE
  5
EA6E5BF43
330
EA6E5BDE2
100
AcDbEntity
  8
0
 62
     0
100
AcDbLine
 10
20.4
 20
14.55057914241895
 30
0.0
 11
20.4
 21
15.69875231756536
 31
0.0
  0
LINE
  5
EA6E5BF44
330
EA6E5BDE2
100
AcDbEntity
  8
0
 62
     0
100
AcDbLine
 10
20.6
 20
2.416645590462052
 30
0.0
 11
20.6
 21
3.577594044593456
 31
0.0
  0
LINE
  5
EA6E5BF45
330
EA6E5BDE2
100
AcDbEntity
  8
0
 62
     0
100
AcDbLine
 10
20.6
 20
14.42240595540654
 30
0.0
 11
20.6
 21
15.58335440953795
 31
0.0
  0
LINE
  5
EA6E5BF46
330
EA6E5BDE2
100
AcDbEntity
  8
0
 62
     0
100
AcDbLine
 10
20.8
 20
2.537013815518043
 30
0.0
 11
20.8
 21
3.711626924269966
 31
0.0
  0
LINE
  5
EA6E5BF47
330
EA6E5BDE2
100
AcDbEntity
  8
0
 62
     0
100
AcDbLine
 10
20.8
 20
14.28836987321861
 30
0.0
 11
20.8
 21
15.46298618448195
 31
0.0
  0
LINE
  5
EA6E5BF48
330
EA6E5BDE2
100
AcDbEntity
  8
0
 62
     0
100
AcDbLine
 10
21.0
 20
2.662521693035727
 30
0.0
 11
21.0
 21
3.852872430645609
 31
0.0
  0
LINE
  5
EA6E5BF49
330
EA6E5BDE2
100
AcDbEntity
  8
0
 62
     0
100
AcDbLine
 10
21.0
 20
14.14678349542286
 30
0.0
 11
21.0
 21
15.33747830696426
 31
0.0
  0
LINE
  5
EA6E5BF4A
330
EA6E5BDE2
100
AcDbEntity
  8
0
 62
     0
100
AcDbLine
 10
21.2
 20
2.793354086221266
 30
0.0
 11
21.2
 21
4.002485583831323
 31
0.0
  0
LINE
  5
EA6E5BF4B
330
EA6E5BDE2
100
AcDbEntity
  8
0
 62
     0
100
AcDbLine
 10
21.2
 20
13.99621688692662
 30
0.0
 11
21.2
 21
15.20664591377872
 31
0.0
  0
LINE
  5
EA6E5BF4C
330
EA6E5BDE2
100
AcDbEntity
  8
0
 62
     0
100
AcDbLine
 10
21.4
 20
2.929713266730676
 30
0.0
 11
21.4
 21
4.161002755664274
 31
0.0
  0
LINE
  5
EA6E5BF4D
330
EA6E5BDE2
100
AcDbEntity
  8
0
 62
     0
100
AcDbLine
 10
21.4
 20
13.83604811472443
 30
0.0
 11
21.4
 21
15.07028673326932
 31
0.0
  0
LINE
  5
EA6E5BF4E
330
EA6E5BDE2
100
AcDbEntity
  8
0
 62
     0
100
AcDbLine
 10
21.6
 20
3.072069018676471
 30
0.0
 11
21.6
 21
4.329043532935322
 31
0.0
  0
LINE
  5
EA6E5BF4F
330
EA6E5BDE2
100
AcDbEntity
  8
0
 62
     0
100
AcDbLine
 10
21.6
 20
13.66555078057407
 30
0.0
 11
21.6
 21
14.92784497625058
 31
0.0
  0
LINE
  5
EA6E5BF50
330
EA6E5BDE2
100
AcDbEntity
  8
0
 62
     0
100
AcDbLine
 10
21.8
 20
3.221849785812719
 30
0.0
 11
21.8
 21
4.507329243428142
 31
0.0
  0
LINE
  5
EA6E5BF51
330
EA6E5BDE2
100
AcDbEntity
  8
0
 62
     0
100
AcDbLine
 10
21.8
 20
13.48386866684141
 30
0.0
 11
21.8
 21
14.77747777107709
 31
0.0
  0
LINE
  5
EA6E5BF52
330
EA6E5BDE2
100
AcDbEntity
  8
0
 62
     0
100
AcDbLine
 10
22.0
 20
3.379623332304386
 30
0.0
 11
22.0
 21
4.696707259147587
 31
0.0
  0
LINE
  5
EA6E5BF53
330
EA6E5BDE2
100
AcDbEntity
  8
0
 62
     0
100
AcDbLine
 10
22.0
 20
13.28998171187008
 30
0.0
 11
22.0
 21
14.6185036378553
 31
0.0
  0
LINE
  5
EA6E5BF54
330
EA6E5BDE2
100
AcDbEntity
  8
0
 62
     0
100
AcDbLine
 10
22.2
 20
3.545884748662356
 30
0.0
 11
22.2
 21
4.898183447570518
 31
0.0
  0
LINE
  5
EA6E5BF55
330
EA6E5BDE2
100
AcDbEntity
  8
0
 62
     0
100
AcDbLine
 10
22.2
 20
13.08265938318368
 30
0.0
 11
22.2
 21
14.4503446123621
 31
0.0
  0
LINE
  5
EA6E5BF56
330
EA6E5BDE2
100
AcDbEntity
  8
0
 62
     0
100
AcDbLine
 10
22.39999999999999
 20
3.721201084250884
 30
0.0
 11
22.39999999999999
 21
5.112966388577576
 31
0.0
  0
LINE
  5
EA6E5BF57
330
EA6E5BDE2
100
AcDbEntity
  8
0
 62
     0
100
AcDbLine
 10
22.39999999999999
 20
12.86039521211116
 30
0.0
 11
22.39999999999999
 21
14.27233151642101
 31
0.0
  0
LINE
  5
EA6E5BF58
330
EA6E5BDE2
100
AcDbEntity
  8
0
 62
     0
100
AcDbLine
 10
22.6
 20
3.906226422955006
 30
0.0
 11
22.6
 21
5.342529046644196
 31
0.0
  0
LINE
  5
EA6E5BF59
330
EA6E5BDE2
100
AcDbEntity
  8
0
 62
     0
100
AcDbLine
 10
22.6
 20
12.62131223084588
 30
0.0
 11
22.6
 21
14.08368306798291
 31
0.0
  0
LINE
  5
EA6E5BF5A
330
EA6E5BDE2
100
AcDbEntity
  8
0
 62
     0
100
AcDbLine
 10
22.8
 20
4.10172135227376
 30
0.0
 11
22.8
 21
5.588697165049443
 31
0.0
  0
LINE
  5
EA6E5BF5B
330
EA6E5BDE2
100
AcDbEntity
  8
0
 62
     0
100
AcDbLine
 10
22.8
 20
12.36302169710981
 30
0.0
 11
22.8
 21
13.88347829807043
 31
0.0
  0
LINE
  5
EA6E5BF5C
330
EA6E5BDE2
100
AcDbEntity
  8
0
 62
     0
100
AcDbLine
 10
23.0
 20
4.308578503036796
 30
0.0
 11
23.0
 21
5.853780106921795
 31
0.0
  0
LINE
  5
EA6E5BF5D
330
EA6E5BDE2
100
AcDbEntity
  8
0
 62
     0
100
AcDbLine
 10
23.0
 20
12.08240327306514
 30
0.0
 11
23.0
 21
13.67061944507678
 31
0.0
  0
LINE
  5
EA6E5BF5E
330
EA6E5BDE2
100
AcDbEntity
  8
0
 62
     0
100
AcDbLine
 10
23.19999999999999
 20
4.527856652558535
 30
0.0
 11
23.19999999999999
 21
6.140772160743478
 31
0.0
  0
LINE
  5
EA6E5BF5F
330
EA6E5BDE2
100
AcDbEntity
  8
0
 62
     0
100
AcDbLine
 10
23.19999999999999
 20
11.77524542788055
 30
0.0
 11
23.19999999999999
 21
13.44378096057898
 31
0.0
  0
LINE
  5
EA6E5BF60
330
EA6E5BDE2
100
AcDbEntity
  8
0
 62
     0
100
AcDbLine
 10
23.39999999999999
 20
4.760827195354785
 30
0.0
 11
23.39999999999999
 21
6.453677270303599
 31
0.0
  0
LINE
  5
EA6E5BF61
330
EA6E5BDE2
100
AcDbEntity
  8
0
 62
     0
100
AcDbLine
 10
23.39999999999999
 20
11.42787989712297
 30
0.0
 11
23.39999999999999
 21
13.20133767178099
 31
0.0
  0
LINE
  5
EA6E5BF62
330
EA6E5BDE2
100
AcDbEntity
  8
0
 62
     0
100
AcDbLine
 10
23.6
 20
5.009038964789643
 30
0.0
 11
23.6
 21
6.819150603315335
 31
0.0
  0
LINE
  5
EA6E5BF63
330
EA6E5BDE2
100
AcDbEntity
  8
0
 62
     0
100
AcDbLine
 10
23.6
 20
11.00243198716859
 30
0.0
 11
23.6
 21
12.94126060224967
 31
0.0
  0
LINE
  5
EA6E5BF64
330
EA6E5BDE2
100
AcDbEntity
  8
0
 62
     0
100
AcDbLine
 10
23.8
 20
5.274411151749196
 30
0.0
 11
23.8
 21
7.309696402547448
 31
0.0
  0
LINE
  5
EA6E5BF65
330
EA6E5BDE2
100
AcDbEntity
  8
0
 62
     0
100
AcDbLine
 10
23.8
 20
10.42998843758188
 30
0.0
 11
23.8
 21
12.6609605909616
 31
0.0
  0
LINE
  5
EA6E5BF66
330
EA6E5BDE2
100
AcDbEntity
  8
0
 62
     0
100
AcDbLine
 10
24.0
 20
5.559370859880237
 30
0.0
 11
24.0
 21
12.35704356262256
 31
0.0
  0
LINE
  5
EA6E5BF67
330
EA6E5BDE2
100
AcDbEntity
  8
0
 62
     0
100
AcDbLine
 10
24.19999999999999
 20
5.867064768748309
 30
0.0
 11
24.19999999999999
 21
12.0245994314541
 31
0.0
  0
LINE
  5
EA6E5BF68
330
EA6E5BDE2
100
AcDbEntity
  8
0
 62
     0
100
AcDbLine
 10
24.39999999999999
 20
6.2027592702858
 30
0.0
 11
24.39999999999999
 21
11.64218683869334
 31
0.0
  0
LINE
  5
EA6E5BF69
330
EA6E5BDE2
100
AcDbEntity
  8
0
 62
     0
100
AcDbLine
 10
24.6
 20
6.603624720067712
 30
0.0
 11
24.6
 21
11.1757989016396
 31
0.0
  0
LINE
  5
EA6E5BF6A
330
EA6E5BDE2
100
AcDbEntity
  8
0
 62
     0
100
AcDbLine
 10
24.8
 20
7.137464332505552
 30
0.0
 11
24.8
 21
10.55146718630719
 31
0.0
  0
ENDBLK
  5
EA6E5BF6C
330
EA6E5BDE2
100
AcDbEntity
  8
0
100
AcDbBlockEnd
  0
ENDSEC
  0
SECTION
  2
ENTITIES
  0
LINE
  5
EA6E5C1D8
330
EA6E4DC92
100
AcDbEntity
  8
JISSEN
 62
     3
100
AcDbLine
 10
188.1617122300212
 20
163.2123876626422
 30
0.0
 11
126.6571206643744
 21
155.9068688795555
 31
0.0
  0
LINE
  5
EA6E5C1D9
330
EA6E4DC92
100
AcDbEntity
  8
JISSEN
 62
     3
100
AcDbLine
 10
218.7719150561355
 20
167.658221704105
 30
0.0
 11
156.0484743514965
 21
205.5588963849897
 31
0.0
  0
LINE
  5
EA6E5C1DA
330
EA6E4DC92
100
AcDbEntity
  8
JISSEN
 62
     3
100
AcDbLine
 10
128.1571206643743
 20
260.1604620026612
 30
0.0
 11
236.3783815742603
 21
168.5604502725227
 31
0.0
  0
LINE
  5
EA6E5C1DB
330
EA6E4DC92
100
AcDbEntity
  8
JISSEN
 62
     3
100
AcDbLine
 10
253.5311093459113
 20
168.7806210244186
 30
0.0
 11
127.4071206643744
 21
284.9586258860282
 31
0.0
  0
LINE
  5
EA6E5C1DC
330
EA6E4DC92
100
AcDbEntity
  8
JISSEN
 62
     3
100
AcDbLine
 10
170.5189261080499
 20
296.9559768260762
 30
0.0
 11
271.8961528417818
 21
169.5161541752265
 31
0.0
  0
CIRCLE
  5
EA6E5C1DD
330
EA6E4DC92
100
AcDbEntity
  8
JISSEN
100
AcDbCircle
 10
219.6571206643741
 20
392.4559768260762
 30
0.0
 40
42.0
  0
LINE
  5
EA6E5C1DE
330
EA6E4DC92
100
AcDbEntity
  8
JISSEN
100
AcDbLine
 10
138.9071206643743
 20
313.9559768260762
 30
0.0
 11
194.6571206643741
 21
313.9559768260762
 31
0.0
  0
LINE
  5
EA6E5C1DF
330
EA6E4DC92
100
AcDbEntity
  8
JISSEN
100
AcDbLine
 10
138.9071206643743
 20
296.9559768260764
 30
0.0
 11
194.6571206643741
 21
296.9559768260764
 31
0.0
  0
LINE
  5
EA6E5C1E0
330
EA6E4DC92
100
AcDbEntity
  8
JISSEN
100
AcDbLine
 10
-0.0000005417150533
 20
534.0000003796709
 30
0.0
 11
361.999998010285
 21
534.0000003796709
 31
0.0
  0
LINE
  5
EA6E5C1E1
330
EA6E4DC92
100
AcDbEntity
  8
JISSEN
100
AcDbLine
 10
-0.0000005417150533
 20
522.0000003796709
 30
0.0
 11
361.999998010285
 21
522.0000003796709
 31
0.0
  0
LINE
  5
EA6E5C1E2
330
EA6E4DC92
100
AcDbEntity
  8
JISSEN
100
AcDbLine
 10
-0.0000005417150533
 20
510.0000003796709
 30
0.0
 11
361.999998010285
 21
510.0000003796709
 31
0.0
  0
LINE
  5
EA6E5C1E3
330
EA6E4DC92
100
AcDbEntity
  8
JISSEN
100
AcDbLine
 10
-0.0000005417150533
 20
498.000000379671
 30
0.0
 11
361.999998010285
 21
498.000000379671
 31
0.0
  0
LWPOLYLINE
  5
EA6E5C1E4
330
EA6E4DC92
100
AcDbEntity
  8
WAKU
100
AcDbPolyline
 90
        4
 70
     1
 43
0.0
 10
-0.0000005417150533
 20
0.0000003796710644
 10
361.9999994582849
 20
0.0000003796710644
 10
361.9999994582849
 20
546.000000379671
 10
-0.0000005417150533
 20
546.000000379671
  0
LWPOLYLINE
  5
EA6E5C1E5
330
EA6E4DC92
100
AcDbEntity
  8
SAISEN
100
AcDbPolyline
 90
        3
 70
     0
 43
0.0
 10
89.65712066437436
 20
265.9959768260762
 10
91.73043908513022
 20
268.9959768260762
 10
91.88796512217754
 20
275.4605995960084
  0
LWPOLYLINE
  5
EA6E5C1E6
330
EA6E4DC92
100
AcDbEntity
  8
SAISEN
100
AcDbPolyline
 90
        3
 70
     0
 43
0.0
 10
123.6571206643743
 20
265.9959768260765
 10
121.5838022436184
 20
268.9959768260765
 10
121.4262762065711
 20
275.4605995960085
  0
LWPOLYLINE
  5
EA6E5C1E7
330
EA6E4DC92
100
AcDbEntity
  8
JISSEN
100
AcDbPolyline
 90
        2
 70
     0
 43
0.0
 10
89.88785237169144
 20
275.4559768260763
 10
89.65712066437436
 20
265.9959768260762
  0
LWPOLYLINE
  5
EA6E5C1E8
330
EA6E4DC92
100
AcDbEntity
  8
JISSEN
100
AcDbPolyline
 90
        2
 70
     0
 43
0.0
 10
123.6571206643743
 20
265.9959768260762
 10
123.4263889570572
 20
275.4559768260763
  0
LINE
  5
EA6E5C1E9
330
EA6E4DC92
100
AcDbEntity
  8
JISSEN
100
AcDbLine
 10
167.9071206643743
 20
179.1337859681272
 30
0.0
 11
167.9071206643743
 21
92.5175426978679
 31
0.0
  0
LINE
  5
EA6E5C1EA
330
EA6E4DC92
100
AcDbEntity
  8
JISSEN
100
AcDbLine
 10
161.9071206643743
 20
179.1337859681272
 30
0.0
 11
161.9071206643743
 21
92.5175426978679
 31
0.0
  0
LINE
  5
EA6E5C1EB
102
{ACAD_REACTORS
330
EA6E5C1ED
102
}
330
EA6E4DC92
100
AcDbEntity
  8
HATCH
100
AcDbLine
 10
111.1571206643743
 20
102.3117065397471
 30
0.0
 11
102.1571206643743
 21
102.3117065397471
 31
0.0
  0
LINE
  5
EA6E5C1EC
102
{ACAD_REACTORS
330
EA6E5C1ED
102
}
330
EA6E4DC92
100
AcDbEntity
  8
HATCH
100
AcDbLine
 10
106.6571206643743
 20
80.35785193436311
 30
0.0
 11
113.1571206643743
 21
88.86453569191685
 31
0.0
  0
HATCH
  5
EA6E5C1ED
330
EA6E4DC92
100
AcDbEntity
  8
HATCH
100
AcDbHatch
 10
0.0
 20
0.0
 30
0.0
210
0.0
220
0.0
230
1.0
  2
SOLID
 70
     1
 71
     1
 91
        1
 92
        1
 93
        7
 72
     1
 10
100.1571206643743
 20
88.86453569191685
 11
106.6571206643743
 21
80.35785193436311
 72
     1
 10
106.6571206643743
 20
80.35785193436311
 11
113.1571206643743
 21
88.86453569191685
 72
     1
 10
113.1571206643743
 20
88.86453569191685
 11
111.1571206643743
 21
88.86453569191685
 72
     1
 10
111.1571206643743
 20
88.86453569191685
 11
111.1571206643743
 21
102.3117065397471
 72
     1
 10
111.1571206643743
 20
102.3117065397471
 11
102.1571206643743
 21
102.3117065397471
 72
     1
 10
102.1571206643743
 20
102.3117065397471
 11
102.1571206643743
 21
88.86453569191685
 72
     1
 10
102.1571206643743
 20
88.86453569191685
 11
100.1571206643743
 21
88.86453569191685
 97
        7
330
EA6E5C1EE
330
EA6E5C1EC
330
EA6E5C1F2
330
EA6E5C1F1
330
EA6E5C1EB
330
EA6E5C1EF
330
EA6E5C1F0
 75
     0
 76
     1
 98
        1
 10
-20.05224107727838
 20
-9.849527666439144
  0
LINE
  5
EA6E5C1EE
102
{ACAD_REACTORS
330
EA6E5C1ED
102
}
330
EA6E4DC92
100
AcDbEntity
  8
HATCH
100
AcDbLine
 10
100.1571206643743
 20
88.86453569191685
 30
0.0
 11
106.6571206643743
 21
80.35785193436311
 31
0.0
  0
LINE
  5
EA6E5C1EF
102
{ACAD_REACTORS
330
EA6E5C1ED
102
}
330
EA6E4DC92
100
AcDbEntity
  8
HATCH
100
AcDbLine
 10
102.1571206643743
 20
102.3117065397471
 30
0.0
 11
102.1571206643743
 21
88.86453569191685
 31
0.0
  0
LINE
  5
EA6E5C1F0
102
{ACAD_REACTORS
330
EA6E5C1ED
102
}
330
EA6E4DC92
100
AcDbEntity
  8
HATCH
100
AcDbLine
 10
102.1571206643743
 20
88.86453569191685
 30
0.0
 11
100.1571206643743
 21
88.86453569191685
 31
0.0
  0
LINE
  5
EA6E5C1F1
102
{ACAD_REACTORS
330
EA6E5C1ED
102
}
330
EA6E4DC92
100
AcDbEntity
  8
HATCH
100
AcDbLine
 10
111.1571206643743
 20
88.86453569191685
 30
0.0
 11
111.1571206643743
 21
102.3117065397471
 31
0.0
  0
LINE
  5
EA6E5C1F2
102
{ACAD_REACTORS
330
EA6E5C1ED
102
}
330
EA6E4DC92
100
AcDbEntity
  8
HATCH
100
AcDbLine
 10
113.1571206643743
 20
88.86453569191685
 30
0.0
 11
111.1571206643743
 21
88.86453569191685
 31
0.0
  0
LINE
  5
EA6E5C1F3
330
EA6E4DC92
100
AcDbEntity
  8
JISSEN
100
AcDbLine
 10
161.9071206643743
 20
92.5175426978679
 30
0.0
 11
167.9071206643743
 21
92.5175426978679
 31
0.0
  0
LINE
  5
EA6E5C1F4
330
EA6E4DC92
100
AcDbEntity
  8
JISSEN
100
AcDbLine
 10
122.506657281918
 20
151.0713540561442
 30
0.0
 11
126.6571206643743
 21
152.5713540561442
 31
0.0
  0
LINE
  5
EA6E5C1F5
330
EA6E4DC92
100
AcDbEntity
  8
JISSEN
100
AcDbLine
 10
122.506657281918
 20
161.0713540561443
 30
0.0
 11
126.6571206643743
 21
159.5713540561442
 31
0.0
  0
LWPOLYLINE
  5
EA6E5C1F6
330
EA6E4DC92
100
AcDbEntity
  8
JISSEN
100
AcDbPolyline
 90
        4
 70
     1
 43
0.0
 10
85.15712066437435
 20
265.9959768260762
 10
128.1571206643743
 20
265.9959768260762
 10
128.1571206643743
 20
254.9959768260762
 10
85.15712066437435
 20
254.9959768260762
  0
ARC
  5
EA6E5C1F7
330
EA6E4DC92
100
AcDbEntity
  8
JISSEN
100
AcDbCircle
 10
124.6941426643738
 20
242.2900526978677
 30
0.0
 40
5.488855
100
AcDbArc
 50
62.16401900000177
 51
117.8359809999982
  0
LINE
  5
EA6E5C1F8
330
EA6E4DC92
100
AcDbEntity
  8
JISSEN
100
AcDbLine
 10
131.4071206643743
 20
226.5675426978674
 30
0.0
 11
106.6571206643743
 21
226.5675426978674
 31
0.0
  0
LINE
  5
EA6E5C1F9
330
EA6E4DC92
100
AcDbEntity
  8
JISSEN
100
AcDbLine
 10
128.0999066643744
 20
215.0675426978675
 30
0.0
 11
106.6571206643743
 21
215.0675426978675
 31
0.0
  0
LINE
  5
EA6E5C1FA
330
EA6E4DC92
100
AcDbEntity
  8
JISSEN
100
AcDbLine
 10
129.9071206643743
 20
222.5675426978674
 30
0.0
 11
106.6571206643743
 21
222.5675426978674
 31
0.0
  0
LINE
  5
EA6E5C1FB
330
EA6E4DC92
100
AcDbEntity
  8
JISSEN
100
AcDbLine
 10
130.4071206643743
 20
229.5675426978675
 30
0.0
 11
106.6571206643743
 21
229.5675426978675
 31
0.0
  0
LINE
  5
EA6E5C1FC
330
EA6E4DC92
100
AcDbEntity
  8
JISSEN
100
AcDbLine
 10
125.6571206643743
 20
248.0675426978675
 30
0.0
 11
106.6571206643743
 21
248.0675426978675
 31
0.0
  0
ARC
  5
EA6E5C1FD
330
EA6E4DC92
100
AcDbEntity
  8
JISSEN
100
AcDbCircle
 10
124.6941426643738
 20
179.531907697868
 30
0.0
 40
3.535698999999997
100
AcDbArc
 50
43.5406719999997
 51
136.4593280000003
  0
ARC
  5
EA6E5C1FE
330
EA6E4DC92
100
AcDbEntity
  8
JISSEN
100
AcDbCircle
 10
124.6941426643738
 20
174.8450316978678
 30
0.0
 40
5.488855
100
AcDbArc
 50
242.1640190000017
 51
297.8359809999982
  0
LINE
  5
EA6E5C1FF
330
EA6E4DC92
100
AcDbEntity
  8
JISSEN
100
AcDbLine
 10
125.6571206643743
 20
169.0675426978675
 30
0.0
 11
106.6571206643743
 21
169.0675426978675
 31
0.0
  0
LINE
  5
EA6E5C200
330
EA6E4DC92
100
AcDbEntity
  8
JISSEN
100
AcDbLine
 10
124.9542976643742
 20
183.5675426978674
 30
0.0
 11
106.6571206643743
 21
183.5675426978674
 31
0.0
  0
LINE
  5
EA6E5C201
330
EA6E4DC92
100
AcDbEntity
  8
JISSEN
100
AcDbLine
 10
125.8361936643743
 20
188.5675426978675
 30
0.0
 11
106.6571206643743
 21
188.5675426978675
 31
0.0
  0
LINE
  5
EA6E5C202
330
EA6E4DC92
100
AcDbEntity
  8
JISSEN
100
AcDbLine
 10
124.8877386643744
 20
186.5675426978675
 30
0.0
 11
106.6571206643743
 21
186.5675426978675
 31
0.0
  0
LINE
  5
EA6E5C203
330
EA6E4DC92
100
AcDbEntity
  8
JISSEN
100
AcDbLine
 10
126.7108726643743
 20
195.5675426978675
 30
0.0
 11
106.6571206643743
 21
195.5675426978675
 31
0.0
  0
LINE
  5
EA6E5C204
330
EA6E4DC92
100
AcDbEntity
  8
JISSEN
100
AcDbLine
 10
128.2985566643744
 20
197.4175426978674
 30
0.0
 11
106.6571206643743
 21
197.4175426978674
 31
0.0
  0
LWPOLYLINE
  5
EA6E5C205
330
EA6E4DC92
100
AcDbEntity
  8
TENSEN
 48
2.0
100
AcDbPolyline
 90
        7
 70
     0
 43
0.0
 10
85.90712066437436
 20
111.6293932469632
 42
-0.3373493975903584
 10
106.6571206643741
 20
111.6293932469632
 42
0.3373493975903649
 10
127.4071206643743
 20
111.6293932469632
 10
127.4071206643743
 20
141.5713540561442
 10
85.90712066437436
 20
141.5713540561442
 10
85.90712066437436
 20
111.6293932469632
 42
0.3373493975903643
 10
106.6571206643743
 20
111.6293932469632
 42
0.3373493975903643
  0
LINE
  5
EA6E5C206
330
EA6E4DC92
100
AcDbEntity
  8
JISSEN
100
AcDbLine
 10
86.24290666437445
 20
187.9817556978675
 30
0.0
 11
87.07133366437437
 21
187.1533286978676
 31
0.0
  0
ARC
  5
EA6E5C207
330
EA6E4DC92
100
AcDbEntity
  8
JISSEN
100
AcDbCircle
 10
99.19479366437418
 20
165.403796697868
 30
0.0
 40
17.66374499999999
100
AcDbArc
 50
69.67303500000153
 51
110.3269649999984
  0
LINE
  5
EA6E5C208
330
EA6E4DC92
100
AcDbEntity
  8
JISSEN
100
AcDbLine
 10
88.35994366437445
 20
183.5675426978674
 30
0.0
 11
106.6571206643743
 21
183.5675426978674
 31
0.0
  0
LINE
  5
EA6E5C209
330
EA6E4DC92
100
AcDbEntity
  8
JISSEN
100
AcDbLine
 10
88.42650166437442
 20
186.5675426978675
 30
0.0
 11
106.6571206643743
 21
186.5675426978675
 31
0.0
  0
ARC
  5
EA6E5C20A
330
EA6E4DC92
100
AcDbEntity
  8
JISSEN
100
AcDbCircle
 10
99.19479366437418
 20
199.3156366978677
 30
0.0
 40
29.959419
100
AcDbArc
 50
258.1816419999998
 51
281.8183580000001
  0
LINE
  5
EA6E5C20B
330
EA6E4DC92
100
AcDbEntity
  8
JISSEN
100
AcDbLine
 10
87.65712066437435
 20
169.0675426978675
 30
0.0
 11
106.6571206643743
 21
169.0675426978675
 31
0.0
  0
LWPOLYLINE
  5
EA6E5C20C
330
EA6E4DC92
100
AcDbEntity
  8
JISSEN
100
AcDbPolyline
 90
        2
 70
     0
 43
0.0
 10
90.8075840468307
 20
161.0713540561442
 10
122.506657281918
 20
161.0713540561442
  0
LINE
  5
EA6E5C20D
330
EA6E4DC92
100
AcDbEntity
  8
JISSEN
100
AcDbLine
 10
89.65712066437436
 20
148.0713540561442
 30
0.0
 11
123.6571206643743
 21
148.0713540561442
 31
0.0
  0
LINE
  5
EA6E5C20E
330
EA6E4DC92
100
AcDbEntity
  8
JISSEN
100
AcDbLine
 10
89.65712066437436
 20
164.0713540561443
 30
0.0
 11
123.5498126054628
 21
164.0713540561443
 31
0.0
  0
LWPOLYLINE
  5
EA6E5C20F
330
EA6E4DC92
100
AcDbEntity
  8
JISSEN
100
AcDbPolyline
 90
        2
 70
     0
 43
0.0
 10
122.506657281918
 20
151.0713540561442
 10
90.8075840468307
 20
151.0713540561442
  0
ARC
  5
EA6E5C210
330
EA6E4DC92
100
AcDbEntity
  8
JISSEN
100
AcDbCircle
 10
90.61245319115437
 20
163.6964689311705
 30
0.0
 40
12.66120791411041
100
AcDbArc
 50
274.3272801182917
 51
298.5167942723127
  0
ARC
  5
EA6E5C211
330
EA6E4DC92
100
AcDbEntity
  8
JISSEN
100
AcDbCircle
 10
90.61245319115437
 20
148.4462391811179
 30
0.0
 40
12.66120791411041
100
AcDbArc
 50
61.48320572768729
 51
85.67271988170821
  0
LWPOLYLINE
  5
EA6E5C212
330
EA6E4DC92
100
AcDbEntity
  8
SAISEN
100
AcDbPolyline
 90
        3
 70
     0
 43
0.0
 10
91.96862853265178
 20
141.5713540561442
 10
91.76442872328584
 20
148.0713540561442
 10
89.67018265742467
 20
151.0713540561442
  0
LWPOLYLINE
  5
EA6E5C213
330
EA6E4DC92
100
AcDbEntity
  8
JISSEN
100
AcDbPolyline
 90
        2
 70
     0
 43
0.0
 10
89.65712066437436
 20
151.4871377686277
 10
89.96862853265179
 20
141.5713540561442
  0
LWPOLYLINE
  5
EA6E5C214
330
EA6E4DC92
100
AcDbEntity
  8
JISSEN
100
AcDbPolyline
 90
        2
 70
     0
 43
0.0
 10
89.65712066437436
 20
160.6555703436607
 10
89.92138576454681
 20
169.0675426978676
  0
LWPOLYLINE
  5
EA6E5C215
330
EA6E4DC92
100
AcDbEntity
  8
SAISEN
100
AcDbPolyline
 90
        3
 70
     0
 43
0.0
 10
91.92138576454681
 20
169.0675426978676
 10
91.76442872328584
 20
164.0713540561442
 10
89.67018265742467
 20
161.0713540561442
  0
LINE
  5
EA6E5C216
330
EA6E4DC92
100
AcDbEntity
  8
JISSEN
100
AcDbLine
 10
90.8075840468307
 20
151.0713540561442
 30
0.0
 11
86.65712066437436
 21
152.5713540561442
 31
0.0
  0
LINE
  5
EA6E5C217
330
EA6E4DC92
100
AcDbEntity
  8
JISSEN
100
AcDbLine
 10
90.8075840468307
 20
161.0713540561443
 30
0.0
 11
86.65712066437436
 21
159.5713540561442
 31
0.0
  0
LWPOLYLINE
  5
EA6E5C218
330
EA6E4DC92
100
AcDbEntity
  8
JISSEN
100
AcDbPolyline
 90
        2
 70
     0
 43
0.0
 10
86.65712066437436
 20
152.5713540561442
 10
86.65712066437436
 20
159.5713540561442
  0
ARC
  5
EA6E5C219
330
EA6E4DC92
100
AcDbEntity
  8
JISSEN
100
AcDbCircle
 10
88.62009766437427
 20
179.531907697868
 30
0.0
 40
3.535698999999997
100
AcDbArc
 50
43.5406719999997
 51
136.4593280000003
  0
ARC
  5
EA6E5C21A
330
EA6E4DC92
100
AcDbEntity
  8
JISSEN
100
AcDbCircle
 10
88.62009766437427
 20
174.8450316978678
 30
0.0
 40
5.488855
100
AcDbArc
 50
242.1640190000017
 51
297.8359809999982
  0
LINE
  5
EA6E5C21B
330
EA6E4DC92
100
AcDbEntity
  8
JISSEN
100
AcDbLine
 10
86.05712066437423
 20
169.9913026978676
 30
0.0
 11
86.05712066437423
 21
181.9675426978676
 31
0.0
  0
LINE
  5
EA6E5C21C
330
EA6E4DC92
100
AcDbEntity
  8
JISSEN
100
AcDbLine
 10
87.65712066437435
 20
169.0675426978675
 30
0.0
 11
86.05712066437423
 21
169.9913026978676
 31
0.0
  0
LINE
  5
EA6E5C21D
330
EA6E4DC92
100
AcDbEntity
  8
JISSEN
100
AcDbLine
 10
87.65712066437435
 20
185.7391146978677
 30
0.0
 11
87.65712066437435
 21
184.3959696978674
 31
0.0
  0
LINE
  5
EA6E5C21E
330
EA6E4DC92
100
AcDbEntity
  8
JISSEN
100
AcDbLine
 10
87.07133366437437
 20
182.9817556978675
 30
0.0
 11
86.05712066437423
 21
181.9675426978676
 31
0.0
  0
ARC
  5
EA6E5C21F
330
EA6E4DC92
100
AcDbEntity
  8
JISSEN
100
AcDbCircle
 10
85.65712066437413
 20
185.7391146978679
 30
0.0
 40
2.0
100
AcDbArc
 50
0.0
 51
45.00000000000834
  0
ARC
  5
EA6E5C220
330
EA6E4DC92
100
AcDbEntity
  8
JISSEN
100
AcDbCircle
 10
85.65712066437413
 20
184.3959696978676
 30
0.0
 40
2.0
100
AcDbArc
 50
314.9999999999916
 51
0.0
  0
LINE
  5
EA6E5C221
330
EA6E4DC92
100
AcDbEntity
  8
JISSEN
100
AcDbLine
 10
91.18307566437442
 20
169.9913026978676
 30
0.0
 11
91.18307566437442
 21
181.9675426978676
 31
0.0
  0
LINE
  5
EA6E5C222
330
EA6E4DC92
100
AcDbEntity
  8
JISSEN
100
AcDbLine
 10
93.05881466437426
 20
169.9913026978676
 30
0.0
 11
93.05881466437449
 21
181.9675426978676
 31
0.0
  0
LINE
  5
EA6E5C223
330
EA6E4DC92
100
AcDbEntity
  8
JISSEN
100
AcDbLine
 10
91.18307566437442
 20
169.9913026978676
 30
0.0
 11
93.05881466437426
 21
169.9913026978676
 31
0.0
  0
LINE
  5
EA6E5C224
330
EA6E4DC92
100
AcDbEntity
  8
JISSEN
100
AcDbLine
 10
91.18307566437442
 20
181.9675426978676
 30
0.0
 11
93.05881466437449
 21
181.9675426978676
 31
0.0
  0
LWPOLYLINE
  5
EA6E5C225
330
EA6E4DC92
100
AcDbEntity
  8
JISSEN
100
AcDbPolyline
 90
        2
 70
     0
 43
0.0
 10
123.3456127960969
 20
141.5713540561442
 10
123.6571206643743
 20
151.4871377686277
  0
LWPOLYLINE
  5
EA6E5C226
330
EA6E4DC92
100
AcDbEntity
  8
SAISEN
100
AcDbPolyline
 90
        3
 70
     0
 43
0.0
 10
121.3456127960969
 20
141.5713540561442
 10
121.5498126054628
 20
148.0713540561442
 10
123.644058671324
 20
151.0713540561442
  0
ARC
  5
EA6E5C227
330
EA6E4DC92
100
AcDbEntity
  8
JISSEN
100
AcDbCircle
 10
106.6571206643743
 20
185.1546873894769
 30
0.0
 40
34.0833333333328
100
AcDbArc
 50
252.9384687801029
 51
287.061531219897
  0
ARC
  5
EA6E5C228
330
EA6E4DC92
100
AcDbEntity
  8
JISSEN
100
AcDbCircle
 10
106.6571206643743
 20
126.9880207228108
 30
0.0
 40
34.0833333333334
100
AcDbArc
 50
72.93846878010295
 51
107.061531219897
  0
ARC
  5
EA6E5C229
330
EA6E4DC92
100
AcDbEntity
  8
JISSEN
100
AcDbCircle
 10
114.119447664374
 20
165.403796697868
 30
0.0
 40
17.66374499999999
100
AcDbArc
 50
69.67303500000153
 51
110.3269649999984
  0
ARC
  5
EA6E5C22A
330
EA6E4DC92
100
AcDbEntity
  8
JISSEN
100
AcDbCircle
 10
114.119447664374
 20
199.3156366978677
 30
0.0
 40
29.959419
100
AcDbArc
 50
258.1816419999998
 51
281.8183580000001
  0
LINE
  5
EA6E5C22B
330
EA6E4DC92
100
AcDbEntity
  8
JISSEN
100
AcDbLine
 10
96.65712066437436
 20
159.5713540561442
 30
0.0
 11
96.65712066437436
 21
152.5713540561442
 31
0.0
  0
TEXT
  5
EA6E5C22C
330
EA6E4DC92
100
AcDbEntity
  8
TEXT
 62
     7
100
AcDbText
 10
105.3101028406508
 20
159.0792501027955
 30
0.0
 40
2.499982967592715
  1
K30
 50
270.0
  7
K
 72
     4
 11
106.5600943244471
 21
155.8054628833288
 31
0.0
100
AcDbText
  0
LINE
  5
EA6E5C22D
330
EA6E4DC92
100
AcDbEntity
  8
JISSEN
100
AcDbLine
 10
107.9834686643741
 20
169.9913026978676
 30
0.0
 11
107.9834686643744
 21
181.9675426978676
 31
0.0
  0
LINE
  5
EA6E5C22E
330
EA6E4DC92
100
AcDbEntity
  8
JISSEN
100
AcDbLine
 10
105.3307726643743
 20
169.9913026978676
 30
0.0
 11
105.3307726643743
 21
181.9675426978676
 31
0.0
  0
LINE
  5
EA6E5C22F
330
EA6E4DC92
100
AcDbEntity
  8
JISSEN
100
AcDbLine
 10
107.9834686643741
 20
169.9913026978676
 30
0.0
 11
106.6571206643743
 21
169.9913026978676
 31
0.0
  0
LINE
  5
EA6E5C230
330
EA6E4DC92
100
AcDbEntity
  8
JISSEN
100
AcDbLine
 10
106.6571206643743
 20
169.9913026978676
 30
0.0
 11
105.3307726643743
 21
169.9913026978676
 31
0.0
  0
LINE
  5
EA6E5C231
330
EA6E4DC92
100
AcDbEntity
  8
JISSEN
100
AcDbLine
 10
107.9834686643744
 20
181.9675426978676
 30
0.0
 11
106.6571206643743
 21
181.9675426978676
 31
0.0
  0
LINE
  5
EA6E5C232
330
EA6E4DC92
100
AcDbEntity
  8
JISSEN
100
AcDbLine
 10
106.6571206643743
 20
181.9675426978676
 30
0.0
 11
105.3307726643743
 21
181.9675426978676
 31
0.0
  0
LWPOLYLINE
  5
EA6E5C233
330
EA6E4DC92
100
AcDbEntity
  8
SAISEN
100
AcDbPolyline
 90
        3
 70
     0
 43
0.0
 10
121.3928555642019
 20
169.0675426978676
 10
121.5498126054628
 20
164.0713540561442
 10
123.644058671324
 20
161.0713540561442
  0
LWPOLYLINE
  5
EA6E5C234
330
EA6E4DC92
100
AcDbEntity
  8
JISSEN
100
AcDbPolyline
 90
        2
 70
     0
 43
0.0
 10
123.3928555642019
 20
169.0675426978676
 10
123.6571206643743
 20
160.6555703436607
  0
ARC
  5
EA6E5C235
330
EA6E4DC92
100
AcDbEntity
  8
JISSEN
100
AcDbCircle
 10
122.7017881375943
 20
163.6964689311705
 30
0.0
 40
12.66120791411041
100
AcDbArc
 50
241.4832057276872
 51
265.6727198817082
  0
ARC
  5
EA6E5C236
330
EA6E4DC92
100
AcDbEntity
  8
JISSEN
100
AcDbCircle
 10
122.7017881375943
 20
148.446239181118
 30
0.0
 40
12.66120791411041
100
AcDbArc
 50
94.32728011829174
 51
118.5167942723127
  0
LINE
  5
EA6E5C237
330
EA6E4DC92
100
AcDbEntity
  8
JISSEN
100
AcDbLine
 10
116.6571206643743
 20
159.5713540561442
 30
0.0
 11
116.6571206643743
 21
152.5713540561442
 31
0.0
  0
LINE
  5
EA6E5C238
330
EA6E4DC92
100
AcDbEntity
  8
JISSEN
100
AcDbLine
 10
122.1311656643742
 20
169.9913026978676
 30
0.0
 11
122.1311656643742
 21
181.9675426978676
 31
0.0
  0
LINE
  5
EA6E5C239
330
EA6E4DC92
100
AcDbEntity
  8
JISSEN
100
AcDbLine
 10
120.2554266643742
 20
169.9913026978676
 30
0.0
 11
120.2554266643744
 21
181.9675426978676
 31
0.0
  0
LINE
  5
EA6E5C23A
330
EA6E4DC92
100
AcDbEntity
  8
JISSEN
100
AcDbLine
 10
122.1311656643742
 20
169.9913026978676
 30
0.0
 11
120.2554266643742
 21
169.9913026978676
 31
0.0
  0
LINE
  5
EA6E5C23B
330
EA6E4DC92
100
AcDbEntity
  8
JISSEN
100
AcDbLine
 10
122.1311656643742
 20
181.9675426978676
 30
0.0
 11
120.2554266643744
 21
181.9675426978676
 31
0.0
  0
LINE
  5
EA6E5C23C
330
EA6E4DC92
100
AcDbEntity
  8
JISSEN
100
AcDbLine
 10
89.73029139608184
 20
251.9959768260763
 30
0.0
 11
123.5839499326671
 21
251.9959768260761
 31
0.0
  0
LINE
  5
EA6E5C23D
330
EA6E4DC92
100
AcDbEntity
  8
JISSEN
100
AcDbLine
 10
89.73029139608184
 20
268.9959768260761
 30
0.0
 11
123.5839499326671
 21
268.9959768260761
 31
0.0
  0
ARC
  5
EA6E5C23E
330
EA6E4DC92
100
AcDbEntity
  8
JISSEN
100
AcDbCircle
 10
99.19479366437418
 20
217.8194476978678
 30
0.0
 40
29.959419
100
AcDbArc
 50
78.18164199999987
 51
101.8183580000001
  0
LINE
  5
EA6E5C23F
330
EA6E4DC92
100
AcDbEntity
  8
JISSEN
100
AcDbLine
 10
87.65712066437435
 20
248.0675426978675
 30
0.0
 11
106.6571206643743
 21
248.0675426978675
 31
0.0
  0
LINE
  5
EA6E5C240
330
EA6E4DC92
100
AcDbEntity
  8
JISSEN
100
AcDbLine
 10
81.90712066437436
 20
226.5675426978674
 30
0.0
 11
106.6571206643743
 21
226.5675426978674
 31
0.0
  0
LINE
  5
EA6E5C241
330
EA6E4DC92
100
AcDbEntity
  8
JISSEN
100
AcDbLine
 10
82.90712066437436
 20
229.5675426978675
 30
0.0
 11
106.6571206643743
 21
229.5675426978675
 31
0.0
  0
LINE
  5
EA6E5C242
330
EA6E4DC92
100
AcDbEntity
  8
JISSEN
100
AcDbLine
 10
83.40712066437436
 20
222.5675426978674
 30
0.0
 11
106.6571206643743
 21
222.5675426978674
 31
0.0
  0
LINE
  5
EA6E5C243
330
EA6E4DC92
100
AcDbEntity
  8
JISSEN
100
AcDbLine
 10
84.35712066437417
 20
215.0675426978675
 30
0.0
 11
106.6571206643743
 21
215.0675426978675
 31
0.0
  0
LINE
  5
EA6E5C244
330
EA6E4DC92
100
AcDbEntity
  8
JISSEN
100
AcDbLine
 10
85.01568466437447
 20
197.4175426978674
 30
0.0
 11
106.6571206643743
 21
197.4175426978674
 31
0.0
  0
LINE
  5
EA6E5C245
330
EA6E4DC92
100
AcDbEntity
  8
JISSEN
100
AcDbLine
 10
87.1108026643742
 20
195.5675426978675
 30
0.0
 11
106.6571206643743
 21
195.5675426978675
 31
0.0
  0
LINE
  5
EA6E5C246
330
EA6E4DC92
100
AcDbEntity
  8
JISSEN
100
AcDbLine
 10
87.47804766437434
 20
188.5675426978675
 30
0.0
 11
106.6571206643743
 21
188.5675426978675
 31
0.0
  0
ARC
  5
EA6E5C247
330
EA6E4DC92
100
AcDbEntity
  8
JISSEN
100
AcDbCircle
 10
84.05712066437422
 20
231.5675426978677
 30
0.0
 40
2.0
100
AcDbArc
 50
270.0
 51
0.0
  0
ARC
  5
EA6E5C248
330
EA6E4DC92
100
AcDbEntity
  8
JISSEN
100
AcDbCircle
 10
82.90712066437412
 20
228.5675426978677
 30
0.0
 40
1.0
100
AcDbArc
 50
90.0
 51
180.0
  0
ARC
  5
EA6E5C249
330
EA6E4DC92
100
AcDbEntity
  8
JISSEN
100
AcDbCircle
 10
83.90712066437414
 20
223.890417697868
 30
0.0
 40
2.0
100
AcDbArc
 50
180.0
 51
221.4096219999982
  0
LINE
  5
EA6E5C24A
330
EA6E4DC92
100
AcDbEntity
  8
JISSEN
100
AcDbLine
 10
81.90712066437436
 20
228.5675426978674
 30
0.0
 11
81.90712066437436
 21
226.5675426978674
 31
0.0
  0
LINE
  5
EA6E5C24B
330
EA6E4DC92
100
AcDbEntity
  8
JISSEN
100
AcDbLine
 10
81.90712066437436
 20
226.5675426978674
 30
0.0
 11
81.90712066437436
 21
223.8904176978678
 31
0.0
  0
LINE
  5
EA6E5C24C
330
EA6E4DC92
100
AcDbEntity
  8
JISSEN
100
AcDbLine
 10
83.65712066437437
 20
213.8036196978675
 30
0.0
 11
83.65712066437437
 21
198.3959696978674
 31
0.0
  0
ARC
  5
EA6E5C24D
330
EA6E4DC92
100
AcDbEntity
  8
JISSEN
100
AcDbCircle
 10
85.65712066437413
 20
198.3959696978676
 30
0.0
 40
2.0
100
AcDbArc
 50
180.0
 51
225.0000000000083
  0
ARC
  5
EA6E5C24E
330
EA6E4DC92
100
AcDbEntity
  8
JISSEN
100
AcDbCircle
 10
83.65712066437414
 20
194.7391146978679
 30
0.0
 40
2.0
100
AcDbArc
 50
0.0
 51
45.00000000000834
  0
ARC
  5
EA6E5C24F
330
EA6E4DC92
100
AcDbEntity
  8
JISSEN
100
AcDbCircle
 10
87.65712066437414
 20
189.3959696978676
 30
0.0
 40
2.0
100
AcDbArc
 50
180.0
 51
225.0000000000083
  0
LINE
  5
EA6E5C250
330
EA6E4DC92
100
AcDbEntity
  8
JISSEN
100
AcDbLine
 10
85.07133366437438
 20
196.1533286978676
 30
0.0
 11
84.24290666437423
 21
196.9817556978675
 31
0.0
  0
LINE
  5
EA6E5C251
330
EA6E4DC92
100
AcDbEntity
  8
JISSEN
100
AcDbLine
 10
85.65712066437436
 20
194.7391146978677
 30
0.0
 11
85.65712066437436
 21
189.3959696978674
 31
0.0
  0
LINE
  5
EA6E5C252
330
EA6E4DC92
100
AcDbEntity
  8
JISSEN
100
AcDbLine
 10
82.90712066437436
 20
221.2446666978677
 30
0.0
 11
82.90712066437436
 21
216.1354646978677
 31
0.0
  0
ARC
  5
EA6E5C253
330
EA6E4DC92
100
AcDbEntity
  8
JISSEN
100
AcDbCircle
 10
81.65712066437412
 20
213.8036196978677
 30
0.0
 40
2.0
100
AcDbArc
 50
0.0
 51
35.65908799999362
  0
ARC
  5
EA6E5C254
330
EA6E4DC92
100
AcDbEntity
  8
JISSEN
100
AcDbCircle
 10
84.90712066437414
 20
216.1354646978679
 30
0.0
 40
2.0
100
AcDbArc
 50
180.0
 51
215.6590879999936
  0
LINE
  5
EA6E5C255
330
EA6E4DC92
100
AcDbEntity
  8
JISSEN
100
AcDbLine
 10
82.90712066437436
 20
229.5675426978675
 30
0.0
 11
83.15712066437436
 21
229.5675426978675
 31
0.0
  0
ARC
  5
EA6E5C256
330
EA6E4DC92
100
AcDbEntity
  8
JISSEN
100
AcDbCircle
 10
80.90712066437413
 20
221.244666697868
 30
0.0
 40
2.0
100
AcDbArc
 50
0.0
 51
41.40962199999829
  0
LWPOLYLINE
  5
EA6E5C257
330
EA6E4DC92
100
AcDbEntity
  8
SAISEN
100
AcDbPolyline
 90
        3
 70
     0
 43
0.0
 10
89.65712066437436
 20
254.9959768260764
 10
91.73043908513022
 20
251.9959768260763
 10
91.82616480371303
 20
248.0675426978676
  0
LWPOLYLINE
  5
EA6E5C258
330
EA6E4DC92
100
AcDbEntity
  8
JISSEN
100
AcDbPolyline
 90
        2
 70
     0
 43
0.0
 10
89.82610686262342
 20
248.0675426978676
 10
89.65712066437436
 20
254.9959768260762
  0
ARC
  5
EA6E5C259
330
EA6E4DC92
100
AcDbEntity
  8
JISSEN
100
AcDbCircle
 10
88.62009766437427
 20
242.2900526978677
 30
0.0
 40
5.488855
100
AcDbArc
 50
62.16401900000177
 51
117.8359809999982
  0
LINE
  5
EA6E5C25A
330
EA6E4DC92
100
AcDbEntity
  8
JISSEN
100
AcDbLine
 10
86.05712066437423
 20
247.1437816978674
 30
0.0
 11
86.05712066437423
 21
231.5675426978675
 31
0.0
  0
LINE
  5
EA6E5C25B
330
EA6E4DC92
100
AcDbEntity
  8
JISSEN
100
AcDbLine
 10
87.65712066437435
 20
248.0675426978675
 30
0.0
 11
86.05712066437423
 21
247.1437816978674
 31
0.0
  0
LINE
  5
EA6E5C25C
330
EA6E4DC92
100
AcDbEntity
  8
JISSEN
100
AcDbLine
 10
91.18307566437442
 20
247.1437816978674
 30
0.0
 11
91.18307566437442
 21
231.5675426978675
 31
0.0
  0
LINE
  5
EA6E5C25D
330
EA6E4DC92
100
AcDbEntity
  8
JISSEN
100
AcDbLine
 10
93.05881466437449
 20
247.1437816978674
 30
0.0
 11
93.05881466437449
 21
231.5675426978675
 31
0.0
  0
LINE
  5
EA6E5C25E
330
EA6E4DC92
100
AcDbEntity
  8
JISSEN
100
AcDbLine
 10
91.18307566437442
 20
247.1437816978674
 30
0.0
 11
93.05881466437449
 21
247.1437816978674
 31
0.0
  0
LINE
  5
EA6E5C25F
330
EA6E4DC92
100
AcDbEntity
  8
JISSEN
100
AcDbLine
 10
95.65712066437436
 20
265.9959768260761
 30
0.0
 11
95.65712066437436
 21
254.9959768260761
 31
0.0
  0
TEXT
  5
EA6E5C260
330
EA6E4DC92
100
AcDbEntity
  8
JISSEN
100
AcDbText
 10
101.6683246643742
 20
209.4337048883439
 30
0.0
 40
10.0
  1
1
 50
270.0
  7
35FONT
 72
     1
 11
101.6683246643742
 21
208.2432286978677
 31
0.0
100
AcDbText
  0
ARC
  5
EA6E5C261
330
EA6E4DC92
100
AcDbEntity
  8
JISSEN
100
AcDbCircle
 10
114.119447664374
 20
217.8194476978678
 30
0.0
 40
29.959419
100
AcDbArc
 50
78.18164199999987
 51
101.8183580000001
  0
LINE
  5
EA6E5C262
330
EA6E4DC92
100
AcDbEntity
  8
JISSEN
100
AcDbLine
 10
107.9834686643744
 20
247.1437816978674
 30
0.0
 11
107.9834686643744
 21
231.5675426978675
 31
0.0
  0
LINE
  5
EA6E5C263
330
EA6E4DC92
100
AcDbEntity
  8
JISSEN
100
AcDbLine
 10
105.3307726643743
 20
247.1437816978674
 30
0.0
 11
105.3307726643743
 21
231.5675426978675
 31
0.0
  0
LINE
  5
EA6E5C264
330
EA6E4DC92
100
AcDbEntity
  8
JISSEN
100
AcDbLine
 10
107.9834686643744
 20
247.1437816978674
 30
0.0
 11
106.6571206643743
 21
247.1437816978674
 31
0.0
  0
LINE
  5
EA6E5C265
330
EA6E4DC92
100
AcDbEntity
  8
JISSEN
100
AcDbLine
 10
105.3307726643743
 20
247.1437816978674
 30
0.0
 11
106.6571206643743
 21
247.1437816978674
 31
0.0
  0
LWPOLYLINE
  5
EA6E5C266
330
EA6E4DC92
100
AcDbEntity
  8
JISSEN
100
AcDbPolyline
 90
        2
 70
     0
 43
0.0
 10
123.6571206643743
 20
254.9959768260762
 10
123.4881344661255
 20
248.0675426978676
  0
LWPOLYLINE
  5
EA6E5C267
330
EA6E4DC92
100
AcDbEntity
  8
SAISEN
100
AcDbPolyline
 90
        3
 70
     0
 43
0.0
 10
123.6571206643743
 20
254.9959768260762
 10
121.5838022436184
 20
251.9959768260763
 10
121.4880765250357
 20
248.0675426978676
  0
LINE
  5
EA6E5C268
330
EA6E4DC92
100
AcDbEntity
  8
JISSEN
100
AcDbLine
 10
122.1311656643742
 20
247.1437816978674
 30
0.0
 11
122.1311656643742
 21
231.5675426978675
 31
0.0
  0
LINE
  5
EA6E5C269
330
EA6E4DC92
100
AcDbEntity
  8
JISSEN
100
AcDbLine
 10
120.2554266643744
 20
247.1437816978674
 30
0.0
 11
120.2554266643744
 21
231.5675426978675
 31
0.0
  0
LINE
  5
EA6E5C26A
330
EA6E4DC92
100
AcDbEntity
  8
JISSEN
100
AcDbLine
 10
122.1311656643742
 20
247.1437816978674
 30
0.0
 11
120.2554266643744
 21
247.1437816978674
 31
0.0
  0
LINE
  5
EA6E5C26B
330
EA6E4DC92
100
AcDbEntity
  8
JISSEN
100
AcDbLine
 10
117.6571206643743
 20
265.9959768260761
 30
0.0
 11
117.6571206643743
 21
254.9959768260761
 31
0.0
  0
LINE
  5
EA6E5C26C
330
EA6E4DC92
100
AcDbEntity
  8
TENSEN
  6
BREAK
100
AcDbLine
 10
152.8922249114641
 20
189.8233660150873
 30
0.0
 11
151.3922249114641
 21
187.2252898037342
 31
0.0
  0
LINE
  5
EA6E5C26D
330
EA6E4DC92
100
AcDbEntity
  8
JISSEN
100
AcDbLine
 10
151.9843928635641
 20
186.8834014771838
 30
0.0
 11
145.9071206643743
 21
190.3921162173248
 31
0.0
  0
LINE
  5
EA6E5C26E
330
EA6E4DC92
100
AcDbEntity
  8
JISSEN
100
AcDbLine
 10
127.0713336643743
 20
187.9817556978675
 30
0.0
 11
126.2429066643744
 21
187.1533286978676
 31
0.0
  0
LINE
  5
EA6E5C26F
330
EA6E4DC92
100
AcDbEntity
  8
JISSEN
100
AcDbLine
 10
157.9843928635639
 20
186.8834014771838
 30
0.0
 11
147.4071206643743
 21
192.9901924286779
 31
0.0
  0
LINE
  5
EA6E5C270
330
EA6E4DC92
100
AcDbEntity
  8
JISSEN
100
AcDbLine
 10
160.9843928635641
 20
186.8834014771838
 30
0.0
 11
148.9843928635641
 21
186.8834014771838
 31
0.0
  0
LINE
  5
EA6E5C271
330
EA6E4DC92
100
AcDbEntity
  8
JISSEN
100
AcDbLine
 10
148.9843928635641
 20
186.8834014771838
 30
0.0
 11
161.6571206643743
 21
179.5667986700193
 31
0.0
  0
INSERT
  5
EA6E5C272
330
EA6E4DC92
100
AcDbEntity
  8
SUNPOU
100
AcDbBlockReference
  2
ARROWANG
 10
126.6571206643742
 20
155.9068688795555
 30
0.0
 41
2.999999999999955
 42
3.0
 43
3.0
 50
186.773858052235
1001
ACAD
1000
DSTYLE
1002
{
1070
   147
1040
1.0
1070
    77
1070
     0
1002
}
  0
LWPOLYLINE
  5
EA6E5C273
330
EA6E4DC92
100
AcDbEntity
  8
JISSEN
100
AcDbPolyline
 90
        2
 70
     0
 43
0.0
 10
126.6571206643743
 20
159.5713540561442
 10
126.6571206643743
 20
152.5713540561442
  0
LINE
  5
EA6E5C274
330
EA6E4DC92
100
AcDbEntity
  8
JISSEN
100
AcDbLine
 10
127.2571206643742
 20
169.9913026978676
 30
0.0
 11
127.2571206643742
 21
181.9675426978676
 31
0.0
  0
LINE
  5
EA6E5C275
330
EA6E4DC92
100
AcDbEntity
  8
JISSEN
100
AcDbLine
 10
125.6571206643743
 20
169.0675426978675
 30
0.0
 11
127.2571206643742
 21
169.9913026978676
 31
0.0
  0
ARC
  5
EA6E5C276
330
EA6E4DC92
100
AcDbEntity
  8
JISSEN
100
AcDbCircle
 10
127.6571206643741
 20
185.7391146978679
 30
0.0
 40
2.0
100
AcDbArc
 50
134.9999999999916
 51
180.0
  0
ARC
  5
EA6E5C277
330
EA6E4DC92
100
AcDbEntity
  8
JISSEN
100
AcDbCircle
 10
127.6571206643741
 20
184.3959696978676
 30
0.0
 40
2.0
100
AcDbArc
 50
180.0
 51
225.0000000000083
  0
LINE
  5
EA6E5C278
330
EA6E4DC92
100
AcDbEntity
  8
JISSEN
100
AcDbLine
 10
126.2429066643744
 20
182.9817556978675
 30
0.0
 11
127.2571206643742
 21
181.9675426978676
 31
0.0
  0
LINE
  5
EA6E5C279
330
EA6E4DC92
100
AcDbEntity
  8
JISSEN
  6
Continuous
100
AcDbLine
 10
125.6571206643743
 20
185.7391146978677
 30
0.0
 11
125.6571206643743
 21
184.3959696978674
 31
0.0
  0
LINE
  5
EA6E5C27A
330
EA6E4DC92
100
AcDbEntity
  8
JISSEN
100
AcDbLine
 10
125.6571206643743
 20
185.7391146978677
 30
0.0
 11
125.6571206643743
 21
184.3959696978674
 31
0.0
  0
ARC
  5
EA6E5C27B
330
EA6E4DC92
100
AcDbEntity
  8
JISSEN
100
AcDbCircle
 10
161.4071206643743
 20
179.1337859681272
 30
0.0
 40
6.5
100
AcDbArc
 50
0.0
 51
59.99999999999664
  0
LINE
  5
EA6E5C27C
330
EA6E4DC92
100
AcDbEntity
  8
JISSEN
100
AcDbLine
 10
160.9843928635641
 20
186.8834014771838
 30
0.0
 11
164.6571206643743
 21
184.762951092726
 31
0.0
  0
ARC
  5
EA6E5C27D
330
EA6E4DC92
100
AcDbEntity
  8
JISSEN
100
AcDbCircle
 10
161.4071206643743
 20
179.1337859681272
 30
0.0
 40
0.5
100
AcDbArc
 50
0.0
 51
59.99999999999664
  0
LINE
  5
EA6E5C27E
330
EA6E4DC92
100
AcDbEntity
  8
JISSEN
100
AcDbLine
 10
148.9876772479751
 20
216.0730961973328
 30
0.0
 11
152.8265640807737
 21
216.0730961973328
 31
0.0
  0
LINE
  5
EA6E5C27F
330
EA6E4DC92
100
AcDbEntity
  8
JISSEN
100
AcDbLine
 10
148.9876772479751
 20
204.8147659481348
 30
0.0
 11
152.8265640807737
 21
204.8147659481348
 31
0.0
  0
LINE
  5
EA6E5C280
330
EA6E4DC92
100
AcDbEntity
  8
JISSEN
100
AcDbLine
 10
148.9876772479751
 20
212.3203194476001
 30
0.0
 11
152.8265640807737
 21
212.3203194476001
 31
0.0
  0
LINE
  5
EA6E5C281
330
EA6E4DC92
100
AcDbEntity
  8
JISSEN
100
AcDbLine
 10
148.9876772479751
 20
201.0619891984026
 30
0.0
 11
152.8265640807737
 21
201.0619891984026
 31
0.0
  0
ARC
  5
EA6E5C282
330
EA6E4DC92
100
AcDbEntity
  8
JISSEN
100
AcDbCircle
 10
129.2571206643742
 20
231.5675426978677
 30
0.0
 40
2.0
100
AcDbArc
 50
180.0
 51
270.0
  0
LINE
  5
EA6E5C283
330
EA6E4DC92
100
AcDbEntity
  8
JISSEN
100
AcDbLine
 10
142.4071206643743
 20
218.0675426978675
 30
0.0
 11
132.9071206643743
 21
218.0675426978675
 31
0.0
  0
LINE
  5
EA6E5C284
330
EA6E4DC92
100
AcDbEntity
  8
JISSEN
100
AcDbLine
 10
142.4071206643743
 20
199.0675426978675
 30
0.0
 11
132.9071206643743
 21
199.0675426978675
 31
0.0
  0
LINE
  5
EA6E5C285
330
EA6E4DC92
100
AcDbEntity
  8
JISSEN
100
AcDbLine
 10
131.9071206643743
 20
208.5675426978675
 30
0.0
 11
131.9071206643743
 21
217.0675426978675
 31
0.0
  0
SPLINE
  5
EA6E5C286
330
EA6E4DC92
100
AcDbEntity
  8
JISSEN
100
AcDbSpline
210
0.0
220
0.0
230
1.0
 70
     8
 71
     3
 72
     8
 73
     4
 74
     0
 42
0.0000000001
 43
0.0000000001
 40
5.526513857442442
 40
5.526513857442442
 40
5.526513857442442
 40
5.526513857442442
 40
10.80205680575085
 40
10.80205680575085
 40
10.80205680575085
 40
10.80205680575085
 10
127.7517168789154
 20
213.8170955438293
 30
0.0
 10
127.3183357534066
 20
212.0869959165323
 30
0.0
 10
127.079644784141
 20
210.3190851284733
 30
0.0
 10
127.1205024542757
 20
208.5675422132665
 30
0.0
  0
ARC
  5
EA6E5C287
330
EA6E4DC92
100
AcDbEntity
  8
JISSEN
100
AcDbCircle
 10
131.1750696643741
 20
199.0675426978677
 30
0.0
 40
1.0
100
AcDbArc
 50
270.0
 51
330.0000000000021
  0
ARC
  5
EA6E5C288
330
EA6E4DC92
100
AcDbEntity
  8
JISSEN
100
AcDbCircle
 10
129.6571206643741
 20
194.7391146978679
 30
0.0
 40
2.0
100
AcDbArc
 50
134.9999999999916
 51
180.0
  0
ARC
  5
EA6E5C289
330
EA6E4DC92
100
AcDbEntity
  8
JISSEN
100
AcDbCircle
 10
125.6571206643741
 20
189.3959696978676
 30
0.0
 40
2.0
100
AcDbArc
 50
314.9999999999916
 51
0.0
  0
LINE
  5
EA6E5C28A
330
EA6E4DC92
100
AcDbEntity
  8
JISSEN
100
AcDbLine
 10
127.6571206643743
 20
194.7391146978677
 30
0.0
 11
127.6571206643743
 21
189.3959696978674
 31
0.0
  0
LINE
  5
EA6E5C28B
330
EA6E4DC92
100
AcDbEntity
  8
JISSEN
100
AcDbLine
 10
131.1750696643743
 20
198.0675426978675
 30
0.0
 11
130.9095696643742
 21
198.0675426978675
 31
0.0
  0
LINE
  5
EA6E5C28C
330
EA6E4DC92
100
AcDbEntity
  8
JISSEN
100
AcDbLine
 10
128.2429066643744
 20
196.1533286978676
 30
0.0
 11
129.0713336643743
 21
196.9817556978675
 31
0.0
  0
ARC
  5
EA6E5C28D
330
EA6E4DC92
100
AcDbEntity
  8
JISSEN
100
AcDbCircle
 10
127.6571206643741
 20
198.3959696978676
 30
0.0
 40
2.0
100
AcDbArc
 50
314.9999999999916
 51
324.4011410000033
  0
ARC
  5
EA6E5C28E
330
EA6E4DC92
100
AcDbEntity
  8
JISSEN
100
AcDbCircle
 10
130.9095696643739
 20
196.0675426978677
 30
0.0
 40
2.0
100
AcDbArc
 50
90.0
 51
144.4011410000033
  0
SPLINE
  5
EA6E5C28F
330
EA6E4DC92
100
AcDbEntity
  8
JISSEN
100
AcDbSpline
210
0.0
220
0.0
230
1.0
 70
     8
 71
     3
 72
     8
 73
     4
 74
     0
 42
0.0000000001
 43
0.0000000001
 40
1.210314090895789
 40
1.210314090895789
 40
1.210314090895789
 40
1.210314090895789
 40
10.80205680575085
 40
10.80205680575085
 40
10.80205680575085
 40
10.80205680575085
 10
129.1599214595141
 20
199.17713233778
 30
0.0
 10
127.8960296322443
 20
202.1442902747415
 30
0.0
 10
127.046216970544
 20
205.3829697130889
 30
0.0
 10
127.1205024542757
 20
208.5675422132665
 30
0.0
  0
ARC
  5
EA6E5C290
330
EA6E4DC92
100
AcDbEntity
  8
JISSEN
100
AcDbCircle
 10
132.9071206643741
 20
198.0675426978677
 30
0.0
 40
1.0
100
AcDbArc
 50
90.0
 51
150.0000000000021
  0
LINE
  5
EA6E5C291
330
EA6E4DC92
100
AcDbEntity
  8
JISSEN
100
AcDbLine
 10
131.9071206643743
 20
208.5675426978675
 30
0.0
 11
131.9071206643743
 21
200.0675426978675
 31
0.0
  0
ARC
  5
EA6E5C292
330
EA6E4DC92
100
AcDbEntity
  8
JISSEN
100
AcDbCircle
 10
130.4071206643741
 20
228.5675426978677
 30
0.0
 40
1.0
100
AcDbArc
 50
0.0
 51
90.0
  0
ARC
  5
EA6E5C293
330
EA6E4DC92
100
AcDbEntity
  8
JISSEN
100
AcDbCircle
 10
129.4071206643741
 20
223.890417697868
 30
0.0
 40
2.0
100
AcDbArc
 50
318.5903780000017
 51
0.0
  0
ARC
  5
EA6E5C294
330
EA6E4DC92
100
AcDbEntity
  8
JISSEN
100
AcDbCircle
 10
132.4071206643739
 20
220.8028756978678
 30
0.0
 40
2.0
100
AcDbArc
 50
180.0
 51
245.7522149999956
  0
ARC
  5
EA6E5C295
330
EA6E4DC92
100
AcDbEntity
  8
JISSEN
100
AcDbCircle
 10
127.6869546643742
 20
216.854941697868
 30
0.0
 40
1.834481999999999
100
AcDbArc
 50
283.0090819999967
 51
336.9087820000023
  0
SPLINE
  5
EA6E5C296
330
EA6E4DC92
100
AcDbEntity
  8
JISSEN
100
AcDbSpline
210
0.0
220
0.0
230
1.0
 70
     8
 71
     3
 72
     8
 73
     4
 74
     0
 42
0.0000000001
 43
0.0000000001
 40
0.5678758884252421
 40
0.5678758884252421
 40
0.5678758884252421
 40
0.5678758884252421
 40
3.08188610348608
 40
3.08188610348608
 40
3.08188610348608
 40
3.08188610348608
 10
130.20985917259
 20
218.5336823045634
 30
0.0
 10
129.9200196813139
 20
217.7435546734744
 30
0.0
 10
129.6368089842251
 20
216.9433357587507
 30
0.0
 10
129.3744611454189
 20
216.1354645094864
 30
0.0
  0
LINE
  5
EA6E5C297
330
EA6E4DC92
100
AcDbEntity
  8
JISSEN
100
AcDbLine
 10
131.4071206643743
 20
228.5675426978674
 30
0.0
 11
131.4071206643743
 21
226.5675426978674
 31
0.0
  0
LINE
  5
EA6E5C298
330
EA6E4DC92
100
AcDbEntity
  8
JISSEN
100
AcDbLine
 10
130.4071206643743
 20
229.5675426978675
 30
0.0
 11
130.1571206643741
 21
229.5675426978675
 31
0.0
  0
LINE
  5
EA6E5C299
330
EA6E4DC92
100
AcDbEntity
  8
JISSEN
100
AcDbLine
 10
130.4071206643743
 20
221.2446666978677
 30
0.0
 11
130.4071206643743
 21
220.8028756978675
 31
0.0
  0
ARC
  5
EA6E5C29A
330
EA6E4DC92
100
AcDbEntity
  8
JISSEN
100
AcDbCircle
 10
132.4071206643739
 20
221.244666697868
 30
0.0
 40
2.0
100
AcDbArc
 50
138.5903780000016
 51
180.0
  0
LINE
  5
EA6E5C29B
330
EA6E4DC92
100
AcDbEntity
  8
JISSEN
100
AcDbLine
 10
131.4071206643743
 20
226.5675426978674
 30
0.0
 11
131.4071206643743
 21
223.8904176978678
 31
0.0
  0
ARC
  5
EA6E5C29C
330
EA6E4DC92
100
AcDbEntity
  8
JISSEN
100
AcDbCircle
 10
132.9071206643741
 20
219.0675426978677
 30
0.0
 40
1.0
100
AcDbArc
 50
209.9999999999978
 51
270.0
  0
ARC
  5
EA6E5C29D
330
EA6E4DC92
100
AcDbEntity
  8
JISSEN
100
AcDbCircle
 10
131.1750696643741
 20
218.0675426978677
 30
0.0
 40
1.0
100
AcDbArc
 50
29.99999999999786
 51
65.75221499999567
  0
LINE
  5
EA6E5C29E
330
EA6E4DC92
100
AcDbEntity
  8
JISSEN
100
AcDbLine
 10
148.4071206643743
 20
211.183568101652
 30
0.0
 11
146.4071206643743
 21
207.7194664865143
 31
0.0
  0
LINE
  5
EA6E5C29F
330
EA6E4DC92
100
AcDbEntity
  8
JISSEN
100
AcDbLine
 10
148.4071206643743
 20
209.183568101652
 30
0.0
 11
146.4071206643743
 21
205.7194664865143
 31
0.0
  0
ARC
  5
EA6E5C2A0
330
EA6E4DC92
100
AcDbEntity
  8
JISSEN
100
AcDbCircle
 10
160.826564080773
 20
208.5675426978677
 30
0.0
 40
12.41944341639882
100
AcDbArc
 50
162.4120462260085
 51
197.5879537739914
  0
LINE
  5
EA6E5C2A1
330
EA6E4DC92
100
AcDbEntity
  8
JISSEN
100
AcDbLine
 10
142.4071206643743
 20
208.5675426978675
 30
0.0
 11
142.4071206643743
 21
218.0675426978675
 31
0.0
  0
LINE
  5
EA6E5C2A2
330
EA6E4DC92
100
AcDbEntity
  8
JISSEN
100
AcDbLine
 10
148.4071206643743
 20
200.8675426978677
 30
0.0
 11
148.4071206643743
 21
216.2675426978677
 31
0.0
  0
LINE
  5
EA6E5C2A3
330
EA6E4DC92
100
AcDbEntity
  8
JISSEN
100
AcDbLine
 10
143.4071206643743
 20
223.5675426978675
 30
0.0
 11
143.4071206643743
 21
194.722243236247
 31
0.0
  0
LINE
  5
EA6E5C2A4
330
EA6E4DC92
100
AcDbEntity
  8
JISSEN
100
AcDbLine
 10
146.4071206643743
 20
223.5675426978675
 30
0.0
 11
146.4071206643743
 21
194.722243236247
 31
0.0
  0
ARC
  5
EA6E5C2A5
330
EA6E4DC92
100
AcDbEntity
  8
JISSEN
100
AcDbCircle
 10
148.4071206643743
 20
194.7222432362472
 30
0.0
 40
5.0
100
AcDbArc
 50
180.0
 51
239.9999999999966
  0
LINE
  5
EA6E5C2A6
330
EA6E4DC92
100
AcDbEntity
  8
JISSEN
100
AcDbLine
 10
142.4071206643743
 20
199.5675426978675
 30
0.0
 11
143.4071206643743
 21
199.5675426978675
 31
0.0
  0
LINE
  5
EA6E5C2A7
330
EA6E4DC92
100
AcDbEntity
  8
JISSEN
100
AcDbLine
 10
142.4071206643743
 20
208.5675426978675
 30
0.0
 11
142.4071206643743
 21
199.0675426978675
 31
0.0
  0
ARC
  5
EA6E5C2A8
330
EA6E4DC92
100
AcDbEntity
  8
JISSEN
100
AcDbCircle
 10
148.4071206643743
 20
194.7222432362472
 30
0.0
 40
2.0
100
AcDbArc
 50
180.0
 51
239.9999999999966
  0
LINE
  5
EA6E5C2A9
330
EA6E4DC92
100
AcDbEntity
  8
TENSEN
  6
BREAK
100
AcDbLine
 10
148.5620978925421
 20
192.3233660150874
 30
0.0
 11
147.0620978925421
 21
189.7252898037342
 31
0.0
  0
LINE
  5
EA6E5C2AA
330
EA6E4DC92
100
AcDbEntity
  8
JISSEN
100
AcDbLine
 10
148.4071206643743
 20
200.8675426978677
 30
0.0
 11
146.4071206643743
 21
200.8675426978677
 31
0.0
  0
LINE
  5
EA6E5C2AB
330
EA6E4DC92
100
AcDbEntity
  8
JISSEN
100
AcDbLine
 10
148.4071206643745
 20
202.0675426978675
 30
0.0
 11
148.9876772479751
 21
201.0619891984026
 31
0.0
  0
ARC
  5
EA6E5C2AC
330
EA6E4DC92
100
AcDbEntity
  8
JISSEN
100
AcDbCircle
 10
151.7296902373241
 20
202.9383775732689
 30
0.0
 40
3.322569572950068
100
AcDbArc
 50
145.6157525319557
 51
214.3842474680354
  0
LINE
  5
EA6E5C2AD
330
EA6E4DC92
100
AcDbEntity
  8
JISSEN
100
AcDbLine
 10
146.4071206643743
 20
223.5675426978675
 30
0.0
 11
143.4071206643743
 21
223.5675426978675
 31
0.0
  0
LINE
  5
EA6E5C2AE
330
EA6E4DC92
100
AcDbEntity
  8
JISSEN
100
AcDbLine
 10
142.4071206643743
 20
217.5675426978675
 30
0.0
 11
143.4071206643743
 21
217.5675426978675
 31
0.0
  0
LINE
  5
EA6E5C2AF
330
EA6E4DC92
100
AcDbEntity
  8
JISSEN
100
AcDbLine
 10
148.4071206643743
 20
216.2675426978677
 30
0.0
 11
146.4071206643743
 21
216.2675426978677
 31
0.0
  0
LINE
  5
EA6E5C2B0
330
EA6E4DC92
100
AcDbEntity
  8
JISSEN
100
AcDbLine
 10
148.4071206643745
 20
215.0675426978675
 30
0.0
 11
148.9876772479751
 21
216.0730961973328
 31
0.0
  0
ARC
  5
EA6E5C2B1
330
EA6E4DC92
100
AcDbEntity
  8
JISSEN
100
AcDbCircle
 10
151.7296902373241
 20
214.1967078224665
 30
0.0
 40
3.322569572950015
100
AcDbArc
 50
145.6157525319557
 51
214.3842474680354
  0
LINE
  5
EA6E5C2B2
330
EA6E4DC92
100
AcDbEntity
  8
JISSEN
100
AcDbLine
 10
127.2571206643742
 20
247.1437816978674
 30
0.0
 11
127.2571206643742
 21
231.5675426978675
 31
0.0
  0
LINE
  5
EA6E5C2B3
330
EA6E4DC92
100
AcDbEntity
  8
JISSEN
100
AcDbLine
 10
125.6571206643743
 20
248.0675426978675
 30
0.0
 11
127.2571206643742
 21
247.1437816978674
 31
0.0
  0
INSERT
  5
EA6E5C2B4
330
EA6E4DC92
100
AcDbEntity
  8
SUNPOU
100
AcDbBlockReference
  2
ARROWANG
 10
128.1571206643743
 20
260.1604620026612
 30
0.0
 41
2.999999999999937
 42
3.0
 43
3.0
 50
139.7549497692892
1001
ACAD
1000
DSTYLE
1002
{
1070
   147
1040
1.0
1070
    77
1070
     0
1002
}
  0
LINE
  5
EA6E5C2B5
330
EA6E4DC92
100
AcDbEntity
  8
JISSEN
100
AcDbLine
 10
155.5571206643744
 20
209.0675426978675
 30
0.0
 11
155.5571206643744
 21
208.5675426978679
 31
0.0
  0
LINE
  5
EA6E5C2B6
330
EA6E4DC92
100
AcDbEntity
  8
JISSEN
100
AcDbLine
 10
155.0571206643744
 20
212.5675426978679
 30
0.0
 11
155.0571206643749
 21
208.5675426978679
 31
0.0
  0
ARC
  5
EA6E5C2B7
330
EA6E4DC92
100
AcDbEntity
  8
JISSEN
100
AcDbCircle
 10
140.9876772479754
 20
208.5675426978677
 30
0.0
 40
12.41944341639882
100
AcDbArc
 50
342.4120462260085
 51
17.58795377399145
  0
LINE
  5
EA6E5C2B8
330
EA6E4DC92
100
AcDbEntity
  8
JISSEN
100
AcDbLine
 10
153.4071206643745
 20
202.0675426978675
 30
0.0
 11
153.4071206643743
 21
215.0675426978675
 31
0.0
  0
INSERT
  5
EA6E5C2B9
330
EA6E4DC92
100
AcDbEntity
  8
SUNPOU
100
AcDbBlockReference
  2
ARROWANG
 10
156.0590356268817
 20
205.5459541770426
 30
0.0
 41
3.000000000000027
 42
3.0
 43
3.0
 50
148.9127205683848
1001
ACAD
1000
DSTYLE
1002
{
1070
   147
1040
1.0
1070
    77
1070
     0
1002
}
  0
LINE
  5
EA6E5C2BA
330
EA6E4DC92
100
AcDbEntity
  8
JISSEN
100
AcDbLine
 10
155.0571206643744
 20
204.5675426978679
 30
0.0
 11
156.0571206643228
 21
205.5675426978161
 31
0.0
  0
LINE
  5
EA6E5C2BB
330
EA6E4DC92
100
AcDbEntity
  8
JISSEN
100
AcDbLine
 10
155.5571206643744
 20
208.0675426978674
 30
0.0
 11
156.0571206643744
 21
208.0675426978674
 31
0.0
  0
LINE
  5
EA6E5C2BC
330
EA6E4DC92
100
AcDbEntity
  8
JISSEN
100
AcDbLine
 10
155.5571206643744
 20
208.0675426978674
 30
0.0
 11
155.5571206643744
 21
208.5675426978679
 31
0.0
  0
LINE
  5
EA6E5C2BD
330
EA6E4DC92
100
AcDbEntity
  8
JISSEN
100
AcDbLine
 10
156.0571206643744
 20
205.5675426978679
 30
0.0
 11
156.0571206643744
 21
208.0675426978674
 31
0.0
  0
LINE
  5
EA6E5C2BE
330
EA6E4DC92
100
AcDbEntity
  8
JISSEN
100
AcDbLine
 10
155.0571206643744
 20
204.5675426978679
 30
0.0
 11
155.0571206643749
 21
208.5675426978679
 31
0.0
  0
LINE
  5
EA6E5C2BF
330
EA6E4DC92
100
AcDbEntity
  8
JISSEN
100
AcDbLine
 10
153.4071206643745
 20
202.0675426978675
 30
0.0
 11
152.8265640807737
 21
201.0619891984026
 31
0.0
  0
ARC
  5
EA6E5C2C0
330
EA6E4DC92
100
AcDbEntity
  8
JISSEN
100
AcDbCircle
 10
150.0845510914243
 20
202.9383775732689
 30
0.0
 40
3.322569572950068
100
AcDbArc
 50
325.6157525319557
 51
34.38424746803551
  0
LINE
  5
EA6E5C2C1
330
EA6E4DC92
100
AcDbEntity
  8
JISSEN
100
AcDbLine
 10
155.7571206643747
 20
205.2675426978677
 30
0.0
 11
153.4071206643745
 21
205.2675426978677
 31
0.0
  0
LINE
  5
EA6E5C2C2
330
EA6E4DC92
100
AcDbEntity
  8
JISSEN
100
AcDbLine
 10
153.4071206643745
 20
204.5675426978679
 30
0.0
 11
155.0571206643744
 21
204.5675426978679
 31
0.0
  0
LINE
  5
EA6E5C2C3
330
EA6E4DC92
100
AcDbEntity
  8
JISSEN
100
AcDbLine
 10
155.5571206643744
 20
209.0675426978675
 30
0.0
 11
156.0571206643744
 21
209.0675426978675
 31
0.0
  0
LINE
  5
EA6E5C2C4
330
EA6E4DC92
100
AcDbEntity
  8
JISSEN
100
AcDbLine
 10
156.0571206643744
 20
211.5675426978679
 30
0.0
 11
156.0571206643744
 21
209.0675426978675
 31
0.0
  0
LINE
  5
EA6E5C2C5
330
EA6E4DC92
100
AcDbEntity
  8
JISSEN
100
AcDbLine
 10
155.0571206643744
 20
212.5675426978679
 30
0.0
 11
156.0571206643228
 21
211.5675426979193
 31
0.0
  0
LINE
  5
EA6E5C2C6
330
EA6E4DC92
100
AcDbEntity
  8
JISSEN
100
AcDbLine
 10
153.4071206643743
 20
215.0675426978675
 30
0.0
 11
152.8265640807735
 21
216.0730961973328
 31
0.0
  0
ARC
  5
EA6E5C2C7
330
EA6E4DC92
100
AcDbEntity
  8
JISSEN
100
AcDbCircle
 10
150.0845510914241
 20
214.1967078224665
 30
0.0
 40
3.322569572950015
100
AcDbArc
 50
325.6157525319557
 51
34.38424746803551
  0
LINE
  5
EA6E5C2C8
330
EA6E4DC92
100
AcDbEntity
  8
JISSEN
100
AcDbLine
 10
153.4071206643745
 20
212.5675426978679
 30
0.0
 11
155.0571206643744
 21
212.5675426978679
 31
0.0
  0
LINE
  5
EA6E5C2C9
330
EA6E4DC92
100
AcDbEntity
  8
JISSEN
100
AcDbLine
 10
155.7571206643747
 20
211.8675426978676
 30
0.0
 11
153.4071206643745
 21
211.8675426978676
 31
0.0
  0
LINE
  5
EA6E5C2CA
330
EA6E4DC92
100
AcDbEntity
  8
JISSEN
100
AcDbLine
 10
0.0000009062848676
 20
474.0000003796709
 30
0.0
 11
178.9999994582849
 21
474.0000003796709
 31
0.0
  0
LINE
  5
EA6E5C2CB
330
EA6E4DC92
100
AcDbEntity
  8
JISSEN
100
AcDbLine
 10
0.0000009062848676
 20
486.000000379671
 30
0.0
 11
178.9999994582849
 21
486.000000379671
 31
0.0
  0
TEXT
  5
EA6E5C2CC
330
EA6E4DC92
100
AcDbEntity
  8
TEXT
100
AcDbText
 10
30.79999945828495
 20
476.8000003796711
 30
0.0
 40
6.0
  1
ニ ッ プ ル
  7
K
 72
     4
 11
49.99999945828495
 21
480.000000379671
 31
0.0
100
AcDbText
  0
TEXT
  5
EA6E5C2CD
330
EA6E4DC92
100
AcDbEntity
  8
TEXT
100
AcDbText
 10
28.99999945828494
 20
512.8000003796708
 30
0.0
 40
6.0
  1
ボールバルブ
  7
K
 72
     4
 11
49.99999945828495
 21
516.0000003796709
 31
0.0
100
AcDbText
  0
TEXT
  5
EA6E5C2CE
330
EA6E4DC92
100
AcDbEntity
  8
TEXT
100
AcDbText
 10
29.19999945828495
 20
501.0000003796709
 30
0.0
 40
6.0
  1
六角ニップル
  7
K
 72
     4
 11
49.99999945828495
 21
504.0000003796709
 31
0.0
100
AcDbText
  0
TEXT
  5
EA6E5C2CF
330
EA6E4DC92
100
AcDbEntity
  8
TEXT
100
AcDbText
 10
8.043642702001534
 20
477.000000379671
 30
0.0
 40
6.0
  1
5
  7
K
 72
     4
 11
10.04364270200153
 21
480.000000379671
 31
0.0
100
AcDbText
  0
TEXT
  5
EA6E5C2D0
330
EA6E4DC92
100
AcDbEntity
  8
TEXT
100
AcDbText
 10
3.599999458284948
 20
537.0000003796709
 30
0.0
 40
6.0
  1
番号
  7
K
 72
     4
 11
9.999999458284946
 21
540.0000003796709
 31
0.0
100
AcDbText
  0
TEXT
  5
EA6E5C2D1
330
EA6E4DC92
100
AcDbEntity
  8
TEXT
100
AcDbText
 10
7.999999458284946
 20
513.0000003796709
 30
0.0
 40
6.0
  1
2
  7
K
 72
     4
 11
9.999999458284946
 21
516.0000003796709
 31
0.0
100
AcDbText
  0
TEXT
  5
EA6E5C2D2
330
EA6E4DC92
100
AcDbEntity
  8
TEXT
100
AcDbText
 10
7.999999458284947
 20
501.0000003796709
 30
0.0
 40
6.0
  1
3
  7
K
 72
     4
 11
9.999999458284946
 21
504.0000003796709
 31
0.0
100
AcDbText
  0
TEXT
  5
EA6E5C2D3
330
EA6E4DC92
100
AcDbEntity
  8
TEXT
100
AcDbText
 10
7.857142315427804
 20
489.0000003796709
 30
0.0
 40
6.0
  1
4
  7
K
 72
     4
 11
9.999999458284946
 21
492.0000003796709
 31
0.0
100
AcDbText
  0
TEXT
  5
EA6E5C2D4
330
EA6E4DC92
100
AcDbEntity
  8
TEXT
100
AcDbText
 10
9.285713743999233
 20
525.0000003796709
 30
0.0
 40
6.0
  1
1
  7
K
 72
     4
 11
9.999999458284946
 21
528.0000003796709
 31
0.0
100
AcDbText
  0
LINE
  5
EA6E5C2D5
330
EA6E4DC92
100
AcDbEntity
  8
JISSEN
100
AcDbLine
 10
19.99999945828494
 20
546.0000003796709
 30
0.0
 11
19.99999945828494
 21
474.0000003796709
 31
0.0
  0
TEXT
  5
EA6E5C2D6
330
EA6E4DC92
100
AcDbEntity
  8
TEXT
100
AcDbText
 10
32.39999945828495
 20
524.8000003796708
 30
0.0
 40
6.0
  1
ノ　ズ　ル
  7
K
 72
     4
 11
49.99999945828495
 21
528.0000003796709
 31
0.0
100
AcDbText
  0
TEXT
  5
EA6E5C2D7
330
EA6E4DC92
100
AcDbEntity
  8
TEXT
100
AcDbText
 10
32.79999945828495
 20
489.0000003796709
 30
0.0
 40
6.0
  1
違径チーズ
  7
K
 72
     4
 11
49.99999945828495
 21
492.0000003796709
 31
0.0
100
AcDbText
  0
TEXT
  5
EA6E5C2D8
330
EA6E4DC92
100
AcDbEntity
  8
TEXT
100
AcDbText
 10
32.79999945828494
 20
537.0000003796709
 30
0.0
 40
6.0
  1
名      称
  7
K
 72
     4
 11
49.99999945828495
 21
540.0000003796709
 31
0.0
100
AcDbText
  0
LINE
  5
EA6E5C2D9
330
EA6E4DC92
100
AcDbEntity
  8
TENSEN
 48
2.0
100
AcDbLine
 10
89.65712066437436
 20
419.8490337242168
 30
0.0
 11
89.65712066437436
 21
447.2374678524259
 31
0.0
  0
LINE
  5
EA6E5C2DA
330
EA6E4DC92
100
AcDbEntity
  8
TENSEN
 48
2.0
100
AcDbLine
 10
123.6571206643743
 20
419.8490337242168
 30
0.0
 11
123.6571206643743
 21
447.2374678524259
 31
0.0
  0
LWPOLYLINE
  5
EA6E5C2DB
330
EA6E4DC92
100
AcDbEntity
  8
JISSEN
100
AcDbPolyline
 90
        8
 70
     1
 43
0.0
 10
127.4071206643743
 20
293.4559768260763
 10
138.9071206643743
 20
293.4559768260763
 10
138.9071206643743
 20
317.4559768260763
 10
127.4071206643743
 20
317.4559768260763
 10
127.4071206643743
 20
335.4559768260763
 10
85.90712066437436
 20
335.4559768260763
 10
85.90712066437436
 20
275.4559768260763
 10
127.4071206643743
 20
275.4559768260763
  0
ARC
  5
EA6E5C2DC
330
EA6E4DC92
100
AcDbEntity
  8
JISSEN
100
AcDbCircle
 10
126.6370048784383
 20
343.1133262799796
 30
0.0
 40
25.71428571428571
100
AcDbArc
 50
93.9577090914039
 51
131.0422909085935
  0
ARC
  5
EA6E5C2DD
330
EA6E4DC92
100
AcDbEntity
  8
JISSEN
100
AcDbCircle
 10
126.6370048784385
 20
439.5847411684548
 30
0.0
 40
25.71428571428571
100
AcDbArc
 50
228.9577090914058
 51
266.042290908596
  0
ARC
  5
EA6E5C2DE
330
EA6E4DC92
100
AcDbEntity
  8
JISSEN
100
AcDbCircle
 10
123.8730854958382
 20
408.564998555681
 30
0.0
 40
4.714285714285714
100
AcDbArc
 50
135.0000000000048
 51
315.0000000000048
  0
ARC
  5
EA6E5C2DF
330
EA6E4DC92
100
AcDbEntity
  8
JISSEN
100
AcDbCircle
 10
124.5368207029484
 20
409.2287337627912
 30
0.0
 40
4.714285714285714
100
AcDbArc
 50
315.0000000000048
 51
135.0000000000048
  0
ARC
  5
EA6E5C2E0
330
EA6E4DC92
100
AcDbEntity
  8
JISSEN
100
AcDbCircle
 10
123.8730854958382
 20
374.1330688927532
 30
0.0
 40
4.714285714285714
100
AcDbArc
 50
44.99999999999511
 51
224.9999999999951
  0
ARC
  5
EA6E5C2E1
330
EA6E4DC92
100
AcDbEntity
  8
JISSEN
100
AcDbCircle
 10
124.5368207029484
 20
373.4693336856429
 30
0.0
 40
4.714285714285714
100
AcDbArc
 50
224.9999999999951
 51
44.99999999999511
  0
ARC
  5
EA6E5C2E2
330
EA6E4DC92
100
AcDbEntity
  8
JISSEN
100
AcDbCircle
 10
106.6571206643743
 20
391.3490337242171
 30
0.0
 40
17.14285714285714
100
AcDbArc
 50
12.19837836306458
 51
77.80162163694324
  0
ARC
  5
EA6E5C2E3
330
EA6E4DC92
100
AcDbEntity
  8
JISSEN
100
AcDbCircle
 10
106.6571206643743
 20
391.3490337242171
 30
0.0
 40
17.14285714285714
100
AcDbArc
 50
282.1983783630567
 51
347.8016216369354
  0
CIRCLE
  5
EA6E5C2E4
330
EA6E4DC92
100
AcDbEntity
  8
JISSEN
100
AcDbCircle
 10
106.6571206643743
 20
391.3490337242171
 30
0.0
 40
18.85714285714285
  0
ARC
  5
EA6E5C2E5
330
EA6E4DC92
100
AcDbEntity
  8
JISSEN
100
AcDbCircle
 10
106.6571206643743
 20
391.3490337242171
 30
0.0
 40
20.57142857142856
100
AcDbArc
 50
7.232059457317248
 51
37.76794054268196
  0
ARC
  5
EA6E5C2E6
330
EA6E4DC92
100
AcDbEntity
  8
JISSEN
100
AcDbCircle
 10
106.6571206643743
 20
391.3490337242171
 30
0.0
 40
20.57142857142856
100
AcDbArc
 50
322.232059457318
 51
352.7679405426811
  0
LINE
  5
EA6E5C2E7
330
EA6E4DC92
100
AcDbEntity
  8
JISSEN
100
AcDbLine
 10
128.8571106643744
 20
419.8490337242171
 30
0.0
 11
110.1528809565741
 21
419.8490337242173
 31
0.0
  0
LINE
  5
EA6E5C2E8
330
EA6E4DC92
100
AcDbEntity
  8
JISSEN
100
AcDbLine
 10
128.8571106643741
 20
362.8490337242171
 30
0.0
 11
110.1528809565738
 21
362.8490337242171
 31
0.0
  0
LWPOLYLINE
  5
EA6E5C2E9
330
EA6E4DC92
100
AcDbEntity
  8
JISSEN
100
AcDbPolyline
 90
        4
 70
     1
 43
0.0
 10
85.15712066437435
 20
353.384410954285
 10
128.1571206643743
 20
353.384410954285
 10
128.1571206643743
 20
342.3844109542849
 10
85.15712066437435
 20
342.3844109542849
  0
LWPOLYLINE
  5
EA6E5C2EA
330
EA6E4DC92
100
AcDbEntity
  8
JISSEN
100
AcDbPolyline
 90
        2
 70
     0
 43
0.0
 10
89.88785237169144
 20
362.844410954285
 10
89.65712066437436
 20
353.384410954285
  0
LWPOLYLINE
  5
EA6E5C2EB
330
EA6E4DC92
100
AcDbEntity
  8
SAISEN
100
AcDbPolyline
 90
        3
 70
     0
 43
0.0
 10
89.65712066437436
 20
353.384410954285
 10
91.73043908513022
 20
356.3844109542849
 10
91.88796512217754
 20
362.8490337242171
  0
LWPOLYLINE
  5
EA6E5C2EC
330
EA6E4DC92
100
AcDbEntity
  8
JISSEN
100
AcDbPolyline
 90
        2
 70
     0
 43
0.0
 10
123.6571206643743
 20
353.384410954285
 10
123.4263889570572
 20
362.844410954285
  0
LWPOLYLINE
  5
EA6E5C2ED
330
EA6E4DC92
100
AcDbEntity
  8
SAISEN
100
AcDbPolyline
 90
        3
 70
     0
 43
0.0
 10
123.6571206643743
 20
353.3844109542852
 10
121.5838022436184
 20
356.3844109542852
 10
121.4262762065711
 20
362.8490337242172
  0
LINE
  5
EA6E5C2EE
330
EA6E4DC92
100
AcDbEntity
  8
JISSEN
100
AcDbLine
 10
89.73029139608184
 20
356.3844109542849
 30
0.0
 11
123.5839499326671
 21
356.3844109542849
 31
0.0
  0
LINE
  5
EA6E5C2EF
330
EA6E4DC92
100
AcDbEntity
  8
JISSEN
100
AcDbLine
 10
89.73029139608184
 20
339.384410954285
 30
0.0
 11
123.5839499326671
 21
339.3844109542848
 31
0.0
  0
LWPOLYLINE
  5
EA6E5C2F0
330
EA6E4DC92
100
AcDbEntity
  8
JISSEN
100
AcDbPolyline
 90
        2
 70
     0
 43
0.0
 10
89.82610686262342
 20
335.4559768260763
 10
89.65712066437436
 20
342.3844109542849
  0
LWPOLYLINE
  5
EA6E5C2F1
330
EA6E4DC92
100
AcDbEntity
  8
SAISEN
100
AcDbPolyline
 90
        3
 70
     0
 43
0.0
 10
89.65712066437436
 20
342.3844109542851
 10
91.73043908513022
 20
339.384410954285
 10
91.82616480371303
 20
335.4559768260763
  0
LINE
  5
EA6E5C2F2
330
EA6E4DC92
100
AcDbEntity
  8
JISSEN
100
AcDbLine
 10
95.65712066437436
 20
353.3844109542848
 30
0.0
 11
95.65712066437436
 21
342.3844109542848
 31
0.0
  0
LWPOLYLINE
  5
EA6E5C2F3
330
EA6E4DC92
100
AcDbEntity
  8
SAISEN
100
AcDbPolyline
 90
        3
 70
     0
 43
0.0
 10
123.6571206643743
 20
342.3844109542849
 10
121.5838022436184
 20
339.3844109542849
 10
121.4880765250357
 20
335.4559768260763
  0
LWPOLYLINE
  5
EA6E5C2F4
330
EA6E4DC92
100
AcDbEntity
  8
JISSEN
100
AcDbPolyline
 90
        2
 70
     0
 43
0.0
 10
123.6571206643743
 20
342.3844109542849
 10
123.4881344661255
 20
335.4559768260763
  0
LINE
  5
EA6E5C2F5
330
EA6E4DC92
100
AcDbEntity
  8
JISSEN
100
AcDbLine
 10
117.6571206643743
 20
353.3844109542848
 30
0.0
 11
117.6571206643743
 21
342.3844109542848
 31
0.0
  0
LINE
  5
EA6E5C2F6
330
EA6E4DC92
100
AcDbEntity
  8
TENSEN
 48
2.0
100
AcDbLine
 10
89.65712066437436
 20
422.8490337242169
 30
0.0
 11
123.6571206643743
 21
422.849033724217
 31
0.0
  0
LINE
  5
EA6E5C2F7
330
EA6E4DC92
100
AcDbEntity
  8
JISSEN
100
AcDbLine
 10
89.90131709294587
 20
387.7267971642851
 30
0.0
 11
96.80169564543712
 21
387.7267971642849
 31
0.0
  0
LINE
  5
EA6E5C2F8
330
EA6E4DC92
100
AcDbEntity
  8
JISSEN
100
AcDbLine
 10
89.9013170929461
 20
394.9712702841495
 30
0.0
 11
96.80169564543735
 21
394.9712702841495
 31
0.0
  0
ARC
  5
EA6E5C2F9
330
EA6E4DC92
100
AcDbEntity
  8
JISSEN
100
AcDbCircle
 10
86.67723645031015
 20
343.1133262799798
 30
0.0
 40
25.71428571428571
100
AcDbArc
 50
48.9577090914059
 51
86.04229090859607
  0
ARC
  5
EA6E5C2FA
330
EA6E4DC92
100
AcDbEntity
  8
JISSEN
100
AcDbCircle
 10
106.6571206643745
 20
391.3490337242173
 30
0.0
 40
24.42857142857143
100
AcDbArc
 50
236.0912290721258
 51
258.9087709278739
  0
ARC
  5
EA6E5C2FB
330
EA6E4DC92
100
AcDbEntity
  8
JISSEN
100
AcDbCircle
 10
86.6772364503106
 20
439.5847411684551
 30
0.0
 40
25.71428571428571
100
AcDbArc
 50
273.9577090914039
 51
311.042290908594
  0
ARC
  5
EA6E5C2FC
330
EA6E4DC92
100
AcDbEntity
  8
JISSEN
100
AcDbCircle
 10
106.6571206643745
 20
391.3490337242171
 30
0.0
 40
24.42857142857143
100
AcDbArc
 50
101.091229072126
 51
123.9087709278739
  0
ARC
  5
EA6E5C2FD
330
EA6E4DC92
100
AcDbEntity
  8
JISSEN
100
AcDbCircle
 10
106.6571206643743
 20
391.3490337242171
 30
0.0
 40
17.14285714285714
100
AcDbArc
 50
192.1983783630645
 51
257.8016216369298
  0
ARC
  5
EA6E5C2FE
330
EA6E4DC92
100
AcDbEntity
  8
JISSEN
100
AcDbCircle
 10
106.6571206643743
 20
391.3490337242171
 30
0.0
 40
17.14285714285714
100
AcDbArc
 50
102.1983783630567
 51
167.8016216369354
  0
ARC
  5
EA6E5C2FF
330
EA6E4DC92
100
AcDbEntity
  8
JISSEN
100
AcDbCircle
 10
106.6571206643743
 20
391.3490337242171
 30
0.0
 40
20.57142857142856
100
AcDbArc
 50
232.2320594573213
 51
262.7679405426779
  0
ARC
  5
EA6E5C300
330
EA6E4DC92
100
AcDbEntity
  8
JISSEN
100
AcDbCircle
 10
106.6571206643743
 20
391.3490337242171
 30
0.0
 40
20.57142857142856
100
AcDbArc
 50
97.23205945732201
 51
127.7679405426786
  0
LINE
  5
EA6E5C301
330
EA6E4DC92
100
AcDbEntity
  8
JISSEN
100
AcDbLine
 10
92.65712066437435
 20
383.2661237242172
 30
0.0
 11
102.4825306643745
 21
377.5934207242173
 31
0.0
  0
LINE
  5
EA6E5C302
330
EA6E4DC92
100
AcDbEntity
  8
JISSEN
100
AcDbLine
 10
84.45713066437452
 20
419.8490337242171
 30
0.0
 11
103.1613603721748
 21
419.8490337242171
 31
0.0
  0
LINE
  5
EA6E5C303
330
EA6E4DC92
100
AcDbEntity
  8
JISSEN
100
AcDbLine
 10
92.65712066437435
 20
399.4319437242172
 30
0.0
 11
102.4825306643745
 21
405.1046467242171
 31
0.0
  0
LINE
  5
EA6E5C304
330
EA6E4DC92
100
AcDbEntity
  8
JISSEN
100
AcDbLine
 10
84.45713066437429
 20
362.8490337242171
 30
0.0
 11
103.1613603721748
 21
362.8490337242171
 31
0.0
  0
ARC
  5
EA6E5C305
330
EA6E4DC92
100
AcDbEntity
  8
JISSEN
100
AcDbCircle
 10
58.42141322013708
 20
411.3289179382816
 30
0.0
 40
25.71428571428571
100
AcDbArc
 50
318.9577090914088
 51
356.042290908596
  0
ARC
  5
EA6E5C306
330
EA6E4DC92
100
AcDbEntity
  8
JISSEN
100
AcDbCircle
 10
106.6571206643745
 20
391.3490337242171
 30
0.0
 40
24.42857142857143
100
AcDbArc
 50
146.0912290721224
 51
168.9087709278743
  0
ARC
  5
EA6E5C307
330
EA6E4DC92
100
AcDbEntity
  8
JISSEN
100
AcDbCircle
 10
106.6571206643743
 20
391.3490337242171
 30
0.0
 40
20.57142857142856
100
AcDbArc
 50
142.232059457318
 51
172.7679405426811
  0
ARC
  5
EA6E5C308
330
EA6E4DC92
100
AcDbEntity
  8
JISSEN
100
AcDbCircle
 10
58.42141322013708
 20
371.3691495101531
 30
0.0
 40
25.71428571428571
100
AcDbArc
 50
3.95770909140394
 51
41.04229090859123
  0
LINE
  5
EA6E5C309
330
EA6E4DC92
100
AcDbEntity
  8
JISSEN
100
AcDbLine
 10
81.37140637866014
 20
386.6347480099315
 30
0.0
 11
82.31006971037983
 21
386.6347480099315
 31
0.0
  0
LINE
  5
EA6E5C30A
330
EA6E4DC92
100
AcDbEntity
  8
JISSEN
100
AcDbLine
 10
81.37140637866014
 20
396.0633194385028
 30
0.0
 11
82.31006971037983
 21
396.0633194385028
 31
0.0
  0
ARC
  5
EA6E5C30B
330
EA6E4DC92
100
AcDbEntity
  8
JISSEN
100
AcDbCircle
 10
81.37140637866014
 20
391.3490337242173
 30
0.0
 40
4.714285714285714
100
AcDbArc
 50
90.0
 51
270.0
  0
ARC
  5
EA6E5C30C
330
EA6E4DC92
100
AcDbEntity
  8
JISSEN
100
AcDbCircle
 10
106.6571206643745
 20
391.3490337242171
 30
0.0
 40
24.42857142857143
100
AcDbArc
 50
191.0912290721256
 51
213.9087709278775
  0
ARC
  5
EA6E5C30D
330
EA6E4DC92
100
AcDbEntity
  8
JISSEN
100
AcDbCircle
 10
89.44115583291045
 20
374.1330688927534
 30
0.0
 40
4.714285714285714
100
AcDbArc
 50
315.0000000000048
 51
135.0000000000048
  0
ARC
  5
EA6E5C30E
330
EA6E4DC92
100
AcDbEntity
  8
JISSEN
100
AcDbCircle
 10
106.6571206643743
 20
391.3490337242171
 30
0.0
 40
20.57142857142856
100
AcDbArc
 50
187.2320594573172
 51
217.7679405426819
  0
ARC
  5
EA6E5C30F
330
EA6E4DC92
100
AcDbEntity
  8
JISSEN
100
AcDbCircle
 10
88.77742062580024
 20
373.4693336856432
 30
0.0
 40
4.714285714285714
100
AcDbArc
 50
135.0000000000048
 51
315.0000000000048
  0
LINE
  5
EA6E5C310
330
EA6E4DC92
100
AcDbEntity
  8
JISSEN
100
AcDbLine
 10
84.45713066437429
 20
371.5826475842681
 30
0.0
 11
84.45713066437429
 21
362.8490337242171
 31
0.0
  0
LINE
  5
EA6E5C311
330
EA6E4DC92
100
AcDbEntity
  8
JISSEN
100
AcDbLine
 10
85.44391722877776
 20
376.8028370826654
 30
0.0
 11
86.10765243588799
 21
377.4665722897756
 31
0.0
  0
LINE
  5
EA6E5C312
330
EA6E4DC92
100
AcDbEntity
  8
JISSEN
100
AcDbLine
 10
90.96712066437431
 20
368.4672487225891
 30
0.0
 11
90.96712066437431
 21
362.8490337242171
 31
0.0
  0
LINE
  5
EA6E5C313
330
EA6E4DC92
100
AcDbEntity
  8
JISSEN
100
AcDbLine
 10
92.11092402282247
 20
370.1358302886209
 30
0.0
 11
92.7746592299327
 21
370.7995654957311
 31
0.0
  0
ARC
  5
EA6E5C314
330
EA6E4DC92
100
AcDbEntity
  8
JISSEN
100
AcDbCircle
 10
82.31006971037983
 20
391.3490337242173
 30
0.0
 40
4.714285714285714
100
AcDbArc
 50
270.0
 51
90.0
  0
LINE
  5
EA6E5C315
330
EA6E4DC92
100
AcDbEntity
  8
JISSEN
100
AcDbLine
 10
92.65712066437435
 20
387.1874477242172
 30
0.0
 11
92.65712066437435
 21
383.2661217242172
 31
0.0
  0
LINE
  5
EA6E5C316
330
EA6E4DC92
100
AcDbEntity
  8
JISSEN
100
AcDbLine
 10
92.65712066437435
 20
395.5106197242173
 30
0.0
 11
92.65712066437435
 21
399.4319457242172
 31
0.0
  0
LWPOLYLINE
  5
EA6E5C317
330
EA6E4DC92
100
AcDbEntity
  8
TENSEN
 48
2.0
100
AcDbPolyline
 90
        3
 70
     0
 43
0.0
 10
89.65712066437436
 20
425.2325409094053
 10
91.65712066437436
 20
422.849033724217
 10
91.65712066437436
 20
419.8490337242168
  0
ARC
  5
EA6E5C318
330
EA6E4DC92
100
AcDbEntity
  8
JISSEN
100
AcDbCircle
 10
89.44115583291045
 20
408.5649985556812
 30
0.0
 40
4.714285714285714
100
AcDbArc
 50
225.0000000000043
 51
45.00000000000432
  0
ARC
  5
EA6E5C319
330
EA6E4DC92
100
AcDbEntity
  8
JISSEN
100
AcDbCircle
 10
88.77742062580024
 20
409.2287337627914
 30
0.0
 40
4.714285714285714
100
AcDbArc
 50
45.00000000000432
 51
225.0000000000043
  0
LINE
  5
EA6E5C31A
330
EA6E4DC92
100
AcDbEntity
  8
JISSEN
100
AcDbLine
 10
84.45713066437452
 20
411.1154198641663
 30
0.0
 11
84.45713066437452
 21
419.8490337242171
 31
0.0
  0
LINE
  5
EA6E5C31B
330
EA6E4DC92
100
AcDbEntity
  8
JISSEN
100
AcDbLine
 10
85.44391722877799
 20
405.8952303657689
 30
0.0
 11
86.1076524358882
 21
405.2314951586588
 31
0.0
  0
LINE
  5
EA6E5C31C
330
EA6E4DC92
100
AcDbEntity
  8
JISSEN
100
AcDbLine
 10
92.1109240228227
 20
412.5622371598137
 30
0.0
 11
92.77465922993291
 21
411.8985019527035
 31
0.0
  0
LINE
  5
EA6E5C31D
330
EA6E4DC92
100
AcDbEntity
  8
JISSEN
100
AcDbLine
 10
90.96712066437453
 20
414.2308187258455
 30
0.0
 11
90.96712066437453
 21
419.8490337242171
 31
0.0
  0
CIRCLE
  5
EA6E5C31E
330
EA6E4DC92
100
AcDbEntity
  8
JISSEN
100
AcDbCircle
 10
106.6571206643741
 20
391.3490337242171
 30
0.0
 40
10.5
  0
LINE
  5
EA6E5C31F
330
EA6E4DC92
100
AcDbEntity
  8
JISSEN
100
AcDbLine
 10
120.6571206643743
 20
399.4319467242173
 30
0.0
 11
110.8317096643743
 21
405.1046587242173
 31
0.0
  0
ARC
  5
EA6E5C320
330
EA6E4DC92
100
AcDbEntity
  8
JISSEN
100
AcDbCircle
 10
106.6571206643743
 20
367.0019827702228
 30
0.0
 40
4.714285714285714
100
AcDbArc
 50
0.0
 51
180.0
  0
ARC
  5
EA6E5C321
330
EA6E4DC92
100
AcDbEntity
  8
JISSEN
100
AcDbCircle
 10
106.6571206643743
 20
366.0633194385029
 30
0.0
 40
4.714285714285714
100
AcDbArc
 50
180.0
 51
0.0
  0
ARC
  5
EA6E5C322
330
EA6E4DC92
100
AcDbEntity
  8
JISSEN
100
AcDbCircle
 10
106.6571206643743
 20
391.3490337242171
 30
0.0
 40
20.57142857142856
100
AcDbArc
 50
277.232059457322
 51
307.7679405426786
  0
CIRCLE
  5
EA6E5C323
330
EA6E4DC92
100
AcDbEntity
  8
JISSEN
100
AcDbCircle
 10
106.6571206643743
 20
391.3490337242171
 30
0.0
 40
4.9
  0
LINE
  5
EA6E5C324
330
EA6E4DC92
100
AcDbEntity
  8
JISSEN
100
AcDbLine
 10
111.6571206643743
 20
394.2357847242171
 30
0.0
 11
106.6571206643743
 21
397.1225367242172
 31
0.0
  0
LINE
  5
EA6E5C325
330
EA6E4DC92
100
AcDbEntity
  8
JISSEN
100
AcDbLine
 10
106.6571206643743
 20
385.5755307242172
 30
0.0
 11
111.6571206643743
 21
388.4622827242171
 31
0.0
  0
LINE
  5
EA6E5C326
330
EA6E4DC92
100
AcDbEntity
  8
JISSEN
100
AcDbLine
 10
110.2793572243067
 20
374.5932301527888
 30
0.0
 11
110.2793572243067
 21
381.4936087052803
 31
0.0
  0
LINE
  5
EA6E5C327
330
EA6E4DC92
100
AcDbEntity
  8
JISSEN
100
AcDbLine
 10
103.0348841044421
 20
374.5932301527888
 30
0.0
 11
103.0348841044421
 21
381.4936087052801
 31
0.0
  0
LINE
  5
EA6E5C328
330
EA6E4DC92
100
AcDbEntity
  8
JISSEN
100
AcDbLine
 10
101.9428349500885
 20
366.0633194385029
 30
0.0
 11
101.9428349500885
 21
367.0019827702228
 31
0.0
  0
LINE
  5
EA6E5C329
330
EA6E4DC92
100
AcDbEntity
  8
JISSEN
100
AcDbLine
 10
101.6571206643743
 20
388.4622827242171
 30
0.0
 11
106.6571206643743
 21
385.5755307242172
 31
0.0
  0
LINE
  5
EA6E5C32A
330
EA6E4DC92
100
AcDbEntity
  8
JISSEN
100
AcDbLine
 10
106.6571206643743
 20
397.1225367242172
 30
0.0
 11
101.6571206643743
 21
394.2357847242171
 31
0.0
  0
LINE
  5
EA6E5C32B
330
EA6E4DC92
100
AcDbEntity
  8
JISSEN
100
AcDbLine
 10
101.6571206643743
 20
394.2357847242171
 30
0.0
 11
101.6571206643743
 21
388.4622827242171
 31
0.0
  0
CIRCLE
  5
EA6E5C32C
330
EA6E4DC92
100
AcDbEntity
  8
JISSEN
100
AcDbCircle
 10
106.6571206643743
 20
391.3490337242171
 30
0.0
 40
3.0
  0
CIRCLE
  5
EA6E5C32D
330
EA6E4DC92
100
AcDbEntity
  8
JISSEN
100
AcDbCircle
 10
106.6571206643743
 20
391.3490337242171
 30
0.0
 40
2.399999999999999
  0
LINE
  5
EA6E5C32E
330
EA6E4DC92
100
AcDbEntity
  8
JISSEN
100
AcDbLine
 10
120.6571206643743
 20
383.2661207242171
 30
0.0
 11
110.8317096643743
 21
377.5934087242173
 31
0.0
  0
ARC
  5
EA6E5C32F
330
EA6E4DC92
100
AcDbEntity
  8
JISSEN
100
AcDbCircle
 10
106.6571206643745
 20
391.3490337242175
 30
0.0
 40
24.42857142857143
100
AcDbArc
 50
281.091229072126
 51
303.9087709278739
  0
LINE
  5
EA6E5C330
330
EA6E4DC92
100
AcDbEntity
  8
JISSEN
100
AcDbLine
 10
111.3714063786599
 20
366.0633194385029
 30
0.0
 11
111.3714063786599
 21
367.0019827702228
 31
0.0
  0
LINE
  5
EA6E5C331
330
EA6E4DC92
100
AcDbEntity
  8
JISSEN
100
AcDbLine
 10
122.3471206643744
 20
368.4672487225888
 30
0.0
 11
122.3471206643744
 21
362.8490337242171
 31
0.0
  0
LINE
  5
EA6E5C332
330
EA6E4DC92
100
AcDbEntity
  8
JISSEN
100
AcDbLine
 10
121.203317305926
 20
370.1358302886207
 30
0.0
 11
120.5395820988158
 21
370.7995654957309
 31
0.0
  0
LINE
  5
EA6E5C333
330
EA6E4DC92
100
AcDbEntity
  8
JISSEN
100
AcDbLine
 10
123.412924235803
 20
394.9712702841495
 30
0.0
 11
116.5125456833113
 21
394.9712702841495
 31
0.0
  0
LINE
  5
EA6E5C334
330
EA6E4DC92
100
AcDbEntity
  8
JISSEN
100
AcDbLine
 10
123.4129242358028
 20
387.7267971642851
 30
0.0
 11
116.5125456833113
 21
387.7267971642851
 31
0.0
  0
LINE
  5
EA6E5C335
330
EA6E4DC92
100
AcDbEntity
  8
JISSEN
100
AcDbLine
 10
111.6571206643743
 20
388.4622827242171
 30
0.0
 11
111.6571206643743
 21
394.2357847242171
 31
0.0
  0
LINE
  5
EA6E5C336
330
EA6E4DC92
100
AcDbEntity
  8
JISSEN
100
AcDbLine
 10
120.6571206643743
 20
387.1874477242172
 30
0.0
 11
120.6571206643743
 21
383.2661217242172
 31
0.0
  0
LINE
  5
EA6E5C337
330
EA6E4DC92
100
AcDbEntity
  8
JISSEN
100
AcDbLine
 10
120.6571206643743
 20
395.5106197242173
 30
0.0
 11
120.6571206643743
 21
399.4319457242172
 31
0.0
  0
ARC
  5
EA6E5C338
330
EA6E4DC92
100
AcDbEntity
  8
JISSEN
100
AcDbCircle
 10
106.6571206643745
 20
415.6960846782118
 30
0.0
 40
4.714285714285714
100
AcDbArc
 50
180.0
 51
0.0
  0
ARC
  5
EA6E5C339
330
EA6E4DC92
100
AcDbEntity
  8
JISSEN
100
AcDbCircle
 10
106.6571206643743
 20
391.3490337242171
 30
0.0
 40
20.57142857142856
100
AcDbArc
 50
52.23205945732136
 51
82.76794054267796
  0
ARC
  5
EA6E5C33A
330
EA6E4DC92
100
AcDbEntity
  8
JISSEN
100
AcDbCircle
 10
106.6571206643745
 20
416.6347480099315
 30
0.0
 40
4.714285714285714
100
AcDbArc
 50
0.0
 51
180.0
  0
LINE
  5
EA6E5C33B
330
EA6E4DC92
100
AcDbEntity
  8
JISSEN
100
AcDbLine
 10
103.0348841044421
 20
408.1048372956458
 30
0.0
 11
103.0348841044421
 21
401.2044587431543
 31
0.0
  0
LINE
  5
EA6E5C33C
330
EA6E4DC92
100
AcDbEntity
  8
JISSEN
100
AcDbLine
 10
101.9428349500888
 20
416.6347480099315
 30
0.0
 11
101.9428349500888
 21
415.6960846782118
 31
0.0
  0
LINE
  5
EA6E5C33D
330
EA6E4DC92
100
AcDbEntity
  8
JISSEN
100
AcDbLine
 10
110.2793572243067
 20
408.1048372956458
 30
0.0
 11
110.2793572243067
 21
401.2044587431541
 31
0.0
  0
LWPOLYLINE
  5
EA6E5C33E
330
EA6E4DC92
100
AcDbEntity
  8
TENSEN
 48
2.0
100
AcDbPolyline
 90
        3
 70
     0
 43
0.0
 10
123.6571206643743
 20
425.2325409094053
 10
121.6571206643743
 20
422.849033724217
 10
121.6571206643743
 20
419.8490337242168
  0
ARC
  5
EA6E5C33F
330
EA6E4DC92
100
AcDbEntity
  8
JISSEN
100
AcDbCircle
 10
106.6571206643743
 20
391.3490337242171
 30
0.0
 40
24.42857142857143
100
AcDbArc
 50
56.09122907212583
 51
78.90877092787395
  0
LINE
  5
EA6E5C340
330
EA6E4DC92
100
AcDbEntity
  8
JISSEN
100
AcDbLine
 10
111.3714063786601
 20
416.6347480099315
 30
0.0
 11
111.3714063786601
 21
415.6960846782118
 31
0.0
  0
LINE
  5
EA6E5C341
330
EA6E4DC92
100
AcDbEntity
  8
JISSEN
100
AcDbLine
 10
121.2033173059262
 20
412.5622371598135
 30
0.0
 11
120.539582098816
 21
411.8985019527032
 31
0.0
  0
LINE
  5
EA6E5C342
330
EA6E4DC92
100
AcDbEntity
  8
JISSEN
100
AcDbLine
 10
122.3471206643744
 20
414.2308187258455
 30
0.0
 11
122.3471206643744
 21
419.8490337242171
 31
0.0
  0
CIRCLE
  5
EA6E5C343
330
EA6E4DC92
100
AcDbEntity
  8
SUNPOU
100
AcDbCircle
 10
166.2274710622925
 20
359.7679865208758
 30
0.0
 40
7.0
  0
TEXT
  5
EA6E5C344
330
EA6E4DC92
100
AcDbEntity
  8
SUNPOU
100
AcDbText
 10
164.2274710622925
 20
356.7679865208758
 30
0.0
 40
6.0
  1
8
  7
K
 72
     4
 11
166.2274710622925
 21
359.7679865208758
 31
0.0
100
AcDbText
  0
LINE
  5
EA6E5C345
330
EA6E4DC92
100
AcDbEntity
  8
SUNPOU
100
AcDbLine
 10
159.3276307340697
 20
340.9479032319325
 30
0.0
 11
128.1571206643743
 21
346.2782592943705
 31
0.0
  0
INSERT
  5
EA6E5C346
330
EA6E4DC92
100
AcDbEntity
  8
SUNPOU
100
AcDbBlockReference
  2
ARROWANG
 10
127.4071206643743
 20
284.9586258860284
 30
0.0
 41
2.999999999999973
 42
3.0
 43
3.0
 50
137.3505508617194
1001
ACAD
1000
DSTYLE
1002
{
1070
   147
1040
1.0
1070
    77
1070
     0
1002
}
  0
CIRCLE
  5
EA6E5C347
330
EA6E4DC92
100
AcDbEntity
  8
JISSEN
 62
     3
100
AcDbCircle
 10
127.4071206643742
 20
284.9586258860285
 30
0.0
 40
0.0000000000003216
  0
LINE
  5
EA6E5C348
330
EA6E4DC92
100
AcDbEntity
  8
JISSEN
100
AcDbLine
 10
142.9071206643743
 20
313.9559768260764
 30
0.0
 11
142.9071206643743
 21
296.9559768260764
 31
0.0
  0
LWPOLYLINE
  5
EA6E5C349
330
EA6E4DC92
100
AcDbEntity
  8
SAISEN
100
AcDbPolyline
 90
        3
 70
     0
 43
0.0
 10
138.9071206643743
 20
298.9559768260764
 10
142.9071206643743
 20
298.9559768260764
 10
144.9071206643743
 20
296.9559768260764
  0
LWPOLYLINE
  5
EA6E5C34A
330
EA6E4DC92
100
AcDbEntity
  8
SAISEN
100
AcDbPolyline
 90
        3
 70
     0
 43
0.0
 10
138.9071206643743
 20
311.9559768260763
 10
142.9071206643743
 20
311.9559768260763
 10
144.9071206643743
 20
313.9559768260762
  0
INSERT
  5
EA6E5C34B
330
EA6E4DC92
100
AcDbEntity
  8
SAISEN
 62
     3
100
AcDbBlockReference
  2
_Open
 10
128.1571206643743
 20
346.2782592943705
 30
0.0
 41
3.999999999999969
 42
4.0
 43
4.0
 50
170.2959223467468
  0
INSERT
  5
EA6E5C34C
330
EA6E4DC92
100
AcDbEntity
  8
SUNPOU
100
AcDbBlockReference
  2
ARROWANG
 10
170.5189261080498
 20
296.9559768260764
 30
0.0
 41
2.999999999999985
 42
3.0
 43
3.0
 50
128.5019315077517
1001
ACAD
1000
DSTYLE
1002
{
1070
   147
1040
1.0
1070
    77
1070
     0
1002
}
  0
CIRCLE
  5
EA6E5C34D
330
EA6E4DC92
100
AcDbEntity
  8
SUNPOU
100
AcDbCircle
 10
166.2274710622925
 20
339.7679865208758
 30
0.0
 40
7.0
  0
TEXT
  5
EA6E5C34E
330
EA6E4DC92
100
AcDbEntity
  8
SUNPOU
100
AcDbText
 10
164.2274710622925
 20
336.7679865208758
 30
0.0
 40
6.0
  1
3
  7
K
 72
     4
 11
166.2274710622925
 21
339.7679865208758
 31
0.0
100
AcDbText
  0
LINE
  5
EA6E5C34F
330
EA6E4DC92
100
AcDbEntity
  8
SUNPOU
100
AcDbLine
 10
161.3937217074823
 20
364.8310752199676
 30
0.0
 11
136.6223733970914
 21
390.7777109442223
 31
0.0
  0
ARC
  5
EA6E5C350
330
EA6E4DC92
100
AcDbEntity
  8
JISSEN
100
AcDbCircle
 10
154.892828108612
 20
411.328917938281
 30
0.0
 40
25.71428571428571
100
AcDbArc
 50
183.9577090914039
 51
221.0422909085912
  0
ARC
  5
EA6E5C351
330
EA6E4DC92
100
AcDbEntity
  8
JISSEN
100
AcDbCircle
 10
106.6571206643743
 20
391.3490337242173
 30
0.0
 40
24.42857142857143
100
AcDbArc
 50
11.09122907212247
 51
33.90877092787472
  0
INSERT
  5
EA6E5C352
330
EA6E4DC92
100
AcDbEntity
  8
SAISEN
 62
     3
100
AcDbBlockReference
  2
_Open
 10
136.6223733970912
 20
390.7777109442226
 30
0.0
 41
3.999999999999893
 42
4.0
 43
4.0
 50
133.6725229661616
  0
ARC
  5
EA6E5C353
330
EA6E4DC92
100
AcDbEntity
  8
JISSEN
100
AcDbCircle
 10
154.892828108612
 20
371.3691495101531
 30
0.0
 40
25.71428571428571
100
AcDbArc
 50
138.9577090914087
 51
176.042290908596
  0
ARC
  5
EA6E5C354
330
EA6E4DC92
100
AcDbEntity
  8
JISSEN
100
AcDbCircle
 10
106.6571206643743
 20
391.3490337242173
 30
0.0
 40
24.42857142857143
100
AcDbArc
 50
326.0912290721214
 51
348.9087709278791
  0
LINE
  5
EA6E5C355
330
EA6E4DC92
100
AcDbEntity
  8
JISSEN
100
AcDbLine
 10
128.8571106643741
 20
371.5826475842681
 30
0.0
 11
128.8571106643741
 21
362.8490337242171
 31
0.0
  0
LINE
  5
EA6E5C356
330
EA6E4DC92
100
AcDbEntity
  8
JISSEN
100
AcDbLine
 10
127.8703240999707
 20
376.8028370826652
 30
0.0
 11
127.2065888928605
 21
377.4665722897754
 31
0.0
  0
LINE
  5
EA6E5C357
330
EA6E4DC92
100
AcDbEntity
  8
JISSEN
100
AcDbLine
 10
131.9428349500885
 20
396.0633194385028
 30
0.0
 11
131.0041716183689
 21
396.0633194385028
 31
0.0
  0
LINE
  5
EA6E5C358
330
EA6E4DC92
100
AcDbEntity
  8
JISSEN
100
AcDbLine
 10
131.9428349500885
 20
386.6347480099313
 30
0.0
 11
131.0041716183689
 21
386.6347480099313
 31
0.0
  0
ARC
  5
EA6E5C359
330
EA6E4DC92
100
AcDbEntity
  8
JISSEN
100
AcDbCircle
 10
131.0041716183689
 20
391.3490337242171
 30
0.0
 40
4.714285714285714
100
AcDbArc
 50
90.0
 51
270.0
  0
ARC
  5
EA6E5C35A
330
EA6E4DC92
100
AcDbEntity
  8
JISSEN
100
AcDbCircle
 10
131.9428349500885
 20
391.3490337242171
 30
0.0
 40
4.714285714285714
100
AcDbArc
 50
270.0
 51
90.0
  0
LINE
  5
EA6E5C35B
330
EA6E4DC92
100
AcDbEntity
  8
JISSEN
100
AcDbLine
 10
128.8571106643744
 20
411.1154198641663
 30
0.0
 11
128.8571106643744
 21
419.8490337242171
 31
0.0
  0
LINE
  5
EA6E5C35C
330
EA6E4DC92
100
AcDbEntity
  8
JISSEN
100
AcDbLine
 10
127.8703240999709
 20
405.8952303657689
 30
0.0
 11
127.2065888928607
 21
405.2314951586588
 31
0.0
  0
LINE
  5
EA6E5C35D
330
EA6E4DC92
100
AcDbEntity
  8
JISSEN
100
AcDbLine
 10
79.99999945828495
 20
546.0000003796709
 30
0.0
 11
79.99999945828495
 21
474.0000003796709
 31
0.0
  0
LINE
  5
EA6E5C35E
330
EA6E4DC92
100
AcDbEntity
  8
JISSEN
100
AcDbLine
 10
122.9999994582849
 20
474.0000003796709
 30
0.0
 11
122.9999994582849
 21
546.0000003796709
 31
0.0
  0
TEXT
  5
EA6E5C35F
330
EA6E4DC92
100
AcDbEntity
  8
TEXT
100
AcDbText
 10
87.78571374399923
 20
525.0000003796709
 30
0.0
 40
6.0
  1
C3604
  7
K
 72
     4
 11
101.4999994582849
 21
528.0000003796709
 31
0.0
100
AcDbText
  0
ARC
  5
EA6E5C360
330
EA6E4DC92
100
AcDbEntity
  8
TENSEN
 48
2.0
100
AcDbCircle
 10
98.15712066437436
 20
438.6660392809972
 30
0.0
 40
12.07142857142856
100
AcDbArc
 50
45.23972989608028
 51
134.7602701039197
  0
TEXT
  5
EA6E5C361
330
EA6E4DC92
100
AcDbEntity
  8
TEXT
100
AcDbText
 10
93.64285660114209
 20
477.000000379671
 30
0.0
 40
6.0
  1
SGP
  7
K
 72
     4
 11
101.4999994582849
 21
480.000000379671
 31
0.0
100
AcDbText
  0
TEXT
  5
EA6E5C362
330
EA6E4DC92
100
AcDbEntity
  8
TEXT
100
AcDbText
 10
89.21428517257067
 20
513.0000003796709
 30
0.0
 40
6.0
  1
C3771
  7
K
 72
     4
 11
101.4999994582849
 21
516.0000003796709
 31
0.0
100
AcDbText
  0
TEXT
  5
EA6E5C363
330
EA6E4DC92
100
AcDbEntity
  8
TEXT
100
AcDbText
 10
90.49999945828494
 20
501.0000003796709
 30
0.0
 40
6.0
  1
FCMB
  7
K
 72
     4
 11
101.4999994582849
 21
504.0000003796709
 31
0.0
100
AcDbText
  0
TEXT
  5
EA6E5C364
330
EA6E4DC92
100
AcDbEntity
  8
TEXT
100
AcDbText
 10
90.49999945828494
 20
489.0000003796709
 30
0.0
 40
6.0
  1
FCMB
  7
K
 72
     4
 11
101.4999994582849
 21
492.0000003796709
 31
0.0
100
AcDbText
  0
ARC
  5
EA6E5C365
330
EA6E4DC92
100
AcDbEntity
  8
TENSEN
 48
2.0
100
AcDbCircle
 10
115.1571206643743
 20
455.8088964238544
 30
0.0
 40
12.07142857142859
100
AcDbArc
 50
225.2397298960802
 51
314.7602701039197
  0
ARC
  5
EA6E5C366
330
EA6E4DC92
100
AcDbEntity
  8
TENSEN
 48
2.0
100
AcDbCircle
 10
115.1571206643743
 20
438.6660392809972
 30
0.0
 40
12.07142857142856
100
AcDbArc
 50
45.23972989608028
 51
134.7602701039197
  0
TEXT
  5
EA6E5C367
330
EA6E4DC92
100
AcDbEntity
  8
TEXT
100
AcDbText
 10
87.89999945828496
 20
537.0000003796709
 30
0.0
 40
6.0
  1
材    質
  7
K
 72
     4
 11
101.4999994582849
 21
540.0000003796709
 31
0.0
100
AcDbText
  0
LINE
  5
EA6E5C368
330
EA6E4DC92
100
AcDbEntity
  8
JISSEN
100
AcDbLine
 10
178.9999994582849
 20
474.0000003796709
 30
0.0
 11
178.9999994582849
 21
546.0000003796709
 31
0.0
  0
LINE
  5
EA6E5C369
330
EA6E4DC92
100
AcDbEntity
  8
JISSEN
100
AcDbLine
 10
144.9999994582849
 20
546.0000003796709
 30
0.0
 11
144.9999994582849
 21
474.0000003796709
 31
0.0
  0
TEXT
  5
EA6E5C36A
330
EA6E4DC92
100
AcDbEntity
  8
TEXT
100
AcDbText
 10
133.2857137439992
 20
525.0000003796709
 30
0.0
 40
6.0
  1
1
  7
K
 72
     4
 11
133.9999994582849
 21
528.0000003796709
 31
0.0
100
AcDbText
  0
TEXT
  5
EA6E5C36B
330
EA6E4DC92
100
AcDbEntity
  8
TEXT
100
AcDbText
 10
153.9999994582849
 20
525.0000003796709
 30
0.0
 40
6.0
  1
25A
  7
K
 72
     4
 11
161.9999994582849
 21
528.0000003796709
 31
0.0
100
AcDbText
  0
TEXT
  5
EA6E5C36C
330
EA6E4DC92
100
AcDbEntity
  8
TEXT
100
AcDbText
 10
146.9314280297135
 20
477.000000379671
 30
0.0
 40
6.0
  1
10A×75
 41
0.9
  7
K
 72
     4
 11
161.9999994582849
 21
480.000000379671
 31
0.0
100
AcDbText
  0
TEXT
  5
EA6E5C36D
330
EA6E4DC92
100
AcDbEntity
  8
TEXT
100
AcDbText
 10
145.6485837207837
 20
489.0000003796709
 30
0.0
 40
6.0
  1
25A×10A
 41
0.8045977011494251
  7
K
 72
     5
 11
177.6485837207838
 21
489.0000003796709
 31
0.0
100
AcDbText
  0
TEXT
  5
EA6E5C36E
330
EA6E4DC92
100
AcDbEntity
  8
TEXT
100
AcDbText
 10
133.2857137439992
 20
477.000000379671
 30
0.0
 40
6.0
  1
1
  7
K
 72
     4
 11
133.9999994582849
 21
480.000000379671
 31
0.0
100
AcDbText
  0
TEXT
  5
EA6E5C36F
330
EA6E4DC92
100
AcDbEntity
  8
TEXT
100
AcDbText
 10
133.2857137439992
 20
489.0000003796709
 30
0.0
 40
6.0
  1
1
  7
K
 72
     4
 11
133.9999994582849
 21
492.0000003796709
 31
0.0
100
AcDbText
  0
TEXT
  5
EA6E5C370
330
EA6E4DC92
100
AcDbEntity
  8
TEXT
100
AcDbText
 10
131.9999994582849
 20
501.0000003796709
 30
0.0
 40
6.0
  1
2
  7
K
 72
     4
 11
133.9999994582849
 21
504.0000003796709
 31
0.0
100
AcDbText
  0
TEXT
  5
EA6E5C371
330
EA6E4DC92
100
AcDbEntity
  8
TEXT
100
AcDbText
 10
133.2857137439992
 20
513.0000003796709
 30
0.0
 40
6.0
  1
1
  7
K
 72
     4
 11
133.9999994582849
 21
516.0000003796709
 31
0.0
100
AcDbText
  0
TEXT
  5
EA6E5C372
330
EA6E4DC92
100
AcDbEntity
  8
TEXT
100
AcDbText
 10
153.9999994582849
 20
513.0000003796709
 30
0.0
 40
6.0
  1
25A
  7
K
 72
     4
 11
161.9999994582849
 21
516.0000003796709
 31
0.0
100
AcDbText
  0
TEXT
  5
EA6E5C373
330
EA6E4DC92
100
AcDbEntity
  8
TEXT
100
AcDbText
 10
153.9999994582849
 20
501.0000003796709
 30
0.0
 40
6.0
  1
25A
  7
K
 72
     4
 11
161.9999994582849
 21
504.0000003796709
 31
0.0
100
AcDbText
  0
TEXT
  5
EA6E5C374
330
EA6E4DC92
100
AcDbEntity
  8
TEXT
100
AcDbText
 10
148.3999994582849
 20
537.0000003796709
 30
0.0
 40
6.0
  1
備    考
  7
K
 72
     4
 11
161.9999994582849
 21
540.0000003796709
 31
0.0
100
AcDbText
  0
TEXT
  5
EA6E5C375
330
EA6E4DC92
100
AcDbEntity
  8
TEXT
100
AcDbText
 10
127.5999994582849
 20
537.0000003796709
 30
0.0
 40
6.0
  1
個数
  7
K
 72
     4
 11
133.9999994582849
 21
540.0000003796709
 31
0.0
100
AcDbText
  0
LINE
  5
EA6E5C376
330
EA6E4DC92
100
AcDbEntity
  8
JISSEN
 62
     3
100
AcDbLine
 10
290.3676489896475
 20
170.1228373371916
 30
0.0
 11
219.6571206643743
 21
294.4559768260757
 31
0.0
  0
LWPOLYLINE
  5
EA6E5C377
330
EA6E4DC92
100
AcDbEntity
  8
SUNPOU
100
AcDbPolyline
 90
        2
 70
     0
 43
0.0
 10
235.1063820591659
 20
353.4006273543925
 10
307.4383255704183
 20
170.5472688921962
1001
ACAD
1000
DSTYLE
1002
{
1070
   147
1040
1.0
1070
    77
1070
     0
1002
}
  0
CIRCLE
  5
EA6E5C378
330
EA6E4DC92
100
AcDbEntity
  8
SUNPOU
100
AcDbCircle
 10
293.8281821571383
 20
164.0380439802488
 30
0.0
 40
7.0
  0
TEXT
  5
EA6E5C379
330
EA6E4DC92
100
AcDbEntity
  8
TEXT
100
AcDbText
 10
291.9124097323284
 20
161.018821358115
 30
0.0
 40
6.0
  1
7
  7
K
100
AcDbText
  0
TEXT
  5
EA6E5C37A
330
EA6E4DC92
100
AcDbEntity
  8
SUNPOU
100
AcDbText
 10
265.6376967401461
 20
4.316525151541327
 30
0.0
 40
6.0
  1
A4 用紙、印刷尺度 1/2
100
AcDbText
  0
TEXT
  5
EA6E5C37B
330
EA6E4DC92
100
AcDbEntity
  8
SUNPOU
100
AcDbText
 10
265.6376967401461
 20
14.31652515154132
 30
0.0
 40
6.0
  1
試験装置 SR30 V付
100
AcDbText
  0
CIRCLE
  5
EA6E5C37C
330
EA6E4DC92
100
AcDbEntity
  8
SUNPOU
100
AcDbCircle
 10
241.7213995723211
 20
164.0380439802488
 30
0.0
 40
7.0
  0
CIRCLE
  5
EA6E5C37D
330
EA6E4DC92
100
AcDbEntity
  8
SUNPOU
100
AcDbCircle
 10
195.1128482267628
 20
164.0380439802488
 30
0.0
 40
7.0
  0
TEXT
  5
EA6E5C37E
330
EA6E4DC92
100
AcDbEntity
  8
SUNPOU
100
AcDbText
 10
193.5638030516996
 20
160.9865669613055
 30
0.0
 40
6.0
  1
1
  7
K
 72
     4
 11
194.2780887659853
 21
163.9865669613055
 31
0.0
100
AcDbText
  0
TEXT
  5
EA6E5C37F
330
EA6E4DC92
100
AcDbEntity
  8
TEXT
100
AcDbText
 10
222.5383842071333
 20
161.2275743337605
 30
0.0
 40
6.0
  1
2
  7
K
100
AcDbText
  0
CIRCLE
  5
EA6E5C380
330
EA6E4DC92
100
AcDbEntity
  8
SUNPOU
100
AcDbCircle
 10
224.7631013533303
 20
164.0380439802488
 30
0.0
 40
7.0
  0
CIRCLE
  5
EA6E5C381
330
EA6E4DC92
100
AcDbEntity
  8
SUNPOU
100
AcDbCircle
 10
258.679697791312
 20
164.0380439802488
 30
0.0
 40
7.0
  0
TEXT
  5
EA6E5C382
330
EA6E4DC92
100
AcDbEntity
  8
TEXT
100
AcDbText
 10
239.7232834550567
 20
160.5665232442165
 30
0.0
 40
6.0
  1
3
  7
K
100
AcDbText
  0
TEXT
  5
EA6E5C383
330
EA6E4DC92
100
AcDbEntity
  8
TEXT
100
AcDbText
 10
256.1684710718885
 20
161.0014252768112
 30
0.0
 40
6.0
  1
4
  7
K
100
AcDbText
  0
CIRCLE
  5
EA6E5C384
330
EA6E4DC92
100
AcDbEntity
  8
SUNPOU
100
AcDbCircle
 10
276.2539399742243
 20
164.0380439802488
 30
0.0
 40
7.0
  0
TEXT
  5
EA6E5C385
330
EA6E4DC92
100
AcDbEntity
  8
TEXT
100
AcDbText
 10
274.1684674151811
 20
160.8796527076847
 30
0.0
 40
6.0
  1
5
  7
K
100
AcDbText
  0
TEXT
  5
EA6E5C386
330
EA6E4DC92
100
AcDbEntity
  8
TEXT
100
AcDbText
 10
308.0110761528262
 20
160.5317310816089
 30
0.0
 40
6.0
  1
6
  7
K
100
AcDbText
  0
CIRCLE
  5
EA6E5C387
330
EA6E4DC92
100
AcDbEntity
  8
SUNPOU
100
AcDbCircle
 10
310.0132024695502
 20
164.0380439802488
 30
0.0
 40
7.0
  0
TEXT
  5
EA6E5C388
330
EA6E4DC92
100
AcDbEntity
  8
TEXT
100
AcDbText
 10
269.4999994582849
 20
501.0000003796711
 30
0.0
 40
6.0
  1
CAC911
  7
K
 72
     4
 11
284.4999994582849
 21
504.000000379671
 31
0.0
100
AcDbText
  0
TEXT
  5
EA6E5C389
330
EA6E4DC92
100
AcDbEntity
  8
TEXT
100
AcDbText
 10
270.8999980102849
 20
537.0000003796709
 30
0.0
 40
6.0
  1
材    質
  7
K
 72
     4
 11
284.499998010285
 21
540.0000003796709
 31
0.0
100
AcDbText
  0
TEXT
  5
EA6E5C38A
330
EA6E4DC92
100
AcDbEntity
  8
TEXT
100
AcDbText
 10
272.2142837245707
 20
513.0000003796709
 30
0.0
 40
6.0
  1
C3771
  7
K
 72
     4
 11
284.499998010285
 21
516.0000003796709
 31
0.0
100
AcDbText
  0
LINE
  5
EA6E5C38B
330
EA6E4DC92
100
AcDbEntity
  8
TEXT
100
AcDbLine
 10
295.999998010285
 20
528.0000003796709
 30
0.0
 11
272.9999980102848
 21
528.0000003796709
 31
0.0
  0
INSERT
  5
EA6E5C38C
330
EA6E4DC92
100
AcDbEntity
  8
SUNPOU
100
AcDbBlockReference
  2
ARROWANG
 10
235.1063820591663
 20
353.400627354392
 30
0.0
 41
2.99999999999996
 42
3.0
 43
3.0
 50
111.5824387273618
1001
ACAD
1000
DSTYLE
1002
{
1070
   147
1040
1.0
1070
    77
1070
     0
1002
}
  0
ARC
  5
EA6E5C38D
330
EA6E4DC92
100
AcDbEntity
  8
JISSEN
100
AcDbCircle
 10
219.6571206643742
 20
392.4559768260762
 30
0.0
 40
25.00000000000005
100
AcDbArc
 50
314.6844194460202
 51
90.0
  0
ARC
  5
EA6E5C38E
330
EA6E4DC92
100
AcDbEntity
  8
JISSEN
100
AcDbCircle
 10
219.6571206643755
 20
392.4559768260856
 30
0.0
 40
28.00000000000125
100
AcDbArc
 50
314.7826520576678
 51
180.0000000000195
  0
LINE
  5
EA6E5C38F
330
EA6E4DC92
100
AcDbEntity
  8
JISSEN
100
AcDbLine
 10
237.2371553570593
 20
374.6812087487148
 30
0.0
 11
239.3808620375045
 21
372.5820233631655
 31
0.0
  0
CIRCLE
  5
EA6E5C390
330
EA6E4DC92
100
AcDbEntity
  8
JISSEN
100
AcDbCircle
 10
219.6571206643741
 20
392.4559768260762
 30
0.0
 40
35.0
  0
CIRCLE
  5
EA6E5C391
330
EA6E4DC92
100
AcDbEntity
  8
JISSEN
  6
Continuous
100
AcDbCircle
 10
219.6571206643741
 20
392.4559768260762
 30
0.0
 40
37.5
  0
LINE
  5
EA6E5C392
330
EA6E4DC92
100
AcDbEntity
  8
JISSEN
100
AcDbLine
 10
233.757120664374
 20
313.4559768260761
 30
0.0
 11
238.7568791766759
 21
313.4559768260761
 31
0.0
  0
LINE
  5
EA6E5C393
330
EA6E4DC92
100
AcDbEntity
  8
JISSEN
100
AcDbLine
 10
237.2694698683278
 20
297.3859410102063
 30
0.0
 11
240.1091247002207
 21
281.2814581881031
 31
0.0
  0
LINE
  5
EA6E5C394
330
EA6E4DC92
100
AcDbEntity
  8
JISSEN
100
AcDbLine
 10
208.9071206643745
 20
318.4559768260762
 30
0.0
 11
219.6571206643745
 21
318.4559768260762
 31
0.0
  0
ARC
  5
EA6E5C395
330
EA6E4DC92
100
AcDbEntity
  8
JISSEN
100
AcDbCircle
 10
210.116722109363
 20
313.7842081885975
 30
0.0
 40
4.671789972964431
100
AcDbArc
 50
54.5500104763936
 51
114.5500104764499
  0
ARC
  5
EA6E5C396
330
EA6E4DC92
100
AcDbEntity
  8
JISSEN
100
AcDbCircle
 10
209.9825064351223
 20
324.3334545328506
 30
0.0
 40
5.879349232938483
100
AcDbArc
 50
251.9121946092666
 51
288.0878053907333
  0
LINE
  5
EA6E5C397
330
EA6E4DC92
100
AcDbEntity
  8
JISSEN
  6
Continuous
100
AcDbLine
 10
208.6571206643741
 20
310.4559768260762
 30
0.0
 11
213.2661560011622
 21
310.4559768260762
 31
0.0
  0
LINE
  5
EA6E5C398
330
EA6E4DC92
100
AcDbEntity
  8
JISSEN
  6
Continuous
100
AcDbLine
 10
208.6571206643741
 20
300.4559768260762
 30
0.0
 11
213.2661560011622
 21
300.4559768260762
 31
0.0
  0
ARC
  5
EA6E5C399
330
EA6E4DC92
100
AcDbEntity
  8
JISSEN
100
AcDbCircle
 10
202.5105647311649
 20
305.4559768260762
 30
0.0
 40
11.75559126999714
100
AcDbArc
 50
300.4302842044955
 51
328.3121121663187
  0
ARC
  5
EA6E5C39A
330
EA6E4DC92
100
AcDbEntity
  8
JISSEN
100
AcDbCircle
 10
210.116722109363
 20
299.1277454635546
 30
0.0
 40
4.671789972964431
100
AcDbArc
 50
241.7631501484925
 51
305.4499895236027
  0
ARC
  5
EA6E5C39B
330
EA6E4DC92
100
AcDbEntity
  8
JISSEN
100
AcDbCircle
 10
202.5105647311649
 20
305.4559768260762
 30
0.0
 40
11.75559126999714
100
AcDbArc
 50
30.62571585058988
 51
58.75041058843684
  0
LINE
  5
EA6E5C39C
330
EA6E4DC92
100
AcDbEntity
  8
JISSEN
  6
Continuous
100
AcDbLine
 10
208.9071206643741
 20
294.4559768260761
 30
0.0
 11
230.4071206643741
 21
294.4559768260757
 31
0.0
  0
LINE
  5
EA6E5C39D
330
EA6E4DC92
100
AcDbEntity
  8
JISSEN
100
AcDbLine
 10
209.2071206643747
 20
331.4559768260762
 30
0.0
 11
219.6571206643745
 21
331.4559768260762
 31
0.0
  0
ARC
  5
EA6E5C39E
330
EA6E4DC92
100
AcDbEntity
  8
JISSEN
100
AcDbCircle
 10
209.9825064351223
 20
316.2898239847046
 30
0.0
 40
5.879349232940107
100
AcDbArc
 50
71.91219460926667
 51
108.0878053907196
  0
LINE
  5
EA6E5C39F
330
EA6E4DC92
100
AcDbEntity
  8
JISSEN
100
AcDbLine
 10
230.4071206643746
 20
322.4559768260762
 30
0.0
 11
208.9071206643745
 21
322.4559768260762
 31
0.0
  0
LINE
  5
EA6E5C3A0
330
EA6E4DC92
100
AcDbEntity
  8
JISSEN
100
AcDbLine
 10
194.6571206643741
 20
315.7059768260761
 30
0.0
 11
194.6571206643741
 21
305.4559768260762
 31
0.0
  0
LINE
  5
EA6E5C3A1
330
EA6E4DC92
100
AcDbEntity
  8
JISSEN
100
AcDbLine
 10
195.1571206643741
 20
316.2059768260762
 30
0.0
 11
195.1571206643741
 21
305.4559768260762
 31
0.0
  0
LINE
  5
EA6E5C3A2
330
EA6E4DC92
100
AcDbEntity
  8
JISSEN
100
AcDbLine
 10
194.6571206643741
 20
295.2059768260762
 30
0.0
 11
195.1571206643741
 21
294.7059768260761
 31
0.0
  0
LINE
  5
EA6E5C3A3
330
EA6E4DC92
100
AcDbEntity
  8
JISSEN
100
AcDbLine
 10
190.6571206643743
 20
313.9559768260764
 30
0.0
 11
190.6571206643743
 21
296.9559768260764
 31
0.0
  0
LINE
  5
EA6E5C3A4
330
EA6E4DC92
100
AcDbEntity
  8
JISSEN
100
AcDbLine
 10
194.6571206643741
 20
295.2059768260762
 30
0.0
 11
194.6571206643741
 21
305.4559768260762
 31
0.0
  0
LWPOLYLINE
  5
EA6E5C3A5
330
EA6E4DC92
100
AcDbEntity
  8
SAISEN
100
AcDbPolyline
 90
        3
 70
     0
 43
0.0
 10
188.6571206643743
 20
296.9559768260764
 10
190.6571206643743
 20
298.9559768260764
 10
194.6571206643743
 20
298.9559768260764
  0
LWPOLYLINE
  5
EA6E5C3A6
330
EA6E4DC92
100
AcDbEntity
  8
SAISEN
100
AcDbPolyline
 90
        3
 70
     0
 43
0.0
 10
188.6571206643743
 20
313.9559768260762
 10
190.6571206643743
 20
311.9559768260763
 10
194.6571206643741
 20
311.9559768260763
  0
LINE
  5
EA6E5C3A7
330
EA6E4DC92
100
AcDbEntity
  8
JISSEN
  6
Continuous
100
AcDbLine
 10
195.1571206643741
 20
294.7059768260761
 30
0.0
 11
208.4741079624821
 21
294.7059768260761
 31
0.0
  0
LINE
  5
EA6E5C3A8
330
EA6E4DC92
100
AcDbEntity
  8
JISSEN
100
AcDbLine
 10
195.1571206643741
 20
294.7059768260761
 30
0.0
 11
195.1571206643741
 21
305.4559768260762
 31
0.0
  0
LINE
  5
EA6E5C3A9
330
EA6E4DC92
100
AcDbEntity
  8
JISSEN
  6
Continuous
100
AcDbLine
 10
207.6571206643741
 20
305.4559768260762
 30
0.0
 11
207.6571206643741
 21
301.4559768260762
 31
0.0
  0
ARC
  5
EA6E5C3AA
330
EA6E4DC92
100
AcDbEntity
  8
JISSEN
  6
Continuous
100
AcDbCircle
 10
208.6571206643741
 20
301.455976826076
 30
0.0
 40
1.0
100
AcDbArc
 50
180.0
 51
270.0
  0
LINE
  5
EA6E5C3AB
330
EA6E4DC92
100
AcDbEntity
  8
JISSEN
100
AcDbLine
 10
208.9071206643741
 20
294.4559768260761
 30
0.0
 11
208.4741079624821
 21
294.7059768260761
 31
0.0
  0
ARC
  5
EA6E5C3AC
330
EA6E4DC92
100
AcDbEntity
  8
JISSEN
  6
Continuous
100
AcDbCircle
 10
208.6571206643741
 20
309.4559768260761
 30
0.0
 40
1.0
100
AcDbArc
 50
90.0
 51
180.0
  0
LINE
  5
EA6E5C3AD
330
EA6E4DC92
100
AcDbEntity
  8
JISSEN
  6
Continuous
100
AcDbLine
 10
207.6571206643741
 20
305.4559768260762
 30
0.0
 11
207.6571206643741
 21
309.4559768260761
 31
0.0
  0
LINE
  5
EA6E5C3AE
330
EA6E4DC92
100
AcDbEntity
  8
JISSEN
100
AcDbLine
 10
194.6571206643741
 20
315.7059768260761
 30
0.0
 11
195.1571206643741
 21
316.2059768260762
 31
0.0
  0
LINE
  5
EA6E5C3AF
330
EA6E4DC92
100
AcDbEntity
  8
JISSEN
  6
Continuous
100
AcDbLine
 10
195.1571206643741
 20
316.2059768260762
 30
0.0
 11
207.4071206643741
 21
316.2059768260762
 31
0.0
  0
LINE
  5
EA6E5C3B0
330
EA6E4DC92
100
AcDbEntity
  8
JISSEN
100
AcDbLine
 10
208.9071206643745
 20
322.4559768260762
 30
0.0
 11
208.9071206643745
 21
331.1559768260764
 31
0.0
  0
LINE
  5
EA6E5C3B1
330
EA6E4DC92
100
AcDbEntity
  8
JISSEN
100
AcDbLine
 10
207.4071206643741
 20
316.4559768260762
 30
0.0
 11
207.4071206643741
 21
317.5899514222916
 31
0.0
  0
LINE
  5
EA6E5C3B2
330
EA6E4DC92
100
AcDbEntity
  8
JISSEN
100
AcDbLine
 10
207.4071206643741
 20
316.2059768260762
 30
0.0
 11
207.4071206643741
 21
317.5899514222916
 31
0.0
  0
LINE
  5
EA6E5C3B3
330
EA6E4DC92
100
AcDbEntity
  8
JISSEN
100
AcDbLine
 10
208.9071206643741
 20
318.4559768260762
 30
0.0
 11
207.4071206643741
 21
317.5899514222916
 31
0.0
  0
LINE
  5
EA6E5C3B4
330
EA6E4DC92
100
AcDbEntity
  8
JISSEN
100
AcDbLine
 10
208.9071206643745
 20
318.3116392587782
 30
0.0
 11
208.1571206643745
 21
318.7446519606707
 31
0.0
  0
LINE
  5
EA6E5C3B5
330
EA6E4DC92
100
AcDbEntity
  8
JISSEN
100
AcDbLine
 10
208.1571206643745
 20
321.8786265568862
 30
0.0
 11
208.1571206643745
 21
318.7446519606707
 31
0.0
  0
LINE
  5
EA6E5C3B6
330
EA6E4DC92
100
AcDbEntity
  8
JISSEN
100
AcDbLine
 10
208.9071206643745
 20
322.3116392587782
 30
0.0
 11
208.1571206643745
 21
321.8786265568862
 31
0.0
  0
LINE
  5
EA6E5C3B7
330
EA6E4DC92
100
AcDbEntity
  8
JISSEN
100
AcDbLine
 10
208.9071206643745
 20
331.1559768260764
 30
0.0
 11
209.2071206643747
 21
331.4559768260762
 31
0.0
  0
LINE
  5
EA6E5C3B8
330
EA6E4DC92
100
AcDbEntity
  8
JISSEN
100
AcDbLine
 10
231.9071206643741
 20
312.4559768260757
 30
0.0
 11
231.9071206643741
 21
317.5899514222914
 31
0.0
  0
LINE
  5
EA6E5C3B9
330
EA6E4DC92
100
AcDbEntity
  8
JISSEN
100
AcDbLine
 10
225.0480853275864
 20
317.5899514222916
 30
0.0
 11
225.048085327586
 21
295.3220022298602
 31
0.0
  0
LINE
  5
EA6E5C3BA
330
EA6E4DC92
100
AcDbEntity
  8
JISSEN
100
AcDbLine
 10
226.4879177743971
 20
317.5899514222916
 30
0.0
 11
226.4879177743967
 21
295.3220022298602
 31
0.0
  0
LINE
  5
EA6E5C3BB
330
EA6E4DC92
100
AcDbEntity
  8
JISSEN
100
AcDbLine
 10
212.8263235543515
 20
317.5899514222916
 30
0.0
 11
212.8263235543515
 21
312.6596490878918
 31
0.0
  0
LINE
  5
EA6E5C3BC
330
EA6E4DC92
100
AcDbEntity
  8
JISSEN
100
AcDbLine
 10
214.2661560011622
 20
317.5899514222916
 30
0.0
 11
214.2661560011622
 21
311.4559768260761
 31
0.0
  0
ARC
  5
EA6E5C3BD
330
EA6E4DC92
100
AcDbEntity
  8
JISSEN
100
AcDbCircle
 10
219.6571206643741
 20
311.6682317262931
 30
0.0
 40
17.2122549002172
100
AcDbArc
 50
251.7475134716356
 51
288.2524865283643
  0
INSERT
  5
EA6E5C3BE
330
EA6E4DC92
100
AcDbEntity
  8
SUNPOU
100
AcDbBlockReference
  2
ARROWANG
 10
219.6571206643742
 20
294.455976826076
 30
0.0
 41
3.000000000000005
 42
3.0
 43
3.0
 50
119.6276808527504
1001
ACAD
1000
DSTYLE
1002
{
1070
   147
1040
1.0
1070
    77
1070
     0
1002
}
  0
LINE
  5
EA6E5C3BF
330
EA6E4DC92
100
AcDbEntity
  8
JISSEN
100
AcDbLine
 10
214.2661560011622
 20
299.4559768260762
 30
0.0
 11
214.2661560011617
 21
295.3220022298607
 31
0.0
  0
LINE
  5
EA6E5C3C0
330
EA6E4DC92
100
AcDbEntity
  8
JISSEN
100
AcDbLine
 10
212.8263235543515
 20
295.3220022298607
 30
0.0
 11
214.2661560011622
 21
295.3220022298607
 31
0.0
  0
LINE
  5
EA6E5C3C1
330
EA6E4DC92
100
AcDbEntity
  8
JISSEN
100
AcDbLine
 10
212.8263235543515
 20
298.6941098769379
 30
0.0
 11
212.8263235543515
 21
295.3220022298607
 31
0.0
  0
ARC
  5
EA6E5C3C2
330
EA6E4DC92
100
AcDbEntity
  8
JISSEN
100
AcDbCircle
 10
213.2661560011618
 20
299.455976826076
 30
0.0
 40
1.0
100
AcDbArc
 50
0.0
 51
90.0
  0
ARC
  5
EA6E5C3C3
330
EA6E4DC92
100
AcDbEntity
  8
JISSEN
100
AcDbCircle
 10
213.2661560011622
 20
311.4559768260759
 30
0.0
 40
1.0
100
AcDbArc
 50
270.0
 51
0.0
  0
LWPOLYLINE
  5
EA6E5C3C4
330
EA6E4DC92
100
AcDbEntity
  8
JISSEN
100
AcDbPolyline
 90
       13
 70
     0
 43
0.0
 10
221.0540495079523
 20
304.0914392563801
 42
0.0508792192586602
 10
221.166540804794
 20
304.1473638952899
 42
0.1071591475341562
 10
221.4881546283215
 20
304.4633275212283
 42
0.0789991877022394
 10
221.6834926683666
 20
304.8971436488697
 42
0.0664511817867662
 10
221.7581967209314
 20
305.4567588086799
 42
0.0664511817867667
 10
221.6834926683666
 20
306.0163739684901
 42
0.0789991877022392
 10
221.4881546283215
 20
306.4501900961317
 42
0.1071591475341592
 10
221.166540804794
 20
306.7661537220698
 42
0.141695250338409
 10
220.8362153459313
 20
306.86168280868
 42
0.1416952503384097
 10
220.5058898870686
 20
306.7661537220698
 42
0.1071591475341602
 10
220.1842760635411
 20
306.4501900961317
 42
0.0789991877022377
 10
219.988938023496
 20
306.0163739684901
 42
0.0664511817867672
 10
219.9142339709312
 20
305.4567588086799
 42
0.0664511817867678
  0
LWPOLYLINE
  5
EA6E5C3C5
330
EA6E4DC92
100
AcDbEntity
  8
JISSEN
100
AcDbPolyline
 90
        5
 70
     0
 43
0.0
 10
221.0514868330021
 20
303.5462664080164
 42
0.0770392472783639
 10
221.3678182754131
 20
303.6620307604548
 42
0.1060700219635831
 10
221.8606913611158
 20
304.0907907884338
 42
0.085782807107608
 10
222.1694622887673
 20
304.6951202455756
 42
0.075444616229805
 10
222.2850432209313
 20
305.4567588086799
 42
0.0754446162298053
  0
LWPOLYLINE
  5
EA6E5C3C6
330
EA6E4DC92
100
AcDbEntity
  8
JISSEN
100
AcDbPolyline
 90
        9
 70
     0
 43
0.0
 10
217.5434247209316
 20
305.4567588086799
 42
0.0664511817867678
 10
217.618128773496
 20
304.8971436488697
 42
0.078999187702239
 10
217.813466813541
 20
304.4633275212283
 42
0.107159147534158
 10
218.1565255511434
 20
304.1262957311959
 42
0.1647051743017312
 10
218.4654060959312
 20
304.0518348086797
 42
0.1416952503384066
 10
218.7957315547939
 20
304.1473638952899
 42
0.1071591475341562
 10
219.1173453783215
 20
304.4633275212283
 42
0.0789991877022394
 10
219.312683418367
 20
304.8971436488697
 42
0.0664511817867652
 10
219.3873874709313
 20
305.4567588086799
 42
0.0664511817867667
  0
LWPOLYLINE
  5
EA6E5C3C7
330
EA6E4DC92
100
AcDbEntity
  8
JISSEN
100
AcDbPolyline
 90
       13
 70
     0
 43
0.0
 10
218.2501346088604
 20
307.3672512093434
 42
0.0770392472783632
 10
217.9338031664495
 20
307.2514868569052
 42
0.1060700219635834
 10
217.4409300807467
 20
306.822726828926
 42
0.085782807107608
 10
217.1321591530956
 20
306.2183973717842
 42
0.0754446162298052
 10
217.0165782209312
 20
305.4567588086799
 42
0.0754446162298049
 10
217.1321591530956
 20
304.6951202455756
 42
0.085782807107608
 10
217.4409300807467
 20
304.0907907884338
 42
0.1060700219635838
 10
217.9338031664495
 20
303.6620307604548
 42
0.1268223572478406
 10
218.4654060959312
 20
303.52498830868
 42
0.1268223572478391
 10
218.997009025413
 20
303.6620307604548
 42
0.1060700219635831
 10
219.4898821111162
 20
304.0907907884338
 42
0.085782807107608
 10
219.7986530387672
 20
304.6951202455756
 42
0.075444616229805
 10
219.9142339709312
 20
305.4567588086799
 42
0.0754446162298053
  0
LWPOLYLINE
  5
EA6E5C3C8
330
EA6E4DC92
100
AcDbEntity
  8
JISSEN
100
AcDbPolyline
 90
       16
 70
     1
 43
0.0
 10
216.6653472209316
 20
305.4567588086799
 42
0.0714693076283245
 10
216.9052044295233
 20
303.7872865624414
 42
0.0829154742493596
 10
217.5397692350963
 20
302.4764649463246
 42
0.1067406714191292
 10
218.6378683845162
 20
301.4701245052937
 42
0.1550349022404454
 10
219.6508107209313
 20
301.2419868086798
 42
0.1330639172301401
 10
220.7354688556677
 20
301.5358476307052
 42
0.1067406714191296
 10
221.7618522067662
 20
302.4764649463246
 42
0.0829154742493594
 10
222.3964170123397
 20
303.7872865624414
 42
0.0714693076283241
 10
222.6362742209314
 20
305.4567588086799
 42
0.0714693076283252
 10
222.3964170123397
 20
307.1262310549186
 42
0.0829154742493602
 10
221.7618522067662
 20
308.4370526710351
 42
0.1067406714191293
 10
220.7354688556677
 20
309.3776699866547
 42
0.1330639172301401
 10
219.6508107209313
 20
309.6715308086799
 42
0.1330639172301399
 10
218.5661525861953
 20
309.3776699866547
 42
0.1067406714191293
 10
217.5397692350963
 20
308.4370526710351
 42
0.0829154742493597
 10
216.9052044295233
 20
307.1262310549186
 42
0.0714693076283244
  0
INSERT
  5
EA6E5C3C9
330
EA6E4DC92
100
AcDbEntity
  8
JISSEN
100
AcDbBlockReference
  2
*X4
 10
216.4897317209313
 20
310.02276180868
 30
0.0
 41
0.3512309999999843
 42
0.3512309999999843
 43
0.3512309999999999
 50
270.0
  0
LWPOLYLINE
  5
EA6E5C3CA
330
EA6E4DC92
100
AcDbEntity
  8
JISSEN
100
AcDbPolyline
 90
       16
 70
     1
 43
0.0
 10
217.0165782209312
 20
305.4567588086799
 42
0.0689212726861089
 10
217.2291433080997
 20
303.9219977355625
 42
0.0809685170767006
 10
217.7881270569594
 20
302.7248227681877
 42
0.1070187297923515
 10
218.7625623289975
 20
301.8002417324682
 42
0.1598118359516122
 10
219.6508107209313
 20
301.5932178086799
 42
0.1373351888463599
 10
220.6013142453964
 20
301.8593117564775
 42
0.1070187297923511
 10
221.5134943849036
 20
302.7248227681877
 42
0.0809685170767004
 10
222.0724781337628
 20
303.9219977355625
 42
0.068921272686109
 10
222.2850432209313
 20
305.4567588086799
 42
0.0689212726861093
 10
222.0724781337628
 20
306.9915198817972
 42
0.0809685170767009
 10
221.5134943849036
 20
308.1886948491721
 42
0.1070187297923514
 10
220.6013142453964
 20
309.0542058608822
 42
0.1373351888463605
 10
219.6508107209313
 20
309.32029980868
 42
0.1373351888463604
 10
218.7003071964661
 20
309.0542058608822
 42
0.1070187297923513
 10
217.7881270569594
 20
308.1886948491721
 42
0.0809685170767004
 10
217.2291433080997
 20
306.9915198817972
 42
0.0689212726861086
  0
LINE
  5
EA6E5C3CB
330
EA6E4DC92
100
AcDbEntity
  8
JISSEN
100
AcDbLine
 10
221.0540495079523
 20
303.2133617563801
 30
0.0
 11
221.0514868330021
 21
303.5462664080166
 31
0.0
  0
LINE
  5
EA6E5C3CC
330
EA6E4DC92
100
AcDbEntity
  8
JISSEN
100
AcDbLine
 10
220.7028185079523
 20
303.2133617563801
 30
0.0
 11
221.0540495079523
 21
303.2133617563801
 31
0.0
  0
LINE
  5
EA6E5C3CD
330
EA6E4DC92
100
AcDbEntity
  8
JISSEN
100
AcDbLine
 10
221.0540495079523
 20
304.4426702563802
 30
0.0
 11
220.7028185079523
 21
304.4426702563802
 31
0.0
  0
LINE
  5
EA6E5C3CE
330
EA6E4DC92
100
AcDbEntity
  8
JISSEN
100
AcDbLine
 10
220.7028185079523
 20
304.4426702563802
 30
0.0
 11
220.7028185079523
 21
303.2133617563801
 31
0.0
  0
LINE
  5
EA6E5C3CF
330
EA6E4DC92
100
AcDbEntity
  8
JISSEN
100
AcDbLine
 10
221.0540495079523
 20
304.0914392563801
 30
0.0
 11
221.0540495079523
 21
304.4426702563802
 31
0.0
  0
LWPOLYLINE
  5
EA6E5C3D0
330
EA6E4DC92
100
AcDbEntity
  8
JISSEN
100
AcDbPolyline
 90
        9
 70
     0
 43
0.0
 10
222.2850432209313
 20
305.4567588086799
 42
0.0754446162298053
 10
222.1694622887673
 20
306.2183973717842
 42
0.0857828071076088
 10
221.8606913611158
 20
306.822726828926
 42
0.1060700219635837
 10
221.3321290469896
 20
307.2825336213183
 42
0.1480812953266344
 10
220.8362153459313
 20
307.3885293086797
 42
0.1268223572478397
 10
220.3046124164495
 20
307.2514868569052
 42
0.1060700219635834
 10
219.8117393307468
 20
306.822726828926
 42
0.085782807107608
 10
219.5029684030953
 20
306.2183973717842
 42
0.0754446162298056
 10
219.3873874709313
 20
305.4567588086799
 42
0.0754446162298049
  0
LINE
  5
EA6E5C3D1
330
EA6E4DC92
100
AcDbEntity
  8
JISSEN
100
AcDbLine
 10
218.5988029339107
 20
306.4708473609798
 30
0.0
 11
218.5988029339107
 21
307.7001558609797
 31
0.0
  0
LINE
  5
EA6E5C3D2
330
EA6E4DC92
100
AcDbEntity
  8
JISSEN
100
AcDbLine
 10
218.2475719339106
 20
307.7001558609797
 30
0.0
 11
218.2501346088609
 21
307.3672512093437
 31
0.0
  0
LINE
  5
EA6E5C3D3
330
EA6E4DC92
100
AcDbEntity
  8
JISSEN
100
AcDbLine
 10
218.5988029339107
 20
307.7001558609797
 30
0.0
 11
218.2475719339106
 21
307.7001558609797
 31
0.0
  0
LINE
  5
EA6E5C3D4
330
EA6E4DC92
100
AcDbEntity
  8
JISSEN
100
AcDbLine
 10
218.2475719339106
 20
306.8220783609796
 30
0.0
 11
218.2475719339106
 21
306.4708473609798
 31
0.0
  0
LWPOLYLINE
  5
EA6E5C3D5
330
EA6E4DC92
100
AcDbEntity
  8
JISSEN
100
AcDbPolyline
 90
        5
 70
     0
 43
0.0
 10
218.2475719339106
 20
306.8220783609796
 42
0.0508792192586596
 10
218.1350806370689
 20
306.7661537220698
 42
0.1071591475341602
 10
217.813466813541
 20
306.4501900961317
 42
0.0789991877022377
 10
217.618128773496
 20
306.0163739684901
 42
0.0664511817867672
 10
217.5434247209316
 20
305.4567588086799
 42
0.0664511817867678
  0
LINE
  5
EA6E5C3D6
330
EA6E4DC92
100
AcDbEntity
  8
JISSEN
100
AcDbLine
 10
218.2475719339106
 20
306.4708473609798
 30
0.0
 11
218.5988029339107
 21
306.4708473609798
 31
0.0
  0
LWPOLYLINE
  5
EA6E5C3D7
330
EA6E4DC92
100
AcDbEntity
  8
JISSEN
100
AcDbPolyline
 90
        2
 70
     0
 43
0.0
 10
219.9142339709312
 20
305.4567588086799
 42
0.003443646303572
 10
219.9139904219271
 20
305.4921204711058
 42
0.0857828071076088
  0
ARC
  5
EA6E5C3D8
330
EA6E4DC92
100
AcDbEntity
  8
JISSEN
100
AcDbCircle
 10
229.1975192193851
 20
299.1277454635543
 30
0.0
 40
4.671789972964431
100
AcDbArc
 50
234.5500104763972
 51
294.5500104764356
  0
ARC
  5
EA6E5C3D9
330
EA6E4DC92
100
AcDbEntity
  8
JISSEN
100
AcDbCircle
 10
236.3411370869755
 20
305.4559768260757
 30
0.0
 40
7.157736980972463
100
AcDbArc
 50
132.0791917640715
 51
226.6754408424862
  0
LINE
  5
EA6E5C3DA
330
EA6E4DC92
100
AcDbEntity
  8
JISSEN
100
AcDbLine
 10
230.4071206643741
 20
294.4559768260757
 30
0.0
 11
231.9071206643741
 21
295.3220022298602
 31
0.0
  0
LINE
  5
EA6E5C3DB
330
EA6E4DC92
100
AcDbEntity
  8
JISSEN
100
AcDbLine
 10
226.4879177743971
 20
295.3220022298602
 30
0.0
 11
225.0480853275864
 21
295.3220022298602
 31
0.0
  0
LINE
  5
EA6E5C3DC
330
EA6E4DC92
100
AcDbEntity
  8
JISSEN
100
AcDbLine
 10
233.257120664374
 20
297.9473254576339
 30
0.0
 11
233.2571206643744
 21
305.4559768260762
 31
0.0
  0
LINE
  5
EA6E5C3DD
330
EA6E4DC92
100
AcDbEntity
  8
JISSEN
100
AcDbLine
 10
233.7483944611556
 20
297.4474016100559
 30
0.0
 11
237.2694698683278
 21
297.3859410102063
 31
0.0
  0
ARC
  5
EA6E5C3DE
330
EA6E4DC92
100
AcDbEntity
  8
JISSEN
100
AcDbCircle
 10
233.757120664374
 20
297.9473254576339
 30
0.0
 40
0.5
100
AcDbArc
 50
180.0
 51
268.9999999999982
  0
LINE
  5
EA6E5C3DF
330
EA6E4DC92
100
AcDbEntity
  8
JISSEN
100
AcDbLine
 10
231.9071206643741
 20
298.4559768260762
 30
0.0
 11
231.9071206643741
 21
295.3220022298602
 31
0.0
  0
ARC
  5
EA6E5C3E0
330
EA6E4DC92
100
AcDbEntity
  8
JISSEN
100
AcDbCircle
 10
233.4071206643741
 20
298.4559768260759
 30
0.0
 40
1.5
100
AcDbArc
 50
95.73917047726149
 51
180.0
  0
ARC
  5
EA6E5C3E1
330
EA6E4DC92
100
AcDbEntity
  8
JISSEN
100
AcDbCircle
 10
233.757120664374
 20
312.9559768260759
 30
0.0
 40
0.5
100
AcDbArc
 50
90.0
 51
180.0
  0
ARC
  5
EA6E5C3E2
330
EA6E4DC92
100
AcDbEntity
  8
JISSEN
100
AcDbCircle
 10
233.4071206643741
 20
312.4559768260757
 30
0.0
 40
1.5
100
AcDbArc
 50
180.0
 51
264.2608295227253
  0
LINE
  5
EA6E5C3E3
330
EA6E4DC92
100
AcDbEntity
  8
JISSEN
100
AcDbLine
 10
233.257120664374
 20
312.964628194518
 30
0.0
 11
233.2571206643744
 21
305.4559768260762
 31
0.0
  0
LINE
  5
EA6E5C3E4
330
EA6E4DC92
100
AcDbEntity
  8
JISSEN
100
AcDbLine
 10
212.7764963329582
 20
338.4559768260761
 30
0.0
 11
226.5377449957902
 21
338.4559768260761
 31
0.0
  0
LINE
  5
EA6E5C3E5
330
EA6E4DC92
100
AcDbEntity
  8
JISSEN
100
AcDbLine
 10
212.1865324290802
 20
331.4559768260764
 30
0.0
 11
227.1277088996682
 21
331.4559768260762
 31
0.0
  0
LINE
  5
EA6E5C3E6
330
EA6E4DC92
100
AcDbEntity
  8
JISSEN
100
AcDbLine
 10
211.1571206643741
 20
340.4559768260762
 30
0.0
 11
228.1571206643741
 21
340.4559768260762
 31
0.0
  0
ARC
  5
EA6E5C3E7
330
EA6E4DC92
100
AcDbEntity
  8
JISSEN
100
AcDbCircle
 10
219.6571206643741
 20
359.5184768260762
 30
0.0
 40
19.06249999999997
100
AcDbArc
 50
243.5189601696199
 51
296.4810398303662
  0
LINE
  5
EA6E5C3E8
330
EA6E4DC92
100
AcDbEntity
  8
JISSEN
100
AcDbLine
 10
227.5063491228786
 20
318.8889895279686
 30
0.0
 11
223.0112226306244
 21
318.8889895279686
 31
0.0
  0
LINE
  5
EA6E5C3E9
330
EA6E4DC92
100
AcDbEntity
  8
JISSEN
100
AcDbLine
 10
230.4071206643746
 20
318.4559768260762
 30
0.0
 11
219.6571206643745
 21
318.4559768260764
 31
0.0
  0
ARC
  5
EA6E5C3EA
330
EA6E4DC92
100
AcDbEntity
  8
JISSEN
100
AcDbCircle
 10
219.6571206643741
 20
301.2437219258587
 30
0.0
 40
17.2122549002172
100
AcDbArc
 50
71.74751347163568
 51
108.2524865283643
  0
LINE
  5
EA6E5C3EB
330
EA6E4DC92
100
AcDbEntity
  8
JISSEN
100
AcDbLine
 10
227.5063491228786
 20
322.0229641241841
 30
0.0
 11
223.0112226306244
 21
322.0229641241841
 31
0.0
  0
LINE
  5
EA6E5C3EC
330
EA6E4DC92
100
AcDbEntity
  8
JISSEN
100
AcDbLine
 10
230.1071206643744
 20
331.4559768260762
 30
0.0
 11
219.6571206643745
 21
331.4559768260762
 31
0.0
  0
LINE
  5
EA6E5C3ED
330
EA6E4DC92
100
AcDbEntity
  8
HATCH
100
AcDbLine
 10
212.7764963329582
 20
338.4559768260761
 30
0.0
 11
213.1882610388404
 21
331.4559768260762
 31
0.0
  0
LINE
  5
EA6E5C3EE
330
EA6E4DC92
100
AcDbEntity
  8
JISSEN
100
AcDbLine
 10
211.6571206643741
 20
340.4559768260762
 30
0.0
 11
212.18653242908
 21
331.4559768260762
 31
0.0
  0
ARC
  5
EA6E5C3EF
330
EA6E4DC92
100
AcDbEntity
  8
JISSEN
100
AcDbCircle
 10
219.6571206643745
 20
338.2302235458168
 30
0.0
 40
19.62990915244282
100
AcDbArc
 50
260.1617730147515
 51
270.0
  0
ARC
  5
EA6E5C3F0
330
EA6E4DC92
100
AcDbEntity
  8
JISSEN
100
AcDbCircle
 10
219.6571206643745
 20
302.6817301063319
 30
0.0
 40
19.62990915244717
100
AcDbArc
 50
90.0
 51
99.83822698523521
  0
LINE
  5
EA6E5C3F1
330
EA6E4DC92
100
AcDbEntity
  8
JISSEN
100
AcDbLine
 10
211.8078922058705
 20
318.8889895279686
 30
0.0
 11
216.3030186981247
 21
318.8889895279686
 31
0.0
  0
LINE
  5
EA6E5C3F2
330
EA6E4DC92
100
AcDbEntity
  8
JISSEN
100
AcDbLine
 10
211.8078922058705
 20
322.0229641241841
 30
0.0
 11
216.3030186981247
 21
322.0229641241841
 31
0.0
  0
LINE
  5
EA6E5C3F3
330
EA6E4DC92
100
AcDbEntity
  8
JISSEN
100
AcDbLine
 10
211.8078922058705
 20
322.0229641241841
 30
0.0
 11
211.8078922058705
 21
318.8889895279686
 31
0.0
  0
LINE
  5
EA6E5C3F4
330
EA6E4DC92
100
AcDbEntity
  8
JISSEN
100
AcDbLine
 10
212.8263235543515
 20
317.5899514222916
 30
0.0
 11
214.2661560011622
 21
317.5899514222916
 31
0.0
  0
LINE
  5
EA6E5C3F5
330
EA6E4DC92
100
AcDbEntity
  8
JISSEN
100
AcDbLine
 10
216.3030186981247
 20
322.0229641241841
 30
0.0
 11
216.3030186981247
 21
318.8889895279686
 31
0.0
  0
ARC
  5
EA6E5C3F6
330
EA6E4DC92
100
AcDbEntity
  8
JISSEN
100
AcDbCircle
 10
219.6571206643745
 20
338.2302235458168
 30
0.0
 40
19.62990915244282
100
AcDbArc
 50
270.0
 51
279.8382269852484
  0
ARC
  5
EA6E5C3F7
330
EA6E4DC92
100
AcDbEntity
  8
JISSEN
100
AcDbCircle
 10
219.6571206643745
 20
302.6817301063319
 30
0.0
 40
19.62990915244717
100
AcDbArc
 50
80.16177301475154
 51
90.0
  0
LINE
  5
EA6E5C3F8
330
EA6E4DC92
100
AcDbEntity
  8
JISSEN
100
AcDbLine
 10
223.0112226306244
 20
322.0229641241841
 30
0.0
 11
223.0112226306244
 21
318.8889895279686
 31
0.0
  0
LINE
  5
EA6E5C3F9
330
EA6E4DC92
100
AcDbEntity
  8
JISSEN
100
AcDbLine
 10
211.1571206643741
 20
351.3250881899186
 30
0.0
 11
211.1571206643741
 21
340.4559768260762
 31
0.0
  0
LINE
  5
EA6E5C3FA
330
EA6E4DC92
100
AcDbEntity
  8
HATCH
100
AcDbLine
 10
211.6571206643741
 20
340.4559768260762
 30
0.0
 11
212.7764963329582
 21
338.4559768260761
 31
0.0
  0
LINE
  5
EA6E5C3FB
330
EA6E4DC92
100
AcDbEntity
  8
HATCH
100
AcDbLine
 10
226.125980289908
 20
331.4559768260762
 30
0.0
 11
226.5377449957902
 21
338.4559768260761
 31
0.0
  0
LINE
  5
EA6E5C3FC
330
EA6E4DC92
100
AcDbEntity
  8
JISSEN
100
AcDbLine
 10
227.1277088996682
 20
331.4559768260762
 30
0.0
 11
227.6571206643741
 21
340.4559768260762
 31
0.0
  0
LINE
  5
EA6E5C3FD
330
EA6E4DC92
100
AcDbEntity
  8
JISSEN
100
AcDbLine
 10
230.4071206643741
 20
318.4559768260757
 30
0.0
 11
231.9071206643741
 21
317.5899514222914
 31
0.0
  0
LINE
  5
EA6E5C3FE
330
EA6E4DC92
100
AcDbEntity
  8
JISSEN
100
AcDbLine
 10
230.4071206643746
 20
318.4559768260762
 30
0.0
 11
231.1571206643745
 21
318.8889895279686
 31
0.0
  0
ARC
  5
EA6E5C3FF
330
EA6E4DC92
100
AcDbEntity
  8
JISSEN
100
AcDbCircle
 10
229.1975192193851
 20
313.7842081885973
 30
0.0
 40
4.671789972964431
100
AcDbArc
 50
65.4499895235501
 51
125.4499895236028
  0
ARC
  5
EA6E5C400
330
EA6E4DC92
100
AcDbEntity
  8
JISSEN
100
AcDbCircle
 10
229.3317348936263
 20
324.4777921001488
 30
0.0
 40
5.879349232938483
100
AcDbArc
 50
251.9121946092666
 51
288.0878053907196
  0
LINE
  5
EA6E5C401
330
EA6E4DC92
100
AcDbEntity
  8
JISSEN
100
AcDbLine
 10
230.4071206643746
 20
322.4559768260762
 30
0.0
 11
231.1571206643745
 21
322.0229641241841
 31
0.0
  0
ARC
  5
EA6E5C402
330
EA6E4DC92
100
AcDbEntity
  8
JISSEN
100
AcDbCircle
 10
229.3317348936263
 20
316.4341615520026
 30
0.0
 40
5.879349232940107
100
AcDbArc
 50
71.91219460926667
 51
108.0878053907196
  0
LINE
  5
EA6E5C403
330
EA6E4DC92
100
AcDbEntity
  8
JISSEN
100
AcDbLine
 10
230.4071206643746
 20
322.4559768260762
 30
0.0
 11
230.4071206643746
 21
331.1559768260764
 31
0.0
  0
LINE
  5
EA6E5C404
330
EA6E4DC92
100
AcDbEntity
  8
JISSEN
100
AcDbLine
 10
226.4879177743971
 20
317.5899514222916
 30
0.0
 11
225.0480853275864
 21
317.5899514222916
 31
0.0
  0
LINE
  5
EA6E5C405
330
EA6E4DC92
100
AcDbEntity
  8
JISSEN
100
AcDbLine
 10
227.5063491228786
 20
322.0229641241841
 30
0.0
 11
227.5063491228786
 21
318.8889895279686
 31
0.0
  0
LINE
  5
EA6E5C406
330
EA6E4DC92
100
AcDbEntity
  8
JISSEN
100
AcDbLine
 10
230.4071206643746
 20
331.1559768260764
 30
0.0
 11
230.1071206643744
 21
331.4559768260762
 31
0.0
  0
LINE
  5
EA6E5C407
330
EA6E4DC92
100
AcDbEntity
  8
JISSEN
100
AcDbLine
 10
231.1571206643745
 20
322.0229641241841
 30
0.0
 11
231.1571206643745
 21
318.8889895279686
 31
0.0
  0
LINE
  5
EA6E5C408
330
EA6E4DC92
100
AcDbEntity
  8
JISSEN
100
AcDbLine
 10
228.1571206643741
 20
340.4559768260762
 30
0.0
 11
228.1571206643741
 21
351.3250881899186
 31
0.0
  0
LINE
  5
EA6E5C409
330
EA6E4DC92
100
AcDbEntity
  8
HATCH
100
AcDbLine
 10
226.5377449957902
 20
338.4559768260761
 30
0.0
 11
227.6571206643741
 21
340.4559768260762
 31
0.0
  0
ARC
  5
EA6E5C40A
330
EA6E4DC92
100
AcDbEntity
  8
JISSEN
100
AcDbCircle
 10
219.6571206643741
 20
392.4559768260762
 30
0.0
 40
25.0
100
AcDbArc
 50
90.0
 51
224.6844194460194
  0
LINE
  5
EA6E5C40B
330
EA6E4DC92
100
AcDbEntity
  8
JISSEN
100
AcDbLine
 10
196.9174480087908
 20
369.7163041704929
 30
0.0
 11
216.5785210145488
 21
390.7909770674888
 31
0.0
  0
LINE
  5
EA6E5C40C
330
EA6E4DC92
100
AcDbEntity
  8
JISSEN
100
AcDbLine
 10
196.917448008792
 20
369.7163041704915
 30
0.0
 11
218.0012698301145
 21
389.385912429444
 31
0.0
  0
ARC
  5
EA6E5C40D
330
EA6E4DC92
100
AcDbEntity
  8
JISSEN
100
AcDbCircle
 10
219.6571206643743
 20
392.4559768260746
 30
0.0
 40
28.00000000000017
100
AcDbArc
 50
179.9999999999967
 51
225.2173479423137
  0
LINE
  5
EA6E5C40E
330
EA6E4DC92
100
AcDbEntity
  8
JISSEN
100
AcDbLine
 10
202.0770859716891
 20
374.6812087487148
 30
0.0
 11
199.9333792912439
 21
372.5820233631655
 31
0.0
  0
LINE
  5
EA6E5C40F
330
EA6E4DC92
100
AcDbEntity
  8
JISSEN
100
AcDbLine
 10
221.1047068988152
 20
395.6425885209423
 30
0.0
 11
229.2906072485734
 21
404.4170420916115
 31
0.0
  0
LINE
  5
EA6E5C410
330
EA6E4DC92
100
AcDbEntity
  8
JISSEN
100
AcDbLine
 10
222.8437323592402
 20
393.9035630605173
 30
0.0
 11
231.6181859299094
 21
402.0894634102755
 31
0.0
  0
CIRCLE
  5
EA6E5C411
330
EA6E4DC92
100
AcDbEntity
  8
JISSEN
100
AcDbCircle
 10
219.6571206643741
 20
392.4559768260762
 30
0.0
 40
3.5
  0
CIRCLE
  5
EA6E5C412
330
EA6E4DC92
100
AcDbEntity
  8
JISSEN
100
AcDbCircle
 10
219.6571206643741
 20
392.4559768260762
 30
0.0
 40
2.5
  0
LINE
  5
EA6E5C413
330
EA6E4DC92
100
AcDbEntity
  8
JISSEN
100
AcDbLine
 10
229.641674795971
 20
402.4405309576729
 30
0.0
 11
231.6181859299094
 21
402.0894634102755
 31
0.0
  0
LINE
  5
EA6E5C414
330
EA6E4DC92
100
AcDbEntity
  8
JISSEN
100
AcDbLine
 10
229.2906072485734
 20
404.4170420916115
 30
0.0
 11
229.641674795971
 21
402.4405309576729
 31
0.0
  0
LINE
  5
EA6E5C415
330
EA6E4DC92
100
AcDbEntity
  8
JISSEN
100
AcDbLine
 10
248.7571206643745
 20
281.6877900253714
 30
0.0
 11
248.757120664374
 21
305.4559768260762
 31
0.0
  0
LINE
  5
EA6E5C416
330
EA6E4DC92
100
AcDbEntity
  8
JISSEN
100
AcDbLine
 10
241.1288319499356
 20
280.4557155387507
 30
0.0
 11
247.792020161077
 21
280.6883991983522
 31
0.0
  0
ARC
  5
EA6E5C417
330
EA6E4DC92
100
AcDbEntity
  8
JISSEN
100
AcDbCircle
 10
241.093932453233
 20
281.4551063657697
 30
0.0
 40
1.0
100
AcDbArc
 50
189.9999999999974
 51
271.9999999999906
  0
ARC
  5
EA6E5C418
330
EA6E4DC92
100
AcDbEntity
  8
JISSEN
100
AcDbCircle
 10
247.757120664374
 20
281.6877900253711
 30
0.0
 40
1.0
100
AcDbArc
 50
271.9999999999906
 51
0.0
  0
LINE
  5
EA6E5C419
330
EA6E4DC92
100
AcDbEntity
  8
JISSEN
100
AcDbLine
 10
239.2568791766759
 20
299.3076045590025
 30
0.0
 11
247.7571206643744
 21
299.4559768260762
 31
0.0
  0
LINE
  5
EA6E5C41A
330
EA6E4DC92
100
AcDbEntity
  8
JISSEN
100
AcDbLine
 10
239.2568791766759
 20
311.6043490931494
 30
0.0
 11
247.757120664374
 21
311.4559768260761
 31
0.0
  0
LINE
  5
EA6E5C41B
330
EA6E4DC92
100
AcDbEntity
  8
JISSEN
100
AcDbLine
 10
239.2568791766759
 20
298.6524011652802
 30
0.0
 11
239.2568791766759
 21
305.4559768260762
 31
0.0
  0
ARC
  5
EA6E5C41C
330
EA6E4DC92
100
AcDbEntity
  8
JISSEN
100
AcDbCircle
 10
238.0694978192784
 20
298.8155394624324
 30
0.0
 40
1.198536020273432
100
AcDbArc
 50
265.891233838159
 51
352.1769210358582
  0
ARC
  5
EA6E5C41D
330
EA6E4DC92
100
AcDbEntity
  8
JISSEN
100
AcDbCircle
 10
238.7568791766759
 20
312.9559768260759
 30
0.0
 40
0.5
100
AcDbArc
 50
0.0
 51
90.0
  0
LINE
  5
EA6E5C41E
330
EA6E4DC92
100
AcDbEntity
  8
JISSEN
100
AcDbLine
 10
239.2568791766759
 20
312.9559768260762
 30
0.0
 11
239.2568791766759
 21
305.4559768260762
 31
0.0
  0
ARC
  5
EA6E5C41F
330
EA6E4DC92
100
AcDbEntity
  8
JISSEN
100
AcDbCircle
 10
220.257120664374
 20
305.4559768260759
 30
0.0
 40
30.0
100
AcDbArc
 50
351.2257103521544
 51
0.0
  0
ARC
  5
EA6E5C420
330
EA6E4DC92
100
AcDbEntity
  8
JISSEN
100
AcDbCircle
 10
247.757120664374
 20
300.4559768260759
 30
0.0
 40
1.0
100
AcDbArc
 50
270.0
 51
315.3757911071985
  0
LINE
  5
EA6E5C421
330
EA6E4DC92
100
AcDbEntity
  8
JISSEN
100
AcDbLine
 10
248.757120664374
 20
300.4559768260762
 30
0.0
 11
249.4118801386009
 21
300.4559768260762
 31
0.0
  0
ARC
  5
EA6E5C422
330
EA6E4DC92
100
AcDbEntity
  8
JISSEN
100
AcDbCircle
 10
249.4118801386004
 20
300.9559768260759
 30
0.0
 40
0.5
100
AcDbArc
 50
270.0
 51
351.2257103521544
  0
LINE
  5
EA6E5C423
330
EA6E4DC92
100
AcDbEntity
  8
JISSEN
100
AcDbLine
 10
248.757120664374
 20
300.9559768260761
 30
0.0
 11
248.757120664374
 21
300.4559768260762
 31
0.0
  0
LWPOLYLINE
  5
EA6E5C424
330
EA6E4DC92
100
AcDbEntity
  8
JISSEN
100
AcDbPolyline
 90
        2
 70
     0
 43
0.0
 10
248.757120664374
 20
300.9559779971214
 10
248.757120664374
 20
297.955976826076
  0
ARC
  5
EA6E5C425
330
EA6E4DC92
100
AcDbEntity
  8
JISSEN
100
AcDbCircle
 10
247.757120664374
 20
310.4559768260759
 30
0.0
 40
1.0
100
AcDbArc
 50
0.0
 51
90.0
  0
LINE
  5
EA6E5C426
330
EA6E4DC92
100
AcDbEntity
  8
JISSEN
100
AcDbLine
 10
248.757120664374
 20
310.4559768260762
 30
0.0
 11
249.4118801386009
 21
310.4559768260762
 31
0.0
  0
ARC
  5
EA6E5C427
330
EA6E4DC92
100
AcDbEntity
  8
JISSEN
100
AcDbCircle
 10
249.4118801386004
 20
309.955976826076
 30
0.0
 40
0.5
100
AcDbArc
 50
8.77428964784563
 51
90.0
  0
ARC
  5
EA6E5C428
330
EA6E4DC92
100
AcDbEntity
  8
JISSEN
100
AcDbCircle
 10
220.257120664374
 20
305.4559768260759
 30
0.0
 40
30.0
100
AcDbArc
 50
0.0
 51
8.77428964784563
  0
LINE
  5
EA6E5C429
330
EA6E4DC92
100
AcDbEntity
  8
JISSEN
100
AcDbLine
 10
248.757120664374
 20
310.4559768260762
 30
0.0
 11
248.757120664374
 21
305.4559768260762
 31
0.0
  0
TEXT
  5
EA6E5C42A
330
EA6E4DC92
100
AcDbEntity
  8
TEXT
100
AcDbText
 10
209.7839823713489
 20
501.0000003796711
 30
0.0
 40
6.0
  1
スリース弁
  7
K
 72
     4
 11
227.1839823713489
 21
504.000000379671
 31
0.0
100
AcDbText
  0
TEXT
  5
EA6E5C42B
330
EA6E4DC92
100
AcDbEntity
  8
TEXT
100
AcDbText
 10
215.799998010285
 20
537.0000003796709
 30
0.0
 40
6.0
  1
名      称
  7
K
 72
     4
 11
232.999998010285
 21
540.0000003796709
 31
0.0
100
AcDbText
  0
TEXT
  5
EA6E5C42C
330
EA6E4DC92
100
AcDbEntity
  8
TEXT
100
AcDbText
 10
215.799998010285
 20
525.0000003796709
 30
0.0
 40
6.0
  1
圧　力　計
  7
K
 72
     4
 11
232.999998010285
 21
528.0000003796709
 31
0.0
100
AcDbText
  0
TEXT
  5
EA6E5C42D
330
EA6E4DC92
100
AcDbEntity
  8
TEXT
100
AcDbText
 10
215.799998010285
 20
513.0000003796709
 30
0.0
 40
6.0
  1
アングル弁
  7
K
 72
     4
 11
232.999998010285
 21
516.0000003796709
 31
0.0
100
AcDbText
  0
TEXT
  5
EA6E5C42E
330
EA6E4DC92
100
AcDbEntity
  8
TEXT
100
AcDbText
 10
189.142855877142
 20
525.0000003796709
 30
0.0
 40
6.0
  1
6
  7
K
 72
     4
 11
190.9999987342848
 21
528.0000003796709
 31
0.0
100
AcDbText
  0
LINE
  5
EA6E5C42F
330
EA6E4DC92
100
AcDbEntity
  8
JISSEN
100
AcDbLine
 10
202.999998010285
 20
546.0000003796709
 30
0.0
 11
202.999998010285
 21
498.000000379671
 31
0.0
  0
TEXT
  5
EA6E5C430
330
EA6E4DC92
100
AcDbEntity
  8
TEXT
100
AcDbText
 10
189.0000001822848
 20
501.0000003796711
 30
0.0
 40
6.0
  1
8
  7
K
 72
     4
 11
191.0000001822847
 21
504.000000379671
 31
0.0
100
AcDbText
  0
TEXT
  5
EA6E5C431
330
EA6E4DC92
100
AcDbEntity
  8
TEXT
100
AcDbText
 10
188.9999987342848
 20
513.0000003796709
 30
0.0
 40
6.0
  1
7
  7
K
 72
     4
 11
190.9999987342848
 21
516.0000003796709
 31
0.0
100
AcDbText
  0
TEXT
  5
EA6E5C432
330
EA6E4DC92
100
AcDbEntity
  8
TEXT
100
AcDbText
 10
184.5999987342848
 20
537.0000003796709
 30
0.0
 40
6.0
  1
番号
  7
K
 72
     4
 11
190.9999987342848
 21
540.0000003796709
 31
0.0
100
AcDbText
  0
LINE
  5
EA6E5C433
330
EA6E4DC92
100
AcDbEntity
  8
JISSEN
100
AcDbLine
 10
262.999998010285
 20
546.0000003796709
 30
0.0
 11
262.999998010285
 21
498.000000379671
 31
0.0
  0
TEXT
  5
EA6E5C434
330
EA6E4DC92
100
AcDbEntity
  8
TEXT
100
AcDbText
 10
249.2760156547759
 20
500.7733114788543
 30
0.0
 40
5.0
  1
※1
 41
0.9
  7
K
 72
     4
 11
252.6617299404902
 21
503.2733114788543
 31
0.0
100
AcDbText
  0
TEXT
  5
EA6E5C435
330
EA6E4DC92
100
AcDbEntity
  8
TEXT
100
AcDbText
 10
337.7999994582849
 20
501.0000003796711
 30
0.0
 40
6.0
  1
25A
 41
0.9
  7
K
 72
     4
 11
344.9999994582849
 21
504.000000379671
 31
0.0
100
AcDbText
  0
TEXT
  5
EA6E5C436
330
EA6E4DC92
100
AcDbEntity
  8
TEXT
100
AcDbText
 10
331.3999980102849
 20
537.0000003796709
 30
0.0
 40
6.0
  1
備    考
  7
K
 72
     4
 11
344.999998010285
 21
540.0000003796709
 31
0.0
100
AcDbText
  0
TEXT
  5
EA6E5C437
330
EA6E4DC92
100
AcDbEntity
  8
TEXT
100
AcDbText
 10
329.350606166459
 20
525.0000003796709
 30
0.0
 40
6.0
  1
2MPa φ75
 41
0.7
  7
K
 72
     4
 11
344.930606166459
 21
528.0000003796709
 31
0.0
100
AcDbText
  0
TEXT
  5
EA6E5C438
330
EA6E4DC92
100
AcDbEntity
  8
TEXT
100
AcDbText
 10
337.5714265817135
 20
513.0000003796709
 30
0.0
 40
6.0
  1
10A
  7
K
 72
     4
 11
344.999998010285
 21
516.0000003796709
 31
0.0
100
AcDbText
  0
TEXT
  5
EA6E5C439
330
EA6E4DC92
100
AcDbEntity
  8
TEXT
100
AcDbText
 10
316.2857122959993
 20
525.0000003796709
 30
0.0
 40
6.0
  1
1
  7
K
 72
     4
 11
316.999998010285
 21
528.0000003796709
 31
0.0
100
AcDbText
  0
LINE
  5
EA6E5C43A
330
EA6E4DC92
100
AcDbEntity
  8
JISSEN
100
AcDbLine
 10
305.999998010285
 20
498.000000379671
 30
0.0
 11
305.999998010285
 21
546.0000003796709
 31
0.0
  0
LINE
  5
EA6E5C43B
330
EA6E4DC92
100
AcDbEntity
  8
JISSEN
100
AcDbLine
 10
327.999998010285
 20
546.0000003796709
 30
0.0
 11
327.999998010285
 21
498.000000379671
 31
0.0
  0
TEXT
  5
EA6E5C43C
330
EA6E4DC92
100
AcDbEntity
  8
TEXT
100
AcDbText
 10
316.2857137439992
 20
501.0000003796711
 30
0.0
 40
6.0
  1
1
  7
K
 72
     4
 11
316.9999994582849
 21
504.000000379671
 31
0.0
100
AcDbText
  0
TEXT
  5
EA6E5C43D
330
EA6E4DC92
100
AcDbEntity
  8
TEXT
100
AcDbText
 10
316.2857122959993
 20
513.0000003796709
 30
0.0
 40
6.0
  1
1
  7
K
 72
     4
 11
316.999998010285
 21
516.0000003796709
 31
0.0
100
AcDbText
  0
TEXT
  5
EA6E5C43E
330
EA6E4DC92
100
AcDbEntity
  8
TEXT
100
AcDbText
 10
310.599998010285
 20
537.0000003796709
 30
0.0
 40
6.0
  1
個数
  7
K
 72
     4
 11
316.999998010285
 21
540.0000003796709
 31
0.0
100
AcDbText
  0
ENDSEC
  0
SECTION
  2
OBJECTS
  0
DICTIONARY
  5
EA6E4DC87
330
0
100
AcDbDictionary
281
     1
  3
ACAD_GROUP
350
EA6E4DC88
  3
ACAD_LAYOUT
350
EA6E4E124
  3
ACAD_MLINESTYLE
350
EA6E4DC95
  3
ACAD_PLOTSETTINGS
350
EA6E4E125
  3
ACAD_PLOTSTYLENAME
350
EA6E4E122
  3
ACDBVARIABLEDICTIONARY
350
EA6E4DCDF
  0
DICTIONARY
  5
EA6E4E3D8
330
EA6E4DC7D
100
AcDbDictionary
280
     1
281
     1
  3
ACAD_LAYERFILTERS
360
EA6E4EE6A
  3
ACAD_LAYERSTATES
360
EA6E4E3D9
  0
DICTIONARY
  5
EA6E4E15C
330
EA6E4DC92
100
AcDbDictionary
280
     1
281
     1
  3
ACAD_LAYOUTSELFREF
360
EA6E4EE60
  0
DICTIONARY
  5
EA6E4E15A
330
EA6E4DC8F
100
AcDbDictionary
280
     1
281
     1
  3
ACAD_LAYOUTSELFREF
360
EA6E4EE5F
  0
DICTIONARY
  5
EA6E4DC88
102
{ACAD_REACTORS
330
EA6E4DC87
102
}
330
EA6E4DC87
100
AcDbDictionary
281
     1
  3
*A1
350
EA6E4F446
  3
*A10
350
EA6E571D1
  3
*A100
350
EA6E57213
  3
*A101
350
EA6E4F4C0
  3
*A102
350
EA6E5444E
  3
*A103
350
EA6E57214
  3
*A104
350
EA6E57215
  3
*A105
350
EA6E57216
  3
*A106
350
EA6E57217
  3
*A107
350
EA6E57218
  3
*A108
350
EA6E57219
  3
*A109
350
EA6E5721A
  3
*A11
350
EA6E571D2
  3
*A110
350
EA6E5721B
  3
*A111
350
EA6E5721C
  3
*A112
350
EA6E54441
  3
*A113
350
EA6E4F4C1
  3
*A114
350
EA6E4F4B1
  3
*A115
350
EA6E5444F
  3
*A116
350
EA6E5721D
  3
*A117
350
EA6E5721E
  3
*A118
350
EA6E5721F
  3
*A119
350
EA6E57220
  3
*A12
350
EA6E571D3
  3
*A120
350
EA6E57221
  3
*A121
350
EA6E57222
  3
*A122
350
EA6E57223
  3
*A123
350
EA6E57224
  3
*A124
350
EA6E4F4A9
  3
*A125
350
EA6E57225
  3
*A126
350
EA6E57226
  3
*A127
350
EA6E4F488
  3
*A128
350
EA6E4F465
  3
*A129
350
EA6E57227
  3
*A13
350
EA6E4F47C
  3
*A130
350
EA6E57228
  3
*A131
350
EA6E57229
  3
*A132
350
EA6E5722A
  3
*A133
350
EA6E5722B
  3
*A134
350
EA6E5722C
  3
*A135
350
EA6E4F4C2
  3
*A136
350
EA6E5722D
  3
*A137
350
EA6E5722E
  3
*A138
350
EA6E5722F
  3
*A139
350
EA6E5443B
  3
*A14
350
EA6E571D4
  3
*A140
350
EA6E54450
  3
*A141
350
EA6E57230
  3
*A142
350
EA6E4F4AE
  3
*A143
350
EA6E57231
  3
*A144
350
EA6E57232
  3
*A145
350
EA6E57233
  3
*A146
350
EA6E4F4C3
  3
*A147
350
EA6E57234
  3
*A148
350
EA6E57235
  3
*A149
350
EA6E57236
  3
*A15
350
EA6E571D5
  3
*A150
350
EA6E57237
  3
*A151
350
EA6E57238
  3
*A152
350
EA6E54451
  3
*A153
350
EA6E57239
  3
*A154
350
EA6E5723A
  3
*A155
350
EA6E4F466
  3
*A156
350
EA6E5723B
  3
*A157
350
EA6E54443
  3
*A158
350
EA6E4F467
  3
*A159
350
EA6E4F4D6
  3
*A16
350
EA6E4F4DB
  3
*A160
350
EA6E4F468
  3
*A161
350
EA6E4F469
  3
*A162
350
EA6E4F46A
  3
*A163
350
EA6E4F46B
  3
*A164
350
EA6E54452
  3
*A165
350
EA6E4F46C
  3
*A166
350
EA6E4F449
  3
*A167
350
EA6E4F481
  3
*A168
350
EA6E4F4C4
  3
*A169
350
EA6E4F46D
  3
*A17
350
EA6E54448
  3
*A170
350
EA6E4F46E
  3
*A171
350
EA6E4F4AF
  3
*A172
350
EA6E4F4D7
  3
*A173
350
EA6E4F46F
  3
*A174
350
EA6E4F470
  3
*A175
350
EA6E4F471
  3
*A176
350
EA6E54453
  3
*A177
350
EA6E4F472
  3
*A178
350
EA6E4F473
  3
*A179
350
EA6E4F47D
  3
*A18
350
EA6E571D6
  3
*A180
350
EA6E4F474
  3
*A181
350
EA6E4F475
  3
*A182
350
EA6E4F482
  3
*A183
350
EA6E4F476
  3
*A184
350
EA6E4F44A
  3
*A185
350
EA6E4F4D8
  3
*A186
350
EA6E4F477
  3
*A187
350
EA6E54417
  3
*A188
350
EA6E54454
  3
*A189
350
EA6E54418
  3
*A19
350
EA6E4F45F
  3
*A190
350
EA6E4F4C5
  3
*A191
350
EA6E54419
  3
*A192
350
EA6E5441A
  3
*A193
350
EA6E5441B
  3
*A194
350
EA6E5441C
  3
*A195
350
EA6E5441D
  3
*A196
350
EA6E4F483
  3
*A197
350
EA6E5441E
  3
*A198
350
EA6E4F4D9
  3
*A199
350
EA6E5441F
  3
*A2
350
EA6E4F4BC
  3
*A20
350
EA6E571D7
  3
*A200
350
EA6E4F480
  3
*A201
350
EA6E4F4C6
  3
*A202
350
EA6E54420
  3
*A203
350
EA6E54421
  3
*A204
350
EA6E54422
  3
*A205
350
EA6E54423
  3
*A206
350
EA6E54424
  3
*A207
350
EA6E54425
  3
*A208
350
EA6E54426
  3
*A209
350
EA6E54427
  3
*A21
350
EA6E571D8
  3
*A210
350
EA6E4F484
  3
*A211
350
EA6E4F4DA
  3
*A212
350
EA6E4F45A
  3
*A213
350
EA6E54455
  3
*A214
350
EA6E54428
  3
*A215
350
EA6E54429
  3
*A216
350
EA6E5442A
  3
*A217
350
EA6E5442B
  3
*A218
350
EA6E5442C
  3
*A219
350
EA6E5442D
  3
*A22
350
EA6E571D9
  3
*A220
350
EA6E5442E
  3
*A221
350
EA6E5442F
  3
*A222
350
EA6E54430
  3
*A223
350
EA6E4F4B7
  3
*A224
350
EA6E4F452
  3
*A225
350
EA6E54431
  3
*A226
350
EA6E54456
  3
*A227
350
EA6E4F454
  3
*A228
350
EA6E4F485
  3
*A229
350
EA6E54432
  3
*A23
350
EA6E571DA
  3
*A230
350
EA6E54433
  3
*A231
350
EA6E54434
  3
*A232
350
EA6E54435
  3
*A233
350
EA6E54436
  3
*A234
350
EA6E54437
  3
*A235
350
EA6E4F4C7
  3
*A236
350
EA6E54438
  3
*A237
350
EA6E54439
  3
*A238
350
EA6E54457
  3
*A239
350
EA6E5443A
  3
*A24
350
EA6E4F451
  3
*A240
350
EA6E54458
  3
*A241
350
EA6E4F486
  3
*A242
350
EA6E54459
  3
*A243
350
EA6E4F489
  3
*A244
350
EA6E5445A
  3
*A245
350
EA6E5445B
  3
*A246
350
EA6E4F4C8
  3
*A247
350
EA6E5445C
  3
*A248
350
EA6E5445D
  3
*A249
350
EA6E4F4DD
  3
*A25
350
EA6E571DB
  3
*A250
350
EA6E5445E
  3
*A251
350
EA6E5445F
  3
*A252
350
EA6E54460
  3
*A253
350
EA6E5443C
  3
*A254
350
EA6E54461
  3
*A255
350
EA6E54462
  3
*A256
350
EA6E4F48A
  3
*A257
350
EA6E4F4C9
  3
*A258
350
EA6E4F4B2
  3
*A259
350
EA6E4F44C
  3
*A26
350
EA6E571DC
  3
*A260
350
EA6E4F48B
  3
*A261
350
EA6E4F48C
  3
*A262
350
EA6E4F455
  3
*A263
350
EA6E4F48D
  3
*A264
350
EA6E4F48E
  3
*A265
350
EA6E5443D
  3
*A266
350
EA6E4F478
  3
*A267
350
EA6E4F48F
  3
*A268
350
EA6E4F4CA
  3
*A269
350
EA6E4F490
  3
*A27
350
EA6E571DD
  3
*A270
350
EA6E4F491
  3
*A271
350
EA6E4F492
  3
*A272
350
EA6E4F493
  3
*A273
350
EA6E4F450
  3
*A274
350
EA6E4F494
  3
*A275
350
EA6E4F456
  3
*A276
350
EA6E4F44D
  3
*A277
350
EA6E5443E
  3
*A278
350
EA6E4F495
  3
*A279
350
EA6E4F4DC
  3
*A28
350
EA6E571DE
  3
*A280
350
EA6E4F496
  3
*A281
350
EA6E4F479
  3
*A282
350
EA6E4F497
  3
*A283
350
EA6E4F498
  3
*A284
350
EA6E4F499
  3
*A285
350
EA6E4F49A
  3
*A286
350
EA6E4F49B
  3
*A287
350
EA6E4F49C
  3
*A288
350
EA6E4F457
  3
*A289
350
EA6E5443F
  3
*A29
350
EA6E54449
  3
*A290
350
EA6E4F4AA
  3
*A291
350
EA6E4F4B3
  3
*A292
350
EA6E4F49D
  3
*A293
350
EA6E4F49E
  3
*A294
350
EA6E4F44E
  3
*A295
350
EA6E4F47A
  3
*A296
350
EA6E4F49F
  3
*A297
350
EA6E4F4A0
  3
*A298
350
EA6E4F4A1
  3
*A299
350
EA6E4F4A2
  3
*A3
350
EA6E571CC
  3
*A30
350
EA6E571DF
  3
*A300
350
EA6E4F4A3
  3
*A301
350
EA6E4F4CB
  3
*A302
350
EA6E54440
  3
*A303
350
EA6E4F458
  3
*A304
350
EA6E4F4A4
  3
*A305
350
EA6E4F4A5
  3
*A306
350
EA6E4F4B4
  3
*A307
350
EA6E4F4A6
  3
*A308
350
EA6E4F4A7
  3
*A309
350
EA6E4F47B
  3
*A31
350
EA6E571E0
  3
*A310
350
EA6E4F4A8
  3
*A311
350
EA6E4F4B5
  3
*A312
350
EA6E4F4CC
  3
*A313
350
EA6E4F4B6
  3
*A314
350
EA6E4F47E
  3
*A315
350
EA6E4F447
  3
*A316
350
EA6E4F4CD
  3
*A317
350
EA6E4F45B
  3
*A318
350
EA6E4F4CE
  3
*A319
350
EA6E4F4CF
  3
*A32
350
EA6E4F460
  3
*A320
350
EA6E4F4D0
  3
*A321
350
EA6E4F453
  3
*A322
350
EA6E54444
  3
*A323
350
EA6E4F4D1
  3
*A324
350
EA6E4F4D2
  3
*A325
350
EA6E4F4D3
  3
*A326
350
EA6E4F4B8
  3
*A327
350
EA6E4F4AB
  3
*A328
350
EA6E4F4D4
  3
*A329
350
EA6E571A4
  3
*A33
350
EA6E571E1
  3
*A330
350
EA6E4F45C
  3
*A331
350
EA6E571A5
  3
*A332
350
EA6E571A6
  3
*A333
350
EA6E571A7
  3
*A334
350
EA6E54445
  3
*A335
350
EA6E571A8
  3
*A336
350
EA6E571A9
  3
*A337
350
EA6E4F44F
  3
*A338
350
EA6E571AA
  3
*A339
350
EA6E571AB
  3
*A34
350
EA6E571E2
  3
*A340
350
EA6E571AC
  3
*A341
350
EA6E571AD
  3
*A342
350
EA6E571AE
  3
*A343
350
EA6E4F44B
  3
*A344
350
EA6E571AF
  3
*A345
350
EA6E571B0
  3
*A346
350
EA6E4F4B0
  3
*A347
350
EA6E571B1
  3
*A348
350
EA6E4F4B9
  3
*A349
350
EA6E571B2
  3
*A35
350
EA6E54442
  3
*A350
350
EA6E571B3
  3
*A351
350
EA6E571B4
  3
*A352
350
EA6E571B5
  3
*A353
350
EA6E571B6
  3
*A354
350
EA6E571B7
  3
*A355
350
EA6E571B8
  3
*A356
350
EA6E4F4AD
  3
*A357
350
EA6E571B9
  3
*A358
350
EA6E4F487
  3
*A359
350
EA6E4F4BA
  3
*A36
350
EA6E571E3
  3
*A360
350
EA6E571BA
  3
*A361
350
EA6E571BB
  3
*A362
350
EA6E571BC
  3
*A363
350
EA6E571BD
  3
*A364
350
EA6E571BE
  3
*A365
350
EA6E571BF
  3
*A366
350
EA6E571C0
  3
*A367
350
EA6E571C1
  3
*A368
350
EA6E571C2
  3
*A369
350
EA6E4F45D
  3
*A37
350
EA6E571E4
  3
*A370
350
EA6E4F4BB
  3
*A371
350
EA6E54446
  3
*A372
350
EA6E571C3
  3
*A373
350
EA6E571C4
  3
*A374
350
EA6E571C5
  3
*A375
350
EA6E571C6
  3
*A376
350
EA6E571C7
  3
*A377
350
EA6E571C8
  3
*A378
350
EA6E571C9
  3
*A379
350
EA6E571CA
  3
*A38
350
EA6E571E5
  3
*A380
350
EA6E571CB
  3
*A39
350
EA6E571E6
  3
*A4
350
EA6E54447
  3
*A40
350
EA6E571E7
  3
*A41
350
EA6E5444A
  3
*A42
350
EA6E571E8
  3
*A43
350
EA6E571E9
  3
*A44
350
EA6E571EA
  3
*A45
350
EA6E4F4D5
  3
*A46
350
EA6E4F4BD
  3
*A47
350
EA6E4F461
  3
*A48
350
EA6E571EB
  3
*A49
350
EA6E571EC
  3
*A5
350
EA6E4F45E
  3
*A50
350
EA6E571ED
  3
*A51
350
EA6E571EE
  3
*A52
350
EA6E571EF
  3
*A53
350
EA6E5444B
  3
*A54
350
EA6E571F0
  3
*A55
350
EA6E571F1
  3
*A56
350
EA6E571F2
  3
*A57
350
EA6E4F4BE
  3
*A58
350
EA6E571F3
  3
*A59
350
EA6E571F4
  3
*A6
350
EA6E571CD
  3
*A60
350
EA6E4F462
  3
*A61
350
EA6E571F5
  3
*A62
350
EA6E571F6
  3
*A63
350
EA6E571F7
  3
*A64
350
EA6E571F8
  3
*A65
350
EA6E4F4AC
  3
*A66
350
EA6E571F9
  3
*A67
350
EA6E571FA
  3
*A68
350
EA6E4F47F
  3
*A69
350
EA6E571FB
  3
*A7
350
EA6E571CE
  3
*A70
350
EA6E571FC
  3
*A71
350
EA6E571FD
  3
*A72
350
EA6E571FE
  3
*A73
350
EA6E4F448
  3
*A74
350
EA6E571FF
  3
*A75
350
EA6E57200
  3
*A76
350
EA6E57201
  3
*A77
350
EA6E5444C
  3
*A78
350
EA6E57202
  3
*A79
350
EA6E4F459
  3
*A8
350
EA6E571CF
  3
*A80
350
EA6E57203
  3
*A81
350
EA6E57204
  3
*A82
350
EA6E57205
  3
*A83
350
EA6E57206
  3
*A84
350
EA6E57207
  3
*A85
350
EA6E57208
  3
*A86
350
EA6E4F463
  3
*A87
350
EA6E57209
  3
*A88
350
EA6E5720A
  3
*A89
350
EA6E5444D
  3
*A9
350
EA6E571D0
  3
*A90
350
EA6E4F4BF
  3
*A91
350
EA6E5720B
  3
*A92
350
EA6E5720C
  3
*A93
350
EA6E5720D
  3
*A94
350
EA6E5720E
  3
*A95
350
EA6E5720F
  3
*A96
350
EA6E57210
  3
*A97
350
EA6E57211
  3
*A98
350
EA6E57212
  3
*A99
350
EA6E4F464
  0
DICTIONARY
  5
EA6E4E124
102
{ACAD_REACTORS
330
EA6E4DC87
102
}
330
EA6E4DC87
100
AcDbDictionary
281
     1
  3
Model
350
EA6E4EE67
  3
ﾚｲｱｳﾄ1
350
EA6E4EE68
  0
DICTIONARY
  5
EA6E4DC95
102
{ACAD_REACTORS
330
EA6E4DC87
102
}
330
EA6E4DC87
100
AcDbDictionary
281
     1
  3
STANDARD
350
EA6E4DC96
  0
DICTIONARY
  5
EA6E4E125
102
{ACAD_REACTORS
330
EA6E4DC87
102
}
330
EA6E4DC87
100
AcDbDictionary
281
     1
  3
セットアップ1
350
EA6E4F4DE
  0
ACDBDICTIONARYWDFLT
  5
EA6E4E122
102
{ACAD_REACTORS
330
EA6E4DC87
102
}
330
EA6E4DC87
100
AcDbDictionary
281
     1
  3
Normal
350
EA6E4E123
100
AcDbDictionaryWithDefault
340
EA6E4E123
  0
DICTIONARY
  5
EA6E4DCDF
102
{ACAD_REACTORS
330
EA6E4DC87
102
}
330
EA6E4DC87
100
AcDbDictionary
281
     1
  3
DIMASSOC
350
EA6E4E23D
  3
SORTENTS
350
EA6E4DCE0
  0
DICTIONARY
  5
EA6E4EE6A
102
{ACAD_REACTORS
330
EA6E4E3D8
102
}
330
EA6E4E3D8
100
AcDbDictionary
280
     1
281
     1
  3
0
360
EA6E4EE6B
  3
0-0
360
EA6E4EE6C
  3
10画層
360
EA6E4EE6D
  3
2
360
EA6E4EE6E
  3
3
360
EA6E4EE6F
  3
3A
360
EA6E4EE70
  3
4
360
EA6E4EE71
  3
5画層
360
EA6E4EE72
  3
6画層
360
EA6E4EE73
  3
7
360
EA6E4EE74
  3
7a画層
360
EA6E4EE75
  3
8
360
EA6E4EE76
  3
ASYST
360
EA6E4EE77
  3
ASYST PHASE 1
360
EA6E4EE78
  3
ASYST PHASE 2
360
EA6E4EE79
  3
cap-0
360
EA6E4EE7A
  3
dims
360
EA6E4EE7B
  3
elec
360
EA6E4EE7C
  3
ELECTRICAL
360
EA6E4EE7D
  3
F
360
EA6E4EE7E
  3
Frame
360
EA6E4EE7F
  3
FROZEN
360
EA6E4EE80
  3
FROZEN ACTIVE
360
EA6E4EE81
  3
jiku-0
360
EA6E4EE82
  3
MP
360
EA6E4EE83
  3
MPR
360
EA6E4EE84
  3
p-
360
EA6E4EE85
  3
ST
360
EA6E4EE86
  3
TC
360
EA6E4EE87
  3
TEXT
360
EA6E4EE88
  3
ｹｰﾌﾞﾙ図
360
EA6E4EE89
  3
０画層
360
EA6E4EE8A
  3
３A画層
360
EA6E4EE8B
  3
３画層
360
EA6E4EE8C
  0
DICTIONARY
  5
EA6E4E3D9
102
{ACAD_REACTORS
330
EA6E4E3D8
102
}
330
EA6E4E3D8
100
AcDbDictionary
281
     1
  0
XRECORD
  5
EA6E4EE60
102
{ACAD_REACTORS
330
EA6E4E15C
102
}
330
EA6E4E15C
100
AcDbXrecord
280
     1
340
EA6E4DC92
  0
XRECORD
  5
EA6E4EE5F
102
{ACAD_REACTORS
330
EA6E4E15A
102
}
330
EA6E4E15A
100
AcDbXrecord
280
     1
340
EA6E4DC8F
  0
GROUP
  5
EA6E4F446
102
{ACAD_REACTORS
330
EA6E4DC88
102
}
330
EA6E4DC88
100
AcDbGroup
300

 70
     1
 71
     1
  0
GROUP
  5
EA6E571D1
102
{ACAD_REACTORS
330
EA6E4DC88
102
}
330
EA6E4DC88
100
AcDbGroup
300

 70
     1
 71
     1
  0
GROUP
  5
EA6E57213
102
{ACAD_REACTORS
330
EA6E4DC88
102
}
330
EA6E4DC88
100
AcDbGroup
300

 70
     1
 71
     1
  0
GROUP
  5
EA6E4F4C0
102
{ACAD_REACTORS
330
EA6E4DC88
102
}
330
EA6E4DC88
100
AcDbGroup
300

 70
     1
 71
     1
  0
GROUP
  5
EA6E5444E
102
{ACAD_REACTORS
330
EA6E4DC88
102
}
330
EA6E4DC88
100
AcDbGroup
300

 70
     1
 71
     1
  0
GROUP
  5
EA6E57214
102
{ACAD_REACTORS
330
EA6E4DC88
102
}
330
EA6E4DC88
100
AcDbGroup
300

 70
     1
 71
     1
  0
GROUP
  5
EA6E57215
102
{ACAD_REACTORS
330
EA6E4DC88
102
}
330
EA6E4DC88
100
AcDbGroup
300

 70
     1
 71
     1
  0
GROUP
  5
EA6E57216
102
{ACAD_REACTORS
330
EA6E4DC88
102
}
330
EA6E4DC88
100
AcDbGroup
300

 70
     3
 71
     1
  0
GROUP
  5
EA6E57217
102
{ACAD_REACTORS
330
EA6E4DC88
102
}
330
EA6E4DC88
100
AcDbGroup
300

 70
     1
 71
     1
  0
GROUP
  5
EA6E57218
102
{ACAD_REACTORS
330
EA6E4DC88
102
}
330
EA6E4DC88
100
AcDbGroup
300

 70
     1
 71
     1
  0
GROUP
  5
EA6E57219
102
{ACAD_REACTORS
330
EA6E4DC88
102
}
330
EA6E4DC88
100
AcDbGroup
300

 70
     1
 71
     1
  0
GROUP
  5
EA6E5721A
102
{ACAD_REACTORS
330
EA6E4DC88
102
}
330
EA6E4DC88
100
AcDbGroup
300

 70
     1
 71
     1
  0
GROUP
  5
EA6E571D2
102
{ACAD_REACTORS
330
EA6E4DC88
102
}
330
EA6E4DC88
100
AcDbGroup
300

 70
     1
 71
     1
  0
GROUP
  5
EA6E5721B
102
{ACAD_REACTORS
330
EA6E4DC88
102
}
330
EA6E4DC88
100
AcDbGroup
300

 70
     1
 71
     1
  0
GROUP
  5
EA6E5721C
102
{ACAD_REACTORS
330
EA6E4DC88
102
}
330
EA6E4DC88
100
AcDbGroup
300

 70
     1
 71
     1
  0
GROUP
  5
EA6E54441
102
{ACAD_REACTORS
330
EA6E4DC88
102
}
330
EA6E4DC88
100
AcDbGroup
300

 70
     1
 71
     1
  0
GROUP
  5
EA6E4F4C1
102
{ACAD_REACTORS
330
EA6E4DC88
102
}
330
EA6E4DC88
100
AcDbGroup
300

 70
     1
 71
     1
  0
GROUP
  5
EA6E4F4B1
102
{ACAD_REACTORS
330
EA6E4DC88
102
}
330
EA6E4DC88
100
AcDbGroup
300

 70
     1
 71
     1
  0
GROUP
  5
EA6E5444F
102
{ACAD_REACTORS
330
EA6E4DC88
102
}
330
EA6E4DC88
100
AcDbGroup
300

 70
     3
 71
     1
  0
GROUP
  5
EA6E5721D
102
{ACAD_REACTORS
330
EA6E4DC88
102
}
330
EA6E4DC88
100
AcDbGroup
300

 70
     1
 71
     1
  0
GROUP
  5
EA6E5721E
102
{ACAD_REACTORS
330
EA6E4DC88
102
}
330
EA6E4DC88
100
AcDbGroup
300

 70
     1
 71
     1
  0
GROUP
  5
EA6E5721F
102
{ACAD_REACTORS
330
EA6E4DC88
102
}
330
EA6E4DC88
100
AcDbGroup
300

 70
     1
 71
     1
  0
GROUP
  5
EA6E57220
102
{ACAD_REACTORS
330
EA6E4DC88
102
}
330
EA6E4DC88
100
AcDbGroup
300

 70
     3
 71
     1
  0
GROUP
  5
EA6E571D3
102
{ACAD_REACTORS
330
EA6E4DC88
102
}
330
EA6E4DC88
100
AcDbGroup
300

 70
     1
 71
     1
  0
GROUP
  5
EA6E57221
102
{ACAD_REACTORS
330
EA6E4DC88
102
}
330
EA6E4DC88
100
AcDbGroup
300

 70
     1
 71
     1
  0
GROUP
  5
EA6E57222
102
{ACAD_REACTORS
330
EA6E4DC88
102
}
330
EA6E4DC88
100
AcDbGroup
300

 70
     1
 71
     1
  0
GROUP
  5
EA6E57223
102
{ACAD_REACTORS
330
EA6E4DC88
102
}
330
EA6E4DC88
100
AcDbGroup
300

 70
     1
 71
     1
  0
GROUP
  5
EA6E57224
102
{ACAD_REACTORS
330
EA6E4DC88
102
}
330
EA6E4DC88
100
AcDbGroup
300

 70
     1
 71
     1
  0
GROUP
  5
EA6E4F4A9
102
{ACAD_REACTORS
330
EA6E4DC88
102
}
330
EA6E4DC88
100
AcDbGroup
300

 70
     1
 71
     1
  0
GROUP
  5
EA6E57225
102
{ACAD_REACTORS
330
EA6E4DC88
102
}
330
EA6E4DC88
100
AcDbGroup
300

 70
     1
 71
     1
  0
GROUP
  5
EA6E57226
102
{ACAD_REACTORS
330
EA6E4DC88
102
}
330
EA6E4DC88
100
AcDbGroup
300

 70
     1
 71
     1
  0
GROUP
  5
EA6E4F488
102
{ACAD_REACTORS
330
EA6E4DC88
102
}
330
EA6E4DC88
100
AcDbGroup
300

 70
     1
 71
     1
  0
GROUP
  5
EA6E4F465
102
{ACAD_REACTORS
330
EA6E4DC88
102
}
330
EA6E4DC88
100
AcDbGroup
300

 70
     1
 71
     1
  0
GROUP
  5
EA6E57227
102
{ACAD_REACTORS
330
EA6E4DC88
102
}
330
EA6E4DC88
100
AcDbGroup
300

 70
     1
 71
     1
  0
GROUP
  5
EA6E4F47C
102
{ACAD_REACTORS
330
EA6E4DC88
102
}
330
EA6E4DC88
100
AcDbGroup
300

 70
     1
 71
     1
  0
GROUP
  5
EA6E57228
102
{ACAD_REACTORS
330
EA6E4DC88
102
}
330
EA6E4DC88
100
AcDbGroup
300

 70
     1
 71
     1
  0
GROUP
  5
EA6E57229
102
{ACAD_REACTORS
330
EA6E4DC88
102
}
330
EA6E4DC88
100
AcDbGroup
300

 70
     1
 71
     1
  0
GROUP
  5
EA6E5722A
102
{ACAD_REACTORS
330
EA6E4DC88
102
}
330
EA6E4DC88
100
AcDbGroup
300

 70
     1
 71
     1
  0
GROUP
  5
EA6E5722B
102
{ACAD_REACTORS
330
EA6E4DC88
102
}
330
EA6E4DC88
100
AcDbGroup
300

 70
     1
 71
     1
  0
GROUP
  5
EA6E5722C
102
{ACAD_REACTORS
330
EA6E4DC88
102
}
330
EA6E4DC88
100
AcDbGroup
300

 70
     1
 71
     1
  0
GROUP
  5
EA6E4F4C2
102
{ACAD_REACTORS
330
EA6E4DC88
102
}
330
EA6E4DC88
100
AcDbGroup
300

 70
     3
 71
     1
  0
GROUP
  5
EA6E5722D
102
{ACAD_REACTORS
330
EA6E4DC88
102
}
330
EA6E4DC88
100
AcDbGroup
300

 70
     1
 71
     1
  0
GROUP
  5
EA6E5722E
102
{ACAD_REACTORS
330
EA6E4DC88
102
}
330
EA6E4DC88
100
AcDbGroup
300

 70
     1
 71
     1
  0
GROUP
  5
EA6E5722F
102
{ACAD_REACTORS
330
EA6E4DC88
102
}
330
EA6E4DC88
100
AcDbGroup
300

 70
     1
 71
     1
  0
GROUP
  5
EA6E5443B
102
{ACAD_REACTORS
330
EA6E4DC88
102
}
330
EA6E4DC88
100
AcDbGroup
300

 70
     3
 71
     1
  0
GROUP
  5
EA6E571D4
102
{ACAD_REACTORS
330
EA6E4DC88
102
}
330
EA6E4DC88
100
AcDbGroup
300

 70
     1
 71
     1
  0
GROUP
  5
EA6E54450
102
{ACAD_REACTORS
330
EA6E4DC88
102
}
330
EA6E4DC88
100
AcDbGroup
300

 70
     1
 71
     1
  0
GROUP
  5
EA6E57230
102
{ACAD_REACTORS
330
EA6E4DC88
102
}
330
EA6E4DC88
100
AcDbGroup
300

 70
     1
 71
     1
  0
GROUP
  5
EA6E4F4AE
102
{ACAD_REACTORS
330
EA6E4DC88
102
}
330
EA6E4DC88
100
AcDbGroup
300

 70
     1
 71
     1
  0
GROUP
  5
EA6E57231
102
{ACAD_REACTORS
330
EA6E4DC88
102
}
330
EA6E4DC88
100
AcDbGroup
300

 70
     1
 71
     1
  0
GROUP
  5
EA6E57232
102
{ACAD_REACTORS
330
EA6E4DC88
102
}
330
EA6E4DC88
100
AcDbGroup
300

 70
     1
 71
     1
  0
GROUP
  5
EA6E57233
102
{ACAD_REACTORS
330
EA6E4DC88
102
}
330
EA6E4DC88
100
AcDbGroup
300

 70
     1
 71
     1
  0
GROUP
  5
EA6E4F4C3
102
{ACAD_REACTORS
330
EA6E4DC88
102
}
330
EA6E4DC88
100
AcDbGroup
300

 70
     1
 71
     1
  0
GROUP
  5
EA6E57234
102
{ACAD_REACTORS
330
EA6E4DC88
102
}
330
EA6E4DC88
100
AcDbGroup
300

 70
     1
 71
     1
  0
GROUP
  5
EA6E57235
102
{ACAD_REACTORS
330
EA6E4DC88
102
}
330
EA6E4DC88
100
AcDbGroup
300

 70
     3
 71
     1
  0
GROUP
  5
EA6E57236
102
{ACAD_REACTORS
330
EA6E4DC88
102
}
330
EA6E4DC88
100
AcDbGroup
300

 70
     1
 71
     1
  0
GROUP
  5
EA6E571D5
102
{ACAD_REACTORS
330
EA6E4DC88
102
}
330
EA6E4DC88
100
AcDbGroup
300

 70
     1
 71
     1
  0
GROUP
  5
EA6E57237
102
{ACAD_REACTORS
330
EA6E4DC88
102
}
330
EA6E4DC88
100
AcDbGroup
300

 70
     1
 71
     1
  0
GROUP
  5
EA6E57238
102
{ACAD_REACTORS
330
EA6E4DC88
102
}
330
EA6E4DC88
100
AcDbGroup
300

 70
     1
 71
     1
  0
GROUP
  5
EA6E54451
102
{ACAD_REACTORS
330
EA6E4DC88
102
}
330
EA6E4DC88
100
AcDbGroup
300

 70
     1
 71
     1
  0
GROUP
  5
EA6E57239
102
{ACAD_REACTORS
330
EA6E4DC88
102
}
330
EA6E4DC88
100
AcDbGroup
300

 70
     1
 71
     1
  0
GROUP
  5
EA6E5723A
102
{ACAD_REACTORS
330
EA6E4DC88
102
}
330
EA6E4DC88
100
AcDbGroup
300

 70
     1
 71
     1
  0
GROUP
  5
EA6E4F466
102
{ACAD_REACTORS
330
EA6E4DC88
102
}
330
EA6E4DC88
100
AcDbGroup
300

 70
     1
 71
     1
  0
GROUP
  5
EA6E5723B
102
{ACAD_REACTORS
330
EA6E4DC88
102
}
330
EA6E4DC88
100
AcDbGroup
300

 70
     1
 71
     1
  0
GROUP
  5
EA6E54443
102
{ACAD_REACTORS
330
EA6E4DC88
102
}
330
EA6E4DC88
100
AcDbGroup
300

 70
     1
 71
     1
  0
GROUP
  5
EA6E4F467
102
{ACAD_REACTORS
330
EA6E4DC88
102
}
330
EA6E4DC88
100
AcDbGroup
300

 70
     1
 71
     1
  0
GROUP
  5
EA6E4F4D6
102
{ACAD_REACTORS
330
EA6E4DC88
102
}
330
EA6E4DC88
100
AcDbGroup
300

 70
     1
 71
     1
  0
GROUP
  5
EA6E4F4DB
102
{ACAD_REACTORS
330
EA6E4DC88
102
}
330
EA6E4DC88
100
AcDbGroup
300

 70
     1
 71
     1
  0
GROUP
  5
EA6E4F468
102
{ACAD_REACTORS
330
EA6E4DC88
102
}
330
EA6E4DC88
100
AcDbGroup
300

 70
     1
 71
     1
  0
GROUP
  5
EA6E4F469
102
{ACAD_REACTORS
330
EA6E4DC88
102
}
330
EA6E4DC88
100
AcDbGroup
300

 70
     1
 71
     1
  0
GROUP
  5
EA6E4F46A
102
{ACAD_REACTORS
330
EA6E4DC88
102
}
330
EA6E4DC88
100
AcDbGroup
300

 70
     1
 71
     1
  0
GROUP
  5
EA6E4F46B
102
{ACAD_REACTORS
330
EA6E4DC88
102
}
330
EA6E4DC88
100
AcDbGroup
300

 70
     1
 71
     1
  0
GROUP
  5
EA6E54452
102
{ACAD_REACTORS
330
EA6E4DC88
102
}
330
EA6E4DC88
100
AcDbGroup
300

 70
     1
 71
     1
  0
GROUP
  5
EA6E4F46C
102
{ACAD_REACTORS
330
EA6E4DC88
102
}
330
EA6E4DC88
100
AcDbGroup
300

 70
     1
 71
     1
  0
GROUP
  5
EA6E4F449
102
{ACAD_REACTORS
330
EA6E4DC88
102
}
330
EA6E4DC88
100
AcDbGroup
300

 70
     1
 71
     1
  0
GROUP
  5
EA6E4F481
102
{ACAD_REACTORS
330
EA6E4DC88
102
}
330
EA6E4DC88
100
AcDbGroup
300

 70
     1
 71
     1
  0
GROUP
  5
EA6E4F4C4
102
{ACAD_REACTORS
330
EA6E4DC88
102
}
330
EA6E4DC88
100
AcDbGroup
300

 70
     1
 71
     1
  0
GROUP
  5
EA6E4F46D
102
{ACAD_REACTORS
330
EA6E4DC88
102
}
330
EA6E4DC88
100
AcDbGroup
300

 70
     1
 71
     1
  0
GROUP
  5
EA6E54448
102
{ACAD_REACTORS
330
EA6E4DC88
102
}
330
EA6E4DC88
100
AcDbGroup
300

 70
     1
 71
     1
  0
GROUP
  5
EA6E4F46E
102
{ACAD_REACTORS
330
EA6E4DC88
102
}
330
EA6E4DC88
100
AcDbGroup
300

 70
     1
 71
     1
  0
GROUP
  5
EA6E4F4AF
102
{ACAD_REACTORS
330
EA6E4DC88
102
}
330
EA6E4DC88
100
AcDbGroup
300

 70
     1
 71
     1
  0
GROUP
  5
EA6E4F4D7
102
{ACAD_REACTORS
330
EA6E4DC88
102
}
330
EA6E4DC88
100
AcDbGroup
300

 70
     3
 71
     1
  0
GROUP
  5
EA6E4F46F
102
{ACAD_REACTORS
330
EA6E4DC88
102
}
330
EA6E4DC88
100
AcDbGroup
300

 70
     1
 71
     1
  0
GROUP
  5
EA6E4F470
102
{ACAD_REACTORS
330
EA6E4DC88
102
}
330
EA6E4DC88
100
AcDbGroup
300

 70
     1
 71
     1
  0
GROUP
  5
EA6E4F471
102
{ACAD_REACTORS
330
EA6E4DC88
102
}
330
EA6E4DC88
100
AcDbGroup
300

 70
     1
 71
     1
  0
GROUP
  5
EA6E54453
102
{ACAD_REACTORS
330
EA6E4DC88
102
}
330
EA6E4DC88
100
AcDbGroup
300

 70
     1
 71
     1
  0
GROUP
  5
EA6E4F472
102
{ACAD_REACTORS
330
EA6E4DC88
102
}
330
EA6E4DC88
100
AcDbGroup
300

 70
     1
 71
     1
  0
GROUP
  5
EA6E4F473
102
{ACAD_REACTORS
330
EA6E4DC88
102
}
330
EA6E4DC88
100
AcDbGroup
300

 70
     1
 71
     1
  0
GROUP
  5
EA6E4F47D
102
{ACAD_REACTORS
330
EA6E4DC88
102
}
330
EA6E4DC88
100
AcDbGroup
300

 70
     3
 71
     1
  0
GROUP
  5
EA6E571D6
102
{ACAD_REACTORS
330
EA6E4DC88
102
}
330
EA6E4DC88
100
AcDbGroup
300

 70
     1
 71
     1
  0
GROUP
  5
EA6E4F474
102
{ACAD_REACTORS
330
EA6E4DC88
102
}
330
EA6E4DC88
100
AcDbGroup
300

 70
     1
 71
     1
  0
GROUP
  5
EA6E4F475
102
{ACAD_REACTORS
330
EA6E4DC88
102
}
330
EA6E4DC88
100
AcDbGroup
300

 70
     1
 71
     1
  0
GROUP
  5
EA6E4F482
102
{ACAD_REACTORS
330
EA6E4DC88
102
}
330
EA6E4DC88
100
AcDbGroup
300

 70
     1
 71
     1
  0
GROUP
  5
EA6E4F476
102
{ACAD_REACTORS
330
EA6E4DC88
102
}
330
EA6E4DC88
100
AcDbGroup
300

 70
     1
 71
     1
  0
GROUP
  5
EA6E4F44A
102
{ACAD_REACTORS
330
EA6E4DC88
102
}
330
EA6E4DC88
100
AcDbGroup
300

 70
     1
 71
     1
  0
GROUP
  5
EA6E4F4D8
102
{ACAD_REACTORS
330
EA6E4DC88
102
}
330
EA6E4DC88
100
AcDbGroup
300

 70
     1
 71
     1
  0
GROUP
  5
EA6E4F477
102
{ACAD_REACTORS
330
EA6E4DC88
102
}
330
EA6E4DC88
100
AcDbGroup
300

 70
     1
 71
     1
  0
GROUP
  5
EA6E54417
102
{ACAD_REACTORS
330
EA6E4DC88
102
}
330
EA6E4DC88
100
AcDbGroup
300

 70
     1
 71
     1
  0
GROUP
  5
EA6E54454
102
{ACAD_REACTORS
330
EA6E4DC88
102
}
330
EA6E4DC88
100
AcDbGroup
300

 70
     1
 71
     1
  0
GROUP
  5
EA6E54418
102
{ACAD_REACTORS
330
EA6E4DC88
102
}
330
EA6E4DC88
100
AcDbGroup
300

 70
     1
 71
     1
  0
GROUP
  5
EA6E4F45F
102
{ACAD_REACTORS
330
EA6E4DC88
102
}
330
EA6E4DC88
100
AcDbGroup
300

 70
     1
 71
     1
  0
GROUP
  5
EA6E4F4C5
102
{ACAD_REACTORS
330
EA6E4DC88
102
}
330
EA6E4DC88
100
AcDbGroup
300

 70
     1
 71
     1
  0
GROUP
  5
EA6E54419
102
{ACAD_REACTORS
330
EA6E4DC88
102
}
330
EA6E4DC88
100
AcDbGroup
300

 70
     1
 71
     1
  0
GROUP
  5
EA6E5441A
102
{ACAD_REACTORS
330
EA6E4DC88
102
}
330
EA6E4DC88
100
AcDbGroup
300

 70
     1
 71
     1
  0
GROUP
  5
EA6E5441B
102
{ACAD_REACTORS
330
EA6E4DC88
102
}
330
EA6E4DC88
100
AcDbGroup
300

 70
     1
 71
     1
  0
GROUP
  5
EA6E5441C
102
{ACAD_REACTORS
330
EA6E4DC88
102
}
330
EA6E4DC88
100
AcDbGroup
300

 70
     1
 71
     1
  0
GROUP
  5
EA6E5441D
102
{ACAD_REACTORS
330
EA6E4DC88
102
}
330
EA6E4DC88
100
AcDbGroup
300

 70
     1
 71
     1
  0
GROUP
  5
EA6E4F483
102
{ACAD_REACTORS
330
EA6E4DC88
102
}
330
EA6E4DC88
100
AcDbGroup
300

 70
     1
 71
     1
  0
GROUP
  5
EA6E5441E
102
{ACAD_REACTORS
330
EA6E4DC88
102
}
330
EA6E4DC88
100
AcDbGroup
300

 70
     1
 71
     1
  0
GROUP
  5
EA6E4F4D9
102
{ACAD_REACTORS
330
EA6E4DC88
102
}
330
EA6E4DC88
100
AcDbGroup
300

 70
     1
 71
     1
  0
GROUP
  5
EA6E5441F
102
{ACAD_REACTORS
330
EA6E4DC88
102
}
330
EA6E4DC88
100
AcDbGroup
300

 70
     1
 71
     1
  0
GROUP
  5
EA6E4F4BC
102
{ACAD_REACTORS
330
EA6E4DC88
102
}
330
EA6E4DC88
100
AcDbGroup
300

 70
     1
 71
     1
  0
GROUP
  5
EA6E571D7
102
{ACAD_REACTORS
330
EA6E4DC88
102
}
330
EA6E4DC88
100
AcDbGroup
300

 70
     1
 71
     1
  0
GROUP
  5
EA6E4F480
102
{ACAD_REACTORS
330
EA6E4DC88
102
}
330
EA6E4DC88
100
AcDbGroup
300

 70
     1
 71
     1
  0
GROUP
  5
EA6E4F4C6
102
{ACAD_REACTORS
330
EA6E4DC88
102
}
330
EA6E4DC88
100
AcDbGroup
300

 70
     1
 71
     1
  0
GROUP
  5
EA6E54420
102
{ACAD_REACTORS
330
EA6E4DC88
102
}
330
EA6E4DC88
100
AcDbGroup
300

 70
     1
 71
     1
  0
GROUP
  5
EA6E54421
102
{ACAD_REACTORS
330
EA6E4DC88
102
}
330
EA6E4DC88
100
AcDbGroup
300

 70
     1
 71
     1
  0
GROUP
  5
EA6E54422
102
{ACAD_REACTORS
330
EA6E4DC88
102
}
330
EA6E4DC88
100
AcDbGroup
300

 70
     1
 71
     1
  0
GROUP
  5
EA6E54423
102
{ACAD_REACTORS
330
EA6E4DC88
102
}
330
EA6E4DC88
100
AcDbGroup
300

 70
     1
 71
     1
  0
GROUP
  5
EA6E54424
102
{ACAD_REACTORS
330
EA6E4DC88
102
}
330
EA6E4DC88
100
AcDbGroup
300

 70
     1
 71
     1
  0
GROUP
  5
EA6E54425
102
{ACAD_REACTORS
330
EA6E4DC88
102
}
330
EA6E4DC88
100
AcDbGroup
300

 70
     1
 71
     1
  0
GROUP
  5
EA6E54426
102
{ACAD_REACTORS
330
EA6E4DC88
102
}
330
EA6E4DC88
100
AcDbGroup
300

 70
     1
 71
     1
  0
GROUP
  5
EA6E54427
102
{ACAD_REACTORS
330
EA6E4DC88
102
}
330
EA6E4DC88
100
AcDbGroup
300

 70
     1
 71
     1
  0
GROUP
  5
EA6E571D8
102
{ACAD_REACTORS
330
EA6E4DC88
102
}
330
EA6E4DC88
100
AcDbGroup
300

 70
     1
 71
     1
  0
GROUP
  5
EA6E4F484
102
{ACAD_REACTORS
330
EA6E4DC88
102
}
330
EA6E4DC88
100
AcDbGroup
300

 70
     1
 71
     1
  0
GROUP
  5
EA6E4F4DA
102
{ACAD_REACTORS
330
EA6E4DC88
102
}
330
EA6E4DC88
100
AcDbGroup
300

 70
     1
 71
     1
  0
GROUP
  5
EA6E4F45A
102
{ACAD_REACTORS
330
EA6E4DC88
102
}
330
EA6E4DC88
100
AcDbGroup
300

 70
     1
 71
     1
  0
GROUP
  5
EA6E54455
102
{ACAD_REACTORS
330
EA6E4DC88
102
}
330
EA6E4DC88
100
AcDbGroup
300

 70
     1
 71
     1
  0
GROUP
  5
EA6E54428
102
{ACAD_REACTORS
330
EA6E4DC88
102
}
330
EA6E4DC88
100
AcDbGroup
300

 70
     1
 71
     1
  0
GROUP
  5
EA6E54429
102
{ACAD_REACTORS
330
EA6E4DC88
102
}
330
EA6E4DC88
100
AcDbGroup
300

 70
     1
 71
     1
  0
GROUP
  5
EA6E5442A
102
{ACAD_REACTORS
330
EA6E4DC88
102
}
330
EA6E4DC88
100
AcDbGroup
300

 70
     1
 71
     1
  0
GROUP
  5
EA6E5442B
102
{ACAD_REACTORS
330
EA6E4DC88
102
}
330
EA6E4DC88
100
AcDbGroup
300

 70
     1
 71
     1
  0
GROUP
  5
EA6E5442C
102
{ACAD_REACTORS
330
EA6E4DC88
102
}
330
EA6E4DC88
100
AcDbGroup
300

 70
     1
 71
     1
  0
GROUP
  5
EA6E5442D
102
{ACAD_REACTORS
330
EA6E4DC88
102
}
330
EA6E4DC88
100
AcDbGroup
300

 70
     3
 71
     1
  0
GROUP
  5
EA6E571D9
102
{ACAD_REACTORS
330
EA6E4DC88
102
}
330
EA6E4DC88
100
AcDbGroup
300

 70
     1
 71
     1
  0
GROUP
  5
EA6E5442E
102
{ACAD_REACTORS
330
EA6E4DC88
102
}
330
EA6E4DC88
100
AcDbGroup
300

 70
     1
 71
     1
  0
GROUP
  5
EA6E5442F
102
{ACAD_REACTORS
330
EA6E4DC88
102
}
330
EA6E4DC88
100
AcDbGroup
300

 70
     1
 71
     1
  0
GROUP
  5
EA6E54430
102
{ACAD_REACTORS
330
EA6E4DC88
102
}
330
EA6E4DC88
100
AcDbGroup
300

 70
     1
 71
     1
  0
GROUP
  5
EA6E4F4B7
102
{ACAD_REACTORS
330
EA6E4DC88
102
}
330
EA6E4DC88
100
AcDbGroup
300

 70
     1
 71
     1
  0
GROUP
  5
EA6E4F452
102
{ACAD_REACTORS
330
EA6E4DC88
102
}
330
EA6E4DC88
100
AcDbGroup
300

 70
     1
 71
     1
  0
GROUP
  5
EA6E54431
102
{ACAD_REACTORS
330
EA6E4DC88
102
}
330
EA6E4DC88
100
AcDbGroup
300

 70
     1
 71
     1
  0
GROUP
  5
EA6E54456
102
{ACAD_REACTORS
330
EA6E4DC88
102
}
330
EA6E4DC88
100
AcDbGroup
300

 70
     1
 71
     1
  0
GROUP
  5
EA6E4F454
102
{ACAD_REACTORS
330
EA6E4DC88
102
}
330
EA6E4DC88
100
AcDbGroup
300

 70
     1
 71
     1
  0
GROUP
  5
EA6E4F485
102
{ACAD_REACTORS
330
EA6E4DC88
102
}
330
EA6E4DC88
100
AcDbGroup
300

 70
     1
 71
     1
  0
GROUP
  5
EA6E54432
102
{ACAD_REACTORS
330
EA6E4DC88
102
}
330
EA6E4DC88
100
AcDbGroup
300

 70
     1
 71
     1
  0
GROUP
  5
EA6E571DA
102
{ACAD_REACTORS
330
EA6E4DC88
102
}
330
EA6E4DC88
100
AcDbGroup
300

 70
     1
 71
     1
  0
GROUP
  5
EA6E54433
102
{ACAD_REACTORS
330
EA6E4DC88
102
}
330
EA6E4DC88
100
AcDbGroup
300

 70
     1
 71
     1
  0
GROUP
  5
EA6E54434
102
{ACAD_REACTORS
330
EA6E4DC88
102
}
330
EA6E4DC88
100
AcDbGroup
300

 70
     1
 71
     1
  0
GROUP
  5
EA6E54435
102
{ACAD_REACTORS
330
EA6E4DC88
102
}
330
EA6E4DC88
100
AcDbGroup
300

 70
     1
 71
     1
  0
GROUP
  5
EA6E54436
102
{ACAD_REACTORS
330
EA6E4DC88
102
}
330
EA6E4DC88
100
AcDbGroup
300

 70
     1
 71
     1
  0
GROUP
  5
EA6E54437
102
{ACAD_REACTORS
330
EA6E4DC88
102
}
330
EA6E4DC88
100
AcDbGroup
300

 70
     1
 71
     1
  0
GROUP
  5
EA6E4F4C7
102
{ACAD_REACTORS
330
EA6E4DC88
102
}
330
EA6E4DC88
100
AcDbGroup
300

 70
     1
 71
     1
  0
GROUP
  5
EA6E54438
102
{ACAD_REACTORS
330
EA6E4DC88
102
}
330
EA6E4DC88
100
AcDbGroup
300

 70
     1
 71
     1
  0
GROUP
  5
EA6E54439
102
{ACAD_REACTORS
330
EA6E4DC88
102
}
330
EA6E4DC88
100
AcDbGroup
300

 70
     1
 71
     1
  0
GROUP
  5
EA6E54457
102
{ACAD_REACTORS
330
EA6E4DC88
102
}
330
EA6E4DC88
100
AcDbGroup
300

 70
     1
 71
     1
  0
GROUP
  5
EA6E5443A
102
{ACAD_REACTORS
330
EA6E4DC88
102
}
330
EA6E4DC88
100
AcDbGroup
300

 70
     1
 71
     1
  0
GROUP
  5
EA6E4F451
102
{ACAD_REACTORS
330
EA6E4DC88
102
}
330
EA6E4DC88
100
AcDbGroup
300

 70
     1
 71
     1
  0
GROUP
  5
EA6E54458
102
{ACAD_REACTORS
330
EA6E4DC88
102
}
330
EA6E4DC88
100
AcDbGroup
300

 70
     1
 71
     1
  0
GROUP
  5
EA6E4F486
102
{ACAD_REACTORS
330
EA6E4DC88
102
}
330
EA6E4DC88
100
AcDbGroup
300

 70
     1
 71
     1
  0
GROUP
  5
EA6E54459
102
{ACAD_REACTORS
330
EA6E4DC88
102
}
330
EA6E4DC88
100
AcDbGroup
300

 70
     1
 71
     1
  0
GROUP
  5
EA6E4F489
102
{ACAD_REACTORS
330
EA6E4DC88
102
}
330
EA6E4DC88
100
AcDbGroup
300

 70
     1
 71
     1
  0
GROUP
  5
EA6E5445A
102
{ACAD_REACTORS
330
EA6E4DC88
102
}
330
EA6E4DC88
100
AcDbGroup
300

 70
     1
 71
     1
  0
GROUP
  5
EA6E5445B
102
{ACAD_REACTORS
330
EA6E4DC88
102
}
330
EA6E4DC88
100
AcDbGroup
300

 70
     1
 71
     1
  0
GROUP
  5
EA6E4F4C8
102
{ACAD_REACTORS
330
EA6E4DC88
102
}
330
EA6E4DC88
100
AcDbGroup
300

 70
     1
 71
     1
  0
GROUP
  5
EA6E5445C
102
{ACAD_REACTORS
330
EA6E4DC88
102
}
330
EA6E4DC88
100
AcDbGroup
300

 70
     3
 71
     1
  0
GROUP
  5
EA6E5445D
102
{ACAD_REACTORS
330
EA6E4DC88
102
}
330
EA6E4DC88
100
AcDbGroup
300

 70
     1
 71
     1
  0
GROUP
  5
EA6E4F4DD
102
{ACAD_REACTORS
330
EA6E4DC88
102
}
330
EA6E4DC88
100
AcDbGroup
300

 70
     1
 71
     1
  0
GROUP
  5
EA6E571DB
102
{ACAD_REACTORS
330
EA6E4DC88
102
}
330
EA6E4DC88
100
AcDbGroup
300

 70
     3
 71
     1
  0
GROUP
  5
EA6E5445E
102
{ACAD_REACTORS
330
EA6E4DC88
102
}
330
EA6E4DC88
100
AcDbGroup
300

 70
     1
 71
     1
  0
GROUP
  5
EA6E5445F
102
{ACAD_REACTORS
330
EA6E4DC88
102
}
330
EA6E4DC88
100
AcDbGroup
300

 70
     1
 71
     1
  0
GROUP
  5
EA6E54460
102
{ACAD_REACTORS
330
EA6E4DC88
102
}
330
EA6E4DC88
100
AcDbGroup
300

 70
     1
 71
     1
  0
GROUP
  5
EA6E5443C
102
{ACAD_REACTORS
330
EA6E4DC88
102
}
330
EA6E4DC88
100
AcDbGroup
300

 70
     1
 71
     1
  0
GROUP
  5
EA6E54461
102
{ACAD_REACTORS
330
EA6E4DC88
102
}
330
EA6E4DC88
100
AcDbGroup
300

 70
     1
 71
     1
  0
GROUP
  5
EA6E54462
102
{ACAD_REACTORS
330
EA6E4DC88
102
}
330
EA6E4DC88
100
AcDbGroup
300

 70
     1
 71
     1
  0
GROUP
  5
EA6E4F48A
102
{ACAD_REACTORS
330
EA6E4DC88
102
}
330
EA6E4DC88
100
AcDbGroup
300

 70
     1
 71
     1
  0
GROUP
  5
EA6E4F4C9
102
{ACAD_REACTORS
330
EA6E4DC88
102
}
330
EA6E4DC88
100
AcDbGroup
300

 70
     1
 71
     1
  0
GROUP
  5
EA6E4F4B2
102
{ACAD_REACTORS
330
EA6E4DC88
102
}
330
EA6E4DC88
100
AcDbGroup
300

 70
     1
 71
     1
  0
GROUP
  5
EA6E4F44C
102
{ACAD_REACTORS
330
EA6E4DC88
102
}
330
EA6E4DC88
100
AcDbGroup
300

 70
     1
 71
     1
  0
GROUP
  5
EA6E571DC
102
{ACAD_REACTORS
330
EA6E4DC88
102
}
330
EA6E4DC88
100
AcDbGroup
300

 70
     1
 71
     1
  0
GROUP
  5
EA6E4F48B
102
{ACAD_REACTORS
330
EA6E4DC88
102
}
330
EA6E4DC88
100
AcDbGroup
300

 70
     1
 71
     1
  0
GROUP
  5
EA6E4F48C
102
{ACAD_REACTORS
330
EA6E4DC88
102
}
330
EA6E4DC88
100
AcDbGroup
300

 70
     1
 71
     1
  0
GROUP
  5
EA6E4F455
102
{ACAD_REACTORS
330
EA6E4DC88
102
}
330
EA6E4DC88
100
AcDbGroup
300

 70
     1
 71
     1
  0
GROUP
  5
EA6E4F48D
102
{ACAD_REACTORS
330
EA6E4DC88
102
}
330
EA6E4DC88
100
AcDbGroup
300

 70
     1
 71
     1
  0
GROUP
  5
EA6E4F48E
102
{ACAD_REACTORS
330
EA6E4DC88
102
}
330
EA6E4DC88
100
AcDbGroup
300

 70
     1
 71
     1
  0
GROUP
  5
EA6E5443D
102
{ACAD_REACTORS
330
EA6E4DC88
102
}
330
EA6E4DC88
100
AcDbGroup
300

 70
     1
 71
     1
  0
GROUP
  5
EA6E4F478
102
{ACAD_REACTORS
330
EA6E4DC88
102
}
330
EA6E4DC88
100
AcDbGroup
300

 70
     1
 71
     1
  0
GROUP
  5
EA6E4F48F
102
{ACAD_REACTORS
330
EA6E4DC88
102
}
330
EA6E4DC88
100
AcDbGroup
300

 70
     1
 71
     1
  0
GROUP
  5
EA6E4F4CA
102
{ACAD_REACTORS
330
EA6E4DC88
102
}
330
EA6E4DC88
100
AcDbGroup
300

 70
     1
 71
     1
  0
GROUP
  5
EA6E4F490
102
{ACAD_REACTORS
330
EA6E4DC88
102
}
330
EA6E4DC88
100
AcDbGroup
300

 70
     1
 71
     1
  0
GROUP
  5
EA6E571DD
102
{ACAD_REACTORS
330
EA6E4DC88
102
}
330
EA6E4DC88
100
AcDbGroup
300

 70
     1
 71
     1
  0
GROUP
  5
EA6E4F491
102
{ACAD_REACTORS
330
EA6E4DC88
102
}
330
EA6E4DC88
100
AcDbGroup
300

 70
     1
 71
     1
  0
GROUP
  5
EA6E4F492
102
{ACAD_REACTORS
330
EA6E4DC88
102
}
330
EA6E4DC88
100
AcDbGroup
300

 70
     3
 71
     1
  0
GROUP
  5
EA6E4F493
102
{ACAD_REACTORS
330
EA6E4DC88
102
}
330
EA6E4DC88
100
AcDbGroup
300

 70
     1
 71
     1
  0
GROUP
  5
EA6E4F450
102
{ACAD_REACTORS
330
EA6E4DC88
102
}
330
EA6E4DC88
100
AcDbGroup
300

 70
     1
 71
     1
  0
GROUP
  5
EA6E4F494
102
{ACAD_REACTORS
330
EA6E4DC88
102
}
330
EA6E4DC88
100
AcDbGroup
300

 70
     1
 71
     1
  0
GROUP
  5
EA6E4F456
102
{ACAD_REACTORS
330
EA6E4DC88
102
}
330
EA6E4DC88
100
AcDbGroup
300

 70
     1
 71
     1
  0
GROUP
  5
EA6E4F44D
102
{ACAD_REACTORS
330
EA6E4DC88
102
}
330
EA6E4DC88
100
AcDbGroup
300

 70
     1
 71
     1
  0
GROUP
  5
EA6E5443E
102
{ACAD_REACTORS
330
EA6E4DC88
102
}
330
EA6E4DC88
100
AcDbGroup
300

 70
     1
 71
     1
  0
GROUP
  5
EA6E4F495
102
{ACAD_REACTORS
330
EA6E4DC88
102
}
330
EA6E4DC88
100
AcDbGroup
300

 70
     1
 71
     1
  0
GROUP
  5
EA6E4F4DC
102
{ACAD_REACTORS
330
EA6E4DC88
102
}
330
EA6E4DC88
100
AcDbGroup
300

 70
     1
 71
     1
  0
GROUP
  5
EA6E571DE
102
{ACAD_REACTORS
330
EA6E4DC88
102
}
330
EA6E4DC88
100
AcDbGroup
300

 70
     1
 71
     1
  0
GROUP
  5
EA6E4F496
102
{ACAD_REACTORS
330
EA6E4DC88
102
}
330
EA6E4DC88
100
AcDbGroup
300

 70
     1
 71
     1
  0
GROUP
  5
EA6E4F479
102
{ACAD_REACTORS
330
EA6E4DC88
102
}
330
EA6E4DC88
100
AcDbGroup
300

 70
     1
 71
     1
  0
GROUP
  5
EA6E4F497
102
{ACAD_REACTORS
330
EA6E4DC88
102
}
330
EA6E4DC88
100
AcDbGroup
300

 70
     1
 71
     1
  0
GROUP
  5
EA6E4F498
102
{ACAD_REACTORS
330
EA6E4DC88
102
}
330
EA6E4DC88
100
AcDbGroup
300

 70
     1
 71
     1
  0
GROUP
  5
EA6E4F499
102
{ACAD_REACTORS
330
EA6E4DC88
102
}
330
EA6E4DC88
100
AcDbGroup
300

 70
     1
 71
     1
  0
GROUP
  5
EA6E4F49A
102
{ACAD_REACTORS
330
EA6E4DC88
102
}
330
EA6E4DC88
100
AcDbGroup
300

 70
     1
 71
     1
  0
GROUP
  5
EA6E4F49B
102
{ACAD_REACTORS
330
EA6E4DC88
102
}
330
EA6E4DC88
100
AcDbGroup
300

 70
     1
 71
     1
  0
GROUP
  5
EA6E4F49C
102
{ACAD_REACTORS
330
EA6E4DC88
102
}
330
EA6E4DC88
100
AcDbGroup
300

 70
     1
 71
     1
  0
GROUP
  5
EA6E4F457
102
{ACAD_REACTORS
330
EA6E4DC88
102
}
330
EA6E4DC88
100
AcDbGroup
300

 70
     1
 71
     1
  0
GROUP
  5
EA6E5443F
102
{ACAD_REACTORS
330
EA6E4DC88
102
}
330
EA6E4DC88
100
AcDbGroup
300

 70
     1
 71
     1
  0
GROUP
  5
EA6E54449
102
{ACAD_REACTORS
330
EA6E4DC88
102
}
330
EA6E4DC88
100
AcDbGroup
300

 70
     1
 71
     1
  0
GROUP
  5
EA6E4F4AA
102
{ACAD_REACTORS
330
EA6E4DC88
102
}
330
EA6E4DC88
100
AcDbGroup
300

 70
     1
 71
     1
  0
GROUP
  5
EA6E4F4B3
102
{ACAD_REACTORS
330
EA6E4DC88
102
}
330
EA6E4DC88
100
AcDbGroup
300

 70
     1
 71
     1
  0
GROUP
  5
EA6E4F49D
102
{ACAD_REACTORS
330
EA6E4DC88
102
}
330
EA6E4DC88
100
AcDbGroup
300

 70
     1
 71
     1
  0
GROUP
  5
EA6E4F49E
102
{ACAD_REACTORS
330
EA6E4DC88
102
}
330
EA6E4DC88
100
AcDbGroup
300

 70
     1
 71
     1
  0
GROUP
  5
EA6E4F44E
102
{ACAD_REACTORS
330
EA6E4DC88
102
}
330
EA6E4DC88
100
AcDbGroup
300

 70
     1
 71
     1
  0
GROUP
  5
EA6E4F47A
102
{ACAD_REACTORS
330
EA6E4DC88
102
}
330
EA6E4DC88
100
AcDbGroup
300

 70
     1
 71
     1
  0
GROUP
  5
EA6E4F49F
102
{ACAD_REACTORS
330
EA6E4DC88
102
}
330
EA6E4DC88
100
AcDbGroup
300

 70
     1
 71
     1
  0
GROUP
  5
EA6E4F4A0
102
{ACAD_REACTORS
330
EA6E4DC88
102
}
330
EA6E4DC88
100
AcDbGroup
300

 70
     1
 71
     1
  0
GROUP
  5
EA6E4F4A1
102
{ACAD_REACTORS
330
EA6E4DC88
102
}
330
EA6E4DC88
100
AcDbGroup
300

 70
     1
 71
     1
  0
GROUP
  5
EA6E4F4A2
102
{ACAD_REACTORS
330
EA6E4DC88
102
}
330
EA6E4DC88
100
AcDbGroup
300

 70
     3
 71
     1
  0
GROUP
  5
EA6E571CC
102
{ACAD_REACTORS
330
EA6E4DC88
102
}
330
EA6E4DC88
100
AcDbGroup
300

 70
     1
 71
     1
  0
GROUP
  5
EA6E571DF
102
{ACAD_REACTORS
330
EA6E4DC88
102
}
330
EA6E4DC88
100
AcDbGroup
300

 70
     1
 71
     1
  0
GROUP
  5
EA6E4F4A3
102
{ACAD_REACTORS
330
EA6E4DC88
102
}
330
EA6E4DC88
100
AcDbGroup
300

 70
     1
 71
     1
  0
GROUP
  5
EA6E4F4CB
102
{ACAD_REACTORS
330
EA6E4DC88
102
}
330
EA6E4DC88
100
AcDbGroup
300

 70
     1
 71
     1
  0
GROUP
  5
EA6E54440
102
{ACAD_REACTORS
330
EA6E4DC88
102
}
330
EA6E4DC88
100
AcDbGroup
300

 70
     1
 71
     1
  0
GROUP
  5
EA6E4F458
102
{ACAD_REACTORS
330
EA6E4DC88
102
}
330
EA6E4DC88
100
AcDbGroup
300

 70
     1
 71
     1
  0
GROUP
  5
EA6E4F4A4
102
{ACAD_REACTORS
330
EA6E4DC88
102
}
330
EA6E4DC88
100
AcDbGroup
300

 70
     1
 71
     1
  0
GROUP
  5
EA6E4F4A5
102
{ACAD_REACTORS
330
EA6E4DC88
102
}
330
EA6E4DC88
100
AcDbGroup
300

 70
     1
 71
     1
  0
GROUP
  5
EA6E4F4B4
102
{ACAD_REACTORS
330
EA6E4DC88
102
}
330
EA6E4DC88
100
AcDbGroup
300

 70
     1
 71
     1
  0
GROUP
  5
EA6E4F4A6
102
{ACAD_REACTORS
330
EA6E4DC88
102
}
330
EA6E4DC88
100
AcDbGroup
300

 70
     1
 71
     1
  0
GROUP
  5
EA6E4F4A7
102
{ACAD_REACTORS
330
EA6E4DC88
102
}
330
EA6E4DC88
100
AcDbGroup
300

 70
     3
 71
     1
  0
GROUP
  5
EA6E4F47B
102
{ACAD_REACTORS
330
EA6E4DC88
102
}
330
EA6E4DC88
100
AcDbGroup
300

 70
     1
 71
     1
  0
GROUP
  5
EA6E571E0
102
{ACAD_REACTORS
330
EA6E4DC88
102
}
330
EA6E4DC88
100
AcDbGroup
300

 70
     1
 71
     1
  0
GROUP
  5
EA6E4F4A8
102
{ACAD_REACTORS
330
EA6E4DC88
102
}
330
EA6E4DC88
100
AcDbGroup
300

 70
     1
 71
     1
  0
GROUP
  5
EA6E4F4B5
102
{ACAD_REACTORS
330
EA6E4DC88
102
}
330
EA6E4DC88
100
AcDbGroup
300

 70
     1
 71
     1
  0
GROUP
  5
EA6E4F4CC
102
{ACAD_REACTORS
330
EA6E4DC88
102
}
330
EA6E4DC88
100
AcDbGroup
300

 70
     1
 71
     1
  0
GROUP
  5
EA6E4F4B6
102
{ACAD_REACTORS
330
EA6E4DC88
102
}
330
EA6E4DC88
100
AcDbGroup
300

 70
     1
 71
     1
  0
GROUP
  5
EA6E4F47E
102
{ACAD_REACTORS
330
EA6E4DC88
102
}
330
EA6E4DC88
100
AcDbGroup
300

 70
     1
 71
     1
  0
GROUP
  5
EA6E4F447
102
{ACAD_REACTORS
330
EA6E4DC88
102
}
330
EA6E4DC88
100
AcDbGroup
300

 70
     1
 71
     1
  0
GROUP
  5
EA6E4F4CD
102
{ACAD_REACTORS
330
EA6E4DC88
102
}
330
EA6E4DC88
100
AcDbGroup
300

 70
     1
 71
     1
  0
GROUP
  5
EA6E4F45B
102
{ACAD_REACTORS
330
EA6E4DC88
102
}
330
EA6E4DC88
100
AcDbGroup
300

 70
     1
 71
     1
  0
GROUP
  5
EA6E4F4CE
102
{ACAD_REACTORS
330
EA6E4DC88
102
}
330
EA6E4DC88
100
AcDbGroup
300

 70
     1
 71
     1
  0
GROUP
  5
EA6E4F4CF
102
{ACAD_REACTORS
330
EA6E4DC88
102
}
330
EA6E4DC88
100
AcDbGroup
300

 70
     1
 71
     1
  0
GROUP
  5
EA6E4F460
102
{ACAD_REACTORS
330
EA6E4DC88
102
}
330
EA6E4DC88
100
AcDbGroup
300

 70
     1
 71
     1
  0
GROUP
  5
EA6E4F4D0
102
{ACAD_REACTORS
330
EA6E4DC88
102
}
330
EA6E4DC88
100
AcDbGroup
300

 70
     1
 71
     1
  0
GROUP
  5
EA6E4F453
102
{ACAD_REACTORS
330
EA6E4DC88
102
}
330
EA6E4DC88
100
AcDbGroup
300

 70
     1
 71
     1
  0
GROUP
  5
EA6E54444
102
{ACAD_REACTORS
330
EA6E4DC88
102
}
330
EA6E4DC88
100
AcDbGroup
300

 70
     1
 71
     1
  0
GROUP
  5
EA6E4F4D1
102
{ACAD_REACTORS
330
EA6E4DC88
102
}
330
EA6E4DC88
100
AcDbGroup
300

 70
     1
 71
     1
  0
GROUP
  5
EA6E4F4D2
102
{ACAD_REACTORS
330
EA6E4DC88
102
}
330
EA6E4DC88
100
AcDbGroup
300

 70
     1
 71
     1
  0
GROUP
  5
EA6E4F4D3
102
{ACAD_REACTORS
330
EA6E4DC88
102
}
330
EA6E4DC88
100
AcDbGroup
300

 70
     1
 71
     1
  0
GROUP
  5
EA6E4F4B8
102
{ACAD_REACTORS
330
EA6E4DC88
102
}
330
EA6E4DC88
100
AcDbGroup
300

 70
     3
 71
     1
  0
GROUP
  5
EA6E4F4AB
102
{ACAD_REACTORS
330
EA6E4DC88
102
}
330
EA6E4DC88
100
AcDbGroup
300

 70
     1
 71
     1
  0
GROUP
  5
EA6E4F4D4
102
{ACAD_REACTORS
330
EA6E4DC88
102
}
330
EA6E4DC88
100
AcDbGroup
300

 70
     1
 71
     1
  0
GROUP
  5
EA6E571A4
102
{ACAD_REACTORS
330
EA6E4DC88
102
}
330
EA6E4DC88
100
AcDbGroup
300

 70
     1
 71
     1
  0
GROUP
  5
EA6E571E1
102
{ACAD_REACTORS
330
EA6E4DC88
102
}
330
EA6E4DC88
100
AcDbGroup
300

 70
     1
 71
     1
  0
GROUP
  5
EA6E4F45C
102
{ACAD_REACTORS
330
EA6E4DC88
102
}
330
EA6E4DC88
100
AcDbGroup
300

 70
     1
 71
     1
  0
GROUP
  5
EA6E571A5
102
{ACAD_REACTORS
330
EA6E4DC88
102
}
330
EA6E4DC88
100
AcDbGroup
300

 70
     1
 71
     1
  0
GROUP
  5
EA6E571A6
102
{ACAD_REACTORS
330
EA6E4DC88
102
}
330
EA6E4DC88
100
AcDbGroup
300

 70
     1
 71
     1
  0
GROUP
  5
EA6E571A7
102
{ACAD_REACTORS
330
EA6E4DC88
102
}
330
EA6E4DC88
100
AcDbGroup
300

 70
     1
 71
     1
  0
GROUP
  5
EA6E54445
102
{ACAD_REACTORS
330
EA6E4DC88
102
}
330
EA6E4DC88
100
AcDbGroup
300

 70
     1
 71
     1
  0
GROUP
  5
EA6E571A8
102
{ACAD_REACTORS
330
EA6E4DC88
102
}
330
EA6E4DC88
100
AcDbGroup
300

 70
     1
 71
     1
  0
GROUP
  5
EA6E571A9
102
{ACAD_REACTORS
330
EA6E4DC88
102
}
330
EA6E4DC88
100
AcDbGroup
300

 70
     1
 71
     1
  0
GROUP
  5
EA6E4F44F
102
{ACAD_REACTORS
330
EA6E4DC88
102
}
330
EA6E4DC88
100
AcDbGroup
300

 70
     3
 71
     1
  0
GROUP
  5
EA6E571AA
102
{ACAD_REACTORS
330
EA6E4DC88
102
}
330
EA6E4DC88
100
AcDbGroup
300

 70
     1
 71
     1
  0
GROUP
  5
EA6E571AB
102
{ACAD_REACTORS
330
EA6E4DC88
102
}
330
EA6E4DC88
100
AcDbGroup
300

 70
     1
 71
     1
  0
GROUP
  5
EA6E571E2
102
{ACAD_REACTORS
330
EA6E4DC88
102
}
330
EA6E4DC88
100
AcDbGroup
300

 70
     1
 71
     1
  0
GROUP
  5
EA6E571AC
102
{ACAD_REACTORS
330
EA6E4DC88
102
}
330
EA6E4DC88
100
AcDbGroup
300

 70
     1
 71
     1
  0
GROUP
  5
EA6E571AD
102
{ACAD_REACTORS
330
EA6E4DC88
102
}
330
EA6E4DC88
100
AcDbGroup
300

 70
     3
 71
     1
  0
GROUP
  5
EA6E571AE
102
{ACAD_REACTORS
330
EA6E4DC88
102
}
330
EA6E4DC88
100
AcDbGroup
300

 70
     1
 71
     1
  0
GROUP
  5
EA6E4F44B
102
{ACAD_REACTORS
330
EA6E4DC88
102
}
330
EA6E4DC88
100
AcDbGroup
300

 70
     1
 71
     1
  0
GROUP
  5
EA6E571AF
102
{ACAD_REACTORS
330
EA6E4DC88
102
}
330
EA6E4DC88
100
AcDbGroup
300

 70
     1
 71
     1
  0
GROUP
  5
EA6E571B0
102
{ACAD_REACTORS
330
EA6E4DC88
102
}
330
EA6E4DC88
100
AcDbGroup
300

 70
     1
 71
     1
  0
GROUP
  5
EA6E4F4B0
102
{ACAD_REACTORS
330
EA6E4DC88
102
}
330
EA6E4DC88
100
AcDbGroup
300

 70
     1
 71
     1
  0
GROUP
  5
EA6E571B1
102
{ACAD_REACTORS
330
EA6E4DC88
102
}
330
EA6E4DC88
100
AcDbGroup
300

 70
     1
 71
     1
  0
GROUP
  5
EA6E4F4B9
102
{ACAD_REACTORS
330
EA6E4DC88
102
}
330
EA6E4DC88
100
AcDbGroup
300

 70
     1
 71
     1
  0
GROUP
  5
EA6E571B2
102
{ACAD_REACTORS
330
EA6E4DC88
102
}
330
EA6E4DC88
100
AcDbGroup
300

 70
     1
 71
     1
  0
GROUP
  5
EA6E54442
102
{ACAD_REACTORS
330
EA6E4DC88
102
}
330
EA6E4DC88
100
AcDbGroup
300

 70
     1
 71
     1
  0
GROUP
  5
EA6E571B3
102
{ACAD_REACTORS
330
EA6E4DC88
102
}
330
EA6E4DC88
100
AcDbGroup
300

 70
     1
 71
     1
  0
GROUP
  5
EA6E571B4
102
{ACAD_REACTORS
330
EA6E4DC88
102
}
330
EA6E4DC88
100
AcDbGroup
300

 70
     1
 71
     1
  0
GROUP
  5
EA6E571B5
102
{ACAD_REACTORS
330
EA6E4DC88
102
}
330
EA6E4DC88
100
AcDbGroup
300

 70
     1
 71
     1
  0
GROUP
  5
EA6E571B6
102
{ACAD_REACTORS
330
EA6E4DC88
102
}
330
EA6E4DC88
100
AcDbGroup
300

 70
     1
 71
     1
  0
GROUP
  5
EA6E571B7
102
{ACAD_REACTORS
330
EA6E4DC88
102
}
330
EA6E4DC88
100
AcDbGroup
300

 70
     1
 71
     1
  0
GROUP
  5
EA6E571B8
102
{ACAD_REACTORS
330
EA6E4DC88
102
}
330
EA6E4DC88
100
AcDbGroup
300

 70
     1
 71
     1
  0
GROUP
  5
EA6E4F4AD
102
{ACAD_REACTORS
330
EA6E4DC88
102
}
330
EA6E4DC88
100
AcDbGroup
300

 70
     1
 71
     1
  0
GROUP
  5
EA6E571B9
102
{ACAD_REACTORS
330
EA6E4DC88
102
}
330
EA6E4DC88
100
AcDbGroup
300

 70
     1
 71
     1
  0
GROUP
  5
EA6E4F487
102
{ACAD_REACTORS
330
EA6E4DC88
102
}
330
EA6E4DC88
100
AcDbGroup
300

 70
     1
 71
     1
  0
GROUP
  5
EA6E4F4BA
102
{ACAD_REACTORS
330
EA6E4DC88
102
}
330
EA6E4DC88
100
AcDbGroup
300

 70
     1
 71
     1
  0
GROUP
  5
EA6E571E3
102
{ACAD_REACTORS
330
EA6E4DC88
102
}
330
EA6E4DC88
100
AcDbGroup
300

 70
     1
 71
     1
  0
GROUP
  5
EA6E571BA
102
{ACAD_REACTORS
330
EA6E4DC88
102
}
330
EA6E4DC88
100
AcDbGroup
300

 70
     1
 71
     1
  0
GROUP
  5
EA6E571BB
102
{ACAD_REACTORS
330
EA6E4DC88
102
}
330
EA6E4DC88
100
AcDbGroup
300

 70
     1
 71
     1
  0
GROUP
  5
EA6E571BC
102
{ACAD_REACTORS
330
EA6E4DC88
102
}
330
EA6E4DC88
100
AcDbGroup
300

 70
     1
 71
     1
  0
GROUP
  5
EA6E571BD
102
{ACAD_REACTORS
330
EA6E4DC88
102
}
330
EA6E4DC88
100
AcDbGroup
300

 70
     1
 71
     1
  0
GROUP
  5
EA6E571BE
102
{ACAD_REACTORS
330
EA6E4DC88
102
}
330
EA6E4DC88
100
AcDbGroup
300

 70
     1
 71
     1
  0
GROUP
  5
EA6E571BF
102
{ACAD_REACTORS
330
EA6E4DC88
102
}
330
EA6E4DC88
100
AcDbGroup
300

 70
     1
 71
     1
  0
GROUP
  5
EA6E571C0
102
{ACAD_REACTORS
330
EA6E4DC88
102
}
330
EA6E4DC88
100
AcDbGroup
300

 70
     1
 71
     1
  0
GROUP
  5
EA6E571C1
102
{ACAD_REACTORS
330
EA6E4DC88
102
}
330
EA6E4DC88
100
AcDbGroup
300

 70
     1
 71
     1
  0
GROUP
  5
EA6E571C2
102
{ACAD_REACTORS
330
EA6E4DC88
102
}
330
EA6E4DC88
100
AcDbGroup
300

 70
     1
 71
     1
  0
GROUP
  5
EA6E4F45D
102
{ACAD_REACTORS
330
EA6E4DC88
102
}
330
EA6E4DC88
100
AcDbGroup
300

 70
     1
 71
     1
  0
GROUP
  5
EA6E571E4
102
{ACAD_REACTORS
330
EA6E4DC88
102
}
330
EA6E4DC88
100
AcDbGroup
300

 70
     1
 71
     1
  0
GROUP
  5
EA6E4F4BB
102
{ACAD_REACTORS
330
EA6E4DC88
102
}
330
EA6E4DC88
100
AcDbGroup
300

 70
     1
 71
     1
  0
GROUP
  5
EA6E54446
102
{ACAD_REACTORS
330
EA6E4DC88
102
}
330
EA6E4DC88
100
AcDbGroup
300

 70
     1
 71
     1
  0
GROUP
  5
EA6E571C3
102
{ACAD_REACTORS
330
EA6E4DC88
102
}
330
EA6E4DC88
100
AcDbGroup
300

 70
     1
 71
     1
  0
GROUP
  5
EA6E571C4
102
{ACAD_REACTORS
330
EA6E4DC88
102
}
330
EA6E4DC88
100
AcDbGroup
300

 70
     1
 71
     1
  0
GROUP
  5
EA6E571C5
102
{ACAD_REACTORS
330
EA6E4DC88
102
}
330
EA6E4DC88
100
AcDbGroup
300

 70
     1
 71
     1
  0
GROUP
  5
EA6E571C6
102
{ACAD_REACTORS
330
EA6E4DC88
102
}
330
EA6E4DC88
100
AcDbGroup
300

 70
     1
 71
     1
  0
GROUP
  5
EA6E571C7
102
{ACAD_REACTORS
330
EA6E4DC88
102
}
330
EA6E4DC88
100
AcDbGroup
300

 70
     1
 71
     1
  0
GROUP
  5
EA6E571C8
102
{ACAD_REACTORS
330
EA6E4DC88
102
}
330
EA6E4DC88
100
AcDbGroup
300

 70
     1
 71
     1
  0
GROUP
  5
EA6E571C9
102
{ACAD_REACTORS
330
EA6E4DC88
102
}
330
EA6E4DC88
100
AcDbGroup
300

 70
     1
 71
     1
  0
GROUP
  5
EA6E571CA
102
{ACAD_REACTORS
330
EA6E4DC88
102
}
330
EA6E4DC88
100
AcDbGroup
300

 70
     1
 71
     1
  0
GROUP
  5
EA6E571E5
102
{ACAD_REACTORS
330
EA6E4DC88
102
}
330
EA6E4DC88
100
AcDbGroup
300

 70
     1
 71
     1
  0
GROUP
  5
EA6E571CB
102
{ACAD_REACTORS
330
EA6E4DC88
102
}
330
EA6E4DC88
100
AcDbGroup
300

 70
     1
 71
     1
  0
GROUP
  5
EA6E571E6
102
{ACAD_REACTORS
330
EA6E4DC88
102
}
330
EA6E4DC88
100
AcDbGroup
300

 70
     1
 71
     1
  0
GROUP
  5
EA6E54447
102
{ACAD_REACTORS
330
EA6E4DC88
102
}
330
EA6E4DC88
100
AcDbGroup
300

 70
     1
 71
     1
  0
GROUP
  5
EA6E571E7
102
{ACAD_REACTORS
330
EA6E4DC88
102
}
330
EA6E4DC88
100
AcDbGroup
300

 70
     1
 71
     1
  0
GROUP
  5
EA6E5444A
102
{ACAD_REACTORS
330
EA6E4DC88
102
}
330
EA6E4DC88
100
AcDbGroup
300

 70
     1
 71
     1
  0
GROUP
  5
EA6E571E8
102
{ACAD_REACTORS
330
EA6E4DC88
102
}
330
EA6E4DC88
100
AcDbGroup
300

 70
     1
 71
     1
  0
GROUP
  5
EA6E571E9
102
{ACAD_REACTORS
330
EA6E4DC88
102
}
330
EA6E4DC88
100
AcDbGroup
300

 70
     1
 71
     1
  0
GROUP
  5
EA6E571EA
102
{ACAD_REACTORS
330
EA6E4DC88
102
}
330
EA6E4DC88
100
AcDbGroup
300

 70
     1
 71
     1
  0
GROUP
  5
EA6E4F4D5
102
{ACAD_REACTORS
330
EA6E4DC88
102
}
330
EA6E4DC88
100
AcDbGroup
300

 70
     1
 71
     1
  0
GROUP
  5
EA6E4F4BD
102
{ACAD_REACTORS
330
EA6E4DC88
102
}
330
EA6E4DC88
100
AcDbGroup
300

 70
     1
 71
     1
  0
GROUP
  5
EA6E4F461
102
{ACAD_REACTORS
330
EA6E4DC88
102
}
330
EA6E4DC88
100
AcDbGroup
300

 70
     1
 71
     1
  0
GROUP
  5
EA6E571EB
102
{ACAD_REACTORS
330
EA6E4DC88
102
}
330
EA6E4DC88
100
AcDbGroup
300

 70
     1
 71
     1
  0
GROUP
  5
EA6E571EC
102
{ACAD_REACTORS
330
EA6E4DC88
102
}
330
EA6E4DC88
100
AcDbGroup
300

 70
     1
 71
     1
  0
GROUP
  5
EA6E4F45E
102
{ACAD_REACTORS
330
EA6E4DC88
102
}
330
EA6E4DC88
100
AcDbGroup
300

 70
     1
 71
     1
  0
GROUP
  5
EA6E571ED
102
{ACAD_REACTORS
330
EA6E4DC88
102
}
330
EA6E4DC88
100
AcDbGroup
300

 70
     1
 71
     1
  0
GROUP
  5
EA6E571EE
102
{ACAD_REACTORS
330
EA6E4DC88
102
}
330
EA6E4DC88
100
AcDbGroup
300

 70
     1
 71
     1
  0
GROUP
  5
EA6E571EF
102
{ACAD_REACTORS
330
EA6E4DC88
102
}
330
EA6E4DC88
100
AcDbGroup
300

 70
     1
 71
     1
  0
GROUP
  5
EA6E5444B
102
{ACAD_REACTORS
330
EA6E4DC88
102
}
330
EA6E4DC88
100
AcDbGroup
300

 70
     1
 71
     1
  0
GROUP
  5
EA6E571F0
102
{ACAD_REACTORS
330
EA6E4DC88
102
}
330
EA6E4DC88
100
AcDbGroup
300

 70
     3
 71
     1
  0
GROUP
  5
EA6E571F1
102
{ACAD_REACTORS
330
EA6E4DC88
102
}
330
EA6E4DC88
100
AcDbGroup
300

 70
     1
 71
     1
  0
GROUP
  5
EA6E571F2
102
{ACAD_REACTORS
330
EA6E4DC88
102
}
330
EA6E4DC88
100
AcDbGroup
300

 70
     1
 71
     1
  0
GROUP
  5
EA6E4F4BE
102
{ACAD_REACTORS
330
EA6E4DC88
102
}
330
EA6E4DC88
100
AcDbGroup
300

 70
     1
 71
     1
  0
GROUP
  5
EA6E571F3
102
{ACAD_REACTORS
330
EA6E4DC88
102
}
330
EA6E4DC88
100
AcDbGroup
300

 70
     1
 71
     1
  0
GROUP
  5
EA6E571F4
102
{ACAD_REACTORS
330
EA6E4DC88
102
}
330
EA6E4DC88
100
AcDbGroup
300

 70
     1
 71
     1
  0
GROUP
  5
EA6E571CD
102
{ACAD_REACTORS
330
EA6E4DC88
102
}
330
EA6E4DC88
100
AcDbGroup
300

 70
     1
 71
     1
  0
GROUP
  5
EA6E4F462
102
{ACAD_REACTORS
330
EA6E4DC88
102
}
330
EA6E4DC88
100
AcDbGroup
300

 70
     1
 71
     1
  0
GROUP
  5
EA6E571F5
102
{ACAD_REACTORS
330
EA6E4DC88
102
}
330
EA6E4DC88
100
AcDbGroup
300

 70
     1
 71
     1
  0
GROUP
  5
EA6E571F6
102
{ACAD_REACTORS
330
EA6E4DC88
102
}
330
EA6E4DC88
100
AcDbGroup
300

 70
     1
 71
     1
  0
GROUP
  5
EA6E571F7
102
{ACAD_REACTORS
330
EA6E4DC88
102
}
330
EA6E4DC88
100
AcDbGroup
300

 70
     1
 71
     1
  0
GROUP
  5
EA6E571F8
102
{ACAD_REACTORS
330
EA6E4DC88
102
}
330
EA6E4DC88
100
AcDbGroup
300

 70
     1
 71
     1
  0
GROUP
  5
EA6E4F4AC
102
{ACAD_REACTORS
330
EA6E4DC88
102
}
330
EA6E4DC88
100
AcDbGroup
300

 70
     1
 71
     1
  0
GROUP
  5
EA6E571F9
102
{ACAD_REACTORS
330
EA6E4DC88
102
}
330
EA6E4DC88
100
AcDbGroup
300

 70
     1
 71
     1
  0
GROUP
  5
EA6E571FA
102
{ACAD_REACTORS
330
EA6E4DC88
102
}
330
EA6E4DC88
100
AcDbGroup
300

 70
     1
 71
     1
  0
GROUP
  5
EA6E4F47F
102
{ACAD_REACTORS
330
EA6E4DC88
102
}
330
EA6E4DC88
100
AcDbGroup
300

 70
     1
 71
     1
  0
GROUP
  5
EA6E571FB
102
{ACAD_REACTORS
330
EA6E4DC88
102
}
330
EA6E4DC88
100
AcDbGroup
300

 70
     1
 71
     1
  0
GROUP
  5
EA6E571CE
102
{ACAD_REACTORS
330
EA6E4DC88
102
}
330
EA6E4DC88
100
AcDbGroup
300

 70
     1
 71
     1
  0
GROUP
  5
EA6E571FC
102
{ACAD_REACTORS
330
EA6E4DC88
102
}
330
EA6E4DC88
100
AcDbGroup
300

 70
     1
 71
     1
  0
GROUP
  5
EA6E571FD
102
{ACAD_REACTORS
330
EA6E4DC88
102
}
330
EA6E4DC88
100
AcDbGroup
300

 70
     1
 71
     1
  0
GROUP
  5
EA6E571FE
102
{ACAD_REACTORS
330
EA6E4DC88
102
}
330
EA6E4DC88
100
AcDbGroup
300

 70
     1
 71
     1
  0
GROUP
  5
EA6E4F448
102
{ACAD_REACTORS
330
EA6E4DC88
102
}
330
EA6E4DC88
100
AcDbGroup
300

 70
     1
 71
     1
  0
GROUP
  5
EA6E571FF
102
{ACAD_REACTORS
330
EA6E4DC88
102
}
330
EA6E4DC88
100
AcDbGroup
300

 70
     1
 71
     1
  0
GROUP
  5
EA6E57200
102
{ACAD_REACTORS
330
EA6E4DC88
102
}
330
EA6E4DC88
100
AcDbGroup
300

 70
     3
 71
     1
  0
GROUP
  5
EA6E57201
102
{ACAD_REACTORS
330
EA6E4DC88
102
}
330
EA6E4DC88
100
AcDbGroup
300

 70
     1
 71
     1
  0
GROUP
  5
EA6E5444C
102
{ACAD_REACTORS
330
EA6E4DC88
102
}
330
EA6E4DC88
100
AcDbGroup
300

 70
     1
 71
     1
  0
GROUP
  5
EA6E57202
102
{ACAD_REACTORS
330
EA6E4DC88
102
}
330
EA6E4DC88
100
AcDbGroup
300

 70
     1
 71
     1
  0
GROUP
  5
EA6E4F459
102
{ACAD_REACTORS
330
EA6E4DC88
102
}
330
EA6E4DC88
100
AcDbGroup
300

 70
     1
 71
     1
  0
GROUP
  5
EA6E571CF
102
{ACAD_REACTORS
330
EA6E4DC88
102
}
330
EA6E4DC88
100
AcDbGroup
300

 70
     1
 71
     1
  0
GROUP
  5
EA6E57203
102
{ACAD_REACTORS
330
EA6E4DC88
102
}
330
EA6E4DC88
100
AcDbGroup
300

 70
     1
 71
     1
  0
GROUP
  5
EA6E57204
102
{ACAD_REACTORS
330
EA6E4DC88
102
}
330
EA6E4DC88
100
AcDbGroup
300

 70
     1
 71
     1
  0
GROUP
  5
EA6E57205
102
{ACAD_REACTORS
330
EA6E4DC88
102
}
330
EA6E4DC88
100
AcDbGroup
300

 70
     3
 71
     1
  0
GROUP
  5
EA6E57206
102
{ACAD_REACTORS
330
EA6E4DC88
102
}
330
EA6E4DC88
100
AcDbGroup
300

 70
     1
 71
     1
  0
GROUP
  5
EA6E57207
102
{ACAD_REACTORS
330
EA6E4DC88
102
}
330
EA6E4DC88
100
AcDbGroup
300

 70
     1
 71
     1
  0
GROUP
  5
EA6E57208
102
{ACAD_REACTORS
330
EA6E4DC88
102
}
330
EA6E4DC88
100
AcDbGroup
300

 70
     1
 71
     1
  0
GROUP
  5
EA6E4F463
102
{ACAD_REACTORS
330
EA6E4DC88
102
}
330
EA6E4DC88
100
AcDbGroup
300

 70
     1
 71
     1
  0
GROUP
  5
EA6E57209
102
{ACAD_REACTORS
330
EA6E4DC88
102
}
330
EA6E4DC88
100
AcDbGroup
300

 70
     1
 71
     1
  0
GROUP
  5
EA6E5720A
102
{ACAD_REACTORS
330
EA6E4DC88
102
}
330
EA6E4DC88
100
AcDbGroup
300

 70
     1
 71
     1
  0
GROUP
  5
EA6E5444D
102
{ACAD_REACTORS
330
EA6E4DC88
102
}
330
EA6E4DC88
100
AcDbGroup
300

 70
     1
 71
     1
  0
GROUP
  5
EA6E571D0
102
{ACAD_REACTORS
330
EA6E4DC88
102
}
330
EA6E4DC88
100
AcDbGroup
300

 70
     1
 71
     1
  0
GROUP
  5
EA6E4F4BF
102
{ACAD_REACTORS
330
EA6E4DC88
102
}
330
EA6E4DC88
100
AcDbGroup
300

 70
     1
 71
     1
  0
GROUP
  5
EA6E5720B
102
{ACAD_REACTORS
330
EA6E4DC88
102
}
330
EA6E4DC88
100
AcDbGroup
300

 70
     1
 71
     1
  0
GROUP
  5
EA6E5720C
102
{ACAD_REACTORS
330
EA6E4DC88
102
}
330
EA6E4DC88
100
AcDbGroup
300

 70
     1
 71
     1
  0
GROUP
  5
EA6E5720D
102
{ACAD_REACTORS
330
EA6E4DC88
102
}
330
EA6E4DC88
100
AcDbGroup
300

 70
     1
 71
     1
  0
GROUP
  5
EA6E5720E
102
{ACAD_REACTORS
330
EA6E4DC88
102
}
330
EA6E4DC88
100
AcDbGroup
300

 70
     1
 71
     1
  0
GROUP
  5
EA6E5720F
102
{ACAD_REACTORS
330
EA6E4DC88
102
}
330
EA6E4DC88
100
AcDbGroup
300

 70
     1
 71
     1
  0
GROUP
  5
EA6E57210
102
{ACAD_REACTORS
330
EA6E4DC88
102
}
330
EA6E4DC88
100
AcDbGroup
300

 70
     1
 71
     1
  0
GROUP
  5
EA6E57211
102
{ACAD_REACTORS
330
EA6E4DC88
102
}
330
EA6E4DC88
100
AcDbGroup
300

 70
     1
 71
     1
  0
GROUP
  5
EA6E57212
102
{ACAD_REACTORS
330
EA6E4DC88
102
}
330
EA6E4DC88
100
AcDbGroup
300

 70
     1
 71
     1
  0
GROUP
  5
EA6E4F464
102
{ACAD_REACTORS
330
EA6E4DC88
102
}
330
EA6E4DC88
100
AcDbGroup
300

 70
     1
 71
     1
  0
LAYOUT
  5
EA6E4EE67
102
{ACAD_REACTORS
330
EA6E4E124
102
}
330
EA6E4E124
100
AcDbPlotSettings
  1

  2
RICOH imagio Neo C355 RPCS
  4

  6

 40
0.0
 41
0.0
 42
0.0
 43
0.0
 44
0.0
 45
0.0
 46
0.0
 47
0.0
 48
0.0
 49
0.0
140
0.0
141
0.0
142
1.0
143
1.0
 70
  1712
 72
     0
 73
     0
 74
     0
  7
aclt.ctb
 75
     0
147
1.0
148
0.0
149
0.0
100
AcDbLayout
  1
Model
 70
     1
 71
     0
 10
0.0
 20
0.0
 11
12.0
 21
9.0
 12
0.0
 22
0.0
 32
0.0
 14
0.0
 24
0.0
 34
0.0
 15
0.0
 25
0.0
 35
0.0
146
0.0
 13
0.0
 23
0.0
 33
0.0
 16
1.0
 26
0.0
 36
0.0
 17
0.0
 27
1.0
 37
0.0
 76
     0
330
EA6E4DC92
  0
LAYOUT
  5
EA6E4EE68
102
{ACAD_REACTORS
330
EA6E4E124
102
}
330
EA6E4E124
100
AcDbPlotSettings
  1

  2
RICOH imagio Neo C355 RPCS
  4

  6

 40
0.0
 41
0.0
 42
0.0
 43
0.0
 44
0.0
 45
0.0
 46
0.0
 47
0.0
 48
0.0
 49
0.0
140
0.0
141
0.0
142
1.0
143
1.0
 70
   688
 72
     0
 73
     0
 74
     5
  7
aclt.ctb
 75
    16
147
1.0
148
0.0
149
0.0
100
AcDbLayout
  1
ﾚｲｱｳﾄ1
 70
     0
 71
     1
 10
0.0
 20
0.0
 11
12.0
 21
9.0
 12
0.0
 22
0.0
 32
0.0
 14
1.000000000000000E+20
 24
1.000000000000000E+20
 34
1.000000000000000E+20
 15
-1.000000000000000E+20
 25
-1.000000000000000E+20
 35
-1.000000000000000E+20
146
0.0
 13
0.0
 23
0.0
 33
0.0
 16
1.0
 26
0.0
 36
0.0
 17
0.0
 27
1.0
 37
0.0
 76
     0
330
EA6E4DC8F
  0
MLINESTYLE
  5
EA6E4DC96
102
{ACAD_REACTORS
330
EA6E4DC95
102
}
330
EA6E4DC95
100
AcDbMlineStyle
  2
STANDARD
 70
     0
  3

 62
   256
 51
90.0
 52
90.0
 71
     2
 49
0.5
 62
   256
  6
BYLAYER
 49
-0.5
 62
   256
  6
BYLAYER
  0
PLOTSETTINGS
  5
EA6E4F4DE
102
{ACAD_XDICTIONARY
360
EA6E4F4DF
102
}
102
{ACAD_REACTORS
330
EA6E4E125
102
}
330
EA6E4E125
100
AcDbPlotSettings
  1
セットアップ1
  2
EPSON LP-8900
  4
A4
  6
ZOOM_ALL
 40
5.873749732971191
 41
5.873717308044433
 42
5.873748779296875
 43
5.873748779296875
 44
209.9733276367187
 45
297.0106506347656
 46
15.0
 47
2.629999999999999
 48
-409.6174180266133
 49
-718.4349759011563
140
-49.61741659461336
141
-158.4349759011564
142
1.0
143
2.0
 70
 11936
 72
     1
 73
     0
 74
     4
  7
monochrome.ctb
 75
     0
147
0.5
148
409.6174180266133
149
718.4349759011563
1001
ACAD_PSEXT
1000
EPSON LP-8900
1000
EPSON LP-8900
1000
IP_172.16.3.45
1000

1070
     0
  0
ACDBPLACEHOLDER
  5
EA6E4E123
102
{ACAD_REACTORS
330
EA6E4E122
102
}
330
EA6E4E122
  0
DICTIONARYVAR
  5
EA6E4E23D
102
{ACAD_REACTORS
330
EA6E4DCDF
102
}
330
EA6E4DCDF
100
DictionaryVariables
280
     0
  1
0
  0
DICTIONARYVAR
  5
EA6E4DCE0
102
{ACAD_REACTORS
330
EA6E4DCDF
102
}
330
EA6E4DCDF
100
DictionaryVariables
280
     0
  1
96
  0
XRECORD
  5
EA6E4EE6B
102
{ACAD_REACTORS
330
EA6E4EE6A
102
}
330
EA6E4EE6A
100
AcDbXrecord
280
     1
  1
0
  1
*-0
  1
*
  1
*
 70
     0
  1
*
  1
*
  0
XRECORD
  5
EA6E4EE6C
102
{ACAD_REACTORS
330
EA6E4EE6A
102
}
330
EA6E4EE6A
100
AcDbXrecord
280
     1
  1
0-0
  1
*-0
  1
*
  1
*
 70
     0
  1
*
  1
*
  0
XRECORD
  5
EA6E4EE6D
102
{ACAD_REACTORS
330
EA6E4EE6A
102
}
330
EA6E4EE6A
100
AcDbXrecord
280
     1
  1
10画層
  1
*-10
  1
*
  1
*
 70
     0
  1
*
  1
*
  0
XRECORD
  5
EA6E4EE6E
102
{ACAD_REACTORS
330
EA6E4EE6A
102
}
330
EA6E4EE6A
100
AcDbXrecord
280
     1
  1
2
  1
*-2
  1
*
  1
*
 70
     0
  1
*
  1
*
  0
XRECORD
  5
EA6E4EE6F
102
{ACAD_REACTORS
330
EA6E4EE6A
102
}
330
EA6E4EE6A
100
AcDbXrecord
280
     1
  1
3
  1
*-3
  1
*
  1
*
 70
     0
  1
*
  1
*
  0
XRECORD
  5
EA6E4EE70
102
{ACAD_REACTORS
330
EA6E4EE6A
102
}
330
EA6E4EE6A
100
AcDbXrecord
280
     1
  1
3A
  1
*-3A
  1
*
  1
*
 70
     0
  1
*
  1
*
  0
XRECORD
  5
EA6E4EE71
102
{ACAD_REACTORS
330
EA6E4EE6A
102
}
330
EA6E4EE6A
100
AcDbXrecord
280
     1
  1
4
  1
*-4
  1
*
  1
*
 70
     0
  1
*
  1
*
  0
XRECORD
  5
EA6E4EE72
102
{ACAD_REACTORS
330
EA6E4EE6A
102
}
330
EA6E4EE6A
100
AcDbXrecord
280
     1
  1
5画層
  1
*-5
  1
*
  1
*
 70
     0
  1
*
  1
*
  0
XRECORD
  5
EA6E4EE73
102
{ACAD_REACTORS
330
EA6E4EE6A
102
}
330
EA6E4EE6A
100
AcDbXrecord
280
     1
  1
6画層
  1
*-6
  1
*
  1
*
 70
     0
  1
*
  1
*
  0
XRECORD
  5
EA6E4EE74
102
{ACAD_REACTORS
330
EA6E4EE6A
102
}
330
EA6E4EE6A
100
AcDbXrecord
280
     1
  1
7
  1
*-7*
  1
*
  1
*
 70
     0
  1
*
  1
*
  0
XRECORD
  5
EA6E4EE75
102
{ACAD_REACTORS
330
EA6E4EE6A
102
}
330
EA6E4EE6A
100
AcDbXrecord
280
     1
  1
7a画層
  1
*-7a
  1
*
  1
*
 70
     0
  1
*
  1
*
  0
XRECORD
  5
EA6E4EE76
102
{ACAD_REACTORS
330
EA6E4EE6A
102
}
330
EA6E4EE6A
100
AcDbXrecord
280
     1
  1
8
  1
*-8,8
  1
*
  1
*
 70
     0
  1
*
  1
*
  0
XRECORD
  5
EA6E4EE77
102
{ACAD_REACTORS
330
EA6E4EE6A
102
}
330
EA6E4EE6A
100
AcDbXrecord
280
     1
  1
ASYST
  1
ASYST*
  1
*
  1
*
 70
     0
  1
*
  1
*
  0
XRECORD
  5
EA6E4EE78
102
{ACAD_REACTORS
330
EA6E4EE6A
102
}
330
EA6E4EE6A
100
AcDbXrecord
280
     1
  1
ASYST PHASE 1
  1
A1.0-8$0$ASYT*
  1
*
  1
*
 70
     0
  1
*
  1
*
  0
XRECORD
  5
EA6E4EE79
102
{ACAD_REACTORS
330
EA6E4EE6A
102
}
330
EA6E4EE6A
100
AcDbXrecord
280
     1
  1
ASYST PHASE 2
  1
A2.0-8$0$ASYT*
  1
*
  1
*
 70
     0
  1
*
  1
*
  0
XRECORD
  5
EA6E4EE7A
102
{ACAD_REACTORS
330
EA6E4EE6A
102
}
330
EA6E4EE6A
100
AcDbXrecord
280
     1
  1
cap-0
  1
*
  1
*
  1
*
 70
     0
  1
*
  1
*
  0
XRECORD
  5
EA6E4EE7B
102
{ACAD_REACTORS
330
EA6E4EE6A
102
}
330
EA6E4EE6A
100
AcDbXrecord
280
     1
  1
dims
  1
*di*
  1
*
  1
*
 70
     0
  1
*
  1
*
  0
XRECORD
  5
EA6E4EE7C
102
{ACAD_REACTORS
330
EA6E4EE6A
102
}
330
EA6E4EE6A
100
AcDbXrecord
280
     1
  1
elec
  1
e-*
  1
*
  1
*
 70
     0
  1
*
  1
*
  0
XRECORD
  5
EA6E4EE7D
102
{ACAD_REACTORS
330
EA6E4EE6A
102
}
330
EA6E4EE6A
100
AcDbXrecord
280
     1
  1
ELECTRICAL
  1
E-*
  1
*
  1
*
 70
     0
  1
*
  1
*
  0
XRECORD
  5
EA6E4EE7E
102
{ACAD_REACTORS
330
EA6E4EE6A
102
}
330
EA6E4EE6A
100
AcDbXrecord
280
     1
  1
F
  1
*
  1
*
  1
*
 70
     0
  1
*
  1
*
  0
XRECORD
  5
EA6E4EE7F
102
{ACAD_REACTORS
330
EA6E4EE6A
102
}
330
EA6E4EE6A
100
AcDbXrecord
280
     1
  1
Frame
  1
F*
  1
*
  1
*
 70
     0
  1
*
  1
*
  0
XRECORD
  5
EA6E4EE80
102
{ACAD_REACTORS
330
EA6E4EE6A
102
}
330
EA6E4EE6A
100
AcDbXrecord
280
     1
  1
FROZEN
  1
*
  1
*
  1
*
 70
     4
  1
*
  1
*
  0
XRECORD
  5
EA6E4EE81
102
{ACAD_REACTORS
330
EA6E4EE6A
102
}
330
EA6E4EE6A
100
AcDbXrecord
280
     1
  1
FROZEN ACTIVE
  1
*
  1
*
  1
*
 70
    16
  1
*
  1
*
  0
XRECORD
  5
EA6E4EE82
102
{ACAD_REACTORS
330
EA6E4EE6A
102
}
330
EA6E4EE6A
100
AcDbXrecord
280
     1
  1
jiku-0
  1
*
  1
*
  1
*
 70
     0
  1
*
  1
*
  0
XRECORD
  5
EA6E4EE83
102
{ACAD_REACTORS
330
EA6E4EE6A
102
}
330
EA6E4EE6A
100
AcDbXrecord
280
     1
  1
MP
  1
MP_*
  1
*
  1
*
 70
     0
  1
*
  1
*
  0
XRECORD
  5
EA6E4EE84
102
{ACAD_REACTORS
330
EA6E4EE6A
102
}
330
EA6E4EE6A
100
AcDbXrecord
280
     1
  1
MPR
  1
MPR*
  1
*
  1
*
 70
     0
  1
*
  1
*
  0
XRECORD
  5
EA6E4EE85
102
{ACAD_REACTORS
330
EA6E4EE6A
102
}
330
EA6E4EE6A
100
AcDbXrecord
280
     1
  1
p-
  1
p-*
  1
*
  1
*
 70
     0
  1
*
  1
*
  0
XRECORD
  5
EA6E4EE86
102
{ACAD_REACTORS
330
EA6E4EE6A
102
}
330
EA6E4EE6A
100
AcDbXrecord
280
     1
  1
ST
  1
ST_*
  1
*
  1
*
 70
     0
  1
*
  1
*
  0
XRECORD
  5
EA6E4EE87
102
{ACAD_REACTORS
330
EA6E4EE6A
102
}
330
EA6E4EE6A
100
AcDbXrecord
280
     1
  1
TC
  1
TC_*,0N
  1
*
  1
*
 70
     0
  1
*
  1
*
  0
XRECORD
  5
EA6E4EE88
102
{ACAD_REACTORS
330
EA6E4EE6A
102
}
330
EA6E4EE6A
100
AcDbXrecord
280
     1
  1
TEXT
  1
TEXT
  1
*
  1
*
 70
     0
  1
*
  1
*
  0
XRECORD
  5
EA6E4EE89
102
{ACAD_REACTORS
330
EA6E4EE6A
102
}
330
EA6E4EE6A
100
AcDbXrecord
280
     1
  1
ｹｰﾌﾞﾙ図
  1
*
  1
*
  1
*
 70
     0
  1
*
  1
*
  0
XRECORD
  5
EA6E4EE8A
102
{ACAD_REACTORS
330
EA6E4EE6A
102
}
330
EA6E4EE6A
100
AcDbXrecord
280
     1
  1
０画層
  1
*-0
  1
*
  1
*
 70
     0
  1
*
  1
*
  0
XRECORD
  5
EA6E4EE8B
102
{ACAD_REACTORS
330
EA6E4EE6A
102
}
330
EA6E4EE6A
100
AcDbXrecord
280
     1
  1
３A画層
  1
*-3A
  1
*
  1
*
 70
     0
  1
*
  1
*
  0
XRECORD
  5
EA6E4EE8C
102
{ACAD_REACTORS
330
EA6E4EE6A
102
}
330
EA6E4EE6A
100
AcDbXrecord
280
     1
  1
３画層
  1
*-3
  1
*
  1
*
 70
     0
  1
*
  1
*
  0
DICTIONARY
  5
EA6E4F4DF
330
EA6E4F4DE
100
AcDbDictionary
280
     1
281
     1
  3
ACAD_XREC_ROUNDTRIP
360
EA6E4F4E0
  0
XRECORD
  5
EA6E4F4E0
102
{ACAD_REACTORS
330
EA6E4F4DF
102
}
330
EA6E4F4DF
100
AcDbXrecord
280
     1
102
SHADEPLOT
 70
     0
102
SHADEPLOTRESLEVEL
 70
     2
102
SHADEPLOTCUSTOMDPI
 70
   300
  0
ENDSEC
  0
EOF
