  0
SECTION
  2
HEADER
  9
$ACADVER
  1
AC1015
  9
$ACADMAINTVER
 70
    10
  9
$DWGCODEPAGE
  3
ANSI_932
  9
$INSBASE
 10
0.0
 20
0.0
 30
0.0
  9
$EXTMIN
 10
-6.899362616384223
 20
554.8384786256665
 30
-0.000000000000013
  9
$EXTMAX
 10
355.1487421584409
 20
1100.871246225937
 30
0.0000000000000023
  9
$LIMMIN
 10
-6.873773957468984
 20
554.8658161267071
  9
$LIMMAX
 10
355.1262256278414
 20
1100.865816126707
  9
$ORTHOMODE
 70
     1
  9
$REGENMODE
 70
     1
  9
$FILLMODE
 70
     1
  9
$QTEXTMODE
 70
     0
  9
$MIRRTEXT
 70
     0
  9
$LTSCALE
 40
10.0
  9
$ATTMODE
 70
     1
  9
$TEXTSIZE
 40
6.0
  9
$TRACEWID
 40
0.05
  9
$TEXTSTYLE
  7
ROMANS
  9
$CLAYER
  8
JISSEN
  9
$CELTYPE
  6
BYLAYER
  9
$CECOLOR
 62
   256
  9
$CELTSCALE
 40
1.0
  9
$DISPSILH
 70
     0
  9
$DIMSCALE
 40
2.0
  9
$DIMASZ
 40
1.5
  9
$DIMEXO
 40
1.0
  9
$DIMDLI
 40
6.0
  9
$DIMRND
 40
0.0
  9
$DIMDLE
 40
0.0
  9
$DIMEXE
 40
1.0
  9
$DIMTP
 40
495.0
  9
$DIMTM
 40
0.0
  9
$DIMTXT
 40
3.0
  9
$DIMCEN
 40
0.0
  9
$DIMTSZ
 40
0.0
  9
$DIMTOL
 70
     0
  9
$DIMLIM
 70
     0
  9
$DIMTIH
 70
     0
  9
$DIMTOH
 70
     0
  9
$DIMSE1
 70
     0
  9
$DIMSE2
 70
     0
  9
$DIMTAD
 70
     1
  9
$DIMZIN
 70
     8
  9
$DIMBLK
  1
ARROW
  9
$DIMASO
 70
     0
  9
$DIMSHO
 70
     0
  9
$DIMPOST
  1

  9
$DIMAPOST
  1

  9
$DIMALT
 70
     0
  9
$DIMALTD
 70
     2
  9
$DIMALTF
 40
25.4
  9
$DIMLFAC
 40
1.0
  9
$DIMTOFL
 70
     1
  9
$DIMTVP
 40
0.0
  9
$DIMTIX
 70
     1
  9
$DIMSOXD
 70
     0
  9
$DIMSAH
 70
     0
  9
$DIMBLK1
  1

  9
$DIMBLK2
  1

  9
$DIMSTYLE
  2
IMAO
  9
$DIMCLRD
 70
     0
  9
$DIMCLRE
 70
     0
  9
$DIMCLRT
 70
     0
  9
$DIMTFAC
 40
1.0
  9
$DIMGAP
 40
0.09
  9
$DIMJUST
 70
     0
  9
$DIMSD1
 70
     0
  9
$DIMSD2
 70
     0
  9
$DIMTOLJ
 70
     1
  9
$DIMTZIN
 70
     8
  9
$DIMALTZ
 70
     8
  9
$DIMALTTZ
 70
     8
  9
$DIMUPT
 70
     0
  9
$DIMDEC
 70
     2
  9
$DIMTDEC
 70
     2
  9
$DIMALTU
 70
     2
  9
$DIMALTTD
 70
     2
  9
$DIMTXSTY
  7
ROMANS
  9
$DIMAUNIT
 70
     0
  9
$DIMADEC
 70
     0
  9
$DIMALTRND
 40
0.0
  9
$DIMAZIN
 70
     0
  9
$DIMDSEP
 70
    46
  9
$DIMATFIT
 70
     3
  9
$DIMFRAC
 70
     0
  9
$DIMLDRBLK
  1
ARROW
  9
$DIMLUNIT
 70
     2
  9
$DIMLWD
 70
    -2
  9
$DIMLWE
 70
    -2
  9
$DIMTMOVE
 70
     0
  9
$LUNITS
 70
     2
  9
$LUPREC
 70
     2
  9
$SKETCHINC
 40
0.1
  9
$FILLETRAD
 40
3.0
  9
$AUNITS
 70
     0
  9
$AUPREC
 70
     2
  9
$MENU
  1
stdr12j
  9
$ELEVATION
 40
0.0
  9
$PELEVATION
 40
0.0
  9
$THICKNESS
 40
0.0
  9
$LIMCHECK
 70
     0
  9
$CHAMFERA
 40
0.0
  9
$CHAMFERB
 40
0.0
  9
$CHAMFERC
 40
0.0
  9
$CHAMFERD
 40
0.0
  9
$SKPOLY
 70
     0
  9
$TDCREATE
 40
2449876.477257986
  9
$TDUCREATE
 40
2449876.102257986
  9
$TDUPDATE
 40
2455133.473281828
  9
$TDUUPDATE
 40
2455133.098281828
  9
$TDINDWG
 40
0.1410067361
  9
$TDUSRTIMER
 40
0.1410066204
  9
$USRTIMER
 70
     1
  9
$ANGBASE
 50
0.0
  9
$ANGDIR
 70
     0
  9
$PDMODE
 70
     0
  9
$PDSIZE
 40
0.0
  9
$PLINEWID
 40
0.0
  9
$SPLFRAME
 70
     0
  9
$SPLINETYPE
 70
     6
  9
$SPLINESEGS
 70
     8
  9
$HANDSEED
  5
EA6E571C4
  9
$SURFTAB1
 70
     6
  9
$SURFTAB2
 70
     6
  9
$SURFTYPE
 70
     6
  9
$SURFU
 70
     6
  9
$SURFV
 70
     6
  9
$UCSBASE
  2

  9
$UCSNAME
  2

  9
$UCSORG
 10
0.0
 20
0.0
 30
0.0
  9
$UCSXDIR
 10
1.0
 20
0.0
 30
0.0
  9
$UCSYDIR
 10
0.0
 20
1.0
 30
0.0
  9
$UCSORTHOREF
  2

  9
$UCSORTHOVIEW
 70
     0
  9
$UCSORGTOP
 10
0.0
 20
0.0
 30
0.0
  9
$UCSORGBOTTOM
 10
0.0
 20
0.0
 30
0.0
  9
$UCSORGLEFT
 10
0.0
 20
0.0
 30
0.0
  9
$UCSORGRIGHT
 10
0.0
 20
0.0
 30
0.0
  9
$UCSORGFRONT
 10
0.0
 20
0.0
 30
0.0
  9
$UCSORGBACK
 10
0.0
 20
0.0
 30
0.0
  9
$PUCSBASE
  2

  9
$PUCSNAME
  2

  9
$PUCSORG
 10
0.0
 20
0.0
 30
0.0
  9
$PUCSXDIR
 10
1.0
 20
0.0
 30
0.0
  9
$PUCSYDIR
 10
0.0
 20
1.0
 30
0.0
  9
$PUCSORTHOREF
  2

  9
$PUCSORTHOVIEW
 70
     0
  9
$PUCSORGTOP
 10
0.0
 20
0.0
 30
0.0
  9
$PUCSORGBOTTOM
 10
0.0
 20
0.0
 30
0.0
  9
$PUCSORGLEFT
 10
0.0
 20
0.0
 30
0.0
  9
$PUCSORGRIGHT
 10
0.0
 20
0.0
 30
0.0
  9
$PUCSORGFRONT
 10
0.0
 20
0.0
 30
0.0
  9
$PUCSORGBACK
 10
0.0
 20
0.0
 30
0.0
  9
$USERI1
 70
     4
  9
$USERI2
 70
     1
  9
$USERI3
 70
     2
  9
$USERI4
 70
     2
  9
$USERI5
 70
     0
  9
$USERR1
 40
2.0
  9
$USERR2
 40
3.0
  9
$USERR3
 40
3.0
  9
$USERR4
 40
1.5
  9
$USERR5
 40
10.0
  9
$WORLDVIEW
 70
     1
  9
$SHADEDGE
 70
     3
  9
$SHADEDIF
 70
    70
  9
$TILEMODE
 70
     1
  9
$MAXACTVP
 70
    16
  9
$PINSBASE
 10
0.0
 20
0.0
 30
0.0
  9
$PLIMCHECK
 70
     0
  9
$PEXTMIN
 10
1.000000000000000E+20
 20
1.000000000000000E+20
 30
1.000000000000000E+20
  9
$PEXTMAX
 10
-1.000000000000000E+20
 20
-1.000000000000000E+20
 30
-1.000000000000000E+20
  9
$PLIMMIN
 10
0.0
 20
0.0
  9
$PLIMMAX
 10
12.0
 20
9.0
  9
$UNITMODE
 70
     0
  9
$VISRETAIN
 70
     0
  9
$PLINEGEN
 70
     0
  9
$PSLTSCALE
 70
     0
  9
$TREEDEPTH
 70
  3020
  9
$CMLSTYLE
  2
STANDARD
  9
$CMLJUST
 70
     0
  9
$CMLSCALE
 40
1.0
  9
$PROXYGRAPHICS
 70
     1
  9
$MEASUREMENT
 70
     0
  9
$CELWEIGHT
370
    -1
  9
$ENDCAPS
280
     0
  9
$JOINSTYLE
280
     0
  9
$LWDISPLAY
290
     0
  9
$INSUNITS
 70
     0
  9
$HYPERLINKBASE
  1

  9
$STYLESHEET
  1

  9
$XEDIT
290
     1
  9
$CEPSNTYPE
380
     0
  9
$PSTYLEMODE
290
     1
  9
$FINGERPRINTGUID
  2
{9ED4B7E8-4B02-4EC4-A908-0D7ADED925D2}
  9
$VERSIONGUID
  2
{CBC81AE1-D8D3-4692-A493-EDB4668F61FC}
  9
$EXTNAMES
290
     1
  9
$PSVPSCALE
 40
0.0
  9
$OLESTARTUP
290
     0
  0
ENDSEC
  0
SECTION
  2
CLASSES
  0
CLASS
  1
LWPOLYLINE
  2
AcDbPolyline
  3
AutoCAD 2000
 90
    32768
280
     0
281
     1
  0
CLASS
  1
DICTIONARYVAR
  2
AcDbDictionaryVar
  3
AutoCAD 2000
 90
        0
280
     0
281
     0
  0
CLASS
  1
HATCH
  2
AcDbHatch
  3
AutoCAD 2000
 90
    32768
280
     0
281
     1
  0
CLASS
  1
ACDBDICTIONARYWDFLT
  2
AcDbDictionaryWithDefault
  3
AutoCAD 2000
 90
        0
280
     0
281
     0
  0
CLASS
  1
ACDBPLACEHOLDER
  2
AcDbPlaceHolder
  3
AutoCAD 2000
 90
        0
280
     0
281
     0
  0
CLASS
  1
LAYOUT
  2
AcDbLayout
  3
AutoCAD 2000
 90
        0
280
     0
281
     0
  0
CLASS
  1
LONG_TRANSACTION
  2
AcDbLongTransaction
  3
AutoCAD 2000
 90
    32768
280
     0
281
     0
  0
CLASS
  1
LWPOLYLINE
  2
AcDbPolyline
  3
AutoCAD 2000
 90
    32768
280
     0
281
     1
  0
CLASS
  1
HATCH
  2
AcDbHatch
  3
AutoCAD 2000
 90
    32768
280
     0
281
     1
  0
CLASS
  1
XRECORD
  2
AcDbXrecord
  3
AutoCAD 2000
 90
    32768
280
     0
281
     0
  0
CLASS
  1
LONG_TRANSACTION
  2
AcDbLongTransaction
  3
AutoCAD 2000
 90
    32768
280
     0
281
     0
  0
CLASS
  1
LWPOLYLINE
  2
AcDbPolyline
  3
AutoCAD 2000
 90
    32768
280
     0
281
     1
  0
CLASS
  1
HATCH
  2
AcDbHatch
  3
AutoCAD 2000
 90
    32768
280
     0
281
     1
  0
CLASS
  1
XRECORD
  2
AcDbXrecord
  3
AutoCAD 2000
 90
    32768
280
     0
281
     0
  0
CLASS
  1
LONG_TRANSACTION
  2
AcDbLongTransaction
  3
AutoCAD 2000
 90
    32768
280
     0
281
     0
  0
CLASS
  1
LWPOLYLINE
  2
AcDbPolyline
  3
AutoCAD 2000
 90
    32768
280
     0
281
     1
  0
CLASS
  1
HATCH
  2
AcDbHatch
  3
AutoCAD 2000
 90
    32768
280
     0
281
     1
  0
CLASS
  1
XRECORD
  2
AcDbXrecord
  3
AutoCAD 2000
 90
    32768
280
     0
281
     0
  0
CLASS
  1
LONG_TRANSACTION
  2
AcDbLongTransaction
  3
AutoCAD 2000
 90
    32768
280
     0
281
     0
  0
CLASS
  1
LWPOLYLINE
  2
AcDbPolyline
  3
AutoCAD 2000
 90
    32768
280
     0
281
     1
  0
CLASS
  1
HATCH
  2
AcDbHatch
  3
AutoCAD 2000
 90
    32768
280
     0
281
     1
  0
CLASS
  1
XRECORD
  2
AcDbXrecord
  3
AutoCAD 2000
 90
    32768
280
     0
281
     0
  0
CLASS
  1
LONG_TRANSACTION
  2
AcDbLongTransaction
  3
AutoCAD 2000
 90
    32768
280
     0
281
     0
  0
CLASS
  1
LWPOLYLINE
  2
AcDbPolyline
  3
AutoCAD 2000
 90
    32768
280
     0
281
     1
  0
CLASS
  1
HATCH
  2
AcDbHatch
  3
AutoCAD 2000
 90
    32768
280
     0
281
     1
  0
CLASS
  1
XRECORD
  2
AcDbXrecord
  3
AutoCAD 2000
 90
    32768
280
     0
281
     0
  0
CLASS
  1
PLOTSETTINGS
  2
AcDbPlotSettings
  3
AutoCAD 2000
 90
        0
280
     0
281
     0
  0
ENDSEC
  0
SECTION
  2
TABLES
  0
TABLE
  2
VPORT
  5
EA6E4DC83
330
0
100
AcDbSymbolTable
 70
    10
  0
VPORT
  5
EA6E4DCBB
330
EA6E4DC83
100
AcDbSymbolTableRecord
100
AcDbViewportTableRecord
  2
2
 70
     0
 10
0.5
 20
0.0
 11
1.0
 21
1.0
 12
0.924031
 22
1.052651
 13
0.0
 23
0.0
 14
1.0
 24
1.0
 15
10.0
 25
10.0
 16
0.0
 26
0.0
 36
1.0
 17
0.0
 27
0.0
 37
0.0
 40
2.105302
 41
0.877814
 42
50.0
 43
0.0
 44
0.0
 50
0.0
 51
0.0
 71
     0
 72
   500
 73
     1
 74
     1
 75
     0
 76
     0
 77
     0
 78
     0
281
     0
 65
     1
110
0.0
120
0.0
130
0.0
111
1.0
121
0.0
131
0.0
112
0.0
122
1.0
132
0.0
 79
     0
146
0.0
  0
VPORT
  5
EA6E4DCBC
330
EA6E4DC83
100
AcDbSymbolTableRecord
100
AcDbViewportTableRecord
  2
2
 70
     0
 10
0.0
 20
0.0
 11
0.5
 21
1.0
 12
0.924031
 22
1.052651
 13
0.0
 23
0.0
 14
1.0
 24
1.0
 15
10.0
 25
10.0
 16
0.0
 26
0.0
 36
1.0
 17
0.0
 27
0.0
 37
0.0
 40
2.105302
 41
0.877814
 42
50.0
 43
0.0
 44
0.0
 50
0.0
 51
0.0
 71
     0
 72
   500
 73
     1
 74
     1
 75
     0
 76
     0
 77
     0
 78
     0
281
     0
 65
     1
110
0.0
120
0.0
130
0.0
111
1.0
121
0.0
131
0.0
112
0.0
122
1.0
132
0.0
 79
     0
146
0.0
  0
VPORT
  5
EA6E4DCBD
330
EA6E4DC83
100
AcDbSymbolTableRecord
100
AcDbViewportTableRecord
  2
3
 70
     0
 10
0.0
 20
0.5
 11
1.0
 21
1.0
 12
2.832169999999998
 22
1.052651
 13
0.0
 23
0.0
 14
1.0
 24
1.0
 15
10.0
 25
10.0
 16
0.0
 26
0.0
 36
1.0
 17
0.0
 27
0.0
 37
0.0
 40
2.105302
 41
3.571429
 42
50.0
 43
0.0
 44
0.0
 50
0.0
 51
0.0
 71
     0
 72
   500
 73
     1
 74
     1
 75
     0
 76
     0
 77
     0
 78
     0
281
     0
 65
     1
110
0.0
120
0.0
130
0.0
111
1.0
121
0.0
131
0.0
112
0.0
122
1.0
132
0.0
 79
     0
146
0.0
  0
VPORT
  5
EA6E4DCBE
330
EA6E4DC83
100
AcDbSymbolTableRecord
100
AcDbViewportTableRecord
  2
3
 70
     0
 10
0.0
 20
0.0
 11
1.0
 21
0.5
 12
2.856741999999998
 22
1.052651
 13
0.0
 23
0.0
 14
1.0
 24
1.0
 15
10.0
 25
10.0
 16
0.0
 26
0.0
 36
1.0
 17
0.0
 27
0.0
 37
0.0
 40
2.105302
 41
3.594770999999998
 42
50.0
 43
0.0
 44
0.0
 50
0.0
 51
0.0
 71
     0
 72
   500
 73
     1
 74
     1
 75
     0
 76
     0
 77
     0
 78
     0
281
     0
 65
     1
110
0.0
120
0.0
130
0.0
111
1.0
121
0.0
131
0.0
112
0.0
122
1.0
132
0.0
 79
     0
146
0.0
  0
VPORT
  5
EA6E4DCBF
330
EA6E4DC83
100
AcDbSymbolTableRecord
100
AcDbViewportTableRecord
  2
4
 70
     0
 10
0.5
 20
0.0
 11
1.0
 21
0.5
 12
2.886858
 22
1.052651
 13
0.0
 23
0.0
 14
1.0
 24
1.0
 15
10.0
 25
10.0
 16
0.0
 26
0.0
 36
1.0
 17
0.0
 27
0.0
 37
0.0
 40
4.275206999999999
 41
1.784314
 42
50.0
 43
0.0
 44
0.0
 50
0.0
 51
0.0
 71
     0
 72
   500
 73
     1
 74
     1
 75
     0
 76
     0
 77
     0
 78
     0
281
     0
 65
     1
110
0.0
120
0.0
130
0.0
111
1.0
121
0.0
131
0.0
112
0.0
122
1.0
132
0.0
 79
     0
146
0.0
  0
VPORT
  5
EA6E4DCC0
330
EA6E4DC83
100
AcDbSymbolTableRecord
100
AcDbViewportTableRecord
  2
4
 70
     0
 10
0.5
 20
0.5
 11
1.0
 21
1.0
 12
2.86209
 22
1.052651
 13
0.0
 23
0.0
 14
1.0
 24
1.0
 15
10.0
 25
10.0
 16
0.0
 26
0.0
 36
1.0
 17
0.0
 27
0.0
 37
0.0
 40
4.275206999999999
 41
1.772726999999999
 42
50.0
 43
0.0
 44
0.0
 50
0.0
 51
0.0
 71
     0
 72
   500
 73
     1
 74
     1
 75
     0
 76
     0
 77
     0
 78
     0
281
     0
 65
     1
110
0.0
120
0.0
130
0.0
111
1.0
121
0.0
131
0.0
112
0.0
122
1.0
132
0.0
 79
     0
146
0.0
  0
VPORT
  5
EA6E4DCC1
330
EA6E4DC83
100
AcDbSymbolTableRecord
100
AcDbViewportTableRecord
  2
4
 70
     0
 10
0.0
 20
0.5
 11
0.5
 21
1.0
 12
2.86209
 22
1.052651
 13
0.0
 23
0.0
 14
1.0
 24
1.0
 15
10.0
 25
10.0
 16
0.0
 26
0.0
 36
1.0
 17
0.0
 27
0.0
 37
0.0
 40
4.275206999999999
 41
1.772726999999999
 42
50.0
 43
0.0
 44
0.0
 50
0.0
 51
0.0
 71
     0
 72
   500
 73
     1
 74
     1
 75
     0
 76
     0
 77
     0
 78
     0
281
     0
 65
     1
110
0.0
120
0.0
130
0.0
111
1.0
121
0.0
131
0.0
112
0.0
122
1.0
132
0.0
 79
     0
146
0.0
  0
VPORT
  5
EA6E4DCC2
330
EA6E4DC83
100
AcDbSymbolTableRecord
100
AcDbViewportTableRecord
  2
4
 70
     0
 10
0.0
 20
0.0
 11
0.5
 21
0.5
 12
2.886858
 22
1.052651
 13
0.0
 23
0.0
 14
1.0
 24
1.0
 15
10.0
 25
10.0
 16
0.0
 26
0.0
 36
1.0
 17
0.0
 27
0.0
 37
0.0
 40
4.275206999999999
 41
1.784314
 42
50.0
 43
0.0
 44
0.0
 50
0.0
 51
0.0
 71
     0
 72
   500
 73
     1
 74
     1
 75
     0
 76
     0
 77
     0
 78
     0
281
     0
 65
     1
110
0.0
120
0.0
130
0.0
111
1.0
121
0.0
131
0.0
112
0.0
122
1.0
132
0.0
 79
     0
146
0.0
  0
VPORT
  5
EA6E571C3
330
EA6E4DC83
100
AcDbSymbolTableRecord
100
AcDbViewportTableRecord
  2
*Active
 70
     0
 10
0.0
 20
0.0
 11
1.0
 21
1.0
 12
174.1246897710283
 22
827.8548624258018
 13
0.0
 23
0.0
 14
1.0
 24
1.0
 15
10.0
 25
10.0
 16
0.0
 26
0.0
 36
1.0
 17
0.0
 27
0.0
 37
0.0
 40
550.0330076559503
 41
1.537897310513447
 42
50.0
 43
0.0
 44
0.0
 50
0.0
 51
0.0
 71
     0
 72
   500
 73
     1
 74
     0
 75
     0
 76
     0
 77
     0
 78
     0
281
     0
 65
     1
110
0.0
120
0.0
130
0.0
111
1.0
121
0.0
131
0.0
112
0.0
122
1.0
132
0.0
 79
     0
146
0.0
  0
ENDTAB
  0
TABLE
  2
LTYPE
  5
EA6E4DC80
330
0
100
AcDbSymbolTable
 70
    26
  0
LTYPE
  5
EA6E4DC8C
330
EA6E4DC80
100
AcDbSymbolTableRecord
100
AcDbLinetypeTableRecord
  2
BYBLOCK
 70
     0
  3

 72
    65
 73
     0
 40
0.0
  0
LTYPE
  5
EA6E4DC8D
330
EA6E4DC80
100
AcDbSymbolTableRecord
100
AcDbLinetypeTableRecord
  2
BYLAYER
 70
     0
  3

 72
    65
 73
     0
 40
0.0
  0
LTYPE
  5
EA6E4DC8E
330
EA6E4DC80
100
AcDbSymbolTableRecord
100
AcDbLinetypeTableRecord
  2
CONTINUOUS
 70
     0
  3
実線
 72
    65
 73
     0
 40
0.0
  0
LTYPE
  5
EA6E4DCBA
330
EA6E4DC80
100
AcDbSymbolTableRecord
100
AcDbLinetypeTableRecord
  2
HIDDEN
 70
     0
  3
_ _ _ _ _ _ _ _ _ _ _ _ _ _ _ _ _ _ _ _ _ _ _
 72
    65
 73
     2
 40
0.375
 49
0.25
 74
     0
 49
-0.125
 74
     0
  0
LTYPE
  5
EA6E4E3D4
330
EA6E4DC80
100
AcDbSymbolTableRecord
100
AcDbLinetypeTableRecord
  2
CENTER
 70
     0
  3
____ _ ____ _ ____ _ ____ _ ____ _ ____ _ ____
 72
    65
 73
     4
 40
2.0
 49
1.25
 74
     0
 49
-0.25
 74
     0
 49
0.25
 74
     0
 49
-0.25
 74
     0
  0
LTYPE
  5
EA6E4F3EF
330
EA6E4DC80
100
AcDbSymbolTableRecord
100
AcDbLinetypeTableRecord
  2
DASHED
 70
     0
  3
Dashed __ __ __ __ __ __ __ __ __ __ __ __ __ _
 72
    65
 73
     2
 40
0.75
 49
0.5
 74
     0
 49
-0.25
 74
     0
  0
LTYPE
  5
EA6E4F3F0
330
EA6E4DC80
100
AcDbSymbolTableRecord
100
AcDbLinetypeTableRecord
  2
BREAK
 70
     0
  3
破線（通常）
 72
    65
 73
     2
 40
4.0
 49
3.0
 74
     0
 49
-1.0
 74
     0
  0
LTYPE
  5
EA6E4F3F1
330
EA6E4DC80
100
AcDbSymbolTableRecord
100
AcDbLinetypeTableRecord
  2
DASHDOT
 70
     0
  3
__ . __ . __ .
 72
    65
 73
     4
 40
7.81578947368421
 49
3.907894736842104
 74
     0
 49
-1.953947368421053
 74
     0
 49
0.0
 74
     0
 49
-1.953947368421053
 74
     0
  0
LTYPE
  5
EA6E4F3F2
330
EA6E4DC80
100
AcDbSymbolTableRecord
100
AcDbLinetypeTableRecord
  2
PHANTOM
 70
     0
  3
_____ _ _ _____ _ _ _____ _ _ _____ _ _ ____
 72
    65
 73
     6
 40
2.5
 49
1.25
 74
     0
 49
-0.25
 74
     0
 49
0.25
 74
     0
 49
-0.25
 74
     0
 49
0.25
 74
     0
 49
-0.25
 74
     0
  0
LTYPE
  5
EA6E4F3F3
330
EA6E4DC80
100
AcDbSymbolTableRecord
100
AcDbLinetypeTableRecord
  2
BORDER
 70
     0
  3
Border __ __ . __ __ . __ __ . __ __ . __ __ .
 72
    65
 73
     6
 40
1.75
 49
0.5
 74
     0
 49
-0.25
 74
     0
 49
0.5
 74
     0
 49
-0.25
 74
     0
 49
0.0
 74
     0
 49
-0.25
 74
     0
  0
LTYPE
  5
EA6E4F3F4
330
EA6E4DC80
100
AcDbSymbolTableRecord
100
AcDbLinetypeTableRecord
  2
BORDER2
 70
     0
  3
Border (.5x) __.__.__.__.__.__.__.__.__.__.__.
 72
    65
 73
     6
 40
0.875
 49
0.25
 74
     0
 49
-0.125
 74
     0
 49
0.25
 74
     0
 49
-0.125
 74
     0
 49
0.0
 74
     0
 49
-0.125
 74
     0
  0
LTYPE
  5
EA6E4F3F5
330
EA6E4DC80
100
AcDbSymbolTableRecord
100
AcDbLinetypeTableRecord
  2
BORDERX2
 70
     0
  3
Border (2x) ____  ____  .  ____  ____  .  ___
 72
    65
 73
     6
 40
3.5
 49
1.0
 74
     0
 49
-0.5
 74
     0
 49
1.0
 74
     0
 49
-0.5
 74
     0
 49
0.0
 74
     0
 49
-0.5
 74
     0
  0
LTYPE
  5
EA6E4F3F6
330
EA6E4DC80
100
AcDbSymbolTableRecord
100
AcDbLinetypeTableRecord
  2
CENTER2
 70
     0
  3
Center (.5x) ___ _ ___ _ ___ _ ___ _ ___ _ ___
 72
    65
 73
     4
 40
1.125
 49
0.75
 74
     0
 49
-0.125
 74
     0
 49
0.125
 74
     0
 49
-0.125
 74
     0
  0
LTYPE
  5
EA6E4F3F7
330
EA6E4DC80
100
AcDbSymbolTableRecord
100
AcDbLinetypeTableRecord
  2
CENTERX2
 70
     0
  3
Center (2x) ________  __  ________  __  _____
 72
    65
 73
     4
 40
4.0
 49
2.5
 74
     0
 49
-0.5
 74
     0
 49
0.5
 74
     0
 49
-0.5
 74
     0
  0
LTYPE
  5
EA6E4F3F8
330
EA6E4DC80
100
AcDbSymbolTableRecord
100
AcDbLinetypeTableRecord
  2
DASHDOT2
 70
     0
  3
Dash dot (.5x) _._._._._._._._._._._._._._._.
 72
    65
 73
     4
 40
0.5
 49
0.25
 74
     0
 49
-0.125
 74
     0
 49
0.0
 74
     0
 49
-0.125
 74
     0
  0
LTYPE
  5
EA6E4F3F9
330
EA6E4DC80
100
AcDbSymbolTableRecord
100
AcDbLinetypeTableRecord
  2
DASHDOTX2
 70
     0
  3
Dash dot (2x) ____  .  ____  .  ____  .  ___
 72
    65
 73
     4
 40
2.0
 49
1.0
 74
     0
 49
-0.5
 74
     0
 49
0.0
 74
     0
 49
-0.5
 74
     0
  0
LTYPE
  5
EA6E4F3FA
330
EA6E4DC80
100
AcDbSymbolTableRecord
100
AcDbLinetypeTableRecord
  2
DASHED2
 70
     0
  3
Dashed (.5x) _ _ _ _ _ _ _ _ _ _ _ _ _ _ _ _ _
 72
    65
 73
     2
 40
0.375
 49
0.25
 74
     0
 49
-0.125
 74
     0
  0
LTYPE
  5
EA6E4F3FB
330
EA6E4DC80
100
AcDbSymbolTableRecord
100
AcDbLinetypeTableRecord
  2
DASHEDX2
 70
     0
  3
Dashed (2x) ____  ____  ____  ____  ____  ___
 72
    65
 73
     2
 40
1.5
 49
1.0
 74
     0
 49
-0.5
 74
     0
  0
LTYPE
  5
EA6E4F3FC
330
EA6E4DC80
100
AcDbSymbolTableRecord
100
AcDbLinetypeTableRecord
  2
DIVIDE
 70
     0
  3
Divide ____ . . ____ . . ____ . . ____ . . ____
 72
    65
 73
     6
 40
1.25
 49
0.5
 74
     0
 49
-0.25
 74
     0
 49
0.0
 74
     0
 49
-0.25
 74
     0
 49
0.0
 74
     0
 49
-0.25
 74
     0
  0
LTYPE
  5
EA6E4F3FD
330
EA6E4DC80
100
AcDbSymbolTableRecord
100
AcDbLinetypeTableRecord
  2
DIVIDE2
 70
     0
  3
Divide (.5x) __..__..__..__..__..__..__..__.._
 72
    65
 73
     6
 40
0.625
 49
0.25
 74
     0
 49
-0.125
 74
     0
 49
0.0
 74
     0
 49
-0.125
 74
     0
 49
0.0
 74
     0
 49
-0.125
 74
     0
  0
LTYPE
  5
EA6E4F3FE
330
EA6E4DC80
100
AcDbSymbolTableRecord
100
AcDbLinetypeTableRecord
  2
DIVIDEX2
 70
     0
  3
Divide (2x) ________  .  .  ________  .  .  _
 72
    65
 73
     6
 40
2.5
 49
1.0
 74
     0
 49
-0.5
 74
     0
 49
0.0
 74
     0
 49
-0.5
 74
     0
 49
0.0
 74
     0
 49
-0.5
 74
     0
  0
LTYPE
  5
EA6E4F3FF
330
EA6E4DC80
100
AcDbSymbolTableRecord
100
AcDbLinetypeTableRecord
  2
DOT
 70
     0
  3
Dot . . . . . . . . . . . . . . . . . . . . . .
 72
    65
 73
     2
 40
0.25
 49
0.0
 74
     0
 49
-0.25
 74
     0
  0
LTYPE
  5
EA6E4F400
330
EA6E4DC80
100
AcDbSymbolTableRecord
100
AcDbLinetypeTableRecord
  2
DOT2
 70
     0
  3
Dot (.5x) .....................................
 72
    65
 73
     2
 40
0.125
 49
0.0
 74
     0
 49
-0.125
 74
     0
  0
LTYPE
  5
EA6E4F401
330
EA6E4DC80
100
AcDbSymbolTableRecord
100
AcDbLinetypeTableRecord
  2
DOTX2
 70
     0
  3
Dot (2x) .  .  .  .  .  .  .  .  .  .  .  .  . 
 72
    65
 73
     2
 40
0.5
 49
0.0
 74
     0
 49
-0.5
 74
     0
  0
LTYPE
  5
EA6E4F402
330
EA6E4DC80
100
AcDbSymbolTableRecord
100
AcDbLinetypeTableRecord
  2
HIDDEN2
 70
     0
  3
Hidden (.5x) _ _ _ _ _ _ _ _ _ _ _ _ _ _ _ _ _
 72
    65
 73
     2
 40
0.1875
 49
0.125
 74
     0
 49
-0.0625
 74
     0
  0
LTYPE
  5
EA6E4F403
330
EA6E4DC80
100
AcDbSymbolTableRecord
100
AcDbLinetypeTableRecord
  2
HIDDENX2
 70
     0
  3
Hidden (2x) ____ ____ ____ ____ ____ ____ ____
 72
    65
 73
     2
 40
0.75
 49
0.5
 74
     0
 49
-0.25
 74
     0
  0
LTYPE
  5
EA6E4F404
330
EA6E4DC80
100
AcDbSymbolTableRecord
100
AcDbLinetypeTableRecord
  2
PHANTOM2
 70
     0
  3
Phantom (.5x) ___ _ _ ___ _ _ ___ _ _ ___ _ _
 72
    65
 73
     6
 40
1.25
 49
0.625
 74
     0
 49
-0.125
 74
     0
 49
0.125
 74
     0
 49
-0.125
 74
     0
 49
0.125
 74
     0
 49
-0.125
 74
     0
  0
LTYPE
  5
EA6E4F405
330
EA6E4DC80
100
AcDbSymbolTableRecord
100
AcDbLinetypeTableRecord
  2
PHANTOMX2
 70
     0
  3
Phantom (2x) ____________    ____    ____   _
 72
    65
 73
     6
 40
5.0
 49
2.5
 74
     0
 49
-0.5
 74
     0
 49
0.5
 74
     0
 49
-0.5
 74
     0
 49
0.5
 74
     0
 49
-0.5
 74
     0
  0
ENDTAB
  0
TABLE
  2
LAYER
  5
EA6E4DC7D
102
{ACAD_XDICTIONARY
360
EA6E4E3D8
102
}
330
0
100
AcDbSymbolTable
 70
    30
  0
LAYER
  5
EA6E4DC89
330
EA6E4DC7D
100
AcDbSymbolTableRecord
100
AcDbLayerTableRecord
  2
0
 70
     0
 62
     6
  6
CONTINUOUS
370
    -3
390
EA6E4E123
  0
LAYER
  5
EA6E4DCCA
330
EA6E4DC7D
100
AcDbSymbolTableRecord
100
AcDbLayerTableRecord
  2
SUNPOU
 70
     0
 62
     3
  6
CONTINUOUS
370
    -3
390
EA6E4E123
  0
LAYER
  5
EA6E4DCCB
330
EA6E4DC7D
100
AcDbSymbolTableRecord
100
AcDbLayerTableRecord
  2
TEXT
 70
     0
 62
     3
  6
CONTINUOUS
370
    -3
390
EA6E4E123
  0
LAYER
  5
EA6E4DCCC
330
EA6E4DC7D
100
AcDbSymbolTableRecord
100
AcDbLayerTableRecord
  2
SAISEN
 70
     0
 62
     4
  6
CONTINUOUS
370
    -3
390
EA6E4E123
  0
LAYER
  5
EA6E4DCCD
330
EA6E4DC7D
100
AcDbSymbolTableRecord
100
AcDbLayerTableRecord
  2
JISSEN
 70
     0
 62
     7
  6
CONTINUOUS
370
    -3
390
EA6E4E123
  0
LAYER
  5
EA6E4DCCF
330
EA6E4DC7D
100
AcDbSymbolTableRecord
100
AcDbLayerTableRecord
  2
TENSEN
 70
     0
 62
     2
  6
HIDDEN
370
    -3
390
EA6E4E123
  0
LAYER
  5
EA6E4DCD1
330
EA6E4DC7D
100
AcDbSymbolTableRecord
100
AcDbLayerTableRecord
  2
WAKU
 70
     0
 62
     5
  6
CONTINUOUS
370
    -3
390
EA6E4E123
  0
LAYER
  5
EA6E4E3D5
330
EA6E4DC7D
100
AcDbSymbolTableRecord
100
AcDbLayerTableRecord
  2
ITTEN
 70
     0
 62
     1
  6
CENTER
370
    -3
390
EA6E4E123
  0
LAYER
  5
EA6E4E3D6
330
EA6E4DC7D
100
AcDbSymbolTableRecord
100
AcDbLayerTableRecord
  2
HATCH
 70
     0
 62
     4
  6
CONTINUOUS
370
    -3
390
EA6E4E123
  0
LAYER
  5
EA6E4F406
330
EA6E4DC7D
100
AcDbSymbolTableRecord
100
AcDbLayerTableRecord
  2
1
 70
     0
 62
     6
  6
CONTINUOUS
370
    -3
390
EA6E4E123
  0
LAYER
  5
EA6E4F407
330
EA6E4DC7D
100
AcDbSymbolTableRecord
100
AcDbLayerTableRecord
  2
Defpoints
 70
     0
 62
     7
  6
CONTINUOUS
290
     0
370
    -3
390
EA6E4E123
  0
LAYER
  5
EA6E4F408
102
{ACAD_XDICTIONARY
360
EA6E4F409
102
}
330
EA6E4DC7D
100
AcDbSymbolTableRecord
100
AcDbLayerTableRecord
  2
BORDER
 70
     0
 62
     5
  6
CONTINUOUS
370
    -3
390
EA6E4E123
  0
LAYER
  5
EA6E4F40C
102
{ACAD_XDICTIONARY
360
EA6E4F40D
102
}
330
EA6E4DC7D
100
AcDbSymbolTableRecord
100
AcDbLayerTableRecord
  2
HOJYO
 70
     0
 62
     7
  6
CONTINUOUS
370
    -3
390
EA6E4E123
  0
LAYER
  5
EA6E4F410
102
{ACAD_XDICTIONARY
360
EA6E4F411
102
}
330
EA6E4DC7D
100
AcDbSymbolTableRecord
100
AcDbLayerTableRecord
  2
CORE
 70
     0
 62
     4
  6
CONTINUOUS
370
    -3
390
EA6E4E123
  0
LAYER
  5
EA6E4F414
102
{ACAD_XDICTIONARY
360
EA6E4F415
102
}
330
EA6E4DC7D
100
AcDbSymbolTableRecord
100
AcDbLayerTableRecord
  2
CSLAYER1
 70
     0
 62
     7
  6
CONTINUOUS
370
    -3
390
EA6E4E123
  0
LAYER
  5
EA6E4F417
330
EA6E4DC7D
100
AcDbSymbolTableRecord
100
AcDbLayerTableRecord
  2
SCALE
 70
     0
 62
     7
  6
CONTINUOUS
370
    -3
390
EA6E4E123
  0
LAYER
  5
EA6E4F418
330
EA6E4DC7D
100
AcDbSymbolTableRecord
100
AcDbLayerTableRecord
  2
HOJO
 70
     0
 62
     6
  6
CONTINUOUS
370
    -3
390
EA6E4E123
  0
LAYER
  5
EA6E4F419
330
EA6E4DC7D
100
AcDbSymbolTableRecord
100
AcDbLayerTableRecord
  2
HASEN
 70
     0
 62
     2
  6
DASHED
370
    -3
390
EA6E4E123
  0
LAYER
  5
EA6E4F41A
330
EA6E4DC7D
100
AcDbSymbolTableRecord
100
AcDbLayerTableRecord
  2
NITEN
 70
     0
 62
     2
  6
PHANTOM
370
    -3
390
EA6E4E123
  0
LAYER
  5
EA6E4F41B
330
EA6E4DC7D
100
AcDbSymbolTableRecord
100
AcDbLayerTableRecord
  2
HOJOORG
 70
     0
 62
     9
  6
CONTINUOUS
370
    -3
390
EA6E4E123
  0
LAYER
  5
EA6E4F41C
330
EA6E4DC7D
100
AcDbSymbolTableRecord
100
AcDbLayerTableRecord
  2
POINT
 70
     0
 62
     7
  6
CONTINUOUS
370
    -3
390
EA6E4E123
  0
LAYER
  5
EA6E4F41D
330
EA6E4DC7D
100
AcDbSymbolTableRecord
100
AcDbLayerTableRecord
  2
CENTER
 70
     0
 62
     1
  6
CENTER
370
    -3
390
EA6E4E123
  0
LAYER
  5
EA6E4F41E
330
EA6E4DC7D
100
AcDbSymbolTableRecord
100
AcDbLayerTableRecord
  2
ASSIST
 70
     0
 62
     7
  6
CONTINUOUS
370
    -3
390
EA6E4E123
  0
LAYER
  5
EA6E4F41F
330
EA6E4DC7D
100
AcDbSymbolTableRecord
100
AcDbLayerTableRecord
  2
FRAME
 70
     0
 62
     7
  6
CONTINUOUS
370
    -3
390
EA6E4E123
  0
LAYER
  5
EA6E4F420
330
EA6E4DC7D
100
AcDbSymbolTableRecord
100
AcDbLayerTableRecord
  2
TXT1
 70
     0
 62
     7
  6
CONTINUOUS
370
    -3
390
EA6E4E123
  0
LAYER
  5
EA6E4F421
330
EA6E4DC7D
100
AcDbSymbolTableRecord
100
AcDbLayerTableRecord
  2
HIDDEN
 70
     0
 62
     7
  6
HIDDEN
370
    -3
390
EA6E4E123
  0
LAYER
  5
EA6E4F422
330
EA6E4DC7D
100
AcDbSymbolTableRecord
100
AcDbLayerTableRecord
  2
IMAGE
 70
     0
 62
     6
  6
PHANTOM
370
    -3
390
EA6E4E123
  0
LAYER
  5
EA6E4F423
330
EA6E4DC7D
100
AcDbSymbolTableRecord
100
AcDbLayerTableRecord
  2
ERROR
 70
     0
 62
     1
  6
HIDDEN
370
    -3
390
EA6E4E123
  0
LAYER
  5
EA6E4F424
330
EA6E4DC7D
100
AcDbSymbolTableRecord
100
AcDbLayerTableRecord
  2
TEMPORARY
 70
     0
 62
     5
  6
DASHED
370
    -3
390
EA6E4E123
  0
LAYER
  5
EA6E4F425
330
EA6E4DC7D
100
AcDbSymbolTableRecord
100
AcDbLayerTableRecord
  2
WINDOW
 70
     0
 62
     3
  6
CONTINUOUS
370
    -3
390
EA6E4E123
  0
ENDTAB
  0
TABLE
  2
STYLE
  5
EA6E4DC7E
330
0
100
AcDbSymbolTable
 70
    19
  0
STYLE
  5
EA6E4DC8A
330
EA6E4DC7E
100
AcDbSymbolTableRecord
100
AcDbTextStyleTableRecord
  2
STANDARD
 70
     0
 40
0.0
 41
1.0
 50
0.0
 71
     0
 42
0.2
  3
ROMANS
  4
EXTFONT
  0
STYLE
  5
EA6E4DCB2
330
EA6E4DC7E
100
AcDbSymbolTableRecord
100
AcDbTextStyleTableRecord
  2
K
 70
     0
 40
0.0
 41
1.0
 50
0.0
 71
     0
 42
6.0
  3
SIMPLEX
  4
BIGFONT.SHX
  0
STYLE
  5
EA6E4DCB3
330
EA6E4DC7E
100
AcDbSymbolTableRecord
100
AcDbTextStyleTableRecord
  2
ROMANS
 70
     0
 40
0.0
 41
0.8
 50
0.0
 71
     0
 42
6.0
  3
romans
  4

  0
STYLE
  5
EA6E4DCFB
330
EA6E4DC7E
100
AcDbSymbolTableRecord
100
AcDbTextStyleTableRecord
  2
DIMENSION
 70
     0
 40
0.0
 41
1.0
 50
0.0
 71
     0
 42
2.5
  3
TXT
  4

  0
STYLE
  5
EA6E4F426
330
EA6E4DC7E
100
AcDbSymbolTableRecord
100
AcDbTextStyleTableRecord
  2
35FONT
 70
     0
 40
3.5
 41
0.75
 50
15.0
 71
     0
 42
2.5
  3
SIMPLEX.shx
  4
BIGFONT.shx
  0
STYLE
  5
EA6E4F427
330
EA6E4DC7E
100
AcDbSymbolTableRecord
100
AcDbTextStyleTableRecord
  2
ｽﾀｲﾙ1
 70
     0
 40
0.0
 41
1.0
 50
0.0
 71
     0
 42
2.5
  3
MS PMincho.ttf
  4

1001
ACAD
1000
MS PMincho
1071
    32786
  0
STYLE
  5
EA6E4F428
330
EA6E4DC7E
100
AcDbSymbolTableRecord
100
AcDbTextStyleTableRecord
  2
SIMP
 70
     0
 40
0.0
 41
1.0
 50
0.0
 71
     0
 42
2.5
  3
SIMPLEX
  4
BIGFONT
  0
STYLE
  5
EA6E4F429
330
EA6E4DC7E
100
AcDbSymbolTableRecord
100
AcDbTextStyleTableRecord
  2
BIGFONT
 70
     0
 40
0.0
 41
1.0
 50
0.0
 71
     0
 42
2.0
  3
txt.shx
  4
bigfont
  0
STYLE
  5
EA6E4F42A
330
EA6E4DC7E
100
AcDbSymbolTableRecord
100
AcDbTextStyleTableRecord
  2
SCRIPTS
 70
     0
 40
0.0
 41
1.0
 50
0.0
 71
     0
 42
1.5
  3
scripts
  4

  0
STYLE
  5
EA6E4F42B
330
EA6E4DC7E
100
AcDbSymbolTableRecord
100
AcDbTextStyleTableRecord
  2
SCRIPTC
 70
     0
 40
0.0
 41
1.0
 50
0.0
 71
     0
 42
7.0
  3
scriptc
  4

  0
STYLE
  5
EA6E4F42C
330
EA6E4DC7E
100
AcDbSymbolTableRecord
100
AcDbTextStyleTableRecord
  2
NAME
 70
     0
 40
0.0
 41
2.5
 50
0.0
 71
     0
 42
2.5
  3
Arphic Gyokaisho Heavy JIS.ttf
  4

1001
ACAD
1000
Arphic Gyokaisho Heavy JIS
1071
    32817
  0
STYLE
  5
EA6E4F42D
330
EA6E4DC7E
100
AcDbSymbolTableRecord
100
AcDbTextStyleTableRecord
  2
CMP-SET
 70
     0
 40
0.0
 41
1.0
 50
0.0
 71
     0
 42
2.5
  3
COMPLEX
  4
BIGFONT
  0
STYLE
  5
EA6E4F42E
330
EA6E4DC7E
100
AcDbSymbolTableRecord
100
AcDbTextStyleTableRecord
  2
ITL-SET
 70
     0
 40
0.0
 41
1.0
 50
0.0
 71
     0
 42
2.5
  3
ITALIC
  4
BIGFONT
  0
STYLE
  5
EA6E4F42F
330
EA6E4DC7E
100
AcDbSymbolTableRecord
100
AcDbTextStyleTableRecord
  2
MONO-SET
 70
     0
 40
0.0
 41
1.0
 50
0.0
 71
     0
 42
2.5
  3
MONOTXT
  4
BIGFONT
  0
STYLE
  5
EA6E4F430
330
EA6E4DC7E
100
AcDbSymbolTableRecord
100
AcDbTextStyleTableRecord
  2
SMP-SET
 70
     0
 40
0.0
 41
1.0
 50
0.0
 71
     0
 42
2.5
  3
SIMPLEX
  4
BIGFONT
  0
STYLE
  5
EA6E4F431
330
EA6E4DC7E
100
AcDbSymbolTableRecord
100
AcDbTextStyleTableRecord
  2
STYLE1
 70
     0
 40
0.0
 41
1.0
 50
0.0
 71
     0
 42
2.5
  3
scripts.shx
  4
BIGFONT.shx
  0
STYLE
  5
EA6E4F432
330
EA6E4DC7E
100
AcDbSymbolTableRecord
100
AcDbTextStyleTableRecord
  2
GREEKS
 70
     0
 40
0.6
 41
1.0
 50
0.0
 71
     0
 42
0.6
  3
SIMPLEX
  4

  0
STYLE
  5
EA6E4F433
330
EA6E4DC7E
100
AcDbSymbolTableRecord
100
AcDbTextStyleTableRecord
  2
ITALICC
 70
     0
 40
0.0
 41
1.0
 50
0.0
 71
     0
 42
0.6
  3
italicc
  4

  0
STYLE
  5
EA6E4F434
330
EA6E4DC7E
100
AcDbSymbolTableRecord
100
AcDbTextStyleTableRecord
  2
ysk
 70
     0
 40
1.0
 41
1.0
 50
0.0
 71
     0
 42
1.0
  3
gothice.shx
  4
EXTFONT.shx
  0
ENDTAB
  0
TABLE
  2
VIEW
  5
EA6E4DC81
330
0
100
AcDbSymbolTable
 70
     0
  0
ENDTAB
  0
TABLE
  2
UCS
  5
EA6E4DC82
330
0
100
AcDbSymbolTable
 70
     0
  0
ENDTAB
  0
TABLE
  2
APPID
  5
EA6E4DC84
330
0
100
AcDbSymbolTable
 70
    11
  0
APPID
  5
EA6E4DC8B
330
EA6E4DC84
100
AcDbSymbolTableRecord
100
AcDbRegAppTableRecord
  2
ACAD
 70
     0
  0
APPID
  5
EA6E4E3D7
330
EA6E4DC84
100
AcDbSymbolTableRecord
100
AcDbRegAppTableRecord
  2
ASK_MEN_XD
 70
     0
  0
APPID
  5
EA6E4F43D
330
EA6E4DC84
100
AcDbSymbolTableRecord
100
AcDbRegAppTableRecord
  2
X_OBJNAME
 70
     0
  0
APPID
  5
EA6E4F43E
330
EA6E4DC84
100
AcDbSymbolTableRecord
100
AcDbRegAppTableRecord
  2
X_DEFINELIST
 70
     0
  0
APPID
  5
EA6E4F43F
330
EA6E4DC84
100
AcDbSymbolTableRecord
100
AcDbRegAppTableRecord
  2
ACAD_MLEADERVER
 70
     0
  0
APPID
  5
EA6E4F440
330
EA6E4DC84
100
AcDbSymbolTableRecord
100
AcDbRegAppTableRecord
  2
ACAD_PSEXT
 70
     0
  0
APPID
  5
EA6E4F441
330
EA6E4DC84
100
AcDbSymbolTableRecord
100
AcDbRegAppTableRecord
  2
CONTENTBLOCKICON
 70
     0
  0
APPID
  5
EA6E4F442
330
EA6E4DC84
100
AcDbSymbolTableRecord
100
AcDbRegAppTableRecord
  2
X_PARAM_BALLOON
 70
     0
  0
APPID
  5
EA6E4F443
330
EA6E4DC84
100
AcDbSymbolTableRecord
100
AcDbRegAppTableRecord
  2
X_PARAM_TXTPATERN
 70
     0
  0
APPID
  5
EA6E4F444
330
EA6E4DC84
100
AcDbSymbolTableRecord
100
AcDbRegAppTableRecord
  2
X_PARAM_CTXTPATERN
 70
     0
  0
APPID
  5
EA6E4F445
330
EA6E4DC84
100
AcDbSymbolTableRecord
100
AcDbRegAppTableRecord
  2
X_PARAM_SYSVAL
 70
     0
  0
ENDTAB
  0
TABLE
  2
DIMSTYLE
  5
EA6E4DC85
330
0
100
AcDbSymbolTable
 70
    10
100
AcDbDimStyleTable
 71
     0
  0
DIMSTYLE
105
EA6E4DCC5
330
EA6E4DC85
100
AcDbSymbolTableRecord
100
AcDbDimStyleTableRecord
  2
IMAO
 70
     0
 41
1.5
 42
1.0
 43
6.0
 44
1.0
 47
495.0
 73
     0
 74
     0
 77
     1
 78
     8
140
3.0
141
0.0
172
     1
174
     1
271
     2
272
     2
284
     8
285
     8
286
     8
340
EA6E4DCB3
  0
DIMSTYLE
105
EA6E4DCFC
330
EA6E4DC85
100
AcDbSymbolTableRecord
100
AcDbDimStyleTableRecord
  2
STANDARD
 70
     0
 40
2.0
 41
2.0
 42
0.1
 43
10.0
 44
1.5
 73
     0
 74
     0
 78
     8
140
3.0
145
1.0
147
0.1
172
     1
176
   256
177
   256
178
   256
271
     2
272
     2
284
     8
340
EA6E4DCFB
341
EA6E4DCF5
342
EA6E4DCF5
  0
DIMSTYLE
105
EA6E4F435
330
EA6E4DC85
100
AcDbSymbolTableRecord
100
AcDbDimStyleTableRecord
  2
ISO-25
 70
     0
 40
0.5
 41
2.5
 42
0.625
 43
3.75
 44
1.25
 73
     0
 74
     0
 77
     1
 78
     8
140
2.5
141
2.5
143
0.03937007874016
147
0.625
171
     3
172
     1
271
     2
272
     2
274
     3
278
    44
283
     0
284
     8
340
EA6E4DC8A
  0
DIMSTYLE
105
EA6E4F436
330
EA6E4DC85
100
AcDbSymbolTableRecord
100
AcDbDimStyleTableRecord
  2
ｺﾋﾟｰ - IMAO2
 70
     0
 40
0.4
 41
0.75
 42
0.0
 43
0.0
 44
0.3
 47
495.0
 73
     0
 74
     0
 77
     1
 78
     8
140
1.5
141
0.0
147
0.5
172
     1
176
     3
177
     3
178
     3
271
     1
272
     1
279
     2
284
     8
285
     8
286
     8
340
EA6E4DCB2
341
EA6E4E244
342
EA6E4EE8D
  0
DIMSTYLE
105
EA6E4F437
330
EA6E4DC85
100
AcDbSymbolTableRecord
100
AcDbDimStyleTableRecord
  2
IMAO_0.1
 70
     0
 40
0.1
 41
1.0
 42
1.0
 43
6.0
 44
1.0
 73
     0
 74
     0
 77
     3
 78
     8
140
3.0
141
1.0
147
1.0
172
     1
176
   256
177
   256
178
   256
340
EA6E4DCB2
341
EA6E4EE8D
342
EA6E4EE8D
371
    -1
372
    -1
  0
DIMSTYLE
105
EA6E4F438
330
EA6E4DC85
100
AcDbSymbolTableRecord
100
AcDbDimStyleTableRecord
  2
IMAO_0.2
 70
     0
 40
0.2
 41
1.5
 42
1.0
 43
6.0
 44
1.0
 73
     0
 74
     0
 77
     3
 78
     8
140
3.0
141
1.0
147
1.0
172
     1
176
   256
177
   256
178
   256
340
EA6E4DCB2
341
EA6E4EE8D
342
EA6E4EE8D
371
    -1
372
    -1
  0
DIMSTYLE
105
EA6E4F439
330
EA6E4DC85
100
AcDbSymbolTableRecord
100
AcDbDimStyleTableRecord
  2
ｺﾋﾟｰ - IMAO
 70
     0
 40
0.5
 41
1.5
 42
0.0
 43
1.5
 44
0.5
 47
495.0
 73
     0
 74
     0
 77
     1
 78
     8
140
1.5
141
0.0
147
0.5
172
     1
176
     3
177
     3
178
     3
271
     2
272
     2
279
     2
340
EA6E4DCB2
341
EA6E4EE8D
342
EA6E4EE8D
  0
DIMSTYLE
105
EA6E4F43A
330
EA6E4DC85
100
AcDbSymbolTableRecord
100
AcDbDimStyleTableRecord
  2
ｺﾋﾟｰ(2) - IMAO
 70
     0
 40
1.0
 41
1.199999999999999
 42
0.0
 43
0.6
 44
0.5
 47
495.0
 73
     0
 74
     0
 77
     1
 78
     8
140
1.199999999999999
141
0.0
147
0.3
172
     1
176
     3
177
     3
178
     3
179
     1
271
     2
272
     2
279
     2
340
EA6E4DC8A
341
EA6E4EE8D
342
EA6E4EE8D
  0
DIMSTYLE
105
EA6E4F43B
330
EA6E4DC85
100
AcDbSymbolTableRecord
100
AcDbDimStyleTableRecord
  2
ｺﾋﾟｰ - IMAO3
 70
     0
 41
4.5
 42
0.0
 43
0.0
 44
1.5
 47
495.0
 73
     0
 74
     0
 77
     1
 78
     8
140
4.5
141
0.0
147
1.5
172
     1
176
     3
177
     3
178
     3
271
     2
272
     2
279
     2
284
     8
285
     8
286
     8
340
EA6E4DCB2
341
EA6E4EE8D
342
EA6E4EE8D
  0
DIMSTYLE
105
EA6E4F43C
330
EA6E4DC85
100
AcDbSymbolTableRecord
100
AcDbDimStyleTableRecord
  2
ｺﾋﾟｰ(2) - IMAO3
 70
     0
 41
6.0
 42
0.0
 43
0.0
 44
1.0
 47
495.0
 73
     0
 74
     0
 77
     1
 78
     8
140
6.0
141
0.0
147
1.0
172
     1
176
     3
177
     3
178
     3
179
     1
271
     2
272
     2
279
     2
284
     8
285
     8
286
     8
340
EA6E4DCB2
341
EA6E4EE8D
342
EA6E4EE8D
  0
ENDTAB
  0
TABLE
  2
BLOCK_RECORD
  5
EA6E4DC7C
330
0
100
AcDbSymbolTable
 70
     5
  0
BLOCK_RECORD
  5
EA6E4DC92
102
{ACAD_XDICTIONARY
360
EA6E4E15C
102
}
330
EA6E4DC7C
100
AcDbSymbolTableRecord
100
AcDbBlockTableRecord
  2
*MODEL_SPACE
340
EA6E4EE67
  0
BLOCK_RECORD
  5
EA6E4DC8F
102
{ACAD_XDICTIONARY
360
EA6E4E15A
102
}
330
EA6E4DC7C
100
AcDbSymbolTableRecord
100
AcDbBlockTableRecord
  2
*PAPER_SPACE
340
EA6E4EE68
  0
BLOCK_RECORD
  5
EA6E4DC97
330
EA6E4DC7C
100
AcDbSymbolTableRecord
100
AcDbBlockTableRecord
  2
ARROW
340
0
  0
BLOCK_RECORD
  5
EA6E4DCF5
330
EA6E4DC7C
100
AcDbSymbolTableRecord
100
AcDbBlockTableRecord
  2
AR_OPEN
340
0
  0
BLOCK_RECORD
  5
EA6E4E244
330
EA6E4DC7C
100
AcDbSymbolTableRecord
100
AcDbBlockTableRecord
  2
ARROWANG
340
0
102
{BLKREFS
331
EA6E57056
331
EA6E5708E
331
EA6E570AB
331
EA6E570CD
331
EA6E57116
331
EA6E57119
331
EA6E5718E
102
}
  0
BLOCK_RECORD
  5
EA6E4EE8D
330
EA6E4DC7C
100
AcDbSymbolTableRecord
100
AcDbBlockTableRecord
  2
_Open30
340
0
  0
BLOCK_RECORD
  5
EA6E56C5A
330
EA6E4DC7C
100
AcDbSymbolTableRecord
100
AcDbBlockTableRecord
  2
*X4
340
0
102
{BLKREFS
331
EA6E57106
102
}
  0
ENDTAB
  0
ENDSEC
  0
SECTION
  2
BLOCKS
  0
BLOCK
  5
EA6E4DCD4
330
EA6E4DC92
100
AcDbEntity
  8
0
100
AcDbBlockBegin
  2
*MODEL_SPACE
 70
     0
 10
0.0
 20
0.0
 30
0.0
  3
*MODEL_SPACE
  1

  0
ENDBLK
  5
EA6E4DCD5
330
EA6E4DC92
100
AcDbEntity
  8
0
100
AcDbBlockEnd
  0
BLOCK
  5
EA6E4DCD2
330
EA6E4DC8F
100
AcDbEntity
 67
     1
  8
0
100
AcDbBlockBegin
  2
*PAPER_SPACE
 70
     0
 10
0.0
 20
0.0
 30
0.0
  3
*PAPER_SPACE
  1

  0
ENDBLK
  5
EA6E4DCD3
330
EA6E4DC8F
100
AcDbEntity
 67
     1
  8
0
100
AcDbBlockEnd
  0
BLOCK
  5
449
330
EA6E4DC97
100
AcDbEntity
  8
0
100
AcDbBlockBegin
  2
ARROW
 70
     0
 10
1.0
 20
0.5
 30
0.0
  3
ARROW
  1

  0
LINE
  5
44A
330
EA6E4DC97
100
AcDbEntity
  8
0
100
AcDbLine
 10
1.0
 20
0.5
 30
0.0
 11
-0.5
 21
0.098076
 31
0.0
  0
LINE
  5
44B
330
EA6E4DC97
100
AcDbEntity
  8
0
100
AcDbLine
 10
0.0
 20
0.5
 30
0.0
 11
1.0
 21
0.5
 31
0.0
  0
LINE
  5
44C
330
EA6E4DC97
100
AcDbEntity
  8
0
100
AcDbLine
 10
1.0
 20
0.5
 30
0.0
 11
-0.5
 21
0.9019239999999999
 31
0.0
  0
ENDBLK
  5
44D
330
EA6E4DC97
100
AcDbEntity
  8
0
100
AcDbBlockEnd
  0
BLOCK
  5
EA6E4DCF9
330
EA6E4DCF5
100
AcDbEntity
  8
0
100
AcDbBlockBegin
  2
AR_OPEN
 70
     0
 10
0.0
 20
0.0
 30
0.0
  3
AR_OPEN
  1

  0
LINE
  5
EA6E4DCF6
330
EA6E4DCF5
100
AcDbEntity
  8
0
 62
     0
100
AcDbLine
 10
-1.0
 20
0.0
 30
0.0
 11
0.0
 21
0.0
 31
0.0
  0
LINE
  5
EA6E4DCF7
330
EA6E4DCF5
100
AcDbEntity
  8
0
 62
     0
100
AcDbLine
 10
0.0
 20
0.0
 30
0.0
 11
-1.0
 21
0.267949
 31
0.0
  0
LINE
  5
EA6E4DCF8
330
EA6E4DCF5
100
AcDbEntity
  8
0
 62
     0
100
AcDbLine
 10
0.0
 20
0.0
 30
0.0
 11
-1.0
 21
-0.267949
 31
0.0
  0
ENDBLK
  5
EA6E4DCFA
330
EA6E4DCF5
100
AcDbEntity
  8
0
100
AcDbBlockEnd
  0
BLOCK
  5
EA6E4E247
330
EA6E4E244
100
AcDbEntity
  8
0
100
AcDbBlockBegin
  2
ARROWANG
 70
     0
 10
0.0
 20
0.0
 30
0.0
  3
ARROWANG
  1

  0
LINE
  5
EA6E4E245
330
EA6E4E244
100
AcDbEntity
  8
SUNPOU
100
AcDbLine
 10
0.0
 20
0.0
 30
0.0
 11
-1.499999999999956
 21
0.401923788646741
 31
0.0
  0
LINE
  5
EA6E4E246
330
EA6E4E244
100
AcDbEntity
  8
SUNPOU
100
AcDbLine
 10
0.0
 20
0.0
 30
0.0
 11
-1.500000000000027
 21
-0.4019237886467124
 31
0.0
  0
ENDBLK
  5
EA6E4E248
330
EA6E4E244
100
AcDbEntity
  8
0
100
AcDbBlockEnd
  0
BLOCK
  5
EA6E4EE91
330
EA6E4EE8D
100
AcDbEntity
  8
0
100
AcDbBlockBegin
  2
_Open30
 70
     0
 10
0.0
 20
0.0
 30
0.0
  3
_Open30
  1

  0
LINE
  5
EA6E4EE8E
330
EA6E4EE8D
100
AcDbEntity
  8
0
  6
ByBlock
 62
     0
370
    -2
100
AcDbLine
 10
-1.0
 20
0.26794919
 30
0.0
 11
0.0
 21
0.0
 31
0.0
  0
LINE
  5
EA6E4EE8F
330
EA6E4EE8D
100
AcDbEntity
  8
0
  6
ByBlock
 62
     0
370
    -2
100
AcDbLine
 10
0.0
 20
0.0
 30
0.0
 11
-1.0
 21
-0.26794919
 31
0.0
  0
LINE
  5
EA6E4EE90
330
EA6E4EE8D
100
AcDbEntity
  8
0
  6
ByBlock
 62
     0
370
    -2
100
AcDbLine
 10
0.0
 20
0.0
 30
0.0
 11
-1.0
 21
0.0
 31
0.0
  0
ENDBLK
  5
EA6E4EE92
330
EA6E4EE8D
100
AcDbEntity
  8
0
100
AcDbBlockEnd
  0
BLOCK
  5
EA6E56DE3
330
EA6E56C5A
100
AcDbEntity
  8
0
100
AcDbBlockBegin
  2
*X4
 70
     1
 10
0.0
 20
0.0
 30
0.0
  3
*X4
  1

  0
LINE
  5
EA6E56C5B
330
EA6E56C5A
100
AcDbEntity
  8
0
 62
     0
100
AcDbLine
 10
13.0
 20
1.5
 30
0.0
 11
13.0
 21
3.0
 31
0.0
  0
LINE
  5
EA6E56C5C
330
EA6E56C5A
100
AcDbEntity
  8
0
 62
     0
100
AcDbLine
 10
12.8
 20
0.5011846473685893
 30
0.0
 11
12.8
 21
1.501244022154416
 31
0.0
  0
LINE
  5
EA6E56C5D
330
EA6E56C5A
100
AcDbEntity
  8
0
 62
     0
100
AcDbLine
 10
12.8
 20
16.49875597784558
 30
0.0
 11
12.8
 21
17.49881535263141
 31
0.0
  0
LINE
  5
EA6E56C5E
330
EA6E56C5A
100
AcDbEntity
  8
0
 62
     0
100
AcDbLine
 10
12.8
 20
1.502736746385633
 30
0.0
 11
12.8
 21
3.003293554097716
 31
0.0
  0
LINE
  5
EA6E56C5F
330
EA6E56C5A
100
AcDbEntity
  8
0
 62
     0
100
AcDbLine
 10
12.8
 20
14.99670644590227
 30
0.0
 11
12.8
 21
16.49726325361435
 31
0.0
  0
LINE
  5
EA6E56C60
330
EA6E56C5A
100
AcDbEntity
  8
0
 62
     0
100
AcDbLine
 10
12.8
 20
8.252736746385634
 30
0.0
 11
12.8
 21
9.753293554097712
 31
0.0
  0
LINE
  5
EA6E56C61
330
EA6E56C5A
100
AcDbEntity
  8
0
 62
     0
100
AcDbLine
 10
12.6
 20
0.5047390883533396
 30
0.0
 11
12.6
 21
1.504976666345426
 31
0.0
  0
LINE
  5
EA6E56C62
330
EA6E56C5A
100
AcDbEntity
  8
0
 62
     0
100
AcDbLine
 10
12.6
 20
16.49502333365457
 30
0.0
 11
12.6
 21
17.49526091164665
 31
0.0
  0
LINE
  5
EA6E56C63
330
EA6E56C5A
100
AcDbEntity
  8
0
 62
     0
100
AcDbLine
 10
12.6
 20
1.510953142904804
 30
0.0
 11
12.6
 21
3.013184954832298
 31
0.0
  0
LINE
  5
EA6E56C64
330
EA6E56C5A
100
AcDbEntity
  8
0
 62
     0
100
AcDbLine
 10
12.6
 20
14.9868150451677
 30
0.0
 11
12.6
 21
16.48904685709519
 31
0.0
  0
LINE
  5
EA6E56C65
330
EA6E56C5A
100
AcDbEntity
  8
0
 62
     0
100
AcDbLine
 10
12.6
 20
8.260953142904803
 30
0.0
 11
12.6
 21
9.763184954832301
 31
0.0
  0
LINE
  5
EA6E56C66
330
EA6E56C5A
100
AcDbEntity
  8
0
 62
     0
100
AcDbLine
 10
12.4
 20
0.5106648206422692
 30
0.0
 11
12.4
 21
1.511199667098658
 31
0.0
  0
LINE
  5
EA6E56C67
330
EA6E56C5A
100
AcDbEntity
  8
0
 62
     0
100
AcDbLine
 10
12.4
 20
16.48880033290133
 30
0.0
 11
12.4
 21
17.48933517935772
 31
0.0
  0
LINE
  5
EA6E56C68
330
EA6E56C5A
100
AcDbEntity
  8
0
 62
     0
100
AcDbLine
 10
12.4
 20
1.524667731119553
 30
0.0
 11
12.4
 21
3.029706593353226
 31
0.0
  0
LINE
  5
EA6E56C69
330
EA6E56C5A
100
AcDbEntity
  8
0
 62
     0
100
AcDbLine
 10
12.4
 20
14.97029340664677
 30
0.0
 11
12.4
 21
16.47533226888044
 31
0.0
  0
LINE
  5
EA6E56C6A
330
EA6E56C5A
100
AcDbEntity
  8
0
 62
     0
100
AcDbLine
 10
12.4
 20
8.274667731119556
 30
0.0
 11
12.4
 21
9.779706593353227
 31
0.0
  0
LINE
  5
EA6E56C6B
330
EA6E56C5A
100
AcDbEntity
  8
0
 62
     0
100
AcDbLine
 10
12.19999999999999
 20
0.5189643438906657
 30
0.0
 11
12.19999999999999
 21
1.51991591977186
 31
0.0
  0
LINE
  5
EA6E56C6C
330
EA6E56C5A
100
AcDbEntity
  8
0
 62
     0
100
AcDbLine
 10
12.19999999999999
 20
16.48008408022814
 30
0.0
 11
12.19999999999999
 21
17.48103565610933
 31
0.0
  0
LINE
  5
EA6E56C6D
330
EA6E56C5A
100
AcDbEntity
  8
0
 62
     0
100
AcDbLine
 10
12.19999999999999
 20
1.543911647054931
 30
0.0
 11
12.19999999999999
 21
3.052913047755091
 31
0.0
  0
LINE
  5
EA6E56C6E
330
EA6E56C5A
100
AcDbEntity
  8
0
 62
     0
100
AcDbLine
 10
12.19999999999999
 20
14.94708695224491
 30
0.0
 11
12.19999999999999
 21
16.45608835294505
 31
0.0
  0
LINE
  5
EA6E56C6F
330
EA6E56C5A
100
AcDbEntity
  8
0
 62
     0
100
AcDbLine
 10
12.19999999999999
 20
8.293911647054933
 30
0.0
 11
12.19999999999999
 21
9.802913047755092
 31
0.0
  0
LINE
  5
EA6E56C70
330
EA6E56C5A
100
AcDbEntity
  8
0
 62
     0
100
AcDbLine
 10
12.0
 20
0.5296411650021327
 30
0.0
 11
12.0
 21
1.531129487302989
 31
0.0
  0
LINE
  5
EA6E56C71
330
EA6E56C5A
100
AcDbEntity
  8
0
 62
     0
100
AcDbLine
 10
12.0
 20
16.468870512697
 30
0.0
 11
12.0
 21
17.47035883499786
 31
0.0
  0
LINE
  5
EA6E56C72
330
EA6E56C5A
100
AcDbEntity
  8
0
 62
     0
100
AcDbLine
 10
12.0
 20
1.568728977850376
 30
0.0
 11
12.0
 21
3.082881996483852
 31
0.0
  0
LINE
  5
EA6E56C73
330
EA6E56C5A
100
AcDbEntity
  8
0
 62
     0
100
AcDbLine
 10
12.0
 20
14.91711800351614
 30
0.0
 11
12.0
 21
16.43127102214962
 31
0.0
  0
LINE
  5
EA6E56C74
330
EA6E56C5A
100
AcDbEntity
  8
0
 62
     0
100
AcDbLine
 10
12.0
 20
8.318728977850376
 30
0.0
 11
12.0
 21
9.832881996483848
 31
0.0
  0
LINE
  5
EA6E56C75
330
EA6E56C5A
100
AcDbEntity
  8
0
 62
     0
100
AcDbLine
 10
11.8
 20
0.5426998055585415
 30
0.0
 11
11.8
 21
1.544845609709006
 31
0.0
  0
LINE
  5
EA6E56C76
330
EA6E56C5A
100
AcDbEntity
  8
0
 62
     0
100
AcDbLine
 10
11.8
 20
16.45515439029098
 30
0.0
 11
11.8
 21
17.45730019444144
 31
0.0
  0
LINE
  5
EA6E56C77
330
EA6E56C5A
100
AcDbEntity
  8
0
 62
     0
100
AcDbLine
 10
11.8
 20
1.599177274433096
 30
0.0
 11
11.8
 21
3.119715547134022
 31
0.0
  0
LINE
  5
EA6E56C78
330
EA6E56C5A
100
AcDbEntity
  8
0
 62
     0
100
AcDbLine
 10
11.8
 20
14.88028445286597
 30
0.0
 11
11.8
 21
16.4008227255669
 31
0.0
  0
LINE
  5
EA6E56C79
330
EA6E56C5A
100
AcDbEntity
  8
0
 62
     0
100
AcDbLine
 10
11.8
 20
8.349177274433094
 30
0.0
 11
11.8
 21
9.869715547134024
 31
0.0
  0
LINE
  5
EA6E56C7A
330
EA6E56C5A
100
AcDbEntity
  8
0
 62
     0
100
AcDbLine
 10
11.59999999999999
 20
0.5581458114356864
 30
0.0
 11
11.59999999999999
 21
1.561070716387176
 31
0.0
  0
LINE
  5
EA6E56C7B
330
EA6E56C5A
100
AcDbEntity
  8
0
 62
     0
100
AcDbLine
 10
11.59999999999999
 20
16.43892928361282
 30
0.0
 11
11.59999999999999
 21
17.44185418856431
 31
0.0
  0
LINE
  5
EA6E56C7C
330
EA6E56C5A
100
AcDbEntity
  8
0
 62
     0
100
AcDbLine
 10
11.59999999999999
 20
1.635328234354861
 30
0.0
 11
11.59999999999999
 21
3.163542034954736
 31
0.0
  0
LINE
  5
EA6E56C7D
330
EA6E56C5A
100
AcDbEntity
  8
0
 62
     0
100
AcDbLine
 10
11.59999999999999
 20
14.83645796504525
 30
0.0
 11
11.59999999999999
 21
16.36467176564513
 31
0.0
  0
LINE
  5
EA6E56C7E
330
EA6E56C5A
100
AcDbEntity
  8
0
 62
     0
100
AcDbLine
 10
11.59999999999999
 20
8.385328234354862
 30
0.0
 11
11.59999999999999
 21
9.913542034954735
 31
0.0
  0
LINE
  5
EA6E56C7F
330
EA6E56C5A
100
AcDbEntity
  8
0
 62
     0
100
AcDbLine
 10
11.4
 20
0.5759857646525575
 30
0.0
 11
11.4
 21
1.579812441286875
 31
0.0
  0
LINE
  5
EA6E56C80
330
EA6E56C5A
100
AcDbEntity
  8
0
 62
     0
100
AcDbLine
 10
11.4
 20
16.42018755871312
 30
0.0
 11
11.4
 21
17.42401423534744
 31
0.0
  0
LINE
  5
EA6E56C81
330
EA6E56C5A
100
AcDbEntity
  8
0
 62
     0
100
AcDbLine
 10
11.4
 20
1.677268574155954
 30
0.0
 11
11.4
 21
3.214520049132957
 31
0.0
  0
LINE
  5
EA6E56C82
330
EA6E56C5A
100
AcDbEntity
  8
0
 62
     0
100
AcDbLine
 10
11.4
 20
14.78547995086702
 30
0.0
 11
11.4
 21
16.32273142584404
 31
0.0
  0
LINE
  5
EA6E56C83
330
EA6E56C5A
100
AcDbEntity
  8
0
 62
     0
100
AcDbLine
 10
11.4
 20
8.427268574155956
 30
0.0
 11
11.4
 21
9.964520049132961
 31
0.0
  0
LINE
  5
EA6E56C84
330
EA6E56C5A
100
AcDbEntity
  8
0
 62
     0
100
AcDbLine
 10
11.19999999999999
 20
0.5962272975137566
 30
0.0
 11
11.19999999999999
 21
1.601079641035706
 31
0.0
  0
LINE
  5
EA6E56C85
330
EA6E56C5A
100
AcDbEntity
  8
0
 62
     0
100
AcDbLine
 10
11.19999999999999
 20
16.39892035896429
 30
0.0
 11
11.19999999999999
 21
17.40377270248623
 31
0.0
  0
LINE
  5
EA6E56C86
330
EA6E56C5A
100
AcDbEntity
  8
0
 62
     0
100
AcDbLine
 10
11.19999999999999
 20
1.725101116855704
 30
0.0
 11
11.19999999999999
 21
3.274470700593997
 31
0.0
  0
LINE
  5
EA6E56C87
330
EA6E56C5A
100
AcDbEntity
  8
0
 62
     0
100
AcDbLine
 10
11.19999999999999
 20
14.72552929940599
 30
0.0
 11
11.19999999999999
 21
16.27489888314428
 31
0.0
  0
LINE
  5
EA6E56C88
330
EA6E56C5A
100
AcDbEntity
  8
0
 62
     0
100
AcDbLine
 10
11.19999999999999
 20
8.475101116855702
 30
0.0
 11
11.19999999999999
 21
10.02447070059399
 31
0.0
  0
LINE
  5
EA6E56C89
330
EA6E56C5A
100
AcDbEntity
  8
0
 62
     0
100
AcDbLine
 10
11.0
 20
0.6188791091165271
 30
0.0
 11
11.0
 21
1.624882416121604
 31
0.0
  0
LINE
  5
EA6E56C8A
330
EA6E56C5A
100
AcDbEntity
  8
0
 62
     0
100
AcDbLine
 10
11.0
 20
16.37511758387839
 30
0.0
 11
11.0
 21
17.38112089088347
 31
0.0
  0
LINE
  5
EA6E56C8B
330
EA6E56C5A
100
AcDbEntity
  8
0
 62
     0
100
AcDbLine
 10
11.0
 20
1.778946127801587
 30
0.0
 11
11.0
 21
3.345224713883404
 31
0.0
  0
LINE
  5
EA6E56C8C
330
EA6E56C5A
100
AcDbEntity
  8
0
 62
     0
100
AcDbLine
 10
11.0
 20
14.65477528611659
 30
0.0
 11
11.0
 21
16.22105387219841
 31
0.0
  0
LINE
  5
EA6E56C8D
330
EA6E56C5A
100
AcDbEntity
  8
0
 62
     0
100
AcDbLine
 10
11.0
 20
8.528946127801587
 30
0.0
 11
11.0
 21
10.0952247138834
 31
0.0
  0
LINE
  5
EA6E56C8E
330
EA6E56C5A
100
AcDbEntity
  8
0
 62
     0
100
AcDbLine
 10
10.8
 20
0.6439509843066205
 30
0.0
 11
10.8
 21
1.651232135250402
 31
0.0
  0
LINE
  5
EA6E56C8F
330
EA6E56C5A
100
AcDbEntity
  8
0
 62
     0
100
AcDbLine
 10
10.8
 20
16.34876786474959
 30
0.0
 11
10.8
 21
17.35604901569336
 31
0.0
  0
LINE
  5
EA6E56C90
330
EA6E56C5A
100
AcDbEntity
  8
0
 62
     0
100
AcDbLine
 10
10.8
 20
1.838965527600105
 30
0.0
 11
10.8
 21
3.427362928229201
 31
0.0
  0
LINE
  5
EA6E56C91
330
EA6E56C5A
100
AcDbEntity
  8
0
 62
     0
100
AcDbLine
 10
10.8
 20
14.57263707177079
 30
0.0
 11
10.8
 21
16.16103447239989
 31
0.0
  0
LINE
  5
EA6E56C92
330
EA6E56C5A
100
AcDbEntity
  8
0
 62
     0
100
AcDbLine
 10
10.8
 20
8.588965527600102
 30
0.0
 11
10.8
 21
10.17736292822919
 31
0.0
  0
LINE
  5
EA6E56C93
330
EA6E56C5A
100
AcDbEntity
  8
0
 62
     0
100
AcDbLine
 10
10.6
 20
0.6714538151807618
 30
0.0
 11
10.6
 21
1.680141463018063
 31
0.0
  0
LINE
  5
EA6E56C94
330
EA6E56C5A
100
AcDbEntity
  8
0
 62
     0
100
AcDbLine
 10
10.6
 20
16.31985853698194
 30
0.0
 11
10.6
 21
17.32854618481924
 31
0.0
  0
LINE
  5
EA6E56C95
330
EA6E56C5A
100
AcDbEntity
  8
0
 62
     0
100
AcDbLine
 10
10.6
 20
1.906497453997511
 30
0.0
 11
10.6
 21
3.521613256092562
 31
0.0
  0
LINE
  5
EA6E56C96
330
EA6E56C5A
100
AcDbEntity
  8
0
 62
     0
100
AcDbLine
 10
10.6
 20
14.47838674390743
 30
0.0
 11
10.6
 21
16.09350254600249
 31
0.0
  0
LINE
  5
EA6E56C97
330
EA6E56C5A
100
AcDbEntity
  8
0
 62
     0
100
AcDbLine
 10
10.6
 20
8.656497453997507
 30
0.0
 11
10.6
 21
10.27161325609256
 31
0.0
  0
LINE
  5
EA6E56C98
330
EA6E56C5A
100
AcDbEntity
  8
0
 62
     0
100
AcDbLine
 10
10.4
 20
0.7013996252478309
 30
0.0
 11
10.4
 21
1.711624391057782
 31
0.0
  0
LINE
  5
EA6E56C99
330
EA6E56C5A
100
AcDbEntity
  8
0
 62
     0
100
AcDbLine
 10
10.4
 20
16.28837560894221
 30
0.0
 11
10.4
 21
17.29860037475216
 31
0.0
  0
LINE
  5
EA6E56C9A
330
EA6E56C5A
100
AcDbEntity
  8
0
 62
     0
100
AcDbLine
 10
10.4
 20
1.982488280859818
 30
0.0
 11
10.4
 21
3.628889777131711
 31
0.0
  0
LINE
  5
EA6E56C9B
330
EA6E56C5A
100
AcDbEntity
  8
0
 62
     0
100
AcDbLine
 10
10.4
 20
14.37111022286828
 30
0.0
 11
10.4
 21
16.01751171914017
 31
0.0
  0
LINE
  5
EA6E56C9C
330
EA6E56C5A
100
AcDbEntity
  8
0
 62
     0
100
AcDbLine
 10
10.4
 20
8.732488280859815
 30
0.0
 11
10.4
 21
10.37888977713171
 31
0.0
  0
LINE
  5
EA6E56C9D
330
EA6E56C5A
100
AcDbEntity
  8
0
 62
     0
100
AcDbLine
 10
10.2
 20
0.7338015963764449
 30
0.0
 11
10.2
 21
1.745696272844693
 31
0.0
  0
LINE
  5
EA6E56C9E
330
EA6E56C5A
100
AcDbEntity
  8
0
 62
     0
100
AcDbLine
 10
10.2
 20
16.2543037271553
 30
0.0
 11
10.2
 21
17.26619840362355
 31
0.0
  0
LINE
  5
EA6E56C9F
330
EA6E56C5A
100
AcDbEntity
  8
0
 62
     0
100
AcDbLine
 10
10.2
 20
2.067310355584581
 30
0.0
 11
10.2
 21
3.750348873208846
 31
0.0
  0
LINE
  5
EA6E56CA0
330
EA6E56C5A
100
AcDbEntity
  8
0
 62
     0
100
AcDbLine
 10
10.2
 20
14.24965112679115
 30
0.0
 11
10.2
 21
15.93268964441541
 31
0.0
  0
LINE
  5
EA6E56CA1
330
EA6E56C5A
100
AcDbEntity
  8
0
 62
     0
100
AcDbLine
 10
10.2
 20
8.817310355584577
 30
0.0
 11
10.2
 21
10.50034887320884
 31
0.0
  0
LINE
  5
EA6E56CA2
330
EA6E56C5A
100
AcDbEntity
  8
0
 62
     0
100
AcDbLine
 10
10.0
 20
0.7686740986732376
 30
0.0
 11
10.0
 21
1.782373862365612
 31
0.0
  0
LINE
  5
EA6E56CA3
330
EA6E56C5A
100
AcDbEntity
  8
0
 62
     0
100
AcDbLine
 10
10.0
 20
16.21762613763437
 30
0.0
 11
10.0
 21
17.23132590132675
 31
0.0
  0
LINE
  5
EA6E56CA4
330
EA6E56C5A
100
AcDbEntity
  8
0
 62
     0
100
AcDbLine
 10
10.0
 20
2.16140561915966
 30
0.0
 11
10.0
 21
3.890156991938432
 31
0.0
  0
LINE
  5
EA6E56CA5
330
EA6E56C5A
100
AcDbEntity
  8
0
 62
     0
100
AcDbLine
 10
10.0
 20
14.10984300806157
 30
0.0
 11
10.0
 21
15.83859438084034
 31
0.0
  0
LINE
  5
EA6E56CA6
330
EA6E56C5A
100
AcDbEntity
  8
0
 62
     0
100
AcDbLine
 10
10.0
 20
5.004798018908181
 30
0.0
 11
10.0
 21
6.004798018908182
 31
0.0
  0
LINE
  5
EA6E56CA7
330
EA6E56C5A
100
AcDbEntity
  8
0
 62
     0
100
AcDbLine
 10
10.0
 20
8.911405619159657
 30
0.0
 11
10.0
 21
10.64015699193842
 31
0.0
  0
LINE
  5
EA6E56CA8
330
EA6E56C5A
100
AcDbEntity
  8
0
 62
     0
100
AcDbLine
 10
9.8
 20
0.8060327234544644
 30
0.0
 11
9.8
 21
1.821675356888276
 31
0.0
  0
LINE
  5
EA6E56CA9
330
EA6E56C5A
100
AcDbEntity
  8
0
 62
     0
100
AcDbLine
 10
9.8
 20
16.17832464311171
 30
0.0
 11
9.8
 21
17.19396727654553
 31
0.0
  0
LINE
  5
EA6E56CAA
330
EA6E56C5A
100
AcDbEntity
  8
0
 62
     0
100
AcDbLine
 10
9.8
 20
2.265299594642037
 30
0.0
 11
9.8
 21
4.056258282395599
 31
0.0
  0
LINE
  5
EA6E56CAB
330
EA6E56C5A
100
AcDbEntity
  8
0
 62
     0
100
AcDbLine
 10
9.8
 20
13.9437417176044
 30
0.0
 11
9.8
 21
15.73470040535796
 31
0.0
  0
LINE
  5
EA6E56CAC
330
EA6E56C5A
100
AcDbEntity
  8
0
 62
     0
100
AcDbLine
 10
9.8
 20
5.004798018908181
 30
0.0
 11
9.8
 21
6.004798018908182
 31
0.0
  0
LINE
  5
EA6E56CAD
330
EA6E56C5A
100
AcDbEntity
  8
0
 62
     0
100
AcDbLine
 10
9.8
 20
9.015299594642034
 30
0.0
 11
9.8
 21
10.80625828239559
 31
0.0
  0
LINE
  5
EA6E56CAE
330
EA6E56C5A
100
AcDbEntity
  8
0
 62
     0
100
AcDbLine
 10
9.599999999999999
 20
0.8458943194931476
 30
0.0
 11
9.599999999999999
 21
1.863620444093796
 31
0.0
  0
LINE
  5
EA6E56CAF
330
EA6E56C5A
100
AcDbEntity
  8
0
 62
     0
100
AcDbLine
 10
9.599999999999999
 20
16.13637955590619
 30
0.0
 11
9.599999999999999
 21
17.15410568050685
 31
0.0
  0
LINE
  5
EA6E56CB0
330
EA6E56C5A
100
AcDbEntity
  8
0
 62
     0
100
AcDbLine
 10
9.599999999999999
 20
2.379619810236111
 30
0.0
 11
9.599999999999999
 21
4.255129338783956
 31
0.0
  0
LINE
  5
EA6E56CB1
330
EA6E56C5A
100
AcDbEntity
  8
0
 62
     0
100
AcDbLine
 10
9.599999999999999
 20
13.74487066121605
 30
0.0
 11
9.599999999999999
 21
15.62038018976388
 31
0.0
  0
LINE
  5
EA6E56CB2
330
EA6E56C5A
100
AcDbEntity
  8
0
 62
     0
100
AcDbLine
 10
9.599999999999999
 20
5.004798018908181
 30
0.0
 11
9.600000000000003
 21
6.004798018908182
 31
0.0
  0
LINE
  5
EA6E56CB3
330
EA6E56C5A
100
AcDbEntity
  8
0
 62
     0
100
AcDbLine
 10
9.599999999999999
 20
9.129619810236112
 30
0.0
 11
9.599999999999999
 21
11.00512933878394
 31
0.0
  0
LINE
  5
EA6E56CB4
330
EA6E56C5A
100
AcDbEntity
  8
0
 62
     0
100
AcDbLine
 10
9.4
 20
0.8882770327457548
 30
0.0
 11
9.4
 21
1.908230353869035
 31
0.0
  0
LINE
  5
EA6E56CB5
330
EA6E56C5A
100
AcDbEntity
  8
0
 62
     0
100
AcDbLine
 10
9.4
 20
16.09176964613095
 30
0.0
 11
9.4
 21
17.11172296725424
 31
0.0
  0
LINE
  5
EA6E56CB6
330
EA6E56C5A
100
AcDbEntity
  8
0
 62
     0
100
AcDbLine
 10
9.4
 20
2.505120428334417
 30
0.0
 11
9.4
 21
4.497576932367894
 31
0.0
  0
LINE
  5
EA6E56CB7
330
EA6E56C5A
100
AcDbEntity
  8
0
 62
     0
100
AcDbLine
 10
9.4
 20
13.5024230676321
 30
0.0
 11
9.4
 21
15.49487957166558
 31
0.0
  0
LINE
  5
EA6E56CB8
330
EA6E56C5A
100
AcDbEntity
  8
0
 62
     0
100
AcDbLine
 10
9.4
 20
5.004798018908181
 30
0.0
 11
9.4
 21
6.004798018908182
 31
0.0
  0
LINE
  5
EA6E56CB9
330
EA6E56C5A
100
AcDbEntity
  8
0
 62
     0
100
AcDbLine
 10
9.4
 20
9.255120428334413
 30
0.0
 11
9.4
 21
11.24757693236789
 31
0.0
  0
LINE
  5
EA6E56CBA
330
EA6E56C5A
100
AcDbEntity
  8
0
 62
     0
100
AcDbLine
 10
9.199999999999999
 20
0.9332003497861832
 30
0.0
 11
9.199999999999999
 21
1.955527915091238
 31
0.0
  0
LINE
  5
EA6E56CBB
330
EA6E56C5A
100
AcDbEntity
  8
0
 62
     0
100
AcDbLine
 10
9.199999999999999
 20
16.04447208490875
 30
0.0
 11
9.199999999999999
 21
17.06679965021381
 31
0.0
  0
LINE
  5
EA6E56CBC
330
EA6E56C5A
100
AcDbEntity
  8
0
 62
     0
100
AcDbLine
 10
9.199999999999999
 20
2.642715771748799
 30
0.0
 11
9.199999999999999
 21
4.809644645891883
 31
0.0
  0
LINE
  5
EA6E56CBD
330
EA6E56C5A
100
AcDbEntity
  8
0
 62
     0
100
AcDbLine
 10
9.199999999999999
 20
13.19035535410812
 30
0.0
 11
9.199999999999999
 21
15.3572842282512
 31
0.0
  0
LINE
  5
EA6E56CBE
330
EA6E56C5A
100
AcDbEntity
  8
0
 62
     0
100
AcDbLine
 10
9.199999999999999
 20
5.004798018908181
 30
0.0
 11
9.199999999999999
 21
6.004798018908182
 31
0.0
  0
LINE
  5
EA6E56CBF
330
EA6E56C5A
100
AcDbEntity
  8
0
 62
     0
100
AcDbLine
 10
9.199999999999999
 20
9.392715771748797
 30
0.0
 11
9.199999999999999
 21
11.55964464589189
 31
0.0
  0
LINE
  5
EA6E56CC0
330
EA6E56C5A
100
AcDbEntity
  8
0
 62
     0
100
AcDbLine
 10
9.0
 20
0.9806851452009935
 30
0.0
 11
9.0
 21
2.005537617777612
 31
0.0
  0
LINE
  5
EA6E56CC1
330
EA6E56C5A
100
AcDbEntity
  8
0
 62
     0
100
AcDbLine
 10
9.0
 20
15.99446238222238
 30
0.0
 11
9.0
 21
17.01931485479899
 31
0.0
  0
LINE
  5
EA6E56CC2
330
EA6E56C5A
100
AcDbEntity
  8
0
 62
     0
100
AcDbLine
 10
9.0
 20
2.794145186405889
 30
0.0
 11
9.0
 21
6.004798018908182
 31
0.0
  0
LINE
  5
EA6E56CC3
330
EA6E56C5A
100
AcDbEntity
  8
0
 62
     0
100
AcDbLine
 10
9.0
 20
9.5441451864059
 30
0.0
 11
9.0
 21
15.20604659134991
 31
0.0
  0
LINE
  5
EA6E56CC4
330
EA6E56C5A
100
AcDbEntity
  8
0
 62
     0
100
AcDbLine
 10
8.8
 20
1.030753733228884
 30
0.0
 11
8.8
 21
2.058285681017128
 31
0.0
  0
LINE
  5
EA6E56CC5
330
EA6E56C5A
100
AcDbEntity
  8
0
 62
     0
100
AcDbLine
 10
8.8
 20
15.94171431898286
 30
0.0
 11
8.8
 21
16.96924626677111
 31
0.0
  0
LINE
  5
EA6E56CC6
330
EA6E56C5A
100
AcDbEntity
  8
0
 62
     0
100
AcDbLine
 10
8.8
 20
2.964241435429821
 30
0.0
 11
8.8
 21
6.004798018908182
 31
0.0
  0
LINE
  5
EA6E56CC7
330
EA6E56C5A
100
AcDbEntity
  8
0
 62
     0
100
AcDbLine
 10
8.8
 20
9.71424143542983
 30
0.0
 11
8.8
 21
15.03741403325012
 31
0.0
  0
LINE
  5
EA6E56CC8
330
EA6E56C5A
100
AcDbEntity
  8
0
 62
     0
100
AcDbLine
 10
8.599999999999999
 20
1.083429923959655
 30
0.0
 11
8.599999999999999
 21
2.113812192151339
 31
0.0
  0
LINE
  5
EA6E56CC9
330
EA6E56C5A
100
AcDbEntity
  8
0
 62
     0
100
AcDbLine
 10
8.599999999999999
 20
15.88618780784866
 30
0.0
 11
8.599999999999999
 21
16.91657007604034
 31
0.0
  0
LINE
  5
EA6E56CCA
330
EA6E56C5A
100
AcDbEntity
  8
0
 62
     0
100
AcDbLine
 10
8.599999999999999
 20
3.156508117249325
 30
0.0
 11
8.599999999999999
 21
6.004798018908182
 31
0.0
  0
LINE
  5
EA6E56CCB
330
EA6E56C5A
100
AcDbEntity
  8
0
 62
     0
100
AcDbLine
 10
8.599999999999999
 20
9.906508117249334
 30
0.0
 11
8.599999999999999
 21
14.84847420540885
 31
0.0
  0
LINE
  5
EA6E56CCC
330
EA6E56C5A
100
AcDbEntity
  8
0
 62
     0
100
AcDbLine
 10
8.4
 20
1.138739084443542
 30
0.0
 11
8.4
 21
2.172812631433949
 31
0.0
  0
LINE
  5
EA6E56CCD
330
EA6E56C5A
100
AcDbEntity
  8
0
 62
     0
100
AcDbLine
 10
8.4
 20
15.82718736856604
 30
0.0
 11
8.4
 21
16.86126091555645
 31
0.0
  0
LINE
  5
EA6E56CCE
330
EA6E56C5A
100
AcDbEntity
  8
0
 62
     0
100
AcDbLine
 10
8.4
 20
3.375383199960236
 30
0.0
 11
8.4
 21
6.004798018908182
 31
0.0
  0
LINE
  5
EA6E56CCF
330
EA6E56C5A
100
AcDbEntity
  8
0
 62
     0
100
AcDbLine
 10
8.4
 20
10.12538319996024
 30
0.0
 11
8.4
 21
14.63557161972996
 31
0.0
  0
LINE
  5
EA6E56CD0
330
EA6E56C5A
100
AcDbEntity
  8
0
 62
     0
100
AcDbLine
 10
8.200000000000001
 20
1.196733304907503
 30
0.0
 11
8.200000000000001
 21
2.235722402390244
 31
0.0
  0
LINE
  5
EA6E56CD1
330
EA6E56C5A
100
AcDbEntity
  8
0
 62
     0
100
AcDbLine
 10
8.200000000000001
 20
15.76427759760974
 30
0.0
 11
8.200000000000001
 21
16.80326669509248
 31
0.0
  0
LINE
  5
EA6E56CD2
330
EA6E56C5A
100
AcDbEntity
  8
0
 62
     0
100
AcDbLine
 10
8.200000000000001
 20
3.627508786341501
 30
0.0
 11
8.200000000000001
 21
6.004798018908182
 31
0.0
  0
LINE
  5
EA6E56CD3
330
EA6E56C5A
100
AcDbEntity
  8
0
 62
     0
100
AcDbLine
 10
8.200000000000001
 20
10.3775087863415
 30
0.0
 11
8.200000000000001
 21
14.3934422666304
 31
0.0
  0
LINE
  5
EA6E56CD4
330
EA6E56C5A
100
AcDbEntity
  8
0
 62
     0
100
AcDbLine
 10
8.0
 20
1.258070209803342
 30
0.0
 11
8.0
 21
2.302608253196726
 31
0.0
  0
LINE
  5
EA6E56CD5
330
EA6E56C5A
100
AcDbEntity
  8
0
 62
     0
100
AcDbLine
 10
8.0
 20
15.69739174680327
 30
0.0
 11
8.0
 21
16.74192979019665
 31
0.0
  0
LINE
  5
EA6E56CD6
330
EA6E56C5A
100
AcDbEntity
  8
0
 62
     0
100
AcDbLine
 10
8.0
 20
3.923649376593718
 30
0.0
 11
8.0
 21
6.004798018908182
 31
0.0
  0
LINE
  5
EA6E56CD7
330
EA6E56C5A
100
AcDbEntity
  8
0
 62
     0
100
AcDbLine
 10
8.0
 20
10.67364937659373
 30
0.0
 11
8.0
 21
14.11401235389756
 31
0.0
  0
LINE
  5
EA6E56CD8
330
EA6E56C5A
100
AcDbEntity
  8
0
 62
     0
100
AcDbLine
 10
7.799999999999999
 20
1.323072197862593
 30
0.0
 11
7.799999999999999
 21
2.373542828567604
 31
0.0
  0
LINE
  5
EA6E56CD9
330
EA6E56C5A
100
AcDbEntity
  8
0
 62
     0
100
AcDbLine
 10
7.799999999999999
 20
15.62645717143239
 30
0.0
 11
7.799999999999999
 21
16.6769278021374
 31
0.0
  0
LINE
  5
EA6E56CDA
330
EA6E56C5A
100
AcDbEntity
  8
0
 62
     0
100
AcDbLine
 10
7.799999999999999
 20
4.287684463111761
 30
0.0
 11
7.800000000000001
 21
6.004798018908182
 31
0.0
  0
LINE
  5
EA6E56CDB
330
EA6E56C5A
100
AcDbEntity
  8
0
 62
     0
100
AcDbLine
 10
7.799999999999999
 20
11.03768446311176
 30
0.0
 11
7.799999999999999
 21
13.78369552143277
 31
0.0
  0
LINE
  5
EA6E56CDC
330
EA6E56C5A
100
AcDbEntity
  8
0
 62
     0
100
AcDbLine
 10
7.599999999999999
 20
1.391799481934756
 30
0.0
 11
7.599999999999999
 21
2.448605117969133
 31
0.0
  0
LINE
  5
EA6E56CDD
330
EA6E56C5A
100
AcDbEntity
  8
0
 62
     0
100
AcDbLine
 10
7.599999999999999
 20
15.55139488203086
 30
0.0
 11
7.599999999999999
 21
16.60820051806523
 31
0.0
  0
LINE
  5
EA6E56CDE
330
EA6E56C5A
100
AcDbEntity
  8
0
 62
     0
100
AcDbLine
 10
7.599999999999999
 20
4.840055661165997
 30
0.0
 11
7.599999999999999
 21
6.004798018908182
 31
0.0
  0
LINE
  5
EA6E56CDF
330
EA6E56C5A
100
AcDbEntity
  8
0
 62
     0
100
AcDbLine
 10
7.599999999999999
 20
11.590055661166
 30
0.0
 11
7.599999999999999
 21
13.31037280736468
 31
0.0
  0
LINE
  5
EA6E56CE0
330
EA6E56C5A
100
AcDbEntity
  8
0
 62
     0
100
AcDbLine
 10
7.4
 20
1.464317169370111
 30
0.0
 11
7.4
 21
2.527880961894759
 31
0.0
  0
LINE
  5
EA6E56CE1
330
EA6E56C5A
100
AcDbEntity
  8
0
 62
     0
100
AcDbLine
 10
7.4
 20
15.47211903810524
 30
0.0
 11
7.4
 21
16.53568283062988
 31
0.0
  0
LINE
  5
EA6E56CE2
330
EA6E56C5A
100
AcDbEntity
  8
0
 62
     0
100
AcDbLine
 10
7.4
 20
5.010858141058445
 30
0.0
 11
7.4
 21
6.004798018908182
 31
0.0
  0
LINE
  5
EA6E56CE3
330
EA6E56C5A
100
AcDbEntity
  8
0
 62
     0
100
AcDbLine
 10
7.2
 20
1.54069561439672
 30
0.0
 11
7.2
 21
2.611463624641877
 31
0.0
  0
LINE
  5
EA6E56CE4
330
EA6E56C5A
100
AcDbEntity
  8
0
 62
     0
100
AcDbLine
 10
7.2
 20
15.38853637535811
 30
0.0
 11
7.2
 21
16.45930438560327
 31
0.0
  0
LINE
  5
EA6E56CE5
330
EA6E56C5A
100
AcDbEntity
  8
0
 62
     0
100
AcDbLine
 10
7.2
 20
5.009318556112756
 30
0.0
 11
7.2
 21
6.004798018908182
 31
0.0
  0
LINE
  5
EA6E56CE6
330
EA6E56C5A
100
AcDbEntity
  8
0
 62
     0
100
AcDbLine
 10
7.0
 20
1.621010812927075
 30
0.0
 11
7.0
 21
2.699454443607051
 31
0.0
  0
LINE
  5
EA6E56CE7
330
EA6E56C5A
100
AcDbEntity
  8
0
 62
     0
100
AcDbLine
 10
7.0
 20
15.30054555639295
 30
0.0
 11
7.0
 21
16.37898918707292
 31
0.0
  0
LINE
  5
EA6E56CE8
330
EA6E56C5A
100
AcDbEntity
  8
0
 62
     0
100
AcDbLine
 10
7.0
 20
5.007778971167066
 30
0.0
 11
7.0
 21
6.004798018908182
 31
0.0
  0
LINE
  5
EA6E56CE9
330
EA6E56C5A
100
AcDbEntity
  8
0
 62
     0
100
AcDbLine
 10
6.799999999999999
 20
1.705344845571651
 30
0.0
 11
6.799999999999999
 21
2.791963567034779
 31
0.0
  0
LINE
  5
EA6E56CEA
330
EA6E56C5A
100
AcDbEntity
  8
0
 62
     0
100
AcDbLine
 10
6.799999999999999
 20
15.20803643296522
 30
0.0
 11
6.799999999999999
 21
16.29465515442833
 31
0.0
  0
LINE
  5
EA6E56CEB
330
EA6E56C5A
100
AcDbEntity
  8
0
 62
     0
100
AcDbLine
 10
6.799999999999999
 20
5.006239386221376
 30
0.0
 11
6.800000000000001
 21
6.004798018908182
 31
0.0
  0
LINE
  5
EA6E56CEC
330
EA6E56C5A
100
AcDbEntity
  8
0
 62
     0
100
AcDbLine
 10
6.599999999999999
 20
1.793786375640561
 30
0.0
 11
6.599999999999999
 21
2.889110794503253
 31
0.0
  0
LINE
  5
EA6E56CED
330
EA6E56C5A
100
AcDbEntity
  8
0
 62
     0
100
AcDbLine
 10
6.599999999999999
 20
15.11088920549675
 30
0.0
 11
6.599999999999999
 21
16.20621362435944
 31
0.0
  0
LINE
  5
EA6E56CEE
330
EA6E56C5A
100
AcDbEntity
  8
0
 62
     0
100
AcDbLine
 10
6.4
 20
1.886431210121016
 30
0.0
 11
6.4
 21
2.991026537321893
 31
0.0
  0
LINE
  5
EA6E56CEF
330
EA6E56C5A
100
AcDbEntity
  8
0
 62
     0
100
AcDbLine
 10
6.4
 20
15.00897346267811
 30
0.0
 11
6.4
 21
16.11356878987898
 31
0.0
  0
LINE
  5
EA6E56CF0
330
EA6E56C5A
100
AcDbEntity
  8
0
 62
     0
100
AcDbLine
 10
6.2
 20
1.983382933076159
 30
0.0
 11
6.2
 21
3.097852919598746
 31
0.0
  0
LINE
  5
EA6E56CF1
330
EA6E56C5A
100
AcDbEntity
  8
0
 62
     0
100
AcDbLine
 10
6.2
 20
14.90214708040125
 30
0.0
 11
6.2
 21
16.01661706692383
 31
0.0
  0
LINE
  5
EA6E56CF2
330
EA6E56C5A
100
AcDbEntity
  8
0
 62
     0
100
AcDbLine
 10
6.0
 20
2.084753622680731
 30
0.0
 11
6.0
 21
3.209745045204609
 31
0.0
  0
LINE
  5
EA6E56CF3
330
EA6E56C5A
100
AcDbEntity
  8
0
 62
     0
100
AcDbLine
 10
6.0
 20
14.79025495479539
 30
0.0
 11
6.0
 21
15.91524637731926
 31
0.0
  0
LINE
  5
EA6E56CF4
330
EA6E56C5A
100
AcDbEntity
  8
0
 62
     0
100
AcDbLine
 10
5.799999999999999
 20
2.190664665270343
 30
0.0
 11
5.799999999999999
 21
3.326872461473611
 31
0.0
  0
LINE
  5
EA6E56CF5
330
EA6E56C5A
100
AcDbEntity
  8
0
 62
     0
100
AcDbLine
 10
5.799999999999999
 20
14.67312753852638
 30
0.0
 11
5.799999999999999
 21
15.80933533472965
 31
0.0
  0
LINE
  5
EA6E56CF6
330
EA6E56C5A
100
AcDbEntity
  8
0
 62
     0
100
AcDbLine
 10
5.599999999999999
 20
2.301247682434635
 30
0.0
 11
5.599999999999999
 21
3.449420857581046
 31
0.0
  0
LINE
  5
EA6E56CF7
330
EA6E56C5A
100
AcDbEntity
  8
0
 62
     0
100
AcDbLine
 10
5.599999999999999
 20
14.55057914241896
 30
0.0
 11
5.599999999999999
 21
15.69875231756537
 31
0.0
  0
LINE
  5
EA6E56CF8
330
EA6E56C5A
100
AcDbEntity
  8
0
 62
     0
100
AcDbLine
 10
5.4
 20
2.416645590462048
 30
0.0
 11
5.4
 21
3.577594044593456
 31
0.0
  0
LINE
  5
EA6E56CF9
330
EA6E56C5A
100
AcDbEntity
  8
0
 62
     0
100
AcDbLine
 10
5.4
 20
14.42240595540654
 30
0.0
 11
5.4
 21
15.58335440953795
 31
0.0
  0
LINE
  5
EA6E56CFA
330
EA6E56C5A
100
AcDbEntity
  8
0
 62
     0
100
AcDbLine
 10
5.2
 20
2.53701381551804
 30
0.0
 11
5.2
 21
3.711630126781392
 31
0.0
  0
LINE
  5
EA6E56CFB
330
EA6E56C5A
100
AcDbEntity
  8
0
 62
     0
100
AcDbLine
 10
5.2
 20
14.28836987321861
 30
0.0
 11
5.2
 21
15.46298618448196
 31
0.0
  0
LINE
  5
EA6E56CFC
330
EA6E56C5A
100
AcDbEntity
  8
0
 62
     0
100
AcDbLine
 10
5.0
 20
2.662521693035724
 30
0.0
 11
5.0
 21
3.853216504577136
 31
0.0
  0
LINE
  5
EA6E56CFD
330
EA6E56C5A
100
AcDbEntity
  8
0
 62
     0
100
AcDbLine
 10
5.0
 20
14.14678349542286
 30
0.0
 11
5.0
 21
15.33747830696428
 31
0.0
  0
LINE
  5
EA6E56CFE
330
EA6E56C5A
100
AcDbEntity
  8
0
 62
     0
100
AcDbLine
 10
4.799999999999999
 20
2.793354086221263
 30
0.0
 11
4.799999999999999
 21
4.003783113073376
 31
0.0
  0
LINE
  5
EA6E56CFF
330
EA6E56C5A
100
AcDbEntity
  8
0
 62
     0
100
AcDbLine
 10
4.799999999999999
 20
13.99621688692662
 30
0.0
 11
4.799999999999999
 21
15.20664591377872
 31
0.0
  0
LINE
  5
EA6E56D00
330
EA6E56C5A
100
AcDbEntity
  8
0
 62
     0
100
AcDbLine
 10
4.599999999999999
 20
2.929713266730669
 30
0.0
 11
4.599999999999999
 21
4.163951885275562
 31
0.0
  0
LINE
  5
EA6E56D01
330
EA6E56C5A
100
AcDbEntity
  8
0
 62
     0
100
AcDbLine
 10
4.599999999999999
 20
13.83604811472443
 30
0.0
 11
4.599999999999999
 21
15.07028673326932
 31
0.0
  0
LINE
  5
EA6E56D02
330
EA6E56C5A
100
AcDbEntity
  8
0
 62
     0
100
AcDbLine
 10
4.4
 20
3.072155023749401
 30
0.0
 11
4.4
 21
4.334449219425922
 31
0.0
  0
LINE
  5
EA6E56D03
330
EA6E56C5A
100
AcDbEntity
  8
0
 62
     0
100
AcDbLine
 10
4.4
 20
13.66555078057407
 30
0.0
 11
4.4
 21
14.92784497625058
 31
0.0
  0
LINE
  5
EA6E56D04
330
EA6E56C5A
100
AcDbEntity
  8
0
 62
     0
100
AcDbLine
 10
4.2
 20
3.222522228922893
 30
0.0
 11
4.2
 21
4.516131333158581
 31
0.0
  0
LINE
  5
EA6E56D05
330
EA6E56C5A
100
AcDbEntity
  8
0
 62
     0
100
AcDbLine
 10
4.2
 20
13.4838686668414
 30
0.0
 11
4.2
 21
14.77747777107709
 31
0.0
  0
LINE
  5
EA6E56D06
330
EA6E56C5A
100
AcDbEntity
  8
0
 62
     0
100
AcDbLine
 10
4.0
 20
3.381496362144701
 30
0.0
 11
4.0
 21
4.710018288129922
 31
0.0
  0
LINE
  5
EA6E56D07
330
EA6E56C5A
100
AcDbEntity
  8
0
 62
     0
100
AcDbLine
 10
4.0
 20
13.28998171187007
 30
0.0
 11
4.0
 21
14.6185036378553
 31
0.0
  0
LINE
  5
EA6E56D08
330
EA6E56C5A
100
AcDbEntity
  8
0
 62
     0
100
AcDbLine
 10
3.799999999999999
 20
3.549655387637881
 30
0.0
 11
3.799999999999999
 21
4.917340616816316
 31
0.0
  0
LINE
  5
EA6E56D09
330
EA6E56C5A
100
AcDbEntity
  8
0
 62
     0
100
AcDbLine
 10
3.799999999999999
 20
13.08265938318368
 30
0.0
 11
3.799999999999999
 21
14.4503446123621
 31
0.0
  0
LINE
  5
EA6E56D0A
330
EA6E56C5A
100
AcDbEntity
  8
0
 62
     0
100
AcDbLine
 10
3.6
 20
3.727668483578981
 30
0.0
 11
3.6
 21
5.139604787888837
 31
0.0
  0
LINE
  5
EA6E56D0B
330
EA6E56C5A
100
AcDbEntity
  8
0
 62
     0
100
AcDbLine
 10
3.6
 20
12.86039521211116
 30
0.0
 11
3.6
 21
14.27233151642101
 31
0.0
  0
LINE
  5
EA6E56D0C
330
EA6E56C5A
100
AcDbEntity
  8
0
 62
     0
100
AcDbLine
 10
3.399999999999999
 20
3.916316932017076
 30
0.0
 11
3.399999999999999
 21
5.378687769154121
 31
0.0
  0
LINE
  5
EA6E56D0D
330
EA6E56C5A
100
AcDbEntity
  8
0
 62
     0
100
AcDbLine
 10
3.399999999999999
 20
12.62131223084586
 30
0.0
 11
3.399999999999999
 21
14.08368306798291
 31
0.0
  0
LINE
  5
EA6E56D0E
330
EA6E56C5A
100
AcDbEntity
  8
0
 62
     0
100
AcDbLine
 10
3.2
 20
4.116521701929555
 30
0.0
 11
3.2
 21
5.63697830289019
 31
0.0
  0
LINE
  5
EA6E56D0F
330
EA6E56C5A
100
AcDbEntity
  8
0
 62
     0
100
AcDbLine
 10
3.2
 20
12.36302169710981
 30
0.0
 11
3.2
 21
13.88347829807043
 31
0.0
  0
LINE
  5
EA6E56D10
330
EA6E56C5A
100
AcDbEntity
  8
0
 62
     0
100
AcDbLine
 10
3.0
 20
4.329380554923221
 30
0.0
 11
3.0
 21
5.917596726934862
 31
0.0
  0
LINE
  5
EA6E56D11
330
EA6E56C5A
100
AcDbEntity
  8
0
 62
     0
100
AcDbLine
 10
3.0
 20
12.08240327306513
 30
0.0
 11
3.0
 21
13.67061944507678
 31
0.0
  0
LINE
  5
EA6E56D12
330
EA6E56C5A
100
AcDbEntity
  8
0
 62
     0
100
AcDbLine
 10
2.799999999999999
 20
4.556219039421013
 30
0.0
 11
2.799999999999999
 21
6.224754572119449
 31
0.0
  0
LINE
  5
EA6E56D13
330
EA6E56C5A
100
AcDbEntity
  8
0
 62
     0
100
AcDbLine
 10
2.799999999999999
 20
11.77524542788054
 30
0.0
 11
2.799999999999999
 21
13.44378096057899
 31
0.0
  0
LINE
  5
EA6E56D14
330
EA6E56C5A
100
AcDbEntity
  8
0
 62
     0
100
AcDbLine
 10
2.6
 20
4.798662328218999
 30
0.0
 11
2.6
 21
6.572120102877027
 31
0.0
  0
LINE
  5
EA6E56D15
330
EA6E56C5A
100
AcDbEntity
  8
0
 62
     0
100
AcDbLine
 10
2.6
 20
11.42787989712297
 30
0.0
 11
2.6
 21
13.20133767178099
 31
0.0
  0
LINE
  5
EA6E56D16
330
EA6E56C5A
100
AcDbEntity
  8
0
 62
     0
100
AcDbLine
 10
2.399999999999999
 20
5.058739397750326
 30
0.0
 11
2.399999999999999
 21
6.997568012831423
 31
0.0
  0
LINE
  5
EA6E56D17
330
EA6E56C5A
100
AcDbEntity
  8
0
 62
     0
100
AcDbLine
 10
2.399999999999999
 20
11.00243198716857
 30
0.0
 11
2.399999999999999
 21
12.94126060224967
 31
0.0
  0
LINE
  5
EA6E56D18
330
EA6E56C5A
100
AcDbEntity
  8
0
 62
     0
100
AcDbLine
 10
2.2
 20
5.339039409038378
 30
0.0
 11
2.2
 21
7.570011562418093
 31
0.0
  0
LINE
  5
EA6E56D19
330
EA6E56C5A
100
AcDbEntity
  8
0
 62
     0
100
AcDbLine
 10
2.2
 20
10.4299884375819
 30
0.0
 11
2.2
 21
12.66096059096161
 31
0.0
  0
LINE
  5
EA6E56D1A
330
EA6E56C5A
100
AcDbEntity
  8
0
 62
     0
100
AcDbLine
 10
2.0
 20
5.642956437377446
 30
0.0
 11
2.0
 21
12.35704356262255
 31
0.0
  0
LINE
  5
EA6E56D1B
330
EA6E56C5A
100
AcDbEntity
  8
0
 62
     0
100
AcDbLine
 10
1.8
 20
5.97540056854588
 30
0.0
 11
1.8
 21
12.02459943145411
 31
0.0
  0
LINE
  5
EA6E56D1C
330
EA6E56C5A
100
AcDbEntity
  8
0
 62
     0
100
AcDbLine
 10
1.6
 20
6.357813161306637
 30
0.0
 11
1.6
 21
11.64218683869336
 31
0.0
  0
LINE
  5
EA6E56D1D
330
EA6E56C5A
100
AcDbEntity
  8
0
 62
     0
100
AcDbLine
 10
1.399999999999999
 20
6.824201098360354
 30
0.0
 11
1.399999999999999
 21
11.17579890163963
 31
0.0
  0
LINE
  5
EA6E56D1E
330
EA6E56C5A
100
AcDbEntity
  8
0
 62
     0
100
AcDbLine
 10
1.199999999999999
 20
7.448532813692753
 30
0.0
 11
1.199999999999999
 21
10.55146718630725
 31
0.0
  0
LINE
  5
EA6E56D1F
330
EA6E56C5A
100
AcDbEntity
  8
0
 62
     0
100
AcDbLine
 10
13.2
 20
0.5011846473685893
 30
0.0
 11
13.2
 21
1.501244022154416
 31
0.0
  0
LINE
  5
EA6E56D20
330
EA6E56C5A
100
AcDbEntity
  8
0
 62
     0
100
AcDbLine
 10
13.2
 20
16.49875597784558
 30
0.0
 11
13.2
 21
17.49881535263141
 31
0.0
  0
LINE
  5
EA6E56D21
330
EA6E56C5A
100
AcDbEntity
  8
0
 62
     0
100
AcDbLine
 10
13.2
 20
1.502736746385633
 30
0.0
 11
13.2
 21
3.003293554097711
 31
0.0
  0
LINE
  5
EA6E56D22
330
EA6E56C5A
100
AcDbEntity
  8
0
 62
     0
100
AcDbLine
 10
13.2
 20
14.99670644590227
 30
0.0
 11
13.2
 21
16.49726325361435
 31
0.0
  0
LINE
  5
EA6E56D23
330
EA6E56C5A
100
AcDbEntity
  8
0
 62
     0
100
AcDbLine
 10
13.2
 20
8.246706445902287
 30
0.0
 11
13.2
 21
9.747263253614363
 31
0.0
  0
LINE
  5
EA6E56D24
330
EA6E56C5A
100
AcDbEntity
  8
0
 62
     0
100
AcDbLine
 10
13.4
 20
0.5047390883533467
 30
0.0
 11
13.4
 21
1.504976666345426
 31
0.0
  0
LINE
  5
EA6E56D25
330
EA6E56C5A
100
AcDbEntity
  8
0
 62
     0
100
AcDbLine
 10
13.4
 20
16.49502333365457
 30
0.0
 11
13.4
 21
17.49526091164666
 31
0.0
  0
LINE
  5
EA6E56D26
330
EA6E56C5A
100
AcDbEntity
  8
0
 62
     0
100
AcDbLine
 10
13.4
 20
1.510953142904803
 30
0.0
 11
13.4
 21
3.013184954832297
 31
0.0
  0
LINE
  5
EA6E56D27
330
EA6E56C5A
100
AcDbEntity
  8
0
 62
     0
100
AcDbLine
 10
13.4
 20
14.9868150451677
 30
0.0
 11
13.4
 21
16.4890468570952
 31
0.0
  0
LINE
  5
EA6E56D28
330
EA6E56C5A
100
AcDbEntity
  8
0
 62
     0
100
AcDbLine
 10
13.4
 20
8.236815045167702
 30
0.0
 11
13.4
 21
9.739046857095198
 31
0.0
  0
LINE
  5
EA6E56D29
330
EA6E56C5A
100
AcDbEntity
  8
0
 62
     0
100
AcDbLine
 10
13.6
 20
0.5106648206422763
 30
0.0
 11
13.6
 21
1.511199667098658
 31
0.0
  0
LINE
  5
EA6E56D2A
330
EA6E56C5A
100
AcDbEntity
  8
0
 62
     0
100
AcDbLine
 10
13.6
 20
16.48880033290133
 30
0.0
 11
13.6
 21
17.48933517935772
 31
0.0
  0
LINE
  5
EA6E56D2B
330
EA6E56C5A
100
AcDbEntity
  8
0
 62
     0
100
AcDbLine
 10
13.6
 20
1.524667731119555
 30
0.0
 11
13.6
 21
3.029706593353223
 31
0.0
  0
LINE
  5
EA6E56D2C
330
EA6E56C5A
100
AcDbEntity
  8
0
 62
     0
100
AcDbLine
 10
13.6
 20
14.97029340664677
 30
0.0
 11
13.6
 21
16.47533226888044
 31
0.0
  0
LINE
  5
EA6E56D2D
330
EA6E56C5A
100
AcDbEntity
  8
0
 62
     0
100
AcDbLine
 10
13.6
 20
8.220293406646776
 30
0.0
 11
13.6
 21
9.725332268880443
 31
0.0
  0
LINE
  5
EA6E56D2E
330
EA6E56C5A
100
AcDbEntity
  8
0
 62
     0
100
AcDbLine
 10
13.8
 20
0.5189643438906657
 30
0.0
 11
13.8
 21
1.519915919771853
 31
0.0
  0
LINE
  5
EA6E56D2F
330
EA6E56C5A
100
AcDbEntity
  8
0
 62
     0
100
AcDbLine
 10
13.8
 20
16.48008408022814
 30
0.0
 11
13.8
 21
17.48103565610933
 31
0.0
  0
LINE
  5
EA6E56D30
330
EA6E56C5A
100
AcDbEntity
  8
0
 62
     0
100
AcDbLine
 10
13.8
 20
1.543911647054934
 30
0.0
 11
13.8
 21
3.052913047755087
 31
0.0
  0
LINE
  5
EA6E56D31
330
EA6E56C5A
100
AcDbEntity
  8
0
 62
     0
100
AcDbLine
 10
13.8
 20
14.94708695224491
 30
0.0
 11
13.8
 21
16.45608835294505
 31
0.0
  0
LINE
  5
EA6E56D32
330
EA6E56C5A
100
AcDbEntity
  8
0
 62
     0
100
AcDbLine
 10
13.8
 20
8.197086952244912
 30
0.0
 11
13.8
 21
9.706088352945066
 31
0.0
  0
LINE
  5
EA6E56D33
330
EA6E56C5A
100
AcDbEntity
  8
0
 62
     0
100
AcDbLine
 10
14.0
 20
0.5296411650021327
 30
0.0
 11
14.0
 21
1.531129487302989
 31
0.0
  0
LINE
  5
EA6E56D34
330
EA6E56C5A
100
AcDbEntity
  8
0
 62
     0
100
AcDbLine
 10
14.0
 20
16.468870512697
 30
0.0
 11
14.0
 21
17.47035883499786
 31
0.0
  0
LINE
  5
EA6E56D35
330
EA6E56C5A
100
AcDbEntity
  8
0
 62
     0
100
AcDbLine
 10
14.0
 20
1.568728977850379
 30
0.0
 11
14.0
 21
3.08288199648385
 31
0.0
  0
LINE
  5
EA6E56D36
330
EA6E56C5A
100
AcDbEntity
  8
0
 62
     0
100
AcDbLine
 10
14.0
 20
14.91711800351614
 30
0.0
 11
14.0
 21
16.43127102214962
 31
0.0
  0
LINE
  5
EA6E56D37
330
EA6E56C5A
100
AcDbEntity
  8
0
 62
     0
100
AcDbLine
 10
14.0
 20
8.167118003516151
 30
0.0
 11
14.0
 21
9.681271022149623
 31
0.0
  0
LINE
  5
EA6E56D38
330
EA6E56C5A
100
AcDbEntity
  8
0
 62
     0
100
AcDbLine
 10
14.19999999999999
 20
0.5426998055585486
 30
0.0
 11
14.19999999999999
 21
1.544845609709006
 31
0.0
  0
LINE
  5
EA6E56D39
330
EA6E56C5A
100
AcDbEntity
  8
0
 62
     0
100
AcDbLine
 10
14.19999999999999
 20
16.45515439029098
 30
0.0
 11
14.19999999999999
 21
17.45730019444144
 31
0.0
  0
LINE
  5
EA6E56D3A
330
EA6E56C5A
100
AcDbEntity
  8
0
 62
     0
100
AcDbLine
 10
14.19999999999999
 20
1.599177274433096
 30
0.0
 11
14.19999999999999
 21
3.119715547134022
 31
0.0
  0
LINE
  5
EA6E56D3B
330
EA6E56C5A
100
AcDbEntity
  8
0
 62
     0
100
AcDbLine
 10
14.19999999999999
 20
14.88028445286597
 30
0.0
 11
14.19999999999999
 21
16.4008227255669
 31
0.0
  0
LINE
  5
EA6E56D3C
330
EA6E56C5A
100
AcDbEntity
  8
0
 62
     0
100
AcDbLine
 10
14.19999999999999
 20
8.130284452865977
 30
0.0
 11
14.19999999999999
 21
9.650822725566902
 31
0.0
  0
LINE
  5
EA6E56D3D
330
EA6E56C5A
100
AcDbEntity
  8
0
 62
     0
100
AcDbLine
 10
14.4
 20
0.5581458114356935
 30
0.0
 11
14.4
 21
1.561070716387185
 31
0.0
  0
LINE
  5
EA6E56D3E
330
EA6E56C5A
100
AcDbEntity
  8
0
 62
     0
100
AcDbLine
 10
14.4
 20
16.43892928361282
 30
0.0
 11
14.4
 21
17.44185418856431
 31
0.0
  0
LINE
  5
EA6E56D3F
330
EA6E56C5A
100
AcDbEntity
  8
0
 62
     0
100
AcDbLine
 10
14.4
 20
1.635328234354861
 30
0.0
 11
14.4
 21
3.163542034954738
 31
0.0
  0
LINE
  5
EA6E56D40
330
EA6E56C5A
100
AcDbEntity
  8
0
 62
     0
100
AcDbLine
 10
14.4
 20
14.83645796504525
 30
0.0
 11
14.4
 21
16.36467176564514
 31
0.0
  0
LINE
  5
EA6E56D41
330
EA6E56C5A
100
AcDbEntity
  8
0
 62
     0
100
AcDbLine
 10
14.4
 20
8.086457965045266
 30
0.0
 11
14.4
 21
9.614671765645139
 31
0.0
  0
LINE
  5
EA6E56D42
330
EA6E56C5A
100
AcDbEntity
  8
0
 62
     0
100
AcDbLine
 10
14.59999999999999
 20
0.5759857646525646
 30
0.0
 11
14.59999999999999
 21
1.579812441286875
 31
0.0
  0
LINE
  5
EA6E56D43
330
EA6E56C5A
100
AcDbEntity
  8
0
 62
     0
100
AcDbLine
 10
14.59999999999999
 20
16.42018755871312
 30
0.0
 11
14.59999999999999
 21
17.42401423534744
 31
0.0
  0
LINE
  5
EA6E56D44
330
EA6E56C5A
100
AcDbEntity
  8
0
 62
     0
100
AcDbLine
 10
14.59999999999999
 20
1.677268574155958
 30
0.0
 11
14.59999999999999
 21
3.214520049132959
 31
0.0
  0
LINE
  5
EA6E56D45
330
EA6E56C5A
100
AcDbEntity
  8
0
 62
     0
100
AcDbLine
 10
14.59999999999999
 20
14.78547995086704
 30
0.0
 11
14.59999999999999
 21
16.32273142584404
 31
0.0
  0
LINE
  5
EA6E56D46
330
EA6E56C5A
100
AcDbEntity
  8
0
 62
     0
100
AcDbLine
 10
14.59999999999999
 20
8.035479950867044
 30
0.0
 11
14.59999999999999
 21
9.572731425844038
 31
0.0
  0
LINE
  5
EA6E56D47
330
EA6E56C5A
100
AcDbEntity
  8
0
 62
     0
100
AcDbLine
 10
14.8
 20
0.5962272975137566
 30
0.0
 11
14.8
 21
1.601079641035706
 31
0.0
  0
LINE
  5
EA6E56D48
330
EA6E56C5A
100
AcDbEntity
  8
0
 62
     0
100
AcDbLine
 10
14.8
 20
16.39892035896429
 30
0.0
 11
14.8
 21
17.40377270248623
 31
0.0
  0
LINE
  5
EA6E56D49
330
EA6E56C5A
100
AcDbEntity
  8
0
 62
     0
100
AcDbLine
 10
14.8
 20
1.725101116855706
 30
0.0
 11
14.8
 21
3.274470700593996
 31
0.0
  0
LINE
  5
EA6E56D4A
330
EA6E56C5A
100
AcDbEntity
  8
0
 62
     0
100
AcDbLine
 10
14.8
 20
14.72552929940599
 30
0.0
 11
14.8
 21
16.27489888314428
 31
0.0
  0
LINE
  5
EA6E56D4B
330
EA6E56C5A
100
AcDbEntity
  8
0
 62
     0
100
AcDbLine
 10
14.8
 20
7.975529299406007
 30
0.0
 11
14.8
 21
9.524898883144292
 31
0.0
  0
LINE
  5
EA6E56D4C
330
EA6E56C5A
100
AcDbEntity
  8
0
 62
     0
100
AcDbLine
 10
15.0
 20
0.6188791091165271
 30
0.0
 11
15.0
 21
1.624882416121606
 31
0.0
  0
LINE
  5
EA6E56D4D
330
EA6E56C5A
100
AcDbEntity
  8
0
 62
     0
100
AcDbLine
 10
15.0
 20
16.37511758387839
 30
0.0
 11
15.0
 21
17.38112089088347
 31
0.0
  0
LINE
  5
EA6E56D4E
330
EA6E56C5A
100
AcDbEntity
  8
0
 62
     0
100
AcDbLine
 10
15.0
 20
1.778946127801589
 30
0.0
 11
15.0
 21
3.345224713883408
 31
0.0
  0
LINE
  5
EA6E56D4F
330
EA6E56C5A
100
AcDbEntity
  8
0
 62
     0
100
AcDbLine
 10
15.0
 20
14.65477528611659
 30
0.0
 11
15.0
 21
16.22105387219841
 31
0.0
  0
LINE
  5
EA6E56D50
330
EA6E56C5A
100
AcDbEntity
  8
0
 62
     0
100
AcDbLine
 10
15.0
 20
7.904775286116595
 30
0.0
 11
15.0
 21
9.471053872198412
 31
0.0
  0
LINE
  5
EA6E56D51
330
EA6E56C5A
100
AcDbEntity
  8
0
 62
     0
100
AcDbLine
 10
15.2
 20
0.6439509843066205
 30
0.0
 11
15.2
 21
1.651232135250402
 31
0.0
  0
LINE
  5
EA6E56D52
330
EA6E56C5A
100
AcDbEntity
  8
0
 62
     0
100
AcDbLine
 10
15.2
 20
16.34876786474959
 30
0.0
 11
15.2
 21
17.35604901569337
 31
0.0
  0
LINE
  5
EA6E56D53
330
EA6E56C5A
100
AcDbEntity
  8
0
 62
     0
100
AcDbLine
 10
15.2
 20
1.838965527600104
 30
0.0
 11
15.2
 21
3.427362928229201
 31
0.0
  0
LINE
  5
EA6E56D54
330
EA6E56C5A
100
AcDbEntity
  8
0
 62
     0
100
AcDbLine
 10
15.2
 20
14.5726370717708
 30
0.0
 11
15.2
 21
16.16103447239989
 31
0.0
  0
LINE
  5
EA6E56D55
330
EA6E56C5A
100
AcDbEntity
  8
0
 62
     0
100
AcDbLine
 10
15.2
 20
7.822637071770802
 30
0.0
 11
15.2
 21
9.411034472399894
 31
0.0
  0
LINE
  5
EA6E56D56
330
EA6E56C5A
100
AcDbEntity
  8
0
 62
     0
100
AcDbLine
 10
15.4
 20
0.6714538151807618
 30
0.0
 11
15.4
 21
1.680141463018063
 31
0.0
  0
LINE
  5
EA6E56D57
330
EA6E56C5A
100
AcDbEntity
  8
0
 62
     0
100
AcDbLine
 10
15.4
 20
16.31985853698193
 30
0.0
 11
15.4
 21
17.32854618481924
 31
0.0
  0
LINE
  5
EA6E56D58
330
EA6E56C5A
100
AcDbEntity
  8
0
 62
     0
100
AcDbLine
 10
15.4
 20
1.906497453997511
 30
0.0
 11
15.4
 21
3.521613256092558
 31
0.0
  0
LINE
  5
EA6E56D59
330
EA6E56C5A
100
AcDbEntity
  8
0
 62
     0
100
AcDbLine
 10
15.4
 20
14.47838674390744
 30
0.0
 11
15.4
 21
16.09350254600248
 31
0.0
  0
LINE
  5
EA6E56D5A
330
EA6E56C5A
100
AcDbEntity
  8
0
 62
     0
100
AcDbLine
 10
15.4
 20
7.728386743907438
 30
0.0
 11
15.4
 21
9.343502546002484
 31
0.0
  0
LINE
  5
EA6E56D5B
330
EA6E56C5A
100
AcDbEntity
  8
0
 62
     0
100
AcDbLine
 10
15.6
 20
0.701399625247838
 30
0.0
 11
15.6
 21
1.711624391057784
 31
0.0
  0
LINE
  5
EA6E56D5C
330
EA6E56C5A
100
AcDbEntity
  8
0
 62
     0
100
AcDbLine
 10
15.6
 20
16.28837560894221
 30
0.0
 11
15.6
 21
17.29860037475216
 31
0.0
  0
LINE
  5
EA6E56D5D
330
EA6E56C5A
100
AcDbEntity
  8
0
 62
     0
100
AcDbLine
 10
15.6
 20
1.982488280859824
 30
0.0
 11
15.6
 21
3.628889777131711
 31
0.0
  0
LINE
  5
EA6E56D5E
330
EA6E56C5A
100
AcDbEntity
  8
0
 62
     0
100
AcDbLine
 10
15.6
 20
14.37111022286828
 30
0.0
 11
15.6
 21
16.01751171914017
 31
0.0
  0
LINE
  5
EA6E56D5F
330
EA6E56C5A
100
AcDbEntity
  8
0
 62
     0
100
AcDbLine
 10
15.6
 20
7.621110222868287
 30
0.0
 11
15.6
 21
9.267511719140172
 31
0.0
  0
LINE
  5
EA6E56D60
330
EA6E56C5A
100
AcDbEntity
  8
0
 62
     0
100
AcDbLine
 10
15.8
 20
0.7338015963764449
 30
0.0
 11
15.8
 21
1.745696272844693
 31
0.0
  0
LINE
  5
EA6E56D61
330
EA6E56C5A
100
AcDbEntity
  8
0
 62
     0
100
AcDbLine
 10
15.8
 20
16.2543037271553
 30
0.0
 11
15.8
 21
17.26619840362355
 31
0.0
  0
LINE
  5
EA6E56D62
330
EA6E56C5A
100
AcDbEntity
  8
0
 62
     0
100
AcDbLine
 10
15.8
 20
2.067310355584581
 30
0.0
 11
15.8
 21
3.750348873208841
 31
0.0
  0
LINE
  5
EA6E56D63
330
EA6E56C5A
100
AcDbEntity
  8
0
 62
     0
100
AcDbLine
 10
15.8
 20
14.24965112679115
 30
0.0
 11
15.8
 21
15.9326896444154
 31
0.0
  0
LINE
  5
EA6E56D64
330
EA6E56C5A
100
AcDbEntity
  8
0
 62
     0
100
AcDbLine
 10
15.8
 20
7.499651126791158
 30
0.0
 11
15.8
 21
9.182689644415415
 31
0.0
  0
LINE
  5
EA6E56D65
330
EA6E56C5A
100
AcDbEntity
  8
0
 62
     0
100
AcDbLine
 10
16.0
 20
0.7686740986732376
 30
0.0
 11
16.0
 21
1.78237386236562
 31
0.0
  0
LINE
  5
EA6E56D66
330
EA6E56C5A
100
AcDbEntity
  8
0
 62
     0
100
AcDbLine
 10
16.0
 20
16.21762613763437
 30
0.0
 11
16.0
 21
17.23132590132675
 31
0.0
  0
LINE
  5
EA6E56D67
330
EA6E56C5A
100
AcDbEntity
  8
0
 62
     0
100
AcDbLine
 10
16.0
 20
2.16140561915966
 30
0.0
 11
16.0
 21
3.88958648698698
 31
0.0
  0
LINE
  5
EA6E56D68
330
EA6E56C5A
100
AcDbEntity
  8
0
 62
     0
100
AcDbLine
 10
16.0
 20
14.10984300806157
 30
0.0
 11
16.0
 21
15.83859438084033
 31
0.0
  0
LINE
  5
EA6E56D69
330
EA6E56C5A
100
AcDbEntity
  8
0
 62
     0
100
AcDbLine
 10
16.0
 20
7.359843008061576
 30
0.0
 11
16.0
 21
9.088594380840335
 31
0.0
  0
LINE
  5
EA6E56D6A
330
EA6E56C5A
100
AcDbEntity
  8
0
 62
     0
100
AcDbLine
 10
16.0
 20
11.99520198109181
 30
0.0
 11
16.0
 21
12.99520198109181
 31
0.0
  0
LINE
  5
EA6E56D6B
330
EA6E56C5A
100
AcDbEntity
  8
0
 62
     0
100
AcDbLine
 10
16.2
 20
0.8060327234544644
 30
0.0
 11
16.2
 21
1.821675356888281
 31
0.0
  0
LINE
  5
EA6E56D6C
330
EA6E56C5A
100
AcDbEntity
  8
0
 62
     0
100
AcDbLine
 10
16.2
 20
16.17832464311171
 30
0.0
 11
16.2
 21
17.19396727654554
 31
0.0
  0
LINE
  5
EA6E56D6D
330
EA6E56C5A
100
AcDbEntity
  8
0
 62
     0
100
AcDbLine
 10
16.2
 20
2.265299594642034
 30
0.0
 11
16.2
 21
4.053212394630294
 31
0.0
  0
LINE
  5
EA6E56D6E
330
EA6E56C5A
100
AcDbEntity
  8
0
 62
     0
100
AcDbLine
 10
16.2
 20
13.9437417176044
 30
0.0
 11
16.2
 21
15.73470040535795
 31
0.0
  0
LINE
  5
EA6E56D6F
330
EA6E56C5A
100
AcDbEntity
  8
0
 62
     0
100
AcDbLine
 10
16.2
 20
7.19374171760441
 30
0.0
 11
16.2
 21
8.984700405357962
 31
0.0
  0
LINE
  5
EA6E56D70
330
EA6E56C5A
100
AcDbEntity
  8
0
 62
     0
100
AcDbLine
 10
16.2
 20
11.99520198109181
 30
0.0
 11
16.2
 21
12.99520198109181
 31
0.0
  0
LINE
  5
EA6E56D71
330
EA6E56C5A
100
AcDbEntity
  8
0
 62
     0
100
AcDbLine
 10
16.39999999999999
 20
0.8458943194931476
 30
0.0
 11
16.39999999999999
 21
1.8636204440938
 31
0.0
  0
LINE
  5
EA6E56D72
330
EA6E56C5A
100
AcDbEntity
  8
0
 62
     0
100
AcDbLine
 10
16.39999999999999
 20
16.13637955590618
 30
0.0
 11
16.39999999999999
 21
17.15410568050685
 31
0.0
  0
LINE
  5
EA6E56D73
330
EA6E56C5A
100
AcDbEntity
  8
0
 62
     0
100
AcDbLine
 10
16.39999999999999
 20
2.379619810236118
 30
0.0
 11
16.39999999999999
 21
4.246668995439238
 31
0.0
  0
LINE
  5
EA6E56D74
330
EA6E56C5A
100
AcDbEntity
  8
0
 62
     0
100
AcDbLine
 10
16.39999999999999
 20
13.74487066121605
 30
0.0
 11
16.39999999999999
 21
15.62038018976386
 31
0.0
  0
LINE
  5
EA6E56D75
330
EA6E56C5A
100
AcDbEntity
  8
0
 62
     0
100
AcDbLine
 10
16.39999999999999
 20
6.994870661216054
 30
0.0
 11
16.39999999999999
 21
8.87038018976388
 31
0.0
  0
LINE
  5
EA6E56D76
330
EA6E56C5A
100
AcDbEntity
  8
0
 62
     0
100
AcDbLine
 10
16.39999999999999
 20
11.99520198109181
 30
0.0
 11
16.39999999999999
 21
12.99520198109181
 31
0.0
  0
LINE
  5
EA6E56D77
330
EA6E56C5A
100
AcDbEntity
  8
0
 62
     0
100
AcDbLine
 10
16.6
 20
0.8882770327457619
 30
0.0
 11
16.6
 21
1.90823035386904
 31
0.0
  0
LINE
  5
EA6E56D78
330
EA6E56C5A
100
AcDbEntity
  8
0
 62
     0
100
AcDbLine
 10
16.6
 20
16.09176964613094
 30
0.0
 11
16.6
 21
17.11172296725424
 31
0.0
  0
LINE
  5
EA6E56D79
330
EA6E56C5A
100
AcDbEntity
  8
0
 62
     0
100
AcDbLine
 10
16.6
 20
2.505120428334421
 30
0.0
 11
16.6
 21
4.47863060090183
 31
0.0
  0
LINE
  5
EA6E56D7A
330
EA6E56C5A
100
AcDbEntity
  8
0
 62
     0
100
AcDbLine
 10
16.6
 20
13.50242306763211
 30
0.0
 11
16.6
 21
15.49487957166557
 31
0.0
  0
LINE
  5
EA6E56D7B
330
EA6E56C5A
100
AcDbEntity
  8
0
 62
     0
100
AcDbLine
 10
16.6
 20
6.752423067632127
 30
0.0
 11
16.6
 21
8.744879571665576
 31
0.0
  0
LINE
  5
EA6E56D7C
330
EA6E56C5A
100
AcDbEntity
  8
0
 62
     0
100
AcDbLine
 10
16.6
 20
11.99520198109181
 30
0.0
 11
16.6
 21
12.99520198109181
 31
0.0
  0
LINE
  5
EA6E56D7D
330
EA6E56C5A
100
AcDbEntity
  8
0
 62
     0
100
AcDbLine
 10
16.8
 20
0.9332003497861903
 30
0.0
 11
16.8
 21
1.955527915091238
 31
0.0
  0
LINE
  5
EA6E56D7E
330
EA6E56C5A
100
AcDbEntity
  8
0
 62
     0
100
AcDbLine
 10
16.8
 20
16.04447208490875
 30
0.0
 11
16.8
 21
17.06679965021381
 31
0.0
  0
LINE
  5
EA6E56D7F
330
EA6E56C5A
100
AcDbEntity
  8
0
 62
     0
100
AcDbLine
 10
16.8
 20
2.642715771748798
 30
0.0
 11
16.8
 21
4.764933423039758
 31
0.0
  0
LINE
  5
EA6E56D80
330
EA6E56C5A
100
AcDbEntity
  8
0
 62
     0
100
AcDbLine
 10
16.8
 20
13.19035535410814
 30
0.0
 11
16.8
 21
15.35728422825119
 31
0.0
  0
LINE
  5
EA6E56D81
330
EA6E56C5A
100
AcDbEntity
  8
0
 62
     0
100
AcDbLine
 10
16.8
 20
6.440355354108133
 30
0.0
 11
16.8
 21
8.607284228251199
 31
0.0
  0
LINE
  5
EA6E56D82
330
EA6E56C5A
100
AcDbEntity
  8
0
 62
     0
100
AcDbLine
 10
16.8
 20
11.99520198109181
 30
0.0
 11
16.8
 21
12.99520198109181
 31
0.0
  0
LINE
  5
EA6E56D83
330
EA6E56C5A
100
AcDbEntity
  8
0
 62
     0
100
AcDbLine
 10
17.0
 20
0.9806851452009935
 30
0.0
 11
17.0
 21
2.005537617777616
 31
0.0
  0
LINE
  5
EA6E56D84
330
EA6E56C5A
100
AcDbEntity
  8
0
 62
     0
100
AcDbLine
 10
17.0
 20
15.99446238222238
 30
0.0
 11
17.0
 21
17.01931485479899
 31
0.0
  0
LINE
  5
EA6E56D85
330
EA6E56C5A
100
AcDbEntity
  8
0
 62
     0
100
AcDbLine
 10
17.0
 20
2.794145186405881
 30
0.0
 11
17.0
 21
5.371692243973805
 31
0.0
  0
LINE
  5
EA6E56D86
330
EA6E56C5A
100
AcDbEntity
  8
0
 62
     0
100
AcDbLine
 10
17.0
 20
11.99520198109181
 30
0.0
 11
17.0
 21
15.2058548135941
 31
0.0
  0
LINE
  5
EA6E56D87
330
EA6E56C5A
100
AcDbEntity
  8
0
 62
     0
100
AcDbLine
 10
17.0
 20
5.625000103238273
 30
0.0
 11
17.0
 21
8.455854813594108
 31
0.0
  0
LINE
  5
EA6E56D88
330
EA6E56C5A
100
AcDbEntity
  8
0
 62
     0
100
AcDbLine
 10
17.19999999999999
 20
1.030753733228884
 30
0.0
 11
17.19999999999999
 21
2.058285681017131
 31
0.0
  0
LINE
  5
EA6E56D89
330
EA6E56C5A
100
AcDbEntity
  8
0
 62
     0
100
AcDbLine
 10
17.19999999999999
 20
15.94171431898286
 30
0.0
 11
17.19999999999999
 21
16.96924626677112
 31
0.0
  0
LINE
  5
EA6E56D8A
330
EA6E56C5A
100
AcDbEntity
  8
0
 62
     0
100
AcDbLine
 10
17.19999999999999
 20
2.964241435429824
 30
0.0
 11
17.19999999999999
 21
8.285758564570178
 31
0.0
  0
LINE
  5
EA6E56D8B
330
EA6E56C5A
100
AcDbEntity
  8
0
 62
     0
100
AcDbLine
 10
17.19999999999999
 20
11.99520198109181
 30
0.0
 11
17.19999999999999
 21
15.03575856457016
 31
0.0
  0
LINE
  5
EA6E56D8C
330
EA6E56C5A
100
AcDbEntity
  8
0
 62
     0
100
AcDbLine
 10
17.4
 20
1.083429923959662
 30
0.0
 11
17.4
 21
2.113812192151343
 31
0.0
  0
LINE
  5
EA6E56D8D
330
EA6E56C5A
100
AcDbEntity
  8
0
 62
     0
100
AcDbLine
 10
17.4
 20
15.88618780784865
 30
0.0
 11
17.4
 21
16.91657007604034
 31
0.0
  0
LINE
  5
EA6E56D8E
330
EA6E56C5A
100
AcDbEntity
  8
0
 62
     0
100
AcDbLine
 10
17.4
 20
3.156508117249323
 30
0.0
 11
17.4
 21
8.093491882750669
 31
0.0
  0
LINE
  5
EA6E56D8F
330
EA6E56C5A
100
AcDbEntity
  8
0
 62
     0
100
AcDbLine
 10
17.4
 20
11.99520198109181
 30
0.0
 11
17.4
 21
14.84349188275065
 31
0.0
  0
LINE
  5
EA6E56D90
330
EA6E56C5A
100
AcDbEntity
  8
0
 62
     0
100
AcDbLine
 10
17.6
 20
1.138739084443542
 30
0.0
 11
17.6
 21
2.172812631433951
 31
0.0
  0
LINE
  5
EA6E56D91
330
EA6E56C5A
100
AcDbEntity
  8
0
 62
     0
100
AcDbLine
 10
17.6
 20
15.82718736856604
 30
0.0
 11
17.6
 21
16.86126091555646
 31
0.0
  0
LINE
  5
EA6E56D92
330
EA6E56C5A
100
AcDbEntity
  8
0
 62
     0
100
AcDbLine
 10
17.6
 20
3.375383199960236
 30
0.0
 11
17.6
 21
7.874616800039762
 31
0.0
  0
LINE
  5
EA6E56D93
330
EA6E56C5A
100
AcDbEntity
  8
0
 62
     0
100
AcDbLine
 10
17.6
 20
11.99520198109181
 30
0.0
 11
17.6
 21
14.62461680003975
 31
0.0
  0
LINE
  5
EA6E56D94
330
EA6E56C5A
100
AcDbEntity
  8
0
 62
     0
100
AcDbLine
 10
17.8
 20
1.196733304907507
 30
0.0
 11
17.8
 21
2.235722402390248
 31
0.0
  0
LINE
  5
EA6E56D95
330
EA6E56C5A
100
AcDbEntity
  8
0
 62
     0
100
AcDbLine
 10
17.8
 20
15.76427759760974
 30
0.0
 11
17.8
 21
16.80326669509248
 31
0.0
  0
LINE
  5
EA6E56D96
330
EA6E56C5A
100
AcDbEntity
  8
0
 62
     0
100
AcDbLine
 10
17.8
 20
3.627508786341501
 30
0.0
 11
17.8
 21
7.622491213658497
 31
0.0
  0
LINE
  5
EA6E56D97
330
EA6E56C5A
100
AcDbEntity
  8
0
 62
     0
100
AcDbLine
 10
17.8
 20
11.99520198109181
 30
0.0
 11
17.8
 21
14.37249121365849
 31
0.0
  0
LINE
  5
EA6E56D98
330
EA6E56C5A
100
AcDbEntity
  8
0
 62
     0
100
AcDbLine
 10
18.0
 20
1.258070209803346
 30
0.0
 11
18.0
 21
2.30260825319673
 31
0.0
  0
LINE
  5
EA6E56D99
330
EA6E56C5A
100
AcDbEntity
  8
0
 62
     0
100
AcDbLine
 10
18.0
 20
15.69739174680327
 30
0.0
 11
18.0
 21
16.74192979019665
 31
0.0
  0
LINE
  5
EA6E56D9A
330
EA6E56C5A
100
AcDbEntity
  8
0
 62
     0
100
AcDbLine
 10
18.0
 20
3.923649376593703
 30
0.0
 11
18.0
 21
7.326350623406285
 31
0.0
  0
LINE
  5
EA6E56D9B
330
EA6E56C5A
100
AcDbEntity
  8
0
 62
     0
100
AcDbLine
 10
18.0
 20
11.99520198109181
 30
0.0
 11
18.0
 21
14.07635062340627
 31
0.0
  0
LINE
  5
EA6E56D9C
330
EA6E56C5A
100
AcDbEntity
  8
0
 62
     0
100
AcDbLine
 10
18.2
 20
1.323072197862596
 30
0.0
 11
18.2
 21
2.373542828567604
 31
0.0
  0
LINE
  5
EA6E56D9D
330
EA6E56C5A
100
AcDbEntity
  8
0
 62
     0
100
AcDbLine
 10
18.2
 20
15.62645717143239
 30
0.0
 11
18.2
 21
16.67692780213741
 31
0.0
  0
LINE
  5
EA6E56D9E
330
EA6E56C5A
100
AcDbEntity
  8
0
 62
     0
100
AcDbLine
 10
18.2
 20
4.287684463111763
 30
0.0
 11
18.2
 21
6.962315536888209
 31
0.0
  0
LINE
  5
EA6E56D9F
330
EA6E56C5A
100
AcDbEntity
  8
0
 62
     0
100
AcDbLine
 10
18.2
 20
11.99520198109181
 30
0.0
 11
18.2
 21
13.71231553688823
 31
0.0
  0
LINE
  5
EA6E56DA0
330
EA6E56C5A
100
AcDbEntity
  8
0
 62
     0
100
AcDbLine
 10
18.39999999999999
 20
1.391799481934761
 30
0.0
 11
18.39999999999999
 21
2.448605117969133
 31
0.0
  0
LINE
  5
EA6E56DA1
330
EA6E56C5A
100
AcDbEntity
  8
0
 62
     0
100
AcDbLine
 10
18.39999999999999
 20
15.55139488203086
 30
0.0
 11
18.39999999999999
 21
16.60820051806523
 31
0.0
  0
LINE
  5
EA6E56DA2
330
EA6E56C5A
100
AcDbEntity
  8
0
 62
     0
100
AcDbLine
 10
18.39999999999999
 20
4.840055661165976
 30
0.0
 11
18.39999999999999
 21
6.409944338833982
 31
0.0
  0
LINE
  5
EA6E56DA3
330
EA6E56C5A
100
AcDbEntity
  8
0
 62
     0
100
AcDbLine
 10
18.39999999999999
 20
11.99520198109181
 30
0.0
 11
18.39999999999999
 21
13.15994433883402
 31
0.0
  0
LINE
  5
EA6E56DA4
330
EA6E56C5A
100
AcDbEntity
  8
0
 62
     0
100
AcDbLine
 10
18.6
 20
1.464317169370115
 30
0.0
 11
18.6
 21
2.527880961894759
 31
0.0
  0
LINE
  5
EA6E56DA5
330
EA6E56C5A
100
AcDbEntity
  8
0
 62
     0
100
AcDbLine
 10
18.6
 20
15.47211903810524
 30
0.0
 11
18.6
 21
16.53568283062988
 31
0.0
  0
LINE
  5
EA6E56DA6
330
EA6E56C5A
100
AcDbEntity
  8
0
 62
     0
100
AcDbLine
 10
18.6
 20
11.99520198109181
 30
0.0
 11
18.6
 21
12.98914185894155
 31
0.0
  0
LINE
  5
EA6E56DA7
330
EA6E56C5A
100
AcDbEntity
  8
0
 62
     0
100
AcDbLine
 10
18.8
 20
1.540695614396724
 30
0.0
 11
18.8
 21
2.61146362464188
 31
0.0
  0
LINE
  5
EA6E56DA8
330
EA6E56C5A
100
AcDbEntity
  8
0
 62
     0
100
AcDbLine
 10
18.8
 20
15.38853637535811
 30
0.0
 11
18.8
 21
16.45930438560327
 31
0.0
  0
LINE
  5
EA6E56DA9
330
EA6E56C5A
100
AcDbEntity
  8
0
 62
     0
100
AcDbLine
 10
18.8
 20
11.99520198109181
 30
0.0
 11
18.8
 21
12.99068144388724
 31
0.0
  0
LINE
  5
EA6E56DAA
330
EA6E56C5A
100
AcDbEntity
  8
0
 62
     0
100
AcDbLine
 10
19.0
 20
1.621010812927077
 30
0.0
 11
19.0
 21
2.699454443607051
 31
0.0
  0
LINE
  5
EA6E56DAB
330
EA6E56C5A
100
AcDbEntity
  8
0
 62
     0
100
AcDbLine
 10
19.0
 20
15.30054555639295
 30
0.0
 11
19.0
 21
16.37898918707292
 31
0.0
  0
LINE
  5
EA6E56DAC
330
EA6E56C5A
100
AcDbEntity
  8
0
 62
     0
100
AcDbLine
 10
19.0
 20
11.99520198109181
 30
0.0
 11
19.0
 21
12.99222102883293
 31
0.0
  0
LINE
  5
EA6E56DAD
330
EA6E56C5A
100
AcDbEntity
  8
0
 62
     0
100
AcDbLine
 10
19.19999999999999
 20
1.705344845571659
 30
0.0
 11
19.19999999999999
 21
2.791963567034783
 31
0.0
  0
LINE
  5
EA6E56DAE
330
EA6E56C5A
100
AcDbEntity
  8
0
 62
     0
100
AcDbLine
 10
19.19999999999999
 20
15.20803643296521
 30
0.0
 11
19.19999999999999
 21
16.29465515442833
 31
0.0
  0
LINE
  5
EA6E56DAF
330
EA6E56C5A
100
AcDbEntity
  8
0
 62
     0
100
AcDbLine
 10
19.19999999999999
 20
11.99520198109181
 30
0.0
 11
19.19999999999999
 21
12.99376061377861
 31
0.0
  0
LINE
  5
EA6E56DB0
330
EA6E56C5A
100
AcDbEntity
  8
0
 62
     0
100
AcDbLine
 10
19.39999999999999
 20
1.793786375640563
 30
0.0
 11
19.39999999999999
 21
2.889110794503256
 31
0.0
  0
LINE
  5
EA6E56DB1
330
EA6E56C5A
100
AcDbEntity
  8
0
 62
     0
100
AcDbLine
 10
19.39999999999999
 20
15.11088920549673
 30
0.0
 11
19.39999999999999
 21
16.20621362435944
 31
0.0
  0
LINE
  5
EA6E56DB2
330
EA6E56C5A
100
AcDbEntity
  8
0
 62
     0
100
AcDbLine
 10
19.6
 20
1.88643121012102
 30
0.0
 11
19.6
 21
2.991026537321896
 31
0.0
  0
LINE
  5
EA6E56DB3
330
EA6E56C5A
100
AcDbEntity
  8
0
 62
     0
100
AcDbLine
 10
19.6
 20
15.0089734626781
 30
0.0
 11
19.6
 21
16.11356878987898
 31
0.0
  0
LINE
  5
EA6E56DB4
330
EA6E56C5A
100
AcDbEntity
  8
0
 62
     0
100
AcDbLine
 10
19.8
 20
1.983382933076164
 30
0.0
 11
19.8
 21
3.097852919598746
 31
0.0
  0
LINE
  5
EA6E56DB5
330
EA6E56C5A
100
AcDbEntity
  8
0
 62
     0
100
AcDbLine
 10
19.8
 20
14.90214708040125
 30
0.0
 11
19.8
 21
16.01661706692383
 31
0.0
  0
LINE
  5
EA6E56DB6
330
EA6E56C5A
100
AcDbEntity
  8
0
 62
     0
100
AcDbLine
 10
20.0
 20
2.084753622680735
 30
0.0
 11
20.0
 21
3.209745045204609
 31
0.0
  0
LINE
  5
EA6E56DB7
330
EA6E56C5A
100
AcDbEntity
  8
0
 62
     0
100
AcDbLine
 10
20.0
 20
14.79025495479539
 30
0.0
 11
20.0
 21
15.91524637731926
 31
0.0
  0
LINE
  5
EA6E56DB8
330
EA6E56C5A
100
AcDbEntity
  8
0
 62
     0
100
AcDbLine
 10
20.2
 20
2.190664665270349
 30
0.0
 11
20.2
 21
3.326872461473616
 31
0.0
  0
LINE
  5
EA6E56DB9
330
EA6E56C5A
100
AcDbEntity
  8
0
 62
     0
100
AcDbLine
 10
20.2
 20
14.67312753852637
 30
0.0
 11
20.2
 21
15.80933533472965
 31
0.0
  0
LINE
  5
EA6E56DBA
330
EA6E56C5A
100
AcDbEntity
  8
0
 62
     0
100
AcDbLine
 10
20.4
 20
2.301247682434638
 30
0.0
 11
20.4
 21
3.449420857581046
 31
0.0
  0
LINE
  5
EA6E56DBB
330
EA6E56C5A
100
AcDbEntity
  8
0
 62
     0
100
AcDbLine
 10
20.4
 20
14.55057914241895
 30
0.0
 11
20.4
 21
15.69875231756536
 31
0.0
  0
LINE
  5
EA6E56DBC
330
EA6E56C5A
100
AcDbEntity
  8
0
 62
     0
100
AcDbLine
 10
20.6
 20
2.416645590462052
 30
0.0
 11
20.6
 21
3.577594044593456
 31
0.0
  0
LINE
  5
EA6E56DBD
330
EA6E56C5A
100
AcDbEntity
  8
0
 62
     0
100
AcDbLine
 10
20.6
 20
14.42240595540654
 30
0.0
 11
20.6
 21
15.58335440953795
 31
0.0
  0
LINE
  5
EA6E56DBE
330
EA6E56C5A
100
AcDbEntity
  8
0
 62
     0
100
AcDbLine
 10
20.8
 20
2.537013815518043
 30
0.0
 11
20.8
 21
3.711626924269966
 31
0.0
  0
LINE
  5
EA6E56DBF
330
EA6E56C5A
100
AcDbEntity
  8
0
 62
     0
100
AcDbLine
 10
20.8
 20
14.28836987321861
 30
0.0
 11
20.8
 21
15.46298618448195
 31
0.0
  0
LINE
  5
EA6E56DC0
330
EA6E56C5A
100
AcDbEntity
  8
0
 62
     0
100
AcDbLine
 10
21.0
 20
2.662521693035727
 30
0.0
 11
21.0
 21
3.852872430645609
 31
0.0
  0
LINE
  5
EA6E56DC1
330
EA6E56C5A
100
AcDbEntity
  8
0
 62
     0
100
AcDbLine
 10
21.0
 20
14.14678349542286
 30
0.0
 11
21.0
 21
15.33747830696426
 31
0.0
  0
LINE
  5
EA6E56DC2
330
EA6E56C5A
100
AcDbEntity
  8
0
 62
     0
100
AcDbLine
 10
21.2
 20
2.793354086221266
 30
0.0
 11
21.2
 21
4.002485583831323
 31
0.0
  0
LINE
  5
EA6E56DC3
330
EA6E56C5A
100
AcDbEntity
  8
0
 62
     0
100
AcDbLine
 10
21.2
 20
13.99621688692662
 30
0.0
 11
21.2
 21
15.20664591377872
 31
0.0
  0
LINE
  5
EA6E56DC4
330
EA6E56C5A
100
AcDbEntity
  8
0
 62
     0
100
AcDbLine
 10
21.4
 20
2.929713266730676
 30
0.0
 11
21.4
 21
4.161002755664274
 31
0.0
  0
LINE
  5
EA6E56DC5
330
EA6E56C5A
100
AcDbEntity
  8
0
 62
     0
100
AcDbLine
 10
21.4
 20
13.83604811472443
 30
0.0
 11
21.4
 21
15.07028673326932
 31
0.0
  0
LINE
  5
EA6E56DC6
330
EA6E56C5A
100
AcDbEntity
  8
0
 62
     0
100
AcDbLine
 10
21.6
 20
3.072069018676471
 30
0.0
 11
21.6
 21
4.329043532935322
 31
0.0
  0
LINE
  5
EA6E56DC7
330
EA6E56C5A
100
AcDbEntity
  8
0
 62
     0
100
AcDbLine
 10
21.6
 20
13.66555078057407
 30
0.0
 11
21.6
 21
14.92784497625058
 31
0.0
  0
LINE
  5
EA6E56DC8
330
EA6E56C5A
100
AcDbEntity
  8
0
 62
     0
100
AcDbLine
 10
21.8
 20
3.221849785812719
 30
0.0
 11
21.8
 21
4.507329243428142
 31
0.0
  0
LINE
  5
EA6E56DC9
330
EA6E56C5A
100
AcDbEntity
  8
0
 62
     0
100
AcDbLine
 10
21.8
 20
13.48386866684141
 30
0.0
 11
21.8
 21
14.77747777107709
 31
0.0
  0
LINE
  5
EA6E56DCA
330
EA6E56C5A
100
AcDbEntity
  8
0
 62
     0
100
AcDbLine
 10
22.0
 20
3.379623332304386
 30
0.0
 11
22.0
 21
4.696707259147587
 31
0.0
  0
LINE
  5
EA6E56DCB
330
EA6E56C5A
100
AcDbEntity
  8
0
 62
     0
100
AcDbLine
 10
22.0
 20
13.28998171187008
 30
0.0
 11
22.0
 21
14.6185036378553
 31
0.0
  0
LINE
  5
EA6E56DCC
330
EA6E56C5A
100
AcDbEntity
  8
0
 62
     0
100
AcDbLine
 10
22.2
 20
3.545884748662356
 30
0.0
 11
22.2
 21
4.898183447570518
 31
0.0
  0
LINE
  5
EA6E56DCD
330
EA6E56C5A
100
AcDbEntity
  8
0
 62
     0
100
AcDbLine
 10
22.2
 20
13.08265938318368
 30
0.0
 11
22.2
 21
14.4503446123621
 31
0.0
  0
LINE
  5
EA6E56DCE
330
EA6E56C5A
100
AcDbEntity
  8
0
 62
     0
100
AcDbLine
 10
22.39999999999999
 20
3.721201084250884
 30
0.0
 11
22.39999999999999
 21
5.112966388577576
 31
0.0
  0
LINE
  5
EA6E56DCF
330
EA6E56C5A
100
AcDbEntity
  8
0
 62
     0
100
AcDbLine
 10
22.39999999999999
 20
12.86039521211116
 30
0.0
 11
22.39999999999999
 21
14.27233151642101
 31
0.0
  0
LINE
  5
EA6E56DD0
330
EA6E56C5A
100
AcDbEntity
  8
0
 62
     0
100
AcDbLine
 10
22.6
 20
3.906226422955006
 30
0.0
 11
22.6
 21
5.342529046644196
 31
0.0
  0
LINE
  5
EA6E56DD1
330
EA6E56C5A
100
AcDbEntity
  8
0
 62
     0
100
AcDbLine
 10
22.6
 20
12.62131223084588
 30
0.0
 11
22.6
 21
14.08368306798291
 31
0.0
  0
LINE
  5
EA6E56DD2
330
EA6E56C5A
100
AcDbEntity
  8
0
 62
     0
100
AcDbLine
 10
22.8
 20
4.10172135227376
 30
0.0
 11
22.8
 21
5.588697165049443
 31
0.0
  0
LINE
  5
EA6E56DD3
330
EA6E56C5A
100
AcDbEntity
  8
0
 62
     0
100
AcDbLine
 10
22.8
 20
12.36302169710981
 30
0.0
 11
22.8
 21
13.88347829807043
 31
0.0
  0
LINE
  5
EA6E56DD4
330
EA6E56C5A
100
AcDbEntity
  8
0
 62
     0
100
AcDbLine
 10
23.0
 20
4.308578503036796
 30
0.0
 11
23.0
 21
5.853780106921795
 31
0.0
  0
LINE
  5
EA6E56DD5
330
EA6E56C5A
100
AcDbEntity
  8
0
 62
     0
100
AcDbLine
 10
23.0
 20
12.08240327306514
 30
0.0
 11
23.0
 21
13.67061944507678
 31
0.0
  0
LINE
  5
EA6E56DD6
330
EA6E56C5A
100
AcDbEntity
  8
0
 62
     0
100
AcDbLine
 10
23.19999999999999
 20
4.527856652558535
 30
0.0
 11
23.19999999999999
 21
6.140772160743478
 31
0.0
  0
LINE
  5
EA6E56DD7
330
EA6E56C5A
100
AcDbEntity
  8
0
 62
     0
100
AcDbLine
 10
23.19999999999999
 20
11.77524542788055
 30
0.0
 11
23.19999999999999
 21
13.44378096057898
 31
0.0
  0
LINE
  5
EA6E56DD8
330
EA6E56C5A
100
AcDbEntity
  8
0
 62
     0
100
AcDbLine
 10
23.39999999999999
 20
4.760827195354785
 30
0.0
 11
23.39999999999999
 21
6.453677270303599
 31
0.0
  0
LINE
  5
EA6E56DD9
330
EA6E56C5A
100
AcDbEntity
  8
0
 62
     0
100
AcDbLine
 10
23.39999999999999
 20
11.42787989712297
 30
0.0
 11
23.39999999999999
 21
13.20133767178099
 31
0.0
  0
LINE
  5
EA6E56DDA
330
EA6E56C5A
100
AcDbEntity
  8
0
 62
     0
100
AcDbLine
 10
23.6
 20
5.009038964789643
 30
0.0
 11
23.6
 21
6.819150603315335
 31
0.0
  0
LINE
  5
EA6E56DDB
330
EA6E56C5A
100
AcDbEntity
  8
0
 62
     0
100
AcDbLine
 10
23.6
 20
11.00243198716859
 30
0.0
 11
23.6
 21
12.94126060224967
 31
0.0
  0
LINE
  5
EA6E56DDC
330
EA6E56C5A
100
AcDbEntity
  8
0
 62
     0
100
AcDbLine
 10
23.8
 20
5.274411151749196
 30
0.0
 11
23.8
 21
7.309696402547448
 31
0.0
  0
LINE
  5
EA6E56DDD
330
EA6E56C5A
100
AcDbEntity
  8
0
 62
     0
100
AcDbLine
 10
23.8
 20
10.42998843758188
 30
0.0
 11
23.8
 21
12.6609605909616
 31
0.0
  0
LINE
  5
EA6E56DDE
330
EA6E56C5A
100
AcDbEntity
  8
0
 62
     0
100
AcDbLine
 10
24.0
 20
5.559370859880237
 30
0.0
 11
24.0
 21
12.35704356262256
 31
0.0
  0
LINE
  5
EA6E56DDF
330
EA6E56C5A
100
AcDbEntity
  8
0
 62
     0
100
AcDbLine
 10
24.19999999999999
 20
5.867064768748309
 30
0.0
 11
24.19999999999999
 21
12.0245994314541
 31
0.0
  0
LINE
  5
EA6E56DE0
330
EA6E56C5A
100
AcDbEntity
  8
0
 62
     0
100
AcDbLine
 10
24.39999999999999
 20
6.2027592702858
 30
0.0
 11
24.39999999999999
 21
11.64218683869334
 31
0.0
  0
LINE
  5
EA6E56DE1
330
EA6E56C5A
100
AcDbEntity
  8
0
 62
     0
100
AcDbLine
 10
24.6
 20
6.603624720067712
 30
0.0
 11
24.6
 21
11.1757989016396
 31
0.0
  0
LINE
  5
EA6E56DE2
330
EA6E56C5A
100
AcDbEntity
  8
0
 62
     0
100
AcDbLine
 10
24.8
 20
7.137464332505552
 30
0.0
 11
24.8
 21
10.55146718630719
 31
0.0
  0
ENDBLK
  5
EA6E56DE4
330
EA6E56C5A
100
AcDbEntity
  8
0
100
AcDbBlockEnd
  0
ENDSEC
  0
SECTION
  2
ENTITIES
  0
LINE
  5
EA6E56FCE
330
EA6E4DC92
100
AcDbEntity
  8
JISSEN
100
AcDbLine
 10
-6.87377437215855
 20
1052.865816126707
 30
0.0
 11
355.1262241798415
 21
1052.865816126707
 31
0.0
  0
LINE
  5
EA6E56FCF
330
EA6E4DC92
100
AcDbEntity
  8
JISSEN
100
AcDbLine
 10
-6.87377437215855
 20
1064.865816126707
 30
0.0
 11
355.1262241798415
 21
1064.865816126707
 31
0.0
  0
LINE
  5
EA6E56FD0
330
EA6E4DC92
100
AcDbEntity
  8
JISSEN
100
AcDbLine
 10
-6.87377437215855
 20
1076.865816126707
 30
0.0
 11
355.1262241798415
 21
1076.865816126707
 31
0.0
  0
LINE
  5
EA6E56FD1
330
EA6E4DC92
100
AcDbEntity
  8
JISSEN
100
AcDbLine
 10
-6.87377437215855
 20
1088.865816126707
 30
0.0
 11
355.1262241798415
 21
1088.865816126707
 31
0.0
  0
LINE
  5
EA6E56FD2
330
EA6E4DC92
100
AcDbEntity
  8
JISSEN
100
AcDbLine
 10
149.6181854638162
 20
851.8217925731125
 30
0.0
 11
205.3681854638159
 21
851.8217925731125
 31
0.0
  0
LINE
  5
EA6E56FD3
330
EA6E4DC92
100
AcDbEntity
  8
JISSEN
100
AcDbLine
 10
149.6181854638162
 20
868.8217925731123
 30
0.0
 11
205.3681854638159
 21
868.8217925731123
 31
0.0
  0
LINE
  5
EA6E56FD4
330
EA6E4DC92
100
AcDbEntity
  8
JISSEN
100
AcDbLine
 10
172.6181854638161
 20
647.3833584449039
 30
0.0
 11
178.6181854638162
 21
647.3833584449039
 31
0.0
  0
LINE
  5
EA6E56FD5
330
EA6E4DC92
100
AcDbEntity
  8
JISSEN
100
AcDbLine
 10
171.6954576630059
 20
741.74921722422
 30
0.0
 11
175.3681854638161
 21
739.6287668397621
 31
0.0
  0
LINE
  5
EA6E56FD6
330
EA6E4DC92
100
AcDbEntity
  8
JISSEN
 62
     3
100
AcDbLine
 10
264.2421741453531
 20
723.6464367714547
 30
0.0
 11
138.1181854638163
 21
839.8244416330644
 31
0.0
  0
LINE
  5
EA6E56FD7
330
EA6E4DC92
100
AcDbEntity
  8
JISSEN
 62
     3
100
AcDbLine
 10
138.8681854638161
 20
815.0262777496973
 30
0.0
 11
247.0894463737022
 21
723.4262660195589
 31
0.0
  0
LINE
  5
EA6E56FD8
330
EA6E4DC92
100
AcDbEntity
  8
JISSEN
 62
     3
100
AcDbLine
 10
229.4829798555773
 20
722.5240374511411
 30
0.0
 11
166.7595391509383
 21
760.4247121320258
 31
0.0
  0
LINE
  5
EA6E56FD9
330
EA6E4DC92
100
AcDbEntity
  8
JISSEN
 62
     3
100
AcDbLine
 10
198.8727770294631
 20
718.0782034096783
 30
0.0
 11
137.3681854638163
 21
710.7726846265916
 31
0.0
  0
LWPOLYLINE
  5
EA6E56FDA
330
EA6E4DC92
100
AcDbEntity
  8
WAKU
100
AcDbPolyline
 90
        4
 70
     1
 43
0.0
 10
-6.87377437215855
 20
554.8658161267071
 10
355.1262256278414
 20
554.8658161267071
 10
355.1262256278414
 20
1100.865816126707
 10
-6.87377437215855
 20
1100.865816126707
  0
LWPOLYLINE
  5
EA6E56FDB
330
EA6E4DC92
100
AcDbEntity
  8
JISSEN
100
AcDbPolyline
 90
        2
 70
     0
 43
0.0
 10
134.3681854638161
 20
820.8617925731124
 10
134.1374537564991
 20
830.3217925731123
  0
LWPOLYLINE
  5
EA6E56FDC
330
EA6E4DC92
100
AcDbEntity
  8
JISSEN
100
AcDbPolyline
 90
        2
 70
     0
 43
0.0
 10
100.5989171711332
 20
830.3217925731123
 10
100.3681854638161
 20
820.8617925731124
  0
LWPOLYLINE
  5
EA6E56FDD
330
EA6E4DC92
100
AcDbEntity
  8
SAISEN
100
AcDbPolyline
 90
        3
 70
     0
 43
0.0
 10
134.3681854638161
 20
820.8617925731125
 10
132.2948670430603
 20
823.8617925731125
 10
132.1373410060129
 20
830.3264153430445
  0
LWPOLYLINE
  5
EA6E56FDE
330
EA6E4DC92
100
AcDbEntity
  8
SAISEN
100
AcDbPolyline
 90
        3
 70
     0
 43
0.0
 10
100.3681854638161
 20
820.8617925731124
 10
102.441503884572
 20
823.8617925731123
 10
102.5990299216193
 20
830.3264153430445
  0
LINE
  5
EA6E56FDF
330
EA6E4DC92
100
AcDbEntity
  8
JISSEN
100
AcDbLine
 10
172.6181854638161
 20
733.9996017151634
 30
0.0
 11
172.6181854638161
 21
647.3833584449039
 31
0.0
  0
HATCH
  5
EA6E56FE0
330
EA6E4DC92
100
AcDbEntity
  8
HATCH
100
AcDbHatch
 10
0.0
 20
0.0
 30
0.0
210
0.0
220
0.0
230
1.0
  2
SOLID
 70
     1
 71
     1
 91
        1
 92
        1
 93
        7
 72
     1
 10
110.8681854638161
 20
643.730351438953
 11
117.3681854638161
 21
635.2236676813993
 72
     1
 10
117.3681854638161
 20
635.2236676813991
 11
123.8681854638161
 21
643.730351438953
 72
     1
 10
123.8681854638161
 20
643.730351438953
 11
121.8681854638161
 21
643.730351438953
 72
     1
 10
121.8681854638161
 20
643.730351438953
 11
121.8681854638161
 21
657.1775222867833
 72
     1
 10
121.8681854638161
 20
657.1775222867832
 11
112.8681854638161
 21
657.1775222867832
 72
     1
 10
112.8681854638161
 20
657.1775222867832
 11
112.8681854638161
 21
643.7303514389529
 72
     1
 10
112.8681854638161
 20
643.730351438953
 11
110.8681854638161
 21
643.730351438953
 97
        7
330
EA6E56FE3
330
EA6E56FE1
330
EA6E56FE7
330
EA6E56FE6
330
EA6E56FE2
330
EA6E56FE4
330
EA6E56FE5
 75
     0
 76
     1
 98
        1
 10
-9.341176277836552
 20
545.0162880805969
  0
LINE
  5
EA6E56FE1
102
{ACAD_REACTORS
330
EA6E56FE0
102
}
330
EA6E4DC92
100
AcDbEntity
  8
HATCH
100
AcDbLine
 10
117.3681854638161
 20
635.2236676813991
 30
0.0
 11
123.8681854638161
 21
643.730351438953
 31
0.0
  0
LINE
  5
EA6E56FE2
102
{ACAD_REACTORS
330
EA6E56FE0
102
}
330
EA6E4DC92
100
AcDbEntity
  8
HATCH
100
AcDbLine
 10
121.8681854638161
 20
657.1775222867832
 30
0.0
 11
112.8681854638161
 21
657.1775222867832
 31
0.0
  0
LINE
  5
EA6E56FE3
102
{ACAD_REACTORS
330
EA6E56FE0
102
}
330
EA6E4DC92
100
AcDbEntity
  8
HATCH
100
AcDbLine
 10
110.8681854638161
 20
643.730351438953
 30
0.0
 11
117.3681854638161
 21
635.2236676813991
 31
0.0
  0
LINE
  5
EA6E56FE4
102
{ACAD_REACTORS
330
EA6E56FE0
102
}
330
EA6E4DC92
100
AcDbEntity
  8
HATCH
100
AcDbLine
 10
112.8681854638161
 20
657.1775222867832
 30
0.0
 11
112.8681854638161
 21
643.730351438953
 31
0.0
  0
LINE
  5
EA6E56FE5
102
{ACAD_REACTORS
330
EA6E56FE0
102
}
330
EA6E4DC92
100
AcDbEntity
  8
HATCH
100
AcDbLine
 10
112.8681854638161
 20
643.730351438953
 30
0.0
 11
110.8681854638161
 21
643.730351438953
 31
0.0
  0
LINE
  5
EA6E56FE6
102
{ACAD_REACTORS
330
EA6E56FE0
102
}
330
EA6E4DC92
100
AcDbEntity
  8
HATCH
100
AcDbLine
 10
121.8681854638161
 20
643.730351438953
 30
0.0
 11
121.8681854638161
 21
657.1775222867832
 31
0.0
  0
LINE
  5
EA6E56FE7
102
{ACAD_REACTORS
330
EA6E56FE0
102
}
330
EA6E4DC92
100
AcDbEntity
  8
HATCH
100
AcDbLine
 10
123.8681854638161
 20
643.730351438953
 30
0.0
 11
121.8681854638161
 21
643.730351438953
 31
0.0
  0
TEXT
  5
EA6E56FE8
330
EA6E4DC92
100
AcDbEntity
  8
TEXT
 62
     7
100
AcDbText
 10
116.0211676400926
 20
713.9450658498315
 30
0.0
 40
2.499982967592715
  1
K30
 50
270.0
  7
K
 72
     4
 11
117.2711591238889
 21
710.6712786303648
 31
0.0
100
AcDbText
  0
LWPOLYLINE
  5
EA6E56FE9
330
EA6E4DC92
100
AcDbEntity
  8
JISSEN
100
AcDbPolyline
 90
        2
 70
     0
 43
0.0
 10
133.2177220813598
 20
705.9371698031802
 10
101.5186488462725
 20
705.9371698031802
  0
LINE
  5
EA6E56FEA
330
EA6E4DC92
100
AcDbEntity
  8
JISSEN
100
AcDbLine
 10
100.3681854638161
 20
718.9371698031805
 30
0.0
 11
134.2608774049047
 21
718.9371698031805
 31
0.0
  0
LINE
  5
EA6E56FEB
330
EA6E4DC92
100
AcDbEntity
  8
JISSEN
100
AcDbLine
 10
100.3681854638161
 20
702.9371698031802
 30
0.0
 11
134.3681854638161
 21
702.9371698031802
 31
0.0
  0
LWPOLYLINE
  5
EA6E56FEC
330
EA6E4DC92
100
AcDbEntity
  8
TENSEN
 48
2.0
100
AcDbPolyline
 90
        7
 70
     0
 43
0.0
 10
96.61818546381619
 20
666.4952089939993
 42
-0.3373493975903584
 10
117.3681854638159
 20
666.4952089939993
 42
0.3373493975903649
 10
138.1181854638162
 20
666.4952089939993
 10
138.1181854638162
 20
696.4371698031802
 10
96.61818546381619
 20
696.4371698031802
 10
96.61818546381619
 20
666.4952089939993
 42
0.3373493975903643
 10
117.3681854638161
 20
666.4952089939993
 42
0.3373493975903643
  0
LWPOLYLINE
  5
EA6E56FED
330
EA6E4DC92
100
AcDbEntity
  8
JISSEN
100
AcDbPolyline
 90
        2
 70
     0
 43
0.0
 10
101.5186488462725
 20
715.9371698031803
 10
133.2177220813598
 20
715.9371698031803
  0
LINE
  5
EA6E56FEE
330
EA6E4DC92
100
AcDbEntity
  8
JISSEN
100
AcDbLine
 10
139.0096214638163
 20
752.2833584449036
 30
0.0
 11
117.3681854638161
 21
752.2833584449036
 31
0.0
  0
LINE
  5
EA6E56FEF
330
EA6E4DC92
100
AcDbEntity
  8
JISSEN
100
AcDbLine
 10
137.4219374638162
 20
750.4333584449036
 30
0.0
 11
117.3681854638161
 21
750.4333584449036
 31
0.0
  0
LINE
  5
EA6E56FF0
330
EA6E4DC92
100
AcDbEntity
  8
JISSEN
100
AcDbLine
 10
135.5988034638162
 20
741.4333584449036
 30
0.0
 11
117.3681854638161
 21
741.4333584449036
 31
0.0
  0
LINE
  5
EA6E56FF1
330
EA6E4DC92
100
AcDbEntity
  8
JISSEN
100
AcDbLine
 10
136.5472584638162
 20
743.4333584449036
 30
0.0
 11
117.3681854638161
 21
743.4333584449036
 31
0.0
  0
LINE
  5
EA6E56FF2
330
EA6E4DC92
100
AcDbEntity
  8
JISSEN
100
AcDbLine
 10
135.6653624638161
 20
738.4333584449036
 30
0.0
 11
117.3681854638161
 21
738.4333584449036
 31
0.0
  0
LINE
  5
EA6E56FF3
330
EA6E4DC92
100
AcDbEntity
  8
JISSEN
100
AcDbLine
 10
118.6945334638162
 20
736.8333584449037
 30
0.0
 11
117.3681854638161
 21
736.8333584449037
 31
0.0
  0
LINE
  5
EA6E56FF4
330
EA6E4DC92
100
AcDbEntity
  8
JISSEN
100
AcDbLine
 10
118.694533463816
 20
724.8571184449038
 30
0.0
 11
117.3681854638161
 21
724.8571184449038
 31
0.0
  0
LINE
  5
EA6E56FF5
330
EA6E4DC92
100
AcDbEntity
  8
JISSEN
100
AcDbLine
 10
136.3681854638161
 20
723.9333584449036
 30
0.0
 11
117.3681854638161
 21
723.9333584449036
 31
0.0
  0
LINE
  5
EA6E56FF6
330
EA6E4DC92
100
AcDbEntity
  8
JISSEN
100
AcDbLine
 10
136.3681854638161
 20
802.9333584449036
 30
0.0
 11
117.3681854638161
 21
802.9333584449036
 31
0.0
  0
LINE
  5
EA6E56FF7
330
EA6E4DC92
100
AcDbEntity
  8
JISSEN
100
AcDbLine
 10
118.6945334638162
 20
802.0095974449036
 30
0.0
 11
117.3681854638161
 21
802.0095974449036
 31
0.0
  0
LINE
  5
EA6E56FF8
330
EA6E4DC92
100
AcDbEntity
  8
JISSEN
100
AcDbLine
 10
141.1181854638161
 20
784.4333584449036
 30
0.0
 11
117.3681854638161
 21
784.4333584449036
 31
0.0
  0
LINE
  5
EA6E56FF9
330
EA6E4DC92
100
AcDbEntity
  8
JISSEN
100
AcDbLine
 10
140.6181854638161
 20
777.4333584449037
 30
0.0
 11
117.3681854638161
 21
777.4333584449037
 31
0.0
  0
LINE
  5
EA6E56FFA
330
EA6E4DC92
100
AcDbEntity
  8
JISSEN
100
AcDbLine
 10
138.8109714638162
 20
769.9333584449036
 30
0.0
 11
117.3681854638161
 21
769.9333584449036
 31
0.0
  0
TEXT
  5
EA6E56FFB
330
EA6E4DC92
100
AcDbEntity
  8
JISSEN
100
AcDbText
 10
112.379389463816
 20
764.29952063538
 30
0.0
 40
10.0
  1
1
 50
270.0
  7
35FONT
 72
     1
 11
112.379389463816
 21
763.1090444449039
 31
0.0
100
AcDbText
  0
LINE
  5
EA6E56FFC
330
EA6E4DC92
100
AcDbEntity
  8
JISSEN
100
AcDbLine
 10
142.1181854638161
 20
781.4333584449037
 30
0.0
 11
117.3681854638161
 21
781.4333584449037
 31
0.0
  0
LINE
  5
EA6E56FFD
330
EA6E4DC92
100
AcDbEntity
  8
JISSEN
100
AcDbLine
 10
100.4413561955236
 20
823.8617925731123
 30
0.0
 11
134.2950147321089
 21
823.8617925731123
 31
0.0
  0
LWPOLYLINE
  5
EA6E56FFE
330
EA6E4DC92
100
AcDbEntity
  8
JISSEN
100
AcDbPolyline
 90
        4
 70
     1
 43
0.0
 10
95.8681854638162
 20
820.8617925731124
 10
138.8681854638161
 20
820.8617925731124
 10
138.8681854638161
 20
809.8617925731122
 10
95.8681854638162
 20
809.8617925731122
  0
LINE
  5
EA6E56FFF
330
EA6E4DC92
100
AcDbEntity
  8
JISSEN
100
AcDbLine
 10
100.4413561955236
 20
806.8617925731125
 30
0.0
 11
134.2950147321089
 21
806.8617925731123
 31
0.0
  0
ARC
  5
EA6E57000
330
EA6E4DC92
100
AcDbEntity
  8
JISSEN
100
AcDbCircle
 10
117.3681854638161
 20
681.8538364698469
 30
0.0
 40
34.0833333333334
100
AcDbArc
 50
72.93846878010258
 51
107.0615312198974
  0
ARC
  5
EA6E57001
330
EA6E4DC92
100
AcDbEntity
  8
JISSEN
100
AcDbCircle
 10
117.3681854638161
 20
740.020503136513
 30
0.0
 40
34.0833333333328
100
AcDbArc
 50
252.9384687801025
 51
287.0615312198974
  0
LINE
  5
EA6E57002
330
EA6E4DC92
100
AcDbEntity
  8
JISSEN
100
AcDbLine
 10
96.9539714638163
 20
742.8475714449036
 30
0.0
 11
97.78239846381621
 21
742.0191444449037
 31
0.0
  0
LWPOLYLINE
  5
EA6E57003
330
EA6E4DC92
100
AcDbEntity
  8
JISSEN
100
AcDbPolyline
 90
        2
 70
     0
 43
0.0
 10
100.3681854638161
 20
706.3529535156638
 10
100.6796933320936
 20
696.4371698031802
  0
LWPOLYLINE
  5
EA6E57004
330
EA6E4DC92
100
AcDbEntity
  8
SAISEN
100
AcDbPolyline
 90
        3
 70
     0
 43
0.0
 10
102.6796933320936
 20
696.4371698031802
 10
102.4754935227276
 20
702.9371698031802
 10
100.3812474568664
 20
705.9371698031802
  0
ARC
  5
EA6E57005
330
EA6E4DC92
100
AcDbEntity
  8
JISSEN
100
AcDbCircle
 10
101.3235179905962
 20
703.3120549281541
 30
0.0
 40
12.66120791411041
100
AcDbArc
 50
61.483205727686
 51
85.67271988170816
  0
ARC
  5
EA6E57006
330
EA6E4DC92
100
AcDbEntity
  8
JISSEN
100
AcDbCircle
 10
101.3235179905962
 20
718.5622846782067
 30
0.0
 40
12.66120791411041
100
AcDbArc
 50
274.3272801182917
 51
298.516794272314
  0
LINE
  5
EA6E57007
330
EA6E4DC92
100
AcDbEntity
  8
JISSEN
100
AcDbLine
 10
98.3681854638162
 20
723.9333584449036
 30
0.0
 11
117.3681854638161
 21
723.9333584449036
 31
0.0
  0
LINE
  5
EA6E57008
330
EA6E4DC92
100
AcDbEntity
  8
JISSEN
100
AcDbLine
 10
101.8941404638162
 20
724.8571184449038
 30
0.0
 11
103.7698794638161
 21
724.8571184449038
 31
0.0
  0
LINE
  5
EA6E57009
330
EA6E4DC92
100
AcDbEntity
  8
JISSEN
100
AcDbLine
 10
99.13756646381626
 20
741.4333584449036
 30
0.0
 11
117.3681854638161
 21
741.4333584449036
 31
0.0
  0
LINE
  5
EA6E5700A
330
EA6E4DC92
100
AcDbEntity
  8
JISSEN
100
AcDbLine
 10
99.07100846381627
 20
738.4333584449036
 30
0.0
 11
117.3681854638161
 21
738.4333584449036
 31
0.0
  0
LINE
  5
EA6E5700B
330
EA6E4DC92
100
AcDbEntity
  8
JISSEN
100
AcDbLine
 10
101.8941404638162
 20
736.8333584449037
 30
0.0
 11
103.7698794638163
 21
736.8333584449037
 31
0.0
  0
LWPOLYLINE
  5
EA6E5700C
330
EA6E4DC92
100
AcDbEntity
  8
SAISEN
100
AcDbPolyline
 90
        3
 70
     0
 43
0.0
 10
102.6324505639886
 20
723.9333584449036
 10
102.4754935227276
 20
718.9371698031802
 10
100.3812474568664
 20
715.9371698031803
  0
LWPOLYLINE
  5
EA6E5700D
330
EA6E4DC92
100
AcDbEntity
  8
JISSEN
100
AcDbPolyline
 90
        2
 70
     0
 43
0.0
 10
100.3681854638161
 20
715.5213860906967
 10
100.6324505639886
 20
723.9333584449036
  0
LWPOLYLINE
  5
EA6E5700E
330
EA6E4DC92
100
AcDbEntity
  8
JISSEN
100
AcDbPolyline
 90
        2
 70
     0
 43
0.0
 10
97.3681854638162
 20
707.4371698031803
 10
97.3681854638162
 20
714.4371698031802
  0
LINE
  5
EA6E5700F
330
EA6E4DC92
100
AcDbEntity
  8
JISSEN
100
AcDbLine
 10
101.5186488462725
 20
705.9371698031802
 30
0.0
 11
97.3681854638162
 21
707.4371698031803
 31
0.0
  0
LINE
  5
EA6E57010
330
EA6E4DC92
100
AcDbEntity
  8
JISSEN
100
AcDbLine
 10
101.5186488462725
 20
715.9371698031804
 30
0.0
 11
97.3681854638162
 21
714.4371698031802
 31
0.0
  0
LINE
  5
EA6E57011
330
EA6E4DC92
100
AcDbEntity
  8
JISSEN
100
AcDbLine
 10
96.76818546381605
 20
724.8571184449038
 30
0.0
 11
96.76818546381605
 21
736.8333584449037
 31
0.0
  0
LINE
  5
EA6E57012
330
EA6E4DC92
100
AcDbEntity
  8
JISSEN
100
AcDbLine
 10
101.8941404638162
 20
724.8571184449038
 30
0.0
 11
101.8941404638162
 21
736.8333584449037
 31
0.0
  0
ARC
  5
EA6E57013
330
EA6E4DC92
100
AcDbEntity
  8
JISSEN
100
AcDbCircle
 10
99.3311624638161
 20
729.7108474449039
 30
0.0
 40
5.488855
100
AcDbArc
 50
242.1640190000032
 51
297.8359809999967
  0
LINE
  5
EA6E57014
330
EA6E4DC92
100
AcDbEntity
  8
JISSEN
100
AcDbLine
 10
98.3681854638162
 20
723.9333584449036
 30
0.0
 11
96.76818546381605
 21
724.8571184449038
 31
0.0
  0
ARC
  5
EA6E57015
330
EA6E4DC92
100
AcDbEntity
  8
JISSEN
100
AcDbCircle
 10
99.3311624638161
 20
734.3977234449042
 30
0.0
 40
3.535698999999997
100
AcDbArc
 50
43.54067200000199
 51
136.459327999998
  0
ARC
  5
EA6E57016
330
EA6E4DC92
100
AcDbEntity
  8
JISSEN
100
AcDbCircle
 10
96.36818546381597
 20
739.2617854449038
 30
0.0
 40
2.0
100
AcDbArc
 50
314.999999999991
 51
0.0
  0
ARC
  5
EA6E57017
330
EA6E4DC92
100
AcDbEntity
  8
JISSEN
100
AcDbCircle
 10
96.36818546381597
 20
740.6049304449041
 30
0.0
 40
2.0
100
AcDbArc
 50
0.0
 51
45.00000000000899
  0
LINE
  5
EA6E57018
330
EA6E4DC92
100
AcDbEntity
  8
JISSEN
100
AcDbLine
 10
97.78239846381621
 20
737.8475714449036
 30
0.0
 11
96.76818546381605
 21
736.8333584449037
 31
0.0
  0
LINE
  5
EA6E57019
330
EA6E4DC92
100
AcDbEntity
  8
JISSEN
100
AcDbLine
 10
98.3681854638162
 20
740.6049304449038
 30
0.0
 11
98.3681854638162
 21
739.2617854449035
 31
0.0
  0
LINE
  5
EA6E5701A
330
EA6E4DC92
100
AcDbEntity
  8
JISSEN
100
AcDbLine
 10
107.3681854638161
 20
714.4371698031802
 30
0.0
 11
107.3681854638161
 21
707.4371698031803
 31
0.0
  0
ARC
  5
EA6E5701B
330
EA6E4DC92
100
AcDbEntity
  8
JISSEN
100
AcDbCircle
 10
109.9058584638159
 20
754.1814524449039
 30
0.0
 40
29.959419
100
AcDbArc
 50
258.1816419999993
 51
281.8183580000005
  0
ARC
  5
EA6E5701C
330
EA6E4DC92
100
AcDbEntity
  8
JISSEN
100
AcDbCircle
 10
109.9058584638159
 20
720.2696124449041
 30
0.0
 40
17.66374499999999
100
AcDbArc
 50
69.67303500000096
 51
110.326964999999
  0
LINE
  5
EA6E5701D
330
EA6E4DC92
100
AcDbEntity
  8
JISSEN
100
AcDbLine
 10
103.7698794638161
 20
724.8571184449038
 30
0.0
 11
103.7698794638163
 21
736.8333584449037
 31
0.0
  0
LINE
  5
EA6E5701E
330
EA6E4DC92
100
AcDbEntity
  8
JISSEN
100
AcDbLine
 10
116.0418374638161
 20
724.8571184449038
 30
0.0
 11
116.0418374638161
 21
736.8333584449037
 31
0.0
  0
LINE
  5
EA6E5701F
330
EA6E4DC92
100
AcDbEntity
  8
JISSEN
100
AcDbLine
 10
117.3681854638161
 20
724.8571184449038
 30
0.0
 11
116.0418374638161
 21
724.8571184449038
 31
0.0
  0
LINE
  5
EA6E57020
330
EA6E4DC92
100
AcDbEntity
  8
JISSEN
100
AcDbLine
 10
117.3681854638161
 20
736.8333584449037
 30
0.0
 11
116.0418374638161
 21
736.8333584449037
 31
0.0
  0
ARC
  5
EA6E57021
330
EA6E4DC92
100
AcDbEntity
  8
JISSEN
100
AcDbCircle
 10
94.76818546381606
 20
786.4333584449038
 30
0.0
 40
2.0
100
AcDbArc
 50
270.0
 51
0.0
  0
LINE
  5
EA6E57022
330
EA6E4DC92
100
AcDbEntity
  8
JISSEN
100
AcDbLine
 10
98.18911246381617
 20
743.4333584449036
 30
0.0
 11
117.3681854638161
 21
743.4333584449036
 31
0.0
  0
LINE
  5
EA6E57023
330
EA6E4DC92
100
AcDbEntity
  8
JISSEN
100
AcDbLine
 10
97.82186746381604
 20
750.4333584449036
 30
0.0
 11
117.3681854638161
 21
750.4333584449036
 31
0.0
  0
LINE
  5
EA6E57024
330
EA6E4DC92
100
AcDbEntity
  8
JISSEN
100
AcDbLine
 10
95.7267494638163
 20
752.2833584449036
 30
0.0
 11
117.3681854638161
 21
752.2833584449036
 31
0.0
  0
LINE
  5
EA6E57025
330
EA6E4DC92
100
AcDbEntity
  8
JISSEN
100
AcDbLine
 10
95.068185463816
 20
769.9333584449036
 30
0.0
 11
117.3681854638161
 21
769.9333584449036
 31
0.0
  0
LINE
  5
EA6E57026
330
EA6E4DC92
100
AcDbEntity
  8
JISSEN
100
AcDbLine
 10
94.11818546381619
 20
777.4333584449037
 30
0.0
 11
117.3681854638161
 21
777.4333584449037
 31
0.0
  0
LINE
  5
EA6E57027
330
EA6E4DC92
100
AcDbEntity
  8
JISSEN
100
AcDbLine
 10
93.61818546381618
 20
784.4333584449036
 30
0.0
 11
117.3681854638161
 21
784.4333584449036
 31
0.0
  0
LINE
  5
EA6E57028
330
EA6E4DC92
100
AcDbEntity
  8
JISSEN
100
AcDbLine
 10
92.61818546381618
 20
781.4333584449037
 30
0.0
 11
117.3681854638161
 21
781.4333584449037
 31
0.0
  0
LINE
  5
EA6E57029
330
EA6E4DC92
100
AcDbEntity
  8
JISSEN
100
AcDbLine
 10
94.36818546381619
 20
768.6694354449037
 30
0.0
 11
94.36818546381619
 21
753.2617854449036
 31
0.0
  0
ARC
  5
EA6E5702A
330
EA6E4DC92
100
AcDbEntity
  8
JISSEN
100
AcDbCircle
 10
98.36818546381596
 20
744.2617854449038
 30
0.0
 40
2.0
100
AcDbArc
 50
180.0
 51
225.000000000009
  0
ARC
  5
EA6E5702B
330
EA6E4DC92
100
AcDbEntity
  8
JISSEN
100
AcDbCircle
 10
94.36818546381596
 20
749.6049304449041
 30
0.0
 40
2.0
100
AcDbArc
 50
0.0
 51
45.00000000000899
  0
ARC
  5
EA6E5702C
330
EA6E4DC92
100
AcDbEntity
  8
JISSEN
100
AcDbCircle
 10
96.36818546381597
 20
753.2617854449037
 30
0.0
 40
2.0
100
AcDbArc
 50
180.0
 51
225.000000000009
  0
LINE
  5
EA6E5702D
330
EA6E4DC92
100
AcDbEntity
  8
JISSEN
100
AcDbLine
 10
95.7823984638162
 20
751.0191444449037
 30
0.0
 11
94.95397146381606
 21
751.8475714449037
 31
0.0
  0
LINE
  5
EA6E5702E
330
EA6E4DC92
100
AcDbEntity
  8
JISSEN
100
AcDbLine
 10
96.36818546381618
 20
749.6049304449038
 30
0.0
 11
96.36818546381618
 21
744.2617854449036
 31
0.0
  0
LINE
  5
EA6E5702F
330
EA6E4DC92
100
AcDbEntity
  8
JISSEN
100
AcDbLine
 10
93.61818546381618
 20
776.1104824449039
 30
0.0
 11
93.61818546381618
 21
771.0012804449038
 31
0.0
  0
ARC
  5
EA6E57030
330
EA6E4DC92
100
AcDbEntity
  8
JISSEN
100
AcDbCircle
 10
95.61818546381596
 20
771.001280444904
 30
0.0
 40
2.0
100
AcDbArc
 50
180.0
 51
215.6590879999922
  0
ARC
  5
EA6E57031
330
EA6E4DC92
100
AcDbEntity
  8
JISSEN
100
AcDbCircle
 10
92.36818546381597
 20
768.6694354449039
 30
0.0
 40
2.0
100
AcDbArc
 50
0.0
 51
35.65908799999226
  0
ARC
  5
EA6E57032
330
EA6E4DC92
100
AcDbEntity
  8
JISSEN
100
AcDbCircle
 10
94.61818546381596
 20
778.7562334449042
 30
0.0
 40
2.0
100
AcDbArc
 50
180.0
 51
221.4096220000006
  0
ARC
  5
EA6E57033
330
EA6E4DC92
100
AcDbEntity
  8
JISSEN
100
AcDbCircle
 10
93.61818546381597
 20
783.4333584449039
 30
0.0
 40
1.0
100
AcDbArc
 50
90.0
 51
180.0
  0
LINE
  5
EA6E57034
330
EA6E4DC92
100
AcDbEntity
  8
JISSEN
100
AcDbLine
 10
92.61818546381618
 20
781.4333584449037
 30
0.0
 11
92.61818546381618
 21
778.7562334449039
 31
0.0
  0
LINE
  5
EA6E57035
330
EA6E4DC92
100
AcDbEntity
  8
JISSEN
100
AcDbLine
 10
92.61818546381618
 20
783.4333584449036
 30
0.0
 11
92.61818546381618
 21
781.4333584449037
 31
0.0
  0
ARC
  5
EA6E57036
330
EA6E4DC92
100
AcDbEntity
  8
JISSEN
100
AcDbCircle
 10
91.61818546381596
 20
776.1104824449041
 30
0.0
 40
2.0
100
AcDbArc
 50
0.0
 51
41.40962200000063
  0
LINE
  5
EA6E57037
330
EA6E4DC92
100
AcDbEntity
  8
JISSEN
100
AcDbLine
 10
93.61818546381618
 20
784.4333584449036
 30
0.0
 11
93.86818546381618
 21
784.4333584449036
 31
0.0
  0
LINE
  5
EA6E57038
330
EA6E4DC92
100
AcDbEntity
  8
JISSEN
100
AcDbLine
 10
98.3681854638162
 20
802.9333584449036
 30
0.0
 11
117.3681854638161
 21
802.9333584449036
 31
0.0
  0
LINE
  5
EA6E57039
330
EA6E4DC92
100
AcDbEntity
  8
JISSEN
100
AcDbLine
 10
101.8941404638162
 20
802.0095974449036
 30
0.0
 11
103.7698794638163
 21
802.0095974449036
 31
0.0
  0
LWPOLYLINE
  5
EA6E5703A
330
EA6E4DC92
100
AcDbEntity
  8
JISSEN
100
AcDbPolyline
 90
        2
 70
     0
 43
0.0
 10
100.5371716620652
 20
802.9333584449036
 10
100.3681854638161
 20
809.8617925731122
  0
LWPOLYLINE
  5
EA6E5703B
330
EA6E4DC92
100
AcDbEntity
  8
SAISEN
100
AcDbPolyline
 90
        3
 70
     0
 43
0.0
 10
100.3681854638161
 20
809.8617925731126
 10
102.441503884572
 20
806.8617925731125
 10
102.5372296031548
 20
802.9333584449036
  0
LINE
  5
EA6E5703C
330
EA6E4DC92
100
AcDbEntity
  8
JISSEN
100
AcDbLine
 10
101.8941404638162
 20
802.0095974449036
 30
0.0
 11
101.8941404638162
 21
786.4333584449036
 31
0.0
  0
LINE
  5
EA6E5703D
330
EA6E4DC92
100
AcDbEntity
  8
JISSEN
100
AcDbLine
 10
96.76818546381605
 20
802.0095974449036
 30
0.0
 11
96.76818546381605
 21
786.4333584449036
 31
0.0
  0
ARC
  5
EA6E5703E
330
EA6E4DC92
100
AcDbEntity
  8
JISSEN
100
AcDbCircle
 10
99.3311624638161
 20
797.1558684449039
 30
0.0
 40
5.488855
100
AcDbArc
 50
62.16401900000324
 51
117.8359809999967
  0
LINE
  5
EA6E5703F
330
EA6E4DC92
100
AcDbEntity
  8
JISSEN
100
AcDbLine
 10
98.3681854638162
 20
802.9333584449036
 30
0.0
 11
96.76818546381605
 21
802.0095974449036
 31
0.0
  0
ARC
  5
EA6E57040
330
EA6E4DC92
100
AcDbEntity
  8
JISSEN
100
AcDbCircle
 10
109.9058584638159
 20
772.685263444904
 30
0.0
 40
29.959419
100
AcDbArc
 50
78.18164199999941
 51
101.8183580000005
  0
LINE
  5
EA6E57041
330
EA6E4DC92
100
AcDbEntity
  8
JISSEN
100
AcDbLine
 10
103.7698794638163
 20
802.0095974449036
 30
0.0
 11
103.7698794638163
 21
786.4333584449036
 31
0.0
  0
LINE
  5
EA6E57042
330
EA6E4DC92
100
AcDbEntity
  8
JISSEN
100
AcDbLine
 10
116.0418374638161
 20
802.0095974449036
 30
0.0
 11
116.0418374638161
 21
786.4333584449036
 31
0.0
  0
LINE
  5
EA6E57043
330
EA6E4DC92
100
AcDbEntity
  8
JISSEN
100
AcDbLine
 10
116.0418374638161
 20
802.0095974449036
 30
0.0
 11
117.3681854638161
 21
802.0095974449036
 31
0.0
  0
LINE
  5
EA6E57044
330
EA6E4DC92
100
AcDbEntity
  8
JISSEN
100
AcDbLine
 10
106.3681854638161
 20
820.8617925731124
 30
0.0
 11
106.3681854638161
 21
809.8617925731122
 31
0.0
  0
LINE
  5
EA6E57045
330
EA6E4DC92
100
AcDbEntity
  8
JISSEN
100
AcDbLine
 10
168.6954576630057
 20
741.74921722422
 30
0.0
 11
158.1181854638161
 21
747.8560081757141
 31
0.0
  0
LINE
  5
EA6E57046
330
EA6E4DC92
100
AcDbEntity
  8
JISSEN
100
AcDbLine
 10
137.7823984638162
 20
742.8475714449036
 30
0.0
 11
136.9539714638162
 21
742.0191444449037
 31
0.0
  0
LINE
  5
EA6E57047
330
EA6E4DC92
100
AcDbEntity
  8
JISSEN
100
AcDbLine
 10
162.6954576630059
 20
741.74921722422
 30
0.0
 11
156.6181854638161
 21
745.257931964361
 31
0.0
  0
LINE
  5
EA6E57048
330
EA6E4DC92
100
AcDbEntity
  8
TENSEN
  6
BREAK
100
AcDbLine
 10
163.6032897109059
 20
744.6891817621235
 30
0.0
 11
162.1032897109059
 21
742.0911055507704
 31
0.0
  0
LWPOLYLINE
  5
EA6E57049
330
EA6E4DC92
100
AcDbEntity
  8
SAISEN
100
AcDbPolyline
 90
        3
 70
     0
 43
0.0
 10
132.0566775955387
 20
696.4371698031802
 10
132.2608774049047
 20
702.9371698031802
 10
134.3551234707658
 20
705.9371698031802
  0
LWPOLYLINE
  5
EA6E5704A
330
EA6E4DC92
100
AcDbEntity
  8
JISSEN
100
AcDbPolyline
 90
        2
 70
     0
 43
0.0
 10
134.0566775955387
 20
696.4371698031802
 10
134.3681854638161
 20
706.3529535156638
  0
ARC
  5
EA6E5704B
330
EA6E4DC92
100
AcDbEntity
  8
JISSEN
100
AcDbCircle
 10
133.4128529370361
 20
703.3120549281541
 30
0.0
 40
12.66120791411041
100
AcDbArc
 50
94.32728011829182
 51
118.5167942723139
  0
ARC
  5
EA6E5704C
330
EA6E4DC92
100
AcDbEntity
  8
JISSEN
100
AcDbCircle
 10
133.4128529370361
 20
718.5622846782067
 30
0.0
 40
12.66120791411041
100
AcDbArc
 50
241.483205727686
 51
265.6727198817081
  0
LINE
  5
EA6E5704D
330
EA6E4DC92
100
AcDbEntity
  8
JISSEN
100
AcDbLine
 10
132.8422304638161
 20
724.8571184449038
 30
0.0
 11
130.966491463816
 21
724.8571184449038
 31
0.0
  0
LINE
  5
EA6E5704E
330
EA6E4DC92
100
AcDbEntity
  8
JISSEN
100
AcDbLine
 10
132.8422304638161
 20
736.8333584449037
 30
0.0
 11
130.9664914638162
 21
736.8333584449037
 31
0.0
  0
LINE
  5
EA6E5704F
330
EA6E4DC92
100
AcDbEntity
  8
JISSEN
100
AcDbLine
 10
127.3681854638161
 20
714.4371698031802
 30
0.0
 11
127.3681854638161
 21
707.4371698031803
 31
0.0
  0
ARC
  5
EA6E57050
330
EA6E4DC92
100
AcDbEntity
  8
JISSEN
100
AcDbCircle
 10
124.8305124638159
 20
754.1814524449039
 30
0.0
 40
29.959419
100
AcDbArc
 50
258.1816419999993
 51
281.8183580000005
  0
ARC
  5
EA6E57051
330
EA6E4DC92
100
AcDbEntity
  8
JISSEN
100
AcDbCircle
 10
124.8305124638159
 20
720.2696124449041
 30
0.0
 40
17.66374499999999
100
AcDbArc
 50
69.67303500000096
 51
110.326964999999
  0
LINE
  5
EA6E57052
330
EA6E4DC92
100
AcDbEntity
  8
JISSEN
100
AcDbLine
 10
118.694533463816
 20
724.8571184449038
 30
0.0
 11
118.6945334638162
 21
736.8333584449037
 31
0.0
  0
LINE
  5
EA6E57053
330
EA6E4DC92
100
AcDbEntity
  8
JISSEN
100
AcDbLine
 10
130.966491463816
 20
724.8571184449038
 30
0.0
 11
130.9664914638162
 21
736.8333584449037
 31
0.0
  0
LWPOLYLINE
  5
EA6E57054
330
EA6E4DC92
100
AcDbEntity
  8
JISSEN
100
AcDbPolyline
 90
        2
 70
     0
 43
0.0
 10
134.1039203636437
 20
723.9333584449036
 10
134.3681854638161
 20
715.5213860906967
  0
LWPOLYLINE
  5
EA6E57055
330
EA6E4DC92
100
AcDbEntity
  8
SAISEN
100
AcDbPolyline
 90
        3
 70
     0
 43
0.0
 10
132.1039203636437
 20
723.9333584449036
 10
132.2608774049047
 20
718.9371698031802
 10
134.3551234707658
 20
715.9371698031803
  0
INSERT
  5
EA6E57056
330
EA6E4DC92
100
AcDbEntity
  8
SUNPOU
100
AcDbBlockReference
  2
ARROWANG
 10
137.368185463816
 20
710.7726846265916
 30
0.0
 41
2.99999999999996
 42
3.0
 43
3.0
 50
186.7738580522359
1001
ACAD
1000
DSTYLE
1002
{
1070
   147
1040
1.0
1070
    77
1070
     0
1002
}
  0
LWPOLYLINE
  5
EA6E57057
330
EA6E4DC92
100
AcDbEntity
  8
JISSEN
100
AcDbPolyline
 90
        2
 70
     0
 43
0.0
 10
137.3681854638161
 20
714.4371698031802
 10
137.3681854638161
 20
707.4371698031803
  0
LINE
  5
EA6E57058
330
EA6E4DC92
100
AcDbEntity
  8
JISSEN
100
AcDbLine
 10
133.2177220813598
 20
705.9371698031802
 30
0.0
 11
137.3681854638161
 21
707.4371698031803
 31
0.0
  0
LINE
  5
EA6E57059
330
EA6E4DC92
100
AcDbEntity
  8
JISSEN
100
AcDbLine
 10
133.2177220813598
 20
715.9371698031804
 30
0.0
 11
137.3681854638161
 21
714.4371698031802
 31
0.0
  0
LINE
  5
EA6E5705A
330
EA6E4DC92
100
AcDbEntity
  8
JISSEN
100
AcDbLine
 10
137.9681854638161
 20
724.8571184449038
 30
0.0
 11
137.9681854638161
 21
736.8333584449037
 31
0.0
  0
LINE
  5
EA6E5705B
330
EA6E4DC92
100
AcDbEntity
  8
JISSEN
100
AcDbLine
 10
132.8422304638161
 20
724.8571184449038
 30
0.0
 11
132.8422304638161
 21
736.8333584449037
 31
0.0
  0
ARC
  5
EA6E5705C
330
EA6E4DC92
100
AcDbEntity
  8
JISSEN
100
AcDbCircle
 10
135.4052074638157
 20
729.7108474449039
 30
0.0
 40
5.488855
100
AcDbArc
 50
242.1640190000032
 51
297.8359809999967
  0
LINE
  5
EA6E5705D
330
EA6E4DC92
100
AcDbEntity
  8
JISSEN
100
AcDbLine
 10
136.3681854638161
 20
723.9333584449036
 30
0.0
 11
137.9681854638161
 21
724.8571184449038
 31
0.0
  0
ARC
  5
EA6E5705E
330
EA6E4DC92
100
AcDbEntity
  8
JISSEN
100
AcDbCircle
 10
135.4052074638157
 20
734.3977234449042
 30
0.0
 40
3.535698999999997
100
AcDbArc
 50
43.54067200000199
 51
136.459327999998
  0
LINE
  5
EA6E5705F
330
EA6E4DC92
100
AcDbEntity
  8
JISSEN
100
AcDbLine
 10
136.3681854638161
 20
740.6049304449038
 30
0.0
 11
136.3681854638161
 21
739.2617854449035
 31
0.0
  0
LINE
  5
EA6E57060
330
EA6E4DC92
100
AcDbEntity
  8
JISSEN
  6
Continuous
100
AcDbLine
 10
136.3681854638161
 20
740.6049304449038
 30
0.0
 11
136.3681854638161
 21
739.2617854449035
 31
0.0
  0
LINE
  5
EA6E57061
330
EA6E4DC92
100
AcDbEntity
  8
JISSEN
100
AcDbLine
 10
136.9539714638162
 20
737.8475714449036
 30
0.0
 11
137.9681854638161
 21
736.8333584449037
 31
0.0
  0
ARC
  5
EA6E57062
330
EA6E4DC92
100
AcDbEntity
  8
JISSEN
100
AcDbCircle
 10
138.3681854638159
 20
739.2617854449038
 30
0.0
 40
2.0
100
AcDbArc
 50
180.0
 51
225.000000000009
  0
ARC
  5
EA6E57063
330
EA6E4DC92
100
AcDbEntity
  8
JISSEN
100
AcDbCircle
 10
138.3681854638159
 20
740.6049304449041
 30
0.0
 40
2.0
100
AcDbArc
 50
134.9999999999909
 51
180.0
  0
LINE
  5
EA6E57064
330
EA6E4DC92
100
AcDbEntity
  8
JISSEN
100
AcDbLine
 10
159.6954576630059
 20
741.74921722422
 30
0.0
 11
172.3681854638162
 21
734.4326144170554
 31
0.0
  0
LINE
  5
EA6E57065
330
EA6E4DC92
100
AcDbEntity
  8
JISSEN
100
AcDbLine
 10
171.6954576630059
 20
741.74921722422
 30
0.0
 11
159.6954576630059
 21
741.74921722422
 31
0.0
  0
ARC
  5
EA6E57066
330
EA6E4DC92
100
AcDbEntity
  8
JISSEN
100
AcDbCircle
 10
172.1181854638161
 20
733.9996017151634
 30
0.0
 40
0.5
100
AcDbArc
 50
0.0
 51
59.99999999999694
  0
LINE
  5
EA6E57067
330
EA6E4DC92
100
AcDbEntity
  8
JISSEN
100
AcDbLine
 10
153.1181854638161
 20
753.9333584449036
 30
0.0
 11
143.6181854638161
 21
753.9333584449036
 31
0.0
  0
LINE
  5
EA6E57068
330
EA6E4DC92
100
AcDbEntity
  8
JISSEN
100
AcDbLine
 10
153.1181854638161
 20
772.9333584449037
 30
0.0
 11
143.6181854638161
 21
772.9333584449037
 31
0.0
  0
ARC
  5
EA6E57069
330
EA6E4DC92
100
AcDbEntity
  8
JISSEN
100
AcDbCircle
 10
139.9681854638161
 20
786.4333584449038
 30
0.0
 40
2.0
100
AcDbArc
 50
180.0
 51
270.0
  0
SPLINE
  5
EA6E5706A
330
EA6E4DC92
100
AcDbEntity
  8
JISSEN
100
AcDbSpline
210
0.0
220
0.0
230
1.0
 70
     8
 71
     3
 72
     8
 73
     4
 74
     0
 42
0.0000000001
 43
0.0000000001
 40
5.526513857442442
 40
5.526513857442442
 40
5.526513857442442
 40
5.526513857442442
 40
10.80205680575085
 40
10.80205680575085
 40
10.80205680575085
 40
10.80205680575085
 10
138.4627816783572
 20
768.6829112908654
 30
0.0
 10
138.0294005528485
 20
766.9528116635683
 30
0.0
 10
137.7907095835828
 20
765.1849008755093
 30
0.0
 10
137.8315672537175
 20
763.4333579603025
 30
0.0
  0
LINE
  5
EA6E5706B
330
EA6E4DC92
100
AcDbEntity
  8
JISSEN
100
AcDbLine
 10
142.6181854638161
 20
763.4333584449036
 30
0.0
 11
142.6181854638161
 21
771.9333584449036
 31
0.0
  0
SPLINE
  5
EA6E5706C
330
EA6E4DC92
100
AcDbEntity
  8
JISSEN
100
AcDbSpline
210
0.0
220
0.0
230
1.0
 70
     8
 71
     3
 72
     8
 73
     4
 74
     0
 42
0.0000000001
 43
0.0000000001
 40
1.210314090895789
 40
1.210314090895789
 40
1.210314090895789
 40
1.210314090895789
 40
10.80205680575085
 40
10.80205680575085
 40
10.80205680575085
 40
10.80205680575085
 10
139.870986258956
 20
754.042948084816
 30
0.0
 10
138.6070944316861
 20
757.0101060217775
 30
0.0
 10
137.7572817699858
 20
760.248785460125
 30
0.0
 10
137.8315672537175
 20
763.4333579603025
 30
0.0
  0
ARC
  5
EA6E5706D
330
EA6E4DC92
100
AcDbEntity
  8
JISSEN
100
AcDbCircle
 10
140.3681854638159
 20
749.6049304449041
 30
0.0
 40
2.0
100
AcDbArc
 50
134.9999999999909
 51
180.0
  0
LINE
  5
EA6E5706E
330
EA6E4DC92
100
AcDbEntity
  8
JISSEN
100
AcDbLine
 10
138.3681854638161
 20
749.6049304449038
 30
0.0
 11
138.3681854638161
 21
744.2617854449036
 31
0.0
  0
ARC
  5
EA6E5706F
330
EA6E4DC92
100
AcDbEntity
  8
JISSEN
100
AcDbCircle
 10
136.3681854638159
 20
744.2617854449038
 30
0.0
 40
2.0
100
AcDbArc
 50
314.999999999991
 51
0.0
  0
ARC
  5
EA6E57070
330
EA6E4DC92
100
AcDbEntity
  8
JISSEN
100
AcDbCircle
 10
141.886134463816
 20
753.9333584449039
 30
0.0
 40
1.0
100
AcDbArc
 50
270.0
 51
330.0000000000005
  0
ARC
  5
EA6E57071
330
EA6E4DC92
100
AcDbEntity
  8
JISSEN
100
AcDbCircle
 10
141.6206344638158
 20
750.9333584449039
 30
0.0
 40
2.0
100
AcDbArc
 50
90.0
 51
144.4011410000024
  0
ARC
  5
EA6E57072
330
EA6E4DC92
100
AcDbEntity
  8
JISSEN
100
AcDbCircle
 10
138.3681854638159
 20
753.2617854449037
 30
0.0
 40
2.0
100
AcDbArc
 50
314.999999999991
 51
324.4011410000025
  0
LINE
  5
EA6E57073
330
EA6E4DC92
100
AcDbEntity
  8
JISSEN
100
AcDbLine
 10
138.9539714638162
 20
751.0191444449037
 30
0.0
 11
139.7823984638162
 21
751.8475714449037
 31
0.0
  0
LINE
  5
EA6E57074
330
EA6E4DC92
100
AcDbEntity
  8
JISSEN
100
AcDbLine
 10
141.8861344638162
 20
752.9333584449036
 30
0.0
 11
141.620634463816
 21
752.9333584449036
 31
0.0
  0
LINE
  5
EA6E57075
330
EA6E4DC92
100
AcDbEntity
  8
JISSEN
100
AcDbLine
 10
142.6181854638161
 20
763.4333584449036
 30
0.0
 11
142.6181854638161
 21
754.9333584449036
 31
0.0
  0
ARC
  5
EA6E57076
330
EA6E4DC92
100
AcDbEntity
  8
JISSEN
100
AcDbCircle
 10
143.6181854638159
 20
752.9333584449038
 30
0.0
 40
1.0
100
AcDbArc
 50
90.0
 51
150.0000000000005
  0
ARC
  5
EA6E57077
330
EA6E4DC92
100
AcDbEntity
  8
JISSEN
100
AcDbCircle
 10
143.1181854638157
 20
775.668691444904
 30
0.0
 40
2.0
100
AcDbArc
 50
180.0
 51
245.752214999997
  0
ARC
  5
EA6E57078
330
EA6E4DC92
100
AcDbEntity
  8
JISSEN
100
AcDbCircle
 10
141.886134463816
 20
772.9333584449038
 30
0.0
 40
1.0
100
AcDbArc
 50
29.99999999999948
 51
65.75221499999701
  0
SPLINE
  5
EA6E57079
330
EA6E4DC92
100
AcDbEntity
  8
JISSEN
100
AcDbSpline
210
0.0
220
0.0
230
1.0
 70
     8
 71
     3
 72
     8
 73
     4
 74
     0
 42
0.0000000001
 43
0.0000000001
 40
0.5678758884252421
 40
0.5678758884252421
 40
0.5678758884252421
 40
0.5678758884252421
 40
3.08188610348608
 40
3.08188610348608
 40
3.08188610348608
 40
3.08188610348608
 10
140.9209239720319
 20
773.3994980515995
 30
0.0
 10
140.6310844807558
 20
772.6093704205104
 30
0.0
 10
140.3478737836669
 20
771.8091515057867
 30
0.0
 10
140.0855259448608
 20
771.0012802565224
 30
0.0
  0
ARC
  5
EA6E5707A
330
EA6E4DC92
100
AcDbEntity
  8
JISSEN
100
AcDbCircle
 10
138.3980194638161
 20
771.7207574449042
 30
0.0
 40
1.834481999999999
100
AcDbArc
 50
283.0090819999968
 51
336.9087820000007
  0
ARC
  5
EA6E5707B
330
EA6E4DC92
100
AcDbEntity
  8
JISSEN
100
AcDbCircle
 10
143.6181854638159
 20
773.9333584449038
 30
0.0
 40
1.0
100
AcDbArc
 50
209.9999999999994
 51
270.0
  0
ARC
  5
EA6E5707C
330
EA6E4DC92
100
AcDbEntity
  8
JISSEN
100
AcDbCircle
 10
141.1181854638159
 20
783.4333584449039
 30
0.0
 40
1.0
100
AcDbArc
 50
0.0
 51
90.0
  0
LINE
  5
EA6E5707D
330
EA6E4DC92
100
AcDbEntity
  8
JISSEN
100
AcDbLine
 10
142.1181854638161
 20
781.4333584449037
 30
0.0
 11
142.1181854638161
 21
778.7562334449039
 31
0.0
  0
ARC
  5
EA6E5707E
330
EA6E4DC92
100
AcDbEntity
  8
JISSEN
100
AcDbCircle
 10
143.1181854638157
 20
776.1104824449041
 30
0.0
 40
2.0
100
AcDbArc
 50
138.5903779999993
 51
180.0
  0
LINE
  5
EA6E5707F
330
EA6E4DC92
100
AcDbEntity
  8
JISSEN
100
AcDbLine
 10
141.1181854638161
 20
776.1104824449039
 30
0.0
 11
141.1181854638161
 21
775.6686914449037
 31
0.0
  0
ARC
  5
EA6E57080
330
EA6E4DC92
100
AcDbEntity
  8
JISSEN
100
AcDbCircle
 10
140.1181854638159
 20
778.7562334449042
 30
0.0
 40
2.0
100
AcDbArc
 50
318.5903779999993
 51
0.0
  0
LINE
  5
EA6E57081
330
EA6E4DC92
100
AcDbEntity
  8
JISSEN
100
AcDbLine
 10
141.1181854638161
 20
784.4333584449036
 30
0.0
 11
140.8681854638159
 21
784.4333584449036
 31
0.0
  0
LINE
  5
EA6E57082
330
EA6E4DC92
100
AcDbEntity
  8
JISSEN
100
AcDbLine
 10
142.1181854638161
 20
783.4333584449036
 30
0.0
 11
142.1181854638161
 21
781.4333584449037
 31
0.0
  0
LINE
  5
EA6E57083
330
EA6E4DC92
100
AcDbEntity
  8
JISSEN
100
AcDbLine
 10
132.8422304638161
 20
802.0095974449036
 30
0.0
 11
130.9664914638162
 21
802.0095974449036
 31
0.0
  0
ARC
  5
EA6E57084
330
EA6E4DC92
100
AcDbEntity
  8
JISSEN
100
AcDbCircle
 10
124.8305124638159
 20
772.685263444904
 30
0.0
 40
29.959419
100
AcDbArc
 50
78.18164199999941
 51
101.8183580000005
  0
LINE
  5
EA6E57085
330
EA6E4DC92
100
AcDbEntity
  8
JISSEN
100
AcDbLine
 10
118.6945334638162
 20
802.0095974449036
 30
0.0
 11
118.6945334638162
 21
786.4333584449036
 31
0.0
  0
LINE
  5
EA6E57086
330
EA6E4DC92
100
AcDbEntity
  8
JISSEN
100
AcDbLine
 10
130.9664914638162
 20
802.0095974449036
 30
0.0
 11
130.9664914638162
 21
786.4333584449036
 31
0.0
  0
LINE
  5
EA6E57087
330
EA6E4DC92
100
AcDbEntity
  8
JISSEN
100
AcDbLine
 10
128.3681854638161
 20
820.8617925731124
 30
0.0
 11
128.3681854638161
 21
809.8617925731122
 31
0.0
  0
LWPOLYLINE
  5
EA6E57088
330
EA6E4DC92
100
AcDbEntity
  8
SAISEN
100
AcDbPolyline
 90
        3
 70
     0
 43
0.0
 10
134.3681854638161
 20
809.8617925731122
 10
132.2948670430603
 20
806.8617925731123
 10
132.1991413244775
 20
802.9333584449036
  0
LWPOLYLINE
  5
EA6E57089
330
EA6E4DC92
100
AcDbEntity
  8
JISSEN
100
AcDbPolyline
 90
        2
 70
     0
 43
0.0
 10
134.3681854638161
 20
809.8617925731122
 10
134.1991992655673
 20
802.9333584449036
  0
LINE
  5
EA6E5708A
330
EA6E4DC92
100
AcDbEntity
  8
JISSEN
100
AcDbLine
 10
132.8422304638161
 20
802.0095974449036
 30
0.0
 11
132.8422304638161
 21
786.4333584449036
 31
0.0
  0
LINE
  5
EA6E5708B
330
EA6E4DC92
100
AcDbEntity
  8
JISSEN
100
AcDbLine
 10
137.9681854638161
 20
802.0095974449036
 30
0.0
 11
137.9681854638161
 21
786.4333584449036
 31
0.0
  0
ARC
  5
EA6E5708C
330
EA6E4DC92
100
AcDbEntity
  8
JISSEN
100
AcDbCircle
 10
135.4052074638157
 20
797.1558684449039
 30
0.0
 40
5.488855
100
AcDbArc
 50
62.16401900000324
 51
117.8359809999967
  0
LINE
  5
EA6E5708D
330
EA6E4DC92
100
AcDbEntity
  8
JISSEN
100
AcDbLine
 10
136.3681854638161
 20
802.9333584449036
 30
0.0
 11
137.9681854638161
 21
802.0095974449036
 31
0.0
  0
INSERT
  5
EA6E5708E
330
EA6E4DC92
100
AcDbEntity
  8
SUNPOU
100
AcDbBlockReference
  2
ARROWANG
 10
138.8681854638161
 20
815.0262777496973
 30
0.0
 41
2.999999999999914
 42
3.0
 43
3.0
 50
139.7549497692897
1001
ACAD
1000
DSTYLE
1002
{
1070
   147
1040
1.0
1070
    77
1070
     0
1002
}
  0
LINE
  5
EA6E5708F
330
EA6E4DC92
100
AcDbEntity
  8
JISSEN
100
AcDbLine
 10
159.698742047417
 20
755.9278049454388
 30
0.0
 11
163.5376288802156
 21
755.9278049454388
 31
0.0
  0
LINE
  5
EA6E57090
330
EA6E4DC92
100
AcDbEntity
  8
JISSEN
100
AcDbLine
 10
159.698742047417
 20
767.1861351946363
 30
0.0
 11
163.5376288802156
 21
767.1861351946363
 31
0.0
  0
LINE
  5
EA6E57091
330
EA6E4DC92
100
AcDbEntity
  8
JISSEN
100
AcDbLine
 10
159.698742047417
 20
759.6805816951709
 30
0.0
 11
163.5376288802156
 21
759.6805816951709
 31
0.0
  0
LINE
  5
EA6E57092
330
EA6E4DC92
100
AcDbEntity
  8
JISSEN
100
AcDbLine
 10
159.698742047417
 20
770.938911944369
 30
0.0
 11
163.5376288802156
 21
770.938911944369
 31
0.0
  0
LINE
  5
EA6E57093
330
EA6E4DC92
100
AcDbEntity
  8
JISSEN
100
AcDbLine
 10
157.1181854638162
 20
778.4333584449036
 30
0.0
 11
157.1181854638162
 21
749.5880589832832
 31
0.0
  0
LINE
  5
EA6E57094
330
EA6E4DC92
100
AcDbEntity
  8
JISSEN
100
AcDbLine
 10
154.1181854638161
 20
778.4333584449036
 30
0.0
 11
154.1181854638161
 21
749.5880589832832
 31
0.0
  0
LINE
  5
EA6E57095
330
EA6E4DC92
100
AcDbEntity
  8
JISSEN
100
AcDbLine
 10
159.1181854638161
 20
755.7333584449038
 30
0.0
 11
159.1181854638161
 21
771.1333584449039
 31
0.0
  0
LINE
  5
EA6E57096
330
EA6E4DC92
100
AcDbEntity
  8
JISSEN
100
AcDbLine
 10
153.1181854638161
 20
763.4333584449036
 30
0.0
 11
153.1181854638161
 21
772.9333584449037
 31
0.0
  0
ARC
  5
EA6E57097
330
EA6E4DC92
100
AcDbEntity
  8
JISSEN
100
AcDbCircle
 10
171.5376288802149
 20
763.4333584449039
 30
0.0
 40
12.41944341639882
100
AcDbArc
 50
162.4120462260089
 51
197.587953773991
  0
LINE
  5
EA6E57098
330
EA6E4DC92
100
AcDbEntity
  8
JISSEN
100
AcDbLine
 10
159.1181854638161
 20
764.0493838486881
 30
0.0
 11
157.1181854638162
 21
760.5852822335505
 31
0.0
  0
LINE
  5
EA6E57099
330
EA6E4DC92
100
AcDbEntity
  8
JISSEN
100
AcDbLine
 10
159.1181854638161
 20
766.0493838486882
 30
0.0
 11
157.1181854638162
 21
762.5852822335505
 31
0.0
  0
ARC
  5
EA6E5709A
330
EA6E4DC92
100
AcDbEntity
  8
JISSEN
100
AcDbCircle
 10
159.1181854638161
 20
749.5880589832834
 30
0.0
 40
5.0
100
AcDbArc
 50
180.0
 51
239.9999999999969
  0
LINE
  5
EA6E5709B
330
EA6E4DC92
100
AcDbEntity
  8
TENSEN
  6
BREAK
100
AcDbLine
 10
159.2731626919839
 20
747.1891817621235
 30
0.0
 11
157.773162691984
 21
744.5911055507703
 31
0.0
  0
ARC
  5
EA6E5709C
330
EA6E4DC92
100
AcDbEntity
  8
JISSEN
100
AcDbCircle
 10
159.1181854638161
 20
749.5880589832834
 30
0.0
 40
2.0
100
AcDbArc
 50
180.0
 51
239.9999999999969
  0
LINE
  5
EA6E5709D
330
EA6E4DC92
100
AcDbEntity
  8
JISSEN
100
AcDbLine
 10
153.1181854638161
 20
763.4333584449036
 30
0.0
 11
153.1181854638161
 21
753.9333584449036
 31
0.0
  0
LINE
  5
EA6E5709E
330
EA6E4DC92
100
AcDbEntity
  8
JISSEN
100
AcDbLine
 10
153.1181854638161
 20
754.4333584449036
 30
0.0
 11
154.1181854638161
 21
754.4333584449036
 31
0.0
  0
ARC
  5
EA6E5709F
330
EA6E4DC92
100
AcDbEntity
  8
JISSEN
100
AcDbCircle
 10
162.4407550367659
 20
757.8041933203051
 30
0.0
 40
3.322569572950068
100
AcDbArc
 50
145.6157525319544
 51
214.3842474680374
  0
LINE
  5
EA6E570A0
330
EA6E4DC92
100
AcDbEntity
  8
JISSEN
100
AcDbLine
 10
159.1181854638164
 20
756.9333584449037
 30
0.0
 11
159.698742047417
 21
755.9278049454388
 31
0.0
  0
LINE
  5
EA6E570A1
330
EA6E4DC92
100
AcDbEntity
  8
JISSEN
100
AcDbLine
 10
159.1181854638161
 20
755.7333584449038
 30
0.0
 11
157.1181854638162
 21
755.7333584449038
 31
0.0
  0
LINE
  5
EA6E570A2
330
EA6E4DC92
100
AcDbEntity
  8
JISSEN
100
AcDbLine
 10
153.1181854638161
 20
772.4333584449036
 30
0.0
 11
154.1181854638161
 21
772.4333584449036
 31
0.0
  0
ARC
  5
EA6E570A3
330
EA6E4DC92
100
AcDbEntity
  8
JISSEN
100
AcDbCircle
 10
162.4407550367659
 20
769.0625235695026
 30
0.0
 40
3.322569572950015
100
AcDbArc
 50
145.6157525319544
 51
214.3842474680374
  0
LINE
  5
EA6E570A4
330
EA6E4DC92
100
AcDbEntity
  8
JISSEN
100
AcDbLine
 10
159.1181854638164
 20
769.9333584449036
 30
0.0
 11
159.698742047417
 21
770.938911944369
 31
0.0
  0
LINE
  5
EA6E570A5
330
EA6E4DC92
100
AcDbEntity
  8
JISSEN
100
AcDbLine
 10
159.1181854638161
 20
771.1333584449039
 30
0.0
 11
157.1181854638162
 21
771.1333584449039
 31
0.0
  0
LINE
  5
EA6E570A6
330
EA6E4DC92
100
AcDbEntity
  8
JISSEN
100
AcDbLine
 10
157.1181854638162
 20
778.4333584449036
 30
0.0
 11
154.1181854638161
 21
778.4333584449036
 31
0.0
  0
LINE
  5
EA6E570A7
330
EA6E4DC92
100
AcDbEntity
  8
JISSEN
100
AcDbLine
 10
164.1181854638164
 20
756.9333584449037
 30
0.0
 11
164.1181854638162
 21
769.9333584449036
 31
0.0
  0
ARC
  5
EA6E570A8
330
EA6E4DC92
100
AcDbEntity
  8
JISSEN
100
AcDbCircle
 10
151.6987420474172
 20
763.4333584449039
 30
0.0
 40
12.41944341639882
100
AcDbArc
 50
342.4120462260089
 51
17.58795377399102
  0
LINE
  5
EA6E570A9
330
EA6E4DC92
100
AcDbEntity
  8
JISSEN
100
AcDbLine
 10
165.7681854638162
 20
767.4333584449041
 30
0.0
 11
165.7681854638167
 21
763.433358444904
 31
0.0
  0
LINE
  5
EA6E570AA
330
EA6E4DC92
100
AcDbEntity
  8
JISSEN
100
AcDbLine
 10
166.2681854638162
 20
763.9333584449036
 30
0.0
 11
166.2681854638162
 21
763.433358444904
 31
0.0
  0
INSERT
  5
EA6E570AB
330
EA6E4DC92
100
AcDbEntity
  8
SUNPOU
100
AcDbBlockReference
  2
ARROWANG
 10
166.7701004263235
 20
760.4117699240787
 30
0.0
 41
3.000000000000046
 42
3.0
 43
3.0
 50
148.9127205683842
1001
ACAD
1000
DSTYLE
1002
{
1070
   147
1040
1.0
1070
    77
1070
     0
1002
}
  0
LINE
  5
EA6E570AC
330
EA6E4DC92
100
AcDbEntity
  8
JISSEN
100
AcDbLine
 10
164.1181854638164
 20
759.433358444904
 30
0.0
 11
165.7681854638162
 21
759.433358444904
 31
0.0
  0
LINE
  5
EA6E570AD
330
EA6E4DC92
100
AcDbEntity
  8
JISSEN
100
AcDbLine
 10
166.4681854638165
 20
760.1333584449039
 30
0.0
 11
164.1181854638164
 21
760.1333584449039
 31
0.0
  0
ARC
  5
EA6E570AE
330
EA6E4DC92
100
AcDbEntity
  8
JISSEN
100
AcDbCircle
 10
160.7956158908661
 20
757.8041933203051
 30
0.0
 40
3.322569572950068
100
AcDbArc
 50
325.6157525319544
 51
34.38424746803744
  0
LINE
  5
EA6E570AF
330
EA6E4DC92
100
AcDbEntity
  8
JISSEN
100
AcDbLine
 10
164.1181854638164
 20
756.9333584449037
 30
0.0
 11
163.5376288802156
 21
755.9278049454388
 31
0.0
  0
LINE
  5
EA6E570B0
330
EA6E4DC92
100
AcDbEntity
  8
JISSEN
100
AcDbLine
 10
165.7681854638162
 20
759.433358444904
 30
0.0
 11
165.7681854638167
 21
763.433358444904
 31
0.0
  0
LINE
  5
EA6E570B1
330
EA6E4DC92
100
AcDbEntity
  8
JISSEN
100
AcDbLine
 10
166.7681854638162
 20
760.4333584449041
 30
0.0
 11
166.7681854638162
 21
762.9333584449036
 31
0.0
  0
LINE
  5
EA6E570B2
330
EA6E4DC92
100
AcDbEntity
  8
JISSEN
100
AcDbLine
 10
166.2681854638162
 20
762.9333584449036
 30
0.0
 11
166.2681854638162
 21
763.433358444904
 31
0.0
  0
LINE
  5
EA6E570B3
330
EA6E4DC92
100
AcDbEntity
  8
JISSEN
100
AcDbLine
 10
166.2681854638162
 20
762.9333584449036
 30
0.0
 11
166.7681854638162
 21
762.9333584449036
 31
0.0
  0
LINE
  5
EA6E570B4
330
EA6E4DC92
100
AcDbEntity
  8
JISSEN
100
AcDbLine
 10
165.7681854638162
 20
759.433358444904
 30
0.0
 11
166.7681854637646
 21
760.4333584448522
 31
0.0
  0
LINE
  5
EA6E570B5
330
EA6E4DC92
100
AcDbEntity
  8
JISSEN
100
AcDbLine
 10
166.4681854638165
 20
766.7333584449038
 30
0.0
 11
164.1181854638164
 21
766.7333584449038
 31
0.0
  0
LINE
  5
EA6E570B6
330
EA6E4DC92
100
AcDbEntity
  8
JISSEN
100
AcDbLine
 10
164.1181854638164
 20
767.4333584449041
 30
0.0
 11
165.7681854638162
 21
767.4333584449041
 31
0.0
  0
ARC
  5
EA6E570B7
330
EA6E4DC92
100
AcDbEntity
  8
JISSEN
100
AcDbCircle
 10
160.7956158908659
 20
769.0625235695026
 30
0.0
 40
3.322569572950015
100
AcDbArc
 50
325.6157525319544
 51
34.38424746803744
  0
LINE
  5
EA6E570B8
330
EA6E4DC92
100
AcDbEntity
  8
JISSEN
100
AcDbLine
 10
164.1181854638162
 20
769.9333584449036
 30
0.0
 11
163.5376288802153
 21
770.938911944369
 31
0.0
  0
LINE
  5
EA6E570B9
330
EA6E4DC92
100
AcDbEntity
  8
JISSEN
100
AcDbLine
 10
165.7681854638162
 20
767.4333584449041
 30
0.0
 11
166.7681854637646
 21
766.4333584449555
 31
0.0
  0
LINE
  5
EA6E570BA
330
EA6E4DC92
100
AcDbEntity
  8
JISSEN
100
AcDbLine
 10
166.7681854638162
 20
766.4333584449041
 30
0.0
 11
166.7681854638162
 21
763.9333584449036
 31
0.0
  0
LINE
  5
EA6E570BB
330
EA6E4DC92
100
AcDbEntity
  8
JISSEN
100
AcDbLine
 10
166.2681854638162
 20
763.9333584449036
 30
0.0
 11
166.7681854638162
 21
763.9333584449036
 31
0.0
  0
TEXT
  5
EA6E570BC
330
EA6E4DC92
100
AcDbEntity
  8
TEXT
100
AcDbText
 10
22.32622562784145
 20
1055.865816126707
 30
0.0
 40
6.0
  1
六角ニップル
  7
K
 72
     4
 11
43.12622562784144
 21
1058.865816126707
 31
0.0
100
AcDbText
  0
TEXT
  5
EA6E570BD
330
EA6E4DC92
100
AcDbEntity
  8
TEXT
100
AcDbText
 10
22.12622562784145
 20
1067.665816126707
 30
0.0
 40
6.0
  1
ボールバルブ
  7
K
 72
     4
 11
43.12622562784144
 21
1070.865816126707
 31
0.0
100
AcDbText
  0
LINE
  5
EA6E570BE
330
EA6E4DC92
100
AcDbEntity
  8
JISSEN
100
AcDbLine
 10
-6.873772924158629
 20
1040.865816126707
 30
0.0
 11
172.1262256278414
 21
1040.865816126707
 31
0.0
  0
TEXT
  5
EA6E570BF
330
EA6E4DC92
100
AcDbEntity
  8
TEXT
100
AcDbText
 10
0.9833684849843072
 20
1043.865816126707
 30
0.0
 40
6.0
  1
4
  7
K
 72
     4
 11
3.126225627841449
 21
1046.865816126707
 31
0.0
100
AcDbText
  0
TEXT
  5
EA6E570C0
330
EA6E4DC92
100
AcDbEntity
  8
TEXT
100
AcDbText
 10
1.12622562784145
 20
1055.865816126707
 30
0.0
 40
6.0
  1
3
  7
K
 72
     4
 11
3.126225627841449
 21
1058.865816126707
 31
0.0
100
AcDbText
  0
TEXT
  5
EA6E570C1
330
EA6E4DC92
100
AcDbEntity
  8
TEXT
100
AcDbText
 10
1.126225627841449
 20
1067.865816126707
 30
0.0
 40
6.0
  1
2
  7
K
 72
     4
 11
3.126225627841449
 21
1070.865816126707
 31
0.0
100
AcDbText
  0
TEXT
  5
EA6E570C2
330
EA6E4DC92
100
AcDbEntity
  8
TEXT
100
AcDbText
 10
-3.273774372158548
 20
1091.865816126707
 30
0.0
 40
6.0
  1
番号
  7
K
 72
     4
 11
3.126225627841449
 21
1094.865816126707
 31
0.0
100
AcDbText
  0
TEXT
  5
EA6E570C3
330
EA6E4DC92
100
AcDbEntity
  8
TEXT
100
AcDbText
 10
2.411939913555735
 20
1079.865816126707
 30
0.0
 40
6.0
  1
1
  7
K
 72
     4
 11
3.126225627841449
 21
1082.865816126707
 31
0.0
100
AcDbText
  0
TEXT
  5
EA6E570C4
330
EA6E4DC92
100
AcDbEntity
  8
TEXT
100
AcDbText
 10
25.52622562784145
 20
1079.665816126707
 30
0.0
 40
6.0
  1
ノ　ズ　ル
  7
K
 72
     4
 11
43.12622562784144
 21
1082.865816126707
 31
0.0
100
AcDbText
  0
LINE
  5
EA6E570C5
330
EA6E4DC92
100
AcDbEntity
  8
JISSEN
100
AcDbLine
 10
13.12622562784145
 20
1100.865816126707
 30
0.0
 11
13.12622562784145
 21
1040.865816126707
 31
0.0
  0
TEXT
  5
EA6E570C6
330
EA6E4DC92
100
AcDbEntity
  8
TEXT
100
AcDbText
 10
25.92622562784145
 20
1043.865816126707
 30
0.0
 40
6.0
  1
違径チーズ
  7
K
 72
     4
 11
43.12622562784144
 21
1046.865816126707
 31
0.0
100
AcDbText
  0
TEXT
  5
EA6E570C7
330
EA6E4DC92
100
AcDbEntity
  8
TEXT
100
AcDbText
 10
25.92622562784145
 20
1091.865816126707
 30
0.0
 40
6.0
  1
名      称
  7
K
 72
     4
 11
43.12622562784144
 21
1094.865816126707
 31
0.0
100
AcDbText
  0
LWPOLYLINE
  5
EA6E570C8
330
EA6E4DC92
100
AcDbEntity
  8
TENSEN
 48
2.0
100
AcDbPolyline
 90
        4
 70
     0
 43
0.0
 10
100.3681854638161
 20
890.3217925731121
 10
100.3681854638161
 20
926.9539504186571
 42
-0.4117647058823536
 10
117.3681854638161
 20
926.9539504186571
 42
0.4117647058823516
 10
134.3681854638161
 20
926.9539504186571
 42
0.4117647058823516
  0
LWPOLYLINE
  5
EA6E570C9
330
EA6E4DC92
100
AcDbEntity
  8
TENSEN
 48
2.0
100
AcDbPolyline
 90
        3
 70
     0
 43
0.0
 10
134.3681854638161
 20
890.3217925731121
 10
134.3681854638161
 20
926.9539504186571
 42
0.4117647058823536
 10
117.3681854638161
 20
926.9539504186571
 42
0.4117647058823536
  0
LINE
  5
EA6E570CA
330
EA6E4DC92
100
AcDbEntity
  8
TENSEN
 48
2.0
100
AcDbLine
 10
100.3681854638161
 20
893.3217925731121
 30
0.0
 11
134.3681854638161
 21
893.3217925731124
 31
0.0
  0
LWPOLYLINE
  5
EA6E570CB
330
EA6E4DC92
100
AcDbEntity
  8
JISSEN
100
AcDbPolyline
 90
        8
 70
     1
 43
0.0
 10
138.1181854638162
 20
848.3217925731123
 10
149.6181854638162
 20
848.3217925731123
 10
149.6181854638162
 20
872.3217925731123
 10
138.1181854638162
 20
872.3217925731123
 10
138.1181854638162
 20
890.3217925731123
 10
96.61818546381619
 20
890.3217925731123
 10
96.61818546381619
 20
830.3217925731123
 10
138.1181854638162
 20
830.3217925731123
  0
LWPOLYLINE
  5
EA6E570CC
330
EA6E4DC92
100
AcDbEntity
  8
TENSEN
 48
2.0
100
AcDbPolyline
 90
        3
 70
     0
 43
0.0
 10
100.3681854638161
 20
895.7052997583007
 10
102.3681854638161
 20
893.3217925731124
 10
102.3681854638161
 20
890.3217925731121
  0
INSERT
  5
EA6E570CD
330
EA6E4DC92
100
AcDbEntity
  8
SUNPOU
100
AcDbBlockReference
  2
ARROWANG
 10
138.1181854638162
 20
839.8244416330644
 30
0.0
 41
2.999999999999973
 42
3.0
 43
3.0
 50
137.3505508617194
1001
ACAD
1000
DSTYLE
1002
{
1070
   147
1040
1.0
1070
    77
1070
     0
1002
}
  0
CIRCLE
  5
EA6E570CE
330
EA6E4DC92
100
AcDbEntity
  8
JISSEN
 62
     3
100
AcDbCircle
 10
138.118185463816
 20
839.8244416330646
 30
0.0
 40
0.0000000000003216
  0
LWPOLYLINE
  5
EA6E570CF
330
EA6E4DC92
100
AcDbEntity
  8
TENSEN
 48
2.0
100
AcDbPolyline
 90
        3
 70
     0
 43
0.0
 10
134.3681854638161
 20
895.7052997583007
 10
132.3681854638161
 20
893.3217925731124
 10
132.3681854638161
 20
890.3217925731121
  0
LWPOLYLINE
  5
EA6E570D0
330
EA6E4DC92
100
AcDbEntity
  8
SAISEN
100
AcDbPolyline
 90
        3
 70
     0
 43
0.0
 10
149.6181854638162
 20
866.8217925731124
 10
153.6181854638162
 20
866.8217925731124
 10
155.6181854638161
 20
868.8217925731123
  0
LWPOLYLINE
  5
EA6E570D1
330
EA6E4DC92
100
AcDbEntity
  8
SAISEN
100
AcDbPolyline
 90
        3
 70
     0
 43
0.0
 10
149.6181854638162
 20
853.8217925731126
 10
153.6181854638162
 20
853.8217925731126
 10
155.6181854638161
 20
851.8217925731125
  0
LINE
  5
EA6E570D2
330
EA6E4DC92
100
AcDbEntity
  8
JISSEN
100
AcDbLine
 10
153.6181854638162
 20
868.8217925731125
 30
0.0
 11
153.6181854638162
 21
851.8217925731125
 31
0.0
  0
TEXT
  5
EA6E570D3
330
EA6E4DC92
100
AcDbEntity
  8
TEXT
100
AcDbText
 10
80.91193991355574
 20
1079.865816126707
 30
0.0
 40
6.0
  1
C3604
  7
K
 72
     4
 11
94.62622562784146
 21
1082.865816126707
 31
0.0
100
AcDbText
  0
LINE
  5
EA6E570D4
330
EA6E4DC92
100
AcDbEntity
  8
JISSEN
100
AcDbLine
 10
116.1262256278414
 20
1040.865816126707
 30
0.0
 11
116.1262256278414
 21
1100.865816126707
 31
0.0
  0
LINE
  5
EA6E570D5
330
EA6E4DC92
100
AcDbEntity
  8
JISSEN
100
AcDbLine
 10
73.12622562784145
 20
1100.865816126707
 30
0.0
 11
73.12622562784145
 21
1040.865816126707
 31
0.0
  0
TEXT
  5
EA6E570D6
330
EA6E4DC92
100
AcDbEntity
  8
TEXT
100
AcDbText
 10
83.62622562784144
 20
1043.865816126707
 30
0.0
 40
6.0
  1
FCMB
  7
K
 72
     4
 11
94.62622562784146
 21
1046.865816126707
 31
0.0
100
AcDbText
  0
TEXT
  5
EA6E570D7
330
EA6E4DC92
100
AcDbEntity
  8
TEXT
100
AcDbText
 10
83.62622562784144
 20
1055.865816126707
 30
0.0
 40
6.0
  1
FCMB
  7
K
 72
     4
 11
94.62622562784146
 21
1058.865816126707
 31
0.0
100
AcDbText
  0
TEXT
  5
EA6E570D8
330
EA6E4DC92
100
AcDbEntity
  8
TEXT
100
AcDbText
 10
82.34051134212718
 20
1067.865816126707
 30
0.0
 40
6.0
  1
C3771
  7
K
 72
     4
 11
94.62622562784146
 21
1070.865816126707
 31
0.0
100
AcDbText
  0
TEXT
  5
EA6E570D9
330
EA6E4DC92
100
AcDbEntity
  8
TEXT
100
AcDbText
 10
81.02622562784146
 20
1091.865816126707
 30
0.0
 40
6.0
  1
材    質
  7
K
 72
     4
 11
94.62622562784146
 21
1094.865816126707
 31
0.0
100
AcDbText
  0
TEXT
  5
EA6E570DA
330
EA6E4DC92
100
AcDbEntity
  8
TEXT
100
AcDbText
 10
147.1262256278414
 20
1079.865816126707
 30
0.0
 40
6.0
  1
25A
  7
K
 72
     4
 11
155.1262256278414
 21
1082.865816126707
 31
0.0
100
AcDbText
  0
TEXT
  5
EA6E570DB
330
EA6E4DC92
100
AcDbEntity
  8
TEXT
100
AcDbText
 10
126.4119399135557
 20
1079.865816126707
 30
0.0
 40
6.0
  1
1
  7
K
 72
     4
 11
127.1262256278414
 21
1082.865816126707
 31
0.0
100
AcDbText
  0
LINE
  5
EA6E570DC
330
EA6E4DC92
100
AcDbEntity
  8
JISSEN
100
AcDbLine
 10
138.1262256278414
 20
1100.865816126707
 30
0.0
 11
138.1262256278414
 21
1040.865816126707
 31
0.0
  0
LINE
  5
EA6E570DD
330
EA6E4DC92
100
AcDbEntity
  8
JISSEN
100
AcDbLine
 10
172.1262256278414
 20
1040.865816126707
 30
0.0
 11
172.1262256278414
 21
1100.865816126707
 31
0.0
  0
TEXT
  5
EA6E570DE
330
EA6E4DC92
100
AcDbEntity
  8
TEXT
100
AcDbText
 10
138.9571012674568
 20
1043.865816126707
 30
0.0
 40
6.0
  1
25A×10A
 41
0.8045977011494251
  7
K
 72
     5
 11
170.9571012674568
 21
1043.865816126707
 31
0.0
100
AcDbText
  0
TEXT
  5
EA6E570DF
330
EA6E4DC92
100
AcDbEntity
  8
TEXT
100
AcDbText
 10
126.4119399135557
 20
1043.865816126707
 30
0.0
 40
6.0
  1
1
  7
K
 72
     4
 11
127.1262256278414
 21
1046.865816126707
 31
0.0
100
AcDbText
  0
TEXT
  5
EA6E570E0
330
EA6E4DC92
100
AcDbEntity
  8
TEXT
100
AcDbText
 10
126.4119399135557
 20
1055.865816126707
 30
0.0
 40
6.0
  1
1
  7
K
 72
     4
 11
127.1262256278414
 21
1058.865816126707
 31
0.0
100
AcDbText
  0
TEXT
  5
EA6E570E1
330
EA6E4DC92
100
AcDbEntity
  8
TEXT
100
AcDbText
 10
126.4119399135557
 20
1067.865816126707
 30
0.0
 40
6.0
  1
1
  7
K
 72
     4
 11
127.1262256278414
 21
1070.865816126707
 31
0.0
100
AcDbText
  0
TEXT
  5
EA6E570E2
330
EA6E4DC92
100
AcDbEntity
  8
TEXT
100
AcDbText
 10
147.1262256278414
 20
1055.865816126707
 30
0.0
 40
6.0
  1
25A
  7
K
 72
     4
 11
155.1262256278414
 21
1058.865816126707
 31
0.0
100
AcDbText
  0
TEXT
  5
EA6E570E3
330
EA6E4DC92
100
AcDbEntity
  8
TEXT
100
AcDbText
 10
147.1262256278414
 20
1067.865816126707
 30
0.0
 40
6.0
  1
25A
  7
K
 72
     4
 11
155.1262256278414
 21
1070.865816126707
 31
0.0
100
AcDbText
  0
TEXT
  5
EA6E570E4
330
EA6E4DC92
100
AcDbEntity
  8
TEXT
100
AcDbText
 10
141.5262256278414
 20
1091.865816126707
 30
0.0
 40
6.0
  1
備    考
  7
K
 72
     4
 11
155.1262256278414
 21
1094.865816126707
 31
0.0
100
AcDbText
  0
TEXT
  5
EA6E570E5
330
EA6E4DC92
100
AcDbEntity
  8
TEXT
100
AcDbText
 10
120.7262256278414
 20
1091.865816126707
 30
0.0
 40
6.0
  1
個数
  7
K
 72
     4
 11
127.1262256278414
 21
1094.865816126707
 31
0.0
100
AcDbText
  0
LWPOLYLINE
  5
EA6E570E6
330
EA6E4DC92
100
AcDbEntity
  8
SUNPOU
100
AcDbPolyline
 90
        2
 70
     0
 43
0.0
 10
245.8174468586078
 20
908.2664431014286
 10
318.1493903698601
 20
725.4130846392322
1001
ACAD
1000
DSTYLE
1002
{
1070
   147
1040
1.0
1070
    77
1070
     0
1002
}
  0
LINE
  5
EA6E570E7
330
EA6E4DC92
100
AcDbEntity
  8
JISSEN
 62
     3
100
AcDbLine
 10
301.0787137890894
 20
724.9886530842277
 30
0.0
 11
230.3681854638162
 21
849.3217925731119
 31
0.0
  0
LINE
  5
EA6E570E8
330
EA6E4DC92
100
AcDbEntity
  8
JISSEN
 62
     3
100
AcDbLine
 10
181.2299909074918
 20
851.8217925731123
 30
0.0
 11
282.6072176412236
 21
724.3819699222626
 31
0.0
  0
TEXT
  5
EA6E570E9
330
EA6E4DC92
100
AcDbEntity
  8
TEXT
100
AcDbText
 10
284.8795322146229
 20
715.7454684547208
 30
0.0
 40
6.0
  1
5
  7
K
100
AcDbText
  0
CIRCLE
  5
EA6E570EA
330
EA6E4DC92
100
AcDbEntity
  8
SUNPOU
100
AcDbCircle
 10
286.9650047736661
 20
718.9038597272849
 30
0.0
 40
7.0
  0
TEXT
  5
EA6E570EB
330
EA6E4DC92
100
AcDbEntity
  8
SUNPOU
100
AcDbText
 10
258.7639229097026
 20
559.1823408985773
 30
0.0
 40
6.0
  1
A4 用紙、印刷尺度 1/2
100
AcDbText
  0
TEXT
  5
EA6E570EC
330
EA6E4DC92
100
AcDbEntity
  8
SUNPOU
100
AcDbText
 10
258.7639229097026
 20
569.1823408985774
 30
0.0
 40
6.0
  1
試験装置 SR30
100
AcDbText
  0
LINE
  5
EA6E570ED
330
EA6E4DC92
100
AcDbEntity
  8
JISSEN
100
AcDbLine
 10
178.6181854638162
 20
733.9996017151634
 30
0.0
 11
178.6181854638162
 21
647.3833584449039
 31
0.0
  0
CIRCLE
  5
EA6E570EE
330
EA6E4DC92
100
AcDbEntity
  8
SUNPOU
100
AcDbCircle
 10
235.4741661527721
 20
718.9038597272849
 30
0.0
 40
7.0
  0
CIRCLE
  5
EA6E570EF
330
EA6E4DC92
100
AcDbEntity
  8
SUNPOU
100
AcDbCircle
 10
205.8239130262046
 20
718.9038597272849
 30
0.0
 40
7.0
  0
ARC
  5
EA6E570F0
330
EA6E4DC92
100
AcDbEntity
  8
JISSEN
100
AcDbCircle
 10
172.1181854638161
 20
733.9996017151634
 30
0.0
 40
6.5
100
AcDbArc
 50
0.0
 51
59.99999999999694
  0
TEXT
  5
EA6E570F1
330
EA6E4DC92
100
AcDbEntity
  8
SUNPOU
100
AcDbText
 10
204.2748678511414
 20
715.8523827083415
 30
0.0
 40
6.0
  1
1
  7
K
 72
     4
 11
204.9891535654271
 21
718.8523827083415
 31
0.0
100
AcDbText
  0
CIRCLE
  5
EA6E570F2
330
EA6E4DC92
100
AcDbEntity
  8
SUNPOU
100
AcDbCircle
 10
252.4324643717629
 20
718.9038597272849
 30
0.0
 40
7.0
  0
TEXT
  5
EA6E570F3
330
EA6E4DC92
100
AcDbEntity
  8
TEXT
100
AcDbText
 10
233.2494490065752
 20
716.0933900807966
 30
0.0
 40
6.0
  1
2
  7
K
100
AcDbText
  0
TEXT
  5
EA6E570F4
330
EA6E4DC92
100
AcDbEntity
  8
TEXT
100
AcDbText
 10
250.4343482544985
 20
715.4323389912526
 30
0.0
 40
6.0
  1
3
  7
K
100
AcDbText
  0
CIRCLE
  5
EA6E570F5
330
EA6E4DC92
100
AcDbEntity
  8
SUNPOU
100
AcDbCircle
 10
269.3907625907538
 20
718.9038597272849
 30
0.0
 40
7.0
  0
TEXT
  5
EA6E570F6
330
EA6E4DC92
100
AcDbEntity
  8
TEXT
100
AcDbText
 10
266.8795358713304
 20
715.8672410238473
 30
0.0
 40
6.0
  1
4
  7
K
100
AcDbText
  0
CIRCLE
  5
EA6E570F7
330
EA6E4DC92
100
AcDbEntity
  8
SUNPOU
100
AcDbCircle
 10
320.7242672689921
 20
718.9038597272849
 30
0.0
 40
7.0
  0
CIRCLE
  5
EA6E570F8
330
EA6E4DC92
100
AcDbEntity
  8
SUNPOU
100
AcDbCircle
 10
304.5392469565801
 20
718.9038597272849
 30
0.0
 40
7.0
  0
TEXT
  5
EA6E570F9
330
EA6E4DC92
100
AcDbEntity
  8
TEXT
100
AcDbText
 10
302.6234745317702
 20
715.884637105151
 30
0.0
 40
6.0
  1
7
  7
K
100
AcDbText
  0
TEXT
  5
EA6E570FA
330
EA6E4DC92
100
AcDbEntity
  8
TEXT
100
AcDbText
 10
318.7221409522681
 20
715.3975468286451
 30
0.0
 40
6.0
  1
6
  7
K
100
AcDbText
  0
LINE
  5
EA6E570FB
330
EA6E4DC92
100
AcDbEntity
  8
TEXT
100
AcDbLine
 10
289.3423792327332
 20
1070.958092579256
 30
0.0
 11
266.342379232733
 21
1070.958092579256
 31
0.0
  0
TEXT
  5
EA6E570FC
330
EA6E4DC92
100
AcDbEntity
  8
TEXT
100
AcDbText
 10
265.5566649470189
 20
1055.958092579256
 30
0.0
 40
6.0
  1
C3771
  7
K
 72
     4
 11
277.8423792327332
 21
1058.958092579256
 31
0.0
100
AcDbText
  0
TEXT
  5
EA6E570FD
330
EA6E4DC92
100
AcDbEntity
  8
TEXT
100
AcDbText
 10
264.0262241798414
 20
1091.865816126707
 30
0.0
 40
6.0
  1
材    質
  7
K
 72
     4
 11
277.6262241798415
 21
1094.865816126707
 31
0.0
100
AcDbText
  0
ARC
  5
EA6E570FE
330
EA6E4DC92
100
AcDbEntity
  8
JISSEN
100
AcDbCircle
 10
230.3681854638164
 20
857.5475458533681
 30
0.0
 40
19.62990915244717
100
AcDbArc
 50
80.16177301475174
 51
90.0
  0
LINE
  5
EA6E570FF
330
EA6E4DC92
100
AcDbEntity
  8
JISSEN
100
AcDbLine
 10
241.1181854638164
 20
877.3217925731124
 30
0.0
 11
219.6181854638164
 21
877.3217925731124
 31
0.0
  0
LINE
  5
EA6E57100
330
EA6E4DC92
100
AcDbEntity
  8
JISSEN
100
AcDbLine
 10
240.8181854638162
 20
886.3217925731124
 30
0.0
 11
230.3681854638164
 21
886.3217925731124
 31
0.0
  0
ARC
  5
EA6E57101
330
EA6E4DC92
100
AcDbEntity
  8
JISSEN
100
AcDbCircle
 10
230.3681854638164
 20
893.0960392928529
 30
0.0
 40
19.62990915244282
100
AcDbArc
 50
270.0
 51
279.8382269852482
  0
ARC
  5
EA6E57102
330
EA6E4DC92
100
AcDbEntity
  8
JISSEN
100
AcDbCircle
 10
230.3681854638159
 20
856.109537672895
 30
0.0
 40
17.2122549002172
100
AcDbArc
 50
71.74751347163665
 51
108.2524865283633
  0
LINE
  5
EA6E57103
330
EA6E4DC92
100
AcDbEntity
  8
JISSEN
100
AcDbLine
 10
241.1181854638164
 20
873.3217925731123
 30
0.0
 11
230.3681854638164
 21
873.3217925731125
 31
0.0
  0
LWPOLYLINE
  5
EA6E57104
330
EA6E4DC92
100
AcDbEntity
  8
JISSEN
100
AcDbPolyline
 90
        9
 70
     0
 43
0.0
 10
232.9961080203732
 20
860.3225745557161
 42
0.0754446162298053
 10
232.8805270882091
 20
861.0842131188203
 42
0.0857828071076088
 10
232.5717561605577
 20
861.6885425759621
 42
0.1060700219635837
 10
232.0431938464314
 20
862.1483493683545
 42
0.1480812953266344
 10
231.5472801453732
 20
862.2543450557159
 42
0.1268223572478397
 10
231.0156772158914
 20
862.1173026039414
 42
0.1060700219635834
 10
230.5228041301886
 20
861.6885425759621
 42
0.085782807107608
 10
230.2140332025371
 20
861.0842131188203
 42
0.0754446162298056
 10
230.0984522703731
 20
860.3225745557161
 42
0.0754446162298049
  0
LWPOLYLINE
  5
EA6E57105
330
EA6E4DC92
100
AcDbEntity
  8
JISSEN
100
AcDbPolyline
 90
       16
 70
     1
 43
0.0
 10
227.727643020373
 20
860.3225745557161
 42
0.0689212726861089
 10
227.9402081075415
 20
858.7878134825986
 42
0.0809685170767006
 10
228.4991918564012
 20
857.5906385152238
 42
0.1070187297923515
 10
229.4736271284393
 20
856.6660574795044
 42
0.1598118359516122
 10
230.3618755203731
 20
856.4590335557161
 42
0.1373351888463599
 10
231.3123790448382
 20
856.7251275035136
 42
0.1070187297923511
 10
232.2245591843454
 20
857.5906385152238
 42
0.0809685170767004
 10
232.7835429332046
 20
858.7878134825986
 42
0.068921272686109
 10
232.9961080203732
 20
860.3225745557161
 42
0.0689212726861093
 10
232.7835429332046
 20
861.8573356288335
 42
0.0809685170767009
 10
232.2245591843454
 20
863.0545105962083
 42
0.1070187297923514
 10
231.3123790448382
 20
863.9200216079185
 42
0.1373351888463605
 10
230.3618755203731
 20
864.1861155557162
 42
0.1373351888463604
 10
229.4113719959079
 20
863.9200216079185
 42
0.1070187297923513
 10
228.4991918564012
 20
863.0545105962083
 42
0.0809685170767004
 10
227.9402081075415
 20
861.8573356288335
 42
0.0689212726861086
  0
INSERT
  5
EA6E57106
330
EA6E4DC92
100
AcDbEntity
  8
JISSEN
100
AcDbBlockReference
  2
*X4
 10
227.2007965203731
 20
864.8885775557161
 30
0.0
 41
0.3512309999999843
 42
0.3512309999999843
 43
0.3512309999999999
 50
270.0
  0
LWPOLYLINE
  5
EA6E57107
330
EA6E4DC92
100
AcDbEntity
  8
JISSEN
100
AcDbPolyline
 90
       16
 70
     1
 43
0.0
 10
227.3764120203734
 20
860.3225745557161
 42
0.0714693076283245
 10
227.6162692289651
 20
858.6531023094776
 42
0.0829154742493596
 10
228.2508340345382
 20
857.3422806933608
 42
0.1067406714191292
 10
229.348933183958
 20
856.33594025233
 42
0.1550349022404454
 10
230.3618755203731
 20
856.107802555716
 42
0.1330639172301401
 10
231.4465336551095
 20
856.4016633777415
 42
0.1067406714191296
 10
232.472917006208
 20
857.3422806933608
 42
0.0829154742493594
 10
233.1074818117815
 20
858.6531023094776
 42
0.0714693076283241
 10
233.3473390203733
 20
860.3225745557161
 42
0.0714693076283252
 10
233.1074818117815
 20
861.9920468019547
 42
0.0829154742493602
 10
232.472917006208
 20
863.3028684180713
 42
0.1067406714191293
 10
231.4465336551095
 20
864.2434857336908
 42
0.1330639172301401
 10
230.3618755203731
 20
864.5373465557161
 42
0.1330639172301399
 10
229.2772173856371
 20
864.2434857336908
 42
0.1067406714191293
 10
228.2508340345382
 20
863.3028684180713
 42
0.0829154742493597
 10
227.6162692289651
 20
861.9920468019547
 42
0.0714693076283244
  0
ARC
  5
EA6E57108
330
EA6E4DC92
100
AcDbEntity
  8
JISSEN
100
AcDbCircle
 10
230.3681854638159
 20
866.5340474733293
 30
0.0
 40
17.2122549002172
100
AcDbArc
 50
251.7475134716366
 51
288.2524865283633
  0
LINE
  5
EA6E57109
330
EA6E4DC92
100
AcDbEntity
  8
JISSEN
  6
Continuous
100
AcDbLine
 10
219.6181854638159
 20
849.3217925731123
 30
0.0
 11
241.1181854638159
 21
849.3217925731119
 31
0.0
  0
LWPOLYLINE
  5
EA6E5710A
330
EA6E4DC92
100
AcDbEntity
  8
JISSEN
100
AcDbPolyline
 90
       13
 70
     0
 43
0.0
 10
231.7651143073942
 20
858.9572550034162
 42
0.0508792192586602
 10
231.8776056042358
 20
859.0131796423261
 42
0.1071591475341562
 10
232.1992194277634
 20
859.3291432682645
 42
0.0789991877022394
 10
232.3945574678084
 20
859.7629593959059
 42
0.0664511817867662
 10
232.4692615203732
 20
860.3225745557161
 42
0.0664511817867667
 10
232.3945574678084
 20
860.8821897155262
 42
0.0789991877022392
 10
232.1992194277634
 20
861.3160058431679
 42
0.1071591475341592
 10
231.8776056042358
 20
861.631969469106
 42
0.141695250338409
 10
231.5472801453732
 20
861.7274985557163
 42
0.1416952503384097
 10
231.2169546865104
 20
861.631969469106
 42
0.1071591475341602
 10
230.8953408629829
 20
861.3160058431679
 42
0.0789991877022377
 10
230.7000028229379
 20
860.8821897155262
 42
0.0664511817867672
 10
230.625298770373
 20
860.3225745557161
 42
0.0664511817867678
  0
ARC
  5
EA6E5710B
330
EA6E4DC92
100
AcDbEntity
  8
JISSEN
100
AcDbCircle
 10
230.3681854638159
 20
914.3842925731123
 30
0.0
 40
19.06249999999997
100
AcDbArc
 50
243.5189601696196
 51
296.4810398303663
  0
LINE
  5
EA6E5710C
330
EA6E4DC92
100
AcDbEntity
  8
JISSEN
100
AcDbLine
 10
221.8681854638159
 20
895.3217925731124
 30
0.0
 11
238.8681854638159
 21
895.3217925731124
 31
0.0
  0
LINE
  5
EA6E5710D
330
EA6E4DC92
100
AcDbEntity
  8
JISSEN
100
AcDbLine
 10
222.897597228522
 20
886.3217925731126
 30
0.0
 11
237.8387736991101
 21
886.3217925731124
 31
0.0
  0
LINE
  5
EA6E5710E
330
EA6E4DC92
100
AcDbEntity
  8
JISSEN
100
AcDbLine
 10
223.4875611324
 20
893.3217925731124
 30
0.0
 11
237.2488097952321
 21
893.3217925731124
 31
0.0
  0
CIRCLE
  5
EA6E5710F
330
EA6E4DC92
100
AcDbEntity
  8
JISSEN
100
AcDbCircle
 10
230.3681854638159
 20
947.3217925731123
 30
0.0
 40
2.5
  0
CIRCLE
  5
EA6E57110
330
EA6E4DC92
100
AcDbEntity
  8
JISSEN
100
AcDbCircle
 10
230.3681854638159
 20
947.3217925731123
 30
0.0
 40
3.5
  0
CIRCLE
  5
EA6E57111
330
EA6E4DC92
100
AcDbEntity
  8
JISSEN
100
AcDbCircle
 10
230.3681854638159
 20
947.3217925731123
 30
0.0
 40
42.0
  0
CIRCLE
  5
EA6E57112
330
EA6E4DC92
100
AcDbEntity
  8
JISSEN
  6
Continuous
100
AcDbCircle
 10
230.3681854638159
 20
947.3217925731123
 30
0.0
 40
37.5
  0
CIRCLE
  5
EA6E57113
330
EA6E4DC92
100
AcDbEntity
  8
JISSEN
100
AcDbCircle
 10
230.3681854638159
 20
947.3217925731123
 30
0.0
 40
35.0
  0
ARC
  5
EA6E57114
330
EA6E4DC92
100
AcDbEntity
  8
JISSEN
100
AcDbCircle
 10
230.3681854638173
 20
947.3217925731217
 30
0.0
 40
28.00000000000125
100
AcDbArc
 50
314.7826520576676
 51
180.0000000000195
  0
ARC
  5
EA6E57115
330
EA6E4DC92
100
AcDbEntity
  8
JISSEN
100
AcDbCircle
 10
230.368185463816
 20
947.3217925731123
 30
0.0
 40
25.00000000000005
100
AcDbArc
 50
314.6844194460195
 51
90.0
  0
INSERT
  5
EA6E57116
330
EA6E4DC92
100
AcDbEntity
  8
SUNPOU
100
AcDbBlockReference
  2
ARROWANG
 10
230.368185463816
 20
849.3217925731121
 30
0.0
 41
2.999999999999974
 42
3.0
 43
3.0
 50
119.6276808527507
1001
ACAD
1000
DSTYLE
1002
{
1070
   147
1040
1.0
1070
    77
1070
     0
1002
}
  0
LWPOLYLINE
  5
EA6E57117
330
EA6E4DC92
100
AcDbEntity
  8
SAISEN
100
AcDbPolyline
 90
        3
 70
     0
 43
0.0
 10
199.3681854638161
 20
868.8217925731123
 10
201.3681854638162
 20
866.8217925731124
 10
205.3681854638159
 20
866.8217925731124
  0
LWPOLYLINE
  5
EA6E57118
330
EA6E4DC92
100
AcDbEntity
  8
SAISEN
100
AcDbPolyline
 90
        3
 70
     0
 43
0.0
 10
199.3681854638161
 20
851.8217925731125
 10
201.3681854638162
 20
853.8217925731126
 10
205.3681854638162
 20
853.8217925731126
  0
INSERT
  5
EA6E57119
330
EA6E4DC92
100
AcDbEntity
  8
SUNPOU
100
AcDbBlockReference
  2
ARROWANG
 10
181.2299909074917
 20
851.8217925731125
 30
0.0
 41
2.999999999999957
 42
3.0
 43
3.0
 50
128.5019315077521
1001
ACAD
1000
DSTYLE
1002
{
1070
   147
1040
1.0
1070
    77
1070
     0
1002
}
  0
LINE
  5
EA6E5711A
330
EA6E4DC92
100
AcDbEntity
  8
JISSEN
100
AcDbLine
 10
201.3681854638162
 20
868.8217925731125
 30
0.0
 11
201.3681854638162
 21
851.8217925731125
 31
0.0
  0
ARC
  5
EA6E5711B
330
EA6E4DC92
100
AcDbEntity
  8
JISSEN
100
AcDbCircle
 10
213.2216295306068
 20
860.3217925731124
 30
0.0
 40
11.75559126999714
100
AcDbArc
 50
30.62571585058855
 51
58.7504105884355
  0
LINE
  5
EA6E5711C
330
EA6E4DC92
100
AcDbEntity
  8
JISSEN
100
AcDbLine
 10
224.977220800604
 20
872.4557671693277
 30
0.0
 11
224.977220800604
 21
866.3217925731123
 31
0.0
  0
LINE
  5
EA6E5711D
330
EA6E4DC92
100
AcDbEntity
  8
JISSEN
100
AcDbLine
 10
205.8681854638159
 20
871.0717925731124
 30
0.0
 11
205.8681854638159
 21
860.3217925731124
 31
0.0
  0
LINE
  5
EA6E5711E
330
EA6E4DC92
100
AcDbEntity
  8
JISSEN
100
AcDbLine
 10
205.3681854638159
 20
870.5717925731123
 30
0.0
 11
205.3681854638159
 21
860.3217925731124
 31
0.0
  0
LINE
  5
EA6E5711F
330
EA6E4DC92
100
AcDbEntity
  8
JISSEN
100
AcDbLine
 10
223.5373883537933
 20
872.4557671693277
 30
0.0
 11
223.5373883537933
 21
867.525464834928
 31
0.0
  0
LINE
  5
EA6E57120
330
EA6E4DC92
100
AcDbEntity
  8
JISSEN
  6
Continuous
100
AcDbLine
 10
205.8681854638159
 20
849.5717925731124
 30
0.0
 11
219.1851727619239
 21
849.5717925731124
 31
0.0
  0
LINE
  5
EA6E57121
330
EA6E4DC92
100
AcDbEntity
  8
JISSEN
100
AcDbLine
 10
205.8681854638159
 20
849.5717925731124
 30
0.0
 11
205.8681854638159
 21
860.3217925731124
 31
0.0
  0
LINE
  5
EA6E57122
330
EA6E4DC92
100
AcDbEntity
  8
JISSEN
100
AcDbLine
 10
205.3681854638159
 20
850.0717925731123
 30
0.0
 11
205.3681854638159
 21
860.3217925731124
 31
0.0
  0
LINE
  5
EA6E57123
330
EA6E4DC92
100
AcDbEntity
  8
JISSEN
100
AcDbLine
 10
205.3681854638159
 20
850.0717925731123
 30
0.0
 11
205.8681854638159
 21
849.5717925731124
 31
0.0
  0
ARC
  5
EA6E57124
330
EA6E4DC92
100
AcDbEntity
  8
JISSEN
100
AcDbCircle
 10
220.8277869088049
 20
853.9935612105907
 30
0.0
 40
4.671789972964431
100
AcDbArc
 50
241.7631501484912
 51
305.4499895236038
  0
LINE
  5
EA6E57125
330
EA6E4DC92
100
AcDbEntity
  8
JISSEN
100
AcDbLine
 10
223.5373883537933
 20
850.1878179768969
 30
0.0
 11
224.977220800604
 21
850.1878179768969
 31
0.0
  0
LINE
  5
EA6E57126
330
EA6E4DC92
100
AcDbEntity
  8
JISSEN
  6
Continuous
100
AcDbLine
 10
219.3681854638159
 20
855.3217925731123
 30
0.0
 11
223.977220800604
 21
855.3217925731123
 31
0.0
  0
LINE
  5
EA6E57127
330
EA6E4DC92
100
AcDbEntity
  8
JISSEN
  6
Continuous
100
AcDbLine
 10
219.3681854638159
 20
865.3217925731123
 30
0.0
 11
223.977220800604
 21
865.3217925731123
 31
0.0
  0
LINE
  5
EA6E57128
330
EA6E4DC92
100
AcDbEntity
  8
JISSEN
  6
Continuous
100
AcDbLine
 10
218.3681854638159
 20
860.3217925731124
 30
0.0
 11
218.3681854638159
 21
856.3217925731123
 31
0.0
  0
ARC
  5
EA6E57129
330
EA6E4DC92
100
AcDbEntity
  8
JISSEN
100
AcDbCircle
 10
213.2216295306068
 20
860.3217925731124
 30
0.0
 40
11.75559126999714
100
AcDbArc
 50
300.4302842044945
 51
328.3121121663199
  0
LINE
  5
EA6E5712A
330
EA6E4DC92
100
AcDbEntity
  8
JISSEN
100
AcDbLine
 10
219.6181854638159
 20
849.3217925731123
 30
0.0
 11
219.1851727619239
 21
849.5717925731124
 31
0.0
  0
ARC
  5
EA6E5712B
330
EA6E4DC92
100
AcDbEntity
  8
JISSEN
  6
Continuous
100
AcDbCircle
 10
219.3681854638159
 20
856.3217925731121
 30
0.0
 40
1.0
100
AcDbArc
 50
180.0
 51
270.0
  0
LINE
  5
EA6E5712C
330
EA6E4DC92
100
AcDbEntity
  8
JISSEN
100
AcDbLine
 10
223.5373883537933
 20
853.5599256239741
 30
0.0
 11
223.5373883537933
 21
850.1878179768969
 31
0.0
  0
LINE
  5
EA6E5712D
330
EA6E4DC92
100
AcDbEntity
  8
JISSEN
  6
Continuous
100
AcDbLine
 10
218.3681854638159
 20
860.3217925731124
 30
0.0
 11
218.3681854638159
 21
864.3217925731123
 31
0.0
  0
ARC
  5
EA6E5712E
330
EA6E4DC92
100
AcDbEntity
  8
JISSEN
  6
Continuous
100
AcDbCircle
 10
219.3681854638159
 20
864.3217925731123
 30
0.0
 40
1.0
100
AcDbArc
 50
90.0
 51
180.0
  0
LWPOLYLINE
  5
EA6E5712F
330
EA6E4DC92
100
AcDbEntity
  8
JISSEN
100
AcDbPolyline
 90
       13
 70
     0
 43
0.0
 10
228.9611994083022
 20
862.2330669563796
 42
0.0770392472783632
 10
228.6448679658913
 20
862.1173026039414
 42
0.1060700219635834
 10
228.1519948801885
 20
861.6885425759621
 42
0.085782807107608
 10
227.8432239525375
 20
861.0842131188203
 42
0.0754446162298052
 10
227.727643020373
 20
860.3225745557161
 42
0.0754446162298049
 10
227.8432239525375
 20
859.5609359926118
 42
0.085782807107608
 10
228.1519948801885
 20
858.95660653547
 42
0.1060700219635838
 10
228.6448679658913
 20
858.5278465074908
 42
0.1268223572478406
 10
229.176470895373
 20
858.3908040557162
 42
0.1268223572478391
 10
229.7080738248548
 20
858.5278465074908
 42
0.1060700219635831
 10
230.200946910558
 20
858.95660653547
 42
0.085782807107608
 10
230.509717838209
 20
859.5609359926118
 42
0.075444616229805
 10
230.625298770373
 20
860.3225745557161
 42
0.0754446162298053
  0
LWPOLYLINE
  5
EA6E57130
330
EA6E4DC92
100
AcDbEntity
  8
JISSEN
100
AcDbPolyline
 90
        9
 70
     0
 43
0.0
 10
228.2544895203734
 20
860.3225745557161
 42
0.0664511817867678
 10
228.3291935729378
 20
859.7629593959059
 42
0.078999187702239
 10
228.5245316129828
 20
859.3291432682645
 42
0.107159147534158
 10
228.8675903505852
 20
858.992111478232
 42
0.1647051743017312
 10
229.176470895373
 20
858.9176505557158
 42
0.1416952503384066
 10
229.5067963542357
 20
859.0131796423261
 42
0.1071591475341562
 10
229.8284101777633
 20
859.3291432682645
 42
0.0789991877022394
 10
230.0237482178088
 20
859.7629593959059
 42
0.0664511817867652
 10
230.0984522703731
 20
860.3225745557161
 42
0.0664511817867667
  0
ARC
  5
EA6E57131
330
EA6E4DC92
100
AcDbEntity
  8
JISSEN
100
AcDbCircle
 10
223.9772208006036
 20
854.3217925731122
 30
0.0
 40
1.0
100
AcDbArc
 50
0.0
 51
90.0
  0
LINE
  5
EA6E57132
330
EA6E4DC92
100
AcDbEntity
  8
JISSEN
100
AcDbLine
 10
224.977220800604
 20
854.3217925731124
 30
0.0
 11
224.9772208006036
 21
850.1878179768969
 31
0.0
  0
ARC
  5
EA6E57133
330
EA6E4DC92
100
AcDbEntity
  8
JISSEN
100
AcDbCircle
 10
223.977220800604
 20
866.3217925731121
 30
0.0
 40
1.0
100
AcDbArc
 50
270.0
 51
0.0
  0
LINE
  5
EA6E57134
330
EA6E4DC92
100
AcDbEntity
  8
JISSEN
100
AcDbLine
 10
228.9586367333524
 20
861.3366631080159
 30
0.0
 11
229.3098677333525
 21
861.3366631080159
 31
0.0
  0
LWPOLYLINE
  5
EA6E57135
330
EA6E4DC92
100
AcDbEntity
  8
JISSEN
100
AcDbPolyline
 90
        5
 70
     0
 43
0.0
 10
228.9586367333524
 20
861.6878941080157
 42
0.0508792192586596
 10
228.8461454365108
 20
861.631969469106
 42
0.1071591475341602
 10
228.5245316129828
 20
861.3160058431679
 42
0.0789991877022377
 10
228.3291935729378
 20
860.8821897155262
 42
0.0664511817867672
 10
228.2544895203734
 20
860.3225745557161
 42
0.0664511817867678
  0
LINE
  5
EA6E57136
330
EA6E4DC92
100
AcDbEntity
  8
JISSEN
100
AcDbLine
 10
228.9586367333524
 20
861.6878941080157
 30
0.0
 11
228.9586367333524
 21
861.3366631080159
 31
0.0
  0
LINE
  5
EA6E57137
330
EA6E4DC92
100
AcDbEntity
  8
JISSEN
100
AcDbLine
 10
229.3098677333525
 20
862.5659716080159
 30
0.0
 11
228.9586367333524
 21
862.5659716080159
 31
0.0
  0
LINE
  5
EA6E57138
330
EA6E4DC92
100
AcDbEntity
  8
JISSEN
100
AcDbLine
 10
228.9586367333524
 20
862.5659716080159
 30
0.0
 11
228.9611994083027
 21
862.2330669563798
 31
0.0
  0
LINE
  5
EA6E57139
330
EA6E4DC92
100
AcDbEntity
  8
JISSEN
100
AcDbLine
 10
229.3098677333525
 20
861.3366631080159
 30
0.0
 11
229.3098677333525
 21
862.5659716080159
 31
0.0
  0
LWPOLYLINE
  5
EA6E5713A
330
EA6E4DC92
100
AcDbEntity
  8
JISSEN
100
AcDbPolyline
 90
        2
 70
     0
 43
0.0
 10
230.625298770373
 20
860.3225745557161
 42
0.003443646303572
 10
230.6250552213689
 20
860.3579362181418
 42
0.0857828071076088
  0
LINE
  5
EA6E5713B
330
EA6E4DC92
100
AcDbEntity
  8
JISSEN
  6
Continuous
100
AcDbLine
 10
205.8681854638159
 20
871.0717925731124
 30
0.0
 11
218.1181854638159
 21
871.0717925731124
 31
0.0
  0
LINE
  5
EA6E5713C
330
EA6E4DC92
100
AcDbEntity
  8
JISSEN
100
AcDbLine
 10
205.3681854638159
 20
870.5717925731123
 30
0.0
 11
205.8681854638159
 21
871.0717925731124
 31
0.0
  0
LINE
  5
EA6E5713D
330
EA6E4DC92
100
AcDbEntity
  8
JISSEN
100
AcDbLine
 10
222.3681854638159
 20
895.3217925731124
 30
0.0
 11
222.8975972285218
 21
886.3217925731124
 31
0.0
  0
LINE
  5
EA6E5713E
330
EA6E4DC92
100
AcDbEntity
  8
HATCH
100
AcDbLine
 10
223.4875611324
 20
893.3217925731124
 30
0.0
 11
223.8993258382822
 21
886.3217925731124
 31
0.0
  0
LINE
  5
EA6E5713F
330
EA6E4DC92
100
AcDbEntity
  8
JISSEN
100
AcDbLine
 10
222.5189570053123
 20
876.8887798712203
 30
0.0
 11
227.0140834975666
 21
876.8887798712203
 31
0.0
  0
LINE
  5
EA6E57140
330
EA6E4DC92
100
AcDbEntity
  8
JISSEN
100
AcDbLine
 10
219.9181854638165
 20
886.3217925731124
 30
0.0
 11
230.3681854638164
 21
886.3217925731124
 31
0.0
  0
LINE
  5
EA6E57141
330
EA6E4DC92
100
AcDbEntity
  8
JISSEN
100
AcDbLine
 10
219.6181854638164
 20
873.3217925731123
 30
0.0
 11
230.3681854638164
 21
873.3217925731123
 31
0.0
  0
LINE
  5
EA6E57142
330
EA6E4DC92
100
AcDbEntity
  8
JISSEN
100
AcDbLine
 10
223.5373883537933
 20
872.4557671693277
 30
0.0
 11
224.977220800604
 21
872.4557671693277
 31
0.0
  0
LINE
  5
EA6E57143
330
EA6E4DC92
100
AcDbEntity
  8
JISSEN
100
AcDbLine
 10
222.5189570053123
 20
873.7548052750048
 30
0.0
 11
227.0140834975666
 21
873.7548052750048
 31
0.0
  0
LINE
  5
EA6E57144
330
EA6E4DC92
100
AcDbEntity
  8
JISSEN
100
AcDbLine
 10
219.6181854638164
 20
877.3217925731124
 30
0.0
 11
219.6181854638164
 21
886.0217925731125
 31
0.0
  0
ARC
  5
EA6E57145
330
EA6E4DC92
100
AcDbEntity
  8
JISSEN
100
AcDbCircle
 10
220.6935712345641
 20
871.1556397317409
 30
0.0
 40
5.879349232940107
100
AcDbArc
 50
71.91219460926622
 51
108.0878053907194
  0
ARC
  5
EA6E57146
330
EA6E4DC92
100
AcDbEntity
  8
JISSEN
100
AcDbCircle
 10
220.6935712345641
 20
879.1992702798868
 30
0.0
 40
5.879349232938483
100
AcDbArc
 50
251.9121946092661
 51
288.0878053907337
  0
ARC
  5
EA6E57147
330
EA6E4DC92
100
AcDbEntity
  8
JISSEN
100
AcDbCircle
 10
220.8277869088049
 20
868.6500239356337
 30
0.0
 40
4.671789972964431
100
AcDbArc
 50
54.55001047639369
 51
114.5500104764497
  0
LINE
  5
EA6E57148
330
EA6E4DC92
100
AcDbEntity
  8
JISSEN
100
AcDbLine
 10
219.6181854638164
 20
877.1774550058143
 30
0.0
 11
218.8681854638164
 21
876.7444423039224
 31
0.0
  0
LINE
  5
EA6E57149
330
EA6E4DC92
100
AcDbEntity
  8
JISSEN
100
AcDbLine
 10
218.8681854638164
 20
876.7444423039224
 30
0.0
 11
218.8681854638164
 21
873.6104677077069
 31
0.0
  0
LINE
  5
EA6E5714A
330
EA6E4DC92
100
AcDbEntity
  8
JISSEN
100
AcDbLine
 10
219.6181854638164
 20
873.1774550058144
 30
0.0
 11
218.8681854638164
 21
873.6104677077069
 31
0.0
  0
LINE
  5
EA6E5714B
330
EA6E4DC92
100
AcDbEntity
  8
JISSEN
100
AcDbLine
 10
219.6181854638159
 20
873.3217925731123
 30
0.0
 11
218.1181854638159
 21
872.4557671693277
 31
0.0
  0
LINE
  5
EA6E5714C
330
EA6E4DC92
100
AcDbEntity
  8
JISSEN
100
AcDbLine
 10
218.1181854638159
 20
871.0717925731124
 30
0.0
 11
218.1181854638159
 21
872.4557671693277
 31
0.0
  0
LINE
  5
EA6E5714D
330
EA6E4DC92
100
AcDbEntity
  8
JISSEN
100
AcDbLine
 10
218.1181854638159
 20
871.3217925731123
 30
0.0
 11
218.1181854638159
 21
872.4557671693277
 31
0.0
  0
LINE
  5
EA6E5714E
330
EA6E4DC92
100
AcDbEntity
  8
JISSEN
100
AcDbLine
 10
222.5189570053123
 20
876.8887798712203
 30
0.0
 11
222.5189570053123
 21
873.7548052750048
 31
0.0
  0
LINE
  5
EA6E5714F
330
EA6E4DC92
100
AcDbEntity
  8
JISSEN
100
AcDbLine
 10
219.6181854638164
 20
886.0217925731125
 30
0.0
 11
219.9181854638165
 21
886.3217925731124
 31
0.0
  0
ARC
  5
EA6E57150
330
EA6E4DC92
100
AcDbEntity
  8
JISSEN
100
AcDbCircle
 10
230.3681854638164
 20
857.5475458533681
 30
0.0
 40
19.62990915244717
100
AcDbArc
 50
90.0
 51
99.83822698523541
  0
ARC
  5
EA6E57151
330
EA6E4DC92
100
AcDbEntity
  8
JISSEN
100
AcDbCircle
 10
230.3681854638164
 20
893.0960392928529
 30
0.0
 40
19.62990915244282
100
AcDbArc
 50
260.1617730147517
 51
270.0
  0
LINE
  5
EA6E57152
330
EA6E4DC92
100
AcDbEntity
  8
JISSEN
100
AcDbLine
 10
227.0140834975666
 20
876.8887798712203
 30
0.0
 11
227.0140834975666
 21
873.7548052750048
 31
0.0
  0
LINE
  5
EA6E57153
330
EA6E4DC92
100
AcDbEntity
  8
JISSEN
100
AcDbLine
 10
221.8681854638159
 20
906.1909039369547
 30
0.0
 11
221.8681854638159
 21
895.3217925731124
 31
0.0
  0
LINE
  5
EA6E57154
330
EA6E4DC92
100
AcDbEntity
  8
HATCH
100
AcDbLine
 10
222.3681854638159
 20
895.3217925731124
 30
0.0
 11
223.4875611324
 21
893.3217925731124
 31
0.0
  0
ARC
  5
EA6E57155
330
EA6E4DC92
100
AcDbEntity
  8
JISSEN
100
AcDbCircle
 10
230.3681854638159
 20
947.3217925731123
 30
0.0
 40
25.0
100
AcDbArc
 50
90.0
 51
224.6844194460197
  0
ARC
  5
EA6E57156
330
EA6E4DC92
100
AcDbEntity
  8
JISSEN
100
AcDbCircle
 10
230.3681854638162
 20
947.3217925731107
 30
0.0
 40
28.00000000000017
100
AcDbArc
 50
179.9999999999934
 51
225.2173479423138
  0
LINE
  5
EA6E57157
330
EA6E4DC92
100
AcDbEntity
  8
JISSEN
100
AcDbLine
 10
207.6285128082338
 20
924.5821199175278
 30
0.0
 11
228.7123346295564
 21
944.2517281764802
 31
0.0
  0
LINE
  5
EA6E57158
330
EA6E4DC92
100
AcDbEntity
  8
JISSEN
100
AcDbLine
 10
207.6285128082326
 20
924.582119917529
 30
0.0
 11
227.2895858139907
 21
945.6567928145251
 31
0.0
  0
LINE
  5
EA6E57159
330
EA6E4DC92
100
AcDbEntity
  8
JISSEN
100
AcDbLine
 10
212.7881507711309
 20
929.547024495751
 30
0.0
 11
210.6444440906857
 21
927.4478391102016
 31
0.0
  0
ARC
  5
EA6E5715A
330
EA6E4DC92
100
AcDbEntity
  8
JISSEN
100
AcDbCircle
 10
258.4681854638158
 20
865.3217925731121
 30
0.0
 40
1.0
100
AcDbArc
 50
0.0
 51
90.0
  0
ARC
  5
EA6E5715B
330
EA6E4DC92
100
AcDbEntity
  8
JISSEN
100
AcDbCircle
 10
258.4681854638158
 20
855.3217925731122
 30
0.0
 40
1.0
100
AcDbArc
 50
270.0
 51
315.375791107199
  0
ARC
  5
EA6E5715C
330
EA6E4DC92
100
AcDbEntity
  8
JISSEN
100
AcDbCircle
 10
258.4681854638158
 20
836.5536057724073
 30
0.0
 40
1.0
100
AcDbArc
 50
271.9999999999907
 51
0.0
  0
LINE
  5
EA6E5715D
330
EA6E4DC92
100
AcDbEntity
  8
JISSEN
100
AcDbLine
 10
237.1989825738389
 20
872.4557671693277
 30
0.0
 11
237.1989825738385
 21
850.1878179768963
 31
0.0
  0
LINE
  5
EA6E5715E
330
EA6E4DC92
100
AcDbEntity
  8
JISSEN
100
AcDbLine
 10
235.7591501270283
 20
872.4557671693277
 30
0.0
 11
235.7591501270278
 21
850.1878179768963
 31
0.0
  0
LINE
  5
EA6E5715F
330
EA6E4DC92
100
AcDbEntity
  8
JISSEN
100
AcDbLine
 10
242.6181854638159
 20
867.3217925731119
 30
0.0
 11
242.6181854638159
 21
872.4557671693276
 31
0.0
  0
LINE
  5
EA6E57160
330
EA6E4DC92
100
AcDbEntity
  8
JISSEN
100
AcDbLine
 10
244.4594592605974
 20
852.3132173570921
 30
0.0
 11
247.9805346677697
 21
852.2517567572425
 31
0.0
  0
LINE
  5
EA6E57161
330
EA6E4DC92
100
AcDbEntity
  8
JISSEN
100
AcDbLine
 10
244.4681854638158
 20
868.3217925731124
 30
0.0
 11
249.4679439761177
 21
868.3217925731124
 31
0.0
  0
ARC
  5
EA6E57162
330
EA6E4DC92
100
AcDbEntity
  8
JISSEN
100
AcDbCircle
 10
239.9085840188269
 20
853.9935612105905
 30
0.0
 40
4.671789972964431
100
AcDbArc
 50
234.550010476396
 51
294.5500104764352
  0
LWPOLYLINE
  5
EA6E57163
330
EA6E4DC92
100
AcDbEntity
  8
JISSEN
100
AcDbPolyline
 90
        5
 70
     0
 43
0.0
 10
231.762551632444
 20
858.4120821550525
 42
0.0770392472783639
 10
232.0788830748549
 20
858.5278465074908
 42
0.1060700219635831
 10
232.5717561605577
 20
858.95660653547
 42
0.085782807107608
 10
232.8805270882091
 20
859.5609359926118
 42
0.075444616229805
 10
232.9961080203732
 20
860.3225745557161
 42
0.0754446162298053
  0
LINE
  5
EA6E57164
330
EA6E4DC92
100
AcDbEntity
  8
JISSEN
100
AcDbLine
 10
231.7651143073942
 20
858.9572550034162
 30
0.0
 11
231.7651143073942
 21
859.3084860034164
 31
0.0
  0
LINE
  5
EA6E57165
330
EA6E4DC92
100
AcDbEntity
  8
JISSEN
100
AcDbLine
 10
231.4138833073941
 20
859.3084860034164
 30
0.0
 11
231.4138833073941
 21
858.0791775034162
 31
0.0
  0
LINE
  5
EA6E57166
330
EA6E4DC92
100
AcDbEntity
  8
JISSEN
100
AcDbLine
 10
231.7651143073942
 20
859.3084860034164
 30
0.0
 11
231.4138833073941
 21
859.3084860034164
 31
0.0
  0
LINE
  5
EA6E57167
330
EA6E4DC92
100
AcDbEntity
  8
JISSEN
100
AcDbLine
 10
231.4138833073941
 20
858.0791775034162
 30
0.0
 11
231.7651143073942
 21
858.0791775034162
 31
0.0
  0
LINE
  5
EA6E57168
330
EA6E4DC92
100
AcDbEntity
  8
JISSEN
100
AcDbLine
 10
231.7651143073942
 20
858.0791775034162
 30
0.0
 11
231.762551632444
 21
858.4120821550527
 31
0.0
  0
LINE
  5
EA6E57169
330
EA6E4DC92
100
AcDbEntity
  8
JISSEN
100
AcDbLine
 10
237.1989825738389
 20
850.1878179768963
 30
0.0
 11
235.7591501270283
 21
850.1878179768963
 31
0.0
  0
LINE
  5
EA6E5716A
330
EA6E4DC92
100
AcDbEntity
  8
JISSEN
100
AcDbLine
 10
243.9681854638158
 20
852.81314120467
 30
0.0
 11
243.9681854638163
 21
860.3217925731124
 31
0.0
  0
ARC
  5
EA6E5716B
330
EA6E4DC92
100
AcDbEntity
  8
JISSEN
100
AcDbCircle
 10
247.0522018864173
 20
860.3217925731119
 30
0.0
 40
7.157736980972463
100
AcDbArc
 50
132.0791917640714
 51
226.6754408424846
  0
LINE
  5
EA6E5716C
330
EA6E4DC92
100
AcDbEntity
  8
JISSEN
100
AcDbLine
 10
241.1181854638159
 20
849.3217925731119
 30
0.0
 11
242.6181854638159
 21
850.1878179768963
 31
0.0
  0
ARC
  5
EA6E5716D
330
EA6E4DC92
100
AcDbEntity
  8
JISSEN
100
AcDbCircle
 10
244.1181854638159
 20
853.321792573112
 30
0.0
 40
1.5
100
AcDbArc
 50
95.73917047726165
 51
180.0
  0
LINE
  5
EA6E5716E
330
EA6E4DC92
100
AcDbEntity
  8
JISSEN
100
AcDbLine
 10
242.6181854638159
 20
853.3217925731124
 30
0.0
 11
242.6181854638159
 21
850.1878179768963
 31
0.0
  0
ARC
  5
EA6E5716F
330
EA6E4DC92
100
AcDbEntity
  8
JISSEN
100
AcDbCircle
 10
244.4681854638158
 20
852.81314120467
 30
0.0
 40
0.5
100
AcDbArc
 50
180.0
 51
268.9999999999982
  0
LINE
  5
EA6E57170
330
EA6E4DC92
100
AcDbEntity
  8
JISSEN
100
AcDbLine
 10
243.9681854638158
 20
867.8304439415542
 30
0.0
 11
243.9681854638163
 21
860.3217925731124
 31
0.0
  0
ARC
  5
EA6E57171
330
EA6E4DC92
100
AcDbEntity
  8
JISSEN
100
AcDbCircle
 10
244.1181854638159
 20
867.3217925731119
 30
0.0
 40
1.5
100
AcDbArc
 50
180.0
 51
264.2608295227253
  0
ARC
  5
EA6E57172
330
EA6E4DC92
100
AcDbEntity
  8
JISSEN
100
AcDbCircle
 10
244.4681854638158
 20
867.8217925731122
 30
0.0
 40
0.5
100
AcDbArc
 50
90.0
 51
180.0
  0
LINE
  5
EA6E57173
330
EA6E4DC92
100
AcDbEntity
  8
JISSEN
100
AcDbLine
 10
247.9805346677697
 20
852.2517567572425
 30
0.0
 11
250.8201894996625
 21
836.1472739351393
 31
0.0
  0
LINE
  5
EA6E57174
330
EA6E4DC92
100
AcDbEntity
  8
JISSEN
100
AcDbLine
 10
251.8398967493774
 20
835.3215312857869
 30
0.0
 11
258.5030849605189
 21
835.5542149453883
 31
0.0
  0
ARC
  5
EA6E57175
330
EA6E4DC92
100
AcDbEntity
  8
JISSEN
100
AcDbCircle
 10
251.8049972526748
 20
836.3209221128059
 30
0.0
 40
1.0
100
AcDbArc
 50
189.9999999999985
 51
271.9999999999907
  0
LINE
  5
EA6E57176
330
EA6E4DC92
100
AcDbEntity
  8
JISSEN
100
AcDbLine
 10
249.9679439761178
 20
866.4701648401855
 30
0.0
 11
258.4681854638158
 21
866.3217925731123
 31
0.0
  0
LINE
  5
EA6E57177
330
EA6E4DC92
100
AcDbEntity
  8
JISSEN
100
AcDbLine
 10
249.9679439761178
 20
854.1734203060386
 30
0.0
 11
258.4681854638163
 21
854.3217925731124
 31
0.0
  0
LINE
  5
EA6E57178
330
EA6E4DC92
100
AcDbEntity
  8
JISSEN
100
AcDbLine
 10
249.9679439761178
 20
853.5182169123164
 30
0.0
 11
249.9679439761178
 21
860.3217925731124
 31
0.0
  0
ARC
  5
EA6E57179
330
EA6E4DC92
100
AcDbEntity
  8
JISSEN
100
AcDbCircle
 10
248.7805626187202
 20
853.6813552094686
 30
0.0
 40
1.198536020273432
100
AcDbArc
 50
265.891233838159
 51
352.1769210358607
  0
LINE
  5
EA6E5717A
330
EA6E4DC92
100
AcDbEntity
  8
JISSEN
100
AcDbLine
 10
249.9679439761178
 20
867.8217925731123
 30
0.0
 11
249.9679439761178
 21
860.3217925731124
 31
0.0
  0
ARC
  5
EA6E5717B
330
EA6E4DC92
100
AcDbEntity
  8
JISSEN
100
AcDbCircle
 10
249.4679439761177
 20
867.8217925731122
 30
0.0
 40
0.5
100
AcDbArc
 50
0.0
 51
90.0
  0
LINE
  5
EA6E5717C
330
EA6E4DC92
100
AcDbEntity
  8
JISSEN
100
AcDbLine
 10
237.8387736991101
 20
886.3217925731124
 30
0.0
 11
238.3681854638159
 21
895.3217925731124
 31
0.0
  0
LINE
  5
EA6E5717D
330
EA6E4DC92
100
AcDbEntity
  8
HATCH
100
AcDbLine
 10
236.8370450893499
 20
886.3217925731124
 30
0.0
 11
237.2488097952321
 21
893.3217925731124
 31
0.0
  0
LINE
  5
EA6E5717E
330
EA6E4DC92
100
AcDbEntity
  8
JISSEN
100
AcDbLine
 10
238.2174139223204
 20
876.8887798712203
 30
0.0
 11
233.7222874300662
 21
876.8887798712203
 31
0.0
  0
ARC
  5
EA6E5717F
330
EA6E4DC92
100
AcDbEntity
  8
JISSEN
100
AcDbCircle
 10
239.9085840188269
 20
868.6500239356334
 30
0.0
 40
4.671789972964431
100
AcDbArc
 50
65.44998952355026
 51
125.4499895236039
  0
LINE
  5
EA6E57180
330
EA6E4DC92
100
AcDbEntity
  8
JISSEN
100
AcDbLine
 10
238.2174139223204
 20
873.7548052750048
 30
0.0
 11
233.7222874300662
 21
873.7548052750048
 31
0.0
  0
LINE
  5
EA6E57181
330
EA6E4DC92
100
AcDbEntity
  8
JISSEN
100
AcDbLine
 10
233.7222874300662
 20
876.8887798712203
 30
0.0
 11
233.7222874300662
 21
873.7548052750048
 31
0.0
  0
LINE
  5
EA6E57182
330
EA6E4DC92
100
AcDbEntity
  8
JISSEN
100
AcDbLine
 10
237.1989825738389
 20
872.4557671693277
 30
0.0
 11
235.7591501270283
 21
872.4557671693277
 31
0.0
  0
LINE
  5
EA6E57183
330
EA6E4DC92
100
AcDbEntity
  8
JISSEN
100
AcDbLine
 10
241.1181854638164
 20
877.3217925731124
 30
0.0
 11
241.1181854638164
 21
886.0217925731125
 31
0.0
  0
ARC
  5
EA6E57184
330
EA6E4DC92
100
AcDbEntity
  8
JISSEN
100
AcDbCircle
 10
240.0427996930682
 20
871.2999772990388
 30
0.0
 40
5.879349232940107
100
AcDbArc
 50
71.91219460926622
 51
108.0878053907194
  0
LINE
  5
EA6E57185
330
EA6E4DC92
100
AcDbEntity
  8
JISSEN
100
AcDbLine
 10
241.1181854638164
 20
877.3217925731124
 30
0.0
 11
241.8681854638164
 21
876.8887798712203
 31
0.0
  0
ARC
  5
EA6E57186
330
EA6E4DC92
100
AcDbEntity
  8
JISSEN
100
AcDbCircle
 10
240.0427996930682
 20
879.3436078471851
 30
0.0
 40
5.879349232938483
100
AcDbArc
 50
251.9121946092661
 51
288.0878053907194
  0
LINE
  5
EA6E57187
330
EA6E4DC92
100
AcDbEntity
  8
JISSEN
100
AcDbLine
 10
241.1181854638164
 20
873.3217925731123
 30
0.0
 11
241.8681854638164
 21
873.7548052750048
 31
0.0
  0
LINE
  5
EA6E57188
330
EA6E4DC92
100
AcDbEntity
  8
JISSEN
100
AcDbLine
 10
241.1181854638159
 20
873.3217925731119
 30
0.0
 11
242.6181854638159
 21
872.4557671693276
 31
0.0
  0
LINE
  5
EA6E57189
330
EA6E4DC92
100
AcDbEntity
  8
JISSEN
100
AcDbLine
 10
238.2174139223204
 20
876.8887798712203
 30
0.0
 11
238.2174139223204
 21
873.7548052750048
 31
0.0
  0
LINE
  5
EA6E5718A
330
EA6E4DC92
100
AcDbEntity
  8
JISSEN
100
AcDbLine
 10
241.8681854638164
 20
876.8887798712203
 30
0.0
 11
241.8681854638164
 21
873.7548052750048
 31
0.0
  0
LINE
  5
EA6E5718B
330
EA6E4DC92
100
AcDbEntity
  8
JISSEN
100
AcDbLine
 10
241.1181854638164
 20
886.0217925731125
 30
0.0
 11
240.8181854638162
 21
886.3217925731124
 31
0.0
  0
LINE
  5
EA6E5718C
330
EA6E4DC92
100
AcDbEntity
  8
HATCH
100
AcDbLine
 10
237.2488097952321
 20
893.3217925731124
 30
0.0
 11
238.3681854638159
 21
895.3217925731124
 31
0.0
  0
LINE
  5
EA6E5718D
330
EA6E4DC92
100
AcDbEntity
  8
JISSEN
100
AcDbLine
 10
238.8681854638159
 20
895.3217925731124
 30
0.0
 11
238.8681854638159
 21
906.1909039369547
 31
0.0
  0
INSERT
  5
EA6E5718E
330
EA6E4DC92
100
AcDbEntity
  8
SUNPOU
100
AcDbBlockReference
  2
ARROWANG
 10
245.8174468586081
 20
908.2664431014281
 30
0.0
 41
3.000000000000012
 42
3.0
 43
3.0
 50
111.5824387273614
1001
ACAD
1000
DSTYLE
1002
{
1070
   147
1040
1.0
1070
    77
1070
     0
1002
}
  0
LINE
  5
EA6E5718F
330
EA6E4DC92
100
AcDbEntity
  8
JISSEN
100
AcDbLine
 10
259.4681854638163
 20
836.5536057724074
 30
0.0
 11
259.4681854638158
 21
860.3217925731124
 31
0.0
  0
ARC
  5
EA6E57190
330
EA6E4DC92
100
AcDbEntity
  8
JISSEN
100
AcDbCircle
 10
230.9681854638158
 20
860.321792573112
 30
0.0
 40
30.0
100
AcDbArc
 50
351.2257103521518
 51
0.0
  0
LWPOLYLINE
  5
EA6E57191
330
EA6E4DC92
100
AcDbEntity
  8
JISSEN
100
AcDbPolyline
 90
        2
 70
     0
 43
0.0
 10
259.4681854638158
 20
855.8217937441575
 10
259.4681854638158
 20
852.8217925731121
  0
LINE
  5
EA6E57192
330
EA6E4DC92
100
AcDbEntity
  8
JISSEN
100
AcDbLine
 10
259.4681854638158
 20
855.8217925731124
 30
0.0
 11
259.4681854638158
 21
855.3217925731123
 31
0.0
  0
ARC
  5
EA6E57193
330
EA6E4DC92
100
AcDbEntity
  8
JISSEN
100
AcDbCircle
 10
260.1229449380423
 20
855.8217925731121
 30
0.0
 40
0.5
100
AcDbArc
 50
270.0
 51
351.2257103521518
  0
LINE
  5
EA6E57194
330
EA6E4DC92
100
AcDbEntity
  8
JISSEN
100
AcDbLine
 10
259.4681854638158
 20
855.3217925731123
 30
0.0
 11
260.1229449380427
 21
855.3217925731123
 31
0.0
  0
LINE
  5
EA6E57195
330
EA6E4DC92
100
AcDbEntity
  8
JISSEN
100
AcDbLine
 10
259.4681854638158
 20
865.3217925731123
 30
0.0
 11
259.4681854638158
 21
860.3217925731124
 31
0.0
  0
ARC
  5
EA6E57196
330
EA6E4DC92
100
AcDbEntity
  8
JISSEN
100
AcDbCircle
 10
230.9681854638158
 20
860.321792573112
 30
0.0
 40
30.0
100
AcDbArc
 50
0.0
 51
8.774289647848162
  0
ARC
  5
EA6E57197
330
EA6E4DC92
100
AcDbEntity
  8
JISSEN
100
AcDbCircle
 10
260.1229449380423
 20
864.821792573112
 30
0.0
 40
0.5
100
AcDbArc
 50
8.774289647848162
 51
90.0
  0
LINE
  5
EA6E57198
330
EA6E4DC92
100
AcDbEntity
  8
JISSEN
100
AcDbLine
 10
259.4681854638158
 20
865.3217925731123
 30
0.0
 11
260.1229449380427
 21
865.3217925731123
 31
0.0
  0
LINE
  5
EA6E57199
330
EA6E4DC92
100
AcDbEntity
  8
JISSEN
100
AcDbLine
 10
233.554797158682
 20
948.7693788075535
 30
0.0
 11
242.3292507293513
 21
956.9552791573116
 31
0.0
  0
LINE
  5
EA6E5719A
330
EA6E4DC92
100
AcDbEntity
  8
JISSEN
100
AcDbLine
 10
231.815771698257
 20
950.5084042679785
 30
0.0
 11
240.0016720480152
 21
959.2828578386477
 31
0.0
  0
LINE
  5
EA6E5719B
330
EA6E4DC92
100
AcDbEntity
  8
JISSEN
100
AcDbLine
 10
247.9482201565011
 20
929.547024495751
 30
0.0
 11
250.0919268369464
 21
927.4478391102016
 31
0.0
  0
LINE
  5
EA6E5719C
330
EA6E4DC92
100
AcDbEntity
  8
JISSEN
100
AcDbLine
 10
240.3527395954129
 20
957.306346704709
 30
0.0
 11
242.3292507293513
 21
956.9552791573116
 31
0.0
  0
LINE
  5
EA6E5719D
330
EA6E4DC92
100
AcDbEntity
  8
JISSEN
100
AcDbLine
 10
240.0016720480152
 20
959.2828578386477
 30
0.0
 11
240.3527395954129
 21
957.306346704709
 31
0.0
  0
TEXT
  5
EA6E5719E
330
EA6E4DC92
100
AcDbEntity
  8
TEXT
100
AcDbText
 10
209.1423792327332
 20
1055.958092579256
 30
0.0
 40
6.0
  1
アングル弁
  7
K
 72
     4
 11
226.3423792327332
 21
1058.958092579256
 31
0.0
100
AcDbText
  0
TEXT
  5
EA6E5719F
330
EA6E4DC92
100
AcDbEntity
  8
TEXT
100
AcDbText
 10
209.1423792327332
 20
1067.958092579256
 30
0.0
 40
6.0
  1
圧　力　計
  7
K
 72
     4
 11
226.3423792327332
 21
1070.958092579256
 31
0.0
100
AcDbText
  0
TEXT
  5
EA6E571A0
330
EA6E4DC92
100
AcDbEntity
  8
TEXT
100
AcDbText
 10
206.9262241798415
 20
1079.665816126707
 30
0.0
 40
6.0
  1
ニ ッ プ ル
  7
K
 72
     4
 11
226.1262241798415
 21
1082.865816126707
 31
0.0
100
AcDbText
  0
TEXT
  5
EA6E571A1
330
EA6E4DC92
100
AcDbEntity
  8
TEXT
100
AcDbText
 10
208.9262241798415
 20
1091.865816126707
 30
0.0
 40
6.0
  1
名      称
  7
K
 72
     4
 11
226.1262241798415
 21
1094.865816126707
 31
0.0
100
AcDbText
  0
TEXT
  5
EA6E571A2
330
EA6E4DC92
100
AcDbEntity
  8
TEXT
100
AcDbText
 10
182.4025113079101
 20
1079.865816126707
 30
0.0
 40
6.0
  1
5
  7
K
 72
     4
 11
184.4025113079101
 21
1082.865816126707
 31
0.0
100
AcDbText
  0
LINE
  5
EA6E571A3
330
EA6E4DC92
100
AcDbEntity
  8
JISSEN
100
AcDbLine
 10
196.1262241798415
 20
1100.865816126707
 30
0.0
 11
196.1262241798415
 21
1052.865816126707
 31
0.0
  0
TEXT
  5
EA6E571A4
330
EA6E4DC92
100
AcDbEntity
  8
TEXT
100
AcDbText
 10
182.3423799567331
 20
1055.958092579256
 30
0.0
 40
6.0
  1
7
  7
K
 72
     4
 11
184.3423799567331
 21
1058.958092579256
 31
0.0
100
AcDbText
  0
TEXT
  5
EA6E571A5
330
EA6E4DC92
100
AcDbEntity
  8
TEXT
100
AcDbText
 10
182.4852370995902
 20
1067.958092579256
 30
0.0
 40
6.0
  1
6
  7
K
 72
     4
 11
184.3423799567331
 21
1070.958092579256
 31
0.0
100
AcDbText
  0
TEXT
  5
EA6E571A6
330
EA6E4DC92
100
AcDbEntity
  8
TEXT
100
AcDbText
 10
177.7262249038413
 20
1091.865816126707
 30
0.0
 40
6.0
  1
番号
  7
K
 72
     4
 11
184.1262249038413
 21
1094.865816126707
 31
0.0
100
AcDbText
  0
TEXT
  5
EA6E571A7
330
EA6E4DC92
100
AcDbEntity
  8
TEXT
100
AcDbText
 10
269.7690813226987
 20
1079.865816126707
 30
0.0
 40
6.0
  1
SGP
  7
K
 72
     4
 11
277.6262241798415
 21
1082.865816126707
 31
0.0
100
AcDbText
  0
LINE
  5
EA6E571A8
330
EA6E4DC92
100
AcDbEntity
  8
JISSEN
100
AcDbLine
 10
256.1262241798415
 20
1100.865816126707
 30
0.0
 11
256.1262241798415
 21
1052.865816126707
 31
0.0
  0
TEXT
  5
EA6E571A9
330
EA6E4DC92
100
AcDbEntity
  8
TEXT
100
AcDbText
 10
330.9138078041618
 20
1055.958092579256
 30
0.0
 40
6.0
  1
10A
  7
K
 72
     4
 11
338.3423792327332
 21
1058.958092579256
 31
0.0
100
AcDbText
  0
TEXT
  5
EA6E571AA
330
EA6E4DC92
100
AcDbEntity
  8
TEXT
100
AcDbText
 10
323.0576527512701
 20
1079.865816126707
 30
0.0
 40
6.0
  1
10A×75
 41
0.9
  7
K
 72
     4
 11
338.1262241798415
 21
1082.865816126707
 31
0.0
100
AcDbText
  0
TEXT
  5
EA6E571AB
330
EA6E4DC92
100
AcDbEntity
  8
TEXT
100
AcDbText
 10
322.6929873889072
 20
1067.958092579256
 30
0.0
 40
6.0
  1
2MPa φ75
 41
0.7
  7
K
 72
     4
 11
338.2729873889072
 21
1070.958092579256
 31
0.0
100
AcDbText
  0
TEXT
  5
EA6E571AC
330
EA6E4DC92
100
AcDbEntity
  8
TEXT
100
AcDbText
 10
324.5262241798414
 20
1091.865816126707
 30
0.0
 40
6.0
  1
備    考
  7
K
 72
     4
 11
338.1262241798415
 21
1094.865816126707
 31
0.0
100
AcDbText
  0
TEXT
  5
EA6E571AD
330
EA6E4DC92
100
AcDbEntity
  8
TEXT
100
AcDbText
 10
309.4119384655558
 20
1079.865816126707
 30
0.0
 40
6.0
  1
1
  7
K
 72
     4
 11
310.1262241798415
 21
1082.865816126707
 31
0.0
100
AcDbText
  0
LINE
  5
EA6E571AE
330
EA6E4DC92
100
AcDbEntity
  8
JISSEN
100
AcDbLine
 10
321.1262241798415
 20
1100.865816126707
 30
0.0
 11
321.1262241798415
 21
1052.865816126707
 31
0.0
  0
LINE
  5
EA6E571AF
330
EA6E4DC92
100
AcDbEntity
  8
JISSEN
100
AcDbLine
 10
299.1262241798415
 20
1052.865816126707
 30
0.0
 11
299.1262241798415
 21
1100.865816126707
 31
0.0
  0
TEXT
  5
EA6E571B0
330
EA6E4DC92
100
AcDbEntity
  8
TEXT
100
AcDbText
 10
309.6280935184475
 20
1055.958092579256
 30
0.0
 40
6.0
  1
1
  7
K
 72
     4
 11
310.3423792327332
 21
1058.958092579256
 31
0.0
100
AcDbText
  0
TEXT
  5
EA6E571B1
330
EA6E4DC92
100
AcDbEntity
  8
TEXT
100
AcDbText
 10
309.6280935184475
 20
1067.958092579256
 30
0.0
 40
6.0
  1
1
  7
K
 72
     4
 11
310.3423792327332
 21
1070.958092579256
 31
0.0
100
AcDbText
  0
TEXT
  5
EA6E571B2
330
EA6E4DC92
100
AcDbEntity
  8
TEXT
100
AcDbText
 10
303.7262241798415
 20
1091.865816126707
 30
0.0
 40
6.0
  1
個数
  7
K
 72
     4
 11
310.1262241798415
 21
1094.865816126707
 31
0.0
100
AcDbText
  0
ENDSEC
  0
SECTION
  2
OBJECTS
  0
DICTIONARY
  5
EA6E4DC87
330
0
100
AcDbDictionary
281
     1
  3
ACAD_GROUP
350
EA6E4DC88
  3
ACAD_LAYOUT
350
EA6E4E124
  3
ACAD_MLINESTYLE
350
EA6E4DC95
  3
ACAD_PLOTSETTINGS
350
EA6E4E125
  3
ACAD_PLOTSTYLENAME
350
EA6E4E122
  3
ACDBVARIABLEDICTIONARY
350
EA6E4DCDF
  0
DICTIONARY
  5
EA6E4E3D8
330
EA6E4DC7D
100
AcDbDictionary
280
     1
281
     1
  3
ACAD_LAYERFILTERS
360
EA6E4EE6A
  3
ACAD_LAYERSTATES
360
EA6E4E3D9
  0
DICTIONARY
  5
EA6E4F409
330
EA6E4F408
100
AcDbDictionary
280
     1
281
     1
  3
ACAD_XREC_ROUNDTRIP
360
EA6E4F40A
  3
ADSK_XREC_LAYER_RECONCILED
360
EA6E4F40B
  0
DICTIONARY
  5
EA6E4F40D
330
EA6E4F40C
100
AcDbDictionary
280
     1
281
     1
  3
ACAD_XREC_ROUNDTRIP
360
EA6E4F40E
  3
ADSK_XREC_LAYER_RECONCILED
360
EA6E4F40F
  0
DICTIONARY
  5
EA6E4F411
330
EA6E4F410
100
AcDbDictionary
280
     1
281
     1
  3
ACAD_XREC_ROUNDTRIP
360
EA6E4F412
  3
ADSK_XREC_LAYER_RECONCILED
360
EA6E4F413
  0
DICTIONARY
  5
EA6E4F415
330
EA6E4F414
100
AcDbDictionary
280
     1
281
     1
  3
ACAD_XREC_ROUNDTRIP
360
EA6E4F416
  0
DICTIONARY
  5
EA6E4E15C
330
EA6E4DC92
100
AcDbDictionary
280
     1
281
     1
  3
ACAD_LAYOUTSELFREF
360
EA6E4EE60
  0
DICTIONARY
  5
EA6E4E15A
330
EA6E4DC8F
100
AcDbDictionary
280
     1
281
     1
  3
ACAD_LAYOUTSELFREF
360
EA6E4EE5F
  0
DICTIONARY
  5
EA6E4DC88
102
{ACAD_REACTORS
330
EA6E4DC87
102
}
330
EA6E4DC87
100
AcDbDictionary
281
     1
  3
*A1
350
EA6E4F446
  3
*A10
350
EA6E54441
  3
*A100
350
EA6E4F4B7
  3
*A101
350
EA6E4F447
  3
*A102
350
EA6E4F4B8
  3
*A103
350
EA6E4F44F
  3
*A104
350
EA6E4F4B9
  3
*A105
350
EA6E4F4BA
  3
*A106
350
EA6E4F4BB
  3
*A107
350
EA6E4F4BC
  3
*A108
350
EA6E4F47C
  3
*A109
350
EA6E4F451
  3
*A11
350
EA6E54442
  3
*A110
350
EA6E4F4BD
  3
*A111
350
EA6E4F4BE
  3
*A112
350
EA6E4F47F
  3
*A113
350
EA6E4F459
  3
*A114
350
EA6E4F4BF
  3
*A115
350
EA6E4F4C0
  3
*A116
350
EA6E4F4C1
  3
*A117
350
EA6E4F4A9
  3
*A118
350
EA6E4F4C2
  3
*A119
350
EA6E4F4C3
  3
*A12
350
EA6E54443
  3
*A120
350
EA6E4F4C4
  3
*A121
350
EA6E4F47D
  3
*A122
350
EA6E4F4C5
  3
*A123
350
EA6E4F4C6
  3
*A124
350
EA6E4F45A
  3
*A125
350
EA6E4F452
  3
*A126
350
EA6E4F4C7
  3
*A127
350
EA6E4F4C8
  3
*A128
350
EA6E4F4C9
  3
*A129
350
EA6E4F4CA
  3
*A13
350
EA6E4F4DC
  3
*A130
350
EA6E4F4AA
  3
*A131
350
EA6E4F4CB
  3
*A132
350
EA6E4F4CC
  3
*A133
350
EA6E4F47E
  3
*A134
350
EA6E4F4CD
  3
*A135
350
EA6E4F45B
  3
*A136
350
EA6E4F4CE
  3
*A137
350
EA6E4F4CF
  3
*A138
350
EA6E4F4D0
  3
*A139
350
EA6E4F453
  3
*A14
350
EA6E54444
  3
*A140
350
EA6E4F4D1
  3
*A141
350
EA6E4F4D2
  3
*A142
350
EA6E4F4D3
  3
*A143
350
EA6E4F4AB
  3
*A144
350
EA6E4F4D4
  3
*A145
350
EA6E4F45C
  3
*A146
350
EA6E4F44B
  3
*A147
350
EA6E4F4AD
  3
*A148
350
EA6E4F45D
  3
*A149
350
EA6E4F45E
  3
*A15
350
EA6E54445
  3
*A150
350
EA6E4F45F
  3
*A151
350
EA6E4F460
  3
*A152
350
EA6E4F4D5
  3
*A153
350
EA6E4F461
  3
*A154
350
EA6E4F462
  3
*A155
350
EA6E4F448
  3
*A156
350
EA6E4F463
  3
*A157
350
EA6E4F464
  3
*A158
350
EA6E4F4B1
  3
*A159
350
EA6E4F465
  3
*A16
350
EA6E4F4B0
  3
*A160
350
EA6E4F4AE
  3
*A161
350
EA6E4F466
  3
*A162
350
EA6E4F467
  3
*A163
350
EA6E4F4D6
  3
*A164
350
EA6E4F468
  3
*A165
350
EA6E4F469
  3
*A166
350
EA6E4F46A
  3
*A167
350
EA6E4F46B
  3
*A168
350
EA6E4F46C
  3
*A169
350
EA6E4F449
  3
*A17
350
EA6E4F487
  3
*A170
350
EA6E4F481
  3
*A171
350
EA6E4F46D
  3
*A172
350
EA6E4F46E
  3
*A173
350
EA6E4F4AF
  3
*A174
350
EA6E4F4D7
  3
*A175
350
EA6E4F46F
  3
*A176
350
EA6E4F470
  3
*A177
350
EA6E4F471
  3
*A178
350
EA6E4F472
  3
*A179
350
EA6E4F473
  3
*A18
350
EA6E54446
  3
*A180
350
EA6E4F474
  3
*A181
350
EA6E4F475
  3
*A182
350
EA6E4F482
  3
*A183
350
EA6E4F476
  3
*A184
350
EA6E4F44A
  3
*A185
350
EA6E4F4D8
  3
*A186
350
EA6E4F477
  3
*A187
350
EA6E54417
  3
*A188
350
EA6E54418
  3
*A189
350
EA6E54419
  3
*A19
350
EA6E54447
  3
*A190
350
EA6E5441A
  3
*A191
350
EA6E5441B
  3
*A192
350
EA6E5441C
  3
*A193
350
EA6E5441D
  3
*A194
350
EA6E4F483
  3
*A195
350
EA6E5441E
  3
*A196
350
EA6E4F4D9
  3
*A197
350
EA6E5441F
  3
*A198
350
EA6E54420
  3
*A199
350
EA6E54421
  3
*A2
350
EA6E4F4DB
  3
*A20
350
EA6E54448
  3
*A200
350
EA6E54422
  3
*A201
350
EA6E54423
  3
*A202
350
EA6E54424
  3
*A203
350
EA6E54425
  3
*A204
350
EA6E54426
  3
*A205
350
EA6E54427
  3
*A206
350
EA6E4F484
  3
*A207
350
EA6E4F4DA
  3
*A208
350
EA6E54428
  3
*A209
350
EA6E54429
  3
*A21
350
EA6E54449
  3
*A210
350
EA6E5442A
  3
*A211
350
EA6E5442B
  3
*A212
350
EA6E5442C
  3
*A213
350
EA6E5442D
  3
*A214
350
EA6E5442E
  3
*A215
350
EA6E5442F
  3
*A216
350
EA6E54430
  3
*A217
350
EA6E54431
  3
*A218
350
EA6E4F454
  3
*A219
350
EA6E4F485
  3
*A22
350
EA6E5444A
  3
*A220
350
EA6E54432
  3
*A221
350
EA6E54433
  3
*A222
350
EA6E54434
  3
*A223
350
EA6E54435
  3
*A224
350
EA6E54436
  3
*A225
350
EA6E54437
  3
*A226
350
EA6E54438
  3
*A227
350
EA6E54439
  3
*A228
350
EA6E5443A
  3
*A23
350
EA6E5444B
  3
*A24
350
EA6E4F4AC
  3
*A25
350
EA6E5444C
  3
*A26
350
EA6E5444D
  3
*A27
350
EA6E5444E
  3
*A28
350
EA6E5444F
  3
*A29
350
EA6E4F488
  3
*A3
350
EA6E5443B
  3
*A30
350
EA6E54450
  3
*A31
350
EA6E54451
  3
*A32
350
EA6E54452
  3
*A33
350
EA6E54453
  3
*A34
350
EA6E54454
  3
*A35
350
EA6E4F480
  3
*A36
350
EA6E54455
  3
*A37
350
EA6E54456
  3
*A38
350
EA6E54457
  3
*A39
350
EA6E54458
  3
*A4
350
EA6E4F486
  3
*A40
350
EA6E54459
  3
*A41
350
EA6E4F489
  3
*A42
350
EA6E5445A
  3
*A43
350
EA6E5445B
  3
*A44
350
EA6E5445C
  3
*A45
350
EA6E5445D
  3
*A46
350
EA6E4F4DD
  3
*A47
350
EA6E5445E
  3
*A48
350
EA6E5445F
  3
*A49
350
EA6E54460
  3
*A5
350
EA6E5443C
  3
*A50
350
EA6E54461
  3
*A51
350
EA6E54462
  3
*A52
350
EA6E4F48A
  3
*A53
350
EA6E4F4B2
  3
*A54
350
EA6E4F44C
  3
*A55
350
EA6E4F48B
  3
*A56
350
EA6E4F48C
  3
*A57
350
EA6E4F455
  3
*A58
350
EA6E4F48D
  3
*A59
350
EA6E4F48E
  3
*A6
350
EA6E5443D
  3
*A60
350
EA6E4F478
  3
*A61
350
EA6E4F48F
  3
*A62
350
EA6E4F490
  3
*A63
350
EA6E4F491
  3
*A64
350
EA6E4F492
  3
*A65
350
EA6E4F493
  3
*A66
350
EA6E4F450
  3
*A67
350
EA6E4F494
  3
*A68
350
EA6E4F456
  3
*A69
350
EA6E4F44D
  3
*A7
350
EA6E5443E
  3
*A70
350
EA6E4F495
  3
*A71
350
EA6E4F496
  3
*A72
350
EA6E4F479
  3
*A73
350
EA6E4F497
  3
*A74
350
EA6E4F498
  3
*A75
350
EA6E4F499
  3
*A76
350
EA6E4F49A
  3
*A77
350
EA6E4F49B
  3
*A78
350
EA6E4F49C
  3
*A79
350
EA6E4F457
  3
*A8
350
EA6E5443F
  3
*A80
350
EA6E4F4B3
  3
*A81
350
EA6E4F49D
  3
*A82
350
EA6E4F49E
  3
*A83
350
EA6E4F44E
  3
*A84
350
EA6E4F47A
  3
*A85
350
EA6E4F49F
  3
*A86
350
EA6E4F4A0
  3
*A87
350
EA6E4F4A1
  3
*A88
350
EA6E4F4A2
  3
*A89
350
EA6E4F4A3
  3
*A9
350
EA6E54440
  3
*A90
350
EA6E4F458
  3
*A91
350
EA6E4F4A4
  3
*A92
350
EA6E4F4A5
  3
*A93
350
EA6E4F4B4
  3
*A94
350
EA6E4F4A6
  3
*A95
350
EA6E4F4A7
  3
*A96
350
EA6E4F47B
  3
*A97
350
EA6E4F4A8
  3
*A98
350
EA6E4F4B5
  3
*A99
350
EA6E4F4B6
  0
DICTIONARY
  5
EA6E4E124
102
{ACAD_REACTORS
330
EA6E4DC87
102
}
330
EA6E4DC87
100
AcDbDictionary
281
     1
  3
Model
350
EA6E4EE67
  3
ﾚｲｱｳﾄ1
350
EA6E4EE68
  0
DICTIONARY
  5
EA6E4DC95
102
{ACAD_REACTORS
330
EA6E4DC87
102
}
330
EA6E4DC87
100
AcDbDictionary
281
     1
  3
STANDARD
350
EA6E4DC96
  0
DICTIONARY
  5
EA6E4E125
102
{ACAD_REACTORS
330
EA6E4DC87
102
}
330
EA6E4DC87
100
AcDbDictionary
281
     1
  3
セットアップ1
350
EA6E4F4DE
  0
ACDBDICTIONARYWDFLT
  5
EA6E4E122
102
{ACAD_REACTORS
330
EA6E4DC87
102
}
330
EA6E4DC87
100
AcDbDictionary
281
     1
  3
Normal
350
EA6E4E123
  3
Style_1
350
EA6E4F4E1
100
AcDbDictionaryWithDefault
340
EA6E4E123
  0
DICTIONARY
  5
EA6E4DCDF
102
{ACAD_REACTORS
330
EA6E4DC87
102
}
330
EA6E4DC87
100
AcDbDictionary
281
     1
  3
DIMASSOC
350
EA6E4E23D
  3
SORTENTS
350
EA6E4DCE0
  0
DICTIONARY
  5
EA6E4EE6A
102
{ACAD_REACTORS
330
EA6E4E3D8
102
}
330
EA6E4E3D8
100
AcDbDictionary
280
     1
281
     1
  3
0
360
EA6E4EE6B
  3
0-0
360
EA6E4EE6C
  3
10画層
360
EA6E4EE6D
  3
2
360
EA6E4EE6E
  3
3
360
EA6E4EE6F
  3
3A
360
EA6E4EE70
  3
4
360
EA6E4EE71
  3
5画層
360
EA6E4EE72
  3
6画層
360
EA6E4EE73
  3
7
360
EA6E4EE74
  3
7a画層
360
EA6E4EE75
  3
8
360
EA6E4EE76
  3
ASYST
360
EA6E4EE77
  3
ASYST PHASE 1
360
EA6E4EE78
  3
ASYST PHASE 2
360
EA6E4EE79
  3
cap-0
360
EA6E4EE7A
  3
dims
360
EA6E4EE7B
  3
elec
360
EA6E4EE7C
  3
ELECTRICAL
360
EA6E4EE7D
  3
F
360
EA6E4EE7E
  3
Frame
360
EA6E4EE7F
  3
FROZEN
360
EA6E4EE80
  3
FROZEN ACTIVE
360
EA6E4EE81
  3
jiku-0
360
EA6E4EE82
  3
MP
360
EA6E4EE83
  3
MPR
360
EA6E4EE84
  3
p-
360
EA6E4EE85
  3
ST
360
EA6E4EE86
  3
TC
360
EA6E4EE87
  3
TEXT
360
EA6E4EE88
  3
ｹｰﾌﾞﾙ図
360
EA6E4EE89
  3
０画層
360
EA6E4EE8A
  3
３A画層
360
EA6E4EE8B
  3
３画層
360
EA6E4EE8C
  0
DICTIONARY
  5
EA6E4E3D9
102
{ACAD_REACTORS
330
EA6E4E3D8
102
}
330
EA6E4E3D8
100
AcDbDictionary
281
     1
  0
XRECORD
  5
EA6E4F40A
102
{ACAD_REACTORS
330
EA6E4F409
102
}
330
EA6E4F409
100
AcDbXrecord
280
     1
102
MATERIAL
340
0
  0
XRECORD
  5
EA6E4F40B
102
{ACAD_REACTORS
330
EA6E4F409
102
}
330
EA6E4F409
100
AcDbXrecord
280
     1
290
     1
  0
XRECORD
  5
EA6E4F40E
102
{ACAD_REACTORS
330
EA6E4F40D
102
}
330
EA6E4F40D
100
AcDbXrecord
280
     1
102
MATERIAL
340
0
  0
XRECORD
  5
EA6E4F40F
102
{ACAD_REACTORS
330
EA6E4F40D
102
}
330
EA6E4F40D
100
AcDbXrecord
280
     1
290
     1
  0
XRECORD
  5
EA6E4F412
102
{ACAD_REACTORS
330
EA6E4F411
102
}
330
EA6E4F411
100
AcDbXrecord
280
     1
102
MATERIAL
340
0
  0
XRECORD
  5
EA6E4F413
102
{ACAD_REACTORS
330
EA6E4F411
102
}
330
EA6E4F411
100
AcDbXrecord
280
     1
290
     1
  0
XRECORD
  5
EA6E4F416
102
{ACAD_REACTORS
330
EA6E4F415
102
}
330
EA6E4F415
100
AcDbXrecord
280
     1
102
MATERIAL
340
0
  0
XRECORD
  5
EA6E4EE60
102
{ACAD_REACTORS
330
EA6E4E15C
102
}
330
EA6E4E15C
100
AcDbXrecord
280
     1
340
EA6E4DC92
  0
XRECORD
  5
EA6E4EE5F
102
{ACAD_REACTORS
330
EA6E4E15A
102
}
330
EA6E4E15A
100
AcDbXrecord
280
     1
340
EA6E4DC8F
  0
GROUP
  5
EA6E4F446
102
{ACAD_REACTORS
330
EA6E4DC88
102
}
330
EA6E4DC88
100
AcDbGroup
300

 70
     1
 71
     1
  0
GROUP
  5
EA6E54441
102
{ACAD_REACTORS
330
EA6E4DC88
102
}
330
EA6E4DC88
100
AcDbGroup
300

 70
     1
 71
     1
  0
GROUP
  5
EA6E4F4B7
102
{ACAD_REACTORS
330
EA6E4DC88
102
}
330
EA6E4DC88
100
AcDbGroup
300

 70
     1
 71
     1
  0
GROUP
  5
EA6E4F447
102
{ACAD_REACTORS
330
EA6E4DC88
102
}
330
EA6E4DC88
100
AcDbGroup
300

 70
     1
 71
     1
  0
GROUP
  5
EA6E4F4B8
102
{ACAD_REACTORS
330
EA6E4DC88
102
}
330
EA6E4DC88
100
AcDbGroup
300

 70
     3
 71
     1
  0
GROUP
  5
EA6E4F44F
102
{ACAD_REACTORS
330
EA6E4DC88
102
}
330
EA6E4DC88
100
AcDbGroup
300

 70
     3
 71
     1
  0
GROUP
  5
EA6E4F4B9
102
{ACAD_REACTORS
330
EA6E4DC88
102
}
330
EA6E4DC88
100
AcDbGroup
300

 70
     1
 71
     1
  0
GROUP
  5
EA6E4F4BA
102
{ACAD_REACTORS
330
EA6E4DC88
102
}
330
EA6E4DC88
100
AcDbGroup
300

 70
     1
 71
     1
  0
GROUP
  5
EA6E4F4BB
102
{ACAD_REACTORS
330
EA6E4DC88
102
}
330
EA6E4DC88
100
AcDbGroup
300

 70
     1
 71
     1
  0
GROUP
  5
EA6E4F4BC
102
{ACAD_REACTORS
330
EA6E4DC88
102
}
330
EA6E4DC88
100
AcDbGroup
300

 70
     1
 71
     1
  0
GROUP
  5
EA6E4F47C
102
{ACAD_REACTORS
330
EA6E4DC88
102
}
330
EA6E4DC88
100
AcDbGroup
300

 70
     1
 71
     1
  0
GROUP
  5
EA6E4F451
102
{ACAD_REACTORS
330
EA6E4DC88
102
}
330
EA6E4DC88
100
AcDbGroup
300

 70
     1
 71
     1
  0
GROUP
  5
EA6E54442
102
{ACAD_REACTORS
330
EA6E4DC88
102
}
330
EA6E4DC88
100
AcDbGroup
300

 70
     1
 71
     1
  0
GROUP
  5
EA6E4F4BD
102
{ACAD_REACTORS
330
EA6E4DC88
102
}
330
EA6E4DC88
100
AcDbGroup
300

 70
     1
 71
     1
  0
GROUP
  5
EA6E4F4BE
102
{ACAD_REACTORS
330
EA6E4DC88
102
}
330
EA6E4DC88
100
AcDbGroup
300

 70
     1
 71
     1
  0
GROUP
  5
EA6E4F47F
102
{ACAD_REACTORS
330
EA6E4DC88
102
}
330
EA6E4DC88
100
AcDbGroup
300

 70
     1
 71
     1
  0
GROUP
  5
EA6E4F459
102
{ACAD_REACTORS
330
EA6E4DC88
102
}
330
EA6E4DC88
100
AcDbGroup
300

 70
     1
 71
     1
  0
GROUP
  5
EA6E4F4BF
102
{ACAD_REACTORS
330
EA6E4DC88
102
}
330
EA6E4DC88
100
AcDbGroup
300

 70
     1
 71
     1
  0
GROUP
  5
EA6E4F4C0
102
{ACAD_REACTORS
330
EA6E4DC88
102
}
330
EA6E4DC88
100
AcDbGroup
300

 70
     1
 71
     1
  0
GROUP
  5
EA6E4F4C1
102
{ACAD_REACTORS
330
EA6E4DC88
102
}
330
EA6E4DC88
100
AcDbGroup
300

 70
     1
 71
     1
  0
GROUP
  5
EA6E4F4A9
102
{ACAD_REACTORS
330
EA6E4DC88
102
}
330
EA6E4DC88
100
AcDbGroup
300

 70
     1
 71
     1
  0
GROUP
  5
EA6E4F4C2
102
{ACAD_REACTORS
330
EA6E4DC88
102
}
330
EA6E4DC88
100
AcDbGroup
300

 70
     3
 71
     1
  0
GROUP
  5
EA6E4F4C3
102
{ACAD_REACTORS
330
EA6E4DC88
102
}
330
EA6E4DC88
100
AcDbGroup
300

 70
     1
 71
     1
  0
GROUP
  5
EA6E54443
102
{ACAD_REACTORS
330
EA6E4DC88
102
}
330
EA6E4DC88
100
AcDbGroup
300

 70
     1
 71
     1
  0
GROUP
  5
EA6E4F4C4
102
{ACAD_REACTORS
330
EA6E4DC88
102
}
330
EA6E4DC88
100
AcDbGroup
300

 70
     1
 71
     1
  0
GROUP
  5
EA6E4F47D
102
{ACAD_REACTORS
330
EA6E4DC88
102
}
330
EA6E4DC88
100
AcDbGroup
300

 70
     3
 71
     1
  0
GROUP
  5
EA6E4F4C5
102
{ACAD_REACTORS
330
EA6E4DC88
102
}
330
EA6E4DC88
100
AcDbGroup
300

 70
     1
 71
     1
  0
GROUP
  5
EA6E4F4C6
102
{ACAD_REACTORS
330
EA6E4DC88
102
}
330
EA6E4DC88
100
AcDbGroup
300

 70
     1
 71
     1
  0
GROUP
  5
EA6E4F45A
102
{ACAD_REACTORS
330
EA6E4DC88
102
}
330
EA6E4DC88
100
AcDbGroup
300

 70
     1
 71
     1
  0
GROUP
  5
EA6E4F452
102
{ACAD_REACTORS
330
EA6E4DC88
102
}
330
EA6E4DC88
100
AcDbGroup
300

 70
     1
 71
     1
  0
GROUP
  5
EA6E4F4C7
102
{ACAD_REACTORS
330
EA6E4DC88
102
}
330
EA6E4DC88
100
AcDbGroup
300

 70
     1
 71
     1
  0
GROUP
  5
EA6E4F4C8
102
{ACAD_REACTORS
330
EA6E4DC88
102
}
330
EA6E4DC88
100
AcDbGroup
300

 70
     1
 71
     1
  0
GROUP
  5
EA6E4F4C9
102
{ACAD_REACTORS
330
EA6E4DC88
102
}
330
EA6E4DC88
100
AcDbGroup
300

 70
     1
 71
     1
  0
GROUP
  5
EA6E4F4CA
102
{ACAD_REACTORS
330
EA6E4DC88
102
}
330
EA6E4DC88
100
AcDbGroup
300

 70
     1
 71
     1
  0
GROUP
  5
EA6E4F4DC
102
{ACAD_REACTORS
330
EA6E4DC88
102
}
330
EA6E4DC88
100
AcDbGroup
300

 70
     1
 71
     1
  0
GROUP
  5
EA6E4F4AA
102
{ACAD_REACTORS
330
EA6E4DC88
102
}
330
EA6E4DC88
100
AcDbGroup
300

 70
     1
 71
     1
  0
GROUP
  5
EA6E4F4CB
102
{ACAD_REACTORS
330
EA6E4DC88
102
}
330
EA6E4DC88
100
AcDbGroup
300

 70
     1
 71
     1
  0
GROUP
  5
EA6E4F4CC
102
{ACAD_REACTORS
330
EA6E4DC88
102
}
330
EA6E4DC88
100
AcDbGroup
300

 70
     1
 71
     1
  0
GROUP
  5
EA6E4F47E
102
{ACAD_REACTORS
330
EA6E4DC88
102
}
330
EA6E4DC88
100
AcDbGroup
300

 70
     1
 71
     1
  0
GROUP
  5
EA6E4F4CD
102
{ACAD_REACTORS
330
EA6E4DC88
102
}
330
EA6E4DC88
100
AcDbGroup
300

 70
     1
 71
     1
  0
GROUP
  5
EA6E4F45B
102
{ACAD_REACTORS
330
EA6E4DC88
102
}
330
EA6E4DC88
100
AcDbGroup
300

 70
     1
 71
     1
  0
GROUP
  5
EA6E4F4CE
102
{ACAD_REACTORS
330
EA6E4DC88
102
}
330
EA6E4DC88
100
AcDbGroup
300

 70
     1
 71
     1
  0
GROUP
  5
EA6E4F4CF
102
{ACAD_REACTORS
330
EA6E4DC88
102
}
330
EA6E4DC88
100
AcDbGroup
300

 70
     1
 71
     1
  0
GROUP
  5
EA6E4F4D0
102
{ACAD_REACTORS
330
EA6E4DC88
102
}
330
EA6E4DC88
100
AcDbGroup
300

 70
     1
 71
     1
  0
GROUP
  5
EA6E4F453
102
{ACAD_REACTORS
330
EA6E4DC88
102
}
330
EA6E4DC88
100
AcDbGroup
300

 70
     1
 71
     1
  0
GROUP
  5
EA6E54444
102
{ACAD_REACTORS
330
EA6E4DC88
102
}
330
EA6E4DC88
100
AcDbGroup
300

 70
     1
 71
     1
  0
GROUP
  5
EA6E4F4D1
102
{ACAD_REACTORS
330
EA6E4DC88
102
}
330
EA6E4DC88
100
AcDbGroup
300

 70
     1
 71
     1
  0
GROUP
  5
EA6E4F4D2
102
{ACAD_REACTORS
330
EA6E4DC88
102
}
330
EA6E4DC88
100
AcDbGroup
300

 70
     1
 71
     1
  0
GROUP
  5
EA6E4F4D3
102
{ACAD_REACTORS
330
EA6E4DC88
102
}
330
EA6E4DC88
100
AcDbGroup
300

 70
     1
 71
     1
  0
GROUP
  5
EA6E4F4AB
102
{ACAD_REACTORS
330
EA6E4DC88
102
}
330
EA6E4DC88
100
AcDbGroup
300

 70
     1
 71
     1
  0
GROUP
  5
EA6E4F4D4
102
{ACAD_REACTORS
330
EA6E4DC88
102
}
330
EA6E4DC88
100
AcDbGroup
300

 70
     1
 71
     1
  0
GROUP
  5
EA6E4F45C
102
{ACAD_REACTORS
330
EA6E4DC88
102
}
330
EA6E4DC88
100
AcDbGroup
300

 70
     1
 71
     1
  0
GROUP
  5
EA6E4F44B
102
{ACAD_REACTORS
330
EA6E4DC88
102
}
330
EA6E4DC88
100
AcDbGroup
300

 70
     1
 71
     1
  0
GROUP
  5
EA6E4F4AD
102
{ACAD_REACTORS
330
EA6E4DC88
102
}
330
EA6E4DC88
100
AcDbGroup
300

 70
     1
 71
     1
  0
GROUP
  5
EA6E4F45D
102
{ACAD_REACTORS
330
EA6E4DC88
102
}
330
EA6E4DC88
100
AcDbGroup
300

 70
     1
 71
     1
  0
GROUP
  5
EA6E4F45E
102
{ACAD_REACTORS
330
EA6E4DC88
102
}
330
EA6E4DC88
100
AcDbGroup
300

 70
     1
 71
     1
  0
GROUP
  5
EA6E54445
102
{ACAD_REACTORS
330
EA6E4DC88
102
}
330
EA6E4DC88
100
AcDbGroup
300

 70
     1
 71
     1
  0
GROUP
  5
EA6E4F45F
102
{ACAD_REACTORS
330
EA6E4DC88
102
}
330
EA6E4DC88
100
AcDbGroup
300

 70
     1
 71
     1
  0
GROUP
  5
EA6E4F460
102
{ACAD_REACTORS
330
EA6E4DC88
102
}
330
EA6E4DC88
100
AcDbGroup
300

 70
     1
 71
     1
  0
GROUP
  5
EA6E4F4D5
102
{ACAD_REACTORS
330
EA6E4DC88
102
}
330
EA6E4DC88
100
AcDbGroup
300

 70
     1
 71
     1
  0
GROUP
  5
EA6E4F461
102
{ACAD_REACTORS
330
EA6E4DC88
102
}
330
EA6E4DC88
100
AcDbGroup
300

 70
     1
 71
     1
  0
GROUP
  5
EA6E4F462
102
{ACAD_REACTORS
330
EA6E4DC88
102
}
330
EA6E4DC88
100
AcDbGroup
300

 70
     1
 71
     1
  0
GROUP
  5
EA6E4F448
102
{ACAD_REACTORS
330
EA6E4DC88
102
}
330
EA6E4DC88
100
AcDbGroup
300

 70
     1
 71
     1
  0
GROUP
  5
EA6E4F463
102
{ACAD_REACTORS
330
EA6E4DC88
102
}
330
EA6E4DC88
100
AcDbGroup
300

 70
     1
 71
     1
  0
GROUP
  5
EA6E4F464
102
{ACAD_REACTORS
330
EA6E4DC88
102
}
330
EA6E4DC88
100
AcDbGroup
300

 70
     1
 71
     1
  0
GROUP
  5
EA6E4F4B1
102
{ACAD_REACTORS
330
EA6E4DC88
102
}
330
EA6E4DC88
100
AcDbGroup
300

 70
     1
 71
     1
  0
GROUP
  5
EA6E4F465
102
{ACAD_REACTORS
330
EA6E4DC88
102
}
330
EA6E4DC88
100
AcDbGroup
300

 70
     1
 71
     1
  0
GROUP
  5
EA6E4F4B0
102
{ACAD_REACTORS
330
EA6E4DC88
102
}
330
EA6E4DC88
100
AcDbGroup
300

 70
     1
 71
     1
  0
GROUP
  5
EA6E4F4AE
102
{ACAD_REACTORS
330
EA6E4DC88
102
}
330
EA6E4DC88
100
AcDbGroup
300

 70
     1
 71
     1
  0
GROUP
  5
EA6E4F466
102
{ACAD_REACTORS
330
EA6E4DC88
102
}
330
EA6E4DC88
100
AcDbGroup
300

 70
     1
 71
     1
  0
GROUP
  5
EA6E4F467
102
{ACAD_REACTORS
330
EA6E4DC88
102
}
330
EA6E4DC88
100
AcDbGroup
300

 70
     1
 71
     1
  0
GROUP
  5
EA6E4F4D6
102
{ACAD_REACTORS
330
EA6E4DC88
102
}
330
EA6E4DC88
100
AcDbGroup
300

 70
     1
 71
     1
  0
GROUP
  5
EA6E4F468
102
{ACAD_REACTORS
330
EA6E4DC88
102
}
330
EA6E4DC88
100
AcDbGroup
300

 70
     1
 71
     1
  0
GROUP
  5
EA6E4F469
102
{ACAD_REACTORS
330
EA6E4DC88
102
}
330
EA6E4DC88
100
AcDbGroup
300

 70
     1
 71
     1
  0
GROUP
  5
EA6E4F46A
102
{ACAD_REACTORS
330
EA6E4DC88
102
}
330
EA6E4DC88
100
AcDbGroup
300

 70
     1
 71
     1
  0
GROUP
  5
EA6E4F46B
102
{ACAD_REACTORS
330
EA6E4DC88
102
}
330
EA6E4DC88
100
AcDbGroup
300

 70
     1
 71
     1
  0
GROUP
  5
EA6E4F46C
102
{ACAD_REACTORS
330
EA6E4DC88
102
}
330
EA6E4DC88
100
AcDbGroup
300

 70
     1
 71
     1
  0
GROUP
  5
EA6E4F449
102
{ACAD_REACTORS
330
EA6E4DC88
102
}
330
EA6E4DC88
100
AcDbGroup
300

 70
     1
 71
     1
  0
GROUP
  5
EA6E4F487
102
{ACAD_REACTORS
330
EA6E4DC88
102
}
330
EA6E4DC88
100
AcDbGroup
300

 70
     1
 71
     1
  0
GROUP
  5
EA6E4F481
102
{ACAD_REACTORS
330
EA6E4DC88
102
}
330
EA6E4DC88
100
AcDbGroup
300

 70
     1
 71
     1
  0
GROUP
  5
EA6E4F46D
102
{ACAD_REACTORS
330
EA6E4DC88
102
}
330
EA6E4DC88
100
AcDbGroup
300

 70
     1
 71
     1
  0
GROUP
  5
EA6E4F46E
102
{ACAD_REACTORS
330
EA6E4DC88
102
}
330
EA6E4DC88
100
AcDbGroup
300

 70
     1
 71
     1
  0
GROUP
  5
EA6E4F4AF
102
{ACAD_REACTORS
330
EA6E4DC88
102
}
330
EA6E4DC88
100
AcDbGroup
300

 70
     1
 71
     1
  0
GROUP
  5
EA6E4F4D7
102
{ACAD_REACTORS
330
EA6E4DC88
102
}
330
EA6E4DC88
100
AcDbGroup
300

 70
     3
 71
     1
  0
GROUP
  5
EA6E4F46F
102
{ACAD_REACTORS
330
EA6E4DC88
102
}
330
EA6E4DC88
100
AcDbGroup
300

 70
     1
 71
     1
  0
GROUP
  5
EA6E4F470
102
{ACAD_REACTORS
330
EA6E4DC88
102
}
330
EA6E4DC88
100
AcDbGroup
300

 70
     1
 71
     1
  0
GROUP
  5
EA6E4F471
102
{ACAD_REACTORS
330
EA6E4DC88
102
}
330
EA6E4DC88
100
AcDbGroup
300

 70
     1
 71
     1
  0
GROUP
  5
EA6E4F472
102
{ACAD_REACTORS
330
EA6E4DC88
102
}
330
EA6E4DC88
100
AcDbGroup
300

 70
     1
 71
     1
  0
GROUP
  5
EA6E4F473
102
{ACAD_REACTORS
330
EA6E4DC88
102
}
330
EA6E4DC88
100
AcDbGroup
300

 70
     1
 71
     1
  0
GROUP
  5
EA6E54446
102
{ACAD_REACTORS
330
EA6E4DC88
102
}
330
EA6E4DC88
100
AcDbGroup
300

 70
     1
 71
     1
  0
GROUP
  5
EA6E4F474
102
{ACAD_REACTORS
330
EA6E4DC88
102
}
330
EA6E4DC88
100
AcDbGroup
300

 70
     1
 71
     1
  0
GROUP
  5
EA6E4F475
102
{ACAD_REACTORS
330
EA6E4DC88
102
}
330
EA6E4DC88
100
AcDbGroup
300

 70
     1
 71
     1
  0
GROUP
  5
EA6E4F482
102
{ACAD_REACTORS
330
EA6E4DC88
102
}
330
EA6E4DC88
100
AcDbGroup
300

 70
     1
 71
     1
  0
GROUP
  5
EA6E4F476
102
{ACAD_REACTORS
330
EA6E4DC88
102
}
330
EA6E4DC88
100
AcDbGroup
300

 70
     1
 71
     1
  0
GROUP
  5
EA6E4F44A
102
{ACAD_REACTORS
330
EA6E4DC88
102
}
330
EA6E4DC88
100
AcDbGroup
300

 70
     1
 71
     1
  0
GROUP
  5
EA6E4F4D8
102
{ACAD_REACTORS
330
EA6E4DC88
102
}
330
EA6E4DC88
100
AcDbGroup
300

 70
     1
 71
     1
  0
GROUP
  5
EA6E4F477
102
{ACAD_REACTORS
330
EA6E4DC88
102
}
330
EA6E4DC88
100
AcDbGroup
300

 70
     1
 71
     1
  0
GROUP
  5
EA6E54417
102
{ACAD_REACTORS
330
EA6E4DC88
102
}
330
EA6E4DC88
100
AcDbGroup
300

 70
     1
 71
     1
  0
GROUP
  5
EA6E54418
102
{ACAD_REACTORS
330
EA6E4DC88
102
}
330
EA6E4DC88
100
AcDbGroup
300

 70
     1
 71
     1
  0
GROUP
  5
EA6E54419
102
{ACAD_REACTORS
330
EA6E4DC88
102
}
330
EA6E4DC88
100
AcDbGroup
300

 70
     1
 71
     1
  0
GROUP
  5
EA6E54447
102
{ACAD_REACTORS
330
EA6E4DC88
102
}
330
EA6E4DC88
100
AcDbGroup
300

 70
     1
 71
     1
  0
GROUP
  5
EA6E5441A
102
{ACAD_REACTORS
330
EA6E4DC88
102
}
330
EA6E4DC88
100
AcDbGroup
300

 70
     1
 71
     1
  0
GROUP
  5
EA6E5441B
102
{ACAD_REACTORS
330
EA6E4DC88
102
}
330
EA6E4DC88
100
AcDbGroup
300

 70
     1
 71
     1
  0
GROUP
  5
EA6E5441C
102
{ACAD_REACTORS
330
EA6E4DC88
102
}
330
EA6E4DC88
100
AcDbGroup
300

 70
     1
 71
     1
  0
GROUP
  5
EA6E5441D
102
{ACAD_REACTORS
330
EA6E4DC88
102
}
330
EA6E4DC88
100
AcDbGroup
300

 70
     1
 71
     1
  0
GROUP
  5
EA6E4F483
102
{ACAD_REACTORS
330
EA6E4DC88
102
}
330
EA6E4DC88
100
AcDbGroup
300

 70
     1
 71
     1
  0
GROUP
  5
EA6E5441E
102
{ACAD_REACTORS
330
EA6E4DC88
102
}
330
EA6E4DC88
100
AcDbGroup
300

 70
     1
 71
     1
  0
GROUP
  5
EA6E4F4D9
102
{ACAD_REACTORS
330
EA6E4DC88
102
}
330
EA6E4DC88
100
AcDbGroup
300

 70
     1
 71
     1
  0
GROUP
  5
EA6E5441F
102
{ACAD_REACTORS
330
EA6E4DC88
102
}
330
EA6E4DC88
100
AcDbGroup
300

 70
     1
 71
     1
  0
GROUP
  5
EA6E54420
102
{ACAD_REACTORS
330
EA6E4DC88
102
}
330
EA6E4DC88
100
AcDbGroup
300

 70
     1
 71
     1
  0
GROUP
  5
EA6E54421
102
{ACAD_REACTORS
330
EA6E4DC88
102
}
330
EA6E4DC88
100
AcDbGroup
300

 70
     1
 71
     1
  0
GROUP
  5
EA6E4F4DB
102
{ACAD_REACTORS
330
EA6E4DC88
102
}
330
EA6E4DC88
100
AcDbGroup
300

 70
     1
 71
     1
  0
GROUP
  5
EA6E54448
102
{ACAD_REACTORS
330
EA6E4DC88
102
}
330
EA6E4DC88
100
AcDbGroup
300

 70
     1
 71
     1
  0
GROUP
  5
EA6E54422
102
{ACAD_REACTORS
330
EA6E4DC88
102
}
330
EA6E4DC88
100
AcDbGroup
300

 70
     1
 71
     1
  0
GROUP
  5
EA6E54423
102
{ACAD_REACTORS
330
EA6E4DC88
102
}
330
EA6E4DC88
100
AcDbGroup
300

 70
     1
 71
     1
  0
GROUP
  5
EA6E54424
102
{ACAD_REACTORS
330
EA6E4DC88
102
}
330
EA6E4DC88
100
AcDbGroup
300

 70
     1
 71
     1
  0
GROUP
  5
EA6E54425
102
{ACAD_REACTORS
330
EA6E4DC88
102
}
330
EA6E4DC88
100
AcDbGroup
300

 70
     1
 71
     1
  0
GROUP
  5
EA6E54426
102
{ACAD_REACTORS
330
EA6E4DC88
102
}
330
EA6E4DC88
100
AcDbGroup
300

 70
     1
 71
     1
  0
GROUP
  5
EA6E54427
102
{ACAD_REACTORS
330
EA6E4DC88
102
}
330
EA6E4DC88
100
AcDbGroup
300

 70
     1
 71
     1
  0
GROUP
  5
EA6E4F484
102
{ACAD_REACTORS
330
EA6E4DC88
102
}
330
EA6E4DC88
100
AcDbGroup
300

 70
     1
 71
     1
  0
GROUP
  5
EA6E4F4DA
102
{ACAD_REACTORS
330
EA6E4DC88
102
}
330
EA6E4DC88
100
AcDbGroup
300

 70
     1
 71
     1
  0
GROUP
  5
EA6E54428
102
{ACAD_REACTORS
330
EA6E4DC88
102
}
330
EA6E4DC88
100
AcDbGroup
300

 70
     1
 71
     1
  0
GROUP
  5
EA6E54429
102
{ACAD_REACTORS
330
EA6E4DC88
102
}
330
EA6E4DC88
100
AcDbGroup
300

 70
     1
 71
     1
  0
GROUP
  5
EA6E54449
102
{ACAD_REACTORS
330
EA6E4DC88
102
}
330
EA6E4DC88
100
AcDbGroup
300

 70
     1
 71
     1
  0
GROUP
  5
EA6E5442A
102
{ACAD_REACTORS
330
EA6E4DC88
102
}
330
EA6E4DC88
100
AcDbGroup
300

 70
     1
 71
     1
  0
GROUP
  5
EA6E5442B
102
{ACAD_REACTORS
330
EA6E4DC88
102
}
330
EA6E4DC88
100
AcDbGroup
300

 70
     1
 71
     1
  0
GROUP
  5
EA6E5442C
102
{ACAD_REACTORS
330
EA6E4DC88
102
}
330
EA6E4DC88
100
AcDbGroup
300

 70
     1
 71
     1
  0
GROUP
  5
EA6E5442D
102
{ACAD_REACTORS
330
EA6E4DC88
102
}
330
EA6E4DC88
100
AcDbGroup
300

 70
     3
 71
     1
  0
GROUP
  5
EA6E5442E
102
{ACAD_REACTORS
330
EA6E4DC88
102
}
330
EA6E4DC88
100
AcDbGroup
300

 70
     1
 71
     1
  0
GROUP
  5
EA6E5442F
102
{ACAD_REACTORS
330
EA6E4DC88
102
}
330
EA6E4DC88
100
AcDbGroup
300

 70
     1
 71
     1
  0
GROUP
  5
EA6E54430
102
{ACAD_REACTORS
330
EA6E4DC88
102
}
330
EA6E4DC88
100
AcDbGroup
300

 70
     1
 71
     1
  0
GROUP
  5
EA6E54431
102
{ACAD_REACTORS
330
EA6E4DC88
102
}
330
EA6E4DC88
100
AcDbGroup
300

 70
     1
 71
     1
  0
GROUP
  5
EA6E4F454
102
{ACAD_REACTORS
330
EA6E4DC88
102
}
330
EA6E4DC88
100
AcDbGroup
300

 70
     1
 71
     1
  0
GROUP
  5
EA6E4F485
102
{ACAD_REACTORS
330
EA6E4DC88
102
}
330
EA6E4DC88
100
AcDbGroup
300

 70
     1
 71
     1
  0
GROUP
  5
EA6E5444A
102
{ACAD_REACTORS
330
EA6E4DC88
102
}
330
EA6E4DC88
100
AcDbGroup
300

 70
     1
 71
     1
  0
GROUP
  5
EA6E54432
102
{ACAD_REACTORS
330
EA6E4DC88
102
}
330
EA6E4DC88
100
AcDbGroup
300

 70
     1
 71
     1
  0
GROUP
  5
EA6E54433
102
{ACAD_REACTORS
330
EA6E4DC88
102
}
330
EA6E4DC88
100
AcDbGroup
300

 70
     1
 71
     1
  0
GROUP
  5
EA6E54434
102
{ACAD_REACTORS
330
EA6E4DC88
102
}
330
EA6E4DC88
100
AcDbGroup
300

 70
     1
 71
     1
  0
GROUP
  5
EA6E54435
102
{ACAD_REACTORS
330
EA6E4DC88
102
}
330
EA6E4DC88
100
AcDbGroup
300

 70
     1
 71
     1
  0
GROUP
  5
EA6E54436
102
{ACAD_REACTORS
330
EA6E4DC88
102
}
330
EA6E4DC88
100
AcDbGroup
300

 70
     1
 71
     1
  0
GROUP
  5
EA6E54437
102
{ACAD_REACTORS
330
EA6E4DC88
102
}
330
EA6E4DC88
100
AcDbGroup
300

 70
     1
 71
     1
  0
GROUP
  5
EA6E54438
102
{ACAD_REACTORS
330
EA6E4DC88
102
}
330
EA6E4DC88
100
AcDbGroup
300

 70
     1
 71
     1
  0
GROUP
  5
EA6E54439
102
{ACAD_REACTORS
330
EA6E4DC88
102
}
330
EA6E4DC88
100
AcDbGroup
300

 70
     1
 71
     1
  0
GROUP
  5
EA6E5443A
102
{ACAD_REACTORS
330
EA6E4DC88
102
}
330
EA6E4DC88
100
AcDbGroup
300

 70
     1
 71
     1
  0
GROUP
  5
EA6E5444B
102
{ACAD_REACTORS
330
EA6E4DC88
102
}
330
EA6E4DC88
100
AcDbGroup
300

 70
     1
 71
     1
  0
GROUP
  5
EA6E4F4AC
102
{ACAD_REACTORS
330
EA6E4DC88
102
}
330
EA6E4DC88
100
AcDbGroup
300

 70
     1
 71
     1
  0
GROUP
  5
EA6E5444C
102
{ACAD_REACTORS
330
EA6E4DC88
102
}
330
EA6E4DC88
100
AcDbGroup
300

 70
     1
 71
     1
  0
GROUP
  5
EA6E5444D
102
{ACAD_REACTORS
330
EA6E4DC88
102
}
330
EA6E4DC88
100
AcDbGroup
300

 70
     1
 71
     1
  0
GROUP
  5
EA6E5444E
102
{ACAD_REACTORS
330
EA6E4DC88
102
}
330
EA6E4DC88
100
AcDbGroup
300

 70
     1
 71
     1
  0
GROUP
  5
EA6E5444F
102
{ACAD_REACTORS
330
EA6E4DC88
102
}
330
EA6E4DC88
100
AcDbGroup
300

 70
     3
 71
     1
  0
GROUP
  5
EA6E4F488
102
{ACAD_REACTORS
330
EA6E4DC88
102
}
330
EA6E4DC88
100
AcDbGroup
300

 70
     1
 71
     1
  0
GROUP
  5
EA6E5443B
102
{ACAD_REACTORS
330
EA6E4DC88
102
}
330
EA6E4DC88
100
AcDbGroup
300

 70
     3
 71
     1
  0
GROUP
  5
EA6E54450
102
{ACAD_REACTORS
330
EA6E4DC88
102
}
330
EA6E4DC88
100
AcDbGroup
300

 70
     1
 71
     1
  0
GROUP
  5
EA6E54451
102
{ACAD_REACTORS
330
EA6E4DC88
102
}
330
EA6E4DC88
100
AcDbGroup
300

 70
     1
 71
     1
  0
GROUP
  5
EA6E54452
102
{ACAD_REACTORS
330
EA6E4DC88
102
}
330
EA6E4DC88
100
AcDbGroup
300

 70
     1
 71
     1
  0
GROUP
  5
EA6E54453
102
{ACAD_REACTORS
330
EA6E4DC88
102
}
330
EA6E4DC88
100
AcDbGroup
300

 70
     1
 71
     1
  0
GROUP
  5
EA6E54454
102
{ACAD_REACTORS
330
EA6E4DC88
102
}
330
EA6E4DC88
100
AcDbGroup
300

 70
     1
 71
     1
  0
GROUP
  5
EA6E4F480
102
{ACAD_REACTORS
330
EA6E4DC88
102
}
330
EA6E4DC88
100
AcDbGroup
300

 70
     1
 71
     1
  0
GROUP
  5
EA6E54455
102
{ACAD_REACTORS
330
EA6E4DC88
102
}
330
EA6E4DC88
100
AcDbGroup
300

 70
     1
 71
     1
  0
GROUP
  5
EA6E54456
102
{ACAD_REACTORS
330
EA6E4DC88
102
}
330
EA6E4DC88
100
AcDbGroup
300

 70
     1
 71
     1
  0
GROUP
  5
EA6E54457
102
{ACAD_REACTORS
330
EA6E4DC88
102
}
330
EA6E4DC88
100
AcDbGroup
300

 70
     1
 71
     1
  0
GROUP
  5
EA6E54458
102
{ACAD_REACTORS
330
EA6E4DC88
102
}
330
EA6E4DC88
100
AcDbGroup
300

 70
     1
 71
     1
  0
GROUP
  5
EA6E4F486
102
{ACAD_REACTORS
330
EA6E4DC88
102
}
330
EA6E4DC88
100
AcDbGroup
300

 70
     1
 71
     1
  0
GROUP
  5
EA6E54459
102
{ACAD_REACTORS
330
EA6E4DC88
102
}
330
EA6E4DC88
100
AcDbGroup
300

 70
     1
 71
     1
  0
GROUP
  5
EA6E4F489
102
{ACAD_REACTORS
330
EA6E4DC88
102
}
330
EA6E4DC88
100
AcDbGroup
300

 70
     1
 71
     1
  0
GROUP
  5
EA6E5445A
102
{ACAD_REACTORS
330
EA6E4DC88
102
}
330
EA6E4DC88
100
AcDbGroup
300

 70
     1
 71
     1
  0
GROUP
  5
EA6E5445B
102
{ACAD_REACTORS
330
EA6E4DC88
102
}
330
EA6E4DC88
100
AcDbGroup
300

 70
     1
 71
     1
  0
GROUP
  5
EA6E5445C
102
{ACAD_REACTORS
330
EA6E4DC88
102
}
330
EA6E4DC88
100
AcDbGroup
300

 70
     3
 71
     1
  0
GROUP
  5
EA6E5445D
102
{ACAD_REACTORS
330
EA6E4DC88
102
}
330
EA6E4DC88
100
AcDbGroup
300

 70
     1
 71
     1
  0
GROUP
  5
EA6E4F4DD
102
{ACAD_REACTORS
330
EA6E4DC88
102
}
330
EA6E4DC88
100
AcDbGroup
300

 70
     1
 71
     1
  0
GROUP
  5
EA6E5445E
102
{ACAD_REACTORS
330
EA6E4DC88
102
}
330
EA6E4DC88
100
AcDbGroup
300

 70
     1
 71
     1
  0
GROUP
  5
EA6E5445F
102
{ACAD_REACTORS
330
EA6E4DC88
102
}
330
EA6E4DC88
100
AcDbGroup
300

 70
     1
 71
     1
  0
GROUP
  5
EA6E54460
102
{ACAD_REACTORS
330
EA6E4DC88
102
}
330
EA6E4DC88
100
AcDbGroup
300

 70
     1
 71
     1
  0
GROUP
  5
EA6E5443C
102
{ACAD_REACTORS
330
EA6E4DC88
102
}
330
EA6E4DC88
100
AcDbGroup
300

 70
     1
 71
     1
  0
GROUP
  5
EA6E54461
102
{ACAD_REACTORS
330
EA6E4DC88
102
}
330
EA6E4DC88
100
AcDbGroup
300

 70
     1
 71
     1
  0
GROUP
  5
EA6E54462
102
{ACAD_REACTORS
330
EA6E4DC88
102
}
330
EA6E4DC88
100
AcDbGroup
300

 70
     1
 71
     1
  0
GROUP
  5
EA6E4F48A
102
{ACAD_REACTORS
330
EA6E4DC88
102
}
330
EA6E4DC88
100
AcDbGroup
300

 70
     1
 71
     1
  0
GROUP
  5
EA6E4F4B2
102
{ACAD_REACTORS
330
EA6E4DC88
102
}
330
EA6E4DC88
100
AcDbGroup
300

 70
     1
 71
     1
  0
GROUP
  5
EA6E4F44C
102
{ACAD_REACTORS
330
EA6E4DC88
102
}
330
EA6E4DC88
100
AcDbGroup
300

 70
     1
 71
     1
  0
GROUP
  5
EA6E4F48B
102
{ACAD_REACTORS
330
EA6E4DC88
102
}
330
EA6E4DC88
100
AcDbGroup
300

 70
     1
 71
     1
  0
GROUP
  5
EA6E4F48C
102
{ACAD_REACTORS
330
EA6E4DC88
102
}
330
EA6E4DC88
100
AcDbGroup
300

 70
     1
 71
     1
  0
GROUP
  5
EA6E4F455
102
{ACAD_REACTORS
330
EA6E4DC88
102
}
330
EA6E4DC88
100
AcDbGroup
300

 70
     1
 71
     1
  0
GROUP
  5
EA6E4F48D
102
{ACAD_REACTORS
330
EA6E4DC88
102
}
330
EA6E4DC88
100
AcDbGroup
300

 70
     1
 71
     1
  0
GROUP
  5
EA6E4F48E
102
{ACAD_REACTORS
330
EA6E4DC88
102
}
330
EA6E4DC88
100
AcDbGroup
300

 70
     1
 71
     1
  0
GROUP
  5
EA6E5443D
102
{ACAD_REACTORS
330
EA6E4DC88
102
}
330
EA6E4DC88
100
AcDbGroup
300

 70
     1
 71
     1
  0
GROUP
  5
EA6E4F478
102
{ACAD_REACTORS
330
EA6E4DC88
102
}
330
EA6E4DC88
100
AcDbGroup
300

 70
     1
 71
     1
  0
GROUP
  5
EA6E4F48F
102
{ACAD_REACTORS
330
EA6E4DC88
102
}
330
EA6E4DC88
100
AcDbGroup
300

 70
     1
 71
     1
  0
GROUP
  5
EA6E4F490
102
{ACAD_REACTORS
330
EA6E4DC88
102
}
330
EA6E4DC88
100
AcDbGroup
300

 70
     1
 71
     1
  0
GROUP
  5
EA6E4F491
102
{ACAD_REACTORS
330
EA6E4DC88
102
}
330
EA6E4DC88
100
AcDbGroup
300

 70
     1
 71
     1
  0
GROUP
  5
EA6E4F492
102
{ACAD_REACTORS
330
EA6E4DC88
102
}
330
EA6E4DC88
100
AcDbGroup
300

 70
     3
 71
     1
  0
GROUP
  5
EA6E4F493
102
{ACAD_REACTORS
330
EA6E4DC88
102
}
330
EA6E4DC88
100
AcDbGroup
300

 70
     1
 71
     1
  0
GROUP
  5
EA6E4F450
102
{ACAD_REACTORS
330
EA6E4DC88
102
}
330
EA6E4DC88
100
AcDbGroup
300

 70
     1
 71
     1
  0
GROUP
  5
EA6E4F494
102
{ACAD_REACTORS
330
EA6E4DC88
102
}
330
EA6E4DC88
100
AcDbGroup
300

 70
     1
 71
     1
  0
GROUP
  5
EA6E4F456
102
{ACAD_REACTORS
330
EA6E4DC88
102
}
330
EA6E4DC88
100
AcDbGroup
300

 70
     1
 71
     1
  0
GROUP
  5
EA6E4F44D
102
{ACAD_REACTORS
330
EA6E4DC88
102
}
330
EA6E4DC88
100
AcDbGroup
300

 70
     1
 71
     1
  0
GROUP
  5
EA6E5443E
102
{ACAD_REACTORS
330
EA6E4DC88
102
}
330
EA6E4DC88
100
AcDbGroup
300

 70
     1
 71
     1
  0
GROUP
  5
EA6E4F495
102
{ACAD_REACTORS
330
EA6E4DC88
102
}
330
EA6E4DC88
100
AcDbGroup
300

 70
     1
 71
     1
  0
GROUP
  5
EA6E4F496
102
{ACAD_REACTORS
330
EA6E4DC88
102
}
330
EA6E4DC88
100
AcDbGroup
300

 70
     1
 71
     1
  0
GROUP
  5
EA6E4F479
102
{ACAD_REACTORS
330
EA6E4DC88
102
}
330
EA6E4DC88
100
AcDbGroup
300

 70
     1
 71
     1
  0
GROUP
  5
EA6E4F497
102
{ACAD_REACTORS
330
EA6E4DC88
102
}
330
EA6E4DC88
100
AcDbGroup
300

 70
     1
 71
     1
  0
GROUP
  5
EA6E4F498
102
{ACAD_REACTORS
330
EA6E4DC88
102
}
330
EA6E4DC88
100
AcDbGroup
300

 70
     1
 71
     1
  0
GROUP
  5
EA6E4F499
102
{ACAD_REACTORS
330
EA6E4DC88
102
}
330
EA6E4DC88
100
AcDbGroup
300

 70
     1
 71
     1
  0
GROUP
  5
EA6E4F49A
102
{ACAD_REACTORS
330
EA6E4DC88
102
}
330
EA6E4DC88
100
AcDbGroup
300

 70
     1
 71
     1
  0
GROUP
  5
EA6E4F49B
102
{ACAD_REACTORS
330
EA6E4DC88
102
}
330
EA6E4DC88
100
AcDbGroup
300

 70
     1
 71
     1
  0
GROUP
  5
EA6E4F49C
102
{ACAD_REACTORS
330
EA6E4DC88
102
}
330
EA6E4DC88
100
AcDbGroup
300

 70
     1
 71
     1
  0
GROUP
  5
EA6E4F457
102
{ACAD_REACTORS
330
EA6E4DC88
102
}
330
EA6E4DC88
100
AcDbGroup
300

 70
     1
 71
     1
  0
GROUP
  5
EA6E5443F
102
{ACAD_REACTORS
330
EA6E4DC88
102
}
330
EA6E4DC88
100
AcDbGroup
300

 70
     1
 71
     1
  0
GROUP
  5
EA6E4F4B3
102
{ACAD_REACTORS
330
EA6E4DC88
102
}
330
EA6E4DC88
100
AcDbGroup
300

 70
     1
 71
     1
  0
GROUP
  5
EA6E4F49D
102
{ACAD_REACTORS
330
EA6E4DC88
102
}
330
EA6E4DC88
100
AcDbGroup
300

 70
     1
 71
     1
  0
GROUP
  5
EA6E4F49E
102
{ACAD_REACTORS
330
EA6E4DC88
102
}
330
EA6E4DC88
100
AcDbGroup
300

 70
     1
 71
     1
  0
GROUP
  5
EA6E4F44E
102
{ACAD_REACTORS
330
EA6E4DC88
102
}
330
EA6E4DC88
100
AcDbGroup
300

 70
     1
 71
     1
  0
GROUP
  5
EA6E4F47A
102
{ACAD_REACTORS
330
EA6E4DC88
102
}
330
EA6E4DC88
100
AcDbGroup
300

 70
     1
 71
     1
  0
GROUP
  5
EA6E4F49F
102
{ACAD_REACTORS
330
EA6E4DC88
102
}
330
EA6E4DC88
100
AcDbGroup
300

 70
     1
 71
     1
  0
GROUP
  5
EA6E4F4A0
102
{ACAD_REACTORS
330
EA6E4DC88
102
}
330
EA6E4DC88
100
AcDbGroup
300

 70
     1
 71
     1
  0
GROUP
  5
EA6E4F4A1
102
{ACAD_REACTORS
330
EA6E4DC88
102
}
330
EA6E4DC88
100
AcDbGroup
300

 70
     1
 71
     1
  0
GROUP
  5
EA6E4F4A2
102
{ACAD_REACTORS
330
EA6E4DC88
102
}
330
EA6E4DC88
100
AcDbGroup
300

 70
     3
 71
     1
  0
GROUP
  5
EA6E4F4A3
102
{ACAD_REACTORS
330
EA6E4DC88
102
}
330
EA6E4DC88
100
AcDbGroup
300

 70
     1
 71
     1
  0
GROUP
  5
EA6E54440
102
{ACAD_REACTORS
330
EA6E4DC88
102
}
330
EA6E4DC88
100
AcDbGroup
300

 70
     1
 71
     1
  0
GROUP
  5
EA6E4F458
102
{ACAD_REACTORS
330
EA6E4DC88
102
}
330
EA6E4DC88
100
AcDbGroup
300

 70
     1
 71
     1
  0
GROUP
  5
EA6E4F4A4
102
{ACAD_REACTORS
330
EA6E4DC88
102
}
330
EA6E4DC88
100
AcDbGroup
300

 70
     1
 71
     1
  0
GROUP
  5
EA6E4F4A5
102
{ACAD_REACTORS
330
EA6E4DC88
102
}
330
EA6E4DC88
100
AcDbGroup
300

 70
     1
 71
     1
  0
GROUP
  5
EA6E4F4B4
102
{ACAD_REACTORS
330
EA6E4DC88
102
}
330
EA6E4DC88
100
AcDbGroup
300

 70
     1
 71
     1
  0
GROUP
  5
EA6E4F4A6
102
{ACAD_REACTORS
330
EA6E4DC88
102
}
330
EA6E4DC88
100
AcDbGroup
300

 70
     1
 71
     1
  0
GROUP
  5
EA6E4F4A7
102
{ACAD_REACTORS
330
EA6E4DC88
102
}
330
EA6E4DC88
100
AcDbGroup
300

 70
     3
 71
     1
  0
GROUP
  5
EA6E4F47B
102
{ACAD_REACTORS
330
EA6E4DC88
102
}
330
EA6E4DC88
100
AcDbGroup
300

 70
     1
 71
     1
  0
GROUP
  5
EA6E4F4A8
102
{ACAD_REACTORS
330
EA6E4DC88
102
}
330
EA6E4DC88
100
AcDbGroup
300

 70
     1
 71
     1
  0
GROUP
  5
EA6E4F4B5
102
{ACAD_REACTORS
330
EA6E4DC88
102
}
330
EA6E4DC88
100
AcDbGroup
300

 70
     1
 71
     1
  0
GROUP
  5
EA6E4F4B6
102
{ACAD_REACTORS
330
EA6E4DC88
102
}
330
EA6E4DC88
100
AcDbGroup
300

 70
     1
 71
     1
  0
LAYOUT
  5
EA6E4EE67
102
{ACAD_REACTORS
330
EA6E4E124
102
}
330
EA6E4E124
100
AcDbPlotSettings
  1

  2
RICOH imagio Neo C355 RPCS
  4

  6

 40
0.0
 41
0.0
 42
0.0
 43
0.0
 44
0.0
 45
0.0
 46
0.0
 47
0.0
 48
0.0
 49
0.0
140
0.0
141
0.0
142
1.0
143
1.0
 70
  1712
 72
     0
 73
     0
 74
     0
  7
aclt.ctb
 75
     0
147
1.0
148
0.0
149
0.0
100
AcDbLayout
  1
Model
 70
     1
 71
     0
 10
0.0
 20
0.0
 11
12.0
 21
9.0
 12
0.0
 22
0.0
 32
0.0
 14
0.0
 24
0.0
 34
0.0
 15
0.0
 25
0.0
 35
0.0
146
0.0
 13
0.0
 23
0.0
 33
0.0
 16
1.0
 26
0.0
 36
0.0
 17
0.0
 27
1.0
 37
0.0
 76
     0
330
EA6E4DC92
  0
LAYOUT
  5
EA6E4EE68
102
{ACAD_REACTORS
330
EA6E4E124
102
}
330
EA6E4E124
100
AcDbPlotSettings
  1

  2
RICOH imagio Neo C355 RPCS
  4

  6

 40
0.0
 41
0.0
 42
0.0
 43
0.0
 44
0.0
 45
0.0
 46
0.0
 47
0.0
 48
0.0
 49
0.0
140
0.0
141
0.0
142
1.0
143
1.0
 70
   688
 72
     0
 73
     0
 74
     5
  7
aclt.ctb
 75
    16
147
1.0
148
0.0
149
0.0
100
AcDbLayout
  1
ﾚｲｱｳﾄ1
 70
     0
 71
     1
 10
0.0
 20
0.0
 11
12.0
 21
9.0
 12
0.0
 22
0.0
 32
0.0
 14
1.000000000000000E+20
 24
1.000000000000000E+20
 34
1.000000000000000E+20
 15
-1.000000000000000E+20
 25
-1.000000000000000E+20
 35
-1.000000000000000E+20
146
0.0
 13
0.0
 23
0.0
 33
0.0
 16
1.0
 26
0.0
 36
0.0
 17
0.0
 27
1.0
 37
0.0
 76
     0
330
EA6E4DC8F
  0
MLINESTYLE
  5
EA6E4DC96
102
{ACAD_REACTORS
330
EA6E4DC95
102
}
330
EA6E4DC95
100
AcDbMlineStyle
  2
STANDARD
 70
     0
  3

 62
   256
 51
90.0
 52
90.0
 71
     2
 49
0.5
 62
   256
  6
BYLAYER
 49
-0.5
 62
   256
  6
BYLAYER
  0
PLOTSETTINGS
  5
EA6E4F4DE
102
{ACAD_XDICTIONARY
360
EA6E4F4DF
102
}
102
{ACAD_REACTORS
330
EA6E4E125
102
}
330
EA6E4E125
100
AcDbPlotSettings
  1
セットアップ1
  2
EPSON LP-8900
  4
A4
  6
ZOOM_ALL
 40
5.873749732971191
 41
5.873717308044433
 42
5.873748779296875
 43
5.873748779296875
 44
209.9733276367187
 45
297.0106506347656
 46
15.0
 47
2.629999999999999
 48
-409.6174180266133
 49
-718.4349759011563
140
-49.61741659461336
141
-158.4349759011564
142
1.0
143
2.0
 70
 11936
 72
     1
 73
     0
 74
     4
  7
monochrome.ctb
 75
     0
147
0.5
148
409.6174180266133
149
718.4349759011563
1001
ACAD_PSEXT
1000
EPSON LP-8900
1000
EPSON LP-8900
1000
IP_172.16.3.45
1000

1070
     0
  0
ACDBPLACEHOLDER
  5
EA6E4E123
102
{ACAD_REACTORS
330
EA6E4E122
102
}
330
EA6E4E122
  0
ACDBPLACEHOLDER
  5
EA6E4F4E1
102
{ACAD_REACTORS
330
EA6E4E122
102
}
330
EA6E4E122
  0
DICTIONARYVAR
  5
EA6E4E23D
102
{ACAD_REACTORS
330
EA6E4DCDF
102
}
330
EA6E4DCDF
100
DictionaryVariables
280
     0
  1
0
  0
DICTIONARYVAR
  5
EA6E4DCE0
102
{ACAD_REACTORS
330
EA6E4DCDF
102
}
330
EA6E4DCDF
100
DictionaryVariables
280
     0
  1
96
  0
XRECORD
  5
EA6E4EE6B
102
{ACAD_REACTORS
330
EA6E4EE6A
102
}
330
EA6E4EE6A
100
AcDbXrecord
280
     1
  1
0
  1
*-0
  1
*
  1
*
 70
     0
  1
*
  1
*
  0
XRECORD
  5
EA6E4EE6C
102
{ACAD_REACTORS
330
EA6E4EE6A
102
}
330
EA6E4EE6A
100
AcDbXrecord
280
     1
  1
0-0
  1
*-0
  1
*
  1
*
 70
     0
  1
*
  1
*
  0
XRECORD
  5
EA6E4EE6D
102
{ACAD_REACTORS
330
EA6E4EE6A
102
}
330
EA6E4EE6A
100
AcDbXrecord
280
     1
  1
10画層
  1
*-10
  1
*
  1
*
 70
     0
  1
*
  1
*
  0
XRECORD
  5
EA6E4EE6E
102
{ACAD_REACTORS
330
EA6E4EE6A
102
}
330
EA6E4EE6A
100
AcDbXrecord
280
     1
  1
2
  1
*-2
  1
*
  1
*
 70
     0
  1
*
  1
*
  0
XRECORD
  5
EA6E4EE6F
102
{ACAD_REACTORS
330
EA6E4EE6A
102
}
330
EA6E4EE6A
100
AcDbXrecord
280
     1
  1
3
  1
*-3
  1
*
  1
*
 70
     0
  1
*
  1
*
  0
XRECORD
  5
EA6E4EE70
102
{ACAD_REACTORS
330
EA6E4EE6A
102
}
330
EA6E4EE6A
100
AcDbXrecord
280
     1
  1
3A
  1
*-3A
  1
*
  1
*
 70
     0
  1
*
  1
*
  0
XRECORD
  5
EA6E4EE71
102
{ACAD_REACTORS
330
EA6E4EE6A
102
}
330
EA6E4EE6A
100
AcDbXrecord
280
     1
  1
4
  1
*-4
  1
*
  1
*
 70
     0
  1
*
  1
*
  0
XRECORD
  5
EA6E4EE72
102
{ACAD_REACTORS
330
EA6E4EE6A
102
}
330
EA6E4EE6A
100
AcDbXrecord
280
     1
  1
5画層
  1
*-5
  1
*
  1
*
 70
     0
  1
*
  1
*
  0
XRECORD
  5
EA6E4EE73
102
{ACAD_REACTORS
330
EA6E4EE6A
102
}
330
EA6E4EE6A
100
AcDbXrecord
280
     1
  1
6画層
  1
*-6
  1
*
  1
*
 70
     0
  1
*
  1
*
  0
XRECORD
  5
EA6E4EE74
102
{ACAD_REACTORS
330
EA6E4EE6A
102
}
330
EA6E4EE6A
100
AcDbXrecord
280
     1
  1
7
  1
*-7*
  1
*
  1
*
 70
     0
  1
*
  1
*
  0
XRECORD
  5
EA6E4EE75
102
{ACAD_REACTORS
330
EA6E4EE6A
102
}
330
EA6E4EE6A
100
AcDbXrecord
280
     1
  1
7a画層
  1
*-7a
  1
*
  1
*
 70
     0
  1
*
  1
*
  0
XRECORD
  5
EA6E4EE76
102
{ACAD_REACTORS
330
EA6E4EE6A
102
}
330
EA6E4EE6A
100
AcDbXrecord
280
     1
  1
8
  1
*-8,8
  1
*
  1
*
 70
     0
  1
*
  1
*
  0
XRECORD
  5
EA6E4EE77
102
{ACAD_REACTORS
330
EA6E4EE6A
102
}
330
EA6E4EE6A
100
AcDbXrecord
280
     1
  1
ASYST
  1
ASYST*
  1
*
  1
*
 70
     0
  1
*
  1
*
  0
XRECORD
  5
EA6E4EE78
102
{ACAD_REACTORS
330
EA6E4EE6A
102
}
330
EA6E4EE6A
100
AcDbXrecord
280
     1
  1
ASYST PHASE 1
  1
A1.0-8$0$ASYT*
  1
*
  1
*
 70
     0
  1
*
  1
*
  0
XRECORD
  5
EA6E4EE79
102
{ACAD_REACTORS
330
EA6E4EE6A
102
}
330
EA6E4EE6A
100
AcDbXrecord
280
     1
  1
ASYST PHASE 2
  1
A2.0-8$0$ASYT*
  1
*
  1
*
 70
     0
  1
*
  1
*
  0
XRECORD
  5
EA6E4EE7A
102
{ACAD_REACTORS
330
EA6E4EE6A
102
}
330
EA6E4EE6A
100
AcDbXrecord
280
     1
  1
cap-0
  1
*
  1
*
  1
*
 70
     0
  1
*
  1
*
  0
XRECORD
  5
EA6E4EE7B
102
{ACAD_REACTORS
330
EA6E4EE6A
102
}
330
EA6E4EE6A
100
AcDbXrecord
280
     1
  1
dims
  1
*di*
  1
*
  1
*
 70
     0
  1
*
  1
*
  0
XRECORD
  5
EA6E4EE7C
102
{ACAD_REACTORS
330
EA6E4EE6A
102
}
330
EA6E4EE6A
100
AcDbXrecord
280
     1
  1
elec
  1
e-*
  1
*
  1
*
 70
     0
  1
*
  1
*
  0
XRECORD
  5
EA6E4EE7D
102
{ACAD_REACTORS
330
EA6E4EE6A
102
}
330
EA6E4EE6A
100
AcDbXrecord
280
     1
  1
ELECTRICAL
  1
E-*
  1
*
  1
*
 70
     0
  1
*
  1
*
  0
XRECORD
  5
EA6E4EE7E
102
{ACAD_REACTORS
330
EA6E4EE6A
102
}
330
EA6E4EE6A
100
AcDbXrecord
280
     1
  1
F
  1
*
  1
*
  1
*
 70
     0
  1
*
  1
*
  0
XRECORD
  5
EA6E4EE7F
102
{ACAD_REACTORS
330
EA6E4EE6A
102
}
330
EA6E4EE6A
100
AcDbXrecord
280
     1
  1
Frame
  1
F*
  1
*
  1
*
 70
     0
  1
*
  1
*
  0
XRECORD
  5
EA6E4EE80
102
{ACAD_REACTORS
330
EA6E4EE6A
102
}
330
EA6E4EE6A
100
AcDbXrecord
280
     1
  1
FROZEN
  1
*
  1
*
  1
*
 70
     4
  1
*
  1
*
  0
XRECORD
  5
EA6E4EE81
102
{ACAD_REACTORS
330
EA6E4EE6A
102
}
330
EA6E4EE6A
100
AcDbXrecord
280
     1
  1
FROZEN ACTIVE
  1
*
  1
*
  1
*
 70
    16
  1
*
  1
*
  0
XRECORD
  5
EA6E4EE82
102
{ACAD_REACTORS
330
EA6E4EE6A
102
}
330
EA6E4EE6A
100
AcDbXrecord
280
     1
  1
jiku-0
  1
*
  1
*
  1
*
 70
     0
  1
*
  1
*
  0
XRECORD
  5
EA6E4EE83
102
{ACAD_REACTORS
330
EA6E4EE6A
102
}
330
EA6E4EE6A
100
AcDbXrecord
280
     1
  1
MP
  1
MP_*
  1
*
  1
*
 70
     0
  1
*
  1
*
  0
XRECORD
  5
EA6E4EE84
102
{ACAD_REACTORS
330
EA6E4EE6A
102
}
330
EA6E4EE6A
100
AcDbXrecord
280
     1
  1
MPR
  1
MPR*
  1
*
  1
*
 70
     0
  1
*
  1
*
  0
XRECORD
  5
EA6E4EE85
102
{ACAD_REACTORS
330
EA6E4EE6A
102
}
330
EA6E4EE6A
100
AcDbXrecord
280
     1
  1
p-
  1
p-*
  1
*
  1
*
 70
     0
  1
*
  1
*
  0
XRECORD
  5
EA6E4EE86
102
{ACAD_REACTORS
330
EA6E4EE6A
102
}
330
EA6E4EE6A
100
AcDbXrecord
280
     1
  1
ST
  1
ST_*
  1
*
  1
*
 70
     0
  1
*
  1
*
  0
XRECORD
  5
EA6E4EE87
102
{ACAD_REACTORS
330
EA6E4EE6A
102
}
330
EA6E4EE6A
100
AcDbXrecord
280
     1
  1
TC
  1
TC_*,0N
  1
*
  1
*
 70
     0
  1
*
  1
*
  0
XRECORD
  5
EA6E4EE88
102
{ACAD_REACTORS
330
EA6E4EE6A
102
}
330
EA6E4EE6A
100
AcDbXrecord
280
     1
  1
TEXT
  1
TEXT
  1
*
  1
*
 70
     0
  1
*
  1
*
  0
XRECORD
  5
EA6E4EE89
102
{ACAD_REACTORS
330
EA6E4EE6A
102
}
330
EA6E4EE6A
100
AcDbXrecord
280
     1
  1
ｹｰﾌﾞﾙ図
  1
*
  1
*
  1
*
 70
     0
  1
*
  1
*
  0
XRECORD
  5
EA6E4EE8A
102
{ACAD_REACTORS
330
EA6E4EE6A
102
}
330
EA6E4EE6A
100
AcDbXrecord
280
     1
  1
０画層
  1
*-0
  1
*
  1
*
 70
     0
  1
*
  1
*
  0
XRECORD
  5
EA6E4EE8B
102
{ACAD_REACTORS
330
EA6E4EE6A
102
}
330
EA6E4EE6A
100
AcDbXrecord
280
     1
  1
３A画層
  1
*-3A
  1
*
  1
*
 70
     0
  1
*
  1
*
  0
XRECORD
  5
EA6E4EE8C
102
{ACAD_REACTORS
330
EA6E4EE6A
102
}
330
EA6E4EE6A
100
AcDbXrecord
280
     1
  1
３画層
  1
*-3
  1
*
  1
*
 70
     0
  1
*
  1
*
  0
DICTIONARY
  5
EA6E4F4DF
330
EA6E4F4DE
100
AcDbDictionary
280
     1
281
     1
  3
ACAD_XREC_ROUNDTRIP
360
EA6E4F4E0
  0
XRECORD
  5
EA6E4F4E0
102
{ACAD_REACTORS
330
EA6E4F4DF
102
}
330
EA6E4F4DF
100
AcDbXrecord
280
     1
102
SHADEPLOT
 70
     0
102
SHADEPLOTRESLEVEL
 70
     2
102
SHADEPLOTCUSTOMDPI
 70
   300
  0
ENDSEC
  0
EOF
