  0
SECTION
  2
HEADER
  9
$ACADVER
  1
AC1014
  9
$ACADMAINTVER
 70
     9
  9
$DWGCODEPAGE
  3
ANSI_932
  9
$INSBASE
 10
0.0
 20
0.0
 30
0.0
  9
$EXTMIN
 10
-0.0111541946860143
 20
-0.0166613264204898
 30
-0.0015258207003583
  9
$EXTMAX
 10
362.0258551477295
 20
546.0166638689308
 30
0.0000000349246037
  9
$LIMMIN
 10
0.0
 20
0.0
  9
$LIMMAX
 10
362.0
 20
546.0
  9
$ORTHOMODE
 70
     1
  9
$REGENMODE
 70
     1
  9
$FILLMODE
 70
     1
  9
$QTEXTMODE
 70
     0
  9
$MIRRTEXT
 70
     0
  9
$DRAGMODE
 70
     2
  9
$LTSCALE
 40
10.0
  9
$OSMODE
 70
   167
  9
$ATTMODE
 70
     1
  9
$TEXTSIZE
 40
10.0
  9
$TRACEWID
 40
0.05
  9
$TEXTSTYLE
  7
ROMANS
  9
$CLAYER
  8
JISSEN
  9
$CELTYPE
  6
BYLAYER
  9
$CECOLOR
 62
   256
  9
$CELTSCALE
 40
1.0
  9
$DELOBJ
 70
     1
  9
$DISPSILH
 70
     0
  9
$DIMSCALE
 40
2.0
  9
$DIMASZ
 40
1.5
  9
$DIMEXO
 40
1.0
  9
$DIMDLI
 40
6.0
  9
$DIMRND
 40
0.0
  9
$DIMDLE
 40
0.0
  9
$DIMEXE
 40
1.0
  9
$DIMTP
 40
495.0
  9
$DIMTM
 40
0.0
  9
$DIMTXT
 40
3.0
  9
$DIMCEN
 40
0.0
  9
$DIMTSZ
 40
0.0
  9
$DIMTOL
 70
     0
  9
$DIMLIM
 70
     0
  9
$DIMTIH
 70
     0
  9
$DIMTOH
 70
     0
  9
$DIMSE1
 70
     0
  9
$DIMSE2
 70
     0
  9
$DIMTAD
 70
     1
  9
$DIMZIN
 70
     8
  9
$DIMBLK
  1
ARROW
  9
$DIMASO
 70
     0
  9
$DIMSHO
 70
     0
  9
$DIMPOST
  1

  9
$DIMAPOST
  1

  9
$DIMALT
 70
     0
  9
$DIMALTD
 70
     2
  9
$DIMALTF
 40
25.4
  9
$DIMLFAC
 40
1.0
  9
$DIMTOFL
 70
     1
  9
$DIMTVP
 40
0.0
  9
$DIMTIX
 70
     1
  9
$DIMSOXD
 70
     0
  9
$DIMSAH
 70
     0
  9
$DIMBLK1
  1

  9
$DIMBLK2
  1

  9
$DIMSTYLE
  2
IMAO
  9
$DIMCLRD
 70
     0
  9
$DIMCLRE
 70
     0
  9
$DIMCLRT
 70
     0
  9
$DIMTFAC
 40
1.0
  9
$DIMGAP
 40
0.09
  9
$DIMJUST
 70
     0
  9
$DIMSD1
 70
     0
  9
$DIMSD2
 70
     0
  9
$DIMTOLJ
 70
     1
  9
$DIMTZIN
 70
     8
  9
$DIMALTZ
 70
     8
  9
$DIMALTTZ
 70
     8
  9
$DIMFIT
 70
     5
  9
$DIMUPT
 70
     0
  9
$DIMUNIT
 70
     2
  9
$DIMDEC
 70
     2
  9
$DIMTDEC
 70
     2
  9
$DIMALTU
 70
     2
  9
$DIMALTTD
 70
     2
  9
$DIMTXSTY
  7
ROMANS
  9
$DIMAUNIT
 70
     0
  9
$LUNITS
 70
     2
  9
$LUPREC
 70
     2
  9
$SKETCHINC
 40
0.1
  9
$FILLETRAD
 40
3.0
  9
$AUNITS
 70
     0
  9
$AUPREC
 70
     2
  9
$MENU
  1
stdr12j
  9
$ELEVATION
 40
0.0
  9
$PELEVATION
 40
0.0
  9
$THICKNESS
 40
0.0
  9
$LIMCHECK
 70
     0
  9
$BLIPMODE
 70
     0
  9
$CHAMFERA
 40
0.0
  9
$CHAMFERB
 40
0.0
  9
$CHAMFERC
 40
0.0
  9
$CHAMFERD
 40
0.0
  9
$SKPOLY
 70
     0
  9
$TDCREATE
 40
2449876.477257986
  9
$TDUPDATE
 40
2453832.498957963
  9
$TDINDWG
 40
0.1117596875
  9
$TDUSRTIMER
 40
0.1117596875
  9
$USRTIMER
 70
     1
  9
$ANGBASE
 50
0.0
  9
$ANGDIR
 70
     0
  9
$PDMODE
 70
     0
  9
$PDSIZE
 40
0.0
  9
$PLINEWID
 40
0.0
  9
$COORDS
 70
     2
  9
$SPLFRAME
 70
     0
  9
$SPLINETYPE
 70
     6
  9
$SPLINESEGS
 70
     8
  9
$ATTDIA
 70
     0
  9
$ATTREQ
 70
     1
  9
$HANDLING
 70
 22529
  9
$HANDSEED
  5
EA6E4F5C4
  9
$SURFTAB1
 70
     6
  9
$SURFTAB2
 70
     6
  9
$SURFTYPE
 70
     6
  9
$SURFU
 70
     6
  9
$SURFV
 70
     6
  9
$UCSNAME
  2

  9
$UCSORG
 10
0.0
 20
0.0
 30
0.0
  9
$UCSXDIR
 10
1.0
 20
0.0
 30
0.0
  9
$UCSYDIR
 10
0.0
 20
1.0
 30
0.0
  9
$PUCSNAME
  2

  9
$PUCSORG
 10
0.0
 20
0.0
 30
0.0
  9
$PUCSXDIR
 10
1.0
 20
0.0
 30
0.0
  9
$PUCSYDIR
 10
0.0
 20
1.0
 30
0.0
  9
$USERI1
 70
     4
  9
$USERI2
 70
     1
  9
$USERI3
 70
     2
  9
$USERI4
 70
     2
  9
$USERI5
 70
     0
  9
$USERR1
 40
2.0
  9
$USERR2
 40
3.0
  9
$USERR3
 40
3.0
  9
$USERR4
 40
1.5
  9
$USERR5
 40
10.0
  9
$WORLDVIEW
 70
     1
  9
$SHADEDGE
 70
     3
  9
$SHADEDIF
 70
    70
  9
$TILEMODE
 70
     1
  9
$MAXACTVP
 70
    16
  9
$PINSBASE
 10
0.0
 20
0.0
 30
0.0
  9
$PLIMCHECK
 70
     0
  9
$PEXTMIN
 10
1.000000000000000E+20
 20
1.000000000000000E+20
 30
1.000000000000000E+20
  9
$PEXTMAX
 10
-1.000000000000000E+20
 20
-1.000000000000000E+20
 30
-1.000000000000000E+20
  9
$PLIMMIN
 10
0.0
 20
0.0
  9
$PLIMMAX
 10
12.0
 20
9.0
  9
$UNITMODE
 70
     0
  9
$VISRETAIN
 70
     0
  9
$PLINEGEN
 70
     0
  9
$PSLTSCALE
 70
     0
  9
$TREEDEPTH
 70
  3020
  9
$PICKSTYLE
 70
     1
  9
$CMLSTYLE
  2
STANDARD
  9
$CMLJUST
 70
     0
  9
$CMLSCALE
 40
1.0
  9
$PROXYGRAPHICS
 70
     1
  9
$MEASUREMENT
 70
     0
  0
ENDSEC
  0
SECTION
  2
CLASSES
  0
CLASS
  1
LWPOLYLINE
  2
AcDbPolyline
  3
AutoCAD 2000
 90
        0
280
     0
281
     1
  0
CLASS
  1
DICTIONARYVAR
  2
AcDbDictionaryVar
  3
AutoCAD 2000
 90
        0
280
     0
281
     0
  0
CLASS
  1
HATCH
  2
AcDbHatch
  3
AutoCAD 2000
 90
        0
280
     0
281
     1
  0
CLASS
  1
ACDBDICTIONARYWDFLT
  2
AcDbDictionaryWithDefault
  3
AutoCAD 2000
 90
        0
280
     0
281
     0
  0
CLASS
  1
ACDBPLACEHOLDER
  2
AcDbPlaceHolder
  3
AutoCAD 2000
 90
        0
280
     0
281
     0
  0
CLASS
  1
LAYOUT
  2
AcDbLayout
  3
AutoCAD 2000
 90
        0
280
     0
281
     0
  0
CLASS
  1
LONG_TRANSACTION
  2
AcDbLongTransaction
  3
AutoCAD 2000
 90
        0
280
     0
281
     0
  0
CLASS
  1
LWPOLYLINE
  2
AcDbPolyline
  3
AutoCAD 2000
 90
        0
280
     0
281
     1
  0
CLASS
  1
HATCH
  2
AcDbHatch
  3
AutoCAD 2000
 90
        0
280
     0
281
     1
  0
CLASS
  1
XRECORD
  2
AcDbXrecord
  3
AutoCAD 2000
 90
        0
280
     0
281
     0
  0
CLASS
  1
LONG_TRANSACTION
  2
AcDbLongTransaction
  3
AutoCAD 2000
 90
        0
280
     0
281
     0
  0
CLASS
  1
LWPOLYLINE
  2
AcDbPolyline
  3
AutoCAD 2000
 90
        0
280
     0
281
     1
  0
CLASS
  1
HATCH
  2
AcDbHatch
  3
AutoCAD 2000
 90
        0
280
     0
281
     1
  0
CLASS
  1
XRECORD
  2
AcDbXrecord
  3
AutoCAD 2000
 90
        0
280
     0
281
     0
  0
CLASS
  1
LONG_TRANSACTION
  2
AcDbLongTransaction
  3
AutoCAD 2000
 90
        0
280
     0
281
     0
  0
CLASS
  1
LWPOLYLINE
  2
AcDbPolyline
  3
AutoCAD 2000
 90
        0
280
     0
281
     1
  0
CLASS
  1
HATCH
  2
AcDbHatch
  3
AutoCAD 2000
 90
        0
280
     0
281
     1
  0
CLASS
  1
XRECORD
  2
AcDbXrecord
  3
AutoCAD 2000
 90
        0
280
     0
281
     0
  0
CLASS
  1
LONG_TRANSACTION
  2
AcDbLongTransaction
  3
AutoCAD 2000
 90
        0
280
     0
281
     0
  0
CLASS
  1
LWPOLYLINE
  2
AcDbPolyline
  3
AutoCAD 2000
 90
        0
280
     0
281
     1
  0
CLASS
  1
HATCH
  2
AcDbHatch
  3
AutoCAD 2000
 90
        0
280
     0
281
     1
  0
CLASS
  1
XRECORD
  2
AcDbXrecord
  3
AutoCAD 2000
 90
        0
280
     0
281
     0
  0
CLASS
  1
LONG_TRANSACTION
  2
AcDbLongTransaction
  3
AutoCAD 2000
 90
        0
280
     0
281
     0
  0
CLASS
  1
LWPOLYLINE
  2
AcDbPolyline
  3
AutoCAD 2000
 90
        0
280
     0
281
     1
  0
CLASS
  1
HATCH
  2
AcDbHatch
  3
AutoCAD 2000
 90
        0
280
     0
281
     1
  0
CLASS
  1
XRECORD
  2
AcDbXrecord
  3
AutoCAD 2000
 90
        0
280
     0
281
     0
  0
ENDSEC
  0
SECTION
  2
TABLES
  0
TABLE
  2
VPORT
  5
EA6E4DC83
330
0
100
AcDbSymbolTable
 70
    11
  0
VPORT
  5
EA6E4DCBB
330
EA6E4DC83
100
AcDbSymbolTableRecord
100
AcDbViewportTableRecord
  2
2
 70
     0
 10
0.5
 20
0.0
 11
1.0
 21
1.0
 12
0.9240309999999999
 22
1.052651
 13
0.0
 23
0.0
 14
1.0
 24
1.0
 15
10.0
 25
10.0
 16
0.0
 26
0.0
 36
1.0
 17
0.0
 27
0.0
 37
0.0
 40
2.105302
 41
0.877814
 42
50.0
 43
0.0
 44
0.0
 50
0.0
 51
0.0
 71
     0
 72
   500
 73
     1
 74
     1
 75
     0
 76
     0
 77
     0
 78
     0
  0
VPORT
  5
EA6E4DCBC
330
EA6E4DC83
100
AcDbSymbolTableRecord
100
AcDbViewportTableRecord
  2
2
 70
     0
 10
0.0
 20
0.0
 11
0.5
 21
1.0
 12
0.9240309999999999
 22
1.052651
 13
0.0
 23
0.0
 14
1.0
 24
1.0
 15
10.0
 25
10.0
 16
0.0
 26
0.0
 36
1.0
 17
0.0
 27
0.0
 37
0.0
 40
2.105302
 41
0.877814
 42
50.0
 43
0.0
 44
0.0
 50
0.0
 51
0.0
 71
     0
 72
   500
 73
     1
 74
     1
 75
     0
 76
     0
 77
     0
 78
     0
  0
VPORT
  5
EA6E4DCBD
330
EA6E4DC83
100
AcDbSymbolTableRecord
100
AcDbViewportTableRecord
  2
3
 70
     0
 10
0.0
 20
0.5
 11
1.0
 21
1.0
 12
2.832169999999999
 22
1.052651
 13
0.0
 23
0.0
 14
1.0
 24
1.0
 15
10.0
 25
10.0
 16
0.0
 26
0.0
 36
1.0
 17
0.0
 27
0.0
 37
0.0
 40
2.105302
 41
3.571429
 42
50.0
 43
0.0
 44
0.0
 50
0.0
 51
0.0
 71
     0
 72
   500
 73
     1
 74
     1
 75
     0
 76
     0
 77
     0
 78
     0
  0
VPORT
  5
EA6E4DCBE
330
EA6E4DC83
100
AcDbSymbolTableRecord
100
AcDbViewportTableRecord
  2
3
 70
     0
 10
0.0
 20
0.0
 11
1.0
 21
0.5
 12
2.856741999999999
 22
1.052651
 13
0.0
 23
0.0
 14
1.0
 24
1.0
 15
10.0
 25
10.0
 16
0.0
 26
0.0
 36
1.0
 17
0.0
 27
0.0
 37
0.0
 40
2.105302
 41
3.594770999999999
 42
50.0
 43
0.0
 44
0.0
 50
0.0
 51
0.0
 71
     0
 72
   500
 73
     1
 74
     1
 75
     0
 76
     0
 77
     0
 78
     0
  0
VPORT
  5
EA6E4DCBF
330
EA6E4DC83
100
AcDbSymbolTableRecord
100
AcDbViewportTableRecord
  2
4
 70
     0
 10
0.5
 20
0.0
 11
1.0
 21
0.5
 12
2.886858
 22
1.052651
 13
0.0
 23
0.0
 14
1.0
 24
1.0
 15
10.0
 25
10.0
 16
0.0
 26
0.0
 36
1.0
 17
0.0
 27
0.0
 37
0.0
 40
4.275206999999999
 41
1.784314
 42
50.0
 43
0.0
 44
0.0
 50
0.0
 51
0.0
 71
     0
 72
   500
 73
     1
 74
     1
 75
     0
 76
     0
 77
     0
 78
     0
  0
VPORT
  5
EA6E4DCC0
330
EA6E4DC83
100
AcDbSymbolTableRecord
100
AcDbViewportTableRecord
  2
4
 70
     0
 10
0.5
 20
0.5
 11
1.0
 21
1.0
 12
2.86209
 22
1.052651
 13
0.0
 23
0.0
 14
1.0
 24
1.0
 15
10.0
 25
10.0
 16
0.0
 26
0.0
 36
1.0
 17
0.0
 27
0.0
 37
0.0
 40
4.275206999999999
 41
1.772726999999999
 42
50.0
 43
0.0
 44
0.0
 50
0.0
 51
0.0
 71
     0
 72
   500
 73
     1
 74
     1
 75
     0
 76
     0
 77
     0
 78
     0
  0
VPORT
  5
EA6E4DCC1
330
EA6E4DC83
100
AcDbSymbolTableRecord
100
AcDbViewportTableRecord
  2
4
 70
     0
 10
0.0
 20
0.5
 11
0.5
 21
1.0
 12
2.86209
 22
1.052651
 13
0.0
 23
0.0
 14
1.0
 24
1.0
 15
10.0
 25
10.0
 16
0.0
 26
0.0
 36
1.0
 17
0.0
 27
0.0
 37
0.0
 40
4.275206999999999
 41
1.772726999999999
 42
50.0
 43
0.0
 44
0.0
 50
0.0
 51
0.0
 71
     0
 72
   500
 73
     1
 74
     1
 75
     0
 76
     0
 77
     0
 78
     0
  0
VPORT
  5
EA6E4DCC2
330
EA6E4DC83
100
AcDbSymbolTableRecord
100
AcDbViewportTableRecord
  2
4
 70
     0
 10
0.0
 20
0.0
 11
0.5
 21
0.5
 12
2.886858
 22
1.052651
 13
0.0
 23
0.0
 14
1.0
 24
1.0
 15
10.0
 25
10.0
 16
0.0
 26
0.0
 36
1.0
 17
0.0
 27
0.0
 37
0.0
 40
4.275206999999999
 41
1.784314
 42
50.0
 43
0.0
 44
0.0
 50
0.0
 51
0.0
 71
     0
 72
   500
 73
     1
 74
     1
 75
     0
 76
     0
 77
     0
 78
     0
  0
VPORT
  5
EA6E4F5A0
330
EA6E4DC83
100
AcDbSymbolTableRecord
100
AcDbViewportTableRecord
  2
*ACTIVE
 70
     0
 10
0.0
 20
0.0
 11
1.0
 21
1.0
 12
181.0073504765218
 22
273.0000012712551
 13
0.0
 23
0.0
 14
1.0
 24
1.0
 15
10.0
 25
10.0
 16
0.0
 26
0.0
 36
1.0
 17
0.0
 27
0.0
 37
0.0
 40
549.6695071611362
 41
1.764444444444444
 42
50.0
 43
0.0
 44
0.0
 50
0.0
 51
0.0
 71
     0
 72
   500
 73
     1
 74
     0
 75
     0
 76
     0
 77
     0
 78
     0
  0
ENDTAB
  0
TABLE
  2
LTYPE
  5
EA6E4DC80
330
0
100
AcDbSymbolTable
 70
     4
  0
LTYPE
  5
EA6E4DC8C
330
EA6E4DC80
100
AcDbSymbolTableRecord
100
AcDbLinetypeTableRecord
  2
BYBLOCK
 70
     0
  3

 72
    65
 73
     0
 40
0.0
  0
LTYPE
  5
EA6E4DC8D
330
EA6E4DC80
100
AcDbSymbolTableRecord
100
AcDbLinetypeTableRecord
  2
BYLAYER
 70
     0
  3

 72
    65
 73
     0
 40
0.0
  0
LTYPE
  5
EA6E4DC8E
330
EA6E4DC80
100
AcDbSymbolTableRecord
100
AcDbLinetypeTableRecord
  2
CONTINUOUS
 70
     0
  3
実線
 72
    65
 73
     0
 40
0.0
  0
LTYPE
  5
EA6E4DCBA
330
EA6E4DC80
100
AcDbSymbolTableRecord
100
AcDbLinetypeTableRecord
  2
HIDDEN
 70
     0
  3
_ _ _ _ _ _ _ _ _ _ _ _ _ _ _ _ _ _ _ _ _ _ _
 72
    65
 73
     2
 40
0.375
 49
0.25
 74
     0
 49
-0.125
 74
     0
  0
LTYPE
  5
EA6E4EB21
330
EA6E4DC80
100
AcDbSymbolTableRecord
100
AcDbLinetypeTableRecord
  2
CENTER
 70
     0
  3
____ _ ____ _ ____ _ ____ _ ____ _ ____ _ ____
 72
    65
 73
     4
 40
2.0
 49
1.25
 74
     0
 49
-0.25
 74
     0
 49
0.25
 74
     0
 49
-0.25
 74
     0
  0
LTYPE
  5
EA6E4EB22
330
EA6E4DC80
100
AcDbSymbolTableRecord
100
AcDbLinetypeTableRecord
  2
BREAK
 70
     0
  3
破線（通常）
 72
    65
 73
     2
 40
4.0
 49
3.0
 74
     0
 49
-1.0
 74
     0
  0
ENDTAB
  0
TABLE
  2
LAYER
  5
EA6E4DC7D
102
{ACAD_XDICTIONARY
360
EA6E4EB26
102
}
330
0
100
AcDbSymbolTable
 70
    10
  0
LAYER
  5
EA6E4DC89
330
EA6E4DC7D
100
AcDbSymbolTableRecord
100
AcDbLayerTableRecord
  2
0
 70
     0
 62
     6
  6
CONTINUOUS
  0
LAYER
  5
EA6E4DCCA
330
EA6E4DC7D
100
AcDbSymbolTableRecord
100
AcDbLayerTableRecord
  2
SUNPOU
 70
     0
 62
     3
  6
CONTINUOUS
  0
LAYER
  5
EA6E4DCCB
330
EA6E4DC7D
100
AcDbSymbolTableRecord
100
AcDbLayerTableRecord
  2
TEXT
 70
     0
 62
     3
  6
CONTINUOUS
  0
LAYER
  5
EA6E4DCCC
330
EA6E4DC7D
100
AcDbSymbolTableRecord
100
AcDbLayerTableRecord
  2
SAISEN
 70
     0
 62
     4
  6
CONTINUOUS
  0
LAYER
  5
EA6E4DCCD
330
EA6E4DC7D
100
AcDbSymbolTableRecord
100
AcDbLayerTableRecord
  2
JISSEN
 70
     0
 62
     7
  6
CONTINUOUS
  0
LAYER
  5
EA6E4DCCF
330
EA6E4DC7D
100
AcDbSymbolTableRecord
100
AcDbLayerTableRecord
  2
TENSEN
 70
     0
 62
     2
  6
HIDDEN
  0
LAYER
  5
EA6E4DCD1
330
EA6E4DC7D
100
AcDbSymbolTableRecord
100
AcDbLayerTableRecord
  2
WAKU
 70
     0
 62
     5
  6
CONTINUOUS
  0
LAYER
  5
EA6E4EB23
330
EA6E4DC7D
100
AcDbSymbolTableRecord
100
AcDbLayerTableRecord
  2
ITTEN
 70
     0
 62
     1
  6
CENTER
  0
LAYER
  5
EA6E4EB24
330
EA6E4DC7D
100
AcDbSymbolTableRecord
100
AcDbLayerTableRecord
  2
HATCH
 70
     0
 62
     4
  6
CONTINUOUS
  0
ENDTAB
  0
TABLE
  2
STYLE
  5
EA6E4DC7E
330
0
100
AcDbSymbolTable
 70
     5
  0
STYLE
  5
EA6E4DC8A
330
EA6E4DC7E
100
AcDbSymbolTableRecord
100
AcDbTextStyleTableRecord
  2
STANDARD
 70
     0
 40
0.0
 41
1.0
 50
0.0
 71
     0
 42
0.2
  3
ROMANS
  4
EXTFONT
  0
STYLE
  5
EA6E4DCB2
330
EA6E4DC7E
100
AcDbSymbolTableRecord
100
AcDbTextStyleTableRecord
  2
K
 70
     0
 40
0.0
 41
1.0
 50
0.0
 71
     0
 42
6.0
  3
SIMPLEX
  4
BIGFONT.SHX
  0
STYLE
  5
EA6E4DCB3
330
EA6E4DC7E
100
AcDbSymbolTableRecord
100
AcDbTextStyleTableRecord
  2
ROMANS
 70
     0
 40
0.0
 41
0.8
 50
0.0
 71
     0
 42
10.0
  3
romans
  4

  0
STYLE
  5
EA6E4DCFB
330
EA6E4DC7E
100
AcDbSymbolTableRecord
100
AcDbTextStyleTableRecord
  2
DIMENSION
 70
     0
 40
0.0
 41
1.0
 50
0.0
 71
     0
 42
2.5
  3
TXT
  4

  0
STYLE
  5
EA6E4E1C7
330
EA6E4DC7E
100
AcDbSymbolTableRecord
100
AcDbTextStyleTableRecord
  2
35FONT
 70
     0
 40
3.5
 41
0.75
 50
15.0
 71
     0
 42
2.5
  3
SIMPLEX.shx
  4
BIGFONT.shx
  0
ENDTAB
  0
TABLE
  2
VIEW
  5
EA6E4DC81
330
0
100
AcDbSymbolTable
 70
     0
  0
ENDTAB
  0
TABLE
  2
UCS
  5
EA6E4DC82
330
0
100
AcDbSymbolTable
 70
     0
  0
ENDTAB
  0
TABLE
  2
APPID
  5
EA6E4DC84
330
0
100
AcDbSymbolTable
 70
     2
  0
APPID
  5
EA6E4DC8B
330
EA6E4DC84
100
AcDbSymbolTableRecord
100
AcDbRegAppTableRecord
  2
ACAD
 70
     0
  0
APPID
  5
EA6E4EB25
330
EA6E4DC84
100
AcDbSymbolTableRecord
100
AcDbRegAppTableRecord
  2
ASK_MEN_XD
 70
     0
  0
ENDTAB
  0
TABLE
  2
DIMSTYLE
  5
EA6E4DC85
330
0
100
AcDbSymbolTable
 70
     2
  0
DIMSTYLE
105
EA6E4DCC5
330
EA6E4DC85
100
AcDbSymbolTableRecord
100
AcDbDimStyleTableRecord
  2
IMAO
 70
     0
  3

  4

  5

  6

  7

 40
1.0
 41
1.5
 42
1.0
 43
6.0
 44
1.0
 45
0.0
 46
0.0
 47
495.0
 48
0.0
140
3.0
141
0.0
142
0.0
143
25.4
144
1.0
145
0.0
146
1.0
147
0.09
 71
     0
 72
     0
 73
     0
 74
     0
 75
     0
 76
     0
 77
     1
 78
     8
170
     0
171
     2
172
     1
173
     0
174
     1
175
     0
176
     0
177
     0
178
     0
270
     2
271
     2
272
     2
273
     2
274
     2
340
EA6E4DCB3
275
     0
280
     0
281
     0
282
     0
283
     1
284
     8
285
     8
286
     8
287
     5
288
     0
  0
DIMSTYLE
105
EA6E4DCFC
330
EA6E4DC85
100
AcDbSymbolTableRecord
100
AcDbDimStyleTableRecord
  2
STANDARD
 70
     0
  3

  4

  5
AR_OPEN
  6

  7

 40
2.0
 41
2.0
 42
0.1
 43
10.0
 44
1.5
 45
0.0
 46
0.0
 47
0.0
 48
0.0
140
3.0
141
0.09
142
0.0
143
25.4
144
1.0
145
1.0
146
1.0
147
0.1
 71
     0
 72
     0
 73
     0
 74
     0
 75
     0
 76
     0
 77
     0
 78
     8
170
     0
171
     2
172
     1
173
     0
174
     0
175
     0
176
   256
177
   256
178
   256
270
     2
271
     2
272
     2
273
     2
274
     2
340
EA6E4DCFB
275
     0
280
     0
281
     0
282
     0
283
     1
284
     8
285
     0
286
     0
287
     3
288
     0
  0
ENDTAB
  0
TABLE
  2
BLOCK_RECORD
  5
EA6E4DC7C
330
0
100
AcDbSymbolTable
 70
     7
  0
BLOCK_RECORD
  5
EA6E4DC92
102
{ACAD_XDICTIONARY
360
EA6E4E1A0
102
}
330
EA6E4DC7C
100
AcDbSymbolTableRecord
100
AcDbBlockTableRecord
  2
*MODEL_SPACE
  0
BLOCK_RECORD
  5
EA6E4DC8F
102
{ACAD_XDICTIONARY
360
EA6E4E19E
102
}
330
EA6E4DC7C
100
AcDbSymbolTableRecord
100
AcDbBlockTableRecord
  2
*PAPER_SPACE
  0
BLOCK_RECORD
  5
EA6E4DC97
330
EA6E4DC7C
100
AcDbSymbolTableRecord
100
AcDbBlockTableRecord
  2
ARROW
  0
BLOCK_RECORD
  5
EA6E4DC9D
330
EA6E4DC7C
100
AcDbSymbolTableRecord
100
AcDbBlockTableRecord
  2
STDGX5
  0
BLOCK_RECORD
  5
EA6E4DCA0
330
EA6E4DC7C
100
AcDbSymbolTableRecord
100
AcDbBlockTableRecord
  2
STDR12J
  0
BLOCK_RECORD
  5
EA6E4DCF5
330
EA6E4DC7C
100
AcDbSymbolTableRecord
100
AcDbBlockTableRecord
  2
AR_OPEN
  0
BLOCK_RECORD
  5
EA6E4E1BE
330
EA6E4DC7C
100
AcDbSymbolTableRecord
100
AcDbBlockTableRecord
  2
ARROWANG
  0
BLOCK_RECORD
  5
EA6E4E996
330
EA6E4DC7C
100
AcDbSymbolTableRecord
100
AcDbBlockTableRecord
  2
*X5
  0
ENDTAB
  0
ENDSEC
  0
SECTION
  2
BLOCKS
  0
BLOCK
  5
EA6E4DCD4
330
EA6E4DC92
100
AcDbEntity
  8
0
100
AcDbBlockBegin
  2
*MODEL_SPACE
 70
     0
 10
0.0
 20
0.0
 30
0.0
  3
*MODEL_SPACE
  1

  0
ENDBLK
  5
EA6E4DCD5
330
EA6E4DC92
100
AcDbEntity
  8
0
100
AcDbBlockEnd
  0
BLOCK
  5
EA6E4DCD2
330
EA6E4DC8F
100
AcDbEntity
 67
     1
  8
0
100
AcDbBlockBegin
  2
*PAPER_SPACE
 70
     0
 10
0.0
 20
0.0
 30
0.0
  3
*PAPER_SPACE
  1

  0
ENDBLK
  5
EA6E4DCD3
330
EA6E4DC8F
100
AcDbEntity
 67
     1
  8
0
100
AcDbBlockEnd
  0
BLOCK
  5
449
330
EA6E4DC97
100
AcDbEntity
  8
0
100
AcDbBlockBegin
  2
ARROW
 70
     0
 10
1.0
 20
0.5
 30
0.0
  3
ARROW
  1

  0
LINE
  5
44A
330
EA6E4DC97
100
AcDbEntity
  8
0
100
AcDbLine
 10
1.0
 20
0.5
 30
0.0
 11
-0.5
 21
0.098076
 31
0.0
  0
LINE
  5
44B
330
EA6E4DC97
100
AcDbEntity
  8
0
100
AcDbLine
 10
0.0
 20
0.5
 30
0.0
 11
1.0
 21
0.5
 31
0.0
  0
LINE
  5
44C
330
EA6E4DC97
100
AcDbEntity
  8
0
100
AcDbLine
 10
1.0
 20
0.5
 30
0.0
 11
-0.5
 21
0.9019239999999999
 31
0.0
  0
ENDBLK
  5
44D
330
EA6E4DC97
100
AcDbEntity
  8
0
100
AcDbBlockEnd
  0
BLOCK
  5
142F
330
EA6E4DC9D
100
AcDbEntity
  8
0
100
AcDbBlockBegin
  2
STDGX5
 70
     0
 10
0.0
 20
0.0
 30
0.0
  3
STDGX5
  1

  0
ENDBLK
  5
1430
330
EA6E4DC9D
100
AcDbEntity
  8
0
100
AcDbBlockEnd
  0
BLOCK
  5
2946
330
EA6E4DCA0
100
AcDbEntity
  8
0
100
AcDbBlockBegin
  2
STDR12J
 70
     0
 10
0.0
 20
0.0
 30
0.0
  3
STDR12J
  1

  0
ENDBLK
  5
296B
330
EA6E4DCA0
100
AcDbEntity
  8
0
100
AcDbBlockEnd
  0
BLOCK
  5
EA6E4DCF9
330
EA6E4DCF5
100
AcDbEntity
  8
0
100
AcDbBlockBegin
  2
AR_OPEN
 70
     0
 10
0.0
 20
0.0
 30
0.0
  3
AR_OPEN
  1

  0
LINE
  5
EA6E4DCF6
330
EA6E4DCF5
100
AcDbEntity
  8
0
 62
     0
100
AcDbLine
 10
-1.0
 20
0.0
 30
0.0
 11
0.0
 21
0.0
 31
0.0
  0
LINE
  5
EA6E4DCF7
330
EA6E4DCF5
100
AcDbEntity
  8
0
 62
     0
100
AcDbLine
 10
0.0
 20
0.0
 30
0.0
 11
-1.0
 21
0.267949
 31
0.0
  0
LINE
  5
EA6E4DCF8
330
EA6E4DCF5
100
AcDbEntity
  8
0
 62
     0
100
AcDbLine
 10
0.0
 20
0.0
 30
0.0
 11
-1.0
 21
-0.267949
 31
0.0
  0
ENDBLK
  5
EA6E4DCFA
330
EA6E4DCF5
100
AcDbEntity
  8
0
100
AcDbBlockEnd
  0
BLOCK
  5
EA6E4E1C1
330
EA6E4E1BE
100
AcDbEntity
  8
0
100
AcDbBlockBegin
  2
ARROWANG
 70
     0
 10
0.0
 20
0.0
 30
0.0
  3
ARROWANG
  1

  0
LINE
  5
EA6E4E1BF
330
EA6E4E1BE
100
AcDbEntity
  8
SUNPOU
100
AcDbLine
 10
0.0
 20
0.0
 30
0.0
 11
-1.5
 21
0.401924
 31
0.0
  0
LINE
  5
EA6E4E1C0
330
EA6E4E1BE
100
AcDbEntity
  8
SUNPOU
100
AcDbLine
 10
0.0
 20
0.0
 30
0.0
 11
-1.5
 21
-0.401924
 31
0.0
  0
ENDBLK
  5
EA6E4E1C2
330
EA6E4E1BE
100
AcDbEntity
  8
0
100
AcDbBlockEnd
  0
BLOCK
  5
EA6E4EB1F
330
EA6E4E996
100
AcDbEntity
  8
0
100
AcDbBlockBegin
  2
*X5
 70
     1
 10
0.0
 20
0.0
 30
0.0
  3
*X5
  1

  0
LINE
  5
EA6E4E997
330
EA6E4E996
100
AcDbEntity
  8
0
 62
     0
100
AcDbLine
 10
13.0
 20
1.5
 30
0.0
 11
13.0
 21
3.0
 31
0.0
  0
LINE
  5
EA6E4E998
330
EA6E4E996
100
AcDbEntity
  8
0
 62
     0
100
AcDbLine
 10
12.8
 20
0.5011846473685893
 30
0.0
 11
12.8
 21
1.501244022154416
 31
0.0
  0
LINE
  5
EA6E4E999
330
EA6E4E996
100
AcDbEntity
  8
0
 62
     0
100
AcDbLine
 10
12.8
 20
16.49875597784558
 30
0.0
 11
12.8
 21
17.49881535263141
 31
0.0
  0
LINE
  5
EA6E4E99A
330
EA6E4E996
100
AcDbEntity
  8
0
 62
     0
100
AcDbLine
 10
12.8
 20
1.502736746385633
 30
0.0
 11
12.8
 21
3.003293554097716
 31
0.0
  0
LINE
  5
EA6E4E99B
330
EA6E4E996
100
AcDbEntity
  8
0
 62
     0
100
AcDbLine
 10
12.8
 20
14.99670644590227
 30
0.0
 11
12.8
 21
16.49726325361435
 31
0.0
  0
LINE
  5
EA6E4E99C
330
EA6E4E996
100
AcDbEntity
  8
0
 62
     0
100
AcDbLine
 10
12.8
 20
8.252736746385634
 30
0.0
 11
12.8
 21
9.753293554097712
 31
0.0
  0
LINE
  5
EA6E4E99D
330
EA6E4E996
100
AcDbEntity
  8
0
 62
     0
100
AcDbLine
 10
12.6
 20
0.5047390883533396
 30
0.0
 11
12.6
 21
1.504976666345426
 31
0.0
  0
LINE
  5
EA6E4E99E
330
EA6E4E996
100
AcDbEntity
  8
0
 62
     0
100
AcDbLine
 10
12.6
 20
16.49502333365457
 30
0.0
 11
12.6
 21
17.49526091164665
 31
0.0
  0
LINE
  5
EA6E4E99F
330
EA6E4E996
100
AcDbEntity
  8
0
 62
     0
100
AcDbLine
 10
12.6
 20
1.510953142904804
 30
0.0
 11
12.6
 21
3.013184954832298
 31
0.0
  0
LINE
  5
EA6E4E9A0
330
EA6E4E996
100
AcDbEntity
  8
0
 62
     0
100
AcDbLine
 10
12.6
 20
14.9868150451677
 30
0.0
 11
12.6
 21
16.48904685709519
 31
0.0
  0
LINE
  5
EA6E4E9A1
330
EA6E4E996
100
AcDbEntity
  8
0
 62
     0
100
AcDbLine
 10
12.6
 20
8.260953142904803
 30
0.0
 11
12.6
 21
9.763184954832301
 31
0.0
  0
LINE
  5
EA6E4E9A2
330
EA6E4E996
100
AcDbEntity
  8
0
 62
     0
100
AcDbLine
 10
12.4
 20
0.5106648206422692
 30
0.0
 11
12.4
 21
1.511199667098658
 31
0.0
  0
LINE
  5
EA6E4E9A3
330
EA6E4E996
100
AcDbEntity
  8
0
 62
     0
100
AcDbLine
 10
12.4
 20
16.48880033290133
 30
0.0
 11
12.4
 21
17.48933517935772
 31
0.0
  0
LINE
  5
EA6E4E9A4
330
EA6E4E996
100
AcDbEntity
  8
0
 62
     0
100
AcDbLine
 10
12.4
 20
1.524667731119553
 30
0.0
 11
12.4
 21
3.029706593353226
 31
0.0
  0
LINE
  5
EA6E4E9A5
330
EA6E4E996
100
AcDbEntity
  8
0
 62
     0
100
AcDbLine
 10
12.4
 20
14.97029340664677
 30
0.0
 11
12.4
 21
16.47533226888044
 31
0.0
  0
LINE
  5
EA6E4E9A6
330
EA6E4E996
100
AcDbEntity
  8
0
 62
     0
100
AcDbLine
 10
12.4
 20
8.274667731119556
 30
0.0
 11
12.4
 21
9.779706593353227
 31
0.0
  0
LINE
  5
EA6E4E9A7
330
EA6E4E996
100
AcDbEntity
  8
0
 62
     0
100
AcDbLine
 10
12.19999999999999
 20
0.5189643438906657
 30
0.0
 11
12.19999999999999
 21
1.51991591977186
 31
0.0
  0
LINE
  5
EA6E4E9A8
330
EA6E4E996
100
AcDbEntity
  8
0
 62
     0
100
AcDbLine
 10
12.19999999999999
 20
16.48008408022814
 30
0.0
 11
12.19999999999999
 21
17.48103565610933
 31
0.0
  0
LINE
  5
EA6E4E9A9
330
EA6E4E996
100
AcDbEntity
  8
0
 62
     0
100
AcDbLine
 10
12.19999999999999
 20
1.543911647054931
 30
0.0
 11
12.19999999999999
 21
3.052913047755091
 31
0.0
  0
LINE
  5
EA6E4E9AA
330
EA6E4E996
100
AcDbEntity
  8
0
 62
     0
100
AcDbLine
 10
12.19999999999999
 20
14.94708695224491
 30
0.0
 11
12.19999999999999
 21
16.45608835294505
 31
0.0
  0
LINE
  5
EA6E4E9AB
330
EA6E4E996
100
AcDbEntity
  8
0
 62
     0
100
AcDbLine
 10
12.19999999999999
 20
8.293911647054933
 30
0.0
 11
12.19999999999999
 21
9.802913047755092
 31
0.0
  0
LINE
  5
EA6E4E9AC
330
EA6E4E996
100
AcDbEntity
  8
0
 62
     0
100
AcDbLine
 10
12.0
 20
0.5296411650021327
 30
0.0
 11
12.0
 21
1.531129487302989
 31
0.0
  0
LINE
  5
EA6E4E9AD
330
EA6E4E996
100
AcDbEntity
  8
0
 62
     0
100
AcDbLine
 10
12.0
 20
16.468870512697
 30
0.0
 11
12.0
 21
17.47035883499786
 31
0.0
  0
LINE
  5
EA6E4E9AE
330
EA6E4E996
100
AcDbEntity
  8
0
 62
     0
100
AcDbLine
 10
12.0
 20
1.568728977850376
 30
0.0
 11
12.0
 21
3.082881996483852
 31
0.0
  0
LINE
  5
EA6E4E9AF
330
EA6E4E996
100
AcDbEntity
  8
0
 62
     0
100
AcDbLine
 10
12.0
 20
14.91711800351614
 30
0.0
 11
12.0
 21
16.43127102214962
 31
0.0
  0
LINE
  5
EA6E4E9B0
330
EA6E4E996
100
AcDbEntity
  8
0
 62
     0
100
AcDbLine
 10
12.0
 20
8.318728977850376
 30
0.0
 11
12.0
 21
9.832881996483848
 31
0.0
  0
LINE
  5
EA6E4E9B1
330
EA6E4E996
100
AcDbEntity
  8
0
 62
     0
100
AcDbLine
 10
11.8
 20
0.5426998055585415
 30
0.0
 11
11.8
 21
1.544845609709006
 31
0.0
  0
LINE
  5
EA6E4E9B2
330
EA6E4E996
100
AcDbEntity
  8
0
 62
     0
100
AcDbLine
 10
11.8
 20
16.45515439029098
 30
0.0
 11
11.8
 21
17.45730019444144
 31
0.0
  0
LINE
  5
EA6E4E9B3
330
EA6E4E996
100
AcDbEntity
  8
0
 62
     0
100
AcDbLine
 10
11.8
 20
1.599177274433096
 30
0.0
 11
11.8
 21
3.119715547134022
 31
0.0
  0
LINE
  5
EA6E4E9B4
330
EA6E4E996
100
AcDbEntity
  8
0
 62
     0
100
AcDbLine
 10
11.8
 20
14.88028445286597
 30
0.0
 11
11.8
 21
16.4008227255669
 31
0.0
  0
LINE
  5
EA6E4E9B5
330
EA6E4E996
100
AcDbEntity
  8
0
 62
     0
100
AcDbLine
 10
11.8
 20
8.349177274433094
 30
0.0
 11
11.8
 21
9.869715547134024
 31
0.0
  0
LINE
  5
EA6E4E9B6
330
EA6E4E996
100
AcDbEntity
  8
0
 62
     0
100
AcDbLine
 10
11.59999999999999
 20
0.5581458114356864
 30
0.0
 11
11.59999999999999
 21
1.561070716387176
 31
0.0
  0
LINE
  5
EA6E4E9B7
330
EA6E4E996
100
AcDbEntity
  8
0
 62
     0
100
AcDbLine
 10
11.59999999999999
 20
16.43892928361282
 30
0.0
 11
11.59999999999999
 21
17.44185418856431
 31
0.0
  0
LINE
  5
EA6E4E9B8
330
EA6E4E996
100
AcDbEntity
  8
0
 62
     0
100
AcDbLine
 10
11.59999999999999
 20
1.635328234354861
 30
0.0
 11
11.59999999999999
 21
3.163542034954736
 31
0.0
  0
LINE
  5
EA6E4E9B9
330
EA6E4E996
100
AcDbEntity
  8
0
 62
     0
100
AcDbLine
 10
11.59999999999999
 20
14.83645796504525
 30
0.0
 11
11.59999999999999
 21
16.36467176564513
 31
0.0
  0
LINE
  5
EA6E4E9BA
330
EA6E4E996
100
AcDbEntity
  8
0
 62
     0
100
AcDbLine
 10
11.59999999999999
 20
8.385328234354862
 30
0.0
 11
11.59999999999999
 21
9.913542034954735
 31
0.0
  0
LINE
  5
EA6E4E9BB
330
EA6E4E996
100
AcDbEntity
  8
0
 62
     0
100
AcDbLine
 10
11.4
 20
0.5759857646525575
 30
0.0
 11
11.4
 21
1.579812441286875
 31
0.0
  0
LINE
  5
EA6E4E9BC
330
EA6E4E996
100
AcDbEntity
  8
0
 62
     0
100
AcDbLine
 10
11.4
 20
16.42018755871312
 30
0.0
 11
11.4
 21
17.42401423534744
 31
0.0
  0
LINE
  5
EA6E4E9BD
330
EA6E4E996
100
AcDbEntity
  8
0
 62
     0
100
AcDbLine
 10
11.4
 20
1.677268574155954
 30
0.0
 11
11.4
 21
3.214520049132957
 31
0.0
  0
LINE
  5
EA6E4E9BE
330
EA6E4E996
100
AcDbEntity
  8
0
 62
     0
100
AcDbLine
 10
11.4
 20
14.78547995086702
 30
0.0
 11
11.4
 21
16.32273142584404
 31
0.0
  0
LINE
  5
EA6E4E9BF
330
EA6E4E996
100
AcDbEntity
  8
0
 62
     0
100
AcDbLine
 10
11.4
 20
8.427268574155956
 30
0.0
 11
11.4
 21
9.964520049132961
 31
0.0
  0
LINE
  5
EA6E4E9C0
330
EA6E4E996
100
AcDbEntity
  8
0
 62
     0
100
AcDbLine
 10
11.19999999999999
 20
0.5962272975137566
 30
0.0
 11
11.19999999999999
 21
1.601079641035706
 31
0.0
  0
LINE
  5
EA6E4E9C1
330
EA6E4E996
100
AcDbEntity
  8
0
 62
     0
100
AcDbLine
 10
11.19999999999999
 20
16.39892035896429
 30
0.0
 11
11.19999999999999
 21
17.40377270248623
 31
0.0
  0
LINE
  5
EA6E4E9C2
330
EA6E4E996
100
AcDbEntity
  8
0
 62
     0
100
AcDbLine
 10
11.19999999999999
 20
1.725101116855704
 30
0.0
 11
11.19999999999999
 21
3.274470700593997
 31
0.0
  0
LINE
  5
EA6E4E9C3
330
EA6E4E996
100
AcDbEntity
  8
0
 62
     0
100
AcDbLine
 10
11.19999999999999
 20
14.72552929940599
 30
0.0
 11
11.19999999999999
 21
16.27489888314428
 31
0.0
  0
LINE
  5
EA6E4E9C4
330
EA6E4E996
100
AcDbEntity
  8
0
 62
     0
100
AcDbLine
 10
11.19999999999999
 20
8.475101116855702
 30
0.0
 11
11.19999999999999
 21
10.02447070059399
 31
0.0
  0
LINE
  5
EA6E4E9C5
330
EA6E4E996
100
AcDbEntity
  8
0
 62
     0
100
AcDbLine
 10
11.0
 20
0.6188791091165271
 30
0.0
 11
11.0
 21
1.624882416121604
 31
0.0
  0
LINE
  5
EA6E4E9C6
330
EA6E4E996
100
AcDbEntity
  8
0
 62
     0
100
AcDbLine
 10
11.0
 20
16.37511758387839
 30
0.0
 11
11.0
 21
17.38112089088347
 31
0.0
  0
LINE
  5
EA6E4E9C7
330
EA6E4E996
100
AcDbEntity
  8
0
 62
     0
100
AcDbLine
 10
11.0
 20
1.778946127801587
 30
0.0
 11
11.0
 21
3.345224713883404
 31
0.0
  0
LINE
  5
EA6E4E9C8
330
EA6E4E996
100
AcDbEntity
  8
0
 62
     0
100
AcDbLine
 10
11.0
 20
14.65477528611659
 30
0.0
 11
11.0
 21
16.22105387219841
 31
0.0
  0
LINE
  5
EA6E4E9C9
330
EA6E4E996
100
AcDbEntity
  8
0
 62
     0
100
AcDbLine
 10
11.0
 20
8.528946127801587
 30
0.0
 11
11.0
 21
10.0952247138834
 31
0.0
  0
LINE
  5
EA6E4E9CA
330
EA6E4E996
100
AcDbEntity
  8
0
 62
     0
100
AcDbLine
 10
10.8
 20
0.6439509843066205
 30
0.0
 11
10.8
 21
1.651232135250402
 31
0.0
  0
LINE
  5
EA6E4E9CB
330
EA6E4E996
100
AcDbEntity
  8
0
 62
     0
100
AcDbLine
 10
10.8
 20
16.34876786474959
 30
0.0
 11
10.8
 21
17.35604901569336
 31
0.0
  0
LINE
  5
EA6E4E9CC
330
EA6E4E996
100
AcDbEntity
  8
0
 62
     0
100
AcDbLine
 10
10.8
 20
1.838965527600105
 30
0.0
 11
10.8
 21
3.427362928229201
 31
0.0
  0
LINE
  5
EA6E4E9CD
330
EA6E4E996
100
AcDbEntity
  8
0
 62
     0
100
AcDbLine
 10
10.8
 20
14.57263707177079
 30
0.0
 11
10.8
 21
16.16103447239989
 31
0.0
  0
LINE
  5
EA6E4E9CE
330
EA6E4E996
100
AcDbEntity
  8
0
 62
     0
100
AcDbLine
 10
10.8
 20
8.588965527600102
 30
0.0
 11
10.8
 21
10.17736292822919
 31
0.0
  0
LINE
  5
EA6E4E9CF
330
EA6E4E996
100
AcDbEntity
  8
0
 62
     0
100
AcDbLine
 10
10.6
 20
0.6714538151807618
 30
0.0
 11
10.6
 21
1.680141463018063
 31
0.0
  0
LINE
  5
EA6E4E9D0
330
EA6E4E996
100
AcDbEntity
  8
0
 62
     0
100
AcDbLine
 10
10.6
 20
16.31985853698194
 30
0.0
 11
10.6
 21
17.32854618481924
 31
0.0
  0
LINE
  5
EA6E4E9D1
330
EA6E4E996
100
AcDbEntity
  8
0
 62
     0
100
AcDbLine
 10
10.6
 20
1.906497453997511
 30
0.0
 11
10.6
 21
3.521613256092562
 31
0.0
  0
LINE
  5
EA6E4E9D2
330
EA6E4E996
100
AcDbEntity
  8
0
 62
     0
100
AcDbLine
 10
10.6
 20
14.47838674390743
 30
0.0
 11
10.6
 21
16.09350254600249
 31
0.0
  0
LINE
  5
EA6E4E9D3
330
EA6E4E996
100
AcDbEntity
  8
0
 62
     0
100
AcDbLine
 10
10.6
 20
8.656497453997507
 30
0.0
 11
10.6
 21
10.27161325609256
 31
0.0
  0
LINE
  5
EA6E4E9D4
330
EA6E4E996
100
AcDbEntity
  8
0
 62
     0
100
AcDbLine
 10
10.4
 20
0.7013996252478309
 30
0.0
 11
10.4
 21
1.711624391057782
 31
0.0
  0
LINE
  5
EA6E4E9D5
330
EA6E4E996
100
AcDbEntity
  8
0
 62
     0
100
AcDbLine
 10
10.4
 20
16.28837560894221
 30
0.0
 11
10.4
 21
17.29860037475216
 31
0.0
  0
LINE
  5
EA6E4E9D6
330
EA6E4E996
100
AcDbEntity
  8
0
 62
     0
100
AcDbLine
 10
10.4
 20
1.982488280859818
 30
0.0
 11
10.4
 21
3.628889777131711
 31
0.0
  0
LINE
  5
EA6E4E9D7
330
EA6E4E996
100
AcDbEntity
  8
0
 62
     0
100
AcDbLine
 10
10.4
 20
14.37111022286828
 30
0.0
 11
10.4
 21
16.01751171914017
 31
0.0
  0
LINE
  5
EA6E4E9D8
330
EA6E4E996
100
AcDbEntity
  8
0
 62
     0
100
AcDbLine
 10
10.4
 20
8.732488280859815
 30
0.0
 11
10.4
 21
10.37888977713171
 31
0.0
  0
LINE
  5
EA6E4E9D9
330
EA6E4E996
100
AcDbEntity
  8
0
 62
     0
100
AcDbLine
 10
10.2
 20
0.7338015963764449
 30
0.0
 11
10.2
 21
1.745696272844693
 31
0.0
  0
LINE
  5
EA6E4E9DA
330
EA6E4E996
100
AcDbEntity
  8
0
 62
     0
100
AcDbLine
 10
10.2
 20
16.2543037271553
 30
0.0
 11
10.2
 21
17.26619840362355
 31
0.0
  0
LINE
  5
EA6E4E9DB
330
EA6E4E996
100
AcDbEntity
  8
0
 62
     0
100
AcDbLine
 10
10.2
 20
2.067310355584581
 30
0.0
 11
10.2
 21
3.750348873208846
 31
0.0
  0
LINE
  5
EA6E4E9DC
330
EA6E4E996
100
AcDbEntity
  8
0
 62
     0
100
AcDbLine
 10
10.2
 20
14.24965112679115
 30
0.0
 11
10.2
 21
15.93268964441541
 31
0.0
  0
LINE
  5
EA6E4E9DD
330
EA6E4E996
100
AcDbEntity
  8
0
 62
     0
100
AcDbLine
 10
10.2
 20
8.817310355584577
 30
0.0
 11
10.2
 21
10.50034887320884
 31
0.0
  0
LINE
  5
EA6E4E9DE
330
EA6E4E996
100
AcDbEntity
  8
0
 62
     0
100
AcDbLine
 10
10.0
 20
0.7686740986732376
 30
0.0
 11
10.0
 21
1.782373862365612
 31
0.0
  0
LINE
  5
EA6E4E9DF
330
EA6E4E996
100
AcDbEntity
  8
0
 62
     0
100
AcDbLine
 10
10.0
 20
16.21762613763437
 30
0.0
 11
10.0
 21
17.23132590132675
 31
0.0
  0
LINE
  5
EA6E4E9E0
330
EA6E4E996
100
AcDbEntity
  8
0
 62
     0
100
AcDbLine
 10
10.0
 20
2.16140561915966
 30
0.0
 11
10.0
 21
3.890156991938432
 31
0.0
  0
LINE
  5
EA6E4E9E1
330
EA6E4E996
100
AcDbEntity
  8
0
 62
     0
100
AcDbLine
 10
10.0
 20
14.10984300806157
 30
0.0
 11
10.0
 21
15.83859438084034
 31
0.0
  0
LINE
  5
EA6E4E9E2
330
EA6E4E996
100
AcDbEntity
  8
0
 62
     0
100
AcDbLine
 10
10.0
 20
5.004798018908181
 30
0.0
 11
10.0
 21
6.004798018908182
 31
0.0
  0
LINE
  5
EA6E4E9E3
330
EA6E4E996
100
AcDbEntity
  8
0
 62
     0
100
AcDbLine
 10
10.0
 20
8.911405619159657
 30
0.0
 11
10.0
 21
10.64015699193842
 31
0.0
  0
LINE
  5
EA6E4E9E4
330
EA6E4E996
100
AcDbEntity
  8
0
 62
     0
100
AcDbLine
 10
9.8
 20
0.8060327234544644
 30
0.0
 11
9.8
 21
1.821675356888276
 31
0.0
  0
LINE
  5
EA6E4E9E5
330
EA6E4E996
100
AcDbEntity
  8
0
 62
     0
100
AcDbLine
 10
9.8
 20
16.17832464311171
 30
0.0
 11
9.8
 21
17.19396727654553
 31
0.0
  0
LINE
  5
EA6E4E9E6
330
EA6E4E996
100
AcDbEntity
  8
0
 62
     0
100
AcDbLine
 10
9.8
 20
2.265299594642037
 30
0.0
 11
9.8
 21
4.056258282395599
 31
0.0
  0
LINE
  5
EA6E4E9E7
330
EA6E4E996
100
AcDbEntity
  8
0
 62
     0
100
AcDbLine
 10
9.8
 20
13.9437417176044
 30
0.0
 11
9.8
 21
15.73470040535796
 31
0.0
  0
LINE
  5
EA6E4E9E8
330
EA6E4E996
100
AcDbEntity
  8
0
 62
     0
100
AcDbLine
 10
9.8
 20
5.004798018908181
 30
0.0
 11
9.8
 21
6.004798018908182
 31
0.0
  0
LINE
  5
EA6E4E9E9
330
EA6E4E996
100
AcDbEntity
  8
0
 62
     0
100
AcDbLine
 10
9.8
 20
9.015299594642034
 30
0.0
 11
9.8
 21
10.80625828239559
 31
0.0
  0
LINE
  5
EA6E4E9EA
330
EA6E4E996
100
AcDbEntity
  8
0
 62
     0
100
AcDbLine
 10
9.599999999999999
 20
0.8458943194931476
 30
0.0
 11
9.599999999999999
 21
1.863620444093796
 31
0.0
  0
LINE
  5
EA6E4E9EB
330
EA6E4E996
100
AcDbEntity
  8
0
 62
     0
100
AcDbLine
 10
9.599999999999999
 20
16.13637955590619
 30
0.0
 11
9.599999999999999
 21
17.15410568050685
 31
0.0
  0
LINE
  5
EA6E4E9EC
330
EA6E4E996
100
AcDbEntity
  8
0
 62
     0
100
AcDbLine
 10
9.599999999999999
 20
2.379619810236111
 30
0.0
 11
9.599999999999999
 21
4.255129338783956
 31
0.0
  0
LINE
  5
EA6E4E9ED
330
EA6E4E996
100
AcDbEntity
  8
0
 62
     0
100
AcDbLine
 10
9.599999999999999
 20
13.74487066121605
 30
0.0
 11
9.599999999999999
 21
15.62038018976388
 31
0.0
  0
LINE
  5
EA6E4E9EE
330
EA6E4E996
100
AcDbEntity
  8
0
 62
     0
100
AcDbLine
 10
9.599999999999999
 20
5.004798018908181
 30
0.0
 11
9.600000000000003
 21
6.004798018908182
 31
0.0
  0
LINE
  5
EA6E4E9EF
330
EA6E4E996
100
AcDbEntity
  8
0
 62
     0
100
AcDbLine
 10
9.599999999999999
 20
9.129619810236112
 30
0.0
 11
9.599999999999999
 21
11.00512933878394
 31
0.0
  0
LINE
  5
EA6E4E9F0
330
EA6E4E996
100
AcDbEntity
  8
0
 62
     0
100
AcDbLine
 10
9.4
 20
0.8882770327457548
 30
0.0
 11
9.4
 21
1.908230353869035
 31
0.0
  0
LINE
  5
EA6E4E9F1
330
EA6E4E996
100
AcDbEntity
  8
0
 62
     0
100
AcDbLine
 10
9.4
 20
16.09176964613095
 30
0.0
 11
9.4
 21
17.11172296725424
 31
0.0
  0
LINE
  5
EA6E4E9F2
330
EA6E4E996
100
AcDbEntity
  8
0
 62
     0
100
AcDbLine
 10
9.4
 20
2.505120428334417
 30
0.0
 11
9.4
 21
4.497576932367894
 31
0.0
  0
LINE
  5
EA6E4E9F3
330
EA6E4E996
100
AcDbEntity
  8
0
 62
     0
100
AcDbLine
 10
9.4
 20
13.5024230676321
 30
0.0
 11
9.4
 21
15.49487957166558
 31
0.0
  0
LINE
  5
EA6E4E9F4
330
EA6E4E996
100
AcDbEntity
  8
0
 62
     0
100
AcDbLine
 10
9.4
 20
5.004798018908181
 30
0.0
 11
9.4
 21
6.004798018908182
 31
0.0
  0
LINE
  5
EA6E4E9F5
330
EA6E4E996
100
AcDbEntity
  8
0
 62
     0
100
AcDbLine
 10
9.4
 20
9.255120428334413
 30
0.0
 11
9.4
 21
11.24757693236789
 31
0.0
  0
LINE
  5
EA6E4E9F6
330
EA6E4E996
100
AcDbEntity
  8
0
 62
     0
100
AcDbLine
 10
9.199999999999999
 20
0.9332003497861832
 30
0.0
 11
9.199999999999999
 21
1.955527915091238
 31
0.0
  0
LINE
  5
EA6E4E9F7
330
EA6E4E996
100
AcDbEntity
  8
0
 62
     0
100
AcDbLine
 10
9.199999999999999
 20
16.04447208490875
 30
0.0
 11
9.199999999999999
 21
17.06679965021381
 31
0.0
  0
LINE
  5
EA6E4E9F8
330
EA6E4E996
100
AcDbEntity
  8
0
 62
     0
100
AcDbLine
 10
9.199999999999999
 20
2.642715771748799
 30
0.0
 11
9.199999999999999
 21
4.809644645891883
 31
0.0
  0
LINE
  5
EA6E4E9F9
330
EA6E4E996
100
AcDbEntity
  8
0
 62
     0
100
AcDbLine
 10
9.199999999999999
 20
13.19035535410812
 30
0.0
 11
9.199999999999999
 21
15.3572842282512
 31
0.0
  0
LINE
  5
EA6E4E9FA
330
EA6E4E996
100
AcDbEntity
  8
0
 62
     0
100
AcDbLine
 10
9.199999999999999
 20
5.004798018908181
 30
0.0
 11
9.199999999999999
 21
6.004798018908182
 31
0.0
  0
LINE
  5
EA6E4E9FB
330
EA6E4E996
100
AcDbEntity
  8
0
 62
     0
100
AcDbLine
 10
9.199999999999999
 20
9.392715771748797
 30
0.0
 11
9.199999999999999
 21
11.55964464589189
 31
0.0
  0
LINE
  5
EA6E4E9FC
330
EA6E4E996
100
AcDbEntity
  8
0
 62
     0
100
AcDbLine
 10
9.0
 20
0.9806851452009935
 30
0.0
 11
9.0
 21
2.005537617777612
 31
0.0
  0
LINE
  5
EA6E4E9FD
330
EA6E4E996
100
AcDbEntity
  8
0
 62
     0
100
AcDbLine
 10
9.0
 20
15.99446238222238
 30
0.0
 11
9.0
 21
17.01931485479899
 31
0.0
  0
LINE
  5
EA6E4E9FE
330
EA6E4E996
100
AcDbEntity
  8
0
 62
     0
100
AcDbLine
 10
9.0
 20
2.794145186405889
 30
0.0
 11
9.0
 21
6.004798018908182
 31
0.0
  0
LINE
  5
EA6E4E9FF
330
EA6E4E996
100
AcDbEntity
  8
0
 62
     0
100
AcDbLine
 10
9.0
 20
9.5441451864059
 30
0.0
 11
9.0
 21
15.20604659134991
 31
0.0
  0
LINE
  5
EA6E4EA00
330
EA6E4E996
100
AcDbEntity
  8
0
 62
     0
100
AcDbLine
 10
8.8
 20
1.030753733228884
 30
0.0
 11
8.8
 21
2.058285681017128
 31
0.0
  0
LINE
  5
EA6E4EA01
330
EA6E4E996
100
AcDbEntity
  8
0
 62
     0
100
AcDbLine
 10
8.8
 20
15.94171431898286
 30
0.0
 11
8.8
 21
16.96924626677111
 31
0.0
  0
LINE
  5
EA6E4EA02
330
EA6E4E996
100
AcDbEntity
  8
0
 62
     0
100
AcDbLine
 10
8.8
 20
2.964241435429821
 30
0.0
 11
8.8
 21
6.004798018908182
 31
0.0
  0
LINE
  5
EA6E4EA03
330
EA6E4E996
100
AcDbEntity
  8
0
 62
     0
100
AcDbLine
 10
8.8
 20
9.71424143542983
 30
0.0
 11
8.8
 21
15.03741403325012
 31
0.0
  0
LINE
  5
EA6E4EA04
330
EA6E4E996
100
AcDbEntity
  8
0
 62
     0
100
AcDbLine
 10
8.599999999999999
 20
1.083429923959655
 30
0.0
 11
8.599999999999999
 21
2.113812192151339
 31
0.0
  0
LINE
  5
EA6E4EA05
330
EA6E4E996
100
AcDbEntity
  8
0
 62
     0
100
AcDbLine
 10
8.599999999999999
 20
15.88618780784866
 30
0.0
 11
8.599999999999999
 21
16.91657007604034
 31
0.0
  0
LINE
  5
EA6E4EA06
330
EA6E4E996
100
AcDbEntity
  8
0
 62
     0
100
AcDbLine
 10
8.599999999999999
 20
3.156508117249325
 30
0.0
 11
8.599999999999999
 21
6.004798018908182
 31
0.0
  0
LINE
  5
EA6E4EA07
330
EA6E4E996
100
AcDbEntity
  8
0
 62
     0
100
AcDbLine
 10
8.599999999999999
 20
9.906508117249334
 30
0.0
 11
8.599999999999999
 21
14.84847420540885
 31
0.0
  0
LINE
  5
EA6E4EA08
330
EA6E4E996
100
AcDbEntity
  8
0
 62
     0
100
AcDbLine
 10
8.4
 20
1.138739084443542
 30
0.0
 11
8.4
 21
2.172812631433949
 31
0.0
  0
LINE
  5
EA6E4EA09
330
EA6E4E996
100
AcDbEntity
  8
0
 62
     0
100
AcDbLine
 10
8.4
 20
15.82718736856604
 30
0.0
 11
8.4
 21
16.86126091555645
 31
0.0
  0
LINE
  5
EA6E4EA0A
330
EA6E4E996
100
AcDbEntity
  8
0
 62
     0
100
AcDbLine
 10
8.4
 20
3.375383199960236
 30
0.0
 11
8.4
 21
6.004798018908182
 31
0.0
  0
LINE
  5
EA6E4EA0B
330
EA6E4E996
100
AcDbEntity
  8
0
 62
     0
100
AcDbLine
 10
8.4
 20
10.12538319996024
 30
0.0
 11
8.4
 21
14.63557161972996
 31
0.0
  0
LINE
  5
EA6E4EA0C
330
EA6E4E996
100
AcDbEntity
  8
0
 62
     0
100
AcDbLine
 10
8.200000000000001
 20
1.196733304907503
 30
0.0
 11
8.200000000000001
 21
2.235722402390244
 31
0.0
  0
LINE
  5
EA6E4EA0D
330
EA6E4E996
100
AcDbEntity
  8
0
 62
     0
100
AcDbLine
 10
8.200000000000001
 20
15.76427759760974
 30
0.0
 11
8.200000000000001
 21
16.80326669509248
 31
0.0
  0
LINE
  5
EA6E4EA0E
330
EA6E4E996
100
AcDbEntity
  8
0
 62
     0
100
AcDbLine
 10
8.200000000000001
 20
3.627508786341501
 30
0.0
 11
8.200000000000001
 21
6.004798018908182
 31
0.0
  0
LINE
  5
EA6E4EA0F
330
EA6E4E996
100
AcDbEntity
  8
0
 62
     0
100
AcDbLine
 10
8.200000000000001
 20
10.3775087863415
 30
0.0
 11
8.200000000000001
 21
14.3934422666304
 31
0.0
  0
LINE
  5
EA6E4EA10
330
EA6E4E996
100
AcDbEntity
  8
0
 62
     0
100
AcDbLine
 10
8.0
 20
1.258070209803342
 30
0.0
 11
8.0
 21
2.302608253196726
 31
0.0
  0
LINE
  5
EA6E4EA11
330
EA6E4E996
100
AcDbEntity
  8
0
 62
     0
100
AcDbLine
 10
8.0
 20
15.69739174680327
 30
0.0
 11
8.0
 21
16.74192979019665
 31
0.0
  0
LINE
  5
EA6E4EA12
330
EA6E4E996
100
AcDbEntity
  8
0
 62
     0
100
AcDbLine
 10
8.0
 20
3.923649376593718
 30
0.0
 11
8.0
 21
6.004798018908182
 31
0.0
  0
LINE
  5
EA6E4EA13
330
EA6E4E996
100
AcDbEntity
  8
0
 62
     0
100
AcDbLine
 10
8.0
 20
10.67364937659373
 30
0.0
 11
8.0
 21
14.11401235389756
 31
0.0
  0
LINE
  5
EA6E4EA14
330
EA6E4E996
100
AcDbEntity
  8
0
 62
     0
100
AcDbLine
 10
7.799999999999999
 20
1.323072197862593
 30
0.0
 11
7.799999999999999
 21
2.373542828567604
 31
0.0
  0
LINE
  5
EA6E4EA15
330
EA6E4E996
100
AcDbEntity
  8
0
 62
     0
100
AcDbLine
 10
7.799999999999999
 20
15.62645717143239
 30
0.0
 11
7.799999999999999
 21
16.6769278021374
 31
0.0
  0
LINE
  5
EA6E4EA16
330
EA6E4E996
100
AcDbEntity
  8
0
 62
     0
100
AcDbLine
 10
7.799999999999999
 20
4.287684463111761
 30
0.0
 11
7.800000000000001
 21
6.004798018908182
 31
0.0
  0
LINE
  5
EA6E4EA17
330
EA6E4E996
100
AcDbEntity
  8
0
 62
     0
100
AcDbLine
 10
7.799999999999999
 20
11.03768446311176
 30
0.0
 11
7.799999999999999
 21
13.78369552143277
 31
0.0
  0
LINE
  5
EA6E4EA18
330
EA6E4E996
100
AcDbEntity
  8
0
 62
     0
100
AcDbLine
 10
7.599999999999999
 20
1.391799481934756
 30
0.0
 11
7.599999999999999
 21
2.448605117969133
 31
0.0
  0
LINE
  5
EA6E4EA19
330
EA6E4E996
100
AcDbEntity
  8
0
 62
     0
100
AcDbLine
 10
7.599999999999999
 20
15.55139488203086
 30
0.0
 11
7.599999999999999
 21
16.60820051806523
 31
0.0
  0
LINE
  5
EA6E4EA1A
330
EA6E4E996
100
AcDbEntity
  8
0
 62
     0
100
AcDbLine
 10
7.599999999999999
 20
4.840055661165997
 30
0.0
 11
7.599999999999999
 21
6.004798018908182
 31
0.0
  0
LINE
  5
EA6E4EA1B
330
EA6E4E996
100
AcDbEntity
  8
0
 62
     0
100
AcDbLine
 10
7.599999999999999
 20
11.590055661166
 30
0.0
 11
7.599999999999999
 21
13.31037280736468
 31
0.0
  0
LINE
  5
EA6E4EA1C
330
EA6E4E996
100
AcDbEntity
  8
0
 62
     0
100
AcDbLine
 10
7.4
 20
1.464317169370111
 30
0.0
 11
7.4
 21
2.527880961894759
 31
0.0
  0
LINE
  5
EA6E4EA1D
330
EA6E4E996
100
AcDbEntity
  8
0
 62
     0
100
AcDbLine
 10
7.4
 20
15.47211903810524
 30
0.0
 11
7.4
 21
16.53568283062988
 31
0.0
  0
LINE
  5
EA6E4EA1E
330
EA6E4E996
100
AcDbEntity
  8
0
 62
     0
100
AcDbLine
 10
7.4
 20
5.010858141058445
 30
0.0
 11
7.4
 21
6.004798018908182
 31
0.0
  0
LINE
  5
EA6E4EA1F
330
EA6E4E996
100
AcDbEntity
  8
0
 62
     0
100
AcDbLine
 10
7.2
 20
1.54069561439672
 30
0.0
 11
7.2
 21
2.611463624641877
 31
0.0
  0
LINE
  5
EA6E4EA20
330
EA6E4E996
100
AcDbEntity
  8
0
 62
     0
100
AcDbLine
 10
7.2
 20
15.38853637535811
 30
0.0
 11
7.2
 21
16.45930438560327
 31
0.0
  0
LINE
  5
EA6E4EA21
330
EA6E4E996
100
AcDbEntity
  8
0
 62
     0
100
AcDbLine
 10
7.2
 20
5.009318556112756
 30
0.0
 11
7.2
 21
6.004798018908182
 31
0.0
  0
LINE
  5
EA6E4EA22
330
EA6E4E996
100
AcDbEntity
  8
0
 62
     0
100
AcDbLine
 10
7.0
 20
1.621010812927075
 30
0.0
 11
7.0
 21
2.699454443607051
 31
0.0
  0
LINE
  5
EA6E4EA23
330
EA6E4E996
100
AcDbEntity
  8
0
 62
     0
100
AcDbLine
 10
7.0
 20
15.30054555639295
 30
0.0
 11
7.0
 21
16.37898918707292
 31
0.0
  0
LINE
  5
EA6E4EA24
330
EA6E4E996
100
AcDbEntity
  8
0
 62
     0
100
AcDbLine
 10
7.0
 20
5.007778971167066
 30
0.0
 11
7.0
 21
6.004798018908182
 31
0.0
  0
LINE
  5
EA6E4EA25
330
EA6E4E996
100
AcDbEntity
  8
0
 62
     0
100
AcDbLine
 10
6.799999999999999
 20
1.705344845571651
 30
0.0
 11
6.799999999999999
 21
2.791963567034779
 31
0.0
  0
LINE
  5
EA6E4EA26
330
EA6E4E996
100
AcDbEntity
  8
0
 62
     0
100
AcDbLine
 10
6.799999999999999
 20
15.20803643296522
 30
0.0
 11
6.799999999999999
 21
16.29465515442833
 31
0.0
  0
LINE
  5
EA6E4EA27
330
EA6E4E996
100
AcDbEntity
  8
0
 62
     0
100
AcDbLine
 10
6.799999999999999
 20
5.006239386221376
 30
0.0
 11
6.800000000000001
 21
6.004798018908182
 31
0.0
  0
LINE
  5
EA6E4EA28
330
EA6E4E996
100
AcDbEntity
  8
0
 62
     0
100
AcDbLine
 10
6.599999999999999
 20
1.793786375640561
 30
0.0
 11
6.599999999999999
 21
2.889110794503253
 31
0.0
  0
LINE
  5
EA6E4EA29
330
EA6E4E996
100
AcDbEntity
  8
0
 62
     0
100
AcDbLine
 10
6.599999999999999
 20
15.11088920549675
 30
0.0
 11
6.599999999999999
 21
16.20621362435944
 31
0.0
  0
LINE
  5
EA6E4EA2A
330
EA6E4E996
100
AcDbEntity
  8
0
 62
     0
100
AcDbLine
 10
6.4
 20
1.886431210121016
 30
0.0
 11
6.4
 21
2.991026537321893
 31
0.0
  0
LINE
  5
EA6E4EA2B
330
EA6E4E996
100
AcDbEntity
  8
0
 62
     0
100
AcDbLine
 10
6.4
 20
15.00897346267811
 30
0.0
 11
6.4
 21
16.11356878987898
 31
0.0
  0
LINE
  5
EA6E4EA2C
330
EA6E4E996
100
AcDbEntity
  8
0
 62
     0
100
AcDbLine
 10
6.2
 20
1.983382933076159
 30
0.0
 11
6.2
 21
3.097852919598746
 31
0.0
  0
LINE
  5
EA6E4EA2D
330
EA6E4E996
100
AcDbEntity
  8
0
 62
     0
100
AcDbLine
 10
6.2
 20
14.90214708040125
 30
0.0
 11
6.2
 21
16.01661706692383
 31
0.0
  0
LINE
  5
EA6E4EA2E
330
EA6E4E996
100
AcDbEntity
  8
0
 62
     0
100
AcDbLine
 10
6.0
 20
2.084753622680731
 30
0.0
 11
6.0
 21
3.209745045204609
 31
0.0
  0
LINE
  5
EA6E4EA2F
330
EA6E4E996
100
AcDbEntity
  8
0
 62
     0
100
AcDbLine
 10
6.0
 20
14.79025495479539
 30
0.0
 11
6.0
 21
15.91524637731926
 31
0.0
  0
LINE
  5
EA6E4EA30
330
EA6E4E996
100
AcDbEntity
  8
0
 62
     0
100
AcDbLine
 10
5.799999999999999
 20
2.190664665270343
 30
0.0
 11
5.799999999999999
 21
3.326872461473611
 31
0.0
  0
LINE
  5
EA6E4EA31
330
EA6E4E996
100
AcDbEntity
  8
0
 62
     0
100
AcDbLine
 10
5.799999999999999
 20
14.67312753852638
 30
0.0
 11
5.799999999999999
 21
15.80933533472965
 31
0.0
  0
LINE
  5
EA6E4EA32
330
EA6E4E996
100
AcDbEntity
  8
0
 62
     0
100
AcDbLine
 10
5.599999999999999
 20
2.301247682434635
 30
0.0
 11
5.599999999999999
 21
3.449420857581046
 31
0.0
  0
LINE
  5
EA6E4EA33
330
EA6E4E996
100
AcDbEntity
  8
0
 62
     0
100
AcDbLine
 10
5.599999999999999
 20
14.55057914241896
 30
0.0
 11
5.599999999999999
 21
15.69875231756537
 31
0.0
  0
LINE
  5
EA6E4EA34
330
EA6E4E996
100
AcDbEntity
  8
0
 62
     0
100
AcDbLine
 10
5.4
 20
2.416645590462048
 30
0.0
 11
5.4
 21
3.577594044593456
 31
0.0
  0
LINE
  5
EA6E4EA35
330
EA6E4E996
100
AcDbEntity
  8
0
 62
     0
100
AcDbLine
 10
5.4
 20
14.42240595540654
 30
0.0
 11
5.4
 21
15.58335440953795
 31
0.0
  0
LINE
  5
EA6E4EA36
330
EA6E4E996
100
AcDbEntity
  8
0
 62
     0
100
AcDbLine
 10
5.2
 20
2.53701381551804
 30
0.0
 11
5.2
 21
3.711630126781392
 31
0.0
  0
LINE
  5
EA6E4EA37
330
EA6E4E996
100
AcDbEntity
  8
0
 62
     0
100
AcDbLine
 10
5.2
 20
14.28836987321861
 30
0.0
 11
5.2
 21
15.46298618448196
 31
0.0
  0
LINE
  5
EA6E4EA38
330
EA6E4E996
100
AcDbEntity
  8
0
 62
     0
100
AcDbLine
 10
5.0
 20
2.662521693035724
 30
0.0
 11
5.0
 21
3.853216504577136
 31
0.0
  0
LINE
  5
EA6E4EA39
330
EA6E4E996
100
AcDbEntity
  8
0
 62
     0
100
AcDbLine
 10
5.0
 20
14.14678349542286
 30
0.0
 11
5.0
 21
15.33747830696428
 31
0.0
  0
LINE
  5
EA6E4EA3A
330
EA6E4E996
100
AcDbEntity
  8
0
 62
     0
100
AcDbLine
 10
4.799999999999999
 20
2.793354086221263
 30
0.0
 11
4.799999999999999
 21
4.003783113073376
 31
0.0
  0
LINE
  5
EA6E4EA3B
330
EA6E4E996
100
AcDbEntity
  8
0
 62
     0
100
AcDbLine
 10
4.799999999999999
 20
13.99621688692662
 30
0.0
 11
4.799999999999999
 21
15.20664591377872
 31
0.0
  0
LINE
  5
EA6E4EA3C
330
EA6E4E996
100
AcDbEntity
  8
0
 62
     0
100
AcDbLine
 10
4.599999999999999
 20
2.929713266730669
 30
0.0
 11
4.599999999999999
 21
4.163951885275562
 31
0.0
  0
LINE
  5
EA6E4EA3D
330
EA6E4E996
100
AcDbEntity
  8
0
 62
     0
100
AcDbLine
 10
4.599999999999999
 20
13.83604811472443
 30
0.0
 11
4.599999999999999
 21
15.07028673326932
 31
0.0
  0
LINE
  5
EA6E4EA3E
330
EA6E4E996
100
AcDbEntity
  8
0
 62
     0
100
AcDbLine
 10
4.4
 20
3.072155023749401
 30
0.0
 11
4.4
 21
4.334449219425922
 31
0.0
  0
LINE
  5
EA6E4EA3F
330
EA6E4E996
100
AcDbEntity
  8
0
 62
     0
100
AcDbLine
 10
4.4
 20
13.66555078057407
 30
0.0
 11
4.4
 21
14.92784497625058
 31
0.0
  0
LINE
  5
EA6E4EA40
330
EA6E4E996
100
AcDbEntity
  8
0
 62
     0
100
AcDbLine
 10
4.2
 20
3.222522228922893
 30
0.0
 11
4.2
 21
4.516131333158581
 31
0.0
  0
LINE
  5
EA6E4EA41
330
EA6E4E996
100
AcDbEntity
  8
0
 62
     0
100
AcDbLine
 10
4.2
 20
13.4838686668414
 30
0.0
 11
4.2
 21
14.77747777107709
 31
0.0
  0
LINE
  5
EA6E4EA42
330
EA6E4E996
100
AcDbEntity
  8
0
 62
     0
100
AcDbLine
 10
4.0
 20
3.381496362144701
 30
0.0
 11
4.0
 21
4.710018288129922
 31
0.0
  0
LINE
  5
EA6E4EA43
330
EA6E4E996
100
AcDbEntity
  8
0
 62
     0
100
AcDbLine
 10
4.0
 20
13.28998171187007
 30
0.0
 11
4.0
 21
14.6185036378553
 31
0.0
  0
LINE
  5
EA6E4EA44
330
EA6E4E996
100
AcDbEntity
  8
0
 62
     0
100
AcDbLine
 10
3.799999999999999
 20
3.549655387637881
 30
0.0
 11
3.799999999999999
 21
4.917340616816316
 31
0.0
  0
LINE
  5
EA6E4EA45
330
EA6E4E996
100
AcDbEntity
  8
0
 62
     0
100
AcDbLine
 10
3.799999999999999
 20
13.08265938318368
 30
0.0
 11
3.799999999999999
 21
14.4503446123621
 31
0.0
  0
LINE
  5
EA6E4EA46
330
EA6E4E996
100
AcDbEntity
  8
0
 62
     0
100
AcDbLine
 10
3.6
 20
3.727668483578981
 30
0.0
 11
3.6
 21
5.139604787888837
 31
0.0
  0
LINE
  5
EA6E4EA47
330
EA6E4E996
100
AcDbEntity
  8
0
 62
     0
100
AcDbLine
 10
3.6
 20
12.86039521211116
 30
0.0
 11
3.6
 21
14.27233151642101
 31
0.0
  0
LINE
  5
EA6E4EA48
330
EA6E4E996
100
AcDbEntity
  8
0
 62
     0
100
AcDbLine
 10
3.399999999999999
 20
3.916316932017076
 30
0.0
 11
3.399999999999999
 21
5.378687769154121
 31
0.0
  0
LINE
  5
EA6E4EA49
330
EA6E4E996
100
AcDbEntity
  8
0
 62
     0
100
AcDbLine
 10
3.399999999999999
 20
12.62131223084586
 30
0.0
 11
3.399999999999999
 21
14.08368306798291
 31
0.0
  0
LINE
  5
EA6E4EA4A
330
EA6E4E996
100
AcDbEntity
  8
0
 62
     0
100
AcDbLine
 10
3.2
 20
4.116521701929555
 30
0.0
 11
3.2
 21
5.63697830289019
 31
0.0
  0
LINE
  5
EA6E4EA4B
330
EA6E4E996
100
AcDbEntity
  8
0
 62
     0
100
AcDbLine
 10
3.2
 20
12.36302169710981
 30
0.0
 11
3.2
 21
13.88347829807043
 31
0.0
  0
LINE
  5
EA6E4EA4C
330
EA6E4E996
100
AcDbEntity
  8
0
 62
     0
100
AcDbLine
 10
3.0
 20
4.329380554923221
 30
0.0
 11
3.0
 21
5.917596726934862
 31
0.0
  0
LINE
  5
EA6E4EA4D
330
EA6E4E996
100
AcDbEntity
  8
0
 62
     0
100
AcDbLine
 10
3.0
 20
12.08240327306513
 30
0.0
 11
3.0
 21
13.67061944507678
 31
0.0
  0
LINE
  5
EA6E4EA4E
330
EA6E4E996
100
AcDbEntity
  8
0
 62
     0
100
AcDbLine
 10
2.799999999999999
 20
4.556219039421013
 30
0.0
 11
2.799999999999999
 21
6.224754572119449
 31
0.0
  0
LINE
  5
EA6E4EA4F
330
EA6E4E996
100
AcDbEntity
  8
0
 62
     0
100
AcDbLine
 10
2.799999999999999
 20
11.77524542788054
 30
0.0
 11
2.799999999999999
 21
13.44378096057899
 31
0.0
  0
LINE
  5
EA6E4EA50
330
EA6E4E996
100
AcDbEntity
  8
0
 62
     0
100
AcDbLine
 10
2.6
 20
4.798662328218999
 30
0.0
 11
2.6
 21
6.572120102877027
 31
0.0
  0
LINE
  5
EA6E4EA51
330
EA6E4E996
100
AcDbEntity
  8
0
 62
     0
100
AcDbLine
 10
2.6
 20
11.42787989712297
 30
0.0
 11
2.6
 21
13.20133767178099
 31
0.0
  0
LINE
  5
EA6E4EA52
330
EA6E4E996
100
AcDbEntity
  8
0
 62
     0
100
AcDbLine
 10
2.399999999999999
 20
5.058739397750326
 30
0.0
 11
2.399999999999999
 21
6.997568012831423
 31
0.0
  0
LINE
  5
EA6E4EA53
330
EA6E4E996
100
AcDbEntity
  8
0
 62
     0
100
AcDbLine
 10
2.399999999999999
 20
11.00243198716857
 30
0.0
 11
2.399999999999999
 21
12.94126060224967
 31
0.0
  0
LINE
  5
EA6E4EA54
330
EA6E4E996
100
AcDbEntity
  8
0
 62
     0
100
AcDbLine
 10
2.2
 20
5.339039409038378
 30
0.0
 11
2.2
 21
7.570011562418093
 31
0.0
  0
LINE
  5
EA6E4EA55
330
EA6E4E996
100
AcDbEntity
  8
0
 62
     0
100
AcDbLine
 10
2.2
 20
10.4299884375819
 30
0.0
 11
2.2
 21
12.66096059096161
 31
0.0
  0
LINE
  5
EA6E4EA56
330
EA6E4E996
100
AcDbEntity
  8
0
 62
     0
100
AcDbLine
 10
2.0
 20
5.642956437377446
 30
0.0
 11
2.0
 21
12.35704356262255
 31
0.0
  0
LINE
  5
EA6E4EA57
330
EA6E4E996
100
AcDbEntity
  8
0
 62
     0
100
AcDbLine
 10
1.8
 20
5.97540056854588
 30
0.0
 11
1.8
 21
12.02459943145411
 31
0.0
  0
LINE
  5
EA6E4EA58
330
EA6E4E996
100
AcDbEntity
  8
0
 62
     0
100
AcDbLine
 10
1.6
 20
6.357813161306637
 30
0.0
 11
1.6
 21
11.64218683869336
 31
0.0
  0
LINE
  5
EA6E4EA59
330
EA6E4E996
100
AcDbEntity
  8
0
 62
     0
100
AcDbLine
 10
1.399999999999999
 20
6.824201098360354
 30
0.0
 11
1.399999999999999
 21
11.17579890163963
 31
0.0
  0
LINE
  5
EA6E4EA5A
330
EA6E4E996
100
AcDbEntity
  8
0
 62
     0
100
AcDbLine
 10
1.199999999999999
 20
7.448532813692753
 30
0.0
 11
1.199999999999999
 21
10.55146718630725
 31
0.0
  0
LINE
  5
EA6E4EA5B
330
EA6E4E996
100
AcDbEntity
  8
0
 62
     0
100
AcDbLine
 10
13.2
 20
0.5011846473685893
 30
0.0
 11
13.2
 21
1.501244022154416
 31
0.0
  0
LINE
  5
EA6E4EA5C
330
EA6E4E996
100
AcDbEntity
  8
0
 62
     0
100
AcDbLine
 10
13.2
 20
16.49875597784558
 30
0.0
 11
13.2
 21
17.49881535263141
 31
0.0
  0
LINE
  5
EA6E4EA5D
330
EA6E4E996
100
AcDbEntity
  8
0
 62
     0
100
AcDbLine
 10
13.2
 20
1.502736746385633
 30
0.0
 11
13.2
 21
3.003293554097711
 31
0.0
  0
LINE
  5
EA6E4EA5E
330
EA6E4E996
100
AcDbEntity
  8
0
 62
     0
100
AcDbLine
 10
13.2
 20
14.99670644590227
 30
0.0
 11
13.2
 21
16.49726325361435
 31
0.0
  0
LINE
  5
EA6E4EA5F
330
EA6E4E996
100
AcDbEntity
  8
0
 62
     0
100
AcDbLine
 10
13.2
 20
8.246706445902287
 30
0.0
 11
13.2
 21
9.747263253614363
 31
0.0
  0
LINE
  5
EA6E4EA60
330
EA6E4E996
100
AcDbEntity
  8
0
 62
     0
100
AcDbLine
 10
13.4
 20
0.5047390883533467
 30
0.0
 11
13.4
 21
1.504976666345426
 31
0.0
  0
LINE
  5
EA6E4EA61
330
EA6E4E996
100
AcDbEntity
  8
0
 62
     0
100
AcDbLine
 10
13.4
 20
16.49502333365457
 30
0.0
 11
13.4
 21
17.49526091164666
 31
0.0
  0
LINE
  5
EA6E4EA62
330
EA6E4E996
100
AcDbEntity
  8
0
 62
     0
100
AcDbLine
 10
13.4
 20
1.510953142904803
 30
0.0
 11
13.4
 21
3.013184954832297
 31
0.0
  0
LINE
  5
EA6E4EA63
330
EA6E4E996
100
AcDbEntity
  8
0
 62
     0
100
AcDbLine
 10
13.4
 20
14.9868150451677
 30
0.0
 11
13.4
 21
16.4890468570952
 31
0.0
  0
LINE
  5
EA6E4EA64
330
EA6E4E996
100
AcDbEntity
  8
0
 62
     0
100
AcDbLine
 10
13.4
 20
8.236815045167702
 30
0.0
 11
13.4
 21
9.739046857095198
 31
0.0
  0
LINE
  5
EA6E4EA65
330
EA6E4E996
100
AcDbEntity
  8
0
 62
     0
100
AcDbLine
 10
13.6
 20
0.5106648206422763
 30
0.0
 11
13.6
 21
1.511199667098658
 31
0.0
  0
LINE
  5
EA6E4EA66
330
EA6E4E996
100
AcDbEntity
  8
0
 62
     0
100
AcDbLine
 10
13.6
 20
16.48880033290133
 30
0.0
 11
13.6
 21
17.48933517935772
 31
0.0
  0
LINE
  5
EA6E4EA67
330
EA6E4E996
100
AcDbEntity
  8
0
 62
     0
100
AcDbLine
 10
13.6
 20
1.524667731119555
 30
0.0
 11
13.6
 21
3.029706593353223
 31
0.0
  0
LINE
  5
EA6E4EA68
330
EA6E4E996
100
AcDbEntity
  8
0
 62
     0
100
AcDbLine
 10
13.6
 20
14.97029340664677
 30
0.0
 11
13.6
 21
16.47533226888044
 31
0.0
  0
LINE
  5
EA6E4EA69
330
EA6E4E996
100
AcDbEntity
  8
0
 62
     0
100
AcDbLine
 10
13.6
 20
8.220293406646776
 30
0.0
 11
13.6
 21
9.725332268880443
 31
0.0
  0
LINE
  5
EA6E4EA6A
330
EA6E4E996
100
AcDbEntity
  8
0
 62
     0
100
AcDbLine
 10
13.8
 20
0.5189643438906657
 30
0.0
 11
13.8
 21
1.519915919771853
 31
0.0
  0
LINE
  5
EA6E4EA6B
330
EA6E4E996
100
AcDbEntity
  8
0
 62
     0
100
AcDbLine
 10
13.8
 20
16.48008408022814
 30
0.0
 11
13.8
 21
17.48103565610933
 31
0.0
  0
LINE
  5
EA6E4EA6C
330
EA6E4E996
100
AcDbEntity
  8
0
 62
     0
100
AcDbLine
 10
13.8
 20
1.543911647054934
 30
0.0
 11
13.8
 21
3.052913047755087
 31
0.0
  0
LINE
  5
EA6E4EA6D
330
EA6E4E996
100
AcDbEntity
  8
0
 62
     0
100
AcDbLine
 10
13.8
 20
14.94708695224491
 30
0.0
 11
13.8
 21
16.45608835294505
 31
0.0
  0
LINE
  5
EA6E4EA6E
330
EA6E4E996
100
AcDbEntity
  8
0
 62
     0
100
AcDbLine
 10
13.8
 20
8.197086952244912
 30
0.0
 11
13.8
 21
9.706088352945066
 31
0.0
  0
LINE
  5
EA6E4EA6F
330
EA6E4E996
100
AcDbEntity
  8
0
 62
     0
100
AcDbLine
 10
14.0
 20
0.5296411650021327
 30
0.0
 11
14.0
 21
1.531129487302989
 31
0.0
  0
LINE
  5
EA6E4EA70
330
EA6E4E996
100
AcDbEntity
  8
0
 62
     0
100
AcDbLine
 10
14.0
 20
16.468870512697
 30
0.0
 11
14.0
 21
17.47035883499786
 31
0.0
  0
LINE
  5
EA6E4EA71
330
EA6E4E996
100
AcDbEntity
  8
0
 62
     0
100
AcDbLine
 10
14.0
 20
1.568728977850379
 30
0.0
 11
14.0
 21
3.08288199648385
 31
0.0
  0
LINE
  5
EA6E4EA72
330
EA6E4E996
100
AcDbEntity
  8
0
 62
     0
100
AcDbLine
 10
14.0
 20
14.91711800351614
 30
0.0
 11
14.0
 21
16.43127102214962
 31
0.0
  0
LINE
  5
EA6E4EA73
330
EA6E4E996
100
AcDbEntity
  8
0
 62
     0
100
AcDbLine
 10
14.0
 20
8.167118003516151
 30
0.0
 11
14.0
 21
9.681271022149623
 31
0.0
  0
LINE
  5
EA6E4EA74
330
EA6E4E996
100
AcDbEntity
  8
0
 62
     0
100
AcDbLine
 10
14.19999999999999
 20
0.5426998055585486
 30
0.0
 11
14.19999999999999
 21
1.544845609709006
 31
0.0
  0
LINE
  5
EA6E4EA75
330
EA6E4E996
100
AcDbEntity
  8
0
 62
     0
100
AcDbLine
 10
14.19999999999999
 20
16.45515439029098
 30
0.0
 11
14.19999999999999
 21
17.45730019444144
 31
0.0
  0
LINE
  5
EA6E4EA76
330
EA6E4E996
100
AcDbEntity
  8
0
 62
     0
100
AcDbLine
 10
14.19999999999999
 20
1.599177274433096
 30
0.0
 11
14.19999999999999
 21
3.119715547134022
 31
0.0
  0
LINE
  5
EA6E4EA77
330
EA6E4E996
100
AcDbEntity
  8
0
 62
     0
100
AcDbLine
 10
14.19999999999999
 20
14.88028445286597
 30
0.0
 11
14.19999999999999
 21
16.4008227255669
 31
0.0
  0
LINE
  5
EA6E4EA78
330
EA6E4E996
100
AcDbEntity
  8
0
 62
     0
100
AcDbLine
 10
14.19999999999999
 20
8.130284452865977
 30
0.0
 11
14.19999999999999
 21
9.650822725566902
 31
0.0
  0
LINE
  5
EA6E4EA79
330
EA6E4E996
100
AcDbEntity
  8
0
 62
     0
100
AcDbLine
 10
14.4
 20
0.5581458114356935
 30
0.0
 11
14.4
 21
1.561070716387185
 31
0.0
  0
LINE
  5
EA6E4EA7A
330
EA6E4E996
100
AcDbEntity
  8
0
 62
     0
100
AcDbLine
 10
14.4
 20
16.43892928361282
 30
0.0
 11
14.4
 21
17.44185418856431
 31
0.0
  0
LINE
  5
EA6E4EA7B
330
EA6E4E996
100
AcDbEntity
  8
0
 62
     0
100
AcDbLine
 10
14.4
 20
1.635328234354861
 30
0.0
 11
14.4
 21
3.163542034954738
 31
0.0
  0
LINE
  5
EA6E4EA7C
330
EA6E4E996
100
AcDbEntity
  8
0
 62
     0
100
AcDbLine
 10
14.4
 20
14.83645796504525
 30
0.0
 11
14.4
 21
16.36467176564514
 31
0.0
  0
LINE
  5
EA6E4EA7D
330
EA6E4E996
100
AcDbEntity
  8
0
 62
     0
100
AcDbLine
 10
14.4
 20
8.086457965045266
 30
0.0
 11
14.4
 21
9.614671765645139
 31
0.0
  0
LINE
  5
EA6E4EA7E
330
EA6E4E996
100
AcDbEntity
  8
0
 62
     0
100
AcDbLine
 10
14.59999999999999
 20
0.5759857646525646
 30
0.0
 11
14.59999999999999
 21
1.579812441286875
 31
0.0
  0
LINE
  5
EA6E4EA7F
330
EA6E4E996
100
AcDbEntity
  8
0
 62
     0
100
AcDbLine
 10
14.59999999999999
 20
16.42018755871312
 30
0.0
 11
14.59999999999999
 21
17.42401423534744
 31
0.0
  0
LINE
  5
EA6E4EA80
330
EA6E4E996
100
AcDbEntity
  8
0
 62
     0
100
AcDbLine
 10
14.59999999999999
 20
1.677268574155958
 30
0.0
 11
14.59999999999999
 21
3.214520049132959
 31
0.0
  0
LINE
  5
EA6E4EA81
330
EA6E4E996
100
AcDbEntity
  8
0
 62
     0
100
AcDbLine
 10
14.59999999999999
 20
14.78547995086704
 30
0.0
 11
14.59999999999999
 21
16.32273142584404
 31
0.0
  0
LINE
  5
EA6E4EA82
330
EA6E4E996
100
AcDbEntity
  8
0
 62
     0
100
AcDbLine
 10
14.59999999999999
 20
8.035479950867044
 30
0.0
 11
14.59999999999999
 21
9.572731425844038
 31
0.0
  0
LINE
  5
EA6E4EA83
330
EA6E4E996
100
AcDbEntity
  8
0
 62
     0
100
AcDbLine
 10
14.8
 20
0.5962272975137566
 30
0.0
 11
14.8
 21
1.601079641035706
 31
0.0
  0
LINE
  5
EA6E4EA84
330
EA6E4E996
100
AcDbEntity
  8
0
 62
     0
100
AcDbLine
 10
14.8
 20
16.39892035896429
 30
0.0
 11
14.8
 21
17.40377270248623
 31
0.0
  0
LINE
  5
EA6E4EA85
330
EA6E4E996
100
AcDbEntity
  8
0
 62
     0
100
AcDbLine
 10
14.8
 20
1.725101116855706
 30
0.0
 11
14.8
 21
3.274470700593996
 31
0.0
  0
LINE
  5
EA6E4EA86
330
EA6E4E996
100
AcDbEntity
  8
0
 62
     0
100
AcDbLine
 10
14.8
 20
14.72552929940599
 30
0.0
 11
14.8
 21
16.27489888314428
 31
0.0
  0
LINE
  5
EA6E4EA87
330
EA6E4E996
100
AcDbEntity
  8
0
 62
     0
100
AcDbLine
 10
14.8
 20
7.975529299406007
 30
0.0
 11
14.8
 21
9.524898883144292
 31
0.0
  0
LINE
  5
EA6E4EA88
330
EA6E4E996
100
AcDbEntity
  8
0
 62
     0
100
AcDbLine
 10
15.0
 20
0.6188791091165271
 30
0.0
 11
15.0
 21
1.624882416121606
 31
0.0
  0
LINE
  5
EA6E4EA89
330
EA6E4E996
100
AcDbEntity
  8
0
 62
     0
100
AcDbLine
 10
15.0
 20
16.37511758387839
 30
0.0
 11
15.0
 21
17.38112089088347
 31
0.0
  0
LINE
  5
EA6E4EA8A
330
EA6E4E996
100
AcDbEntity
  8
0
 62
     0
100
AcDbLine
 10
15.0
 20
1.778946127801589
 30
0.0
 11
15.0
 21
3.345224713883408
 31
0.0
  0
LINE
  5
EA6E4EA8B
330
EA6E4E996
100
AcDbEntity
  8
0
 62
     0
100
AcDbLine
 10
15.0
 20
14.65477528611659
 30
0.0
 11
15.0
 21
16.22105387219841
 31
0.0
  0
LINE
  5
EA6E4EA8C
330
EA6E4E996
100
AcDbEntity
  8
0
 62
     0
100
AcDbLine
 10
15.0
 20
7.904775286116595
 30
0.0
 11
15.0
 21
9.471053872198412
 31
0.0
  0
LINE
  5
EA6E4EA8D
330
EA6E4E996
100
AcDbEntity
  8
0
 62
     0
100
AcDbLine
 10
15.2
 20
0.6439509843066205
 30
0.0
 11
15.2
 21
1.651232135250402
 31
0.0
  0
LINE
  5
EA6E4EA8E
330
EA6E4E996
100
AcDbEntity
  8
0
 62
     0
100
AcDbLine
 10
15.2
 20
16.34876786474959
 30
0.0
 11
15.2
 21
17.35604901569337
 31
0.0
  0
LINE
  5
EA6E4EA8F
330
EA6E4E996
100
AcDbEntity
  8
0
 62
     0
100
AcDbLine
 10
15.2
 20
1.838965527600104
 30
0.0
 11
15.2
 21
3.427362928229201
 31
0.0
  0
LINE
  5
EA6E4EA90
330
EA6E4E996
100
AcDbEntity
  8
0
 62
     0
100
AcDbLine
 10
15.2
 20
14.5726370717708
 30
0.0
 11
15.2
 21
16.16103447239989
 31
0.0
  0
LINE
  5
EA6E4EA91
330
EA6E4E996
100
AcDbEntity
  8
0
 62
     0
100
AcDbLine
 10
15.2
 20
7.822637071770802
 30
0.0
 11
15.2
 21
9.411034472399894
 31
0.0
  0
LINE
  5
EA6E4EA92
330
EA6E4E996
100
AcDbEntity
  8
0
 62
     0
100
AcDbLine
 10
15.4
 20
0.6714538151807618
 30
0.0
 11
15.4
 21
1.680141463018063
 31
0.0
  0
LINE
  5
EA6E4EA93
330
EA6E4E996
100
AcDbEntity
  8
0
 62
     0
100
AcDbLine
 10
15.4
 20
16.31985853698193
 30
0.0
 11
15.4
 21
17.32854618481924
 31
0.0
  0
LINE
  5
EA6E4EA94
330
EA6E4E996
100
AcDbEntity
  8
0
 62
     0
100
AcDbLine
 10
15.4
 20
1.906497453997511
 30
0.0
 11
15.4
 21
3.521613256092558
 31
0.0
  0
LINE
  5
EA6E4EA95
330
EA6E4E996
100
AcDbEntity
  8
0
 62
     0
100
AcDbLine
 10
15.4
 20
14.47838674390744
 30
0.0
 11
15.4
 21
16.09350254600248
 31
0.0
  0
LINE
  5
EA6E4EA96
330
EA6E4E996
100
AcDbEntity
  8
0
 62
     0
100
AcDbLine
 10
15.4
 20
7.728386743907438
 30
0.0
 11
15.4
 21
9.343502546002484
 31
0.0
  0
LINE
  5
EA6E4EA97
330
EA6E4E996
100
AcDbEntity
  8
0
 62
     0
100
AcDbLine
 10
15.6
 20
0.701399625247838
 30
0.0
 11
15.6
 21
1.711624391057784
 31
0.0
  0
LINE
  5
EA6E4EA98
330
EA6E4E996
100
AcDbEntity
  8
0
 62
     0
100
AcDbLine
 10
15.6
 20
16.28837560894221
 30
0.0
 11
15.6
 21
17.29860037475216
 31
0.0
  0
LINE
  5
EA6E4EA99
330
EA6E4E996
100
AcDbEntity
  8
0
 62
     0
100
AcDbLine
 10
15.6
 20
1.982488280859824
 30
0.0
 11
15.6
 21
3.628889777131711
 31
0.0
  0
LINE
  5
EA6E4EA9A
330
EA6E4E996
100
AcDbEntity
  8
0
 62
     0
100
AcDbLine
 10
15.6
 20
14.37111022286828
 30
0.0
 11
15.6
 21
16.01751171914017
 31
0.0
  0
LINE
  5
EA6E4EA9B
330
EA6E4E996
100
AcDbEntity
  8
0
 62
     0
100
AcDbLine
 10
15.6
 20
7.621110222868287
 30
0.0
 11
15.6
 21
9.267511719140172
 31
0.0
  0
LINE
  5
EA6E4EA9C
330
EA6E4E996
100
AcDbEntity
  8
0
 62
     0
100
AcDbLine
 10
15.8
 20
0.7338015963764449
 30
0.0
 11
15.8
 21
1.745696272844693
 31
0.0
  0
LINE
  5
EA6E4EA9D
330
EA6E4E996
100
AcDbEntity
  8
0
 62
     0
100
AcDbLine
 10
15.8
 20
16.2543037271553
 30
0.0
 11
15.8
 21
17.26619840362355
 31
0.0
  0
LINE
  5
EA6E4EA9E
330
EA6E4E996
100
AcDbEntity
  8
0
 62
     0
100
AcDbLine
 10
15.8
 20
2.067310355584581
 30
0.0
 11
15.8
 21
3.750348873208841
 31
0.0
  0
LINE
  5
EA6E4EA9F
330
EA6E4E996
100
AcDbEntity
  8
0
 62
     0
100
AcDbLine
 10
15.8
 20
14.24965112679115
 30
0.0
 11
15.8
 21
15.9326896444154
 31
0.0
  0
LINE
  5
EA6E4EAA0
330
EA6E4E996
100
AcDbEntity
  8
0
 62
     0
100
AcDbLine
 10
15.8
 20
7.499651126791158
 30
0.0
 11
15.8
 21
9.182689644415415
 31
0.0
  0
LINE
  5
EA6E4EAA1
330
EA6E4E996
100
AcDbEntity
  8
0
 62
     0
100
AcDbLine
 10
16.0
 20
0.7686740986732376
 30
0.0
 11
16.0
 21
1.78237386236562
 31
0.0
  0
LINE
  5
EA6E4EAA2
330
EA6E4E996
100
AcDbEntity
  8
0
 62
     0
100
AcDbLine
 10
16.0
 20
16.21762613763437
 30
0.0
 11
16.0
 21
17.23132590132675
 31
0.0
  0
LINE
  5
EA6E4EAA3
330
EA6E4E996
100
AcDbEntity
  8
0
 62
     0
100
AcDbLine
 10
16.0
 20
2.16140561915966
 30
0.0
 11
16.0
 21
3.88958648698698
 31
0.0
  0
LINE
  5
EA6E4EAA4
330
EA6E4E996
100
AcDbEntity
  8
0
 62
     0
100
AcDbLine
 10
16.0
 20
14.10984300806157
 30
0.0
 11
16.0
 21
15.83859438084033
 31
0.0
  0
LINE
  5
EA6E4EAA5
330
EA6E4E996
100
AcDbEntity
  8
0
 62
     0
100
AcDbLine
 10
16.0
 20
7.359843008061576
 30
0.0
 11
16.0
 21
9.088594380840335
 31
0.0
  0
LINE
  5
EA6E4EAA6
330
EA6E4E996
100
AcDbEntity
  8
0
 62
     0
100
AcDbLine
 10
16.0
 20
11.99520198109181
 30
0.0
 11
16.0
 21
12.99520198109181
 31
0.0
  0
LINE
  5
EA6E4EAA7
330
EA6E4E996
100
AcDbEntity
  8
0
 62
     0
100
AcDbLine
 10
16.2
 20
0.8060327234544644
 30
0.0
 11
16.2
 21
1.821675356888281
 31
0.0
  0
LINE
  5
EA6E4EAA8
330
EA6E4E996
100
AcDbEntity
  8
0
 62
     0
100
AcDbLine
 10
16.2
 20
16.17832464311171
 30
0.0
 11
16.2
 21
17.19396727654554
 31
0.0
  0
LINE
  5
EA6E4EAA9
330
EA6E4E996
100
AcDbEntity
  8
0
 62
     0
100
AcDbLine
 10
16.2
 20
2.265299594642034
 30
0.0
 11
16.2
 21
4.053212394630294
 31
0.0
  0
LINE
  5
EA6E4EAAA
330
EA6E4E996
100
AcDbEntity
  8
0
 62
     0
100
AcDbLine
 10
16.2
 20
13.9437417176044
 30
0.0
 11
16.2
 21
15.73470040535795
 31
0.0
  0
LINE
  5
EA6E4EAAB
330
EA6E4E996
100
AcDbEntity
  8
0
 62
     0
100
AcDbLine
 10
16.2
 20
7.19374171760441
 30
0.0
 11
16.2
 21
8.984700405357962
 31
0.0
  0
LINE
  5
EA6E4EAAC
330
EA6E4E996
100
AcDbEntity
  8
0
 62
     0
100
AcDbLine
 10
16.2
 20
11.99520198109181
 30
0.0
 11
16.2
 21
12.99520198109181
 31
0.0
  0
LINE
  5
EA6E4EAAD
330
EA6E4E996
100
AcDbEntity
  8
0
 62
     0
100
AcDbLine
 10
16.39999999999999
 20
0.8458943194931476
 30
0.0
 11
16.39999999999999
 21
1.8636204440938
 31
0.0
  0
LINE
  5
EA6E4EAAE
330
EA6E4E996
100
AcDbEntity
  8
0
 62
     0
100
AcDbLine
 10
16.39999999999999
 20
16.13637955590618
 30
0.0
 11
16.39999999999999
 21
17.15410568050685
 31
0.0
  0
LINE
  5
EA6E4EAAF
330
EA6E4E996
100
AcDbEntity
  8
0
 62
     0
100
AcDbLine
 10
16.39999999999999
 20
2.379619810236118
 30
0.0
 11
16.39999999999999
 21
4.246668995439238
 31
0.0
  0
LINE
  5
EA6E4EAB0
330
EA6E4E996
100
AcDbEntity
  8
0
 62
     0
100
AcDbLine
 10
16.39999999999999
 20
13.74487066121605
 30
0.0
 11
16.39999999999999
 21
15.62038018976386
 31
0.0
  0
LINE
  5
EA6E4EAB1
330
EA6E4E996
100
AcDbEntity
  8
0
 62
     0
100
AcDbLine
 10
16.39999999999999
 20
6.994870661216054
 30
0.0
 11
16.39999999999999
 21
8.87038018976388
 31
0.0
  0
LINE
  5
EA6E4EAB2
330
EA6E4E996
100
AcDbEntity
  8
0
 62
     0
100
AcDbLine
 10
16.39999999999999
 20
11.99520198109181
 30
0.0
 11
16.39999999999999
 21
12.99520198109181
 31
0.0
  0
LINE
  5
EA6E4EAB3
330
EA6E4E996
100
AcDbEntity
  8
0
 62
     0
100
AcDbLine
 10
16.6
 20
0.8882770327457619
 30
0.0
 11
16.6
 21
1.90823035386904
 31
0.0
  0
LINE
  5
EA6E4EAB4
330
EA6E4E996
100
AcDbEntity
  8
0
 62
     0
100
AcDbLine
 10
16.6
 20
16.09176964613094
 30
0.0
 11
16.6
 21
17.11172296725424
 31
0.0
  0
LINE
  5
EA6E4EAB5
330
EA6E4E996
100
AcDbEntity
  8
0
 62
     0
100
AcDbLine
 10
16.6
 20
2.505120428334421
 30
0.0
 11
16.6
 21
4.47863060090183
 31
0.0
  0
LINE
  5
EA6E4EAB6
330
EA6E4E996
100
AcDbEntity
  8
0
 62
     0
100
AcDbLine
 10
16.6
 20
13.50242306763211
 30
0.0
 11
16.6
 21
15.49487957166557
 31
0.0
  0
LINE
  5
EA6E4EAB7
330
EA6E4E996
100
AcDbEntity
  8
0
 62
     0
100
AcDbLine
 10
16.6
 20
6.752423067632127
 30
0.0
 11
16.6
 21
8.744879571665576
 31
0.0
  0
LINE
  5
EA6E4EAB8
330
EA6E4E996
100
AcDbEntity
  8
0
 62
     0
100
AcDbLine
 10
16.6
 20
11.99520198109181
 30
0.0
 11
16.6
 21
12.99520198109181
 31
0.0
  0
LINE
  5
EA6E4EAB9
330
EA6E4E996
100
AcDbEntity
  8
0
 62
     0
100
AcDbLine
 10
16.8
 20
0.9332003497861903
 30
0.0
 11
16.8
 21
1.955527915091238
 31
0.0
  0
LINE
  5
EA6E4EABA
330
EA6E4E996
100
AcDbEntity
  8
0
 62
     0
100
AcDbLine
 10
16.8
 20
16.04447208490875
 30
0.0
 11
16.8
 21
17.06679965021381
 31
0.0
  0
LINE
  5
EA6E4EABB
330
EA6E4E996
100
AcDbEntity
  8
0
 62
     0
100
AcDbLine
 10
16.8
 20
2.642715771748798
 30
0.0
 11
16.8
 21
4.764933423039758
 31
0.0
  0
LINE
  5
EA6E4EABC
330
EA6E4E996
100
AcDbEntity
  8
0
 62
     0
100
AcDbLine
 10
16.8
 20
13.19035535410814
 30
0.0
 11
16.8
 21
15.35728422825119
 31
0.0
  0
LINE
  5
EA6E4EABD
330
EA6E4E996
100
AcDbEntity
  8
0
 62
     0
100
AcDbLine
 10
16.8
 20
6.440355354108133
 30
0.0
 11
16.8
 21
8.607284228251199
 31
0.0
  0
LINE
  5
EA6E4EABE
330
EA6E4E996
100
AcDbEntity
  8
0
 62
     0
100
AcDbLine
 10
16.8
 20
11.99520198109181
 30
0.0
 11
16.8
 21
12.99520198109181
 31
0.0
  0
LINE
  5
EA6E4EABF
330
EA6E4E996
100
AcDbEntity
  8
0
 62
     0
100
AcDbLine
 10
17.0
 20
0.9806851452009935
 30
0.0
 11
17.0
 21
2.005537617777616
 31
0.0
  0
LINE
  5
EA6E4EAC0
330
EA6E4E996
100
AcDbEntity
  8
0
 62
     0
100
AcDbLine
 10
17.0
 20
15.99446238222238
 30
0.0
 11
17.0
 21
17.01931485479899
 31
0.0
  0
LINE
  5
EA6E4EAC1
330
EA6E4E996
100
AcDbEntity
  8
0
 62
     0
100
AcDbLine
 10
17.0
 20
2.794145186405881
 30
0.0
 11
17.0
 21
5.371692243973805
 31
0.0
  0
LINE
  5
EA6E4EAC2
330
EA6E4E996
100
AcDbEntity
  8
0
 62
     0
100
AcDbLine
 10
17.0
 20
11.99520198109181
 30
0.0
 11
17.0
 21
15.2058548135941
 31
0.0
  0
LINE
  5
EA6E4EAC3
330
EA6E4E996
100
AcDbEntity
  8
0
 62
     0
100
AcDbLine
 10
17.0
 20
5.625000103238273
 30
0.0
 11
17.0
 21
8.455854813594108
 31
0.0
  0
LINE
  5
EA6E4EAC4
330
EA6E4E996
100
AcDbEntity
  8
0
 62
     0
100
AcDbLine
 10
17.19999999999999
 20
1.030753733228884
 30
0.0
 11
17.19999999999999
 21
2.058285681017131
 31
0.0
  0
LINE
  5
EA6E4EAC5
330
EA6E4E996
100
AcDbEntity
  8
0
 62
     0
100
AcDbLine
 10
17.19999999999999
 20
15.94171431898286
 30
0.0
 11
17.19999999999999
 21
16.96924626677112
 31
0.0
  0
LINE
  5
EA6E4EAC6
330
EA6E4E996
100
AcDbEntity
  8
0
 62
     0
100
AcDbLine
 10
17.19999999999999
 20
2.964241435429824
 30
0.0
 11
17.19999999999999
 21
8.285758564570178
 31
0.0
  0
LINE
  5
EA6E4EAC7
330
EA6E4E996
100
AcDbEntity
  8
0
 62
     0
100
AcDbLine
 10
17.19999999999999
 20
11.99520198109181
 30
0.0
 11
17.19999999999999
 21
15.03575856457016
 31
0.0
  0
LINE
  5
EA6E4EAC8
330
EA6E4E996
100
AcDbEntity
  8
0
 62
     0
100
AcDbLine
 10
17.4
 20
1.083429923959662
 30
0.0
 11
17.4
 21
2.113812192151343
 31
0.0
  0
LINE
  5
EA6E4EAC9
330
EA6E4E996
100
AcDbEntity
  8
0
 62
     0
100
AcDbLine
 10
17.4
 20
15.88618780784865
 30
0.0
 11
17.4
 21
16.91657007604034
 31
0.0
  0
LINE
  5
EA6E4EACA
330
EA6E4E996
100
AcDbEntity
  8
0
 62
     0
100
AcDbLine
 10
17.4
 20
3.156508117249323
 30
0.0
 11
17.4
 21
8.093491882750669
 31
0.0
  0
LINE
  5
EA6E4EACB
330
EA6E4E996
100
AcDbEntity
  8
0
 62
     0
100
AcDbLine
 10
17.4
 20
11.99520198109181
 30
0.0
 11
17.4
 21
14.84349188275065
 31
0.0
  0
LINE
  5
EA6E4EACC
330
EA6E4E996
100
AcDbEntity
  8
0
 62
     0
100
AcDbLine
 10
17.6
 20
1.138739084443542
 30
0.0
 11
17.6
 21
2.172812631433951
 31
0.0
  0
LINE
  5
EA6E4EACD
330
EA6E4E996
100
AcDbEntity
  8
0
 62
     0
100
AcDbLine
 10
17.6
 20
15.82718736856604
 30
0.0
 11
17.6
 21
16.86126091555646
 31
0.0
  0
LINE
  5
EA6E4EACE
330
EA6E4E996
100
AcDbEntity
  8
0
 62
     0
100
AcDbLine
 10
17.6
 20
3.375383199960236
 30
0.0
 11
17.6
 21
7.874616800039762
 31
0.0
  0
LINE
  5
EA6E4EACF
330
EA6E4E996
100
AcDbEntity
  8
0
 62
     0
100
AcDbLine
 10
17.6
 20
11.99520198109181
 30
0.0
 11
17.6
 21
14.62461680003975
 31
0.0
  0
LINE
  5
EA6E4EAD0
330
EA6E4E996
100
AcDbEntity
  8
0
 62
     0
100
AcDbLine
 10
17.8
 20
1.196733304907507
 30
0.0
 11
17.8
 21
2.235722402390248
 31
0.0
  0
LINE
  5
EA6E4EAD1
330
EA6E4E996
100
AcDbEntity
  8
0
 62
     0
100
AcDbLine
 10
17.8
 20
15.76427759760974
 30
0.0
 11
17.8
 21
16.80326669509248
 31
0.0
  0
LINE
  5
EA6E4EAD2
330
EA6E4E996
100
AcDbEntity
  8
0
 62
     0
100
AcDbLine
 10
17.8
 20
3.627508786341501
 30
0.0
 11
17.8
 21
7.622491213658497
 31
0.0
  0
LINE
  5
EA6E4EAD3
330
EA6E4E996
100
AcDbEntity
  8
0
 62
     0
100
AcDbLine
 10
17.8
 20
11.99520198109181
 30
0.0
 11
17.8
 21
14.37249121365849
 31
0.0
  0
LINE
  5
EA6E4EAD4
330
EA6E4E996
100
AcDbEntity
  8
0
 62
     0
100
AcDbLine
 10
18.0
 20
1.258070209803346
 30
0.0
 11
18.0
 21
2.30260825319673
 31
0.0
  0
LINE
  5
EA6E4EAD5
330
EA6E4E996
100
AcDbEntity
  8
0
 62
     0
100
AcDbLine
 10
18.0
 20
15.69739174680327
 30
0.0
 11
18.0
 21
16.74192979019665
 31
0.0
  0
LINE
  5
EA6E4EAD6
330
EA6E4E996
100
AcDbEntity
  8
0
 62
     0
100
AcDbLine
 10
18.0
 20
3.923649376593703
 30
0.0
 11
18.0
 21
7.326350623406285
 31
0.0
  0
LINE
  5
EA6E4EAD7
330
EA6E4E996
100
AcDbEntity
  8
0
 62
     0
100
AcDbLine
 10
18.0
 20
11.99520198109181
 30
0.0
 11
18.0
 21
14.07635062340627
 31
0.0
  0
LINE
  5
EA6E4EAD8
330
EA6E4E996
100
AcDbEntity
  8
0
 62
     0
100
AcDbLine
 10
18.2
 20
1.323072197862596
 30
0.0
 11
18.2
 21
2.373542828567604
 31
0.0
  0
LINE
  5
EA6E4EAD9
330
EA6E4E996
100
AcDbEntity
  8
0
 62
     0
100
AcDbLine
 10
18.2
 20
15.62645717143239
 30
0.0
 11
18.2
 21
16.67692780213741
 31
0.0
  0
LINE
  5
EA6E4EADA
330
EA6E4E996
100
AcDbEntity
  8
0
 62
     0
100
AcDbLine
 10
18.2
 20
4.287684463111763
 30
0.0
 11
18.2
 21
6.962315536888209
 31
0.0
  0
LINE
  5
EA6E4EADB
330
EA6E4E996
100
AcDbEntity
  8
0
 62
     0
100
AcDbLine
 10
18.2
 20
11.99520198109181
 30
0.0
 11
18.2
 21
13.71231553688823
 31
0.0
  0
LINE
  5
EA6E4EADC
330
EA6E4E996
100
AcDbEntity
  8
0
 62
     0
100
AcDbLine
 10
18.39999999999999
 20
1.391799481934761
 30
0.0
 11
18.39999999999999
 21
2.448605117969133
 31
0.0
  0
LINE
  5
EA6E4EADD
330
EA6E4E996
100
AcDbEntity
  8
0
 62
     0
100
AcDbLine
 10
18.39999999999999
 20
15.55139488203086
 30
0.0
 11
18.39999999999999
 21
16.60820051806523
 31
0.0
  0
LINE
  5
EA6E4EADE
330
EA6E4E996
100
AcDbEntity
  8
0
 62
     0
100
AcDbLine
 10
18.39999999999999
 20
4.840055661165976
 30
0.0
 11
18.39999999999999
 21
6.409944338833982
 31
0.0
  0
LINE
  5
EA6E4EADF
330
EA6E4E996
100
AcDbEntity
  8
0
 62
     0
100
AcDbLine
 10
18.39999999999999
 20
11.99520198109181
 30
0.0
 11
18.39999999999999
 21
13.15994433883402
 31
0.0
  0
LINE
  5
EA6E4EAE0
330
EA6E4E996
100
AcDbEntity
  8
0
 62
     0
100
AcDbLine
 10
18.6
 20
1.464317169370115
 30
0.0
 11
18.6
 21
2.527880961894759
 31
0.0
  0
LINE
  5
EA6E4EAE1
330
EA6E4E996
100
AcDbEntity
  8
0
 62
     0
100
AcDbLine
 10
18.6
 20
15.47211903810524
 30
0.0
 11
18.6
 21
16.53568283062988
 31
0.0
  0
LINE
  5
EA6E4EAE2
330
EA6E4E996
100
AcDbEntity
  8
0
 62
     0
100
AcDbLine
 10
18.6
 20
11.99520198109181
 30
0.0
 11
18.6
 21
12.98914185894155
 31
0.0
  0
LINE
  5
EA6E4EAE3
330
EA6E4E996
100
AcDbEntity
  8
0
 62
     0
100
AcDbLine
 10
18.8
 20
1.540695614396724
 30
0.0
 11
18.8
 21
2.61146362464188
 31
0.0
  0
LINE
  5
EA6E4EAE4
330
EA6E4E996
100
AcDbEntity
  8
0
 62
     0
100
AcDbLine
 10
18.8
 20
15.38853637535811
 30
0.0
 11
18.8
 21
16.45930438560327
 31
0.0
  0
LINE
  5
EA6E4EAE5
330
EA6E4E996
100
AcDbEntity
  8
0
 62
     0
100
AcDbLine
 10
18.8
 20
11.99520198109181
 30
0.0
 11
18.8
 21
12.99068144388724
 31
0.0
  0
LINE
  5
EA6E4EAE6
330
EA6E4E996
100
AcDbEntity
  8
0
 62
     0
100
AcDbLine
 10
19.0
 20
1.621010812927077
 30
0.0
 11
19.0
 21
2.699454443607051
 31
0.0
  0
LINE
  5
EA6E4EAE7
330
EA6E4E996
100
AcDbEntity
  8
0
 62
     0
100
AcDbLine
 10
19.0
 20
15.30054555639295
 30
0.0
 11
19.0
 21
16.37898918707292
 31
0.0
  0
LINE
  5
EA6E4EAE8
330
EA6E4E996
100
AcDbEntity
  8
0
 62
     0
100
AcDbLine
 10
19.0
 20
11.99520198109181
 30
0.0
 11
19.0
 21
12.99222102883293
 31
0.0
  0
LINE
  5
EA6E4EAE9
330
EA6E4E996
100
AcDbEntity
  8
0
 62
     0
100
AcDbLine
 10
19.19999999999999
 20
1.705344845571659
 30
0.0
 11
19.19999999999999
 21
2.791963567034783
 31
0.0
  0
LINE
  5
EA6E4EAEA
330
EA6E4E996
100
AcDbEntity
  8
0
 62
     0
100
AcDbLine
 10
19.19999999999999
 20
15.20803643296521
 30
0.0
 11
19.19999999999999
 21
16.29465515442833
 31
0.0
  0
LINE
  5
EA6E4EAEB
330
EA6E4E996
100
AcDbEntity
  8
0
 62
     0
100
AcDbLine
 10
19.19999999999999
 20
11.99520198109181
 30
0.0
 11
19.19999999999999
 21
12.99376061377861
 31
0.0
  0
LINE
  5
EA6E4EAEC
330
EA6E4E996
100
AcDbEntity
  8
0
 62
     0
100
AcDbLine
 10
19.39999999999999
 20
1.793786375640563
 30
0.0
 11
19.39999999999999
 21
2.889110794503256
 31
0.0
  0
LINE
  5
EA6E4EAED
330
EA6E4E996
100
AcDbEntity
  8
0
 62
     0
100
AcDbLine
 10
19.39999999999999
 20
15.11088920549673
 30
0.0
 11
19.39999999999999
 21
16.20621362435944
 31
0.0
  0
LINE
  5
EA6E4EAEE
330
EA6E4E996
100
AcDbEntity
  8
0
 62
     0
100
AcDbLine
 10
19.6
 20
1.88643121012102
 30
0.0
 11
19.6
 21
2.991026537321896
 31
0.0
  0
LINE
  5
EA6E4EAEF
330
EA6E4E996
100
AcDbEntity
  8
0
 62
     0
100
AcDbLine
 10
19.6
 20
15.0089734626781
 30
0.0
 11
19.6
 21
16.11356878987898
 31
0.0
  0
LINE
  5
EA6E4EAF0
330
EA6E4E996
100
AcDbEntity
  8
0
 62
     0
100
AcDbLine
 10
19.8
 20
1.983382933076164
 30
0.0
 11
19.8
 21
3.097852919598746
 31
0.0
  0
LINE
  5
EA6E4EAF1
330
EA6E4E996
100
AcDbEntity
  8
0
 62
     0
100
AcDbLine
 10
19.8
 20
14.90214708040125
 30
0.0
 11
19.8
 21
16.01661706692383
 31
0.0
  0
LINE
  5
EA6E4EAF2
330
EA6E4E996
100
AcDbEntity
  8
0
 62
     0
100
AcDbLine
 10
20.0
 20
2.084753622680735
 30
0.0
 11
20.0
 21
3.209745045204609
 31
0.0
  0
LINE
  5
EA6E4EAF3
330
EA6E4E996
100
AcDbEntity
  8
0
 62
     0
100
AcDbLine
 10
20.0
 20
14.79025495479539
 30
0.0
 11
20.0
 21
15.91524637731926
 31
0.0
  0
LINE
  5
EA6E4EAF4
330
EA6E4E996
100
AcDbEntity
  8
0
 62
     0
100
AcDbLine
 10
20.2
 20
2.190664665270349
 30
0.0
 11
20.2
 21
3.326872461473616
 31
0.0
  0
LINE
  5
EA6E4EAF5
330
EA6E4E996
100
AcDbEntity
  8
0
 62
     0
100
AcDbLine
 10
20.2
 20
14.67312753852637
 30
0.0
 11
20.2
 21
15.80933533472965
 31
0.0
  0
LINE
  5
EA6E4EAF6
330
EA6E4E996
100
AcDbEntity
  8
0
 62
     0
100
AcDbLine
 10
20.4
 20
2.301247682434638
 30
0.0
 11
20.4
 21
3.449420857581046
 31
0.0
  0
LINE
  5
EA6E4EAF7
330
EA6E4E996
100
AcDbEntity
  8
0
 62
     0
100
AcDbLine
 10
20.4
 20
14.55057914241895
 30
0.0
 11
20.4
 21
15.69875231756536
 31
0.0
  0
LINE
  5
EA6E4EAF8
330
EA6E4E996
100
AcDbEntity
  8
0
 62
     0
100
AcDbLine
 10
20.6
 20
2.416645590462052
 30
0.0
 11
20.6
 21
3.577594044593456
 31
0.0
  0
LINE
  5
EA6E4EAF9
330
EA6E4E996
100
AcDbEntity
  8
0
 62
     0
100
AcDbLine
 10
20.6
 20
14.42240595540654
 30
0.0
 11
20.6
 21
15.58335440953795
 31
0.0
  0
LINE
  5
EA6E4EAFA
330
EA6E4E996
100
AcDbEntity
  8
0
 62
     0
100
AcDbLine
 10
20.8
 20
2.537013815518043
 30
0.0
 11
20.8
 21
3.711626924269966
 31
0.0
  0
LINE
  5
EA6E4EAFB
330
EA6E4E996
100
AcDbEntity
  8
0
 62
     0
100
AcDbLine
 10
20.8
 20
14.28836987321861
 30
0.0
 11
20.8
 21
15.46298618448195
 31
0.0
  0
LINE
  5
EA6E4EAFC
330
EA6E4E996
100
AcDbEntity
  8
0
 62
     0
100
AcDbLine
 10
21.0
 20
2.662521693035727
 30
0.0
 11
21.0
 21
3.852872430645609
 31
0.0
  0
LINE
  5
EA6E4EAFD
330
EA6E4E996
100
AcDbEntity
  8
0
 62
     0
100
AcDbLine
 10
21.0
 20
14.14678349542286
 30
0.0
 11
21.0
 21
15.33747830696426
 31
0.0
  0
LINE
  5
EA6E4EAFE
330
EA6E4E996
100
AcDbEntity
  8
0
 62
     0
100
AcDbLine
 10
21.2
 20
2.793354086221266
 30
0.0
 11
21.2
 21
4.002485583831323
 31
0.0
  0
LINE
  5
EA6E4EAFF
330
EA6E4E996
100
AcDbEntity
  8
0
 62
     0
100
AcDbLine
 10
21.2
 20
13.99621688692662
 30
0.0
 11
21.2
 21
15.20664591377872
 31
0.0
  0
LINE
  5
EA6E4EB00
330
EA6E4E996
100
AcDbEntity
  8
0
 62
     0
100
AcDbLine
 10
21.4
 20
2.929713266730676
 30
0.0
 11
21.4
 21
4.161002755664274
 31
0.0
  0
LINE
  5
EA6E4EB01
330
EA6E4E996
100
AcDbEntity
  8
0
 62
     0
100
AcDbLine
 10
21.4
 20
13.83604811472443
 30
0.0
 11
21.4
 21
15.07028673326932
 31
0.0
  0
LINE
  5
EA6E4EB02
330
EA6E4E996
100
AcDbEntity
  8
0
 62
     0
100
AcDbLine
 10
21.6
 20
3.072069018676471
 30
0.0
 11
21.6
 21
4.329043532935322
 31
0.0
  0
LINE
  5
EA6E4EB03
330
EA6E4E996
100
AcDbEntity
  8
0
 62
     0
100
AcDbLine
 10
21.6
 20
13.66555078057407
 30
0.0
 11
21.6
 21
14.92784497625058
 31
0.0
  0
LINE
  5
EA6E4EB04
330
EA6E4E996
100
AcDbEntity
  8
0
 62
     0
100
AcDbLine
 10
21.8
 20
3.221849785812719
 30
0.0
 11
21.8
 21
4.507329243428142
 31
0.0
  0
LINE
  5
EA6E4EB05
330
EA6E4E996
100
AcDbEntity
  8
0
 62
     0
100
AcDbLine
 10
21.8
 20
13.48386866684141
 30
0.0
 11
21.8
 21
14.77747777107709
 31
0.0
  0
LINE
  5
EA6E4EB06
330
EA6E4E996
100
AcDbEntity
  8
0
 62
     0
100
AcDbLine
 10
22.0
 20
3.379623332304386
 30
0.0
 11
22.0
 21
4.696707259147587
 31
0.0
  0
LINE
  5
EA6E4EB07
330
EA6E4E996
100
AcDbEntity
  8
0
 62
     0
100
AcDbLine
 10
22.0
 20
13.28998171187008
 30
0.0
 11
22.0
 21
14.6185036378553
 31
0.0
  0
LINE
  5
EA6E4EB08
330
EA6E4E996
100
AcDbEntity
  8
0
 62
     0
100
AcDbLine
 10
22.2
 20
3.545884748662356
 30
0.0
 11
22.2
 21
4.898183447570518
 31
0.0
  0
LINE
  5
EA6E4EB09
330
EA6E4E996
100
AcDbEntity
  8
0
 62
     0
100
AcDbLine
 10
22.2
 20
13.08265938318368
 30
0.0
 11
22.2
 21
14.4503446123621
 31
0.0
  0
LINE
  5
EA6E4EB0A
330
EA6E4E996
100
AcDbEntity
  8
0
 62
     0
100
AcDbLine
 10
22.39999999999999
 20
3.721201084250884
 30
0.0
 11
22.39999999999999
 21
5.112966388577576
 31
0.0
  0
LINE
  5
EA6E4EB0B
330
EA6E4E996
100
AcDbEntity
  8
0
 62
     0
100
AcDbLine
 10
22.39999999999999
 20
12.86039521211116
 30
0.0
 11
22.39999999999999
 21
14.27233151642101
 31
0.0
  0
LINE
  5
EA6E4EB0C
330
EA6E4E996
100
AcDbEntity
  8
0
 62
     0
100
AcDbLine
 10
22.6
 20
3.906226422955006
 30
0.0
 11
22.6
 21
5.342529046644196
 31
0.0
  0
LINE
  5
EA6E4EB0D
330
EA6E4E996
100
AcDbEntity
  8
0
 62
     0
100
AcDbLine
 10
22.6
 20
12.62131223084588
 30
0.0
 11
22.6
 21
14.08368306798291
 31
0.0
  0
LINE
  5
EA6E4EB0E
330
EA6E4E996
100
AcDbEntity
  8
0
 62
     0
100
AcDbLine
 10
22.8
 20
4.10172135227376
 30
0.0
 11
22.8
 21
5.588697165049443
 31
0.0
  0
LINE
  5
EA6E4EB0F
330
EA6E4E996
100
AcDbEntity
  8
0
 62
     0
100
AcDbLine
 10
22.8
 20
12.36302169710981
 30
0.0
 11
22.8
 21
13.88347829807043
 31
0.0
  0
LINE
  5
EA6E4EB10
330
EA6E4E996
100
AcDbEntity
  8
0
 62
     0
100
AcDbLine
 10
23.0
 20
4.308578503036796
 30
0.0
 11
23.0
 21
5.853780106921795
 31
0.0
  0
LINE
  5
EA6E4EB11
330
EA6E4E996
100
AcDbEntity
  8
0
 62
     0
100
AcDbLine
 10
23.0
 20
12.08240327306514
 30
0.0
 11
23.0
 21
13.67061944507678
 31
0.0
  0
LINE
  5
EA6E4EB12
330
EA6E4E996
100
AcDbEntity
  8
0
 62
     0
100
AcDbLine
 10
23.19999999999999
 20
4.527856652558535
 30
0.0
 11
23.19999999999999
 21
6.140772160743478
 31
0.0
  0
LINE
  5
EA6E4EB13
330
EA6E4E996
100
AcDbEntity
  8
0
 62
     0
100
AcDbLine
 10
23.19999999999999
 20
11.77524542788055
 30
0.0
 11
23.19999999999999
 21
13.44378096057898
 31
0.0
  0
LINE
  5
EA6E4EB14
330
EA6E4E996
100
AcDbEntity
  8
0
 62
     0
100
AcDbLine
 10
23.39999999999999
 20
4.760827195354785
 30
0.0
 11
23.39999999999999
 21
6.453677270303599
 31
0.0
  0
LINE
  5
EA6E4EB15
330
EA6E4E996
100
AcDbEntity
  8
0
 62
     0
100
AcDbLine
 10
23.39999999999999
 20
11.42787989712297
 30
0.0
 11
23.39999999999999
 21
13.20133767178099
 31
0.0
  0
LINE
  5
EA6E4EB16
330
EA6E4E996
100
AcDbEntity
  8
0
 62
     0
100
AcDbLine
 10
23.6
 20
5.009038964789643
 30
0.0
 11
23.6
 21
6.819150603315335
 31
0.0
  0
LINE
  5
EA6E4EB17
330
EA6E4E996
100
AcDbEntity
  8
0
 62
     0
100
AcDbLine
 10
23.6
 20
11.00243198716859
 30
0.0
 11
23.6
 21
12.94126060224967
 31
0.0
  0
LINE
  5
EA6E4EB18
330
EA6E4E996
100
AcDbEntity
  8
0
 62
     0
100
AcDbLine
 10
23.8
 20
5.274411151749196
 30
0.0
 11
23.8
 21
7.309696402547448
 31
0.0
  0
LINE
  5
EA6E4EB19
330
EA6E4E996
100
AcDbEntity
  8
0
 62
     0
100
AcDbLine
 10
23.8
 20
10.42998843758188
 30
0.0
 11
23.8
 21
12.6609605909616
 31
0.0
  0
LINE
  5
EA6E4EB1A
330
EA6E4E996
100
AcDbEntity
  8
0
 62
     0
100
AcDbLine
 10
24.0
 20
5.559370859880237
 30
0.0
 11
24.0
 21
12.35704356262256
 31
0.0
  0
LINE
  5
EA6E4EB1B
330
EA6E4E996
100
AcDbEntity
  8
0
 62
     0
100
AcDbLine
 10
24.19999999999999
 20
5.867064768748309
 30
0.0
 11
24.19999999999999
 21
12.0245994314541
 31
0.0
  0
LINE
  5
EA6E4EB1C
330
EA6E4E996
100
AcDbEntity
  8
0
 62
     0
100
AcDbLine
 10
24.39999999999999
 20
6.2027592702858
 30
0.0
 11
24.39999999999999
 21
11.64218683869334
 31
0.0
  0
LINE
  5
EA6E4EB1D
330
EA6E4E996
100
AcDbEntity
  8
0
 62
     0
100
AcDbLine
 10
24.6
 20
6.603624720067712
 30
0.0
 11
24.6
 21
11.1757989016396
 31
0.0
  0
LINE
  5
EA6E4EB1E
330
EA6E4E996
100
AcDbEntity
  8
0
 62
     0
100
AcDbLine
 10
24.8
 20
7.137464332505552
 30
0.0
 11
24.8
 21
10.55146718630719
 31
0.0
  0
ENDBLK
  5
EA6E4EB20
330
EA6E4E996
100
AcDbEntity
  8
0
100
AcDbBlockEnd
  0
ENDSEC
  0
SECTION
  2
ENTITIES
  0
INSERT
  5
20
330
EA6E4DC92
100
AcDbEntity
  8
TEXT
100
AcDbBlockReference
  2
STDGX5
 10
370.865806
 20
2.374565
 30
0.0
  0
INSERT
  5
21
330
EA6E4DC92
100
AcDbEntity
  8
TEXT
100
AcDbBlockReference
  2
STDGX5
 10
1520.591055
 20
494.796741
 30
0.0
  0
INSERT
  5
441
330
EA6E4DC92
100
AcDbEntity
  8
JISSEN
  6
CONTINUOUS
 62
     4
100
AcDbBlockReference
  2
STDGX5
 10
-63.39588599999999
 20
80.39599
 30
0.0
 41
2.0
 42
2.0
 43
2.0
  0
INSERT
  5
296C
330
EA6E4DC92
100
AcDbEntity
  8
JISSEN
100
AcDbBlockReference
  2
STDR12J
 10
0.0
 20
0.0
 30
0.0
  0
TEXT
  5
29F6
330
EA6E4DC92
100
AcDbEntity
  8
TEXT
100
AcDbText
 10
284.499999
 20
536.0
 30
0.0
 40
6.0
  1

  7
K
 72
     4
 11
284.499999
 21
536.0
 31
0.0
100
AcDbText
  0
MTEXT
  5
EA6E4E0DF
330
EA6E4DC92
100
AcDbEntity
  8
JISSEN
100
AcDbMText
 10
302.3089179999999
 20
159.090371
 30
0.0
 40
6.0
 41
0.0
 71
     4
 72
     5
  1
\A1;
  7
ROMANS
1001
ACAD
1000
MTEXTBEGIN
1070
    73
1070
     1
1070
    44
1040
1.0
1070
    74
1070
     0
1000
MTEXTEND
  0
MTEXT
  5
EA6E4E0E3
330
EA6E4DC92
100
AcDbEntity
  8
JISSEN
100
AcDbMText
 10
278.4487169999999
 20
159.0440929999999
 30
0.0
 40
6.0
 41
0.0
 71
     4
 72
     5
  1
\A1;
  7
ROMANS
1001
ACAD
1000
MTEXTBEGIN
1070
    73
1070
     1
1070
    44
1040
1.0
1070
    74
1070
     0
1000
MTEXTEND
  0
MTEXT
  5
EA6E4E0E7
330
EA6E4DC92
100
AcDbEntity
  8
JISSEN
100
AcDbMText
 10
252.744385
 20
158.909631
 30
0.0
 40
6.0
 41
0.0
 71
     4
 72
     5
  1
\A1;
  7
ROMANS
1001
ACAD
1000
MTEXTBEGIN
1070
    73
1070
     1
1070
    44
1040
1.0
1070
    74
1070
     0
1000
MTEXTEND
  0
TEXT
  5
EA6E4E178
330
EA6E4DC92
100
AcDbEntity
  8
SUNPOU
100
AcDbText
 10
273.5021922483674
 20
9.316524716282174
 30
0.0
 40
6.0
  1
A4 用紙、印刷尺度1/2
100
AcDbText
  0
TEXT
  5
EA6E4E179
330
EA6E4DC92
100
AcDbEntity
  8
SUNPOU
100
AcDbText
 10
273.5021922483674
 20
19.31652471628217
 30
0.0
 40
6.0
  1
末端試験装置 J-
100
AcDbText
  0
LWPOLYLINE
  5
EA6E4E908
330
EA6E4DC92
100
AcDbEntity
  8
WAKU
100
AcDbPolyline
 90
        4
 70
     1
 43
0.0
 10
0.0
 20
0.0
 10
362.0
 20
0.0
 10
362.0
 20
546.0
 10
0.0
 20
546.0
  0
LINE
  5
EA6E4F068
330
EA6E4DC92
100
AcDbEntity
  8
JISSEN
100
AcDbLine
 10
0.0000023521124604
 20
534.0000006054275
 30
0.0
 11
362.0000009041125
 21
534.0000006054275
 31
0.0
  0
LINE
  5
EA6E4F069
330
EA6E4DC92
100
AcDbEntity
  8
JISSEN
100
AcDbLine
 10
0.0000023521124604
 20
522.0000006054275
 30
0.0
 11
362.0000009041125
 21
522.0000006054275
 31
0.0
  0
LINE
  5
EA6E4F06A
330
EA6E4DC92
100
AcDbEntity
  8
JISSEN
100
AcDbLine
 10
0.0000023521124604
 20
510.0000006054275
 30
0.0
 11
362.0000009041125
 21
510.0000006054275
 31
0.0
  0
LINE
  5
EA6E4F06B
330
EA6E4DC92
100
AcDbEntity
  8
JISSEN
100
AcDbLine
 10
0.0000023521124604
 20
498.0000006054275
 30
0.0
 11
362.0000009041125
 21
498.0000006054275
 31
0.0
  0
LINE
  5
EA6E4F06D
330
EA6E4DC92
100
AcDbEntity
  8
SUNPOU
100
AcDbLine
 10
173.392225904338
 20
221.7055028948742
 30
0.0
 11
224.8848631758322
 21
155.7383372019882
 31
0.0
  0
LINE
  5
EA6E4F06F
330
EA6E4DC92
100
AcDbEntity
  8
JISSEN
100
AcDbLine
 10
179.4919607400875
 20
108.9052377306233
 30
0.0
 11
185.4919607400875
 21
108.9052377306233
 31
0.0
  0
LINE
  5
EA6E4F070
330
EA6E4DC92
100
AcDbEntity
  8
JISSEN
100
AcDbLine
 10
178.5692329392773
 20
203.2710965099393
 30
0.0
 11
182.2419607400875
 21
201.1506461254813
 31
0.0
  0
LINE
  5
EA6E4F071
330
EA6E4DC92
100
AcDbEntity
  8
JISSEN
100
AcDbLine
 10
156.4919607400875
 20
330.3436718588317
 30
0.0
 11
212.2419607400873
 21
330.3436718588317
 31
0.0
  0
LINE
  5
EA6E4F072
330
EA6E4DC92
100
AcDbEntity
  8
JISSEN
100
AcDbLine
 10
156.4919607400875
 20
313.3436718588318
 30
0.0
 11
212.2419607400873
 21
313.3436718588318
 31
0.0
  0
LINE
  5
EA6E4F076
330
EA6E4DC92
100
AcDbEntity
  8
SUNPOU
100
AcDbLine
 10
144.9919607400875
 20
301.0723463157633
 30
0.0
 11
275.1022447516588
 21
155.9923553598615
 31
0.0
  0
LINE
  5
EA6E4F077
330
EA6E4DC92
100
AcDbEntity
  8
SUNPOU
100
AcDbLine
 10
145.7419607400875
 20
272.6308514095975
 30
0.0
 11
250.503472391739
 21
155.5060810174431
 31
0.0
  0
LINE
  5
EA6E4F078
330
EA6E4DC92
100
AcDbEntity
  8
SUNPOU
100
AcDbLine
 10
144.2419607400875
 20
170.3079695329478
 30
0.0
 11
192.6719417798199
 21
152.5077207595233
 31
0.0
  0
LWPOLYLINE
  5
EA6E4F07B
330
EA6E4DC92
100
AcDbEntity
  8
JISSEN
100
AcDbPolyline
 90
        4
 70
     1
 43
0.0
 10
102.7419607400875
 20
282.3836718588316
 10
145.7419607400875
 20
282.3836718588316
 10
145.7419607400875
 20
271.3836718588316
 10
102.7419607400875
 20
271.3836718588316
  0
LINE
  5
EA6E4F07C
330
EA6E4DC92
100
AcDbEntity
  8
JISSEN
100
AcDbLine
 10
113.2419607400874
 20
282.3836718588316
 30
0.0
 11
113.2419607400874
 21
271.3836718588316
 31
0.0
  0
LINE
  5
EA6E4F07D
330
EA6E4DC92
100
AcDbEntity
  8
JISSEN
100
AcDbLine
 10
135.2419607400875
 20
282.3836718588316
 30
0.0
 11
135.2419607400875
 21
271.3836718588316
 31
0.0
  0
TEXT
  5
EA6E4F085
330
EA6E4DC92
100
AcDbEntity
  8
JISSEN
100
AcDbText
 10
7.641981984525514
 20
75.83790310163727
 30
0.0
 40
10.0
  1
%%UK=114 対応
  7
K
 72
     4
 11
44.71341055595411
 21
79.83790310163726
 31
0.0
100
AcDbText
  0
HATCH
  5
EA6E4F161
330
EA6E4DC92
100
AcDbEntity
  8
HATCH
100
AcDbHatch
 10
0.0
 20
0.0
 30
0.0
210
0.0
220
0.0
230
1.0
  2
SOLID
 70
     1
 71
     1
 91
        1
 92
        1
 93
        7
 72
     1
 10
117.7419607400872
 20
97.87997141306204
 11
124.2419607400872
 21
89.3732876555083
 72
     1
 10
124.2419607400872
 20
89.3732876555083
 11
130.7419607400872
 21
97.87997141306204
 72
     1
 10
130.7419607400872
 20
97.87997141306204
 11
128.7419607400872
 21
97.87997141306204
 72
     1
 10
128.7419607400872
 20
97.87997141306204
 11
128.7419607400872
 21
111.3271422608923
 72
     1
 10
128.7419607400872
 20
111.3271422608923
 11
119.7419607400872
 21
111.3271422608923
 72
     1
 10
119.7419607400872
 20
111.3271422608923
 11
119.7419607400872
 21
97.87997141306204
 72
     1
 10
119.7419607400872
 20
97.87997141306204
 11
117.7419607400872
 21
97.87997141306204
 97
        7
330
EA6E4F1D9
330
EA6E4F164
330
EA6E4F311
330
EA6E4F163
330
EA6E4F33A
330
EA6E4F162
330
EA6E4F1DA
 75
     0
 76
     1
 98
        1
 10
-2.467401001565349
 20
-0.8340919452939488
  0
LINE
  5
EA6E4F162
102
{ACAD_REACTORS
330
EA6E4F161
102
}
330
EA6E4DC92
100
AcDbEntity
  8
HATCH
100
AcDbLine
 10
119.7419607400872
 20
111.3271422608923
 30
0.0
 11
119.7419607400872
 21
97.87997141306204
 31
0.0
  0
LINE
  5
EA6E4F163
102
{ACAD_REACTORS
330
EA6E4F161
102
}
330
EA6E4DC92
100
AcDbEntity
  8
HATCH
100
AcDbLine
 10
128.7419607400872
 20
97.87997141306204
 30
0.0
 11
128.7419607400872
 21
111.3271422608923
 31
0.0
  0
LINE
  5
EA6E4F164
102
{ACAD_REACTORS
330
EA6E4F161
102
}
330
EA6E4DC92
100
AcDbEntity
  8
HATCH
100
AcDbLine
 10
124.2419607400872
 20
89.3732876555083
 30
0.0
 11
130.7419607400872
 21
97.87997141306204
 31
0.0
  0
LINE
  5
EA6E4F1D9
102
{ACAD_REACTORS
330
EA6E4F161
102
}
330
EA6E4DC92
100
AcDbEntity
  8
HATCH
100
AcDbLine
 10
117.7419607400872
 20
97.87997141306204
 30
0.0
 11
124.2419607400872
 21
89.3732876555083
 31
0.0
  0
LINE
  5
EA6E4F1DA
102
{ACAD_REACTORS
330
EA6E4F161
102
}
330
EA6E4DC92
100
AcDbEntity
  8
HATCH
100
AcDbLine
 10
119.7419607400872
 20
97.87997141306204
 30
0.0
 11
117.7419607400872
 21
97.87997141306204
 31
0.0
  0
LINE
  5
EA6E4F311
102
{ACAD_REACTORS
330
EA6E4F161
102
}
330
EA6E4DC92
100
AcDbEntity
  8
HATCH
100
AcDbLine
 10
130.7419607400872
 20
97.87997141306204
 30
0.0
 11
128.7419607400872
 21
97.87997141306204
 31
0.0
  0
LINE
  5
EA6E4F33A
102
{ACAD_REACTORS
330
EA6E4F161
102
}
330
EA6E4DC92
100
AcDbEntity
  8
HATCH
100
AcDbLine
 10
128.7419607400872
 20
111.3271422608923
 30
0.0
 11
119.7419607400872
 21
111.3271422608923
 31
0.0
  0
LINE
  5
EA6E4F33C
330
EA6E4DC92
100
AcDbEntity
  8
JISSEN
100
AcDbLine
 10
143.4210337400875
 20
204.955237730623
 30
0.0
 11
124.2419607400875
 21
204.955237730623
 31
0.0
  0
LINE
  5
EA6E4F33D
330
EA6E4DC92
100
AcDbEntity
  8
JISSEN
100
AcDbLine
 10
144.2957127400875
 20
211.955237730623
 30
0.0
 11
124.2419607400875
 21
211.955237730623
 31
0.0
  0
LINE
  5
EA6E4F33E
330
EA6E4DC92
100
AcDbEntity
  8
JISSEN
100
AcDbLine
 10
145.8833967400876
 20
213.8052377306229
 30
0.0
 11
124.2419607400875
 21
213.8052377306229
 31
0.0
  0
LWPOLYLINE
  5
EA6E4F33F
330
EA6E4DC92
100
AcDbEntity
  8
TENSEN
100
AcDbPolyline
 90
        7
 70
     0
 43
0.0
 10
103.4919607400875
 20
128.0170882797186
 42
-0.3373493975903584
 10
124.2419607400873
 20
128.0170882797186
 42
0.3373493975903649
 10
144.9919607400875
 20
128.0170882797186
 10
144.9919607400875
 20
157.9590490888996
 10
103.4919607400875
 20
157.9590490888996
 10
103.4919607400875
 20
128.0170882797186
 42
0.3373493975903643
 10
124.2419607400875
 20
128.0170882797186
 42
0.3373493975903643
  0
LINE
  5
EA6E4F340
330
EA6E4DC92
100
AcDbEntity
  8
JISSEN
100
AcDbLine
 10
107.2419607400875
 20
164.4590490888996
 30
0.0
 11
141.2419607400875
 21
164.4590490888996
 31
0.0
  0
ARC
  5
EA6E4F341
330
EA6E4DC92
100
AcDbEntity
  8
JISSEN
100
AcDbCircle
 10
124.2419607400875
 20
143.3757157555662
 30
0.0
 40
34.0833333333334
100
AcDbArc
 50
72.93846878010295
 51
107.061531219897
  0
LINE
  5
EA6E4F342
330
EA6E4DC92
100
AcDbEntity
  8
JISSEN
100
AcDbLine
 10
107.2419607400875
 20
180.4590490888996
 30
0.0
 11
141.134652681176
 21
180.4590490888996
 31
0.0
  0
LWPOLYLINE
  5
EA6E4F343
330
EA6E4DC92
100
AcDbEntity
  8
JISSEN
100
AcDbPolyline
 90
        2
 70
     0
 43
0.0
 10
108.3924241225439
 20
177.4590490888996
 10
140.091497357631
 20
177.4590490888996
  0
LINE
  5
EA6E4F344
330
EA6E4DC92
100
AcDbEntity
  8
JISSEN
100
AcDbLine
 10
143.2419607400874
 20
185.455237730623
 30
0.0
 11
124.2419607400875
 21
185.455237730623
 31
0.0
  0
LINE
  5
EA6E4F345
330
EA6E4DC92
100
AcDbEntity
  8
JISSEN
100
AcDbLine
 10
125.5683087400873
 20
186.3789977306231
 30
0.0
 11
124.2419607400875
 21
186.3789977306231
 31
0.0
  0
ARC
  5
EA6E4F346
330
EA6E4DC92
100
AcDbEntity
  8
JISSEN
100
AcDbCircle
 10
124.2419607400875
 20
201.5423824222324
 30
0.0
 40
34.0833333333328
100
AcDbArc
 50
252.9384687801029
 51
287.061531219897
  0
LWPOLYLINE
  5
EA6E4F347
330
EA6E4DC92
100
AcDbEntity
  8
JISSEN
100
AcDbPolyline
 90
        2
 70
     0
 43
0.0
 10
140.0914973576311
 20
167.4590490888996
 10
108.3924241225437
 20
167.4590490888996
  0
CIRCLE
  5
EA6E4F348
330
EA6E4DC92
100
AcDbEntity
  8
SAISEN
100
AcDbCircle
 10
124.2419607400875
 20
172.4590490888996
 30
0.0
 40
2.5
  0
TEXT
  5
EA6E4F349
330
EA6E4DC92
100
AcDbEntity
  8
TEXT
100
AcDbText
 10
122.6600667622927
 20
174.1894441464089
 30
0.0
 40
3.5
  1
住
 50
270.0
  7
K
100
AcDbText
  0
LINE
  5
EA6E4F34A
330
EA6E4DC92
100
AcDbEntity
  8
JISSEN
100
AcDbLine
 10
142.5391377400874
 20
199.955237730623
 30
0.0
 11
124.2419607400875
 21
199.955237730623
 31
0.0
  0
LINE
  5
EA6E4F34B
330
EA6E4DC92
100
AcDbEntity
  8
JISSEN
100
AcDbLine
 10
142.4725787400875
 20
202.955237730623
 30
0.0
 11
124.2419607400875
 21
202.955237730623
 31
0.0
  0
LINE
  5
EA6E4F34C
330
EA6E4DC92
100
AcDbEntity
  8
JISSEN
100
AcDbLine
 10
125.5683087400875
 20
198.3552377306231
 30
0.0
 11
124.2419607400875
 21
198.3552377306231
 31
0.0
  0
LINE
  5
EA6E4F34D
330
EA6E4DC92
100
AcDbEntity
  8
JISSEN
100
AcDbLine
 10
148.9919607400875
 20
242.955237730623
 30
0.0
 11
124.2419607400875
 21
242.955237730623
 31
0.0
  0
LINE
  5
EA6E4F34E
330
EA6E4DC92
100
AcDbEntity
  8
JISSEN
100
AcDbLine
 10
145.6847467400875
 20
231.455237730623
 30
0.0
 11
124.2419607400875
 21
231.455237730623
 31
0.0
  0
LINE
  5
EA6E4F34F
330
EA6E4DC92
100
AcDbEntity
  8
JISSEN
100
AcDbLine
 10
147.4919607400875
 20
238.955237730623
 30
0.0
 11
124.2419607400875
 21
238.955237730623
 31
0.0
  0
LINE
  5
EA6E4F350
330
EA6E4DC92
100
AcDbEntity
  8
JISSEN
100
AcDbLine
 10
147.9919607400875
 20
245.955237730623
 30
0.0
 11
124.2419607400875
 21
245.955237730623
 31
0.0
  0
TEXT
  5
EA6E4F351
330
EA6E4DC92
100
AcDbEntity
  8
JISSEN
100
AcDbText
 10
119.2531647400874
 20
225.8213999210993
 30
0.0
 40
10.0
  1
1
 50
270.0
  7
35FONT
 72
     1
 11
119.2531647400874
 21
224.6309237306231
 31
0.0
100
AcDbText
  0
LINE
  5
EA6E4F352
330
EA6E4DC92
100
AcDbEntity
  8
JISSEN
100
AcDbLine
 10
107.3151314717948
 20
268.3836718588318
 30
0.0
 11
141.1687900083802
 21
268.3836718588316
 31
0.0
  0
LINE
  5
EA6E4F353
330
EA6E4DC92
100
AcDbEntity
  8
JISSEN
100
AcDbLine
 10
143.2419607400874
 20
264.455237730623
 30
0.0
 11
124.2419607400875
 21
264.455237730623
 31
0.0
  0
LINE
  5
EA6E4F354
330
EA6E4DC92
100
AcDbEntity
  8
JISSEN
100
AcDbLine
 10
125.5683087400875
 20
263.531476730623
 30
0.0
 11
124.2419607400875
 21
263.531476730623
 31
0.0
  0
LINE
  5
EA6E4F355
330
EA6E4DC92
100
AcDbEntity
  8
JISSEN
100
AcDbLine
 10
103.6419607400873
 20
186.3789977306231
 30
0.0
 11
103.6419607400873
 21
198.3552377306231
 31
0.0
  0
LINE
  5
EA6E4F356
330
EA6E4DC92
100
AcDbEntity
  8
JISSEN
100
AcDbLine
 10
108.7679157400875
 20
186.3789977306231
 30
0.0
 11
108.7679157400875
 21
198.3552377306231
 31
0.0
  0
LINE
  5
EA6E4F357
330
EA6E4DC92
100
AcDbEntity
  8
JISSEN
100
AcDbLine
 10
122.9156127400874
 20
186.3789977306231
 30
0.0
 11
122.9156127400874
 21
198.3552377306231
 31
0.0
  0
LINE
  5
EA6E4F358
330
EA6E4DC92
100
AcDbEntity
  8
JISSEN
100
AcDbLine
 10
110.6436547400874
 20
186.3789977306231
 30
0.0
 11
110.6436547400876
 21
198.3552377306231
 31
0.0
  0
LINE
  5
EA6E4F35A
330
EA6E4DC92
100
AcDbEntity
  8
JISSEN
100
AcDbLine
 10
105.2419607400875
 20
185.455237730623
 30
0.0
 11
124.2419607400875
 21
185.455237730623
 31
0.0
  0
ARC
  5
EA6E4F35B
330
EA6E4DC92
100
AcDbEntity
  8
JISSEN
100
AcDbCircle
 10
108.1972932668676
 20
164.8339342138733
 30
0.0
 40
12.66120791411041
100
AcDbArc
 50
61.48320572768035
 51
85.67271988170496
  0
ARC
  5
EA6E4F35C
330
EA6E4DC92
100
AcDbEntity
  8
JISSEN
100
AcDbCircle
 10
108.1972932668675
 20
180.0841639639257
 30
0.0
 40
12.66120791411041
100
AcDbArc
 50
274.327280118295
 51
298.5167942723196
  0
LINE
  5
EA6E4F35D
330
EA6E4DC92
100
AcDbEntity
  8
JISSEN
100
AcDbLine
 10
108.7679157400875
 20
186.3789977306231
 30
0.0
 11
110.6436547400874
 21
186.3789977306231
 31
0.0
  0
LWPOLYLINE
  5
EA6E4F35E
330
EA6E4DC92
100
AcDbEntity
  8
JISSEN
100
AcDbPolyline
 90
        2
 70
     0
 43
0.0
 10
107.2419607400875
 20
167.8748328013831
 10
107.553468608365
 20
157.9590490888996
  0
LWPOLYLINE
  5
EA6E4F35F
330
EA6E4DC92
100
AcDbEntity
  8
SAISEN
100
AcDbPolyline
 90
        3
 70
     0
 43
0.0
 10
109.553468608365
 20
157.9590490888996
 10
109.3492687989989
 20
164.4590490888996
 10
107.2550227331378
 20
167.4590490888996
  0
LINE
  5
EA6E4F360
330
EA6E4DC92
100
AcDbEntity
  8
JISSEN
100
AcDbLine
 10
108.3924241225438
 20
177.4590490888996
 30
0.0
 11
104.2419607400875
 21
175.9590490888996
 31
0.0
  0
LINE
  5
EA6E4F361
330
EA6E4DC92
100
AcDbEntity
  8
JISSEN
100
AcDbLine
 10
108.3924241225438
 20
167.4590490888996
 30
0.0
 11
104.2419607400875
 21
168.9590490888996
 31
0.0
  0
LWPOLYLINE
  5
EA6E4F362
330
EA6E4DC92
100
AcDbEntity
  8
JISSEN
100
AcDbPolyline
 90
        2
 70
     0
 43
0.0
 10
104.2419607400875
 20
168.9590490888996
 10
104.2419607400875
 20
175.9590490888996
  0
ARC
  5
EA6E4F363
330
EA6E4DC92
100
AcDbEntity
  8
JISSEN
100
AcDbCircle
 10
106.2049377400874
 20
191.2327267306231
 30
0.0
 40
5.488855
100
AcDbArc
 50
242.1640190000017
 51
297.8359809999981
  0
LINE
  5
EA6E4F364
330
EA6E4DC92
100
AcDbEntity
  8
JISSEN
100
AcDbLine
 10
105.2419607400875
 20
185.455237730623
 30
0.0
 11
103.6419607400873
 21
186.3789977306231
 31
0.0
  0
LWPOLYLINE
  5
EA6E4F365
330
EA6E4DC92
100
AcDbEntity
  8
SAISEN
100
AcDbPolyline
 90
        3
 70
     0
 43
0.0
 10
109.5062258402599
 20
185.455237730623
 10
109.3492687989989
 20
180.4590490888996
 10
107.2550227331378
 20
177.4590490888996
  0
LWPOLYLINE
  5
EA6E4F366
330
EA6E4DC92
100
AcDbEntity
  8
JISSEN
100
AcDbPolyline
 90
        2
 70
     0
 43
0.0
 10
107.2419607400875
 20
177.043265376416
 10
107.5062258402599
 20
185.455237730623
  0
ARC
  5
EA6E4F367
330
EA6E4DC92
100
AcDbEntity
  8
JISSEN
100
AcDbCircle
 10
116.7796337400873
 20
215.7033317306231
 30
0.0
 40
29.959419
100
AcDbArc
 50
258.1816419999999
 51
281.8183580000001
  0
LINE
  5
EA6E4F368
330
EA6E4DC92
100
AcDbEntity
  8
JISSEN
100
AcDbLine
 10
114.2419607400875
 20
175.9590490888996
 30
0.0
 11
114.2419607400875
 21
168.9590490888996
 31
0.0
  0
LINE
  5
EA6E4F369
330
EA6E4DC92
100
AcDbEntity
  8
JISSEN
100
AcDbLine
 10
124.2419607400875
 20
186.3789977306231
 30
0.0
 11
122.9156127400874
 21
186.3789977306231
 31
0.0
  0
ARC
  5
EA6E4F36A
330
EA6E4DC92
100
AcDbEntity
  8
JISSEN
100
AcDbCircle
 10
99.24196074008728
 20
230.1913147306231
 30
0.0
 40
2.0
100
AcDbArc
 50
0.0
 51
35.65908799999364
  0
LINE
  5
EA6E4F36B
330
EA6E4DC92
100
AcDbEntity
  8
JISSEN
100
AcDbLine
 10
105.9447837400875
 20
199.955237730623
 30
0.0
 11
124.2419607400875
 21
199.955237730623
 31
0.0
  0
LINE
  5
EA6E4F36C
330
EA6E4DC92
100
AcDbEntity
  8
JISSEN
100
AcDbLine
 10
104.6956427400873
 20
211.955237730623
 30
0.0
 11
124.2419607400875
 21
211.955237730623
 31
0.0
  0
LINE
  5
EA6E4F36D
330
EA6E4DC92
100
AcDbEntity
  8
JISSEN
100
AcDbLine
 10
106.0113417400875
 20
202.955237730623
 30
0.0
 11
124.2419607400875
 21
202.955237730623
 31
0.0
  0
LINE
  5
EA6E4F36E
330
EA6E4DC92
100
AcDbEntity
  8
JISSEN
100
AcDbLine
 10
105.0628877400874
 20
204.955237730623
 30
0.0
 11
124.2419607400875
 21
204.955237730623
 31
0.0
  0
LINE
  5
EA6E4F36F
330
EA6E4DC92
100
AcDbEntity
  8
JISSEN
100
AcDbLine
 10
102.6005247400876
 20
213.8052377306229
 30
0.0
 11
124.2419607400875
 21
213.8052377306229
 31
0.0
  0
LINE
  5
EA6E4F370
330
EA6E4DC92
100
AcDbEntity
  8
JISSEN
100
AcDbLine
 10
108.7679157400875
 20
198.3552377306231
 30
0.0
 11
110.6436547400876
 21
198.3552377306231
 31
0.0
  0
LINE
  5
EA6E4F371
330
EA6E4DC92
100
AcDbEntity
  8
JISSEN
100
AcDbLine
 10
103.2419607400875
 20
211.1268097306232
 30
0.0
 11
103.2419607400875
 21
205.7836647306229
 31
0.0
  0
ARC
  5
EA6E4F372
330
EA6E4DC92
100
AcDbEntity
  8
JISSEN
100
AcDbCircle
 10
105.2419607400872
 20
205.783664730623
 30
0.0
 40
2.0
100
AcDbArc
 50
180.0
 51
225.0000000000083
  0
ARC
  5
EA6E4F373
330
EA6E4DC92
100
AcDbEntity
  8
JISSEN
100
AcDbCircle
 10
106.2049377400874
 20
195.9196027306234
 30
0.0
 40
3.535698999999997
100
AcDbArc
 50
43.54067199999511
 51
136.4593280000048
  0
ARC
  5
EA6E4F374
330
EA6E4DC92
100
AcDbEntity
  8
JISSEN
100
AcDbCircle
 10
103.2419607400872
 20
202.1268097306233
 30
0.0
 40
2.0
100
AcDbArc
 50
0.0
 51
45.00000000000841
  0
LINE
  5
EA6E4F375
330
EA6E4DC92
100
AcDbEntity
  8
JISSEN
100
AcDbLine
 10
105.2419607400875
 20
202.1268097306232
 30
0.0
 11
105.2419607400875
 21
200.7836647306229
 31
0.0
  0
LINE
  5
EA6E4F376
330
EA6E4DC92
100
AcDbEntity
  8
JISSEN
100
AcDbLine
 10
104.6561737400875
 20
199.369450730623
 30
0.0
 11
103.6419607400873
 21
198.3552377306231
 31
0.0
  0
ARC
  5
EA6E4F377
330
EA6E4DC92
100
AcDbEntity
  8
JISSEN
100
AcDbCircle
 10
103.2419607400872
 20
200.783664730623
 30
0.0
 40
2.0
100
AcDbArc
 50
314.9999999999915
 51
0.0
  0
LINE
  5
EA6E4F378
330
EA6E4DC92
100
AcDbEntity
  8
JISSEN
100
AcDbLine
 10
103.8277467400876
 20
204.369450730623
 30
0.0
 11
104.6561737400875
 21
203.5410237306231
 31
0.0
  0
ARC
  5
EA6E4F379
330
EA6E4DC92
100
AcDbEntity
  8
JISSEN
100
AcDbCircle
 10
101.2419607400872
 20
211.1268097306233
 30
0.0
 40
2.0
100
AcDbArc
 50
0.0
 51
45.00000000000841
  0
LINE
  5
EA6E4F37A
330
EA6E4DC92
100
AcDbEntity
  8
JISSEN
100
AcDbLine
 10
101.2419607400875
 20
230.191314730623
 30
0.0
 11
101.2419607400875
 21
214.7836647306229
 31
0.0
  0
ARC
  5
EA6E4F37B
330
EA6E4DC92
100
AcDbEntity
  8
JISSEN
100
AcDbCircle
 10
103.2419607400872
 20
214.783664730623
 30
0.0
 40
2.0
100
AcDbArc
 50
180.0
 51
225.0000000000083
  0
LINE
  5
EA6E4F37C
330
EA6E4DC92
100
AcDbEntity
  8
JISSEN
100
AcDbLine
 10
102.6561737400875
 20
212.5410237306231
 30
0.0
 11
101.8277467400873
 21
213.369450730623
 31
0.0
  0
ARC
  5
EA6E4F37D
330
EA6E4DC92
100
AcDbEntity
  8
JISSEN
100
AcDbCircle
 10
116.7796337400873
 20
181.7914917306234
 30
0.0
 40
17.66374499999999
100
AcDbArc
 50
69.67303500000156
 51
110.3269649999984
  0
LINE
  5
EA6E4F37E
330
EA6E4DC92
100
AcDbEntity
  8
JISSEN
100
AcDbLine
 10
124.2419607400875
 20
198.3552377306231
 30
0.0
 11
122.9156127400874
 21
198.3552377306231
 31
0.0
  0
LINE
  5
EA6E4F37F
330
EA6E4DC92
100
AcDbEntity
  8
JISSEN
100
AcDbLine
 10
99.49196074008751
 20
242.955237730623
 30
0.0
 11
124.2419607400875
 21
242.955237730623
 31
0.0
  0
LINE
  5
EA6E4F380
330
EA6E4DC92
100
AcDbEntity
  8
JISSEN
100
AcDbLine
 10
100.4919607400875
 20
245.955237730623
 30
0.0
 11
124.2419607400875
 21
245.955237730623
 31
0.0
  0
LINE
  5
EA6E4F381
330
EA6E4DC92
100
AcDbEntity
  8
JISSEN
100
AcDbLine
 10
100.9919607400875
 20
238.955237730623
 30
0.0
 11
124.2419607400875
 21
238.955237730623
 31
0.0
  0
LINE
  5
EA6E4F382
330
EA6E4DC92
100
AcDbEntity
  8
JISSEN
100
AcDbLine
 10
101.9419607400873
 20
231.455237730623
 30
0.0
 11
124.2419607400875
 21
231.455237730623
 31
0.0
  0
LINE
  5
EA6E4F383
330
EA6E4DC92
100
AcDbEntity
  8
JISSEN
100
AcDbLine
 10
105.2419607400875
 20
264.455237730623
 30
0.0
 11
124.2419607400875
 21
264.455237730623
 31
0.0
  0
LINE
  5
EA6E4F384
330
EA6E4DC92
100
AcDbEntity
  8
JISSEN
100
AcDbLine
 10
108.7679157400875
 20
263.531476730623
 30
0.0
 11
110.6436547400876
 21
263.531476730623
 31
0.0
  0
LINE
  5
EA6E4F385
330
EA6E4DC92
100
AcDbEntity
  8
JISSEN
100
AcDbLine
 10
108.7679157400875
 20
263.531476730623
 30
0.0
 11
108.7679157400875
 21
247.955237730623
 31
0.0
  0
LINE
  5
EA6E4F386
330
EA6E4DC92
100
AcDbEntity
  8
JISSEN
100
AcDbLine
 10
103.6419607400873
 20
263.531476730623
 30
0.0
 11
103.6419607400873
 21
247.955237730623
 31
0.0
  0
ARC
  5
EA6E4F387
330
EA6E4DC92
100
AcDbEntity
  8
JISSEN
100
AcDbCircle
 10
101.6419607400873
 20
247.9552377306231
 30
0.0
 40
2.0
100
AcDbArc
 50
270.0
 51
0.0
  0
LINE
  5
EA6E4F388
330
EA6E4DC92
100
AcDbEntity
  8
JISSEN
100
AcDbLine
 10
99.49196074008751
 20
242.955237730623
 30
0.0
 11
99.49196074008751
 21
240.2781127306233
 31
0.0
  0
ARC
  5
EA6E4F389
330
EA6E4DC92
100
AcDbEntity
  8
JISSEN
100
AcDbCircle
 10
101.4919607400872
 20
240.2781127306234
 30
0.0
 40
2.0
100
AcDbArc
 50
180.0
 51
221.4096219999983
  0
ARC
  5
EA6E4F38A
330
EA6E4DC92
100
AcDbEntity
  8
JISSEN
100
AcDbCircle
 10
98.49196074008728
 20
237.6323617306234
 30
0.0
 40
2.0
100
AcDbArc
 50
0.0
 51
41.40962199999839
  0
ARC
  5
EA6E4F38B
330
EA6E4DC92
100
AcDbEntity
  8
JISSEN
100
AcDbCircle
 10
102.4919607400872
 20
232.5231597306233
 30
0.0
 40
2.0
100
AcDbArc
 50
180.0
 51
215.6590879999936
  0
LINE
  5
EA6E4F38C
330
EA6E4DC92
100
AcDbEntity
  8
JISSEN
100
AcDbLine
 10
100.4919607400875
 20
237.6323617306232
 30
0.0
 11
100.4919607400875
 21
232.5231597306232
 31
0.0
  0
ARC
  5
EA6E4F38D
330
EA6E4DC92
100
AcDbEntity
  8
JISSEN
100
AcDbCircle
 10
100.4919607400872
 20
244.9552377306231
 30
0.0
 40
1.0
100
AcDbArc
 50
90.0
 51
180.0
  0
LINE
  5
EA6E4F38E
330
EA6E4DC92
100
AcDbEntity
  8
JISSEN
100
AcDbLine
 10
99.49196074008751
 20
244.955237730623
 30
0.0
 11
99.49196074008751
 21
242.955237730623
 31
0.0
  0
LINE
  5
EA6E4F38F
330
EA6E4DC92
100
AcDbEntity
  8
JISSEN
100
AcDbLine
 10
100.4919607400875
 20
245.955237730623
 30
0.0
 11
100.7419607400874
 21
245.955237730623
 31
0.0
  0
ARC
  5
EA6E4F390
330
EA6E4DC92
100
AcDbEntity
  8
JISSEN
100
AcDbCircle
 10
106.2049377400874
 20
258.6777477306231
 30
0.0
 40
5.488855
100
AcDbArc
 50
62.16401900000181
 51
117.8359809999981
  0
LINE
  5
EA6E4F391
330
EA6E4DC92
100
AcDbEntity
  8
JISSEN
100
AcDbLine
 10
105.2419607400875
 20
264.455237730623
 30
0.0
 11
103.6419607400873
 21
263.531476730623
 31
0.0
  0
LWPOLYLINE
  5
EA6E4F392
330
EA6E4DC92
100
AcDbEntity
  8
JISSEN
100
AcDbPolyline
 90
        2
 70
     0
 43
0.0
 10
107.4109469383365
 20
264.455237730623
 10
107.2419607400875
 20
271.3836718588316
  0
LWPOLYLINE
  5
EA6E4F393
330
EA6E4DC92
100
AcDbEntity
  8
SAISEN
100
AcDbPolyline
 90
        3
 70
     0
 43
0.0
 10
107.2419607400875
 20
271.3836718588317
 10
109.3152791608432
 20
268.3836718588318
 10
109.411004879426
 20
264.455237730623
  0
LINE
  5
EA6E4F394
330
EA6E4DC92
100
AcDbEntity
  8
JISSEN
100
AcDbLine
 10
122.9156127400874
 20
263.531476730623
 30
0.0
 11
122.9156127400874
 21
247.955237730623
 31
0.0
  0
LINE
  5
EA6E4F395
330
EA6E4DC92
100
AcDbEntity
  8
JISSEN
100
AcDbLine
 10
110.6436547400876
 20
263.531476730623
 30
0.0
 11
110.6436547400876
 21
247.955237730623
 31
0.0
  0
ARC
  5
EA6E4F396
330
EA6E4DC92
100
AcDbEntity
  8
JISSEN
100
AcDbCircle
 10
116.7796337400873
 20
234.2071427306232
 30
0.0
 40
29.959419
100
AcDbArc
 50
78.18164199999991
 51
101.818358
  0
LINE
  5
EA6E4F397
330
EA6E4DC92
100
AcDbEntity
  8
JISSEN
100
AcDbLine
 10
122.9156127400874
 20
263.531476730623
 30
0.0
 11
124.2419607400875
 21
263.531476730623
 31
0.0
  0
LINE
  5
EA6E4F398
330
EA6E4DC92
100
AcDbEntity
  8
JISSEN
100
AcDbLine
 10
179.4919607400875
 20
195.5214810008825
 30
0.0
 11
179.4919607400875
 21
108.9052377306233
 31
0.0
  0
LINE
  5
EA6E4F399
330
EA6E4DC92
100
AcDbEntity
  8
JISSEN
100
AcDbLine
 10
125.5683087400873
 20
186.3789977306231
 30
0.0
 11
125.5683087400875
 21
198.3552377306231
 31
0.0
  0
LINE
  5
EA6E4F39A
330
EA6E4DC92
100
AcDbEntity
  8
JISSEN
100
AcDbLine
 10
139.7160057400874
 20
186.3789977306231
 30
0.0
 11
139.7160057400874
 21
198.3552377306231
 31
0.0
  0
LINE
  5
EA6E4F39B
330
EA6E4DC92
100
AcDbEntity
  8
JISSEN
100
AcDbLine
 10
137.8402667400873
 20
186.3789977306231
 30
0.0
 11
137.8402667400876
 21
198.3552377306231
 31
0.0
  0
LINE
  5
EA6E4F39C
330
EA6E4DC92
100
AcDbEntity
  8
JISSEN
100
AcDbLine
 10
144.8419607400874
 20
186.3789977306231
 30
0.0
 11
144.8419607400874
 21
198.3552377306231
 31
0.0
  0
ARC
  5
EA6E4F39D
330
EA6E4DC92
100
AcDbEntity
  8
JISSEN
100
AcDbCircle
 10
140.2866282133073
 20
164.8339342138734
 30
0.0
 40
12.66120791411041
100
AcDbArc
 50
94.32728011829501
 51
118.5167942723196
  0
ARC
  5
EA6E4F39E
330
EA6E4DC92
100
AcDbEntity
  8
JISSEN
100
AcDbCircle
 10
140.2866282133073
 20
180.0841639639259
 30
0.0
 40
12.66120791411041
100
AcDbArc
 50
241.4832057276803
 51
265.6727198817049
  0
LINE
  5
EA6E4F39F
330
EA6E4DC92
100
AcDbEntity
  8
JISSEN
100
AcDbLine
 10
139.7160057400874
 20
186.3789977306231
 30
0.0
 11
137.8402667400873
 21
186.3789977306231
 31
0.0
  0
ARC
  5
EA6E4F3A0
330
EA6E4DC92
100
AcDbEntity
  8
JISSEN
100
AcDbCircle
 10
131.7042877400872
 20
215.7033317306231
 30
0.0
 40
29.959419
100
AcDbArc
 50
258.1816419999999
 51
281.8183580000001
  0
LINE
  5
EA6E4F3A1
330
EA6E4DC92
100
AcDbEntity
  8
JISSEN
100
AcDbLine
 10
134.2419607400875
 20
175.9590490888996
 30
0.0
 11
134.2419607400875
 21
168.9590490888996
 31
0.0
  0
LWPOLYLINE
  5
EA6E4F3A2
330
EA6E4DC92
100
AcDbEntity
  8
SAISEN
100
AcDbPolyline
 90
        3
 70
     0
 43
0.0
 10
138.93045287181
 20
157.9590490888996
 10
139.134652681176
 20
164.4590490888996
 10
141.2288987470371
 20
167.4590490888996
  0
LWPOLYLINE
  5
EA6E4F3A3
330
EA6E4DC92
100
AcDbEntity
  8
JISSEN
100
AcDbPolyline
 90
        2
 70
     0
 43
0.0
 10
140.9304528718099
 20
157.9590490888996
 10
141.2419607400875
 20
167.8748328013831
  0
INSERT
  5
EA6E4F3A4
330
EA6E4DC92
100
AcDbEntity
  8
SUNPOU
100
AcDbBlockReference
  2
ARROWANG
 10
144.2419607400878
 20
170.3079695329472
 30
0.0
 41
2.999999999999996
 42
3.0
 43
3.0
 50
160.0693382603751
  0
LINE
  5
EA6E4F3A5
330
EA6E4DC92
100
AcDbEntity
  8
JISSEN
100
AcDbLine
 10
140.0914973576311
 20
177.4590490888996
 30
0.0
 11
144.2419607400875
 21
175.9590490888996
 31
0.0
  0
LINE
  5
EA6E4F3A6
330
EA6E4DC92
100
AcDbEntity
  8
JISSEN
100
AcDbLine
 10
140.0914973576311
 20
167.4590490888996
 30
0.0
 11
144.2419607400875
 21
168.9590490888996
 31
0.0
  0
LWPOLYLINE
  5
EA6E4F3A7
330
EA6E4DC92
100
AcDbEntity
  8
JISSEN
100
AcDbPolyline
 90
        2
 70
     0
 43
0.0
 10
144.2419607400875
 20
175.9590490888996
 10
144.2419607400875
 20
168.9590490888996
  0
ARC
  5
EA6E4F3A8
330
EA6E4DC92
100
AcDbEntity
  8
JISSEN
100
AcDbCircle
 10
142.278982740087
 20
191.2327267306231
 30
0.0
 40
5.488855
100
AcDbArc
 50
242.1640190000017
 51
297.8359809999981
  0
LWPOLYLINE
  5
EA6E4F3A9
330
EA6E4DC92
100
AcDbEntity
  8
JISSEN
100
AcDbPolyline
 90
        2
 70
     0
 43
0.0
 10
140.977695639915
 20
185.455237730623
 10
141.2419607400875
 20
177.0432653764161
  0
LWPOLYLINE
  5
EA6E4F3AA
330
EA6E4DC92
100
AcDbEntity
  8
SAISEN
100
AcDbPolyline
 90
        3
 70
     0
 43
0.0
 10
138.977695639915
 20
185.455237730623
 10
139.134652681176
 20
180.4590490888996
 10
141.2288987470371
 20
177.4590490888996
  0
LINE
  5
EA6E4F3AB
330
EA6E4DC92
100
AcDbEntity
  8
JISSEN
100
AcDbLine
 10
143.2419607400874
 20
185.455237730623
 30
0.0
 11
144.8419607400874
 21
186.3789977306231
 31
0.0
  0
LINE
  5
EA6E4F3AC
330
EA6E4DC92
100
AcDbEntity
  8
JISSEN
100
AcDbLine
 10
159.9919607400875
 20
215.455237730623
 30
0.0
 11
150.4919607400875
 21
215.455237730623
 31
0.0
  0
LINE
  5
EA6E4F3AD
330
EA6E4DC92
100
AcDbEntity
  8
JISSEN
100
AcDbLine
 10
159.9919607400875
 20
234.455237730623
 30
0.0
 11
150.4919607400875
 21
234.455237730623
 31
0.0
  0
LINE
  5
EA6E4F3AE
330
EA6E4DC92
100
AcDbEntity
  8
JISSEN
100
AcDbLine
 10
149.4919607400874
 20
224.955237730623
 30
0.0
 11
149.4919607400874
 21
233.455237730623
 31
0.0
  0
LINE
  5
EA6E4F3AF
330
EA6E4DC92
100
AcDbEntity
  8
JISSEN
100
AcDbLine
 10
139.7160057400874
 20
198.3552377306231
 30
0.0
 11
137.8402667400876
 21
198.3552377306231
 31
0.0
  0
ARC
  5
EA6E4F3B0
330
EA6E4DC92
100
AcDbEntity
  8
JISSEN
100
AcDbCircle
 10
131.7042877400872
 20
181.7914917306234
 30
0.0
 40
17.66374499999999
100
AcDbArc
 50
69.67303500000156
 51
110.3269649999984
  0
LINE
  5
EA6E4F3B1
330
EA6E4DC92
100
AcDbEntity
  8
JISSEN
100
AcDbLine
 10
145.2419607400875
 20
211.1268097306232
 30
0.0
 11
145.2419607400875
 21
205.7836647306229
 31
0.0
  0
ARC
  5
EA6E4F3B2
330
EA6E4DC92
100
AcDbEntity
  8
JISSEN
100
AcDbCircle
 10
142.278982740087
 20
195.9196027306234
 30
0.0
 40
3.535698999999997
100
AcDbArc
 50
43.54067199999511
 51
136.4593280000048
  0
ARC
  5
EA6E4F3B3
330
EA6E4DC92
100
AcDbEntity
  8
JISSEN
100
AcDbCircle
 10
145.2419607400872
 20
200.783664730623
 30
0.0
 40
2.0
100
AcDbArc
 50
180.0
 51
225.0000000000083
  0
ARC
  5
EA6E4F3B4
330
EA6E4DC92
100
AcDbEntity
  8
JISSEN
100
AcDbCircle
 10
145.2419607400872
 20
202.1268097306233
 30
0.0
 40
2.0
100
AcDbArc
 50
134.9999999999915
 51
180.0
  0
LINE
  5
EA6E4F3B5
330
EA6E4DC92
100
AcDbEntity
  8
JISSEN
  6
CONTINUOUS
100
AcDbLine
 10
143.2419607400874
 20
202.1268097306232
 30
0.0
 11
143.2419607400874
 21
200.7836647306229
 31
0.0
  0
LINE
  5
EA6E4F3B6
330
EA6E4DC92
100
AcDbEntity
  8
JISSEN
100
AcDbLine
 10
143.2419607400874
 20
202.1268097306232
 30
0.0
 11
143.2419607400874
 21
200.7836647306229
 31
0.0
  0
LINE
  5
EA6E4F3B7
330
EA6E4DC92
100
AcDbEntity
  8
JISSEN
100
AcDbLine
 10
143.8277467400876
 20
199.369450730623
 30
0.0
 11
144.8419607400874
 21
198.3552377306231
 31
0.0
  0
ARC
  5
EA6E4F3B8
330
EA6E4DC92
100
AcDbEntity
  8
JISSEN
100
AcDbCircle
 10
143.2419607400872
 20
205.783664730623
 30
0.0
 40
2.0
100
AcDbArc
 50
314.9999999999915
 51
0.0
  0
LINE
  5
EA6E4F3B9
330
EA6E4DC92
100
AcDbEntity
  8
JISSEN
100
AcDbLine
 10
144.6561737400875
 20
204.369450730623
 30
0.0
 11
143.8277467400876
 21
203.5410237306231
 31
0.0
  0
ARC
  5
EA6E4F3BA
330
EA6E4DC92
100
AcDbEntity
  8
JISSEN
100
AcDbCircle
 10
147.2419607400872
 20
211.1268097306233
 30
0.0
 40
2.0
100
AcDbArc
 50
134.9999999999915
 51
180.0
  0
SPLINE
  5
EA6E4F3BB
330
EA6E4DC92
100
AcDbEntity
  8
JISSEN
100
AcDbSpline
210
0.0
220
0.0
230
1.0
 70
     8
 71
     3
 72
     8
 73
     4
 74
     0
 42
0.0000000001
 43
0.0000000001
 40
1.210314090895789
 40
1.210314090895789
 40
1.210314090895789
 40
1.210314090895789
 40
10.80205680575085
 40
10.80205680575085
 40
10.80205680575085
 40
10.80205680575085
 10
146.7447615352273
 20
215.5648273705354
 30
0.0
 10
145.4808697079574
 20
218.5319853074969
 30
0.0
 10
144.6310570462571
 20
221.7706647458443
 30
0.0
 10
144.7053425299889
 20
224.9552372460219
 30
0.0
  0
SPLINE
  5
EA6E4F3BC
330
EA6E4DC92
100
AcDbEntity
  8
JISSEN
100
AcDbSpline
210
0.0
220
0.0
230
1.0
 70
     8
 71
     3
 72
     8
 73
     4
 74
     0
 42
0.0000000001
 43
0.0000000001
 40
5.526513857442442
 40
5.526513857442442
 40
5.526513857442442
 40
5.526513857442442
 40
10.80205680575085
 40
10.80205680575085
 40
10.80205680575085
 40
10.80205680575085
 10
145.3365569546285
 20
230.2047905765847
 30
0.0
 10
144.9031758291198
 20
228.4746909492877
 30
0.0
 10
144.6644848598541
 20
226.7067801612287
 30
0.0
 10
144.7053425299889
 20
224.9552372460219
 30
0.0
  0
LINE
  5
EA6E4F3BD
330
EA6E4DC92
100
AcDbEntity
  8
JISSEN
100
AcDbLine
 10
149.4919607400874
 20
224.955237730623
 30
0.0
 11
149.4919607400874
 21
216.455237730623
 31
0.0
  0
ARC
  5
EA6E4F3BE
330
EA6E4DC92
100
AcDbEntity
  8
JISSEN
100
AcDbCircle
 10
148.7599097400873
 20
215.4552377306231
 30
0.0
 40
1.0
100
AcDbArc
 50
270.0
 51
329.999999999998
  0
ARC
  5
EA6E4F3BF
330
EA6E4DC92
100
AcDbEntity
  8
JISSEN
100
AcDbCircle
 10
148.4944097400871
 20
212.4552377306231
 30
0.0
 40
2.0
100
AcDbArc
 50
90.0
 51
144.401140999999
  0
LINE
  5
EA6E4F3C0
330
EA6E4DC92
100
AcDbEntity
  8
JISSEN
100
AcDbLine
 10
145.8277467400876
 20
212.5410237306231
 30
0.0
 11
146.6561737400875
 21
213.369450730623
 31
0.0
  0
ARC
  5
EA6E4F3C1
330
EA6E4DC92
100
AcDbEntity
  8
JISSEN
100
AcDbCircle
 10
145.2419607400872
 20
214.783664730623
 30
0.0
 40
2.0
100
AcDbArc
 50
314.9999999999915
 51
324.401140999999
  0
LINE
  5
EA6E4F3C2
330
EA6E4DC92
100
AcDbEntity
  8
JISSEN
100
AcDbLine
 10
148.7599097400875
 20
214.455237730623
 30
0.0
 11
148.4944097400873
 21
214.455237730623
 31
0.0
  0
ARC
  5
EA6E4F3C3
330
EA6E4DC92
100
AcDbEntity
  8
JISSEN
100
AcDbCircle
 10
150.4919607400872
 20
214.4552377306231
 30
0.0
 40
1.0
100
AcDbArc
 50
90.0
 51
149.999999999998
  0
LINE
  5
EA6E4F3C4
330
EA6E4DC92
100
AcDbEntity
  8
JISSEN
100
AcDbLine
 10
139.7160057400874
 20
263.531476730623
 30
0.0
 11
137.8402667400876
 21
263.531476730623
 31
0.0
  0
LINE
  5
EA6E4F3C5
330
EA6E4DC92
100
AcDbEntity
  8
JISSEN
100
AcDbLine
 10
125.5683087400875
 20
263.531476730623
 30
0.0
 11
125.5683087400875
 21
247.955237730623
 31
0.0
  0
LINE
  5
EA6E4F3C6
330
EA6E4DC92
100
AcDbEntity
  8
JISSEN
100
AcDbLine
 10
137.8402667400876
 20
263.531476730623
 30
0.0
 11
137.8402667400876
 21
247.955237730623
 31
0.0
  0
ARC
  5
EA6E4F3C7
330
EA6E4DC92
100
AcDbEntity
  8
JISSEN
100
AcDbCircle
 10
131.7042877400872
 20
234.2071427306232
 30
0.0
 40
29.959419
100
AcDbArc
 50
78.18164199999991
 51
101.818358
  0
LINE
  5
EA6E4F3C8
330
EA6E4DC92
100
AcDbEntity
  8
JISSEN
100
AcDbLine
 10
139.7160057400874
 20
263.531476730623
 30
0.0
 11
139.7160057400874
 21
247.955237730623
 31
0.0
  0
LINE
  5
EA6E4F3C9
330
EA6E4DC92
100
AcDbEntity
  8
JISSEN
100
AcDbLine
 10
144.8419607400874
 20
263.531476730623
 30
0.0
 11
144.8419607400874
 21
247.955237730623
 31
0.0
  0
ARC
  5
EA6E4F3CA
330
EA6E4DC92
100
AcDbEntity
  8
JISSEN
100
AcDbCircle
 10
146.8419607400874
 20
247.9552377306231
 30
0.0
 40
2.0
100
AcDbArc
 50
180.0
 51
270.0
  0
LINE
  5
EA6E4F3CB
330
EA6E4DC92
100
AcDbEntity
  8
JISSEN
100
AcDbLine
 10
148.9919607400875
 20
242.955237730623
 30
0.0
 11
148.9919607400875
 21
240.2781127306233
 31
0.0
  0
ARC
  5
EA6E4F3CC
330
EA6E4DC92
100
AcDbEntity
  8
JISSEN
100
AcDbCircle
 10
148.7599097400873
 20
234.4552377306231
 30
0.0
 40
1.0
100
AcDbArc
 50
30.000000000002
 51
65.75221499999568
  0
ARC
  5
EA6E4F3CD
330
EA6E4DC92
100
AcDbEntity
  8
JISSEN
100
AcDbCircle
 10
149.991960740087
 20
237.6323617306234
 30
0.0
 40
2.0
100
AcDbArc
 50
138.5903780000016
 51
180.0
  0
ARC
  5
EA6E4F3CE
330
EA6E4DC92
100
AcDbEntity
  8
JISSEN
100
AcDbCircle
 10
149.991960740087
 20
237.1905707306232
 30
0.0
 40
2.0
100
AcDbArc
 50
180.0
 51
245.7522149999956
  0
LINE
  5
EA6E4F3CF
330
EA6E4DC92
100
AcDbEntity
  8
JISSEN
100
AcDbLine
 10
147.9919607400875
 20
237.6323617306232
 30
0.0
 11
147.9919607400875
 21
237.1905707306231
 31
0.0
  0
ARC
  5
EA6E4F3D0
330
EA6E4DC92
100
AcDbEntity
  8
JISSEN
100
AcDbCircle
 10
145.2717947400874
 20
233.2426367306234
 30
0.0
 40
1.834481999999999
100
AcDbArc
 50
283.0090819999967
 51
336.9087820000024
  0
SPLINE
  5
EA6E4F3D1
330
EA6E4DC92
100
AcDbEntity
  8
JISSEN
100
AcDbSpline
210
0.0
220
0.0
230
1.0
 70
     8
 71
     3
 72
     8
 73
     4
 74
     0
 42
0.0000000001
 43
0.0000000001
 40
0.5678758884252421
 40
0.5678758884252421
 40
0.5678758884252421
 40
0.5678758884252421
 40
3.08188610348608
 40
3.08188610348608
 40
3.08188610348608
 40
3.08188610348608
 10
147.7946992483032
 20
234.9213773373188
 30
0.0
 10
147.5048597570271
 20
234.1312497062298
 30
0.0
 10
147.2216490599382
 20
233.3310307915061
 30
0.0
 10
146.9593012211321
 20
232.5231595422418
 30
0.0
  0
ARC
  5
EA6E4F3D2
330
EA6E4DC92
100
AcDbEntity
  8
JISSEN
100
AcDbCircle
 10
146.9919607400872
 20
240.2781127306234
 30
0.0
 40
2.0
100
AcDbArc
 50
318.5903780000016
 51
0.0
  0
ARC
  5
EA6E4F3D3
330
EA6E4DC92
100
AcDbEntity
  8
JISSEN
100
AcDbCircle
 10
150.4919607400872
 20
235.4552377306231
 30
0.0
 40
1.0
100
AcDbArc
 50
210.0000000000019
 51
270.0
  0
ARC
  5
EA6E4F3D4
330
EA6E4DC92
100
AcDbEntity
  8
JISSEN
100
AcDbCircle
 10
147.9919607400872
 20
244.9552377306231
 30
0.0
 40
1.0
100
AcDbArc
 50
0.0
 51
90.0
  0
LINE
  5
EA6E4F3D5
330
EA6E4DC92
100
AcDbEntity
  8
JISSEN
100
AcDbLine
 10
147.9919607400875
 20
245.955237730623
 30
0.0
 11
147.7419607400872
 21
245.955237730623
 31
0.0
  0
LINE
  5
EA6E4F3D6
330
EA6E4DC92
100
AcDbEntity
  8
JISSEN
100
AcDbLine
 10
148.9919607400875
 20
244.955237730623
 30
0.0
 11
148.9919607400875
 21
242.955237730623
 31
0.0
  0
ARC
  5
EA6E4F3D7
330
EA6E4DC92
100
AcDbEntity
  8
JISSEN
100
AcDbCircle
 10
142.278982740087
 20
258.6777477306231
 30
0.0
 40
5.488855
100
AcDbArc
 50
62.16401900000181
 51
117.8359809999981
  0
LWPOLYLINE
  5
EA6E4F3D8
330
EA6E4DC92
100
AcDbEntity
  8
SAISEN
100
AcDbPolyline
 90
        3
 70
     0
 43
0.0
 10
141.2419607400875
 20
271.3836718588316
 10
139.1686423193317
 20
268.3836718588316
 10
139.0729166007489
 20
264.455237730623
  0
LWPOLYLINE
  5
EA6E4F3D9
330
EA6E4DC92
100
AcDbEntity
  8
JISSEN
100
AcDbPolyline
 90
        2
 70
     0
 43
0.0
 10
141.2419607400875
 20
271.3836718588316
 10
141.0729745418385
 20
264.455237730623
  0
LINE
  5
EA6E4F3DA
330
EA6E4DC92
100
AcDbEntity
  8
JISSEN
100
AcDbLine
 10
143.2419607400874
 20
264.455237730623
 30
0.0
 11
144.8419607400874
 21
263.531476730623
 31
0.0
  0
INSERT
  5
EA6E4F3DB
330
EA6E4DC92
100
AcDbEntity
  8
SUNPOU
100
AcDbBlockReference
  2
ARROWANG
 10
145.7419607400878
 20
272.6308514095969
 30
0.0
 41
2.999999999999992
 42
3.0
 43
3.0
 50
131.9001998491084
  0
LINE
  5
EA6E4F3DC
330
EA6E4DC92
100
AcDbEntity
  8
JISSEN
100
AcDbLine
 10
160.9919607400875
 20
239.955237730623
 30
0.0
 11
160.9919607400875
 21
211.1099382690025
 31
0.0
  0
LINE
  5
EA6E4F3DD
330
EA6E4DC92
100
AcDbEntity
  8
JISSEN
100
AcDbLine
 10
163.9919607400875
 20
239.955237730623
 30
0.0
 11
163.9919607400875
 21
211.1099382690025
 31
0.0
  0
LINE
  5
EA6E4F3DE
330
EA6E4DC92
100
AcDbEntity
  8
JISSEN
100
AcDbLine
 10
159.9919607400875
 20
224.955237730623
 30
0.0
 11
159.9919607400875
 21
234.455237730623
 31
0.0
  0
LINE
  5
EA6E4F3DF
330
EA6E4DC92
100
AcDbEntity
  8
JISSEN
100
AcDbLine
 10
170.9919607400877
 20
218.455237730623
 30
0.0
 11
170.9919607400875
 21
231.455237730623
 31
0.0
  0
LINE
  5
EA6E4F3E0
330
EA6E4DC92
100
AcDbEntity
  8
JISSEN
100
AcDbLine
 10
165.9919607400875
 20
217.2552377306232
 30
0.0
 11
165.9919607400875
 21
232.6552377306232
 31
0.0
  0
ARC
  5
EA6E4F3E1
330
EA6E4DC92
100
AcDbEntity
  8
JISSEN
100
AcDbCircle
 10
167.6693911671373
 20
230.5844028552219
 30
0.0
 40
3.322569572950015
100
AcDbArc
 50
325.6157525319601
 51
34.38424746803988
  0
ARC
  5
EA6E4F3E2
330
EA6E4DC92
100
AcDbEntity
  8
JISSEN
100
AcDbCircle
 10
169.3145303130372
 20
230.5844028552219
 30
0.0
 40
3.322569572950015
100
AcDbArc
 50
145.6157525319601
 51
214.3842474680398
  0
LINE
  5
EA6E4F3E3
330
EA6E4DC92
100
AcDbEntity
  8
JISSEN
100
AcDbLine
 10
166.5692329392773
 20
203.2710965099393
 30
0.0
 11
179.2419607400875
 21
195.9544937027748
 31
0.0
  0
LINE
  5
EA6E4F3E4
330
EA6E4DC92
100
AcDbEntity
  8
JISSEN
100
AcDbLine
 10
178.5692329392773
 20
203.2710965099393
 30
0.0
 11
166.5692329392773
 21
203.2710965099393
 31
0.0
  0
LINE
  5
EA6E4F3E5
330
EA6E4DC92
100
AcDbEntity
  8
JISSEN
100
AcDbLine
 10
175.569232939277
 20
203.2710965099393
 30
0.0
 11
164.9919607400875
 21
209.3778874614335
 31
0.0
  0
LINE
  5
EA6E4F3E6
330
EA6E4DC92
100
AcDbEntity
  8
JISSEN
100
AcDbLine
 10
169.5692329392772
 20
203.2710965099393
 30
0.0
 11
163.4919607400875
 21
206.7798112500803
 31
0.0
  0
LINE
  5
EA6E4F3E7
330
EA6E4DC92
100
AcDbEntity
  8
ITTEN
100
AcDbLine
 10
169.3120014777161
 20
209.193111855412
 30
0.0
 11
165.8120014777161
 21
203.1309340289207
 31
0.0
  0
LINE
  5
EA6E4F3E8
330
EA6E4DC92
100
AcDbEntity
  8
JISSEN
100
AcDbLine
 10
166.5725173236883
 20
221.2024609808903
 30
0.0
 11
170.4114041564869
 21
221.2024609808903
 31
0.0
  0
LINE
  5
EA6E4F3E9
330
EA6E4DC92
100
AcDbEntity
  8
JISSEN
100
AcDbLine
 10
166.5725173236883
 20
217.4496842311581
 30
0.0
 11
170.4114041564869
 21
217.4496842311581
 31
0.0
  0
LINE
  5
EA6E4F3EA
330
EA6E4DC92
100
AcDbEntity
  8
JISSEN
100
AcDbLine
 10
166.5725173236883
 20
228.7080144803557
 30
0.0
 11
170.4114041564869
 21
228.7080144803557
 31
0.0
  0
ARC
  5
EA6E4F3EB
330
EA6E4DC92
100
AcDbEntity
  8
JISSEN
100
AcDbCircle
 10
165.9919607400875
 20
211.1099382690026
 30
0.0
 40
5.0
100
AcDbArc
 50
180.0
 51
239.9999999999923
  0
LINE
  5
EA6E4F3EC
330
EA6E4DC92
100
AcDbEntity
  8
JISSEN
  6
BREAK
100
AcDbLine
 10
166.1469379682553
 20
208.7110610478429
 30
0.0
 11
164.6469379682553
 21
206.1129848364897
 31
0.0
  0
LINE
  5
EA6E4F3ED
330
EA6E4DC92
100
AcDbEntity
  8
JISSEN
100
AcDbLine
 10
159.9919607400875
 20
224.955237730623
 30
0.0
 11
159.9919607400875
 21
215.455237730623
 31
0.0
  0
ARC
  5
EA6E4F3EE
330
EA6E4DC92
100
AcDbEntity
  8
JISSEN
100
AcDbCircle
 10
169.3145303130372
 20
219.3260726060243
 30
0.0
 40
3.322569572950068
100
AcDbArc
 50
145.6157525319601
 51
214.3842474680398
  0
LINE
  5
EA6E4F3EF
330
EA6E4DC92
100
AcDbEntity
  8
JISSEN
100
AcDbLine
 10
159.9919607400875
 20
215.955237730623
 30
0.0
 11
160.9919607400875
 21
215.955237730623
 31
0.0
  0
ARC
  5
EA6E4F3F0
330
EA6E4DC92
100
AcDbEntity
  8
JISSEN
100
AcDbCircle
 10
165.9919607400875
 20
211.1099382690026
 30
0.0
 40
2.0
100
AcDbArc
 50
180.0
 51
239.9999999999923
  0
LINE
  5
EA6E4F3F1
330
EA6E4DC92
100
AcDbEntity
  8
JISSEN
100
AcDbLine
 10
165.9919607400875
 20
217.2552377306232
 30
0.0
 11
163.9919607400875
 21
217.2552377306232
 31
0.0
  0
LINE
  5
EA6E4F3F2
330
EA6E4DC92
100
AcDbEntity
  8
JISSEN
100
AcDbLine
 10
165.9919607400877
 20
218.455237730623
 30
0.0
 11
166.5725173236883
 21
217.4496842311581
 31
0.0
  0
LINE
  5
EA6E4F3F3
330
EA6E4DC92
100
AcDbEntity
  8
JISSEN
100
AcDbLine
 10
165.9919607400875
 20
227.5712631344075
 30
0.0
 11
163.9919607400875
 21
224.1071615192698
 31
0.0
  0
ARC
  5
EA6E4F3F4
330
EA6E4DC92
100
AcDbEntity
  8
JISSEN
100
AcDbCircle
 10
178.4114041564862
 20
224.9552377306231
 30
0.0
 40
12.41944341639882
100
AcDbArc
 50
162.4120462260099
 51
197.5879537739886
  0
LINE
  5
EA6E4F3F5
330
EA6E4DC92
100
AcDbEntity
  8
JISSEN
100
AcDbLine
 10
165.9919607400875
 20
225.5712631344075
 30
0.0
 11
163.9919607400875
 21
222.1071615192698
 31
0.0
  0
LINE
  5
EA6E4F3F6
330
EA6E4DC92
100
AcDbEntity
  8
JISSEN
  6
BREAK
100
AcDbLine
 10
170.4770649871773
 20
206.2110610478429
 30
0.0
 11
168.9770649871773
 21
203.6129848364897
 31
0.0
  0
ARC
  5
EA6E4F3F7
330
EA6E4DC92
100
AcDbEntity
  8
JISSEN
100
AcDbCircle
 10
178.9919607400875
 20
195.5214810008826
 30
0.0
 40
0.5
100
AcDbArc
 50
0.0
 51
59.99999999999239
  0
INSERT
  5
EA6E4F3F8
330
EA6E4DC92
100
AcDbEntity
  8
SUNPOU
100
AcDbBlockReference
  2
ARROWANG
 10
173.3922259043382
 20
221.7055028948739
 30
0.0
 41
3.000000000000013
 42
3.0
 43
3.0
 50
128.2249227295265
  0
ARC
  5
EA6E4F3F9
330
EA6E4DC92
100
AcDbEntity
  8
JISSEN
100
AcDbCircle
 10
167.6693911671375
 20
219.3260726060243
 30
0.0
 40
3.322569572950068
100
AcDbArc
 50
325.6157525319601
 51
34.38424746803988
  0
LINE
  5
EA6E4F3FA
330
EA6E4DC92
100
AcDbEntity
  8
JISSEN
100
AcDbLine
 10
170.9919607400877
 20
218.455237730623
 30
0.0
 11
170.4114041564869
 21
217.4496842311581
 31
0.0
  0
LINE
  5
EA6E4F3FB
330
EA6E4DC92
100
AcDbEntity
  8
JISSEN
100
AcDbLine
 10
172.6419607400876
 20
228.9552377306234
 30
0.0
 11
172.641960740088
 21
224.9552377306234
 31
0.0
  0
LINE
  5
EA6E4F3FC
330
EA6E4DC92
100
AcDbEntity
  8
JISSEN
100
AcDbLine
 10
173.6419607400875
 20
227.9552377306234
 30
0.0
 11
173.6419607400875
 21
225.455237730623
 31
0.0
  0
ARC
  5
EA6E4F3FD
330
EA6E4DC92
100
AcDbEntity
  8
JISSEN
100
AcDbCircle
 10
158.5725173236885
 20
224.9552377306231
 30
0.0
 40
12.41944341639882
100
AcDbArc
 50
342.4120462260099
 51
17.58795377398859
  0
LINE
  5
EA6E4F3FE
330
EA6E4DC92
100
AcDbEntity
  8
JISSEN
100
AcDbLine
 10
173.1419607400876
 20
224.455237730623
 30
0.0
 11
173.1419607400876
 21
224.9552377306234
 31
0.0
  0
LINE
  5
EA6E4F3FF
330
EA6E4DC92
100
AcDbEntity
  8
JISSEN
100
AcDbLine
 10
173.1419607400876
 20
224.455237730623
 30
0.0
 11
173.6419607400875
 21
224.455237730623
 31
0.0
  0
LINE
  5
EA6E4F400
330
EA6E4DC92
100
AcDbEntity
  8
JISSEN
100
AcDbLine
 10
173.1419607400876
 20
225.455237730623
 30
0.0
 11
173.6419607400875
 21
225.455237730623
 31
0.0
  0
LINE
  5
EA6E4F401
330
EA6E4DC92
100
AcDbEntity
  8
JISSEN
100
AcDbLine
 10
173.1419607400876
 20
225.455237730623
 30
0.0
 11
173.1419607400876
 21
224.9552377306234
 31
0.0
  0
LINE
  5
EA6E4F402
330
EA6E4DC92
100
AcDbEntity
  8
JISSEN
100
AcDbLine
 10
172.6419607400876
 20
220.9552377306234
 30
0.0
 11
173.6419607400359
 21
221.9552377305716
 31
0.0
  0
LINE
  5
EA6E4F403
330
EA6E4DC92
100
AcDbEntity
  8
JISSEN
100
AcDbLine
 10
173.3419607400878
 20
221.6552377306233
 30
0.0
 11
170.9919607400877
 21
221.6552377306233
 31
0.0
  0
LINE
  5
EA6E4F404
330
EA6E4DC92
100
AcDbEntity
  8
JISSEN
100
AcDbLine
 10
170.9919607400877
 20
220.9552377306234
 30
0.0
 11
172.6419607400876
 21
220.9552377306234
 31
0.0
  0
LINE
  5
EA6E4F405
330
EA6E4DC92
100
AcDbEntity
  8
JISSEN
100
AcDbLine
 10
172.6419607400876
 20
220.9552377306234
 30
0.0
 11
172.641960740088
 21
224.9552377306234
 31
0.0
  0
LINE
  5
EA6E4F406
330
EA6E4DC92
100
AcDbEntity
  8
JISSEN
100
AcDbLine
 10
173.6419607400875
 20
221.9552377306234
 30
0.0
 11
173.6419607400875
 21
224.455237730623
 31
0.0
  0
LINE
  5
EA6E4F407
330
EA6E4DC92
100
AcDbEntity
  8
JISSEN
100
AcDbLine
 10
172.6419607400876
 20
228.9552377306234
 30
0.0
 11
173.6419607400359
 21
227.9552377306748
 31
0.0
  0
LINE
  5
EA6E4F408
330
EA6E4DC92
100
AcDbEntity
  8
JISSEN
100
AcDbLine
 10
170.9919607400877
 20
228.9552377306234
 30
0.0
 11
172.6419607400876
 21
228.9552377306234
 31
0.0
  0
LINE
  5
EA6E4F409
330
EA6E4DC92
100
AcDbEntity
  8
JISSEN
100
AcDbLine
 10
173.3419607400878
 20
228.2552377306231
 30
0.0
 11
170.9919607400877
 21
228.2552377306231
 31
0.0
  0
LINE
  5
EA6E4F40A
330
EA6E4DC92
100
AcDbEntity
  8
JISSEN
100
AcDbLine
 10
166.5725173236883
 20
232.4607912300883
 30
0.0
 11
170.4114041564869
 21
232.4607912300883
 31
0.0
  0
LINE
  5
EA6E4F40B
330
EA6E4DC92
100
AcDbEntity
  8
JISSEN
100
AcDbLine
 10
163.9919607400875
 20
239.955237730623
 30
0.0
 11
160.9919607400875
 21
239.955237730623
 31
0.0
  0
LINE
  5
EA6E4F40C
330
EA6E4DC92
100
AcDbEntity
  8
JISSEN
100
AcDbLine
 10
159.9919607400875
 20
233.955237730623
 30
0.0
 11
160.9919607400875
 21
233.955237730623
 31
0.0
  0
LINE
  5
EA6E4F40D
330
EA6E4DC92
100
AcDbEntity
  8
JISSEN
100
AcDbLine
 10
165.9919607400875
 20
232.6552377306232
 30
0.0
 11
163.9919607400875
 21
232.6552377306232
 31
0.0
  0
LINE
  5
EA6E4F40E
330
EA6E4DC92
100
AcDbEntity
  8
JISSEN
100
AcDbLine
 10
165.9919607400877
 20
231.455237730623
 30
0.0
 11
166.5725173236883
 21
232.4607912300883
 31
0.0
  0
LINE
  5
EA6E4F40F
330
EA6E4DC92
100
AcDbEntity
  8
JISSEN
100
AcDbLine
 10
170.9919607400875
 20
231.455237730623
 30
0.0
 11
170.4114041564866
 21
232.4607912300883
 31
0.0
  0
TEXT
  5
EA6E4F411
330
EA6E4DC92
100
AcDbEntity
  8
TEXT
100
AcDbText
 10
29.00000235211246
 20
512.8000006054275
 30
0.0
 40
6.0
  1
ボールバルブ
  7
K
 72
     4
 11
50.00000235211246
 21
516.0000006054275
 31
0.0
100
AcDbText
  0
LINE
  5
EA6E4F412
330
EA6E4DC92
100
AcDbEntity
  8
JISSEN
100
AcDbLine
 10
0.0000023521124604
 20
486.0000006054275
 30
0.0
 11
179.0000023521124
 21
486.0000006054275
 31
0.0
  0
TEXT
  5
EA6E4F413
330
EA6E4DC92
100
AcDbEntity
  8
TEXT
100
AcDbText
 10
29.20000235211246
 20
501.0000006054275
 30
0.0
 40
6.0
  1
六角ニップル
  7
K
 72
     4
 11
50.00000235211246
 21
504.0000006054275
 31
0.0
100
AcDbText
  0
TEXT
  5
EA6E4F414
330
EA6E4DC92
100
AcDbEntity
  8
TEXT
100
AcDbText
 10
3.600002352112461
 20
537.0000006054275
 30
0.0
 40
6.0
  1
番号
  7
K
 72
     4
 11
10.00000235211246
 21
540.0000006054275
 31
0.0
100
AcDbText
  0
TEXT
  5
EA6E4F415
330
EA6E4DC92
100
AcDbEntity
  8
TEXT
100
AcDbText
 10
8.00000235211246
 20
513.0000006054275
 30
0.0
 40
6.0
  1
2
  7
K
 72
     4
 11
10.00000235211246
 21
516.0000006054275
 31
0.0
100
AcDbText
  0
TEXT
  5
EA6E4F416
330
EA6E4DC92
100
AcDbEntity
  8
TEXT
100
AcDbText
 10
8.00000235211246
 20
501.0000006054275
 30
0.0
 40
6.0
  1
3
  7
K
 72
     4
 11
10.00000235211246
 21
504.0000006054275
 31
0.0
100
AcDbText
  0
TEXT
  5
EA6E4F417
330
EA6E4DC92
100
AcDbEntity
  8
TEXT
100
AcDbText
 10
7.857145209255318
 20
489.0000006054275
 30
0.0
 40
6.0
  1
4
  7
K
 72
     4
 11
10.00000235211246
 21
492.0000006054275
 31
0.0
100
AcDbText
  0
TEXT
  5
EA6E4F418
330
EA6E4DC92
100
AcDbEntity
  8
TEXT
100
AcDbText
 10
9.285716637826746
 20
525.0000006054275
 30
0.0
 40
6.0
  1
1
  7
K
 72
     4
 11
10.00000235211246
 21
528.0000006054275
 31
0.0
100
AcDbText
  0
LINE
  5
EA6E4F419
330
EA6E4DC92
100
AcDbEntity
  8
JISSEN
100
AcDbLine
 10
20.00000235211246
 20
546.0000006054275
 30
0.0
 11
20.00000235211246
 21
486.0000006054275
 31
0.0
  0
TEXT
  5
EA6E4F41A
330
EA6E4DC92
100
AcDbEntity
  8
TEXT
100
AcDbText
 10
32.40000235211246
 20
524.8000006054275
 30
0.0
 40
6.0
  1
ノ　ズ　ル
  7
K
 72
     4
 11
50.00000235211246
 21
528.0000006054275
 31
0.0
100
AcDbText
  0
TEXT
  5
EA6E4F41B
330
EA6E4DC92
100
AcDbEntity
  8
TEXT
100
AcDbText
 10
32.80000235211246
 20
489.0000006054275
 30
0.0
 40
6.0
  1
違径チーズ
  7
K
 72
     4
 11
50.00000235211246
 21
492.0000006054275
 31
0.0
100
AcDbText
  0
TEXT
  5
EA6E4F41C
330
EA6E4DC92
100
AcDbEntity
  8
TEXT
100
AcDbText
 10
32.80000235211245
 20
537.0000006054275
 30
0.0
 40
6.0
  1
名      称
  7
K
 72
     4
 11
50.00000235211246
 21
540.0000006054275
 31
0.0
100
AcDbText
  0
LWPOLYLINE
  5
EA6E4F41E
330
EA6E4DC92
100
AcDbEntity
  8
JISSEN
100
AcDbPolyline
 90
        8
 70
     1
 43
0.0
 10
144.9919607400875
 20
309.8436718588317
 10
156.4919607400875
 20
309.8436718588317
 10
156.4919607400875
 20
333.8436718588317
 10
144.9919607400875
 20
333.8436718588317
 10
144.9919607400875
 20
351.8436718588317
 10
103.4919607400875
 20
351.8436718588317
 10
103.4919607400875
 20
291.8436718588317
 10
144.9919607400875
 20
291.8436718588317
  0
LINE
  5
EA6E4F41F
330
EA6E4DC92
100
AcDbEntity
  8
JISSEN
100
AcDbLine
 10
107.3151314717948
 20
285.3836718588317
 30
0.0
 11
141.1687900083802
 21
285.3836718588317
 31
0.0
  0
LWPOLYLINE
  5
EA6E4F420
330
EA6E4DC92
100
AcDbEntity
  8
TENSEN
100
AcDbPolyline
 90
        4
 70
     0
 43
0.0
 10
107.2419607400875
 20
351.8436718588316
 10
107.2419607400875
 20
388.4758297043764
 42
-0.4117647058823536
 10
124.2419607400875
 20
388.4758297043764
 42
0.4117647058823516
 10
141.2419607400875
 20
388.4758297043764
 42
0.4117647058823516
  0
LWPOLYLINE
  5
EA6E4F421
330
EA6E4DC92
100
AcDbEntity
  8
TENSEN
100
AcDbPolyline
 90
        3
 70
     0
 43
0.0
 10
141.2419607400875
 20
351.8436718588316
 10
141.2419607400875
 20
388.4758297043764
 42
0.4117647058823536
 10
124.2419607400875
 20
388.4758297043764
 42
0.4117647058823536
  0
LINE
  5
EA6E4F422
330
EA6E4DC92
100
AcDbEntity
  8
TENSEN
100
AcDbLine
 10
107.2419607400875
 20
354.8436718588316
 30
0.0
 11
141.2419607400875
 21
354.8436718588317
 31
0.0
  0
LWPOLYLINE
  5
EA6E4F423
330
EA6E4DC92
100
AcDbEntity
  8
JISSEN
100
AcDbPolyline
 90
        2
 70
     0
 43
0.0
 10
107.4726924474046
 20
291.8436718588317
 10
107.2419607400875
 20
282.3836718588316
  0
LWPOLYLINE
  5
EA6E4F424
330
EA6E4DC92
100
AcDbEntity
  8
SAISEN
100
AcDbPolyline
 90
        3
 70
     0
 43
0.0
 10
107.2419607400875
 20
282.3836718588316
 10
109.3152791608432
 20
285.3836718588317
 10
109.4728051978906
 20
291.8482946287638
  0
LWPOLYLINE
  5
EA6E4F425
330
EA6E4DC92
100
AcDbEntity
  8
TENSEN
100
AcDbPolyline
 90
        3
 70
     0
 43
0.0
 10
107.2419607400875
 20
357.2271790440201
 10
109.2419607400875
 20
354.8436718588317
 10
109.2419607400875
 20
351.8436718588316
  0
LWPOLYLINE
  5
EA6E4F426
330
EA6E4DC92
100
AcDbEntity
  8
JISSEN
100
AcDbPolyline
 90
        2
 70
     0
 43
0.0
 10
141.2419607400875
 20
282.3836718588316
 10
141.0112290327704
 20
291.8436718588317
  0
LWPOLYLINE
  5
EA6E4F427
330
EA6E4DC92
100
AcDbEntity
  8
SAISEN
100
AcDbPolyline
 90
        3
 70
     0
 43
0.0
 10
141.2419607400875
 20
282.3836718588319
 10
139.1686423193317
 20
285.3836718588319
 10
139.0111162822843
 20
291.8482946287639
  0
INSERT
  5
EA6E4F428
330
EA6E4DC92
100
AcDbEntity
  8
SUNPOU
100
AcDbBlockReference
  2
ARROWANG
 10
144.9919607400862
 20
301.0723463157644
 30
0.0
 41
2.999999999999992
 42
3.0
 43
3.0
 50
131.9001998491084
  0
LWPOLYLINE
  5
EA6E4F429
330
EA6E4DC92
100
AcDbEntity
  8
TENSEN
100
AcDbPolyline
 90
        3
 70
     0
 43
0.0
 10
141.2419607400875
 20
357.2271790440201
 10
139.2419607400874
 20
354.8436718588317
 10
139.2419607400874
 20
351.8436718588316
  0
LINE
  5
EA6E4F42A
330
EA6E4DC92
100
AcDbEntity
  8
JISSEN
100
AcDbLine
 10
160.4919607400875
 20
330.3436718588318
 30
0.0
 11
160.4919607400875
 21
313.3436718588318
 31
0.0
  0
LWPOLYLINE
  5
EA6E4F42B
330
EA6E4DC92
100
AcDbEntity
  8
SAISEN
100
AcDbPolyline
 90
        3
 70
     0
 43
0.0
 10
156.4919607400875
 20
315.3436718588318
 10
160.4919607400875
 20
315.3436718588318
 10
162.4919607400875
 20
313.3436718588318
  0
LWPOLYLINE
  5
EA6E4F42C
330
EA6E4DC92
100
AcDbEntity
  8
SAISEN
100
AcDbPolyline
 90
        3
 70
     0
 43
0.0
 10
156.4919607400875
 20
328.3436718588317
 10
160.4919607400875
 20
328.3436718588317
 10
162.4919607400875
 20
330.3436718588316
  0
LINE
  5
EA6E4F42E
330
EA6E4DC92
100
AcDbEntity
  8
JISSEN
100
AcDbLine
 10
80.00000235211246
 20
546.0000006054275
 30
0.0
 11
80.00000235211246
 21
486.0000006054275
 31
0.0
  0
LINE
  5
EA6E4F42F
330
EA6E4DC92
100
AcDbEntity
  8
JISSEN
100
AcDbLine
 10
123.0000023521124
 20
486.0000006054275
 30
0.0
 11
123.0000023521124
 21
546.0000006054275
 31
0.0
  0
TEXT
  5
EA6E4F430
330
EA6E4DC92
100
AcDbEntity
  8
TEXT
100
AcDbText
 10
87.78571663782676
 20
525.0000006054275
 30
0.0
 40
6.0
  1
C3604
  7
K
 72
     4
 11
101.5000023521124
 21
528.0000006054275
 31
0.0
100
AcDbText
  0
TEXT
  5
EA6E4F431
330
EA6E4DC92
100
AcDbEntity
  8
TEXT
100
AcDbText
 10
89.21428806639818
 20
513.0000006054275
 30
0.0
 40
6.0
  1
C3771
  7
K
 72
     4
 11
101.5000023521124
 21
516.0000006054275
 31
0.0
100
AcDbText
  0
TEXT
  5
EA6E4F432
330
EA6E4DC92
100
AcDbEntity
  8
TEXT
100
AcDbText
 10
90.50000235211246
 20
501.0000006054275
 30
0.0
 40
6.0
  1
FCMB
  7
K
 72
     4
 11
101.5000023521124
 21
504.0000006054275
 31
0.0
100
AcDbText
  0
TEXT
  5
EA6E4F433
330
EA6E4DC92
100
AcDbEntity
  8
TEXT
100
AcDbText
 10
90.50000235211246
 20
489.0000006054275
 30
0.0
 40
6.0
  1
FCMB
  7
K
 72
     4
 11
101.5000023521124
 21
492.0000006054275
 31
0.0
100
AcDbText
  0
TEXT
  5
EA6E4F435
330
EA6E4DC92
100
AcDbEntity
  8
TEXT
100
AcDbText
 10
87.90000235211246
 20
537.0000006054275
 30
0.0
 40
6.0
  1
材    質
  7
K
 72
     4
 11
101.5000023521124
 21
540.0000006054275
 31
0.0
100
AcDbText
  0
LINE
  5
EA6E4F436
330
EA6E4DC92
100
AcDbEntity
  8
JISSEN
100
AcDbLine
 10
179.0000023521124
 20
486.0000006054275
 30
0.0
 11
179.0000023521124
 21
546.0000006054275
 31
0.0
  0
LINE
  5
EA6E4F437
330
EA6E4DC92
100
AcDbEntity
  8
JISSEN
100
AcDbLine
 10
145.0000023521124
 20
546.0000006054275
 30
0.0
 11
145.0000023521124
 21
486.0000006054275
 31
0.0
  0
TEXT
  5
EA6E4F438
330
EA6E4DC92
100
AcDbEntity
  8
TEXT
100
AcDbText
 10
133.2857166378267
 20
525.0000006054275
 30
0.0
 40
6.0
  1
1
  7
K
 72
     4
 11
134.0000023521124
 21
528.0000006054275
 31
0.0
100
AcDbText
  0
TEXT
  5
EA6E4F439
330
EA6E4DC92
100
AcDbEntity
  8
TEXT
100
AcDbText
 10
154.0000023521124
 20
525.0000006054275
 30
0.0
 40
6.0
  1
25A
  7
K
 72
     4
 11
162.0000023521124
 21
528.0000006054275
 31
0.0
100
AcDbText
  0
TEXT
  5
EA6E4F43A
330
EA6E4DC92
100
AcDbEntity
  8
TEXT
100
AcDbText
 10
146.0000023521124
 20
489.0000006054275
 30
0.0
 40
6.0
  1
25A×10A
 41
0.8045977011494253
  7
K
 72
     5
 11
178.0000023521124
 21
489.0000006054275
 31
0.0
100
AcDbText
  0
TEXT
  5
EA6E4F43B
330
EA6E4DC92
100
AcDbEntity
  8
TEXT
100
AcDbText
 10
133.2857166378267
 20
489.0000006054275
 30
0.0
 40
6.0
  1
1
  7
K
 72
     4
 11
134.0000023521124
 21
492.0000006054275
 31
0.0
100
AcDbText
  0
TEXT
  5
EA6E4F43C
330
EA6E4DC92
100
AcDbEntity
  8
TEXT
100
AcDbText
 10
133.2857166378267
 20
501.0000006054275
 30
0.0
 40
6.0
  1
1
  7
K
 72
     4
 11
134.0000023521124
 21
504.0000006054275
 31
0.0
100
AcDbText
  0
TEXT
  5
EA6E4F43D
330
EA6E4DC92
100
AcDbEntity
  8
TEXT
100
AcDbText
 10
133.2857166378267
 20
513.0000006054275
 30
0.0
 40
6.0
  1
1
  7
K
 72
     4
 11
134.0000023521124
 21
516.0000006054275
 31
0.0
100
AcDbText
  0
TEXT
  5
EA6E4F43E
330
EA6E4DC92
100
AcDbEntity
  8
TEXT
100
AcDbText
 10
154.0000023521124
 20
513.0000006054275
 30
0.0
 40
6.0
  1
25A
  7
K
 72
     4
 11
162.0000023521124
 21
516.0000006054275
 31
0.0
100
AcDbText
  0
TEXT
  5
EA6E4F43F
330
EA6E4DC92
100
AcDbEntity
  8
TEXT
100
AcDbText
 10
154.0000023521124
 20
501.0000006054275
 30
0.0
 40
6.0
  1
25A
  7
K
 72
     4
 11
162.0000023521124
 21
504.0000006054275
 31
0.0
100
AcDbText
  0
TEXT
  5
EA6E4F440
330
EA6E4DC92
100
AcDbEntity
  8
TEXT
100
AcDbText
 10
148.4000023521124
 20
537.0000006054275
 30
0.0
 40
6.0
  1
備    考
  7
K
 72
     4
 11
162.0000023521124
 21
540.0000006054275
 31
0.0
100
AcDbText
  0
TEXT
  5
EA6E4F441
330
EA6E4DC92
100
AcDbEntity
  8
TEXT
100
AcDbText
 10
127.6000023521124
 20
537.0000006054275
 30
0.0
 40
6.0
  1
個数
  7
K
 72
     4
 11
134.0000023521124
 21
540.0000006054275
 31
0.0
100
AcDbText
  0
LINE
  5
EA6E4F442
330
EA6E4DC92
100
AcDbEntity
  8
SUNPOU
100
AcDbLine
 10
253.2344717945194
 20
370.0076114230217
 30
0.0
 11
346.2749588994199
 21
157.05627503414
 31
0.0
  0
LINE
  5
EA6E4F443
330
EA6E4DC92
100
AcDbEntity
  8
SUNPOU
100
AcDbLine
 10
262.1779174935452
 20
296.9643846889535
 30
0.0
 11
323.1913336417786
 21
156.7622688527086
 31
0.0
  0
LINE
  5
EA6E4F444
330
EA6E4DC92
100
AcDbEntity
  8
SUNPOU
100
AcDbLine
 10
189.1653653144667
 20
313.3436718588318
 30
0.0
 11
299.4077801246639
 21
156.1893418154036
 31
0.0
  0
LINE
  5
EA6E4F456
330
EA6E4DC92
100
AcDbEntity
  8
JISSEN
100
AcDbLine
 10
185.4919607400875
 20
195.5214810008825
 30
0.0
 11
185.4919607400875
 21
108.9052377306233
 31
0.0
  0
CIRCLE
  5
EA6E4F457
330
EA6E4DC92
100
AcDbEntity
  8
SUNPOU
100
AcDbCircle
 10
199.3726661189454
 20
150.4828026547469
 30
0.0
 40
7.0
  0
TEXT
  5
EA6E4F458
330
EA6E4DC92
100
AcDbEntity
  8
SUNPOU
100
AcDbText
 10
197.9189305376062
 20
147.3166778077927
 30
0.0
 40
6.0
  1
1
  7
K
 72
     4
 11
198.633216251892
 21
150.3166778077927
 31
0.0
100
AcDbText
  0
CIRCLE
  5
EA6E4F459
330
EA6E4DC92
100
AcDbEntity
  8
SUNPOU
100
AcDbCircle
 10
229.50864481241
 20
150.4828026547469
 30
0.0
 40
7.0
  0
TEXT
  5
EA6E4F45A
330
EA6E4DC92
100
AcDbEntity
  8
SUNPOU
100
AcDbText
 10
227.4973994860215
 20
147.3166778077927
 30
0.0
 40
6.0
  1
2
  7
K
 72
     4
 11
229.4973994860215
 21
150.3166778077927
 31
0.0
100
AcDbText
  0
ARC
  5
EA6E4F45B
330
EA6E4DC92
100
AcDbEntity
  8
JISSEN
100
AcDbCircle
 10
178.9919607400875
 20
195.5214810008826
 30
0.0
 40
6.5
100
AcDbArc
 50
0.0
 51
59.99999999999239
  0
CIRCLE
  5
EA6E4F45C
330
EA6E4DC92
100
AcDbEntity
  8
SUNPOU
100
AcDbCircle
 10
255.3785800306398
 20
150.4828026547469
 30
0.0
 40
7.0
  0
TEXT
  5
EA6E4F45D
330
EA6E4DC92
100
AcDbEntity
  8
SUNPOU
100
AcDbText
 10
253.1451013400194
 20
147.3166778077927
 30
0.0
 40
6.0
  1
3
  7
K
 72
     4
 11
255.1451013400194
 21
150.3166778077927
 31
0.0
100
AcDbText
  0
CIRCLE
  5
EA6E4F45E
330
EA6E4DC92
100
AcDbEntity
  8
SUNPOU
100
AcDbCircle
 10
279.4202105909823
 20
150.4828026547469
 30
0.0
 40
7.0
  0
TEXT
  5
EA6E4F45F
330
EA6E4DC92
100
AcDbEntity
  8
SUNPOU
100
AcDbText
 10
277.7805336444827
 20
147.3166778077927
 30
0.0
 40
6.0
  1
4
  7
K
 72
     4
 11
279.9233907873399
 21
150.3166778077927
 31
0.0
100
AcDbText
  0
CIRCLE
  5
EA6E4F46A
330
EA6E4DC92
100
AcDbEntity
  8
SUNPOU
100
AcDbCircle
 10
348.6810887540526
 20
150.4828026547469
 30
0.0
 40
7.0
  0
CIRCLE
  5
EA6E4F46B
330
EA6E4DC92
100
AcDbEntity
  8
SUNPOU
100
AcDbCircle
 10
326.2846012132401
 20
150.4828026547469
 30
0.0
 40
7.0
  0
CIRCLE
  5
EA6E4F46C
330
EA6E4DC92
100
AcDbEntity
  8
SUNPOU
100
AcDbCircle
 10
303.4618411513249
 20
150.4828026547469
 30
0.0
 40
7.0
  0
TEXT
  5
EA6E4F46D
330
EA6E4DC92
100
AcDbEntity
  8
SUNPOU
100
AcDbText
 10
301.8322632012711
 20
146.8820899750858
 30
0.0
 40
6.0
  1
5
  7
K
 72
     4
 11
303.8322632012711
 21
149.8820899750858
 31
0.0
100
AcDbText
  0
TEXT
  5
EA6E4F46E
330
EA6E4DC92
100
AcDbEntity
  8
SUNPOU
100
AcDbText
 10
324.2305256884598
 20
146.6631986687729
 30
0.0
 40
6.0
  1
7
  7
K
 72
     4
 11
326.2305256884598
 21
149.6631986687729
 31
0.0
100
AcDbText
  0
TEXT
  5
EA6E4F46F
330
EA6E4DC92
100
AcDbEntity
  8
SUNPOU
100
AcDbText
 10
346.665318848237
 20
146.9603795409088
 30
0.0
 40
6.0
  1
6
  7
K
 72
     4
 11
348.5224617053798
 21
149.9603795409088
 31
0.0
100
AcDbText
  0
TEXT
  5
EA6E4F470
330
EA6E4DC92
100
AcDbEntity
  8
TEXT
100
AcDbText
 10
270.9000009041125
 20
537.0000006054275
 30
0.0
 40
6.0
  1
材    質
  7
K
 72
     4
 11
284.5000009041125
 21
540.0000006054275
 31
0.0
100
AcDbText
  0
TEXT
  5
EA6E4F471
330
EA6E4DC92
100
AcDbEntity
  8
TEXT
100
AcDbText
 10
272.2142866183982
 20
501.0000006054275
 30
0.0
 40
6.0
  1
C3771
  7
K
 72
     4
 11
284.5000009041125
 21
504.0000006054275
 31
0.0
100
AcDbText
  0
LINE
  5
EA6E4F472
330
EA6E4DC92
100
AcDbEntity
  8
TEXT
100
AcDbLine
 10
296.0000009041125
 20
516.0000006054275
 30
0.0
 11
273.0000009041124
 21
516.0000006054275
 31
0.0
  0
CIRCLE
  5
EA6E4F475
330
EA6E4DC92
100
AcDbEntity
  8
JISSEN
100
AcDbCircle
 10
237.2419607400873
 20
408.8436718588316
 30
0.0
 40
35.0
  0
CIRCLE
  5
EA6E4F476
330
EA6E4DC92
100
AcDbEntity
  8
JISSEN
  6
CONTINUOUS
100
AcDbCircle
 10
237.2419607400873
 20
408.8436718588316
 30
0.0
 40
37.5
  0
CIRCLE
  5
EA6E4F477
330
EA6E4DC92
100
AcDbEntity
  8
JISSEN
100
AcDbCircle
 10
237.2419607400873
 20
408.8436718588316
 30
0.0
 40
42.0
  0
ARC
  5
EA6E4F479
330
EA6E4DC92
100
AcDbEntity
  8
JISSEN
100
AcDbCircle
 10
237.2419607400873
 20
328.0559267590485
 30
0.0
 40
17.2122549002172
100
AcDbArc
 50
251.7475134716357
 51
288.2524865283642
  0
LINE
  5
EA6E4F47A
330
EA6E4DC92
100
AcDbEntity
  8
JISSEN
  6
CONTINUOUS
100
AcDbLine
 10
226.4919607400873
 20
310.8436718588315
 30
0.0
 11
247.9919607400873
 21
310.8436718588312
 31
0.0
  0
POLYLINE
  5
EA6E4F47B
330
EA6E4DC92
100
AcDbEntity
  8
JISSEN
100
AcDb2dPolyline
 66
     1
 10
0.0
 20
0.0
 30
0.0
 70
     1
  0
VERTEX
  5
EA6E4F47C
330
EA6E4F47B
100
AcDbEntity
  8
JISSEN
100
AcDbVertex
100
AcDb2dVertex
 10
234.6014182966445
 20
321.8444538414353
 30
0.0
 42
0.0689212726861089
  0
VERTEX
  5
EA6E4F47D
330
EA6E4F47B
100
AcDbEntity
  8
JISSEN
100
AcDbVertex
100
AcDb2dVertex
 10
234.813983383813
 20
320.3096927683179
 30
0.0
 42
0.0809685170767006
  0
VERTEX
  5
EA6E4F47E
330
EA6E4F47B
100
AcDbEntity
  8
JISSEN
100
AcDbVertex
100
AcDb2dVertex
 10
235.3729671326726
 20
319.1125178009431
 30
0.0
 42
0.1070187297923515
 70
     2
 50
304.2868769772089
  0
VERTEX
  5
EA6E4F47F
330
EA6E4F47B
100
AcDbEntity
  8
JISSEN
100
AcDbVertex
100
AcDb2dVertex
 10
236.3474024047107
 20
318.1879367652236
 30
0.0
 42
0.1598118359516122
 50
34.28687697720894
  0
VERTEX
  5
EA6E4F480
330
EA6E4F47B
100
AcDbEntity
  8
JISSEN
100
AcDbVertex
100
AcDb2dVertex
 10
237.2356507966445
 20
317.9809128414353
 30
0.0
 42
0.1373351888463599
  0
VERTEX
  5
EA6E4F481
330
EA6E4F47B
100
AcDbEntity
  8
JISSEN
100
AcDbVertex
100
AcDb2dVertex
 10
238.1861543211097
 20
318.2470067892329
 30
0.0
 42
0.1070187297923511
  0
VERTEX
  5
EA6E4F482
330
EA6E4F47B
100
AcDbEntity
  8
JISSEN
100
AcDbVertex
100
AcDb2dVertex
 10
239.0983344606167
 20
319.1125178009431
 30
0.0
 42
0.0809685170767004
 70
     2
 50
55.71312302279099
  0
VERTEX
  5
EA6E4F483
330
EA6E4F47B
100
AcDbEntity
  8
JISSEN
100
AcDbVertex
100
AcDb2dVertex
 10
239.6573182094761
 20
320.3096927683179
 30
0.0
 42
0.068921272686109
 50
145.713123022791
  0
VERTEX
  5
EA6E4F484
330
EA6E4F47B
100
AcDbEntity
  8
JISSEN
100
AcDbVertex
100
AcDb2dVertex
 10
239.8698832966446
 20
321.8444538414353
 30
0.0
 42
0.0689212726861093
  0
VERTEX
  5
EA6E4F485
330
EA6E4F47B
100
AcDbEntity
  8
JISSEN
100
AcDbVertex
100
AcDb2dVertex
 10
239.6573182094761
 20
323.3792149145526
 30
0.0
 42
0.0809685170767009
  0
VERTEX
  5
EA6E4F486
330
EA6E4F47B
100
AcDbEntity
  8
JISSEN
100
AcDbVertex
100
AcDb2dVertex
 10
239.0983344606167
 20
324.5763898819275
 30
0.0
 42
0.1070187297923514
 70
     2
 50
124.2868769772088
  0
VERTEX
  5
EA6E4F487
330
EA6E4F47B
100
AcDbEntity
  8
JISSEN
100
AcDbVertex
100
AcDb2dVertex
 10
238.1861543211097
 20
325.4419008936376
 30
0.0
 42
0.1373351888463605
 50
214.2868769772089
  0
VERTEX
  5
EA6E4F488
330
EA6E4F47B
100
AcDbEntity
  8
JISSEN
100
AcDbVertex
100
AcDb2dVertex
 10
237.2356507966445
 20
325.7079948414355
 30
0.0
 42
0.1373351888463604
  0
VERTEX
  5
EA6E4F489
330
EA6E4F47B
100
AcDbEntity
  8
JISSEN
100
AcDbVertex
100
AcDb2dVertex
 10
236.2851472721794
 20
325.4419008936376
 30
0.0
 42
0.1070187297923513
  0
VERTEX
  5
EA6E4F48A
330
EA6E4F47B
100
AcDbEntity
  8
JISSEN
100
AcDbVertex
100
AcDb2dVertex
 10
235.3729671326726
 20
324.5763898819275
 30
0.0
 42
0.0809685170767004
 70
     2
 50
235.7131230227909
  0
VERTEX
  5
EA6E4F48B
330
EA6E4F47B
100
AcDbEntity
  8
JISSEN
100
AcDbVertex
100
AcDb2dVertex
 10
234.813983383813
 20
323.3792149145526
 30
0.0
 42
0.0689212726861086
 50
325.7131230227909
  0
SEQEND
  5
EA6E4F48C
330
EA6E4F47B
100
AcDbEntity
  8
JISSEN
  0
POLYLINE
  5
EA6E4F48D
330
EA6E4DC92
100
AcDbEntity
  8
JISSEN
100
AcDb2dPolyline
 66
     1
 10
0.0
 20
0.0
 30
0.0
  0
VERTEX
  5
EA6E4F48E
330
EA6E4F48D
100
AcDbEntity
  8
JISSEN
100
AcDbVertex
100
AcDb2dVertex
 10
238.6388895836654
 20
320.4791342891355
 30
0.0
 42
0.0508792192586602
  0
VERTEX
  5
EA6E4F48F
330
EA6E4F48D
100
AcDbEntity
  8
JISSEN
100
AcDbVertex
100
AcDb2dVertex
 10
238.7513808805073
 20
320.5350589280453
 30
0.0
 42
0.1071591475341562
  0
VERTEX
  5
EA6E4F490
330
EA6E4F48D
100
AcDbEntity
  8
JISSEN
100
AcDbVertex
100
AcDb2dVertex
 10
239.0729947040348
 20
320.8510225539837
 30
0.0
 42
0.0789991877022394
 70
     2
 50
56.72511201516499
  0
VERTEX
  5
EA6E4F491
330
EA6E4F48D
100
AcDbEntity
  8
JISSEN
100
AcDbVertex
100
AcDb2dVertex
 10
239.2683327440798
 20
321.2848386816251
 30
0.0
 42
0.0664511817867662
 50
146.725112015165
  0
VERTEX
  5
EA6E4F492
330
EA6E4F48D
100
AcDbEntity
  8
JISSEN
100
AcDbVertex
100
AcDb2dVertex
 10
239.3430367966447
 20
321.8444538414353
 30
0.0
 42
0.0664511817867667
  0
VERTEX
  5
EA6E4F493
330
EA6E4F48D
100
AcDbEntity
  8
JISSEN
100
AcDbVertex
100
AcDb2dVertex
 10
239.2683327440798
 20
322.4040690012454
 30
0.0
 42
0.0789991877022392
  0
VERTEX
  5
EA6E4F494
330
EA6E4F48D
100
AcDbEntity
  8
JISSEN
100
AcDbVertex
100
AcDb2dVertex
 10
239.0729947040348
 20
322.8378851288871
 30
0.0
 42
0.1071591475341592
 70
     2
 50
123.2748879848348
  0
VERTEX
  5
EA6E4F495
330
EA6E4F48D
100
AcDbEntity
  8
JISSEN
100
AcDbVertex
100
AcDb2dVertex
 10
238.7513808805073
 20
323.1538487548252
 30
0.0
 42
0.141695250338409
 50
213.2748879848349
  0
VERTEX
  5
EA6E4F496
330
EA6E4F48D
100
AcDbEntity
  8
JISSEN
100
AcDbVertex
100
AcDb2dVertex
 10
238.4210554216446
 20
323.2493778414355
 30
0.0
 42
0.1416952503384097
  0
VERTEX
  5
EA6E4F497
330
EA6E4F48D
100
AcDbEntity
  8
JISSEN
100
AcDbVertex
100
AcDb2dVertex
 10
238.0907299627819
 20
323.1538487548252
 30
0.0
 42
0.1071591475341602
  0
VERTEX
  5
EA6E4F498
330
EA6E4F48D
100
AcDbEntity
  8
JISSEN
100
AcDbVertex
100
AcDb2dVertex
 10
237.7691161392543
 20
322.8378851288871
 30
0.0
 42
0.0789991877022377
 70
     2
 50
236.7251120151649
  0
VERTEX
  5
EA6E4F499
330
EA6E4F48D
100
AcDbEntity
  8
JISSEN
100
AcDbVertex
100
AcDb2dVertex
 10
237.5737780992093
 20
322.4040690012454
 30
0.0
 42
0.0664511817867672
 50
326.7251120151649
  0
VERTEX
  5
EA6E4F49A
330
EA6E4F48D
100
AcDbEntity
  8
JISSEN
100
AcDbVertex
100
AcDb2dVertex
 10
237.4990740466445
 20
321.8444538414353
 30
0.0
 42
0.0664511817867678
  0
SEQEND
  5
EA6E4F49B
330
EA6E4F48D
100
AcDbEntity
  8
JISSEN
  0
INSERT
  5
EA6E4F49C
330
EA6E4DC92
100
AcDbEntity
  8
JISSEN
100
AcDbBlockReference
  2
*X5
 10
234.0745717966445
 20
326.4104568414354
 30
0.0
 41
0.3512309999999843
 42
0.3512309999999843
 43
0.3512309999999999
 50
270.0
  0
POLYLINE
  5
EA6E4F49D
330
EA6E4DC92
100
AcDbEntity
  8
JISSEN
100
AcDb2dPolyline
 66
     1
 10
0.0
 20
0.0
 30
0.0
 70
     1
  0
VERTEX
  5
EA6E4F49E
330
EA6E4F49D
100
AcDbEntity
  8
JISSEN
100
AcDbVertex
100
AcDb2dVertex
 10
234.2501872966446
 20
321.8444538414353
 30
0.0
 42
0.0714693076283245
  0
VERTEX
  5
EA6E4F49F
330
EA6E4F49D
100
AcDbEntity
  8
JISSEN
100
AcDbVertex
100
AcDb2dVertex
 10
234.4900445052366
 20
320.1749815951968
 30
0.0
 42
0.0829154742493596
  0
VERTEX
  5
EA6E4F4A0
330
EA6E4F49D
100
AcDbEntity
  8
JISSEN
100
AcDbVertex
100
AcDb2dVertex
 10
235.1246093108096
 20
318.8641599790801
 30
0.0
 42
0.1067406714191292
 70
     2
 50
305.3112134396332
  0
VERTEX
  5
EA6E4F4A1
330
EA6E4F49D
100
AcDbEntity
  8
JISSEN
100
AcDbVertex
100
AcDb2dVertex
 10
236.2227084602294
 20
317.8578195380491
 30
0.0
 42
0.1550349022404454
 50
35.31121343963318
  0
VERTEX
  5
EA6E4F4A2
330
EA6E4F49D
100
AcDbEntity
  8
JISSEN
100
AcDbVertex
100
AcDb2dVertex
 10
237.2356507966445
 20
317.6296818414352
 30
0.0
 42
0.1330639172301401
  0
VERTEX
  5
EA6E4F4A3
330
EA6E4F49D
100
AcDbEntity
  8
JISSEN
100
AcDbVertex
100
AcDb2dVertex
 10
238.3203089313809
 20
317.9235426634607
 30
0.0
 42
0.1067406714191296
  0
VERTEX
  5
EA6E4F4A4
330
EA6E4F49D
100
AcDbEntity
  8
JISSEN
100
AcDbVertex
100
AcDb2dVertex
 10
239.3466922824794
 20
318.8641599790801
 30
0.0
 42
0.0829154742493594
 70
     2
 50
54.68878656036666
  0
VERTEX
  5
EA6E4F4A5
330
EA6E4F49D
100
AcDbEntity
  8
JISSEN
100
AcDbVertex
100
AcDb2dVertex
 10
239.9812570880529
 20
320.1749815951968
 30
0.0
 42
0.0714693076283241
 50
144.6887865603666
  0
VERTEX
  5
EA6E4F4A6
330
EA6E4F49D
100
AcDbEntity
  8
JISSEN
100
AcDbVertex
100
AcDb2dVertex
 10
240.2211142966446
 20
321.8444538414353
 30
0.0
 42
0.0714693076283252
  0
VERTEX
  5
EA6E4F4A7
330
EA6E4F49D
100
AcDbEntity
  8
JISSEN
100
AcDbVertex
100
AcDb2dVertex
 10
239.9812570880529
 20
323.5139260876739
 30
0.0
 42
0.0829154742493602
  0
VERTEX
  5
EA6E4F4A8
330
EA6E4F49D
100
AcDbEntity
  8
JISSEN
100
AcDbVertex
100
AcDb2dVertex
 10
239.3466922824794
 20
324.8247477037905
 30
0.0
 42
0.1067406714191293
 70
     2
 50
125.311213439633
  0
VERTEX
  5
EA6E4F4A9
330
EA6E4F49D
100
AcDbEntity
  8
JISSEN
100
AcDbVertex
100
AcDb2dVertex
 10
238.3203089313809
 20
325.7653650194102
 30
0.0
 42
0.1330639172301401
 50
215.3112134396331
  0
VERTEX
  5
EA6E4F4AA
330
EA6E4F49D
100
AcDbEntity
  8
JISSEN
100
AcDbVertex
100
AcDb2dVertex
 10
237.2356507966445
 20
326.0592258414353
 30
0.0
 42
0.1330639172301399
  0
VERTEX
  5
EA6E4F4AB
330
EA6E4F49D
100
AcDbEntity
  8
JISSEN
100
AcDbVertex
100
AcDb2dVertex
 10
236.1509926619083
 20
325.7653650194102
 30
0.0
 42
0.1067406714191293
  0
VERTEX
  5
EA6E4F4AC
330
EA6E4F49D
100
AcDbEntity
  8
JISSEN
100
AcDbVertex
100
AcDb2dVertex
 10
235.1246093108096
 20
324.8247477037905
 30
0.0
 42
0.0829154742493597
 70
     2
 50
234.6887865603667
  0
VERTEX
  5
EA6E4F4AD
330
EA6E4F49D
100
AcDbEntity
  8
JISSEN
100
AcDbVertex
100
AcDb2dVertex
 10
234.4900445052366
 20
323.5139260876739
 30
0.0
 42
0.0714693076283244
 50
324.6887865603667
  0
SEQEND
  5
EA6E4F4AE
330
EA6E4F49D
100
AcDbEntity
  8
JISSEN
  0
POLYLINE
  5
EA6E4F4AF
330
EA6E4DC92
100
AcDbEntity
  8
JISSEN
100
AcDb2dPolyline
 66
     1
 10
0.0
 20
0.0
 30
0.0
  0
VERTEX
  5
EA6E4F4B0
330
EA6E4F4AF
100
AcDbEntity
  8
JISSEN
100
AcDbVertex
100
AcDb2dVertex
 10
239.8698832966446
 20
321.8444538414353
 30
0.0
 42
0.0754446162298053
  0
VERTEX
  5
EA6E4F4B1
330
EA6E4F4AF
100
AcDbEntity
  8
JISSEN
100
AcDbVertex
100
AcDb2dVertex
 10
239.7543023644806
 20
322.6060924045396
 30
0.0
 42
0.0857828071076088
  0
VERTEX
  5
EA6E4F4B2
330
EA6E4F4AF
100
AcDbEntity
  8
JISSEN
100
AcDbVertex
100
AcDb2dVertex
 10
239.4455314368291
 20
323.2104218616814
 30
0.0
 42
0.1060700219635837
 70
     2
 50
126.8698976458439
  0
VERTEX
  5
EA6E4F4B3
330
EA6E4F4AF
100
AcDbEntity
  8
JISSEN
100
AcDbVertex
100
AcDb2dVertex
 10
238.9169691227028
 20
323.6702286540737
 30
0.0
 42
0.1480812953266344
 50
216.8698976458439
  0
VERTEX
  5
EA6E4F4B4
330
EA6E4F4AF
100
AcDbEntity
  8
JISSEN
100
AcDbVertex
100
AcDb2dVertex
 10
238.4210554216446
 20
323.7762243414351
 30
0.0
 42
0.1268223572478397
  0
VERTEX
  5
EA6E4F4B5
330
EA6E4F4AF
100
AcDbEntity
  8
JISSEN
100
AcDbVertex
100
AcDb2dVertex
 10
237.8894524921628
 20
323.6391818896606
 30
0.0
 42
0.1060700219635834
  0
VERTEX
  5
EA6E4F4B6
330
EA6E4F4AF
100
AcDbEntity
  8
JISSEN
100
AcDbVertex
100
AcDb2dVertex
 10
237.39657940646
 20
323.2104218616814
 30
0.0
 42
0.085782807107608
 70
     2
 50
233.130102354156
  0
VERTEX
  5
EA6E4F4B7
330
EA6E4F4AF
100
AcDbEntity
  8
JISSEN
100
AcDbVertex
100
AcDb2dVertex
 10
237.0878084788086
 20
322.6060924045396
 30
0.0
 42
0.0754446162298056
 50
323.130102354156
  0
VERTEX
  5
EA6E4F4B8
330
EA6E4F4AF
100
AcDbEntity
  8
JISSEN
100
AcDbVertex
100
AcDb2dVertex
 10
236.9722275466445
 20
321.8444538414353
 30
0.0
 42
0.0754446162298049
  0
SEQEND
  5
EA6E4F4B9
330
EA6E4F4AF
100
AcDbEntity
  8
JISSEN
  0
LINE
  5
EA6E4F4BA
330
EA6E4DC92
100
AcDbEntity
  8
JISSEN
100
AcDbLine
 10
247.9919607400878
 20
338.8436718588317
 30
0.0
 11
226.4919607400878
 21
338.8436718588317
 31
0.0
  0
ARC
  5
EA6E4F4BB
330
EA6E4DC92
100
AcDbEntity
  8
JISSEN
100
AcDbCircle
 10
237.2419607400873
 20
317.6314169586142
 30
0.0
 40
17.2122549002172
100
AcDbArc
 50
71.74751347163574
 51
108.2524865283642
  0
LINE
  5
EA6E4F4BC
330
EA6E4DC92
100
AcDbEntity
  8
JISSEN
100
AcDbLine
 10
247.9919607400878
 20
334.8436718588317
 30
0.0
 11
237.2419607400878
 21
334.8436718588318
 31
0.0
  0
ARC
  5
EA6E4F4BD
330
EA6E4DC92
100
AcDbEntity
  8
JISSEN
100
AcDbCircle
 10
237.2419607400876
 20
354.6179185785722
 30
0.0
 40
19.62990915244282
100
AcDbArc
 50
270.0
 51
279.8382269852484
  0
ARC
  5
EA6E4F4BE
330
EA6E4DC92
100
AcDbEntity
  8
JISSEN
100
AcDbCircle
 10
237.2419607400876
 20
319.0694251390873
 30
0.0
 40
19.62990915244717
100
AcDbArc
 50
80.16177301475156
 51
90.0
  0
LINE
  5
EA6E4F4BF
330
EA6E4DC92
100
AcDbEntity
  8
JISSEN
100
AcDbLine
 10
247.6919607400876
 20
347.8436718588317
 30
0.0
 11
237.2419607400878
 21
347.8436718588317
 31
0.0
  0
CIRCLE
  5
EA6E4F4C0
330
EA6E4DC92
100
AcDbEntity
  8
JISSEN
  6
CONTINUOUS
100
AcDbCircle
 10
237.2419607400873
 20
408.8436718588316
 30
0.0
 40
2.75
  0
CIRCLE
  5
EA6E4F4C1
330
EA6E4DC92
100
AcDbEntity
  8
JISSEN
100
AcDbCircle
 10
237.2419607400873
 20
408.8436718588316
 30
0.0
 40
2.0
  0
CIRCLE
  5
EA6E4F4C2
330
EA6E4DC92
100
AcDbEntity
  8
JISSEN
100
AcDbCircle
 10
237.2419607400873
 20
408.8436718588316
 30
0.0
 40
4.0
  0
ARC
  5
EA6E4F4C3
330
EA6E4DC92
100
AcDbEntity
  8
JISSEN
100
AcDbCircle
 10
237.2419607400886
 20
408.843671858841
 30
0.0
 40
28.00000000000125
100
AcDbArc
 50
314.782652057668
 51
180.0000000000195
  0
ARC
  5
EA6E4F4C4
330
EA6E4DC92
100
AcDbEntity
  8
JISSEN
100
AcDbCircle
 10
237.2419607400873
 20
408.8436718588316
 30
0.0
 40
25.00000000000005
100
AcDbArc
 50
314.6844194460197
 51
90.0
  0
ARC
  5
EA6E4F4C5
330
EA6E4DC92
100
AcDbEntity
  8
JISSEN
100
AcDbCircle
 10
237.2419607400873
 20
375.9061718588316
 30
0.0
 40
19.06249999999997
100
AcDbArc
 50
243.5189601696268
 51
296.4810398303731
  0
LINE
  5
EA6E4F4C6
330
EA6E4DC92
100
AcDbEntity
  8
JISSEN
100
AcDbLine
 10
228.7419607400873
 20
356.8436718588316
 30
0.0
 11
245.7419607400872
 21
356.8436718588316
 31
0.0
  0
LINE
  5
EA6E4F4C7
330
EA6E4DC92
100
AcDbEntity
  8
JISSEN
100
AcDbLine
 10
230.3613364086714
 20
354.8436718588316
 30
0.0
 11
244.1225850715035
 21
354.8436718588316
 31
0.0
  0
LINE
  5
EA6E4F4C8
330
EA6E4DC92
100
AcDbEntity
  8
JISSEN
100
AcDbLine
 10
229.7713725047933
 20
347.8436718588317
 30
0.0
 11
244.7125489753815
 21
347.8436718588317
 31
0.0
  0
LINE
  5
EA6E4F4C9
330
EA6E4DC92
100
AcDbEntity
  8
JISSEN
100
AcDbLine
 10
228.7419607400873
 20
367.712783222674
 30
0.0
 11
228.7419607400873
 21
356.8436718588316
 31
0.0
  0
LWPOLYLINE
  5
EA6E4F4CA
330
EA6E4DC92
100
AcDbEntity
  8
SAISEN
100
AcDbPolyline
 90
        3
 70
     0
 43
0.0
 10
206.2419607400875
 20
313.3436718588318
 10
208.2419607400875
 20
315.3436718588318
 10
212.2419607400875
 20
315.3436718588318
  0
LWPOLYLINE
  5
EA6E4F4CB
330
EA6E4DC92
100
AcDbEntity
  8
SAISEN
100
AcDbPolyline
 90
        3
 70
     0
 43
0.0
 10
206.2419607400875
 20
330.3436718588316
 10
208.2419607400875
 20
328.3436718588317
 10
212.2419607400873
 20
328.3436718588317
  0
LINE
  5
EA6E4F4CC
330
EA6E4DC92
100
AcDbEntity
  8
JISSEN
100
AcDbLine
 10
208.2419607400875
 20
330.3436718588318
 30
0.0
 11
208.2419607400875
 21
313.3436718588318
 31
0.0
  0
INSERT
  5
EA6E4F4CD
330
EA6E4DC92
100
AcDbEntity
  8
SUNPOU
100
AcDbBlockReference
  2
ARROWANG
 10
189.1653653144666
 20
313.3436718588312
 30
0.0
 41
2.999999999999987
 42
3.0
 43
3.0
 50
124.5348354729515
  0
LINE
  5
EA6E4F4CE
330
EA6E4DC92
100
AcDbEntity
  8
JISSEN
100
AcDbLine
 10
212.7419607400873
 20
311.0936718588317
 30
0.0
 11
212.7419607400873
 21
321.8436718588317
 31
0.0
  0
LINE
  5
EA6E4F4CF
330
EA6E4DC92
100
AcDbEntity
  8
JISSEN
100
AcDbLine
 10
212.2419607400873
 20
311.5936718588317
 30
0.0
 11
212.2419607400873
 21
321.8436718588317
 31
0.0
  0
LINE
  5
EA6E4F4D0
330
EA6E4DC92
100
AcDbEntity
  8
SUNPOU
100
AcDbLine
 10
212.2419607400873
 20
330.3436718588317
 30
0.0
 11
212.2419607400873
 21
313.3436718588318
 31
0.0
  0
ARC
  5
EA6E4F4D1
330
EA6E4DC92
100
AcDbEntity
  8
JISSEN
100
AcDbCircle
 10
220.095404806878
 20
321.8436718588316
 30
0.0
 40
11.75559126999714
100
AcDbArc
 50
300.4302842044912
 51
328.3121121663189
  0
LINE
  5
EA6E4F4D2
330
EA6E4DC92
100
AcDbEntity
  8
JISSEN
100
AcDbLine
 10
231.8509960768752
 20
315.8436718588315
 30
0.0
 11
231.850996076875
 21
311.709697262616
 31
0.0
  0
LINE
  5
EA6E4F4D3
330
EA6E4DC92
100
AcDbEntity
  8
JISSEN
  6
CONTINUOUS
100
AcDbLine
 10
212.7419607400873
 20
311.0936718588317
 30
0.0
 11
226.0589480381951
 21
311.0936718588315
 31
0.0
  0
LINE
  5
EA6E4F4D4
330
EA6E4DC92
100
AcDbEntity
  8
JISSEN
100
AcDbLine
 10
212.2419607400873
 20
311.5936718588317
 30
0.0
 11
212.7419607400873
 21
311.0936718588317
 31
0.0
  0
LINE
  5
EA6E4F4D5
330
EA6E4DC92
100
AcDbEntity
  8
JISSEN
100
AcDbLine
 10
230.4111636300646
 20
311.709697262616
 30
0.0
 11
231.8509960768752
 21
311.709697262616
 31
0.0
  0
ARC
  5
EA6E4F4D6
330
EA6E4DC92
100
AcDbEntity
  8
JISSEN
100
AcDbCircle
 10
227.7015621850763
 20
315.51544049631
 30
0.0
 40
4.671789972964431
100
AcDbArc
 50
241.7631501484966
 51
305.4499895235983
  0
LINE
  5
EA6E4F4D7
330
EA6E4DC92
100
AcDbEntity
  8
JISSEN
100
AcDbLine
 10
226.4919607400873
 20
310.8436718588315
 30
0.0
 11
226.0589480381951
 21
311.0936718588315
 31
0.0
  0
LINE
  5
EA6E4F4D8
330
EA6E4DC92
100
AcDbEntity
  8
JISSEN
100
AcDbLine
 10
230.4111636300646
 20
315.0818049096933
 30
0.0
 11
230.4111636300646
 21
311.709697262616
 31
0.0
  0
LINE
  5
EA6E4F4D9
330
EA6E4DC92
100
AcDbEntity
  8
JISSEN
  6
CONTINUOUS
100
AcDbLine
 10
212.7419607400873
 20
332.5936718588317
 30
0.0
 11
224.9919607400873
 21
332.5936718588315
 31
0.0
  0
LINE
  5
EA6E4F4DA
330
EA6E4DC92
100
AcDbEntity
  8
JISSEN
100
AcDbLine
 10
212.7419607400873
 20
332.5936718588317
 30
0.0
 11
212.7419607400873
 21
321.8436718588317
 31
0.0
  0
LINE
  5
EA6E4F4DB
330
EA6E4DC92
100
AcDbEntity
  8
JISSEN
100
AcDbLine
 10
212.2419607400873
 20
332.0936718588317
 30
0.0
 11
212.2419607400873
 21
321.8436718588317
 31
0.0
  0
LINE
  5
EA6E4F4DC
330
EA6E4DC92
100
AcDbEntity
  8
JISSEN
100
AcDbLine
 10
212.2419607400873
 20
332.0936718588317
 30
0.0
 11
212.7419607400873
 21
332.5936718588317
 31
0.0
  0
LINE
  5
EA6E4F4DD
330
EA6E4DC92
100
AcDbEntity
  8
JISSEN
100
AcDbLine
 10
225.7419607400876
 20
338.2663215896416
 30
0.0
 11
225.7419607400876
 21
335.1323469934261
 31
0.0
  0
LINE
  5
EA6E4F4DE
330
EA6E4DC92
100
AcDbEntity
  8
JISSEN
100
AcDbLine
 10
229.3927322815838
 20
338.4106591569397
 30
0.0
 11
229.3927322815838
 21
335.2766845607242
 31
0.0
  0
LINE
  5
EA6E4F4DF
330
EA6E4DC92
100
AcDbEntity
  8
JISSEN
100
AcDbLine
 10
233.887858773838
 20
338.4106591569397
 30
0.0
 11
233.887858773838
 21
335.2766845607242
 31
0.0
  0
LINE
  5
EA6E4F4E0
330
EA6E4DC92
100
AcDbEntity
  8
JISSEN
  6
CONTINUOUS
100
AcDbLine
 10
226.2419607400873
 20
316.8436718588314
 30
0.0
 11
230.8509960768752
 21
316.8436718588314
 31
0.0
  0
LINE
  5
EA6E4F4E1
330
EA6E4DC92
100
AcDbEntity
  8
JISSEN
  6
CONTINUOUS
100
AcDbLine
 10
226.2419607400873
 20
326.8436718588317
 30
0.0
 11
230.8509960768755
 21
326.8436718588314
 31
0.0
  0
LINE
  5
EA6E4F4E2
330
EA6E4DC92
100
AcDbEntity
  8
JISSEN
100
AcDbLine
 10
226.4919607400876
 20
334.8436718588315
 30
0.0
 11
237.2419607400876
 21
334.8436718588315
 31
0.0
  0
LINE
  5
EA6E4F4E3
330
EA6E4DC92
100
AcDbEntity
  8
JISSEN
100
AcDbLine
 10
229.3927322815838
 20
335.2766845607242
 30
0.0
 11
233.887858773838
 21
335.2766845607242
 31
0.0
  0
LINE
  5
EA6E4F4E4
330
EA6E4DC92
100
AcDbEntity
  8
JISSEN
100
AcDbLine
 10
230.4111636300648
 20
333.9776464550469
 30
0.0
 11
231.8509960768754
 21
333.9776464550469
 31
0.0
  0
ARC
  5
EA6E4F4E5
330
EA6E4DC92
100
AcDbEntity
  8
JISSEN
  6
CONTINUOUS
100
AcDbCircle
 10
226.2419607400873
 20
325.8436718588316
 30
0.0
 40
1.0
100
AcDbArc
 50
90.0
 51
180.0
  0
LINE
  5
EA6E4F4E6
330
EA6E4DC92
100
AcDbEntity
  8
JISSEN
  6
CONTINUOUS
100
AcDbLine
 10
225.2419607400873
 20
321.8436718588317
 30
0.0
 11
225.2419607400873
 21
317.8436718588317
 31
0.0
  0
ARC
  5
EA6E4F4E7
330
EA6E4DC92
100
AcDbEntity
  8
JISSEN
  6
CONTINUOUS
100
AcDbCircle
 10
226.2419607400873
 20
317.8436718588313
 30
0.0
 40
1.0
100
AcDbArc
 50
180.0
 51
270.0
  0
LINE
  5
EA6E4F4E8
330
EA6E4DC92
100
AcDbEntity
  8
JISSEN
  6
CONTINUOUS
100
AcDbLine
 10
225.2419607400873
 20
321.8436718588317
 30
0.0
 11
225.2419607400873
 21
325.8436718588317
 31
0.0
  0
ARC
  5
EA6E4F4E9
330
EA6E4DC92
100
AcDbEntity
  8
JISSEN
100
AcDbCircle
 10
220.095404806878
 20
321.8436718588316
 30
0.0
 40
11.75559126999714
100
AcDbArc
 50
30.62571585058708
 51
58.75041058843248
  0
ARC
  5
EA6E4F4EA
330
EA6E4DC92
100
AcDbEntity
  8
JISSEN
100
AcDbCircle
 10
227.5673465108356
 20
340.721149565606
 30
0.0
 40
5.879349232938483
100
AcDbArc
 50
251.9121946092734
 51
288.0878053907333
  0
ARC
  5
EA6E4F4EB
330
EA6E4DC92
100
AcDbEntity
  8
JISSEN
100
AcDbCircle
 10
227.7015621850763
 20
330.1719032213529
 30
0.0
 40
4.671789972964431
100
AcDbArc
 50
54.55001047639354
 51
114.5500104764498
  0
LINE
  5
EA6E4F4EC
330
EA6E4DC92
100
AcDbEntity
  8
JISSEN
100
AcDbLine
 10
226.4919607400876
 20
334.6993342915337
 30
0.0
 11
225.7419607400876
 21
335.1323469934261
 31
0.0
  0
LINE
  5
EA6E4F4ED
330
EA6E4DC92
100
AcDbEntity
  8
JISSEN
100
AcDbLine
 10
226.4919607400873
 20
334.8436718588315
 30
0.0
 11
224.9919607400873
 21
333.9776464550469
 31
0.0
  0
LINE
  5
EA6E4F4EE
330
EA6E4DC92
100
AcDbEntity
  8
JISSEN
100
AcDbLine
 10
224.9919607400873
 20
332.5936718588315
 30
0.0
 11
224.9919607400873
 21
333.9776464550471
 31
0.0
  0
LINE
  5
EA6E4F4EF
330
EA6E4DC92
100
AcDbEntity
  8
JISSEN
100
AcDbLine
 10
224.9919607400873
 20
332.8436718588315
 30
0.0
 11
224.9919607400873
 21
333.9776464550469
 31
0.0
  0
LINE
  5
EA6E4F4F0
330
EA6E4DC92
100
AcDbEntity
  8
JISSEN
100
AcDbLine
 10
230.4111636300648
 20
333.9776464550469
 30
0.0
 11
230.4111636300648
 21
329.0473441206472
 31
0.0
  0
ARC
  5
EA6E4F4F1
330
EA6E4DC92
100
AcDbEntity
  8
JISSEN
100
AcDbCircle
 10
230.850996076875
 20
315.8436718588313
 30
0.0
 40
1.0
100
AcDbArc
 50
0.0
 51
90.0
  0
POLYLINE
  5
EA6E4F4F2
330
EA6E4DC92
100
AcDbEntity
  8
JISSEN
100
AcDb2dPolyline
 66
     1
 10
0.0
 20
0.0
 30
0.0
  0
VERTEX
  5
EA6E4F4F3
330
EA6E4F4F2
100
AcDbEntity
  8
JISSEN
100
AcDbVertex
100
AcDb2dVertex
 10
235.8349746845736
 20
323.7549462420988
 30
0.0
 42
0.0770392472783632
  0
VERTEX
  5
EA6E4F4F4
330
EA6E4F4F2
100
AcDbEntity
  8
JISSEN
100
AcDbVertex
100
AcDb2dVertex
 10
235.5186432421627
 20
323.6391818896606
 30
0.0
 42
0.1060700219635834
  0
VERTEX
  5
EA6E4F4F5
330
EA6E4F4F2
100
AcDbEntity
  8
JISSEN
100
AcDbVertex
100
AcDb2dVertex
 10
235.02577015646
 20
323.2104218616814
 30
0.0
 42
0.085782807107608
 70
     2
 50
233.130102354156
  0
VERTEX
  5
EA6E4F4F6
330
EA6E4F4F2
100
AcDbEntity
  8
JISSEN
100
AcDbVertex
100
AcDb2dVertex
 10
234.7169992288087
 20
322.6060924045396
 30
0.0
 42
0.0754446162298052
 50
323.130102354156
  0
VERTEX
  5
EA6E4F4F7
330
EA6E4F4F2
100
AcDbEntity
  8
JISSEN
100
AcDbVertex
100
AcDb2dVertex
 10
234.6014182966445
 20
321.8444538414353
 30
0.0
 42
0.0754446162298049
  0
VERTEX
  5
EA6E4F4F8
330
EA6E4F4F2
100
AcDbEntity
  8
JISSEN
100
AcDbVertex
100
AcDb2dVertex
 10
234.7169992288087
 20
321.082815278331
 30
0.0
 42
0.085782807107608
  0
VERTEX
  5
EA6E4F4F9
330
EA6E4F4F2
100
AcDbEntity
  8
JISSEN
100
AcDbVertex
100
AcDb2dVertex
 10
235.02577015646
 20
320.4784858211892
 30
0.0
 42
0.1060700219635838
 70
     2
 50
306.8698976458439
  0
VERTEX
  5
EA6E4F4FA
330
EA6E4F4F2
100
AcDbEntity
  8
JISSEN
100
AcDbVertex
100
AcDb2dVertex
 10
235.5186432421627
 20
320.0497257932102
 30
0.0
 42
0.1268223572478406
 50
36.869897645844
  0
VERTEX
  5
EA6E4F4FB
330
EA6E4F4F2
100
AcDbEntity
  8
JISSEN
100
AcDbVertex
100
AcDb2dVertex
 10
236.0502461716445
 20
319.9126833414354
 30
0.0
 42
0.1268223572478391
  0
VERTEX
  5
EA6E4F4FC
330
EA6E4F4F2
100
AcDbEntity
  8
JISSEN
100
AcDbVertex
100
AcDb2dVertex
 10
236.5818491011263
 20
320.0497257932102
 30
0.0
 42
0.1060700219635831
  0
VERTEX
  5
EA6E4F4FD
330
EA6E4F4F2
100
AcDbEntity
  8
JISSEN
100
AcDbVertex
100
AcDb2dVertex
 10
237.0747221868292
 20
320.4784858211892
 30
0.0
 42
0.085782807107608
 70
     2
 50
53.13010235415589
  0
VERTEX
  5
EA6E4F4FE
330
EA6E4F4F2
100
AcDbEntity
  8
JISSEN
100
AcDbVertex
100
AcDb2dVertex
 10
237.3834931144805
 20
321.082815278331
 30
0.0
 42
0.075444616229805
 50
143.1301023541559
  0
VERTEX
  5
EA6E4F4FF
330
EA6E4F4F2
100
AcDbEntity
  8
JISSEN
100
AcDbVertex
100
AcDb2dVertex
 10
237.4990740466445
 20
321.8444538414353
 30
0.0
 42
0.0754446162298053
  0
SEQEND
  5
EA6E4F500
330
EA6E4F4F2
100
AcDbEntity
  8
JISSEN
  0
POLYLINE
  5
EA6E4F501
330
EA6E4DC92
100
AcDbEntity
  8
JISSEN
100
AcDb2dPolyline
 66
     1
 10
0.0
 20
0.0
 30
0.0
  0
VERTEX
  5
EA6E4F502
330
EA6E4F501
100
AcDbEntity
  8
JISSEN
100
AcDbVertex
100
AcDb2dVertex
 10
235.1282647966446
 20
321.8444538414353
 30
0.0
 42
0.0664511817867678
  0
VERTEX
  5
EA6E4F503
330
EA6E4F501
100
AcDbEntity
  8
JISSEN
100
AcDbVertex
100
AcDb2dVertex
 10
235.2029688492092
 20
321.2848386816251
 30
0.0
 42
0.078999187702239
  0
VERTEX
  5
EA6E4F504
330
EA6E4F501
100
AcDbEntity
  8
JISSEN
100
AcDbVertex
100
AcDb2dVertex
 10
235.3983068892542
 20
320.8510225539837
 30
0.0
 42
0.107159147534158
 70
     2
 50
303.2748879848349
  0
VERTEX
  5
EA6E4F505
330
EA6E4F501
100
AcDbEntity
  8
JISSEN
100
AcDbVertex
100
AcDb2dVertex
 10
235.7413656268566
 20
320.5139907639513
 30
0.0
 42
0.1647051743017312
 50
33.27488798483491
  0
VERTEX
  5
EA6E4F506
330
EA6E4F501
100
AcDbEntity
  8
JISSEN
100
AcDbVertex
100
AcDb2dVertex
 10
236.0502461716445
 20
320.4395298414351
 30
0.0
 42
0.1416952503384066
  0
VERTEX
  5
EA6E4F507
330
EA6E4F501
100
AcDbEntity
  8
JISSEN
100
AcDbVertex
100
AcDb2dVertex
 10
236.3805716305072
 20
320.5350589280453
 30
0.0
 42
0.1071591475341562
  0
VERTEX
  5
EA6E4F508
330
EA6E4F501
100
AcDbEntity
  8
JISSEN
100
AcDbVertex
100
AcDb2dVertex
 10
236.7021854540347
 20
320.8510225539837
 30
0.0
 42
0.0789991877022394
 70
     2
 50
56.72511201516499
  0
VERTEX
  5
EA6E4F509
330
EA6E4F501
100
AcDbEntity
  8
JISSEN
100
AcDbVertex
100
AcDb2dVertex
 10
236.89752349408
 20
321.2848386816251
 30
0.0
 42
0.0664511817867652
 50
146.725112015165
  0
VERTEX
  5
EA6E4F50A
330
EA6E4F501
100
AcDbEntity
  8
JISSEN
100
AcDbVertex
100
AcDb2dVertex
 10
236.9722275466445
 20
321.8444538414353
 30
0.0
 42
0.0664511817867667
  0
SEQEND
  5
EA6E4F50B
330
EA6E4F501
100
AcDbEntity
  8
JISSEN
  0
LINE
  5
EA6E4F50C
330
EA6E4DC92
100
AcDbEntity
  8
JISSEN
100
AcDbLine
 10
236.183643009624
 20
322.8585423937352
 30
0.0
 11
236.183643009624
 21
324.0878508937352
 31
0.0
  0
LINE
  5
EA6E4F50D
330
EA6E4DC92
100
AcDbEntity
  8
JISSEN
100
AcDbLine
 10
235.8324120096239
 20
322.8585423937352
 30
0.0
 11
236.183643009624
 21
322.8585423937352
 31
0.0
  0
POLYLINE
  5
EA6E4F50E
330
EA6E4DC92
100
AcDbEntity
  8
JISSEN
100
AcDb2dPolyline
 66
     1
 10
0.0
 20
0.0
 30
0.0
  0
VERTEX
  5
EA6E4F50F
330
EA6E4F50E
100
AcDbEntity
  8
JISSEN
100
AcDbVertex
100
AcDb2dVertex
 10
235.8324120096237
 20
323.209773393735
 30
0.0
 42
0.0508792192586596
  0
VERTEX
  5
EA6E4F510
330
EA6E4F50E
100
AcDbEntity
  8
JISSEN
100
AcDbVertex
100
AcDb2dVertex
 10
235.719920712782
 20
323.1538487548252
 30
0.0
 42
0.1071591475341602
  0
VERTEX
  5
EA6E4F511
330
EA6E4F50E
100
AcDbEntity
  8
JISSEN
100
AcDbVertex
100
AcDb2dVertex
 10
235.3983068892542
 20
322.8378851288871
 30
0.0
 42
0.0789991877022377
 70
     2
 50
236.7251120151649
  0
VERTEX
  5
EA6E4F512
330
EA6E4F50E
100
AcDbEntity
  8
JISSEN
100
AcDbVertex
100
AcDb2dVertex
 10
235.2029688492092
 20
322.4040690012454
 30
0.0
 42
0.0664511817867672
 50
326.7251120151649
  0
VERTEX
  5
EA6E4F513
330
EA6E4F50E
100
AcDbEntity
  8
JISSEN
100
AcDbVertex
100
AcDb2dVertex
 10
235.1282647966446
 20
321.8444538414353
 30
0.0
 42
0.0664511817867678
  0
SEQEND
  5
EA6E4F514
330
EA6E4F50E
100
AcDbEntity
  8
JISSEN
  0
LINE
  5
EA6E4F515
330
EA6E4DC92
100
AcDbEntity
  8
JISSEN
100
AcDbLine
 10
235.8324120096239
 20
323.2097733937351
 30
0.0
 11
235.8324120096239
 21
322.8585423937352
 31
0.0
  0
POLYLINE
  5
EA6E4F516
330
EA6E4DC92
100
AcDbEntity
  8
JISSEN
100
AcDb2dPolyline
 66
     1
 10
0.0
 20
0.0
 30
0.0
  0
VERTEX
  5
EA6E4F517
330
EA6E4F516
100
AcDbEntity
  8
JISSEN
100
AcDbVertex
100
AcDb2dVertex
 10
237.4990740466445
 20
321.8444538414353
 30
0.0
 42
0.003443646303572
  0
VERTEX
  5
EA6E4F518
330
EA6E4F516
100
AcDbEntity
  8
JISSEN
100
AcDbVertex
100
AcDb2dVertex
 10
237.4988304976403
 20
321.8798155038612
 30
0.0
 42
0.0857828071076088
  0
SEQEND
  5
EA6E4F519
330
EA6E4F516
100
AcDbEntity
  8
JISSEN
  0
LINE
  5
EA6E4F51A
330
EA6E4DC92
100
AcDbEntity
  8
JISSEN
100
AcDbLine
 10
236.183643009624
 20
324.0878508937352
 30
0.0
 11
235.8324120096239
 21
324.0878508937352
 31
0.0
  0
LINE
  5
EA6E4F51B
330
EA6E4DC92
100
AcDbEntity
  8
JISSEN
100
AcDbLine
 10
235.8324120096239
 20
324.0878508937352
 30
0.0
 11
235.8349746845739
 21
323.7549462420989
 31
0.0
  0
ARC
  5
EA6E4F51C
330
EA6E4DC92
100
AcDbEntity
  8
JISSEN
100
AcDbCircle
 10
237.2419607400876
 20
354.6179185785722
 30
0.0
 40
19.62990915244282
100
AcDbArc
 50
260.1617730147515
 51
270.0
  0
LINE
  5
EA6E4F51D
330
EA6E4DC92
100
AcDbEntity
  8
JISSEN
100
AcDbLine
 10
231.8509960768754
 20
333.9776464550469
 30
0.0
 11
231.8509960768754
 21
327.8436718588315
 31
0.0
  0
ARC
  5
EA6E4F51E
330
EA6E4DC92
100
AcDbEntity
  8
JISSEN
100
AcDbCircle
 10
230.8509960768752
 20
327.8436718588313
 30
0.0
 40
1.0
100
AcDbArc
 50
270.0
 51
0.0
  0
LINE
  5
EA6E4F51F
330
EA6E4DC92
100
AcDbEntity
  8
JISSEN
100
AcDbLine
 10
226.7919607400878
 20
347.8436718588317
 30
0.0
 11
237.2419607400878
 21
347.8436718588317
 31
0.0
  0
LINE
  5
EA6E4F520
330
EA6E4DC92
100
AcDbEntity
  8
JISSEN
100
AcDbLine
 10
229.3927322815838
 20
338.4106591569397
 30
0.0
 11
233.887858773838
 21
338.4106591569397
 31
0.0
  0
LINE
  5
EA6E4F521
330
EA6E4DC92
100
AcDbEntity
  8
HATCH
100
AcDbLine
 10
230.3613364086714
 20
354.8436718588316
 30
0.0
 11
230.7731011145536
 21
347.8436718588317
 31
0.0
  0
LINE
  5
EA6E4F522
330
EA6E4DC92
100
AcDbEntity
  8
JISSEN
100
AcDbLine
 10
226.4919607400878
 20
347.5436718588317
 30
0.0
 11
226.7919607400878
 21
347.8436718588317
 31
0.0
  0
ARC
  5
EA6E4F523
330
EA6E4DC92
100
AcDbEntity
  8
JISSEN
100
AcDbCircle
 10
227.5673465108356
 20
332.67751901746
 30
0.0
 40
5.879349232940107
100
AcDbArc
 50
71.91219460927348
 51
108.0878053907264
  0
LINE
  5
EA6E4F524
330
EA6E4DC92
100
AcDbEntity
  8
JISSEN
100
AcDbLine
 10
226.4919607400878
 20
338.8436718588317
 30
0.0
 11
226.4919607400878
 21
347.5436718588317
 31
0.0
  0
LINE
  5
EA6E4F525
330
EA6E4DC92
100
AcDbEntity
  8
JISSEN
100
AcDbLine
 10
226.4919607400876
 20
338.6993342915337
 30
0.0
 11
225.7419607400876
 21
338.2663215896416
 31
0.0
  0
LINE
  5
EA6E4F526
330
EA6E4DC92
100
AcDbEntity
  8
HATCH
100
AcDbLine
 10
229.2419607400873
 20
356.8436718588316
 30
0.0
 11
230.3613364086714
 21
354.8436718588316
 31
0.0
  0
LINE
  5
EA6E4F527
330
EA6E4DC92
100
AcDbEntity
  8
JISSEN
100
AcDbLine
 10
229.2419607400873
 20
356.8436718588316
 30
0.0
 11
229.7713725047933
 21
347.8436718588317
 31
0.0
  0
ARC
  5
EA6E4F528
330
EA6E4DC92
100
AcDbEntity
  8
JISSEN
100
AcDbCircle
 10
237.2419607400876
 20
319.0694251390873
 30
0.0
 40
19.62990915244717
100
AcDbArc
 50
90.0
 51
99.83822698524184
  0
ARC
  5
EA6E4F529
330
EA6E4DC92
100
AcDbEntity
  8
JISSEN
100
AcDbCircle
 10
237.2419607400875
 20
408.84367185883
 30
0.0
 40
28.00000000000017
100
AcDbArc
 50
179.9999999999967
 51
225.2173479423135
  0
ARC
  5
EA6E4F52A
330
EA6E4DC92
100
AcDbEntity
  8
JISSEN
100
AcDbCircle
 10
237.2419607400872
 20
408.8436718588316
 30
0.0
 40
25.0
100
AcDbArc
 50
90.0
 51
224.684419446019
  0
LINE
  5
EA6E4F52B
330
EA6E4DC92
100
AcDbEntity
  8
JISSEN
100
AcDbLine
 10
217.1204610544435
 20
388.7221721731878
 30
0.0
 11
233.8072375698037
 21
406.7936287511101
 31
0.0
  0
LINE
  5
EA6E4F52C
330
EA6E4DC92
100
AcDbEntity
  8
JISSEN
100
AcDbLine
 10
235.1919176323659
 20
405.4089486885478
 30
0.0
 11
217.1204610544435
 21
388.7221721731878
 31
0.0
  0
LINE
  5
EA6E4F52D
330
EA6E4DC92
100
AcDbEntity
  8
JISSEN
100
AcDbLine
 10
219.6619260474022
 20
391.0689037814702
 30
0.0
 11
217.518219366957
 21
388.9697183959209
 31
0.0
  0
LINE
  5
EA6E4F52E
330
EA6E4DC92
100
AcDbEntity
  8
JISSEN
100
AcDbLine
 10
245.7419607400872
 20
356.8436718588316
 30
0.0
 11
245.7419607400872
 21
367.712783222674
 31
0.0
  0
ARC
  5
EA6E4F52F
330
EA6E4DC92
100
AcDbEntity
  8
JISSEN
100
AcDbCircle
 10
265.3419607400873
 20
298.0754850581265
 30
0.0
 40
1.0
100
AcDbArc
 50
271.999999999997
 51
0.0
  0
ARC
  5
EA6E4F530
330
EA6E4DC92
100
AcDbEntity
  8
JISSEN
100
AcDbCircle
 10
265.3419607400873
 20
316.8436718588313
 30
0.0
 40
1.0
100
AcDbArc
 50
270.0
 51
315.375791107194
  0
ARC
  5
EA6E4F531
330
EA6E4DC92
100
AcDbEntity
  8
JISSEN
100
AcDbCircle
 10
265.3419607400873
 20
326.8436718588314
 30
0.0
 40
1.0
100
AcDbArc
 50
0.0
 51
90.0
  0
LINE
  5
EA6E4F532
330
EA6E4DC92
100
AcDbEntity
  8
JISSEN
100
AcDbLine
 10
244.0727578501102
 20
333.9776464550469
 30
0.0
 11
244.0727578501099
 21
311.7096972626157
 31
0.0
  0
LINE
  5
EA6E4F533
330
EA6E4DC92
100
AcDbEntity
  8
JISSEN
100
AcDbLine
 10
242.6329254032997
 20
333.9776464550469
 30
0.0
 11
242.6329254032992
 21
311.7096972626157
 31
0.0
  0
LINE
  5
EA6E4F534
330
EA6E4DC92
100
AcDbEntity
  8
JISSEN
100
AcDbLine
 10
250.8419607400873
 20
314.3350204903892
 30
0.0
 11
250.8419607400875
 21
321.8436718588315
 31
0.0
  0
ARC
  5
EA6E4F535
330
EA6E4DC92
100
AcDbEntity
  8
JISSEN
100
AcDbCircle
 10
250.9919607400871
 20
314.8436718588313
 30
0.0
 40
1.5
100
AcDbArc
 50
95.73917047726808
 51
180.0
  0
LINE
  5
EA6E4F536
330
EA6E4DC92
100
AcDbEntity
  8
JISSEN
100
AcDbLine
 10
256.8417192523892
 20
315.0400961980357
 30
0.0
 11
256.8417192523892
 21
321.8436718588315
 31
0.0
  0
LINE
  5
EA6E4F537
330
EA6E4DC92
100
AcDbEntity
  8
JISSEN
100
AcDbLine
 10
251.3332345368688
 20
313.8350966428112
 30
0.0
 11
254.8543099440411
 21
313.7736360429617
 31
0.0
  0
ARC
  5
EA6E4F538
330
EA6E4DC92
100
AcDbEntity
  8
JISSEN
100
AcDbCircle
 10
246.7823592950982
 20
315.5154404963098
 30
0.0
 40
4.671789972964431
100
AcDbArc
 50
234.5500104764016
 51
294.5500104764427
  0
LINE
  5
EA6E4F539
330
EA6E4DC92
100
AcDbEntity
  8
JISSEN
100
AcDbLine
 10
244.0727578501102
 20
311.7096972626157
 30
0.0
 11
242.6329254032995
 21
311.7096972626157
 31
0.0
  0
LINE
  5
EA6E4F53A
330
EA6E4DC92
100
AcDbEntity
  8
JISSEN
100
AcDbLine
 10
247.9919607400873
 20
310.8436718588312
 30
0.0
 11
249.4919607400873
 21
311.7096972626157
 31
0.0
  0
LINE
  5
EA6E4F53B
330
EA6E4DC92
100
AcDbEntity
  8
JISSEN
100
AcDbLine
 10
249.4919607400873
 20
314.8436718588314
 30
0.0
 11
249.4919607400873
 21
311.7096972626157
 31
0.0
  0
ARC
  5
EA6E4F53C
330
EA6E4DC92
100
AcDbEntity
  8
JISSEN
100
AcDbCircle
 10
251.3419607400873
 20
314.3350204903892
 30
0.0
 40
0.5
100
AcDbArc
 50
180.0
 51
268.9999999999982
  0
INSERT
  5
EA6E4F53D
330
EA6E4DC92
100
AcDbEntity
  8
SUNPOU
100
AcDbBlockReference
  2
ARROWANG
 10
262.1779174935451
 20
296.9643846889539
 30
0.0
 41
2.999999999999999
 42
3.0
 43
3.0
 50
114.1148979915534
  0
LINE
  5
EA6E4F53E
330
EA6E4DC92
100
AcDbEntity
  8
JISSEN
100
AcDbLine
 10
258.7136720256488
 20
296.8434105715063
 30
0.0
 11
265.37686023679
 21
297.0760942311076
 31
0.0
  0
LINE
  5
EA6E4F53F
330
EA6E4DC92
100
AcDbEntity
  8
JISSEN
100
AcDbLine
 10
254.8543099440411
 20
313.7736360429617
 30
0.0
 11
257.6939647759339
 21
297.6691532208584
 31
0.0
  0
ARC
  5
EA6E4F540
330
EA6E4DC92
100
AcDbEntity
  8
JISSEN
100
AcDbCircle
 10
258.678772528946
 20
297.8428013985251
 30
0.0
 40
1.0
100
AcDbArc
 50
189.9999999999987
 51
271.999999999997
  0
ARC
  5
EA6E4F541
330
EA6E4DC92
100
AcDbEntity
  8
JISSEN
100
AcDbCircle
 10
255.6543378949917
 20
315.2032344951878
 30
0.0
 40
1.198536020273432
100
AcDbArc
 50
265.891233838159
 51
352.1769210358573
  0
LINE
  5
EA6E4F542
330
EA6E4DC92
100
AcDbEntity
  8
JISSEN
100
AcDbLine
 10
251.3419607400873
 20
329.8436718588315
 30
0.0
 11
256.3417192523892
 21
329.8436718588315
 31
0.0
  0
LINE
  5
EA6E4F543
330
EA6E4DC92
100
AcDbEntity
  8
JISSEN
100
AcDbLine
 10
240.5960627063374
 20
338.4106591569397
 30
0.0
 11
240.5960627063374
 21
335.2766845607242
 31
0.0
  0
LINE
  5
EA6E4F544
330
EA6E4DC92
100
AcDbEntity
  8
JISSEN
100
AcDbLine
 10
245.0911891985918
 20
338.4106591569397
 30
0.0
 11
245.0911891985918
 21
335.2766845607242
 31
0.0
  0
LINE
  5
EA6E4F545
330
EA6E4DC92
100
AcDbEntity
  8
JISSEN
100
AcDbLine
 10
248.7419607400878
 20
338.4106591569395
 30
0.0
 11
248.7419607400878
 21
335.276684560724
 31
0.0
  0
LINE
  5
EA6E4F546
330
EA6E4DC92
100
AcDbEntity
  8
JISSEN
100
AcDbLine
 10
245.0911891985918
 20
335.2766845607242
 30
0.0
 11
240.5960627063374
 21
335.2766845607242
 31
0.0
  0
ARC
  5
EA6E4F547
330
EA6E4DC92
100
AcDbEntity
  8
JISSEN
100
AcDbCircle
 10
246.7823592950984
 20
330.1719032213527
 30
0.0
 40
4.671789972964431
100
AcDbArc
 50
65.4499895235501
 51
125.4499895235984
  0
LINE
  5
EA6E4F548
330
EA6E4DC92
100
AcDbEntity
  8
JISSEN
100
AcDbLine
 10
238.6388895836656
 20
320.4791342891356
 30
0.0
 11
238.6388895836656
 21
320.8303652891356
 31
0.0
  0
LINE
  5
EA6E4F549
330
EA6E4DC92
100
AcDbEntity
  8
JISSEN
100
AcDbLine
 10
238.2876585836655
 20
320.8303652891356
 30
0.0
 11
238.2876585836655
 21
319.6010567891356
 31
0.0
  0
POLYLINE
  5
EA6E4F54A
330
EA6E4DC92
100
AcDbEntity
  8
JISSEN
100
AcDb2dPolyline
 66
     1
 10
0.0
 20
0.0
 30
0.0
  0
VERTEX
  5
EA6E4F54B
330
EA6E4F54A
100
AcDbEntity
  8
JISSEN
100
AcDbVertex
100
AcDb2dVertex
 10
238.6363269087154
 20
319.9339614407717
 30
0.0
 42
0.0770392472783639
  0
VERTEX
  5
EA6E4F54C
330
EA6E4F54A
100
AcDbEntity
  8
JISSEN
100
AcDbVertex
100
AcDb2dVertex
 10
238.9526583511263
 20
320.0497257932102
 30
0.0
 42
0.1060700219635831
  0
VERTEX
  5
EA6E4F54D
330
EA6E4F54A
100
AcDbEntity
  8
JISSEN
100
AcDbVertex
100
AcDb2dVertex
 10
239.4455314368291
 20
320.4784858211892
 30
0.0
 42
0.085782807107608
 70
     2
 50
53.13010235415589
  0
VERTEX
  5
EA6E4F54E
330
EA6E4F54A
100
AcDbEntity
  8
JISSEN
100
AcDbVertex
100
AcDb2dVertex
 10
239.7543023644806
 20
321.082815278331
 30
0.0
 42
0.075444616229805
 50
143.1301023541559
  0
VERTEX
  5
EA6E4F54F
330
EA6E4F54A
100
AcDbEntity
  8
JISSEN
100
AcDbVertex
100
AcDb2dVertex
 10
239.8698832966446
 20
321.8444538414353
 30
0.0
 42
0.0754446162298053
  0
SEQEND
  5
EA6E4F550
330
EA6E4F54A
100
AcDbEntity
  8
JISSEN
  0
LINE
  5
EA6E4F551
330
EA6E4DC92
100
AcDbEntity
  8
JISSEN
100
AcDbLine
 10
238.2876585836655
 20
319.6010567891356
 30
0.0
 11
238.6388895836656
 21
319.6010567891356
 31
0.0
  0
LINE
  5
EA6E4F552
330
EA6E4DC92
100
AcDbEntity
  8
JISSEN
100
AcDbLine
 10
238.6388895836656
 20
319.6010567891356
 30
0.0
 11
238.6363269087154
 21
319.9339614407719
 31
0.0
  0
LINE
  5
EA6E4F553
330
EA6E4DC92
100
AcDbEntity
  8
JISSEN
100
AcDbLine
 10
238.6388895836656
 20
320.8303652891356
 30
0.0
 11
238.2876585836655
 21
320.8303652891356
 31
0.0
  0
LINE
  5
EA6E4F554
330
EA6E4DC92
100
AcDbEntity
  8
JISSEN
100
AcDbLine
 10
244.0727578501102
 20
333.9776464550469
 30
0.0
 11
242.6329254032997
 21
333.9776464550469
 31
0.0
  0
ARC
  5
EA6E4F555
330
EA6E4DC92
100
AcDbEntity
  8
JISSEN
100
AcDbCircle
 10
253.9259771626888
 20
321.8436718588311
 30
0.0
 40
7.157736980972463
100
AcDbArc
 50
132.079191764076
 51
226.6754408424862
  0
LINE
  5
EA6E4F556
330
EA6E4DC92
100
AcDbEntity
  8
JISSEN
100
AcDbLine
 10
250.8419607400873
 20
329.3523232272736
 30
0.0
 11
250.8419607400875
 21
321.8436718588315
 31
0.0
  0
ARC
  5
EA6E4F557
330
EA6E4DC92
100
AcDbEntity
  8
JISSEN
100
AcDbCircle
 10
246.9165749693396
 20
340.8654871329042
 30
0.0
 40
5.879349232938483
100
AcDbArc
 50
251.9121946092666
 51
288.0878053907265
  0
LINE
  5
EA6E4F558
330
EA6E4DC92
100
AcDbEntity
  8
JISSEN
100
AcDbLine
 10
247.9919607400878
 20
334.8436718588317
 30
0.0
 11
248.7419607400878
 21
335.276684560724
 31
0.0
  0
LINE
  5
EA6E4F559
330
EA6E4DC92
100
AcDbEntity
  8
JISSEN
100
AcDbLine
 10
247.9919607400873
 20
334.8436718588312
 30
0.0
 11
249.4919607400873
 21
333.9776464550468
 31
0.0
  0
LINE
  5
EA6E4F55A
330
EA6E4DC92
100
AcDbEntity
  8
JISSEN
100
AcDbLine
 10
249.4919607400873
 20
328.8436718588312
 30
0.0
 11
249.4919607400873
 21
333.9776464550468
 31
0.0
  0
ARC
  5
EA6E4F55B
330
EA6E4DC92
100
AcDbEntity
  8
JISSEN
100
AcDbCircle
 10
250.9919607400874
 20
328.8436718588311
 30
0.0
 40
1.5
100
AcDbArc
 50
180.0
 51
264.2608295227319
  0
ARC
  5
EA6E4F55C
330
EA6E4DC92
100
AcDbEntity
  8
JISSEN
100
AcDbCircle
 10
251.3419607400873
 20
329.3436718588313
 30
0.0
 40
0.5
100
AcDbArc
 50
90.0
 51
180.0
  0
LINE
  5
EA6E4F55D
330
EA6E4DC92
100
AcDbEntity
  8
JISSEN
100
AcDbLine
 10
245.0911891985918
 20
338.4106591569397
 30
0.0
 11
240.5960627063374
 21
338.4106591569397
 31
0.0
  0
LINE
  5
EA6E4F55E
330
EA6E4DC92
100
AcDbEntity
  8
HATCH
100
AcDbLine
 10
244.1225850715035
 20
354.8436718588316
 30
0.0
 11
245.2419607400873
 21
356.8436718588316
 31
0.0
  0
LINE
  5
EA6E4F55F
330
EA6E4DC92
100
AcDbEntity
  8
HATCH
100
AcDbLine
 10
243.7108203656212
 20
347.8436718588317
 30
0.0
 11
244.1225850715035
 21
354.8436718588316
 31
0.0
  0
LINE
  5
EA6E4F560
330
EA6E4DC92
100
AcDbEntity
  8
JISSEN
100
AcDbLine
 10
247.9919607400878
 20
347.5436718588317
 30
0.0
 11
247.6919607400876
 21
347.8436718588317
 31
0.0
  0
ARC
  5
EA6E4F561
330
EA6E4DC92
100
AcDbEntity
  8
JISSEN
100
AcDbCircle
 10
246.9165749693396
 20
332.821856584758
 30
0.0
 40
5.879349232940107
100
AcDbArc
 50
71.91219460927348
 51
108.0878053907264
  0
LINE
  5
EA6E4F562
330
EA6E4DC92
100
AcDbEntity
  8
JISSEN
100
AcDbLine
 10
247.9919607400878
 20
338.8436718588317
 30
0.0
 11
248.7419607400878
 21
338.4106591569395
 31
0.0
  0
LINE
  5
EA6E4F563
330
EA6E4DC92
100
AcDbEntity
  8
JISSEN
100
AcDbLine
 10
247.9919607400878
 20
338.8436718588317
 30
0.0
 11
247.9919607400878
 21
347.5436718588317
 31
0.0
  0
LINE
  5
EA6E4F564
330
EA6E4DC92
100
AcDbEntity
  8
JISSEN
100
AcDbLine
 10
244.7125489753815
 20
347.8436718588317
 30
0.0
 11
245.2419607400873
 21
356.8436718588316
 31
0.0
  0
LINE
  5
EA6E4F565
330
EA6E4DC92
100
AcDbEntity
  8
JISSEN
100
AcDbLine
 10
256.8417192523892
 20
315.6952995917578
 30
0.0
 11
265.3419607400875
 21
315.8436718588315
 31
0.0
  0
LINE
  5
EA6E4F566
330
EA6E4DC92
100
AcDbEntity
  8
JISSEN
100
AcDbLine
 10
256.8417192523892
 20
327.9920441259047
 30
0.0
 11
265.3419607400873
 21
327.8436718588315
 31
0.0
  0
LINE
  5
EA6E4F567
330
EA6E4DC92
100
AcDbEntity
  8
JISSEN
100
AcDbLine
 10
256.8417192523892
 20
329.3436718588314
 30
0.0
 11
256.8417192523892
 21
321.8436718588315
 31
0.0
  0
ARC
  5
EA6E4F568
330
EA6E4DC92
100
AcDbEntity
  8
JISSEN
100
AcDbCircle
 10
256.3417192523892
 20
329.3436718588313
 30
0.0
 40
0.5
100
AcDbArc
 50
0.0
 51
90.0
  0
LINE
  5
EA6E4F569
330
EA6E4DC92
100
AcDbEntity
  8
JISSEN
100
AcDbLine
 10
266.3419607400875
 20
298.0754850581266
 30
0.0
 11
266.3419607400872
 21
321.8436718588315
 31
0.0
  0
LWPOLYLINE
  5
EA6E4F56A
330
EA6E4DC92
100
AcDbEntity
  8
JISSEN
100
AcDbPolyline
 90
        2
 70
     0
 43
0.0
 10
266.3419607400872
 20
317.3436730298768
 10
266.3419607400872
 20
314.3436718588314
  0
LINE
  5
EA6E4F56B
330
EA6E4DC92
100
AcDbEntity
  8
JISSEN
100
AcDbLine
 10
266.3419607400872
 20
326.8436718588314
 30
0.0
 11
266.3419607400872
 21
321.8436718588315
 31
0.0
  0
ARC
  5
EA6E4F56C
330
EA6E4DC92
100
AcDbEntity
  8
JISSEN
100
AcDbCircle
 10
237.8419607400873
 20
321.8436718588313
 30
0.0
 40
30.0
100
AcDbArc
 50
0.0
 51
8.774289647844724
  0
ARC
  5
EA6E4F56D
330
EA6E4DC92
100
AcDbEntity
  8
JISSEN
100
AcDbCircle
 10
237.8419607400873
 20
321.8436718588313
 30
0.0
 40
30.0
100
AcDbArc
 50
351.2257103521552
 51
0.0
  0
LINE
  5
EA6E4F56E
330
EA6E4DC92
100
AcDbEntity
  8
JISSEN
100
AcDbLine
 10
266.3419607400872
 20
317.3436718588315
 30
0.0
 11
266.3419607400872
 21
316.8436718588314
 31
0.0
  0
ARC
  5
EA6E4F56F
330
EA6E4DC92
100
AcDbEntity
  8
JISSEN
100
AcDbCircle
 10
266.9967202143137
 20
317.3436718588313
 30
0.0
 40
0.5
100
AcDbArc
 50
270.0
 51
351.2257103521552
  0
LINE
  5
EA6E4F570
330
EA6E4DC92
100
AcDbEntity
  8
JISSEN
100
AcDbLine
 10
266.3419607400872
 20
316.8436718588314
 30
0.0
 11
266.996720214314
 21
316.8436718588314
 31
0.0
  0
ARC
  5
EA6E4F571
330
EA6E4DC92
100
AcDbEntity
  8
JISSEN
100
AcDbCircle
 10
266.9967202143137
 20
326.3436718588313
 30
0.0
 40
0.5
100
AcDbArc
 50
8.774289647844724
 51
90.0
  0
LINE
  5
EA6E4F572
330
EA6E4DC92
100
AcDbEntity
  8
JISSEN
100
AcDbLine
 10
266.3419607400872
 20
326.8436718588314
 30
0.0
 11
266.996720214314
 21
326.8436718588314
 31
0.0
  0
INSERT
  5
EA6E4F573
330
EA6E4DC92
100
AcDbEntity
  8
SUNPOU
100
AcDbBlockReference
  2
ARROWANG
 10
253.2376868151267
 20
370.0002528745429
 30
0.0
 41
3.000000000000009
 42
3.0
 43
3.0
 50
114.8725109265124
  0
LINE
  5
EA6E4F574
330
EA6E4DC92
100
AcDbEntity
  8
JISSEN
100
AcDbLine
 10
254.8219954327724
 20
391.0689037814702
 30
0.0
 11
256.9657021132177
 21
388.9697183959209
 31
0.0
  0
LINE
  5
EA6E4F575
330
EA6E4DC92
100
AcDbEntity
  8
JISSEN
100
AcDbLine
 10
240.7410241350743
 20
410.7818553790028
 30
0.0
 11
245.2850701868019
 21
414.3818886270056
 31
0.0
  0
ARC
  5
EA6E4F576
330
EA6E4DC92
100
AcDbEntity
  8
JISSEN
100
AcDbCircle
 10
230.9198539533779
 20
402.5381880734384
 30
0.0
 40
23.46788425528639
100
AcDbArc
 50
34.21595627096453
 51
55.78050194819041
  0
LINE
  5
EA6E4F577
330
EA6E4DC92
100
AcDbEntity
  8
JISSEN
100
AcDbLine
 10
239.1791534378092
 20
412.3432839018862
 30
0.0
 11
242.7732921623042
 21
416.9000624592177
 31
0.0
  0
LINE
  5
EA6E4F578
330
EA6E4DC92
100
AcDbEntity
  8
JISSEN
100
AcDbLine
 10
242.9195446001721
 20
421.6074214783151
 30
0.0
 11
243.1646646797935
 21
421.853094487425
 31
0.0
  0
ARC
  5
EA6E4F579
330
EA6E4DC92
100
AcDbEntity
  8
JISSEN
100
AcDbCircle
 10
243.6955922377136
 20
421.3233618735653
 30
0.0
 40
0.7500004759636092
100
AcDbArc
 50
55.78050194818656
 51
135.0645496307633
1001
ASK_MEN_XD
1005
0
1070
     1
1005
0
1070
     1
  0
LINE
  5
EA6E4F57A
330
EA6E4DC92
100
AcDbEntity
  8
JISSEN
100
AcDbLine
 10
242.779689181916
 20
420.7422027800679
 30
0.0
 11
243.1009401441975
 21
420.0998820204091
 31
0.0
  0
ARC
  5
EA6E4F57B
330
EA6E4DC92
100
AcDbEntity
  8
JISSEN
100
AcDbCircle
 10
243.4504721580923
 20
421.0776888644554
 30
0.0
 40
0.7500004759636092
100
AcDbArc
 50
135.0645496307633
 51
206.5715148628444
1001
ASK_MEN_XD
1005
0
1070
     1
1005
0
1070
     1
  0
ARC
  5
EA6E4F57C
330
EA6E4DC92
100
AcDbEntity
  8
JISSEN
100
AcDbCircle
 10
240.4178099422555
 20
418.7579385344805
 30
0.0
 40
3.0
100
AcDbArc
 50
321.7355471921204
 51
26.57151486284446
1001
ASK_MEN_XD
1005
0
1070
     1
1005
0
1070
     1
  0
ARC
  5
EA6E4F57D
330
EA6E4DC92
100
AcDbEntity
  8
JISSEN
100
AcDbCircle
 10
247.1480261746394
 20
412.0304220660313
 30
0.0
 40
3.0
100
AcDbArc
 50
63.44139505544318
 51
128.388124193045
1001
ASK_MEN_XD
1005
0
1070
     1
1005
0
1070
     1
  0
ARC
  5
EA6E4F57E
330
EA6E4DC92
100
AcDbEntity
  8
JISSEN
100
AcDbCircle
 10
249.7058174592934
 20
415.3127651139993
 30
0.0
 40
0.7500004759636092
100
AcDbArc
 50
315.0645496307633
 51
34.21595627096453
1001
ASK_MEN_XD
1005
0
1070
     1
1005
0
1070
     1
  0
ARC
  5
EA6E4F57F
330
EA6E4DC92
100
AcDbEntity
  8
JISSEN
100
AcDbCircle
 10
249.4605054905796
 20
415.0668997829432
 30
0.0
 40
0.7500004759636092
100
AcDbArc
 50
243.4413950554432
 51
315.0645496307633
1001
ASK_MEN_XD
1005
0
1070
     1
1005
0
1070
     1
  0
LINE
  5
EA6E4F580
330
EA6E4DC92
100
AcDbEntity
  8
JISSEN
100
AcDbLine
 10
249.9914330484998
 20
414.5371671690837
 30
0.0
 11
250.2367450172134
 21
414.7830325001396
 31
0.0
  0
LINE
  5
EA6E4F581
330
EA6E4DC92
100
AcDbEntity
  8
JISSEN
100
AcDbLine
 10
248.489365062054
 20
414.7138545673453
 30
0.0
 11
249.1251705559166
 21
414.396041231876
 31
0.0
  0
TEXT
  5
EA6E4F582
330
EA6E4DC92
100
AcDbEntity
  8
TEXT
100
AcDbText
 10
215.8000009041125
 20
537.0000006054275
 30
0.0
 40
6.0
  1
名      称
  7
K
 72
     4
 11
233.0000009041125
 21
540.0000006054275
 31
0.0
100
AcDbText
  0
TEXT
  5
EA6E4F583
330
EA6E4DC92
100
AcDbEntity
  8
TEXT
100
AcDbText
 10
213.8000009041125
 20
524.8000006054275
 30
0.0
 40
6.0
  1
ニ ッ プ ル
  7
K
 72
     4
 11
233.0000009041125
 21
528.0000006054275
 31
0.0
100
AcDbText
  0
TEXT
  5
EA6E4F584
330
EA6E4DC92
100
AcDbEntity
  8
TEXT
100
AcDbText
 10
215.8000009041125
 20
513.0000006054275
 30
0.0
 40
6.0
  1
圧　力　計
  7
K
 72
     4
 11
233.0000009041125
 21
516.0000006054275
 31
0.0
100
AcDbText
  0
TEXT
  5
EA6E4F585
330
EA6E4DC92
100
AcDbEntity
  8
TEXT
100
AcDbText
 10
215.8000009041125
 20
501.0000006054275
 30
0.0
 40
6.0
  1
アングル弁
  7
K
 72
     4
 11
233.0000009041125
 21
504.0000006054275
 31
0.0
100
AcDbText
  0
LINE
  5
EA6E4F586
330
EA6E4DC92
100
AcDbEntity
  8
JISSEN
100
AcDbLine
 10
203.0000009041125
 20
546.0000006054275
 30
0.0
 11
203.0000009041125
 21
498.0000006054275
 31
0.0
  0
TEXT
  5
EA6E4F587
330
EA6E4DC92
100
AcDbEntity
  8
TEXT
100
AcDbText
 10
189.0000016281123
 20
525.0000006054275
 30
0.0
 40
6.0
  1
5
  7
K
 72
     4
 11
191.0000016281123
 21
528.0000006054275
 31
0.0
100
AcDbText
  0
TEXT
  5
EA6E4F589
330
EA6E4DC92
100
AcDbEntity
  8
TEXT
100
AcDbText
 10
189.0000016281123
 20
501.0000006054275
 30
0.0
 40
6.0
  1
7
  7
K
 72
     4
 11
191.0000016281123
 21
504.0000006054275
 31
0.0
100
AcDbText
  0
TEXT
  5
EA6E4F58A
330
EA6E4DC92
100
AcDbEntity
  8
TEXT
100
AcDbText
 10
189.1428587709695
 20
513.0000006054275
 30
0.0
 40
6.0
  1
6
  7
K
 72
     4
 11
191.0000016281123
 21
516.0000006054275
 31
0.0
100
AcDbText
  0
LINE
  5
EA6E4F58B
330
EA6E4DC92
100
AcDbEntity
  8
JISSEN
  6
CONTINUOUS
100
AcDbLine
 10
237.2419607400873
 20
446.3436718588316
 30
0.0
 11
237.2419607400873
 21
445.3436718588315
 31
0.0
  0
TEXT
  5
EA6E4F58C
330
EA6E4DC92
100
AcDbEntity
  8
TEXT
100
AcDbText
 10
184.6000016281124
 20
537.0000006054275
 30
0.0
 40
6.0
  1
番号
  7
K
 72
     4
 11
191.0000016281125
 21
540.0000006054275
 31
0.0
100
AcDbText
  0
LINE
  5
EA6E4F58D
330
EA6E4DC92
100
AcDbEntity
  8
JISSEN
100
AcDbLine
 10
263.0000009041125
 20
546.0000006054275
 30
0.0
 11
263.0000009041125
 21
498.0000006054275
 31
0.0
  0
TEXT
  5
EA6E4F58E
330
EA6E4DC92
100
AcDbEntity
  8
TEXT
100
AcDbText
 10
276.6428580469697
 20
525.0000006054275
 30
0.0
 40
6.0
  1
SGP
  7
K
 72
     4
 11
284.5000009041125
 21
528.0000006054275
 31
0.0
100
AcDbText
  0
TEXT
  5
EA6E4F590
330
EA6E4DC92
100
AcDbEntity
  8
TEXT
100
AcDbText
 10
331.4000009041125
 20
537.0000006054275
 30
0.0
 40
6.0
  1
備    考
  7
K
 72
     4
 11
345.0000009041125
 21
540.0000006054275
 31
0.0
100
AcDbText
  0
TEXT
  5
EA6E4F591
330
EA6E4DC92
100
AcDbEntity
  8
TEXT
100
AcDbText
 10
333.9306090602865
 20
513.0000006054275
 30
0.0
 40
6.0
  1
2MPa
  7
K
 72
     4
 11
344.9306090602865
 21
516.0000006054275
 31
0.0
100
AcDbText
  0
TEXT
  5
EA6E4F592
330
EA6E4DC92
100
AcDbEntity
  8
TEXT
100
AcDbText
 10
329.9314294755411
 20
525.0000006054275
 30
0.0
 40
6.0
  1
10A×75
 41
0.9
  7
K
 72
     4
 11
345.0000009041125
 21
528.0000006054275
 31
0.0
100
AcDbText
  0
TEXT
  5
EA6E4F593
330
EA6E4DC92
100
AcDbEntity
  8
TEXT
100
AcDbText
 10
337.5714294755411
 20
501.0000006054275
 30
0.0
 40
6.0
  1
10A
  7
K
 72
     4
 11
345.0000009041125
 21
504.0000006054275
 31
0.0
100
AcDbText
  0
LINE
  5
EA6E4F594
330
EA6E4DC92
100
AcDbEntity
  8
JISSEN
100
AcDbLine
 10
306.0000009041125
 20
498.0000006054275
 30
0.0
 11
306.0000009041125
 21
546.0000006054275
 31
0.0
  0
LINE
  5
EA6E4F595
330
EA6E4DC92
100
AcDbEntity
  8
JISSEN
100
AcDbLine
 10
328.0000009041125
 20
546.0000006054275
 30
0.0
 11
328.0000009041125
 21
498.0000006054275
 31
0.0
  0
TEXT
  5
EA6E4F596
330
EA6E4DC92
100
AcDbEntity
  8
TEXT
100
AcDbText
 10
316.2857151898268
 20
525.0000006054275
 30
0.0
 40
6.0
  1
1
  7
K
 72
     4
 11
317.0000009041125
 21
528.0000006054275
 31
0.0
100
AcDbText
  0
TEXT
  5
EA6E4F597
330
EA6E4DC92
100
AcDbEntity
  8
TEXT
100
AcDbText
 10
316.2857151898268
 20
501.0000006054275
 30
0.0
 40
6.0
  1
1
  7
K
 72
     4
 11
317.0000009041125
 21
504.0000006054275
 31
0.0
100
AcDbText
  0
TEXT
  5
EA6E4F598
330
EA6E4DC92
100
AcDbEntity
  8
TEXT
100
AcDbText
 10
316.2857151898268
 20
513.0000006054275
 30
0.0
 40
6.0
  1
1
  7
K
 72
     4
 11
317.0000009041125
 21
516.0000006054275
 31
0.0
100
AcDbText
  0
TEXT
  5
EA6E4F599
330
EA6E4DC92
100
AcDbEntity
  8
TEXT
100
AcDbText
 10
310.6000009041125
 20
537.0000006054275
 30
0.0
 40
6.0
  1
個数
  7
K
 72
     4
 11
317.0000009041125
 21
540.0000006054275
 31
0.0
100
AcDbText
  0
LINE
  5
EA6E4F59A
330
EA6E4DC92
100
AcDbEntity
  8
SUNPOU
100
AcDbLine
 10
333.4654760750518
 20
25.31241630587669
 30
0.0
 11
338.4654760750517
 21
25.31241630587669
 31
0.0
  0
LINE
  5
EA6E4F59B
330
EA6E4DC92
100
AcDbEntity
  8
SUNPOU
100
AcDbLine
 10
333.4654760750518
 20
19.31241630587669
 30
0.0
 11
338.4654760750517
 21
19.31241630587669
 31
0.0
  0
LINE
  5
EA6E4F59C
330
EA6E4DC92
100
AcDbEntity
  8
SUNPOU
100
AcDbLine
 10
335.9654760750518
 20
25.31241630587669
 30
0.0
 11
335.9654760750518
 21
19.31241630587669
 31
0.0
  0
LINE
  5
EA6E4F59D
330
EA6E4DC92
100
AcDbEntity
  8
SUNPOU
100
AcDbLine
 10
334.4654760750518
 20
25.31241630587669
 30
0.0
 11
334.4654760750518
 21
19.31241630587669
 31
0.0
  0
LINE
  5
EA6E4F59E
330
EA6E4DC92
100
AcDbEntity
  8
SUNPOU
100
AcDbLine
 10
337.4654760750518
 20
25.31241630587669
 30
0.0
 11
337.4654760750518
 21
19.31241630587669
 31
0.0
  0
ENDSEC
  0
SECTION
  2
OBJECTS
  0
DICTIONARY
  5
EA6E4DC87
330
0
100
AcDbDictionary
  3
ACAD_GROUP
350
EA6E4DC88
  3
ACAD_LAYOUT
350
EA6E4E127
  3
ACAD_MLINESTYLE
350
EA6E4DC95
  3
ACAD_PLOTSETTINGS
350
EA6E4E128
  3
ACAD_PLOTSTYLENAME
350
EA6E4E125
  3
ACDBHEADERROUNDTRIPXREC
350
EA6E4F5A1
  3
ACDBVARIABLEDICTIONARY
350
EA6E4DCDF
  0
DICTIONARY
  5
EA6E4EB26
330
EA6E4DC7D
100
AcDbDictionary
280
     1
  3
ACAD_LAYERSTATES
360
EA6E4EB27
  0
DICTIONARY
  5
EA6E4E1A0
330
EA6E4DC92
100
AcDbDictionary
280
     1
  3
ACAD_LAYOUTSELFREF
360
EA6E4F5C3
  0
DICTIONARY
  5
EA6E4E19E
330
EA6E4DC8F
100
AcDbDictionary
280
     1
  3
ACAD_LAYOUTSELFREF
360
EA6E4F5C2
  0
DICTIONARY
  5
EA6E4DC88
102
{ACAD_REACTORS
330
EA6E4DC87
102
}
330
0
100
AcDbDictionary
  0
DICTIONARY
  5
EA6E4E127
102
{ACAD_REACTORS
330
EA6E4DC87
102
}
330
EA6E4DC87
100
AcDbDictionary
  0
DICTIONARY
  5
EA6E4DC95
102
{ACAD_REACTORS
330
EA6E4DC87
102
}
330
0
100
AcDbDictionary
  3
STANDARD
350
EA6E4DC96
  0
DICTIONARY
  5
EA6E4E128
102
{ACAD_REACTORS
330
EA6E4DC87
102
}
330
EA6E4DC87
100
AcDbDictionary
  0
ACDBDICTIONARYWDFLT
  5
EA6E4E125
102
{ACAD_REACTORS
330
EA6E4DC87
102
}
330
EA6E4DC87
100
AcDbDictionary
281
     1
  3
Normal
350
EA6E4E126
100
AcDbDictionaryWithDefault
340
EA6E4E126
  0
DICTIONARY
  5
EA6E4F5A1
102
{ACAD_REACTORS
330
EA6E4DC87
102
}
330
EA6E4DC87
100
AcDbDictionary
  3
CEPSNTYPE
350
EA6E4F5AB
  3
DIMSTYLEDATA
350
EA6E4F5AF
  3
FINGERPRINTGUID
350
EA6E4F5AC
  3
HYPERLINKBASE
350
EA6E4F5A4
  3
INSUNITS
350
EA6E4F5AA
  3
LAYOUTDICT
350
EA6E4F5A6
  3
LWETCUNION
350
EA6E4F5A9
  3
PLOTSETDICT
350
EA6E4F5A7
  3
PLOTSTYLNAMDICT
350
EA6E4F5A8
  3
PSVPSCALE
350
EA6E4F5AE
  3
PUCSBASE
350
EA6E4F5B2
  3
PUCSORGBACK
350
EA6E4F5B8
  3
PUCSORGBOTTOM
350
EA6E4F5B4
  3
PUCSORGFRONT
350
EA6E4F5B7
  3
PUCSORGLEFT
350
EA6E4F5B5
  3
PUCSORGRIGHT
350
EA6E4F5B6
  3
PUCSORGTOP
350
EA6E4F5B3
  3
PUCSORTHOREF
350
EA6E4F5B0
  3
PUCSORTHOVIEW
350
EA6E4F5B1
  3
STYLESHEET
350
EA6E4F5A5
  3
TSTACKALIGN
350
EA6E4F5A2
  3
TSTACKSIZE
350
EA6E4F5A3
  3
UCSBASE
350
EA6E4F5BB
  3
UCSORGBACK
350
EA6E4F5C1
  3
UCSORGBOTTOM
350
EA6E4F5BD
  3
UCSORGFRONT
350
EA6E4F5C0
  3
UCSORGLEFT
350
EA6E4F5BE
  3
UCSORGRIGHT
350
EA6E4F5BF
  3
UCSORGTOP
350
EA6E4F5BC
  3
UCSORTHOREF
350
EA6E4F5B9
  3
UCSORTHOVIEW
350
EA6E4F5BA
  3
VERSIONGUID
350
EA6E4F5AD
  0
DICTIONARY
  5
EA6E4DCDF
102
{ACAD_REACTORS
330
EA6E4DC87
102
}
330
0
100
AcDbDictionary
  3
DIMASSOC
350
EA6E4E98F
  3
SORTENTS
350
EA6E4DCE0
  0
DICTIONARY
  5
EA6E4EB27
102
{ACAD_REACTORS
330
EA6E4EB26
102
}
330
EA6E4EB26
100
AcDbDictionary
  0
XRECORD
  5
EA6E4F5C3
102
{ACAD_REACTORS
330
EA6E4E1A0
102
}
330
EA6E4E1A0
100
AcDbXrecord
340
EA6E4DC92
  0
XRECORD
  5
EA6E4F5C2
102
{ACAD_REACTORS
330
EA6E4E19E
102
}
330
EA6E4E19E
100
AcDbXrecord
340
EA6E4DC8F
  0
MLINESTYLE
  5
EA6E4DC96
102
{ACAD_REACTORS
330
EA6E4DC95
102
}
330
0
100
AcDbMlineStyle
  2
STANDARD
 70
     0
  3

 62
   256
 51
90.0
 52
90.0
 71
     2
 49
0.5
 62
   256
  6
BYLAYER
 49
-0.5
 62
   256
  6
BYLAYER
  0
ACDBPLACEHOLDER
  5
EA6E4E126
102
{ACAD_REACTORS
330
EA6E4E125
102
}
330
EA6E4E125
100
AcDbPlaceHolder
280
     0
  0
XRECORD
  5
EA6E4F5AB
102
{ACAD_REACTORS
330
EA6E4F5A1
102
}
330
EA6E4F5A1
100
AcDbXrecord
 90
        0
  0
XRECORD
  5
EA6E4F5AF
102
{ACAD_REACTORS
330
EA6E4F5A1
102
}
330
EA6E4F5A1
100
AcDbXrecord
1000
DSTYLE
1002
{
1070
   279
 70
     2
1070
   341
340
EA6E4DC97
1070
   342
340
EA6E4DC97
1002
}
  0
XRECORD
  5
EA6E4F5AC
102
{ACAD_REACTORS
330
EA6E4F5A1
102
}
330
EA6E4F5A1
100
AcDbXrecord
  1
{1409DD6B-D93B-436B-BB36-853AE2F768BC}
  0
XRECORD
  5
EA6E4F5A4
102
{ACAD_REACTORS
330
EA6E4F5A1
102
}
330
EA6E4F5A1
100
AcDbXrecord
  1

  0
XRECORD
  5
EA6E4F5AA
102
{ACAD_REACTORS
330
EA6E4F5A1
102
}
330
EA6E4F5A1
100
AcDbXrecord
 90
        0
  0
XRECORD
  5
EA6E4F5A6
102
{ACAD_REACTORS
330
EA6E4F5A1
102
}
330
EA6E4F5A1
100
AcDbXrecord
340
EA6E4E127
  0
XRECORD
  5
EA6E4F5A9
102
{ACAD_REACTORS
330
EA6E4F5A1
102
}
330
EA6E4F5A1
100
AcDbXrecord
 90
    14877
  0
XRECORD
  5
EA6E4F5A7
102
{ACAD_REACTORS
330
EA6E4F5A1
102
}
330
EA6E4F5A1
100
AcDbXrecord
340
EA6E4E128
  0
XRECORD
  5
EA6E4F5A8
102
{ACAD_REACTORS
330
EA6E4F5A1
102
}
330
EA6E4F5A1
100
AcDbXrecord
340
EA6E4E125
  0
XRECORD
  5
EA6E4F5AE
102
{ACAD_REACTORS
330
EA6E4F5A1
102
}
330
EA6E4F5A1
100
AcDbXrecord
 40
0.0
  0
XRECORD
  5
EA6E4F5B2
102
{ACAD_REACTORS
330
EA6E4F5A1
102
}
330
EA6E4F5A1
100
AcDbXrecord
340
0
  0
XRECORD
  5
EA6E4F5B8
102
{ACAD_REACTORS
330
EA6E4F5A1
102
}
330
EA6E4F5A1
100
AcDbXrecord
 10
0.0
 20
0.0
 30
0.0
  0
XRECORD
  5
EA6E4F5B4
102
{ACAD_REACTORS
330
EA6E4F5A1
102
}
330
EA6E4F5A1
100
AcDbXrecord
 10
0.0
 20
0.0
 30
0.0
  0
XRECORD
  5
EA6E4F5B7
102
{ACAD_REACTORS
330
EA6E4F5A1
102
}
330
EA6E4F5A1
100
AcDbXrecord
 10
0.0
 20
0.0
 30
0.0
  0
XRECORD
  5
EA6E4F5B5
102
{ACAD_REACTORS
330
EA6E4F5A1
102
}
330
EA6E4F5A1
100
AcDbXrecord
 10
0.0
 20
0.0
 30
0.0
  0
XRECORD
  5
EA6E4F5B6
102
{ACAD_REACTORS
330
EA6E4F5A1
102
}
330
EA6E4F5A1
100
AcDbXrecord
 10
0.0
 20
0.0
 30
0.0
  0
XRECORD
  5
EA6E4F5B3
102
{ACAD_REACTORS
330
EA6E4F5A1
102
}
330
EA6E4F5A1
100
AcDbXrecord
 10
0.0
 20
0.0
 30
0.0
  0
XRECORD
  5
EA6E4F5B0
102
{ACAD_REACTORS
330
EA6E4F5A1
102
}
330
EA6E4F5A1
100
AcDbXrecord
340
0
  0
XRECORD
  5
EA6E4F5B1
102
{ACAD_REACTORS
330
EA6E4F5A1
102
}
330
EA6E4F5A1
100
AcDbXrecord
 70
     0
  0
XRECORD
  5
EA6E4F5A5
102
{ACAD_REACTORS
330
EA6E4F5A1
102
}
330
EA6E4F5A1
100
AcDbXrecord
  1

  0
XRECORD
  5
EA6E4F5A2
102
{ACAD_REACTORS
330
EA6E4F5A1
102
}
330
EA6E4F5A1
100
AcDbXrecord
 90
        1
  0
XRECORD
  5
EA6E4F5A3
102
{ACAD_REACTORS
330
EA6E4F5A1
102
}
330
EA6E4F5A1
100
AcDbXrecord
 90
       70
  0
XRECORD
  5
EA6E4F5BB
102
{ACAD_REACTORS
330
EA6E4F5A1
102
}
330
EA6E4F5A1
100
AcDbXrecord
340
0
  0
XRECORD
  5
EA6E4F5C1
102
{ACAD_REACTORS
330
EA6E4F5A1
102
}
330
EA6E4F5A1
100
AcDbXrecord
 10
0.0
 20
0.0
 30
0.0
  0
XRECORD
  5
EA6E4F5BD
102
{ACAD_REACTORS
330
EA6E4F5A1
102
}
330
EA6E4F5A1
100
AcDbXrecord
 10
0.0
 20
0.0
 30
0.0
  0
XRECORD
  5
EA6E4F5C0
102
{ACAD_REACTORS
330
EA6E4F5A1
102
}
330
EA6E4F5A1
100
AcDbXrecord
 10
0.0
 20
0.0
 30
0.0
  0
XRECORD
  5
EA6E4F5BE
102
{ACAD_REACTORS
330
EA6E4F5A1
102
}
330
EA6E4F5A1
100
AcDbXrecord
 10
0.0
 20
0.0
 30
0.0
  0
XRECORD
  5
EA6E4F5BF
102
{ACAD_REACTORS
330
EA6E4F5A1
102
}
330
EA6E4F5A1
100
AcDbXrecord
 10
0.0
 20
0.0
 30
0.0
  0
XRECORD
  5
EA6E4F5BC
102
{ACAD_REACTORS
330
EA6E4F5A1
102
}
330
EA6E4F5A1
100
AcDbXrecord
 10
0.0
 20
0.0
 30
0.0
  0
XRECORD
  5
EA6E4F5B9
102
{ACAD_REACTORS
330
EA6E4F5A1
102
}
330
EA6E4F5A1
100
AcDbXrecord
340
0
  0
XRECORD
  5
EA6E4F5BA
102
{ACAD_REACTORS
330
EA6E4F5A1
102
}
330
EA6E4F5A1
100
AcDbXrecord
 70
     0
  0
XRECORD
  5
EA6E4F5AD
102
{ACAD_REACTORS
330
EA6E4F5A1
102
}
330
EA6E4F5A1
100
AcDbXrecord
  1
{688DA2D7-9F41-4DF5-ADFF-D28A0EADC298}
  0
DICTIONARYVAR
  5
EA6E4E98F
102
{ACAD_REACTORS
330
EA6E4DCDF
102
}
330
EA6E4DCDF
100
DictionaryVariables
280
     0
  1
0
  0
DICTIONARYVAR
  5
EA6E4DCE0
102
{ACAD_REACTORS
330
EA6E4DCDF
102
}
330
0
100
DictionaryVariables
280
     0
  1
96
  0
ENDSEC
  0
EOF
