  0
SECTION
  2
HEADER
  9
$ACADVER
  1
AC1015
  9
$ACADMAINTVER
 70
    10
  9
$DWGCODEPAGE
  3
ANSI_932
  9
$INSBASE
 10
0.0
 20
0.0
 30
0.0
  9
$EXTMIN
 10
-0.0110465204471666
 20
-0.0166613264341322
 30
-0.0015258207003583
  9
$EXTMAX
 10
362.0110482061411
 20
546.0166643192573
 30
0.0000000349246037
  9
$LIMMIN
 10
0.0
 20
0.0
  9
$LIMMAX
 10
362.0
 20
546.0
  9
$ORTHOMODE
 70
     1
  9
$REGENMODE
 70
     1
  9
$FILLMODE
 70
     1
  9
$QTEXTMODE
 70
     0
  9
$MIRRTEXT
 70
     0
  9
$LTSCALE
 40
10.0
  9
$ATTMODE
 70
     1
  9
$TEXTSIZE
 40
10.0
  9
$TRACEWID
 40
0.05
  9
$TEXTSTYLE
  7
ROMANS
  9
$CLAYER
  8
JISSEN
  9
$CELTYPE
  6
BYLAYER
  9
$CECOLOR
 62
   256
  9
$CELTSCALE
 40
1.0
  9
$DISPSILH
 70
     0
  9
$DIMSCALE
 40
2.0
  9
$DIMASZ
 40
1.5
  9
$DIMEXO
 40
1.0
  9
$DIMDLI
 40
6.0
  9
$DIMRND
 40
0.0
  9
$DIMDLE
 40
0.0
  9
$DIMEXE
 40
1.0
  9
$DIMTP
 40
495.0
  9
$DIMTM
 40
0.0
  9
$DIMTXT
 40
3.0
  9
$DIMCEN
 40
0.0
  9
$DIMTSZ
 40
0.0
  9
$DIMTOL
 70
     0
  9
$DIMLIM
 70
     0
  9
$DIMTIH
 70
     0
  9
$DIMTOH
 70
     0
  9
$DIMSE1
 70
     0
  9
$DIMSE2
 70
     0
  9
$DIMTAD
 70
     1
  9
$DIMZIN
 70
     8
  9
$DIMBLK
  1
ARROW
  9
$DIMASO
 70
     0
  9
$DIMSHO
 70
     0
  9
$DIMPOST
  1

  9
$DIMAPOST
  1

  9
$DIMALT
 70
     0
  9
$DIMALTD
 70
     2
  9
$DIMALTF
 40
25.4
  9
$DIMLFAC
 40
1.0
  9
$DIMTOFL
 70
     1
  9
$DIMTVP
 40
0.0
  9
$DIMTIX
 70
     1
  9
$DIMSOXD
 70
     0
  9
$DIMSAH
 70
     0
  9
$DIMBLK1
  1

  9
$DIMBLK2
  1

  9
$DIMSTYLE
  2
IMAO
  9
$DIMCLRD
 70
     0
  9
$DIMCLRE
 70
     0
  9
$DIMCLRT
 70
     0
  9
$DIMTFAC
 40
1.0
  9
$DIMGAP
 40
0.09
  9
$DIMJUST
 70
     0
  9
$DIMSD1
 70
     0
  9
$DIMSD2
 70
     0
  9
$DIMTOLJ
 70
     1
  9
$DIMTZIN
 70
     8
  9
$DIMALTZ
 70
     8
  9
$DIMALTTZ
 70
     8
  9
$DIMUPT
 70
     0
  9
$DIMDEC
 70
     2
  9
$DIMTDEC
 70
     2
  9
$DIMALTU
 70
     2
  9
$DIMALTTD
 70
     2
  9
$DIMTXSTY
  7
ROMANS
  9
$DIMAUNIT
 70
     0
  9
$DIMADEC
 70
     0
  9
$DIMALTRND
 40
0.0
  9
$DIMAZIN
 70
     0
  9
$DIMDSEP
 70
    46
  9
$DIMATFIT
 70
     3
  9
$DIMFRAC
 70
     0
  9
$DIMLDRBLK
  1
ARROW
  9
$DIMLUNIT
 70
     2
  9
$DIMLWD
 70
    -2
  9
$DIMLWE
 70
    -2
  9
$DIMTMOVE
 70
     0
  9
$LUNITS
 70
     2
  9
$LUPREC
 70
     2
  9
$SKETCHINC
 40
0.1
  9
$FILLETRAD
 40
3.0
  9
$AUNITS
 70
     0
  9
$AUPREC
 70
     2
  9
$MENU
  1
stdr12j
  9
$ELEVATION
 40
0.0
  9
$PELEVATION
 40
0.0
  9
$THICKNESS
 40
0.0
  9
$LIMCHECK
 70
     0
  9
$CHAMFERA
 40
0.0
  9
$CHAMFERB
 40
0.0
  9
$CHAMFERC
 40
0.0
  9
$CHAMFERD
 40
0.0
  9
$SKPOLY
 70
     0
  9
$TDCREATE
 40
2449876.477257986
  9
$TDUCREATE
 40
2449876.102257986
  9
$TDUPDATE
 40
2455127.632704594
  9
$TDUUPDATE
 40
2455127.257704595
  9
$TDINDWG
 40
0.1153887616
  9
$TDUSRTIMER
 40
0.1153886458
  9
$USRTIMER
 70
     1
  9
$ANGBASE
 50
0.0
  9
$ANGDIR
 70
     0
  9
$PDMODE
 70
     0
  9
$PDSIZE
 40
0.0
  9
$PLINEWID
 40
0.0
  9
$SPLFRAME
 70
     0
  9
$SPLINETYPE
 70
     6
  9
$SPLINESEGS
 70
     8
  9
$HANDSEED
  5
EA6E4F536
  9
$SURFTAB1
 70
     6
  9
$SURFTAB2
 70
     6
  9
$SURFTYPE
 70
     6
  9
$SURFU
 70
     6
  9
$SURFV
 70
     6
  9
$UCSBASE
  2

  9
$UCSNAME
  2

  9
$UCSORG
 10
0.0
 20
0.0
 30
0.0
  9
$UCSXDIR
 10
1.0
 20
0.0
 30
0.0
  9
$UCSYDIR
 10
0.0
 20
1.0
 30
0.0
  9
$UCSORTHOREF
  2

  9
$UCSORTHOVIEW
 70
     0
  9
$UCSORGTOP
 10
0.0
 20
0.0
 30
0.0
  9
$UCSORGBOTTOM
 10
0.0
 20
0.0
 30
0.0
  9
$UCSORGLEFT
 10
0.0
 20
0.0
 30
0.0
  9
$UCSORGRIGHT
 10
0.0
 20
0.0
 30
0.0
  9
$UCSORGFRONT
 10
0.0
 20
0.0
 30
0.0
  9
$UCSORGBACK
 10
0.0
 20
0.0
 30
0.0
  9
$PUCSBASE
  2

  9
$PUCSNAME
  2

  9
$PUCSORG
 10
0.0
 20
0.0
 30
0.0
  9
$PUCSXDIR
 10
1.0
 20
0.0
 30
0.0
  9
$PUCSYDIR
 10
0.0
 20
1.0
 30
0.0
  9
$PUCSORTHOREF
  2

  9
$PUCSORTHOVIEW
 70
     0
  9
$PUCSORGTOP
 10
0.0
 20
0.0
 30
0.0
  9
$PUCSORGBOTTOM
 10
0.0
 20
0.0
 30
0.0
  9
$PUCSORGLEFT
 10
0.0
 20
0.0
 30
0.0
  9
$PUCSORGRIGHT
 10
0.0
 20
0.0
 30
0.0
  9
$PUCSORGFRONT
 10
0.0
 20
0.0
 30
0.0
  9
$PUCSORGBACK
 10
0.0
 20
0.0
 30
0.0
  9
$USERI1
 70
     4
  9
$USERI2
 70
     1
  9
$USERI3
 70
     2
  9
$USERI4
 70
     2
  9
$USERI5
 70
     0
  9
$USERR1
 40
2.0
  9
$USERR2
 40
3.0
  9
$USERR3
 40
3.0
  9
$USERR4
 40
1.5
  9
$USERR5
 40
10.0
  9
$WORLDVIEW
 70
     1
  9
$SHADEDGE
 70
     3
  9
$SHADEDIF
 70
    70
  9
$TILEMODE
 70
     1
  9
$MAXACTVP
 70
    16
  9
$PINSBASE
 10
0.0
 20
0.0
 30
0.0
  9
$PLIMCHECK
 70
     0
  9
$PEXTMIN
 10
1.000000000000000E+20
 20
1.000000000000000E+20
 30
1.000000000000000E+20
  9
$PEXTMAX
 10
-1.000000000000000E+20
 20
-1.000000000000000E+20
 30
-1.000000000000000E+20
  9
$PLIMMIN
 10
0.0
 20
0.0
  9
$PLIMMAX
 10
12.0
 20
9.0
  9
$UNITMODE
 70
     0
  9
$VISRETAIN
 70
     0
  9
$PLINEGEN
 70
     0
  9
$PSLTSCALE
 70
     0
  9
$TREEDEPTH
 70
  3020
  9
$CMLSTYLE
  2
STANDARD
  9
$CMLJUST
 70
     0
  9
$CMLSCALE
 40
1.0
  9
$PROXYGRAPHICS
 70
     1
  9
$MEASUREMENT
 70
     0
  9
$CELWEIGHT
370
    -1
  9
$ENDCAPS
280
     0
  9
$JOINSTYLE
280
     0
  9
$LWDISPLAY
290
     0
  9
$INSUNITS
 70
     0
  9
$HYPERLINKBASE
  1

  9
$STYLESHEET
  1

  9
$XEDIT
290
     1
  9
$CEPSNTYPE
380
     0
  9
$PSTYLEMODE
290
     1
  9
$FINGERPRINTGUID
  2
{1409DD6B-D93B-436B-BB36-853AE2F768BC}
  9
$VERSIONGUID
  2
{0CABAE27-603B-4AB5-89AF-A18A16CD6586}
  9
$EXTNAMES
290
     1
  9
$PSVPSCALE
 40
0.0
  9
$OLESTARTUP
290
     0
  0
ENDSEC
  0
SECTION
  2
CLASSES
  0
CLASS
  1
LWPOLYLINE
  2
AcDbPolyline
  3
AutoCAD 2000
 90
    32768
280
     0
281
     1
  0
CLASS
  1
DICTIONARYVAR
  2
AcDbDictionaryVar
  3
AutoCAD 2000
 90
        0
280
     0
281
     0
  0
CLASS
  1
HATCH
  2
AcDbHatch
  3
AutoCAD 2000
 90
    32768
280
     0
281
     1
  0
CLASS
  1
ACDBDICTIONARYWDFLT
  2
AcDbDictionaryWithDefault
  3
AutoCAD 2000
 90
        0
280
     0
281
     0
  0
CLASS
  1
ACDBPLACEHOLDER
  2
AcDbPlaceHolder
  3
AutoCAD 2000
 90
        0
280
     0
281
     0
  0
CLASS
  1
LAYOUT
  2
AcDbLayout
  3
AutoCAD 2000
 90
        0
280
     0
281
     0
  0
CLASS
  1
LONG_TRANSACTION
  2
AcDbLongTransaction
  3
AutoCAD 2000
 90
    32768
280
     0
281
     0
  0
CLASS
  1
LWPOLYLINE
  2
AcDbPolyline
  3
AutoCAD 2000
 90
    32768
280
     0
281
     1
  0
CLASS
  1
HATCH
  2
AcDbHatch
  3
AutoCAD 2000
 90
    32768
280
     0
281
     1
  0
CLASS
  1
XRECORD
  2
AcDbXrecord
  3
AutoCAD 2000
 90
    32768
280
     0
281
     0
  0
CLASS
  1
LONG_TRANSACTION
  2
AcDbLongTransaction
  3
AutoCAD 2000
 90
    32768
280
     0
281
     0
  0
CLASS
  1
LWPOLYLINE
  2
AcDbPolyline
  3
AutoCAD 2000
 90
    32768
280
     0
281
     1
  0
CLASS
  1
HATCH
  2
AcDbHatch
  3
AutoCAD 2000
 90
    32768
280
     0
281
     1
  0
CLASS
  1
XRECORD
  2
AcDbXrecord
  3
AutoCAD 2000
 90
    32768
280
     0
281
     0
  0
CLASS
  1
LONG_TRANSACTION
  2
AcDbLongTransaction
  3
AutoCAD 2000
 90
    32768
280
     0
281
     0
  0
CLASS
  1
LWPOLYLINE
  2
AcDbPolyline
  3
AutoCAD 2000
 90
    32768
280
     0
281
     1
  0
CLASS
  1
HATCH
  2
AcDbHatch
  3
AutoCAD 2000
 90
    32768
280
     0
281
     1
  0
CLASS
  1
XRECORD
  2
AcDbXrecord
  3
AutoCAD 2000
 90
    32768
280
     0
281
     0
  0
CLASS
  1
LONG_TRANSACTION
  2
AcDbLongTransaction
  3
AutoCAD 2000
 90
    32768
280
     0
281
     0
  0
CLASS
  1
LWPOLYLINE
  2
AcDbPolyline
  3
AutoCAD 2000
 90
    32768
280
     0
281
     1
  0
CLASS
  1
HATCH
  2
AcDbHatch
  3
AutoCAD 2000
 90
    32768
280
     0
281
     1
  0
CLASS
  1
XRECORD
  2
AcDbXrecord
  3
AutoCAD 2000
 90
    32768
280
     0
281
     0
  0
ENDSEC
  0
SECTION
  2
TABLES
  0
TABLE
  2
VPORT
  5
EA6E4DC83
330
0
100
AcDbSymbolTable
 70
    10
  0
VPORT
  5
EA6E4DCBB
330
EA6E4DC83
100
AcDbSymbolTableRecord
100
AcDbViewportTableRecord
  2
2
 70
     0
 10
0.5
 20
0.0
 11
1.0
 21
1.0
 12
0.924031
 22
1.052651
 13
0.0
 23
0.0
 14
1.0
 24
1.0
 15
10.0
 25
10.0
 16
0.0
 26
0.0
 36
1.0
 17
0.0
 27
0.0
 37
0.0
 40
2.105302
 41
0.877814
 42
50.0
 43
0.0
 44
0.0
 50
0.0
 51
0.0
 71
     0
 72
   500
 73
     1
 74
     1
 75
     0
 76
     0
 77
     0
 78
     0
281
     0
 65
     1
110
0.0
120
0.0
130
0.0
111
1.0
121
0.0
131
0.0
112
0.0
122
1.0
132
0.0
 79
     0
146
0.0
  0
VPORT
  5
EA6E4DCBC
330
EA6E4DC83
100
AcDbSymbolTableRecord
100
AcDbViewportTableRecord
  2
2
 70
     0
 10
0.0
 20
0.0
 11
0.5
 21
1.0
 12
0.924031
 22
1.052651
 13
0.0
 23
0.0
 14
1.0
 24
1.0
 15
10.0
 25
10.0
 16
0.0
 26
0.0
 36
1.0
 17
0.0
 27
0.0
 37
0.0
 40
2.105302
 41
0.877814
 42
50.0
 43
0.0
 44
0.0
 50
0.0
 51
0.0
 71
     0
 72
   500
 73
     1
 74
     1
 75
     0
 76
     0
 77
     0
 78
     0
281
     0
 65
     1
110
0.0
120
0.0
130
0.0
111
1.0
121
0.0
131
0.0
112
0.0
122
1.0
132
0.0
 79
     0
146
0.0
  0
VPORT
  5
EA6E4DCBD
330
EA6E4DC83
100
AcDbSymbolTableRecord
100
AcDbViewportTableRecord
  2
3
 70
     0
 10
0.0
 20
0.5
 11
1.0
 21
1.0
 12
2.832169999999998
 22
1.052651
 13
0.0
 23
0.0
 14
1.0
 24
1.0
 15
10.0
 25
10.0
 16
0.0
 26
0.0
 36
1.0
 17
0.0
 27
0.0
 37
0.0
 40
2.105302
 41
3.571429
 42
50.0
 43
0.0
 44
0.0
 50
0.0
 51
0.0
 71
     0
 72
   500
 73
     1
 74
     1
 75
     0
 76
     0
 77
     0
 78
     0
281
     0
 65
     1
110
0.0
120
0.0
130
0.0
111
1.0
121
0.0
131
0.0
112
0.0
122
1.0
132
0.0
 79
     0
146
0.0
  0
VPORT
  5
EA6E4DCBE
330
EA6E4DC83
100
AcDbSymbolTableRecord
100
AcDbViewportTableRecord
  2
3
 70
     0
 10
0.0
 20
0.0
 11
1.0
 21
0.5
 12
2.856741999999998
 22
1.052651
 13
0.0
 23
0.0
 14
1.0
 24
1.0
 15
10.0
 25
10.0
 16
0.0
 26
0.0
 36
1.0
 17
0.0
 27
0.0
 37
0.0
 40
2.105302
 41
3.594770999999998
 42
50.0
 43
0.0
 44
0.0
 50
0.0
 51
0.0
 71
     0
 72
   500
 73
     1
 74
     1
 75
     0
 76
     0
 77
     0
 78
     0
281
     0
 65
     1
110
0.0
120
0.0
130
0.0
111
1.0
121
0.0
131
0.0
112
0.0
122
1.0
132
0.0
 79
     0
146
0.0
  0
VPORT
  5
EA6E4DCBF
330
EA6E4DC83
100
AcDbSymbolTableRecord
100
AcDbViewportTableRecord
  2
4
 70
     0
 10
0.5
 20
0.0
 11
1.0
 21
0.5
 12
2.886858
 22
1.052651
 13
0.0
 23
0.0
 14
1.0
 24
1.0
 15
10.0
 25
10.0
 16
0.0
 26
0.0
 36
1.0
 17
0.0
 27
0.0
 37
0.0
 40
4.275206999999999
 41
1.784314
 42
50.0
 43
0.0
 44
0.0
 50
0.0
 51
0.0
 71
     0
 72
   500
 73
     1
 74
     1
 75
     0
 76
     0
 77
     0
 78
     0
281
     0
 65
     1
110
0.0
120
0.0
130
0.0
111
1.0
121
0.0
131
0.0
112
0.0
122
1.0
132
0.0
 79
     0
146
0.0
  0
VPORT
  5
EA6E4DCC0
330
EA6E4DC83
100
AcDbSymbolTableRecord
100
AcDbViewportTableRecord
  2
4
 70
     0
 10
0.5
 20
0.5
 11
1.0
 21
1.0
 12
2.86209
 22
1.052651
 13
0.0
 23
0.0
 14
1.0
 24
1.0
 15
10.0
 25
10.0
 16
0.0
 26
0.0
 36
1.0
 17
0.0
 27
0.0
 37
0.0
 40
4.275206999999999
 41
1.772726999999999
 42
50.0
 43
0.0
 44
0.0
 50
0.0
 51
0.0
 71
     0
 72
   500
 73
     1
 74
     1
 75
     0
 76
     0
 77
     0
 78
     0
281
     0
 65
     1
110
0.0
120
0.0
130
0.0
111
1.0
121
0.0
131
0.0
112
0.0
122
1.0
132
0.0
 79
     0
146
0.0
  0
VPORT
  5
EA6E4DCC1
330
EA6E4DC83
100
AcDbSymbolTableRecord
100
AcDbViewportTableRecord
  2
4
 70
     0
 10
0.0
 20
0.5
 11
0.5
 21
1.0
 12
2.86209
 22
1.052651
 13
0.0
 23
0.0
 14
1.0
 24
1.0
 15
10.0
 25
10.0
 16
0.0
 26
0.0
 36
1.0
 17
0.0
 27
0.0
 37
0.0
 40
4.275206999999999
 41
1.772726999999999
 42
50.0
 43
0.0
 44
0.0
 50
0.0
 51
0.0
 71
     0
 72
   500
 73
     1
 74
     1
 75
     0
 76
     0
 77
     0
 78
     0
281
     0
 65
     1
110
0.0
120
0.0
130
0.0
111
1.0
121
0.0
131
0.0
112
0.0
122
1.0
132
0.0
 79
     0
146
0.0
  0
VPORT
  5
EA6E4DCC2
330
EA6E4DC83
100
AcDbSymbolTableRecord
100
AcDbViewportTableRecord
  2
4
 70
     0
 10
0.0
 20
0.0
 11
0.5
 21
0.5
 12
2.886858
 22
1.052651
 13
0.0
 23
0.0
 14
1.0
 24
1.0
 15
10.0
 25
10.0
 16
0.0
 26
0.0
 36
1.0
 17
0.0
 27
0.0
 37
0.0
 40
4.275206999999999
 41
1.784314
 42
50.0
 43
0.0
 44
0.0
 50
0.0
 51
0.0
 71
     0
 72
   500
 73
     1
 74
     1
 75
     0
 76
     0
 77
     0
 78
     0
281
     0
 65
     1
110
0.0
120
0.0
130
0.0
111
1.0
121
0.0
131
0.0
112
0.0
122
1.0
132
0.0
 79
     0
146
0.0
  0
VPORT
  5
EA6E4F514
330
EA6E4DC83
100
AcDbSymbolTableRecord
100
AcDbViewportTableRecord
  2
*Active
 70
     0
 10
0.0
 20
0.0
 11
1.0
 21
1.0
 12
181.0000008428469
 22
273.0000014964117
 13
0.0
 23
0.0
 14
1.0
 24
1.0
 15
10.0
 25
10.0
 16
0.0
 26
0.0
 36
1.0
 17
0.0
 27
0.0
 37
0.0
 40
549.5112449173202
 41
1.682252922422954
 42
50.0
 43
0.0
 44
0.0
 50
0.0
 51
0.0
 71
     0
 72
   500
 73
     1
 74
     0
 75
     0
 76
     0
 77
     0
 78
     0
281
     0
 65
     1
110
0.0
120
0.0
130
0.0
111
1.0
121
0.0
131
0.0
112
0.0
122
1.0
132
0.0
 79
     0
146
0.0
  0
ENDTAB
  0
TABLE
  2
LTYPE
  5
EA6E4DC80
330
0
100
AcDbSymbolTable
 70
     4
  0
LTYPE
  5
EA6E4DC8C
330
EA6E4DC80
100
AcDbSymbolTableRecord
100
AcDbLinetypeTableRecord
  2
BYBLOCK
 70
     0
  3

 72
    65
 73
     0
 40
0.0
  0
LTYPE
  5
EA6E4DC8D
330
EA6E4DC80
100
AcDbSymbolTableRecord
100
AcDbLinetypeTableRecord
  2
BYLAYER
 70
     0
  3

 72
    65
 73
     0
 40
0.0
  0
LTYPE
  5
EA6E4DC8E
330
EA6E4DC80
100
AcDbSymbolTableRecord
100
AcDbLinetypeTableRecord
  2
CONTINUOUS
 70
     0
  3
実線
 72
    65
 73
     0
 40
0.0
  0
LTYPE
  5
EA6E4DCBA
330
EA6E4DC80
100
AcDbSymbolTableRecord
100
AcDbLinetypeTableRecord
  2
HIDDEN
 70
     0
  3
_ _ _ _ _ _ _ _ _ _ _ _ _ _ _ _ _ _ _ _ _ _ _
 72
    65
 73
     2
 40
0.375
 49
0.25
 74
     0
 49
-0.125
 74
     0
  0
LTYPE
  5
EA6E4EFF6
330
EA6E4DC80
100
AcDbSymbolTableRecord
100
AcDbLinetypeTableRecord
  2
CENTER
 70
     0
  3
____ _ ____ _ ____ _ ____ _ ____ _ ____ _ ____
 72
    65
 73
     4
 40
2.0
 49
1.25
 74
     0
 49
-0.25
 74
     0
 49
0.25
 74
     0
 49
-0.25
 74
     0
  0
LTYPE
  5
EA6E4EFF7
330
EA6E4DC80
100
AcDbSymbolTableRecord
100
AcDbLinetypeTableRecord
  2
PHANTOM
 70
     0
  3
Phantom ______  __  __  ______  __  __  ______
 72
    65
 73
     6
 40
2.5
 49
1.25
 74
     0
 49
-0.25
 74
     0
 49
0.25
 74
     0
 49
-0.25
 74
     0
 49
0.25
 74
     0
 49
-0.25
 74
     0
  0
ENDTAB
  0
TABLE
  2
LAYER
  5
EA6E4DC7D
102
{ACAD_XDICTIONARY
360
EA6E4E3D8
102
}
330
0
100
AcDbSymbolTable
 70
    11
  0
LAYER
  5
EA6E4DC89
330
EA6E4DC7D
100
AcDbSymbolTableRecord
100
AcDbLayerTableRecord
  2
0
 70
     0
 62
     6
  6
CONTINUOUS
370
    -3
390
EA6E4E126
  0
LAYER
  5
EA6E4DCCA
330
EA6E4DC7D
100
AcDbSymbolTableRecord
100
AcDbLayerTableRecord
  2
SUNPOU
 70
     0
 62
     3
  6
CONTINUOUS
370
    -3
390
EA6E4E126
  0
LAYER
  5
EA6E4DCCB
330
EA6E4DC7D
100
AcDbSymbolTableRecord
100
AcDbLayerTableRecord
  2
TEXT
 70
     0
 62
     3
  6
CONTINUOUS
370
    -3
390
EA6E4E126
  0
LAYER
  5
EA6E4DCCC
330
EA6E4DC7D
100
AcDbSymbolTableRecord
100
AcDbLayerTableRecord
  2
SAISEN
 70
     0
 62
     4
  6
CONTINUOUS
370
    -3
390
EA6E4E126
  0
LAYER
  5
EA6E4DCCD
330
EA6E4DC7D
100
AcDbSymbolTableRecord
100
AcDbLayerTableRecord
  2
JISSEN
 70
     0
 62
     7
  6
CONTINUOUS
370
    -3
390
EA6E4E126
  0
LAYER
  5
EA6E4DCCF
330
EA6E4DC7D
100
AcDbSymbolTableRecord
100
AcDbLayerTableRecord
  2
TENSEN
 70
     0
 62
     2
  6
HIDDEN
370
    -3
390
EA6E4E126
  0
LAYER
  5
EA6E4DCD1
330
EA6E4DC7D
100
AcDbSymbolTableRecord
100
AcDbLayerTableRecord
  2
WAKU
 70
     0
 62
     5
  6
CONTINUOUS
370
    -3
390
EA6E4E126
  0
LAYER
  5
EA6E4E3D6
330
EA6E4DC7D
100
AcDbSymbolTableRecord
100
AcDbLayerTableRecord
  2
HATCH
 70
     0
 62
     4
  6
CONTINUOUS
370
    -3
390
EA6E4E126
  0
LAYER
  5
EA6E4EFF8
330
EA6E4DC7D
100
AcDbSymbolTableRecord
100
AcDbLayerTableRecord
  2
ITTEN
 70
     0
 62
     1
  6
CENTER
370
    -3
390
EA6E4E126
  0
LAYER
  5
EA6E4EFF9
102
{ACAD_XDICTIONARY
360
EA6E4EFFA
102
}
330
EA6E4DC7D
100
AcDbSymbolTableRecord
100
AcDbLayerTableRecord
  2
ASSIST
 70
     0
 62
     6
  6
CONTINUOUS
370
    -3
390
EA6E4E126
  0
LAYER
  5
EA6E4EFFD
102
{ACAD_XDICTIONARY
360
EA6E4EFFE
102
}
330
EA6E4DC7D
100
AcDbSymbolTableRecord
100
AcDbLayerTableRecord
  2
IMAGE
 70
     0
 62
     3
  6
PHANTOM
370
    -3
390
EA6E4E126
  0
ENDTAB
  0
TABLE
  2
STYLE
  5
EA6E4DC7E
330
0
100
AcDbSymbolTable
 70
     4
  0
STYLE
  5
EA6E4DC8A
330
EA6E4DC7E
100
AcDbSymbolTableRecord
100
AcDbTextStyleTableRecord
  2
STANDARD
 70
     0
 40
0.0
 41
1.0
 50
0.0
 71
     0
 42
0.2
  3
ROMANS
  4
EXTFONT
  0
STYLE
  5
EA6E4DCB2
330
EA6E4DC7E
100
AcDbSymbolTableRecord
100
AcDbTextStyleTableRecord
  2
K
 70
     0
 40
0.0
 41
1.0
 50
0.0
 71
     0
 42
6.0
  3
SIMPLEX
  4
BIGFONT.SHX
  0
STYLE
  5
EA6E4DCB3
330
EA6E4DC7E
100
AcDbSymbolTableRecord
100
AcDbTextStyleTableRecord
  2
ROMANS
 70
     0
 40
0.0
 41
0.8
 50
0.0
 71
     0
 42
10.0
  3
romans
  4

  0
STYLE
  5
EA6E4DCFB
330
EA6E4DC7E
100
AcDbSymbolTableRecord
100
AcDbTextStyleTableRecord
  2
DIMENSION
 70
     0
 40
0.0
 41
1.0
 50
0.0
 71
     0
 42
2.5
  3
TXT
  4

  0
ENDTAB
  0
TABLE
  2
VIEW
  5
EA6E4DC81
330
0
100
AcDbSymbolTable
 70
     0
  0
ENDTAB
  0
TABLE
  2
UCS
  5
EA6E4DC82
330
0
100
AcDbSymbolTable
 70
     0
  0
ENDTAB
  0
TABLE
  2
APPID
  5
EA6E4DC84
330
0
100
AcDbSymbolTable
 70
     2
  0
APPID
  5
EA6E4DC8B
330
EA6E4DC84
100
AcDbSymbolTableRecord
100
AcDbRegAppTableRecord
  2
ACAD
 70
     0
  0
APPID
  5
EA6E4E3D7
330
EA6E4DC84
100
AcDbSymbolTableRecord
100
AcDbRegAppTableRecord
  2
ASK_MEN_XD
 70
     0
  0
ENDTAB
  0
TABLE
  2
DIMSTYLE
  5
EA6E4DC85
330
0
100
AcDbSymbolTable
 70
     2
100
AcDbDimStyleTable
 71
     0
  0
DIMSTYLE
105
EA6E4DCC5
330
EA6E4DC85
100
AcDbSymbolTableRecord
100
AcDbDimStyleTableRecord
  2
IMAO
 70
     0
 41
1.5
 42
1.0
 43
6.0
 44
1.0
 47
495.0
 73
     0
 74
     0
 77
     1
 78
     8
140
3.0
141
0.0
172
     1
174
     1
271
     2
272
     2
284
     8
285
     8
286
     8
340
EA6E4DCB3
  0
DIMSTYLE
105
EA6E4DCFC
330
EA6E4DC85
100
AcDbSymbolTableRecord
100
AcDbDimStyleTableRecord
  2
STANDARD
 70
     0
 40
2.0
 41
2.0
 42
0.1
 43
10.0
 44
1.5
 73
     0
 74
     0
 78
     8
140
3.0
145
1.0
147
0.1
172
     1
176
   256
177
   256
178
   256
271
     2
272
     2
284
     8
340
EA6E4DCFB
341
EA6E4DCF5
342
EA6E4DCF5
  0
ENDTAB
  0
TABLE
  2
BLOCK_RECORD
  5
EA6E4DC7C
330
0
100
AcDbSymbolTable
 70
     7
  0
BLOCK_RECORD
  5
EA6E4DC92
102
{ACAD_XDICTIONARY
360
EA6E4E1A0
102
}
330
EA6E4DC7C
100
AcDbSymbolTableRecord
100
AcDbBlockTableRecord
  2
*MODEL_SPACE
340
EA6E4EE68
  0
BLOCK_RECORD
  5
EA6E4DC8F
102
{ACAD_XDICTIONARY
360
EA6E4E19E
102
}
330
EA6E4DC7C
100
AcDbSymbolTableRecord
100
AcDbBlockTableRecord
  2
*PAPER_SPACE
340
EA6E4EE69
  0
BLOCK_RECORD
  5
EA6E4DC97
330
EA6E4DC7C
100
AcDbSymbolTableRecord
100
AcDbBlockTableRecord
  2
ARROW
340
0
102
{BLKREFS
331
EA6E4F513
331
EA6E4F323
331
EA6E4F3C9
331
EA6E4F3EC
331
EA6E4F3EE
331
EA6E4F3F0
102
}
  0
BLOCK_RECORD
  5
EA6E4DC9D
330
EA6E4DC7C
100
AcDbSymbolTableRecord
100
AcDbBlockTableRecord
  2
STDGX5
340
0
102
{BLKREFS
331
20
331
21
331
441
102
}
  0
BLOCK_RECORD
  5
EA6E4DCA0
330
EA6E4DC7C
100
AcDbSymbolTableRecord
100
AcDbBlockTableRecord
  2
STDR12J
340
0
102
{BLKREFS
331
296C
102
}
  0
BLOCK_RECORD
  5
EA6E4DCF5
330
EA6E4DC7C
100
AcDbSymbolTableRecord
100
AcDbBlockTableRecord
  2
AR_OPEN
340
0
  0
BLOCK_RECORD
  5
EA6E4E244
330
EA6E4DC7C
100
AcDbSymbolTableRecord
100
AcDbBlockTableRecord
  2
ARROWANG
340
0
102
{BLKREFS
331
EA6E4EC55
331
EA6E4EC8E
331
EA6E4EC96
331
EA6E4ECBB
331
EA6E4ED5F
331
EA6E4ED64
331
EA6E4EE0C
331
EA6E4F381
331
EA6E4F38E
331
EA6E4F3C5
331
EA6E4F3DF
331
EA6E4F403
331
EA6E4F45B
331
EA6E4F503
102
}
  0
BLOCK_RECORD
  5
EA6E4EE6B
330
EA6E4DC7C
100
AcDbSymbolTableRecord
100
AcDbBlockTableRecord
  2
*X6
340
0
102
{BLKREFS
331
EA6E4F41F
102
}
  0
ENDTAB
  0
ENDSEC
  0
SECTION
  2
BLOCKS
  0
BLOCK
  5
EA6E4DCD4
330
EA6E4DC92
100
AcDbEntity
  8
0
100
AcDbBlockBegin
  2
*MODEL_SPACE
 70
     0
 10
0.0
 20
0.0
 30
0.0
  3
*MODEL_SPACE
  1

  0
ENDBLK
  5
EA6E4DCD5
330
EA6E4DC92
100
AcDbEntity
  8
0
100
AcDbBlockEnd
  0
BLOCK
  5
EA6E4DCD2
330
EA6E4DC8F
100
AcDbEntity
 67
     1
  8
0
100
AcDbBlockBegin
  2
*PAPER_SPACE
 70
     0
 10
0.0
 20
0.0
 30
0.0
  3
*PAPER_SPACE
  1

  0
ENDBLK
  5
EA6E4DCD3
330
EA6E4DC8F
100
AcDbEntity
 67
     1
  8
0
100
AcDbBlockEnd
  0
BLOCK
  5
449
330
EA6E4DC97
100
AcDbEntity
  8
0
100
AcDbBlockBegin
  2
ARROW
 70
     0
 10
1.0
 20
0.5
 30
0.0
  3
ARROW
  1

  0
LINE
  5
44A
330
EA6E4DC97
100
AcDbEntity
  8
0
100
AcDbLine
 10
1.0
 20
0.5
 30
0.0
 11
-0.5
 21
0.098076
 31
0.0
  0
LINE
  5
44B
330
EA6E4DC97
100
AcDbEntity
  8
0
100
AcDbLine
 10
0.0
 20
0.5
 30
0.0
 11
1.0
 21
0.5
 31
0.0
  0
LINE
  5
44C
330
EA6E4DC97
100
AcDbEntity
  8
0
100
AcDbLine
 10
1.0
 20
0.5
 30
0.0
 11
-0.5
 21
0.9019239999999999
 31
0.0
  0
ENDBLK
  5
44D
330
EA6E4DC97
100
AcDbEntity
  8
0
100
AcDbBlockEnd
  0
BLOCK
  5
142F
330
EA6E4DC9D
100
AcDbEntity
  8
0
100
AcDbBlockBegin
  2
STDGX5
 70
     0
 10
0.0
 20
0.0
 30
0.0
  3
STDGX5
  1

  0
ENDBLK
  5
1430
330
EA6E4DC9D
100
AcDbEntity
  8
0
100
AcDbBlockEnd
  0
BLOCK
  5
2946
330
EA6E4DCA0
100
AcDbEntity
  8
0
100
AcDbBlockBegin
  2
STDR12J
 70
     0
 10
0.0
 20
0.0
 30
0.0
  3
STDR12J
  1

  0
ENDBLK
  5
296B
330
EA6E4DCA0
100
AcDbEntity
  8
0
100
AcDbBlockEnd
  0
BLOCK
  5
EA6E4DCF9
330
EA6E4DCF5
100
AcDbEntity
  8
0
100
AcDbBlockBegin
  2
AR_OPEN
 70
     0
 10
0.0
 20
0.0
 30
0.0
  3
AR_OPEN
  1

  0
LINE
  5
EA6E4DCF6
330
EA6E4DCF5
100
AcDbEntity
  8
0
 62
     0
100
AcDbLine
 10
-1.0
 20
0.0
 30
0.0
 11
0.0
 21
0.0
 31
0.0
  0
LINE
  5
EA6E4DCF7
330
EA6E4DCF5
100
AcDbEntity
  8
0
 62
     0
100
AcDbLine
 10
0.0
 20
0.0
 30
0.0
 11
-1.0
 21
0.267949
 31
0.0
  0
LINE
  5
EA6E4DCF8
330
EA6E4DCF5
100
AcDbEntity
  8
0
 62
     0
100
AcDbLine
 10
0.0
 20
0.0
 30
0.0
 11
-1.0
 21
-0.267949
 31
0.0
  0
ENDBLK
  5
EA6E4DCFA
330
EA6E4DCF5
100
AcDbEntity
  8
0
100
AcDbBlockEnd
  0
BLOCK
  5
EA6E4E247
330
EA6E4E244
100
AcDbEntity
  8
0
100
AcDbBlockBegin
  2
ARROWANG
 70
     0
 10
0.0
 20
0.0
 30
0.0
  3
ARROWANG
  1

  0
LINE
  5
EA6E4E245
330
EA6E4E244
100
AcDbEntity
  8
SUNPOU
100
AcDbLine
 10
0.0
 20
0.0
 30
0.0
 11
-1.499999999999956
 21
0.401923788646741
 31
0.0
  0
LINE
  5
EA6E4E246
330
EA6E4E244
100
AcDbEntity
  8
SUNPOU
100
AcDbLine
 10
0.0
 20
0.0
 30
0.0
 11
-1.500000000000027
 21
-0.4019237886467124
 31
0.0
  0
ENDBLK
  5
EA6E4E248
330
EA6E4E244
100
AcDbEntity
  8
0
100
AcDbBlockEnd
  0
BLOCK
  5
EA6E4EFF4
330
EA6E4EE6B
100
AcDbEntity
  8
0
100
AcDbBlockBegin
  2
*X6
 70
     1
 10
0.0
 20
0.0
 30
0.0
  3
*X6
  1

  0
LINE
  5
EA6E4EE6C
330
EA6E4EE6B
100
AcDbEntity
  8
0
 62
     0
100
AcDbLine
 10
13.0
 20
1.5
 30
0.0
 11
13.0
 21
3.0
 31
0.0
  0
LINE
  5
EA6E4EE6D
330
EA6E4EE6B
100
AcDbEntity
  8
0
 62
     0
100
AcDbLine
 10
12.8
 20
0.5011846473685893
 30
0.0
 11
12.8
 21
1.501244022154416
 31
0.0
  0
LINE
  5
EA6E4EE6E
330
EA6E4EE6B
100
AcDbEntity
  8
0
 62
     0
100
AcDbLine
 10
12.8
 20
16.49875597784558
 30
0.0
 11
12.8
 21
17.49881535263141
 31
0.0
  0
LINE
  5
EA6E4EE6F
330
EA6E4EE6B
100
AcDbEntity
  8
0
 62
     0
100
AcDbLine
 10
12.8
 20
1.502736746385633
 30
0.0
 11
12.8
 21
3.003293554097716
 31
0.0
  0
LINE
  5
EA6E4EE70
330
EA6E4EE6B
100
AcDbEntity
  8
0
 62
     0
100
AcDbLine
 10
12.8
 20
14.99670644590227
 30
0.0
 11
12.8
 21
16.49726325361435
 31
0.0
  0
LINE
  5
EA6E4EE71
330
EA6E4EE6B
100
AcDbEntity
  8
0
 62
     0
100
AcDbLine
 10
12.8
 20
8.252736746385634
 30
0.0
 11
12.8
 21
9.753293554097712
 31
0.0
  0
LINE
  5
EA6E4EE72
330
EA6E4EE6B
100
AcDbEntity
  8
0
 62
     0
100
AcDbLine
 10
12.6
 20
0.5047390883533396
 30
0.0
 11
12.6
 21
1.504976666345426
 31
0.0
  0
LINE
  5
EA6E4EE73
330
EA6E4EE6B
100
AcDbEntity
  8
0
 62
     0
100
AcDbLine
 10
12.6
 20
16.49502333365457
 30
0.0
 11
12.6
 21
17.49526091164665
 31
0.0
  0
LINE
  5
EA6E4EE74
330
EA6E4EE6B
100
AcDbEntity
  8
0
 62
     0
100
AcDbLine
 10
12.6
 20
1.510953142904804
 30
0.0
 11
12.6
 21
3.013184954832298
 31
0.0
  0
LINE
  5
EA6E4EE75
330
EA6E4EE6B
100
AcDbEntity
  8
0
 62
     0
100
AcDbLine
 10
12.6
 20
14.9868150451677
 30
0.0
 11
12.6
 21
16.48904685709519
 31
0.0
  0
LINE
  5
EA6E4EE76
330
EA6E4EE6B
100
AcDbEntity
  8
0
 62
     0
100
AcDbLine
 10
12.6
 20
8.260953142904803
 30
0.0
 11
12.6
 21
9.763184954832301
 31
0.0
  0
LINE
  5
EA6E4EE77
330
EA6E4EE6B
100
AcDbEntity
  8
0
 62
     0
100
AcDbLine
 10
12.4
 20
0.5106648206422692
 30
0.0
 11
12.4
 21
1.511199667098658
 31
0.0
  0
LINE
  5
EA6E4EE78
330
EA6E4EE6B
100
AcDbEntity
  8
0
 62
     0
100
AcDbLine
 10
12.4
 20
16.48880033290133
 30
0.0
 11
12.4
 21
17.48933517935772
 31
0.0
  0
LINE
  5
EA6E4EE79
330
EA6E4EE6B
100
AcDbEntity
  8
0
 62
     0
100
AcDbLine
 10
12.4
 20
1.524667731119553
 30
0.0
 11
12.4
 21
3.029706593353226
 31
0.0
  0
LINE
  5
EA6E4EE7A
330
EA6E4EE6B
100
AcDbEntity
  8
0
 62
     0
100
AcDbLine
 10
12.4
 20
14.97029340664677
 30
0.0
 11
12.4
 21
16.47533226888044
 31
0.0
  0
LINE
  5
EA6E4EE7B
330
EA6E4EE6B
100
AcDbEntity
  8
0
 62
     0
100
AcDbLine
 10
12.4
 20
8.274667731119556
 30
0.0
 11
12.4
 21
9.779706593353227
 31
0.0
  0
LINE
  5
EA6E4EE7C
330
EA6E4EE6B
100
AcDbEntity
  8
0
 62
     0
100
AcDbLine
 10
12.19999999999999
 20
0.5189643438906657
 30
0.0
 11
12.19999999999999
 21
1.51991591977186
 31
0.0
  0
LINE
  5
EA6E4EE7D
330
EA6E4EE6B
100
AcDbEntity
  8
0
 62
     0
100
AcDbLine
 10
12.19999999999999
 20
16.48008408022814
 30
0.0
 11
12.19999999999999
 21
17.48103565610933
 31
0.0
  0
LINE
  5
EA6E4EE7E
330
EA6E4EE6B
100
AcDbEntity
  8
0
 62
     0
100
AcDbLine
 10
12.19999999999999
 20
1.543911647054931
 30
0.0
 11
12.19999999999999
 21
3.052913047755091
 31
0.0
  0
LINE
  5
EA6E4EE7F
330
EA6E4EE6B
100
AcDbEntity
  8
0
 62
     0
100
AcDbLine
 10
12.19999999999999
 20
14.94708695224491
 30
0.0
 11
12.19999999999999
 21
16.45608835294505
 31
0.0
  0
LINE
  5
EA6E4EE80
330
EA6E4EE6B
100
AcDbEntity
  8
0
 62
     0
100
AcDbLine
 10
12.19999999999999
 20
8.293911647054933
 30
0.0
 11
12.19999999999999
 21
9.802913047755092
 31
0.0
  0
LINE
  5
EA6E4EE81
330
EA6E4EE6B
100
AcDbEntity
  8
0
 62
     0
100
AcDbLine
 10
12.0
 20
0.5296411650021327
 30
0.0
 11
12.0
 21
1.531129487302989
 31
0.0
  0
LINE
  5
EA6E4EE82
330
EA6E4EE6B
100
AcDbEntity
  8
0
 62
     0
100
AcDbLine
 10
12.0
 20
16.468870512697
 30
0.0
 11
12.0
 21
17.47035883499786
 31
0.0
  0
LINE
  5
EA6E4EE83
330
EA6E4EE6B
100
AcDbEntity
  8
0
 62
     0
100
AcDbLine
 10
12.0
 20
1.568728977850376
 30
0.0
 11
12.0
 21
3.082881996483852
 31
0.0
  0
LINE
  5
EA6E4EE84
330
EA6E4EE6B
100
AcDbEntity
  8
0
 62
     0
100
AcDbLine
 10
12.0
 20
14.91711800351614
 30
0.0
 11
12.0
 21
16.43127102214962
 31
0.0
  0
LINE
  5
EA6E4EE85
330
EA6E4EE6B
100
AcDbEntity
  8
0
 62
     0
100
AcDbLine
 10
12.0
 20
8.318728977850376
 30
0.0
 11
12.0
 21
9.832881996483848
 31
0.0
  0
LINE
  5
EA6E4EE86
330
EA6E4EE6B
100
AcDbEntity
  8
0
 62
     0
100
AcDbLine
 10
11.8
 20
0.5426998055585415
 30
0.0
 11
11.8
 21
1.544845609709006
 31
0.0
  0
LINE
  5
EA6E4EE87
330
EA6E4EE6B
100
AcDbEntity
  8
0
 62
     0
100
AcDbLine
 10
11.8
 20
16.45515439029098
 30
0.0
 11
11.8
 21
17.45730019444144
 31
0.0
  0
LINE
  5
EA6E4EE88
330
EA6E4EE6B
100
AcDbEntity
  8
0
 62
     0
100
AcDbLine
 10
11.8
 20
1.599177274433096
 30
0.0
 11
11.8
 21
3.119715547134022
 31
0.0
  0
LINE
  5
EA6E4EE89
330
EA6E4EE6B
100
AcDbEntity
  8
0
 62
     0
100
AcDbLine
 10
11.8
 20
14.88028445286597
 30
0.0
 11
11.8
 21
16.4008227255669
 31
0.0
  0
LINE
  5
EA6E4EE8A
330
EA6E4EE6B
100
AcDbEntity
  8
0
 62
     0
100
AcDbLine
 10
11.8
 20
8.349177274433094
 30
0.0
 11
11.8
 21
9.869715547134024
 31
0.0
  0
LINE
  5
EA6E4EE8B
330
EA6E4EE6B
100
AcDbEntity
  8
0
 62
     0
100
AcDbLine
 10
11.59999999999999
 20
0.5581458114356864
 30
0.0
 11
11.59999999999999
 21
1.561070716387176
 31
0.0
  0
LINE
  5
EA6E4EE8C
330
EA6E4EE6B
100
AcDbEntity
  8
0
 62
     0
100
AcDbLine
 10
11.59999999999999
 20
16.43892928361282
 30
0.0
 11
11.59999999999999
 21
17.44185418856431
 31
0.0
  0
LINE
  5
EA6E4EE8D
330
EA6E4EE6B
100
AcDbEntity
  8
0
 62
     0
100
AcDbLine
 10
11.59999999999999
 20
1.635328234354861
 30
0.0
 11
11.59999999999999
 21
3.163542034954736
 31
0.0
  0
LINE
  5
EA6E4EE8E
330
EA6E4EE6B
100
AcDbEntity
  8
0
 62
     0
100
AcDbLine
 10
11.59999999999999
 20
14.83645796504525
 30
0.0
 11
11.59999999999999
 21
16.36467176564513
 31
0.0
  0
LINE
  5
EA6E4EE8F
330
EA6E4EE6B
100
AcDbEntity
  8
0
 62
     0
100
AcDbLine
 10
11.59999999999999
 20
8.385328234354862
 30
0.0
 11
11.59999999999999
 21
9.913542034954735
 31
0.0
  0
LINE
  5
EA6E4EE90
330
EA6E4EE6B
100
AcDbEntity
  8
0
 62
     0
100
AcDbLine
 10
11.4
 20
0.5759857646525575
 30
0.0
 11
11.4
 21
1.579812441286875
 31
0.0
  0
LINE
  5
EA6E4EE91
330
EA6E4EE6B
100
AcDbEntity
  8
0
 62
     0
100
AcDbLine
 10
11.4
 20
16.42018755871312
 30
0.0
 11
11.4
 21
17.42401423534744
 31
0.0
  0
LINE
  5
EA6E4EE92
330
EA6E4EE6B
100
AcDbEntity
  8
0
 62
     0
100
AcDbLine
 10
11.4
 20
1.677268574155954
 30
0.0
 11
11.4
 21
3.214520049132957
 31
0.0
  0
LINE
  5
EA6E4EE93
330
EA6E4EE6B
100
AcDbEntity
  8
0
 62
     0
100
AcDbLine
 10
11.4
 20
14.78547995086702
 30
0.0
 11
11.4
 21
16.32273142584404
 31
0.0
  0
LINE
  5
EA6E4EE94
330
EA6E4EE6B
100
AcDbEntity
  8
0
 62
     0
100
AcDbLine
 10
11.4
 20
8.427268574155956
 30
0.0
 11
11.4
 21
9.964520049132961
 31
0.0
  0
LINE
  5
EA6E4EE95
330
EA6E4EE6B
100
AcDbEntity
  8
0
 62
     0
100
AcDbLine
 10
11.19999999999999
 20
0.5962272975137566
 30
0.0
 11
11.19999999999999
 21
1.601079641035706
 31
0.0
  0
LINE
  5
EA6E4EE96
330
EA6E4EE6B
100
AcDbEntity
  8
0
 62
     0
100
AcDbLine
 10
11.19999999999999
 20
16.39892035896429
 30
0.0
 11
11.19999999999999
 21
17.40377270248623
 31
0.0
  0
LINE
  5
EA6E4EE97
330
EA6E4EE6B
100
AcDbEntity
  8
0
 62
     0
100
AcDbLine
 10
11.19999999999999
 20
1.725101116855704
 30
0.0
 11
11.19999999999999
 21
3.274470700593997
 31
0.0
  0
LINE
  5
EA6E4EE98
330
EA6E4EE6B
100
AcDbEntity
  8
0
 62
     0
100
AcDbLine
 10
11.19999999999999
 20
14.72552929940599
 30
0.0
 11
11.19999999999999
 21
16.27489888314428
 31
0.0
  0
LINE
  5
EA6E4EE99
330
EA6E4EE6B
100
AcDbEntity
  8
0
 62
     0
100
AcDbLine
 10
11.19999999999999
 20
8.475101116855702
 30
0.0
 11
11.19999999999999
 21
10.02447070059399
 31
0.0
  0
LINE
  5
EA6E4EE9A
330
EA6E4EE6B
100
AcDbEntity
  8
0
 62
     0
100
AcDbLine
 10
11.0
 20
0.6188791091165271
 30
0.0
 11
11.0
 21
1.624882416121604
 31
0.0
  0
LINE
  5
EA6E4EE9B
330
EA6E4EE6B
100
AcDbEntity
  8
0
 62
     0
100
AcDbLine
 10
11.0
 20
16.37511758387839
 30
0.0
 11
11.0
 21
17.38112089088347
 31
0.0
  0
LINE
  5
EA6E4EE9C
330
EA6E4EE6B
100
AcDbEntity
  8
0
 62
     0
100
AcDbLine
 10
11.0
 20
1.778946127801587
 30
0.0
 11
11.0
 21
3.345224713883404
 31
0.0
  0
LINE
  5
EA6E4EE9D
330
EA6E4EE6B
100
AcDbEntity
  8
0
 62
     0
100
AcDbLine
 10
11.0
 20
14.65477528611659
 30
0.0
 11
11.0
 21
16.22105387219841
 31
0.0
  0
LINE
  5
EA6E4EE9E
330
EA6E4EE6B
100
AcDbEntity
  8
0
 62
     0
100
AcDbLine
 10
11.0
 20
8.528946127801587
 30
0.0
 11
11.0
 21
10.0952247138834
 31
0.0
  0
LINE
  5
EA6E4EE9F
330
EA6E4EE6B
100
AcDbEntity
  8
0
 62
     0
100
AcDbLine
 10
10.8
 20
0.6439509843066205
 30
0.0
 11
10.8
 21
1.651232135250402
 31
0.0
  0
LINE
  5
EA6E4EEA0
330
EA6E4EE6B
100
AcDbEntity
  8
0
 62
     0
100
AcDbLine
 10
10.8
 20
16.34876786474959
 30
0.0
 11
10.8
 21
17.35604901569336
 31
0.0
  0
LINE
  5
EA6E4EEA1
330
EA6E4EE6B
100
AcDbEntity
  8
0
 62
     0
100
AcDbLine
 10
10.8
 20
1.838965527600105
 30
0.0
 11
10.8
 21
3.427362928229201
 31
0.0
  0
LINE
  5
EA6E4EEA2
330
EA6E4EE6B
100
AcDbEntity
  8
0
 62
     0
100
AcDbLine
 10
10.8
 20
14.57263707177079
 30
0.0
 11
10.8
 21
16.16103447239989
 31
0.0
  0
LINE
  5
EA6E4EEA3
330
EA6E4EE6B
100
AcDbEntity
  8
0
 62
     0
100
AcDbLine
 10
10.8
 20
8.588965527600102
 30
0.0
 11
10.8
 21
10.17736292822919
 31
0.0
  0
LINE
  5
EA6E4EEA4
330
EA6E4EE6B
100
AcDbEntity
  8
0
 62
     0
100
AcDbLine
 10
10.6
 20
0.6714538151807618
 30
0.0
 11
10.6
 21
1.680141463018063
 31
0.0
  0
LINE
  5
EA6E4EEA5
330
EA6E4EE6B
100
AcDbEntity
  8
0
 62
     0
100
AcDbLine
 10
10.6
 20
16.31985853698194
 30
0.0
 11
10.6
 21
17.32854618481924
 31
0.0
  0
LINE
  5
EA6E4EEA6
330
EA6E4EE6B
100
AcDbEntity
  8
0
 62
     0
100
AcDbLine
 10
10.6
 20
1.906497453997511
 30
0.0
 11
10.6
 21
3.521613256092562
 31
0.0
  0
LINE
  5
EA6E4EEA7
330
EA6E4EE6B
100
AcDbEntity
  8
0
 62
     0
100
AcDbLine
 10
10.6
 20
14.47838674390743
 30
0.0
 11
10.6
 21
16.09350254600249
 31
0.0
  0
LINE
  5
EA6E4EEA8
330
EA6E4EE6B
100
AcDbEntity
  8
0
 62
     0
100
AcDbLine
 10
10.6
 20
8.656497453997507
 30
0.0
 11
10.6
 21
10.27161325609256
 31
0.0
  0
LINE
  5
EA6E4EEA9
330
EA6E4EE6B
100
AcDbEntity
  8
0
 62
     0
100
AcDbLine
 10
10.4
 20
0.7013996252478309
 30
0.0
 11
10.4
 21
1.711624391057782
 31
0.0
  0
LINE
  5
EA6E4EEAA
330
EA6E4EE6B
100
AcDbEntity
  8
0
 62
     0
100
AcDbLine
 10
10.4
 20
16.28837560894221
 30
0.0
 11
10.4
 21
17.29860037475216
 31
0.0
  0
LINE
  5
EA6E4EEAB
330
EA6E4EE6B
100
AcDbEntity
  8
0
 62
     0
100
AcDbLine
 10
10.4
 20
1.982488280859818
 30
0.0
 11
10.4
 21
3.628889777131711
 31
0.0
  0
LINE
  5
EA6E4EEAC
330
EA6E4EE6B
100
AcDbEntity
  8
0
 62
     0
100
AcDbLine
 10
10.4
 20
14.37111022286828
 30
0.0
 11
10.4
 21
16.01751171914017
 31
0.0
  0
LINE
  5
EA6E4EEAD
330
EA6E4EE6B
100
AcDbEntity
  8
0
 62
     0
100
AcDbLine
 10
10.4
 20
8.732488280859815
 30
0.0
 11
10.4
 21
10.37888977713171
 31
0.0
  0
LINE
  5
EA6E4EEAE
330
EA6E4EE6B
100
AcDbEntity
  8
0
 62
     0
100
AcDbLine
 10
10.2
 20
0.7338015963764449
 30
0.0
 11
10.2
 21
1.745696272844693
 31
0.0
  0
LINE
  5
EA6E4EEAF
330
EA6E4EE6B
100
AcDbEntity
  8
0
 62
     0
100
AcDbLine
 10
10.2
 20
16.2543037271553
 30
0.0
 11
10.2
 21
17.26619840362355
 31
0.0
  0
LINE
  5
EA6E4EEB0
330
EA6E4EE6B
100
AcDbEntity
  8
0
 62
     0
100
AcDbLine
 10
10.2
 20
2.067310355584581
 30
0.0
 11
10.2
 21
3.750348873208846
 31
0.0
  0
LINE
  5
EA6E4EEB1
330
EA6E4EE6B
100
AcDbEntity
  8
0
 62
     0
100
AcDbLine
 10
10.2
 20
14.24965112679115
 30
0.0
 11
10.2
 21
15.93268964441541
 31
0.0
  0
LINE
  5
EA6E4EEB2
330
EA6E4EE6B
100
AcDbEntity
  8
0
 62
     0
100
AcDbLine
 10
10.2
 20
8.817310355584577
 30
0.0
 11
10.2
 21
10.50034887320884
 31
0.0
  0
LINE
  5
EA6E4EEB3
330
EA6E4EE6B
100
AcDbEntity
  8
0
 62
     0
100
AcDbLine
 10
10.0
 20
0.7686740986732376
 30
0.0
 11
10.0
 21
1.782373862365612
 31
0.0
  0
LINE
  5
EA6E4EEB4
330
EA6E4EE6B
100
AcDbEntity
  8
0
 62
     0
100
AcDbLine
 10
10.0
 20
16.21762613763437
 30
0.0
 11
10.0
 21
17.23132590132675
 31
0.0
  0
LINE
  5
EA6E4EEB5
330
EA6E4EE6B
100
AcDbEntity
  8
0
 62
     0
100
AcDbLine
 10
10.0
 20
2.16140561915966
 30
0.0
 11
10.0
 21
3.890156991938432
 31
0.0
  0
LINE
  5
EA6E4EEB6
330
EA6E4EE6B
100
AcDbEntity
  8
0
 62
     0
100
AcDbLine
 10
10.0
 20
14.10984300806157
 30
0.0
 11
10.0
 21
15.83859438084034
 31
0.0
  0
LINE
  5
EA6E4EEB7
330
EA6E4EE6B
100
AcDbEntity
  8
0
 62
     0
100
AcDbLine
 10
10.0
 20
5.004798018908181
 30
0.0
 11
10.0
 21
6.004798018908182
 31
0.0
  0
LINE
  5
EA6E4EEB8
330
EA6E4EE6B
100
AcDbEntity
  8
0
 62
     0
100
AcDbLine
 10
10.0
 20
8.911405619159657
 30
0.0
 11
10.0
 21
10.64015699193842
 31
0.0
  0
LINE
  5
EA6E4EEB9
330
EA6E4EE6B
100
AcDbEntity
  8
0
 62
     0
100
AcDbLine
 10
9.8
 20
0.8060327234544644
 30
0.0
 11
9.8
 21
1.821675356888276
 31
0.0
  0
LINE
  5
EA6E4EEBA
330
EA6E4EE6B
100
AcDbEntity
  8
0
 62
     0
100
AcDbLine
 10
9.8
 20
16.17832464311171
 30
0.0
 11
9.8
 21
17.19396727654553
 31
0.0
  0
LINE
  5
EA6E4EEBB
330
EA6E4EE6B
100
AcDbEntity
  8
0
 62
     0
100
AcDbLine
 10
9.8
 20
2.265299594642037
 30
0.0
 11
9.8
 21
4.056258282395599
 31
0.0
  0
LINE
  5
EA6E4EEBC
330
EA6E4EE6B
100
AcDbEntity
  8
0
 62
     0
100
AcDbLine
 10
9.8
 20
13.9437417176044
 30
0.0
 11
9.8
 21
15.73470040535796
 31
0.0
  0
LINE
  5
EA6E4EEBD
330
EA6E4EE6B
100
AcDbEntity
  8
0
 62
     0
100
AcDbLine
 10
9.8
 20
5.004798018908181
 30
0.0
 11
9.8
 21
6.004798018908182
 31
0.0
  0
LINE
  5
EA6E4EEBE
330
EA6E4EE6B
100
AcDbEntity
  8
0
 62
     0
100
AcDbLine
 10
9.8
 20
9.015299594642034
 30
0.0
 11
9.8
 21
10.80625828239559
 31
0.0
  0
LINE
  5
EA6E4EEBF
330
EA6E4EE6B
100
AcDbEntity
  8
0
 62
     0
100
AcDbLine
 10
9.599999999999999
 20
0.8458943194931476
 30
0.0
 11
9.599999999999999
 21
1.863620444093796
 31
0.0
  0
LINE
  5
EA6E4EEC0
330
EA6E4EE6B
100
AcDbEntity
  8
0
 62
     0
100
AcDbLine
 10
9.599999999999999
 20
16.13637955590619
 30
0.0
 11
9.599999999999999
 21
17.15410568050685
 31
0.0
  0
LINE
  5
EA6E4EEC1
330
EA6E4EE6B
100
AcDbEntity
  8
0
 62
     0
100
AcDbLine
 10
9.599999999999999
 20
2.379619810236111
 30
0.0
 11
9.599999999999999
 21
4.255129338783956
 31
0.0
  0
LINE
  5
EA6E4EEC2
330
EA6E4EE6B
100
AcDbEntity
  8
0
 62
     0
100
AcDbLine
 10
9.599999999999999
 20
13.74487066121605
 30
0.0
 11
9.599999999999999
 21
15.62038018976388
 31
0.0
  0
LINE
  5
EA6E4EEC3
330
EA6E4EE6B
100
AcDbEntity
  8
0
 62
     0
100
AcDbLine
 10
9.599999999999999
 20
5.004798018908181
 30
0.0
 11
9.600000000000003
 21
6.004798018908182
 31
0.0
  0
LINE
  5
EA6E4EEC4
330
EA6E4EE6B
100
AcDbEntity
  8
0
 62
     0
100
AcDbLine
 10
9.599999999999999
 20
9.129619810236112
 30
0.0
 11
9.599999999999999
 21
11.00512933878394
 31
0.0
  0
LINE
  5
EA6E4EEC5
330
EA6E4EE6B
100
AcDbEntity
  8
0
 62
     0
100
AcDbLine
 10
9.4
 20
0.8882770327457548
 30
0.0
 11
9.4
 21
1.908230353869035
 31
0.0
  0
LINE
  5
EA6E4EEC6
330
EA6E4EE6B
100
AcDbEntity
  8
0
 62
     0
100
AcDbLine
 10
9.4
 20
16.09176964613095
 30
0.0
 11
9.4
 21
17.11172296725424
 31
0.0
  0
LINE
  5
EA6E4EEC7
330
EA6E4EE6B
100
AcDbEntity
  8
0
 62
     0
100
AcDbLine
 10
9.4
 20
2.505120428334417
 30
0.0
 11
9.4
 21
4.497576932367894
 31
0.0
  0
LINE
  5
EA6E4EEC8
330
EA6E4EE6B
100
AcDbEntity
  8
0
 62
     0
100
AcDbLine
 10
9.4
 20
13.5024230676321
 30
0.0
 11
9.4
 21
15.49487957166558
 31
0.0
  0
LINE
  5
EA6E4EEC9
330
EA6E4EE6B
100
AcDbEntity
  8
0
 62
     0
100
AcDbLine
 10
9.4
 20
5.004798018908181
 30
0.0
 11
9.4
 21
6.004798018908182
 31
0.0
  0
LINE
  5
EA6E4EECA
330
EA6E4EE6B
100
AcDbEntity
  8
0
 62
     0
100
AcDbLine
 10
9.4
 20
9.255120428334413
 30
0.0
 11
9.4
 21
11.24757693236789
 31
0.0
  0
LINE
  5
EA6E4EECB
330
EA6E4EE6B
100
AcDbEntity
  8
0
 62
     0
100
AcDbLine
 10
9.199999999999999
 20
0.9332003497861832
 30
0.0
 11
9.199999999999999
 21
1.955527915091238
 31
0.0
  0
LINE
  5
EA6E4EECC
330
EA6E4EE6B
100
AcDbEntity
  8
0
 62
     0
100
AcDbLine
 10
9.199999999999999
 20
16.04447208490875
 30
0.0
 11
9.199999999999999
 21
17.06679965021381
 31
0.0
  0
LINE
  5
EA6E4EECD
330
EA6E4EE6B
100
AcDbEntity
  8
0
 62
     0
100
AcDbLine
 10
9.199999999999999
 20
2.642715771748799
 30
0.0
 11
9.199999999999999
 21
4.809644645891883
 31
0.0
  0
LINE
  5
EA6E4EECE
330
EA6E4EE6B
100
AcDbEntity
  8
0
 62
     0
100
AcDbLine
 10
9.199999999999999
 20
13.19035535410812
 30
0.0
 11
9.199999999999999
 21
15.3572842282512
 31
0.0
  0
LINE
  5
EA6E4EECF
330
EA6E4EE6B
100
AcDbEntity
  8
0
 62
     0
100
AcDbLine
 10
9.199999999999999
 20
5.004798018908181
 30
0.0
 11
9.199999999999999
 21
6.004798018908182
 31
0.0
  0
LINE
  5
EA6E4EED0
330
EA6E4EE6B
100
AcDbEntity
  8
0
 62
     0
100
AcDbLine
 10
9.199999999999999
 20
9.392715771748797
 30
0.0
 11
9.199999999999999
 21
11.55964464589189
 31
0.0
  0
LINE
  5
EA6E4EED1
330
EA6E4EE6B
100
AcDbEntity
  8
0
 62
     0
100
AcDbLine
 10
9.0
 20
0.9806851452009935
 30
0.0
 11
9.0
 21
2.005537617777612
 31
0.0
  0
LINE
  5
EA6E4EED2
330
EA6E4EE6B
100
AcDbEntity
  8
0
 62
     0
100
AcDbLine
 10
9.0
 20
15.99446238222238
 30
0.0
 11
9.0
 21
17.01931485479899
 31
0.0
  0
LINE
  5
EA6E4EED3
330
EA6E4EE6B
100
AcDbEntity
  8
0
 62
     0
100
AcDbLine
 10
9.0
 20
2.794145186405889
 30
0.0
 11
9.0
 21
6.004798018908182
 31
0.0
  0
LINE
  5
EA6E4EED4
330
EA6E4EE6B
100
AcDbEntity
  8
0
 62
     0
100
AcDbLine
 10
9.0
 20
9.5441451864059
 30
0.0
 11
9.0
 21
15.20604659134991
 31
0.0
  0
LINE
  5
EA6E4EED5
330
EA6E4EE6B
100
AcDbEntity
  8
0
 62
     0
100
AcDbLine
 10
8.8
 20
1.030753733228884
 30
0.0
 11
8.8
 21
2.058285681017128
 31
0.0
  0
LINE
  5
EA6E4EED6
330
EA6E4EE6B
100
AcDbEntity
  8
0
 62
     0
100
AcDbLine
 10
8.8
 20
15.94171431898286
 30
0.0
 11
8.8
 21
16.96924626677111
 31
0.0
  0
LINE
  5
EA6E4EED7
330
EA6E4EE6B
100
AcDbEntity
  8
0
 62
     0
100
AcDbLine
 10
8.8
 20
2.964241435429821
 30
0.0
 11
8.8
 21
6.004798018908182
 31
0.0
  0
LINE
  5
EA6E4EED8
330
EA6E4EE6B
100
AcDbEntity
  8
0
 62
     0
100
AcDbLine
 10
8.8
 20
9.71424143542983
 30
0.0
 11
8.8
 21
15.03741403325012
 31
0.0
  0
LINE
  5
EA6E4EED9
330
EA6E4EE6B
100
AcDbEntity
  8
0
 62
     0
100
AcDbLine
 10
8.599999999999999
 20
1.083429923959655
 30
0.0
 11
8.599999999999999
 21
2.113812192151339
 31
0.0
  0
LINE
  5
EA6E4EEDA
330
EA6E4EE6B
100
AcDbEntity
  8
0
 62
     0
100
AcDbLine
 10
8.599999999999999
 20
15.88618780784866
 30
0.0
 11
8.599999999999999
 21
16.91657007604034
 31
0.0
  0
LINE
  5
EA6E4EEDB
330
EA6E4EE6B
100
AcDbEntity
  8
0
 62
     0
100
AcDbLine
 10
8.599999999999999
 20
3.156508117249325
 30
0.0
 11
8.599999999999999
 21
6.004798018908182
 31
0.0
  0
LINE
  5
EA6E4EEDC
330
EA6E4EE6B
100
AcDbEntity
  8
0
 62
     0
100
AcDbLine
 10
8.599999999999999
 20
9.906508117249334
 30
0.0
 11
8.599999999999999
 21
14.84847420540885
 31
0.0
  0
LINE
  5
EA6E4EEDD
330
EA6E4EE6B
100
AcDbEntity
  8
0
 62
     0
100
AcDbLine
 10
8.4
 20
1.138739084443542
 30
0.0
 11
8.4
 21
2.172812631433949
 31
0.0
  0
LINE
  5
EA6E4EEDE
330
EA6E4EE6B
100
AcDbEntity
  8
0
 62
     0
100
AcDbLine
 10
8.4
 20
15.82718736856604
 30
0.0
 11
8.4
 21
16.86126091555645
 31
0.0
  0
LINE
  5
EA6E4EEDF
330
EA6E4EE6B
100
AcDbEntity
  8
0
 62
     0
100
AcDbLine
 10
8.4
 20
3.375383199960236
 30
0.0
 11
8.4
 21
6.004798018908182
 31
0.0
  0
LINE
  5
EA6E4EEE0
330
EA6E4EE6B
100
AcDbEntity
  8
0
 62
     0
100
AcDbLine
 10
8.4
 20
10.12538319996024
 30
0.0
 11
8.4
 21
14.63557161972996
 31
0.0
  0
LINE
  5
EA6E4EEE1
330
EA6E4EE6B
100
AcDbEntity
  8
0
 62
     0
100
AcDbLine
 10
8.200000000000001
 20
1.196733304907503
 30
0.0
 11
8.200000000000001
 21
2.235722402390244
 31
0.0
  0
LINE
  5
EA6E4EEE2
330
EA6E4EE6B
100
AcDbEntity
  8
0
 62
     0
100
AcDbLine
 10
8.200000000000001
 20
15.76427759760974
 30
0.0
 11
8.200000000000001
 21
16.80326669509248
 31
0.0
  0
LINE
  5
EA6E4EEE3
330
EA6E4EE6B
100
AcDbEntity
  8
0
 62
     0
100
AcDbLine
 10
8.200000000000001
 20
3.627508786341501
 30
0.0
 11
8.200000000000001
 21
6.004798018908182
 31
0.0
  0
LINE
  5
EA6E4EEE4
330
EA6E4EE6B
100
AcDbEntity
  8
0
 62
     0
100
AcDbLine
 10
8.200000000000001
 20
10.3775087863415
 30
0.0
 11
8.200000000000001
 21
14.3934422666304
 31
0.0
  0
LINE
  5
EA6E4EEE5
330
EA6E4EE6B
100
AcDbEntity
  8
0
 62
     0
100
AcDbLine
 10
8.0
 20
1.258070209803342
 30
0.0
 11
8.0
 21
2.302608253196726
 31
0.0
  0
LINE
  5
EA6E4EEE6
330
EA6E4EE6B
100
AcDbEntity
  8
0
 62
     0
100
AcDbLine
 10
8.0
 20
15.69739174680327
 30
0.0
 11
8.0
 21
16.74192979019665
 31
0.0
  0
LINE
  5
EA6E4EEE7
330
EA6E4EE6B
100
AcDbEntity
  8
0
 62
     0
100
AcDbLine
 10
8.0
 20
3.923649376593718
 30
0.0
 11
8.0
 21
6.004798018908182
 31
0.0
  0
LINE
  5
EA6E4EEE8
330
EA6E4EE6B
100
AcDbEntity
  8
0
 62
     0
100
AcDbLine
 10
8.0
 20
10.67364937659373
 30
0.0
 11
8.0
 21
14.11401235389756
 31
0.0
  0
LINE
  5
EA6E4EEE9
330
EA6E4EE6B
100
AcDbEntity
  8
0
 62
     0
100
AcDbLine
 10
7.799999999999999
 20
1.323072197862593
 30
0.0
 11
7.799999999999999
 21
2.373542828567604
 31
0.0
  0
LINE
  5
EA6E4EEEA
330
EA6E4EE6B
100
AcDbEntity
  8
0
 62
     0
100
AcDbLine
 10
7.799999999999999
 20
15.62645717143239
 30
0.0
 11
7.799999999999999
 21
16.6769278021374
 31
0.0
  0
LINE
  5
EA6E4EEEB
330
EA6E4EE6B
100
AcDbEntity
  8
0
 62
     0
100
AcDbLine
 10
7.799999999999999
 20
4.287684463111761
 30
0.0
 11
7.800000000000001
 21
6.004798018908182
 31
0.0
  0
LINE
  5
EA6E4EEEC
330
EA6E4EE6B
100
AcDbEntity
  8
0
 62
     0
100
AcDbLine
 10
7.799999999999999
 20
11.03768446311176
 30
0.0
 11
7.799999999999999
 21
13.78369552143277
 31
0.0
  0
LINE
  5
EA6E4EEED
330
EA6E4EE6B
100
AcDbEntity
  8
0
 62
     0
100
AcDbLine
 10
7.599999999999999
 20
1.391799481934756
 30
0.0
 11
7.599999999999999
 21
2.448605117969133
 31
0.0
  0
LINE
  5
EA6E4EEEE
330
EA6E4EE6B
100
AcDbEntity
  8
0
 62
     0
100
AcDbLine
 10
7.599999999999999
 20
15.55139488203086
 30
0.0
 11
7.599999999999999
 21
16.60820051806523
 31
0.0
  0
LINE
  5
EA6E4EEEF
330
EA6E4EE6B
100
AcDbEntity
  8
0
 62
     0
100
AcDbLine
 10
7.599999999999999
 20
4.840055661165997
 30
0.0
 11
7.599999999999999
 21
6.004798018908182
 31
0.0
  0
LINE
  5
EA6E4EEF0
330
EA6E4EE6B
100
AcDbEntity
  8
0
 62
     0
100
AcDbLine
 10
7.599999999999999
 20
11.590055661166
 30
0.0
 11
7.599999999999999
 21
13.31037280736468
 31
0.0
  0
LINE
  5
EA6E4EEF1
330
EA6E4EE6B
100
AcDbEntity
  8
0
 62
     0
100
AcDbLine
 10
7.4
 20
1.464317169370111
 30
0.0
 11
7.4
 21
2.527880961894759
 31
0.0
  0
LINE
  5
EA6E4EEF2
330
EA6E4EE6B
100
AcDbEntity
  8
0
 62
     0
100
AcDbLine
 10
7.4
 20
15.47211903810524
 30
0.0
 11
7.4
 21
16.53568283062988
 31
0.0
  0
LINE
  5
EA6E4EEF3
330
EA6E4EE6B
100
AcDbEntity
  8
0
 62
     0
100
AcDbLine
 10
7.4
 20
5.010858141058445
 30
0.0
 11
7.4
 21
6.004798018908182
 31
0.0
  0
LINE
  5
EA6E4EEF4
330
EA6E4EE6B
100
AcDbEntity
  8
0
 62
     0
100
AcDbLine
 10
7.2
 20
1.54069561439672
 30
0.0
 11
7.2
 21
2.611463624641877
 31
0.0
  0
LINE
  5
EA6E4EEF5
330
EA6E4EE6B
100
AcDbEntity
  8
0
 62
     0
100
AcDbLine
 10
7.2
 20
15.38853637535811
 30
0.0
 11
7.2
 21
16.45930438560327
 31
0.0
  0
LINE
  5
EA6E4EEF6
330
EA6E4EE6B
100
AcDbEntity
  8
0
 62
     0
100
AcDbLine
 10
7.2
 20
5.009318556112756
 30
0.0
 11
7.2
 21
6.004798018908182
 31
0.0
  0
LINE
  5
EA6E4EEF7
330
EA6E4EE6B
100
AcDbEntity
  8
0
 62
     0
100
AcDbLine
 10
7.0
 20
1.621010812927075
 30
0.0
 11
7.0
 21
2.699454443607051
 31
0.0
  0
LINE
  5
EA6E4EEF8
330
EA6E4EE6B
100
AcDbEntity
  8
0
 62
     0
100
AcDbLine
 10
7.0
 20
15.30054555639295
 30
0.0
 11
7.0
 21
16.37898918707292
 31
0.0
  0
LINE
  5
EA6E4EEF9
330
EA6E4EE6B
100
AcDbEntity
  8
0
 62
     0
100
AcDbLine
 10
7.0
 20
5.007778971167066
 30
0.0
 11
7.0
 21
6.004798018908182
 31
0.0
  0
LINE
  5
EA6E4EEFA
330
EA6E4EE6B
100
AcDbEntity
  8
0
 62
     0
100
AcDbLine
 10
6.799999999999999
 20
1.705344845571651
 30
0.0
 11
6.799999999999999
 21
2.791963567034779
 31
0.0
  0
LINE
  5
EA6E4EEFB
330
EA6E4EE6B
100
AcDbEntity
  8
0
 62
     0
100
AcDbLine
 10
6.799999999999999
 20
15.20803643296522
 30
0.0
 11
6.799999999999999
 21
16.29465515442833
 31
0.0
  0
LINE
  5
EA6E4EEFC
330
EA6E4EE6B
100
AcDbEntity
  8
0
 62
     0
100
AcDbLine
 10
6.799999999999999
 20
5.006239386221376
 30
0.0
 11
6.800000000000001
 21
6.004798018908182
 31
0.0
  0
LINE
  5
EA6E4EEFD
330
EA6E4EE6B
100
AcDbEntity
  8
0
 62
     0
100
AcDbLine
 10
6.599999999999999
 20
1.793786375640561
 30
0.0
 11
6.599999999999999
 21
2.889110794503253
 31
0.0
  0
LINE
  5
EA6E4EEFE
330
EA6E4EE6B
100
AcDbEntity
  8
0
 62
     0
100
AcDbLine
 10
6.599999999999999
 20
15.11088920549675
 30
0.0
 11
6.599999999999999
 21
16.20621362435944
 31
0.0
  0
LINE
  5
EA6E4EEFF
330
EA6E4EE6B
100
AcDbEntity
  8
0
 62
     0
100
AcDbLine
 10
6.4
 20
1.886431210121016
 30
0.0
 11
6.4
 21
2.991026537321893
 31
0.0
  0
LINE
  5
EA6E4EF00
330
EA6E4EE6B
100
AcDbEntity
  8
0
 62
     0
100
AcDbLine
 10
6.4
 20
15.00897346267811
 30
0.0
 11
6.4
 21
16.11356878987898
 31
0.0
  0
LINE
  5
EA6E4EF01
330
EA6E4EE6B
100
AcDbEntity
  8
0
 62
     0
100
AcDbLine
 10
6.2
 20
1.983382933076159
 30
0.0
 11
6.2
 21
3.097852919598746
 31
0.0
  0
LINE
  5
EA6E4EF02
330
EA6E4EE6B
100
AcDbEntity
  8
0
 62
     0
100
AcDbLine
 10
6.2
 20
14.90214708040125
 30
0.0
 11
6.2
 21
16.01661706692383
 31
0.0
  0
LINE
  5
EA6E4EF03
330
EA6E4EE6B
100
AcDbEntity
  8
0
 62
     0
100
AcDbLine
 10
6.0
 20
2.084753622680731
 30
0.0
 11
6.0
 21
3.209745045204609
 31
0.0
  0
LINE
  5
EA6E4EF04
330
EA6E4EE6B
100
AcDbEntity
  8
0
 62
     0
100
AcDbLine
 10
6.0
 20
14.79025495479539
 30
0.0
 11
6.0
 21
15.91524637731926
 31
0.0
  0
LINE
  5
EA6E4EF05
330
EA6E4EE6B
100
AcDbEntity
  8
0
 62
     0
100
AcDbLine
 10
5.799999999999999
 20
2.190664665270343
 30
0.0
 11
5.799999999999999
 21
3.326872461473611
 31
0.0
  0
LINE
  5
EA6E4EF06
330
EA6E4EE6B
100
AcDbEntity
  8
0
 62
     0
100
AcDbLine
 10
5.799999999999999
 20
14.67312753852638
 30
0.0
 11
5.799999999999999
 21
15.80933533472965
 31
0.0
  0
LINE
  5
EA6E4EF07
330
EA6E4EE6B
100
AcDbEntity
  8
0
 62
     0
100
AcDbLine
 10
5.599999999999999
 20
2.301247682434635
 30
0.0
 11
5.599999999999999
 21
3.449420857581046
 31
0.0
  0
LINE
  5
EA6E4EF08
330
EA6E4EE6B
100
AcDbEntity
  8
0
 62
     0
100
AcDbLine
 10
5.599999999999999
 20
14.55057914241896
 30
0.0
 11
5.599999999999999
 21
15.69875231756537
 31
0.0
  0
LINE
  5
EA6E4EF09
330
EA6E4EE6B
100
AcDbEntity
  8
0
 62
     0
100
AcDbLine
 10
5.4
 20
2.416645590462048
 30
0.0
 11
5.4
 21
3.577594044593456
 31
0.0
  0
LINE
  5
EA6E4EF0A
330
EA6E4EE6B
100
AcDbEntity
  8
0
 62
     0
100
AcDbLine
 10
5.4
 20
14.42240595540654
 30
0.0
 11
5.4
 21
15.58335440953795
 31
0.0
  0
LINE
  5
EA6E4EF0B
330
EA6E4EE6B
100
AcDbEntity
  8
0
 62
     0
100
AcDbLine
 10
5.2
 20
2.53701381551804
 30
0.0
 11
5.2
 21
3.711630126781392
 31
0.0
  0
LINE
  5
EA6E4EF0C
330
EA6E4EE6B
100
AcDbEntity
  8
0
 62
     0
100
AcDbLine
 10
5.2
 20
14.28836987321861
 30
0.0
 11
5.2
 21
15.46298618448196
 31
0.0
  0
LINE
  5
EA6E4EF0D
330
EA6E4EE6B
100
AcDbEntity
  8
0
 62
     0
100
AcDbLine
 10
5.0
 20
2.662521693035724
 30
0.0
 11
5.0
 21
3.853216504577136
 31
0.0
  0
LINE
  5
EA6E4EF0E
330
EA6E4EE6B
100
AcDbEntity
  8
0
 62
     0
100
AcDbLine
 10
5.0
 20
14.14678349542286
 30
0.0
 11
5.0
 21
15.33747830696428
 31
0.0
  0
LINE
  5
EA6E4EF0F
330
EA6E4EE6B
100
AcDbEntity
  8
0
 62
     0
100
AcDbLine
 10
4.799999999999999
 20
2.793354086221263
 30
0.0
 11
4.799999999999999
 21
4.003783113073376
 31
0.0
  0
LINE
  5
EA6E4EF10
330
EA6E4EE6B
100
AcDbEntity
  8
0
 62
     0
100
AcDbLine
 10
4.799999999999999
 20
13.99621688692662
 30
0.0
 11
4.799999999999999
 21
15.20664591377872
 31
0.0
  0
LINE
  5
EA6E4EF11
330
EA6E4EE6B
100
AcDbEntity
  8
0
 62
     0
100
AcDbLine
 10
4.599999999999999
 20
2.929713266730669
 30
0.0
 11
4.599999999999999
 21
4.163951885275562
 31
0.0
  0
LINE
  5
EA6E4EF12
330
EA6E4EE6B
100
AcDbEntity
  8
0
 62
     0
100
AcDbLine
 10
4.599999999999999
 20
13.83604811472443
 30
0.0
 11
4.599999999999999
 21
15.07028673326932
 31
0.0
  0
LINE
  5
EA6E4EF13
330
EA6E4EE6B
100
AcDbEntity
  8
0
 62
     0
100
AcDbLine
 10
4.4
 20
3.072155023749401
 30
0.0
 11
4.4
 21
4.334449219425922
 31
0.0
  0
LINE
  5
EA6E4EF14
330
EA6E4EE6B
100
AcDbEntity
  8
0
 62
     0
100
AcDbLine
 10
4.4
 20
13.66555078057407
 30
0.0
 11
4.4
 21
14.92784497625058
 31
0.0
  0
LINE
  5
EA6E4EF15
330
EA6E4EE6B
100
AcDbEntity
  8
0
 62
     0
100
AcDbLine
 10
4.2
 20
3.222522228922893
 30
0.0
 11
4.2
 21
4.516131333158581
 31
0.0
  0
LINE
  5
EA6E4EF16
330
EA6E4EE6B
100
AcDbEntity
  8
0
 62
     0
100
AcDbLine
 10
4.2
 20
13.4838686668414
 30
0.0
 11
4.2
 21
14.77747777107709
 31
0.0
  0
LINE
  5
EA6E4EF17
330
EA6E4EE6B
100
AcDbEntity
  8
0
 62
     0
100
AcDbLine
 10
4.0
 20
3.381496362144701
 30
0.0
 11
4.0
 21
4.710018288129922
 31
0.0
  0
LINE
  5
EA6E4EF18
330
EA6E4EE6B
100
AcDbEntity
  8
0
 62
     0
100
AcDbLine
 10
4.0
 20
13.28998171187007
 30
0.0
 11
4.0
 21
14.6185036378553
 31
0.0
  0
LINE
  5
EA6E4EF19
330
EA6E4EE6B
100
AcDbEntity
  8
0
 62
     0
100
AcDbLine
 10
3.799999999999999
 20
3.549655387637881
 30
0.0
 11
3.799999999999999
 21
4.917340616816316
 31
0.0
  0
LINE
  5
EA6E4EF1A
330
EA6E4EE6B
100
AcDbEntity
  8
0
 62
     0
100
AcDbLine
 10
3.799999999999999
 20
13.08265938318368
 30
0.0
 11
3.799999999999999
 21
14.4503446123621
 31
0.0
  0
LINE
  5
EA6E4EF1B
330
EA6E4EE6B
100
AcDbEntity
  8
0
 62
     0
100
AcDbLine
 10
3.6
 20
3.727668483578981
 30
0.0
 11
3.6
 21
5.139604787888837
 31
0.0
  0
LINE
  5
EA6E4EF1C
330
EA6E4EE6B
100
AcDbEntity
  8
0
 62
     0
100
AcDbLine
 10
3.6
 20
12.86039521211116
 30
0.0
 11
3.6
 21
14.27233151642101
 31
0.0
  0
LINE
  5
EA6E4EF1D
330
EA6E4EE6B
100
AcDbEntity
  8
0
 62
     0
100
AcDbLine
 10
3.399999999999999
 20
3.916316932017076
 30
0.0
 11
3.399999999999999
 21
5.378687769154121
 31
0.0
  0
LINE
  5
EA6E4EF1E
330
EA6E4EE6B
100
AcDbEntity
  8
0
 62
     0
100
AcDbLine
 10
3.399999999999999
 20
12.62131223084586
 30
0.0
 11
3.399999999999999
 21
14.08368306798291
 31
0.0
  0
LINE
  5
EA6E4EF1F
330
EA6E4EE6B
100
AcDbEntity
  8
0
 62
     0
100
AcDbLine
 10
3.2
 20
4.116521701929555
 30
0.0
 11
3.2
 21
5.63697830289019
 31
0.0
  0
LINE
  5
EA6E4EF20
330
EA6E4EE6B
100
AcDbEntity
  8
0
 62
     0
100
AcDbLine
 10
3.2
 20
12.36302169710981
 30
0.0
 11
3.2
 21
13.88347829807043
 31
0.0
  0
LINE
  5
EA6E4EF21
330
EA6E4EE6B
100
AcDbEntity
  8
0
 62
     0
100
AcDbLine
 10
3.0
 20
4.329380554923221
 30
0.0
 11
3.0
 21
5.917596726934862
 31
0.0
  0
LINE
  5
EA6E4EF22
330
EA6E4EE6B
100
AcDbEntity
  8
0
 62
     0
100
AcDbLine
 10
3.0
 20
12.08240327306513
 30
0.0
 11
3.0
 21
13.67061944507678
 31
0.0
  0
LINE
  5
EA6E4EF23
330
EA6E4EE6B
100
AcDbEntity
  8
0
 62
     0
100
AcDbLine
 10
2.799999999999999
 20
4.556219039421013
 30
0.0
 11
2.799999999999999
 21
6.224754572119449
 31
0.0
  0
LINE
  5
EA6E4EF24
330
EA6E4EE6B
100
AcDbEntity
  8
0
 62
     0
100
AcDbLine
 10
2.799999999999999
 20
11.77524542788054
 30
0.0
 11
2.799999999999999
 21
13.44378096057899
 31
0.0
  0
LINE
  5
EA6E4EF25
330
EA6E4EE6B
100
AcDbEntity
  8
0
 62
     0
100
AcDbLine
 10
2.6
 20
4.798662328218999
 30
0.0
 11
2.6
 21
6.572120102877027
 31
0.0
  0
LINE
  5
EA6E4EF26
330
EA6E4EE6B
100
AcDbEntity
  8
0
 62
     0
100
AcDbLine
 10
2.6
 20
11.42787989712297
 30
0.0
 11
2.6
 21
13.20133767178099
 31
0.0
  0
LINE
  5
EA6E4EF27
330
EA6E4EE6B
100
AcDbEntity
  8
0
 62
     0
100
AcDbLine
 10
2.399999999999999
 20
5.058739397750326
 30
0.0
 11
2.399999999999999
 21
6.997568012831423
 31
0.0
  0
LINE
  5
EA6E4EF28
330
EA6E4EE6B
100
AcDbEntity
  8
0
 62
     0
100
AcDbLine
 10
2.399999999999999
 20
11.00243198716857
 30
0.0
 11
2.399999999999999
 21
12.94126060224967
 31
0.0
  0
LINE
  5
EA6E4EF29
330
EA6E4EE6B
100
AcDbEntity
  8
0
 62
     0
100
AcDbLine
 10
2.2
 20
5.339039409038378
 30
0.0
 11
2.2
 21
7.570011562418093
 31
0.0
  0
LINE
  5
EA6E4EF2A
330
EA6E4EE6B
100
AcDbEntity
  8
0
 62
     0
100
AcDbLine
 10
2.2
 20
10.4299884375819
 30
0.0
 11
2.2
 21
12.66096059096161
 31
0.0
  0
LINE
  5
EA6E4EF2B
330
EA6E4EE6B
100
AcDbEntity
  8
0
 62
     0
100
AcDbLine
 10
2.0
 20
5.642956437377446
 30
0.0
 11
2.0
 21
12.35704356262255
 31
0.0
  0
LINE
  5
EA6E4EF2C
330
EA6E4EE6B
100
AcDbEntity
  8
0
 62
     0
100
AcDbLine
 10
1.8
 20
5.97540056854588
 30
0.0
 11
1.8
 21
12.02459943145411
 31
0.0
  0
LINE
  5
EA6E4EF2D
330
EA6E4EE6B
100
AcDbEntity
  8
0
 62
     0
100
AcDbLine
 10
1.6
 20
6.357813161306637
 30
0.0
 11
1.6
 21
11.64218683869336
 31
0.0
  0
LINE
  5
EA6E4EF2E
330
EA6E4EE6B
100
AcDbEntity
  8
0
 62
     0
100
AcDbLine
 10
1.399999999999999
 20
6.824201098360354
 30
0.0
 11
1.399999999999999
 21
11.17579890163963
 31
0.0
  0
LINE
  5
EA6E4EF2F
330
EA6E4EE6B
100
AcDbEntity
  8
0
 62
     0
100
AcDbLine
 10
1.199999999999999
 20
7.448532813692753
 30
0.0
 11
1.199999999999999
 21
10.55146718630725
 31
0.0
  0
LINE
  5
EA6E4EF30
330
EA6E4EE6B
100
AcDbEntity
  8
0
 62
     0
100
AcDbLine
 10
13.2
 20
0.5011846473685893
 30
0.0
 11
13.2
 21
1.501244022154416
 31
0.0
  0
LINE
  5
EA6E4EF31
330
EA6E4EE6B
100
AcDbEntity
  8
0
 62
     0
100
AcDbLine
 10
13.2
 20
16.49875597784558
 30
0.0
 11
13.2
 21
17.49881535263141
 31
0.0
  0
LINE
  5
EA6E4EF32
330
EA6E4EE6B
100
AcDbEntity
  8
0
 62
     0
100
AcDbLine
 10
13.2
 20
1.502736746385633
 30
0.0
 11
13.2
 21
3.003293554097711
 31
0.0
  0
LINE
  5
EA6E4EF33
330
EA6E4EE6B
100
AcDbEntity
  8
0
 62
     0
100
AcDbLine
 10
13.2
 20
14.99670644590227
 30
0.0
 11
13.2
 21
16.49726325361435
 31
0.0
  0
LINE
  5
EA6E4EF34
330
EA6E4EE6B
100
AcDbEntity
  8
0
 62
     0
100
AcDbLine
 10
13.2
 20
8.246706445902287
 30
0.0
 11
13.2
 21
9.747263253614363
 31
0.0
  0
LINE
  5
EA6E4EF35
330
EA6E4EE6B
100
AcDbEntity
  8
0
 62
     0
100
AcDbLine
 10
13.4
 20
0.5047390883533467
 30
0.0
 11
13.4
 21
1.504976666345426
 31
0.0
  0
LINE
  5
EA6E4EF36
330
EA6E4EE6B
100
AcDbEntity
  8
0
 62
     0
100
AcDbLine
 10
13.4
 20
16.49502333365457
 30
0.0
 11
13.4
 21
17.49526091164666
 31
0.0
  0
LINE
  5
EA6E4EF37
330
EA6E4EE6B
100
AcDbEntity
  8
0
 62
     0
100
AcDbLine
 10
13.4
 20
1.510953142904803
 30
0.0
 11
13.4
 21
3.013184954832297
 31
0.0
  0
LINE
  5
EA6E4EF38
330
EA6E4EE6B
100
AcDbEntity
  8
0
 62
     0
100
AcDbLine
 10
13.4
 20
14.9868150451677
 30
0.0
 11
13.4
 21
16.4890468570952
 31
0.0
  0
LINE
  5
EA6E4EF39
330
EA6E4EE6B
100
AcDbEntity
  8
0
 62
     0
100
AcDbLine
 10
13.4
 20
8.236815045167702
 30
0.0
 11
13.4
 21
9.739046857095198
 31
0.0
  0
LINE
  5
EA6E4EF3A
330
EA6E4EE6B
100
AcDbEntity
  8
0
 62
     0
100
AcDbLine
 10
13.6
 20
0.5106648206422763
 30
0.0
 11
13.6
 21
1.511199667098658
 31
0.0
  0
LINE
  5
EA6E4EF3B
330
EA6E4EE6B
100
AcDbEntity
  8
0
 62
     0
100
AcDbLine
 10
13.6
 20
16.48880033290133
 30
0.0
 11
13.6
 21
17.48933517935772
 31
0.0
  0
LINE
  5
EA6E4EF3C
330
EA6E4EE6B
100
AcDbEntity
  8
0
 62
     0
100
AcDbLine
 10
13.6
 20
1.524667731119555
 30
0.0
 11
13.6
 21
3.029706593353223
 31
0.0
  0
LINE
  5
EA6E4EF3D
330
EA6E4EE6B
100
AcDbEntity
  8
0
 62
     0
100
AcDbLine
 10
13.6
 20
14.97029340664677
 30
0.0
 11
13.6
 21
16.47533226888044
 31
0.0
  0
LINE
  5
EA6E4EF3E
330
EA6E4EE6B
100
AcDbEntity
  8
0
 62
     0
100
AcDbLine
 10
13.6
 20
8.220293406646776
 30
0.0
 11
13.6
 21
9.725332268880443
 31
0.0
  0
LINE
  5
EA6E4EF3F
330
EA6E4EE6B
100
AcDbEntity
  8
0
 62
     0
100
AcDbLine
 10
13.8
 20
0.5189643438906657
 30
0.0
 11
13.8
 21
1.519915919771853
 31
0.0
  0
LINE
  5
EA6E4EF40
330
EA6E4EE6B
100
AcDbEntity
  8
0
 62
     0
100
AcDbLine
 10
13.8
 20
16.48008408022814
 30
0.0
 11
13.8
 21
17.48103565610933
 31
0.0
  0
LINE
  5
EA6E4EF41
330
EA6E4EE6B
100
AcDbEntity
  8
0
 62
     0
100
AcDbLine
 10
13.8
 20
1.543911647054934
 30
0.0
 11
13.8
 21
3.052913047755087
 31
0.0
  0
LINE
  5
EA6E4EF42
330
EA6E4EE6B
100
AcDbEntity
  8
0
 62
     0
100
AcDbLine
 10
13.8
 20
14.94708695224491
 30
0.0
 11
13.8
 21
16.45608835294505
 31
0.0
  0
LINE
  5
EA6E4EF43
330
EA6E4EE6B
100
AcDbEntity
  8
0
 62
     0
100
AcDbLine
 10
13.8
 20
8.197086952244912
 30
0.0
 11
13.8
 21
9.706088352945066
 31
0.0
  0
LINE
  5
EA6E4EF44
330
EA6E4EE6B
100
AcDbEntity
  8
0
 62
     0
100
AcDbLine
 10
14.0
 20
0.5296411650021327
 30
0.0
 11
14.0
 21
1.531129487302989
 31
0.0
  0
LINE
  5
EA6E4EF45
330
EA6E4EE6B
100
AcDbEntity
  8
0
 62
     0
100
AcDbLine
 10
14.0
 20
16.468870512697
 30
0.0
 11
14.0
 21
17.47035883499786
 31
0.0
  0
LINE
  5
EA6E4EF46
330
EA6E4EE6B
100
AcDbEntity
  8
0
 62
     0
100
AcDbLine
 10
14.0
 20
1.568728977850379
 30
0.0
 11
14.0
 21
3.08288199648385
 31
0.0
  0
LINE
  5
EA6E4EF47
330
EA6E4EE6B
100
AcDbEntity
  8
0
 62
     0
100
AcDbLine
 10
14.0
 20
14.91711800351614
 30
0.0
 11
14.0
 21
16.43127102214962
 31
0.0
  0
LINE
  5
EA6E4EF48
330
EA6E4EE6B
100
AcDbEntity
  8
0
 62
     0
100
AcDbLine
 10
14.0
 20
8.167118003516151
 30
0.0
 11
14.0
 21
9.681271022149623
 31
0.0
  0
LINE
  5
EA6E4EF49
330
EA6E4EE6B
100
AcDbEntity
  8
0
 62
     0
100
AcDbLine
 10
14.19999999999999
 20
0.5426998055585486
 30
0.0
 11
14.19999999999999
 21
1.544845609709006
 31
0.0
  0
LINE
  5
EA6E4EF4A
330
EA6E4EE6B
100
AcDbEntity
  8
0
 62
     0
100
AcDbLine
 10
14.19999999999999
 20
16.45515439029098
 30
0.0
 11
14.19999999999999
 21
17.45730019444144
 31
0.0
  0
LINE
  5
EA6E4EF4B
330
EA6E4EE6B
100
AcDbEntity
  8
0
 62
     0
100
AcDbLine
 10
14.19999999999999
 20
1.599177274433096
 30
0.0
 11
14.19999999999999
 21
3.119715547134022
 31
0.0
  0
LINE
  5
EA6E4EF4C
330
EA6E4EE6B
100
AcDbEntity
  8
0
 62
     0
100
AcDbLine
 10
14.19999999999999
 20
14.88028445286597
 30
0.0
 11
14.19999999999999
 21
16.4008227255669
 31
0.0
  0
LINE
  5
EA6E4EF4D
330
EA6E4EE6B
100
AcDbEntity
  8
0
 62
     0
100
AcDbLine
 10
14.19999999999999
 20
8.130284452865977
 30
0.0
 11
14.19999999999999
 21
9.650822725566902
 31
0.0
  0
LINE
  5
EA6E4EF4E
330
EA6E4EE6B
100
AcDbEntity
  8
0
 62
     0
100
AcDbLine
 10
14.4
 20
0.5581458114356935
 30
0.0
 11
14.4
 21
1.561070716387185
 31
0.0
  0
LINE
  5
EA6E4EF4F
330
EA6E4EE6B
100
AcDbEntity
  8
0
 62
     0
100
AcDbLine
 10
14.4
 20
16.43892928361282
 30
0.0
 11
14.4
 21
17.44185418856431
 31
0.0
  0
LINE
  5
EA6E4EF50
330
EA6E4EE6B
100
AcDbEntity
  8
0
 62
     0
100
AcDbLine
 10
14.4
 20
1.635328234354861
 30
0.0
 11
14.4
 21
3.163542034954738
 31
0.0
  0
LINE
  5
EA6E4EF51
330
EA6E4EE6B
100
AcDbEntity
  8
0
 62
     0
100
AcDbLine
 10
14.4
 20
14.83645796504525
 30
0.0
 11
14.4
 21
16.36467176564514
 31
0.0
  0
LINE
  5
EA6E4EF52
330
EA6E4EE6B
100
AcDbEntity
  8
0
 62
     0
100
AcDbLine
 10
14.4
 20
8.086457965045266
 30
0.0
 11
14.4
 21
9.614671765645139
 31
0.0
  0
LINE
  5
EA6E4EF53
330
EA6E4EE6B
100
AcDbEntity
  8
0
 62
     0
100
AcDbLine
 10
14.59999999999999
 20
0.5759857646525646
 30
0.0
 11
14.59999999999999
 21
1.579812441286875
 31
0.0
  0
LINE
  5
EA6E4EF54
330
EA6E4EE6B
100
AcDbEntity
  8
0
 62
     0
100
AcDbLine
 10
14.59999999999999
 20
16.42018755871312
 30
0.0
 11
14.59999999999999
 21
17.42401423534744
 31
0.0
  0
LINE
  5
EA6E4EF55
330
EA6E4EE6B
100
AcDbEntity
  8
0
 62
     0
100
AcDbLine
 10
14.59999999999999
 20
1.677268574155958
 30
0.0
 11
14.59999999999999
 21
3.214520049132959
 31
0.0
  0
LINE
  5
EA6E4EF56
330
EA6E4EE6B
100
AcDbEntity
  8
0
 62
     0
100
AcDbLine
 10
14.59999999999999
 20
14.78547995086704
 30
0.0
 11
14.59999999999999
 21
16.32273142584404
 31
0.0
  0
LINE
  5
EA6E4EF57
330
EA6E4EE6B
100
AcDbEntity
  8
0
 62
     0
100
AcDbLine
 10
14.59999999999999
 20
8.035479950867044
 30
0.0
 11
14.59999999999999
 21
9.572731425844038
 31
0.0
  0
LINE
  5
EA6E4EF58
330
EA6E4EE6B
100
AcDbEntity
  8
0
 62
     0
100
AcDbLine
 10
14.8
 20
0.5962272975137566
 30
0.0
 11
14.8
 21
1.601079641035706
 31
0.0
  0
LINE
  5
EA6E4EF59
330
EA6E4EE6B
100
AcDbEntity
  8
0
 62
     0
100
AcDbLine
 10
14.8
 20
16.39892035896429
 30
0.0
 11
14.8
 21
17.40377270248623
 31
0.0
  0
LINE
  5
EA6E4EF5A
330
EA6E4EE6B
100
AcDbEntity
  8
0
 62
     0
100
AcDbLine
 10
14.8
 20
1.725101116855706
 30
0.0
 11
14.8
 21
3.274470700593996
 31
0.0
  0
LINE
  5
EA6E4EF5B
330
EA6E4EE6B
100
AcDbEntity
  8
0
 62
     0
100
AcDbLine
 10
14.8
 20
14.72552929940599
 30
0.0
 11
14.8
 21
16.27489888314428
 31
0.0
  0
LINE
  5
EA6E4EF5C
330
EA6E4EE6B
100
AcDbEntity
  8
0
 62
     0
100
AcDbLine
 10
14.8
 20
7.975529299406007
 30
0.0
 11
14.8
 21
9.524898883144292
 31
0.0
  0
LINE
  5
EA6E4EF5D
330
EA6E4EE6B
100
AcDbEntity
  8
0
 62
     0
100
AcDbLine
 10
15.0
 20
0.6188791091165271
 30
0.0
 11
15.0
 21
1.624882416121606
 31
0.0
  0
LINE
  5
EA6E4EF5E
330
EA6E4EE6B
100
AcDbEntity
  8
0
 62
     0
100
AcDbLine
 10
15.0
 20
16.37511758387839
 30
0.0
 11
15.0
 21
17.38112089088347
 31
0.0
  0
LINE
  5
EA6E4EF5F
330
EA6E4EE6B
100
AcDbEntity
  8
0
 62
     0
100
AcDbLine
 10
15.0
 20
1.778946127801589
 30
0.0
 11
15.0
 21
3.345224713883408
 31
0.0
  0
LINE
  5
EA6E4EF60
330
EA6E4EE6B
100
AcDbEntity
  8
0
 62
     0
100
AcDbLine
 10
15.0
 20
14.65477528611659
 30
0.0
 11
15.0
 21
16.22105387219841
 31
0.0
  0
LINE
  5
EA6E4EF61
330
EA6E4EE6B
100
AcDbEntity
  8
0
 62
     0
100
AcDbLine
 10
15.0
 20
7.904775286116595
 30
0.0
 11
15.0
 21
9.471053872198412
 31
0.0
  0
LINE
  5
EA6E4EF62
330
EA6E4EE6B
100
AcDbEntity
  8
0
 62
     0
100
AcDbLine
 10
15.2
 20
0.6439509843066205
 30
0.0
 11
15.2
 21
1.651232135250402
 31
0.0
  0
LINE
  5
EA6E4EF63
330
EA6E4EE6B
100
AcDbEntity
  8
0
 62
     0
100
AcDbLine
 10
15.2
 20
16.34876786474959
 30
0.0
 11
15.2
 21
17.35604901569337
 31
0.0
  0
LINE
  5
EA6E4EF64
330
EA6E4EE6B
100
AcDbEntity
  8
0
 62
     0
100
AcDbLine
 10
15.2
 20
1.838965527600104
 30
0.0
 11
15.2
 21
3.427362928229201
 31
0.0
  0
LINE
  5
EA6E4EF65
330
EA6E4EE6B
100
AcDbEntity
  8
0
 62
     0
100
AcDbLine
 10
15.2
 20
14.5726370717708
 30
0.0
 11
15.2
 21
16.16103447239989
 31
0.0
  0
LINE
  5
EA6E4EF66
330
EA6E4EE6B
100
AcDbEntity
  8
0
 62
     0
100
AcDbLine
 10
15.2
 20
7.822637071770802
 30
0.0
 11
15.2
 21
9.411034472399894
 31
0.0
  0
LINE
  5
EA6E4EF67
330
EA6E4EE6B
100
AcDbEntity
  8
0
 62
     0
100
AcDbLine
 10
15.4
 20
0.6714538151807618
 30
0.0
 11
15.4
 21
1.680141463018063
 31
0.0
  0
LINE
  5
EA6E4EF68
330
EA6E4EE6B
100
AcDbEntity
  8
0
 62
     0
100
AcDbLine
 10
15.4
 20
16.31985853698193
 30
0.0
 11
15.4
 21
17.32854618481924
 31
0.0
  0
LINE
  5
EA6E4EF69
330
EA6E4EE6B
100
AcDbEntity
  8
0
 62
     0
100
AcDbLine
 10
15.4
 20
1.906497453997511
 30
0.0
 11
15.4
 21
3.521613256092558
 31
0.0
  0
LINE
  5
EA6E4EF6A
330
EA6E4EE6B
100
AcDbEntity
  8
0
 62
     0
100
AcDbLine
 10
15.4
 20
14.47838674390744
 30
0.0
 11
15.4
 21
16.09350254600248
 31
0.0
  0
LINE
  5
EA6E4EF6B
330
EA6E4EE6B
100
AcDbEntity
  8
0
 62
     0
100
AcDbLine
 10
15.4
 20
7.728386743907438
 30
0.0
 11
15.4
 21
9.343502546002484
 31
0.0
  0
LINE
  5
EA6E4EF6C
330
EA6E4EE6B
100
AcDbEntity
  8
0
 62
     0
100
AcDbLine
 10
15.6
 20
0.701399625247838
 30
0.0
 11
15.6
 21
1.711624391057784
 31
0.0
  0
LINE
  5
EA6E4EF6D
330
EA6E4EE6B
100
AcDbEntity
  8
0
 62
     0
100
AcDbLine
 10
15.6
 20
16.28837560894221
 30
0.0
 11
15.6
 21
17.29860037475216
 31
0.0
  0
LINE
  5
EA6E4EF6E
330
EA6E4EE6B
100
AcDbEntity
  8
0
 62
     0
100
AcDbLine
 10
15.6
 20
1.982488280859824
 30
0.0
 11
15.6
 21
3.628889777131711
 31
0.0
  0
LINE
  5
EA6E4EF6F
330
EA6E4EE6B
100
AcDbEntity
  8
0
 62
     0
100
AcDbLine
 10
15.6
 20
14.37111022286828
 30
0.0
 11
15.6
 21
16.01751171914017
 31
0.0
  0
LINE
  5
EA6E4EF70
330
EA6E4EE6B
100
AcDbEntity
  8
0
 62
     0
100
AcDbLine
 10
15.6
 20
7.621110222868287
 30
0.0
 11
15.6
 21
9.267511719140172
 31
0.0
  0
LINE
  5
EA6E4EF71
330
EA6E4EE6B
100
AcDbEntity
  8
0
 62
     0
100
AcDbLine
 10
15.8
 20
0.7338015963764449
 30
0.0
 11
15.8
 21
1.745696272844693
 31
0.0
  0
LINE
  5
EA6E4EF72
330
EA6E4EE6B
100
AcDbEntity
  8
0
 62
     0
100
AcDbLine
 10
15.8
 20
16.2543037271553
 30
0.0
 11
15.8
 21
17.26619840362355
 31
0.0
  0
LINE
  5
EA6E4EF73
330
EA6E4EE6B
100
AcDbEntity
  8
0
 62
     0
100
AcDbLine
 10
15.8
 20
2.067310355584581
 30
0.0
 11
15.8
 21
3.750348873208841
 31
0.0
  0
LINE
  5
EA6E4EF74
330
EA6E4EE6B
100
AcDbEntity
  8
0
 62
     0
100
AcDbLine
 10
15.8
 20
14.24965112679115
 30
0.0
 11
15.8
 21
15.9326896444154
 31
0.0
  0
LINE
  5
EA6E4EF75
330
EA6E4EE6B
100
AcDbEntity
  8
0
 62
     0
100
AcDbLine
 10
15.8
 20
7.499651126791158
 30
0.0
 11
15.8
 21
9.182689644415415
 31
0.0
  0
LINE
  5
EA6E4EF76
330
EA6E4EE6B
100
AcDbEntity
  8
0
 62
     0
100
AcDbLine
 10
16.0
 20
0.7686740986732376
 30
0.0
 11
16.0
 21
1.78237386236562
 31
0.0
  0
LINE
  5
EA6E4EF77
330
EA6E4EE6B
100
AcDbEntity
  8
0
 62
     0
100
AcDbLine
 10
16.0
 20
16.21762613763437
 30
0.0
 11
16.0
 21
17.23132590132675
 31
0.0
  0
LINE
  5
EA6E4EF78
330
EA6E4EE6B
100
AcDbEntity
  8
0
 62
     0
100
AcDbLine
 10
16.0
 20
2.16140561915966
 30
0.0
 11
16.0
 21
3.88958648698698
 31
0.0
  0
LINE
  5
EA6E4EF79
330
EA6E4EE6B
100
AcDbEntity
  8
0
 62
     0
100
AcDbLine
 10
16.0
 20
14.10984300806157
 30
0.0
 11
16.0
 21
15.83859438084033
 31
0.0
  0
LINE
  5
EA6E4EF7A
330
EA6E4EE6B
100
AcDbEntity
  8
0
 62
     0
100
AcDbLine
 10
16.0
 20
7.359843008061576
 30
0.0
 11
16.0
 21
9.088594380840335
 31
0.0
  0
LINE
  5
EA6E4EF7B
330
EA6E4EE6B
100
AcDbEntity
  8
0
 62
     0
100
AcDbLine
 10
16.0
 20
11.99520198109181
 30
0.0
 11
16.0
 21
12.99520198109181
 31
0.0
  0
LINE
  5
EA6E4EF7C
330
EA6E4EE6B
100
AcDbEntity
  8
0
 62
     0
100
AcDbLine
 10
16.2
 20
0.8060327234544644
 30
0.0
 11
16.2
 21
1.821675356888281
 31
0.0
  0
LINE
  5
EA6E4EF7D
330
EA6E4EE6B
100
AcDbEntity
  8
0
 62
     0
100
AcDbLine
 10
16.2
 20
16.17832464311171
 30
0.0
 11
16.2
 21
17.19396727654554
 31
0.0
  0
LINE
  5
EA6E4EF7E
330
EA6E4EE6B
100
AcDbEntity
  8
0
 62
     0
100
AcDbLine
 10
16.2
 20
2.265299594642034
 30
0.0
 11
16.2
 21
4.053212394630294
 31
0.0
  0
LINE
  5
EA6E4EF7F
330
EA6E4EE6B
100
AcDbEntity
  8
0
 62
     0
100
AcDbLine
 10
16.2
 20
13.9437417176044
 30
0.0
 11
16.2
 21
15.73470040535795
 31
0.0
  0
LINE
  5
EA6E4EF80
330
EA6E4EE6B
100
AcDbEntity
  8
0
 62
     0
100
AcDbLine
 10
16.2
 20
7.19374171760441
 30
0.0
 11
16.2
 21
8.984700405357962
 31
0.0
  0
LINE
  5
EA6E4EF81
330
EA6E4EE6B
100
AcDbEntity
  8
0
 62
     0
100
AcDbLine
 10
16.2
 20
11.99520198109181
 30
0.0
 11
16.2
 21
12.99520198109181
 31
0.0
  0
LINE
  5
EA6E4EF82
330
EA6E4EE6B
100
AcDbEntity
  8
0
 62
     0
100
AcDbLine
 10
16.39999999999999
 20
0.8458943194931476
 30
0.0
 11
16.39999999999999
 21
1.8636204440938
 31
0.0
  0
LINE
  5
EA6E4EF83
330
EA6E4EE6B
100
AcDbEntity
  8
0
 62
     0
100
AcDbLine
 10
16.39999999999999
 20
16.13637955590618
 30
0.0
 11
16.39999999999999
 21
17.15410568050685
 31
0.0
  0
LINE
  5
EA6E4EF84
330
EA6E4EE6B
100
AcDbEntity
  8
0
 62
     0
100
AcDbLine
 10
16.39999999999999
 20
2.379619810236118
 30
0.0
 11
16.39999999999999
 21
4.246668995439238
 31
0.0
  0
LINE
  5
EA6E4EF85
330
EA6E4EE6B
100
AcDbEntity
  8
0
 62
     0
100
AcDbLine
 10
16.39999999999999
 20
13.74487066121605
 30
0.0
 11
16.39999999999999
 21
15.62038018976386
 31
0.0
  0
LINE
  5
EA6E4EF86
330
EA6E4EE6B
100
AcDbEntity
  8
0
 62
     0
100
AcDbLine
 10
16.39999999999999
 20
6.994870661216054
 30
0.0
 11
16.39999999999999
 21
8.87038018976388
 31
0.0
  0
LINE
  5
EA6E4EF87
330
EA6E4EE6B
100
AcDbEntity
  8
0
 62
     0
100
AcDbLine
 10
16.39999999999999
 20
11.99520198109181
 30
0.0
 11
16.39999999999999
 21
12.99520198109181
 31
0.0
  0
LINE
  5
EA6E4EF88
330
EA6E4EE6B
100
AcDbEntity
  8
0
 62
     0
100
AcDbLine
 10
16.6
 20
0.8882770327457619
 30
0.0
 11
16.6
 21
1.90823035386904
 31
0.0
  0
LINE
  5
EA6E4EF89
330
EA6E4EE6B
100
AcDbEntity
  8
0
 62
     0
100
AcDbLine
 10
16.6
 20
16.09176964613094
 30
0.0
 11
16.6
 21
17.11172296725424
 31
0.0
  0
LINE
  5
EA6E4EF8A
330
EA6E4EE6B
100
AcDbEntity
  8
0
 62
     0
100
AcDbLine
 10
16.6
 20
2.505120428334421
 30
0.0
 11
16.6
 21
4.47863060090183
 31
0.0
  0
LINE
  5
EA6E4EF8B
330
EA6E4EE6B
100
AcDbEntity
  8
0
 62
     0
100
AcDbLine
 10
16.6
 20
13.50242306763211
 30
0.0
 11
16.6
 21
15.49487957166557
 31
0.0
  0
LINE
  5
EA6E4EF8C
330
EA6E4EE6B
100
AcDbEntity
  8
0
 62
     0
100
AcDbLine
 10
16.6
 20
6.752423067632127
 30
0.0
 11
16.6
 21
8.744879571665576
 31
0.0
  0
LINE
  5
EA6E4EF8D
330
EA6E4EE6B
100
AcDbEntity
  8
0
 62
     0
100
AcDbLine
 10
16.6
 20
11.99520198109181
 30
0.0
 11
16.6
 21
12.99520198109181
 31
0.0
  0
LINE
  5
EA6E4EF8E
330
EA6E4EE6B
100
AcDbEntity
  8
0
 62
     0
100
AcDbLine
 10
16.8
 20
0.9332003497861903
 30
0.0
 11
16.8
 21
1.955527915091238
 31
0.0
  0
LINE
  5
EA6E4EF8F
330
EA6E4EE6B
100
AcDbEntity
  8
0
 62
     0
100
AcDbLine
 10
16.8
 20
16.04447208490875
 30
0.0
 11
16.8
 21
17.06679965021381
 31
0.0
  0
LINE
  5
EA6E4EF90
330
EA6E4EE6B
100
AcDbEntity
  8
0
 62
     0
100
AcDbLine
 10
16.8
 20
2.642715771748798
 30
0.0
 11
16.8
 21
4.764933423039758
 31
0.0
  0
LINE
  5
EA6E4EF91
330
EA6E4EE6B
100
AcDbEntity
  8
0
 62
     0
100
AcDbLine
 10
16.8
 20
13.19035535410814
 30
0.0
 11
16.8
 21
15.35728422825119
 31
0.0
  0
LINE
  5
EA6E4EF92
330
EA6E4EE6B
100
AcDbEntity
  8
0
 62
     0
100
AcDbLine
 10
16.8
 20
6.440355354108133
 30
0.0
 11
16.8
 21
8.607284228251199
 31
0.0
  0
LINE
  5
EA6E4EF93
330
EA6E4EE6B
100
AcDbEntity
  8
0
 62
     0
100
AcDbLine
 10
16.8
 20
11.99520198109181
 30
0.0
 11
16.8
 21
12.99520198109181
 31
0.0
  0
LINE
  5
EA6E4EF94
330
EA6E4EE6B
100
AcDbEntity
  8
0
 62
     0
100
AcDbLine
 10
17.0
 20
0.9806851452009935
 30
0.0
 11
17.0
 21
2.005537617777616
 31
0.0
  0
LINE
  5
EA6E4EF95
330
EA6E4EE6B
100
AcDbEntity
  8
0
 62
     0
100
AcDbLine
 10
17.0
 20
15.99446238222238
 30
0.0
 11
17.0
 21
17.01931485479899
 31
0.0
  0
LINE
  5
EA6E4EF96
330
EA6E4EE6B
100
AcDbEntity
  8
0
 62
     0
100
AcDbLine
 10
17.0
 20
2.794145186405881
 30
0.0
 11
17.0
 21
5.371692243973805
 31
0.0
  0
LINE
  5
EA6E4EF97
330
EA6E4EE6B
100
AcDbEntity
  8
0
 62
     0
100
AcDbLine
 10
17.0
 20
11.99520198109181
 30
0.0
 11
17.0
 21
15.2058548135941
 31
0.0
  0
LINE
  5
EA6E4EF98
330
EA6E4EE6B
100
AcDbEntity
  8
0
 62
     0
100
AcDbLine
 10
17.0
 20
5.625000103238273
 30
0.0
 11
17.0
 21
8.455854813594108
 31
0.0
  0
LINE
  5
EA6E4EF99
330
EA6E4EE6B
100
AcDbEntity
  8
0
 62
     0
100
AcDbLine
 10
17.19999999999999
 20
1.030753733228884
 30
0.0
 11
17.19999999999999
 21
2.058285681017131
 31
0.0
  0
LINE
  5
EA6E4EF9A
330
EA6E4EE6B
100
AcDbEntity
  8
0
 62
     0
100
AcDbLine
 10
17.19999999999999
 20
15.94171431898286
 30
0.0
 11
17.19999999999999
 21
16.96924626677112
 31
0.0
  0
LINE
  5
EA6E4EF9B
330
EA6E4EE6B
100
AcDbEntity
  8
0
 62
     0
100
AcDbLine
 10
17.19999999999999
 20
2.964241435429824
 30
0.0
 11
17.19999999999999
 21
8.285758564570178
 31
0.0
  0
LINE
  5
EA6E4EF9C
330
EA6E4EE6B
100
AcDbEntity
  8
0
 62
     0
100
AcDbLine
 10
17.19999999999999
 20
11.99520198109181
 30
0.0
 11
17.19999999999999
 21
15.03575856457016
 31
0.0
  0
LINE
  5
EA6E4EF9D
330
EA6E4EE6B
100
AcDbEntity
  8
0
 62
     0
100
AcDbLine
 10
17.4
 20
1.083429923959662
 30
0.0
 11
17.4
 21
2.113812192151343
 31
0.0
  0
LINE
  5
EA6E4EF9E
330
EA6E4EE6B
100
AcDbEntity
  8
0
 62
     0
100
AcDbLine
 10
17.4
 20
15.88618780784865
 30
0.0
 11
17.4
 21
16.91657007604034
 31
0.0
  0
LINE
  5
EA6E4EF9F
330
EA6E4EE6B
100
AcDbEntity
  8
0
 62
     0
100
AcDbLine
 10
17.4
 20
3.156508117249323
 30
0.0
 11
17.4
 21
8.093491882750669
 31
0.0
  0
LINE
  5
EA6E4EFA0
330
EA6E4EE6B
100
AcDbEntity
  8
0
 62
     0
100
AcDbLine
 10
17.4
 20
11.99520198109181
 30
0.0
 11
17.4
 21
14.84349188275065
 31
0.0
  0
LINE
  5
EA6E4EFA1
330
EA6E4EE6B
100
AcDbEntity
  8
0
 62
     0
100
AcDbLine
 10
17.6
 20
1.138739084443542
 30
0.0
 11
17.6
 21
2.172812631433951
 31
0.0
  0
LINE
  5
EA6E4EFA2
330
EA6E4EE6B
100
AcDbEntity
  8
0
 62
     0
100
AcDbLine
 10
17.6
 20
15.82718736856604
 30
0.0
 11
17.6
 21
16.86126091555646
 31
0.0
  0
LINE
  5
EA6E4EFA3
330
EA6E4EE6B
100
AcDbEntity
  8
0
 62
     0
100
AcDbLine
 10
17.6
 20
3.375383199960236
 30
0.0
 11
17.6
 21
7.874616800039762
 31
0.0
  0
LINE
  5
EA6E4EFA4
330
EA6E4EE6B
100
AcDbEntity
  8
0
 62
     0
100
AcDbLine
 10
17.6
 20
11.99520198109181
 30
0.0
 11
17.6
 21
14.62461680003975
 31
0.0
  0
LINE
  5
EA6E4EFA5
330
EA6E4EE6B
100
AcDbEntity
  8
0
 62
     0
100
AcDbLine
 10
17.8
 20
1.196733304907507
 30
0.0
 11
17.8
 21
2.235722402390248
 31
0.0
  0
LINE
  5
EA6E4EFA6
330
EA6E4EE6B
100
AcDbEntity
  8
0
 62
     0
100
AcDbLine
 10
17.8
 20
15.76427759760974
 30
0.0
 11
17.8
 21
16.80326669509248
 31
0.0
  0
LINE
  5
EA6E4EFA7
330
EA6E4EE6B
100
AcDbEntity
  8
0
 62
     0
100
AcDbLine
 10
17.8
 20
3.627508786341501
 30
0.0
 11
17.8
 21
7.622491213658497
 31
0.0
  0
LINE
  5
EA6E4EFA8
330
EA6E4EE6B
100
AcDbEntity
  8
0
 62
     0
100
AcDbLine
 10
17.8
 20
11.99520198109181
 30
0.0
 11
17.8
 21
14.37249121365849
 31
0.0
  0
LINE
  5
EA6E4EFA9
330
EA6E4EE6B
100
AcDbEntity
  8
0
 62
     0
100
AcDbLine
 10
18.0
 20
1.258070209803346
 30
0.0
 11
18.0
 21
2.30260825319673
 31
0.0
  0
LINE
  5
EA6E4EFAA
330
EA6E4EE6B
100
AcDbEntity
  8
0
 62
     0
100
AcDbLine
 10
18.0
 20
15.69739174680327
 30
0.0
 11
18.0
 21
16.74192979019665
 31
0.0
  0
LINE
  5
EA6E4EFAB
330
EA6E4EE6B
100
AcDbEntity
  8
0
 62
     0
100
AcDbLine
 10
18.0
 20
3.923649376593703
 30
0.0
 11
18.0
 21
7.326350623406285
 31
0.0
  0
LINE
  5
EA6E4EFAC
330
EA6E4EE6B
100
AcDbEntity
  8
0
 62
     0
100
AcDbLine
 10
18.0
 20
11.99520198109181
 30
0.0
 11
18.0
 21
14.07635062340627
 31
0.0
  0
LINE
  5
EA6E4EFAD
330
EA6E4EE6B
100
AcDbEntity
  8
0
 62
     0
100
AcDbLine
 10
18.2
 20
1.323072197862596
 30
0.0
 11
18.2
 21
2.373542828567604
 31
0.0
  0
LINE
  5
EA6E4EFAE
330
EA6E4EE6B
100
AcDbEntity
  8
0
 62
     0
100
AcDbLine
 10
18.2
 20
15.62645717143239
 30
0.0
 11
18.2
 21
16.67692780213741
 31
0.0
  0
LINE
  5
EA6E4EFAF
330
EA6E4EE6B
100
AcDbEntity
  8
0
 62
     0
100
AcDbLine
 10
18.2
 20
4.287684463111763
 30
0.0
 11
18.2
 21
6.962315536888209
 31
0.0
  0
LINE
  5
EA6E4EFB0
330
EA6E4EE6B
100
AcDbEntity
  8
0
 62
     0
100
AcDbLine
 10
18.2
 20
11.99520198109181
 30
0.0
 11
18.2
 21
13.71231553688823
 31
0.0
  0
LINE
  5
EA6E4EFB1
330
EA6E4EE6B
100
AcDbEntity
  8
0
 62
     0
100
AcDbLine
 10
18.39999999999999
 20
1.391799481934761
 30
0.0
 11
18.39999999999999
 21
2.448605117969133
 31
0.0
  0
LINE
  5
EA6E4EFB2
330
EA6E4EE6B
100
AcDbEntity
  8
0
 62
     0
100
AcDbLine
 10
18.39999999999999
 20
15.55139488203086
 30
0.0
 11
18.39999999999999
 21
16.60820051806523
 31
0.0
  0
LINE
  5
EA6E4EFB3
330
EA6E4EE6B
100
AcDbEntity
  8
0
 62
     0
100
AcDbLine
 10
18.39999999999999
 20
4.840055661165976
 30
0.0
 11
18.39999999999999
 21
6.409944338833982
 31
0.0
  0
LINE
  5
EA6E4EFB4
330
EA6E4EE6B
100
AcDbEntity
  8
0
 62
     0
100
AcDbLine
 10
18.39999999999999
 20
11.99520198109181
 30
0.0
 11
18.39999999999999
 21
13.15994433883402
 31
0.0
  0
LINE
  5
EA6E4EFB5
330
EA6E4EE6B
100
AcDbEntity
  8
0
 62
     0
100
AcDbLine
 10
18.6
 20
1.464317169370115
 30
0.0
 11
18.6
 21
2.527880961894759
 31
0.0
  0
LINE
  5
EA6E4EFB6
330
EA6E4EE6B
100
AcDbEntity
  8
0
 62
     0
100
AcDbLine
 10
18.6
 20
15.47211903810524
 30
0.0
 11
18.6
 21
16.53568283062988
 31
0.0
  0
LINE
  5
EA6E4EFB7
330
EA6E4EE6B
100
AcDbEntity
  8
0
 62
     0
100
AcDbLine
 10
18.6
 20
11.99520198109181
 30
0.0
 11
18.6
 21
12.98914185894155
 31
0.0
  0
LINE
  5
EA6E4EFB8
330
EA6E4EE6B
100
AcDbEntity
  8
0
 62
     0
100
AcDbLine
 10
18.8
 20
1.540695614396724
 30
0.0
 11
18.8
 21
2.61146362464188
 31
0.0
  0
LINE
  5
EA6E4EFB9
330
EA6E4EE6B
100
AcDbEntity
  8
0
 62
     0
100
AcDbLine
 10
18.8
 20
15.38853637535811
 30
0.0
 11
18.8
 21
16.45930438560327
 31
0.0
  0
LINE
  5
EA6E4EFBA
330
EA6E4EE6B
100
AcDbEntity
  8
0
 62
     0
100
AcDbLine
 10
18.8
 20
11.99520198109181
 30
0.0
 11
18.8
 21
12.99068144388724
 31
0.0
  0
LINE
  5
EA6E4EFBB
330
EA6E4EE6B
100
AcDbEntity
  8
0
 62
     0
100
AcDbLine
 10
19.0
 20
1.621010812927077
 30
0.0
 11
19.0
 21
2.699454443607051
 31
0.0
  0
LINE
  5
EA6E4EFBC
330
EA6E4EE6B
100
AcDbEntity
  8
0
 62
     0
100
AcDbLine
 10
19.0
 20
15.30054555639295
 30
0.0
 11
19.0
 21
16.37898918707292
 31
0.0
  0
LINE
  5
EA6E4EFBD
330
EA6E4EE6B
100
AcDbEntity
  8
0
 62
     0
100
AcDbLine
 10
19.0
 20
11.99520198109181
 30
0.0
 11
19.0
 21
12.99222102883293
 31
0.0
  0
LINE
  5
EA6E4EFBE
330
EA6E4EE6B
100
AcDbEntity
  8
0
 62
     0
100
AcDbLine
 10
19.19999999999999
 20
1.705344845571659
 30
0.0
 11
19.19999999999999
 21
2.791963567034783
 31
0.0
  0
LINE
  5
EA6E4EFBF
330
EA6E4EE6B
100
AcDbEntity
  8
0
 62
     0
100
AcDbLine
 10
19.19999999999999
 20
15.20803643296521
 30
0.0
 11
19.19999999999999
 21
16.29465515442833
 31
0.0
  0
LINE
  5
EA6E4EFC0
330
EA6E4EE6B
100
AcDbEntity
  8
0
 62
     0
100
AcDbLine
 10
19.19999999999999
 20
11.99520198109181
 30
0.0
 11
19.19999999999999
 21
12.99376061377861
 31
0.0
  0
LINE
  5
EA6E4EFC1
330
EA6E4EE6B
100
AcDbEntity
  8
0
 62
     0
100
AcDbLine
 10
19.39999999999999
 20
1.793786375640563
 30
0.0
 11
19.39999999999999
 21
2.889110794503256
 31
0.0
  0
LINE
  5
EA6E4EFC2
330
EA6E4EE6B
100
AcDbEntity
  8
0
 62
     0
100
AcDbLine
 10
19.39999999999999
 20
15.11088920549673
 30
0.0
 11
19.39999999999999
 21
16.20621362435944
 31
0.0
  0
LINE
  5
EA6E4EFC3
330
EA6E4EE6B
100
AcDbEntity
  8
0
 62
     0
100
AcDbLine
 10
19.6
 20
1.88643121012102
 30
0.0
 11
19.6
 21
2.991026537321896
 31
0.0
  0
LINE
  5
EA6E4EFC4
330
EA6E4EE6B
100
AcDbEntity
  8
0
 62
     0
100
AcDbLine
 10
19.6
 20
15.0089734626781
 30
0.0
 11
19.6
 21
16.11356878987898
 31
0.0
  0
LINE
  5
EA6E4EFC5
330
EA6E4EE6B
100
AcDbEntity
  8
0
 62
     0
100
AcDbLine
 10
19.8
 20
1.983382933076164
 30
0.0
 11
19.8
 21
3.097852919598746
 31
0.0
  0
LINE
  5
EA6E4EFC6
330
EA6E4EE6B
100
AcDbEntity
  8
0
 62
     0
100
AcDbLine
 10
19.8
 20
14.90214708040125
 30
0.0
 11
19.8
 21
16.01661706692383
 31
0.0
  0
LINE
  5
EA6E4EFC7
330
EA6E4EE6B
100
AcDbEntity
  8
0
 62
     0
100
AcDbLine
 10
20.0
 20
2.084753622680735
 30
0.0
 11
20.0
 21
3.209745045204609
 31
0.0
  0
LINE
  5
EA6E4EFC8
330
EA6E4EE6B
100
AcDbEntity
  8
0
 62
     0
100
AcDbLine
 10
20.0
 20
14.79025495479539
 30
0.0
 11
20.0
 21
15.91524637731926
 31
0.0
  0
LINE
  5
EA6E4EFC9
330
EA6E4EE6B
100
AcDbEntity
  8
0
 62
     0
100
AcDbLine
 10
20.2
 20
2.190664665270349
 30
0.0
 11
20.2
 21
3.326872461473616
 31
0.0
  0
LINE
  5
EA6E4EFCA
330
EA6E4EE6B
100
AcDbEntity
  8
0
 62
     0
100
AcDbLine
 10
20.2
 20
14.67312753852637
 30
0.0
 11
20.2
 21
15.80933533472965
 31
0.0
  0
LINE
  5
EA6E4EFCB
330
EA6E4EE6B
100
AcDbEntity
  8
0
 62
     0
100
AcDbLine
 10
20.4
 20
2.301247682434638
 30
0.0
 11
20.4
 21
3.449420857581046
 31
0.0
  0
LINE
  5
EA6E4EFCC
330
EA6E4EE6B
100
AcDbEntity
  8
0
 62
     0
100
AcDbLine
 10
20.4
 20
14.55057914241895
 30
0.0
 11
20.4
 21
15.69875231756536
 31
0.0
  0
LINE
  5
EA6E4EFCD
330
EA6E4EE6B
100
AcDbEntity
  8
0
 62
     0
100
AcDbLine
 10
20.6
 20
2.416645590462052
 30
0.0
 11
20.6
 21
3.577594044593456
 31
0.0
  0
LINE
  5
EA6E4EFCE
330
EA6E4EE6B
100
AcDbEntity
  8
0
 62
     0
100
AcDbLine
 10
20.6
 20
14.42240595540654
 30
0.0
 11
20.6
 21
15.58335440953795
 31
0.0
  0
LINE
  5
EA6E4EFCF
330
EA6E4EE6B
100
AcDbEntity
  8
0
 62
     0
100
AcDbLine
 10
20.8
 20
2.537013815518043
 30
0.0
 11
20.8
 21
3.711626924269966
 31
0.0
  0
LINE
  5
EA6E4EFD0
330
EA6E4EE6B
100
AcDbEntity
  8
0
 62
     0
100
AcDbLine
 10
20.8
 20
14.28836987321861
 30
0.0
 11
20.8
 21
15.46298618448195
 31
0.0
  0
LINE
  5
EA6E4EFD1
330
EA6E4EE6B
100
AcDbEntity
  8
0
 62
     0
100
AcDbLine
 10
21.0
 20
2.662521693035727
 30
0.0
 11
21.0
 21
3.852872430645609
 31
0.0
  0
LINE
  5
EA6E4EFD2
330
EA6E4EE6B
100
AcDbEntity
  8
0
 62
     0
100
AcDbLine
 10
21.0
 20
14.14678349542286
 30
0.0
 11
21.0
 21
15.33747830696426
 31
0.0
  0
LINE
  5
EA6E4EFD3
330
EA6E4EE6B
100
AcDbEntity
  8
0
 62
     0
100
AcDbLine
 10
21.2
 20
2.793354086221266
 30
0.0
 11
21.2
 21
4.002485583831323
 31
0.0
  0
LINE
  5
EA6E4EFD4
330
EA6E4EE6B
100
AcDbEntity
  8
0
 62
     0
100
AcDbLine
 10
21.2
 20
13.99621688692662
 30
0.0
 11
21.2
 21
15.20664591377872
 31
0.0
  0
LINE
  5
EA6E4EFD5
330
EA6E4EE6B
100
AcDbEntity
  8
0
 62
     0
100
AcDbLine
 10
21.4
 20
2.929713266730676
 30
0.0
 11
21.4
 21
4.161002755664274
 31
0.0
  0
LINE
  5
EA6E4EFD6
330
EA6E4EE6B
100
AcDbEntity
  8
0
 62
     0
100
AcDbLine
 10
21.4
 20
13.83604811472443
 30
0.0
 11
21.4
 21
15.07028673326932
 31
0.0
  0
LINE
  5
EA6E4EFD7
330
EA6E4EE6B
100
AcDbEntity
  8
0
 62
     0
100
AcDbLine
 10
21.6
 20
3.072069018676471
 30
0.0
 11
21.6
 21
4.329043532935322
 31
0.0
  0
LINE
  5
EA6E4EFD8
330
EA6E4EE6B
100
AcDbEntity
  8
0
 62
     0
100
AcDbLine
 10
21.6
 20
13.66555078057407
 30
0.0
 11
21.6
 21
14.92784497625058
 31
0.0
  0
LINE
  5
EA6E4EFD9
330
EA6E4EE6B
100
AcDbEntity
  8
0
 62
     0
100
AcDbLine
 10
21.8
 20
3.221849785812719
 30
0.0
 11
21.8
 21
4.507329243428142
 31
0.0
  0
LINE
  5
EA6E4EFDA
330
EA6E4EE6B
100
AcDbEntity
  8
0
 62
     0
100
AcDbLine
 10
21.8
 20
13.48386866684141
 30
0.0
 11
21.8
 21
14.77747777107709
 31
0.0
  0
LINE
  5
EA6E4EFDB
330
EA6E4EE6B
100
AcDbEntity
  8
0
 62
     0
100
AcDbLine
 10
22.0
 20
3.379623332304386
 30
0.0
 11
22.0
 21
4.696707259147587
 31
0.0
  0
LINE
  5
EA6E4EFDC
330
EA6E4EE6B
100
AcDbEntity
  8
0
 62
     0
100
AcDbLine
 10
22.0
 20
13.28998171187008
 30
0.0
 11
22.0
 21
14.6185036378553
 31
0.0
  0
LINE
  5
EA6E4EFDD
330
EA6E4EE6B
100
AcDbEntity
  8
0
 62
     0
100
AcDbLine
 10
22.2
 20
3.545884748662356
 30
0.0
 11
22.2
 21
4.898183447570518
 31
0.0
  0
LINE
  5
EA6E4EFDE
330
EA6E4EE6B
100
AcDbEntity
  8
0
 62
     0
100
AcDbLine
 10
22.2
 20
13.08265938318368
 30
0.0
 11
22.2
 21
14.4503446123621
 31
0.0
  0
LINE
  5
EA6E4EFDF
330
EA6E4EE6B
100
AcDbEntity
  8
0
 62
     0
100
AcDbLine
 10
22.39999999999999
 20
3.721201084250884
 30
0.0
 11
22.39999999999999
 21
5.112966388577576
 31
0.0
  0
LINE
  5
EA6E4EFE0
330
EA6E4EE6B
100
AcDbEntity
  8
0
 62
     0
100
AcDbLine
 10
22.39999999999999
 20
12.86039521211116
 30
0.0
 11
22.39999999999999
 21
14.27233151642101
 31
0.0
  0
LINE
  5
EA6E4EFE1
330
EA6E4EE6B
100
AcDbEntity
  8
0
 62
     0
100
AcDbLine
 10
22.6
 20
3.906226422955006
 30
0.0
 11
22.6
 21
5.342529046644196
 31
0.0
  0
LINE
  5
EA6E4EFE2
330
EA6E4EE6B
100
AcDbEntity
  8
0
 62
     0
100
AcDbLine
 10
22.6
 20
12.62131223084588
 30
0.0
 11
22.6
 21
14.08368306798291
 31
0.0
  0
LINE
  5
EA6E4EFE3
330
EA6E4EE6B
100
AcDbEntity
  8
0
 62
     0
100
AcDbLine
 10
22.8
 20
4.10172135227376
 30
0.0
 11
22.8
 21
5.588697165049443
 31
0.0
  0
LINE
  5
EA6E4EFE4
330
EA6E4EE6B
100
AcDbEntity
  8
0
 62
     0
100
AcDbLine
 10
22.8
 20
12.36302169710981
 30
0.0
 11
22.8
 21
13.88347829807043
 31
0.0
  0
LINE
  5
EA6E4EFE5
330
EA6E4EE6B
100
AcDbEntity
  8
0
 62
     0
100
AcDbLine
 10
23.0
 20
4.308578503036796
 30
0.0
 11
23.0
 21
5.853780106921795
 31
0.0
  0
LINE
  5
EA6E4EFE6
330
EA6E4EE6B
100
AcDbEntity
  8
0
 62
     0
100
AcDbLine
 10
23.0
 20
12.08240327306514
 30
0.0
 11
23.0
 21
13.67061944507678
 31
0.0
  0
LINE
  5
EA6E4EFE7
330
EA6E4EE6B
100
AcDbEntity
  8
0
 62
     0
100
AcDbLine
 10
23.19999999999999
 20
4.527856652558535
 30
0.0
 11
23.19999999999999
 21
6.140772160743478
 31
0.0
  0
LINE
  5
EA6E4EFE8
330
EA6E4EE6B
100
AcDbEntity
  8
0
 62
     0
100
AcDbLine
 10
23.19999999999999
 20
11.77524542788055
 30
0.0
 11
23.19999999999999
 21
13.44378096057898
 31
0.0
  0
LINE
  5
EA6E4EFE9
330
EA6E4EE6B
100
AcDbEntity
  8
0
 62
     0
100
AcDbLine
 10
23.39999999999999
 20
4.760827195354785
 30
0.0
 11
23.39999999999999
 21
6.453677270303599
 31
0.0
  0
LINE
  5
EA6E4EFEA
330
EA6E4EE6B
100
AcDbEntity
  8
0
 62
     0
100
AcDbLine
 10
23.39999999999999
 20
11.42787989712297
 30
0.0
 11
23.39999999999999
 21
13.20133767178099
 31
0.0
  0
LINE
  5
EA6E4EFEB
330
EA6E4EE6B
100
AcDbEntity
  8
0
 62
     0
100
AcDbLine
 10
23.6
 20
5.009038964789643
 30
0.0
 11
23.6
 21
6.819150603315335
 31
0.0
  0
LINE
  5
EA6E4EFEC
330
EA6E4EE6B
100
AcDbEntity
  8
0
 62
     0
100
AcDbLine
 10
23.6
 20
11.00243198716859
 30
0.0
 11
23.6
 21
12.94126060224967
 31
0.0
  0
LINE
  5
EA6E4EFED
330
EA6E4EE6B
100
AcDbEntity
  8
0
 62
     0
100
AcDbLine
 10
23.8
 20
5.274411151749196
 30
0.0
 11
23.8
 21
7.309696402547448
 31
0.0
  0
LINE
  5
EA6E4EFEE
330
EA6E4EE6B
100
AcDbEntity
  8
0
 62
     0
100
AcDbLine
 10
23.8
 20
10.42998843758188
 30
0.0
 11
23.8
 21
12.6609605909616
 31
0.0
  0
LINE
  5
EA6E4EFEF
330
EA6E4EE6B
100
AcDbEntity
  8
0
 62
     0
100
AcDbLine
 10
24.0
 20
5.559370859880237
 30
0.0
 11
24.0
 21
12.35704356262256
 31
0.0
  0
LINE
  5
EA6E4EFF0
330
EA6E4EE6B
100
AcDbEntity
  8
0
 62
     0
100
AcDbLine
 10
24.19999999999999
 20
5.867064768748309
 30
0.0
 11
24.19999999999999
 21
12.0245994314541
 31
0.0
  0
LINE
  5
EA6E4EFF1
330
EA6E4EE6B
100
AcDbEntity
  8
0
 62
     0
100
AcDbLine
 10
24.39999999999999
 20
6.2027592702858
 30
0.0
 11
24.39999999999999
 21
11.64218683869334
 31
0.0
  0
LINE
  5
EA6E4EFF2
330
EA6E4EE6B
100
AcDbEntity
  8
0
 62
     0
100
AcDbLine
 10
24.6
 20
6.603624720067712
 30
0.0
 11
24.6
 21
11.1757989016396
 31
0.0
  0
LINE
  5
EA6E4EFF3
330
EA6E4EE6B
100
AcDbEntity
  8
0
 62
     0
100
AcDbLine
 10
24.8
 20
7.137464332505552
 30
0.0
 11
24.8
 21
10.55146718630719
 31
0.0
  0
ENDBLK
  5
EA6E4EFF5
330
EA6E4EE6B
100
AcDbEntity
  8
0
100
AcDbBlockEnd
  0
ENDSEC
  0
SECTION
  2
ENTITIES
  0
INSERT
  5
20
330
EA6E4DC92
100
AcDbEntity
  8
TEXT
100
AcDbBlockReference
  2
STDGX5
 10
370.865806
 20
2.374565
 30
0.0
  0
INSERT
  5
21
330
EA6E4DC92
100
AcDbEntity
  8
TEXT
100
AcDbBlockReference
  2
STDGX5
 10
1520.591055
 20
494.796741
 30
0.0
  0
INSERT
  5
441
330
EA6E4DC92
100
AcDbEntity
  8
JISSEN
  6
Continuous
 62
     4
100
AcDbBlockReference
  2
STDGX5
 10
-63.39588599999999
 20
80.39599
 30
0.0
 41
2.0
 42
2.0
 43
2.0
  0
INSERT
  5
296C
330
EA6E4DC92
100
AcDbEntity
  8
JISSEN
100
AcDbBlockReference
  2
STDR12J
 10
0.0
 20
0.0
 30
0.0
  0
TEXT
  5
29F6
330
EA6E4DC92
100
AcDbEntity
  8
TEXT
100
AcDbText
 10
284.499999
 20
536.0
 30
0.0
 40
6.0
  1

  7
K
 72
     4
 11
284.499999
 21
536.0
 31
0.0
100
AcDbText
  0
MTEXT
  5
EA6E4E0DF
330
EA6E4DC92
100
AcDbEntity
  8
JISSEN
100
AcDbMText
 10
302.3089179999999
 20
159.090371
 30
0.0
 40
6.0
 41
0.0
 71
     4
 72
     5
  1
\A1;
  7
ROMANS
 73
     1
 44
1.0
1001
ACAD
1000
MTEXTBEGIN
1070
    73
1070
     1
1070
    44
1040
1.0
1070
    74
1070
     0
1000
MTEXTEND
  0
MTEXT
  5
EA6E4E0E3
330
EA6E4DC92
100
AcDbEntity
  8
JISSEN
100
AcDbMText
 10
278.4487169999999
 20
159.0440929999999
 30
0.0
 40
6.0
 41
0.0
 71
     4
 72
     5
  1
\A1;
  7
ROMANS
 73
     1
 44
1.0
1001
ACAD
1000
MTEXTBEGIN
1070
    73
1070
     1
1070
    44
1040
1.0
1070
    74
1070
     0
1000
MTEXTEND
  0
MTEXT
  5
EA6E4E0E7
330
EA6E4DC92
100
AcDbEntity
  8
JISSEN
100
AcDbMText
 10
252.744385
 20
158.909631
 30
0.0
 40
6.0
 41
0.0
 71
     4
 72
     5
  1
\A1;
  7
ROMANS
 73
     1
 44
1.0
1001
ACAD
1000
MTEXTBEGIN
1070
    73
1070
     1
1070
    44
1040
1.0
1070
    74
1070
     0
1000
MTEXTEND
  0
TEXT
  5
EA6E4E178
330
EA6E4DC92
100
AcDbEntity
  8
SUNPOU
100
AcDbText
 10
274.2783099241572
 20
9.316524716282174
 30
0.0
 40
6.0
  1
A4 用紙、印刷尺度1/2
100
AcDbText
  0
TEXT
  5
EA6E4E179
330
EA6E4DC92
100
AcDbEntity
  8
SUNPOU
100
AcDbText
 10
274.2783099241572
 20
19.31652471628217
 30
0.0
 40
6.0
  1
末端試験装置 H-
100
AcDbText
  0
LWPOLYLINE
  5
EA6E4E1BE
330
EA6E4DC92
100
AcDbEntity
  8
WAKU
100
AcDbPolyline
 90
        4
 70
     1
 43
0.0
 10
0.0
 20
0.0
 10
362.0
 20
0.0
 10
362.0
 20
546.0
 10
0.0
 20
546.0
  0
LINE
  5
EA6E4E90B
330
EA6E4DC92
100
AcDbEntity
  8
JISSEN
100
AcDbLine
 10
0.0000002801716619
 20
534.0000004503126
 30
0.0
 11
361.9999988321716
 21
534.0000004503126
 31
0.0
  0
LINE
  5
EA6E4E90C
330
EA6E4DC92
100
AcDbEntity
  8
JISSEN
100
AcDbLine
 10
0.0000002801716619
 20
522.0000004503126
 30
0.0
 11
361.9999988321716
 21
522.0000004503126
 31
0.0
  0
LINE
  5
EA6E4E90D
330
EA6E4DC92
100
AcDbEntity
  8
JISSEN
100
AcDbLine
 10
0.0000002801716619
 20
510.0000004503128
 30
0.0
 11
361.9999988321716
 21
510.0000004503128
 31
0.0
  0
LINE
  5
EA6E4E90E
330
EA6E4DC92
100
AcDbEntity
  8
JISSEN
100
AcDbLine
 10
0.0000002801716619
 20
498.0000004503128
 30
0.0
 11
361.9999988321716
 21
498.0000004503128
 31
0.0
  0
LINE
  5
EA6E4EC99
330
EA6E4DC92
100
AcDbEntity
  8
JISSEN
100
AcDbLine
 10
0.0000002801716619
 20
486.0000004503127
 30
0.0
 11
179.0000002801715
 21
486.0000004503127
 31
0.0
  0
TEXT
  5
EA6E4EC9A
330
EA6E4DC92
100
AcDbEntity
  8
TEXT
100
AcDbText
 10
29.20000028017165
 20
501.0000004503126
 30
0.0
 40
6.0
  1
六角ニップル
  7
K
 72
     4
 11
50.00000028017165
 21
504.0000004503126
 31
0.0
100
AcDbText
  0
TEXT
  5
EA6E4EC9D
330
EA6E4DC92
100
AcDbEntity
  8
TEXT
100
AcDbText
 10
3.600000280171661
 20
537.0000004503127
 30
0.0
 40
6.0
  1
番号
  7
K
 72
     4
 11
10.00000028017166
 21
540.0000004503128
 31
0.0
100
AcDbText
  0
TEXT
  5
EA6E4EC9E
330
EA6E4DC92
100
AcDbEntity
  8
TEXT
100
AcDbText
 10
8.00000028017166
 20
513.0000004503126
 30
0.0
 40
6.0
  1
2
  7
K
 72
     4
 11
10.00000028017166
 21
516.0000004503126
 31
0.0
100
AcDbText
  0
TEXT
  5
EA6E4EC9F
330
EA6E4DC92
100
AcDbEntity
  8
TEXT
100
AcDbText
 10
8.00000028017166
 20
501.0000004503126
 30
0.0
 40
6.0
  1
3
  7
K
 72
     4
 11
10.00000028017166
 21
504.0000004503126
 31
0.0
100
AcDbText
  0
TEXT
  5
EA6E4ECA0
330
EA6E4DC92
100
AcDbEntity
  8
TEXT
100
AcDbText
 10
7.857143137314517
 20
489.0000004503126
 30
0.0
 40
6.0
  1
4
  7
K
 72
     4
 11
10.00000028017166
 21
492.0000004503126
 31
0.0
100
AcDbText
  0
TEXT
  5
EA6E4ECA1
330
EA6E4DC92
100
AcDbEntity
  8
TEXT
100
AcDbText
 10
9.285714565885946
 20
525.0000004503126
 30
0.0
 40
6.0
  1
1
  7
K
 72
     4
 11
10.00000028017166
 21
528.0000004503127
 31
0.0
100
AcDbText
  0
LINE
  5
EA6E4ECA2
330
EA6E4DC92
100
AcDbEntity
  8
JISSEN
100
AcDbLine
 10
20.00000028017165
 20
546.0000004503126
 30
0.0
 11
20.00000028017165
 21
486.0000004503127
 31
0.0
  0
TEXT
  5
EA6E4ECA3
330
EA6E4DC92
100
AcDbEntity
  8
TEXT
100
AcDbText
 10
32.40000028017166
 20
524.8000004503126
 30
0.0
 40
6.0
  1
ノ　ズ　ル
  7
K
 72
     4
 11
50.00000028017165
 21
528.0000004503127
 31
0.0
100
AcDbText
  0
TEXT
  5
EA6E4ECA4
330
EA6E4DC92
100
AcDbEntity
  8
TEXT
100
AcDbText
 10
32.60000028017165
 20
513.0000004503126
 30
0.0
 40
6.0
  1
スリース弁
  7
K
 72
     4
 11
50.00000028017165
 21
516.0000004503126
 31
0.0
100
AcDbText
  0
TEXT
  5
EA6E4ECA5
330
EA6E4DC92
100
AcDbEntity
  8
TEXT
100
AcDbText
 10
32.80000028017166
 20
489.0000004503126
 30
0.0
 40
6.0
  1
違径チーズ
  7
K
 72
     4
 11
50.00000028017165
 21
492.0000004503126
 31
0.0
100
AcDbText
  0
TEXT
  5
EA6E4ECA6
330
EA6E4DC92
100
AcDbEntity
  8
TEXT
100
AcDbText
 10
32.80000028017165
 20
537.0000004503127
 30
0.0
 40
6.0
  1
名      称
  7
K
 72
     4
 11
50.00000028017165
 21
540.0000004503128
 31
0.0
100
AcDbText
  0
LINE
  5
EA6E4ECC9
330
EA6E4DC92
100
AcDbEntity
  8
JISSEN
100
AcDbLine
 10
80.00000028017167
 20
546.0000004503126
 30
0.0
 11
80.00000028017167
 21
486.0000004503127
 31
0.0
  0
LINE
  5
EA6E4ECCA
330
EA6E4DC92
100
AcDbEntity
  8
JISSEN
100
AcDbLine
 10
123.0000002801715
 20
486.0000004503127
 30
0.0
 11
123.0000002801715
 21
546.0000004503126
 31
0.0
  0
TEXT
  5
EA6E4ECCB
330
EA6E4DC92
100
AcDbEntity
  8
TEXT
100
AcDbText
 10
87.78571456588588
 20
525.0000004503126
 30
0.0
 40
6.0
  1
C3604
  7
K
 72
     4
 11
101.5000002801715
 21
528.0000004503127
 31
0.0
100
AcDbText
  0
TEXT
  5
EA6E4ECCC
330
EA6E4DC92
100
AcDbEntity
  8
TEXT
100
AcDbText
 10
84.78571456588587
 20
513.0000004503126
 30
0.0
 40
6.0
  1
CAC406
  7
K
 72
     4
 11
101.5000002801715
 21
516.0000004503126
 31
0.0
100
AcDbText
  0
TEXT
  5
EA6E4ECCD
330
EA6E4DC92
100
AcDbEntity
  8
TEXT
100
AcDbText
 10
90.50000028017159
 20
501.0000004503126
 30
0.0
 40
6.0
  1
FCMB
  7
K
 72
     4
 11
101.5000002801715
 21
504.0000004503126
 31
0.0
100
AcDbText
  0
TEXT
  5
EA6E4ECCE
330
EA6E4DC92
100
AcDbEntity
  8
TEXT
100
AcDbText
 10
90.50000028017159
 20
489.0000004503126
 30
0.0
 40
6.0
  1
FCMB
  7
K
 72
     4
 11
101.5000002801715
 21
492.0000004503126
 31
0.0
100
AcDbText
  0
TEXT
  5
EA6E4ECD3
330
EA6E4DC92
100
AcDbEntity
  8
TEXT
100
AcDbText
 10
87.90000028017159
 20
537.0000004503127
 30
0.0
 40
6.0
  1
材    質
  7
K
 72
     4
 11
101.5000002801715
 21
540.0000004503128
 31
0.0
100
AcDbText
  0
LINE
  5
EA6E4ECD4
330
EA6E4DC92
100
AcDbEntity
  8
JISSEN
100
AcDbLine
 10
179.0000002801715
 20
486.0000004503127
 30
0.0
 11
179.0000002801715
 21
546.0000004503126
 31
0.0
  0
LINE
  5
EA6E4ECD5
330
EA6E4DC92
100
AcDbEntity
  8
JISSEN
100
AcDbLine
 10
145.0000002801715
 20
546.0000004503126
 30
0.0
 11
145.0000002801715
 21
486.0000004503127
 31
0.0
  0
TEXT
  5
EA6E4ECD6
330
EA6E4DC92
100
AcDbEntity
  8
TEXT
100
AcDbText
 10
133.2857145658858
 20
525.0000004503126
 30
0.0
 40
6.0
  1
1
  7
K
 72
     4
 11
134.0000002801715
 21
528.0000004503127
 31
0.0
100
AcDbText
  0
TEXT
  5
EA6E4ECD7
330
EA6E4DC92
100
AcDbEntity
  8
TEXT
100
AcDbText
 10
154.0000002801715
 20
525.0000004503126
 30
0.0
 40
6.0
  1
25A
  7
K
 72
     4
 11
162.0000002801715
 21
528.0000004503127
 31
0.0
100
AcDbText
  0
TEXT
  5
EA6E4ECD8
330
EA6E4DC92
100
AcDbEntity
  8
TEXT
100
AcDbText
 10
146.0000002801715
 20
489.0000004503128
 30
0.0
 40
6.0
  1
25A×10A
 41
0.8045977011494253
  7
K
 72
     5
 11
178.0000002801715
 21
489.0000004503128
 31
0.0
100
AcDbText
  0
TEXT
  5
EA6E4ECD9
330
EA6E4DC92
100
AcDbEntity
  8
TEXT
100
AcDbText
 10
133.2857145658858
 20
489.0000004503126
 30
0.0
 40
6.0
  1
1
  7
K
 72
     4
 11
134.0000002801715
 21
492.0000004503126
 31
0.0
100
AcDbText
  0
TEXT
  5
EA6E4ECDA
330
EA6E4DC92
100
AcDbEntity
  8
TEXT
100
AcDbText
 10
133.2857145658858
 20
501.0000004503126
 30
0.0
 40
6.0
  1
1
  7
K
 72
     4
 11
134.0000002801715
 21
504.0000004503126
 31
0.0
100
AcDbText
  0
TEXT
  5
EA6E4ECDB
330
EA6E4DC92
100
AcDbEntity
  8
TEXT
100
AcDbText
 10
133.2857145658858
 20
513.0000004503126
 30
0.0
 40
6.0
  1
1
  7
K
 72
     4
 11
134.0000002801715
 21
516.0000004503126
 31
0.0
100
AcDbText
  0
TEXT
  5
EA6E4ECDC
330
EA6E4DC92
100
AcDbEntity
  8
TEXT
100
AcDbText
 10
154.0000002801715
 20
513.0000004503126
 30
0.0
 40
6.0
  1
25A
  7
K
 72
     4
 11
162.0000002801715
 21
516.0000004503126
 31
0.0
100
AcDbText
  0
TEXT
  5
EA6E4ECDD
330
EA6E4DC92
100
AcDbEntity
  8
TEXT
100
AcDbText
 10
154.0000002801715
 20
501.0000004503126
 30
0.0
 40
6.0
  1
25A
  7
K
 72
     4
 11
162.0000002801715
 21
504.0000004503126
 31
0.0
100
AcDbText
  0
TEXT
  5
EA6E4ECDE
330
EA6E4DC92
100
AcDbEntity
  8
TEXT
100
AcDbText
 10
148.4000002801716
 20
537.0000004503127
 30
0.0
 40
6.0
  1
備    考
  7
K
 72
     4
 11
162.0000002801715
 21
540.0000004503128
 31
0.0
100
AcDbText
  0
TEXT
  5
EA6E4ECDF
330
EA6E4DC92
100
AcDbEntity
  8
TEXT
100
AcDbText
 10
127.6000002801715
 20
537.0000004503127
 30
0.0
 40
6.0
  1
個数
  7
K
 72
     4
 11
134.0000002801715
 21
540.0000004503128
 31
0.0
100
AcDbText
  0
TEXT
  5
EA6E4ECE8
330
EA6E4DC92
100
AcDbEntity
  8
JISSEN
100
AcDbText
 10
271.5916460697745
 20
81.40789501902807
 30
0.0
 40
10.0
  1
%%UK=114 対応
  7
K
 72
     4
 11
308.6630746412031
 21
85.40789501902805
 31
0.0
100
AcDbText
  0
TEXT
  5
EA6E4ED06
330
EA6E4DC92
100
AcDbEntity
  8
TEXT
100
AcDbText
 10
270.8999988321716
 20
537.0000004503127
 30
0.0
 40
6.0
  1
材    質
  7
K
 72
     4
 11
284.4999988321717
 21
540.0000004503128
 31
0.0
100
AcDbText
  0
TEXT
  5
EA6E4ED07
330
EA6E4DC92
100
AcDbEntity
  8
TEXT
100
AcDbText
 10
272.2142845464574
 20
501.0000004503126
 30
0.0
 40
6.0
  1
C3771
  7
K
 72
     4
 11
284.4999988321717
 21
504.0000004503126
 31
0.0
100
AcDbText
  0
LINE
  5
EA6E4ED08
330
EA6E4DC92
100
AcDbEntity
  8
TEXT
100
AcDbLine
 10
295.9999988321716
 20
516.0000004503126
 30
0.0
 11
272.9999988321715
 21
516.0000004503126
 31
0.0
  0
TEXT
  5
EA6E4EE1B
330
EA6E4DC92
100
AcDbEntity
  8
TEXT
100
AcDbText
 10
215.7999988321716
 20
537.0000004503127
 30
0.0
 40
6.0
  1
名      称
  7
K
 72
     4
 11
232.9999988321716
 21
540.0000004503128
 31
0.0
100
AcDbText
  0
TEXT
  5
EA6E4EE1C
330
EA6E4DC92
100
AcDbEntity
  8
TEXT
100
AcDbText
 10
213.7999988321716
 20
524.8000004503126
 30
0.0
 40
6.0
  1
ニ ッ プ ル
  7
K
 72
     4
 11
232.9999988321716
 21
528.0000004503127
 31
0.0
100
AcDbText
  0
TEXT
  5
EA6E4EE1D
330
EA6E4DC92
100
AcDbEntity
  8
TEXT
100
AcDbText
 10
215.7999988321716
 20
513.0000004503126
 30
0.0
 40
6.0
  1
圧　力　計
  7
K
 72
     4
 11
232.9999988321716
 21
516.0000004503126
 31
0.0
100
AcDbText
  0
TEXT
  5
EA6E4EE1E
330
EA6E4DC92
100
AcDbEntity
  8
TEXT
100
AcDbText
 10
215.7999988321716
 20
501.0000004503126
 30
0.0
 40
6.0
  1
アングル弁
  7
K
 72
     4
 11
232.9999988321716
 21
504.0000004503126
 31
0.0
100
AcDbText
  0
LINE
  5
EA6E4EE1F
330
EA6E4DC92
100
AcDbEntity
  8
JISSEN
100
AcDbLine
 10
202.9999988321716
 20
546.0000004503126
 30
0.0
 11
202.9999988321716
 21
498.0000004503128
 31
0.0
  0
TEXT
  5
EA6E4EE20
330
EA6E4DC92
100
AcDbEntity
  8
TEXT
100
AcDbText
 10
188.9999995561715
 20
525.0000004503126
 30
0.0
 40
6.0
  1
5
  7
K
 72
     4
 11
190.9999995561715
 21
528.0000004503127
 31
0.0
100
AcDbText
  0
TEXT
  5
EA6E4EE22
330
EA6E4DC92
100
AcDbEntity
  8
TEXT
100
AcDbText
 10
188.9999995561715
 20
501.0000004503126
 30
0.0
 40
6.0
  1
7
  7
K
 72
     4
 11
190.9999995561715
 21
504.0000004503126
 31
0.0
100
AcDbText
  0
TEXT
  5
EA6E4EE23
330
EA6E4DC92
100
AcDbEntity
  8
TEXT
100
AcDbText
 10
189.1428566990286
 20
513.0000004503126
 30
0.0
 40
6.0
  1
6
  7
K
 72
     4
 11
190.9999995561715
 21
516.0000004503126
 31
0.0
100
AcDbText
  0
TEXT
  5
EA6E4EE24
330
EA6E4DC92
100
AcDbEntity
  8
TEXT
100
AcDbText
 10
184.5999995561716
 20
537.0000004503127
 30
0.0
 40
6.0
  1
番号
  7
K
 72
     4
 11
190.9999995561716
 21
540.0000004503128
 31
0.0
100
AcDbText
  0
LINE
  5
EA6E4EE25
330
EA6E4DC92
100
AcDbEntity
  8
JISSEN
100
AcDbLine
 10
262.9999988321717
 20
546.0000004503126
 30
0.0
 11
262.9999988321717
 21
498.0000004503128
 31
0.0
  0
TEXT
  5
EA6E4EE26
330
EA6E4DC92
100
AcDbEntity
  8
TEXT
100
AcDbText
 10
276.6428559750288
 20
525.0000004503126
 30
0.0
 40
6.0
  1
SGP
  7
K
 72
     4
 11
284.4999988321717
 21
528.0000004503127
 31
0.0
100
AcDbText
  0
TEXT
  5
EA6E4EE28
330
EA6E4DC92
100
AcDbEntity
  8
TEXT
100
AcDbText
 10
331.3999988321716
 20
537.0000004503127
 30
0.0
 40
6.0
  1
備    考
  7
K
 72
     4
 11
344.9999988321716
 21
540.0000004503128
 31
0.0
100
AcDbText
  0
TEXT
  5
EA6E4EE29
330
EA6E4DC92
100
AcDbEntity
  8
TEXT
100
AcDbText
 10
333.9306069883457
 20
513.0000004503126
 30
0.0
 40
6.0
  1
2MPa
  7
K
 72
     4
 11
344.9306069883457
 21
516.0000004503126
 31
0.0
100
AcDbText
  0
TEXT
  5
EA6E4EE2A
330
EA6E4DC92
100
AcDbEntity
  8
TEXT
100
AcDbText
 10
329.9314274036002
 20
525.0000004503126
 30
0.0
 40
6.0
  1
10A×75
 41
0.9
  7
K
 72
     4
 11
344.9999988321716
 21
528.0000004503127
 31
0.0
100
AcDbText
  0
TEXT
  5
EA6E4EE2B
330
EA6E4DC92
100
AcDbEntity
  8
TEXT
100
AcDbText
 10
337.5714274036002
 20
501.0000004503126
 30
0.0
 40
6.0
  1
10A
  7
K
 72
     4
 11
344.9999988321716
 21
504.0000004503126
 31
0.0
100
AcDbText
  0
LINE
  5
EA6E4EE2C
330
EA6E4DC92
100
AcDbEntity
  8
JISSEN
100
AcDbLine
 10
305.9999988321716
 20
498.0000004503128
 30
0.0
 11
305.9999988321716
 21
546.0000004503126
 31
0.0
  0
LINE
  5
EA6E4EE2D
330
EA6E4DC92
100
AcDbEntity
  8
JISSEN
100
AcDbLine
 10
327.9999988321717
 20
546.0000004503126
 30
0.0
 11
327.9999988321717
 21
498.0000004503128
 31
0.0
  0
TEXT
  5
EA6E4EE2E
330
EA6E4DC92
100
AcDbEntity
  8
TEXT
100
AcDbText
 10
316.2857131178859
 20
525.0000004503126
 30
0.0
 40
6.0
  1
1
  7
K
 72
     4
 11
316.9999988321716
 21
528.0000004503127
 31
0.0
100
AcDbText
  0
TEXT
  5
EA6E4EE2F
330
EA6E4DC92
100
AcDbEntity
  8
TEXT
100
AcDbText
 10
316.2857131178859
 20
501.0000004503126
 30
0.0
 40
6.0
  1
1
  7
K
 72
     4
 11
316.9999988321716
 21
504.0000004503126
 31
0.0
100
AcDbText
  0
TEXT
  5
EA6E4EE30
330
EA6E4DC92
100
AcDbEntity
  8
TEXT
100
AcDbText
 10
316.2857131178859
 20
513.0000004503126
 30
0.0
 40
6.0
  1
1
  7
K
 72
     4
 11
316.9999988321716
 21
516.0000004503126
 31
0.0
100
AcDbText
  0
TEXT
  5
EA6E4EE31
330
EA6E4DC92
100
AcDbEntity
  8
TEXT
100
AcDbText
 10
310.5999988321717
 20
537.0000004503127
 30
0.0
 40
6.0
  1
個数
  7
K
 72
     4
 11
316.9999988321716
 21
540.0000004503128
 31
0.0
100
AcDbText
  0
LINE
  5
EA6E4EE32
330
EA6E4DC92
100
AcDbEntity
  8
SUNPOU
100
AcDbLine
 10
336.0292390224334
 20
25.31655847224556
 30
0.0
 11
341.0292390224335
 21
25.31655847224556
 31
0.0
  0
LINE
  5
EA6E4EE33
330
EA6E4DC92
100
AcDbEntity
  8
SUNPOU
100
AcDbLine
 10
336.0292390224334
 20
19.31655847224556
 30
0.0
 11
341.0292390224335
 21
19.31655847224556
 31
0.0
  0
LINE
  5
EA6E4EE34
330
EA6E4DC92
100
AcDbEntity
  8
SUNPOU
100
AcDbLine
 10
338.5292390224335
 20
25.31655847224556
 30
0.0
 11
338.5292390224335
 21
19.31655847224556
 31
0.0
  0
LINE
  5
EA6E4EE35
330
EA6E4DC92
100
AcDbEntity
  8
SUNPOU
100
AcDbLine
 10
337.0292390224335
 20
25.31655847224556
 30
0.0
 11
337.0292390224335
 21
19.31655847224556
 31
0.0
  0
LINE
  5
EA6E4EE36
330
EA6E4DC92
100
AcDbEntity
  8
SUNPOU
100
AcDbLine
 10
340.0292390224334
 20
25.31655847224556
 30
0.0
 11
340.0292390224334
 21
19.31655847224556
 31
0.0
  0
LINE
  5
EA6E4F0EA
102
{ACAD_REACTORS
330
EA6E4F0EC
102
}
330
EA6E4DC92
100
AcDbEntity
  8
HATCH
100
AcDbLine
 10
119.7419598359748
 20
111.3271416554646
 30
0.0
 11
119.7419598359748
 21
97.87997080763439
 31
0.0
  0
LINE
  5
EA6E4F0EB
102
{ACAD_REACTORS
330
EA6E4F0EC
102
}
330
EA6E4DC92
100
AcDbEntity
  8
HATCH
100
AcDbLine
 10
128.7419598359748
 20
97.87997080763439
 30
0.0
 11
128.7419598359748
 21
111.3271416554646
 31
0.0
  0
HATCH
  5
EA6E4F0EC
330
EA6E4DC92
100
AcDbEntity
  8
HATCH
100
AcDbHatch
 10
0.0
 20
0.0
 30
0.0
210
0.0
220
0.0
230
1.0
  2
SOLID
 70
     1
 71
     1
 91
        1
 92
        1
 93
        7
 72
     1
 10
117.7419598359748
 20
97.87997080763439
 11
124.2419598359748
 21
89.37328705008065
 72
     1
 10
124.2419598359748
 20
89.37328705008065
 11
130.7419598359748
 21
97.87997080763439
 72
     1
 10
130.7419598359748
 20
97.87997080763439
 11
128.7419598359748
 21
97.87997080763439
 72
     1
 10
128.7419598359748
 20
97.87997080763439
 11
128.7419598359748
 21
111.3271416554646
 72
     1
 10
128.7419598359748
 20
111.3271416554646
 11
119.7419598359748
 21
111.3271416554646
 72
     1
 10
119.7419598359748
 20
111.3271416554646
 11
119.7419598359748
 21
97.87997080763439
 72
     1
 10
119.7419598359748
 20
97.87997080763439
 11
117.7419598359748
 21
97.87997080763439
 97
        7
330
EA6E4F162
330
EA6E4F0ED
330
EA6E4F29A
330
EA6E4F0EB
330
EA6E4F2C3
330
EA6E4F0EA
330
EA6E4F163
 75
     0
 76
     1
 98
        1
 10
-2.467401905678002
 20
-0.834092550721607
  0
LINE
  5
EA6E4F0ED
102
{ACAD_REACTORS
330
EA6E4F0EC
102
}
330
EA6E4DC92
100
AcDbEntity
  8
HATCH
100
AcDbLine
 10
124.2419598359748
 20
89.37328705008065
 30
0.0
 11
130.7419598359748
 21
97.87997080763439
 31
0.0
  0
LINE
  5
EA6E4F162
102
{ACAD_REACTORS
330
EA6E4F0EC
102
}
330
EA6E4DC92
100
AcDbEntity
  8
HATCH
100
AcDbLine
 10
117.7419598359748
 20
97.87997080763439
 30
0.0
 11
124.2419598359748
 21
89.37328705008065
 31
0.0
  0
LINE
  5
EA6E4F163
102
{ACAD_REACTORS
330
EA6E4F0EC
102
}
330
EA6E4DC92
100
AcDbEntity
  8
HATCH
100
AcDbLine
 10
119.7419598359748
 20
97.87997080763439
 30
0.0
 11
117.7419598359748
 21
97.87997080763439
 31
0.0
  0
LINE
  5
EA6E4F29A
102
{ACAD_REACTORS
330
EA6E4F0EC
102
}
330
EA6E4DC92
100
AcDbEntity
  8
HATCH
100
AcDbLine
 10
130.7419598359748
 20
97.87997080763439
 30
0.0
 11
128.7419598359748
 21
97.87997080763439
 31
0.0
  0
LINE
  5
EA6E4F2C3
102
{ACAD_REACTORS
330
EA6E4F0EC
102
}
330
EA6E4DC92
100
AcDbEntity
  8
HATCH
100
AcDbLine
 10
128.7419598359748
 20
111.3271416554646
 30
0.0
 11
119.7419598359748
 21
111.3271416554646
 31
0.0
  0
LWPOLYLINE
  5
EA6E4F313
330
EA6E4DC92
100
AcDbEntity
  8
SUNPOU
100
AcDbPolyline
 90
        2
 70
     0
 43
0.0
 10
144.9919598359749
 20
286.0067006896215
 10
247.7351750149525
 20
179.6238972538299
1001
ACAD
1000
DSTYLE
1002
{
1070
   147
1040
1.0
1070
    77
1070
     0
1002
}
  0
LWPOLYLINE
  5
EA6E4F314
330
EA6E4DC92
100
AcDbEntity
  8
SUNPOU
100
AcDbPolyline
 90
        2
 70
     0
 43
0.0
 10
145.7419598359748
 20
265.5467006896216
 10
222.9154799775434
 20
179.7919991731235
1001
ACAD
1000
DSTYLE
1002
{
1070
   147
1040
1.0
1070
    77
1070
     0
1002
}
  0
LINE
  5
EA6E4F315
330
EA6E4DC92
100
AcDbEntity
  8
SUNPOU
100
AcDbLine
 10
146.4919598359746
 20
188.8661537449482
 30
0.0
 11
189.6153182710725
 21
156.6830147046438
 31
0.0
  0
LINE
  5
EA6E4F319
330
EA6E4DC92
100
AcDbEntity
  8
JISSEN
100
AcDbLine
 10
156.4919598359748
 20
324.5067006896216
 30
0.0
 11
212.2419598359747
 21
324.5067006896216
 31
0.0
  0
LINE
  5
EA6E4F31A
330
EA6E4DC92
100
AcDbEntity
  8
JISSEN
100
AcDbLine
 10
156.4919598359748
 20
307.5067006896217
 30
0.0
 11
212.2419598359747
 21
307.5067006896217
 31
0.0
  0
LINE
  5
EA6E4F31E
330
EA6E4DC92
100
AcDbEntity
  8
JISSEN
100
AcDbLine
 10
102.7419598359748
 20
265.5467006896216
 30
0.0
 11
102.7419598359748
 21
276.5467006896216
 31
0.0
  0
LINE
  5
EA6E4F31F
330
EA6E4DC92
100
AcDbEntity
  8
JISSEN
100
AcDbLine
 10
113.2419598359748
 20
276.5467006896216
 30
0.0
 11
113.2419598359748
 21
265.5467006896216
 31
0.0
  0
LINE
  5
EA6E4F320
330
EA6E4DC92
100
AcDbEntity
  8
JISSEN
100
AcDbLine
 10
135.2419598359748
 20
276.5467006896216
 30
0.0
 11
135.2419598359748
 21
265.5467006896216
 31
0.0
  0
LINE
  5
EA6E4F321
330
EA6E4DC92
100
AcDbEntity
  8
JISSEN
100
AcDbLine
 10
145.7419598359748
 20
276.5467006896216
 30
0.0
 11
145.7419598359748
 21
265.5467006896216
 31
0.0
  0
ARC
  5
EA6E4F324
330
EA6E4DC92
100
AcDbEntity
  8
JISSEN
100
AcDbCircle
 10
124.2419598359748
 20
251.7820779196895
 30
0.0
 40
4.2
100
AcDbArc
 50
180.0
 51
0.0
  0
CIRCLE
  5
EA6E4F326
330
EA6E4DC92
100
AcDbEntity
  8
JISSEN
100
AcDbCircle
 10
124.2419598359748
 20
221.0820779196895
 30
0.0
 40
26.5
  0
LINE
  5
EA6E4F327
330
EA6E4DC92
100
AcDbEntity
  8
TENSEN
100
AcDbLine
 10
144.9919598359748
 20
157.1220779196895
 30
0.0
 11
103.4919598359747
 21
157.1220779196895
 31
0.0
  0
ARC
  5
EA6E4F328
330
EA6E4DC92
100
AcDbEntity
  8
TENSEN
100
AcDbCircle
 10
134.6169598359748
 20
140.8073492533654
 30
0.0
 40
17.12723214285703
100
AcDbArc
 50
232.7164162125971
 51
307.2835837874029
  0
LINE
  5
EA6E4F329
330
EA6E4DC92
100
AcDbEntity
  8
JISSEN
100
AcDbLine
 10
140.0914964535185
 20
166.6220779196895
 30
0.0
 11
108.392423218431
 21
166.6220779196895
 31
0.0
  0
LINE
  5
EA6E4F32A
330
EA6E4DC92
100
AcDbEntity
  8
JISSEN
100
AcDbLine
 10
108.3924232184313
 20
176.6220779196895
 30
0.0
 11
140.0914964535184
 21
176.6220779196895
 31
0.0
  0
LINE
  5
EA6E4F32B
330
EA6E4DC92
100
AcDbEntity
  8
JISSEN
100
AcDbLine
 10
107.2419598359748
 20
163.6220779196895
 30
0.0
 11
141.2419598359748
 21
163.6220779196895
 31
0.0
  0
ARC
  5
EA6E4F32C
330
EA6E4DC92
100
AcDbEntity
  8
JISSEN
100
AcDbCircle
 10
124.2419598359748
 20
200.7054112530223
 30
0.0
 40
34.0833333333328
100
AcDbArc
 50
252.9384687801029
 51
287.061531219897
  0
ARC
  5
EA6E4F32D
330
EA6E4DC92
100
AcDbEntity
  8
JISSEN
100
AcDbCircle
 10
124.2419598359748
 20
142.5387445863561
 30
0.0
 40
34.0833333333334
100
AcDbArc
 50
72.93846878010295
 51
107.061531219897
  0
ARC
  5
EA6E4F32E
330
EA6E4DC92
100
AcDbEntity
  8
JISSEN
100
AcDbCircle
 10
124.2419598359748
 20
190.3820779196896
 30
0.0
 40
4.2
100
AcDbArc
 50
0.0
 51
180.0
  0
ARC
  5
EA6E4F32F
330
EA6E4DC92
100
AcDbEntity
  8
JISSEN
100
AcDbCircle
 10
124.2419598359748
 20
185.2820779196895
 30
0.0
 40
4.2
100
AcDbArc
 50
180.0
 51
0.0
  0
CIRCLE
  5
EA6E4F330
330
EA6E4DC92
100
AcDbEntity
  8
JISSEN
100
AcDbCircle
 10
124.2419598359748
 20
221.0820779196895
 30
0.0
 40
5.0
  0
LWPOLYLINE
  5
EA6E4F331
330
EA6E4DC92
100
AcDbEntity
  8
JISSEN
100
AcDbPolyline
 90
        6
 70
     1
 43
0.0
 10
119.2419598359748
 20
218.1953265737413
 10
124.2419598359748
 20
215.3085752277932
 10
129.2419598359748
 20
218.1953265737413
 10
129.2419598359748
 20
223.9688292656377
 10
124.2419598359748
 20
226.8555806115858
 10
119.2419598359748
 20
223.9688292656377
  0
CIRCLE
  5
EA6E4F332
330
EA6E4DC92
100
AcDbEntity
  8
JISSEN
100
AcDbCircle
 10
124.2419598359748
 20
221.0820779196895
 30
0.0
 40
10.0
  0
CIRCLE
  5
EA6E4F333
330
EA6E4DC92
100
AcDbEntity
  8
JISSEN
100
AcDbCircle
 10
124.2419598359748
 20
221.0820779196895
 30
0.0
 40
22.0
  0
LINE
  5
EA6E4F334
330
EA6E4DC92
100
AcDbEntity
  8
JISSEN
100
AcDbLine
 10
124.2419598359748
 20
179.6220779196895
 30
0.0
 11
141.2419598359748
 21
179.6220779196895
 31
0.0
  0
CIRCLE
  5
EA6E4F335
330
EA6E4DC92
100
AcDbEntity
  8
SAISEN
100
AcDbCircle
 10
124.2419598359748
 20
171.6220779196895
 30
0.0
 40
2.5
  0
TEXT
  5
EA6E4F336
330
EA6E4DC92
100
AcDbEntity
  8
TEXT
100
AcDbText
 10
122.6600658581801
 20
173.3524729771988
 30
0.0
 40
3.5
  1
住
 50
270.0
  7
K
100
AcDbText
  0
CIRCLE
  5
EA6E4F337
330
EA6E4DC92
100
AcDbEntity
  8
JISSEN
100
AcDbCircle
 10
124.2419598359748
 20
221.0820779196895
 30
0.0
 40
2.75
  0
LINE
  5
EA6E4F338
330
EA6E4DC92
100
AcDbEntity
  8
JISSEN
100
AcDbLine
 10
145.7419598359748
 20
265.5467006896216
 30
0.0
 11
102.7419598359748
 21
265.5467006896216
 31
0.0
  0
ARC
  5
EA6E4F339
330
EA6E4DC92
100
AcDbEntity
  8
JISSEN
100
AcDbCircle
 10
124.2419598359748
 20
256.8820779196895
 30
0.0
 40
4.2
100
AcDbArc
 50
0.0
 51
180.0
  0
LINE
  5
EA6E4F33A
330
EA6E4DC92
100
AcDbEntity
  8
JISSEN
100
AcDbLine
 10
124.2419598359748
 20
262.5467006896217
 30
0.0
 11
141.1687891042675
 21
262.5467006896216
 31
0.0
  0
ARC
  5
EA6E4F33B
330
EA6E4DC92
100
AcDbEntity
  8
JISSEN
100
AcDbCircle
 10
101.2853148196044
 20
165.6598341745834
 30
0.0
 40
26.0
100
AcDbArc
 50
40.52224081850317
 51
94.47775918149488
  0
LINE
  5
EA6E4F33C
330
EA6E4DC92
100
AcDbEntity
  8
JISSEN
100
AcDbLine
 10
101.9919598359748
 20
191.6502295702067
 30
0.0
 11
101.9919598359748
 21
186.0820779196895
 31
0.0
  0
LINE
  5
EA6E4F33D
330
EA6E4DC92
100
AcDbEntity
  8
JISSEN
100
AcDbLine
 10
120.0419598359748
 20
185.2820779196895
 30
0.0
 11
120.0419598359748
 21
192.5520936925646
 31
0.0
  0
LINE
  5
EA6E4F33E
330
EA6E4DC92
100
AcDbEntity
  8
TENSEN
100
AcDbLine
 10
103.4919598359747
 20
157.1220779196895
 30
0.0
 11
103.4919598359748
 21
127.1801171105084
 31
0.0
  0
ARC
  5
EA6E4F33F
330
EA6E4DC92
100
AcDbEntity
  8
TENSEN
100
AcDbCircle
 10
113.8669598359747
 20
140.8073492533654
 30
0.0
 40
17.12723214285697
100
AcDbArc
 50
232.7164162125971
 51
307.2835837874029
  0
ARC
  5
EA6E4F340
330
EA6E4DC92
100
AcDbEntity
  8
TENSEN
100
AcDbCircle
 10
113.8669598359747
 20
113.5528849676512
 30
0.0
 40
17.12723214285724
100
AcDbArc
 50
52.71641621260372
 51
127.2835837873962
  0
LINE
  5
EA6E4F341
330
EA6E4DC92
100
AcDbEntity
  8
JISSEN
100
AcDbLine
 10
107.2419598359748
 20
179.6220779196895
 30
0.0
 11
124.2419598359748
 21
179.6220779196895
 31
0.0
  0
LINE
  5
EA6E4F342
330
EA6E4DC92
100
AcDbEntity
  8
JISSEN
100
AcDbLine
 10
101.9919598359748
 20
186.0820779196895
 30
0.0
 11
117.3766777331512
 21
186.0820779196895
 31
0.0
  0
ARC
  5
EA6E4F343
330
EA6E4DC92
100
AcDbEntity
  8
JISSEN
100
AcDbCircle
 10
108.1972923627549
 20
179.2471927947157
 30
0.0
 40
12.66120791411041
100
AcDbArc
 50
274.3272801182917
 51
298.5167942723198
  0
ARC
  5
EA6E4F344
330
EA6E4DC92
100
AcDbEntity
  8
JISSEN
100
AcDbCircle
 10
108.1972923627549
 20
163.9969630446632
 30
0.0
 40
12.66120791411041
100
AcDbArc
 50
61.48320572768021
 51
85.67271988170173
  0
LINE
  5
EA6E4F345
330
EA6E4DC92
100
AcDbEntity
  8
JISSEN
100
AcDbLine
 10
107.2419598359748
 20
167.037861632173
 30
0.0
 11
107.5534677042524
 21
157.1220779196895
 31
0.0
  0
LINE
  5
EA6E4F346
330
EA6E4DC92
100
AcDbEntity
  8
SAISEN
100
AcDbLine
 10
109.3492678948863
 20
163.6220779196895
 30
0.0
 11
107.255021829025
 21
166.6220779196895
 31
0.0
  0
LINE
  5
EA6E4F347
330
EA6E4DC92
100
AcDbEntity
  8
SAISEN
100
AcDbLine
 10
109.5534677042524
 20
157.1220779196895
 30
0.0
 11
109.3492678948863
 21
163.6220779196895
 31
0.0
  0
LINE
  5
EA6E4F348
330
EA6E4DC92
100
AcDbEntity
  8
JISSEN
100
AcDbLine
 10
107.2419598359748
 20
176.2062942072059
 30
0.0
 11
107.5522110900408
 21
186.0820779196895
 31
0.0
  0
LINE
  5
EA6E4F349
330
EA6E4DC92
100
AcDbEntity
  8
SAISEN
100
AcDbLine
 10
109.3492678948863
 20
179.6220779196895
 30
0.0
 11
107.255021829025
 21
176.6220779196895
 31
0.0
  0
LINE
  5
EA6E4F34A
330
EA6E4DC92
100
AcDbEntity
  8
JISSEN
100
AcDbLine
 10
108.3924232184311
 20
166.6220779196895
 30
0.0
 11
104.2419598359747
 21
168.1220779196895
 31
0.0
  0
LINE
  5
EA6E4F34B
330
EA6E4DC92
100
AcDbEntity
  8
JISSEN
100
AcDbLine
 10
108.3924232184311
 20
176.6220779196895
 30
0.0
 11
104.2419598359747
 21
175.1220779196895
 31
0.0
  0
LINE
  5
EA6E4F34C
330
EA6E4DC92
100
AcDbEntity
  8
JISSEN
100
AcDbLine
 10
104.2419598359748
 20
168.1220779196895
 30
0.0
 11
104.2419598359748
 21
175.1220779196895
 31
0.0
  0
LINE
  5
EA6E4F34D
330
EA6E4DC92
100
AcDbEntity
  8
SAISEN
100
AcDbLine
 10
109.5522110900408
 20
186.0820779196895
 30
0.0
 11
109.3492678948863
 21
179.6220779196895
 31
0.0
  0
LINE
  5
EA6E4F34E
330
EA6E4DC92
100
AcDbEntity
  8
JISSEN
100
AcDbLine
 10
114.2419598359748
 20
175.1220779196895
 30
0.0
 11
114.2419598359748
 21
168.1220779196895
 31
0.0
  0
ARC
  5
EA6E4F34F
330
EA6E4DC92
100
AcDbEntity
  8
JISSEN
100
AcDbCircle
 10
98.92753706949646
 20
246.3965006861679
 30
0.0
 40
4.2
100
AcDbArc
 50
44.99999999999942
 51
224.9999999999993
  0
ARC
  5
EA6E4F350
330
EA6E4DC92
100
AcDbEntity
  8
JISSEN
100
AcDbCircle
 10
68.81971609086872
 20
198.1254329033191
 30
0.0
 40
30.0
100
AcDbArc
 50
6.301553148505999
 51
38.69844685149686
  0
ARC
  5
EA6E4F351
330
EA6E4DC92
100
AcDbEntity
  8
JISSEN
100
AcDbCircle
 10
68.81971609086872
 20
198.1254329033191
 30
0.0
 40
26.0
100
AcDbArc
 50
355.5222408185052
 51
49.47775918149453
  0
ARC
  5
EA6E4F352
330
EA6E4DC92
100
AcDbEntity
  8
JISSEN
100
AcDbCircle
 10
68.81971609086872
 20
244.03872293606
 30
0.0
 40
30.0
100
AcDbArc
 50
321.3015531485031
 51
353.698446851494
  0
ARC
  5
EA6E4F353
330
EA6E4DC92
100
AcDbEntity
  8
JISSEN
100
AcDbCircle
 10
68.81971609086872
 20
244.03872293606
 30
0.0
 40
26.0
100
AcDbArc
 50
310.5222408185054
 51
4.477759181494699
  0
ARC
  5
EA6E4F354
330
EA6E4DC92
100
AcDbEntity
  8
JISSEN
100
AcDbCircle
 10
124.2419598359748
 20
221.0820779196895
 30
0.0
 40
28.0
100
AcDbArc
 50
190.3295919283639
 51
214.6704080716368
  0
ARC
  5
EA6E4F355
330
EA6E4DC92
100
AcDbEntity
  8
JISSEN
100
AcDbCircle
 10
98.92753706949646
 20
195.7676551532111
 30
0.0
 40
4.2
100
AcDbArc
 50
135.0000000000006
 51
315.0000000000005
  0
LINE
  5
EA6E4F356
330
EA6E4DC92
100
AcDbEntity
  8
JISSEN
100
AcDbLine
 10
95.95768858851295
 20
198.7375036341946
 30
0.0
 11
101.098366040846
 21
203.8781810865277
 31
0.0
  0
ARC
  5
EA6E4F357
330
EA6E4DC92
100
AcDbEntity
  8
JISSEN
100
AcDbCircle
 10
124.2419598359748
 20
221.0820779196895
 30
0.0
 40
28.0
100
AcDbArc
 50
145.3295919283631
 51
169.670408071636
  0
ARC
  5
EA6E4F358
330
EA6E4DC92
100
AcDbEntity
  8
JISSEN
100
AcDbCircle
 10
95.71197560884991
 20
215.8820779196894
 30
0.0
 40
1.0
100
AcDbArc
 50
10.32959192836394
 51
90.0
  0
ARC
  5
EA6E4F359
330
EA6E4DC92
100
AcDbEntity
  8
JISSEN
100
AcDbCircle
 10
93.54195983597481
 20
221.0820779196895
 30
0.0
 40
4.2
100
AcDbArc
 50
270.0
 51
90.0
  0
ARC
  5
EA6E4F35A
330
EA6E4DC92
100
AcDbEntity
  8
JISSEN
100
AcDbCircle
 10
95.71197560884991
 20
226.2820779196895
 30
0.0
 40
1.0
100
AcDbArc
 50
270.0
 51
349.6704080716424
  0
LINE
  5
EA6E4F35B
330
EA6E4DC92
100
AcDbEntity
  8
JISSEN
100
AcDbLine
 10
95.95768858851295
 20
243.4266522051844
 30
0.0
 11
101.098366040846
 21
238.2859747528513
 31
0.0
  0
LINE
  5
EA6E4F35C
330
EA6E4DC92
100
AcDbEntity
  8
JISSEN
100
AcDbLine
 10
88.4419598359749
 20
225.2820779196895
 30
0.0
 11
95.71197560884991
 21
225.2820779196895
 31
0.0
  0
LINE
  5
EA6E4F35D
330
EA6E4DC92
100
AcDbEntity
  8
JISSEN
100
AcDbLine
 10
88.4419598359749
 20
216.8820779196895
 30
0.0
 11
95.71197560884991
 21
216.8820779196895
 31
0.0
  0
ARC
  5
EA6E4F35E
330
EA6E4DC92
100
AcDbEntity
  8
JISSEN
100
AcDbCircle
 10
88.4419598359749
 20
221.0820779196895
 30
0.0
 40
4.2
100
AcDbArc
 50
90.0
 51
270.0
  0
LWPOLYLINE
  5
EA6E4F35F
330
EA6E4DC92
100
AcDbEntity
  8
JISSEN
100
AcDbPolyline
 90
        4
 70
     0
 43
0.0
 10
119.5177807273072
 20
235.9637550498837
 10
109.2419598359748
 20
230.0310070921287
 42
0.2679491924311228
 10
108.9919598359748
 20
229.5979943902366
 10
108.9919598359748
 20
225.7998279287501
  0
LWPOLYLINE
  5
EA6E4F360
330
EA6E4DC92
100
AcDbEntity
  8
JISSEN
100
AcDbPolyline
 90
        2
 70
     0
 43
0.0
 10
119.4821497469371
 20
233.922457551612
 10
111.8295840095217
 20
229.5042466631239
  0
LINE
  5
EA6E4F361
330
EA6E4DC92
100
AcDbEntity
  8
JISSEN
100
AcDbLine
 10
119.6330635701194
 20
242.5683046912804
 30
0.0
 11
119.4108494952682
 21
229.8376688692438
 31
0.0
  0
ARC
  5
EA6E4F362
330
EA6E4DC92
100
AcDbEntity
  8
JISSEN
100
AcDbCircle
 10
101.2853148196044
 20
165.6598341745834
 30
0.0
 40
30.0
100
AcDbArc
 50
51.30155314850364
 51
83.69844685150034
  0
ARC
  5
EA6E4F363
330
EA6E4DC92
100
AcDbEntity
  8
JISSEN
100
AcDbCircle
 10
124.2419598359748
 20
221.0820779196895
 30
0.0
 40
28.0
100
AcDbArc
 50
235.3295919283631
 51
259.6704080716424
  0
LINE
  5
EA6E4F364
330
EA6E4DC92
100
AcDbEntity
  8
JISSEN
100
AcDbLine
 10
102.755733064384
 20
225.6909741855449
 30
0.0
 11
115.4863688864205
 21
225.9131882603961
 31
0.0
  0
LINE
  5
EA6E4F365
330
EA6E4DC92
100
AcDbEntity
  8
JISSEN
100
AcDbLine
 10
102.755733064384
 20
216.4731816538341
 30
0.0
 11
115.4863688864205
 21
216.2509675789829
 31
0.0
  0
LWPOLYLINE
  5
EA6E4F366
330
EA6E4DC92
100
AcDbEntity
  8
JISSEN
100
AcDbPolyline
 90
        4
 70
     0
 43
0.0
 10
108.9919598359748
 20
216.3643279106289
 10
108.9919598359748
 20
212.5661614491426
 42
0.267949192431123
 10
109.2419598359748
 20
212.1331487472503
 10
119.5177807273072
 20
206.2004007894953
  0
ARC
  5
EA6E4F367
330
EA6E4DC92
100
AcDbEntity
  8
JISSEN
100
AcDbCircle
 10
102.5337816535478
 20
199.3738997372625
 30
0.0
 40
4.2
100
AcDbArc
 50
315.0000000000005
 51
135.0000000000006
  0
LINE
  5
EA6E4F368
330
EA6E4DC92
100
AcDbEntity
  8
JISSEN
100
AcDbLine
 10
101.8973855504799
 20
192.7978066722276
 30
0.0
 11
107.038063002813
 21
197.9384841245608
 31
0.0
  0
ARC
  5
EA6E4F369
330
EA6E4DC92
100
AcDbEntity
  8
JISSEN
100
AcDbCircle
 10
100.3912592596594
 20
204.5852878677142
 30
0.0
 40
1.0
100
AcDbArc
 50
315.0000000000005
 51
34.67040807163687
  0
ARC
  5
EA6E4F36A
330
EA6E4DC92
100
AcDbEntity
  8
JISSEN
100
AcDbCircle
 10
107.7451697839995
 20
197.2313773433741
 30
0.0
 40
1.0
100
AcDbArc
 50
55.32959192836313
 51
135.0000000000006
  0
LINE
  5
EA6E4F36B
330
EA6E4DC92
100
AcDbEntity
  8
JISSEN
100
AcDbLine
 10
119.6330635701193
 20
199.5958511480988
 30
0.0
 11
119.4108494952682
 21
212.3264869701352
 31
0.0
  0
LWPOLYLINE
  5
EA6E4F36C
330
EA6E4DC92
100
AcDbEntity
  8
JISSEN
100
AcDbPolyline
 90
        2
 70
     0
 43
0.0
 10
111.8295840095217
 20
212.6599091762551
 10
119.482149746937
 20
208.2416982877671
  0
ARC
  5
EA6E4F36D
330
EA6E4DC92
100
AcDbEntity
  8
JISSEN
100
AcDbCircle
 10
119.0419598359748
 20
192.5520936925646
 30
0.0
 40
1.0
100
AcDbArc
 50
0.0
 51
79.67040807163606
  0
ARC
  5
EA6E4F36E
330
EA6E4DC92
100
AcDbEntity
  8
JISSEN
100
AcDbCircle
 10
124.2419598359748
 20
221.0820779196895
 30
0.0
 40
15.0
100
AcDbArc
 50
205.8419327631696
 51
214.1580672368305
  0
LWPOLYLINE
  5
EA6E4F36F
330
EA6E4DC92
100
AcDbEntity
  8
JISSEN
100
AcDbPolyline
 90
        2
 70
     0
 43
0.0
 10
110.7419598359748
 20
216.3337815470045
 10
110.7419598359748
 20
214.5437295043785
  0
LWPOLYLINE
  5
EA6E4F370
330
EA6E4DC92
100
AcDbEntity
  8
JISSEN
100
AcDbPolyline
 90
        2
 70
     0
 43
0.0
 10
110.7419598359748
 20
227.6204263350005
 10
110.7419598359748
 20
225.8303742923745
  0
ARC
  5
EA6E4F371
330
EA6E4DC92
100
AcDbEntity
  8
JISSEN
100
AcDbCircle
 10
124.2419598359748
 20
221.0820779196895
 30
0.0
 40
15.0
100
AcDbArc
 50
145.8419327631694
 51
154.1580672368303
  0
ARC
  5
EA6E4F372
330
EA6E4DC92
100
AcDbEntity
  8
JISSEN
100
AcDbCircle
 10
101.2853148196045
 20
276.5043216647956
 30
0.0
 40
26.0
100
AcDbArc
 50
265.5222408185051
 51
319.4777591814968
  0
ARC
  5
EA6E4F373
330
EA6E4DC92
100
AcDbEntity
  8
JISSEN
100
AcDbCircle
 10
101.2853148196045
 20
276.5043216647956
 30
0.0
 40
30.0
100
AcDbArc
 50
276.3015531484996
 51
308.6984468514963
  0
ARC
  5
EA6E4F374
330
EA6E4DC92
100
AcDbEntity
  8
JISSEN
100
AcDbCircle
 10
124.2419598359748
 20
221.0820779196895
 30
0.0
 40
28.0
100
AcDbArc
 50
100.3295919283575
 51
124.6704080716368
  0
LINE
  5
EA6E4F375
330
EA6E4DC92
100
AcDbEntity
  8
JISSEN
100
AcDbLine
 10
107.3151305676822
 20
262.5467006896217
 30
0.0
 11
124.2419598359748
 21
262.5467006896216
 31
0.0
  0
LINE
  5
EA6E4F376
330
EA6E4DC92
100
AcDbEntity
  8
JISSEN
100
AcDbLine
 10
101.9919598359748
 20
256.0820779196895
 30
0.0
 11
117.3766777331515
 21
256.0820779196895
 31
0.0
  0
LINE
  5
EA6E4F377
330
EA6E4DC92
100
AcDbEntity
  8
JISSEN
100
AcDbLine
 10
101.9919598359748
 20
250.5139262691723
 30
0.0
 11
101.9919598359748
 21
256.0820779196895
 31
0.0
  0
LINE
  5
EA6E4F378
330
EA6E4DC92
100
AcDbEntity
  8
JISSEN
100
AcDbLine
 10
101.8973855504799
 20
249.3663491671514
 30
0.0
 11
107.038063002813
 21
244.2256717148183
 31
0.0
  0
ARC
  5
EA6E4F379
330
EA6E4DC92
100
AcDbEntity
  8
JISSEN
100
AcDbCircle
 10
102.5337816535478
 20
242.7902561021165
 30
0.0
 40
4.2
100
AcDbArc
 50
224.9999999999993
 51
44.99999999999942
  0
ARC
  5
EA6E4F37A
330
EA6E4DC92
100
AcDbEntity
  8
JISSEN
100
AcDbCircle
 10
100.3912592596594
 20
237.5788679716648
 30
0.0
 40
1.0
100
AcDbArc
 50
325.3295919283631
 51
44.99999999999942
  0
ARC
  5
EA6E4F37B
330
EA6E4DC92
100
AcDbEntity
  8
JISSEN
100
AcDbCircle
 10
107.7451697839995
 20
244.9327784960049
 30
0.0
 40
1.0
100
AcDbArc
 50
224.9999999999993
 51
304.6704080716368
  0
LINE
  5
EA6E4F37C
330
EA6E4DC92
100
AcDbEntity
  8
JISSEN
100
AcDbLine
 10
107.4728042937781
 20
256.0820779196895
 30
0.0
 11
107.2419598359748
 21
265.5467006896216
 31
0.0
  0
LINE
  5
EA6E4F37D
330
EA6E4DC92
100
AcDbEntity
  8
SAISEN
100
AcDbLine
 10
109.3152782567306
 20
262.5467006896216
 30
0.0
 11
109.472804293778
 21
256.0820779196895
 31
0.0
  0
LINE
  5
EA6E4F37E
330
EA6E4DC92
100
AcDbEntity
  8
SAISEN
100
AcDbLine
 10
107.2419598359748
 20
265.5467006896217
 30
0.0
 11
109.3152782567306
 21
262.5467006896216
 31
0.0
  0
LINE
  5
EA6E4F37F
330
EA6E4DC92
100
AcDbEntity
  8
JISSEN
100
AcDbLine
 10
120.0419598359748
 20
256.8820779196895
 30
0.0
 11
120.0419598359748
 21
249.6120621468144
 31
0.0
  0
ARC
  5
EA6E4F380
330
EA6E4DC92
100
AcDbEntity
  8
JISSEN
100
AcDbCircle
 10
119.0419598359748
 20
249.6120621468144
 30
0.0
 40
1.0
100
AcDbArc
 50
280.3295919283575
 51
0.0
  0
INSERT
  5
EA6E4F381
330
EA6E4DC92
100
AcDbEntity
  8
SUNPOU
100
AcDbBlockReference
  2
ARROWANG
 10
146.4919598359747
 20
188.8661537449481
 30
0.0
 41
2.999999999999958
 42
3.0
 43
3.0
 50
142.8908174112515
1001
ACAD
1000
DSTYLE
1002
{
1070
   147
1040
1.0
1070
    77
1070
     0
1002
}
  0
ARC
  5
EA6E4F382
330
EA6E4DC92
100
AcDbEntity
  8
JISSEN
100
AcDbCircle
 10
147.1986048523451
 20
165.6598341745834
 30
0.0
 40
26.0
100
AcDbArc
 50
85.52224081850511
 51
139.4777591814968
  0
LINE
  5
EA6E4F383
330
EA6E4DC92
100
AcDbEntity
  8
JISSEN
100
AcDbLine
 10
128.4419598359747
 20
185.2820779196895
 30
0.0
 11
128.4419598359747
 21
192.5520936925646
 31
0.0
  0
LINE
  5
EA6E4F384
330
EA6E4DC92
100
AcDbEntity
  8
JISSEN
100
AcDbLine
 10
146.4919598359748
 20
191.6502295702067
 30
0.0
 11
146.4919598359748
 21
186.0820779196895
 31
0.0
  0
LINE
  5
EA6E4F385
330
EA6E4DC92
100
AcDbEntity
  8
SUNPOU
100
AcDbLine
 10
144.2419598359748
 20
171.6220779196895
 30
0.0
 11
164.5878126474662
 21
156.6459040947798
 31
0.0
  0
LINE
  5
EA6E4F386
330
EA6E4DC92
100
AcDbEntity
  8
TENSEN
100
AcDbLine
 10
144.9919598359748
 20
127.1801171105084
 30
0.0
 11
144.9919598359748
 21
157.1220779196895
 31
0.0
  0
ARC
  5
EA6E4F387
330
EA6E4DC92
100
AcDbEntity
  8
JISSEN
100
AcDbCircle
 10
140.2866273091947
 20
179.2471927947157
 30
0.0
 40
12.66120791411041
100
AcDbArc
 50
241.4832057276802
 51
265.6727198817082
  0
ARC
  5
EA6E4F388
330
EA6E4DC92
100
AcDbEntity
  8
JISSEN
100
AcDbCircle
 10
140.2866273091947
 20
163.9969630446633
 30
0.0
 40
12.66120791411041
100
AcDbArc
 50
94.32728011829176
 51
118.5167942723197
  0
LINE
  5
EA6E4F389
330
EA6E4DC92
100
AcDbEntity
  8
JISSEN
100
AcDbLine
 10
146.4919598359748
 20
186.0820779196895
 30
0.0
 11
131.1072419387982
 21
186.0820779196895
 31
0.0
  0
LINE
  5
EA6E4F38A
330
EA6E4DC92
100
AcDbEntity
  8
JISSEN
100
AcDbLine
 10
134.2419598359748
 20
175.1220779196895
 30
0.0
 11
134.2419598359748
 21
168.1220779196895
 31
0.0
  0
LINE
  5
EA6E4F38B
330
EA6E4DC92
100
AcDbEntity
  8
JISSEN
100
AcDbLine
 10
140.9304519676973
 20
157.1220779196895
 30
0.0
 11
141.2419598359748
 21
167.037861632173
 31
0.0
  0
LINE
  5
EA6E4F38C
330
EA6E4DC92
100
AcDbEntity
  8
SAISEN
100
AcDbLine
 10
139.1346517770633
 20
163.6220779196895
 30
0.0
 11
141.2288978429245
 21
166.6220779196895
 31
0.0
  0
LINE
  5
EA6E4F38D
330
EA6E4DC92
100
AcDbEntity
  8
SAISEN
100
AcDbLine
 10
138.9304519676974
 20
157.1220779196895
 30
0.0
 11
139.1346517770633
 21
163.6220779196895
 31
0.0
  0
INSERT
  5
EA6E4F38E
330
EA6E4DC92
100
AcDbEntity
  8
SUNPOU
100
AcDbBlockReference
  2
ARROWANG
 10
144.2419598359747
 20
171.6220779196896
 30
0.0
 41
3.000000000000024
 42
3.0
 43
3.0
 50
144.021854769631
1001
ACAD
1000
DSTYLE
1002
{
1070
   147
1040
1.0
1070
    77
1070
     0
1002
}
  0
LINE
  5
EA6E4F38F
330
EA6E4DC92
100
AcDbEntity
  8
JISSEN
100
AcDbLine
 10
140.9317085819087
 20
186.0820779196895
 30
0.0
 11
141.2419598359748
 21
176.206294207206
 31
0.0
  0
LINE
  5
EA6E4F390
330
EA6E4DC92
100
AcDbEntity
  8
SAISEN
100
AcDbLine
 10
139.1346517770633
 20
179.6220779196895
 30
0.0
 11
141.2288978429245
 21
176.6220779196895
 31
0.0
  0
LINE
  5
EA6E4F391
330
EA6E4DC92
100
AcDbEntity
  8
JISSEN
100
AcDbLine
 10
140.0914964535185
 20
166.6220779196895
 30
0.0
 11
144.2419598359748
 21
168.1220779196895
 31
0.0
  0
LINE
  5
EA6E4F392
330
EA6E4DC92
100
AcDbEntity
  8
JISSEN
100
AcDbLine
 10
140.0914964535185
 20
176.6220779196895
 30
0.0
 11
144.2419598359748
 21
175.1220779196895
 31
0.0
  0
LINE
  5
EA6E4F393
330
EA6E4DC92
100
AcDbEntity
  8
JISSEN
100
AcDbLine
 10
144.2419598359748
 20
175.1220779196895
 30
0.0
 11
144.2419598359748
 21
168.1220779196895
 31
0.0
  0
LINE
  5
EA6E4F394
330
EA6E4DC92
100
AcDbEntity
  8
SAISEN
100
AcDbLine
 10
138.9317085819088
 20
186.0820779196895
 30
0.0
 11
139.1346517770633
 21
179.6220779196895
 31
0.0
  0
CIRCLE
  5
EA6E4F395
330
EA6E4DC92
100
AcDbEntity
  8
SUNPOU
100
AcDbCircle
 10
170.2252547665638
 20
152.4962961188591
 30
0.0
 40
7.0
  0
TEXT
  5
EA6E4F396
330
EA6E4DC92
100
AcDbEntity
  8
TEXT
100
AcDbText
 10
168.2271386492993
 20
149.0247753828268
 30
0.0
 40
6.0
  1
1
  7
K
100
AcDbText
  0
ARC
  5
EA6E4F397
330
EA6E4DC92
100
AcDbEntity
  8
JISSEN
100
AcDbCircle
 10
149.5563826024532
 20
246.3965006861679
 30
0.0
 40
4.2
100
AcDbArc
 50
315.0000000000005
 51
135.0000000000006
  0
ARC
  5
EA6E4F398
330
EA6E4DC92
100
AcDbEntity
  8
JISSEN
100
AcDbCircle
 10
179.6642035810808
 20
244.0387229360598
 30
0.0
 40
30.0
100
AcDbArc
 50
186.301553148506
 51
218.6984468514968
  0
ARC
  5
EA6E4F399
330
EA6E4DC92
100
AcDbEntity
  8
JISSEN
100
AcDbCircle
 10
179.6642035810808
 20
198.1254329033191
 30
0.0
 40
30.0
100
AcDbArc
 50
141.3015531485031
 51
173.6984468515004
  0
ARC
  5
EA6E4F39A
330
EA6E4DC92
100
AcDbEntity
  8
JISSEN
100
AcDbCircle
 10
149.5563826024532
 20
195.7676551532111
 30
0.0
 40
4.2
100
AcDbArc
 50
224.9999999999993
 51
44.99999999999942
  0
ARC
  5
EA6E4F39B
330
EA6E4DC92
100
AcDbEntity
  8
JISSEN
100
AcDbCircle
 10
179.6642035810808
 20
198.1254329033191
 30
0.0
 40
26.0
100
AcDbArc
 50
130.5222408185054
 51
184.4777591814947
  0
ARC
  5
EA6E4F39C
330
EA6E4DC92
100
AcDbEntity
  8
JISSEN
100
AcDbCircle
 10
179.6642035810808
 20
244.0387229360598
 30
0.0
 40
26.0
100
AcDbArc
 50
175.5222408185052
 51
229.4777591814963
  0
ARC
  5
EA6E4F39D
330
EA6E4DC92
100
AcDbEntity
  8
JISSEN
100
AcDbCircle
 10
152.7719440630997
 20
215.8820779196894
 30
0.0
 40
1.0
100
AcDbArc
 50
90.0
 51
169.670408071636
  0
ARC
  5
EA6E4F39E
330
EA6E4DC92
100
AcDbEntity
  8
JISSEN
100
AcDbCircle
 10
154.9419598359747
 20
221.0820779196895
 30
0.0
 40
4.2
100
AcDbArc
 50
90.0
 51
270.0
  0
ARC
  5
EA6E4F39F
330
EA6E4DC92
100
AcDbEntity
  8
JISSEN
100
AcDbCircle
 10
152.7719440630997
 20
226.2820779196894
 30
0.0
 40
1.0
100
AcDbArc
 50
190.3295919283575
 51
270.0
  0
ARC
  5
EA6E4F3A0
330
EA6E4DC92
100
AcDbEntity
  8
JISSEN
100
AcDbCircle
 10
124.2419598359748
 20
221.0820779196895
 30
0.0
 40
28.0
100
AcDbArc
 50
10.32959192836394
 51
34.67040807163687
  0
LWPOLYLINE
  5
EA6E4F3A1
330
EA6E4DC92
100
AcDbEntity
  8
JISSEN
100
AcDbPolyline
 90
        4
 70
     0
 43
0.0
 10
139.4919598359748
 20
225.7998279287501
 10
139.4919598359748
 20
229.5979943902364
 42
0.2679491924311226
 10
139.2419598359748
 20
230.0310070921287
 10
128.9661389446424
 20
235.9637550498837
  0
LWPOLYLINE
  5
EA6E4F3A2
330
EA6E4DC92
100
AcDbEntity
  8
JISSEN
100
AcDbPolyline
 90
        2
 70
     0
 43
0.0
 10
136.6543356624279
 20
229.5042466631239
 10
129.0017699250125
 20
233.922457551612
  0
LINE
  5
EA6E4F3A3
330
EA6E4DC92
100
AcDbEntity
  8
JISSEN
100
AcDbLine
 10
128.8508561018302
 20
242.5683046912804
 30
0.0
 11
129.0730701766814
 21
229.8376688692438
 31
0.0
  0
ARC
  5
EA6E4F3A4
330
EA6E4DC92
100
AcDbEntity
  8
JISSEN
100
AcDbCircle
 10
147.1986048523451
 20
165.6598341745834
 30
0.0
 40
30.0
100
AcDbArc
 50
96.30155314850618
 51
128.6984468514963
  0
ARC
  5
EA6E4F3A5
330
EA6E4DC92
100
AcDbEntity
  8
JISSEN
100
AcDbCircle
 10
124.2419598359748
 20
221.0820779196895
 30
0.0
 40
28.0
100
AcDbArc
 50
280.3295919283575
 51
304.6704080716368
  0
LWPOLYLINE
  5
EA6E4F3A6
330
EA6E4DC92
100
AcDbEntity
  8
JISSEN
100
AcDbPolyline
 90
        4
 70
     0
 43
0.0
 10
128.9661389446424
 20
206.2004007894951
 10
139.2419598359748
 20
212.1331487472503
 42
0.2679491924311221
 10
139.4919598359748
 20
212.5661614491426
 10
139.4919598359748
 20
216.3643279106289
  0
LINE
  5
EA6E4F3A7
330
EA6E4DC92
100
AcDbEntity
  8
JISSEN
100
AcDbLine
 10
145.7281866075655
 20
216.473181653834
 30
0.0
 11
132.9975507855291
 21
216.2509675789829
 31
0.0
  0
LINE
  5
EA6E4F3A8
330
EA6E4DC92
100
AcDbEntity
  8
JISSEN
100
AcDbLine
 10
145.7281866075655
 20
225.6909741855449
 30
0.0
 11
132.9975507855291
 21
225.9131882603961
 31
0.0
  0
LINE
  5
EA6E4F3A9
330
EA6E4DC92
100
AcDbEntity
  8
JISSEN
100
AcDbLine
 10
128.8508561018302
 20
199.5958511480988
 30
0.0
 11
129.0730701766813
 21
212.3264869701352
 31
0.0
  0
LWPOLYLINE
  5
EA6E4F3AA
330
EA6E4DC92
100
AcDbEntity
  8
JISSEN
100
AcDbPolyline
 90
        2
 70
     0
 43
0.0
 10
129.0017699250125
 20
208.241698287767
 10
136.6543356624279
 20
212.6599091762551
  0
ARC
  5
EA6E4F3AB
330
EA6E4DC92
100
AcDbEntity
  8
JISSEN
100
AcDbCircle
 10
129.4419598359747
 20
192.5520936925646
 30
0.0
 40
1.0
100
AcDbArc
 50
100.3295919283575
 51
180.0
  0
ARC
  5
EA6E4F3AC
330
EA6E4DC92
100
AcDbEntity
  8
JISSEN
100
AcDbCircle
 10
124.2419598359748
 20
221.0820779196895
 30
0.0
 40
15.0
100
AcDbArc
 50
325.8419327631693
 51
334.1580672368303
  0
LWPOLYLINE
  5
EA6E4F3AD
330
EA6E4DC92
100
AcDbEntity
  8
JISSEN
100
AcDbPolyline
 90
        2
 70
     0
 43
0.0
 10
137.7419598359748
 20
214.5437295043785
 10
137.7419598359748
 20
216.3337815470045
  0
LWPOLYLINE
  5
EA6E4F3AE
330
EA6E4DC92
100
AcDbEntity
  8
JISSEN
100
AcDbPolyline
 90
        2
 70
     0
 43
0.0
 10
137.7419598359748
 20
225.8303742923745
 10
137.7419598359748
 20
227.6204263350005
  0
ARC
  5
EA6E4F3AF
330
EA6E4DC92
100
AcDbEntity
  8
JISSEN
100
AcDbCircle
 10
124.2419598359748
 20
221.0820779196895
 30
0.0
 40
15.0
100
AcDbArc
 50
25.84193276316963
 51
34.15806723683059
  0
ARC
  5
EA6E4F3B0
330
EA6E4DC92
100
AcDbEntity
  8
JISSEN
100
AcDbCircle
 10
124.2419598359748
 20
221.0820779196895
 30
0.0
 40
28.0
100
AcDbArc
 50
325.3295919283631
 51
349.670408071636
  0
LINE
  5
EA6E4F3B1
330
EA6E4DC92
100
AcDbEntity
  8
JISSEN
100
AcDbLine
 10
146.5865341214697
 20
192.7978066722276
 30
0.0
 11
141.4458566691365
 21
197.9384841245607
 31
0.0
  0
ARC
  5
EA6E4F3B2
330
EA6E4DC92
100
AcDbEntity
  8
JISSEN
100
AcDbCircle
 10
145.9501380184018
 20
199.3738997372625
 30
0.0
 40
4.2
100
AcDbArc
 50
44.99999999999942
 51
224.9999999999993
  0
ARC
  5
EA6E4F3B3
330
EA6E4DC92
100
AcDbEntity
  8
JISSEN
100
AcDbCircle
 10
140.7387498879501
 20
197.2313773433741
 30
0.0
 40
1.0
100
AcDbArc
 50
44.99999999999942
 51
124.6704080716368
  0
LINE
  5
EA6E4F3B4
330
EA6E4DC92
100
AcDbEntity
  8
JISSEN
100
AcDbLine
 10
152.5262310834367
 20
198.7375036341946
 30
0.0
 11
147.3855536311035
 21
203.8781810865277
 31
0.0
  0
ARC
  5
EA6E4F3B5
330
EA6E4DC92
100
AcDbEntity
  8
JISSEN
100
AcDbCircle
 10
148.0926604122901
 20
204.5852878677142
 30
0.0
 40
1.0
100
AcDbArc
 50
145.3295919283631
 51
224.9999999999993
  0
ARC
  5
EA6E4F3B6
330
EA6E4DC92
100
AcDbEntity
  8
JISSEN
100
AcDbCircle
 10
147.1986048523452
 20
276.5043216647956
 30
0.0
 40
30.0
100
AcDbArc
 50
231.3015531485036
 51
263.6984468515003
  0
ARC
  5
EA6E4F3B7
330
EA6E4DC92
100
AcDbEntity
  8
JISSEN
100
AcDbCircle
 10
147.1986048523452
 20
276.5043216647956
 30
0.0
 40
26.0
100
AcDbArc
 50
220.5222408185032
 51
274.4777591814949
  0
ARC
  5
EA6E4F3B8
330
EA6E4DC92
100
AcDbEntity
  8
JISSEN
100
AcDbCircle
 10
124.2419598359748
 20
221.0820779196895
 30
0.0
 40
28.0
100
AcDbArc
 50
55.32959192836313
 51
79.67040807163606
  0
LINE
  5
EA6E4F3B9
330
EA6E4DC92
100
AcDbEntity
  8
JISSEN
100
AcDbLine
 10
146.4919598359748
 20
256.0820779196895
 30
0.0
 11
131.1072419387983
 21
256.0820779196895
 31
0.0
  0
LINE
  5
EA6E4F3BA
330
EA6E4DC92
100
AcDbEntity
  8
JISSEN
100
AcDbLine
 10
128.4419598359749
 20
256.8820779196895
 30
0.0
 11
128.4419598359749
 21
249.6120621468144
 31
0.0
  0
ARC
  5
EA6E4F3BB
330
EA6E4DC92
100
AcDbEntity
  8
JISSEN
100
AcDbCircle
 10
129.4419598359749
 20
249.6120621468144
 30
0.0
 40
1.0
100
AcDbArc
 50
180.0
 51
259.6704080716424
  0
LINE
  5
EA6E4F3BC
330
EA6E4DC92
100
AcDbEntity
  8
JISSEN
100
AcDbLine
 10
146.4919598359748
 20
250.5139262691723
 30
0.0
 11
146.4919598359748
 21
256.0820779196895
 31
0.0
  0
LINE
  5
EA6E4F3BD
330
EA6E4DC92
100
AcDbEntity
  8
JISSEN
100
AcDbLine
 10
146.5865341214697
 20
249.3663491671514
 30
0.0
 11
141.4458566691365
 21
244.2256717148182
 31
0.0
  0
ARC
  5
EA6E4F3BE
330
EA6E4DC92
100
AcDbEntity
  8
JISSEN
100
AcDbCircle
 10
145.9501380184018
 20
242.7902561021165
 30
0.0
 40
4.2
100
AcDbArc
 50
135.0000000000006
 51
315.0000000000005
  0
ARC
  5
EA6E4F3BF
330
EA6E4DC92
100
AcDbEntity
  8
JISSEN
100
AcDbCircle
 10
140.7387498879501
 20
244.9327784960047
 30
0.0
 40
1.0
100
AcDbArc
 50
235.3295919283631
 51
315.0000000000005
  0
LINE
  5
EA6E4F3C0
330
EA6E4DC92
100
AcDbEntity
  8
JISSEN
100
AcDbLine
 10
152.5262310834367
 20
243.4266522051844
 30
0.0
 11
147.3855536311035
 21
238.2859747528512
 31
0.0
  0
ARC
  5
EA6E4F3C1
330
EA6E4DC92
100
AcDbEntity
  8
JISSEN
100
AcDbCircle
 10
148.0926604122902
 20
237.5788679716648
 30
0.0
 40
1.0
100
AcDbArc
 50
135.0000000000006
 51
214.6704080716368
  0
LINE
  5
EA6E4F3C2
330
EA6E4DC92
100
AcDbEntity
  8
SAISEN
100
AcDbLine
 10
139.168641415219
 20
262.5467006896216
 30
0.0
 11
139.0111153781716
 21
256.0820779196895
 31
0.0
  0
LINE
  5
EA6E4F3C3
330
EA6E4DC92
100
AcDbEntity
  8
JISSEN
100
AcDbLine
 10
141.2419598359748
 20
265.5467006896216
 30
0.0
 11
141.0111153781716
 21
256.0820779196895
 31
0.0
  0
LINE
  5
EA6E4F3C4
330
EA6E4DC92
100
AcDbEntity
  8
SAISEN
100
AcDbLine
 10
141.2419598359748
 20
265.5467006896216
 30
0.0
 11
139.168641415219
 21
262.5467006896216
 31
0.0
  0
INSERT
  5
EA6E4F3C5
330
EA6E4DC92
100
AcDbEntity
  8
SUNPOU
100
AcDbBlockReference
  2
ARROWANG
 10
145.7419598359748
 20
265.5467006896216
 30
0.0
 41
2.999999999999941
 42
3.0
 43
3.0
 50
132.1943328435372
1001
ACAD
1000
DSTYLE
1002
{
1070
   147
1040
1.0
1070
    77
1070
     0
1002
}
  0
LINE
  5
EA6E4F3C6
330
EA6E4DC92
100
AcDbEntity
  8
JISSEN
100
AcDbLine
 10
160.0419598359748
 20
216.8820779196895
 30
0.0
 11
152.7719440630997
 21
216.8820779196895
 31
0.0
  0
LINE
  5
EA6E4F3C7
330
EA6E4DC92
100
AcDbEntity
  8
JISSEN
100
AcDbLine
 10
160.0419598359748
 20
225.2820779196894
 30
0.0
 11
152.7719440630997
 21
225.2820779196894
 31
0.0
  0
ARC
  5
EA6E4F3C8
330
EA6E4DC92
100
AcDbEntity
  8
JISSEN
100
AcDbCircle
 10
160.0419598359748
 20
221.0820779196895
 30
0.0
 40
4.2
100
AcDbArc
 50
270.0
 51
90.0
  0
LINE
  5
EA6E4F3CC
330
EA6E4DC92
100
AcDbEntity
  8
JISSEN
100
AcDbLine
 10
102.7419598359748
 20
276.5467006896216
 30
0.0
 11
145.7419598359748
 21
276.5467006896216
 31
0.0
  0
LINE
  5
EA6E4F3CD
330
EA6E4DC92
100
AcDbEntity
  8
JISSEN
100
AcDbLine
 10
103.4919598359748
 20
286.0067006896215
 30
0.0
 11
144.9919598359748
 21
286.0067006896215
 31
0.0
  0
LINE
  5
EA6E4F3CE
330
EA6E4DC92
100
AcDbEntity
  8
JISSEN
100
AcDbLine
 10
107.3151305676822
 20
279.5467006896216
 30
0.0
 11
141.1687891042675
 21
279.5467006896216
 31
0.0
  0
LINE
  5
EA6E4F3CF
330
EA6E4DC92
100
AcDbEntity
  8
JISSEN
100
AcDbLine
 10
144.9919598359748
 20
346.0067006896216
 30
0.0
 11
103.4919598359748
 21
346.0067006896216
 31
0.0
  0
LINE
  5
EA6E4F3D0
330
EA6E4DC92
100
AcDbEntity
  8
TENSEN
100
AcDbLine
 10
107.2419598359748
 20
349.0067006896215
 30
0.0
 11
141.2419598359748
 21
349.0067006896215
 31
0.0
  0
ARC
  5
EA6E4F3D1
330
EA6E4DC92
100
AcDbEntity
  8
TENSEN
100
AcDbCircle
 10
132.7419598359748
 20
391.210287106595
 30
0.0
 40
12.07142857142859
100
AcDbArc
 50
225.239729896082
 51
314.760270103918
  0
ARC
  5
EA6E4F3D2
330
EA6E4DC92
100
AcDbEntity
  8
TENSEN
100
AcDbCircle
 10
132.7419598359748
 20
374.0674299637378
 30
0.0
 40
12.07142857142858
100
AcDbArc
 50
45.23972989608203
 51
134.7602701039179
  0
LINE
  5
EA6E4F3D3
330
EA6E4DC92
100
AcDbEntity
  8
TENSEN
100
AcDbLine
 10
107.2419598359748
 20
346.0067006896215
 30
0.0
 11
107.2419598359748
 21
382.6388585351663
 31
0.0
  0
LINE
  5
EA6E4F3D4
330
EA6E4DC92
100
AcDbEntity
  8
JISSEN
100
AcDbLine
 10
103.4919598359748
 20
346.0067006896216
 30
0.0
 11
103.4919598359748
 21
286.0067006896215
 31
0.0
  0
LINE
  5
EA6E4F3D5
330
EA6E4DC92
100
AcDbEntity
  8
JISSEN
100
AcDbLine
 10
107.4726915432919
 20
286.0067006896215
 30
0.0
 11
107.2419598359748
 21
276.5467006896216
 31
0.0
  0
LINE
  5
EA6E4F3D6
330
EA6E4DC92
100
AcDbEntity
  8
SAISEN
100
AcDbLine
 10
109.3152782567306
 20
279.5467006896216
 30
0.0
 11
109.4728042937779
 21
286.0113234595536
 31
0.0
  0
LINE
  5
EA6E4F3D7
330
EA6E4DC92
100
AcDbEntity
  8
SAISEN
100
AcDbLine
 10
107.2419598359748
 20
276.5467006896215
 30
0.0
 11
109.3152782567306
 21
279.5467006896216
 31
0.0
  0
LINE
  5
EA6E4F3D8
330
EA6E4DC92
100
AcDbEntity
  8
TENSEN
100
AcDbLine
 10
109.2419598359748
 20
349.0067006896215
 30
0.0
 11
109.2419598359748
 21
346.0067006896215
 31
0.0
  0
LINE
  5
EA6E4F3D9
330
EA6E4DC92
100
AcDbEntity
  8
TENSEN
100
AcDbLine
 10
107.2419598359748
 20
351.3902078748099
 30
0.0
 11
109.2419598359748
 21
349.0067006896215
 31
0.0
  0
ARC
  5
EA6E4F3DA
330
EA6E4DC92
100
AcDbEntity
  8
TENSEN
100
AcDbCircle
 10
115.7419598359748
 20
374.0674299637378
 30
0.0
 40
12.07142857142856
100
AcDbArc
 50
45.23972989608203
 51
134.7602701039179
  0
LINE
  5
EA6E4F3DB
330
EA6E4DC92
100
AcDbEntity
  8
TENSEN
100
AcDbLine
 10
141.2419598359748
 20
346.0067006896215
 30
0.0
 11
141.2419598359748
 21
382.6388585351663
 31
0.0
  0
LINE
  5
EA6E4F3DC
330
EA6E4DC92
100
AcDbEntity
  8
JISSEN
100
AcDbLine
 10
156.4919598359748
 20
328.0067006896215
 30
0.0
 11
144.9919598359748
 21
328.0067006896215
 31
0.0
  0
LINE
  5
EA6E4F3DD
330
EA6E4DC92
100
AcDbEntity
  8
JISSEN
100
AcDbLine
 10
144.9919598359748
 20
304.0067006896216
 30
0.0
 11
156.4919598359748
 21
304.0067006896216
 31
0.0
  0
LINE
  5
EA6E4F3DE
330
EA6E4DC92
100
AcDbEntity
  8
JISSEN
100
AcDbLine
 10
144.9919598359748
 20
286.0067006896215
 30
0.0
 11
144.9919598359748
 21
304.0067006896216
 31
0.0
  0
INSERT
  5
EA6E4F3DF
330
EA6E4DC92
100
AcDbEntity
  8
SUNPOU
100
AcDbBlockReference
  2
ARROWANG
 10
144.9919598359748
 20
286.0067006896215
 30
0.0
 41
2.999999999999971
 42
3.0
 43
3.0
 50
133.9082710396877
1001
ACAD
1000
DSTYLE
1002
{
1070
   147
1040
1.0
1070
    77
1070
     0
1002
}
  0
LINE
  5
EA6E4F3E0
330
EA6E4DC92
100
AcDbEntity
  8
SAISEN
100
AcDbLine
 10
139.168641415219
 20
279.5467006896217
 30
0.0
 11
139.0111153781716
 21
286.0113234595538
 31
0.0
  0
LINE
  5
EA6E4F3E1
330
EA6E4DC92
100
AcDbEntity
  8
JISSEN
100
AcDbLine
 10
141.2419598359748
 20
276.5467006896216
 30
0.0
 11
141.0112281286577
 21
286.0067006896215
 31
0.0
  0
LINE
  5
EA6E4F3E2
330
EA6E4DC92
100
AcDbEntity
  8
SAISEN
100
AcDbLine
 10
141.2419598359748
 20
276.5467006896217
 30
0.0
 11
139.168641415219
 21
279.5467006896217
 31
0.0
  0
LINE
  5
EA6E4F3E3
330
EA6E4DC92
100
AcDbEntity
  8
JISSEN
100
AcDbLine
 10
144.9919598359748
 20
328.0067006896215
 30
0.0
 11
144.9919598359748
 21
346.0067006896216
 31
0.0
  0
LINE
  5
EA6E4F3E4
330
EA6E4DC92
100
AcDbEntity
  8
TENSEN
100
AcDbLine
 10
139.2419598359748
 20
349.0067006896215
 30
0.0
 11
139.2419598359748
 21
346.0067006896215
 31
0.0
  0
LINE
  5
EA6E4F3E5
330
EA6E4DC92
100
AcDbEntity
  8
TENSEN
100
AcDbLine
 10
141.2419598359748
 20
351.3902078748099
 30
0.0
 11
139.2419598359748
 21
349.0067006896215
 31
0.0
  0
LINE
  5
EA6E4F3E6
330
EA6E4DC92
100
AcDbEntity
  8
JISSEN
100
AcDbLine
 10
156.4919598359748
 20
304.0067006896216
 30
0.0
 11
156.4919598359748
 21
328.0067006896215
 31
0.0
  0
LINE
  5
EA6E4F3E7
330
EA6E4DC92
100
AcDbEntity
  8
JISSEN
100
AcDbLine
 10
160.4919598359748
 20
324.5067006896217
 30
0.0
 11
160.4919598359748
 21
307.5067006896217
 31
0.0
  0
LINE
  5
EA6E4F3E8
330
EA6E4DC92
100
AcDbEntity
  8
SAISEN
100
AcDbLine
 10
156.4919598359748
 20
309.5067006896217
 30
0.0
 11
160.4919598359748
 21
309.5067006896217
 31
0.0
  0
LINE
  5
EA6E4F3E9
330
EA6E4DC92
100
AcDbEntity
  8
SAISEN
100
AcDbLine
 10
160.4919598359748
 20
309.5067006896217
 30
0.0
 11
162.4919598359748
 21
307.5067006896217
 31
0.0
  0
LINE
  5
EA6E4F3EA
330
EA6E4DC92
100
AcDbEntity
  8
SAISEN
100
AcDbLine
 10
156.4919598359748
 20
322.5067006896216
 30
0.0
 11
160.4919598359748
 21
322.5067006896216
 31
0.0
  0
LINE
  5
EA6E4F3EB
330
EA6E4DC92
100
AcDbEntity
  8
SAISEN
100
AcDbLine
 10
160.4919598359748
 20
322.5067006896216
 30
0.0
 11
162.4919598359748
 21
324.5067006896214
 31
0.0
  0
LWPOLYLINE
  5
EA6E4F3F1
330
EA6E4DC92
100
AcDbEntity
  8
SUNPOU
100
AcDbPolyline
 90
        2
 70
     0
 43
0.0
 10
252.6912212307664
 20
363.9513512179378
 10
325.0231647420187
 20
181.0979927557415
1001
ACAD
1000
DSTYLE
1002
{
1070
   147
1040
1.0
1070
    77
1070
     0
1002
}
  0
LWPOLYLINE
  5
EA6E4F3F2
330
EA6E4DC92
100
AcDbEntity
  8
SUNPOU
100
AcDbPolyline
 90
        2
 70
     0
 43
0.0
 10
237.2419598359747
 20
305.0067006896211
 10
299.4619002271815
 20
180.8469318742097
1001
ACAD
1000
DSTYLE
1002
{
1070
   147
1040
1.0
1070
    77
1070
     0
1002
}
  0
LWPOLYLINE
  5
EA6E4F3F3
330
EA6E4DC92
100
AcDbEntity
  8
SUNPOU
100
AcDbPolyline
 90
        2
 70
     0
 43
0.0
 10
188.1037652796504
 20
307.5067006896217
 10
273.6884966593927
 20
180.395269203099
1001
ACAD
1000
DSTYLE
1002
{
1070
   147
1040
1.0
1070
    77
1070
     0
1002
}
  0
CIRCLE
  5
EA6E4F3F4
330
EA6E4DC92
100
AcDbEntity
  8
SUNPOU
100
AcDbCircle
 10
195.2252547665638
 20
152.4962961188591
 30
0.0
 40
7.0
  0
TEXT
  5
EA6E4F3F5
330
EA6E4DC92
100
AcDbEntity
  8
TEXT
100
AcDbText
 10
192.7140280471403
 20
149.4596774154216
 30
0.0
 40
6.0
  1
2
  7
K
100
AcDbText
  0
CIRCLE
  5
EA6E4F3F6
330
EA6E4DC92
100
AcDbEntity
  8
SUNPOU
100
AcDbCircle
 10
227.5980416411507
 20
174.5887678437941
 30
0.0
 40
7.0
  0
TEXT
  5
EA6E4F3F7
330
EA6E4DC92
100
AcDbEntity
  8
TEXT
100
AcDbText
 10
225.5999255238863
 20
171.1172471077618
 30
0.0
 40
6.0
  1
3
  7
K
100
AcDbText
  0
CIRCLE
  5
EA6E4F3F8
330
EA6E4DC92
100
AcDbEntity
  8
SUNPOU
100
AcDbCircle
 10
252.5980416411507
 20
174.5887678437941
 30
0.0
 40
7.0
  0
TEXT
  5
EA6E4F3F9
330
EA6E4DC92
100
AcDbEntity
  8
TEXT
100
AcDbText
 10
250.0868149217272
 20
171.5521491403566
 30
0.0
 40
6.0
  1
4
  7
K
100
AcDbText
  0
CIRCLE
  5
EA6E4F3FA
330
EA6E4DC92
100
AcDbEntity
  8
SUNPOU
100
AcDbCircle
 10
277.5980416411507
 20
174.5887678437941
 30
0.0
 40
7.0
  0
TEXT
  5
EA6E4F3FB
330
EA6E4DC92
100
AcDbEntity
  8
TEXT
100
AcDbText
 10
275.5125690821075
 20
171.4303765712301
 30
0.0
 40
6.0
  1
5
  7
K
100
AcDbText
  0
CIRCLE
  5
EA6E4F3FC
330
EA6E4DC92
100
AcDbEntity
  8
SUNPOU
100
AcDbCircle
 10
327.5980416411507
 20
174.5887678437941
 30
0.0
 40
7.0
  0
CIRCLE
  5
EA6E4F3FD
330
EA6E4DC92
100
AcDbEntity
  8
SUNPOU
100
AcDbCircle
 10
302.5980416411507
 20
174.5887678437941
 30
0.0
 40
7.0
  0
TEXT
  5
EA6E4F3FE
330
EA6E4DC92
100
AcDbEntity
  8
TEXT
100
AcDbText
 10
300.6822692163408
 20
171.5695452216604
 30
0.0
 40
6.0
  1
7
  7
K
100
AcDbText
  0
TEXT
  5
EA6E4F3FF
330
EA6E4DC92
100
AcDbEntity
  8
TEXT
100
AcDbText
 10
325.5959153244267
 20
171.0824549451542
 30
0.0
 40
6.0
  1
6
  7
K
100
AcDbText
  0
CIRCLE
  5
EA6E4F400
330
EA6E4DC92
100
AcDbEntity
  8
JISSEN
100
AcDbCircle
 10
237.2419598359747
 20
403.0067006896214
 30
0.0
 40
42.0
  0
INSERT
  5
EA6E4F403
330
EA6E4DC92
100
AcDbEntity
  8
SUNPOU
100
AcDbBlockReference
  2
ARROWANG
 10
237.2419598359747
 20
305.0067006896213
 30
0.0
 41
2.999999999999994
 42
3.0
 43
3.0
 50
117.6152200394352
1001
ACAD
1000
DSTYLE
1002
{
1070
   147
1040
1.0
1070
    77
1070
     0
1002
}
  0
ARC
  5
EA6E4F404
330
EA6E4DC92
100
AcDbEntity
  8
JISSEN
100
AcDbCircle
 10
237.2419598359759
 20
403.0067006896309
 30
0.0
 40
28.00000000000125
100
AcDbArc
 50
314.7826520576681
 51
180.0000000000195
  0
ARC
  5
EA6E4F405
330
EA6E4DC92
100
AcDbEntity
  8
JISSEN
100
AcDbCircle
 10
237.2419598359747
 20
403.0067006896214
 30
0.0
 40
25.00000000000005
100
AcDbArc
 50
314.68441944602
 51
90.0
  0
CIRCLE
  5
EA6E4F406
330
EA6E4DC92
100
AcDbEntity
  8
JISSEN
100
AcDbCircle
 10
237.2419598359747
 20
403.0067006896214
 30
0.0
 40
35.0
  0
CIRCLE
  5
EA6E4F407
330
EA6E4DC92
100
AcDbEntity
  8
JISSEN
  6
Continuous
100
AcDbCircle
 10
237.2419598359747
 20
403.0067006896214
 30
0.0
 40
37.5
  0
LINE
  5
EA6E4F409
330
EA6E4DC92
100
AcDbEntity
  8
JISSEN
  6
Continuous
100
AcDbLine
 10
226.4919598359747
 20
305.0067006896213
 30
0.0
 11
247.9919598359747
 21
305.0067006896211
 31
0.0
  0
ARC
  5
EA6E4F40A
330
EA6E4DC92
100
AcDbEntity
  8
JISSEN
100
AcDbCircle
 10
237.2419598359747
 20
322.2189555898385
 30
0.0
 40
17.2122549002172
100
AcDbArc
 50
251.7475134716356
 51
288.2524865283641
  0
ARC
  5
EA6E4F40B
330
EA6E4DC92
100
AcDbEntity
  8
JISSEN
100
AcDbCircle
 10
237.2419598359747
 20
311.794445789404
 30
0.0
 40
17.2122549002172
100
AcDbArc
 50
71.74751347163581
 51
108.2524865283641
  0
LINE
  5
EA6E4F40C
330
EA6E4DC92
100
AcDbEntity
  8
JISSEN
100
AcDbLine
 10
247.9919598359752
 20
333.0067006896216
 30
0.0
 11
226.4919598359751
 21
333.0067006896216
 31
0.0
  0
POLYLINE
  5
EA6E4F40D
330
EA6E4DC92
100
AcDbEntity
  8
JISSEN
100
AcDb2dPolyline
 66
     1
 10
0.0
 20
0.0
 30
0.0
 70
     1
  0
VERTEX
  5
EA6E4F40E
330
EA6E4F40D
100
AcDbEntity
  8
JISSEN
100
AcDbVertex
100
AcDb2dVertex
 10
234.250186392532
 20
316.0074826722252
 30
0.0
 42
0.0714693076283245
  0
VERTEX
  5
EA6E4F40F
330
EA6E4F40D
100
AcDbEntity
  8
JISSEN
100
AcDbVertex
100
AcDb2dVertex
 10
234.4900436011239
 20
314.3380104259867
 30
0.0
 42
0.0829154742493596
  0
VERTEX
  5
EA6E4F410
330
EA6E4F40D
100
AcDbEntity
  8
JISSEN
100
AcDbVertex
100
AcDb2dVertex
 10
235.1246084066969
 20
313.02718880987
 30
0.0
 42
0.1067406714191292
 70
     2
 50
305.3112134396332
  0
VERTEX
  5
EA6E4F411
330
EA6E4F40D
100
AcDbEntity
  8
JISSEN
100
AcDbVertex
100
AcDb2dVertex
 10
236.2227075561168
 20
312.020848368839
 30
0.0
 42
0.1550349022404454
 50
35.31121343963318
  0
VERTEX
  5
EA6E4F412
330
EA6E4F40D
100
AcDbEntity
  8
JISSEN
100
AcDbVertex
100
AcDb2dVertex
 10
237.2356498925319
 20
311.7927106722252
 30
0.0
 42
0.1330639172301401
  0
VERTEX
  5
EA6E4F413
330
EA6E4F40D
100
AcDbEntity
  8
JISSEN
100
AcDbVertex
100
AcDb2dVertex
 10
238.3203080272683
 20
312.0865714942504
 30
0.0
 42
0.1067406714191296
  0
VERTEX
  5
EA6E4F414
330
EA6E4F40D
100
AcDbEntity
  8
JISSEN
100
AcDbVertex
100
AcDb2dVertex
 10
239.3466913783668
 20
313.02718880987
 30
0.0
 42
0.0829154742493594
 70
     2
 50
54.68878656036666
  0
VERTEX
  5
EA6E4F415
330
EA6E4F40D
100
AcDbEntity
  8
JISSEN
100
AcDbVertex
100
AcDb2dVertex
 10
239.9812561839403
 20
314.3380104259867
 30
0.0
 42
0.0714693076283241
 50
144.6887865603666
  0
VERTEX
  5
EA6E4F416
330
EA6E4F40D
100
AcDbEntity
  8
JISSEN
100
AcDbVertex
100
AcDb2dVertex
 10
240.221113392532
 20
316.0074826722252
 30
0.0
 42
0.0714693076283252
  0
VERTEX
  5
EA6E4F417
330
EA6E4F40D
100
AcDbEntity
  8
JISSEN
100
AcDbVertex
100
AcDb2dVertex
 10
239.9812561839403
 20
317.6769549184638
 30
0.0
 42
0.0829154742493602
  0
VERTEX
  5
EA6E4F418
330
EA6E4F40D
100
AcDbEntity
  8
JISSEN
100
AcDbVertex
100
AcDb2dVertex
 10
239.3466913783668
 20
318.9877765345803
 30
0.0
 42
0.1067406714191293
 70
     2
 50
125.311213439633
  0
VERTEX
  5
EA6E4F419
330
EA6E4F40D
100
AcDbEntity
  8
JISSEN
100
AcDbVertex
100
AcDb2dVertex
 10
238.3203080272683
 20
319.9283938501999
 30
0.0
 42
0.1330639172301401
 50
215.3112134396331
  0
VERTEX
  5
EA6E4F41A
330
EA6E4F40D
100
AcDbEntity
  8
JISSEN
100
AcDbVertex
100
AcDb2dVertex
 10
237.2356498925319
 20
320.2222546722253
 30
0.0
 42
0.1330639172301399
  0
VERTEX
  5
EA6E4F41B
330
EA6E4F40D
100
AcDbEntity
  8
JISSEN
100
AcDbVertex
100
AcDb2dVertex
 10
236.1509917577957
 20
319.9283938501999
 30
0.0
 42
0.1067406714191293
  0
VERTEX
  5
EA6E4F41C
330
EA6E4F40D
100
AcDbEntity
  8
JISSEN
100
AcDbVertex
100
AcDb2dVertex
 10
235.1246084066969
 20
318.9877765345803
 30
0.0
 42
0.0829154742493597
 70
     2
 50
234.6887865603667
  0
VERTEX
  5
EA6E4F41D
330
EA6E4F40D
100
AcDbEntity
  8
JISSEN
100
AcDbVertex
100
AcDb2dVertex
 10
234.4900436011239
 20
317.6769549184638
 30
0.0
 42
0.0714693076283244
 50
324.6887865603667
  0
SEQEND
  5
EA6E4F41E
330
EA6E4F40D
100
AcDbEntity
  8
JISSEN
  0
INSERT
  5
EA6E4F41F
330
EA6E4DC92
100
AcDbEntity
  8
JISSEN
100
AcDbBlockReference
  2
*X6
 10
234.0745708925319
 20
320.5734856722252
 30
0.0
 41
0.3512309999999843
 42
0.3512309999999843
 43
0.3512309999999999
 50
270.0
  0
POLYLINE
  5
EA6E4F420
330
EA6E4DC92
100
AcDbEntity
  8
JISSEN
100
AcDb2dPolyline
 66
     1
 10
0.0
 20
0.0
 30
0.0
 70
     1
  0
VERTEX
  5
EA6E4F421
330
EA6E4F420
100
AcDbEntity
  8
JISSEN
100
AcDbVertex
100
AcDb2dVertex
 10
234.6014173925318
 20
316.0074826722252
 30
0.0
 42
0.0689212726861089
  0
VERTEX
  5
EA6E4F422
330
EA6E4F420
100
AcDbEntity
  8
JISSEN
100
AcDbVertex
100
AcDb2dVertex
 10
234.8139824797003
 20
314.4727215991078
 30
0.0
 42
0.0809685170767006
  0
VERTEX
  5
EA6E4F423
330
EA6E4F420
100
AcDbEntity
  8
JISSEN
100
AcDbVertex
100
AcDb2dVertex
 10
235.37296622856
 20
313.2755466317329
 30
0.0
 42
0.1070187297923515
 70
     2
 50
304.2868769772089
  0
VERTEX
  5
EA6E4F424
330
EA6E4F420
100
AcDbEntity
  8
JISSEN
100
AcDbVertex
100
AcDb2dVertex
 10
236.3474015005981
 20
312.3509655960135
 30
0.0
 42
0.1598118359516122
 50
34.28687697720894
  0
VERTEX
  5
EA6E4F425
330
EA6E4F420
100
AcDbEntity
  8
JISSEN
100
AcDbVertex
100
AcDb2dVertex
 10
237.2356498925319
 20
312.1439416722253
 30
0.0
 42
0.1373351888463599
  0
VERTEX
  5
EA6E4F426
330
EA6E4F420
100
AcDbEntity
  8
JISSEN
100
AcDbVertex
100
AcDb2dVertex
 10
238.186153416997
 20
312.4100356200227
 30
0.0
 42
0.1070187297923511
  0
VERTEX
  5
EA6E4F427
330
EA6E4F420
100
AcDbEntity
  8
JISSEN
100
AcDbVertex
100
AcDb2dVertex
 10
239.098333556504
 20
313.2755466317329
 30
0.0
 42
0.0809685170767004
 70
     2
 50
55.71312302279099
  0
VERTEX
  5
EA6E4F428
330
EA6E4F420
100
AcDbEntity
  8
JISSEN
100
AcDbVertex
100
AcDb2dVertex
 10
239.6573173053634
 20
314.4727215991078
 30
0.0
 42
0.068921272686109
 50
145.713123022791
  0
VERTEX
  5
EA6E4F429
330
EA6E4F420
100
AcDbEntity
  8
JISSEN
100
AcDbVertex
100
AcDb2dVertex
 10
239.8698823925319
 20
316.0074826722252
 30
0.0
 42
0.0689212726861093
  0
VERTEX
  5
EA6E4F42A
330
EA6E4F420
100
AcDbEntity
  8
JISSEN
100
AcDbVertex
100
AcDb2dVertex
 10
239.6573173053634
 20
317.5422437453426
 30
0.0
 42
0.0809685170767009
  0
VERTEX
  5
EA6E4F42B
330
EA6E4F420
100
AcDbEntity
  8
JISSEN
100
AcDbVertex
100
AcDb2dVertex
 10
239.098333556504
 20
318.7394187127174
 30
0.0
 42
0.1070187297923514
 70
     2
 50
124.2868769772088
  0
VERTEX
  5
EA6E4F42C
330
EA6E4F420
100
AcDbEntity
  8
JISSEN
100
AcDbVertex
100
AcDb2dVertex
 10
238.186153416997
 20
319.6049297244276
 30
0.0
 42
0.1373351888463605
 50
214.2868769772089
  0
VERTEX
  5
EA6E4F42D
330
EA6E4F420
100
AcDbEntity
  8
JISSEN
100
AcDbVertex
100
AcDb2dVertex
 10
237.2356498925319
 20
319.8710236722253
 30
0.0
 42
0.1373351888463604
  0
VERTEX
  5
EA6E4F42E
330
EA6E4F420
100
AcDbEntity
  8
JISSEN
100
AcDbVertex
100
AcDb2dVertex
 10
236.2851463680667
 20
319.6049297244276
 30
0.0
 42
0.1070187297923513
  0
VERTEX
  5
EA6E4F42F
330
EA6E4F420
100
AcDbEntity
  8
JISSEN
100
AcDbVertex
100
AcDb2dVertex
 10
235.37296622856
 20
318.7394187127174
 30
0.0
 42
0.0809685170767004
 70
     2
 50
235.7131230227909
  0
VERTEX
  5
EA6E4F430
330
EA6E4F420
100
AcDbEntity
  8
JISSEN
100
AcDbVertex
100
AcDb2dVertex
 10
234.8139824797003
 20
317.5422437453426
 30
0.0
 42
0.0689212726861086
 50
325.7131230227909
  0
SEQEND
  5
EA6E4F431
330
EA6E4F420
100
AcDbEntity
  8
JISSEN
  0
LINE
  5
EA6E4F432
330
EA6E4DC92
100
AcDbEntity
  8
JISSEN
100
AcDbLine
 10
247.9919598359752
 20
329.0067006896216
 30
0.0
 11
237.2419598359751
 21
329.0067006896217
 31
0.0
  0
POLYLINE
  5
EA6E4F433
330
EA6E4DC92
100
AcDbEntity
  8
JISSEN
100
AcDb2dPolyline
 66
     1
 10
0.0
 20
0.0
 30
0.0
  0
VERTEX
  5
EA6E4F434
330
EA6E4F433
100
AcDbEntity
  8
JISSEN
100
AcDbVertex
100
AcDb2dVertex
 10
238.6388886795527
 20
314.6421631199255
 30
0.0
 42
0.0508792192586602
  0
VERTEX
  5
EA6E4F435
330
EA6E4F433
100
AcDbEntity
  8
JISSEN
100
AcDbVertex
100
AcDb2dVertex
 10
238.7513799763946
 20
314.6980877588353
 30
0.0
 42
0.1071591475341562
  0
VERTEX
  5
EA6E4F436
330
EA6E4F433
100
AcDbEntity
  8
JISSEN
100
AcDbVertex
100
AcDb2dVertex
 10
239.0729937999221
 20
315.0140513847735
 30
0.0
 42
0.0789991877022394
 70
     2
 50
56.72511201516499
  0
VERTEX
  5
EA6E4F437
330
EA6E4F433
100
AcDbEntity
  8
JISSEN
100
AcDbVertex
100
AcDb2dVertex
 10
239.2683318399672
 20
315.447867512415
 30
0.0
 42
0.0664511817867662
 50
146.725112015165
  0
VERTEX
  5
EA6E4F438
330
EA6E4F433
100
AcDbEntity
  8
JISSEN
100
AcDbVertex
100
AcDb2dVertex
 10
239.343035892532
 20
316.0074826722252
 30
0.0
 42
0.0664511817867667
  0
VERTEX
  5
EA6E4F439
330
EA6E4F433
100
AcDbEntity
  8
JISSEN
100
AcDbVertex
100
AcDb2dVertex
 10
239.2683318399672
 20
316.5670978320354
 30
0.0
 42
0.0789991877022392
  0
VERTEX
  5
EA6E4F43A
330
EA6E4F433
100
AcDbEntity
  8
JISSEN
100
AcDbVertex
100
AcDb2dVertex
 10
239.0729937999221
 20
317.0009139596769
 30
0.0
 42
0.1071591475341592
 70
     2
 50
123.2748879848348
  0
VERTEX
  5
EA6E4F43B
330
EA6E4F433
100
AcDbEntity
  8
JISSEN
100
AcDbVertex
100
AcDb2dVertex
 10
238.7513799763946
 20
317.3168775856152
 30
0.0
 42
0.141695250338409
 50
213.2748879848349
  0
VERTEX
  5
EA6E4F43C
330
EA6E4F433
100
AcDbEntity
  8
JISSEN
100
AcDbVertex
100
AcDb2dVertex
 10
238.4210545175319
 20
317.4124066722253
 30
0.0
 42
0.1416952503384097
  0
VERTEX
  5
EA6E4F43D
330
EA6E4F433
100
AcDbEntity
  8
JISSEN
100
AcDbVertex
100
AcDb2dVertex
 10
238.0907290586692
 20
317.3168775856152
 30
0.0
 42
0.1071591475341602
  0
VERTEX
  5
EA6E4F43E
330
EA6E4F433
100
AcDbEntity
  8
JISSEN
100
AcDbVertex
100
AcDb2dVertex
 10
237.7691152351417
 20
317.0009139596769
 30
0.0
 42
0.0789991877022377
 70
     2
 50
236.7251120151649
  0
VERTEX
  5
EA6E4F43F
330
EA6E4F433
100
AcDbEntity
  8
JISSEN
100
AcDbVertex
100
AcDb2dVertex
 10
237.5737771950966
 20
316.5670978320354
 30
0.0
 42
0.0664511817867672
 50
326.7251120151649
  0
VERTEX
  5
EA6E4F440
330
EA6E4F433
100
AcDbEntity
  8
JISSEN
100
AcDbVertex
100
AcDb2dVertex
 10
237.4990731425318
 20
316.0074826722252
 30
0.0
 42
0.0664511817867678
  0
SEQEND
  5
EA6E4F441
330
EA6E4F433
100
AcDbEntity
  8
JISSEN
  0
POLYLINE
  5
EA6E4F442
330
EA6E4DC92
100
AcDbEntity
  8
JISSEN
100
AcDb2dPolyline
 66
     1
 10
0.0
 20
0.0
 30
0.0
  0
VERTEX
  5
EA6E4F443
330
EA6E4F442
100
AcDbEntity
  8
JISSEN
100
AcDbVertex
100
AcDb2dVertex
 10
239.8698823925319
 20
316.0074826722252
 30
0.0
 42
0.0754446162298053
  0
VERTEX
  5
EA6E4F444
330
EA6E4F442
100
AcDbEntity
  8
JISSEN
100
AcDbVertex
100
AcDb2dVertex
 10
239.7543014603679
 20
316.7691212353295
 30
0.0
 42
0.0857828071076088
  0
VERTEX
  5
EA6E4F445
330
EA6E4F442
100
AcDbEntity
  8
JISSEN
100
AcDbVertex
100
AcDb2dVertex
 10
239.4455305327164
 20
317.3734506924713
 30
0.0
 42
0.1060700219635837
 70
     2
 50
126.8698976458439
  0
VERTEX
  5
EA6E4F446
330
EA6E4F442
100
AcDbEntity
  8
JISSEN
100
AcDbVertex
100
AcDb2dVertex
 10
238.9169682185902
 20
317.8332574848636
 30
0.0
 42
0.1480812953266344
 50
216.8698976458439
  0
VERTEX
  5
EA6E4F447
330
EA6E4F442
100
AcDbEntity
  8
JISSEN
100
AcDbVertex
100
AcDb2dVertex
 10
238.4210545175319
 20
317.9392531722251
 30
0.0
 42
0.1268223572478397
  0
VERTEX
  5
EA6E4F448
330
EA6E4F442
100
AcDbEntity
  8
JISSEN
100
AcDbVertex
100
AcDb2dVertex
 10
237.8894515880501
 20
317.8022107204505
 30
0.0
 42
0.1060700219635834
  0
VERTEX
  5
EA6E4F449
330
EA6E4F442
100
AcDbEntity
  8
JISSEN
100
AcDbVertex
100
AcDb2dVertex
 10
237.3965785023474
 20
317.3734506924713
 30
0.0
 42
0.085782807107608
 70
     2
 50
233.130102354156
  0
VERTEX
  5
EA6E4F44A
330
EA6E4F442
100
AcDbEntity
  8
JISSEN
100
AcDbVertex
100
AcDb2dVertex
 10
237.0878075746959
 20
316.7691212353295
 30
0.0
 42
0.0754446162298056
 50
323.130102354156
  0
VERTEX
  5
EA6E4F44B
330
EA6E4F442
100
AcDbEntity
  8
JISSEN
100
AcDbVertex
100
AcDb2dVertex
 10
236.9722266425319
 20
316.0074826722252
 30
0.0
 42
0.0754446162298049
  0
SEQEND
  5
EA6E4F44C
330
EA6E4F442
100
AcDbEntity
  8
JISSEN
  0
ARC
  5
EA6E4F44D
330
EA6E4DC92
100
AcDbEntity
  8
JISSEN
100
AcDbCircle
 10
237.2419598359749
 20
348.780947409362
 30
0.0
 40
19.62990915244282
100
AcDbArc
 50
270.0
 51
279.8382269852484
  0
ARC
  5
EA6E4F44E
330
EA6E4DC92
100
AcDbEntity
  8
JISSEN
100
AcDbCircle
 10
237.2419598359749
 20
313.2324539698771
 30
0.0
 40
19.62990915244717
100
AcDbArc
 50
80.16177301475154
 51
90.0
  0
CIRCLE
  5
EA6E4F44F
330
EA6E4DC92
100
AcDbEntity
  8
JISSEN
  6
Continuous
100
AcDbCircle
 10
237.2419598359747
 20
403.0067006896214
 30
0.0
 40
2.75
  0
CIRCLE
  5
EA6E4F450
330
EA6E4DC92
100
AcDbEntity
  8
JISSEN
100
AcDbCircle
 10
237.2419598359747
 20
403.0067006896214
 30
0.0
 40
4.0
  0
ARC
  5
EA6E4F451
330
EA6E4DC92
100
AcDbEntity
  8
JISSEN
100
AcDbCircle
 10
237.2419598359747
 20
370.0692006896214
 30
0.0
 40
19.06249999999997
100
AcDbArc
 50
243.5189601696268
 51
296.4810398303731
  0
LINE
  5
EA6E4F452
330
EA6E4DC92
100
AcDbEntity
  8
JISSEN
100
AcDbLine
 10
228.7419598359747
 20
351.0067006896214
 30
0.0
 11
245.7419598359746
 21
351.0067006896214
 31
0.0
  0
LINE
  5
EA6E4F453
330
EA6E4DC92
100
AcDbEntity
  8
JISSEN
100
AcDbLine
 10
230.3613355045587
 20
349.0067006896214
 30
0.0
 11
244.1225841673908
 21
349.0067006896214
 31
0.0
  0
LINE
  5
EA6E4F454
330
EA6E4DC92
100
AcDbEntity
  8
JISSEN
100
AcDbLine
 10
229.7713716006807
 20
342.0067006896216
 30
0.0
 11
244.7125480712688
 21
342.0067006896216
 31
0.0
  0
LINE
  5
EA6E4F455
330
EA6E4DC92
100
AcDbEntity
  8
JISSEN
100
AcDbLine
 10
247.691959835975
 20
342.0067006896216
 30
0.0
 11
237.2419598359751
 21
342.0067006896216
 31
0.0
  0
CIRCLE
  5
EA6E4F456
330
EA6E4DC92
100
AcDbEntity
  8
JISSEN
100
AcDbCircle
 10
237.2419598359747
 20
403.0067006896214
 30
0.0
 40
2.0
  0
LINE
  5
EA6E4F457
330
EA6E4DC92
100
AcDbEntity
  8
JISSEN
100
AcDbLine
 10
228.7419598359747
 20
361.8758120534639
 30
0.0
 11
228.7419598359747
 21
351.0067006896214
 31
0.0
  0
LINE
  5
EA6E4F458
330
EA6E4DC92
100
AcDbEntity
  8
SAISEN
100
AcDbLine
 10
208.2419598359748
 20
309.5067006896217
 30
0.0
 11
212.2419598359748
 21
309.5067006896217
 31
0.0
  0
LINE
  5
EA6E4F459
330
EA6E4DC92
100
AcDbEntity
  8
SAISEN
100
AcDbLine
 10
208.2419598359748
 20
322.5067006896216
 30
0.0
 11
212.2419598359747
 21
322.5067006896216
 31
0.0
  0
LINE
  5
EA6E4F45A
330
EA6E4DC92
100
AcDbEntity
  8
JISSEN
100
AcDbLine
 10
208.2419598359748
 20
324.5067006896217
 30
0.0
 11
208.2419598359748
 21
307.5067006896217
 31
0.0
  0
INSERT
  5
EA6E4F45B
330
EA6E4DC92
100
AcDbEntity
  8
SUNPOU
100
AcDbBlockReference
  2
ARROWANG
 10
188.1037652796503
 20
307.5067006896217
 30
0.0
 41
2.999999999999979
 42
3.0
 43
3.0
 50
123.5611706995003
1001
ACAD
1000
DSTYLE
1002
{
1070
   147
1040
1.0
1070
    77
1070
     0
1002
}
  0
LINE
  5
EA6E4F45C
330
EA6E4DC92
100
AcDbEntity
  8
SAISEN
100
AcDbLine
 10
206.2419598359748
 20
307.5067006896217
 30
0.0
 11
208.2419598359748
 21
309.5067006896217
 31
0.0
  0
LINE
  5
EA6E4F45D
330
EA6E4DC92
100
AcDbEntity
  8
SAISEN
100
AcDbLine
 10
206.2419598359748
 20
324.5067006896214
 30
0.0
 11
208.2419598359748
 21
322.5067006896216
 31
0.0
  0
LINE
  5
EA6E4F45E
330
EA6E4DC92
100
AcDbEntity
  8
JISSEN
100
AcDbLine
 10
212.2419598359747
 20
305.7567006896216
 30
0.0
 11
212.2419598359747
 21
316.0067006896216
 31
0.0
  0
LINE
  5
EA6E4F45F
330
EA6E4DC92
100
AcDbEntity
  8
JISSEN
100
AcDbLine
 10
212.7419598359747
 20
305.2567006896215
 30
0.0
 11
212.7419598359747
 21
316.0067006896216
 31
0.0
  0
LINE
  5
EA6E4F460
330
EA6E4DC92
100
AcDbEntity
  8
SUNPOU
100
AcDbLine
 10
212.2419598359747
 20
324.5067006896216
 30
0.0
 11
212.2419598359747
 21
307.5067006896217
 31
0.0
  0
LINE
  5
EA6E4F461
330
EA6E4DC92
100
AcDbEntity
  8
JISSEN
  6
Continuous
100
AcDbLine
 10
225.2419598359747
 20
316.0067006896216
 30
0.0
 11
225.2419598359747
 21
312.0067006896216
 31
0.0
  0
POLYLINE
  5
EA6E4F462
330
EA6E4DC92
100
AcDbEntity
  8
JISSEN
100
AcDb2dPolyline
 66
     1
 10
0.0
 20
0.0
 30
0.0
  0
VERTEX
  5
EA6E4F463
330
EA6E4F462
100
AcDbEntity
  8
JISSEN
100
AcDbVertex
100
AcDb2dVertex
 10
235.128263892532
 20
316.0074826722252
 30
0.0
 42
0.0664511817867678
  0
VERTEX
  5
EA6E4F464
330
EA6E4F462
100
AcDbEntity
  8
JISSEN
100
AcDbVertex
100
AcDb2dVertex
 10
235.2029679450966
 20
315.447867512415
 30
0.0
 42
0.078999187702239
  0
VERTEX
  5
EA6E4F465
330
EA6E4F462
100
AcDbEntity
  8
JISSEN
100
AcDbVertex
100
AcDb2dVertex
 10
235.3983059851416
 20
315.0140513847735
 30
0.0
 42
0.107159147534158
 70
     2
 50
303.2748879848349
  0
VERTEX
  5
EA6E4F466
330
EA6E4F462
100
AcDbEntity
  8
JISSEN
100
AcDbVertex
100
AcDb2dVertex
 10
235.741364722744
 20
314.6770195947413
 30
0.0
 42
0.1647051743017312
 50
33.27488798483491
  0
VERTEX
  5
EA6E4F467
330
EA6E4F462
100
AcDbEntity
  8
JISSEN
100
AcDbVertex
100
AcDb2dVertex
 10
236.0502452675318
 20
314.6025586722251
 30
0.0
 42
0.1416952503384066
  0
VERTEX
  5
EA6E4F468
330
EA6E4F462
100
AcDbEntity
  8
JISSEN
100
AcDbVertex
100
AcDb2dVertex
 10
236.3805707263945
 20
314.6980877588353
 30
0.0
 42
0.1071591475341562
  0
VERTEX
  5
EA6E4F469
330
EA6E4F462
100
AcDbEntity
  8
JISSEN
100
AcDbVertex
100
AcDb2dVertex
 10
236.7021845499221
 20
315.0140513847735
 30
0.0
 42
0.0789991877022394
 70
     2
 50
56.72511201516499
  0
VERTEX
  5
EA6E4F46A
330
EA6E4F462
100
AcDbEntity
  8
JISSEN
100
AcDbVertex
100
AcDb2dVertex
 10
236.8975225899673
 20
315.447867512415
 30
0.0
 42
0.0664511817867652
 50
146.725112015165
  0
VERTEX
  5
EA6E4F46B
330
EA6E4F462
100
AcDbEntity
  8
JISSEN
100
AcDbVertex
100
AcDb2dVertex
 10
236.9722266425319
 20
316.0074826722252
 30
0.0
 42
0.0664511817867667
  0
SEQEND
  5
EA6E4F46C
330
EA6E4F462
100
AcDbEntity
  8
JISSEN
  0
POLYLINE
  5
EA6E4F46D
330
EA6E4DC92
100
AcDbEntity
  8
JISSEN
100
AcDb2dPolyline
 66
     1
 10
0.0
 20
0.0
 30
0.0
  0
VERTEX
  5
EA6E4F46E
330
EA6E4F46D
100
AcDbEntity
  8
JISSEN
100
AcDbVertex
100
AcDb2dVertex
 10
235.834973780461
 20
317.9179750728887
 30
0.0
 42
0.0770392472783632
  0
VERTEX
  5
EA6E4F46F
330
EA6E4F46D
100
AcDbEntity
  8
JISSEN
100
AcDbVertex
100
AcDb2dVertex
 10
235.5186423380501
 20
317.8022107204505
 30
0.0
 42
0.1060700219635834
  0
VERTEX
  5
EA6E4F470
330
EA6E4F46D
100
AcDbEntity
  8
JISSEN
100
AcDbVertex
100
AcDb2dVertex
 10
235.0257692523473
 20
317.3734506924713
 30
0.0
 42
0.085782807107608
 70
     2
 50
233.130102354156
  0
VERTEX
  5
EA6E4F471
330
EA6E4F46D
100
AcDbEntity
  8
JISSEN
100
AcDbVertex
100
AcDb2dVertex
 10
234.716998324696
 20
316.7691212353295
 30
0.0
 42
0.0754446162298052
 50
323.130102354156
  0
VERTEX
  5
EA6E4F472
330
EA6E4F46D
100
AcDbEntity
  8
JISSEN
100
AcDbVertex
100
AcDb2dVertex
 10
234.6014173925318
 20
316.0074826722252
 30
0.0
 42
0.0754446162298049
  0
VERTEX
  5
EA6E4F473
330
EA6E4F46D
100
AcDbEntity
  8
JISSEN
100
AcDbVertex
100
AcDb2dVertex
 10
234.716998324696
 20
315.2458441091209
 30
0.0
 42
0.085782807107608
  0
VERTEX
  5
EA6E4F474
330
EA6E4F46D
100
AcDbEntity
  8
JISSEN
100
AcDbVertex
100
AcDb2dVertex
 10
235.0257692523473
 20
314.6415146519791
 30
0.0
 42
0.1060700219635838
 70
     2
 50
306.8698976458439
  0
VERTEX
  5
EA6E4F475
330
EA6E4F46D
100
AcDbEntity
  8
JISSEN
100
AcDbVertex
100
AcDb2dVertex
 10
235.5186423380501
 20
314.212754624
 30
0.0
 42
0.1268223572478406
 50
36.869897645844
  0
VERTEX
  5
EA6E4F476
330
EA6E4F46D
100
AcDbEntity
  8
JISSEN
100
AcDbVertex
100
AcDb2dVertex
 10
236.0502452675318
 20
314.0757121722252
 30
0.0
 42
0.1268223572478391
  0
VERTEX
  5
EA6E4F477
330
EA6E4F46D
100
AcDbEntity
  8
JISSEN
100
AcDbVertex
100
AcDb2dVertex
 10
236.5818481970136
 20
314.212754624
 30
0.0
 42
0.1060700219635831
  0
VERTEX
  5
EA6E4F478
330
EA6E4F46D
100
AcDbEntity
  8
JISSEN
100
AcDbVertex
100
AcDb2dVertex
 10
237.0747212827166
 20
314.6415146519791
 30
0.0
 42
0.085782807107608
 70
     2
 50
53.13010235415589
  0
VERTEX
  5
EA6E4F479
330
EA6E4F46D
100
AcDbEntity
  8
JISSEN
100
AcDbVertex
100
AcDb2dVertex
 10
237.3834922103678
 20
315.2458441091209
 30
0.0
 42
0.075444616229805
 50
143.1301023541559
  0
VERTEX
  5
EA6E4F47A
330
EA6E4F46D
100
AcDbEntity
  8
JISSEN
100
AcDbVertex
100
AcDb2dVertex
 10
237.4990731425318
 20
316.0074826722252
 30
0.0
 42
0.0754446162298053
  0
SEQEND
  5
EA6E4F47B
330
EA6E4F46D
100
AcDbEntity
  8
JISSEN
  0
LINE
  5
EA6E4F47C
330
EA6E4DC92
100
AcDbEntity
  8
JISSEN
  6
Continuous
100
AcDbLine
 10
212.7419598359747
 20
305.2567006896215
 30
0.0
 11
226.0589471340824
 21
305.2567006896213
 31
0.0
  0
LINE
  5
EA6E4F47D
330
EA6E4DC92
100
AcDbEntity
  8
JISSEN
100
AcDbLine
 10
212.2419598359747
 20
305.7567006896216
 30
0.0
 11
212.7419598359747
 21
305.2567006896215
 31
0.0
  0
LINE
  5
EA6E4F47E
330
EA6E4DC92
100
AcDbEntity
  8
JISSEN
  6
Continuous
100
AcDbLine
 10
226.2419598359747
 20
311.0067006896213
 30
0.0
 11
230.8509951727626
 21
311.0067006896213
 31
0.0
  0
LINE
  5
EA6E4F47F
330
EA6E4DC92
100
AcDbEntity
  8
JISSEN
100
AcDbLine
 10
230.4111627259519
 20
305.8727260934059
 30
0.0
 11
231.8509951727626
 21
305.8727260934059
 31
0.0
  0
ARC
  5
EA6E4F480
330
EA6E4DC92
100
AcDbEntity
  8
JISSEN
100
AcDbCircle
 10
227.7015612809636
 20
309.6784693270999
 30
0.0
 40
4.671789972964431
100
AcDbArc
 50
241.7631501484965
 51
305.4499895235985
  0
ARC
  5
EA6E4F481
330
EA6E4DC92
100
AcDbEntity
  8
JISSEN
100
AcDbCircle
 10
220.0954039027653
 20
316.0067006896215
 30
0.0
 40
11.75559126999714
100
AcDbArc
 50
300.4302842044912
 51
328.3121121663195
  0
LINE
  5
EA6E4F482
330
EA6E4DC92
100
AcDbEntity
  8
JISSEN
100
AcDbLine
 10
226.4919598359747
 20
305.0067006896213
 30
0.0
 11
226.0589471340824
 21
305.2567006896213
 31
0.0
  0
ARC
  5
EA6E4F483
330
EA6E4DC92
100
AcDbEntity
  8
JISSEN
  6
Continuous
100
AcDbCircle
 10
226.2419598359747
 20
312.0067006896213
 30
0.0
 40
1.0
100
AcDbArc
 50
180.0
 51
270.0
  0
LINE
  5
EA6E4F484
330
EA6E4DC92
100
AcDbEntity
  8
JISSEN
100
AcDbLine
 10
230.4111627259519
 20
309.2448337404832
 30
0.0
 11
230.4111627259519
 21
305.8727260934059
 31
0.0
  0
ARC
  5
EA6E4F485
330
EA6E4DC92
100
AcDbEntity
  8
JISSEN
100
AcDbCircle
 10
230.8509951727624
 20
310.0067006896213
 30
0.0
 40
1.0
100
AcDbArc
 50
0.0
 51
90.0
  0
LINE
  5
EA6E4F486
330
EA6E4DC92
100
AcDbEntity
  8
JISSEN
100
AcDbLine
 10
231.8509951727626
 20
310.0067006896213
 30
0.0
 11
231.8509951727623
 21
305.8727260934059
 31
0.0
  0
LINE
  5
EA6E4F487
330
EA6E4DC92
100
AcDbEntity
  8
JISSEN
  6
Continuous
100
AcDbLine
 10
212.7419598359747
 20
326.7567006896216
 30
0.0
 11
224.9919598359747
 21
326.7567006896213
 31
0.0
  0
LINE
  5
EA6E4F488
330
EA6E4DC92
100
AcDbEntity
  8
JISSEN
100
AcDbLine
 10
212.7419598359747
 20
326.7567006896216
 30
0.0
 11
212.7419598359747
 21
316.0067006896216
 31
0.0
  0
LINE
  5
EA6E4F489
330
EA6E4DC92
100
AcDbEntity
  8
JISSEN
100
AcDbLine
 10
212.2419598359747
 20
326.2567006896215
 30
0.0
 11
212.7419598359747
 21
326.7567006896216
 31
0.0
  0
LINE
  5
EA6E4F48A
330
EA6E4DC92
100
AcDbEntity
  8
JISSEN
100
AcDbLine
 10
212.2419598359747
 20
326.2567006896215
 30
0.0
 11
212.2419598359747
 21
316.0067006896216
 31
0.0
  0
LINE
  5
EA6E4F48B
330
EA6E4DC92
100
AcDbEntity
  8
JISSEN
100
AcDbLine
 10
226.4919598359751
 20
333.0067006896216
 30
0.0
 11
226.4919598359751
 21
341.7067006896216
 31
0.0
  0
LINE
  5
EA6E4F48C
330
EA6E4DC92
100
AcDbEntity
  8
JISSEN
100
AcDbLine
 10
226.4919598359749
 20
329.0067006896213
 30
0.0
 11
237.2419598359749
 21
329.0067006896213
 31
0.0
  0
LINE
  5
EA6E4F48D
330
EA6E4DC92
100
AcDbEntity
  8
JISSEN
  6
Continuous
100
AcDbLine
 10
226.2419598359747
 20
321.0067006896216
 30
0.0
 11
230.8509951727628
 21
321.0067006896213
 31
0.0
  0
LINE
  5
EA6E4F48E
330
EA6E4DC92
100
AcDbEntity
  8
JISSEN
100
AcDbLine
 10
229.3927313774711
 20
329.439713391514
 30
0.0
 11
233.8878578697253
 21
329.439713391514
 31
0.0
  0
LINE
  5
EA6E4F48F
330
EA6E4DC92
100
AcDbEntity
  8
JISSEN
100
AcDbLine
 10
230.4111627259521
 20
328.1406752858368
 30
0.0
 11
231.8509951727628
 21
328.1406752858368
 31
0.0
  0
LINE
  5
EA6E4F490
330
EA6E4DC92
100
AcDbEntity
  8
JISSEN
100
AcDbLine
 10
229.3927313774711
 20
332.5736879877295
 30
0.0
 11
233.8878578697253
 21
332.5736879877295
 31
0.0
  0
LINE
  5
EA6E4F491
330
EA6E4DC92
100
AcDbEntity
  8
JISSEN
100
AcDbLine
 10
230.4111627259521
 20
328.1406752858368
 30
0.0
 11
230.4111627259521
 21
323.2103729514371
 31
0.0
  0
ARC
  5
EA6E4F492
330
EA6E4DC92
100
AcDbEntity
  8
JISSEN
100
AcDbCircle
 10
220.0954039027653
 20
316.0067006896215
 30
0.0
 40
11.75559126999714
100
AcDbArc
 50
30.62571585058778
 51
58.75041058843258
  0
LINE
  5
EA6E4F493
330
EA6E4DC92
100
AcDbEntity
  8
JISSEN
  6
Continuous
100
AcDbLine
 10
225.2419598359747
 20
316.0067006896216
 30
0.0
 11
225.2419598359747
 21
320.0067006896215
 31
0.0
  0
ARC
  5
EA6E4F494
330
EA6E4DC92
100
AcDbEntity
  8
JISSEN
  6
Continuous
100
AcDbCircle
 10
226.2419598359747
 20
320.0067006896215
 30
0.0
 40
1.0
100
AcDbArc
 50
90.0
 51
180.0
  0
ARC
  5
EA6E4F495
330
EA6E4DC92
100
AcDbEntity
  8
JISSEN
100
AcDbCircle
 10
227.7015612809636
 20
324.3349320521429
 30
0.0
 40
4.671789972964431
100
AcDbArc
 50
54.5500104763936
 51
114.5500104764499
  0
ARC
  5
EA6E4F496
330
EA6E4DC92
100
AcDbEntity
  8
JISSEN
100
AcDbCircle
 10
227.5673456067229
 20
334.884178396396
 30
0.0
 40
5.879349232938483
100
AcDbArc
 50
251.9121946092734
 51
288.0878053907333
  0
ARC
  5
EA6E4F497
330
EA6E4DC92
100
AcDbEntity
  8
JISSEN
100
AcDbCircle
 10
227.5673456067229
 20
326.84054784825
 30
0.0
 40
5.879349232940107
100
AcDbArc
 50
71.91219460927351
 51
108.0878053907264
  0
LINE
  5
EA6E4F498
330
EA6E4DC92
100
AcDbEntity
  8
JISSEN
100
AcDbLine
 10
225.7419598359749
 20
332.4293504204315
 30
0.0
 11
225.7419598359749
 21
329.295375824216
 31
0.0
  0
LINE
  5
EA6E4F499
330
EA6E4DC92
100
AcDbEntity
  8
JISSEN
100
AcDbLine
 10
224.9919598359747
 20
327.0067006896213
 30
0.0
 11
224.9919598359747
 21
328.1406752858368
 31
0.0
  0
LINE
  5
EA6E4F49A
330
EA6E4DC92
100
AcDbEntity
  8
JISSEN
100
AcDbLine
 10
224.9919598359747
 20
326.7567006896213
 30
0.0
 11
224.9919598359747
 21
328.140675285837
 31
0.0
  0
LINE
  5
EA6E4F49B
330
EA6E4DC92
100
AcDbEntity
  8
JISSEN
100
AcDbLine
 10
226.4919598359747
 20
329.0067006896213
 30
0.0
 11
224.9919598359747
 21
328.1406752858368
 31
0.0
  0
LINE
  5
EA6E4F49C
330
EA6E4DC92
100
AcDbEntity
  8
JISSEN
100
AcDbLine
 10
226.4919598359749
 20
328.8623631223236
 30
0.0
 11
225.7419598359749
 21
329.295375824216
 31
0.0
  0
LINE
  5
EA6E4F49D
330
EA6E4DC92
100
AcDbEntity
  8
JISSEN
100
AcDbLine
 10
226.4919598359749
 20
332.8623631223236
 30
0.0
 11
225.7419598359749
 21
332.4293504204315
 31
0.0
  0
LINE
  5
EA6E4F49E
330
EA6E4DC92
100
AcDbEntity
  8
JISSEN
100
AcDbLine
 10
229.3927313774711
 20
332.5736879877295
 30
0.0
 11
229.3927313774711
 21
329.439713391514
 31
0.0
  0
LINE
  5
EA6E4F49F
330
EA6E4DC92
100
AcDbEntity
  8
JISSEN
100
AcDbLine
 10
231.8509951727628
 20
328.1406752858368
 30
0.0
 11
231.8509951727628
 21
322.0067006896213
 31
0.0
  0
ARC
  5
EA6E4F4A0
330
EA6E4DC92
100
AcDbEntity
  8
JISSEN
100
AcDbCircle
 10
230.8509951727626
 20
322.0067006896213
 30
0.0
 40
1.0
100
AcDbArc
 50
270.0
 51
0.0
  0
POLYLINE
  5
EA6E4F4A1
330
EA6E4DC92
100
AcDbEntity
  8
JISSEN
100
AcDb2dPolyline
 66
     1
 10
0.0
 20
0.0
 30
0.0
  0
VERTEX
  5
EA6E4F4A2
330
EA6E4F4A1
100
AcDbEntity
  8
JISSEN
100
AcDbVertex
100
AcDb2dVertex
 10
237.4990731425318
 20
316.0074826722252
 30
0.0
 42
0.003443646303572
  0
VERTEX
  5
EA6E4F4A3
330
EA6E4F4A1
100
AcDbEntity
  8
JISSEN
100
AcDbVertex
100
AcDb2dVertex
 10
237.4988295935277
 20
316.042844334651
 30
0.0
 42
0.0857828071076088
  0
SEQEND
  5
EA6E4F4A4
330
EA6E4F4A1
100
AcDbEntity
  8
JISSEN
  0
LINE
  5
EA6E4F4A5
330
EA6E4DC92
100
AcDbEntity
  8
JISSEN
100
AcDbLine
 10
236.1836421055113
 20
317.0215712245251
 30
0.0
 11
236.1836421055113
 21
318.2508797245251
 31
0.0
  0
LINE
  5
EA6E4F4A6
330
EA6E4DC92
100
AcDbEntity
  8
JISSEN
100
AcDbLine
 10
235.8324111055112
 20
318.2508797245251
 30
0.0
 11
235.8349737804612
 21
317.9179750728888
 31
0.0
  0
LINE
  5
EA6E4F4A7
330
EA6E4DC92
100
AcDbEntity
  8
JISSEN
100
AcDbLine
 10
236.1836421055113
 20
318.2508797245251
 30
0.0
 11
235.8324111055112
 21
318.2508797245251
 31
0.0
  0
LINE
  5
EA6E4F4A8
330
EA6E4DC92
100
AcDbEntity
  8
JISSEN
100
AcDbLine
 10
235.8324111055112
 20
317.372802224525
 30
0.0
 11
235.8324111055112
 21
317.0215712245251
 31
0.0
  0
POLYLINE
  5
EA6E4F4A9
330
EA6E4DC92
100
AcDbEntity
  8
JISSEN
100
AcDb2dPolyline
 66
     1
 10
0.0
 20
0.0
 30
0.0
  0
VERTEX
  5
EA6E4F4AA
330
EA6E4F4A9
100
AcDbEntity
  8
JISSEN
100
AcDbVertex
100
AcDb2dVertex
 10
235.832411105511
 20
317.372802224525
 30
0.0
 42
0.0508792192586596
  0
VERTEX
  5
EA6E4F4AB
330
EA6E4F4A9
100
AcDbEntity
  8
JISSEN
100
AcDbVertex
100
AcDb2dVertex
 10
235.7199198086693
 20
317.3168775856152
 30
0.0
 42
0.1071591475341602
  0
VERTEX
  5
EA6E4F4AC
330
EA6E4F4A9
100
AcDbEntity
  8
JISSEN
100
AcDbVertex
100
AcDb2dVertex
 10
235.3983059851416
 20
317.0009139596769
 30
0.0
 42
0.0789991877022377
 70
     2
 50
236.7251120151649
  0
VERTEX
  5
EA6E4F4AD
330
EA6E4F4A9
100
AcDbEntity
  8
JISSEN
100
AcDbVertex
100
AcDb2dVertex
 10
235.2029679450966
 20
316.5670978320354
 30
0.0
 42
0.0664511817867672
 50
326.7251120151649
  0
VERTEX
  5
EA6E4F4AE
330
EA6E4F4A9
100
AcDbEntity
  8
JISSEN
100
AcDbVertex
100
AcDb2dVertex
 10
235.128263892532
 20
316.0074826722252
 30
0.0
 42
0.0664511817867678
  0
SEQEND
  5
EA6E4F4AF
330
EA6E4F4A9
100
AcDbEntity
  8
JISSEN
  0
LINE
  5
EA6E4F4B0
330
EA6E4DC92
100
AcDbEntity
  8
JISSEN
100
AcDbLine
 10
235.8324111055112
 20
317.0215712245251
 30
0.0
 11
236.1836421055113
 21
317.0215712245251
 31
0.0
  0
ARC
  5
EA6E4F4B1
330
EA6E4DC92
100
AcDbEntity
  8
JISSEN
100
AcDbCircle
 10
237.2419598359749
 20
348.780947409362
 30
0.0
 40
19.62990915244282
100
AcDbArc
 50
260.1617730147515
 51
270.0
  0
ARC
  5
EA6E4F4B2
330
EA6E4DC92
100
AcDbEntity
  8
JISSEN
100
AcDbCircle
 10
237.2419598359749
 20
313.2324539698771
 30
0.0
 40
19.62990915244717
100
AcDbArc
 50
90.0
 51
99.83822698524184
  0
LINE
  5
EA6E4F4B3
330
EA6E4DC92
100
AcDbEntity
  8
JISSEN
100
AcDbLine
 10
233.8878578697253
 20
332.5736879877295
 30
0.0
 11
233.8878578697253
 21
329.439713391514
 31
0.0
  0
LINE
  5
EA6E4F4B4
330
EA6E4DC92
100
AcDbEntity
  8
JISSEN
100
AcDbLine
 10
226.7919598359751
 20
342.0067006896216
 30
0.0
 11
237.2419598359751
 21
342.0067006896216
 31
0.0
  0
LINE
  5
EA6E4F4B5
330
EA6E4DC92
100
AcDbEntity
  8
HATCH
100
AcDbLine
 10
230.3613355045587
 20
349.0067006896214
 30
0.0
 11
230.773100210441
 21
342.0067006896216
 31
0.0
  0
LINE
  5
EA6E4F4B6
330
EA6E4DC92
100
AcDbEntity
  8
JISSEN
100
AcDbLine
 10
229.2419598359747
 20
351.0067006896214
 30
0.0
 11
229.7713716006806
 21
342.0067006896216
 31
0.0
  0
LINE
  5
EA6E4F4B7
330
EA6E4DC92
100
AcDbEntity
  8
JISSEN
100
AcDbLine
 10
226.4919598359751
 20
341.7067006896216
 30
0.0
 11
226.7919598359751
 21
342.0067006896216
 31
0.0
  0
LINE
  5
EA6E4F4B8
330
EA6E4DC92
100
AcDbEntity
  8
HATCH
100
AcDbLine
 10
229.2419598359747
 20
351.0067006896214
 30
0.0
 11
230.3613355045587
 21
349.0067006896214
 31
0.0
  0
ARC
  5
EA6E4F4B9
330
EA6E4DC92
100
AcDbEntity
  8
JISSEN
100
AcDbCircle
 10
237.2419598359746
 20
403.0067006896214
 30
0.0
 40
25.0
100
AcDbArc
 50
90.0
 51
224.6844194460188
  0
ARC
  5
EA6E4F4BA
330
EA6E4DC92
100
AcDbEntity
  8
JISSEN
100
AcDbCircle
 10
237.2419598359748
 20
403.0067006896199
 30
0.0
 40
28.00000000000017
100
AcDbArc
 50
179.9999999999967
 51
225.2173479423134
  0
LINE
  5
EA6E4F4BB
330
EA6E4DC92
100
AcDbEntity
  8
JISSEN
100
AcDbLine
 10
235.1919167282533
 20
399.5719775193377
 30
0.0
 11
217.1204601503309
 21
382.8852010039776
 31
0.0
  0
LINE
  5
EA6E4F4BC
330
EA6E4DC92
100
AcDbEntity
  8
JISSEN
100
AcDbLine
 10
217.1204601503309
 20
382.8852010039776
 30
0.0
 11
233.807236665691
 21
400.9566575819
 31
0.0
  0
LINE
  5
EA6E4F4BD
330
EA6E4DC92
100
AcDbEntity
  8
JISSEN
100
AcDbLine
 10
219.6619251432896
 20
385.23193261226
 30
0.0
 11
217.5182184628444
 21
383.1327472267108
 31
0.0
  0
LINE
  5
EA6E4F4BF
330
EA6E4DC92
100
AcDbEntity
  8
JISSEN
100
AcDbLine
 10
245.7419598359746
 20
351.0067006896214
 30
0.0
 11
245.7419598359746
 21
361.8758120534639
 31
0.0
  0
ARC
  5
EA6E4F4C0
330
EA6E4DC92
100
AcDbEntity
  8
JISSEN
100
AcDbCircle
 10
265.3419598359746
 20
292.2385138889164
 30
0.0
 40
1.0
100
AcDbArc
 50
271.999999999997
 51
0.0
  0
ARC
  5
EA6E4F4C1
330
EA6E4DC92
100
AcDbEntity
  8
JISSEN
100
AcDbCircle
 10
265.3419598359746
 20
311.0067006896213
 30
0.0
 40
1.0
100
AcDbArc
 50
270.0
 51
315.3757911071938
  0
ARC
  5
EA6E4F4C2
330
EA6E4DC92
100
AcDbEntity
  8
JISSEN
100
AcDbCircle
 10
265.3419598359746
 20
321.0067006896213
 30
0.0
 40
1.0
100
AcDbArc
 50
0.0
 51
90.0
  0
ARC
  5
EA6E4F4C3
330
EA6E4DC92
100
AcDbEntity
  8
JISSEN
100
AcDbCircle
 10
253.9259762585761
 20
316.006700689621
 30
0.0
 40
7.157736980972463
100
AcDbArc
 50
132.0791917640761
 51
226.6754408424865
  0
LINE
  5
EA6E4F4C4
330
EA6E4DC92
100
AcDbEntity
  8
JISSEN
100
AcDbLine
 10
242.632924499187
 20
328.1406752858368
 30
0.0
 11
242.6329244991866
 21
305.8727260934056
 31
0.0
  0
LINE
  5
EA6E4F4C5
330
EA6E4DC92
100
AcDbEntity
  8
JISSEN
100
AcDbLine
 10
244.0727569459975
 20
328.1406752858368
 30
0.0
 11
244.0727569459972
 21
305.8727260934056
 31
0.0
  0
POLYLINE
  5
EA6E4F4C6
330
EA6E4DC92
100
AcDbEntity
  8
JISSEN
100
AcDb2dPolyline
 66
     1
 10
0.0
 20
0.0
 30
0.0
  0
VERTEX
  5
EA6E4F4C7
330
EA6E4F4C6
100
AcDbEntity
  8
JISSEN
100
AcDbVertex
100
AcDb2dVertex
 10
238.6363260046028
 20
314.0969902715617
 30
0.0
 42
0.0770392472783639
  0
VERTEX
  5
EA6E4F4C8
330
EA6E4F4C6
100
AcDbEntity
  8
JISSEN
100
AcDbVertex
100
AcDb2dVertex
 10
238.9526574470137
 20
314.212754624
 30
0.0
 42
0.1060700219635831
  0
VERTEX
  5
EA6E4F4C9
330
EA6E4F4C6
100
AcDbEntity
  8
JISSEN
100
AcDbVertex
100
AcDb2dVertex
 10
239.4455305327164
 20
314.6415146519791
 30
0.0
 42
0.085782807107608
 70
     2
 50
53.13010235415589
  0
VERTEX
  5
EA6E4F4CA
330
EA6E4F4C6
100
AcDbEntity
  8
JISSEN
100
AcDbVertex
100
AcDb2dVertex
 10
239.7543014603679
 20
315.2458441091209
 30
0.0
 42
0.075444616229805
 50
143.1301023541559
  0
VERTEX
  5
EA6E4F4CB
330
EA6E4F4C6
100
AcDbEntity
  8
JISSEN
100
AcDbVertex
100
AcDb2dVertex
 10
239.8698823925319
 20
316.0074826722252
 30
0.0
 42
0.0754446162298053
  0
SEQEND
  5
EA6E4F4CC
330
EA6E4F4C6
100
AcDbEntity
  8
JISSEN
  0
LINE
  5
EA6E4F4CD
330
EA6E4DC92
100
AcDbEntity
  8
JISSEN
100
AcDbLine
 10
256.8417183482765
 20
309.2031250288255
 30
0.0
 11
256.8417183482765
 21
316.0067006896213
 31
0.0
  0
LINE
  5
EA6E4F4CE
330
EA6E4DC92
100
AcDbEntity
  8
JISSEN
100
AcDbLine
 10
250.8419598359746
 20
308.4980493211791
 30
0.0
 11
250.8419598359748
 21
316.0067006896213
 31
0.0
  0
LINE
  5
EA6E4F4CF
330
EA6E4DC92
100
AcDbEntity
  8
JISSEN
100
AcDbLine
 10
251.3332336327562
 20
307.9981254736011
 30
0.0
 11
254.8543090399284
 21
307.9366648737515
 31
0.0
  0
ARC
  5
EA6E4F4D0
330
EA6E4DC92
100
AcDbEntity
  8
JISSEN
100
AcDbCircle
 10
246.7823583909855
 20
309.6784693270997
 30
0.0
 40
4.671789972964431
100
AcDbArc
 50
234.5500104764015
 51
294.5500104764428
  0
LINE
  5
EA6E4F4D1
330
EA6E4DC92
100
AcDbEntity
  8
JISSEN
100
AcDbLine
 10
238.638888679553
 20
313.7640856199255
 30
0.0
 11
238.6363260046028
 21
314.0969902715617
 31
0.0
  0
LINE
  5
EA6E4F4D2
330
EA6E4DC92
100
AcDbEntity
  8
JISSEN
100
AcDbLine
 10
238.2876576795529
 20
313.7640856199255
 30
0.0
 11
238.638888679553
 21
313.7640856199255
 31
0.0
  0
LINE
  5
EA6E4F4D3
330
EA6E4DC92
100
AcDbEntity
  8
JISSEN
100
AcDbLine
 10
238.638888679553
 20
314.9933941199255
 30
0.0
 11
238.2876576795529
 21
314.9933941199255
 31
0.0
  0
LINE
  5
EA6E4F4D4
330
EA6E4DC92
100
AcDbEntity
  8
JISSEN
100
AcDbLine
 10
238.2876576795529
 20
314.9933941199255
 30
0.0
 11
238.2876576795529
 21
313.7640856199255
 31
0.0
  0
LINE
  5
EA6E4F4D5
330
EA6E4DC92
100
AcDbEntity
  8
JISSEN
100
AcDbLine
 10
238.638888679553
 20
314.6421631199255
 30
0.0
 11
238.638888679553
 21
314.9933941199255
 31
0.0
  0
LINE
  5
EA6E4F4D6
330
EA6E4DC92
100
AcDbEntity
  8
JISSEN
100
AcDbLine
 10
244.0727569459975
 20
305.8727260934056
 30
0.0
 11
242.6329244991868
 21
305.8727260934056
 31
0.0
  0
LINE
  5
EA6E4F4D7
330
EA6E4DC92
100
AcDbEntity
  8
JISSEN
100
AcDbLine
 10
247.9919598359747
 20
305.0067006896211
 30
0.0
 11
249.4919598359747
 21
305.8727260934056
 31
0.0
  0
LINE
  5
EA6E4F4D8
330
EA6E4DC92
100
AcDbEntity
  8
JISSEN
100
AcDbLine
 10
249.4919598359747
 20
309.0067006896213
 30
0.0
 11
249.4919598359747
 21
305.8727260934056
 31
0.0
  0
ARC
  5
EA6E4F4D9
330
EA6E4DC92
100
AcDbEntity
  8
JISSEN
100
AcDbCircle
 10
251.3419598359746
 20
308.4980493211791
 30
0.0
 40
0.5
100
AcDbArc
 50
180.0
 51
268.9999999999982
  0
ARC
  5
EA6E4F4DA
330
EA6E4DC92
100
AcDbEntity
  8
JISSEN
100
AcDbCircle
 10
250.9919598359745
 20
309.0067006896213
 30
0.0
 40
1.5
100
AcDbArc
 50
95.7391704772681
 51
180.0
  0
LINE
  5
EA6E4F4DB
330
EA6E4DC92
100
AcDbEntity
  8
JISSEN
100
AcDbLine
 10
254.8543090399284
 20
307.9366648737515
 30
0.0
 11
257.6939638718213
 21
291.8321820516483
 31
0.0
  0
LINE
  5
EA6E4F4DC
330
EA6E4DC92
100
AcDbEntity
  8
JISSEN
100
AcDbLine
 10
258.7136711215362
 20
291.0064394022961
 30
0.0
 11
265.3768593326774
 21
291.2391230618974
 31
0.0
  0
ARC
  5
EA6E4F4DD
330
EA6E4DC92
100
AcDbEntity
  8
JISSEN
100
AcDbCircle
 10
258.6787716248334
 20
292.005830229315
 30
0.0
 40
1.0
100
AcDbArc
 50
189.9999999999986
 51
271.999999999997
  0
LINE
  5
EA6E4F4DE
330
EA6E4DC92
100
AcDbEntity
  8
JISSEN
100
AcDbLine
 10
256.8417183482765
 20
309.8583284225477
 30
0.0
 11
265.3419598359748
 21
310.0067006896213
 31
0.0
  0
ARC
  5
EA6E4F4DF
330
EA6E4DC92
100
AcDbEntity
  8
JISSEN
100
AcDbCircle
 10
255.654336990879
 20
309.3662633259778
 30
0.0
 40
1.198536020273432
100
AcDbArc
 50
265.891233838159
 51
352.1769210358566
  0
LINE
  5
EA6E4F4E0
330
EA6E4DC92
100
AcDbEntity
  8
JISSEN
100
AcDbLine
 10
251.3419598359746
 20
324.0067006896213
 30
0.0
 11
256.3417183482765
 21
324.0067006896213
 31
0.0
  0
LINE
  5
EA6E4F4E1
330
EA6E4DC92
100
AcDbEntity
  8
JISSEN
100
AcDbLine
 10
247.9919598359752
 20
333.0067006896216
 30
0.0
 11
247.9919598359752
 21
341.7067006896216
 31
0.0
  0
ARC
  5
EA6E4F4E2
330
EA6E4DC92
100
AcDbEntity
  8
JISSEN
100
AcDbCircle
 10
246.7823583909857
 20
324.3349320521425
 30
0.0
 40
4.671789972964431
100
AcDbArc
 50
65.4499895235501
 51
125.4499895235985
  0
LINE
  5
EA6E4F4E3
330
EA6E4DC92
100
AcDbEntity
  8
JISSEN
100
AcDbLine
 10
245.0911882944792
 20
329.439713391514
 30
0.0
 11
240.5960618022247
 21
329.439713391514
 31
0.0
  0
LINE
  5
EA6E4F4E4
330
EA6E4DC92
100
AcDbEntity
  8
JISSEN
100
AcDbLine
 10
245.0911882944792
 20
332.5736879877295
 30
0.0
 11
240.5960618022247
 21
332.5736879877295
 31
0.0
  0
LINE
  5
EA6E4F4E5
330
EA6E4DC92
100
AcDbEntity
  8
JISSEN
100
AcDbLine
 10
240.5960618022247
 20
332.5736879877295
 30
0.0
 11
240.5960618022247
 21
329.439713391514
 31
0.0
  0
LINE
  5
EA6E4F4E6
330
EA6E4DC92
100
AcDbEntity
  8
JISSEN
100
AcDbLine
 10
244.0727569459975
 20
328.1406752858368
 30
0.0
 11
242.632924499187
 21
328.1406752858368
 31
0.0
  0
LINE
  5
EA6E4F4E7
330
EA6E4DC92
100
AcDbEntity
  8
JISSEN
100
AcDbLine
 10
249.4919598359747
 20
323.0067006896211
 30
0.0
 11
249.4919598359747
 21
328.1406752858367
 31
0.0
  0
LINE
  5
EA6E4F4E8
330
EA6E4DC92
100
AcDbEntity
  8
JISSEN
100
AcDbLine
 10
250.8419598359746
 20
323.5153520580634
 30
0.0
 11
250.8419598359748
 21
316.0067006896213
 31
0.0
  0
ARC
  5
EA6E4F4E9
330
EA6E4DC92
100
AcDbEntity
  8
JISSEN
100
AcDbCircle
 10
250.9919598359747
 20
323.006700689621
 30
0.0
 40
1.5
100
AcDbArc
 50
180.0
 51
264.2608295227319
  0
ARC
  5
EA6E4F4EA
330
EA6E4DC92
100
AcDbEntity
  8
JISSEN
100
AcDbCircle
 10
251.3419598359746
 20
323.5067006896213
 30
0.0
 40
0.5
100
AcDbArc
 50
90.0
 51
180.0
  0
LINE
  5
EA6E4F4EB
330
EA6E4DC92
100
AcDbEntity
  8
JISSEN
100
AcDbLine
 10
247.9919598359747
 20
329.0067006896211
 30
0.0
 11
249.4919598359747
 21
328.1406752858367
 31
0.0
  0
LINE
  5
EA6E4F4EC
330
EA6E4DC92
100
AcDbEntity
  8
JISSEN
100
AcDbLine
 10
247.9919598359752
 20
329.0067006896216
 30
0.0
 11
248.7419598359752
 21
329.4397133915138
 31
0.0
  0
ARC
  5
EA6E4F4ED
330
EA6E4DC92
100
AcDbEntity
  8
JISSEN
100
AcDbCircle
 10
246.916574065227
 20
335.028515963694
 30
0.0
 40
5.879349232938483
100
AcDbArc
 50
251.9121946092666
 51
288.0878053907265
  0
LINE
  5
EA6E4F4EE
330
EA6E4DC92
100
AcDbEntity
  8
JISSEN
100
AcDbLine
 10
247.9919598359752
 20
333.0067006896216
 30
0.0
 11
248.7419598359752
 21
332.5736879877294
 31
0.0
  0
ARC
  5
EA6E4F4EF
330
EA6E4DC92
100
AcDbEntity
  8
JISSEN
100
AcDbCircle
 10
246.916574065227
 20
326.9848854155479
 30
0.0
 40
5.879349232940107
100
AcDbArc
 50
71.91219460927351
 51
108.0878053907264
  0
LINE
  5
EA6E4F4F0
330
EA6E4DC92
100
AcDbEntity
  8
JISSEN
100
AcDbLine
 10
245.0911882944792
 20
332.5736879877295
 30
0.0
 11
245.0911882944792
 21
329.439713391514
 31
0.0
  0
LINE
  5
EA6E4F4F1
330
EA6E4DC92
100
AcDbEntity
  8
JISSEN
100
AcDbLine
 10
248.7419598359752
 20
332.5736879877294
 30
0.0
 11
248.7419598359752
 21
329.4397133915138
 31
0.0
  0
LINE
  5
EA6E4F4F2
330
EA6E4DC92
100
AcDbEntity
  8
HATCH
100
AcDbLine
 10
244.1225841673908
 20
349.0067006896214
 30
0.0
 11
245.2419598359747
 21
351.0067006896214
 31
0.0
  0
LINE
  5
EA6E4F4F3
330
EA6E4DC92
100
AcDbEntity
  8
HATCH
100
AcDbLine
 10
243.7108194615085
 20
342.0067006896215
 30
0.0
 11
244.1225841673908
 21
349.0067006896214
 31
0.0
  0
LINE
  5
EA6E4F4F4
330
EA6E4DC92
100
AcDbEntity
  8
JISSEN
100
AcDbLine
 10
244.7125480712688
 20
342.0067006896216
 30
0.0
 11
245.2419598359747
 21
351.0067006896214
 31
0.0
  0
LINE
  5
EA6E4F4F5
330
EA6E4DC92
100
AcDbEntity
  8
JISSEN
100
AcDbLine
 10
247.9919598359752
 20
341.7067006896216
 30
0.0
 11
247.691959835975
 21
342.0067006896216
 31
0.0
  0
LINE
  5
EA6E4F4F6
330
EA6E4DC92
100
AcDbEntity
  8
JISSEN
100
AcDbLine
 10
256.8417183482765
 20
322.1550729566946
 30
0.0
 11
265.3419598359746
 21
322.0067006896213
 31
0.0
  0
LINE
  5
EA6E4F4F7
330
EA6E4DC92
100
AcDbEntity
  8
JISSEN
100
AcDbLine
 10
256.8417183482765
 20
323.5067006896213
 30
0.0
 11
256.8417183482765
 21
316.0067006896213
 31
0.0
  0
ARC
  5
EA6E4F4F8
330
EA6E4DC92
100
AcDbEntity
  8
JISSEN
100
AcDbCircle
 10
256.3417183482765
 20
323.5067006896213
 30
0.0
 40
0.5
100
AcDbArc
 50
0.0
 51
90.0
  0
LINE
  5
EA6E4F4F9
330
EA6E4DC92
100
AcDbEntity
  8
JISSEN
100
AcDbLine
 10
266.3419598359748
 20
292.2385138889165
 30
0.0
 11
266.3419598359746
 21
316.0067006896213
 31
0.0
  0
ARC
  5
EA6E4F4FA
330
EA6E4DC92
100
AcDbEntity
  8
JISSEN
100
AcDbCircle
 10
237.8419598359746
 20
316.0067006896213
 30
0.0
 40
30.0
100
AcDbArc
 50
351.2257103521551
 51
0.0
  0
LINE
  5
EA6E4F4FB
330
EA6E4DC92
100
AcDbEntity
  8
JISSEN
100
AcDbLine
 10
266.3419598359746
 20
311.0067006896213
 30
0.0
 11
266.9967193102013
 21
311.0067006896213
 31
0.0
  0
LINE
  5
EA6E4F4FC
330
EA6E4DC92
100
AcDbEntity
  8
JISSEN
100
AcDbLine
 10
266.3419598359746
 20
311.5067006896213
 30
0.0
 11
266.3419598359746
 21
311.0067006896213
 31
0.0
  0
LWPOLYLINE
  5
EA6E4F4FD
330
EA6E4DC92
100
AcDbEntity
  8
JISSEN
100
AcDbPolyline
 90
        2
 70
     0
 43
0.0
 10
266.3419598359746
 20
311.5067018606667
 10
266.3419598359746
 20
308.5067006896213
  0
ARC
  5
EA6E4F4FE
330
EA6E4DC92
100
AcDbEntity
  8
JISSEN
100
AcDbCircle
 10
266.9967193102011
 20
311.5067006896213
 30
0.0
 40
0.5
100
AcDbArc
 50
270.0
 51
351.2257103521551
  0
LINE
  5
EA6E4F4FF
330
EA6E4DC92
100
AcDbEntity
  8
JISSEN
100
AcDbLine
 10
266.3419598359746
 20
321.0067006896213
 30
0.0
 11
266.9967193102013
 21
321.0067006896213
 31
0.0
  0
LINE
  5
EA6E4F500
330
EA6E4DC92
100
AcDbEntity
  8
JISSEN
100
AcDbLine
 10
266.3419598359746
 20
321.0067006896213
 30
0.0
 11
266.3419598359746
 21
316.0067006896213
 31
0.0
  0
ARC
  5
EA6E4F501
330
EA6E4DC92
100
AcDbEntity
  8
JISSEN
100
AcDbCircle
 10
237.8419598359746
 20
316.0067006896213
 30
0.0
 40
30.0
100
AcDbArc
 50
0.0
 51
8.774289647844021
  0
ARC
  5
EA6E4F502
330
EA6E4DC92
100
AcDbEntity
  8
JISSEN
100
AcDbCircle
 10
266.9967193102011
 20
320.5067006896213
 30
0.0
 40
0.5
100
AcDbArc
 50
8.774289647844021
 51
90.0
  0
INSERT
  5
EA6E4F503
330
EA6E4DC92
100
AcDbEntity
  8
SUNPOU
100
AcDbBlockReference
  2
ARROWANG
 10
252.6912212307668
 20
363.9513512179373
 30
0.0
 41
2.99999999999999
 42
3.0
 43
3.0
 50
112.2340151093906
1001
ACAD
1000
DSTYLE
1002
{
1070
   147
1040
1.0
1070
    77
1070
     0
1002
}
  0
LINE
  5
EA6E4F504
330
EA6E4DC92
100
AcDbEntity
  8
JISSEN
100
AcDbLine
 10
254.8219945286598
 20
385.23193261226
 30
0.0
 11
256.965701209105
 21
383.1327472267108
 31
0.0
  0
ARC
  5
EA6E4F505
330
EA6E4DC92
100
AcDbEntity
  8
JISSEN
100
AcDbCircle
 10
230.9198530492652
 20
396.7012169042282
 30
0.0
 40
23.46788425528639
100
AcDbArc
 50
34.21595627096311
 51
55.78050194819049
  0
LINE
  5
EA6E4F506
330
EA6E4DC92
100
AcDbEntity
  8
JISSEN
100
AcDbLine
 10
240.7410232309616
 20
404.9448842097926
 30
0.0
 11
245.2850692826892
 21
408.5449174577955
 31
0.0
  0
ARC
  5
EA6E4F507
330
EA6E4DC92
100
AcDbEntity
  8
JISSEN
100
AcDbCircle
 10
240.4178090381428
 20
412.9209673652704
 30
0.0
 40
3.0
100
AcDbArc
 50
321.7355471921208
 51
26.57151486284403
1001
ASK_MEN_XD
1005
0
1070
     1
1005
0
1070
     1
  0
LINE
  5
EA6E4F508
330
EA6E4DC92
100
AcDbEntity
  8
JISSEN
100
AcDbLine
 10
239.1791525336966
 20
406.5063127326761
 30
0.0
 11
242.7732912581916
 21
411.0630912900076
 31
0.0
  0
LINE
  5
EA6E4F509
330
EA6E4DC92
100
AcDbEntity
  8
JISSEN
100
AcDbLine
 10
242.9195436960594
 20
415.770450309105
 30
0.0
 11
243.1646637756808
 21
416.0161233182148
 31
0.0
  0
ARC
  5
EA6E4F50A
330
EA6E4DC92
100
AcDbEntity
  8
JISSEN
100
AcDbCircle
 10
243.695591333601
 20
415.4863907043552
 30
0.0
 40
0.7500004759636092
100
AcDbArc
 50
55.78050194818913
 51
135.0645496307631
1001
ASK_MEN_XD
1005
0
1070
     1
1005
0
1070
     1
  0
LINE
  5
EA6E4F50B
330
EA6E4DC92
100
AcDbEntity
  8
JISSEN
100
AcDbLine
 10
242.7796882778034
 20
414.9052316108578
 30
0.0
 11
243.1009392400849
 21
414.2629108511989
 31
0.0
  0
ARC
  5
EA6E4F50C
330
EA6E4DC92
100
AcDbEntity
  8
JISSEN
100
AcDbCircle
 10
243.4504712539796
 20
415.2407176952453
 30
0.0
 40
0.7500004759636092
100
AcDbArc
 50
135.0645496307631
 51
206.571514862844
1001
ASK_MEN_XD
1005
0
1070
     1
1005
0
1070
     1
  0
ARC
  5
EA6E4F50D
330
EA6E4DC92
100
AcDbEntity
  8
JISSEN
100
AcDbCircle
 10
247.1480252705267
 20
406.1934508968211
 30
0.0
 40
3.0
100
AcDbArc
 50
63.44139505544326
 51
128.3881241930449
1001
ASK_MEN_XD
1005
0
1070
     1
1005
0
1070
     1
  0
LINE
  5
EA6E4F50E
330
EA6E4DC92
100
AcDbEntity
  8
JISSEN
100
AcDbLine
 10
248.4893641579414
 20
408.8768833981352
 30
0.0
 11
249.1251696518039
 21
408.5590700626658
 31
0.0
  0
ARC
  5
EA6E4F50F
330
EA6E4DC92
100
AcDbEntity
  8
JISSEN
100
AcDbCircle
 10
249.4605045864669
 20
409.2299286137332
 30
0.0
 40
0.7500004759636092
100
AcDbArc
 50
243.4413950554432
 51
315.0645496307631
1001
ASK_MEN_XD
1005
0
1070
     1
1005
0
1070
     1
  0
ARC
  5
EA6E4F510
330
EA6E4DC92
100
AcDbEntity
  8
JISSEN
100
AcDbCircle
 10
249.7058165551808
 20
409.4757939447891
 30
0.0
 40
0.7500004759636092
100
AcDbArc
 50
315.0645496307631
 51
34.21595627096311
1001
ASK_MEN_XD
1005
0
1070
     1
1005
0
1070
     1
  0
LINE
  5
EA6E4F511
330
EA6E4DC92
100
AcDbEntity
  8
JISSEN
100
AcDbLine
 10
249.9914321443871
 20
408.7001959998735
 30
0.0
 11
250.2367441131008
 21
408.9460613309294
 31
0.0
  0
ENDSEC
  0
SECTION
  2
OBJECTS
  0
DICTIONARY
  5
EA6E4DC87
330
0
100
AcDbDictionary
281
     1
  3
ACAD_GROUP
350
EA6E4DC88
  3
ACAD_LAYOUT
350
EA6E4E127
  3
ACAD_MLINESTYLE
350
EA6E4DC95
  3
ACAD_PLOTSETTINGS
350
EA6E4E128
  3
ACAD_PLOTSTYLENAME
350
EA6E4E125
  3
ACDBHEADERROUNDTRIPXREC
350
EA6E4F515
  3
ACDBVARIABLEDICTIONARY
350
EA6E4DCDF
  0
DICTIONARY
  5
EA6E4E3D8
330
EA6E4DC7D
100
AcDbDictionary
280
     1
281
     1
  3
ACAD_LAYERSTATES
360
EA6E4E3D9
  0
DICTIONARY
  5
EA6E4EFFA
330
EA6E4EFF9
100
AcDbDictionary
280
     1
281
     1
  3
ACAD_XREC_ROUNDTRIP
360
EA6E4EFFB
  3
ADSK_XREC_LAYER_RECONCILED
360
EA6E4EFFC
  0
DICTIONARY
  5
EA6E4EFFE
330
EA6E4EFFD
100
AcDbDictionary
280
     1
281
     1
  3
ACAD_XREC_ROUNDTRIP
360
EA6E4EFFF
  3
ADSK_XREC_LAYER_RECONCILED
360
EA6E4F000
  0
DICTIONARY
  5
EA6E4E1A0
330
EA6E4DC92
100
AcDbDictionary
280
     1
281
     1
  3
ACAD_LAYOUTSELFREF
360
EA6E4EE61
  0
DICTIONARY
  5
EA6E4E19E
330
EA6E4DC8F
100
AcDbDictionary
280
     1
281
     1
  3
ACAD_LAYOUTSELFREF
360
EA6E4EE60
  0
DICTIONARY
  5
EA6E4DC88
102
{ACAD_REACTORS
330
EA6E4DC87
102
}
330
EA6E4DC87
100
AcDbDictionary
281
     1
  0
DICTIONARY
  5
EA6E4E127
102
{ACAD_REACTORS
330
EA6E4DC87
102
}
330
EA6E4DC87
100
AcDbDictionary
281
     1
  3
Model
350
EA6E4EE68
  3
ﾚｲｱｳﾄ1
350
EA6E4EE69
  0
DICTIONARY
  5
EA6E4DC95
102
{ACAD_REACTORS
330
EA6E4DC87
102
}
330
EA6E4DC87
100
AcDbDictionary
281
     1
  3
STANDARD
350
EA6E4DC96
  0
DICTIONARY
  5
EA6E4E128
102
{ACAD_REACTORS
330
EA6E4DC87
102
}
330
EA6E4DC87
100
AcDbDictionary
281
     1
  0
ACDBDICTIONARYWDFLT
  5
EA6E4E125
102
{ACAD_REACTORS
330
EA6E4DC87
102
}
330
EA6E4DC87
100
AcDbDictionary
281
     1
  3
Normal
350
EA6E4E126
100
AcDbDictionaryWithDefault
340
EA6E4E126
  0
DICTIONARY
  5
EA6E4F515
102
{ACAD_REACTORS
330
EA6E4DC87
102
}
330
EA6E4DC87
100
AcDbDictionary
281
     1
  3
CEPSNTYPE
350
EA6E4F51F
  3
DIMSTYLEDATA
350
EA6E4F523
  3
FINGERPRINTGUID
350
EA6E4F520
  3
HYPERLINKBASE
350
EA6E4F518
  3
INSUNITS
350
EA6E4F51E
  3
LAYOUTDICT
350
EA6E4F51A
  3
LWETCUNION
350
EA6E4F51D
  3
PLOTSETDICT
350
EA6E4F51B
  3
PLOTSTYLNAMDICT
350
EA6E4F51C
  3
PSVPSCALE
350
EA6E4F522
  3
PUCSBASE
350
EA6E4F526
  3
PUCSORGBACK
350
EA6E4F52C
  3
PUCSORGBOTTOM
350
EA6E4F528
  3
PUCSORGFRONT
350
EA6E4F52B
  3
PUCSORGLEFT
350
EA6E4F529
  3
PUCSORGRIGHT
350
EA6E4F52A
  3
PUCSORGTOP
350
EA6E4F527
  3
PUCSORTHOREF
350
EA6E4F524
  3
PUCSORTHOVIEW
350
EA6E4F525
  3
STYLESHEET
350
EA6E4F519
  3
TSTACKALIGN
350
EA6E4F516
  3
TSTACKSIZE
350
EA6E4F517
  3
UCSBASE
350
EA6E4F52F
  3
UCSORGBACK
350
EA6E4F535
  3
UCSORGBOTTOM
350
EA6E4F531
  3
UCSORGFRONT
350
EA6E4F534
  3
UCSORGLEFT
350
EA6E4F532
  3
UCSORGRIGHT
350
EA6E4F533
  3
UCSORGTOP
350
EA6E4F530
  3
UCSORTHOREF
350
EA6E4F52D
  3
UCSORTHOVIEW
350
EA6E4F52E
  3
VERSIONGUID
350
EA6E4F521
  0
DICTIONARY
  5
EA6E4DCDF
102
{ACAD_REACTORS
330
EA6E4DC87
102
}
330
EA6E4DC87
100
AcDbDictionary
281
     1
  3
DIMASSOC
350
EA6E4E23D
  3
SORTENTS
350
EA6E4DCE0
  0
DICTIONARY
  5
EA6E4E3D9
102
{ACAD_REACTORS
330
EA6E4E3D8
102
}
330
EA6E4E3D8
100
AcDbDictionary
281
     1
  0
XRECORD
  5
EA6E4EFFB
102
{ACAD_REACTORS
330
EA6E4EFFA
102
}
330
EA6E4EFFA
100
AcDbXrecord
280
     1
102
MATERIAL
340
0
  0
XRECORD
  5
EA6E4EFFC
102
{ACAD_REACTORS
330
EA6E4EFFA
102
}
330
EA6E4EFFA
100
AcDbXrecord
280
     1
290
     1
  0
XRECORD
  5
EA6E4EFFF
102
{ACAD_REACTORS
330
EA6E4EFFE
102
}
330
EA6E4EFFE
100
AcDbXrecord
280
     1
102
MATERIAL
340
0
  0
XRECORD
  5
EA6E4F000
102
{ACAD_REACTORS
330
EA6E4EFFE
102
}
330
EA6E4EFFE
100
AcDbXrecord
280
     1
290
     1
  0
XRECORD
  5
EA6E4EE61
102
{ACAD_REACTORS
330
EA6E4E1A0
102
}
330
EA6E4E1A0
100
AcDbXrecord
280
     1
340
EA6E4DC92
  0
XRECORD
  5
EA6E4EE60
102
{ACAD_REACTORS
330
EA6E4E19E
102
}
330
EA6E4E19E
100
AcDbXrecord
280
     1
340
EA6E4DC8F
  0
LAYOUT
  5
EA6E4EE68
102
{ACAD_REACTORS
330
EA6E4E127
102
}
330
EA6E4E127
100
AcDbPlotSettings
  1

  2
RICOH imagio Neo C355 RPCS
  4

  6

 40
0.0
 41
0.0
 42
0.0
 43
0.0
 44
0.0
 45
0.0
 46
0.0
 47
0.0
 48
0.0
 49
0.0
140
0.0
141
0.0
142
1.0
143
1.0
 70
  1712
 72
     0
 73
     0
 74
     0
  7
aclt.ctb
 75
     0
147
1.0
148
0.0
149
0.0
100
AcDbLayout
  1
Model
 70
     1
 71
     0
 10
0.0
 20
0.0
 11
12.0
 21
9.0
 12
0.0
 22
0.0
 32
0.0
 14
0.0
 24
0.0
 34
0.0
 15
0.0
 25
0.0
 35
0.0
146
0.0
 13
0.0
 23
0.0
 33
0.0
 16
1.0
 26
0.0
 36
0.0
 17
0.0
 27
1.0
 37
0.0
 76
     0
330
EA6E4DC92
  0
LAYOUT
  5
EA6E4EE69
102
{ACAD_REACTORS
330
EA6E4E127
102
}
330
EA6E4E127
100
AcDbPlotSettings
  1

  2
RICOH imagio Neo C355 RPCS
  4

  6

 40
0.0
 41
0.0
 42
0.0
 43
0.0
 44
0.0
 45
0.0
 46
0.0
 47
0.0
 48
0.0
 49
0.0
140
0.0
141
0.0
142
1.0
143
1.0
 70
   688
 72
     0
 73
     0
 74
     5
  7
aclt.ctb
 75
    16
147
1.0
148
0.0
149
0.0
100
AcDbLayout
  1
ﾚｲｱｳﾄ1
 70
     0
 71
     1
 10
0.0
 20
0.0
 11
12.0
 21
9.0
 12
0.0
 22
0.0
 32
0.0
 14
1.000000000000000E+20
 24
1.000000000000000E+20
 34
1.000000000000000E+20
 15
-1.000000000000000E+20
 25
-1.000000000000000E+20
 35
-1.000000000000000E+20
146
0.0
 13
0.0
 23
0.0
 33
0.0
 16
1.0
 26
0.0
 36
0.0
 17
0.0
 27
1.0
 37
0.0
 76
     0
330
EA6E4DC8F
  0
MLINESTYLE
  5
EA6E4DC96
102
{ACAD_REACTORS
330
EA6E4DC95
102
}
330
EA6E4DC95
100
AcDbMlineStyle
  2
STANDARD
 70
     0
  3

 62
   256
 51
90.0
 52
90.0
 71
     2
 49
0.5
 62
   256
  6
BYLAYER
 49
-0.5
 62
   256
  6
BYLAYER
  0
ACDBPLACEHOLDER
  5
EA6E4E126
102
{ACAD_REACTORS
330
EA6E4E125
102
}
330
EA6E4E125
  0
XRECORD
  5
EA6E4F51F
102
{ACAD_REACTORS
330
EA6E4F515
102
}
330
EA6E4F515
100
AcDbXrecord
280
     1
 90
        0
  0
XRECORD
  5
EA6E4F523
102
{ACAD_REACTORS
330
EA6E4F515
102
}
330
EA6E4F515
100
AcDbXrecord
280
     1
1000
DSTYLE
1002
{
1070
   341
340
EA6E4DC97
1070
   342
340
EA6E4DC97
1002
}
  0
XRECORD
  5
EA6E4F520
102
{ACAD_REACTORS
330
EA6E4F515
102
}
330
EA6E4F515
100
AcDbXrecord
280
     1
  1
{1409DD6B-D93B-436B-BB36-853AE2F768BC}
  0
XRECORD
  5
EA6E4F518
102
{ACAD_REACTORS
330
EA6E4F515
102
}
330
EA6E4F515
100
AcDbXrecord
280
     1
  1

  0
XRECORD
  5
EA6E4F51E
102
{ACAD_REACTORS
330
EA6E4F515
102
}
330
EA6E4F515
100
AcDbXrecord
280
     1
 90
        0
  0
XRECORD
  5
EA6E4F51A
102
{ACAD_REACTORS
330
EA6E4F515
102
}
330
EA6E4F515
100
AcDbXrecord
280
     1
340
EA6E4E127
  0
XRECORD
  5
EA6E4F51D
102
{ACAD_REACTORS
330
EA6E4F515
102
}
330
EA6E4F515
100
AcDbXrecord
280
     1
 90
    14877
  0
XRECORD
  5
EA6E4F51B
102
{ACAD_REACTORS
330
EA6E4F515
102
}
330
EA6E4F515
100
AcDbXrecord
280
     1
340
EA6E4E128
  0
XRECORD
  5
EA6E4F51C
102
{ACAD_REACTORS
330
EA6E4F515
102
}
330
EA6E4F515
100
AcDbXrecord
280
     1
340
EA6E4E125
  0
XRECORD
  5
EA6E4F522
102
{ACAD_REACTORS
330
EA6E4F515
102
}
330
EA6E4F515
100
AcDbXrecord
280
     1
 40
0.0
  0
XRECORD
  5
EA6E4F526
102
{ACAD_REACTORS
330
EA6E4F515
102
}
330
EA6E4F515
100
AcDbXrecord
280
     1
340
0
  0
XRECORD
  5
EA6E4F52C
102
{ACAD_REACTORS
330
EA6E4F515
102
}
330
EA6E4F515
100
AcDbXrecord
280
     1
 10
0.0
 20
0.0
 30
0.0
  0
XRECORD
  5
EA6E4F528
102
{ACAD_REACTORS
330
EA6E4F515
102
}
330
EA6E4F515
100
AcDbXrecord
280
     1
 10
0.0
 20
0.0
 30
0.0
  0
XRECORD
  5
EA6E4F52B
102
{ACAD_REACTORS
330
EA6E4F515
102
}
330
EA6E4F515
100
AcDbXrecord
280
     1
 10
0.0
 20
0.0
 30
0.0
  0
XRECORD
  5
EA6E4F529
102
{ACAD_REACTORS
330
EA6E4F515
102
}
330
EA6E4F515
100
AcDbXrecord
280
     1
 10
0.0
 20
0.0
 30
0.0
  0
XRECORD
  5
EA6E4F52A
102
{ACAD_REACTORS
330
EA6E4F515
102
}
330
EA6E4F515
100
AcDbXrecord
280
     1
 10
0.0
 20
0.0
 30
0.0
  0
XRECORD
  5
EA6E4F527
102
{ACAD_REACTORS
330
EA6E4F515
102
}
330
EA6E4F515
100
AcDbXrecord
280
     1
 10
0.0
 20
0.0
 30
0.0
  0
XRECORD
  5
EA6E4F524
102
{ACAD_REACTORS
330
EA6E4F515
102
}
330
EA6E4F515
100
AcDbXrecord
280
     1
340
0
  0
XRECORD
  5
EA6E4F525
102
{ACAD_REACTORS
330
EA6E4F515
102
}
330
EA6E4F515
100
AcDbXrecord
280
     1
 70
     0
  0
XRECORD
  5
EA6E4F519
102
{ACAD_REACTORS
330
EA6E4F515
102
}
330
EA6E4F515
100
AcDbXrecord
280
     1
  1

  0
XRECORD
  5
EA6E4F516
102
{ACAD_REACTORS
330
EA6E4F515
102
}
330
EA6E4F515
100
AcDbXrecord
280
     1
 90
        1
  0
XRECORD
  5
EA6E4F517
102
{ACAD_REACTORS
330
EA6E4F515
102
}
330
EA6E4F515
100
AcDbXrecord
280
     1
 90
       70
  0
XRECORD
  5
EA6E4F52F
102
{ACAD_REACTORS
330
EA6E4F515
102
}
330
EA6E4F515
100
AcDbXrecord
280
     1
340
0
  0
XRECORD
  5
EA6E4F535
102
{ACAD_REACTORS
330
EA6E4F515
102
}
330
EA6E4F515
100
AcDbXrecord
280
     1
 10
0.0
 20
0.0
 30
0.0
  0
XRECORD
  5
EA6E4F531
102
{ACAD_REACTORS
330
EA6E4F515
102
}
330
EA6E4F515
100
AcDbXrecord
280
     1
 10
0.0
 20
0.0
 30
0.0
  0
XRECORD
  5
EA6E4F534
102
{ACAD_REACTORS
330
EA6E4F515
102
}
330
EA6E4F515
100
AcDbXrecord
280
     1
 10
0.0
 20
0.0
 30
0.0
  0
XRECORD
  5
EA6E4F532
102
{ACAD_REACTORS
330
EA6E4F515
102
}
330
EA6E4F515
100
AcDbXrecord
280
     1
 10
0.0
 20
0.0
 30
0.0
  0
XRECORD
  5
EA6E4F533
102
{ACAD_REACTORS
330
EA6E4F515
102
}
330
EA6E4F515
100
AcDbXrecord
280
     1
 10
0.0
 20
0.0
 30
0.0
  0
XRECORD
  5
EA6E4F530
102
{ACAD_REACTORS
330
EA6E4F515
102
}
330
EA6E4F515
100
AcDbXrecord
280
     1
 10
0.0
 20
0.0
 30
0.0
  0
XRECORD
  5
EA6E4F52D
102
{ACAD_REACTORS
330
EA6E4F515
102
}
330
EA6E4F515
100
AcDbXrecord
280
     1
340
0
  0
XRECORD
  5
EA6E4F52E
102
{ACAD_REACTORS
330
EA6E4F515
102
}
330
EA6E4F515
100
AcDbXrecord
280
     1
 70
     0
  0
XRECORD
  5
EA6E4F521
102
{ACAD_REACTORS
330
EA6E4F515
102
}
330
EA6E4F515
100
AcDbXrecord
280
     1
  1
{0CABAE27-603B-4AB5-89AF-A18A16CD6586}
  0
DICTIONARYVAR
  5
EA6E4E23D
102
{ACAD_REACTORS
330
EA6E4DCDF
102
}
330
EA6E4DCDF
100
DictionaryVariables
280
     0
  1
0
  0
DICTIONARYVAR
  5
EA6E4DCE0
102
{ACAD_REACTORS
330
EA6E4DCDF
102
}
330
EA6E4DCDF
100
DictionaryVariables
280
     0
  1
96
  0
ENDSEC
  0
EOF
