  0
SECTION
  2
HEADER
  9
$ACADVER
  1
AC1014
  9
$ACADMAINTVER
 70
     9
  9
$DWGCODEPAGE
  3
ANSI_932
  9
$INSBASE
 10
0.0
 20
0.0
 30
0.0
  9
$EXTMIN
 10
-0.0057372736482648
 20
-0.0089356369333018
 30
-0.0000000000112498
  9
$EXTMAX
 10
362.0092260645644
 20
546.0155046141571
 30
0.0000000000002956
  9
$LIMMIN
 10
0.0
 20
0.0
  9
$LIMMAX
 10
362.0
 20
546.0
  9
$ORTHOMODE
 70
     1
  9
$REGENMODE
 70
     1
  9
$FILLMODE
 70
     1
  9
$QTEXTMODE
 70
     0
  9
$MIRRTEXT
 70
     0
  9
$DRAGMODE
 70
     2
  9
$LTSCALE
 40
10.0
  9
$OSMODE
 70
   167
  9
$ATTMODE
 70
     1
  9
$TEXTSIZE
 40
6.0
  9
$TRACEWID
 40
0.05
  9
$TEXTSTYLE
  7
ROMANS
  9
$CLAYER
  8
JISSEN
  9
$CELTYPE
  6
BYLAYER
  9
$CECOLOR
 62
   256
  9
$CELTSCALE
 40
1.0
  9
$DELOBJ
 70
     1
  9
$DISPSILH
 70
     0
  9
$DIMSCALE
 40
2.0
  9
$DIMASZ
 40
1.5
  9
$DIMEXO
 40
1.0
  9
$DIMDLI
 40
6.0
  9
$DIMRND
 40
0.0
  9
$DIMDLE
 40
0.0
  9
$DIMEXE
 40
1.0
  9
$DIMTP
 40
495.0
  9
$DIMTM
 40
0.0
  9
$DIMTXT
 40
3.0
  9
$DIMCEN
 40
0.0
  9
$DIMTSZ
 40
0.0
  9
$DIMTOL
 70
     0
  9
$DIMLIM
 70
     0
  9
$DIMTIH
 70
     0
  9
$DIMTOH
 70
     0
  9
$DIMSE1
 70
     0
  9
$DIMSE2
 70
     0
  9
$DIMTAD
 70
     1
  9
$DIMZIN
 70
     8
  9
$DIMBLK
  1
ARROW
  9
$DIMASO
 70
     0
  9
$DIMSHO
 70
     0
  9
$DIMPOST
  1

  9
$DIMAPOST
  1

  9
$DIMALT
 70
     0
  9
$DIMALTD
 70
     2
  9
$DIMALTF
 40
25.4
  9
$DIMLFAC
 40
1.0
  9
$DIMTOFL
 70
     1
  9
$DIMTVP
 40
0.0
  9
$DIMTIX
 70
     1
  9
$DIMSOXD
 70
     0
  9
$DIMSAH
 70
     0
  9
$DIMBLK1
  1

  9
$DIMBLK2
  1

  9
$DIMSTYLE
  2
IMAO
  9
$DIMCLRD
 70
     0
  9
$DIMCLRE
 70
     0
  9
$DIMCLRT
 70
     0
  9
$DIMTFAC
 40
1.0
  9
$DIMGAP
 40
0.09
  9
$DIMJUST
 70
     0
  9
$DIMSD1
 70
     0
  9
$DIMSD2
 70
     0
  9
$DIMTOLJ
 70
     1
  9
$DIMTZIN
 70
     8
  9
$DIMALTZ
 70
     8
  9
$DIMALTTZ
 70
     8
  9
$DIMFIT
 70
     5
  9
$DIMUPT
 70
     0
  9
$DIMUNIT
 70
     2
  9
$DIMDEC
 70
     2
  9
$DIMTDEC
 70
     2
  9
$DIMALTU
 70
     2
  9
$DIMALTTD
 70
     2
  9
$DIMTXSTY
  7
ROMANS
  9
$DIMAUNIT
 70
     0
  9
$LUNITS
 70
     2
  9
$LUPREC
 70
     2
  9
$SKETCHINC
 40
0.1
  9
$FILLETRAD
 40
3.0
  9
$AUNITS
 70
     0
  9
$AUPREC
 70
     2
  9
$MENU
  1
stdr12j
  9
$ELEVATION
 40
0.0
  9
$PELEVATION
 40
0.0
  9
$THICKNESS
 40
0.0
  9
$LIMCHECK
 70
     0
  9
$BLIPMODE
 70
     0
  9
$CHAMFERA
 40
0.0
  9
$CHAMFERB
 40
0.0
  9
$CHAMFERC
 40
0.0
  9
$CHAMFERD
 40
0.0
  9
$SKPOLY
 70
     0
  9
$TDCREATE
 40
2449876.477257986
  9
$TDUPDATE
 40
2454411.488217430
  9
$TDINDWG
 40
0.0950295602
  9
$TDUSRTIMER
 40
0.0950295602
  9
$USRTIMER
 70
     1
  9
$ANGBASE
 50
0.0
  9
$ANGDIR
 70
     0
  9
$PDMODE
 70
     0
  9
$PDSIZE
 40
0.0
  9
$PLINEWID
 40
0.0
  9
$COORDS
 70
     2
  9
$SPLFRAME
 70
     0
  9
$SPLINETYPE
 70
     6
  9
$SPLINESEGS
 70
     8
  9
$ATTDIA
 70
     0
  9
$ATTREQ
 70
     1
  9
$HANDLING
 70
 22529
  9
$HANDSEED
  5
EA6E4F903
  9
$SURFTAB1
 70
     6
  9
$SURFTAB2
 70
     6
  9
$SURFTYPE
 70
     6
  9
$SURFU
 70
     6
  9
$SURFV
 70
     6
  9
$UCSNAME
  2

  9
$UCSORG
 10
0.0
 20
0.0
 30
0.0
  9
$UCSXDIR
 10
1.0
 20
0.0
 30
0.0
  9
$UCSYDIR
 10
0.0
 20
1.0
 30
0.0
  9
$PUCSNAME
  2

  9
$PUCSORG
 10
0.0
 20
0.0
 30
0.0
  9
$PUCSXDIR
 10
1.0
 20
0.0
 30
0.0
  9
$PUCSYDIR
 10
0.0
 20
1.0
 30
0.0
  9
$USERI1
 70
     4
  9
$USERI2
 70
     1
  9
$USERI3
 70
     2
  9
$USERI4
 70
     2
  9
$USERI5
 70
     0
  9
$USERR1
 40
2.0
  9
$USERR2
 40
3.0
  9
$USERR3
 40
3.0
  9
$USERR4
 40
1.5
  9
$USERR5
 40
10.0
  9
$WORLDVIEW
 70
     1
  9
$SHADEDGE
 70
     3
  9
$SHADEDIF
 70
    70
  9
$TILEMODE
 70
     1
  9
$MAXACTVP
 70
    16
  9
$PINSBASE
 10
0.0
 20
0.0
 30
0.0
  9
$PLIMCHECK
 70
     0
  9
$PEXTMIN
 10
1.000000000000000E+20
 20
1.000000000000000E+20
 30
1.000000000000000E+20
  9
$PEXTMAX
 10
-1.000000000000000E+20
 20
-1.000000000000000E+20
 30
-1.000000000000000E+20
  9
$PLIMMIN
 10
0.0
 20
0.0
  9
$PLIMMAX
 10
12.0
 20
9.0
  9
$UNITMODE
 70
     0
  9
$VISRETAIN
 70
     0
  9
$PLINEGEN
 70
     0
  9
$PSLTSCALE
 70
     0
  9
$TREEDEPTH
 70
  3020
  9
$PICKSTYLE
 70
     1
  9
$CMLSTYLE
  2
STANDARD
  9
$CMLJUST
 70
     0
  9
$CMLSCALE
 40
1.0
  9
$PROXYGRAPHICS
 70
     1
  9
$MEASUREMENT
 70
     0
  0
ENDSEC
  0
SECTION
  2
CLASSES
  0
CLASS
  1
LWPOLYLINE
  2
AcDbPolyline
  3
AutoCAD 2000
 90
        0
280
     0
281
     1
  0
CLASS
  1
DICTIONARYVAR
  2
AcDbDictionaryVar
  3
AutoCAD 2000
 90
        0
280
     0
281
     0
  0
CLASS
  1
HATCH
  2
AcDbHatch
  3
AutoCAD 2000
 90
        0
280
     0
281
     1
  0
CLASS
  1
ACDBDICTIONARYWDFLT
  2
AcDbDictionaryWithDefault
  3
AutoCAD 2000
 90
        0
280
     0
281
     0
  0
CLASS
  1
ACDBPLACEHOLDER
  2
AcDbPlaceHolder
  3
AutoCAD 2000
 90
        0
280
     0
281
     0
  0
CLASS
  1
LAYOUT
  2
AcDbLayout
  3
AutoCAD 2000
 90
        0
280
     0
281
     0
  0
CLASS
  1
LONG_TRANSACTION
  2
AcDbLongTransaction
  3
AutoCAD 2000
 90
        0
280
     0
281
     0
  0
CLASS
  1
LWPOLYLINE
  2
AcDbPolyline
  3
AutoCAD 2000
 90
        0
280
     0
281
     1
  0
CLASS
  1
HATCH
  2
AcDbHatch
  3
AutoCAD 2000
 90
        0
280
     0
281
     1
  0
CLASS
  1
XRECORD
  2
AcDbXrecord
  3
AutoCAD 2000
 90
        0
280
     0
281
     0
  0
CLASS
  1
LONG_TRANSACTION
  2
AcDbLongTransaction
  3
AutoCAD 2000
 90
        0
280
     0
281
     0
  0
CLASS
  1
LWPOLYLINE
  2
AcDbPolyline
  3
AutoCAD 2000
 90
        0
280
     0
281
     1
  0
CLASS
  1
HATCH
  2
AcDbHatch
  3
AutoCAD 2000
 90
        0
280
     0
281
     1
  0
CLASS
  1
XRECORD
  2
AcDbXrecord
  3
AutoCAD 2000
 90
        0
280
     0
281
     0
  0
CLASS
  1
LONG_TRANSACTION
  2
AcDbLongTransaction
  3
AutoCAD 2000
 90
        0
280
     0
281
     0
  0
CLASS
  1
LWPOLYLINE
  2
AcDbPolyline
  3
AutoCAD 2000
 90
        0
280
     0
281
     1
  0
CLASS
  1
HATCH
  2
AcDbHatch
  3
AutoCAD 2000
 90
        0
280
     0
281
     1
  0
CLASS
  1
XRECORD
  2
AcDbXrecord
  3
AutoCAD 2000
 90
        0
280
     0
281
     0
  0
CLASS
  1
LONG_TRANSACTION
  2
AcDbLongTransaction
  3
AutoCAD 2000
 90
        0
280
     0
281
     0
  0
CLASS
  1
LWPOLYLINE
  2
AcDbPolyline
  3
AutoCAD 2000
 90
        0
280
     0
281
     1
  0
CLASS
  1
HATCH
  2
AcDbHatch
  3
AutoCAD 2000
 90
        0
280
     0
281
     1
  0
CLASS
  1
XRECORD
  2
AcDbXrecord
  3
AutoCAD 2000
 90
        0
280
     0
281
     0
  0
CLASS
  1
LONG_TRANSACTION
  2
AcDbLongTransaction
  3
AutoCAD 2000
 90
        0
280
     0
281
     0
  0
CLASS
  1
LWPOLYLINE
  2
AcDbPolyline
  3
AutoCAD 2000
 90
        0
280
     0
281
     1
  0
CLASS
  1
HATCH
  2
AcDbHatch
  3
AutoCAD 2000
 90
        0
280
     0
281
     1
  0
CLASS
  1
XRECORD
  2
AcDbXrecord
  3
AutoCAD 2000
 90
        0
280
     0
281
     0
  0
ENDSEC
  0
SECTION
  2
TABLES
  0
TABLE
  2
VPORT
  5
EA6E4DC83
330
0
100
AcDbSymbolTable
 70
    12
  0
VPORT
  5
EA6E4DCBB
330
EA6E4DC83
100
AcDbSymbolTableRecord
100
AcDbViewportTableRecord
  2
2
 70
     0
 10
0.5
 20
0.0
 11
1.0
 21
1.0
 12
0.9240309999999999
 22
1.052651
 13
0.0
 23
0.0
 14
1.0
 24
1.0
 15
10.0
 25
10.0
 16
0.0
 26
0.0
 36
1.0
 17
0.0
 27
0.0
 37
0.0
 40
2.105302
 41
0.877814
 42
50.0
 43
0.0
 44
0.0
 50
0.0
 51
0.0
 71
     0
 72
   500
 73
     1
 74
     1
 75
     0
 76
     0
 77
     0
 78
     0
  0
VPORT
  5
EA6E4DCBC
330
EA6E4DC83
100
AcDbSymbolTableRecord
100
AcDbViewportTableRecord
  2
2
 70
     0
 10
0.0
 20
0.0
 11
0.5
 21
1.0
 12
0.9240309999999999
 22
1.052651
 13
0.0
 23
0.0
 14
1.0
 24
1.0
 15
10.0
 25
10.0
 16
0.0
 26
0.0
 36
1.0
 17
0.0
 27
0.0
 37
0.0
 40
2.105302
 41
0.877814
 42
50.0
 43
0.0
 44
0.0
 50
0.0
 51
0.0
 71
     0
 72
   500
 73
     1
 74
     1
 75
     0
 76
     0
 77
     0
 78
     0
  0
VPORT
  5
EA6E4DCBD
330
EA6E4DC83
100
AcDbSymbolTableRecord
100
AcDbViewportTableRecord
  2
3
 70
     0
 10
0.0
 20
0.5
 11
1.0
 21
1.0
 12
2.832169999999999
 22
1.052651
 13
0.0
 23
0.0
 14
1.0
 24
1.0
 15
10.0
 25
10.0
 16
0.0
 26
0.0
 36
1.0
 17
0.0
 27
0.0
 37
0.0
 40
2.105302
 41
3.571429
 42
50.0
 43
0.0
 44
0.0
 50
0.0
 51
0.0
 71
     0
 72
   500
 73
     1
 74
     1
 75
     0
 76
     0
 77
     0
 78
     0
  0
VPORT
  5
EA6E4DCBE
330
EA6E4DC83
100
AcDbSymbolTableRecord
100
AcDbViewportTableRecord
  2
3
 70
     0
 10
0.0
 20
0.0
 11
1.0
 21
0.5
 12
2.856741999999999
 22
1.052651
 13
0.0
 23
0.0
 14
1.0
 24
1.0
 15
10.0
 25
10.0
 16
0.0
 26
0.0
 36
1.0
 17
0.0
 27
0.0
 37
0.0
 40
2.105302
 41
3.594770999999999
 42
50.0
 43
0.0
 44
0.0
 50
0.0
 51
0.0
 71
     0
 72
   500
 73
     1
 74
     1
 75
     0
 76
     0
 77
     0
 78
     0
  0
VPORT
  5
EA6E4DCBF
330
EA6E4DC83
100
AcDbSymbolTableRecord
100
AcDbViewportTableRecord
  2
4
 70
     0
 10
0.5
 20
0.0
 11
1.0
 21
0.5
 12
2.886858
 22
1.052651
 13
0.0
 23
0.0
 14
1.0
 24
1.0
 15
10.0
 25
10.0
 16
0.0
 26
0.0
 36
1.0
 17
0.0
 27
0.0
 37
0.0
 40
4.275206999999999
 41
1.784314
 42
50.0
 43
0.0
 44
0.0
 50
0.0
 51
0.0
 71
     0
 72
   500
 73
     1
 74
     1
 75
     0
 76
     0
 77
     0
 78
     0
  0
VPORT
  5
EA6E4DCC0
330
EA6E4DC83
100
AcDbSymbolTableRecord
100
AcDbViewportTableRecord
  2
4
 70
     0
 10
0.5
 20
0.5
 11
1.0
 21
1.0
 12
2.86209
 22
1.052651
 13
0.0
 23
0.0
 14
1.0
 24
1.0
 15
10.0
 25
10.0
 16
0.0
 26
0.0
 36
1.0
 17
0.0
 27
0.0
 37
0.0
 40
4.275206999999999
 41
1.772726999999999
 42
50.0
 43
0.0
 44
0.0
 50
0.0
 51
0.0
 71
     0
 72
   500
 73
     1
 74
     1
 75
     0
 76
     0
 77
     0
 78
     0
  0
VPORT
  5
EA6E4DCC1
330
EA6E4DC83
100
AcDbSymbolTableRecord
100
AcDbViewportTableRecord
  2
4
 70
     0
 10
0.0
 20
0.5
 11
0.5
 21
1.0
 12
2.86209
 22
1.052651
 13
0.0
 23
0.0
 14
1.0
 24
1.0
 15
10.0
 25
10.0
 16
0.0
 26
0.0
 36
1.0
 17
0.0
 27
0.0
 37
0.0
 40
4.275206999999999
 41
1.772726999999999
 42
50.0
 43
0.0
 44
0.0
 50
0.0
 51
0.0
 71
     0
 72
   500
 73
     1
 74
     1
 75
     0
 76
     0
 77
     0
 78
     0
  0
VPORT
  5
EA6E4DCC2
330
EA6E4DC83
100
AcDbSymbolTableRecord
100
AcDbViewportTableRecord
  2
4
 70
     0
 10
0.0
 20
0.0
 11
0.5
 21
0.5
 12
2.886858
 22
1.052651
 13
0.0
 23
0.0
 14
1.0
 24
1.0
 15
10.0
 25
10.0
 16
0.0
 26
0.0
 36
1.0
 17
0.0
 27
0.0
 37
0.0
 40
4.275206999999999
 41
1.784314
 42
50.0
 43
0.0
 44
0.0
 50
0.0
 51
0.0
 71
     0
 72
   500
 73
     1
 74
     1
 75
     0
 76
     0
 77
     0
 78
     0
  0
VPORT
  5
EA6E4F8DF
330
EA6E4DC83
100
AcDbSymbolTableRecord
100
AcDbViewportTableRecord
  2
*ACTIVE
 70
     0
 10
0.0
 20
0.0
 11
1.0
 21
1.0
 12
181.0017443954581
 22
273.0032844886119
 13
0.0
 23
0.0
 14
1.0
 24
1.0
 15
10.0
 25
10.0
 16
0.0
 26
0.0
 36
1.0
 17
0.0
 27
0.0
 37
0.0
 40
549.6605630496548
 41
1.764444444444444
 42
50.0
 43
0.0
 44
0.0
 50
0.0
 51
0.0
 71
     0
 72
   500
 73
     1
 74
     0
 75
     0
 76
     0
 77
     0
 78
     0
  0
ENDTAB
  0
TABLE
  2
LTYPE
  5
EA6E4DC80
330
0
100
AcDbSymbolTable
 70
     6
  0
LTYPE
  5
EA6E4DC8C
330
EA6E4DC80
100
AcDbSymbolTableRecord
100
AcDbLinetypeTableRecord
  2
BYBLOCK
 70
     0
  3

 72
    65
 73
     0
 40
0.0
  0
LTYPE
  5
EA6E4DC8D
330
EA6E4DC80
100
AcDbSymbolTableRecord
100
AcDbLinetypeTableRecord
  2
BYLAYER
 70
     0
  3

 72
    65
 73
     0
 40
0.0
  0
LTYPE
  5
EA6E4DC8E
330
EA6E4DC80
100
AcDbSymbolTableRecord
100
AcDbLinetypeTableRecord
  2
CONTINUOUS
 70
     0
  3
実線
 72
    65
 73
     0
 40
0.0
  0
LTYPE
  5
EA6E4DCBA
330
EA6E4DC80
100
AcDbSymbolTableRecord
100
AcDbLinetypeTableRecord
  2
HIDDEN
 70
     0
  3
_ _ _ _ _ _ _ _ _ _ _ _ _ _ _ _ _ _ _ _ _ _ _
 72
    65
 73
     2
 40
0.375
 49
0.25
 74
     0
 49
-0.125
 74
     0
  0
LTYPE
  5
EA6E4E3D4
330
EA6E4DC80
100
AcDbSymbolTableRecord
100
AcDbLinetypeTableRecord
  2
CENTER
 70
     0
  3
____ _ ____ _ ____ _ ____ _ ____ _ ____ _ ____
 72
    65
 73
     4
 40
2.0
 49
1.25
 74
     0
 49
-0.25
 74
     0
 49
0.25
 74
     0
 49
-0.25
 74
     0
  0
LTYPE
  5
EA6E4EFCE
330
EA6E4DC80
100
AcDbSymbolTableRecord
100
AcDbLinetypeTableRecord
  2
DASHED
 70
     0
  3
__ __ __ __ __ __ __ __ __ __ __ __ __ __ __
 72
    65
 73
     2
 40
0.75
 49
0.5
 74
     0
 49
-0.25
 74
     0
  0
LTYPE
  5
EA6E4EFCF
330
EA6E4DC80
100
AcDbSymbolTableRecord
100
AcDbLinetypeTableRecord
  2
PHANTOM
 70
     0
  3
_____ _ _ _____ _ _ _____ _ _ _____ _ _ ____
 72
    65
 73
     6
 40
2.5
 49
1.25
 74
     0
 49
-0.25
 74
     0
 49
0.25
 74
     0
 49
-0.25
 74
     0
 49
0.25
 74
     0
 49
-0.25
 74
     0
  0
LTYPE
  5
EA6E4EFD0
330
EA6E4DC80
100
AcDbSymbolTableRecord
100
AcDbLinetypeTableRecord
  2
DASHDOT
 70
     0
  3
__ . __ . __ .
 72
    65
 73
     4
 40
7.81578947368421
 49
3.907894736842104
 74
     0
 49
-1.953947368421053
 74
     0
 49
0.0
 74
     0
 49
-1.953947368421053
 74
     0
  0
ENDTAB
  0
TABLE
  2
LAYER
  5
EA6E4DC7D
102
{ACAD_XDICTIONARY
360
EA6E4E3D8
102
}
330
0
100
AcDbSymbolTable
 70
    13
  0
LAYER
  5
EA6E4DC89
330
EA6E4DC7D
100
AcDbSymbolTableRecord
100
AcDbLayerTableRecord
  2
0
 70
     0
 62
     6
  6
CONTINUOUS
  0
LAYER
  5
EA6E4DCCA
330
EA6E4DC7D
100
AcDbSymbolTableRecord
100
AcDbLayerTableRecord
  2
SUNPOU
 70
     0
 62
     3
  6
CONTINUOUS
  0
LAYER
  5
EA6E4DCCB
330
EA6E4DC7D
100
AcDbSymbolTableRecord
100
AcDbLayerTableRecord
  2
TEXT
 70
     0
 62
     3
  6
CONTINUOUS
  0
LAYER
  5
EA6E4DCCC
330
EA6E4DC7D
100
AcDbSymbolTableRecord
100
AcDbLayerTableRecord
  2
SAISEN
 70
     0
 62
     4
  6
CONTINUOUS
  0
LAYER
  5
EA6E4DCCD
330
EA6E4DC7D
100
AcDbSymbolTableRecord
100
AcDbLayerTableRecord
  2
JISSEN
 70
     0
 62
     7
  6
CONTINUOUS
  0
LAYER
  5
EA6E4DCCF
330
EA6E4DC7D
100
AcDbSymbolTableRecord
100
AcDbLayerTableRecord
  2
TENSEN
 70
     0
 62
     2
  6
HIDDEN
  0
LAYER
  5
EA6E4DCD1
330
EA6E4DC7D
100
AcDbSymbolTableRecord
100
AcDbLayerTableRecord
  2
WAKU
 70
     0
 62
     5
  6
CONTINUOUS
  0
LAYER
  5
EA6E4E3D5
330
EA6E4DC7D
100
AcDbSymbolTableRecord
100
AcDbLayerTableRecord
  2
ITTEN
 70
     0
 62
     1
  6
CENTER
  0
LAYER
  5
EA6E4E3D6
330
EA6E4DC7D
100
AcDbSymbolTableRecord
100
AcDbLayerTableRecord
  2
HATCH
 70
     0
 62
     4
  6
CONTINUOUS
  0
LAYER
  5
EA6E4EFD1
330
EA6E4DC7D
100
AcDbSymbolTableRecord
100
AcDbLayerTableRecord
  2
HASEN
 70
     0
 62
     2
  6
DASHED
  0
LAYER
  5
EA6E4EFD2
330
EA6E4DC7D
100
AcDbSymbolTableRecord
100
AcDbLayerTableRecord
  2
NITEN
 70
     0
 62
     2
  6
PHANTOM
  0
LAYER
  5
EA6E4EFD4
330
EA6E4DC7D
100
AcDbSymbolTableRecord
100
AcDbLayerTableRecord
  2
1
 70
     0
 62
     4
  6
CONTINUOUS
  0
ENDTAB
  0
TABLE
  2
STYLE
  5
EA6E4DC7E
330
0
100
AcDbSymbolTable
 70
     6
  0
STYLE
  5
EA6E4DC8A
330
EA6E4DC7E
100
AcDbSymbolTableRecord
100
AcDbTextStyleTableRecord
  2
STANDARD
 70
     0
 40
0.0
 41
1.0
 50
0.0
 71
     0
 42
0.2
  3
ROMANS
  4
EXTFONT
  0
STYLE
  5
EA6E4DCB2
330
EA6E4DC7E
100
AcDbSymbolTableRecord
100
AcDbTextStyleTableRecord
  2
K
 70
     0
 40
0.0
 41
1.0
 50
0.0
 71
     0
 42
6.0
  3
SIMPLEX
  4
BIGFONT.SHX
  0
STYLE
  5
EA6E4DCB3
330
EA6E4DC7E
100
AcDbSymbolTableRecord
100
AcDbTextStyleTableRecord
  2
ROMANS
 70
     0
 40
0.0
 41
0.8
 50
0.0
 71
     0
 42
6.0
  3
romans
  4

  0
STYLE
  5
EA6E4DCFB
330
EA6E4DC7E
100
AcDbSymbolTableRecord
100
AcDbTextStyleTableRecord
  2
DIMENSION
 70
     0
 40
0.0
 41
1.0
 50
0.0
 71
     0
 42
2.5
  3
TXT
  4

  0
STYLE
  5
EA6E4EFD5
330
EA6E4DC7E
100
AcDbSymbolTableRecord
100
AcDbTextStyleTableRecord
  2
BIGFONT
 70
     0
 40
0.0
 41
1.0
 50
0.0
 71
     0
 42
10.0
  3
txt.shx
  4
bigfont
  0
STYLE
  5
EA6E4EFD6
330
EA6E4DC7E
100
AcDbSymbolTableRecord
100
AcDbTextStyleTableRecord
  2
35FONT
 70
     0
 40
3.5
 41
0.75
 50
15.0
 71
     0
 42
2.5
  3
SIMPLEX.shx
  4
BIGFONT.shx
  0
ENDTAB
  0
TABLE
  2
VIEW
  5
EA6E4DC81
330
0
100
AcDbSymbolTable
 70
     0
  0
ENDTAB
  0
TABLE
  2
UCS
  5
EA6E4DC82
330
0
100
AcDbSymbolTable
 70
     0
  0
ENDTAB
  0
TABLE
  2
APPID
  5
EA6E4DC84
330
0
100
AcDbSymbolTable
 70
     2
  0
APPID
  5
EA6E4DC8B
330
EA6E4DC84
100
AcDbSymbolTableRecord
100
AcDbRegAppTableRecord
  2
ACAD
 70
     0
  0
APPID
  5
EA6E4E3D7
330
EA6E4DC84
100
AcDbSymbolTableRecord
100
AcDbRegAppTableRecord
  2
ASK_MEN_XD
 70
     0
  0
ENDTAB
  0
TABLE
  2
DIMSTYLE
  5
EA6E4DC85
330
0
100
AcDbSymbolTable
 70
     2
  0
DIMSTYLE
105
EA6E4DCC5
330
EA6E4DC85
100
AcDbSymbolTableRecord
100
AcDbDimStyleTableRecord
  2
IMAO
 70
     0
  3

  4

  5

  6

  7

 40
1.0
 41
1.5
 42
1.0
 43
6.0
 44
1.0
 45
0.0
 46
0.0
 47
495.0
 48
0.0
140
3.0
141
0.0
142
0.0
143
25.4
144
1.0
145
0.0
146
1.0
147
0.09
 71
     0
 72
     0
 73
     0
 74
     0
 75
     0
 76
     0
 77
     1
 78
     8
170
     0
171
     2
172
     1
173
     0
174
     1
175
     0
176
     0
177
     0
178
     0
270
     2
271
     2
272
     2
273
     2
274
     2
340
EA6E4DCB3
275
     0
280
     0
281
     0
282
     0
283
     1
284
     8
285
     8
286
     8
287
     5
288
     0
  0
DIMSTYLE
105
EA6E4DCFC
330
EA6E4DC85
100
AcDbSymbolTableRecord
100
AcDbDimStyleTableRecord
  2
STANDARD
 70
     0
  3

  4

  5
AR_OPEN
  6

  7

 40
2.0
 41
2.0
 42
0.1
 43
10.0
 44
1.5
 45
0.0
 46
0.0
 47
0.0
 48
0.0
140
3.0
141
0.09
142
0.0
143
25.4
144
1.0
145
1.0
146
1.0
147
0.1
 71
     0
 72
     0
 73
     0
 74
     0
 75
     0
 76
     0
 77
     0
 78
     8
170
     0
171
     2
172
     1
173
     0
174
     0
175
     0
176
   256
177
   256
178
   256
270
     2
271
     2
272
     2
273
     2
274
     2
340
EA6E4DCFB
275
     0
280
     0
281
     0
282
     0
283
     1
284
     8
285
     0
286
     0
287
     3
288
     0
  0
ENDTAB
  0
TABLE
  2
BLOCK_RECORD
  5
EA6E4DC7C
330
0
100
AcDbSymbolTable
 70
    23
  0
BLOCK_RECORD
  5
EA6E4DC92
102
{ACAD_XDICTIONARY
360
EA6E4E15C
102
}
330
EA6E4DC7C
100
AcDbSymbolTableRecord
100
AcDbBlockTableRecord
  2
*MODEL_SPACE
  0
BLOCK_RECORD
  5
EA6E4DC8F
102
{ACAD_XDICTIONARY
360
EA6E4E15A
102
}
330
EA6E4DC7C
100
AcDbSymbolTableRecord
100
AcDbBlockTableRecord
  2
*PAPER_SPACE
  0
BLOCK_RECORD
  5
EA6E4DC97
330
EA6E4DC7C
100
AcDbSymbolTableRecord
100
AcDbBlockTableRecord
  2
ARROW
  0
BLOCK_RECORD
  5
EA6E4DC9D
330
EA6E4DC7C
100
AcDbSymbolTableRecord
100
AcDbBlockTableRecord
  2
STDGX5
  0
BLOCK_RECORD
  5
EA6E4DCA0
330
EA6E4DC7C
100
AcDbSymbolTableRecord
100
AcDbBlockTableRecord
  2
STDR12J
  0
BLOCK_RECORD
  5
EA6E4DCF5
330
EA6E4DC7C
100
AcDbSymbolTableRecord
100
AcDbBlockTableRecord
  2
AR_OPEN
  0
BLOCK_RECORD
  5
EA6E4E244
330
EA6E4DC7C
100
AcDbSymbolTableRecord
100
AcDbBlockTableRecord
  2
ARROWANG
  0
BLOCK_RECORD
  5
EA6E4EE43
330
EA6E4DC7C
100
AcDbSymbolTableRecord
100
AcDbBlockTableRecord
  2
*X6
  0
ENDTAB
  0
ENDSEC
  0
SECTION
  2
BLOCKS
  0
BLOCK
  5
EA6E4DCD4
330
EA6E4DC92
100
AcDbEntity
  8
0
100
AcDbBlockBegin
  2
*MODEL_SPACE
 70
     0
 10
0.0
 20
0.0
 30
0.0
  3
*MODEL_SPACE
  1

  0
ENDBLK
  5
EA6E4DCD5
330
EA6E4DC92
100
AcDbEntity
  8
0
100
AcDbBlockEnd
  0
BLOCK
  5
EA6E4DCD2
330
EA6E4DC8F
100
AcDbEntity
 67
     1
  8
0
100
AcDbBlockBegin
  2
*PAPER_SPACE
 70
     0
 10
0.0
 20
0.0
 30
0.0
  3
*PAPER_SPACE
  1

  0
ENDBLK
  5
EA6E4DCD3
330
EA6E4DC8F
100
AcDbEntity
 67
     1
  8
0
100
AcDbBlockEnd
  0
BLOCK
  5
449
330
EA6E4DC97
100
AcDbEntity
  8
0
100
AcDbBlockBegin
  2
ARROW
 70
     0
 10
1.0
 20
0.5
 30
0.0
  3
ARROW
  1

  0
LINE
  5
44A
330
EA6E4DC97
100
AcDbEntity
  8
0
100
AcDbLine
 10
1.0
 20
0.5
 30
0.0
 11
-0.5
 21
0.098076
 31
0.0
  0
LINE
  5
44B
330
EA6E4DC97
100
AcDbEntity
  8
0
100
AcDbLine
 10
0.0
 20
0.5
 30
0.0
 11
1.0
 21
0.5
 31
0.0
  0
LINE
  5
44C
330
EA6E4DC97
100
AcDbEntity
  8
0
100
AcDbLine
 10
1.0
 20
0.5
 30
0.0
 11
-0.5
 21
0.9019239999999999
 31
0.0
  0
ENDBLK
  5
44D
330
EA6E4DC97
100
AcDbEntity
  8
0
100
AcDbBlockEnd
  0
BLOCK
  5
142F
330
EA6E4DC9D
100
AcDbEntity
  8
0
100
AcDbBlockBegin
  2
STDGX5
 70
     0
 10
0.0
 20
0.0
 30
0.0
  3
STDGX5
  1

  0
ENDBLK
  5
1430
330
EA6E4DC9D
100
AcDbEntity
  8
0
100
AcDbBlockEnd
  0
BLOCK
  5
2946
330
EA6E4DCA0
100
AcDbEntity
  8
0
100
AcDbBlockBegin
  2
STDR12J
 70
     0
 10
0.0
 20
0.0
 30
0.0
  3
STDR12J
  1

  0
ENDBLK
  5
296B
330
EA6E4DCA0
100
AcDbEntity
  8
0
100
AcDbBlockEnd
  0
BLOCK
  5
EA6E4DCF9
330
EA6E4DCF5
100
AcDbEntity
  8
0
100
AcDbBlockBegin
  2
AR_OPEN
 70
     0
 10
0.0
 20
0.0
 30
0.0
  3
AR_OPEN
  1

  0
LINE
  5
EA6E4DCF6
330
EA6E4DCF5
100
AcDbEntity
  8
0
 62
     0
100
AcDbLine
 10
-1.0
 20
0.0
 30
0.0
 11
0.0
 21
0.0
 31
0.0
  0
LINE
  5
EA6E4DCF7
330
EA6E4DCF5
100
AcDbEntity
  8
0
 62
     0
100
AcDbLine
 10
0.0
 20
0.0
 30
0.0
 11
-1.0
 21
0.267949
 31
0.0
  0
LINE
  5
EA6E4DCF8
330
EA6E4DCF5
100
AcDbEntity
  8
0
 62
     0
100
AcDbLine
 10
0.0
 20
0.0
 30
0.0
 11
-1.0
 21
-0.267949
 31
0.0
  0
ENDBLK
  5
EA6E4DCFA
330
EA6E4DCF5
100
AcDbEntity
  8
0
100
AcDbBlockEnd
  0
BLOCK
  5
EA6E4E247
330
EA6E4E244
100
AcDbEntity
  8
0
100
AcDbBlockBegin
  2
ARROWANG
 70
     0
 10
0.0
 20
0.0
 30
0.0
  3
ARROWANG
  1

  0
LINE
  5
EA6E4E245
330
EA6E4E244
100
AcDbEntity
  8
SUNPOU
100
AcDbLine
 10
0.0
 20
0.0
 30
0.0
 11
-1.499999999999957
 21
0.4019237886467409
 31
0.0
  0
LINE
  5
EA6E4E246
330
EA6E4E244
100
AcDbEntity
  8
SUNPOU
100
AcDbLine
 10
0.0
 20
0.0
 30
0.0
 11
-1.500000000000028
 21
-0.4019237886467124
 31
0.0
  0
ENDBLK
  5
EA6E4E248
330
EA6E4E244
100
AcDbEntity
  8
0
100
AcDbBlockEnd
  0
BLOCK
  5
EA6E4EE49
330
EA6E4EE43
100
AcDbEntity
  8
0
100
AcDbBlockBegin
  2
*X6
 70
     1
 10
0.0
 20
0.0
 30
0.0
  3
*X6
  1

  0
LINE
  5
EA6E4EE44
330
EA6E4EE43
100
AcDbEntity
  8
0
 62
     0
100
AcDbLine
 10
84.7927748043743
 20
193.2
 30
0.0
 11
85.59996038714022
 21
193.2
 31
0.0
  0
LINE
  5
EA6E4EE45
330
EA6E4EE43
100
AcDbEntity
  8
0
 62
     0
100
AcDbLine
 10
85.06658842922719
 20
193.4
 30
0.0
 11
85.57842666647443
 21
193.4
 31
0.0
  0
LINE
  5
EA6E4EE46
330
EA6E4EE43
100
AcDbEntity
  8
0
 62
     0
100
AcDbLine
 10
85.34040205408016
 20
193.5999999999999
 30
0.0
 11
85.55689294580865
 21
193.5999999999999
 31
0.0
  0
LINE
  5
EA6E4EE47
330
EA6E4EE43
100
AcDbEntity
  8
0
 62
     0
100
AcDbLine
 10
85.08810369220727
 20
193.0
 30
0.0
 11
85.62149410780598
 21
193.0
 31
0.0
  0
LINE
  5
EA6E4EE48
330
EA6E4EE43
100
AcDbEntity
  8
0
 62
     0
100
AcDbLine
 10
85.54039407282862
 20
192.8
 30
0.0
 11
85.64302782847176
 21
192.8
 31
0.0
  0
ENDBLK
  5
EA6E4EE4A
330
EA6E4EE43
100
AcDbEntity
  8
0
100
AcDbBlockEnd
  0
ENDSEC
  0
SECTION
  2
ENTITIES
  0
INSERT
  5
20
330
EA6E4DC92
100
AcDbEntity
  8
TEXT
100
AcDbBlockReference
  2
STDGX5
 10
370.865806
 20
2.374565
 30
0.0
  0
INSERT
  5
21
330
EA6E4DC92
100
AcDbEntity
  8
TEXT
100
AcDbBlockReference
  2
STDGX5
 10
1520.591055
 20
494.796741
 30
0.0
  0
INSERT
  5
441
330
EA6E4DC92
100
AcDbEntity
  8
JISSEN
  6
CONTINUOUS
 62
     4
100
AcDbBlockReference
  2
STDGX5
 10
-63.39588599999999
 20
80.39599
 30
0.0
 41
2.0
 42
2.0
 43
2.0
  0
INSERT
  5
296C
330
EA6E4DC92
100
AcDbEntity
  8
JISSEN
100
AcDbBlockReference
  2
STDR12J
 10
0.0
 20
0.0
 30
0.0
  0
TEXT
  5
29F6
330
EA6E4DC92
100
AcDbEntity
  8
TEXT
100
AcDbText
 10
284.499999
 20
536.0
 30
0.0
 40
6.0
  1

  7
K
 72
     4
 11
284.499999
 21
536.0
 31
0.0
100
AcDbText
  0
MTEXT
  5
EA6E4E0DF
330
EA6E4DC92
100
AcDbEntity
  8
JISSEN
100
AcDbMText
 10
302.3089179999999
 20
159.090371
 30
0.0
 40
6.0
 41
0.0
 71
     4
 72
     5
  1
\A1;
  7
ROMANS
1001
ACAD
1000
MTEXTBEGIN
1070
    73
1070
     1
1070
    44
1040
1.0
1070
    74
1070
     0
1000
MTEXTEND
  0
MTEXT
  5
EA6E4E0E3
330
EA6E4DC92
100
AcDbEntity
  8
JISSEN
100
AcDbMText
 10
278.4487169999999
 20
159.0440929999999
 30
0.0
 40
6.0
 41
0.0
 71
     4
 72
     5
  1
\A1;
  7
ROMANS
1001
ACAD
1000
MTEXTBEGIN
1070
    73
1070
     1
1070
    44
1040
1.0
1070
    74
1070
     0
1000
MTEXTEND
  0
MTEXT
  5
EA6E4E0E7
330
EA6E4DC92
100
AcDbEntity
  8
JISSEN
100
AcDbMText
 10
252.744385
 20
158.909631
 30
0.0
 40
6.0
 41
0.0
 71
     4
 72
     5
  1
\A1;
  7
ROMANS
1001
ACAD
1000
MTEXTBEGIN
1070
    73
1070
     1
1070
    44
1040
1.0
1070
    74
1070
     0
1000
MTEXTEND
  0
TEXT
  5
EA6E4E17A
330
EA6E4DC92
100
AcDbEntity
  8
SUNPOU
100
AcDbText
 10
265.6376972818612
 20
14.31652477187026
 30
0.0
 40
6.0
  1
末端試験装置 G-
100
AcDbText
  0
TEXT
  5
EA6E4E17B
330
EA6E4DC92
100
AcDbEntity
  8
SUNPOU
100
AcDbText
 10
265.6376972818612
 20
4.316524771870263
 30
0.0
 40
6.0
  1
A4 用紙、印刷尺度 1/2
100
AcDbText
  0
LWPOLYLINE
  5
EA6E4E909
330
EA6E4DC92
100
AcDbEntity
  8
WAKU
100
AcDbPolyline
 90
        4
 70
     1
 43
0.0
 10
0.0
 20
0.0
 10
362.0
 20
0.0
 10
362.0
 20
546.0
 10
0.0
 20
546.0
  0
LINE
  5
EA6E4EE30
330
EA6E4DC92
100
AcDbEntity
  8
SUNPOU
100
AcDbLine
 10
326.0579107364687
 20
20.31112176104011
 30
0.0
 11
331.0579107364687
 21
20.31112176104011
 31
0.0
  0
LINE
  5
EA6E4EE31
330
EA6E4DC92
100
AcDbEntity
  8
SUNPOU
100
AcDbLine
 10
326.0579107364687
 20
14.31112176104011
 30
0.0
 11
331.0579107364687
 21
14.31112176104011
 31
0.0
  0
LINE
  5
EA6E4EE32
330
EA6E4DC92
100
AcDbEntity
  8
SUNPOU
100
AcDbLine
 10
328.5579107364688
 20
20.31112176104011
 30
0.0
 11
328.5579107364688
 21
14.31112176104011
 31
0.0
  0
LINE
  5
EA6E4EE33
330
EA6E4DC92
100
AcDbEntity
  8
SUNPOU
100
AcDbLine
 10
327.0579107364687
 20
20.31112176104011
 30
0.0
 11
327.0579107364687
 21
14.31112176104011
 31
0.0
  0
LINE
  5
EA6E4EE34
330
EA6E4DC92
100
AcDbEntity
  8
SUNPOU
100
AcDbLine
 10
330.0579107364687
 20
20.31112176104011
 30
0.0
 11
330.0579107364687
 21
14.31112176104011
 31
0.0
  0
LINE
  5
EA6E4F45C
330
EA6E4DC92
100
AcDbEntity
  8
1
 62
     7
100
AcDbLine
 10
296.5702777886058
 20
327.2307323100058
 30
0.0
 11
285.2269027886056
 21
327.2307323100058
 31
0.0
  0
TEXT
  5
EA6E4F45D
330
EA6E4DC92
100
AcDbEntity
  8
JISSEN
100
AcDbText
 10
301.9611686740042
 20
195.5206808375895
 30
0.0
 40
2.7
  1
SHUT
 50
270.0
 41
0.75
  7
K
100
AcDbText
  0
ARC
  5
EA6E4F45E
330
EA6E4DC92
100
AcDbEntity
  8
JISSEN
100
AcDbCircle
 10
303.2269027886063
 20
200.7591003230887
 30
0.0
 40
2.0
100
AcDbArc
 50
221.409622109217
 51
318.5903778907829
  0
INSERT
  5
EA6E4F45F
330
EA6E4DC92
100
AcDbEntity
  8
JISSEN
100
AcDbBlockReference
  2
*X6
 10
108.9745555657689
 20
113.7880661311249
 30
0.0
 41
-1.0
 50
270.0
  0
LINE
  5
EA6E4F460
330
EA6E4DC92
100
AcDbEntity
  8
JISSEN
100
AcDbLine
 10
302.1313216787214
 20
198.5216507988531
 30
0.0
 11
302.7211564375991
 21
199.3291747658165
 31
0.0
  0
LWPOLYLINE
  5
EA6E4F461
330
EA6E4DC92
100
AcDbEntity
  8
JISSEN
100
AcDbPolyline
 90
        3
 70
     0
 43
0.0
 10
302.1313216787214
 20
198.5216507988531
 10
301.7269027886054
 20
199.4362246675579
 10
302.7211564375991
 20
199.3291747658165
  0
INSERT
  5
EA6E4F462
330
EA6E4DC92
100
AcDbEntity
  8
JISSEN
100
AcDbBlockReference
  2
*X6
 10
108.9745555657691
 20
316.7933984888843
 30
0.0
 50
270.0
  0
LWPOLYLINE
  5
EA6E4F463
330
EA6E4DC92
100
AcDbEntity
  8
JISSEN
100
AcDbPolyline
 90
        3
 70
     0
 43
0.0
 10
302.1313216787214
 20
232.0598138211559
 10
301.7269027886054
 20
231.1452399524509
 10
302.7211564375991
 20
231.2522898541928
  0
LINE
  5
EA6E4F464
330
EA6E4DC92
100
AcDbEntity
  8
JISSEN
100
AcDbLine
 10
302.1313216787214
 20
232.0598138211559
 30
0.0
 11
302.7211564375991
 21
231.2522898541928
 31
0.0
  0
ARC
  5
EA6E4F465
330
EA6E4DC92
100
AcDbEntity
  8
JISSEN
100
AcDbCircle
 10
303.2269027886063
 20
229.8223642969197
 30
0.0
 40
2.0
100
AcDbArc
 50
41.4096221092171
 51
138.5903778907829
  0
TEXT
  5
EA6E4F466
330
EA6E4DC92
100
AcDbEntity
  8
JISSEN
100
AcDbText
 10
301.9611686740042
 20
242.6704430444242
 30
0.0
 40
2.7
  1
OPEN
 50
270.0
 41
0.75
  7
K
100
AcDbText
  0
MTEXT
  5
EA6E4F467
330
EA6E4DC92
100
AcDbEntity
  8
SUNPOU
100
AcDbMText
 10
126.2908196140717
 20
413.7530347119302
 30
0.0
 40
6.0
 41
0.0
 71
     5
 72
     1
  1
\A1;(91)
  7
K
1001
ACAD
1000
MTEXTBEGIN
1070
    73
1070
     1
1070
    44
1040
1.0
1070
    74
1070
     0
1000
MTEXTEND
  0
INSERT
  5
EA6E4F468
330
EA6E4DC92
100
AcDbEntity
  8
SUNPOU
100
AcDbBlockReference
  2
ARROWANG
 10
171.7058196140717
 20
410.5730347119301
 30
0.0
 41
3.0
 42
3.0
 43
3.0
  0
INSERT
  5
EA6E4F469
330
EA6E4DC92
100
AcDbEntity
  8
SUNPOU
100
AcDbBlockReference
  2
ARROWANG
 10
80.87581961407181
 20
410.5730347119301
 30
0.0
 41
3.0
 42
3.0
 43
3.0
 50
180.0
  0
LINE
  5
EA6E4F46A
330
EA6E4DC92
100
AcDbEntity
  8
SUNPOU
100
AcDbLine
 10
83.87581961407182
 20
410.5730347119301
 30
0.0
 11
168.7058196140717
 21
410.5730347119301
 31
0.0
  0
LINE
  5
EA6E4F46B
330
EA6E4DC92
100
AcDbEntity
  8
SUNPOU
100
AcDbLine
 10
171.7058196140717
 20
304.2307323100059
 30
0.0
 11
171.7058196140717
 21
412.5730347119302
 31
0.0
  0
LINE
  5
EA6E4F46C
330
EA6E4DC92
100
AcDbEntity
  8
SUNPOU
100
AcDbLine
 10
80.87581961407181
 20
370.0821680558519
 30
0.0
 11
80.87581961407181
 21
412.5730347119302
 31
0.0
  0
MTEXT
  5
EA6E4F46D
330
EA6E4DC92
100
AcDbEntity
  8
SUNPOU
100
AcDbMText
 10
39.23281659843428
 20
279.0057323099857
 30
0.0
 40
6.0
 41
0.0
 71
     5
 72
     1
  1
\A1;(228)
  7
K
 11
0.0000000000000001
 21
1.0
 31
0.0
1001
ACAD
1000
MTEXTBEGIN
1070
    73
1070
     1
1070
    44
1040
1.0
1070
    74
1070
     0
1000
MTEXTEND
  0
INSERT
  5
EA6E4F46E
330
EA6E4DC92
100
AcDbEntity
  8
SUNPOU
100
AcDbBlockReference
  2
ARROWANG
 10
42.41281659843429
 20
165.2907323100039
 30
0.0
 41
3.0
 42
3.0
 43
3.0
 50
270.0
  0
INSERT
  5
EA6E4F46F
330
EA6E4DC92
100
AcDbEntity
  8
SUNPOU
100
AcDbBlockReference
  2
ARROWANG
 10
42.41281659843434
 20
392.7207323099675
 30
0.0
 41
3.0
 42
3.0
 43
3.0
 50
90.0
  0
LINE
  5
EA6E4F470
330
EA6E4DC92
100
AcDbEntity
  8
SUNPOU
100
AcDbLine
 10
42.41281659843434
 20
389.7207323099675
 30
0.0
 11
42.41281659843429
 21
168.2907323100039
 31
0.0
  0
LINE
  5
EA6E4F471
330
EA6E4DC92
100
AcDbEntity
  8
SUNPOU
100
AcDbLine
 10
65.45313211407131
 20
165.2907323100039
 30
0.0
 11
40.41281659843429
 21
165.2907323100039
 31
0.0
  0
LINE
  5
EA6E4F472
330
EA6E4DC92
100
AcDbEntity
  8
SUNPOU
100
AcDbLine
 10
140.8558196140718
 20
392.7207323099674
 30
0.0
 11
40.41281659843434
 21
392.7207323099675
 31
0.0
  0
TEXT
  5
EA6E4F473
330
EA6E4DC92
100
AcDbEntity
  8
SUNPOU
100
AcDbText
 10
333.5000024395799
 20
465.0
 30
0.0
 40
6.0
  1
2MPa
  7
K
 72
     4
 11
344.5000024395799
 21
468.0
 31
0.0
100
AcDbText
  0
TEXT
  5
EA6E4F478
330
EA6E4DC92
100
AcDbEntity
  8
JISSEN
100
AcDbText
 10
10.49912538719802
 20
75.83790308075094
 30
0.0
 40
10.0
  1
%%UK=50 対応
  7
K
 72
     4
 11
44.71341110148375
 21
79.83790308075095
 31
0.0
100
AcDbText
  0
LINE
  5
EA6E4F4BB
330
EA6E4DC92
100
AcDbEntity
  8
NITEN
100
AcDbLine
 10
310.2269027886056
 20
332.2307323100058
 30
0.0
 11
316.5834701295007
 21
332.2307323100058
 31
0.0
  0
INSERT
  5
EA6E4F4BC
330
EA6E4DC92
100
AcDbEntity
  8
TENSEN
100
AcDbBlockReference
  2
ARROWANG
 10
303.2269027886055
 20
150.9101501263428
 30
0.0
 41
3.000000000000022
 42
3.0
 43
3.0
 50
358.6649476615418
  0
INSERT
  5
EA6E4F4BD
330
EA6E4DC92
100
AcDbEntity
  8
TENSEN
100
AcDbBlockReference
  2
ARROWANG
 10
238.8463206049439
 20
215.2907323100044
 30
0.0
 41
2.999999999999999
 42
3.0
 43
3.0
 50
91.33505233845765
  0
ARC
  5
EA6E4F4BE
330
EA6E4DC92
100
AcDbEntity
  8
SUNPOU
100
AcDbCircle
 10
303.2269027886056
 20
215.2907323100044
 30
0.0
 40
64.38058218366165
100
AcDbArc
 50
182.6701046769162
 51
267.3298953230852
  0
LINE
  5
EA6E4F4BF
330
EA6E4DC92
100
AcDbEntity
  8
TENSEN
100
AcDbLine
 10
94.30564872449167
 20
334.5751089348007
 30
0.0
 11
94.47063695496694
 21
334.6134163047502
 31
0.0
  0
LINE
  5
EA6E4F4C0
330
EA6E4DC92
100
AcDbEntity
  8
TENSEN
100
AcDbLine
 10
67.43562518544194
 20
334.5751089348007
 30
0.0
 11
67.27063695496685
 21
334.6151765293872
 31
0.0
  0
ARC
  5
EA6E4F4C1
330
EA6E4DC92
100
AcDbEntity
  8
JISSEN
100
AcDbCircle
 10
309.7269027886056
 20
388.7207323100057
 30
0.0
 40
2.0
100
AcDbArc
 50
0.0
 51
90.0
  0
LINE
  5
EA6E4F4C2
330
EA6E4DC92
100
AcDbEntity
  8
JISSEN
100
AcDbLine
 10
294.8963712191833
 20
392.7207323099673
 30
0.0
 11
288.2269027886056
 21
392.7207323099673
 31
0.0
  0
LINE
  5
EA6E4F4C3
330
EA6E4DC92
100
AcDbEntity
  8
JISSEN
  6
BYBLOCK
 62
     0
100
AcDbLine
 10
309.7269027886056
 20
390.7207323100056
 30
0.0
 11
294.8963712191833
 21
390.7207323100057
 31
0.0
  0
ARC
  5
EA6E4F4C4
330
EA6E4DC92
100
AcDbEntity
  8
NITEN
100
AcDbCircle
 10
310.0217201295006
 20
357.5170944732279
 30
0.0
 40
11.22555938037854
100
AcDbArc
 50
52.71641621260361
 51
81.26284532032322
  0
ARC
  5
EA6E4F4C5
330
EA6E4DC92
100
AcDbEntity
  8
NITEN
100
AcDbCircle
 10
310.0217201295006
 20
375.388148242525
 30
0.0
 40
11.22555938037854
100
AcDbArc
 50
278.7371546796767
 51
307.2835837873963
  0
ARC
  5
EA6E4F4C6
330
EA6E4DC92
100
AcDbEntity
  8
JISSEN
100
AcDbCircle
 10
309.7269027886056
 20
342.7207323100057
 30
0.0
 40
2.0
100
AcDbArc
 50
284.4775121859299
 51
359.9999999999983
  0
LINE
  5
EA6E4F4C7
330
EA6E4DC92
100
AcDbEntity
  8
JISSEN
  6
BYBLOCK
 62
     0
100
AcDbLine
 10
296.2269027886057
 20
340.7207323100057
 30
0.0
 11
294.8963712191833
 21
340.7207323100057
 31
0.0
  0
LINE
  5
EA6E4F4C8
330
EA6E4DC92
100
AcDbEntity
  8
JISSEN
100
AcDbLine
 10
294.8963712191833
 20
338.7207323100108
 30
0.0
 11
288.2269027886056
 21
338.7207323100108
 31
0.0
  0
LINE
  5
EA6E4F4C9
330
EA6E4DC92
100
AcDbEntity
  8
JISSEN
  6
BYBLOCK
 62
     0
100
AcDbLine
 10
310.2269027886056
 20
342.1839259227732
 30
0.0
 11
296.2269027886057
 21
342.1839259227732
 31
0.0
  0
LINE
  5
EA6E4F4CA
330
EA6E4DC92
100
AcDbEntity
  8
NITEN
100
AcDbLine
 10
316.8217201295008
 20
339.8547323100054
 30
0.0
 11
316.821720129501
 21
366.4565647657612
 31
0.0
  0
LINE
  5
EA6E4F4CB
330
EA6E4DC92
100
AcDbEntity
  8
JISSEN
100
AcDbLine
 10
294.8963712191832
 20
392.7207323099673
 30
0.0
 11
294.8963712191832
 21
338.7207323100108
 31
0.0
  0
LINE
  5
EA6E4F4CC
330
EA6E4DC92
100
AcDbEntity
  8
JISSEN
100
AcDbLine
 10
294.8963712191833
 20
392.7207323099673
 30
0.0
 11
294.8963712191833
 21
338.7207323100108
 31
0.0
  0
LINE
  5
EA6E4F4CD
330
EA6E4DC92
100
AcDbEntity
  8
JISSEN
100
AcDbLine
 10
288.2269027886056
 20
392.7207323099673
 30
0.0
 11
288.2269027886056
 21
338.7207323100108
 31
0.0
  0
LINE
  5
EA6E4F4CE
330
EA6E4DC92
100
AcDbEntity
  8
JISSEN
100
AcDbLine
 10
311.7269027886056
 20
388.7207323100057
 30
0.0
 11
311.7269027886056
 21
342.7207323100057
 31
0.0
  0
ARC
  5
EA6E4F4CF
330
EA6E4DC92
100
AcDbEntity
  8
NITEN
  6
PHANTOM
 48
0.5
100
AcDbCircle
 10
333.726902788607
 20
211.2907323100044
 30
0.0
 40
2.0
100
AcDbArc
 50
270.0
 51
0.0
  0
ARC
  5
EA6E4F4D0
330
EA6E4DC92
100
AcDbEntity
  8
NITEN
  6
PHANTOM
 48
0.5
100
AcDbCircle
 10
333.726902788607
 20
219.2907323100044
 30
0.0
 40
2.0
100
AcDbArc
 50
0.0
 51
90.0
  0
LINE
  5
EA6E4F4D1
330
EA6E4DC92
100
AcDbEntity
  8
NITEN
  6
PHANTOM
 48
0.5
100
AcDbLine
 10
335.726902788607
 20
211.2907323100045
 30
0.0
 11
335.726902788607
 21
215.2907323100045
 31
0.0
  0
LINE
  5
EA6E4F4D2
330
EA6E4DC92
100
AcDbEntity
  8
NITEN
 62
     2
 48
0.5
100
AcDbLine
 10
335.726902788607
 20
219.2907323100045
 30
0.0
 11
335.726902788607
 21
215.2907323100045
 31
0.0
  0
LINE
  5
EA6E4F4D3
330
EA6E4DC92
100
AcDbEntity
  8
NITEN
100
AcDbLine
 10
316.6567318990255
 20
334.5751089348007
 30
0.0
 11
315.3032054236184
 21
332.2307323100058
 31
0.0
  0
LINE
  5
EA6E4F4D4
330
EA6E4DC92
100
AcDbEntity
  8
NITEN
100
AcDbLine
 10
315.3032054236184
 20
332.2307323100058
 30
0.0
 11
315.1469554236184
 21
327.2307323100057
 31
0.0
  0
LINE
  5
EA6E4F4D5
330
EA6E4DC92
100
AcDbEntity
  8
SAISEN
100
AcDbLine
 10
309.0650277886059
 20
328.4307323100057
 30
0.0
 11
308.9494027886059
 21
324.7307323100057
 31
0.0
  0
LINE
  5
EA6E4F4D6
330
EA6E4DC92
100
AcDbEntity
  8
1
 62
     7
100
AcDbLine
 10
309.8054027886057
 20
324.7307323100057
 30
0.0
 11
309.9925902886056
 21
330.7207323100056
 31
0.0
  0
LINE
  5
EA6E4F4D7
330
EA6E4DC92
100
AcDbEntity
  8
SAISEN
100
AcDbLine
 10
309.0650277886059
 20
328.4307323100057
 30
0.0
 11
309.9501459137247
 21
329.3625123138105
 31
0.0
  0
LINE
  5
EA6E4F4D8
330
EA6E4DC92
100
AcDbEntity
  8
NITEN
100
AcDbLine
 10
291.2964848353831
 20
327.2307323100057
 30
0.0
 11
291.1402348353831
 21
332.2307323100058
 31
0.0
  0
LINE
  5
EA6E4F4D9
330
EA6E4DC92
100
AcDbEntity
  8
NITEN
100
AcDbLine
 10
291.1402348353831
 20
332.2307323100058
 30
0.0
 11
289.7867083599758
 21
334.5751089348007
 31
0.0
  0
LINE
  5
EA6E4F4DA
330
EA6E4DC92
100
AcDbEntity
  8
JISSEN
100
AcDbLine
 10
294.9769027886054
 20
324.7307323100057
 30
0.0
 11
303.2269027886056
 21
324.7307323100057
 31
0.0
  0
LINE
  5
EA6E4F4DB
330
EA6E4DC92
100
AcDbEntity
  8
JISSEN
100
AcDbLine
 10
294.9769027886056
 20
324.7307323100057
 30
0.0
 11
303.2269027886056
 21
324.7307323100057
 31
0.0
  0
LINE
  5
EA6E4F4DC
330
EA6E4DC92
100
AcDbEntity
  8
1
 62
     7
100
AcDbLine
 10
296.4612152886059
 20
330.7207323100056
 30
0.0
 11
296.6484027886058
 21
324.7307323100057
 31
0.0
  0
LINE
  5
EA6E4F4DD
330
EA6E4DC92
100
AcDbEntity
  8
SAISEN
100
AcDbLine
 10
297.5044027886058
 20
324.7307323100057
 30
0.0
 11
297.3887777886056
 21
328.4307323100057
 31
0.0
  0
LINE
  5
EA6E4F4DE
330
EA6E4DC92
100
AcDbEntity
  8
SAISEN
100
AcDbLine
 10
297.3887777886054
 20
328.4307323100057
 30
0.0
 11
296.5036596634865
 21
329.3625123138105
 31
0.0
  0
LINE
  5
EA6E4F4DF
330
EA6E4DC92
100
AcDbEntity
  8
NITEN
100
AcDbLine
 10
289.8599701295008
 20
332.2307323100058
 30
0.0
 11
296.2269027886057
 21
332.2307323100058
 31
0.0
  0
LINE
  5
EA6E4F4E0
330
EA6E4DC92
100
AcDbEntity
  8
JISSEN
100
AcDbLine
 10
311.4769027886056
 20
324.7307323100057
 30
0.0
 11
303.2269027886056
 21
324.7307323100057
 31
0.0
  0
LINE
  5
EA6E4F4E1
330
EA6E4DC92
100
AcDbEntity
  8
SAISEN
100
AcDbLine
 10
309.9210277886056
 20
328.4307323100057
 30
0.0
 11
296.5327777886059
 21
328.4307323100057
 31
0.0
  0
LINE
  5
EA6E4F4E2
330
EA6E4DC92
100
AcDbEntity
  8
JISSEN
100
AcDbLine
 10
296.2269027886057
 20
330.7207323100056
 30
0.0
 11
310.2269027886056
 21
330.7207323100056
 31
0.0
  0
LINE
  5
EA6E4F4E3
330
EA6E4DC92
100
AcDbEntity
  8
JISSEN
  6
DASHDOT
 62
     0
100
AcDbLine
 10
295.5167978862318
 20
324.7307323100057
 30
0.0
 11
311.5167978862318
 21
324.7307323100057
 31
0.0
  0
LINE
  5
EA6E4F4E4
330
EA6E4DC92
100
AcDbEntity
  8
JISSEN
100
AcDbLine
 10
311.4769027886056
 20
324.7307323100057
 30
0.0
 11
303.2269027886056
 21
324.7307323100057
 31
0.0
  0
LINE
  5
EA6E4F4E5
330
EA6E4DC92
100
AcDbEntity
  8
JISSEN
100
AcDbLine
 10
311.7269027886054
 20
316.5863947427084
 30
0.0
 11
311.7269027886054
 21
312.8750698773032
 31
0.0
  0
LINE
  5
EA6E4F4E6
330
EA6E4DC92
100
AcDbEntity
  8
JISSEN
100
AcDbLine
 10
310.0386404800953
 20
316.2977196081139
 30
0.0
 11
310.0386404800953
 21
313.1637450118979
 31
0.0
  0
LINE
  5
EA6E4F4E7
330
EA6E4DC92
100
AcDbEntity
  8
JISSEN
100
AcDbLine
 10
311.4769027886056
 20
312.7307323100059
 30
0.0
 11
311.7269027886056
 21
312.5863947427084
 31
0.0
  0
LINE
  5
EA6E4F4E8
330
EA6E4DC92
100
AcDbEntity
  8
JISSEN
100
AcDbLine
 10
311.7269027886054
 20
313.1637450118982
 30
0.0
 11
310.0386404800958
 21
313.1637450118982
 31
0.0
  0
LINE
  5
EA6E4F4E9
330
EA6E4DC92
100
AcDbEntity
  8
JISSEN
100
AcDbLine
 10
311.4769027886056
 20
312.7307323100059
 30
0.0
 11
311.7269027886054
 21
312.8750698773032
 31
0.0
  0
LINE
  5
EA6E4F4EA
330
EA6E4DC92
100
AcDbEntity
  8
JISSEN
100
AcDbLine
 10
311.7269027886056
 20
312.1699588539773
 30
0.0
 11
310.6367089535474
 21
312.1699588539773
 31
0.0
  0
POINT
  5
EA6E4F4EB
330
EA6E4DC92
100
AcDbEntity
  8
JISSEN
  6
BYBLOCK
 62
     2
100
AcDbPoint
 10
311.7269027886056
 20
312.5863947427084
 30
0.0
  0
LINE
  5
EA6E4F4EC
330
EA6E4DC92
100
AcDbEntity
  8
JISSEN
100
AcDbLine
 10
310.6367089535474
 20
312.1699588539773
 30
0.0
 11
310.6367089535474
 21
305.2464863778949
 31
0.0
  0
LINE
  5
EA6E4F4ED
330
EA6E4DC92
100
AcDbEntity
  8
JISSEN
100
AcDbLine
 10
311.7269027886056
 20
316.2977196081136
 30
0.0
 11
310.0386404800963
 21
316.2977196081136
 31
0.0
  0
LINE
  5
EA6E4F4EE
330
EA6E4DC92
100
AcDbEntity
  8
JISSEN
100
AcDbLine
 10
311.4769027886056
 20
316.7307323100059
 30
0.0
 11
311.7269027886054
 21
316.5863947427084
 31
0.0
  0
LINE
  5
EA6E4F4EF
330
EA6E4DC92
100
AcDbEntity
  8
JISSEN
100
AcDbLine
 10
304.9151650971166
 20
316.2977196081139
 30
0.0
 11
304.9151650971166
 21
313.1637450118982
 31
0.0
  0
LINE
  5
EA6E4F4F0
330
EA6E4DC92
100
AcDbEntity
  8
JISSEN
100
AcDbLine
 10
301.5386404800947
 20
316.2977196081139
 30
0.0
 11
301.5386404800947
 21
313.1637450118982
 31
0.0
  0
LINE
  5
EA6E4F4F1
330
EA6E4DC92
100
AcDbEntity
  8
JISSEN
100
AcDbLine
 10
294.7269027886054
 20
316.5863947427084
 30
0.0
 11
294.7269027886054
 21
312.8750698773032
 31
0.0
  0
LINE
  5
EA6E4F4F2
330
EA6E4DC92
100
AcDbEntity
  8
JISSEN
100
AcDbLine
 10
296.4151650971157
 20
316.2977196081139
 30
0.0
 11
296.4151650971157
 21
313.1637450118979
 31
0.0
  0
LINE
  5
EA6E4F4F3
330
EA6E4DC92
100
AcDbEntity
  8
JISSEN
100
AcDbLine
 10
303.9769027886056
 20
300.2307323100059
 30
0.0
 11
304.7269027886057
 21
300.2307323100059
 31
0.0
  0
LINE
  5
EA6E4F4F4
330
EA6E4DC92
100
AcDbEntity
  8
JISSEN
100
AcDbLine
 10
302.4769027886057
 20
300.2307323100059
 30
0.0
 11
301.7269027886056
 21
300.2307323100059
 31
0.0
  0
LINE
  5
EA6E4F4F5
330
EA6E4DC92
100
AcDbEntity
  8
JISSEN
100
AcDbLine
 10
303.9769027886056
 20
304.2307323100059
 30
0.0
 11
303.9769027886056
 21
302.2307323100059
 31
0.0
  0
LINE
  5
EA6E4F4F6
330
EA6E4DC92
100
AcDbEntity
  8
JISSEN
100
AcDbLine
 10
302.4769027886057
 20
304.2307323100059
 30
0.0
 11
302.4769027886057
 21
302.2307323100059
 31
0.0
  0
LINE
  5
EA6E4F4F7
330
EA6E4DC92
100
AcDbEntity
  8
JISSEN
100
AcDbLine
 10
303.9769027886056
 20
304.2307323100059
 30
0.0
 11
304.7269027886057
 21
304.2307323100059
 31
0.0
  0
LINE
  5
EA6E4F4F8
330
EA6E4DC92
100
AcDbEntity
  8
JISSEN
100
AcDbLine
 10
303.2269027886056
 20
305.7307323100059
 30
0.0
 11
304.7269027886057
 21
304.2307323100059
 31
0.0
  0
LINE
  5
EA6E4F4F9
330
EA6E4DC92
100
AcDbEntity
  8
JISSEN
100
AcDbLine
 10
302.4769027886057
 20
304.2307323100059
 30
0.0
 11
301.7269027886056
 21
304.2307323100059
 31
0.0
  0
LINE
  5
EA6E4F4FA
330
EA6E4DC92
100
AcDbEntity
  8
JISSEN
100
AcDbLine
 10
303.2269027886056
 20
305.7307323100059
 30
0.0
 11
301.7269027886056
 21
304.2307323100059
 31
0.0
  0
LINE
  5
EA6E4F4FB
330
EA6E4DC92
100
AcDbEntity
  8
JISSEN
100
AcDbLine
 10
304.3170966236639
 20
312.1699588539773
 30
0.0
 11
304.3170966236639
 21
310.156101538124
 31
0.0
  0
LINE
  5
EA6E4F4FC
330
EA6E4DC92
100
AcDbEntity
  8
JISSEN
100
AcDbLine
 10
304.3170966236639
 20
312.1699588539773
 30
0.0
 11
303.2269027886056
 21
312.1699588539773
 31
0.0
  0
LINE
  5
EA6E4F4FD
330
EA6E4DC92
100
AcDbEntity
  8
JISSEN
100
AcDbLine
 10
304.9151650971157
 20
313.1637450118982
 30
0.0
 11
303.2269027886056
 21
313.1637450118982
 31
0.0
  0
LINE
  5
EA6E4F4FE
330
EA6E4DC92
100
AcDbEntity
  8
JISSEN
100
AcDbLine
 10
302.1367089535467
 20
312.1699588539773
 30
0.0
 11
302.1367089535467
 21
310.156101538124
 31
0.0
  0
LINE
  5
EA6E4F4FF
330
EA6E4DC92
100
AcDbEntity
  8
JISSEN
100
AcDbLine
 10
301.5386404800956
 20
313.1637450118982
 30
0.0
 11
303.2269027886056
 21
313.1637450118982
 31
0.0
  0
LINE
  5
EA6E4F500
330
EA6E4DC92
100
AcDbEntity
  8
JISSEN
100
AcDbLine
 10
302.1367089535474
 20
312.1699588539773
 30
0.0
 11
303.2269027886056
 21
312.1699588539773
 31
0.0
  0
LINE
  5
EA6E4F501
330
EA6E4DC92
100
AcDbEntity
  8
JISSEN
100
AcDbLine
 10
294.7269027886054
 20
313.1637450118979
 30
0.0
 11
296.4151650971155
 21
313.1637450118979
 31
0.0
  0
LINE
  5
EA6E4F502
330
EA6E4DC92
100
AcDbEntity
  8
JISSEN
100
AcDbLine
 10
294.9769027886056
 20
312.7307323100059
 30
0.0
 11
294.7269027886056
 21
312.5863947427084
 31
0.0
  0
LINE
  5
EA6E4F503
330
EA6E4DC92
100
AcDbEntity
  8
JISSEN
100
AcDbLine
 10
294.7269027886056
 20
312.1699588539773
 30
0.0
 11
295.8170966236639
 21
312.1699588539773
 31
0.0
  0
LINE
  5
EA6E4F504
330
EA6E4DC92
100
AcDbEntity
  8
JISSEN
100
AcDbLine
 10
294.9769027886056
 20
312.7307323100059
 30
0.0
 11
294.7269027886056
 21
312.8750698773032
 31
0.0
  0
POINT
  5
EA6E4F505
330
EA6E4DC92
100
AcDbEntity
  8
JISSEN
  6
BYBLOCK
 62
     2
100
AcDbPoint
 10
294.7269027886054
 20
312.5863947427084
 30
0.0
  0
LINE
  5
EA6E4F506
330
EA6E4DC92
100
AcDbEntity
  8
JISSEN
100
AcDbLine
 10
295.8170966236636
 20
312.1699588539773
 30
0.0
 11
295.8170966236639
 21
305.2464863778951
 31
0.0
  0
LINE
  5
EA6E4F507
330
EA6E4DC92
100
AcDbEntity
  8
JISSEN
100
AcDbLine
 10
294.9769027886056
 20
312.7307323100059
 30
0.0
 11
303.2269027886056
 21
312.7307323100059
 31
0.0
  0
ARC
  5
EA6E4F508
330
EA6E4DC92
100
AcDbEntity
  8
JISSEN
100
AcDbCircle
 10
298.9769027886056
 20
300.3902871012887
 30
0.0
 40
12.19610764141988
100
AcDbArc
 50
74.98433265447663
 51
105.0156673455233
  0
ARC
  5
EA6E4F509
330
EA6E4DC92
100
AcDbEntity
  8
JISSEN
100
AcDbCircle
 10
298.9769027886054
 20
320.5249609440631
 30
0.0
 40
7.794228634057486
100
AcDbArc
 50
250.8118635462769
 51
289.1881364537299
  0
LINE
  5
EA6E4F50A
330
EA6E4DC92
100
AcDbEntity
  8
JISSEN
100
AcDbLine
 10
303.9769027886056
 20
300.2307323100059
 30
0.0
 11
303.9769027886056
 21
302.2307323100059
 31
0.0
  0
LINE
  5
EA6E4F50B
330
EA6E4DC92
100
AcDbEntity
  8
JISSEN
100
AcDbLine
 10
302.4769027886057
 20
300.2307323100059
 30
0.0
 11
302.4769027886057
 21
302.2307323100059
 31
0.0
  0
LINE
  5
EA6E4F50C
330
EA6E4DC92
100
AcDbEntity
  8
JISSEN
100
AcDbLine
 10
304.9151650971166
 20
316.2977196081139
 30
0.0
 11
303.2269027886056
 21
316.2977196081139
 31
0.0
  0
LINE
  5
EA6E4F50D
330
EA6E4DC92
100
AcDbEntity
  8
JISSEN
100
AcDbLine
 10
301.5386404800947
 20
316.2977196081139
 30
0.0
 11
303.2269027886056
 21
316.2977196081139
 31
0.0
  0
LINE
  5
EA6E4F50E
330
EA6E4DC92
100
AcDbEntity
  8
JISSEN
100
AcDbLine
 10
294.7269027886054
 20
316.2977196081136
 30
0.0
 11
296.415165097115
 21
316.2977196081136
 31
0.0
  0
LINE
  5
EA6E4F50F
330
EA6E4DC92
100
AcDbEntity
  8
JISSEN
100
AcDbLine
 10
294.9769027886054
 20
316.7307323100059
 30
0.0
 11
294.7269027886054
 21
316.5863947427084
 31
0.0
  0
LINE
  5
EA6E4F510
330
EA6E4DC92
100
AcDbEntity
  8
JISSEN
100
AcDbLine
 10
294.9769027886054
 20
316.7307323100059
 30
0.0
 11
303.2269027886056
 21
316.7307323100059
 31
0.0
  0
ARC
  5
EA6E4F511
330
EA6E4DC92
100
AcDbEntity
  8
JISSEN
100
AcDbCircle
 10
298.9769027886052
 20
308.9365036759456
 30
0.0
 40
7.794228634060272
100
AcDbArc
 50
70.81186354628382
 51
109.1881364537161
  0
ARC
  5
EA6E4F512
330
EA6E4DC92
100
AcDbEntity
  8
JISSEN
100
AcDbCircle
 10
307.4769027886056
 20
300.3902871012887
 30
0.0
 40
12.19610764141988
100
AcDbArc
 50
74.98433265447663
 51
105.0156673455233
  0
ARC
  5
EA6E4F513
330
EA6E4DC92
100
AcDbEntity
  8
JISSEN
100
AcDbCircle
 10
307.4769027886056
 20
320.5249609440631
 30
0.0
 40
7.794228634057486
100
AcDbArc
 50
250.8118635462699
 51
289.1881364537231
  0
ARC
  5
EA6E4F514
330
EA6E4DC92
100
AcDbEntity
  8
JISSEN
100
AcDbCircle
 10
307.4769027886059
 20
308.9365036759456
 30
0.0
 40
7.794228634060272
100
AcDbArc
 50
70.81186354628382
 51
109.1881364537161
  0
LINE
  5
EA6E4F515
330
EA6E4DC92
100
AcDbEntity
  8
JISSEN
100
AcDbLine
 10
311.4769027886056
 20
312.7307323100059
 30
0.0
 11
303.2269027886056
 21
312.7307323100059
 31
0.0
  0
LINE
  5
EA6E4F516
330
EA6E4DC92
100
AcDbEntity
  8
JISSEN
100
AcDbLine
 10
311.4769027886056
 20
316.7307323100059
 30
0.0
 11
303.2269027886056
 21
316.7307323100059
 31
0.0
  0
LINE
  5
EA6E4F517
330
EA6E4DC92
100
AcDbEntity
  8
1
 62
     7
100
AcDbLine
 10
321.2269027886059
 20
302.2307323100059
 30
0.0
 11
321.2269027886059
 21
327.2307323100058
 31
0.0
  0
LINE
  5
EA6E4F518
330
EA6E4DC92
100
AcDbEntity
  8
JISSEN
  6
CONTINUOUS
 62
     0
100
AcDbLine
 10
294.9769027886054
 20
316.7307323100059
 30
0.0
 11
294.9769027886054
 21
324.7307323100057
 31
0.0
  0
LINE
  5
EA6E4F519
330
EA6E4DC92
100
AcDbEntity
  8
JISSEN
  6
CONTINUOUS
 62
     0
100
AcDbLine
 10
311.4769027886056
 20
316.7307323100059
 30
0.0
 11
311.4769027886056
 21
324.7307323100057
 31
0.0
  0
LINE
  5
EA6E4F51A
330
EA6E4DC92
100
AcDbEntity
  8
1
 62
     7
100
AcDbLine
 10
285.2269027886056
 20
327.2307323100058
 30
0.0
 11
285.2269027886056
 21
302.2307323100058
 31
0.0
  0
LINE
  5
EA6E4F51B
330
EA6E4DC92
100
AcDbEntity
  8
1
 62
     7
100
AcDbLine
 10
321.2269027886059
 20
327.2307323100058
 30
0.0
 11
309.8835277886057
 21
327.2307323100058
 31
0.0
  0
LINE
  5
EA6E4F51C
330
EA6E4DC92
100
AcDbEntity
  8
JISSEN
100
AcDbLine
 10
310.6367089535474
 20
299.2149782421169
 30
0.0
 11
310.6367089535474
 21
292.7915045035384
 31
0.0
  0
LINE
  5
EA6E4F51D
330
EA6E4DC92
100
AcDbEntity
  8
JISSEN
100
AcDbLine
 10
311.4769027886056
 20
292.2307323100059
 30
0.0
 11
306.9677582941117
 21
292.2307323100059
 31
0.0
  0
ARC
  5
EA6E4F51E
330
EA6E4DC92
100
AcDbEntity
  8
JISSEN
100
AcDbCircle
 10
307.4769027886056
 20
304.5712132308994
 30
0.0
 40
12.19614335359598
100
AcDbArc
 50
267.6441178663451
 51
285.0156223423038
  0
LINE
  5
EA6E4F51F
330
EA6E4DC92
100
AcDbEntity
  8
JISSEN
100
AcDbLine
 10
311.7269027886056
 20
292.7915045035384
 30
0.0
 11
310.6367089535474
 21
292.7915045035384
 31
0.0
  0
LINE
  5
EA6E4F520
330
EA6E4DC92
100
AcDbEntity
  8
JISSEN
100
AcDbLine
 10
311.4769027886056
 20
292.2307323100059
 30
0.0
 11
311.7269027886056
 21
292.3750698773034
 31
0.0
  0
ARC
  5
EA6E4F521
330
EA6E4DC92
100
AcDbEntity
  8
JISSEN
100
AcDbCircle
 10
312.154167196146
 20
295.8039173758524
 30
0.0
 40
5.0
100
AcDbArc
 50
144.2495596439055
 51
177.756706189967
  0
LINE
  5
EA6E4F522
330
EA6E4DC92
100
AcDbEntity
  8
JISSEN
100
AcDbLine
 10
295.8170966236639
 20
299.2149782421167
 30
0.0
 11
295.8170966236639
 21
292.7915045035384
 31
0.0
  0
LINE
  5
EA6E4F523
330
EA6E4DC92
100
AcDbEntity
  8
JISSEN
100
AcDbLine
 10
294.7269027886056
 20
292.7915045035384
 30
0.0
 11
295.8170966236639
 21
292.7915045035384
 31
0.0
  0
LINE
  5
EA6E4F524
330
EA6E4DC92
100
AcDbEntity
  8
JISSEN
100
AcDbLine
 10
294.9769027886056
 20
292.2307323100066
 30
0.0
 11
294.7269027886054
 21
292.375069877304
 31
0.0
  0
ARC
  5
EA6E4F525
330
EA6E4DC92
100
AcDbEntity
  8
JISSEN
100
AcDbCircle
 10
298.9769027886056
 20
304.5712132308994
 30
0.0
 40
12.19614335359598
100
AcDbArc
 50
254.9843776576961
 51
272.3558821336548
  0
LINE
  5
EA6E4F526
330
EA6E4DC92
100
AcDbEntity
  8
JISSEN
100
AcDbLine
 10
299.4860472830996
 20
292.2307323100059
 30
0.0
 11
294.976902788607
 21
292.2307323100059
 31
0.0
  0
ARC
  5
EA6E4F527
330
EA6E4DC92
100
AcDbEntity
  8
JISSEN
100
AcDbCircle
 10
294.299638381065
 20
295.8039173758524
 30
0.0
 40
5.0
100
AcDbArc
 50
2.243293810032926
 51
35.75044035609447
  0
LINE
  5
EA6E4F528
330
EA6E4DC92
100
AcDbEntity
  8
SAISEN
100
AcDbLine
 10
315.3083880827234
 20
272.2307323100055
 30
0.0
 11
316.6619145581305
 21
269.8863556852106
 31
0.0
  0
LINE
  5
EA6E4F529
330
EA6E4DC92
100
AcDbEntity
  8
SAISEN
100
AcDbLine
 10
315.1521380827234
 20
277.2307323100055
 30
0.0
 11
315.3083880827234
 21
272.2307323100055
 31
0.0
  0
LINE
  5
EA6E4F52A
330
EA6E4DC92
100
AcDbEntity
  8
1
 62
     7
100
AcDbLine
 10
316.6970902886057
 20
268.7607323100055
 30
0.0
 11
316.4324027886057
 21
277.2307323100055
 31
0.0
  0
LINE
  5
EA6E4F52B
330
EA6E4DC92
100
AcDbEntity
  8
1
 62
     7
100
AcDbLine
 10
303.2269027886056
 20
268.7607323100055
 30
0.0
 11
289.2269027886056
 21
268.7607323100056
 31
0.0
  0
LINE
  5
EA6E4F52C
330
EA6E4DC92
100
AcDbEntity
  8
SAISEN
100
AcDbLine
 10
291.1454174944879
 20
272.2307323100055
 30
0.0
 11
291.3016674944881
 21
277.2307323100055
 31
0.0
  0
LINE
  5
EA6E4F52D
330
EA6E4DC92
100
AcDbEntity
  8
1
 62
     7
100
AcDbLine
 10
290.0214027886061
 20
277.2307323100055
 30
0.0
 11
289.7567152886058
 21
268.7607323100055
 31
0.0
  0
LINE
  5
EA6E4F52E
330
EA6E4DC92
100
AcDbEntity
  8
SAISEN
100
AcDbLine
 10
289.7918910190808
 20
269.8863556852106
 30
0.0
 11
291.1454174944879
 21
272.2307323100055
 31
0.0
  0
ARC
  5
EA6E4F52F
330
EA6E4DC92
100
AcDbEntity
  8
JISSEN
100
AcDbCircle
 10
301.6692939107802
 20
278.7307323100059
 30
0.0
 40
1.5
100
AcDbArc
 50
182.2432938100329
 51
270.0
  0
LINE
  5
EA6E4F530
330
EA6E4DC92
100
AcDbEntity
  8
JISSEN
100
AcDbLine
 10
304.7845116664311
 20
277.2307323100059
 30
0.0
 11
303.2269027886056
 21
277.2307323100059
 31
0.0
  0
LINE
  5
EA6E4F531
330
EA6E4DC92
100
AcDbEntity
  8
JISSEN
100
AcDbLine
 10
301.6692939107802
 20
277.2307323100059
 30
0.0
 11
303.2269027886056
 21
277.2307323100059
 31
0.0
  0
LINE
  5
EA6E4F532
330
EA6E4DC92
100
AcDbEntity
  8
SAISEN
100
AcDbLine
 10
316.5886527886057
 20
272.2307323100055
 30
0.0
 11
289.8651527886059
 21
272.2307323100055
 31
0.0
  0
LINE
  5
EA6E4F533
330
EA6E4DC92
100
AcDbEntity
  8
1
 62
     7
100
AcDbLine
 10
303.226902788606
 20
268.7607323100055
 30
0.0
 11
317.2269027886061
 21
268.7607323100053
 31
0.0
  0
ARC
  5
EA6E4F534
330
EA6E4DC92
100
AcDbEntity
  8
JISSEN
100
AcDbCircle
 10
304.7845116664311
 20
278.7307323100059
 30
0.0
 40
1.5
100
AcDbArc
 50
270.0
 51
357.756706189967
  0
LINE
  5
EA6E4F535
330
EA6E4DC92
100
AcDbEntity
  8
JISSEN
100
AcDbLine
 10
306.2833621032789
 20
278.6720180190569
 30
0.0
 11
307.1579990733207
 21
295.999631679016
 31
0.0
  0
LINE
  5
EA6E4F536
330
EA6E4DC92
100
AcDbEntity
  8
JISSEN
100
AcDbLine
 10
300.1704434739324
 20
278.6720180190569
 30
0.0
 11
299.2958065038905
 21
295.999631679016
 31
0.0
  0
LINE
  5
EA6E4F537
330
EA6E4DC92
100
AcDbEntity
  8
1
 62
     7
100
AcDbLine
 10
285.2269027886056
 20
277.2307323100055
 30
0.0
 11
321.2269027886059
 21
277.2307323100055
 31
0.0
  0
LINE
  5
EA6E4F538
330
EA6E4DC92
100
AcDbEntity
  8
1
 62
     7
100
AcDbLine
 10
285.2269027886056
 20
302.2307323100058
 30
0.0
 11
285.2269027886056
 21
277.2307323100055
 31
0.0
  0
LINE
  5
EA6E4F539
330
EA6E4DC92
100
AcDbEntity
  8
1
 62
     7
100
AcDbLine
 10
321.2269027886059
 20
277.2307323100055
 30
0.0
 11
321.2269027886061
 21
302.2307323100059
 31
0.0
  0
LINE
  5
EA6E4F53A
330
EA6E4DC92
100
AcDbEntity
  8
JISSEN
100
AcDbLine
 10
311.7269027886056
 20
312.5863947427084
 30
0.0
 11
311.7269027886056
 21
292.3750698773034
 31
0.0
  0
LINE
  5
EA6E4F53B
330
EA6E4DC92
100
AcDbEntity
  8
JISSEN
100
AcDbLine
 10
294.7269027886054
 20
312.5863947427084
 30
0.0
 11
294.7269027886056
 21
292.375069877304
 31
0.0
  0
ARC
  5
EA6E4F53C
330
EA6E4DC92
100
AcDbEntity
  8
JISSEN
100
AcDbCircle
 10
303.2269027886056
 20
302.2307323100059
 30
0.0
 40
8.0
100
AcDbArc
 50
299.1895169091068
 51
240.8104830908931
  0
CIRCLE
  5
EA6E4F53D
330
EA6E4DC92
100
AcDbEntity
  8
JISSEN
100
AcDbCircle
 10
303.2269027886056
 20
302.2307323100059
 30
0.0
 40
5.0
  0
ARC
  5
EA6E4F53E
330
EA6E4DC92
100
AcDbEntity
  8
JISSEN
100
AcDbCircle
 10
303.2269027886056
 20
302.2307323100059
 30
0.0
 40
6.0
100
AcDbArc
 50
324.2495596439055
 51
215.7504403560944
  0
LINE
  5
EA6E4F53F
330
EA6E4DC92
100
AcDbEntity
  8
JISSEN
100
AcDbLine
 10
303.2269027886056
 20
298.7307323100059
 30
0.0
 11
304.7269027886057
 21
300.2307323100059
 31
0.0
  0
LINE
  5
EA6E4F540
330
EA6E4DC92
100
AcDbEntity
  8
JISSEN
100
AcDbLine
 10
303.2269027886056
 20
298.7307323100059
 30
0.0
 11
301.7269027886056
 21
300.2307323100059
 31
0.0
  0
ARC
  5
EA6E4F541
330
EA6E4DC92
100
AcDbEntity
  8
JISSEN
100
AcDbCircle
 10
141.7058196140717
 20
302.2307323100059
 30
0.0
 40
30.0
100
AcDbArc
 50
0.0
 51
8.77428964784787
  0
ARC
  5
EA6E4F542
330
EA6E4DC92
100
AcDbEntity
  8
JISSEN
100
AcDbCircle
 10
170.8605790882984
 20
306.7307323100059
 30
0.0
 40
0.5
100
AcDbArc
 50
8.77428964784787
 51
90.0
  0
ARC
  5
EA6E4F543
330
EA6E4DC92
100
AcDbEntity
  8
JISSEN
100
AcDbCircle
 10
170.8605790882984
 20
297.7307323100059
 30
0.0
 40
0.5
100
AcDbArc
 50
270.0
 51
351.225710352152
  0
ARC
  5
EA6E4F544
330
EA6E4DC92
100
AcDbEntity
  8
JISSEN
100
AcDbCircle
 10
141.7058196140717
 20
302.2307323100059
 30
0.0
 40
30.0
100
AcDbArc
 50
351.225710352152
 51
0.0
  0
LINE
  5
EA6E4F545
330
EA6E4DC92
100
AcDbEntity
  8
SAISEN
100
AcDbLine
 10
316.6619145581305
 20
256.6351089348004
 30
0.0
 11
315.3083880827234
 21
254.2907323100055
 31
0.0
  0
LINE
  5
EA6E4F546
330
EA6E4DC92
100
AcDbEntity
  8
SAISEN
100
AcDbLine
 10
315.3083880827234
 20
254.2907323100055
 30
0.0
 11
315.1521380827237
 21
249.2907323100056
 31
0.0
  0
LINE
  5
EA6E4F547
330
EA6E4DC92
100
AcDbEntity
  8
JISSEN
100
AcDbLine
 10
318.2269027886066
 20
249.2907323100045
 30
0.0
 11
319.7269027886065
 21
248.4247069062199
 31
0.0
  0
LINE
  5
EA6E4F548
330
EA6E4DC92
100
AcDbEntity
  8
1
 62
     7
100
AcDbLine
 10
316.4324027886057
 20
249.2907323100056
 30
0.0
 11
316.6970902886057
 21
257.7607323100055
 31
0.0
  0
LINE
  5
EA6E4F549
330
EA6E4DC92
100
AcDbEntity
  8
JISSEN
100
AcDbLine
 10
318.2269027886066
 20
249.290732310005
 30
0.0
 11
319.7269027886065
 21
248.4247069062204
 31
0.0
  0
ARC
  5
EA6E4F54A
330
EA6E4DC92
100
AcDbEntity
  8
JISSEN
100
AcDbCircle
 10
317.5545769652765
 20
244.6266578618581
 30
0.0
 40
4.375405812731608
100
AcDbArc
 50
60.23224209098206
 51
119.7677579090179
  0
LINE
  5
EA6E4F54B
330
EA6E4DC92
100
AcDbEntity
  8
JISSEN
100
AcDbLine
 10
315.3822511419464
 20
248.4247069062204
 30
0.0
 11
314.3847478497712
 21
248.4247069062204
 31
0.0
  0
LINE
  5
EA6E4F54C
330
EA6E4DC92
100
AcDbEntity
  8
JISSEN
100
AcDbLine
 10
306.7269027886065
 20
245.2907323100045
 30
0.0
 11
306.0269027886068
 21
244.5907323100047
 31
0.0
  0
ARC
  5
EA6E4F54D
330
EA6E4DC92
100
AcDbEntity
  8
JISSEN
100
AcDbCircle
 10
307.2269027886063
 20
245.7907323100042
 30
0.0
 40
2.0
100
AcDbArc
 50
0.0
 51
90.0
  0
LINE
  5
EA6E4F54E
330
EA6E4DC92
100
AcDbEntity
  8
1
 62
     7
100
AcDbLine
 10
289.2269027886054
 20
257.7607323100055
 30
0.0
 11
303.2269027886056
 21
257.7607323100055
 31
0.0
  0
LINE
  5
EA6E4F54F
330
EA6E4DC92
100
AcDbEntity
  8
JISSEN
100
AcDbLine
 10
288.2269027886065
 20
249.2907323100045
 30
0.0
 11
303.2269027886066
 21
249.2907323100045
 31
0.0
  0
LINE
  5
EA6E4F550
330
EA6E4DC92
100
AcDbEntity
  8
JISSEN
100
AcDbLine
 10
288.2269027886065
 20
249.2907323100045
 30
0.0
 11
286.7269027886066
 21
248.4247069062199
 31
0.0
  0
LINE
  5
EA6E4F551
330
EA6E4DC92
100
AcDbEntity
  8
SAISEN
100
AcDbLine
 10
291.3016674944881
 20
249.2907323100056
 30
0.0
 11
291.1454174944879
 21
254.2907323100055
 31
0.0
  0
LINE
  5
EA6E4F552
330
EA6E4DC92
100
AcDbEntity
  8
1
 62
     7
100
AcDbLine
 10
289.7567152886058
 20
257.7607323100055
 30
0.0
 11
290.0214027886058
 21
249.2907323100056
 31
0.0
  0
LINE
  5
EA6E4F553
330
EA6E4DC92
100
AcDbEntity
  8
SAISEN
100
AcDbLine
 10
291.1454174944879
 20
254.2907323100055
 30
0.0
 11
289.7918910190808
 21
256.6351089348004
 31
0.0
  0
LINE
  5
EA6E4F554
330
EA6E4DC92
100
AcDbEntity
  8
JISSEN
100
AcDbLine
 10
288.2269027886065
 20
249.290732310005
 30
0.0
 11
303.2269027886066
 21
249.290732310005
 31
0.0
  0
ARC
  5
EA6E4F555
330
EA6E4DC92
100
AcDbEntity
  8
JISSEN
100
AcDbCircle
 10
297.2953095869474
 20
225.0590166091295
 30
0.0
 40
23.94304056628008
100
AcDbArc
 50
77.39205672898835
 51
102.6079432710116
  0
LINE
  5
EA6E4F556
330
EA6E4DC92
100
AcDbEntity
  8
JISSEN
100
AcDbLine
 10
299.2269027886066
 20
247.7907323100045
 30
0.0
 11
303.2269027886066
 21
247.7907323100045
 31
0.0
  0
LINE
  5
EA6E4F557
330
EA6E4DC92
100
AcDbEntity
  8
JISSEN
100
AcDbLine
 10
299.7269027886066
 20
245.2907323100045
 30
0.0
 11
303.2269027886066
 21
245.2907323100045
 31
0.0
  0
LINE
  5
EA6E4F558
330
EA6E4DC92
100
AcDbEntity
  8
JISSEN
100
AcDbLine
 10
300.4269027886063
 20
244.5907323100047
 30
0.0
 11
303.2269027886066
 21
244.5907323100047
 31
0.0
  0
LINE
  5
EA6E4F559
330
EA6E4DC92
100
AcDbEntity
  8
JISSEN
100
AcDbLine
 10
299.7269027886066
 20
245.2907323100045
 30
0.0
 11
300.4269027886063
 21
244.5907323100047
 31
0.0
  0
LINE
  5
EA6E4F55A
330
EA6E4DC92
100
AcDbEntity
  8
JISSEN
100
AcDbLine
 10
291.0715544352663
 20
248.4247069062204
 30
0.0
 11
292.0690577274419
 21
248.4247069062204
 31
0.0
  0
ARC
  5
EA6E4F55B
330
EA6E4DC92
100
AcDbEntity
  8
JISSEN
100
AcDbCircle
 10
299.2269027886063
 20
245.7907323100042
 30
0.0
 40
2.0
100
AcDbArc
 50
90.0
 51
180.0
  0
LINE
  5
EA6E4F55C
330
EA6E4DC92
100
AcDbEntity
  8
JISSEN
100
AcDbLine
 10
288.2269027886065
 20
249.290732310005
 30
0.0
 11
286.7269027886066
 21
248.4247069062204
 31
0.0
  0
ARC
  5
EA6E4F55D
330
EA6E4DC92
100
AcDbEntity
  8
JISSEN
100
AcDbCircle
 10
288.8992286119362
 20
244.6266578618581
 30
0.0
 40
4.375405812731608
100
AcDbArc
 50
60.23224209098206
 51
119.7677579090179
  0
LINE
  5
EA6E4F55E
330
EA6E4DC92
100
AcDbEntity
  8
JISSEN
100
AcDbLine
 10
302.521561446453
 20
248.4247069062204
 30
0.0
 11
303.2269027886066
 21
248.4247069062204
 31
0.0
  0
LINE
  5
EA6E4F55F
330
EA6E4DC92
100
AcDbEntity
  8
JISSEN
100
AcDbLine
 10
302.521561446453
 20
248.4247069062204
 30
0.0
 11
302.521561446453
 21
247.7907323100045
 31
0.0
  0
LINE
  5
EA6E4F560
330
EA6E4DC92
100
AcDbEntity
  8
JISSEN
100
AcDbLine
 10
303.9322441307597
 20
248.4247069062204
 30
0.0
 11
303.9322441307597
 21
247.7907323100045
 31
0.0
  0
LINE
  5
EA6E4F561
330
EA6E4DC92
100
AcDbEntity
  8
JISSEN
100
AcDbLine
 10
303.9322441307597
 20
248.4247069062204
 30
0.0
 11
303.2269027886066
 21
248.4247069062204
 31
0.0
  0
LINE
  5
EA6E4F562
330
EA6E4DC92
100
AcDbEntity
  8
JISSEN
100
AcDbLine
 10
318.2269027886066
 20
249.2907323100045
 30
0.0
 11
303.2269027886066
 21
249.2907323100045
 31
0.0
  0
LINE
  5
EA6E4F563
330
EA6E4DC92
100
AcDbEntity
  8
SAISEN
100
AcDbLine
 10
289.8651527886059
 20
254.2907323100055
 30
0.0
 11
316.5886527886057
 21
254.2907323100055
 31
0.0
  0
LINE
  5
EA6E4F564
330
EA6E4DC92
100
AcDbEntity
  8
JISSEN
100
AcDbLine
 10
306.0269027886068
 20
244.5907323100047
 30
0.0
 11
303.2269027886066
 21
244.5907323100047
 31
0.0
  0
LINE
  5
EA6E4F565
330
EA6E4DC92
100
AcDbEntity
  8
JISSEN
100
AcDbLine
 10
306.7269027886065
 20
245.2907323100045
 30
0.0
 11
303.2269027886066
 21
245.2907323100045
 31
0.0
  0
LINE
  5
EA6E4F566
330
EA6E4DC92
100
AcDbEntity
  8
JISSEN
100
AcDbLine
 10
307.2269027886065
 20
247.7907323100045
 30
0.0
 11
303.2269027886066
 21
247.7907323100045
 31
0.0
  0
ARC
  5
EA6E4F567
330
EA6E4DC92
100
AcDbEntity
  8
JISSEN
100
AcDbCircle
 10
309.1584959902652
 20
225.0590166091295
 30
0.0
 40
23.94304056628008
100
AcDbArc
 50
77.39205672898835
 51
102.6079432710116
  0
LINE
  5
EA6E4F568
330
EA6E4DC92
100
AcDbEntity
  8
JISSEN
100
AcDbLine
 10
318.2269027886066
 20
249.290732310005
 30
0.0
 11
303.2269027886066
 21
249.290732310005
 31
0.0
  0
LINE
  5
EA6E4F569
330
EA6E4DC92
100
AcDbEntity
  8
1
 62
     7
100
AcDbLine
 10
317.226902788606
 20
257.7607323100052
 30
0.0
 11
303.2269027886058
 21
257.7607323100055
 31
0.0
  0
LINE
  5
EA6E4F56A
330
EA6E4DC92
100
AcDbEntity
  8
JISSEN
100
AcDbLine
 10
322.7269027886066
 20
236.2907323100047
 30
0.0
 11
309.2269027886065
 21
236.2907323100047
 31
0.0
  0
LINE
  5
EA6E4F56B
330
EA6E4DC92
100
AcDbEntity
  8
JISSEN
100
AcDbLine
 10
322.4769027886061
 20
229.7907323100043
 30
0.0
 11
309.2269027886065
 21
229.7907323100043
 31
0.0
  0
LINE
  5
EA6E4F56C
330
EA6E4DC92
100
AcDbEntity
  8
JISSEN
100
AcDbLine
 10
323.7269027886061
 20
233.2907323100045
 30
0.0
 11
309.2269027886065
 21
233.2907323100045
 31
0.0
  0
LINE
  5
EA6E4F56D
330
EA6E4DC92
100
AcDbEntity
  8
JISSEN
100
AcDbLine
 10
306.7269027886065
 20
227.2907323100043
 30
0.0
 11
306.0269027886068
 21
227.9907323100043
 31
0.0
  0
LINE
  5
EA6E4F56E
330
EA6E4DC92
100
AcDbEntity
  8
JISSEN
100
AcDbLine
 10
323.2269027886065
 20
228.8224864734526
 30
0.0
 11
323.2269027886065
 21
224.3105592278076
 31
0.0
  0
LINE
  5
EA6E4F56F
330
EA6E4DC92
100
AcDbEntity
  8
JISSEN
100
AcDbLine
 10
323.7269027886061
 20
233.2907323100045
 30
0.0
 11
323.7269027886061
 21
230.7589781465569
 31
0.0
  0
LINE
  5
EA6E4F570
330
EA6E4DC92
100
AcDbEntity
  8
JISSEN
100
AcDbLine
 10
323.7269027886061
 20
233.2907323100045
 30
0.0
 11
323.7269027886061
 21
235.2907323100045
 31
0.0
  0
ARC
  5
EA6E4F571
330
EA6E4DC92
100
AcDbEntity
  8
JISSEN
100
AcDbCircle
 10
321.7269027886065
 20
230.7589781465565
 30
0.0
 40
2.0
100
AcDbArc
 50
331.0449756281389
 51
0.0
  0
ARC
  5
EA6E4F572
330
EA6E4DC92
100
AcDbEntity
  8
JISSEN
100
AcDbCircle
 10
320.7269027886063
 20
237.2907323100046
 30
0.0
 40
1.0
100
AcDbArc
 50
180.0
 51
270.0
  0
ARC
  5
EA6E4F573
330
EA6E4DC92
100
AcDbEntity
  8
JISSEN
100
AcDbCircle
 10
325.2269027886063
 20
228.8224864734523
 30
0.0
 40
2.0
100
AcDbArc
 50
151.0449756281395
 51
180.0
  0
ARC
  5
EA6E4F574
330
EA6E4DC92
100
AcDbEntity
  8
JISSEN
100
AcDbCircle
 10
322.7269027886063
 20
235.2907323100042
 30
0.0
 40
1.0
100
AcDbArc
 50
0.0
 51
90.0
  0
LINE
  5
EA6E4F575
330
EA6E4DC92
100
AcDbEntity
  8
JISSEN
100
AcDbLine
 10
299.7269027886066
 20
227.2907323100043
 30
0.0
 11
303.2269027886066
 21
227.2907323100045
 31
0.0
  0
LINE
  5
EA6E4F576
330
EA6E4DC92
100
AcDbEntity
  8
JISSEN
100
AcDbLine
 10
300.4269027886063
 20
227.9907323100043
 30
0.0
 11
303.2269027886066
 21
227.9907323100043
 31
0.0
  0
LINE
  5
EA6E4F577
330
EA6E4DC92
100
AcDbEntity
  8
JISSEN
100
AcDbLine
 10
299.7269027886066
 20
227.2907323100043
 30
0.0
 11
300.4269027886063
 21
227.9907323100043
 31
0.0
  0
LINE
  5
EA6E4F578
330
EA6E4DC92
100
AcDbEntity
  8
JISSEN
100
AcDbLine
 10
306.0269027886068
 20
227.9907323100043
 30
0.0
 11
303.2269027886066
 21
227.9907323100043
 31
0.0
  0
LINE
  5
EA6E4F579
330
EA6E4DC92
100
AcDbEntity
  8
JISSEN
100
AcDbLine
 10
306.7269027886065
 20
227.2907323100043
 30
0.0
 11
303.2269027886066
 21
227.2907323100045
 31
0.0
  0
LINE
  5
EA6E4F57A
330
EA6E4DC92
100
AcDbEntity
  8
JISSEN
100
AcDbLine
 10
286.7269027886066
 20
248.4247069062204
 30
0.0
 11
286.7269027886066
 21
237.290732310005
 31
0.0
  0
LINE
  5
EA6E4F57B
330
EA6E4DC92
100
AcDbEntity
  8
JISSEN
100
AcDbLine
 10
299.7269027886066
 20
245.2907323100045
 30
0.0
 11
299.7269027886066
 21
227.2907323100043
 31
0.0
  0
LINE
  5
EA6E4F57C
330
EA6E4DC92
100
AcDbEntity
  8
JISSEN
100
AcDbLine
 10
300.4269027886063
 20
244.5907323100047
 30
0.0
 11
300.4269027886063
 21
227.9907323100043
 31
0.0
  0
LINE
  5
EA6E4F57D
330
EA6E4DC92
100
AcDbEntity
  8
JISSEN
100
AcDbLine
 10
297.2269027886066
 20
229.5735891670903
 30
0.0
 11
297.2269027886066
 21
245.7907323100045
 31
0.0
  0
LINE
  5
EA6E4F57E
330
EA6E4DC92
100
AcDbEntity
  8
JISSEN
100
AcDbLine
 10
292.0690577274424
 20
248.4247069062204
 30
0.0
 11
292.0690577274424
 21
237.290732310005
 31
0.0
  0
LINE
  5
EA6E4F57F
330
EA6E4DC92
100
AcDbEntity
  8
JISSEN
100
AcDbLine
 10
291.0715544352663
 20
248.4247069062204
 30
0.0
 11
291.0715544352663
 21
237.290732310005
 31
0.0
  0
LINE
  5
EA6E4F580
330
EA6E4DC92
100
AcDbEntity
  8
JISSEN
100
AcDbLine
 10
306.0269027886068
 20
244.5907323100047
 30
0.0
 11
306.0269027886068
 21
227.9907323100043
 31
0.0
  0
LINE
  5
EA6E4F581
330
EA6E4DC92
100
AcDbEntity
  8
JISSEN
100
AcDbLine
 10
306.7269027886065
 20
245.2907323100045
 30
0.0
 11
306.7269027886065
 21
227.2907323100043
 31
0.0
  0
LINE
  5
EA6E4F582
330
EA6E4DC92
100
AcDbEntity
  8
JISSEN
100
AcDbLine
 10
309.2269027886065
 20
229.5735891670903
 30
0.0
 11
309.2269027886065
 21
245.7907323100045
 31
0.0
  0
LINE
  5
EA6E4F583
330
EA6E4DC92
100
AcDbEntity
  8
JISSEN
100
AcDbLine
 10
314.3847478497707
 20
248.4247069062204
 30
0.0
 11
314.3847478497707
 21
237.290732310005
 31
0.0
  0
LINE
  5
EA6E4F584
330
EA6E4DC92
100
AcDbEntity
  8
JISSEN
100
AcDbLine
 10
315.3822511419464
 20
248.4247069062204
 30
0.0
 11
315.3822511419464
 21
237.290732310005
 31
0.0
  0
LINE
  5
EA6E4F585
330
EA6E4DC92
100
AcDbEntity
  8
JISSEN
100
AcDbLine
 10
319.7269027886065
 20
248.4247069062204
 30
0.0
 11
319.7269027886065
 21
237.290732310005
 31
0.0
  0
LINE
  5
EA6E4F586
330
EA6E4DC92
100
AcDbEntity
  8
JISSEN
 62
     0
100
AcDbLine
 10
283.2269027886061
 20
228.8224864734526
 30
0.0
 11
283.2269027886061
 21
224.3105592278076
 31
0.0
  0
ARC
  5
EA6E4F587
330
EA6E4DC92
100
AcDbEntity
  8
JISSEN
 62
     0
100
AcDbCircle
 10
281.2269027886061
 20
228.8224864734523
 30
0.0
 40
2.0
100
AcDbArc
 50
0.0
 51
28.95502437186047
  0
ARC
  5
EA6E4F588
330
EA6E4DC92
100
AcDbEntity
  8
JISSEN
 62
     0
100
AcDbCircle
 10
284.7269027886061
 20
230.7589781465565
 30
0.0
 40
2.0
100
AcDbArc
 50
180.0
 51
208.9550243718604
  0
LINE
  5
EA6E4F589
330
EA6E4DC92
100
AcDbEntity
  8
JISSEN
100
AcDbLine
 10
282.7269027886066
 20
233.2907323100045
 30
0.0
 11
282.7269027886066
 21
230.7589781465569
 31
0.0
  0
ARC
  5
EA6E4F58A
330
EA6E4DC92
100
AcDbEntity
  8
JISSEN
100
AcDbCircle
 10
283.7269027886063
 20
235.2907323100042
 30
0.0
 40
1.0
100
AcDbArc
 50
90.0
 51
180.0
  0
LINE
  5
EA6E4F58B
330
EA6E4DC92
100
AcDbEntity
  8
JISSEN
100
AcDbLine
 10
282.7269027886066
 20
233.2907323100045
 30
0.0
 11
282.7269027886066
 21
235.2907323100045
 31
0.0
  0
LINE
  5
EA6E4F58C
330
EA6E4DC92
100
AcDbEntity
  8
JISSEN
100
AcDbLine
 10
282.7269027886066
 20
233.2907323100045
 30
0.0
 11
297.2269027886066
 21
233.2907323100045
 31
0.0
  0
LINE
  5
EA6E4F58D
330
EA6E4DC92
100
AcDbEntity
  8
JISSEN
100
AcDbLine
 10
283.9769027886065
 20
229.7907323100043
 30
0.0
 11
297.2269027886066
 21
229.7907323100043
 31
0.0
  0
LINE
  5
EA6E4F58E
330
EA6E4DC92
100
AcDbEntity
  8
JISSEN
100
AcDbLine
 10
283.7269027886065
 20
236.2907323100047
 30
0.0
 11
297.2269027886066
 21
236.2907323100047
 31
0.0
  0
ARC
  5
EA6E4F58F
330
EA6E4DC92
100
AcDbEntity
  8
JISSEN
100
AcDbCircle
 10
285.7269027886063
 20
237.2907323100046
 30
0.0
 40
1.0
100
AcDbArc
 50
270.0
 51
0.0
  0
LINE
  5
EA6E4F590
330
EA6E4DC92
100
AcDbEntity
  8
JISSEN
100
AcDbLine
 10
320.8097533459219
 20
204.9950263040067
 30
0.0
 11
310.2912969685883
 21
204.9950263040067
 31
0.0
  0
LINE
  5
EA6E4F591
330
EA6E4DC92
100
AcDbEntity
  8
JISSEN
100
AcDbLine
 10
321.8519027886061
 20
223.2907323100045
 30
0.0
 11
312.1711746986054
 21
223.2907323100045
 31
0.0
  0
ARC
  5
EA6E4F592
330
EA6E4DC92
100
AcDbEntity
  8
NITEN
  6
PHANTOM
 48
0.5
100
AcDbCircle
 10
317.5097596456928
 20
201.2907323100044
 30
0.0
 40
8.0
100
AcDbArc
 50
90.0
 51
135.5729959991914
  0
ARC
  5
EA6E4F593
330
EA6E4DC92
100
AcDbEntity
  8
NITEN
  6
PHANTOM
 48
0.5
100
AcDbCircle
 10
317.5097596456928
 20
229.2907323100044
 30
0.0
 40
8.0
100
AcDbArc
 50
224.4270040008085
 51
270.0
  0
ARC
  5
EA6E4F594
330
EA6E4DC92
100
AcDbEntity
  8
JISSEN
100
AcDbCircle
 10
303.2269027886063
 20
215.2907323100042
 30
0.0
 40
10.2
100
AcDbArc
 50
354.3737290538862
 51
5.626270946113729
  0
LINE
  5
EA6E4F595
330
EA6E4DC92
100
AcDbEntity
  8
JISSEN
100
AcDbLine
 10
312.6741246024518
 20
216.2907323100045
 30
0.0
 11
313.3777648209663
 21
216.2907323100045
 31
0.0
  0
LINE
  5
EA6E4F596
330
EA6E4DC92
100
AcDbEntity
  8
JISSEN
100
AcDbLine
 10
312.6741246024518
 20
214.2907323100045
 30
0.0
 11
313.3777648209663
 21
214.2907323100045
 31
0.0
  0
ARC
  5
EA6E4F597
330
EA6E4DC92
100
AcDbEntity
  8
JISSEN
100
AcDbCircle
 10
303.2269027886063
 20
215.2907323100042
 30
0.0
 40
12.0
100
AcDbArc
 50
314.4270040008007
 51
0.0
  0
ARC
  5
EA6E4F598
330
EA6E4DC92
100
AcDbEntity
  8
JISSEN
100
AcDbCircle
 10
324.5769027886065
 20
222.1248099283684
 30
0.0
 40
2.0
100
AcDbArc
 50
146.8770597922547
 51
180.0
  0
LINE
  5
EA6E4F599
330
EA6E4DC92
100
AcDbEntity
  8
JISSEN
100
AcDbLine
 10
322.5769027886058
 20
222.1248099283688
 30
0.0
 11
322.5769027886058
 21
205.5309246888688
 31
0.0
  0
ARC
  5
EA6E4F59A
330
EA6E4DC92
100
AcDbEntity
  8
NITEN
  6
PHANTOM
 48
0.5
100
AcDbCircle
 10
288.9440459315212
 20
201.2907323100044
 30
0.0
 40
8.0
100
AcDbArc
 50
44.42700400080854
 51
90.0
  0
ARC
  5
EA6E4F59B
330
EA6E4DC92
100
AcDbEntity
  8
NITEN
  6
PHANTOM
 48
0.5
100
AcDbCircle
 10
288.9440459315212
 20
229.2907323100044
 30
0.0
 40
8.0
100
AcDbArc
 50
270.0
 51
315.5729959991914
  0
ARC
  5
EA6E4F59C
330
EA6E4DC92
100
AcDbEntity
  8
JISSEN
100
AcDbCircle
 10
303.2269027886063
 20
215.2907323100039
 30
0.0
 40
12.0
100
AcDbArc
 50
180.0
 51
225.5729959991993
  0
LINE
  5
EA6E4F59D
330
EA6E4DC92
100
AcDbEntity
  8
JISSEN
100
AcDbLine
 10
306.0269027886068
 20
185.9907323100046
 30
0.0
 11
306.0269027886068
 21
202.5907323100047
 31
0.0
  0
ARC
  5
EA6E4F59E
330
EA6E4DC92
100
AcDbEntity
  8
JISSEN
100
AcDbCircle
 10
318.01876457319
 20
189.9539659740851
 30
0.0
 40
2.631557816190298
100
AcDbArc
 50
32.95487445371041
 51
147.0451255463009
  0
LINE
  5
EA6E4F59F
330
EA6E4DC92
100
AcDbEntity
  8
JISSEN
100
AcDbLine
 10
319.4791860606362
 20
201.7907323100047
 30
0.0
 11
309.2652989840132
 21
201.7907323100047
 31
0.0
  0
LINE
  5
EA6E4F5A0
330
EA6E4DC92
100
AcDbEntity
  8
JISSEN
100
AcDbLine
 10
318.9494523249198
 20
197.7907323100047
 30
0.0
 11
309.2269027886065
 21
197.7907323100047
 31
0.0
  0
LINE
  5
EA6E4F5A1
330
EA6E4DC92
100
AcDbEntity
  8
JISSEN
100
AcDbLine
 10
315.810626357774
 20
191.3854764216793
 30
0.0
 11
314.6571215588135
 21
191.3854764216793
 31
0.0
  0
LINE
  5
EA6E4F5A2
330
EA6E4DC92
100
AcDbEntity
  8
JISSEN
100
AcDbLine
 10
306.7269027886065
 20
203.2907323100047
 30
0.0
 11
306.0269027886068
 21
202.5907323100047
 31
0.0
  0
ARC
  5
EA6E4F5A3
330
EA6E4DC92
100
AcDbEntity
  8
JISSEN
100
AcDbCircle
 10
309.3498377064481
 20
177.8018454768942
 30
0.0
 40
14.58363094478513
100
AcDbArc
 50
68.65882978189027
 51
90.48298914005698
  0
LINE
  5
EA6E4F5A4
330
EA6E4DC92
100
AcDbEntity
  8
JISSEN
100
AcDbLine
 10
317.9535131549325
 20
195.790732310005
 30
0.0
 11
309.2269027886065
 21
195.790732310005
 31
0.0
  0
LINE
  5
EA6E4F5A5
330
EA6E4DC92
100
AcDbEntity
  8
JISSEN
100
AcDbLine
 10
318.2792973601092
 20
193.290732310005
 30
0.0
 11
309.2269027886065
 21
193.290732310005
 31
0.0
  0
ARC
  5
EA6E4F5A6
330
EA6E4DC92
100
AcDbEntity
  8
JISSEN
100
AcDbCircle
 10
322.1269027886064
 20
194.0945798872979
 30
0.0
 40
3.0
100
AcDbArc
 50
180.0
 51
210.0000000000014
  0
LINE
  5
EA6E4F5A7
330
EA6E4DC92
100
AcDbEntity
  8
JISSEN
100
AcDbLine
 10
319.5288265772535
 20
192.5945798872982
 30
0.0
 11
320.2269027886066
 21
191.3854764216791
 31
0.0
  0
ARC
  5
EA6E4F5A8
330
EA6E4DC92
100
AcDbEntity
  8
JISSEN
100
AcDbCircle
 10
322.1269027886064
 20
194.9868847327066
 30
0.0
 40
3.0
100
AcDbArc
 50
149.9999999998336
 51
180.0
  0
LINE
  5
EA6E4F5A9
330
EA6E4DC92
100
AcDbEntity
  8
JISSEN
100
AcDbLine
 10
319.5288265772574
 20
196.4868847327144
 30
0.0
 11
320.3249789999556
 21
197.8658611793877
 31
0.0
  0
LINE
  5
EA6E4F5AA
330
EA6E4DC92
100
AcDbEntity
  8
JISSEN
100
AcDbLine
 10
319.1269027886066
 20
194.9868847327065
 30
0.0
 11
319.1269027886066
 21
194.0945798872978
 31
0.0
  0
LINE
  5
EA6E4F5AB
330
EA6E4DC92
100
AcDbEntity
  8
JISSEN
100
AcDbLine
 10
320.7269027886066
 20
201.2548339251422
 30
0.0
 11
320.7269027886066
 21
199.365861179395
 31
0.0
  0
LINE
  5
EA6E4F5AC
330
EA6E4DC92
100
AcDbEntity
  8
JISSEN
100
AcDbLine
 10
320.9948519810379
 20
202.2548339251422
 30
0.0
 11
322.3089535961751
 21
204.5309246888688
 31
0.0
  0
ARC
  5
EA6E4F5AD
330
EA6E4DC92
100
AcDbEntity
  8
JISSEN
100
AcDbCircle
 10
322.7269027886063
 20
201.2548339251419
 30
0.0
 40
2.0
100
AcDbArc
 50
149.9999999999985
 51
180.0
  0
ARC
  5
EA6E4F5AE
330
EA6E4DC92
100
AcDbEntity
  8
JISSEN
100
AcDbCircle
 10
317.7269027886063
 20
199.3658611793946
 30
0.0
 40
3.0
100
AcDbArc
 50
329.9999999998336
 51
0.0
  0
LINE
  5
EA6E4F5AF
330
EA6E4DC92
100
AcDbEntity
  8
JISSEN
100
AcDbLine
 10
300.4269027886063
 20
185.9907323100046
 30
0.0
 11
300.4269027886063
 21
202.5907323100047
 31
0.0
  0
LINE
  5
EA6E4F5B0
330
EA6E4DC92
100
AcDbEntity
  8
JISSEN
100
AcDbLine
 10
300.4269027886063
 20
185.9907323100046
 30
0.0
 11
303.2269027886066
 21
185.9907323100043
 31
0.0
  0
LINE
  5
EA6E4F5B1
330
EA6E4DC92
100
AcDbEntity
  8
JISSEN
100
AcDbLine
 10
300.4269027886063
 20
202.5907323100047
 30
0.0
 11
303.2269027886066
 21
202.5907323100047
 31
0.0
  0
LINE
  5
EA6E4F5B2
330
EA6E4DC92
100
AcDbEntity
  8
JISSEN
100
AcDbLine
 10
299.7269027886066
 20
203.2907323100047
 30
0.0
 11
303.2269027886066
 21
203.2907323100047
 31
0.0
  0
LINE
  5
EA6E4F5B3
330
EA6E4DC92
100
AcDbEntity
  8
JISSEN
100
AcDbLine
 10
290.6431792194396
 20
191.3854764216793
 30
0.0
 11
291.7966840183996
 21
191.3854764216793
 31
0.0
  0
ARC
  5
EA6E4F5B4
330
EA6E4DC92
100
AcDbEntity
  8
JISSEN
100
AcDbCircle
 10
297.103967870765
 20
177.8018454768931
 30
0.0
 40
14.58363094478624
100
AcDbArc
 50
89.51701085994301
 51
111.3411702181097
  0
LINE
  5
EA6E4F5B5
330
EA6E4DC92
100
AcDbEntity
  8
JISSEN
100
AcDbLine
 10
299.7269027886066
 20
203.2907323100047
 30
0.0
 11
300.4269027886063
 21
202.5907323100047
 31
0.0
  0
ARC
  5
EA6E4F5B6
330
EA6E4DC92
100
AcDbEntity
  8
JISSEN
100
AcDbCircle
 10
284.326902788606
 20
194.0945798872979
 30
0.0
 40
3.0
100
AcDbArc
 50
329.9999999999985
 51
359.9999999999869
  0
ARC
  5
EA6E4F5B7
330
EA6E4DC92
100
AcDbEntity
  8
JISSEN
100
AcDbCircle
 10
284.3269027886062
 20
194.9868847327066
 30
0.0
 40
3.0
100
AcDbArc
 50
359.9999999999869
 51
30.00000000016632
  0
LINE
  5
EA6E4F5B8
330
EA6E4DC92
100
AcDbEntity
  8
JISSEN
100
AcDbLine
 10
287.3269027886065
 20
194.9868847327065
 30
0.0
 11
287.3269027886062
 21
194.0945798872978
 31
0.0
  0
LINE
  5
EA6E4F5B9
330
EA6E4DC92
100
AcDbEntity
  8
JISSEN
100
AcDbLine
 10
288.5002924222803
 20
195.790732310005
 30
0.0
 11
297.2269027886066
 21
195.790732310005
 31
0.0
  0
LINE
  5
EA6E4F5BA
330
EA6E4DC92
100
AcDbEntity
  8
JISSEN
100
AcDbLine
 10
288.1745082171034
 20
193.290732310005
 30
0.0
 11
297.2269027886066
 21
193.290732310005
 31
0.0
  0
LINE
  5
EA6E4F5BB
330
EA6E4DC92
100
AcDbEntity
  8
JISSEN
100
AcDbLine
 10
286.9746195165764
 20
201.7907323100047
 30
0.0
 11
297.1885065931994
 21
201.7907323100047
 31
0.0
  0
LINE
  5
EA6E4F5BC
330
EA6E4DC92
100
AcDbEntity
  8
JISSEN
100
AcDbLine
 10
287.5043532522929
 20
197.7907323100047
 30
0.0
 11
297.2269027886066
 21
197.7907323100047
 31
0.0
  0
LINE
  5
EA6E4F5BD
330
EA6E4DC92
100
AcDbEntity
  8
JISSEN
100
AcDbLine
 10
306.0269027886068
 20
185.9907323100046
 30
0.0
 11
303.2269027886066
 21
185.9907323100043
 31
0.0
  0
LINE
  5
EA6E4F5BE
330
EA6E4DC92
100
AcDbEntity
  8
JISSEN
100
AcDbLine
 10
306.0269027886068
 20
202.5907323100047
 30
0.0
 11
303.2269027886066
 21
202.5907323100047
 31
0.0
  0
LINE
  5
EA6E4F5BF
330
EA6E4DC92
100
AcDbEntity
  8
JISSEN
100
AcDbLine
 10
306.7269027886065
 20
203.2907323100047
 30
0.0
 11
303.2269027886066
 21
203.2907323100047
 31
0.0
  0
ARC
  5
EA6E4F5C0
330
EA6E4DC92
100
AcDbEntity
  8
JISSEN
  6
PHANTOM
 48
0.5
100
AcDbCircle
 10
303.226902788607
 20
215.2907323100044
 30
0.0
 40
12.0
100
AcDbArc
 50
224.4270040008085
 51
270.0
  0
ARC
  5
EA6E4F5C1
330
EA6E4DC92
100
AcDbEntity
  8
JISSEN
  6
PHANTOM
 48
0.5
100
AcDbCircle
 10
303.226902788607
 20
215.2907323100044
 30
0.0
 40
12.0
100
AcDbArc
 50
270.0
 51
315.5729959991914
  0
ARC
  5
EA6E4F5C2
330
EA6E4DC92
100
AcDbEntity
  8
JISSEN
100
AcDbCircle
 10
317.2269027886063
 20
201.0078754529184
 30
0.0
 40
8.0
100
AcDbArc
 50
134.4270040008006
 51
180.0
  0
ARC
  5
EA6E4F5C3
330
EA6E4DC92
100
AcDbEntity
  8
JISSEN
100
AcDbCircle
 10
289.2269027886063
 20
201.0078754529184
 30
0.0
 40
8.0
100
AcDbArc
 50
0.0
 51
45.57299599919933
  0
ARC
  5
EA6E4F5C4
330
EA6E4DC92
100
AcDbEntity
  8
JISSEN
100
AcDbCircle
 10
320.5769027886065
 20
205.5309246888685
 30
0.0
 40
2.0
100
AcDbArc
 50
329.9999999999985
 51
0.0
  0
ARC
  5
EA6E4F5C5
330
EA6E4DC92
100
AcDbEntity
  8
JISSEN
 62
     0
100
AcDbCircle
 10
281.876902788606
 20
222.1248099283684
 30
0.0
 40
2.0
100
AcDbArc
 50
0.0
 51
33.12294020774521
  0
ARC
  5
EA6E4F5C6
330
EA6E4DC92
100
AcDbEntity
  8
NITEN
  6
PHANTOM
 48
0.5
100
AcDbCircle
 10
272.726902788607
 20
211.2907323100044
 30
0.0
 40
2.0
100
AcDbArc
 50
180.0
 51
270.0
  0
LINE
  5
EA6E4F5C7
330
EA6E4DC92
100
AcDbEntity
  8
NITEN
 62
     2
 48
0.5
100
AcDbLine
 10
270.7269027886066
 20
219.2907323100045
 30
0.0
 11
270.7269027886066
 21
215.2907323100045
 31
0.0
  0
LINE
  5
EA6E4F5C8
330
EA6E4DC92
100
AcDbEntity
  8
NITEN
  6
PHANTOM
 48
0.5
100
AcDbLine
 10
270.726902788607
 20
215.2907323100043
 30
0.0
 11
270.726902788607
 21
211.2907323100043
 31
0.0
  0
ARC
  5
EA6E4F5C9
330
EA6E4DC92
100
AcDbEntity
  8
NITEN
  6
PHANTOM
 48
0.5
100
AcDbCircle
 10
272.726902788607
 20
219.2907323100044
 30
0.0
 40
2.0
100
AcDbArc
 50
90.0
 51
180.0
  0
LINE
  5
EA6E4F5CA
330
EA6E4DC92
100
AcDbEntity
  8
JISSEN
100
AcDbLine
 10
283.8769027886066
 20
222.1248099283688
 30
0.0
 11
283.8769027886064
 21
205.5309246888688
 31
0.0
  0
LINE
  5
EA6E4F5CB
330
EA6E4DC92
100
AcDbEntity
  8
JISSEN
100
AcDbLine
 10
285.458953596175
 20
202.2548339251422
 30
0.0
 11
284.1448519810376
 21
204.5309246888688
 31
0.0
  0
LINE
  5
EA6E4F5CC
330
EA6E4DC92
100
AcDbEntity
  8
JISSEN
100
AcDbLine
 10
285.7269027886061
 20
201.2548339251422
 30
0.0
 11
285.7269027886063
 21
199.365861179395
 31
0.0
  0
ARC
  5
EA6E4F5CD
330
EA6E4DC92
100
AcDbEntity
  8
JISSEN
100
AcDbCircle
 10
283.7269027886061
 20
201.2548339251419
 30
0.0
 40
2.0
100
AcDbArc
 50
0.0
 51
30.00000000000148
  0
ARC
  5
EA6E4F5CE
330
EA6E4DC92
100
AcDbEntity
  8
JISSEN
100
AcDbCircle
 10
288.7269027886061
 20
199.3658611793946
 30
0.0
 40
3.0
100
AcDbArc
 50
180.0
 51
210.0000000001663
  0
ARC
  5
EA6E4F5CF
330
EA6E4DC92
100
AcDbEntity
  8
JISSEN
100
AcDbCircle
 10
285.8769027886062
 20
205.5309246888685
 30
0.0
 40
2.0
100
AcDbArc
 50
180.0
 51
210.0000000000014
  0
LINE
  5
EA6E4F5D0
330
EA6E4DC92
100
AcDbEntity
  8
NITEN
  6
PHANTOM
 48
0.5
100
AcDbLine
 10
288.9440459315208
 20
221.2907323100045
 30
0.0
 11
272.7269027886066
 21
221.2907323100045
 31
0.0
  0
LINE
  5
EA6E4F5D1
330
EA6E4DC92
100
AcDbEntity
  8
NITEN
  6
PHANTOM
 48
0.5
100
AcDbLine
 10
288.9440459315208
 20
209.2907323100045
 30
0.0
 11
272.7269027886066
 21
209.2907323100045
 31
0.0
  0
LINE
  5
EA6E4F5D2
330
EA6E4DC92
100
AcDbEntity
  8
JISSEN
100
AcDbLine
 10
286.9249789999591
 20
192.5945798872982
 30
0.0
 11
286.2269027886061
 21
191.3854764216791
 31
0.0
  0
LINE
  5
EA6E4F5D3
330
EA6E4DC92
100
AcDbEntity
  8
JISSEN
100
AcDbLine
 10
286.9249789999553
 20
196.4868847327144
 30
0.0
 11
286.1288265772571
 21
197.8658611793877
 31
0.0
  0
ARC
  5
EA6E4F5D4
330
EA6E4DC92
100
AcDbEntity
  8
JISSEN
100
AcDbCircle
 10
288.4350410040226
 20
189.9539659740849
 30
0.0
 40
2.631557816190607
100
AcDbArc
 50
32.9548744537109
 51
147.045125546289
  0
LINE
  5
EA6E4F5D5
330
EA6E4DC92
100
AcDbEntity
  8
JISSEN
100
AcDbLine
 10
285.6440522312909
 20
204.9950263040067
 30
0.0
 11
296.1625086086243
 21
204.9950263040065
 31
0.0
  0
LINE
  5
EA6E4F5D6
330
EA6E4DC92
100
AcDbEntity
  8
JISSEN
100
AcDbLine
 10
284.6019027886065
 20
223.2907323100045
 30
0.0
 11
294.2826308786072
 21
223.2907323100045
 31
0.0
  0
ARC
  5
EA6E4F5D7
330
EA6E4DC92
100
AcDbEntity
  8
JISSEN
  6
PHANTOM
 48
0.5
100
AcDbCircle
 10
303.226902788607
 20
215.2907323100044
 30
0.0
 40
12.0
100
AcDbArc
 50
90.0
 51
135.5729959991914
  0
ARC
  5
EA6E4F5D8
330
EA6E4DC92
100
AcDbEntity
  8
JISSEN
  6
PHANTOM
 48
0.5
100
AcDbCircle
 10
303.226902788607
 20
215.2907323100044
 30
0.0
 40
12.0
100
AcDbArc
 50
44.42700400080854
 51
90.0
  0
ARC
  5
EA6E4F5D9
330
EA6E4DC92
100
AcDbEntity
  8
JISSEN
100
AcDbCircle
 10
317.2269027886063
 20
229.57358916709
 30
0.0
 40
8.0
100
AcDbArc
 50
180.0
 51
225.5729959991993
  0
ARC
  5
EA6E4F5DA
330
EA6E4DC92
100
AcDbEntity
  8
JISSEN
100
AcDbCircle
 10
289.2269027886063
 20
229.57358916709
 30
0.0
 40
8.0
100
AcDbArc
 50
314.4270040008007
 51
0.0
  0
CIRCLE
  5
EA6E4F5DB
330
EA6E4DC92
100
AcDbEntity
  8
JISSEN
100
AcDbCircle
 10
303.2269027886063
 20
215.2907323100042
 30
0.0
 40
9.5
  0
ARC
  5
EA6E4F5DC
330
EA6E4DC92
100
AcDbEntity
  8
JISSEN
 62
     0
100
AcDbCircle
 10
285.2269027886063
 20
224.3105592278078
 30
0.0
 40
2.0
100
AcDbArc
 50
180.0
 51
213.1229402077452
  0
ARC
  5
EA6E4F5DD
330
EA6E4DC92
100
AcDbEntity
  8
JISSEN
100
AcDbCircle
 10
303.2269027886063
 20
215.2907323100042
 30
0.0
 40
12.0
100
AcDbArc
 50
134.4270040008006
 51
180.0
  0
ARC
  5
EA6E4F5DE
330
EA6E4DC92
100
AcDbEntity
  8
JISSEN
100
AcDbCircle
 10
303.2269027886063
 20
215.2907323100042
 30
0.0
 40
12.0
100
AcDbArc
 50
0.0
 51
45.57299599919933
  0
ARC
  5
EA6E4F5DF
330
EA6E4DC92
100
AcDbEntity
  8
JISSEN
100
AcDbCircle
 10
321.2269027886063
 20
224.3105592278078
 30
0.0
 40
2.0
100
AcDbArc
 50
326.8770597922547
 51
0.0
  0
LINE
  5
EA6E4F5E0
330
EA6E4DC92
100
AcDbEntity
  8
1
 62
     7
100
AcDbLine
 10
303.2269027886056
 20
257.7607323100055
 30
0.0
 11
303.2269027886056
 21
268.7607323100055
 31
0.0
  0
LINE
  5
EA6E4F5E1
330
EA6E4DC92
100
AcDbEntity
  8
JISSEN
100
AcDbLine
 10
289.2269027886056
 20
268.7607323100056
 30
0.0
 11
289.2269027886054
 21
257.7607323100055
 31
0.0
  0
LINE
  5
EA6E4F5E2
330
EA6E4DC92
100
AcDbEntity
  8
JISSEN
100
AcDbLine
 10
317.2269027886061
 20
268.7607323100053
 30
0.0
 11
317.226902788606
 21
257.7607323100052
 31
0.0
  0
LINE
  5
EA6E4F5E3
330
EA6E4DC92
100
AcDbEntity
  8
NITEN
  6
PHANTOM
 48
0.5
100
AcDbLine
 10
317.5097596456923
 20
209.2907323100045
 30
0.0
 11
333.726902788607
 21
209.2907323100045
 31
0.0
  0
LINE
  5
EA6E4F5E4
330
EA6E4DC92
100
AcDbEntity
  8
NITEN
  6
PHANTOM
 48
0.5
100
AcDbLine
 10
317.5097596456923
 20
221.2907323100045
 30
0.0
 11
333.726902788607
 21
221.2907323100045
 31
0.0
  0
LINE
  5
EA6E4F5E5
330
EA6E4DC92
100
AcDbEntity
  8
ITTEN
100
AcDbLine
 10
236.8463206049439
 20
215.2907323100044
 30
0.0
 11
337.9727004780384
 21
215.2907323100045
 31
0.0
  0
LINE
  5
EA6E4F5E6
330
EA6E4DC92
100
AcDbEntity
  8
ITTEN
100
AcDbLine
 10
293.2269027886056
 20
302.2307323100059
 30
0.0
 11
313.2269027886056
 21
302.2307323100059
 31
0.0
  0
LINE
  5
EA6E4F5E7
330
EA6E4DC92
100
AcDbEntity
  8
NITEN
100
AcDbLine
 10
289.6571576295007
 20
338.7207323100109
 30
0.0
 11
290.0162201295009
 21
327.2307323100058
 31
0.0
  0
LINE
  5
EA6E4F5E8
330
EA6E4DC92
100
AcDbEntity
  8
NITEN
100
AcDbLine
 10
316.4272201295007
 20
327.2307323100057
 30
0.0
 11
316.8217201295008
 21
339.8547323100054
 31
0.0
  0
LINE
  5
EA6E4F5E9
330
EA6E4DC92
100
AcDbEntity
  8
1
  6
DASHDOT
 62
     0
100
AcDbLine
 10
296.2269027886057
 20
330.7207323100056
 30
0.0
 11
296.2269027886057
 21
342.1839259227732
 31
0.0
  0
LINE
  5
EA6E4F5EA
330
EA6E4DC92
100
AcDbEntity
  8
1
  6
DASHDOT
 62
     0
100
AcDbLine
 10
310.2269027886056
 20
330.7207323100056
 30
0.0
 11
310.2269027886056
 21
342.1839259227732
 31
0.0
  0
ARC
  5
EA6E4F5EB
330
EA6E4DC92
100
AcDbEntity
  8
JISSEN
100
AcDbCircle
 10
142.8558196140925
 20
365.7207323100319
 30
0.0
 40
26.75571428569032
100
AcDbArc
 50
48.51839745856487
 51
53.48160254045655
  0
ARC
  5
EA6E4F5EC
330
EA6E4DC92
100
AcDbEntity
  8
JISSEN
100
AcDbCircle
 10
142.8558196140925
 20
365.7207323100319
 30
0.0
 40
26.75571428569047
100
AcDbArc
 50
48.51839745859958
 51
53.48160254048902
  0
LINE
  5
EA6E4F5ED
330
EA6E4DC92
100
AcDbEntity
  8
JISSEN
  6
CONTINUOUS
100
AcDbLine
 10
155.3808891175824
 20
380.3857045037206
 30
0.0
 11
154.128382167232
 21
378.9192072843496
 31
0.0
  0
ARC
  5
EA6E4F5EE
330
EA6E4DC92
100
AcDbEntity
  8
JISSEN
100
AcDbCircle
 10
160.740066848625
 20
385.9482803782697
 30
0.0
 40
0.2442857142865179
100
AcDbArc
 50
228.5183974585474
 51
317.999999995622
  0
ARC
  5
EA6E4F5EF
330
EA6E4DC92
100
AcDbEntity
  8
JISSEN
100
AcDbCircle
 10
160.7400668486118
 20
385.9482803782808
 30
0.0
 40
0.24428571428619
100
AcDbArc
 50
228.5183974586689
 51
317.9999999956807
  0
LINE
  5
EA6E4F5F0
330
EA6E4DC92
100
AcDbEntity
  8
JISSEN
  6
CONTINUOUS
100
AcDbLine
 10
158.4582902198744
 20
377.056590747075
 30
0.0
 11
156.8980431592947
 21
375.9230049033683
 31
0.0
  0
ARC
  5
EA6E4F5F1
330
EA6E4DC92
100
AcDbEntity
  8
JISSEN
100
AcDbCircle
 10
142.8558196140977
 20
365.7207323100273
 30
0.0
 40
26.75571428568967
100
AcDbArc
 50
36.518397458565
 51
41.48160254047087
  0
ARC
  5
EA6E4F5F2
330
EA6E4DC92
100
AcDbEntity
  8
JISSEN
100
AcDbCircle
 10
142.8558196140977
 20
365.7207323100273
 30
0.0
 40
26.75571428569053
100
AcDbArc
 50
36.51839745860785
 51
41.4816025404912
  0
LINE
  5
EA6E4F5F3
330
EA6E4DC92
100
AcDbEntity
  8
JISSEN
100
AcDbLine
 10
164.6992784622727
 20
381.5909341217963
 30
0.0
 11
164.6983843976377
 21
381.5902845458164
 31
0.0
  0
ARC
  5
EA6E4F5F4
330
EA6E4DC92
100
AcDbEntity
  8
JISSEN
100
AcDbCircle
 10
164.5547968574496
 20
381.7879158401672
 30
0.0
 40
0.2442857142865886
100
AcDbArc
 50
216.5183974584772
 51
305.9999999956958
  0
ARC
  5
EA6E4F5F5
330
EA6E4DC92
100
AcDbEntity
  8
JISSEN
100
AcDbCircle
 10
164.5547968574403
 20
381.7879158401806
 30
0.0
 40
0.2442857142859585
100
AcDbArc
 50
216.5183974586078
 51
305.9999999958729
  0
LINE
  5
EA6E4F5F6
330
EA6E4DC92
100
AcDbEntity
  8
JISSEN
100
AcDbLine
 10
162.9207299021761
 20
383.7872586814524
 30
0.0
 11
162.9199086345136
 21
383.7865192087284
 31
0.0
  0
ARC
  5
EA6E4F5F7
330
EA6E4DC92
100
AcDbEntity
  8
JISSEN
100
AcDbCircle
 10
163.0833676826375
 20
383.604979544217
 30
0.0
 40
0.2442857142867107
100
AcDbArc
 50
131.9999999995883
 51
221.4816025403923
  0
ARC
  5
EA6E4F5F8
330
EA6E4DC92
100
AcDbEntity
  8
JISSEN
100
AcDbCircle
 10
163.0833676826262
 20
383.6049795442297
 30
0.0
 40
0.24428571428583
100
AcDbArc
 50
131.9999999993077
 51
221.4816025404123
  0
ARC
  5
EA6E4F5F9
330
EA6E4DC92
100
AcDbEntity
  8
JISSEN
100
AcDbCircle
 10
142.8558196141013
 20
365.7207323100213
 30
0.0
 40
26.75571428569056
100
AcDbArc
 50
24.51839745881583
 51
29.48160254070179
  0
ARC
  5
EA6E4F5FA
330
EA6E4DC92
100
AcDbEntity
  8
JISSEN
100
AcDbCircle
 10
166.3596913074777
 20
379.008622113147
 30
0.0
 40
0.2442857142854957
100
AcDbArc
 50
119.9999999994884
 51
209.4816025405938
  0
ARC
  5
EA6E4F5FB
330
EA6E4DC92
100
AcDbEntity
  8
JISSEN
100
AcDbCircle
 10
167.4211774374462
 20
376.9253382830005
 30
0.0
 40
0.2442857142850136
100
AcDbArc
 50
204.5183974589018
 51
293.9999999962541
  0
ARC
  5
EA6E4F5FC
330
EA6E4DC92
100
AcDbEntity
  8
JISSEN
100
AcDbCircle
 10
142.8558196140868
 20
365.720732310036
 30
0.0
 40
26.75571428569027
100
AcDbArc
 50
60.51839745860434
 51
65.48160254050447
  0
ARC
  5
EA6E4F5FD
330
EA6E4DC92
100
AcDbEntity
  8
JISSEN
100
AcDbCircle
 10
154.0604255873613
 20
390.2860901332468
 30
0.0
 40
0.2442857142852193
100
AcDbArc
 50
155.9999999994558
 51
245.4816025405044
  0
ARC
  5
EA6E4F5FE
330
EA6E4DC92
100
AcDbEntity
  8
JISSEN
100
AcDbCircle
 10
156.143709417495
 20
389.2246040032524
 30
0.0
 40
0.2442857142856628
100
AcDbArc
 50
240.5183974585144
 51
329.999999995869
  0
ARC
  5
EA6E4F5FF
330
EA6E4DC92
100
AcDbEntity
  8
JISSEN
100
AcDbCircle
 10
158.9230031445993
 20
387.419709553113
 30
0.0
 40
0.244285714285785
100
AcDbArc
 50
143.9999999993227
 51
233.481602540408
  0
ARC
  5
EA6E4F600
330
EA6E4DC92
100
AcDbEntity
  8
JISSEN
100
AcDbCircle
 10
158.9230031445861
 20
387.4197095531228
 30
0.0
 40
0.244285714285785
100
AcDbArc
 50
143.9999999993227
 51
233.481602540489
  0
ARC
  5
EA6E4F601
330
EA6E4DC92
100
AcDbEntity
  8
JISSEN
100
AcDbCircle
 10
145.4350251138489
 20
392.5972592245915
 30
0.0
 40
0.2442857142864986
100
AcDbArc
 50
264.5183974584572
 51
353.999999995787
  0
LINE
  5
EA6E4F602
330
EA6E4DC92
100
AcDbEntity
  8
JISSEN
  6
CONTINUOUS
100
AcDbLine
 10
134.9758416543065
 20
381.1860598369902
 30
0.0
 11
134.1002885476664
 21
382.90442956221
 31
0.0
  0
LINE
  5
EA6E4F603
330
EA6E4DC92
100
AcDbEntity
  8
JISSEN
  6
CONTINUOUS
100
AcDbLine
 10
138.803875084287
 20
382.5982959283375
 30
0.0
 11
138.3536590254225
 21
384.4735807748181
 31
0.0
  0
LINE
  5
EA6E4F604
330
EA6E4DC92
100
AcDbEntity
  8
JISSEN
  6
CONTINUOUS
100
AcDbLine
 10
142.8558196140718
 20
383.0778751671492
 30
0.0
 11
142.8558196140718
 21
386.2921608814342
 31
0.0
  0
LINE
  5
EA6E4F605
330
EA6E4DC92
100
AcDbEntity
  8
JISSEN
  6
CONTINUOUS
100
AcDbLine
 10
142.7272481855004
 20
383.0773989701408
 30
0.0
 11
142.7272481855004
 21
386.2917590917961
 31
0.0
  0
LINE
  5
EA6E4F606
330
EA6E4DC92
100
AcDbEntity
  8
JISSEN
  6
CONTINUOUS
100
AcDbLine
 10
142.9843910426434
 20
383.0773989701408
 30
0.0
 11
142.9843910426434
 21
386.2917590917961
 31
0.0
  0
LINE
  5
EA6E4F607
330
EA6E4DC92
100
AcDbEntity
  8
JISSEN
  6
CONTINUOUS
100
AcDbLine
 10
142.6629624712147
 20
386.2912568437126
 30
0.0
 11
142.6629624712147
 21
383.0768037055071
 31
0.0
  0
LINE
  5
EA6E4F608
330
EA6E4DC92
100
AcDbEntity
  8
JISSEN
  6
CONTINUOUS
100
AcDbLine
 10
143.0486767569291
 20
383.0768037055071
 30
0.0
 11
143.0486767569291
 21
386.2912568437126
 31
0.0
  0
LINE
  5
EA6E4F609
330
EA6E4DC92
100
AcDbEntity
  8
JISSEN
  6
CONTINUOUS
100
AcDbLine
 10
142.855819614072
 20
389.8278751671487
 30
0.0
 11
142.855819614072
 21
389.1850180242915
 31
0.0
  0
LINE
  5
EA6E4F60A
330
EA6E4DC92
100
AcDbEntity
  8
JISSEN
100
AcDbLine
 10
140.0335511059599
 20
392.5728234849614
 30
0.0
 11
140.0336666229432
 21
392.5717244142855
 31
0.0
  0
LINE
  5
EA6E4F60B
330
EA6E4DC92
100
AcDbEntity
  8
JISSEN
100
AcDbLine
 10
137.2422039622938
 20
392.1307175298799
 30
0.0
 11
137.2424337306274
 21
392.1296365548597
 31
0.0
  0
LINE
  5
EA6E4F60C
330
EA6E4DC92
100
AcDbEntity
  8
JISSEN
100
AcDbLine
 10
137.2422039622938
 20
392.1307175298799
 30
0.0
 11
137.2424337306274
 21
392.1296365548597
 31
0.0
  0
LINE
  5
EA6E4F60D
330
EA6E4DC92
100
AcDbEntity
  8
JISSEN
100
AcDbLine
 10
140.0335511059599
 20
392.5728234849614
 30
0.0
 11
140.0336666229432
 21
392.5717244142855
 31
0.0
  0
ARC
  5
EA6E4F60E
330
EA6E4DC92
100
AcDbEntity
  8
JISSEN
100
AcDbCircle
 10
142.8558196140657
 20
365.720732310039
 30
0.0
 40
26.75571428569056
100
AcDbArc
 50
96.51839745860074
 51
101.4816025404934
  0
ARC
  5
EA6E4F60F
330
EA6E4DC92
100
AcDbEntity
  8
JISSEN
100
AcDbCircle
 10
142.8558196140657
 20
365.720732310039
 30
0.0
 40
26.75571428569056
100
AcDbArc
 50
96.51839745864009
 51
101.4816025405333
  0
ARC
  5
EA6E4F610
330
EA6E4DC92
100
AcDbEntity
  8
JISSEN
100
AcDbCircle
 10
143.1001053286647
 20
392.7196271853557
 30
0.0
 40
0.244285714285785
100
AcDbArc
 50
179.9999999993746
 51
269.4816025405629
  0
ARC
  5
EA6E4F611
330
EA6E4DC92
100
AcDbEntity
  8
JISSEN
100
AcDbCircle
 10
134.2803727479456
 20
391.322718776817
 30
0.0
 40
0.2442857142863121
100
AcDbArc
 50
288.5183974585612
 51
17.99999999586019
  0
ARC
  5
EA6E4F612
330
EA6E4DC92
100
AcDbEntity
  8
JISSEN
100
AcDbCircle
 10
134.2803727479297
 20
391.3227187768116
 30
0.0
 40
0.2442857142860679
100
AcDbArc
 50
288.5183974587261
 51
17.99999999585477
  0
ARC
  5
EA6E4F613
330
EA6E4DC92
100
AcDbEntity
  8
JISSEN
100
AcDbCircle
 10
139.7907191313584
 20
392.5461896039907
 30
0.0
 40
0.2442857142858943
100
AcDbArc
 50
276.5183974585876
 51
5.999999995809421
  0
ARC
  5
EA6E4F614
330
EA6E4DC92
100
AcDbEntity
  8
JISSEN
100
AcDbCircle
 10
137.4813812159504
 20
392.1804264107569
 30
0.0
 40
0.2442857142859071
100
AcDbArc
 50
191.9999999993506
 51
281.481602540387
  0
ARC
  5
EA6E4F615
330
EA6E4DC92
100
AcDbEntity
  8
JISSEN
100
AcDbCircle
 10
139.790719131342
 20
392.5461896039885
 30
0.0
 40
0.244285714285605
100
AcDbArc
 50
276.5183974585614
 51
5.999999996012914
  0
ARC
  5
EA6E4F616
330
EA6E4DC92
100
AcDbEntity
  8
JISSEN
100
AcDbCircle
 10
137.4813812159338
 20
392.1804264107538
 30
0.0
 40
0.2442857142864922
100
AcDbArc
 50
191.9999999993364
 51
281.4816025405598
  0
ARC
  5
EA6E4F617
330
EA6E4DC92
100
AcDbEntity
  8
JISSEN
100
AcDbCircle
 10
137.4813812159504
 20
392.1804264107569
 30
0.0
 40
0.2442857142859071
100
AcDbArc
 50
191.9999999993506
 51
281.481602540387
  0
ARC
  5
EA6E4F618
330
EA6E4DC92
100
AcDbEntity
  8
JISSEN
100
AcDbCircle
 10
137.4813812159338
 20
392.1804264107538
 30
0.0
 40
0.2442857142864922
100
AcDbArc
 50
191.9999999993364
 51
281.4816025405598
  0
ARC
  5
EA6E4F619
330
EA6E4DC92
100
AcDbEntity
  8
JISSEN
100
AcDbCircle
 10
142.8558196140732
 20
365.7207323100391
 30
0.0
 40
26.75571428569011
100
AcDbArc
 50
84.51839745860123
 51
89.48160254049776
  0
LINE
  5
EA6E4F61A
330
EA6E4DC92
100
AcDbEntity
  8
JISSEN
  6
CONTINUOUS
100
AcDbLine
 10
146.9077641438566
 20
382.5982959283375
 30
0.0
 11
147.3579802027213
 21
384.4735807748181
 31
0.0
  0
LINE
  5
EA6E4F61B
330
EA6E4DC92
100
AcDbEntity
  8
JISSEN
100
AcDbLine
 10
151.199278462305
 20
391.3992582499396
 30
0.0
 11
151.1989369600023
 21
391.3982072139264
 31
0.0
  0
LINE
  5
EA6E4F61C
330
EA6E4DC92
100
AcDbEntity
  8
JISSEN
100
AcDbLine
 10
148.4694352664507
 20
392.130717529752
 30
0.0
 11
148.4692054981178
 21
392.1296365547318
 31
0.0
  0
ARC
  5
EA6E4F61D
330
EA6E4DC92
100
AcDbEntity
  8
JISSEN
100
AcDbCircle
 10
142.8558196140802
 20
365.7207323100383
 30
0.0
 40
26.75571428569048
100
AcDbArc
 50
72.51839745860633
 51
77.481602540491
  0
ARC
  5
EA6E4F61E
330
EA6E4DC92
100
AcDbEntity
  8
JISSEN
100
AcDbCircle
 10
150.9666074395991
 20
391.4736956511402
 30
0.0
 40
0.24428571428601
100
AcDbArc
 50
252.518397458538
 51
341.9999999958385
  0
ARC
  5
EA6E4F61F
330
EA6E4DC92
100
AcDbEntity
  8
JISSEN
100
AcDbCircle
 10
148.7081529834388
 20
392.0788466988293
 30
0.0
 40
0.2442857142857336
100
AcDbArc
 50
167.9999999993597
 51
257.4816025405711
  0
LINE
  5
EA6E4F620
330
EA6E4DC92
100
AcDbEntity
  8
JISSEN
  6
CONTINUOUS
100
AcDbLine
 10
150.7357975738373
 20
381.1860598369902
 30
0.0
 11
151.6113506804777
 21
382.90442956221
 31
0.0
  0
LINE
  5
EA6E4F621
330
EA6E4DC92
100
AcDbEntity
  8
JISSEN
  6
CONTINUOUS
100
AcDbLine
 10
127.2533490082691
 20
377.056590747075
 30
0.0
 11
128.8135960688489
 21
375.9230049033683
 31
0.0
  0
ARC
  5
EA6E4F622
330
EA6E4DC92
100
AcDbEntity
  8
JISSEN
100
AcDbCircle
 10
142.855819614044
 20
365.7207323100239
 30
0.0
 40
26.75571428569048
100
AcDbArc
 50
144.5183974586446
 51
149.481602540532
  0
ARC
  5
EA6E4F623
330
EA6E4DC92
100
AcDbEntity
  8
JISSEN
100
AcDbCircle
 10
142.855819614044
 20
365.7207323100239
 30
0.0
 40
26.75571428569027
100
AcDbArc
 50
144.5183974586713
 51
149.4816025405587
  0
ARC
  5
EA6E4F624
330
EA6E4DC92
100
AcDbEntity
  8
JISSEN
100
AcDbCircle
 10
120.8696672904236
 20
381.3926532516734
 30
0.0
 40
0.2442857142861193
100
AcDbArc
 50
324.5183974585592
 51
53.99999999589843
  0
ARC
  5
EA6E4F625
330
EA6E4DC92
100
AcDbEntity
  8
JISSEN
100
AcDbCircle
 10
119.5962336352015
 20
379.4317373822861
 30
0.0
 40
0.2442857142855214
100
AcDbArc
 50
239.9999999994434
 51
329.4816025405566
  0
ARC
  5
EA6E4F626
330
EA6E4DC92
100
AcDbEntity
  8
JISSEN
100
AcDbCircle
 10
120.8696672904138
 20
381.3926532516596
 30
0.0
 40
0.2442857142862865
100
AcDbArc
 50
324.5183974587389
 51
53.99999999578578
  0
ARC
  5
EA6E4F627
330
EA6E4DC92
100
AcDbEntity
  8
JISSEN
100
AcDbCircle
 10
119.5962336351935
 20
379.4317373822716
 30
0.0
 40
0.2442857142858108
100
AcDbArc
 50
239.9999999993381
 51
329.481602540524
  0
LINE
  5
EA6E4F628
330
EA6E4DC92
100
AcDbEntity
  8
JISSEN
100
AcDbLine
 10
124.789293242456
 20
385.7856425979617
 30
0.0
 11
124.7900327151928
 21
385.784821330286
 31
0.0
  0
LINE
  5
EA6E4F629
330
EA6E4DC92
100
AcDbEntity
  8
JISSEN
100
AcDbLine
 10
122.7909093263785
 20
383.7872586819095
 30
0.0
 11
122.7917305940406
 21
383.7865192091854
 31
0.0
  0
ARC
  5
EA6E4F62A
330
EA6E4DC92
100
AcDbEntity
  8
JISSEN
100
AcDbCircle
 10
142.8558196140481
 20
365.7207323100295
 30
0.0
 40
26.75571428569071
100
AcDbArc
 50
132.5183974586333
 51
137.4816025405332
  0
ARC
  5
EA6E4F62B
330
EA6E4DC92
100
AcDbEntity
  8
JISSEN
100
AcDbCircle
 10
142.8558196140481
 20
365.7207323100295
 30
0.0
 40
26.75571428569072
100
AcDbArc
 50
132.5183974586686
 51
137.4816025405718
  0
ARC
  5
EA6E4F62C
330
EA6E4DC92
100
AcDbEntity
  8
JISSEN
100
AcDbCircle
 10
124.6084930506715
 20
385.6213622821741
 30
0.0
 40
0.24428571428583
100
AcDbArc
 50
312.5183974586331
 51
41.99999999585002
  0
ARC
  5
EA6E4F62D
330
EA6E4DC92
100
AcDbEntity
  8
JISSEN
100
AcDbCircle
 10
122.9551896421669
 20
383.9680588736933
 30
0.0
 40
0.2442857142857914
100
AcDbArc
 50
227.9999999994824
 51
317.4816025405332
  0
ARC
  5
EA6E4F62E
330
EA6E4DC92
100
AcDbEntity
  8
JISSEN
100
AcDbCircle
 10
124.6084930506594
 20
385.6213622821629
 30
0.0
 40
0.2442857142857336
100
AcDbArc
 50
312.5183974586153
 51
41.99999999596697
  0
ARC
  5
EA6E4F62F
330
EA6E4DC92
100
AcDbEntity
  8
JISSEN
100
AcDbCircle
 10
122.955189642156
 20
383.9680588736812
 30
0.0
 40
0.2442857142859393
100
AcDbArc
 50
227.9999999992894
 51
317.4816025405332
  0
ARC
  5
EA6E4F630
330
EA6E4DC92
100
AcDbEntity
  8
JISSEN
100
AcDbCircle
 10
118.0917418879764
 20
376.4790060737858
 30
0.0
 40
0.24428571428574
100
AcDbArc
 50
336.5183974586532
 51
65.99999999600246
  0
LINE
  5
EA6E4F631
330
EA6E4DC92
100
AcDbEntity
  8
JISSEN
  6
CONTINUOUS
100
AcDbLine
 10
130.3307501105614
 20
380.3857045037206
 30
0.0
 11
131.5832570609115
 21
378.9192072843496
 31
0.0
  0
ARC
  5
EA6E4F632
330
EA6E4DC92
100
AcDbEntity
  8
JISSEN
100
AcDbCircle
 10
142.8558196140534
 20
365.720732310034
 30
0.0
 40
26.75571428569079
100
AcDbArc
 50
120.5183974586359
 51
125.4816025405329
  0
ARC
  5
EA6E4F633
330
EA6E4DC92
100
AcDbEntity
  8
JISSEN
100
AcDbCircle
 10
127.1838986727225
 20
387.7068846338806
 30
0.0
 40
0.2442857142860036
100
AcDbArc
 50
215.9999999994592
 51
305.4816025404369
  0
ARC
  5
EA6E4F634
330
EA6E4DC92
100
AcDbEntity
  8
JISSEN
100
AcDbCircle
 10
129.1448145421277
 20
388.9803182890736
 30
0.0
 40
0.2442857142851229
100
AcDbArc
 50
300.5183974584545
 51
29.99999999597736
  0
ARC
  5
EA6E4F635
330
EA6E4DC92
100
AcDbEntity
  8
JISSEN
100
AcDbCircle
 10
132.0975458506497
 20
390.484810036257
 30
0.0
 40
0.2442857142857914
100
AcDbArc
 50
203.9999999993267
 51
293.4816025403619
  0
ARC
  5
EA6E4F636
330
EA6E4DC92
100
AcDbEntity
  8
JISSEN
100
AcDbCircle
 10
132.0975458506345
 20
390.4848100362502
 30
0.0
 40
0.2442857142858943
100
AcDbArc
 50
203.9999999993909
 51
293.4816025405465
  0
ARC
  5
EA6E4F637
330
EA6E4DC92
100
AcDbEntity
  8
JISSEN
100
AcDbCircle
 10
142.8558196140593
 20
365.7207323100373
 30
0.0
 40
26.75571428568977
100
AcDbArc
 50
108.5183974586024
 51
113.4816025404898
  0
ARC
  5
EA6E4F638
330
EA6E4DC92
100
AcDbEntity
  8
JISSEN
100
AcDbCircle
 10
142.8558196140593
 20
365.7207323100373
 30
0.0
 40
26.75571428569
100
AcDbArc
 50
108.5183974586436
 51
113.4816025405324
  0
ARC
  5
EA6E4F639
330
EA6E4DC92
100
AcDbEntity
  8
JISSEN
100
AcDbCircle
 10
142.8558196141054
 20
365.7207323100078
 30
0.0
 40
26.75571428568969
100
AcDbArc
 50
0.518397458818281
 51
5.48160254070514
  0
LINE
  5
EA6E4F63A
330
EA6E4DC92
100
AcDbEntity
  8
JISSEN
  6
CONTINUOUS
100
AcDbLine
 10
160.1594561924402
 20
364.3589065770151
 30
0.0
 11
162.082082478925
 21
364.207592606683
 31
0.0
  0
LINE
  5
EA6E4F63B
330
EA6E4DC92
100
AcDbEntity
  8
JISSEN
  6
CONTINUOUS
100
AcDbLine
 10
159.3634434326238
 20
360.3570801933548
 30
0.0
 11
161.1976238569068
 21
359.7611188470604
 31
0.0
  0
LINE
  5
EA6E4F63C
330
EA6E4DC92
100
AcDbEntity
  8
JISSEN
  6
CONTINUOUS
100
AcDbLine
 10
166.3201053283576
 20
365.7207323100058
 30
0.0
 11
166.9629624712147
 21
365.7207323100058
 31
0.0
  0
LINE
  5
EA6E4F63D
330
EA6E4DC92
100
AcDbEntity
  8
JISSEN
100
AcDbLine
 10
169.855819614072
 20
365.7207323099892
 30
0.0
 11
169.8547144894078
 21
365.7207323099892
 31
0.0
  0
ARC
  5
EA6E4F63E
330
EA6E4DC92
100
AcDbEntity
  8
JISSEN
100
AcDbCircle
 10
142.8558196141054
 20
365.7207323100009
 30
0.0
 40
26.75571428569009
100
AcDbArc
 50
348.5183974588148
 51
353.4816025407041
  0
ARC
  5
EA6E4F63F
330
EA6E4DC92
100
AcDbEntity
  8
JISSEN
100
AcDbCircle
 10
169.3155137147582
 20
360.3462939115663
 30
0.0
 40
0.2442857142856372
100
AcDbArc
 50
168.5183974588087
 51
257.9999999961214
  0
ARC
  5
EA6E4F640
330
EA6E4DC92
100
AcDbEntity
  8
JISSEN
100
AcDbCircle
 10
169.6812769080195
 20
362.6556318269698
 30
0.0
 40
0.2442857142855793
100
AcDbArc
 50
83.99999999980831
 51
173.4816025407041
  0
ARC
  5
EA6E4F641
330
EA6E4DC92
100
AcDbEntity
  8
JISSEN
100
AcDbCircle
 10
169.8547144894243
 20
365.9650180242749
 30
0.0
 40
0.24428571428664
100
AcDbArc
 50
180.5183974588052
 51
269.9999999960917
  0
ARC
  5
EA6E4F642
330
EA6E4DC92
100
AcDbEntity
  8
JISSEN
100
AcDbCircle
 10
168.4578060807743
 20
357.1452854435559
 30
0.0
 40
0.2442857142856178
100
AcDbArc
 50
71.99999999961072
 51
161.4816025406344
  0
ARC
  5
EA6E4F643
330
EA6E4DC92
100
AcDbEntity
  8
JISSEN
100
AcDbCircle
 10
168.45780608078
 20
357.1452854435718
 30
0.0
 40
0.2442857142856693
100
AcDbArc
 50
71.99999999961072
 51
161.4816025407064
  0
LINE
  5
EA6E4F644
330
EA6E4DC92
100
AcDbEntity
  8
JISSEN
  6
CONTINUOUS
100
AcDbLine
 10
159.9992672401165
 20
368.4359876674899
 30
0.0
 11
161.9040947541211
 21
368.7376827072103
 31
0.0
  0
LINE
  5
EA6E4F645
330
EA6E4DC92
100
AcDbEntity
  8
JISSEN
  6
CONTINUOUS
100
AcDbLine
 10
161.8613414257326
 20
373.5930772043733
 30
0.0
 11
158.8917286426613
 21
372.3630233146286
 31
0.0
  0
LINE
  5
EA6E4F646
330
EA6E4DC92
100
AcDbEntity
  8
JISSEN
  6
CONTINUOUS
100
AcDbLine
 10
161.8117680649197
 20
373.7117079574583
 30
0.0
 11
158.8420865384018
 21
372.4816255932458
 31
0.0
  0
LINE
  5
EA6E4F647
330
EA6E4DC92
100
AcDbEntity
  8
JISSEN
  6
CONTINUOUS
100
AcDbLine
 10
161.9101723760993
 20
373.4741389348126
 30
0.0
 11
158.9404908495814
 21
372.2440565706
 31
0.0
  0
LINE
  5
EA6E4F648
330
EA6E4DC92
100
AcDbEntity
  8
JISSEN
  6
CONTINUOUS
100
AcDbLine
 10
158.8169355077952
 20
372.5407900509941
 30
0.0
 11
161.7867029704002
 21
373.7709080110993
 31
0.0
  0
LINE
  5
EA6E4F649
330
EA6E4DC92
100
AcDbEntity
  8
JISSEN
  6
CONTINUOUS
100
AcDbLine
 10
161.9343094371699
 20
373.4145544771306
 30
0.0
 11
158.964541974565
 21
372.1844365170254
 31
0.0
  0
LINE
  5
EA6E4F64A
330
EA6E4DC92
100
AcDbEntity
  8
JISSEN
100
AcDbLine
 10
169.7079107890344
 20
368.5430008180244
 30
0.0
 11
169.7068117183776
 21
368.5428853010435
 31
0.0
  0
ARC
  5
EA6E4F64B
330
EA6E4DC92
100
AcDbEntity
  8
JISSEN
100
AcDbCircle
 10
169.7323465286883
 20
368.2999378094606
 30
0.0
 40
0.2442857142856885
100
AcDbArc
 50
95.99999999957603
 51
185.4816025407115
  0
ARC
  5
EA6E4F64C
330
EA6E4DC92
100
AcDbEntity
  8
JISSEN
100
AcDbCircle
 10
142.8558196141043
 20
365.7207323100148
 30
0.0
 40
26.75571428569019
100
AcDbArc
 50
12.51839745881512
 51
17.4816025407031
  0
ARC
  5
EA6E4F64D
330
EA6E4DC92
100
AcDbEntity
  8
JISSEN
100
AcDbCircle
 10
169.2139340029659
 20
371.5730656790571
 30
0.0
 40
0.2442857142864086
100
AcDbArc
 50
192.5183974587813
 51
281.9999999960339
  0
ARC
  5
EA6E4F64E
330
EA6E4DC92
100
AcDbEntity
  8
JISSEN
100
AcDbCircle
 10
168.6087829553039
 20
373.8315201352238
 30
0.0
 40
0.2442857142857207
100
AcDbArc
 50
107.9999999995947
 51
197.4816025406518
  0
LINE
  5
EA6E4F64F
330
EA6E4DC92
100
AcDbEntity
  8
JISSEN
100
AcDbLine
 10
150.81077090242
 20
372.3119776632089
 30
0.0
 11
144.886906164764
 21
366.6888167193419
 31
0.0
  0
LINE
  5
EA6E4F650
330
EA6E4DC92
100
AcDbEntity
  8
JISSEN
100
AcDbLine
 10
143.8239040234079
 20
367.7518188606976
 30
0.0
 11
149.4470649672753
 21
373.6756835983545
 31
0.0
  0
ARC
  5
EA6E4F651
330
EA6E4DC92
100
AcDbEntity
  8
JISSEN
100
AcDbCircle
 10
142.8558196140718
 20
365.7207323100058
 30
0.0
 40
2.250000000000019
100
AcDbArc
 50
64.5159551374841
 51
208.4675257332651
  0
ARC
  5
EA6E4F652
330
EA6E4DC92
100
AcDbEntity
  8
JISSEN
100
AcDbCircle
 10
142.8558196140718
 20
365.7207323100058
 30
0.0
 40
2.25
100
AcDbArc
 50
0.0
 51
25.48404486252726
  0
CIRCLE
  5
EA6E4F653
330
EA6E4DC92
100
AcDbEntity
  8
JISSEN
100
AcDbCircle
 10
142.8558196140718
 20
365.7207323100058
 30
0.0
 40
0.4500000000000323
  0
ARC
  5
EA6E4F654
330
EA6E4DC92
100
AcDbEntity
  8
JISSEN
100
AcDbCircle
 10
142.8558196140718
 20
365.7207323100058
 30
0.0
 40
2.249999999999896
100
AcDbArc
 50
241.5324742667297
 51
0.0
  0
CIRCLE
  5
EA6E4F655
330
EA6E4DC92
100
AcDbEntity
  8
JISSEN
100
AcDbCircle
 10
142.8558196140718
 20
365.7207323100058
 30
0.0
 40
1.767857142857143
  0
LINE
  5
EA6E4F656
330
EA6E4DC92
100
AcDbEntity
  8
JISSEN
100
AcDbLine
 10
149.4470649672753
 20
372.3119776632089
 30
0.0
 11
149.4470649672753
 21
373.6756835983545
 31
0.0
  0
LINE
  5
EA6E4F657
330
EA6E4DC92
100
AcDbEntity
  8
JISSEN
100
AcDbLine
 10
149.4470649672753
 20
372.3119776632089
 30
0.0
 11
150.81077090242
 21
372.3119776632089
 31
0.0
  0
ARC
  5
EA6E4F658
330
EA6E4DC92
100
AcDbEntity
  8
JISSEN
100
AcDbCircle
 10
162.756449586021
 20
347.4734057463665
 30
0.0
 40
0.2442857142856436
100
AcDbArc
 50
47.99999999964031
 51
137.4816025408415
  0
ARC
  5
EA6E4F659
330
EA6E4DC92
100
AcDbEntity
  8
JISSEN
100
AcDbCircle
 10
142.8558196140954
 20
365.7207323099822
 30
0.0
 40
26.75571428568998
100
AcDbArc
 50
312.5183974587744
 51
317.4816025406684
  0
ARC
  5
EA6E4F65A
330
EA6E4DC92
100
AcDbEntity
  8
JISSEN
100
AcDbCircle
 10
161.1031461775201
 20
345.8201023378823
 30
0.0
 40
0.2442857142858429
100
AcDbArc
 50
132.5183974588629
 51
221.9999999959282
  0
LINE
  5
EA6E4F65B
330
EA6E4DC92
100
AcDbEntity
  8
JISSEN
100
AcDbLine
 10
153.8377089768962
 20
341.0550049535598
 30
0.0
 11
153.8372594822078
 21
341.0560145351596
 31
0.0
  0
LINE
  5
EA6E4F65C
330
EA6E4DC92
100
AcDbEntity
  8
JISSEN
100
AcDbLine
 10
153.8377089768962
 20
341.0550049535598
 30
0.0
 11
153.8372594822078
 21
341.0560145351596
 31
0.0
  0
ARC
  5
EA6E4F65D
330
EA6E4DC92
100
AcDbEntity
  8
JISSEN
100
AcDbCircle
 10
153.6140933775541
 20
340.9566545837814
 30
0.0
 40
0.2442857142859714
100
AcDbArc
 50
23.99999999951671
 51
113.4816025406034
  0
ARC
  5
EA6E4F65E
330
EA6E4DC92
100
AcDbEntity
  8
JISSEN
100
AcDbCircle
 10
153.6140933775693
 20
340.956654583788
 30
0.0
 40
0.2442857142860293
100
AcDbArc
 50
23.99999999945506
 51
113.4816025405892
  0
ARC
  5
EA6E4F65F
330
EA6E4DC92
100
AcDbEntity
  8
JISSEN
100
AcDbCircle
 10
153.6140933775541
 20
340.9566545837814
 30
0.0
 40
0.2442857142859714
100
AcDbArc
 50
23.99999999951671
 51
113.4816025406034
  0
ARC
  5
EA6E4F660
330
EA6E4DC92
100
AcDbEntity
  8
JISSEN
100
AcDbCircle
 10
153.6140933775693
 20
340.956654583788
 30
0.0
 40
0.2442857142860293
100
AcDbArc
 50
23.99999999945506
 51
113.4816025405892
  0
ARC
  5
EA6E4F661
330
EA6E4DC92
100
AcDbEntity
  8
JISSEN
100
AcDbCircle
 10
142.8558196140904
 20
365.7207323099779
 30
0.0
 40
26.75571428568986
100
AcDbArc
 50
300.5183974587418
 51
305.4816025406289
  0
ARC
  5
EA6E4F662
330
EA6E4DC92
100
AcDbEntity
  8
JISSEN
100
AcDbCircle
 10
142.8558196140904
 20
365.7207323099779
 30
0.0
 40
26.75571428569008
100
AcDbArc
 50
300.518397458772
 51
305.4816025406769
  0
ARC
  5
EA6E4F663
330
EA6E4DC92
100
AcDbEntity
  8
JISSEN
100
AcDbCircle
 10
156.566824686058
 20
342.4611463309626
 30
0.0
 40
0.244285714286235
100
AcDbArc
 50
120.5183974586662
 51
209.9999999960024
  0
ARC
  5
EA6E4F664
330
EA6E4DC92
100
AcDbEntity
  8
JISSEN
100
AcDbCircle
 10
156.5668246860725
 20
342.4611463309711
 30
0.0
 40
0.2442857142861964
100
AcDbArc
 50
120.5183974588326
 51
209.9999999959298
  0
ARC
  5
EA6E4F665
330
EA6E4DC92
100
AcDbEntity
  8
JISSEN
100
AcDbCircle
 10
158.5277405554611
 20
343.7345799861596
 30
0.0
 40
0.2442857142859264
100
AcDbArc
 50
35.99999999943622
 51
125.4816025405329
  0
ARC
  5
EA6E4F666
330
EA6E4DC92
100
AcDbEntity
  8
JISSEN
100
AcDbCircle
 10
158.5277405554743
 20
343.7345799861691
 30
0.0
 40
0.2442857142863572
100
AcDbArc
 50
35.99999999945923
 51
125.481602540469
  0
LINE
  5
EA6E4F667
330
EA6E4DC92
100
AcDbEntity
  8
JISSEN
  6
CONTINUOUS
100
AcDbLine
 10
157.5393655052628
 20
351.3099276058436
 30
0.0
 11
155.2664696660649
 21
353.5828234450419
 31
0.0
  0
LINE
  5
EA6E4F668
330
EA6E4DC92
100
AcDbEntity
  8
JISSEN
  6
CONTINUOUS
100
AcDbLine
 10
155.3577201172086
 20
353.6734004519177
 30
0.0
 11
157.6305633424503
 21
351.4005572266758
 31
0.0
  0
LINE
  5
EA6E4F669
330
EA6E4DC92
100
AcDbEntity
  8
JISSEN
  6
CONTINUOUS
100
AcDbLine
 10
157.7211929632826
 20
351.491755063863
 30
0.0
 11
155.4482971240843
 21
353.7646509030613
 31
0.0
  0
LINE
  5
EA6E4F66A
330
EA6E4DC92
100
AcDbEntity
  8
JISSEN
  6
CONTINUOUS
100
AcDbLine
 10
155.2197500372576
 20
353.5386293448394
 30
0.0
 11
157.4926458764559
 21
351.2657335056412
 31
0.0
  0
LINE
  5
EA6E4F66B
330
EA6E4DC92
100
AcDbEntity
  8
JISSEN
  6
CONTINUOUS
100
AcDbLine
 10
157.7611247747263
 20
351.5427369814286
 30
0.0
 11
155.4874392832259
 21
353.816422472929
 31
0.0
  0
ARC
  5
EA6E4F66C
330
EA6E4DC92
100
AcDbEntity
  8
JISSEN
100
AcDbCircle
 10
142.8558196141002
 20
365.7207323099878
 30
0.0
 40
26.75571428569025
100
AcDbArc
 50
324.5183974587834
 51
329.4816025406611
  0
ARC
  5
EA6E4F66D
330
EA6E4DC92
100
AcDbEntity
  8
JISSEN
100
AcDbCircle
 10
142.8558196141002
 20
365.7207323099878
 30
0.0
 40
26.7557142856903
100
AcDbArc
 50
324.5183974588066
 51
329.4816025407106
  0
LINE
  5
EA6E4F66E
330
EA6E4DC92
100
AcDbEntity
  8
JISSEN
100
AcDbLine
 10
164.6992784621756
 20
349.850530498082
 30
0.0
 11
164.6983843975403
 21
349.8511800740618
 31
0.0
  0
ARC
  5
EA6E4F66F
330
EA6E4DC92
100
AcDbEntity
  8
JISSEN
100
AcDbCircle
 10
164.8419719377584
 20
350.048811368392
 30
0.0
 40
0.2442857142861836
100
AcDbArc
 50
144.5183974588284
 51
233.9999999958181
  0
ARC
  5
EA6E4F670
330
EA6E4DC92
100
AcDbEntity
  8
JISSEN
100
AcDbCircle
 10
164.8419719377679
 20
350.0488113684056
 30
0.0
 40
0.2442857142860743
100
AcDbArc
 50
144.5183974588688
 51
233.9999999961239
  0
LINE
  5
EA6E4F671
330
EA6E4DC92
100
AcDbEntity
  8
JISSEN
100
AcDbLine
 10
166.2385055161357
 20
352.2207323098119
 30
0.0
 11
166.2375484501192
 21
352.2212848721346
 31
0.0
  0
ARC
  5
EA6E4F672
330
EA6E4DC92
100
AcDbEntity
  8
JISSEN
100
AcDbCircle
 10
166.1154055929746
 20
352.0097272377824
 30
0.0
 40
0.2442857142858429
100
AcDbArc
 50
59.99999999953367
 51
149.4816025406605
  0
ARC
  5
EA6E4F673
330
EA6E4DC92
100
AcDbEntity
  8
JISSEN
100
AcDbCircle
 10
167.6198973401865
 20
354.9624585462708
 30
0.0
 40
0.2442857142862222
100
AcDbArc
 50
156.5183974587436
 51
245.9999999959739
  0
ARC
  5
EA6E4F674
330
EA6E4DC92
100
AcDbEntity
  8
JISSEN
100
AcDbCircle
 10
167.6198973401935
 20
354.9624585462861
 30
0.0
 40
0.2442857142860421
100
AcDbArc
 50
156.5183974588439
 51
245.9999999959881
  0
ARC
  5
EA6E4F675
330
EA6E4DC92
100
AcDbEntity
  8
JISSEN
100
AcDbCircle
 10
166.1154055929832
 20
352.0097272377967
 30
0.0
 40
0.2442857142854893
100
AcDbArc
 50
59.999999999639
 51
149.481602540678
  0
ARC
  5
EA6E4F676
330
EA6E4DC92
100
AcDbEntity
  8
JISSEN
100
AcDbCircle
 10
145.9209200968512
 20
338.8952750160286
 30
0.0
 40
0.2442857142862672
100
AcDbArc
 50
96.51839745871875
 51
185.9999999959482
  0
ARC
  5
EA6E4F677
330
EA6E4DC92
100
AcDbEntity
  8
JISSEN
100
AcDbCircle
 10
142.8558196140636
 20
365.7207323099734
 30
0.0
 40
26.75571428569038
100
AcDbArc
 50
252.5183974587428
 51
257.4816025406378
  0
ARC
  5
EA6E4F678
330
EA6E4DC92
100
AcDbEntity
  8
JISSEN
100
AcDbCircle
 10
134.7450317886071
 20
339.9677689688522
 30
0.0
 40
0.2442857142855279
100
AcDbArc
 50
72.51839745868827
 51
161.9999999960499
  0
ARC
  5
EA6E4F679
330
EA6E4DC92
100
AcDbEntity
  8
JISSEN
100
AcDbCircle
 10
137.0034862447682
 20
339.3626179211678
 30
0.0
 40
0.2442857142860743
100
AcDbArc
 50
347.9999999996381
 51
77.48160254061109
  0
LINE
  5
EA6E4F67A
330
EA6E4DC92
100
AcDbEntity
  8
JISSEN
100
AcDbLine
 10
140.033551105796
 20
338.8686411350677
 30
0.0
 11
140.0336666227785
 21
338.8697402057434
 31
0.0
  0
LINE
  5
EA6E4F67B
330
EA6E4DC92
100
AcDbEntity
  8
JISSEN
100
AcDbLine
 10
142.8558196138301
 20
338.7207323100088
 30
0.0
 11
142.8558196138301
 21
338.721837434654
 31
0.0
  0
ARC
  5
EA6E4F67C
330
EA6E4DC92
100
AcDbEntity
  8
JISSEN
100
AcDbCircle
 10
142.8558196140704
 20
365.7207323099726
 30
0.0
 40
26.75571428569072
100
AcDbArc
 50
264.5183974587451
 51
269.481602540641
  0
ARC
  5
EA6E4F67D
330
EA6E4DC92
100
AcDbEntity
  8
JISSEN
100
AcDbCircle
 10
140.2766141143597
 20
338.844205395414
 30
0.0
 40
0.24428571428583
100
AcDbArc
 50
84.51839745865358
 51
173.999999996016
  0
ARC
  5
EA6E4F67E
330
EA6E4DC92
100
AcDbEntity
  8
JISSEN
100
AcDbCircle
 10
142.6115338995443
 20
338.7218374346561
 30
0.0
 40
0.2442857142856372
100
AcDbArc
 50
359.9999999995179
 51
89.48160254073226
  0
LINE
  5
EA6E4F67F
330
EA6E4DC92
100
AcDbEntity
  8
JISSEN
100
AcDbLine
 10
151.1992784621479
 20
340.0422063700212
 30
0.0
 11
151.1989369598454
 21
340.0432574060346
 31
0.0
  0
ARC
  5
EA6E4F680
330
EA6E4DC92
100
AcDbEntity
  8
JISSEN
100
AcDbCircle
 10
142.8558196140768
 20
365.7207323099733
 30
0.0
 40
26.75571428569044
100
AcDbArc
 50
276.5183974587449
 51
281.4816025406395
  0
ARC
  5
EA6E4F681
330
EA6E4DC92
100
AcDbEntity
  8
JISSEN
100
AcDbCircle
 10
148.2302580122579
 20
339.2610382092677
 30
0.0
 40
0.2442857142853222
100
AcDbArc
 50
11.99999999952968
 51
101.4816025406928
  0
ARC
  5
EA6E4F682
330
EA6E4DC92
100
AcDbEntity
  8
JISSEN
100
AcDbCircle
 10
151.4312664802603
 20
340.1187458432155
 30
0.0
 40
0.2442857142859457
100
AcDbArc
 50
108.5183974587261
 51
197.9999999959195
  0
ARC
  5
EA6E4F683
330
EA6E4DC92
100
AcDbEntity
  8
JISSEN
100
AcDbCircle
 10
151.4312664802755
 20
340.118745843221
 30
0.0
 40
0.2442857142858235
100
AcDbArc
 50
108.5183974587398
 51
197.9999999961025
  0
ARC
  5
EA6E4F684
330
EA6E4DC92
100
AcDbEntity
  8
JISSEN
100
AcDbCircle
 10
142.8558196140843
 20
365.7207323099746
 30
0.0
 40
26.75571428569059
100
AcDbArc
 50
288.5183974587398
 51
293.4816025406318
  0
ARC
  5
EA6E4F685
330
EA6E4DC92
100
AcDbEntity
  8
JISSEN
100
AcDbCircle
 10
142.8558196140843
 20
365.7207323099746
 30
0.0
 40
26.75571428569041
100
AcDbArc
 50
288.518397458781
 51
293.4816025406744
  0
ARC
  5
EA6E4F686
330
EA6E4DC92
100
AcDbEntity
  8
JISSEN
100
AcDbCircle
 10
142.8558196140718
 20
365.7207323100148
 30
0.0
 40
22.50000000000022
100
AcDbArc
 50
316.7945547137903
 51
345.7901873559703
  0
ARC
  5
EA6E4F687
330
EA6E4DC92
100
AcDbEntity
  8
JISSEN
100
AcDbCircle
 10
142.8558196140718
 20
365.7207323100148
 30
0.0
 40
23.54824121962738
100
AcDbArc
 50
317.7729865878974
 51
345.3401502765878
  0
LINE
  5
EA6E4F688
330
EA6E4DC92
100
AcDbEntity
  8
JISSEN
  6
CONTINUOUS
100
AcDbLine
 10
159.2995942123293
 20
355.6439742761982
 30
0.0
 11
157.6552167525042
 21
356.6516500795786
 31
0.0
  0
ARC
  5
EA6E4F689
330
EA6E4DC92
100
AcDbEntity
  8
JISSEN
100
AcDbCircle
 10
142.8558196141036
 20
365.7207323099941
 30
0.0
 40
26.75571428568967
100
AcDbArc
 50
336.5183974587838
 51
341.4816025406652
  0
ARC
  5
EA6E4F68A
330
EA6E4DC92
100
AcDbEntity
  8
JISSEN
100
AcDbCircle
 10
142.8558196141036
 20
365.7207323099941
 30
0.0
 40
26.75571428569016
100
AcDbArc
 50
336.5183974588166
 51
341.4816025407036
  0
LINE
  5
EA6E4F68B
330
EA6E4DC92
100
AcDbEntity
  8
JISSEN
  6
CONTINUOUS
100
AcDbLine
 10
118.7486767569291
 20
365.7207323100058
 30
0.0
 11
119.3915338997865
 21
365.7207323100058
 31
0.0
  0
LINE
  5
EA6E4F68C
330
EA6E4DC92
100
AcDbEntity
  8
JISSEN
100
AcDbLine
 10
116.4458343942417
 20
360.1071166580072
 30
0.0
 11
116.4469153692805
 21
360.1073464263448
 31
0.0
  0
LINE
  5
EA6E4F68D
330
EA6E4DC92
100
AcDbEntity
  8
JISSEN
100
AcDbLine
 10
116.4458343942417
 20
360.1071166580072
 30
0.0
 11
116.4469153692805
 21
360.1073464263448
 31
0.0
  0
ARC
  5
EA6E4F68E
330
EA6E4DC92
100
AcDbEntity
  8
JISSEN
100
AcDbCircle
 10
142.8558196140381
 20
365.7207323100041
 30
0.0
 40
26.75571428568983
100
AcDbArc
 50
180.5183974586749
 51
185.4816025405677
  0
ARC
  5
EA6E4F68F
330
EA6E4DC92
100
AcDbEntity
  8
JISSEN
100
AcDbCircle
 10
115.8569247387188
 20
365.4764465958024
 30
0.0
 40
0.2442857142864922
100
AcDbArc
 50
0.5183974586880213
 51
89.99999999594843
  0
ARC
  5
EA6E4F690
330
EA6E4DC92
100
AcDbEntity
  8
JISSEN
100
AcDbCircle
 10
115.9792926994482
 20
363.1415268106166
 30
0.0
 40
0.2442857142857014
100
AcDbArc
 50
275.9999999994712
 51
5.481602540574166
  0
ARC
  5
EA6E4F691
330
EA6E4DC92
100
AcDbEntity
  8
JISSEN
100
AcDbCircle
 10
116.4977052251633
 20
359.8683989410192
 30
0.0
 40
0.2442857142860872
100
AcDbArc
 50
12.51839745860113
 51
101.9999999958608
  0
ARC
  5
EA6E4F692
330
EA6E4DC92
100
AcDbEntity
  8
JISSEN
100
AcDbCircle
 10
116.4977052251667
 20
359.8683989410028
 30
0.0
 40
0.244285714286325
100
AcDbArc
 50
12.518397458695
 51
101.9999999960073
  0
LINE
  5
EA6E4F693
330
EA6E4DC92
100
AcDbEntity
  8
JISSEN
  6
CONTINUOUS
100
AcDbLine
 10
126.3481957955198
 20
360.3570801933548
 30
0.0
 11
124.5140153712368
 21
359.7611188470604
 31
0.0
  0
LINE
  5
EA6E4F694
330
EA6E4DC92
100
AcDbEntity
  8
JISSEN
  6
CONTINUOUS
100
AcDbLine
 10
125.5521830357033
 20
364.3589065770151
 30
0.0
 11
123.6295567492186
 21
364.207592606683
 31
0.0
  0
LINE
  5
EA6E4F695
330
EA6E4DC92
100
AcDbEntity
  8
JISSEN
100
AcDbLine
 10
117.1772936740196
 20
357.3772734621445
 30
0.0
 11
117.1783447100156
 21
357.377614964441
 31
0.0
  0
LINE
  5
EA6E4F696
330
EA6E4DC92
100
AcDbEntity
  8
JISSEN
100
AcDbLine
 10
117.1772936740196
 20
357.3772734621445
 30
0.0
 11
117.1783447100156
 21
357.377614964441
 31
0.0
  0
ARC
  5
EA6E4F697
330
EA6E4DC92
100
AcDbEntity
  8
JISSEN
100
AcDbCircle
 10
117.1028562728201
 20
357.6099444848512
 30
0.0
 40
0.2442857142861321
100
AcDbArc
 50
287.9999999995947
 51
17.48160254048485
  0
ARC
  5
EA6E4F698
330
EA6E4DC92
100
AcDbEntity
  8
JISSEN
100
AcDbCircle
 10
117.1028562728254
 20
357.6099444848352
 30
0.0
 40
0.2442857142859071
100
AcDbArc
 50
287.9999999994303
 51
17.48160254052625
  0
ARC
  5
EA6E4F699
330
EA6E4DC92
100
AcDbEntity
  8
JISSEN
100
AcDbCircle
 10
117.1028562728201
 20
357.6099444848512
 30
0.0
 40
0.2442857142861321
100
AcDbArc
 50
287.9999999995947
 51
17.48160254048485
  0
ARC
  5
EA6E4F69A
330
EA6E4DC92
100
AcDbEntity
  8
JISSEN
100
AcDbCircle
 10
117.1028562728254
 20
357.6099444848352
 30
0.0
 40
0.2442857142859071
100
AcDbArc
 50
287.9999999994303
 51
17.48160254052625
  0
ARC
  5
EA6E4F69B
330
EA6E4DC92
100
AcDbEntity
  8
JISSEN
100
AcDbCircle
 10
142.85581961404
 20
365.720732309997
 30
0.0
 40
26.75571428569095
100
AcDbArc
 50
192.5183974586746
 51
197.4816025405676
  0
ARC
  5
EA6E4F69C
330
EA6E4DC92
100
AcDbEntity
  8
JISSEN
100
AcDbCircle
 10
142.85581961404
 20
365.720732309997
 30
0.0
 40
26.75571428569055
100
AcDbArc
 50
192.5183974587039
 51
197.4816025406082
  0
ARC
  5
EA6E4F69D
330
EA6E4DC92
100
AcDbEntity
  8
JISSEN
100
AcDbCircle
 10
142.8558196140381
 20
365.7207323100108
 30
0.0
 40
26.75571428569018
100
AcDbArc
 50
168.5183974586759
 51
173.4816025405677
  0
LINE
  5
EA6E4F69E
330
EA6E4DC92
100
AcDbEntity
  8
JISSEN
100
AcDbLine
 10
116.0037284391598
 20
368.5430008185053
 30
0.0
 11
116.0048275098163
 21
368.5428853015244
 31
0.0
  0
ARC
  5
EA6E4F69F
330
EA6E4DC92
100
AcDbEntity
  8
JISSEN
100
AcDbCircle
 10
116.0303623201318
 20
368.785832793107
 30
0.0
 40
0.2442857142857914
100
AcDbArc
 50
263.9999999993236
 51
353.4816025405677
  0
LINE
  5
EA6E4F6A0
330
EA6E4DC92
100
AcDbEntity
  8
JISSEN
  6
CONTINUOUS
100
AcDbLine
 10
125.7123719880271
 20
368.4359876674899
 30
0.0
 11
123.8075444740227
 21
368.7376827072103
 31
0.0
  0
LINE
  5
EA6E4F6A1
330
EA6E4DC92
100
AcDbEntity
  8
JISSEN
100
AcDbLine
 10
116.445834394276
 20
371.334347962166
 30
0.0
 11
116.446915369315
 21
371.3341181938284
 31
0.0
  0
ARC
  5
EA6E4F6A2
330
EA6E4DC92
100
AcDbEntity
  8
JISSEN
100
AcDbCircle
 10
116.3961255133976
 20
371.0951707085099
 30
0.0
 40
0.2442857142863507
100
AcDbArc
 50
348.5183974586758
 51
77.99999999580172
  0
ARC
  5
EA6E4F6A3
330
EA6E4DC92
100
AcDbEntity
  8
JISSEN
100
AcDbCircle
 10
117.2538331473845
 20
374.296179176502
 30
0.0
 40
0.2442857142855471
100
AcDbArc
 50
251.9999999996107
 51
341.4816025405829
  0
LINE
  5
EA6E4F6A4
330
EA6E4DC92
100
AcDbEntity
  8
JISSEN
  6
CONTINUOUS
100
AcDbLine
 10
123.8014668520447
 20
373.4741389348126
 30
0.0
 11
126.7711483785622
 21
372.2440565706
 31
0.0
  0
LINE
  5
EA6E4F6A5
330
EA6E4DC92
100
AcDbEntity
  8
JISSEN
  6
CONTINUOUS
100
AcDbLine
 10
123.8998711632241
 20
373.7117079574583
 30
0.0
 11
126.8695526897418
 21
372.4816255932458
 31
0.0
  0
LINE
  5
EA6E4F6A6
330
EA6E4DC92
100
AcDbEntity
  8
JISSEN
  6
CONTINUOUS
100
AcDbLine
 10
123.8502978024112
 20
373.5930772043733
 30
0.0
 11
126.8199105854826
 21
372.3630233146286
 31
0.0
  0
LINE
  5
EA6E4F6A7
330
EA6E4DC92
100
AcDbEntity
  8
JISSEN
  6
CONTINUOUS
100
AcDbLine
 10
123.7773297909743
 20
373.4145544771306
 30
0.0
 11
126.7470972535788
 21
372.1844365170254
 31
0.0
  0
LINE
  5
EA6E4F6A8
330
EA6E4DC92
100
AcDbEntity
  8
JISSEN
  6
CONTINUOUS
100
AcDbLine
 10
126.8947037203483
 20
372.5407900509941
 30
0.0
 11
123.9249362577434
 21
373.7709080110993
 31
0.0
  0
ARC
  5
EA6E4F6A9
330
EA6E4DC92
100
AcDbEntity
  8
JISSEN
100
AcDbCircle
 10
142.8558196140459
 20
365.7207323099845
 30
0.0
 40
26.7557142856905
100
AcDbArc
 50
216.5183974587164
 51
221.4816025406083
  0
LINE
  5
EA6E4F6AA
330
EA6E4DC92
100
AcDbEntity
  8
JISSEN
100
AcDbLine
 10
126.9856178019674
 20
343.8772734620365
 30
0.0
 11
126.9862673779364
 21
343.8781675266554
 31
0.0
  0
ARC
  5
EA6E4F6AB
330
EA6E4DC92
100
AcDbEntity
  8
JISSEN
100
AcDbCircle
 10
126.7886360835971
 20
344.0217550668601
 30
0.0
 40
0.2442857142860293
100
AcDbArc
 50
323.9999999995433
 51
53.48160254053774
  0
ARC
  5
EA6E4F6AC
330
EA6E4DC92
100
AcDbEntity
  8
JISSEN
100
AcDbCircle
 10
126.7886360836105
 20
344.0217550668501
 30
0.0
 40
0.2442857142856307
100
AcDbArc
 50
323.999999999371
 51
53.48160254065121
  0
LINE
  5
EA6E4F6AD
330
EA6E4DC92
100
AcDbEntity
  8
JISSEN
100
AcDbLine
 10
124.789293242333
 20
345.6558220221604
 30
0.0
 11
124.79003271507
 21
345.6566432898364
 31
0.0
  0
ARC
  5
EA6E4F6AE
330
EA6E4DC92
100
AcDbEntity
  8
JISSEN
100
AcDbCircle
 10
124.9715723795677
 20
345.4931842416987
 30
0.0
 40
0.2442857142860808
100
AcDbArc
 50
48.51839745865188
 51
137.999999995895
  0
ARC
  5
EA6E4F6AF
330
EA6E4DC92
100
AcDbEntity
  8
JISSEN
100
AcDbCircle
 10
124.9715723795807
 20
345.4931842416876
 30
0.0
 40
0.2442857142857979
100
AcDbArc
 50
48.51839745882567
 51
137.9999999960508
  0
ARC
  5
EA6E4F6B0
330
EA6E4DC92
100
AcDbEntity
  8
JISSEN
100
AcDbCircle
 10
122.6282715455497
 20
347.8364850757452
 30
0.0
 40
0.2442857142855921
100
AcDbArc
 50
311.9999999995534
 51
41.48160254064828
  0
ARC
  5
EA6E4F6B1
330
EA6E4DC92
100
AcDbEntity
  8
JISSEN
100
AcDbCircle
 10
142.8558196140504
 20
365.7207323099796
 30
0.0
 40
26.75571428569037
100
AcDbArc
 50
228.5183974587039
 51
233.4816025406027
  0
ARC
  5
EA6E4F6B2
330
EA6E4DC92
100
AcDbEntity
  8
JISSEN
100
AcDbCircle
 10
142.8558196140504
 20
365.7207323099796
 30
0.0
 40
26.75571428569046
100
AcDbArc
 50
228.5183974587386
 51
233.4816025406349
  0
ARC
  5
EA6E4F6B3
330
EA6E4DC92
100
AcDbEntity
  8
JISSEN
100
AcDbCircle
 10
142.8558196140568
 20
365.720732309976
 30
0.0
 40
26.75571428569002
100
AcDbArc
 50
240.518397458709
 51
245.4816025406047
  0
ARC
  5
EA6E4F6B4
330
EA6E4DC92
100
AcDbEntity
  8
JISSEN
100
AcDbCircle
 10
142.8558196140568
 20
365.720732309976
 30
0.0
 40
26.7557142856902
100
AcDbArc
 50
240.5183974587389
 51
245.4816025406333
  0
ARC
  5
EA6E4F6B5
330
EA6E4DC92
100
AcDbEntity
  8
JISSEN
100
AcDbCircle
 10
129.5679298106913
 20
342.216860616735
 30
0.0
 40
0.2442857142862672
100
AcDbArc
 50
60.51839745875403
 51
149.9999999959722
  0
ARC
  5
EA6E4F6B6
330
EA6E4DC92
100
AcDbEntity
  8
JISSEN
100
AcDbCircle
 10
131.6512136408261
 20
341.1553744867447
 30
0.0
 40
0.2442857142860164
100
AcDbArc
 50
335.9999999994558
 51
65.48160254051878
  0
ARC
  5
EA6E4F6B7
330
EA6E4DC92
100
AcDbEntity
  8
JISSEN
100
AcDbCircle
 10
129.5679298107054
 20
342.2168606167266
 30
0.0
 40
0.2442857142863315
100
AcDbArc
 50
60.51839745876899
 51
149.9999999958412
  0
ARC
  5
EA6E4F6B8
330
EA6E4DC92
100
AcDbEntity
  8
JISSEN
100
AcDbCircle
 10
131.6512136408418
 20
341.1553744867379
 30
0.0
 40
0.2442857142857593
100
AcDbArc
 50
335.9999999995113
 51
65.48160254066196
  0
LINE
  5
EA6E4F6B9
330
EA6E4DC92
100
AcDbEntity
  8
JISSEN
  6
CONTINUOUS
100
AcDbLine
 10
127.990446264861
 20
351.491755063863
 30
0.0
 11
130.2633421040598
 21
353.7646509030613
 31
0.0
  0
LINE
  5
EA6E4F6BA
330
EA6E4DC92
100
AcDbEntity
  8
JISSEN
  6
CONTINUOUS
100
AcDbLine
 10
130.3539191109355
 20
353.6734004519177
 30
0.0
 11
128.0810758856935
 21
351.4005572266758
 31
0.0
  0
LINE
  5
EA6E4F6BB
330
EA6E4DC92
100
AcDbEntity
  8
JISSEN
  6
CONTINUOUS
100
AcDbLine
 10
128.1722737228808
 20
351.3099276058436
 30
0.0
 11
130.4451695620787
 21
353.5828234450419
 31
0.0
  0
LINE
  5
EA6E4F6BC
330
EA6E4DC92
100
AcDbEntity
  8
JISSEN
  6
CONTINUOUS
100
AcDbLine
 10
130.2241999449176
 20
353.816422472929
 30
0.0
 11
127.9505144534175
 21
351.5427369814289
 31
0.0
  0
LINE
  5
EA6E4F6BD
330
EA6E4DC92
100
AcDbEntity
  8
JISSEN
  6
CONTINUOUS
100
AcDbLine
 10
128.2189933516881
 20
351.2657335056412
 30
0.0
 11
130.4918891908864
 21
353.5386293448394
 31
0.0
  0
LINE
  5
EA6E4F6BE
330
EA6E4DC92
100
AcDbEntity
  8
JISSEN
100
AcDbLine
 10
128.1959808112574
 20
351.2881778297162
 30
0.0
 11
128.423265133782
 21
351.0608935071918
 31
0.0
  0
ARC
  5
EA6E4F6BF
330
EA6E4DC92
100
AcDbEntity
  8
JISSEN
100
AcDbCircle
 10
142.8558196140418
 20
365.7207323099903
 30
0.0
 40
26.75571428568967
100
AcDbArc
 50
204.5183974586701
 51
209.4816025405675
  0
ARC
  5
EA6E4F6C0
330
EA6E4DC92
100
AcDbEntity
  8
JISSEN
100
AcDbCircle
 10
142.8558196140418
 20
365.7207323099903
 30
0.0
 40
26.75571428569
100
AcDbArc
 50
204.5183974587126
 51
209.4816025405954
  0
ARC
  5
EA6E4F6C1
330
EA6E4DC92
100
AcDbEntity
  8
JISSEN
100
AcDbCircle
 10
121.1568423707324
 20
349.6535487797923
 30
0.0
 40
0.2442857142852515
100
AcDbArc
 50
36.51839745867444
 51
125.9999999959694
  0
ARC
  5
EA6E4F6C2
330
EA6E4DC92
100
AcDbEntity
  8
JISSEN
100
AcDbCircle
 10
119.3519479206331
 20
352.4328425069221
 30
0.0
 40
0.2442857142856693
100
AcDbArc
 50
299.9999999993381
 51
29.48160254058676
  0
ARC
  5
EA6E4F6C3
330
EA6E4DC92
100
AcDbEntity
  8
JISSEN
100
AcDbCircle
 10
119.3519479206406
 20
352.4328425069077
 30
0.0
 40
0.2442857142859714
100
AcDbArc
 50
299.9999999996239
 51
29.48160254050729
  0
ARC
  5
EA6E4F6C4
330
EA6E4DC92
100
AcDbEntity
  8
JISSEN
100
AcDbCircle
 10
118.2904617906683
 20
354.5161263370713
 30
0.0
 40
0.2442857142867171
100
AcDbArc
 50
24.51839745861793
 51
113.9999999957693
  0
ARC
  5
EA6E4F6C5
330
EA6E4DC92
100
AcDbEntity
  8
JISSEN
100
AcDbCircle
 10
118.2904617906758
 20
354.5161263370562
 30
0.0
 40
0.2442857142861579
100
AcDbArc
 50
24.51839745874453
 51
113.9999999959119
  0
LINE
  5
EA6E4F6C6
330
EA6E4DC92
100
AcDbEntity
  8
JISSEN
  6
CONTINUOUS
100
AcDbLine
 10
126.4120450158145
 20
355.6439742761982
 30
0.0
 11
128.0564224756394
 21
356.6516500795786
 31
0.0
  0
LINE
  5
EA6E4F6C7
330
EA6E4DC92
100
AcDbEntity
  8
NITEN
 62
     2
100
AcDbLine
 10
94.470636954967
 20
334.6134163047503
 30
0.0
 11
94.47063695496707
 21
366.4565647657612
 31
0.0
  0
LINE
  5
EA6E4F6C8
330
EA6E4DC92
100
AcDbEntity
  8
JISSEN
100
AcDbLine
 10
128.1959808112574
 20
351.2881778297162
 30
0.0
 11
140.8778729260347
 21
364.6482459934113
 31
0.0
  0
LINE
  5
EA6E4F6C9
330
EA6E4DC92
100
AcDbEntity
  8
JISSEN
100
AcDbLine
 10
141.7833332974778
 20
363.7427856219686
 30
0.0
 11
128.423265133782
 21
351.0608935071918
 31
0.0
  0
ARC
  5
EA6E4F6CA
330
EA6E4DC92
100
AcDbEntity
  8
JISSEN
  6
CONTINUOUS
100
AcDbCircle
 10
142.8558196140718
 20
365.7207323100058
 30
0.0
 40
17.3571428571435
100
AcDbArc
 50
315.4244170629074
 51
224.5755829370927
  0
ARC
  5
EA6E4F6CB
330
EA6E4DC92
100
AcDbEntity
  8
JISSEN
  6
CONTINUOUS
100
AcDbCircle
 10
142.855819614072
 20
365.7207323100058
 30
0.0
 40
19.28571428571428
100
AcDbArc
 50
315.3819746929015
 51
224.6180253070984
  0
CIRCLE
  5
EA6E4F6CC
330
EA6E4DC92
100
AcDbEntity
  8
JISSEN
100
AcDbCircle
 10
142.8558196140718
 20
365.7207323099892
 30
0.0
 40
26.99999999997822
  0
CIRCLE
  5
EA6E4F6CD
330
EA6E4DC92
100
AcDbEntity
  8
JISSEN
100
AcDbCircle
 10
142.8558196140718
 20
365.7207323099892
 30
0.0
 40
23.54824121961546
  0
CIRCLE
  5
EA6E4F6CE
330
EA6E4DC92
100
AcDbEntity
  8
JISSEN
100
AcDbCircle
 10
142.8558196140718
 20
365.7207323099892
 30
0.0
 40
22.49999999998787
  0
ARC
  5
EA6E4F6CF
330
EA6E4DC92
100
AcDbEntity
  8
JISSEN
100
AcDbCircle
 10
142.8558196140404
 20
365.7207323100178
 30
0.0
 40
26.75571428569033
100
AcDbArc
 50
156.5183974586805
 51
161.4816025405671
  0
ARC
  5
EA6E4F6D0
330
EA6E4DC92
100
AcDbEntity
  8
NITEN
 62
     2
 48
0.5
100
AcDbCircle
 10
74.07063695496674
 20
357.5249812889967
 30
0.0
 40
11.22555938037867
100
AcDbArc
 50
52.71641621260361
 51
127.2835837873963
  0
LINE
  5
EA6E4F6D1
330
EA6E4DC92
100
AcDbEntity
  8
NITEN
 62
     2
 48
0.5
100
AcDbLine
 10
67.27063695496685
 20
334.6151765293871
 30
0.0
 11
67.2706369549669
 21
366.4565647657609
 31
0.0
  0
ARC
  5
EA6E4F6D2
330
EA6E4DC92
100
AcDbEntity
  8
NITEN
 62
     2
 48
0.5
100
AcDbCircle
 10
87.67063695496677
 20
375.388148242525
 30
0.0
 40
11.22555938037854
100
AcDbArc
 50
232.7164162126035
 51
307.2835837873963
  0
ARC
  5
EA6E4F6D3
330
EA6E4DC92
100
AcDbEntity
  8
NITEN
 62
     2
 48
0.5
100
AcDbCircle
 10
87.67063695496677
 20
357.5170944732279
 30
0.0
 40
11.22555938037854
100
AcDbArc
 50
52.71641621260361
 51
127.2835837873963
  0
LINE
  5
EA6E4F6D4
330
EA6E4DC92
100
AcDbEntity
  8
JISSEN
100
AcDbLine
 10
134.6058196140718
 20
324.7307323100057
 30
0.0
 11
142.8558196140718
 21
324.7307323100057
 31
0.0
  0
LINE
  5
EA6E4F6D5
330
EA6E4DC92
100
AcDbEntity
  8
JISSEN
100
AcDbLine
 10
151.1058196140718
 20
324.7307323100059
 30
0.0
 11
142.8558196140718
 21
324.7307323100057
 31
0.0
  0
LINE
  5
EA6E4F6D6
330
EA6E4DC92
100
AcDbEntity
  8
1
 62
     7
100
AcDbLine
 10
149.4343196140719
 20
324.7307323100057
 30
0.0
 11
149.6215071140718
 21
330.7207323100058
 31
0.0
  0
LINE
  5
EA6E4F6D7
330
EA6E4DC92
100
AcDbEntity
  8
1
 62
     7
100
AcDbLine
 10
136.090132114072
 20
330.7207323100058
 30
0.0
 11
136.2773196140719
 21
324.7307323100057
 31
0.0
  0
LINE
  5
EA6E4F6D8
330
EA6E4DC92
100
AcDbEntity
  8
JISSEN
  6
DASHDOT
 62
     0
100
AcDbLine
 10
135.145714711698
 20
324.7307323100057
 30
0.0
 11
151.145714711698
 21
324.7307323100057
 31
0.0
  0
LINE
  5
EA6E4F6D9
330
EA6E4DC92
100
AcDbEntity
  8
SAISEN
 62
     4
100
AcDbLine
 10
149.5499446140718
 20
328.4307323100058
 30
0.0
 11
136.161694614072
 21
328.4307323100058
 31
0.0
  0
LINE
  5
EA6E4F6DA
330
EA6E4DC92
100
AcDbEntity
  8
SAISEN
 62
     4
100
AcDbLine
 10
137.0176946140716
 20
328.4307323100058
 30
0.0
 11
136.1325764889527
 21
329.3625123138106
 31
0.0
  0
LINE
  5
EA6E4F6DB
330
EA6E4DC92
100
AcDbEntity
  8
SAISEN
 62
     4
100
AcDbLine
 10
137.1333196140718
 20
324.7307323100057
 30
0.0
 11
137.0176946140718
 21
328.4307323100058
 31
0.0
  0
LINE
  5
EA6E4F6DC
330
EA6E4DC92
100
AcDbEntity
  8
SAISEN
 62
     4
100
AcDbLine
 10
148.693944614072
 20
328.4307323100058
 30
0.0
 11
149.5790627391909
 21
329.3625123138106
 31
0.0
  0
LINE
  5
EA6E4F6DD
330
EA6E4DC92
100
AcDbEntity
  8
SAISEN
 62
     4
100
AcDbLine
 10
148.693944614072
 20
328.4307323100058
 30
0.0
 11
148.578319614072
 21
324.7307323100057
 31
0.0
  0
LINE
  5
EA6E4F6DE
330
EA6E4DC92
100
AcDbEntity
  8
JISSEN
100
AcDbLine
 10
135.8558196140718
 20
330.7207323100058
 30
0.0
 11
149.8558196140718
 21
330.7207323100058
 31
0.0
  0
LINE
  5
EA6E4F6DF
330
EA6E4DC92
100
AcDbEntity
  8
JISSEN
100
AcDbLine
 10
155.2058196140719
 20
310.2307323100059
 30
0.0
 11
160.2055781263736
 21
310.2307323100059
 31
0.0
  0
ARC
  5
EA6E4F6E0
330
EA6E4DC92
100
AcDbEntity
  8
JISSEN
100
AcDbCircle
 10
155.2058196140717
 20
309.7307323100059
 30
0.0
 40
0.5
100
AcDbArc
 50
90.0
 51
180.0
  0
LINE
  5
EA6E4F6E1
330
EA6E4DC92
100
AcDbEntity
  8
JISSEN
100
AcDbLine
 10
154.7058196140717
 20
309.739383678448
 30
0.0
 11
154.7058196140719
 21
302.2307323100059
 31
0.0
  0
LINE
  5
EA6E4F6E2
330
EA6E4DC92
100
AcDbEntity
  8
JISSEN
100
AcDbLine
 10
153.5771073997802
 20
307.7307323100059
 30
0.0
 11
154.7058196140719
 21
307.7307323100059
 31
0.0
  0
LINE
  5
EA6E4F6E3
330
EA6E4DC92
100
AcDbEntity
  8
JISSEN
100
AcDbLine
 10
152.105819614072
 20
312.1533820408161
 30
0.0
 11
152.105819614072
 21
309.2307323100059
 31
0.0
  0
LINE
  5
EA6E4F6E4
330
EA6E4DC92
100
AcDbEntity
  8
JISSEN
100
AcDbLine
 10
151.8558196140718
 20
316.2977196081139
 30
0.0
 11
151.8558196140718
 21
313.1637450118982
 31
0.0
  0
ARC
  5
EA6E4F6E5
330
EA6E4DC92
100
AcDbEntity
  8
JISSEN
100
AcDbCircle
 10
153.6058196140718
 20
309.2307323100059
 30
0.0
 40
1.5
100
AcDbArc
 50
180.0
 51
270.0
  0
LINE
  5
EA6E4F6E6
330
EA6E4DC92
100
AcDbEntity
  8
JISSEN
100
AcDbLine
 10
160.7055781263734
 20
308.3791045770793
 30
0.0
 11
169.2058196140717
 21
308.2307323100059
 31
0.0
  0
ARC
  5
EA6E4F6E7
330
EA6E4DC92
100
AcDbEntity
  8
JISSEN
100
AcDbCircle
 10
160.2055781263734
 20
309.7307323100059
 30
0.0
 40
0.5
100
AcDbArc
 50
0.0
 51
90.0
  0
LINE
  5
EA6E4F6E8
330
EA6E4DC92
100
AcDbEntity
  8
JISSEN
100
AcDbLine
 10
160.7055781263734
 20
309.7307323100059
 30
0.0
 11
160.7055781263734
 21
302.2307323100059
 31
0.0
  0
LINE
  5
EA6E4F6E9
330
EA6E4DC92
100
AcDbEntity
  8
JISSEN
100
AcDbLine
 10
170.2058196140717
 20
307.2307323100059
 30
0.0
 11
170.2058196140717
 21
302.2307323100059
 31
0.0
  0
ARC
  5
EA6E4F6EA
330
EA6E4DC92
100
AcDbEntity
  8
JISSEN
100
AcDbCircle
 10
169.2058196140715
 20
307.2307323100059
 30
0.0
 40
1.0
100
AcDbArc
 50
0.0
 51
90.0
  0
ARC
  5
EA6E4F6EB
330
EA6E4DC92
100
AcDbEntity
  8
JISSEN
100
AcDbCircle
 10
142.8558196140718
 20
328.1748520108273
 30
0.0
 40
15.29978213352394
100
AcDbArc
 50
258.852308981543
 51
270.0
  0
LINE
  5
EA6E4F6EC
330
EA6E4DC92
100
AcDbEntity
  8
JISSEN
100
AcDbLine
 10
134.6058196140718
 20
312.7307323100059
 30
0.0
 11
142.8558196140718
 21
312.7307323100059
 31
0.0
  0
ARC
  5
EA6E4F6ED
330
EA6E4DC92
100
AcDbEntity
  8
JISSEN
100
AcDbCircle
 10
142.8558196140718
 20
296.9979374745902
 30
0.0
 40
15.58845726811832
100
AcDbArc
 50
76.46379726261663
 51
103.5362027373833
  0
ARC
  5
EA6E4F6EE
330
EA6E4DC92
100
AcDbEntity
  8
JISSEN
100
AcDbCircle
 10
142.8558196140718
 20
301.2866126091847
 30
0.0
 40
15.29978213352394
100
AcDbArc
 50
90.0
 51
101.1476910184569
  0
LINE
  5
EA6E4F6EF
330
EA6E4DC92
100
AcDbEntity
  8
JISSEN
100
AcDbLine
 10
134.6058196140718
 20
316.7307323100059
 30
0.0
 11
142.8558196140718
 21
316.7307323100059
 31
0.0
  0
LINE
  5
EA6E4F6F0
330
EA6E4DC92
100
AcDbEntity
  8
JISSEN
100
AcDbLine
 10
137.3189186218198
 20
308.4775247606443
 30
0.0
 11
137.3189186218198
 21
312.1533820408161
 31
0.0
  0
ARC
  5
EA6E4F6F1
330
EA6E4DC92
100
AcDbEntity
  8
JISSEN
100
AcDbCircle
 10
129.9383162702656
 20
302.2307323100059
 30
0.0
 40
9.268873463974443
100
AcDbArc
 50
37.02549820928135
 51
61.23504967410366
  0
LINE
  5
EA6E4F6F2
330
EA6E4DC92
100
AcDbEntity
  8
JISSEN
100
AcDbLine
 10
139.2071897342402
 20
312.1699595015128
 30
0.0
 11
139.20718973424
 21
308.2307323100059
 31
0.0
  0
ARC
  5
EA6E4F6F3
330
EA6E4DC92
100
AcDbEntity
  8
JISSEN
100
AcDbCircle
 10
135.4623691179458
 20
308.3901322135703
 30
0.0
 40
4.196287087724162
100
AcDbArc
 50
63.74118221108947
 51
116.2588177889105
  0
ARC
  5
EA6E4F6F4
330
EA6E4DC92
100
AcDbEntity
  8
JISSEN
100
AcDbCircle
 10
135.4147216208753
 20
317.2175423593793
 30
0.0
 40
4.343207156153385
100
AcDbArc
 50
248.965577244622
 51
291.034422755378
  0
LINE
  5
EA6E4F6F5
330
EA6E4DC92
100
AcDbEntity
  8
JISSEN
100
AcDbLine
 10
133.6058196140718
 20
312.1533820408163
 30
0.0
 11
133.6058196140718
 21
310.7307323100061
 31
0.0
  0
LINE
  5
EA6E4F6F6
330
EA6E4DC92
100
AcDbEntity
  8
JISSEN
100
AcDbLine
 10
134.6058196140718
 20
312.7307323100059
 30
0.0
 11
133.605819614072
 21
312.1533820408163
 31
0.0
  0
LINE
  5
EA6E4F6F7
330
EA6E4DC92
100
AcDbEntity
  8
JISSEN
100
AcDbLine
 10
134.6058196140718
 20
312.7307323100059
 30
0.0
 11
133.8558196140718
 21
313.1637450118982
 31
0.0
  0
LINE
  5
EA6E4F6F8
330
EA6E4DC92
100
AcDbEntity
  8
JISSEN
100
AcDbLine
 10
137.3189186218198
 20
312.1533820408161
 30
0.0
 11
139.2071897342402
 21
312.1533820408161
 31
0.0
  0
LINE
  5
EA6E4F6F9
330
EA6E4DC92
100
AcDbEntity
  8
JISSEN
100
AcDbLine
 10
136.9736236276789
 20
313.1637450118982
 30
0.0
 11
139.897779722522
 21
313.1637450118982
 31
0.0
  0
LINE
  5
EA6E4F6FA
330
EA6E4DC92
100
AcDbEntity
  8
JISSEN
  6
CONTINUOUS
 62
     0
100
AcDbLine
 10
134.8558196140718
 20
307.2307323100059
 30
0.0
 11
138.20718973424
 21
307.2307323100059
 31
0.0
  0
LINE
  5
EA6E4F6FB
330
EA6E4DC92
100
AcDbEntity
  8
JISSEN
  6
CONTINUOUS
 62
     0
100
AcDbLine
 10
133.8558196140718
 20
302.2307323100059
 30
0.0
 11
133.8558196140718
 21
306.2307323100059
 31
0.0
  0
ARC
  5
EA6E4F6FC
330
EA6E4DC92
100
AcDbEntity
  8
JISSEN
  6
CONTINUOUS
 62
     0
100
AcDbCircle
 10
134.8558196140718
 20
306.2307323100059
 30
0.0
 40
1.0
100
AcDbArc
 50
90.0
 51
180.0
  0
ARC
  5
EA6E4F6FD
330
EA6E4DC92
100
AcDbEntity
  8
JISSEN
 62
     0
100
AcDbCircle
 10
138.20718973424
 20
308.2307323100059
 30
0.0
 40
1.0
100
AcDbArc
 50
270.0
 51
0.0
  0
ARC
  5
EA6E4F6FE
330
EA6E4DC92
100
AcDbEntity
  8
JISSEN
100
AcDbCircle
 10
135.4147216208753
 20
312.2439222606325
 30
0.0
 40
4.343207156153385
100
AcDbArc
 50
68.96557724462204
 51
111.0344227553779
  0
LINE
  5
EA6E4F6FF
330
EA6E4DC92
100
AcDbEntity
  8
JISSEN
100
AcDbLine
 10
134.6058196140718
 20
316.7307323100059
 30
0.0
 11
133.8558196140718
 21
316.2977196081139
 31
0.0
  0
LINE
  5
EA6E4F700
330
EA6E4DC92
100
AcDbEntity
  8
JISSEN
100
AcDbLine
 10
136.9736236276789
 20
316.2977196081139
 30
0.0
 11
139.897779722522
 21
316.2977196081139
 31
0.0
  0
LINE
  5
EA6E4F701
330
EA6E4DC92
100
AcDbEntity
  8
JISSEN
100
AcDbLine
 10
133.8558196140718
 20
316.2977196081139
 30
0.0
 11
133.8558196140718
 21
313.1637450118982
 31
0.0
  0
LINE
  5
EA6E4F702
330
EA6E4DC92
100
AcDbEntity
  8
JISSEN
100
AcDbLine
 10
139.897779722522
 20
316.2977196081139
 30
0.0
 11
139.897779722522
 21
313.1637450118982
 31
0.0
  0
LINE
  5
EA6E4F703
330
EA6E4DC92
100
AcDbEntity
  8
JISSEN
100
AcDbLine
 10
136.9736236276789
 20
316.2977196081139
 30
0.0
 11
136.9736236276789
 21
313.1637450118982
 31
0.0
  0
LINE
  5
EA6E4F704
330
EA6E4DC92
100
AcDbEntity
  8
JISSEN
100
AcDbLine
 10
148.3927206063238
 20
312.1533820408161
 30
0.0
 11
146.5044494939036
 21
312.1533820408161
 31
0.0
  0
LINE
  5
EA6E4F705
330
EA6E4DC92
100
AcDbEntity
  8
JISSEN
100
AcDbLine
 10
148.7380156004649
 20
313.1637450118982
 30
0.0
 11
145.8138595056218
 21
313.1637450118982
 31
0.0
  0
LINE
  5
EA6E4F706
330
EA6E4DC92
100
AcDbEntity
  8
JISSEN
100
AcDbLine
 10
151.105819614072
 20
312.7307323100059
 30
0.0
 11
142.8558196140718
 21
312.7307323100059
 31
0.0
  0
ARC
  5
EA6E4F707
330
EA6E4DC92
100
AcDbEntity
  8
JISSEN
100
AcDbCircle
 10
142.8558196140718
 20
328.1748520108273
 30
0.0
 40
15.29978213352394
100
AcDbArc
 50
270.0
 51
281.1476910184569
  0
LINE
  5
EA6E4F708
330
EA6E4DC92
100
AcDbEntity
  8
JISSEN
100
AcDbLine
 10
148.7380156004646
 20
316.2977196081139
 30
0.0
 11
145.8138595056218
 21
316.2977196081139
 31
0.0
  0
LINE
  5
EA6E4F709
330
EA6E4DC92
100
AcDbEntity
  8
JISSEN
100
AcDbLine
 10
151.105819614072
 20
316.7307323100059
 30
0.0
 11
142.855819614072
 21
316.7307323100059
 31
0.0
  0
ARC
  5
EA6E4F70A
330
EA6E4DC92
100
AcDbEntity
  8
JISSEN
100
AcDbCircle
 10
142.855819614072
 20
301.2866126091847
 30
0.0
 40
15.29978213352394
100
AcDbArc
 50
78.85230898154303
 51
90.0
  0
LINE
  5
EA6E4F70B
330
EA6E4DC92
100
AcDbEntity
  8
JISSEN
100
AcDbLine
 10
145.8138595056218
 20
316.2977196081139
 30
0.0
 11
145.8138595056218
 21
313.1637450118982
 31
0.0
  0
LINE
  5
EA6E4F70C
330
EA6E4DC92
100
AcDbEntity
  8
JISSEN
100
AcDbLine
 10
148.7380156004646
 20
316.2977196081139
 30
0.0
 11
148.7380156004646
 21
313.1637450118982
 31
0.0
  0
LINE
  5
EA6E4F70D
330
EA6E4DC92
100
AcDbEntity
  8
JISSEN
100
AcDbLine
 10
151.105819614072
 20
312.7307323100059
 30
0.0
 11
151.8558196140718
 21
313.1637450118982
 31
0.0
  0
LINE
  5
EA6E4F70E
330
EA6E4DC92
100
AcDbEntity
  8
JISSEN
100
AcDbLine
 10
151.105819614072
 20
312.7307323100059
 30
0.0
 11
152.1058196140718
 21
312.1533820408163
 31
0.0
  0
ARC
  5
EA6E4F70F
330
EA6E4DC92
100
AcDbEntity
  8
JISSEN
100
AcDbCircle
 10
150.2492701101978
 20
308.3901322135703
 30
0.0
 40
4.196287087724162
100
AcDbArc
 50
63.7411822110968
 51
116.2588177889031
  0
ARC
  5
EA6E4F710
330
EA6E4DC92
100
AcDbEntity
  8
JISSEN
100
AcDbCircle
 10
150.2969176072683
 20
317.2175423593794
 30
0.0
 40
4.343207156153385
100
AcDbArc
 50
248.965577244622
 51
291.034422755378
  0
LINE
  5
EA6E4F711
330
EA6E4DC92
100
AcDbEntity
  8
JISSEN
100
AcDbLine
 10
151.105819614072
 20
316.7307323100059
 30
0.0
 11
151.8558196140718
 21
316.2977196081139
 31
0.0
  0
ARC
  5
EA6E4F712
330
EA6E4DC92
100
AcDbEntity
  8
JISSEN
100
AcDbCircle
 10
150.2969176072683
 20
312.2439222606325
 30
0.0
 40
4.343207156153385
100
AcDbArc
 50
68.96557724462204
 51
111.0344227553779
  0
LINE
  5
EA6E4F713
330
EA6E4DC92
100
AcDbEntity
  8
JISSEN
  6
CONTINUOUS
 62
     0
100
AcDbLine
 10
134.6058196140718
 20
316.7307323100059
 30
0.0
 11
134.6058196140718
 21
324.7307323100057
 31
0.0
  0
LINE
  5
EA6E4F714
330
EA6E4DC92
100
AcDbEntity
  8
JISSEN
  6
CONTINUOUS
 62
     0
100
AcDbLine
 10
151.105819614072
 20
316.7307323100059
 30
0.0
 11
151.1058196140718
 21
324.7307323100059
 31
0.0
  0
LINE
  5
EA6E4F715
330
EA6E4DC92
100
AcDbEntity
  8
1
 62
     7
100
AcDbLine
 10
98.87581961407205
 20
318.2307323100058
 30
0.0
 11
98.87581961407205
 21
327.2307323100058
 31
0.0
  0
LINE
  5
EA6E4F716
330
EA6E4DC92
100
AcDbEntity
  8
1
 62
     7
100
AcDbLine
 10
121.8558196140716
 20
308.8092323100058
 30
0.0
 11
114.8658196140718
 21
309.0276698100058
 31
0.0
  0
LINE
  5
EA6E4F717
330
EA6E4DC92
100
AcDbEntity
  8
SAISEN
 62
     4
100
AcDbLine
 10
116.588341902936
 20
308.9738409884788
 30
0.0
 11
118.1558196140717
 21
308.0688573100059
 31
0.0
  0
LINE
  5
EA6E4F718
330
EA6E4DC92
100
AcDbEntity
  8
SAISEN
 62
     4
100
AcDbLine
 10
118.1558196140717
 20
308.0688573100059
 30
0.0
 11
121.8558196140716
 21
307.9532323100059
 31
0.0
  0
LINE
  5
EA6E4F719
330
EA6E4DC92
100
AcDbEntity
  8
JISSEN
100
AcDbLine
 10
122.3558196140718
 20
310.7307323100059
 30
0.0
 11
122.3558196140718
 21
302.2307323100059
 31
0.0
  0
LINE
  5
EA6E4F71A
330
EA6E4DC92
100
AcDbEntity
  8
JISSEN
  6
CONTINUOUS
100
AcDbLine
 10
122.3558196140718
 20
310.7307323100061
 30
0.0
 11
121.8558196140718
 21
310.2307323100059
 31
0.0
  0
LINE
  5
EA6E4F71B
330
EA6E4DC92
100
AcDbEntity
  8
1
 62
     7
100
AcDbLine
 10
103.875819614072
 20
313.2307323100058
 30
0.0
 11
107.8758196140718
 21
313.2307323100058
 31
0.0
  0
LINE
  5
EA6E4F71C
330
EA6E4DC92
100
AcDbEntity
  8
SAISEN
 62
     4
100
AcDbLine
 10
107.8758196140718
 20
307.9532323100059
 30
0.0
 11
111.5758196140718
 21
308.0688573100059
 31
0.0
  0
LINE
  5
EA6E4F71D
330
EA6E4DC92
100
AcDbEntity
  8
SAISEN
 62
     4
100
AcDbLine
 10
111.5758196140718
 20
308.0688573100059
 30
0.0
 11
113.1432973252076
 21
308.9738409884788
 31
0.0
  0
LINE
  5
EA6E4F71E
330
EA6E4DC92
100
AcDbEntity
  8
1
 62
     7
100
AcDbLine
 10
114.8658196140718
 20
309.0276698100058
 30
0.0
 11
107.8758196140718
 21
308.8092323100057
 31
0.0
  0
ARC
  5
EA6E4F71F
330
EA6E4DC92
100
AcDbEntity
  8
1
 62
     7
100
AcDbCircle
 10
103.875819614072
 20
318.2307323100058
 30
0.0
 40
5.0
100
AcDbArc
 50
180.0
 51
270.0
  0
LINE
  5
EA6E4F720
330
EA6E4DC92
100
AcDbEntity
  8
JISSEN
  6
CONTINUOUS
100
AcDbLine
 10
122.3558196140718
 20
310.7307323100061
 30
0.0
 11
133.6058196140718
 21
310.7307323100059
 31
0.0
  0
LINE
  5
EA6E4F721
330
EA6E4DC92
100
AcDbEntity
  8
JISSEN
100
AcDbLine
 10
155.197093410853
 20
294.2221570939856
 30
0.0
 11
158.7181688180255
 21
294.1606964941364
 31
0.0
  0
ARC
  5
EA6E4F722
330
EA6E4DC92
100
AcDbEntity
  8
JISSEN
100
AcDbCircle
 10
155.2058196140717
 20
294.7220809415638
 30
0.0
 40
0.5
100
AcDbArc
 50
180.0
 51
268.9999999999982
  0
LINE
  5
EA6E4F723
330
EA6E4DC92
100
AcDbEntity
  8
JISSEN
100
AcDbLine
 10
153.605819614072
 20
296.7307323100058
 30
0.0
 11
154.7058196140719
 21
296.7307323100058
 31
0.0
  0
LINE
  5
EA6E4F724
330
EA6E4DC92
100
AcDbEntity
  8
JISSEN
100
AcDbLine
 10
152.105819614072
 20
292.8080825791957
 30
0.0
 11
152.105819614072
 21
295.2307323100059
 31
0.0
  0
ARC
  5
EA6E4F725
330
EA6E4DC92
100
AcDbEntity
  8
JISSEN
100
AcDbCircle
 10
153.6058196140718
 20
295.2307323100059
 30
0.0
 40
1.5
100
AcDbArc
 50
90.0
 51
180.0
  0
LINE
  5
EA6E4F726
330
EA6E4DC92
100
AcDbEntity
  8
JISSEN
100
AcDbLine
 10
160.7055781263736
 20
296.0823600429324
 30
0.0
 11
169.2058196140719
 21
296.2307323100059
 31
0.0
  0
ARC
  5
EA6E4F727
330
EA6E4DC92
100
AcDbEntity
  8
JISSEN
100
AcDbCircle
 10
159.5181967689759
 20
295.5902949463624
 30
0.0
 40
1.198536020273432
100
AcDbArc
 50
265.891233838159
 51
352.1769210358541
  0
ARC
  5
EA6E4F728
330
EA6E4DC92
100
AcDbEntity
  8
JISSEN
100
AcDbCircle
 10
169.2058196140717
 20
297.2307323100059
 30
0.0
 40
1.0
100
AcDbArc
 50
270.0
 51
315.3757911072027
  0
LINE
  5
EA6E4F729
330
EA6E4DC92
100
AcDbEntity
  8
JISSEN
100
AcDbLine
 10
170.2058196140717
 20
297.7307323100059
 30
0.0
 11
170.2058196140717
 21
297.2307323100059
 31
0.0
  0
LWPOLYLINE
  5
EA6E4F72A
330
EA6E4DC92
100
AcDbEntity
  8
JISSEN
100
AcDbPolyline
 90
        2
 70
     0
 43
0.0
 10
170.2058196140717
 20
297.7307334810515
 10
170.2058196140717
 20
294.7307323100059
  0
LINE
  5
EA6E4F72B
330
EA6E4DC92
100
AcDbEntity
  8
JISSEN
100
AcDbLine
 10
134.6058196140718
 20
292.2307323100059
 30
0.0
 11
142.8558196140718
 21
292.2307323100059
 31
0.0
  0
ARC
  5
EA6E4F72C
330
EA6E4DC92
100
AcDbEntity
  8
JISSEN
100
AcDbCircle
 10
142.8558196140718
 20
307.9635271454216
 30
0.0
 40
15.58845726811832
100
AcDbArc
 50
256.4637972626166
 51
283.5362027373833
  0
ARC
  5
EA6E4F72D
330
EA6E4DC92
100
AcDbEntity
  8
JISSEN
100
AcDbCircle
 10
129.9383162702656
 20
302.2307323100059
 30
0.0
 40
9.268873463974443
100
AcDbArc
 50
298.3761738439583
 51
323.7872627839064
  0
LINE
  5
EA6E4F72E
330
EA6E4DC92
100
AcDbEntity
  8
JISSEN
100
AcDbLine
 10
137.3189186218198
 20
292.8080825791954
 30
0.0
 11
137.3189186218198
 21
296.1922433444062
 31
0.0
  0
LINE
  5
EA6E4F72F
330
EA6E4DC92
100
AcDbEntity
  8
JISSEN
100
AcDbLine
 10
139.2071897342402
 20
296.2307323100059
 30
0.0
 11
139.2071897342402
 21
292.791505118499
 31
0.0
  0
LINE
  5
EA6E4F730
330
EA6E4DC92
100
AcDbEntity
  8
JISSEN
  6
CONTINUOUS
 62
     0
100
AcDbLine
 10
134.8558196140718
 20
297.2307323100059
 30
0.0
 11
138.2071897342402
 21
297.2307323100059
 31
0.0
  0
ARC
  5
EA6E4F731
330
EA6E4DC92
100
AcDbEntity
  8
JISSEN
  6
CONTINUOUS
 62
     0
100
AcDbCircle
 10
134.8558196140718
 20
298.2307323100059
 30
0.0
 40
1.0
100
AcDbArc
 50
180.0
 51
270.0
  0
ARC
  5
EA6E4F732
330
EA6E4DC92
100
AcDbEntity
  8
JISSEN
 62
     0
100
AcDbCircle
 10
138.2071897342402
 20
296.2307323100059
 30
0.0
 40
1.0
100
AcDbArc
 50
0.0
 51
90.0
  0
ARC
  5
EA6E4F733
330
EA6E4DC92
100
AcDbEntity
  8
JISSEN
100
AcDbCircle
 10
135.4623691179458
 20
296.5713324064414
 30
0.0
 40
4.196287087724162
100
AcDbArc
 50
243.741182211075
 51
296.258817788925
  0
LINE
  5
EA6E4F734
330
EA6E4DC92
100
AcDbEntity
  8
JISSEN
100
AcDbLine
 10
133.6058196140718
 20
292.8080825791957
 30
0.0
 11
133.6058196140718
 21
293.7307323100061
 31
0.0
  0
LINE
  5
EA6E4F735
330
EA6E4DC92
100
AcDbEntity
  8
JISSEN
100
AcDbLine
 10
134.6058196140718
 20
292.2307323100059
 30
0.0
 11
133.6058196140718
 21
292.8080825791957
 31
0.0
  0
LINE
  5
EA6E4F736
330
EA6E4DC92
100
AcDbEntity
  8
JISSEN
100
AcDbLine
 10
139.2071897342402
 20
292.8080825791954
 30
0.0
 11
137.3189186218198
 21
292.8080825791954
 31
0.0
  0
LINE
  5
EA6E4F737
330
EA6E4DC92
100
AcDbEntity
  8
JISSEN
100
AcDbLine
 10
148.3927206063238
 20
292.8080825791954
 30
0.0
 11
146.5044494939033
 21
292.8080825791954
 31
0.0
  0
LINE
  5
EA6E4F738
330
EA6E4DC92
100
AcDbEntity
  8
JISSEN
100
AcDbLine
 10
151.1058196140718
 20
292.2307323100059
 30
0.0
 11
142.8558196140718
 21
292.2307323100059
 31
0.0
  0
LINE
  5
EA6E4F739
330
EA6E4DC92
100
AcDbEntity
  8
JISSEN
100
AcDbLine
 10
151.1058196140718
 20
292.2307323100059
 30
0.0
 11
152.1058196140718
 21
292.8080825791957
 31
0.0
  0
ARC
  5
EA6E4F73A
330
EA6E4DC92
100
AcDbEntity
  8
JISSEN
100
AcDbCircle
 10
150.2492701101978
 20
296.5713324064414
 30
0.0
 40
4.196287087724162
100
AcDbArc
 50
243.7411822110677
 51
296.2588177889322
  0
LINE
  5
EA6E4F73B
330
EA6E4DC92
100
AcDbEntity
  8
JISSEN
100
AcDbLine
 10
162.577530899633
 20
277.2304710226807
 30
0.0
 11
169.2407191107745
 21
277.4631546822821
 31
0.0
  0
ARC
  5
EA6E4F73C
330
EA6E4DC92
100
AcDbEntity
  8
JISSEN
100
AcDbCircle
 10
162.5426314029304
 20
278.2298618496998
 30
0.0
 40
1.0
100
AcDbArc
 50
189.9999999999987
 51
272.0000000000036
  0
ARC
  5
EA6E4F73D
330
EA6E4DC92
100
AcDbEntity
  8
JISSEN
100
AcDbCircle
 10
169.2058196140717
 20
278.462545509301
 30
0.0
 40
1.0
100
AcDbArc
 50
272.0000000000036
 51
0.0
  0
LINE
  5
EA6E4F73E
330
EA6E4DC92
100
AcDbEntity
  8
JISSEN
100
AcDbLine
 10
158.7181688180255
 20
294.1606964941364
 30
0.0
 11
161.5578236499184
 21
278.0562136720328
 31
0.0
  0
LINE
  5
EA6E4F73F
330
EA6E4DC92
100
AcDbEntity
  8
1
 62
     7
100
AcDbLine
 10
114.8658196140718
 20
295.4337948100059
 30
0.0
 11
121.8558196140716
 21
295.6522323100059
 31
0.0
  0
LINE
  5
EA6E4F740
330
EA6E4DC92
100
AcDbEntity
  8
SAISEN
 62
     4
100
AcDbLine
 10
118.1558196140717
 20
296.3926073100058
 30
0.0
 11
116.588341902936
 21
295.4876236315328
 31
0.0
  0
LINE
  5
EA6E4F741
330
EA6E4DC92
100
AcDbEntity
  8
SAISEN
 62
     4
100
AcDbLine
 10
121.8558196140716
 20
296.5082323100058
 30
0.0
 11
118.1558196140717
 21
296.3926073100058
 31
0.0
  0
LINE
  5
EA6E4F742
330
EA6E4DC92
100
AcDbEntity
  8
JISSEN
  6
CONTINUOUS
100
AcDbLine
 10
122.3558196140718
 20
293.7307323100059
 30
0.0
 11
121.8558196140718
 21
294.2307323100059
 31
0.0
  0
LINE
  5
EA6E4F743
330
EA6E4DC92
100
AcDbEntity
  8
1
 62
     7
100
AcDbLine
 10
100.8758196140721
 20
291.2307323100058
 30
0.0
 11
107.8758196140718
 21
291.2307323100058
 31
0.0
  0
LINE
  5
EA6E4F744
330
EA6E4DC92
100
AcDbEntity
  8
SAISEN
 62
     4
100
AcDbLine
 10
111.5758196140718
 20
296.3926073100058
 30
0.0
 11
107.8758196140718
 21
296.5082323100059
 31
0.0
  0
ARC
  5
EA6E4F745
330
EA6E4DC92
100
AcDbEntity
  8
1
 62
     7
100
AcDbCircle
 10
100.8758196140721
 20
289.2307323100057
 30
0.0
 40
2.0
100
AcDbArc
 50
90.0
 51
180.0
  0
LINE
  5
EA6E4F746
330
EA6E4DC92
100
AcDbEntity
  8
SAISEN
 62
     4
100
AcDbLine
 10
113.1432973252076
 20
295.4876236315328
 30
0.0
 11
111.5758196140718
 21
296.3926073100058
 31
0.0
  0
LINE
  5
EA6E4F747
330
EA6E4DC92
100
AcDbEntity
  8
1
 62
     7
100
AcDbLine
 10
107.8758196140718
 20
295.6522323100059
 30
0.0
 11
114.8658196140718
 21
295.4337948100059
 31
0.0
  0
LINE
  5
EA6E4F748
330
EA6E4DC92
100
AcDbEntity
  8
1
 62
     7
100
AcDbLine
 10
94.34600711407188
 20
268.7607323100055
 30
0.0
 11
94.08131961407184
 21
277.2307323100055
 31
0.0
  0
LINE
  5
EA6E4F749
330
EA6E4DC92
100
AcDbEntity
  8
1
 62
     7
100
AcDbLine
 10
98.87581961407205
 20
277.2307323100055
 30
0.0
 11
98.87581961407216
 21
289.2307323100057
 31
0.0
  0
LINE
  5
EA6E4F74A
330
EA6E4DC92
100
AcDbEntity
  8
JISSEN
  6
CONTINUOUS
100
AcDbLine
 10
122.3558196140718
 20
293.7307323100059
 30
0.0
 11
133.6058196140718
 21
293.7307323100059
 31
0.0
  0
LINE
  5
EA6E4F74B
330
EA6E4DC92
100
AcDbEntity
  8
1
 62
     7
100
AcDbLine
 10
107.8758196140718
 20
313.2307323100058
 30
0.0
 11
107.8758196140718
 21
291.2307323100058
 31
0.0
  0
LINE
  5
EA6E4F74C
330
EA6E4DC92
100
AcDbEntity
  8
1
  6
DASHDOT
 62
     2
100
AcDbLine
 10
107.8758196140718
 20
309.9408372123798
 30
0.0
 11
107.8758196140718
 21
293.9408372123798
 31
0.0
  0
LINE
  5
EA6E4F74D
330
EA6E4DC92
100
AcDbEntity
  8
SAISEN
 62
     4
100
AcDbLine
 10
118.1558196140717
 20
295.5366073100058
 30
0.0
 11
118.1558196140717
 21
308.9248573100058
 31
0.0
  0
LINE
  5
EA6E4F74E
330
EA6E4DC92
100
AcDbEntity
  8
SAISEN
 62
     4
100
AcDbLine
 10
111.5758196140718
 20
308.9248573100058
 30
0.0
 11
111.5758196140718
 21
295.5366073100058
 31
0.0
  0
LINE
  5
EA6E4F74F
330
EA6E4DC92
100
AcDbEntity
  8
JISSEN
100
AcDbLine
 10
121.8558196140716
 20
293.9408372123798
 30
0.0
 11
121.8558196140716
 21
309.9408372123798
 31
0.0
  0
LINE
  5
EA6E4F750
330
EA6E4DC92
100
AcDbEntity
  8
JISSEN
100
AcDbLine
 10
170.2058196140719
 20
278.462545509301
 30
0.0
 11
170.2058196140717
 21
302.2307323100059
 31
0.0
  0
LINE
  5
EA6E4F751
330
EA6E4DC92
100
AcDbEntity
  8
JISSEN
  6
CONTINUOUS
 62
     0
100
AcDbLine
 10
133.8558196140718
 20
302.2307323100059
 30
0.0
 11
133.8558196140718
 21
298.2307323100059
 31
0.0
  0
LINE
  5
EA6E4F752
330
EA6E4DC92
100
AcDbEntity
  8
JISSEN
100
AcDbLine
 10
122.3558196140718
 20
293.7307323100059
 30
0.0
 11
122.3558196140718
 21
302.2307323100059
 31
0.0
  0
LINE
  5
EA6E4F753
330
EA6E4DC92
100
AcDbEntity
  8
JISSEN
  6
CONTINUOUS
 62
     0
100
AcDbLine
 10
121.8558196140718
 20
310.2307323100059
 30
0.0
 11
121.8558196140718
 21
294.2307323100059
 31
0.0
  0
LINE
  5
EA6E4F754
330
EA6E4DC92
100
AcDbEntity
  8
JISSEN
100
AcDbLine
 10
146.5044494939036
 20
312.1533820408161
 30
0.0
 11
146.5044494939036
 21
292.791505118499
 31
0.0
  0
LINE
  5
EA6E4F755
330
EA6E4DC92
100
AcDbEntity
  8
JISSEN
100
AcDbLine
 10
148.3927206063238
 20
312.1533820408161
 30
0.0
 11
148.3927206063238
 21
292.8080825791954
 31
0.0
  0
ARC
  5
EA6E4F756
330
EA6E4DC92
100
AcDbEntity
  8
JISSEN
100
AcDbCircle
 10
156.8441302412238
 20
302.2307318378995
 30
0.0
 40
7.348782531471295
100
AcDbArc
 50
130.3577368868311
 51
228.6940159284606
  0
LINE
  5
EA6E4F757
330
EA6E4DC92
100
AcDbEntity
  8
JISSEN
100
AcDbLine
 10
160.7055781263734
 20
295.4271566492101
 30
0.0
 11
160.7055781263734
 21
302.2307323100059
 31
0.0
  0
LINE
  5
EA6E4F758
330
EA6E4DC92
100
AcDbEntity
  8
JISSEN
100
AcDbLine
 10
154.7058196140717
 20
294.7220809415638
 30
0.0
 11
154.7058196140717
 21
302.2307323100059
 31
0.0
  0
LINE
  5
EA6E4F759
330
EA6E4DC92
100
AcDbEntity
  8
HASEN
 62
     2
100
AcDbLine
 10
92.95212224908459
 20
332.2307323100058
 30
0.0
 11
92.79587224908459
 21
327.2307323100057
 31
0.0
  0
LINE
  5
EA6E4F75A
330
EA6E4DC92
100
AcDbEntity
  8
HASEN
 62
     2
100
AcDbLine
 10
68.94540166084926
 20
327.2307323100057
 30
0.0
 11
68.78915166084926
 21
332.2307323100058
 31
0.0
  0
LINE
  5
EA6E4F75B
330
EA6E4DC92
100
AcDbEntity
  8
HASEN
 62
     2
100
AcDbLine
 10
68.78915166084926
 20
332.2307323100058
 30
0.0
 11
67.43562518544194
 21
334.5751089348007
 31
0.0
  0
LINE
  5
EA6E4F75C
330
EA6E4DC92
100
AcDbEntity
  8
1
 62
     7
100
AcDbLine
 10
62.87581961407181
 20
327.2307323100058
 30
0.0
 11
62.87581961407181
 21
302.2307323100058
 31
0.0
  0
LINE
  5
EA6E4F75D
330
EA6E4DC92
100
AcDbEntity
  8
SAISEN
 62
     4
100
AcDbLine
 10
92.80105490818959
 20
277.2307323100055
 30
0.0
 11
92.95730490818959
 21
272.2307323100055
 31
0.0
  0
LINE
  5
EA6E4F75E
330
EA6E4DC92
100
AcDbEntity
  8
SAISEN
 62
     4
100
AcDbLine
 10
68.79433431995403
 20
272.2307323100055
 30
0.0
 11
68.95058431995415
 21
277.2307323100055
 31
0.0
  0
LINE
  5
EA6E4F75F
330
EA6E4DC92
100
AcDbEntity
  8
1
 62
     7
100
AcDbLine
 10
67.67031961407212
 20
277.2307323100055
 30
0.0
 11
67.40563211407198
 21
268.7607323100055
 31
0.0
  0
LINE
  5
EA6E4F760
330
EA6E4DC92
100
AcDbEntity
  8
SAISEN
 62
     4
100
AcDbLine
 10
67.44080784454695
 20
269.8863556852106
 30
0.0
 11
68.79433431995403
 21
272.2307323100055
 31
0.0
  0
LINE
  5
EA6E4F761
330
EA6E4DC92
100
AcDbEntity
  8
1
 62
     7
100
AcDbLine
 10
62.87581961407181
 20
302.2307323100058
 30
0.0
 11
62.87581961407181
 21
277.2307323100055
 31
0.0
  0
LINE
  5
EA6E4F762
330
EA6E4DC92
100
AcDbEntity
  8
1
 62
     7
100
AcDbLine
 10
99.35102822813997
 20
268.7607323100055
 30
0.0
 11
62.40061100000389
 21
268.7607323100055
 31
0.0
  0
LINE
  5
EA6E4F763
330
EA6E4DC92
100
AcDbEntity
  8
SAISEN
 62
     4
100
AcDbLine
 10
94.23756961407184
 20
272.2307323100055
 30
0.0
 11
67.51406961407202
 21
272.2307323100055
 31
0.0
  0
LINE
  5
EA6E4F764
330
EA6E4DC92
100
AcDbEntity
  8
SAISEN
 62
     4
100
AcDbLine
 10
92.95730490818959
 20
272.2307323100055
 30
0.0
 11
94.31083138359667
 21
269.8863556852106
 31
0.0
  0
LINE
  5
EA6E4F765
330
EA6E4DC92
100
AcDbEntity
  8
1
 62
     7
100
AcDbLine
 10
62.87581961407181
 20
277.2307323100055
 30
0.0
 11
98.87581961407205
 21
277.2307323100055
 31
0.0
  0
LINE
  5
EA6E4F766
330
EA6E4DC92
100
AcDbEntity
  8
1
 62
     7
100
AcDbLine
 10
98.87581961407205
 20
327.2307323100058
 30
0.0
 11
62.87581961407181
 21
327.2307323100058
 31
0.0
  0
LINE
  5
EA6E4F767
330
EA6E4DC92
100
AcDbEntity
  8
NITEN
100
AcDbLine
 10
67.50888695496701
 20
332.2307323100058
 30
0.0
 11
94.23238695496683
 21
332.2307323100058
 31
0.0
  0
LINE
  5
EA6E4F768
330
EA6E4DC92
100
AcDbEntity
  8
HASEN
 62
     2
100
AcDbLine
 10
94.30564872449167
 20
334.5751089348007
 30
0.0
 11
92.95212224908459
 21
332.2307323100058
 31
0.0
  0
LINE
  5
EA6E4F769
330
EA6E4DC92
100
AcDbEntity
  8
JISSEN
100
AcDbLine
 10
122.8758196140725
 20
247.7907323100045
 30
0.0
 11
114.8758196140724
 21
247.7907323100045
 31
0.0
  0
ARC
  5
EA6E4F76A
330
EA6E4DC92
100
AcDbEntity
  8
JISSEN
100
AcDbCircle
 10
122.8758196140725
 20
246.7907323100047
 30
0.0
 40
1.0
100
AcDbArc
 50
0.0
 51
90.0
  0
LINE
  5
EA6E4F76B
330
EA6E4DC92
100
AcDbEntity
  8
JISSEN
100
AcDbLine
 10
95.87581961407272
 20
249.2907323100045
 30
0.0
 11
97.37581961407272
 21
248.4247069062199
 31
0.0
  0
LINE
  5
EA6E4F76C
330
EA6E4DC92
100
AcDbEntity
  8
1
 62
     7
100
AcDbLine
 10
94.08131961407184
 20
249.2907323100056
 30
0.0
 11
94.34600711407188
 21
257.7607323100055
 31
0.0
  0
ARC
  5
EA6E4F76D
330
EA6E4DC92
100
AcDbEntity
  8
JISSEN
100
AcDbCircle
 10
122.8758196140725
 20
226.2907323100045
 30
0.0
 40
1.0
100
AcDbArc
 50
0.0
 51
90.0
  0
LINE
  5
EA6E4F76E
330
EA6E4DC92
100
AcDbEntity
  8
JISSEN
100
AcDbLine
 10
117.510768339456
 20
227.2907323100042
 30
0.0
 11
122.8758196140727
 21
227.2907323100042
 31
0.0
  0
LINE
  5
EA6E4F76F
330
EA6E4DC92
100
AcDbEntity
  8
JISSEN
100
AcDbLine
 10
100.8758196140725
 20
228.8224864734526
 30
0.0
 11
100.8758196140725
 21
225.585766008444
 31
0.0
  0
LINE
  5
EA6E4F770
330
EA6E4DC92
100
AcDbEntity
  8
JISSEN
100
AcDbLine
 10
100.8758196140729
 20
228.8224864734526
 30
0.0
 11
100.8758196140729
 21
225.585766008444
 31
0.0
  0
ARC
  5
EA6E4F771
330
EA6E4DC92
100
AcDbEntity
  8
JISSEN
100
AcDbCircle
 10
102.8758196140725
 20
225.5857660084442
 30
0.0
 40
2.0
100
AcDbArc
 50
180.0
 51
229.9079913459179
  0
ARC
  5
EA6E4F772
330
EA6E4DC92
100
AcDbEntity
  8
JISSEN
100
AcDbCircle
 10
100.9437688065036
 20
223.2907323100047
 30
0.0
 40
1.0
100
AcDbArc
 50
30.00000000000148
 51
49.90799134590978
  0
ARC
  5
EA6E4F773
330
EA6E4DC92
100
AcDbEntity
  8
JISSEN
100
AcDbCircle
 10
99.37581961407273
 20
230.7589781465566
 30
0.0
 40
2.0
100
AcDbArc
 50
331.0449756281389
 51
0.0
  0
LINE
  5
EA6E4F774
330
EA6E4DC92
100
AcDbEntity
  8
JISSEN
100
AcDbLine
 10
101.3758196140729
 20
233.2907323100045
 30
0.0
 11
101.3758196140729
 21
230.7589781465563
 31
0.0
  0
ARC
  5
EA6E4F775
330
EA6E4DC92
100
AcDbEntity
  8
JISSEN
100
AcDbCircle
 10
102.8758196140727
 20
228.8224864734528
 30
0.0
 40
2.0
100
AcDbArc
 50
151.0449756281395
 51
180.0
  0
ARC
  5
EA6E4F776
330
EA6E4DC92
100
AcDbEntity
  8
JISSEN
100
AcDbCircle
 10
100.3758196140724
 20
235.2907323100047
 30
0.0
 40
1.0
100
AcDbArc
 50
0.0
 51
90.0
  0
ARC
  5
EA6E4F777
330
EA6E4DC92
100
AcDbEntity
  8
JISSEN
100
AcDbCircle
 10
98.87581961407249
 20
237.7907323100047
 30
0.0
 40
1.5
100
AcDbArc
 50
180.0
 51
270.0
  0
LINE
  5
EA6E4F778
330
EA6E4DC92
100
AcDbEntity
  8
JISSEN
100
AcDbLine
 10
101.3758196140727
 20
233.2907323100045
 30
0.0
 11
101.3758196140727
 21
235.2907323100045
 31
0.0
  0
LINE
  5
EA6E4F779
330
EA6E4DC92
100
AcDbEntity
  8
JISSEN
100
AcDbLine
 10
110.6758196140726
 20
227.2907323100044
 30
0.0
 11
114.8758196140727
 21
227.2907323100042
 31
0.0
  0
LINE
  5
EA6E4F77A
330
EA6E4DC92
100
AcDbEntity
  8
JISSEN
100
AcDbLine
 10
123.8758196140725
 20
246.7907323100045
 30
0.0
 11
123.8758196140725
 21
224.7907323100045
 31
0.0
  0
LINE
  5
EA6E4F77B
330
EA6E4DC92
100
AcDbEntity
  8
JISSEN
100
AcDbLine
 10
114.8758196140724
 20
247.7907323100045
 30
0.0
 11
114.8758196140727
 21
224.4099428021469
 31
0.0
  0
LINE
  5
EA6E4F77C
330
EA6E4DC92
100
AcDbEntity
  8
JISSEN
100
AcDbLine
 10
97.37581961407272
 20
248.4247069062199
 30
0.0
 11
97.37581961407272
 21
237.7907323100044
 31
0.0
  0
LINE
  5
EA6E4F77D
330
EA6E4DC92
100
AcDbEntity
  8
JISSEN
100
AcDbLine
 10
101.6758196140729
 20
222.33077227505
 30
0.0
 11
101.6758196140729
 21
208.0227232248938
 31
0.0
  0
ARC
  5
EA6E4F77E
330
EA6E4DC92
100
AcDbEntity
  8
JISSEN
100
AcDbCircle
 10
117.319694613622
 20
215.2907323100047
 30
0.0
 40
19.09999999999986
100
AcDbArc
 50
158.2382329261183
 51
201.7617670738816
  0
LINE
  5
EA6E4F77F
330
EA6E4DC92
100
AcDbEntity
  8
JISSEN
100
AcDbLine
 10
109.6758196140729
 20
223.2907323100042
 30
0.0
 11
109.6758196140729
 21
207.2907323100049
 31
0.0
  0
ARC
  5
EA6E4F780
330
EA6E4DC92
100
AcDbEntity
  8
JISSEN
100
AcDbCircle
 10
102.137714392076
 20
204.6342467172595
 30
0.0
 40
2.0
100
AcDbArc
 50
117.6874777923232
 51
166.4565562290798
  0
LINE
  5
EA6E4F781
330
EA6E4DC92
100
AcDbEntity
  8
JISSEN
100
AcDbLine
 10
109.6758196140726
 20
207.2907323100045
 30
0.0
 11
102.4758196140728
 21
207.2907323100045
 31
0.0
  0
ARC
  5
EA6E4F782
330
EA6E4DC92
100
AcDbEntity
  8
JISSEN
100
AcDbCircle
 10
100.7437688065037
 20
207.2907323100047
 30
0.0
 40
1.0
100
AcDbArc
 50
297.6874777923232
 51
330.0000000000116
  0
ARC
  5
EA6E4F783
330
EA6E4DC92
100
AcDbEntity
  8
JISSEN
100
AcDbCircle
 10
102.4758196140726
 20
206.2907323100051
 30
0.0
 40
1.0
100
AcDbArc
 50
90.0
 51
149.999999999999
  0
LINE
  5
EA6E4F784
330
EA6E4DC92
100
AcDbEntity
  8
JISSEN
100
AcDbLine
 10
110.6758196140726
 20
207.5407323100045
 30
0.0
 11
109.6758196140726
 21
207.5407323100045
 31
0.0
  0
LINE
  5
EA6E4F785
330
EA6E4DC92
100
AcDbEntity
  8
JISSEN
100
AcDbLine
 10
109.6758196140729
 20
223.2907323100042
 30
0.0
 11
102.6758196140729
 21
223.2907323100038
 31
0.0
  0
LINE
  5
EA6E4F786
330
EA6E4DC92
100
AcDbEntity
  8
JISSEN
100
AcDbLine
 10
110.6758196140726
 20
223.0407323100044
 30
0.0
 11
109.6758196140726
 21
223.0407323100044
 31
0.0
  0
ARC
  5
EA6E4F787
330
EA6E4DC92
100
AcDbEntity
  8
JISSEN
100
AcDbCircle
 10
122.8758196140725
 20
204.2907323100049
 30
0.0
 40
1.0
100
AcDbArc
 50
270.0
 51
0.0
  0
LINE
  5
EA6E4F788
330
EA6E4DC92
100
AcDbEntity
  8
JISSEN
100
AcDbLine
 10
117.510768339456
 20
203.2907323100047
 30
0.0
 11
122.8758196140727
 21
203.2907323100047
 31
0.0
  0
ARC
  5
EA6E4F789
330
EA6E4DC92
100
AcDbEntity
  8
JISSEN
100
AcDbCircle
 10
95.37581961407273
 20
199.3658611793952
 30
0.0
 40
3.0
100
AcDbArc
 50
329.9999999998336
 51
0.0
  0
LINE
  5
EA6E4F78A
330
EA6E4DC92
100
AcDbEntity
  8
JISSEN
100
AcDbLine
 10
96.77581961407282
 20
194.9868847327062
 30
0.0
 11
96.77581961407305
 21
194.0945798872977
 31
0.0
  0
LINE
  5
EA6E4F78B
330
EA6E4DC92
100
AcDbEntity
  8
JISSEN
100
AcDbLine
 10
96.77581961407282
 20
194.9868847327062
 30
0.0
 11
96.77581961407305
 21
194.0945798872977
 31
0.0
  0
LINE
  5
EA6E4F78C
330
EA6E4DC92
100
AcDbEntity
  8
JISSEN
100
AcDbLine
 10
97.17774340272377
 20
196.4868847327142
 30
0.0
 11
97.97389582542201
 21
197.8658611793877
 31
0.0
  0
ARC
  5
EA6E4F78D
330
EA6E4DC92
100
AcDbEntity
  8
JISSEN
100
AcDbCircle
 10
99.7758196140726
 20
194.9868847327069
 30
0.0
 40
3.0
100
AcDbArc
 50
149.9999999998336
 51
180.0
  0
LINE
  5
EA6E4F78E
330
EA6E4DC92
100
AcDbEntity
  8
JISSEN
100
AcDbLine
 10
97.17774340271944
 20
192.5945798873018
 30
0.0
 11
97.87581961407296
 21
191.3854764216831
 31
0.0
  0
ARC
  5
EA6E4F78F
330
EA6E4DC92
100
AcDbEntity
  8
JISSEN
100
AcDbCircle
 10
99.77581961407281
 20
194.0945798872984
 30
0.0
 40
3.0
100
AcDbArc
 50
180.0
 51
210.0000000000014
  0
ARC
  5
EA6E4F790
330
EA6E4DC92
100
AcDbEntity
  8
JISSEN
100
AcDbCircle
 10
100.3758196140729
 20
201.2548339251424
 30
0.0
 40
2.0
100
AcDbArc
 50
149.9999999999985
 51
180.0
  0
LINE
  5
EA6E4F791
330
EA6E4DC92
100
AcDbEntity
  8
JISSEN
100
AcDbLine
 10
98.64376880650411
 20
202.2548339251421
 30
0.0
 11
99.98099466356439
 21
204.5709770507654
 31
0.0
  0
LINE
  5
EA6E4F792
330
EA6E4DC92
100
AcDbEntity
  8
JISSEN
100
AcDbLine
 10
98.37581961407295
 20
201.2548339251421
 30
0.0
 11
98.37581961407295
 21
199.3658611793949
 31
0.0
  0
LINE
  5
EA6E4F793
330
EA6E4DC92
100
AcDbEntity
  8
JISSEN
100
AcDbLine
 10
110.6758196140726
 20
203.2907323100047
 30
0.0
 11
114.8758196140727
 21
203.2907323100047
 31
0.0
  0
LINE
  5
EA6E4F794
330
EA6E4DC92
100
AcDbEntity
  8
JISSEN
100
AcDbLine
 10
110.6758196140726
 20
203.2907323100047
 30
0.0
 11
110.6758196140726
 21
215.2907323100044
 31
0.0
  0
ARC
  5
EA6E4F795
330
EA6E4DC92
100
AcDbEntity
  8
JISSEN
100
AcDbCircle
 10
98.24894385599533
 20
205.5709770507657
 30
0.0
 40
2.0
100
AcDbArc
 50
329.9999999999985
 51
346.4565562290798
  0
ARC
  5
EA6E4F796
330
EA6E4DC92
100
AcDbEntity
  8
JISSEN
100
AcDbCircle
 10
24.32809236728894
 20
215.2907323100047
 30
0.0
 40
100.0
100
AcDbArc
 50
354.5486801875806
 51
5.451319812419296
  0
ARC
  5
EA6E4F797
330
EA6E4DC92
100
AcDbEntity
  8
JISSEN
100
AcDbCircle
 10
102.6758196140726
 20
224.2907323100047
 30
0.0
 40
1.0
100
AcDbArc
 50
210.0000000000014
 51
270.0
  0
LINE
  5
EA6E4F798
330
EA6E4DC92
100
AcDbEntity
  8
JISSEN
100
AcDbLine
 10
110.6758196140726
 20
227.2907323100044
 30
0.0
 11
110.6758196140726
 21
215.2907323100044
 31
0.0
  0
ARC
  5
EA6E4F799
330
EA6E4DC92
100
AcDbEntity
  8
JISSEN
100
AcDbCircle
 10
86.80741281573181
 20
225.0590166091297
 30
0.0
 40
23.94304056628008
100
AcDbArc
 50
77.39205672898835
 51
102.6079432710116
  0
LINE
  5
EA6E4F79A
330
EA6E4DC92
100
AcDbEntity
  8
JISSEN
100
AcDbLine
 10
80.17047827191936
 20
248.4247069062199
 30
0.0
 11
80.87581961407272
 21
248.4247069062199
 31
0.0
  0
LINE
  5
EA6E4F79B
330
EA6E4DC92
100
AcDbEntity
  8
JISSEN
100
AcDbLine
 10
81.58116095622608
 20
248.4247069062199
 30
0.0
 11
80.87581961407272
 21
248.4247069062199
 31
0.0
  0
LINE
  5
EA6E4F79C
330
EA6E4DC92
100
AcDbEntity
  8
JISSEN
100
AcDbLine
 10
93.03116796741278
 20
248.4247069062199
 30
0.0
 11
92.03366467523734
 21
248.4247069062199
 31
0.0
  0
LINE
  5
EA6E4F79D
330
EA6E4DC92
100
AcDbEntity
  8
SAISEN
 62
     4
100
AcDbLine
 10
92.95730490818959
 20
254.2907323100055
 30
0.0
 11
92.80105490818971
 21
249.2907323100056
 31
0.0
  0
ARC
  5
EA6E4F79E
330
EA6E4DC92
100
AcDbEntity
  8
JISSEN
100
AcDbCircle
 10
66.54814543740235
 20
244.6266578618582
 30
0.0
 40
4.375405812731608
100
AcDbArc
 50
60.23224209098206
 51
119.7677579090179
  0
LINE
  5
EA6E4F79F
330
EA6E4DC92
100
AcDbEntity
  8
JISSEN
100
AcDbLine
 10
65.87581961407273
 20
249.2907323100045
 30
0.0
 11
64.37581961407272
 21
248.4247069062199
 31
0.0
  0
LINE
  5
EA6E4F7A0
330
EA6E4DC92
100
AcDbEntity
  8
JISSEN
100
AcDbLine
 10
68.72047126073266
 20
248.4247069062199
 30
0.0
 11
69.71797455290834
 21
248.4247069062199
 31
0.0
  0
LINE
  5
EA6E4F7A1
330
EA6E4DC92
100
AcDbEntity
  8
SAISEN
 62
     4
100
AcDbLine
 10
68.95058431995426
 20
249.2907323100056
 30
0.0
 11
68.79433431995403
 21
254.2907323100055
 31
0.0
  0
LINE
  5
EA6E4F7A2
330
EA6E4DC92
100
AcDbEntity
  8
1
 62
     7
100
AcDbLine
 10
67.40563211407198
 20
257.7607323100055
 30
0.0
 11
67.6703196140719
 21
249.2907323100056
 31
0.0
  0
LINE
  5
EA6E4F7A3
330
EA6E4DC92
100
AcDbEntity
  8
SAISEN
 62
     4
100
AcDbLine
 10
68.79433431995403
 20
254.2907323100055
 30
0.0
 11
67.44080784454695
 21
256.6351089348004
 31
0.0
  0
ARC
  5
EA6E4F7A4
330
EA6E4DC92
100
AcDbEntity
  8
JISSEN
100
AcDbCircle
 10
74.94422641241363
 20
225.0590166091297
 30
0.0
 40
23.94304056628008
100
AcDbArc
 50
77.39205672898835
 51
102.6079432710116
  0
LINE
  5
EA6E4F7A5
330
EA6E4DC92
100
AcDbEntity
  8
JISSEN
100
AcDbLine
 10
65.87581961407273
 20
249.2907323100045
 30
0.0
 11
80.87581961407272
 21
249.2907323100045
 31
0.0
  0
LINE
  5
EA6E4F7A6
330
EA6E4DC92
100
AcDbEntity
  8
JISSEN
100
AcDbLine
 10
60.87581961407273
 20
228.8224864734526
 30
0.0
 11
60.87581961407273
 21
224.3105592278076
 31
0.0
  0
ARC
  5
EA6E4F7A7
330
EA6E4DC92
100
AcDbEntity
  8
JISSEN
100
AcDbCircle
 10
62.37581961407227
 20
230.7589781465566
 30
0.0
 40
2.0
100
AcDbArc
 50
180.0
 51
208.9550243718604
  0
LINE
  5
EA6E4F7A8
330
EA6E4DC92
100
AcDbEntity
  8
JISSEN
100
AcDbLine
 10
60.37581961407273
 20
233.2907323100045
 30
0.0
 11
60.37581961407273
 21
230.7589781465563
 31
0.0
  0
ARC
  5
EA6E4F7A9
330
EA6E4DC92
100
AcDbEntity
  8
JISSEN
100
AcDbCircle
 10
58.87581961407227
 20
228.8224864734528
 30
0.0
 40
2.0
100
AcDbArc
 50
0.0
 51
28.95502437186047
  0
ARC
  5
EA6E4F7AA
330
EA6E4DC92
100
AcDbEntity
  8
JISSEN
100
AcDbCircle
 10
61.37581961407249
 20
235.2907323100047
 30
0.0
 40
1.0
100
AcDbArc
 50
90.0
 51
180.0
  0
LINE
  5
EA6E4F7AB
330
EA6E4DC92
100
AcDbEntity
  8
JISSEN
100
AcDbLine
 10
60.37581961407273
 20
233.2907323100045
 30
0.0
 11
60.37581961407273
 21
235.2907323100045
 31
0.0
  0
ARC
  5
EA6E4F7AC
330
EA6E4DC92
100
AcDbEntity
  8
JISSEN
100
AcDbCircle
 10
62.8758196140725
 20
237.7907323100047
 30
0.0
 40
1.5
100
AcDbArc
 50
270.0
 51
0.0
  0
LINE
  5
EA6E4F7AD
330
EA6E4DC92
100
AcDbEntity
  8
JISSEN
100
AcDbLine
 10
60.37581961407273
 20
233.2907323100045
 30
0.0
 11
80.87581961407272
 21
233.2907323100045
 31
0.0
  0
LINE
  5
EA6E4F7AE
330
EA6E4DC92
100
AcDbEntity
  8
JISSEN
100
AcDbLine
 10
60.37581961407273
 20
233.2907323100045
 30
0.0
 11
80.87581961407272
 21
233.2907323100045
 31
0.0
  0
LINE
  5
EA6E4F7AF
330
EA6E4DC92
100
AcDbEntity
  8
JISSEN
100
AcDbLine
 10
61.62581961407295
 20
229.7907323100042
 30
0.0
 11
80.87581961407272
 21
229.7907323100042
 31
0.0
  0
LINE
  5
EA6E4F7B0
330
EA6E4DC92
100
AcDbEntity
  8
JISSEN
100
AcDbLine
 10
61.37581961407272
 20
236.2907323100045
 30
0.0
 11
80.87581961407272
 21
236.2907323100045
 31
0.0
  0
LINE
  5
EA6E4F7B1
330
EA6E4DC92
100
AcDbEntity
  8
JISSEN
100
AcDbLine
 10
81.58116095622608
 20
248.4247069062199
 30
0.0
 11
81.58116095622608
 21
237.7907323100044
 31
0.0
  0
LINE
  5
EA6E4F7B2
330
EA6E4DC92
100
AcDbEntity
  8
JISSEN
100
AcDbLine
 10
80.17047827191936
 20
248.4247069062199
 30
0.0
 11
80.17047827191936
 21
237.7907323100044
 31
0.0
  0
LINE
  5
EA6E4F7B3
330
EA6E4DC92
100
AcDbEntity
  8
JISSEN
100
AcDbLine
 10
93.03116796741278
 20
248.4247069062199
 30
0.0
 11
93.03116796741278
 21
237.7907323100044
 31
0.0
  0
LINE
  5
EA6E4F7B4
330
EA6E4DC92
100
AcDbEntity
  8
JISSEN
100
AcDbLine
 10
92.03366467523711
 20
248.4247069062199
 30
0.0
 11
92.03366467523711
 21
237.7907323100044
 31
0.0
  0
LINE
  5
EA6E4F7B5
330
EA6E4DC92
100
AcDbEntity
  8
JISSEN
100
AcDbLine
 10
68.72047126073266
 20
248.4247069062199
 30
0.0
 11
68.72047126073266
 21
237.7907323100044
 31
0.0
  0
LINE
  5
EA6E4F7B6
330
EA6E4DC92
100
AcDbEntity
  8
JISSEN
100
AcDbLine
 10
69.71797455290834
 20
248.4247069062199
 30
0.0
 11
69.71797455290834
 21
237.7907323100044
 31
0.0
  0
LINE
  5
EA6E4F7B7
330
EA6E4DC92
100
AcDbEntity
  8
JISSEN
100
AcDbLine
 10
64.37581961407272
 20
248.4247069062199
 30
0.0
 11
64.37581961407272
 21
237.7907323100044
 31
0.0
  0
LINE
  5
EA6E4F7B8
330
EA6E4DC92
100
AcDbEntity
  8
JISSEN
100
AcDbLine
 10
75.37581961407295
 20
219.2907323100044
 30
0.0
 11
86.37581961407295
 21
208.2907323100042
 31
0.0
  0
TEXT
  5
EA6E4F7B9
330
EA6E4DC92
100
AcDbEntity
  8
JISSEN
100
AcDbText
 10
75.44510329466925
 20
213.6791507539097
 30
0.0
 40
5.5
  1
4
 50
270.0
  7
35FONT
100
AcDbText
  0
TEXT
  5
EA6E4F7BA
330
EA6E4DC92
100
AcDbEntity
  8
JISSEN
100
AcDbText
 10
80.8758196140725
 20
218.7977846992308
 30
0.0
 40
5.5
  1
3
 50
270.0
  7
35FONT
100
AcDbText
  0
LINE
  5
EA6E4F7BB
330
EA6E4DC92
100
AcDbEntity
  8
JISSEN
100
AcDbLine
 10
61.52581961407282
 20
222.1248099283688
 30
0.0
 11
61.52581961407282
 21
205.5309246888685
 31
0.0
  0
LINE
  5
EA6E4F7BC
330
EA6E4DC92
100
AcDbEntity
  8
JISSEN
100
AcDbLine
 10
61.52581961407304
 20
222.1248099283688
 30
0.0
 11
61.52581961407282
 21
206.7988738813002
 31
0.0
  0
ARC
  5
EA6E4F7BD
330
EA6E4DC92
100
AcDbEntity
  8
JISSEN
100
AcDbCircle
 10
59.52581961407236
 20
222.124809928369
 30
0.0
 40
2.0
100
AcDbArc
 50
0.0
 51
33.12294020774521
  0
LINE
  5
EA6E4F7BE
330
EA6E4DC92
100
AcDbEntity
  8
JISSEN
100
AcDbLine
 10
63.29296905675732
 20
204.9950263040065
 30
0.0
 11
80.90243451288779
 21
204.9950263040065
 31
0.0
  0
LINE
  5
EA6E4F7BF
330
EA6E4DC92
100
AcDbEntity
  8
JISSEN
100
AcDbLine
 10
62.25081961407295
 20
223.2907323100044
 30
0.0
 11
80.87581961407272
 21
223.2907323100044
 31
0.0
  0
ARC
  5
EA6E4F7C0
330
EA6E4DC92
100
AcDbEntity
  8
JISSEN
100
AcDbCircle
 10
86.99875453191408
 20
182.0540192793527
 30
0.0
 40
10.73514575069486
100
AcDbArc
 50
60.37086392798227
 51
119.6291360720177
  0
LINE
  5
EA6E4F7C1
330
EA6E4DC92
100
AcDbEntity
  8
JISSEN
100
AcDbLine
 10
81.69147067954872
 20
191.3854764216793
 30
0.0
 11
80.87581961407272
 21
191.3854764216793
 31
0.0
  0
LINE
  5
EA6E4F7C2
330
EA6E4DC92
100
AcDbEntity
  8
JISSEN
100
AcDbLine
 10
80.0601685485965
 20
191.3854764216793
 30
0.0
 11
80.87581961407272
 21
191.3854764216793
 31
0.0
  0
LINE
  5
EA6E4F7C3
330
EA6E4DC92
100
AcDbEntity
  8
JISSEN
100
AcDbLine
 10
93.45954318323993
 20
191.3854764216793
 30
0.0
 11
92.30603838427942
 21
191.3854764216793
 31
0.0
  0
LINE
  5
EA6E4F7C4
330
EA6E4DC92
100
AcDbEntity
  8
JISSEN
100
AcDbLine
 10
63.10787042164133
 20
202.2548339251421
 30
0.0
 11
61.79376880650398
 21
204.5309246888685
 31
0.0
  0
LINE
  5
EA6E4F7C5
330
EA6E4DC92
100
AcDbEntity
  8
JISSEN
100
AcDbLine
 10
63.10787042164133
 20
202.2548339251421
 30
0.0
 11
61.79376880650398
 21
204.5309246888685
 31
0.0
  0
ARC
  5
EA6E4F7C6
330
EA6E4DC92
100
AcDbEntity
  8
JISSEN
100
AcDbCircle
 10
66.37581961407249
 20
199.3658611793952
 30
0.0
 40
3.0
100
AcDbArc
 50
180.0
 51
210.0000000001663
  0
ARC
  5
EA6E4F7C7
330
EA6E4DC92
100
AcDbEntity
  8
JISSEN
100
AcDbCircle
 10
66.08395782948901
 20
190.3538394596761
 30
0.0
 40
2.437242129898773
100
AcDbArc
 50
25.04187037774105
 51
154.9581296222589
  0
LINE
  5
EA6E4F7C8
330
EA6E4DC92
100
AcDbEntity
  8
JISSEN
100
AcDbLine
 10
64.97581961407263
 20
194.9868847327062
 30
0.0
 11
64.97581961407263
 21
194.0945798872977
 31
0.0
  0
LINE
  5
EA6E4F7C9
330
EA6E4DC92
100
AcDbEntity
  8
JISSEN
100
AcDbLine
 10
64.57389582542169
 20
196.4868847327142
 30
0.0
 11
63.77774340272345
 21
197.8658611793877
 31
0.0
  0
ARC
  5
EA6E4F7CA
330
EA6E4DC92
100
AcDbEntity
  8
JISSEN
100
AcDbCircle
 10
61.97581961407263
 20
194.9868847327069
 30
0.0
 40
3.0
100
AcDbArc
 50
359.9999999999869
 51
30.00000000016632
  0
LINE
  5
EA6E4F7CB
330
EA6E4DC92
100
AcDbEntity
  8
JISSEN
100
AcDbLine
 10
64.573895825426
 20
192.5945798872982
 30
0.0
 11
63.87581961407272
 21
191.3854764216793
 31
0.0
  0
ARC
  5
EA6E4F7CC
330
EA6E4DC92
100
AcDbEntity
  8
JISSEN
100
AcDbCircle
 10
61.97581961407241
 20
194.0945798872984
 30
0.0
 40
3.0
100
AcDbArc
 50
329.9999999999985
 51
359.9999999999869
  0
LINE
  5
EA6E4F7CD
330
EA6E4DC92
100
AcDbEntity
  8
JISSEN
100
AcDbLine
 10
68.29209604490552
 20
191.3854764216793
 30
0.0
 11
69.44560084386603
 21
191.3854764216793
 31
0.0
  0
ARC
  5
EA6E4F7CE
330
EA6E4DC92
100
AcDbEntity
  8
JISSEN
100
AcDbCircle
 10
61.37581961407249
 20
201.2548339251424
 30
0.0
 40
2.0
100
AcDbArc
 50
0.0
 51
30.00000000000148
  0
LINE
  5
EA6E4F7CF
330
EA6E4DC92
100
AcDbEntity
  8
JISSEN
100
AcDbLine
 10
63.37581961407249
 20
201.2548339251421
 30
0.0
 11
63.37581961407249
 21
199.3658611793949
 31
0.0
  0
LINE
  5
EA6E4F7D0
330
EA6E4DC92
100
AcDbEntity
  8
JISSEN
100
AcDbLine
 10
65.15327007775931
 20
197.7907323100044
 30
0.0
 11
80.87581961407272
 21
197.7907323100044
 31
0.0
  0
LINE
  5
EA6E4F7D1
330
EA6E4DC92
100
AcDbEntity
  8
JISSEN
100
AcDbLine
 10
65.82342504256985
 20
193.2907323100047
 30
0.0
 11
80.87581961407272
 21
193.2907323100047
 31
0.0
  0
LINE
  5
EA6E4F7D2
330
EA6E4DC92
100
AcDbEntity
  8
JISSEN
100
AcDbLine
 10
66.14920924774651
 20
195.7907323100047
 30
0.0
 11
80.87581961407272
 21
195.7907323100047
 31
0.0
  0
LINE
  5
EA6E4F7D3
330
EA6E4DC92
100
AcDbEntity
  8
JISSEN
100
AcDbLine
 10
65.82342504256985
 20
193.2907323100047
 30
0.0
 11
80.87581961407272
 21
193.2907323100047
 31
0.0
  0
ARC
  5
EA6E4F7D4
330
EA6E4DC92
100
AcDbEntity
  8
JISSEN
100
AcDbCircle
 10
74.75288469623092
 20
182.0540192793531
 30
0.0
 40
10.7351457506943
100
AcDbArc
 50
60.37086392798227
 51
119.6291360720177
  0
LINE
  5
EA6E4F7D5
330
EA6E4DC92
100
AcDbEntity
  8
JISSEN
100
AcDbLine
 10
64.62353634204283
 20
201.7907323100045
 30
0.0
 11
80.87581961407272
 21
201.7907323100045
 31
0.0
  0
ARC
  5
EA6E4F7D6
330
EA6E4DC92
100
AcDbEntity
  8
JISSEN
100
AcDbCircle
 10
63.52581961407259
 20
205.5309246888688
 30
0.0
 40
2.0
100
AcDbArc
 50
180.0
 51
210.0000000000014
  0
ARC
  5
EA6E4F7D7
330
EA6E4DC92
100
AcDbEntity
  8
JISSEN
100
AcDbCircle
 10
63.52581961407259
 20
205.5309246888688
 30
0.0
 40
2.0
100
AcDbArc
 50
180.0
 51
210.0000000000014
  0
ARC
  5
EA6E4F7D8
330
EA6E4DC92
100
AcDbEntity
  8
JISSEN
100
AcDbCircle
 10
62.87581961407227
 20
224.3105592278083
 30
0.0
 40
2.0
100
AcDbArc
 50
180.0
 51
213.1229402077452
  0
ARC
  5
EA6E4F7D9
330
EA6E4DC92
100
AcDbEntity
  8
JISSEN
100
AcDbCircle
 10
95.66768139865713
 20
190.3538394596747
 30
0.0
 40
2.437242129900246
100
AcDbArc
 50
25.04187037787394
 51
154.958129622243
  0
LINE
  5
EA6E4F7DA
330
EA6E4DC92
100
AcDbEntity
  8
JISSEN
100
AcDbLine
 10
96.59836915038614
 20
197.7907323100044
 30
0.0
 11
80.87581961407272
 21
197.7907323100044
 31
0.0
  0
LINE
  5
EA6E4F7DB
330
EA6E4DC92
100
AcDbEntity
  8
JISSEN
100
AcDbLine
 10
98.48528507020319
 20
204.9950263040065
 30
0.0
 11
80.87581961407272
 21
204.9950263040065
 31
0.0
  0
LINE
  5
EA6E4F7DC
330
EA6E4DC92
100
AcDbEntity
  8
JISSEN
100
AcDbLine
 10
97.12810288610263
 20
201.7907323100045
 30
0.0
 11
80.87581961407272
 21
201.7907323100045
 31
0.0
  0
LINE
  5
EA6E4F7DD
330
EA6E4DC92
100
AcDbEntity
  8
JISSEN
100
AcDbLine
 10
99.50081961407249
 20
223.2907323100044
 30
0.0
 11
80.87581961407272
 21
223.2907323100044
 31
0.0
  0
LINE
  5
EA6E4F7DE
330
EA6E4DC92
100
AcDbEntity
  8
JISSEN
100
AcDbLine
 10
95.60242998039894
 20
195.7907323100047
 30
0.0
 11
80.87581961407272
 21
195.7907323100047
 31
0.0
  0
LINE
  5
EA6E4F7DF
330
EA6E4DC92
100
AcDbEntity
  8
JISSEN
100
AcDbLine
 10
95.92821418557537
 20
193.2907323100042
 30
0.0
 11
80.8758196140725
 21
193.2907323100047
 31
0.0
  0
LINE
  5
EA6E4F7E0
330
EA6E4DC92
100
AcDbEntity
  8
JISSEN
100
AcDbLine
 10
95.92821418557537
 20
193.2907323100042
 30
0.0
 11
80.8758196140725
 21
193.2907323100047
 31
0.0
  0
LINE
  5
EA6E4F7E1
330
EA6E4DC92
100
AcDbEntity
  8
JISSEN
100
AcDbLine
 10
100.1258196140724
 20
229.7907323100042
 30
0.0
 11
80.87581961407272
 21
229.7907323100042
 31
0.0
  0
LINE
  5
EA6E4F7E2
330
EA6E4DC92
100
AcDbEntity
  8
JISSEN
100
AcDbLine
 10
101.3758196140727
 20
233.2907323100045
 30
0.0
 11
80.87581961407272
 21
233.2907323100045
 31
0.0
  0
LINE
  5
EA6E4F7E3
330
EA6E4DC92
100
AcDbEntity
  8
JISSEN
100
AcDbLine
 10
101.3758196140727
 20
233.2907323100045
 30
0.0
 11
80.87581961407272
 21
233.2907323100045
 31
0.0
  0
LINE
  5
EA6E4F7E4
330
EA6E4DC92
100
AcDbEntity
  8
JISSEN
100
AcDbLine
 10
100.3758196140727
 20
236.2907323100045
 30
0.0
 11
80.87581961407272
 21
236.2907323100045
 31
0.0
  0
ARC
  5
EA6E4F7E5
330
EA6E4DC92
100
AcDbEntity
  8
JISSEN
100
AcDbCircle
 10
95.20349379074264
 20
244.6266578618582
 30
0.0
 40
4.375405812731608
100
AcDbArc
 50
60.23224209098206
 51
119.7677579090179
  0
LINE
  5
EA6E4F7E6
330
EA6E4DC92
100
AcDbEntity
  8
JISSEN
100
AcDbLine
 10
95.87581961407272
 20
249.2907323100045
 30
0.0
 11
80.87581961407272
 21
249.2907323100045
 31
0.0
  0
LINE
  5
EA6E4F7E7
330
EA6E4DC92
100
AcDbEntity
  8
1
 62
     7
100
AcDbLine
 10
62.40061100000389
 20
257.7607323100055
 30
0.0
 11
99.35102822813997
 21
257.7607323100055
 31
0.0
  0
LINE
  5
EA6E4F7E8
330
EA6E4DC92
100
AcDbEntity
  8
SAISEN
 62
     4
100
AcDbLine
 10
67.51406961407202
 20
254.2907323100055
 30
0.0
 11
94.23756961407184
 21
254.2907323100055
 31
0.0
  0
LINE
  5
EA6E4F7E9
330
EA6E4DC92
100
AcDbEntity
  8
SAISEN
 62
     4
100
AcDbLine
 10
94.31083138359667
 20
256.6351089348004
 30
0.0
 11
92.95730490818959
 21
254.2907323100055
 31
0.0
  0
LINE
  5
EA6E4F7EA
330
EA6E4DC92
100
AcDbEntity
  8
1
 62
     7
100
AcDbLine
 10
71.63821530703785
 20
268.7607323100055
 30
0.0
 11
71.63821530703785
 21
257.7607323100055
 31
0.0
  0
LINE
  5
EA6E4F7EB
330
EA6E4DC92
100
AcDbEntity
  8
1
 62
     7
100
AcDbLine
 10
90.113423921106
 20
257.7607323100055
 30
0.0
 11
90.113423921106
 21
268.7607323100055
 31
0.0
  0
LINE
  5
EA6E4F7EC
330
EA6E4DC92
100
AcDbEntity
  8
1
 62
     7
100
AcDbLine
 10
62.40061100000389
 20
268.7607323100055
 30
0.0
 11
62.40061100000389
 21
257.7607323100055
 31
0.0
  0
LINE
  5
EA6E4F7ED
330
EA6E4DC92
100
AcDbEntity
  8
1
 62
     7
100
AcDbLine
 10
99.35102822813997
 20
257.7607323100055
 30
0.0
 11
99.35102822813997
 21
268.7607323100055
 31
0.0
  0
LINE
  5
EA6E4F7EE
330
EA6E4DC92
100
AcDbEntity
  8
ITTEN
100
AcDbLine
 10
142.8558196140718
 20
395.7207323099674
 30
0.0
 11
142.8558196140718
 21
300.5863343465407
 31
0.0
  0
LINE
  5
EA6E4F7EF
330
EA6E4DC92
100
AcDbEntity
  8
JISSEN
  6
DASHDOT
100
AcDbLine
 10
135.8558196140718
 20
330.7207323100058
 30
0.0
 11
135.8558196140718
 21
339.6439226892011
 31
0.0
  0
LINE
  5
EA6E4F7F0
330
EA6E4DC92
100
AcDbEntity
  8
JISSEN
  6
DASHDOT
100
AcDbLine
 10
149.8558196140718
 20
330.7207323100058
 30
0.0
 11
149.8558196140718
 21
339.6439226892011
 31
0.0
  0
LINE
  5
EA6E4F7F1
330
EA6E4DC92
100
AcDbEntity
  8
NITEN
100
AcDbLine
 10
67.43562518544201
 20
334.5751089348007
 30
0.0
 11
67.6651369549669
 21
327.2307323100058
 31
0.0
  0
LINE
  5
EA6E4F7F2
330
EA6E4DC92
100
AcDbEntity
  8
NITEN
100
AcDbLine
 10
94.07613695496683
 20
327.2307323100057
 30
0.0
 11
94.30564872449162
 21
334.5751089348006
 31
0.0
  0
LINE
  5
EA6E4F7F3
330
EA6E4DC92
100
AcDbEntity
  8
ITTEN
  6
CENTER
 62
     1
100
AcDbLine
 10
175.051421496028
 20
302.2307323100058
 30
0.0
 11
78.42197624833852
 21
302.2307323100058
 31
0.0
  0
LINE
  5
EA6E4F7F4
330
EA6E4DC92
100
AcDbEntity
  8
JISSEN
100
AcDbLine
 10
170.2058196140717
 20
297.2307323100059
 30
0.0
 11
170.8605790882984
 21
297.2307323100059
 31
0.0
  0
LINE
  5
EA6E4F7F5
330
EA6E4DC92
100
AcDbEntity
  8
JISSEN
100
AcDbLine
 10
170.2058196140717
 20
307.2307323100059
 30
0.0
 11
170.8605790882984
 21
307.2307323100059
 31
0.0
  0
LINE
  5
EA6E4F7F6
330
EA6E4DC92
100
AcDbEntity
  8
ITTEN
  6
CENTER
 62
     1
100
AcDbLine
 10
172.85581961405
 20
365.7207323100058
 30
0.0
 11
112.8558196140936
 21
365.7207323100058
 31
0.0
  0
LINE
  5
EA6E4F7F7
330
EA6E4DC92
100
AcDbEntity
  8
SAISEN
100
AcDbLine
 10
315.428215288606
 20
177.1907323100043
 30
0.0
 11
316.6287626029059
 21
175.957218252401
 31
0.0
  0
LINE
  5
EA6E4F7F8
330
EA6E4DC92
100
AcDbEntity
  8
SAISEN
100
AcDbLine
 10
315.3000902886058
 20
181.2907323100042
 30
0.0
 11
315.428215288606
 21
177.1907323100043
 31
0.0
  0
LINE
  5
EA6E4F7F9
330
EA6E4DC92
100
AcDbEntity
  8
JISSEN
100
AcDbLine
 10
318.7269027886066
 20
181.290732310005
 30
0.0
 11
320.2269027886068
 21
182.156757713789
 31
0.0
  0
LINE
  5
EA6E4F7FA
330
EA6E4DC92
100
AcDbEntity
  8
JISSEN
100
AcDbLine
 10
316.6495902886051
 20
175.2907323100042
 30
0.0
 11
316.4620902886051
 21
181.2907323100042
 31
0.0
  0
ARC
  5
EA6E4F7FB
330
EA6E4DC92
100
AcDbEntity
  8
JISSEN
100
AcDbCircle
 10
318.01876457319
 20
186.0906306655841
 30
0.0
 40
4.511233842226582
100
AcDbArc
 50
240.6938897373477
 51
299.3061102626521
  0
LINE
  5
EA6E4F7FC
330
EA6E4DC92
100
AcDbEntity
  8
JISSEN
100
AcDbLine
 10
315.8106263577735
 20
182.1567577137893
 30
0.0
 11
314.6571215588132
 21
182.1567577137893
 31
0.0
  0
ARC
  5
EA6E4F7FD
330
EA6E4DC92
100
AcDbEntity
  8
JISSEN
100
AcDbCircle
 10
307.2269027886063
 20
184.790732310004
 30
0.0
 40
2.0
100
AcDbArc
 50
270.0
 51
0.0
  0
LINE
  5
EA6E4F7FE
330
EA6E4DC92
100
AcDbEntity
  8
JISSEN
100
AcDbLine
 10
318.7269027886066
 20
181.290732310005
 30
0.0
 11
320.2269027886066
 21
182.1567577137893
 31
0.0
  0
LINE
  5
EA6E4F7FF
330
EA6E4DC92
100
AcDbEntity
  8
JISSEN
100
AcDbLine
 10
303.2269027886056
 20
175.2907323100042
 30
0.0
 11
289.2269027886056
 21
175.2907323100042
 31
0.0
  0
LINE
  5
EA6E4F800
330
EA6E4DC92
100
AcDbEntity
  8
JISSEN
100
AcDbLine
 10
288.2269027886065
 20
181.290732310005
 30
0.0
 11
303.2269027886066
 21
181.290732310005
 31
0.0
  0
LINE
  5
EA6E4F801
330
EA6E4DC92
100
AcDbEntity
  8
JISSEN
100
AcDbLine
 10
287.7269027886065
 20
181.290732310005
 30
0.0
 11
303.2269027886066
 21
181.290732310005
 31
0.0
  0
LINE
  5
EA6E4F802
330
EA6E4DC92
100
AcDbEntity
  8
SAISEN
100
AcDbLine
 10
291.1537152886055
 20
181.2907323100042
 30
0.0
 11
291.0255902886053
 21
177.1907323100043
 31
0.0
  0
LINE
  5
EA6E4F803
330
EA6E4DC92
100
AcDbEntity
  8
JISSEN
100
AcDbLine
 10
289.9917152886052
 20
181.2907323100042
 30
0.0
 11
289.8042152886052
 21
175.2907323100042
 31
0.0
  0
LINE
  5
EA6E4F804
330
EA6E4DC92
100
AcDbEntity
  8
SAISEN
100
AcDbLine
 10
291.0255902886053
 20
177.1907323100043
 30
0.0
 11
289.8250429743054
 21
175.957218252401
 31
0.0
  0
ARC
  5
EA6E4F805
330
EA6E4DC92
100
AcDbEntity
  8
JISSEN
100
AcDbCircle
 10
296.2269027886057
 20
159.0291614927011
 30
0.0
 40
16.26157081730309
100
AcDbArc
 50
64.50307092404279
 51
115.4969290759572
  0
LINE
  5
EA6E4F806
330
EA6E4DC92
100
AcDbEntity
  8
JISSEN
100
AcDbLine
 10
299.7269027886066
 20
185.2907323100047
 30
0.0
 11
303.2269027886066
 21
185.2907323100047
 31
0.0
  0
LINE
  5
EA6E4F807
330
EA6E4DC92
100
AcDbEntity
  8
JISSEN
100
AcDbLine
 10
299.2269027886066
 20
182.7907323100043
 30
0.0
 11
303.2269027886066
 21
182.7907323100043
 31
0.0
  0
LINE
  5
EA6E4F808
330
EA6E4DC92
100
AcDbEntity
  8
JISSEN
100
AcDbLine
 10
287.7269027886065
 20
181.290732310005
 30
0.0
 11
303.2269027886066
 21
181.290732310005
 31
0.0
  0
ARC
  5
EA6E4F809
330
EA6E4DC92
100
AcDbEntity
  8
JISSEN
100
AcDbCircle
 10
297.1039678707647
 20
206.2616469306279
 30
0.0
 40
24.68223948602874
100
AcDbArc
 50
257.5830409210288
 51
282.4169590789711
  0
LINE
  5
EA6E4F80A
330
EA6E4DC92
100
AcDbEntity
  8
JISSEN
100
AcDbLine
 10
290.6431792194394
 20
182.1567577137893
 30
0.0
 11
291.7966840183996
 21
182.1567577137893
 31
0.0
  0
ARC
  5
EA6E4F80B
330
EA6E4DC92
100
AcDbEntity
  8
JISSEN
100
AcDbCircle
 10
299.2269027886063
 20
184.790732310004
 30
0.0
 40
2.0
100
AcDbArc
 50
180.0
 51
270.0
  0
LINE
  5
EA6E4F80C
330
EA6E4DC92
100
AcDbEntity
  8
JISSEN
100
AcDbLine
 10
302.4112517231303
 20
182.1567577137893
 30
0.0
 11
303.2269027886066
 21
182.1567577137893
 31
0.0
  0
LINE
  5
EA6E4F80D
330
EA6E4DC92
100
AcDbEntity
  8
JISSEN
100
AcDbLine
 10
304.0425538540823
 20
182.1567577137893
 30
0.0
 11
303.2269027886066
 21
182.1567577137893
 31
0.0
  0
LINE
  5
EA6E4F80E
330
EA6E4DC92
100
AcDbEntity
  8
JISSEN
100
AcDbLine
 10
302.4112517231303
 20
182.1567577137893
 30
0.0
 11
302.4112517231303
 21
182.7907323100043
 31
0.0
  0
LINE
  5
EA6E4F80F
330
EA6E4DC92
100
AcDbEntity
  8
JISSEN
100
AcDbLine
 10
304.0425538540823
 20
182.1567577137893
 30
0.0
 11
304.0425538540823
 21
182.7907323100043
 31
0.0
  0
LINE
  5
EA6E4F810
330
EA6E4DC92
100
AcDbEntity
  8
JISSEN
100
AcDbLine
 10
318.7269027886066
 20
181.290732310005
 30
0.0
 11
303.2269027886066
 21
181.290732310005
 31
0.0
  0
LINE
  5
EA6E4F811
330
EA6E4DC92
100
AcDbEntity
  8
SAISEN
100
AcDbLine
 10
316.5902152886053
 20
177.1907323100043
 30
0.0
 11
289.863590288606
 21
177.1907323100041
 31
0.0
  0
ARC
  5
EA6E4F812
330
EA6E4DC92
100
AcDbEntity
  8
JISSEN
100
AcDbCircle
 10
310.2269027886058
 20
159.0291614927011
 30
0.0
 40
16.26157081730309
100
AcDbArc
 50
64.50307092404279
 51
115.4969290759572
  0
LINE
  5
EA6E4F813
330
EA6E4DC92
100
AcDbEntity
  8
JISSEN
100
AcDbLine
 10
303.2269027886056
 20
175.2907323100042
 30
0.0
 11
317.2269027886057
 21
175.2907323100042
 31
0.0
  0
LINE
  5
EA6E4F814
330
EA6E4DC92
100
AcDbEntity
  8
JISSEN
100
AcDbLine
 10
318.7269027886066
 20
181.290732310005
 30
0.0
 11
303.2269027886066
 21
181.290732310005
 31
0.0
  0
LINE
  5
EA6E4F815
330
EA6E4DC92
100
AcDbEntity
  8
JISSEN
100
AcDbLine
 10
307.2269027886065
 20
182.7907323100043
 30
0.0
 11
303.2269027886066
 21
182.7907323100043
 31
0.0
  0
LINE
  5
EA6E4F816
330
EA6E4DC92
100
AcDbEntity
  8
JISSEN
100
AcDbLine
 10
306.7269027886065
 20
185.2907323100047
 30
0.0
 11
303.2269027886066
 21
185.2907323100047
 31
0.0
  0
ARC
  5
EA6E4F817
330
EA6E4DC92
100
AcDbEntity
  8
JISSEN
100
AcDbCircle
 10
309.3498377064477
 20
206.2616469306279
 30
0.0
 40
24.68223948602874
100
AcDbArc
 50
257.5830409210288
 51
282.4169590789711
  0
LINE
  5
EA6E4F818
330
EA6E4DC92
100
AcDbEntity
  8
SAISEN
100
AcDbLine
 10
315.428215288606
 20
163.3907323100041
 30
0.0
 11
316.6287626029059
 21
164.6242463676075
 31
0.0
  0
LINE
  5
EA6E4F819
330
EA6E4DC92
100
AcDbEntity
  8
SAISEN
100
AcDbLine
 10
315.3000902886058
 20
159.2907323100042
 30
0.0
 11
315.428215288606
 21
163.3907323100041
 31
0.0
  0
LINE
  5
EA6E4F81A
330
EA6E4DC92
100
AcDbEntity
  8
JISSEN
100
AcDbLine
 10
316.462090288606
 20
159.2907323100042
 30
0.0
 11
316.6495902886051
 21
165.2907323100042
 31
0.0
  0
LINE
  5
EA6E4F81B
330
EA6E4DC92
100
AcDbEntity
  8
SAISEN
100
AcDbLine
 10
291.1537152886055
 20
159.2907323100042
 30
0.0
 11
291.0255902886053
 21
163.3907323100041
 31
0.0
  0
LINE
  5
EA6E4F81C
330
EA6E4DC92
100
AcDbEntity
  8
JISSEN
100
AcDbLine
 10
289.8042152886052
 20
165.2907323100042
 30
0.0
 11
289.9917152886052
 21
159.2907323100042
 31
0.0
  0
LINE
  5
EA6E4F81D
330
EA6E4DC92
100
AcDbEntity
  8
SAISEN
100
AcDbLine
 10
291.0255902886053
 20
163.3907323100041
 30
0.0
 11
289.8250429743054
 21
164.6242463676075
 31
0.0
  0
ARC
  5
EA6E4F81E
330
EA6E4DC92
100
AcDbEntity
  8
JISSEN
100
AcDbCircle
 10
296.2269027886057
 20
181.5523031273073
 30
0.0
 40
16.26157081730309
100
AcDbArc
 50
244.5030709240427
 51
295.4969290759572
  0
LINE
  5
EA6E4F81F
330
EA6E4DC92
100
AcDbEntity
  8
NITEN
100
AcDbLine
 10
289.6269027886057
 20
159.2907323100042
 30
0.0
 11
316.8269027886058
 21
159.2907323100042
 31
0.0
  0
LINE
  5
EA6E4F820
330
EA6E4DC92
100
AcDbEntity
  8
SAISEN
100
AcDbLine
 10
289.863590288606
 20
163.3907323100041
 30
0.0
 11
316.5902152886053
 21
163.3907323100041
 31
0.0
  0
LINE
  5
EA6E4F821
330
EA6E4DC92
100
AcDbEntity
  8
JISSEN
100
AcDbLine
 10
316.6495902886051
 20
165.2907323100042
 30
0.0
 11
289.2269027886056
 21
165.2907323100042
 31
0.0
  0
ARC
  5
EA6E4F822
330
EA6E4DC92
100
AcDbEntity
  8
JISSEN
100
AcDbCircle
 10
310.2269027886058
 20
181.5523031273073
 30
0.0
 40
16.26157081730309
100
AcDbArc
 50
244.5030709240427
 51
295.4969290759572
  0
LINE
  5
EA6E4F823
330
EA6E4DC92
100
AcDbEntity
  8
JISSEN
100
AcDbLine
 10
289.8042152886062
 20
165.2907323100042
 30
0.0
 11
317.2269027886057
 21
165.2907323100042
 31
0.0
  0
LINE
  5
EA6E4F824
330
EA6E4DC92
100
AcDbEntity
  8
JISSEN
100
AcDbLine
 10
289.2269027886056
 20
175.2907323100042
 30
0.0
 11
289.2269027886056
 21
165.2907323100042
 31
0.0
  0
LINE
  5
EA6E4F825
330
EA6E4DC92
100
AcDbEntity
  8
JISSEN
100
AcDbLine
 10
317.2269027886057
 20
175.2907323100042
 30
0.0
 11
317.2269027886059
 21
165.2907323100042
 31
0.0
  0
LINE
  5
EA6E4F826
330
EA6E4DC92
100
AcDbEntity
  8
JISSEN
100
AcDbLine
 10
287.7269027886065
 20
181.290732310005
 30
0.0
 11
286.2269027886065
 21
182.156757713789
 31
0.0
  0
LINE
  5
EA6E4F827
330
EA6E4DC92
100
AcDbEntity
  8
JISSEN
100
AcDbLine
 10
287.7269027886065
 20
181.290732310005
 30
0.0
 11
286.2269027886063
 21
182.1567577137893
 31
0.0
  0
ARC
  5
EA6E4F828
330
EA6E4DC92
100
AcDbEntity
  8
JISSEN
100
AcDbCircle
 10
288.4350410040226
 20
186.0906306655841
 30
0.0
 40
4.511233842226582
100
AcDbArc
 50
240.6938897373477
 51
299.3061102626522
  0
ARC
  5
EA6E4F829
330
EA6E4DC92
100
AcDbEntity
  8
NITEN
 62
     2
 48
0.5
100
AcDbCircle
 10
296.4269027886057
 20
130.8434822424759
 30
0.0
 40
11.22555938037867
100
AcDbArc
 50
52.71641621260361
 51
127.2835837873963
  0
ARC
  5
EA6E4F82A
330
EA6E4DC92
100
AcDbEntity
  8
NITEN
 62
     2
 48
0.5
100
AcDbCircle
 10
296.4269027886057
 20
148.7066491960042
 30
0.0
 40
11.2255593803785
100
AcDbArc
 50
232.7164162126035
 51
307.2835837873963
  0
ARC
  5
EA6E4F82B
330
EA6E4DC92
100
AcDbEntity
  8
NITEN
 62
     2
 48
0.5
100
AcDbCircle
 10
310.0269027886056
 20
148.7066491960042
 30
0.0
 40
11.22555938037854
100
AcDbArc
 50
232.7164162126035
 51
307.2835837873963
  0
LINE
  5
EA6E4F82C
330
EA6E4DC92
100
AcDbEntity
  8
NITEN
 62
     2
 48
0.5
100
AcDbLine
 10
289.6269027886055
 20
159.2907323100042
 30
0.0
 11
289.6269027886057
 21
139.7750657192401
 31
0.0
  0
LINE
  5
EA6E4F82D
330
EA6E4DC92
100
AcDbEntity
  8
NITEN
 62
     2
 48
0.5
100
AcDbLine
 10
316.8269027886058
 20
159.2907323100042
 30
0.0
 11
316.8269027886058
 21
139.7750657192401
 31
0.0
  0
LINE
  5
EA6E4F82E
330
EA6E4DC92
100
AcDbEntity
  8
JISSEN
100
AcDbLine
 10
122.8758196140725
 20
182.7907323100047
 30
0.0
 11
114.8758196140724
 21
182.7907323100047
 31
0.0
  0
ARC
  5
EA6E4F82F
330
EA6E4DC92
100
AcDbEntity
  8
JISSEN
100
AcDbCircle
 10
122.8758196140725
 20
183.7907323100049
 30
0.0
 40
1.0
100
AcDbArc
 50
270.0
 51
0.0
  0
LINE
  5
EA6E4F830
330
EA6E4DC92
100
AcDbEntity
  8
JISSEN
100
AcDbLine
 10
94.2985071140713
 20
175.2907323100042
 30
0.0
 11
97.0416271513816
 21
173.7069912180442
 31
0.0
  0
LINE
  5
EA6E4F831
330
EA6E4DC92
100
AcDbEntity
  8
JISSEN
100
AcDbLine
 10
94.2985071140713
 20
175.2907323100042
 30
0.0
 11
94.11100711407129
 21
181.2907323100042
 31
0.0
  0
LINE
  5
EA6E4F832
330
EA6E4DC92
100
AcDbEntity
  8
JISSEN
100
AcDbLine
 10
96.37581961407272
 20
181.290732310005
 30
0.0
 11
97.87581961407296
 21
182.156757713789
 31
0.0
  0
LINE
  5
EA6E4F833
330
EA6E4DC92
100
AcDbEntity
  8
JISSEN
100
AcDbLine
 10
94.2985071140713
 20
165.2907323100042
 30
0.0
 11
97.0416271513816
 21
166.8744734019643
 31
0.0
  0
LINE
  5
EA6E4F834
330
EA6E4DC92
100
AcDbEntity
  8
JISSEN
100
AcDbLine
 10
94.1110071140722
 20
159.2907323100042
 30
0.0
 11
94.2985071140713
 21
165.2907323100042
 31
0.0
  0
LINE
  5
EA6E4F835
330
EA6E4DC92
100
AcDbEntity
  8
JISSEN
100
AcDbLine
 10
97.0416271513816
 20
173.7069912180442
 30
0.0
 11
97.0416271513816
 21
166.8744734019643
 31
0.0
  0
LINE
  5
EA6E4F836
330
EA6E4DC92
100
AcDbEntity
  8
NITEN
 62
     2
 48
0.5
100
AcDbLine
 10
94.47581961407184
 20
159.2907323100042
 30
0.0
 11
94.47581961407184
 21
139.7750657192401
 31
0.0
  0
LINE
  5
EA6E4F837
330
EA6E4DC92
100
AcDbEntity
  8
SAISEN
100
AcDbLine
 10
92.94900711407194
 20
181.2907323100042
 30
0.0
 11
93.07713211407213
 21
177.1907323100043
 31
0.0
  0
ARC
  5
EA6E4F838
330
EA6E4DC92
100
AcDbEntity
  8
JISSEN
100
AcDbCircle
 10
80.87581961407181
 20
153.8725947355939
 30
0.0
 40
21.41813757441026
100
AcDbArc
 50
67.82814514481772
 51
90.0
  0
CIRCLE
  5
EA6E4F839
330
EA6E4DC92
100
AcDbEntity
  8
SAISEN
100
AcDbCircle
 10
80.87581961407181
 20
170.2907323100042
 30
0.0
 40
2.5
  0
LINE
  5
EA6E4F83A
330
EA6E4DC92
100
AcDbEntity
  8
SAISEN
100
AcDbLine
 10
78.8966612219931
 20
169.6644757650614
 30
0.0
 11
79.86940866621194
 21
169.0790329547145
 31
0.0
  0
LINE
  5
EA6E4F83B
330
EA6E4DC92
100
AcDbEntity
  8
SAISEN
100
AcDbLine
 10
79.86940866621194
 20
169.0790329547145
 30
0.0
 11
80.5742944962542
 21
168.4865331789172
 31
0.0
  0
LINE
  5
EA6E4F83C
330
EA6E4DC92
100
AcDbEntity
  8
SAISEN
100
AcDbLine
 10
79.86940866621194
 20
169.0790329547145
 30
0.0
 11
82.50569060774727
 21
169.0790329547145
 31
0.0
  0
LINE
  5
EA6E4F83D
330
EA6E4DC92
100
AcDbEntity
  8
SAISEN
100
AcDbLine
 10
79.8623573842699
 20
169.6080454034168
 30
0.0
 11
79.8623573842699
 21
171.6606205521108
 31
0.0
  0
LINE
  5
EA6E4F83E
330
EA6E4DC92
100
AcDbEntity
  8
SAISEN
100
AcDbLine
 10
81.10296265572491
 20
169.7914377382713
 30
0.0
 11
81.10296265572491
 21
171.4842851827066
 31
0.0
  0
LINE
  5
EA6E4F83F
330
EA6E4DC92
100
AcDbEntity
  8
SAISEN
100
AcDbLine
 10
82.50569060774727
 20
169.4387606589733
 30
0.0
 11
82.50569060774727
 21
171.8369622620049
 31
0.0
  0
LINE
  5
EA6E4F840
330
EA6E4DC92
100
AcDbEntity
  8
SAISEN
100
AcDbLine
 10
82.51273810274984
 20
170.6519690509002
 30
0.0
 11
78.8966612219931
 21
170.6519690509002
 31
0.0
  0
ARC
  5
EA6E4F841
330
EA6E4DC92
100
AcDbEntity
  8
JISSEN
100
AcDbCircle
 10
86.99875453191408
 20
206.2616469306284
 30
0.0
 40
24.68223948602874
100
AcDbArc
 50
257.5830409210221
 51
282.4169590789778
  0
LINE
  5
EA6E4F842
330
EA6E4DC92
100
AcDbEntity
  8
JISSEN
100
AcDbLine
 10
80.06016854859671
 20
182.156757713789
 30
0.0
 11
80.87581961407272
 21
182.156757713789
 31
0.0
  0
LINE
  5
EA6E4F843
330
EA6E4DC92
100
AcDbEntity
  8
JISSEN
100
AcDbLine
 10
81.69147067954895
 20
182.156757713789
 30
0.0
 11
80.87581961407272
 21
182.156757713789
 31
0.0
  0
LINE
  5
EA6E4F844
330
EA6E4DC92
100
AcDbEntity
  8
JISSEN
100
AcDbLine
 10
93.45954318323993
 20
182.156757713789
 30
0.0
 11
92.30603838427965
 21
182.156757713789
 31
0.0
  0
ARC
  5
EA6E4F845
330
EA6E4DC92
100
AcDbEntity
  8
JISSEN
100
AcDbCircle
 10
66.47438604993772
 20
162.1970167477789
 30
0.0
 40
13.13024489804019
100
AcDbArc
 50
61.23492063548382
 51
85.72513068120036
  0
LINE
  5
EA6E4F846
330
EA6E4DC92
100
AcDbEntity
  8
SAISEN
100
AcDbLine
 10
68.80263211407168
 20
181.2907323100042
 30
0.0
 11
68.6745071140715
 21
177.1907323100043
 31
0.0
  0
LINE
  5
EA6E4F847
330
EA6E4DC92
100
AcDbEntity
  8
JISSEN
100
AcDbLine
 10
67.64063211407142
 20
181.2907323100042
 30
0.0
 11
67.45313211407142
 21
175.2907323100042
 31
0.0
  0
LINE
  5
EA6E4F848
330
EA6E4DC92
100
AcDbEntity
  8
JISSEN
100
AcDbLine
 10
67.45313211407142
 20
175.2907323100042
 30
0.0
 11
64.71001207676204
 21
173.7069912180442
 31
0.0
  0
LINE
  5
EA6E4F849
330
EA6E4DC92
100
AcDbEntity
  8
SAISEN
100
AcDbLine
 10
68.6745071140715
 20
177.1907323100043
 30
0.0
 11
67.47395979977159
 21
175.957218252401
 31
0.0
  0
ARC
  5
EA6E4F84A
330
EA6E4DC92
100
AcDbEntity
  8
JISSEN
100
AcDbCircle
 10
66.08395782948901
 20
186.0906306655846
 30
0.0
 40
4.511233842226582
100
AcDbArc
 50
240.6938897373477
 51
299.3061102626522
  0
LINE
  5
EA6E4F84B
330
EA6E4DC92
100
AcDbEntity
  8
JISSEN
100
AcDbLine
 10
65.37581961407273
 20
181.290732310005
 30
0.0
 11
63.87581961407272
 21
182.156757713789
 31
0.0
  0
LINE
  5
EA6E4F84C
330
EA6E4DC92
100
AcDbEntity
  8
JISSEN
100
AcDbLine
 10
68.29209604490575
 20
182.156757713789
 30
0.0
 11
69.44560084386603
 21
182.156757713789
 31
0.0
  0
ARC
  5
EA6E4F84D
330
EA6E4DC92
100
AcDbEntity
  8
JISSEN
100
AcDbCircle
 10
80.87581961407181
 20
153.8725947355939
 30
0.0
 40
21.41813757441026
100
AcDbArc
 50
90.0
 51
112.1718548551822
  0
LINE
  5
EA6E4F84E
330
EA6E4DC92
100
AcDbEntity
  8
JISSEN
100
AcDbLine
 10
65.37581961407273
 20
181.290732310005
 30
0.0
 11
80.87581961407272
 21
181.290732310005
 31
0.0
  0
ARC
  5
EA6E4F84F
330
EA6E4DC92
100
AcDbEntity
  8
JISSEN
100
AcDbCircle
 10
74.75288469623115
 20
206.2616469306284
 30
0.0
 40
24.68223948602874
100
AcDbArc
 50
257.5830409210221
 51
282.4169590789778
  0
LINE
  5
EA6E4F850
330
EA6E4DC92
100
AcDbEntity
  8
JISSEN
100
AcDbLine
 10
65.87581961407273
 20
181.290732310005
 30
0.0
 11
80.87581961407272
 21
181.290732310005
 31
0.0
  0
LINE
  5
EA6E4F851
330
EA6E4DC92
100
AcDbEntity
  8
SAISEN
100
AcDbLine
 10
92.94900711407194
 20
159.2907323100042
 30
0.0
 11
93.07713211407213
 21
163.3907323100041
 31
0.0
  0
ARC
  5
EA6E4F852
330
EA6E4DC92
100
AcDbEntity
  8
JISSEN
100
AcDbCircle
 10
80.87581961407181
 20
186.7088698844148
 30
0.0
 40
21.41813757441061
100
AcDbArc
 50
270.0
 51
292.1718548551822
  0
ARC
  5
EA6E4F853
330
EA6E4DC92
100
AcDbEntity
  8
JISSEN
100
AcDbCircle
 10
66.47438604993681
 20
178.3844478722288
 30
0.0
 40
13.13024489804019
100
AcDbArc
 50
274.2748693187996
 51
298.7650793645162
  0
LINE
  5
EA6E4F854
330
EA6E4DC92
100
AcDbEntity
  8
SAISEN
100
AcDbLine
 10
68.80263211407168
 20
159.2907323100042
 30
0.0
 11
68.6745071140715
 21
163.3907323100041
 31
0.0
  0
LINE
  5
EA6E4F855
330
EA6E4DC92
100
AcDbEntity
  8
JISSEN
100
AcDbLine
 10
67.45313211407142
 20
165.2907323100042
 30
0.0
 11
67.64063211407142
 21
159.2907323100042
 31
0.0
  0
LINE
  5
EA6E4F856
330
EA6E4DC92
100
AcDbEntity
  8
JISSEN
100
AcDbLine
 10
67.45313211407142
 20
165.2907323100042
 30
0.0
 11
64.71001207676204
 21
166.8744734019643
 31
0.0
  0
LINE
  5
EA6E4F857
330
EA6E4DC92
100
AcDbEntity
  8
SAISEN
100
AcDbLine
 10
68.6745071140715
 20
163.3907323100041
 30
0.0
 11
67.47395979977159
 21
164.6242463676075
 31
0.0
  0
ARC
  5
EA6E4F858
330
EA6E4DC92
100
AcDbEntity
  8
JISSEN
100
AcDbCircle
 10
80.8758196140709
 20
186.7088698844148
 30
0.0
 40
21.41813757441061
100
AcDbArc
 50
247.8281451448177
 51
270.0
  0
LINE
  5
EA6E4F859
330
EA6E4DC92
100
AcDbEntity
  8
JISSEN
100
AcDbLine
 10
72.79291584541647
 20
173.7069912180439
 30
0.0
 11
72.79291584541647
 21
166.8744734019641
 31
0.0
  0
LINE
  5
EA6E4F85A
330
EA6E4DC92
100
AcDbEntity
  8
JISSEN
100
AcDbLine
 10
64.71001207676204
 20
173.7069912180442
 30
0.0
 11
64.71001207676204
 21
166.8744734019643
 31
0.0
  0
LINE
  5
EA6E4F85B
330
EA6E4DC92
100
AcDbEntity
  8
JISSEN
100
AcDbLine
 10
88.95872338272624
 20
173.7069912180442
 30
0.0
 11
88.95872338272624
 21
166.8744734019643
 31
0.0
  0
ARC
  5
EA6E4F85C
330
EA6E4DC92
100
AcDbEntity
  8
NITEN
 48
0.5
100
AcDbCircle
 10
74.07581961407186
 20
148.7066491960042
 30
0.0
 40
11.2255593803785
100
AcDbArc
 50
232.7164162126035
 51
307.2835837873963
  0
ARC
  5
EA6E4F85D
330
EA6E4DC92
100
AcDbEntity
  8
NITEN
 48
0.5
100
AcDbCircle
 10
74.07581961407174
 20
130.8434822424759
 30
0.0
 40
11.22555938037867
100
AcDbArc
 50
52.71641621260361
 51
127.2835837873963
  0
LINE
  5
EA6E4F85E
102
{ACAD_REACTORS
330
EA6E4F872
102
}
330
EA6E4DC92
100
AcDbEntity
  8
HATCH
100
AcDbLine
 10
85.37581961407182
 20
123.5759563782307
 30
0.0
 11
76.37581961407182
 21
123.5759563782307
 31
0.0
  0
LINE
  5
EA6E4F85F
330
EA6E4DC92
100
AcDbEntity
  8
NITEN
 48
0.5
100
AcDbLine
 10
67.27581961407167
 20
159.2907323100042
 30
0.0
 11
67.27581961407179
 21
139.7750657192401
 31
0.0
  0
ARC
  5
EA6E4F860
330
EA6E4DC92
100
AcDbEntity
  8
NITEN
 48
0.5
100
AcDbCircle
 10
87.67581961407177
 20
148.7066491960042
 30
0.0
 40
11.22555938037854
100
AcDbArc
 50
232.7164162126035
 51
307.2835837873963
  0
ARC
  5
EA6E4F861
330
EA6E4DC92
100
AcDbEntity
  8
JISSEN
100
AcDbCircle
 10
95.27725317820591
 20
162.1970167477792
 30
0.0
 40
13.13024489804019
100
AcDbArc
 50
94.27486931879963
 51
118.7650793645161
  0
ARC
  5
EA6E4F862
330
EA6E4DC92
100
AcDbEntity
  8
JISSEN
100
AcDbCircle
 10
95.27725317820591
 20
178.384447872229
 30
0.0
 40
13.13024489804019
100
AcDbArc
 50
241.2349206354837
 51
265.7251306812003
  0
LINE
  5
EA6E4F863
330
EA6E4DC92
100
AcDbEntity
  8
SAISEN
100
AcDbLine
 10
94.23913211407148
 20
177.1907323100043
 30
0.0
 11
67.51250711407215
 21
177.1907323100041
 31
0.0
  0
LINE
  5
EA6E4F864
330
EA6E4DC92
100
AcDbEntity
  8
SAISEN
100
AcDbLine
 10
93.07713211407213
 20
177.1907323100043
 30
0.0
 11
94.27767942837204
 21
175.957218252401
 31
0.0
  0
LINE
  5
EA6E4F865
330
EA6E4DC92
100
AcDbEntity
  8
SAISEN
100
AcDbLine
 10
93.07713211407213
 20
163.3907323100041
 30
0.0
 11
94.27767942837204
 21
164.6242463676075
 31
0.0
  0
LINE
  5
EA6E4F866
330
EA6E4DC92
100
AcDbEntity
  8
SAISEN
100
AcDbLine
 10
67.51250711407215
 20
163.3907323100041
 30
0.0
 11
94.23913211407148
 21
163.3907323100041
 31
0.0
  0
LINE
  5
EA6E4F867
330
EA6E4DC92
100
AcDbEntity
  8
JISSEN
100
AcDbLine
 10
94.2985071140713
 20
175.2907323100042
 30
0.0
 11
67.45313211407142
 21
175.2907323100042
 31
0.0
  0
LINE
  5
EA6E4F868
330
EA6E4DC92
100
AcDbEntity
  8
JISSEN
100
AcDbLine
 10
94.2985071140713
 20
165.2907323100042
 30
0.0
 11
67.45313211407142
 21
165.2907323100042
 31
0.0
  0
ARC
  5
EA6E4F869
330
EA6E4DC92
100
AcDbEntity
  8
JISSEN
100
AcDbCircle
 10
95.66768139865621
 20
186.0906306655846
 30
0.0
 40
4.511233842226582
100
AcDbArc
 50
240.6938897373477
 51
299.3061102626521
  0
LINE
  5
EA6E4F86A
330
EA6E4DC92
100
AcDbEntity
  8
JISSEN
100
AcDbLine
 10
96.37581961407272
 20
181.290732310005
 30
0.0
 11
80.87581961407272
 21
181.290732310005
 31
0.0
  0
LINE
  5
EA6E4F86B
330
EA6E4DC92
100
AcDbEntity
  8
NITEN
100
AcDbLine
 10
67.27581961407179
 20
159.2907323100042
 30
0.0
 11
94.47581961407184
 21
159.2907323100042
 31
0.0
  0
LINE
  5
EA6E4F86C
102
{ACAD_REACTORS
330
EA6E4F872
102
}
330
EA6E4DC92
100
AcDbEntity
  8
HATCH
100
AcDbLine
 10
87.37581961407181
 20
110.1287855304003
 30
0.0
 11
85.37581961407182
 21
110.1287855304003
 31
0.0
  0
LINE
  5
EA6E4F86D
102
{ACAD_REACTORS
330
EA6E4F872
102
}
330
EA6E4DC92
100
AcDbEntity
  8
HATCH
100
AcDbLine
 10
80.87581961407181
 20
101.6221017728466
 30
0.0
 11
87.37581961407181
 21
110.1287855304003
 31
0.0
  0
LINE
  5
EA6E4F86E
102
{ACAD_REACTORS
330
EA6E4F872
102
}
330
EA6E4DC92
100
AcDbEntity
  8
HATCH
100
AcDbLine
 10
76.37581961407182
 20
110.1287855304003
 30
0.0
 11
74.37581961407182
 21
110.1287855304003
 31
0.0
  0
LINE
  5
EA6E4F86F
102
{ACAD_REACTORS
330
EA6E4F872
102
}
330
EA6E4DC92
100
AcDbEntity
  8
HATCH
100
AcDbLine
 10
74.37581961407182
 20
110.1287855304003
 30
0.0
 11
80.87581961407181
 21
101.6221017728466
 31
0.0
  0
LINE
  5
EA6E4F870
102
{ACAD_REACTORS
330
EA6E4F872
102
}
330
EA6E4DC92
100
AcDbEntity
  8
HATCH
100
AcDbLine
 10
85.37581961407182
 20
110.1287855304003
 30
0.0
 11
85.37581961407182
 21
123.5759563782307
 31
0.0
  0
LINE
  5
EA6E4F871
102
{ACAD_REACTORS
330
EA6E4F872
102
}
330
EA6E4DC92
100
AcDbEntity
  8
HATCH
100
AcDbLine
 10
76.37581961407182
 20
123.5759563782307
 30
0.0
 11
76.37581961407182
 21
110.1287855304003
 31
0.0
  0
HATCH
  5
EA6E4F872
330
EA6E4DC92
100
AcDbEntity
  8
HATCH
100
AcDbHatch
 10
0.0
 20
0.0
 30
0.0
210
0.0
220
0.0
230
1.0
  2
SOLID
 70
     1
 71
     1
 91
        1
 92
        1
 93
        7
 72
     1
 10
74.37581961407182
 20
110.1287855304003
 11
80.87581961407181
 21
101.6221017728466
 72
     1
 10
80.87581961407181
 20
101.6221017728466
 11
87.37581961407181
 21
110.1287855304003
 72
     1
 10
87.37581961407181
 20
110.1287855304003
 11
85.37581961407182
 21
110.1287855304003
 72
     1
 10
85.37581961407182
 20
110.1287855304003
 11
85.37581961407182
 21
123.5759563782307
 72
     1
 10
85.37581961407182
 20
123.5759563782307
 11
76.37581961407182
 21
123.5759563782307
 72
     1
 10
76.37581961407182
 20
123.5759563782307
 11
76.37581961407182
 21
110.1287855304003
 72
     1
 10
76.37581961407182
 20
110.1287855304003
 11
74.37581961407182
 21
110.1287855304003
 97
        7
330
EA6E4F86F
330
EA6E4F86D
330
EA6E4F86C
330
EA6E4F870
330
EA6E4F85E
330
EA6E4F871
330
EA6E4F86E
 75
     0
 76
     1
 98
        1
 10
-45.83354212758104
 20
11.41472217204443
  0
LINE
  5
EA6E4F873
330
EA6E4DC92
100
AcDbEntity
  8
ITTEN
100
AcDbLine
 10
80.87063695496714
 20
369.4486779499923
 30
0.0
 11
80.87581961407181
 21
136.7871240685872
 31
0.0
  0
LINE
  5
EA6E4F874
330
EA6E4DC92
100
AcDbEntity
  8
JISSEN
100
AcDbLine
 10
93.45954318323993
 20
182.156757713789
 30
0.0
 11
93.45954318323993
 21
191.3854764216793
 31
0.0
  0
LINE
  5
EA6E4F875
330
EA6E4DC92
100
AcDbEntity
  8
JISSEN
100
AcDbLine
 10
81.69147067954872
 20
182.156757713789
 30
0.0
 11
81.69147067954872
 21
191.3854764216793
 31
0.0
  0
LINE
  5
EA6E4F876
330
EA6E4DC92
100
AcDbEntity
  8
JISSEN
100
AcDbLine
 10
80.06016854859627
 20
182.156757713789
 30
0.0
 11
80.0601685485965
 21
191.3854764216793
 31
0.0
  0
LINE
  5
EA6E4F877
330
EA6E4DC92
100
AcDbEntity
  8
JISSEN
100
AcDbLine
 10
92.30603838427942
 20
182.156757713789
 30
0.0
 11
92.30603838427965
 21
191.3854764216793
 31
0.0
  0
LINE
  5
EA6E4F878
330
EA6E4DC92
100
AcDbEntity
  8
JISSEN
100
AcDbLine
 10
69.44560084386626
 20
182.156757713789
 30
0.0
 11
69.4456008438658
 21
191.3854764216793
 31
0.0
  0
LINE
  5
EA6E4F879
330
EA6E4DC92
100
AcDbEntity
  8
JISSEN
100
AcDbLine
 10
68.29209604490575
 20
182.156757713789
 30
0.0
 11
68.29209604490552
 21
191.3854764216793
 31
0.0
  0
LINE
  5
EA6E4F87A
330
EA6E4DC92
100
AcDbEntity
  8
JISSEN
100
AcDbLine
 10
63.87581961407272
 20
182.156757713789
 30
0.0
 11
63.87581961407272
 21
191.3854764216793
 31
0.0
  0
LINE
  5
EA6E4F87B
330
EA6E4DC92
100
AcDbEntity
  8
JISSEN
100
AcDbLine
 10
97.87581961407273
 20
182.156757713789
 30
0.0
 11
97.8758196140725
 21
191.385476421684
 31
0.0
  0
LINE
  5
EA6E4F87C
330
EA6E4DC92
100
AcDbEntity
  8
JISSEN
100
AcDbLine
 10
114.8758196140724
 20
182.7907323100047
 30
0.0
 11
114.8758196140727
 21
206.171521817862
 31
0.0
  0
LINE
  5
EA6E4F87D
330
EA6E4DC92
100
AcDbEntity
  8
JISSEN
100
AcDbLine
 10
123.8758196140725
 20
183.7907323100047
 30
0.0
 11
123.8758196140725
 21
205.7907323100045
 31
0.0
  0
LINE
  5
EA6E4F87E
330
EA6E4DC92
100
AcDbEntity
  8
ITTEN
100
AcDbLine
 10
303.2269027886056
 20
393.3346372551564
 30
0.0
 11
303.2269027886056
 21
137.0861210456369
 31
0.0
  0
LINE
  5
EA6E4F87F
330
EA6E4DC92
100
AcDbEntity
  8
JISSEN
100
AcDbLine
 10
306.7269027886065
 20
185.2907323100047
 30
0.0
 11
306.7269027886065
 21
203.2907323100047
 31
0.0
  0
LINE
  5
EA6E4F880
330
EA6E4DC92
100
AcDbEntity
  8
JISSEN
100
AcDbLine
 10
309.2269027886065
 20
201.0078754529187
 30
0.0
 11
309.2269027886065
 21
184.7907323100043
 31
0.0
  0
LINE
  5
EA6E4F881
330
EA6E4DC92
100
AcDbEntity
  8
JISSEN
100
AcDbLine
 10
314.6571215588135
 20
182.1567577137893
 30
0.0
 11
314.6571215588135
 21
191.3854764216791
 31
0.0
  0
LINE
  5
EA6E4F882
330
EA6E4DC92
100
AcDbEntity
  8
JISSEN
100
AcDbLine
 10
315.8106263577735
 20
182.1567577137891
 30
0.0
 11
315.810626357774
 21
191.3854764216791
 31
0.0
  0
LINE
  5
EA6E4F883
330
EA6E4DC92
100
AcDbEntity
  8
JISSEN
100
AcDbLine
 10
320.2269027886066
 20
191.3854764216782
 30
0.0
 11
320.2269027886072
 21
182.1567577137893
 31
0.0
  0
LINE
  5
EA6E4F884
330
EA6E4DC92
100
AcDbEntity
  8
JISSEN
100
AcDbLine
 10
299.7269027886066
 20
185.2907323100047
 30
0.0
 11
299.7269027886066
 21
203.2907323100047
 31
0.0
  0
LINE
  5
EA6E4F885
330
EA6E4DC92
100
AcDbEntity
  8
JISSEN
100
AcDbLine
 10
297.2269027886066
 20
201.0078754529187
 30
0.0
 11
297.2269027886066
 21
184.7907323100043
 31
0.0
  0
LINE
  5
EA6E4F886
330
EA6E4DC92
100
AcDbEntity
  8
JISSEN
100
AcDbLine
 10
286.2269027886065
 20
191.3854764216782
 30
0.0
 11
286.2269027886057
 21
182.1567577137893
 31
0.0
  0
LINE
  5
EA6E4F887
330
EA6E4DC92
100
AcDbEntity
  8
JISSEN
100
AcDbLine
 10
290.6431792194396
 20
182.1567577137893
 30
0.0
 11
290.6431792194396
 21
191.3854764216791
 31
0.0
  0
LINE
  5
EA6E4F888
330
EA6E4DC92
100
AcDbEntity
  8
JISSEN
100
AcDbLine
 10
291.7966840183999
 20
182.1567577137893
 30
0.0
 11
291.7966840183996
 21
191.3854764216791
 31
0.0
  0
LINE
  5
EA6E4F889
330
EA6E4DC92
100
AcDbEntity
  8
JISSEN
100
AcDbLine
 10
299.7269027886066
 20
185.2907323100047
 30
0.0
 11
300.4269027886063
 21
185.9907323100043
 31
0.0
  0
LINE
  5
EA6E4F88A
330
EA6E4DC92
100
AcDbEntity
  8
JISSEN
100
AcDbLine
 10
306.7269027886065
 20
185.2907323100047
 30
0.0
 11
306.0269027886068
 21
185.9907323100043
 31
0.0
  0
TEXT
  5
EA6E4F88B
330
EA6E4DC92
100
AcDbEntity
  8
SUNPOU
100
AcDbText
 10
234.5096420814652
 20
218.3051575265548
 30
0.0
 40
8.0
  1
閉
  7
K
 72
     4
 11
238.2429754147985
 21
222.0384908598881
 31
0.0
100
AcDbText
  0
TEXT
  5
EA6E4F88C
330
EA6E4DC92
100
AcDbEntity
  8
SUNPOU
100
AcDbText
 10
278.8197666762284
 20
142.640211972624
 30
0.0
 40
8.0
  1
開
  7
K
 72
     4
 11
282.5531000095618
 21
146.3735453059573
 31
0.0
100
AcDbText
  0
TEXT
  5
EA6E4F88D
330
EA6E4DC92
100
AcDbEntity
  8
SUNPOU
100
AcDbText
 10
210.7497314619271
 20
146.4114678834325
 30
0.0
 40
6.0
  1
7
  7
K
 72
     4
 11
212.7497314619271
 21
149.4114678834325
 31
0.0
100
AcDbText
  0
CIRCLE
  5
EA6E4F88E
330
EA6E4DC92
100
AcDbEntity
  8
SUNPOU
100
AcDbCircle
 10
212.7497314619271
 20
149.4114678834325
 30
0.0
 40
6.0
  0
LINE
  5
EA6E4F88F
330
EA6E4DC92
100
AcDbEntity
  8
SUNPOU
100
AcDbLine
 10
142.8558196140718
 20
292.2307323100059
 30
0.0
 11
212.5391954918656
 21
155.4077729628385
 31
0.0
  0
INSERT
  5
EA6E4F890
330
EA6E4DC92
100
AcDbEntity
  8
SUNPOU
100
AcDbBlockReference
  2
ARROWANG
 10
142.8558196140718
 20
292.2307323100058
 30
0.0
 41
2.999999999999998
 42
3.0
 43
3.0
 50
116.9895587980174
  0
TEXT
  5
EA6E4F891
330
EA6E4DC92
100
AcDbEntity
  8
SUNPOU
100
AcDbText
 10
227.7378807798105
 20
146.4114678834325
 30
0.0
 40
6.0
  1
6
  7
K
 72
     4
 11
229.5950236369534
 21
149.4114678834325
 31
0.0
100
AcDbText
  0
CIRCLE
  5
EA6E4F892
330
EA6E4DC92
100
AcDbEntity
  8
SUNPOU
100
AcDbCircle
 10
229.5950236369534
 20
149.4114678834325
 30
0.0
 40
6.0
  0
LINE
  5
EA6E4F893
330
EA6E4DC92
100
AcDbEntity
  8
SUNPOU
100
AcDbLine
 10
156.3552670516959
 20
342.3390034738342
 30
0.0
 11
227.5179093221653
 21
155.040463897226
 31
0.0
  0
INSERT
  5
EA6E4F894
330
EA6E4DC92
100
AcDbEntity
  8
SUNPOU
100
AcDbBlockReference
  2
ARROWANG
 10
156.355267051696
 20
342.3390034738342
 30
0.0
 41
3.0
 42
3.0
 43
3.0
 50
110.8039033013304
  0
TEXT
  5
EA6E4F895
330
EA6E4DC92
100
AcDbEntity
  8
SUNPOU
100
AcDbText
 10
196.3106400521493
 20
146.4114678834325
 30
0.0
 40
6.0
  1
5
  7
K
 72
     4
 11
198.3106400521493
 21
149.4114678834325
 31
0.0
100
AcDbText
  0
CIRCLE
  5
EA6E4F896
330
EA6E4DC92
100
AcDbEntity
  8
SUNPOU
100
AcDbCircle
 10
198.3106400521493
 20
149.4114678834325
 30
0.0
 40
6.0
  0
LINE
  5
EA6E4F897
330
EA6E4DC92
100
AcDbEntity
  8
SUNPOU
100
AcDbLine
 10
114.8658196140719
 20
295.4337948100056
 30
0.0
 11
196.9389768759651
 21
155.2525756663022
 31
0.0
  0
INSERT
  5
EA6E4F898
330
EA6E4DC92
100
AcDbEntity
  8
SUNPOU
100
AcDbBlockReference
  2
ARROWANG
 10
114.8658196140718
 20
295.4337948100057
 30
0.0
 41
3.000000000000014
 42
3.0
 43
3.0
 50
120.3480761679036
  0
TEXT
  5
EA6E4F899
330
EA6E4DC92
100
AcDbEntity
  8
SUNPOU
100
AcDbText
 10
180.5180849173939
 20
146.4114678834325
 30
0.0
 40
6.0
  1
4
  7
K
 72
     4
 11
182.660942060251
 21
149.4114678834325
 31
0.0
100
AcDbText
  0
CIRCLE
  5
EA6E4F89A
330
EA6E4DC92
100
AcDbEntity
  8
SUNPOU
100
AcDbCircle
 10
182.660942060251
 20
149.4114678834325
 30
0.0
 40
6.0
  0
LINE
  5
EA6E4F89B
330
EA6E4DC92
100
AcDbEntity
  8
SUNPOU
100
AcDbLine
 10
103.5686850387349
 20
291.2307323100058
 30
0.0
 11
181.1411963519391
 21
155.2158087574739
 31
0.0
  0
INSERT
  5
EA6E4F89C
330
EA6E4DC92
100
AcDbEntity
  8
SUNPOU
100
AcDbBlockReference
  2
ARROWANG
 10
103.5686850387349
 20
291.2307323100058
 30
0.0
 41
3.000000000000013
 42
3.0
 43
3.0
 50
119.6971293971712
  0
TEXT
  5
EA6E4F89D
330
EA6E4DC92
100
AcDbEntity
  8
SUNPOU
100
AcDbText
 10
161.0098436193002
 20
146.4114678834325
 30
0.0
 40
6.0
  1
3
  7
K
 72
     4
 11
163.0098436193002
 21
149.4114678834325
 31
0.0
100
AcDbText
  0
CIRCLE
  5
EA6E4F89E
330
EA6E4DC92
100
AcDbEntity
  8
SUNPOU
100
AcDbCircle
 10
163.0098436193002
 20
149.4114678834325
 30
0.0
 40
6.0
  0
LINE
  5
EA6E4F89F
330
EA6E4DC92
100
AcDbEntity
  8
SUNPOU
100
AcDbLine
 10
99.35102822813997
 20
262.8869781166408
 30
0.0
 11
161.2832134163511
 21
155.1576621145967
 31
0.0
  0
INSERT
  5
EA6E4F8A0
330
EA6E4DC92
100
AcDbEntity
  8
SUNPOU
100
AcDbBlockReference
  2
ARROWANG
 10
99.35102822813997
 20
262.8869781166408
 30
0.0
 41
2.999999999999998
 42
3.0
 43
3.0
 50
119.8940366596517
  0
TEXT
  5
EA6E4F8A1
330
EA6E4DC92
100
AcDbEntity
  8
SUNPOU
100
AcDbText
 10
132.8166992956332
 20
146.4114678834325
 30
0.0
 40
6.0
  1
2
  7
K
 72
     4
 11
134.8166992956332
 21
149.4114678834325
 31
0.0
100
AcDbText
  0
CIRCLE
  5
EA6E4F8A2
330
EA6E4DC92
100
AcDbEntity
  8
SUNPOU
100
AcDbCircle
 10
134.8166992956332
 20
149.4114678834325
 30
0.0
 40
6.0
  0
LINE
  5
EA6E4F8A3
330
EA6E4DC92
100
AcDbEntity
  8
SUNPOU
100
AcDbLine
 10
97.87581961407255
 20
186.7711170677365
 30
0.0
 11
132.2338937141593
 21
154.827104072128
 31
0.0
  0
INSERT
  5
EA6E4F8A4
330
EA6E4DC92
100
AcDbEntity
  8
SUNPOU
100
AcDbBlockReference
  2
ARROWANG
 10
97.87581961407255
 20
186.7711170677364
 30
0.0
 41
3.000000000000014
 42
3.0
 43
3.0
 50
137.0852200317763
  0
TEXT
  5
EA6E4F8A5
330
EA6E4DC92
100
AcDbEntity
  8
SUNPOU
100
AcDbText
 10
114.7083454783419
 20
146.4114678834325
 30
0.0
 40
6.0
  1
1
  7
K
 72
     4
 11
115.4226311926277
 21
149.4114678834325
 31
0.0
100
AcDbText
  0
CIRCLE
  5
EA6E4F8A6
330
EA6E4DC92
100
AcDbEntity
  8
SUNPOU
100
AcDbCircle
 10
115.4226311926277
 20
149.4114678834325
 30
0.0
 40
6.0
  0
LINE
  5
EA6E4F8A7
330
EA6E4DC92
100
AcDbEntity
  8
SUNPOU
100
AcDbLine
 10
96.80546083917391
 20
170.773393209177
 30
0.0
 11
111.4805474925465
 21
153.9347383928709
 31
0.0
  0
INSERT
  5
EA6E4F8A8
330
EA6E4DC92
100
AcDbEntity
  8
SUNPOU
100
AcDbBlockReference
  2
ARROWANG
 10
96.80546083917391
 20
170.773393209177
 30
0.0
 41
3.000000000000018
 42
3.0
 43
3.0
 50
131.0725352941104
  0
TEXT
  5
EA6E4F8A9
330
EA6E4DC92
100
AcDbEntity
  8
SUNPOU
100
AcDbText
 10
329.2618902864119
 20
453.0
 30
0.0
 40
6.0
  1
8A ML1-8 
 41
0.6786133961692112
  7
K
 72
     5
 11
362.2618902944118
 21
453.0
 31
0.0
100
AcDbText
  0
TEXT
  5
EA6E4F8AA
330
EA6E4DC92
100
AcDbEntity
  8
SUNPOU
100
AcDbText
 10
339.3571452967227
 20
477.0
 30
0.0
 40
6.0
  1
8A
  7
K
 72
     4
 11
344.5000024395799
 21
480.0
 31
0.0
100
AcDbText
  0
TEXT
  5
EA6E4F8AB
330
EA6E4DC92
100
AcDbEntity
  8
SUNPOU
100
AcDbText
 10
324.6485738681513
 20
489.0
 30
0.0
 40
6.0
  1
 20A×8A 
 41
0.9
  7
K
 72
     4
 11
344.5000024395799
 21
492.0
 31
0.0
100
AcDbText
  0
TEXT
  5
EA6E4F8AC
330
EA6E4DC92
100
AcDbEntity
  8
SUNPOU
100
AcDbText
 10
336.5000024395799
 20
501.0
 30
0.0
 40
6.0
  1
20A
  7
K
 72
     4
 11
344.5000024395799
 21
504.0
 31
0.0
100
AcDbText
  0
TEXT
  5
EA6E4F8AD
330
EA6E4DC92
100
AcDbEntity
  8
SUNPOU
100
AcDbText
 10
336.5000024395799
 20
513.0
 30
0.0
 40
6.0
  1
20A
  7
K
 72
     4
 11
344.5000024395799
 21
516.0
 31
0.0
100
AcDbText
  0
TEXT
  5
EA6E4F8AE
330
EA6E4DC92
100
AcDbEntity
  8
SUNPOU
100
AcDbText
 10
315.2857167212942
 20
453.0
 30
0.0
 40
6.0
  1
1
  7
K
 72
     4
 11
316.0000024355799
 21
456.0
 31
0.0
100
AcDbText
  0
TEXT
  5
EA6E4F8AF
330
EA6E4DC92
100
AcDbEntity
  8
SUNPOU
100
AcDbText
 10
315.2857167212942
 20
465.0
 30
0.0
 40
6.0
  1
1
  7
K
 72
     4
 11
316.0000024355799
 21
468.0
 31
0.0
100
AcDbText
  0
TEXT
  5
EA6E4F8B0
330
EA6E4DC92
100
AcDbEntity
  8
SUNPOU
100
AcDbText
 10
315.2857167212942
 20
477.0
 30
0.0
 40
6.0
  1
1
  7
K
 72
     4
 11
316.0000024355799
 21
480.0
 31
0.0
100
AcDbText
  0
TEXT
  5
EA6E4F8B1
330
EA6E4DC92
100
AcDbEntity
  8
SUNPOU
100
AcDbText
 10
315.2857167212942
 20
489.0
 30
0.0
 40
6.0
  1
1
  7
K
 72
     4
 11
316.0000024355799
 21
492.0
 31
0.0
100
AcDbText
  0
TEXT
  5
EA6E4F8B2
330
EA6E4DC92
100
AcDbEntity
  8
SUNPOU
100
AcDbText
 10
315.2857167212942
 20
501.0
 30
0.0
 40
6.0
  1
1
  7
K
 72
     4
 11
316.0000024355799
 21
504.0
 31
0.0
100
AcDbText
  0
TEXT
  5
EA6E4F8B3
330
EA6E4DC92
100
AcDbEntity
  8
SUNPOU
100
AcDbText
 10
315.2857167212942
 20
513.0
 30
0.0
 40
6.0
  1
1
  7
K
 72
     4
 11
316.0000024355799
 21
516.0
 31
0.0
100
AcDbText
  0
TEXT
  5
EA6E4F8B4
330
EA6E4DC92
100
AcDbEntity
  8
SUNPOU
100
AcDbText
 10
270.0500024355799
 20
468.5999999999999
 30
0.0
 40
6.0
  1
%%u        
  7
K
 72
     4
 11
284.0000024355799
 21
468.0
 31
0.0
100
AcDbText
  0
TEXT
  5
EA6E4F8B5
330
EA6E4DC92
100
AcDbEntity
  8
SUNPOU
100
AcDbText
 10
276.1428595784371
 20
477.0
 30
0.0
 40
6.0
  1
SGP
  7
K
 72
     4
 11
284.0000024355799
 21
480.0
 31
0.0
100
AcDbText
  0
TEXT
  5
EA6E4F8B6
330
EA6E4DC92
100
AcDbEntity
  8
SUNPOU
100
AcDbText
 10
271.7142881498657
 20
453.0
 30
0.0
 40
6.0
  1
C3771
  7
K
 72
     4
 11
284.0000024355799
 21
456.0
 31
0.0
100
AcDbText
  0
TEXT
  5
EA6E4F8B7
330
EA6E4DC92
100
AcDbEntity
  8
SUNPOU
100
AcDbText
 10
273.0000024355799
 20
489.0
 30
0.0
 40
6.0
  1
FCMB
  7
K
 72
     4
 11
284.0000024355799
 21
492.0
 31
0.0
100
AcDbText
  0
TEXT
  5
EA6E4F8B8
330
EA6E4DC92
100
AcDbEntity
  8
SUNPOU
100
AcDbText
 10
273.0000024355799
 20
501.0
 30
0.0
 40
6.0
  1
FCMB
  7
K
 72
     4
 11
284.0000024355799
 21
504.0
 31
0.0
100
AcDbText
  0
TEXT
  5
EA6E4F8B9
330
EA6E4DC92
100
AcDbEntity
  8
SUNPOU
100
AcDbText
 10
271.7142881498657
 20
513.0
 30
0.0
 40
6.0
  1
C3771
  7
K
 72
     4
 11
284.0000024355799
 21
516.0
 31
0.0
100
AcDbText
  0
TEXT
  5
EA6E4F8BA
330
EA6E4DC92
100
AcDbEntity
  8
SUNPOU
100
AcDbText
 10
219.4000024355799
 20
465.0
 30
0.0
 40
6.0
  1
圧 力 計
  7
BIGFONT
 72
     4
 11
233.0000024355799
 21
468.0
 31
0.0
100
AcDbText
  0
TEXT
  5
EA6E4F8BB
330
EA6E4DC92
100
AcDbEntity
  8
SUNPOU
100
AcDbText
 10
191.0000024355799
 20
453.0
 30
0.0
 40
6.0
  1
7
  7
K
 72
     4
 11
193.0000024355799
 21
456.0
 31
0.0
100
AcDbText
  0
TEXT
  5
EA6E4F8BC
330
EA6E4DC92
100
AcDbEntity
  8
SUNPOU
100
AcDbText
 10
215.8000024355799
 20
453.0
 30
0.0
 40
6.0
  1
アングル弁
  7
BIGFONT
 72
     4
 11
233.0000024355799
 21
456.0
 31
0.0
100
AcDbText
  0
TEXT
  5
EA6E4F8BD
330
EA6E4DC92
100
AcDbEntity
  8
SUNPOU
100
AcDbText
 10
191.1428595784371
 20
465.0
 30
0.0
 40
6.0
  1
6
  7
K
 72
     4
 11
193.0000024355799
 21
468.0
 31
0.0
100
AcDbText
  0
TEXT
  5
EA6E4F8BE
330
EA6E4DC92
100
AcDbEntity
  8
SUNPOU
100
AcDbText
 10
191.0000024355799
 20
477.0
 30
0.0
 40
6.0
  1
5
  7
K
 72
     4
 11
193.0000024355799
 21
480.0
 31
0.0
100
AcDbText
  0
TEXT
  5
EA6E4F8BF
330
EA6E4DC92
100
AcDbEntity
  8
SUNPOU
100
AcDbText
 10
219.2000024355799
 20
476.7999999999999
 30
0.0
 40
6.0
  1
ニップル
  7
BIGFONT
 72
     4
 11
233.0000024355799
 21
480.0
 31
0.0
100
AcDbText
  0
TEXT
  5
EA6E4F8C0
330
EA6E4DC92
100
AcDbEntity
  8
SUNPOU
100
AcDbText
 10
190.8571452927228
 20
489.0
 30
0.0
 40
6.0
  1
4
  7
K
 72
     4
 11
193.0000024355799
 21
492.0
 31
0.0
100
AcDbText
  0
TEXT
  5
EA6E4F8C1
330
EA6E4DC92
100
AcDbEntity
  8
SUNPOU
100
AcDbText
 10
212.2000024355799
 20
489.0
 30
0.0
 40
6.0
  1
径違いチーズ
  7
BIGFONT
 72
     4
 11
233.0000024355799
 21
492.0
 31
0.0
100
AcDbText
  0
TEXT
  5
EA6E4F8C2
330
EA6E4DC92
100
AcDbEntity
  8
SUNPOU
100
AcDbText
 10
191.0000024355799
 20
501.0
 30
0.0
 40
6.0
  1
3
  7
K
 72
     4
 11
193.0000024355799
 21
504.0
 31
0.0
100
AcDbText
  0
TEXT
  5
EA6E4F8C3
330
EA6E4DC92
100
AcDbEntity
  8
SUNPOU
100
AcDbText
 10
212.2000024355799
 20
501.0
 30
0.0
 40
6.0
  1
六角ニップル
  7
BIGFONT
 72
     4
 11
233.0000024355799
 21
504.0
 31
0.0
100
AcDbText
  0
TEXT
  5
EA6E4F8C4
330
EA6E4DC92
100
AcDbEntity
  8
SUNPOU
100
AcDbText
 10
191.0000024355799
 20
513.0
 30
0.0
 40
6.0
  1
2
  7
K
 72
     4
 11
193.0000024355799
 21
516.0
 31
0.0
100
AcDbText
  0
TEXT
  5
EA6E4F8C5
330
EA6E4DC92
100
AcDbEntity
  8
SUNPOU
100
AcDbText
 10
212.0000024355799
 20
512.7999999999999
 30
0.0
 40
6.0
  1
ボールバルブ
  7
BIGFONT
 72
     4
 11
233.0000024355799
 21
516.0
 31
0.0
100
AcDbText
  0
TEXT
  5
EA6E4F8C6
330
EA6E4DC92
100
AcDbEntity
  8
SUNPOU
100
AcDbText
 10
336.5000024395799
 20
525.0
 30
0.0
 40
6.0
  1
20A
  7
K
 72
     4
 11
344.5000024395799
 21
528.0
 31
0.0
100
AcDbText
  0
TEXT
  5
EA6E4F8C7
330
EA6E4DC92
100
AcDbEntity
  8
SUNPOU
100
AcDbText
 10
315.2857167212942
 20
525.0
 30
0.0
 40
6.0
  1
1
  7
K
 72
     4
 11
316.0000024355799
 21
528.0
 31
0.0
100
AcDbText
  0
TEXT
  5
EA6E4F8C8
330
EA6E4DC92
100
AcDbEntity
  8
SUNPOU
100
AcDbText
 10
270.2857167212942
 20
525.0
 30
0.0
 40
6.0
  1
C3604
  7
K
 72
     4
 11
284.0000024355799
 21
528.0
 31
0.0
100
AcDbText
  0
TEXT
  5
EA6E4F8C9
330
EA6E4DC92
100
AcDbEntity
  8
SUNPOU
100
AcDbText
 10
219.0000024355799
 20
524.7999999999999
 30
0.0
 40
6.0
  1
ノ ズ ル
  7
BIGFONT
 72
     4
 11
233.0000024355799
 21
528.0
 31
0.0
100
AcDbText
  0
TEXT
  5
EA6E4F8CA
330
EA6E4DC92
100
AcDbEntity
  8
SUNPOU
100
AcDbText
 10
192.2857167212942
 20
525.0
 30
0.0
 40
6.0
  1
1
  7
K
 72
     4
 11
193.0000024355799
 21
528.0
 31
0.0
100
AcDbText
  0
LINE
  5
EA6E4F8CB
330
EA6E4DC92
100
AcDbEntity
  8
JISSEN
100
AcDbLine
 10
183.0000024355799
 20
450.0
 30
0.0
 11
362.0000024355799
 21
450.0
 31
0.0
  0
LINE
  5
EA6E4F8CC
330
EA6E4DC92
100
AcDbEntity
  8
JISSEN
100
AcDbLine
 10
183.0000024355799
 20
462.0
 30
0.0
 11
362.0000024355799
 21
462.0
 31
0.0
  0
LINE
  5
EA6E4F8CD
330
EA6E4DC92
100
AcDbEntity
  8
JISSEN
100
AcDbLine
 10
183.0000024355799
 20
474.0
 30
0.0
 11
362.0000024355799
 21
474.0
 31
0.0
  0
LINE
  5
EA6E4F8CE
330
EA6E4DC92
100
AcDbEntity
  8
JISSEN
100
AcDbLine
 10
183.0000024355799
 20
486.0
 30
0.0
 11
362.0000024355799
 21
486.0
 31
0.0
  0
LINE
  5
EA6E4F8CF
330
EA6E4DC92
100
AcDbEntity
  8
JISSEN
100
AcDbLine
 10
183.0000024355799
 20
498.0
 30
0.0
 11
362.0000024355799
 21
498.0
 31
0.0
  0
LINE
  5
EA6E4F8D0
330
EA6E4DC92
100
AcDbEntity
  8
JISSEN
100
AcDbLine
 10
183.0000024355799
 20
510.0
 30
0.0
 11
362.0000024355799
 21
510.0
 31
0.0
  0
LINE
  5
EA6E4F8D1
330
EA6E4DC92
100
AcDbEntity
  8
JISSEN
100
AcDbLine
 10
327.0000024355799
 20
546.0
 30
0.0
 11
327.0000024355799
 21
450.0
 31
0.0
  0
TEXT
  5
EA6E4F8D2
330
EA6E4DC92
100
AcDbEntity
  8
TEXT
100
AcDbText
 10
309.60000243558
 20
537.0
 30
0.0
 40
6.0
  1
個数
  7
K
 72
     4
 11
316.0000024355799
 21
540.0
 31
0.0
100
AcDbText
  0
TEXT
  5
EA6E4F8D3
330
EA6E4DC92
100
AcDbEntity
  8
TEXT
100
AcDbText
 10
331.4000024355799
 20
537.0
 30
0.0
 40
6.0
  1
備    考
  7
K
 72
     4
 11
345.0000024355799
 21
540.0
 31
0.0
100
AcDbText
  0
LINE
  5
EA6E4F8D4
330
EA6E4DC92
100
AcDbEntity
  8
JISSEN
100
AcDbLine
 10
305.0000024355799
 20
450.0
 30
0.0
 11
305.0000024355799
 21
546.0
 31
0.0
  0
LINE
  5
EA6E4F8D5
330
EA6E4DC92
100
AcDbEntity
  8
JISSEN
100
AcDbLine
 10
263.0000024355799
 20
546.0
 30
0.0
 11
263.0000024355799
 21
450.0
 31
0.0
  0
TEXT
  5
EA6E4F8D6
330
EA6E4DC92
100
AcDbEntity
  8
TEXT
100
AcDbText
 10
270.4000024355799
 20
537.0
 30
0.0
 40
6.0
  1
材    質
  7
K
 72
     4
 11
284.0000024355799
 21
540.0
 31
0.0
100
AcDbText
  0
LINE
  5
EA6E4F8D7
330
EA6E4DC92
100
AcDbEntity
  8
JISSEN
100
AcDbLine
 10
203.0000024355799
 20
546.0
 30
0.0
 11
203.0000024355799
 21
450.0
 31
0.0
  0
LINE
  5
EA6E4F8D8
330
EA6E4DC92
100
AcDbEntity
  8
JISSEN
100
AcDbLine
 10
183.0000024355799
 20
450.0
 30
0.0
 11
183.0000024355799
 21
546.0
 31
0.0
  0
TEXT
  5
EA6E4F8D9
330
EA6E4DC92
100
AcDbEntity
  8
TEXT
100
AcDbText
 10
186.6000024355799
 20
537.0
 30
0.0
 40
6.0
  1
番号
  7
K
 72
     4
 11
193.0000024355799
 21
540.0
 31
0.0
100
AcDbText
  0
TEXT
  5
EA6E4F8DA
330
EA6E4DC92
100
AcDbEntity
  8
TEXT
100
AcDbText
 10
215.8000024355799
 20
537.0
 30
0.0
 40
6.0
  1
名      称
  7
K
 72
     4
 11
233.0000024355799
 21
540.0
 31
0.0
100
AcDbText
  0
LINE
  5
EA6E4F8DB
330
EA6E4DC92
100
AcDbEntity
  8
JISSEN
100
AcDbLine
 10
183.0000024355799
 20
522.0
 30
0.0
 11
362.0000024355799
 21
522.0
 31
0.0
  0
LINE
  5
EA6E4F8DC
330
EA6E4DC92
100
AcDbEntity
  8
JISSEN
100
AcDbLine
 10
183.0000024355799
 20
534.0
 30
0.0
 11
362.0000024355799
 21
534.0
 31
0.0
  0
ENDSEC
  0
SECTION
  2
OBJECTS
  0
DICTIONARY
  5
EA6E4DC87
330
0
100
AcDbDictionary
  3
ACAD_GROUP
350
EA6E4DC88
  3
ACAD_LAYOUT
350
EA6E4E124
  3
ACAD_MLINESTYLE
350
EA6E4DC95
  3
ACAD_PLOTSETTINGS
350
EA6E4E125
  3
ACAD_PLOTSTYLENAME
350
EA6E4E122
  3
ACDBHEADERROUNDTRIPXREC
350
EA6E4F8E0
  3
ACDBVARIABLEDICTIONARY
350
EA6E4DCDF
  0
DICTIONARY
  5
EA6E4E3D8
330
EA6E4DC7D
100
AcDbDictionary
280
     1
  3
ACAD_LAYERSTATES
360
EA6E4E3D9
  0
DICTIONARY
  5
EA6E4E15C
330
EA6E4DC92
100
AcDbDictionary
280
     1
  3
ACAD_LAYOUTSELFREF
360
EA6E4F902
  0
DICTIONARY
  5
EA6E4E15A
330
EA6E4DC8F
100
AcDbDictionary
280
     1
  3
ACAD_LAYOUTSELFREF
360
EA6E4F901
  0
DICTIONARY
  5
EA6E4DC88
102
{ACAD_REACTORS
330
EA6E4DC87
102
}
330
0
100
AcDbDictionary
  0
DICTIONARY
  5
EA6E4E124
102
{ACAD_REACTORS
330
EA6E4DC87
102
}
330
EA6E4DC87
100
AcDbDictionary
  0
DICTIONARY
  5
EA6E4DC95
102
{ACAD_REACTORS
330
EA6E4DC87
102
}
330
0
100
AcDbDictionary
  3
STANDARD
350
EA6E4DC96
  0
DICTIONARY
  5
EA6E4E125
102
{ACAD_REACTORS
330
EA6E4DC87
102
}
330
EA6E4DC87
100
AcDbDictionary
  0
ACDBDICTIONARYWDFLT
  5
EA6E4E122
102
{ACAD_REACTORS
330
EA6E4DC87
102
}
330
EA6E4DC87
100
AcDbDictionary
281
     1
  3
Normal
350
EA6E4E123
100
AcDbDictionaryWithDefault
340
EA6E4E123
  0
DICTIONARY
  5
EA6E4F8E0
102
{ACAD_REACTORS
330
EA6E4DC87
102
}
330
EA6E4DC87
100
AcDbDictionary
  3
CEPSNTYPE
350
EA6E4F8EA
  3
DIMSTYLEDATA
350
EA6E4F8EE
  3
FINGERPRINTGUID
350
EA6E4F8EB
  3
HYPERLINKBASE
350
EA6E4F8E3
  3
INSUNITS
350
EA6E4F8E9
  3
LAYOUTDICT
350
EA6E4F8E5
  3
LWETCUNION
350
EA6E4F8E8
  3
PLOTSETDICT
350
EA6E4F8E6
  3
PLOTSTYLNAMDICT
350
EA6E4F8E7
  3
PSVPSCALE
350
EA6E4F8ED
  3
PUCSBASE
350
EA6E4F8F1
  3
PUCSORGBACK
350
EA6E4F8F7
  3
PUCSORGBOTTOM
350
EA6E4F8F3
  3
PUCSORGFRONT
350
EA6E4F8F6
  3
PUCSORGLEFT
350
EA6E4F8F4
  3
PUCSORGRIGHT
350
EA6E4F8F5
  3
PUCSORGTOP
350
EA6E4F8F2
  3
PUCSORTHOREF
350
EA6E4F8EF
  3
PUCSORTHOVIEW
350
EA6E4F8F0
  3
STYLESHEET
350
EA6E4F8E4
  3
TSTACKALIGN
350
EA6E4F8E1
  3
TSTACKSIZE
350
EA6E4F8E2
  3
UCSBASE
350
EA6E4F8FA
  3
UCSORGBACK
350
EA6E4F900
  3
UCSORGBOTTOM
350
EA6E4F8FC
  3
UCSORGFRONT
350
EA6E4F8FF
  3
UCSORGLEFT
350
EA6E4F8FD
  3
UCSORGRIGHT
350
EA6E4F8FE
  3
UCSORGTOP
350
EA6E4F8FB
  3
UCSORTHOREF
350
EA6E4F8F8
  3
UCSORTHOVIEW
350
EA6E4F8F9
  3
VERSIONGUID
350
EA6E4F8EC
  0
DICTIONARY
  5
EA6E4DCDF
102
{ACAD_REACTORS
330
EA6E4DC87
102
}
330
0
100
AcDbDictionary
  3
DIMASSOC
350
EA6E4E23D
  3
SORTENTS
350
EA6E4DCE0
  0
DICTIONARY
  5
EA6E4E3D9
102
{ACAD_REACTORS
330
EA6E4E3D8
102
}
330
EA6E4E3D8
100
AcDbDictionary
  0
XRECORD
  5
EA6E4F902
102
{ACAD_REACTORS
330
EA6E4E15C
102
}
330
EA6E4E15C
100
AcDbXrecord
340
EA6E4DC92
  0
XRECORD
  5
EA6E4F901
102
{ACAD_REACTORS
330
EA6E4E15A
102
}
330
EA6E4E15A
100
AcDbXrecord
340
EA6E4DC8F
  0
MLINESTYLE
  5
EA6E4DC96
102
{ACAD_REACTORS
330
EA6E4DC95
102
}
330
0
100
AcDbMlineStyle
  2
STANDARD
 70
     0
  3

 62
   256
 51
90.0
 52
90.0
 71
     2
 49
0.5
 62
   256
  6
BYLAYER
 49
-0.5
 62
   256
  6
BYLAYER
  0
ACDBPLACEHOLDER
  5
EA6E4E123
102
{ACAD_REACTORS
330
EA6E4E122
102
}
330
EA6E4E122
100
AcDbPlaceHolder
280
     0
  0
XRECORD
  5
EA6E4F8EA
102
{ACAD_REACTORS
330
EA6E4F8E0
102
}
330
EA6E4F8E0
100
AcDbXrecord
 90
        0
  0
XRECORD
  5
EA6E4F8EE
102
{ACAD_REACTORS
330
EA6E4F8E0
102
}
330
EA6E4F8E0
100
AcDbXrecord
1000
DSTYLE
1002
{
1070
   279
 70
     2
1070
   341
340
EA6E4DC97
1070
   342
340
EA6E4DC97
1002
}
  0
XRECORD
  5
EA6E4F8EB
102
{ACAD_REACTORS
330
EA6E4F8E0
102
}
330
EA6E4F8E0
100
AcDbXrecord
  1
{9ED4B7E8-4B02-4EC4-A908-0D7ADED925D2}
  0
XRECORD
  5
EA6E4F8E3
102
{ACAD_REACTORS
330
EA6E4F8E0
102
}
330
EA6E4F8E0
100
AcDbXrecord
  1

  0
XRECORD
  5
EA6E4F8E9
102
{ACAD_REACTORS
330
EA6E4F8E0
102
}
330
EA6E4F8E0
100
AcDbXrecord
 90
        0
  0
XRECORD
  5
EA6E4F8E5
102
{ACAD_REACTORS
330
EA6E4F8E0
102
}
330
EA6E4F8E0
100
AcDbXrecord
340
EA6E4E124
  0
XRECORD
  5
EA6E4F8E8
102
{ACAD_REACTORS
330
EA6E4F8E0
102
}
330
EA6E4F8E0
100
AcDbXrecord
 90
    14877
  0
XRECORD
  5
EA6E4F8E6
102
{ACAD_REACTORS
330
EA6E4F8E0
102
}
330
EA6E4F8E0
100
AcDbXrecord
340
EA6E4E125
  0
XRECORD
  5
EA6E4F8E7
102
{ACAD_REACTORS
330
EA6E4F8E0
102
}
330
EA6E4F8E0
100
AcDbXrecord
340
EA6E4E122
  0
XRECORD
  5
EA6E4F8ED
102
{ACAD_REACTORS
330
EA6E4F8E0
102
}
330
EA6E4F8E0
100
AcDbXrecord
 40
0.0
  0
XRECORD
  5
EA6E4F8F1
102
{ACAD_REACTORS
330
EA6E4F8E0
102
}
330
EA6E4F8E0
100
AcDbXrecord
340
0
  0
XRECORD
  5
EA6E4F8F7
102
{ACAD_REACTORS
330
EA6E4F8E0
102
}
330
EA6E4F8E0
100
AcDbXrecord
 10
0.0
 20
0.0
 30
0.0
  0
XRECORD
  5
EA6E4F8F3
102
{ACAD_REACTORS
330
EA6E4F8E0
102
}
330
EA6E4F8E0
100
AcDbXrecord
 10
0.0
 20
0.0
 30
0.0
  0
XRECORD
  5
EA6E4F8F6
102
{ACAD_REACTORS
330
EA6E4F8E0
102
}
330
EA6E4F8E0
100
AcDbXrecord
 10
0.0
 20
0.0
 30
0.0
  0
XRECORD
  5
EA6E4F8F4
102
{ACAD_REACTORS
330
EA6E4F8E0
102
}
330
EA6E4F8E0
100
AcDbXrecord
 10
0.0
 20
0.0
 30
0.0
  0
XRECORD
  5
EA6E4F8F5
102
{ACAD_REACTORS
330
EA6E4F8E0
102
}
330
EA6E4F8E0
100
AcDbXrecord
 10
0.0
 20
0.0
 30
0.0
  0
XRECORD
  5
EA6E4F8F2
102
{ACAD_REACTORS
330
EA6E4F8E0
102
}
330
EA6E4F8E0
100
AcDbXrecord
 10
0.0
 20
0.0
 30
0.0
  0
XRECORD
  5
EA6E4F8EF
102
{ACAD_REACTORS
330
EA6E4F8E0
102
}
330
EA6E4F8E0
100
AcDbXrecord
340
0
  0
XRECORD
  5
EA6E4F8F0
102
{ACAD_REACTORS
330
EA6E4F8E0
102
}
330
EA6E4F8E0
100
AcDbXrecord
 70
     0
  0
XRECORD
  5
EA6E4F8E4
102
{ACAD_REACTORS
330
EA6E4F8E0
102
}
330
EA6E4F8E0
100
AcDbXrecord
  1

  0
XRECORD
  5
EA6E4F8E1
102
{ACAD_REACTORS
330
EA6E4F8E0
102
}
330
EA6E4F8E0
100
AcDbXrecord
 90
        1
  0
XRECORD
  5
EA6E4F8E2
102
{ACAD_REACTORS
330
EA6E4F8E0
102
}
330
EA6E4F8E0
100
AcDbXrecord
 90
       70
  0
XRECORD
  5
EA6E4F8FA
102
{ACAD_REACTORS
330
EA6E4F8E0
102
}
330
EA6E4F8E0
100
AcDbXrecord
340
0
  0
XRECORD
  5
EA6E4F900
102
{ACAD_REACTORS
330
EA6E4F8E0
102
}
330
EA6E4F8E0
100
AcDbXrecord
 10
0.0
 20
0.0
 30
0.0
  0
XRECORD
  5
EA6E4F8FC
102
{ACAD_REACTORS
330
EA6E4F8E0
102
}
330
EA6E4F8E0
100
AcDbXrecord
 10
0.0
 20
0.0
 30
0.0
  0
XRECORD
  5
EA6E4F8FF
102
{ACAD_REACTORS
330
EA6E4F8E0
102
}
330
EA6E4F8E0
100
AcDbXrecord
 10
0.0
 20
0.0
 30
0.0
  0
XRECORD
  5
EA6E4F8FD
102
{ACAD_REACTORS
330
EA6E4F8E0
102
}
330
EA6E4F8E0
100
AcDbXrecord
 10
0.0
 20
0.0
 30
0.0
  0
XRECORD
  5
EA6E4F8FE
102
{ACAD_REACTORS
330
EA6E4F8E0
102
}
330
EA6E4F8E0
100
AcDbXrecord
 10
0.0
 20
0.0
 30
0.0
  0
XRECORD
  5
EA6E4F8FB
102
{ACAD_REACTORS
330
EA6E4F8E0
102
}
330
EA6E4F8E0
100
AcDbXrecord
 10
0.0
 20
0.0
 30
0.0
  0
XRECORD
  5
EA6E4F8F8
102
{ACAD_REACTORS
330
EA6E4F8E0
102
}
330
EA6E4F8E0
100
AcDbXrecord
340
0
  0
XRECORD
  5
EA6E4F8F9
102
{ACAD_REACTORS
330
EA6E4F8E0
102
}
330
EA6E4F8E0
100
AcDbXrecord
 70
     0
  0
XRECORD
  5
EA6E4F8EC
102
{ACAD_REACTORS
330
EA6E4F8E0
102
}
330
EA6E4F8E0
100
AcDbXrecord
  1
{BDF45B5C-DF60-49EF-AED0-CBDFFEA3B7C8}
  0
DICTIONARYVAR
  5
EA6E4E23D
102
{ACAD_REACTORS
330
EA6E4DCDF
102
}
330
EA6E4DCDF
100
DictionaryVariables
280
     0
  1
0
  0
DICTIONARYVAR
  5
EA6E4DCE0
102
{ACAD_REACTORS
330
EA6E4DCDF
102
}
330
0
100
DictionaryVariables
280
     0
  1
96
  0
ENDSEC
  0
EOF
