  0
SECTION
  2
HEADER
  9
$ACADVER
  1
AC1014
  9
$ACADMAINTVER
 70
     9
  9
$DWGCODEPAGE
  3
ANSI_932
  9
$INSBASE
 10
0.0
 20
0.0
 30
0.0
  9
$EXTMIN
 10
-0.0167842507055411
 20
-0.0255977091537716
 30
-0.0000000000000058
  9
$EXTMAX
 10
362.0202747273852
 20
546.0321692290026
 30
0.0000000000000104
  9
$LIMMIN
 10
0.0
 20
0.0
  9
$LIMMAX
 10
362.0
 20
546.0
  9
$ORTHOMODE
 70
     1
  9
$REGENMODE
 70
     1
  9
$FILLMODE
 70
     1
  9
$QTEXTMODE
 70
     0
  9
$MIRRTEXT
 70
     0
  9
$DRAGMODE
 70
     2
  9
$LTSCALE
 40
10.0
  9
$OSMODE
 70
   167
  9
$ATTMODE
 70
     1
  9
$TEXTSIZE
 40
6.0
  9
$TRACEWID
 40
0.05
  9
$TEXTSTYLE
  7
ROMANS
  9
$CLAYER
  8
JISSEN
  9
$CELTYPE
  6
BYLAYER
  9
$CECOLOR
 62
   256
  9
$CELTSCALE
 40
1.0
  9
$DELOBJ
 70
     1
  9
$DISPSILH
 70
     0
  9
$DIMSCALE
 40
2.0
  9
$DIMASZ
 40
1.5
  9
$DIMEXO
 40
1.0
  9
$DIMDLI
 40
6.0
  9
$DIMRND
 40
0.0
  9
$DIMDLE
 40
0.0
  9
$DIMEXE
 40
1.0
  9
$DIMTP
 40
495.0
  9
$DIMTM
 40
0.0
  9
$DIMTXT
 40
3.0
  9
$DIMCEN
 40
0.0
  9
$DIMTSZ
 40
0.0
  9
$DIMTOL
 70
     0
  9
$DIMLIM
 70
     0
  9
$DIMTIH
 70
     0
  9
$DIMTOH
 70
     0
  9
$DIMSE1
 70
     0
  9
$DIMSE2
 70
     0
  9
$DIMTAD
 70
     1
  9
$DIMZIN
 70
     8
  9
$DIMBLK
  1
ARROW
  9
$DIMASO
 70
     0
  9
$DIMSHO
 70
     0
  9
$DIMPOST
  1

  9
$DIMAPOST
  1

  9
$DIMALT
 70
     0
  9
$DIMALTD
 70
     2
  9
$DIMALTF
 40
25.4
  9
$DIMLFAC
 40
1.0
  9
$DIMTOFL
 70
     1
  9
$DIMTVP
 40
0.0
  9
$DIMTIX
 70
     1
  9
$DIMSOXD
 70
     0
  9
$DIMSAH
 70
     0
  9
$DIMBLK1
  1

  9
$DIMBLK2
  1

  9
$DIMSTYLE
  2
IMAO
  9
$DIMCLRD
 70
     0
  9
$DIMCLRE
 70
     0
  9
$DIMCLRT
 70
     0
  9
$DIMTFAC
 40
1.0
  9
$DIMGAP
 40
0.09
  9
$DIMJUST
 70
     0
  9
$DIMSD1
 70
     0
  9
$DIMSD2
 70
     0
  9
$DIMTOLJ
 70
     1
  9
$DIMTZIN
 70
     8
  9
$DIMALTZ
 70
     8
  9
$DIMALTTZ
 70
     8
  9
$DIMFIT
 70
     5
  9
$DIMUPT
 70
     0
  9
$DIMUNIT
 70
     2
  9
$DIMDEC
 70
     2
  9
$DIMTDEC
 70
     2
  9
$DIMALTU
 70
     2
  9
$DIMALTTD
 70
     2
  9
$DIMTXSTY
  7
ROMANS
  9
$DIMAUNIT
 70
     0
  9
$LUNITS
 70
     2
  9
$LUPREC
 70
     2
  9
$SKETCHINC
 40
0.1
  9
$FILLETRAD
 40
3.0
  9
$AUNITS
 70
     0
  9
$AUPREC
 70
     2
  9
$MENU
  1
stdr12j
  9
$ELEVATION
 40
0.0
  9
$PELEVATION
 40
0.0
  9
$THICKNESS
 40
0.0
  9
$LIMCHECK
 70
     0
  9
$BLIPMODE
 70
     0
  9
$CHAMFERA
 40
0.0
  9
$CHAMFERB
 40
0.0
  9
$CHAMFERC
 40
0.0
  9
$CHAMFERD
 40
0.0
  9
$SKPOLY
 70
     0
  9
$TDCREATE
 40
2449876.477257986
  9
$TDUPDATE
 40
2454411.537175011
  9
$TDINDWG
 40
0.1296930440
  9
$TDUSRTIMER
 40
0.1296930440
  9
$USRTIMER
 70
     1
  9
$ANGBASE
 50
0.0
  9
$ANGDIR
 70
     0
  9
$PDMODE
 70
     0
  9
$PDSIZE
 40
0.0
  9
$PLINEWID
 40
0.0
  9
$COORDS
 70
     2
  9
$SPLFRAME
 70
     0
  9
$SPLINETYPE
 70
     6
  9
$SPLINESEGS
 70
     8
  9
$ATTDIA
 70
     0
  9
$ATTREQ
 70
     1
  9
$HANDLING
 70
 22529
  9
$HANDSEED
  5
EA6E510CF
  9
$SURFTAB1
 70
     6
  9
$SURFTAB2
 70
     6
  9
$SURFTYPE
 70
     6
  9
$SURFU
 70
     6
  9
$SURFV
 70
     6
  9
$UCSNAME
  2

  9
$UCSORG
 10
0.0
 20
0.0
 30
0.0
  9
$UCSXDIR
 10
1.0
 20
0.0
 30
0.0
  9
$UCSYDIR
 10
0.0
 20
1.0
 30
0.0
  9
$PUCSNAME
  2

  9
$PUCSORG
 10
0.0
 20
0.0
 30
0.0
  9
$PUCSXDIR
 10
1.0
 20
0.0
 30
0.0
  9
$PUCSYDIR
 10
0.0
 20
1.0
 30
0.0
  9
$USERI1
 70
     4
  9
$USERI2
 70
     1
  9
$USERI3
 70
     2
  9
$USERI4
 70
     2
  9
$USERI5
 70
     0
  9
$USERR1
 40
2.0
  9
$USERR2
 40
3.0
  9
$USERR3
 40
3.0
  9
$USERR4
 40
1.5
  9
$USERR5
 40
10.0
  9
$WORLDVIEW
 70
     1
  9
$SHADEDGE
 70
     3
  9
$SHADEDIF
 70
    70
  9
$TILEMODE
 70
     1
  9
$MAXACTVP
 70
    16
  9
$PINSBASE
 10
0.0
 20
0.0
 30
0.0
  9
$PLIMCHECK
 70
     0
  9
$PEXTMIN
 10
1.000000000000000E+20
 20
1.000000000000000E+20
 30
1.000000000000000E+20
  9
$PEXTMAX
 10
-1.000000000000000E+20
 20
-1.000000000000000E+20
 30
-1.000000000000000E+20
  9
$PLIMMIN
 10
0.0
 20
0.0
  9
$PLIMMAX
 10
12.0
 20
9.0
  9
$UNITMODE
 70
     0
  9
$VISRETAIN
 70
     0
  9
$PLINEGEN
 70
     0
  9
$PSLTSCALE
 70
     0
  9
$TREEDEPTH
 70
  3020
  9
$PICKSTYLE
 70
     1
  9
$CMLSTYLE
  2
STANDARD
  9
$CMLJUST
 70
     0
  9
$CMLSCALE
 40
1.0
  9
$PROXYGRAPHICS
 70
     1
  9
$MEASUREMENT
 70
     0
  0
ENDSEC
  0
SECTION
  2
CLASSES
  0
CLASS
  1
LWPOLYLINE
  2
AcDbPolyline
  3
AutoCAD 2000
 90
        0
280
     0
281
     1
  0
CLASS
  1
DICTIONARYVAR
  2
AcDbDictionaryVar
  3
AutoCAD 2000
 90
        0
280
     0
281
     0
  0
CLASS
  1
HATCH
  2
AcDbHatch
  3
AutoCAD 2000
 90
        0
280
     0
281
     1
  0
CLASS
  1
ACDBDICTIONARYWDFLT
  2
AcDbDictionaryWithDefault
  3
AutoCAD 2000
 90
        0
280
     0
281
     0
  0
CLASS
  1
ACDBPLACEHOLDER
  2
AcDbPlaceHolder
  3
AutoCAD 2000
 90
        0
280
     0
281
     0
  0
CLASS
  1
LAYOUT
  2
AcDbLayout
  3
AutoCAD 2000
 90
        0
280
     0
281
     0
  0
CLASS
  1
LONG_TRANSACTION
  2
AcDbLongTransaction
  3
AutoCAD 2000
 90
        0
280
     0
281
     0
  0
CLASS
  1
LWPOLYLINE
  2
AcDbPolyline
  3
AutoCAD 2000
 90
        0
280
     0
281
     1
  0
CLASS
  1
HATCH
  2
AcDbHatch
  3
AutoCAD 2000
 90
        0
280
     0
281
     1
  0
CLASS
  1
XRECORD
  2
AcDbXrecord
  3
AutoCAD 2000
 90
        0
280
     0
281
     0
  0
CLASS
  1
LONG_TRANSACTION
  2
AcDbLongTransaction
  3
AutoCAD 2000
 90
        0
280
     0
281
     0
  0
CLASS
  1
LWPOLYLINE
  2
AcDbPolyline
  3
AutoCAD 2000
 90
        0
280
     0
281
     1
  0
CLASS
  1
HATCH
  2
AcDbHatch
  3
AutoCAD 2000
 90
        0
280
     0
281
     1
  0
CLASS
  1
XRECORD
  2
AcDbXrecord
  3
AutoCAD 2000
 90
        0
280
     0
281
     0
  0
CLASS
  1
LONG_TRANSACTION
  2
AcDbLongTransaction
  3
AutoCAD 2000
 90
        0
280
     0
281
     0
  0
CLASS
  1
LWPOLYLINE
  2
AcDbPolyline
  3
AutoCAD 2000
 90
        0
280
     0
281
     1
  0
CLASS
  1
HATCH
  2
AcDbHatch
  3
AutoCAD 2000
 90
        0
280
     0
281
     1
  0
CLASS
  1
XRECORD
  2
AcDbXrecord
  3
AutoCAD 2000
 90
        0
280
     0
281
     0
  0
CLASS
  1
LONG_TRANSACTION
  2
AcDbLongTransaction
  3
AutoCAD 2000
 90
        0
280
     0
281
     0
  0
CLASS
  1
LWPOLYLINE
  2
AcDbPolyline
  3
AutoCAD 2000
 90
        0
280
     0
281
     1
  0
CLASS
  1
HATCH
  2
AcDbHatch
  3
AutoCAD 2000
 90
        0
280
     0
281
     1
  0
CLASS
  1
XRECORD
  2
AcDbXrecord
  3
AutoCAD 2000
 90
        0
280
     0
281
     0
  0
CLASS
  1
LONG_TRANSACTION
  2
AcDbLongTransaction
  3
AutoCAD 2000
 90
        0
280
     0
281
     0
  0
CLASS
  1
LWPOLYLINE
  2
AcDbPolyline
  3
AutoCAD 2000
 90
        0
280
     0
281
     1
  0
CLASS
  1
HATCH
  2
AcDbHatch
  3
AutoCAD 2000
 90
        0
280
     0
281
     1
  0
CLASS
  1
XRECORD
  2
AcDbXrecord
  3
AutoCAD 2000
 90
        0
280
     0
281
     0
  0
ENDSEC
  0
SECTION
  2
TABLES
  0
TABLE
  2
VPORT
  5
EA6E4DC83
330
0
100
AcDbSymbolTable
 70
    11
  0
VPORT
  5
EA6E4DCBB
330
EA6E4DC83
100
AcDbSymbolTableRecord
100
AcDbViewportTableRecord
  2
2
 70
     0
 10
0.5
 20
0.0
 11
1.0
 21
1.0
 12
0.9240309999999999
 22
1.052651
 13
0.0
 23
0.0
 14
1.0
 24
1.0
 15
10.0
 25
10.0
 16
0.0
 26
0.0
 36
1.0
 17
0.0
 27
0.0
 37
0.0
 40
2.105302
 41
0.877814
 42
50.0
 43
0.0
 44
0.0
 50
0.0
 51
0.0
 71
     0
 72
   500
 73
     1
 74
     1
 75
     0
 76
     0
 77
     0
 78
     0
  0
VPORT
  5
EA6E4DCBC
330
EA6E4DC83
100
AcDbSymbolTableRecord
100
AcDbViewportTableRecord
  2
2
 70
     0
 10
0.0
 20
0.0
 11
0.5
 21
1.0
 12
0.9240309999999999
 22
1.052651
 13
0.0
 23
0.0
 14
1.0
 24
1.0
 15
10.0
 25
10.0
 16
0.0
 26
0.0
 36
1.0
 17
0.0
 27
0.0
 37
0.0
 40
2.105302
 41
0.877814
 42
50.0
 43
0.0
 44
0.0
 50
0.0
 51
0.0
 71
     0
 72
   500
 73
     1
 74
     1
 75
     0
 76
     0
 77
     0
 78
     0
  0
VPORT
  5
EA6E4DCBD
330
EA6E4DC83
100
AcDbSymbolTableRecord
100
AcDbViewportTableRecord
  2
3
 70
     0
 10
0.0
 20
0.5
 11
1.0
 21
1.0
 12
2.832169999999999
 22
1.052651
 13
0.0
 23
0.0
 14
1.0
 24
1.0
 15
10.0
 25
10.0
 16
0.0
 26
0.0
 36
1.0
 17
0.0
 27
0.0
 37
0.0
 40
2.105302
 41
3.571429
 42
50.0
 43
0.0
 44
0.0
 50
0.0
 51
0.0
 71
     0
 72
   500
 73
     1
 74
     1
 75
     0
 76
     0
 77
     0
 78
     0
  0
VPORT
  5
EA6E4DCBE
330
EA6E4DC83
100
AcDbSymbolTableRecord
100
AcDbViewportTableRecord
  2
3
 70
     0
 10
0.0
 20
0.0
 11
1.0
 21
0.5
 12
2.856741999999999
 22
1.052651
 13
0.0
 23
0.0
 14
1.0
 24
1.0
 15
10.0
 25
10.0
 16
0.0
 26
0.0
 36
1.0
 17
0.0
 27
0.0
 37
0.0
 40
2.105302
 41
3.594770999999999
 42
50.0
 43
0.0
 44
0.0
 50
0.0
 51
0.0
 71
     0
 72
   500
 73
     1
 74
     1
 75
     0
 76
     0
 77
     0
 78
     0
  0
VPORT
  5
EA6E4DCBF
330
EA6E4DC83
100
AcDbSymbolTableRecord
100
AcDbViewportTableRecord
  2
4
 70
     0
 10
0.5
 20
0.0
 11
1.0
 21
0.5
 12
2.886858
 22
1.052651
 13
0.0
 23
0.0
 14
1.0
 24
1.0
 15
10.0
 25
10.0
 16
0.0
 26
0.0
 36
1.0
 17
0.0
 27
0.0
 37
0.0
 40
4.275206999999999
 41
1.784314
 42
50.0
 43
0.0
 44
0.0
 50
0.0
 51
0.0
 71
     0
 72
   500
 73
     1
 74
     1
 75
     0
 76
     0
 77
     0
 78
     0
  0
VPORT
  5
EA6E4DCC0
330
EA6E4DC83
100
AcDbSymbolTableRecord
100
AcDbViewportTableRecord
  2
4
 70
     0
 10
0.5
 20
0.5
 11
1.0
 21
1.0
 12
2.86209
 22
1.052651
 13
0.0
 23
0.0
 14
1.0
 24
1.0
 15
10.0
 25
10.0
 16
0.0
 26
0.0
 36
1.0
 17
0.0
 27
0.0
 37
0.0
 40
4.275206999999999
 41
1.772726999999999
 42
50.0
 43
0.0
 44
0.0
 50
0.0
 51
0.0
 71
     0
 72
   500
 73
     1
 74
     1
 75
     0
 76
     0
 77
     0
 78
     0
  0
VPORT
  5
EA6E4DCC1
330
EA6E4DC83
100
AcDbSymbolTableRecord
100
AcDbViewportTableRecord
  2
4
 70
     0
 10
0.0
 20
0.5
 11
0.5
 21
1.0
 12
2.86209
 22
1.052651
 13
0.0
 23
0.0
 14
1.0
 24
1.0
 15
10.0
 25
10.0
 16
0.0
 26
0.0
 36
1.0
 17
0.0
 27
0.0
 37
0.0
 40
4.275206999999999
 41
1.772726999999999
 42
50.0
 43
0.0
 44
0.0
 50
0.0
 51
0.0
 71
     0
 72
   500
 73
     1
 74
     1
 75
     0
 76
     0
 77
     0
 78
     0
  0
VPORT
  5
EA6E4DCC2
330
EA6E4DC83
100
AcDbSymbolTableRecord
100
AcDbViewportTableRecord
  2
4
 70
     0
 10
0.0
 20
0.0
 11
0.5
 21
0.5
 12
2.886858
 22
1.052651
 13
0.0
 23
0.0
 14
1.0
 24
1.0
 15
10.0
 25
10.0
 16
0.0
 26
0.0
 36
1.0
 17
0.0
 27
0.0
 37
0.0
 40
4.275206999999999
 41
1.784314
 42
50.0
 43
0.0
 44
0.0
 50
0.0
 51
0.0
 71
     0
 72
   500
 73
     1
 74
     1
 75
     0
 76
     0
 77
     0
 78
     0
  0
VPORT
  5
EA6E510AB
330
EA6E4DC83
100
AcDbSymbolTableRecord
100
AcDbViewportTableRecord
  2
*ACTIVE
 70
     0
 10
0.0
 20
0.0
 11
1.0
 21
1.0
 12
181.0017452383398
 22
273.0032857599244
 13
0.0
 23
0.0
 14
1.0
 24
1.0
 15
10.0
 25
10.0
 16
0.0
 26
0.0
 36
1.0
 17
0.0
 27
0.0
 37
0.0
 40
549.6941116680443
 41
1.764444444444444
 42
50.0
 43
0.0
 44
0.0
 50
0.0
 51
0.0
 71
     0
 72
   500
 73
     1
 74
     0
 75
     0
 76
     0
 77
     0
 78
     0
  0
ENDTAB
  0
TABLE
  2
LTYPE
  5
EA6E4DC80
330
0
100
AcDbSymbolTable
 70
     6
  0
LTYPE
  5
EA6E4DC8C
330
EA6E4DC80
100
AcDbSymbolTableRecord
100
AcDbLinetypeTableRecord
  2
BYBLOCK
 70
     0
  3

 72
    65
 73
     0
 40
0.0
  0
LTYPE
  5
EA6E4DC8D
330
EA6E4DC80
100
AcDbSymbolTableRecord
100
AcDbLinetypeTableRecord
  2
BYLAYER
 70
     0
  3

 72
    65
 73
     0
 40
0.0
  0
LTYPE
  5
EA6E4DC8E
330
EA6E4DC80
100
AcDbSymbolTableRecord
100
AcDbLinetypeTableRecord
  2
CONTINUOUS
 70
     0
  3
実線
 72
    65
 73
     0
 40
0.0
  0
LTYPE
  5
EA6E4DCBA
330
EA6E4DC80
100
AcDbSymbolTableRecord
100
AcDbLinetypeTableRecord
  2
HIDDEN
 70
     0
  3
_ _ _ _ _ _ _ _ _ _ _ _ _ _ _ _ _ _ _ _ _ _ _
 72
    65
 73
     2
 40
0.375
 49
0.25
 74
     0
 49
-0.125
 74
     0
  0
LTYPE
  5
EA6E4E3D4
330
EA6E4DC80
100
AcDbSymbolTableRecord
100
AcDbLinetypeTableRecord
  2
CENTER
 70
     0
  3
____ _ ____ _ ____ _ ____ _ ____ _ ____ _ ____
 72
    65
 73
     4
 40
2.0
 49
1.25
 74
     0
 49
-0.25
 74
     0
 49
0.25
 74
     0
 49
-0.25
 74
     0
  0
LTYPE
  5
EA6E4EFCF
330
EA6E4DC80
100
AcDbSymbolTableRecord
100
AcDbLinetypeTableRecord
  2
PHANTOM
 70
     0
  3
_____ _ _ _____ _ _ _____ _ _ _____ _ _ ____
 72
    65
 73
     6
 40
2.5
 49
1.25
 74
     0
 49
-0.25
 74
     0
 49
0.25
 74
     0
 49
-0.25
 74
     0
 49
0.25
 74
     0
 49
-0.25
 74
     0
  0
LTYPE
  5
EA6E4EFD0
330
EA6E4DC80
100
AcDbSymbolTableRecord
100
AcDbLinetypeTableRecord
  2
DASHDOT
 70
     0
  3
__ . __ . __ .
 72
    65
 73
     4
 40
7.81578947368421
 49
3.907894736842104
 74
     0
 49
-1.953947368421053
 74
     0
 49
0.0
 74
     0
 49
-1.953947368421053
 74
     0
  0
ENDTAB
  0
TABLE
  2
LAYER
  5
EA6E4DC7D
102
{ACAD_XDICTIONARY
360
EA6E4E3D8
102
}
330
0
100
AcDbSymbolTable
 70
    13
  0
LAYER
  5
EA6E4DC89
330
EA6E4DC7D
100
AcDbSymbolTableRecord
100
AcDbLayerTableRecord
  2
0
 70
     0
 62
     6
  6
CONTINUOUS
  0
LAYER
  5
EA6E4DCCA
330
EA6E4DC7D
100
AcDbSymbolTableRecord
100
AcDbLayerTableRecord
  2
SUNPOU
 70
     0
 62
     3
  6
CONTINUOUS
  0
LAYER
  5
EA6E4DCCB
330
EA6E4DC7D
100
AcDbSymbolTableRecord
100
AcDbLayerTableRecord
  2
TEXT
 70
     0
 62
     3
  6
CONTINUOUS
  0
LAYER
  5
EA6E4DCCC
330
EA6E4DC7D
100
AcDbSymbolTableRecord
100
AcDbLayerTableRecord
  2
SAISEN
 70
     0
 62
     4
  6
CONTINUOUS
  0
LAYER
  5
EA6E4DCCD
330
EA6E4DC7D
100
AcDbSymbolTableRecord
100
AcDbLayerTableRecord
  2
JISSEN
 70
     0
 62
     7
  6
CONTINUOUS
  0
LAYER
  5
EA6E4DCCF
330
EA6E4DC7D
100
AcDbSymbolTableRecord
100
AcDbLayerTableRecord
  2
TENSEN
 70
     0
 62
     2
  6
HIDDEN
  0
LAYER
  5
EA6E4DCD1
330
EA6E4DC7D
100
AcDbSymbolTableRecord
100
AcDbLayerTableRecord
  2
WAKU
 70
     0
 62
     5
  6
CONTINUOUS
  0
LAYER
  5
EA6E4E3D5
330
EA6E4DC7D
100
AcDbSymbolTableRecord
100
AcDbLayerTableRecord
  2
ITTEN
 70
     0
 62
     1
  6
CENTER
  0
LAYER
  5
EA6E4E3D6
330
EA6E4DC7D
100
AcDbSymbolTableRecord
100
AcDbLayerTableRecord
  2
HATCH
 70
     0
 62
     4
  6
CONTINUOUS
  0
LAYER
  5
EA6E4EFD2
330
EA6E4DC7D
100
AcDbSymbolTableRecord
100
AcDbLayerTableRecord
  2
NITEN
 70
     0
 62
     2
  6
PHANTOM
  0
LAYER
  5
EA6E4EFD4
330
EA6E4DC7D
100
AcDbSymbolTableRecord
100
AcDbLayerTableRecord
  2
1
 70
     0
 62
     4
  6
CONTINUOUS
  0
ENDTAB
  0
TABLE
  2
STYLE
  5
EA6E4DC7E
330
0
100
AcDbSymbolTable
 70
     6
  0
STYLE
  5
EA6E4DC8A
330
EA6E4DC7E
100
AcDbSymbolTableRecord
100
AcDbTextStyleTableRecord
  2
STANDARD
 70
     0
 40
0.0
 41
1.0
 50
0.0
 71
     0
 42
0.2
  3
ROMANS
  4
EXTFONT
  0
STYLE
  5
EA6E4DCB2
330
EA6E4DC7E
100
AcDbSymbolTableRecord
100
AcDbTextStyleTableRecord
  2
K
 70
     0
 40
0.0
 41
1.0
 50
0.0
 71
     0
 42
6.0
  3
SIMPLEX
  4
BIGFONT.SHX
  0
STYLE
  5
EA6E4DCB3
330
EA6E4DC7E
100
AcDbSymbolTableRecord
100
AcDbTextStyleTableRecord
  2
ROMANS
 70
     0
 40
0.0
 41
0.8
 50
0.0
 71
     0
 42
6.0
  3
romans
  4

  0
STYLE
  5
EA6E4DCFB
330
EA6E4DC7E
100
AcDbSymbolTableRecord
100
AcDbTextStyleTableRecord
  2
DIMENSION
 70
     0
 40
0.0
 41
1.0
 50
0.0
 71
     0
 42
2.5
  3
TXT
  4

  0
STYLE
  5
EA6E4EFD5
330
EA6E4DC7E
100
AcDbSymbolTableRecord
100
AcDbTextStyleTableRecord
  2
BIGFONT
 70
     0
 40
0.0
 41
1.0
 50
0.0
 71
     0
 42
10.0
  3
txt.shx
  4
bigfont
  0
ENDTAB
  0
TABLE
  2
VIEW
  5
EA6E4DC81
330
0
100
AcDbSymbolTable
 70
     0
  0
ENDTAB
  0
TABLE
  2
UCS
  5
EA6E4DC82
330
0
100
AcDbSymbolTable
 70
     0
  0
ENDTAB
  0
TABLE
  2
APPID
  5
EA6E4DC84
330
0
100
AcDbSymbolTable
 70
     2
  0
APPID
  5
EA6E4DC8B
330
EA6E4DC84
100
AcDbSymbolTableRecord
100
AcDbRegAppTableRecord
  2
ACAD
 70
     0
  0
APPID
  5
EA6E4E3D7
330
EA6E4DC84
100
AcDbSymbolTableRecord
100
AcDbRegAppTableRecord
  2
ASK_MEN_XD
 70
     0
  0
ENDTAB
  0
TABLE
  2
DIMSTYLE
  5
EA6E4DC85
330
0
100
AcDbSymbolTable
 70
     2
  0
DIMSTYLE
105
EA6E4DCC5
330
EA6E4DC85
100
AcDbSymbolTableRecord
100
AcDbDimStyleTableRecord
  2
IMAO
 70
     0
  3

  4

  5

  6

  7

 40
1.0
 41
1.5
 42
1.0
 43
6.0
 44
1.0
 45
0.0
 46
0.0
 47
495.0
 48
0.0
140
3.0
141
0.0
142
0.0
143
25.4
144
1.0
145
0.0
146
1.0
147
0.09
 71
     0
 72
     0
 73
     0
 74
     0
 75
     0
 76
     0
 77
     1
 78
     8
170
     0
171
     2
172
     1
173
     0
174
     1
175
     0
176
     0
177
     0
178
     0
270
     2
271
     2
272
     2
273
     2
274
     2
340
EA6E4DCB3
275
     0
280
     0
281
     0
282
     0
283
     1
284
     8
285
     8
286
     8
287
     5
288
     0
  0
DIMSTYLE
105
EA6E4DCFC
330
EA6E4DC85
100
AcDbSymbolTableRecord
100
AcDbDimStyleTableRecord
  2
STANDARD
 70
     0
  3

  4

  5
AR_OPEN
  6

  7

 40
2.0
 41
2.0
 42
0.1
 43
10.0
 44
1.5
 45
0.0
 46
0.0
 47
0.0
 48
0.0
140
3.0
141
0.09
142
0.0
143
25.4
144
1.0
145
1.0
146
1.0
147
0.1
 71
     0
 72
     0
 73
     0
 74
     0
 75
     0
 76
     0
 77
     0
 78
     8
170
     0
171
     2
172
     1
173
     0
174
     0
175
     0
176
   256
177
   256
178
   256
270
     2
271
     2
272
     2
273
     2
274
     2
340
EA6E4DCFB
275
     0
280
     0
281
     0
282
     0
283
     1
284
     8
285
     0
286
     0
287
     3
288
     0
  0
ENDTAB
  0
TABLE
  2
BLOCK_RECORD
  5
EA6E4DC7C
330
0
100
AcDbSymbolTable
 70
    22
  0
BLOCK_RECORD
  5
EA6E4DC92
102
{ACAD_XDICTIONARY
360
EA6E4E15C
102
}
330
EA6E4DC7C
100
AcDbSymbolTableRecord
100
AcDbBlockTableRecord
  2
*MODEL_SPACE
  0
BLOCK_RECORD
  5
EA6E4DC8F
102
{ACAD_XDICTIONARY
360
EA6E4E15A
102
}
330
EA6E4DC7C
100
AcDbSymbolTableRecord
100
AcDbBlockTableRecord
  2
*PAPER_SPACE
  0
BLOCK_RECORD
  5
EA6E4DC97
330
EA6E4DC7C
100
AcDbSymbolTableRecord
100
AcDbBlockTableRecord
  2
ARROW
  0
BLOCK_RECORD
  5
EA6E4DC9D
330
EA6E4DC7C
100
AcDbSymbolTableRecord
100
AcDbBlockTableRecord
  2
STDGX5
  0
BLOCK_RECORD
  5
EA6E4DCA0
330
EA6E4DC7C
100
AcDbSymbolTableRecord
100
AcDbBlockTableRecord
  2
STDR12J
  0
BLOCK_RECORD
  5
EA6E4DCF5
330
EA6E4DC7C
100
AcDbSymbolTableRecord
100
AcDbBlockTableRecord
  2
AR_OPEN
  0
BLOCK_RECORD
  5
EA6E4E244
330
EA6E4DC7C
100
AcDbSymbolTableRecord
100
AcDbBlockTableRecord
  2
ARROWANG
  0
ENDTAB
  0
ENDSEC
  0
SECTION
  2
BLOCKS
  0
BLOCK
  5
EA6E4DCD4
330
EA6E4DC92
100
AcDbEntity
  8
0
100
AcDbBlockBegin
  2
*MODEL_SPACE
 70
     0
 10
0.0
 20
0.0
 30
0.0
  3
*MODEL_SPACE
  1

  0
ENDBLK
  5
EA6E4DCD5
330
EA6E4DC92
100
AcDbEntity
  8
0
100
AcDbBlockEnd
  0
BLOCK
  5
EA6E4DCD2
330
EA6E4DC8F
100
AcDbEntity
 67
     1
  8
0
100
AcDbBlockBegin
  2
*PAPER_SPACE
 70
     0
 10
0.0
 20
0.0
 30
0.0
  3
*PAPER_SPACE
  1

  0
ENDBLK
  5
EA6E4DCD3
330
EA6E4DC8F
100
AcDbEntity
 67
     1
  8
0
100
AcDbBlockEnd
  0
BLOCK
  5
449
330
EA6E4DC97
100
AcDbEntity
  8
0
100
AcDbBlockBegin
  2
ARROW
 70
     0
 10
1.0
 20
0.5
 30
0.0
  3
ARROW
  1

  0
LINE
  5
44A
330
EA6E4DC97
100
AcDbEntity
  8
0
100
AcDbLine
 10
1.0
 20
0.5
 30
0.0
 11
-0.5
 21
0.098076
 31
0.0
  0
LINE
  5
44B
330
EA6E4DC97
100
AcDbEntity
  8
0
100
AcDbLine
 10
0.0
 20
0.5
 30
0.0
 11
1.0
 21
0.5
 31
0.0
  0
LINE
  5
44C
330
EA6E4DC97
100
AcDbEntity
  8
0
100
AcDbLine
 10
1.0
 20
0.5
 30
0.0
 11
-0.5
 21
0.9019239999999999
 31
0.0
  0
ENDBLK
  5
44D
330
EA6E4DC97
100
AcDbEntity
  8
0
100
AcDbBlockEnd
  0
BLOCK
  5
142F
330
EA6E4DC9D
100
AcDbEntity
  8
0
100
AcDbBlockBegin
  2
STDGX5
 70
     0
 10
0.0
 20
0.0
 30
0.0
  3
STDGX5
  1

  0
ENDBLK
  5
1430
330
EA6E4DC9D
100
AcDbEntity
  8
0
100
AcDbBlockEnd
  0
BLOCK
  5
2946
330
EA6E4DCA0
100
AcDbEntity
  8
0
100
AcDbBlockBegin
  2
STDR12J
 70
     0
 10
0.0
 20
0.0
 30
0.0
  3
STDR12J
  1

  0
ENDBLK
  5
296B
330
EA6E4DCA0
100
AcDbEntity
  8
0
100
AcDbBlockEnd
  0
BLOCK
  5
EA6E4DCF9
330
EA6E4DCF5
100
AcDbEntity
  8
0
100
AcDbBlockBegin
  2
AR_OPEN
 70
     0
 10
0.0
 20
0.0
 30
0.0
  3
AR_OPEN
  1

  0
LINE
  5
EA6E4DCF6
330
EA6E4DCF5
100
AcDbEntity
  8
0
 62
     0
100
AcDbLine
 10
-1.0
 20
0.0
 30
0.0
 11
0.0
 21
0.0
 31
0.0
  0
LINE
  5
EA6E4DCF7
330
EA6E4DCF5
100
AcDbEntity
  8
0
 62
     0
100
AcDbLine
 10
0.0
 20
0.0
 30
0.0
 11
-1.0
 21
0.267949
 31
0.0
  0
LINE
  5
EA6E4DCF8
330
EA6E4DCF5
100
AcDbEntity
  8
0
 62
     0
100
AcDbLine
 10
0.0
 20
0.0
 30
0.0
 11
-1.0
 21
-0.267949
 31
0.0
  0
ENDBLK
  5
EA6E4DCFA
330
EA6E4DCF5
100
AcDbEntity
  8
0
100
AcDbBlockEnd
  0
BLOCK
  5
EA6E4E247
330
EA6E4E244
100
AcDbEntity
  8
0
100
AcDbBlockBegin
  2
ARROWANG
 70
     0
 10
0.0
 20
0.0
 30
0.0
  3
ARROWANG
  1

  0
LINE
  5
EA6E4E245
330
EA6E4E244
100
AcDbEntity
  8
SUNPOU
100
AcDbLine
 10
0.0
 20
0.0
 30
0.0
 11
-1.499999999999957
 21
0.4019237886467409
 31
0.0
  0
LINE
  5
EA6E4E246
330
EA6E4E244
100
AcDbEntity
  8
SUNPOU
100
AcDbLine
 10
0.0
 20
0.0
 30
0.0
 11
-1.500000000000028
 21
-0.4019237886467124
 31
0.0
  0
ENDBLK
  5
EA6E4E248
330
EA6E4E244
100
AcDbEntity
  8
0
100
AcDbBlockEnd
  0
ENDSEC
  0
SECTION
  2
ENTITIES
  0
INSERT
  5
20
330
EA6E4DC92
100
AcDbEntity
  8
TEXT
100
AcDbBlockReference
  2
STDGX5
 10
370.865806
 20
2.374565
 30
0.0
  0
INSERT
  5
21
330
EA6E4DC92
100
AcDbEntity
  8
TEXT
100
AcDbBlockReference
  2
STDGX5
 10
1520.591055
 20
494.796741
 30
0.0
  0
INSERT
  5
441
330
EA6E4DC92
100
AcDbEntity
  8
JISSEN
  6
CONTINUOUS
 62
     4
100
AcDbBlockReference
  2
STDGX5
 10
-63.39588599999999
 20
80.39599
 30
0.0
 41
2.0
 42
2.0
 43
2.0
  0
INSERT
  5
296C
330
EA6E4DC92
100
AcDbEntity
  8
JISSEN
100
AcDbBlockReference
  2
STDR12J
 10
0.0
 20
0.0
 30
0.0
  0
TEXT
  5
29F6
330
EA6E4DC92
100
AcDbEntity
  8
TEXT
100
AcDbText
 10
284.499999
 20
536.0
 30
0.0
 40
6.0
  1

  7
K
 72
     4
 11
284.499999
 21
536.0
 31
0.0
100
AcDbText
  0
MTEXT
  5
EA6E4E0DF
330
EA6E4DC92
100
AcDbEntity
  8
JISSEN
100
AcDbMText
 10
302.3089179999999
 20
159.090371
 30
0.0
 40
6.0
 41
0.0
 71
     4
 72
     5
  1
\A1;
  7
ROMANS
1001
ACAD
1000
MTEXTBEGIN
1070
    73
1070
     1
1070
    44
1040
1.0
1070
    74
1070
     0
1000
MTEXTEND
  0
MTEXT
  5
EA6E4E0E3
330
EA6E4DC92
100
AcDbEntity
  8
JISSEN
100
AcDbMText
 10
278.4487169999999
 20
159.0440929999999
 30
0.0
 40
6.0
 41
0.0
 71
     4
 72
     5
  1
\A1;
  7
ROMANS
1001
ACAD
1000
MTEXTBEGIN
1070
    73
1070
     1
1070
    44
1040
1.0
1070
    74
1070
     0
1000
MTEXTEND
  0
MTEXT
  5
EA6E4E0E7
330
EA6E4DC92
100
AcDbEntity
  8
JISSEN
100
AcDbMText
 10
252.744385
 20
158.909631
 30
0.0
 40
6.0
 41
0.0
 71
     4
 72
     5
  1
\A1;
  7
ROMANS
1001
ACAD
1000
MTEXTBEGIN
1070
    73
1070
     1
1070
    44
1040
1.0
1070
    74
1070
     0
1000
MTEXTEND
  0
TEXT
  5
EA6E4E17A
330
EA6E4DC92
100
AcDbEntity
  8
SUNPOU
100
AcDbText
 10
265.6376972818612
 20
14.31652477187026
 30
0.0
 40
6.0
  1
末端試験装置 F-
100
AcDbText
  0
TEXT
  5
EA6E4E17B
330
EA6E4DC92
100
AcDbEntity
  8
SUNPOU
100
AcDbText
 10
265.6376972818612
 20
4.316524771870263
 30
0.0
 40
6.0
  1
A4 用紙、印刷尺度 1/2
100
AcDbText
  0
LWPOLYLINE
  5
EA6E4E909
330
EA6E4DC92
100
AcDbEntity
  8
WAKU
100
AcDbPolyline
 90
        4
 70
     1
 43
0.0
 10
0.0
 20
0.0
 10
362.0
 20
0.0
 10
362.0
 20
546.0
 10
0.0
 20
546.0
  0
LINE
  5
EA6E4EE30
330
EA6E4DC92
100
AcDbEntity
  8
SUNPOU
100
AcDbLine
 10
326.0579107364687
 20
20.31112176104011
 30
0.0
 11
331.0579107364687
 21
20.31112176104011
 31
0.0
  0
LINE
  5
EA6E4EE31
330
EA6E4DC92
100
AcDbEntity
  8
SUNPOU
100
AcDbLine
 10
326.0579107364687
 20
14.31112176104011
 30
0.0
 11
331.0579107364687
 21
14.31112176104011
 31
0.0
  0
LINE
  5
EA6E4EE32
330
EA6E4DC92
100
AcDbEntity
  8
SUNPOU
100
AcDbLine
 10
328.5579107364688
 20
20.31112176104011
 30
0.0
 11
328.5579107364688
 21
14.31112176104011
 31
0.0
  0
LINE
  5
EA6E4EE33
330
EA6E4DC92
100
AcDbEntity
  8
SUNPOU
100
AcDbLine
 10
327.0579107364687
 20
20.31112176104011
 30
0.0
 11
327.0579107364687
 21
14.31112176104011
 31
0.0
  0
LINE
  5
EA6E4EE34
330
EA6E4DC92
100
AcDbEntity
  8
SUNPOU
100
AcDbLine
 10
330.0579107364687
 20
20.31112176104011
 30
0.0
 11
330.0579107364687
 21
14.31112176104011
 31
0.0
  0
ARC
  5
EA6E50D78
330
EA6E4DC92
100
AcDbEntity
  8
TENSEN
100
AcDbCircle
 10
82.86191674254974
 20
127.6353809753806
 30
0.0
 40
14.85702783993099
100
AcDbArc
 50
52.71641621260346
 51
127.2835837873965
  0
ARC
  5
EA6E50D79
330
EA6E4DC92
100
AcDbEntity
  8
TENSEN
100
AcDbCircle
 10
82.86191674254974
 20
151.2877206390452
 30
0.0
 40
14.85702783993099
100
AcDbArc
 50
232.7164162126035
 51
307.2835837873964
  0
ARC
  5
EA6E50D7A
330
EA6E4DC92
100
AcDbEntity
  8
TENSEN
100
AcDbCircle
 10
100.8615167425497
 20
151.2772824383753
 30
0.0
 40
14.85702783993118
100
AcDbArc
 50
232.7164162126035
 51
307.2835837873964
  0
LINE
  5
EA6E50D7B
330
EA6E4DC92
100
AcDbEntity
  8
TENSEN
100
AcDbLine
 10
73.86211674255014
 20
139.4563317068781
 30
0.0
 11
73.86211674255014
 21
164.4563317068783
 31
0.0
  0
LINE
  5
EA6E50D7C
330
EA6E4DC92
100
AcDbEntity
  8
TENSEN
100
AcDbLine
 10
109.8621167425503
 20
139.4563317068781
 30
0.0
 11
109.8621167425503
 21
164.4563317068783
 31
0.0
  0
LINE
  5
EA6E50D7D
330
EA6E4DC92
100
AcDbEntity
  8
TENSEN
100
AcDbLine
 10
109.8621167425503
 20
164.4563317068783
 30
0.0
 11
73.86211674255014
 21
164.4563317068783
 31
0.0
  0
ARC
  5
EA6E50D7E
330
EA6E4DC92
100
AcDbEntity
  8
JISSEN
100
AcDbCircle
 10
180.1921167425489
 20
299.3963317068807
 30
0.0
 40
1.0
100
AcDbArc
 50
269.999999999987
 51
359.9999999999869
  0
CIRCLE
  5
EA6E50D7F
330
EA6E4DC92
100
AcDbEntity
  8
TEXT
100
AcDbCircle
 10
254.3987428729603
 20
151.4696942626276
 30
0.0
 40
7.5
  0
CIRCLE
  5
EA6E50D80
330
EA6E4DC92
100
AcDbEntity
  8
TEXT
100
AcDbCircle
 10
234.3930218978995
 20
151.4696942626276
 30
0.0
 40
7.5
  0
CIRCLE
  5
EA6E50D81
330
EA6E4DC92
100
AcDbEntity
  8
TEXT
100
AcDbCircle
 10
214.7418569931702
 20
151.4696942626276
 30
0.0
 40
7.5
  0
CIRCLE
  5
EA6E50D82
330
EA6E4DC92
100
AcDbEntity
  8
TEXT
100
AcDbCircle
 10
194.7157502205667
 20
151.4696942626276
 30
0.0
 40
7.5
  0
CIRCLE
  5
EA6E50D83
330
EA6E4DC92
100
AcDbEntity
  8
TEXT
100
AcDbCircle
 10
173.9961407477788
 20
151.4696942626276
 30
0.0
 40
7.5
  0
CIRCLE
  5
EA6E50D84
330
EA6E4DC92
100
AcDbEntity
  8
TEXT
100
AcDbCircle
 10
149.0352484075472
 20
151.4696942626276
 30
0.0
 40
7.5
  0
CIRCLE
  5
EA6E50D85
330
EA6E4DC92
100
AcDbEntity
  8
TEXT
100
AcDbCircle
 10
132.189367413909
 20
151.4696942626276
 30
0.0
 40
7.5
  0
TEXT
  5
EA6E50D93
330
EA6E4DC92
100
AcDbEntity
  8
JISSEN
100
AcDbText
 10
12.49912583161795
 20
73.37197805598271
 30
0.0
 40
10.0
  1
%%UK=50 対応
  7
K
 72
     4
 11
46.71341154590368
 21
77.3719780559827
 31
0.0
100
AcDbText
  0
MTEXT
  5
EA6E50D94
330
EA6E4DC92
100
AcDbEntity
  8
TEXT
100
AcDbMText
 10
37.55797439398065
 20
250.5930887356618
 30
0.0
 40
6.0
 41
0.0
 71
     5
 72
     1
  1
\A1;(162)
  7
K
 11
0.0000000000000001
 21
1.0
 31
0.0
1001
ACAD
1000
MTEXTBEGIN
1070
    73
1070
     1
1070
    44
1040
1.0
1070
    74
1070
     0
1000
MTEXTEND
  0
INSERT
  5
EA6E50D95
330
EA6E4DC92
100
AcDbEntity
  8
TEXT
100
AcDbBlockReference
  2
ARROWANG
 10
41.49420352522952
 20
169.7898457644819
 30
0.0
 41
3.0
 42
3.0
 43
3.0
 50
270.0
  0
INSERT
  5
EA6E50D96
330
EA6E4DC92
100
AcDbEntity
  8
TEXT
100
AcDbBlockReference
  2
ARROWANG
 10
41.49420352522952
 20
331.3963317068417
 30
0.0
 41
3.0
 42
3.0
 43
3.0
 50
90.0
  0
LINE
  5
EA6E50D97
330
EA6E4DC92
100
AcDbEntity
  8
TEXT
100
AcDbLine
 10
41.49420352522952
 20
331.3963317068417
 30
0.0
 11
41.49420352522952
 21
169.7898457644819
 31
0.0
  0
LINE
  5
EA6E50D98
330
EA6E4DC92
100
AcDbEntity
  8
TEXT
100
AcDbLine
 10
76.46025692824991
 20
169.7898457644819
 30
0.0
 11
39.49420352522952
 21
169.7898457644819
 31
0.0
  0
LINE
  5
EA6E50D99
330
EA6E4DC92
100
AcDbEntity
  8
TEXT
100
AcDbLine
 10
151.8421167425503
 20
331.3963317068416
 30
0.0
 11
39.49420352522952
 21
331.3963317068417
 31
0.0
  0
TEXT
  5
EA6E50D9A
330
EA6E4DC92
100
AcDbEntity
  8
TEXT
100
AcDbText
 10
333.4999999999999
 20
465.0
 30
0.0
 40
6.0
  1
2MPa
  7
K
 72
     4
 11
344.5
 21
468.0
 31
0.0
100
AcDbText
  0
MTEXT
  5
EA6E50D9B
330
EA6E4DC92
100
AcDbEntity
  8
TEXT
100
AcDbMText
 10
295.1162150578125
 20
399.5500609597013
 30
0.0
 40
6.0
 41
0.0
 71
     5
 72
     1
  1
\A1;(77)
  7
K
1001
ACAD
1000
MTEXTBEGIN
1070
    73
1070
     1
1070
    44
1040
1.0
1070
    74
1070
     0
1000
MTEXTEND
  0
INSERT
  5
EA6E50D9C
330
EA6E4DC92
100
AcDbEntity
  8
TEXT
100
AcDbBlockReference
  2
ARROWANG
 10
333.6112150578124
 20
395.696119298715
 30
0.0
 41
3.0
 42
3.0
 43
3.0
  0
INSERT
  5
EA6E50D9D
330
EA6E4DC92
100
AcDbEntity
  8
TEXT
100
AcDbBlockReference
  2
ARROWANG
 10
256.6212150578126
 20
395.696119298715
 30
0.0
 41
3.0
 42
3.0
 43
3.0
 50
180.0
  0
LINE
  5
EA6E50D9E
330
EA6E4DC92
100
AcDbEntity
  8
TEXT
100
AcDbLine
 10
256.6212150578126
 20
395.696119298715
 30
0.0
 11
333.6112150578124
 21
395.696119298715
 31
0.0
  0
LINE
  5
EA6E50D9F
330
EA6E4DC92
100
AcDbEntity
  8
TEXT
100
AcDbLine
 10
333.6112150578124
 20
306.3963007068792
 30
0.0
 11
333.6112150578124
 21
397.696119298715
 31
0.0
  0
LINE
  5
EA6E50DA0
330
EA6E4DC92
100
AcDbEntity
  8
TEXT
100
AcDbLine
 10
256.6212150578126
 20
333.3963007068575
 30
0.0
 11
256.6212150578126
 21
397.696119298715
 31
0.0
  0
MTEXT
  5
EA6E50DA1
330
EA6E4DC92
100
AcDbEntity
  8
TEXT
100
AcDbMText
 10
74.36211674255083
 20
399.9934652898375
 30
0.0
 40
6.0
 41
0.0
 71
     5
 72
     1
  1
\A1;(35)
  7
K
1001
ACAD
1000
MTEXTBEGIN
1070
    73
1070
     1
1070
    44
1040
1.0
1070
    74
1070
     0
1000
MTEXTEND
  0
INSERT
  5
EA6E50DA2
330
EA6E4DC92
100
AcDbEntity
  8
TEXT
100
AcDbBlockReference
  2
ARROWANG
 10
91.86211674255037
 20
395.696119298715
 30
0.0
 41
3.0
 42
3.0
 43
3.0
  0
INSERT
  5
EA6E50DA3
330
EA6E4DC92
100
AcDbEntity
  8
TEXT
100
AcDbBlockReference
  2
ARROWANG
 10
56.86211674255128
 20
395.696119298715
 30
0.0
 41
3.0
 42
3.0
 43
3.0
 50
180.0
  0
LINE
  5
EA6E50DA4
330
EA6E4DC92
100
AcDbEntity
  8
TEXT
100
AcDbLine
 10
56.86211674255128
 20
395.696119298715
 30
0.0
 11
91.86211674255037
 21
395.696119298715
 31
0.0
  0
LINE
  5
EA6E50DA5
330
EA6E4DC92
100
AcDbEntity
  8
TEXT
100
AcDbLine
 10
91.86211674255037
 20
378.1049781953309
 30
0.0
 11
91.86211674255037
 21
397.696119298715
 31
0.0
  0
LINE
  5
EA6E50DA6
330
EA6E4DC92
100
AcDbEntity
  8
TEXT
100
AcDbLine
 10
56.86211674255128
 20
220.956331706879
 30
0.0
 11
56.86211674255128
 21
397.696119298715
 31
0.0
  0
MTEXT
  5
EA6E50DA7
330
EA6E4DC92
100
AcDbEntity
  8
TEXT
100
AcDbMText
 10
137.2771167425503
 20
400.3513031360721
 30
0.0
 40
6.0
 41
0.0
 71
     5
 72
     1
  1
(91)
  7
K
1001
ACAD
1000
MTEXTBEGIN
1070
    73
1070
     1
1070
    44
1040
1.0
1070
    74
1070
     0
1000
MTEXTEND
  0
INSERT
  5
EA6E50DA8
330
EA6E4DC92
100
AcDbEntity
  8
TEXT
100
AcDbBlockReference
  2
ARROWANG
 10
91.86211674255037
 20
395.696119298715
 30
0.0
 41
3.0
 42
3.0
 43
3.0
 50
180.0
  0
INSERT
  5
EA6E50DA9
330
EA6E4DC92
100
AcDbEntity
  8
TEXT
100
AcDbBlockReference
  2
ARROWANG
 10
182.6921167425503
 20
395.696119298715
 30
0.0
 41
3.0
 42
3.0
 43
3.0
  0
LINE
  5
EA6E50DAA
330
EA6E4DC92
100
AcDbEntity
  8
TEXT
100
AcDbLine
 10
182.6921167425503
 20
395.696119298715
 30
0.0
 11
91.86211674255037
 21
395.6961192987151
 31
0.0
  0
LINE
  5
EA6E50DAB
330
EA6E4DC92
100
AcDbEntity
  8
TEXT
100
AcDbLine
 10
91.86211674255037
 20
386.9836333478455
 30
0.0
 11
91.86211674255037
 21
397.696119298715
 31
0.0
  0
LINE
  5
EA6E50DAC
330
EA6E4DC92
100
AcDbEntity
  8
TEXT
100
AcDbLine
 10
182.6921167425503
 20
306.3963317068804
 30
0.0
 11
182.6921167425503
 21
397.696119298715
 31
0.0
  0
ARC
  5
EA6E50DAD
330
EA6E4DC92
100
AcDbEntity
  8
JISSEN
100
AcDbCircle
 10
308.6112150578126
 20
304.3963007068792
 30
0.0
 40
11.00003100000111
100
AcDbArc
 50
19.78351062062839
 51
24.62032968157523
  0
POLYLINE
  5
EA6E50DAE
330
EA6E4DC92
100
AcDbEntity
  8
SAISEN
100
AcDb2dPolyline
 66
     1
 10
0.0
 20
0.0
 30
0.0
  0
VERTEX
  5
EA6E50DAF
330
EA6E50DAE
100
AcDbEntity
  8
SAISEN
100
AcDbVertex
100
AcDb2dVertex
 10
294.6112150578125
 20
265.4263007068789
 30
0.0
  0
VERTEX
  5
EA6E50DB0
330
EA6E50DAE
100
AcDbEntity
  8
SAISEN
100
AcDbVertex
100
AcDb2dVertex
 10
295.5183353694676
 20
265.2116974871639
 30
0.0
  0
VERTEX
  5
EA6E50DB1
330
EA6E50DAE
100
AcDbEntity
  8
SAISEN
100
AcDbVertex
100
AcDb2dVertex
 10
296.316119238915
 20
265.05322672356
 30
0.0
  0
VERTEX
  5
EA6E50DB2
330
EA6E50DAE
100
AcDbEntity
  8
SAISEN
100
AcDbVertex
100
AcDb2dVertex
 10
297.0166756395837
 20
264.9384621488473
 30
0.0
  0
VERTEX
  5
EA6E50DB3
330
EA6E50DAE
100
AcDbEntity
  8
SAISEN
100
AcDbVertex
100
AcDb2dVertex
 10
297.6321135449036
 20
264.8549774958062
 30
0.0
  0
VERTEX
  5
EA6E50DB4
330
EA6E50DAE
100
AcDbEntity
  8
SAISEN
100
AcDbVertex
100
AcDb2dVertex
 10
298.174541928304
 20
264.7903464972165
 30
0.0
  0
VERTEX
  5
EA6E50DB5
330
EA6E50DAE
100
AcDbEntity
  8
SAISEN
100
AcDbVertex
100
AcDb2dVertex
 10
298.6560697632147
 20
264.7321428858585
 30
0.0
  0
VERTEX
  5
EA6E50DB6
330
EA6E50DAE
100
AcDbEntity
  8
SAISEN
100
AcDbVertex
100
AcDb2dVertex
 10
299.0888060230651
 20
264.6679403945124
 30
0.0
  0
VERTEX
  5
EA6E50DB7
330
EA6E50DAE
100
AcDbEntity
  8
SAISEN
100
AcDbVertex
100
AcDb2dVertex
 10
299.4848596812846
 20
264.5853127559581
 30
0.0
  0
VERTEX
  5
EA6E50DB8
330
EA6E50DAE
100
AcDbEntity
  8
SAISEN
100
AcDbVertex
100
AcDb2dVertex
 10
299.85476206426
 20
264.4751426131199
 30
0.0
  0
VERTEX
  5
EA6E50DB9
330
EA6E50DAE
100
AcDbEntity
  8
SAISEN
100
AcDbVertex
100
AcDb2dVertex
 10
300.2027339102062
 20
264.3415482494973
 30
0.0
  0
VERTEX
  5
EA6E50DBA
330
EA6E50DAE
100
AcDbEntity
  8
SAISEN
100
AcDbVertex
100
AcDb2dVertex
 10
300.5314183102957
 20
264.191956858734
 30
0.0
  0
VERTEX
  5
EA6E50DBB
330
EA6E50DAE
100
AcDbEntity
  8
SAISEN
100
AcDbVertex
100
AcDb2dVertex
 10
300.8434583557002
 20
264.0337956344739
 30
0.0
  0
VERTEX
  5
EA6E50DBC
330
EA6E50DAE
100
AcDbEntity
  8
SAISEN
100
AcDbVertex
100
AcDb2dVertex
 10
301.1414971375923
 20
263.8744917703604
 30
0.0
  0
VERTEX
  5
EA6E50DBD
330
EA6E50DAE
100
AcDbEntity
  8
SAISEN
100
AcDbVertex
100
AcDb2dVertex
 10
301.428177747144
 20
263.7214724600372
 30
0.0
  0
VERTEX
  5
EA6E50DBE
330
EA6E50DAE
100
AcDbEntity
  8
SAISEN
100
AcDbVertex
100
AcDb2dVertex
 10
301.7061432755273
 20
263.5821648971479
 30
0.0
  0
VERTEX
  5
EA6E50DBF
330
EA6E50DAE
100
AcDbEntity
  8
SAISEN
100
AcDbVertex
100
AcDb2dVertex
 10
301.9780368139145
 20
263.4639962753362
 30
0.0
  0
VERTEX
  5
EA6E50DC0
330
EA6E50DAE
100
AcDbEntity
  8
SAISEN
100
AcDbVertex
100
AcDb2dVertex
 10
302.2461323736747
 20
263.3726798203932
 30
0.0
  0
VERTEX
  5
EA6E50DC1
330
EA6E50DAE
100
AcDbEntity
  8
SAISEN
100
AcDbVertex
100
AcDb2dVertex
 10
302.511227646964
 20
263.3070728866993
 30
0.0
  0
VERTEX
  5
EA6E50DC2
330
EA6E50DAE
100
AcDbEntity
  8
SAISEN
100
AcDbVertex
100
AcDb2dVertex
 10
302.7737512461353
 20
263.2643188607824
 30
0.0
  0
VERTEX
  5
EA6E50DC3
330
EA6E50DAE
100
AcDbEntity
  8
SAISEN
100
AcDbVertex
100
AcDb2dVertex
 10
303.0341317835418
 20
263.2415611291704
 30
0.0
  0
VERTEX
  5
EA6E50DC4
330
EA6E50DAE
100
AcDbEntity
  8
SAISEN
100
AcDbVertex
100
AcDb2dVertex
 10
303.2927978715362
 20
263.2359430783911
 30
0.0
  0
VERTEX
  5
EA6E50DC5
330
EA6E50DAE
100
AcDbEntity
  8
SAISEN
100
AcDbVertex
100
AcDb2dVertex
 10
303.5501781224717
 20
263.2446080949725
 30
0.0
  0
VERTEX
  5
EA6E50DC6
330
EA6E50DAE
100
AcDbEntity
  8
SAISEN
100
AcDbVertex
100
AcDb2dVertex
 10
303.8067011487012
 20
263.2646995654424
 30
0.0
  0
VERTEX
  5
EA6E50DC7
330
EA6E50DAE
100
AcDbEntity
  8
SAISEN
100
AcDbVertex
100
AcDb2dVertex
 10
304.0627955625777
 20
263.2933608763286
 30
0.0
  0
VERTEX
  5
EA6E50DC8
330
EA6E50DAE
100
AcDbEntity
  8
SAISEN
100
AcDbVertex
100
AcDb2dVertex
 10
304.3190566582718
 20
263.3274021424721
 30
0.0
  0
VERTEX
  5
EA6E50DC9
330
EA6E50DAE
100
AcDbEntity
  8
SAISEN
100
AcDbVertex
100
AcDb2dVertex
 10
304.5767464572247
 20
263.3623003919652
 30
0.0
  0
VERTEX
  5
EA6E50DCA
330
EA6E50DAE
100
AcDbEntity
  8
SAISEN
100
AcDbVertex
100
AcDb2dVertex
 10
304.8372936626954
 20
263.3931993812135
 30
0.0
  0
VERTEX
  5
EA6E50DCB
330
EA6E50DAE
100
AcDbEntity
  8
SAISEN
100
AcDbVertex
100
AcDb2dVertex
 10
305.1021269779423
 20
263.4152428666224
 30
0.0
  0
VERTEX
  5
EA6E50DCC
330
EA6E50DAE
100
AcDbEntity
  8
SAISEN
100
AcDbVertex
100
AcDb2dVertex
 10
305.3726751062247
 20
263.4235746045973
 30
0.0
  0
VERTEX
  5
EA6E50DCD
330
EA6E50DAE
100
AcDbEntity
  8
SAISEN
100
AcDbVertex
100
AcDb2dVertex
 10
305.650366750801
 20
263.4133383515437
 30
0.0
  0
VERTEX
  5
EA6E50DCE
330
EA6E50DAE
100
AcDbEntity
  8
SAISEN
100
AcDbVertex
100
AcDb2dVertex
 10
305.9366306149302
 20
263.379677863867
 30
0.0
  0
VERTEX
  5
EA6E50DCF
330
EA6E50DAE
100
AcDbEntity
  8
SAISEN
100
AcDbVertex
100
AcDb2dVertex
 10
306.2328954018712
 20
263.3177368979727
 30
0.0
  0
VERTEX
  5
EA6E50DD0
330
EA6E50DAE
100
AcDbEntity
  8
SAISEN
100
AcDbVertex
100
AcDb2dVertex
 10
306.540566001557
 20
263.2245636198244
 30
0.0
  0
VERTEX
  5
EA6E50DD1
330
EA6E50DAE
100
AcDbEntity
  8
SAISEN
100
AcDbVertex
100
AcDb2dVertex
 10
306.8609520506189
 20
263.1048238336174
 30
0.0
  0
VERTEX
  5
EA6E50DD2
330
EA6E50DAE
100
AcDbEntity
  8
SAISEN
100
AcDbVertex
100
AcDb2dVertex
 10
307.1953393723624
 20
262.9650877531056
 30
0.0
  0
VERTEX
  5
EA6E50DD3
330
EA6E50DAE
100
AcDbEntity
  8
SAISEN
100
AcDbVertex
100
AcDb2dVertex
 10
307.5450137900929
 20
262.8119255920426
 30
0.0
  0
VERTEX
  5
EA6E50DD4
330
EA6E50DAE
100
AcDbEntity
  8
SAISEN
100
AcDbVertex
100
AcDb2dVertex
 10
307.911261127116
 20
262.6519075641819
 30
0.0
  0
VERTEX
  5
EA6E50DD5
330
EA6E50DAE
100
AcDbEntity
  8
SAISEN
100
AcDbVertex
100
AcDb2dVertex
 10
308.2953672067373
 20
262.4916038832773
 30
0.0
  0
VERTEX
  5
EA6E50DD6
330
EA6E50DAE
100
AcDbEntity
  8
SAISEN
100
AcDbVertex
100
AcDb2dVertex
 10
308.6986178522621
 20
262.3375847630824
 30
0.0
  0
VERTEX
  5
EA6E50DD7
330
EA6E50DAE
100
AcDbEntity
  8
SAISEN
100
AcDbVertex
100
AcDb2dVertex
 10
309.122298886996
 20
262.1964204173508
 30
0.0
  0
VERTEX
  5
EA6E50DD8
330
EA6E50DAE
100
AcDbEntity
  8
SAISEN
100
AcDbVertex
100
AcDb2dVertex
 10
309.5665055535444
 20
262.0736574392015
 30
0.0
  0
VERTEX
  5
EA6E50DD9
330
EA6E50DAE
100
AcDbEntity
  8
SAISEN
100
AcDbVertex
100
AcDb2dVertex
 10
310.0265707717101
 20
261.9707479392141
 30
0.0
  0
VERTEX
  5
EA6E50DDA
330
EA6E50DAE
100
AcDbEntity
  8
SAISEN
100
AcDbVertex
100
AcDb2dVertex
 10
310.4966368805961
 20
261.8881204073338
 30
0.0
  0
VERTEX
  5
EA6E50DDB
330
EA6E50DAE
100
AcDbEntity
  8
SAISEN
100
AcDbVertex
100
AcDb2dVertex
 10
310.9708462193053
 20
261.8262033335054
 30
0.0
  0
VERTEX
  5
EA6E50DDC
330
EA6E50DAE
100
AcDbEntity
  8
SAISEN
100
AcDbVertex
100
AcDb2dVertex
 10
311.4433411269404
 20
261.785425207674
 30
0.0
  0
VERTEX
  5
EA6E50DDD
330
EA6E50DAE
100
AcDbEntity
  8
SAISEN
100
AcDbVertex
100
AcDb2dVertex
 10
311.9082639426044
 20
261.7662145197846
 30
0.0
  0
VERTEX
  5
EA6E50DDE
330
EA6E50DAE
100
AcDbEntity
  8
SAISEN
100
AcDbVertex
100
AcDb2dVertex
 10
312.3597570054
 20
261.7689997597822
 30
0.0
  0
VERTEX
  5
EA6E50DDF
330
EA6E50DAE
100
AcDbEntity
  8
SAISEN
100
AcDbVertex
100
AcDb2dVertex
 10
312.7919626544301
 20
261.7942094176119
 30
0.0
  0
VERTEX
  5
EA6E50DE0
330
EA6E50DAE
100
AcDbEntity
  8
SAISEN
100
AcDbVertex
100
AcDb2dVertex
 10
313.2010710288552
 20
261.8409627020438
 30
0.0
  0
VERTEX
  5
EA6E50DE1
330
EA6E50DAE
100
AcDbEntity
  8
SAISEN
100
AcDbVertex
100
AcDb2dVertex
 10
313.5914634680676
 20
261.9031416971493
 30
0.0
  0
VERTEX
  5
EA6E50DE2
330
EA6E50DAE
100
AcDbEntity
  8
SAISEN
100
AcDbVertex
100
AcDb2dVertex
 10
313.9695691115174
 20
261.9733192058252
 30
0.0
  0
VERTEX
  5
EA6E50DE3
330
EA6E50DAE
100
AcDbEntity
  8
SAISEN
100
AcDbVertex
100
AcDb2dVertex
 10
314.3418170986544
 20
262.044068030968
 30
0.0
  0
VERTEX
  5
EA6E50DE4
330
EA6E50DAE
100
AcDbEntity
  8
SAISEN
100
AcDbVertex
100
AcDb2dVertex
 10
314.7146365689288
 20
262.1079609754745
 30
0.0
  0
VERTEX
  5
EA6E50DE5
330
EA6E50DAE
100
AcDbEntity
  8
SAISEN
100
AcDbVertex
100
AcDb2dVertex
 10
315.0944566617905
 20
262.1575708422413
 30
0.0
  0
VERTEX
  5
EA6E50DE6
330
EA6E50DAE
100
AcDbEntity
  8
SAISEN
100
AcDbVertex
100
AcDb2dVertex
 10
315.4877065166896
 20
262.1854704341651
 30
0.0
  0
VERTEX
  5
EA6E50DE7
330
EA6E50DAE
100
AcDbEntity
  8
SAISEN
100
AcDbVertex
100
AcDb2dVertex
 10
315.9008152730759
 20
262.1842325541424
 30
0.0
  0
VERTEX
  5
EA6E50DE8
330
EA6E50DAE
100
AcDbEntity
  8
SAISEN
100
AcDbVertex
100
AcDb2dVertex
 10
316.3389619609699
 20
262.1492509116233
 30
0.0
  0
VERTEX
  5
EA6E50DE9
330
EA6E50DAE
100
AcDbEntity
  8
SAISEN
100
AcDbVertex
100
AcDb2dVertex
 10
316.8023251726722
 20
262.0872028422711
 30
0.0
  0
VERTEX
  5
EA6E50DEA
330
EA6E50DAE
100
AcDbEntity
  8
SAISEN
100
AcDbVertex
100
AcDb2dVertex
 10
317.2898333910538
 20
262.0075865883023
 30
0.0
  0
VERTEX
  5
EA6E50DEB
330
EA6E50DAE
100
AcDbEntity
  8
SAISEN
100
AcDbVertex
100
AcDb2dVertex
 10
317.8004150989857
 20
261.9199003919337
 30
0.0
  0
VERTEX
  5
EA6E50DEC
330
EA6E50DAE
100
AcDbEntity
  8
SAISEN
100
AcDbVertex
100
AcDb2dVertex
 10
318.3329987793388
 20
261.8336424953816
 30
0.0
  0
VERTEX
  5
EA6E50DED
330
EA6E50DAE
100
AcDbEntity
  8
SAISEN
100
AcDbVertex
100
AcDb2dVertex
 10
318.8865129149841
 20
261.758311140863
 30
0.0
  0
VERTEX
  5
EA6E50DEE
330
EA6E50DAE
100
AcDbEntity
  8
SAISEN
100
AcDbVertex
100
AcDb2dVertex
 10
319.4598859887926
 20
261.7034045705941
 30
0.0
  0
VERTEX
  5
EA6E50DEF
330
EA6E50DAE
100
AcDbEntity
  8
SAISEN
100
AcDbVertex
100
AcDb2dVertex
 10
320.0520464836354
 20
261.6784210267918
 30
0.0
  0
VERTEX
  5
EA6E50DF0
330
EA6E50DAE
100
AcDbEntity
  8
SAISEN
100
AcDbVertex
100
AcDb2dVertex
 10
320.6644113970584
 20
261.6855267762868
 30
0.0
  0
VERTEX
  5
EA6E50DF1
330
EA6E50DAE
100
AcDbEntity
  8
SAISEN
100
AcDbVertex
100
AcDb2dVertex
 10
321.3083517853085
 20
261.6975601843672
 30
0.0
  0
VERTEX
  5
EA6E50DF2
330
EA6E50DAE
100
AcDbEntity
  8
SAISEN
100
AcDbVertex
100
AcDb2dVertex
 10
321.997727219308
 20
261.6800276409354
 30
0.0
  0
VERTEX
  5
EA6E50DF3
330
EA6E50DAE
100
AcDbEntity
  8
SAISEN
100
AcDbVertex
100
AcDb2dVertex
 10
322.6112150578129
 20
261.6131680622513
 30
0.0
  0
SEQEND
  5
EA6E50DF4
330
EA6E50DAE
100
AcDbEntity
  8
SAISEN
  0
LINE
  5
EA6E50DF5
330
EA6E4DC92
100
AcDbEntity
  8
TENSEN
100
AcDbLine
 10
322.2112150578126
 20
342.0203317068799
 30
0.0
 11
322.2112150578127
 21
368.6221641626358
 31
0.0
  0
ARC
  5
EA6E50DF6
330
EA6E4DC92
100
AcDbEntity
  8
TENSEN
100
AcDbCircle
 10
301.8112150578124
 20
359.6905806858713
 30
0.0
 40
11.22555938037867
100
AcDbArc
 50
52.71641621260346
 51
127.2835837873965
  0
LINE
  5
EA6E50DF7
330
EA6E4DC92
100
AcDbEntity
  8
TENSEN
100
AcDbLine
 10
295.0112150578125
 20
342.0203317068811
 30
0.0
 11
295.0112150578125
 21
368.6221641626355
 31
0.0
  0
ARC
  5
EA6E50DF8
330
EA6E4DC92
100
AcDbEntity
  8
TENSEN
100
AcDbCircle
 10
315.4112150578124
 20
377.5537476393996
 30
0.0
 40
11.22555938037854
100
AcDbArc
 50
232.7164162126035
 51
307.2835837873964
  0
ARC
  5
EA6E50DF9
330
EA6E4DC92
100
AcDbEntity
  8
TENSEN
100
AcDbCircle
 10
315.4112150578124
 20
359.6826938701025
 30
0.0
 40
11.22555938037854
100
AcDbArc
 50
52.71641621260346
 51
127.2835837873965
  0
LINE
  5
EA6E50DFA
330
EA6E4DC92
100
AcDbEntity
  8
TENSEN
100
AcDbLine
 10
320.6875176928253
 20
334.3963007068791
 30
0.0
 11
320.5312676928254
 21
329.3963007068791
 31
0.0
  0
LINE
  5
EA6E50DFB
330
EA6E4DC92
100
AcDbEntity
  8
JISSEN
100
AcDbLine
 10
318.6112150578126
 20
312.6463007068792
 30
0.0
 11
318.6112150578125
 21
308.1371562123854
 31
0.0
  0
LINE
  5
EA6E50DFC
330
EA6E4DC92
100
AcDbEntity
  8
JISSEN
100
AcDbLine
 10
318.6112150578126
 20
312.6463007068792
 30
0.0
 11
318.4668774905151
 21
312.8963007068792
 31
0.0
  0
LINE
  5
EA6E50DFD
330
EA6E4DC92
100
AcDbEntity
  8
JISSEN
100
AcDbLine
 10
318.05044286428
 20
312.8963007068792
 30
0.0
 11
318.05044286428
 21
311.806106871821
 31
0.0
  0
ARC
  5
EA6E50DFE
330
EA6E4DC92
100
AcDbEntity
  8
JISSEN
100
AcDbCircle
 10
306.2707341369191
 20
308.6463007068793
 30
0.0
 40
12.19614335359598
100
AcDbArc
 50
357.6441178663428
 51
15.0156223423061
  0
ARC
  5
EA6E50DFF
330
EA6E4DC92
100
AcDbEntity
  8
JISSEN
100
AcDbCircle
 10
308.6112150578126
 20
304.3963007068792
 30
0.0
 40
11.00003100000111
100
AcDbArc
 50
335.3796703184248
 51
340.2164893793723
  0
LINE
  5
EA6E50E00
330
EA6E4DC92
100
AcDbEntity
  8
1
 62
     7
100
AcDbLine
 10
326.6112150578129
 20
307.7333443605259
 30
0.0
 11
326.6112150578128
 21
329.3963007068791
 31
0.0
  0
LINE
  5
EA6E50E01
330
EA6E4DC92
100
AcDbEntity
  8
JISSEN
100
AcDbLine
 10
318.6112150578119
 20
296.1463007068792
 30
0.0
 11
318.4668774905144
 21
295.896300706879
 31
0.0
  0
LINE
  5
EA6E50E02
330
EA6E4DC92
100
AcDbEntity
  8
JISSEN
100
AcDbLine
 10
318.05044286428
 20
295.8963007068792
 30
0.0
 11
318.05044286428
 21
296.9864945419375
 31
0.0
  0
LINE
  5
EA6E50E03
330
EA6E4DC92
100
AcDbEntity
  8
1
 62
     7
100
AcDbLine
 10
322.0814025578127
 20
270.9263007068789
 30
0.0
 11
321.8167150578126
 21
279.3963007068789
 31
0.0
  0
LINE
  5
EA6E50E04
330
EA6E4DC92
100
AcDbEntity
  8
1
 62
     2
100
AcDbLine
 10
320.5364503519303
 20
279.3963007068789
 30
0.0
 11
320.6927003519304
 21
274.3963007068789
 31
0.0
  0
LINE
  5
EA6E50E05
330
EA6E4DC92
100
AcDbEntity
  8
1
 62
     2
100
AcDbLine
 10
320.6927003519304
 20
274.3963007068789
 30
0.0
 11
322.0462268273375
 21
272.051924082084
 31
0.0
  0
LINE
  5
EA6E50E06
330
EA6E4DC92
100
AcDbEntity
  8
1
 62
     7
100
AcDbLine
 10
326.6112150578128
 20
279.3963007068789
 30
0.0
 11
326.6112150578129
 21
301.0592570532328
 31
0.0
  0
LINE
  5
EA6E50E07
330
EA6E4DC92
100
AcDbEntity
  8
JISSEN
100
AcDbLine
 10
318.6112150578126
 20
300.6554452013733
 30
0.0
 11
318.6112150578126
 21
296.1463007068806
 31
0.0
  0
ARC
  5
EA6E50E08
330
EA6E4DC92
100
AcDbEntity
  8
JISSEN
100
AcDbCircle
 10
306.2707341369191
 20
300.1463007068792
 30
0.0
 40
12.19614335359598
100
AcDbArc
 50
344.9843776576939
 51
2.355882133658842
  0
LINE
  5
EA6E50E09
330
EA6E4DC92
100
AcDbEntity
  8
JISSEN
100
AcDbLine
 10
322.611215057813
 20
270.9263007068786
 30
0.0
 11
322.6112150578129
 21
261.6131680622512
 31
0.0
  0
LINE
  5
EA6E50E0A
330
EA6E4DC92
100
AcDbEntity
  8
TENSEN
100
AcDbLine
 10
296.68079710459
 20
329.3963007068791
 30
0.0
 11
296.52454710459
 21
334.3963007068791
 31
0.0
  0
ARC
  5
EA6E50E0B
330
EA6E4DC92
100
AcDbEntity
  8
JISSEN
100
AcDbCircle
 10
278.1212150578125
 20
327.3963007068958
 30
0.0
 40
2.0
100
AcDbArc
 50
0.0
 51
90.0
  0
LINE
  5
EA6E50E0C
330
EA6E4DC92
100
AcDbEntity
  8
JISSEN
100
AcDbLine
 10
306.6112150578124
 20
305.1463007068794
 30
0.0
 11
308.6112150578124
 21
305.1463007068794
 31
0.0
  0
LINE
  5
EA6E50E0D
330
EA6E4DC92
100
AcDbEntity
  8
JISSEN
100
AcDbLine
 10
306.6112150578124
 20
303.6463007068793
 30
0.0
 11
308.6112150578124
 21
303.6463007068793
 31
0.0
  0
CIRCLE
  5
EA6E50E0E
330
EA6E4DC92
100
AcDbEntity
  8
JISSEN
100
AcDbCircle
 10
308.6112150578126
 20
304.3963007068793
 30
0.0
 40
5.0
  0
LINE
  5
EA6E50E0F
330
EA6E4DC92
100
AcDbEntity
  8
JISSEN
100
AcDbLine
 10
298.1112150578126
 20
312.6463007068792
 30
0.0
 11
298.1112150578126
 21
304.3963007068792
 31
0.0
  0
LINE
  5
EA6E50E10
330
EA6E4DC92
100
AcDbEntity
  8
JISSEN
100
AcDbLine
 10
297.6782023559203
 20
306.0845630153893
 30
0.0
 11
297.6782023559203
 21
304.3963007068792
 31
0.0
  0
LINE
  5
EA6E50E11
330
EA6E4DC92
100
AcDbEntity
  8
JISSEN
100
AcDbLine
 10
298.6719885138411
 20
305.4864945419375
 30
0.0
 11
298.6719885138411
 21
304.3963007068792
 31
0.0
  0
LINE
  5
EA6E50E12
330
EA6E4DC92
100
AcDbEntity
  8
JISSEN
100
AcDbLine
 10
298.6719885138411
 20
303.306106871821
 30
0.0
 11
298.6719885138411
 21
304.3963007068792
 31
0.0
  0
LINE
  5
EA6E50E13
330
EA6E4DC92
100
AcDbEntity
  8
JISSEN
100
AcDbLine
 10
297.6782023559203
 20
302.7080383983692
 30
0.0
 11
297.6782023559203
 21
304.3963007068792
 31
0.0
  0
LINE
  5
EA6E50E14
330
EA6E4DC92
100
AcDbEntity
  8
JISSEN
100
AcDbLine
 10
298.6719885138411
 20
303.3061068718203
 30
0.0
 11
300.6858458296944
 21
303.3061068718203
 31
0.0
  0
LINE
  5
EA6E50E15
330
EA6E4DC92
100
AcDbEntity
  8
JISSEN
100
AcDbLine
 10
310.6112150578123
 20
305.1463007068794
 30
0.0
 11
310.6112150578123
 21
305.8963007068793
 31
0.0
  0
LINE
  5
EA6E50E16
330
EA6E4DC92
100
AcDbEntity
  8
JISSEN
100
AcDbLine
 10
310.6112150578123
 20
303.6463007068793
 30
0.0
 11
310.6112150578123
 21
302.8963007068794
 31
0.0
  0
LINE
  5
EA6E50E17
330
EA6E4DC92
100
AcDbEntity
  8
JISSEN
100
AcDbLine
 10
310.6112150578123
 20
305.1463007068794
 30
0.0
 11
308.6112150578124
 21
305.1463007068794
 31
0.0
  0
LINE
  5
EA6E50E18
330
EA6E4DC92
100
AcDbEntity
  8
JISSEN
100
AcDbLine
 10
310.6112150578123
 20
303.6463007068793
 30
0.0
 11
308.6112150578124
 21
303.6463007068793
 31
0.0
  0
ARC
  5
EA6E50E19
330
EA6E4DC92
100
AcDbEntity
  8
JISSEN
100
AcDbCircle
 10
315.0380299919656
 20
313.3235651144198
 30
0.0
 40
5.0
100
AcDbArc
 50
234.2495596439046
 51
267.7567061899671
  0
ARC
  5
EA6E50E1A
330
EA6E4DC92
100
AcDbEntity
  8
JISSEN
100
AcDbCircle
 10
315.0380299919656
 20
295.4690362993387
 30
0.0
 40
5.0
100
AcDbArc
 50
92.24329381003286
 51
125.7504403560953
  0
LINE
  5
EA6E50E1B
330
EA6E4DC92
100
AcDbEntity
  8
JISSEN
100
AcDbLine
 10
312.1112150578123
 20
304.3963007068794
 30
0.0
 11
310.6112150578123
 21
305.8963007068793
 31
0.0
  0
LINE
  5
EA6E50E1C
330
EA6E4DC92
100
AcDbEntity
  8
JISSEN
100
AcDbLine
 10
312.1112150578123
 20
304.3963007068794
 30
0.0
 11
310.6112150578123
 21
302.8963007068794
 31
0.0
  0
LINE
  5
EA6E50E1D
330
EA6E4DC92
100
AcDbEntity
  8
JISSEN
100
AcDbLine
 10
298.6719885138411
 20
311.806106871821
 30
0.0
 11
305.5954609899235
 21
311.806106871821
 31
0.0
  0
ARC
  5
EA6E50E1E
330
EA6E4DC92
100
AcDbEntity
  8
JISSEN
100
AcDbCircle
 10
310.4516602665298
 20
308.6463007068793
 30
0.0
 40
12.19610764141988
100
AcDbArc
 50
164.9843326544755
 51
195.0156673455244
  0
LINE
  5
EA6E50E1F
330
EA6E4DC92
100
AcDbEntity
  8
JISSEN
100
AcDbLine
 10
297.6782023559203
 20
312.896300706879
 30
0.0
 11
297.6782023559203
 21
311.2080383983694
 31
0.0
  0
ARC
  5
EA6E50E20
330
EA6E4DC92
100
AcDbEntity
  8
JISSEN
100
AcDbCircle
 10
290.3169864237554
 20
308.6463007068793
 30
0.0
 40
7.794228634057486
100
AcDbArc
 50
340.8118635462675
 51
19.18813645372415
  0
POINT
  5
EA6E50E21
330
EA6E4DC92
100
AcDbEntity
  8
JISSEN
  6
BYBLOCK
 62
     2
100
AcDbPoint
 10
298.25555262511
 20
312.8963007068792
 30
0.0
  0
LINE
  5
EA6E50E22
330
EA6E4DC92
100
AcDbEntity
  8
JISSEN
100
AcDbLine
 10
298.6719885138411
 20
312.8963007068792
 30
0.0
 11
298.6719885138411
 21
311.806106871821
 31
0.0
  0
LINE
  5
EA6E50E23
330
EA6E4DC92
100
AcDbEntity
  8
JISSEN
100
AcDbLine
 10
298.1112150578126
 20
312.6463007068792
 30
0.0
 11
297.9668774905153
 21
312.896300706879
 31
0.0
  0
LINE
  5
EA6E50E24
330
EA6E4DC92
100
AcDbEntity
  8
JISSEN
100
AcDbLine
 10
298.1112150578126
 20
312.6463007068792
 30
0.0
 11
298.25555262511
 21
312.8963007068792
 31
0.0
  0
LINE
  5
EA6E50E25
330
EA6E4DC92
100
AcDbEntity
  8
JISSEN
100
AcDbLine
 10
298.6719885138411
 20
305.4864945419375
 30
0.0
 11
300.6858458296944
 21
305.4864945419375
 31
0.0
  0
LINE
  5
EA6E50E26
330
EA6E4DC92
100
AcDbEntity
  8
JISSEN
100
AcDbLine
 10
306.6112150578124
 20
305.1463007068794
 30
0.0
 11
306.6112150578124
 21
305.8963007068793
 31
0.0
  0
LINE
  5
EA6E50E27
330
EA6E4DC92
100
AcDbEntity
  8
JISSEN
100
AcDbLine
 10
305.1112150578124
 20
304.3963007068794
 30
0.0
 11
306.6112150578124
 21
305.8963007068793
 31
0.0
  0
LINE
  5
EA6E50E28
330
EA6E4DC92
100
AcDbEntity
  8
JISSEN
100
AcDbLine
 10
306.6112150578124
 20
303.6463007068793
 30
0.0
 11
306.6112150578124
 21
302.8963007068794
 31
0.0
  0
LINE
  5
EA6E50E29
330
EA6E4DC92
100
AcDbEntity
  8
JISSEN
100
AcDbLine
 10
305.1112150578124
 20
304.3963007068794
 30
0.0
 11
306.6112150578124
 21
302.8963007068794
 31
0.0
  0
CIRCLE
  5
EA6E50E2A
330
EA6E4DC92
100
AcDbEntity
  8
NITEN
100
AcDbCircle
 10
308.6112150578124
 20
304.3963007068791
 30
0.0
 40
5.0
  0
LINE
  5
EA6E50E2B
330
EA6E4DC92
100
AcDbEntity
  8
JISSEN
  6
DASHDOT
100
AcDbLine
 10
288.1212150578125
 20
311.3963007068958
 30
0.0
 11
280.1212150578125
 21
311.3963007068958
 31
0.0
  0
LINE
  5
EA6E50E2C
330
EA6E4DC92
100
AcDbEntity
  8
JISSEN
100
AcDbLine
 10
294.1112150578126
 20
312.6463007068792
 30
0.0
 11
294.1112150578126
 21
304.3963007068792
 31
0.0
  0
LINE
  5
EA6E50E2D
330
EA6E4DC92
100
AcDbEntity
  8
JISSEN
100
AcDbLine
 10
294.5442277597046
 20
306.0845630153902
 30
0.0
 11
294.5442277597046
 21
304.3963007068792
 31
0.0
  0
LINE
  5
EA6E50E2E
330
EA6E4DC92
100
AcDbEntity
  8
1
 62
     2
100
AcDbLine
 10
294.1112150578126
 20
298.6738007068958
 30
0.0
 11
290.4112150578125
 21
298.5581757068958
 31
0.0
  0
LINE
  5
EA6E50E2F
330
EA6E4DC92
100
AcDbEntity
  8
JISSEN
100
AcDbLine
 10
294.5442277597046
 20
302.7080383983683
 30
0.0
 11
294.5442277597046
 21
304.3963007068792
 31
0.0
  0
LINE
  5
EA6E50E30
330
EA6E4DC92
100
AcDbEntity
  8
JISSEN
100
AcDbLine
 10
290.4112150578125
 20
310.2344257068961
 30
0.0
 11
289.4794350540077
 21
311.1195438320149
 31
0.0
  0
LINE
  5
EA6E50E31
330
EA6E4DC92
100
AcDbEntity
  8
1
 62
     2
100
AcDbLine
 10
290.4112150578125
 20
310.2344257068961
 30
0.0
 11
294.1112150578126
 21
310.1188007068961
 31
0.0
  0
LINE
  5
EA6E50E32
330
EA6E4DC92
100
AcDbEntity
  8
1
 62
     7
100
AcDbLine
 10
294.1112150578126
 20
310.9748007068958
 30
0.0
 11
288.1212150578125
 21
311.1619882068958
 31
0.0
  0
LINE
  5
EA6E50E33
330
EA6E4DC92
100
AcDbEntity
  8
JISSEN
100
AcDbLine
 10
294.5442277597048
 20
312.8963007068792
 30
0.0
 11
294.5442277597048
 21
311.2080383983699
 31
0.0
  0
ARC
  5
EA6E50E34
330
EA6E4DC92
100
AcDbEntity
  8
JISSEN
100
AcDbCircle
 10
301.9054436918729
 20
308.6463007068795
 30
0.0
 40
7.794228634060272
100
AcDbArc
 50
160.8118635462835
 51
199.1881364537164
  0
LINE
  5
EA6E50E35
330
EA6E4DC92
100
AcDbEntity
  8
JISSEN
100
AcDbLine
 10
294.1112150578126
 20
312.6463007068792
 30
0.0
 11
294.2555526251101
 21
312.896300706879
 31
0.0
  0
LINE
  5
EA6E50E36
330
EA6E4DC92
100
AcDbEntity
  8
JISSEN
100
AcDbLine
 10
294.5442277597046
 20
302.7080383983683
 30
0.0
 11
297.6782023559203
 21
302.7080383983683
 31
0.0
  0
LINE
  5
EA6E50E37
330
EA6E4DC92
100
AcDbEntity
  8
JISSEN
100
AcDbLine
 10
294.5442277597046
 20
306.0845630153902
 30
0.0
 11
297.6782023559203
 21
306.0845630153902
 31
0.0
  0
LINE
  5
EA6E50E38
330
EA6E4DC92
100
AcDbEntity
  8
JISSEN
100
AcDbLine
 10
294.5442277597046
 20
311.208038398369
 30
0.0
 11
297.6782023559205
 21
311.208038398369
 31
0.0
  0
LINE
  5
EA6E50E39
330
EA6E4DC92
100
AcDbEntity
  8
JISSEN
100
AcDbLine
 10
294.2555526251101
 20
312.896300706879
 30
0.0
 11
297.9668774905153
 21
312.896300706879
 31
0.0
  0
LINE
  5
EA6E50E3A
330
EA6E4DC92
100
AcDbEntity
  8
1
 62
     7
100
AcDbLine
 10
290.6112150578126
 20
329.3963007068791
 30
0.0
 11
290.6112150578126
 21
311.0841757068959
 31
0.0
  0
LINE
  5
EA6E50E3B
330
EA6E4DC92
100
AcDbEntity
  8
JISSEN
100
AcDbLine
 10
263.2906834883903
 20
331.3963007068575
 30
0.0
 11
256.6212150578126
 21
331.3963007068575
 31
0.0
  0
LINE
  5
EA6E50E3C
330
EA6E4DC92
100
AcDbEntity
  8
JISSEN
  6
BYBLOCK
 62
     0
100
AcDbLine
 10
278.1212150578125
 20
329.3963007068958
 30
0.0
 11
263.2906834883903
 21
329.3963007068959
 31
0.0
  0
LINE
  5
EA6E50E3D
330
EA6E4DC92
100
AcDbEntity
  8
JISSEN
100
AcDbLine
 10
298.6719885138411
 20
296.9864945419373
 30
0.0
 11
305.5954609899233
 21
296.9864945419374
 31
0.0
  0
LINE
  5
EA6E50E3E
330
EA6E4DC92
100
AcDbEntity
  8
JISSEN
100
AcDbLine
 10
298.25555262511
 20
295.896300706879
 30
0.0
 11
308.6112150578126
 21
295.8963007068792
 31
0.0
  0
POINT
  5
EA6E50E3F
330
EA6E4DC92
100
AcDbEntity
  8
JISSEN
  6
BYBLOCK
 62
     2
100
AcDbPoint
 10
298.25555262511
 20
295.896300706879
 30
0.0
  0
LINE
  5
EA6E50E40
330
EA6E4DC92
100
AcDbEntity
  8
JISSEN
100
AcDbLine
 10
298.1112150578126
 20
296.1463007068792
 30
0.0
 11
297.9668774905153
 21
295.8963007068792
 31
0.0
  0
LINE
  5
EA6E50E41
330
EA6E4DC92
100
AcDbEntity
  8
JISSEN
100
AcDbLine
 10
298.6719885138411
 20
295.8963007068792
 30
0.0
 11
298.6719885138411
 21
296.9864945419375
 31
0.0
  0
LINE
  5
EA6E50E42
330
EA6E4DC92
100
AcDbEntity
  8
JISSEN
100
AcDbLine
 10
298.1112150578126
 20
296.1463007068792
 30
0.0
 11
298.25555262511
 21
295.8963007068792
 31
0.0
  0
LINE
  5
EA6E50E43
330
EA6E4DC92
100
AcDbEntity
  8
JISSEN
100
AcDbLine
 10
297.6782023559205
 20
295.896300706879
 30
0.0
 11
297.6782023559205
 21
297.5845630153891
 31
0.0
  0
ARC
  5
EA6E50E44
330
EA6E4DC92
100
AcDbEntity
  8
JISSEN
100
AcDbCircle
 10
308.6112150578126
 20
304.3963007068792
 30
0.0
 40
11.00003100000111
100
AcDbArc
 50
230.5992346744953
 51
270.0
  0
LINE
  5
EA6E50E45
330
EA6E4DC92
100
AcDbEntity
  8
JISSEN
  6
DASHDOT
100
AcDbLine
 10
288.1212150578125
 20
297.3963007068959
 30
0.0
 11
280.1212150578125
 21
297.3963007068959
 31
0.0
  0
LINE
  5
EA6E50E46
330
EA6E4DC92
100
AcDbEntity
  8
1
 62
     7
100
AcDbLine
 10
288.1212150578125
 20
297.6306132068961
 30
0.0
 11
294.1112150578126
 21
297.8178007068961
 31
0.0
  0
LINE
  5
EA6E50E47
330
EA6E4DC92
100
AcDbEntity
  8
JISSEN
100
AcDbLine
 10
294.1112150578126
 20
296.146300706879
 30
0.0
 11
294.2555526251101
 21
295.896300706879
 31
0.0
  0
LINE
  5
EA6E50E48
330
EA6E4DC92
100
AcDbEntity
  8
JISSEN
100
AcDbLine
 10
294.5442277597048
 20
295.896300706879
 30
0.0
 11
294.5442277597048
 21
297.5845630153886
 31
0.0
  0
LINE
  5
EA6E50E49
330
EA6E4DC92
100
AcDbEntity
  8
JISSEN
100
AcDbLine
 10
294.5442277597046
 20
297.5845630153893
 30
0.0
 11
297.6782023559205
 21
297.5845630153893
 31
0.0
  0
LINE
  5
EA6E50E4A
330
EA6E4DC92
100
AcDbEntity
  8
JISSEN
100
AcDbLine
 10
294.2555526251101
 20
295.896300706879
 30
0.0
 11
297.9668774905153
 21
295.896300706879
 31
0.0
  0
LINE
  5
EA6E50E4B
330
EA6E4DC92
100
AcDbEntity
  8
1
 62
     2
100
AcDbLine
 10
295.1762032882877
 20
272.051924082084
 30
0.0
 11
296.5297297636948
 21
274.3963007068789
 31
0.0
  0
LINE
  5
EA6E50E4C
330
EA6E4DC92
100
AcDbEntity
  8
1
 62
     7
100
AcDbLine
 10
295.405715057813
 20
279.3963007068789
 30
0.0
 11
295.1410275578128
 21
270.9263007068789
 31
0.0
  0
LINE
  5
EA6E50E4D
330
EA6E4DC92
100
AcDbEntity
  8
1
 62
     2
100
AcDbLine
 10
296.5297297636948
 20
274.3963007068789
 30
0.0
 11
296.685979763695
 21
279.3963007068789
 31
0.0
  0
LINE
  5
EA6E50E4E
330
EA6E4DC92
100
AcDbEntity
  8
JISSEN
100
AcDbLine
 10
333.6112150578124
 20
305.9539095847048
 30
0.0
 11
333.6112150578124
 21
304.3963007068794
 31
0.0
  0
LINE
  5
EA6E50E4F
330
EA6E4DC92
100
AcDbEntity
  8
JISSEN
100
AcDbLine
 10
333.6112150578124
 20
302.8386918290539
 30
0.0
 11
333.6112150578124
 21
304.3963007068794
 31
0.0
  0
LINE
  5
EA6E50E50
330
EA6E4DC92
100
AcDbEntity
  8
1
 62
     7
100
AcDbLine
 10
308.6112150578126
 20
270.9263007068789
 30
0.0
 11
294.6112150578126
 21
270.9263007068789
 31
0.0
  0
LINE
  5
EA6E50E51
330
EA6E4DC92
100
AcDbEntity
  8
1
 62
     7
100
AcDbLine
 10
290.6112150578126
 20
297.7084257068961
 30
0.0
 11
290.6112150578126
 21
279.3963007068789
 31
0.0
  0
ARC
  5
EA6E50E52
330
EA6E4DC92
100
AcDbEntity
  8
JISSEN
100
AcDbCircle
 10
278.1212150578125
 20
281.3963007068626
 30
0.0
 40
2.0
100
AcDbArc
 50
270.0
 51
0.0
  0
ARC
  5
EA6E50E53
330
EA6E4DC92
100
AcDbEntity
  8
JISSEN
100
AcDbCircle
 10
332.1112150578121
 20
302.8386918290539
 30
0.0
 40
1.5
100
AcDbArc
 50
272.2432938100328
 51
0.0
  0
ARC
  5
EA6E50E54
330
EA6E4DC92
100
AcDbEntity
  8
JISSEN
100
AcDbCircle
 10
332.1112150578121
 20
305.9539095847048
 30
0.0
 40
1.5
100
AcDbArc
 50
0.0
 51
87.75670618996713
  0
LINE
  5
EA6E50E55
330
EA6E4DC92
100
AcDbEntity
  8
JISSEN
100
AcDbLine
 10
263.2906834883903
 20
277.396300706901
 30
0.0
 11
256.6212150578126
 21
277.396300706901
 31
0.0
  0
LINE
  5
EA6E50E56
330
EA6E4DC92
100
AcDbEntity
  8
JISSEN
  6
BYBLOCK
 62
     0
100
AcDbLine
 10
278.1212150578125
 20
279.3963007068626
 30
0.0
 11
263.2906834883903
 21
279.3963007068626
 31
0.0
  0
LINE
  5
EA6E50E57
330
EA6E4DC92
100
AcDbEntity
  8
JISSEN
100
AcDbLine
 10
280.1212150578125
 20
327.3963007068958
 30
0.0
 11
280.1212150578125
 21
281.3963007068958
 31
0.0
  0
LINE
  5
EA6E50E58
330
EA6E4DC92
100
AcDbEntity
  8
JISSEN
100
AcDbLine
 10
256.6212150578126
 20
331.3963007068575
 30
0.0
 11
256.6212150578126
 21
277.396300706901
 31
0.0
  0
LINE
  5
EA6E50E59
330
EA6E4DC92
100
AcDbEntity
  8
JISSEN
100
AcDbLine
 10
263.2906834883903
 20
331.3963007068575
 30
0.0
 11
263.2906834883903
 21
277.396300706901
 31
0.0
  0
LINE
  5
EA6E50E5A
330
EA6E4DC92
100
AcDbEntity
  8
JISSEN
100
AcDbLine
 10
263.2906834883901
 20
331.3963007068575
 30
0.0
 11
263.2906834883901
 21
277.396300706901
 31
0.0
  0
LINE
  5
EA6E50E5B
330
EA6E4DC92
100
AcDbEntity
  8
JISSEN
100
AcDbLine
 10
290.4112150578125
 20
311.0904257068958
 30
0.0
 11
290.4112150578125
 21
297.7021757068961
 31
0.0
  0
LINE
  5
EA6E50E5C
330
EA6E4DC92
100
AcDbEntity
  8
1
  6
DASHDOT
 62
     2
100
AcDbLine
 10
294.1112150578126
 20
296.686195804522
 30
0.0
 11
294.1112150578126
 21
312.686195804522
 31
0.0
  0
LINE
  5
EA6E50E5D
330
EA6E4DC92
100
AcDbEntity
  8
JISSEN
100
AcDbLine
 10
288.1212150578125
 20
297.3963007068959
 30
0.0
 11
288.1212150578125
 21
311.3963007068958
 31
0.0
  0
LINE
  5
EA6E50E5E
330
EA6E4DC92
100
AcDbEntity
  8
JISSEN
100
AcDbLine
 10
332.1699293487613
 20
307.4527600215526
 30
0.0
 11
314.8423156888022
 21
308.3273969915944
 31
0.0
  0
LINE
  5
EA6E50E5F
330
EA6E4DC92
100
AcDbEntity
  8
JISSEN
100
AcDbLine
 10
332.1699293487613
 20
301.3398413922061
 30
0.0
 11
314.8423156888022
 21
300.4652044221643
 31
0.0
  0
LINE
  5
EA6E50E60
330
EA6E4DC92
100
AcDbEntity
  8
JISSEN
100
AcDbLine
 10
290.4112150578125
 20
298.5581757068956
 30
0.0
 11
289.4794350540077
 21
297.6730575817768
 31
0.0
  0
ARC
  5
EA6E50E61
330
EA6E4DC92
100
AcDbEntity
  8
JISSEN
100
AcDbCircle
 10
290.3169864237554
 20
300.1463007068791
 30
0.0
 40
7.794228634057486
100
AcDbArc
 50
340.811863546275
 51
19.18813645373244
  0
ARC
  5
EA6E50E62
330
EA6E4DC92
100
AcDbEntity
  8
JISSEN
100
AcDbCircle
 10
310.4516602665298
 20
300.1463007068793
 30
0.0
 40
12.19610764141988
100
AcDbArc
 50
164.9843326544755
 51
195.0156673455244
  0
LINE
  5
EA6E50E63
330
EA6E4DC92
100
AcDbEntity
  8
JISSEN
100
AcDbLine
 10
298.1112150578126
 20
296.1463007068792
 30
0.0
 11
298.1112150578126
 21
304.3963007068792
 31
0.0
  0
ARC
  5
EA6E50E64
330
EA6E4DC92
100
AcDbEntity
  8
JISSEN
100
AcDbCircle
 10
301.9054436918729
 20
300.1463007068788
 30
0.0
 40
7.794228634060272
100
AcDbArc
 50
160.8118635462835
 51
199.1881364537164
  0
LINE
  5
EA6E50E65
330
EA6E4DC92
100
AcDbEntity
  8
JISSEN
100
AcDbLine
 10
294.1112150578126
 20
296.146300706879
 30
0.0
 11
294.1112150578126
 21
304.3963007068792
 31
0.0
  0
ARC
  5
EA6E50E66
330
EA6E4DC92
100
AcDbEntity
  8
JISSEN
100
AcDbCircle
 10
152.6921167425502
 20
304.3963317068805
 30
0.0
 40
30.0
100
AcDbArc
 50
351.2257103521519
 51
0.0
  0
ARC
  5
EA6E50E67
330
EA6E4DC92
100
AcDbEntity
  8
JISSEN
100
AcDbCircle
 10
181.8468762167769
 20
299.8963317068805
 30
0.0
 40
0.5
100
AcDbArc
 50
270.0
 51
351.2257103521519
  0
ARC
  5
EA6E50E68
330
EA6E4DC92
100
AcDbEntity
  8
JISSEN
100
AcDbCircle
 10
181.8468762167769
 20
308.8963317068805
 30
0.0
 40
0.5
100
AcDbArc
 50
8.774289647848046
 51
90.0
  0
ARC
  5
EA6E50E69
330
EA6E4DC92
100
AcDbEntity
  8
JISSEN
100
AcDbCircle
 10
152.6921167425502
 20
304.3963317068805
 30
0.0
 40
30.0
100
AcDbArc
 50
0.0
 51
8.774289647848046
  0
LINE
  5
EA6E50E6A
330
EA6E4DC92
100
AcDbEntity
  8
JISSEN
100
AcDbLine
 10
294.6112150578126
 20
270.9263007068789
 30
0.0
 11
294.6112150578126
 21
265.4263007068789
 31
0.0
  0
LINE
  5
EA6E50E6B
330
EA6E4DC92
100
AcDbEntity
  8
ITTEN
100
AcDbLine
 10
284.3073844301416
 20
304.3963007068792
 30
0.0
 11
340.5577994925115
 21
304.3963007068792
 31
0.0
  0
LINE
  5
EA6E50E6C
330
EA6E4DC92
100
AcDbEntity
  8
1
 62
     7
100
AcDbLine
 10
290.6112150578126
 20
279.3963007068789
 30
0.0
 11
326.6112150578128
 21
279.3963007068789
 31
0.0
  0
LINE
  5
EA6E50E6D
330
EA6E4DC92
100
AcDbEntity
  8
1
 62
     7
100
AcDbLine
 10
308.6112150578129
 20
270.9263007068789
 30
0.0
 11
322.611215057813
 21
270.9263007068786
 31
0.0
  0
LINE
  5
EA6E50E6E
330
EA6E4DC92
100
AcDbEntity
  8
1
 62
     7
100
AcDbLine
 10
321.9729650578126
 20
274.3963007068789
 30
0.0
 11
295.2494650578127
 21
274.3963007068789
 31
0.0
  0
LINE
  5
EA6E50E6F
330
EA6E4DC92
100
AcDbEntity
  8
1
 62
     7
100
AcDbLine
 10
326.6112150578128
 20
329.3963007068791
 30
0.0
 11
290.6112150578126
 21
329.3963007068791
 31
0.0
  0
LINE
  5
EA6E50E70
330
EA6E4DC92
100
AcDbEntity
  8
TENSEN
100
AcDbLine
 10
295.2442823987078
 20
334.3963007068791
 30
0.0
 11
321.9677823987076
 21
334.3963007068791
 31
0.0
  0
ARC
  5
EA6E50E71
330
EA6E4DC92
100
AcDbEntity
  8
JISSEN
100
AcDbCircle
 10
308.6112150578126
 20
304.3963007068792
 30
0.0
 40
8.0
100
AcDbArc
 50
29.11769274714261
 51
330.8823072528588
  0
ARC
  5
EA6E50E72
330
EA6E4DC92
100
AcDbEntity
  8
JISSEN
100
AcDbCircle
 10
308.6112150578121
 20
304.3963007068794
 30
0.0
 40
6.0
100
AcDbArc
 50
54.24955964390465
 51
305.7504403560953
  0
LINE
  5
EA6E50E73
330
EA6E4DC92
100
AcDbEntity
  8
JISSEN
100
AcDbLine
 10
311.626969125702
 20
296.9864945419375
 30
0.0
 11
318.05044286428
 21
296.9864945419375
 31
0.0
  0
LINE
  5
EA6E50E74
330
EA6E4DC92
100
AcDbEntity
  8
JISSEN
100
AcDbLine
 10
308.6112150578126
 20
295.8963007068792
 30
0.0
 11
318.4668774905144
 21
295.8963007068792
 31
0.0
  0
LINE
  5
EA6E50E75
330
EA6E4DC92
100
AcDbEntity
  8
JISSEN
100
AcDbLine
 10
298.25555262511
 20
312.8963007068792
 30
0.0
 11
318.4668774905151
 21
312.8963007068792
 31
0.0
  0
LINE
  5
EA6E50E76
330
EA6E4DC92
100
AcDbEntity
  8
JISSEN
100
AcDbLine
 10
311.6269691257016
 20
311.806106871821
 30
0.0
 11
318.05044286428
 21
311.806106871821
 31
0.0
  0
ARC
  5
EA6E50E77
330
EA6E4DC92
100
AcDbEntity
  8
JISSEN
100
AcDbCircle
 10
308.6112150578126
 20
304.3963007068792
 30
0.0
 40
11.00003100000111
100
AcDbArc
 50
50.59923467449535
 51
129.4007653255046
  0
ARC
  5
EA6E50E78
330
EA6E4DC92
100
AcDbEntity
  8
JISSEN
100
AcDbCircle
 10
308.6112150578126
 20
304.3963007068792
 30
0.0
 40
11.00003100000111
100
AcDbArc
 50
270.0
 51
309.4007653255046
  0
LINE
  5
EA6E50E79
330
EA6E4DC92
100
AcDbEntity
  8
TENSEN
100
AcDbLine
 10
296.52454710459
 20
334.3963007068791
 30
0.0
 11
295.1710206291827
 21
336.740677331674
 31
0.0
  0
LINE
  5
EA6E50E7A
330
EA6E4DC92
100
AcDbEntity
  8
TENSEN
100
AcDbLine
 10
322.0410441682324
 20
336.740677331674
 30
0.0
 11
320.6875176928253
 21
334.3963007068791
 31
0.0
  0
LINE
  5
EA6E50E7B
330
EA6E4DC92
100
AcDbEntity
  8
TENSEN
100
AcDbLine
 10
321.8167150578125
 20
329.3963317068803
 30
0.0
 11
322.2112150578126
 21
342.0203317068799
 31
0.0
  0
LINE
  5
EA6E50E7C
330
EA6E4DC92
100
AcDbEntity
  8
TENSEN
100
AcDbLine
 10
295.0112150578125
 20
342.0203317068811
 30
0.0
 11
295.4057150578126
 21
329.3963317068804
 31
0.0
  0
LINE
  5
EA6E50E7D
330
EA6E4DC92
100
AcDbEntity
  8
TENSEN
100
AcDbLine
 10
105.4569340834454
 20
342.0203317068799
 30
0.0
 11
105.4569340834456
 21
368.6221641626358
 31
0.0
  0
ARC
  5
EA6E50E7E
330
EA6E4DC92
100
AcDbEntity
  8
TENSEN
100
AcDbCircle
 10
85.0569340834453
 20
359.6905806858713
 30
0.0
 40
11.22555938037867
100
AcDbArc
 50
52.71641621260346
 51
127.2835837873965
  0
LINE
  5
EA6E50E7F
330
EA6E4DC92
100
AcDbEntity
  8
TENSEN
100
AcDbLine
 10
78.25693408344545
 20
342.0203317068811
 30
0.0
 11
78.25693408344545
 21
368.6221641626355
 31
0.0
  0
ARC
  5
EA6E50E80
330
EA6E4DC92
100
AcDbEntity
  8
TENSEN
100
AcDbCircle
 10
98.65693408344533
 20
359.6826938701025
 30
0.0
 40
11.22555938037854
100
AcDbArc
 50
52.71641621260346
 51
127.2835837873965
  0
ARC
  5
EA6E50E81
330
EA6E4DC92
100
AcDbEntity
  8
TENSEN
100
AcDbCircle
 10
98.65693408344533
 20
377.5537476393996
 30
0.0
 40
11.22555938037854
100
AcDbArc
 50
232.7164162126035
 51
307.2835837873964
  0
ARC
  5
EA6E50E82
330
EA6E4DC92
100
AcDbEntity
  8
JISSEN
100
AcDbCircle
 10
169.9093002730646
 20
326.0953089499974
 30
0.0
 40
0.244285714285785
100
AcDbArc
 50
143.9999999993223
 51
233.4816025404889
  0
ARC
  5
EA6E50E83
330
EA6E4DC92
100
AcDbEntity
  8
JISSEN
100
AcDbCircle
 10
169.9093002730778
 20
326.0953089499876
 30
0.0
 40
0.244285714285785
100
AcDbArc
 50
143.9999999993223
 51
233.481602540408
  0
ARC
  5
EA6E50E84
330
EA6E4DC92
100
AcDbEntity
  8
JISSEN
100
AcDbCircle
 10
167.1300065459736
 20
327.900203400127
 30
0.0
 40
0.2442857142856628
100
AcDbArc
 50
240.5183974585146
 51
329.9999999958686
  0
ARC
  5
EA6E50E85
330
EA6E4DC92
100
AcDbEntity
  8
JISSEN
100
AcDbCircle
 10
165.0467227158399
 20
328.9616895301214
 30
0.0
 40
0.2442857142852193
100
AcDbArc
 50
155.9999999994555
 51
245.4816025405044
  0
ARC
  5
EA6E50E86
330
EA6E4DC92
100
AcDbEntity
  8
JISSEN
100
AcDbCircle
 10
153.8421167425654
 20
304.3963317069106
 30
0.0
 40
26.75571428569027
100
AcDbArc
 50
60.51839745860435
 51
65.48160254050445
  0
ARC
  5
EA6E50E87
330
EA6E4DC92
100
AcDbEntity
  8
JISSEN
100
AcDbCircle
 10
177.3459884359563
 20
317.6842215100216
 30
0.0
 40
0.2442857142854957
100
AcDbArc
 50
119.9999999994883
 51
209.4816025405935
  0
ARC
  5
EA6E50E88
330
EA6E4DC92
100
AcDbEntity
  8
JISSEN
100
AcDbCircle
 10
174.0696648111047
 20
322.2805789411043
 30
0.0
 40
0.24428571428583
100
AcDbArc
 50
131.999999999308
 51
221.4816025404117
  0
ARC
  5
EA6E50E89
330
EA6E4DC92
100
AcDbEntity
  8
JISSEN
100
AcDbCircle
 10
174.0696648111161
 20
322.2805789410916
 30
0.0
 40
0.2442857142867107
100
AcDbArc
 50
131.9999999995882
 51
221.4816025403921
  0
LINE
  5
EA6E50E8A
330
EA6E4DC92
100
AcDbEntity
  8
JISSEN
100
AcDbLine
 10
173.9070270306547
 20
322.462858078327
 30
0.0
 11
173.9062057629921
 21
322.462118605603
 31
0.0
  0
ARC
  5
EA6E50E8B
330
EA6E4DC92
100
AcDbEntity
  8
JISSEN
100
AcDbCircle
 10
175.5410939859189
 20
320.4635152370552
 30
0.0
 40
0.2442857142859585
100
AcDbArc
 50
216.5183974586076
 51
305.9999999958732
  0
ARC
  5
EA6E50E8C
330
EA6E4DC92
100
AcDbEntity
  8
JISSEN
100
AcDbCircle
 10
175.5410939859282
 20
320.4635152370418
 30
0.0
 40
0.2442857142865886
100
AcDbArc
 50
216.5183974584773
 51
305.999999995696
  0
LINE
  5
EA6E50E8D
330
EA6E4DC92
100
AcDbEntity
  8
JISSEN
100
AcDbLine
 10
175.6855755907513
 20
320.2665335186708
 30
0.0
 11
175.6846815261162
 21
320.265883942691
 31
0.0
  0
ARC
  5
EA6E50E8E
330
EA6E4DC92
100
AcDbEntity
  8
JISSEN
100
AcDbCircle
 10
153.8421167425763
 20
304.3963317069018
 30
0.0
 40
26.75571428569053
100
AcDbArc
 50
36.5183974586076
 51
41.48160254049141
  0
ARC
  5
EA6E50E8F
330
EA6E4DC92
100
AcDbEntity
  8
JISSEN
100
AcDbCircle
 10
153.8421167425763
 20
304.3963317069018
 30
0.0
 40
26.75571428568967
100
AcDbArc
 50
36.5183974585646
 51
41.48160254047058
  0
ARC
  5
EA6E50E90
330
EA6E4DC92
100
AcDbEntity
  8
JISSEN
100
AcDbCircle
 10
171.7263639770903
 20
324.6238797751554
 30
0.0
 40
0.24428571428619
100
AcDbArc
 50
228.5183974586688
 51
317.9999999956807
  0
ARC
  5
EA6E50E91
330
EA6E4DC92
100
AcDbEntity
  8
JISSEN
100
AcDbCircle
 10
171.7263639771035
 20
324.6238797751443
 30
0.0
 40
0.2442857142865179
100
AcDbArc
 50
228.5183974585475
 51
317.9999999956219
  0
LINE
  5
EA6E50E92
330
EA6E4DC92
100
AcDbEntity
  8
SAISEN
  6
CONTINUOUS
100
AcDbLine
 10
166.367186246061
 20
319.0613039005952
 30
0.0
 11
165.1146792957106
 21
317.5948066812242
 31
0.0
  0
ARC
  5
EA6E50E93
330
EA6E4DC92
100
AcDbEntity
  8
JISSEN
100
AcDbCircle
 10
153.842116742571
 20
304.3963317069065
 30
0.0
 40
26.75571428569047
100
AcDbArc
 50
48.51839745859955
 51
53.48160254048893
  0
ARC
  5
EA6E50E94
330
EA6E4DC92
100
AcDbEntity
  8
JISSEN
100
AcDbCircle
 10
153.842116742571
 20
304.3963317069065
 30
0.0
 40
26.75571428569032
100
AcDbArc
 50
48.51839745856491
 51
53.48160254045635
  0
LINE
  5
EA6E50E95
330
EA6E4DC92
100
AcDbEntity
  8
JISSEN
100
AcDbLine
 10
160.5362417425503
 20
330.5963317068804
 30
0.0
 11
160.3659193145118
 21
330.5963317068804
 31
0.0
  0
ARC
  5
EA6E50E96
330
EA6E4DC92
100
AcDbEntity
  8
JISSEN
100
AcDbCircle
 10
159.6944501119173
 20
330.7544460957039
 30
0.0
 40
0.2442857142857336
100
AcDbArc
 50
167.9999999993598
 51
257.4816025405711
  0
ARC
  5
EA6E50E97
330
EA6E4DC92
100
AcDbEntity
  8
JISSEN
100
AcDbCircle
 10
161.9529045680776
 20
330.1492950480148
 30
0.0
 40
0.24428571428601
100
AcDbArc
 50
252.5183974585381
 51
341.9999999958389
  0
ARC
  5
EA6E50E98
330
EA6E4DC92
100
AcDbEntity
  8
JISSEN
100
AcDbCircle
 10
153.8421167425588
 20
304.3963317069129
 30
0.0
 40
26.75571428569048
100
AcDbArc
 50
72.51839745860639
 51
77.48160254049093
  0
LINE
  5
EA6E50E99
330
EA6E4DC92
100
AcDbEntity
  8
JISSEN
100
AcDbLine
 10
159.4557323949293
 20
330.8063169266266
 30
0.0
 11
159.4555026265964
 21
330.8052359516064
 31
0.0
  0
LINE
  5
EA6E50E9A
330
EA6E4DC92
100
AcDbEntity
  8
JISSEN
100
AcDbLine
 10
162.1855755907836
 20
330.0748576468142
 30
0.0
 11
162.1852340884809
 21
330.073806610801
 31
0.0
  0
LINE
  5
EA6E50E9B
330
EA6E4DC92
100
AcDbEntity
  8
SAISEN
  6
CONTINUOUS
100
AcDbLine
 10
157.8940612723352
 20
321.2738953252121
 30
0.0
 11
158.3442773311999
 21
323.1491801716927
 31
0.0
  0
ARC
  5
EA6E50E9C
330
EA6E4DC92
100
AcDbEntity
  8
JISSEN
100
AcDbCircle
 10
153.8421167425517
 20
304.3963317069137
 30
0.0
 40
26.75571428569011
100
AcDbArc
 50
84.51839745860125
 51
89.48160254049776
  0
ARC
  5
EA6E50E9D
330
EA6E4DC92
100
AcDbEntity
  8
JISSEN
100
AcDbCircle
 10
148.4676783444124
 20
330.8560258076284
 30
0.0
 40
0.2442857142864922
100
AcDbArc
 50
191.9999999993374
 51
281.4816025405599
  0
ARC
  5
EA6E50E9E
330
EA6E4DC92
100
AcDbEntity
  8
JISSEN
100
AcDbCircle
 10
148.467678344429
 20
330.8560258076315
 30
0.0
 40
0.2442857142859071
100
AcDbArc
 50
191.9999999993501
 51
281.4816025403871
  0
ARC
  5
EA6E50E9F
330
EA6E4DC92
100
AcDbEntity
  8
JISSEN
100
AcDbCircle
 10
148.4676783444124
 20
330.8560258076284
 30
0.0
 40
0.2442857142864922
100
AcDbArc
 50
191.9999999993374
 51
281.4816025405599
  0
ARC
  5
EA6E50EA0
330
EA6E4DC92
100
AcDbEntity
  8
JISSEN
100
AcDbCircle
 10
150.7770162598205
 20
331.2217890008631
 30
0.0
 40
0.244285714285605
100
AcDbArc
 50
276.5183974585613
 51
5.999999996012964
  0
ARC
  5
EA6E50EA1
330
EA6E4DC92
100
AcDbEntity
  8
JISSEN
100
AcDbCircle
 10
148.467678344429
 20
330.8560258076315
 30
0.0
 40
0.2442857142859071
100
AcDbArc
 50
191.9999999993501
 51
281.4816025403871
  0
ARC
  5
EA6E50EA2
330
EA6E4DC92
100
AcDbEntity
  8
JISSEN
100
AcDbCircle
 10
150.7770162598369
 20
331.2217890008652
 30
0.0
 40
0.2442857142858943
100
AcDbArc
 50
276.5183974585876
 51
5.9999999958101
  0
ARC
  5
EA6E50EA3
330
EA6E4DC92
100
AcDbEntity
  8
JISSEN
100
AcDbCircle
 10
145.2666698764082
 20
329.9983181736863
 30
0.0
 40
0.2442857142860679
100
AcDbArc
 50
288.5183974587262
 51
17.99999999585499
  0
ARC
  5
EA6E50EA4
330
EA6E4DC92
100
AcDbEntity
  8
JISSEN
100
AcDbCircle
 10
145.2666698764241
 20
329.9983181736916
 30
0.0
 40
0.2442857142863121
100
AcDbArc
 50
288.5183974585611
 51
17.99999999585964
  0
ARC
  5
EA6E50EA5
330
EA6E4DC92
100
AcDbEntity
  8
JISSEN
100
AcDbCircle
 10
154.0864024571433
 20
331.3952265822303
 30
0.0
 40
0.244285714285785
100
AcDbArc
 50
179.9999999993746
 51
269.4816025405629
  0
ARC
  5
EA6E50EA6
330
EA6E4DC92
100
AcDbEntity
  8
JISSEN
100
AcDbCircle
 10
153.8421167425442
 20
304.3963317069136
 30
0.0
 40
26.75571428569056
100
AcDbArc
 50
96.51839745864002
 51
101.4816025405332
  0
ARC
  5
EA6E50EA7
330
EA6E4DC92
100
AcDbEntity
  8
JISSEN
100
AcDbCircle
 10
153.8421167425442
 20
304.3963317069136
 30
0.0
 40
26.75571428569056
100
AcDbArc
 50
96.51839745860074
 51
101.4816025404934
  0
LINE
  5
EA6E50EA8
330
EA6E4DC92
100
AcDbEntity
  8
JISSEN
100
AcDbLine
 10
151.0198482344385
 20
331.248422881836
 30
0.0
 11
151.0199637514217
 21
331.2473238111601
 31
0.0
  0
LINE
  5
EA6E50EA9
330
EA6E4DC92
100
AcDbEntity
  8
JISSEN
100
AcDbLine
 10
148.2285010907723
 20
330.8063169267545
 30
0.0
 11
148.228730859106
 21
330.8052359517343
 31
0.0
  0
LINE
  5
EA6E50EAA
330
EA6E4DC92
100
AcDbEntity
  8
JISSEN
100
AcDbLine
 10
148.2285010907723
 20
330.8063169267545
 30
0.0
 11
148.228730859106
 21
330.8052359517343
 31
0.0
  0
LINE
  5
EA6E50EAB
330
EA6E4DC92
100
AcDbEntity
  8
JISSEN
100
AcDbLine
 10
151.0198482344385
 20
331.248422881836
 30
0.0
 11
151.0199637514217
 21
331.2473238111601
 31
0.0
  0
LINE
  5
EA6E50EAC
330
EA6E4DC92
100
AcDbEntity
  8
JISSEN
  6
CONTINUOUS
100
AcDbLine
 10
153.8421167425506
 20
328.5034745640233
 30
0.0
 11
153.8421167425506
 21
327.8606174211661
 31
0.0
  0
LINE
  5
EA6E50EAD
330
EA6E4DC92
100
AcDbEntity
  8
SAISEN
  6
CONTINUOUS
100
AcDbLine
 10
154.0349738854076
 20
321.7524031023817
 30
0.0
 11
154.0349738854076
 21
324.9668562405872
 31
0.0
  0
LINE
  5
EA6E50EAE
330
EA6E4DC92
100
AcDbEntity
  8
SAISEN
  6
CONTINUOUS
100
AcDbLine
 10
153.6492595996933
 20
324.9668562405872
 30
0.0
 11
153.6492595996933
 21
321.7524031023817
 31
0.0
  0
LINE
  5
EA6E50EAF
330
EA6E4DC92
100
AcDbEntity
  8
SAISEN
  6
CONTINUOUS
100
AcDbLine
 10
153.970688171122
 20
321.7529983670154
 30
0.0
 11
153.970688171122
 21
324.9673584886707
 31
0.0
  0
LINE
  5
EA6E50EB0
330
EA6E4DC92
100
AcDbEntity
  8
SAISEN
  6
CONTINUOUS
100
AcDbLine
 10
153.713545313979
 20
321.7529983670154
 30
0.0
 11
153.713545313979
 21
324.9673584886707
 31
0.0
  0
LINE
  5
EA6E50EB1
330
EA6E4DC92
100
AcDbEntity
  8
SAISEN
  6
CONTINUOUS
100
AcDbLine
 10
153.8421167425503
 20
321.7534745640238
 30
0.0
 11
153.8421167425503
 21
324.9677602783088
 31
0.0
  0
LINE
  5
EA6E50EB2
330
EA6E4DC92
100
AcDbEntity
  8
SAISEN
  6
CONTINUOUS
100
AcDbLine
 10
149.7901722127655
 20
321.2738953252121
 30
0.0
 11
149.339956153901
 21
323.1491801716927
 31
0.0
  0
LINE
  5
EA6E50EB3
330
EA6E4DC92
100
AcDbEntity
  8
SAISEN
  6
CONTINUOUS
100
AcDbLine
 10
145.9621387827851
 20
319.8616592338648
 30
0.0
 11
145.0865856761449
 21
321.5800289590845
 31
0.0
  0
ARC
  5
EA6E50EB4
330
EA6E4DC92
100
AcDbEntity
  8
JISSEN
100
AcDbCircle
 10
156.4213222423274
 20
331.2728586214661
 30
0.0
 40
0.2442857142864986
100
AcDbArc
 50
264.5183974584572
 51
353.9999999957866
  0
LINE
  5
EA6E50EB5
330
EA6E4DC92
100
AcDbEntity
  8
JISSEN
100
AcDbLine
 10
147.3183141705889
 20
330.5963317068804
 30
0.0
 11
147.1479917425506
 21
330.5963317068804
 31
0.0
  0
LINE
  5
EA6E50EB6
330
EA6E4DC92
100
AcDbEntity
  8
SAISEN
  6
CONTINUOUS
100
AcDbLine
 10
161.7220947023158
 20
319.8616592338648
 30
0.0
 11
162.5976478089562
 21
321.5800289590845
 31
0.0
  0
LINE
  5
EA6E50EB7
330
EA6E4DC92
100
AcDbEntity
  8
JISSEN
100
AcDbLine
 10
181.1921167425502
 20
304.3963317068804
 30
0.0
 11
181.1921167425502
 21
299.3963317068805
 31
0.0
  0
ARC
  5
EA6E50EB8
330
EA6E4DC92
100
AcDbEntity
  8
JISSEN
100
AcDbCircle
 10
180.19211674255
 20
309.3963317068805
 30
0.0
 40
1.0
100
AcDbArc
 50
0.0
 51
90.0
  0
LINE
  5
EA6E50EB9
330
EA6E4DC92
100
AcDbEntity
  8
JISSEN
100
AcDbLine
 10
181.1921167425502
 20
309.3963317068805
 30
0.0
 11
181.1921167425502
 21
304.3963317068805
 31
0.0
  0
LINE
  5
EA6E50EBA
330
EA6E4DC92
100
AcDbEntity
  8
JISSEN
100
AcDbLine
 10
180.1669096173469
 20
310.3967716988875
 30
0.0
 11
180.1921167425502
 21
310.3963317068805
 31
0.0
  0
ARC
  5
EA6E50EBB
330
EA6E4DC92
100
AcDbEntity
  8
JISSEN
100
AcDbCircle
 10
179.5950800837824
 20
312.5071195320984
 30
0.0
 40
0.2442857142857207
100
AcDbArc
 50
107.9999999995947
 51
197.4816025406514
  0
ARC
  5
EA6E50EBC
330
EA6E4DC92
100
AcDbEntity
  8
JISSEN
100
AcDbCircle
 10
180.2002311314445
 20
310.2486650759316
 30
0.0
 40
0.2442857142864086
100
AcDbArc
 50
192.5183974587818
 51
281.9999999960339
  0
ARC
  5
EA6E50EBD
330
EA6E4DC92
100
AcDbEntity
  8
JISSEN
100
AcDbCircle
 10
153.8421167425829
 20
304.3963317068894
 30
0.0
 40
26.75571428569019
100
AcDbArc
 50
12.5183974588151
 51
17.48160254070349
  0
ARC
  5
EA6E50EBE
330
EA6E4DC92
100
AcDbEntity
  8
JISSEN
100
AcDbCircle
 10
180.7186436571669
 20
306.9755372063352
 30
0.0
 40
0.2442857142856885
100
AcDbArc
 50
95.99999999957603
 51
185.4816025407119
  0
LINE
  5
EA6E50EBF
330
EA6E4DC92
100
AcDbEntity
  8
JISSEN
100
AcDbLine
 10
180.694207917513
 20
307.218600214899
 30
0.0
 11
180.6931088468561
 21
307.2184846979181
 31
0.0
  0
LINE
  5
EA6E50EC0
330
EA6E4DC92
100
AcDbEntity
  8
SAISEN
  6
CONTINUOUS
100
AcDbLine
 10
172.9206065656485
 20
312.0901538740052
 30
0.0
 11
169.9508391030435
 21
310.8600359139
 31
0.0
  0
LINE
  5
EA6E50EC1
330
EA6E4DC92
100
AcDbEntity
  8
SAISEN
  6
CONTINUOUS
100
AcDbLine
 10
169.8032326362738
 20
311.2163894478687
 30
0.0
 11
172.7730000988788
 21
312.4465074079739
 31
0.0
  0
LINE
  5
EA6E50EC2
330
EA6E4DC92
100
AcDbEntity
  8
SAISEN
  6
CONTINUOUS
100
AcDbLine
 10
172.8964695045779
 20
312.1497383316872
 30
0.0
 11
169.92678797806
 21
310.9196559674746
 31
0.0
  0
LINE
  5
EA6E50EC3
330
EA6E4DC92
100
AcDbEntity
  8
SAISEN
  6
CONTINUOUS
100
AcDbLine
 10
172.7980651933983
 20
312.3873073543329
 30
0.0
 11
169.8283836668804
 21
311.1572249901204
 31
0.0
  0
LINE
  5
EA6E50EC4
330
EA6E4DC92
100
AcDbEntity
  8
SAISEN
  6
CONTINUOUS
100
AcDbLine
 10
172.8476385542112
 20
312.2686766012479
 30
0.0
 11
169.8780257711398
 21
311.0386227115032
 31
0.0
  0
LINE
  5
EA6E50EC5
330
EA6E4DC92
100
AcDbEntity
  8
SAISEN
  6
CONTINUOUS
100
AcDbLine
 10
170.985564368595
 20
307.1115870643645
 30
0.0
 11
172.8903918825997
 21
307.4132821040848
 31
0.0
  0
ARC
  5
EA6E50EC6
330
EA6E4DC92
100
AcDbEntity
  8
JISSEN
100
AcDbCircle
 10
180.8410116179029
 20
304.6406174211495
 30
0.0
 40
0.24428571428664
100
AcDbArc
 50
180.5183974588052
 51
269.9999999960917
  0
ARC
  5
EA6E50EC7
330
EA6E4DC92
100
AcDbEntity
  8
JISSEN
100
AcDbCircle
 10
180.667574036498
 20
301.3312312238444
 30
0.0
 40
0.2442857142855793
100
AcDbArc
 50
83.99999999980833
 51
173.4816025407045
  0
ARC
  5
EA6E50EC8
330
EA6E4DC92
100
AcDbEntity
  8
JISSEN
100
AcDbCircle
 10
180.3018108432368
 20
299.0218933084409
 30
0.0
 40
0.2442857142856372
100
AcDbArc
 50
168.5183974588086
 51
257.9999999961214
  0
ARC
  5
EA6E50EC9
330
EA6E4DC92
100
AcDbEntity
  8
JISSEN
100
AcDbCircle
 10
153.842116742584
 20
304.3963317068755
 30
0.0
 40
26.75571428569009
100
AcDbArc
 50
348.518397458815
 51
353.4816025407045
  0
LINE
  5
EA6E50ECA
330
EA6E4DC92
100
AcDbEntity
  8
JISSEN
100
AcDbLine
 10
180.8421167425506
 20
304.3963317068638
 30
0.0
 11
180.8410116178863
 21
304.3963317068638
 31
0.0
  0
LINE
  5
EA6E50ECB
330
EA6E4DC92
100
AcDbEntity
  8
JISSEN
  6
CONTINUOUS
100
AcDbLine
 10
177.3064024568361
 20
304.3963317068804
 30
0.0
 11
177.9492595996932
 21
304.3963317068804
 31
0.0
  0
LINE
  5
EA6E50ECC
330
EA6E4DC92
100
AcDbEntity
  8
SAISEN
  6
CONTINUOUS
100
AcDbLine
 10
170.3497405611024
 20
299.0326795902294
 30
0.0
 11
172.1839209853853
 21
298.4367182439349
 31
0.0
  0
LINE
  5
EA6E50ECD
330
EA6E4DC92
100
AcDbEntity
  8
SAISEN
  6
CONTINUOUS
100
AcDbLine
 10
171.1457533209188
 20
303.0345059738897
 30
0.0
 11
173.0683796074035
 21
302.8831920035576
 31
0.0
  0
ARC
  5
EA6E50ECE
330
EA6E4DC92
100
AcDbEntity
  8
JISSEN
100
AcDbCircle
 10
153.842116742584
 20
304.3963317068824
 30
0.0
 40
26.75571428568969
100
AcDbArc
 50
0.5183974588182508
 51
5.481602540705453
  0
ARC
  5
EA6E50ECF
330
EA6E4DC92
100
AcDbEntity
  8
JISSEN
100
AcDbCircle
 10
178.4074745659247
 20
315.6009376798751
 30
0.0
 40
0.2442857142850136
100
AcDbArc
 50
204.5183974589002
 51
293.9999999962542
  0
LINE
  5
EA6E50ED0
330
EA6E4DC92
100
AcDbEntity
  8
SAISEN
  6
CONTINUOUS
100
AcDbLine
 10
169.444587348353
 20
315.7321901439495
 30
0.0
 11
167.8843402877732
 21
314.5986043002429
 31
0.0
  0
LINE
  5
EA6E50ED1
330
EA6E4DC92
100
AcDbEntity
  8
SAISEN
100
AcDbLine
 10
160.4333620957538
 20
310.9875770600835
 30
0.0
 11
161.7970680308985
 21
310.9875770600835
 31
0.0
  0
LINE
  5
EA6E50ED2
330
EA6E4DC92
100
AcDbEntity
  8
SAISEN
100
AcDbLine
 10
160.4333620957538
 20
310.9875770600835
 30
0.0
 11
160.4333620957538
 21
312.3512829952291
 31
0.0
  0
CIRCLE
  5
EA6E50ED3
330
EA6E4DC92
100
AcDbEntity
  8
SAISEN
100
AcDbCircle
 10
153.8421167425503
 20
304.3963317068804
 30
0.0
 40
1.767857142857143
  0
ARC
  5
EA6E50ED4
330
EA6E4DC92
100
AcDbEntity
  8
SAISEN
100
AcDbCircle
 10
153.8421167425503
 20
304.3963317068804
 30
0.0
 40
2.249999999999896
100
AcDbArc
 50
241.5324742667297
 51
0.0
  0
CIRCLE
  5
EA6E50ED5
330
EA6E4DC92
100
AcDbEntity
  8
SAISEN
100
AcDbCircle
 10
153.8421167425503
 20
304.3963317068804
 30
0.0
 40
0.4500000000000323
  0
ARC
  5
EA6E50ED6
330
EA6E4DC92
100
AcDbEntity
  8
SAISEN
100
AcDbCircle
 10
153.8421167425503
 20
304.3963317068804
 30
0.0
 40
2.25
100
AcDbArc
 50
0.0
 51
25.48404486252703
  0
ARC
  5
EA6E50ED7
330
EA6E4DC92
100
AcDbEntity
  8
SAISEN
100
AcDbCircle
 10
153.8421167425503
 20
304.3963317068804
 30
0.0
 40
2.250000000000019
100
AcDbArc
 50
64.51595513748388
 51
208.4675257332629
  0
LINE
  5
EA6E50ED8
330
EA6E4DC92
100
AcDbEntity
  8
SAISEN
100
AcDbLine
 10
154.8102011518865
 20
306.4274182575722
 30
0.0
 11
160.4333620957538
 21
312.3512829952291
 31
0.0
  0
LINE
  5
EA6E50ED9
330
EA6E4DC92
100
AcDbEntity
  8
SAISEN
100
AcDbLine
 10
161.7970680308985
 20
310.9875770600835
 30
0.0
 11
155.8732032932425
 21
305.3644161162165
 31
0.0
  0
ARC
  5
EA6E50EDA
330
EA6E4DC92
100
AcDbEntity
  8
JISSEN
100
AcDbCircle
 10
153.8421167425799
 20
304.3963317068959
 30
0.0
 40
26.75571428569056
100
AcDbArc
 50
24.51839745881563
 51
29.48160254070143
  0
ARC
  5
EA6E50EDB
330
EA6E4DC92
100
AcDbEntity
  8
JISSEN
100
AcDbCircle
 10
143.0838429791131
 20
329.1604094331248
 30
0.0
 40
0.2442857142858943
100
AcDbArc
 50
203.9999999993912
 51
293.4816025405465
  0
ARC
  5
EA6E50EDC
330
EA6E4DC92
100
AcDbEntity
  8
JISSEN
100
AcDbCircle
 10
143.0838429791283
 20
329.1604094331316
 30
0.0
 40
0.2442857142857914
100
AcDbArc
 50
203.9999999993269
 51
293.481602540362
  0
ARC
  5
EA6E50EDD
330
EA6E4DC92
100
AcDbEntity
  8
JISSEN
100
AcDbCircle
 10
140.1311116706063
 20
327.6559176859481
 30
0.0
 40
0.2442857142851229
100
AcDbArc
 50
300.5183974584546
 51
29.99999999597759
  0
ARC
  5
EA6E50EDE
330
EA6E4DC92
100
AcDbEntity
  8
JISSEN
100
AcDbCircle
 10
138.170195801201
 20
326.3824840307552
 30
0.0
 40
0.2442857142860036
100
AcDbArc
 50
215.9999999994594
 51
305.4816025404367
  0
ARC
  5
EA6E50EDF
330
EA6E4DC92
100
AcDbEntity
  8
JISSEN
100
AcDbCircle
 10
153.8421167425319
 20
304.3963317069085
 30
0.0
 40
26.75571428569079
100
AcDbArc
 50
120.5183974586359
 51
125.4816025405329
  0
LINE
  5
EA6E50EE0
330
EA6E4DC92
100
AcDbEntity
  8
SAISEN
  6
CONTINUOUS
100
AcDbLine
 10
141.3170472390399
 20
319.0613039005952
 30
0.0
 11
142.5695541893901
 21
317.5948066812242
 31
0.0
  0
ARC
  5
EA6E50EE1
330
EA6E4DC92
100
AcDbEntity
  8
JISSEN
100
AcDbCircle
 10
133.9414867706345
 20
322.6436582705558
 30
0.0
 40
0.2442857142859393
100
AcDbArc
 50
227.9999999992897
 51
317.481602540533
  0
ARC
  5
EA6E50EE2
330
EA6E4DC92
100
AcDbEntity
  8
JISSEN
100
AcDbCircle
 10
135.594790179138
 20
324.2969616790375
 30
0.0
 40
0.2442857142857336
100
AcDbArc
 50
312.5183974586157
 51
41.99999999596707
  0
ARC
  5
EA6E50EE3
330
EA6E4DC92
100
AcDbEntity
  8
JISSEN
100
AcDbCircle
 10
133.9414867706455
 20
322.6436582705679
 30
0.0
 40
0.2442857142857914
100
AcDbArc
 50
227.9999999994823
 51
317.481602540533
  0
ARC
  5
EA6E50EE4
330
EA6E4DC92
100
AcDbEntity
  8
JISSEN
100
AcDbCircle
 10
135.5947901791501
 20
324.2969616790487
 30
0.0
 40
0.24428571428583
100
AcDbArc
 50
312.518397458633
 51
41.99999999585002
  0
ARC
  5
EA6E50EE5
330
EA6E4DC92
100
AcDbEntity
  8
JISSEN
100
AcDbCircle
 10
153.8421167425267
 20
304.3963317069041
 30
0.0
 40
26.75571428569072
100
AcDbArc
 50
132.5183974586687
 51
137.4816025405716
  0
ARC
  5
EA6E50EE6
330
EA6E4DC92
100
AcDbEntity
  8
JISSEN
100
AcDbCircle
 10
153.8421167425267
 20
304.3963317069041
 30
0.0
 40
26.75571428569071
100
AcDbArc
 50
132.518397458633
 51
137.4816025405336
  0
LINE
  5
EA6E50EE7
330
EA6E4DC92
100
AcDbEntity
  8
JISSEN
100
AcDbLine
 10
133.7772064548571
 20
322.462858078784
 30
0.0
 11
133.7780277225192
 21
322.46211860606
 31
0.0
  0
LINE
  5
EA6E50EE8
330
EA6E4DC92
100
AcDbEntity
  8
JISSEN
100
AcDbLine
 10
135.7755903709346
 20
324.4612419948363
 30
0.0
 11
135.7763298436714
 21
324.4604207271606
 31
0.0
  0
ARC
  5
EA6E50EE9
330
EA6E4DC92
100
AcDbEntity
  8
JISSEN
100
AcDbCircle
 10
130.5825307636721
 20
318.1073367791462
 30
0.0
 40
0.2442857142858108
100
AcDbArc
 50
239.9999999993381
 51
329.4816025405225
  0
ARC
  5
EA6E50EEA
330
EA6E4DC92
100
AcDbEntity
  8
JISSEN
100
AcDbCircle
 10
131.8559644188924
 20
320.0682526485342
 30
0.0
 40
0.2442857142862865
100
AcDbArc
 50
324.518397458739
 51
53.99999999578574
  0
ARC
  5
EA6E50EEB
330
EA6E4DC92
100
AcDbEntity
  8
JISSEN
100
AcDbCircle
 10
130.58253076368
 20
318.1073367791607
 30
0.0
 40
0.2442857142855214
100
AcDbArc
 50
239.9999999994436
 51
329.481602540557
  0
ARC
  5
EA6E50EEC
330
EA6E4DC92
100
AcDbEntity
  8
JISSEN
100
AcDbCircle
 10
131.8559644189022
 20
320.068252648548
 30
0.0
 40
0.2442857142861193
100
AcDbArc
 50
324.5183974585592
 51
53.9999999958983
  0
ARC
  5
EA6E50EED
330
EA6E4DC92
100
AcDbEntity
  8
JISSEN
100
AcDbCircle
 10
153.8421167425226
 20
304.3963317068985
 30
0.0
 40
26.75571428569027
100
AcDbArc
 50
144.5183974586712
 51
149.4816025405591
  0
ARC
  5
EA6E50EEE
330
EA6E4DC92
100
AcDbEntity
  8
JISSEN
100
AcDbCircle
 10
153.8421167425226
 20
304.3963317068985
 30
0.0
 40
26.75571428569048
100
AcDbArc
 50
144.5183974586458
 51
149.4816025405321
  0
LINE
  5
EA6E50EEF
330
EA6E4DC92
100
AcDbEntity
  8
1
 62
     7
100
AcDbLine
 10
109.8621167425505
 20
320.3963317068803
 30
0.0
 11
109.8621167425505
 21
329.3963317068804
 31
0.0
  0
LINE
  5
EA6E50EF0
330
EA6E4DC92
100
AcDbEntity
  8
1
 62
     2
100
AcDbLine
 10
127.5746390314145
 20
311.1394403853534
 30
0.0
 11
127.6818188252193
 21
311.0775601025485
 31
0.0
  0
LINE
  5
EA6E50EF1
330
EA6E4DC92
100
AcDbEntity
  8
1
 62
     7
100
AcDbLine
 10
127.6967171487234
 20
311.1356254441875
 30
0.0
 11
125.8521167425503
 21
311.1932692068804
 31
0.0
  0
ARC
  5
EA6E50EF2
330
EA6E4DC92
100
AcDbEntity
  8
JISSEN
100
AcDbCircle
 10
153.842116742519
 20
304.3963317068924
 30
0.0
 40
26.75571428569033
100
AcDbArc
 50
156.518397458682
 51
161.4816025405657
  0
LINE
  5
EA6E50EF3
330
EA6E4DC92
100
AcDbEntity
  8
SAISEN
  6
CONTINUOUS
100
AcDbLine
 10
137.8810008488269
 20
311.2163894478687
 30
0.0
 11
134.9112333862219
 21
312.4465074079739
 31
0.0
  0
LINE
  5
EA6E50EF4
330
EA6E4DC92
100
AcDbEntity
  8
SAISEN
  6
CONTINUOUS
100
AcDbLine
 10
134.7636269194529
 20
312.0901538740052
 30
0.0
 11
137.7333943820574
 21
310.8600359139
 31
0.0
  0
LINE
  5
EA6E50EF5
330
EA6E4DC92
100
AcDbEntity
  8
SAISEN
  6
CONTINUOUS
100
AcDbLine
 10
134.8365949308897
 20
312.2686766012479
 30
0.0
 11
137.8062077139611
 21
311.0386227115032
 31
0.0
  0
LINE
  5
EA6E50EF6
330
EA6E4DC92
100
AcDbEntity
  8
SAISEN
  6
CONTINUOUS
100
AcDbLine
 10
134.8861682917027
 20
312.3873073543329
 30
0.0
 11
137.8558498182203
 21
311.1572249901204
 31
0.0
  0
LINE
  5
EA6E50EF7
330
EA6E4DC92
100
AcDbEntity
  8
SAISEN
  6
CONTINUOUS
100
AcDbLine
 10
134.7877639805233
 20
312.1497383316872
 30
0.0
 11
137.7574455070407
 21
310.9196559674746
 31
0.0
  0
ARC
  5
EA6E50EF8
330
EA6E4DC92
100
AcDbEntity
  8
JISSEN
100
AcDbCircle
 10
128.240130275863
 20
312.9717785733766
 30
0.0
 40
0.2442857142855471
100
AcDbArc
 50
251.9999999996106
 51
341.4816025405832
  0
ARC
  5
EA6E50EF9
330
EA6E4DC92
100
AcDbEntity
  8
JISSEN
100
AcDbCircle
 10
127.3824226418762
 20
309.7707701053845
 30
0.0
 40
0.2442857142863507
100
AcDbArc
 50
348.5183974586758
 51
77.99999999580172
  0
LINE
  5
EA6E50EFA
330
EA6E4DC92
100
AcDbEntity
  8
JISSEN
100
AcDbLine
 10
127.4321315227546
 20
310.0099473590406
 30
0.0
 11
127.4332124977936
 21
310.009717590703
 31
0.0
  0
LINE
  5
EA6E50EFB
330
EA6E4DC92
100
AcDbEntity
  8
SAISEN
  6
CONTINUOUS
100
AcDbLine
 10
136.6986691165056
 20
307.1115870643645
 30
0.0
 11
134.7938416025012
 21
307.4132821040848
 31
0.0
  0
ARC
  5
EA6E50EFC
330
EA6E4DC92
100
AcDbEntity
  8
JISSEN
100
AcDbCircle
 10
127.0166594486104
 20
307.4614321899816
 30
0.0
 40
0.2442857142857914
100
AcDbArc
 50
263.9999999993236
 51
353.4816025405664
  0
LINE
  5
EA6E50EFD
330
EA6E4DC92
100
AcDbEntity
  8
JISSEN
100
AcDbLine
 10
126.9900255676384
 20
307.2186002153799
 30
0.0
 11
126.9911246382948
 21
307.218484698399
 31
0.0
  0
ARC
  5
EA6E50EFE
330
EA6E4DC92
100
AcDbEntity
  8
JISSEN
100
AcDbCircle
 10
153.8421167425167
 20
304.3963317068854
 30
0.0
 40
26.75571428569018
100
AcDbArc
 50
168.5183974586758
 51
173.4816025405664
  0
LINE
  5
EA6E50EFF
330
EA6E4DC92
100
AcDbEntity
  8
SAISEN
  6
CONTINUOUS
100
AcDbLine
 10
136.5384801641819
 20
303.0345059738897
 30
0.0
 11
134.6158538776971
 21
302.8831920035576
 31
0.0
  0
LINE
  5
EA6E50F00
330
EA6E4DC92
100
AcDbEntity
  8
SAISEN
  6
CONTINUOUS
100
AcDbLine
 10
137.3344929239983
 20
299.0326795902294
 30
0.0
 11
135.5003124997153
 21
298.4367182439349
 31
0.0
  0
ARC
  5
EA6E50F01
330
EA6E4DC92
100
AcDbEntity
  8
JISSEN
100
AcDbCircle
 10
127.4840023536453
 20
298.5439983378774
 30
0.0
 40
0.244285714286325
100
AcDbArc
 50
12.51839745869499
 51
101.9999999960074
  0
ARC
  5
EA6E50F02
330
EA6E4DC92
100
AcDbEntity
  8
JISSEN
100
AcDbCircle
 10
127.4840023536419
 20
298.5439983378938
 30
0.0
 40
0.2442857142860872
100
AcDbArc
 50
12.51839745860173
 51
101.9999999958608
  0
ARC
  5
EA6E50F03
330
EA6E4DC92
100
AcDbEntity
  8
JISSEN
100
AcDbCircle
 10
126.9655898279268
 20
301.8171262074911
 30
0.0
 40
0.2442857142857014
100
AcDbArc
 50
275.9999999994712
 51
5.481602540574529
  0
ARC
  5
EA6E50F04
330
EA6E4DC92
100
AcDbEntity
  8
JISSEN
100
AcDbCircle
 10
126.8432218671973
 20
304.152045992677
 30
0.0
 40
0.2442857142864922
100
AcDbArc
 50
0.5183974586879807
 51
89.99999999594843
  0
ARC
  5
EA6E50F05
330
EA6E4DC92
100
AcDbEntity
  8
JISSEN
100
AcDbCircle
 10
153.8421167425167
 20
304.3963317068786
 30
0.0
 40
26.75571428568983
100
AcDbArc
 50
180.5183974586749
 51
185.4816025405674
  0
LINE
  5
EA6E50F06
330
EA6E4DC92
100
AcDbEntity
  8
JISSEN
100
AcDbLine
 10
127.4321315227202
 20
298.7827160548818
 30
0.0
 11
127.433212497759
 21
298.7829458232194
 31
0.0
  0
LINE
  5
EA6E50F07
330
EA6E4DC92
100
AcDbEntity
  8
JISSEN
100
AcDbLine
 10
127.4321315227202
 20
298.7827160548818
 30
0.0
 11
127.433212497759
 21
298.7829458232194
 31
0.0
  0
LINE
  5
EA6E50F08
330
EA6E4DC92
100
AcDbEntity
  8
JISSEN
  6
CONTINUOUS
100
AcDbLine
 10
129.7349738854077
 20
304.3963317068804
 30
0.0
 11
130.377831028265
 21
304.3963317068804
 31
0.0
  0
ARC
  5
EA6E50F09
330
EA6E4DC92
100
AcDbEntity
  8
JISSEN
100
AcDbCircle
 10
129.078039016455
 20
315.1546054706604
 30
0.0
 40
0.24428571428574
100
AcDbArc
 50
336.5183974586529
 51
65.99999999600237
  0
LINE
  5
EA6E50F0A
330
EA6E4DC92
100
AcDbEntity
  8
SAISEN
  6
CONTINUOUS
100
AcDbLine
 10
138.2396461367477
 20
315.7321901439495
 30
0.0
 11
139.7998931973274
 21
314.5986043002429
 31
0.0
  0
LINE
  5
EA6E50F0B
330
EA6E4DC92
100
AcDbEntity
  8
1
 62
     2
100
AcDbLine
 10
122.5621167425504
 20
298.5582067068804
 30
0.0
 11
118.8621167425503
 21
298.6738317068804
 31
0.0
  0
LINE
  5
EA6E50F0C
330
EA6E4DC92
100
AcDbEntity
  8
1
 62
     2
100
AcDbLine
 10
118.8621167425503
 20
310.1188317068805
 30
0.0
 11
122.5621167425504
 21
310.2344567068805
 31
0.0
  0
LINE
  5
EA6E50F0D
330
EA6E4DC92
100
AcDbEntity
  8
1
 62
     7
100
AcDbLine
 10
114.8621167425506
 20
315.3963317068804
 30
0.0
 11
118.8621167425503
 21
315.3963317068804
 31
0.0
  0
LINE
  5
EA6E50F0E
330
EA6E4DC92
100
AcDbEntity
  8
1
 62
     7
100
AcDbLine
 10
125.8521167425503
 20
311.1932692068804
 30
0.0
 11
118.8621167425503
 21
310.9748317068803
 31
0.0
  0
LINE
  5
EA6E50F0F
330
EA6E4DC92
100
AcDbEntity
  8
1
 62
     2
100
AcDbLine
 10
122.5621167425504
 20
310.2344567068805
 30
0.0
 11
124.1295944536861
 21
311.1394403853534
 31
0.0
  0
ARC
  5
EA6E50F10
330
EA6E4DC92
100
AcDbEntity
  8
1
 62
     7
100
AcDbCircle
 10
114.8621167425506
 20
320.3963317068803
 30
0.0
 40
5.0
100
AcDbArc
 50
180.0
 51
270.0
  0
ARC
  5
EA6E50F11
330
EA6E4DC92
100
AcDbEntity
  8
JISSEN
100
AcDbCircle
 10
153.8421167425378
 20
304.3963317069119
 30
0.0
 40
26.75571428569
100
AcDbArc
 50
108.5183974586435
 51
113.4816025405323
  0
ARC
  5
EA6E50F12
330
EA6E4DC92
100
AcDbEntity
  8
JISSEN
100
AcDbCircle
 10
153.8421167425378
 20
304.3963317069119
 30
0.0
 40
26.75571428568977
100
AcDbArc
 50
108.5183974586023
 51
113.48160254049
  0
ARC
  5
EA6E50F13
330
EA6E4DC92
100
AcDbEntity
  8
JISSEN
100
AcDbCircle
 10
153.8421167425822
 20
304.3963317068687
 30
0.0
 40
26.75571428569016
100
AcDbArc
 50
336.5183974588163
 51
341.4816025407036
  0
ARC
  5
EA6E50F14
330
EA6E4DC92
100
AcDbEntity
  8
JISSEN
100
AcDbCircle
 10
153.8421167425822
 20
304.3963317068687
 30
0.0
 40
26.75571428568967
100
AcDbArc
 50
336.5183974587842
 51
341.4816025406656
  0
LINE
  5
EA6E50F15
330
EA6E4DC92
100
AcDbEntity
  8
SAISEN
  6
CONTINUOUS
100
AcDbLine
 10
170.2858913408078
 20
294.3195736730728
 30
0.0
 11
168.6415138809827
 21
295.3272494764532
 31
0.0
  0
ARC
  5
EA6E50F16
330
EA6E4DC92
100
AcDbEntity
  8
JISSEN
100
AcDbCircle
 10
177.1017027214618
 20
290.6853266346713
 30
0.0
 40
0.2442857142854893
100
AcDbArc
 50
59.99999999963911
 51
149.4816025406758
  0
ARC
  5
EA6E50F17
330
EA6E4DC92
100
AcDbEntity
  8
JISSEN
100
AcDbCircle
 10
178.6061944686721
 20
293.6380579431607
 30
0.0
 40
0.2442857142860421
100
AcDbArc
 50
156.5183974588454
 51
245.9999999959881
  0
ARC
  5
EA6E50F18
330
EA6E4DC92
100
AcDbEntity
  8
JISSEN
100
AcDbCircle
 10
178.606194468665
 20
293.6380579431453
 30
0.0
 40
0.2442857142862222
100
AcDbArc
 50
156.5183974587421
 51
245.9999999959739
  0
ARC
  5
EA6E50F19
330
EA6E4DC92
100
AcDbEntity
  8
JISSEN
100
AcDbCircle
 10
177.1017027214532
 20
290.6853266346571
 30
0.0
 40
0.2442857142858429
100
AcDbArc
 50
59.99999999953368
 51
149.4816025406606
  0
LINE
  5
EA6E50F1A
330
EA6E4DC92
100
AcDbEntity
  8
JISSEN
100
AcDbLine
 10
177.2248026446143
 20
290.8963317066865
 30
0.0
 11
177.2238455785977
 21
290.8968842690092
 31
0.0
  0
ARC
  5
EA6E50F1B
330
EA6E4DC92
100
AcDbEntity
  8
JISSEN
100
AcDbCircle
 10
175.8282690662465
 20
288.7244107652802
 30
0.0
 40
0.2442857142860743
100
AcDbArc
 50
144.5183974588706
 51
233.9999999961239
  0
ARC
  5
EA6E50F1C
330
EA6E4DC92
100
AcDbEntity
  8
JISSEN
100
AcDbCircle
 10
175.828269066237
 20
288.7244107652666
 30
0.0
 40
0.2442857142861836
100
AcDbArc
 50
144.5183974588289
 51
233.9999999958178
  0
LINE
  5
EA6E50F1D
330
EA6E4DC92
100
AcDbEntity
  8
JISSEN
100
AcDbLine
 10
175.6855755906542
 20
288.5261298949566
 30
0.0
 11
175.6846815260189
 21
288.5267794709364
 31
0.0
  0
ARC
  5
EA6E50F1E
330
EA6E4DC92
100
AcDbEntity
  8
JISSEN
100
AcDbCircle
 10
153.8421167425788
 20
304.3963317068624
 30
0.0
 40
26.7557142856903
100
AcDbArc
 50
324.5183974588067
 51
329.4816025407103
  0
ARC
  5
EA6E50F1F
330
EA6E4DC92
100
AcDbEntity
  8
JISSEN
100
AcDbCircle
 10
153.8421167425788
 20
304.3963317068624
 30
0.0
 40
26.75571428569025
100
AcDbArc
 50
324.5183974587833
 51
329.4816025406613
  0
LINE
  5
EA6E50F20
330
EA6E4DC92
100
AcDbEntity
  8
SAISEN
  6
CONTINUOUS
100
AcDbLine
 10
168.7474219032049
 20
290.2183363783032
 30
0.0
 11
166.4737364117045
 21
292.4920218698036
 31
0.0
  0
LINE
  5
EA6E50F21
330
EA6E4DC92
100
AcDbEntity
  8
SAISEN
  6
CONTINUOUS
100
AcDbLine
 10
166.2060471657362
 20
292.214228741714
 30
0.0
 11
168.4789430049345
 21
289.9413329025158
 31
0.0
  0
LINE
  5
EA6E50F22
330
EA6E4DC92
100
AcDbEntity
  8
SAISEN
  6
CONTINUOUS
100
AcDbLine
 10
168.7074900917612
 20
290.1673544607376
 30
0.0
 11
166.4345942525628
 21
292.4402502999359
 31
0.0
  0
LINE
  5
EA6E50F23
330
EA6E4DC92
100
AcDbEntity
  8
SAISEN
  6
CONTINUOUS
100
AcDbLine
 10
166.3440172456871
 20
292.3489998487923
 30
0.0
 11
168.6168604709289
 21
290.0761566235503
 31
0.0
  0
LINE
  5
EA6E50F24
330
EA6E4DC92
100
AcDbEntity
  8
SAISEN
  6
CONTINUOUS
100
AcDbLine
 10
168.5256626337413
 20
289.9855270027182
 30
0.0
 11
166.2527667945435
 21
292.2584228419165
 31
0.0
  0
ARC
  5
EA6E50F25
330
EA6E4DC92
100
AcDbEntity
  8
JISSEN
100
AcDbCircle
 10
169.5140376839528
 20
282.4101793830437
 30
0.0
 40
0.2442857142863572
100
AcDbArc
 50
35.99999999945946
 51
125.4816025404692
  0
ARC
  5
EA6E50F26
330
EA6E4DC92
100
AcDbEntity
  8
JISSEN
100
AcDbCircle
 10
169.5140376839397
 20
282.4101793830341
 30
0.0
 40
0.2442857142859264
100
AcDbArc
 50
35.999999999436
 51
125.4816025405329
  0
ARC
  5
EA6E50F27
330
EA6E4DC92
100
AcDbEntity
  8
JISSEN
100
AcDbCircle
 10
167.5531218145511
 20
281.1367457278457
 30
0.0
 40
0.2442857142861964
100
AcDbArc
 50
120.5183974588327
 51
209.9999999959285
  0
ARC
  5
EA6E50F28
330
EA6E4DC92
100
AcDbEntity
  8
JISSEN
100
AcDbCircle
 10
167.5531218145365
 20
281.1367457278371
 30
0.0
 40
0.244285714286235
100
AcDbArc
 50
120.5183974586662
 51
209.9999999960024
  0
ARC
  5
EA6E50F29
330
EA6E4DC92
100
AcDbEntity
  8
JISSEN
100
AcDbCircle
 10
153.842116742569
 20
304.3963317068525
 30
0.0
 40
26.75571428569008
100
AcDbArc
 50
300.5183974587721
 51
305.4816025406771
  0
ARC
  5
EA6E50F2A
330
EA6E4DC92
100
AcDbEntity
  8
JISSEN
100
AcDbCircle
 10
153.842116742569
 20
304.3963317068525
 30
0.0
 40
26.75571428568986
100
AcDbArc
 50
300.5183974587418
 51
305.4816025406292
  0
ARC
  5
EA6E50F2B
330
EA6E4DC92
100
AcDbEntity
  8
JISSEN
100
AcDbCircle
 10
164.6003905060479
 20
279.6322539806626
 30
0.0
 40
0.2442857142860293
100
AcDbArc
 50
23.9999999994553
 51
113.4816025405892
  0
ARC
  5
EA6E50F2C
330
EA6E4DC92
100
AcDbEntity
  8
JISSEN
100
AcDbCircle
 10
164.6003905060326
 20
279.6322539806559
 30
0.0
 40
0.2442857142859714
100
AcDbArc
 50
23.99999999951648
 51
113.4816025406034
  0
ARC
  5
EA6E50F2D
330
EA6E4DC92
100
AcDbEntity
  8
JISSEN
100
AcDbCircle
 10
164.6003905060479
 20
279.6322539806626
 30
0.0
 40
0.2442857142860293
100
AcDbArc
 50
23.9999999994553
 51
113.4816025405892
  0
ARC
  5
EA6E50F2E
330
EA6E4DC92
100
AcDbEntity
  8
JISSEN
100
AcDbCircle
 10
164.6003905060326
 20
279.6322539806559
 30
0.0
 40
0.2442857142859714
100
AcDbArc
 50
23.99999999951648
 51
113.4816025406034
  0
LINE
  5
EA6E50F2F
330
EA6E4DC92
100
AcDbEntity
  8
JISSEN
100
AcDbLine
 10
164.8240061053748
 20
279.7306043504344
 30
0.0
 11
164.8235566106864
 21
279.7316139320342
 31
0.0
  0
LINE
  5
EA6E50F30
330
EA6E4DC92
100
AcDbEntity
  8
JISSEN
100
AcDbLine
 10
164.8240061053748
 20
279.7306043504344
 30
0.0
 11
164.8235566106864
 21
279.7316139320342
 31
0.0
  0
ARC
  5
EA6E50F31
330
EA6E4DC92
100
AcDbEntity
  8
JISSEN
100
AcDbCircle
 10
172.0894433059986
 20
284.4957017347569
 30
0.0
 40
0.2442857142858429
100
AcDbArc
 50
132.5183974588624
 51
221.9999999959284
  0
ARC
  5
EA6E50F32
330
EA6E4DC92
100
AcDbEntity
  8
JISSEN
100
AcDbCircle
 10
153.842116742574
 20
304.3963317068568
 30
0.0
 40
26.75571428568998
100
AcDbArc
 50
312.5183974587748
 51
317.4816025406685
  0
ARC
  5
EA6E50F33
330
EA6E4DC92
100
AcDbEntity
  8
JISSEN
100
AcDbCircle
 10
173.7427467144996
 20
286.1490051432411
 30
0.0
 40
0.2442857142856436
100
AcDbArc
 50
47.99999999964033
 51
137.4816025408413
  0
ARC
  5
EA6E50F34
330
EA6E4DC92
100
AcDbEntity
  8
JISSEN
100
AcDbCircle
 10
179.4441032092586
 20
295.8208848404464
 30
0.0
 40
0.2442857142856693
100
AcDbArc
 50
71.99999999961066
 51
161.4816025407067
  0
ARC
  5
EA6E50F35
330
EA6E4DC92
100
AcDbEntity
  8
JISSEN
100
AcDbCircle
 10
179.4441032092529
 20
295.8208848404305
 30
0.0
 40
0.2442857142856178
100
AcDbArc
 50
71.99999999961066
 51
161.4816025406357
  0
ARC
  5
EA6E50F36
330
EA6E4DC92
100
AcDbEntity
  8
JISSEN
100
AcDbCircle
 10
153.8421167425628
 20
304.3963317068492
 30
0.0
 40
26.75571428569041
100
AcDbArc
 50
288.518397458781
 51
293.4816025406745
  0
ARC
  5
EA6E50F37
330
EA6E4DC92
100
AcDbEntity
  8
JISSEN
100
AcDbCircle
 10
153.8421167425628
 20
304.3963317068492
 30
0.0
 40
26.75571428569059
100
AcDbArc
 50
288.5183974587398
 51
293.4816025406319
  0
LINE
  5
EA6E50F38
330
EA6E4DC92
100
AcDbEntity
  8
1
 62
     2
100
AcDbLine
 10
127.6818188252117
 20
297.7151033112079
 30
0.0
 11
127.5746390314145
 21
297.6532230284074
 31
0.0
  0
LINE
  5
EA6E50F39
330
EA6E4DC92
100
AcDbEntity
  8
1
 62
     7
100
AcDbLine
 10
125.8521167425503
 20
297.5993942068805
 30
0.0
 11
127.6967171487146
 21
297.6570379695731
 31
0.0
  0
LINE
  5
EA6E50F3A
330
EA6E4DC92
100
AcDbEntity
  8
SAISEN
  6
CONTINUOUS
100
AcDbLine
 10
137.3983421442931
 20
294.3195736730728
 30
0.0
 11
139.042719604118
 21
295.3272494764532
 31
0.0
  0
ARC
  5
EA6E50F3B
330
EA6E4DC92
100
AcDbEntity
  8
JISSEN
100
AcDbCircle
 10
129.2767589191544
 20
293.1917257339307
 30
0.0
 40
0.2442857142861579
100
AcDbArc
 50
24.51839745874285
 51
113.9999999959119
  0
ARC
  5
EA6E50F3C
330
EA6E4DC92
100
AcDbEntity
  8
JISSEN
100
AcDbCircle
 10
129.2767589191469
 20
293.1917257339459
 30
0.0
 40
0.2442857142867171
100
AcDbArc
 50
24.51839745861677
 51
113.9999999957694
  0
ARC
  5
EA6E50F3D
330
EA6E4DC92
100
AcDbEntity
  8
JISSEN
100
AcDbCircle
 10
130.3382450491192
 20
291.1084419037823
 30
0.0
 40
0.2442857142859714
100
AcDbArc
 50
299.999999999624
 51
29.4816025405052
  0
ARC
  5
EA6E50F3E
330
EA6E4DC92
100
AcDbEntity
  8
JISSEN
100
AcDbCircle
 10
130.3382450491117
 20
291.1084419037967
 30
0.0
 40
0.2442857142856693
100
AcDbArc
 50
299.9999999993379
 51
29.48160254058539
  0
ARC
  5
EA6E50F3F
330
EA6E4DC92
100
AcDbEntity
  8
JISSEN
100
AcDbCircle
 10
132.1431394992109
 20
288.3291481766669
 30
0.0
 40
0.2442857142852515
100
AcDbArc
 50
36.51839745867404
 51
125.9999999959694
  0
ARC
  5
EA6E50F40
330
EA6E4DC92
100
AcDbEntity
  8
JISSEN
100
AcDbCircle
 10
153.8421167425203
 20
304.3963317068649
 30
0.0
 40
26.75571428569
100
AcDbArc
 50
204.5183974587115
 51
209.4816025405957
  0
ARC
  5
EA6E50F41
330
EA6E4DC92
100
AcDbEntity
  8
JISSEN
100
AcDbCircle
 10
153.8421167425203
 20
304.3963317068649
 30
0.0
 40
26.75571428568967
100
AcDbArc
 50
204.5183974586712
 51
209.4816025405672
  0
LINE
  5
EA6E50F42
330
EA6E4DC92
100
AcDbEntity
  8
SAISEN
100
AcDbLine
 10
139.1822779397359
 20
289.9637772265908
 30
0.0
 11
139.4095622622605
 21
289.7364929040664
 31
0.0
  0
LINE
  5
EA6E50F43
330
EA6E4DC92
100
AcDbEntity
  8
SAISEN
  6
CONTINUOUS
100
AcDbLine
 10
139.2052904801666
 20
289.9413329025158
 30
0.0
 11
141.478186319365
 21
292.214228741714
 31
0.0
  0
LINE
  5
EA6E50F44
330
EA6E4DC92
100
AcDbEntity
  8
SAISEN
  6
CONTINUOUS
100
AcDbLine
 10
141.2104970733962
 20
292.4920218698036
 30
0.0
 11
138.9368115818961
 21
290.2183363783034
 31
0.0
  0
LINE
  5
EA6E50F45
330
EA6E4DC92
100
AcDbEntity
  8
SAISEN
  6
CONTINUOUS
100
AcDbLine
 10
139.1585708513594
 20
289.9855270027182
 30
0.0
 11
141.4314666905572
 21
292.2584228419165
 31
0.0
  0
LINE
  5
EA6E50F46
330
EA6E4DC92
100
AcDbEntity
  8
SAISEN
  6
CONTINUOUS
100
AcDbLine
 10
141.340216239414
 20
292.3489998487923
 30
0.0
 11
139.067373014172
 21
290.0761566235503
 31
0.0
  0
LINE
  5
EA6E50F47
330
EA6E4DC92
100
AcDbEntity
  8
SAISEN
  6
CONTINUOUS
100
AcDbLine
 10
138.9767433933395
 20
290.1673544607376
 30
0.0
 11
141.2496392325383
 21
292.4402502999359
 31
0.0
  0
ARC
  5
EA6E50F48
330
EA6E4DC92
100
AcDbEntity
  8
JISSEN
100
AcDbCircle
 10
142.6375107693204
 20
279.8309738836125
 30
0.0
 40
0.2442857142857593
100
AcDbArc
 50
335.9999999995096
 51
65.48160254066186
  0
ARC
  5
EA6E50F49
330
EA6E4DC92
100
AcDbEntity
  8
JISSEN
100
AcDbCircle
 10
140.554226939184
 20
280.8924600136012
 30
0.0
 40
0.2442857142863315
100
AcDbArc
 50
60.51839745876917
 51
149.9999999958409
  0
ARC
  5
EA6E50F4A
330
EA6E4DC92
100
AcDbEntity
  8
JISSEN
100
AcDbCircle
 10
142.6375107693047
 20
279.8309738836193
 30
0.0
 40
0.2442857142860164
100
AcDbArc
 50
335.9999999994555
 51
65.48160254051866
  0
ARC
  5
EA6E50F4B
330
EA6E4DC92
100
AcDbEntity
  8
JISSEN
100
AcDbCircle
 10
140.5542269391698
 20
280.8924600136096
 30
0.0
 40
0.2442857142862672
100
AcDbArc
 50
60.51839745875382
 51
149.9999999959722
  0
ARC
  5
EA6E50F4C
330
EA6E4DC92
100
AcDbEntity
  8
JISSEN
100
AcDbCircle
 10
153.8421167425353
 20
304.3963317068506
 30
0.0
 40
26.7557142856902
100
AcDbArc
 50
240.5183974587393
 51
245.4816025406334
  0
ARC
  5
EA6E50F4D
330
EA6E4DC92
100
AcDbEntity
  8
JISSEN
100
AcDbCircle
 10
153.8421167425353
 20
304.3963317068506
 30
0.0
 40
26.75571428569002
100
AcDbArc
 50
240.518397458709
 51
245.4816025406046
  0
ARC
  5
EA6E50F4E
330
EA6E4DC92
100
AcDbEntity
  8
JISSEN
100
AcDbCircle
 10
153.842116742529
 20
304.3963317068542
 30
0.0
 40
26.75571428569046
100
AcDbArc
 50
228.5183974587391
 51
233.4816025406349
  0
ARC
  5
EA6E50F4F
330
EA6E4DC92
100
AcDbEntity
  8
JISSEN
100
AcDbCircle
 10
153.842116742529
 20
304.3963317068542
 30
0.0
 40
26.75571428569037
100
AcDbArc
 50
228.5183974587039
 51
233.4816025406028
  0
ARC
  5
EA6E50F50
330
EA6E4DC92
100
AcDbEntity
  8
JISSEN
100
AcDbCircle
 10
133.6145686740283
 20
286.5120844726198
 30
0.0
 40
0.2442857142855921
100
AcDbArc
 50
311.9999999995536
 51
41.48160254064829
  0
ARC
  5
EA6E50F51
330
EA6E4DC92
100
AcDbEntity
  8
JISSEN
100
AcDbCircle
 10
135.9578695080592
 20
284.1687836385621
 30
0.0
 40
0.2442857142857979
100
AcDbArc
 50
48.51839745882564
 51
137.9999999960508
  0
ARC
  5
EA6E50F52
330
EA6E4DC92
100
AcDbEntity
  8
JISSEN
100
AcDbCircle
 10
135.9578695080463
 20
284.1687836385732
 30
0.0
 40
0.2442857142860808
100
AcDbArc
 50
48.51839745865147
 51
137.9999999958952
  0
LINE
  5
EA6E50F53
330
EA6E4DC92
100
AcDbEntity
  8
JISSEN
100
AcDbLine
 10
135.7755903708116
 20
284.331421419035
 30
0.0
 11
135.7763298435486
 21
284.332242686711
 31
0.0
  0
ARC
  5
EA6E50F54
330
EA6E4DC92
100
AcDbEntity
  8
JISSEN
100
AcDbCircle
 10
137.774933212089
 20
282.6973544637247
 30
0.0
 40
0.2442857142856307
100
AcDbArc
 50
323.9999999993692
 51
53.48160254065128
  0
ARC
  5
EA6E50F55
330
EA6E4DC92
100
AcDbEntity
  8
JISSEN
100
AcDbCircle
 10
137.7749332120756
 20
282.6973544637347
 30
0.0
 40
0.2442857142860293
100
AcDbArc
 50
323.9999999995438
 51
53.48160254053778
  0
LINE
  5
EA6E50F56
330
EA6E4DC92
100
AcDbEntity
  8
JISSEN
100
AcDbLine
 10
137.971914930446
 20
282.5528728589111
 30
0.0
 11
137.9725645064149
 21
282.55376692353
 31
0.0
  0
ARC
  5
EA6E50F57
330
EA6E4DC92
100
AcDbEntity
  8
JISSEN
100
AcDbCircle
 10
153.8421167425244
 20
304.3963317068591
 30
0.0
 40
26.7557142856905
100
AcDbArc
 50
216.5183974587163
 51
221.4816025406084
  0
ARC
  5
EA6E50F58
330
EA6E4DC92
100
AcDbEntity
  8
JISSEN
100
AcDbCircle
 10
128.0891534013039
 20
296.2855438817097
 30
0.0
 40
0.2442857142859071
100
AcDbArc
 50
287.9999999994304
 51
17.4816025405263
  0
ARC
  5
EA6E50F59
330
EA6E4DC92
100
AcDbEntity
  8
JISSEN
100
AcDbCircle
 10
128.0891534012987
 20
296.2855438817257
 30
0.0
 40
0.2442857142861321
100
AcDbArc
 50
287.9999999995947
 51
17.48160254048511
  0
ARC
  5
EA6E50F5A
330
EA6E4DC92
100
AcDbEntity
  8
JISSEN
100
AcDbCircle
 10
128.0891534013039
 20
296.2855438817097
 30
0.0
 40
0.2442857142859071
100
AcDbArc
 50
287.9999999994304
 51
17.4816025405263
  0
ARC
  5
EA6E50F5B
330
EA6E4DC92
100
AcDbEntity
  8
JISSEN
100
AcDbCircle
 10
128.0891534012987
 20
296.2855438817257
 30
0.0
 40
0.2442857142861321
100
AcDbArc
 50
287.9999999995947
 51
17.48160254048511
  0
LINE
  5
EA6E50F5C
330
EA6E4DC92
100
AcDbEntity
  8
JISSEN
100
AcDbLine
 10
128.1635908024982
 20
296.0528728590191
 30
0.0
 11
128.1646418384941
 21
296.0532143613156
 31
0.0
  0
LINE
  5
EA6E50F5D
330
EA6E4DC92
100
AcDbEntity
  8
JISSEN
100
AcDbLine
 10
128.1635908024982
 20
296.0528728590191
 30
0.0
 11
128.1646418384941
 21
296.0532143613156
 31
0.0
  0
ARC
  5
EA6E50F5E
330
EA6E4DC92
100
AcDbEntity
  8
1
 62
     7
100
AcDbCircle
 10
111.8621167425507
 20
291.3963317068803
 30
0.0
 40
2.0
100
AcDbArc
 50
90.0
 51
180.0
  0
LINE
  5
EA6E50F5F
330
EA6E4DC92
100
AcDbEntity
  8
1
 62
     7
100
AcDbLine
 10
111.8621167425507
 20
293.3963317068803
 30
0.0
 11
118.8621167425503
 21
293.3963317068803
 31
0.0
  0
LINE
  5
EA6E50F60
330
EA6E4DC92
100
AcDbEntity
  8
1
 62
     7
100
AcDbLine
 10
118.8621167425503
 20
297.8178317068805
 30
0.0
 11
125.8521167425503
 21
297.5993942068805
 31
0.0
  0
LINE
  5
EA6E50F61
330
EA6E4DC92
100
AcDbEntity
  8
1
 62
     7
100
AcDbLine
 10
105.3323042425504
 20
270.9263317068801
 30
0.0
 11
105.0676167425504
 21
279.3963317068801
 31
0.0
  0
LINE
  5
EA6E50F62
330
EA6E4DC92
100
AcDbEntity
  8
1
 62
     7
100
AcDbLine
 10
109.8621167425505
 20
279.3963317068801
 30
0.0
 11
109.8621167425507
 21
291.3963317068803
 31
0.0
  0
LINE
  5
EA6E50F63
330
EA6E4DC92
100
AcDbEntity
  8
1
 62
     7
100
AcDbLine
 10
122.5621167425504
 20
311.0904567068804
 30
0.0
 11
122.5621167425504
 21
297.7022067068804
 31
0.0
  0
LINE
  5
EA6E50F64
330
EA6E4DC92
100
AcDbEntity
  8
1
  6
DASHDOT
 62
     2
100
AcDbLine
 10
118.8621167425503
 20
312.1064366092544
 30
0.0
 11
118.8621167425503
 21
296.1064366092544
 31
0.0
  0
LINE
  5
EA6E50F65
330
EA6E4DC92
100
AcDbEntity
  8
1
 62
     7
100
AcDbLine
 10
118.8621167425503
 20
315.3963317068804
 30
0.0
 11
118.8621167425503
 21
293.3963317068803
 31
0.0
  0
LINE
  5
EA6E50F66
330
EA6E4DC92
100
AcDbEntity
  8
1
 62
     2
100
AcDbLine
 10
124.1295944536861
 20
297.6532230284074
 30
0.0
 11
122.5621167425504
 21
298.5582067068804
 31
0.0
  0
LWPOLYLINE
  5
EA6E50F67
330
EA6E4DC92
100
AcDbEntity
  8
JISSEN
100
AcDbPolyline
 90
        2
 70
     0
 43
0.0
 10
181.1921167425502
 20
299.8963328779261
 10
181.1921167425502
 20
299.3963317068807
  0
CIRCLE
  5
EA6E50F68
330
EA6E4DC92
100
AcDbEntity
  8
JISSEN
100
AcDbCircle
 10
153.8421167425503
 20
304.3963317068638
 30
0.0
 40
22.49999999998787
  0
CIRCLE
  5
EA6E50F69
330
EA6E4DC92
100
AcDbEntity
  8
JISSEN
100
AcDbCircle
 10
153.8421167425503
 20
304.3963317068638
 30
0.0
 40
23.54824121961546
  0
ARC
  5
EA6E50F6A
330
EA6E4DC92
100
AcDbEntity
  8
SAISEN
  6
CONTINUOUS
100
AcDbCircle
 10
153.8421167425506
 20
304.3963317068804
 30
0.0
 40
19.28571428571428
100
AcDbArc
 50
315.3819746929013
 51
224.6180253070986
  0
ARC
  5
EA6E50F6B
330
EA6E4DC92
100
AcDbEntity
  8
SAISEN
  6
CONTINUOUS
100
AcDbCircle
 10
153.8421167425503
 20
304.3963317068804
 30
0.0
 40
17.3571428571435
100
AcDbArc
 50
315.4244170629074
 51
224.5755829370931
  0
LINE
  5
EA6E50F6C
330
EA6E4DC92
100
AcDbEntity
  8
SAISEN
100
AcDbLine
 10
152.7696304259563
 20
302.4183850188432
 30
0.0
 11
139.4095622622605
 21
289.7364929040664
 31
0.0
  0
LINE
  5
EA6E50F6D
330
EA6E4DC92
100
AcDbEntity
  8
SAISEN
100
AcDbLine
 10
139.1822779397359
 20
289.9637772265908
 30
0.0
 11
151.8641700545133
 21
303.3238453902859
 31
0.0
  0
ARC
  5
EA6E50F6E
330
EA6E4DC92
100
AcDbEntity
  8
JISSEN
100
AcDbCircle
 10
153.8421167425185
 20
304.3963317068716
 30
0.0
 40
26.75571428569055
100
AcDbArc
 50
192.5183974587029
 51
197.4816025406078
  0
ARC
  5
EA6E50F6F
330
EA6E4DC92
100
AcDbEntity
  8
JISSEN
100
AcDbCircle
 10
153.8421167425185
 20
304.3963317068716
 30
0.0
 40
26.75571428569095
100
AcDbArc
 50
192.5183974586744
 51
197.4816025405674
  0
ARC
  5
EA6E50F70
330
EA6E4DC92
100
AcDbEntity
  8
JISSEN
100
AcDbCircle
 10
153.8421167425503
 20
304.3963317068894
 30
0.0
 40
23.54824121962738
100
AcDbArc
 50
317.772986587898
 51
345.3401502765881
  0
ARC
  5
EA6E50F71
330
EA6E4DC92
100
AcDbEntity
  8
JISSEN
100
AcDbCircle
 10
153.8421167425503
 20
304.3963317068894
 30
0.0
 40
22.50000000000022
100
AcDbArc
 50
316.7945547137903
 51
345.7901873559705
  0
CIRCLE
  5
EA6E50F72
330
EA6E4DC92
100
AcDbEntity
  8
JISSEN
100
AcDbCircle
 10
153.8421167425503
 20
304.3963317068634
 30
0.0
 40
26.99999999997822
  0
LINE
  5
EA6E50F73
330
EA6E4DC92
100
AcDbEntity
  8
TENSEN
100
AcDbLine
 10
103.9384193775631
 20
334.3963317068804
 30
0.0
 11
103.7821693775631
 21
329.3963317068803
 31
0.0
  0
LINE
  5
EA6E50F74
330
EA6E4DC92
100
AcDbEntity
  8
TENSEN
100
AcDbLine
 10
79.93169878932781
 20
329.3963317068803
 30
0.0
 11
79.77544878932781
 21
334.3963317068804
 31
0.0
  0
LINE
  5
EA6E50F75
330
EA6E4DC92
100
AcDbEntity
  8
1
 62
     7
100
AcDbLine
 10
73.86211674255036
 20
329.3963317068804
 30
0.0
 11
73.86211674255036
 21
304.3963317068804
 31
0.0
  0
LINE
  5
EA6E50F76
330
EA6E4DC92
100
AcDbEntity
  8
1
 62
     2
100
AcDbLine
 10
103.7873520366681
 20
279.3963317068801
 30
0.0
 11
103.9436020366681
 21
274.3963317068801
 31
0.0
  0
LINE
  5
EA6E50F77
330
EA6E4DC92
100
AcDbEntity
  8
1
 62
     2
100
AcDbLine
 10
78.42710497302551
 20
272.0519550820852
 30
0.0
 11
79.78063144843258
 21
274.3963317068801
 31
0.0
  0
LINE
  5
EA6E50F78
330
EA6E4DC92
100
AcDbEntity
  8
1
 62
     7
100
AcDbLine
 10
78.65661674255068
 20
279.3963317068801
 30
0.0
 11
78.39192924255053
 21
270.9263317068801
 31
0.0
  0
LINE
  5
EA6E50F79
330
EA6E4DC92
100
AcDbEntity
  8
1
 62
     2
100
AcDbLine
 10
79.78063144843258
 20
274.3963317068801
 30
0.0
 11
79.9368814484327
 21
279.3963317068801
 31
0.0
  0
LINE
  5
EA6E50F7A
330
EA6E4DC92
100
AcDbEntity
  8
1
 62
     7
100
AcDbLine
 10
73.86211674255036
 20
304.3963317068804
 30
0.0
 11
73.86211674255036
 21
279.3963317068801
 31
0.0
  0
LINE
  5
EA6E50F7B
330
EA6E4DC92
100
AcDbEntity
  8
TENSEN
100
AcDbLine
 10
78.49518408344557
 20
334.3963317068804
 30
0.0
 11
105.2186840834453
 21
334.3963317068804
 31
0.0
  0
LINE
  5
EA6E50F7C
330
EA6E4DC92
100
AcDbEntity
  8
TENSEN
  6
DASHDOT
100
AcDbLine
 10
76.3621167425506
 20
329.3963317068804
 30
0.0
 11
107.3621167425506
 21
329.3963317068804
 31
0.0
  0
LINE
  5
EA6E50F7D
330
EA6E4DC92
100
AcDbEntity
  8
1
 62
     7
100
AcDbLine
 10
109.8621167425505
 20
329.3963317068804
 30
0.0
 11
73.86211674255036
 21
329.3963317068804
 31
0.0
  0
LINE
  5
EA6E50F7E
330
EA6E4DC92
100
AcDbEntity
  8
1
 62
     7
100
AcDbLine
 10
73.86211674255036
 20
279.3963317068801
 30
0.0
 11
109.8621167425505
 21
279.3963317068801
 31
0.0
  0
LINE
  5
EA6E50F7F
330
EA6E4DC92
100
AcDbEntity
  8
1
 62
     2
100
AcDbLine
 10
103.9436020366681
 20
274.3963317068801
 30
0.0
 11
105.2971285120752
 21
272.0519550820852
 31
0.0
  0
LINE
  5
EA6E50F80
330
EA6E4DC92
100
AcDbEntity
  8
1
 62
     7
100
AcDbLine
 10
105.2238667425503
 20
274.3963317068801
 30
0.0
 11
78.50036674255057
 21
274.3963317068801
 31
0.0
  0
LINE
  5
EA6E50F81
330
EA6E4DC92
100
AcDbEntity
  8
1
 62
     7
100
AcDbLine
 10
110.3373253566185
 20
270.9263317068801
 30
0.0
 11
73.38690812848245
 21
270.9263317068801
 31
0.0
  0
LINE
  5
EA6E50F82
330
EA6E4DC92
100
AcDbEntity
  8
1
 62
     7
100
AcDbLine
 10
105.0676167425504
 20
251.4563317068803
 30
0.0
 11
105.3323042425504
 21
259.9263317068801
 31
0.0
  0
LINE
  5
EA6E50F83
330
EA6E4DC92
100
AcDbEntity
  8
JISSEN
100
AcDbLine
 10
109.3620667425514
 20
251.4563317068791
 30
0.0
 11
109.3620667425514
 21
245.920182706879
 31
0.0
  0
ARC
  5
EA6E50F84
330
EA6E4DC92
100
AcDbEntity
  8
JISSEN
100
AcDbCircle
 10
111.6611067425512
 20
238.755321706879
 30
0.0
 40
7.0
100
AcDbArc
 50
0.8159890000005436
 51
89.18401100000274
  0
ARC
  5
EA6E50F85
330
EA6E4DC92
100
AcDbEntity
  8
JISSEN
100
AcDbCircle
 10
119.8621168171705
 20
218.9563318921228
 30
0.0
 40
7.0
100
AcDbArc
 50
315.8159889999973
 51
44.18401100000265
  0
ARC
  5
EA6E50F86
330
EA6E4DC92
100
AcDbEntity
  8
JISSEN
100
AcDbCircle
 10
111.6611067425512
 20
199.1573417068791
 30
0.0
 40
7.0
100
AcDbArc
 50
270.8159889999972
 51
359.1840109999994
  0
ARC
  5
EA6E50F87
330
EA6E4DC92
100
AcDbEntity
  8
JISSEN
100
AcDbCircle
 10
140.6581658171705
 20
198.7443468921229
 30
0.0
 40
22.0
100
AcDbArc
 50
135.8159889999973
 51
179.1840109999994
  0
ARC
  5
EA6E50F88
330
EA6E4DC92
100
AcDbEntity
  8
JISSEN
100
AcDbCircle
 10
140.6581658171705
 20
239.1683168921228
 30
0.0
 40
22.0
100
AcDbArc
 50
180.8159890000005
 51
224.1840110000026
  0
LINE
  5
EA6E50F89
330
EA6E4DC92
100
AcDbEntity
  8
1
 62
     2
100
AcDbLine
 10
103.9436020366681
 20
256.4563317068801
 30
0.0
 11
103.7873520366682
 21
251.4563317068802
 31
0.0
  0
ARC
  5
EA6E50F8A
330
EA6E4DC92
100
AcDbEntity
  8
JISSEN
100
AcDbCircle
 10
91.86211715259878
 20
246.9563319046659
 30
0.0
 40
7.0
100
AcDbArc
 50
45.8159890000008
 51
134.1840109999992
  0
LINE
  5
EA6E50F8B
330
EA6E4DC92
100
AcDbEntity
  8
JISSEN
100
AcDbLine
 10
99.11085674255128
 20
249.957756706879
 30
0.0
 11
99.11085674255128
 21
251.4563317068791
 31
0.0
  0
LINE
  5
EA6E50F8C
330
EA6E4DC92
100
AcDbEntity
  8
1
 62
     2
100
AcDbLine
 10
79.78063144843258
 20
256.4563317068801
 30
0.0
 11
78.42710497302551
 21
258.800708331675
 31
0.0
  0
LINE
  5
EA6E50F8D
330
EA6E4DC92
100
AcDbEntity
  8
1
 62
     7
100
AcDbLine
 10
78.39192924255053
 20
259.9263317068801
 30
0.0
 11
78.65661674255045
 21
251.4563317068803
 31
0.0
  0
LINE
  5
EA6E50F8E
330
EA6E4DC92
100
AcDbEntity
  8
1
 62
     2
100
AcDbLine
 10
79.93688144843281
 20
251.4563317068802
 30
0.0
 11
79.78063144843258
 21
256.4563317068801
 31
0.0
  0
LINE
  5
EA6E50F8F
330
EA6E4DC92
100
AcDbEntity
  8
JISSEN
100
AcDbLine
 10
84.61336674255131
 20
249.957756706879
 30
0.0
 11
84.61336674255131
 21
251.4563317068791
 31
0.0
  0
LINE
  5
EA6E50F90
330
EA6E4DC92
100
AcDbEntity
  8
JISSEN
100
AcDbLine
 10
74.36215674255141
 20
251.4563317068791
 30
0.0
 11
74.36215674255141
 21
245.9201817068791
 31
0.0
  0
LINE
  5
EA6E50F91
330
EA6E4DC92
100
AcDbEntity
  8
JISSEN
100
AcDbLine
 10
76.86211674255128
 20
251.4563317068791
 30
0.0
 11
86.42980653564473
 21
251.4563317068791
 31
0.0
  0
LINE
  5
EA6E50F92
330
EA6E4DC92
100
AcDbEntity
  8
JISSEN
100
AcDbLine
 10
86.42980674255136
 20
251.4563317068791
 30
0.0
 11
74.36215674255141
 21
251.4563317068791
 31
0.0
  0
ARC
  5
EA6E50F93
330
EA6E4DC92
100
AcDbEntity
  8
JISSEN
100
AcDbCircle
 10
71.65013174255136
 20
267.7523807068791
 30
0.0
 40
22.0
100
AcDbArc
 50
270.8159889999972
 51
314.1840109999991
  0
LINE
  5
EA6E50F94
330
EA6E4DC92
100
AcDbEntity
  8
JISSEN
100
AcDbLine
 10
87.17786274255127
 20
228.616792706879
 30
0.0
 11
87.61211674255127
 21
238.4995527068789
 31
0.0
  0
ARC
  5
EA6E50F95
330
EA6E4DC92
100
AcDbEntity
  8
JISSEN
100
AcDbCircle
 10
84.18075474255124
 20
228.7484867068791
 30
0.0
 40
3.0
100
AcDbArc
 50
352.1953869999999
 51
357.4840100000002
  0
LINE
  5
EA6E50F96
330
EA6E4DC92
100
AcDbEntity
  8
JISSEN
100
AcDbLine
 10
96.54637074255129
 20
228.616792706879
 30
0.0
 11
96.11211674255129
 21
238.4995527068789
 31
0.0
  0
ARC
  5
EA6E50F97
330
EA6E4DC92
100
AcDbEntity
  8
JISSEN
100
AcDbCircle
 10
91.86211674255128
 20
218.956331706879
 30
0.0
 40
13.1
100
AcDbArc
 50
23.64749699999947
 51
36.35250300000206
  0
ARC
  5
EA6E50F98
330
EA6E4DC92
100
AcDbEntity
  8
JISSEN
100
AcDbCircle
 10
91.86211674255128
 20
218.956331706879
 30
0.0
 40
13.7
100
AcDbArc
 50
24.15962399999764
 51
35.84037600000169
  0
ARC
  5
EA6E50F99
330
EA6E4DC92
100
AcDbEntity
  8
JISSEN
100
AcDbCircle
 10
99.54347874255132
 20
228.7484867068791
 30
0.0
 40
3.0
100
AcDbArc
 50
182.5159899999997
 51
187.8046130000001
  0
LINE
  5
EA6E50F9A
330
EA6E4DC92
100
AcDbEntity
  8
JISSEN
100
AcDbLine
 10
96.47912774255132
 20
230.147105706879
 30
0.0
 11
102.4126657425513
 21
226.7213757068791
 31
0.0
  0
LINE
  5
EA6E50F9B
330
EA6E4DC92
100
AcDbEntity
  8
JISSEN
100
AcDbLine
 10
102.9680407425512
 20
226.9780797068792
 30
0.0
 11
96.45309874255122
 21
230.739483706879
 31
0.0
  0
ARC
  5
EA6E50F9C
330
EA6E4DC92
100
AcDbEntity
  8
JISSEN
100
AcDbCircle
 10
91.86211674255128
 20
218.956331706879
 30
0.0
 40
13.1
100
AcDbArc
 50
143.6474969999979
 51
156.3525030000005
  0
ARC
  5
EA6E50F9D
330
EA6E4DC92
100
AcDbEntity
  8
JISSEN
100
AcDbCircle
 10
91.86211674255128
 20
218.956331706879
 30
0.0
 40
13.7
100
AcDbArc
 50
144.1596239999983
 51
155.8403760000008
  0
LINE
  5
EA6E50F9E
330
EA6E4DC92
100
AcDbEntity
  8
JISSEN
100
AcDbLine
 10
87.24510574255123
 20
230.147105706879
 30
0.0
 11
81.31156774255122
 21
226.7213757068791
 31
0.0
  0
LINE
  5
EA6E50F9F
330
EA6E4DC92
100
AcDbEntity
  8
JISSEN
100
AcDbLine
 10
80.75619274255132
 20
226.9780797068792
 30
0.0
 11
87.27113474255133
 21
230.739483706879
 31
0.0
  0
ARC
  5
EA6E50FA0
330
EA6E4DC92
100
AcDbEntity
  8
JISSEN
100
AcDbCircle
 10
72.06312674255127
 20
238.755321706879
 30
0.0
 40
7.0
100
AcDbArc
 50
90.81598899999725
 51
179.1840109999994
  0
CIRCLE
  5
EA6E50FA1
330
EA6E4DC92
100
AcDbEntity
  8
JISSEN
100
AcDbCircle
 10
91.86211674255128
 20
218.956331706879
 30
0.0
 40
2.399999999999999
  0
CIRCLE
  5
EA6E50FA2
330
EA6E4DC92
100
AcDbEntity
  8
JISSEN
100
AcDbCircle
 10
91.86211674255128
 20
218.956331706879
 30
0.0
 40
4.9
  0
LINE
  5
EA6E50FA3
330
EA6E4DC92
100
AcDbEntity
  8
JISSEN
100
AcDbLine
 10
86.86211674255128
 20
221.843082706879
 30
0.0
 11
86.86211674255128
 21
216.069580706879
 31
0.0
  0
CIRCLE
  5
EA6E50FA4
330
EA6E4DC92
100
AcDbEntity
  8
JISSEN
100
AcDbCircle
 10
91.86211674255128
 20
218.956331706879
 30
0.0
 40
3.0
  0
LINE
  5
EA6E50FA5
330
EA6E4DC92
100
AcDbEntity
  8
JISSEN
100
AcDbLine
 10
96.86211674255128
 20
216.069580706879
 30
0.0
 11
96.86211674255128
 21
221.843082706879
 31
0.0
  0
LINE
  5
EA6E50FA6
330
EA6E4DC92
100
AcDbEntity
  8
JISSEN
100
AcDbLine
 10
86.86211674255128
 20
216.069580706879
 30
0.0
 11
91.86211674255128
 21
213.1828287068791
 31
0.0
  0
ARC
  5
EA6E50FA7
330
EA6E4DC92
100
AcDbEntity
  8
JISSEN
100
AcDbCircle
 10
84.18075474255124
 20
209.1641767068789
 30
0.0
 40
3.0
100
AcDbArc
 50
2.515989999999794
 51
7.80461300000007
  0
LINE
  5
EA6E50FA8
330
EA6E4DC92
100
AcDbEntity
  8
JISSEN
100
AcDbLine
 10
103.8621167425512
 20
213.7018097068791
 30
0.0
 11
103.8621167425512
 21
214.3748787068791
 31
0.0
  0
LINE
  5
EA6E50FA9
330
EA6E4DC92
100
AcDbEntity
  8
JISSEN
100
AcDbLine
 10
104.3621167425512
 20
214.3968487068791
 30
0.0
 11
104.3621167425512
 21
213.349193706879
 31
0.0
  0
ARC
  5
EA6E50FAA
330
EA6E4DC92
100
AcDbEntity
  8
JISSEN
100
AcDbCircle
 10
91.86211674255128
 20
218.956331706879
 30
0.0
 40
13.1
100
AcDbArc
 50
323.6474969999979
 51
336.3525030000005
  0
ARC
  5
EA6E50FAB
330
EA6E4DC92
100
AcDbEntity
  8
JISSEN
100
AcDbCircle
 10
91.86211674255128
 20
218.956331706879
 30
0.0
 40
13.7
100
AcDbArc
 50
324.1596239999982
 51
335.8403760000008
  0
LINE
  5
EA6E50FAC
330
EA6E4DC92
100
AcDbEntity
  8
JISSEN
100
AcDbLine
 10
91.86211674255128
 20
213.1828287068791
 30
0.0
 11
96.86211674255128
 21
216.069580706879
 31
0.0
  0
ARC
  5
EA6E50FAD
330
EA6E4DC92
100
AcDbEntity
  8
JISSEN
100
AcDbCircle
 10
99.54347874255132
 20
209.1641767068789
 30
0.0
 40
3.0
100
AcDbArc
 50
172.1953869999999
 51
177.4840100000002
  0
ARC
  5
EA6E50FAE
330
EA6E4DC92
100
AcDbEntity
  8
JISSEN
100
AcDbCircle
 10
101.6542717425513
 20
211.274969706879
 30
0.0
 40
3.0
100
AcDbArc
 50
92.5159900000013
 51
97.80461300000007
  0
LINE
  5
EA6E50FAF
330
EA6E4DC92
100
AcDbEntity
  8
JISSEN
100
AcDbLine
 10
96.47912774255132
 20
207.7655577068789
 30
0.0
 11
102.4126657425513
 21
211.1912877068791
 31
0.0
  0
LINE
  5
EA6E50FB0
330
EA6E4DC92
100
AcDbEntity
  8
JISSEN
100
AcDbLine
 10
102.9680407425512
 20
210.9345837068789
 30
0.0
 11
96.45309874255122
 21
207.1731797068791
 31
0.0
  0
ARC
  5
EA6E50FB1
330
EA6E4DC92
100
AcDbEntity
  8
JISSEN
100
AcDbCircle
 10
101.6542717425513
 20
226.6376937068791
 30
0.0
 40
3.0
100
AcDbArc
 50
262.1953869999999
 51
267.4840099999987
  0
LINE
  5
EA6E50FB2
330
EA6E4DC92
100
AcDbEntity
  8
JISSEN
100
AcDbLine
 10
82.20165574255133
 20
214.272077706879
 30
0.0
 11
72.31889574255138
 21
214.706331706879
 31
0.0
  0
LINE
  5
EA6E50FB3
330
EA6E4DC92
100
AcDbEntity
  8
JISSEN
100
AcDbLine
 10
79.86211674255128
 20
213.7018097068791
 30
0.0
 11
79.86211674255128
 21
214.3748787068791
 31
0.0
  0
LINE
  5
EA6E50FB4
330
EA6E4DC92
100
AcDbEntity
  8
JISSEN
100
AcDbLine
 10
79.36211674255128
 20
214.3968487068791
 30
0.0
 11
79.36211674255128
 21
213.349193706879
 31
0.0
  0
ARC
  5
EA6E50FB5
330
EA6E4DC92
100
AcDbEntity
  8
JISSEN
100
AcDbCircle
 10
82.06996174255118
 20
211.274969706879
 30
0.0
 40
3.0
100
AcDbArc
 50
82.19538699999992
 51
87.48400999999871
  0
ARC
  5
EA6E50FB6
330
EA6E4DC92
100
AcDbEntity
  8
JISSEN
100
AcDbCircle
 10
91.86211674255128
 20
218.956331706879
 30
0.0
 40
13.1
100
AcDbArc
 50
203.6474969999987
 51
216.352503000002
  0
ARC
  5
EA6E50FB7
330
EA6E4DC92
100
AcDbEntity
  8
JISSEN
100
AcDbCircle
 10
91.86211674255128
 20
218.956331706879
 30
0.0
 40
13.7
100
AcDbArc
 50
204.1596239999976
 51
215.8403760000017
  0
LINE
  5
EA6E50FB8
330
EA6E4DC92
100
AcDbEntity
  8
JISSEN
100
AcDbLine
 10
82.20165574255133
 20
223.6405857068791
 30
0.0
 11
72.31889574255138
 21
223.206331706879
 31
0.0
  0
ARC
  5
EA6E50FB9
330
EA6E4DC92
100
AcDbEntity
  8
JISSEN
100
AcDbCircle
 10
82.06996174255118
 20
226.6376937068791
 30
0.0
 40
3.0
100
AcDbArc
 50
272.5159900000012
 51
277.804613
  0
LINE
  5
EA6E50FBA
330
EA6E4DC92
100
AcDbEntity
  8
JISSEN
100
AcDbLine
 10
87.24510574255123
 20
207.7655577068789
 30
0.0
 11
81.31156774255122
 21
211.1912877068791
 31
0.0
  0
LINE
  5
EA6E50FBB
330
EA6E4DC92
100
AcDbEntity
  8
JISSEN
100
AcDbLine
 10
80.75619274255132
 20
210.9345837068789
 30
0.0
 11
87.27113474255133
 21
207.1731797068791
 31
0.0
  0
ARC
  5
EA6E50FBC
330
EA6E4DC92
100
AcDbEntity
  8
JISSEN
100
AcDbCircle
 10
91.86211674255128
 20
218.956331706879
 30
0.0
 40
19.5
100
AcDbArc
 50
192.5885799999996
 51
257.4114199999974
  0
LINE
  5
EA6E50FBD
330
EA6E4DC92
100
AcDbEntity
  8
JISSEN
100
AcDbLine
 10
87.17786274255127
 20
209.2958707068791
 30
0.0
 11
87.61211674255127
 21
199.4131107068792
 31
0.0
  0
LINE
  5
EA6E50FBE
330
EA6E4DC92
100
AcDbEntity
  8
JISSEN
100
AcDbLine
 10
96.54637074255129
 20
209.2958707068791
 30
0.0
 11
96.11211674255129
 21
199.4131107068792
 31
0.0
  0
ARC
  5
EA6E50FBF
330
EA6E4DC92
100
AcDbEntity
  8
JISSEN
100
AcDbCircle
 10
63.86211674255128
 20
218.956331706879
 30
0.0
 40
7.0
100
AcDbArc
 50
135.8159889999973
 51
224.1840110000026
  0
ARC
  5
EA6E50FC0
330
EA6E4DC92
100
AcDbEntity
  8
JISSEN
100
AcDbCircle
 10
43.06606774255124
 20
198.7443467068791
 30
0.0
 40
22.0
100
AcDbArc
 50
0.8159890000005436
 51
44.18401100000265
  0
ARC
  5
EA6E50FC1
330
EA6E4DC92
100
AcDbEntity
  8
JISSEN
100
AcDbCircle
 10
72.06312674255127
 20
199.1573417068791
 30
0.0
 40
7.0
100
AcDbArc
 50
180.8159890000005
 51
269.1840110000027
  0
CIRCLE
  5
EA6E50FC2
330
EA6E4DC92
100
AcDbEntity
  8
JISSEN
100
AcDbCircle
 10
91.86211674255128
 20
218.956331706879
 30
0.0
 40
10.5
  0
LINE
  5
EA6E50FC3
330
EA6E4DC92
100
AcDbEntity
  8
JISSEN
100
AcDbLine
 10
91.86211674255128
 20
224.7298347068789
 30
0.0
 11
86.86211674255128
 21
221.843082706879
 31
0.0
  0
ARC
  5
EA6E50FC4
330
EA6E4DC92
100
AcDbEntity
  8
JISSEN
100
AcDbCircle
 10
43.06606774255124
 20
239.168316706879
 30
0.0
 40
22.0
100
AcDbArc
 50
315.8159889999973
 51
359.1840109999994
  0
ARC
  5
EA6E50FC5
330
EA6E4DC92
100
AcDbEntity
  8
JISSEN
100
AcDbCircle
 10
91.86211674255128
 20
218.956331706879
 30
0.0
 40
19.5
100
AcDbArc
 50
102.5885800000025
 51
167.4114199999988
  0
LINE
  5
EA6E50FC6
330
EA6E4DC92
100
AcDbEntity
  8
JISSEN
100
AcDbLine
 10
79.86211674255128
 20
224.210853706879
 30
0.0
 11
79.86211674255128
 21
223.5377847068791
 31
0.0
  0
LINE
  5
EA6E50FC7
330
EA6E4DC92
100
AcDbEntity
  8
JISSEN
100
AcDbLine
 10
79.36211674255128
 20
223.5158147068791
 30
0.0
 11
79.36211674255128
 21
224.5634697068791
 31
0.0
  0
LINE
  5
EA6E50FC8
330
EA6E4DC92
100
AcDbEntity
  8
JISSEN
100
AcDbLine
 10
103.8621167425512
 20
224.210853706879
 30
0.0
 11
103.8621167425512
 21
223.5377847068791
 31
0.0
  0
LINE
  5
EA6E50FC9
330
EA6E4DC92
100
AcDbEntity
  8
JISSEN
100
AcDbLine
 10
104.3621167425512
 20
223.5158147068791
 30
0.0
 11
104.3621167425512
 21
224.5634697068791
 31
0.0
  0
LINE
  5
EA6E50FCA
330
EA6E4DC92
100
AcDbEntity
  8
JISSEN
100
AcDbLine
 10
96.86211674255128
 20
221.843082706879
 30
0.0
 11
91.86211674255128
 21
224.7298347068789
 31
0.0
  0
LINE
  5
EA6E50FCB
330
EA6E4DC92
100
AcDbEntity
  8
1
 62
     2
100
AcDbLine
 10
105.2971285120752
 20
258.800708331675
 30
0.0
 11
103.9436020366681
 21
256.4563317068801
 31
0.0
  0
LINE
  5
EA6E50FCC
330
EA6E4DC92
100
AcDbEntity
  8
JISSEN
100
AcDbLine
 10
78.50036674255057
 20
256.4563317068801
 30
0.0
 11
105.2238667425503
 21
256.4563317068801
 31
0.0
  0
LINE
  5
EA6E50FCD
330
EA6E4DC92
100
AcDbEntity
  8
1
 62
     7
100
AcDbLine
 10
73.38690812848245
 20
259.9263317068801
 30
0.0
 11
110.3373253566185
 21
259.9263317068801
 31
0.0
  0
LINE
  5
EA6E50FCE
330
EA6E4DC92
100
AcDbEntity
  8
JISSEN
100
AcDbLine
 10
106.8621167425512
 20
251.4563317068791
 30
0.0
 11
97.29442694945783
 21
251.4563317068791
 31
0.0
  0
CIRCLE
  5
EA6E50FCF
330
EA6E4DC92
100
AcDbEntity
  8
JISSEN
100
AcDbCircle
 10
91.86211674255128
 20
218.956331706879
 30
0.0
 40
20.0
  0
ARC
  5
EA6E50FD0
330
EA6E4DC92
100
AcDbEntity
  8
JISSEN
100
AcDbCircle
 10
91.86211674255128
 20
218.956331706879
 30
0.0
 40
19.5
100
AcDbArc
 50
282.5885800000026
 51
347.4114200000004
  0
LINE
  5
EA6E50FD1
330
EA6E4DC92
100
AcDbEntity
  8
JISSEN
100
AcDbLine
 10
101.5225777425512
 20
214.272077706879
 30
0.0
 11
111.4053377425514
 21
214.706331706879
 31
0.0
  0
ARC
  5
EA6E50FD2
330
EA6E4DC92
100
AcDbEntity
  8
JISSEN
100
AcDbCircle
 10
91.86211674255128
 20
218.956331706879
 30
0.0
 40
19.5
100
AcDbArc
 50
12.58857999999959
 51
77.41141999999742
  0
LINE
  5
EA6E50FD3
330
EA6E4DC92
100
AcDbEntity
  8
JISSEN
100
AcDbLine
 10
101.5225777425512
 20
223.6405857068791
 30
0.0
 11
111.4053377425514
 21
223.206331706879
 31
0.0
  0
LINE
  5
EA6E50FD4
330
EA6E4DC92
100
AcDbEntity
  8
JISSEN
100
AcDbLine
 10
109.3620667425514
 20
251.4563317068791
 30
0.0
 11
97.29442674255142
 21
251.4563317068791
 31
0.0
  0
ARC
  5
EA6E50FD5
330
EA6E4DC92
100
AcDbEntity
  8
JISSEN
100
AcDbCircle
 10
112.0741017425511
 20
267.7523807068791
 30
0.0
 40
22.0
100
AcDbArc
 50
225.8159890000007
 51
269.1840110000027
  0
LINE
  5
EA6E50FD6
330
EA6E4DC92
100
AcDbEntity
  8
1
 62
     7
100
AcDbLine
 10
110.3373253566185
 20
259.9263317068801
 30
0.0
 11
110.3373253566185
 21
270.9263317068801
 31
0.0
  0
LINE
  5
EA6E50FD7
330
EA6E4DC92
100
AcDbEntity
  8
1
 62
     7
100
AcDbLine
 10
73.38690812848245
 20
270.9263317068801
 30
0.0
 11
73.38690812848245
 21
259.9263317068801
 31
0.0
  0
LINE
  5
EA6E50FD8
330
EA6E4DC92
100
AcDbEntity
  8
1
 62
     7
100
AcDbLine
 10
101.0997210495845
 20
259.9263317068801
 30
0.0
 11
101.0997210495845
 21
270.9263317068801
 31
0.0
  0
LINE
  5
EA6E50FD9
330
EA6E4DC92
100
AcDbEntity
  8
1
 62
     7
100
AcDbLine
 10
82.62451243551641
 20
270.9263317068801
 30
0.0
 11
82.62451243551641
 21
259.9263317068801
 31
0.0
  0
LINE
  5
EA6E50FDA
330
EA6E4DC92
100
AcDbEntity
  8
TENSEN
100
AcDbLine
 10
105.0624340834453
 20
329.3963317068803
 30
0.0
 11
105.4569340834454
 21
342.0203317068799
 31
0.0
  0
LINE
  5
EA6E50FDB
330
EA6E4DC92
100
AcDbEntity
  8
TENSEN
100
AcDbLine
 10
78.25693408344545
 20
342.0203317068811
 30
0.0
 11
78.65143408344545
 21
329.3963317068804
 31
0.0
  0
LINE
  5
EA6E50FDC
330
EA6E4DC92
100
AcDbEntity
  8
ITTEN
100
AcDbLine
 10
153.8421167425503
 20
337.3168618348775
 30
0.0
 11
153.8421167425503
 21
271.474696454238
 31
0.0
  0
LINE
  5
EA6E50FDD
330
EA6E4DC92
100
AcDbEntity
  8
TENSEN
100
AcDbLine
 10
105.2919458529702
 20
336.7407083316753
 30
0.0
 11
103.9384193775631
 21
334.3963317068804
 31
0.0
  0
LINE
  5
EA6E50FDE
330
EA6E4DC92
100
AcDbEntity
  8
TENSEN
100
AcDbLine
 10
79.77544878932781
 20
334.3963317068804
 30
0.0
 11
78.42192231392051
 21
336.7407083316753
 31
0.0
  0
LINE
  5
EA6E50FDF
330
EA6E4DC92
100
AcDbEntity
  8
ITTEN
  6
CENTER
 62
     1
100
AcDbLine
 10
188.9544454579434
 20
304.3963317068804
 30
0.0
 11
121.1506476097763
 21
304.3963317068804
 31
0.0
  0
LINE
  5
EA6E50FE0
330
EA6E4DC92
100
AcDbEntity
  8
JISSEN
100
AcDbLine
 10
181.1921167425502
 20
309.3963317068805
 30
0.0
 11
181.8468762167769
 21
309.3963317068805
 31
0.0
  0
LINE
  5
EA6E50FE1
330
EA6E4DC92
100
AcDbEntity
  8
JISSEN
100
AcDbLine
 10
181.1921167425502
 20
299.3963317068805
 30
0.0
 11
181.8468762167769
 21
299.3963317068805
 31
0.0
  0
LINE
  5
EA6E50FE2
330
EA6E4DC92
100
AcDbEntity
  8
ITTEN
  6
CENTER
 62
     1
100
AcDbLine
 10
187.3345716060273
 20
304.3963317068803
 30
0.0
 11
72.36211674255037
 21
304.3963317068804
 31
0.0
  0
LINE
  5
EA6E50FE3
330
EA6E4DC92
100
AcDbEntity
  8
JISSEN
100
AcDbLine
 10
108.0279242798601
 20
178.8725906149182
 30
0.0
 11
108.0279242798601
 21
172.0400727988384
 31
0.0
  0
LINE
  5
EA6E50FE4
330
EA6E4DC92
100
AcDbEntity
  8
JISSEN
100
AcDbLine
 10
105.2848042425498
 20
170.4563317068783
 30
0.0
 11
108.0279242798601
 21
172.0400727988384
 31
0.0
  0
LINE
  5
EA6E50FE5
330
EA6E4DC92
100
AcDbEntity
  8
JISSEN
100
AcDbLine
 10
105.2848042425498
 20
180.4563317068783
 30
0.0
 11
105.0973042425498
 21
186.4563317068783
 31
0.0
  0
LINE
  5
EA6E50FE6
330
EA6E4DC92
100
AcDbEntity
  8
JISSEN
100
AcDbLine
 10
105.2848042425498
 20
180.4563317068783
 30
0.0
 11
108.0279242798601
 21
178.8725906149182
 31
0.0
  0
LINE
  5
EA6E50FE7
330
EA6E4DC92
100
AcDbEntity
  8
JISSEN
100
AcDbLine
 10
105.0973042425507
 20
164.4563317068783
 30
0.0
 11
105.2848042425498
 21
170.4563317068783
 31
0.0
  0
LINE
  5
EA6E50FE8
330
EA6E4DC92
100
AcDbEntity
  8
JISSEN
100
AcDbLine
 10
99.9450205112048
 20
178.8725906149182
 30
0.0
 11
99.9450205112048
 21
172.0400727988384
 31
0.0
  0
ARC
  5
EA6E50FE9
330
EA6E4DC92
100
AcDbEntity
  8
JISSEN
100
AcDbCircle
 10
91.86211674255037
 20
191.8744692812889
 30
0.0
 40
21.41813757441061
100
AcDbArc
 50
270.0
 51
292.1718548551823
  0
LINE
  5
EA6E50FEA
330
EA6E4DC92
100
AcDbEntity
  8
SAISEN
100
AcDbLine
 10
93.49903523122838
 20
175.8175684477743
 30
0.0
 11
89.88295835047166
 21
175.8175684477743
 31
0.0
  0
LINE
  5
EA6E50FEB
330
EA6E4DC92
100
AcDbEntity
  8
SAISEN
100
AcDbLine
 10
93.49198773622584
 20
174.6043600558474
 30
0.0
 11
93.49198773622584
 21
177.002561658879
 31
0.0
  0
LINE
  5
EA6E50FEC
330
EA6E4DC92
100
AcDbEntity
  8
SAISEN
100
AcDbLine
 10
92.08925978420348
 20
174.9570371351454
 30
0.0
 11
92.08925978420348
 21
176.6498845795807
 31
0.0
  0
LINE
  5
EA6E50FED
330
EA6E4DC92
100
AcDbEntity
  8
SAISEN
100
AcDbLine
 10
90.84865451274845
 20
174.7736448002909
 30
0.0
 11
90.84865451274845
 21
176.8262199489848
 31
0.0
  0
LINE
  5
EA6E50FEE
330
EA6E4DC92
100
AcDbEntity
  8
SAISEN
100
AcDbLine
 10
90.85570579469049
 20
174.2446323515886
 30
0.0
 11
93.49198773622584
 21
174.2446323515886
 31
0.0
  0
LINE
  5
EA6E50FEF
330
EA6E4DC92
100
AcDbEntity
  8
SAISEN
100
AcDbLine
 10
90.85570579469049
 20
174.2446323515886
 30
0.0
 11
91.56059162473274
 21
173.6521325757913
 31
0.0
  0
LINE
  5
EA6E50FF0
330
EA6E4DC92
100
AcDbEntity
  8
SAISEN
100
AcDbLine
 10
89.88295835047166
 20
174.8300751619354
 30
0.0
 11
90.85570579469049
 21
174.2446323515886
 31
0.0
  0
CIRCLE
  5
EA6E50FF1
330
EA6E4DC92
100
AcDbEntity
  8
SAISEN
100
AcDbCircle
 10
91.86211674255037
 20
175.4563317068783
 30
0.0
 40
2.5
  0
ARC
  5
EA6E50FF2
330
EA6E4DC92
100
AcDbEntity
  8
JISSEN
100
AcDbCircle
 10
91.86211674255037
 20
159.038194132468
 30
0.0
 40
21.41813757441026
100
AcDbArc
 50
67.82814514481767
 51
90.0
  0
LINE
  5
EA6E50FF3
330
EA6E4DC92
100
AcDbEntity
  8
SAISEN
100
AcDbLine
 10
103.9353042425505
 20
186.4563317068783
 30
0.0
 11
104.0634292425506
 21
182.3563317068784
 31
0.0
  0
ARC
  5
EA6E50FF4
330
EA6E4DC92
100
AcDbEntity
  8
JISSEN
100
AcDbCircle
 10
91.86211674255128
 20
190.9563317068791
 30
0.0
 40
7.0
100
AcDbArc
 50
225.8159890000007
 51
314.1840109999991
  0
LINE
  5
EA6E50FF5
330
EA6E4DC92
100
AcDbEntity
  8
JISSEN
100
AcDbLine
 10
75.69630920524059
 20
178.8725906149182
 30
0.0
 11
75.69630920524059
 21
172.0400727988384
 31
0.0
  0
LINE
  5
EA6E50FF6
330
EA6E4DC92
100
AcDbEntity
  8
JISSEN
100
AcDbLine
 10
83.77921297389503
 20
178.872590614918
 30
0.0
 11
83.77921297389503
 21
172.0400727988381
 31
0.0
  0
LINE
  5
EA6E50FF7
330
EA6E4DC92
100
AcDbEntity
  8
JISSEN
100
AcDbLine
 10
78.43942924254998
 20
170.4563317068783
 30
0.0
 11
75.69630920524059
 21
172.0400727988384
 31
0.0
  0
ARC
  5
EA6E50FF8
330
EA6E4DC92
100
AcDbEntity
  8
JISSEN
100
AcDbCircle
 10
77.46068317841537
 20
183.5500472691029
 30
0.0
 40
13.13024489804019
100
AcDbArc
 50
274.2748693187995
 51
298.7650793645162
  0
LINE
  5
EA6E50FF9
330
EA6E4DC92
100
AcDbEntity
  8
SAISEN
100
AcDbLine
 10
79.66080424255006
 20
182.3563317068784
 30
0.0
 11
78.46025692825015
 21
181.1228176492751
 31
0.0
  0
LINE
  5
EA6E50FFA
330
EA6E4DC92
100
AcDbEntity
  8
JISSEN
100
AcDbLine
 10
78.43942924254998
 20
180.4563317068783
 30
0.0
 11
75.69630920524059
 21
178.8725906149182
 31
0.0
  0
LINE
  5
EA6E50FFB
330
EA6E4DC92
100
AcDbEntity
  8
JISSEN
100
AcDbLine
 10
78.62692924254997
 20
186.4563317068783
 30
0.0
 11
78.43942924254998
 21
180.4563317068783
 31
0.0
  0
LINE
  5
EA6E50FFC
330
EA6E4DC92
100
AcDbEntity
  8
SAISEN
100
AcDbLine
 10
79.78892924255024
 20
186.4563317068783
 30
0.0
 11
79.66080424255006
 21
182.3563317068784
 31
0.0
  0
ARC
  5
EA6E50FFD
330
EA6E4DC92
100
AcDbEntity
  8
JISSEN
100
AcDbCircle
 10
77.46068317841627
 20
167.362616144653
 30
0.0
 40
13.13024489804019
100
AcDbArc
 50
61.23492063548383
 51
85.7251306812004
  0
ARC
  5
EA6E50FFE
330
EA6E4DC92
100
AcDbEntity
  8
JISSEN
100
AcDbCircle
 10
91.86211674254947
 20
191.8744692812889
 30
0.0
 40
21.41813757441061
100
AcDbArc
 50
247.8281451448176
 51
270.0
  0
LINE
  5
EA6E50FFF
330
EA6E4DC92
100
AcDbEntity
  8
JISSEN
100
AcDbLine
 10
76.86211674255128
 20
186.4563317068791
 30
0.0
 11
86.42980653564473
 21
186.4563317068791
 31
0.0
  0
LINE
  5
EA6E51000
330
EA6E4DC92
100
AcDbEntity
  8
JISSEN
100
AcDbLine
 10
76.36211674255128
 20
186.4563317068791
 30
0.0
 11
86.42980653564473
 21
186.4563317068791
 31
0.0
  0
ARC
  5
EA6E51001
330
EA6E4DC92
100
AcDbEntity
  8
JISSEN
100
AcDbCircle
 10
91.86211674255037
 20
159.038194132468
 30
0.0
 40
21.41813757441026
100
AcDbArc
 50
90.0
 51
112.1718548551823
  0
LINE
  5
EA6E51002
330
EA6E4DC92
100
AcDbEntity
  8
JISSEN
100
AcDbLine
 10
86.42980674255136
 20
186.4563317068791
 30
0.0
 11
74.36215674255141
 21
186.4563317068791
 31
0.0
  0
LINE
  5
EA6E51003
330
EA6E4DC92
100
AcDbEntity
  8
SAISEN
100
AcDbLine
 10
103.9353042425505
 20
164.4563317068783
 30
0.0
 11
104.0634292425506
 21
168.5563317068782
 31
0.0
  0
LINE
  5
EA6E51004
330
EA6E4DC92
100
AcDbEntity
  8
SAISEN
100
AcDbLine
 10
79.78892924255024
 20
164.4563317068783
 30
0.0
 11
79.66080424255006
 21
168.5563317068782
 31
0.0
  0
LINE
  5
EA6E51005
330
EA6E4DC92
100
AcDbEntity
  8
SAISEN
100
AcDbLine
 10
79.66080424255006
 20
168.5563317068782
 30
0.0
 11
78.46025692825015
 21
169.7898457644815
 31
0.0
  0
LINE
  5
EA6E51006
330
EA6E4DC92
100
AcDbEntity
  8
JISSEN
100
AcDbLine
 10
78.43942924254998
 20
170.4563317068783
 30
0.0
 11
78.62692924254997
 21
164.4563317068783
 31
0.0
  0
LINE
  5
EA6E51007
330
EA6E4DC92
100
AcDbEntity
  8
JISSEN
100
AcDbLine
 10
107.3621167425512
 20
186.4563317068791
 30
0.0
 11
97.29442694945783
 21
186.4563317068791
 31
0.0
  0
LINE
  5
EA6E51008
330
EA6E4DC92
100
AcDbEntity
  8
JISSEN
100
AcDbLine
 10
105.2848042425498
 20
170.4563317068783
 30
0.0
 11
78.43942924254998
 21
170.4563317068783
 31
0.0
  0
LINE
  5
EA6E51009
330
EA6E4DC92
100
AcDbEntity
  8
JISSEN
100
AcDbLine
 10
105.2848042425498
 20
180.4563317068783
 30
0.0
 11
78.43942924254998
 21
180.4563317068783
 31
0.0
  0
LINE
  5
EA6E5100A
330
EA6E4DC92
100
AcDbEntity
  8
SAISEN
100
AcDbLine
 10
78.4988042425507
 20
168.5563317068782
 30
0.0
 11
105.22542924255
 21
168.5563317068782
 31
0.0
  0
LINE
  5
EA6E5100B
330
EA6E4DC92
100
AcDbEntity
  8
SAISEN
100
AcDbLine
 10
104.0634292425506
 20
168.5563317068782
 30
0.0
 11
105.2639765568506
 21
169.7898457644815
 31
0.0
  0
LINE
  5
EA6E5100C
330
EA6E4DC92
100
AcDbEntity
  8
SAISEN
100
AcDbLine
 10
104.0634292425506
 20
182.3563317068784
 30
0.0
 11
105.2639765568506
 21
181.1228176492751
 31
0.0
  0
LINE
  5
EA6E5100D
330
EA6E4DC92
100
AcDbEntity
  8
SAISEN
100
AcDbLine
 10
105.22542924255
 20
182.3563317068784
 30
0.0
 11
78.4988042425507
 21
182.3563317068782
 31
0.0
  0
ARC
  5
EA6E5100E
330
EA6E4DC92
100
AcDbEntity
  8
JISSEN
100
AcDbCircle
 10
106.2635503066844
 20
183.5500472691031
 30
0.0
 40
13.13024489804019
100
AcDbArc
 50
241.2349206354837
 51
265.7251306812004
  0
ARC
  5
EA6E5100F
330
EA6E4DC92
100
AcDbEntity
  8
JISSEN
100
AcDbCircle
 10
106.2635503066844
 20
167.3626161446533
 30
0.0
 40
13.13024489804019
100
AcDbArc
 50
94.27486931879959
 51
118.7650793645161
  0
LINE
  5
EA6E51010
330
EA6E4DC92
100
AcDbEntity
  8
JISSEN
100
AcDbLine
 10
109.3620667425514
 20
186.4563317068791
 30
0.0
 11
97.29442674255142
 21
186.4563317068791
 31
0.0
  0
LINE
  5
EA6E51011
330
EA6E4DC92
100
AcDbEntity
  8
ITTEN
100
AcDbLine
 10
308.6112150578126
 20
376.3736463435141
 30
0.0
 11
308.6112150578126
 21
255.0369244194496
 31
0.0
  0
LINE
  5
EA6E51012
330
EA6E4DC92
100
AcDbEntity
  8
ITTEN
100
AcDbLine
 10
91.86211674255037
 20
376.3736463435141
 30
0.0
 11
91.86211674255037
 21
128.7415557751048
 31
0.0
  0
LINE
  5
EA6E51013
330
EA6E4DC92
100
AcDbEntity
  8
JISSEN
100
AcDbLine
 10
84.61336674255131
 20
187.9549067068791
 30
0.0
 11
84.61336674255131
 21
186.4563317068791
 31
0.0
  0
LINE
  5
EA6E51014
330
EA6E4DC92
100
AcDbEntity
  8
JISSEN
100
AcDbLine
 10
74.36215674255141
 20
192.037599706879
 30
0.0
 11
74.36215674255141
 21
186.4563317068791
 31
0.0
  0
ARC
  5
EA6E51015
330
EA6E4DC92
100
AcDbEntity
  8
JISSEN
100
AcDbCircle
 10
71.65013174255136
 20
170.160282706879
 30
0.0
 40
22.0
100
AcDbArc
 50
45.8159890000008
 51
89.18401100000274
  0
ARC
  5
EA6E51016
330
EA6E4DC92
100
AcDbEntity
  8
JISSEN
100
AcDbCircle
 10
112.0741017425511
 20
170.160282706879
 30
0.0
 40
22.0
100
AcDbArc
 50
90.81598899999725
 51
134.1840109999992
  0
LINE
  5
EA6E51017
330
EA6E4DC92
100
AcDbEntity
  8
JISSEN
100
AcDbLine
 10
99.11085674255128
 20
187.9549067068791
 30
0.0
 11
99.11085674255128
 21
186.4563317068791
 31
0.0
  0
LINE
  5
EA6E51018
330
EA6E4DC92
100
AcDbEntity
  8
JISSEN
100
AcDbLine
 10
109.3620667425514
 20
191.9924807068791
 30
0.0
 11
109.3620667425514
 21
186.4563317068791
 31
0.0
  0
LINE
  5
EA6E51019
102
{ACAD_REACTORS
330
EA6E51020
102
}
330
EA6E4DC92
100
AcDbEntity
  8
HATCH
100
AcDbLine
 10
97.11091905083414
 20
126.5388201435733
 30
0.0
 11
88.11091905083413
 21
126.5388201435733
 31
0.0
  0
LINE
  5
EA6E5101A
102
{ACAD_REACTORS
330
EA6E51020
102
}
330
EA6E4DC92
100
AcDbEntity
  8
HATCH
100
AcDbLine
 10
99.11091905083413
 20
113.091649295743
 30
0.0
 11
97.11091905083414
 21
113.091649295743
 31
0.0
  0
LINE
  5
EA6E5101B
102
{ACAD_REACTORS
330
EA6E51020
102
}
330
EA6E4DC92
100
AcDbEntity
  8
HATCH
100
AcDbLine
 10
88.11091905083413
 20
113.091649295743
 30
0.0
 11
86.11091905083412
 21
113.091649295743
 31
0.0
  0
LINE
  5
EA6E5101C
102
{ACAD_REACTORS
330
EA6E51020
102
}
330
EA6E4DC92
100
AcDbEntity
  8
HATCH
100
AcDbLine
 10
86.11091905083412
 20
113.091649295743
 30
0.0
 11
92.61091905083413
 21
104.5849655381893
 31
0.0
  0
LINE
  5
EA6E5101D
102
{ACAD_REACTORS
330
EA6E51020
102
}
330
EA6E4DC92
100
AcDbEntity
  8
HATCH
100
AcDbLine
 10
92.61091905083413
 20
104.5849655381893
 30
0.0
 11
99.11091905083413
 21
113.091649295743
 31
0.0
  0
LINE
  5
EA6E5101E
102
{ACAD_REACTORS
330
EA6E51020
102
}
330
EA6E4DC92
100
AcDbEntity
  8
HATCH
100
AcDbLine
 10
88.11091905083413
 20
126.5388201435733
 30
0.0
 11
88.11091905083413
 21
113.091649295743
 31
0.0
  0
LINE
  5
EA6E5101F
102
{ACAD_REACTORS
330
EA6E51020
102
}
330
EA6E4DC92
100
AcDbEntity
  8
HATCH
100
AcDbLine
 10
97.11091905083414
 20
113.091649295743
 30
0.0
 11
97.11091905083414
 21
126.5388201435733
 31
0.0
  0
HATCH
  5
EA6E51020
330
EA6E4DC92
100
AcDbEntity
  8
HATCH
100
AcDbHatch
 10
0.0
 20
0.0
 30
0.0
210
0.0
220
0.0
230
1.0
  2
SOLID
 70
     1
 71
     1
 91
        1
 92
        1
 93
        7
 72
     1
 10
86.11091905083412
 20
113.091649295743
 11
92.61091905083413
 21
104.5849655381893
 72
     1
 10
92.61091905083413
 20
104.5849655381893
 11
99.11091905083413
 21
113.091649295743
 72
     1
 10
99.11091905083413
 20
113.091649295743
 11
97.11091905083414
 21
113.091649295743
 72
     1
 10
97.11091905083414
 20
113.091649295743
 11
97.11091905083414
 21
126.5388201435733
 72
     1
 10
97.11091905083414
 20
126.5388201435733
 11
88.11091905083413
 21
126.5388201435733
 72
     1
 10
88.11091905083413
 20
126.5388201435733
 11
88.11091905083413
 21
113.091649295743
 72
     1
 10
88.11091905083413
 20
113.091649295743
 11
86.11091905083412
 21
113.091649295743
 97
        7
330
EA6E5101C
330
EA6E5101D
330
EA6E5101A
330
EA6E5101F
330
EA6E51019
330
EA6E5101E
330
EA6E5101B
 75
     0
 76
     1
 98
        1
 10
-34.09844269081872
 20
14.37758593738704
  0
TEXT
  5
EA6E51023
330
EA6E4DC92
100
AcDbEntity
  8
SUNPOU
100
AcDbText
 10
328.0
 20
453.0
 30
0.0
 40
6.0
  1
8A ML1-8
 41
0.7618733509234829
  7
K
 72
     5
 11
361.0
 21
453.0
 31
0.0
100
AcDbText
  0
TEXT
  5
EA6E51024
330
EA6E4DC92
100
AcDbEntity
  8
SUNPOU
100
AcDbText
 10
328.0
 20
489.0
 30
0.0
 40
6.0
  1
20A×8A
 41
0.9375000000000003
  7
K
 72
     5
 11
361.0
 21
489.0
 31
0.0
100
AcDbText
  0
TEXT
  5
EA6E51025
330
EA6E4DC92
100
AcDbEntity
  8
TEXT
100
AcDbText
 10
339.3571428571428
 20
477.0
 30
0.0
 40
6.0
  1
8A
  7
K
 72
     4
 11
344.5
 21
480.0
 31
0.0
100
AcDbText
  0
TEXT
  5
EA6E51026
330
EA6E4DC92
100
AcDbEntity
  8
TEXT
100
AcDbText
 10
336.5
 20
501.0
 30
0.0
 40
6.0
  1
20A
  7
K
 72
     4
 11
344.5
 21
504.0
 31
0.0
100
AcDbText
  0
TEXT
  5
EA6E51027
330
EA6E4DC92
100
AcDbEntity
  8
TEXT
100
AcDbText
 10
336.5
 20
513.0
 30
0.0
 40
6.0
  1
20A
  7
K
 72
     4
 11
344.5
 21
516.0
 31
0.0
100
AcDbText
  0
TEXT
  5
EA6E51028
330
EA6E4DC92
100
AcDbEntity
  8
TEXT
100
AcDbText
 10
336.5
 20
525.0
 30
0.0
 40
6.0
  1
20A
  7
K
 72
     4
 11
344.5
 21
528.0
 31
0.0
100
AcDbText
  0
TEXT
  5
EA6E51068
330
EA6E4DC92
100
AcDbEntity
  8
SUNPOU
100
AcDbText
 10
273.0
 20
489.0
 30
0.0
 40
6.0
  1
FCMB
  7
K
 72
     4
 11
284.0
 21
492.0
 31
0.0
100
AcDbText
  0
TEXT
  5
EA6E51069
330
EA6E4DC92
100
AcDbEntity
  8
SUNPOU
100
AcDbText
 10
191.1428571428571
 20
465.0
 30
0.0
 40
6.0
  1
6
  7
K
 72
     4
 11
193.0
 21
468.0
 31
0.0
100
AcDbText
  0
TEXT
  5
EA6E5106A
330
EA6E4DC92
100
AcDbEntity
  8
SUNPOU
100
AcDbText
 10
215.8
 20
453.0
 30
0.0
 40
6.0
  1
アングル弁
  7
K
 72
     4
 11
233.0
 21
456.0
 31
0.0
100
AcDbText
  0
TEXT
  5
EA6E5106B
330
EA6E4DC92
100
AcDbEntity
  8
SUNPOU
100
AcDbText
 10
271.7142857142857
 20
453.0
 30
0.0
 40
6.0
  1
C3771
  7
K
 72
     4
 11
284.0
 21
456.0
 31
0.0
100
AcDbText
  0
TEXT
  5
EA6E5106C
330
EA6E4DC92
100
AcDbEntity
  8
SUNPOU
100
AcDbText
 10
315.2857142857143
 20
453.0
 30
0.0
 40
6.0
  1
1
  7
K
 72
     4
 11
316.0
 21
456.0
 31
0.0
100
AcDbText
  0
TEXT
  5
EA6E5106D
330
EA6E4DC92
100
AcDbEntity
  8
SUNPOU
100
AcDbText
 10
191.0
 20
477.0
 30
0.0
 40
6.0
  1
5
  7
K
 72
     4
 11
193.0
 21
480.0
 31
0.0
100
AcDbText
  0
TEXT
  5
EA6E5106E
330
EA6E4DC92
100
AcDbEntity
  8
SUNPOU
100
AcDbText
 10
219.3999999999999
 20
465.0
 30
0.0
 40
6.0
  1
圧 力 計
  7
K
 72
     4
 11
233.0
 21
468.0
 31
0.0
100
AcDbText
  0
TEXT
  5
EA6E5106F
330
EA6E4DC92
100
AcDbEntity
  8
SUNPOU
100
AcDbText
 10
315.2857142857143
 20
465.0
 30
0.0
 40
6.0
  1
1
  7
K
 72
     4
 11
316.0
 21
468.0
 31
0.0
100
AcDbText
  0
TEXT
  5
EA6E51070
330
EA6E4DC92
100
AcDbEntity
  8
SUNPOU
100
AcDbText
 10
190.8571428571428
 20
489.0
 30
0.0
 40
6.0
  1
4
  7
K
 72
     4
 11
193.0
 21
492.0
 31
0.0
100
AcDbText
  0
TEXT
  5
EA6E51071
330
EA6E4DC92
100
AcDbEntity
  8
SUNPOU
100
AcDbText
 10
215.8
 20
489.0
 30
0.0
 40
6.0
  1
異径チーズ
  7
K
 72
     4
 11
233.0
 21
492.0
 31
0.0
100
AcDbText
  0
TEXT
  5
EA6E51072
330
EA6E4DC92
100
AcDbEntity
  8
SUNPOU
100
AcDbText
 10
315.2857142857143
 20
489.0
 30
0.0
 40
6.0
  1
1
  7
K
 72
     4
 11
316.0
 21
492.0
 31
0.0
100
AcDbText
  0
TEXT
  5
EA6E51073
330
EA6E4DC92
100
AcDbEntity
  8
SUNPOU
100
AcDbText
 10
191.0
 20
501.0
 30
0.0
 40
6.0
  1
3
  7
K
 72
     4
 11
193.0
 21
504.0
 31
0.0
100
AcDbText
  0
TEXT
  5
EA6E51074
330
EA6E4DC92
100
AcDbEntity
  8
SUNPOU
100
AcDbText
 10
212.1999999999999
 20
501.0
 30
0.0
 40
6.0
  1
六角ニップル
  7
K
 72
     4
 11
233.0
 21
504.0
 31
0.0
100
AcDbText
  0
TEXT
  5
EA6E51075
330
EA6E4DC92
100
AcDbEntity
  8
SUNPOU
100
AcDbText
 10
273.0
 20
501.0
 30
0.0
 40
6.0
  1
FCMB
  7
K
 72
     4
 11
284.0
 21
504.0
 31
0.0
100
AcDbText
  0
TEXT
  5
EA6E51076
330
EA6E4DC92
100
AcDbEntity
  8
SUNPOU
100
AcDbText
 10
315.2857142857143
 20
501.0
 30
0.0
 40
6.0
  1
1
  7
K
 72
     4
 11
316.0
 21
504.0
 31
0.0
100
AcDbText
  0
TEXT
  5
EA6E51077
330
EA6E4DC92
100
AcDbEntity
  8
SUNPOU
100
AcDbText
 10
191.0
 20
513.0
 30
0.0
 40
6.0
  1
2
  7
K
 72
     4
 11
193.0
 21
516.0
 31
0.0
100
AcDbText
  0
TEXT
  5
EA6E51078
330
EA6E4DC92
100
AcDbEntity
  8
SUNPOU
100
AcDbText
 10
212.0
 20
512.7999999999999
 30
0.0
 40
6.0
  1
ゲートバルブ
  7
K
 72
     4
 11
233.0
 21
516.0
 31
0.0
100
AcDbText
  0
TEXT
  5
EA6E51079
330
EA6E4DC92
100
AcDbEntity
  8
SUNPOU
100
AcDbText
 10
275.7142857142857
 20
513.0
 30
0.0
 40
6.0
  1
CAC
  7
K
 72
     4
 11
284.0
 21
516.0
 31
0.0
100
AcDbText
  0
TEXT
  5
EA6E5107A
330
EA6E4DC92
100
AcDbEntity
  8
SUNPOU
100
AcDbText
 10
315.2857142857143
 20
513.0
 30
0.0
 40
6.0
  1
1
  7
K
 72
     4
 11
316.0
 21
516.0
 31
0.0
100
AcDbText
  0
TEXT
  5
EA6E5107B
330
EA6E4DC92
100
AcDbEntity
  8
SUNPOU
100
AcDbText
 10
315.2857142857143
 20
525.0
 30
0.0
 40
6.0
  1
1
  7
K
 72
     4
 11
316.0
 21
528.0
 31
0.0
100
AcDbText
  0
TEXT
  5
EA6E5107C
330
EA6E4DC92
100
AcDbEntity
  8
SUNPOU
100
AcDbText
 10
270.2857142857142
 20
525.0
 30
0.0
 40
6.0
  1
C3604
  7
K
 72
     4
 11
284.0
 21
528.0
 31
0.0
100
AcDbText
  0
TEXT
  5
EA6E5107D
330
EA6E4DC92
100
AcDbEntity
  8
SUNPOU
100
AcDbText
 10
219.0
 20
524.7999999999999
 30
0.0
 40
6.0
  1
ノ ズ ル
  7
K
 72
     4
 11
233.0
 21
528.0
 31
0.0
100
AcDbText
  0
TEXT
  5
EA6E5107E
330
EA6E4DC92
100
AcDbEntity
  8
SUNPOU
100
AcDbText
 10
192.2857142857142
 20
525.0
 30
0.0
 40
6.0
  1
1
  7
K
 72
     4
 11
193.0
 21
528.0
 31
0.0
100
AcDbText
  0
LINE
  5
EA6E5107F
330
EA6E4DC92
100
AcDbEntity
  8
JISSEN
100
AcDbLine
 10
183.0
 20
462.0
 30
0.0
 11
362.0
 21
462.0
 31
0.0
  0
LINE
  5
EA6E51080
330
EA6E4DC92
100
AcDbEntity
  8
JISSEN
100
AcDbLine
 10
183.0
 20
474.0
 30
0.0
 11
362.0
 21
474.0
 31
0.0
  0
LINE
  5
EA6E51081
330
EA6E4DC92
100
AcDbEntity
  8
JISSEN
100
AcDbLine
 10
183.0
 20
486.0
 30
0.0
 11
362.0
 21
486.0
 31
0.0
  0
LINE
  5
EA6E51082
330
EA6E4DC92
100
AcDbEntity
  8
JISSEN
100
AcDbLine
 10
183.0
 20
498.0
 30
0.0
 11
362.0
 21
498.0
 31
0.0
  0
LINE
  5
EA6E51083
330
EA6E4DC92
100
AcDbEntity
  8
JISSEN
100
AcDbLine
 10
183.0
 20
510.0
 30
0.0
 11
362.0
 21
510.0
 31
0.0
  0
LINE
  5
EA6E51084
330
EA6E4DC92
100
AcDbEntity
  8
JISSEN
100
AcDbLine
 10
327.0
 20
546.0
 30
0.0
 11
327.0
 21
450.0
 31
0.0
  0
TEXT
  5
EA6E51085
330
EA6E4DC92
100
AcDbEntity
  8
TEXT
100
AcDbText
 10
309.6
 20
537.0
 30
0.0
 40
6.0
  1
個数
  7
K
 72
     4
 11
316.0
 21
540.0
 31
0.0
100
AcDbText
  0
TEXT
  5
EA6E51086
330
EA6E4DC92
100
AcDbEntity
  8
TEXT
100
AcDbText
 10
331.4
 20
537.0
 30
0.0
 40
6.0
  1
備    考
  7
K
 72
     4
 11
345.0
 21
540.0
 31
0.0
100
AcDbText
  0
LINE
  5
EA6E51087
330
EA6E4DC92
100
AcDbEntity
  8
JISSEN
100
AcDbLine
 10
305.0
 20
450.0
 30
0.0
 11
305.0
 21
546.0
 31
0.0
  0
LINE
  5
EA6E51088
330
EA6E4DC92
100
AcDbEntity
  8
JISSEN
100
AcDbLine
 10
263.0
 20
546.0
 30
0.0
 11
263.0
 21
450.0
 31
0.0
  0
TEXT
  5
EA6E51089
330
EA6E4DC92
100
AcDbEntity
  8
TEXT
100
AcDbText
 10
270.3999999999999
 20
537.0
 30
0.0
 40
6.0
  1
材    質
  7
K
 72
     4
 11
284.0
 21
540.0
 31
0.0
100
AcDbText
  0
LINE
  5
EA6E5108A
330
EA6E4DC92
100
AcDbEntity
  8
JISSEN
100
AcDbLine
 10
203.0
 20
546.0
 30
0.0
 11
203.0
 21
450.0
 31
0.0
  0
LINE
  5
EA6E5108B
330
EA6E4DC92
100
AcDbEntity
  8
JISSEN
100
AcDbLine
 10
183.0
 20
450.0
 30
0.0
 11
183.0
 21
546.0
 31
0.0
  0
TEXT
  5
EA6E5108C
330
EA6E4DC92
100
AcDbEntity
  8
TEXT
100
AcDbText
 10
186.5999999999999
 20
537.0
 30
0.0
 40
6.0
  1
番号
  7
K
 72
     4
 11
193.0
 21
540.0
 31
0.0
100
AcDbText
  0
TEXT
  5
EA6E5108D
330
EA6E4DC92
100
AcDbEntity
  8
TEXT
100
AcDbText
 10
215.8
 20
537.0
 30
0.0
 40
6.0
  1
名      称
  7
K
 72
     4
 11
233.0
 21
540.0
 31
0.0
100
AcDbText
  0
LINE
  5
EA6E5108E
330
EA6E4DC92
100
AcDbEntity
  8
JISSEN
100
AcDbLine
 10
183.0
 20
522.0
 30
0.0
 11
362.0
 21
522.0
 31
0.0
  0
LINE
  5
EA6E5108F
330
EA6E4DC92
100
AcDbEntity
  8
JISSEN
100
AcDbLine
 10
183.0
 20
534.0
 30
0.0
 11
362.0
 21
534.0
 31
0.0
  0
LINE
  5
EA6E51090
330
EA6E4DC92
100
AcDbEntity
  8
JISSEN
100
AcDbLine
 10
183.0
 20
450.0
 30
0.0
 11
362.0
 21
450.0
 31
0.0
  0
TEXT
  5
EA6E51091
330
EA6E4DC92
100
AcDbEntity
  8
SUNPOU
100
AcDbText
 10
191.0
 20
453.0
 30
0.0
 40
6.0
  1
7
  7
K
 72
     4
 11
193.0
 21
456.0
 31
0.0
100
AcDbText
  0
TEXT
  5
EA6E51092
330
EA6E4DC92
100
AcDbEntity
  8
SUNPOU
100
AcDbText
 10
219.1999999999999
 20
476.7999999999999
 30
0.0
 40
6.0
  1
ニップル
  7
K
 72
     4
 11
233.0
 21
480.0
 31
0.0
100
AcDbText
  0
TEXT
  5
EA6E51093
330
EA6E4DC92
100
AcDbEntity
  8
SUNPOU
100
AcDbText
 10
276.1428571428571
 20
477.0
 30
0.0
 40
6.0
  1
SGP
  7
K
 72
     4
 11
284.0
 21
480.0
 31
0.0
100
AcDbText
  0
TEXT
  5
EA6E51094
330
EA6E4DC92
100
AcDbEntity
  8
SUNPOU
100
AcDbText
 10
270.05
 20
469.3521738072305
 30
0.0
 40
6.0
  1
%%u        
  7
BIGFONT
 72
     4
 11
284.0
 21
468.7521738072304
 31
0.0
100
AcDbText
  0
TEXT
  5
EA6E51095
330
EA6E4DC92
100
AcDbEntity
  8
SUNPOU
100
AcDbText
 10
252.3987428729603
 20
148.4696942626276
 30
0.0
 40
6.0
  1
7
  7
K
 72
     4
 11
254.3987428729603
 21
151.4696942626276
 31
0.0
100
AcDbText
  0
LINE
  5
EA6E51096
330
EA6E4DC92
100
AcDbEntity
  8
SUNPOU
100
AcDbLine
 10
298.6719885138411
 20
295.896300706879
 30
0.0
 11
257.2424153782707
 21
158.4096889803879
 31
0.0
  0
INSERT
  5
EA6E51097
330
EA6E4DC92
100
AcDbEntity
  8
SUNPOU
100
AcDbBlockReference
  2
ARROWANG
 10
298.6719885138411
 20
295.8963007068789
 30
0.0
 41
2.999999999999984
 42
3.0
 43
3.0
 50
73.23059019847201
  0
TEXT
  5
EA6E51098
330
EA6E4DC92
100
AcDbEntity
  8
SUNPOU
100
AcDbText
 10
232.5358790407566
 20
148.4696942626276
 30
0.0
 40
6.0
  1
6
  7
K
 72
     4
 11
234.3930218978995
 21
151.4696942626276
 31
0.0
100
AcDbText
  0
LINE
  5
EA6E51099
330
EA6E4DC92
100
AcDbEntity
  8
SUNPOU
100
AcDbLine
 10
164.6003905060329
 20
279.6322539806559
 30
0.0
 11
231.3820292683487
 21
158.3387497570016
 31
0.0
  0
INSERT
  5
EA6E5109A
330
EA6E4DC92
100
AcDbEntity
  8
SUNPOU
100
AcDbBlockReference
  2
ARROWANG
 10
164.600390506033
 20
279.6322539806561
 30
0.0
 41
3.000000000000003
 42
3.0
 43
3.0
 50
118.8362508508441
  0
TEXT
  5
EA6E5109B
330
EA6E4DC92
100
AcDbEntity
  8
SUNPOU
100
AcDbText
 10
212.7418569931702
 20
148.4696942626276
 30
0.0
 40
6.0
  1
5
  7
K
 72
     4
 11
214.7418569931702
 21
151.4696942626276
 31
0.0
100
AcDbText
  0
LINE
  5
EA6E5109C
330
EA6E4DC92
100
AcDbEntity
  8
SUNPOU
100
AcDbLine
 10
124.1295944536861
 20
297.6532230284075
 30
0.0
 11
210.8318873938234
 21
157.8698612707753
 31
0.0
  0
INSERT
  5
EA6E5109D
330
EA6E4DC92
100
AcDbEntity
  8
SUNPOU
100
AcDbBlockReference
  2
ARROWANG
 10
124.1295944536861
 20
297.6532230284075
 30
0.0
 41
3.000000000000032
 42
3.0
 43
3.0
 50
121.8097505545952
  0
TEXT
  5
EA6E5109E
330
EA6E4DC92
100
AcDbEntity
  8
SUNPOU
100
AcDbText
 10
192.5728930777096
 20
148.4696942626276
 30
0.0
 40
6.0
  1
4
  7
K
 72
     4
 11
194.7157502205667
 21
151.4696942626276
 31
0.0
100
AcDbText
  0
LINE
  5
EA6E5109F
330
EA6E4DC92
100
AcDbEntity
  8
SUNPOU
100
AcDbLine
 10
115.3621167425504
 20
293.3963317068804
 30
0.0
 11
192.9101960420971
 21
158.749115538293
 31
0.0
  0
INSERT
  5
EA6E510A0
330
EA6E4DC92
100
AcDbEntity
  8
SUNPOU
100
AcDbBlockReference
  2
ARROWANG
 10
115.3621167425504
 20
293.3963317068804
 30
0.0
 41
2.99999999999998
 42
3.0
 43
3.0
 50
119.9391571537177
  0
TEXT
  5
EA6E510A1
330
EA6E4DC92
100
AcDbEntity
  8
SUNPOU
100
AcDbText
 10
171.9961407477788
 20
148.4696942626276
 30
0.0
 40
6.0
  1
3
  7
K
 72
     4
 11
173.9961407477788
 21
151.4696942626276
 31
0.0
100
AcDbText
  0
LINE
  5
EA6E510A2
330
EA6E4DC92
100
AcDbEntity
  8
SUNPOU
100
AcDbLine
 10
110.3373253566185
 20
265.4263317068801
 30
0.0
 11
171.7379467208255
 21
158.6216562127942
 31
0.0
  0
INSERT
  5
EA6E510A3
330
EA6E4DC92
100
AcDbEntity
  8
SUNPOU
100
AcDbBlockReference
  2
ARROWANG
 10
110.3373253566185
 20
265.4263317068801
 30
0.0
 41
3.000000000000003
 42
3.0
 43
3.0
 50
119.8940366596517
  0
TEXT
  5
EA6E510A4
330
EA6E4DC92
100
AcDbEntity
  8
SUNPOU
100
AcDbText
 10
147.0352484075472
 20
148.4696942626276
 30
0.0
 40
6.0
  1
2
  7
K
 72
     4
 11
149.0352484075472
 21
151.4696942626276
 31
0.0
100
AcDbText
  0
LINE
  5
EA6E510A5
330
EA6E4DC92
100
AcDbEntity
  8
SUNPOU
100
AcDbLine
 10
109.3620667425514
 20
189.224406206879
 30
0.0
 11
143.6986431128599
 21
156.7394802097714
 31
0.0
  0
INSERT
  5
EA6E510A6
330
EA6E4DC92
100
AcDbEntity
  8
SUNPOU
100
AcDbBlockReference
  2
ARROWANG
 10
109.3620667425514
 20
189.224406206879
 30
0.0
 41
2.999999999999987
 42
3.0
 43
3.0
 50
136.5872826187783
  0
TEXT
  5
EA6E510A7
330
EA6E4DC92
100
AcDbEntity
  8
SUNPOU
100
AcDbText
 10
131.4750816996233
 20
148.4696942626276
 30
0.0
 40
6.0
  1
1
  7
K
 72
     4
 11
132.189367413909
 21
151.4696942626276
 31
0.0
100
AcDbText
  0
LINE
  5
EA6E510A8
330
EA6E4DC92
100
AcDbEntity
  8
SUNPOU
100
AcDbLine
 10
106.6563642612049
 20
171.2482022528583
 30
0.0
 11
126.260178733905
 21
156.0625933032023
 31
0.0
  0
INSERT
  5
EA6E510A9
330
EA6E4DC92
100
AcDbEntity
  8
SUNPOU
100
AcDbBlockReference
  2
ARROWANG
 10
106.6563642612049
 20
171.2482022528583
 30
0.0
 41
2.999999999999986
 42
3.0
 43
3.0
 50
142.2377339807152
  0
ENDSEC
  0
SECTION
  2
OBJECTS
  0
DICTIONARY
  5
EA6E4DC87
330
0
100
AcDbDictionary
  3
ACAD_GROUP
350
EA6E4DC88
  3
ACAD_LAYOUT
350
EA6E4E124
  3
ACAD_MLINESTYLE
350
EA6E4DC95
  3
ACAD_PLOTSETTINGS
350
EA6E4E125
  3
ACAD_PLOTSTYLENAME
350
EA6E4E122
  3
ACDBHEADERROUNDTRIPXREC
350
EA6E510AC
  3
ACDBVARIABLEDICTIONARY
350
EA6E4DCDF
  0
DICTIONARY
  5
EA6E4E3D8
330
EA6E4DC7D
100
AcDbDictionary
280
     1
  3
ACAD_LAYERSTATES
360
EA6E4E3D9
  0
DICTIONARY
  5
EA6E4E15C
330
EA6E4DC92
100
AcDbDictionary
280
     1
  3
ACAD_LAYOUTSELFREF
360
EA6E510CE
  0
DICTIONARY
  5
EA6E4E15A
330
EA6E4DC8F
100
AcDbDictionary
280
     1
  3
ACAD_LAYOUTSELFREF
360
EA6E510CD
  0
DICTIONARY
  5
EA6E4DC88
102
{ACAD_REACTORS
330
EA6E4DC87
102
}
330
0
100
AcDbDictionary
  0
DICTIONARY
  5
EA6E4E124
102
{ACAD_REACTORS
330
EA6E4DC87
102
}
330
EA6E4DC87
100
AcDbDictionary
  0
DICTIONARY
  5
EA6E4DC95
102
{ACAD_REACTORS
330
EA6E4DC87
102
}
330
0
100
AcDbDictionary
  3
STANDARD
350
EA6E4DC96
  0
DICTIONARY
  5
EA6E4E125
102
{ACAD_REACTORS
330
EA6E4DC87
102
}
330
EA6E4DC87
100
AcDbDictionary
  0
ACDBDICTIONARYWDFLT
  5
EA6E4E122
102
{ACAD_REACTORS
330
EA6E4DC87
102
}
330
EA6E4DC87
100
AcDbDictionary
281
     1
  3
Normal
350
EA6E4E123
100
AcDbDictionaryWithDefault
340
EA6E4E123
  0
DICTIONARY
  5
EA6E510AC
102
{ACAD_REACTORS
330
EA6E4DC87
102
}
330
EA6E4DC87
100
AcDbDictionary
  3
CEPSNTYPE
350
EA6E510B6
  3
DIMSTYLEDATA
350
EA6E510BA
  3
FINGERPRINTGUID
350
EA6E510B7
  3
HYPERLINKBASE
350
EA6E510AF
  3
INSUNITS
350
EA6E510B5
  3
LAYOUTDICT
350
EA6E510B1
  3
LWETCUNION
350
EA6E510B4
  3
PLOTSETDICT
350
EA6E510B2
  3
PLOTSTYLNAMDICT
350
EA6E510B3
  3
PSVPSCALE
350
EA6E510B9
  3
PUCSBASE
350
EA6E510BD
  3
PUCSORGBACK
350
EA6E510C3
  3
PUCSORGBOTTOM
350
EA6E510BF
  3
PUCSORGFRONT
350
EA6E510C2
  3
PUCSORGLEFT
350
EA6E510C0
  3
PUCSORGRIGHT
350
EA6E510C1
  3
PUCSORGTOP
350
EA6E510BE
  3
PUCSORTHOREF
350
EA6E510BB
  3
PUCSORTHOVIEW
350
EA6E510BC
  3
STYLESHEET
350
EA6E510B0
  3
TSTACKALIGN
350
EA6E510AD
  3
TSTACKSIZE
350
EA6E510AE
  3
UCSBASE
350
EA6E510C6
  3
UCSORGBACK
350
EA6E510CC
  3
UCSORGBOTTOM
350
EA6E510C8
  3
UCSORGFRONT
350
EA6E510CB
  3
UCSORGLEFT
350
EA6E510C9
  3
UCSORGRIGHT
350
EA6E510CA
  3
UCSORGTOP
350
EA6E510C7
  3
UCSORTHOREF
350
EA6E510C4
  3
UCSORTHOVIEW
350
EA6E510C5
  3
VERSIONGUID
350
EA6E510B8
  0
DICTIONARY
  5
EA6E4DCDF
102
{ACAD_REACTORS
330
EA6E4DC87
102
}
330
0
100
AcDbDictionary
  3
DIMASSOC
350
EA6E4E23D
  3
SORTENTS
350
EA6E4DCE0
  0
DICTIONARY
  5
EA6E4E3D9
102
{ACAD_REACTORS
330
EA6E4E3D8
102
}
330
EA6E4E3D8
100
AcDbDictionary
  0
XRECORD
  5
EA6E510CE
102
{ACAD_REACTORS
330
EA6E4E15C
102
}
330
EA6E4E15C
100
AcDbXrecord
340
EA6E4DC92
  0
XRECORD
  5
EA6E510CD
102
{ACAD_REACTORS
330
EA6E4E15A
102
}
330
EA6E4E15A
100
AcDbXrecord
340
EA6E4DC8F
  0
MLINESTYLE
  5
EA6E4DC96
102
{ACAD_REACTORS
330
EA6E4DC95
102
}
330
0
100
AcDbMlineStyle
  2
STANDARD
 70
     0
  3

 62
   256
 51
90.0
 52
90.0
 71
     2
 49
0.5
 62
   256
  6
BYLAYER
 49
-0.5
 62
   256
  6
BYLAYER
  0
ACDBPLACEHOLDER
  5
EA6E4E123
102
{ACAD_REACTORS
330
EA6E4E122
102
}
330
EA6E4E122
100
AcDbPlaceHolder
280
     0
  0
XRECORD
  5
EA6E510B6
102
{ACAD_REACTORS
330
EA6E510AC
102
}
330
EA6E510AC
100
AcDbXrecord
 90
        0
  0
XRECORD
  5
EA6E510BA
102
{ACAD_REACTORS
330
EA6E510AC
102
}
330
EA6E510AC
100
AcDbXrecord
1000
DSTYLE
1002
{
1070
   279
 70
     2
1070
   341
340
EA6E4DC97
1070
   342
340
EA6E4DC97
1002
}
  0
XRECORD
  5
EA6E510B7
102
{ACAD_REACTORS
330
EA6E510AC
102
}
330
EA6E510AC
100
AcDbXrecord
  1
{9ED4B7E8-4B02-4EC4-A908-0D7ADED925D2}
  0
XRECORD
  5
EA6E510AF
102
{ACAD_REACTORS
330
EA6E510AC
102
}
330
EA6E510AC
100
AcDbXrecord
  1

  0
XRECORD
  5
EA6E510B5
102
{ACAD_REACTORS
330
EA6E510AC
102
}
330
EA6E510AC
100
AcDbXrecord
 90
        0
  0
XRECORD
  5
EA6E510B1
102
{ACAD_REACTORS
330
EA6E510AC
102
}
330
EA6E510AC
100
AcDbXrecord
340
EA6E4E124
  0
XRECORD
  5
EA6E510B4
102
{ACAD_REACTORS
330
EA6E510AC
102
}
330
EA6E510AC
100
AcDbXrecord
 90
    14877
  0
XRECORD
  5
EA6E510B2
102
{ACAD_REACTORS
330
EA6E510AC
102
}
330
EA6E510AC
100
AcDbXrecord
340
EA6E4E125
  0
XRECORD
  5
EA6E510B3
102
{ACAD_REACTORS
330
EA6E510AC
102
}
330
EA6E510AC
100
AcDbXrecord
340
EA6E4E122
  0
XRECORD
  5
EA6E510B9
102
{ACAD_REACTORS
330
EA6E510AC
102
}
330
EA6E510AC
100
AcDbXrecord
 40
0.0
  0
XRECORD
  5
EA6E510BD
102
{ACAD_REACTORS
330
EA6E510AC
102
}
330
EA6E510AC
100
AcDbXrecord
340
0
  0
XRECORD
  5
EA6E510C3
102
{ACAD_REACTORS
330
EA6E510AC
102
}
330
EA6E510AC
100
AcDbXrecord
 10
0.0
 20
0.0
 30
0.0
  0
XRECORD
  5
EA6E510BF
102
{ACAD_REACTORS
330
EA6E510AC
102
}
330
EA6E510AC
100
AcDbXrecord
 10
0.0
 20
0.0
 30
0.0
  0
XRECORD
  5
EA6E510C2
102
{ACAD_REACTORS
330
EA6E510AC
102
}
330
EA6E510AC
100
AcDbXrecord
 10
0.0
 20
0.0
 30
0.0
  0
XRECORD
  5
EA6E510C0
102
{ACAD_REACTORS
330
EA6E510AC
102
}
330
EA6E510AC
100
AcDbXrecord
 10
0.0
 20
0.0
 30
0.0
  0
XRECORD
  5
EA6E510C1
102
{ACAD_REACTORS
330
EA6E510AC
102
}
330
EA6E510AC
100
AcDbXrecord
 10
0.0
 20
0.0
 30
0.0
  0
XRECORD
  5
EA6E510BE
102
{ACAD_REACTORS
330
EA6E510AC
102
}
330
EA6E510AC
100
AcDbXrecord
 10
0.0
 20
0.0
 30
0.0
  0
XRECORD
  5
EA6E510BB
102
{ACAD_REACTORS
330
EA6E510AC
102
}
330
EA6E510AC
100
AcDbXrecord
340
0
  0
XRECORD
  5
EA6E510BC
102
{ACAD_REACTORS
330
EA6E510AC
102
}
330
EA6E510AC
100
AcDbXrecord
 70
     0
  0
XRECORD
  5
EA6E510B0
102
{ACAD_REACTORS
330
EA6E510AC
102
}
330
EA6E510AC
100
AcDbXrecord
  1

  0
XRECORD
  5
EA6E510AD
102
{ACAD_REACTORS
330
EA6E510AC
102
}
330
EA6E510AC
100
AcDbXrecord
 90
        1
  0
XRECORD
  5
EA6E510AE
102
{ACAD_REACTORS
330
EA6E510AC
102
}
330
EA6E510AC
100
AcDbXrecord
 90
       70
  0
XRECORD
  5
EA6E510C6
102
{ACAD_REACTORS
330
EA6E510AC
102
}
330
EA6E510AC
100
AcDbXrecord
340
0
  0
XRECORD
  5
EA6E510CC
102
{ACAD_REACTORS
330
EA6E510AC
102
}
330
EA6E510AC
100
AcDbXrecord
 10
0.0
 20
0.0
 30
0.0
  0
XRECORD
  5
EA6E510C8
102
{ACAD_REACTORS
330
EA6E510AC
102
}
330
EA6E510AC
100
AcDbXrecord
 10
0.0
 20
0.0
 30
0.0
  0
XRECORD
  5
EA6E510CB
102
{ACAD_REACTORS
330
EA6E510AC
102
}
330
EA6E510AC
100
AcDbXrecord
 10
0.0
 20
0.0
 30
0.0
  0
XRECORD
  5
EA6E510C9
102
{ACAD_REACTORS
330
EA6E510AC
102
}
330
EA6E510AC
100
AcDbXrecord
 10
0.0
 20
0.0
 30
0.0
  0
XRECORD
  5
EA6E510CA
102
{ACAD_REACTORS
330
EA6E510AC
102
}
330
EA6E510AC
100
AcDbXrecord
 10
0.0
 20
0.0
 30
0.0
  0
XRECORD
  5
EA6E510C7
102
{ACAD_REACTORS
330
EA6E510AC
102
}
330
EA6E510AC
100
AcDbXrecord
 10
0.0
 20
0.0
 30
0.0
  0
XRECORD
  5
EA6E510C4
102
{ACAD_REACTORS
330
EA6E510AC
102
}
330
EA6E510AC
100
AcDbXrecord
340
0
  0
XRECORD
  5
EA6E510C5
102
{ACAD_REACTORS
330
EA6E510AC
102
}
330
EA6E510AC
100
AcDbXrecord
 70
     0
  0
XRECORD
  5
EA6E510B8
102
{ACAD_REACTORS
330
EA6E510AC
102
}
330
EA6E510AC
100
AcDbXrecord
  1
{5AE53372-5BCF-4ADC-B52B-2D6E1D3D88AA}
  0
DICTIONARYVAR
  5
EA6E4E23D
102
{ACAD_REACTORS
330
EA6E4DCDF
102
}
330
EA6E4DCDF
100
DictionaryVariables
280
     0
  1
0
  0
DICTIONARYVAR
  5
EA6E4DCE0
102
{ACAD_REACTORS
330
EA6E4DCDF
102
}
330
0
100
DictionaryVariables
280
     0
  1
96
  0
ENDSEC
  0
EOF
