  0
SECTION
  2
HEADER
  9
$ACADVER
  1
AC1014
  9
$ACADMAINTVER
 70
     9
  9
$DWGCODEPAGE
  3
ANSI_932
  9
$INSBASE
 10
0.0
 20
0.0
 30
0.0
  9
$EXTMIN
 10
0.0
 20
0.0
 30
0.0
  9
$EXTMAX
 10
180.999999276
 20
282.9999999999999
 30
0.0
  9
$LIMMIN
 10
0.0
 20
0.0
  9
$LIMMAX
 10
181.0
 20
283.0
  9
$ORTHOMODE
 70
     1
  9
$REGENMODE
 70
     1
  9
$FILLMODE
 70
     1
  9
$QTEXTMODE
 70
     0
  9
$MIRRTEXT
 70
     0
  9
$DRAGMODE
 70
     2
  9
$LTSCALE
 40
5.0
  9
$OSMODE
 70
   167
  9
$ATTMODE
 70
     1
  9
$TEXTSIZE
 40
3.0
  9
$TRACEWID
 40
0.05
  9
$TEXTSTYLE
  7
BIGFONT
  9
$CLAYER
  8
JISSEN
  9
$CELTYPE
  6
BYLAYER
  9
$CECOLOR
 62
   256
  9
$CELTSCALE
 40
1.0
  9
$DELOBJ
 70
     1
  9
$DISPSILH
 70
     0
  9
$DIMSCALE
 40
1.0
  9
$DIMASZ
 40
1.5
  9
$DIMEXO
 40
1.0
  9
$DIMDLI
 40
6.0
  9
$DIMRND
 40
0.0
  9
$DIMDLE
 40
0.0
  9
$DIMEXE
 40
1.0
  9
$DIMTP
 40
0.0
  9
$DIMTM
 40
0.0
  9
$DIMTXT
 40
3.0
  9
$DIMCEN
 40
1.0
  9
$DIMTSZ
 40
0.0
  9
$DIMTOL
 70
     0
  9
$DIMLIM
 70
     0
  9
$DIMTIH
 70
     0
  9
$DIMTOH
 70
     0
  9
$DIMSE1
 70
     0
  9
$DIMSE2
 70
     0
  9
$DIMTAD
 70
     0
  9
$DIMZIN
 70
     8
  9
$DIMBLK
  1
ARROW
  9
$DIMASO
 70
     0
  9
$DIMSHO
 70
     0
  9
$DIMPOST
  1

  9
$DIMAPOST
  1

  9
$DIMALT
 70
     0
  9
$DIMALTD
 70
     2
  9
$DIMALTF
 40
25.4
  9
$DIMLFAC
 40
1.0
  9
$DIMTOFL
 70
     1
  9
$DIMTVP
 40
0.0
  9
$DIMTIX
 70
     0
  9
$DIMSOXD
 70
     0
  9
$DIMSAH
 70
     0
  9
$DIMBLK1
  1
ARROWANG
  9
$DIMBLK2
  1
ARROWANG
  9
$DIMSTYLE
  2
IMAO
  9
$DIMCLRD
 70
     0
  9
$DIMCLRE
 70
     0
  9
$DIMCLRT
 70
     0
  9
$DIMTFAC
 40
1.0
  9
$DIMGAP
 40
0.09
  9
$DIMJUST
 70
     0
  9
$DIMSD1
 70
     0
  9
$DIMSD2
 70
     0
  9
$DIMTOLJ
 70
     1
  9
$DIMTZIN
 70
     8
  9
$DIMALTZ
 70
     8
  9
$DIMALTTZ
 70
     8
  9
$DIMFIT
 70
     5
  9
$DIMUPT
 70
     0
  9
$DIMUNIT
 70
     2
  9
$DIMDEC
 70
     2
  9
$DIMTDEC
 70
     2
  9
$DIMALTU
 70
     2
  9
$DIMALTTD
 70
     2
  9
$DIMTXSTY
  7
BIGFONT
  9
$DIMAUNIT
 70
     0
  9
$LUNITS
 70
     2
  9
$LUPREC
 70
     2
  9
$SKETCHINC
 40
0.1
  9
$FILLETRAD
 40
0.2
  9
$AUNITS
 70
     0
  9
$AUPREC
 70
     2
  9
$MENU
  1
stdr12j
  9
$ELEVATION
 40
0.0
  9
$PELEVATION
 40
0.0
  9
$THICKNESS
 40
0.0
  9
$LIMCHECK
 70
     0
  9
$BLIPMODE
 70
     0
  9
$CHAMFERA
 40
0.0
  9
$CHAMFERB
 40
0.0
  9
$CHAMFERC
 40
0.0
  9
$CHAMFERD
 40
0.0
  9
$SKPOLY
 70
     0
  9
$TDCREATE
 40
2450617.453041203
  9
$TDUPDATE
 40
2453334.736042291
  9
$TDINDWG
 40
0.1652321875
  9
$TDUSRTIMER
 40
0.1652321875
  9
$USRTIMER
 70
     1
  9
$ANGBASE
 50
0.0
  9
$ANGDIR
 70
     0
  9
$PDMODE
 70
     0
  9
$PDSIZE
 40
0.0
  9
$PLINEWID
 40
0.0
  9
$COORDS
 70
     2
  9
$SPLFRAME
 70
     0
  9
$SPLINETYPE
 70
     6
  9
$SPLINESEGS
 70
     8
  9
$ATTDIA
 70
     0
  9
$ATTREQ
 70
     1
  9
$HANDLING
 70
 22529
  9
$HANDSEED
  5
EF7C892EE
  9
$SURFTAB1
 70
     6
  9
$SURFTAB2
 70
     6
  9
$SURFTYPE
 70
     6
  9
$SURFU
 70
     6
  9
$SURFV
 70
     6
  9
$UCSNAME
  2

  9
$UCSORG
 10
0.0
 20
0.0
 30
0.0
  9
$UCSXDIR
 10
1.0
 20
0.0
 30
0.0
  9
$UCSYDIR
 10
0.0
 20
1.0
 30
0.0
  9
$PUCSNAME
  2

  9
$PUCSORG
 10
0.0
 20
0.0
 30
0.0
  9
$PUCSXDIR
 10
1.0
 20
0.0
 30
0.0
  9
$PUCSYDIR
 10
0.0
 20
1.0
 30
0.0
  9
$USERI1
 70
     0
  9
$USERI2
 70
     1
  9
$USERI3
 70
     1
  9
$USERI4
 70
     3
  9
$USERI5
 70
     0
  9
$USERR1
 40
1.0
  9
$USERR2
 40
3.0
  9
$USERR3
 40
3.0
  9
$USERR4
 40
1.5
  9
$USERR5
 40
8.0
  9
$WORLDVIEW
 70
     1
  9
$SHADEDGE
 70
     3
  9
$SHADEDIF
 70
    70
  9
$TILEMODE
 70
     1
  9
$MAXACTVP
 70
    16
  9
$PINSBASE
 10
0.0
 20
0.0
 30
0.0
  9
$PLIMCHECK
 70
     0
  9
$PEXTMIN
 10
1.000000000000000E+20
 20
1.000000000000000E+20
 30
1.000000000000000E+20
  9
$PEXTMAX
 10
-1.000000000000000E+20
 20
-1.000000000000000E+20
 30
-1.000000000000000E+20
  9
$PLIMMIN
 10
0.0
 20
0.0
  9
$PLIMMAX
 10
12.0
 20
9.0
  9
$UNITMODE
 70
     0
  9
$VISRETAIN
 70
     0
  9
$PLINEGEN
 70
     0
  9
$PSLTSCALE
 70
     0
  9
$TREEDEPTH
 70
  3020
  9
$PICKSTYLE
 70
     1
  9
$CMLSTYLE
  2
STANDARD
  9
$CMLJUST
 70
     0
  9
$CMLSCALE
 40
1.0
  9
$PROXYGRAPHICS
 70
     1
  9
$MEASUREMENT
 70
     0
  0
ENDSEC
  0
SECTION
  2
CLASSES
  0
CLASS
  1
LWPOLYLINE
  2
AcDbPolyline
  3
AutoCAD 2000
 90
        0
280
     0
281
     1
  0
CLASS
  1
HATCH
  2
AcDbHatch
  3
AutoCAD 2000
 90
        0
280
     0
281
     1
  0
CLASS
  1
ACDBDICTIONARYWDFLT
  2
AcDbDictionaryWithDefault
  3
AutoCAD 2000
 90
        0
280
     0
281
     0
  0
CLASS
  1
ACDBPLACEHOLDER
  2
AcDbPlaceHolder
  3
AutoCAD 2000
 90
        0
280
     0
281
     0
  0
CLASS
  1
LAYOUT
  2
AcDbLayout
  3
AutoCAD 2000
 90
        0
280
     0
281
     0
  0
CLASS
  1
LONG_TRANSACTION
  2
AcDbLongTransaction
  3
AutoCAD 2000
 90
        0
280
     0
281
     0
  0
CLASS
  1
LWPOLYLINE
  2
AcDbPolyline
  3
AutoCAD 2000
 90
        0
280
     0
281
     1
  0
CLASS
  1
HATCH
  2
AcDbHatch
  3
AutoCAD 2000
 90
        0
280
     0
281
     1
  0
CLASS
  1
XRECORD
  2
AcDbXrecord
  3
AutoCAD 2000
 90
        0
280
     0
281
     0
  0
CLASS
  1
DICTIONARYVAR
  2
AcDbDictionaryVar
  3
AutoCAD 2000
 90
        0
280
     0
281
     0
  0
CLASS
  1
LONG_TRANSACTION
  2
AcDbLongTransaction
  3
AutoCAD 2000
 90
        0
280
     0
281
     0
  0
CLASS
  1
LWPOLYLINE
  2
AcDbPolyline
  3
AutoCAD 2000
 90
        0
280
     0
281
     1
  0
CLASS
  1
HATCH
  2
AcDbHatch
  3
AutoCAD 2000
 90
        0
280
     0
281
     1
  0
CLASS
  1
XRECORD
  2
AcDbXrecord
  3
AutoCAD 2000
 90
        0
280
     0
281
     0
  0
CLASS
  1
LONG_TRANSACTION
  2
AcDbLongTransaction
  3
AutoCAD 2000
 90
        0
280
     0
281
     0
  0
CLASS
  1
LWPOLYLINE
  2
AcDbPolyline
  3
AutoCAD 2000
 90
        0
280
     0
281
     1
  0
CLASS
  1
HATCH
  2
AcDbHatch
  3
AutoCAD 2000
 90
        0
280
     0
281
     1
  0
CLASS
  1
XRECORD
  2
AcDbXrecord
  3
AutoCAD 2000
 90
        0
280
     0
281
     0
  0
CLASS
  1
LONG_TRANSACTION
  2
AcDbLongTransaction
  3
AutoCAD 2000
 90
        0
280
     0
281
     0
  0
CLASS
  1
LWPOLYLINE
  2
AcDbPolyline
  3
AutoCAD 2000
 90
        0
280
     0
281
     1
  0
CLASS
  1
HATCH
  2
AcDbHatch
  3
AutoCAD 2000
 90
        0
280
     0
281
     1
  0
CLASS
  1
XRECORD
  2
AcDbXrecord
  3
AutoCAD 2000
 90
        0
280
     0
281
     0
  0
CLASS
  1
LONG_TRANSACTION
  2
AcDbLongTransaction
  3
AutoCAD 2000
 90
        0
280
     0
281
     0
  0
CLASS
  1
LWPOLYLINE
  2
AcDbPolyline
  3
AutoCAD 2000
 90
        0
280
     0
281
     1
  0
CLASS
  1
HATCH
  2
AcDbHatch
  3
AutoCAD 2000
 90
        0
280
     0
281
     1
  0
CLASS
  1
XRECORD
  2
AcDbXrecord
  3
AutoCAD 2000
 90
        0
280
     0
281
     0
  0
CLASS
  1
LONG_TRANSACTION
  2
AcDbLongTransaction
  3
AutoCAD 2000
 90
        0
280
     0
281
     0
  0
CLASS
  1
LWPOLYLINE
  2
AcDbPolyline
  3
AutoCAD 2000
 90
        0
280
     0
281
     1
  0
CLASS
  1
HATCH
  2
AcDbHatch
  3
AutoCAD 2000
 90
        0
280
     0
281
     1
  0
CLASS
  1
XRECORD
  2
AcDbXrecord
  3
AutoCAD 2000
 90
        0
280
     0
281
     0
  0
CLASS
  1
LONG_TRANSACTION
  2
AcDbLongTransaction
  3
AutoCAD 2000
 90
        0
280
     0
281
     0
  0
CLASS
  1
LWPOLYLINE
  2
AcDbPolyline
  3
AutoCAD 2000
 90
        0
280
     0
281
     1
  0
CLASS
  1
HATCH
  2
AcDbHatch
  3
AutoCAD 2000
 90
        0
280
     0
281
     1
  0
CLASS
  1
XRECORD
  2
AcDbXrecord
  3
AutoCAD 2000
 90
        0
280
     0
281
     0
  0
CLASS
  1
LONG_TRANSACTION
  2
AcDbLongTransaction
  3
AutoCAD 2000
 90
        0
280
     0
281
     0
  0
CLASS
  1
LWPOLYLINE
  2
AcDbPolyline
  3
AutoCAD 2000
 90
        0
280
     0
281
     1
  0
CLASS
  1
HATCH
  2
AcDbHatch
  3
AutoCAD 2000
 90
        0
280
     0
281
     1
  0
CLASS
  1
XRECORD
  2
AcDbXrecord
  3
AutoCAD 2000
 90
        0
280
     0
281
     0
  0
CLASS
  1
LONG_TRANSACTION
  2
AcDbLongTransaction
  3
AutoCAD 2000
 90
        0
280
     0
281
     0
  0
CLASS
  1
LWPOLYLINE
  2
AcDbPolyline
  3
AutoCAD 2000
 90
        0
280
     0
281
     1
  0
CLASS
  1
HATCH
  2
AcDbHatch
  3
AutoCAD 2000
 90
        0
280
     0
281
     1
  0
CLASS
  1
XRECORD
  2
AcDbXrecord
  3
AutoCAD 2000
 90
        0
280
     0
281
     0
  0
CLASS
  1
LONG_TRANSACTION
  2
AcDbLongTransaction
  3
AutoCAD 2000
 90
        0
280
     0
281
     0
  0
CLASS
  1
LWPOLYLINE
  2
AcDbPolyline
  3
AutoCAD 2000
 90
        0
280
     0
281
     1
  0
CLASS
  1
HATCH
  2
AcDbHatch
  3
AutoCAD 2000
 90
        0
280
     0
281
     1
  0
CLASS
  1
XRECORD
  2
AcDbXrecord
  3
AutoCAD 2000
 90
        0
280
     0
281
     0
  0
CLASS
  1
LONG_TRANSACTION
  2
AcDbLongTransaction
  3
AutoCAD 2000
 90
        0
280
     0
281
     0
  0
CLASS
  1
LWPOLYLINE
  2
AcDbPolyline
  3
AutoCAD 2000
 90
        0
280
     0
281
     1
  0
CLASS
  1
HATCH
  2
AcDbHatch
  3
AutoCAD 2000
 90
        0
280
     0
281
     1
  0
CLASS
  1
XRECORD
  2
AcDbXrecord
  3
AutoCAD 2000
 90
        0
280
     0
281
     0
  0
CLASS
  1
LONG_TRANSACTION
  2
AcDbLongTransaction
  3
AutoCAD 2000
 90
        0
280
     0
281
     0
  0
CLASS
  1
LWPOLYLINE
  2
AcDbPolyline
  3
AutoCAD 2000
 90
        0
280
     0
281
     1
  0
CLASS
  1
HATCH
  2
AcDbHatch
  3
AutoCAD 2000
 90
        0
280
     0
281
     1
  0
CLASS
  1
XRECORD
  2
AcDbXrecord
  3
AutoCAD 2000
 90
        0
280
     0
281
     0
  0
CLASS
  1
LONG_TRANSACTION
  2
AcDbLongTransaction
  3
AutoCAD 2000
 90
        0
280
     0
281
     0
  0
CLASS
  1
LWPOLYLINE
  2
AcDbPolyline
  3
AutoCAD 2000
 90
        0
280
     0
281
     1
  0
CLASS
  1
HATCH
  2
AcDbHatch
  3
AutoCAD 2000
 90
        0
280
     0
281
     1
  0
CLASS
  1
XRECORD
  2
AcDbXrecord
  3
AutoCAD 2000
 90
        0
280
     0
281
     0
  0
CLASS
  1
LONG_TRANSACTION
  2
AcDbLongTransaction
  3
AutoCAD 2000
 90
        0
280
     0
281
     0
  0
CLASS
  1
LWPOLYLINE
  2
AcDbPolyline
  3
AutoCAD 2000
 90
        0
280
     0
281
     1
  0
CLASS
  1
HATCH
  2
AcDbHatch
  3
AutoCAD 2000
 90
        0
280
     0
281
     1
  0
CLASS
  1
XRECORD
  2
AcDbXrecord
  3
AutoCAD 2000
 90
        0
280
     0
281
     0
  0
CLASS
  1
LONG_TRANSACTION
  2
AcDbLongTransaction
  3
AutoCAD 2000
 90
        0
280
     0
281
     0
  0
CLASS
  1
LWPOLYLINE
  2
AcDbPolyline
  3
AutoCAD 2000
 90
        0
280
     0
281
     1
  0
CLASS
  1
HATCH
  2
AcDbHatch
  3
AutoCAD 2000
 90
        0
280
     0
281
     1
  0
CLASS
  1
XRECORD
  2
AcDbXrecord
  3
AutoCAD 2000
 90
        0
280
     0
281
     0
  0
CLASS
  1
LONG_TRANSACTION
  2
AcDbLongTransaction
  3
AutoCAD 2000
 90
        0
280
     0
281
     0
  0
CLASS
  1
LWPOLYLINE
  2
AcDbPolyline
  3
AutoCAD 2000
 90
        0
280
     0
281
     1
  0
CLASS
  1
HATCH
  2
AcDbHatch
  3
AutoCAD 2000
 90
        0
280
     0
281
     1
  0
CLASS
  1
XRECORD
  2
AcDbXrecord
  3
AutoCAD 2000
 90
        0
280
     0
281
     0
  0
CLASS
  1
LONG_TRANSACTION
  2
AcDbLongTransaction
  3
AutoCAD 2000
 90
        0
280
     0
281
     0
  0
CLASS
  1
LWPOLYLINE
  2
AcDbPolyline
  3
AutoCAD 2000
 90
        0
280
     0
281
     1
  0
CLASS
  1
HATCH
  2
AcDbHatch
  3
AutoCAD 2000
 90
        0
280
     0
281
     1
  0
CLASS
  1
XRECORD
  2
AcDbXrecord
  3
AutoCAD 2000
 90
        0
280
     0
281
     0
  0
CLASS
  1
LONG_TRANSACTION
  2
AcDbLongTransaction
  3
AutoCAD 2000
 90
        0
280
     0
281
     0
  0
CLASS
  1
LWPOLYLINE
  2
AcDbPolyline
  3
AutoCAD 2000
 90
        0
280
     0
281
     1
  0
CLASS
  1
HATCH
  2
AcDbHatch
  3
AutoCAD 2000
 90
        0
280
     0
281
     1
  0
CLASS
  1
XRECORD
  2
AcDbXrecord
  3
AutoCAD 2000
 90
        0
280
     0
281
     0
  0
ENDSEC
  0
SECTION
  2
TABLES
  0
TABLE
  2
VPORT
  5
EF7C85523
330
0
100
AcDbSymbolTable
 70
    10
  0
VPORT
  5
EF7C85567
330
EF7C85523
100
AcDbSymbolTableRecord
100
AcDbViewportTableRecord
  2
2
 70
     0
 10
0.5
 20
0.0
 11
1.0
 21
1.0
 12
0.9240312421264802
 22
1.052650975462766
 13
0.0
 23
0.0
 14
1.0
 24
1.0
 15
10.0
 25
10.0
 16
0.0
 26
0.0
 36
1.0
 17
0.0
 27
0.0
 37
0.0
 40
2.105301950925533
 41
0.8778135048231511
 42
50.0
 43
0.0
 44
0.0
 50
0.0
 51
0.0
 71
     0
 72
   500
 73
     1
 74
     1
 75
     0
 76
     0
 77
     0
 78
     0
  0
VPORT
  5
EF7C85568
330
EF7C85523
100
AcDbSymbolTableRecord
100
AcDbViewportTableRecord
  2
2
 70
     0
 10
0.0
 20
0.0
 11
0.5
 21
1.0
 12
0.9240312421264802
 22
1.052650975462766
 13
0.0
 23
0.0
 14
1.0
 24
1.0
 15
10.0
 25
10.0
 16
0.0
 26
0.0
 36
1.0
 17
0.0
 27
0.0
 37
0.0
 40
2.105301950925533
 41
0.8778135048231511
 42
50.0
 43
0.0
 44
0.0
 50
0.0
 51
0.0
 71
     0
 72
   500
 73
     1
 74
     1
 75
     0
 76
     0
 77
     0
 78
     0
  0
VPORT
  5
EF7C85569
330
EF7C85523
100
AcDbSymbolTableRecord
100
AcDbViewportTableRecord
  2
3
 70
     0
 10
0.0
 20
0.5
 11
1.0
 21
1.0
 12
2.832169994473273
 22
1.052650975462766
 13
0.0
 23
0.0
 14
1.0
 24
1.0
 15
10.0
 25
10.0
 16
0.0
 26
0.0
 36
1.0
 17
0.0
 27
0.0
 37
0.0
 40
2.105301950925533
 41
3.571428571428571
 42
50.0
 43
0.0
 44
0.0
 50
0.0
 51
0.0
 71
     0
 72
   500
 73
     1
 74
     1
 75
     0
 76
     0
 77
     0
 78
     0
  0
VPORT
  5
EF7C8556A
330
EF7C85523
100
AcDbSymbolTableRecord
100
AcDbViewportTableRecord
  2
3
 70
     0
 10
0.0
 20
0.0
 11
1.0
 21
0.5
 12
2.856741679241311
 22
1.052650975462766
 13
0.0
 23
0.0
 14
1.0
 24
1.0
 15
10.0
 25
10.0
 16
0.0
 26
0.0
 36
1.0
 17
0.0
 27
0.0
 37
0.0
 40
2.105301950925533
 41
3.594771241830065
 42
50.0
 43
0.0
 44
0.0
 50
0.0
 51
0.0
 71
     0
 72
   500
 73
     1
 74
     1
 75
     0
 76
     0
 77
     0
 78
     0
  0
VPORT
  5
EF7C8556B
330
EF7C85523
100
AcDbSymbolTableRecord
100
AcDbViewportTableRecord
  2
4
 70
     0
 10
0.5
 20
0.0
 11
1.0
 21
0.5
 12
2.886857516709719
 22
1.052650975462766
 13
0.0
 23
0.0
 14
1.0
 24
1.0
 15
10.0
 25
10.0
 16
0.0
 26
0.0
 36
1.0
 17
0.0
 27
0.0
 37
0.0
 40
4.27520703030907
 41
1.784313725490195
 42
50.0
 43
0.0
 44
0.0
 50
0.0
 51
0.0
 71
     0
 72
   500
 73
     1
 74
     1
 75
     0
 76
     0
 77
     0
 78
     0
  0
VPORT
  5
EF7C8556C
330
EF7C85523
100
AcDbSymbolTableRecord
100
AcDbViewportTableRecord
  2
4
 70
     0
 10
0.5
 20
0.5
 11
1.0
 21
1.0
 12
2.862090274555523
 22
1.052650975462766
 13
0.0
 23
0.0
 14
1.0
 24
1.0
 15
10.0
 25
10.0
 16
0.0
 26
0.0
 36
1.0
 17
0.0
 27
0.0
 37
0.0
 40
4.27520703030907
 41
1.772727272727272
 42
50.0
 43
0.0
 44
0.0
 50
0.0
 51
0.0
 71
     0
 72
   500
 73
     1
 74
     1
 75
     0
 76
     0
 77
     0
 78
     0
  0
VPORT
  5
EF7C8556D
330
EF7C85523
100
AcDbSymbolTableRecord
100
AcDbViewportTableRecord
  2
4
 70
     0
 10
0.0
 20
0.5
 11
0.5
 21
1.0
 12
2.862090274555523
 22
1.052650975462766
 13
0.0
 23
0.0
 14
1.0
 24
1.0
 15
10.0
 25
10.0
 16
0.0
 26
0.0
 36
1.0
 17
0.0
 27
0.0
 37
0.0
 40
4.27520703030907
 41
1.772727272727272
 42
50.0
 43
0.0
 44
0.0
 50
0.0
 51
0.0
 71
     0
 72
   500
 73
     1
 74
     1
 75
     0
 76
     0
 77
     0
 78
     0
  0
VPORT
  5
EF7C8556E
330
EF7C85523
100
AcDbSymbolTableRecord
100
AcDbViewportTableRecord
  2
4
 70
     0
 10
0.0
 20
0.0
 11
0.5
 21
0.5
 12
2.886857516709719
 22
1.052650975462766
 13
0.0
 23
0.0
 14
1.0
 24
1.0
 15
10.0
 25
10.0
 16
0.0
 26
0.0
 36
1.0
 17
0.0
 27
0.0
 37
0.0
 40
4.27520703030907
 41
1.784313725490195
 42
50.0
 43
0.0
 44
0.0
 50
0.0
 51
0.0
 71
     0
 72
   500
 73
     1
 74
     1
 75
     0
 76
     0
 77
     0
 78
     0
  0
VPORT
  5
EF7C892CA
330
EF7C85523
100
AcDbSymbolTableRecord
100
AcDbViewportTableRecord
  2
*ACTIVE
 70
     0
 10
0.0
 20
0.0
 11
1.0
 21
1.0
 12
172.3457089778448
 22
141.4920257662103
 13
0.0
 23
0.0
 14
1.0
 24
1.0
 15
10.0
 25
10.0
 16
0.0
 26
0.0
 36
1.0
 17
0.0
 27
0.0
 37
0.0
 40
286.259624285027
 41
1.771962616822429
 42
50.0
 43
0.0
 44
0.0
 50
0.0
 51
0.0
 71
     0
 72
   500
 73
     1
 74
     0
 75
     0
 76
     0
 77
     0
 78
     0
  0
ENDTAB
  0
TABLE
  2
LTYPE
  5
EF7C85520
330
0
100
AcDbSymbolTable
 70
     4
  0
LTYPE
  5
EF7C8552C
330
EF7C85520
100
AcDbSymbolTableRecord
100
AcDbLinetypeTableRecord
  2
BYBLOCK
 70
     0
  3

 72
    65
 73
     0
 40
0.0
  0
LTYPE
  5
EF7C8552D
330
EF7C85520
100
AcDbSymbolTableRecord
100
AcDbLinetypeTableRecord
  2
BYLAYER
 70
     0
  3

 72
    65
 73
     0
 40
0.0
  0
LTYPE
  5
EF7C8552E
330
EF7C85520
100
AcDbSymbolTableRecord
100
AcDbLinetypeTableRecord
  2
CONTINUOUS
 70
     0
  3
実線
 72
    65
 73
     0
 40
0.0
  0
LTYPE
  5
EF7C85565
330
EF7C85520
100
AcDbSymbolTableRecord
100
AcDbLinetypeTableRecord
  2
PHANTOM
 70
     0
  3
_____ _ _ _____ _ _ _____ _ _ _____ _ _ ____
 72
    65
 73
     6
 40
2.5
 49
1.25
 74
     0
 49
-0.25
 74
     0
 49
0.25
 74
     0
 49
-0.25
 74
     0
 49
0.25
 74
     0
 49
-0.25
 74
     0
  0
LTYPE
  5
EF7C8711F
330
EF7C85520
100
AcDbSymbolTableRecord
100
AcDbLinetypeTableRecord
  2
CENTER
 70
     0
  3
____ _ ____ _ ____ _ ____ _ ____ _ ____ _ ____
 72
    65
 73
     4
 40
2.0
 49
1.25
 74
     0
 49
-0.25
 74
     0
 49
0.25
 74
     0
 49
-0.25
 74
     0
  0
LTYPE
  5
EF7C87AC6
330
EF7C85520
100
AcDbSymbolTableRecord
100
AcDbLinetypeTableRecord
  2
HIDDEN
 70
     0
  3
_ _ _ _ _ _ _ _ _ _ _ _ _ _ _ _ _ _ _ _ _ _ _
 72
    65
 73
     2
 40
0.375
 49
0.25
 74
     0
 49
-0.125
 74
     0
  0
ENDTAB
  0
TABLE
  2
LAYER
  5
EF7C8551D
330
0
100
AcDbSymbolTable
 70
    10
  0
LAYER
  5
EF7C85529
330
EF7C8551D
100
AcDbSymbolTableRecord
100
AcDbLayerTableRecord
  2
0
 70
     0
 62
     6
  6
CONTINUOUS
  0
LAYER
  5
EF7C85574
330
EF7C8551D
100
AcDbSymbolTableRecord
100
AcDbLayerTableRecord
  2
NITEN
 70
     0
 62
     2
  6
PHANTOM
  0
LAYER
  5
EF7C85575
330
EF7C8551D
100
AcDbSymbolTableRecord
100
AcDbLayerTableRecord
  2
HATCH
 70
     0
 62
     4
  6
CONTINUOUS
  0
LAYER
  5
EF7C85576
330
EF7C8551D
100
AcDbSymbolTableRecord
100
AcDbLayerTableRecord
  2
SUNPOU
 70
     0
 62
     3
  6
CONTINUOUS
  0
LAYER
  5
EF7C85577
330
EF7C8551D
100
AcDbSymbolTableRecord
100
AcDbLayerTableRecord
  2
TEXT
 70
     0
 62
     3
  6
CONTINUOUS
  0
LAYER
  5
EF7C85578
330
EF7C8551D
100
AcDbSymbolTableRecord
100
AcDbLayerTableRecord
  2
SAISEN
 70
     0
 62
     4
  6
CONTINUOUS
  0
LAYER
  5
EF7C85579
330
EF7C8551D
100
AcDbSymbolTableRecord
100
AcDbLayerTableRecord
  2
JISSEN
 70
     0
 62
     7
  6
CONTINUOUS
  0
LAYER
  5
EF7C8557D
330
EF7C8551D
100
AcDbSymbolTableRecord
100
AcDbLayerTableRecord
  2
WAKU
 70
     0
 62
     5
  6
CONTINUOUS
  0
LAYER
  5
EF7C87120
330
EF7C8551D
100
AcDbSymbolTableRecord
100
AcDbLayerTableRecord
  2
ITTEN
 70
     0
 62
     1
  6
CENTER
  0
LAYER
  5
EF7C87AC7
330
EF7C8551D
100
AcDbSymbolTableRecord
100
AcDbLayerTableRecord
  2
TENSEN
 70
     0
 62
     2
  6
HIDDEN
  0
ENDTAB
  0
TABLE
  2
STYLE
  5
EF7C8551E
330
0
100
AcDbSymbolTable
 70
     3
  0
STYLE
  5
EF7C8552A
330
EF7C8551E
100
AcDbSymbolTableRecord
100
AcDbTextStyleTableRecord
  2
STANDARD
 70
     0
 40
0.0
 41
1.0
 50
0.0
 71
     0
 42
1.5
  3
SIMPLEX
  4

  0
STYLE
  5
EF7C85558
330
EF7C8551E
100
AcDbSymbolTableRecord
100
AcDbTextStyleTableRecord
  2
K
 70
     0
 40
0.0
 41
1.0
 50
0.0
 71
     0
 42
3.0
  3
ROMANS
  4
BIGFONT
  0
STYLE
  5
EF7C8555B
330
EF7C8551E
100
AcDbSymbolTableRecord
100
AcDbTextStyleTableRecord
  2
BIGFONT
 70
     0
 40
0.0
 41
1.0
 50
0.0
 71
     0
 42
3.0
  3
txt.shx
  4
bigfont
  0
ENDTAB
  0
TABLE
  2
VIEW
  5
EF7C85521
330
0
100
AcDbSymbolTable
 70
     0
  0
ENDTAB
  0
TABLE
  2
UCS
  5
EF7C85522
330
0
100
AcDbSymbolTable
 70
     0
  0
ENDTAB
  0
TABLE
  2
APPID
  5
EF7C85524
330
0
100
AcDbSymbolTable
 70
     1
  0
APPID
  5
EF7C8552B
330
EF7C85524
100
AcDbSymbolTableRecord
100
AcDbRegAppTableRecord
  2
ACAD
 70
     0
  0
ENDTAB
  0
TABLE
  2
DIMSTYLE
  5
EF7C85525
330
0
100
AcDbSymbolTable
 70
     1
  0
DIMSTYLE
105
EF7C85571
330
EF7C85525
100
AcDbSymbolTableRecord
100
AcDbDimStyleTableRecord
  2
IMAO
 70
     0
  3

  4

  5
ARROWANG
  6
ARROWANG
  7
ARROWANG
 40
1.0
 41
1.5
 42
1.0
 43
6.0
 44
1.0
 45
0.0
 46
0.0
 47
495.0
 48
0.0
140
3.0
141
0.0
142
0.0
143
25.4
144
1.0
145
0.0
146
1.0
147
0.09
 71
     0
 72
     0
 73
     0
 74
     0
 75
     0
 76
     0
 77
     1
 78
     8
170
     0
171
     2
172
     1
173
     0
174
     1
175
     0
176
     0
177
     0
178
     0
270
     2
271
     2
272
     2
273
     2
274
     2
340
EF7C8555B
275
     0
280
     0
281
     0
282
     0
283
     1
284
     8
285
     8
286
     8
287
     5
288
     0
  0
ENDTAB
  0
TABLE
  2
BLOCK_RECORD
  5
EF7C8551C
330
0
100
AcDbSymbolTable
 70
    10
  0
BLOCK_RECORD
  5
EF7C85532
102
{ACAD_XDICTIONARY
360
EF7C85D9A
102
}
330
EF7C8551C
100
AcDbSymbolTableRecord
100
AcDbBlockTableRecord
  2
*MODEL_SPACE
  0
BLOCK_RECORD
  5
EF7C8552F
102
{ACAD_XDICTIONARY
360
EF7C85D98
102
}
330
EF7C8551C
100
AcDbSymbolTableRecord
100
AcDbBlockTableRecord
  2
*PAPER_SPACE
  0
BLOCK_RECORD
  5
EF7C85537
330
EF7C8551C
100
AcDbSymbolTableRecord
100
AcDbBlockTableRecord
  2
ARROW
  0
BLOCK_RECORD
  5
EF7C8553B
330
EF7C8551C
100
AcDbSymbolTableRecord
100
AcDbBlockTableRecord
  2
WAKU
  0
BLOCK_RECORD
  5
EF7C8553D
330
EF7C8551C
100
AcDbSymbolTableRecord
100
AcDbBlockTableRecord
  2
*X2
  0
BLOCK_RECORD
  5
EF7C8553E
330
EF7C8551C
100
AcDbSymbolTableRecord
100
AcDbBlockTableRecord
  2
STDGX5
  0
BLOCK_RECORD
  5
EF7C8553F
330
EF7C8551C
100
AcDbSymbolTableRecord
100
AcDbBlockTableRecord
  2
*X4
  0
BLOCK_RECORD
  5
EF7C85540
330
EF7C8551C
100
AcDbSymbolTableRecord
100
AcDbBlockTableRecord
  2
*X5
  0
BLOCK_RECORD
  5
EF7C85541
330
EF7C8551C
100
AcDbSymbolTableRecord
100
AcDbBlockTableRecord
  2
*X6
  0
BLOCK_RECORD
  5
EF7C85542
330
EF7C8551C
100
AcDbSymbolTableRecord
100
AcDbBlockTableRecord
  2
*X7
  0
BLOCK_RECORD
  5
EF7C85543
330
EF7C8551C
100
AcDbSymbolTableRecord
100
AcDbBlockTableRecord
  2
ARROWANG
  0
BLOCK_RECORD
  5
EF7C85544
330
EF7C8551C
100
AcDbSymbolTableRecord
100
AcDbBlockTableRecord
  2
STDR12J
  0
ENDTAB
  0
ENDSEC
  0
SECTION
  2
BLOCKS
  0
BLOCK
  5
EF7C85580
330
EF7C85532
100
AcDbEntity
  8
0
100
AcDbBlockBegin
  2
*MODEL_SPACE
 70
     0
 10
0.0
 20
0.0
 30
0.0
  3
*MODEL_SPACE
  1

  0
ENDBLK
  5
EF7C85581
330
EF7C85532
100
AcDbEntity
  8
0
100
AcDbBlockEnd
  0
BLOCK
  5
EF7C8557E
330
EF7C8552F
100
AcDbEntity
 67
     1
  8
0
100
AcDbBlockBegin
  2
*PAPER_SPACE
 70
     0
 10
0.0
 20
0.0
 30
0.0
  3
*PAPER_SPACE
  1

  0
ENDBLK
  5
EF7C8557F
330
EF7C8552F
100
AcDbEntity
 67
     1
  8
0
100
AcDbBlockEnd
  0
BLOCK
  5
499
330
EF7C85537
100
AcDbEntity
  8
0
100
AcDbBlockBegin
  2
ARROW
 70
     0
 10
1.0
 20
0.5
 30
0.0
  3
ARROW
  1

  0
LINE
  5
49A
330
EF7C85537
100
AcDbEntity
  8
0
100
AcDbLine
 10
1.0
 20
0.5
 30
0.0
 11
-0.5000000000000214
 21
0.0980762113533018
 31
0.0
  0
LINE
  5
49B
330
EF7C85537
100
AcDbEntity
  8
0
100
AcDbLine
 10
0.0
 20
0.5
 30
0.0
 11
1.0
 21
0.5
 31
0.0
  0
LINE
  5
49C
330
EF7C85537
100
AcDbEntity
  8
0
100
AcDbLine
 10
1.0
 20
0.5
 30
0.0
 11
-0.4999999999999574
 21
0.9019237886467408
 31
0.0
  0
ENDBLK
  5
49D
330
EF7C85537
100
AcDbEntity
  8
0
100
AcDbBlockEnd
  0
BLOCK
  5
4A7
330
EF7C8553B
100
AcDbEntity
  8
0
100
AcDbBlockBegin
  2
WAKU
 70
     0
 10
0.0
 20
0.0
 30
0.0
  3
WAKU
  1

  0
LINE
  5
4A8
330
EF7C8553B
100
AcDbEntity
  8
WAKU
100
AcDbLine
 10
0.999999996
 20
0.0
 30
0.0
 11
0.999999996
 21
0.9999999999999998
 31
0.0
  0
LINE
  5
4A9
330
EF7C8553B
100
AcDbEntity
  8
WAKU
100
AcDbLine
 10
0.0
 20
0.9999999999999998
 30
0.0
 11
0.999999996
 21
0.9999999999999998
 31
0.0
  0
LINE
  5
4AA
330
EF7C8553B
100
AcDbEntity
  8
WAKU
100
AcDbLine
 10
0.999999996
 20
0.0
 30
0.0
 11
0.0
 21
0.0
 31
0.0
  0
LINE
  5
4AB
330
EF7C8553B
100
AcDbEntity
  8
WAKU
100
AcDbLine
 10
0.0
 20
0.0
 30
0.0
 11
0.0
 21
0.9999999999999998
 31
0.0
  0
ENDBLK
  5
4AC
330
EF7C8553B
100
AcDbEntity
  8
0
100
AcDbBlockEnd
  0
BLOCK
  5
2764
330
EF7C8553D
100
AcDbEntity
  8
0
100
AcDbBlockBegin
  2
*X2
 70
     1
 10
0.0
 20
0.0
 30
0.0
  3
*X2
  1

  0
ENDBLK
  5
2765
330
EF7C8553D
100
AcDbEntity
  8
0
100
AcDbBlockEnd
  0
BLOCK
  5
2766
330
EF7C8553E
100
AcDbEntity
  8
0
100
AcDbBlockBegin
  2
STDGX5
 70
     0
 10
0.0
 20
0.0
 30
0.0
  3
STDGX5
  1

  0
ENDBLK
  5
2767
330
EF7C8553E
100
AcDbEntity
  8
0
100
AcDbBlockEnd
  0
BLOCK
  5
2F5A
330
EF7C8553F
100
AcDbEntity
  8
0
100
AcDbBlockBegin
  2
*X4
 70
     1
 10
0.0
 20
0.0
 30
0.0
  3
*X4
  1

  0
ENDBLK
  5
2F5B
330
EF7C8553F
100
AcDbEntity
  8
0
100
AcDbBlockEnd
  0
BLOCK
  5
32BB
330
EF7C85540
100
AcDbEntity
  8
0
100
AcDbBlockBegin
  2
*X5
 70
     1
 10
0.0
 20
0.0
 30
0.0
  3
*X5
  1

  0
ENDBLK
  5
32BC
330
EF7C85540
100
AcDbEntity
  8
0
100
AcDbBlockEnd
  0
BLOCK
  5
372F
330
EF7C85541
100
AcDbEntity
  8
0
100
AcDbBlockBegin
  2
*X6
 70
     1
 10
0.0
 20
0.0
 30
0.0
  3
*X6
  1

  0
ENDBLK
  5
3730
330
EF7C85541
100
AcDbEntity
  8
0
100
AcDbBlockEnd
  0
BLOCK
  5
3A6D
330
EF7C85542
100
AcDbEntity
  8
0
100
AcDbBlockBegin
  2
*X7
 70
     1
 10
0.0
 20
0.0
 30
0.0
  3
*X7
  1

  0
ENDBLK
  5
3A6E
330
EF7C85542
100
AcDbEntity
  8
0
100
AcDbBlockEnd
  0
BLOCK
  5
4CC9
330
EF7C85543
100
AcDbEntity
  8
0
100
AcDbBlockBegin
  2
ARROWANG
 70
     0
 10
0.0
 20
0.0
 30
0.0
  3
ARROWANG
  1

  0
LINE
  5
4CCA
330
EF7C85543
100
AcDbEntity
  8
SUNPOU
100
AcDbLine
 10
0.0
 20
0.0
 30
0.0
 11
-1.499999999999957
 21
0.4019237886467409
 31
0.0
  0
LINE
  5
4CCB
330
EF7C85543
100
AcDbEntity
  8
SUNPOU
100
AcDbLine
 10
0.0
 20
0.0
 30
0.0
 11
-1.500000000000028
 21
-0.4019237886467124
 31
0.0
  0
ENDBLK
  5
4CCC
330
EF7C85543
100
AcDbEntity
  8
0
100
AcDbBlockEnd
  0
BLOCK
  5
4CCD
330
EF7C85544
100
AcDbEntity
  8
0
100
AcDbBlockBegin
  2
STDR12J
 70
     0
 10
0.0
 20
0.0
 30
0.0
  3
STDR12J
  1

  0
ENDBLK
  5
4CF2
330
EF7C85544
100
AcDbEntity
  8
0
100
AcDbBlockEnd
  0
ENDSEC
  0
SECTION
  2
ENTITIES
  0
TEXT
  5
1
330
EF7C85532
100
AcDbEntity
  8
SUNPOU
100
AcDbText
 10
95.05869565217389
 20
43.7966872748706
 30
0.0
 40
1.5
  1
                          
100
AcDbText
  0
TEXT
  5
2
330
EF7C85532
100
AcDbEntity
  8
SUNPOU
100
AcDbText
 10
332.2793466870868
 20
21.8983436374353
 30
0.0
 40
0.75
  1
                          
100
AcDbText
  0
TEXT
  5
1A
330
EF7C85532
100
AcDbEntity
  8
SUNPOU
100
AcDbText
 10
289.9834441000535
 20
43.7966872748706
 30
0.0
 40
1.5
  1
                          
100
AcDbText
  0
TEXT
  5
1B
330
EF7C85532
100
AcDbEntity
  8
SUNPOU
100
AcDbText
 10
527.2040951349665
 20
21.8983436374353
 30
0.0
 40
0.75
  1
                          
100
AcDbText
  0
TEXT
  5
1C
330
EF7C85532
100
AcDbEntity
  8
SUNPOU
100
AcDbText
 10
490.6272568090836
 20
43.79668727487057
 30
0.0
 40
1.5
  1
                          
100
AcDbText
  0
TEXT
  5
1D
330
EF7C85532
100
AcDbEntity
  8
SUNPOU
100
AcDbText
 10
727.8479078439966
 20
21.89834363743527
 30
0.0
 40
0.75
  1
                          
100
AcDbText
  0
INSERT
  5
1E
330
EF7C85532
100
AcDbEntity
  8
HATCH
100
AcDbBlockReference
  2
*X2
 10
194.9247484478796
 20
0.0
 30
0.0
  0
TEXT
  5
1F
330
EF7C85532
100
AcDbEntity
  8
SUNPOU
100
AcDbText
 10
493.0101992368964
 20
43.7966872748706
 30
0.0
 40
1.5
  1
                          
100
AcDbText
  0
TEXT
  5
20
330
EF7C85532
100
AcDbEntity
  8
SUNPOU
100
AcDbText
 10
730.2308502718094
 20
21.8983436374353
 30
0.0
 40
0.75
  1
                          
100
AcDbText
  0
TEXT
  5
21
330
EF7C85532
100
AcDbEntity
  8
SUNPOU
100
AcDbText
 10
482.0486607753579
 20
43.7966872748706
 30
0.0
 40
1.5
  1
                          
100
AcDbText
  0
TEXT
  5
22
330
EF7C85532
100
AcDbEntity
  8
SUNPOU
100
AcDbText
 10
719.269311810271
 20
21.8983436374353
 30
0.0
 40
0.75
  1
                          
100
AcDbText
  0
INSERT
  5
25
330
EF7C85532
100
AcDbEntity
  8
JISSEN
100
AcDbBlockReference
  2
STDGX5
 10
0.0
 20
0.0
 30
0.0
  0
TEXT
  5
60
330
EF7C85532
100
AcDbEntity
  8
SUNPOU
100
AcDbText
 10
274.0586949361738
 20
43.7966872748706
 30
0.0
 40
1.5
  1
                          
100
AcDbText
  0
TEXT
  5
61
330
EF7C85532
100
AcDbEntity
  8
SUNPOU
100
AcDbText
 10
511.2793459710869
 20
21.8983436374353
 30
0.0
 40
0.75
  1
                          
100
AcDbText
  0
TEXT
  5
62
330
EF7C85532
100
AcDbEntity
  8
SUNPOU
100
AcDbText
 10
474.702507645204
 20
43.79668727487057
 30
0.0
 40
1.5
  1
                          
100
AcDbText
  0
TEXT
  5
63
330
EF7C85532
100
AcDbEntity
  8
SUNPOU
100
AcDbText
 10
711.923158680117
 20
21.89834363743527
 30
0.0
 40
0.75
  1
                          
100
AcDbText
  0
INSERT
  5
64
330
EF7C85532
100
AcDbEntity
  8
HATCH
100
AcDbBlockReference
  2
*X4
 10
178.999999284
 20
0.0
 30
0.0
  0
TEXT
  5
65
330
EF7C85532
100
AcDbEntity
  8
SUNPOU
100
AcDbText
 10
477.0854500730167
 20
43.7966872748706
 30
0.0
 40
1.5
  1
                          
100
AcDbText
  0
TEXT
  5
66
330
EF7C85532
100
AcDbEntity
  8
SUNPOU
100
AcDbText
 10
714.3061011079298
 20
21.8983436374353
 30
0.0
 40
0.75
  1
                          
100
AcDbText
  0
TEXT
  5
67
330
EF7C85532
100
AcDbEntity
  8
SUNPOU
100
AcDbText
 10
466.1239116114783
 20
43.7966872748706
 30
0.0
 40
1.5
  1
                          
100
AcDbText
  0
TEXT
  5
68
330
EF7C85532
100
AcDbEntity
  8
SUNPOU
100
AcDbText
 10
703.3445626463913
 20
21.8983436374353
 30
0.0
 40
0.75
  1
                          
100
AcDbText
  0
INSERT
  5
69
330
EF7C85532
100
AcDbEntity
  8
TEXT
100
AcDbBlockReference
  2
STDGX5
 10
178.999999284
 20
0.0
 30
0.0
  0
TEXT
  5
6A
330
EF7C85532
100
AcDbEntity
  8
SUNPOU
100
AcDbText
 10
453.0586949361739
 20
43.7966872748706
 30
0.0
 40
1.5
  1
                          
100
AcDbText
  0
TEXT
  5
6B
330
EF7C85532
100
AcDbEntity
  8
SUNPOU
100
AcDbText
 10
690.279345971087
 20
21.8983436374353
 30
0.0
 40
0.75
  1
                          
100
AcDbText
  0
TEXT
  5
6C
330
EF7C85532
100
AcDbEntity
  8
SUNPOU
100
AcDbText
 10
647.9834433840535
 20
43.7966872748706
 30
0.0
 40
1.5
  1
                          
100
AcDbText
  0
TEXT
  5
6D
330
EF7C85532
100
AcDbEntity
  8
SUNPOU
100
AcDbText
 10
885.2040944189665
 20
21.8983436374353
 30
0.0
 40
0.75
  1
                          
100
AcDbText
  0
TEXT
  5
6E
330
EF7C85532
100
AcDbEntity
  8
SUNPOU
100
AcDbText
 10
848.6272560930835
 20
43.79668727487057
 30
0.0
 40
1.5
  1
                          
100
AcDbText
  0
TEXT
  5
6F
330
EF7C85532
100
AcDbEntity
  8
SUNPOU
100
AcDbText
 10
1085.847907127996
 20
21.89834363743527
 30
0.0
 40
0.75
  1
                          
100
AcDbText
  0
INSERT
  5
70
330
EF7C85532
100
AcDbEntity
  8
HATCH
100
AcDbBlockReference
  2
*X5
 10
552.9247477318797
 20
0.0
 30
0.0
  0
TEXT
  5
71
330
EF7C85532
100
AcDbEntity
  8
SUNPOU
100
AcDbText
 10
851.0101985208963
 20
43.7966872748706
 30
0.0
 40
1.5
  1
                          
100
AcDbText
  0
TEXT
  5
72
330
EF7C85532
100
AcDbEntity
  8
SUNPOU
100
AcDbText
 10
1088.230849555809
 20
21.8983436374353
 30
0.0
 40
0.75
  1
                          
100
AcDbText
  0
TEXT
  5
73
330
EF7C85532
100
AcDbEntity
  8
SUNPOU
100
AcDbText
 10
840.048660059358
 20
43.7966872748706
 30
0.0
 40
1.5
  1
                          
100
AcDbText
  0
TEXT
  5
74
330
EF7C85532
100
AcDbEntity
  8
SUNPOU
100
AcDbText
 10
1077.269311094271
 20
21.8983436374353
 30
0.0
 40
0.75
  1
                          
100
AcDbText
  0
INSERT
  5
75
330
EF7C85532
100
AcDbEntity
  8
JISSEN
100
AcDbBlockReference
  2
STDGX5
 10
357.999999284
 20
0.0
 30
0.0
  0
TEXT
  5
76
330
EF7C85532
100
AcDbEntity
  8
SUNPOU
100
AcDbText
 10
453.0586949361739
 20
43.7966872748706
 30
0.0
 40
1.5
  1
                          
100
AcDbText
  0
TEXT
  5
77
330
EF7C85532
100
AcDbEntity
  8
SUNPOU
100
AcDbText
 10
690.279345971087
 20
21.8983436374353
 30
0.0
 40
0.75
  1
                          
100
AcDbText
  0
TEXT
  5
78
330
EF7C85532
100
AcDbEntity
  8
SUNPOU
100
AcDbText
 10
647.9834433840535
 20
43.7966872748706
 30
0.0
 40
1.5
  1
                          
100
AcDbText
  0
TEXT
  5
79
330
EF7C85532
100
AcDbEntity
  8
SUNPOU
100
AcDbText
 10
885.2040944189665
 20
21.8983436374353
 30
0.0
 40
0.75
  1
                          
100
AcDbText
  0
TEXT
  5
7A
330
EF7C85532
100
AcDbEntity
  8
SUNPOU
100
AcDbText
 10
848.6272560930835
 20
43.79668727487057
 30
0.0
 40
1.5
  1
                          
100
AcDbText
  0
TEXT
  5
7B
330
EF7C85532
100
AcDbEntity
  8
SUNPOU
100
AcDbText
 10
1085.847907127996
 20
21.89834363743527
 30
0.0
 40
0.75
  1
                          
100
AcDbText
  0
INSERT
  5
7C
330
EF7C85532
100
AcDbEntity
  8
HATCH
100
AcDbBlockReference
  2
*X6
 10
552.9247477318797
 20
0.0
 30
0.0
  0
TEXT
  5
7D
330
EF7C85532
100
AcDbEntity
  8
SUNPOU
100
AcDbText
 10
851.0101985208963
 20
43.7966872748706
 30
0.0
 40
1.5
  1
                          
100
AcDbText
  0
TEXT
  5
7E
330
EF7C85532
100
AcDbEntity
  8
SUNPOU
100
AcDbText
 10
1088.230849555809
 20
21.8983436374353
 30
0.0
 40
0.75
  1
                          
100
AcDbText
  0
TEXT
  5
7F
330
EF7C85532
100
AcDbEntity
  8
SUNPOU
100
AcDbText
 10
840.048660059358
 20
43.7966872748706
 30
0.0
 40
1.5
  1
                          
100
AcDbText
  0
TEXT
  5
80
330
EF7C85532
100
AcDbEntity
  8
SUNPOU
100
AcDbText
 10
1077.269311094271
 20
21.8983436374353
 30
0.0
 40
0.75
  1
                          
100
AcDbText
  0
INSERT
  5
81
330
EF7C85532
100
AcDbEntity
  8
JISSEN
100
AcDbBlockReference
  2
STDGX5
 10
357.999999284
 20
0.0
 30
0.0
  0
TEXT
  5
82
330
EF7C85532
100
AcDbEntity
  8
SUNPOU
100
AcDbText
 10
632.0586942201739
 20
43.7966872748706
 30
0.0
 40
1.5
  1
                          
100
AcDbText
  0
TEXT
  5
83
330
EF7C85532
100
AcDbEntity
  8
SUNPOU
100
AcDbText
 10
869.2793452550871
 20
21.8983436374353
 30
0.0
 40
0.75
  1
                          
100
AcDbText
  0
TEXT
  5
84
330
EF7C85532
100
AcDbEntity
  8
SUNPOU
100
AcDbText
 10
826.9834426680535
 20
43.7966872748706
 30
0.0
 40
1.5
  1
                          
100
AcDbText
  0
TEXT
  5
85
330
EF7C85532
100
AcDbEntity
  8
SUNPOU
100
AcDbText
 10
1064.204093702966
 20
21.8983436374353
 30
0.0
 40
0.75
  1
                          
100
AcDbText
  0
TEXT
  5
86
330
EF7C85532
100
AcDbEntity
  8
SUNPOU
100
AcDbText
 10
1027.627255377083
 20
43.79668727487057
 30
0.0
 40
1.5
  1
                          
100
AcDbText
  0
TEXT
  5
87
330
EF7C85532
100
AcDbEntity
  8
SUNPOU
100
AcDbText
 10
1264.847906411996
 20
21.89834363743527
 30
0.0
 40
0.75
  1
                          
100
AcDbText
  0
INSERT
  5
88
330
EF7C85532
100
AcDbEntity
  8
HATCH
100
AcDbBlockReference
  2
*X7
 10
731.9247470158797
 20
0.0
 30
0.0
  0
TEXT
  5
89
330
EF7C85532
100
AcDbEntity
  8
SUNPOU
100
AcDbText
 10
1030.010197804896
 20
43.7966872748706
 30
0.0
 40
1.5
  1
                          
100
AcDbText
  0
TEXT
  5
8A
330
EF7C85532
100
AcDbEntity
  8
SUNPOU
100
AcDbText
 10
1267.230848839809
 20
21.8983436374353
 30
0.0
 40
0.75
  1
                          
100
AcDbText
  0
TEXT
  5
8B
330
EF7C85532
100
AcDbEntity
  8
SUNPOU
100
AcDbText
 10
1019.048659343358
 20
43.7966872748706
 30
0.0
 40
1.5
  1
                          
100
AcDbText
  0
TEXT
  5
8C
330
EF7C85532
100
AcDbEntity
  8
SUNPOU
100
AcDbText
 10
1256.269310378271
 20
21.8983436374353
 30
0.0
 40
0.75
  1
                          
100
AcDbText
  0
INSERT
  5
8D
330
EF7C85532
100
AcDbEntity
  8
JISSEN
100
AcDbBlockReference
  2
STDGX5
 10
536.999998568
 20
0.0
 30
0.0
  0
INSERT
  5
8E
330
EF7C85532
100
AcDbEntity
  8
SUNPOU
100
AcDbBlockReference
  2
STDGX5
 10
739.0804232644236
 20
50.83533235670902
 30
0.0
 41
0.5
 42
0.5
 43
0.5
  0
INSERT
  5
8F
330
EF7C85532
100
AcDbEntity
  8
SUNPOU
100
AcDbBlockReference
  2
STDGX5
 10
726.2208210623692
 20
105.0763138619288
 30
0.0
 41
0.5
 42
0.5
 43
0.5
  0
INSERT
  5
90
330
EF7C85532
100
AcDbEntity
  8
HATCH
100
AcDbBlockReference
  2
STDGX5
 10
852.3985550581901
 20
151.7065097967401
 30
0.0
 41
0.5
 42
0.5
 43
0.5
  0
INSERT
  5
91
330
EF7C85532
100
AcDbEntity
  8
HATCH
100
AcDbBlockReference
  2
STDGX5
 10
866.6806796277285
 20
102.7017487639613
 30
0.0
 41
0.5
 42
0.5
 43
0.5
  0
INSERT
  5
92
330
EF7C85532
100
AcDbEntity
  8
TEXT
100
AcDbBlockReference
  2
STDGX5
 10
970.3434408521969
 20
102.8213468229236
 30
0.0
 41
0.5
 42
0.5
 43
0.5
  0
INSERT
  5
93
330
EF7C85532
100
AcDbEntity
  8
SUNPOU
100
AcDbBlockReference
  2
STDGX5
 10
996.1728907397869
 20
174.5475645486174
 30
0.0
 41
0.5
 42
0.5
 43
0.5
  0
INSERT
  5
94
330
EF7C85532
100
AcDbEntity
  8
TEXT
100
AcDbBlockReference
  2
STDGX5
 10
725.7513886810995
 20
124.5860190441302
 30
0.0
 41
0.5
 42
0.5
 43
0.5
  0
INSERT
  5
95
330
EF7C85532
100
AcDbEntity
  8
HATCH
100
AcDbBlockReference
  2
STDGX5
 10
777.1755722656421
 20
145.5222028932424
 30
0.0
 41
0.5
 42
0.5
 43
0.5
  0
INSERT
  5
96
330
EF7C85532
100
AcDbEntity
  8
SUNPOU
100
AcDbBlockReference
  2
STDGX5
 10
846.1963575359604
 20
112.6957974729892
 30
0.0
 41
0.5
 42
0.5
 43
0.5
  0
INSERT
  5
97
330
EF7C85532
100
AcDbEntity
  8
SUNPOU
100
AcDbBlockReference
  2
STDGX5
 10
916.6681156211122
 20
121.7330617103085
 30
0.0
 41
0.5
 42
0.5
 43
0.5
  0
INSERT
  5
98
330
EF7C85532
100
AcDbEntity
  8
TEXT
100
AcDbBlockReference
  2
STDGX5
 10
983.7969461426769
 20
84.61852224867081
 30
0.0
 41
0.5
 42
0.5
 43
0.5
  0
INSERT
  5
99
330
EF7C85532
100
AcDbEntity
  8
HATCH
100
AcDbBlockReference
  2
STDGX5
 10
974.2802715042099
 20
136.4849386559231
 30
0.0
 41
0.5
 42
0.5
 43
0.5
  0
INSERT
  5
9A
330
EF7C85532
100
AcDbEntity
  8
SUNPOU
100
AcDbBlockReference
  2
STDGX5
 10
749.7834008663489
 20
95.14721172234004
 30
0.0
 41
0.5
 42
0.5
 43
0.5
  0
INSERT
  5
9B
330
EF7C85532
100
AcDbEntity
  8
SUNPOU
100
AcDbBlockReference
  2
STDGX5
 10
736.9237986642947
 20
149.3881932275598
 30
0.0
 41
0.5
 42
0.5
 43
0.5
  0
INSERT
  5
9C
330
EF7C85532
100
AcDbEntity
  8
HATCH
100
AcDbBlockReference
  2
STDGX5
 10
863.1015326601156
 20
196.0183891623711
 30
0.0
 41
0.5
 42
0.5
 43
0.5
  0
INSERT
  5
9D
330
EF7C85532
100
AcDbEntity
  8
HATCH
100
AcDbBlockReference
  2
STDGX5
 10
877.3836572296538
 20
147.0136281295923
 30
0.0
 41
0.5
 42
0.5
 43
0.5
  0
INSERT
  5
9E
330
EF7C85532
100
AcDbEntity
  8
TEXT
100
AcDbBlockReference
  2
STDGX5
 10
981.0464184541224
 20
147.1332261885546
 30
0.0
 41
0.5
 42
0.5
 43
0.5
  0
INSERT
  5
9F
330
EF7C85532
100
AcDbEntity
  8
SUNPOU
100
AcDbBlockReference
  2
STDGX5
 10
1006.875868341712
 20
218.8594439142484
 30
0.0
 41
0.5
 42
0.5
 43
0.5
  0
INSERT
  5
A0
330
EF7C85532
100
AcDbEntity
  8
TEXT
100
AcDbBlockReference
  2
STDGX5
 10
736.4543662830251
 20
168.8978984097612
 30
0.0
 41
0.5
 42
0.5
 43
0.5
  0
INSERT
  5
A1
330
EF7C85532
100
AcDbEntity
  8
HATCH
100
AcDbBlockReference
  2
STDGX5
 10
787.8785498675677
 20
189.8340822588735
 30
0.0
 41
0.5
 42
0.5
 43
0.5
  0
INSERT
  5
A2
330
EF7C85532
100
AcDbEntity
  8
SUNPOU
100
AcDbBlockReference
  2
STDGX5
 10
856.899335137886
 20
157.0076768386202
 30
0.0
 41
0.5
 42
0.5
 43
0.5
  0
INSERT
  5
A3
330
EF7C85532
100
AcDbEntity
  8
SUNPOU
100
AcDbBlockReference
  2
STDGX5
 10
927.3710932230379
 20
166.0449410759395
 30
0.0
 41
0.5
 42
0.5
 43
0.5
  0
INSERT
  5
A4
330
EF7C85532
100
AcDbEntity
  8
TEXT
100
AcDbBlockReference
  2
STDGX5
 10
994.4999237446024
 20
128.9304016143018
 30
0.0
 41
0.5
 42
0.5
 43
0.5
  0
INSERT
  5
A5
330
EF7C85532
100
AcDbEntity
  8
HATCH
100
AcDbBlockReference
  2
STDGX5
 10
984.9832491061354
 20
180.7968180215541
 30
0.0
 41
0.5
 42
0.5
 43
0.5
  0
TEXT
  5
DE
330
EF7C85532
100
AcDbEntity
  8
SUNPOU
100
AcDbText
 10
274.0586949361738
 20
43.7966872748706
 30
0.0
 40
1.5
  1
                          
100
AcDbText
  0
TEXT
  5
145
330
EF7C85532
100
AcDbEntity
  8
SUNPOU
100
AcDbText
 10
511.2793459710869
 20
21.8983436374353
 30
0.0
 40
0.75
  1
                          
100
AcDbText
  0
TEXT
  5
265
330
EF7C85532
100
AcDbEntity
  8
SUNPOU
100
AcDbText
 10
474.702507645204
 20
43.79668727487057
 30
0.0
 40
1.5
  1
                          
100
AcDbText
  0
TEXT
  5
266
330
EF7C85532
100
AcDbEntity
  8
SUNPOU
100
AcDbText
 10
711.923158680117
 20
21.89834363743527
 30
0.0
 40
0.75
  1
                          
100
AcDbText
  0
INSERT
  5
2F7
330
EF7C85532
100
AcDbEntity
  8
HATCH
100
AcDbBlockReference
  2
*X4
 10
178.999999284
 20
0.0
 30
0.0
  0
TEXT
  5
31A
330
EF7C85532
100
AcDbEntity
  8
SUNPOU
100
AcDbText
 10
477.0854500730167
 20
43.7966872748706
 30
0.0
 40
1.5
  1
                          
100
AcDbText
  0
TEXT
  5
31C
330
EF7C85532
100
AcDbEntity
  8
SUNPOU
100
AcDbText
 10
714.3061011079298
 20
21.8983436374353
 30
0.0
 40
0.75
  1
                          
100
AcDbText
  0
TEXT
  5
3A6
330
EF7C85532
100
AcDbEntity
  8
TEXT
100
AcDbText
 10
100.9999992839998
 20
244.9999999999999
 30
0.0
 40
3.0
  1
 
  7
K
100
AcDbText
  0
TEXT
  5
3AB
330
EF7C85532
100
AcDbEntity
  8
SUNPOU
100
AcDbText
 10
466.1239116114783
 20
43.7966872748706
 30
0.0
 40
1.5
  1
                          
100
AcDbText
  0
TEXT
  5
3AC
330
EF7C85532
100
AcDbEntity
  8
SUNPOU
100
AcDbText
 10
703.3445626463913
 20
21.8983436374353
 30
0.0
 40
0.75
  1
                          
100
AcDbText
  0
INSERT
  5
3F6
330
EF7C85532
100
AcDbEntity
  8
TEXT
100
AcDbBlockReference
  2
STDGX5
 10
178.999999284
 20
0.0
 30
0.0
  0
TEXT
  5
3F7
330
EF7C85532
100
AcDbEntity
  8
SUNPOU
100
AcDbText
 10
453.0586949361739
 20
43.7966872748706
 30
0.0
 40
1.5
  1
                          
100
AcDbText
  0
TEXT
  5
3F8
330
EF7C85532
100
AcDbEntity
  8
SUNPOU
100
AcDbText
 10
690.279345971087
 20
21.8983436374353
 30
0.0
 40
0.75
  1
                          
100
AcDbText
  0
TEXT
  5
3F9
330
EF7C85532
100
AcDbEntity
  8
SUNPOU
100
AcDbText
 10
647.9834433840535
 20
43.7966872748706
 30
0.0
 40
1.5
  1
                          
100
AcDbText
  0
TEXT
  5
3FA
330
EF7C85532
100
AcDbEntity
  8
SUNPOU
100
AcDbText
 10
885.2040944189665
 20
21.8983436374353
 30
0.0
 40
0.75
  1
                          
100
AcDbText
  0
TEXT
  5
3FB
330
EF7C85532
100
AcDbEntity
  8
SUNPOU
100
AcDbText
 10
848.6272560930835
 20
43.79668727487057
 30
0.0
 40
1.5
  1
                          
100
AcDbText
  0
TEXT
  5
3FC
330
EF7C85532
100
AcDbEntity
  8
SUNPOU
100
AcDbText
 10
1085.847907127996
 20
21.89834363743527
 30
0.0
 40
0.75
  1
                          
100
AcDbText
  0
INSERT
  5
3FD
330
EF7C85532
100
AcDbEntity
  8
HATCH
100
AcDbBlockReference
  2
*X5
 10
552.9247477318797
 20
0.0
 30
0.0
  0
TEXT
  5
3FE
330
EF7C85532
100
AcDbEntity
  8
SUNPOU
100
AcDbText
 10
851.0101985208963
 20
43.7966872748706
 30
0.0
 40
1.5
  1
                          
100
AcDbText
  0
TEXT
  5
3FF
330
EF7C85532
100
AcDbEntity
  8
SUNPOU
100
AcDbText
 10
1088.230849555809
 20
21.8983436374353
 30
0.0
 40
0.75
  1
                          
100
AcDbText
  0
TEXT
  5
400
330
EF7C85532
100
AcDbEntity
  8
SUNPOU
100
AcDbText
 10
840.048660059358
 20
43.7966872748706
 30
0.0
 40
1.5
  1
                          
100
AcDbText
  0
TEXT
  5
401
330
EF7C85532
100
AcDbEntity
  8
SUNPOU
100
AcDbText
 10
1077.269311094271
 20
21.8983436374353
 30
0.0
 40
0.75
  1
                          
100
AcDbText
  0
INSERT
  5
402
330
EF7C85532
100
AcDbEntity
  8
JISSEN
100
AcDbBlockReference
  2
STDGX5
 10
357.999999284
 20
0.0
 30
0.0
  0
TEXT
  5
409
330
EF7C85532
100
AcDbEntity
  8
SUNPOU
100
AcDbText
 10
453.0586949361739
 20
43.7966872748706
 30
0.0
 40
1.5
  1
                          
100
AcDbText
  0
TEXT
  5
40A
330
EF7C85532
100
AcDbEntity
  8
SUNPOU
100
AcDbText
 10
690.279345971087
 20
21.8983436374353
 30
0.0
 40
0.75
  1
                          
100
AcDbText
  0
TEXT
  5
41B
330
EF7C85532
100
AcDbEntity
  8
SUNPOU
100
AcDbText
 10
647.9834433840535
 20
43.7966872748706
 30
0.0
 40
1.5
  1
                          
100
AcDbText
  0
TEXT
  5
41C
330
EF7C85532
100
AcDbEntity
  8
SUNPOU
100
AcDbText
 10
885.2040944189665
 20
21.8983436374353
 30
0.0
 40
0.75
  1
                          
100
AcDbText
  0
TEXT
  5
41D
330
EF7C85532
100
AcDbEntity
  8
SUNPOU
100
AcDbText
 10
848.6272560930835
 20
43.79668727487057
 30
0.0
 40
1.5
  1
                          
100
AcDbText
  0
TEXT
  5
41E
330
EF7C85532
100
AcDbEntity
  8
SUNPOU
100
AcDbText
 10
1085.847907127996
 20
21.89834363743527
 30
0.0
 40
0.75
  1
                          
100
AcDbText
  0
INSERT
  5
41F
330
EF7C85532
100
AcDbEntity
  8
HATCH
100
AcDbBlockReference
  2
*X6
 10
552.9247477318797
 20
0.0
 30
0.0
  0
TEXT
  5
420
330
EF7C85532
100
AcDbEntity
  8
SUNPOU
100
AcDbText
 10
851.0101985208963
 20
43.7966872748706
 30
0.0
 40
1.5
  1
                          
100
AcDbText
  0
TEXT
  5
421
330
EF7C85532
100
AcDbEntity
  8
SUNPOU
100
AcDbText
 10
1088.230849555809
 20
21.8983436374353
 30
0.0
 40
0.75
  1
                          
100
AcDbText
  0
TEXT
  5
422
330
EF7C85532
100
AcDbEntity
  8
SUNPOU
100
AcDbText
 10
840.048660059358
 20
43.7966872748706
 30
0.0
 40
1.5
  1
                          
100
AcDbText
  0
TEXT
  5
423
330
EF7C85532
100
AcDbEntity
  8
SUNPOU
100
AcDbText
 10
1077.269311094271
 20
21.8983436374353
 30
0.0
 40
0.75
  1
                          
100
AcDbText
  0
INSERT
  5
424
330
EF7C85532
100
AcDbEntity
  8
JISSEN
100
AcDbBlockReference
  2
STDGX5
 10
357.999999284
 20
0.0
 30
0.0
  0
TEXT
  5
425
330
EF7C85532
100
AcDbEntity
  8
SUNPOU
100
AcDbText
 10
632.0586942201739
 20
43.7966872748706
 30
0.0
 40
1.5
  1
                          
100
AcDbText
  0
TEXT
  5
426
330
EF7C85532
100
AcDbEntity
  8
SUNPOU
100
AcDbText
 10
869.2793452550871
 20
21.8983436374353
 30
0.0
 40
0.75
  1
                          
100
AcDbText
  0
TEXT
  5
427
330
EF7C85532
100
AcDbEntity
  8
SUNPOU
100
AcDbText
 10
826.9834426680535
 20
43.7966872748706
 30
0.0
 40
1.5
  1
                          
100
AcDbText
  0
TEXT
  5
428
330
EF7C85532
100
AcDbEntity
  8
SUNPOU
100
AcDbText
 10
1064.204093702966
 20
21.8983436374353
 30
0.0
 40
0.75
  1
                          
100
AcDbText
  0
TEXT
  5
429
330
EF7C85532
100
AcDbEntity
  8
SUNPOU
100
AcDbText
 10
1027.627255377083
 20
43.79668727487057
 30
0.0
 40
1.5
  1
                          
100
AcDbText
  0
TEXT
  5
42A
330
EF7C85532
100
AcDbEntity
  8
SUNPOU
100
AcDbText
 10
1264.847906411996
 20
21.89834363743527
 30
0.0
 40
0.75
  1
                          
100
AcDbText
  0
INSERT
  5
42B
330
EF7C85532
100
AcDbEntity
  8
HATCH
100
AcDbBlockReference
  2
*X7
 10
731.9247470158797
 20
0.0
 30
0.0
  0
TEXT
  5
42C
330
EF7C85532
100
AcDbEntity
  8
SUNPOU
100
AcDbText
 10
1030.010197804896
 20
43.7966872748706
 30
0.0
 40
1.5
  1
                          
100
AcDbText
  0
TEXT
  5
42D
330
EF7C85532
100
AcDbEntity
  8
SUNPOU
100
AcDbText
 10
1267.230848839809
 20
21.8983436374353
 30
0.0
 40
0.75
  1
                          
100
AcDbText
  0
TEXT
  5
42E
330
EF7C85532
100
AcDbEntity
  8
SUNPOU
100
AcDbText
 10
1019.048659343358
 20
43.7966872748706
 30
0.0
 40
1.5
  1
                          
100
AcDbText
  0
TEXT
  5
42F
330
EF7C85532
100
AcDbEntity
  8
SUNPOU
100
AcDbText
 10
1256.269310378271
 20
21.8983436374353
 30
0.0
 40
0.75
  1
                          
100
AcDbText
  0
INSERT
  5
430
330
EF7C85532
100
AcDbEntity
  8
JISSEN
100
AcDbBlockReference
  2
STDGX5
 10
536.999998568
 20
0.0
 30
0.0
  0
INSERT
  5
43B
330
EF7C85532
100
AcDbEntity
  8
SUNPOU
100
AcDbBlockReference
  2
STDGX5
 10
739.0804232644236
 20
50.83533235670902
 30
0.0
 41
0.5
 42
0.5
 43
0.5
  0
INSERT
  5
43C
330
EF7C85532
100
AcDbEntity
  8
SUNPOU
100
AcDbBlockReference
  2
STDGX5
 10
726.2208210623692
 20
105.0763138619288
 30
0.0
 41
0.5
 42
0.5
 43
0.5
  0
INSERT
  5
43D
330
EF7C85532
100
AcDbEntity
  8
HATCH
100
AcDbBlockReference
  2
STDGX5
 10
852.3985550581901
 20
151.7065097967401
 30
0.0
 41
0.5
 42
0.5
 43
0.5
  0
INSERT
  5
43E
330
EF7C85532
100
AcDbEntity
  8
HATCH
100
AcDbBlockReference
  2
STDGX5
 10
866.6806796277285
 20
102.7017487639613
 30
0.0
 41
0.5
 42
0.5
 43
0.5
  0
INSERT
  5
43F
330
EF7C85532
100
AcDbEntity
  8
TEXT
100
AcDbBlockReference
  2
STDGX5
 10
970.3434408521969
 20
102.8213468229236
 30
0.0
 41
0.5
 42
0.5
 43
0.5
  0
INSERT
  5
440
330
EF7C85532
100
AcDbEntity
  8
SUNPOU
100
AcDbBlockReference
  2
STDGX5
 10
996.1728907397869
 20
174.5475645486174
 30
0.0
 41
0.5
 42
0.5
 43
0.5
  0
INSERT
  5
441
330
EF7C85532
100
AcDbEntity
  8
TEXT
100
AcDbBlockReference
  2
STDGX5
 10
725.7513886810995
 20
124.5860190441302
 30
0.0
 41
0.5
 42
0.5
 43
0.5
  0
INSERT
  5
442
330
EF7C85532
100
AcDbEntity
  8
HATCH
100
AcDbBlockReference
  2
STDGX5
 10
777.1755722656421
 20
145.5222028932424
 30
0.0
 41
0.5
 42
0.5
 43
0.5
  0
INSERT
  5
443
330
EF7C85532
100
AcDbEntity
  8
SUNPOU
100
AcDbBlockReference
  2
STDGX5
 10
846.1963575359604
 20
112.6957974729892
 30
0.0
 41
0.5
 42
0.5
 43
0.5
  0
INSERT
  5
444
330
EF7C85532
100
AcDbEntity
  8
SUNPOU
100
AcDbBlockReference
  2
STDGX5
 10
916.6681156211122
 20
121.7330617103085
 30
0.0
 41
0.5
 42
0.5
 43
0.5
  0
INSERT
  5
445
330
EF7C85532
100
AcDbEntity
  8
TEXT
100
AcDbBlockReference
  2
STDGX5
 10
983.7969461426769
 20
84.61852224867081
 30
0.0
 41
0.5
 42
0.5
 43
0.5
  0
INSERT
  5
446
330
EF7C85532
100
AcDbEntity
  8
HATCH
100
AcDbBlockReference
  2
STDGX5
 10
974.2802715042099
 20
136.4849386559231
 30
0.0
 41
0.5
 42
0.5
 43
0.5
  0
INSERT
  5
447
330
EF7C85532
100
AcDbEntity
  8
SUNPOU
100
AcDbBlockReference
  2
STDGX5
 10
749.7834008663489
 20
95.14721172234004
 30
0.0
 41
0.5
 42
0.5
 43
0.5
  0
INSERT
  5
448
330
EF7C85532
100
AcDbEntity
  8
SUNPOU
100
AcDbBlockReference
  2
STDGX5
 10
736.9237986642947
 20
149.3881932275598
 30
0.0
 41
0.5
 42
0.5
 43
0.5
  0
INSERT
  5
449
330
EF7C85532
100
AcDbEntity
  8
HATCH
100
AcDbBlockReference
  2
STDGX5
 10
863.1015326601156
 20
196.0183891623711
 30
0.0
 41
0.5
 42
0.5
 43
0.5
  0
INSERT
  5
44A
330
EF7C85532
100
AcDbEntity
  8
HATCH
100
AcDbBlockReference
  2
STDGX5
 10
877.3836572296538
 20
147.0136281295923
 30
0.0
 41
0.5
 42
0.5
 43
0.5
  0
INSERT
  5
44B
330
EF7C85532
100
AcDbEntity
  8
TEXT
100
AcDbBlockReference
  2
STDGX5
 10
981.0464184541224
 20
147.1332261885546
 30
0.0
 41
0.5
 42
0.5
 43
0.5
  0
INSERT
  5
44C
330
EF7C85532
100
AcDbEntity
  8
SUNPOU
100
AcDbBlockReference
  2
STDGX5
 10
1006.875868341712
 20
218.8594439142484
 30
0.0
 41
0.5
 42
0.5
 43
0.5
  0
INSERT
  5
44D
330
EF7C85532
100
AcDbEntity
  8
TEXT
100
AcDbBlockReference
  2
STDGX5
 10
736.4543662830251
 20
168.8978984097612
 30
0.0
 41
0.5
 42
0.5
 43
0.5
  0
INSERT
  5
44E
330
EF7C85532
100
AcDbEntity
  8
HATCH
100
AcDbBlockReference
  2
STDGX5
 10
787.8785498675677
 20
189.8340822588735
 30
0.0
 41
0.5
 42
0.5
 43
0.5
  0
INSERT
  5
44F
330
EF7C85532
100
AcDbEntity
  8
SUNPOU
100
AcDbBlockReference
  2
STDGX5
 10
856.899335137886
 20
157.0076768386202
 30
0.0
 41
0.5
 42
0.5
 43
0.5
  0
INSERT
  5
450
330
EF7C85532
100
AcDbEntity
  8
SUNPOU
100
AcDbBlockReference
  2
STDGX5
 10
927.3710932230379
 20
166.0449410759395
 30
0.0
 41
0.5
 42
0.5
 43
0.5
  0
INSERT
  5
451
330
EF7C85532
100
AcDbEntity
  8
TEXT
100
AcDbBlockReference
  2
STDGX5
 10
994.4999237446024
 20
128.9304016143018
 30
0.0
 41
0.5
 42
0.5
 43
0.5
  0
INSERT
  5
452
330
EF7C85532
100
AcDbEntity
  8
HATCH
100
AcDbBlockReference
  2
STDGX5
 10
984.9832491061354
 20
180.7968180215541
 30
0.0
 41
0.5
 42
0.5
 43
0.5
  0
INSERT
  5
4CF3
330
EF7C85532
100
AcDbEntity
  8
JISSEN
100
AcDbBlockReference
  2
STDR12J
 10
0.0
 20
0.0
 30
0.0
  0
CIRCLE
  5
EF7C87E77
330
EF7C85532
100
AcDbEntity
  8
SUNPOU
100
AcDbCircle
 10
112.2834052206567
 20
81.43575359310636
 30
0.0
 40
6.0
  0
LINE
  5
EF7C87E78
330
EF7C85532
100
AcDbEntity
  8
SUNPOU
100
AcDbLine
 10
95.13828981719013
 20
116.7007540037037
 30
0.0
 11
109.6599510902687
 21
86.83181590054408
 31
0.0
  0
TEXT
  5
EF7C87E79
330
EF7C85532
100
AcDbEntity
  8
SUNPOU
100
AcDbText
 10
110.4619766492282
 20
79.18575359310636
 30
0.0
 40
4.5
  1
1
  7
K
 72
     4
 11
112.2834052206567
 21
81.43575359310636
 31
0.0
100
AcDbText
  0
INSERT
  5
EF7C87EAF
330
EF7C85532
100
AcDbEntity
  8
SUNPOU
100
AcDbBlockReference
  2
ARROW
 10
95.13828981719013
 20
116.7007540037036
 30
0.0
 41
-1.500000000000002
 42
1.5
 43
1.5
 50
295.9280644736465
  0
LINE
  5
EF7C87F46
330
EF7C85532
100
AcDbEntity
  8
SUNPOU
100
AcDbLine
 10
119.8745839330394
 20
106.9588881713881
 30
0.0
 11
129.6599510902687
 21
86.83181590054408
 31
0.0
  0
CIRCLE
  5
EF7C87F4C
330
EF7C85532
100
AcDbEntity
  8
SUNPOU
100
AcDbCircle
 10
132.2834052206568
 20
81.43575359310636
 30
0.0
 40
6.0
  0
TEXT
  5
EF7C87F4D
330
EF7C85532
100
AcDbEntity
  8
SUNPOU
100
AcDbText
 10
130.1405480777996
 20
79.18575359310636
 30
0.0
 40
4.5
  1
2
  7
K
 72
     4
 11
132.2834052206568
 21
81.43575359310636
 31
0.0
100
AcDbText
  0
INSERT
  5
EF7C87F51
330
EF7C85532
100
AcDbEntity
  8
SUNPOU
100
AcDbBlockReference
  2
ARROW
 10
119.8745839330395
 20
106.9588881713879
 30
0.0
 41
-1.500000000000002
 42
1.5
 43
1.5
 50
295.9280644736465
  0
TEXT
  5
EF7C87F57
330
EF7C85532
100
AcDbEntity
  8
TEXT
100
AcDbText
 10
102.2857135617142
 20
272.4999999999999
 30
0.0
 40
3.0
  1
DP-O 型ヘッド
  7
K
 72
     4
 11
116.4999992759999
 21
273.9999999999999
 31
0.0
100
AcDbText
  0
TEXT
  5
EF7C87F5A
330
EF7C85532
100
AcDbEntity
  8
TEXT
100
AcDbText
 10
107.8999992759999
 20
278.4999999999999
 30
0.0
 40
3.0
  1
名      称
  7
K
 72
     4
 11
116.4999992759999
 21
279.9999999999999
 31
0.0
100
AcDbText
  0
TEXT
  5
EF7C87F5B
330
EF7C85532
100
AcDbEntity
  8
TEXT
100
AcDbText
 10
106.6714278474285
 20
266.7857142857142
 30
0.0
 40
3.0
  1
ガード S,D
  7
K
 72
     4
 11
116.4999992759999
 21
267.9999999999999
 31
0.0
100
AcDbText
  0
LINE
  5
EF7C87F5C
330
EF7C85532
100
AcDbEntity
  8
JISSEN
100
AcDbLine
 10
91.49999927599997
 20
276.9999999999999
 30
0.0
 11
180.9999992759999
 21
276.9999999999999
 31
0.0
  0
LINE
  5
EF7C87F5D
330
EF7C85532
100
AcDbEntity
  8
JISSEN
100
AcDbLine
 10
91.49999927599997
 20
270.9999999999999
 30
0.0
 11
180.9999992759999
 21
270.9999999999999
 31
0.0
  0
LINE
  5
EF7C87F5E
330
EF7C85532
100
AcDbEntity
  8
JISSEN
100
AcDbLine
 10
91.49999927599997
 20
264.9999999999999
 30
0.0
 11
180.9999992759999
 21
264.9999999999999
 31
0.0
  0
TEXT
  5
EF7C87F66
330
EF7C85532
100
AcDbEntity
  8
TEXT
100
AcDbText
 10
95.28571356171427
 20
272.4999999999999
 30
0.0
 40
3.0
  1
1
  7
K
 72
     4
 11
96.49999927599999
 21
273.9999999999999
 31
0.0
100
AcDbText
  0
LINE
  5
EF7C87F67
330
EF7C85532
100
AcDbEntity
  8
JISSEN
100
AcDbLine
 10
91.49999927599997
 20
264.9999999999999
 30
0.0
 11
91.49999927599997
 21
282.9999999999999
 31
0.0
  0
LINE
  5
EF7C87F68
330
EF7C85532
100
AcDbEntity
  8
JISSEN
100
AcDbLine
 10
101.4999992759999
 20
282.9999999999999
 30
0.0
 11
101.4999992759999
 21
264.9999999999999
 31
0.0
  0
TEXT
  5
EF7C87F69
330
EF7C85532
100
AcDbEntity
  8
TEXT
100
AcDbText
 10
95.38307168153433
 20
266.4999999999999
 30
0.0
 40
3.0
  1
2
  7
K
 72
     4
 11
96.81164311010576
 21
267.9999999999999
 31
0.0
100
AcDbText
  0
TEXT
  5
EF7C87F6A
330
EF7C85532
100
AcDbEntity
  8
TEXT
100
AcDbText
 10
93.29999927599997
 20
278.4999999999999
 30
0.0
 40
3.0
  1
番号
  7
K
 72
     4
 11
96.49999927599999
 21
279.9999999999999
 31
0.0
100
AcDbText
  0
TEXT
  5
EF7C87F6B
330
EF7C85532
100
AcDbEntity
  8
TEXT
100
AcDbText
 10
165.6999992759999
 20
278.4999999999999
 30
0.0
 40
3.0
  1
備    考
  7
K
 72
     4
 11
172.4999992759999
 21
279.9999999999999
 31
0.0
100
AcDbText
  0
TEXT
  5
EF7C87F6C
330
EF7C85532
100
AcDbEntity
  8
TEXT
100
AcDbText
 10
156.6795477624092
 20
272.4999999999999
 30
0.0
 40
3.0
  1
1
  7
K
 72
     4
 11
157.8938334766949
 21
273.9999999999999
 31
0.0
100
AcDbText
  0
LINE
  5
EF7C87F6D
330
EF7C85532
100
AcDbEntity
  8
JISSEN
100
AcDbLine
 10
152.4999992759999
 20
264.9999999999999
 30
0.0
 11
152.4999992759999
 21
282.9999999999999
 31
0.0
  0
LINE
  5
EF7C87F6E
330
EF7C85532
100
AcDbEntity
  8
JISSEN
100
AcDbLine
 10
163.4999992759999
 20
282.9999999999999
 30
0.0
 11
163.4999992759999
 21
264.9999999999999
 31
0.0
  0
LINE
  5
EF7C87F71
330
EF7C85532
100
AcDbEntity
  8
JISSEN
100
AcDbLine
 10
131.4999992759999
 20
282.9999999999999
 30
0.0
 11
131.4999992759999
 21
264.9999999999999
 31
0.0
  0
TEXT
  5
EF7C87F72
330
EF7C85532
100
AcDbEntity
  8
TEXT
100
AcDbText
 10
136.8249992759999
 20
274.2999999999999
 30
0.0
 40
3.0
  1
%%u      
  7
K
 72
     4
 11
141.9999992759999
 21
273.9999999999999
 31
0.0
100
AcDbText
  0
TEXT
  5
EF7C87F73
330
EF7C85532
100
AcDbEntity
  8
TEXT
100
AcDbText
 10
137.5714278474285
 20
266.4999999999999
 30
0.0
 40
3.0
  1
ZDC
  7
K
 72
     4
 11
141.9999992759999
 21
267.9999999999999
 31
0.0
100
AcDbText
  0
TEXT
  5
EF7C87F74
330
EF7C85532
100
AcDbEntity
  8
TEXT
100
AcDbText
 10
156.6795477624092
 20
266.580835176341
 30
0.0
 40
3.0
  1
1
  7
K
 72
     4
 11
157.8938334766949
 21
268.080835176341
 31
0.0
100
AcDbText
  0
TEXT
  5
EF7C87F75
330
EF7C85532
100
AcDbEntity
  8
TEXT
100
AcDbText
 10
135.1999992759999
 20
278.4999999999999
 30
0.0
 40
3.0
  1
材    質
  7
K
 72
     4
 11
141.9999992759999
 21
279.9999999999999
 31
0.0
100
AcDbText
  0
TEXT
  5
EF7C87F76
330
EF7C85532
100
AcDbEntity
  8
TEXT
100
AcDbText
 10
154.7999992759999
 20
278.4999999999999
 30
0.0
 40
3.0
  1
個数
  7
K
 72
     4
 11
157.9999992759999
 21
279.9999999999999
 31
0.0
100
AcDbText
  0
LINE
  5
EF7C8880B
330
EF7C85532
100
AcDbEntity
  8
JISSEN
100
AcDbLine
 10
126.9060322670196
 20
153.3613943726285
 30
0.0
 11
126.9060322670196
 21
128.0007540037038
 31
0.0
  0
LINE
  5
EF7C8880C
330
EF7C85532
100
AcDbEntity
  8
JISSEN
100
AcDbLine
 10
121.9060322670196
 20
149.5064387597449
 30
0.0
 11
121.9060322670196
 21
132.0007540037039
 31
0.0
  0
ARC
  5
EF7C8880E
330
EF7C85532
100
AcDbEntity
  8
JISSEN
100
AcDbCircle
 10
83.90603226701967
 20
150.5007540037038
 30
0.0
 40
28.0
100
AcDbArc
 50
337.9756871629579
 51
0.0
  0
ARC
  5
EF7C88815
330
EF7C85532
100
AcDbEntity
  8
JISSEN
100
AcDbCircle
 10
99.90603226701967
 20
150.5007540037038
 30
0.0
 40
28.0
100
AcDbArc
 50
180.0
 51
202.024312837042
  0
ARC
  5
EF7C88816
330
EF7C85532
100
AcDbEntity
  8
JISSEN
100
AcDbCircle
 10
99.90603226701967
 20
150.5007540037038
 30
0.0
 40
30.0
100
AcDbArc
 50
180.0
 51
215.2092056449259
  0
LWPOLYLINE
  5
EF7C88818
330
EF7C85532
100
AcDbEntity
  8
JISSEN
100
AcDbPolyline
 90
        4
 70
     1
 43
0.0
 10
104.4060322670196
 20
132.0007540037039
 10
105.9060322670196
 20
130.5007540037038
 10
105.9060322670196
 20
161.0007540037039
 10
104.4060322670196
 20
158.0007540037039
  0
LWPOLYLINE
  5
EF7C88819
330
EF7C85532
100
AcDbEntity
  8
JISSEN
100
AcDbPolyline
 90
        4
 70
     1
 43
0.0
 10
106.9060322670196
 20
130.5007540037038
 10
106.9060322670196
 20
161.0007540037039
 10
108.6560322670196
 20
158.0007540037039
 10
108.4060322670196
 20
132.0007540037039
  0
LWPOLYLINE
  5
EF7C8881A
330
EF7C85532
100
AcDbEntity
  8
JISSEN
100
AcDbPolyline
 90
        4
 70
     1
 43
0.0
 10
76.90603226701966
 20
130.5007540037038
 10
76.90603226701966
 20
161.0007540037039
 10
75.15603226701967
 20
158.0007540037039
 10
75.40603226701967
 20
132.0007540037039
  0
LWPOLYLINE
  5
EF7C8881B
330
EF7C85532
100
AcDbEntity
  8
JISSEN
100
AcDbPolyline
 90
        4
 70
     1
 43
0.0
 10
79.40603226701966
 20
132.0007540037039
 10
77.90603226701967
 20
130.5007540037038
 10
77.90603226701967
 20
161.0007540037039
 10
79.40603226701966
 20
158.0007540037039
  0
LINE
  5
EF7C8881C
330
EF7C85532
100
AcDbEntity
  8
JISSEN
100
AcDbLine
 10
56.90603226701966
 20
153.3613943726284
 30
0.0
 11
56.90603226701966
 21
128.0007540037038
 31
0.0
  0
LINE
  5
EF7C8881D
330
EF7C85532
100
AcDbEntity
  8
JISSEN
100
AcDbLine
 10
61.90603226701966
 20
149.5064387597449
 30
0.0
 11
61.90603226701966
 21
132.0007540037039
 31
0.0
  0
ARC
  5
EF7C8881E
330
EF7C85532
100
AcDbEntity
  8
JISSEN
100
AcDbCircle
 10
83.90603226701967
 20
150.5007540037038
 30
0.0
 40
30.0
100
AcDbArc
 50
324.7907943550741
 51
0.0
  0
INSERT
  5
EF7C8881F
330
EF7C85532
100
AcDbEntity
  8
WAKU
100
AcDbBlockReference
  2
WAKU
 10
0.0
 20
0.0
 30
0.0
 41
181.0
 42
283.0
 43
181.0
  0
LWPOLYLINE
  5
EF7C88820
330
EF7C85532
100
AcDbEntity
  8
JISSEN
100
AcDbPolyline
 90
        4
 70
     1
 43
0.0
 10
77.90603226701967
 20
95.92272413901302
 10
79.90410424039874
 20
100.5061413742484
 10
79.65603226701967
 20
128.0007540037038
 10
77.90603226701967
 20
129.5007540037038
  0
ARC
  5
EF7C88821
330
EF7C85532
100
AcDbEntity
  8
JISSEN
100
AcDbCircle
 10
99.90603226701967
 20
150.5007540037038
 30
0.0
 40
24.0
100
AcDbArc
 50
211.3322067072331
 51
230.4287805427692
  0
LWPOLYLINE
  5
EF7C88822
330
EF7C85532
100
AcDbEntity
  8
JISSEN
100
AcDbPolyline
 90
        4
 70
     0
 43
0.0
 10
108.4060322670196
 20
128.0007540037038
 10
121.9060322670196
 20
128.0007540037038
 10
126.9060322670196
 20
129.5007540037038
 10
56.90603226701966
 20
129.5007540037038
  0
LWPOLYLINE
  5
EF7C88823
330
EF7C85532
100
AcDbEntity
  8
JISSEN
100
AcDbPolyline
 90
        4
 70
     0
 43
0.0
 10
108.4060322670196
 20
132.0007540037039
 10
121.9060322670196
 20
132.0007540037039
 10
126.9060322670196
 20
130.5007540037038
 10
56.90603226701966
 20
130.5007540037038
  0
ARC
  5
EF7C88824
330
EF7C85532
100
AcDbEntity
  8
JISSEN
100
AcDbCircle
 10
91.90603226701966
 20
128.0007540037038
 30
0.0
 40
35.0
100
AcDbArc
 50
180.0
 51
0.0
  0
LWPOLYLINE
  5
EF7C888C6
330
EF7C85532
100
AcDbEntity
  8
JISSEN
100
AcDbPolyline
 90
        5
 70
     1
 43
0.0
 10
75.40603226701967
 20
128.0007540037038
 10
75.15603226701967
 20
117.0476318649005
 10
74.98256035812847
 20
103.229882025734
 10
76.90603226701966
 20
96.3779774020201
 10
76.90603226701966
 20
129.5007540037038
  0
ARC
  5
EF7C888C7
330
EF7C85532
100
AcDbEntity
  8
JISSEN
100
AcDbCircle
 10
91.90603226701966
 20
128.0007540037038
 30
0.0
 40
30.0
100
AcDbArc
 50
180.0
 51
235.6590914470843
  0
LINE
  5
EF7C888C8
330
EF7C85532
100
AcDbEntity
  8
JISSEN
100
AcDbLine
 10
72.90603226701967
 20
117.8635266541729
 30
0.0
 11
73.90603226701921
 21
118.0398536348811
 31
0.0
  0
LINE
  5
EF7C888C9
330
EF7C85532
100
AcDbEntity
  8
JISSEN
100
AcDbLine
 10
75.153911686274
 20
116.8787189011607
 30
0.0
 11
73.07968044468657
 21
116.8787189011607
 31
0.0
  0
LINE
  5
EF7C888CA
330
EF7C85532
100
AcDbEntity
  8
JISSEN
100
AcDbLine
 10
72.90603226701967
 20
117.8635266541729
 30
0.0
 11
75.17465469218143
 21
117.8635266541729
 31
0.0
  0
LINE
  5
EF7C888CB
330
EF7C85532
100
AcDbEntity
  8
JISSEN
100
AcDbLine
 10
73.07968044468657
 20
116.8787189011604
 30
0.0
 11
72.90603226701967
 21
117.8635266541729
 31
0.0
  0
LINE
  5
EF7C888CC
330
EF7C85532
100
AcDbEntity
  8
JISSEN
100
AcDbLine
 10
74.81854360349371
 20
118.2007540037038
 30
0.0
 11
75.18235175209861
 21
118.2007540037038
 31
0.0
  0
LINE
  5
EF7C888CD
330
EF7C85532
100
AcDbEntity
  8
JISSEN
100
AcDbLine
 10
73.90603226701921
 20
118.0398536348811
 30
0.0
 11
74.81854360349348
 21
118.2007540037038
 31
0.0
  0
LWPOLYLINE
  5
EF7C888CE
330
EF7C85532
100
AcDbEntity
  8
JISSEN
100
AcDbPolyline
 90
        3
 70
     0
 43
0.0
 10
56.90603226701966
 20
130.5007540037038
 10
61.90603226701966
 20
132.0007540037039
 10
75.40603226701967
 20
132.0007540037039
  0
LWPOLYLINE
  5
EF7C888CF
330
EF7C85532
100
AcDbEntity
  8
JISSEN
100
AcDbPolyline
 90
        3
 70
     0
 43
0.0
 10
56.90603226701966
 20
129.5007540037038
 10
61.90603226701966
 20
128.0007540037038
 10
75.40603226701967
 20
128.0007540037038
  0
TEXT
  5
EF7C888D0
330
EF7C85532
100
AcDbEntity
  8
SUNPOU
100
AcDbText
 10
139.5144531872648
 20
7.849423898685245
 30
0.0
 40
3.0
  1
DP-O ガード作動状態
  7
K
100
AcDbText
  0
TEXT
  5
EF7C888D3
330
EF7C85532
100
AcDbEntity
  8
SUNPOU
100
AcDbText
 10
139.5144531872648
 20
2.849423898685245
 30
0.0
 40
3.0
  1
尺度　1/1
  7
K
100
AcDbText
  0
LWPOLYLINE
  5
EF7C888D7
330
EF7C85532
100
AcDbEntity
  8
JISSEN
100
AcDbPolyline
 90
        5
 70
     1
 43
0.0
 10
108.4060322670196
 20
128.0007540037038
 10
108.6560322670196
 20
117.0476318649005
 10
108.8295041759107
 20
103.229882025734
 10
106.9060322670196
 20
96.3779774020201
 10
106.9060322670195
 20
129.5007540037038
  0
LWPOLYLINE
  5
EF7C888D8
330
EF7C85532
100
AcDbEntity
  8
JISSEN
100
AcDbPolyline
 90
        4
 70
     1
 43
0.0
 10
105.9060322670196
 20
95.92272413901302
 10
103.9079602936404
 20
100.5061413742484
 10
104.1560322670196
 20
128.0007540037038
 10
105.9060322670196
 20
129.5007540037038
  0
ARC
  5
EF7C888DE
330
EF7C85532
100
AcDbEntity
  8
JISSEN
100
AcDbCircle
 10
91.90603226701966
 20
128.0007540037038
 30
0.0
 40
30.0
100
AcDbArc
 50
304.3409085529157
 51
0.0
  0
ARC
  5
EF7C888DF
330
EF7C85532
100
AcDbEntity
  8
JISSEN
100
AcDbCircle
 10
100.0728196120383
 20
118.5007624031972
 30
0.0
 40
1.0
100
AcDbArc
 50
33.65096582460109
 51
132.0810525119092
  0
LINE
  5
EF7C888E0
330
EF7C85532
100
AcDbEntity
  8
JISSEN
100
AcDbLine
 10
100.3569258281354
 20
117.863526654173
 30
0.0
 11
99.22429147461436
 21
119.5007624031976
 31
0.0
  0
LINE
  5
EF7C888E1
330
EF7C85532
100
AcDbEntity
  8
JISSEN
100
AcDbLine
 10
104.0650283140614
 20
117.9144939548493
 30
0.0
 11
102.3272243247853
 21
119.5007624031976
 31
0.0
  0
ARC
  5
EF7C888E2
330
EF7C85532
100
AcDbEntity
  8
JISSEN
100
AcDbCircle
 10
102.8720403542089
 20
118.1452624031976
 30
0.0
 40
1.355499999999999
100
AcDbArc
 50
55.00000000000309
 51
109.7312025061702
  0
LINE
  5
EF7C888E3
330
EF7C85532
100
AcDbEntity
  8
JISSEN
100
AcDbLine
 10
94.16043697976681
 20
119.5007624031977
 30
0.0
 11
94.32857705225229
 21
117.863526654173
 31
0.0
  0
ARC
  5
EF7C888E4
330
EF7C85532
100
AcDbEntity
  8
JISSEN
100
AcDbCircle
 10
95.31954797131357
 20
119.0007624031967
 30
0.0
 40
0.5
100
AcDbArc
 50
15.79871507350246
 51
166.709870010097
  0
LINE
  5
EF7C888E5
330
EF7C85532
100
AcDbEntity
  8
JISSEN
100
AcDbLine
 10
89.48348748178728
 20
117.863526654173
 30
0.0
 11
89.65162755427252
 21
119.5007624031977
 31
0.0
  0
ARC
  5
EF7C888E6
330
EF7C85532
100
AcDbEntity
  8
JISSEN
100
AcDbCircle
 10
88.49251656272565
 20
119.0007624031967
 30
0.0
 40
0.5
100
AcDbArc
 50
13.29012998990297
 51
164.2012849264975
  0
ARC
  5
EF7C888E7
330
EF7C85532
100
AcDbEntity
  8
JISSEN
100
AcDbCircle
 10
83.73924492200103
 20
118.5007624031972
 30
0.0
 40
1.0
100
AcDbArc
 50
47.91894748809069
 51
146.3490341753988
  0
LINE
  5
EF7C888E8
330
EF7C85532
100
AcDbEntity
  8
JISSEN
100
AcDbLine
 10
83.45513870590389
 20
117.863526654173
 30
0.0
 11
84.58777305942499
 21
119.5007624031977
 31
0.0
  0
LINE
  5
EF7C888E9
330
EF7C85532
100
AcDbEntity
  8
JISSEN
100
AcDbLine
 10
79.74703621997787
 20
117.9144939548493
 30
0.0
 11
81.48484020925389
 21
119.5007624031977
 31
0.0
  0
ARC
  5
EF7C888EA
330
EF7C85532
100
AcDbEntity
  8
JISSEN
100
AcDbCircle
 10
80.94002417983039
 20
118.1452624031976
 30
0.0
 40
1.355499999999999
100
AcDbArc
 50
70.26879749382101
 51
124.9999999999968
  0
LINE
  5
EF7C888EB
330
EF7C85532
100
AcDbEntity
  8
JISSEN
100
AcDbLine
 10
101.4265993175714
 20
116.7007540037038
 30
0.0
 11
91.90603226701966
 21
116.7007540037038
 31
0.0
  0
ARC
  5
EF7C888EC
330
EF7C85532
100
AcDbEntity
  8
JISSEN
100
AcDbCircle
 10
91.90603226701966
 20
128.0007540037038
 30
0.0
 40
30.0
100
AcDbArc
 50
246.417803785703
 51
293.582196214297
  0
LINE
  5
EF7C888ED
330
EF7C85532
100
AcDbEntity
  8
JISSEN
100
AcDbLine
 10
104.0556829646649
 20
116.8787189011607
 30
0.0
 11
79.75638156937441
 21
116.8787189011607
 31
0.0
  0
LINE
  5
EF7C888EE
330
EF7C85532
100
AcDbEntity
  8
JISSEN
100
AcDbLine
 10
79.74749607584215
 20
117.8635266541729
 30
0.0
 11
104.064568458197
 21
117.863526654173
 31
0.0
  0
LINE
  5
EF7C888EF
330
EF7C85532
100
AcDbEntity
  8
JISSEN
100
AcDbLine
 10
82.38546521646787
 20
116.7007540037038
 30
0.0
 11
91.90603226701966
 21
116.7007540037038
 31
0.0
  0
LINE
  5
EF7C888F0
330
EF7C85532
100
AcDbEntity
  8
JISSEN
100
AcDbLine
 10
82.38546521646787
 20
116.7007540037038
 30
0.0
 11
82.26085285373187
 21
116.8787189011607
 31
0.0
  0
LINE
  5
EF7C888F1
330
EF7C85532
100
AcDbEntity
  8
JISSEN
100
AcDbLine
 10
82.11374482027565
 20
117.863526654173
 30
0.0
 11
82.90681626440051
 21
119.0548946347136
 31
0.0
  0
LINE
  5
EF7C888F2
330
EF7C85532
100
AcDbEntity
  8
JISSEN
100
AcDbLine
 10
79.73762030425712
 20
118.9580901006149
 30
0.0
 11
80.16254132035658
 21
119.2556229992314
 31
0.0
  0
ARC
  5
EF7C888F3
330
EF7C85532
100
AcDbEntity
  8
JISSEN
100
AcDbCircle
 10
88.69220468625371
 20
118.2019721681093
 30
0.0
 40
0.1
100
AcDbArc
 50
13.29012998990889
 51
164.2012849264934
  0
LINE
  5
EF7C888F4
330
EF7C85532
100
AcDbEntity
  8
JISSEN
100
AcDbLine
 10
88.87490010801332
 20
117.863526654173
 30
0.0
 11
88.78952653502029
 21
118.2249603771015
 31
0.0
  0
LINE
  5
EF7C888F5
330
EF7C85532
100
AcDbEntity
  8
JISSEN
100
AcDbLine
 10
88.49251656272565
 20
117.863526654173
 30
0.0
 11
88.59598227630398
 21
118.2291980349174
 31
0.0
  0
LINE
  5
EF7C888F6
330
EF7C85532
100
AcDbEntity
  8
JISSEN
100
AcDbLine
 10
89.2749001080134
 20
117.863526654173
 30
0.0
 11
88.97912580655827
 21
119.1157034481575
 31
0.0
  0
LINE
  5
EF7C888F7
330
EF7C85532
100
AcDbEntity
  8
JISSEN
100
AcDbLine
 10
87.65110935753773
 20
117.863526654173
 30
0.0
 11
88.01140451297669
 21
119.1368917372372
 31
0.0
  0
ARC
  5
EF7C888F8
330
EF7C85532
100
AcDbEntity
  8
JISSEN
100
AcDbCircle
 10
95.11985984778551
 20
118.2019721681093
 30
0.0
 40
0.1
100
AcDbArc
 50
15.79871507350659
 51
166.7098700100911
  0
LINE
  5
EF7C888F9
330
EF7C85532
100
AcDbEntity
  8
JISSEN
100
AcDbLine
 10
94.93716442602602
 20
117.863526654173
 30
0.0
 11
95.02253799901906
 21
118.2249603771015
 31
0.0
  0
LINE
  5
EF7C888FA
330
EF7C85532
100
AcDbEntity
  8
JISSEN
100
AcDbLine
 10
94.53716442602592
 20
117.863526654173
 30
0.0
 11
94.83293872748106
 21
119.1157034481575
 31
0.0
  0
LINE
  5
EF7C888FB
330
EF7C85532
100
AcDbEntity
  8
JISSEN
100
AcDbLine
 10
96.1609551765016
 20
117.863526654173
 30
0.0
 11
95.80066002106264
 21
119.1368917372372
 31
0.0
  0
LINE
  5
EF7C888FC
330
EF7C85532
100
AcDbEntity
  8
JISSEN
100
AcDbLine
 10
95.31954797131357
 20
117.863526654173
 30
0.0
 11
95.21608225773537
 21
118.2291980349174
 31
0.0
  0
LINE
  5
EF7C888FF
330
EF7C85532
100
AcDbEntity
  8
JISSEN
100
AcDbLine
 10
104.0744442297821
 20
118.9580901006149
 30
0.0
 11
103.6495232136826
 21
119.2556229992314
 31
0.0
  0
LINE
  5
EF7C88900
330
EF7C85532
100
AcDbEntity
  8
JISSEN
100
AcDbLine
 10
101.4265993175714
 20
116.7007540037038
 30
0.0
 11
101.5512116803074
 21
116.8787189011607
 31
0.0
  0
LINE
  5
EF7C88901
330
EF7C85532
100
AcDbEntity
  8
JISSEN
100
AcDbLine
 10
101.6983197137636
 20
117.863526654173
 30
0.0
 11
100.9052482696388
 21
119.0548946347136
 31
0.0
  0
LINE
  5
EF7C88902
330
EF7C85532
100
AcDbEntity
  8
JISSEN
100
AcDbLine
 10
110.7323840893526
 20
116.8787189011607
 30
0.0
 11
110.9060322670196
 21
117.8635266541731
 31
0.0
  0
LINE
  5
EF7C88903
330
EF7C85532
100
AcDbEntity
  8
JISSEN
100
AcDbLine
 10
108.6297127819406
 20
118.2007540037038
 30
0.0
 11
108.9935209305469
 21
118.2007540037038
 31
0.0
  0
LINE
  5
EF7C88904
330
EF7C85532
100
AcDbEntity
  8
JISSEN
100
AcDbLine
 10
108.6374098418577
 20
117.8635266541731
 30
0.0
 11
110.9060322670196
 21
117.8635266541731
 31
0.0
  0
LINE
  5
EF7C88905
330
EF7C85532
100
AcDbEntity
  8
JISSEN
100
AcDbLine
 10
110.7323840893526
 20
116.8787189011607
 30
0.0
 11
108.6581528477652
 21
116.8787189011607
 31
0.0
  0
LINE
  5
EF7C88906
330
EF7C85532
100
AcDbEntity
  8
JISSEN
100
AcDbLine
 10
110.9060322670196
 20
117.8635266541731
 30
0.0
 11
108.9935209305457
 21
118.2007540037041
 31
0.0
  0
LINE
  5
EF7C88908
330
EF7C85532
100
AcDbEntity
  8
JISSEN
100
AcDbLine
 10
102.3272243247853
 20
119.5007624031976
 30
0.0
 11
100.0728196120383
 21
119.5007624031976
 31
0.0
  0
LINE
  5
EF7C88909
330
EF7C85532
100
AcDbEntity
  8
JISSEN
100
AcDbLine
 10
104.1559056834185
 20
127.9867243371074
 30
0.0
 11
96.97986175165182
 21
119.5007624031976
 31
0.0
  0
LWPOLYLINE
  5
EF7C8890A
330
EF7C85532
100
AcDbEntity
  8
JISSEN
100
AcDbPolyline
 90
        2
 70
     0
 43
0.0
 10
79.40603226701966
 20
132.0007540037038
 10
104.4060322670196
 20
132.0007540037039
  0
LWPOLYLINE
  5
EF7C8890B
330
EF7C85532
100
AcDbEntity
  8
JISSEN
100
AcDbPolyline
 90
        2
 70
     0
 43
0.0
 10
79.65603226701967
 20
128.0007540037038
 10
104.1560322670195
 20
128.0007540037038
  0
ARC
  5
EF7C8890C
330
EF7C85532
100
AcDbEntity
  8
JISSEN
100
AcDbCircle
 10
83.90603226701967
 20
150.5007540037038
 30
0.0
 40
24.0
100
AcDbArc
 50
309.5712194572307
 51
328.6677932927668
  0
LINE
  5
EF7C8890D
330
EF7C85532
100
AcDbEntity
  8
JISSEN
100
AcDbLine
 10
89.65162755427252
 20
119.5007624031977
 30
0.0
 11
94.16043697976681
 21
119.5007624031977
 31
0.0
  0
ARC
  5
EF7C8890E
330
EF7C85532
100
AcDbEntity
  8
JISSEN
100
AcDbCircle
 10
75.15603226701967
 20
124.5007540037038
 30
0.0
 40
12.49999999999999
100
AcDbArc
 50
343.7397952916878
 51
16.26020470831211
  0
LINE
  5
EF7C8890F
330
EF7C85532
100
AcDbEntity
  8
JISSEN
100
AcDbLine
 10
79.65615885062073
 20
127.9867243371073
 30
0.0
 11
86.83220278238753
 21
119.5007624031977
 31
0.0
  0
LINE
  5
EF7C88910
330
EF7C85532
100
AcDbEntity
  8
JISSEN
100
AcDbLine
 10
81.48484020925389
 20
119.5007624031977
 30
0.0
 11
83.73924492200103
 21
119.5007624031977
 31
0.0
  0
ARC
  5
EF7C88911
330
EF7C85532
100
AcDbEntity
  8
JISSEN
100
AcDbCircle
 10
85.90603226701967
 20
119.0473190215647
 30
0.0
 40
1.0
100
AcDbArc
 50
26.96482331253057
 51
40.21909874455571
  0
LINE
  5
EF7C88912
330
EF7C85532
100
AcDbEntity
  8
JISSEN
100
AcDbLine
 10
88.49251656272565
 20
119.5007624031977
 30
0.0
 11
84.58777305942499
 21
119.5007624031977
 31
0.0
  0
ARC
  5
EF7C88913
330
EF7C85532
100
AcDbEntity
  8
JISSEN
100
AcDbCircle
 10
108.6560322670195
 20
124.5007540037038
 30
0.0
 40
12.49999999999999
100
AcDbArc
 50
163.7397952916878
 51
196.2602047083121
  0
ARC
  5
EF7C88914
330
EF7C85532
100
AcDbEntity
  8
JISSEN
100
AcDbCircle
 10
97.90603226701968
 20
119.0473190215647
 30
0.0
 40
1.0
100
AcDbArc
 50
139.7809012554442
 51
153.0351766874621
  0
LINE
  5
EF7C88915
330
EF7C85532
100
AcDbEntity
  8
JISSEN
100
AcDbLine
 10
95.31954797131357
 20
119.5007624031976
 30
0.0
 11
99.22429147461436
 21
119.5007624031977
 31
0.0
  0
LWPOLYLINE
  5
EF7C88930
330
EF7C85532
100
AcDbEntity
  8
NITEN
100
AcDbPolyline
 90
        5
 70
     0
 43
0.0
 10
108.9060322670196
 20
212.6113029094276
 10
108.9060322670196
 20
233.4490205605735
 42
-0.5882352941176475
 10
91.90603226701966
 20
233.4490205605735
 42
0.5882352941176476
 10
74.90603226701967
 20
233.4490205605732
 10
74.90603226701967
 20
212.6113029094276
  0
LWPOLYLINE
  5
EF7C88931
330
EF7C85532
100
AcDbEntity
  8
JISSEN
100
AcDbPolyline
 90
       15
 70
     0
 43
0.0
 10
108.6560322670196
 20
158.0007540037039
 10
117.47498687807
 20
158.0007540037039
 42
0.493145426031304
 10
118.9238756175036
 20
159.8889825713576
 10
117.4413092393443
 20
165.4219956202412
 42
0.1651006681921958
 10
117.2627270407042
 20
165.6892627678355
 10
114.3849865980932
 20
167.8974306738495
 42
0.1651006681921981
 10
114.0806058835888
 20
168.0007540037038
 10
91.90603226701966
 20
168.0007540037038
 10
69.73145865045035
 20
168.0007540037038
 42
0.1651006681921981
 10
69.42707793594593
 20
167.8974306738495
 10
66.54933749333498
 20
165.6892627678355
 42
0.1651006681921958
 10
66.37075529469484
 20
165.4219956202412
 10
64.88818891653557
 20
159.8889825713576
 42
0.493145426031304
 10
66.33707765596921
 20
158.0007540037039
 10
75.15603226701967
 20
158.0007540037039
  0
LWPOLYLINE
  5
EF7C88932
330
EF7C85532
100
AcDbEntity
  8
NITEN
100
AcDbPolyline
 90
       15
 70
     1
 43
0.0
 10
77.90603226701967
 20
172.1113029094276
 42
0.4142135623730927
 10
79.40603226701966
 20
170.6113029094276
 10
102.5000834380161
 20
170.6113029094276
 10
104.4060322670196
 20
170.6113029094276
 42
0.4142135623730925
 10
105.9060322670196
 20
172.1113029094276
 10
105.9060322670196
 20
183.1573189356456
 42
-0.4142135623730943
 10
110.9060322670196
 20
188.1573189356456
 42
0.4142135623730951
 10
112.9060322670196
 20
190.1573189356455
 10
112.9060322670196
 20
210.6113029094276
 42
0.4142135623730948
 10
110.9060322670196
 20
212.6113029094276
 10
72.90603226701967
 20
212.6113029094276
 42
0.4142135623730951
 10
70.90603226701967
 20
210.6113029094276
 10
70.90603226701967
 20
190.1573189356455
 42
0.4142135623730951
 10
72.90603226701967
 20
188.1573189356456
 42
-0.4142135623730961
 10
77.90603226701967
 20
183.1573189356456
  0
LINE
  5
EF7C889B8
330
EF7C85532
100
AcDbEntity
  8
JISSEN
100
AcDbLine
 10
76.40603226701967
 20
168.0007540037039
 30
0.0
 11
76.40603226701967
 21
160.143611146561
 31
0.0
  0
LINE
  5
EF7C889B9
330
EF7C85532
100
AcDbEntity
  8
JISSEN
100
AcDbLine
 10
59.02562523174913
 20
159.5229826349794
 30
0.0
 11
66.10280610226368
 21
164.4219956202412
 31
0.0
  0
ARC
  5
EF7C889BA
330
EF7C85532
100
AcDbEntity
  8
JISSEN
100
AcDbCircle
 10
62.15603226701967
 20
155.0007540037038
 30
0.0
 40
5.5
100
AcDbArc
 50
60.49547610270324
 51
33.05573115085367
  0
ARC
  5
EF7C889BB
330
EF7C85532
100
AcDbEntity
  8
JISSEN
100
AcDbCircle
 10
86.90603226701966
 20
150.5007540037038
 30
0.0
 40
17.0
100
AcDbArc
 50
153.8210312959871
 51
180.0
  0
LWPOLYLINE
  5
EF7C889BC
330
EF7C85532
100
AcDbEntity
  8
JISSEN
100
AcDbPolyline
 90
        6
 70
     1
 43
0.0
 10
64.15603226701967
 20
151.5366523885661
 10
66.15603226701967
 20
155.0007540037038
 10
64.15603226701967
 20
158.4648556188416
 10
60.15603226701967
 20
158.4648556188416
 10
58.15603226701966
 20
155.0007540037038
 10
60.15603226701967
 20
151.5366523885661
  0
LWPOLYLINE
  5
EF7C889BD
330
EF7C85532
100
AcDbEntity
  8
JISSEN
100
AcDbPolyline
 90
        6
 70
     1
 43
0.0
 10
63.98282718626274
 20
151.8366523885661
 10
65.80962210550592
 20
155.0007540037038
 10
63.98282718626274
 20
158.1648556188417
 10
60.32923734777648
 20
158.1648556188417
 10
58.50244242853341
 20
155.0007540037038
 10
60.3292373477766
 20
151.8366523885661
  0
ARC
  5
EF7C889BE
330
EF7C85532
100
AcDbEntity
  8
JISSEN
100
AcDbCircle
 10
86.90603226701966
 20
150.5007540037038
 30
0.0
 40
15.0
100
AcDbArc
 50
149.9999999999996
 51
180.0
  0
ARC
  5
EF7C889BF
330
EF7C85532
100
AcDbEntity
  8
JISSEN
100
AcDbCircle
 10
84.6947854834973
 20
149.8990962808592
 30
0.0
 40
10.80551655320168
100
AcDbArc
 50
151.6571464165099
 51
176.8080854238748
  0
ARC
  5
EF7C889C0
330
EF7C85532
100
AcDbEntity
  8
JISSEN
100
AcDbCircle
 10
99.90603226701967
 20
150.5007540037038
 30
0.0
 40
26.0
100
AcDbArc
 50
180.0
 51
198.9091960083248
  0
CIRCLE
  5
EF7C889C1
330
EF7C85532
100
AcDbEntity
  8
JISSEN
100
AcDbCircle
 10
62.15603226701967
 20
155.0007540037038
 30
0.0
 40
2.0
  0
LINE
  5
EF7C889DD
330
EF7C85532
100
AcDbEntity
  8
JISSEN
100
AcDbLine
 10
124.7864393022902
 20
159.5229826349794
 30
0.0
 11
117.7092584317755
 21
164.4219956202412
 31
0.0
  0
ARC
  5
EF7C889DE
330
EF7C85532
100
AcDbEntity
  8
JISSEN
100
AcDbCircle
 10
121.6560322670195
 20
155.0007540037038
 30
0.0
 40
5.5
100
AcDbArc
 50
146.9442688491449
 51
119.5045238972967
  0
CIRCLE
  5
EF7C889DF
330
EF7C85532
100
AcDbEntity
  8
JISSEN
100
AcDbCircle
 10
121.6560322670195
 20
155.0007540037038
 30
0.0
 40
2.0
  0
LWPOLYLINE
  5
EF7C889E0
330
EF7C85532
100
AcDbEntity
  8
JISSEN
100
AcDbPolyline
 90
        6
 70
     1
 43
0.0
 10
119.6560322670195
 20
151.5366523885661
 10
117.6560322670195
 20
155.0007540037038
 10
119.6560322670195
 20
158.4648556188416
 10
123.6560322670195
 20
158.4648556188416
 10
125.6560322670195
 20
155.0007540037038
 10
123.6560322670195
 20
151.5366523885661
  0
LWPOLYLINE
  5
EF7C889E1
330
EF7C85532
100
AcDbEntity
  8
JISSEN
100
AcDbPolyline
 90
        6
 70
     1
 43
0.0
 10
119.8292373477764
 20
151.8366523885661
 10
118.0024424285333
 20
155.0007540037038
 10
119.8292373477764
 20
158.1648556188416
 10
123.4828271862626
 20
158.1648556188417
 10
125.3096221055058
 20
155.0007540037038
 10
123.4828271862626
 20
151.8366523885661
  0
LINE
  5
EF7C889E2
330
EF7C85532
100
AcDbEntity
  8
JISSEN
100
AcDbLine
 10
107.4060322670196
 20
168.0007540037038
 30
0.0
 11
107.4060322670195
 21
160.143611146561
 31
0.0
  0
LWPOLYLINE
  5
EF7C889E3
330
EF7C85532
100
AcDbEntity
  8
JISSEN
100
AcDbPolyline
 90
        2
 70
     0
 43
0.0
 10
91.90603226701966
 20
158.0007540037039
 10
104.4060322670196
 20
158.0007540037039
 42
0.493145426031304
  0
LWPOLYLINE
  5
EF7C88A23
330
EF7C85532
100
AcDbEntity
  8
JISSEN
100
AcDbPolyline
 90
        2
 70
     0
 43
0.0
 10
79.40603226701966
 20
158.0007540037039
 10
91.90603226701966
 20
158.0007540037039
  0
ARC
  5
EF7C88A26
330
EF7C85532
100
AcDbEntity
  8
JISSEN
100
AcDbCircle
 10
86.84533731469548
 20
149.3468020662754
 30
0.0
 40
11.0
100
AcDbArc
 50
128.1196922672755
 51
132.5552199034004
  0
ARC
  5
EF7C88A2B
330
EF7C85532
100
AcDbEntity
  8
JISSEN
100
AcDbCircle
 10
96.90603226701966
 20
150.5007540037038
 30
0.0
 40
15.0
100
AcDbArc
 50
0.0
 51
30.00000000000005
  0
ARC
  5
EF7C88A2C
330
EF7C85532
100
AcDbEntity
  8
JISSEN
100
AcDbCircle
 10
99.11727905054204
 20
149.8990962808592
 30
0.0
 40
10.80551655320168
100
AcDbArc
 50
3.191914576125952
 51
28.34285358349005
  0
ARC
  5
EF7C88A2D
330
EF7C85532
100
AcDbEntity
  8
JISSEN
100
AcDbCircle
 10
96.90603226701966
 20
150.5007540037038
 30
0.0
 40
17.0
100
AcDbArc
 50
0.0
 51
26.17896870401264
  0
ARC
  5
EF7C88A2E
330
EF7C85532
100
AcDbEntity
  8
JISSEN
100
AcDbCircle
 10
83.90603226701967
 20
150.5007540037038
 30
0.0
 40
26.0
100
AcDbArc
 50
341.0908039916751
 51
0.0
  0
ARC
  5
EF7C88A2F
330
EF7C85532
100
AcDbEntity
  8
JISSEN
100
AcDbCircle
 10
96.96672721934385
 20
149.3468020662754
 30
0.0
 40
11.0
100
AcDbArc
 50
47.44478009659957
 51
51.88030773272442
  0
LINE
  5
EF7C88A30
330
EF7C85532
100
AcDbEntity
  8
JISSEN
100
AcDbLine
 10
100.4060322670196
 20
182.5007540037038
 30
0.0
 11
91.90603226701966
 21
182.5007540037038
 31
0.0
  0
LINE
  5
EF7C88A31
330
EF7C85532
100
AcDbEntity
  8
JISSEN
100
AcDbLine
 10
102.1840864949318
 20
180.7226997757916
 30
0.0
 11
81.62797803910747
 21
180.7226997757916
 31
0.0
  0
LINE
  5
EF7C88A32
330
EF7C85532
100
AcDbEntity
  8
JISSEN
100
AcDbLine
 10
102.5695466213454
 20
168.3885921218126
 30
0.0
 11
91.90603226701966
 21
168.3885921218126
 31
0.0
  0
LINE
  5
EF7C88A33
330
EF7C85532
100
AcDbEntity
  8
JISSEN
100
AcDbLine
 10
101.4060322670196
 20
168.0007540037038
 30
0.0
 11
91.90603226701966
 21
168.0007540037038
 31
0.0
  0
LINE
  5
EF7C88A34
330
EF7C85532
100
AcDbEntity
  8
SAISEN
100
AcDbLine
 10
82.82746384374524
 20
181.9221855804295
 30
0.0
 11
82.39253793875958
 21
168.0052521131239
 31
0.0
  0
LINE
  5
EF7C88A35
330
EF7C85532
100
AcDbEntity
  8
JISSEN
100
AcDbLine
 10
81.24251791269376
 20
168.3885921218126
 30
0.0
 11
81.62797803910747
 21
180.7226997757916
 31
0.0
  0
LINE
  5
EF7C88A36
330
EF7C85532
100
AcDbEntity
  8
JISSEN
100
AcDbLine
 10
82.40603226701967
 20
168.0007540037038
 30
0.0
 11
91.90603226701966
 21
168.0007540037038
 31
0.0
  0
LINE
  5
EF7C88A37
330
EF7C85532
100
AcDbEntity
  8
JISSEN
100
AcDbLine
 10
81.24251791269376
 20
168.3885921218126
 30
0.0
 11
91.90603226701966
 21
168.3885921218126
 31
0.0
  0
LINE
  5
EF7C88A38
330
EF7C85532
100
AcDbEntity
  8
JISSEN
100
AcDbLine
 10
81.24251791269376
 20
168.3885921218126
 30
0.0
 11
82.40603226701967
 21
168.0007540037038
 31
0.0
  0
LINE
  5
EF7C88A39
330
EF7C85532
100
AcDbEntity
  8
JISSEN
100
AcDbLine
 10
83.40603226701967
 20
182.5007540037038
 30
0.0
 11
91.90603226701966
 21
182.5007540037038
 31
0.0
  0
LINE
  5
EF7C88A3A
330
EF7C85532
100
AcDbEntity
  8
JISSEN
100
AcDbLine
 10
83.40603226701967
 20
182.5007540037038
 30
0.0
 11
81.62797803910747
 21
180.7226997757916
 31
0.0
  0
LINE
  5
EF7C88A3B
330
EF7C85532
100
AcDbEntity
  8
SAISEN
100
AcDbLine
 10
100.9846006902939
 20
181.9221855804295
 30
0.0
 11
101.4195265952796
 21
168.0052521131239
 31
0.0
  0
LINE
  5
EF7C88A3C
330
EF7C85532
100
AcDbEntity
  8
JISSEN
100
AcDbLine
 10
102.5695466213454
 20
168.3885921218126
 30
0.0
 11
102.1840864949318
 21
180.7226997757916
 31
0.0
  0
LINE
  5
EF7C88A3D
330
EF7C85532
100
AcDbEntity
  8
JISSEN
100
AcDbLine
 10
102.5695466213454
 20
168.3885921218126
 30
0.0
 11
101.4060322670196
 21
168.0007540037038
 31
0.0
  0
LINE
  5
EF7C88A3E
330
EF7C85532
100
AcDbEntity
  8
JISSEN
100
AcDbLine
 10
100.4060322670196
 20
182.5007540037038
 30
0.0
 11
102.1840864949318
 21
180.7226997757916
 31
0.0
  0
LWPOLYLINE
  5
EF7C88A4D
330
EF7C85532
100
AcDbEntity
  8
NITEN
100
AcDbPolyline
 90
        2
 70
     0
 43
0.0
 10
108.9060322670197
 20
233.4490205605735
 42
0.5882352941176294
 10
91.90603226701966
 20
233.4490205605737
 42
0.5882352941176294
  0
LINE
  5
EF7C88B71
330
EF7C85532
100
AcDbEntity
  8
JISSEN
100
AcDbLine
 10
97.90603226701968
 20
157.7007540037038
 30
0.0
 11
85.90603226701967
 21
157.7007540037038
 31
0.0
  0
LINE
  5
EF7C88B72
330
EF7C85532
100
AcDbEntity
  8
JISSEN
100
AcDbLine
 10
85.90603226701967
 20
157.7007540037038
 30
0.0
 11
85.38641702474889
 21
158.0007540037039
 31
0.0
  0
LINE
  5
EF7C88B74
330
EF7C85532
100
AcDbEntity
  8
JISSEN
100
AcDbLine
 10
97.90603226701968
 20
157.7007540037038
 30
0.0
 11
98.42564750929046
 21
158.0007540037039
 31
0.0
  0
ARC
  5
EF7C88B75
330
EF7C85532
100
AcDbEntity
  8
JISSEN
100
AcDbCircle
 10
91.90524771152729
 20
130.4406868061364
 30
0.0
 40
1.6
100
AcDbArc
 50
77.17226570980736
 51
102.8277342901926
  0
ENDSEC
  0
SECTION
  2
OBJECTS
  0
DICTIONARY
  5
EF7C85527
330
0
100
AcDbDictionary
  3
ACAD_GROUP
350
EF7C85528
  3
ACAD_LAYOUT
350
EF7C85BB7
  3
ACAD_MLINESTYLE
350
EF7C85535
  3
ACAD_PLOTSETTINGS
350
EF7C85BB8
  3
ACAD_PLOTSTYLENAME
350
EF7C85BB5
  3
ACDBHEADERROUNDTRIPXREC
350
EF7C892CB
  3
ACDBVARIABLEDICTIONARY
350
EF7C85DB7
  0
DICTIONARY
  5
EF7C85D9A
330
EF7C85532
100
AcDbDictionary
280
     1
  3
ACAD_LAYOUTSELFREF
360
EF7C892ED
  0
DICTIONARY
  5
EF7C85D98
330
EF7C8552F
100
AcDbDictionary
280
     1
  3
ACAD_LAYOUTSELFREF
360
EF7C892EC
  0
DICTIONARY
  5
EF7C85528
102
{ACAD_REACTORS
330
EF7C85527
102
}
330
EF7C85527
100
AcDbDictionary
  0
DICTIONARY
  5
EF7C85BB7
102
{ACAD_REACTORS
330
EF7C85527
102
}
330
EF7C85527
100
AcDbDictionary
  0
DICTIONARY
  5
EF7C85535
102
{ACAD_REACTORS
330
EF7C85527
102
}
330
EF7C85527
100
AcDbDictionary
  3
STANDARD
350
EF7C85536
  0
DICTIONARY
  5
EF7C85BB8
102
{ACAD_REACTORS
330
EF7C85527
102
}
330
EF7C85527
100
AcDbDictionary
  0
ACDBDICTIONARYWDFLT
  5
EF7C85BB5
102
{ACAD_REACTORS
330
EF7C85527
102
}
330
EF7C85527
100
AcDbDictionary
281
     1
  3
Normal
350
EF7C85BB6
100
AcDbDictionaryWithDefault
340
EF7C85BB6
  0
DICTIONARY
  5
EF7C892CB
102
{ACAD_REACTORS
330
EF7C85527
102
}
330
EF7C85527
100
AcDbDictionary
  3
CEPSNTYPE
350
EF7C892D5
  3
DIMSTYLEDATA
350
EF7C892D9
  3
FINGERPRINTGUID
350
EF7C892D6
  3
HYPERLINKBASE
350
EF7C892CE
  3
INSUNITS
350
EF7C892D4
  3
LAYOUTDICT
350
EF7C892D0
  3
LWETCUNION
350
EF7C892D3
  3
PLOTSETDICT
350
EF7C892D1
  3
PLOTSTYLNAMDICT
350
EF7C892D2
  3
PSVPSCALE
350
EF7C892D8
  3
PUCSBASE
350
EF7C892DC
  3
PUCSORGBACK
350
EF7C892E2
  3
PUCSORGBOTTOM
350
EF7C892DE
  3
PUCSORGFRONT
350
EF7C892E1
  3
PUCSORGLEFT
350
EF7C892DF
  3
PUCSORGRIGHT
350
EF7C892E0
  3
PUCSORGTOP
350
EF7C892DD
  3
PUCSORTHOREF
350
EF7C892DA
  3
PUCSORTHOVIEW
350
EF7C892DB
  3
STYLESHEET
350
EF7C892CF
  3
TSTACKALIGN
350
EF7C892CC
  3
TSTACKSIZE
350
EF7C892CD
  3
UCSBASE
350
EF7C892E5
  3
UCSORGBACK
350
EF7C892EB
  3
UCSORGBOTTOM
350
EF7C892E7
  3
UCSORGFRONT
350
EF7C892EA
  3
UCSORGLEFT
350
EF7C892E8
  3
UCSORGRIGHT
350
EF7C892E9
  3
UCSORGTOP
350
EF7C892E6
  3
UCSORTHOREF
350
EF7C892E3
  3
UCSORTHOVIEW
350
EF7C892E4
  3
VERSIONGUID
350
EF7C892D7
  0
DICTIONARY
  5
EF7C85DB7
102
{ACAD_REACTORS
330
EF7C85527
102
}
330
EF7C85527
100
AcDbDictionary
  3
DIMASSOC
350
EF7C892C9
  3
SORTENTS
350
EF7C85DB8
  0
XRECORD
  5
EF7C892ED
102
{ACAD_REACTORS
330
EF7C85D9A
102
}
330
EF7C85D9A
100
AcDbXrecord
340
EF7C85532
  0
XRECORD
  5
EF7C892EC
102
{ACAD_REACTORS
330
EF7C85D98
102
}
330
EF7C85D98
100
AcDbXrecord
340
EF7C8552F
  0
MLINESTYLE
  5
EF7C85536
102
{ACAD_REACTORS
330
EF7C85535
102
}
330
EF7C85535
100
AcDbMlineStyle
  2
STANDARD
 70
     0
  3

 62
   256
 51
90.0
 52
90.0
 71
     2
 49
0.5
 62
   256
  6
BYLAYER
 49
-0.5
 62
   256
  6
BYLAYER
  0
ACDBPLACEHOLDER
  5
EF7C85BB6
102
{ACAD_REACTORS
330
EF7C85BB5
102
}
330
EF7C85BB5
100
AcDbPlaceHolder
280
     0
  0
XRECORD
  5
EF7C892D5
102
{ACAD_REACTORS
330
EF7C892CB
102
}
330
EF7C892CB
100
AcDbXrecord
 90
        0
  0
XRECORD
  5
EF7C892D9
102
{ACAD_REACTORS
330
EF7C892CB
102
}
330
EF7C892CB
100
AcDbXrecord
1000
DSTYLE
1002
{
1070
   279
 70
     2
1070
   341
340
EF7C85537
1070
   342
340
EF7C85537
1070
   343
340
EF7C85543
1070
   344
340
EF7C85543
1002
}
  0
XRECORD
  5
EF7C892D6
102
{ACAD_REACTORS
330
EF7C892CB
102
}
330
EF7C892CB
100
AcDbXrecord
  1
{09AA4C7A-3D6F-4857-A850-771461888CEC}
  0
XRECORD
  5
EF7C892CE
102
{ACAD_REACTORS
330
EF7C892CB
102
}
330
EF7C892CB
100
AcDbXrecord
  1

  0
XRECORD
  5
EF7C892D4
102
{ACAD_REACTORS
330
EF7C892CB
102
}
330
EF7C892CB
100
AcDbXrecord
 90
        0
  0
XRECORD
  5
EF7C892D0
102
{ACAD_REACTORS
330
EF7C892CB
102
}
330
EF7C892CB
100
AcDbXrecord
340
EF7C85BB7
  0
XRECORD
  5
EF7C892D3
102
{ACAD_REACTORS
330
EF7C892CB
102
}
330
EF7C892CB
100
AcDbXrecord
 90
    14877
  0
XRECORD
  5
EF7C892D1
102
{ACAD_REACTORS
330
EF7C892CB
102
}
330
EF7C892CB
100
AcDbXrecord
340
EF7C85BB8
  0
XRECORD
  5
EF7C892D2
102
{ACAD_REACTORS
330
EF7C892CB
102
}
330
EF7C892CB
100
AcDbXrecord
340
EF7C85BB5
  0
XRECORD
  5
EF7C892D8
102
{ACAD_REACTORS
330
EF7C892CB
102
}
330
EF7C892CB
100
AcDbXrecord
 40
0.0
  0
XRECORD
  5
EF7C892DC
102
{ACAD_REACTORS
330
EF7C892CB
102
}
330
EF7C892CB
100
AcDbXrecord
340
0
  0
XRECORD
  5
EF7C892E2
102
{ACAD_REACTORS
330
EF7C892CB
102
}
330
EF7C892CB
100
AcDbXrecord
 10
0.0
 20
0.0
 30
0.0
  0
XRECORD
  5
EF7C892DE
102
{ACAD_REACTORS
330
EF7C892CB
102
}
330
EF7C892CB
100
AcDbXrecord
 10
0.0
 20
0.0
 30
0.0
  0
XRECORD
  5
EF7C892E1
102
{ACAD_REACTORS
330
EF7C892CB
102
}
330
EF7C892CB
100
AcDbXrecord
 10
0.0
 20
0.0
 30
0.0
  0
XRECORD
  5
EF7C892DF
102
{ACAD_REACTORS
330
EF7C892CB
102
}
330
EF7C892CB
100
AcDbXrecord
 10
0.0
 20
0.0
 30
0.0
  0
XRECORD
  5
EF7C892E0
102
{ACAD_REACTORS
330
EF7C892CB
102
}
330
EF7C892CB
100
AcDbXrecord
 10
0.0
 20
0.0
 30
0.0
  0
XRECORD
  5
EF7C892DD
102
{ACAD_REACTORS
330
EF7C892CB
102
}
330
EF7C892CB
100
AcDbXrecord
 10
0.0
 20
0.0
 30
0.0
  0
XRECORD
  5
EF7C892DA
102
{ACAD_REACTORS
330
EF7C892CB
102
}
330
EF7C892CB
100
AcDbXrecord
340
0
  0
XRECORD
  5
EF7C892DB
102
{ACAD_REACTORS
330
EF7C892CB
102
}
330
EF7C892CB
100
AcDbXrecord
 70
     0
  0
XRECORD
  5
EF7C892CF
102
{ACAD_REACTORS
330
EF7C892CB
102
}
330
EF7C892CB
100
AcDbXrecord
  1

  0
XRECORD
  5
EF7C892CC
102
{ACAD_REACTORS
330
EF7C892CB
102
}
330
EF7C892CB
100
AcDbXrecord
 90
        1
  0
XRECORD
  5
EF7C892CD
102
{ACAD_REACTORS
330
EF7C892CB
102
}
330
EF7C892CB
100
AcDbXrecord
 90
       70
  0
XRECORD
  5
EF7C892E5
102
{ACAD_REACTORS
330
EF7C892CB
102
}
330
EF7C892CB
100
AcDbXrecord
340
0
  0
XRECORD
  5
EF7C892EB
102
{ACAD_REACTORS
330
EF7C892CB
102
}
330
EF7C892CB
100
AcDbXrecord
 10
0.0
 20
0.0
 30
0.0
  0
XRECORD
  5
EF7C892E7
102
{ACAD_REACTORS
330
EF7C892CB
102
}
330
EF7C892CB
100
AcDbXrecord
 10
0.0
 20
0.0
 30
0.0
  0
XRECORD
  5
EF7C892EA
102
{ACAD_REACTORS
330
EF7C892CB
102
}
330
EF7C892CB
100
AcDbXrecord
 10
0.0
 20
0.0
 30
0.0
  0
XRECORD
  5
EF7C892E8
102
{ACAD_REACTORS
330
EF7C892CB
102
}
330
EF7C892CB
100
AcDbXrecord
 10
0.0
 20
0.0
 30
0.0
  0
XRECORD
  5
EF7C892E9
102
{ACAD_REACTORS
330
EF7C892CB
102
}
330
EF7C892CB
100
AcDbXrecord
 10
0.0
 20
0.0
 30
0.0
  0
XRECORD
  5
EF7C892E6
102
{ACAD_REACTORS
330
EF7C892CB
102
}
330
EF7C892CB
100
AcDbXrecord
 10
0.0
 20
0.0
 30
0.0
  0
XRECORD
  5
EF7C892E3
102
{ACAD_REACTORS
330
EF7C892CB
102
}
330
EF7C892CB
100
AcDbXrecord
340
0
  0
XRECORD
  5
EF7C892E4
102
{ACAD_REACTORS
330
EF7C892CB
102
}
330
EF7C892CB
100
AcDbXrecord
 70
     0
  0
XRECORD
  5
EF7C892D7
102
{ACAD_REACTORS
330
EF7C892CB
102
}
330
EF7C892CB
100
AcDbXrecord
  1
{572EC83D-DDFF-49B9-A11B-1CC02BE81827}
  0
DICTIONARYVAR
  5
EF7C892C9
102
{ACAD_REACTORS
330
EF7C85DB7
102
}
330
EF7C85DB7
100
DictionaryVariables
280
     0
  1
0
  0
DICTIONARYVAR
  5
EF7C85DB8
102
{ACAD_REACTORS
330
EF7C85DB7
102
}
330
EF7C85DB7
100
DictionaryVariables
280
     0
  1
96
  0
ENDSEC
  0
EOF
