  0
SECTION
  2
HEADER
  9
$ACADVER
  1
AC1014
  9
$ACADMAINTVER
 70
     9
  9
$DWGCODEPAGE
  3
ANSI_932
  9
$INSBASE
 10
0.0
 20
0.0
 30
0.0
  9
$EXTMIN
 10
0.0
 20
0.0
 30
0.0
  9
$EXTMAX
 10
180.999999276
 20
282.9999999999999
 30
0.0
  9
$LIMMIN
 10
0.0
 20
0.0
  9
$LIMMAX
 10
181.0
 20
283.0
  9
$ORTHOMODE
 70
     1
  9
$REGENMODE
 70
     1
  9
$FILLMODE
 70
     1
  9
$QTEXTMODE
 70
     0
  9
$MIRRTEXT
 70
     0
  9
$DRAGMODE
 70
     2
  9
$LTSCALE
 40
5.0
  9
$OSMODE
 70
   167
  9
$ATTMODE
 70
     1
  9
$TEXTSIZE
 40
3.0
  9
$TRACEWID
 40
0.05
  9
$TEXTSTYLE
  7
BIGFONT
  9
$CLAYER
  8
JISSEN
  9
$CELTYPE
  6
BYLAYER
  9
$CECOLOR
 62
   256
  9
$CELTSCALE
 40
1.0
  9
$DELOBJ
 70
     1
  9
$DISPSILH
 70
     0
  9
$DIMSCALE
 40
1.0
  9
$DIMASZ
 40
1.5
  9
$DIMEXO
 40
1.0
  9
$DIMDLI
 40
6.0
  9
$DIMRND
 40
0.0
  9
$DIMDLE
 40
0.0
  9
$DIMEXE
 40
1.0
  9
$DIMTP
 40
0.0
  9
$DIMTM
 40
0.0
  9
$DIMTXT
 40
3.0
  9
$DIMCEN
 40
1.0
  9
$DIMTSZ
 40
0.0
  9
$DIMTOL
 70
     0
  9
$DIMLIM
 70
     0
  9
$DIMTIH
 70
     0
  9
$DIMTOH
 70
     0
  9
$DIMSE1
 70
     0
  9
$DIMSE2
 70
     0
  9
$DIMTAD
 70
     0
  9
$DIMZIN
 70
     8
  9
$DIMBLK
  1
ARROW
  9
$DIMASO
 70
     0
  9
$DIMSHO
 70
     0
  9
$DIMPOST
  1

  9
$DIMAPOST
  1

  9
$DIMALT
 70
     0
  9
$DIMALTD
 70
     2
  9
$DIMALTF
 40
25.4
  9
$DIMLFAC
 40
1.0
  9
$DIMTOFL
 70
     1
  9
$DIMTVP
 40
0.0
  9
$DIMTIX
 70
     0
  9
$DIMSOXD
 70
     0
  9
$DIMSAH
 70
     0
  9
$DIMBLK1
  1
ARROWANG
  9
$DIMBLK2
  1
ARROWANG
  9
$DIMSTYLE
  2
IMAO
  9
$DIMCLRD
 70
     0
  9
$DIMCLRE
 70
     0
  9
$DIMCLRT
 70
     0
  9
$DIMTFAC
 40
1.0
  9
$DIMGAP
 40
0.09
  9
$DIMJUST
 70
     0
  9
$DIMSD1
 70
     0
  9
$DIMSD2
 70
     0
  9
$DIMTOLJ
 70
     1
  9
$DIMTZIN
 70
     8
  9
$DIMALTZ
 70
     8
  9
$DIMALTTZ
 70
     8
  9
$DIMFIT
 70
     5
  9
$DIMUPT
 70
     0
  9
$DIMUNIT
 70
     2
  9
$DIMDEC
 70
     2
  9
$DIMTDEC
 70
     2
  9
$DIMALTU
 70
     2
  9
$DIMALTTD
 70
     2
  9
$DIMTXSTY
  7
BIGFONT
  9
$DIMAUNIT
 70
     0
  9
$LUNITS
 70
     2
  9
$LUPREC
 70
     2
  9
$SKETCHINC
 40
0.1
  9
$FILLETRAD
 40
0.2
  9
$AUNITS
 70
     0
  9
$AUPREC
 70
     2
  9
$MENU
  1
stdr12j
  9
$ELEVATION
 40
0.0
  9
$PELEVATION
 40
0.0
  9
$THICKNESS
 40
0.0
  9
$LIMCHECK
 70
     0
  9
$BLIPMODE
 70
     0
  9
$CHAMFERA
 40
0.0
  9
$CHAMFERB
 40
0.0
  9
$CHAMFERC
 40
0.0
  9
$CHAMFERD
 40
0.0
  9
$SKPOLY
 70
     0
  9
$TDCREATE
 40
2450617.453041203
  9
$TDUPDATE
 40
2453334.736180347
  9
$TDINDWG
 40
0.1557705556
  9
$TDUSRTIMER
 40
0.1557705556
  9
$USRTIMER
 70
     1
  9
$ANGBASE
 50
0.0
  9
$ANGDIR
 70
     0
  9
$PDMODE
 70
     0
  9
$PDSIZE
 40
0.0
  9
$PLINEWID
 40
0.0
  9
$COORDS
 70
     2
  9
$SPLFRAME
 70
     0
  9
$SPLINETYPE
 70
     6
  9
$SPLINESEGS
 70
     8
  9
$ATTDIA
 70
     0
  9
$ATTREQ
 70
     1
  9
$HANDLING
 70
 22529
  9
$HANDSEED
  5
EF7C893E6
  9
$SURFTAB1
 70
     6
  9
$SURFTAB2
 70
     6
  9
$SURFTYPE
 70
     6
  9
$SURFU
 70
     6
  9
$SURFV
 70
     6
  9
$UCSNAME
  2

  9
$UCSORG
 10
0.0
 20
0.0
 30
0.0
  9
$UCSXDIR
 10
1.0
 20
0.0
 30
0.0
  9
$UCSYDIR
 10
0.0
 20
1.0
 30
0.0
  9
$PUCSNAME
  2

  9
$PUCSORG
 10
0.0
 20
0.0
 30
0.0
  9
$PUCSXDIR
 10
1.0
 20
0.0
 30
0.0
  9
$PUCSYDIR
 10
0.0
 20
1.0
 30
0.0
  9
$USERI1
 70
     0
  9
$USERI2
 70
     1
  9
$USERI3
 70
     1
  9
$USERI4
 70
     3
  9
$USERI5
 70
     0
  9
$USERR1
 40
1.0
  9
$USERR2
 40
3.0
  9
$USERR3
 40
3.0
  9
$USERR4
 40
1.5
  9
$USERR5
 40
8.0
  9
$WORLDVIEW
 70
     1
  9
$SHADEDGE
 70
     3
  9
$SHADEDIF
 70
    70
  9
$TILEMODE
 70
     1
  9
$MAXACTVP
 70
    16
  9
$PINSBASE
 10
0.0
 20
0.0
 30
0.0
  9
$PLIMCHECK
 70
     0
  9
$PEXTMIN
 10
1.000000000000000E+20
 20
1.000000000000000E+20
 30
1.000000000000000E+20
  9
$PEXTMAX
 10
-1.000000000000000E+20
 20
-1.000000000000000E+20
 30
-1.000000000000000E+20
  9
$PLIMMIN
 10
0.0
 20
0.0
  9
$PLIMMAX
 10
12.0
 20
9.0
  9
$UNITMODE
 70
     0
  9
$VISRETAIN
 70
     0
  9
$PLINEGEN
 70
     0
  9
$PSLTSCALE
 70
     0
  9
$TREEDEPTH
 70
  3020
  9
$PICKSTYLE
 70
     1
  9
$CMLSTYLE
  2
STANDARD
  9
$CMLJUST
 70
     0
  9
$CMLSCALE
 40
1.0
  9
$PROXYGRAPHICS
 70
     1
  9
$MEASUREMENT
 70
     0
  0
ENDSEC
  0
SECTION
  2
CLASSES
  0
CLASS
  1
LWPOLYLINE
  2
AcDbPolyline
  3
AutoCAD 2000
 90
        0
280
     0
281
     1
  0
CLASS
  1
HATCH
  2
AcDbHatch
  3
AutoCAD 2000
 90
        0
280
     0
281
     1
  0
CLASS
  1
ACDBDICTIONARYWDFLT
  2
AcDbDictionaryWithDefault
  3
AutoCAD 2000
 90
        0
280
     0
281
     0
  0
CLASS
  1
ACDBPLACEHOLDER
  2
AcDbPlaceHolder
  3
AutoCAD 2000
 90
        0
280
     0
281
     0
  0
CLASS
  1
LAYOUT
  2
AcDbLayout
  3
AutoCAD 2000
 90
        0
280
     0
281
     0
  0
CLASS
  1
LONG_TRANSACTION
  2
AcDbLongTransaction
  3
AutoCAD 2000
 90
        0
280
     0
281
     0
  0
CLASS
  1
LWPOLYLINE
  2
AcDbPolyline
  3
AutoCAD 2000
 90
        0
280
     0
281
     1
  0
CLASS
  1
HATCH
  2
AcDbHatch
  3
AutoCAD 2000
 90
        0
280
     0
281
     1
  0
CLASS
  1
XRECORD
  2
AcDbXrecord
  3
AutoCAD 2000
 90
        0
280
     0
281
     0
  0
CLASS
  1
DICTIONARYVAR
  2
AcDbDictionaryVar
  3
AutoCAD 2000
 90
        0
280
     0
281
     0
  0
CLASS
  1
LONG_TRANSACTION
  2
AcDbLongTransaction
  3
AutoCAD 2000
 90
        0
280
     0
281
     0
  0
CLASS
  1
LWPOLYLINE
  2
AcDbPolyline
  3
AutoCAD 2000
 90
        0
280
     0
281
     1
  0
CLASS
  1
HATCH
  2
AcDbHatch
  3
AutoCAD 2000
 90
        0
280
     0
281
     1
  0
CLASS
  1
XRECORD
  2
AcDbXrecord
  3
AutoCAD 2000
 90
        0
280
     0
281
     0
  0
CLASS
  1
LONG_TRANSACTION
  2
AcDbLongTransaction
  3
AutoCAD 2000
 90
        0
280
     0
281
     0
  0
CLASS
  1
LWPOLYLINE
  2
AcDbPolyline
  3
AutoCAD 2000
 90
        0
280
     0
281
     1
  0
CLASS
  1
HATCH
  2
AcDbHatch
  3
AutoCAD 2000
 90
        0
280
     0
281
     1
  0
CLASS
  1
XRECORD
  2
AcDbXrecord
  3
AutoCAD 2000
 90
        0
280
     0
281
     0
  0
CLASS
  1
LONG_TRANSACTION
  2
AcDbLongTransaction
  3
AutoCAD 2000
 90
        0
280
     0
281
     0
  0
CLASS
  1
LWPOLYLINE
  2
AcDbPolyline
  3
AutoCAD 2000
 90
        0
280
     0
281
     1
  0
CLASS
  1
HATCH
  2
AcDbHatch
  3
AutoCAD 2000
 90
        0
280
     0
281
     1
  0
CLASS
  1
XRECORD
  2
AcDbXrecord
  3
AutoCAD 2000
 90
        0
280
     0
281
     0
  0
CLASS
  1
LONG_TRANSACTION
  2
AcDbLongTransaction
  3
AutoCAD 2000
 90
        0
280
     0
281
     0
  0
CLASS
  1
LWPOLYLINE
  2
AcDbPolyline
  3
AutoCAD 2000
 90
        0
280
     0
281
     1
  0
CLASS
  1
HATCH
  2
AcDbHatch
  3
AutoCAD 2000
 90
        0
280
     0
281
     1
  0
CLASS
  1
XRECORD
  2
AcDbXrecord
  3
AutoCAD 2000
 90
        0
280
     0
281
     0
  0
CLASS
  1
LONG_TRANSACTION
  2
AcDbLongTransaction
  3
AutoCAD 2000
 90
        0
280
     0
281
     0
  0
CLASS
  1
LWPOLYLINE
  2
AcDbPolyline
  3
AutoCAD 2000
 90
        0
280
     0
281
     1
  0
CLASS
  1
HATCH
  2
AcDbHatch
  3
AutoCAD 2000
 90
        0
280
     0
281
     1
  0
CLASS
  1
XRECORD
  2
AcDbXrecord
  3
AutoCAD 2000
 90
        0
280
     0
281
     0
  0
CLASS
  1
LONG_TRANSACTION
  2
AcDbLongTransaction
  3
AutoCAD 2000
 90
        0
280
     0
281
     0
  0
CLASS
  1
LWPOLYLINE
  2
AcDbPolyline
  3
AutoCAD 2000
 90
        0
280
     0
281
     1
  0
CLASS
  1
HATCH
  2
AcDbHatch
  3
AutoCAD 2000
 90
        0
280
     0
281
     1
  0
CLASS
  1
XRECORD
  2
AcDbXrecord
  3
AutoCAD 2000
 90
        0
280
     0
281
     0
  0
CLASS
  1
LONG_TRANSACTION
  2
AcDbLongTransaction
  3
AutoCAD 2000
 90
        0
280
     0
281
     0
  0
CLASS
  1
LWPOLYLINE
  2
AcDbPolyline
  3
AutoCAD 2000
 90
        0
280
     0
281
     1
  0
CLASS
  1
HATCH
  2
AcDbHatch
  3
AutoCAD 2000
 90
        0
280
     0
281
     1
  0
CLASS
  1
XRECORD
  2
AcDbXrecord
  3
AutoCAD 2000
 90
        0
280
     0
281
     0
  0
CLASS
  1
LONG_TRANSACTION
  2
AcDbLongTransaction
  3
AutoCAD 2000
 90
        0
280
     0
281
     0
  0
CLASS
  1
LWPOLYLINE
  2
AcDbPolyline
  3
AutoCAD 2000
 90
        0
280
     0
281
     1
  0
CLASS
  1
HATCH
  2
AcDbHatch
  3
AutoCAD 2000
 90
        0
280
     0
281
     1
  0
CLASS
  1
XRECORD
  2
AcDbXrecord
  3
AutoCAD 2000
 90
        0
280
     0
281
     0
  0
CLASS
  1
LONG_TRANSACTION
  2
AcDbLongTransaction
  3
AutoCAD 2000
 90
        0
280
     0
281
     0
  0
CLASS
  1
LWPOLYLINE
  2
AcDbPolyline
  3
AutoCAD 2000
 90
        0
280
     0
281
     1
  0
CLASS
  1
HATCH
  2
AcDbHatch
  3
AutoCAD 2000
 90
        0
280
     0
281
     1
  0
CLASS
  1
XRECORD
  2
AcDbXrecord
  3
AutoCAD 2000
 90
        0
280
     0
281
     0
  0
CLASS
  1
LONG_TRANSACTION
  2
AcDbLongTransaction
  3
AutoCAD 2000
 90
        0
280
     0
281
     0
  0
CLASS
  1
LWPOLYLINE
  2
AcDbPolyline
  3
AutoCAD 2000
 90
        0
280
     0
281
     1
  0
CLASS
  1
HATCH
  2
AcDbHatch
  3
AutoCAD 2000
 90
        0
280
     0
281
     1
  0
CLASS
  1
XRECORD
  2
AcDbXrecord
  3
AutoCAD 2000
 90
        0
280
     0
281
     0
  0
CLASS
  1
LONG_TRANSACTION
  2
AcDbLongTransaction
  3
AutoCAD 2000
 90
        0
280
     0
281
     0
  0
CLASS
  1
LWPOLYLINE
  2
AcDbPolyline
  3
AutoCAD 2000
 90
        0
280
     0
281
     1
  0
CLASS
  1
HATCH
  2
AcDbHatch
  3
AutoCAD 2000
 90
        0
280
     0
281
     1
  0
CLASS
  1
XRECORD
  2
AcDbXrecord
  3
AutoCAD 2000
 90
        0
280
     0
281
     0
  0
CLASS
  1
LONG_TRANSACTION
  2
AcDbLongTransaction
  3
AutoCAD 2000
 90
        0
280
     0
281
     0
  0
CLASS
  1
LWPOLYLINE
  2
AcDbPolyline
  3
AutoCAD 2000
 90
        0
280
     0
281
     1
  0
CLASS
  1
HATCH
  2
AcDbHatch
  3
AutoCAD 2000
 90
        0
280
     0
281
     1
  0
CLASS
  1
XRECORD
  2
AcDbXrecord
  3
AutoCAD 2000
 90
        0
280
     0
281
     0
  0
CLASS
  1
LONG_TRANSACTION
  2
AcDbLongTransaction
  3
AutoCAD 2000
 90
        0
280
     0
281
     0
  0
CLASS
  1
LWPOLYLINE
  2
AcDbPolyline
  3
AutoCAD 2000
 90
        0
280
     0
281
     1
  0
CLASS
  1
HATCH
  2
AcDbHatch
  3
AutoCAD 2000
 90
        0
280
     0
281
     1
  0
CLASS
  1
XRECORD
  2
AcDbXrecord
  3
AutoCAD 2000
 90
        0
280
     0
281
     0
  0
CLASS
  1
LONG_TRANSACTION
  2
AcDbLongTransaction
  3
AutoCAD 2000
 90
        0
280
     0
281
     0
  0
CLASS
  1
LWPOLYLINE
  2
AcDbPolyline
  3
AutoCAD 2000
 90
        0
280
     0
281
     1
  0
CLASS
  1
HATCH
  2
AcDbHatch
  3
AutoCAD 2000
 90
        0
280
     0
281
     1
  0
CLASS
  1
XRECORD
  2
AcDbXrecord
  3
AutoCAD 2000
 90
        0
280
     0
281
     0
  0
CLASS
  1
LONG_TRANSACTION
  2
AcDbLongTransaction
  3
AutoCAD 2000
 90
        0
280
     0
281
     0
  0
CLASS
  1
LWPOLYLINE
  2
AcDbPolyline
  3
AutoCAD 2000
 90
        0
280
     0
281
     1
  0
CLASS
  1
HATCH
  2
AcDbHatch
  3
AutoCAD 2000
 90
        0
280
     0
281
     1
  0
CLASS
  1
XRECORD
  2
AcDbXrecord
  3
AutoCAD 2000
 90
        0
280
     0
281
     0
  0
CLASS
  1
LONG_TRANSACTION
  2
AcDbLongTransaction
  3
AutoCAD 2000
 90
        0
280
     0
281
     0
  0
CLASS
  1
LWPOLYLINE
  2
AcDbPolyline
  3
AutoCAD 2000
 90
        0
280
     0
281
     1
  0
CLASS
  1
HATCH
  2
AcDbHatch
  3
AutoCAD 2000
 90
        0
280
     0
281
     1
  0
CLASS
  1
XRECORD
  2
AcDbXrecord
  3
AutoCAD 2000
 90
        0
280
     0
281
     0
  0
ENDSEC
  0
SECTION
  2
TABLES
  0
TABLE
  2
VPORT
  5
EF7C85523
330
0
100
AcDbSymbolTable
 70
    10
  0
VPORT
  5
EF7C85567
330
EF7C85523
100
AcDbSymbolTableRecord
100
AcDbViewportTableRecord
  2
2
 70
     0
 10
0.5
 20
0.0
 11
1.0
 21
1.0
 12
0.9240312421264802
 22
1.052650975462766
 13
0.0
 23
0.0
 14
1.0
 24
1.0
 15
10.0
 25
10.0
 16
0.0
 26
0.0
 36
1.0
 17
0.0
 27
0.0
 37
0.0
 40
2.105301950925533
 41
0.8778135048231511
 42
50.0
 43
0.0
 44
0.0
 50
0.0
 51
0.0
 71
     0
 72
   500
 73
     1
 74
     1
 75
     0
 76
     0
 77
     0
 78
     0
  0
VPORT
  5
EF7C85568
330
EF7C85523
100
AcDbSymbolTableRecord
100
AcDbViewportTableRecord
  2
2
 70
     0
 10
0.0
 20
0.0
 11
0.5
 21
1.0
 12
0.9240312421264802
 22
1.052650975462766
 13
0.0
 23
0.0
 14
1.0
 24
1.0
 15
10.0
 25
10.0
 16
0.0
 26
0.0
 36
1.0
 17
0.0
 27
0.0
 37
0.0
 40
2.105301950925533
 41
0.8778135048231511
 42
50.0
 43
0.0
 44
0.0
 50
0.0
 51
0.0
 71
     0
 72
   500
 73
     1
 74
     1
 75
     0
 76
     0
 77
     0
 78
     0
  0
VPORT
  5
EF7C85569
330
EF7C85523
100
AcDbSymbolTableRecord
100
AcDbViewportTableRecord
  2
3
 70
     0
 10
0.0
 20
0.5
 11
1.0
 21
1.0
 12
2.832169994473273
 22
1.052650975462766
 13
0.0
 23
0.0
 14
1.0
 24
1.0
 15
10.0
 25
10.0
 16
0.0
 26
0.0
 36
1.0
 17
0.0
 27
0.0
 37
0.0
 40
2.105301950925533
 41
3.571428571428571
 42
50.0
 43
0.0
 44
0.0
 50
0.0
 51
0.0
 71
     0
 72
   500
 73
     1
 74
     1
 75
     0
 76
     0
 77
     0
 78
     0
  0
VPORT
  5
EF7C8556A
330
EF7C85523
100
AcDbSymbolTableRecord
100
AcDbViewportTableRecord
  2
3
 70
     0
 10
0.0
 20
0.0
 11
1.0
 21
0.5
 12
2.856741679241311
 22
1.052650975462766
 13
0.0
 23
0.0
 14
1.0
 24
1.0
 15
10.0
 25
10.0
 16
0.0
 26
0.0
 36
1.0
 17
0.0
 27
0.0
 37
0.0
 40
2.105301950925533
 41
3.594771241830065
 42
50.0
 43
0.0
 44
0.0
 50
0.0
 51
0.0
 71
     0
 72
   500
 73
     1
 74
     1
 75
     0
 76
     0
 77
     0
 78
     0
  0
VPORT
  5
EF7C8556B
330
EF7C85523
100
AcDbSymbolTableRecord
100
AcDbViewportTableRecord
  2
4
 70
     0
 10
0.5
 20
0.0
 11
1.0
 21
0.5
 12
2.886857516709719
 22
1.052650975462766
 13
0.0
 23
0.0
 14
1.0
 24
1.0
 15
10.0
 25
10.0
 16
0.0
 26
0.0
 36
1.0
 17
0.0
 27
0.0
 37
0.0
 40
4.27520703030907
 41
1.784313725490195
 42
50.0
 43
0.0
 44
0.0
 50
0.0
 51
0.0
 71
     0
 72
   500
 73
     1
 74
     1
 75
     0
 76
     0
 77
     0
 78
     0
  0
VPORT
  5
EF7C8556C
330
EF7C85523
100
AcDbSymbolTableRecord
100
AcDbViewportTableRecord
  2
4
 70
     0
 10
0.5
 20
0.5
 11
1.0
 21
1.0
 12
2.862090274555523
 22
1.052650975462766
 13
0.0
 23
0.0
 14
1.0
 24
1.0
 15
10.0
 25
10.0
 16
0.0
 26
0.0
 36
1.0
 17
0.0
 27
0.0
 37
0.0
 40
4.27520703030907
 41
1.772727272727272
 42
50.0
 43
0.0
 44
0.0
 50
0.0
 51
0.0
 71
     0
 72
   500
 73
     1
 74
     1
 75
     0
 76
     0
 77
     0
 78
     0
  0
VPORT
  5
EF7C8556D
330
EF7C85523
100
AcDbSymbolTableRecord
100
AcDbViewportTableRecord
  2
4
 70
     0
 10
0.0
 20
0.5
 11
0.5
 21
1.0
 12
2.862090274555523
 22
1.052650975462766
 13
0.0
 23
0.0
 14
1.0
 24
1.0
 15
10.0
 25
10.0
 16
0.0
 26
0.0
 36
1.0
 17
0.0
 27
0.0
 37
0.0
 40
4.27520703030907
 41
1.772727272727272
 42
50.0
 43
0.0
 44
0.0
 50
0.0
 51
0.0
 71
     0
 72
   500
 73
     1
 74
     1
 75
     0
 76
     0
 77
     0
 78
     0
  0
VPORT
  5
EF7C8556E
330
EF7C85523
100
AcDbSymbolTableRecord
100
AcDbViewportTableRecord
  2
4
 70
     0
 10
0.0
 20
0.0
 11
0.5
 21
0.5
 12
2.886857516709719
 22
1.052650975462766
 13
0.0
 23
0.0
 14
1.0
 24
1.0
 15
10.0
 25
10.0
 16
0.0
 26
0.0
 36
1.0
 17
0.0
 27
0.0
 37
0.0
 40
4.27520703030907
 41
1.784313725490195
 42
50.0
 43
0.0
 44
0.0
 50
0.0
 51
0.0
 71
     0
 72
   500
 73
     1
 74
     1
 75
     0
 76
     0
 77
     0
 78
     0
  0
VPORT
  5
EF7C893C2
330
EF7C85523
100
AcDbSymbolTableRecord
100
AcDbViewportTableRecord
  2
*ACTIVE
 70
     0
 10
0.0
 20
0.0
 11
1.0
 21
1.0
 12
172.3497167501502
 22
141.5028215483459
 13
0.0
 23
0.0
 14
1.0
 24
1.0
 15
10.0
 25
10.0
 16
0.0
 26
0.0
 36
1.0
 17
0.0
 27
0.0
 37
0.0
 40
286.2639923269072
 41
1.771962616822429
 42
50.0
 43
0.0
 44
0.0
 50
0.0
 51
0.0
 71
     0
 72
   500
 73
     1
 74
     0
 75
     0
 76
     0
 77
     0
 78
     0
  0
ENDTAB
  0
TABLE
  2
LTYPE
  5
EF7C85520
330
0
100
AcDbSymbolTable
 70
     4
  0
LTYPE
  5
EF7C8552C
330
EF7C85520
100
AcDbSymbolTableRecord
100
AcDbLinetypeTableRecord
  2
BYBLOCK
 70
     0
  3

 72
    65
 73
     0
 40
0.0
  0
LTYPE
  5
EF7C8552D
330
EF7C85520
100
AcDbSymbolTableRecord
100
AcDbLinetypeTableRecord
  2
BYLAYER
 70
     0
  3

 72
    65
 73
     0
 40
0.0
  0
LTYPE
  5
EF7C8552E
330
EF7C85520
100
AcDbSymbolTableRecord
100
AcDbLinetypeTableRecord
  2
CONTINUOUS
 70
     0
  3
実線
 72
    65
 73
     0
 40
0.0
  0
LTYPE
  5
EF7C85565
330
EF7C85520
100
AcDbSymbolTableRecord
100
AcDbLinetypeTableRecord
  2
PHANTOM
 70
     0
  3
_____ _ _ _____ _ _ _____ _ _ _____ _ _ ____
 72
    65
 73
     6
 40
2.5
 49
1.25
 74
     0
 49
-0.25
 74
     0
 49
0.25
 74
     0
 49
-0.25
 74
     0
 49
0.25
 74
     0
 49
-0.25
 74
     0
  0
LTYPE
  5
EF7C8711F
330
EF7C85520
100
AcDbSymbolTableRecord
100
AcDbLinetypeTableRecord
  2
CENTER
 70
     0
  3
____ _ ____ _ ____ _ ____ _ ____ _ ____ _ ____
 72
    65
 73
     4
 40
2.0
 49
1.25
 74
     0
 49
-0.25
 74
     0
 49
0.25
 74
     0
 49
-0.25
 74
     0
  0
LTYPE
  5
EF7C87AC6
330
EF7C85520
100
AcDbSymbolTableRecord
100
AcDbLinetypeTableRecord
  2
HIDDEN
 70
     0
  3
_ _ _ _ _ _ _ _ _ _ _ _ _ _ _ _ _ _ _ _ _ _ _
 72
    65
 73
     2
 40
0.375
 49
0.25
 74
     0
 49
-0.125
 74
     0
  0
ENDTAB
  0
TABLE
  2
LAYER
  5
EF7C8551D
330
0
100
AcDbSymbolTable
 70
    10
  0
LAYER
  5
EF7C85529
330
EF7C8551D
100
AcDbSymbolTableRecord
100
AcDbLayerTableRecord
  2
0
 70
     0
 62
     6
  6
CONTINUOUS
  0
LAYER
  5
EF7C85574
330
EF7C8551D
100
AcDbSymbolTableRecord
100
AcDbLayerTableRecord
  2
NITEN
 70
     0
 62
     2
  6
PHANTOM
  0
LAYER
  5
EF7C85575
330
EF7C8551D
100
AcDbSymbolTableRecord
100
AcDbLayerTableRecord
  2
HATCH
 70
     0
 62
     4
  6
CONTINUOUS
  0
LAYER
  5
EF7C85576
330
EF7C8551D
100
AcDbSymbolTableRecord
100
AcDbLayerTableRecord
  2
SUNPOU
 70
     0
 62
     3
  6
CONTINUOUS
  0
LAYER
  5
EF7C85577
330
EF7C8551D
100
AcDbSymbolTableRecord
100
AcDbLayerTableRecord
  2
TEXT
 70
     0
 62
     3
  6
CONTINUOUS
  0
LAYER
  5
EF7C85578
330
EF7C8551D
100
AcDbSymbolTableRecord
100
AcDbLayerTableRecord
  2
SAISEN
 70
     0
 62
     4
  6
CONTINUOUS
  0
LAYER
  5
EF7C85579
330
EF7C8551D
100
AcDbSymbolTableRecord
100
AcDbLayerTableRecord
  2
JISSEN
 70
     0
 62
     7
  6
CONTINUOUS
  0
LAYER
  5
EF7C8557D
330
EF7C8551D
100
AcDbSymbolTableRecord
100
AcDbLayerTableRecord
  2
WAKU
 70
     0
 62
     5
  6
CONTINUOUS
  0
LAYER
  5
EF7C87120
330
EF7C8551D
100
AcDbSymbolTableRecord
100
AcDbLayerTableRecord
  2
ITTEN
 70
     0
 62
     1
  6
CENTER
  0
LAYER
  5
EF7C87AC7
330
EF7C8551D
100
AcDbSymbolTableRecord
100
AcDbLayerTableRecord
  2
TENSEN
 70
     0
 62
     2
  6
HIDDEN
  0
ENDTAB
  0
TABLE
  2
STYLE
  5
EF7C8551E
330
0
100
AcDbSymbolTable
 70
     3
  0
STYLE
  5
EF7C8552A
330
EF7C8551E
100
AcDbSymbolTableRecord
100
AcDbTextStyleTableRecord
  2
STANDARD
 70
     0
 40
0.0
 41
1.0
 50
0.0
 71
     0
 42
1.5
  3
SIMPLEX
  4

  0
STYLE
  5
EF7C85558
330
EF7C8551E
100
AcDbSymbolTableRecord
100
AcDbTextStyleTableRecord
  2
K
 70
     0
 40
0.0
 41
1.0
 50
0.0
 71
     0
 42
3.0
  3
ROMANS
  4
BIGFONT
  0
STYLE
  5
EF7C8555B
330
EF7C8551E
100
AcDbSymbolTableRecord
100
AcDbTextStyleTableRecord
  2
BIGFONT
 70
     0
 40
0.0
 41
1.0
 50
0.0
 71
     0
 42
3.0
  3
txt.shx
  4
bigfont
  0
ENDTAB
  0
TABLE
  2
VIEW
  5
EF7C85521
330
0
100
AcDbSymbolTable
 70
     0
  0
ENDTAB
  0
TABLE
  2
UCS
  5
EF7C85522
330
0
100
AcDbSymbolTable
 70
     0
  0
ENDTAB
  0
TABLE
  2
APPID
  5
EF7C85524
330
0
100
AcDbSymbolTable
 70
     1
  0
APPID
  5
EF7C8552B
330
EF7C85524
100
AcDbSymbolTableRecord
100
AcDbRegAppTableRecord
  2
ACAD
 70
     0
  0
ENDTAB
  0
TABLE
  2
DIMSTYLE
  5
EF7C85525
330
0
100
AcDbSymbolTable
 70
     1
  0
DIMSTYLE
105
EF7C85571
330
EF7C85525
100
AcDbSymbolTableRecord
100
AcDbDimStyleTableRecord
  2
IMAO
 70
     0
  3

  4

  5
ARROWANG
  6
ARROWANG
  7
ARROWANG
 40
1.0
 41
1.5
 42
1.0
 43
6.0
 44
1.0
 45
0.0
 46
0.0
 47
495.0
 48
0.0
140
3.0
141
0.0
142
0.0
143
25.4
144
1.0
145
0.0
146
1.0
147
0.09
 71
     0
 72
     0
 73
     0
 74
     0
 75
     0
 76
     0
 77
     1
 78
     8
170
     0
171
     2
172
     1
173
     0
174
     1
175
     0
176
     0
177
     0
178
     0
270
     2
271
     2
272
     2
273
     2
274
     2
340
EF7C8555B
275
     0
280
     0
281
     0
282
     0
283
     1
284
     8
285
     8
286
     8
287
     5
288
     0
  0
ENDTAB
  0
TABLE
  2
BLOCK_RECORD
  5
EF7C8551C
330
0
100
AcDbSymbolTable
 70
    10
  0
BLOCK_RECORD
  5
EF7C85532
102
{ACAD_XDICTIONARY
360
EF7C85D9A
102
}
330
EF7C8551C
100
AcDbSymbolTableRecord
100
AcDbBlockTableRecord
  2
*MODEL_SPACE
  0
BLOCK_RECORD
  5
EF7C8552F
102
{ACAD_XDICTIONARY
360
EF7C85D98
102
}
330
EF7C8551C
100
AcDbSymbolTableRecord
100
AcDbBlockTableRecord
  2
*PAPER_SPACE
  0
BLOCK_RECORD
  5
EF7C85537
330
EF7C8551C
100
AcDbSymbolTableRecord
100
AcDbBlockTableRecord
  2
ARROW
  0
BLOCK_RECORD
  5
EF7C8553B
330
EF7C8551C
100
AcDbSymbolTableRecord
100
AcDbBlockTableRecord
  2
WAKU
  0
BLOCK_RECORD
  5
EF7C8553D
330
EF7C8551C
100
AcDbSymbolTableRecord
100
AcDbBlockTableRecord
  2
*X2
  0
BLOCK_RECORD
  5
EF7C8553E
330
EF7C8551C
100
AcDbSymbolTableRecord
100
AcDbBlockTableRecord
  2
STDGX5
  0
BLOCK_RECORD
  5
EF7C8553F
330
EF7C8551C
100
AcDbSymbolTableRecord
100
AcDbBlockTableRecord
  2
*X4
  0
BLOCK_RECORD
  5
EF7C85540
330
EF7C8551C
100
AcDbSymbolTableRecord
100
AcDbBlockTableRecord
  2
*X5
  0
BLOCK_RECORD
  5
EF7C85541
330
EF7C8551C
100
AcDbSymbolTableRecord
100
AcDbBlockTableRecord
  2
*X6
  0
BLOCK_RECORD
  5
EF7C85542
330
EF7C8551C
100
AcDbSymbolTableRecord
100
AcDbBlockTableRecord
  2
*X7
  0
BLOCK_RECORD
  5
EF7C85543
330
EF7C8551C
100
AcDbSymbolTableRecord
100
AcDbBlockTableRecord
  2
ARROWANG
  0
BLOCK_RECORD
  5
EF7C85544
330
EF7C8551C
100
AcDbSymbolTableRecord
100
AcDbBlockTableRecord
  2
STDR12J
  0
ENDTAB
  0
ENDSEC
  0
SECTION
  2
BLOCKS
  0
BLOCK
  5
EF7C85580
330
EF7C85532
100
AcDbEntity
  8
0
100
AcDbBlockBegin
  2
*MODEL_SPACE
 70
     0
 10
0.0
 20
0.0
 30
0.0
  3
*MODEL_SPACE
  1

  0
ENDBLK
  5
EF7C85581
330
EF7C85532
100
AcDbEntity
  8
0
100
AcDbBlockEnd
  0
BLOCK
  5
EF7C8557E
330
EF7C8552F
100
AcDbEntity
 67
     1
  8
0
100
AcDbBlockBegin
  2
*PAPER_SPACE
 70
     0
 10
0.0
 20
0.0
 30
0.0
  3
*PAPER_SPACE
  1

  0
ENDBLK
  5
EF7C8557F
330
EF7C8552F
100
AcDbEntity
 67
     1
  8
0
100
AcDbBlockEnd
  0
BLOCK
  5
499
330
EF7C85537
100
AcDbEntity
  8
0
100
AcDbBlockBegin
  2
ARROW
 70
     0
 10
1.0
 20
0.5
 30
0.0
  3
ARROW
  1

  0
LINE
  5
49A
330
EF7C85537
100
AcDbEntity
  8
0
100
AcDbLine
 10
1.0
 20
0.5
 30
0.0
 11
-0.5000000000000214
 21
0.0980762113533018
 31
0.0
  0
LINE
  5
49B
330
EF7C85537
100
AcDbEntity
  8
0
100
AcDbLine
 10
0.0
 20
0.5
 30
0.0
 11
1.0
 21
0.5
 31
0.0
  0
LINE
  5
49C
330
EF7C85537
100
AcDbEntity
  8
0
100
AcDbLine
 10
1.0
 20
0.5
 30
0.0
 11
-0.4999999999999574
 21
0.9019237886467408
 31
0.0
  0
ENDBLK
  5
49D
330
EF7C85537
100
AcDbEntity
  8
0
100
AcDbBlockEnd
  0
BLOCK
  5
4A7
330
EF7C8553B
100
AcDbEntity
  8
0
100
AcDbBlockBegin
  2
WAKU
 70
     0
 10
0.0
 20
0.0
 30
0.0
  3
WAKU
  1

  0
LINE
  5
4A8
330
EF7C8553B
100
AcDbEntity
  8
WAKU
100
AcDbLine
 10
0.999999996
 20
0.0
 30
0.0
 11
0.999999996
 21
0.9999999999999998
 31
0.0
  0
LINE
  5
4A9
330
EF7C8553B
100
AcDbEntity
  8
WAKU
100
AcDbLine
 10
0.0
 20
0.9999999999999998
 30
0.0
 11
0.999999996
 21
0.9999999999999998
 31
0.0
  0
LINE
  5
4AA
330
EF7C8553B
100
AcDbEntity
  8
WAKU
100
AcDbLine
 10
0.999999996
 20
0.0
 30
0.0
 11
0.0
 21
0.0
 31
0.0
  0
LINE
  5
4AB
330
EF7C8553B
100
AcDbEntity
  8
WAKU
100
AcDbLine
 10
0.0
 20
0.0
 30
0.0
 11
0.0
 21
0.9999999999999998
 31
0.0
  0
ENDBLK
  5
4AC
330
EF7C8553B
100
AcDbEntity
  8
0
100
AcDbBlockEnd
  0
BLOCK
  5
2764
330
EF7C8553D
100
AcDbEntity
  8
0
100
AcDbBlockBegin
  2
*X2
 70
     1
 10
0.0
 20
0.0
 30
0.0
  3
*X2
  1

  0
ENDBLK
  5
2765
330
EF7C8553D
100
AcDbEntity
  8
0
100
AcDbBlockEnd
  0
BLOCK
  5
2766
330
EF7C8553E
100
AcDbEntity
  8
0
100
AcDbBlockBegin
  2
STDGX5
 70
     0
 10
0.0
 20
0.0
 30
0.0
  3
STDGX5
  1

  0
ENDBLK
  5
2767
330
EF7C8553E
100
AcDbEntity
  8
0
100
AcDbBlockEnd
  0
BLOCK
  5
2F5A
330
EF7C8553F
100
AcDbEntity
  8
0
100
AcDbBlockBegin
  2
*X4
 70
     1
 10
0.0
 20
0.0
 30
0.0
  3
*X4
  1

  0
ENDBLK
  5
2F5B
330
EF7C8553F
100
AcDbEntity
  8
0
100
AcDbBlockEnd
  0
BLOCK
  5
32BB
330
EF7C85540
100
AcDbEntity
  8
0
100
AcDbBlockBegin
  2
*X5
 70
     1
 10
0.0
 20
0.0
 30
0.0
  3
*X5
  1

  0
ENDBLK
  5
32BC
330
EF7C85540
100
AcDbEntity
  8
0
100
AcDbBlockEnd
  0
BLOCK
  5
372F
330
EF7C85541
100
AcDbEntity
  8
0
100
AcDbBlockBegin
  2
*X6
 70
     1
 10
0.0
 20
0.0
 30
0.0
  3
*X6
  1

  0
ENDBLK
  5
3730
330
EF7C85541
100
AcDbEntity
  8
0
100
AcDbBlockEnd
  0
BLOCK
  5
3A6D
330
EF7C85542
100
AcDbEntity
  8
0
100
AcDbBlockBegin
  2
*X7
 70
     1
 10
0.0
 20
0.0
 30
0.0
  3
*X7
  1

  0
ENDBLK
  5
3A6E
330
EF7C85542
100
AcDbEntity
  8
0
100
AcDbBlockEnd
  0
BLOCK
  5
4CC9
330
EF7C85543
100
AcDbEntity
  8
0
100
AcDbBlockBegin
  2
ARROWANG
 70
     0
 10
0.0
 20
0.0
 30
0.0
  3
ARROWANG
  1

  0
LINE
  5
4CCA
330
EF7C85543
100
AcDbEntity
  8
SUNPOU
100
AcDbLine
 10
0.0
 20
0.0
 30
0.0
 11
-1.499999999999957
 21
0.4019237886467409
 31
0.0
  0
LINE
  5
4CCB
330
EF7C85543
100
AcDbEntity
  8
SUNPOU
100
AcDbLine
 10
0.0
 20
0.0
 30
0.0
 11
-1.500000000000028
 21
-0.4019237886467124
 31
0.0
  0
ENDBLK
  5
4CCC
330
EF7C85543
100
AcDbEntity
  8
0
100
AcDbBlockEnd
  0
BLOCK
  5
4CCD
330
EF7C85544
100
AcDbEntity
  8
0
100
AcDbBlockBegin
  2
STDR12J
 70
     0
 10
0.0
 20
0.0
 30
0.0
  3
STDR12J
  1

  0
ENDBLK
  5
4CF2
330
EF7C85544
100
AcDbEntity
  8
0
100
AcDbBlockEnd
  0
ENDSEC
  0
SECTION
  2
ENTITIES
  0
TEXT
  5
1
330
EF7C85532
100
AcDbEntity
  8
SUNPOU
100
AcDbText
 10
95.05869565217389
 20
43.7966872748706
 30
0.0
 40
1.5
  1
                          
100
AcDbText
  0
TEXT
  5
2
330
EF7C85532
100
AcDbEntity
  8
SUNPOU
100
AcDbText
 10
332.2793466870868
 20
21.8983436374353
 30
0.0
 40
0.75
  1
                          
100
AcDbText
  0
TEXT
  5
1A
330
EF7C85532
100
AcDbEntity
  8
SUNPOU
100
AcDbText
 10
289.9834441000535
 20
43.7966872748706
 30
0.0
 40
1.5
  1
                          
100
AcDbText
  0
TEXT
  5
1B
330
EF7C85532
100
AcDbEntity
  8
SUNPOU
100
AcDbText
 10
527.2040951349665
 20
21.8983436374353
 30
0.0
 40
0.75
  1
                          
100
AcDbText
  0
TEXT
  5
1C
330
EF7C85532
100
AcDbEntity
  8
SUNPOU
100
AcDbText
 10
490.6272568090836
 20
43.79668727487057
 30
0.0
 40
1.5
  1
                          
100
AcDbText
  0
TEXT
  5
1D
330
EF7C85532
100
AcDbEntity
  8
SUNPOU
100
AcDbText
 10
727.8479078439966
 20
21.89834363743527
 30
0.0
 40
0.75
  1
                          
100
AcDbText
  0
INSERT
  5
1E
330
EF7C85532
100
AcDbEntity
  8
HATCH
100
AcDbBlockReference
  2
*X2
 10
194.9247484478796
 20
0.0
 30
0.0
  0
TEXT
  5
1F
330
EF7C85532
100
AcDbEntity
  8
SUNPOU
100
AcDbText
 10
493.0101992368964
 20
43.7966872748706
 30
0.0
 40
1.5
  1
                          
100
AcDbText
  0
TEXT
  5
20
330
EF7C85532
100
AcDbEntity
  8
SUNPOU
100
AcDbText
 10
730.2308502718094
 20
21.8983436374353
 30
0.0
 40
0.75
  1
                          
100
AcDbText
  0
TEXT
  5
21
330
EF7C85532
100
AcDbEntity
  8
SUNPOU
100
AcDbText
 10
482.0486607753579
 20
43.7966872748706
 30
0.0
 40
1.5
  1
                          
100
AcDbText
  0
TEXT
  5
22
330
EF7C85532
100
AcDbEntity
  8
SUNPOU
100
AcDbText
 10
719.269311810271
 20
21.8983436374353
 30
0.0
 40
0.75
  1
                          
100
AcDbText
  0
INSERT
  5
25
330
EF7C85532
100
AcDbEntity
  8
JISSEN
100
AcDbBlockReference
  2
STDGX5
 10
0.0
 20
0.0
 30
0.0
  0
TEXT
  5
60
330
EF7C85532
100
AcDbEntity
  8
SUNPOU
100
AcDbText
 10
274.0586949361738
 20
43.7966872748706
 30
0.0
 40
1.5
  1
                          
100
AcDbText
  0
TEXT
  5
61
330
EF7C85532
100
AcDbEntity
  8
SUNPOU
100
AcDbText
 10
511.2793459710869
 20
21.8983436374353
 30
0.0
 40
0.75
  1
                          
100
AcDbText
  0
TEXT
  5
62
330
EF7C85532
100
AcDbEntity
  8
SUNPOU
100
AcDbText
 10
474.702507645204
 20
43.79668727487057
 30
0.0
 40
1.5
  1
                          
100
AcDbText
  0
TEXT
  5
63
330
EF7C85532
100
AcDbEntity
  8
SUNPOU
100
AcDbText
 10
711.923158680117
 20
21.89834363743527
 30
0.0
 40
0.75
  1
                          
100
AcDbText
  0
INSERT
  5
64
330
EF7C85532
100
AcDbEntity
  8
HATCH
100
AcDbBlockReference
  2
*X4
 10
178.999999284
 20
0.0
 30
0.0
  0
TEXT
  5
65
330
EF7C85532
100
AcDbEntity
  8
SUNPOU
100
AcDbText
 10
477.0854500730167
 20
43.7966872748706
 30
0.0
 40
1.5
  1
                          
100
AcDbText
  0
TEXT
  5
66
330
EF7C85532
100
AcDbEntity
  8
SUNPOU
100
AcDbText
 10
714.3061011079298
 20
21.8983436374353
 30
0.0
 40
0.75
  1
                          
100
AcDbText
  0
TEXT
  5
67
330
EF7C85532
100
AcDbEntity
  8
SUNPOU
100
AcDbText
 10
466.1239116114783
 20
43.7966872748706
 30
0.0
 40
1.5
  1
                          
100
AcDbText
  0
TEXT
  5
68
330
EF7C85532
100
AcDbEntity
  8
SUNPOU
100
AcDbText
 10
703.3445626463913
 20
21.8983436374353
 30
0.0
 40
0.75
  1
                          
100
AcDbText
  0
INSERT
  5
69
330
EF7C85532
100
AcDbEntity
  8
TEXT
100
AcDbBlockReference
  2
STDGX5
 10
178.999999284
 20
0.0
 30
0.0
  0
TEXT
  5
6A
330
EF7C85532
100
AcDbEntity
  8
SUNPOU
100
AcDbText
 10
453.0586949361739
 20
43.7966872748706
 30
0.0
 40
1.5
  1
                          
100
AcDbText
  0
TEXT
  5
6B
330
EF7C85532
100
AcDbEntity
  8
SUNPOU
100
AcDbText
 10
690.279345971087
 20
21.8983436374353
 30
0.0
 40
0.75
  1
                          
100
AcDbText
  0
TEXT
  5
6C
330
EF7C85532
100
AcDbEntity
  8
SUNPOU
100
AcDbText
 10
647.9834433840535
 20
43.7966872748706
 30
0.0
 40
1.5
  1
                          
100
AcDbText
  0
TEXT
  5
6D
330
EF7C85532
100
AcDbEntity
  8
SUNPOU
100
AcDbText
 10
885.2040944189665
 20
21.8983436374353
 30
0.0
 40
0.75
  1
                          
100
AcDbText
  0
TEXT
  5
6E
330
EF7C85532
100
AcDbEntity
  8
SUNPOU
100
AcDbText
 10
848.6272560930835
 20
43.79668727487057
 30
0.0
 40
1.5
  1
                          
100
AcDbText
  0
TEXT
  5
6F
330
EF7C85532
100
AcDbEntity
  8
SUNPOU
100
AcDbText
 10
1085.847907127996
 20
21.89834363743527
 30
0.0
 40
0.75
  1
                          
100
AcDbText
  0
INSERT
  5
70
330
EF7C85532
100
AcDbEntity
  8
HATCH
100
AcDbBlockReference
  2
*X5
 10
552.9247477318797
 20
0.0
 30
0.0
  0
TEXT
  5
71
330
EF7C85532
100
AcDbEntity
  8
SUNPOU
100
AcDbText
 10
851.0101985208963
 20
43.7966872748706
 30
0.0
 40
1.5
  1
                          
100
AcDbText
  0
TEXT
  5
72
330
EF7C85532
100
AcDbEntity
  8
SUNPOU
100
AcDbText
 10
1088.230849555809
 20
21.8983436374353
 30
0.0
 40
0.75
  1
                          
100
AcDbText
  0
TEXT
  5
73
330
EF7C85532
100
AcDbEntity
  8
SUNPOU
100
AcDbText
 10
840.048660059358
 20
43.7966872748706
 30
0.0
 40
1.5
  1
                          
100
AcDbText
  0
TEXT
  5
74
330
EF7C85532
100
AcDbEntity
  8
SUNPOU
100
AcDbText
 10
1077.269311094271
 20
21.8983436374353
 30
0.0
 40
0.75
  1
                          
100
AcDbText
  0
INSERT
  5
75
330
EF7C85532
100
AcDbEntity
  8
JISSEN
100
AcDbBlockReference
  2
STDGX5
 10
357.999999284
 20
0.0
 30
0.0
  0
TEXT
  5
76
330
EF7C85532
100
AcDbEntity
  8
SUNPOU
100
AcDbText
 10
453.0586949361739
 20
43.7966872748706
 30
0.0
 40
1.5
  1
                          
100
AcDbText
  0
TEXT
  5
77
330
EF7C85532
100
AcDbEntity
  8
SUNPOU
100
AcDbText
 10
690.279345971087
 20
21.8983436374353
 30
0.0
 40
0.75
  1
                          
100
AcDbText
  0
TEXT
  5
78
330
EF7C85532
100
AcDbEntity
  8
SUNPOU
100
AcDbText
 10
647.9834433840535
 20
43.7966872748706
 30
0.0
 40
1.5
  1
                          
100
AcDbText
  0
TEXT
  5
79
330
EF7C85532
100
AcDbEntity
  8
SUNPOU
100
AcDbText
 10
885.2040944189665
 20
21.8983436374353
 30
0.0
 40
0.75
  1
                          
100
AcDbText
  0
TEXT
  5
7A
330
EF7C85532
100
AcDbEntity
  8
SUNPOU
100
AcDbText
 10
848.6272560930835
 20
43.79668727487057
 30
0.0
 40
1.5
  1
                          
100
AcDbText
  0
TEXT
  5
7B
330
EF7C85532
100
AcDbEntity
  8
SUNPOU
100
AcDbText
 10
1085.847907127996
 20
21.89834363743527
 30
0.0
 40
0.75
  1
                          
100
AcDbText
  0
INSERT
  5
7C
330
EF7C85532
100
AcDbEntity
  8
HATCH
100
AcDbBlockReference
  2
*X6
 10
552.9247477318797
 20
0.0
 30
0.0
  0
TEXT
  5
7D
330
EF7C85532
100
AcDbEntity
  8
SUNPOU
100
AcDbText
 10
851.0101985208963
 20
43.7966872748706
 30
0.0
 40
1.5
  1
                          
100
AcDbText
  0
TEXT
  5
7E
330
EF7C85532
100
AcDbEntity
  8
SUNPOU
100
AcDbText
 10
1088.230849555809
 20
21.8983436374353
 30
0.0
 40
0.75
  1
                          
100
AcDbText
  0
TEXT
  5
7F
330
EF7C85532
100
AcDbEntity
  8
SUNPOU
100
AcDbText
 10
840.048660059358
 20
43.7966872748706
 30
0.0
 40
1.5
  1
                          
100
AcDbText
  0
TEXT
  5
80
330
EF7C85532
100
AcDbEntity
  8
SUNPOU
100
AcDbText
 10
1077.269311094271
 20
21.8983436374353
 30
0.0
 40
0.75
  1
                          
100
AcDbText
  0
INSERT
  5
81
330
EF7C85532
100
AcDbEntity
  8
JISSEN
100
AcDbBlockReference
  2
STDGX5
 10
357.999999284
 20
0.0
 30
0.0
  0
TEXT
  5
82
330
EF7C85532
100
AcDbEntity
  8
SUNPOU
100
AcDbText
 10
632.0586942201739
 20
43.7966872748706
 30
0.0
 40
1.5
  1
                          
100
AcDbText
  0
TEXT
  5
83
330
EF7C85532
100
AcDbEntity
  8
SUNPOU
100
AcDbText
 10
869.2793452550871
 20
21.8983436374353
 30
0.0
 40
0.75
  1
                          
100
AcDbText
  0
TEXT
  5
84
330
EF7C85532
100
AcDbEntity
  8
SUNPOU
100
AcDbText
 10
826.9834426680535
 20
43.7966872748706
 30
0.0
 40
1.5
  1
                          
100
AcDbText
  0
TEXT
  5
85
330
EF7C85532
100
AcDbEntity
  8
SUNPOU
100
AcDbText
 10
1064.204093702966
 20
21.8983436374353
 30
0.0
 40
0.75
  1
                          
100
AcDbText
  0
TEXT
  5
86
330
EF7C85532
100
AcDbEntity
  8
SUNPOU
100
AcDbText
 10
1027.627255377083
 20
43.79668727487057
 30
0.0
 40
1.5
  1
                          
100
AcDbText
  0
TEXT
  5
87
330
EF7C85532
100
AcDbEntity
  8
SUNPOU
100
AcDbText
 10
1264.847906411996
 20
21.89834363743527
 30
0.0
 40
0.75
  1
                          
100
AcDbText
  0
INSERT
  5
88
330
EF7C85532
100
AcDbEntity
  8
HATCH
100
AcDbBlockReference
  2
*X7
 10
731.9247470158797
 20
0.0
 30
0.0
  0
TEXT
  5
89
330
EF7C85532
100
AcDbEntity
  8
SUNPOU
100
AcDbText
 10
1030.010197804896
 20
43.7966872748706
 30
0.0
 40
1.5
  1
                          
100
AcDbText
  0
TEXT
  5
8A
330
EF7C85532
100
AcDbEntity
  8
SUNPOU
100
AcDbText
 10
1267.230848839809
 20
21.8983436374353
 30
0.0
 40
0.75
  1
                          
100
AcDbText
  0
TEXT
  5
8B
330
EF7C85532
100
AcDbEntity
  8
SUNPOU
100
AcDbText
 10
1019.048659343358
 20
43.7966872748706
 30
0.0
 40
1.5
  1
                          
100
AcDbText
  0
TEXT
  5
8C
330
EF7C85532
100
AcDbEntity
  8
SUNPOU
100
AcDbText
 10
1256.269310378271
 20
21.8983436374353
 30
0.0
 40
0.75
  1
                          
100
AcDbText
  0
INSERT
  5
8D
330
EF7C85532
100
AcDbEntity
  8
JISSEN
100
AcDbBlockReference
  2
STDGX5
 10
536.999998568
 20
0.0
 30
0.0
  0
INSERT
  5
8E
330
EF7C85532
100
AcDbEntity
  8
SUNPOU
100
AcDbBlockReference
  2
STDGX5
 10
739.0804232644236
 20
50.83533235670902
 30
0.0
 41
0.5
 42
0.5
 43
0.5
  0
INSERT
  5
8F
330
EF7C85532
100
AcDbEntity
  8
SUNPOU
100
AcDbBlockReference
  2
STDGX5
 10
726.2208210623692
 20
105.0763138619288
 30
0.0
 41
0.5
 42
0.5
 43
0.5
  0
INSERT
  5
90
330
EF7C85532
100
AcDbEntity
  8
HATCH
100
AcDbBlockReference
  2
STDGX5
 10
852.3985550581901
 20
151.7065097967401
 30
0.0
 41
0.5
 42
0.5
 43
0.5
  0
INSERT
  5
91
330
EF7C85532
100
AcDbEntity
  8
HATCH
100
AcDbBlockReference
  2
STDGX5
 10
866.6806796277285
 20
102.7017487639613
 30
0.0
 41
0.5
 42
0.5
 43
0.5
  0
INSERT
  5
92
330
EF7C85532
100
AcDbEntity
  8
TEXT
100
AcDbBlockReference
  2
STDGX5
 10
970.3434408521969
 20
102.8213468229236
 30
0.0
 41
0.5
 42
0.5
 43
0.5
  0
INSERT
  5
93
330
EF7C85532
100
AcDbEntity
  8
SUNPOU
100
AcDbBlockReference
  2
STDGX5
 10
996.1728907397869
 20
174.5475645486174
 30
0.0
 41
0.5
 42
0.5
 43
0.5
  0
INSERT
  5
94
330
EF7C85532
100
AcDbEntity
  8
TEXT
100
AcDbBlockReference
  2
STDGX5
 10
725.7513886810995
 20
124.5860190441302
 30
0.0
 41
0.5
 42
0.5
 43
0.5
  0
INSERT
  5
95
330
EF7C85532
100
AcDbEntity
  8
HATCH
100
AcDbBlockReference
  2
STDGX5
 10
777.1755722656421
 20
145.5222028932424
 30
0.0
 41
0.5
 42
0.5
 43
0.5
  0
INSERT
  5
96
330
EF7C85532
100
AcDbEntity
  8
SUNPOU
100
AcDbBlockReference
  2
STDGX5
 10
846.1963575359604
 20
112.6957974729892
 30
0.0
 41
0.5
 42
0.5
 43
0.5
  0
INSERT
  5
97
330
EF7C85532
100
AcDbEntity
  8
SUNPOU
100
AcDbBlockReference
  2
STDGX5
 10
916.6681156211122
 20
121.7330617103085
 30
0.0
 41
0.5
 42
0.5
 43
0.5
  0
INSERT
  5
98
330
EF7C85532
100
AcDbEntity
  8
TEXT
100
AcDbBlockReference
  2
STDGX5
 10
983.7969461426769
 20
84.61852224867081
 30
0.0
 41
0.5
 42
0.5
 43
0.5
  0
INSERT
  5
99
330
EF7C85532
100
AcDbEntity
  8
HATCH
100
AcDbBlockReference
  2
STDGX5
 10
974.2802715042099
 20
136.4849386559231
 30
0.0
 41
0.5
 42
0.5
 43
0.5
  0
INSERT
  5
9A
330
EF7C85532
100
AcDbEntity
  8
SUNPOU
100
AcDbBlockReference
  2
STDGX5
 10
749.7834008663489
 20
95.14721172234004
 30
0.0
 41
0.5
 42
0.5
 43
0.5
  0
INSERT
  5
9B
330
EF7C85532
100
AcDbEntity
  8
SUNPOU
100
AcDbBlockReference
  2
STDGX5
 10
736.9237986642947
 20
149.3881932275598
 30
0.0
 41
0.5
 42
0.5
 43
0.5
  0
INSERT
  5
9C
330
EF7C85532
100
AcDbEntity
  8
HATCH
100
AcDbBlockReference
  2
STDGX5
 10
863.1015326601156
 20
196.0183891623711
 30
0.0
 41
0.5
 42
0.5
 43
0.5
  0
INSERT
  5
9D
330
EF7C85532
100
AcDbEntity
  8
HATCH
100
AcDbBlockReference
  2
STDGX5
 10
877.3836572296538
 20
147.0136281295923
 30
0.0
 41
0.5
 42
0.5
 43
0.5
  0
INSERT
  5
9E
330
EF7C85532
100
AcDbEntity
  8
TEXT
100
AcDbBlockReference
  2
STDGX5
 10
981.0464184541224
 20
147.1332261885546
 30
0.0
 41
0.5
 42
0.5
 43
0.5
  0
INSERT
  5
9F
330
EF7C85532
100
AcDbEntity
  8
SUNPOU
100
AcDbBlockReference
  2
STDGX5
 10
1006.875868341712
 20
218.8594439142484
 30
0.0
 41
0.5
 42
0.5
 43
0.5
  0
INSERT
  5
A0
330
EF7C85532
100
AcDbEntity
  8
TEXT
100
AcDbBlockReference
  2
STDGX5
 10
736.4543662830251
 20
168.8978984097612
 30
0.0
 41
0.5
 42
0.5
 43
0.5
  0
INSERT
  5
A1
330
EF7C85532
100
AcDbEntity
  8
HATCH
100
AcDbBlockReference
  2
STDGX5
 10
787.8785498675677
 20
189.8340822588735
 30
0.0
 41
0.5
 42
0.5
 43
0.5
  0
INSERT
  5
A2
330
EF7C85532
100
AcDbEntity
  8
SUNPOU
100
AcDbBlockReference
  2
STDGX5
 10
856.899335137886
 20
157.0076768386202
 30
0.0
 41
0.5
 42
0.5
 43
0.5
  0
INSERT
  5
A3
330
EF7C85532
100
AcDbEntity
  8
SUNPOU
100
AcDbBlockReference
  2
STDGX5
 10
927.3710932230379
 20
166.0449410759395
 30
0.0
 41
0.5
 42
0.5
 43
0.5
  0
INSERT
  5
A4
330
EF7C85532
100
AcDbEntity
  8
TEXT
100
AcDbBlockReference
  2
STDGX5
 10
994.4999237446024
 20
128.9304016143018
 30
0.0
 41
0.5
 42
0.5
 43
0.5
  0
INSERT
  5
A5
330
EF7C85532
100
AcDbEntity
  8
HATCH
100
AcDbBlockReference
  2
STDGX5
 10
984.9832491061354
 20
180.7968180215541
 30
0.0
 41
0.5
 42
0.5
 43
0.5
  0
TEXT
  5
DE
330
EF7C85532
100
AcDbEntity
  8
SUNPOU
100
AcDbText
 10
274.0586949361738
 20
43.7966872748706
 30
0.0
 40
1.5
  1
                          
100
AcDbText
  0
TEXT
  5
145
330
EF7C85532
100
AcDbEntity
  8
SUNPOU
100
AcDbText
 10
511.2793459710869
 20
21.8983436374353
 30
0.0
 40
0.75
  1
                          
100
AcDbText
  0
TEXT
  5
265
330
EF7C85532
100
AcDbEntity
  8
SUNPOU
100
AcDbText
 10
474.702507645204
 20
43.79668727487057
 30
0.0
 40
1.5
  1
                          
100
AcDbText
  0
TEXT
  5
266
330
EF7C85532
100
AcDbEntity
  8
SUNPOU
100
AcDbText
 10
711.923158680117
 20
21.89834363743527
 30
0.0
 40
0.75
  1
                          
100
AcDbText
  0
INSERT
  5
2F7
330
EF7C85532
100
AcDbEntity
  8
HATCH
100
AcDbBlockReference
  2
*X4
 10
178.999999284
 20
0.0
 30
0.0
  0
TEXT
  5
31A
330
EF7C85532
100
AcDbEntity
  8
SUNPOU
100
AcDbText
 10
477.0854500730167
 20
43.7966872748706
 30
0.0
 40
1.5
  1
                          
100
AcDbText
  0
TEXT
  5
31C
330
EF7C85532
100
AcDbEntity
  8
SUNPOU
100
AcDbText
 10
714.3061011079298
 20
21.8983436374353
 30
0.0
 40
0.75
  1
                          
100
AcDbText
  0
TEXT
  5
3A6
330
EF7C85532
100
AcDbEntity
  8
TEXT
100
AcDbText
 10
100.9999992839998
 20
244.9999999999999
 30
0.0
 40
3.0
  1
 
  7
K
100
AcDbText
  0
TEXT
  5
3AB
330
EF7C85532
100
AcDbEntity
  8
SUNPOU
100
AcDbText
 10
466.1239116114783
 20
43.7966872748706
 30
0.0
 40
1.5
  1
                          
100
AcDbText
  0
TEXT
  5
3AC
330
EF7C85532
100
AcDbEntity
  8
SUNPOU
100
AcDbText
 10
703.3445626463913
 20
21.8983436374353
 30
0.0
 40
0.75
  1
                          
100
AcDbText
  0
INSERT
  5
3F6
330
EF7C85532
100
AcDbEntity
  8
TEXT
100
AcDbBlockReference
  2
STDGX5
 10
178.999999284
 20
0.0
 30
0.0
  0
TEXT
  5
3F7
330
EF7C85532
100
AcDbEntity
  8
SUNPOU
100
AcDbText
 10
453.0586949361739
 20
43.7966872748706
 30
0.0
 40
1.5
  1
                          
100
AcDbText
  0
TEXT
  5
3F8
330
EF7C85532
100
AcDbEntity
  8
SUNPOU
100
AcDbText
 10
690.279345971087
 20
21.8983436374353
 30
0.0
 40
0.75
  1
                          
100
AcDbText
  0
TEXT
  5
3F9
330
EF7C85532
100
AcDbEntity
  8
SUNPOU
100
AcDbText
 10
647.9834433840535
 20
43.7966872748706
 30
0.0
 40
1.5
  1
                          
100
AcDbText
  0
TEXT
  5
3FA
330
EF7C85532
100
AcDbEntity
  8
SUNPOU
100
AcDbText
 10
885.2040944189665
 20
21.8983436374353
 30
0.0
 40
0.75
  1
                          
100
AcDbText
  0
TEXT
  5
3FB
330
EF7C85532
100
AcDbEntity
  8
SUNPOU
100
AcDbText
 10
848.6272560930835
 20
43.79668727487057
 30
0.0
 40
1.5
  1
                          
100
AcDbText
  0
TEXT
  5
3FC
330
EF7C85532
100
AcDbEntity
  8
SUNPOU
100
AcDbText
 10
1085.847907127996
 20
21.89834363743527
 30
0.0
 40
0.75
  1
                          
100
AcDbText
  0
INSERT
  5
3FD
330
EF7C85532
100
AcDbEntity
  8
HATCH
100
AcDbBlockReference
  2
*X5
 10
552.9247477318797
 20
0.0
 30
0.0
  0
TEXT
  5
3FE
330
EF7C85532
100
AcDbEntity
  8
SUNPOU
100
AcDbText
 10
851.0101985208963
 20
43.7966872748706
 30
0.0
 40
1.5
  1
                          
100
AcDbText
  0
TEXT
  5
3FF
330
EF7C85532
100
AcDbEntity
  8
SUNPOU
100
AcDbText
 10
1088.230849555809
 20
21.8983436374353
 30
0.0
 40
0.75
  1
                          
100
AcDbText
  0
TEXT
  5
400
330
EF7C85532
100
AcDbEntity
  8
SUNPOU
100
AcDbText
 10
840.048660059358
 20
43.7966872748706
 30
0.0
 40
1.5
  1
                          
100
AcDbText
  0
TEXT
  5
401
330
EF7C85532
100
AcDbEntity
  8
SUNPOU
100
AcDbText
 10
1077.269311094271
 20
21.8983436374353
 30
0.0
 40
0.75
  1
                          
100
AcDbText
  0
INSERT
  5
402
330
EF7C85532
100
AcDbEntity
  8
JISSEN
100
AcDbBlockReference
  2
STDGX5
 10
357.999999284
 20
0.0
 30
0.0
  0
TEXT
  5
409
330
EF7C85532
100
AcDbEntity
  8
SUNPOU
100
AcDbText
 10
453.0586949361739
 20
43.7966872748706
 30
0.0
 40
1.5
  1
                          
100
AcDbText
  0
TEXT
  5
40A
330
EF7C85532
100
AcDbEntity
  8
SUNPOU
100
AcDbText
 10
690.279345971087
 20
21.8983436374353
 30
0.0
 40
0.75
  1
                          
100
AcDbText
  0
TEXT
  5
41B
330
EF7C85532
100
AcDbEntity
  8
SUNPOU
100
AcDbText
 10
647.9834433840535
 20
43.7966872748706
 30
0.0
 40
1.5
  1
                          
100
AcDbText
  0
TEXT
  5
41C
330
EF7C85532
100
AcDbEntity
  8
SUNPOU
100
AcDbText
 10
885.2040944189665
 20
21.8983436374353
 30
0.0
 40
0.75
  1
                          
100
AcDbText
  0
TEXT
  5
41D
330
EF7C85532
100
AcDbEntity
  8
SUNPOU
100
AcDbText
 10
848.6272560930835
 20
43.79668727487057
 30
0.0
 40
1.5
  1
                          
100
AcDbText
  0
TEXT
  5
41E
330
EF7C85532
100
AcDbEntity
  8
SUNPOU
100
AcDbText
 10
1085.847907127996
 20
21.89834363743527
 30
0.0
 40
0.75
  1
                          
100
AcDbText
  0
INSERT
  5
41F
330
EF7C85532
100
AcDbEntity
  8
HATCH
100
AcDbBlockReference
  2
*X6
 10
552.9247477318797
 20
0.0
 30
0.0
  0
TEXT
  5
420
330
EF7C85532
100
AcDbEntity
  8
SUNPOU
100
AcDbText
 10
851.0101985208963
 20
43.7966872748706
 30
0.0
 40
1.5
  1
                          
100
AcDbText
  0
TEXT
  5
421
330
EF7C85532
100
AcDbEntity
  8
SUNPOU
100
AcDbText
 10
1088.230849555809
 20
21.8983436374353
 30
0.0
 40
0.75
  1
                          
100
AcDbText
  0
TEXT
  5
422
330
EF7C85532
100
AcDbEntity
  8
SUNPOU
100
AcDbText
 10
840.048660059358
 20
43.7966872748706
 30
0.0
 40
1.5
  1
                          
100
AcDbText
  0
TEXT
  5
423
330
EF7C85532
100
AcDbEntity
  8
SUNPOU
100
AcDbText
 10
1077.269311094271
 20
21.8983436374353
 30
0.0
 40
0.75
  1
                          
100
AcDbText
  0
INSERT
  5
424
330
EF7C85532
100
AcDbEntity
  8
JISSEN
100
AcDbBlockReference
  2
STDGX5
 10
357.999999284
 20
0.0
 30
0.0
  0
TEXT
  5
425
330
EF7C85532
100
AcDbEntity
  8
SUNPOU
100
AcDbText
 10
632.0586942201739
 20
43.7966872748706
 30
0.0
 40
1.5
  1
                          
100
AcDbText
  0
TEXT
  5
426
330
EF7C85532
100
AcDbEntity
  8
SUNPOU
100
AcDbText
 10
869.2793452550871
 20
21.8983436374353
 30
0.0
 40
0.75
  1
                          
100
AcDbText
  0
TEXT
  5
427
330
EF7C85532
100
AcDbEntity
  8
SUNPOU
100
AcDbText
 10
826.9834426680535
 20
43.7966872748706
 30
0.0
 40
1.5
  1
                          
100
AcDbText
  0
TEXT
  5
428
330
EF7C85532
100
AcDbEntity
  8
SUNPOU
100
AcDbText
 10
1064.204093702966
 20
21.8983436374353
 30
0.0
 40
0.75
  1
                          
100
AcDbText
  0
TEXT
  5
429
330
EF7C85532
100
AcDbEntity
  8
SUNPOU
100
AcDbText
 10
1027.627255377083
 20
43.79668727487057
 30
0.0
 40
1.5
  1
                          
100
AcDbText
  0
TEXT
  5
42A
330
EF7C85532
100
AcDbEntity
  8
SUNPOU
100
AcDbText
 10
1264.847906411996
 20
21.89834363743527
 30
0.0
 40
0.75
  1
                          
100
AcDbText
  0
INSERT
  5
42B
330
EF7C85532
100
AcDbEntity
  8
HATCH
100
AcDbBlockReference
  2
*X7
 10
731.9247470158797
 20
0.0
 30
0.0
  0
TEXT
  5
42C
330
EF7C85532
100
AcDbEntity
  8
SUNPOU
100
AcDbText
 10
1030.010197804896
 20
43.7966872748706
 30
0.0
 40
1.5
  1
                          
100
AcDbText
  0
TEXT
  5
42D
330
EF7C85532
100
AcDbEntity
  8
SUNPOU
100
AcDbText
 10
1267.230848839809
 20
21.8983436374353
 30
0.0
 40
0.75
  1
                          
100
AcDbText
  0
TEXT
  5
42E
330
EF7C85532
100
AcDbEntity
  8
SUNPOU
100
AcDbText
 10
1019.048659343358
 20
43.7966872748706
 30
0.0
 40
1.5
  1
                          
100
AcDbText
  0
TEXT
  5
42F
330
EF7C85532
100
AcDbEntity
  8
SUNPOU
100
AcDbText
 10
1256.269310378271
 20
21.8983436374353
 30
0.0
 40
0.75
  1
                          
100
AcDbText
  0
INSERT
  5
430
330
EF7C85532
100
AcDbEntity
  8
JISSEN
100
AcDbBlockReference
  2
STDGX5
 10
536.999998568
 20
0.0
 30
0.0
  0
INSERT
  5
43B
330
EF7C85532
100
AcDbEntity
  8
SUNPOU
100
AcDbBlockReference
  2
STDGX5
 10
739.0804232644236
 20
50.83533235670902
 30
0.0
 41
0.5
 42
0.5
 43
0.5
  0
INSERT
  5
43C
330
EF7C85532
100
AcDbEntity
  8
SUNPOU
100
AcDbBlockReference
  2
STDGX5
 10
726.2208210623692
 20
105.0763138619288
 30
0.0
 41
0.5
 42
0.5
 43
0.5
  0
INSERT
  5
43D
330
EF7C85532
100
AcDbEntity
  8
HATCH
100
AcDbBlockReference
  2
STDGX5
 10
852.3985550581901
 20
151.7065097967401
 30
0.0
 41
0.5
 42
0.5
 43
0.5
  0
INSERT
  5
43E
330
EF7C85532
100
AcDbEntity
  8
HATCH
100
AcDbBlockReference
  2
STDGX5
 10
866.6806796277285
 20
102.7017487639613
 30
0.0
 41
0.5
 42
0.5
 43
0.5
  0
INSERT
  5
43F
330
EF7C85532
100
AcDbEntity
  8
TEXT
100
AcDbBlockReference
  2
STDGX5
 10
970.3434408521969
 20
102.8213468229236
 30
0.0
 41
0.5
 42
0.5
 43
0.5
  0
INSERT
  5
440
330
EF7C85532
100
AcDbEntity
  8
SUNPOU
100
AcDbBlockReference
  2
STDGX5
 10
996.1728907397869
 20
174.5475645486174
 30
0.0
 41
0.5
 42
0.5
 43
0.5
  0
INSERT
  5
441
330
EF7C85532
100
AcDbEntity
  8
TEXT
100
AcDbBlockReference
  2
STDGX5
 10
725.7513886810995
 20
124.5860190441302
 30
0.0
 41
0.5
 42
0.5
 43
0.5
  0
INSERT
  5
442
330
EF7C85532
100
AcDbEntity
  8
HATCH
100
AcDbBlockReference
  2
STDGX5
 10
777.1755722656421
 20
145.5222028932424
 30
0.0
 41
0.5
 42
0.5
 43
0.5
  0
INSERT
  5
443
330
EF7C85532
100
AcDbEntity
  8
SUNPOU
100
AcDbBlockReference
  2
STDGX5
 10
846.1963575359604
 20
112.6957974729892
 30
0.0
 41
0.5
 42
0.5
 43
0.5
  0
INSERT
  5
444
330
EF7C85532
100
AcDbEntity
  8
SUNPOU
100
AcDbBlockReference
  2
STDGX5
 10
916.6681156211122
 20
121.7330617103085
 30
0.0
 41
0.5
 42
0.5
 43
0.5
  0
INSERT
  5
445
330
EF7C85532
100
AcDbEntity
  8
TEXT
100
AcDbBlockReference
  2
STDGX5
 10
983.7969461426769
 20
84.61852224867081
 30
0.0
 41
0.5
 42
0.5
 43
0.5
  0
INSERT
  5
446
330
EF7C85532
100
AcDbEntity
  8
HATCH
100
AcDbBlockReference
  2
STDGX5
 10
974.2802715042099
 20
136.4849386559231
 30
0.0
 41
0.5
 42
0.5
 43
0.5
  0
INSERT
  5
447
330
EF7C85532
100
AcDbEntity
  8
SUNPOU
100
AcDbBlockReference
  2
STDGX5
 10
749.7834008663489
 20
95.14721172234004
 30
0.0
 41
0.5
 42
0.5
 43
0.5
  0
INSERT
  5
448
330
EF7C85532
100
AcDbEntity
  8
SUNPOU
100
AcDbBlockReference
  2
STDGX5
 10
736.9237986642947
 20
149.3881932275598
 30
0.0
 41
0.5
 42
0.5
 43
0.5
  0
INSERT
  5
449
330
EF7C85532
100
AcDbEntity
  8
HATCH
100
AcDbBlockReference
  2
STDGX5
 10
863.1015326601156
 20
196.0183891623711
 30
0.0
 41
0.5
 42
0.5
 43
0.5
  0
INSERT
  5
44A
330
EF7C85532
100
AcDbEntity
  8
HATCH
100
AcDbBlockReference
  2
STDGX5
 10
877.3836572296538
 20
147.0136281295923
 30
0.0
 41
0.5
 42
0.5
 43
0.5
  0
INSERT
  5
44B
330
EF7C85532
100
AcDbEntity
  8
TEXT
100
AcDbBlockReference
  2
STDGX5
 10
981.0464184541224
 20
147.1332261885546
 30
0.0
 41
0.5
 42
0.5
 43
0.5
  0
INSERT
  5
44C
330
EF7C85532
100
AcDbEntity
  8
SUNPOU
100
AcDbBlockReference
  2
STDGX5
 10
1006.875868341712
 20
218.8594439142484
 30
0.0
 41
0.5
 42
0.5
 43
0.5
  0
INSERT
  5
44D
330
EF7C85532
100
AcDbEntity
  8
TEXT
100
AcDbBlockReference
  2
STDGX5
 10
736.4543662830251
 20
168.8978984097612
 30
0.0
 41
0.5
 42
0.5
 43
0.5
  0
INSERT
  5
44E
330
EF7C85532
100
AcDbEntity
  8
HATCH
100
AcDbBlockReference
  2
STDGX5
 10
787.8785498675677
 20
189.8340822588735
 30
0.0
 41
0.5
 42
0.5
 43
0.5
  0
INSERT
  5
44F
330
EF7C85532
100
AcDbEntity
  8
SUNPOU
100
AcDbBlockReference
  2
STDGX5
 10
856.899335137886
 20
157.0076768386202
 30
0.0
 41
0.5
 42
0.5
 43
0.5
  0
INSERT
  5
450
330
EF7C85532
100
AcDbEntity
  8
SUNPOU
100
AcDbBlockReference
  2
STDGX5
 10
927.3710932230379
 20
166.0449410759395
 30
0.0
 41
0.5
 42
0.5
 43
0.5
  0
INSERT
  5
451
330
EF7C85532
100
AcDbEntity
  8
TEXT
100
AcDbBlockReference
  2
STDGX5
 10
994.4999237446024
 20
128.9304016143018
 30
0.0
 41
0.5
 42
0.5
 43
0.5
  0
INSERT
  5
452
330
EF7C85532
100
AcDbEntity
  8
HATCH
100
AcDbBlockReference
  2
STDGX5
 10
984.9832491061354
 20
180.7968180215541
 30
0.0
 41
0.5
 42
0.5
 43
0.5
  0
INSERT
  5
4CF3
330
EF7C85532
100
AcDbEntity
  8
JISSEN
100
AcDbBlockReference
  2
STDR12J
 10
0.0
 20
0.0
 30
0.0
  0
LINE
  5
EF7C87449
330
EF7C85532
100
AcDbEntity
  8
JISSEN
100
AcDbLine
 10
91.49999927599987
 20
264.9999999256194
 30
0.0
 11
180.9999992759999
 21
264.9999999256194
 31
0.0
  0
LINE
  5
EF7C8744B
330
EF7C85532
100
AcDbEntity
  8
JISSEN
100
AcDbLine
 10
91.49999927599987
 20
270.9999999999999
 30
0.0
 11
180.9999992759999
 21
270.9999999999999
 31
0.0
  0
LINE
  5
EF7C8744C
330
EF7C85532
100
AcDbEntity
  8
JISSEN
100
AcDbLine
 10
91.49999927599987
 20
276.9999999999999
 30
0.0
 11
180.9999992759999
 21
276.9999999999999
 31
0.0
  0
TEXT
  5
EF7C874EA
330
EF7C85532
100
AcDbEntity
  8
TEXT
100
AcDbText
 10
102.6142849902855
 20
266.4999999256194
 30
0.0
 40
3.0
  1
シーリングプレート S
 41
0.75
  7
K
 72
     4
 11
116.4999992759998
 21
267.9999999256194
 31
0.0
100
AcDbText
  0
TEXT
  5
EF7C874EB
330
EF7C85532
100
AcDbEntity
  8
TEXT
100
AcDbText
 10
95.38307168153421
 20
266.4999999256194
 30
0.0
 40
3.0
  1
2
  7
K
 72
     4
 11
96.81164311010565
 21
267.9999999256194
 31
0.0
100
AcDbText
  0
LINE
  5
EF7C874EC
330
EF7C85532
100
AcDbEntity
  8
JISSEN
100
AcDbLine
 10
131.4999992759998
 20
282.9999999256194
 30
0.0
 11
131.4999992759998
 21
264.9999999256194
 31
0.0
  0
LINE
  5
EF7C874ED
330
EF7C85532
100
AcDbEntity
  8
JISSEN
100
AcDbLine
 10
101.4999992759998
 20
282.9999999256194
 30
0.0
 11
101.4999992759998
 21
264.9999999256194
 31
0.0
  0
LINE
  5
EF7C874EE
330
EF7C85532
100
AcDbEntity
  8
JISSEN
100
AcDbLine
 10
91.49999927599987
 20
264.9999999256194
 30
0.0
 11
91.49999927599987
 21
282.9999999256194
 31
0.0
  0
TEXT
  5
EF7C875AD
330
EF7C85532
100
AcDbEntity
  8
TEXT
100
AcDbText
 10
156.6795477624091
 20
266.5808351019605
 30
0.0
 40
3.0
  1
1
  7
K
 72
     4
 11
157.8938334766948
 21
268.0808351019605
 31
0.0
100
AcDbText
  0
TEXT
  5
EF7C875AE
330
EF7C85532
100
AcDbEntity
  8
TEXT
100
AcDbText
 10
135.2142849902856
 20
266.4999999256194
 30
0.0
 40
3.0
  1
C2801
  7
K
 72
     4
 11
141.9999992759998
 21
267.9999999256194
 31
0.0
100
AcDbText
  0
LINE
  5
EF7C875AF
330
EF7C85532
100
AcDbEntity
  8
JISSEN
100
AcDbLine
 10
163.4999992759998
 20
282.9999999256194
 30
0.0
 11
163.4999992759998
 21
264.9999999256194
 31
0.0
  0
LINE
  5
EF7C875B0
330
EF7C85532
100
AcDbEntity
  8
JISSEN
100
AcDbLine
 10
152.4999992759998
 20
264.9999999256194
 30
0.0
 11
152.4999992759998
 21
282.9999999256194
 31
0.0
  0
TEXT
  5
EF7C88641
330
EF7C85532
100
AcDbEntity
  8
TEXT
100
AcDbText
 10
164.9571421331427
 20
266.4999999256194
 30
0.0
 40
3.0
  1
Crメッキ
  7
K
 72
     4
 11
172.4999992759998
 21
267.9999999256194
 31
0.0
100
AcDbText
  0
INSERT
  5
EF7C88EB6
330
EF7C85532
100
AcDbEntity
  8
WAKU
100
AcDbBlockReference
  2
WAKU
 10
0.0
 20
0.0
 30
0.0
 41
181.0
 42
283.0
 43
181.0
  0
TEXT
  5
EF7C88EC7
330
EF7C85532
100
AcDbEntity
  8
SUNPOU
100
AcDbText
 10
118.4086725695593
 20
7.849423898685245
 30
0.0
 40
3.0
  1
DP-O シーリングプレート取付状態
  7
K
100
AcDbText
  0
TEXT
  5
EF7C88EC8
330
EF7C85532
100
AcDbEntity
  8
SUNPOU
100
AcDbText
 10
118.4086725695593
 20
2.849423898685245
 30
0.0
 40
3.0
  1
尺度　1/1
  7
K
100
AcDbText
  0
TEXT
  5
EF7C89024
330
EF7C85532
100
AcDbEntity
  8
TEXT
100
AcDbText
 10
102.2857135617142
 20
272.4999999999999
 30
0.0
 40
3.0
  1
DP-O 型ヘッド
  7
K
 72
     4
 11
116.4999992759999
 21
273.9999999999999
 31
0.0
100
AcDbText
  0
TEXT
  5
EF7C89025
330
EF7C85532
100
AcDbEntity
  8
TEXT
100
AcDbText
 10
107.8999992759999
 20
278.4999999999999
 30
0.0
 40
3.0
  1
名      称
  7
K
 72
     4
 11
116.4999992759999
 21
279.9999999999999
 31
0.0
100
AcDbText
  0
TEXT
  5
EF7C89026
330
EF7C85532
100
AcDbEntity
  8
TEXT
100
AcDbText
 10
95.28571356171427
 20
272.4999999999999
 30
0.0
 40
3.0
  1
1
  7
K
 72
     4
 11
96.49999927599999
 21
273.9999999999999
 31
0.0
100
AcDbText
  0
TEXT
  5
EF7C8902A
330
EF7C85532
100
AcDbEntity
  8
TEXT
100
AcDbText
 10
93.29999927599997
 20
278.4999999999999
 30
0.0
 40
3.0
  1
番号
  7
K
 72
     4
 11
96.49999927599999
 21
279.9999999999999
 31
0.0
100
AcDbText
  0
TEXT
  5
EF7C8902B
330
EF7C85532
100
AcDbEntity
  8
TEXT
100
AcDbText
 10
156.6795477624092
 20
272.4999999999999
 30
0.0
 40
3.0
  1
1
  7
K
 72
     4
 11
157.8938334766949
 21
273.9999999999999
 31
0.0
100
AcDbText
  0
TEXT
  5
EF7C8902F
330
EF7C85532
100
AcDbEntity
  8
TEXT
100
AcDbText
 10
136.8249992759999
 20
274.2999999999999
 30
0.0
 40
3.0
  1
%%u      
  7
K
 72
     4
 11
141.9999992759999
 21
273.9999999999999
 31
0.0
100
AcDbText
  0
TEXT
  5
EF7C89030
330
EF7C85532
100
AcDbEntity
  8
TEXT
100
AcDbText
 10
135.1999992759999
 20
278.4999999999999
 30
0.0
 40
3.0
  1
材    質
  7
K
 72
     4
 11
141.9999992759999
 21
279.9999999999999
 31
0.0
100
AcDbText
  0
TEXT
  5
EF7C89031
330
EF7C85532
100
AcDbEntity
  8
TEXT
100
AcDbText
 10
165.6999992759999
 20
278.4999999999999
 30
0.0
 40
3.0
  1
備    考
  7
K
 72
     4
 11
172.4999992759999
 21
279.9999999999999
 31
0.0
100
AcDbText
  0
TEXT
  5
EF7C89032
330
EF7C85532
100
AcDbEntity
  8
TEXT
100
AcDbText
 10
154.7999992759999
 20
278.4999999999999
 30
0.0
 40
3.0
  1
個数
  7
K
 72
     4
 11
157.9999992759999
 21
279.9999999999999
 31
0.0
100
AcDbText
  0
ARC
  5
EF7C89033
330
EF7C85532
100
AcDbEntity
  8
JISSEN
100
AcDbCircle
 10
83.90603226701953
 20
150.5007540037038
 30
0.0
 40
30.0
100
AcDbArc
 50
319.7809012554437
 51
0.0
  0
ARC
  5
EF7C89034
330
EF7C85532
100
AcDbEntity
  8
JISSEN
100
AcDbCircle
 10
83.90603226701953
 20
150.5007540037038
 30
0.0
 40
28.0
100
AcDbArc
 50
337.975687162958
 51
0.0
  0
ARC
  5
EF7C89035
330
EF7C85532
100
AcDbEntity
  8
JISSEN
100
AcDbCircle
 10
83.90603226701953
 20
150.5007540037038
 30
0.0
 40
26.0
100
AcDbArc
 50
336.1811586065437
 51
0.0
  0
ARC
  5
EF7C89036
330
EF7C85532
100
AcDbEntity
  8
JISSEN
100
AcDbCircle
 10
99.90603226701953
 20
150.5007540037038
 30
0.0
 40
24.0
100
AcDbArc
 50
180.0
 51
237.8181160795958
  0
ARC
  5
EF7C89037
330
EF7C85532
100
AcDbEntity
  8
JISSEN
100
AcDbCircle
 10
99.90603226701953
 20
150.5007540037038
 30
0.0
 40
30.0
100
AcDbArc
 50
180.0
 51
220.2190987445562
  0
ARC
  5
EF7C89038
330
EF7C85532
100
AcDbEntity
  8
JISSEN
100
AcDbCircle
 10
99.90603226701953
 20
150.5007540037038
 30
0.0
 40
28.0
100
AcDbArc
 50
180.0
 51
202.0243128370419
  0
ARC
  5
EF7C89039
330
EF7C85532
100
AcDbEntity
  8
JISSEN
100
AcDbCircle
 10
99.90603226701953
 20
150.5007540037038
 30
0.0
 40
26.0
100
AcDbArc
 50
180.0
 51
203.8188413934562
  0
ARC
  5
EF7C8903A
330
EF7C85532
100
AcDbEntity
  8
JISSEN
100
AcDbCircle
 10
83.90603226701953
 20
150.5007540037038
 30
0.0
 40
24.0
100
AcDbArc
 50
302.1818839204041
 51
0.0
  0
LINE
  5
EF7C8903C
330
EF7C85532
100
AcDbEntity
  8
JISSEN
100
AcDbLine
 10
88.49251656272551
 20
119.5007624031977
 30
0.0
 11
84.58777305942495
 21
119.5007624031977
 31
0.0
  0
LINE
  5
EF7C8903D
330
EF7C85532
100
AcDbEntity
  8
JISSEN
100
AcDbLine
 10
82.38546521646773
 20
116.7007540037038
 30
0.0
 11
91.90603226701952
 21
116.7007540037038
 31
0.0
  0
LINE
  5
EF7C8903E
330
EF7C85532
100
AcDbEntity
  8
JISSEN
100
AcDbLine
 10
72.90603226701953
 20
117.8635266541729
 30
0.0
 11
110.9060322670195
 21
117.8635266541731
 31
0.0
  0
LINE
  5
EF7C8903F
330
EF7C85532
100
AcDbEntity
  8
JISSEN
100
AcDbLine
 10
110.7323840893525
 20
116.8787189011607
 30
0.0
 11
73.07968044468643
 21
116.8787189011607
 31
0.0
  0
LINE
  5
EF7C89040
330
EF7C85532
100
AcDbEntity
  8
JISSEN
100
AcDbLine
 10
76.9986073089137
 20
131.1293864270782
 30
0.0
 11
86.83220278238739
 21
119.5007624031977
 31
0.0
  0
ARC
  5
EF7C89041
330
EF7C85532
100
AcDbEntity
  8
JISSEN
100
AcDbCircle
 10
83.73924492200101
 20
118.5007624031972
 30
0.0
 40
1.0
100
AcDbArc
 50
47.91894748809134
 51
146.3490341753983
  0
LINE
  5
EF7C89042
330
EF7C85532
100
AcDbEntity
  8
JISSEN
100
AcDbLine
 10
83.45513870590385
 20
117.863526654173
 30
0.0
 11
84.58777305942495
 21
119.5007624031977
 31
0.0
  0
LINE
  5
EF7C89043
330
EF7C85532
100
AcDbEntity
  8
JISSEN
100
AcDbLine
 10
79.69120003504301
 20
117.8635266541729
 30
0.0
 11
81.48484020925385
 21
119.5007624031977
 31
0.0
  0
ARC
  5
EF7C89044
330
EF7C85532
100
AcDbEntity
  8
JISSEN
100
AcDbCircle
 10
80.94002417983025
 20
118.1452624031976
 30
0.0
 40
1.355499999999999
100
AcDbArc
 50
70.26879749382175
 51
124.999999999997
  0
LINE
  5
EF7C89045
330
EF7C85532
100
AcDbEntity
  8
JISSEN
100
AcDbLine
 10
74.81854360349356
 20
118.2007540037038
 30
0.0
 11
78.65603226701953
 21
118.2007540037038
 31
0.0
  0
LINE
  5
EF7C89046
330
EF7C85532
100
AcDbEntity
  8
JISSEN
100
AcDbLine
 10
73.90603226701907
 20
118.0398536348811
 30
0.0
 11
74.81854360349334
 21
118.2007540037038
 31
0.0
  0
LINE
  5
EF7C89047
330
EF7C85532
100
AcDbEntity
  8
JISSEN
100
AcDbLine
 10
72.90603226701953
 20
117.8635266541729
 30
0.0
 11
73.90603226701907
 21
118.0398536348811
 31
0.0
  0
LINE
  5
EF7C89048
330
EF7C85532
100
AcDbEntity
  8
JISSEN
100
AcDbLine
 10
73.07968044468643
 20
116.8787189011604
 30
0.0
 11
72.90603226701953
 21
117.8635266541729
 31
0.0
  0
LINE
  5
EF7C89049
330
EF7C85532
100
AcDbEntity
  8
JISSEN
100
AcDbLine
 10
78.65603226701953
 20
118.2007540037038
 30
0.0
 11
80.16254132035644
 21
119.2556229992314
 31
0.0
  0
LINE
  5
EF7C8904A
330
EF7C85532
100
AcDbEntity
  8
JISSEN
100
AcDbLine
 10
82.38546521646773
 20
116.7007540037038
 30
0.0
 11
82.26085285373185
 21
116.8787189011607
 31
0.0
  0
LINE
  5
EF7C8904B
330
EF7C85532
100
AcDbEntity
  8
JISSEN
100
AcDbLine
 10
82.11374482027551
 20
117.863526654173
 30
0.0
 11
82.90681626440047
 21
119.0548946347136
 31
0.0
  0
LINE
  5
EF7C8904C
330
EF7C85532
100
AcDbEntity
  8
JISSEN
100
AcDbLine
 10
81.48484020925385
 20
119.5007624031977
 30
0.0
 11
83.73924492200101
 21
119.5007624031977
 31
0.0
  0
ARC
  5
EF7C8904D
330
EF7C85532
100
AcDbEntity
  8
JISSEN
100
AcDbCircle
 10
102.8720403542088
 20
118.1452624031976
 30
0.0
 40
1.355499999999999
100
AcDbArc
 50
55.00000000000298
 51
109.731202506171
  0
ARC
  5
EF7C8904E
330
EF7C85532
100
AcDbEntity
  8
JISSEN
100
AcDbCircle
 10
100.0728196120382
 20
118.5007624031972
 30
0.0
 40
1.0
100
AcDbArc
 50
33.65096582460159
 51
132.0810525119086
  0
LINE
  5
EF7C8904F
330
EF7C85532
100
AcDbEntity
  8
JISSEN
100
AcDbLine
 10
104.120864498996
 20
117.8635266541729
 30
0.0
 11
102.3272243247852
 21
119.5007624031976
 31
0.0
  0
LINE
  5
EF7C89050
330
EF7C85532
100
AcDbEntity
  8
JISSEN
100
AcDbLine
 10
100.3569258281354
 20
117.863526654173
 30
0.0
 11
99.22429147461432
 21
119.5007624031976
 31
0.0
  0
ARC
  5
EF7C89051
330
EF7C85532
100
AcDbEntity
  8
JISSEN
100
AcDbCircle
 10
95.31954797131353
 20
119.0007624031967
 30
0.0
 40
0.5
100
AcDbArc
 50
15.79871507350289
 51
166.7098700100968
  0
ARC
  5
EF7C89052
330
EF7C85532
100
AcDbEntity
  8
JISSEN
100
AcDbCircle
 10
88.49251656272551
 20
119.0007624031967
 30
0.0
 40
0.5
100
AcDbArc
 50
13.29012998990317
 51
164.2012849264971
  0
LINE
  5
EF7C89053
330
EF7C85532
100
AcDbEntity
  8
JISSEN
100
AcDbLine
 10
94.16043697976666
 20
119.5007624031977
 30
0.0
 11
94.32857705225226
 21
117.863526654173
 31
0.0
  0
LINE
  5
EF7C89054
330
EF7C85532
100
AcDbEntity
  8
JISSEN
100
AcDbLine
 10
89.48348748178725
 20
117.863526654173
 30
0.0
 11
89.65162755427238
 21
119.5007624031977
 31
0.0
  0
LINE
  5
EF7C89055
330
EF7C85532
100
AcDbEntity
  8
JISSEN
100
AcDbLine
 10
101.4265993175713
 20
116.7007540037038
 30
0.0
 11
91.90603226701952
 21
116.7007540037038
 31
0.0
  0
LINE
  5
EF7C89056
330
EF7C85532
100
AcDbEntity
  8
JISSEN
100
AcDbLine
 10
87.65110935753771
 20
117.863526654173
 30
0.0
 11
88.01140451297667
 21
119.1368917372372
 31
0.0
  0
LINE
  5
EF7C89057
330
EF7C85532
100
AcDbEntity
  8
JISSEN
100
AcDbLine
 10
88.49251656272551
 20
117.863526654173
 30
0.0
 11
88.59598227630383
 21
118.2291980349174
 31
0.0
  0
LINE
  5
EF7C89058
330
EF7C85532
100
AcDbEntity
  8
JISSEN
100
AcDbLine
 10
88.87490010801318
 20
117.863526654173
 30
0.0
 11
88.78952653502025
 21
118.2249603771015
 31
0.0
  0
LINE
  5
EF7C89059
330
EF7C85532
100
AcDbEntity
  8
JISSEN
100
AcDbLine
 10
89.27490010801326
 20
117.863526654173
 30
0.0
 11
88.97912580655813
 21
119.1157034481575
 31
0.0
  0
ARC
  5
EF7C8905A
330
EF7C85532
100
AcDbEntity
  8
JISSEN
100
AcDbCircle
 10
88.69220468625369
 20
118.2019721681093
 30
0.0
 40
0.1
100
AcDbArc
 50
13.29012998990878
 51
164.2012849264932
  0
LINE
  5
EF7C8905B
330
EF7C85532
100
AcDbEntity
  8
JISSEN
100
AcDbLine
 10
94.93716442602588
 20
117.863526654173
 30
0.0
 11
95.02253799901902
 21
118.2249603771015
 31
0.0
  0
LINE
  5
EF7C8905C
330
EF7C85532
100
AcDbEntity
  8
JISSEN
100
AcDbLine
 10
95.31954797131353
 20
117.863526654173
 30
0.0
 11
95.21608225773523
 21
118.2291980349174
 31
0.0
  0
ARC
  5
EF7C8905D
330
EF7C85532
100
AcDbEntity
  8
JISSEN
100
AcDbCircle
 10
95.11985984778537
 20
118.2019721681093
 30
0.0
 40
0.1
100
AcDbArc
 50
15.79871507350672
 51
166.7098700100912
  0
LINE
  5
EF7C8905E
330
EF7C85532
100
AcDbEntity
  8
JISSEN
100
AcDbLine
 10
94.53716442602578
 20
117.863526654173
 30
0.0
 11
94.83293872748092
 21
119.1157034481575
 31
0.0
  0
LINE
  5
EF7C8905F
330
EF7C85532
100
AcDbEntity
  8
JISSEN
100
AcDbLine
 10
96.16095517650158
 20
117.863526654173
 30
0.0
 11
95.80066002106262
 21
119.1368917372372
 31
0.0
  0
LINE
  5
EF7C89060
330
EF7C85532
100
AcDbEntity
  8
JISSEN
100
AcDbLine
 10
105.1560322670195
 20
118.2007540037038
 30
0.0
 11
108.9935209305469
 21
118.2007540037038
 31
0.0
  0
LINE
  5
EF7C89061
330
EF7C85532
100
AcDbEntity
  8
JISSEN
100
AcDbLine
 10
101.4265993175713
 20
116.7007540037038
 30
0.0
 11
101.5512116803074
 21
116.8787189011607
 31
0.0
  0
LINE
  5
EF7C89062
330
EF7C85532
100
AcDbEntity
  8
JISSEN
100
AcDbLine
 10
101.6983197137635
 20
117.863526654173
 30
0.0
 11
100.9052482696388
 21
119.0548946347136
 31
0.0
  0
LINE
  5
EF7C89063
330
EF7C85532
100
AcDbEntity
  8
JISSEN
100
AcDbLine
 10
105.1560322670195
 20
118.2007540037038
 30
0.0
 11
103.6495232136826
 21
119.2556229992314
 31
0.0
  0
LINE
  5
EF7C89064
330
EF7C85532
100
AcDbEntity
  8
JISSEN
100
AcDbLine
 10
110.9060322670195
 20
117.8635266541731
 30
0.0
 11
108.9935209305455
 21
118.2007540037041
 31
0.0
  0
LINE
  5
EF7C89065
330
EF7C85532
100
AcDbEntity
  8
JISSEN
100
AcDbLine
 10
110.7323840893525
 20
116.8787189011607
 30
0.0
 11
110.9060322670195
 21
117.8635266541731
 31
0.0
  0
LINE
  5
EF7C89066
330
EF7C85532
100
AcDbEntity
  8
JISSEN
100
AcDbLine
 10
95.31954797131353
 20
119.5007624031976
 30
0.0
 11
99.22429147461432
 21
119.5007624031977
 31
0.0
  0
LINE
  5
EF7C89067
330
EF7C85532
100
AcDbEntity
  8
JISSEN
100
AcDbLine
 10
106.8134572251253
 20
131.1293864270782
 30
0.0
 11
96.97986175165167
 21
119.5007624031976
 31
0.0
  0
ARC
  5
EF7C89068
330
EF7C85532
100
AcDbEntity
  8
JISSEN
100
AcDbCircle
 10
94.7020261762336
 20
129.0007540037038
 30
0.0
 40
1.5
100
AcDbArc
 50
54.4366714240505
 51
90.0
  0
ARC
  5
EF7C89069
330
EF7C85532
100
AcDbEntity
  8
JISSEN
100
AcDbCircle
 10
89.11003835780546
 20
129.0007540037038
 30
0.0
 40
1.5
100
AcDbArc
 50
90.0
 51
125.5633285759494
  0
LINE
  5
EF7C8906A
330
EF7C85532
100
AcDbEntity
  8
JISSEN
100
AcDbLine
 10
89.65162755427238
 20
119.5007624031977
 30
0.0
 11
94.16043697976666
 21
119.5007624031977
 31
0.0
  0
ARC
  5
EF7C8906B
330
EF7C85532
100
AcDbEntity
  8
JISSEN
100
AcDbCircle
 10
75.15603226701952
 20
124.5007540037038
 30
0.0
 40
12.49999999999999
100
AcDbArc
 50
343.7397952916875
 51
16.26020470831243
  0
ARC
  5
EF7C8906C
330
EF7C85532
100
AcDbEntity
  8
JISSEN
100
AcDbCircle
 10
85.90603226701952
 20
119.0473190215647
 30
0.0
 40
1.0
100
AcDbArc
 50
26.96482331252983
 51
40.21909874455624
  0
ARC
  5
EF7C8906D
330
EF7C85532
100
AcDbEntity
  8
JISSEN
100
AcDbCircle
 10
87.65603226701953
 20
131.0344369406331
 30
0.0
 40
1.0
100
AcDbArc
 50
237.8181160795958
 51
305.5633285759499
  0
ARC
  5
EF7C8906E
330
EF7C85532
100
AcDbEntity
  8
JISSEN
100
AcDbCircle
 10
108.6560322670195
 20
124.5007540037038
 30
0.0
 40
12.49999999999999
100
AcDbArc
 50
163.7397952916875
 51
196.2602047083124
  0
ARC
  5
EF7C8906F
330
EF7C85532
100
AcDbEntity
  8
JISSEN
100
AcDbCircle
 10
97.90603226701954
 20
119.0473190215647
 30
0.0
 40
1.0
100
AcDbArc
 50
139.7809012554437
 51
153.0351766874614
  0
ARC
  5
EF7C89070
330
EF7C85532
100
AcDbEntity
  8
JISSEN
100
AcDbCircle
 10
96.15603226701953
 20
131.0344369406331
 30
0.0
 40
1.0
100
AcDbArc
 50
234.43667142405
 51
302.1818839204041
  0
LINE
  5
EF7C89071
330
EF7C85532
100
AcDbEntity
  8
JISSEN
100
AcDbLine
 10
94.7020261762336
 20
130.5007540037038
 30
0.0
 11
91.90603226701952
 21
130.5007540037038
 31
0.0
  0
ARC
  5
EF7C89072
330
EF7C85532
100
AcDbEntity
  8
JISSEN
100
AcDbCircle
 10
91.90524771152714
 20
130.4406868061364
 30
0.0
 40
1.6
100
AcDbArc
 50
17.33173146614687
 51
162.753711697013
  0
LINE
  5
EF7C89073
330
EF7C85532
100
AcDbEntity
  8
JISSEN
100
AcDbLine
 10
89.96288473357614
 20
130.5007540037038
 30
0.0
 11
90.37718506702773
 21
130.9150543371553
 31
0.0
  0
LINE
  5
EF7C89074
330
EF7C85532
100
AcDbEntity
  8
JISSEN
100
AcDbLine
 10
89.11003835780546
 20
130.5007540037038
 30
0.0
 11
91.90603226701952
 21
130.5007540037038
 31
0.0
  0
LINE
  5
EF7C89075
330
EF7C85532
100
AcDbEntity
  8
JISSEN
100
AcDbLine
 10
93.84917980046314
 20
130.5007540037038
 30
0.0
 11
93.43260124971399
 21
130.9173325544531
 31
0.0
  0
LINE
  5
EF7C89076
330
EF7C85532
100
AcDbEntity
  8
JISSEN
100
AcDbLine
 10
102.3272243247852
 20
119.5007624031976
 30
0.0
 11
100.0728196120382
 21
119.5007624031976
 31
0.0
  0
LINE
  5
EF7C89079
330
EF7C85532
100
AcDbEntity
  8
JISSEN
100
AcDbLine
 10
102.4548800302502
 20
172.057739672926
 30
0.0
 11
129.4746155449506
 21
172.0577396729264
 31
0.0
  0
LINE
  5
EF7C8907A
330
EF7C85532
100
AcDbEntity
  8
JISSEN
100
AcDbLine
 10
102.2986222217295
 20
177.0577396729263
 30
0.0
 11
129.4746155449513
 21
177.0577396729262
 31
0.0
  0
HATCH
  5
EF7C8907B
330
EF7C85532
100
AcDbEntity
  8
JISSEN
 62
     0
100
AcDbHatch
 10
0.0
 20
0.0
 30
0.0
210
0.0
220
0.0
230
1.0
  2
ANSI31
 70
     0
 71
     0
 91
        2
 92
        7
 72
     0
 73
     1
 93
       50
 10
130.7692038690433
 20
175.594926901706
 10
130.6471654434894
 20
175.6610012999502
 10
130.485476247998
 20
175.7246132872863
 10
130.310354495391
 20
175.7877327850159
 10
130.1480183984869
 20
175.8523297144437
 10
130.0246861701045
 20
175.9203739968726
 10
129.9665760230634
 20
175.9938355536062
 10
129.9891224596978
 20
176.0747718044514
 10
130.0646251404036
 20
176.1655901632341
 10
130.1546000150833
 20
176.2687855422764
 10
130.2205630336511
 20
176.3868528539121
 10
130.2240301460135
 20
176.5222870104673
 10
130.1265173020785
 20
176.6775829242694
 10
129.8895404517549
 20
176.8552355076464
 10
129.4746155449513
 20
177.0577396729262
 10
111.9746155449508
 20
177.0577396729263
 10
111.9746155449508
 20
172.0577396729262
 10
129.4746155449506
 20
172.0577396729264
 10
129.8696734803972
 20
172.2166672314149
 10
130.0711019489524
 20
172.3558642264994
 10
130.1179703275099
 20
172.4788880322009
 10
130.0493479929641
 20
172.5892960225406
 10
129.9043043222086
 20
172.6906455715388
 10
129.7219086921395
 20
172.7864940532219
 10
129.5412304796436
 20
172.8803988415956
 10
129.4013390616221
 20
172.9759173106958
 10
129.3031363584761
 20
173.1168130114535
 10
129.35752908447
 20
173.2871495087726
 10
129.4157986289139
 20
173.3964955428489
 10
129.4794905110934
 20
173.5069496533
 10
129.5299962725989
 20
173.6174960955287
 10
129.5487074550232
 20
173.7271191249433
 10
129.5170155999589
 20
173.8348029969518
 10
129.4232031288693
 20
173.9398141185668
 10
129.2831159827023
 20
174.0425475032245
 10
129.1194909822767
 20
174.1436803159649
 10
128.955064948416
 20
174.2438897218331
 10
128.8125747019355
 20
174.3438528858663
 10
128.7147570636566
 20
174.4442469731083
 10
128.6843488543986
 20
174.5457491485997
 10
128.7440868949811
 20
174.6490365773822
 10
128.9081021094404
 20
174.7544478429665
 10
129.1561018346783
 20
174.8609672027393
 10
129.4591875108119
 20
174.9672403325563
 10
129.7884605779636
 20
175.0719129082759
 10
130.1150224762411
 20
175.1736306057495
 10
130.4099746457745
 20
175.2710391008379
 10
130.6444185266754
 20
175.3627840693952
 10
130.7894555590639
 20
175.4475111872777
 10
130.8253733118412
 20
175.5244201712494
 97
        0
 92
        7
 72
     0
 73
     1
 93
       50
 10
71.97461554495086
 20
177.0577396729265
 10
54.47461554495098
 20
177.0577396729264
 10
54.05969063814686
 20
176.8552355076463
 10
53.82271378782317
 20
176.6775829242694
 10
53.72520094388832
 20
176.5222870104672
 10
53.72866805625071
 20
176.3868528539122
 10
53.79463107481839
 20
176.2687855422764
 10
53.88460594950081
 20
176.165590163231
 10
53.96010863020385
 20
176.0747718044514
 10
53.98265506683841
 20
175.9938355536062
 10
53.9245449197974
 20
175.9203739968727
 10
53.80121269141475
 20
175.8523297144439
 10
53.63887659451004
 20
175.787732785016
 10
53.46375484190272
 20
175.7246132872858
 10
53.30206564641262
 20
175.6610012999503
 10
53.18002722085859
 20
175.594926901706
 10
53.12385777806068
 20
175.5244201712495
 10
53.15977553083789
 20
175.4475111872777
 10
53.30481256322636
 20
175.3627840693953
 10
53.53925644412831
 20
175.2710391008377
 10
53.83420861365741
 20
175.1736306057502
 10
54.16077051194108
 20
175.0719129082759
 10
54.49004357908958
 20
174.9672403325563
 10
54.79312925522364
 20
174.8609672027391
 10
55.0411289804617
 20
174.7544478429665
 10
55.20514419492062
 20
174.6490365773823
 10
55.26488223550334
 20
174.5457491485996
 10
55.23447402624523
 20
174.4442469731083
 10
55.13665638796656
 20
174.3438528858667
 10
54.99416614148626
 20
174.2438897218332
 10
54.82974010762038
 20
174.143680315964
 10
54.66611510719937
 20
174.0425475032245
 10
54.52602796103267
 20
173.9398141185668
 10
54.43221548994277
 20
173.8348029969518
 10
54.40052363487857
 20
173.7271191249432
 10
54.41923481730302
 20
173.6174960955285
 10
54.46974057880854
 20
173.5069496532996
 10
54.5334324609872
 20
173.3964955428503
 10
54.59170200543187
 20
173.2871495087725
 10
54.64609473142579
 20
173.1168130114535
 10
54.54789202827962
 20
172.9759173106958
 10
54.40800061025808
 20
172.8803988415957
 10
54.22732239776675
 20
172.786494053218
 10
54.04492676769322
 20
172.6906455715389
 10
53.89988309693783
 20
172.5892960225407
 10
53.8312607623919
 20
172.478888032201
 10
53.87812914094954
 20
172.3558642264994
 10
54.07955760950469
 20
172.2166672314149
 10
54.4746155449512
 20
172.0577396729264
 10
71.97461554495086
 20
172.0577396729264
 97
        0
 75
     0
 76
     1
 52
0.0
 41
20.0
 77
     0
 78
     1
 53
45.0
 43
33.61511078150599
 44
-534.296717527619
 45
-1.767766952966368
 46
1.767766952966368
 79
     0
 47
0.1350417537953048
 98
        2
 10
198.5383570654296
 20
174.2419035301762
 10
142.4437654253126
 20
175.7273629303139
  0
ARC
  5
EF7C8907C
330
EF7C85532
100
AcDbEntity
  8
JISSEN
100
AcDbCircle
 10
96.90603226701952
 20
150.5007540037038
 30
0.0
 40
15.0
100
AcDbArc
 50
0.0
 51
53.31701119964015
  0
ARC
  5
EF7C8907D
330
EF7C85532
100
AcDbEntity
  8
JISSEN
100
AcDbCircle
 10
96.90603226701952
 20
150.5007540037038
 30
0.0
 40
17.0
100
AcDbArc
 50
0.0
 51
70.25007720435737
  0
LWPOLYLINE
  5
EF7C8907E
330
EF7C85532
100
AcDbEntity
  8
NITEN
100
AcDbPolyline
 90
       15
 70
     1
 43
0.0
 10
77.90603226701953
 20
172.1113029094276
 42
0.4142135623730927
 10
79.40603226701952
 20
170.6113029094276
 10
102.5000834380161
 20
170.6113029094276
 10
104.4060322670195
 20
170.6113029094276
 42
0.4142135623730925
 10
105.9060322670195
 20
172.1113029094276
 10
105.9060322670195
 20
183.1573189356456
 42
-0.4142135623730943
 10
110.9060322670195
 20
188.1573189356456
 42
0.4142135623730951
 10
112.9060322670195
 20
190.1573189356455
 10
112.9060322670195
 20
210.6113029094276
 42
0.4142135623730948
 10
110.9060322670195
 20
212.6113029094276
 10
72.90603226701953
 20
212.6113029094276
 42
0.4142135623730951
 10
70.90603226701952
 20
210.6113029094276
 10
70.90603226701952
 20
190.1573189356455
 42
0.4142135623730951
 10
72.90603226701953
 20
188.1573189356456
 42
-0.4142135623730961
 10
77.90603226701953
 20
183.1573189356456
  0
LWPOLYLINE
  5
EF7C8907F
330
EF7C85532
100
AcDbEntity
  8
NITEN
100
AcDbPolyline
 90
        5
 70
     0
 43
0.0
 10
108.9060322670195
 20
212.6113029094276
 10
108.9060322670195
 20
233.4490205605735
 42
-0.5882352941176475
 10
91.90603226701952
 20
233.4490205605735
 42
0.5882352941176476
 10
74.90603226701953
 20
233.4490205605732
 10
74.90603226701953
 20
212.6113029094276
  0
LINE
  5
EF7C89080
330
EF7C85532
100
AcDbEntity
  8
JISSEN
100
AcDbLine
 10
54.47461554495132
 20
172.0577396729264
 30
0.0
 11
81.35718450378883
 21
172.0577396729264
 31
0.0
  0
LINE
  5
EF7C89081
330
EF7C85532
100
AcDbEntity
  8
JISSEN
100
AcDbLine
 10
81.51344231230948
 20
177.0577396729266
 30
0.0
 11
54.47461554495109
 21
177.0577396729264
 31
0.0
  0
POLYLINE
  5
EF7C89082
330
EF7C85532
100
AcDbEntity
  8
JISSEN
 62
     0
100
AcDb2dPolyline
 66
     1
 10
0.0
 20
0.0
 30
0.0
 70
     4
 75
     6
  0
VERTEX
  5
EF7C89083
330
EF7C89082
100
AcDbEntity
  8
JISSEN
 62
     0
100
AcDbVertex
100
AcDb2dVertex
 10
54.47461554495086
 20
177.0577396729264
 30
0.0
 70
    16
  0
VERTEX
  5
EF7C89084
330
EF7C89082
100
AcDbEntity
  8
JISSEN
 62
     0
100
AcDbVertex
100
AcDb2dVertex
 10
54.47461554495086
 20
177.0577396729264
 30
0.0
 70
     8
  0
VERTEX
  5
EF7C89085
330
EF7C89082
100
AcDbEntity
  8
JISSEN
 62
     0
100
AcDbVertex
100
AcDb2dVertex
 10
54.05969063814698
 20
176.8552355076463
 30
0.0
 70
     8
  0
VERTEX
  5
EF7C89086
330
EF7C89082
100
AcDbEntity
  8
JISSEN
 62
     0
100
AcDbVertex
100
AcDb2dVertex
 10
53.82271378782317
 20
176.6775829242693
 30
0.0
 70
     8
  0
VERTEX
  5
EF7C89087
330
EF7C89082
100
AcDbEntity
  8
JISSEN
 62
     0
100
AcDbVertex
100
AcDb2dVertex
 10
53.72520094388844
 20
176.5222870104672
 30
0.0
 70
     8
  0
VERTEX
  5
EF7C89088
330
EF7C89082
100
AcDbEntity
  8
JISSEN
 62
     0
100
AcDbVertex
100
AcDb2dVertex
 10
53.7286680562506
 20
176.3868528539121
 30
0.0
 70
     8
  0
VERTEX
  5
EF7C89089
330
EF7C89082
100
AcDbEntity
  8
JISSEN
 62
     0
100
AcDbVertex
100
AcDb2dVertex
 10
53.79463107481839
 20
176.2687855422765
 30
0.0
 70
     8
  0
VERTEX
  5
EF7C8908A
330
EF7C89082
100
AcDbEntity
  8
JISSEN
 62
     0
100
AcDbVertex
100
AcDb2dVertex
 10
53.88460594949989
 20
176.1655901632321
 30
0.0
 70
     8
  0
VERTEX
  5
EF7C8908B
330
EF7C89082
100
AcDbEntity
  8
JISSEN
 62
     0
100
AcDbVertex
100
AcDb2dVertex
 10
53.96010863020385
 20
176.0747718044514
 30
0.0
 70
     8
  0
VERTEX
  5
EF7C8908C
330
EF7C89082
100
AcDbEntity
  8
JISSEN
 62
     0
100
AcDbVertex
100
AcDb2dVertex
 10
53.98265506683853
 20
175.9938355536062
 30
0.0
 70
     8
  0
VERTEX
  5
EF7C8908D
330
EF7C89082
100
AcDbEntity
  8
JISSEN
 62
     0
100
AcDbVertex
100
AcDb2dVertex
 10
53.9245449197974
 20
175.9203739968727
 30
0.0
 70
     8
  0
VERTEX
  5
EF7C8908E
330
EF7C89082
100
AcDbEntity
  8
JISSEN
 62
     0
100
AcDbVertex
100
AcDb2dVertex
 10
53.80121269141475
 20
175.8523297144438
 30
0.0
 70
     8
  0
VERTEX
  5
EF7C8908F
330
EF7C89082
100
AcDbEntity
  8
JISSEN
 62
     0
100
AcDbVertex
100
AcDb2dVertex
 10
53.63887659451004
 20
175.787732785016
 30
0.0
 70
     8
  0
VERTEX
  5
EF7C89090
330
EF7C89082
100
AcDbEntity
  8
JISSEN
 62
     0
100
AcDbVertex
100
AcDb2dVertex
 10
53.46375484190295
 20
175.7246132872858
 30
0.0
 70
     8
  0
VERTEX
  5
EF7C89091
330
EF7C89082
100
AcDbEntity
  8
JISSEN
 62
     0
100
AcDbVertex
100
AcDb2dVertex
 10
53.3020656464125
 20
175.6610012999503
 30
0.0
 70
     8
  0
VERTEX
  5
EF7C89092
330
EF7C89082
100
AcDbEntity
  8
JISSEN
 62
     0
100
AcDbVertex
100
AcDb2dVertex
 10
53.18002722085859
 20
175.594926901706
 30
0.0
 70
     8
  0
VERTEX
  5
EF7C89093
330
EF7C89082
100
AcDbEntity
  8
JISSEN
 62
     0
100
AcDbVertex
100
AcDb2dVertex
 10
53.12385777806068
 20
175.5244201712495
 30
0.0
 70
     8
  0
VERTEX
  5
EF7C89094
330
EF7C89082
100
AcDbEntity
  8
JISSEN
 62
     0
100
AcDbVertex
100
AcDb2dVertex
 10
53.15977553083778
 20
175.4475111872777
 30
0.0
 70
     8
  0
VERTEX
  5
EF7C89095
330
EF7C89082
100
AcDbEntity
  8
JISSEN
 62
     0
100
AcDbVertex
100
AcDb2dVertex
 10
53.30481256322625
 20
175.3627840693952
 30
0.0
 70
     8
  0
VERTEX
  5
EF7C89096
330
EF7C89082
100
AcDbEntity
  8
JISSEN
 62
     0
100
AcDbVertex
100
AcDb2dVertex
 10
53.5392564441274
 20
175.2710391008379
 30
0.0
 70
     8
  0
VERTEX
  5
EF7C89097
330
EF7C89082
100
AcDbEntity
  8
JISSEN
 62
     0
100
AcDbVertex
100
AcDb2dVertex
 10
53.83420861365968
 20
175.1736306057498
 30
0.0
 70
     8
  0
VERTEX
  5
EF7C89098
330
EF7C89082
100
AcDbEntity
  8
JISSEN
 62
     0
100
AcDbVertex
100
AcDb2dVertex
 10
54.16077051194108
 20
175.0719129082747
 30
0.0
 70
     8
  0
VERTEX
  5
EF7C89099
330
EF7C89082
100
AcDbEntity
  8
JISSEN
 62
     0
100
AcDbVertex
100
AcDb2dVertex
 10
54.49004357908981
 20
174.9672403325564
 30
0.0
 70
     8
  0
VERTEX
  5
EF7C8909A
330
EF7C89082
100
AcDbEntity
  8
JISSEN
 62
     0
100
AcDbVertex
100
AcDb2dVertex
 10
54.79312925522387
 20
174.8609672027391
 30
0.0
 70
     8
  0
VERTEX
  5
EF7C8909B
330
EF7C89082
100
AcDbEntity
  8
JISSEN
 62
     0
100
AcDbVertex
100
AcDb2dVertex
 10
55.04112898046148
 20
174.7544478429664
 30
0.0
 70
     8
  0
VERTEX
  5
EF7C8909C
330
EF7C89082
100
AcDbEntity
  8
JISSEN
 62
     0
100
AcDbVertex
100
AcDb2dVertex
 10
55.20514419492062
 20
174.6490365773822
 30
0.0
 70
     8
  0
VERTEX
  5
EF7C8909D
330
EF7C89082
100
AcDbEntity
  8
JISSEN
 62
     0
100
AcDbVertex
100
AcDb2dVertex
 10
55.26488223550334
 20
174.5457491485997
 30
0.0
 70
     8
  0
VERTEX
  5
EF7C8909E
330
EF7C89082
100
AcDbEntity
  8
JISSEN
 62
     0
100
AcDbVertex
100
AcDb2dVertex
 10
55.23447402624535
 20
174.4442469731084
 30
0.0
 70
     8
  0
VERTEX
  5
EF7C8909F
330
EF7C89082
100
AcDbEntity
  8
JISSEN
 62
     0
100
AcDbVertex
100
AcDb2dVertex
 10
55.13665638796644
 20
174.3438528858665
 30
0.0
 70
     8
  0
VERTEX
  5
EF7C890A0
330
EF7C89082
100
AcDbEntity
  8
JISSEN
 62
     0
100
AcDbVertex
100
AcDb2dVertex
 10
54.99416614148592
 20
174.243889721833
 30
0.0
 70
     8
  0
VERTEX
  5
EF7C890A1
330
EF7C89082
100
AcDbEntity
  8
JISSEN
 62
     0
100
AcDbVertex
100
AcDb2dVertex
 10
54.82974010762379
 20
174.143680315966
 30
0.0
 70
     8
  0
VERTEX
  5
EF7C890A2
330
EF7C89082
100
AcDbEntity
  8
JISSEN
 62
     0
100
AcDbVertex
100
AcDb2dVertex
 10
54.6661151071996
 20
174.0425475032245
 30
0.0
 70
     8
  0
VERTEX
  5
EF7C890A3
330
EF7C89082
100
AcDbEntity
  8
JISSEN
 62
     0
100
AcDbVertex
100
AcDb2dVertex
 10
54.52602796103267
 20
173.9398141185668
 30
0.0
 70
     8
  0
VERTEX
  5
EF7C890A4
330
EF7C89082
100
AcDbEntity
  8
JISSEN
 62
     0
100
AcDbVertex
100
AcDb2dVertex
 10
54.43221548994277
 20
173.8348029969517
 30
0.0
 70
     8
  0
VERTEX
  5
EF7C890A5
330
EF7C89082
100
AcDbEntity
  8
JISSEN
 62
     0
100
AcDbVertex
100
AcDb2dVertex
 10
54.40052363487845
 20
173.7271191249433
 30
0.0
 70
     8
  0
VERTEX
  5
EF7C890A6
330
EF7C89082
100
AcDbEntity
  8
JISSEN
 62
     0
100
AcDbVertex
100
AcDb2dVertex
 10
54.41923481730302
 20
173.6174960955283
 30
0.0
 70
     8
  0
VERTEX
  5
EF7C890A7
330
EF7C89082
100
AcDbEntity
  8
JISSEN
 62
     0
100
AcDbVertex
100
AcDb2dVertex
 10
54.46974057880854
 20
173.5069496532998
 30
0.0
 70
     8
  0
VERTEX
  5
EF7C890A8
330
EF7C89082
100
AcDbEntity
  8
JISSEN
 62
     0
100
AcDbVertex
100
AcDb2dVertex
 10
54.53343246098754
 20
173.3964955428505
 30
0.0
 70
     8
  0
VERTEX
  5
EF7C890A9
330
EF7C89082
100
AcDbEntity
  8
JISSEN
 62
     0
100
AcDbVertex
100
AcDb2dVertex
 10
54.59170200543187
 20
173.2871495087727
 30
0.0
 70
     8
  0
VERTEX
  5
EF7C890AA
330
EF7C89082
100
AcDbEntity
  8
JISSEN
 62
     0
100
AcDbVertex
100
AcDb2dVertex
 10
54.62594075373383
 20
173.1799272956592
 30
0.0
 70
     8
  0
VERTEX
  5
EF7C890AB
330
EF7C89082
100
AcDbEntity
  8
JISSEN
 62
     0
100
AcDbVertex
100
AcDb2dVertex
 10
54.61754024748572
 20
173.0758446481028
 30
0.0
 70
     8
  0
VERTEX
  5
EF7C890AC
330
EF7C89082
100
AcDbEntity
  8
JISSEN
 62
     0
100
AcDbVertex
100
AcDb2dVertex
 10
54.54789202827962
 20
172.9759173106958
 30
0.0
 70
     8
  0
VERTEX
  5
EF7C890AD
330
EF7C89082
100
AcDbEntity
  8
JISSEN
 62
     0
100
AcDbVertex
100
AcDb2dVertex
 10
54.40800061025808
 20
172.8803988415957
 30
0.0
 70
     8
  0
VERTEX
  5
EF7C890AE
330
EF7C89082
100
AcDbEntity
  8
JISSEN
 62
     0
100
AcDbVertex
100
AcDb2dVertex
 10
54.22732239776471
 20
172.7864940532169
 30
0.0
 70
     8
  0
VERTEX
  5
EF7C890AF
330
EF7C89082
100
AcDbEntity
  8
JISSEN
 62
     0
100
AcDbVertex
100
AcDb2dVertex
 10
54.04492676769334
 20
172.6906455715389
 30
0.0
 70
     8
  0
VERTEX
  5
EF7C890B0
330
EF7C89082
100
AcDbEntity
  8
JISSEN
 62
     0
100
AcDbVertex
100
AcDb2dVertex
 10
53.89988309693783
 20
172.5892960225406
 30
0.0
 70
     8
  0
VERTEX
  5
EF7C890B1
330
EF7C89082
100
AcDbEntity
  8
JISSEN
 62
     0
100
AcDbVertex
100
AcDb2dVertex
 10
53.83126076239179
 20
172.4788880322009
 30
0.0
 70
     8
  0
VERTEX
  5
EF7C890B2
330
EF7C89082
100
AcDbEntity
  8
JISSEN
 62
     0
100
AcDbVertex
100
AcDb2dVertex
 10
53.87812914094954
 20
172.3558642264994
 30
0.0
 70
     8
  0
VERTEX
  5
EF7C890B3
330
EF7C89082
100
AcDbEntity
  8
JISSEN
 62
     0
100
AcDbVertex
100
AcDb2dVertex
 10
54.07955760950469
 20
172.2166672314149
 30
0.0
 70
     8
  0
VERTEX
  5
EF7C890B4
330
EF7C89082
100
AcDbEntity
  8
JISSEN
 62
     0
100
AcDbVertex
100
AcDb2dVertex
 10
54.47461554495086
 20
172.0577396729265
 30
0.0
 70
     8
  0
VERTEX
  5
EF7C890B5
330
EF7C89082
100
AcDbEntity
  8
JISSEN
 62
     0
100
AcDbVertex
100
AcDb2dVertex
 10
53.09667700697398
 20
176.4823754231289
 30
0.0
 70
    16
  0
VERTEX
  5
EF7C890B6
330
EF7C89082
100
AcDbEntity
  8
JISSEN
 62
     0
100
AcDbVertex
100
AcDb2dVertex
 10
54.95801820455515
 20
175.9150388004574
 30
0.0
 70
    16
  0
VERTEX
  5
EF7C890B7
330
EF7C89082
100
AcDbEntity
  8
JISSEN
 62
     0
100
AcDbVertex
100
AcDb2dVertex
 10
51.89785117462722
 20
175.5368143853435
 30
0.0
 70
    16
  0
VERTEX
  5
EF7C890B8
330
EF7C89082
100
AcDbEntity
  8
JISSEN
 62
     0
100
AcDbVertex
100
AcDb2dVertex
 10
56.40923028196309
 20
174.6227707818358
 30
0.0
 70
    16
  0
VERTEX
  5
EF7C890B9
330
EF7C89082
100
AcDbEntity
  8
JISSEN
 62
     0
100
AcDbVertex
100
AcDb2dVertex
 10
53.69609286704505
 20
173.8663219516075
 30
0.0
 70
    16
  0
VERTEX
  5
EF7C890BA
330
EF7C89082
100
AcDbEntity
  8
JISSEN
 62
     0
100
AcDbVertex
100
AcDb2dVertex
 10
55.39969118951418
 20
172.9207593934444
 30
0.0
 70
    16
  0
VERTEX
  5
EF7C890BB
330
EF7C89082
100
AcDbEntity
  8
JISSEN
 62
     0
100
AcDbVertex
100
AcDb2dVertex
 10
53.12822675955565
 20
172.5110160236746
 30
0.0
 70
    16
  0
VERTEX
  5
EF7C890BC
330
EF7C89082
100
AcDbEntity
  8
JISSEN
 62
     0
100
AcDbVertex
100
AcDb2dVertex
 10
54.47461554495086
 20
172.0577396729264
 30
0.0
 70
    16
  0
SEQEND
  5
EF7C890BD
330
EF7C89082
100
AcDbEntity
  8
JISSEN
 62
     0
  0
LINE
  5
EF7C890BE
330
EF7C85532
100
AcDbEntity
  8
JISSEN
100
AcDbLine
 10
83.40603226701952
 20
182.5007540037038
 30
0.0
 11
91.90603226701952
 21
182.5007540037038
 31
0.0
  0
LINE
  5
EF7C890BF
330
EF7C85532
100
AcDbEntity
  8
JISSEN
100
AcDbLine
 10
81.24251791269372
 20
168.3885921218126
 30
0.0
 11
91.90603226701952
 21
168.3885921218126
 31
0.0
  0
LINE
  5
EF7C890C0
330
EF7C85532
100
AcDbEntity
  8
JISSEN
100
AcDbLine
 10
102.1840864949317
 20
180.7226997757916
 30
0.0
 11
81.62797803910732
 21
180.7226997757916
 31
0.0
  0
TEXT
  5
EF7C890C1
330
EF7C85532
100
AcDbEntity
  8
JISSEN
100
AcDbText
 10
87.42381664368473
 20
165.9594225373321
 30
0.0
 40
3.0
  1
D
 50
180.0
  7
K
 72
     4
 11
85.85238807225616
 21
164.4594225373321
 31
0.0
100
AcDbText
  0
LINE
  5
EF7C890C2
330
EF7C85532
100
AcDbEntity
  8
JISSEN
100
AcDbLine
 10
82.40603226701953
 20
168.0007540037038
 30
0.0
 11
91.90603226701952
 21
168.0007540037038
 31
0.0
  0
LINE
  5
EF7C890C3
330
EF7C85532
100
AcDbEntity
  8
JISSEN
100
AcDbLine
 10
85.90603226701952
 20
157.7007540037038
 30
0.0
 11
84.65603226701952
 21
158.4224418401909
 31
0.0
  0
LINE
  5
EF7C890C4
330
EF7C85532
100
AcDbEntity
  8
JISSEN
100
AcDbLine
 10
83.70657077978691
 20
162.5007540037038
 30
0.0
 11
90.40603226701952
 21
162.5007540037038
 31
0.0
  0
LINE
  5
EF7C890C5
330
EF7C85532
100
AcDbEntity
  8
JISSEN
100
AcDbLine
 10
84.40603226701952
 20
160.7007540037038
 30
0.0
 11
90.40603226701952
 21
160.7007540037038
 31
0.0
  0
LINE
  5
EF7C890C6
330
EF7C85532
100
AcDbEntity
  8
JISSEN
100
AcDbLine
 10
81.16146962048148
 20
166.5007540037039
 30
0.0
 11
88.90603226701953
 21
166.5007540037039
 31
0.0
  0
LINE
  5
EF7C890C7
330
EF7C85532
100
AcDbEntity
  8
JISSEN
100
AcDbLine
 10
99.15603226701954
 20
159.7224418401908
 30
0.0
 11
84.65603226701976
 21
159.7224418401908
 31
0.0
  0
LINE
  5
EF7C890C8
330
EF7C85532
100
AcDbEntity
  8
JISSEN
100
AcDbLine
 10
83.70657077978691
 20
166.5007540037039
 30
0.0
 11
83.70657077978691
 21
162.5007540037038
 31
0.0
  0
ARC
  5
EF7C890C9
330
EF7C85532
100
AcDbEntity
  8
JISSEN
100
AcDbCircle
 10
78.01828373535133
 20
169.6438713320802
 30
0.0
 40
6.498907295833106
100
AcDbArc
 50
284.679080052196
 51
320.8990391255045
  0
ARC
  5
EF7C890CA
330
EF7C85532
100
AcDbEntity
  8
JISSEN
100
AcDbCircle
 10
86.90603226701952
 20
150.5007540037038
 30
0.0
 40
17.0
100
AcDbArc
 50
109.7499227956426
 51
180.0
  0
ARC
  5
EF7C890CB
330
EF7C85532
100
AcDbEntity
  8
JISSEN
100
AcDbCircle
 10
86.90603226701952
 20
150.5007540037038
 30
0.0
 40
15.0
100
AcDbArc
 50
126.6829888003598
 51
180.0
  0
ARC
  5
EF7C890CC
330
EF7C85532
100
AcDbEntity
  8
JISSEN
100
AcDbCircle
 10
84.69478548349727
 20
149.8990962808592
 30
0.0
 40
10.80551655320168
100
AcDbArc
 50
91.53128360361938
 51
176.8080854238748
  0
ARC
  5
EF7C890CD
330
EF7C85532
100
AcDbEntity
  8
JISSEN
100
AcDbCircle
 10
86.84533731469533
 20
149.3468020662754
 30
0.0
 40
11.0
100
AcDbArc
 50
104.840214838518
 51
173.9783228073659
  0
ARC
  5
EF7C890CE
330
EF7C85532
100
AcDbEntity
  8
JISSEN
100
AcDbCircle
 10
80.93216154409489
 20
158.5202844504185
 30
0.0
 40
5.0
100
AcDbArc
 50
104.679080052196
 51
126.6829888003598
  0
LINE
  5
EF7C890CF
330
EF7C85532
100
AcDbEntity
  8
JISSEN
100
AcDbLine
 10
84.65603226701952
 20
158.4224418401909
 30
0.0
 11
84.65603226701976
 21
159.7224418401909
 31
0.0
  0
LINE
  5
EF7C890D0
330
EF7C85532
100
AcDbEntity
  8
JISSEN
100
AcDbLine
 10
84.65603226701976
 20
159.7224418401908
 30
0.0
 11
84.57523076336585
 21
159.7690926100763
 31
0.0
  0
ARC
  5
EF7C890D1
330
EF7C85532
100
AcDbEntity
  8
JISSEN
100
AcDbCircle
 10
84.15603226701952
 20
159.4965625738217
 30
0.0
 40
0.5
100
AcDbArc
 50
33.02876887191282
 51
104.840214838518
  0
LINE
  5
EF7C890D2
330
EF7C85532
100
AcDbEntity
  8
JISSEN
100
AcDbLine
 10
84.40603226701952
 20
162.5007540037038
 30
0.0
 11
84.40603226701952
 21
160.7007540037038
 31
0.0
  0
LINE
  5
EF7C890D3
330
EF7C85532
100
AcDbEntity
  8
JISSEN
100
AcDbLine
 10
71.97461554495086
 20
172.0577396729264
 30
0.0
 11
71.97461554495086
 21
177.0577396729264
 31
0.0
  0
LINE
  5
EF7C890D4
330
EF7C85532
100
AcDbEntity
  8
JISSEN
100
AcDbLine
 10
81.24251791269372
 20
168.3885921218126
 30
0.0
 11
81.62797803910732
 21
180.7226997757916
 31
0.0
  0
LINE
  5
EF7C890D5
330
EF7C85532
100
AcDbEntity
  8
SAISEN
100
AcDbLine
 10
82.8274638437451
 20
181.9221855804295
 30
0.0
 11
82.39253793875944
 21
168.0052521131239
 31
0.0
  0
LINE
  5
EF7C890D6
330
EF7C85532
100
AcDbEntity
  8
JISSEN
100
AcDbLine
 10
81.24251791269372
 20
168.3885921218126
 30
0.0
 11
82.40603226701953
 21
168.0007540037038
 31
0.0
  0
LINE
  5
EF7C890D7
330
EF7C85532
100
AcDbEntity
  8
JISSEN
100
AcDbLine
 10
82.40603226701953
 20
166.5007540037039
 30
0.0
 11
82.40603226701953
 21
168.0007540037038
 31
0.0
  0
LINE
  5
EF7C890D8
330
EF7C85532
100
AcDbEntity
  8
JISSEN
100
AcDbLine
 10
83.40603226701952
 20
182.5007540037038
 30
0.0
 11
81.62797803910732
 21
180.7226997757916
 31
0.0
  0
ARC
  5
EF7C890D9
330
EF7C85532
100
AcDbEntity
  8
JISSEN
100
AcDbCircle
 10
105.7937807986879
 20
169.6438713320802
 30
0.0
 40
6.498907295833106
100
AcDbArc
 50
219.1009608744954
 51
255.3209199478007
  0
LINE
  5
EF7C890DA
330
EF7C85532
100
AcDbEntity
  8
JISSEN
100
AcDbLine
 10
100.1054937542523
 20
166.5007540037039
 30
0.0
 11
100.1054937542523
 21
162.5007540037038
 31
0.0
  0
LINE
  5
EF7C890DB
330
EF7C85532
100
AcDbEntity
  8
JISSEN
100
AcDbLine
 10
95.90603226701952
 20
162.5007540037038
 30
0.0
 11
95.90603226701952
 21
166.5007540037039
 31
0.0
  0
LINE
  5
EF7C890DC
330
EF7C85532
100
AcDbEntity
  8
JISSEN
100
AcDbLine
 10
87.90603226701952
 20
162.5007540037038
 30
0.0
 11
87.90603226701952
 21
166.5007540037039
 31
0.0
  0
LINE
  5
EF7C890DD
330
EF7C85532
100
AcDbEntity
  8
JISSEN
100
AcDbLine
 10
97.90603226701954
 20
157.7007540037038
 30
0.0
 11
99.15603226701954
 21
158.4224418401909
 31
0.0
  0
LINE
  5
EF7C890DE
330
EF7C85532
100
AcDbEntity
  8
JISSEN
100
AcDbLine
 10
100.1054937542523
 20
162.5007540037038
 30
0.0
 11
93.40603226701952
 21
162.5007540037038
 31
0.0
  0
LINE
  5
EF7C890DF
330
EF7C85532
100
AcDbEntity
  8
JISSEN
100
AcDbLine
 10
99.40603226701952
 20
160.7007540037038
 30
0.0
 11
93.40603226701952
 21
160.7007540037038
 31
0.0
  0
LINE
  5
EF7C890E0
330
EF7C85532
100
AcDbEntity
  8
JISSEN
100
AcDbLine
 10
97.90603226701954
 20
157.7007540037038
 30
0.0
 11
85.90603226701952
 21
157.7007540037038
 31
0.0
  0
LINE
  5
EF7C890E1
330
EF7C85532
100
AcDbEntity
  8
JISSEN
100
AcDbLine
 10
90.40603226701952
 20
160.7007540037038
 30
0.0
 11
90.40603226701952
 21
162.5007540037038
 31
0.0
  0
LINE
  5
EF7C890E2
330
EF7C85532
100
AcDbEntity
  8
JISSEN
100
AcDbLine
 10
93.40603226701952
 20
162.5007540037038
 30
0.0
 11
93.40603226701952
 21
160.7007540037038
 31
0.0
  0
ARC
  5
EF7C890E3
330
EF7C85532
100
AcDbEntity
  8
JISSEN
100
AcDbCircle
 10
96.96672721934371
 20
149.3468020662754
 30
0.0
 40
11.0
100
AcDbArc
 50
6.021677192634045
 51
75.15978516148194
  0
ARC
  5
EF7C890E4
330
EF7C85532
100
AcDbEntity
  8
JISSEN
100
AcDbCircle
 10
99.11727905054201
 20
149.8990962808592
 30
0.0
 40
10.80551655320168
100
AcDbArc
 50
3.191914576125969
 51
88.46871639638065
  0
LINE
  5
EF7C890E5
330
EF7C85532
100
AcDbEntity
  8
JISSEN
100
AcDbLine
 10
99.15603226701954
 20
158.4224418401909
 30
0.0
 11
99.15603226701954
 21
159.7224418401909
 31
0.0
  0
ARC
  5
EF7C890E6
330
EF7C85532
100
AcDbEntity
  8
JISSEN
100
AcDbCircle
 10
99.65603226701952
 20
159.4965625738217
 30
0.0
 40
0.5
100
AcDbArc
 50
75.15978516148199
 51
146.9712311280871
  0
LINE
  5
EF7C890E7
330
EF7C85532
100
AcDbEntity
  8
JISSEN
100
AcDbLine
 10
99.15603226701954
 20
159.7224418401908
 30
0.0
 11
99.2368337706732
 21
159.7690926100763
 31
0.0
  0
LINE
  5
EF7C890E8
330
EF7C85532
100
AcDbEntity
  8
JISSEN
100
AcDbLine
 10
99.40603226701952
 20
162.5007540037038
 30
0.0
 11
99.40603226701952
 21
160.7007540037038
 31
0.0
  0
ARC
  5
EF7C890E9
330
EF7C85532
100
AcDbEntity
  8
JISSEN
100
AcDbCircle
 10
102.8799029899441
 20
158.5202844504185
 30
0.0
 40
5.0
100
AcDbArc
 50
53.31701119964015
 51
75.32091994780396
  0
LINE
  5
EF7C890EA
330
EF7C85532
100
AcDbEntity
  8
JISSEN
100
AcDbLine
 10
102.5695466213453
 20
168.3885921218126
 30
0.0
 11
91.90603226701952
 21
168.3885921218126
 31
0.0
  0
LINE
  5
EF7C890EB
330
EF7C85532
100
AcDbEntity
  8
JISSEN
100
AcDbLine
 10
100.4060322670195
 20
182.5007540037038
 30
0.0
 11
91.90603226701952
 21
182.5007540037038
 31
0.0
  0
LINE
  5
EF7C890EC
330
EF7C85532
100
AcDbEntity
  8
JISSEN
100
AcDbLine
 10
101.4060322670195
 20
168.0007540037038
 30
0.0
 11
91.90603226701952
 21
168.0007540037038
 31
0.0
  0
LINE
  5
EF7C890ED
330
EF7C85532
100
AcDbEntity
  8
JISSEN
100
AcDbLine
 10
102.6505949135575
 20
166.5007540037039
 30
0.0
 11
94.90603226701953
 21
166.5007540037039
 31
0.0
  0
LINE
  5
EF7C890EE
330
EF7C85532
100
AcDbEntity
  8
JISSEN
100
AcDbLine
 10
88.90603226701953
 20
166.5007540037039
 30
0.0
 11
88.90603226701953
 21
168.0007540037038
 31
0.0
  0
LINE
  5
EF7C890EF
330
EF7C85532
100
AcDbEntity
  8
JISSEN
100
AcDbLine
 10
94.90603226701953
 20
168.0007540037038
 30
0.0
 11
94.90603226701953
 21
166.5007540037039
 31
0.0
  0
LINE
  5
EF7C890F0
330
EF7C85532
100
AcDbEntity
  8
JISSEN
100
AcDbLine
 10
111.9746155449508
 20
177.0577396729264
 30
0.0
 11
111.9746155449508
 21
172.0577396729265
 31
0.0
  0
LINE
  5
EF7C890F1
330
EF7C85532
100
AcDbEntity
  8
JISSEN
100
AcDbLine
 10
102.5695466213453
 20
168.3885921218126
 30
0.0
 11
102.1840864949317
 21
180.7226997757916
 31
0.0
  0
LINE
  5
EF7C890F2
330
EF7C85532
100
AcDbEntity
  8
SAISEN
100
AcDbLine
 10
100.9846006902939
 20
181.9221855804295
 30
0.0
 11
101.4195265952796
 21
168.0052521131239
 31
0.0
  0
LINE
  5
EF7C890F3
330
EF7C85532
100
AcDbEntity
  8
JISSEN
100
AcDbLine
 10
102.5695466213453
 20
168.3885921218126
 30
0.0
 11
101.4060322670195
 21
168.0007540037038
 31
0.0
  0
LINE
  5
EF7C890F4
330
EF7C85532
100
AcDbEntity
  8
JISSEN
100
AcDbLine
 10
101.4060322670195
 20
166.5007540037039
 30
0.0
 11
101.4060322670195
 21
168.0007540037038
 31
0.0
  0
LINE
  5
EF7C890F5
330
EF7C85532
100
AcDbEntity
  8
JISSEN
100
AcDbLine
 10
100.4060322670195
 20
182.5007540037038
 30
0.0
 11
102.1840864949317
 21
180.7226997757916
 31
0.0
  0
LWPOLYLINE
  5
EF7C890F6
330
EF7C85532
100
AcDbEntity
  8
NITEN
100
AcDbPolyline
 90
        2
 70
     0
 43
0.0
 10
108.9060322670197
 20
233.4490205605735
 42
0.5882352941176294
 10
91.90603226701952
 20
233.4490205605737
 42
0.5882352941176294
  0
POLYLINE
  5
EF7C890F7
330
EF7C85532
100
AcDbEntity
  8
JISSEN
 62
     0
100
AcDb2dPolyline
 66
     1
 10
0.0
 20
0.0
 30
0.0
 70
     4
 75
     6
  0
VERTEX
  5
EF7C890F8
330
EF7C890F7
100
AcDbEntity
  8
JISSEN
 62
     0
100
AcDbVertex
100
AcDb2dVertex
 10
129.4746155449508
 20
177.0577396729264
 30
0.0
 70
    16
  0
VERTEX
  5
EF7C890F9
330
EF7C890F7
100
AcDbEntity
  8
JISSEN
 62
     0
100
AcDbVertex
100
AcDb2dVertex
 10
129.4746155449508
 20
177.0577396729264
 30
0.0
 70
     8
  0
VERTEX
  5
EF7C890FA
330
EF7C890F7
100
AcDbEntity
  8
JISSEN
 62
     0
100
AcDbVertex
100
AcDb2dVertex
 10
129.8895404517549
 20
176.8552355076463
 30
0.0
 70
     8
  0
VERTEX
  5
EF7C890FB
330
EF7C890F7
100
AcDbEntity
  8
JISSEN
 62
     0
100
AcDbVertex
100
AcDb2dVertex
 10
130.1265173020785
 20
176.6775829242693
 30
0.0
 70
     8
  0
VERTEX
  5
EF7C890FC
330
EF7C890F7
100
AcDbEntity
  8
JISSEN
 62
     0
100
AcDbVertex
100
AcDb2dVertex
 10
130.2240301460135
 20
176.5222870104672
 30
0.0
 70
     8
  0
VERTEX
  5
EF7C890FD
330
EF7C890F7
100
AcDbEntity
  8
JISSEN
 62
     0
100
AcDbVertex
100
AcDb2dVertex
 10
130.2205630336511
 20
176.3868528539121
 30
0.0
 70
     8
  0
VERTEX
  5
EF7C890FE
330
EF7C890F7
100
AcDbEntity
  8
JISSEN
 62
     0
100
AcDbVertex
100
AcDb2dVertex
 10
130.1546000150835
 20
176.2687855422765
 30
0.0
 70
     8
  0
VERTEX
  5
EF7C890FF
330
EF7C890F7
100
AcDbEntity
  8
JISSEN
 62
     0
100
AcDbVertex
100
AcDb2dVertex
 10
130.0646251404018
 20
176.1655901632321
 30
0.0
 70
     8
  0
VERTEX
  5
EF7C89100
330
EF7C890F7
100
AcDbEntity
  8
JISSEN
 62
     0
100
AcDbVertex
100
AcDb2dVertex
 10
129.9891224596978
 20
176.0747718044514
 30
0.0
 70
     8
  0
VERTEX
  5
EF7C89101
330
EF7C890F7
100
AcDbEntity
  8
JISSEN
 62
     0
100
AcDbVertex
100
AcDb2dVertex
 10
129.9665760230634
 20
175.9938355536062
 30
0.0
 70
     8
  0
VERTEX
  5
EF7C89102
330
EF7C890F7
100
AcDbEntity
  8
JISSEN
 62
     0
100
AcDbVertex
100
AcDb2dVertex
 10
130.0246861701045
 20
175.9203739968727
 30
0.0
 70
     8
  0
VERTEX
  5
EF7C89103
330
EF7C890F7
100
AcDbEntity
  8
JISSEN
 62
     0
100
AcDbVertex
100
AcDb2dVertex
 10
130.1480183984872
 20
175.8523297144438
 30
0.0
 70
     8
  0
VERTEX
  5
EF7C89104
330
EF7C890F7
100
AcDbEntity
  8
JISSEN
 62
     0
100
AcDbVertex
100
AcDb2dVertex
 10
130.3103544953917
 20
175.787732785016
 30
0.0
 70
     8
  0
VERTEX
  5
EF7C89105
330
EF7C890F7
100
AcDbEntity
  8
JISSEN
 62
     0
100
AcDbVertex
100
AcDb2dVertex
 10
130.4854762479989
 20
175.7246132872858
 30
0.0
 70
     8
  0
VERTEX
  5
EF7C89106
330
EF7C890F7
100
AcDbEntity
  8
JISSEN
 62
     0
100
AcDbVertex
100
AcDb2dVertex
 10
130.6471654434892
 20
175.6610012999503
 30
0.0
 70
     8
  0
VERTEX
  5
EF7C89107
330
EF7C890F7
100
AcDbEntity
  8
JISSEN
 62
     0
100
AcDbVertex
100
AcDb2dVertex
 10
130.7692038690431
 20
175.594926901706
 30
0.0
 70
     8
  0
VERTEX
  5
EF7C89108
330
EF7C890F7
100
AcDbEntity
  8
JISSEN
 62
     0
100
AcDbVertex
100
AcDb2dVertex
 10
130.8253733118412
 20
175.5244201712495
 30
0.0
 70
     8
  0
VERTEX
  5
EF7C89109
330
EF7C890F7
100
AcDbEntity
  8
JISSEN
 62
     0
100
AcDbVertex
100
AcDb2dVertex
 10
130.7894555590639
 20
175.4475111872777
 30
0.0
 70
     8
  0
VERTEX
  5
EF7C8910A
330
EF7C890F7
100
AcDbEntity
  8
JISSEN
 62
     0
100
AcDbVertex
100
AcDb2dVertex
 10
130.6444185266757
 20
175.3627840693952
 30
0.0
 70
     8
  0
VERTEX
  5
EF7C8910B
330
EF7C890F7
100
AcDbEntity
  8
JISSEN
 62
     0
100
AcDbVertex
100
AcDb2dVertex
 10
130.4099746457743
 20
175.2710391008379
 30
0.0
 70
     8
  0
VERTEX
  5
EF7C8910C
330
EF7C890F7
100
AcDbEntity
  8
JISSEN
 62
     0
100
AcDbVertex
100
AcDb2dVertex
 10
130.115022476242
 20
175.1736306057498
 30
0.0
 70
     8
  0
VERTEX
  5
EF7C8910D
330
EF7C890F7
100
AcDbEntity
  8
JISSEN
 62
     0
100
AcDbVertex
100
AcDb2dVertex
 10
129.7884605779606
 20
175.0719129082747
 30
0.0
 70
     8
  0
VERTEX
  5
EF7C8910E
330
EF7C890F7
100
AcDbEntity
  8
JISSEN
 62
     0
100
AcDbVertex
100
AcDb2dVertex
 10
129.4591875108121
 20
174.9672403325564
 30
0.0
 70
     8
  0
VERTEX
  5
EF7C8910F
330
EF7C890F7
100
AcDbEntity
  8
JISSEN
 62
     0
100
AcDbVertex
100
AcDb2dVertex
 10
129.1561018346778
 20
174.8609672027391
 30
0.0
 70
     8
  0
VERTEX
  5
EF7C89110
330
EF7C890F7
100
AcDbEntity
  8
JISSEN
 62
     0
100
AcDbVertex
100
AcDb2dVertex
 10
128.9081021094404
 20
174.7544478429664
 30
0.0
 70
     8
  0
VERTEX
  5
EF7C89111
330
EF7C890F7
100
AcDbEntity
  8
JISSEN
 62
     0
100
AcDbVertex
100
AcDb2dVertex
 10
128.7440868949811
 20
174.6490365773822
 30
0.0
 70
     8
  0
VERTEX
  5
EF7C89112
330
EF7C890F7
100
AcDbEntity
  8
JISSEN
 62
     0
100
AcDbVertex
100
AcDb2dVertex
 10
128.6843488543986
 20
174.5457491485997
 30
0.0
 70
     8
  0
VERTEX
  5
EF7C89113
330
EF7C890F7
100
AcDbEntity
  8
JISSEN
 62
     0
100
AcDbVertex
100
AcDb2dVertex
 10
128.7147570636566
 20
174.4442469731084
 30
0.0
 70
     8
  0
VERTEX
  5
EF7C89114
330
EF7C890F7
100
AcDbEntity
  8
JISSEN
 62
     0
100
AcDbVertex
100
AcDb2dVertex
 10
128.8125747019355
 20
174.3438528858665
 30
0.0
 70
     8
  0
VERTEX
  5
EF7C89115
330
EF7C890F7
100
AcDbEntity
  8
JISSEN
 62
     0
100
AcDbVertex
100
AcDb2dVertex
 10
128.9550649484158
 20
174.243889721833
 30
0.0
 70
     8
  0
VERTEX
  5
EF7C89116
330
EF7C890F7
100
AcDbEntity
  8
JISSEN
 62
     0
100
AcDbVertex
100
AcDb2dVertex
 10
129.1194909822779
 20
174.143680315966
 30
0.0
 70
     8
  0
VERTEX
  5
EF7C89117
330
EF7C890F7
100
AcDbEntity
  8
JISSEN
 62
     0
100
AcDbVertex
100
AcDb2dVertex
 10
129.2831159827023
 20
174.0425475032245
 30
0.0
 70
     8
  0
VERTEX
  5
EF7C89118
330
EF7C890F7
100
AcDbEntity
  8
JISSEN
 62
     0
100
AcDbVertex
100
AcDb2dVertex
 10
129.4232031288693
 20
173.9398141185668
 30
0.0
 70
     8
  0
VERTEX
  5
EF7C89119
330
EF7C890F7
100
AcDbEntity
  8
JISSEN
 62
     0
100
AcDbVertex
100
AcDb2dVertex
 10
129.5170155999589
 20
173.8348029969517
 30
0.0
 70
     8
  0
VERTEX
  5
EF7C8911A
330
EF7C890F7
100
AcDbEntity
  8
JISSEN
 62
     0
100
AcDbVertex
100
AcDb2dVertex
 10
129.5487074550232
 20
173.7271191249433
 30
0.0
 70
     8
  0
VERTEX
  5
EF7C8911B
330
EF7C890F7
100
AcDbEntity
  8
JISSEN
 62
     0
100
AcDbVertex
100
AcDb2dVertex
 10
129.5299962725987
 20
173.6174960955283
 30
0.0
 70
     8
  0
VERTEX
  5
EF7C8911C
330
EF7C890F7
100
AcDbEntity
  8
JISSEN
 62
     0
100
AcDbVertex
100
AcDb2dVertex
 10
129.4794905110931
 20
173.5069496532998
 30
0.0
 70
     8
  0
VERTEX
  5
EF7C8911D
330
EF7C890F7
100
AcDbEntity
  8
JISSEN
 62
     0
100
AcDbVertex
100
AcDb2dVertex
 10
129.4157986289144
 20
173.3964955428505
 30
0.0
 70
     8
  0
VERTEX
  5
EF7C8911E
330
EF7C890F7
100
AcDbEntity
  8
JISSEN
 62
     0
100
AcDbVertex
100
AcDb2dVertex
 10
129.35752908447
 20
173.2871495087727
 30
0.0
 70
     8
  0
VERTEX
  5
EF7C8911F
330
EF7C890F7
100
AcDbEntity
  8
JISSEN
 62
     0
100
AcDbVertex
100
AcDb2dVertex
 10
129.3232903361681
 20
173.1799272956592
 30
0.0
 70
     8
  0
VERTEX
  5
EF7C89120
330
EF7C890F7
100
AcDbEntity
  8
JISSEN
 62
     0
100
AcDbVertex
100
AcDb2dVertex
 10
129.3316908424162
 20
173.0758446481028
 30
0.0
 70
     8
  0
VERTEX
  5
EF7C89121
330
EF7C890F7
100
AcDbEntity
  8
JISSEN
 62
     0
100
AcDbVertex
100
AcDb2dVertex
 10
129.4013390616221
 20
172.9759173106958
 30
0.0
 70
     8
  0
VERTEX
  5
EF7C89122
330
EF7C890F7
100
AcDbEntity
  8
JISSEN
 62
     0
100
AcDbVertex
100
AcDb2dVertex
 10
129.5412304796436
 20
172.8803988415957
 30
0.0
 70
     8
  0
VERTEX
  5
EF7C89123
330
EF7C890F7
100
AcDbEntity
  8
JISSEN
 62
     0
100
AcDbVertex
100
AcDb2dVertex
 10
129.721908692137
 20
172.7864940532169
 30
0.0
 70
     8
  0
VERTEX
  5
EF7C89124
330
EF7C890F7
100
AcDbEntity
  8
JISSEN
 62
     0
100
AcDbVertex
100
AcDb2dVertex
 10
129.9043043222086
 20
172.6906455715389
 30
0.0
 70
     8
  0
VERTEX
  5
EF7C89125
330
EF7C890F7
100
AcDbEntity
  8
JISSEN
 62
     0
100
AcDbVertex
100
AcDb2dVertex
 10
130.0493479929641
 20
172.5892960225406
 30
0.0
 70
     8
  0
VERTEX
  5
EF7C89126
330
EF7C890F7
100
AcDbEntity
  8
JISSEN
 62
     0
100
AcDbVertex
100
AcDb2dVertex
 10
130.1179703275099
 20
172.4788880322009
 30
0.0
 70
     8
  0
VERTEX
  5
EF7C89127
330
EF7C890F7
100
AcDbEntity
  8
JISSEN
 62
     0
100
AcDbVertex
100
AcDb2dVertex
 10
130.0711019489524
 20
172.3558642264994
 30
0.0
 70
     8
  0
VERTEX
  5
EF7C89128
330
EF7C890F7
100
AcDbEntity
  8
JISSEN
 62
     0
100
AcDbVertex
100
AcDb2dVertex
 10
129.8696734803972
 20
172.2166672314149
 30
0.0
 70
     8
  0
VERTEX
  5
EF7C89129
330
EF7C890F7
100
AcDbEntity
  8
JISSEN
 62
     0
100
AcDbVertex
100
AcDb2dVertex
 10
129.4746155449508
 20
172.0577396729265
 30
0.0
 70
     8
  0
VERTEX
  5
EF7C8912A
330
EF7C890F7
100
AcDbEntity
  8
JISSEN
 62
     0
100
AcDbVertex
100
AcDb2dVertex
 10
130.8525540829279
 20
176.4823754231289
 30
0.0
 70
    16
  0
VERTEX
  5
EF7C8912B
330
EF7C890F7
100
AcDbEntity
  8
JISSEN
 62
     0
100
AcDbVertex
100
AcDb2dVertex
 10
128.9912128853468
 20
175.9150388004574
 30
0.0
 70
    16
  0
VERTEX
  5
EF7C8912C
330
EF7C890F7
100
AcDbEntity
  8
JISSEN
 62
     0
100
AcDbVertex
100
AcDb2dVertex
 10
132.0513799152747
 20
175.5368143853435
 30
0.0
 70
    16
  0
VERTEX
  5
EF7C8912D
330
EF7C890F7
100
AcDbEntity
  8
JISSEN
 62
     0
100
AcDbVertex
100
AcDb2dVertex
 10
127.5400008079388
 20
174.6227707818358
 30
0.0
 70
    16
  0
VERTEX
  5
EF7C8912E
330
EF7C890F7
100
AcDbEntity
  8
JISSEN
 62
     0
100
AcDbVertex
100
AcDb2dVertex
 10
130.2531382228569
 20
173.8663219516075
 30
0.0
 70
    16
  0
VERTEX
  5
EF7C8912F
330
EF7C890F7
100
AcDbEntity
  8
JISSEN
 62
     0
100
AcDbVertex
100
AcDb2dVertex
 10
128.5495399003877
 20
172.9207593934444
 30
0.0
 70
    16
  0
VERTEX
  5
EF7C89130
330
EF7C890F7
100
AcDbEntity
  8
JISSEN
 62
     0
100
AcDbVertex
100
AcDb2dVertex
 10
130.8210043303463
 20
172.5110160236746
 30
0.0
 70
    16
  0
VERTEX
  5
EF7C89131
330
EF7C890F7
100
AcDbEntity
  8
JISSEN
 62
     0
100
AcDbVertex
100
AcDb2dVertex
 10
129.4746155449508
 20
172.0577396729264
 30
0.0
 70
    16
  0
SEQEND
  5
EF7C89132
330
EF7C890F7
100
AcDbEntity
  8
JISSEN
 62
     0
  0
LINE
  5
EF7C8916F
330
EF7C85532
100
AcDbEntity
  8
SUNPOU
100
AcDbLine
 10
115.0289067826126
 20
168.5813863289233
 30
0.0
 11
135.3437890237128
 21
109.1135955254388
 31
0.0
  0
TEXT
  5
EF7C89170
330
EF7C85532
100
AcDbEntity
  8
SUNPOU
100
AcDbText
 10
135.1405480777996
 20
101.1857535931063
 30
0.0
 40
4.5
  1
2
  7
K
 72
     4
 11
137.2834052206567
 21
103.4357535931063
 31
0.0
100
AcDbText
  0
CIRCLE
  5
EF7C89171
330
EF7C85532
100
AcDbEntity
  8
SUNPOU
100
AcDbCircle
 10
137.2834052206567
 20
103.4357535931063
 30
0.0
 40
6.0
  0
INSERT
  5
EF7C89175
330
EF7C85532
100
AcDbEntity
  8
SUNPOU
100
AcDbBlockReference
  2
ARROW
 10
115.0289067826126
 20
168.5813863289231
 30
0.0
 41
-1.500000000000002
 42
1.5
 43
1.5
 50
288.8607579839983
  0
LINE
  5
EF7C8917B
330
EF7C85532
100
AcDbEntity
  8
SUNPOU
100
AcDbLine
 10
91.90603226701938
 20
116.7007539293233
 30
0.0
 11
107.2549669112653
 21
106.7091016775145
 31
0.0
  0
INSERT
  5
EF7C8917C
330
EF7C85532
100
AcDbEntity
  8
SUNPOU
100
AcDbBlockReference
  2
ARROW
 10
91.90603226701961
 20
116.7007539293231
 30
0.0
 41
-1.500000000000002
 42
1.5
 43
1.5
 50
326.9371945411395
  0
CIRCLE
  5
EF7C8917D
330
EF7C85532
100
AcDbEntity
  8
SUNPOU
100
AcDbCircle
 10
112.2834052206566
 20
103.4357535187258
 30
0.0
 40
6.0
  0
TEXT
  5
EF7C8917E
330
EF7C85532
100
AcDbEntity
  8
SUNPOU
100
AcDbText
 10
110.461976649228
 20
101.1857535187258
 30
0.0
 40
4.5
  1
1
  7
K
 72
     4
 11
112.2834052206566
 21
103.4357535187258
 31
0.0
100
AcDbText
  0
ARC
  5
EF7C8917F
330
EF7C85532
100
AcDbEntity
  8
JISSEN
100
AcDbCircle
 10
96.90603226701952
 20
50.50075392932338
 30
0.0
 40
17.0
100
AcDbArc
 50
0.0
 51
66.22232022148328
  0
ARC
  5
EF7C89180
330
EF7C85532
100
AcDbEntity
  8
JISSEN
100
AcDbCircle
 10
96.90603226701952
 20
50.50075392932338
 30
0.0
 40
15.0
100
AcDbArc
 50
0.0
 51
53.31701119964003
  0
LWPOLYLINE
  5
EF7C89181
330
EF7C85532
100
AcDbEntity
  8
JISSEN
100
AcDbPolyline
 90
        5
 70
     0
 43
0.0
 10
121.888283535203
 20
72.05773959854299
 42
-0.1724294177368879
 10
107.401401452909
 20
67.60299755281552
 42
0.3050742458420749
 10
106.2586226053847
 20
66.90387001334967
 42
-0.2933139429534979
 10
104.9403504316366
 20
66.057739598543
 10
104.638283535203
 20
66.057739598543
  0
LINE
  5
EF7C89182
330
EF7C85532
100
AcDbEntity
  8
JISSEN
100
AcDbLine
 10
54.47461554495132
 20
72.05773959854595
 30
0.0
 11
129.4746155449508
 21
72.05773959854588
 31
0.0
  0
ARC
  5
EF7C89183
330
EF7C85532
100
AcDbEntity
  8
JISSEN
100
AcDbCircle
 10
83.90603226701953
 20
50.50075392932338
 30
0.0
 40
30.0
100
AcDbArc
 50
319.7809012554443
 51
0.0
  0
ARC
  5
EF7C89184
330
EF7C85532
100
AcDbEntity
  8
JISSEN
100
AcDbCircle
 10
96.96672721934371
 20
49.34680199189497
 30
0.0
 40
11.0
100
AcDbArc
 50
6.021677192633947
 51
75.15978516148108
  0
ARC
  5
EF7C89185
330
EF7C85532
100
AcDbEntity
  8
JISSEN
100
AcDbCircle
 10
86.84533731469533
 20
49.34680199189497
 30
0.0
 40
11.0
100
AcDbArc
 50
104.8402148385189
 51
173.978322807366
  0
ARC
  5
EF7C89186
330
EF7C85532
100
AcDbEntity
  8
JISSEN
100
AcDbCircle
 10
84.69478548349727
 20
49.89909620647871
 30
0.0
 40
10.80551655320168
100
AcDbArc
 50
91.53128360361854
 51
176.8080854238748
  0
ARC
  5
EF7C89187
330
EF7C85532
100
AcDbEntity
  8
JISSEN
100
AcDbCircle
 10
86.90603226701952
 20
50.50075392932338
 30
0.0
 40
15.0
100
AcDbArc
 50
126.6829888003599
 51
180.0
  0
ARC
  5
EF7C89188
330
EF7C85532
100
AcDbEntity
  8
JISSEN
100
AcDbCircle
 10
99.11727905054201
 20
49.89909620647871
 30
0.0
 40
10.80551655320168
100
AcDbArc
 50
3.191914576125952
 51
88.46871639638145
  0
ARC
  5
EF7C89189
330
EF7C85532
100
AcDbEntity
  8
JISSEN
100
AcDbCircle
 10
86.90603226701952
 20
50.50075392932338
 30
0.0
 40
17.0
100
AcDbArc
 50
113.7776797785166
 51
180.0
  0
LINE
  5
EF7C8918A
330
EF7C85532
100
AcDbEntity
  8
JISSEN
100
AcDbLine
 10
88.49251656272551
 20
19.5007623288172
 30
0.0
 11
84.58777305942495
 21
19.5007623288172
 31
0.0
  0
LINE
  5
EF7C8918B
330
EF7C85532
100
AcDbEntity
  8
JISSEN
100
AcDbLine
 10
76.9986073089137
 20
31.12938635269769
 30
0.0
 11
86.83220278238739
 21
19.5007623288172
 31
0.0
  0
LINE
  5
EF7C8918C
330
EF7C85532
100
AcDbEntity
  8
JISSEN
100
AcDbLine
 10
82.38546521646773
 20
16.70075392932337
 30
0.0
 11
91.90603226701952
 21
16.70075392932337
 31
0.0
  0
LINE
  5
EF7C8918D
330
EF7C85532
100
AcDbEntity
  8
JISSEN
100
AcDbLine
 10
110.7323840893525
 20
16.8787188267802
 30
0.0
 11
73.07968044468643
 21
16.8787188267802
 31
0.0
  0
LINE
  5
EF7C8918E
330
EF7C85532
100
AcDbEntity
  8
JISSEN
100
AcDbLine
 10
72.90603226701953
 20
17.8635265797924
 30
0.0
 11
110.9060322670195
 21
17.86352657979263
 31
0.0
  0
ARC
  5
EF7C8918F
330
EF7C85532
100
AcDbEntity
  8
JISSEN
100
AcDbCircle
 10
99.90603226701953
 20
50.50075392932338
 30
0.0
 40
24.0
100
AcDbArc
 50
180.0
 51
237.8181160795964
  0
ARC
  5
EF7C89190
330
EF7C85532
100
AcDbEntity
  8
JISSEN
100
AcDbCircle
 10
99.90603226701953
 20
50.50075392932338
 30
0.0
 40
30.0
100
AcDbArc
 50
180.0
 51
220.2190987445557
  0
LINE
  5
EF7C89191
330
EF7C85532
100
AcDbEntity
  8
JISSEN
100
AcDbLine
 10
74.81854360349356
 20
18.20075392932336
 30
0.0
 11
78.65603226701953
 21
18.20075392932336
 31
0.0
  0
LINE
  5
EF7C89192
330
EF7C85532
100
AcDbEntity
  8
JISSEN
100
AcDbLine
 10
73.90603226701907
 20
18.03985356050067
 30
0.0
 11
74.81854360349334
 21
18.20075392932336
 31
0.0
  0
LINE
  5
EF7C89193
330
EF7C85532
100
AcDbEntity
  8
JISSEN
100
AcDbLine
 10
73.07968044468643
 20
16.87871882677997
 30
0.0
 11
72.90603226701953
 21
17.8635265797924
 31
0.0
  0
LINE
  5
EF7C89194
330
EF7C85532
100
AcDbEntity
  8
JISSEN
100
AcDbLine
 10
72.90603226701953
 20
17.8635265797924
 30
0.0
 11
73.90603226701907
 21
18.03985356050067
 31
0.0
  0
ARC
  5
EF7C89195
330
EF7C85532
100
AcDbEntity
  8
JISSEN
100
AcDbCircle
 10
80.94002417983025
 20
18.14526232881713
 30
0.0
 40
1.355499999999999
100
AcDbArc
 50
70.26879749382101
 51
124.9999999999968
  0
LINE
  5
EF7C89196
330
EF7C85532
100
AcDbEntity
  8
JISSEN
100
AcDbLine
 10
79.69120003504301
 20
17.86352657979246
 30
0.0
 11
81.48484020925385
 21
19.5007623288172
 31
0.0
  0
LINE
  5
EF7C89197
330
EF7C85532
100
AcDbEntity
  8
JISSEN
100
AcDbLine
 10
78.65603226701953
 20
18.20075392932336
 30
0.0
 11
80.16254132035644
 21
19.25562292485098
 31
0.0
  0
LINE
  5
EF7C89198
330
EF7C85532
100
AcDbEntity
  8
JISSEN
100
AcDbLine
 10
81.48484020925385
 20
19.5007623288172
 30
0.0
 11
83.73924492200101
 21
19.5007623288172
 31
0.0
  0
LINE
  5
EF7C89199
330
EF7C85532
100
AcDbEntity
  8
JISSEN
100
AcDbLine
 10
82.38546521646773
 20
16.70075392932337
 30
0.0
 11
82.26085285373185
 21
16.8787188267802
 31
0.0
  0
LINE
  5
EF7C8919A
330
EF7C85532
100
AcDbEntity
  8
JISSEN
100
AcDbLine
 10
82.11374482027551
 20
17.86352657979252
 30
0.0
 11
82.90681626440047
 21
19.05489456033315
 31
0.0
  0
ARC
  5
EF7C8919B
330
EF7C85532
100
AcDbEntity
  8
JISSEN
100
AcDbCircle
 10
83.73924492200101
 20
18.50076232881669
 30
0.0
 40
1.0
100
AcDbArc
 50
47.91894748809069
 51
146.3490341753988
  0
LINE
  5
EF7C8919C
330
EF7C85532
100
AcDbEntity
  8
JISSEN
100
AcDbLine
 10
83.45513870590385
 20
17.86352657979252
 30
0.0
 11
84.58777305942495
 21
19.5007623288172
 31
0.0
  0
ARC
  5
EF7C8919D
330
EF7C85532
100
AcDbEntity
  8
JISSEN
100
AcDbCircle
 10
99.90603226701953
 20
50.50075392932338
 30
0.0
 40
26.0
100
AcDbArc
 50
180.0
 51
203.8188413934565
  0
ARC
  5
EF7C8919E
330
EF7C85532
100
AcDbEntity
  8
JISSEN
100
AcDbCircle
 10
99.90603226701953
 20
50.50075392932338
 30
0.0
 40
28.0
100
AcDbArc
 50
180.0
 51
202.024312837042
  0
ARC
  5
EF7C8919F
330
EF7C85532
100
AcDbEntity
  8
JISSEN
100
AcDbCircle
 10
91.90524771152714
 20
30.44068673175594
 30
0.0
 40
1.6
100
AcDbArc
 50
17.33173146614729
 51
162.7537116970127
  0
LINE
  5
EF7C891A0
330
EF7C85532
100
AcDbEntity
  8
JISSEN
100
AcDbLine
 10
106.8134572251253
 20
31.12938635269769
 30
0.0
 11
96.97986175165167
 21
19.50076232881714
 31
0.0
  0
ARC
  5
EF7C891A1
330
EF7C85532
100
AcDbEntity
  8
JISSEN
100
AcDbCircle
 10
83.90603226701953
 20
50.50075392932338
 30
0.0
 40
24.0
100
AcDbArc
 50
302.1818839204035
 51
0.0
  0
LINE
  5
EF7C891A2
330
EF7C85532
100
AcDbEntity
  8
JISSEN
100
AcDbLine
 10
95.31954797131353
 20
19.50076232881714
 30
0.0
 11
99.22429147461432
 21
19.5007623288172
 31
0.0
  0
LINE
  5
EF7C891A3
330
EF7C85532
100
AcDbEntity
  8
JISSEN
100
AcDbLine
 10
101.4265993175713
 20
16.70075392932337
 30
0.0
 11
91.90603226701952
 21
16.70075392932337
 31
0.0
  0
LINE
  5
EF7C891A4
330
EF7C85532
100
AcDbEntity
  8
JISSEN
100
AcDbLine
 10
89.65162755427238
 20
19.50076232881725
 30
0.0
 11
94.16043697976666
 21
19.5007623288172
 31
0.0
  0
ARC
  5
EF7C891A5
330
EF7C85532
100
AcDbEntity
  8
JISSEN
100
AcDbCircle
 10
88.49251656272551
 20
19.00076232881623
 30
0.0
 40
0.5
100
AcDbArc
 50
13.29012998990297
 51
164.2012849264975
  0
ARC
  5
EF7C891A6
330
EF7C85532
100
AcDbEntity
  8
JISSEN
100
AcDbCircle
 10
85.90603226701952
 20
19.04731894718419
 30
0.0
 40
1.0
100
AcDbArc
 50
26.96482331253057
 51
40.21909874455571
  0
LINE
  5
EF7C891A7
330
EF7C85532
100
AcDbEntity
  8
JISSEN
100
AcDbLine
 10
87.65110935753771
 20
17.86352657979252
 30
0.0
 11
88.01140451297667
 21
19.13689166285668
 31
0.0
  0
ARC
  5
EF7C891A8
330
EF7C85532
100
AcDbEntity
  8
JISSEN
100
AcDbCircle
 10
88.69220468625369
 20
18.2019720937288
 30
0.0
 40
0.1
100
AcDbArc
 50
13.29012998990889
 51
164.2012849264934
  0
LINE
  5
EF7C891A9
330
EF7C85532
100
AcDbEntity
  8
JISSEN
100
AcDbLine
 10
88.87490010801318
 20
17.86352657979252
 30
0.0
 11
88.78952653502025
 21
18.22496030272101
 31
0.0
  0
LINE
  5
EF7C891AA
330
EF7C85532
100
AcDbEntity
  8
JISSEN
100
AcDbLine
 10
88.49251656272551
 20
17.86352657979252
 30
0.0
 11
88.59598227630383
 21
18.22919796053692
 31
0.0
  0
LINE
  5
EF7C891AB
330
EF7C85532
100
AcDbEntity
  8
JISSEN
100
AcDbLine
 10
89.27490010801326
 20
17.86352657979252
 30
0.0
 11
88.97912580655813
 21
19.11570337377703
 31
0.0
  0
LINE
  5
EF7C891AC
330
EF7C85532
100
AcDbEntity
  8
JISSEN
100
AcDbLine
 10
89.48348748178725
 20
17.86352657979252
 30
0.0
 11
89.65162755427238
 21
19.5007623288172
 31
0.0
  0
ARC
  5
EF7C891AD
330
EF7C85532
100
AcDbEntity
  8
JISSEN
100
AcDbCircle
 10
95.31954797131353
 20
19.00076232881623
 30
0.0
 40
0.5
100
AcDbArc
 50
15.79871507350246
 51
166.709870010097
  0
ARC
  5
EF7C891AE
330
EF7C85532
100
AcDbEntity
  8
JISSEN
100
AcDbCircle
 10
95.11985984778537
 20
18.2019720937288
 30
0.0
 40
0.1
100
AcDbArc
 50
15.79871507350659
 51
166.7098700100911
  0
LINE
  5
EF7C891AF
330
EF7C85532
100
AcDbEntity
  8
JISSEN
100
AcDbLine
 10
95.31954797131353
 20
17.86352657979252
 30
0.0
 11
95.21608225773523
 21
18.22919796053692
 31
0.0
  0
LINE
  5
EF7C891B0
330
EF7C85532
100
AcDbEntity
  8
JISSEN
100
AcDbLine
 10
94.93716442602588
 20
17.86352657979252
 30
0.0
 11
95.02253799901902
 21
18.22496030272101
 31
0.0
  0
LINE
  5
EF7C891B1
330
EF7C85532
100
AcDbEntity
  8
JISSEN
100
AcDbLine
 10
94.53716442602578
 20
17.86352657979252
 30
0.0
 11
94.83293872748092
 21
19.11570337377703
 31
0.0
  0
LINE
  5
EF7C891B2
330
EF7C85532
100
AcDbEntity
  8
JISSEN
100
AcDbLine
 10
94.16043697976666
 20
19.5007623288172
 30
0.0
 11
94.32857705225226
 21
17.86352657979252
 31
0.0
  0
ARC
  5
EF7C891B3
330
EF7C85532
100
AcDbEntity
  8
JISSEN
100
AcDbCircle
 10
97.90603226701954
 20
19.04731894718419
 30
0.0
 40
1.0
100
AcDbArc
 50
139.7809012554442
 51
153.0351766874621
  0
LINE
  5
EF7C891B4
330
EF7C85532
100
AcDbEntity
  8
JISSEN
100
AcDbLine
 10
96.16095517650158
 20
17.86352657979252
 30
0.0
 11
95.80066002106262
 21
19.13689166285668
 31
0.0
  0
LINE
  5
EF7C891B5
330
EF7C85532
100
AcDbEntity
  8
JISSEN
100
AcDbLine
 10
94.7020261762336
 20
30.50075392932338
 30
0.0
 11
91.90603226701952
 21
30.50075392932338
 31
0.0
  0
ARC
  5
EF7C891B6
330
EF7C85532
100
AcDbEntity
  8
JISSEN
100
AcDbCircle
 10
75.15603226701952
 20
24.50075392932338
 30
0.0
 40
12.49999999999999
100
AcDbArc
 50
343.7397952916878
 51
16.26020470831211
  0
ARC
  5
EF7C891B7
330
EF7C85532
100
AcDbEntity
  8
JISSEN
100
AcDbCircle
 10
89.11003835780546
 20
29.00075392932338
 30
0.0
 40
1.5
100
AcDbArc
 50
90.0
 51
125.5633285759494
  0
ARC
  5
EF7C891B8
330
EF7C85532
100
AcDbEntity
  8
JISSEN
100
AcDbCircle
 10
87.65603226701953
 20
31.03443686625265
 30
0.0
 40
1.0
100
AcDbArc
 50
237.8181160795964
 51
305.5633285759505
  0
LINE
  5
EF7C891B9
330
EF7C85532
100
AcDbEntity
  8
JISSEN
100
AcDbLine
 10
89.11003835780546
 20
30.50075392932338
 30
0.0
 11
91.90603226701952
 21
30.50075392932338
 31
0.0
  0
LINE
  5
EF7C891BA
330
EF7C85532
100
AcDbEntity
  8
JISSEN
100
AcDbLine
 10
89.96288473357614
 20
30.50075392932338
 30
0.0
 11
90.37718506702773
 21
30.91505426277489
 31
0.0
  0
ARC
  5
EF7C891BB
330
EF7C85532
100
AcDbEntity
  8
JISSEN
100
AcDbCircle
 10
108.6560322670195
 20
24.50075392932338
 30
0.0
 40
12.49999999999999
100
AcDbArc
 50
163.7397952916878
 51
196.2602047083121
  0
ARC
  5
EF7C891BC
330
EF7C85532
100
AcDbEntity
  8
JISSEN
100
AcDbCircle
 10
94.7020261762336
 20
29.00075392932338
 30
0.0
 40
1.5
100
AcDbArc
 50
54.43667142405059
 51
90.0
  0
LINE
  5
EF7C891BD
330
EF7C85532
100
AcDbEntity
  8
JISSEN
100
AcDbLine
 10
93.84917980046314
 20
30.50075392932338
 30
0.0
 11
93.43260124971399
 21
30.9173324800726
 31
0.0
  0
ARC
  5
EF7C891BE
330
EF7C85532
100
AcDbEntity
  8
JISSEN
100
AcDbCircle
 10
96.15603226701953
 20
31.03443686625265
 30
0.0
 40
1.0
100
AcDbArc
 50
234.4366714240494
 51
302.1818839204035
  0
LINE
  5
EF7C891BF
330
EF7C85532
100
AcDbEntity
  8
JISSEN
100
AcDbLine
 10
105.1560322670195
 20
18.20075392932336
 30
0.0
 11
108.9935209305469
 21
18.20075392932336
 31
0.0
  0
LINE
  5
EF7C891C0
330
EF7C85532
100
AcDbEntity
  8
JISSEN
100
AcDbLine
 10
104.120864498996
 20
17.86352657979246
 30
0.0
 11
102.3272243247852
 21
19.50076232881714
 31
0.0
  0
ARC
  5
EF7C891C1
330
EF7C85532
100
AcDbEntity
  8
JISSEN
100
AcDbCircle
 10
102.8720403542088
 20
18.14526232881713
 30
0.0
 40
1.355499999999999
100
AcDbArc
 50
55.00000000000309
 51
109.7312025061702
  0
LINE
  5
EF7C891C2
330
EF7C85532
100
AcDbEntity
  8
JISSEN
100
AcDbLine
 10
102.3272243247852
 20
19.50076232881714
 30
0.0
 11
100.0728196120382
 21
19.50076232881714
 31
0.0
  0
LINE
  5
EF7C891C3
330
EF7C85532
100
AcDbEntity
  8
JISSEN
100
AcDbLine
 10
101.6983197137635
 20
17.86352657979252
 30
0.0
 11
100.9052482696388
 21
19.05489456033309
 31
0.0
  0
LINE
  5
EF7C891C4
330
EF7C85532
100
AcDbEntity
  8
JISSEN
100
AcDbLine
 10
101.4265993175713
 20
16.70075392932337
 30
0.0
 11
101.5512116803074
 21
16.8787188267802
 31
0.0
  0
ARC
  5
EF7C891C5
330
EF7C85532
100
AcDbEntity
  8
JISSEN
100
AcDbCircle
 10
100.0728196120382
 20
18.50076232881669
 30
0.0
 40
1.0
100
AcDbArc
 50
33.65096582460109
 51
132.0810525119092
  0
LINE
  5
EF7C891C6
330
EF7C85532
100
AcDbEntity
  8
JISSEN
100
AcDbLine
 10
100.3569258281354
 20
17.86352657979252
 30
0.0
 11
99.22429147461432
 21
19.50076232881714
 31
0.0
  0
LINE
  5
EF7C891C7
330
EF7C85532
100
AcDbEntity
  8
JISSEN
100
AcDbLine
 10
105.1560322670195
 20
18.20075392932336
 30
0.0
 11
103.6495232136826
 21
19.25562292485098
 31
0.0
  0
LINE
  5
EF7C891C8
330
EF7C85532
100
AcDbEntity
  8
JISSEN
100
AcDbLine
 10
110.9060322670195
 20
17.86352657979263
 30
0.0
 11
108.9935209305455
 21
18.20075392932359
 31
0.0
  0
LINE
  5
EF7C891C9
330
EF7C85532
100
AcDbEntity
  8
JISSEN
100
AcDbLine
 10
110.7323840893525
 20
16.8787188267802
 30
0.0
 11
110.9060322670195
 21
17.86352657979263
 31
0.0
  0
ARC
  5
EF7C891CA
330
EF7C85532
100
AcDbEntity
  8
JISSEN
100
AcDbCircle
 10
83.90603226701953
 20
50.50075392932338
 30
0.0
 40
26.0
100
AcDbArc
 50
336.1811586065433
 51
0.0
  0
ARC
  5
EF7C891CB
330
EF7C85532
100
AcDbEntity
  8
JISSEN
100
AcDbCircle
 10
83.90603226701953
 20
50.50075392932338
 30
0.0
 40
28.0
100
AcDbArc
 50
337.9756871629579
 51
0.0
  0
LINE
  5
EF7C891CC
330
EF7C85532
100
AcDbEntity
  8
JISSEN
100
AcDbLine
 10
79.0049988188027
 20
67.55773959854565
 30
0.0
 11
104.8070657152363
 21
67.55773959854599
 31
0.0
  0
LINE
  5
EF7C891CD
330
EF7C85532
100
AcDbEntity
  8
JISSEN
100
AcDbLine
 10
79.13828353520305
 20
66.05773959854595
 30
0.0
 11
104.9403504316366
 21
66.05773959854592
 31
0.0
  0
LINE
  5
EF7C891CE
330
EF7C85532
100
AcDbEntity
  8
JISSEN
100
AcDbLine
 10
85.90603226701952
 20
57.70075392932337
 30
0.0
 11
84.65603226701952
 21
58.4224417658104
 31
0.0
  0
LINE
  5
EF7C891CF
330
EF7C85532
100
AcDbEntity
  8
JISSEN
100
AcDbLine
 10
84.40603226701952
 20
60.70075392932331
 30
0.0
 11
90.40603226701952
 21
60.70075392932331
 31
0.0
  0
LINE
  5
EF7C891D0
330
EF7C85532
100
AcDbEntity
  8
JISSEN
100
AcDbLine
 10
83.70657077978691
 20
62.50075392932338
 30
0.0
 11
90.40603226701952
 21
62.50075392932338
 31
0.0
  0
LINE
  5
EF7C891D1
330
EF7C85532
100
AcDbEntity
  8
JISSEN
100
AcDbLine
 10
99.15603226701954
 20
59.72244176581035
 30
0.0
 11
84.65603226701976
 21
59.72244176581035
 31
0.0
  0
TEXT
  5
EF7C891D2
330
EF7C85532
100
AcDbEntity
  8
JISSEN
100
AcDbText
 10
87.42381664368473
 20
65.95942246295165
 30
0.0
 40
3.0
  1
D
 50
180.0
  7
K
 72
     4
 11
85.85238807225616
 21
64.45942246295165
 31
0.0
100
AcDbText
  0
LWPOLYLINE
  5
EF7C891D3
330
EF7C85532
100
AcDbEntity
  8
JISSEN
100
AcDbPolyline
 90
        5
 70
     0
 43
0.0
 10
61.88828353520304
 20
72.05773959854299
 42
0.1724294177368879
 10
76.375165617497
 20
67.60299755281552
 42
-0.3050742458420749
 10
77.51794446502137
 20
66.90387001334967
 42
0.2933139429534979
 10
78.8362166387694
 20
66.057739598543
 10
79.13828353520305
 20
66.057739598543
  0
LINE
  5
EF7C891D4
330
EF7C85532
100
AcDbEntity
  8
JISSEN
100
AcDbLine
 10
83.70657077978691
 20
66.05773959854595
 30
0.0
 11
83.70657077978691
 21
62.50075392932338
 31
0.0
  0
ARC
  5
EF7C891D5
330
EF7C85532
100
AcDbEntity
  8
JISSEN
100
AcDbCircle
 10
78.01828373535133
 20
69.6438712576997
 30
0.0
 40
6.498907295833106
100
AcDbArc
 50
284.6790800521976
 51
320.8990391255044
  0
LINE
  5
EF7C891D6
330
EF7C85532
100
AcDbEntity
  8
JISSEN
100
AcDbLine
 10
84.65603226701952
 20
58.4224417658104
 30
0.0
 11
84.65603226701976
 21
59.72244176581042
 31
0.0
  0
ARC
  5
EF7C891D7
330
EF7C85532
100
AcDbEntity
  8
JISSEN
100
AcDbCircle
 10
80.93216154409489
 20
58.52028437603805
 30
0.0
 40
5.0
100
AcDbArc
 50
104.6790800521975
 51
126.6829888003599
  0
LINE
  5
EF7C891D8
330
EF7C85532
100
AcDbEntity
  8
JISSEN
100
AcDbLine
 10
84.40603226701952
 20
62.50075392932338
 30
0.0
 11
84.40603226701952
 21
60.70075392932331
 31
0.0
  0
ARC
  5
EF7C891D9
330
EF7C85532
100
AcDbEntity
  8
JISSEN
100
AcDbCircle
 10
84.15603226701952
 20
59.49656249944123
 30
0.0
 40
0.5
100
AcDbArc
 50
33.02876887191276
 51
104.8402148385181
  0
LINE
  5
EF7C891DA
330
EF7C85532
100
AcDbEntity
  8
JISSEN
100
AcDbLine
 10
84.65603226701976
 20
59.72244176581035
 30
0.0
 11
84.57523076336585
 21
59.76909253569586
 31
0.0
  0
LINE
  5
EF7C891DB
330
EF7C85532
100
AcDbEntity
  8
JISSEN
100
AcDbLine
 10
99.40603226701952
 20
60.70075392932331
 30
0.0
 11
93.40603226701952
 21
60.70075392932331
 31
0.0
  0
LINE
  5
EF7C891DC
330
EF7C85532
100
AcDbEntity
  8
JISSEN
100
AcDbLine
 10
97.90603226701954
 20
57.70075392932337
 30
0.0
 11
99.15603226701954
 21
58.4224417658104
 31
0.0
  0
LINE
  5
EF7C891DD
330
EF7C85532
100
AcDbEntity
  8
JISSEN
100
AcDbLine
 10
100.1054937542523
 20
62.50075392932338
 30
0.0
 11
93.40603226701952
 21
62.50075392932338
 31
0.0
  0
LINE
  5
EF7C891DE
330
EF7C85532
100
AcDbEntity
  8
JISSEN
100
AcDbLine
 10
95.90603226701952
 20
62.50075392932338
 30
0.0
 11
95.90603226701952
 21
66.05773959854594
 31
0.0
  0
LINE
  5
EF7C891DF
330
EF7C85532
100
AcDbEntity
  8
JISSEN
100
AcDbLine
 10
87.90603226701952
 20
62.50075392932338
 30
0.0
 11
87.90603226701952
 21
66.05773959854594
 31
0.0
  0
LINE
  5
EF7C891E0
330
EF7C85532
100
AcDbEntity
  8
JISSEN
100
AcDbLine
 10
97.90603226701954
 20
57.70075392932337
 30
0.0
 11
85.90603226701952
 21
57.70075392932337
 31
0.0
  0
LINE
  5
EF7C891E1
330
EF7C85532
100
AcDbEntity
  8
JISSEN
100
AcDbLine
 10
90.40603226701952
 20
60.70075392932331
 30
0.0
 11
90.40603226701952
 21
62.50075392932338
 31
0.0
  0
LINE
  5
EF7C891E2
330
EF7C85532
100
AcDbEntity
  8
JISSEN
100
AcDbLine
 10
93.40603226701952
 20
62.50075392932338
 30
0.0
 11
93.40603226701952
 21
60.70075392932331
 31
0.0
  0
ARC
  5
EF7C891E3
330
EF7C85532
100
AcDbEntity
  8
JISSEN
100
AcDbCircle
 10
105.7937807986879
 20
69.6438712576997
 30
0.0
 40
6.498907295833106
100
AcDbArc
 50
219.1009608744955
 51
255.3209199478016
  0
LINE
  5
EF7C891E4
330
EF7C85532
100
AcDbEntity
  8
JISSEN
100
AcDbLine
 10
100.1054937542523
 20
66.05773959854594
 30
0.0
 11
100.1054937542523
 21
62.50075392932338
 31
0.0
  0
LINE
  5
EF7C891E5
330
EF7C85532
100
AcDbEntity
  8
JISSEN
100
AcDbLine
 10
99.15603226701954
 20
58.4224417658104
 30
0.0
 11
99.15603226701954
 21
59.72244176581042
 31
0.0
  0
LINE
  5
EF7C891E6
330
EF7C85532
100
AcDbEntity
  8
JISSEN
100
AcDbLine
 10
99.40603226701952
 20
62.50075392932338
 30
0.0
 11
99.40603226701952
 21
60.70075392932331
 31
0.0
  0
LINE
  5
EF7C891E7
330
EF7C85532
100
AcDbEntity
  8
JISSEN
100
AcDbLine
 10
99.15603226701954
 20
59.72244176581035
 30
0.0
 11
99.2368337706732
 21
59.76909253569586
 31
0.0
  0
ARC
  5
EF7C891E8
330
EF7C85532
100
AcDbEntity
  8
JISSEN
100
AcDbCircle
 10
99.65603226701952
 20
59.49656249944123
 30
0.0
 40
0.5
100
AcDbArc
 50
75.15978516148187
 51
146.9712311280872
  0
ARC
  5
EF7C891E9
330
EF7C85532
100
AcDbEntity
  8
JISSEN
100
AcDbCircle
 10
102.8799029899441
 20
58.52028437603805
 30
0.0
 40
5.0
100
AcDbArc
 50
53.31701119964003
 51
75.32091994780239
  0
HATCH
  5
EF7C89300
330
EF7C85532
100
AcDbEntity
  8
HATCH
100
AcDbHatch
 10
0.0
 20
0.0
 30
0.0
210
0.0
220
0.0
230
1.0
  2
ANSI31
 70
     0
 71
     0
 91
        2
 92
        7
 72
     1
 73
     1
 93
       13
 10
121.8882835352069
 20
172.0577396729263
 42
0.0
 10
120.1368851706069
 20
172.0577396729263
 42
-0.1557399217224488
 10
107.4445639359048
 20
168.6020656929761
 42
0.3050742458420811
 10
105.3494693821101
 20
167.320331870622
 42
-0.2933139429535041
 10
104.9403504316367
 20
167.0577396729234
 42
0.0
 10
104.6382835352032
 20
167.0577396729234
 42
-0.4142135623730951
 10
103.6382835352032
 20
168.0577396729234
 42
0.0
 10
103.6382835352032
 20
169.0577396729235
 42
0.0
 10
102.6382835352032
 20
169.0577396729235
 42
0.0
 10
102.6382835352032
 20
168.0577396729234
 42
0.438343819183208
 10
104.8014571272976
 20
166.0644071921659
 42
0.3195508479178618
 10
106.2586226053848
 20
166.9038700877301
 42
-0.3050742458420883
 10
107.4014014529092
 20
167.602997627196
 42
0.172429417736941
 97
        0
 92
        7
 72
     1
 73
     1
 93
       13
 10
79.13828353520321
 20
167.0577396729234
 42
0.0
 10
78.83621663876946
 20
167.0577396729234
 42
-0.2933139429534796
 10
78.42709768829596
 20
167.3203318706221
 42
0.3050742458420794
 10
76.33200313450132
 20
168.6020656929761
 42
-0.15573992172245
 10
63.63968189979932
 20
172.0577396729264
 42
0.0
 10
61.88828353519927
 20
172.0577396729264
 42
0.1724294177369433
 10
76.37516561749706
 20
167.602997627196
 42
-0.3050742458420882
 10
77.51794446502154
 20
166.9038700877301
 42
0.3195508479178619
 10
78.97510994310883
 20
166.0644071921659
 42
0.438343819183208
 10
81.13828353520322
 20
168.0577396729234
 42
0.0
 10
81.13828353520322
 20
169.0577396729235
 42
0.0
 10
80.13828353520322
 20
169.0577396729235
 42
0.0
 10
80.13828353520322
 20
168.0577396729234
 42
-0.4142135623730951
 97
        0
 75
     0
 76
     1
 52
90.0
 41
10.0
 77
     0
 78
     1
 53
135.0
 43
-180.9999992759999
 44
0.0
 45
-0.8838834764831844
 46
-0.8838834764831842
 79
     0
 47
0.0763726391003648
 98
        2
 10
109.0565473306036
 20
168.0696771182665
 10
79.01768702452537
 20
166.6949655852258
  0
LWPOLYLINE
  5
EF7C89301
330
EF7C85532
100
AcDbEntity
  8
JISSEN
100
AcDbPolyline
 90
        7
 70
     0
 43
0.0
 10
120.1368851706025
 20
172.0577396729234
 42
-0.1557399217223865
 10
107.444563935905
 20
168.6020656929761
 42
0.3050742458420765
 10
105.3494693821102
 20
167.3203318706221
 42
-0.2933139429534918
 10
104.9403504316368
 20
167.0577396729234
 10
104.6382835352032
 20
167.0577396729234
 42
-0.4142135623730951
 10
103.6382835352032
 20
168.0577396729234
 10
103.6382835352032
 20
169.0577396729235
  0
LWPOLYLINE
  5
EF7C89302
330
EF7C85532
100
AcDbEntity
  8
JISSEN
100
AcDbPolyline
 90
        7
 70
     0
 43
0.0
 10
121.8882835352032
 20
172.0577396729234
 42
-0.1724294177368876
 10
107.4014014529092
 20
167.602997627196
 42
0.3050742458420749
 10
106.2586226053848
 20
166.9038700877301
 42
-0.2933139429534979
 10
104.9403504316368
 20
166.0577396729235
 10
104.6382835352032
 20
166.0577396729235
 42
-0.4142135623730951
 10
102.6382835352032
 20
168.0577396729234
 10
102.6382835352032
 20
169.0577396729235
  0
LINE
  5
EF7C89303
330
EF7C85532
100
AcDbEntity
  8
JISSEN
100
AcDbLine
 10
102.6382835352032
 20
169.0577396729235
 30
0.0
 11
103.6382835352032
 21
169.0577396729235
 31
0.0
  0
LWPOLYLINE
  5
EF7C89304
330
EF7C85532
100
AcDbEntity
  8
JISSEN
100
AcDbPolyline
 90
        7
 70
     0
 43
0.0
 10
63.63968189980386
 20
172.0577396729234
 42
0.1557399217223865
 10
76.33200313450143
 20
168.6020656929761
 42
-0.3050742458420765
 10
78.42709768829596
 20
167.3203318706221
 42
0.2933139429534918
 10
78.83621663876957
 20
167.0577396729234
 10
79.13828353520321
 20
167.0577396729234
 42
0.4142135623730951
 10
80.13828353520322
 20
168.0577396729234
 10
80.13828353520322
 20
169.0577396729235
  0
LWPOLYLINE
  5
EF7C89305
330
EF7C85532
100
AcDbEntity
  8
JISSEN
100
AcDbPolyline
 90
        7
 70
     0
 43
0.0
 10
61.88828353520325
 20
172.0577396729234
 42
0.1724294177368876
 10
76.37516561749717
 20
167.602997627196
 42
-0.3050742458420749
 10
77.51794446502154
 20
166.9038700877301
 42
0.2933139429534979
 10
78.83621663876957
 20
166.0577396729235
 10
79.13828353520321
 20
166.0577396729235
 42
0.4142135623730951
 10
81.13828353520322
 20
168.0577396729234
 10
81.13828353520322
 20
169.0577396729235
  0
LINE
  5
EF7C89306
330
EF7C85532
100
AcDbEntity
  8
JISSEN
100
AcDbLine
 10
80.13828353520322
 20
169.0577396729235
 30
0.0
 11
81.13828353520322
 21
169.0577396729235
 31
0.0
  0
LINE
  5
EF7C89307
330
EF7C85532
100
AcDbEntity
  8
JISSEN
 62
     0
100
AcDbLine
 10
80.13828353520322
 20
169.0577396729235
 30
0.0
 11
81.13828353520322
 21
169.0577396729235
 31
0.0
  0
ENDSEC
  0
SECTION
  2
OBJECTS
  0
DICTIONARY
  5
EF7C85527
330
0
100
AcDbDictionary
  3
ACAD_GROUP
350
EF7C85528
  3
ACAD_LAYOUT
350
EF7C85BB7
  3
ACAD_MLINESTYLE
350
EF7C85535
  3
ACAD_PLOTSETTINGS
350
EF7C85BB8
  3
ACAD_PLOTSTYLENAME
350
EF7C85BB5
  3
ACDBHEADERROUNDTRIPXREC
350
EF7C893C3
  3
ACDBVARIABLEDICTIONARY
350
EF7C85DB7
  0
DICTIONARY
  5
EF7C85D9A
330
EF7C85532
100
AcDbDictionary
280
     1
  3
ACAD_LAYOUTSELFREF
360
EF7C893E5
  0
DICTIONARY
  5
EF7C85D98
330
EF7C8552F
100
AcDbDictionary
280
     1
  3
ACAD_LAYOUTSELFREF
360
EF7C893E4
  0
DICTIONARY
  5
EF7C85528
102
{ACAD_REACTORS
330
EF7C85527
102
}
330
EF7C85527
100
AcDbDictionary
  0
DICTIONARY
  5
EF7C85BB7
102
{ACAD_REACTORS
330
EF7C85527
102
}
330
EF7C85527
100
AcDbDictionary
  0
DICTIONARY
  5
EF7C85535
102
{ACAD_REACTORS
330
EF7C85527
102
}
330
EF7C85527
100
AcDbDictionary
  3
STANDARD
350
EF7C85536
  0
DICTIONARY
  5
EF7C85BB8
102
{ACAD_REACTORS
330
EF7C85527
102
}
330
EF7C85527
100
AcDbDictionary
  0
ACDBDICTIONARYWDFLT
  5
EF7C85BB5
102
{ACAD_REACTORS
330
EF7C85527
102
}
330
EF7C85527
100
AcDbDictionary
281
     1
  3
Normal
350
EF7C85BB6
100
AcDbDictionaryWithDefault
340
EF7C85BB6
  0
DICTIONARY
  5
EF7C893C3
102
{ACAD_REACTORS
330
EF7C85527
102
}
330
EF7C85527
100
AcDbDictionary
  3
CEPSNTYPE
350
EF7C893CD
  3
DIMSTYLEDATA
350
EF7C893D1
  3
FINGERPRINTGUID
350
EF7C893CE
  3
HYPERLINKBASE
350
EF7C893C6
  3
INSUNITS
350
EF7C893CC
  3
LAYOUTDICT
350
EF7C893C8
  3
LWETCUNION
350
EF7C893CB
  3
PLOTSETDICT
350
EF7C893C9
  3
PLOTSTYLNAMDICT
350
EF7C893CA
  3
PSVPSCALE
350
EF7C893D0
  3
PUCSBASE
350
EF7C893D4
  3
PUCSORGBACK
350
EF7C893DA
  3
PUCSORGBOTTOM
350
EF7C893D6
  3
PUCSORGFRONT
350
EF7C893D9
  3
PUCSORGLEFT
350
EF7C893D7
  3
PUCSORGRIGHT
350
EF7C893D8
  3
PUCSORGTOP
350
EF7C893D5
  3
PUCSORTHOREF
350
EF7C893D2
  3
PUCSORTHOVIEW
350
EF7C893D3
  3
STYLESHEET
350
EF7C893C7
  3
TSTACKALIGN
350
EF7C893C4
  3
TSTACKSIZE
350
EF7C893C5
  3
UCSBASE
350
EF7C893DD
  3
UCSORGBACK
350
EF7C893E3
  3
UCSORGBOTTOM
350
EF7C893DF
  3
UCSORGFRONT
350
EF7C893E2
  3
UCSORGLEFT
350
EF7C893E0
  3
UCSORGRIGHT
350
EF7C893E1
  3
UCSORGTOP
350
EF7C893DE
  3
UCSORTHOREF
350
EF7C893DB
  3
UCSORTHOVIEW
350
EF7C893DC
  3
VERSIONGUID
350
EF7C893CF
  0
DICTIONARY
  5
EF7C85DB7
102
{ACAD_REACTORS
330
EF7C85527
102
}
330
EF7C85527
100
AcDbDictionary
  3
DIMASSOC
350
EF7C893C1
  3
SORTENTS
350
EF7C85DB8
  0
XRECORD
  5
EF7C893E5
102
{ACAD_REACTORS
330
EF7C85D9A
102
}
330
EF7C85D9A
100
AcDbXrecord
340
EF7C85532
  0
XRECORD
  5
EF7C893E4
102
{ACAD_REACTORS
330
EF7C85D98
102
}
330
EF7C85D98
100
AcDbXrecord
340
EF7C8552F
  0
MLINESTYLE
  5
EF7C85536
102
{ACAD_REACTORS
330
EF7C85535
102
}
330
EF7C85535
100
AcDbMlineStyle
  2
STANDARD
 70
     0
  3

 62
   256
 51
90.0
 52
90.0
 71
     2
 49
0.5
 62
   256
  6
BYLAYER
 49
-0.5
 62
   256
  6
BYLAYER
  0
ACDBPLACEHOLDER
  5
EF7C85BB6
102
{ACAD_REACTORS
330
EF7C85BB5
102
}
330
EF7C85BB5
100
AcDbPlaceHolder
280
     0
  0
XRECORD
  5
EF7C893CD
102
{ACAD_REACTORS
330
EF7C893C3
102
}
330
EF7C893C3
100
AcDbXrecord
 90
        0
  0
XRECORD
  5
EF7C893D1
102
{ACAD_REACTORS
330
EF7C893C3
102
}
330
EF7C893C3
100
AcDbXrecord
1000
DSTYLE
1002
{
1070
   279
 70
     2
1070
   341
340
EF7C85537
1070
   342
340
EF7C85537
1070
   343
340
EF7C85543
1070
   344
340
EF7C85543
1002
}
  0
XRECORD
  5
EF7C893CE
102
{ACAD_REACTORS
330
EF7C893C3
102
}
330
EF7C893C3
100
AcDbXrecord
  1
{09AA4C7A-3D6F-4857-A850-771461888CEC}
  0
XRECORD
  5
EF7C893C6
102
{ACAD_REACTORS
330
EF7C893C3
102
}
330
EF7C893C3
100
AcDbXrecord
  1

  0
XRECORD
  5
EF7C893CC
102
{ACAD_REACTORS
330
EF7C893C3
102
}
330
EF7C893C3
100
AcDbXrecord
 90
        0
  0
XRECORD
  5
EF7C893C8
102
{ACAD_REACTORS
330
EF7C893C3
102
}
330
EF7C893C3
100
AcDbXrecord
340
EF7C85BB7
  0
XRECORD
  5
EF7C893CB
102
{ACAD_REACTORS
330
EF7C893C3
102
}
330
EF7C893C3
100
AcDbXrecord
 90
    14877
  0
XRECORD
  5
EF7C893C9
102
{ACAD_REACTORS
330
EF7C893C3
102
}
330
EF7C893C3
100
AcDbXrecord
340
EF7C85BB8
  0
XRECORD
  5
EF7C893CA
102
{ACAD_REACTORS
330
EF7C893C3
102
}
330
EF7C893C3
100
AcDbXrecord
340
EF7C85BB5
  0
XRECORD
  5
EF7C893D0
102
{ACAD_REACTORS
330
EF7C893C3
102
}
330
EF7C893C3
100
AcDbXrecord
 40
0.0
  0
XRECORD
  5
EF7C893D4
102
{ACAD_REACTORS
330
EF7C893C3
102
}
330
EF7C893C3
100
AcDbXrecord
340
0
  0
XRECORD
  5
EF7C893DA
102
{ACAD_REACTORS
330
EF7C893C3
102
}
330
EF7C893C3
100
AcDbXrecord
 10
0.0
 20
0.0
 30
0.0
  0
XRECORD
  5
EF7C893D6
102
{ACAD_REACTORS
330
EF7C893C3
102
}
330
EF7C893C3
100
AcDbXrecord
 10
0.0
 20
0.0
 30
0.0
  0
XRECORD
  5
EF7C893D9
102
{ACAD_REACTORS
330
EF7C893C3
102
}
330
EF7C893C3
100
AcDbXrecord
 10
0.0
 20
0.0
 30
0.0
  0
XRECORD
  5
EF7C893D7
102
{ACAD_REACTORS
330
EF7C893C3
102
}
330
EF7C893C3
100
AcDbXrecord
 10
0.0
 20
0.0
 30
0.0
  0
XRECORD
  5
EF7C893D8
102
{ACAD_REACTORS
330
EF7C893C3
102
}
330
EF7C893C3
100
AcDbXrecord
 10
0.0
 20
0.0
 30
0.0
  0
XRECORD
  5
EF7C893D5
102
{ACAD_REACTORS
330
EF7C893C3
102
}
330
EF7C893C3
100
AcDbXrecord
 10
0.0
 20
0.0
 30
0.0
  0
XRECORD
  5
EF7C893D2
102
{ACAD_REACTORS
330
EF7C893C3
102
}
330
EF7C893C3
100
AcDbXrecord
340
0
  0
XRECORD
  5
EF7C893D3
102
{ACAD_REACTORS
330
EF7C893C3
102
}
330
EF7C893C3
100
AcDbXrecord
 70
     0
  0
XRECORD
  5
EF7C893C7
102
{ACAD_REACTORS
330
EF7C893C3
102
}
330
EF7C893C3
100
AcDbXrecord
  1

  0
XRECORD
  5
EF7C893C4
102
{ACAD_REACTORS
330
EF7C893C3
102
}
330
EF7C893C3
100
AcDbXrecord
 90
        1
  0
XRECORD
  5
EF7C893C5
102
{ACAD_REACTORS
330
EF7C893C3
102
}
330
EF7C893C3
100
AcDbXrecord
 90
       70
  0
XRECORD
  5
EF7C893DD
102
{ACAD_REACTORS
330
EF7C893C3
102
}
330
EF7C893C3
100
AcDbXrecord
340
0
  0
XRECORD
  5
EF7C893E3
102
{ACAD_REACTORS
330
EF7C893C3
102
}
330
EF7C893C3
100
AcDbXrecord
 10
0.0
 20
0.0
 30
0.0
  0
XRECORD
  5
EF7C893DF
102
{ACAD_REACTORS
330
EF7C893C3
102
}
330
EF7C893C3
100
AcDbXrecord
 10
0.0
 20
0.0
 30
0.0
  0
XRECORD
  5
EF7C893E2
102
{ACAD_REACTORS
330
EF7C893C3
102
}
330
EF7C893C3
100
AcDbXrecord
 10
0.0
 20
0.0
 30
0.0
  0
XRECORD
  5
EF7C893E0
102
{ACAD_REACTORS
330
EF7C893C3
102
}
330
EF7C893C3
100
AcDbXrecord
 10
0.0
 20
0.0
 30
0.0
  0
XRECORD
  5
EF7C893E1
102
{ACAD_REACTORS
330
EF7C893C3
102
}
330
EF7C893C3
100
AcDbXrecord
 10
0.0
 20
0.0
 30
0.0
  0
XRECORD
  5
EF7C893DE
102
{ACAD_REACTORS
330
EF7C893C3
102
}
330
EF7C893C3
100
AcDbXrecord
 10
0.0
 20
0.0
 30
0.0
  0
XRECORD
  5
EF7C893DB
102
{ACAD_REACTORS
330
EF7C893C3
102
}
330
EF7C893C3
100
AcDbXrecord
340
0
  0
XRECORD
  5
EF7C893DC
102
{ACAD_REACTORS
330
EF7C893C3
102
}
330
EF7C893C3
100
AcDbXrecord
 70
     0
  0
XRECORD
  5
EF7C893CF
102
{ACAD_REACTORS
330
EF7C893C3
102
}
330
EF7C893C3
100
AcDbXrecord
  1
{EDECED31-E604-481A-AF6C-EF2DF4907FC4}
  0
DICTIONARYVAR
  5
EF7C893C1
102
{ACAD_REACTORS
330
EF7C85DB7
102
}
330
EF7C85DB7
100
DictionaryVariables
280
     0
  1
0
  0
DICTIONARYVAR
  5
EF7C85DB8
102
{ACAD_REACTORS
330
EF7C85DB7
102
}
330
EF7C85DB7
100
DictionaryVariables
280
     0
  1
96
  0
ENDSEC
  0
EOF
