  0
SECTION
  2
HEADER
  9
$ACADVER
  1
AC1014
  9
$ACADMAINTVER
 70
     9
  9
$DWGCODEPAGE
  3
ANSI_932
  9
$INSBASE
 10
0.0
 20
0.0
 30
0.0
  9
$EXTMIN
 10
0.0
 20
0.0
 30
0.0
  9
$EXTMAX
 10
180.999999276
 20
282.9999999999999
 30
0.0
  9
$LIMMIN
 10
0.0
 20
0.0
  9
$LIMMAX
 10
181.0
 20
283.0
  9
$ORTHOMODE
 70
     1
  9
$REGENMODE
 70
     1
  9
$FILLMODE
 70
     1
  9
$QTEXTMODE
 70
     0
  9
$MIRRTEXT
 70
     0
  9
$DRAGMODE
 70
     2
  9
$LTSCALE
 40
5.0
  9
$OSMODE
 70
   167
  9
$ATTMODE
 70
     1
  9
$TEXTSIZE
 40
3.0
  9
$TRACEWID
 40
0.05
  9
$TEXTSTYLE
  7
BIGFONT
  9
$CLAYER
  8
JISSEN
  9
$CELTYPE
  6
BYLAYER
  9
$CECOLOR
 62
   256
  9
$CELTSCALE
 40
1.0
  9
$DELOBJ
 70
     1
  9
$DISPSILH
 70
     0
  9
$DIMSCALE
 40
1.0
  9
$DIMASZ
 40
1.5
  9
$DIMEXO
 40
1.0
  9
$DIMDLI
 40
6.0
  9
$DIMRND
 40
0.0
  9
$DIMDLE
 40
0.0
  9
$DIMEXE
 40
1.0
  9
$DIMTP
 40
0.0
  9
$DIMTM
 40
0.0
  9
$DIMTXT
 40
3.0
  9
$DIMCEN
 40
1.0
  9
$DIMTSZ
 40
0.0
  9
$DIMTOL
 70
     0
  9
$DIMLIM
 70
     0
  9
$DIMTIH
 70
     0
  9
$DIMTOH
 70
     0
  9
$DIMSE1
 70
     0
  9
$DIMSE2
 70
     0
  9
$DIMTAD
 70
     0
  9
$DIMZIN
 70
     8
  9
$DIMBLK
  1
ARROW
  9
$DIMASO
 70
     0
  9
$DIMSHO
 70
     0
  9
$DIMPOST
  1

  9
$DIMAPOST
  1

  9
$DIMALT
 70
     0
  9
$DIMALTD
 70
     2
  9
$DIMALTF
 40
25.4
  9
$DIMLFAC
 40
1.0
  9
$DIMTOFL
 70
     1
  9
$DIMTVP
 40
0.0
  9
$DIMTIX
 70
     0
  9
$DIMSOXD
 70
     0
  9
$DIMSAH
 70
     0
  9
$DIMBLK1
  1
ARROWANG
  9
$DIMBLK2
  1
ARROWANG
  9
$DIMSTYLE
  2
IMAO
  9
$DIMCLRD
 70
     0
  9
$DIMCLRE
 70
     0
  9
$DIMCLRT
 70
     0
  9
$DIMTFAC
 40
1.0
  9
$DIMGAP
 40
0.09
  9
$DIMJUST
 70
     0
  9
$DIMSD1
 70
     0
  9
$DIMSD2
 70
     0
  9
$DIMTOLJ
 70
     1
  9
$DIMTZIN
 70
     8
  9
$DIMALTZ
 70
     8
  9
$DIMALTTZ
 70
     8
  9
$DIMFIT
 70
     5
  9
$DIMUPT
 70
     0
  9
$DIMUNIT
 70
     2
  9
$DIMDEC
 70
     2
  9
$DIMTDEC
 70
     2
  9
$DIMALTU
 70
     2
  9
$DIMALTTD
 70
     2
  9
$DIMTXSTY
  7
BIGFONT
  9
$DIMAUNIT
 70
     0
  9
$LUNITS
 70
     2
  9
$LUPREC
 70
     2
  9
$SKETCHINC
 40
0.1
  9
$FILLETRAD
 40
1.5
  9
$AUNITS
 70
     0
  9
$AUPREC
 70
     2
  9
$MENU
  1
stdr12j
  9
$ELEVATION
 40
0.0
  9
$PELEVATION
 40
0.0
  9
$THICKNESS
 40
0.0
  9
$LIMCHECK
 70
     0
  9
$BLIPMODE
 70
     0
  9
$CHAMFERA
 40
0.0
  9
$CHAMFERB
 40
0.0
  9
$CHAMFERC
 40
0.0
  9
$CHAMFERD
 40
0.0
  9
$SKPOLY
 70
     0
  9
$TDCREATE
 40
2450617.453041203
  9
$TDUPDATE
 40
2453833.481447373
  9
$TDINDWG
 40
0.1847974537
  9
$TDUSRTIMER
 40
0.1847974537
  9
$USRTIMER
 70
     1
  9
$ANGBASE
 50
0.0
  9
$ANGDIR
 70
     0
  9
$PDMODE
 70
     0
  9
$PDSIZE
 40
0.0
  9
$PLINEWID
 40
0.0
  9
$COORDS
 70
     2
  9
$SPLFRAME
 70
     0
  9
$SPLINETYPE
 70
     6
  9
$SPLINESEGS
 70
     8
  9
$ATTDIA
 70
     0
  9
$ATTREQ
 70
     1
  9
$HANDLING
 70
 22529
  9
$HANDSEED
  5
EF7C8A511
  9
$SURFTAB1
 70
     6
  9
$SURFTAB2
 70
     6
  9
$SURFTYPE
 70
     6
  9
$SURFU
 70
     6
  9
$SURFV
 70
     6
  9
$UCSNAME
  2

  9
$UCSORG
 10
0.0
 20
0.0
 30
0.0
  9
$UCSXDIR
 10
1.0
 20
0.0
 30
0.0
  9
$UCSYDIR
 10
0.0
 20
1.0
 30
0.0
  9
$PUCSNAME
  2

  9
$PUCSORG
 10
0.0
 20
0.0
 30
0.0
  9
$PUCSXDIR
 10
1.0
 20
0.0
 30
0.0
  9
$PUCSYDIR
 10
0.0
 20
1.0
 30
0.0
  9
$USERI1
 70
     0
  9
$USERI2
 70
     1
  9
$USERI3
 70
     1
  9
$USERI4
 70
     3
  9
$USERI5
 70
     0
  9
$USERR1
 40
1.0
  9
$USERR2
 40
3.0
  9
$USERR3
 40
3.0
  9
$USERR4
 40
1.5
  9
$USERR5
 40
8.0
  9
$WORLDVIEW
 70
     1
  9
$SHADEDGE
 70
     3
  9
$SHADEDIF
 70
    70
  9
$TILEMODE
 70
     1
  9
$MAXACTVP
 70
    16
  9
$PINSBASE
 10
0.0
 20
0.0
 30
0.0
  9
$PLIMCHECK
 70
     0
  9
$PEXTMIN
 10
1.000000000000000E+20
 20
1.000000000000000E+20
 30
1.000000000000000E+20
  9
$PEXTMAX
 10
-1.000000000000000E+20
 20
-1.000000000000000E+20
 30
-1.000000000000000E+20
  9
$PLIMMIN
 10
0.0
 20
0.0
  9
$PLIMMAX
 10
12.0
 20
9.0
  9
$UNITMODE
 70
     0
  9
$VISRETAIN
 70
     0
  9
$PLINEGEN
 70
     0
  9
$PSLTSCALE
 70
     0
  9
$TREEDEPTH
 70
  3020
  9
$PICKSTYLE
 70
     1
  9
$CMLSTYLE
  2
STANDARD
  9
$CMLJUST
 70
     0
  9
$CMLSCALE
 40
1.0
  9
$PROXYGRAPHICS
 70
     1
  9
$MEASUREMENT
 70
     0
  0
ENDSEC
  0
SECTION
  2
CLASSES
  0
CLASS
  1
LWPOLYLINE
  2
AcDbPolyline
  3
AutoCAD 2000
 90
        0
280
     0
281
     1
  0
CLASS
  1
HATCH
  2
AcDbHatch
  3
AutoCAD 2000
 90
        0
280
     0
281
     1
  0
CLASS
  1
ACDBDICTIONARYWDFLT
  2
AcDbDictionaryWithDefault
  3
AutoCAD 2000
 90
        0
280
     0
281
     0
  0
CLASS
  1
ACDBPLACEHOLDER
  2
AcDbPlaceHolder
  3
AutoCAD 2000
 90
        0
280
     0
281
     0
  0
CLASS
  1
LAYOUT
  2
AcDbLayout
  3
AutoCAD 2000
 90
        0
280
     0
281
     0
  0
CLASS
  1
LONG_TRANSACTION
  2
AcDbLongTransaction
  3
AutoCAD 2000
 90
        0
280
     0
281
     0
  0
CLASS
  1
LWPOLYLINE
  2
AcDbPolyline
  3
AutoCAD 2000
 90
        0
280
     0
281
     1
  0
CLASS
  1
HATCH
  2
AcDbHatch
  3
AutoCAD 2000
 90
        0
280
     0
281
     1
  0
CLASS
  1
XRECORD
  2
AcDbXrecord
  3
AutoCAD 2000
 90
        0
280
     0
281
     0
  0
CLASS
  1
DICTIONARYVAR
  2
AcDbDictionaryVar
  3
AutoCAD 2000
 90
        0
280
     0
281
     0
  0
CLASS
  1
LONG_TRANSACTION
  2
AcDbLongTransaction
  3
AutoCAD 2000
 90
        0
280
     0
281
     0
  0
CLASS
  1
LWPOLYLINE
  2
AcDbPolyline
  3
AutoCAD 2000
 90
        0
280
     0
281
     1
  0
CLASS
  1
HATCH
  2
AcDbHatch
  3
AutoCAD 2000
 90
        0
280
     0
281
     1
  0
CLASS
  1
XRECORD
  2
AcDbXrecord
  3
AutoCAD 2000
 90
        0
280
     0
281
     0
  0
CLASS
  1
LONG_TRANSACTION
  2
AcDbLongTransaction
  3
AutoCAD 2000
 90
        0
280
     0
281
     0
  0
CLASS
  1
LWPOLYLINE
  2
AcDbPolyline
  3
AutoCAD 2000
 90
        0
280
     0
281
     1
  0
CLASS
  1
HATCH
  2
AcDbHatch
  3
AutoCAD 2000
 90
        0
280
     0
281
     1
  0
CLASS
  1
XRECORD
  2
AcDbXrecord
  3
AutoCAD 2000
 90
        0
280
     0
281
     0
  0
CLASS
  1
LONG_TRANSACTION
  2
AcDbLongTransaction
  3
AutoCAD 2000
 90
        0
280
     0
281
     0
  0
CLASS
  1
LWPOLYLINE
  2
AcDbPolyline
  3
AutoCAD 2000
 90
        0
280
     0
281
     1
  0
CLASS
  1
HATCH
  2
AcDbHatch
  3
AutoCAD 2000
 90
        0
280
     0
281
     1
  0
CLASS
  1
XRECORD
  2
AcDbXrecord
  3
AutoCAD 2000
 90
        0
280
     0
281
     0
  0
CLASS
  1
LONG_TRANSACTION
  2
AcDbLongTransaction
  3
AutoCAD 2000
 90
        0
280
     0
281
     0
  0
CLASS
  1
LWPOLYLINE
  2
AcDbPolyline
  3
AutoCAD 2000
 90
        0
280
     0
281
     1
  0
CLASS
  1
HATCH
  2
AcDbHatch
  3
AutoCAD 2000
 90
        0
280
     0
281
     1
  0
CLASS
  1
XRECORD
  2
AcDbXrecord
  3
AutoCAD 2000
 90
        0
280
     0
281
     0
  0
CLASS
  1
LONG_TRANSACTION
  2
AcDbLongTransaction
  3
AutoCAD 2000
 90
        0
280
     0
281
     0
  0
CLASS
  1
LWPOLYLINE
  2
AcDbPolyline
  3
AutoCAD 2000
 90
        0
280
     0
281
     1
  0
CLASS
  1
HATCH
  2
AcDbHatch
  3
AutoCAD 2000
 90
        0
280
     0
281
     1
  0
CLASS
  1
XRECORD
  2
AcDbXrecord
  3
AutoCAD 2000
 90
        0
280
     0
281
     0
  0
CLASS
  1
LONG_TRANSACTION
  2
AcDbLongTransaction
  3
AutoCAD 2000
 90
        0
280
     0
281
     0
  0
CLASS
  1
LWPOLYLINE
  2
AcDbPolyline
  3
AutoCAD 2000
 90
        0
280
     0
281
     1
  0
CLASS
  1
HATCH
  2
AcDbHatch
  3
AutoCAD 2000
 90
        0
280
     0
281
     1
  0
CLASS
  1
XRECORD
  2
AcDbXrecord
  3
AutoCAD 2000
 90
        0
280
     0
281
     0
  0
CLASS
  1
LONG_TRANSACTION
  2
AcDbLongTransaction
  3
AutoCAD 2000
 90
        0
280
     0
281
     0
  0
CLASS
  1
LWPOLYLINE
  2
AcDbPolyline
  3
AutoCAD 2000
 90
        0
280
     0
281
     1
  0
CLASS
  1
HATCH
  2
AcDbHatch
  3
AutoCAD 2000
 90
        0
280
     0
281
     1
  0
CLASS
  1
XRECORD
  2
AcDbXrecord
  3
AutoCAD 2000
 90
        0
280
     0
281
     0
  0
CLASS
  1
LONG_TRANSACTION
  2
AcDbLongTransaction
  3
AutoCAD 2000
 90
        0
280
     0
281
     0
  0
CLASS
  1
LWPOLYLINE
  2
AcDbPolyline
  3
AutoCAD 2000
 90
        0
280
     0
281
     1
  0
CLASS
  1
HATCH
  2
AcDbHatch
  3
AutoCAD 2000
 90
        0
280
     0
281
     1
  0
CLASS
  1
XRECORD
  2
AcDbXrecord
  3
AutoCAD 2000
 90
        0
280
     0
281
     0
  0
CLASS
  1
LONG_TRANSACTION
  2
AcDbLongTransaction
  3
AutoCAD 2000
 90
        0
280
     0
281
     0
  0
CLASS
  1
LWPOLYLINE
  2
AcDbPolyline
  3
AutoCAD 2000
 90
        0
280
     0
281
     1
  0
CLASS
  1
HATCH
  2
AcDbHatch
  3
AutoCAD 2000
 90
        0
280
     0
281
     1
  0
CLASS
  1
XRECORD
  2
AcDbXrecord
  3
AutoCAD 2000
 90
        0
280
     0
281
     0
  0
CLASS
  1
LONG_TRANSACTION
  2
AcDbLongTransaction
  3
AutoCAD 2000
 90
        0
280
     0
281
     0
  0
CLASS
  1
LWPOLYLINE
  2
AcDbPolyline
  3
AutoCAD 2000
 90
        0
280
     0
281
     1
  0
CLASS
  1
HATCH
  2
AcDbHatch
  3
AutoCAD 2000
 90
        0
280
     0
281
     1
  0
CLASS
  1
XRECORD
  2
AcDbXrecord
  3
AutoCAD 2000
 90
        0
280
     0
281
     0
  0
CLASS
  1
LONG_TRANSACTION
  2
AcDbLongTransaction
  3
AutoCAD 2000
 90
        0
280
     0
281
     0
  0
CLASS
  1
LWPOLYLINE
  2
AcDbPolyline
  3
AutoCAD 2000
 90
        0
280
     0
281
     1
  0
CLASS
  1
HATCH
  2
AcDbHatch
  3
AutoCAD 2000
 90
        0
280
     0
281
     1
  0
CLASS
  1
XRECORD
  2
AcDbXrecord
  3
AutoCAD 2000
 90
        0
280
     0
281
     0
  0
CLASS
  1
LONG_TRANSACTION
  2
AcDbLongTransaction
  3
AutoCAD 2000
 90
        0
280
     0
281
     0
  0
CLASS
  1
LWPOLYLINE
  2
AcDbPolyline
  3
AutoCAD 2000
 90
        0
280
     0
281
     1
  0
CLASS
  1
HATCH
  2
AcDbHatch
  3
AutoCAD 2000
 90
        0
280
     0
281
     1
  0
CLASS
  1
XRECORD
  2
AcDbXrecord
  3
AutoCAD 2000
 90
        0
280
     0
281
     0
  0
CLASS
  1
LONG_TRANSACTION
  2
AcDbLongTransaction
  3
AutoCAD 2000
 90
        0
280
     0
281
     0
  0
CLASS
  1
LWPOLYLINE
  2
AcDbPolyline
  3
AutoCAD 2000
 90
        0
280
     0
281
     1
  0
CLASS
  1
HATCH
  2
AcDbHatch
  3
AutoCAD 2000
 90
        0
280
     0
281
     1
  0
CLASS
  1
XRECORD
  2
AcDbXrecord
  3
AutoCAD 2000
 90
        0
280
     0
281
     0
  0
CLASS
  1
LONG_TRANSACTION
  2
AcDbLongTransaction
  3
AutoCAD 2000
 90
        0
280
     0
281
     0
  0
CLASS
  1
LWPOLYLINE
  2
AcDbPolyline
  3
AutoCAD 2000
 90
        0
280
     0
281
     1
  0
CLASS
  1
HATCH
  2
AcDbHatch
  3
AutoCAD 2000
 90
        0
280
     0
281
     1
  0
CLASS
  1
XRECORD
  2
AcDbXrecord
  3
AutoCAD 2000
 90
        0
280
     0
281
     0
  0
CLASS
  1
LONG_TRANSACTION
  2
AcDbLongTransaction
  3
AutoCAD 2000
 90
        0
280
     0
281
     0
  0
CLASS
  1
LWPOLYLINE
  2
AcDbPolyline
  3
AutoCAD 2000
 90
        0
280
     0
281
     1
  0
CLASS
  1
HATCH
  2
AcDbHatch
  3
AutoCAD 2000
 90
        0
280
     0
281
     1
  0
CLASS
  1
XRECORD
  2
AcDbXrecord
  3
AutoCAD 2000
 90
        0
280
     0
281
     0
  0
CLASS
  1
LONG_TRANSACTION
  2
AcDbLongTransaction
  3
AutoCAD 2000
 90
        0
280
     0
281
     0
  0
CLASS
  1
LWPOLYLINE
  2
AcDbPolyline
  3
AutoCAD 2000
 90
        0
280
     0
281
     1
  0
CLASS
  1
HATCH
  2
AcDbHatch
  3
AutoCAD 2000
 90
        0
280
     0
281
     1
  0
CLASS
  1
XRECORD
  2
AcDbXrecord
  3
AutoCAD 2000
 90
        0
280
     0
281
     0
  0
CLASS
  1
LONG_TRANSACTION
  2
AcDbLongTransaction
  3
AutoCAD 2000
 90
        0
280
     0
281
     0
  0
CLASS
  1
LWPOLYLINE
  2
AcDbPolyline
  3
AutoCAD 2000
 90
        0
280
     0
281
     1
  0
CLASS
  1
HATCH
  2
AcDbHatch
  3
AutoCAD 2000
 90
        0
280
     0
281
     1
  0
CLASS
  1
XRECORD
  2
AcDbXrecord
  3
AutoCAD 2000
 90
        0
280
     0
281
     0
  0
ENDSEC
  0
SECTION
  2
TABLES
  0
TABLE
  2
VPORT
  5
EF7C85523
330
0
100
AcDbSymbolTable
 70
    10
  0
VPORT
  5
EF7C85567
330
EF7C85523
100
AcDbSymbolTableRecord
100
AcDbViewportTableRecord
  2
2
 70
     0
 10
0.5
 20
0.0
 11
1.0
 21
1.0
 12
0.9240312421264802
 22
1.052650975462766
 13
0.0
 23
0.0
 14
1.0
 24
1.0
 15
10.0
 25
10.0
 16
0.0
 26
0.0
 36
1.0
 17
0.0
 27
0.0
 37
0.0
 40
2.105301950925533
 41
0.8778135048231511
 42
50.0
 43
0.0
 44
0.0
 50
0.0
 51
0.0
 71
     0
 72
   500
 73
     1
 74
     1
 75
     0
 76
     0
 77
     0
 78
     0
  0
VPORT
  5
EF7C85568
330
EF7C85523
100
AcDbSymbolTableRecord
100
AcDbViewportTableRecord
  2
2
 70
     0
 10
0.0
 20
0.0
 11
0.5
 21
1.0
 12
0.9240312421264802
 22
1.052650975462766
 13
0.0
 23
0.0
 14
1.0
 24
1.0
 15
10.0
 25
10.0
 16
0.0
 26
0.0
 36
1.0
 17
0.0
 27
0.0
 37
0.0
 40
2.105301950925533
 41
0.8778135048231511
 42
50.0
 43
0.0
 44
0.0
 50
0.0
 51
0.0
 71
     0
 72
   500
 73
     1
 74
     1
 75
     0
 76
     0
 77
     0
 78
     0
  0
VPORT
  5
EF7C85569
330
EF7C85523
100
AcDbSymbolTableRecord
100
AcDbViewportTableRecord
  2
3
 70
     0
 10
0.0
 20
0.5
 11
1.0
 21
1.0
 12
2.832169994473273
 22
1.052650975462766
 13
0.0
 23
0.0
 14
1.0
 24
1.0
 15
10.0
 25
10.0
 16
0.0
 26
0.0
 36
1.0
 17
0.0
 27
0.0
 37
0.0
 40
2.105301950925533
 41
3.571428571428571
 42
50.0
 43
0.0
 44
0.0
 50
0.0
 51
0.0
 71
     0
 72
   500
 73
     1
 74
     1
 75
     0
 76
     0
 77
     0
 78
     0
  0
VPORT
  5
EF7C8556A
330
EF7C85523
100
AcDbSymbolTableRecord
100
AcDbViewportTableRecord
  2
3
 70
     0
 10
0.0
 20
0.0
 11
1.0
 21
0.5
 12
2.856741679241311
 22
1.052650975462766
 13
0.0
 23
0.0
 14
1.0
 24
1.0
 15
10.0
 25
10.0
 16
0.0
 26
0.0
 36
1.0
 17
0.0
 27
0.0
 37
0.0
 40
2.105301950925533
 41
3.594771241830065
 42
50.0
 43
0.0
 44
0.0
 50
0.0
 51
0.0
 71
     0
 72
   500
 73
     1
 74
     1
 75
     0
 76
     0
 77
     0
 78
     0
  0
VPORT
  5
EF7C8556B
330
EF7C85523
100
AcDbSymbolTableRecord
100
AcDbViewportTableRecord
  2
4
 70
     0
 10
0.5
 20
0.0
 11
1.0
 21
0.5
 12
2.886857516709719
 22
1.052650975462766
 13
0.0
 23
0.0
 14
1.0
 24
1.0
 15
10.0
 25
10.0
 16
0.0
 26
0.0
 36
1.0
 17
0.0
 27
0.0
 37
0.0
 40
4.27520703030907
 41
1.784313725490195
 42
50.0
 43
0.0
 44
0.0
 50
0.0
 51
0.0
 71
     0
 72
   500
 73
     1
 74
     1
 75
     0
 76
     0
 77
     0
 78
     0
  0
VPORT
  5
EF7C8556C
330
EF7C85523
100
AcDbSymbolTableRecord
100
AcDbViewportTableRecord
  2
4
 70
     0
 10
0.5
 20
0.5
 11
1.0
 21
1.0
 12
2.862090274555523
 22
1.052650975462766
 13
0.0
 23
0.0
 14
1.0
 24
1.0
 15
10.0
 25
10.0
 16
0.0
 26
0.0
 36
1.0
 17
0.0
 27
0.0
 37
0.0
 40
4.27520703030907
 41
1.772727272727272
 42
50.0
 43
0.0
 44
0.0
 50
0.0
 51
0.0
 71
     0
 72
   500
 73
     1
 74
     1
 75
     0
 76
     0
 77
     0
 78
     0
  0
VPORT
  5
EF7C8556D
330
EF7C85523
100
AcDbSymbolTableRecord
100
AcDbViewportTableRecord
  2
4
 70
     0
 10
0.0
 20
0.5
 11
0.5
 21
1.0
 12
2.862090274555523
 22
1.052650975462766
 13
0.0
 23
0.0
 14
1.0
 24
1.0
 15
10.0
 25
10.0
 16
0.0
 26
0.0
 36
1.0
 17
0.0
 27
0.0
 37
0.0
 40
4.27520703030907
 41
1.772727272727272
 42
50.0
 43
0.0
 44
0.0
 50
0.0
 51
0.0
 71
     0
 72
   500
 73
     1
 74
     1
 75
     0
 76
     0
 77
     0
 78
     0
  0
VPORT
  5
EF7C8556E
330
EF7C85523
100
AcDbSymbolTableRecord
100
AcDbViewportTableRecord
  2
4
 70
     0
 10
0.0
 20
0.0
 11
0.5
 21
0.5
 12
2.886857516709719
 22
1.052650975462766
 13
0.0
 23
0.0
 14
1.0
 24
1.0
 15
10.0
 25
10.0
 16
0.0
 26
0.0
 36
1.0
 17
0.0
 27
0.0
 37
0.0
 40
4.27520703030907
 41
1.784313725490195
 42
50.0
 43
0.0
 44
0.0
 50
0.0
 51
0.0
 71
     0
 72
   500
 73
     1
 74
     1
 75
     0
 76
     0
 77
     0
 78
     0
  0
VPORT
  5
EF7C8A4ED
330
EF7C85523
100
AcDbSymbolTableRecord
100
AcDbViewportTableRecord
  2
*ACTIVE
 70
     0
 10
0.0
 20
0.0
 11
1.0
 21
1.0
 12
143.585514641081
 22
141.5000113670388
 13
0.0
 23
0.0
 14
1.0
 24
1.0
 15
10.0
 25
10.0
 16
0.0
 26
0.0
 36
1.0
 17
0.0
 27
0.0
 37
0.0
 40
284.8873231818905
 41
1.764444444444444
 42
50.0
 43
0.0
 44
0.0
 50
0.0
 51
0.0
 71
     0
 72
   500
 73
     1
 74
     0
 75
     0
 76
     0
 77
     0
 78
     0
  0
ENDTAB
  0
TABLE
  2
LTYPE
  5
EF7C85520
330
0
100
AcDbSymbolTable
 70
     2
  0
LTYPE
  5
EF7C8552C
330
EF7C85520
100
AcDbSymbolTableRecord
100
AcDbLinetypeTableRecord
  2
BYBLOCK
 70
     0
  3

 72
    65
 73
     0
 40
0.0
  0
LTYPE
  5
EF7C8552D
330
EF7C85520
100
AcDbSymbolTableRecord
100
AcDbLinetypeTableRecord
  2
BYLAYER
 70
     0
  3

 72
    65
 73
     0
 40
0.0
  0
LTYPE
  5
EF7C8552E
330
EF7C85520
100
AcDbSymbolTableRecord
100
AcDbLinetypeTableRecord
  2
CONTINUOUS
 70
     0
  3
実線
 72
    65
 73
     0
 40
0.0
  0
LTYPE
  5
EF7C85565
330
EF7C85520
100
AcDbSymbolTableRecord
100
AcDbLinetypeTableRecord
  2
PHANTOM
 70
     0
  3
_____ _ _ _____ _ _ _____ _ _ _____ _ _ ____
 72
    65
 73
     6
 40
2.5
 49
1.25
 74
     0
 49
-0.25
 74
     0
 49
0.25
 74
     0
 49
-0.25
 74
     0
 49
0.25
 74
     0
 49
-0.25
 74
     0
  0
ENDTAB
  0
TABLE
  2
LAYER
  5
EF7C8551D
330
0
100
AcDbSymbolTable
 70
     8
  0
LAYER
  5
EF7C85529
330
EF7C8551D
100
AcDbSymbolTableRecord
100
AcDbLayerTableRecord
  2
0
 70
     0
 62
     6
  6
CONTINUOUS
  0
LAYER
  5
EF7C85574
330
EF7C8551D
100
AcDbSymbolTableRecord
100
AcDbLayerTableRecord
  2
NITEN
 70
     0
 62
     2
  6
PHANTOM
  0
LAYER
  5
EF7C85575
330
EF7C8551D
100
AcDbSymbolTableRecord
100
AcDbLayerTableRecord
  2
HATCH
 70
     0
 62
     4
  6
CONTINUOUS
  0
LAYER
  5
EF7C85576
330
EF7C8551D
100
AcDbSymbolTableRecord
100
AcDbLayerTableRecord
  2
SUNPOU
 70
     0
 62
     3
  6
CONTINUOUS
  0
LAYER
  5
EF7C85577
330
EF7C8551D
100
AcDbSymbolTableRecord
100
AcDbLayerTableRecord
  2
TEXT
 70
     0
 62
     3
  6
CONTINUOUS
  0
LAYER
  5
EF7C85578
330
EF7C8551D
100
AcDbSymbolTableRecord
100
AcDbLayerTableRecord
  2
SAISEN
 70
     0
 62
     4
  6
CONTINUOUS
  0
LAYER
  5
EF7C85579
330
EF7C8551D
100
AcDbSymbolTableRecord
100
AcDbLayerTableRecord
  2
JISSEN
 70
     0
 62
     7
  6
CONTINUOUS
  0
LAYER
  5
EF7C8557D
330
EF7C8551D
100
AcDbSymbolTableRecord
100
AcDbLayerTableRecord
  2
WAKU
 70
     0
 62
     5
  6
CONTINUOUS
  0
ENDTAB
  0
TABLE
  2
STYLE
  5
EF7C8551E
330
0
100
AcDbSymbolTable
 70
     3
  0
STYLE
  5
EF7C8552A
330
EF7C8551E
100
AcDbSymbolTableRecord
100
AcDbTextStyleTableRecord
  2
STANDARD
 70
     0
 40
0.0
 41
1.0
 50
0.0
 71
     0
 42
1.5
  3
SIMPLEX
  4

  0
STYLE
  5
EF7C85558
330
EF7C8551E
100
AcDbSymbolTableRecord
100
AcDbTextStyleTableRecord
  2
K
 70
     0
 40
0.0
 41
1.0
 50
0.0
 71
     0
 42
3.0
  3
ROMANS
  4
BIGFONT
  0
STYLE
  5
EF7C8555B
330
EF7C8551E
100
AcDbSymbolTableRecord
100
AcDbTextStyleTableRecord
  2
BIGFONT
 70
     0
 40
0.0
 41
1.0
 50
0.0
 71
     0
 42
3.0
  3
txt.shx
  4
bigfont
  0
ENDTAB
  0
TABLE
  2
VIEW
  5
EF7C85521
330
0
100
AcDbSymbolTable
 70
     0
  0
ENDTAB
  0
TABLE
  2
UCS
  5
EF7C85522
330
0
100
AcDbSymbolTable
 70
     0
  0
ENDTAB
  0
TABLE
  2
APPID
  5
EF7C85524
330
0
100
AcDbSymbolTable
 70
     1
  0
APPID
  5
EF7C8552B
330
EF7C85524
100
AcDbSymbolTableRecord
100
AcDbRegAppTableRecord
  2
ACAD
 70
     0
  0
ENDTAB
  0
TABLE
  2
DIMSTYLE
  5
EF7C85525
330
0
100
AcDbSymbolTable
 70
     2
  0
DIMSTYLE
105
EF7C85571
330
EF7C85525
100
AcDbSymbolTableRecord
100
AcDbDimStyleTableRecord
  2
IMAO
 70
     0
  3

  4

  5
ARROWANG
  6
ARROWANG
  7
ARROWANG
 40
1.0
 41
1.5
 42
1.0
 43
6.0
 44
1.0
 45
0.0
 46
0.0
 47
495.0
 48
0.0
140
3.0
141
0.0
142
0.0
143
25.4
144
1.0
145
0.0
146
1.0
147
0.09
 71
     0
 72
     0
 73
     0
 74
     0
 75
     0
 76
     0
 77
     1
 78
     8
170
     0
171
     2
172
     1
173
     0
174
     1
175
     0
176
     0
177
     0
178
     0
270
     2
271
     2
272
     2
273
     2
274
     2
340
EF7C8555B
275
     0
280
     0
281
     0
282
     0
283
     1
284
     8
285
     8
286
     8
287
     5
288
     0
  0
DIMSTYLE
105
EF7C87CA1
330
EF7C85525
100
AcDbSymbolTableRecord
100
AcDbDimStyleTableRecord
  2
STANDARD
 70
     0
  3

  4

  5

  6

  7

 40
1.0
 41
0.18
 42
0.0625
 43
0.38
 44
0.18
 45
0.0
 46
0.0
 47
0.0
 48
0.0
140
0.18
141
0.09
142
0.0
143
25.4
144
1.0
145
0.0
146
1.0
147
0.09
 71
     0
 72
     0
 73
     1
 74
     1
 75
     0
 76
     0
 77
     0
 78
     0
170
     0
171
     2
172
     0
173
     0
174
     0
175
     0
176
     0
177
     0
178
     0
270
     2
271
     4
272
     4
273
     2
274
     2
340
EF7C8552A
275
     0
280
     0
281
     0
282
     0
283
     1
284
     0
285
     0
286
     0
287
     3
288
     0
  0
ENDTAB
  0
TABLE
  2
BLOCK_RECORD
  5
EF7C8551C
330
0
100
AcDbSymbolTable
 70
    10
  0
BLOCK_RECORD
  5
EF7C85532
102
{ACAD_XDICTIONARY
360
EF7C85D9A
102
}
330
EF7C8551C
100
AcDbSymbolTableRecord
100
AcDbBlockTableRecord
  2
*MODEL_SPACE
  0
BLOCK_RECORD
  5
EF7C8552F
102
{ACAD_XDICTIONARY
360
EF7C85D98
102
}
330
EF7C8551C
100
AcDbSymbolTableRecord
100
AcDbBlockTableRecord
  2
*PAPER_SPACE
  0
BLOCK_RECORD
  5
EF7C85537
330
EF7C8551C
100
AcDbSymbolTableRecord
100
AcDbBlockTableRecord
  2
ARROW
  0
BLOCK_RECORD
  5
EF7C8553B
330
EF7C8551C
100
AcDbSymbolTableRecord
100
AcDbBlockTableRecord
  2
WAKU
  0
BLOCK_RECORD
  5
EF7C8553D
330
EF7C8551C
100
AcDbSymbolTableRecord
100
AcDbBlockTableRecord
  2
*X2
  0
BLOCK_RECORD
  5
EF7C8553E
330
EF7C8551C
100
AcDbSymbolTableRecord
100
AcDbBlockTableRecord
  2
STDGX5
  0
BLOCK_RECORD
  5
EF7C8553F
330
EF7C8551C
100
AcDbSymbolTableRecord
100
AcDbBlockTableRecord
  2
*X4
  0
BLOCK_RECORD
  5
EF7C85540
330
EF7C8551C
100
AcDbSymbolTableRecord
100
AcDbBlockTableRecord
  2
*X5
  0
BLOCK_RECORD
  5
EF7C85541
330
EF7C8551C
100
AcDbSymbolTableRecord
100
AcDbBlockTableRecord
  2
*X6
  0
BLOCK_RECORD
  5
EF7C85542
330
EF7C8551C
100
AcDbSymbolTableRecord
100
AcDbBlockTableRecord
  2
*X7
  0
BLOCK_RECORD
  5
EF7C85543
330
EF7C8551C
100
AcDbSymbolTableRecord
100
AcDbBlockTableRecord
  2
ARROWANG
  0
BLOCK_RECORD
  5
EF7C85544
330
EF7C8551C
100
AcDbSymbolTableRecord
100
AcDbBlockTableRecord
  2
STDR12J
  0
ENDTAB
  0
ENDSEC
  0
SECTION
  2
BLOCKS
  0
BLOCK
  5
EF7C85580
330
EF7C85532
100
AcDbEntity
  8
0
100
AcDbBlockBegin
  2
*MODEL_SPACE
 70
     0
 10
0.0
 20
0.0
 30
0.0
  3
*MODEL_SPACE
  1

  0
ENDBLK
  5
EF7C85581
330
EF7C85532
100
AcDbEntity
  8
0
100
AcDbBlockEnd
  0
BLOCK
  5
EF7C8557E
330
EF7C8552F
100
AcDbEntity
 67
     1
  8
0
100
AcDbBlockBegin
  2
*PAPER_SPACE
 70
     0
 10
0.0
 20
0.0
 30
0.0
  3
*PAPER_SPACE
  1

  0
ENDBLK
  5
EF7C8557F
330
EF7C8552F
100
AcDbEntity
 67
     1
  8
0
100
AcDbBlockEnd
  0
BLOCK
  5
499
330
EF7C85537
100
AcDbEntity
  8
0
100
AcDbBlockBegin
  2
ARROW
 70
     0
 10
1.0
 20
0.5
 30
0.0
  3
ARROW
  1

  0
LINE
  5
49A
330
EF7C85537
100
AcDbEntity
  8
0
100
AcDbLine
 10
1.0
 20
0.5
 30
0.0
 11
-0.5000000000000214
 21
0.0980762113533018
 31
0.0
  0
LINE
  5
49B
330
EF7C85537
100
AcDbEntity
  8
0
100
AcDbLine
 10
0.0
 20
0.5
 30
0.0
 11
1.0
 21
0.5
 31
0.0
  0
LINE
  5
49C
330
EF7C85537
100
AcDbEntity
  8
0
100
AcDbLine
 10
1.0
 20
0.5
 30
0.0
 11
-0.4999999999999574
 21
0.9019237886467408
 31
0.0
  0
ENDBLK
  5
49D
330
EF7C85537
100
AcDbEntity
  8
0
100
AcDbBlockEnd
  0
BLOCK
  5
4A7
330
EF7C8553B
100
AcDbEntity
  8
0
100
AcDbBlockBegin
  2
WAKU
 70
     0
 10
0.0
 20
0.0
 30
0.0
  3
WAKU
  1

  0
LINE
  5
4A8
330
EF7C8553B
100
AcDbEntity
  8
WAKU
100
AcDbLine
 10
0.999999996
 20
0.0
 30
0.0
 11
0.999999996
 21
0.9999999999999998
 31
0.0
  0
LINE
  5
4A9
330
EF7C8553B
100
AcDbEntity
  8
WAKU
100
AcDbLine
 10
0.0
 20
0.9999999999999998
 30
0.0
 11
0.999999996
 21
0.9999999999999998
 31
0.0
  0
LINE
  5
4AA
330
EF7C8553B
100
AcDbEntity
  8
WAKU
100
AcDbLine
 10
0.999999996
 20
0.0
 30
0.0
 11
0.0
 21
0.0
 31
0.0
  0
LINE
  5
4AB
330
EF7C8553B
100
AcDbEntity
  8
WAKU
100
AcDbLine
 10
0.0
 20
0.0
 30
0.0
 11
0.0
 21
0.9999999999999998
 31
0.0
  0
ENDBLK
  5
4AC
330
EF7C8553B
100
AcDbEntity
  8
0
100
AcDbBlockEnd
  0
BLOCK
  5
2764
330
EF7C8553D
100
AcDbEntity
  8
0
100
AcDbBlockBegin
  2
*X2
 70
     1
 10
0.0
 20
0.0
 30
0.0
  3
*X2
  1

  0
ENDBLK
  5
2765
330
EF7C8553D
100
AcDbEntity
  8
0
100
AcDbBlockEnd
  0
BLOCK
  5
2766
330
EF7C8553E
100
AcDbEntity
  8
0
100
AcDbBlockBegin
  2
STDGX5
 70
     0
 10
0.0
 20
0.0
 30
0.0
  3
STDGX5
  1

  0
ENDBLK
  5
2767
330
EF7C8553E
100
AcDbEntity
  8
0
100
AcDbBlockEnd
  0
BLOCK
  5
2F5A
330
EF7C8553F
100
AcDbEntity
  8
0
100
AcDbBlockBegin
  2
*X4
 70
     1
 10
0.0
 20
0.0
 30
0.0
  3
*X4
  1

  0
ENDBLK
  5
2F5B
330
EF7C8553F
100
AcDbEntity
  8
0
100
AcDbBlockEnd
  0
BLOCK
  5
32BB
330
EF7C85540
100
AcDbEntity
  8
0
100
AcDbBlockBegin
  2
*X5
 70
     1
 10
0.0
 20
0.0
 30
0.0
  3
*X5
  1

  0
ENDBLK
  5
32BC
330
EF7C85540
100
AcDbEntity
  8
0
100
AcDbBlockEnd
  0
BLOCK
  5
372F
330
EF7C85541
100
AcDbEntity
  8
0
100
AcDbBlockBegin
  2
*X6
 70
     1
 10
0.0
 20
0.0
 30
0.0
  3
*X6
  1

  0
ENDBLK
  5
3730
330
EF7C85541
100
AcDbEntity
  8
0
100
AcDbBlockEnd
  0
BLOCK
  5
3A6D
330
EF7C85542
100
AcDbEntity
  8
0
100
AcDbBlockBegin
  2
*X7
 70
     1
 10
0.0
 20
0.0
 30
0.0
  3
*X7
  1

  0
ENDBLK
  5
3A6E
330
EF7C85542
100
AcDbEntity
  8
0
100
AcDbBlockEnd
  0
BLOCK
  5
4CC9
330
EF7C85543
100
AcDbEntity
  8
0
100
AcDbBlockBegin
  2
ARROWANG
 70
     0
 10
0.0
 20
0.0
 30
0.0
  3
ARROWANG
  1

  0
LINE
  5
4CCA
330
EF7C85543
100
AcDbEntity
  8
SUNPOU
100
AcDbLine
 10
0.0
 20
0.0
 30
0.0
 11
-1.499999999999957
 21
0.4019237886467409
 31
0.0
  0
LINE
  5
4CCB
330
EF7C85543
100
AcDbEntity
  8
SUNPOU
100
AcDbLine
 10
0.0
 20
0.0
 30
0.0
 11
-1.500000000000028
 21
-0.4019237886467124
 31
0.0
  0
ENDBLK
  5
4CCC
330
EF7C85543
100
AcDbEntity
  8
0
100
AcDbBlockEnd
  0
BLOCK
  5
4CCD
330
EF7C85544
100
AcDbEntity
  8
0
100
AcDbBlockBegin
  2
STDR12J
 70
     0
 10
0.0
 20
0.0
 30
0.0
  3
STDR12J
  1

  0
ENDBLK
  5
4CF2
330
EF7C85544
100
AcDbEntity
  8
0
100
AcDbBlockEnd
  0
ENDSEC
  0
SECTION
  2
ENTITIES
  0
TEXT
  5
1
330
EF7C85532
100
AcDbEntity
  8
SUNPOU
100
AcDbText
 10
95.05869565217389
 20
43.7966872748706
 30
0.0
 40
1.5
  1
                          
100
AcDbText
  0
TEXT
  5
2
330
EF7C85532
100
AcDbEntity
  8
SUNPOU
100
AcDbText
 10
332.2793466870868
 20
21.8983436374353
 30
0.0
 40
0.75
  1
                          
100
AcDbText
  0
TEXT
  5
1A
330
EF7C85532
100
AcDbEntity
  8
SUNPOU
100
AcDbText
 10
289.9834441000535
 20
43.7966872748706
 30
0.0
 40
1.5
  1
                          
100
AcDbText
  0
TEXT
  5
1B
330
EF7C85532
100
AcDbEntity
  8
SUNPOU
100
AcDbText
 10
527.2040951349665
 20
21.8983436374353
 30
0.0
 40
0.75
  1
                          
100
AcDbText
  0
TEXT
  5
1C
330
EF7C85532
100
AcDbEntity
  8
SUNPOU
100
AcDbText
 10
490.6272568090836
 20
43.79668727487057
 30
0.0
 40
1.5
  1
                          
100
AcDbText
  0
TEXT
  5
1D
330
EF7C85532
100
AcDbEntity
  8
SUNPOU
100
AcDbText
 10
727.8479078439966
 20
21.89834363743527
 30
0.0
 40
0.75
  1
                          
100
AcDbText
  0
INSERT
  5
1E
330
EF7C85532
100
AcDbEntity
  8
HATCH
100
AcDbBlockReference
  2
*X2
 10
194.9247484478796
 20
0.0
 30
0.0
  0
TEXT
  5
1F
330
EF7C85532
100
AcDbEntity
  8
SUNPOU
100
AcDbText
 10
493.0101992368964
 20
43.7966872748706
 30
0.0
 40
1.5
  1
                          
100
AcDbText
  0
TEXT
  5
20
330
EF7C85532
100
AcDbEntity
  8
SUNPOU
100
AcDbText
 10
730.2308502718094
 20
21.8983436374353
 30
0.0
 40
0.75
  1
                          
100
AcDbText
  0
TEXT
  5
21
330
EF7C85532
100
AcDbEntity
  8
SUNPOU
100
AcDbText
 10
482.0486607753579
 20
43.7966872748706
 30
0.0
 40
1.5
  1
                          
100
AcDbText
  0
TEXT
  5
22
330
EF7C85532
100
AcDbEntity
  8
SUNPOU
100
AcDbText
 10
719.269311810271
 20
21.8983436374353
 30
0.0
 40
0.75
  1
                          
100
AcDbText
  0
INSERT
  5
25
330
EF7C85532
100
AcDbEntity
  8
JISSEN
100
AcDbBlockReference
  2
STDGX5
 10
0.0
 20
0.0
 30
0.0
  0
TEXT
  5
60
330
EF7C85532
100
AcDbEntity
  8
SUNPOU
100
AcDbText
 10
274.0586949361738
 20
43.7966872748706
 30
0.0
 40
1.5
  1
                          
100
AcDbText
  0
TEXT
  5
61
330
EF7C85532
100
AcDbEntity
  8
SUNPOU
100
AcDbText
 10
511.2793459710869
 20
21.8983436374353
 30
0.0
 40
0.75
  1
                          
100
AcDbText
  0
TEXT
  5
62
330
EF7C85532
100
AcDbEntity
  8
SUNPOU
100
AcDbText
 10
474.702507645204
 20
43.79668727487057
 30
0.0
 40
1.5
  1
                          
100
AcDbText
  0
TEXT
  5
63
330
EF7C85532
100
AcDbEntity
  8
SUNPOU
100
AcDbText
 10
711.923158680117
 20
21.89834363743527
 30
0.0
 40
0.75
  1
                          
100
AcDbText
  0
INSERT
  5
64
330
EF7C85532
100
AcDbEntity
  8
HATCH
100
AcDbBlockReference
  2
*X4
 10
178.999999284
 20
0.0
 30
0.0
  0
TEXT
  5
65
330
EF7C85532
100
AcDbEntity
  8
SUNPOU
100
AcDbText
 10
477.0854500730167
 20
43.7966872748706
 30
0.0
 40
1.5
  1
                          
100
AcDbText
  0
TEXT
  5
66
330
EF7C85532
100
AcDbEntity
  8
SUNPOU
100
AcDbText
 10
714.3061011079298
 20
21.8983436374353
 30
0.0
 40
0.75
  1
                          
100
AcDbText
  0
TEXT
  5
67
330
EF7C85532
100
AcDbEntity
  8
SUNPOU
100
AcDbText
 10
466.1239116114783
 20
43.7966872748706
 30
0.0
 40
1.5
  1
                          
100
AcDbText
  0
TEXT
  5
68
330
EF7C85532
100
AcDbEntity
  8
SUNPOU
100
AcDbText
 10
703.3445626463913
 20
21.8983436374353
 30
0.0
 40
0.75
  1
                          
100
AcDbText
  0
INSERT
  5
69
330
EF7C85532
100
AcDbEntity
  8
TEXT
100
AcDbBlockReference
  2
STDGX5
 10
178.999999284
 20
0.0
 30
0.0
  0
TEXT
  5
6A
330
EF7C85532
100
AcDbEntity
  8
SUNPOU
100
AcDbText
 10
453.0586949361739
 20
43.7966872748706
 30
0.0
 40
1.5
  1
                          
100
AcDbText
  0
TEXT
  5
6B
330
EF7C85532
100
AcDbEntity
  8
SUNPOU
100
AcDbText
 10
690.279345971087
 20
21.8983436374353
 30
0.0
 40
0.75
  1
                          
100
AcDbText
  0
TEXT
  5
6C
330
EF7C85532
100
AcDbEntity
  8
SUNPOU
100
AcDbText
 10
647.9834433840535
 20
43.7966872748706
 30
0.0
 40
1.5
  1
                          
100
AcDbText
  0
TEXT
  5
6D
330
EF7C85532
100
AcDbEntity
  8
SUNPOU
100
AcDbText
 10
885.2040944189665
 20
21.8983436374353
 30
0.0
 40
0.75
  1
                          
100
AcDbText
  0
TEXT
  5
6E
330
EF7C85532
100
AcDbEntity
  8
SUNPOU
100
AcDbText
 10
848.6272560930835
 20
43.79668727487057
 30
0.0
 40
1.5
  1
                          
100
AcDbText
  0
TEXT
  5
6F
330
EF7C85532
100
AcDbEntity
  8
SUNPOU
100
AcDbText
 10
1085.847907127996
 20
21.89834363743527
 30
0.0
 40
0.75
  1
                          
100
AcDbText
  0
INSERT
  5
70
330
EF7C85532
100
AcDbEntity
  8
HATCH
100
AcDbBlockReference
  2
*X5
 10
552.9247477318797
 20
0.0
 30
0.0
  0
TEXT
  5
71
330
EF7C85532
100
AcDbEntity
  8
SUNPOU
100
AcDbText
 10
851.0101985208963
 20
43.7966872748706
 30
0.0
 40
1.5
  1
                          
100
AcDbText
  0
TEXT
  5
72
330
EF7C85532
100
AcDbEntity
  8
SUNPOU
100
AcDbText
 10
1088.230849555809
 20
21.8983436374353
 30
0.0
 40
0.75
  1
                          
100
AcDbText
  0
TEXT
  5
73
330
EF7C85532
100
AcDbEntity
  8
SUNPOU
100
AcDbText
 10
840.048660059358
 20
43.7966872748706
 30
0.0
 40
1.5
  1
                          
100
AcDbText
  0
TEXT
  5
74
330
EF7C85532
100
AcDbEntity
  8
SUNPOU
100
AcDbText
 10
1077.269311094271
 20
21.8983436374353
 30
0.0
 40
0.75
  1
                          
100
AcDbText
  0
INSERT
  5
75
330
EF7C85532
100
AcDbEntity
  8
JISSEN
100
AcDbBlockReference
  2
STDGX5
 10
357.999999284
 20
0.0
 30
0.0
  0
TEXT
  5
76
330
EF7C85532
100
AcDbEntity
  8
SUNPOU
100
AcDbText
 10
453.0586949361739
 20
43.7966872748706
 30
0.0
 40
1.5
  1
                          
100
AcDbText
  0
TEXT
  5
77
330
EF7C85532
100
AcDbEntity
  8
SUNPOU
100
AcDbText
 10
690.279345971087
 20
21.8983436374353
 30
0.0
 40
0.75
  1
                          
100
AcDbText
  0
TEXT
  5
78
330
EF7C85532
100
AcDbEntity
  8
SUNPOU
100
AcDbText
 10
647.9834433840535
 20
43.7966872748706
 30
0.0
 40
1.5
  1
                          
100
AcDbText
  0
TEXT
  5
79
330
EF7C85532
100
AcDbEntity
  8
SUNPOU
100
AcDbText
 10
885.2040944189665
 20
21.8983436374353
 30
0.0
 40
0.75
  1
                          
100
AcDbText
  0
TEXT
  5
7A
330
EF7C85532
100
AcDbEntity
  8
SUNPOU
100
AcDbText
 10
848.6272560930835
 20
43.79668727487057
 30
0.0
 40
1.5
  1
                          
100
AcDbText
  0
TEXT
  5
7B
330
EF7C85532
100
AcDbEntity
  8
SUNPOU
100
AcDbText
 10
1085.847907127996
 20
21.89834363743527
 30
0.0
 40
0.75
  1
                          
100
AcDbText
  0
INSERT
  5
7C
330
EF7C85532
100
AcDbEntity
  8
HATCH
100
AcDbBlockReference
  2
*X6
 10
552.9247477318797
 20
0.0
 30
0.0
  0
TEXT
  5
7D
330
EF7C85532
100
AcDbEntity
  8
SUNPOU
100
AcDbText
 10
851.0101985208963
 20
43.7966872748706
 30
0.0
 40
1.5
  1
                          
100
AcDbText
  0
TEXT
  5
7E
330
EF7C85532
100
AcDbEntity
  8
SUNPOU
100
AcDbText
 10
1088.230849555809
 20
21.8983436374353
 30
0.0
 40
0.75
  1
                          
100
AcDbText
  0
TEXT
  5
7F
330
EF7C85532
100
AcDbEntity
  8
SUNPOU
100
AcDbText
 10
840.048660059358
 20
43.7966872748706
 30
0.0
 40
1.5
  1
                          
100
AcDbText
  0
TEXT
  5
80
330
EF7C85532
100
AcDbEntity
  8
SUNPOU
100
AcDbText
 10
1077.269311094271
 20
21.8983436374353
 30
0.0
 40
0.75
  1
                          
100
AcDbText
  0
INSERT
  5
81
330
EF7C85532
100
AcDbEntity
  8
JISSEN
100
AcDbBlockReference
  2
STDGX5
 10
357.999999284
 20
0.0
 30
0.0
  0
TEXT
  5
82
330
EF7C85532
100
AcDbEntity
  8
SUNPOU
100
AcDbText
 10
632.0586942201739
 20
43.7966872748706
 30
0.0
 40
1.5
  1
                          
100
AcDbText
  0
TEXT
  5
83
330
EF7C85532
100
AcDbEntity
  8
SUNPOU
100
AcDbText
 10
869.2793452550871
 20
21.8983436374353
 30
0.0
 40
0.75
  1
                          
100
AcDbText
  0
TEXT
  5
84
330
EF7C85532
100
AcDbEntity
  8
SUNPOU
100
AcDbText
 10
826.9834426680535
 20
43.7966872748706
 30
0.0
 40
1.5
  1
                          
100
AcDbText
  0
TEXT
  5
85
330
EF7C85532
100
AcDbEntity
  8
SUNPOU
100
AcDbText
 10
1064.204093702966
 20
21.8983436374353
 30
0.0
 40
0.75
  1
                          
100
AcDbText
  0
TEXT
  5
86
330
EF7C85532
100
AcDbEntity
  8
SUNPOU
100
AcDbText
 10
1027.627255377083
 20
43.79668727487057
 30
0.0
 40
1.5
  1
                          
100
AcDbText
  0
TEXT
  5
87
330
EF7C85532
100
AcDbEntity
  8
SUNPOU
100
AcDbText
 10
1264.847906411996
 20
21.89834363743527
 30
0.0
 40
0.75
  1
                          
100
AcDbText
  0
INSERT
  5
88
330
EF7C85532
100
AcDbEntity
  8
HATCH
100
AcDbBlockReference
  2
*X7
 10
731.9247470158797
 20
0.0
 30
0.0
  0
TEXT
  5
89
330
EF7C85532
100
AcDbEntity
  8
SUNPOU
100
AcDbText
 10
1030.010197804896
 20
43.7966872748706
 30
0.0
 40
1.5
  1
                          
100
AcDbText
  0
TEXT
  5
8A
330
EF7C85532
100
AcDbEntity
  8
SUNPOU
100
AcDbText
 10
1267.230848839809
 20
21.8983436374353
 30
0.0
 40
0.75
  1
                          
100
AcDbText
  0
TEXT
  5
8B
330
EF7C85532
100
AcDbEntity
  8
SUNPOU
100
AcDbText
 10
1019.048659343358
 20
43.7966872748706
 30
0.0
 40
1.5
  1
                          
100
AcDbText
  0
TEXT
  5
8C
330
EF7C85532
100
AcDbEntity
  8
SUNPOU
100
AcDbText
 10
1256.269310378271
 20
21.8983436374353
 30
0.0
 40
0.75
  1
                          
100
AcDbText
  0
INSERT
  5
8D
330
EF7C85532
100
AcDbEntity
  8
JISSEN
100
AcDbBlockReference
  2
STDGX5
 10
536.999998568
 20
0.0
 30
0.0
  0
INSERT
  5
8E
330
EF7C85532
100
AcDbEntity
  8
SUNPOU
100
AcDbBlockReference
  2
STDGX5
 10
739.0804232644236
 20
50.83533235670902
 30
0.0
 41
0.5
 42
0.5
 43
0.5
  0
INSERT
  5
8F
330
EF7C85532
100
AcDbEntity
  8
SUNPOU
100
AcDbBlockReference
  2
STDGX5
 10
726.2208210623692
 20
105.0763138619288
 30
0.0
 41
0.5
 42
0.5
 43
0.5
  0
INSERT
  5
90
330
EF7C85532
100
AcDbEntity
  8
HATCH
100
AcDbBlockReference
  2
STDGX5
 10
852.3985550581901
 20
151.7065097967401
 30
0.0
 41
0.5
 42
0.5
 43
0.5
  0
INSERT
  5
91
330
EF7C85532
100
AcDbEntity
  8
HATCH
100
AcDbBlockReference
  2
STDGX5
 10
866.6806796277285
 20
102.7017487639613
 30
0.0
 41
0.5
 42
0.5
 43
0.5
  0
INSERT
  5
92
330
EF7C85532
100
AcDbEntity
  8
TEXT
100
AcDbBlockReference
  2
STDGX5
 10
970.3434408521969
 20
102.8213468229236
 30
0.0
 41
0.5
 42
0.5
 43
0.5
  0
INSERT
  5
93
330
EF7C85532
100
AcDbEntity
  8
SUNPOU
100
AcDbBlockReference
  2
STDGX5
 10
996.1728907397869
 20
174.5475645486174
 30
0.0
 41
0.5
 42
0.5
 43
0.5
  0
INSERT
  5
94
330
EF7C85532
100
AcDbEntity
  8
TEXT
100
AcDbBlockReference
  2
STDGX5
 10
725.7513886810995
 20
124.5860190441302
 30
0.0
 41
0.5
 42
0.5
 43
0.5
  0
INSERT
  5
95
330
EF7C85532
100
AcDbEntity
  8
HATCH
100
AcDbBlockReference
  2
STDGX5
 10
777.1755722656421
 20
145.5222028932424
 30
0.0
 41
0.5
 42
0.5
 43
0.5
  0
INSERT
  5
96
330
EF7C85532
100
AcDbEntity
  8
SUNPOU
100
AcDbBlockReference
  2
STDGX5
 10
846.1963575359604
 20
112.6957974729892
 30
0.0
 41
0.5
 42
0.5
 43
0.5
  0
INSERT
  5
97
330
EF7C85532
100
AcDbEntity
  8
SUNPOU
100
AcDbBlockReference
  2
STDGX5
 10
916.6681156211122
 20
121.7330617103085
 30
0.0
 41
0.5
 42
0.5
 43
0.5
  0
INSERT
  5
98
330
EF7C85532
100
AcDbEntity
  8
TEXT
100
AcDbBlockReference
  2
STDGX5
 10
983.7969461426769
 20
84.61852224867081
 30
0.0
 41
0.5
 42
0.5
 43
0.5
  0
INSERT
  5
99
330
EF7C85532
100
AcDbEntity
  8
HATCH
100
AcDbBlockReference
  2
STDGX5
 10
974.2802715042099
 20
136.4849386559231
 30
0.0
 41
0.5
 42
0.5
 43
0.5
  0
INSERT
  5
9A
330
EF7C85532
100
AcDbEntity
  8
SUNPOU
100
AcDbBlockReference
  2
STDGX5
 10
749.7834008663489
 20
95.14721172234004
 30
0.0
 41
0.5
 42
0.5
 43
0.5
  0
INSERT
  5
9B
330
EF7C85532
100
AcDbEntity
  8
SUNPOU
100
AcDbBlockReference
  2
STDGX5
 10
736.9237986642947
 20
149.3881932275598
 30
0.0
 41
0.5
 42
0.5
 43
0.5
  0
INSERT
  5
9C
330
EF7C85532
100
AcDbEntity
  8
HATCH
100
AcDbBlockReference
  2
STDGX5
 10
863.1015326601156
 20
196.0183891623711
 30
0.0
 41
0.5
 42
0.5
 43
0.5
  0
INSERT
  5
9D
330
EF7C85532
100
AcDbEntity
  8
HATCH
100
AcDbBlockReference
  2
STDGX5
 10
877.3836572296538
 20
147.0136281295923
 30
0.0
 41
0.5
 42
0.5
 43
0.5
  0
INSERT
  5
9E
330
EF7C85532
100
AcDbEntity
  8
TEXT
100
AcDbBlockReference
  2
STDGX5
 10
981.0464184541224
 20
147.1332261885546
 30
0.0
 41
0.5
 42
0.5
 43
0.5
  0
INSERT
  5
9F
330
EF7C85532
100
AcDbEntity
  8
SUNPOU
100
AcDbBlockReference
  2
STDGX5
 10
1006.875868341712
 20
218.8594439142484
 30
0.0
 41
0.5
 42
0.5
 43
0.5
  0
INSERT
  5
A0
330
EF7C85532
100
AcDbEntity
  8
TEXT
100
AcDbBlockReference
  2
STDGX5
 10
736.4543662830251
 20
168.8978984097612
 30
0.0
 41
0.5
 42
0.5
 43
0.5
  0
INSERT
  5
A1
330
EF7C85532
100
AcDbEntity
  8
HATCH
100
AcDbBlockReference
  2
STDGX5
 10
787.8785498675677
 20
189.8340822588735
 30
0.0
 41
0.5
 42
0.5
 43
0.5
  0
INSERT
  5
A2
330
EF7C85532
100
AcDbEntity
  8
SUNPOU
100
AcDbBlockReference
  2
STDGX5
 10
856.899335137886
 20
157.0076768386202
 30
0.0
 41
0.5
 42
0.5
 43
0.5
  0
INSERT
  5
A3
330
EF7C85532
100
AcDbEntity
  8
SUNPOU
100
AcDbBlockReference
  2
STDGX5
 10
927.3710932230379
 20
166.0449410759395
 30
0.0
 41
0.5
 42
0.5
 43
0.5
  0
INSERT
  5
A4
330
EF7C85532
100
AcDbEntity
  8
TEXT
100
AcDbBlockReference
  2
STDGX5
 10
994.4999237446024
 20
128.9304016143018
 30
0.0
 41
0.5
 42
0.5
 43
0.5
  0
INSERT
  5
A5
330
EF7C85532
100
AcDbEntity
  8
HATCH
100
AcDbBlockReference
  2
STDGX5
 10
984.9832491061354
 20
180.7968180215541
 30
0.0
 41
0.5
 42
0.5
 43
0.5
  0
TEXT
  5
DE
330
EF7C85532
100
AcDbEntity
  8
SUNPOU
100
AcDbText
 10
274.0586949361738
 20
43.7966872748706
 30
0.0
 40
1.5
  1
                          
100
AcDbText
  0
TEXT
  5
145
330
EF7C85532
100
AcDbEntity
  8
SUNPOU
100
AcDbText
 10
511.2793459710869
 20
21.8983436374353
 30
0.0
 40
0.75
  1
                          
100
AcDbText
  0
TEXT
  5
265
330
EF7C85532
100
AcDbEntity
  8
SUNPOU
100
AcDbText
 10
474.702507645204
 20
43.79668727487057
 30
0.0
 40
1.5
  1
                          
100
AcDbText
  0
TEXT
  5
266
330
EF7C85532
100
AcDbEntity
  8
SUNPOU
100
AcDbText
 10
711.923158680117
 20
21.89834363743527
 30
0.0
 40
0.75
  1
                          
100
AcDbText
  0
INSERT
  5
2F7
330
EF7C85532
100
AcDbEntity
  8
HATCH
100
AcDbBlockReference
  2
*X4
 10
178.999999284
 20
0.0
 30
0.0
  0
TEXT
  5
31A
330
EF7C85532
100
AcDbEntity
  8
SUNPOU
100
AcDbText
 10
477.0854500730167
 20
43.7966872748706
 30
0.0
 40
1.5
  1
                          
100
AcDbText
  0
TEXT
  5
31C
330
EF7C85532
100
AcDbEntity
  8
SUNPOU
100
AcDbText
 10
714.3061011079298
 20
21.8983436374353
 30
0.0
 40
0.75
  1
                          
100
AcDbText
  0
TEXT
  5
3A6
330
EF7C85532
100
AcDbEntity
  8
TEXT
100
AcDbText
 10
100.9999992839998
 20
244.9999999999999
 30
0.0
 40
3.0
  1
 
  7
K
100
AcDbText
  0
TEXT
  5
3AB
330
EF7C85532
100
AcDbEntity
  8
SUNPOU
100
AcDbText
 10
466.1239116114783
 20
43.7966872748706
 30
0.0
 40
1.5
  1
                          
100
AcDbText
  0
TEXT
  5
3AC
330
EF7C85532
100
AcDbEntity
  8
SUNPOU
100
AcDbText
 10
703.3445626463913
 20
21.8983436374353
 30
0.0
 40
0.75
  1
                          
100
AcDbText
  0
INSERT
  5
3F6
330
EF7C85532
100
AcDbEntity
  8
TEXT
100
AcDbBlockReference
  2
STDGX5
 10
178.999999284
 20
0.0
 30
0.0
  0
TEXT
  5
3F7
330
EF7C85532
100
AcDbEntity
  8
SUNPOU
100
AcDbText
 10
453.0586949361739
 20
43.7966872748706
 30
0.0
 40
1.5
  1
                          
100
AcDbText
  0
TEXT
  5
3F8
330
EF7C85532
100
AcDbEntity
  8
SUNPOU
100
AcDbText
 10
690.279345971087
 20
21.8983436374353
 30
0.0
 40
0.75
  1
                          
100
AcDbText
  0
TEXT
  5
3F9
330
EF7C85532
100
AcDbEntity
  8
SUNPOU
100
AcDbText
 10
647.9834433840535
 20
43.7966872748706
 30
0.0
 40
1.5
  1
                          
100
AcDbText
  0
TEXT
  5
3FA
330
EF7C85532
100
AcDbEntity
  8
SUNPOU
100
AcDbText
 10
885.2040944189665
 20
21.8983436374353
 30
0.0
 40
0.75
  1
                          
100
AcDbText
  0
TEXT
  5
3FB
330
EF7C85532
100
AcDbEntity
  8
SUNPOU
100
AcDbText
 10
848.6272560930835
 20
43.79668727487057
 30
0.0
 40
1.5
  1
                          
100
AcDbText
  0
TEXT
  5
3FC
330
EF7C85532
100
AcDbEntity
  8
SUNPOU
100
AcDbText
 10
1085.847907127996
 20
21.89834363743527
 30
0.0
 40
0.75
  1
                          
100
AcDbText
  0
INSERT
  5
3FD
330
EF7C85532
100
AcDbEntity
  8
HATCH
100
AcDbBlockReference
  2
*X5
 10
552.9247477318797
 20
0.0
 30
0.0
  0
TEXT
  5
3FE
330
EF7C85532
100
AcDbEntity
  8
SUNPOU
100
AcDbText
 10
851.0101985208963
 20
43.7966872748706
 30
0.0
 40
1.5
  1
                          
100
AcDbText
  0
TEXT
  5
3FF
330
EF7C85532
100
AcDbEntity
  8
SUNPOU
100
AcDbText
 10
1088.230849555809
 20
21.8983436374353
 30
0.0
 40
0.75
  1
                          
100
AcDbText
  0
TEXT
  5
400
330
EF7C85532
100
AcDbEntity
  8
SUNPOU
100
AcDbText
 10
840.048660059358
 20
43.7966872748706
 30
0.0
 40
1.5
  1
                          
100
AcDbText
  0
TEXT
  5
401
330
EF7C85532
100
AcDbEntity
  8
SUNPOU
100
AcDbText
 10
1077.269311094271
 20
21.8983436374353
 30
0.0
 40
0.75
  1
                          
100
AcDbText
  0
INSERT
  5
402
330
EF7C85532
100
AcDbEntity
  8
JISSEN
100
AcDbBlockReference
  2
STDGX5
 10
357.999999284
 20
0.0
 30
0.0
  0
TEXT
  5
409
330
EF7C85532
100
AcDbEntity
  8
SUNPOU
100
AcDbText
 10
453.0586949361739
 20
43.7966872748706
 30
0.0
 40
1.5
  1
                          
100
AcDbText
  0
TEXT
  5
40A
330
EF7C85532
100
AcDbEntity
  8
SUNPOU
100
AcDbText
 10
690.279345971087
 20
21.8983436374353
 30
0.0
 40
0.75
  1
                          
100
AcDbText
  0
TEXT
  5
41B
330
EF7C85532
100
AcDbEntity
  8
SUNPOU
100
AcDbText
 10
647.9834433840535
 20
43.7966872748706
 30
0.0
 40
1.5
  1
                          
100
AcDbText
  0
TEXT
  5
41C
330
EF7C85532
100
AcDbEntity
  8
SUNPOU
100
AcDbText
 10
885.2040944189665
 20
21.8983436374353
 30
0.0
 40
0.75
  1
                          
100
AcDbText
  0
TEXT
  5
41D
330
EF7C85532
100
AcDbEntity
  8
SUNPOU
100
AcDbText
 10
848.6272560930835
 20
43.79668727487057
 30
0.0
 40
1.5
  1
                          
100
AcDbText
  0
TEXT
  5
41E
330
EF7C85532
100
AcDbEntity
  8
SUNPOU
100
AcDbText
 10
1085.847907127996
 20
21.89834363743527
 30
0.0
 40
0.75
  1
                          
100
AcDbText
  0
INSERT
  5
41F
330
EF7C85532
100
AcDbEntity
  8
HATCH
100
AcDbBlockReference
  2
*X6
 10
552.9247477318797
 20
0.0
 30
0.0
  0
TEXT
  5
420
330
EF7C85532
100
AcDbEntity
  8
SUNPOU
100
AcDbText
 10
851.0101985208963
 20
43.7966872748706
 30
0.0
 40
1.5
  1
                          
100
AcDbText
  0
TEXT
  5
421
330
EF7C85532
100
AcDbEntity
  8
SUNPOU
100
AcDbText
 10
1088.230849555809
 20
21.8983436374353
 30
0.0
 40
0.75
  1
                          
100
AcDbText
  0
TEXT
  5
422
330
EF7C85532
100
AcDbEntity
  8
SUNPOU
100
AcDbText
 10
840.048660059358
 20
43.7966872748706
 30
0.0
 40
1.5
  1
                          
100
AcDbText
  0
TEXT
  5
423
330
EF7C85532
100
AcDbEntity
  8
SUNPOU
100
AcDbText
 10
1077.269311094271
 20
21.8983436374353
 30
0.0
 40
0.75
  1
                          
100
AcDbText
  0
INSERT
  5
424
330
EF7C85532
100
AcDbEntity
  8
JISSEN
100
AcDbBlockReference
  2
STDGX5
 10
357.999999284
 20
0.0
 30
0.0
  0
TEXT
  5
425
330
EF7C85532
100
AcDbEntity
  8
SUNPOU
100
AcDbText
 10
632.0586942201739
 20
43.7966872748706
 30
0.0
 40
1.5
  1
                          
100
AcDbText
  0
TEXT
  5
426
330
EF7C85532
100
AcDbEntity
  8
SUNPOU
100
AcDbText
 10
869.2793452550871
 20
21.8983436374353
 30
0.0
 40
0.75
  1
                          
100
AcDbText
  0
TEXT
  5
427
330
EF7C85532
100
AcDbEntity
  8
SUNPOU
100
AcDbText
 10
826.9834426680535
 20
43.7966872748706
 30
0.0
 40
1.5
  1
                          
100
AcDbText
  0
TEXT
  5
428
330
EF7C85532
100
AcDbEntity
  8
SUNPOU
100
AcDbText
 10
1064.204093702966
 20
21.8983436374353
 30
0.0
 40
0.75
  1
                          
100
AcDbText
  0
TEXT
  5
429
330
EF7C85532
100
AcDbEntity
  8
SUNPOU
100
AcDbText
 10
1027.627255377083
 20
43.79668727487057
 30
0.0
 40
1.5
  1
                          
100
AcDbText
  0
TEXT
  5
42A
330
EF7C85532
100
AcDbEntity
  8
SUNPOU
100
AcDbText
 10
1264.847906411996
 20
21.89834363743527
 30
0.0
 40
0.75
  1
                          
100
AcDbText
  0
INSERT
  5
42B
330
EF7C85532
100
AcDbEntity
  8
HATCH
100
AcDbBlockReference
  2
*X7
 10
731.9247470158797
 20
0.0
 30
0.0
  0
TEXT
  5
42C
330
EF7C85532
100
AcDbEntity
  8
SUNPOU
100
AcDbText
 10
1030.010197804896
 20
43.7966872748706
 30
0.0
 40
1.5
  1
                          
100
AcDbText
  0
TEXT
  5
42D
330
EF7C85532
100
AcDbEntity
  8
SUNPOU
100
AcDbText
 10
1267.230848839809
 20
21.8983436374353
 30
0.0
 40
0.75
  1
                          
100
AcDbText
  0
TEXT
  5
42E
330
EF7C85532
100
AcDbEntity
  8
SUNPOU
100
AcDbText
 10
1019.048659343358
 20
43.7966872748706
 30
0.0
 40
1.5
  1
                          
100
AcDbText
  0
TEXT
  5
42F
330
EF7C85532
100
AcDbEntity
  8
SUNPOU
100
AcDbText
 10
1256.269310378271
 20
21.8983436374353
 30
0.0
 40
0.75
  1
                          
100
AcDbText
  0
INSERT
  5
430
330
EF7C85532
100
AcDbEntity
  8
JISSEN
100
AcDbBlockReference
  2
STDGX5
 10
536.999998568
 20
0.0
 30
0.0
  0
INSERT
  5
43B
330
EF7C85532
100
AcDbEntity
  8
SUNPOU
100
AcDbBlockReference
  2
STDGX5
 10
739.0804232644236
 20
50.83533235670902
 30
0.0
 41
0.5
 42
0.5
 43
0.5
  0
INSERT
  5
43C
330
EF7C85532
100
AcDbEntity
  8
SUNPOU
100
AcDbBlockReference
  2
STDGX5
 10
726.2208210623692
 20
105.0763138619288
 30
0.0
 41
0.5
 42
0.5
 43
0.5
  0
INSERT
  5
43D
330
EF7C85532
100
AcDbEntity
  8
HATCH
100
AcDbBlockReference
  2
STDGX5
 10
852.3985550581901
 20
151.7065097967401
 30
0.0
 41
0.5
 42
0.5
 43
0.5
  0
INSERT
  5
43E
330
EF7C85532
100
AcDbEntity
  8
HATCH
100
AcDbBlockReference
  2
STDGX5
 10
866.6806796277285
 20
102.7017487639613
 30
0.0
 41
0.5
 42
0.5
 43
0.5
  0
INSERT
  5
43F
330
EF7C85532
100
AcDbEntity
  8
TEXT
100
AcDbBlockReference
  2
STDGX5
 10
970.3434408521969
 20
102.8213468229236
 30
0.0
 41
0.5
 42
0.5
 43
0.5
  0
INSERT
  5
440
330
EF7C85532
100
AcDbEntity
  8
SUNPOU
100
AcDbBlockReference
  2
STDGX5
 10
996.1728907397869
 20
174.5475645486174
 30
0.0
 41
0.5
 42
0.5
 43
0.5
  0
INSERT
  5
441
330
EF7C85532
100
AcDbEntity
  8
TEXT
100
AcDbBlockReference
  2
STDGX5
 10
725.7513886810995
 20
124.5860190441302
 30
0.0
 41
0.5
 42
0.5
 43
0.5
  0
INSERT
  5
442
330
EF7C85532
100
AcDbEntity
  8
HATCH
100
AcDbBlockReference
  2
STDGX5
 10
777.1755722656421
 20
145.5222028932424
 30
0.0
 41
0.5
 42
0.5
 43
0.5
  0
INSERT
  5
443
330
EF7C85532
100
AcDbEntity
  8
SUNPOU
100
AcDbBlockReference
  2
STDGX5
 10
846.1963575359604
 20
112.6957974729892
 30
0.0
 41
0.5
 42
0.5
 43
0.5
  0
INSERT
  5
444
330
EF7C85532
100
AcDbEntity
  8
SUNPOU
100
AcDbBlockReference
  2
STDGX5
 10
916.6681156211122
 20
121.7330617103085
 30
0.0
 41
0.5
 42
0.5
 43
0.5
  0
INSERT
  5
445
330
EF7C85532
100
AcDbEntity
  8
TEXT
100
AcDbBlockReference
  2
STDGX5
 10
983.7969461426769
 20
84.61852224867081
 30
0.0
 41
0.5
 42
0.5
 43
0.5
  0
INSERT
  5
446
330
EF7C85532
100
AcDbEntity
  8
HATCH
100
AcDbBlockReference
  2
STDGX5
 10
974.2802715042099
 20
136.4849386559231
 30
0.0
 41
0.5
 42
0.5
 43
0.5
  0
INSERT
  5
447
330
EF7C85532
100
AcDbEntity
  8
SUNPOU
100
AcDbBlockReference
  2
STDGX5
 10
749.7834008663489
 20
95.14721172234004
 30
0.0
 41
0.5
 42
0.5
 43
0.5
  0
INSERT
  5
448
330
EF7C85532
100
AcDbEntity
  8
SUNPOU
100
AcDbBlockReference
  2
STDGX5
 10
736.9237986642947
 20
149.3881932275598
 30
0.0
 41
0.5
 42
0.5
 43
0.5
  0
INSERT
  5
449
330
EF7C85532
100
AcDbEntity
  8
HATCH
100
AcDbBlockReference
  2
STDGX5
 10
863.1015326601156
 20
196.0183891623711
 30
0.0
 41
0.5
 42
0.5
 43
0.5
  0
INSERT
  5
44A
330
EF7C85532
100
AcDbEntity
  8
HATCH
100
AcDbBlockReference
  2
STDGX5
 10
877.3836572296538
 20
147.0136281295923
 30
0.0
 41
0.5
 42
0.5
 43
0.5
  0
INSERT
  5
44B
330
EF7C85532
100
AcDbEntity
  8
TEXT
100
AcDbBlockReference
  2
STDGX5
 10
981.0464184541224
 20
147.1332261885546
 30
0.0
 41
0.5
 42
0.5
 43
0.5
  0
INSERT
  5
44C
330
EF7C85532
100
AcDbEntity
  8
SUNPOU
100
AcDbBlockReference
  2
STDGX5
 10
1006.875868341712
 20
218.8594439142484
 30
0.0
 41
0.5
 42
0.5
 43
0.5
  0
INSERT
  5
44D
330
EF7C85532
100
AcDbEntity
  8
TEXT
100
AcDbBlockReference
  2
STDGX5
 10
736.4543662830251
 20
168.8978984097612
 30
0.0
 41
0.5
 42
0.5
 43
0.5
  0
INSERT
  5
44E
330
EF7C85532
100
AcDbEntity
  8
HATCH
100
AcDbBlockReference
  2
STDGX5
 10
787.8785498675677
 20
189.8340822588735
 30
0.0
 41
0.5
 42
0.5
 43
0.5
  0
INSERT
  5
44F
330
EF7C85532
100
AcDbEntity
  8
SUNPOU
100
AcDbBlockReference
  2
STDGX5
 10
856.899335137886
 20
157.0076768386202
 30
0.0
 41
0.5
 42
0.5
 43
0.5
  0
INSERT
  5
450
330
EF7C85532
100
AcDbEntity
  8
SUNPOU
100
AcDbBlockReference
  2
STDGX5
 10
927.3710932230379
 20
166.0449410759395
 30
0.0
 41
0.5
 42
0.5
 43
0.5
  0
INSERT
  5
451
330
EF7C85532
100
AcDbEntity
  8
TEXT
100
AcDbBlockReference
  2
STDGX5
 10
994.4999237446024
 20
128.9304016143018
 30
0.0
 41
0.5
 42
0.5
 43
0.5
  0
INSERT
  5
452
330
EF7C85532
100
AcDbEntity
  8
HATCH
100
AcDbBlockReference
  2
STDGX5
 10
984.9832491061354
 20
180.7968180215541
 30
0.0
 41
0.5
 42
0.5
 43
0.5
  0
INSERT
  5
4CF3
330
EF7C85532
100
AcDbEntity
  8
JISSEN
100
AcDbBlockReference
  2
STDR12J
 10
0.0
 20
0.0
 30
0.0
  0
LINE
  5
EAFFB3C99
330
EF7C85532
100
AcDbEntity
  8
JISSEN
100
AcDbLine
 10
91.49999927599997
 20
276.9999999999999
 30
0.0
 11
180.999999276
 21
276.9999999999999
 31
0.0
  0
LINE
  5
EAFFB3C9A
330
EF7C85532
100
AcDbEntity
  8
JISSEN
100
AcDbLine
 10
91.49999927599997
 20
270.9999999999999
 30
0.0
 11
180.999999276
 21
270.9999999999999
 31
0.0
  0
TEXT
  5
EAFFB3C9B
330
EF7C85532
100
AcDbEntity
  8
TEXT
100
AcDbText
 10
107.8999992759999
 20
278.4999999999999
 30
0.0
 40
3.0
  1
名      称
  7
K
 72
     4
 11
116.4999992759999
 21
279.9999999999999
 31
0.0
100
AcDbText
  0
TEXT
  5
EAFFB3C9C
330
EF7C85532
100
AcDbEntity
  8
TEXT
100
AcDbText
 10
93.29999927599997
 20
278.4999999999999
 30
0.0
 40
3.0
  1
番号
  7
K
 72
     4
 11
96.49999927599999
 21
279.9999999999999
 31
0.0
100
AcDbText
  0
LINE
  5
EAFFB3C9D
330
EF7C85532
100
AcDbEntity
  8
JISSEN
100
AcDbLine
 10
91.49999927599997
 20
270.9999999999999
 30
0.0
 11
91.49999927599997
 21
282.9999999999999
 31
0.0
  0
TEXT
  5
EAFFB3C9F
330
EF7C85532
100
AcDbEntity
  8
TEXT
100
AcDbText
 10
135.1999992759999
 20
278.4999999999999
 30
0.0
 40
3.0
  1
材    質
  7
K
 72
     4
 11
141.9999992759999
 21
279.9999999999999
 31
0.0
100
AcDbText
  0
TEXT
  5
EAFFB3CA2
330
EF7C85532
100
AcDbEntity
  8
TEXT
100
AcDbText
 10
165.6999992759999
 20
278.4999999999999
 30
0.0
 40
3.0
  1
備    考
  7
K
 72
     4
 11
172.4999992759999
 21
279.9999999999999
 31
0.0
100
AcDbText
  0
TEXT
  5
EAFFB3CA3
330
EF7C85532
100
AcDbEntity
  8
TEXT
100
AcDbText
 10
154.7999992759999
 20
278.4999999999999
 30
0.0
 40
3.0
  1
個数
  7
K
 72
     4
 11
157.9999992759999
 21
279.9999999999999
 31
0.0
100
AcDbText
  0
TEXT
  5
EAFFB3CAC
330
EF7C85532
100
AcDbEntity
  8
TEXT
100
AcDbText
 10
95.28571356171427
 20
272.4999999999999
 30
0.0
 40
3.0
  1
1
  7
K
 72
     4
 11
96.49999927599999
 21
273.9999999999999
 31
0.0
100
AcDbText
  0
TEXT
  5
EAFFB3CC2
330
EF7C85532
100
AcDbEntity
  8
TEXT
100
AcDbText
 10
136.8249992759999
 20
274.2999999999999
 30
0.0
 40
3.0
  1
%%u      
  7
K
 72
     4
 11
141.9999992759999
 21
273.9999999999999
 31
0.0
100
AcDbText
  0
INSERT
  5
EAFFB3CF7
330
EF7C85532
100
AcDbEntity
  8
WAKU
100
AcDbBlockReference
  2
WAKU
 10
0.0
 20
0.0
 30
0.0
 41
181.0
 42
283.0
 43
181.0
  0
TEXT
  5
EF7C85BB1
330
EF7C85532
100
AcDbEntity
  8
TEXT
100
AcDbText
 10
156.6795477624092
 20
272.4999999999999
 30
0.0
 40
3.0
  1
1
  7
K
 72
     4
 11
157.8938334766949
 21
273.9999999999999
 31
0.0
100
AcDbText
  0
TEXT
  5
EF7C87732
330
EF7C85532
100
AcDbEntity
  8
SUNPOU
100
AcDbText
 10
133.2481928417034
 20
6.665259596075088
 30
0.0
 40
3.0
  1
MFJ  -O ガード取付状態
  7
K
100
AcDbText
  0
TEXT
  5
EF7C87733
330
EF7C85532
100
AcDbEntity
  8
SUNPOU
100
AcDbText
 10
133.2481928417034
 20
1.665259596075088
 30
0.0
 40
3.0
  1
尺度　1/1
  7
K
100
AcDbText
  0
LINE
  5
EF7C87734
330
EF7C85532
100
AcDbEntity
  8
TEXT
100
AcDbLine
 10
142.4926104515989
 20
9.6587607167952
 30
0.0
 11
144.2926104515989
 21
9.6587607167952
 31
0.0
  0
LINE
  5
EF7C87735
330
EF7C85532
100
AcDbEntity
  8
TEXT
100
AcDbLine
 10
142.4926104515989
 20
6.6587607167952
 30
0.0
 11
144.2926104515989
 21
6.6587607167952
 31
0.0
  0
LINE
  5
EF7C89636
330
EF7C85532
100
AcDbEntity
  8
JISSEN
100
AcDbLine
 10
91.4999992759999
 20
264.9999996778768
 30
0.0
 11
180.9999992759999
 21
264.9999996778768
 31
0.0
  0
LINE
  5
EF7C89637
330
EF7C85532
100
AcDbEntity
  8
JISSEN
100
AcDbLine
 10
91.4999992759999
 20
264.9999996778768
 30
0.0
 11
91.4999992759999
 21
282.9999996778768
 31
0.0
  0
LINE
  5
EF7C89638
330
EF7C85532
100
AcDbEntity
  8
JISSEN
100
AcDbLine
 10
101.4999992759999
 20
282.9999996778768
 30
0.0
 11
101.4999992759999
 21
264.9999996778768
 31
0.0
  0
TEXT
  5
EF7C89639
330
EF7C85532
100
AcDbEntity
  8
TEXT
100
AcDbText
 10
95.38307168153425
 20
266.4999996778768
 30
0.0
 40
3.0
  1
2
  7
K
 72
     4
 11
96.81164311010569
 21
267.9999996778767
 31
0.0
100
AcDbText
  0
LINE
  5
EF7C8963A
330
EF7C85532
100
AcDbEntity
  8
JISSEN
100
AcDbLine
 10
131.4999992759998
 20
282.9999996778768
 30
0.0
 11
131.4999992759998
 21
264.9999996778768
 31
0.0
  0
LINE
  5
EF7C8963B
330
EF7C85532
100
AcDbEntity
  8
JISSEN
100
AcDbLine
 10
152.4999992759999
 20
264.9999996778768
 30
0.0
 11
152.4999992759999
 21
282.9999996778768
 31
0.0
  0
LINE
  5
EF7C8963C
330
EF7C85532
100
AcDbEntity
  8
JISSEN
100
AcDbLine
 10
163.4999992759999
 20
282.9999996778768
 30
0.0
 11
163.4999992759999
 21
264.9999996778768
 31
0.0
  0
TEXT
  5
EF7C8963D
330
EF7C85532
100
AcDbEntity
  8
TEXT
100
AcDbText
 10
137.8571421331427
 20
266.4999996778768
 30
0.0
 40
3.0
  1
ADC
  7
K
 72
     4
 11
141.9999992759999
 21
267.9999996778767
 31
0.0
100
AcDbText
  0
TEXT
  5
EF7C8963E
330
EF7C85532
100
AcDbEntity
  8
TEXT
100
AcDbText
 10
156.6795477624091
 20
266.5808348542179
 30
0.0
 40
3.0
  1
1
  7
K
 72
     4
 11
157.8938334766948
 21
268.0808348542179
 31
0.0
100
AcDbText
  0
LINE
  5
EF7C89D3E
330
EF7C85532
100
AcDbEntity
  8
JISSEN
100
AcDbLine
 10
74.12923190661803
 20
99.6208265260239
 30
0.0
 11
67.40251370229026
 21
108.8619395542678
 31
0.0
  0
LINE
  5
EF7C89D40
330
EF7C85532
100
AcDbEntity
  8
JISSEN
100
AcDbLine
 10
58.35008343801615
 20
126.8285938384294
 30
0.0
 11
115.1500834380161
 21
126.8285938384294
 31
0.0
  0
LINE
  5
EF7C89D45
330
EF7C85532
100
AcDbEntity
  8
JISSEN
100
AcDbLine
 10
58.35008343801615
 20
133.3285938384294
 30
0.0
 11
58.35008343801615
 21
126.8285938384294
 31
0.0
  0
LINE
  5
EF7C89D46
330
EF7C85532
100
AcDbEntity
  8
JISSEN
100
AcDbLine
 10
61.61008343801615
 20
133.3285938384294
 30
0.0
 11
61.61008343801615
 21
126.8285938384294
 31
0.0
  0
ARC
  5
EF7C89D47
330
EF7C85532
100
AcDbEntity
  8
JISSEN
100
AcDbCircle
 10
73.0938179488341
 20
114.4841327182628
 30
0.0
 40
8.0
100
AcDbArc
 50
180.0
 51
224.6499999999991
  0
LINE
  5
EF7C89D48
330
EF7C85532
100
AcDbEntity
  8
JISSEN
100
AcDbLine
 10
65.0938179488341
 20
126.8285938384294
 30
0.0
 11
65.0938179488341
 21
114.4841327182628
 31
0.0
  0
LINE
  5
EF7C89D49
330
EF7C85532
100
AcDbEntity
  8
JISSEN
100
AcDbLine
 10
58.35008343801615
 20
132.0785938384294
 30
0.0
 11
56.13875857260893
 21
132.0785938384294
 31
0.0
  0
LINE
  5
EF7C89D4A
330
EF7C85532
100
AcDbEntity
  8
JISSEN
100
AcDbLine
 10
56.13875857260893
 20
128.0785938384294
 30
0.0
 11
58.35008343801615
 21
128.0785938384294
 31
0.0
  0
LINE
  5
EF7C89D4B
330
EF7C85532
100
AcDbEntity
  8
SAISEN
100
AcDbLine
 10
58.35008343801615
 20
131.6785938384294
 30
0.0
 11
55.90781846493467
 21
131.6785938384294
 31
0.0
  0
LINE
  5
EF7C89D4C
330
EF7C85532
100
AcDbEntity
  8
SAISEN
100
AcDbLine
 10
55.90781846493303
 20
128.4785938384294
 30
0.0
 11
58.35008343801615
 21
128.4785938384294
 31
0.0
  0
LINE
  5
EF7C89D4D
330
EF7C85532
100
AcDbEntity
  8
JISSEN
100
AcDbLine
 10
56.13875857260893
 20
132.0785938384294
 30
0.0
 11
56.13875857260888
 21
128.0785938384294
 31
0.0
  0
LINE
  5
EF7C89D4E
330
EF7C85532
100
AcDbEntity
  8
JISSEN
100
AcDbLine
 10
55.85008343801615
 20
131.5785938384294
 30
0.0
 11
55.85008343801615
 21
128.5785938384294
 31
0.0
  0
LINE
  5
EF7C89D4F
330
EF7C85532
100
AcDbEntity
  8
JISSEN
100
AcDbLine
 10
55.85008343801615
 20
131.5785938384294
 30
0.0
 11
56.13875857260893
 21
132.0785938384294
 31
0.0
  0
LINE
  5
EF7C89D50
330
EF7C85532
100
AcDbEntity
  8
JISSEN
100
AcDbLine
 10
55.85008343801615
 20
128.5785938384258
 30
0.0
 11
56.13875857260893
 21
128.0785938384294
 31
0.0
  0
LINE
  5
EF7C89D58
330
EF7C85532
100
AcDbEntity
  8
JISSEN
100
AcDbLine
 10
115.1500834380161
 20
113.7316421656349
 30
0.0
 11
115.1500834380161
 21
133.3285938384294
 31
0.0
  0
LINE
  5
EF7C89D59
330
EF7C85532
100
AcDbEntity
  8
JISSEN
100
AcDbLine
 10
118.6500834380161
 20
133.3285938384294
 30
0.0
 11
118.6500834380161
 21
114.1103218220756
 31
0.0
  0
LINE
  5
EF7C89D5B
330
EF7C85532
100
AcDbEntity
  8
SUNPOU
100
AcDbLine
 10
118.6500834380161
 20
123.7194578302525
 30
0.0
 11
143.2798258880986
 21
104.7025721208749
 31
0.0
  0
LINE
  5
EF7C89D61
330
EF7C85532
100
AcDbEntity
  8
JISSEN
100
AcDbLine
 10
96.26817477554489
 20
100.8285938384293
 30
0.0
 11
93.59031229145234
 21
100.8285938384293
 31
0.0
  0
LINE
  5
EF7C89D62
330
EF7C85532
100
AcDbEntity
  8
JISSEN
100
AcDbLine
 10
106.1727150831211
 20
100.8285938384294
 30
0.0
 11
76.76421642645124
 21
100.8285938384301
 31
0.0
  0
LINE
  5
EF7C89D63
330
EF7C85532
100
AcDbEntity
  8
JISSEN
100
AcDbLine
 10
93.59031229145234
 20
100.8285938384293
 30
0.0
 11
96.2979549203389
 21
107.8822440420405
 31
0.0
  0
LINE
  5
EF7C89D64
330
EF7C85532
100
AcDbEntity
  8
JISSEN
100
AcDbLine
 10
106.7500834380161
 20
98.32859383842944
 30
0.0
 11
73.25008343801613
 21
98.32859383842944
 31
0.0
  0
ARC
  5
EF7C89D68
330
EF7C85532
100
AcDbEntity
  8
JISSEN
100
AcDbCircle
 10
75.5938179488341
 20
114.0877997301632
 30
0.0
 40
7.0
100
AcDbArc
 50
180.0
 51
224.6499999999991
  0
ARC
  5
EF7C89D6D
330
EF7C85532
100
AcDbEntity
  8
JISSEN
100
AcDbCircle
 10
75.40937819532138
 20
100.3061878435398
 30
0.0
 40
1.452065651418107
100
AcDbArc
 50
208.1635875388367
 51
21.08591664036343
  0
ARC
  5
EF7C89D6E
330
EF7C85532
100
AcDbEntity
  8
JISSEN
100
AcDbCircle
 10
73.25008343801613
 20
99.57859383842944
 30
0.0
 40
1.25
100
AcDbArc
 50
90.0
 51
270.0
  0
LINE
  5
EF7C89D6F
330
EF7C85532
100
AcDbEntity
  8
JISSEN
100
AcDbLine
 10
76.76421642645124
 20
100.8285938384301
 30
0.0
 11
70.61392673310826
 21
109.1683807116675
 31
0.0
  0
LINE
  5
EF7C89D88
330
EF7C85532
100
AcDbEntity
  8
JISSEN
100
AcDbLine
 10
68.5938179488341
 20
126.8285938384294
 30
0.0
 11
68.5938179488341
 21
114.0877997301632
 31
0.0
  0
ARC
  5
EF7C89DCE
330
EF7C85532
100
AcDbEntity
  8
JISSEN
100
AcDbCircle
 10
109.1500834380161
 20
113.7316421656349
 30
0.0
 40
6.0
100
AcDbArc
 50
315.0000000000048
 51
0.0
  0
ARC
  5
EF7C89DCF
330
EF7C85532
100
AcDbEntity
  8
JISSEN
100
AcDbCircle
 10
111.6500834380161
 20
114.1103218220756
 30
0.0
 40
7.0
100
AcDbArc
 50
315.0000000000002
 51
0.0
  0
ARC
  5
EF7C89DD0
330
EF7C85532
100
AcDbEntity
  8
JISSEN
100
AcDbCircle
 10
90.59498980237249
 20
113.953722799086
 30
0.0
 40
10.0
100
AcDbArc
 50
338.9999999999994
 51
0.0
  0
ARC
  5
EF7C89DD1
330
EF7C85532
100
AcDbEntity
  8
JISSEN
100
AcDbCircle
 10
85.09498980237248
 20
112.1826594365841
 30
0.0
 40
12.0
100
AcDbArc
 50
338.9999999999994
 51
0.0
  0
LINE
  5
EF7C89DD2
330
EF7C85532
100
AcDbEntity
  8
JISSEN
100
AcDbLine
 10
116.9594922618151
 20
109.5485044274657
 30
0.0
 11
107.6339669144993
 21
98.69471036194624
 31
0.0
  0
LINE
  5
EF7C89DD3
330
EF7C85532
100
AcDbEntity
  8
JISSEN
100
AcDbLine
 10
113.7506358937666
 20
109.8800298925877
 30
0.0
 11
105.8661999615333
 21
100.4624773149119
 31
0.0
  0
ARC
  5
EF7C89DD4
330
EF7C85532
100
AcDbEntity
  8
JISSEN
100
AcDbCircle
 10
106.7500834380161
 20
99.57859383842944
 30
0.0
 40
1.25
100
AcDbArc
 50
135.0000000000048
 51
315.0000000000002
  0
LINE
  5
EF7C89DD8
330
EF7C85532
100
AcDbEntity
  8
JISSEN
100
AcDbLine
 10
99.9307940673445
 20
110.370043303633
 30
0.0
 11
96.26817477554489
 21
100.8285938384293
 31
0.0
  0
LINE
  5
EF7C89DE8
330
EF7C85532
100
AcDbEntity
  8
JISSEN
100
AcDbLine
 10
100.5949898023724
 20
126.8285938384294
 30
0.0
 11
100.5949898023724
 21
113.953722799086
 31
0.0
  0
LINE
  5
EF7C89DE9
330
EF7C85532
100
AcDbEntity
  8
JISSEN
100
AcDbLine
 10
97.09498980237249
 20
112.1826594365841
 30
0.0
 11
97.09498980237249
 21
126.8285938384294
 31
0.0
  0
INSERT
  5
EF7C89E1D
330
EF7C85532
100
AcDbEntity
  8
SUNPOU
100
AcDbBlockReference
  2
ARROW
 10
118.6500834380161
 20
123.7194578302525
 30
0.0
 41
1.499999999999991
 42
1.5
 43
1.5
 50
142.3278883834792
  0
CIRCLE
  5
EF7C89E23
330
EF7C85532
100
AcDbEntity
  8
SUNPOU
100
AcDbCircle
 10
148.0289524665904
 20
101.0357210547061
 30
0.0
 40
6.0
  0
TEXT
  5
EF7C89E25
330
EF7C85532
100
AcDbEntity
  8
SUNPOU
100
AcDbText
 10
145.8860953237333
 20
98.78572105470617
 30
0.0
 40
4.5
  1
2
  7
K
 72
     4
 11
148.0289524665904
 21
101.0357210547061
 31
0.0
100
AcDbText
  0
TEXT
  5
EF7C8A129
330
EF7C85532
100
AcDbEntity
  8
TEXT
100
AcDbText
 10
104.2571421331427
 20
266.4999996778768
 30
0.0
 40
3.0
  1
ガード MFJ  
  7
K
 72
     4
 11
116.4999992759998
 21
267.9999996778767
 31
0.0
100
AcDbText
  0
LINE
  5
EF7C8A12A
330
EF7C85532
100
AcDbEntity
  8
TEXT
100
AcDbLine
 10
127.140487563029
 20
269.5000366017782
 30
0.0
 11
127.140487563029
 21
266.5000366017782
 31
0.0
  0
LINE
  5
EF7C8A12B
330
EF7C85532
100
AcDbEntity
  8
TEXT
100
AcDbLine
 10
126.2404875630289
 20
269.5000366017782
 30
0.0
 11
126.2404875630289
 21
266.5000366017782
 31
0.0
  0
LINE
  5
EF7C8A12C
330
EF7C85532
100
AcDbEntity
  8
TEXT
100
AcDbLine
 10
125.790487563029
 20
266.5000366017782
 30
0.0
 11
127.5904875630289
 21
266.5000366017782
 31
0.0
  0
LINE
  5
EF7C8A12D
330
EF7C85532
100
AcDbEntity
  8
TEXT
100
AcDbLine
 10
125.790487563029
 20
269.5000366017782
 30
0.0
 11
127.5904875630289
 21
269.5000366017782
 31
0.0
  0
LINE
  5
EF7C8A12F
330
EF7C85532
100
AcDbEntity
  8
JISSEN
100
AcDbLine
 10
91.62691287725555
 20
118.828593838433
 30
0.0
 11
90.0000834380161
 21
118.828593838433
 31
0.0
  0
LINE
  5
EF7C8A130
330
EF7C85532
100
AcDbEntity
  8
JISSEN
100
AcDbLine
 10
115.1500834380161
 20
124.828593838433
 30
0.0
 11
100.5949898023724
 21
124.828593838433
 31
0.0
  0
LINE
  5
EF7C8A131
330
EF7C85532
100
AcDbEntity
  8
JISSEN
100
AcDbLine
 10
90.0000834380161
 20
111.5785938384332
 30
0.0
 11
97.079776189836
 21
111.5785938384332
 31
0.0
  0
LINE
  5
EF7C8A132
330
EF7C85532
100
AcDbEntity
  8
JISSEN
100
AcDbLine
 10
90.0000834380161
 20
111.8318123873575
 30
0.0
 11
97.08985980367092
 21
111.8318123873575
 31
0.0
  0
LINE
  5
EF7C8A133
330
EF7C85532
100
AcDbEntity
  8
JISSEN
100
AcDbLine
 10
90.0000834380161
 20
112.328593838433
 30
0.0
 11
97.09498980237249
 21
112.328593838433
 31
0.0
  0
LINE
  5
EF7C8A134
330
EF7C85532
100
AcDbEntity
  8
JISSEN
100
AcDbLine
 10
90.0000834380161
 20
124.828593838433
 30
0.0
 11
97.09498980237249
 21
124.828593838433
 31
0.0
  0
LINE
  5
EF7C8A135
330
EF7C85532
100
AcDbEntity
  8
SUNPOU
100
AcDbLine
 10
108.7919877592366
 20
113.9969594869451
 30
0.0
 11
123.0530179151068
 21
104.3883432134577
 31
0.0
  0
LINE
  5
EF7C8A136
330
EF7C85532
100
AcDbEntity
  8
JISSEN
100
AcDbLine
 10
115.1500834380161
 20
125.8285938384294
 30
0.0
 11
100.5949898023724
 21
125.8285938384294
 31
0.0
  0
ARC
  5
EF7C8A137
330
EF7C85532
100
AcDbEntity
  8
JISSEN
100
AcDbCircle
 10
105.3160686726564
 20
122.528593838433
 30
0.0
 40
1.0
100
AcDbArc
 50
89.9999999999984
 51
178.3589022067033
  0
LINE
  5
EF7C8A138
330
EF7C85532
100
AcDbEntity
  8
JISSEN
100
AcDbLine
 10
105.3145340216526
 20
116.8354933057713
 30
0.0
 11
104.1143826838273
 21
116.8354933057713
 31
0.0
  0
LINE
  5
EF7C8A139
330
EF7C85532
100
AcDbEntity
  8
JISSEN
100
AcDbLine
 10
104.793351096754
 20
115.731715528822
 30
0.0
 11
103.0777185918852
 21
115.731715528822
 31
0.0
  0
LINE
  5
EF7C8A13A
330
EF7C85532
100
AcDbEntity
  8
JISSEN
100
AcDbLine
 10
104.5292864546179
 20
112.328593838433
 30
0.0
 11
113.0546890638555
 21
116.3370897801434
 31
0.0
  0
LINE
  5
EF7C8A13B
330
EF7C85532
100
AcDbEntity
  8
JISSEN
100
AcDbLine
 10
101.0588530496576
 20
111.8318123873575
 30
0.0
 11
100.9126572522724
 21
111.5785938384332
 31
0.0
  0
LINE
  5
EF7C8A13C
330
EF7C85532
100
AcDbEntity
  8
JISSEN
100
AcDbLine
 10
103.4524566507927
 20
112.1318123873576
 30
0.0
 11
103.4524566507927
 21
112.328593838433
 31
0.0
  0
ARC
  5
EF7C8A13D
330
EF7C85532
100
AcDbEntity
  8
JISSEN
100
AcDbCircle
 10
103.1524566507927
 20
112.1318123873576
 30
0.0
 40
0.3
100
AcDbArc
 50
270.0
 51
0.000000000000007
  0
LINE
  5
EF7C8A13E
330
EF7C85532
100
AcDbEntity
  8
JISSEN
100
AcDbLine
 10
97.09498980237249
 20
120.3285938384333
 30
0.0
 11
96.69574521067801
 21
120.3285938384333
 31
0.0
  0
ARC
  5
EF7C8A13F
330
EF7C85532
100
AcDbEntity
  8
JISSEN
100
AcDbCircle
 10
97.67850986864059
 20
122.528593838433
 30
0.0
 40
1.0
100
AcDbArc
 50
125.698508142418
 51
180.4496620839238
  0
LINE
  5
EF7C8A140
330
EF7C85532
100
AcDbEntity
  8
JISSEN
100
AcDbLine
 10
97.09498980237249
 20
118.828593838433
 30
0.0
 11
96.70751757820404
 21
118.828593838433
 31
0.0
  0
LINE
  5
EF7C8A141
330
EF7C85532
100
AcDbEntity
  8
JISSEN
100
AcDbLine
 10
97.09498980237249
 20
116.8354933057713
 30
0.0
 11
96.72315991952949
 21
116.8354933057713
 31
0.0
  0
LINE
  5
EF7C8A142
330
EF7C85532
100
AcDbEntity
  8
JISSEN
100
AcDbLine
 10
97.09498980237249
 20
115.731715528822
 30
0.0
 11
96.31001361195249
 21
115.731715528822
 31
0.0
  0
LINE
  5
EF7C8A143
330
EF7C85532
100
AcDbEntity
  8
JISSEN
100
AcDbLine
 10
91.77682875544965
 20
122.4876570740308
 30
0.0
 11
91.51725433084326
 21
116.1521091292754
 31
0.0
  0
ARC
  5
EF7C8A144
330
EF7C85532
100
AcDbEntity
  8
JISSEN
100
AcDbCircle
 10
90.77766701613004
 20
122.528593838433
 30
0.0
 40
1.0
100
AcDbArc
 50
357.6538405717964
 51
90.0
  0
LINE
  5
EF7C8A145
330
EF7C85532
100
AcDbEntity
  8
JISSEN
100
AcDbLine
 10
96.67854066469287
 20
122.5207458351106
 30
0.0
 11
96.72315991952851
 21
116.8354933057713
 31
0.0
  0
ARC
  5
EF7C8A146
330
EF7C85532
100
AcDbEntity
  8
JISSEN
100
AcDbCircle
 10
96.31001361195249
 20
115.931715528822
 30
0.0
 40
0.2
100
AcDbArc
 50
143.1028381951466
 51
270.0
  0
ARC
  5
EF7C8A147
330
EF7C85532
100
AcDbEntity
  8
JISSEN
100
AcDbCircle
 10
96.44214587280741
 20
116.9405223757732
 30
0.0
 40
0.3
100
AcDbArc
 50
323.1028381951466
 51
357.8595682740477
  0
LINE
  5
EF7C8A148
330
EF7C85532
100
AcDbEntity
  8
JISSEN
100
AcDbLine
 10
96.15007073198601
 20
116.051791651128
 30
0.0
 11
96.68206019275707
 21
116.7604081923142
 31
0.0
  0
LINE
  5
EF7C8A151
330
EF7C85532
100
AcDbEntity
  8
JISSEN
100
AcDbLine
 10
104.3164788427305
 20
122.5572324820591
 30
0.0
 11
104.1574113925572
 21
117.0052165576666
 31
0.0
  0
ARC
  5
EF7C8A152
330
EF7C85532
100
AcDbEntity
  8
JISSEN
100
AcDbCircle
 10
103.0777185918852
 20
115.881715528822
 30
0.0
 40
0.15
100
AcDbArc
 50
125.3270684004781
 51
270.0
  0
LINE
  5
EF7C8A153
330
EF7C85532
100
AcDbEntity
  8
JISSEN
100
AcDbLine
 10
104.3000834380163
 20
118.8285938384331
 30
0.0
 11
104.2096518721785
 21
118.828593838433
 31
0.0
  0
LINE
  5
EF7C8A154
330
EF7C85532
100
AcDbEntity
  8
JISSEN
100
AcDbLine
 10
104.2121706094565
 20
118.9165066669929
 30
0.0
 11
104.3000834380162
 21
118.8285938384332
 31
0.0
  0
LINE
  5
EF7C8A155
330
EF7C85532
100
AcDbEntity
  8
JISSEN
100
AcDbLine
 10
104.3000834380163
 20
118.8285938384331
 30
0.0
 11
104.3000834380163
 21
116.8354933057713
 31
0.0
  0
ARC
  5
EF7C8A156
330
EF7C85532
100
AcDbEntity
  8
JISSEN
100
AcDbCircle
 10
103.7782805308861
 20
117.0523696364024
 30
0.0
 40
0.4
100
AcDbArc
 50
305.3270684004788
 51
355.9820312737552
  0
LINE
  5
EF7C8A157
330
EF7C85532
100
AcDbEntity
  8
JISSEN
100
AcDbLine
 10
104.0095777828769
 20
116.7260238363352
 30
0.0
 11
102.9909821223887
 21
116.0040952038472
 31
0.0
  0
LINE
  5
EF7C8A158
330
EF7C85532
100
AcDbEntity
  8
JISSEN
100
AcDbLine
 10
104.3000834380162
 20
120.3285938384333
 30
0.0
 11
104.2526274649199
 21
120.3285938384333
 31
0.0
  0
LINE
  5
EF7C8A159
330
EF7C85532
100
AcDbEntity
  8
JISSEN
100
AcDbLine
 10
104.3000834380162
 20
120.3285938384332
 30
0.0
 11
104.2512277295669
 21
120.2797381299839
 31
0.0
  0
LINE
  5
EF7C8A15A
330
EF7C85532
100
AcDbEntity
  8
JISSEN
100
AcDbLine
 10
104.3000834380162
 20
121.9849749399818
 30
0.0
 11
104.3000834380162
 21
120.3285938384333
 31
0.0
  0
INSERT
  5
EF7C8A15B
330
EF7C85532
100
AcDbEntity
  8
SUNPOU
100
AcDbBlockReference
  2
ARROW
 10
108.7919877592366
 20
113.9969594869451
 30
0.0
 41
1.499999999999996
 42
1.5
 43
1.5
 50
146.0291974830133
  0
ARC
  5
EF7C8A15C
330
EF7C85532
100
AcDbEntity
  8
JISSEN
100
AcDbCircle
 10
111.3047954235107
 20
123.028593838433
 30
0.0
 40
0.5
100
AcDbArc
 50
24.93860015227472
 51
90.00000000000161
  0
LINE
  5
EF7C8A15D
330
EF7C85532
100
AcDbEntity
  8
JISSEN
100
AcDbLine
 10
112.5325361209268
 20
116.5264856101411
 30
0.0
 11
111.0206772490565
 21
115.8270950991596
 31
0.0
  0
LINE
  5
EF7C8A15E
330
EF7C85532
100
AcDbEntity
  8
JISSEN
100
AcDbLine
 10
113.0020978901794
 20
116.5027157874003
 30
0.0
 11
111.535199478636
 21
115.8241241220697
 31
0.0
  0
LINE
  5
EF7C8A15F
330
EF7C85532
100
AcDbEntity
  8
JISSEN
100
AcDbLine
 10
111.8783371763679
 20
122.0880382314319
 30
0.0
 11
111.4475434348255
 21
117.5359612999151
 31
0.0
  0
ARC
  5
EF7C8A160
330
EF7C85532
100
AcDbEntity
  8
JISSEN
100
AcDbCircle
 10
108.1879152529342
 20
115.831715528822
 30
0.0
 40
0.1
100
AcDbArc
 50
117.7467382896104
 51
270.0
  0
LINE
  5
EF7C8A161
330
EF7C85532
100
AcDbEntity
  8
JISSEN
100
AcDbLine
 10
109.640733111243
 20
116.7089669293475
 30
0.0
 11
108.1413588389981
 21
115.9202169430559
 31
0.0
  0
LINE
  5
EF7C8A162
330
EF7C85532
100
AcDbEntity
  8
JISSEN
100
AcDbLine
 10
106.8571383791215
 20
122.4585245186356
 30
0.0
 11
106.5019609042815
 21
117.4020391139076
 31
0.0
  0
LINE
  5
EF7C8A163
330
EF7C85532
100
AcDbEntity
  8
JISSEN
100
AcDbLine
 10
106.1063238011605
 20
123.2090023595041
 30
0.0
 11
105.7136801635403
 21
117.2093713338662
 31
0.0
  0
ARC
  5
EF7C8A164
330
EF7C85532
100
AcDbEntity
  8
JISSEN
100
AcDbCircle
 10
105.3049103547184
 20
117.4861222976645
 30
0.0
 40
1.199999999999999
100
AcDbArc
 50
305.3270684004818
 51
355.9820312737552
  0
ARC
  5
EF7C8A165
330
EF7C85532
100
AcDbEntity
  8
JISSEN
100
AcDbCircle
 10
104.793351096754
 20
116.081715528822
 30
0.0
 40
0.35
100
AcDbArc
 50
270.0
 51
305.3270684004818
  0
LINE
  5
EF7C8A166
330
EF7C85532
100
AcDbEntity
  8
JISSEN
100
AcDbLine
 10
105.998802110691
 20
116.507084897463
 30
0.0
 11
104.995736192246
 21
115.7961629537632
 31
0.0
  0
ARC
  5
EF7C8A167
330
EF7C85532
100
AcDbEntity
  8
JISSEN
100
AcDbCircle
 10
105.3145340216526
 20
117.2354933057713
 30
0.0
 40
0.4
100
AcDbArc
 50
270.0
 51
356.2556384692873
  0
ARC
  5
EF7C8A168
330
EF7C85532
100
AcDbEntity
  8
JISSEN
100
AcDbCircle
 10
105.8595962544856
 20
122.528593838433
 30
0.0
 40
1.0
100
AcDbArc
 50
355.9820312737552
 51
89.9999999999984
  0
ARC
  5
EF7C8A169
330
EF7C85532
100
AcDbEntity
  8
JISSEN
100
AcDbCircle
 10
105.8069641947448
 20
123.228593838433
 30
0.0
 40
0.3
100
AcDbArc
 50
356.2556384692873
 51
90.0
  0
LINE
  5
EF7C8A16A
330
EF7C85532
100
AcDbEntity
  8
JISSEN
100
AcDbLine
 10
105.8595962544856
 20
123.528593838433
 30
0.0
 11
105.8069641947448
 21
123.528593838433
 31
0.0
  0
LINE
  5
EF7C8A16B
330
EF7C85532
100
AcDbEntity
  8
JISSEN
100
AcDbLine
 10
105.3160686726564
 20
123.528593838433
 30
0.0
 11
105.8595962544856
 21
123.528593838433
 31
0.0
  0
LINE
  5
EF7C8A16C
330
EF7C85532
100
AcDbEntity
  8
JISSEN
100
AcDbLine
 10
110.4740006514108
 20
123.3467257744865
 30
0.0
 11
109.9058920075347
 21
117.1061441603835
 31
0.0
  0
LINE
  5
EF7C8A16D
330
EF7C85532
100
AcDbEntity
  8
JISSEN
100
AcDbLine
 10
110.8029899275765
 20
122.088038231432
 30
0.0
 11
110.3800700549693
 21
117.2915770332051
 31
0.0
  0
ARC
  5
EF7C8A16E
330
EF7C85532
100
AcDbEntity
  8
JISSEN
100
AcDbCircle
 10
109.4079510415624
 20
117.1514740005172
 30
0.0
 40
0.5
100
AcDbArc
 50
297.7467382896104
 51
354.7984408616662
  0
ARC
  5
EF7C8A16F
330
EF7C85532
100
AcDbEntity
  8
JISSEN
100
AcDbCircle
 10
109.8820024280311
 20
117.3354933057713
 30
0.0
 40
0.5
100
AcDbArc
 50
270.0
 51
354.961072794516
  0
LINE
  5
EF7C8A170
330
EF7C85532
100
AcDbEntity
  8
JISSEN
100
AcDbLine
 10
110.7585594759541
 20
116.5079234306193
 30
0.0
 11
109.3704600246228
 21
115.7777098718862
 31
0.0
  0
LINE
  5
EF7C8A171
330
EF7C85532
100
AcDbEntity
  8
JISSEN
100
AcDbLine
 10
109.1842343688784
 20
115.731715528822
 30
0.0
 11
108.1879152529342
 21
115.731715528822
 31
0.0
  0
LINE
  5
EF7C8A172
330
EF7C85532
100
AcDbEntity
  8
JISSEN
100
AcDbLine
 10
109.8820024280311
 20
116.8354933057713
 30
0.0
 11
109.7954509777538
 21
116.8354933057713
 31
0.0
  0
ARC
  5
EF7C8A173
330
EF7C85532
100
AcDbEntity
  8
JISSEN
100
AcDbCircle
 10
109.1842343688784
 20
116.131715528822
 30
0.0
 40
0.4
100
AcDbArc
 50
270.0
 51
297.7467382896104
  0
LINE
  5
EF7C8A174
330
EF7C85532
100
AcDbEntity
  8
JISSEN
100
AcDbLine
 10
111.1153449343122
 20
115.731715528822
 30
0.0
 11
111.0416699762727
 21
115.731715528822
 31
0.0
  0
ARC
  5
EF7C8A175
330
EF7C85532
100
AcDbEntity
  8
JISSEN
100
AcDbCircle
 10
111.0416699762727
 20
115.781715528822
 30
0.0
 40
0.05
100
AcDbArc
 50
114.8254046070868
 51
270.0000000000024
  0
ARC
  5
EF7C8A176
330
EF7C85532
100
AcDbEntity
  8
JISSEN
100
AcDbCircle
 10
111.1153449343122
 20
116.731715528822
 30
0.0
 40
1.0
100
AcDbArc
 50
270.0
 51
294.8254046070847
  0
ARC
  5
EF7C8A177
330
EF7C85532
100
AcDbEntity
  8
JISSEN
100
AcDbCircle
 10
110.1533260947845
 20
117.6584418156606
 30
0.0
 40
1.3
100
AcDbArc
 50
297.7467382896097
 51
354.5938150553516
  0
LWPOLYLINE
  5
EF7C8A178
330
EF7C85532
100
AcDbEntity
  8
JISSEN
100
AcDbPolyline
 90
        7
 70
     0
 43
0.0
 10
110.6828282530946
 20
123.239417234982
 10
110.7052827638608
 20
123.1911283447654
 10
110.7398425118281
 20
123.0695924472063
 10
110.7633386595878
 20
122.9153969981129
 10
110.7793256497355
 20
122.7116604864658
 10
110.7913579248664
 20
122.4415014012453
 10
110.8029899275765
 20
122.0880382314321
  0
LINE
  5
EF7C8A179
330
EF7C85532
100
AcDbEntity
  8
JISSEN
100
AcDbLine
 10
111.3047954235107
 20
123.528593838433
 30
0.0
 11
110.6731770377997
 21
123.528593838433
 31
0.0
  0
ARC
  5
EF7C8A17A
330
EF7C85532
100
AcDbEntity
  8
JISSEN
100
AcDbCircle
 10
110.6731770377997
 20
123.328593838433
 30
0.0
 40
0.2
100
AcDbArc
 50
90.00000000000081
 51
174.7984408616662
  0
ARC
  5
EF7C8A17B
330
EF7C85532
100
AcDbEntity
  8
JISSEN
100
AcDbCircle
 10
110.2294481747194
 20
123.028593838433
 30
0.0
 40
0.5
100
AcDbArc
 50
24.93860015227472
 51
55.98453321461388
  0
LINE
  5
EF7C8A17C
330
EF7C85532
100
AcDbEntity
  8
JISSEN
100
AcDbLine
 10
114.5825857053112
 20
124.828593838433
 30
0.0
 11
113.9484961556164
 21
117.5809171207875
 31
0.0
  0
LINE
  5
EF7C8A17D
330
EF7C85532
100
AcDbEntity
  8
JISSEN
100
AcDbLine
 10
113.9111928137793
 20
123.4392937503067
 30
0.0
 11
113.2792620633477
 21
117.5672555845602
 31
0.0
  0
LINE
  5
EF7C8A17E
330
EF7C85532
100
AcDbEntity
  8
JISSEN
100
AcDbLine
 10
114.3940948076268
 20
123.0857941909379
 30
0.0
 11
113.8062642897097
 21
117.6235449906209
 31
0.0
  0
ARC
  5
EF7C8A17F
330
EF7C85532
100
AcDbEntity
  8
JISSEN
100
AcDbCircle
 10
112.4143015281262
 20
117.7733437568536
 30
0.0
 40
1.399999999999999
100
AcDbArc
 50
294.8254046070847
 51
353.8576433931428
  0
ARC
  5
EF7C8A180
330
EF7C85532
100
AcDbEntity
  8
JISSEN
100
AcDbCircle
 10
112.4542041084788
 20
117.711650734909
 30
0.0
 40
1.5
100
AcDbArc
 50
290.0
 51
355.0000000000002
  0
ARC
  5
EF7C8A181
330
EF7C85532
100
AcDbEntity
  8
JISSEN
100
AcDbCircle
 10
111.9867252133059
 20
117.7063544389191
 30
0.0
 40
1.3
100
AcDbArc
 50
294.8254046070868
 51
353.8576433931412
  0
LWPOLYLINE
  5
EF7C8A182
330
EF7C85532
100
AcDbEntity
  8
JISSEN
100
AcDbPolyline
 90
        7
 70
     0
 43
0.0
 10
111.758175501886
 20
123.2394172349819
 10
111.7806300126522
 20
123.1911283447654
 10
111.8151897606195
 20
123.0695924472062
 10
111.8386859083792
 20
122.9153969981128
 10
111.8546728985269
 20
122.7116604864657
 10
111.8667051736579
 20
122.4415014012453
 10
111.8783371763679
 20
122.088038231432
  0
ARC
  5
EF7C8A183
330
EF7C85532
100
AcDbEntity
  8
JISSEN
100
AcDbCircle
 10
114.0106187253209
 20
123.4285938384329
 30
0.0
 40
0.1
100
AcDbArc
 50
90.00000000000161
 51
173.8576433931412
  0
ARC
  5
EF7C8A184
330
EF7C85532
100
AcDbEntity
  8
JISSEN
100
AcDbCircle
 10
113.9963911614602
 20
123.1285938384329
 30
0.0
 40
0.4
100
AcDbArc
 50
353.8576433931428
 51
90.0
  0
CIRCLE
  5
EF7C8A187
330
EF7C85532
100
AcDbEntity
  8
SUNPOU
100
AcDbCircle
 10
128.0289524665904
 20
101.0357210547061
 30
0.0
 40
6.0
  0
TEXT
  5
EF7C8A188
330
EF7C85532
100
AcDbEntity
  8
SUNPOU
100
AcDbText
 10
126.2075238951618
 20
98.78572105470617
 30
0.0
 40
4.5
  1
1
  7
K
 72
     4
 11
128.0289524665904
 21
101.0357210547061
 31
0.0
100
AcDbText
  0
ARC
  5
EF7C8A18A
330
EF7C85532
100
AcDbEntity
  8
JISSEN
100
AcDbCircle
 10
90.00008343801608
 20
125.8285938384294
 30
0.0
 40
1.0
100
AcDbArc
 50
270.0
 51
0.000000000000007
  0
LINE
  5
EF7C8A18B
330
EF7C85532
100
AcDbEntity
  8
JISSEN
100
AcDbLine
 10
90.00008343801608
 20
151.328593838433
 30
0.0
 11
99.00008343801786
 21
151.328593838433
 31
0.0
1001
ACAD
1000
ASC_BOUNDS
1002
{
1070
    19
1002
}
  0
LINE
  5
EF7C8A18C
330
EF7C85532
100
AcDbEntity
  8
JISSEN
100
AcDbLine
 10
90.77766701613004
 20
123.528593838433
 30
0.0
 11
90.0000834380161
 21
123.528593838433
 31
0.0
  0
LINE
  5
EF7C8A18D
330
EF7C85532
100
AcDbEntity
  8
JISSEN
100
AcDbLine
 10
91.51081669121268
 20
116.8277401345665
 30
0.0
 11
90.00768615312464
 21
116.8106655687543
 31
0.0
  0
LINE
  5
EF7C8A18E
330
EF7C85532
100
AcDbEntity
  8
JISSEN
100
AcDbLine
 10
90.0000834380161
 20
115.6926645385233
 30
0.0
 11
91.03613610186446
 21
115.6926645385233
 31
0.0
  0
LINE
  5
EF7C8A18F
330
EF7C85532
100
AcDbEntity
  8
JISSEN
100
AcDbLine
 10
100.8874687128005
 20
134.3247086136248
 30
0.0
 11
90.0000834380161
 21
134.3247086136248
 31
0.0
  0
LINE
  5
EF7C8A190
330
EF7C85532
100
AcDbEntity
  8
JISSEN
100
AcDbLine
 10
100.3998145269836
 20
149.9288627494672
 30
0.0
 11
90.0000834380161
 21
149.9288627494672
 31
0.0
  0
LINE
  5
EF7C8A191
330
EF7C85532
100
AcDbEntity
  8
JISSEN
100
AcDbLine
 10
90.00008343801608
 20
136.3285938384335
 30
0.0
 11
100.8248441700494
 21
136.3285938384335
 31
0.0
  0
LINE
  5
EF7C8A192
330
EF7C85532
100
AcDbEntity
  8
JISSEN
100
AcDbLine
 10
116.3500834380161
 20
133.328593838433
 30
0.0
 11
90.00008343801615
 21
133.328593838433
 31
0.0
  0
HATCH
  5
EF7C8A193
330
EF7C85532
100
AcDbEntity
  8
HATCH
100
AcDbHatch
 10
0.0
 20
0.0
 30
0.0
210
0.0
220
0.0
230
1.0
  2
_U
 70
     0
 71
     1
 91
        2
 92
        7
 72
     0
 73
     1
 93
       15
 10
107.500083438016
 20
138.3285938384293
 10
107.500083438016
 20
133.3285938384294
 10
116.350083438016
 20
133.3285938384294
 10
155.2741466959157
 20
133.3285938384294
 10
155.583710213395
 20
134.0767623822844
 10
155.9139668061094
 20
134.6143333799126
 10
156.2951028324591
 20
135.037553768537
 10
156.705275245253
 20
135.3788668601618
 10
157.1226409973002
 20
135.6707159667911
 10
157.5253570414085
 20
135.9455444004282
 10
157.8915803303881
 20
136.2357954730783
 10
158.1994678170473
 20
136.5739124967452
 10
158.4271764541952
 20
136.9923387834331
 10
158.5690818108755
 20
137.5089567601975
 10
158.7336689891255
 20
138.3285938384294
 97
        5
330
EF7C8A212
330
EF7C8A206
330
EF7C8A20A
330
EF7C8A194
330
EF7C8A207
 92
        7
 72
     0
 73
     1
 93
       14
 10
21.26633101087458
 20
138.3285938384294
 10
21.43091818912458
 20
137.5089567601972
 10
21.57282354580488
 20
136.992338783433
 10
21.80053218295272
 20
136.5739124967452
 10
22.10841966961198
 20
136.2357954730783
 10
22.4746429585914
 20
135.9455444004283
 10
22.87735900270127
 20
135.6707159667908
 10
23.29472475474716
 20
135.3788668601617
 10
23.70489716754086
 20
135.037553768537
 10
24.08603319389063
 20
134.6143333799126
 10
24.41628978660509
 20
134.0767623822843
 10
24.72585330408435
 20
133.3285938384293
 10
72.50008343801606
 20
133.3285938384293
 10
72.50008343801607
 20
138.3285938384295
 97
        4
330
EF7C8A198
330
EF7C8A19A
330
EF7C8A199
330
EF7C8A19D
 75
     0
 76
     0
 52
45.0
 41
2.0
 77
     0
 78
     1
 53
45.0
 43
0.0
 44
-47.00000032212312
 45
-1.414213562373094
 46
1.414213562373095
 79
     0
 47
0.2346837798524018
 98
        2
 10
117.2263874898444
 20
136.184225674085
 10
66.25858219618862
 20
136.8882767278561
  0
LINE
  5
EF7C8A194
102
{ACAD_REACTORS
330
EF7C8A193
102
}
330
EF7C85532
100
AcDbEntity
  8
JISSEN
100
AcDbLine
 10
116.350083438016
 20
133.3285938384294
 30
0.0
 11
90.00008343801608
 21
133.3285938384294
 31
0.0
  0
LWPOLYLINE
  5
EF7C8A195
330
EF7C85532
100
AcDbEntity
  8
NITEN
100
AcDbPolyline
 90
       15
 70
     1
 43
0.0
 10
76.0
 20
140.9391427441568
 42
0.4142135623730927
 10
77.49999999999994
 20
139.4391427441568
 10
100.5940511709964
 20
139.4391427441568
 10
102.4999999999999
 20
139.4391427441568
 42
0.4142135623730925
 10
104.0
 20
140.9391427441568
 10
104.0
 20
151.9851587703747
 42
-0.4142135623730943
 10
108.9999999999999
 20
156.9851587703747
 42
0.4142135623730951
 10
111.0
 20
158.9851587703748
 10
110.9999999999999
 20
179.4391427441568
 42
0.4142135623730948
 10
109.0
 20
181.4391427441568
 10
71.0
 20
181.4391427441568
 42
0.4142135623730951
 10
69.0
 20
179.4391427441568
 10
69.0
 20
158.9851587703748
 42
0.4142135623730951
 10
71.0
 20
156.9851587703747
 42
-0.4142135623730961
 10
76.0
 20
151.9851587703747
  0
LWPOLYLINE
  5
EF7C8A196
330
EF7C85532
100
AcDbEntity
  8
NITEN
100
AcDbPolyline
 90
        5
 70
     0
 43
0.0
 10
107.0
 20
181.4391427441568
 10
107.0
 20
202.2768603953026
 42
-0.5882352941176475
 10
90.0
 20
202.2768603953026
 42
0.5882352941176476
 10
73.0
 20
202.2768603953024
 10
73.0
 20
181.4391427441568
  0
LWPOLYLINE
  5
EF7C8A197
330
EF7C85532
100
AcDbEntity
  8
NITEN
100
AcDbPolyline
 90
        2
 70
     0
 43
0.0
 10
107.0
 20
202.2768603953026
 42
0.5882352941176294
 10
89.99999999999996
 20
202.2768603953029
 42
0.5882352941176294
  0
LINE
  5
EF7C8A198
102
{ACAD_REACTORS
330
EF7C8A193
102
}
330
EF7C85532
100
AcDbEntity
  8
JISSEN
100
AcDbLine
 10
21.26633101087457
 20
138.3285938384294
 30
0.0
 11
79.46508070100384
 21
138.3285938384294
 31
0.0
  0
LINE
  5
EF7C8A199
102
{ACAD_REACTORS
330
EF7C8A193
102
}
330
EF7C85532
100
AcDbEntity
  8
JISSEN
100
AcDbLine
 10
79.40257752106723
 20
133.3285938384294
 30
0.0
 11
24.72409404430448
 21
133.3285938384294
 31
0.0
  0
LWPOLYLINE
  5
EF7C8A19A
102
{ACAD_REACTORS
330
EF7C8A193
102
}
330
EF7C85532
100
AcDbEntity
  8
HATCH
100
AcDbPolyline
 90
       13
 70
     0
 43
0.0
 10
21.26633101087457
 20
138.3285938384294
 10
21.43091818912455
 20
137.5089567601973
 10
21.57282354580488
 20
136.992338783433
 10
21.80053218295273
 20
136.5739124967452
 10
22.108419669612
 20
136.2357954730783
 10
22.47464295859154
 20
135.9455444004282
 10
22.87735900270027
 20
135.6707159667907
 10
23.2947247547471
 20
135.3788668601617
 10
23.70489716754093
 20
135.037553768537
 10
24.08603319389064
 20
134.6143333799126
 10
24.4162897866051
 20
134.0767623822843
 10
24.69086984980788
 20
133.4131435949968
 10
24.7240940443045
 20
133.3285938384294
  0
LINE
  5
EF7C8A19B
330
EF7C85532
100
AcDbEntity
  8
JISSEN
100
AcDbLine
 10
79.60035234904847
 20
149.9288627494672
 30
0.0
 11
79.11269816323164
 21
134.3247086136253
 31
0.0
  0
LINE
  5
EF7C8A19C
330
EF7C85532
100
AcDbEntity
  8
JISSEN
100
AcDbLine
 10
79.1126981632319
 20
134.3247086136253
 30
0.0
 11
80.33732270598296
 21
136.3285938384339
 31
0.0
  0
LINE
  5
EF7C8A19D
102
{ACAD_REACTORS
330
EF7C8A193
102
}
330
EF7C85532
100
AcDbEntity
  8
JISSEN
100
AcDbLine
 10
72.50008343801607
 20
138.3285938384294
 30
0.0
 11
72.50008343801607
 21
133.3285938384294
 31
0.0
  0
LINE
  5
EF7C8A19E
330
EF7C85532
100
AcDbEntity
  8
JISSEN
100
AcDbLine
 10
63.50008343801604
 20
125.8285938384294
 30
0.0
 11
65.0938179488341
 21
125.8285938384294
 31
0.0
  0
LINE
  5
EF7C8A19F
330
EF7C85532
100
AcDbEntity
  8
JISSEN
100
AcDbLine
 10
90.00008343801608
 20
124.828593838433
 30
0.0
 11
68.5938179488341
 21
124.828593838433
 31
0.0
  0
LINE
  5
EF7C8A1A0
330
EF7C85532
100
AcDbEntity
  8
JISSEN
100
AcDbLine
 10
75.20681577927814
 20
115.731715528822
 30
0.0
 11
76.92244828414692
 21
115.731715528822
 31
0.0
  0
LINE
  5
EF7C8A1A1
330
EF7C85532
100
AcDbEntity
  8
JISSEN
100
AcDbLine
 10
75.99058909315522
 20
116.7260238363352
 30
0.0
 11
77.00918475364346
 21
116.0040952038472
 31
0.0
  0
LINE
  5
EF7C8A1A2
330
EF7C85532
100
AcDbEntity
  8
JISSEN
100
AcDbLine
 10
90.00008343801608
 20
112.328593838433
 30
0.0
 11
75.47088042141422
 21
112.328593838433
 31
0.0
  0
LINE
  5
EF7C8A1A4
330
EF7C85532
100
AcDbEntity
  8
JISSEN
100
AcDbLine
 10
63.65008343801605
 20
133.328593838433
 30
0.0
 11
90.00008343801601
 21
133.328593838433
 31
0.0
  0
LINE
  5
EF7C8A1A5
330
EF7C85532
100
AcDbEntity
  8
JISSEN
100
AcDbLine
 10
64.50008343801608
 20
124.828593838433
 30
0.0
 11
65.0938179488341
 21
124.828593838433
 31
0.0
  0
LINE
  5
EF7C8A1A6
330
EF7C85532
100
AcDbEntity
  8
JISSEN
100
AcDbLine
 10
63.65008343801611
 20
133.3285938384294
 30
0.0
 11
90.00008343801608
 21
133.3285938384294
 31
0.0
  0
LINE
  5
EF7C8A1A7
330
EF7C85532
100
AcDbEntity
  8
JISSEN
100
AcDbLine
 10
75.47088042141422
 20
112.328593838433
 30
0.0
 11
68.5938179488341
 21
115.5620689334809
 31
0.0
  0
LINE
  5
EF7C8A1A8
330
EF7C85532
100
AcDbEntity
  8
JISSEN
100
AcDbLine
 10
68.69537145252138
 20
123.528593838433
 30
0.0
 11
69.3269898382324
 21
123.528593838433
 31
0.0
  0
LINE
  5
EF7C8A1A9
330
EF7C85532
100
AcDbEntity
  8
JISSEN
100
AcDbLine
 10
69.19717694845565
 20
122.088038231432
 30
0.0
 11
69.62009682106281
 21
117.2915770332051
 31
0.0
  0
LINE
  5
EF7C8A1AA
330
EF7C85532
100
AcDbEntity
  8
JISSEN
100
AcDbLine
 10
69.24160740007806
 20
116.5079234306193
 30
0.0
 11
70.62970685140931
 21
115.7777098718862
 31
0.0
  0
LWPOLYLINE
  5
EF7C8A1AB
330
EF7C85532
100
AcDbEntity
  8
JISSEN
100
AcDbPolyline
 90
        7
 70
     0
 43
0.0
 10
69.31733862293754
 20
123.239417234982
 10
69.29488411217135
 20
123.1911283447654
 10
69.26032436420399
 20
123.0695924472063
 10
69.23682821644433
 20
122.9153969981129
 10
69.22084122629667
 20
122.7116604864658
 10
69.20880895116567
 20
122.4415014012453
 10
69.19717694845565
 20
122.0880382314321
  0
LINE
  5
EF7C8A1B2
330
EF7C85532
100
AcDbEntity
  8
JISSEN
100
AcDbLine
 10
68.5938179488341
 20
116.0055079901147
 30
0.0
 11
68.97948962697563
 21
115.8270950991596
 31
0.0
  0
ARC
  5
EF7C8A1B6
330
EF7C85532
100
AcDbEntity
  8
JISSEN
100
AcDbCircle
 10
69.84684078124764
 20
117.6584418156606
 30
0.0
 40
1.3
100
AcDbArc
 50
195.4499093433438
 51
242.2532617103902
  0
ARC
  5
EF7C8A1B7
330
EF7C85532
100
AcDbEntity
  8
JISSEN
100
AcDbCircle
 10
68.88482194171991
 20
116.731715528822
 30
0.0
 40
1.0
100
AcDbArc
 50
253.0819268302114
 51
270.0
  0
ARC
  5
EF7C8A1B8
330
EF7C85532
100
AcDbEntity
  8
JISSEN
100
AcDbCircle
 10
68.95849689975944
 20
115.781715528822
 30
0.0
 40
0.05
100
AcDbArc
 50
269.9999999999975
 51
65.17459539291315
  0
LINE
  5
EF7C8A1B9
330
EF7C85532
100
AcDbEntity
  8
JISSEN
100
AcDbLine
 10
68.88482194171991
 20
115.731715528822
 30
0.0
 11
68.95849689975944
 21
115.731715528822
 31
0.0
  0
ARC
  5
EF7C8A1BC
330
EF7C85532
100
AcDbEntity
  8
JISSEN
100
AcDbCircle
 10
68.69537145252138
 20
123.028593838433
 30
0.0
 40
0.5
100
AcDbArc
 50
89.99999999999836
 51
101.718707457327
  0
LINE
  5
EF7C8A1BD
330
EF7C85532
100
AcDbEntity
  8
JISSEN
100
AcDbLine
 10
63.50008343801608
 20
126.8285938384294
 30
0.0
 11
63.50008343801608
 21
125.828593838433
 31
0.0
  0
LINE
  5
EF7C8A1BE
330
EF7C85532
100
AcDbEntity
  8
JISSEN
100
AcDbLine
 10
63.50008343801608
 20
125.828593838433
 30
0.0
 11
64.50008343801608
 21
124.828593838433
 31
0.0
  0
LINE
  5
EF7C8A1C0
330
EF7C85532
100
AcDbEntity
  8
JISSEN
100
AcDbLine
 10
69.52616622462136
 20
123.3467257744865
 30
0.0
 11
70.09427486849739
 21
117.1061441603835
 31
0.0
  0
LINE
  5
EF7C8A1C1
330
EF7C85532
100
AcDbEntity
  8
JISSEN
100
AcDbLine
 10
70.35943376478911
 20
116.7089669293475
 30
0.0
 11
71.85880803703401
 21
115.9202169430559
 31
0.0
  0
LINE
  5
EF7C8A1C2
330
EF7C85532
100
AcDbEntity
  8
JISSEN
100
AcDbLine
 10
70.81593250715378
 20
115.731715528822
 30
0.0
 11
71.8122516230979
 21
115.731715528822
 31
0.0
  0
ARC
  5
EF7C8A1C3
330
EF7C85532
100
AcDbEntity
  8
JISSEN
100
AcDbCircle
 10
70.81593250715378
 20
116.131715528822
 30
0.0
 40
0.4
100
AcDbArc
 50
242.2532617103895
 51
270.0
  0
ARC
  5
EF7C8A1C4
330
EF7C85532
100
AcDbEntity
  8
JISSEN
100
AcDbCircle
 10
70.11816444800103
 20
117.3354933057713
 30
0.0
 40
0.5
100
AcDbArc
 50
185.0389272054838
 51
270.0
  0
LINE
  5
EF7C8A1C5
330
EF7C85532
100
AcDbEntity
  8
JISSEN
100
AcDbLine
 10
70.11816444800103
 20
116.8354933057713
 30
0.0
 11
70.20471589827838
 21
116.8354933057713
 31
0.0
  0
ARC
  5
EF7C8A1C6
330
EF7C85532
100
AcDbEntity
  8
JISSEN
100
AcDbCircle
 10
70.59221583446969
 20
117.1514740005172
 30
0.0
 40
0.5
100
AcDbArc
 50
185.2015591383337
 51
242.2532617103895
  0
ARC
  5
EF7C8A1C7
330
EF7C85532
100
AcDbEntity
  8
JISSEN
100
AcDbCircle
 10
71.8122516230979
 20
115.831715528822
 30
0.0
 40
0.1
100
AcDbArc
 50
270.0
 51
62.25326171038955
  0
ARC
  5
EF7C8A1C8
330
EF7C85532
100
AcDbEntity
  8
JISSEN
100
AcDbCircle
 10
69.77071870131277
 20
123.028593838433
 30
0.0
 40
0.5
100
AcDbArc
 50
124.0154667853861
 51
155.0613998477252
  0
ARC
  5
EF7C8A1C9
330
EF7C85532
100
AcDbEntity
  8
JISSEN
100
AcDbCircle
 10
69.3269898382324
 20
123.328593838433
 30
0.0
 40
0.2
100
AcDbArc
 50
5.201559138333794
 51
89.9999999999992
  0
LINE
  5
EF7C8A1CA
330
EF7C85532
100
AcDbEntity
  8
JISSEN
100
AcDbLine
 10
75.68368803330162
 20
122.5572324820591
 30
0.0
 11
75.84275548347495
 21
117.0052165576666
 31
0.0
  0
LINE
  5
EF7C8A1CB
330
EF7C85532
100
AcDbEntity
  8
JISSEN
100
AcDbLine
 10
73.89384307487159
 20
123.2090023595041
 30
0.0
 11
74.28648671249186
 21
117.2093713338662
 31
0.0
  0
LINE
  5
EF7C8A1CC
330
EF7C85532
100
AcDbEntity
  8
JISSEN
100
AcDbLine
 10
73.14302849691063
 20
122.4585245186356
 30
0.0
 11
73.49820597175062
 21
117.4020391139076
 31
0.0
  0
ARC
  5
EF7C8A1CD
330
EF7C85532
100
AcDbEntity
  8
JISSEN
100
AcDbCircle
 10
74.68563285437949
 20
117.2354933057713
 30
0.0
 40
0.4
100
AcDbArc
 50
183.7443615307126
 51
270.0
  0
LINE
  5
EF7C8A1CE
330
EF7C85532
100
AcDbEntity
  8
JISSEN
100
AcDbLine
 10
74.00136476534118
 20
116.507084897463
 30
0.0
 11
75.00443068378615
 21
115.7961629537632
 31
0.0
  0
ARC
  5
EF7C8A1CF
330
EF7C85532
100
AcDbEntity
  8
JISSEN
100
AcDbCircle
 10
74.69525652131375
 20
117.4861222976645
 30
0.0
 40
1.199999999999999
100
AcDbArc
 50
184.0179687262446
 51
234.6729315995182
  0
ARC
  5
EF7C8A1D0
330
EF7C85532
100
AcDbEntity
  8
JISSEN
100
AcDbCircle
 10
75.20681577927814
 20
116.081715528822
 30
0.0
 40
0.35
100
AcDbArc
 50
234.6729315995182
 51
270.0
  0
LINE
  5
EF7C8A1D1
330
EF7C85532
100
AcDbEntity
  8
JISSEN
100
AcDbLine
 10
74.68563285437955
 20
116.8354933057713
 30
0.0
 11
75.88578419220488
 21
116.8354933057713
 31
0.0
  0
ARC
  5
EF7C8A1D2
330
EF7C85532
100
AcDbEntity
  8
JISSEN
100
AcDbCircle
 10
76.22188634514606
 20
117.0523696364024
 30
0.0
 40
0.4
100
AcDbArc
 50
184.0179687262446
 51
234.6729315995211
  0
LINE
  5
EF7C8A1D3
330
EF7C85532
100
AcDbEntity
  8
JISSEN
100
AcDbLine
 10
75.70008343801584
 20
118.8285938384331
 30
0.0
 11
75.70008343801589
 21
116.8354933057713
 31
0.0
  0
LINE
  5
EF7C8A1D4
330
EF7C85532
100
AcDbEntity
  8
JISSEN
100
AcDbLine
 10
75.78799626657565
 20
118.9165066669929
 30
0.0
 11
75.70008343801595
 21
118.8285938384332
 31
0.0
  0
LINE
  5
EF7C8A1D5
330
EF7C85532
100
AcDbEntity
  8
JISSEN
100
AcDbLine
 10
75.70008343801584
 20
118.8285938384331
 30
0.0
 11
75.79051500385361
 21
118.828593838433
 31
0.0
  0
LINE
  5
EF7C8A1D6
330
EF7C85532
100
AcDbEntity
  8
JISSEN
100
AcDbLine
 10
74.68409820337569
 20
123.528593838433
 30
0.0
 11
74.14057062154649
 21
123.528593838433
 31
0.0
  0
ARC
  5
EF7C8A1D7
330
EF7C85532
100
AcDbEntity
  8
JISSEN
100
AcDbCircle
 10
74.14057062154654
 20
122.528593838433
 30
0.0
 40
1.0
100
AcDbArc
 50
90.00000000000161
 51
184.0179687262446
  0
LINE
  5
EF7C8A1D8
330
EF7C85532
100
AcDbEntity
  8
JISSEN
100
AcDbLine
 10
74.14057062154654
 20
123.528593838433
 30
0.0
 11
74.19320268128728
 21
123.528593838433
 31
0.0
  0
ARC
  5
EF7C8A1D9
330
EF7C85532
100
AcDbEntity
  8
JISSEN
100
AcDbCircle
 10
74.19320268128728
 20
123.228593838433
 30
0.0
 40
0.3
100
AcDbArc
 50
90.0
 51
183.7443615307126
  0
ARC
  5
EF7C8A1DA
330
EF7C85532
100
AcDbEntity
  8
JISSEN
100
AcDbCircle
 10
74.68409820337575
 20
122.528593838433
 30
0.0
 40
1.0
100
AcDbArc
 50
1.641097793296661
 51
90.00000000000161
  0
LINE
  5
EF7C8A1DB
330
EF7C85532
100
AcDbEntity
  8
JISSEN
100
AcDbLine
 10
75.70008343801589
 20
121.9849749399818
 30
0.0
 11
75.70008343801589
 21
120.3285938384333
 31
0.0
  0
LINE
  5
EF7C8A1DC
330
EF7C85532
100
AcDbEntity
  8
JISSEN
100
AcDbLine
 10
75.70008343801595
 20
120.3285938384332
 30
0.0
 11
75.74893914646523
 21
120.2797381299839
 31
0.0
  0
LINE
  5
EF7C8A1DD
330
EF7C85532
100
AcDbEntity
  8
JISSEN
100
AcDbLine
 10
75.70008343801589
 20
120.3285938384333
 30
0.0
 11
75.74753941111229
 21
120.3285938384333
 31
0.0
  0
LINE
  5
EF7C8A1DE
330
EF7C85532
100
AcDbEntity
  8
JISSEN
100
AcDbLine
 10
90.00008343801608
 20
111.8318123873575
 30
0.0
 11
76.84771022523944
 21
111.8318123873575
 31
0.0
  0
LINE
  5
EF7C8A1DF
330
EF7C85532
100
AcDbEntity
  8
JISSEN
100
AcDbLine
 10
90.00008343801608
 20
111.5785938384332
 30
0.0
 11
79.08750962375973
 21
111.5785938384332
 31
0.0
  0
ARC
  5
EF7C8A1E0
330
EF7C85532
100
AcDbEntity
  8
JISSEN
100
AcDbCircle
 10
76.84771022523944
 20
112.1318123873576
 30
0.0
 40
0.3
100
AcDbArc
 50
180.0
 51
270.0
  0
LINE
  5
EF7C8A1E1
330
EF7C85532
100
AcDbEntity
  8
JISSEN
100
AcDbLine
 10
76.54771022523942
 20
112.1318123873576
 30
0.0
 11
76.54771022523942
 21
112.328593838433
 31
0.0
  0
LINE
  5
EF7C8A1E2
330
EF7C85532
100
AcDbEntity
  8
JISSEN
100
AcDbLine
 10
78.94131382637448
 20
111.8318123873575
 30
0.0
 11
79.08750962375979
 21
111.5785938384332
 31
0.0
  0
ARC
  5
EF7C8A1E3
330
EF7C85532
100
AcDbEntity
  8
JISSEN
100
AcDbCircle
 10
82.32165700739159
 20
122.528593838433
 30
0.0
 40
1.0
100
AcDbArc
 50
359.5503379160761
 51
90.0
  0
LINE
  5
EF7C8A1E4
330
EF7C85532
100
AcDbEntity
  8
JISSEN
100
AcDbLine
 10
81.42122422852731
 20
115.731715528822
 30
0.0
 11
83.6901532640797
 21
115.731715528822
 31
0.0
  0
LINE
  5
EF7C8A1E5
330
EF7C85532
100
AcDbEntity
  8
JISSEN
100
AcDbLine
 10
83.85009614404618
 20
116.051791651128
 30
0.0
 11
83.31810668327511
 21
116.7604081923142
 31
0.0
  0
LINE
  5
EF7C8A1E6
330
EF7C85532
100
AcDbEntity
  8
JISSEN
100
AcDbLine
 10
79.11269816323164
 20
134.3247086136248
 30
0.0
 11
90.00008343801608
 21
134.3247086136248
 31
0.0
  0
ARC
  5
EF7C8A1E7
330
EF7C85532
100
AcDbEntity
  8
JISSEN
100
AcDbCircle
 10
76.92244828414692
 20
115.881715528822
 30
0.0
 40
0.15
100
AcDbArc
 50
270.0
 51
54.67293159952184
  0
LINE
  5
EF7C8A1E8
330
EF7C85532
100
AcDbEntity
  8
JISSEN
100
AcDbLine
 10
80.84385609421081
 20
117.12505292562
 30
0.0
 11
80.62987823833953
 21
123.2698935216402
 31
0.0
  0
LINE
  5
EF7C8A1E9
330
EF7C85532
100
AcDbEntity
  8
JISSEN
100
AcDbLine
 10
80.23127559482089
 20
122.4912449460987
 30
0.0
 11
80.43097019181141
 21
117.1482413134432
 31
0.0
  0
LINE
  5
EF7C8A1EA
330
EF7C85532
100
AcDbEntity
  8
JISSEN
100
AcDbLine
 10
83.32162621133932
 20
122.5207458351106
 30
0.0
 11
83.27700695650367
 21
116.8354933057713
 31
0.0
  0
LINE
  5
EF7C8A1EB
330
EF7C85532
100
AcDbEntity
  8
JISSEN
100
AcDbLine
 10
81.14367436994177
 20
116.8354933057713
 30
0.0
 11
83.27700695650269
 21
116.8354933057713
 31
0.0
  0
LINE
  5
EF7C8A1EC
330
EF7C85532
100
AcDbEntity
  8
JISSEN
100
AcDbLine
 10
80.78453477802424
 20
118.8285938384331
 30
0.0
 11
83.29264929782818
 21
118.828593838433
 31
0.0
  0
ARC
  5
EF7C8A1ED
330
EF7C85532
100
AcDbEntity
  8
JISSEN
100
AcDbCircle
 10
81.42122422852731
 20
116.031715528822
 30
0.0
 40
0.3
100
AcDbArc
 50
216.8971618048533
 51
270.0
  0
LINE
  5
EF7C8A1EE
330
EF7C85532
100
AcDbEntity
  8
JISSEN
100
AcDbLine
 10
80.63055807869796
 20
116.5852095942477
 30
0.0
 11
81.18130990857764
 21
115.851601345363
 31
0.0
  0
ARC
  5
EF7C8A1EF
330
EF7C85532
100
AcDbEntity
  8
JISSEN
100
AcDbCircle
 10
81.14367436994177
 20
117.1354933057713
 30
0.0
 40
0.3
100
AcDbArc
 50
181.9943684414887
 51
270.0
  0
ARC
  5
EF7C8A1F0
330
EF7C85532
100
AcDbEntity
  8
JISSEN
100
AcDbCircle
 10
81.43027247853018
 20
117.1855902057776
 30
0.0
 40
1.0
100
AcDbArc
 50
182.1404317259522
 51
216.8971618048551
  0
ARC
  5
EF7C8A1F1
330
EF7C85532
100
AcDbEntity
  8
JISSEN
100
AcDbCircle
 10
83.55802100322478
 20
116.9405223757732
 30
0.0
 40
0.3
100
AcDbArc
 50
182.1404317259522
 51
216.8971618048533
  0
LINE
  5
EF7C8A1F2
330
EF7C85532
100
AcDbEntity
  8
JISSEN
100
AcDbLine
 10
81.23057788153966
 20
123.528593838433
 30
0.0
 11
82.32165700739159
 21
123.528593838433
 31
0.0
  0
LINE
  5
EF7C8A1F3
330
EF7C85532
100
AcDbEntity
  8
JISSEN
100
AcDbLine
 10
80.73230123692718
 20
120.3285938384333
 30
0.0
 11
83.30442166535418
 21
120.3285938384333
 31
0.0
  0
ARC
  5
EF7C8A1F4
330
EF7C85532
100
AcDbEntity
  8
JISSEN
100
AcDbCircle
 10
81.23057788153966
 20
122.528593838433
 30
0.0
 40
1.0
100
AcDbArc
 50
89.9999999999992
 51
182.1404317259522
  0
LINE
  5
EF7C8A1F5
330
EF7C85532
100
AcDbEntity
  8
JISSEN
100
AcDbLine
 10
79.11269816323138
 20
134.3247086136252
 30
0.0
 11
78.1165833880392
 21
133.328593838433
 31
0.0
  0
ARC
  5
EF7C8A1F6
330
EF7C85532
100
AcDbEntity
  8
JISSEN
100
AcDbCircle
 10
90.00008343801608
 20
125.8285938384294
 30
0.0
 40
1.0
100
AcDbArc
 50
180.0
 51
270.0
  0
ARC
  5
EF7C8A1F7
330
EF7C85532
100
AcDbEntity
  8
JISSEN
100
AcDbCircle
 10
83.6901532640797
 20
115.931715528822
 30
0.0
 40
0.2
100
AcDbArc
 50
270.0
 51
36.89716180485333
  0
LINE
  5
EF7C8A1F8
330
EF7C85532
100
AcDbEntity
  8
JISSEN
100
AcDbLine
 10
88.22333812058252
 20
122.4876570740308
 30
0.0
 11
88.48291254518892
 21
116.1521091292754
 31
0.0
  0
ARC
  5
EF7C8A1F9
330
EF7C85532
100
AcDbEntity
  8
JISSEN
100
AcDbCircle
 10
88.96403077416772
 20
116.1926645385233
 30
0.0
 40
0.5
100
AcDbArc
 50
180.0
 51
270.0
  0
LINE
  5
EF7C8A1FA
330
EF7C85532
100
AcDbEntity
  8
JISSEN
100
AcDbLine
 10
88.48935018481951
 20
116.8277401345665
 30
0.0
 11
89.99248072290754
 21
116.8106655687543
 31
0.0
  0
LINE
  5
EF7C8A1FB
330
EF7C85532
100
AcDbEntity
  8
JISSEN
100
AcDbLine
 10
88.37325399877659
 20
118.828593838433
 30
0.0
 11
90.00008343801608
 21
118.828593838433
 31
0.0
  0
LINE
  5
EF7C8A1FC
330
EF7C85532
100
AcDbEntity
  8
JISSEN
100
AcDbLine
 10
90.00008343801608
 20
115.6926645385233
 30
0.0
 11
88.96403077416772
 21
115.6926645385233
 31
0.0
  0
ARC
  5
EF7C8A1FD
330
EF7C85532
100
AcDbEntity
  8
JISSEN
100
AcDbCircle
 10
89.22249985990214
 20
122.528593838433
 30
0.0
 40
1.0
100
AcDbArc
 50
90.0
 51
182.3461594282035
  0
LINE
  5
EF7C8A1FE
330
EF7C85532
100
AcDbEntity
  8
JISSEN
100
AcDbLine
 10
89.22249985990214
 20
123.528593838433
 30
0.0
 11
90.00008343801608
 21
123.528593838433
 31
0.0
  0
LINE
  5
EF7C8A1FF
330
EF7C85532
100
AcDbEntity
  8
JISSEN
100
AcDbLine
 10
89.00008343801607
 20
126.8285938384294
 30
0.0
 11
89.00008343801607
 21
125.8285938384294
 31
0.0
  0
LINE
  5
EF7C8A201
330
EF7C85532
100
AcDbEntity
  8
JISSEN
100
AcDbLine
 10
90.00008343801608
 20
151.328593838433
 30
0.0
 11
81.00008343801432
 21
151.328593838433
 31
0.0
1001
ACAD
1000
ASC_BOUNDS
1002
{
1070
    19
1002
}
  0
LINE
  5
EF7C8A202
330
EF7C85532
100
AcDbEntity
  8
JISSEN
100
AcDbLine
 10
90.00008343801608
 20
136.3285938384335
 30
0.0
 11
79.17532270598269
 21
136.3285938384335
 31
0.0
  0
LINE
  5
EF7C8A203
330
EF7C85532
100
AcDbEntity
  8
JISSEN
100
AcDbLine
 10
79.60035234904847
 20
149.9288627494672
 30
0.0
 11
90.00008343801608
 21
149.9288627494672
 31
0.0
  0
LINE
  5
EF7C8A204
330
EF7C85532
100
AcDbEntity
  8
SAISEN
100
AcDbLine
 10
80.7998381536853
 20
151.128348554104
 30
0.0
 11
80.33732270598273
 21
136.3285938384339
 31
0.0
  0
LINE
  5
EF7C8A205
330
EF7C85532
100
AcDbEntity
  8
JISSEN
100
AcDbLine
 10
81.00008343801432
 20
151.328593838433
 30
0.0
 11
79.60035234904847
 21
149.9288627494672
 31
0.0
  0
LINE
  5
EF7C8A206
102
{ACAD_REACTORS
330
EF7C8A193
102
}
330
EF7C85532
100
AcDbEntity
  8
JISSEN
100
AcDbLine
 10
158.7336689891255
 20
138.3285938384294
 30
0.0
 11
100.5350861750283
 21
138.3285938384293
 31
0.0
  0
LINE
  5
EF7C8A207
102
{ACAD_REACTORS
330
EF7C8A193
102
}
330
EF7C85532
100
AcDbEntity
  8
JISSEN
100
AcDbLine
 10
100.5975893549649
 20
133.3285938384294
 30
0.0
 11
155.2759059556956
 21
133.3285938384294
 31
0.0
  0
LINE
  5
EF7C8A208
330
EF7C85532
100
AcDbEntity
  8
JISSEN
100
AcDbLine
 10
100.3998145269836
 20
149.9288627494672
 30
0.0
 11
100.8874687128005
 21
134.3247086136253
 31
0.0
  0
LINE
  5
EF7C8A209
330
EF7C85532
100
AcDbEntity
  8
JISSEN
100
AcDbLine
 10
100.8874687128002
 20
134.3247086136253
 30
0.0
 11
99.66284417004922
 21
136.3285938384339
 31
0.0
  0
LINE
  5
EF7C8A20A
102
{ACAD_REACTORS
330
EF7C8A193
102
}
330
EF7C85532
100
AcDbEntity
  8
JISSEN
100
AcDbLine
 10
107.500083438016
 20
138.3285938384294
 30
0.0
 11
107.500083438016
 21
133.3285938384294
 31
0.0
  0
ARC
  5
EF7C8A20C
330
EF7C85532
100
AcDbEntity
  8
JISSEN
100
AcDbCircle
 10
91.03613610186446
 20
116.1926645385233
 30
0.0
 40
0.5
100
AcDbArc
 50
270.0
 51
0.000000000000007
  0
LINE
  5
EF7C8A20D
330
EF7C85532
100
AcDbEntity
  8
JISSEN
100
AcDbLine
 10
91.00008343801608
 20
126.8285938384294
 30
0.0
 11
91.00008343801608
 21
125.8285938384294
 31
0.0
  0
LINE
  5
EF7C8A20E
330
EF7C85532
100
AcDbEntity
  8
JISSEN
100
AcDbLine
 10
100.8874687128007
 20
134.3247086136252
 30
0.0
 11
101.8835834879929
 21
133.328593838433
 31
0.0
  0
LINE
  5
EF7C8A210
330
EF7C85532
100
AcDbEntity
  8
SAISEN
100
AcDbLine
 10
99.20032872234688
 20
151.128348554104
 30
0.0
 11
99.66284417004946
 21
136.3285938384339
 31
0.0
  0
LINE
  5
EF7C8A211
330
EF7C85532
100
AcDbEntity
  8
JISSEN
100
AcDbLine
 10
99.00008343801786
 20
151.328593838433
 30
0.0
 11
100.3998145269836
 21
149.9288627494672
 31
0.0
  0
LWPOLYLINE
  5
EF7C8A212
102
{ACAD_REACTORS
330
EF7C8A193
102
}
330
EF7C85532
100
AcDbEntity
  8
HATCH
100
AcDbPolyline
 90
       13
 70
     0
 43
0.0
 10
158.7336689891255
 20
138.3285938384294
 10
158.5690818108755
 20
137.5089567601973
 10
158.4271764541952
 20
136.9923387834331
 10
158.1994678170473
 20
136.5739124967452
 10
157.8915803303881
 20
136.2357954730783
 10
157.5253570414085
 20
135.9455444004282
 10
157.1226409972998
 20
135.6707159667907
 10
156.705275245253
 20
135.3788668601617
 10
156.2951028324591
 20
135.037553768537
 10
155.9139668061094
 20
134.6143333799126
 10
155.583710213395
 20
134.0767623822843
 10
155.3091301501922
 20
133.4131435949969
 10
155.2759059556956
 20
133.3285938384294
  0
LINE
  5
EF7C8A213
330
EF7C85532
100
AcDbEntity
  8
JISSEN
100
AcDbLine
 10
68.5938179488341
 20
125.8285938384294
 30
0.0
 11
89.00008343801607
 21
125.8285938384294
 31
0.0
  0
LINE
  5
EF7C8A214
330
EF7C85532
100
AcDbEntity
  8
JISSEN
100
AcDbLine
 10
68.5938179488341
 20
124.828593838433
 30
0.0
 11
90.00008343801601
 21
124.828593838433
 31
0.0
  0
LINE
  5
EF7C8A215
330
EF7C85532
100
AcDbEntity
  8
JISSEN
100
AcDbLine
 10
97.09498980237249
 20
125.8285938384294
 30
0.0
 11
91.00008343801608
 21
125.8285938384294
 31
0.0
  0
LINE
  5
EF7C8A216
330
EF7C85532
100
AcDbEntity
  8
JISSEN
100
AcDbLine
 10
100.5949898023724
 20
124.828593838433
 30
0.0
 11
114.5825857053112
 21
124.828593838433
 31
0.0
  0
LINE
  5
EF7C8A217
330
EF7C85532
100
AcDbEntity
  8
JISSEN
100
AcDbLine
 10
97.09498980237249
 20
124.828593838433
 30
0.0
 11
90.00008343801615
 21
124.828593838433
 31
0.0
  0
LINE
  5
EF7C8A218
330
EF7C85532
100
AcDbEntity
  8
JISSEN
100
AcDbLine
 10
100.4620539990445
 20
112.328593838433
 30
0.0
 11
104.5292864546179
 21
112.328593838433
 31
0.0
  0
LINE
  5
EF7C8A219
330
EF7C85532
100
AcDbEntity
  8
JISSEN
100
AcDbLine
 10
100.3672718390616
 20
111.8318123873575
 30
0.0
 11
103.1524566507927
 21
111.8318123873575
 31
0.0
  0
LINE
  5
EF7C8A21A
330
EF7C85532
100
AcDbEntity
  8
JISSEN
100
AcDbLine
 10
100.3088336563917
 20
111.5785938384332
 30
0.0
 11
100.9126572522724
 21
111.5785938384332
 31
0.0
  0
LINE
  5
EF7C8A4C9
330
EF7C85532
100
AcDbEntity
  8
TEXT
100
AcDbLine
 10
143.3926104515989
 20
9.6587607167952
 30
0.0
 11
143.3926104515989
 21
6.6587607167952
 31
0.0
  0
LINE
  5
EF7C8A4CA
330
EF7C85532
100
AcDbEntity
  8
TEXT
100
AcDbLine
 10
143.9426104515989
 20
9.6587607167952
 30
0.0
 11
143.9426104515989
 21
6.6587607167952
 31
0.0
  0
LINE
  5
EF7C8A4CB
330
EF7C85532
100
AcDbEntity
  8
TEXT
100
AcDbLine
 10
142.8426104515988
 20
9.6587607167952
 30
0.0
 11
142.8426104515988
 21
6.6587607167952
 31
0.0
  0
TEXT
  5
EF7C8A4D4
330
EF7C85532
100
AcDbEntity
  8
TEXT
100
AcDbText
 10
102.7742849902856
 20
272.4999998019201
 30
0.0
 40
3.0
  1
MFJ  -O 型ヘッド
 41
0.8
  7
K
 72
     4
 11
116.4999992759999
 21
273.9999998019202
 31
0.0
100
AcDbText
  0
LINE
  5
EF7C8A4D6
330
EF7C85532
100
AcDbEntity
  8
TEXT
100
AcDbLine
 10
111.1120056204441
 20
275.5000367258215
 30
0.0
 11
111.1120056204441
 21
272.5000367258215
 31
0.0
  0
LINE
  5
EF7C8A4D9
330
EF7C85532
100
AcDbEntity
  8
TEXT
100
AcDbLine
 10
111.6620056204442
 20
275.5000367258215
 30
0.0
 11
111.6620056204442
 21
272.5000367258215
 31
0.0
  0
LINE
  5
EF7C8A4DA
330
EF7C85532
100
AcDbEntity
  8
TEXT
100
AcDbLine
 10
110.5620056204441
 20
275.5000367258215
 30
0.0
 11
110.5620056204441
 21
272.5000367258215
 31
0.0
  0
LINE
  5
EF7C8A4DD
330
EF7C85532
100
AcDbEntity
  8
TEXT
100
AcDbLine
 10
110.2120056204442
 20
272.5000367258215
 30
0.0
 11
112.0120056204441
 21
272.5000367258215
 31
0.0
  0
LINE
  5
EF7C8A4DF
330
EF7C85532
100
AcDbEntity
  8
TEXT
100
AcDbLine
 10
110.2120056204442
 20
275.5000367258215
 30
0.0
 11
112.0120056204441
 21
275.5000367258215
 31
0.0
  0
ENDSEC
  0
SECTION
  2
OBJECTS
  0
DICTIONARY
  5
EF7C85527
330
0
100
AcDbDictionary
  3
ACAD_GROUP
350
EF7C85528
  3
ACAD_LAYOUT
350
EF7C85BB7
  3
ACAD_MLINESTYLE
350
EF7C85535
  3
ACAD_PLOTSETTINGS
350
EF7C85BB8
  3
ACAD_PLOTSTYLENAME
350
EF7C85BB5
  3
ACDBHEADERROUNDTRIPXREC
350
EF7C8A4EE
  3
ACDBVARIABLEDICTIONARY
350
EF7C85DB7
  0
DICTIONARY
  5
EF7C85D9A
330
EF7C85532
100
AcDbDictionary
280
     1
  3
ACAD_LAYOUTSELFREF
360
EF7C8A510
  0
DICTIONARY
  5
EF7C85D98
330
EF7C8552F
100
AcDbDictionary
280
     1
  3
ACAD_LAYOUTSELFREF
360
EF7C8A50F
  0
DICTIONARY
  5
EF7C85528
102
{ACAD_REACTORS
330
EF7C85527
102
}
330
EF7C85527
100
AcDbDictionary
  0
DICTIONARY
  5
EF7C85BB7
102
{ACAD_REACTORS
330
EF7C85527
102
}
330
EF7C85527
100
AcDbDictionary
  0
DICTIONARY
  5
EF7C85535
102
{ACAD_REACTORS
330
EF7C85527
102
}
330
EF7C85527
100
AcDbDictionary
  3
STANDARD
350
EF7C85536
  0
DICTIONARY
  5
EF7C85BB8
102
{ACAD_REACTORS
330
EF7C85527
102
}
330
EF7C85527
100
AcDbDictionary
  0
ACDBDICTIONARYWDFLT
  5
EF7C85BB5
102
{ACAD_REACTORS
330
EF7C85527
102
}
330
EF7C85527
100
AcDbDictionary
281
     1
  3
Normal
350
EF7C85BB6
100
AcDbDictionaryWithDefault
340
EF7C85BB6
  0
DICTIONARY
  5
EF7C8A4EE
102
{ACAD_REACTORS
330
EF7C85527
102
}
330
EF7C85527
100
AcDbDictionary
  3
CEPSNTYPE
350
EF7C8A4F8
  3
DIMSTYLEDATA
350
EF7C8A4FC
  3
FINGERPRINTGUID
350
EF7C8A4F9
  3
HYPERLINKBASE
350
EF7C8A4F1
  3
INSUNITS
350
EF7C8A4F7
  3
LAYOUTDICT
350
EF7C8A4F3
  3
LWETCUNION
350
EF7C8A4F6
  3
PLOTSETDICT
350
EF7C8A4F4
  3
PLOTSTYLNAMDICT
350
EF7C8A4F5
  3
PSVPSCALE
350
EF7C8A4FB
  3
PUCSBASE
350
EF7C8A4FF
  3
PUCSORGBACK
350
EF7C8A505
  3
PUCSORGBOTTOM
350
EF7C8A501
  3
PUCSORGFRONT
350
EF7C8A504
  3
PUCSORGLEFT
350
EF7C8A502
  3
PUCSORGRIGHT
350
EF7C8A503
  3
PUCSORGTOP
350
EF7C8A500
  3
PUCSORTHOREF
350
EF7C8A4FD
  3
PUCSORTHOVIEW
350
EF7C8A4FE
  3
STYLESHEET
350
EF7C8A4F2
  3
TSTACKALIGN
350
EF7C8A4EF
  3
TSTACKSIZE
350
EF7C8A4F0
  3
UCSBASE
350
EF7C8A508
  3
UCSORGBACK
350
EF7C8A50E
  3
UCSORGBOTTOM
350
EF7C8A50A
  3
UCSORGFRONT
350
EF7C8A50D
  3
UCSORGLEFT
350
EF7C8A50B
  3
UCSORGRIGHT
350
EF7C8A50C
  3
UCSORGTOP
350
EF7C8A509
  3
UCSORTHOREF
350
EF7C8A506
  3
UCSORTHOVIEW
350
EF7C8A507
  3
VERSIONGUID
350
EF7C8A4FA
  0
DICTIONARY
  5
EF7C85DB7
102
{ACAD_REACTORS
330
EF7C85527
102
}
330
EF7C85527
100
AcDbDictionary
  3
DIMASSOC
350
EF7C8A4E7
  3
SORTENTS
350
EF7C85DB8
  0
XRECORD
  5
EF7C8A510
102
{ACAD_REACTORS
330
EF7C85D9A
102
}
330
EF7C85D9A
100
AcDbXrecord
340
EF7C85532
  0
XRECORD
  5
EF7C8A50F
102
{ACAD_REACTORS
330
EF7C85D98
102
}
330
EF7C85D98
100
AcDbXrecord
340
EF7C8552F
  0
MLINESTYLE
  5
EF7C85536
102
{ACAD_REACTORS
330
EF7C85535
102
}
330
EF7C85535
100
AcDbMlineStyle
  2
STANDARD
 70
     0
  3

 62
   256
 51
90.0
 52
90.0
 71
     2
 49
0.5
 62
   256
  6
BYLAYER
 49
-0.5
 62
   256
  6
BYLAYER
  0
ACDBPLACEHOLDER
  5
EF7C85BB6
102
{ACAD_REACTORS
330
EF7C85BB5
102
}
330
EF7C85BB5
100
AcDbPlaceHolder
280
     0
  0
XRECORD
  5
EF7C8A4F8
102
{ACAD_REACTORS
330
EF7C8A4EE
102
}
330
EF7C8A4EE
100
AcDbXrecord
 90
        0
  0
XRECORD
  5
EF7C8A4FC
102
{ACAD_REACTORS
330
EF7C8A4EE
102
}
330
EF7C8A4EE
100
AcDbXrecord
1000
DSTYLE
1002
{
1070
   279
 70
     2
1070
   341
340
EF7C85537
1070
   342
340
EF7C85537
1070
   343
340
EF7C85543
1070
   344
340
EF7C85543
1002
}
  0
XRECORD
  5
EF7C8A4F9
102
{ACAD_REACTORS
330
EF7C8A4EE
102
}
330
EF7C8A4EE
100
AcDbXrecord
  1
{09AA4C7A-3D6F-4857-A850-771461888CEC}
  0
XRECORD
  5
EF7C8A4F1
102
{ACAD_REACTORS
330
EF7C8A4EE
102
}
330
EF7C8A4EE
100
AcDbXrecord
  1

  0
XRECORD
  5
EF7C8A4F7
102
{ACAD_REACTORS
330
EF7C8A4EE
102
}
330
EF7C8A4EE
100
AcDbXrecord
 90
        0
  0
XRECORD
  5
EF7C8A4F3
102
{ACAD_REACTORS
330
EF7C8A4EE
102
}
330
EF7C8A4EE
100
AcDbXrecord
340
EF7C85BB7
  0
XRECORD
  5
EF7C8A4F6
102
{ACAD_REACTORS
330
EF7C8A4EE
102
}
330
EF7C8A4EE
100
AcDbXrecord
 90
    14877
  0
XRECORD
  5
EF7C8A4F4
102
{ACAD_REACTORS
330
EF7C8A4EE
102
}
330
EF7C8A4EE
100
AcDbXrecord
340
EF7C85BB8
  0
XRECORD
  5
EF7C8A4F5
102
{ACAD_REACTORS
330
EF7C8A4EE
102
}
330
EF7C8A4EE
100
AcDbXrecord
340
EF7C85BB5
  0
XRECORD
  5
EF7C8A4FB
102
{ACAD_REACTORS
330
EF7C8A4EE
102
}
330
EF7C8A4EE
100
AcDbXrecord
 40
0.0
  0
XRECORD
  5
EF7C8A4FF
102
{ACAD_REACTORS
330
EF7C8A4EE
102
}
330
EF7C8A4EE
100
AcDbXrecord
340
0
  0
XRECORD
  5
EF7C8A505
102
{ACAD_REACTORS
330
EF7C8A4EE
102
}
330
EF7C8A4EE
100
AcDbXrecord
 10
0.0
 20
0.0
 30
0.0
  0
XRECORD
  5
EF7C8A501
102
{ACAD_REACTORS
330
EF7C8A4EE
102
}
330
EF7C8A4EE
100
AcDbXrecord
 10
0.0
 20
0.0
 30
0.0
  0
XRECORD
  5
EF7C8A504
102
{ACAD_REACTORS
330
EF7C8A4EE
102
}
330
EF7C8A4EE
100
AcDbXrecord
 10
0.0
 20
0.0
 30
0.0
  0
XRECORD
  5
EF7C8A502
102
{ACAD_REACTORS
330
EF7C8A4EE
102
}
330
EF7C8A4EE
100
AcDbXrecord
 10
0.0
 20
0.0
 30
0.0
  0
XRECORD
  5
EF7C8A503
102
{ACAD_REACTORS
330
EF7C8A4EE
102
}
330
EF7C8A4EE
100
AcDbXrecord
 10
0.0
 20
0.0
 30
0.0
  0
XRECORD
  5
EF7C8A500
102
{ACAD_REACTORS
330
EF7C8A4EE
102
}
330
EF7C8A4EE
100
AcDbXrecord
 10
0.0
 20
0.0
 30
0.0
  0
XRECORD
  5
EF7C8A4FD
102
{ACAD_REACTORS
330
EF7C8A4EE
102
}
330
EF7C8A4EE
100
AcDbXrecord
340
0
  0
XRECORD
  5
EF7C8A4FE
102
{ACAD_REACTORS
330
EF7C8A4EE
102
}
330
EF7C8A4EE
100
AcDbXrecord
 70
     0
  0
XRECORD
  5
EF7C8A4F2
102
{ACAD_REACTORS
330
EF7C8A4EE
102
}
330
EF7C8A4EE
100
AcDbXrecord
  1

  0
XRECORD
  5
EF7C8A4EF
102
{ACAD_REACTORS
330
EF7C8A4EE
102
}
330
EF7C8A4EE
100
AcDbXrecord
 90
        1
  0
XRECORD
  5
EF7C8A4F0
102
{ACAD_REACTORS
330
EF7C8A4EE
102
}
330
EF7C8A4EE
100
AcDbXrecord
 90
       70
  0
XRECORD
  5
EF7C8A508
102
{ACAD_REACTORS
330
EF7C8A4EE
102
}
330
EF7C8A4EE
100
AcDbXrecord
340
0
  0
XRECORD
  5
EF7C8A50E
102
{ACAD_REACTORS
330
EF7C8A4EE
102
}
330
EF7C8A4EE
100
AcDbXrecord
 10
0.0
 20
0.0
 30
0.0
  0
XRECORD
  5
EF7C8A50A
102
{ACAD_REACTORS
330
EF7C8A4EE
102
}
330
EF7C8A4EE
100
AcDbXrecord
 10
0.0
 20
0.0
 30
0.0
  0
XRECORD
  5
EF7C8A50D
102
{ACAD_REACTORS
330
EF7C8A4EE
102
}
330
EF7C8A4EE
100
AcDbXrecord
 10
0.0
 20
0.0
 30
0.0
  0
XRECORD
  5
EF7C8A50B
102
{ACAD_REACTORS
330
EF7C8A4EE
102
}
330
EF7C8A4EE
100
AcDbXrecord
 10
0.0
 20
0.0
 30
0.0
  0
XRECORD
  5
EF7C8A50C
102
{ACAD_REACTORS
330
EF7C8A4EE
102
}
330
EF7C8A4EE
100
AcDbXrecord
 10
0.0
 20
0.0
 30
0.0
  0
XRECORD
  5
EF7C8A509
102
{ACAD_REACTORS
330
EF7C8A4EE
102
}
330
EF7C8A4EE
100
AcDbXrecord
 10
0.0
 20
0.0
 30
0.0
  0
XRECORD
  5
EF7C8A506
102
{ACAD_REACTORS
330
EF7C8A4EE
102
}
330
EF7C8A4EE
100
AcDbXrecord
340
0
  0
XRECORD
  5
EF7C8A507
102
{ACAD_REACTORS
330
EF7C8A4EE
102
}
330
EF7C8A4EE
100
AcDbXrecord
 70
     0
  0
XRECORD
  5
EF7C8A4FA
102
{ACAD_REACTORS
330
EF7C8A4EE
102
}
330
EF7C8A4EE
100
AcDbXrecord
  1
{C5FFD9DD-1F38-40B3-9D11-5F497A952B68}
  0
DICTIONARYVAR
  5
EF7C8A4E7
102
{ACAD_REACTORS
330
EF7C85DB7
102
}
330
EF7C85DB7
100
DictionaryVariables
280
     0
  1
0
  0
DICTIONARYVAR
  5
EF7C85DB8
102
{ACAD_REACTORS
330
EF7C85DB7
102
}
330
EF7C85DB7
100
DictionaryVariables
280
     0
  1
96
  0
ENDSEC
  0
EOF
