  0
SECTION
  2
HEADER
  9
$ACADVER
  1
AC1014
  9
$ACADMAINTVER
 70
     9
  9
$DWGCODEPAGE
  3
ANSI_932
  9
$INSBASE
 10
0.0
 20
0.0
 30
0.0
  9
$EXTMIN
 10
0.0
 20
0.0
 30
0.0
  9
$EXTMAX
 10
180.9999995114493
 20
283.0000001996573
 30
0.0
  9
$LIMMIN
 10
0.0
 20
0.0
  9
$LIMMAX
 10
181.0
 20
283.0
  9
$ORTHOMODE
 70
     1
  9
$REGENMODE
 70
     1
  9
$FILLMODE
 70
     1
  9
$QTEXTMODE
 70
     0
  9
$MIRRTEXT
 70
     0
  9
$DRAGMODE
 70
     2
  9
$LTSCALE
 40
5.0
  9
$OSMODE
 70
   167
  9
$ATTMODE
 70
     1
  9
$TEXTSIZE
 40
3.0
  9
$TRACEWID
 40
0.05
  9
$TEXTSTYLE
  7
BIGFONT
  9
$CLAYER
  8
JISSEN
  9
$CELTYPE
  6
BYLAYER
  9
$CECOLOR
 62
   256
  9
$CELTSCALE
 40
1.0
  9
$DELOBJ
 70
     1
  9
$DISPSILH
 70
     0
  9
$DIMSCALE
 40
1.0
  9
$DIMASZ
 40
1.5
  9
$DIMEXO
 40
1.0
  9
$DIMDLI
 40
6.0
  9
$DIMRND
 40
0.0
  9
$DIMDLE
 40
0.0
  9
$DIMEXE
 40
1.0
  9
$DIMTP
 40
0.0
  9
$DIMTM
 40
0.0
  9
$DIMTXT
 40
3.0
  9
$DIMCEN
 40
1.0
  9
$DIMTSZ
 40
0.0
  9
$DIMTOL
 70
     0
  9
$DIMLIM
 70
     0
  9
$DIMTIH
 70
     0
  9
$DIMTOH
 70
     0
  9
$DIMSE1
 70
     0
  9
$DIMSE2
 70
     0
  9
$DIMTAD
 70
     0
  9
$DIMZIN
 70
     8
  9
$DIMBLK
  1
ARROW
  9
$DIMASO
 70
     0
  9
$DIMSHO
 70
     0
  9
$DIMPOST
  1

  9
$DIMAPOST
  1

  9
$DIMALT
 70
     0
  9
$DIMALTD
 70
     2
  9
$DIMALTF
 40
25.4
  9
$DIMLFAC
 40
1.0
  9
$DIMTOFL
 70
     1
  9
$DIMTVP
 40
0.0
  9
$DIMTIX
 70
     0
  9
$DIMSOXD
 70
     0
  9
$DIMSAH
 70
     0
  9
$DIMBLK1
  1
ARROWANG
  9
$DIMBLK2
  1
ARROWANG
  9
$DIMSTYLE
  2
IMAO
  9
$DIMCLRD
 70
     0
  9
$DIMCLRE
 70
     0
  9
$DIMCLRT
 70
     0
  9
$DIMTFAC
 40
1.0
  9
$DIMGAP
 40
0.09
  9
$DIMJUST
 70
     0
  9
$DIMSD1
 70
     0
  9
$DIMSD2
 70
     0
  9
$DIMTOLJ
 70
     1
  9
$DIMTZIN
 70
     8
  9
$DIMALTZ
 70
     8
  9
$DIMALTTZ
 70
     8
  9
$DIMFIT
 70
     5
  9
$DIMUPT
 70
     0
  9
$DIMUNIT
 70
     2
  9
$DIMDEC
 70
     2
  9
$DIMTDEC
 70
     2
  9
$DIMALTU
 70
     2
  9
$DIMALTTD
 70
     2
  9
$DIMTXSTY
  7
BIGFONT
  9
$DIMAUNIT
 70
     0
  9
$LUNITS
 70
     2
  9
$LUPREC
 70
     2
  9
$SKETCHINC
 40
0.1
  9
$FILLETRAD
 40
0.5
  9
$AUNITS
 70
     0
  9
$AUPREC
 70
     2
  9
$MENU
  1
stdr12j
  9
$ELEVATION
 40
0.0
  9
$PELEVATION
 40
0.0
  9
$THICKNESS
 40
0.0
  9
$LIMCHECK
 70
     0
  9
$BLIPMODE
 70
     0
  9
$CHAMFERA
 40
0.0
  9
$CHAMFERB
 40
0.0
  9
$CHAMFERC
 40
0.0
  9
$CHAMFERD
 40
0.0
  9
$SKPOLY
 70
     0
  9
$TDCREATE
 40
2450617.453041203
  9
$TDUPDATE
 40
2453833.481267245
  9
$TDINDWG
 40
0.1394174421
  9
$TDUSRTIMER
 40
0.1394174421
  9
$USRTIMER
 70
     1
  9
$ANGBASE
 50
0.0
  9
$ANGDIR
 70
     0
  9
$PDMODE
 70
     0
  9
$PDSIZE
 40
0.0
  9
$PLINEWID
 40
0.0
  9
$COORDS
 70
     2
  9
$SPLFRAME
 70
     0
  9
$SPLINETYPE
 70
     6
  9
$SPLINESEGS
 70
     8
  9
$ATTDIA
 70
     0
  9
$ATTREQ
 70
     1
  9
$HANDLING
 70
 22529
  9
$HANDSEED
  5
EF7C88C4F
  9
$SURFTAB1
 70
     6
  9
$SURFTAB2
 70
     6
  9
$SURFTYPE
 70
     6
  9
$SURFU
 70
     6
  9
$SURFV
 70
     6
  9
$UCSNAME
  2

  9
$UCSORG
 10
0.0
 20
0.0
 30
0.0
  9
$UCSXDIR
 10
1.0
 20
0.0
 30
0.0
  9
$UCSYDIR
 10
0.0
 20
1.0
 30
0.0
  9
$PUCSNAME
  2

  9
$PUCSORG
 10
0.0
 20
0.0
 30
0.0
  9
$PUCSXDIR
 10
1.0
 20
0.0
 30
0.0
  9
$PUCSYDIR
 10
0.0
 20
1.0
 30
0.0
  9
$USERI1
 70
     0
  9
$USERI2
 70
     1
  9
$USERI3
 70
     1
  9
$USERI4
 70
     3
  9
$USERI5
 70
     0
  9
$USERR1
 40
1.0
  9
$USERR2
 40
3.0
  9
$USERR3
 40
3.0
  9
$USERR4
 40
1.5
  9
$USERR5
 40
8.0
  9
$WORLDVIEW
 70
     1
  9
$SHADEDGE
 70
     3
  9
$SHADEDIF
 70
    70
  9
$TILEMODE
 70
     1
  9
$MAXACTVP
 70
    16
  9
$PINSBASE
 10
0.0
 20
0.0
 30
0.0
  9
$PLIMCHECK
 70
     0
  9
$PEXTMIN
 10
1.000000000000000E+20
 20
1.000000000000000E+20
 30
1.000000000000000E+20
  9
$PEXTMAX
 10
-1.000000000000000E+20
 20
-1.000000000000000E+20
 30
-1.000000000000000E+20
  9
$PLIMMIN
 10
0.0
 20
0.0
  9
$PLIMMAX
 10
12.0
 20
9.0
  9
$UNITMODE
 70
     0
  9
$VISRETAIN
 70
     0
  9
$PLINEGEN
 70
     0
  9
$PSLTSCALE
 70
     0
  9
$TREEDEPTH
 70
  3020
  9
$PICKSTYLE
 70
     1
  9
$CMLSTYLE
  2
STANDARD
  9
$CMLJUST
 70
     0
  9
$CMLSCALE
 40
1.0
  9
$PROXYGRAPHICS
 70
     1
  9
$MEASUREMENT
 70
     0
  0
ENDSEC
  0
SECTION
  2
CLASSES
  0
CLASS
  1
LWPOLYLINE
  2
AcDbPolyline
  3
AutoCAD 2000
 90
        0
280
     0
281
     1
  0
CLASS
  1
HATCH
  2
AcDbHatch
  3
AutoCAD 2000
 90
        0
280
     0
281
     1
  0
CLASS
  1
ACDBDICTIONARYWDFLT
  2
AcDbDictionaryWithDefault
  3
AutoCAD 2000
 90
        0
280
     0
281
     0
  0
CLASS
  1
ACDBPLACEHOLDER
  2
AcDbPlaceHolder
  3
AutoCAD 2000
 90
        0
280
     0
281
     0
  0
CLASS
  1
LAYOUT
  2
AcDbLayout
  3
AutoCAD 2000
 90
        0
280
     0
281
     0
  0
CLASS
  1
LONG_TRANSACTION
  2
AcDbLongTransaction
  3
AutoCAD 2000
 90
        0
280
     0
281
     0
  0
CLASS
  1
LWPOLYLINE
  2
AcDbPolyline
  3
AutoCAD 2000
 90
        0
280
     0
281
     1
  0
CLASS
  1
HATCH
  2
AcDbHatch
  3
AutoCAD 2000
 90
        0
280
     0
281
     1
  0
CLASS
  1
XRECORD
  2
AcDbXrecord
  3
AutoCAD 2000
 90
        0
280
     0
281
     0
  0
CLASS
  1
DICTIONARYVAR
  2
AcDbDictionaryVar
  3
AutoCAD 2000
 90
        0
280
     0
281
     0
  0
CLASS
  1
LONG_TRANSACTION
  2
AcDbLongTransaction
  3
AutoCAD 2000
 90
        0
280
     0
281
     0
  0
CLASS
  1
LWPOLYLINE
  2
AcDbPolyline
  3
AutoCAD 2000
 90
        0
280
     0
281
     1
  0
CLASS
  1
HATCH
  2
AcDbHatch
  3
AutoCAD 2000
 90
        0
280
     0
281
     1
  0
CLASS
  1
XRECORD
  2
AcDbXrecord
  3
AutoCAD 2000
 90
        0
280
     0
281
     0
  0
CLASS
  1
LONG_TRANSACTION
  2
AcDbLongTransaction
  3
AutoCAD 2000
 90
        0
280
     0
281
     0
  0
CLASS
  1
LWPOLYLINE
  2
AcDbPolyline
  3
AutoCAD 2000
 90
        0
280
     0
281
     1
  0
CLASS
  1
HATCH
  2
AcDbHatch
  3
AutoCAD 2000
 90
        0
280
     0
281
     1
  0
CLASS
  1
XRECORD
  2
AcDbXrecord
  3
AutoCAD 2000
 90
        0
280
     0
281
     0
  0
CLASS
  1
LONG_TRANSACTION
  2
AcDbLongTransaction
  3
AutoCAD 2000
 90
        0
280
     0
281
     0
  0
CLASS
  1
LWPOLYLINE
  2
AcDbPolyline
  3
AutoCAD 2000
 90
        0
280
     0
281
     1
  0
CLASS
  1
HATCH
  2
AcDbHatch
  3
AutoCAD 2000
 90
        0
280
     0
281
     1
  0
CLASS
  1
XRECORD
  2
AcDbXrecord
  3
AutoCAD 2000
 90
        0
280
     0
281
     0
  0
CLASS
  1
LONG_TRANSACTION
  2
AcDbLongTransaction
  3
AutoCAD 2000
 90
        0
280
     0
281
     0
  0
CLASS
  1
LWPOLYLINE
  2
AcDbPolyline
  3
AutoCAD 2000
 90
        0
280
     0
281
     1
  0
CLASS
  1
HATCH
  2
AcDbHatch
  3
AutoCAD 2000
 90
        0
280
     0
281
     1
  0
CLASS
  1
XRECORD
  2
AcDbXrecord
  3
AutoCAD 2000
 90
        0
280
     0
281
     0
  0
CLASS
  1
LONG_TRANSACTION
  2
AcDbLongTransaction
  3
AutoCAD 2000
 90
        0
280
     0
281
     0
  0
CLASS
  1
LWPOLYLINE
  2
AcDbPolyline
  3
AutoCAD 2000
 90
        0
280
     0
281
     1
  0
CLASS
  1
HATCH
  2
AcDbHatch
  3
AutoCAD 2000
 90
        0
280
     0
281
     1
  0
CLASS
  1
XRECORD
  2
AcDbXrecord
  3
AutoCAD 2000
 90
        0
280
     0
281
     0
  0
CLASS
  1
LONG_TRANSACTION
  2
AcDbLongTransaction
  3
AutoCAD 2000
 90
        0
280
     0
281
     0
  0
CLASS
  1
LWPOLYLINE
  2
AcDbPolyline
  3
AutoCAD 2000
 90
        0
280
     0
281
     1
  0
CLASS
  1
HATCH
  2
AcDbHatch
  3
AutoCAD 2000
 90
        0
280
     0
281
     1
  0
CLASS
  1
XRECORD
  2
AcDbXrecord
  3
AutoCAD 2000
 90
        0
280
     0
281
     0
  0
CLASS
  1
LONG_TRANSACTION
  2
AcDbLongTransaction
  3
AutoCAD 2000
 90
        0
280
     0
281
     0
  0
CLASS
  1
LWPOLYLINE
  2
AcDbPolyline
  3
AutoCAD 2000
 90
        0
280
     0
281
     1
  0
CLASS
  1
HATCH
  2
AcDbHatch
  3
AutoCAD 2000
 90
        0
280
     0
281
     1
  0
CLASS
  1
XRECORD
  2
AcDbXrecord
  3
AutoCAD 2000
 90
        0
280
     0
281
     0
  0
CLASS
  1
LONG_TRANSACTION
  2
AcDbLongTransaction
  3
AutoCAD 2000
 90
        0
280
     0
281
     0
  0
CLASS
  1
LWPOLYLINE
  2
AcDbPolyline
  3
AutoCAD 2000
 90
        0
280
     0
281
     1
  0
CLASS
  1
HATCH
  2
AcDbHatch
  3
AutoCAD 2000
 90
        0
280
     0
281
     1
  0
CLASS
  1
XRECORD
  2
AcDbXrecord
  3
AutoCAD 2000
 90
        0
280
     0
281
     0
  0
CLASS
  1
LONG_TRANSACTION
  2
AcDbLongTransaction
  3
AutoCAD 2000
 90
        0
280
     0
281
     0
  0
CLASS
  1
LWPOLYLINE
  2
AcDbPolyline
  3
AutoCAD 2000
 90
        0
280
     0
281
     1
  0
CLASS
  1
HATCH
  2
AcDbHatch
  3
AutoCAD 2000
 90
        0
280
     0
281
     1
  0
CLASS
  1
XRECORD
  2
AcDbXrecord
  3
AutoCAD 2000
 90
        0
280
     0
281
     0
  0
CLASS
  1
LONG_TRANSACTION
  2
AcDbLongTransaction
  3
AutoCAD 2000
 90
        0
280
     0
281
     0
  0
CLASS
  1
LWPOLYLINE
  2
AcDbPolyline
  3
AutoCAD 2000
 90
        0
280
     0
281
     1
  0
CLASS
  1
HATCH
  2
AcDbHatch
  3
AutoCAD 2000
 90
        0
280
     0
281
     1
  0
CLASS
  1
XRECORD
  2
AcDbXrecord
  3
AutoCAD 2000
 90
        0
280
     0
281
     0
  0
CLASS
  1
LONG_TRANSACTION
  2
AcDbLongTransaction
  3
AutoCAD 2000
 90
        0
280
     0
281
     0
  0
CLASS
  1
LWPOLYLINE
  2
AcDbPolyline
  3
AutoCAD 2000
 90
        0
280
     0
281
     1
  0
CLASS
  1
HATCH
  2
AcDbHatch
  3
AutoCAD 2000
 90
        0
280
     0
281
     1
  0
CLASS
  1
XRECORD
  2
AcDbXrecord
  3
AutoCAD 2000
 90
        0
280
     0
281
     0
  0
CLASS
  1
LONG_TRANSACTION
  2
AcDbLongTransaction
  3
AutoCAD 2000
 90
        0
280
     0
281
     0
  0
CLASS
  1
LWPOLYLINE
  2
AcDbPolyline
  3
AutoCAD 2000
 90
        0
280
     0
281
     1
  0
CLASS
  1
HATCH
  2
AcDbHatch
  3
AutoCAD 2000
 90
        0
280
     0
281
     1
  0
CLASS
  1
XRECORD
  2
AcDbXrecord
  3
AutoCAD 2000
 90
        0
280
     0
281
     0
  0
CLASS
  1
LONG_TRANSACTION
  2
AcDbLongTransaction
  3
AutoCAD 2000
 90
        0
280
     0
281
     0
  0
CLASS
  1
LWPOLYLINE
  2
AcDbPolyline
  3
AutoCAD 2000
 90
        0
280
     0
281
     1
  0
CLASS
  1
HATCH
  2
AcDbHatch
  3
AutoCAD 2000
 90
        0
280
     0
281
     1
  0
CLASS
  1
XRECORD
  2
AcDbXrecord
  3
AutoCAD 2000
 90
        0
280
     0
281
     0
  0
CLASS
  1
LONG_TRANSACTION
  2
AcDbLongTransaction
  3
AutoCAD 2000
 90
        0
280
     0
281
     0
  0
CLASS
  1
LWPOLYLINE
  2
AcDbPolyline
  3
AutoCAD 2000
 90
        0
280
     0
281
     1
  0
CLASS
  1
HATCH
  2
AcDbHatch
  3
AutoCAD 2000
 90
        0
280
     0
281
     1
  0
CLASS
  1
XRECORD
  2
AcDbXrecord
  3
AutoCAD 2000
 90
        0
280
     0
281
     0
  0
CLASS
  1
LONG_TRANSACTION
  2
AcDbLongTransaction
  3
AutoCAD 2000
 90
        0
280
     0
281
     0
  0
CLASS
  1
LWPOLYLINE
  2
AcDbPolyline
  3
AutoCAD 2000
 90
        0
280
     0
281
     1
  0
CLASS
  1
HATCH
  2
AcDbHatch
  3
AutoCAD 2000
 90
        0
280
     0
281
     1
  0
CLASS
  1
XRECORD
  2
AcDbXrecord
  3
AutoCAD 2000
 90
        0
280
     0
281
     0
  0
ENDSEC
  0
SECTION
  2
TABLES
  0
TABLE
  2
VPORT
  5
EF7C85523
330
0
100
AcDbSymbolTable
 70
    10
  0
VPORT
  5
EF7C85567
330
EF7C85523
100
AcDbSymbolTableRecord
100
AcDbViewportTableRecord
  2
2
 70
     0
 10
0.5
 20
0.0
 11
1.0
 21
1.0
 12
0.9240312421264802
 22
1.052650975462766
 13
0.0
 23
0.0
 14
1.0
 24
1.0
 15
10.0
 25
10.0
 16
0.0
 26
0.0
 36
1.0
 17
0.0
 27
0.0
 37
0.0
 40
2.105301950925533
 41
0.8778135048231511
 42
50.0
 43
0.0
 44
0.0
 50
0.0
 51
0.0
 71
     0
 72
   500
 73
     1
 74
     1
 75
     0
 76
     0
 77
     0
 78
     0
  0
VPORT
  5
EF7C85568
330
EF7C85523
100
AcDbSymbolTableRecord
100
AcDbViewportTableRecord
  2
2
 70
     0
 10
0.0
 20
0.0
 11
0.5
 21
1.0
 12
0.9240312421264802
 22
1.052650975462766
 13
0.0
 23
0.0
 14
1.0
 24
1.0
 15
10.0
 25
10.0
 16
0.0
 26
0.0
 36
1.0
 17
0.0
 27
0.0
 37
0.0
 40
2.105301950925533
 41
0.8778135048231511
 42
50.0
 43
0.0
 44
0.0
 50
0.0
 51
0.0
 71
     0
 72
   500
 73
     1
 74
     1
 75
     0
 76
     0
 77
     0
 78
     0
  0
VPORT
  5
EF7C85569
330
EF7C85523
100
AcDbSymbolTableRecord
100
AcDbViewportTableRecord
  2
3
 70
     0
 10
0.0
 20
0.5
 11
1.0
 21
1.0
 12
2.832169994473273
 22
1.052650975462766
 13
0.0
 23
0.0
 14
1.0
 24
1.0
 15
10.0
 25
10.0
 16
0.0
 26
0.0
 36
1.0
 17
0.0
 27
0.0
 37
0.0
 40
2.105301950925533
 41
3.571428571428571
 42
50.0
 43
0.0
 44
0.0
 50
0.0
 51
0.0
 71
     0
 72
   500
 73
     1
 74
     1
 75
     0
 76
     0
 77
     0
 78
     0
  0
VPORT
  5
EF7C8556A
330
EF7C85523
100
AcDbSymbolTableRecord
100
AcDbViewportTableRecord
  2
3
 70
     0
 10
0.0
 20
0.0
 11
1.0
 21
0.5
 12
2.856741679241311
 22
1.052650975462766
 13
0.0
 23
0.0
 14
1.0
 24
1.0
 15
10.0
 25
10.0
 16
0.0
 26
0.0
 36
1.0
 17
0.0
 27
0.0
 37
0.0
 40
2.105301950925533
 41
3.594771241830065
 42
50.0
 43
0.0
 44
0.0
 50
0.0
 51
0.0
 71
     0
 72
   500
 73
     1
 74
     1
 75
     0
 76
     0
 77
     0
 78
     0
  0
VPORT
  5
EF7C8556B
330
EF7C85523
100
AcDbSymbolTableRecord
100
AcDbViewportTableRecord
  2
4
 70
     0
 10
0.5
 20
0.0
 11
1.0
 21
0.5
 12
2.886857516709719
 22
1.052650975462766
 13
0.0
 23
0.0
 14
1.0
 24
1.0
 15
10.0
 25
10.0
 16
0.0
 26
0.0
 36
1.0
 17
0.0
 27
0.0
 37
0.0
 40
4.27520703030907
 41
1.784313725490195
 42
50.0
 43
0.0
 44
0.0
 50
0.0
 51
0.0
 71
     0
 72
   500
 73
     1
 74
     1
 75
     0
 76
     0
 77
     0
 78
     0
  0
VPORT
  5
EF7C8556C
330
EF7C85523
100
AcDbSymbolTableRecord
100
AcDbViewportTableRecord
  2
4
 70
     0
 10
0.5
 20
0.5
 11
1.0
 21
1.0
 12
2.862090274555523
 22
1.052650975462766
 13
0.0
 23
0.0
 14
1.0
 24
1.0
 15
10.0
 25
10.0
 16
0.0
 26
0.0
 36
1.0
 17
0.0
 27
0.0
 37
0.0
 40
4.27520703030907
 41
1.772727272727272
 42
50.0
 43
0.0
 44
0.0
 50
0.0
 51
0.0
 71
     0
 72
   500
 73
     1
 74
     1
 75
     0
 76
     0
 77
     0
 78
     0
  0
VPORT
  5
EF7C8556D
330
EF7C85523
100
AcDbSymbolTableRecord
100
AcDbViewportTableRecord
  2
4
 70
     0
 10
0.0
 20
0.5
 11
0.5
 21
1.0
 12
2.862090274555523
 22
1.052650975462766
 13
0.0
 23
0.0
 14
1.0
 24
1.0
 15
10.0
 25
10.0
 16
0.0
 26
0.0
 36
1.0
 17
0.0
 27
0.0
 37
0.0
 40
4.27520703030907
 41
1.772727272727272
 42
50.0
 43
0.0
 44
0.0
 50
0.0
 51
0.0
 71
     0
 72
   500
 73
     1
 74
     1
 75
     0
 76
     0
 77
     0
 78
     0
  0
VPORT
  5
EF7C8556E
330
EF7C85523
100
AcDbSymbolTableRecord
100
AcDbViewportTableRecord
  2
4
 70
     0
 10
0.0
 20
0.0
 11
0.5
 21
0.5
 12
2.886857516709719
 22
1.052650975462766
 13
0.0
 23
0.0
 14
1.0
 24
1.0
 15
10.0
 25
10.0
 16
0.0
 26
0.0
 36
1.0
 17
0.0
 27
0.0
 37
0.0
 40
4.27520703030907
 41
1.784313725490195
 42
50.0
 43
0.0
 44
0.0
 50
0.0
 51
0.0
 71
     0
 72
   500
 73
     1
 74
     1
 75
     0
 76
     0
 77
     0
 78
     0
  0
VPORT
  5
EF7C88C2B
330
EF7C85523
100
AcDbSymbolTableRecord
100
AcDbViewportTableRecord
  2
*ACTIVE
 70
     0
 10
0.0
 20
0.0
 11
1.0
 21
1.0
 12
143.5886692041208
 22
141.4892068129958
 13
0.0
 23
0.0
 14
1.0
 24
1.0
 15
10.0
 25
10.0
 16
0.0
 26
0.0
 36
1.0
 17
0.0
 27
0.0
 37
0.0
 40
284.9003711894071
 41
1.764444444444444
 42
50.0
 43
0.0
 44
0.0
 50
0.0
 51
0.0
 71
     0
 72
   500
 73
     1
 74
     0
 75
     0
 76
     0
 77
     0
 78
     0
  0
ENDTAB
  0
TABLE
  2
LTYPE
  5
EF7C85520
330
0
100
AcDbSymbolTable
 70
     2
  0
LTYPE
  5
EF7C8552C
330
EF7C85520
100
AcDbSymbolTableRecord
100
AcDbLinetypeTableRecord
  2
BYBLOCK
 70
     0
  3

 72
    65
 73
     0
 40
0.0
  0
LTYPE
  5
EF7C8552D
330
EF7C85520
100
AcDbSymbolTableRecord
100
AcDbLinetypeTableRecord
  2
BYLAYER
 70
     0
  3

 72
    65
 73
     0
 40
0.0
  0
LTYPE
  5
EF7C8552E
330
EF7C85520
100
AcDbSymbolTableRecord
100
AcDbLinetypeTableRecord
  2
CONTINUOUS
 70
     0
  3
実線
 72
    65
 73
     0
 40
0.0
  0
LTYPE
  5
EF7C85566
330
EF7C85520
100
AcDbSymbolTableRecord
100
AcDbLinetypeTableRecord
  2
HIDDEN
 70
     0
  3
_ _ _ _ _ _ _ _ _ _ _ _ _ _ _ _ _ _ _ _ _ _ _
 72
    65
 73
     2
 40
0.375
 49
0.25
 74
     0
 49
-0.125
 74
     0
  0
ENDTAB
  0
TABLE
  2
LAYER
  5
EF7C8551D
330
0
100
AcDbSymbolTable
 70
     9
  0
LAYER
  5
EF7C85529
330
EF7C8551D
100
AcDbSymbolTableRecord
100
AcDbLayerTableRecord
  2
0
 70
     0
 62
     6
  6
CONTINUOUS
  0
LAYER
  5
EF7C85575
330
EF7C8551D
100
AcDbSymbolTableRecord
100
AcDbLayerTableRecord
  2
HATCH
 70
     0
 62
     4
  6
CONTINUOUS
  0
LAYER
  5
EF7C85576
330
EF7C8551D
100
AcDbSymbolTableRecord
100
AcDbLayerTableRecord
  2
SUNPOU
 70
     0
 62
     3
  6
CONTINUOUS
  0
LAYER
  5
EF7C85577
330
EF7C8551D
100
AcDbSymbolTableRecord
100
AcDbLayerTableRecord
  2
TEXT
 70
     0
 62
     3
  6
CONTINUOUS
  0
LAYER
  5
EF7C85579
330
EF7C8551D
100
AcDbSymbolTableRecord
100
AcDbLayerTableRecord
  2
JISSEN
 70
     0
 62
     7
  6
CONTINUOUS
  0
LAYER
  5
EF7C8557B
330
EF7C8551D
100
AcDbSymbolTableRecord
100
AcDbLayerTableRecord
  2
TENSEN
 70
     0
 62
     2
  6
HIDDEN
  0
LAYER
  5
EF7C8557D
330
EF7C8551D
100
AcDbSymbolTableRecord
100
AcDbLayerTableRecord
  2
WAKU
 70
     0
 62
     5
  6
CONTINUOUS
  0
LAYER
  5
EF7C871DF
330
EF7C8551D
100
AcDbSymbolTableRecord
100
AcDbLayerTableRecord
  2
SAISEN
 70
     0
 62
     4
  6
CONTINUOUS
  0
LAYER
  5
EF7C871E0
330
EF7C8551D
100
AcDbSymbolTableRecord
100
AcDbLayerTableRecord
  2
DEFPOINTS
 70
     0
 62
     7
  6
CONTINUOUS
  0
ENDTAB
  0
TABLE
  2
STYLE
  5
EF7C8551E
330
0
100
AcDbSymbolTable
 70
     3
  0
STYLE
  5
EF7C8552A
330
EF7C8551E
100
AcDbSymbolTableRecord
100
AcDbTextStyleTableRecord
  2
STANDARD
 70
     0
 40
0.0
 41
1.0
 50
0.0
 71
     0
 42
1.5
  3
SIMPLEX
  4

  0
STYLE
  5
EF7C85558
330
EF7C8551E
100
AcDbSymbolTableRecord
100
AcDbTextStyleTableRecord
  2
K
 70
     0
 40
0.0
 41
1.0
 50
0.0
 71
     0
 42
3.0
  3
ROMANS
  4
BIGFONT
  0
STYLE
  5
EF7C8555B
330
EF7C8551E
100
AcDbSymbolTableRecord
100
AcDbTextStyleTableRecord
  2
BIGFONT
 70
     0
 40
0.0
 41
1.0
 50
0.0
 71
     0
 42
3.0
  3
txt.shx
  4
bigfont
  0
ENDTAB
  0
TABLE
  2
VIEW
  5
EF7C85521
330
0
100
AcDbSymbolTable
 70
     0
  0
ENDTAB
  0
TABLE
  2
UCS
  5
EF7C85522
330
0
100
AcDbSymbolTable
 70
     0
  0
ENDTAB
  0
TABLE
  2
APPID
  5
EF7C85524
330
0
100
AcDbSymbolTable
 70
     1
  0
APPID
  5
EF7C8552B
330
EF7C85524
100
AcDbSymbolTableRecord
100
AcDbRegAppTableRecord
  2
ACAD
 70
     0
  0
ENDTAB
  0
TABLE
  2
DIMSTYLE
  5
EF7C85525
330
0
100
AcDbSymbolTable
 70
     1
  0
DIMSTYLE
105
EF7C85571
330
EF7C85525
100
AcDbSymbolTableRecord
100
AcDbDimStyleTableRecord
  2
IMAO
 70
     0
  3

  4

  5
ARROWANG
  6
ARROWANG
  7
ARROWANG
 40
1.0
 41
1.5
 42
1.0
 43
6.0
 44
1.0
 45
0.0
 46
0.0
 47
495.0
 48
0.0
140
3.0
141
0.0
142
0.0
143
25.4
144
1.0
145
0.0
146
1.0
147
0.09
 71
     0
 72
     0
 73
     0
 74
     0
 75
     0
 76
     0
 77
     1
 78
     8
170
     0
171
     2
172
     1
173
     0
174
     1
175
     0
176
     0
177
     0
178
     0
270
     2
271
     2
272
     2
273
     2
274
     2
340
EF7C8555B
275
     0
280
     0
281
     0
282
     0
283
     1
284
     8
285
     8
286
     8
287
     5
288
     0
  0
ENDTAB
  0
TABLE
  2
BLOCK_RECORD
  5
EF7C8551C
330
0
100
AcDbSymbolTable
 70
    10
  0
BLOCK_RECORD
  5
EF7C85532
102
{ACAD_XDICTIONARY
360
EF7C85D9A
102
}
330
EF7C8551C
100
AcDbSymbolTableRecord
100
AcDbBlockTableRecord
  2
*MODEL_SPACE
  0
BLOCK_RECORD
  5
EF7C8552F
102
{ACAD_XDICTIONARY
360
EF7C85D98
102
}
330
EF7C8551C
100
AcDbSymbolTableRecord
100
AcDbBlockTableRecord
  2
*PAPER_SPACE
  0
BLOCK_RECORD
  5
EF7C85537
330
EF7C8551C
100
AcDbSymbolTableRecord
100
AcDbBlockTableRecord
  2
ARROW
  0
BLOCK_RECORD
  5
EF7C8553B
330
EF7C8551C
100
AcDbSymbolTableRecord
100
AcDbBlockTableRecord
  2
WAKU
  0
BLOCK_RECORD
  5
EF7C8553D
330
EF7C8551C
100
AcDbSymbolTableRecord
100
AcDbBlockTableRecord
  2
*X2
  0
BLOCK_RECORD
  5
EF7C8553E
330
EF7C8551C
100
AcDbSymbolTableRecord
100
AcDbBlockTableRecord
  2
STDGX5
  0
BLOCK_RECORD
  5
EF7C8553F
330
EF7C8551C
100
AcDbSymbolTableRecord
100
AcDbBlockTableRecord
  2
*X4
  0
BLOCK_RECORD
  5
EF7C85540
330
EF7C8551C
100
AcDbSymbolTableRecord
100
AcDbBlockTableRecord
  2
*X5
  0
BLOCK_RECORD
  5
EF7C85541
330
EF7C8551C
100
AcDbSymbolTableRecord
100
AcDbBlockTableRecord
  2
*X6
  0
BLOCK_RECORD
  5
EF7C85542
330
EF7C8551C
100
AcDbSymbolTableRecord
100
AcDbBlockTableRecord
  2
*X7
  0
BLOCK_RECORD
  5
EF7C85543
330
EF7C8551C
100
AcDbSymbolTableRecord
100
AcDbBlockTableRecord
  2
ARROWANG
  0
BLOCK_RECORD
  5
EF7C85544
330
EF7C8551C
100
AcDbSymbolTableRecord
100
AcDbBlockTableRecord
  2
STDR12J
  0
ENDTAB
  0
ENDSEC
  0
SECTION
  2
BLOCKS
  0
BLOCK
  5
EF7C85580
330
EF7C85532
100
AcDbEntity
  8
0
100
AcDbBlockBegin
  2
*MODEL_SPACE
 70
     0
 10
0.0
 20
0.0
 30
0.0
  3
*MODEL_SPACE
  1

  0
ENDBLK
  5
EF7C85581
330
EF7C85532
100
AcDbEntity
  8
0
100
AcDbBlockEnd
  0
BLOCK
  5
EF7C8557E
330
EF7C8552F
100
AcDbEntity
 67
     1
  8
0
100
AcDbBlockBegin
  2
*PAPER_SPACE
 70
     0
 10
0.0
 20
0.0
 30
0.0
  3
*PAPER_SPACE
  1

  0
ENDBLK
  5
EF7C8557F
330
EF7C8552F
100
AcDbEntity
 67
     1
  8
0
100
AcDbBlockEnd
  0
BLOCK
  5
499
330
EF7C85537
100
AcDbEntity
  8
0
100
AcDbBlockBegin
  2
ARROW
 70
     0
 10
1.0
 20
0.5
 30
0.0
  3
ARROW
  1

  0
LINE
  5
49A
330
EF7C85537
100
AcDbEntity
  8
0
100
AcDbLine
 10
1.0
 20
0.5
 30
0.0
 11
-0.5000000000000214
 21
0.0980762113533018
 31
0.0
  0
LINE
  5
49B
330
EF7C85537
100
AcDbEntity
  8
0
100
AcDbLine
 10
0.0
 20
0.5
 30
0.0
 11
1.0
 21
0.5
 31
0.0
  0
LINE
  5
49C
330
EF7C85537
100
AcDbEntity
  8
0
100
AcDbLine
 10
1.0
 20
0.5
 30
0.0
 11
-0.4999999999999574
 21
0.9019237886467408
 31
0.0
  0
ENDBLK
  5
49D
330
EF7C85537
100
AcDbEntity
  8
0
100
AcDbBlockEnd
  0
BLOCK
  5
4A7
330
EF7C8553B
100
AcDbEntity
  8
0
100
AcDbBlockBegin
  2
WAKU
 70
     0
 10
0.0
 20
0.0
 30
0.0
  3
WAKU
  1

  0
LINE
  5
4A8
330
EF7C8553B
100
AcDbEntity
  8
WAKU
100
AcDbLine
 10
0.999999996
 20
0.0
 30
0.0
 11
0.999999996
 21
0.9999999999999998
 31
0.0
  0
LINE
  5
4A9
330
EF7C8553B
100
AcDbEntity
  8
WAKU
100
AcDbLine
 10
0.0
 20
0.9999999999999998
 30
0.0
 11
0.999999996
 21
0.9999999999999998
 31
0.0
  0
LINE
  5
4AA
330
EF7C8553B
100
AcDbEntity
  8
WAKU
100
AcDbLine
 10
0.999999996
 20
0.0
 30
0.0
 11
0.0
 21
0.0
 31
0.0
  0
LINE
  5
4AB
330
EF7C8553B
100
AcDbEntity
  8
WAKU
100
AcDbLine
 10
0.0
 20
0.0
 30
0.0
 11
0.0
 21
0.9999999999999998
 31
0.0
  0
ENDBLK
  5
4AC
330
EF7C8553B
100
AcDbEntity
  8
0
100
AcDbBlockEnd
  0
BLOCK
  5
2764
330
EF7C8553D
100
AcDbEntity
  8
0
100
AcDbBlockBegin
  2
*X2
 70
     1
 10
0.0
 20
0.0
 30
0.0
  3
*X2
  1

  0
ENDBLK
  5
2765
330
EF7C8553D
100
AcDbEntity
  8
0
100
AcDbBlockEnd
  0
BLOCK
  5
2766
330
EF7C8553E
100
AcDbEntity
  8
0
100
AcDbBlockBegin
  2
STDGX5
 70
     0
 10
0.0
 20
0.0
 30
0.0
  3
STDGX5
  1

  0
ENDBLK
  5
2767
330
EF7C8553E
100
AcDbEntity
  8
0
100
AcDbBlockEnd
  0
BLOCK
  5
2F5A
330
EF7C8553F
100
AcDbEntity
  8
0
100
AcDbBlockBegin
  2
*X4
 70
     1
 10
0.0
 20
0.0
 30
0.0
  3
*X4
  1

  0
ENDBLK
  5
2F5B
330
EF7C8553F
100
AcDbEntity
  8
0
100
AcDbBlockEnd
  0
BLOCK
  5
32BB
330
EF7C85540
100
AcDbEntity
  8
0
100
AcDbBlockBegin
  2
*X5
 70
     1
 10
0.0
 20
0.0
 30
0.0
  3
*X5
  1

  0
ENDBLK
  5
32BC
330
EF7C85540
100
AcDbEntity
  8
0
100
AcDbBlockEnd
  0
BLOCK
  5
372F
330
EF7C85541
100
AcDbEntity
  8
0
100
AcDbBlockBegin
  2
*X6
 70
     1
 10
0.0
 20
0.0
 30
0.0
  3
*X6
  1

  0
ENDBLK
  5
3730
330
EF7C85541
100
AcDbEntity
  8
0
100
AcDbBlockEnd
  0
BLOCK
  5
3A6D
330
EF7C85542
100
AcDbEntity
  8
0
100
AcDbBlockBegin
  2
*X7
 70
     1
 10
0.0
 20
0.0
 30
0.0
  3
*X7
  1

  0
ENDBLK
  5
3A6E
330
EF7C85542
100
AcDbEntity
  8
0
100
AcDbBlockEnd
  0
BLOCK
  5
4CC9
330
EF7C85543
100
AcDbEntity
  8
0
100
AcDbBlockBegin
  2
ARROWANG
 70
     0
 10
0.0
 20
0.0
 30
0.0
  3
ARROWANG
  1

  0
LINE
  5
4CCA
330
EF7C85543
100
AcDbEntity
  8
SUNPOU
100
AcDbLine
 10
0.0
 20
0.0
 30
0.0
 11
-1.499999999999957
 21
0.4019237886467409
 31
0.0
  0
LINE
  5
4CCB
330
EF7C85543
100
AcDbEntity
  8
SUNPOU
100
AcDbLine
 10
0.0
 20
0.0
 30
0.0
 11
-1.500000000000028
 21
-0.4019237886467124
 31
0.0
  0
ENDBLK
  5
4CCC
330
EF7C85543
100
AcDbEntity
  8
0
100
AcDbBlockEnd
  0
BLOCK
  5
4CCD
330
EF7C85544
100
AcDbEntity
  8
0
100
AcDbBlockBegin
  2
STDR12J
 70
     0
 10
0.0
 20
0.0
 30
0.0
  3
STDR12J
  1

  0
ENDBLK
  5
4CF2
330
EF7C85544
100
AcDbEntity
  8
0
100
AcDbBlockEnd
  0
ENDSEC
  0
SECTION
  2
ENTITIES
  0
TEXT
  5
1
330
EF7C85532
100
AcDbEntity
  8
SUNPOU
100
AcDbText
 10
95.05869565217389
 20
43.7966872748706
 30
0.0
 40
1.5
  1
                          
100
AcDbText
  0
TEXT
  5
2
330
EF7C85532
100
AcDbEntity
  8
SUNPOU
100
AcDbText
 10
332.2793466870868
 20
21.8983436374353
 30
0.0
 40
0.75
  1
                          
100
AcDbText
  0
TEXT
  5
1A
330
EF7C85532
100
AcDbEntity
  8
SUNPOU
100
AcDbText
 10
289.9834441000535
 20
43.7966872748706
 30
0.0
 40
1.5
  1
                          
100
AcDbText
  0
TEXT
  5
1B
330
EF7C85532
100
AcDbEntity
  8
SUNPOU
100
AcDbText
 10
527.2040951349665
 20
21.8983436374353
 30
0.0
 40
0.75
  1
                          
100
AcDbText
  0
TEXT
  5
1C
330
EF7C85532
100
AcDbEntity
  8
SUNPOU
100
AcDbText
 10
490.6272568090836
 20
43.79668727487057
 30
0.0
 40
1.5
  1
                          
100
AcDbText
  0
TEXT
  5
1D
330
EF7C85532
100
AcDbEntity
  8
SUNPOU
100
AcDbText
 10
727.8479078439966
 20
21.89834363743527
 30
0.0
 40
0.75
  1
                          
100
AcDbText
  0
INSERT
  5
1E
330
EF7C85532
100
AcDbEntity
  8
HATCH
100
AcDbBlockReference
  2
*X2
 10
194.9247484478796
 20
0.0
 30
0.0
  0
TEXT
  5
1F
330
EF7C85532
100
AcDbEntity
  8
SUNPOU
100
AcDbText
 10
493.0101992368964
 20
43.7966872748706
 30
0.0
 40
1.5
  1
                          
100
AcDbText
  0
TEXT
  5
20
330
EF7C85532
100
AcDbEntity
  8
SUNPOU
100
AcDbText
 10
730.2308502718094
 20
21.8983436374353
 30
0.0
 40
0.75
  1
                          
100
AcDbText
  0
TEXT
  5
21
330
EF7C85532
100
AcDbEntity
  8
SUNPOU
100
AcDbText
 10
482.0486607753579
 20
43.7966872748706
 30
0.0
 40
1.5
  1
                          
100
AcDbText
  0
TEXT
  5
22
330
EF7C85532
100
AcDbEntity
  8
SUNPOU
100
AcDbText
 10
719.269311810271
 20
21.8983436374353
 30
0.0
 40
0.75
  1
                          
100
AcDbText
  0
INSERT
  5
25
330
EF7C85532
100
AcDbEntity
  8
JISSEN
100
AcDbBlockReference
  2
STDGX5
 10
0.0
 20
0.0
 30
0.0
  0
TEXT
  5
60
330
EF7C85532
100
AcDbEntity
  8
SUNPOU
100
AcDbText
 10
274.0586949361738
 20
43.7966872748706
 30
0.0
 40
1.5
  1
                          
100
AcDbText
  0
TEXT
  5
61
330
EF7C85532
100
AcDbEntity
  8
SUNPOU
100
AcDbText
 10
511.2793459710869
 20
21.8983436374353
 30
0.0
 40
0.75
  1
                          
100
AcDbText
  0
TEXT
  5
62
330
EF7C85532
100
AcDbEntity
  8
SUNPOU
100
AcDbText
 10
474.702507645204
 20
43.79668727487057
 30
0.0
 40
1.5
  1
                          
100
AcDbText
  0
TEXT
  5
63
330
EF7C85532
100
AcDbEntity
  8
SUNPOU
100
AcDbText
 10
711.923158680117
 20
21.89834363743527
 30
0.0
 40
0.75
  1
                          
100
AcDbText
  0
INSERT
  5
64
330
EF7C85532
100
AcDbEntity
  8
HATCH
100
AcDbBlockReference
  2
*X4
 10
178.999999284
 20
0.0
 30
0.0
  0
TEXT
  5
65
330
EF7C85532
100
AcDbEntity
  8
SUNPOU
100
AcDbText
 10
477.0854500730167
 20
43.7966872748706
 30
0.0
 40
1.5
  1
                          
100
AcDbText
  0
TEXT
  5
66
330
EF7C85532
100
AcDbEntity
  8
SUNPOU
100
AcDbText
 10
714.3061011079298
 20
21.8983436374353
 30
0.0
 40
0.75
  1
                          
100
AcDbText
  0
TEXT
  5
67
330
EF7C85532
100
AcDbEntity
  8
SUNPOU
100
AcDbText
 10
466.1239116114783
 20
43.7966872748706
 30
0.0
 40
1.5
  1
                          
100
AcDbText
  0
TEXT
  5
68
330
EF7C85532
100
AcDbEntity
  8
SUNPOU
100
AcDbText
 10
703.3445626463913
 20
21.8983436374353
 30
0.0
 40
0.75
  1
                          
100
AcDbText
  0
INSERT
  5
69
330
EF7C85532
100
AcDbEntity
  8
TEXT
100
AcDbBlockReference
  2
STDGX5
 10
178.999999284
 20
0.0
 30
0.0
  0
TEXT
  5
6A
330
EF7C85532
100
AcDbEntity
  8
SUNPOU
100
AcDbText
 10
453.0586949361739
 20
43.7966872748706
 30
0.0
 40
1.5
  1
                          
100
AcDbText
  0
TEXT
  5
6B
330
EF7C85532
100
AcDbEntity
  8
SUNPOU
100
AcDbText
 10
690.279345971087
 20
21.8983436374353
 30
0.0
 40
0.75
  1
                          
100
AcDbText
  0
TEXT
  5
6C
330
EF7C85532
100
AcDbEntity
  8
SUNPOU
100
AcDbText
 10
647.9834433840535
 20
43.7966872748706
 30
0.0
 40
1.5
  1
                          
100
AcDbText
  0
TEXT
  5
6D
330
EF7C85532
100
AcDbEntity
  8
SUNPOU
100
AcDbText
 10
885.2040944189665
 20
21.8983436374353
 30
0.0
 40
0.75
  1
                          
100
AcDbText
  0
TEXT
  5
6E
330
EF7C85532
100
AcDbEntity
  8
SUNPOU
100
AcDbText
 10
848.6272560930835
 20
43.79668727487057
 30
0.0
 40
1.5
  1
                          
100
AcDbText
  0
TEXT
  5
6F
330
EF7C85532
100
AcDbEntity
  8
SUNPOU
100
AcDbText
 10
1085.847907127996
 20
21.89834363743527
 30
0.0
 40
0.75
  1
                          
100
AcDbText
  0
INSERT
  5
70
330
EF7C85532
100
AcDbEntity
  8
HATCH
100
AcDbBlockReference
  2
*X5
 10
552.9247477318797
 20
0.0
 30
0.0
  0
TEXT
  5
71
330
EF7C85532
100
AcDbEntity
  8
SUNPOU
100
AcDbText
 10
851.0101985208963
 20
43.7966872748706
 30
0.0
 40
1.5
  1
                          
100
AcDbText
  0
TEXT
  5
72
330
EF7C85532
100
AcDbEntity
  8
SUNPOU
100
AcDbText
 10
1088.230849555809
 20
21.8983436374353
 30
0.0
 40
0.75
  1
                          
100
AcDbText
  0
TEXT
  5
73
330
EF7C85532
100
AcDbEntity
  8
SUNPOU
100
AcDbText
 10
840.048660059358
 20
43.7966872748706
 30
0.0
 40
1.5
  1
                          
100
AcDbText
  0
TEXT
  5
74
330
EF7C85532
100
AcDbEntity
  8
SUNPOU
100
AcDbText
 10
1077.269311094271
 20
21.8983436374353
 30
0.0
 40
0.75
  1
                          
100
AcDbText
  0
INSERT
  5
75
330
EF7C85532
100
AcDbEntity
  8
JISSEN
100
AcDbBlockReference
  2
STDGX5
 10
357.999999284
 20
0.0
 30
0.0
  0
TEXT
  5
76
330
EF7C85532
100
AcDbEntity
  8
SUNPOU
100
AcDbText
 10
453.0586949361739
 20
43.7966872748706
 30
0.0
 40
1.5
  1
                          
100
AcDbText
  0
TEXT
  5
77
330
EF7C85532
100
AcDbEntity
  8
SUNPOU
100
AcDbText
 10
690.279345971087
 20
21.8983436374353
 30
0.0
 40
0.75
  1
                          
100
AcDbText
  0
TEXT
  5
78
330
EF7C85532
100
AcDbEntity
  8
SUNPOU
100
AcDbText
 10
647.9834433840535
 20
43.7966872748706
 30
0.0
 40
1.5
  1
                          
100
AcDbText
  0
TEXT
  5
79
330
EF7C85532
100
AcDbEntity
  8
SUNPOU
100
AcDbText
 10
885.2040944189665
 20
21.8983436374353
 30
0.0
 40
0.75
  1
                          
100
AcDbText
  0
TEXT
  5
7A
330
EF7C85532
100
AcDbEntity
  8
SUNPOU
100
AcDbText
 10
848.6272560930835
 20
43.79668727487057
 30
0.0
 40
1.5
  1
                          
100
AcDbText
  0
TEXT
  5
7B
330
EF7C85532
100
AcDbEntity
  8
SUNPOU
100
AcDbText
 10
1085.847907127996
 20
21.89834363743527
 30
0.0
 40
0.75
  1
                          
100
AcDbText
  0
INSERT
  5
7C
330
EF7C85532
100
AcDbEntity
  8
HATCH
100
AcDbBlockReference
  2
*X6
 10
552.9247477318797
 20
0.0
 30
0.0
  0
TEXT
  5
7D
330
EF7C85532
100
AcDbEntity
  8
SUNPOU
100
AcDbText
 10
851.0101985208963
 20
43.7966872748706
 30
0.0
 40
1.5
  1
                          
100
AcDbText
  0
TEXT
  5
7E
330
EF7C85532
100
AcDbEntity
  8
SUNPOU
100
AcDbText
 10
1088.230849555809
 20
21.8983436374353
 30
0.0
 40
0.75
  1
                          
100
AcDbText
  0
TEXT
  5
7F
330
EF7C85532
100
AcDbEntity
  8
SUNPOU
100
AcDbText
 10
840.048660059358
 20
43.7966872748706
 30
0.0
 40
1.5
  1
                          
100
AcDbText
  0
TEXT
  5
80
330
EF7C85532
100
AcDbEntity
  8
SUNPOU
100
AcDbText
 10
1077.269311094271
 20
21.8983436374353
 30
0.0
 40
0.75
  1
                          
100
AcDbText
  0
INSERT
  5
81
330
EF7C85532
100
AcDbEntity
  8
JISSEN
100
AcDbBlockReference
  2
STDGX5
 10
357.999999284
 20
0.0
 30
0.0
  0
TEXT
  5
82
330
EF7C85532
100
AcDbEntity
  8
SUNPOU
100
AcDbText
 10
632.0586942201739
 20
43.7966872748706
 30
0.0
 40
1.5
  1
                          
100
AcDbText
  0
TEXT
  5
83
330
EF7C85532
100
AcDbEntity
  8
SUNPOU
100
AcDbText
 10
869.2793452550871
 20
21.8983436374353
 30
0.0
 40
0.75
  1
                          
100
AcDbText
  0
TEXT
  5
84
330
EF7C85532
100
AcDbEntity
  8
SUNPOU
100
AcDbText
 10
826.9834426680535
 20
43.7966872748706
 30
0.0
 40
1.5
  1
                          
100
AcDbText
  0
TEXT
  5
85
330
EF7C85532
100
AcDbEntity
  8
SUNPOU
100
AcDbText
 10
1064.204093702966
 20
21.8983436374353
 30
0.0
 40
0.75
  1
                          
100
AcDbText
  0
TEXT
  5
86
330
EF7C85532
100
AcDbEntity
  8
SUNPOU
100
AcDbText
 10
1027.627255377083
 20
43.79668727487057
 30
0.0
 40
1.5
  1
                          
100
AcDbText
  0
TEXT
  5
87
330
EF7C85532
100
AcDbEntity
  8
SUNPOU
100
AcDbText
 10
1264.847906411996
 20
21.89834363743527
 30
0.0
 40
0.75
  1
                          
100
AcDbText
  0
INSERT
  5
88
330
EF7C85532
100
AcDbEntity
  8
HATCH
100
AcDbBlockReference
  2
*X7
 10
731.9247470158797
 20
0.0
 30
0.0
  0
TEXT
  5
89
330
EF7C85532
100
AcDbEntity
  8
SUNPOU
100
AcDbText
 10
1030.010197804896
 20
43.7966872748706
 30
0.0
 40
1.5
  1
                          
100
AcDbText
  0
TEXT
  5
8A
330
EF7C85532
100
AcDbEntity
  8
SUNPOU
100
AcDbText
 10
1267.230848839809
 20
21.8983436374353
 30
0.0
 40
0.75
  1
                          
100
AcDbText
  0
TEXT
  5
8B
330
EF7C85532
100
AcDbEntity
  8
SUNPOU
100
AcDbText
 10
1019.048659343358
 20
43.7966872748706
 30
0.0
 40
1.5
  1
                          
100
AcDbText
  0
TEXT
  5
8C
330
EF7C85532
100
AcDbEntity
  8
SUNPOU
100
AcDbText
 10
1256.269310378271
 20
21.8983436374353
 30
0.0
 40
0.75
  1
                          
100
AcDbText
  0
INSERT
  5
8D
330
EF7C85532
100
AcDbEntity
  8
JISSEN
100
AcDbBlockReference
  2
STDGX5
 10
536.999998568
 20
0.0
 30
0.0
  0
INSERT
  5
8E
330
EF7C85532
100
AcDbEntity
  8
SUNPOU
100
AcDbBlockReference
  2
STDGX5
 10
739.0804232644236
 20
50.83533235670902
 30
0.0
 41
0.5
 42
0.5
 43
0.5
  0
INSERT
  5
8F
330
EF7C85532
100
AcDbEntity
  8
SUNPOU
100
AcDbBlockReference
  2
STDGX5
 10
726.2208210623692
 20
105.0763138619288
 30
0.0
 41
0.5
 42
0.5
 43
0.5
  0
INSERT
  5
90
330
EF7C85532
100
AcDbEntity
  8
HATCH
100
AcDbBlockReference
  2
STDGX5
 10
852.3985550581901
 20
151.7065097967401
 30
0.0
 41
0.5
 42
0.5
 43
0.5
  0
INSERT
  5
91
330
EF7C85532
100
AcDbEntity
  8
HATCH
100
AcDbBlockReference
  2
STDGX5
 10
866.6806796277285
 20
102.7017487639613
 30
0.0
 41
0.5
 42
0.5
 43
0.5
  0
INSERT
  5
92
330
EF7C85532
100
AcDbEntity
  8
TEXT
100
AcDbBlockReference
  2
STDGX5
 10
970.3434408521969
 20
102.8213468229236
 30
0.0
 41
0.5
 42
0.5
 43
0.5
  0
INSERT
  5
93
330
EF7C85532
100
AcDbEntity
  8
SUNPOU
100
AcDbBlockReference
  2
STDGX5
 10
996.1728907397869
 20
174.5475645486174
 30
0.0
 41
0.5
 42
0.5
 43
0.5
  0
INSERT
  5
94
330
EF7C85532
100
AcDbEntity
  8
TEXT
100
AcDbBlockReference
  2
STDGX5
 10
725.7513886810995
 20
124.5860190441302
 30
0.0
 41
0.5
 42
0.5
 43
0.5
  0
INSERT
  5
95
330
EF7C85532
100
AcDbEntity
  8
HATCH
100
AcDbBlockReference
  2
STDGX5
 10
777.1755722656421
 20
145.5222028932424
 30
0.0
 41
0.5
 42
0.5
 43
0.5
  0
INSERT
  5
96
330
EF7C85532
100
AcDbEntity
  8
SUNPOU
100
AcDbBlockReference
  2
STDGX5
 10
846.1963575359604
 20
112.6957974729892
 30
0.0
 41
0.5
 42
0.5
 43
0.5
  0
INSERT
  5
97
330
EF7C85532
100
AcDbEntity
  8
SUNPOU
100
AcDbBlockReference
  2
STDGX5
 10
916.6681156211122
 20
121.7330617103085
 30
0.0
 41
0.5
 42
0.5
 43
0.5
  0
INSERT
  5
98
330
EF7C85532
100
AcDbEntity
  8
TEXT
100
AcDbBlockReference
  2
STDGX5
 10
983.7969461426769
 20
84.61852224867081
 30
0.0
 41
0.5
 42
0.5
 43
0.5
  0
INSERT
  5
99
330
EF7C85532
100
AcDbEntity
  8
HATCH
100
AcDbBlockReference
  2
STDGX5
 10
974.2802715042099
 20
136.4849386559231
 30
0.0
 41
0.5
 42
0.5
 43
0.5
  0
INSERT
  5
9A
330
EF7C85532
100
AcDbEntity
  8
SUNPOU
100
AcDbBlockReference
  2
STDGX5
 10
749.7834008663489
 20
95.14721172234004
 30
0.0
 41
0.5
 42
0.5
 43
0.5
  0
INSERT
  5
9B
330
EF7C85532
100
AcDbEntity
  8
SUNPOU
100
AcDbBlockReference
  2
STDGX5
 10
736.9237986642947
 20
149.3881932275598
 30
0.0
 41
0.5
 42
0.5
 43
0.5
  0
INSERT
  5
9C
330
EF7C85532
100
AcDbEntity
  8
HATCH
100
AcDbBlockReference
  2
STDGX5
 10
863.1015326601156
 20
196.0183891623711
 30
0.0
 41
0.5
 42
0.5
 43
0.5
  0
INSERT
  5
9D
330
EF7C85532
100
AcDbEntity
  8
HATCH
100
AcDbBlockReference
  2
STDGX5
 10
877.3836572296538
 20
147.0136281295923
 30
0.0
 41
0.5
 42
0.5
 43
0.5
  0
INSERT
  5
9E
330
EF7C85532
100
AcDbEntity
  8
TEXT
100
AcDbBlockReference
  2
STDGX5
 10
981.0464184541224
 20
147.1332261885546
 30
0.0
 41
0.5
 42
0.5
 43
0.5
  0
INSERT
  5
9F
330
EF7C85532
100
AcDbEntity
  8
SUNPOU
100
AcDbBlockReference
  2
STDGX5
 10
1006.875868341712
 20
218.8594439142484
 30
0.0
 41
0.5
 42
0.5
 43
0.5
  0
INSERT
  5
A0
330
EF7C85532
100
AcDbEntity
  8
TEXT
100
AcDbBlockReference
  2
STDGX5
 10
736.4543662830251
 20
168.8978984097612
 30
0.0
 41
0.5
 42
0.5
 43
0.5
  0
INSERT
  5
A1
330
EF7C85532
100
AcDbEntity
  8
HATCH
100
AcDbBlockReference
  2
STDGX5
 10
787.8785498675677
 20
189.8340822588735
 30
0.0
 41
0.5
 42
0.5
 43
0.5
  0
INSERT
  5
A2
330
EF7C85532
100
AcDbEntity
  8
SUNPOU
100
AcDbBlockReference
  2
STDGX5
 10
856.899335137886
 20
157.0076768386202
 30
0.0
 41
0.5
 42
0.5
 43
0.5
  0
INSERT
  5
A3
330
EF7C85532
100
AcDbEntity
  8
SUNPOU
100
AcDbBlockReference
  2
STDGX5
 10
927.3710932230379
 20
166.0449410759395
 30
0.0
 41
0.5
 42
0.5
 43
0.5
  0
INSERT
  5
A4
330
EF7C85532
100
AcDbEntity
  8
TEXT
100
AcDbBlockReference
  2
STDGX5
 10
994.4999237446024
 20
128.9304016143018
 30
0.0
 41
0.5
 42
0.5
 43
0.5
  0
INSERT
  5
A5
330
EF7C85532
100
AcDbEntity
  8
HATCH
100
AcDbBlockReference
  2
STDGX5
 10
984.9832491061354
 20
180.7968180215541
 30
0.0
 41
0.5
 42
0.5
 43
0.5
  0
TEXT
  5
DE
330
EF7C85532
100
AcDbEntity
  8
SUNPOU
100
AcDbText
 10
274.0586949361738
 20
43.7966872748706
 30
0.0
 40
1.5
  1
                          
100
AcDbText
  0
TEXT
  5
145
330
EF7C85532
100
AcDbEntity
  8
SUNPOU
100
AcDbText
 10
511.2793459710869
 20
21.8983436374353
 30
0.0
 40
0.75
  1
                          
100
AcDbText
  0
TEXT
  5
265
330
EF7C85532
100
AcDbEntity
  8
SUNPOU
100
AcDbText
 10
474.702507645204
 20
43.79668727487057
 30
0.0
 40
1.5
  1
                          
100
AcDbText
  0
TEXT
  5
266
330
EF7C85532
100
AcDbEntity
  8
SUNPOU
100
AcDbText
 10
711.923158680117
 20
21.89834363743527
 30
0.0
 40
0.75
  1
                          
100
AcDbText
  0
INSERT
  5
2F7
330
EF7C85532
100
AcDbEntity
  8
HATCH
100
AcDbBlockReference
  2
*X4
 10
178.999999284
 20
0.0
 30
0.0
  0
TEXT
  5
31A
330
EF7C85532
100
AcDbEntity
  8
SUNPOU
100
AcDbText
 10
477.0854500730167
 20
43.7966872748706
 30
0.0
 40
1.5
  1
                          
100
AcDbText
  0
TEXT
  5
31C
330
EF7C85532
100
AcDbEntity
  8
SUNPOU
100
AcDbText
 10
714.3061011079298
 20
21.8983436374353
 30
0.0
 40
0.75
  1
                          
100
AcDbText
  0
TEXT
  5
3A6
330
EF7C85532
100
AcDbEntity
  8
TEXT
100
AcDbText
 10
100.9999992839998
 20
244.9999999999999
 30
0.0
 40
3.0
  1
 
  7
K
100
AcDbText
  0
TEXT
  5
3AB
330
EF7C85532
100
AcDbEntity
  8
SUNPOU
100
AcDbText
 10
466.1239116114783
 20
43.7966872748706
 30
0.0
 40
1.5
  1
                          
100
AcDbText
  0
TEXT
  5
3AC
330
EF7C85532
100
AcDbEntity
  8
SUNPOU
100
AcDbText
 10
703.3445626463913
 20
21.8983436374353
 30
0.0
 40
0.75
  1
                          
100
AcDbText
  0
INSERT
  5
3F6
330
EF7C85532
100
AcDbEntity
  8
TEXT
100
AcDbBlockReference
  2
STDGX5
 10
178.999999284
 20
0.0
 30
0.0
  0
TEXT
  5
3F7
330
EF7C85532
100
AcDbEntity
  8
SUNPOU
100
AcDbText
 10
453.0586949361739
 20
43.7966872748706
 30
0.0
 40
1.5
  1
                          
100
AcDbText
  0
TEXT
  5
3F8
330
EF7C85532
100
AcDbEntity
  8
SUNPOU
100
AcDbText
 10
690.279345971087
 20
21.8983436374353
 30
0.0
 40
0.75
  1
                          
100
AcDbText
  0
TEXT
  5
3F9
330
EF7C85532
100
AcDbEntity
  8
SUNPOU
100
AcDbText
 10
647.9834433840535
 20
43.7966872748706
 30
0.0
 40
1.5
  1
                          
100
AcDbText
  0
TEXT
  5
3FA
330
EF7C85532
100
AcDbEntity
  8
SUNPOU
100
AcDbText
 10
885.2040944189665
 20
21.8983436374353
 30
0.0
 40
0.75
  1
                          
100
AcDbText
  0
TEXT
  5
3FB
330
EF7C85532
100
AcDbEntity
  8
SUNPOU
100
AcDbText
 10
848.6272560930835
 20
43.79668727487057
 30
0.0
 40
1.5
  1
                          
100
AcDbText
  0
TEXT
  5
3FC
330
EF7C85532
100
AcDbEntity
  8
SUNPOU
100
AcDbText
 10
1085.847907127996
 20
21.89834363743527
 30
0.0
 40
0.75
  1
                          
100
AcDbText
  0
INSERT
  5
3FD
330
EF7C85532
100
AcDbEntity
  8
HATCH
100
AcDbBlockReference
  2
*X5
 10
552.9247477318797
 20
0.0
 30
0.0
  0
TEXT
  5
3FE
330
EF7C85532
100
AcDbEntity
  8
SUNPOU
100
AcDbText
 10
851.0101985208963
 20
43.7966872748706
 30
0.0
 40
1.5
  1
                          
100
AcDbText
  0
TEXT
  5
3FF
330
EF7C85532
100
AcDbEntity
  8
SUNPOU
100
AcDbText
 10
1088.230849555809
 20
21.8983436374353
 30
0.0
 40
0.75
  1
                          
100
AcDbText
  0
TEXT
  5
400
330
EF7C85532
100
AcDbEntity
  8
SUNPOU
100
AcDbText
 10
840.048660059358
 20
43.7966872748706
 30
0.0
 40
1.5
  1
                          
100
AcDbText
  0
TEXT
  5
401
330
EF7C85532
100
AcDbEntity
  8
SUNPOU
100
AcDbText
 10
1077.269311094271
 20
21.8983436374353
 30
0.0
 40
0.75
  1
                          
100
AcDbText
  0
INSERT
  5
402
330
EF7C85532
100
AcDbEntity
  8
JISSEN
100
AcDbBlockReference
  2
STDGX5
 10
357.999999284
 20
0.0
 30
0.0
  0
TEXT
  5
409
330
EF7C85532
100
AcDbEntity
  8
SUNPOU
100
AcDbText
 10
453.0586949361739
 20
43.7966872748706
 30
0.0
 40
1.5
  1
                          
100
AcDbText
  0
TEXT
  5
40A
330
EF7C85532
100
AcDbEntity
  8
SUNPOU
100
AcDbText
 10
690.279345971087
 20
21.8983436374353
 30
0.0
 40
0.75
  1
                          
100
AcDbText
  0
TEXT
  5
41B
330
EF7C85532
100
AcDbEntity
  8
SUNPOU
100
AcDbText
 10
647.9834433840535
 20
43.7966872748706
 30
0.0
 40
1.5
  1
                          
100
AcDbText
  0
TEXT
  5
41C
330
EF7C85532
100
AcDbEntity
  8
SUNPOU
100
AcDbText
 10
885.2040944189665
 20
21.8983436374353
 30
0.0
 40
0.75
  1
                          
100
AcDbText
  0
TEXT
  5
41D
330
EF7C85532
100
AcDbEntity
  8
SUNPOU
100
AcDbText
 10
848.6272560930835
 20
43.79668727487057
 30
0.0
 40
1.5
  1
                          
100
AcDbText
  0
TEXT
  5
41E
330
EF7C85532
100
AcDbEntity
  8
SUNPOU
100
AcDbText
 10
1085.847907127996
 20
21.89834363743527
 30
0.0
 40
0.75
  1
                          
100
AcDbText
  0
INSERT
  5
41F
330
EF7C85532
100
AcDbEntity
  8
HATCH
100
AcDbBlockReference
  2
*X6
 10
552.9247477318797
 20
0.0
 30
0.0
  0
TEXT
  5
420
330
EF7C85532
100
AcDbEntity
  8
SUNPOU
100
AcDbText
 10
851.0101985208963
 20
43.7966872748706
 30
0.0
 40
1.5
  1
                          
100
AcDbText
  0
TEXT
  5
421
330
EF7C85532
100
AcDbEntity
  8
SUNPOU
100
AcDbText
 10
1088.230849555809
 20
21.8983436374353
 30
0.0
 40
0.75
  1
                          
100
AcDbText
  0
TEXT
  5
422
330
EF7C85532
100
AcDbEntity
  8
SUNPOU
100
AcDbText
 10
840.048660059358
 20
43.7966872748706
 30
0.0
 40
1.5
  1
                          
100
AcDbText
  0
TEXT
  5
423
330
EF7C85532
100
AcDbEntity
  8
SUNPOU
100
AcDbText
 10
1077.269311094271
 20
21.8983436374353
 30
0.0
 40
0.75
  1
                          
100
AcDbText
  0
INSERT
  5
424
330
EF7C85532
100
AcDbEntity
  8
JISSEN
100
AcDbBlockReference
  2
STDGX5
 10
357.999999284
 20
0.0
 30
0.0
  0
TEXT
  5
425
330
EF7C85532
100
AcDbEntity
  8
SUNPOU
100
AcDbText
 10
632.0586942201739
 20
43.7966872748706
 30
0.0
 40
1.5
  1
                          
100
AcDbText
  0
TEXT
  5
426
330
EF7C85532
100
AcDbEntity
  8
SUNPOU
100
AcDbText
 10
869.2793452550871
 20
21.8983436374353
 30
0.0
 40
0.75
  1
                          
100
AcDbText
  0
TEXT
  5
427
330
EF7C85532
100
AcDbEntity
  8
SUNPOU
100
AcDbText
 10
826.9834426680535
 20
43.7966872748706
 30
0.0
 40
1.5
  1
                          
100
AcDbText
  0
TEXT
  5
428
330
EF7C85532
100
AcDbEntity
  8
SUNPOU
100
AcDbText
 10
1064.204093702966
 20
21.8983436374353
 30
0.0
 40
0.75
  1
                          
100
AcDbText
  0
TEXT
  5
429
330
EF7C85532
100
AcDbEntity
  8
SUNPOU
100
AcDbText
 10
1027.627255377083
 20
43.79668727487057
 30
0.0
 40
1.5
  1
                          
100
AcDbText
  0
TEXT
  5
42A
330
EF7C85532
100
AcDbEntity
  8
SUNPOU
100
AcDbText
 10
1264.847906411996
 20
21.89834363743527
 30
0.0
 40
0.75
  1
                          
100
AcDbText
  0
INSERT
  5
42B
330
EF7C85532
100
AcDbEntity
  8
HATCH
100
AcDbBlockReference
  2
*X7
 10
731.9247470158797
 20
0.0
 30
0.0
  0
TEXT
  5
42C
330
EF7C85532
100
AcDbEntity
  8
SUNPOU
100
AcDbText
 10
1030.010197804896
 20
43.7966872748706
 30
0.0
 40
1.5
  1
                          
100
AcDbText
  0
TEXT
  5
42D
330
EF7C85532
100
AcDbEntity
  8
SUNPOU
100
AcDbText
 10
1267.230848839809
 20
21.8983436374353
 30
0.0
 40
0.75
  1
                          
100
AcDbText
  0
TEXT
  5
42E
330
EF7C85532
100
AcDbEntity
  8
SUNPOU
100
AcDbText
 10
1019.048659343358
 20
43.7966872748706
 30
0.0
 40
1.5
  1
                          
100
AcDbText
  0
TEXT
  5
42F
330
EF7C85532
100
AcDbEntity
  8
SUNPOU
100
AcDbText
 10
1256.269310378271
 20
21.8983436374353
 30
0.0
 40
0.75
  1
                          
100
AcDbText
  0
INSERT
  5
430
330
EF7C85532
100
AcDbEntity
  8
JISSEN
100
AcDbBlockReference
  2
STDGX5
 10
536.999998568
 20
0.0
 30
0.0
  0
INSERT
  5
43B
330
EF7C85532
100
AcDbEntity
  8
SUNPOU
100
AcDbBlockReference
  2
STDGX5
 10
739.0804232644236
 20
50.83533235670902
 30
0.0
 41
0.5
 42
0.5
 43
0.5
  0
INSERT
  5
43C
330
EF7C85532
100
AcDbEntity
  8
SUNPOU
100
AcDbBlockReference
  2
STDGX5
 10
726.2208210623692
 20
105.0763138619288
 30
0.0
 41
0.5
 42
0.5
 43
0.5
  0
INSERT
  5
43D
330
EF7C85532
100
AcDbEntity
  8
HATCH
100
AcDbBlockReference
  2
STDGX5
 10
852.3985550581901
 20
151.7065097967401
 30
0.0
 41
0.5
 42
0.5
 43
0.5
  0
INSERT
  5
43E
330
EF7C85532
100
AcDbEntity
  8
HATCH
100
AcDbBlockReference
  2
STDGX5
 10
866.6806796277285
 20
102.7017487639613
 30
0.0
 41
0.5
 42
0.5
 43
0.5
  0
INSERT
  5
43F
330
EF7C85532
100
AcDbEntity
  8
TEXT
100
AcDbBlockReference
  2
STDGX5
 10
970.3434408521969
 20
102.8213468229236
 30
0.0
 41
0.5
 42
0.5
 43
0.5
  0
INSERT
  5
440
330
EF7C85532
100
AcDbEntity
  8
SUNPOU
100
AcDbBlockReference
  2
STDGX5
 10
996.1728907397869
 20
174.5475645486174
 30
0.0
 41
0.5
 42
0.5
 43
0.5
  0
INSERT
  5
441
330
EF7C85532
100
AcDbEntity
  8
TEXT
100
AcDbBlockReference
  2
STDGX5
 10
725.7513886810995
 20
124.5860190441302
 30
0.0
 41
0.5
 42
0.5
 43
0.5
  0
INSERT
  5
442
330
EF7C85532
100
AcDbEntity
  8
HATCH
100
AcDbBlockReference
  2
STDGX5
 10
777.1755722656421
 20
145.5222028932424
 30
0.0
 41
0.5
 42
0.5
 43
0.5
  0
INSERT
  5
443
330
EF7C85532
100
AcDbEntity
  8
SUNPOU
100
AcDbBlockReference
  2
STDGX5
 10
846.1963575359604
 20
112.6957974729892
 30
0.0
 41
0.5
 42
0.5
 43
0.5
  0
INSERT
  5
444
330
EF7C85532
100
AcDbEntity
  8
SUNPOU
100
AcDbBlockReference
  2
STDGX5
 10
916.6681156211122
 20
121.7330617103085
 30
0.0
 41
0.5
 42
0.5
 43
0.5
  0
INSERT
  5
445
330
EF7C85532
100
AcDbEntity
  8
TEXT
100
AcDbBlockReference
  2
STDGX5
 10
983.7969461426769
 20
84.61852224867081
 30
0.0
 41
0.5
 42
0.5
 43
0.5
  0
INSERT
  5
446
330
EF7C85532
100
AcDbEntity
  8
HATCH
100
AcDbBlockReference
  2
STDGX5
 10
974.2802715042099
 20
136.4849386559231
 30
0.0
 41
0.5
 42
0.5
 43
0.5
  0
INSERT
  5
447
330
EF7C85532
100
AcDbEntity
  8
SUNPOU
100
AcDbBlockReference
  2
STDGX5
 10
749.7834008663489
 20
95.14721172234004
 30
0.0
 41
0.5
 42
0.5
 43
0.5
  0
INSERT
  5
448
330
EF7C85532
100
AcDbEntity
  8
SUNPOU
100
AcDbBlockReference
  2
STDGX5
 10
736.9237986642947
 20
149.3881932275598
 30
0.0
 41
0.5
 42
0.5
 43
0.5
  0
INSERT
  5
449
330
EF7C85532
100
AcDbEntity
  8
HATCH
100
AcDbBlockReference
  2
STDGX5
 10
863.1015326601156
 20
196.0183891623711
 30
0.0
 41
0.5
 42
0.5
 43
0.5
  0
INSERT
  5
44A
330
EF7C85532
100
AcDbEntity
  8
HATCH
100
AcDbBlockReference
  2
STDGX5
 10
877.3836572296538
 20
147.0136281295923
 30
0.0
 41
0.5
 42
0.5
 43
0.5
  0
INSERT
  5
44B
330
EF7C85532
100
AcDbEntity
  8
TEXT
100
AcDbBlockReference
  2
STDGX5
 10
981.0464184541224
 20
147.1332261885546
 30
0.0
 41
0.5
 42
0.5
 43
0.5
  0
INSERT
  5
44C
330
EF7C85532
100
AcDbEntity
  8
SUNPOU
100
AcDbBlockReference
  2
STDGX5
 10
1006.875868341712
 20
218.8594439142484
 30
0.0
 41
0.5
 42
0.5
 43
0.5
  0
INSERT
  5
44D
330
EF7C85532
100
AcDbEntity
  8
TEXT
100
AcDbBlockReference
  2
STDGX5
 10
736.4543662830251
 20
168.8978984097612
 30
0.0
 41
0.5
 42
0.5
 43
0.5
  0
INSERT
  5
44E
330
EF7C85532
100
AcDbEntity
  8
HATCH
100
AcDbBlockReference
  2
STDGX5
 10
787.8785498675677
 20
189.8340822588735
 30
0.0
 41
0.5
 42
0.5
 43
0.5
  0
INSERT
  5
44F
330
EF7C85532
100
AcDbEntity
  8
SUNPOU
100
AcDbBlockReference
  2
STDGX5
 10
856.899335137886
 20
157.0076768386202
 30
0.0
 41
0.5
 42
0.5
 43
0.5
  0
INSERT
  5
450
330
EF7C85532
100
AcDbEntity
  8
SUNPOU
100
AcDbBlockReference
  2
STDGX5
 10
927.3710932230379
 20
166.0449410759395
 30
0.0
 41
0.5
 42
0.5
 43
0.5
  0
INSERT
  5
451
330
EF7C85532
100
AcDbEntity
  8
TEXT
100
AcDbBlockReference
  2
STDGX5
 10
994.4999237446024
 20
128.9304016143018
 30
0.0
 41
0.5
 42
0.5
 43
0.5
  0
INSERT
  5
452
330
EF7C85532
100
AcDbEntity
  8
HATCH
100
AcDbBlockReference
  2
STDGX5
 10
984.9832491061354
 20
180.7968180215541
 30
0.0
 41
0.5
 42
0.5
 43
0.5
  0
INSERT
  5
4CF3
330
EF7C85532
100
AcDbEntity
  8
JISSEN
100
AcDbBlockReference
  2
STDR12J
 10
0.0
 20
0.0
 30
0.0
  0
LINE
  5
EF7C87D59
330
EF7C85532
100
AcDbEntity
  8
SUNPOU
100
AcDbLine
 10
108.5102684344543
 20
193.4107192011131
 30
0.0
 11
133.4007528277205
 21
152.5023940783193
 31
0.0
  0
INSERT
  5
EF7C87D6C
330
EF7C85532
100
AcDbEntity
  8
WAKU
100
AcDbBlockReference
  2
WAKU
 10
0.0
 20
0.0
 30
0.0
 41
181.0
 42
283.0
 43
181.0
  0
CIRCLE
  5
EF7C87D9B
330
EF7C85532
100
AcDbEntity
  8
SUNPOU
100
AcDbCircle
 10
136.5194987010982
 20
147.3766332394496
 30
0.0
 40
6.0
  0
LINE
  5
EF7C87D9C
330
EF7C85532
100
AcDbEntity
  8
SUNPOU
100
AcDbLine
 10
95.85002844298776
 20
166.0056831932358
 30
0.0
 11
112.0625790963279
 21
151.393580791586
 31
0.0
  0
CIRCLE
  5
EF7C87D9D
330
EF7C85532
100
AcDbEntity
  8
SUNPOU
100
AcDbCircle
 10
116.519498701098
 20
147.3766332394496
 30
0.0
 40
6.0
  0
TEXT
  5
EF7C87D9E
330
EF7C85532
100
AcDbEntity
  8
SUNPOU
100
AcDbText
 10
114.3766415582409
 20
145.1266332394496
 30
0.0
 40
4.5
  1
2
  7
K
 72
     4
 11
116.519498701098
 21
147.3766332394496
 31
0.0
100
AcDbText
  0
INSERT
  5
EF7C87DA0
330
EF7C85532
100
AcDbEntity
  8
SUNPOU
100
AcDbBlockReference
  2
ARROW
 10
95.85002844298788
 20
166.0056831932358
 30
0.0
 41
1.500000000000017
 42
1.5
 43
1.5
 50
137.9721879595429
  0
TEXT
  5
EF7C87DA4
330
EF7C85532
100
AcDbEntity
  8
SUNPOU
100
AcDbText
 10
134.6980701296696
 20
145.1266332394496
 30
0.0
 40
4.5
  1
1
  7
K
 72
     4
 11
136.5194987010982
 21
147.3766332394496
 31
0.0
100
AcDbText
  0
INSERT
  5
EF7C87E56
330
EF7C85532
100
AcDbEntity
  8
SUNPOU
100
AcDbBlockReference
  2
ARROW
 10
108.5102684344553
 20
193.4107192011125
 30
0.0
 41
1.500000000000009
 42
1.5
 43
1.5
 50
121.3182318203614
  0
LINE
  5
EF7C87F04
330
EF7C85532
100
AcDbEntity
  8
JISSEN
100
AcDbLine
 10
91.49999951144918
 20
265.0000001996573
 30
0.0
 11
180.9999995114493
 21
265.0000001996573
 31
0.0
  0
LINE
  5
EF7C87F05
330
EF7C85532
100
AcDbEntity
  8
JISSEN
100
AcDbLine
 10
91.49999951144918
 20
271.0000001996573
 30
0.0
 11
180.9999995114493
 21
271.0000001996573
 31
0.0
  0
LINE
  5
EF7C87F06
330
EF7C85532
100
AcDbEntity
  8
JISSEN
100
AcDbLine
 10
91.49999951144918
 20
277.0000001996573
 30
0.0
 11
180.9999995114493
 21
277.0000001996573
 31
0.0
  0
TEXT
  5
EF7C87F07
330
EF7C85532
100
AcDbEntity
  8
TEXT
100
AcDbText
 10
107.8999995114491
 20
278.5000001996573
 30
0.0
 40
3.0
  1
名      称
  7
K
 72
     4
 11
116.4999995114491
 21
280.0000001996573
 31
0.0
100
AcDbText
  0
TEXT
  5
EF7C87F09
330
EF7C85532
100
AcDbEntity
  8
TEXT
100
AcDbText
 10
102.6914280828777
 20
266.6428573425144
 30
0.0
 40
3.0
  1
シーリングプレート HFQR
 41
0.6
  7
K
 72
     4
 11
116.4999995114491
 21
268.0000001996573
 31
0.0
100
AcDbText
  0
TEXT
  5
EF7C87F0A
330
EF7C85532
100
AcDbEntity
  8
TEXT
100
AcDbText
 10
95.28571379716346
 20
272.5000001996573
 30
0.0
 40
3.0
  1
1
  7
K
 72
     4
 11
96.49999951144918
 21
274.0000001996573
 31
0.0
100
AcDbText
  0
LINE
  5
EF7C87F0B
330
EF7C85532
100
AcDbEntity
  8
JISSEN
100
AcDbLine
 10
101.4999995114491
 20
283.0000001996573
 30
0.0
 11
101.4999995114491
 21
265.0000001996573
 31
0.0
  0
LINE
  5
EF7C87F0C
330
EF7C85532
100
AcDbEntity
  8
JISSEN
100
AcDbLine
 10
91.49999951144918
 20
265.0000001996573
 30
0.0
 11
91.49999951144918
 21
283.0000001996573
 31
0.0
  0
TEXT
  5
EF7C87F0D
330
EF7C85532
100
AcDbEntity
  8
TEXT
100
AcDbText
 10
95.38307191698352
 20
266.5000001996573
 30
0.0
 40
3.0
  1
2
  7
K
 72
     4
 11
96.81164334555496
 21
268.0000001996573
 31
0.0
100
AcDbText
  0
TEXT
  5
EF7C87F0E
330
EF7C85532
100
AcDbEntity
  8
TEXT
100
AcDbText
 10
93.29999951144918
 20
278.5000001996573
 30
0.0
 40
3.0
  1
番号
  7
K
 72
     4
 11
96.49999951144918
 21
280.0000001996573
 31
0.0
100
AcDbText
  0
LINE
  5
EF7C87F0F
330
EF7C85532
100
AcDbEntity
  8
JISSEN
100
AcDbLine
 10
131.4999995114491
 20
283.0000001996573
 30
0.0
 11
131.4999995114491
 21
265.0000001996573
 31
0.0
  0
TEXT
  5
EF7C87F10
330
EF7C85532
100
AcDbEntity
  8
TEXT
100
AcDbText
 10
156.6795479978584
 20
272.5000001996573
 30
0.0
 40
3.0
  1
1
  7
K
 72
     4
 11
157.8938337121441
 21
274.0000001996573
 31
0.0
100
AcDbText
  0
LINE
  5
EF7C87F11
330
EF7C85532
100
AcDbEntity
  8
JISSEN
100
AcDbLine
 10
163.4999995114491
 20
283.0000001996573
 30
0.0
 11
163.4999995114491
 21
265.0000001996573
 31
0.0
  0
LINE
  5
EF7C87F12
330
EF7C85532
100
AcDbEntity
  8
JISSEN
100
AcDbLine
 10
152.4999995114491
 20
265.0000001996573
 30
0.0
 11
152.4999995114491
 21
283.0000001996573
 31
0.0
  0
TEXT
  5
EF7C87F13
330
EF7C85532
100
AcDbEntity
  8
TEXT
100
AcDbText
 10
136.8249995114491
 20
274.3000001996573
 30
0.0
 40
3.0
  1
%%u      
  7
K
 72
     4
 11
141.9999995114491
 21
274.0000001996573
 31
0.0
100
AcDbText
  0
TEXT
  5
EF7C87F14
330
EF7C85532
100
AcDbEntity
  8
TEXT
100
AcDbText
 10
137.6428566543063
 20
266.5000001996573
 30
0.0
 40
3.0
  1
PBT
  7
K
 72
     4
 11
141.9999995114491
 21
268.0000001996573
 31
0.0
100
AcDbText
  0
TEXT
  5
EF7C87F15
330
EF7C85532
100
AcDbEntity
  8
TEXT
100
AcDbText
 10
156.6795479978584
 20
266.5808353759984
 30
0.0
 40
3.0
  1
1
  7
K
 72
     4
 11
157.8938337121441
 21
268.0808353759984
 31
0.0
100
AcDbText
  0
TEXT
  5
EF7C87F16
330
EF7C85532
100
AcDbEntity
  8
TEXT
100
AcDbText
 10
135.1999995114491
 20
278.5000001996573
 30
0.0
 40
3.0
  1
材    質
  7
K
 72
     4
 11
141.9999995114491
 21
280.0000001996573
 31
0.0
100
AcDbText
  0
TEXT
  5
EF7C87F17
330
EF7C85532
100
AcDbEntity
  8
TEXT
100
AcDbText
 10
165.6999995114491
 20
278.5000001996573
 30
0.0
 40
3.0
  1
備    考
  7
K
 72
     4
 11
172.4999995114491
 21
280.0000001996573
 31
0.0
100
AcDbText
  0
TEXT
  5
EF7C87F18
330
EF7C85532
100
AcDbEntity
  8
TEXT
100
AcDbText
 10
154.7999995114491
 20
278.5000001996573
 30
0.0
 40
3.0
  1
個数
  7
K
 72
     4
 11
157.9999995114491
 21
280.0000001996573
 31
0.0
100
AcDbText
  0
ARC
  5
EF7C885D1
330
EF7C85532
100
AcDbEntity
  8
SAISEN
100
AcDbCircle
 10
129.9229144438498
 20
67.88285349438211
 30
0.0
 40
22.5
100
AcDbArc
 50
131.810314895778
 51
48.18968510422195
  0
ARC
  5
EF7C885D2
330
EF7C85532
100
AcDbEntity
  8
JISSEN
100
AcDbCircle
 10
129.9229144438498
 20
67.88285349438211
 30
0.0
 40
17.0
100
AcDbArc
 50
151.9275130641468
 51
28.07248693585355
  0
CIRCLE
  5
EF7C885D3
330
EF7C85532
100
AcDbEntity
  8
JISSEN
100
AcDbCircle
 10
129.9229144438498
 20
67.88285349438211
 30
0.0
 40
37.5
  0
ARC
  5
EF7C885D4
330
EF7C85532
100
AcDbEntity
  8
JISSEN
100
AcDbCircle
 10
129.9513799074276
 20
67.88285349438215
 30
0.0
 40
16.85000000000002
100
AcDbArc
 50
149.3788771777242
 51
172.3263075944705
  0
LINE
  5
EF7C885D5
330
EF7C85532
100
AcDbEntity
  8
SUNPOU
 62
     0
100
AcDbLine
 10
31.28659047301482
 20
65.64265516625593
 30
0.0
 11
31.28659047301482
 21
51.34332821410573
 31
0.0
  0
LINE
  5
EF7C885D6
330
EF7C85532
100
AcDbEntity
  8
SUNPOU
 62
     0
100
AcDbLine
 10
31.02242075922561
 20
65.64265516625593
 30
0.0
 11
31.02242075922561
 21
51.06921790467547
 31
0.0
  0
LINE
  5
EF7C885D7
330
EF7C85532
100
AcDbEntity
  8
JISSEN
100
AcDbLine
 10
29.52360472112241
 20
45.38214750013404
 30
0.0
 11
29.52360472112241
 21
90.38355948863019
 31
0.0
  0
LINE
  5
EF7C885D8
330
EF7C85532
100
AcDbEntity
  8
SUNPOU
 62
     0
100
AcDbLine
 10
24.5238400525385
 20
30.38285349438211
 30
0.0
 11
24.5238400525385
 21
105.3828534943821
 31
0.0
  0
LINE
  5
EF7C885D9
330
EF7C85532
100
AcDbEntity
  8
SUNPOU
 62
     0
100
AcDbLine
 10
29.52360472112241
 20
45.38214750013404
 30
0.0
 11
26.32913343538223
 21
31.54537219485655
 31
0.0
  0
LINE
  5
EF7C885DA
330
EF7C85532
100
AcDbEntity
  8
SUNPOU
 62
     0
100
AcDbLine
 10
24.5238400525385
 20
37.81356865073689
 30
0.0
 11
24.5238400525385
 21
17.26574118506763
 31
0.0
  0
ARC
  5
EF7C885DB
330
EF7C85532
100
AcDbEntity
  8
SUNPOU
 62
     0
100
AcDbCircle
 10
24.86764712817046
 20
31.8827828949573
 30
0.0
 40
1.499929400575191
100
AcDbArc
 50
270.0
 51
347.0
  0
LINE
  5
EF7C885DC
330
EF7C85532
100
AcDbEntity
  8
SUNPOU
 62
     0
100
AcDbLine
 10
24.86764712817046
 20
30.38285349438211
 30
0.0
 11
24.5238400525385
 21
30.38285349438211
 31
0.0
  0
LINE
  5
EF7C885DD
330
EF7C85532
100
AcDbEntity
  8
SUNPOU
 62
     0
100
AcDbLine
 10
24.5238400525385
 20
47.13206513413834
 30
0.0
 11
24.5238400525385
 21
37.81674888583342
 31
0.0
  0
LINE
  5
EF7C885DE
330
EF7C85532
100
AcDbEntity
  8
SUNPOU
 62
     0
100
AcDbLine
 10
30.98660459289976
 20
51.04469224621141
 30
0.0
 11
31.28659047301471
 21
51.34467812632647
 31
0.0
  0
LINE
  5
EF7C885DF
330
EF7C85532
100
AcDbEntity
  8
SUNPOU
 62
     0
100
AcDbLine
 10
29.52360472112241
 20
51.04469224621141
 30
0.0
 11
30.98660459289976
 21
51.04469224621141
 31
0.0
  0
LINE
  5
EF7C885E0
330
EF7C85532
100
AcDbEntity
  8
SUNPOU
 62
     0
100
AcDbLine
 10
29.52360472112241
 20
90.38355948863019
 30
0.0
 11
26.32913343538223
 21
104.2203347939076
 31
0.0
  0
LINE
  5
EF7C885E1
330
EF7C85532
100
AcDbEntity
  8
SUNPOU
 62
     0
100
AcDbLine
 10
24.5238400525385
 20
96.88922087382636
 30
0.0
 11
24.5238400525385
 21
113.5558875404937
 31
0.0
  0
LINE
  5
EF7C885E2
330
EF7C85532
100
AcDbEntity
  8
JISSEN
100
AcDbLine
 10
34.28660906971879
 20
77.61924409522649
 30
0.0
 11
33.97946613476608
 21
73.86879565571527
 31
0.0
  0
LINE
  5
EF7C885E3
330
EF7C85532
100
AcDbEntity
  8
JISSEN
100
AcDbLine
 10
35.48660906971872
 20
77.61924409522649
 30
0.0
 11
35.11070954212653
 21
73.86879565571527
 31
0.0
  0
LINE
  5
EF7C885E4
330
EF7C85532
100
AcDbEntity
  8
JISSEN
100
AcDbLine
 10
35.48660906971872
 20
77.61924409522649
 30
0.0
 11
35.48660906971872
 21
69.86879565571527
 31
0.0
  0
LINE
  5
EF7C885E5
330
EF7C85532
100
AcDbEntity
  8
SUNPOU
 62
     0
100
AcDbLine
 10
31.02242075922561
 20
70.10592938698798
 30
0.0
 11
31.02242075922561
 21
84.67936664856845
 31
0.0
  0
LINE
  5
EF7C885E6
330
EF7C85532
100
AcDbEntity
  8
SUNPOU
 62
     0
100
AcDbLine
 10
31.28659047301482
 20
70.10592938698798
 30
0.0
 11
31.28659047301482
 21
84.40525633913811
 31
0.0
  0
LINE
  5
EF7C885E7
330
EF7C85532
100
AcDbEntity
  8
JISSEN
100
AcDbLine
 10
34.28660906971879
 20
65.86879565571533
 30
0.0
 11
34.28660906971879
 21
62.36879565571538
 31
0.0
  0
LINE
  5
EF7C885E8
330
EF7C85532
100
AcDbEntity
  8
JISSEN
100
AcDbLine
 10
34.28660906971879
 20
65.24379565571535
 30
0.0
 11
34.28660906971879
 21
62.36879565571536
 31
0.0
  0
LINE
  5
EF7C885E9
330
EF7C85532
100
AcDbEntity
  8
JISSEN
100
AcDbLine
 10
32.78660906971879
 20
65.86879565571535
 30
0.0
 11
32.78660906971879
 21
61.36879565571536
 31
0.0
  0
LINE
  5
EF7C885EA
330
EF7C85532
100
AcDbEntity
  8
JISSEN
100
AcDbLine
 10
35.48660906971872
 20
65.86879565571533
 30
0.0
 11
35.48660906971872
 21
56.71924409522649
 31
0.0
  0
LINE
  5
EF7C885EB
330
EF7C85532
100
AcDbEntity
  8
SUNPOU
 62
     0
100
AcDbLine
 10
31.28659047301471
 20
65.64265516625593
 30
0.0
 11
31.28659047301482
 21
61.64284343138859
 31
0.0
  0
LINE
  5
EF7C885EC
330
EF7C85532
100
AcDbEntity
  8
JISSEN
100
AcDbLine
 10
34.28660906971879
 20
58.36879565571535
 30
0.0
 11
35.48660906971872
 21
58.36879565571535
 31
0.0
  0
LINE
  5
EF7C885ED
330
EF7C85532
100
AcDbEntity
  8
JISSEN
100
AcDbLine
 10
34.08660906971874
 20
60.36879565571536
 30
0.0
 11
35.48660906971872
 21
60.36879565571536
 31
0.0
  0
LINE
  5
EF7C885EE
330
EF7C85532
100
AcDbEntity
  8
JISSEN
100
AcDbLine
 10
33.48660906971872
 20
62.36879565571536
 30
0.0
 11
35.48660906971872
 21
62.36879565571536
 31
0.0
  0
LINE
  5
EF7C885EF
330
EF7C85532
100
AcDbEntity
  8
JISSEN
100
AcDbLine
 10
34.28660906971879
 20
56.71924409522649
 30
0.0
 11
35.48660906971872
 21
56.71924409522649
 31
0.0
  0
LINE
  5
EF7C885F0
330
EF7C85532
100
AcDbEntity
  8
SUNPOU
 62
     0
100
AcDbLine
 10
31.28659047301437
 20
59.77041374802723
 30
0.0
 11
31.28659047301437
 21
58.41559519206717
 31
0.0
  0
LINE
  5
EF7C885F1
330
EF7C85532
100
AcDbEntity
  8
JISSEN
100
AcDbLine
 10
34.28660906971879
 20
60.36879565571536
 30
0.0
 11
34.28660906971879
 21
56.71924409522649
 31
0.0
  0
LINE
  5
EF7C885F2
330
EF7C85532
100
AcDbEntity
  8
JISSEN
100
AcDbLine
 10
31.28660906971868
 20
63.57865814321235
 30
0.0
 11
32.23870352301981
 21
63.41077820291246
 31
0.0
  0
ARC
  5
EF7C885F3
330
EF7C85532
100
AcDbEntity
  8
JISSEN
100
AcDbCircle
 10
32.18660906971979
 20
63.11533587700882
 30
0.0
 40
0.3
100
AcDbArc
 50
0.0
 51
80.00000000000147
  0
LINE
  5
EF7C885F4
330
EF7C85532
100
AcDbEntity
  8
JISSEN
100
AcDbLine
 10
34.28660906971879
 20
60.36879565571536
 30
0.0
 11
34.08660906971874
 21
60.36879565571536
 31
0.0
  0
LINE
  5
EF7C885F5
330
EF7C85532
100
AcDbEntity
  8
JISSEN
100
AcDbLine
 10
32.48660906971974
 20
61.36879565571536
 30
0.0
 11
33.78660906971879
 21
61.36879565571536
 31
0.0
  0
LINE
  5
EF7C885F6
330
EF7C85532
100
AcDbEntity
  8
JISSEN
100
AcDbLine
 10
34.28660906971879
 20
62.36879565571538
 30
0.0
 11
33.48660906971872
 21
62.36879565571538
 31
0.0
  0
LINE
  5
EF7C885F7
330
EF7C85532
100
AcDbEntity
  8
JISSEN
100
AcDbLine
 10
33.787908400133
 20
62.36879565571538
 30
0.0
 11
34.38790840013302
 21
60.36879565571536
 31
0.0
  0
LINE
  5
EF7C885F8
330
EF7C85532
100
AcDbEntity
  8
JISSEN
100
AcDbLine
 10
33.48660906971872
 20
62.36879565571538
 30
0.0
 11
34.08660906971874
 21
60.36879565571536
 31
0.0
  0
LINE
  5
EF7C885F9
330
EF7C85532
100
AcDbEntity
  8
JISSEN
100
AcDbLine
 10
32.48660906971974
 20
61.36879565571536
 30
0.0
 11
32.48660906971974
 21
63.11533587700882
 31
0.0
  0
LINE
  5
EF7C885FA
330
EF7C85532
100
AcDbEntity
  8
JISSEN
100
AcDbLine
 10
34.28660906971879
 20
65.36879565571536
 30
0.0
 11
35.48660906971884
 21
65.36879565571536
 31
0.0
  0
LINE
  5
EF7C885FB
330
EF7C85532
100
AcDbEntity
  8
JISSEN
100
AcDbLine
 10
29.52360472112241
 20
69.86879565571527
 30
0.0
 11
40.58660906971875
 21
69.86879565571527
 31
0.0
  0
LINE
  5
EF7C885FC
330
EF7C85532
100
AcDbEntity
  8
JISSEN
100
AcDbLine
 10
29.52360472112241
 20
65.86879565571533
 30
0.0
 11
40.58660906971875
 21
65.86879565571533
 31
0.0
  0
LINE
  5
EF7C885FD
330
EF7C85532
100
AcDbEntity
  8
SUNPOU
 62
     0
100
AcDbLine
 10
30.6066893645708
 20
69.37050205264998
 30
0.0
 11
30.6066893645708
 21
70.10592938698798
 31
0.0
  0
LINE
  5
EF7C885FE
330
EF7C85532
100
AcDbEntity
  8
SUNPOU
 62
     0
100
AcDbLine
 10
30.19931651424997
 20
69.85459124133803
 30
0.0
 11
30.19931651424997
 21
69.37050205264998
 31
0.0
  0
LINE
  5
EF7C885FF
330
EF7C85532
100
AcDbEntity
  8
SUNPOU
 62
     0
100
AcDbLine
 10
30.6066893645708
 20
66.36708925878082
 30
0.0
 11
30.6066893645708
 21
65.64265516625593
 31
0.0
  0
LINE
  5
EF7C88600
330
EF7C85532
100
AcDbEntity
  8
SUNPOU
 62
     0
100
AcDbLine
 10
30.89149174442638
 20
69.37050205264998
 30
0.0
 11
30.89149174442638
 21
66.36708925878082
 31
0.0
  0
LINE
  5
EF7C88601
330
EF7C85532
100
AcDbEntity
  8
SUNPOU
 62
     0
100
AcDbLine
 10
30.19931651424997
 20
65.89399331190586
 30
0.0
 11
30.19931651424997
 21
66.36708925878082
 31
0.0
  0
LINE
  5
EF7C88602
330
EF7C85532
100
AcDbEntity
  8
SUNPOU
 62
     0
100
AcDbLine
 10
29.52360472112241
 20
65.89399331190588
 30
0.0
 11
30.19931651424997
 21
65.89399331190586
 31
0.0
  0
LINE
  5
EF7C88603
330
EF7C85532
100
AcDbEntity
  8
SUNPOU
 62
     0
100
AcDbLine
 10
30.89149174442638
 20
69.37050205264998
 30
0.0
 11
29.52360472112229
 21
69.37050205264998
 31
0.0
  0
LINE
  5
EF7C88604
330
EF7C85532
100
AcDbEntity
  8
SUNPOU
 62
     0
100
AcDbLine
 10
30.89149174442638
 20
66.36708925878082
 30
0.0
 11
29.52360472112229
 21
66.36708925878079
 31
0.0
  0
LINE
  5
EF7C88605
330
EF7C85532
100
AcDbEntity
  8
SUNPOU
 62
     0
100
AcDbLine
 10
29.52360472112241
 20
65.64265516625593
 30
0.0
 11
31.28659047301482
 21
65.64265516625593
 31
0.0
  0
LINE
  5
EF7C88606
330
EF7C85532
100
AcDbEntity
  8
JISSEN
100
AcDbLine
 10
31.28660906971868
 20
72.15893316821814
 30
0.0
 11
32.23870352301981
 21
72.32681310851802
 31
0.0
  0
LINE
  5
EF7C88607
330
EF7C85532
100
AcDbEntity
  8
SUNPOU
 62
     0
100
AcDbLine
 10
31.28659047301471
 20
70.10592938698798
 30
0.0
 11
31.28659047301482
 21
74.10574112185523
 31
0.0
  0
LINE
  5
EF7C88608
330
EF7C85532
100
AcDbEntity
  8
SUNPOU
 62
     0
100
AcDbLine
 10
29.52360472112241
 20
69.85459124133803
 30
0.0
 11
30.19931651424997
 21
69.85459124133803
 31
0.0
  0
LINE
  5
EF7C88609
330
EF7C85532
100
AcDbEntity
  8
SUNPOU
 62
     0
100
AcDbLine
 10
29.52360472112241
 20
70.10592938698801
 30
0.0
 11
31.28659047301482
 21
70.10592938698798
 31
0.0
  0
LINE
  5
EF7C8860A
330
EF7C85532
100
AcDbEntity
  8
JISSEN
100
AcDbLine
 10
32.48660906971974
 20
74.36879565571513
 30
0.0
 11
34.02041362943316
 21
74.36879565571513
 31
0.0
  0
LINE
  5
EF7C8860B
330
EF7C85532
100
AcDbEntity
  8
JISSEN
100
AcDbLine
 10
34.28660906971868
 20
73.86879565571525
 30
0.0
 11
34.28660906971879
 21
69.86879565571527
 31
0.0
  0
ARC
  5
EF7C8860C
330
EF7C85532
100
AcDbEntity
  8
JISSEN
100
AcDbCircle
 10
32.18660906971979
 20
72.62225543442167
 30
0.0
 40
0.3
100
AcDbArc
 50
279.9999999999986
 51
0.0
  0
LINE
  5
EF7C8860D
330
EF7C85532
100
AcDbEntity
  8
JISSEN
100
AcDbLine
 10
35.11070954212653
 20
73.86879565571527
 30
0.0
 11
33.97946613476608
 21
73.86879565571527
 31
0.0
  0
LINE
  5
EF7C8860E
330
EF7C85532
100
AcDbEntity
  8
JISSEN
100
AcDbLine
 10
32.78660906971879
 20
69.86879565571513
 30
0.0
 11
32.78660906971879
 21
74.36879565571513
 31
0.0
  0
LINE
  5
EF7C8860F
330
EF7C85532
100
AcDbEntity
  8
JISSEN
100
AcDbLine
 10
32.48660906971974
 20
74.36879565571513
 30
0.0
 11
32.48660906971974
 21
72.62225543442167
 31
0.0
  0
LINE
  5
EF7C88610
330
EF7C85532
100
AcDbEntity
  8
JISSEN
100
AcDbLine
 10
40.58660906971875
 20
69.86879565571527
 30
0.0
 11
40.58660906971875
 21
67.86879565571524
 31
0.0
  0
ARC
  5
EF7C88611
330
EF7C85532
100
AcDbEntity
  8
JISSEN
100
AcDbCircle
 10
29.08660906971874
 20
67.86879565571536
 30
0.0
 40
8.000000000000003
100
AcDbArc
 50
339.8944902120839
 51
345.5224878140705
  0
LINE
  5
EF7C88612
330
EF7C85532
100
AcDbEntity
  8
JISSEN
100
AcDbLine
 10
35.48660906971884
 20
65.86879565571533
 30
0.0
 11
35.48660906971884
 21
65.24379565571535
 31
0.0
  0
LINE
  5
EF7C88613
330
EF7C85532
100
AcDbEntity
  8
JISSEN
100
AcDbLine
 10
35.48660906971884
 20
65.11879565571536
 30
0.0
 11
35.48660906971884
 21
65.24379565571535
 31
0.0
  0
LINE
  5
EF7C88614
330
EF7C85532
100
AcDbEntity
  8
JISSEN
100
AcDbLine
 10
35.48660906971872
 20
65.86879565571535
 30
0.0
 11
36.48660906971872
 21
65.86879565571535
 31
0.0
  0
LINE
  5
EF7C88615
330
EF7C85532
100
AcDbEntity
  8
JISSEN
100
AcDbLine
 10
35.48660906971884
 20
65.11879565571536
 30
0.0
 11
36.5990986703772
 21
65.11879565571536
 31
0.0
  0
LINE
  5
EF7C88616
330
EF7C85532
100
AcDbEntity
  8
JISSEN
100
AcDbLine
 10
40.58660906971875
 20
65.86879565571533
 30
0.0
 11
40.58660906971875
 21
67.86879565571536
 31
0.0
  0
LINE
  5
EF7C88617
330
EF7C85532
100
AcDbEntity
  8
SUNPOU
 62
     0
100
AcDbLine
 10
32.43675654397441
 20
84.71568843648871
 30
0.0
 11
43.83169173821591
 21
83.51803248699594
 31
0.0
  0
LINE
  5
EF7C88618
330
EF7C85532
100
AcDbEntity
  8
SUNPOU
 62
     0
100
AcDbLine
 10
32.33223300047291
 20
83.72121334956961
 30
0.0
 11
43.72716819471486
 21
82.52355740007685
 31
0.0
  0
ARC
  5
EF7C88619
330
EF7C85532
100
AcDbEntity
  8
SUNPOU
 62
     0
100
AcDbCircle
 10
30.02358118798076
 20
86.38374775376304
 30
0.0
 40
0.4999764668583972
100
AcDbArc
 50
180.0
 51
270.0
  0
LINE
  5
EF7C8861A
330
EF7C85532
100
AcDbEntity
  8
SUNPOU
 62
     0
100
AcDbLine
 10
30.02358118798076
 20
85.88377128690462
 30
0.0
 11
40.52308699200728
 21
85.88377128690462
 31
0.0
  0
LINE
  5
EF7C8861B
330
EF7C85532
100
AcDbEntity
  8
JISSEN
100
AcDbLine
 10
34.28660906971879
 20
77.61924409522649
 30
0.0
 11
35.48660906971872
 21
77.61924409522649
 31
0.0
  0
LINE
  5
EF7C8861C
330
EF7C85532
100
AcDbEntity
  8
SUNPOU
 62
     0
100
AcDbLine
 10
40.52308699200728
 20
84.8838183531879
 30
0.0
 11
29.52360472112241
 21
84.8838183531879
 31
0.0
  0
LINE
  5
EF7C8861D
330
EF7C85532
100
AcDbEntity
  8
SUNPOU
 62
     0
100
AcDbLine
 10
32.3322330004728
 20
75.25905749916216
 30
0.0
 11
32.33223300047291
 21
83.72121334956961
 31
0.0
  0
LINE
  5
EF7C8861E
330
EF7C85532
100
AcDbEntity
  8
SUNPOU
 62
     0
100
AcDbLine
 10
31.28312849312328
 20
75.25905749916216
 30
0.0
 11
32.3322330004728
 21
75.25905749916216
 31
0.0
  0
LINE
  5
EF7C8861F
330
EF7C85532
100
AcDbEntity
  8
SUNPOU
 62
     0
100
AcDbLine
 10
32.98892311589304
 20
80.10585825496253
 30
0.0
 11
32.33908646073871
 21
80.10585825496244
 31
0.0
  0
ARC
  5
EF7C88620
330
EF7C85532
100
AcDbEntity
  8
SUNPOU
 62
     0
100
AcDbCircle
 10
32.98892311589304
 20
77.1059994538123
 30
0.0
 40
0.9999529337167942
100
AcDbArc
 50
270.0
 51
328.2261118107317
  0
LINE
  5
EF7C88621
330
EF7C85532
100
AcDbEntity
  8
SUNPOU
 62
     0
100
AcDbLine
 10
33.83901586131367
 20
76.57945582425063
 30
0.0
 11
33.83901586131276
 21
79.6324489508089
 31
0.0
  0
LINE
  5
EF7C88622
330
EF7C85532
100
AcDbEntity
  8
SUNPOU
 62
     0
100
AcDbLine
 10
32.98892311589304
 20
76.1060465200955
 30
0.0
 11
32.33908646073871
 21
76.10604652009533
 31
0.0
  0
ARC
  5
EF7C88623
330
EF7C85532
100
AcDbEntity
  8
SUNPOU
 62
     0
100
AcDbCircle
 10
32.98892311589304
 20
79.10590532124572
 30
0.0
 40
0.9999529337167942
100
AcDbArc
 50
31.77388818931894
 51
90.0
  0
ARC
  5
EF7C88624
330
EF7C85532
100
AcDbEntity
  8
SUNPOU
 62
     0
100
AcDbCircle
 10
32.33223300047291
 20
83.72121334956961
 30
0.0
 40
0.9999529337167942
100
AcDbArc
 50
83.99999999999826
 51
180.0
  0
LINE
  5
EF7C88625
330
EF7C85532
100
AcDbEntity
  8
SUNPOU
 62
     0
100
AcDbLine
 10
30.98660459289976
 20
84.70389230703242
 30
0.0
 11
31.28659047301471
 21
84.40390642691728
 31
0.0
  0
LINE
  5
EF7C88626
330
EF7C85532
100
AcDbEntity
  8
SUNPOU
 62
     0
100
AcDbLine
 10
29.52360472112241
 20
84.70389230703242
 30
0.0
 11
30.98660459289976
 21
84.70389230703242
 31
0.0
  0
LINE
  5
EF7C88627
330
EF7C85532
100
AcDbEntity
  8
SUNPOU
 62
     0
100
AcDbLine
 10
40.52308699200728
 20
85.88377128690462
 30
0.0
 11
40.52308699200728
 21
84.8838183531879
 31
0.0
  0
LINE
  5
EF7C88628
330
EF7C85532
100
AcDbEntity
  8
SUNPOU
 62
     0
100
AcDbLine
 10
43.72716819471486
 20
82.52355740007685
 30
0.0
 11
43.83169173821591
 21
83.51803248699594
 31
0.0
  0
LINE
  5
EF7C88629
330
EF7C85532
100
AcDbEntity
  8
SUNPOU
 62
     0
100
AcDbLine
 10
24.86764712817046
 20
105.3828534943821
 30
0.0
 11
24.5238400525385
 21
105.3828534943821
 31
0.0
  0
ARC
  5
EF7C8862A
330
EF7C85532
100
AcDbEntity
  8
SUNPOU
 62
     0
100
AcDbCircle
 10
24.86764712817046
 20
103.8829240938069
 30
0.0
 40
1.499929400575191
100
AcDbArc
 50
12.99999999999993
 51
90.0
  0
ARC
  5
EF7C8862B
330
EF7C85532
100
AcDbEntity
  8
JISSEN
100
AcDbCircle
 10
129.9513799074276
 20
67.88285349438215
 30
0.0
 40
16.85000000000002
100
AcDbArc
 50
187.6736924055294
 51
352.3263075944705
  0
LINE
  5
EF7C8862E
330
EF7C85532
100
AcDbEntity
  8
JISSEN
100
AcDbLine
 10
135.2741880002693
 20
85.88764677252152
 30
0.0
 11
142.779159062591
 21
85.88764677252152
 31
0.0
  0
LINE
  5
EF7C88630
330
EF7C85532
100
AcDbEntity
  8
JISSEN
100
AcDbLine
 10
114.9229144438498
 20
84.88285349438212
 30
0.0
 11
144.9229144438497
 21
84.88285349438212
 31
0.0
  0
LINE
  5
EF7C88631
330
EF7C85532
100
AcDbEntity
  8
JISSEN
100
AcDbLine
 10
144.4225744234064
 20
82.68809477835924
 30
0.0
 11
115.4225744234064
 21
82.68809477835924
 31
0.0
  0
LINE
  5
EF7C88632
330
EF7C85532
100
AcDbEntity
  8
JISSEN
100
AcDbLine
 10
144.4225744234064
 20
84.70548586971858
 30
0.0
 11
115.4225744234064
 21
84.70548586971853
 31
0.0
  0
LINE
  5
EF7C88633
330
EF7C85532
100
AcDbEntity
  8
JISSEN
100
AcDbLine
 10
144.4225744234064
 20
83.53024386238628
 30
0.0
 11
115.4225744234064
 21
83.53024386238628
 31
0.0
  0
ARC
  5
EF7C88634
330
EF7C85532
100
AcDbEntity
  8
SAISEN
100
AcDbCircle
 10
129.9229144438498
 20
67.88285349438211
 30
0.0
 40
22.5
100
AcDbArc
 50
49.07393669039541
 51
130.9260633096045
  0
LINE
  5
EF7C88636
330
EF7C85532
100
AcDbEntity
  8
JISSEN
100
AcDbLine
 10
115.4225744234064
 20
75.15551265935454
 30
0.0
 11
115.4225744234064
 21
84.70548586971853
 31
0.0
  0
ARC
  5
EF7C88637
330
EF7C85532
100
AcDbEntity
  8
JISSEN
100
AcDbCircle
 10
129.9229144438498
 20
67.88285349438215
 30
0.0
 40
11.25
100
AcDbArc
 50
20.82749693201257
 51
59.10701911528708
  0
ARC
  5
EF7C88638
330
EF7C85532
100
AcDbEntity
  8
JISSEN
100
AcDbCircle
 10
129.9229144438498
 20
67.88285349438215
 30
0.0
 40
11.25
100
AcDbArc
 50
120.8776974040952
 51
159.1725030679874
  0
ARC
  5
EF7C88639
330
EF7C85532
100
AcDbEntity
  8
JISSEN
100
AcDbCircle
 10
129.9229144438498
 20
67.88285349438215
 30
0.0
 40
11.25
100
AcDbArc
 50
237.6124614669072
 51
262.3377443392344
  0
CIRCLE
  5
EF7C8863A
330
EF7C85532
100
AcDbEntity
  8
JISSEN
100
AcDbCircle
 10
129.9229144438498
 20
67.88285349438211
 30
0.0
 40
2.75
  0
ARC
  5
EF7C8863B
330
EF7C85532
100
AcDbEntity
  8
JISSEN
100
AcDbCircle
 10
129.9229144438498
 20
67.88285349438211
 30
0.0
 40
8.75
100
AcDbArc
 50
201.0785372721927
 51
218.4868135545633
  0
ARC
  5
EF7C8863C
330
EF7C85532
100
AcDbEntity
  8
JISSEN
100
AcDbCircle
 10
122.6729144438498
 20
63.88285349438215
 30
0.0
 40
1.5
100
AcDbArc
 50
270.0
 51
90.0
  0
LINE
  5
EF7C8863D
330
EF7C85532
100
AcDbEntity
  8
JISSEN
100
AcDbLine
 10
120.1090212306546
 20
62.38285349438214
 30
0.0
 11
122.6729144438498
 21
62.38285349438214
 31
0.0
  0
ARC
  5
EF7C8863E
330
EF7C85532
100
AcDbEntity
  8
JISSEN
100
AcDbCircle
 10
129.9229144438498
 20
67.88285349438215
 30
0.0
 40
11.25
100
AcDbArc
 50
209.2675775975319
 51
221.810314895779
  0
ARC
  5
EF7C8863F
330
EF7C85532
100
AcDbEntity
  8
JISSEN
100
AcDbCircle
 10
125.1729144438499
 20
59.38285349438214
 30
0.0
 40
1.0
100
AcDbArc
 50
270.0
 51
90.0
  0
LINE
  5
EF7C88640
330
EF7C85532
100
AcDbEntity
  8
JISSEN
100
AcDbLine
 10
125.1729144438499
 20
58.38285349438215
 30
0.0
 11
123.8969290472529
 21
58.38285349438215
 31
0.0
  0
LINE
  5
EF7C88641
330
EF7C85532
100
AcDbEntity
  8
JISSEN
100
AcDbLine
 10
121.5376595282257
 20
60.38285349438215
 30
0.0
 11
125.1729144438499
 21
60.38285349438215
 31
0.0
  0
CIRCLE
  5
EF7C88642
330
EF7C85532
100
AcDbEntity
  8
JISSEN
100
AcDbCircle
 10
121.1729144438498
 20
67.88285349438211
 30
0.0
 40
2.0
  0
LINE
  5
EF7C88643
330
EF7C85532
100
AcDbEntity
  8
JISSEN
100
AcDbLine
 10
122.67291444385
 20
69.88285349438209
 30
0.0
 11
118.8521195311076
 21
69.88285349438209
 31
0.0
  0
LINE
  5
EF7C88644
330
EF7C85532
100
AcDbEntity
  8
JISSEN
100
AcDbLine
 10
122.6729144438498
 20
65.38285349438215
 30
0.0
 11
118.9542089596097
 21
65.38285349438215
 31
0.0
  0
LINE
  5
EF7C88645
330
EF7C85532
100
AcDbEntity
  8
JISSEN
100
AcDbLine
 10
121.1237211053669
 20
71.88285349438209
 30
0.0
 11
119.4080440214434
 21
71.88285349438209
 31
0.0
  0
LINE
  5
EF7C88646
330
EF7C85532
100
AcDbEntity
  8
JISSEN
100
AcDbLine
 10
116.8229144438499
 20
65.894763959175
 30
0.0
 11
116.8229144438499
 21
69.87094302958926
 31
0.0
  0
LINE
  5
EF7C88647
330
EF7C85532
100
AcDbEntity
  8
JISSEN
100
AcDbLine
 10
118.02291444385
 20
65.88285349438212
 30
0.0
 11
118.02291444385
 21
69.88285349438214
 31
0.0
  0
ARC
  5
EF7C88648
330
EF7C85532
100
AcDbEntity
  8
JISSEN
100
AcDbCircle
 10
129.9513799074276
 20
67.8828534943822
 30
0.0
 40
15.14999999999999
100
AcDbArc
 50
171.4591301671305
 51
188.5408698328694
  0
ARC
  5
EF7C88649
330
EF7C85532
100
AcDbEntity
  8
JISSEN
100
AcDbCircle
 10
129.9229144438498
 20
67.88285349438215
 30
0.0
 40
11.25
100
AcDbArc
 50
169.7596516788134
 51
192.8395884069042
  0
LINE
  5
EF7C8864A
330
EF7C85532
100
AcDbEntity
  8
JISSEN
100
AcDbLine
 10
113.2522781351766
 20
65.63285349438214
 30
0.0
 11
118.3198209337917
 21
65.63285349438214
 31
0.0
  0
ARC
  5
EF7C8864B
330
EF7C85532
100
AcDbEntity
  8
JISSEN
100
AcDbCircle
 10
129.9229144438498
 20
67.88285349438211
 30
0.0
 40
13.25
100
AcDbArc
 50
188.6295050139384
 51
188.6816016968371
  0
ARC
  5
EF7C8864C
330
EF7C85532
100
AcDbEntity
  8
JISSEN
100
AcDbCircle
 10
117.1985587908678
 20
65.28285349437007
 30
0.0
 40
0.6
100
AcDbArc
 50
35.68533471407301
 51
90.0
  0
LINE
  5
EF7C8864D
330
EF7C85532
100
AcDbEntity
  8
JISSEN
100
AcDbLine
 10
118.02291444385
 20
65.88285349438212
 30
0.0
 11
116.8247275464201
 21
65.88285349438212
 31
0.0
  0
LINE
  5
EF7C8864E
330
EF7C85532
100
AcDbEntity
  8
JISSEN
100
AcDbLine
 10
120.1275875646618
 20
75.15551265935454
 30
0.0
 11
115.4225744234064
 21
75.15551265935454
 31
0.0
  0
LINE
  5
EF7C8864F
330
EF7C85532
100
AcDbEntity
  8
JISSEN
100
AcDbLine
 10
113.2522781351766
 20
70.13285349438215
 30
0.0
 11
118.3198209337917
 21
70.13285349438215
 31
0.0
  0
ARC
  5
EF7C88650
330
EF7C85532
100
AcDbEntity
  8
JISSEN
100
AcDbCircle
 10
117.1985587908678
 20
70.48285349439419
 30
0.0
 40
0.6
100
AcDbArc
 50
270.0
 51
324.3146652859326
  0
LINE
  5
EF7C88651
330
EF7C85532
100
AcDbEntity
  8
JISSEN
100
AcDbLine
 10
118.02291444385
 20
69.88285349438212
 30
0.0
 11
116.8247275464201
 21
69.88285349438212
 31
0.0
  0
ARC
  5
EF7C88652
330
EF7C85532
100
AcDbEntity
  8
JISSEN
100
AcDbCircle
 10
129.9229144438498
 20
67.88285349438211
 30
0.0
 40
13.25
100
AcDbArc
 50
171.3183983031628
 51
171.3704949860615
  0
ARC
  5
EF7C88653
330
EF7C85532
100
AcDbEntity
  8
JISSEN
100
AcDbCircle
 10
117.8729144438499
 20
67.88285349438211
 30
0.0
 40
5.0
100
AcDbArc
 50
320.9954001649073
 51
329.9999999999987
  0
ARC
  5
EF7C88654
330
EF7C85532
100
AcDbEntity
  8
JISSEN
100
AcDbCircle
 10
122.67291444385
 20
71.38285349438212
 30
0.0
 40
1.5
100
AcDbArc
 50
270.0
 51
155.6842608288286
  0
ARC
  5
EF7C88655
330
EF7C85532
100
AcDbEntity
  8
JISSEN
100
AcDbCircle
 10
129.9229144438498
 20
67.88285349438211
 30
0.0
 40
8.75
100
AcDbArc
 50
145.5191219224586
 51
158.9214627278072
  0
ARC
  5
EF7C88656
330
EF7C85532
100
AcDbEntity
  8
JISSEN
100
AcDbCircle
 10
121.1237211053669
 20
72.0828534943821
 30
0.0
 40
0.2
100
AcDbArc
 50
270.0
 51
335.6842608288142
  0
ARC
  5
EF7C88657
330
EF7C85532
100
AcDbEntity
  8
JISSEN
100
AcDbCircle
 10
117.8729144438499
 20
67.88285349438211
 30
0.0
 40
5.0
100
AcDbArc
 50
23.5781784781997
 51
39.00459983509257
  0
ARC
  5
EF7C88658
330
EF7C85532
100
AcDbEntity
  8
JISSEN
100
AcDbCircle
 10
137.1729144438498
 20
63.88285349438215
 30
0.0
 40
1.5
100
AcDbArc
 50
90.0
 51
270.0
  0
ARC
  5
EF7C88659
330
EF7C85532
100
AcDbEntity
  8
JISSEN
100
AcDbCircle
 10
129.9229144438498
 20
67.88285349438211
 30
0.0
 40
8.75
100
AcDbArc
 50
321.5131864454365
 51
338.9214627278072
  0
ARC
  5
EF7C8865A
330
EF7C85532
100
AcDbEntity
  8
JISSEN
100
AcDbCircle
 10
129.9229144438498
 20
67.88285349438215
 30
0.0
 40
11.25
100
AcDbArc
 50
277.6622556607656
 51
302.3875385330927
  0
ARC
  5
EF7C8865B
330
EF7C85532
100
AcDbEntity
  8
JISSEN
100
AcDbCircle
 10
134.6729144438499
 20
59.38285349438214
 30
0.0
 40
1.0
100
AcDbArc
 50
90.0
 51
270.0
  0
LINE
  5
EF7C8865C
330
EF7C85532
100
AcDbEntity
  8
JISSEN
100
AcDbLine
 10
128.4229144438499
 20
59.38285349438214
 30
0.0
 11
128.4229144438499
 21
56.73330193389325
 31
0.0
  0
LINE
  5
EF7C8865D
330
EF7C85532
100
AcDbEntity
  8
JISSEN
100
AcDbLine
 10
131.4229144438499
 20
59.38285349438214
 30
0.0
 11
131.4229144438499
 21
56.73330193389325
 31
0.0
  0
ARC
  5
EF7C8865E
330
EF7C85532
100
AcDbEntity
  8
JISSEN
100
AcDbCircle
 10
129.9229144438498
 20
67.88285349438211
 30
0.0
 40
8.75
100
AcDbArc
 50
260.1291103938601
 51
279.8708896061398
  0
ARC
  5
EF7C8865F
330
EF7C85532
100
AcDbEntity
  8
JISSEN
100
AcDbCircle
 10
129.9229144438498
 20
59.38285349438214
 30
0.0
 40
1.5
100
AcDbArc
 50
0.0
 51
180.0
  0
LINE
  5
EF7C88660
330
EF7C85532
100
AcDbEntity
  8
JISSEN
100
AcDbLine
 10
134.6729144438499
 20
58.38285349438215
 30
0.0
 11
135.9488998404468
 21
58.38285349438215
 31
0.0
  0
LINE
  5
EF7C88661
330
EF7C85532
100
AcDbEntity
  8
JISSEN
100
AcDbLine
 10
138.3081693594741
 20
60.38285349438215
 30
0.0
 11
134.6729144438499
 21
60.38285349438215
 31
0.0
  0
LINE
  5
EF7C88662
330
EF7C85532
100
AcDbEntity
  8
JISSEN
100
AcDbLine
 10
139.7368076570452
 20
62.38285349438214
 30
0.0
 11
137.1729144438498
 21
62.38285349438214
 31
0.0
  0
ARC
  5
EF7C88663
330
EF7C85532
100
AcDbEntity
  8
JISSEN
100
AcDbCircle
 10
129.9229144438498
 20
67.88285349438215
 30
0.0
 40
11.25
100
AcDbArc
 50
318.1896851042208
 51
330.732422402468
  0
CIRCLE
  5
EF7C88664
330
EF7C85532
100
AcDbEntity
  8
JISSEN
100
AcDbCircle
 10
138.6729144438499
 20
67.88285349438211
 30
0.0
 40
2.0
  0
ARC
  5
EF7C88665
330
EF7C85532
100
AcDbEntity
  8
JISSEN
100
AcDbCircle
 10
129.9229144438498
 20
67.88285349438215
 30
0.0
 40
11.25
100
AcDbArc
 50
347.1604115930957
 51
10.24034832118654
  0
ARC
  5
EF7C88666
330
EF7C85532
100
AcDbEntity
  8
JISSEN
100
AcDbCircle
 10
141.9729144438499
 20
67.88285349438211
 30
0.0
 40
5.0
100
AcDbArc
 50
210.0000000000012
 51
219.0045998350925
  0
LINE
  5
EF7C88667
330
EF7C85532
100
AcDbEntity
  8
JISSEN
100
AcDbLine
 10
137.1729144438498
 20
65.38285349438215
 30
0.0
 11
140.8916199280901
 21
65.38285349438215
 31
0.0
  0
ARC
  5
EF7C88668
330
EF7C85532
100
AcDbEntity
  8
JISSEN
100
AcDbCircle
 10
137.1729144438498
 20
71.38285349438212
 30
0.0
 40
1.5
100
AcDbArc
 50
24.31573917117131
 51
270.0
  0
ARC
  5
EF7C88669
330
EF7C85532
100
AcDbEntity
  8
JISSEN
100
AcDbCircle
 10
141.9729144438499
 20
67.88285349438211
 30
0.0
 40
5.0
100
AcDbArc
 50
140.9954001649074
 51
156.4218215218002
  0
LINE
  5
EF7C8866A
330
EF7C85532
100
AcDbEntity
  8
JISSEN
100
AcDbLine
 10
137.1729144438498
 20
69.88285349438209
 30
0.0
 11
140.9937093565922
 21
69.88285349438209
 31
0.0
  0
ARC
  5
EF7C8866B
330
EF7C85532
100
AcDbEntity
  8
JISSEN
100
AcDbCircle
 10
129.9229144438498
 20
67.88285349438211
 30
0.0
 40
8.75
100
AcDbArc
 50
21.07853727219276
 51
34.48087807754137
  0
LINE
  5
EF7C8866C
330
EF7C85532
100
AcDbEntity
  8
JISSEN
100
AcDbLine
 10
138.7221077823329
 20
71.88285349438209
 30
0.0
 11
140.4377848662564
 21
71.88285349438209
 31
0.0
  0
ARC
  5
EF7C8866D
330
EF7C85532
100
AcDbEntity
  8
JISSEN
100
AcDbCircle
 10
138.7221077823329
 20
72.0828534943821
 30
0.0
 40
0.2
100
AcDbArc
 50
204.3157391711873
 51
270.0
  0
LINE
  5
EF7C88671
330
EF7C85532
100
AcDbEntity
  8
JISSEN
100
AcDbLine
 10
116.7512816265713
 20
85.88764677252152
 30
0.0
 11
124.6070019715402
 21
85.88764677252152
 31
0.0
  0
LINE
  5
EF7C88672
330
EF7C85532
100
AcDbEntity
  8
JISSEN
100
AcDbLine
 10
114.9229144438498
 20
75.88285349438217
 30
0.0
 11
114.9229144438498
 21
84.88285349438212
 31
0.0
  0
LINE
  5
EF7C88673
330
EF7C85532
100
AcDbEntity
  8
JISSEN
100
AcDbLine
 10
116.7512816265713
 20
85.88764677252152
 30
0.0
 11
116.7512816265712
 21
84.88285349438212
 31
0.0
  0
LINE
  5
EF7C88674
330
EF7C85532
100
AcDbEntity
  8
JISSEN
100
AcDbLine
 10
124.6070019715402
 20
85.88764677252152
 30
0.0
 11
124.6070019715402
 21
84.88285349438212
 31
0.0
  0
LINE
  5
EF7C88677
330
EF7C85532
100
AcDbEntity
  8
JISSEN
100
AcDbLine
 10
135.2741880002693
 20
85.88764677252152
 30
0.0
 11
135.2741880002693
 21
84.88285349438212
 31
0.0
  0
LINE
  5
EF7C88678
330
EF7C85532
100
AcDbEntity
  8
JISSEN
100
AcDbLine
 10
144.4225744234064
 20
75.15551265935454
 30
0.0
 11
144.4225744234064
 21
84.70548586971858
 31
0.0
  0
ARC
  5
EF7C88679
330
EF7C85532
100
AcDbEntity
  8
JISSEN
100
AcDbCircle
 10
129.9513799074276
 20
67.88285349438215
 30
0.0
 40
16.85000000000002
100
AcDbArc
 50
7.673692405529425
 51
30.62566229023075
  0
LINE
  5
EF7C8867A
330
EF7C85532
100
AcDbEntity
  8
JISSEN
100
AcDbLine
 10
141.8229144438499
 20
65.88285349438212
 30
0.0
 11
141.8229144438499
 21
69.88285349438212
 31
0.0
  0
ARC
  5
EF7C8867B
330
EF7C85532
100
AcDbEntity
  8
JISSEN
100
AcDbCircle
 10
129.9513799074276
 20
67.8828534943822
 30
0.0
 40
15.14999999999999
100
AcDbArc
 50
351.4591301671305
 51
8.540869832869422
  0
LINE
  5
EF7C8867C
330
EF7C85532
100
AcDbEntity
  8
JISSEN
100
AcDbLine
 10
143.02291444385
 20
65.894763959175
 30
0.0
 11
143.0229144438499
 21
69.87094302958926
 31
0.0
  0
LINE
  5
EF7C8867D
330
EF7C85532
100
AcDbEntity
  8
JISSEN
100
AcDbLine
 10
146.6504816796788
 20
65.63285349438214
 30
0.0
 11
141.5260079539081
 21
65.63285349438214
 31
0.0
  0
LINE
  5
EF7C8867E
330
EF7C85532
100
AcDbEntity
  8
JISSEN
100
AcDbLine
 10
141.8229144438499
 20
65.88285349438212
 30
0.0
 11
143.0211013412796
 21
65.88285349438212
 31
0.0
  0
ARC
  5
EF7C8867F
330
EF7C85532
100
AcDbEntity
  8
JISSEN
100
AcDbCircle
 10
142.6472700968321
 20
65.28285349437007
 30
0.0
 40
0.6
100
AcDbArc
 50
90.0
 51
144.3146652859278
  0
ARC
  5
EF7C88680
330
EF7C85532
100
AcDbEntity
  8
JISSEN
100
AcDbCircle
 10
129.9229144438498
 20
67.88285349438211
 30
0.0
 40
13.25
100
AcDbArc
 50
351.3183983031627
 51
351.3704949860614
  0
LINE
  5
EF7C88681
330
EF7C85532
100
AcDbEntity
  8
JISSEN
100
AcDbLine
 10
146.6504816796788
 20
70.13285349438215
 30
0.0
 11
141.5260079539081
 21
70.13285349438215
 31
0.0
  0
LINE
  5
EF7C88682
330
EF7C85532
100
AcDbEntity
  8
JISSEN
100
AcDbLine
 10
139.7182413230379
 20
75.15551265935454
 30
0.0
 11
144.4225744234064
 21
75.15551265935454
 31
0.0
  0
LINE
  5
EF7C88683
330
EF7C85532
100
AcDbEntity
  8
JISSEN
100
AcDbLine
 10
141.8229144438499
 20
69.88285349438212
 30
0.0
 11
143.0211013412796
 21
69.88285349438212
 31
0.0
  0
ARC
  5
EF7C88684
330
EF7C85532
100
AcDbEntity
  8
JISSEN
100
AcDbCircle
 10
142.6472700968321
 20
70.48285349439419
 30
0.0
 40
0.6
100
AcDbArc
 50
215.6853347140673
 51
270.0
  0
ARC
  5
EF7C88685
330
EF7C85532
100
AcDbEntity
  8
JISSEN
100
AcDbCircle
 10
129.9229144438498
 20
67.88285349438211
 30
0.0
 40
13.25
100
AcDbArc
 50
8.629505013938446
 51
8.681601696837168
  0
LINE
  5
EF7C88686
330
EF7C85532
100
AcDbEntity
  8
JISSEN
100
AcDbLine
 10
144.9229144438497
 20
84.88285349438212
 30
0.0
 11
144.9229144438497
 21
75.88285349438206
 31
0.0
  0
LINE
  5
EF7C88687
330
EF7C85532
100
AcDbEntity
  8
JISSEN
100
AcDbLine
 10
142.7791590625911
 20
85.88764677252152
 30
0.0
 11
142.779159062591
 21
84.88285349438212
 31
0.0
  0
LINE
  5
EF7C88688
330
EF7C85532
100
AcDbEntity
  8
SUNPOU
 62
     0
100
AcDbLine
 10
97.44726408585803
 20
217.925483034028
 30
0.0
 11
94.25279280011784
 21
231.7622583393055
 31
0.0
  0
HATCH
  5
EF7C88689
330
EF7C85532
100
AcDbEntity
  8
HATCH
100
AcDbHatch
 10
0.0
 20
0.0
 30
0.0
210
0.0
220
0.0
230
1.0
  2
ANSI31
 70
     0
 71
     0
 91
        2
 92
        7
 72
     0
 73
     1
 93
       34
 10
92.44749941727411
 20
232.9247770397799
 10
92.44749941727411
 20
241.0978110858915
 10
91.94392341988759
 20
243.2131207358747
 10
91.54849180378539
 20
244.2108546995811
 10
91.24070529362768
 20
244.3180032159657
 10
91.0000646140744
 20
243.7615565239849
 10
90.80607048978562
 20
242.7685048625944
 10
90.63822364542124
 20
241.5658384707481
 10
90.47602480564149
 20
240.3805475874078
 10
90.29897469510638
 20
239.4396224515236
 10
90.09127579621305
 20
238.917665013627
 10
89.85593762230895
 20
238.7797240705441
 10
89.60067144447828
 20
238.9384601306747
 10
89.33318853380603
 20
239.3065337024186
 10
89.06120016137629
 20
239.7966052941756
 10
88.79241759827436
 20
240.3213354143439
 10
88.53455211558388
 20
240.7933845713267
 10
88.29531498438973
 20
241.1254132735212
 10
88.07942827518742
 20
241.2577005441568
 10
87.87965725611718
 20
241.2409994657779
 10
87.50773598669615
 20
241.073496464417
 10
87.14729649396849
 20
241.0846153114436
 10
86.76469987702047
 20
241.6656747467357
 10
86.44692041730776
 20
242.4008471191116
 10
86.07544281420747
 20
243.480644646039
 10
85.64881160339405
 20
244.7085005345793
 10
85.16732501416573
 20
245.8328603137911
 10
84.63128127582228
 20
246.6021695126968
 10
84.0409786176624
 20
246.764873660328
 10
83.39671526898507
 20
246.0694182857165
 10
82.69878945908942
 20
244.2642489178936
 10
81.94749941727422
 20
241.0978110858908
 10
81.94749941727422
 20
224.4311444192241
 10
92.44749941727411
 20
224.4311444192241
 97
        0
 92
        7
 72
     0
 73
     1
 93
       31
 10
92.44749941727411
 20
165.3554921961347
 10
81.94749941727422
 20
165.3554921961347
 10
81.94749941727435
 20
145.3554921961346
 10
82.68288087833083
 20
144.4756216864653
 10
83.30964251843704
 20
144.1293566493329
 10
83.83993502805834
 20
144.2060066024989
 10
84.2859090976608
 20
144.5948810637244
 10
84.65971541771045
 20
145.1852895507711
 10
84.97350467867262
 20
145.8665415814
 10
85.2394275710135
 20
146.5279466733725
 10
85.46963478519899
 20
147.05881434445
 10
85.76397391313685
 20
147.5115818330786
 10
86.09158533616312
 20
147.4539535431594
 10
86.33399549122817
 20
147.1383457241372
 10
86.47678908300623
 20
146.9328913881373
 10
86.618172094535
 20
146.7602035658031
 10
86.76183692705524
 20
146.6659479932667
 10
86.91193234600461
 20
146.6791582902317
 10
87.07443257361489
 20
146.7623396106811
 10
87.38566581189809
 20
146.9323006458807
 10
87.8420314154647
 20
146.8716543363477
 10
88.29807636660268
 20
146.3333678795669
 10
88.67004776119371
 20
145.6997091295449
 10
89.09591156622298
 20
144.7958922911507
 10
89.56446585198056
 20
143.7615885282818
 10
90.06098218552791
 20
142.7752286301059
 10
90.57073213392687
 20
142.0152433857895
 10
91.07898726423957
 20
141.6600635845
 10
91.57101914352699
 20
141.8881200154048
 10
92.03209933885124
 20
142.8778434676709
 10
92.44749941727411
 20
144.8076647304654
 97
        0
 75
     0
 76
     1
 52
90.0
 41
20.0
 77
     0
 78
     1
 53
135.0
 43
26.94749954382484
 44
10.0000001996575
 45
-1.767766952966368
 46
-1.767766952966368
 79
     0
 47
0.4241607345094815
 98
        2
 10
85.75732469752972
 20
232.0260541171205
 10
90.85139478983217
 20
156.5254432376817
  0
LINE
  5
EF7C8868A
330
EF7C85532
100
AcDbEntity
  8
JISSEN
100
AcDbLine
 10
81.94749941727422
 20
241.0978110858908
 30
0.0
 11
81.94749941727422
 21
216.1747770397798
 31
0.0
  0
LINE
  5
EF7C8868B
330
EF7C85532
100
AcDbEntity
  8
SUNPOU
 62
     0
100
AcDbLine
 10
92.44749941727411
 20
224.4311444192241
 30
0.0
 11
92.44749941727411
 21
241.0978110858915
 31
0.0
  0
LINE
  5
EF7C8868C
330
EF7C85532
100
AcDbEntity
  8
SUNPOU
 62
     0
100
AcDbLine
 10
92.44749941727411
 20
157.9247770397799
 30
0.0
 11
92.44749941727411
 21
232.9247770397799
 31
0.0
  0
LINE
  5
EF7C8868D
330
EF7C85532
100
AcDbEntity
  8
TENSEN
100
AcDbLine
 10
55.46638214418852
 20
179.1915400515441
 30
0.0
 11
59.51200745522363
 21
182.7240115284729
 31
0.0
  0
LINE
  5
EF7C8868E
330
EF7C85532
100
AcDbEntity
  8
TENSEN
100
AcDbLine
 10
59.51200745522363
 20
208.1901751293032
 30
0.0
 11
55.46638214418852
 21
211.7226466062321
 31
0.0
  0
ARC
  5
EF7C8868F
330
EF7C85532
100
AcDbEntity
  8
TENSEN
100
AcDbCircle
 10
53.67661723442882
 20
186.7075051588748
 30
0.0
 40
15.68806366970378
100
AcDbArc
 50
146.1015515323268
 51
213.8984484676738
  0
LINE
  5
EF7C88690
330
EF7C85532
100
AcDbEntity
  8
TENSEN
100
AcDbLine
 10
40.6550947213035
 20
177.9579169888612
 30
0.0
 11
48.99070606893144
 21
177.9579169888612
 31
0.0
  0
LINE
  5
EF7C88691
330
EF7C85532
100
AcDbEntity
  8
TENSEN
100
AcDbLine
 10
48.99070606893144
 20
177.9579169888612
 30
0.0
 11
52.17794419502126
 21
177.9579169888612
 31
0.0
  0
ARC
  5
EF7C88692
330
EF7C85532
100
AcDbEntity
  8
TENSEN
100
AcDbCircle
 10
52.17794419502126
 20
182.9576816574451
 30
0.0
 40
4.999764668583971
100
AcDbArc
 50
270.0
 51
311.1261073924087
  0
ARC
  5
EF7C88693
330
EF7C85532
100
AcDbEntity
  8
TENSEN
100
AcDbCircle
 10
53.67661723442882
 20
204.2066814989019
 30
0.0
 40
15.68806366970378
100
AcDbArc
 50
146.1015515323268
 51
213.8984484676738
  0
ARC
  5
EF7C88694
330
EF7C85532
100
AcDbEntity
  8
TENSEN
100
AcDbCircle
 10
27.63357220817727
 20
204.2066814989019
 30
0.0
 40
15.68806366970378
100
AcDbArc
 50
326.1015515323261
 51
33.89844846767319
  0
LINE
  5
EF7C88695
330
EF7C85532
100
AcDbEntity
  8
TENSEN
100
AcDbLine
 10
48.99070606893144
 20
212.9562696689153
 30
0.0
 11
40.65509472130304
 21
212.9562696689154
 31
0.0
  0
LINE
  5
EF7C88696
330
EF7C85532
100
AcDbEntity
  8
TENSEN
100
AcDbLine
 10
52.17794419502126
 20
212.9562696689151
 30
0.0
 11
48.99070606893144
 21
212.9562696689153
 31
0.0
  0
ARC
  5
EF7C88697
330
EF7C85532
100
AcDbEntity
  8
TENSEN
100
AcDbCircle
 10
52.17794419502126
 20
207.9565050003314
 30
0.0
 40
4.999764668583928
100
AcDbArc
 50
48.87389260758702
 51
90.0
  0
LINE
  5
EF7C88698
330
EF7C85532
100
AcDbEntity
  8
JISSEN
100
AcDbLine
 10
102.2102684344543
 20
187.9107192011131
 30
0.0
 11
102.2102684344543
 21
184.2611676406242
 31
0.0
  0
LINE
  5
EF7C88699
330
EF7C85532
100
AcDbEntity
  8
SUNPOU
 62
     0
100
AcDbLine
 10
98.94608012396123
 20
193.1845787116537
 30
0.0
 11
98.94608012396123
 21
178.6111414500732
 31
0.0
  0
LINE
  5
EF7C8869A
330
EF7C85532
100
AcDbEntity
  8
SUNPOU
 62
     0
100
AcDbLine
 10
99.21024983775044
 20
193.1845787116537
 30
0.0
 11
99.21024983775044
 21
178.8852517595035
 31
0.0
  0
LINE
  5
EF7C8869B
330
EF7C85532
100
AcDbEntity
  8
JISSEN
100
AcDbLine
 10
103.4102684344543
 20
193.4107192011131
 30
0.0
 11
103.4102684344543
 21
184.2611676406242
 31
0.0
  0
LINE
  5
EF7C8869C
330
EF7C85532
100
AcDbEntity
  8
JISSEN
100
AcDbLine
 10
97.44726408585803
 20
172.9240710455318
 30
0.0
 11
97.44726408585803
 21
217.925483034028
 31
0.0
  0
LINE
  5
EF7C8869D
330
EF7C85532
100
AcDbEntity
  8
SUNPOU
 62
     0
100
AcDbLine
 10
77.44820541152228
 20
174.6775186507767
 30
0.0
 11
77.44820541152228
 21
216.1755654000236
 31
0.0
  0
LINE
  5
EF7C8869E
330
EF7C85532
100
AcDbEntity
  8
TENSEN
100
AcDbLine
 10
72.55150462486324
 20
184.8799698049933
 30
0.0
 11
72.55150462486324
 21
206.0342168527824
 31
0.0
  0
LINE
  5
EF7C8869F
330
EF7C85532
100
AcDbEntity
  8
SUNPOU
 62
     0
100
AcDbLine
 10
84.65971541771045
 20
145.1852895507711
 30
0.0
 11
84.97350467867262
 21
145.8665415814
 31
0.0
  0
LINE
  5
EF7C886A0
330
EF7C85532
100
AcDbEntity
  8
SUNPOU
 62
     0
100
AcDbLine
 10
92.44749941727411
 20
165.3586724312312
 30
0.0
 11
81.94799361324783
 21
165.3586724312312
 31
0.0
  0
LINE
  5
EF7C886A1
330
EF7C85532
100
AcDbEntity
  8
SUNPOU
 62
     0
100
AcDbLine
 10
92.44749941727411
 20
174.6739886795361
 30
0.0
 11
77.44820541152228
 21
174.6739886795361
 31
0.0
  0
LINE
  5
EF7C886A2
330
EF7C85532
100
AcDbEntity
  8
JISSEN
100
AcDbLine
 10
81.94749941727422
 20
174.6712469023888
 30
0.0
 11
81.94749941727422
 21
145.3554921961346
 31
0.0
  0
LINE
  5
EF7C886A3
330
EF7C85532
100
AcDbEntity
  8
SUNPOU
 62
     0
100
AcDbLine
 10
81.94749941727422
 20
145.3554921961346
 30
0.0
 11
82.68288087833093
 21
144.4756216864653
 31
0.0
  0
LINE
  5
EF7C886A4
330
EF7C85532
100
AcDbEntity
  8
SUNPOU
 62
     0
100
AcDbLine
 10
83.83993502805834
 20
144.2060066024989
 30
0.0
 11
84.2859090976608
 21
144.5948810637245
 31
0.0
  0
LINE
  5
EF7C886A5
330
EF7C85532
100
AcDbEntity
  8
SUNPOU
 62
     0
100
AcDbLine
 10
82.68288087833093
 20
144.4756216864653
 30
0.0
 11
83.30964251843704
 21
144.1293566493329
 31
0.0
  0
LINE
  5
EF7C886A6
330
EF7C85532
100
AcDbEntity
  8
SUNPOU
 62
     0
100
AcDbLine
 10
83.30964251843704
 20
144.1293566493329
 30
0.0
 11
83.83993502805834
 21
144.2060066024989
 31
0.0
  0
LINE
  5
EF7C886A7
330
EF7C85532
100
AcDbEntity
  8
SUNPOU
 62
     0
100
AcDbLine
 10
84.2859090976608
 20
144.5948810637245
 30
0.0
 11
84.65971541771045
 21
145.1852895507711
 31
0.0
  0
LINE
  5
EF7C886A8
330
EF7C85532
100
AcDbEntity
  8
TENSEN
100
AcDbLine
 10
62.80044540439087
 20
183.957634591156
 30
0.0
 11
71.62916941101468
 21
183.9576345911447
 31
0.0
  0
ARC
  5
EF7C886A9
330
EF7C85532
100
AcDbEntity
  8
TENSEN
100
AcDbCircle
 10
62.80044540439087
 20
178.957869922572
 30
0.0
 40
4.99976466858392
100
AcDbArc
 50
90.0
 51
131.1261073924086
  0
LINE
  5
EF7C886AA
330
EF7C85532
100
AcDbEntity
  8
SUNPOU
 62
     0
100
AcDbLine
 10
81.94799361324783
 20
165.3586724312312
 30
0.0
 11
81.94799361324783
 21
174.6739886795361
 31
0.0
  0
LINE
  5
EF7C886AB
330
EF7C85532
100
AcDbEntity
  8
SUNPOU
 62
     0
100
AcDbLine
 10
77.44820541152228
 20
176.7667857187786
 30
0.0
 11
77.44820541152228
 21
174.6739886795361
 31
0.0
  0
LINE
  5
EF7C886AC
330
EF7C85532
100
AcDbEntity
  8
SUNPOU
 62
     0
100
AcDbLine
 10
77.44820541152228
 20
184.7245566212343
 30
0.0
 11
72.55150462486302
 21
184.8775861680152
 31
0.0
  0
LINE
  5
EF7C886AD
330
EF7C85532
100
AcDbEntity
  8
TENSEN
100
AcDbLine
 10
71.62916941101468
 20
183.9576345911447
 30
0.0
 11
72.55150462486324
 21
184.8799698049933
 31
0.0
  0
LINE
  5
EF7C886AE
330
EF7C85532
100
AcDbEntity
  8
SUNPOU
 62
     0
100
AcDbLine
 10
97.44726408585803
 20
172.9240710455318
 30
0.0
 11
94.25279280011784
 21
159.0872957402543
 31
0.0
  0
LINE
  5
EF7C886AF
330
EF7C85532
100
AcDbEntity
  8
SUNPOU
 62
     0
100
AcDbLine
 10
92.44749941727411
 20
165.3554921961347
 30
0.0
 11
92.44749941727411
 21
144.8076647304654
 31
0.0
  0
LINE
  5
EF7C886B0
330
EF7C85532
100
AcDbEntity
  8
SUNPOU
 62
     0
100
AcDbLine
 10
91.57101914352688
 20
141.8881200154048
 30
0.0
 11
92.03209933885124
 21
142.8778434676709
 31
0.0
  0
LINE
  5
EF7C886B1
330
EF7C85532
100
AcDbEntity
  8
SUNPOU
 62
     0
100
AcDbLine
 10
85.2394275710135
 20
146.5279466733726
 30
0.0
 11
85.46963478519899
 21
147.05881434445
 31
0.0
  0
LINE
  5
EF7C886B2
330
EF7C85532
100
AcDbEntity
  8
SUNPOU
 62
     0
100
AcDbLine
 10
86.33399549122804
 20
147.138345724137
 30
0.0
 11
86.47678908300623
 21
146.9328913881374
 31
0.0
  0
LINE
  5
EF7C886B3
330
EF7C85532
100
AcDbEntity
  8
SUNPOU
 62
     0
100
AcDbLine
 10
88.29807636660268
 20
146.3333678795669
 30
0.0
 11
88.67004776119371
 21
145.6997091295452
 31
0.0
  0
LINE
  5
EF7C886B4
330
EF7C85532
100
AcDbEntity
  8
SUNPOU
 62
     0
100
AcDbLine
 10
84.97350467867262
 20
145.8665415814
 30
0.0
 11
85.2394275710135
 21
146.5279466733726
 31
0.0
  0
LINE
  5
EF7C886B5
330
EF7C85532
100
AcDbEntity
  8
SUNPOU
 62
     0
100
AcDbLine
 10
87.70066797270226
 20
146.8904400884715
 30
0.0
 11
87.97709329924874
 21
146.7122358783934
 31
0.0
  0
LINE
  5
EF7C886B6
330
EF7C85532
100
AcDbEntity
  8
SUNPOU
 62
     0
100
AcDbLine
 10
87.46236980053414
 20
146.9221074722478
 30
0.0
 11
87.70066797270226
 21
146.8904400884715
 31
0.0
  0
LINE
  5
EF7C886B7
330
EF7C85532
100
AcDbEntity
  8
SUNPOU
 62
     0
100
AcDbLine
 10
87.25576819631475
 20
146.8613649921687
 30
0.0
 11
87.46236980053414
 21
146.9221074722478
 31
0.0
  0
LINE
  5
EF7C886B8
330
EF7C85532
100
AcDbEntity
  8
SUNPOU
 62
     0
100
AcDbLine
 10
87.07443257361479
 20
146.7623396106812
 30
0.0
 11
87.25576819631475
 21
146.8613649921687
 31
0.0
  0
LINE
  5
EF7C886B9
330
EF7C85532
100
AcDbEntity
  8
SUNPOU
 62
     0
100
AcDbLine
 10
86.91193234600451
 20
146.6791582902316
 30
0.0
 11
87.07443257361479
 21
146.7623396106812
 31
0.0
  0
LINE
  5
EF7C886BA
330
EF7C85532
100
AcDbEntity
  8
SUNPOU
 62
     0
100
AcDbLine
 10
86.76183692705524
 20
146.6659479932667
 30
0.0
 11
86.91193234600451
 21
146.6791582902316
 31
0.0
  0
LINE
  5
EF7C886BB
330
EF7C85532
100
AcDbEntity
  8
SUNPOU
 62
     0
100
AcDbLine
 10
86.61817209453511
 20
146.7602035658031
 30
0.0
 11
86.76183692705524
 21
146.6659479932667
 31
0.0
  0
LINE
  5
EF7C886BC
330
EF7C85532
100
AcDbEntity
  8
SUNPOU
 62
     0
100
AcDbLine
 10
86.47678908300623
 20
146.9328913881374
 30
0.0
 11
86.61817209453511
 21
146.7602035658031
 31
0.0
  0
LINE
  5
EF7C886BD
330
EF7C85532
100
AcDbEntity
  8
SUNPOU
 62
     0
100
AcDbLine
 10
87.97709329924874
 20
146.7122358783934
 30
0.0
 11
88.29807636660268
 21
146.3333678795669
 31
0.0
  0
LINE
  5
EF7C886BE
330
EF7C85532
100
AcDbEntity
  8
SUNPOU
 62
     0
100
AcDbLine
 10
88.67004776119371
 20
145.6997091295452
 30
0.0
 11
89.0959115662231
 21
144.7958922911509
 31
0.0
  0
LINE
  5
EF7C886BF
330
EF7C85532
100
AcDbEntity
  8
SUNPOU
 62
     0
100
AcDbLine
 10
91.07898726423945
 20
141.6600635845
 30
0.0
 11
91.57101914352688
 21
141.8881200154048
 31
0.0
  0
LINE
  5
EF7C886C0
330
EF7C85532
100
AcDbEntity
  8
SUNPOU
 62
     0
100
AcDbLine
 10
89.56446585198046
 20
143.761588528282
 30
0.0
 11
90.06098218552802
 21
142.7752286301058
 31
0.0
  0
LINE
  5
EF7C886C1
330
EF7C85532
100
AcDbEntity
  8
SUNPOU
 62
     0
100
AcDbLine
 10
90.57073213392687
 20
142.0152433857894
 30
0.0
 11
91.07898726423945
 21
141.6600635845
 31
0.0
  0
LINE
  5
EF7C886C2
330
EF7C85532
100
AcDbEntity
  8
SUNPOU
 62
     0
100
AcDbLine
 10
90.06098218552802
 20
142.7752286301058
 30
0.0
 11
90.57073213392687
 21
142.0152433857894
 31
0.0
  0
LINE
  5
EF7C886C3
330
EF7C85532
100
AcDbEntity
  8
SUNPOU
 62
     0
100
AcDbLine
 10
89.0959115662231
 20
144.7958922911509
 30
0.0
 11
89.56446585198046
 21
143.761588528282
 31
0.0
  0
LINE
  5
EF7C886C4
330
EF7C85532
100
AcDbEntity
  8
SUNPOU
 62
     0
100
AcDbLine
 10
85.46963478519899
 20
147.05881434445
 30
0.0
 11
85.67486729682366
 21
147.3745134821224
 31
0.0
  0
LINE
  5
EF7C886C5
330
EF7C85532
100
AcDbEntity
  8
SUNPOU
 62
     0
100
AcDbLine
 10
86.1860989179611
 20
147.3309008376684
 30
0.0
 11
86.33399549122804
 21
147.138345724137
 31
0.0
  0
LINE
  5
EF7C886C6
330
EF7C85532
100
AcDbEntity
  8
SUNPOU
 62
     0
100
AcDbLine
 10
86.02940696196469
 20
147.4648909925984
 30
0.0
 11
86.1860989179611
 21
147.3309008376684
 31
0.0
  0
LINE
  5
EF7C886C7
330
EF7C85532
100
AcDbEntity
  8
SUNPOU
 62
     0
100
AcDbLine
 10
85.67486729682366
 20
147.3745134821224
 30
0.0
 11
85.8602272219989
 21
147.4946504527942
 31
0.0
  0
LINE
  5
EF7C886C8
330
EF7C85532
100
AcDbEntity
  8
SUNPOU
 62
     0
100
AcDbLine
 10
85.8602272219989
 20
147.4946504527942
 30
0.0
 11
86.02940696196469
 21
147.4648909925984
 31
0.0
  0
LINE
  5
EF7C886C9
330
EF7C85532
100
AcDbEntity
  8
SUNPOU
 62
     0
100
AcDbLine
 10
92.03209933885124
 20
142.8778434676709
 30
0.0
 11
92.44749941727411
 21
144.8076647304654
 31
0.0
  0
ARC
  5
EF7C886CA
330
EF7C85532
100
AcDbEntity
  8
SUNPOU
 62
     0
100
AcDbCircle
 10
92.79130649290607
 20
159.4247064403551
 30
0.0
 40
1.499929400575191
100
AcDbArc
 50
270.0
 51
347.0
  0
LINE
  5
EF7C886CB
330
EF7C85532
100
AcDbEntity
  8
SUNPOU
 62
     0
100
AcDbLine
 10
92.79130649290607
 20
157.9247770397799
 30
0.0
 11
92.44749941727411
 21
157.9247770397799
 31
0.0
  0
LINE
  5
EF7C886CC
330
EF7C85532
100
AcDbEntity
  8
SUNPOU
 62
     0
100
AcDbLine
 10
98.91026395763539
 20
178.5866157916092
 30
0.0
 11
99.21024983775033
 21
178.8866016717243
 31
0.0
  0
LINE
  5
EF7C886CD
330
EF7C85532
100
AcDbEntity
  8
SUNPOU
 62
     0
100
AcDbLine
 10
92.44749941727411
 20
174.6739886795361
 30
0.0
 11
92.44749941727411
 21
165.3586724312312
 31
0.0
  0
LINE
  5
EF7C886CE
330
EF7C85532
100
AcDbEntity
  8
SUNPOU
 62
     0
100
AcDbLine
 10
97.44726408585803
 20
178.5866157916092
 30
0.0
 11
98.91026395763539
 21
178.5866157916092
 31
0.0
  0
LINE
  5
EF7C886CF
330
EF7C85532
100
AcDbEntity
  8
JISSEN
100
AcDbLine
 10
102.2102684344543
 20
184.2611676406242
 30
0.0
 11
103.4102684344543
 21
184.2611676406242
 31
0.0
  0
LINE
  5
EF7C886D0
330
EF7C85532
100
AcDbEntity
  8
SUNPOU
 62
     0
100
AcDbLine
 10
92.44749941727411
 20
216.1755654000236
 30
0.0
 11
77.44820541152228
 21
216.1755654000236
 31
0.0
  0
LINE
  5
EF7C886D1
330
EF7C85532
100
AcDbEntity
  8
SUNPOU
 62
     0
100
AcDbLine
 10
92.44749941727411
 20
224.4315441829425
 30
0.0
 11
81.94799361324783
 21
224.4315441829425
 31
0.0
  0
ARC
  5
EF7C886D2
330
EF7C85532
100
AcDbEntity
  8
TENSEN
100
AcDbCircle
 10
62.80044540439087
 20
211.956316735204
 30
0.0
 40
4.999764668583971
100
AcDbArc
 50
228.873892607587
 51
270.0
  0
LINE
  5
EF7C886D3
330
EF7C85532
100
AcDbEntity
  8
TENSEN
100
AcDbLine
 10
71.6291694110256
 20
206.9565520666201
 30
0.0
 11
62.80044540439087
 21
206.9565520666201
 31
0.0
  0
LINE
  5
EF7C886D4
330
EF7C85532
100
AcDbEntity
  8
SUNPOU
 62
     0
100
AcDbLine
 10
72.55150462486302
 20
206.0366004897602
 30
0.0
 11
77.44820541152205
 21
206.1896300365412
 31
0.0
  0
LINE
  5
EF7C886D5
330
EF7C85532
100
AcDbEntity
  8
TENSEN
100
AcDbLine
 10
72.55150462486324
 20
206.0342168527824
 30
0.0
 11
71.6291694110256
 21
206.9565520666201
 31
0.0
  0
LINE
  5
EF7C886D6
330
EF7C85532
100
AcDbEntity
  8
SUNPOU
 62
     0
100
AcDbLine
 10
81.94799361324783
 20
224.4332521259035
 30
0.0
 11
81.94799361324783
 21
216.1755654000236
 31
0.0
  0
LINE
  5
EF7C886D7
330
EF7C85532
100
AcDbEntity
  8
SUNPOU
 62
     0
100
AcDbLine
 10
100.2558923652084
 20
202.8009810445599
 30
0.0
 11
100.2558923652085
 21
211.2631368949674
 31
0.0
  0
LINE
  5
EF7C886D8
330
EF7C85532
100
AcDbEntity
  8
SUNPOU
 62
     0
100
AcDbLine
 10
99.21024983775044
 20
197.6478529323857
 30
0.0
 11
99.21024983775044
 21
211.9471798845359
 31
0.0
  0
LINE
  5
EF7C886D9
330
EF7C85532
100
AcDbEntity
  8
SUNPOU
 62
     0
100
AcDbLine
 10
98.94608012396123
 20
197.6478529323857
 30
0.0
 11
98.94608012396123
 21
212.2212901939662
 31
0.0
  0
LINE
  5
EF7C886DA
330
EF7C85532
100
AcDbEntity
  8
SUNPOU
 62
     0
100
AcDbLine
 10
97.44726408585803
 20
193.1845787116537
 30
0.0
 11
99.21024983775044
 21
193.1845787116537
 31
0.0
  0
LINE
  5
EF7C886DB
330
EF7C85532
100
AcDbEntity
  8
JISSEN
100
AcDbLine
 10
97.44726408585803
 20
193.4107192011131
 30
0.0
 11
108.5102684344543
 21
193.4107192011131
 31
0.0
  0
LINE
  5
EF7C886DC
330
EF7C85532
100
AcDbEntity
  8
JISSEN
100
AcDbLine
 10
97.44726408585803
 20
197.410719201113
 30
0.0
 11
108.5102684344543
 21
197.410719201113
 31
0.0
  0
LINE
  5
EF7C886DD
330
EF7C85532
100
AcDbEntity
  8
SUNPOU
 62
     0
100
AcDbLine
 10
97.44726408585803
 20
197.6478529323858
 30
0.0
 11
99.21024983775044
 21
197.6478529323857
 31
0.0
  0
LINE
  5
EF7C886DE
330
EF7C85532
100
AcDbEntity
  8
SUNPOU
 62
     0
100
AcDbLine
 10
98.815151109162
 20
196.9124255980478
 30
0.0
 11
98.815151109162
 21
193.9090128041786
 31
0.0
  0
LINE
  5
EF7C886DF
330
EF7C85532
100
AcDbEntity
  8
SUNPOU
 62
     0
100
AcDbLine
 10
98.53034872930642
 20
193.9090128041786
 30
0.0
 11
98.53034872930642
 21
193.1845787116537
 31
0.0
  0
LINE
  5
EF7C886E0
330
EF7C85532
100
AcDbEntity
  8
SUNPOU
 62
     0
100
AcDbLine
 10
98.12297587898559
 20
193.4359168573036
 30
0.0
 11
98.12297587898559
 21
193.9090128041786
 31
0.0
  0
LINE
  5
EF7C886E1
330
EF7C85532
100
AcDbEntity
  8
SUNPOU
 62
     0
100
AcDbLine
 10
97.44726408585803
 20
193.4359168573037
 30
0.0
 11
98.12297587898559
 21
193.4359168573036
 31
0.0
  0
LINE
  5
EF7C886E2
330
EF7C85532
100
AcDbEntity
  8
SUNPOU
 62
     0
100
AcDbLine
 10
98.815151109162
 20
193.9090128041786
 30
0.0
 11
97.4472640858579
 21
193.9090128041786
 31
0.0
  0
LINE
  5
EF7C886E3
330
EF7C85532
100
AcDbEntity
  8
SUNPOU
 62
     0
100
AcDbLine
 10
98.12297587898559
 20
197.3965147867358
 30
0.0
 11
98.12297587898559
 21
196.9124255980478
 31
0.0
  0
LINE
  5
EF7C886E4
330
EF7C85532
100
AcDbEntity
  8
SUNPOU
 62
     0
100
AcDbLine
 10
98.53034872930642
 20
196.9124255980478
 30
0.0
 11
98.53034872930642
 21
197.6478529323857
 31
0.0
  0
LINE
  5
EF7C886E5
330
EF7C85532
100
AcDbEntity
  8
SUNPOU
 62
     0
100
AcDbLine
 10
97.44726408585803
 20
197.3965147867358
 30
0.0
 11
98.12297587898559
 21
197.3965147867358
 31
0.0
  0
LINE
  5
EF7C886E6
330
EF7C85532
100
AcDbEntity
  8
SUNPOU
 62
     0
100
AcDbLine
 10
98.815151109162
 20
196.9124255980478
 30
0.0
 11
97.4472640858579
 21
196.9124255980478
 31
0.0
  0
LINE
  5
EF7C886E7
330
EF7C85532
100
AcDbEntity
  8
JISSEN
100
AcDbLine
 10
108.5102684344543
 20
197.410719201113
 30
0.0
 11
108.5102684344543
 21
195.410719201113
 31
0.0
  0
LINE
  5
EF7C886E8
330
EF7C85532
100
AcDbEntity
  8
SUNPOU
 62
     0
100
AcDbLine
 10
99.21024983775033
 20
193.1845787116537
 30
0.0
 11
99.21024983775044
 21
189.1847669767864
 31
0.0
  0
LINE
  5
EF7C886E9
330
EF7C85532
100
AcDbEntity
  8
JISSEN
100
AcDbLine
 10
100.7102684344544
 20
193.4107192011131
 30
0.0
 11
100.7102684344544
 21
188.9107192011131
 31
0.0
  0
LINE
  5
EF7C886EA
330
EF7C85532
100
AcDbEntity
  8
JISSEN
100
AcDbLine
 10
102.2102684344543
 20
192.7857192011131
 30
0.0
 11
102.2102684344543
 21
189.9107192011131
 31
0.0
  0
LINE
  5
EF7C886EB
330
EF7C85532
100
AcDbEntity
  8
JISSEN
100
AcDbLine
 10
102.2102684344543
 20
193.4107192011131
 30
0.0
 11
102.2102684344543
 21
189.9107192011132
 31
0.0
  0
LINE
  5
EF7C886EC
330
EF7C85532
100
AcDbEntity
  8
JISSEN
100
AcDbLine
 10
102.2102684344543
 20
185.9107192011131
 30
0.0
 11
103.4102684344543
 21
185.9107192011131
 31
0.0
  0
LINE
  5
EF7C886ED
330
EF7C85532
100
AcDbEntity
  8
JISSEN
100
AcDbLine
 10
102.0102684344543
 20
187.9107192011131
 30
0.0
 11
103.4102684344543
 21
187.9107192011131
 31
0.0
  0
LINE
  5
EF7C886EE
330
EF7C85532
100
AcDbEntity
  8
JISSEN
100
AcDbLine
 10
101.4102684344543
 20
189.9107192011131
 30
0.0
 11
103.4102684344543
 21
189.9107192011131
 31
0.0
  0
ARC
  5
EF7C886EF
330
EF7C85532
100
AcDbEntity
  8
JISSEN
100
AcDbCircle
 10
100.1102684344554
 20
190.6572594224066
 30
0.0
 40
0.3
100
AcDbArc
 50
0.0
 51
80.00000000000147
  0
LINE
  5
EF7C886F0
330
EF7C85532
100
AcDbEntity
  8
JISSEN
100
AcDbLine
 10
99.2102684344543
 20
191.1205816886101
 30
0.0
 11
100.1623628877554
 21
190.9527017483102
 31
0.0
  0
LINE
  5
EF7C886F1
330
EF7C85532
100
AcDbEntity
  8
JISSEN
100
AcDbLine
 10
101.4102684344543
 20
189.9107192011132
 30
0.0
 11
102.0102684344543
 21
187.9107192011131
 31
0.0
  0
LINE
  5
EF7C886F2
330
EF7C85532
100
AcDbEntity
  8
JISSEN
100
AcDbLine
 10
101.7115677648686
 20
189.9107192011132
 30
0.0
 11
102.3115677648686
 21
187.9107192011131
 31
0.0
  0
LINE
  5
EF7C886F3
330
EF7C85532
100
AcDbEntity
  8
JISSEN
100
AcDbLine
 10
102.2102684344543
 20
187.9107192011131
 30
0.0
 11
102.0102684344543
 21
187.9107192011131
 31
0.0
  0
LINE
  5
EF7C886F4
330
EF7C85532
100
AcDbEntity
  8
JISSEN
100
AcDbLine
 10
102.2102684344543
 20
189.9107192011132
 30
0.0
 11
101.4102684344543
 21
189.9107192011132
 31
0.0
  0
LINE
  5
EF7C886F5
330
EF7C85532
100
AcDbEntity
  8
SUNPOU
 62
     0
100
AcDbLine
 10
99.21024983774998
 20
187.312337293425
 30
0.0
 11
99.21024983774998
 21
185.957518737465
 31
0.0
  0
LINE
  5
EF7C886F6
330
EF7C85532
100
AcDbEntity
  8
JISSEN
100
AcDbLine
 10
100.4102684344553
 20
188.9107192011131
 30
0.0
 11
101.7102684344544
 21
188.9107192011131
 31
0.0
  0
LINE
  5
EF7C886F7
330
EF7C85532
100
AcDbEntity
  8
JISSEN
100
AcDbLine
 10
100.4102684344553
 20
188.9107192011131
 30
0.0
 11
100.4102684344553
 21
190.6572594224066
 31
0.0
  0
LINE
  5
EF7C886F8
330
EF7C85532
100
AcDbEntity
  8
JISSEN
100
AcDbLine
 10
102.2102684344543
 20
192.9107192011131
 30
0.0
 11
103.4102684344544
 21
192.9107192011131
 31
0.0
  0
LINE
  5
EF7C886F9
330
EF7C85532
100
AcDbEntity
  8
JISSEN
100
AcDbLine
 10
103.4102684344544
 20
192.6607192011131
 30
0.0
 11
104.5227580351128
 21
192.6607192011131
 31
0.0
  0
LINE
  5
EF7C886FA
330
EF7C85532
100
AcDbEntity
  8
JISSEN
100
AcDbLine
 10
103.4102684344543
 20
193.4107192011131
 30
0.0
 11
104.4102684344543
 21
193.4107192011131
 31
0.0
  0
LINE
  5
EF7C886FB
330
EF7C85532
100
AcDbEntity
  8
JISSEN
100
AcDbLine
 10
103.4102684344544
 20
192.6607192011131
 30
0.0
 11
103.4102684344544
 21
192.7857192011131
 31
0.0
  0
LINE
  5
EF7C886FC
330
EF7C85532
100
AcDbEntity
  8
JISSEN
100
AcDbLine
 10
103.4102684344544
 20
193.4107192011131
 30
0.0
 11
103.4102684344544
 21
192.7857192011131
 31
0.0
  0
ARC
  5
EF7C886FD
330
EF7C85532
100
AcDbEntity
  8
JISSEN
100
AcDbCircle
 10
97.01026843445436
 20
195.4107192011131
 30
0.0
 40
8.000000000000003
100
AcDbArc
 50
339.8944902120839
 51
345.5224878140705
  0
LINE
  5
EF7C886FE
330
EF7C85532
100
AcDbEntity
  8
JISSEN
100
AcDbLine
 10
108.5102684344543
 20
193.4107192011131
 30
0.0
 11
108.5102684344543
 21
195.4107192011131
 31
0.0
  0
LINE
  5
EF7C886FF
330
EF7C85532
100
AcDbEntity
  8
JISSEN
100
AcDbLine
 10
103.4102684344543
 20
205.1611676406243
 30
0.0
 11
103.4102684344543
 21
197.410719201113
 31
0.0
  0
LINE
  5
EF7C88700
330
EF7C85532
100
AcDbEntity
  8
JISSEN
100
AcDbLine
 10
103.4102684344543
 20
205.1611676406243
 30
0.0
 11
103.0343689068621
 21
201.4107192011131
 31
0.0
  0
LINE
  5
EF7C88701
330
EF7C85532
100
AcDbEntity
  8
JISSEN
100
AcDbLine
 10
102.2102684344543
 20
205.1611676406243
 30
0.0
 11
101.9031254995016
 21
201.4107192011131
 31
0.0
  0
LINE
  5
EF7C88702
330
EF7C85532
100
AcDbEntity
  8
JISSEN
100
AcDbLine
 10
103.0343689068621
 20
201.4107192011131
 30
0.0
 11
101.9031254995016
 21
201.4107192011131
 31
0.0
  0
LINE
  5
EF7C88703
330
EF7C85532
100
AcDbEntity
  8
JISSEN
100
AcDbLine
 10
100.4102684344553
 20
201.9107192011129
 30
0.0
 11
101.9440729941687
 21
201.9107192011129
 31
0.0
  0
LINE
  5
EF7C88704
330
EF7C85532
100
AcDbEntity
  8
JISSEN
100
AcDbLine
 10
102.2102684344542
 20
201.410719201113
 30
0.0
 11
102.2102684344543
 21
197.410719201113
 31
0.0
  0
LINE
  5
EF7C88705
330
EF7C85532
100
AcDbEntity
  8
SUNPOU
 62
     0
100
AcDbLine
 10
99.21024983775033
 20
197.6478529323857
 30
0.0
 11
99.21024983775044
 21
201.647664667253
 31
0.0
  0
ARC
  5
EF7C88706
330
EF7C85532
100
AcDbEntity
  8
JISSEN
100
AcDbCircle
 10
100.1102684344554
 20
200.1641789798195
 30
0.0
 40
0.3
100
AcDbArc
 50
279.9999999999986
 51
0.0
  0
LINE
  5
EF7C88707
330
EF7C85532
100
AcDbEntity
  8
JISSEN
100
AcDbLine
 10
99.2102684344543
 20
199.7008567136159
 30
0.0
 11
100.1623628877554
 21
199.8687366539158
 31
0.0
  0
LINE
  5
EF7C88708
330
EF7C85532
100
AcDbEntity
  8
JISSEN
100
AcDbLine
 10
100.7102684344544
 20
197.4107192011129
 30
0.0
 11
100.7102684344544
 21
201.9107192011129
 31
0.0
  0
LINE
  5
EF7C88709
330
EF7C85532
100
AcDbEntity
  8
JISSEN
100
AcDbLine
 10
100.4102684344553
 20
201.9107192011129
 30
0.0
 11
100.4102684344553
 21
200.1641789798195
 31
0.0
  0
LINE
  5
EF7C8870A
330
EF7C85532
100
AcDbEntity
  8
JISSEN
100
AcDbLine
 10
102.2102684344543
 20
205.1611676406243
 30
0.0
 11
103.4102684344543
 21
205.1611676406243
 31
0.0
  0
LINE
  5
EF7C8870B
330
EF7C85532
100
AcDbEntity
  8
SUNPOU
 62
     0
100
AcDbLine
 10
100.9125824806286
 20
207.6477818003603
 30
0.0
 11
100.2627458254743
 21
207.6477818003602
 31
0.0
  0
LINE
  5
EF7C8870C
330
EF7C85532
100
AcDbEntity
  8
SUNPOU
 62
     0
100
AcDbLine
 10
101.7626752260492
 20
204.1213793696484
 30
0.0
 11
101.7626752260483
 21
207.1743724962067
 31
0.0
  0
LINE
  5
EF7C8870D
330
EF7C85532
100
AcDbEntity
  8
SUNPOU
 62
     0
100
AcDbLine
 10
99.2067878578589
 20
202.8009810445599
 30
0.0
 11
100.2558923652084
 21
202.8009810445599
 31
0.0
  0
LINE
  5
EF7C8870E
330
EF7C85532
100
AcDbEntity
  8
SUNPOU
 62
     0
100
AcDbLine
 10
100.9125824806286
 20
203.6479700654933
 30
0.0
 11
100.2627458254743
 21
203.6479700654931
 31
0.0
  0
ARC
  5
EF7C8870F
330
EF7C85532
100
AcDbEntity
  8
SUNPOU
 62
     0
100
AcDbCircle
 10
100.9125824806286
 20
204.6479229992101
 30
0.0
 40
0.9999529337167942
100
AcDbArc
 50
270.0
 51
328.2261118107317
  0
ARC
  5
EF7C88710
330
EF7C85532
100
AcDbEntity
  8
SUNPOU
 62
     0
100
AcDbCircle
 10
100.9125824806286
 20
206.6478288666435
 30
0.0
 40
0.9999529337167942
100
AcDbArc
 50
31.77388818931894
 51
90.0
  0
LINE
  5
EF7C88711
330
EF7C85532
100
AcDbEntity
  8
SUNPOU
 62
     0
100
AcDbLine
 10
97.94724055271638
 20
213.4256948323024
 30
0.0
 11
108.4467463567428
 21
213.4256948323024
 31
0.0
  0
LINE
  5
EF7C88712
330
EF7C85532
100
AcDbEntity
  8
SUNPOU
 62
     0
100
AcDbLine
 10
98.91026395763539
 20
212.2458158524302
 30
0.0
 11
99.21024983775033
 21
211.9458299723151
 31
0.0
  0
LINE
  5
EF7C88713
330
EF7C85532
100
AcDbEntity
  8
SUNPOU
 62
     0
100
AcDbLine
 10
108.4467463567428
 20
212.4257418985857
 30
0.0
 11
97.44726408585803
 21
212.4257418985857
 31
0.0
  0
ARC
  5
EF7C88714
330
EF7C85532
100
AcDbEntity
  8
SUNPOU
 62
     0
100
AcDbCircle
 10
97.94724055271638
 20
213.9256712991608
 30
0.0
 40
0.4999764668583972
100
AcDbArc
 50
180.0
 51
270.0
  0
LINE
  5
EF7C88715
330
EF7C85532
100
AcDbEntity
  8
SUNPOU
 62
     0
100
AcDbLine
 10
97.44726408585803
 20
212.2458158524302
 30
0.0
 11
98.91026395763539
 21
212.2458158524302
 31
0.0
  0
LINE
  5
EF7C88716
330
EF7C85532
100
AcDbEntity
  8
SUNPOU
 62
     0
100
AcDbLine
 10
100.2558923652085
 20
211.2631368949674
 30
0.0
 11
111.6508275594504
 21
210.0654809454746
 31
0.0
  0
LINE
  5
EF7C88717
330
EF7C85532
100
AcDbEntity
  8
SUNPOU
 62
     0
100
AcDbLine
 10
100.36041590871
 20
212.2576119818865
 30
0.0
 11
111.7553511029515
 21
211.0599560323937
 31
0.0
  0
ARC
  5
EF7C88718
330
EF7C85532
100
AcDbEntity
  8
SUNPOU
 62
     0
100
AcDbCircle
 10
100.2558923652085
 20
211.2631368949674
 30
0.0
 40
0.9999529337167942
100
AcDbArc
 50
83.99999999999826
 51
180.0
  0
LINE
  5
EF7C88719
330
EF7C85532
100
AcDbEntity
  8
SUNPOU
 62
     0
100
AcDbLine
 10
108.4467463567428
 20
213.4256948323024
 30
0.0
 11
108.4467463567428
 21
212.4257418985857
 31
0.0
  0
LINE
  5
EF7C8871A
330
EF7C85532
100
AcDbEntity
  8
SUNPOU
 62
     0
100
AcDbLine
 10
111.6508275594504
 20
210.0654809454746
 30
0.0
 11
111.7553511029515
 21
211.0599560323937
 31
0.0
  0
LINE
  5
EF7C8871B
330
EF7C85532
100
AcDbEntity
  8
SUNPOU
 62
     0
100
AcDbLine
 10
84.63128127582228
 20
246.6021695126968
 30
0.0
 11
85.16732501416573
 21
245.832860313791
 31
0.0
  0
LINE
  5
EF7C8871C
330
EF7C85532
100
AcDbEntity
  8
SUNPOU
 62
     0
100
AcDbLine
 10
83.39671526898507
 20
246.0694182857165
 30
0.0
 11
84.0409786176624
 21
246.764873660328
 31
0.0
  0
LINE
  5
EF7C8871D
330
EF7C85532
100
AcDbEntity
  8
SUNPOU
 62
     0
100
AcDbLine
 10
82.69878945908931
 20
244.2642489178934
 30
0.0
 11
83.39671526898507
 21
246.0694182857165
 31
0.0
  0
LINE
  5
EF7C8871E
330
EF7C85532
100
AcDbEntity
  8
SUNPOU
 62
     0
100
AcDbLine
 10
81.94749941727422
 20
241.0978110858908
 30
0.0
 11
82.69878945908931
 21
244.2642489178934
 31
0.0
  0
LINE
  5
EF7C8871F
330
EF7C85532
100
AcDbEntity
  8
SUNPOU
 62
     0
100
AcDbLine
 10
84.0409786176624
 20
246.764873660328
 30
0.0
 11
84.63128127582228
 21
246.6021695126968
 31
0.0
  0
LINE
  5
EF7C88720
330
EF7C85532
100
AcDbEntity
  8
SUNPOU
 62
     0
100
AcDbLine
 10
88.29531498438973
 20
241.1254132735213
 30
0.0
 11
88.53455211558388
 21
240.7933845713267
 31
0.0
  0
LINE
  5
EF7C88721
330
EF7C85532
100
AcDbEntity
  8
SUNPOU
 62
     0
100
AcDbLine
 10
90.4760248056416
 20
240.3805475874079
 30
0.0
 11
90.63822364542136
 21
241.5658384707501
 31
0.0
  0
LINE
  5
EF7C88722
330
EF7C85532
100
AcDbEntity
  8
SUNPOU
 62
     0
100
AcDbLine
 10
88.79241759827426
 20
240.3213354143447
 30
0.0
 11
89.06120016137652
 21
239.7966052941752
 31
0.0
  0
LINE
  5
EF7C88723
330
EF7C85532
100
AcDbEntity
  8
SUNPOU
 62
     0
100
AcDbLine
 10
90.29897469510638
 20
239.4396224515235
 30
0.0
 11
90.4760248056416
 21
240.3805475874079
 31
0.0
  0
LINE
  5
EF7C88724
330
EF7C85532
100
AcDbEntity
  8
SUNPOU
 62
     0
100
AcDbLine
 10
89.85593762230905
 20
238.7797240705441
 30
0.0
 11
90.09127579621305
 21
238.917665013627
 31
0.0
  0
LINE
  5
EF7C88725
330
EF7C85532
100
AcDbEntity
  8
SUNPOU
 62
     0
100
AcDbLine
 10
90.09127579621305
 20
238.917665013627
 30
0.0
 11
90.29897469510638
 21
239.4396224515235
 31
0.0
  0
LINE
  5
EF7C88726
330
EF7C85532
100
AcDbEntity
  8
SUNPOU
 62
     0
100
AcDbLine
 10
89.06120016137652
 20
239.7966052941752
 30
0.0
 11
89.33318853380615
 21
239.3065337024184
 31
0.0
  0
LINE
  5
EF7C88727
330
EF7C85532
100
AcDbEntity
  8
SUNPOU
 62
     0
100
AcDbLine
 10
89.33318853380615
 20
239.3065337024184
 30
0.0
 11
89.60067144447839
 21
238.9384601306747
 31
0.0
  0
LINE
  5
EF7C88728
330
EF7C85532
100
AcDbEntity
  8
SUNPOU
 62
     0
100
AcDbLine
 10
89.60067144447839
 20
238.9384601306747
 30
0.0
 11
89.85593762230905
 21
238.7797240705441
 31
0.0
  0
LINE
  5
EF7C88729
330
EF7C85532
100
AcDbEntity
  8
SUNPOU
 62
     0
100
AcDbLine
 10
88.53455211558388
 20
240.7933845713267
 30
0.0
 11
88.79241759827426
 21
240.3213354143447
 31
0.0
  0
LINE
  5
EF7C8872A
330
EF7C85532
100
AcDbEntity
  8
SUNPOU
 62
     0
100
AcDbLine
 10
92.79130649290607
 20
232.9247770397799
 30
0.0
 11
92.44749941727411
 21
232.9247770397799
 31
0.0
  0
ARC
  5
EF7C8872B
330
EF7C85532
100
AcDbEntity
  8
SUNPOU
 62
     0
100
AcDbCircle
 10
92.79130649290607
 20
231.4248476392048
 30
0.0
 40
1.499929400575191
100
AcDbArc
 50
12.99999999999993
 51
90.0
  0
LINE
  5
EF7C8872C
330
EF7C85532
100
AcDbEntity
  8
SUNPOU
 62
     0
100
AcDbLine
 10
91.54849180378539
 20
244.210854699581
 30
0.0
 11
91.94392341988759
 21
243.2131207358746
 31
0.0
  0
LINE
  5
EF7C8872D
330
EF7C85532
100
AcDbEntity
  8
SUNPOU
 62
     0
100
AcDbLine
 10
85.16732501416573
 20
245.832860313791
 30
0.0
 11
85.64881160339405
 21
244.7085005345792
 31
0.0
  0
LINE
  5
EF7C8872E
330
EF7C85532
100
AcDbEntity
  8
SUNPOU
 62
     0
100
AcDbLine
 10
87.68577799472927
 20
241.153681635758
 30
0.0
 11
87.87965725611718
 21
241.2409994657779
 31
0.0
  0
LINE
  5
EF7C8872F
330
EF7C85532
100
AcDbEntity
  8
SUNPOU
 62
     0
100
AcDbLine
 10
86.76469987702047
 20
241.6656747467358
 30
0.0
 11
87.03725143216969
 21
241.2517436095859
 31
0.0
  0
LINE
  5
EF7C88730
330
EF7C85532
100
AcDbEntity
  8
SUNPOU
 62
     0
100
AcDbLine
 10
87.03725143216969
 20
241.2517436095859
 30
0.0
 11
87.27479901520473
 21
241.0806821102886
 31
0.0
  0
LINE
  5
EF7C88731
330
EF7C85532
100
AcDbEntity
  8
SUNPOU
 62
     0
100
AcDbLine
 10
87.27479901520473
 20
241.0806821102886
 30
0.0
 11
87.48756655857494
 21
241.0741186514704
 31
0.0
  0
LINE
  5
EF7C88732
330
EF7C85532
100
AcDbEntity
  8
SUNPOU
 62
     0
100
AcDbLine
 10
87.48756655857494
 20
241.0741186514704
 30
0.0
 11
87.68577799472927
 21
241.153681635758
 31
0.0
  0
LINE
  5
EF7C88733
330
EF7C85532
100
AcDbEntity
  8
SUNPOU
 62
     0
100
AcDbLine
 10
86.0754428142077
 20
243.48064464603
 30
0.0
 11
86.44692041730786
 21
242.4008471191116
 31
0.0
  0
LINE
  5
EF7C88734
330
EF7C85532
100
AcDbEntity
  8
SUNPOU
 62
     0
100
AcDbLine
 10
86.44692041730786
 20
242.4008471191116
 30
0.0
 11
86.76469987702047
 21
241.6656747467358
 31
0.0
  0
LINE
  5
EF7C88735
330
EF7C85532
100
AcDbEntity
  8
SUNPOU
 62
     0
100
AcDbLine
 10
85.64881160339405
 20
244.7085005345792
 30
0.0
 11
86.0754428142077
 21
243.48064464603
 31
0.0
  0
LINE
  5
EF7C88736
330
EF7C85532
100
AcDbEntity
  8
SUNPOU
 62
     0
100
AcDbLine
 10
87.87965725611718
 20
241.2409994657779
 30
0.0
 11
88.07942827518752
 21
241.2577005441568
 31
0.0
  0
LINE
  5
EF7C88737
330
EF7C85532
100
AcDbEntity
  8
SUNPOU
 62
     0
100
AcDbLine
 10
88.07942827518752
 20
241.2577005441568
 30
0.0
 11
88.29531498438973
 21
241.1254132735213
 31
0.0
  0
LINE
  5
EF7C88738
330
EF7C85532
100
AcDbEntity
  8
SUNPOU
 62
     0
100
AcDbLine
 10
91.24070529362768
 20
244.3180032159657
 30
0.0
 11
91.54849180378539
 21
244.210854699581
 31
0.0
  0
LINE
  5
EF7C88739
330
EF7C85532
100
AcDbEntity
  8
SUNPOU
 62
     0
100
AcDbLine
 10
90.63822364542136
 20
241.5658384707501
 30
0.0
 11
90.80607048978562
 21
242.7685048625945
 31
0.0
  0
LINE
  5
EF7C8873A
330
EF7C85532
100
AcDbEntity
  8
SUNPOU
 62
     0
100
AcDbLine
 10
90.80607048978562
 20
242.7685048625945
 30
0.0
 11
91.0000646140743
 21
243.7615565239849
 31
0.0
  0
LINE
  5
EF7C8873B
330
EF7C85532
100
AcDbEntity
  8
SUNPOU
 62
     0
100
AcDbLine
 10
91.0000646140743
 20
243.7615565239849
 30
0.0
 11
91.24070529362768
 21
244.3180032159657
 31
0.0
  0
LINE
  5
EF7C8873C
330
EF7C85532
100
AcDbEntity
  8
SUNPOU
 62
     0
100
AcDbLine
 10
91.94392341988759
 20
243.2131207358746
 30
0.0
 11
92.44749941727423
 21
241.0978110858908
 31
0.0
  0
ARC
  5
EF7C88788
330
EF7C85532
100
AcDbEntity
  8
JISSEN
100
AcDbCircle
 10
129.9283827585701
 20
108.8828534943815
 30
0.0
 40
31.74999999999946
100
AcDbArc
 50
260.1401566016418
 51
279.8445599177404
  0
CIRCLE
  5
EF7C8878B
330
EF7C85532
100
AcDbEntity
  8
JISSEN
100
AcDbCircle
 10
129.9229144438498
 20
67.88285349438211
 30
0.0
 40
11.81923343551325
  0
ARC
  5
EF7C8878F
330
EF7C85532
100
AcDbEntity
  8
JISSEN
100
AcDbCircle
 10
124.4059369557457
 20
77.10919943390511
 30
0.0
 40
0.5
100
AcDbArc
 50
80.14015660164201
 51
120.8776974040951
  0
ARC
  5
EF7C88790
330
EF7C85532
100
AcDbEntity
  8
JISSEN
100
AcDbCircle
 10
135.4423528362823
 20
77.10772746816317
 30
0.0
 40
0.5
100
AcDbArc
 50
59.10701911528728
 51
99.84455991774094
  0
CIRCLE
  5
EF7C888C7
330
EF7C85532
100
AcDbEntity
  8
JISSEN
100
AcDbCircle
 10
140.0443230447352
 20
78.03111844481017
 30
0.0
 40
2.00034002044333
  0
CIRCLE
  5
EF7C888C8
330
EF7C85532
100
AcDbEntity
  8
JISSEN
100
AcDbCircle
 10
140.0443230447352
 20
78.03111844481017
 30
0.0
 40
1.299999999999993
  0
CIRCLE
  5
EF7C888C9
330
EF7C85532
100
AcDbEntity
  8
JISSEN
100
AcDbCircle
 10
140.0443230447352
 20
78.03111844481017
 30
0.0
 40
0.9999999999999699
  0
CIRCLE
  5
EF7C888CA
330
EF7C85532
100
AcDbEntity
  8
JISSEN
100
AcDbCircle
 10
119.8015058429644
 20
78.03111844481017
 30
0.0
 40
2.00034002044333
  0
CIRCLE
  5
EF7C888CB
330
EF7C85532
100
AcDbEntity
  8
JISSEN
100
AcDbCircle
 10
119.8015058429644
 20
78.03111844481017
 30
0.0
 40
0.9999999999999699
  0
CIRCLE
  5
EF7C888CC
330
EF7C85532
100
AcDbEntity
  8
JISSEN
100
AcDbCircle
 10
119.8015058429644
 20
78.03111844481017
 30
0.0
 40
1.299999999999993
  0
ARC
  5
EF7C888CD
330
EF7C85532
100
AcDbEntity
  8
JISSEN
100
AcDbCircle
 10
129.9229144438498
 20
67.88285349438218
 30
0.0
 40
12.19999999999999
100
AcDbArc
 50
36.59248732551034
 51
143.4075126744896
  0
TEXT
  5
EF7C88B30
330
EF7C85532
100
AcDbEntity
  8
SUNPOU
100
AcDbText
 10
105.8614925505688
 20
2.849424071288353
 30
0.0
 40
3.0
  1
尺度　1/1
  7
K
100
AcDbText
  0
TEXT
  5
EF7C88B31
330
EF7C85532
100
AcDbEntity
  8
SUNPOU
100
AcDbText
 10
105.8614925505688
 20
7.849424071288353
 30
0.0
 40
3.0
  1
HFQR  -O シーリングプレート取付状態
  7
K
100
AcDbText
  0
LINE
  5
EF7C88B39
330
EF7C85532
100
AcDbEntity
  8
SUNPOU
100
AcDbLine
 10
119.8794795268224
 20
10.85062871545574
 30
0.0
 11
119.8794795268224
 21
7.850628715455741
 31
0.0
  0
LINE
  5
EF7C88B3A
330
EF7C85532
100
AcDbEntity
  8
SUNPOU
100
AcDbLine
 10
119.0794795268224
 20
10.85062871545574
 30
0.0
 11
119.0794795268224
 21
7.850628715455741
 31
0.0
  0
LINE
  5
EF7C88B3B
330
EF7C85532
100
AcDbEntity
  8
SUNPOU
100
AcDbLine
 10
118.5794795268224
 20
7.850628715455741
 30
0.0
 11
120.3794795268224
 21
7.850628715455741
 31
0.0
  0
LINE
  5
EF7C88B3C
330
EF7C85532
100
AcDbEntity
  8
SUNPOU
100
AcDbLine
 10
118.5794795268224
 20
10.85062871545574
 30
0.0
 11
120.3794795268224
 21
10.85062871545574
 31
0.0
  0
TEXT
  5
EF7C88C0A
330
EF7C85532
100
AcDbEntity
  8
TEXT
100
AcDbText
 10
102.2928566543063
 20
272.6428573425144
 30
0.0
 40
3.0
  1
HFQR  -O 型ヘッド
 41
0.75
  7
K
 72
     4
 11
116.4999995114491
 21
274.0000001996573
 31
0.0
100
AcDbText
  0
LINE
  5
EF7C88C0C
330
EF7C85532
100
AcDbEntity
  8
TEXT
100
AcDbLine
 10
112.8397267788122
 20
275.6440697296271
 30
0.0
 11
112.8397267788122
 21
272.6440697296272
 31
0.0
  0
LINE
  5
EF7C88C0D
330
EF7C85532
100
AcDbEntity
  8
TEXT
100
AcDbLine
 10
112.2397267788123
 20
275.6440697296271
 30
0.0
 11
112.2397267788123
 21
272.6440697296272
 31
0.0
  0
LINE
  5
EF7C88C1A
330
EF7C85532
100
AcDbEntity
  8
TEXT
100
AcDbLine
 10
111.7897267788122
 20
272.6440697296272
 30
0.0
 11
113.2897267788122
 21
272.6440697296272
 31
0.0
  0
LINE
  5
EF7C88C1C
330
EF7C85532
100
AcDbEntity
  8
TEXT
100
AcDbLine
 10
111.7897267788122
 20
275.6440697296271
 30
0.0
 11
113.2897267788122
 21
275.6440697296271
 31
0.0
  0
ENDSEC
  0
SECTION
  2
OBJECTS
  0
DICTIONARY
  5
EF7C85527
330
0
100
AcDbDictionary
  3
ACAD_GROUP
350
EF7C85528
  3
ACAD_LAYOUT
350
EF7C85BB7
  3
ACAD_MLINESTYLE
350
EF7C85535
  3
ACAD_PLOTSETTINGS
350
EF7C85BB8
  3
ACAD_PLOTSTYLENAME
350
EF7C85BB5
  3
ACDBHEADERROUNDTRIPXREC
350
EF7C88C2C
  3
ACDBVARIABLEDICTIONARY
350
EF7C85DB7
  0
DICTIONARY
  5
EF7C85D9A
330
EF7C85532
100
AcDbDictionary
280
     1
  3
ACAD_LAYOUTSELFREF
360
EF7C88C4E
  0
DICTIONARY
  5
EF7C85D98
330
EF7C8552F
100
AcDbDictionary
280
     1
  3
ACAD_LAYOUTSELFREF
360
EF7C88C4D
  0
DICTIONARY
  5
EF7C85528
102
{ACAD_REACTORS
330
EF7C85527
102
}
330
EF7C85527
100
AcDbDictionary
  0
DICTIONARY
  5
EF7C85BB7
102
{ACAD_REACTORS
330
EF7C85527
102
}
330
EF7C85527
100
AcDbDictionary
  0
DICTIONARY
  5
EF7C85535
102
{ACAD_REACTORS
330
EF7C85527
102
}
330
EF7C85527
100
AcDbDictionary
  3
STANDARD
350
EF7C85536
  0
DICTIONARY
  5
EF7C85BB8
102
{ACAD_REACTORS
330
EF7C85527
102
}
330
EF7C85527
100
AcDbDictionary
  0
ACDBDICTIONARYWDFLT
  5
EF7C85BB5
102
{ACAD_REACTORS
330
EF7C85527
102
}
330
EF7C85527
100
AcDbDictionary
281
     1
  3
Normal
350
EF7C85BB6
100
AcDbDictionaryWithDefault
340
EF7C85BB6
  0
DICTIONARY
  5
EF7C88C2C
102
{ACAD_REACTORS
330
EF7C85527
102
}
330
EF7C85527
100
AcDbDictionary
  3
CEPSNTYPE
350
EF7C88C36
  3
DIMSTYLEDATA
350
EF7C88C3A
  3
FINGERPRINTGUID
350
EF7C88C37
  3
HYPERLINKBASE
350
EF7C88C2F
  3
INSUNITS
350
EF7C88C35
  3
LAYOUTDICT
350
EF7C88C31
  3
LWETCUNION
350
EF7C88C34
  3
PLOTSETDICT
350
EF7C88C32
  3
PLOTSTYLNAMDICT
350
EF7C88C33
  3
PSVPSCALE
350
EF7C88C39
  3
PUCSBASE
350
EF7C88C3D
  3
PUCSORGBACK
350
EF7C88C43
  3
PUCSORGBOTTOM
350
EF7C88C3F
  3
PUCSORGFRONT
350
EF7C88C42
  3
PUCSORGLEFT
350
EF7C88C40
  3
PUCSORGRIGHT
350
EF7C88C41
  3
PUCSORGTOP
350
EF7C88C3E
  3
PUCSORTHOREF
350
EF7C88C3B
  3
PUCSORTHOVIEW
350
EF7C88C3C
  3
STYLESHEET
350
EF7C88C30
  3
TSTACKALIGN
350
EF7C88C2D
  3
TSTACKSIZE
350
EF7C88C2E
  3
UCSBASE
350
EF7C88C46
  3
UCSORGBACK
350
EF7C88C4C
  3
UCSORGBOTTOM
350
EF7C88C48
  3
UCSORGFRONT
350
EF7C88C4B
  3
UCSORGLEFT
350
EF7C88C49
  3
UCSORGRIGHT
350
EF7C88C4A
  3
UCSORGTOP
350
EF7C88C47
  3
UCSORTHOREF
350
EF7C88C44
  3
UCSORTHOVIEW
350
EF7C88C45
  3
VERSIONGUID
350
EF7C88C38
  0
DICTIONARY
  5
EF7C85DB7
102
{ACAD_REACTORS
330
EF7C85527
102
}
330
EF7C85527
100
AcDbDictionary
  3
DIMASSOC
350
EF7C888CF
  3
SORTENTS
350
EF7C85DB8
  0
XRECORD
  5
EF7C88C4E
102
{ACAD_REACTORS
330
EF7C85D9A
102
}
330
EF7C85D9A
100
AcDbXrecord
340
EF7C85532
  0
XRECORD
  5
EF7C88C4D
102
{ACAD_REACTORS
330
EF7C85D98
102
}
330
EF7C85D98
100
AcDbXrecord
340
EF7C8552F
  0
MLINESTYLE
  5
EF7C85536
102
{ACAD_REACTORS
330
EF7C85535
102
}
330
EF7C85535
100
AcDbMlineStyle
  2
STANDARD
 70
     0
  3

 62
   256
 51
90.0
 52
90.0
 71
     2
 49
0.5
 62
   256
  6
BYLAYER
 49
-0.5
 62
   256
  6
BYLAYER
  0
ACDBPLACEHOLDER
  5
EF7C85BB6
102
{ACAD_REACTORS
330
EF7C85BB5
102
}
330
EF7C85BB5
100
AcDbPlaceHolder
280
     0
  0
XRECORD
  5
EF7C88C36
102
{ACAD_REACTORS
330
EF7C88C2C
102
}
330
EF7C88C2C
100
AcDbXrecord
 90
        0
  0
XRECORD
  5
EF7C88C3A
102
{ACAD_REACTORS
330
EF7C88C2C
102
}
330
EF7C88C2C
100
AcDbXrecord
1000
DSTYLE
1002
{
1070
   279
 70
     2
1070
   341
340
EF7C85537
1070
   342
340
EF7C85537
1070
   343
340
EF7C85543
1070
   344
340
EF7C85543
1002
}
  0
XRECORD
  5
EF7C88C37
102
{ACAD_REACTORS
330
EF7C88C2C
102
}
330
EF7C88C2C
100
AcDbXrecord
  1
{09AA4C7A-3D6F-4857-A850-771461888CEC}
  0
XRECORD
  5
EF7C88C2F
102
{ACAD_REACTORS
330
EF7C88C2C
102
}
330
EF7C88C2C
100
AcDbXrecord
  1

  0
XRECORD
  5
EF7C88C35
102
{ACAD_REACTORS
330
EF7C88C2C
102
}
330
EF7C88C2C
100
AcDbXrecord
 90
        0
  0
XRECORD
  5
EF7C88C31
102
{ACAD_REACTORS
330
EF7C88C2C
102
}
330
EF7C88C2C
100
AcDbXrecord
340
EF7C85BB7
  0
XRECORD
  5
EF7C88C34
102
{ACAD_REACTORS
330
EF7C88C2C
102
}
330
EF7C88C2C
100
AcDbXrecord
 90
    14877
  0
XRECORD
  5
EF7C88C32
102
{ACAD_REACTORS
330
EF7C88C2C
102
}
330
EF7C88C2C
100
AcDbXrecord
340
EF7C85BB8
  0
XRECORD
  5
EF7C88C33
102
{ACAD_REACTORS
330
EF7C88C2C
102
}
330
EF7C88C2C
100
AcDbXrecord
340
EF7C85BB5
  0
XRECORD
  5
EF7C88C39
102
{ACAD_REACTORS
330
EF7C88C2C
102
}
330
EF7C88C2C
100
AcDbXrecord
 40
0.0
  0
XRECORD
  5
EF7C88C3D
102
{ACAD_REACTORS
330
EF7C88C2C
102
}
330
EF7C88C2C
100
AcDbXrecord
340
0
  0
XRECORD
  5
EF7C88C43
102
{ACAD_REACTORS
330
EF7C88C2C
102
}
330
EF7C88C2C
100
AcDbXrecord
 10
0.0
 20
0.0
 30
0.0
  0
XRECORD
  5
EF7C88C3F
102
{ACAD_REACTORS
330
EF7C88C2C
102
}
330
EF7C88C2C
100
AcDbXrecord
 10
0.0
 20
0.0
 30
0.0
  0
XRECORD
  5
EF7C88C42
102
{ACAD_REACTORS
330
EF7C88C2C
102
}
330
EF7C88C2C
100
AcDbXrecord
 10
0.0
 20
0.0
 30
0.0
  0
XRECORD
  5
EF7C88C40
102
{ACAD_REACTORS
330
EF7C88C2C
102
}
330
EF7C88C2C
100
AcDbXrecord
 10
0.0
 20
0.0
 30
0.0
  0
XRECORD
  5
EF7C88C41
102
{ACAD_REACTORS
330
EF7C88C2C
102
}
330
EF7C88C2C
100
AcDbXrecord
 10
0.0
 20
0.0
 30
0.0
  0
XRECORD
  5
EF7C88C3E
102
{ACAD_REACTORS
330
EF7C88C2C
102
}
330
EF7C88C2C
100
AcDbXrecord
 10
0.0
 20
0.0
 30
0.0
  0
XRECORD
  5
EF7C88C3B
102
{ACAD_REACTORS
330
EF7C88C2C
102
}
330
EF7C88C2C
100
AcDbXrecord
340
0
  0
XRECORD
  5
EF7C88C3C
102
{ACAD_REACTORS
330
EF7C88C2C
102
}
330
EF7C88C2C
100
AcDbXrecord
 70
     0
  0
XRECORD
  5
EF7C88C30
102
{ACAD_REACTORS
330
EF7C88C2C
102
}
330
EF7C88C2C
100
AcDbXrecord
  1

  0
XRECORD
  5
EF7C88C2D
102
{ACAD_REACTORS
330
EF7C88C2C
102
}
330
EF7C88C2C
100
AcDbXrecord
 90
        1
  0
XRECORD
  5
EF7C88C2E
102
{ACAD_REACTORS
330
EF7C88C2C
102
}
330
EF7C88C2C
100
AcDbXrecord
 90
       70
  0
XRECORD
  5
EF7C88C46
102
{ACAD_REACTORS
330
EF7C88C2C
102
}
330
EF7C88C2C
100
AcDbXrecord
340
0
  0
XRECORD
  5
EF7C88C4C
102
{ACAD_REACTORS
330
EF7C88C2C
102
}
330
EF7C88C2C
100
AcDbXrecord
 10
0.0
 20
0.0
 30
0.0
  0
XRECORD
  5
EF7C88C48
102
{ACAD_REACTORS
330
EF7C88C2C
102
}
330
EF7C88C2C
100
AcDbXrecord
 10
0.0
 20
0.0
 30
0.0
  0
XRECORD
  5
EF7C88C4B
102
{ACAD_REACTORS
330
EF7C88C2C
102
}
330
EF7C88C2C
100
AcDbXrecord
 10
0.0
 20
0.0
 30
0.0
  0
XRECORD
  5
EF7C88C49
102
{ACAD_REACTORS
330
EF7C88C2C
102
}
330
EF7C88C2C
100
AcDbXrecord
 10
0.0
 20
0.0
 30
0.0
  0
XRECORD
  5
EF7C88C4A
102
{ACAD_REACTORS
330
EF7C88C2C
102
}
330
EF7C88C2C
100
AcDbXrecord
 10
0.0
 20
0.0
 30
0.0
  0
XRECORD
  5
EF7C88C47
102
{ACAD_REACTORS
330
EF7C88C2C
102
}
330
EF7C88C2C
100
AcDbXrecord
 10
0.0
 20
0.0
 30
0.0
  0
XRECORD
  5
EF7C88C44
102
{ACAD_REACTORS
330
EF7C88C2C
102
}
330
EF7C88C2C
100
AcDbXrecord
340
0
  0
XRECORD
  5
EF7C88C45
102
{ACAD_REACTORS
330
EF7C88C2C
102
}
330
EF7C88C2C
100
AcDbXrecord
 70
     0
  0
XRECORD
  5
EF7C88C38
102
{ACAD_REACTORS
330
EF7C88C2C
102
}
330
EF7C88C2C
100
AcDbXrecord
  1
{9316DEA2-4972-4310-BEE1-3F3B7D01D333}
  0
DICTIONARYVAR
  5
EF7C888CF
102
{ACAD_REACTORS
330
EF7C85DB7
102
}
330
EF7C85DB7
100
DictionaryVariables
280
     0
  1
0
  0
DICTIONARYVAR
  5
EF7C85DB8
102
{ACAD_REACTORS
330
EF7C85DB7
102
}
330
EF7C85DB7
100
DictionaryVariables
280
     0
  1
96
  0
ENDSEC
  0
EOF
