  0
SECTION
  2
HEADER
  9
$ACADVER
  1
AC1014
  9
$ACADMAINTVER
 70
     9
  9
$DWGCODEPAGE
  3
ANSI_932
  9
$INSBASE
 10
0.0
 20
0.0
 30
0.0
  9
$EXTMIN
 10
-0.0165697806048684
 20
-0.01249599481514
 30
-0.0015258207003583
  9
$EXTMAX
 10
543.0165701491457
 20
409.5124979016983
 30
0.0000000349246037
  9
$LIMMIN
 10
0.0
 20
0.0
  9
$LIMMAX
 10
271.4999989199999
 20
409.4999999999999
  9
$ORTHOMODE
 70
     1
  9
$REGENMODE
 70
     1
  9
$FILLMODE
 70
     1
  9
$QTEXTMODE
 70
     0
  9
$MIRRTEXT
 70
     0
  9
$DRAGMODE
 70
     2
  9
$LTSCALE
 40
5.0
  9
$OSMODE
 70
   167
  9
$ATTMODE
 70
     1
  9
$TEXTSIZE
 40
4.5
  9
$TRACEWID
 40
0.05
  9
$TEXTSTYLE
  7
K
  9
$CLAYER
  8
JISSEN
  9
$CELTYPE
  6
BYLAYER
  9
$CECOLOR
 62
   256
  9
$CELTSCALE
 40
1.0
  9
$DELOBJ
 70
     1
  9
$DISPSILH
 70
     0
  9
$DIMSCALE
 40
1.5
  9
$DIMASZ
 40
3.0
  9
$DIMEXO
 40
0.75
  9
$DIMDLI
 40
6.0
  9
$DIMRND
 40
0.0
  9
$DIMDLE
 40
0.0
  9
$DIMEXE
 40
1.0
  9
$DIMTP
 40
495.0
  9
$DIMTM
 40
0.0
  9
$DIMTXT
 40
3.0
  9
$DIMCEN
 40
0.0
  9
$DIMTSZ
 40
0.0
  9
$DIMTOL
 70
     0
  9
$DIMLIM
 70
     0
  9
$DIMTIH
 70
     0
  9
$DIMTOH
 70
     0
  9
$DIMSE1
 70
     0
  9
$DIMSE2
 70
     0
  9
$DIMTAD
 70
     3
  9
$DIMZIN
 70
     8
  9
$DIMBLK
  1
ARROWANG
  9
$DIMASO
 70
     0
  9
$DIMSHO
 70
     0
  9
$DIMPOST
  1

  9
$DIMAPOST
  1

  9
$DIMALT
 70
     0
  9
$DIMALTD
 70
     2
  9
$DIMALTF
 40
25.4
  9
$DIMLFAC
 40
1.0
  9
$DIMTOFL
 70
     1
  9
$DIMTVP
 40
0.0
  9
$DIMTIX
 70
     1
  9
$DIMSOXD
 70
     0
  9
$DIMSAH
 70
     1
  9
$DIMBLK1
  1
ARROWANG
  9
$DIMBLK2
  1
ARROWANG
  9
$DIMSTYLE
  2
IMAO
  9
$DIMCLRD
 70
   256
  9
$DIMCLRE
 70
   256
  9
$DIMCLRT
 70
   256
  9
$DIMTFAC
 40
1.0
  9
$DIMGAP
 40
1.0
  9
$DIMJUST
 70
     0
  9
$DIMSD1
 70
     0
  9
$DIMSD2
 70
     0
  9
$DIMTOLJ
 70
     1
  9
$DIMTZIN
 70
     0
  9
$DIMALTZ
 70
     0
  9
$DIMALTTZ
 70
     0
  9
$DIMFIT
 70
     3
  9
$DIMUPT
 70
     0
  9
$DIMUNIT
 70
     2
  9
$DIMDEC
 70
     2
  9
$DIMTDEC
 70
     2
  9
$DIMALTU
 70
     2
  9
$DIMALTTD
 70
     2
  9
$DIMTXSTY
  7
K
  9
$DIMAUNIT
 70
     0
  9
$LUNITS
 70
     2
  9
$LUPREC
 70
     2
  9
$SKETCHINC
 40
0.1
  9
$FILLETRAD
 40
80.0
  9
$AUNITS
 70
     0
  9
$AUPREC
 70
     2
  9
$MENU
  1
STDR12J
  9
$ELEVATION
 40
0.0
  9
$PELEVATION
 40
0.0
  9
$THICKNESS
 40
0.0
  9
$LIMCHECK
 70
     0
  9
$BLIPMODE
 70
     0
  9
$CHAMFERA
 40
0.0
  9
$CHAMFERB
 40
0.0
  9
$CHAMFERC
 40
0.0
  9
$CHAMFERD
 40
0.0
  9
$SKPOLY
 70
     0
  9
$TDCREATE
 40
2450694.750535185
  9
$TDUPDATE
 40
2453334.739677314
  9
$TDINDWG
 40
0.1355483565
  9
$TDUSRTIMER
 40
0.1355483565
  9
$USRTIMER
 70
     1
  9
$ANGBASE
 50
0.0
  9
$ANGDIR
 70
     0
  9
$PDMODE
 70
     0
  9
$PDSIZE
 40
0.0
  9
$PLINEWID
 40
0.0
  9
$COORDS
 70
     2
  9
$SPLFRAME
 70
     0
  9
$SPLINETYPE
 70
     6
  9
$SPLINESEGS
 70
     8
  9
$ATTDIA
 70
     0
  9
$ATTREQ
 70
     1
  9
$HANDLING
 70
 22529
  9
$HANDSEED
  5
3183383C
  9
$SURFTAB1
 70
     6
  9
$SURFTAB2
 70
     6
  9
$SURFTYPE
 70
     6
  9
$SURFU
 70
     6
  9
$SURFV
 70
     6
  9
$UCSNAME
  2

  9
$UCSORG
 10
0.0
 20
0.0
 30
0.0
  9
$UCSXDIR
 10
1.0
 20
0.0
 30
0.0
  9
$UCSYDIR
 10
0.0
 20
1.0
 30
0.0
  9
$PUCSNAME
  2

  9
$PUCSORG
 10
0.0
 20
0.0
 30
0.0
  9
$PUCSXDIR
 10
1.0
 20
0.0
 30
0.0
  9
$PUCSYDIR
 10
0.0
 20
1.0
 30
0.0
  9
$USERI1
 70
     4
  9
$USERI2
 70
     1
  9
$USERI3
 70
     1
  9
$USERI4
 70
     1
  9
$USERI5
 70
     1
  9
$USERR1
 40
1.0
  9
$USERR2
 40
3.0
  9
$USERR3
 40
3.0
  9
$USERR4
 40
1.5
  9
$USERR5
 40
10.0
  9
$WORLDVIEW
 70
     1
  9
$SHADEDGE
 70
     3
  9
$SHADEDIF
 70
    70
  9
$TILEMODE
 70
     1
  9
$MAXACTVP
 70
    16
  9
$PINSBASE
 10
0.0
 20
0.0
 30
0.0
  9
$PLIMCHECK
 70
     0
  9
$PEXTMIN
 10
1.000000000000000E+20
 20
1.000000000000000E+20
 30
1.000000000000000E+20
  9
$PEXTMAX
 10
-1.000000000000000E+20
 20
-1.000000000000000E+20
 30
-1.000000000000000E+20
  9
$PLIMMIN
 10
0.0
 20
0.0
  9
$PLIMMAX
 10
12.0
 20
9.0
  9
$UNITMODE
 70
     0
  9
$VISRETAIN
 70
     0
  9
$PLINEGEN
 70
     0
  9
$PSLTSCALE
 70
     0
  9
$TREEDEPTH
 70
     0
  9
$PICKSTYLE
 70
     1
  9
$CMLSTYLE
  2
STANDARD
  9
$CMLJUST
 70
     0
  9
$CMLSCALE
 40
1.0
  9
$PROXYGRAPHICS
 70
     1
  9
$MEASUREMENT
 70
     0
  0
ENDSEC
  0
SECTION
  2
CLASSES
  0
CLASS
  1
LWPOLYLINE
  2
AcDbPolyline
  3
AutoCAD 2000
 90
        0
280
     0
281
     1
  0
CLASS
  1
ACDBDICTIONARYWDFLT
  2
AcDbDictionaryWithDefault
  3
AutoCAD 2000
 90
        0
280
     0
281
     0
  0
CLASS
  1
ACDBPLACEHOLDER
  2
AcDbPlaceHolder
  3
AutoCAD 2000
 90
        0
280
     0
281
     0
  0
CLASS
  1
LAYOUT
  2
AcDbLayout
  3
AutoCAD 2000
 90
        0
280
     0
281
     0
  0
CLASS
  1
LONG_TRANSACTION
  2
AcDbLongTransaction
  3
AutoCAD 2000
 90
        0
280
     0
281
     0
  0
CLASS
  1
LWPOLYLINE
  2
AcDbPolyline
  3
AutoCAD 2000
 90
        0
280
     0
281
     1
  0
CLASS
  1
HATCH
  2
AcDbHatch
  3
AutoCAD 2000
 90
        0
280
     0
281
     1
  0
CLASS
  1
XRECORD
  2
AcDbXrecord
  3
AutoCAD 2000
 90
        0
280
     0
281
     0
  0
CLASS
  1
LONG_TRANSACTION
  2
AcDbLongTransaction
  3
AutoCAD 2000
 90
        0
280
     0
281
     0
  0
CLASS
  1
LWPOLYLINE
  2
AcDbPolyline
  3
AutoCAD 2000
 90
        0
280
     0
281
     1
  0
CLASS
  1
HATCH
  2
AcDbHatch
  3
AutoCAD 2000
 90
        0
280
     0
281
     1
  0
CLASS
  1
XRECORD
  2
AcDbXrecord
  3
AutoCAD 2000
 90
        0
280
     0
281
     0
  0
CLASS
  1
DICTIONARYVAR
  2
AcDbDictionaryVar
  3
AutoCAD 2000
 90
        0
280
     0
281
     0
  0
CLASS
  1
LONG_TRANSACTION
  2
AcDbLongTransaction
  3
AutoCAD 2000
 90
        0
280
     0
281
     0
  0
CLASS
  1
LWPOLYLINE
  2
AcDbPolyline
  3
AutoCAD 2000
 90
        0
280
     0
281
     1
  0
CLASS
  1
HATCH
  2
AcDbHatch
  3
AutoCAD 2000
 90
        0
280
     0
281
     1
  0
CLASS
  1
XRECORD
  2
AcDbXrecord
  3
AutoCAD 2000
 90
        0
280
     0
281
     0
  0
CLASS
  1
LONG_TRANSACTION
  2
AcDbLongTransaction
  3
AutoCAD 2000
 90
        0
280
     0
281
     0
  0
CLASS
  1
LWPOLYLINE
  2
AcDbPolyline
  3
AutoCAD 2000
 90
        0
280
     0
281
     1
  0
CLASS
  1
HATCH
  2
AcDbHatch
  3
AutoCAD 2000
 90
        0
280
     0
281
     1
  0
CLASS
  1
XRECORD
  2
AcDbXrecord
  3
AutoCAD 2000
 90
        0
280
     0
281
     0
  0
ENDSEC
  0
SECTION
  2
TABLES
  0
TABLE
  2
VPORT
  5
3183249F
330
0
100
AcDbSymbolTable
 70
    10
  0
VPORT
  5
318324C3
330
3183249F
100
AcDbSymbolTableRecord
100
AcDbViewportTableRecord
  2
2
 70
     0
 10
0.5
 20
0.0
 11
1.0
 21
1.0
 12
0.9240312421264802
 22
1.052650975462766
 13
0.0
 23
0.0
 14
1.0
 24
1.0
 15
10.0
 25
10.0
 16
0.0
 26
0.0
 36
1.0
 17
0.0
 27
0.0
 37
0.0
 40
2.105301950925533
 41
0.8778135048231511
 42
50.0
 43
0.0
 44
0.0
 50
0.0
 51
0.0
 71
     0
 72
   500
 73
     1
 74
     1
 75
     0
 76
     0
 77
     0
 78
     0
  0
VPORT
  5
318324C4
330
3183249F
100
AcDbSymbolTableRecord
100
AcDbViewportTableRecord
  2
2
 70
     0
 10
0.0
 20
0.0
 11
0.5
 21
1.0
 12
0.9240312421264802
 22
1.052650975462766
 13
0.0
 23
0.0
 14
1.0
 24
1.0
 15
10.0
 25
10.0
 16
0.0
 26
0.0
 36
1.0
 17
0.0
 27
0.0
 37
0.0
 40
2.105301950925533
 41
0.8778135048231511
 42
50.0
 43
0.0
 44
0.0
 50
0.0
 51
0.0
 71
     0
 72
   500
 73
     1
 74
     1
 75
     0
 76
     0
 77
     0
 78
     0
  0
VPORT
  5
318324C5
330
3183249F
100
AcDbSymbolTableRecord
100
AcDbViewportTableRecord
  2
3
 70
     0
 10
0.0
 20
0.5
 11
1.0
 21
1.0
 12
2.832169994473273
 22
1.052650975462766
 13
0.0
 23
0.0
 14
1.0
 24
1.0
 15
10.0
 25
10.0
 16
0.0
 26
0.0
 36
1.0
 17
0.0
 27
0.0
 37
0.0
 40
2.105301950925533
 41
3.571428571428571
 42
50.0
 43
0.0
 44
0.0
 50
0.0
 51
0.0
 71
     0
 72
   500
 73
     1
 74
     1
 75
     0
 76
     0
 77
     0
 78
     0
  0
VPORT
  5
318324C6
330
3183249F
100
AcDbSymbolTableRecord
100
AcDbViewportTableRecord
  2
3
 70
     0
 10
0.0
 20
0.0
 11
1.0
 21
0.5
 12
2.856741679241311
 22
1.052650975462766
 13
0.0
 23
0.0
 14
1.0
 24
1.0
 15
10.0
 25
10.0
 16
0.0
 26
0.0
 36
1.0
 17
0.0
 27
0.0
 37
0.0
 40
2.105301950925533
 41
3.594771241830065
 42
50.0
 43
0.0
 44
0.0
 50
0.0
 51
0.0
 71
     0
 72
   500
 73
     1
 74
     1
 75
     0
 76
     0
 77
     0
 78
     0
  0
VPORT
  5
318324C7
330
3183249F
100
AcDbSymbolTableRecord
100
AcDbViewportTableRecord
  2
4
 70
     0
 10
0.5
 20
0.0
 11
1.0
 21
0.5
 12
2.886857516709719
 22
1.052650975462766
 13
0.0
 23
0.0
 14
1.0
 24
1.0
 15
10.0
 25
10.0
 16
0.0
 26
0.0
 36
1.0
 17
0.0
 27
0.0
 37
0.0
 40
4.27520703030907
 41
1.784313725490195
 42
50.0
 43
0.0
 44
0.0
 50
0.0
 51
0.0
 71
     0
 72
   500
 73
     1
 74
     1
 75
     0
 76
     0
 77
     0
 78
     0
  0
VPORT
  5
318324C8
330
3183249F
100
AcDbSymbolTableRecord
100
AcDbViewportTableRecord
  2
4
 70
     0
 10
0.5
 20
0.5
 11
1.0
 21
1.0
 12
2.862090274555523
 22
1.052650975462766
 13
0.0
 23
0.0
 14
1.0
 24
1.0
 15
10.0
 25
10.0
 16
0.0
 26
0.0
 36
1.0
 17
0.0
 27
0.0
 37
0.0
 40
4.27520703030907
 41
1.772727272727272
 42
50.0
 43
0.0
 44
0.0
 50
0.0
 51
0.0
 71
     0
 72
   500
 73
     1
 74
     1
 75
     0
 76
     0
 77
     0
 78
     0
  0
VPORT
  5
318324C9
330
3183249F
100
AcDbSymbolTableRecord
100
AcDbViewportTableRecord
  2
4
 70
     0
 10
0.0
 20
0.5
 11
0.5
 21
1.0
 12
2.862090274555523
 22
1.052650975462766
 13
0.0
 23
0.0
 14
1.0
 24
1.0
 15
10.0
 25
10.0
 16
0.0
 26
0.0
 36
1.0
 17
0.0
 27
0.0
 37
0.0
 40
4.27520703030907
 41
1.772727272727272
 42
50.0
 43
0.0
 44
0.0
 50
0.0
 51
0.0
 71
     0
 72
   500
 73
     1
 74
     1
 75
     0
 76
     0
 77
     0
 78
     0
  0
VPORT
  5
318324CA
330
3183249F
100
AcDbSymbolTableRecord
100
AcDbViewportTableRecord
  2
4
 70
     0
 10
0.0
 20
0.0
 11
0.5
 21
0.5
 12
2.886857516709719
 22
1.052650975462766
 13
0.0
 23
0.0
 14
1.0
 24
1.0
 15
10.0
 25
10.0
 16
0.0
 26
0.0
 36
1.0
 17
0.0
 27
0.0
 37
0.0
 40
4.27520703030907
 41
1.784313725490195
 42
50.0
 43
0.0
 44
0.0
 50
0.0
 51
0.0
 71
     0
 72
   500
 73
     1
 74
     1
 75
     0
 76
     0
 77
     0
 78
     0
  0
VPORT
  5
31833818
330
3183249F
100
AcDbSymbolTableRecord
100
AcDbViewportTableRecord
  2
*ACTIVE
 70
     0
 10
0.0
 20
0.0
 11
1.0
 21
1.0
 12
271.5000001842704
 22
204.7500009534416
 13
0.0
 23
0.0
 14
1.0
 24
1.0
 15
10.0
 25
10.0
 16
0.0
 26
0.0
 36
1.0
 17
0.0
 27
0.0
 37
0.0
 40
414.1092289028177
 41
1.771962616822429
 42
50.0
 43
0.0
 44
0.0
 50
0.0
 51
0.0
 71
     0
 72
   500
 73
     1
 74
     0
 75
     0
 76
     0
 77
     0
 78
     0
  0
ENDTAB
  0
TABLE
  2
LTYPE
  5
3183249C
330
0
100
AcDbSymbolTable
 70
     3
  0
LTYPE
  5
318324A9
330
3183249C
100
AcDbSymbolTableRecord
100
AcDbLinetypeTableRecord
  2
BYBLOCK
 70
     0
  3

 72
    65
 73
     0
 40
0.0
  0
LTYPE
  5
318324AA
330
3183249C
100
AcDbSymbolTableRecord
100
AcDbLinetypeTableRecord
  2
BYLAYER
 70
     0
  3

 72
    65
 73
     0
 40
0.0
  0
LTYPE
  5
318324AB
330
3183249C
100
AcDbSymbolTableRecord
100
AcDbLinetypeTableRecord
  2
CONTINUOUS
 70
     0
  3
実線
 72
    65
 73
     0
 40
0.0
  0
LTYPE
  5
318324C0
330
3183249C
100
AcDbSymbolTableRecord
100
AcDbLinetypeTableRecord
  2
CENTER
 70
     0
  3
____ _ ____ _ ____ _ ____ _ ____ _ ____ _ ____
 72
    65
 73
     4
 40
2.0
 49
1.25
 74
     0
 49
-0.25
 74
     0
 49
0.25
 74
     0
 49
-0.25
 74
     0
  0
LTYPE
  5
318324C1
330
3183249C
100
AcDbSymbolTableRecord
100
AcDbLinetypeTableRecord
  2
PHANTOM
 70
     0
  3
_____ _ _ _____ _ _ _____ _ _ _____ _ _ ____
 72
    65
 73
     6
 40
2.5
 49
1.25
 74
     0
 49
-0.25
 74
     0
 49
0.25
 74
     0
 49
-0.25
 74
     0
 49
0.25
 74
     0
 49
-0.25
 74
     0
  0
ENDTAB
  0
TABLE
  2
LAYER
  5
31832499
330
0
100
AcDbSymbolTable
 70
     9
  0
LAYER
  5
318324A6
330
31832499
100
AcDbSymbolTableRecord
100
AcDbLayerTableRecord
  2
0
 70
     0
 62
     7
  6
CONTINUOUS
  0
LAYER
  5
318324CF
330
31832499
100
AcDbSymbolTableRecord
100
AcDbLayerTableRecord
  2
ITTEN
 70
     0
 62
     1
  6
CENTER
  0
LAYER
  5
318324D0
330
31832499
100
AcDbSymbolTableRecord
100
AcDbLayerTableRecord
  2
NITEN
 70
     0
 62
     2
  6
PHANTOM
  0
LAYER
  5
318324D1
330
31832499
100
AcDbSymbolTableRecord
100
AcDbLayerTableRecord
  2
HATCH
 70
     0
 62
     4
  6
CONTINUOUS
  0
LAYER
  5
318324D2
330
31832499
100
AcDbSymbolTableRecord
100
AcDbLayerTableRecord
  2
SUNPOU
 70
     0
 62
     3
  6
CONTINUOUS
  0
LAYER
  5
318324D4
330
31832499
100
AcDbSymbolTableRecord
100
AcDbLayerTableRecord
  2
SAISEN
 70
     0
 62
     4
  6
CONTINUOUS
  0
LAYER
  5
318324D5
330
31832499
100
AcDbSymbolTableRecord
100
AcDbLayerTableRecord
  2
JISSEN
 70
     0
 62
     7
  6
CONTINUOUS
  0
LAYER
  5
318324D9
330
31832499
100
AcDbSymbolTableRecord
100
AcDbLayerTableRecord
  2
WAKU
 70
     0
 62
     5
  6
CONTINUOUS
  0
LAYER
  5
31832D29
330
31832499
100
AcDbSymbolTableRecord
100
AcDbLayerTableRecord
  2
TEXT
 70
     0
 62
     3
  6
CONTINUOUS
  0
ENDTAB
  0
TABLE
  2
STYLE
  5
3183249A
330
0
100
AcDbSymbolTable
 70
     2
  0
STYLE
  5
318324A7
330
3183249A
100
AcDbSymbolTableRecord
100
AcDbTextStyleTableRecord
  2
STANDARD
 70
     0
 40
0.0
 41
1.0
 50
0.0
 71
     0
 42
0.2
  3
ROMANS
  4
EXTFONT
  0
STYLE
  5
318324BE
330
3183249A
100
AcDbSymbolTableRecord
100
AcDbTextStyleTableRecord
  2
K
 70
     0
 40
0.0
 41
1.0
 50
0.0
 71
     0
 42
4.5
  3
ROMANS.shx
  4
bigfont.shx
  0
ENDTAB
  0
TABLE
  2
VIEW
  5
3183249D
330
0
100
AcDbSymbolTable
 70
     0
  0
ENDTAB
  0
TABLE
  2
UCS
  5
3183249E
330
0
100
AcDbSymbolTable
 70
     0
  0
ENDTAB
  0
TABLE
  2
APPID
  5
318324A0
330
0
100
AcDbSymbolTable
 70
     1
  0
APPID
  5
318324A8
330
318324A0
100
AcDbSymbolTableRecord
100
AcDbRegAppTableRecord
  2
ACAD
 70
     0
  0
ENDTAB
  0
TABLE
  2
DIMSTYLE
  5
318324A1
330
0
100
AcDbSymbolTable
 70
     1
  0
DIMSTYLE
105
318324CD
330
318324A1
100
AcDbSymbolTableRecord
100
AcDbDimStyleTableRecord
  2
IMAO
 70
     0
  3

  4

  5
ARROWANG
  6
ARROWANG
  7
ARROWANG
 40
1.0
 41
1.5
 42
0.75
 43
6.0
 44
1.0
 45
0.0
 46
0.0
 47
495.0
 48
0.0
140
3.0
141
0.0
142
0.0
143
25.4
144
1.0
145
0.0
146
1.0
147
1.0
 71
     0
 72
     0
 73
     0
 74
     0
 75
     0
 76
     0
 77
     3
 78
     8
170
     0
171
     2
172
     1
173
     1
174
     1
175
     0
176
   256
177
   256
178
   256
270
     2
271
     2
272
     2
273
     2
274
     2
340
318324BE
275
     0
280
     0
281
     0
282
     0
283
     1
284
     0
285
     0
286
     0
287
     3
288
     0
  0
ENDTAB
  0
TABLE
  2
BLOCK_RECORD
  5
31832498
330
0
100
AcDbSymbolTable
 70
     1
  0
BLOCK_RECORD
  5
318324AF
102
{ACAD_XDICTIONARY
360
3183377C
102
}
330
31832498
100
AcDbSymbolTableRecord
100
AcDbBlockTableRecord
  2
*MODEL_SPACE
  0
BLOCK_RECORD
  5
318324AC
102
{ACAD_XDICTIONARY
360
3183377A
102
}
330
31832498
100
AcDbSymbolTableRecord
100
AcDbBlockTableRecord
  2
*PAPER_SPACE
  0
BLOCK_RECORD
  5
318324B9
330
31832498
100
AcDbSymbolTableRecord
100
AcDbBlockTableRecord
  2
ARROWANG
  0
ENDTAB
  0
ENDSEC
  0
SECTION
  2
BLOCKS
  0
BLOCK
  5
318324DE
330
318324AF
100
AcDbEntity
  8
0
100
AcDbBlockBegin
  2
*MODEL_SPACE
 70
     0
 10
0.0
 20
0.0
 30
0.0
  3
*MODEL_SPACE
  1

  0
ENDBLK
  5
318324DF
330
318324AF
100
AcDbEntity
  8
0
100
AcDbBlockEnd
  0
BLOCK
  5
318324DC
330
318324AC
100
AcDbEntity
 67
     1
  8
0
100
AcDbBlockBegin
  2
*PAPER_SPACE
 70
     0
 10
0.0
 20
0.0
 30
0.0
  3
*PAPER_SPACE
  1

  0
ENDBLK
  5
318324DD
330
318324AC
100
AcDbEntity
 67
     1
  8
0
100
AcDbBlockEnd
  0
BLOCK
  5
1D
330
318324B9
100
AcDbEntity
  8
0
100
AcDbBlockBegin
  2
ARROWANG
 70
     0
 10
0.0
 20
0.0
 30
0.0
  3
ARROWANG
  1

  0
LINE
  5
1E
330
318324B9
100
AcDbEntity
  8
SUNPOU
100
AcDbLine
 10
0.0
 20
0.0
 30
0.0
 11
-1.499999999999957
 21
0.4019237886467409
 31
0.0
  0
LINE
  5
1F
330
318324B9
100
AcDbEntity
  8
SUNPOU
100
AcDbLine
 10
0.0
 20
0.0
 30
0.0
 11
-1.500000000000028
 21
-0.4019237886467124
 31
0.0
  0
ENDBLK
  5
20
330
318324B9
100
AcDbEntity
  8
0
100
AcDbBlockEnd
  0
ENDSEC
  0
SECTION
  2
ENTITIES
  0
LWPOLYLINE
  5
31832938
330
318324AF
100
AcDbEntity
  8
WAKU
100
AcDbPolyline
 90
        4
 70
     1
 43
0.0
 10
0.0
 20
0.0
 10
271.4999989199999
 20
0.0
 10
271.4999989199999
 20
409.4999999999999
 10
0.0
 20
409.4999999999999
  0
LINE
  5
31832B2D
330
318324AF
100
AcDbEntity
  8
JISSEN
100
AcDbLine
 10
114.7550292086266
 20
136.5782975676541
 30
0.0
 11
96.85736329884093
 21
136.5782975676539
 31
0.0
  0
LINE
  5
31832B2E
330
318324AF
100
AcDbEntity
  8
JISSEN
100
AcDbLine
 10
116.4548500387331
 20
137.2443865186229
 30
0.0
 11
95.15754246873404
 21
137.2443865186229
 31
0.0
  0
TEXT
  5
31832B30
330
318324AF
100
AcDbEntity
  8
SUNPOU
100
AcDbText
 10
144.1532210273097
 20
70.03203095278793
 30
0.0
 40
4.5
  1
%%u   50mm刻みを基本とする。
  7
K
 72
     4
 11
182.5425067415953
 21
71.83203095278793
 31
0.0
100
AcDbText
  0
LWPOLYLINE
  5
31832B33
330
318324AF
100
AcDbEntity
  8
SUNPOU
100
AcDbPolyline
 90
        3
 70
     0
 43
0.0
 10
53.55560479017377
 20
323.8948639469173
 10
52.34983342423354
 20
328.3948639469172
 10
51.14406205829346
 20
323.8948639469171
  0
LWPOLYLINE
  5
31832B34
330
318324AF
100
AcDbEntity
  8
SUNPOU
100
AcDbPolyline
 90
        3
 70
     0
 43
0.0
 10
53.55560479017377
 20
148.5036552258023
 10
52.34983342423354
 20
144.0036552258024
 10
51.14406205829346
 20
148.5036552258025
  0
ARC
  5
31832B35
330
318324AF
100
AcDbEntity
  8
JISSEN
100
AcDbCircle
 10
120.961640819961
 20
281.0134659493256
 30
0.0
 40
13.26041666666633
100
AcDbArc
 50
67.60624878671338
 51
112.3937512132864
  0
ARC
  5
31832B36
330
318324AF
100
AcDbEntity
  8
JISSEN
100
AcDbCircle
 10
121.8061962537335
 20
295.2488517757169
 30
0.0
 40
1.0
100
AcDbArc
 50
180.0
 51
266.604741986967
  0
ARC
  5
31832B37
330
318324AF
100
AcDbEntity
  8
JISSEN
100
AcDbCircle
 10
90.65075168750599
 20
281.0134659493256
 30
0.0
 40
13.26041666666633
100
AcDbArc
 50
93.39525801303311
 51
112.3937512132864
  0
ARC
  5
31832B38
330
318324AF
100
AcDbEntity
  8
JISSEN
100
AcDbCircle
 10
89.80619625373355
 20
295.2488517757169
 30
0.0
 40
1.0
100
AcDbArc
 50
273.3952580130327
 51
0.0
  0
LINE
  5
31832B39
330
318324AF
100
AcDbEntity
  8
JISSEN
100
AcDbLine
 10
85.59893683209679
 20
293.2738826159919
 30
0.0
 11
85.59893683209679
 21
285.2738826159919
 31
0.0
  0
LINE
  5
31832B3A
330
318324AF
100
AcDbEntity
  8
JISSEN
100
AcDbLine
 10
126.0134556753706
 20
293.2738826159919
 30
0.0
 11
126.0134556753706
 21
285.2738826159919
 31
0.0
  0
LINE
  5
31832B3B
330
318324AF
100
AcDbEntity
  8
JISSEN
100
AcDbLine
 10
95.70256654291529
 20
293.2738826159919
 30
0.0
 11
95.70256654291529
 21
285.2738826159919
 31
0.0
  0
LINE
  5
31832B3C
330
318324AF
100
AcDbEntity
  8
JISSEN
100
AcDbLine
 10
115.9098259645521
 20
293.2738826159919
 30
0.0
 11
115.9098259645521
 21
285.2738826159919
 31
0.0
  0
ARC
  5
31832B3D
330
318324AF
100
AcDbEntity
  8
JISSEN
100
AcDbCircle
 10
105.8061962537336
 20
335.8155492826555
 30
0.0
 40
51.54166666666362
100
AcDbArc
 50
258.6951947225246
 51
281.3048052774753
  0
ARC
  5
31832B3E
330
318324AF
100
AcDbEntity
  8
JISSEN
100
AcDbCircle
 10
105.8061962537336
 20
242.7322159493283
 30
0.0
 40
51.54166666666362
100
AcDbArc
 50
78.69519472252463
 51
101.3048052774753
  0
LINE
  5
31832B3F
330
318324AF
100
AcDbEntity
  8
JISSEN
100
AcDbLine
 10
115.9098259645521
 20
284.2738826159919
 30
0.0
 11
95.70256654291529
 21
284.2738826159919
 31
0.0
  0
LINE
  5
31832B40
330
318324AF
100
AcDbEntity
  8
JISSEN
100
AcDbLine
 10
115.9098259645521
 20
294.2738826159919
 30
0.0
 11
95.70256654291529
 21
294.2738826159919
 31
0.0
  0
ARC
  5
31832B41
330
318324AF
100
AcDbEntity
  8
JISSEN
100
AcDbCircle
 10
90.65075168750599
 20
281.0134659493256
 30
0.0
 40
13.26041666666633
100
AcDbArc
 50
67.60624878671229
 51
89.99999999999939
  0
ARC
  5
31832B42
330
318324AF
100
AcDbEntity
  8
JISSEN
100
AcDbCircle
 10
90.65075168750604
 20
297.5342992826586
 30
0.0
 40
13.26041666666662
100
AcDbArc
 50
247.6062487867135
 51
292.3937512132862
  0
ARC
  5
31832B43
330
318324AF
100
AcDbEntity
  8
JISSEN
100
AcDbCircle
 10
120.9616408199614
 20
297.5342992826586
 30
0.0
 40
13.26041666666662
100
AcDbArc
 50
247.6062487867135
 51
292.3937512132862
  0
LINE
  5
31832B44
330
318324AF
100
AcDbEntity
  8
JISSEN
100
AcDbLine
 10
95.70256654291529
 20
284.2738826159919
 30
0.0
 11
90.65075168750604
 21
284.2738826159919
 31
0.0
  0
LINE
  5
31832B45
330
318324AF
100
AcDbEntity
  8
JISSEN
100
AcDbLine
 10
95.70256654291529
 20
294.2738826159919
 30
0.0
 11
90.65075168750604
 21
294.2738826159919
 31
0.0
  0
LINE
  5
31832B46
330
318324AF
100
AcDbEntity
  8
JISSEN
100
AcDbLine
 10
120.9616408199614
 20
294.2738826159919
 30
0.0
 11
115.9098259645521
 21
294.2738826159919
 31
0.0
  0
LINE
  5
31832B47
330
318324AF
100
AcDbEntity
  8
JISSEN
100
AcDbLine
 10
120.9616408199614
 20
284.2738826159919
 30
0.0
 11
115.9098259645521
 21
284.2738826159919
 31
0.0
  0
LINE
  5
31832B48
330
318324AF
100
AcDbEntity
  8
SUNPOU
100
AcDbLine
 10
52.34983342423356
 20
328.3948639469172
 30
0.0
 11
52.34983342423351
 21
144.0036552258024
 31
0.0
  0
LINE
  5
31832B49
330
318324AF
100
AcDbEntity
  8
SUNPOU
100
AcDbLine
 10
91.3061962537334
 20
144.0036552258024
 30
0.0
 11
50.34983342423356
 21
144.0036552258024
 31
0.0
  0
LINE
  5
31832B4A
330
318324AF
100
AcDbEntity
  8
SUNPOU
100
AcDbLine
 10
92.30619625373355
 20
328.3948639469172
 30
0.0
 11
50.34983342423356
 21
328.3948639469172
 31
0.0
  0
LINE
  5
31832B4D
330
318324AF
100
AcDbEntity
  8
JISSEN
100
AcDbLine
 10
101.2452583543557
 20
135.0782975676539
 30
0.0
 11
96.85736329884093
 21
135.0782975676539
 31
0.0
  0
LINE
  5
31832B4E
330
318324AF
100
AcDbEntity
  8
JISSEN
100
AcDbLine
 10
96.85736329884093
 20
134.8810339456839
 30
0.0
 11
96.85736329884093
 21
136.5782975676539
 31
0.0
  0
LINE
  5
31832B4F
330
318324AF
100
AcDbEntity
  8
JISSEN
100
AcDbLine
 10
96.85736329884093
 20
136.5782975676539
 30
0.0
 11
95.15414638600304
 21
137.2457173019288
 31
0.0
  0
LINE
  5
31832B50
330
318324AF
100
AcDbEntity
  8
JISSEN
100
AcDbLine
 10
95.15754246873404
 20
137.2443865186229
 30
0.0
 11
95.35143508211803
 21
143.4486400922409
 31
0.0
  0
LINE
  5
31832B51
330
318324AF
100
AcDbEntity
  8
JISSEN
100
AcDbLine
 10
110.3671341531114
 20
135.0782975676539
 30
0.0
 11
114.7550292086261
 21
135.0782975676539
 31
0.0
  0
LINE
  5
31832B52
330
318324AF
100
AcDbEntity
  8
JISSEN
100
AcDbLine
 10
114.7550292086261
 20
136.5782975676539
 30
0.0
 11
116.458246121464
 21
137.2457173019288
 31
0.0
  0
LINE
  5
31832B53
330
318324AF
100
AcDbEntity
  8
JISSEN
100
AcDbLine
 10
114.7550292086261
 20
134.8810339456839
 30
0.0
 11
114.7550292086261
 21
136.5782975676539
 31
0.0
  0
MTEXT
  5
31832B54
330
318324AF
100
AcDbEntity
  8
SUNPOU
100
AcDbMText
 10
47.62159168675451
 20
236.1992595863598
 30
0.0
 40
6.0
 41
0.0
 71
     5
 72
     1
  1
L
  7
K
 11
0.0000000000000001
 21
1.0
 31
0.0
1001
ACAD
1000
MTEXTBEGIN
1070
    73
1070
     1
1070
    44
1040
1.0
1070
    74
1070
     0
1000
MTEXTEND
  0
LINE
  5
31832B55
330
318324AF
100
AcDbEntity
  8
JISSEN
100
AcDbLine
 10
92.3061962537335
 20
144.4486400922411
 30
0.0
 11
92.3061962537335
 21
147.0036552258024
 31
0.0
  0
LINE
  5
31832B56
330
318324AF
100
AcDbEntity
  8
JISSEN
100
AcDbLine
 10
119.3061962537335
 20
162.0036552258024
 30
0.0
 11
119.3061962537335
 21
222.948640092241
 31
0.0
  0
LINE
  5
31832B57
330
318324AF
100
AcDbEntity
  8
JISSEN
100
AcDbLine
 10
93.30619625373339
 20
143.4486400922409
 30
0.0
 11
118.3061962537333
 21
143.4486400922408
 31
0.0
  0
LINE
  5
31832B58
330
318324AF
100
AcDbEntity
  8
JISSEN
100
AcDbLine
 10
119.3061962537334
 20
144.4486400922409
 30
0.0
 11
118.3061962537334
 21
143.4486400922409
 31
0.0
  0
LINE
  5
31832B59
330
318324AF
100
AcDbEntity
  8
JISSEN
100
AcDbLine
 10
93.30619625373339
 20
143.4486400922409
 30
0.0
 11
92.30619625373339
 21
144.4486400922409
 31
0.0
  0
MTEXT
  5
31832B5E
330
318324AF
100
AcDbEntity
  8
SUNPOU
100
AcDbMText
 10
162.1500299814015
 20
291.3463039987644
 30
0.0
 40
4.5
 41
0.0
 71
     5
 72
     1
  1
対辺{\Fsimplex.shx; 35mm}
  7
K
1001
ACAD
1000
MTEXTBEGIN
1070
    73
1070
     1
1070
    44
1040
1.0
1070
    74
1070
     0
1000
MTEXTEND
  0
LWPOLYLINE
  5
31832B5F
330
318324AF
100
AcDbEntity
  8
SUNPOU
100
AcDbPolyline
 90
        3
 70
     0
 43
0.0
 10
133.1304620008354
 20
293.1162373906302
 10
128.4860231342283
 20
293.4810280172513
 10
132.6906204923442
 20
295.4873295008386
  0
LINE
  5
31832B60
330
318324AF
100
AcDbEntity
  8
SUNPOU
100
AcDbLine
 10
128.4860231342266
 20
293.4810280172514
 30
0.0
 11
138.6572703198567
 21
295.3678111945483
 31
0.0
  0
TEXT
  5
31832B61
330
318324AF
100
AcDbEntity
  8
SUNPOU
100
AcDbText
 10
141.8823754460081
 20
295.7831410556812
 30
0.0
 40
4.5
  1
レンチ掛け部（六角）
  7
K
 72
     4
 11
167.5323754460081
 21
298.0331410556812
 31
0.0
100
AcDbText
  0
LINE
  5
31832B62
330
318324AF
100
AcDbEntity
  8
SUNPOU
100
AcDbLine
 10
138.6572703198568
 20
295.3678111945484
 30
0.0
 11
193.4072271357841
 21
295.3678111945492
 31
0.0
  0
ELLIPSE
  5
31832B63
330
318324AF
100
AcDbEntity
  8
SUNPOU
100
AcDbEllipse
 10
105.8061962537335
 20
289.2738826159919
 30
0.0
 11
-25.0
 21
0.0
 31
0.0
210
0.0
220
0.0
230
1.0
 40
0.4
 41
0.0
 42
6.283185307179586
  0
LWPOLYLINE
  5
31832B64
330
318324AF
100
AcDbEntity
  8
SUNPOU
100
AcDbPolyline
 90
        3
 70
     0
 43
0.0
 10
124.8944348125375
 20
275.8504999472622
 10
120.8061962537317
 20
278.0843732814543
 10
125.4636513694846
 20
278.1939015046103
  0
LINE
  5
31832B65
330
318324AF
100
AcDbEntity
  8
SUNPOU
100
AcDbLine
 10
120.8061962537335
 20
278.0843732814536
 30
0.0
 11
138.6572703198568
 21
273.7483144929522
 31
0.0
  0
TEXT
  5
31832B66
330
318324AF
100
AcDbEntity
  8
SUNPOU
100
AcDbText
 10
141.7806031000307
 20
274.0136443540849
 30
0.0
 40
4.5
  1
デスクソケット
  7
K
 72
     4
 11
159.6306031000307
 21
276.4136443540849
 31
0.0
100
AcDbText
  0
LINE
  5
31832B67
330
318324AF
100
AcDbEntity
  8
SUNPOU
100
AcDbLine
 10
138.6572703198568
 20
273.7483144929522
 30
0.0
 11
178.5304646771549
 21
273.7483144929526
 31
0.0
  0
LWPOLYLINE
  5
31832B68
330
318324AF
100
AcDbEntity
  8
SUNPOU
100
AcDbPolyline
 90
        3
 70
     0
 43
0.0
 10
122.1800262088002
 20
237.7930697338116
 10
118.3061962537335
 20
235.2051504796329
 10
122.9549910318517
 20
235.509439319161
  0
LINE
  5
31832B69
330
318324AF
100
AcDbEntity
  8
SUNPOU
100
AcDbLine
 10
118.3061962537335
 20
235.2051504796329
 30
0.0
 11
138.6572703198568
 21
242.1114197302887
 31
0.0
  0
LINE
  5
31832B6A
330
318324AF
100
AcDbEntity
  8
SUNPOU
100
AcDbLine
 10
138.6572703198568
 20
242.1114197302887
 30
0.0
 11
161.9127231123276
 21
242.1114197302889
 31
0.0
  0
TEXT
  5
31832B6B
330
318324AF
100
AcDbEntity
  8
SUNPOU
100
AcDbText
 10
140.4628615352033
 20
242.3767495914214
 30
0.0
 40
4.5
  1
ニップル
  7
K
 72
     4
 11
150.8128615352033
 21
244.7767495914214
 31
0.0
100
AcDbText
  0
LWPOLYLINE
  5
31832B6C
330
318324AF
100
AcDbEntity
  8
SUNPOU
100
AcDbPolyline
 90
        3
 70
     0
 43
0.0
 10
122.6717865648968
 20
204.9749416837761
 10
119.3061962537335
 20
201.7536552258023
 10
123.8315261909184
 20
202.8605759756925
  0
LINE
  5
31832B6D
330
318324AF
100
AcDbEntity
  8
SUNPOU
100
AcDbLine
 10
119.3061962537335
 20
201.7536552258023
 30
0.0
 11
138.6572703198568
 21
212.3678111945484
 31
0.0
  0
TEXT
  5
31832B6E
330
318324AF
100
AcDbEntity
  8
SUNPOU
100
AcDbText
 10
140.4833380628779
 20
212.7831410556812
 30
0.0
 40
4.5
  1
外管
  7
K
 72
     4
 11
145.2833380628779
 21
215.0331410556812
 31
0.0
100
AcDbText
  0
LINE
  5
31832B6F
330
318324AF
100
AcDbEntity
  8
SUNPOU
100
AcDbLine
 10
138.6572703198568
 20
212.3678111945484
 30
0.0
 11
149.2081897526539
 21
212.3678111945486
 31
0.0
  0
LWPOLYLINE
  5
31832B74
330
318324AF
100
AcDbEntity
  8
SUNPOU
100
AcDbPolyline
 90
        3
 70
     0
 43
0.0
 10
129.5137479586905
 20
144.1783134887814
 10
127.1551093831078
 20
148.1958635701985
 10
131.2065253486169
 20
145.8958824265067
  0
LINE
  5
31832B75
330
318324AF
100
AcDbEntity
  8
SUNPOU
100
AcDbLine
 10
127.1551093831078
 20
148.1958635701985
 30
0.0
 11
138.6572703198568
 21
136.8597258808363
 31
0.0
  0
TEXT
  5
31832B76
330
318324AF
100
AcDbEntity
  8
SUNPOU
100
AcDbText
 10
141.1159572819536
 20
137.575055741969
 30
0.0
 40
4.5
  1
割り型シーリングプレート
  7
K
 72
     4
 11
172.4659572819535
 21
139.825055741969
 31
0.0
100
AcDbText
  0
LINE
  5
31832B77
330
318324AF
100
AcDbEntity
  8
SUNPOU
100
AcDbLine
 10
138.6572703198568
 20
136.8597258808363
 30
0.0
 11
204.9408089717295
 21
136.8597258808363
 31
0.0
  0
LINE
  5
31832B7B
330
318324AF
100
AcDbEntity
  8
ITTEN
 48
2.0
100
AcDbLine
 10
105.8061962537335
 20
354.2738826159917
 30
0.0
 11
105.8061962537335
 21
78.38103394568395
 31
0.0
  0
HATCH
  5
31832B7C
330
318324AF
100
AcDbEntity
  8
HATCH
100
AcDbHatch
 10
0.0
 20
0.0
 30
0.0
210
0.0
220
0.0
230
1.0
  2
ANSI31
 70
     0
 71
     1
 91
        2
 92
        7
 72
     0
 73
     1
 93
       18
 10
178.3197292067082
 20
162.0036552258024
 10
178.5289615892233
 20
162.9011441640074
 10
179.0191354195168
 20
164.0840129466378
 10
179.5247059434033
 20
165.157483453484
 10
179.8817274183126
 20
166.1625800341101
 10
179.9651258728502
 20
167.1334896467169
 10
179.8053144203282
 20
168.0770496840668
 10
179.4715779452346
 20
168.9932601475632
 10
179.0332013320587
 20
169.8821210386068
 10
178.559469465289
 20
170.7436323586018
 10
177.8420981156843
 20
172.1042524096694
 10
177.546352907841
 20
173.5091198145272
 10
177.9645480634101
 20
174.8481212799027
 10
178.6226238881529
 20
176.1178219887454
 10
178.9776019580352
 20
176.8648070090716
 10
179.025000738963
 20
177.0036552258024
 10
130.8061962537335
 20
177.0036552258024
 10
130.8061962537335
 20
162.0036552258024
 97
        4
330
31832B80
330
31832B81
330
31832B83
330
31832B7D
 92
        7
 72
     0
 73
     1
 93
       18
 10
80.80619625373357
 20
162.0036552258024
 10
80.80619625373357
 20
177.0036552258024
 10
32.58739176850404
 20
177.0036552258024
 10
32.6347905494319
 20
176.8648070090714
 10
32.98976861931432
 20
176.1178219887451
 10
33.64784444405692
 20
174.8481212799029
 10
34.06603959962609
 20
173.5091198145271
 10
33.77029439178271
 20
172.1042524096689
 10
33.05292304217731
 20
170.7436323586004
 10
32.57919117540805
 20
169.8821210386067
 10
32.14081456223231
 20
168.9932601475629
 10
31.80707808713898
 20
168.077049684067
 10
31.64726663461689
 20
167.1334896467169
 10
31.73066508915449
 20
166.16258003411
 10
32.0876865640638
 20
165.1574834534843
 10
32.59325708795048
 20
164.0840129466369
 10
33.08343091824385
 20
162.9011441640073
 10
33.29266330075895
 20
162.0036552258024
 97
        4
330
31832B7F
330
31832B7E
330
31832C97
330
31832B82
 75
     0
 76
     1
 52
0.0
 41
30.0
 77
     0
 78
     1
 53
45.0
 43
-24.77046662968905
 44
-12.70144553876696
 45
-2.651650429449552
 46
2.651650429449553
 79
     0
 47
0.4215091495433344
 98
        2
 10
151.5252867341723
 20
166.9394646121605
 10
56.18672845754918
 20
168.2039931405564
  0
LINE
  5
31832B7D
102
{ACAD_REACTORS
330
31832B7C
102
}
330
318324AF
100
AcDbEntity
  8
JISSEN
100
AcDbLine
 10
105.8061962537335
 20
162.0036552258024
 30
0.0
 11
178.3197292067081
 21
162.0036552258024
 31
0.0
  0
LWPOLYLINE
  5
31832B7E
102
{ACAD_REACTORS
330
31832B7C
102
}
330
318324AF
100
AcDbEntity
  8
JISSEN
100
AcDbPolyline
 90
       24
 70
     0
 43
0.0
 10
32.68413532936156
 20
180.0036552258024
 10
32.38758899940447
 20
179.2903716844508
 10
32.26698196401287
 20
178.440825768482
 10
32.37162207251006
 20
177.6357229061696
 10
32.63479054943195
 20
176.8648070090714
 10
32.98976861931427
 20
176.1178219887452
 10
33.36983750669279
 20
175.3845117567485
 10
33.70827843610342
 20
174.6546202246392
 10
33.93837263208183
 20
173.9178913039749
 10
33.99340131916392
 20
173.1640689063133
 10
33.82931299854422
 20
172.3846062910522
 10
33.49272527805263
 20
171.577794108949
 10
33.05292304217769
 20
170.7436323586013
 10
32.57919117540803
 20
169.8821210386068
 10
32.14081456223229
 20
168.9932601475628
 10
31.80707808713899
 20
168.077049684067
 10
31.64726663461689
 20
167.1334896467169
 10
31.73066508915448
 20
166.16258003411
 10
32.08768656406383
 20
165.1574834534841
 10
32.5932570879506
 20
164.0840129466371
 10
33.08343091824383
 20
162.9011441640073
 10
33.3942623123726
 20
161.5678527560329
 10
33.36180552776599
 20
160.0431143731522
 10
33.04255709733979
 20
159.0036552258024
  0
LINE
  5
31832B7F
102
{ACAD_REACTORS
330
31832B7C
102
}
330
318324AF
100
AcDbEntity
  8
JISSEN
100
AcDbLine
 10
32.58739176850406
 20
177.0036552258024
 30
0.0
 11
92.30619625373355
 21
177.0036552258023
 31
0.0
  0
LWPOLYLINE
  5
31832B80
102
{ACAD_REACTORS
330
31832B7C
102
}
330
318324AF
100
AcDbEntity
  8
JISSEN
100
AcDbPolyline
 90
       24
 70
     0
 43
0.0
 10
178.9282571781055
 20
180.0036552258024
 10
179.2248035080626
 20
179.2903716844508
 10
179.3454105434542
 20
178.440825768482
 10
179.240770434957
 20
177.6357229061696
 10
178.9776019580351
 20
176.8648070090714
 10
178.6226238881528
 20
176.1178219887452
 10
178.2425550007743
 20
175.3845117567485
 10
177.9041140713637
 20
174.6546202246392
 10
177.6740198753852
 20
173.9178913039749
 10
177.6189911883031
 20
173.1640689063133
 10
177.7830795089228
 20
172.3846062910522
 10
178.1196672294145
 20
171.577794108949
 10
178.5594694652894
 20
170.7436323586013
 10
179.033201332059
 20
169.8821210386068
 10
179.4715779452348
 20
168.9932601475628
 10
179.8053144203281
 20
168.077049684067
 10
179.9651258728502
 20
167.1334896467169
 10
179.8817274183126
 20
166.16258003411
 10
179.5247059434032
 20
165.1574834534841
 10
179.0191354195165
 20
164.0840129466371
 10
178.5289615892232
 20
162.9011441640073
 10
178.2181301950945
 20
161.5678527560329
 10
178.2505869797011
 20
160.0431143731522
 10
178.5698354101273
 20
159.0036552258024
  0
LINE
  5
31832B81
102
{ACAD_REACTORS
330
31832B7C
102
}
330
318324AF
100
AcDbEntity
  8
JISSEN
100
AcDbLine
 10
179.025000738963
 20
177.0036552258024
 30
0.0
 11
119.3061962537335
 21
177.0036552258023
 31
0.0
  0
LINE
  5
31832B82
102
{ACAD_REACTORS
330
31832B7C
102
}
330
318324AF
100
AcDbEntity
  8
JISSEN
100
AcDbLine
 10
80.80619625373357
 20
162.0036552258024
 30
0.0
 11
80.80619625373357
 21
177.0036552258023
 31
0.0
  0
LINE
  5
31832B83
102
{ACAD_REACTORS
330
31832B7C
102
}
330
318324AF
100
AcDbEntity
  8
JISSEN
100
AcDbLine
 10
130.8061962537335
 20
162.0036552258024
 30
0.0
 11
130.8061962537335
 21
177.0036552258023
 31
0.0
  0
LINE
  5
31832B84
330
318324AF
100
AcDbEntity
  8
SAISEN
100
AcDbLine
 10
96.51343508211903
 20
143.4486400922409
 30
0.0
 11
96.30548455781354
 21
136.7945558492105
 31
0.0
  0
LINE
  5
31832B85
330
318324AF
100
AcDbEntity
  8
SAISEN
100
AcDbLine
 10
115.0989574253481
 20
143.4486400922408
 30
0.0
 11
115.3069079496535
 21
136.7945558492105
 31
0.0
  0
LINE
  5
31832B86
330
318324AF
100
AcDbEntity
  8
JISSEN
100
AcDbLine
 10
111.8061962537335
 20
126.3810339456836
 30
0.0
 11
113.0561962537335
 21
127.1027217821709
 31
0.0
  0
LINE
  5
31832B87
330
318324AF
100
AcDbEntity
  8
JISSEN
100
AcDbLine
 10
113.3061962537335
 20
126.0810339456838
 30
0.0
 11
113.3061962537335
 21
126.3810339456838
 31
0.0
  0
ARC
  5
31832B88
330
318324AF
100
AcDbEntity
  8
JISSEN
100
AcDbCircle
 10
113.5561962537335
 20
127.8768425158018
 30
0.0
 40
0.5
100
AcDbArc
 50
75.15978516147832
 51
180.0
  0
LINE
  5
31832B89
330
318324AF
100
AcDbEntity
  8
JISSEN
100
AcDbLine
 10
113.3061962537335
 20
130.8810339456839
 30
0.0
 11
113.3061962537335
 21
129.0810339456838
 31
0.0
  0
LINE
  5
31832B8A
330
318324AF
100
AcDbEntity
  8
JISSEN
100
AcDbLine
 10
113.0561962537335
 20
127.1027217821709
 30
0.0
 11
113.0561962537335
 21
127.8768425158018
 31
0.0
  0
ARC
  5
31832B8B
330
318324AF
100
AcDbEntity
  8
JISSEN
100
AcDbCircle
 10
116.7800669766583
 20
126.9005643923986
 30
0.0
 40
5.0
100
AcDbArc
 50
53.31701119963971
 51
75.32091994780397
  0
LINE
  5
31832B8C
330
318324AF
100
AcDbEntity
  8
JISSEN
100
AcDbLine
 10
121.8061962537335
 20
118.881033945684
 30
0.0
 11
121.8061962537335
 21
116.8810339456839
 31
0.0
  0
LINE
  5
31832B8D
330
318324AF
100
AcDbEntity
  8
JISSEN
100
AcDbLine
 10
123.8061962537335
 20
116.8810339456839
 30
0.0
 11
123.8061962537335
 21
118.8810339456839
 31
0.0
1001
ACAD
1000
ASC_BOUNDS
1002
{
1070
    16
1002
}
  0
LINE
  5
31832B8E
330
318324AF
100
AcDbEntity
  8
JISSEN
100
AcDbLine
 10
125.8061962537335
 20
116.8810339456839
 30
0.0
 11
125.8061962537335
 21
118.8810339456839
 31
0.0
1001
ACAD
1000
ASC_BOUNDS
1002
{
1070
    16
1002
}
  0
ARC
  5
31832B8F
330
318324AF
100
AcDbEntity
  8
JISSEN
100
AcDbCircle
 10
113.0174430372559
 20
118.2793762228392
 30
0.0
 40
10.80551655320168
100
AcDbArc
 50
3.191914576124303
 51
88.46871639638065
1001
ACAD
1000
ASC_BOUNDS
1002
{
1070
    16
1002
}
  0
ARC
  5
31832B90
330
318324AF
100
AcDbEntity
  8
JISSEN
100
AcDbCircle
 10
110.8061962537335
 20
118.8810339456839
 30
0.0
 40
15.0
100
AcDbArc
 50
0.0
 51
53.31701119963971
1001
ACAD
1000
ASC_BOUNDS
1002
{
1070
    16
1002
}
  0
ARC
  5
31832B91
330
318324AF
100
AcDbEntity
  8
JISSEN
100
AcDbCircle
 10
110.8668912060577
 20
117.7270820082555
 30
0.0
 40
11.0
100
AcDbArc
 50
6.021677192633947
 51
75.15978516147832
  0
LINE
  5
31832B92
330
318324AF
100
AcDbEntity
  8
JISSEN
100
AcDbLine
 10
113.3061962537335
 20
123.7810339456838
 30
0.0
 11
113.3061962537335
 21
126.0810339456838
 31
0.0
  0
ARC
  5
31832B93
330
318324AF
100
AcDbEntity
  8
JISSEN
100
AcDbCircle
 10
110.8061962537335
 20
118.8810339456839
 30
0.0
 40
17.0
100
AcDbArc
 50
0.0
 51
70.25007720435732
  0
ARC
  5
31832B94
330
318324AF
100
AcDbEntity
  8
JISSEN
100
AcDbCircle
 10
119.6939447854018
 20
138.0241512740602
 30
0.0
 40
6.498907295833106
100
AcDbArc
 50
219.1009608744976
 51
255.3209199478039
  0
LINE
  5
31832B95
330
318324AF
100
AcDbEntity
  8
JISSEN
100
AcDbLine
 10
114.0056577409662
 20
134.8810339456839
 30
0.0
 11
114.0056577409662
 21
130.8810339456839
 31
0.0
  0
LINE
  5
31832B96
330
318324AF
100
AcDbEntity
  8
JISSEN
100
AcDbLine
 10
113.3473589939028
 20
109.9278492791042
 30
0.0
 11
113.3473589939028
 21
114.9278492791042
 31
0.0
  0
ARC
  5
31832B97
330
318324AF
100
AcDbEntity
  8
JISSEN
100
AcDbCircle
 10
113.9729835987521
 20
85.18307744772039
 30
0.0
 40
1.0
100
AcDbArc
 50
33.65096582460109
 51
132.0810525119092
  0
ARC
  5
31832B98
330
318324AF
100
AcDbEntity
  8
JISSEN
100
AcDbCircle
 10
116.7722043409228
 20
84.82757744772085
 30
0.0
 40
1.355499999999999
100
AcDbArc
 50
55.00000000000309
 51
109.7312025061674
  0
LINE
  5
31832B99
330
318324AF
100
AcDbEntity
  8
JISSEN
100
AcDbLine
 10
116.2273883114993
 20
86.18307744772085
 30
0.0
 11
113.9729835987521
 21
86.18307744772085
 31
0.0
  0
LINE
  5
31832B9A
330
318324AF
100
AcDbEntity
  8
JISSEN
100
AcDbLine
 10
119.0561962537335
 20
84.88306904822707
 30
0.0
 11
117.5496872003965
 21
85.93793804375469
 31
0.0
  0
LINE
  5
31832B9B
330
318324AF
100
AcDbEntity
  8
JISSEN
100
AcDbLine
 10
119.0561962537335
 20
84.88306904822707
 30
0.0
 11
122.8936849172608
 21
84.88306904822707
 31
0.0
  0
LINE
  5
31832B9C
330
318324AF
100
AcDbEntity
  8
JISSEN
100
AcDbLine
 10
120.7136212118395
 20
97.35121092385373
 30
0.0
 11
111.269433612987
 21
86.18307744772085
 31
0.0
  0
ARC
  5
31832B9D
330
318324AF
100
AcDbEntity
  8
JISSEN
100
AcDbCircle
 10
97.80619625373356
 20
116.7225785004794
 30
0.0
 40
30.0
100
AcDbArc
 50
319.7809012554462
 51
0.0
  0
ARC
  5
31832B9E
330
318324AF
100
AcDbEntity
  8
JISSEN
100
AcDbCircle
 10
97.80619625373356
 20
116.8810339456839
 30
0.0
 40
24.0
100
AcDbArc
 50
302.1818839204005
 51
0.0
  0
ARC
  5
31832B9F
330
318324AF
100
AcDbEntity
  8
JISSEN
100
AcDbCircle
 10
97.80619625373356
 20
116.8810339456839
 30
0.0
 40
28.0
100
AcDbArc
 50
337.975687162956
 51
0.0
1001
ACAD
1000
ASC_BOUNDS
1002
{
1070
    16
1002
}
  0
ARC
  5
31832BA0
330
318324AF
100
AcDbEntity
  8
JISSEN
100
AcDbCircle
 10
97.80619625373356
 20
116.8810339456839
 30
0.0
 40
26.0
100
AcDbArc
 50
336.1811586065452
 51
0.0
1001
ACAD
1000
ASC_BOUNDS
1002
{
1070
    16
1002
}
  0
LINE
  5
31832BA1
330
318324AF
100
AcDbEntity
  8
JISSEN
100
AcDbLine
 10
127.8061962537335
 20
118.8810339456839
 30
0.0
 11
127.8061962537335
 21
116.7225785004794
 31
0.0
  0
LINE
  5
31832BA2
330
318324AF
100
AcDbEntity
  8
JISSEN
100
AcDbLine
 10
103.1061962537336
 20
134.0810339456838
 30
0.0
 11
108.5061962537334
 21
134.0810339456838
 31
0.0
  0
ARC
  5
31832BA3
330
318324AF
100
AcDbEntity
  8
JISSEN
100
AcDbCircle
 10
103.1061962537336
 20
133.7810339456838
 30
0.0
 40
0.3
100
AcDbArc
 50
90.0
 51
180.0
  0
ARC
  5
31832BA4
330
318324AF
100
AcDbEntity
  8
JISSEN
100
AcDbCircle
 10
108.5061962537334
 20
133.7810339456838
 30
0.0
 40
0.3
100
AcDbArc
 50
0.0
 51
90.0
  0
LINE
  5
31832BA5
330
318324AF
100
AcDbEntity
  8
JISSEN
100
AcDbLine
 10
110.3671341531114
 20
134.8810339456839
 30
0.0
 11
110.3671341531114
 21
136.3810339456839
 31
0.0
  0
LINE
  5
31832BA6
330
318324AF
100
AcDbEntity
  8
JISSEN
100
AcDbLine
 10
95.0616336071954
 20
134.8810339456839
 30
0.0
 11
101.2452583543556
 21
134.8810339456839
 31
0.0
  0
ARC
  5
31832BA7
330
318324AF
100
AcDbEntity
  8
JISSEN
100
AcDbCircle
 10
97.55619625373356
 20
129.0985918460908
 30
0.0
 40
7.0
100
AcDbArc
 50
334.4638998494127
 51
0.0
  0
ARC
  5
31832BA8
330
318324AF
100
AcDbEntity
  8
JISSEN
100
AcDbCircle
 10
103.1061962537336
 20
132.3810339456838
 30
0.0
 40
0.3
100
AcDbArc
 50
180.0
 51
270.0
  0
LINE
  5
31832BA9
330
318324AF
100
AcDbEntity
  8
JISSEN
100
AcDbLine
 10
104.5561962537335
 20
132.0810339456838
 30
0.0
 11
104.5561962537335
 21
129.0985918460908
 31
0.0
  0
LINE
  5
31832BAA
330
318324AF
100
AcDbEntity
  8
JISSEN
100
AcDbLine
 10
104.3061962537335
 20
130.8810339456839
 30
0.0
 11
104.3061962537335
 21
129.0810339456838
 31
0.0
  0
LINE
  5
31832BAB
330
318324AF
100
AcDbEntity
  8
JISSEN
100
AcDbLine
 10
104.5561962537335
 20
132.0810339456838
 30
0.0
 11
103.1061962537336
 21
132.0810339456838
 31
0.0
  0
ARC
  5
31832BAC
330
318324AF
100
AcDbEntity
  8
JISSEN
100
AcDbCircle
 10
114.0561962537335
 20
129.0985918460908
 30
0.0
 40
7.0
100
AcDbArc
 50
180.0
 51
205.5361001505873
  0
ARC
  5
31832BAD
330
318324AF
100
AcDbEntity
  8
JISSEN
100
AcDbCircle
 10
108.5061962537334
 20
132.3810339456838
 30
0.0
 40
0.3
100
AcDbArc
 50
270.0
 51
0.0
  0
LINE
  5
31832BAE
330
318324AF
100
AcDbEntity
  8
JISSEN
100
AcDbLine
 10
108.5061962537334
 20
132.0810339456838
 30
0.0
 11
107.0561962537335
 21
132.0810339456838
 31
0.0
  0
LINE
  5
31832BAF
330
318324AF
100
AcDbEntity
  8
JISSEN
100
AcDbLine
 10
107.3061962537335
 20
130.8810339456839
 30
0.0
 11
107.3061962537335
 21
129.0810339456838
 31
0.0
  0
LINE
  5
31832BB0
330
318324AF
100
AcDbEntity
  8
JISSEN
100
AcDbLine
 10
107.0561962537336
 20
132.0810339456838
 30
0.0
 11
107.0561962537335
 21
129.0985918460908
 31
0.0
  0
ARC
  5
31832BB1
330
318324AF
100
AcDbEntity
  8
JISSEN
100
AcDbCircle
 10
94.83232553080881
 20
126.9005643923986
 30
0.0
 40
5.0
100
AcDbArc
 50
104.679080052196
 51
126.6829888003604
  0
LINE
  5
31832BB2
330
318324AF
100
AcDbEntity
  8
JISSEN
100
AcDbLine
 10
98.55619625373357
 20
127.1027217821709
 30
0.0
 11
99.80619625373414
 21
126.3810339456839
 31
0.0
  0
LINE
  5
31832BB3
330
318324AF
100
AcDbEntity
  8
JISSEN
100
AcDbLine
 10
98.30619625373357
 20
126.0810339456838
 30
0.0
 11
98.30619625373357
 21
126.3810339456838
 31
0.0
  0
LINE
  5
31832BB4
330
318324AF
100
AcDbEntity
  8
JISSEN
100
AcDbLine
 10
98.30619625373357
 20
130.8810339456839
 30
0.0
 11
98.30619625373357
 21
129.0810339456838
 31
0.0
  0
ARC
  5
31832BB5
330
318324AF
100
AcDbEntity
  8
JISSEN
100
AcDbCircle
 10
98.05619625373356
 20
127.8768425158018
 30
0.0
 40
0.5
100
AcDbArc
 50
0.0
 51
104.8402148385214
  0
LINE
  5
31832BB6
330
318324AF
100
AcDbEntity
  8
JISSEN
100
AcDbLine
 10
98.55619625373357
 20
127.1027217821709
 30
0.0
 11
98.55619625373357
 21
127.8768425158018
 31
0.0
  0
LINE
  5
31832BB7
330
318324AF
100
AcDbEntity
  8
JISSEN
100
AcDbLine
 10
104.0071557992536
 20
126.3810339456838
 30
0.0
 11
98.30619625373357
 21
126.3810339456838
 31
0.0
  0
LINE
  5
31832BB8
330
318324AF
100
AcDbEntity
  8
JISSEN
100
AcDbLine
 10
105.8061962537335
 20
126.0810339456838
 30
0.0
 11
98.30619625373357
 21
126.0810339456838
 31
0.0
  0
LINE
  5
31832BB9
330
318324AF
100
AcDbEntity
  8
JISSEN
100
AcDbLine
 10
104.0071557992536
 20
126.3810339456837
 30
0.0
 11
99.80619625373357
 21
126.3810339456836
 31
0.0
  0
LINE
  5
31832BBA
330
318324AF
100
AcDbEntity
  8
JISSEN
100
AcDbLine
 10
104.3061962537335
 20
130.8810339456839
 30
0.0
 11
97.60673476650083
 21
130.8810339456839
 31
0.0
  0
LINE
  5
31832BBB
330
318324AF
100
AcDbEntity
  8
JISSEN
100
AcDbLine
 10
104.5561742337084
 20
129.0810339456838
 30
0.0
 11
98.30619625373357
 21
129.0810339456838
 31
0.0
  0
LINE
  5
31832BBC
330
318324AF
100
AcDbEntity
  8
JISSEN
100
AcDbLine
 10
104.2656301112173
 20
127.1027217821709
 30
0.0
 11
98.55619625373368
 21
127.1027217821709
 31
0.0
  0
LINE
  5
31832BBD
330
318324AF
100
AcDbEntity
  8
JISSEN
100
AcDbLine
 10
104.0973589939029
 20
120.4179029417346
 30
0.0
 11
107.5973589939029
 21
120.4179029417346
 31
0.0
  0
LINE
  5
31832BBE
330
318324AF
100
AcDbEntity
  8
JISSEN
100
AcDbLine
 10
107.5973589939029
 20
118.6887035803026
 30
0.0
 11
104.0973589939029
 21
118.6887035803026
 31
0.0
  0
LINE
  5
31832BBF
330
318324AF
100
AcDbEntity
  8
JISSEN
100
AcDbLine
 10
107.5973589939029
 20
117.9055324401385
 30
0.0
 11
104.0973589939029
 21
117.9055324401385
 31
0.0
  0
LINE
  5
31832BC0
330
318324AF
100
AcDbEntity
  8
JISSEN
100
AcDbLine
 10
106.6436235410973
 20
123.4251538164007
 30
0.0
 11
104.7273294293016
 21
123.4251538164006
 31
0.0
  0
LINE
  5
31832BC1
330
318324AF
100
AcDbEntity
  8
JISSEN
100
AcDbLine
 10
102.5854029857842
 20
118.5292020688234
 30
0.0
 11
103.3473589939031
 21
118.0892865624253
 31
0.0
  0
ARC
  5
31832BC2
330
318324AF
100
AcDbEntity
  8
JISSEN
100
AcDbCircle
 10
103.1203893021942
 20
117.1278492791042
 30
0.0
 40
1.5
100
AcDbArc
 50
90.0
 51
165.8509954910647
  0
ARC
  5
31832BC3
330
318324AF
100
AcDbEntity
  8
JISSEN
100
AcDbCircle
 10
103.6414900642135
 20
117.280343208811
 30
0.0
 40
0.6441310703106079
100
AcDbArc
 50
103.6591051852999
 51
180.0
  0
LINE
  5
31832BC4
330
318324AF
100
AcDbEntity
  8
JISSEN
100
AcDbLine
 10
103.8473589939028
 20
118.8278492791042
 30
0.0
 11
103.8473589939028
 21
121.6411864857221
 31
0.0
  0
ARC
  5
31832BC5
330
318324AF
100
AcDbEntity
  8
JISSEN
100
AcDbCircle
 10
104.1473589939027
 20
119.8453824965677
 30
0.0
 40
0.3
100
AcDbArc
 50
99.59406822683844
 51
180.0
  0
ARC
  5
31832BC6
330
318324AF
100
AcDbEntity
  8
JISSEN
100
AcDbCircle
 10
103.6473589939029
 20
118.8278492791042
 30
0.0
 40
0.2
100
AcDbArc
 50
270.0
 51
0.0
  0
LINE
  5
31832BC7
330
318324AF
100
AcDbEntity
  8
JISSEN
100
AcDbLine
 10
103.1203893021942
 20
118.6278492791042
 30
0.0
 11
103.6473589939028
 21
118.6278492791042
 31
0.0
  0
LINE
  5
31832BC8
330
318324AF
100
AcDbEntity
  8
JISSEN
100
AcDbLine
 10
104.0973589939029
 20
117.9055324401385
 30
0.0
 11
104.0973589939029
 21
120.4179029417346
 31
0.0
  0
ARC
  5
31832BC9
330
318324AF
100
AcDbEntity
  8
JISSEN
100
AcDbCircle
 10
105.8473589939031
 20
122.4194135813475
 30
0.0
 40
5.0
100
AcDbArc
 50
239.9999999999991
 51
243.6791901783879
  0
ARC
  5
31832BCA
330
318324AF
100
AcDbEntity
  8
JISSEN
100
AcDbCircle
 10
105.2712688529927
 20
108.4153540221104
 30
0.0
 40
9.665948963623709
100
AcDbArc
 50
96.97567628298131
 51
98.56261218149326
  0
ARC
  5
31832BCB
330
318324AF
100
AcDbEntity
  8
JISSEN
100
AcDbCircle
 10
104.4169226415136
 20
114.0894949357973
 30
0.0
 40
3.927849752435048
100
AcDbArc
 50
98.56261218149326
 51
103.6591051852932
  0
ARC
  5
31832BCC
330
318324AF
100
AcDbEntity
  8
JISSEN
100
AcDbCircle
 10
105.6854764851996
 20
132.7761940911118
 30
0.0
 40
9.4
100
AcDbArc
 50
253.2252557359041
 51
264.1496496988366
  0
ARC
  5
31832BCD
330
318324AF
100
AcDbEntity
  8
JISSEN
100
AcDbCircle
 10
108.5743286856114
 20
117.1278492791042
 30
0.0
 40
1.5
100
AcDbArc
 50
14.14900450893525
 51
90.0
  0
LINE
  5
31832BCE
330
318324AF
100
AcDbEntity
  8
JISSEN
100
AcDbLine
 10
107.8473589939028
 20
118.8278492791042
 30
0.0
 11
107.8473589939028
 21
121.6411864857221
 31
0.0
  0
LINE
  5
31832BCF
330
318324AF
100
AcDbEntity
  8
JISSEN
100
AcDbLine
 10
108.5743286856114
 20
118.6278492791042
 30
0.0
 11
108.0473589939028
 21
118.6278492791042
 31
0.0
  0
ARC
  5
31832BD0
330
318324AF
100
AcDbEntity
  8
JISSEN
100
AcDbCircle
 10
108.0532279235923
 20
117.280343208811
 30
0.0
 40
0.6441310703106079
100
AcDbArc
 50
0.0
 51
76.34089481470671
  0
ARC
  5
31832BD1
330
318324AF
100
AcDbEntity
  8
JISSEN
100
AcDbCircle
 10
105.8473589939031
 20
122.4194135813475
 30
0.0
 40
5.0
100
AcDbArc
 50
296.3208098216045
 51
300.0000000000008
  0
LINE
  5
31832BD2
330
318324AF
100
AcDbEntity
  8
JISSEN
100
AcDbLine
 10
107.5973589939029
 20
120.4179029417346
 30
0.0
 11
107.5973589939029
 21
117.9055324401385
 31
0.0
  0
ARC
  5
31832BD3
330
318324AF
100
AcDbEntity
  8
JISSEN
100
AcDbCircle
 10
107.5473589939028
 20
119.8453824965677
 30
0.0
 40
0.3
100
AcDbArc
 50
0.0
 51
80.40593177313521
  0
ARC
  5
31832BD4
330
318324AF
100
AcDbEntity
  8
JISSEN
100
AcDbCircle
 10
108.0473589939027
 20
118.8278492791042
 30
0.0
 40
0.2
100
AcDbArc
 50
180.0
 51
270.0
  0
ARC
  5
31832BD5
330
318324AF
100
AcDbEntity
  8
JISSEN
100
AcDbCircle
 10
107.2777953462921
 20
114.0894949357971
 30
0.0
 40
3.927849752435279
100
AcDbArc
 50
76.34089481470671
 51
81.43738781850673
  0
ARC
  5
31832BD6
330
318324AF
100
AcDbEntity
  8
JISSEN
100
AcDbCircle
 10
106.4234491348123
 20
108.4153540221109
 30
0.0
 40
9.665948963623366
100
AcDbArc
 50
81.43738781850673
 51
83.02432371701213
  0
LINE
  5
31832BD7
330
318324AF
100
AcDbEntity
  8
JISSEN
100
AcDbLine
 10
109.109315002022
 20
118.5292020688234
 30
0.0
 11
108.3473589939031
 21
118.0892865624253
 31
0.0
  0
ARC
  5
31832BD8
330
318324AF
100
AcDbEntity
  8
JISSEN
100
AcDbCircle
 10
105.6854764851996
 20
132.7761940911118
 30
0.0
 40
9.4
100
AcDbArc
 50
275.8503503011632
 51
286.7747442640959
  0
LINE
  5
31832BD9
330
318324AF
100
AcDbEntity
  8
JISSEN
100
AcDbLine
 10
89.80619625373355
 20
118.881033945684
 30
0.0
 11
89.80619625373355
 21
116.8810339456839
 31
0.0
  0
LINE
  5
31832BDA
330
318324AF
100
AcDbEntity
  8
JISSEN
100
AcDbLine
 10
98.30619625373357
 20
123.7810339456838
 30
0.0
 11
98.30619625373357
 21
126.0810339456838
 31
0.0
  0
LINE
  5
31832BDB
330
318324AF
100
AcDbEntity
  8
JISSEN
100
AcDbLine
 10
85.80619625373357
 20
116.8810339456839
 30
0.0
 11
85.80619625373357
 21
118.8810339456839
 31
0.0
  0
LINE
  5
31832BDC
330
318324AF
100
AcDbEntity
  8
JISSEN
100
AcDbLine
 10
87.80619625373356
 20
116.8810339456839
 30
0.0
 11
87.80619625373356
 21
118.8810339456839
 31
0.0
  0
ARC
  5
31832BDD
330
318324AF
100
AcDbEntity
  8
JISSEN
100
AcDbCircle
 10
98.59494947021119
 20
118.2793762228392
 30
0.0
 40
10.80551655320168
100
AcDbArc
 50
91.53128360361938
 51
176.8080854238756
  0
ARC
  5
31832BDE
330
318324AF
100
AcDbEntity
  8
JISSEN
100
AcDbCircle
 10
100.7455013014091
 20
117.7270820082557
 30
0.0
 40
10.99999999999979
100
AcDbArc
 50
104.8402148385155
 51
173.978322807366
  0
ARC
  5
31832BDF
330
318324AF
100
AcDbEntity
  8
JISSEN
100
AcDbCircle
 10
100.8061962537335
 20
118.8810339456839
 30
0.0
 40
15.0
100
AcDbArc
 50
126.6829888003604
 51
180.0
  0
ARC
  5
31832BE0
330
318324AF
100
AcDbEntity
  8
JISSEN
100
AcDbCircle
 10
100.8061962537335
 20
118.8810339456839
 30
0.0
 40
16.99999999999999
100
AcDbArc
 50
109.7499227956426
 51
180.0
  0
TEXT
  5
31832BE1
330
318324AF
100
AcDbEntity
  8
JISSEN
100
AcDbText
 10
100.6204425973907
 20
134.1732228302152
 30
0.0
 40
2.5
  1
D
 50
180.0
  7
K
100
AcDbText
  0
ARC
  5
31832BE2
330
318324AF
100
AcDbEntity
  8
JISSEN
100
AcDbCircle
 10
91.91844772206525
 20
138.0241512740602
 30
0.0
 40
6.498907295833106
100
AcDbArc
 50
284.679080052196
 51
320.8990391255022
  0
LINE
  5
31832BE3
330
318324AF
100
AcDbEntity
  8
JISSEN
100
AcDbLine
 10
97.60673476650083
 20
134.8810339456839
 30
0.0
 11
97.60673476650083
 21
130.8810339456839
 31
0.0
  0
LINE
  5
31832BE4
330
318324AF
100
AcDbEntity
  8
JISSEN
100
AcDbLine
 10
101.2452583543556
 20
136.3810339456839
 30
0.0
 11
101.2452583543556
 21
130.8810339456839
 31
0.0
  0
LINE
  5
31832BE5
330
318324AF
100
AcDbEntity
  8
JISSEN
100
AcDbLine
 10
102.8061962537335
 20
132.3810339456838
 30
0.0
 11
102.8061962537335
 21
133.7810339456838
 31
0.0
  0
LINE
  5
31832BE6
330
318324AF
100
AcDbEntity
  8
JISSEN
100
AcDbLine
 10
108.8061962537335
 20
133.7810339456838
 30
0.0
 11
108.8061962537335
 21
132.3810339456838
 31
0.0
  0
LINE
  5
31832BE7
330
318324AF
100
AcDbEntity
  8
JISSEN
100
AcDbLine
 10
110.3671341531114
 20
134.8810339456839
 30
0.0
 11
110.3671341531114
 21
130.8810339456839
 31
0.0
  0
LINE
  5
31832BE8
330
318324AF
100
AcDbEntity
  8
JISSEN
100
AcDbLine
 10
102.8473589939028
 20
109.6778492791042
 30
0.0
 11
103.2223589939028
 21
109.6778492791042
 31
0.0
  0
ARC
  5
31832BE9
330
318324AF
100
AcDbEntity
  8
JISSEN
100
AcDbCircle
 10
103.9506291417418
 20
99.76977991098785
 30
0.0
 40
10.00141397672734
100
AcDbArc
 50
94.32888202861773
 51
97.3680971918019
  0
ARC
  5
31832BEA
330
318324AF
100
AcDbEntity
  8
JISSEN
100
AcDbCircle
 10
103.9506291417409
 20
105.6366944304444
 30
0.0
 40
10.00141397672728
100
AcDbArc
 50
94.32888202861118
 51
100.3564926490392
  0
LINE
  5
31832BEB
330
318324AF
100
AcDbEntity
  8
JISSEN
100
AcDbLine
 10
102.0973589939029
 20
113.2662482308368
 30
0.0
 11
102.0973589939029
 21
109.8788111734274
 31
0.0
  0
ARC
  5
31832BEC
330
318324AF
100
AcDbEntity
  8
JISSEN
100
AcDbCircle
 10
102.8473589939028
 20
111.1778492791042
 30
0.0
 40
1.5
100
AcDbArc
 50
180.0
 51
270.0
  0
LINE
  5
31832BED
330
318324AF
100
AcDbEntity
  8
JISSEN
100
AcDbLine
 10
101.3473589939028
 20
111.1778492791042
 30
0.0
 11
101.3473589939028
 21
114.9278492791042
 31
0.0
  0
LINE
  5
31832BEE
330
318324AF
100
AcDbEntity
  8
JISSEN
100
AcDbLine
 10
102.0973589939029
 20
114.2919193926586
 30
0.0
 11
102.0973589939029
 21
114.5984893138689
 31
0.0
  0
LINE
  5
31832BEF
330
318324AF
100
AcDbEntity
  8
JISSEN
100
AcDbLine
 10
102.0973589940119
 20
114.5984892916452
 30
0.0
 11
102.0973589940119
 21
114.5984893679801
 31
0.0
  0
LINE
  5
31832BF0
330
318324AF
100
AcDbEntity
  8
JISSEN
100
AcDbLine
 10
102.0973589939029
 20
115.4088536175978
 30
0.0
 11
102.0973589939029
 21
114.5984893138689
 31
0.0
  0
LINE
  5
31832BF1
330
318324AF
100
AcDbEntity
  8
JISSEN
100
AcDbLine
 10
102.0973589938745
 20
113.5746374620404
 30
0.0
 11
102.0973589938745
 21
113.5746374625822
 31
0.0
  0
LINE
  5
31832BF2
330
318324AF
100
AcDbEntity
  8
JISSEN
100
AcDbLine
 10
102.0973589939029
 20
113.2662482308368
 30
0.0
 11
102.0973589939029
 21
113.5746374624344
 31
0.0
  0
LINE
  5
31832BF3
330
318324AF
100
AcDbEntity
  8
JISSEN
100
AcDbLine
 10
102.0973589939029
 20
114.2919193926586
 30
0.0
 11
102.0973589939029
 21
113.5746374624344
 31
0.0
  0
ARC
  5
31832BF4
330
318324AF
100
AcDbEntity
  8
JISSEN
100
AcDbCircle
 10
102.1647716548114
 20
115.4088536175978
 30
0.0
 40
0.0674126609085717
100
AcDbArc
 50
100.3564926490459
 51
180.0000000000227
  0
ARC
  5
31832BF5
330
318324AF
100
AcDbEntity
  8
JISSEN
100
AcDbCircle
 10
105.0754263210785
 20
84.91064116009273
 30
0.0
 40
24.90306398982979
100
AcDbArc
 50
93.10594061441609
 51
94.32888202860469
  0
ARC
  5
31832BF6
330
318324AF
100
AcDbEntity
  8
JISSEN
100
AcDbCircle
 10
105.0754263210813
 20
134.1732370361913
 30
0.0
 40
24.90306398983168
100
AcDbArc
 50
265.7326069421967
 51
266.8169451117992
  0
ARC
  5
31832BF7
330
318324AF
100
AcDbEntity
  8
JISSEN
100
AcDbCircle
 10
105.0754263210799
 20
90.77755567954842
 30
0.0
 40
24.90306398983088
100
AcDbArc
 50
92.13758614180552
 51
94.32888202861118
  0
LINE
  5
31832BF8
330
318324AF
100
AcDbEntity
  8
JISSEN
100
AcDbLine
 10
109.5973589939029
 20
109.8788111734276
 30
0.0
 11
109.5973589939029
 21
113.2662482308368
 31
0.0
  0
ARC
  5
31832BF9
330
318324AF
100
AcDbEntity
  8
JISSEN
100
AcDbCircle
 10
106.619291666727
 20
134.1732370361879
 30
0.0
 40
24.90306398982813
100
AcDbArc
 50
273.183054888194
 51
274.2673930577966
  0
ARC
  5
31832BFA
330
318324AF
100
AcDbEntity
  8
JISSEN
100
AcDbCircle
 10
106.6192916667273
 20
84.9106411600934
 30
0.0
 40
24.90306398982914
100
AcDbArc
 50
85.6711179713953
 51
86.89405938558392
  0
LINE
  5
31832BFB
330
318324AF
100
AcDbEntity
  8
JISSEN
100
AcDbLine
 10
108.8473589939028
 20
109.6778492791042
 30
0.0
 11
108.4723589939028
 21
109.6778492791042
 31
0.0
  0
ARC
  5
31832BFC
330
318324AF
100
AcDbEntity
  8
JISSEN
100
AcDbCircle
 10
107.7440888460647
 20
99.76977991098625
 30
0.0
 40
10.00141397672887
100
AcDbArc
 50
82.63190280820467
 51
85.67111797138883
  0
ARC
  5
31832BFD
330
318324AF
100
AcDbEntity
  8
JISSEN
100
AcDbCircle
 10
106.6192916667253
 20
90.77755567955012
 30
0.0
 40
24.90306398982923
100
AcDbArc
 50
85.67111797138883
 51
87.86241385819447
  0
LINE
  5
31832BFE
330
318324AF
100
AcDbEntity
  8
JISSEN
100
AcDbLine
 10
109.597434150941
 20
114.2959240917147
 30
0.0
 11
109.597434150941
 21
114.5999408426331
 31
0.0
  0
LINE
  5
31832BFF
330
318324AF
100
AcDbEntity
  8
JISSEN
100
AcDbLine
 10
109.5973589939029
 20
114.5984893138689
 30
0.0
 11
109.5973589939029
 21
115.4088536175978
 31
0.0
  0
LINE
  5
31832C00
330
318324AF
100
AcDbEntity
  8
JISSEN
100
AcDbLine
 10
109.597434150941
 20
113.2627601129315
 30
0.0
 11
109.597434150941
 21
113.5914938935011
 31
0.0
  0
LINE
  5
31832C01
330
318324AF
100
AcDbEntity
  8
JISSEN
100
AcDbLine
 10
109.5973589939029
 20
113.5746374624344
 30
0.0
 11
109.5973589939029
 21
114.2919193926586
 31
0.0
  0
ARC
  5
31832C02
330
318324AF
100
AcDbEntity
  8
JISSEN
100
AcDbCircle
 10
109.5299463329942
 20
115.4088536175978
 30
0.0
 40
0.0674126609086159
100
AcDbArc
 50
0.0000000000227982
 51
79.64350735095407
  0
ARC
  5
31832C03
330
318324AF
100
AcDbEntity
  8
JISSEN
100
AcDbCircle
 10
107.7440888460645
 20
105.636694430443
 30
0.0
 40
10.00141397672878
100
AcDbArc
 50
79.64350735096076
 51
85.67111797138883
  0
LINE
  5
31832C04
330
318324AF
100
AcDbEntity
  8
JISSEN
100
AcDbLine
 10
110.3473589939028
 20
111.1778492791042
 30
0.0
 11
110.3473589939028
 21
114.9278492791042
 31
0.0
  0
LINE
  5
31832C05
330
318324AF
100
AcDbEntity
  8
JISSEN
100
AcDbLine
 10
98.34735899390285
 20
109.9278492791042
 30
0.0
 11
98.34735899390285
 21
114.9278492791042
 31
0.0
  0
ARC
  5
31832C06
330
318324AF
100
AcDbEntity
  8
JISSEN
100
AcDbCircle
 10
101.8473589939029
 20
104.4744708145776
 30
0.0
 40
1.5
100
AcDbArc
 50
284.2500326978066
 51
0.0
  0
LINE
  5
31832C07
330
318324AF
100
AcDbEntity
  8
JISSEN
100
AcDbLine
 10
100.7766253740542
 20
102.2019928787849
 30
0.0
 11
102.1566898766498
 21
102.2019928787849
 31
0.0
  0
LINE
  5
31832C08
330
318324AF
100
AcDbEntity
  8
JISSEN
100
AcDbLine
 10
102.1029823223339
 20
101.467989636467
 30
0.0
 11
102.2165897631337
 21
103.0206246607315
 31
0.0
  0
ARC
  5
31832C09
330
318324AF
100
AcDbEntity
  8
JISSEN
100
AcDbCircle
 10
101.6175944557751
 20
101.503505821825
 30
0.0
 40
0.4866855046380603
100
AcDbArc
 50
298.1707402297499
 51
355.8150838748825
  0
ARC
  5
31832C0A
330
318324AF
100
AcDbEntity
  8
JISSEN
100
AcDbCircle
 10
109.8473589939029
 20
104.4744708145776
 30
0.0
 40
1.5
100
AcDbArc
 50
180.0
 51
255.7499673021998
  0
LINE
  5
31832C0B
330
318324AF
100
AcDbEntity
  8
JISSEN
100
AcDbLine
 10
109.4781282246721
 20
103.0206246607315
 30
0.0
 11
109.5917356654719
 21
101.467989636467
 31
0.0
  0
ARC
  5
31832C0C
330
318324AF
100
AcDbEntity
  8
JISSEN
100
AcDbCircle
 10
110.0771235320306
 20
101.503505821825
 30
0.0
 40
0.4866855046380603
100
AcDbArc
 50
184.1849161251174
 51
241.82925977025
  0
LINE
  5
31832C0D
330
318324AF
100
AcDbEntity
  8
JISSEN
100
AcDbLine
 10
108.4723589939028
 20
109.6778492791042
 30
0.0
 11
108.4723589939028
 21
105.1778492791042
 31
0.0
  0
LINE
  5
31832C0E
330
318324AF
100
AcDbEntity
  8
JISSEN
100
AcDbLine
 10
103.2223589939028
 20
109.6778492791042
 30
0.0
 11
103.2223589939028
 21
105.1778492791042
 31
0.0
  0
ARC
  5
31832C0F
330
318324AF
100
AcDbEntity
  8
JISSEN
100
AcDbCircle
 10
103.2223589939028
 20
109.9778492791042
 30
0.0
 40
1.199999999999999
100
AcDbArc
 50
270.0
 51
291.4232972478952
  0
ARC
  5
31832C10
330
318324AF
100
AcDbEntity
  8
JISSEN
100
AcDbCircle
 10
108.4723589939028
 20
109.9778492791042
 30
0.0
 40
1.199999999999999
100
AcDbArc
 50
248.5767027521117
 51
270.0
  0
LINE
  5
31832C11
330
318324AF
100
AcDbEntity
  8
JISSEN
100
AcDbLine
 10
109.8061962537335
 20
98.70258654876545
 30
0.0
 11
101.8061962537335
 21
98.70258654876545
 31
0.0
  0
LINE
  5
31832C12
330
318324AF
100
AcDbEntity
  8
JISSEN
100
AcDbLine
 10
108.6021901629476
 20
96.88103394568395
 30
0.0
 11
105.8061962537335
 21
96.88103394568395
 31
0.0
  0
LINE
  5
31832C13
330
318324AF
100
AcDbEntity
  8
JISSEN
100
AcDbLine
 10
109.8473589939029
 20
98.69940188218658
 30
0.0
 11
101.8473589939029
 21
98.69940188218658
 31
0.0
  0
ARC
  5
31832C14
330
318324AF
100
AcDbEntity
  8
JISSEN
100
AcDbCircle
 10
103.0102023445194
 20
95.38103394568395
 30
0.0
 40
1.5
100
AcDbArc
 50
90.0
 51
125.5633285759492
  0
ARC
  5
31832C15
330
318324AF
100
AcDbEntity
  8
JISSEN
100
AcDbCircle
 10
101.5561962537335
 20
97.41471688261322
 30
0.0
 40
1.0
100
AcDbArc
 50
237.8181160795993
 51
305.5633285759491
  0
LINE
  5
31832C16
330
318324AF
100
AcDbEntity
  8
JISSEN
100
AcDbLine
 10
103.0102023445194
 20
96.88103394568395
 30
0.0
 11
105.8061962537335
 21
96.88103394568395
 31
0.0
  0
LINE
  5
31832C17
330
318324AF
100
AcDbEntity
  8
SAISEN
100
AcDbLine
 10
103.8061962537336
 20
96.88103394568395
 30
0.0
 11
103.8061962537336
 21
98.02191694870794
 31
0.0
  0
LINE
  5
31832C18
330
318324AF
100
AcDbEntity
  8
JISSEN
100
AcDbLine
 10
103.3061962537336
 20
96.88103394568395
 30
0.0
 11
103.3061962537336
 21
97.52191694870795
 31
0.0
  0
LINE
  5
31832C19
330
318324AF
100
AcDbEntity
  8
JISSEN
100
AcDbLine
 10
103.3061962537336
 20
97.52191694870795
 30
0.0
 11
104.486865853791
 21
98.70258654876545
 31
0.0
  0
LINE
  5
31832C1A
330
318324AF
100
AcDbEntity
  8
JISSEN
100
AcDbLine
 10
108.3061962537336
 20
97.52191694870795
 30
0.0
 11
107.125526653676
 21
98.70258654876545
 31
0.0
  0
LINE
  5
31832C1B
330
318324AF
100
AcDbEntity
  8
SAISEN
100
AcDbLine
 10
107.8061962537336
 20
96.88103394568395
 30
0.0
 11
107.8061962537336
 21
98.02191694870794
 31
0.0
  0
ARC
  5
31832C1C
330
318324AF
100
AcDbEntity
  8
JISSEN
100
AcDbCircle
 10
108.6021901629476
 20
95.38103394568395
 30
0.0
 40
1.5
100
AcDbArc
 50
54.43667142405092
 51
90.0
  0
LINE
  5
31832C1D
330
318324AF
100
AcDbEntity
  8
JISSEN
100
AcDbLine
 10
108.3061962537336
 20
96.88103394568395
 30
0.0
 11
108.3061962537336
 21
97.52191694870795
 31
0.0
  0
LINE
  5
31832C1E
330
318324AF
100
AcDbEntity
  8
JISSEN
100
AcDbLine
 10
103.5517915409865
 20
86.18307744772096
 30
0.0
 11
108.0606009664806
 21
86.18307744772085
 31
0.0
  0
ARC
  5
31832C1F
330
318324AF
100
AcDbEntity
  8
JISSEN
100
AcDbCircle
 10
102.3926805494396
 20
85.68307744771994
 30
0.0
 40
0.5
100
AcDbArc
 50
13.29012998990297
 51
164.2012849264975
  0
ARC
  5
31832C20
330
318324AF
100
AcDbEntity
  8
JISSEN
100
AcDbCircle
 10
102.5923686729676
 20
84.88428721263256
 30
0.0
 40
0.1
100
AcDbArc
 50
13.29012998991047
 51
164.2012849264941
  0
ARC
  5
31832C21
330
318324AF
100
AcDbEntity
  8
JISSEN
100
AcDbCircle
 10
109.2197119580274
 20
85.68307744771994
 30
0.0
 40
0.5
100
AcDbArc
 50
15.79871507350246
 51
166.709870010097
  0
ARC
  5
31832C22
330
318324AF
100
AcDbEntity
  8
JISSEN
100
AcDbCircle
 10
109.0200238344995
 20
84.88428721263256
 30
0.0
 40
0.1
100
AcDbArc
 50
15.79871507350581
 51
166.7098700100894
  0
LINE
  5
31832C23
330
318324AF
100
AcDbEntity
  8
JISSEN
100
AcDbLine
 10
95.38500419596777
 20
86.18307744772085
 30
0.0
 11
97.63940890871493
 21
86.18307744772085
 31
0.0
  0
ARC
  5
31832C24
330
318324AF
100
AcDbEntity
  8
JISSEN
100
AcDbCircle
 10
94.8401881665443
 20
84.82757744772085
 30
0.0
 40
1.355499999999999
100
AcDbArc
 50
70.26879749381842
 51
124.9999999999967
  0
LINE
  5
31832C25
330
318324AF
100
AcDbEntity
  8
JISSEN
100
AcDbLine
 10
92.55619625373356
 20
84.88306904822707
 30
0.0
 11
94.06270530707059
 21
85.93793804375469
 31
0.0
  0
ARC
  5
31832C26
330
318324AF
100
AcDbEntity
  8
JISSEN
100
AcDbCircle
 10
97.63940890871493
 20
85.18307744772039
 30
0.0
 40
1.0
100
AcDbArc
 50
47.91894748809069
 51
146.3490341753988
  0
LINE
  5
31832C27
330
318324AF
100
AcDbEntity
  8
JISSEN
100
AcDbLine
 10
102.3926805494396
 20
86.18307744772085
 30
0.0
 11
98.48793704613889
 21
86.18307744772085
 31
0.0
  0
LINE
  5
31832C28
330
318324AF
100
AcDbEntity
  8
JISSEN
100
AcDbLine
 10
90.89877129562763
 20
97.35121092385373
 30
0.0
 11
100.3429588944801
 21
86.18307744772085
 31
0.0
  0
ARC
  5
31832C29
330
318324AF
100
AcDbEntity
  8
JISSEN
100
AcDbCircle
 10
89.05619625373367
 20
90.88103394568395
 30
0.0
 40
12.49999999999999
100
AcDbArc
 50
343.7397952916896
 51
16.26020470831033
  0
LINE
  5
31832C2A
330
318324AF
100
AcDbEntity
  8
JISSEN
100
AcDbLine
 10
88.7187075902076
 20
84.88306904822707
 30
0.0
 11
92.55619625373356
 21
84.88306904822707
 31
0.0
  0
ARC
  5
31832C2B
330
318324AF
100
AcDbEntity
  8
JISSEN
100
AcDbCircle
 10
113.8061962537335
 20
116.7225785004794
 30
0.0
 40
30.0
100
AcDbArc
 50
180.0
 51
220.2190987445535
  0
ARC
  5
31832C2C
330
318324AF
100
AcDbEntity
  8
JISSEN
100
AcDbCircle
 10
111.8473589939028
 20
109.9278492791042
 30
0.0
 40
13.5
100
AcDbArc
 50
180.0
 51
222.2054464037305
  0
LINE
  5
31832C2D
330
318324AF
100
AcDbEntity
  8
JISSEN
100
AcDbLine
 10
101.8473589939029
 20
98.69940188218658
 30
0.0
 11
101.8473589939029
 21
101.0744708145776
 31
0.0
  0
LINE
  5
31832C2E
330
318324AF
100
AcDbEntity
  8
JISSEN
100
AcDbLine
 10
109.8473589939029
 20
101.0744708145776
 30
0.0
 11
109.8473589939029
 21
98.69940188218658
 31
0.0
  0
ARC
  5
31832C2F
330
318324AF
100
AcDbEntity
  8
JISSEN
100
AcDbCircle
 10
113.8061962537335
 20
116.8810339456839
 30
0.0
 40
24.0
100
AcDbArc
 50
180.0
 51
237.8181160795993
  0
LINE
  5
31832C30
330
318324AF
100
AcDbEntity
  8
JISSEN
100
AcDbLine
 10
108.3473589939029
 20
104.4744708145776
 30
0.0
 11
107.38799744922
 21
117.9055324401385
 31
0.0
  0
LINE
  5
31832C31
330
318324AF
100
AcDbEntity
  8
JISSEN
100
AcDbLine
 10
104.3067205385858
 20
117.9055324401385
 30
0.0
 11
103.3473589939029
 21
104.4744708145776
 31
0.0
  0
LINE
  5
31832C32
330
318324AF
100
AcDbEntity
  8
JISSEN
100
AcDbLine
 10
83.80619625373356
 20
118.8810339456839
 30
0.0
 11
83.80619625373356
 21
116.7225785004794
 31
0.0
  0
ARC
  5
31832C33
330
318324AF
100
AcDbEntity
  8
JISSEN
100
AcDbCircle
 10
113.8061962537335
 20
116.8810339456839
 30
0.0
 40
26.0
100
AcDbArc
 50
180.0
 51
203.8188413934548
  0
ARC
  5
31832C34
330
318324AF
100
AcDbEntity
  8
JISSEN
100
AcDbCircle
 10
113.8061962537335
 20
116.8810339456839
 30
0.0
 40
28.0
100
AcDbArc
 50
180.0
 51
202.0243128370438
  0
ARC
  5
31832C35
330
318324AF
100
AcDbEntity
  8
JISSEN
100
AcDbCircle
 10
111.8473589939028
 20
114.9278492791042
 30
0.0
 40
13.5
100
AcDbArc
 50
139.0382114476454
 51
180.0
  0
LINE
  5
31832C36
330
318324AF
100
AcDbEntity
  8
JISSEN
100
AcDbLine
 10
102.9973589939029
 20
115.5925749821142
 30
0.0
 11
102.9973589939029
 21
117.280343208811
 31
0.0
  0
ARC
  5
31832C37
330
318324AF
100
AcDbEntity
  8
JISSEN
100
AcDbCircle
 10
111.8473589939028
 20
114.9278492791042
 30
0.0
 40
10.5
100
AcDbArc
 50
165.8509954910647
 51
180.0
  0
ARC
  5
31832C38
330
318324AF
100
AcDbEntity
  8
JISSEN
100
AcDbCircle
 10
99.84735899390285
 20
114.9278492791042
 30
0.0
 40
10.5
100
AcDbArc
 50
0.0
 51
14.14900450893525
  0
LINE
  5
31832C39
330
318324AF
100
AcDbEntity
  8
JISSEN
100
AcDbLine
 10
108.6973589939028
 20
117.280343208811
 30
0.0
 11
108.6973589939028
 21
115.5925749821143
 31
0.0
  0
ARC
  5
31832C3A
330
318324AF
100
AcDbEntity
  8
JISSEN
100
AcDbCircle
 10
99.84735899390285
 20
109.9278492791042
 30
0.0
 40
13.5
100
AcDbArc
 50
317.7945535962694
 51
0.0
  0
LINE
  5
31832C3B
330
318324AF
100
AcDbEntity
  8
JISSEN
100
AcDbLine
 10
109.2197119580274
 20
86.18307744772085
 30
0.0
 11
113.1244554613282
 21
86.18307744772085
 31
0.0
  0
ARC
  5
31832C3C
330
318324AF
100
AcDbEntity
  8
JISSEN
100
AcDbCircle
 10
122.5561962537334
 20
90.88103394568395
 30
0.0
 40
12.49999999999999
100
AcDbArc
 50
163.7397952916896
 51
196.2602047083103
  0
ARC
  5
31832C3D
330
318324AF
100
AcDbEntity
  8
JISSEN
100
AcDbCircle
 10
110.0561962537335
 20
97.41471688261322
 30
0.0
 40
1.0
100
AcDbArc
 50
234.4366714240507
 51
302.1818839204005
  0
LINE
  5
31832C3E
330
318324AF
100
AcDbEntity
  8
JISSEN
100
AcDbLine
 10
109.538028111156
 20
102.2019928787849
 30
0.0
 11
110.9180926137514
 21
102.2019928787849
 31
0.0
  0
LINE
  5
31832C3F
330
318324AF
100
AcDbEntity
  8
JISSEN
100
AcDbLine
 10
113.3061962537335
 20
126.0810339456838
 30
0.0
 11
98.30619625373357
 21
126.0810339456838
 31
0.0
  0
LINE
  5
31832C40
330
318324AF
100
AcDbEntity
  8
JISSEN
100
AcDbLine
 10
113.3061962537335
 20
126.0810339456838
 30
0.0
 11
105.8061962537335
 21
126.0810339456838
 31
0.0
  0
LINE
  5
31832C41
330
318324AF
100
AcDbEntity
  8
JISSEN
100
AcDbLine
 10
110.8037958900675
 20
122.8149584161935
 30
0.0
 11
100.890922097738
 21
122.8149584161936
 31
0.0
  0
LINE
  5
31832C42
330
318324AF
100
AcDbEntity
  8
JISSEN
100
AcDbLine
 10
98.29221958915219
 20
123.7761940911119
 30
0.0
 11
113.2922195891522
 21
123.7761940911119
 31
0.0
  0
ARC
  5
31832C43
330
318324AF
100
AcDbEntity
  8
JISSEN
100
AcDbCircle
 10
99.84735899390285
 20
114.9278492791042
 30
0.0
 40
13.5
100
AcDbArc
 50
0.0
 51
40.96178855235438
  0
ARC
  5
31832C44
330
318324AF
100
AcDbEntity
  8
JISSEN
100
AcDbCircle
 10
108.8473589939028
 20
111.1778492791042
 30
0.0
 40
1.5
100
AcDbArc
 50
270.0
 51
0.0
  0
LINE
  5
31832C45
330
318324AF
100
AcDbEntity
  8
JISSEN
100
AcDbLine
 10
111.8061962537341
 20
126.3810339456839
 30
0.0
 11
107.6052367082135
 21
126.3810339456838
 31
0.0
  0
LINE
  5
31832C46
330
318324AF
100
AcDbEntity
  8
JISSEN
100
AcDbLine
 10
107.6052367082135
 20
126.3810339456838
 30
0.0
 11
113.3061962537335
 21
126.3810339456838
 31
0.0
  0
LINE
  5
31832C47
330
318324AF
100
AcDbEntity
  8
JISSEN
100
AcDbLine
 10
116.5507589002717
 20
134.8810339456839
 30
0.0
 11
110.3671341531114
 21
134.8810339456839
 31
0.0
  0
LINE
  5
31832C48
330
318324AF
100
AcDbEntity
  8
JISSEN
100
AcDbLine
 10
114.0056577409662
 20
130.8810339456839
 30
0.0
 11
107.3061962537335
 21
130.8810339456839
 31
0.0
  0
LINE
  5
31832C49
330
318324AF
100
AcDbEntity
  8
JISSEN
100
AcDbLine
 10
113.0561962537335
 20
127.1027217821709
 30
0.0
 11
107.3467623962498
 21
127.1027217821709
 31
0.0
  0
LINE
  5
31832C4A
330
318324AF
100
AcDbEntity
  8
JISSEN
100
AcDbLine
 10
113.3061962537335
 20
129.0810339456838
 30
0.0
 11
107.0562182737586
 21
129.0810339456838
 31
0.0
  0
LINE
  5
31832C4B
330
318324AF
100
AcDbEntity
  8
JISSEN
100
AcDbLine
 10
116.4548500387331
 20
137.2443865186229
 30
0.0
 11
116.2609574253491
 21
143.4486400922409
 31
0.0
  0
LINE
  5
31832C4C
330
318324AF
100
AcDbEntity
  8
JISSEN
100
AcDbLine
 10
124.6325480760666
 20
83.56103394568391
 30
0.0
 11
124.8061962537335
 21
84.54584169869633
 31
0.0
  0
ARC
  5
31832C4D
330
318324AF
100
AcDbEntity
  8
JISSEN
100
AcDbCircle
 10
116.6059281728772
 20
83.56103394568391
 30
0.0
 40
0.18
100
AcDbArc
 50
270.0
 51
0.0
  0
ARC
  5
31832C4E
330
318324AF
100
AcDbEntity
  8
JISSEN
100
AcDbCircle
 10
95.23667827618409
 20
83.56103394568391
 30
0.0
 40
0.18
100
AcDbArc
 50
180.0
 51
270.0
  0
LINE
  5
31832C4F
330
318324AF
100
AcDbEntity
  8
JISSEN
100
AcDbLine
 10
86.80619625373356
 20
84.5458416986961
 30
0.0
 11
87.8061962537331
 21
84.72216867940437
 31
0.0
  0
LINE
  5
31832C50
330
318324AF
100
AcDbEntity
  8
JISSEN
100
AcDbLine
 10
86.97984443140047
 20
83.56103394568368
 30
0.0
 11
86.80619625373356
 21
84.5458416986961
 31
0.0
  0
LINE
  5
31832C51
330
318324AF
100
AcDbEntity
  8
JISSEN
100
AcDbLine
 10
124.6325480760666
 20
83.56103394568391
 30
0.0
 11
86.97984443140047
 21
83.56103394568391
 31
0.0
  0
LINE
  5
31832C52
330
318324AF
100
AcDbEntity
  8
JISSEN
100
AcDbLine
 10
86.80619625373356
 20
84.5458416986961
 30
0.0
 11
124.8061962537335
 21
84.54584169869633
 31
0.0
  0
LINE
  5
31832C53
330
318324AF
100
AcDbEntity
  8
JISSEN
100
AcDbLine
 10
116.6059281728772
 20
83.38103394568395
 30
0.0
 11
95.23667827618409
 21
83.38103394568395
 31
0.0
  0
LINE
  5
31832C54
330
318324AF
100
AcDbEntity
  8
JISSEN
100
AcDbLine
 10
87.8061962537331
 20
84.72216867940437
 30
0.0
 11
88.71870759020737
 21
84.88306904822707
 31
0.0
  0
LINE
  5
31832C55
330
318324AF
100
AcDbEntity
  8
JISSEN
100
AcDbLine
 10
103.3836514685011
 20
84.54584169869622
 30
0.0
 11
103.5517915409865
 21
86.18307744772085
 31
0.0
  0
LINE
  5
31832C56
330
318324AF
100
AcDbEntity
  8
JISSEN
100
AcDbLine
 10
102.7750640947273
 20
84.54584169869622
 30
0.0
 11
102.6896905217341
 21
84.90727542162472
 31
0.0
  0
LINE
  5
31832C57
330
318324AF
100
AcDbEntity
  8
JISSEN
100
AcDbLine
 10
102.3926805494396
 20
84.54584169869622
 30
0.0
 11
102.4961462630178
 21
84.91151307944063
 31
0.0
  0
LINE
  5
31832C58
330
318324AF
100
AcDbEntity
  8
JISSEN
100
AcDbLine
 10
101.5512733442516
 20
84.54584169869622
 30
0.0
 11
101.9115684996905
 21
85.81920678176038
 31
0.0
  0
LINE
  5
31832C59
330
318324AF
100
AcDbEntity
  8
JISSEN
100
AcDbLine
 10
103.1750640947271
 20
84.54584169869622
 30
0.0
 11
102.8792897932722
 21
85.79801849268074
 31
0.0
  0
LINE
  5
31832C5A
330
318324AF
100
AcDbEntity
  8
JISSEN
100
AcDbLine
 10
96.01390880698955
 20
84.54584169869622
 30
0.0
 11
96.80698025111439
 21
85.7372096792368
 31
0.0
  0
LINE
  5
31832C5B
330
318324AF
100
AcDbEntity
  8
JISSEN
100
AcDbLine
 10
97.35530269261779
 20
84.54584169869622
 30
0.0
 11
98.48793704613889
 21
86.18307744772085
 31
0.0
  0
LINE
  5
31832C5C
330
318324AF
100
AcDbEntity
  8
JISSEN
100
AcDbLine
 10
93.59136402175716
 20
84.5458416986961
 30
0.0
 11
95.38500419596777
 21
86.18307744772085
 31
0.0
  0
LINE
  5
31832C5D
330
318324AF
100
AcDbEntity
  8
JISSEN
100
AcDbLine
 10
115.5984837004775
 20
84.54584169869622
 30
0.0
 11
114.8054122563527
 21
85.7372096792368
 31
0.0
  0
LINE
  5
31832C5E
330
318324AF
100
AcDbEntity
  8
JISSEN
100
AcDbLine
 10
118.0210284857099
 20
84.5458416986961
 30
0.0
 11
116.2273883114993
 21
86.18307744772085
 31
0.0
  0
LINE
  5
31832C5F
330
318324AF
100
AcDbEntity
  8
JISSEN
100
AcDbLine
 10
108.4373284127399
 20
84.54584169869622
 30
0.0
 11
108.7331027141948
 21
85.79801849268074
 31
0.0
  0
LINE
  5
31832C60
330
318324AF
100
AcDbEntity
  8
JISSEN
100
AcDbLine
 10
109.2197119580274
 20
84.54584169869622
 30
0.0
 11
109.1162462444492
 21
84.91151307944063
 31
0.0
  0
LINE
  5
31832C61
330
318324AF
100
AcDbEntity
  8
JISSEN
100
AcDbLine
 10
108.8373284127397
 20
84.54584169869622
 30
0.0
 11
108.9227019857329
 21
84.90727542162472
 31
0.0
  0
LINE
  5
31832C62
330
318324AF
100
AcDbEntity
  8
JISSEN
100
AcDbLine
 10
108.0606009664806
 20
86.18307744772085
 30
0.0
 11
108.2287410389661
 21
84.54584169869622
 31
0.0
  0
LINE
  5
31832C63
330
318324AF
100
AcDbEntity
  8
JISSEN
100
AcDbLine
 10
110.0611191632155
 20
84.54584169869622
 30
0.0
 11
109.7008240077765
 21
85.81920678176038
 31
0.0
  0
LINE
  5
31832C64
330
318324AF
100
AcDbEntity
  8
JISSEN
100
AcDbLine
 10
114.2570898148493
 20
84.54584169869622
 30
0.0
 11
113.1244554613282
 21
86.18307744772085
 31
0.0
  0
LINE
  5
31832C65
330
318324AF
100
AcDbEntity
  8
JISSEN
100
AcDbLine
 10
124.8061962537335
 20
84.54584169869633
 30
0.0
 11
122.8936849172597
 21
84.8830690482273
 31
0.0
  0
TEXT
  5
31832C66
330
318324AF
100
AcDbEntity
  8
SUNPOU
100
AcDbText
 10
143.7321267490536
 20
78.53203095278793
 30
0.0
 40
4.5
  1
%%u※ Lの寸法は 200～1600mm までとし、
  7
K
 72
     4
 11
200.0571267490536
 21
80.33203095278793
 31
0.0
100
AcDbText
  0
LWPOLYLINE
  5
31832C67
330
318324AF
100
AcDbEntity
  8
SAISEN
100
AcDbPolyline
 90
       35
 70
     0
 43
0.0
 10
91.30619625373356
 20
245.3634652413195
 10
93.51228428133703
 20
244.0317564603434
 10
95.35166699484904
 20
243.3651191200233
 10
96.8772964443827
 20
243.2295499798145
 10
98.14212468005088
 20
243.491045799172
 10
99.19910375196673
 20
244.0156033375509
 10
100.1011857102431
 20
244.6692193544063
 10
100.9013226049932
 20
245.3178906091932
 10
101.6524664863299
 20
245.8276138613668
 10
102.3981667042578
 20
246.0953730895806
 10
103.1443618083478
 20
246.1421011492826
 10
103.8875876480619
 20
246.019718115119
 10
104.6243800728627
 20
245.7801440617363
 10
105.3512749322122
 20
245.4752990637808
 10
106.064808075573
 20
245.157103195899
 10
106.7615153524071
 20
244.8774765327371
 10
107.437932612177
 20
244.6883391489414
 10
108.0922727926277
 20
244.6264196896504
 10
108.7294571846354
 20
244.6676810819699
 10
109.356084167359
 20
244.7728948234977
 10
109.9787521199574
 20
244.9028324118316
 10
110.6040594215896
 20
245.0182653445693
 10
111.2386044514145
 20
245.0799651193087
 10
111.888985588591
 20
245.0487032336476
 10
112.5618012122781
 20
244.8852511851837
 10
113.2619176285573
 20
244.5671102732674
 10
113.987272851201
 20
244.1387010042593
 10
114.7340728209037
 20
243.6611736862729
 10
115.4985234783606
 20
243.1956786274214
 10
116.2768307642662
 20
242.8033661358181
 10
117.0652006193155
 20
242.5453865195762
 10
117.8598389842034
 20
242.4828900868091
 10
118.6569517996246
 20
242.6770271456301
 10
119.4654468959619
 20
243.1498843315468
 10
120.3061962537335
 20
243.74002838123
  0
LWPOLYLINE
  5
31832C68
330
318324AF
100
AcDbEntity
  8
SAISEN
100
AcDbPolyline
 90
       35
 70
     0
 43
0.0
 10
91.30619625373356
 20
247.3634652413195
 10
93.51228428133703
 20
246.0317564603434
 10
95.35166699484904
 20
245.3651191200233
 10
96.8772964443827
 20
245.2295499798145
 10
98.14212468005088
 20
245.491045799172
 10
99.19910375196673
 20
246.0156033375509
 10
100.1011857102431
 20
246.6692193544063
 10
100.9013226049932
 20
247.3178906091932
 10
101.6524664863299
 20
247.8276138613668
 10
102.3981667042578
 20
248.0953730895806
 10
103.1443618083478
 20
248.1421011492826
 10
103.8875876480619
 20
248.019718115119
 10
104.6243800728627
 20
247.7801440617363
 10
105.3512749322122
 20
247.4752990637808
 10
106.064808075573
 20
247.157103195899
 10
106.7615153524071
 20
246.8774765327371
 10
107.437932612177
 20
246.6883391489414
 10
108.0922727926277
 20
246.6264196896504
 10
108.7294571846354
 20
246.6676810819699
 10
109.356084167359
 20
246.7728948234977
 10
109.9787521199574
 20
246.9028324118316
 10
110.6040594215896
 20
247.0182653445693
 10
111.2386044514145
 20
247.0799651193087
 10
111.888985588591
 20
247.0487032336476
 10
112.5618012122781
 20
246.8852511851837
 10
113.2619176285573
 20
246.5671102732674
 10
113.987272851201
 20
246.1387010042593
 10
114.7340728209037
 20
245.6611736862729
 10
115.4985234783606
 20
245.1956786274214
 10
116.2768307642662
 20
244.8033661358181
 10
117.0652006193155
 20
244.5453865195762
 10
117.8598389842034
 20
244.4828900868091
 10
118.6569517996246
 20
244.6770271456301
 10
119.4654468959619
 20
245.1498843315468
 10
120.3061962537335
 20
245.74002838123
  0
ARC
  5
31832C69
330
318324AF
100
AcDbEntity
  8
JISSEN
100
AcDbCircle
 10
141.8061962537335
 20
162.0036552258024
 30
0.0
 40
4.0
100
AcDbArc
 50
270.0
 51
0.0
  0
LINE
  5
31832C6A
330
318324AF
100
AcDbEntity
  8
JISSEN
100
AcDbLine
 10
128.3061962537335
 20
154.0036552258023
 30
0.0
 11
128.3061962537335
 21
151.0036552258024
 31
0.0
  0
LINE
  5
31832C6B
330
318324AF
100
AcDbEntity
  8
JISSEN
100
AcDbLine
 10
123.3061962537335
 20
154.2536552258023
 30
0.0
 11
124.2561962537335
 21
154.2536552258023
 31
0.0
  0
LINE
  5
31832C6C
330
318324AF
100
AcDbEntity
  8
JISSEN
100
AcDbLine
 10
123.0561962537335
 20
155.4536552258024
 30
0.0
 11
123.0561962537335
 21
154.5036552258023
 31
0.0
  0
ARC
  5
31832C6D
330
318324AF
100
AcDbEntity
  8
JISSEN
100
AcDbCircle
 10
123.3061962537335
 20
154.5036552258023
 30
0.0
 40
0.25
100
AcDbArc
 50
180.0000000000007
 51
270.0000000000006
  0
LINE
  5
31832C6E
330
318324AF
100
AcDbEntity
  8
JISSEN
100
AcDbLine
 10
122.5561962537335
 20
155.4536552258024
 30
0.0
 11
122.5561962537335
 21
154.5036552258023
 31
0.0
  0
LINE
  5
31832C6F
330
318324AF
100
AcDbEntity
  8
JISSEN
100
AcDbLine
 10
121.3561962537335
 20
154.2536552258023
 30
0.0
 11
122.3061962537335
 21
154.2536552258023
 31
0.0
  0
ARC
  5
31832C70
330
318324AF
100
AcDbEntity
  8
JISSEN
100
AcDbCircle
 10
122.3061962537335
 20
154.5036552258023
 30
0.0
 40
0.25
100
AcDbArc
 50
270.0
 51
359.9999999999992
  0
LINE
  5
31832C71
330
318324AF
100
AcDbEntity
  8
JISSEN
100
AcDbLine
 10
122.5561962537335
 20
153.5036552258024
 30
0.0
 11
122.5561962537335
 21
152.5536552258023
 31
0.0
  0
LINE
  5
31832C72
330
318324AF
100
AcDbEntity
  8
JISSEN
100
AcDbLine
 10
121.3561962537335
 20
153.7536552258023
 30
0.0
 11
122.3061962537335
 21
153.7536552258023
 31
0.0
  0
ARC
  5
31832C73
330
318324AF
100
AcDbEntity
  8
JISSEN
100
AcDbCircle
 10
122.3061962537335
 20
153.5036552258024
 30
0.0
 40
0.25
100
AcDbArc
 50
0.0000000000008142
 51
89.99999999999939
  0
LINE
  5
31832C74
330
318324AF
100
AcDbEntity
  8
JISSEN
100
AcDbLine
 10
123.0561962537335
 20
153.5036552258024
 30
0.0
 11
123.0561962537335
 21
152.5536552258023
 31
0.0
  0
LINE
  5
31832C75
330
318324AF
100
AcDbEntity
  8
JISSEN
100
AcDbLine
 10
123.3061962537335
 20
153.7536552258023
 30
0.0
 11
124.2561962537335
 21
153.7536552258023
 31
0.0
  0
ARC
  5
31832C76
330
318324AF
100
AcDbEntity
  8
JISSEN
100
AcDbCircle
 10
123.3061962537335
 20
153.5036552258024
 30
0.0
 40
0.25
100
AcDbArc
 50
90.0
 51
180.0
  0
ARC
  5
31832C77
330
318324AF
100
AcDbEntity
  8
JISSEN
100
AcDbCircle
 10
124.2561962537335
 20
154.0036552258023
 30
0.0
 40
0.25
100
AcDbArc
 50
270.0
 51
90.0
  0
ARC
  5
31832C78
330
318324AF
100
AcDbEntity
  8
JISSEN
100
AcDbCircle
 10
121.3561962537335
 20
154.0036552258023
 30
0.0
 40
0.25
100
AcDbArc
 50
90.0
 51
270.0
  0
ARC
  5
31832C79
330
318324AF
100
AcDbEntity
  8
JISSEN
100
AcDbCircle
 10
122.8061962537335
 20
152.5536552258023
 30
0.0
 40
0.25
100
AcDbArc
 50
180.0
 51
0.0
  0
ARC
  5
31832C7A
330
318324AF
100
AcDbEntity
  8
JISSEN
100
AcDbCircle
 10
122.8061962537335
 20
155.4536552258024
 30
0.0
 40
0.25
100
AcDbArc
 50
0.0
 51
180.0
  0
ARC
  5
31832C7B
330
318324AF
100
AcDbEntity
  8
JISSEN
100
AcDbCircle
 10
132.3061962537335
 20
154.0036552258023
 30
0.0
 40
4.0
100
AcDbArc
 50
90.0
 51
180.0
  0
CIRCLE
  5
31832C7C
330
318324AF
100
AcDbEntity
  8
JISSEN
100
AcDbCircle
 10
122.8061962537335
 20
154.0036552258023
 30
0.0
 40
2.75
  0
CIRCLE
  5
31832C7D
330
318324AF
100
AcDbEntity
  8
JISSEN
100
AcDbCircle
 10
122.8061962537335
 20
154.0036552258023
 30
0.0
 40
3.0
  0
LINE
  5
31832C7E
330
318324AF
100
AcDbEntity
  8
JISSEN
100
AcDbLine
 10
132.3061962537335
 20
158.0036552258023
 30
0.0
 11
141.8061962537335
 21
158.0036552258023
 31
0.0
  0
ARC
  5
31832C7F
330
318324AF
100
AcDbEntity
  8
JISSEN
100
AcDbCircle
 10
124.3061962537335
 20
151.0036552258024
 30
0.0
 40
4.0
100
AcDbArc
 50
270.0
 51
0.0
  0
ARC
  5
31832C80
330
318324AF
100
AcDbEntity
  8
JISSEN
100
AcDbCircle
 10
88.80619625373356
 20
155.4536552258024
 30
0.0
 40
0.25
100
AcDbArc
 50
0.0
 51
180.0
  0
ARC
  5
31832C81
330
318324AF
100
AcDbEntity
  8
JISSEN
100
AcDbCircle
 10
88.80619625373356
 20
152.5536552258023
 30
0.0
 40
0.25
100
AcDbArc
 50
180.0
 51
0.0
  0
ARC
  5
31832C82
330
318324AF
100
AcDbEntity
  8
JISSEN
100
AcDbCircle
 10
90.2561962537336
 20
154.0036552258023
 30
0.0
 40
0.25
100
AcDbArc
 50
270.0
 51
90.0
  0
ARC
  5
31832C83
330
318324AF
100
AcDbEntity
  8
JISSEN
100
AcDbCircle
 10
87.35619625373358
 20
154.0036552258023
 30
0.0
 40
0.25
100
AcDbArc
 50
90.0
 51
270.0
  0
ARC
  5
31832C84
330
318324AF
100
AcDbEntity
  8
JISSEN
100
AcDbCircle
 10
88.30619625373357
 20
153.5036552258024
 30
0.0
 40
0.25
100
AcDbArc
 50
0.0
 51
90.0
  0
LINE
  5
31832C85
330
318324AF
100
AcDbEntity
  8
JISSEN
100
AcDbLine
 10
88.30619625373357
 20
153.7536552258023
 30
0.0
 11
87.35619625373358
 21
153.7536552258023
 31
0.0
  0
LINE
  5
31832C86
330
318324AF
100
AcDbEntity
  8
JISSEN
100
AcDbLine
 10
88.55619625373355
 20
153.5036552258024
 30
0.0
 11
88.55619625373355
 21
152.5536552258023
 31
0.0
  0
ARC
  5
31832C87
330
318324AF
100
AcDbEntity
  8
JISSEN
100
AcDbCircle
 10
89.30619625373356
 20
153.5036552258024
 30
0.0
 40
0.25
100
AcDbArc
 50
90.00000000000062
 51
179.9999999999991
  0
LINE
  5
31832C88
330
318324AF
100
AcDbEntity
  8
JISSEN
100
AcDbLine
 10
90.2561962537336
 20
153.7536552258023
 30
0.0
 11
89.30619625373356
 21
153.7536552258023
 31
0.0
  0
LINE
  5
31832C89
330
318324AF
100
AcDbEntity
  8
JISSEN
100
AcDbLine
 10
89.05619625373356
 20
153.5036552258024
 30
0.0
 11
89.05619625373356
 21
152.5536552258023
 31
0.0
  0
ARC
  5
31832C8A
330
318324AF
100
AcDbEntity
  8
JISSEN
100
AcDbCircle
 10
89.30619625373356
 20
154.5036552258023
 30
0.0
 40
0.25
100
AcDbArc
 50
180.0000000000007
 51
270.0
  0
LINE
  5
31832C8B
330
318324AF
100
AcDbEntity
  8
JISSEN
100
AcDbLine
 10
90.2561962537336
 20
154.2536552258023
 30
0.0
 11
89.30619625373356
 21
154.2536552258023
 31
0.0
  0
LINE
  5
31832C8C
330
318324AF
100
AcDbEntity
  8
JISSEN
100
AcDbLine
 10
89.05619625373356
 20
155.4536552258024
 30
0.0
 11
89.05619625373356
 21
154.5036552258023
 31
0.0
  0
ARC
  5
31832C8D
330
318324AF
100
AcDbEntity
  8
JISSEN
100
AcDbCircle
 10
88.30619625373357
 20
154.5036552258023
 30
0.0
 40
0.25
100
AcDbArc
 50
269.9999999999992
 51
359.9999999999992
  0
LINE
  5
31832C8E
330
318324AF
100
AcDbEntity
  8
JISSEN
100
AcDbLine
 10
88.55619625373355
 20
155.4536552258024
 30
0.0
 11
88.55619625373355
 21
154.5036552258023
 31
0.0
  0
LINE
  5
31832C8F
330
318324AF
100
AcDbEntity
  8
JISSEN
100
AcDbLine
 10
88.30619625373357
 20
154.2536552258023
 30
0.0
 11
87.35619625373358
 21
154.2536552258023
 31
0.0
  0
LINE
  5
31832C90
330
318324AF
100
AcDbEntity
  8
JISSEN
100
AcDbLine
 10
83.30619625373357
 20
154.0036552258023
 30
0.0
 11
83.30619625373357
 21
151.0036552258024
 31
0.0
  0
ARC
  5
31832C91
330
318324AF
100
AcDbEntity
  8
JISSEN
100
AcDbCircle
 10
79.30619625373356
 20
154.0036552258023
 30
0.0
 40
4.0
100
AcDbArc
 50
0.0
 51
90.0
  0
CIRCLE
  5
31832C92
330
318324AF
100
AcDbEntity
  8
JISSEN
100
AcDbCircle
 10
88.80619625373356
 20
154.0036552258023
 30
0.0
 40
3.0
  0
CIRCLE
  5
31832C93
330
318324AF
100
AcDbEntity
  8
JISSEN
100
AcDbCircle
 10
88.80619625373356
 20
154.0036552258023
 30
0.0
 40
2.75
  0
ARC
  5
31832C94
330
318324AF
100
AcDbEntity
  8
JISSEN
100
AcDbCircle
 10
69.80619625373356
 20
162.0036552258024
 30
0.0
 40
4.0
100
AcDbArc
 50
180.0
 51
270.0
  0
LINE
  5
31832C95
330
318324AF
100
AcDbEntity
  8
JISSEN
100
AcDbLine
 10
79.30619625373356
 20
158.0036552258023
 30
0.0
 11
69.80619625373356
 21
158.0036552258023
 31
0.0
  0
ARC
  5
31832C96
330
318324AF
100
AcDbEntity
  8
JISSEN
100
AcDbCircle
 10
87.30619625373355
 20
151.0036552258024
 30
0.0
 40
4.0
100
AcDbArc
 50
180.0
 51
270.0
  0
LINE
  5
31832C97
102
{ACAD_REACTORS
330
31832B7C
102
}
330
318324AF
100
AcDbEntity
  8
JISSEN
100
AcDbLine
 10
33.29266330075893
 20
162.0036552258024
 30
0.0
 11
145.8061962537335
 21
162.0036552258024
 31
0.0
  0
LINE
  5
31832C98
330
318324AF
100
AcDbEntity
  8
JISSEN
100
AcDbLine
 10
124.3061962537335
 20
147.0036552258024
 30
0.0
 11
87.30619625373355
 21
147.0036552258024
 31
0.0
  0
LINE
  5
31832C99
330
318324AF
100
AcDbEntity
  8
JISSEN
100
AcDbLine
 10
93.3061962537331
 20
266.6448639469158
 30
0.0
 11
93.30619625373334
 21
246.15616184788
 31
0.0
  0
LINE
  5
31832C9A
330
318324AF
100
AcDbEntity
  8
JISSEN
100
AcDbLine
 10
92.80619625373356
 20
223.448640092241
 30
0.0
 11
93.30619625373357
 21
223.448640092241
 31
0.0
  0
LINE
  5
31832C9B
330
318324AF
100
AcDbEntity
  8
JISSEN
100
AcDbLine
 10
92.30619625373355
 20
222.948640092241
 30
0.0
 11
92.30619625373355
 21
162.0036552258024
 31
0.0
  0
LINE
  5
31832C9C
330
318324AF
100
AcDbEntity
  8
JISSEN
100
AcDbLine
 10
92.80619625373356
 20
223.448640092241
 30
0.0
 11
92.30619625373355
 21
222.948640092241
 31
0.0
  0
LINE
  5
31832C9D
330
318324AF
100
AcDbEntity
  8
JISSEN
100
AcDbLine
 10
118.8061962537335
 20
223.448640092241
 30
0.0
 11
119.3061962537335
 21
222.948640092241
 31
0.0
  0
LINE
  5
31832C9E
330
318324AF
100
AcDbEntity
  8
JISSEN
100
AcDbLine
 10
118.8061962537335
 20
223.448640092241
 30
0.0
 11
119.3061962537335
 21
222.948640092241
 31
0.0
  0
LINE
  5
31832C9F
330
318324AF
100
AcDbEntity
  8
JISSEN
100
AcDbLine
 10
93.30619625373357
 20
223.448640092241
 30
0.0
 11
118.3061962537335
 21
223.448640092241
 31
0.0
  0
LINE
  5
31832CA0
330
318324AF
100
AcDbEntity
  8
JISSEN
100
AcDbLine
 10
122.1537046662317
 20
311.8681518083141
 30
0.0
 11
122.5903917340415
 21
297.8948639469172
 31
0.0
  0
LINE
  5
31832CA1
330
318324AF
100
AcDbEntity
  8
SAISEN
100
AcDbLine
 10
90.98539997983937
 20
313.3948639469172
 30
0.0
 11
90.50100077342552
 21
297.8948639469172
 31
0.0
  0
LINE
  5
31832CA2
330
318324AF
100
AcDbEntity
  8
SAISEN
100
AcDbLine
 10
120.6269925276277
 20
313.3948639469172
 30
0.0
 11
121.1113917340415
 21
297.8948639469172
 31
0.0
  0
LINE
  5
31832CA3
330
318324AF
100
AcDbEntity
  8
JISSEN
100
AcDbLine
 10
89.45868784123536
 20
311.8681518083123
 30
0.0
 11
89.02200077342547
 21
297.8948639469172
 31
0.0
  0
LINE
  5
31832CA4
330
318324AF
100
AcDbEntity
  8
SAISEN
100
AcDbLine
 10
93.55619625373355
 20
267.3948639469172
 30
0.0
 11
94.05619625373265
 21
267.3948639469172
 31
0.0
  0
LINE
  5
31832CA5
330
318324AF
100
AcDbEntity
  8
JISSEN
100
AcDbLine
 10
94.05619625373356
 20
267.3948639469163
 30
0.0
 11
93.30619625373357
 21
266.6448639469162
 31
0.0
  0
LINE
  5
31832CA7
330
318324AF
100
AcDbEntity
  8
JISSEN
100
AcDbLine
 10
90.80619625373357
 20
284.2738826159919
 30
0.0
 11
90.80619625373357
 21
271.8948639469171
 31
0.0
  0
LINE
  5
31832CA8
330
318324AF
100
AcDbEntity
  8
JISSEN
100
AcDbLine
 10
93.55619625373355
 20
271.3948639469172
 30
0.0
 11
93.55619625373355
 21
266.8948639469163
 31
0.0
  0
LINE
  5
31832CA9
330
318324AF
100
AcDbEntity
  8
JISSEN
100
AcDbLine
 10
90.80619625373357
 20
271.8948639469171
 30
0.0
 11
91.30619625373356
 21
271.3948639469172
 31
0.0
  0
LINE
  5
31832CAA
330
318324AF
100
AcDbEntity
  8
JISSEN
100
AcDbLine
 10
91.30619625373356
 20
271.3948639469172
 30
0.0
 11
118.0561962537335
 21
271.3948639469172
 31
0.0
  0
LINE
  5
31832CAB
330
318324AF
100
AcDbEntity
  8
JISSEN
100
AcDbLine
 10
89.02200077342547
 20
297.8948639469172
 30
0.0
 11
89.80619625373355
 21
297.8948639469172
 31
0.0
  0
LINE
  5
31832CAC
330
318324AF
100
AcDbEntity
  8
JISSEN
100
AcDbLine
 10
90.80619625373357
 20
296.8948639469173
 30
0.0
 11
90.80619625373357
 21
295.2488517757169
 31
0.0
  0
ARC
  5
31832CAD
330
318324AF
100
AcDbEntity
  8
JISSEN
100
AcDbCircle
 10
89.80619625373355
 20
296.8948639469173
 30
0.0
 40
1.0
100
AcDbArc
 50
0.0
 51
89.9999999999998
  0
LINE
  5
31832CAF
330
318324AF
100
AcDbEntity
  8
JISSEN
100
AcDbLine
 10
118.3061962537334
 20
266.6448639469181
 30
0.0
 11
118.3061962537334
 21
244.5916005300657
 31
0.0
  0
LINE
  5
31832CB0
330
318324AF
100
AcDbEntity
  8
JISSEN
100
AcDbLine
 10
120.29262901228
 20
271.3948639469172
 30
0.0
 11
118.0561962537335
 21
271.3948639469172
 31
0.0
  0
LINE
  5
31832CB1
330
318324AF
100
AcDbEntity
  8
SAISEN
100
AcDbLine
 10
94.05619625373356
 20
271.3948639469172
 30
0.0
 11
94.05619625373356
 21
267.3948639469172
 31
0.0
  0
LINE
  5
31832CB2
330
318324AF
100
AcDbEntity
  8
JISSEN
100
AcDbLine
 10
118.0561962537335
 20
266.8948639469181
 30
0.0
 11
118.0561962537335
 21
271.3948639469172
 31
0.0
  0
LINE
  5
31832CB3
330
318324AF
100
AcDbEntity
  8
SAISEN
100
AcDbLine
 10
117.5561962537335
 20
267.3948639469172
 30
0.0
 11
117.5561962537335
 21
271.3948639469172
 31
0.0
  0
LINE
  5
31832CB4
330
318324AF
100
AcDbEntity
  8
SAISEN
100
AcDbLine
 10
118.0561962537335
 20
267.3948639469172
 30
0.0
 11
94.05619625373356
 21
267.3948639469172
 31
0.0
  0
LINE
  5
31832CB5
330
318324AF
100
AcDbEntity
  8
JISSEN
100
AcDbLine
 10
117.5561962537335
 20
267.3948639469172
 30
0.0
 11
118.3061962537335
 21
266.6448639469181
 31
0.0
  0
LINE
  5
31832CB6
330
318324AF
100
AcDbEntity
  8
JISSEN
100
AcDbLine
 10
120.8061962537335
 20
284.2738826159919
 30
0.0
 11
120.8061962537335
 21
271.8948639469171
 31
0.0
  0
LINE
  5
31832CB7
330
318324AF
100
AcDbEntity
  8
JISSEN
100
AcDbLine
 10
120.7939857314306
 20
271.894862106227
 30
0.0
 11
120.29262901228
 21
271.3948639469172
 31
0.0
  0
ARC
  5
31832CB8
330
318324AF
100
AcDbEntity
  8
JISSEN
100
AcDbCircle
 10
121.8061962537335
 20
296.8948639469171
 30
0.0
 40
1.0
100
AcDbArc
 50
90.0
 51
180.0
  0
LINE
  5
31832CB9
330
318324AF
100
AcDbEntity
  8
JISSEN
100
AcDbLine
 10
120.8061962537335
 20
296.8948639469171
 30
0.0
 11
120.8061962537335
 21
295.2641506847335
 31
0.0
  0
LINE
  5
31832CBA
330
318324AF
100
AcDbEntity
  8
JISSEN
100
AcDbLine
 10
122.5903917340415
 20
297.8948639469172
 30
0.0
 11
90.50100077342552
 21
297.8948639469172
 31
0.0
  0
LINE
  5
31832CBB
330
318324AF
100
AcDbEntity
  8
JISSEN
100
AcDbLine
 10
94.30619625373356
 20
328.3948639469172
 30
0.0
 11
92.30619625373355
 21
326.3948639469172
 31
0.0
  0
LINE
  5
31832CBC
330
318324AF
100
AcDbEntity
  8
JISSEN
100
AcDbLine
 10
92.30619625373355
 20
313.3948639469172
 30
0.0
 11
92.30619625373355
 21
326.3948639469172
 31
0.0
  0
LINE
  5
31832CBD
330
318324AF
100
AcDbEntity
  8
JISSEN
100
AcDbLine
 10
90.98539997984028
 20
313.3948639469172
 30
0.0
 11
89.45868784123536
 21
311.8681518083123
 31
0.0
  0
LINE
  5
31832CBE
330
318324AF
100
AcDbEntity
  8
JISSEN
100
AcDbLine
 10
119.3061962537335
 20
313.3948639469172
 30
0.0
 11
90.98539997984028
 21
313.3948639469172
 31
0.0
  0
LINE
  5
31832CBF
330
318324AF
100
AcDbEntity
  8
JISSEN
100
AcDbLine
 10
117.3061962537335
 20
328.3948639469172
 30
0.0
 11
119.3061962537335
 21
326.3948639469172
 31
0.0
  0
LINE
  5
31832CC0
330
318324AF
100
AcDbEntity
  8
JISSEN
100
AcDbLine
 10
94.30619625373356
 20
328.3948639469172
 30
0.0
 11
117.3061962537335
 21
328.3948639469172
 31
0.0
  0
LINE
  5
31832CC1
330
318324AF
100
AcDbEntity
  8
JISSEN
100
AcDbLine
 10
119.3061962537335
 20
326.3948639469172
 30
0.0
 11
119.3061962537335
 21
313.3948639469172
 31
0.0
  0
LINE
  5
31832CC2
330
318324AF
100
AcDbEntity
  8
JISSEN
100
AcDbLine
 10
119.3061962537335
 20
313.3948639469172
 30
0.0
 11
120.6269925276276
 21
313.3948639469172
 31
0.0
  0
LINE
  5
31832CC3
330
318324AF
100
AcDbEntity
  8
JISSEN
100
AcDbLine
 10
120.6269925276276
 20
313.3948639469181
 30
0.0
 11
122.1537046662317
 21
311.8681518083141
 31
0.0
  0
LINE
  5
31832CC4
330
318324AF
100
AcDbEntity
  8
JISSEN
100
AcDbLine
 10
122.1537046662317
 20
311.8681518083141
 30
0.0
 11
89.45868784123536
 21
311.8681518083123
 31
0.0
  0
LINE
  5
31832CC5
330
318324AF
100
AcDbEntity
  8
JISSEN
100
AcDbLine
 10
118.3061962537335
 20
223.448640092241
 30
0.0
 11
118.8061962537335
 21
223.448640092241
 31
0.0
  0
LINE
  5
31832CC6
330
318324AF
100
AcDbEntity
  8
JISSEN
100
AcDbLine
 10
92.30619625373355
 20
222.948640092241
 30
0.0
 11
119.3061962537335
 21
222.948640092241
 31
0.0
  0
LINE
  5
31832CC7
330
318324AF
100
AcDbEntity
  8
JISSEN
100
AcDbLine
 10
93.30619625373357
 20
266.6448639469162
 30
0.0
 11
118.3061962537335
 21
266.6448639469181
 31
0.0
  0
LINE
  5
31832CC8
330
318324AF
100
AcDbEntity
  8
JISSEN
100
AcDbLine
 10
121.5838561143414
 20
294.2738826159918
 30
0.0
 11
90.02853639312604
 21
294.2738826159919
 31
0.0
  0
LINE
  5
31832CC9
330
318324AF
100
AcDbEntity
  8
JISSEN
100
AcDbLine
 10
90.80619625373357
 20
271.8948639469171
 30
0.0
 11
120.7569792122686
 21
271.8965207384808
 31
0.0
  0
LINE
  5
31832CCA
330
318324AF
100
AcDbEntity
  8
JISSEN
100
AcDbLine
 10
90.65075168750581
 20
284.2738826159919
 30
0.0
 11
120.9616408199613
 21
284.2738826159919
 31
0.0
  0
LINE
  5
31832CCB
330
318324AF
100
AcDbEntity
  8
JISSEN
100
AcDbLine
 10
120.9616408199613
 20
284.2738826159919
 30
0.0
 11
90.65075168750581
 21
284.2738826159919
 31
0.0
  0
LINE
  5
31832CCC
330
318324AF
100
AcDbEntity
  8
JISSEN
100
AcDbLine
 10
90.65075168750581
 20
294.2738826159919
 30
0.0
 11
121.227008753733
 21
294.2738826159919
 31
0.0
  0
LINE
  5
31832CCD
330
318324AF
100
AcDbEntity
  8
JISSEN
100
AcDbLine
 10
119.3061962537335
 20
144.4486400922411
 30
0.0
 11
119.3061962537335
 21
147.0036552258024
 31
0.0
  0
LINE
  5
31832CCE
330
318324AF
100
AcDbEntity
  8
JISSEN
100
AcDbLine
 10
92.30619625373355
 20
326.3948639469172
 30
0.0
 11
119.3061962537335
 21
326.3948639469172
 31
0.0
  0
ARC
  5
31832CCF
330
318324AF
100
AcDbEntity
  8
NITEN
100
AcDbCircle
 10
128.0061962537336
 20
311.8687577780389
 30
0.0
 40
0.3
100
AcDbArc
 50
0.0
 51
65.25347541306358
  0
ARC
  5
31832CD0
330
318324AF
100
AcDbEntity
  8
NITEN
100
AcDbCircle
 10
131.3061962537335
 20
314.2738826159918
 30
0.0
 40
3.0
100
AcDbArc
 50
90.0
 51
180.0
  0
ARC
  5
31832CD1
330
318324AF
100
AcDbEntity
  8
NITEN
100
AcDbCircle
 10
80.30619625373356
 20
314.2738826159918
 30
0.0
 40
3.0
100
AcDbArc
 50
0.0
 51
90.0
  0
LINE
  5
31832CD2
330
318324AF
100
AcDbEntity
  8
NITEN
100
AcDbLine
 10
80.30619625373356
 20
317.2738826159918
 30
0.0
 11
77.30619625373356
 21
317.2738826159918
 31
0.0
  0
LINE
  5
31832CD3
330
318324AF
100
AcDbEntity
  8
NITEN
100
AcDbLine
 10
83.30619625373357
 20
314.2738826159918
 30
0.0
 11
83.30619625373357
 21
306.2738826159918
 31
0.0
  0
ARC
  5
31832CD4
330
318324AF
100
AcDbEntity
  8
NITEN
100
AcDbCircle
 10
85.30619625373356
 20
306.2738826159918
 30
0.0
 40
2.0
100
AcDbArc
 50
180.0
 51
270.0
  0
LINE
  5
31832CD5
330
318324AF
100
AcDbEntity
  8
NITEN
100
AcDbLine
 10
85.30619625373356
 20
304.2738826159918
 30
0.0
 11
126.3061962537335
 21
304.2738826159918
 31
0.0
  0
ARC
  5
31832CD6
330
318324AF
100
AcDbEntity
  8
NITEN
100
AcDbCircle
 10
126.3061962537335
 20
306.2738826159918
 30
0.0
 40
2.0
100
AcDbArc
 50
270.0
 51
0.0
  0
LINE
  5
31832CD7
330
318324AF
100
AcDbEntity
  8
NITEN
100
AcDbLine
 10
128.3061962537335
 20
306.2738826159918
 30
0.0
 11
128.3061962537335
 21
314.2738826159918
 31
0.0
  0
ARC
  5
31832CD8
330
318324AF
100
AcDbEntity
  8
NITEN
100
AcDbCircle
 10
134.3061962537335
 20
319.2738826159918
 30
0.0
 40
2.0
100
AcDbArc
 50
270.0
 51
0.0
  0
LINE
  5
31832CD9
330
318324AF
100
AcDbEntity
  8
NITEN
100
AcDbLine
 10
136.3061962537335
 20
319.2738826159918
 30
0.0
 11
136.3061962537335
 21
347.2738826159917
 31
0.0
  0
LINE
  5
31832CDA
330
318324AF
100
AcDbEntity
  8
NITEN
100
AcDbLine
 10
134.3061962537335
 20
317.2738826159918
 30
0.0
 11
131.3061962537335
 21
317.2738826159918
 31
0.0
  0
ARC
  5
31832CDB
330
318324AF
100
AcDbEntity
  8
NITEN
100
AcDbCircle
 10
134.3061962537335
 20
347.2738826159917
 30
0.0
 40
2.0
100
AcDbArc
 50
0.0
 51
90.0
  0
ARC
  5
31832CDC
330
318324AF
100
AcDbEntity
  8
NITEN
100
AcDbCircle
 10
77.30619625373356
 20
347.2738826159917
 30
0.0
 40
2.0
100
AcDbArc
 50
90.0
 51
180.0
  0
LINE
  5
31832CDD
330
318324AF
100
AcDbEntity
  8
NITEN
100
AcDbLine
 10
77.30619625373356
 20
349.2738826159917
 30
0.0
 11
134.3061962537335
 21
349.2738826159917
 31
0.0
  0
ARC
  5
31832CDE
330
318324AF
100
AcDbEntity
  8
NITEN
100
AcDbCircle
 10
77.30619625373356
 20
319.2738826159918
 30
0.0
 40
2.0
100
AcDbArc
 50
180.0
 51
270.0
  0
LINE
  5
31832CDF
330
318324AF
100
AcDbEntity
  8
NITEN
100
AcDbLine
 10
75.30619625373356
 20
319.2738826159918
 30
0.0
 11
75.30619625373356
 21
347.2738826159917
 31
0.0
  0
TEXT
  5
31832D1D
330
318324AF
100
AcDbEntity
  8
SUNPOU
100
AcDbText
 10
174.2402623307371
 20
14.26006206122087
 30
0.0
 40
4.5
  1
乾式アダプター付DPヘッド取付状態図
  7
K
100
AcDbText
  0
TEXT
  5
31832D1E
330
318324AF
100
AcDbEntity
  8
SUNPOU
100
AcDbText
 10
174.2402623307371
 20
6.860062061220872
 30
0.0
 40
4.5
  1
A4 用紙、印刷尺度 1/1.5
  7
K
100
AcDbText
  0
LINE
  5
31832D20
330
318324AF
100
AcDbEntity
  8
JISSEN
100
AcDbLine
 10
118.3061962537334
 20
242.5916005300657
 30
0.0
 11
118.3061962537334
 21
223.448640092241
 31
0.0
  0
LINE
  5
31832D21
330
318324AF
100
AcDbEntity
  8
JISSEN
100
AcDbLine
 10
93.30619625373334
 20
244.15616184788
 30
0.0
 11
93.30619625373357
 21
223.448640092241
 31
0.0
  0
TEXT
  5
31832D4D
330
318324AF
100
AcDbEntity
  8
TEXT
100
AcDbText
 10
154.3499989199998
 20
393.7499999999999
 30
0.0
 40
4.5
  1
乾式アダプター付
 41
0.9
  7
K
 72
     4
 11
173.2499989199998
 21
395.9999999999999
 31
0.0
100
AcDbText
  0
TEXT
  5
31832D4F
330
318324AF
100
AcDbEntity
  8
TEXT
100
AcDbText
 10
161.8499989199998
 20
402.7499999999999
 30
0.0
 40
4.5
  1
名      称
  7
K
 72
     4
 11
174.7499989199998
 21
404.9999999999999
 31
0.0
100
AcDbText
  0
LINE
  5
31832D51
330
318324AF
100
AcDbEntity
  8
JISSEN
100
AcDbLine
 10
137.2499989199998
 20
400.4999999999999
 30
0.0
 11
271.4999989199999
 21
400.4999999999999
 31
0.0
  0
LINE
  5
31832D55
330
318324AF
100
AcDbEntity
  8
JISSEN
100
AcDbLine
 10
152.2499989199998
 20
409.4999999999999
 30
0.0
 11
152.2499989199998
 21
383.9999999999999
 31
0.0
  0
LINE
  5
31832D56
330
318324AF
100
AcDbEntity
  8
JISSEN
100
AcDbLine
 10
137.2499989199997
 20
384.0
 30
0.0
 11
137.2499989199998
 21
409.4999999999999
 31
0.0
  0
TEXT
  5
31832D5A
330
318324AF
100
AcDbEntity
  8
TEXT
100
AcDbText
 10
139.9499989199998
 20
402.7499999999999
 30
0.0
 40
4.5
  1
番号
  7
K
 72
     4
 11
144.7499989199998
 21
404.9999999999999
 31
0.0
100
AcDbText
  0
TEXT
  5
31832D5C
330
318324AF
100
AcDbEntity
  8
TEXT
100
AcDbText
 10
235.0193216496136
 20
389.9999999999999
 30
0.0
 40
4.5
  1
1
  7
K
 72
     4
 11
236.8407502210422
 21
392.2499999999999
 31
0.0
100
AcDbText
  0
LINE
  5
31832D5D
330
318324AF
100
AcDbEntity
  8
JISSEN
100
AcDbLine
 10
245.2499989199998
 20
409.4999999999999
 30
0.0
 11
245.2499989199997
 21
384.0
 31
0.0
  0
LINE
  5
31832D5E
330
318324AF
100
AcDbEntity
  8
JISSEN
100
AcDbLine
 10
228.7499989199998
 20
384.0
 30
0.0
 11
228.7499989199998
 21
409.4999999999999
 31
0.0
  0
LINE
  5
31832D5F
330
318324AF
100
AcDbEntity
  8
JISSEN
100
AcDbLine
 10
197.2499989199998
 20
409.4999999999999
 30
0.0
 11
197.2499989199997
 21
383.9999999999999
 31
0.0
  0
TEXT
  5
31832D61
330
318324AF
100
AcDbEntity
  8
TEXT
100
AcDbText
 10
205.2374989199997
 20
392.6999999999999
 30
0.0
 40
4.5
  1
%%u      
  7
K
 72
     4
 11
212.9999989199997
 21
392.2499999999999
 31
0.0
100
AcDbText
  0
TEXT
  5
31832D67
330
318324AF
100
AcDbEntity
  8
TEXT
100
AcDbText
 10
202.7999989199998
 20
402.7499999999999
 30
0.0
 40
4.5
  1
材    質
  7
K
 72
     4
 11
212.9999989199998
 21
404.9999999999999
 31
0.0
100
AcDbText
  0
TEXT
  5
31832D68
330
318324AF
100
AcDbEntity
  8
TEXT
100
AcDbText
 10
248.5499989199998
 20
402.7499999999999
 30
0.0
 40
4.5
  1
備    考
  7
K
 72
     4
 11
258.7499989199998
 21
404.9999999999999
 31
0.0
100
AcDbText
  0
TEXT
  5
31832D69
330
318324AF
100
AcDbEntity
  8
TEXT
100
AcDbText
 10
232.1999989199998
 20
402.7499999999999
 30
0.0
 40
4.5
  1
個数
  7
K
 72
     4
 11
236.9999989199998
 21
404.9999999999999
 31
0.0
100
AcDbText
  0
LINE
  5
31832D6A
330
318324AF
100
AcDbEntity
  8
JISSEN
100
AcDbLine
 10
137.2499989199998
 20
383.9999999999999
 30
0.0
 11
271.4999989199999
 21
383.9999999999999
 31
0.0
  0
TEXT
  5
31832D6B
330
318324AF
100
AcDbEntity
  8
TEXT
100
AcDbText
 10
166.9214274914283
 20
386.2499999999999
 30
0.0
 40
4.5
  1
DP型ヘッド
  7
K
 72
     4
 11
181.7499989199998
 21
388.4999999999999
 31
0.0
100
AcDbText
  0
LWPOLYLINE
  5
318335AB
330
318324AF
100
AcDbEntity
  8
WAKU
100
AcDbPolyline
 90
        4
 70
     1
 43
0.0
 10
271.4999989199999
 20
0.0
 10
542.9999978399999
 20
0.0
 10
542.9999978399999
 20
409.4999999999999
 10
271.4999989199999
 20
409.4999999999999
  0
LINE
  5
318335AC
330
318324AF
100
AcDbEntity
  8
JISSEN
100
AcDbLine
 10
364.8061951737333
 20
244.15616184788
 30
0.0
 11
364.8061951737335
 21
223.448640092241
 31
0.0
  0
LINE
  5
318335AD
330
318324AF
100
AcDbEntity
  8
JISSEN
100
AcDbLine
 10
389.8061951737334
 20
242.5916005300657
 30
0.0
 11
389.8061951737334
 21
223.448640092241
 31
0.0
  0
LINE
  5
318335AE
330
318324AF
100
AcDbEntity
  8
NITEN
100
AcDbLine
 10
346.8061951737335
 20
319.2738826159918
 30
0.0
 11
346.8061951737335
 21
347.2738826159917
 31
0.0
  0
ARC
  5
318335AF
330
318324AF
100
AcDbEntity
  8
NITEN
100
AcDbCircle
 10
348.8061951737335
 20
319.2738826159918
 30
0.0
 40
2.0
100
AcDbArc
 50
180.0
 51
270.0
  0
LINE
  5
318335B0
330
318324AF
100
AcDbEntity
  8
NITEN
100
AcDbLine
 10
348.8061951737335
 20
349.2738826159917
 30
0.0
 11
405.8061951737335
 21
349.2738826159917
 31
0.0
  0
ARC
  5
318335B1
330
318324AF
100
AcDbEntity
  8
NITEN
100
AcDbCircle
 10
348.8061951737335
 20
347.2738826159917
 30
0.0
 40
2.0
100
AcDbArc
 50
90.0
 51
180.0
  0
ARC
  5
318335B2
330
318324AF
100
AcDbEntity
  8
NITEN
100
AcDbCircle
 10
405.8061951737335
 20
347.2738826159917
 30
0.0
 40
2.0
100
AcDbArc
 50
0.0
 51
90.0
  0
LINE
  5
318335B3
330
318324AF
100
AcDbEntity
  8
NITEN
100
AcDbLine
 10
405.8061951737335
 20
317.2738826159918
 30
0.0
 11
402.8061951737335
 21
317.2738826159918
 31
0.0
  0
LINE
  5
318335B4
330
318324AF
100
AcDbEntity
  8
NITEN
100
AcDbLine
 10
407.8061951737335
 20
319.2738826159918
 30
0.0
 11
407.8061951737335
 21
347.2738826159917
 31
0.0
  0
ARC
  5
318335B5
330
318324AF
100
AcDbEntity
  8
NITEN
100
AcDbCircle
 10
405.8061951737335
 20
319.2738826159918
 30
0.0
 40
2.0
100
AcDbArc
 50
270.0
 51
0.0
  0
LINE
  5
318335B6
330
318324AF
100
AcDbEntity
  8
NITEN
100
AcDbLine
 10
399.8061951737335
 20
306.2738826159918
 30
0.0
 11
399.8061951737335
 21
314.2738826159918
 31
0.0
  0
ARC
  5
318335B7
330
318324AF
100
AcDbEntity
  8
NITEN
100
AcDbCircle
 10
397.8061951737335
 20
306.2738826159918
 30
0.0
 40
2.0
100
AcDbArc
 50
270.0
 51
0.0
  0
LINE
  5
318335B8
330
318324AF
100
AcDbEntity
  8
NITEN
100
AcDbLine
 10
356.8061951737335
 20
304.2738826159918
 30
0.0
 11
397.8061951737335
 21
304.2738826159918
 31
0.0
  0
ARC
  5
318335B9
330
318324AF
100
AcDbEntity
  8
NITEN
100
AcDbCircle
 10
356.8061951737335
 20
306.2738826159918
 30
0.0
 40
2.0
100
AcDbArc
 50
180.0
 51
270.0
  0
LINE
  5
318335BA
330
318324AF
100
AcDbEntity
  8
NITEN
100
AcDbLine
 10
354.8061951737335
 20
314.2738826159918
 30
0.0
 11
354.8061951737335
 21
306.2738826159918
 31
0.0
  0
LINE
  5
318335BB
330
318324AF
100
AcDbEntity
  8
NITEN
100
AcDbLine
 10
351.8061951737335
 20
317.2738826159918
 30
0.0
 11
348.8061951737335
 21
317.2738826159918
 31
0.0
  0
ARC
  5
318335BC
330
318324AF
100
AcDbEntity
  8
NITEN
100
AcDbCircle
 10
351.8061951737335
 20
314.2738826159918
 30
0.0
 40
3.0
100
AcDbArc
 50
0.0
 51
90.0
  0
ARC
  5
318335BD
330
318324AF
100
AcDbEntity
  8
NITEN
100
AcDbCircle
 10
402.8061951737335
 20
314.2738826159918
 30
0.0
 40
3.0
100
AcDbArc
 50
90.0
 51
180.0
  0
ARC
  5
318335BE
330
318324AF
100
AcDbEntity
  8
NITEN
100
AcDbCircle
 10
399.5061951737336
 20
311.8687577780389
 30
0.0
 40
0.3
100
AcDbArc
 50
0.0
 51
65.25347541306358
  0
LINE
  5
318335BF
330
318324AF
100
AcDbEntity
  8
JISSEN
100
AcDbLine
 10
363.8061951737335
 20
326.3948639469172
 30
0.0
 11
390.8061951737335
 21
326.3948639469172
 31
0.0
  0
LINE
  5
318335C0
330
318324AF
100
AcDbEntity
  8
JISSEN
100
AcDbLine
 10
390.8061951737335
 20
144.4486400922411
 30
0.0
 11
390.8061951737335
 21
147.0036552258024
 31
0.0
  0
LINE
  5
318335C1
330
318324AF
100
AcDbEntity
  8
JISSEN
100
AcDbLine
 10
362.1507506075058
 20
294.2738826159919
 30
0.0
 11
392.7270076737329
 21
294.2738826159919
 31
0.0
  0
LINE
  5
318335C2
330
318324AF
100
AcDbEntity
  8
JISSEN
100
AcDbLine
 10
392.4616397399613
 20
284.2738826159919
 30
0.0
 11
362.1507506075058
 21
284.2738826159919
 31
0.0
  0
LINE
  5
318335C3
330
318324AF
100
AcDbEntity
  8
JISSEN
100
AcDbLine
 10
362.1507506075058
 20
284.2738826159919
 30
0.0
 11
392.4616397399613
 21
284.2738826159919
 31
0.0
  0
LINE
  5
318335C4
330
318324AF
100
AcDbEntity
  8
JISSEN
100
AcDbLine
 10
362.3061951737335
 20
271.8948639469171
 30
0.0
 11
392.2569781322686
 21
271.8965207384808
 31
0.0
  0
LINE
  5
318335C5
330
318324AF
100
AcDbEntity
  8
JISSEN
100
AcDbLine
 10
393.0838550343414
 20
294.2738826159918
 30
0.0
 11
361.528535313126
 21
294.2738826159919
 31
0.0
  0
LINE
  5
318335C6
330
318324AF
100
AcDbEntity
  8
JISSEN
100
AcDbLine
 10
364.8061951737335
 20
266.6448639469162
 30
0.0
 11
389.8061951737335
 21
266.6448639469181
 31
0.0
  0
LINE
  5
318335C7
330
318324AF
100
AcDbEntity
  8
JISSEN
100
AcDbLine
 10
363.8061951737335
 20
222.948640092241
 30
0.0
 11
390.8061951737335
 21
222.948640092241
 31
0.0
  0
LINE
  5
318335C8
330
318324AF
100
AcDbEntity
  8
JISSEN
100
AcDbLine
 10
389.8061951737335
 20
223.448640092241
 30
0.0
 11
390.3061951737335
 21
223.448640092241
 31
0.0
  0
LINE
  5
318335C9
330
318324AF
100
AcDbEntity
  8
JISSEN
100
AcDbLine
 10
393.6537035862317
 20
311.8681518083141
 30
0.0
 11
360.9586867612353
 21
311.8681518083123
 31
0.0
  0
LINE
  5
318335CA
330
318324AF
100
AcDbEntity
  8
JISSEN
100
AcDbLine
 10
392.1269914476276
 20
313.3948639469181
 30
0.0
 11
393.6537035862317
 21
311.8681518083141
 31
0.0
  0
LINE
  5
318335CB
330
318324AF
100
AcDbEntity
  8
JISSEN
100
AcDbLine
 10
390.8061951737335
 20
313.3948639469172
 30
0.0
 11
392.1269914476276
 21
313.3948639469172
 31
0.0
  0
LINE
  5
318335CC
330
318324AF
100
AcDbEntity
  8
JISSEN
100
AcDbLine
 10
390.8061951737335
 20
326.3948639469172
 30
0.0
 11
390.8061951737335
 21
313.3948639469172
 31
0.0
  0
LINE
  5
318335CD
330
318324AF
100
AcDbEntity
  8
JISSEN
100
AcDbLine
 10
365.8061951737335
 20
328.3948639469172
 30
0.0
 11
388.8061951737335
 21
328.3948639469172
 31
0.0
  0
LINE
  5
318335CE
330
318324AF
100
AcDbEntity
  8
JISSEN
100
AcDbLine
 10
388.8061951737335
 20
328.3948639469172
 30
0.0
 11
390.8061951737335
 21
326.3948639469172
 31
0.0
  0
LINE
  5
318335CF
330
318324AF
100
AcDbEntity
  8
JISSEN
100
AcDbLine
 10
390.8061951737335
 20
313.3948639469172
 30
0.0
 11
362.4853988998403
 21
313.3948639469172
 31
0.0
  0
LINE
  5
318335D0
330
318324AF
100
AcDbEntity
  8
JISSEN
100
AcDbLine
 10
362.4853988998403
 20
313.3948639469172
 30
0.0
 11
360.9586867612353
 21
311.8681518083123
 31
0.0
  0
LINE
  5
318335D1
330
318324AF
100
AcDbEntity
  8
JISSEN
100
AcDbLine
 10
363.8061951737335
 20
313.3948639469172
 30
0.0
 11
363.8061951737335
 21
326.3948639469172
 31
0.0
  0
LINE
  5
318335D2
330
318324AF
100
AcDbEntity
  8
JISSEN
100
AcDbLine
 10
365.8061951737335
 20
328.3948639469172
 30
0.0
 11
363.8061951737335
 21
326.3948639469172
 31
0.0
  0
LINE
  5
318335D3
330
318324AF
100
AcDbEntity
  8
JISSEN
100
AcDbLine
 10
394.0903906540415
 20
297.8948639469172
 30
0.0
 11
362.0009996934255
 21
297.8948639469172
 31
0.0
  0
LINE
  5
318335D4
330
318324AF
100
AcDbEntity
  8
JISSEN
100
AcDbLine
 10
392.3061951737335
 20
296.8948639469171
 30
0.0
 11
392.3061951737335
 21
295.2641506847335
 31
0.0
  0
ARC
  5
318335D5
330
318324AF
100
AcDbEntity
  8
JISSEN
100
AcDbCircle
 10
393.3061951737335
 20
296.8948639469171
 30
0.0
 40
1.0
100
AcDbArc
 50
90.0
 51
180.0
  0
LINE
  5
318335D6
330
318324AF
100
AcDbEntity
  8
JISSEN
100
AcDbLine
 10
392.2939846514306
 20
271.894862106227
 30
0.0
 11
391.79262793228
 21
271.3948639469172
 31
0.0
  0
LINE
  5
318335D7
330
318324AF
100
AcDbEntity
  8
JISSEN
100
AcDbLine
 10
392.3061951737335
 20
284.2738826159919
 30
0.0
 11
392.3061951737335
 21
271.8948639469171
 31
0.0
  0
LINE
  5
318335D8
330
318324AF
100
AcDbEntity
  8
JISSEN
100
AcDbLine
 10
389.0561951737335
 20
267.3948639469172
 30
0.0
 11
389.8061951737335
 21
266.6448639469181
 31
0.0
  0
LINE
  5
318335D9
330
318324AF
100
AcDbEntity
  8
SAISEN
100
AcDbLine
 10
389.5561951737335
 20
267.3948639469172
 30
0.0
 11
365.5561951737335
 21
267.3948639469172
 31
0.0
  0
LINE
  5
318335DA
330
318324AF
100
AcDbEntity
  8
SAISEN
100
AcDbLine
 10
389.0561951737335
 20
267.3948639469172
 30
0.0
 11
389.0561951737335
 21
271.3948639469172
 31
0.0
  0
LINE
  5
318335DB
330
318324AF
100
AcDbEntity
  8
JISSEN
100
AcDbLine
 10
389.5561951737335
 20
266.8948639469181
 30
0.0
 11
389.5561951737335
 21
271.3948639469172
 31
0.0
  0
LINE
  5
318335DC
330
318324AF
100
AcDbEntity
  8
SAISEN
100
AcDbLine
 10
365.5561951737335
 20
271.3948639469172
 30
0.0
 11
365.5561951737335
 21
267.3948639469172
 31
0.0
  0
LINE
  5
318335DD
330
318324AF
100
AcDbEntity
  8
JISSEN
100
AcDbLine
 10
391.79262793228
 20
271.3948639469172
 30
0.0
 11
389.5561951737335
 21
271.3948639469172
 31
0.0
  0
LINE
  5
318335DE
330
318324AF
100
AcDbEntity
  8
JISSEN
100
AcDbLine
 10
389.8061951737334
 20
266.6448639469181
 30
0.0
 11
389.8061951737334
 21
244.5916005300657
 31
0.0
  0
ARC
  5
318335DF
330
318324AF
100
AcDbEntity
  8
JISSEN
100
AcDbCircle
 10
361.3061951737335
 20
296.8948639469173
 30
0.0
 40
1.0
100
AcDbArc
 50
0.0
 51
89.9999999999998
  0
LINE
  5
318335E0
330
318324AF
100
AcDbEntity
  8
JISSEN
100
AcDbLine
 10
362.3061951737335
 20
296.8948639469173
 30
0.0
 11
362.3061951737335
 21
295.2488517757169
 31
0.0
  0
LINE
  5
318335E1
330
318324AF
100
AcDbEntity
  8
JISSEN
100
AcDbLine
 10
360.5219996934254
 20
297.8948639469172
 30
0.0
 11
361.3061951737335
 21
297.8948639469172
 31
0.0
  0
LINE
  5
318335E2
330
318324AF
100
AcDbEntity
  8
JISSEN
100
AcDbLine
 10
362.8061951737335
 20
271.3948639469172
 30
0.0
 11
389.5561951737335
 21
271.3948639469172
 31
0.0
  0
LINE
  5
318335E3
330
318324AF
100
AcDbEntity
  8
JISSEN
100
AcDbLine
 10
362.3061951737335
 20
271.8948639469171
 30
0.0
 11
362.8061951737335
 21
271.3948639469172
 31
0.0
  0
LINE
  5
318335E4
330
318324AF
100
AcDbEntity
  8
JISSEN
100
AcDbLine
 10
365.0561951737335
 20
271.3948639469172
 30
0.0
 11
365.0561951737335
 21
266.8948639469163
 31
0.0
  0
LINE
  5
318335E5
330
318324AF
100
AcDbEntity
  8
JISSEN
100
AcDbLine
 10
362.3061951737335
 20
284.2738826159919
 30
0.0
 11
362.3061951737335
 21
271.8948639469171
 31
0.0
  0
LINE
  5
318335E6
330
318324AF
100
AcDbEntity
  8
JISSEN
100
AcDbLine
 10
365.5561951737335
 20
267.3948639469163
 30
0.0
 11
364.8061951737335
 21
266.6448639469162
 31
0.0
  0
LINE
  5
318335E7
330
318324AF
100
AcDbEntity
  8
SAISEN
100
AcDbLine
 10
365.0561951737335
 20
267.3948639469172
 30
0.0
 11
365.5561951737326
 21
267.3948639469172
 31
0.0
  0
LINE
  5
318335E8
330
318324AF
100
AcDbEntity
  8
JISSEN
100
AcDbLine
 10
360.9586867612353
 20
311.8681518083123
 30
0.0
 11
360.5219996934254
 21
297.8948639469172
 31
0.0
  0
LINE
  5
318335E9
330
318324AF
100
AcDbEntity
  8
SAISEN
100
AcDbLine
 10
392.1269914476277
 20
313.3948639469172
 30
0.0
 11
392.6113906540416
 21
297.8948639469172
 31
0.0
  0
LINE
  5
318335EA
330
318324AF
100
AcDbEntity
  8
SAISEN
100
AcDbLine
 10
362.4853988998393
 20
313.3948639469172
 30
0.0
 11
362.0009996934255
 21
297.8948639469172
 31
0.0
  0
LINE
  5
318335EB
330
318324AF
100
AcDbEntity
  8
JISSEN
100
AcDbLine
 10
393.6537035862317
 20
311.8681518083141
 30
0.0
 11
394.0903906540415
 21
297.8948639469172
 31
0.0
  0
LINE
  5
318335EC
330
318324AF
100
AcDbEntity
  8
JISSEN
100
AcDbLine
 10
364.8061951737335
 20
223.448640092241
 30
0.0
 11
389.8061951737335
 21
223.448640092241
 31
0.0
  0
LINE
  5
318335ED
330
318324AF
100
AcDbEntity
  8
JISSEN
100
AcDbLine
 10
390.3061951737335
 20
223.448640092241
 30
0.0
 11
390.8061951737335
 21
222.948640092241
 31
0.0
  0
LINE
  5
318335EE
330
318324AF
100
AcDbEntity
  8
JISSEN
100
AcDbLine
 10
390.3061951737335
 20
223.448640092241
 30
0.0
 11
390.8061951737335
 21
222.948640092241
 31
0.0
  0
LINE
  5
318335EF
330
318324AF
100
AcDbEntity
  8
JISSEN
100
AcDbLine
 10
364.3061951737335
 20
223.448640092241
 30
0.0
 11
363.8061951737335
 21
222.948640092241
 31
0.0
  0
LINE
  5
318335F0
330
318324AF
100
AcDbEntity
  8
JISSEN
100
AcDbLine
 10
363.8061951737335
 20
222.948640092241
 30
0.0
 11
363.8061951737335
 21
162.0036552258024
 31
0.0
  0
LINE
  5
318335F1
330
318324AF
100
AcDbEntity
  8
JISSEN
100
AcDbLine
 10
364.3061951737335
 20
223.448640092241
 30
0.0
 11
364.8061951737335
 21
223.448640092241
 31
0.0
  0
LINE
  5
318335F2
330
318324AF
100
AcDbEntity
  8
JISSEN
100
AcDbLine
 10
364.806195173733
 20
266.6448639469158
 30
0.0
 11
364.8061951737333
 21
246.15616184788
 31
0.0
  0
LINE
  5
318335F3
330
318324AF
100
AcDbEntity
  8
JISSEN
100
AcDbLine
 10
395.8061951737335
 20
147.0036552258024
 30
0.0
 11
358.8061951737335
 21
147.0036552258024
 31
0.0
  0
LINE
  5
318335F4
102
{ACAD_REACTORS
330
3183370F
102
}
330
318324AF
100
AcDbEntity
  8
JISSEN
100
AcDbLine
 10
304.7926622207589
 20
162.0036552258024
 30
0.0
 11
417.3061951737335
 21
162.0036552258024
 31
0.0
  0
ARC
  5
318335F5
330
318324AF
100
AcDbEntity
  8
JISSEN
100
AcDbCircle
 10
358.8061951737335
 20
151.0036552258024
 30
0.0
 40
4.0
100
AcDbArc
 50
180.0
 51
270.0
  0
LINE
  5
318335F6
330
318324AF
100
AcDbEntity
  8
JISSEN
100
AcDbLine
 10
350.8061951737335
 20
158.0036552258023
 30
0.0
 11
341.3061951737335
 21
158.0036552258023
 31
0.0
  0
ARC
  5
318335F7
330
318324AF
100
AcDbEntity
  8
JISSEN
100
AcDbCircle
 10
341.3061951737335
 20
162.0036552258024
 30
0.0
 40
4.0
100
AcDbArc
 50
180.0
 51
270.0
  0
CIRCLE
  5
318335F8
330
318324AF
100
AcDbEntity
  8
JISSEN
100
AcDbCircle
 10
360.3061951737335
 20
154.0036552258023
 30
0.0
 40
2.75
  0
CIRCLE
  5
318335F9
330
318324AF
100
AcDbEntity
  8
JISSEN
100
AcDbCircle
 10
360.3061951737335
 20
154.0036552258023
 30
0.0
 40
3.0
  0
ARC
  5
318335FA
330
318324AF
100
AcDbEntity
  8
JISSEN
100
AcDbCircle
 10
350.8061951737335
 20
154.0036552258023
 30
0.0
 40
4.0
100
AcDbArc
 50
0.0
 51
90.0
  0
LINE
  5
318335FB
330
318324AF
100
AcDbEntity
  8
JISSEN
100
AcDbLine
 10
354.8061951737335
 20
154.0036552258023
 30
0.0
 11
354.8061951737335
 21
151.0036552258024
 31
0.0
  0
LINE
  5
318335FC
330
318324AF
100
AcDbEntity
  8
JISSEN
100
AcDbLine
 10
359.8061951737335
 20
154.2536552258023
 30
0.0
 11
358.8561951737335
 21
154.2536552258023
 31
0.0
  0
LINE
  5
318335FD
330
318324AF
100
AcDbEntity
  8
JISSEN
100
AcDbLine
 10
360.0561951737335
 20
155.4536552258024
 30
0.0
 11
360.0561951737335
 21
154.5036552258023
 31
0.0
  0
ARC
  5
318335FE
330
318324AF
100
AcDbEntity
  8
JISSEN
100
AcDbCircle
 10
359.8061951737335
 20
154.5036552258023
 30
0.0
 40
0.25
100
AcDbArc
 50
269.9999999999992
 51
359.9999999999992
  0
LINE
  5
318335FF
330
318324AF
100
AcDbEntity
  8
JISSEN
100
AcDbLine
 10
360.5561951737335
 20
155.4536552258024
 30
0.0
 11
360.5561951737335
 21
154.5036552258023
 31
0.0
  0
LINE
  5
31833600
330
318324AF
100
AcDbEntity
  8
JISSEN
100
AcDbLine
 10
361.7561951737336
 20
154.2536552258023
 30
0.0
 11
360.8061951737335
 21
154.2536552258023
 31
0.0
  0
ARC
  5
31833601
330
318324AF
100
AcDbEntity
  8
JISSEN
100
AcDbCircle
 10
360.8061951737335
 20
154.5036552258023
 30
0.0
 40
0.25
100
AcDbArc
 50
180.0000000000007
 51
270.0
  0
LINE
  5
31833602
330
318324AF
100
AcDbEntity
  8
JISSEN
100
AcDbLine
 10
360.5561951737335
 20
153.5036552258024
 30
0.0
 11
360.5561951737335
 21
152.5536552258023
 31
0.0
  0
LINE
  5
31833603
330
318324AF
100
AcDbEntity
  8
JISSEN
100
AcDbLine
 10
361.7561951737336
 20
153.7536552258023
 30
0.0
 11
360.8061951737335
 21
153.7536552258023
 31
0.0
  0
ARC
  5
31833604
330
318324AF
100
AcDbEntity
  8
JISSEN
100
AcDbCircle
 10
360.8061951737335
 20
153.5036552258024
 30
0.0
 40
0.25
100
AcDbArc
 50
90.00000000000062
 51
179.9999999999991
  0
LINE
  5
31833605
330
318324AF
100
AcDbEntity
  8
JISSEN
100
AcDbLine
 10
360.0561951737335
 20
153.5036552258024
 30
0.0
 11
360.0561951737335
 21
152.5536552258023
 31
0.0
  0
LINE
  5
31833606
330
318324AF
100
AcDbEntity
  8
JISSEN
100
AcDbLine
 10
359.8061951737335
 20
153.7536552258023
 30
0.0
 11
358.8561951737335
 21
153.7536552258023
 31
0.0
  0
ARC
  5
31833607
330
318324AF
100
AcDbEntity
  8
JISSEN
100
AcDbCircle
 10
359.8061951737335
 20
153.5036552258024
 30
0.0
 40
0.25
100
AcDbArc
 50
0.0
 51
90.0
  0
ARC
  5
31833608
330
318324AF
100
AcDbEntity
  8
JISSEN
100
AcDbCircle
 10
358.8561951737335
 20
154.0036552258023
 30
0.0
 40
0.25
100
AcDbArc
 50
90.0
 51
270.0
  0
ARC
  5
31833609
330
318324AF
100
AcDbEntity
  8
JISSEN
100
AcDbCircle
 10
361.7561951737336
 20
154.0036552258023
 30
0.0
 40
0.25
100
AcDbArc
 50
270.0
 51
90.0
  0
ARC
  5
3183360A
330
318324AF
100
AcDbEntity
  8
JISSEN
100
AcDbCircle
 10
360.3061951737335
 20
152.5536552258023
 30
0.0
 40
0.25
100
AcDbArc
 50
180.0
 51
0.0
  0
ARC
  5
3183360B
330
318324AF
100
AcDbEntity
  8
JISSEN
100
AcDbCircle
 10
360.3061951737335
 20
155.4536552258024
 30
0.0
 40
0.25
100
AcDbArc
 50
0.0
 51
180.0
  0
ARC
  5
3183360C
330
318324AF
100
AcDbEntity
  8
JISSEN
100
AcDbCircle
 10
395.8061951737335
 20
151.0036552258024
 30
0.0
 40
4.0
100
AcDbArc
 50
270.0
 51
0.0
  0
LINE
  5
3183360D
330
318324AF
100
AcDbEntity
  8
JISSEN
100
AcDbLine
 10
403.8061951737335
 20
158.0036552258023
 30
0.0
 11
413.3061951737335
 21
158.0036552258023
 31
0.0
  0
CIRCLE
  5
3183360E
330
318324AF
100
AcDbEntity
  8
JISSEN
100
AcDbCircle
 10
394.3061951737335
 20
154.0036552258023
 30
0.0
 40
3.0
  0
CIRCLE
  5
3183360F
330
318324AF
100
AcDbEntity
  8
JISSEN
100
AcDbCircle
 10
394.3061951737335
 20
154.0036552258023
 30
0.0
 40
2.75
  0
ARC
  5
31833610
330
318324AF
100
AcDbEntity
  8
JISSEN
100
AcDbCircle
 10
403.8061951737335
 20
154.0036552258023
 30
0.0
 40
4.0
100
AcDbArc
 50
90.0
 51
180.0
  0
ARC
  5
31833611
330
318324AF
100
AcDbEntity
  8
JISSEN
100
AcDbCircle
 10
394.3061951737335
 20
155.4536552258024
 30
0.0
 40
0.25
100
AcDbArc
 50
0.0
 51
180.0
  0
ARC
  5
31833612
330
318324AF
100
AcDbEntity
  8
JISSEN
100
AcDbCircle
 10
394.3061951737335
 20
152.5536552258023
 30
0.0
 40
0.25
100
AcDbArc
 50
180.0
 51
0.0
  0
ARC
  5
31833613
330
318324AF
100
AcDbEntity
  8
JISSEN
100
AcDbCircle
 10
392.8561951737335
 20
154.0036552258023
 30
0.0
 40
0.25
100
AcDbArc
 50
90.0
 51
270.0
  0
ARC
  5
31833614
330
318324AF
100
AcDbEntity
  8
JISSEN
100
AcDbCircle
 10
395.7561951737335
 20
154.0036552258023
 30
0.0
 40
0.25
100
AcDbArc
 50
270.0
 51
90.0
  0
ARC
  5
31833615
330
318324AF
100
AcDbEntity
  8
JISSEN
100
AcDbCircle
 10
394.8061951737335
 20
153.5036552258024
 30
0.0
 40
0.25
100
AcDbArc
 50
90.0
 51
180.0
  0
LINE
  5
31833616
330
318324AF
100
AcDbEntity
  8
JISSEN
100
AcDbLine
 10
394.8061951737335
 20
153.7536552258023
 30
0.0
 11
395.7561951737335
 21
153.7536552258023
 31
0.0
  0
LINE
  5
31833617
330
318324AF
100
AcDbEntity
  8
JISSEN
100
AcDbLine
 10
394.5561951737335
 20
153.5036552258024
 30
0.0
 11
394.5561951737335
 21
152.5536552258023
 31
0.0
  0
ARC
  5
31833618
330
318324AF
100
AcDbEntity
  8
JISSEN
100
AcDbCircle
 10
393.8061951737335
 20
153.5036552258024
 30
0.0
 40
0.25
100
AcDbArc
 50
0.0000000000008142
 51
89.99999999999939
  0
LINE
  5
31833619
330
318324AF
100
AcDbEntity
  8
JISSEN
100
AcDbLine
 10
392.8561951737335
 20
153.7536552258023
 30
0.0
 11
393.8061951737335
 21
153.7536552258023
 31
0.0
  0
LINE
  5
3183361A
330
318324AF
100
AcDbEntity
  8
JISSEN
100
AcDbLine
 10
394.0561951737335
 20
153.5036552258024
 30
0.0
 11
394.0561951737335
 21
152.5536552258023
 31
0.0
  0
ARC
  5
3183361B
330
318324AF
100
AcDbEntity
  8
JISSEN
100
AcDbCircle
 10
393.8061951737335
 20
154.5036552258023
 30
0.0
 40
0.25
100
AcDbArc
 50
270.0
 51
359.9999999999992
  0
LINE
  5
3183361C
330
318324AF
100
AcDbEntity
  8
JISSEN
100
AcDbLine
 10
392.8561951737335
 20
154.2536552258023
 30
0.0
 11
393.8061951737335
 21
154.2536552258023
 31
0.0
  0
LINE
  5
3183361D
330
318324AF
100
AcDbEntity
  8
JISSEN
100
AcDbLine
 10
394.0561951737335
 20
155.4536552258024
 30
0.0
 11
394.0561951737335
 21
154.5036552258023
 31
0.0
  0
ARC
  5
3183361E
330
318324AF
100
AcDbEntity
  8
JISSEN
100
AcDbCircle
 10
394.8061951737335
 20
154.5036552258023
 30
0.0
 40
0.25
100
AcDbArc
 50
180.0000000000007
 51
270.0000000000006
  0
LINE
  5
3183361F
330
318324AF
100
AcDbEntity
  8
JISSEN
100
AcDbLine
 10
394.5561951737335
 20
155.4536552258024
 30
0.0
 11
394.5561951737335
 21
154.5036552258023
 31
0.0
  0
LINE
  5
31833620
330
318324AF
100
AcDbEntity
  8
JISSEN
100
AcDbLine
 10
394.8061951737335
 20
154.2536552258023
 30
0.0
 11
395.7561951737335
 21
154.2536552258023
 31
0.0
  0
LINE
  5
31833621
330
318324AF
100
AcDbEntity
  8
JISSEN
100
AcDbLine
 10
399.8061951737335
 20
154.0036552258023
 30
0.0
 11
399.8061951737335
 21
151.0036552258024
 31
0.0
  0
ARC
  5
31833622
330
318324AF
100
AcDbEntity
  8
JISSEN
100
AcDbCircle
 10
413.3061951737335
 20
162.0036552258024
 30
0.0
 40
4.0
100
AcDbArc
 50
270.0
 51
0.0
  0
LWPOLYLINE
  5
31833623
330
318324AF
100
AcDbEntity
  8
SAISEN
100
AcDbPolyline
 90
       35
 70
     0
 43
0.0
 10
362.8061951737335
 20
247.3634652413195
 10
365.012283201337
 20
246.0317564603434
 10
366.851665914849
 20
245.3651191200233
 10
368.3772953643826
 20
245.2295499798145
 10
369.6421236000508
 20
245.491045799172
 10
370.6991026719667
 20
246.0156033375509
 10
371.6011846302431
 20
246.6692193544063
 10
372.4013215249932
 20
247.3178906091932
 10
373.1524654063299
 20
247.8276138613668
 10
373.8981656242579
 20
248.0953730895806
 10
374.6443607283477
 20
248.1421011492826
 10
375.3875865680619
 20
248.019718115119
 10
376.1243789928627
 20
247.7801440617363
 10
376.8512738522122
 20
247.4752990637808
 10
377.5648069955729
 20
247.157103195899
 10
378.2615142724071
 20
246.8774765327371
 10
378.937931532177
 20
246.6883391489414
 10
379.5922717126277
 20
246.6264196896504
 10
380.2294561046354
 20
246.6676810819699
 10
380.856083087359
 20
246.7728948234977
 10
381.4787510399574
 20
246.9028324118316
 10
382.1040583415896
 20
247.0182653445693
 10
382.7386033714144
 20
247.0799651193087
 10
383.388984508591
 20
247.0487032336476
 10
384.0618001322781
 20
246.8852511851837
 10
384.7619165485573
 20
246.5671102732674
 10
385.487271771201
 20
246.1387010042593
 10
386.2340717409038
 20
245.6611736862729
 10
386.9985223983606
 20
245.1956786274214
 10
387.7768296842662
 20
244.8033661358181
 10
388.5651995393155
 20
244.5453865195762
 10
389.3598379042034
 20
244.4828900868091
 10
390.1569507196246
 20
244.6770271456301
 10
390.9654458159619
 20
245.1498843315468
 10
391.8061951737335
 20
245.74002838123
  0
LWPOLYLINE
  5
31833624
330
318324AF
100
AcDbEntity
  8
SAISEN
100
AcDbPolyline
 90
       35
 70
     0
 43
0.0
 10
362.8061951737335
 20
245.3634652413195
 10
365.012283201337
 20
244.0317564603434
 10
366.851665914849
 20
243.3651191200233
 10
368.3772953643826
 20
243.2295499798145
 10
369.6421236000508
 20
243.491045799172
 10
370.6991026719667
 20
244.0156033375509
 10
371.6011846302431
 20
244.6692193544063
 10
372.4013215249932
 20
245.3178906091932
 10
373.1524654063299
 20
245.8276138613668
 10
373.8981656242579
 20
246.0953730895806
 10
374.6443607283477
 20
246.1421011492826
 10
375.3875865680619
 20
246.019718115119
 10
376.1243789928627
 20
245.7801440617363
 10
376.8512738522122
 20
245.4752990637808
 10
377.5648069955729
 20
245.157103195899
 10
378.2615142724071
 20
244.8774765327371
 10
378.937931532177
 20
244.6883391489414
 10
379.5922717126277
 20
244.6264196896504
 10
380.2294561046354
 20
244.6676810819699
 10
380.856083087359
 20
244.7728948234977
 10
381.4787510399574
 20
244.9028324118316
 10
382.1040583415896
 20
245.0182653445693
 10
382.7386033714144
 20
245.0799651193087
 10
383.388984508591
 20
245.0487032336476
 10
384.0618001322781
 20
244.8852511851837
 10
384.7619165485573
 20
244.5671102732674
 10
385.487271771201
 20
244.1387010042593
 10
386.2340717409038
 20
243.6611736862729
 10
386.9985223983606
 20
243.1956786274214
 10
387.7768296842662
 20
242.8033661358181
 10
388.5651995393155
 20
242.5453865195762
 10
389.3598379042034
 20
242.4828900868091
 10
390.1569507196246
 20
242.6770271456301
 10
390.9654458159619
 20
243.1498843315468
 10
391.8061951737336
 20
243.74002838123
  0
LINE
  5
31833626
330
318324AF
100
AcDbEntity
  8
JISSEN
100
AcDbLine
 10
396.3061951737335
 20
84.54584169869633
 30
0.0
 11
394.3936838372597
 21
84.8830690482273
 31
0.0
  0
LINE
  5
31833627
330
318324AF
100
AcDbEntity
  8
JISSEN
100
AcDbLine
 10
385.7570887348493
 20
84.54584169869622
 30
0.0
 11
384.6244543813282
 21
86.18307744772085
 31
0.0
  0
LINE
  5
31833628
330
318324AF
100
AcDbEntity
  8
JISSEN
100
AcDbLine
 10
381.5611180832155
 20
84.54584169869622
 30
0.0
 11
381.2008229277765
 21
85.81920678176038
 31
0.0
  0
LINE
  5
31833629
330
318324AF
100
AcDbEntity
  8
JISSEN
100
AcDbLine
 10
379.5605998864806
 20
86.18307744772085
 30
0.0
 11
379.7287399589661
 21
84.54584169869622
 31
0.0
  0
LINE
  5
3183362A
330
318324AF
100
AcDbEntity
  8
JISSEN
100
AcDbLine
 10
380.3373273327398
 20
84.54584169869622
 30
0.0
 11
380.4227009057329
 21
84.90727542162472
 31
0.0
  0
LINE
  5
3183362B
330
318324AF
100
AcDbEntity
  8
JISSEN
100
AcDbLine
 10
380.7197108780274
 20
84.54584169869622
 30
0.0
 11
380.6162451644492
 21
84.91151307944063
 31
0.0
  0
LINE
  5
3183362C
330
318324AF
100
AcDbEntity
  8
JISSEN
100
AcDbLine
 10
379.9373273327399
 20
84.54584169869622
 30
0.0
 11
380.2331016341948
 21
85.79801849268074
 31
0.0
  0
LINE
  5
3183362D
330
318324AF
100
AcDbEntity
  8
JISSEN
100
AcDbLine
 10
389.5210274057099
 20
84.5458416986961
 30
0.0
 11
387.7273872314993
 21
86.18307744772085
 31
0.0
  0
LINE
  5
3183362E
330
318324AF
100
AcDbEntity
  8
JISSEN
100
AcDbLine
 10
387.0984826204775
 20
84.54584169869622
 30
0.0
 11
386.3054111763527
 21
85.7372096792368
 31
0.0
  0
LINE
  5
3183362F
330
318324AF
100
AcDbEntity
  8
JISSEN
100
AcDbLine
 10
365.0913629417571
 20
84.5458416986961
 30
0.0
 11
366.8850031159677
 21
86.18307744772085
 31
0.0
  0
LINE
  5
31833630
330
318324AF
100
AcDbEntity
  8
JISSEN
100
AcDbLine
 10
368.8553016126177
 20
84.54584169869622
 30
0.0
 11
369.9879359661388
 21
86.18307744772085
 31
0.0
  0
LINE
  5
31833631
330
318324AF
100
AcDbEntity
  8
JISSEN
100
AcDbLine
 10
367.5139077269895
 20
84.54584169869622
 30
0.0
 11
368.3069791711143
 21
85.7372096792368
 31
0.0
  0
LINE
  5
31833632
330
318324AF
100
AcDbEntity
  8
JISSEN
100
AcDbLine
 10
374.6750630147271
 20
84.54584169869622
 30
0.0
 11
374.3792887132722
 21
85.79801849268074
 31
0.0
  0
LINE
  5
31833633
330
318324AF
100
AcDbEntity
  8
JISSEN
100
AcDbLine
 10
373.0512722642516
 20
84.54584169869622
 30
0.0
 11
373.4115674196905
 21
85.81920678176038
 31
0.0
  0
LINE
  5
31833634
330
318324AF
100
AcDbEntity
  8
JISSEN
100
AcDbLine
 10
373.8926794694396
 20
84.54584169869622
 30
0.0
 11
373.9961451830178
 21
84.91151307944063
 31
0.0
  0
LINE
  5
31833635
330
318324AF
100
AcDbEntity
  8
JISSEN
100
AcDbLine
 10
374.2750630147273
 20
84.54584169869622
 30
0.0
 11
374.1896894417341
 21
84.90727542162472
 31
0.0
  0
LINE
  5
31833636
330
318324AF
100
AcDbEntity
  8
JISSEN
100
AcDbLine
 10
374.8836503885011
 20
84.54584169869622
 30
0.0
 11
375.0517904609865
 21
86.18307744772085
 31
0.0
  0
LINE
  5
31833637
330
318324AF
100
AcDbEntity
  8
JISSEN
100
AcDbLine
 10
359.3061951737331
 20
84.72216867940437
 30
0.0
 11
360.2187065102073
 21
84.88306904822707
 31
0.0
  0
LINE
  5
31833638
330
318324AF
100
AcDbEntity
  8
JISSEN
100
AcDbLine
 10
388.1059270928772
 20
83.38103394568395
 30
0.0
 11
366.7366771961841
 21
83.38103394568395
 31
0.0
  0
LINE
  5
31833639
330
318324AF
100
AcDbEntity
  8
JISSEN
100
AcDbLine
 10
358.3061951737335
 20
84.5458416986961
 30
0.0
 11
396.3061951737335
 21
84.54584169869633
 31
0.0
  0
LINE
  5
3183363A
330
318324AF
100
AcDbEntity
  8
JISSEN
100
AcDbLine
 10
396.1325469960666
 20
83.56103394568391
 30
0.0
 11
358.4798433514004
 21
83.56103394568391
 31
0.0
  0
LINE
  5
3183363B
330
318324AF
100
AcDbEntity
  8
JISSEN
100
AcDbLine
 10
358.4798433514004
 20
83.56103394568368
 30
0.0
 11
358.3061951737335
 21
84.5458416986961
 31
0.0
  0
LINE
  5
3183363C
330
318324AF
100
AcDbEntity
  8
JISSEN
100
AcDbLine
 10
358.3061951737335
 20
84.5458416986961
 30
0.0
 11
359.3061951737331
 21
84.72216867940437
 31
0.0
  0
ARC
  5
3183363D
330
318324AF
100
AcDbEntity
  8
JISSEN
100
AcDbCircle
 10
366.7366771961841
 20
83.56103394568391
 30
0.0
 40
0.18
100
AcDbArc
 50
180.0
 51
270.0
  0
ARC
  5
3183363E
330
318324AF
100
AcDbEntity
  8
JISSEN
100
AcDbCircle
 10
388.1059270928772
 20
83.56103394568391
 30
0.0
 40
0.18
100
AcDbArc
 50
270.0
 51
0.0
  0
LINE
  5
3183363F
330
318324AF
100
AcDbEntity
  8
JISSEN
100
AcDbLine
 10
396.1325469960666
 20
83.56103394568391
 30
0.0
 11
396.3061951737335
 21
84.54584169869633
 31
0.0
  0
LINE
  5
31833640
330
318324AF
100
AcDbEntity
  8
JISSEN
100
AcDbLine
 10
387.9548489587331
 20
137.2443865186229
 30
0.0
 11
387.7609563453491
 21
143.4486400922409
 31
0.0
  0
LINE
  5
31833643
330
318324AF
100
AcDbEntity
  8
JISSEN
100
AcDbLine
 10
385.5056566609663
 20
130.8810339456839
 30
0.0
 11
378.8061951737335
 21
130.8810339456839
 31
0.0
  0
LINE
  5
31833644
330
318324AF
100
AcDbEntity
  8
JISSEN
100
AcDbLine
 10
388.0507578202717
 20
134.8810339456839
 30
0.0
 11
381.8671330731114
 21
134.8810339456839
 31
0.0
  0
ARC
  5
3183364E
330
318324AF
100
AcDbEntity
  8
JISSEN
100
AcDbCircle
 10
381.5561951737335
 20
97.41471688261322
 30
0.0
 40
1.0
100
AcDbArc
 50
234.4366714240507
 51
302.1818839204005
  0
ARC
  5
3183364F
330
318324AF
100
AcDbEntity
  8
JISSEN
100
AcDbCircle
 10
394.0561951737334
 20
90.88103394568395
 30
0.0
 40
12.49999999999999
100
AcDbArc
 50
163.7397952916896
 51
196.2602047083103
  0
LINE
  5
31833650
330
318324AF
100
AcDbEntity
  8
JISSEN
100
AcDbLine
 10
380.7197108780274
 20
86.18307744772085
 30
0.0
 11
384.6244543813282
 21
86.18307744772085
 31
0.0
  0
ARC
  5
31833657
330
318324AF
100
AcDbEntity
  8
JISSEN
100
AcDbCircle
 10
385.3061951737335
 20
116.8810339456839
 30
0.0
 40
28.0
100
AcDbArc
 50
180.0
 51
202.0243128370438
  0
ARC
  5
31833658
330
318324AF
100
AcDbEntity
  8
JISSEN
100
AcDbCircle
 10
385.3061951737335
 20
116.8810339456839
 30
0.0
 40
26.0
100
AcDbArc
 50
180.0
 51
203.8188413934548
  0
LINE
  5
31833659
330
318324AF
100
AcDbEntity
  8
JISSEN
100
AcDbLine
 10
355.3061951737335
 20
118.8810339456839
 30
0.0
 11
355.3061951737335
 21
116.7225785004794
 31
0.0
  0
ARC
  5
3183365C
330
318324AF
100
AcDbEntity
  8
JISSEN
100
AcDbCircle
 10
385.3061951737335
 20
116.8810339456839
 30
0.0
 40
24.0
100
AcDbArc
 50
180.0
 51
237.8181160795993
  0
ARC
  5
31833660
330
318324AF
100
AcDbEntity
  8
JISSEN
100
AcDbCircle
 10
385.3061951737335
 20
116.7225785004794
 30
0.0
 40
30.0
100
AcDbArc
 50
180.0
 51
220.2190987445535
  0
LINE
  5
31833661
330
318324AF
100
AcDbEntity
  8
JISSEN
100
AcDbLine
 10
360.2187065102075
 20
84.88306904822707
 30
0.0
 11
364.0561951737335
 21
84.88306904822707
 31
0.0
  0
ARC
  5
31833662
330
318324AF
100
AcDbEntity
  8
JISSEN
100
AcDbCircle
 10
360.5561951737336
 20
90.88103394568395
 30
0.0
 40
12.49999999999999
100
AcDbArc
 50
343.7397952916896
 51
16.26020470831033
  0
LINE
  5
31833663
330
318324AF
100
AcDbEntity
  8
JISSEN
100
AcDbLine
 10
362.3987702156276
 20
97.35121092385373
 30
0.0
 11
371.8429578144801
 21
86.18307744772085
 31
0.0
  0
LINE
  5
31833664
330
318324AF
100
AcDbEntity
  8
JISSEN
100
AcDbLine
 10
373.8926794694396
 20
86.18307744772085
 30
0.0
 11
369.9879359661388
 21
86.18307744772085
 31
0.0
  0
ARC
  5
31833665
330
318324AF
100
AcDbEntity
  8
JISSEN
100
AcDbCircle
 10
369.1394078287149
 20
85.18307744772039
 30
0.0
 40
1.0
100
AcDbArc
 50
47.91894748809069
 51
146.3490341753988
  0
LINE
  5
31833666
330
318324AF
100
AcDbEntity
  8
JISSEN
100
AcDbLine
 10
364.0561951737335
 20
84.88306904822707
 30
0.0
 11
365.5627042270706
 21
85.93793804375469
 31
0.0
  0
ARC
  5
31833667
330
318324AF
100
AcDbEntity
  8
JISSEN
100
AcDbCircle
 10
366.3401870865442
 20
84.82757744772085
 30
0.0
 40
1.355499999999999
100
AcDbArc
 50
70.26879749381842
 51
124.9999999999967
  0
LINE
  5
31833668
330
318324AF
100
AcDbEntity
  8
JISSEN
100
AcDbLine
 10
366.8850031159677
 20
86.18307744772085
 30
0.0
 11
369.1394078287149
 21
86.18307744772085
 31
0.0
  0
ARC
  5
31833669
330
318324AF
100
AcDbEntity
  8
JISSEN
100
AcDbCircle
 10
380.5200227544995
 20
84.88428721263256
 30
0.0
 40
0.1
100
AcDbArc
 50
15.79871507350581
 51
166.7098700100894
  0
ARC
  5
3183366A
330
318324AF
100
AcDbEntity
  8
JISSEN
100
AcDbCircle
 10
380.7197108780274
 20
85.68307744771994
 30
0.0
 40
0.5
100
AcDbArc
 50
15.79871507350246
 51
166.709870010097
  0
ARC
  5
3183366B
330
318324AF
100
AcDbEntity
  8
JISSEN
100
AcDbCircle
 10
374.0923675929676
 20
84.88428721263256
 30
0.0
 40
0.1
100
AcDbArc
 50
13.29012998991047
 51
164.2012849264941
  0
ARC
  5
3183366C
330
318324AF
100
AcDbEntity
  8
JISSEN
100
AcDbCircle
 10
373.8926794694396
 20
85.68307744771994
 30
0.0
 40
0.5
100
AcDbArc
 50
13.29012998990297
 51
164.2012849264975
  0
LINE
  5
3183366D
330
318324AF
100
AcDbEntity
  8
JISSEN
100
AcDbLine
 10
375.0517904609865
 20
86.18307744772096
 30
0.0
 11
379.5605998864806
 21
86.18307744772085
 31
0.0
  0
LINE
  5
3183366E
330
318324AF
100
AcDbEntity
  8
JISSEN
100
AcDbLine
 10
379.8061951737336
 20
96.88103394568395
 30
0.0
 11
379.8061951737336
 21
97.52191694870795
 31
0.0
  0
ARC
  5
3183366F
330
318324AF
100
AcDbEntity
  8
JISSEN
100
AcDbCircle
 10
380.1021890829476
 20
95.38103394568395
 30
0.0
 40
1.5
100
AcDbArc
 50
54.43667142405092
 51
90.0
  0
LINE
  5
31833670
330
318324AF
100
AcDbEntity
  8
SAISEN
100
AcDbLine
 10
379.3061951737336
 20
96.88103394568395
 30
0.0
 11
379.3061951737336
 21
98.02191694870794
 31
0.0
  0
LINE
  5
31833671
330
318324AF
100
AcDbEntity
  8
JISSEN
100
AcDbLine
 10
379.8061951737336
 20
97.52191694870795
 30
0.0
 11
378.625525573676
 21
98.70258654876545
 31
0.0
  0
LINE
  5
31833672
330
318324AF
100
AcDbEntity
  8
JISSEN
100
AcDbLine
 10
374.8061951737336
 20
97.52191694870795
 30
0.0
 11
375.986864773791
 21
98.70258654876545
 31
0.0
  0
LINE
  5
31833673
330
318324AF
100
AcDbEntity
  8
JISSEN
100
AcDbLine
 10
374.8061951737336
 20
96.88103394568395
 30
0.0
 11
374.8061951737336
 21
97.52191694870795
 31
0.0
  0
LINE
  5
31833674
330
318324AF
100
AcDbEntity
  8
SAISEN
100
AcDbLine
 10
375.3061951737336
 20
96.88103394568395
 30
0.0
 11
375.3061951737336
 21
98.02191694870794
 31
0.0
  0
LINE
  5
31833675
330
318324AF
100
AcDbEntity
  8
JISSEN
100
AcDbLine
 10
374.5102012645194
 20
96.88103394568395
 30
0.0
 11
377.3061951737335
 21
96.88103394568395
 31
0.0
  0
ARC
  5
31833676
330
318324AF
100
AcDbEntity
  8
JISSEN
100
AcDbCircle
 10
373.0561951737335
 20
97.41471688261322
 30
0.0
 40
1.0
100
AcDbArc
 50
237.8181160795993
 51
305.5633285759491
  0
ARC
  5
31833677
330
318324AF
100
AcDbEntity
  8
JISSEN
100
AcDbCircle
 10
374.5102012645194
 20
95.38103394568395
 30
0.0
 40
1.5
100
AcDbArc
 50
90.0
 51
125.5633285759492
  0
LINE
  5
31833679
330
318324AF
100
AcDbEntity
  8
JISSEN
100
AcDbLine
 10
380.1021890829476
 20
96.88103394568395
 30
0.0
 11
377.3061951737335
 21
96.88103394568395
 31
0.0
  0
LINE
  5
318336A4
330
318324AF
100
AcDbEntity
  8
JISSEN
100
AcDbLine
 10
381.8671330731114
 20
134.8810339456839
 30
0.0
 11
381.8671330731114
 21
130.8810339456839
 31
0.0
  0
LINE
  5
318336A7
330
318324AF
100
AcDbEntity
  8
JISSEN
100
AcDbLine
 10
372.7452572743556
 20
136.3810339456839
 30
0.0
 11
372.7452572743556
 21
130.8810339456839
 31
0.0
  0
LINE
  5
318336A8
330
318324AF
100
AcDbEntity
  8
JISSEN
100
AcDbLine
 10
369.1067336865008
 20
134.8810339456839
 30
0.0
 11
369.1067336865008
 21
130.8810339456839
 31
0.0
  0
ARC
  5
318336A9
330
318324AF
100
AcDbEntity
  8
JISSEN
100
AcDbCircle
 10
363.4184466420652
 20
138.0241512740602
 30
0.0
 40
6.498907295833106
100
AcDbArc
 50
284.679080052196
 51
320.8990391255022
  0
TEXT
  5
318336AA
330
318324AF
100
AcDbEntity
  8
JISSEN
100
AcDbText
 10
372.1204415173906
 20
134.1732228302152
 30
0.0
 40
2.5
  1
D
 50
180.0
  7
K
100
AcDbText
  0
ARC
  5
318336AB
330
318324AF
100
AcDbEntity
  8
JISSEN
100
AcDbCircle
 10
372.3061951737335
 20
118.8810339456839
 30
0.0
 40
16.99999999999999
100
AcDbArc
 50
109.7499227956426
 51
180.0
  0
ARC
  5
318336AC
330
318324AF
100
AcDbEntity
  8
JISSEN
100
AcDbCircle
 10
372.3061951737335
 20
118.8810339456839
 30
0.0
 40
15.0
100
AcDbArc
 50
126.6829888003604
 51
180.0
  0
ARC
  5
318336AD
330
318324AF
100
AcDbEntity
  8
JISSEN
100
AcDbCircle
 10
372.2455002214091
 20
117.7270820082557
 30
0.0
 40
10.99999999999979
100
AcDbArc
 50
104.8402148385155
 51
173.978322807366
  0
ARC
  5
318336AE
330
318324AF
100
AcDbEntity
  8
JISSEN
100
AcDbCircle
 10
370.0949483902111
 20
118.2793762228392
 30
0.0
 40
10.80551655320168
100
AcDbArc
 50
91.53128360361938
 51
176.8080854238756
  0
LINE
  5
318336AF
330
318324AF
100
AcDbEntity
  8
JISSEN
100
AcDbLine
 10
359.3061951737335
 20
116.8810339456839
 30
0.0
 11
359.3061951737335
 21
118.8810339456839
 31
0.0
  0
LINE
  5
318336B0
330
318324AF
100
AcDbEntity
  8
JISSEN
100
AcDbLine
 10
357.3061951737335
 20
116.8810339456839
 30
0.0
 11
357.3061951737335
 21
118.8810339456839
 31
0.0
  0
LINE
  5
318336B2
330
318324AF
100
AcDbEntity
  8
JISSEN
100
AcDbLine
 10
361.3061951737335
 20
118.881033945684
 30
0.0
 11
361.3061951737335
 21
116.8810339456839
 31
0.0
  0
LINE
  5
318336CF
330
318324AF
100
AcDbEntity
  8
JISSEN
100
AcDbLine
 10
384.5561951737336
 20
127.1027217821709
 30
0.0
 11
370.0561951737336
 21
127.1027217821709
 31
0.0
  0
LINE
  5
318336D0
330
318324AF
100
AcDbEntity
  8
JISSEN
100
AcDbLine
 10
384.806195173732
 20
129.0810339456839
 30
0.0
 11
369.8061951737335
 21
129.0810339456838
 31
0.0
  0
LINE
  5
318336D1
330
318324AF
100
AcDbEntity
  8
JISSEN
100
AcDbLine
 10
375.8061951737335
 20
130.8810339456839
 30
0.0
 11
369.1067336865008
 21
130.8810339456839
 31
0.0
  0
LINE
  5
318336D2
330
318324AF
100
AcDbEntity
  8
JISSEN
100
AcDbLine
 10
383.306195173734
 20
126.3810339456839
 30
0.0
 11
371.3061951737335
 21
126.3810339456836
 31
0.0
  0
LINE
  5
318336D5
330
318324AF
100
AcDbEntity
  8
JISSEN
100
AcDbLine
 10
370.0561951737335
 20
127.1027217821709
 30
0.0
 11
370.0561951737335
 21
127.8768425158018
 31
0.0
  0
ARC
  5
318336D6
330
318324AF
100
AcDbEntity
  8
JISSEN
100
AcDbCircle
 10
369.5561951737335
 20
127.8768425158018
 30
0.0
 40
0.5
100
AcDbArc
 50
0.0
 51
104.8402148385214
  0
LINE
  5
318336D7
330
318324AF
100
AcDbEntity
  8
JISSEN
100
AcDbLine
 10
369.8061951737335
 20
130.8810339456839
 30
0.0
 11
369.8061951737335
 21
129.0810339456838
 31
0.0
  0
LINE
  5
318336D9
330
318324AF
100
AcDbEntity
  8
JISSEN
100
AcDbLine
 10
370.0561951737335
 20
127.1027217821709
 30
0.0
 11
371.3061951737341
 21
126.3810339456839
 31
0.0
  0
ARC
  5
318336DA
330
318324AF
100
AcDbEntity
  8
JISSEN
100
AcDbCircle
 10
366.3323244508088
 20
126.9005643923986
 30
0.0
 40
5.0
100
AcDbArc
 50
104.679080052196
 51
126.6829888003604
  0
LINE
  5
318336DC
330
318324AF
100
AcDbEntity
  8
JISSEN
100
AcDbLine
 10
378.8061951737335
 20
130.8810339456839
 30
0.0
 11
378.8061951737335
 21
129.0810339456838
 31
0.0
  0
LINE
  5
318336E1
330
318324AF
100
AcDbEntity
  8
JISSEN
100
AcDbLine
 10
375.8061951737335
 20
130.8810339456839
 30
0.0
 11
375.8061951737335
 21
129.0810339456838
 31
0.0
  0
LINE
  5
318336E5
330
318324AF
100
AcDbEntity
  8
JISSEN
100
AcDbLine
 10
366.5616325271954
 20
134.8810339456839
 30
0.0
 11
372.7452572743556
 21
134.8810339456839
 31
0.0
  0
LINE
  5
318336E6
330
318324AF
100
AcDbEntity
  8
JISSEN
100
AcDbLine
 10
381.8671330731114
 20
134.8810339456839
 30
0.0
 11
381.8671330731114
 21
136.3810339456839
 31
0.0
  0
LINE
  5
318336EA
330
318324AF
100
AcDbEntity
  8
JISSEN
100
AcDbLine
 10
399.3061951737335
 20
118.8810339456839
 30
0.0
 11
399.3061951737335
 21
116.7225785004794
 31
0.0
  0
ARC
  5
318336EB
330
318324AF
100
AcDbEntity
  8
JISSEN
100
AcDbCircle
 10
369.3061951737335
 20
116.8810339456839
 30
0.0
 40
26.0
100
AcDbArc
 50
336.1811586065452
 51
0.0
1001
ACAD
1000
ASC_BOUNDS
1002
{
1070
    16
1002
}
  0
ARC
  5
318336EC
330
318324AF
100
AcDbEntity
  8
JISSEN
100
AcDbCircle
 10
369.3061951737335
 20
116.8810339456839
 30
0.0
 40
28.0
100
AcDbArc
 50
337.975687162956
 51
0.0
1001
ACAD
1000
ASC_BOUNDS
1002
{
1070
    16
1002
}
  0
ARC
  5
318336ED
330
318324AF
100
AcDbEntity
  8
JISSEN
100
AcDbCircle
 10
369.3061951737335
 20
116.8810339456839
 30
0.0
 40
24.0
100
AcDbArc
 50
302.1818839204005
 51
0.0
  0
ARC
  5
318336EE
330
318324AF
100
AcDbEntity
  8
JISSEN
100
AcDbCircle
 10
369.3061951737335
 20
116.7225785004794
 30
0.0
 40
30.0
100
AcDbArc
 50
319.7809012554462
 51
0.0
  0
LINE
  5
318336EF
330
318324AF
100
AcDbEntity
  8
JISSEN
100
AcDbLine
 10
392.2136201318394
 20
97.35121092385373
 30
0.0
 11
382.769432532987
 21
86.18307744772085
 31
0.0
  0
LINE
  5
318336F0
330
318324AF
100
AcDbEntity
  8
JISSEN
100
AcDbLine
 10
390.5561951737335
 20
84.88306904822707
 30
0.0
 11
394.3936838372609
 21
84.88306904822707
 31
0.0
  0
LINE
  5
318336F1
330
318324AF
100
AcDbEntity
  8
JISSEN
100
AcDbLine
 10
390.5561951737335
 20
84.88306904822707
 30
0.0
 11
389.0496861203965
 21
85.93793804375469
 31
0.0
  0
LINE
  5
318336F2
330
318324AF
100
AcDbEntity
  8
JISSEN
100
AcDbLine
 10
387.7273872314993
 20
86.18307744772085
 30
0.0
 11
385.4729825187522
 21
86.18307744772085
 31
0.0
  0
ARC
  5
318336F3
330
318324AF
100
AcDbEntity
  8
JISSEN
100
AcDbCircle
 10
388.2722032609228
 20
84.82757744772085
 30
0.0
 40
1.355499999999999
100
AcDbArc
 50
55.00000000000309
 51
109.7312025061674
  0
ARC
  5
318336F4
330
318324AF
100
AcDbEntity
  8
JISSEN
100
AcDbCircle
 10
385.4729825187522
 20
85.18307744772039
 30
0.0
 40
1.0
100
AcDbArc
 50
33.65096582460109
 51
132.0810525119092
  0
LINE
  5
318336F6
330
318324AF
100
AcDbEntity
  8
JISSEN
100
AcDbLine
 10
385.5056566609663
 20
134.8810339456839
 30
0.0
 11
385.5056566609663
 21
130.8810339456839
 31
0.0
  0
ARC
  5
318336F7
330
318324AF
100
AcDbEntity
  8
JISSEN
100
AcDbCircle
 10
391.1939437054018
 20
138.0241512740602
 30
0.0
 40
6.498907295833106
100
AcDbArc
 50
219.1009608744976
 51
255.3209199478039
  0
ARC
  5
318336F8
330
318324AF
100
AcDbEntity
  8
JISSEN
100
AcDbCircle
 10
382.3061951737335
 20
118.8810339456839
 30
0.0
 40
17.0
100
AcDbArc
 50
0.0
 51
70.25007720435732
  0
ARC
  5
318336FA
330
318324AF
100
AcDbEntity
  8
JISSEN
100
AcDbCircle
 10
382.3668901260577
 20
117.7270820082555
 30
0.0
 40
11.0
100
AcDbArc
 50
6.021677192633947
 51
75.15978516147832
  0
ARC
  5
318336FB
330
318324AF
100
AcDbEntity
  8
JISSEN
100
AcDbCircle
 10
382.3061951737335
 20
118.8810339456839
 30
0.0
 40
15.0
100
AcDbArc
 50
0.0
 51
53.31701119963971
1001
ACAD
1000
ASC_BOUNDS
1002
{
1070
    16
1002
}
  0
ARC
  5
318336FC
330
318324AF
100
AcDbEntity
  8
JISSEN
100
AcDbCircle
 10
384.5174419572559
 20
118.2793762228392
 30
0.0
 40
10.80551655320168
100
AcDbArc
 50
3.191914576124303
 51
88.46871639638065
1001
ACAD
1000
ASC_BOUNDS
1002
{
1070
    16
1002
}
  0
LINE
  5
318336FD
330
318324AF
100
AcDbEntity
  8
JISSEN
100
AcDbLine
 10
397.3061951737335
 20
116.8810339456839
 30
0.0
 11
397.3061951737335
 21
118.8810339456839
 31
0.0
1001
ACAD
1000
ASC_BOUNDS
1002
{
1070
    16
1002
}
  0
LINE
  5
318336FE
330
318324AF
100
AcDbEntity
  8
JISSEN
100
AcDbLine
 10
395.3061951737335
 20
116.8810339456839
 30
0.0
 11
395.3061951737335
 21
118.8810339456839
 31
0.0
1001
ACAD
1000
ASC_BOUNDS
1002
{
1070
    16
1002
}
  0
LINE
  5
318336FF
330
318324AF
100
AcDbEntity
  8
JISSEN
100
AcDbLine
 10
393.3061951737335
 20
118.881033945684
 30
0.0
 11
393.3061951737335
 21
116.8810339456839
 31
0.0
  0
ARC
  5
31833700
330
318324AF
100
AcDbEntity
  8
JISSEN
100
AcDbCircle
 10
388.2800658966583
 20
126.9005643923986
 30
0.0
 40
5.0
100
AcDbArc
 50
53.31701119963971
 51
75.32091994780397
  0
LINE
  5
31833701
330
318324AF
100
AcDbEntity
  8
JISSEN
100
AcDbLine
 10
384.5561951737335
 20
127.1027217821709
 30
0.0
 11
384.5561951737335
 21
127.8768425158018
 31
0.0
  0
LINE
  5
31833702
330
318324AF
100
AcDbEntity
  8
JISSEN
100
AcDbLine
 10
384.8061951737335
 20
130.8810339456839
 30
0.0
 11
384.8061951737335
 21
129.0810339456838
 31
0.0
  0
ARC
  5
31833703
330
318324AF
100
AcDbEntity
  8
JISSEN
100
AcDbCircle
 10
385.0561951737335
 20
127.8768425158018
 30
0.0
 40
0.5
100
AcDbArc
 50
75.15978516147832
 51
180.0
  0
LINE
  5
31833705
330
318324AF
100
AcDbEntity
  8
JISSEN
100
AcDbLine
 10
383.3061951737335
 20
126.3810339456836
 30
0.0
 11
384.5561951737335
 21
127.1027217821709
 31
0.0
  0
LINE
  5
31833706
330
318324AF
100
AcDbEntity
  8
SAISEN
100
AcDbLine
 10
386.5989563453481
 20
143.4486400922408
 30
0.0
 11
386.8069068696535
 21
136.7945558492105
 31
0.0
  0
LINE
  5
31833707
330
318324AF
100
AcDbEntity
  8
SAISEN
100
AcDbLine
 10
368.013434002119
 20
143.4486400922409
 30
0.0
 11
367.8054834778135
 21
136.7945558492105
 31
0.0
  0
LINE
  5
31833708
102
{ACAD_REACTORS
330
3183370F
102
}
330
318324AF
100
AcDbEntity
  8
JISSEN
100
AcDbLine
 10
402.3061951737335
 20
162.0036552258024
 30
0.0
 11
402.3061951737335
 21
177.0036552258023
 31
0.0
  0
LINE
  5
31833709
102
{ACAD_REACTORS
330
3183370F
102
}
330
318324AF
100
AcDbEntity
  8
JISSEN
100
AcDbLine
 10
352.3061951737335
 20
162.0036552258024
 30
0.0
 11
352.3061951737335
 21
177.0036552258023
 31
0.0
  0
LINE
  5
3183370A
102
{ACAD_REACTORS
330
3183370F
102
}
330
318324AF
100
AcDbEntity
  8
JISSEN
100
AcDbLine
 10
450.524999658963
 20
177.0036552258024
 30
0.0
 11
390.8061951737335
 21
177.0036552258023
 31
0.0
  0
LWPOLYLINE
  5
3183370B
102
{ACAD_REACTORS
330
3183370F
102
}
330
318324AF
100
AcDbEntity
  8
JISSEN
100
AcDbPolyline
 90
       24
 70
     0
 43
0.0
 10
450.4282560981055
 20
180.0036552258024
 10
450.7248024280626
 20
179.2903716844508
 10
450.8454094634542
 20
178.440825768482
 10
450.740769354957
 20
177.6357229061696
 10
450.4776008780352
 20
176.8648070090714
 10
450.1226228081528
 20
176.1178219887452
 10
449.7425539207743
 20
175.3845117567485
 10
449.4041129913637
 20
174.6546202246392
 10
449.1740187953852
 20
173.9178913039749
 10
449.1189901083031
 20
173.1640689063133
 10
449.2830784289228
 20
172.3846062910522
 10
449.6196661494145
 20
171.577794108949
 10
450.0594683852893
 20
170.7436323586013
 10
450.533200252059
 20
169.8821210386068
 10
450.9715768652348
 20
168.9932601475628
 10
451.3053133403281
 20
168.077049684067
 10
451.4651247928502
 20
167.1334896467169
 10
451.3817263383126
 20
166.16258003411
 10
451.0247048634032
 20
165.1574834534841
 10
450.5191343395165
 20
164.0840129466371
 10
450.0289605092232
 20
162.9011441640073
 10
449.7181291150944
 20
161.5678527560329
 10
449.7505858997011
 20
160.0431143731522
 10
450.0698343301273
 20
159.0036552258024
  0
LINE
  5
3183370C
102
{ACAD_REACTORS
330
3183370F
102
}
330
318324AF
100
AcDbEntity
  8
JISSEN
100
AcDbLine
 10
304.087390688504
 20
177.0036552258024
 30
0.0
 11
363.8061951737335
 21
177.0036552258023
 31
0.0
  0
LWPOLYLINE
  5
3183370D
102
{ACAD_REACTORS
330
3183370F
102
}
330
318324AF
100
AcDbEntity
  8
JISSEN
100
AcDbPolyline
 90
       24
 70
     0
 43
0.0
 10
304.1841342493615
 20
180.0036552258024
 10
303.8875879194045
 20
179.2903716844508
 10
303.7669808840128
 20
178.440825768482
 10
303.87162099251
 20
177.6357229061696
 10
304.1347894694319
 20
176.8648070090714
 10
304.4897675393142
 20
176.1178219887452
 10
304.8698364266928
 20
175.3845117567485
 10
305.2082773561033
 20
174.6546202246392
 10
305.4383715520818
 20
173.9178913039749
 10
305.4934002391639
 20
173.1640689063133
 10
305.3293119185442
 20
172.3846062910522
 10
304.9927241980526
 20
171.577794108949
 10
304.5529219621777
 20
170.7436323586013
 10
304.079190095408
 20
169.8821210386068
 10
303.6408134822322
 20
168.9932601475628
 10
303.307077007139
 20
168.077049684067
 10
303.1472655546168
 20
167.1334896467169
 10
303.2306640091544
 20
166.16258003411
 10
303.5876854840638
 20
165.1574834534841
 10
304.0932560079505
 20
164.0840129466371
 10
304.5834298382438
 20
162.9011441640073
 10
304.8942612323726
 20
161.5678527560329
 10
304.8618044477659
 20
160.0431143731522
 10
304.5425560173398
 20
159.0036552258024
  0
LINE
  5
3183370E
102
{ACAD_REACTORS
330
3183370F
102
}
330
318324AF
100
AcDbEntity
  8
JISSEN
100
AcDbLine
 10
377.3061951737335
 20
162.0036552258024
 30
0.0
 11
449.8197281267081
 21
162.0036552258024
 31
0.0
  0
HATCH
  5
3183370F
330
318324AF
100
AcDbEntity
  8
HATCH
100
AcDbHatch
 10
0.0
 20
0.0
 30
0.0
210
0.0
220
0.0
230
1.0
  2
ANSI31
 70
     0
 71
     1
 91
        2
 92
        7
 72
     0
 73
     1
 93
       18
 10
449.8197281267082
 20
162.0036552258024
 10
450.0289605092233
 20
162.9011441640074
 10
450.5191343395169
 20
164.0840129466378
 10
451.0247048634034
 20
165.157483453484
 10
451.3817263383126
 20
166.1625800341101
 10
451.4651247928502
 20
167.1334896467169
 10
451.3053133403282
 20
168.0770496840668
 10
450.9715768652346
 20
168.9932601475632
 10
450.5332002520587
 20
169.8821210386068
 10
450.059468385289
 20
170.7436323586018
 10
449.3420970356843
 20
172.1042524096694
 10
449.046351827841
 20
173.5091198145272
 10
449.4645469834101
 20
174.8481212799027
 10
450.1226228081529
 20
176.1178219887454
 10
450.4776008780352
 20
176.8648070090716
 10
450.5249996589631
 20
177.0036552258024
 10
402.3061951737335
 20
177.0036552258024
 10
402.3061951737335
 20
162.0036552258024
 97
        4
330
3183370B
330
3183370A
330
31833708
330
3183370E
 92
        7
 72
     0
 73
     1
 93
       18
 10
352.3061951737335
 20
162.0036552258024
 10
352.3061951737335
 20
177.0036552258024
 10
304.087390688504
 20
177.0036552258024
 10
304.1347894694319
 20
176.8648070090714
 10
304.4897675393142
 20
176.1178219887451
 10
305.1478433640569
 20
174.8481212799029
 10
305.5660385196261
 20
173.5091198145271
 10
305.2702933117827
 20
172.1042524096689
 10
304.5529219621773
 20
170.7436323586004
 10
304.079190095408
 20
169.8821210386067
 10
303.6408134822323
 20
168.9932601475629
 10
303.3070770071389
 20
168.077049684067
 10
303.1472655546168
 20
167.1334896467169
 10
303.2306640091545
 20
166.16258003411
 10
303.5876854840637
 20
165.1574834534843
 10
304.0932560079504
 20
164.0840129466369
 10
304.5834298382438
 20
162.9011441640073
 10
304.7926622207589
 20
162.0036552258024
 97
        4
330
3183370C
330
3183370D
330
318335F4
330
31833709
 75
     0
 76
     1
 52
0.0
 41
30.0
 77
     0
 78
     1
 53
45.0
 43
246.7295322903109
 44
-12.70144553876696
 45
-2.651650429449552
 46
2.651650429449553
 79
     0
 47
0.4215091495433344
 98
        2
 10
423.0252856541723
 20
166.9394646121605
 10
327.6867273775491
 20
168.2039931405564
  0
LINE
  5
31833710
330
318324AF
100
AcDbEntity
  8
ITTEN
 48
2.0
100
AcDbLine
 10
377.3061951737335
 20
354.2738826159917
 30
0.0
 11
377.3061951737335
 21
78.38103394568395
 31
0.0
  0
LINE
  5
31833727
330
318324AF
100
AcDbEntity
  8
JISSEN
100
AcDbLine
 10
364.8061951737334
 20
143.4486400922409
 30
0.0
 11
363.8061951737333
 21
144.4486400922409
 31
0.0
  0
LINE
  5
31833728
330
318324AF
100
AcDbEntity
  8
JISSEN
100
AcDbLine
 10
390.8061951737334
 20
144.4486400922409
 30
0.0
 11
389.8061951737334
 21
143.4486400922409
 31
0.0
  0
LINE
  5
31833729
330
318324AF
100
AcDbEntity
  8
JISSEN
100
AcDbLine
 10
364.8061951737334
 20
143.4486400922409
 30
0.0
 11
389.8061951737333
 21
143.4486400922408
 31
0.0
  0
LINE
  5
3183372A
330
318324AF
100
AcDbEntity
  8
JISSEN
100
AcDbLine
 10
390.8061951737335
 20
162.0036552258024
 30
0.0
 11
390.8061951737335
 21
222.948640092241
 31
0.0
  0
LINE
  5
3183372B
330
318324AF
100
AcDbEntity
  8
JISSEN
100
AcDbLine
 10
363.8061951737335
 20
144.4486400922411
 30
0.0
 11
363.8061951737335
 21
147.0036552258024
 31
0.0
  0
LINE
  5
3183372D
330
318324AF
100
AcDbEntity
  8
JISSEN
100
AcDbLine
 10
386.2550281286262
 20
134.8810339456839
 30
0.0
 11
386.2550281286262
 21
136.5782975676539
 31
0.0
  0
LINE
  5
3183372E
330
318324AF
100
AcDbEntity
  8
JISSEN
100
AcDbLine
 10
386.2550281286262
 20
136.5782975676539
 30
0.0
 11
387.958245041464
 21
137.2457173019288
 31
0.0
  0
LINE
  5
3183372F
330
318324AF
100
AcDbEntity
  8
JISSEN
100
AcDbLine
 10
381.8671330731114
 20
135.0782975676539
 30
0.0
 11
386.2550281286262
 21
135.0782975676539
 31
0.0
  0
LINE
  5
31833730
330
318324AF
100
AcDbEntity
  8
JISSEN
100
AcDbLine
 10
366.657541388734
 20
137.2443865186229
 30
0.0
 11
366.851434002118
 21
143.4486400922409
 31
0.0
  0
LINE
  5
31833731
330
318324AF
100
AcDbEntity
  8
JISSEN
100
AcDbLine
 10
368.3573622188409
 20
136.5782975676539
 30
0.0
 11
366.654145306003
 21
137.2457173019288
 31
0.0
  0
LINE
  5
31833732
330
318324AF
100
AcDbEntity
  8
JISSEN
100
AcDbLine
 10
368.3573622188409
 20
134.8810339456839
 30
0.0
 11
368.3573622188409
 21
136.5782975676539
 31
0.0
  0
LINE
  5
31833733
330
318324AF
100
AcDbEntity
  8
JISSEN
100
AcDbLine
 10
372.7452572743557
 20
135.0782975676539
 30
0.0
 11
368.3573622188409
 21
135.0782975676539
 31
0.0
  0
LINE
  5
31833737
330
318324AF
100
AcDbEntity
  8
JISSEN
100
AcDbLine
 10
392.4616397399614
 20
284.2738826159919
 30
0.0
 11
387.4098248845521
 21
284.2738826159919
 31
0.0
  0
LINE
  5
31833738
330
318324AF
100
AcDbEntity
  8
JISSEN
100
AcDbLine
 10
392.4616397399614
 20
294.2738826159919
 30
0.0
 11
387.4098248845521
 21
294.2738826159919
 31
0.0
  0
LINE
  5
31833739
330
318324AF
100
AcDbEntity
  8
JISSEN
100
AcDbLine
 10
367.2025654629152
 20
294.2738826159919
 30
0.0
 11
362.150750607506
 21
294.2738826159919
 31
0.0
  0
LINE
  5
3183373A
330
318324AF
100
AcDbEntity
  8
JISSEN
100
AcDbLine
 10
367.2025654629152
 20
284.2738826159919
 30
0.0
 11
362.150750607506
 21
284.2738826159919
 31
0.0
  0
ARC
  5
3183373B
330
318324AF
100
AcDbEntity
  8
JISSEN
100
AcDbCircle
 10
392.4616397399614
 20
297.5342992826586
 30
0.0
 40
13.26041666666662
100
AcDbArc
 50
247.6062487867135
 51
292.3937512132862
  0
ARC
  5
3183373C
330
318324AF
100
AcDbEntity
  8
JISSEN
100
AcDbCircle
 10
362.150750607506
 20
297.5342992826586
 30
0.0
 40
13.26041666666662
100
AcDbArc
 50
247.6062487867135
 51
292.3937512132862
  0
ARC
  5
3183373D
330
318324AF
100
AcDbEntity
  8
JISSEN
100
AcDbCircle
 10
362.1507506075059
 20
281.0134659493256
 30
0.0
 40
13.26041666666633
100
AcDbArc
 50
67.60624878671229
 51
89.99999999999939
  0
LINE
  5
3183373E
330
318324AF
100
AcDbEntity
  8
JISSEN
100
AcDbLine
 10
387.4098248845521
 20
294.2738826159919
 30
0.0
 11
367.2025654629152
 21
294.2738826159919
 31
0.0
  0
LINE
  5
3183373F
330
318324AF
100
AcDbEntity
  8
JISSEN
100
AcDbLine
 10
387.4098248845521
 20
284.2738826159919
 30
0.0
 11
367.2025654629152
 21
284.2738826159919
 31
0.0
  0
ARC
  5
31833740
330
318324AF
100
AcDbEntity
  8
JISSEN
100
AcDbCircle
 10
377.3061951737336
 20
242.7322159493283
 30
0.0
 40
51.54166666666362
100
AcDbArc
 50
78.69519472252463
 51
101.3048052774753
  0
ARC
  5
31833741
330
318324AF
100
AcDbEntity
  8
JISSEN
100
AcDbCircle
 10
377.3061951737336
 20
335.8155492826555
 30
0.0
 40
51.54166666666362
100
AcDbArc
 50
258.6951947225246
 51
281.3048052774753
  0
LINE
  5
31833742
330
318324AF
100
AcDbEntity
  8
JISSEN
100
AcDbLine
 10
387.4098248845521
 20
293.2738826159919
 30
0.0
 11
387.4098248845521
 21
285.2738826159919
 31
0.0
  0
LINE
  5
31833743
330
318324AF
100
AcDbEntity
  8
JISSEN
100
AcDbLine
 10
367.2025654629152
 20
293.2738826159919
 30
0.0
 11
367.2025654629152
 21
285.2738826159919
 31
0.0
  0
LINE
  5
31833744
330
318324AF
100
AcDbEntity
  8
JISSEN
100
AcDbLine
 10
397.5134545953705
 20
293.2738826159919
 30
0.0
 11
397.5134545953705
 21
285.2738826159919
 31
0.0
  0
LINE
  5
31833745
330
318324AF
100
AcDbEntity
  8
JISSEN
100
AcDbLine
 10
357.0989357520967
 20
293.2738826159919
 30
0.0
 11
357.0989357520967
 21
285.2738826159919
 31
0.0
  0
ARC
  5
31833746
330
318324AF
100
AcDbEntity
  8
JISSEN
100
AcDbCircle
 10
361.3061951737335
 20
295.2488517757169
 30
0.0
 40
1.0
100
AcDbArc
 50
273.3952580130327
 51
0.0
  0
ARC
  5
31833747
330
318324AF
100
AcDbEntity
  8
JISSEN
100
AcDbCircle
 10
362.1507506075059
 20
281.0134659493256
 30
0.0
 40
13.26041666666633
100
AcDbArc
 50
93.39525801303311
 51
112.3937512132864
  0
ARC
  5
31833748
330
318324AF
100
AcDbEntity
  8
JISSEN
100
AcDbCircle
 10
393.3061951737334
 20
295.2488517757169
 30
0.0
 40
1.0
100
AcDbArc
 50
180.0
 51
266.604741986967
  0
ARC
  5
31833749
330
318324AF
100
AcDbEntity
  8
JISSEN
100
AcDbCircle
 10
392.461639739961
 20
281.0134659493256
 30
0.0
 40
13.26041666666633
100
AcDbArc
 50
67.60624878671338
 51
112.3937512132864
  0
LINE
  5
3183374D
330
318324AF
100
AcDbEntity
  8
JISSEN
100
AcDbLine
 10
387.9548489587331
 20
137.2443865186229
 30
0.0
 11
366.657541388734
 21
137.2443865186229
 31
0.0
  0
LINE
  5
3183374E
330
318324AF
100
AcDbEntity
  8
JISSEN
100
AcDbLine
 10
386.2550281286266
 20
136.5782975676541
 30
0.0
 11
368.3573622188409
 21
136.5782975676539
 31
0.0
  0
LINE
  5
3183374F
330
318324AF
100
AcDbEntity
  8
JISSEN
100
AcDbLine
 10
378.625525573676
 20
98.70258654876545
 30
0.0
 11
375.986864773791
 21
98.70258654876545
 31
0.0
  0
ARC
  5
31833750
330
318324AF
100
AcDbEntity
  8
JISSEN
 62
     0
100
AcDbCircle
 10
377.3061951737335
 20
115.7710339456829
 30
0.0
 40
1.25
100
AcDbArc
 50
270.0
 51
357.6400057273537
  0
ARC
  5
31833751
330
318324AF
100
AcDbEntity
  8
JISSEN
 62
     0
100
AcDbCircle
 10
377.3061951737335
 20
115.7710339456829
 30
0.0
 40
1.25
100
AcDbArc
 50
182.3599942726462
 51
270.0
  0
LINE
  5
31833752
330
318324AF
100
AcDbEntity
  8
JISSEN
 62
     0
100
AcDbLine
 10
378.9945260116893
 20
126.3810339456838
 30
0.0
 11
378.5551349555509
 21
115.719561415203
 31
0.0
  0
LINE
  5
31833753
330
318324AF
100
AcDbEntity
  8
JISSEN
 62
     0
100
AcDbLine
 10
375.6178643357777
 20
126.3810339456837
 30
0.0
 11
376.0572553919161
 21
115.719561415203
 31
0.0
  0
TEXT
  5
31833755
330
318324AF
100
AcDbEntity
  8
SUNPOU
100
AcDbText
 10
445.7402612507371
 20
14.26006206122087
 30
0.0
 40
4.5
  1
乾式アダプター付DPヘッド作動状態図
  7
K
100
AcDbText
  0
TEXT
  5
31833797
330
318324AF
100
AcDbEntity
  8
SUNPOU
100
AcDbText
 10
445.7402612507371
 20
6.860062061220872
 30
0.0
 40
4.5
  1
A4 用紙、印刷尺度 1/1.5
  7
K
100
AcDbText
  0
ENDSEC
  0
SECTION
  2
OBJECTS
  0
DICTIONARY
  5
318324A3
330
0
100
AcDbDictionary
  3
ACAD_GROUP
350
318324A4
  3
ACAD_LAYOUT
350
3183295E
  3
ACAD_MLINESTYLE
350
318324A5
  3
ACAD_PLOTSETTINGS
350
3183295F
  3
ACAD_PLOTSTYLENAME
350
3183295C
  3
ACDBHEADERROUNDTRIPXREC
350
31833819
  3
ACDBVARIABLEDICTIONARY
350
31833811
  0
DICTIONARY
  5
3183377C
330
318324AF
100
AcDbDictionary
280
     1
  3
ACAD_LAYOUTSELFREF
360
3183383B
  0
DICTIONARY
  5
3183377A
330
318324AC
100
AcDbDictionary
280
     1
  3
ACAD_LAYOUTSELFREF
360
3183383A
  0
DICTIONARY
  5
318324A4
102
{ACAD_REACTORS
330
318324A3
102
}
330
318324A3
100
AcDbDictionary
  0
DICTIONARY
  5
3183295E
102
{ACAD_REACTORS
330
318324A3
102
}
330
318324A3
100
AcDbDictionary
  0
DICTIONARY
  5
318324A5
102
{ACAD_REACTORS
330
318324A3
102
}
330
318324A3
100
AcDbDictionary
  3
STANDARD
350
318324B2
  0
DICTIONARY
  5
3183295F
102
{ACAD_REACTORS
330
318324A3
102
}
330
318324A3
100
AcDbDictionary
  0
ACDBDICTIONARYWDFLT
  5
3183295C
102
{ACAD_REACTORS
330
318324A3
102
}
330
318324A3
100
AcDbDictionary
281
     1
  3
Normal
350
3183295D
100
AcDbDictionaryWithDefault
340
3183295D
  0
DICTIONARY
  5
31833819
102
{ACAD_REACTORS
330
318324A3
102
}
330
318324A3
100
AcDbDictionary
  3
CEPSNTYPE
350
31833823
  3
DIMSTYLEDATA
350
31833827
  3
FINGERPRINTGUID
350
31833824
  3
HYPERLINKBASE
350
3183381C
  3
INSUNITS
350
31833822
  3
LAYOUTDICT
350
3183381E
  3
LWETCUNION
350
31833821
  3
PLOTSETDICT
350
3183381F
  3
PLOTSTYLNAMDICT
350
31833820
  3
PSVPSCALE
350
31833826
  3
PUCSBASE
350
3183382A
  3
PUCSORGBACK
350
31833830
  3
PUCSORGBOTTOM
350
3183382C
  3
PUCSORGFRONT
350
3183382F
  3
PUCSORGLEFT
350
3183382D
  3
PUCSORGRIGHT
350
3183382E
  3
PUCSORGTOP
350
3183382B
  3
PUCSORTHOREF
350
31833828
  3
PUCSORTHOVIEW
350
31833829
  3
STYLESHEET
350
3183381D
  3
TSTACKALIGN
350
3183381A
  3
TSTACKSIZE
350
3183381B
  3
UCSBASE
350
31833833
  3
UCSORGBACK
350
31833839
  3
UCSORGBOTTOM
350
31833835
  3
UCSORGFRONT
350
31833838
  3
UCSORGLEFT
350
31833836
  3
UCSORGRIGHT
350
31833837
  3
UCSORGTOP
350
31833834
  3
UCSORTHOREF
350
31833831
  3
UCSORTHOVIEW
350
31833832
  3
VERSIONGUID
350
31833825
  0
DICTIONARY
  5
31833811
102
{ACAD_REACTORS
330
318324A3
102
}
330
318324A3
100
AcDbDictionary
  3
DIMASSOC
350
31833812
  0
XRECORD
  5
3183383B
102
{ACAD_REACTORS
330
3183377C
102
}
330
3183377C
100
AcDbXrecord
340
318324AF
  0
XRECORD
  5
3183383A
102
{ACAD_REACTORS
330
3183377A
102
}
330
3183377A
100
AcDbXrecord
340
318324AC
  0
MLINESTYLE
  5
318324B2
102
{ACAD_REACTORS
330
318324A5
102
}
330
318324A5
100
AcDbMlineStyle
  2
STANDARD
 70
     0
  3

 62
     0
 51
90.0
 52
90.0
 71
     2
 49
0.5
 62
   256
  6
BYLAYER
 49
-0.5
 62
   256
  6
BYLAYER
  0
ACDBPLACEHOLDER
  5
3183295D
102
{ACAD_REACTORS
330
3183295C
102
}
330
3183295C
100
AcDbPlaceHolder
280
     0
  0
XRECORD
  5
31833823
102
{ACAD_REACTORS
330
31833819
102
}
330
31833819
100
AcDbXrecord
 90
        0
  0
XRECORD
  5
31833827
102
{ACAD_REACTORS
330
31833819
102
}
330
31833819
100
AcDbXrecord
1000
DSTYLE
1002
{
1070
   341
340
318324B9
1070
   342
340
318324B9
1070
   343
340
318324B9
1070
   344
340
318324B9
1002
}
  0
XRECORD
  5
31833824
102
{ACAD_REACTORS
330
31833819
102
}
330
31833819
100
AcDbXrecord
  1
{12C37AFC-5633-4024-85F3-E4636B59F2D5}
  0
XRECORD
  5
3183381C
102
{ACAD_REACTORS
330
31833819
102
}
330
31833819
100
AcDbXrecord
  1

  0
XRECORD
  5
31833822
102
{ACAD_REACTORS
330
31833819
102
}
330
31833819
100
AcDbXrecord
 90
        0
  0
XRECORD
  5
3183381E
102
{ACAD_REACTORS
330
31833819
102
}
330
31833819
100
AcDbXrecord
340
3183295E
  0
XRECORD
  5
31833821
102
{ACAD_REACTORS
330
31833819
102
}
330
31833819
100
AcDbXrecord
 90
    14877
  0
XRECORD
  5
3183381F
102
{ACAD_REACTORS
330
31833819
102
}
330
31833819
100
AcDbXrecord
340
3183295F
  0
XRECORD
  5
31833820
102
{ACAD_REACTORS
330
31833819
102
}
330
31833819
100
AcDbXrecord
340
3183295C
  0
XRECORD
  5
31833826
102
{ACAD_REACTORS
330
31833819
102
}
330
31833819
100
AcDbXrecord
 40
0.0
  0
XRECORD
  5
3183382A
102
{ACAD_REACTORS
330
31833819
102
}
330
31833819
100
AcDbXrecord
340
0
  0
XRECORD
  5
31833830
102
{ACAD_REACTORS
330
31833819
102
}
330
31833819
100
AcDbXrecord
 10
0.0
 20
0.0
 30
0.0
  0
XRECORD
  5
3183382C
102
{ACAD_REACTORS
330
31833819
102
}
330
31833819
100
AcDbXrecord
 10
0.0
 20
0.0
 30
0.0
  0
XRECORD
  5
3183382F
102
{ACAD_REACTORS
330
31833819
102
}
330
31833819
100
AcDbXrecord
 10
0.0
 20
0.0
 30
0.0
  0
XRECORD
  5
3183382D
102
{ACAD_REACTORS
330
31833819
102
}
330
31833819
100
AcDbXrecord
 10
0.0
 20
0.0
 30
0.0
  0
XRECORD
  5
3183382E
102
{ACAD_REACTORS
330
31833819
102
}
330
31833819
100
AcDbXrecord
 10
0.0
 20
0.0
 30
0.0
  0
XRECORD
  5
3183382B
102
{ACAD_REACTORS
330
31833819
102
}
330
31833819
100
AcDbXrecord
 10
0.0
 20
0.0
 30
0.0
  0
XRECORD
  5
31833828
102
{ACAD_REACTORS
330
31833819
102
}
330
31833819
100
AcDbXrecord
340
0
  0
XRECORD
  5
31833829
102
{ACAD_REACTORS
330
31833819
102
}
330
31833819
100
AcDbXrecord
 70
     0
  0
XRECORD
  5
3183381D
102
{ACAD_REACTORS
330
31833819
102
}
330
31833819
100
AcDbXrecord
  1

  0
XRECORD
  5
3183381A
102
{ACAD_REACTORS
330
31833819
102
}
330
31833819
100
AcDbXrecord
 90
        1
  0
XRECORD
  5
3183381B
102
{ACAD_REACTORS
330
31833819
102
}
330
31833819
100
AcDbXrecord
 90
       70
  0
XRECORD
  5
31833833
102
{ACAD_REACTORS
330
31833819
102
}
330
31833819
100
AcDbXrecord
340
0
  0
XRECORD
  5
31833839
102
{ACAD_REACTORS
330
31833819
102
}
330
31833819
100
AcDbXrecord
 10
0.0
 20
0.0
 30
0.0
  0
XRECORD
  5
31833835
102
{ACAD_REACTORS
330
31833819
102
}
330
31833819
100
AcDbXrecord
 10
0.0
 20
0.0
 30
0.0
  0
XRECORD
  5
31833838
102
{ACAD_REACTORS
330
31833819
102
}
330
31833819
100
AcDbXrecord
 10
0.0
 20
0.0
 30
0.0
  0
XRECORD
  5
31833836
102
{ACAD_REACTORS
330
31833819
102
}
330
31833819
100
AcDbXrecord
 10
0.0
 20
0.0
 30
0.0
  0
XRECORD
  5
31833837
102
{ACAD_REACTORS
330
31833819
102
}
330
31833819
100
AcDbXrecord
 10
0.0
 20
0.0
 30
0.0
  0
XRECORD
  5
31833834
102
{ACAD_REACTORS
330
31833819
102
}
330
31833819
100
AcDbXrecord
 10
0.0
 20
0.0
 30
0.0
  0
XRECORD
  5
31833831
102
{ACAD_REACTORS
330
31833819
102
}
330
31833819
100
AcDbXrecord
340
0
  0
XRECORD
  5
31833832
102
{ACAD_REACTORS
330
31833819
102
}
330
31833819
100
AcDbXrecord
 70
     0
  0
XRECORD
  5
31833825
102
{ACAD_REACTORS
330
31833819
102
}
330
31833819
100
AcDbXrecord
  1
{F70B73C4-9473-4E62-88CA-DD220D6811D2}
  0
DICTIONARYVAR
  5
31833812
102
{ACAD_REACTORS
330
31833811
102
}
330
31833811
100
DictionaryVariables
280
     0
  1
0
  0
ENDSEC
  0
EOF
