  0
SECTION
  2
HEADER
  9
$ACADVER
  1
AC1014
  9
$ACADMAINTVER
 70
     9
  9
$DWGCODEPAGE
  3
ANSI_932
  9
$INSBASE
 10
0.0
 20
0.0
 30
0.0
  9
$EXTMIN
 10
0.0
 20
0.0
 30
0.0
  9
$EXTMAX
 10
361.999998552
 20
282.9999999999999
 30
0.0
  9
$LIMMIN
 10
0.0
 20
0.0
  9
$LIMMAX
 10
181.0
 20
283.0
  9
$ORTHOMODE
 70
     1
  9
$REGENMODE
 70
     1
  9
$FILLMODE
 70
     1
  9
$QTEXTMODE
 70
     0
  9
$MIRRTEXT
 70
     0
  9
$DRAGMODE
 70
     2
  9
$LTSCALE
 40
5.0
  9
$OSMODE
 70
   167
  9
$ATTMODE
 70
     1
  9
$TEXTSIZE
 40
3.0
  9
$TRACEWID
 40
0.05
  9
$TEXTSTYLE
  7
BIGFONT
  9
$CLAYER
  8
JISSEN
  9
$CELTYPE
  6
BYLAYER
  9
$CECOLOR
 62
   256
  9
$CELTSCALE
 40
1.0
  9
$DELOBJ
 70
     1
  9
$DISPSILH
 70
     0
  9
$DIMSCALE
 40
1.0
  9
$DIMASZ
 40
1.5
  9
$DIMEXO
 40
1.0
  9
$DIMDLI
 40
6.0
  9
$DIMRND
 40
0.0
  9
$DIMDLE
 40
0.0
  9
$DIMEXE
 40
1.0
  9
$DIMTP
 40
0.0
  9
$DIMTM
 40
0.0
  9
$DIMTXT
 40
3.0
  9
$DIMCEN
 40
1.0
  9
$DIMTSZ
 40
0.0
  9
$DIMTOL
 70
     0
  9
$DIMLIM
 70
     0
  9
$DIMTIH
 70
     0
  9
$DIMTOH
 70
     0
  9
$DIMSE1
 70
     0
  9
$DIMSE2
 70
     0
  9
$DIMTAD
 70
     0
  9
$DIMZIN
 70
     8
  9
$DIMBLK
  1
ARROW
  9
$DIMASO
 70
     0
  9
$DIMSHO
 70
     0
  9
$DIMPOST
  1

  9
$DIMAPOST
  1

  9
$DIMALT
 70
     0
  9
$DIMALTD
 70
     2
  9
$DIMALTF
 40
25.4
  9
$DIMLFAC
 40
1.0
  9
$DIMTOFL
 70
     1
  9
$DIMTVP
 40
0.0
  9
$DIMTIX
 70
     0
  9
$DIMSOXD
 70
     0
  9
$DIMSAH
 70
     0
  9
$DIMBLK1
  1
ARROWANG
  9
$DIMBLK2
  1
ARROWANG
  9
$DIMSTYLE
  2
IMAO
  9
$DIMCLRD
 70
     0
  9
$DIMCLRE
 70
     0
  9
$DIMCLRT
 70
     0
  9
$DIMTFAC
 40
1.0
  9
$DIMGAP
 40
0.09
  9
$DIMJUST
 70
     0
  9
$DIMSD1
 70
     0
  9
$DIMSD2
 70
     0
  9
$DIMTOLJ
 70
     1
  9
$DIMTZIN
 70
     8
  9
$DIMALTZ
 70
     8
  9
$DIMALTTZ
 70
     8
  9
$DIMFIT
 70
     5
  9
$DIMUPT
 70
     0
  9
$DIMUNIT
 70
     2
  9
$DIMDEC
 70
     2
  9
$DIMTDEC
 70
     2
  9
$DIMALTU
 70
     2
  9
$DIMALTTD
 70
     2
  9
$DIMTXSTY
  7
BIGFONT
  9
$DIMAUNIT
 70
     0
  9
$LUNITS
 70
     2
  9
$LUPREC
 70
     2
  9
$SKETCHINC
 40
0.1
  9
$FILLETRAD
 40
0.2
  9
$AUNITS
 70
     0
  9
$AUPREC
 70
     2
  9
$MENU
  1
stdr12j
  9
$ELEVATION
 40
0.0
  9
$PELEVATION
 40
0.0
  9
$THICKNESS
 40
0.0
  9
$LIMCHECK
 70
     0
  9
$BLIPMODE
 70
     0
  9
$CHAMFERA
 40
0.0
  9
$CHAMFERB
 40
0.0
  9
$CHAMFERC
 40
0.0
  9
$CHAMFERD
 40
0.0
  9
$SKPOLY
 70
     0
  9
$TDCREATE
 40
2450617.453041203
  9
$TDUPDATE
 40
2453334.770310868
  9
$TDINDWG
 40
0.1549736690
  9
$TDUSRTIMER
 40
0.1549736690
  9
$USRTIMER
 70
     1
  9
$ANGBASE
 50
0.0
  9
$ANGDIR
 70
     0
  9
$PDMODE
 70
     0
  9
$PDSIZE
 40
0.0
  9
$PLINEWID
 40
0.0
  9
$COORDS
 70
     2
  9
$SPLFRAME
 70
     0
  9
$SPLINETYPE
 70
     6
  9
$SPLINESEGS
 70
     8
  9
$ATTDIA
 70
     0
  9
$ATTREQ
 70
     1
  9
$HANDLING
 70
 22529
  9
$HANDSEED
  5
EF7C8936E
  9
$SURFTAB1
 70
     6
  9
$SURFTAB2
 70
     6
  9
$SURFTYPE
 70
     6
  9
$SURFU
 70
     6
  9
$SURFV
 70
     6
  9
$UCSNAME
  2

  9
$UCSORG
 10
0.0
 20
0.0
 30
0.0
  9
$UCSXDIR
 10
1.0
 20
0.0
 30
0.0
  9
$UCSYDIR
 10
0.0
 20
1.0
 30
0.0
  9
$PUCSNAME
  2

  9
$PUCSORG
 10
0.0
 20
0.0
 30
0.0
  9
$PUCSXDIR
 10
1.0
 20
0.0
 30
0.0
  9
$PUCSYDIR
 10
0.0
 20
1.0
 30
0.0
  9
$USERI1
 70
     0
  9
$USERI2
 70
     1
  9
$USERI3
 70
     1
  9
$USERI4
 70
     3
  9
$USERI5
 70
     0
  9
$USERR1
 40
1.0
  9
$USERR2
 40
3.0
  9
$USERR3
 40
3.0
  9
$USERR4
 40
1.5
  9
$USERR5
 40
8.0
  9
$WORLDVIEW
 70
     1
  9
$SHADEDGE
 70
     3
  9
$SHADEDIF
 70
    70
  9
$TILEMODE
 70
     1
  9
$MAXACTVP
 70
    16
  9
$PINSBASE
 10
0.0
 20
0.0
 30
0.0
  9
$PLIMCHECK
 70
     0
  9
$PEXTMIN
 10
1.000000000000000E+20
 20
1.000000000000000E+20
 30
1.000000000000000E+20
  9
$PEXTMAX
 10
-1.000000000000000E+20
 20
-1.000000000000000E+20
 30
-1.000000000000000E+20
  9
$PLIMMIN
 10
0.0
 20
0.0
  9
$PLIMMAX
 10
12.0
 20
9.0
  9
$UNITMODE
 70
     0
  9
$VISRETAIN
 70
     0
  9
$PLINEGEN
 70
     0
  9
$PSLTSCALE
 70
     0
  9
$TREEDEPTH
 70
  3020
  9
$PICKSTYLE
 70
     1
  9
$CMLSTYLE
  2
STANDARD
  9
$CMLJUST
 70
     0
  9
$CMLSCALE
 40
1.0
  9
$PROXYGRAPHICS
 70
     1
  9
$MEASUREMENT
 70
     0
  0
ENDSEC
  0
SECTION
  2
CLASSES
  0
CLASS
  1
LWPOLYLINE
  2
AcDbPolyline
  3
AutoCAD 2000
 90
        0
280
     0
281
     1
  0
CLASS
  1
HATCH
  2
AcDbHatch
  3
AutoCAD 2000
 90
        0
280
     0
281
     1
  0
CLASS
  1
ACDBDICTIONARYWDFLT
  2
AcDbDictionaryWithDefault
  3
AutoCAD 2000
 90
        0
280
     0
281
     0
  0
CLASS
  1
ACDBPLACEHOLDER
  2
AcDbPlaceHolder
  3
AutoCAD 2000
 90
        0
280
     0
281
     0
  0
CLASS
  1
LAYOUT
  2
AcDbLayout
  3
AutoCAD 2000
 90
        0
280
     0
281
     0
  0
CLASS
  1
LONG_TRANSACTION
  2
AcDbLongTransaction
  3
AutoCAD 2000
 90
        0
280
     0
281
     0
  0
CLASS
  1
LWPOLYLINE
  2
AcDbPolyline
  3
AutoCAD 2000
 90
        0
280
     0
281
     1
  0
CLASS
  1
HATCH
  2
AcDbHatch
  3
AutoCAD 2000
 90
        0
280
     0
281
     1
  0
CLASS
  1
XRECORD
  2
AcDbXrecord
  3
AutoCAD 2000
 90
        0
280
     0
281
     0
  0
CLASS
  1
DICTIONARYVAR
  2
AcDbDictionaryVar
  3
AutoCAD 2000
 90
        0
280
     0
281
     0
  0
CLASS
  1
LONG_TRANSACTION
  2
AcDbLongTransaction
  3
AutoCAD 2000
 90
        0
280
     0
281
     0
  0
CLASS
  1
LWPOLYLINE
  2
AcDbPolyline
  3
AutoCAD 2000
 90
        0
280
     0
281
     1
  0
CLASS
  1
HATCH
  2
AcDbHatch
  3
AutoCAD 2000
 90
        0
280
     0
281
     1
  0
CLASS
  1
XRECORD
  2
AcDbXrecord
  3
AutoCAD 2000
 90
        0
280
     0
281
     0
  0
CLASS
  1
LONG_TRANSACTION
  2
AcDbLongTransaction
  3
AutoCAD 2000
 90
        0
280
     0
281
     0
  0
CLASS
  1
LWPOLYLINE
  2
AcDbPolyline
  3
AutoCAD 2000
 90
        0
280
     0
281
     1
  0
CLASS
  1
HATCH
  2
AcDbHatch
  3
AutoCAD 2000
 90
        0
280
     0
281
     1
  0
CLASS
  1
XRECORD
  2
AcDbXrecord
  3
AutoCAD 2000
 90
        0
280
     0
281
     0
  0
CLASS
  1
LONG_TRANSACTION
  2
AcDbLongTransaction
  3
AutoCAD 2000
 90
        0
280
     0
281
     0
  0
CLASS
  1
LWPOLYLINE
  2
AcDbPolyline
  3
AutoCAD 2000
 90
        0
280
     0
281
     1
  0
CLASS
  1
HATCH
  2
AcDbHatch
  3
AutoCAD 2000
 90
        0
280
     0
281
     1
  0
CLASS
  1
XRECORD
  2
AcDbXrecord
  3
AutoCAD 2000
 90
        0
280
     0
281
     0
  0
CLASS
  1
LONG_TRANSACTION
  2
AcDbLongTransaction
  3
AutoCAD 2000
 90
        0
280
     0
281
     0
  0
CLASS
  1
LWPOLYLINE
  2
AcDbPolyline
  3
AutoCAD 2000
 90
        0
280
     0
281
     1
  0
CLASS
  1
HATCH
  2
AcDbHatch
  3
AutoCAD 2000
 90
        0
280
     0
281
     1
  0
CLASS
  1
XRECORD
  2
AcDbXrecord
  3
AutoCAD 2000
 90
        0
280
     0
281
     0
  0
CLASS
  1
LONG_TRANSACTION
  2
AcDbLongTransaction
  3
AutoCAD 2000
 90
        0
280
     0
281
     0
  0
CLASS
  1
LWPOLYLINE
  2
AcDbPolyline
  3
AutoCAD 2000
 90
        0
280
     0
281
     1
  0
CLASS
  1
HATCH
  2
AcDbHatch
  3
AutoCAD 2000
 90
        0
280
     0
281
     1
  0
CLASS
  1
XRECORD
  2
AcDbXrecord
  3
AutoCAD 2000
 90
        0
280
     0
281
     0
  0
CLASS
  1
LONG_TRANSACTION
  2
AcDbLongTransaction
  3
AutoCAD 2000
 90
        0
280
     0
281
     0
  0
CLASS
  1
LWPOLYLINE
  2
AcDbPolyline
  3
AutoCAD 2000
 90
        0
280
     0
281
     1
  0
CLASS
  1
HATCH
  2
AcDbHatch
  3
AutoCAD 2000
 90
        0
280
     0
281
     1
  0
CLASS
  1
XRECORD
  2
AcDbXrecord
  3
AutoCAD 2000
 90
        0
280
     0
281
     0
  0
CLASS
  1
LONG_TRANSACTION
  2
AcDbLongTransaction
  3
AutoCAD 2000
 90
        0
280
     0
281
     0
  0
CLASS
  1
LWPOLYLINE
  2
AcDbPolyline
  3
AutoCAD 2000
 90
        0
280
     0
281
     1
  0
CLASS
  1
HATCH
  2
AcDbHatch
  3
AutoCAD 2000
 90
        0
280
     0
281
     1
  0
CLASS
  1
XRECORD
  2
AcDbXrecord
  3
AutoCAD 2000
 90
        0
280
     0
281
     0
  0
CLASS
  1
LONG_TRANSACTION
  2
AcDbLongTransaction
  3
AutoCAD 2000
 90
        0
280
     0
281
     0
  0
CLASS
  1
LWPOLYLINE
  2
AcDbPolyline
  3
AutoCAD 2000
 90
        0
280
     0
281
     1
  0
CLASS
  1
HATCH
  2
AcDbHatch
  3
AutoCAD 2000
 90
        0
280
     0
281
     1
  0
CLASS
  1
XRECORD
  2
AcDbXrecord
  3
AutoCAD 2000
 90
        0
280
     0
281
     0
  0
CLASS
  1
LONG_TRANSACTION
  2
AcDbLongTransaction
  3
AutoCAD 2000
 90
        0
280
     0
281
     0
  0
CLASS
  1
LWPOLYLINE
  2
AcDbPolyline
  3
AutoCAD 2000
 90
        0
280
     0
281
     1
  0
CLASS
  1
HATCH
  2
AcDbHatch
  3
AutoCAD 2000
 90
        0
280
     0
281
     1
  0
CLASS
  1
XRECORD
  2
AcDbXrecord
  3
AutoCAD 2000
 90
        0
280
     0
281
     0
  0
CLASS
  1
LONG_TRANSACTION
  2
AcDbLongTransaction
  3
AutoCAD 2000
 90
        0
280
     0
281
     0
  0
CLASS
  1
LWPOLYLINE
  2
AcDbPolyline
  3
AutoCAD 2000
 90
        0
280
     0
281
     1
  0
CLASS
  1
HATCH
  2
AcDbHatch
  3
AutoCAD 2000
 90
        0
280
     0
281
     1
  0
CLASS
  1
XRECORD
  2
AcDbXrecord
  3
AutoCAD 2000
 90
        0
280
     0
281
     0
  0
CLASS
  1
LONG_TRANSACTION
  2
AcDbLongTransaction
  3
AutoCAD 2000
 90
        0
280
     0
281
     0
  0
CLASS
  1
LWPOLYLINE
  2
AcDbPolyline
  3
AutoCAD 2000
 90
        0
280
     0
281
     1
  0
CLASS
  1
HATCH
  2
AcDbHatch
  3
AutoCAD 2000
 90
        0
280
     0
281
     1
  0
CLASS
  1
XRECORD
  2
AcDbXrecord
  3
AutoCAD 2000
 90
        0
280
     0
281
     0
  0
CLASS
  1
LONG_TRANSACTION
  2
AcDbLongTransaction
  3
AutoCAD 2000
 90
        0
280
     0
281
     0
  0
CLASS
  1
LWPOLYLINE
  2
AcDbPolyline
  3
AutoCAD 2000
 90
        0
280
     0
281
     1
  0
CLASS
  1
HATCH
  2
AcDbHatch
  3
AutoCAD 2000
 90
        0
280
     0
281
     1
  0
CLASS
  1
XRECORD
  2
AcDbXrecord
  3
AutoCAD 2000
 90
        0
280
     0
281
     0
  0
CLASS
  1
LONG_TRANSACTION
  2
AcDbLongTransaction
  3
AutoCAD 2000
 90
        0
280
     0
281
     0
  0
CLASS
  1
LWPOLYLINE
  2
AcDbPolyline
  3
AutoCAD 2000
 90
        0
280
     0
281
     1
  0
CLASS
  1
HATCH
  2
AcDbHatch
  3
AutoCAD 2000
 90
        0
280
     0
281
     1
  0
CLASS
  1
XRECORD
  2
AcDbXrecord
  3
AutoCAD 2000
 90
        0
280
     0
281
     0
  0
CLASS
  1
LONG_TRANSACTION
  2
AcDbLongTransaction
  3
AutoCAD 2000
 90
        0
280
     0
281
     0
  0
CLASS
  1
LWPOLYLINE
  2
AcDbPolyline
  3
AutoCAD 2000
 90
        0
280
     0
281
     1
  0
CLASS
  1
HATCH
  2
AcDbHatch
  3
AutoCAD 2000
 90
        0
280
     0
281
     1
  0
CLASS
  1
XRECORD
  2
AcDbXrecord
  3
AutoCAD 2000
 90
        0
280
     0
281
     0
  0
CLASS
  1
LONG_TRANSACTION
  2
AcDbLongTransaction
  3
AutoCAD 2000
 90
        0
280
     0
281
     0
  0
CLASS
  1
LWPOLYLINE
  2
AcDbPolyline
  3
AutoCAD 2000
 90
        0
280
     0
281
     1
  0
CLASS
  1
HATCH
  2
AcDbHatch
  3
AutoCAD 2000
 90
        0
280
     0
281
     1
  0
CLASS
  1
XRECORD
  2
AcDbXrecord
  3
AutoCAD 2000
 90
        0
280
     0
281
     0
  0
CLASS
  1
LONG_TRANSACTION
  2
AcDbLongTransaction
  3
AutoCAD 2000
 90
        0
280
     0
281
     0
  0
CLASS
  1
LWPOLYLINE
  2
AcDbPolyline
  3
AutoCAD 2000
 90
        0
280
     0
281
     1
  0
CLASS
  1
HATCH
  2
AcDbHatch
  3
AutoCAD 2000
 90
        0
280
     0
281
     1
  0
CLASS
  1
XRECORD
  2
AcDbXrecord
  3
AutoCAD 2000
 90
        0
280
     0
281
     0
  0
ENDSEC
  0
SECTION
  2
TABLES
  0
TABLE
  2
VPORT
  5
EF7C85523
330
0
100
AcDbSymbolTable
 70
    10
  0
VPORT
  5
EF7C85567
330
EF7C85523
100
AcDbSymbolTableRecord
100
AcDbViewportTableRecord
  2
2
 70
     0
 10
0.5
 20
0.0
 11
1.0
 21
1.0
 12
0.9240312421264802
 22
1.052650975462766
 13
0.0
 23
0.0
 14
1.0
 24
1.0
 15
10.0
 25
10.0
 16
0.0
 26
0.0
 36
1.0
 17
0.0
 27
0.0
 37
0.0
 40
2.105301950925533
 41
0.8778135048231511
 42
50.0
 43
0.0
 44
0.0
 50
0.0
 51
0.0
 71
     0
 72
   500
 73
     1
 74
     1
 75
     0
 76
     0
 77
     0
 78
     0
  0
VPORT
  5
EF7C85568
330
EF7C85523
100
AcDbSymbolTableRecord
100
AcDbViewportTableRecord
  2
2
 70
     0
 10
0.0
 20
0.0
 11
0.5
 21
1.0
 12
0.9240312421264802
 22
1.052650975462766
 13
0.0
 23
0.0
 14
1.0
 24
1.0
 15
10.0
 25
10.0
 16
0.0
 26
0.0
 36
1.0
 17
0.0
 27
0.0
 37
0.0
 40
2.105301950925533
 41
0.8778135048231511
 42
50.0
 43
0.0
 44
0.0
 50
0.0
 51
0.0
 71
     0
 72
   500
 73
     1
 74
     1
 75
     0
 76
     0
 77
     0
 78
     0
  0
VPORT
  5
EF7C85569
330
EF7C85523
100
AcDbSymbolTableRecord
100
AcDbViewportTableRecord
  2
3
 70
     0
 10
0.0
 20
0.5
 11
1.0
 21
1.0
 12
2.832169994473273
 22
1.052650975462766
 13
0.0
 23
0.0
 14
1.0
 24
1.0
 15
10.0
 25
10.0
 16
0.0
 26
0.0
 36
1.0
 17
0.0
 27
0.0
 37
0.0
 40
2.105301950925533
 41
3.571428571428571
 42
50.0
 43
0.0
 44
0.0
 50
0.0
 51
0.0
 71
     0
 72
   500
 73
     1
 74
     1
 75
     0
 76
     0
 77
     0
 78
     0
  0
VPORT
  5
EF7C8556A
330
EF7C85523
100
AcDbSymbolTableRecord
100
AcDbViewportTableRecord
  2
3
 70
     0
 10
0.0
 20
0.0
 11
1.0
 21
0.5
 12
2.856741679241311
 22
1.052650975462766
 13
0.0
 23
0.0
 14
1.0
 24
1.0
 15
10.0
 25
10.0
 16
0.0
 26
0.0
 36
1.0
 17
0.0
 27
0.0
 37
0.0
 40
2.105301950925533
 41
3.594771241830065
 42
50.0
 43
0.0
 44
0.0
 50
0.0
 51
0.0
 71
     0
 72
   500
 73
     1
 74
     1
 75
     0
 76
     0
 77
     0
 78
     0
  0
VPORT
  5
EF7C8556B
330
EF7C85523
100
AcDbSymbolTableRecord
100
AcDbViewportTableRecord
  2
4
 70
     0
 10
0.5
 20
0.0
 11
1.0
 21
0.5
 12
2.886857516709719
 22
1.052650975462766
 13
0.0
 23
0.0
 14
1.0
 24
1.0
 15
10.0
 25
10.0
 16
0.0
 26
0.0
 36
1.0
 17
0.0
 27
0.0
 37
0.0
 40
4.27520703030907
 41
1.784313725490195
 42
50.0
 43
0.0
 44
0.0
 50
0.0
 51
0.0
 71
     0
 72
   500
 73
     1
 74
     1
 75
     0
 76
     0
 77
     0
 78
     0
  0
VPORT
  5
EF7C8556C
330
EF7C85523
100
AcDbSymbolTableRecord
100
AcDbViewportTableRecord
  2
4
 70
     0
 10
0.5
 20
0.5
 11
1.0
 21
1.0
 12
2.862090274555523
 22
1.052650975462766
 13
0.0
 23
0.0
 14
1.0
 24
1.0
 15
10.0
 25
10.0
 16
0.0
 26
0.0
 36
1.0
 17
0.0
 27
0.0
 37
0.0
 40
4.27520703030907
 41
1.772727272727272
 42
50.0
 43
0.0
 44
0.0
 50
0.0
 51
0.0
 71
     0
 72
   500
 73
     1
 74
     1
 75
     0
 76
     0
 77
     0
 78
     0
  0
VPORT
  5
EF7C8556D
330
EF7C85523
100
AcDbSymbolTableRecord
100
AcDbViewportTableRecord
  2
4
 70
     0
 10
0.0
 20
0.5
 11
0.5
 21
1.0
 12
2.862090274555523
 22
1.052650975462766
 13
0.0
 23
0.0
 14
1.0
 24
1.0
 15
10.0
 25
10.0
 16
0.0
 26
0.0
 36
1.0
 17
0.0
 27
0.0
 37
0.0
 40
4.27520703030907
 41
1.772727272727272
 42
50.0
 43
0.0
 44
0.0
 50
0.0
 51
0.0
 71
     0
 72
   500
 73
     1
 74
     1
 75
     0
 76
     0
 77
     0
 78
     0
  0
VPORT
  5
EF7C8556E
330
EF7C85523
100
AcDbSymbolTableRecord
100
AcDbViewportTableRecord
  2
4
 70
     0
 10
0.0
 20
0.0
 11
0.5
 21
0.5
 12
2.886857516709719
 22
1.052650975462766
 13
0.0
 23
0.0
 14
1.0
 24
1.0
 15
10.0
 25
10.0
 16
0.0
 26
0.0
 36
1.0
 17
0.0
 27
0.0
 37
0.0
 40
4.27520703030907
 41
1.784313725490195
 42
50.0
 43
0.0
 44
0.0
 50
0.0
 51
0.0
 71
     0
 72
   500
 73
     1
 74
     1
 75
     0
 76
     0
 77
     0
 78
     0
  0
VPORT
  5
EF7C8934A
330
EF7C85523
100
AcDbSymbolTableRecord
100
AcDbViewportTableRecord
  2
*ACTIVE
 70
     0
 10
0.0
 20
0.0
 11
1.0
 21
1.0
 12
262.8432668737248
 22
141.5028215483459
 13
0.0
 23
0.0
 14
1.0
 24
1.0
 15
10.0
 25
10.0
 16
0.0
 26
0.0
 36
1.0
 17
0.0
 27
0.0
 37
0.0
 40
286.2639923269072
 41
1.771962616822429
 42
50.0
 43
0.0
 44
0.0
 50
0.0
 51
0.0
 71
     0
 72
   500
 73
     1
 74
     0
 75
     0
 76
     0
 77
     0
 78
     0
  0
ENDTAB
  0
TABLE
  2
LTYPE
  5
EF7C85520
330
0
100
AcDbSymbolTable
 70
     4
  0
LTYPE
  5
EF7C8552C
330
EF7C85520
100
AcDbSymbolTableRecord
100
AcDbLinetypeTableRecord
  2
BYBLOCK
 70
     0
  3

 72
    65
 73
     0
 40
0.0
  0
LTYPE
  5
EF7C8552D
330
EF7C85520
100
AcDbSymbolTableRecord
100
AcDbLinetypeTableRecord
  2
BYLAYER
 70
     0
  3

 72
    65
 73
     0
 40
0.0
  0
LTYPE
  5
EF7C8552E
330
EF7C85520
100
AcDbSymbolTableRecord
100
AcDbLinetypeTableRecord
  2
CONTINUOUS
 70
     0
  3
実線
 72
    65
 73
     0
 40
0.0
  0
LTYPE
  5
EF7C85565
330
EF7C85520
100
AcDbSymbolTableRecord
100
AcDbLinetypeTableRecord
  2
PHANTOM
 70
     0
  3
_____ _ _ _____ _ _ _____ _ _ _____ _ _ ____
 72
    65
 73
     6
 40
2.5
 49
1.25
 74
     0
 49
-0.25
 74
     0
 49
0.25
 74
     0
 49
-0.25
 74
     0
 49
0.25
 74
     0
 49
-0.25
 74
     0
  0
LTYPE
  5
EF7C8711F
330
EF7C85520
100
AcDbSymbolTableRecord
100
AcDbLinetypeTableRecord
  2
CENTER
 70
     0
  3
____ _ ____ _ ____ _ ____ _ ____ _ ____ _ ____
 72
    65
 73
     4
 40
2.0
 49
1.25
 74
     0
 49
-0.25
 74
     0
 49
0.25
 74
     0
 49
-0.25
 74
     0
  0
LTYPE
  5
EF7C87AC6
330
EF7C85520
100
AcDbSymbolTableRecord
100
AcDbLinetypeTableRecord
  2
HIDDEN
 70
     0
  3
_ _ _ _ _ _ _ _ _ _ _ _ _ _ _ _ _ _ _ _ _ _ _
 72
    65
 73
     2
 40
0.375
 49
0.25
 74
     0
 49
-0.125
 74
     0
  0
ENDTAB
  0
TABLE
  2
LAYER
  5
EF7C8551D
330
0
100
AcDbSymbolTable
 70
    10
  0
LAYER
  5
EF7C85529
330
EF7C8551D
100
AcDbSymbolTableRecord
100
AcDbLayerTableRecord
  2
0
 70
     0
 62
     6
  6
CONTINUOUS
  0
LAYER
  5
EF7C85574
330
EF7C8551D
100
AcDbSymbolTableRecord
100
AcDbLayerTableRecord
  2
NITEN
 70
     0
 62
     2
  6
PHANTOM
  0
LAYER
  5
EF7C85575
330
EF7C8551D
100
AcDbSymbolTableRecord
100
AcDbLayerTableRecord
  2
HATCH
 70
     0
 62
     4
  6
CONTINUOUS
  0
LAYER
  5
EF7C85576
330
EF7C8551D
100
AcDbSymbolTableRecord
100
AcDbLayerTableRecord
  2
SUNPOU
 70
     0
 62
     3
  6
CONTINUOUS
  0
LAYER
  5
EF7C85577
330
EF7C8551D
100
AcDbSymbolTableRecord
100
AcDbLayerTableRecord
  2
TEXT
 70
     0
 62
     3
  6
CONTINUOUS
  0
LAYER
  5
EF7C85578
330
EF7C8551D
100
AcDbSymbolTableRecord
100
AcDbLayerTableRecord
  2
SAISEN
 70
     0
 62
     4
  6
CONTINUOUS
  0
LAYER
  5
EF7C85579
330
EF7C8551D
100
AcDbSymbolTableRecord
100
AcDbLayerTableRecord
  2
JISSEN
 70
     0
 62
     7
  6
CONTINUOUS
  0
LAYER
  5
EF7C8557D
330
EF7C8551D
100
AcDbSymbolTableRecord
100
AcDbLayerTableRecord
  2
WAKU
 70
     0
 62
     5
  6
CONTINUOUS
  0
LAYER
  5
EF7C87120
330
EF7C8551D
100
AcDbSymbolTableRecord
100
AcDbLayerTableRecord
  2
ITTEN
 70
     0
 62
     1
  6
CENTER
  0
LAYER
  5
EF7C87AC7
330
EF7C8551D
100
AcDbSymbolTableRecord
100
AcDbLayerTableRecord
  2
TENSEN
 70
     0
 62
     2
  6
HIDDEN
  0
ENDTAB
  0
TABLE
  2
STYLE
  5
EF7C8551E
330
0
100
AcDbSymbolTable
 70
     3
  0
STYLE
  5
EF7C8552A
330
EF7C8551E
100
AcDbSymbolTableRecord
100
AcDbTextStyleTableRecord
  2
STANDARD
 70
     0
 40
0.0
 41
1.0
 50
0.0
 71
     0
 42
1.5
  3
SIMPLEX
  4

  0
STYLE
  5
EF7C85558
330
EF7C8551E
100
AcDbSymbolTableRecord
100
AcDbTextStyleTableRecord
  2
K
 70
     0
 40
0.0
 41
1.0
 50
0.0
 71
     0
 42
3.0
  3
ROMANS
  4
BIGFONT
  0
STYLE
  5
EF7C8555B
330
EF7C8551E
100
AcDbSymbolTableRecord
100
AcDbTextStyleTableRecord
  2
BIGFONT
 70
     0
 40
0.0
 41
1.0
 50
0.0
 71
     0
 42
3.0
  3
txt.shx
  4
bigfont
  0
ENDTAB
  0
TABLE
  2
VIEW
  5
EF7C85521
330
0
100
AcDbSymbolTable
 70
     0
  0
ENDTAB
  0
TABLE
  2
UCS
  5
EF7C85522
330
0
100
AcDbSymbolTable
 70
     0
  0
ENDTAB
  0
TABLE
  2
APPID
  5
EF7C85524
330
0
100
AcDbSymbolTable
 70
     1
  0
APPID
  5
EF7C8552B
330
EF7C85524
100
AcDbSymbolTableRecord
100
AcDbRegAppTableRecord
  2
ACAD
 70
     0
  0
ENDTAB
  0
TABLE
  2
DIMSTYLE
  5
EF7C85525
330
0
100
AcDbSymbolTable
 70
     1
  0
DIMSTYLE
105
EF7C85571
330
EF7C85525
100
AcDbSymbolTableRecord
100
AcDbDimStyleTableRecord
  2
IMAO
 70
     0
  3

  4

  5
ARROWANG
  6
ARROWANG
  7
ARROWANG
 40
1.0
 41
1.5
 42
1.0
 43
6.0
 44
1.0
 45
0.0
 46
0.0
 47
495.0
 48
0.0
140
3.0
141
0.0
142
0.0
143
25.4
144
1.0
145
0.0
146
1.0
147
0.09
 71
     0
 72
     0
 73
     0
 74
     0
 75
     0
 76
     0
 77
     1
 78
     8
170
     0
171
     2
172
     1
173
     0
174
     1
175
     0
176
     0
177
     0
178
     0
270
     2
271
     2
272
     2
273
     2
274
     2
340
EF7C8555B
275
     0
280
     0
281
     0
282
     0
283
     1
284
     8
285
     8
286
     8
287
     5
288
     0
  0
ENDTAB
  0
TABLE
  2
BLOCK_RECORD
  5
EF7C8551C
330
0
100
AcDbSymbolTable
 70
    10
  0
BLOCK_RECORD
  5
EF7C85532
102
{ACAD_XDICTIONARY
360
EF7C85D9A
102
}
330
EF7C8551C
100
AcDbSymbolTableRecord
100
AcDbBlockTableRecord
  2
*MODEL_SPACE
  0
BLOCK_RECORD
  5
EF7C8552F
102
{ACAD_XDICTIONARY
360
EF7C85D98
102
}
330
EF7C8551C
100
AcDbSymbolTableRecord
100
AcDbBlockTableRecord
  2
*PAPER_SPACE
  0
BLOCK_RECORD
  5
EF7C85537
330
EF7C8551C
100
AcDbSymbolTableRecord
100
AcDbBlockTableRecord
  2
ARROW
  0
BLOCK_RECORD
  5
EF7C8553B
330
EF7C8551C
100
AcDbSymbolTableRecord
100
AcDbBlockTableRecord
  2
WAKU
  0
BLOCK_RECORD
  5
EF7C8553D
330
EF7C8551C
100
AcDbSymbolTableRecord
100
AcDbBlockTableRecord
  2
*X2
  0
BLOCK_RECORD
  5
EF7C8553E
330
EF7C8551C
100
AcDbSymbolTableRecord
100
AcDbBlockTableRecord
  2
STDGX5
  0
BLOCK_RECORD
  5
EF7C8553F
330
EF7C8551C
100
AcDbSymbolTableRecord
100
AcDbBlockTableRecord
  2
*X4
  0
BLOCK_RECORD
  5
EF7C85540
330
EF7C8551C
100
AcDbSymbolTableRecord
100
AcDbBlockTableRecord
  2
*X5
  0
BLOCK_RECORD
  5
EF7C85541
330
EF7C8551C
100
AcDbSymbolTableRecord
100
AcDbBlockTableRecord
  2
*X6
  0
BLOCK_RECORD
  5
EF7C85542
330
EF7C8551C
100
AcDbSymbolTableRecord
100
AcDbBlockTableRecord
  2
*X7
  0
BLOCK_RECORD
  5
EF7C85543
330
EF7C8551C
100
AcDbSymbolTableRecord
100
AcDbBlockTableRecord
  2
ARROWANG
  0
BLOCK_RECORD
  5
EF7C85544
330
EF7C8551C
100
AcDbSymbolTableRecord
100
AcDbBlockTableRecord
  2
STDR12J
  0
ENDTAB
  0
ENDSEC
  0
SECTION
  2
BLOCKS
  0
BLOCK
  5
EF7C85580
330
EF7C85532
100
AcDbEntity
  8
0
100
AcDbBlockBegin
  2
*MODEL_SPACE
 70
     0
 10
0.0
 20
0.0
 30
0.0
  3
*MODEL_SPACE
  1

  0
ENDBLK
  5
EF7C85581
330
EF7C85532
100
AcDbEntity
  8
0
100
AcDbBlockEnd
  0
BLOCK
  5
EF7C8557E
330
EF7C8552F
100
AcDbEntity
 67
     1
  8
0
100
AcDbBlockBegin
  2
*PAPER_SPACE
 70
     0
 10
0.0
 20
0.0
 30
0.0
  3
*PAPER_SPACE
  1

  0
ENDBLK
  5
EF7C8557F
330
EF7C8552F
100
AcDbEntity
 67
     1
  8
0
100
AcDbBlockEnd
  0
BLOCK
  5
499
330
EF7C85537
100
AcDbEntity
  8
0
100
AcDbBlockBegin
  2
ARROW
 70
     0
 10
1.0
 20
0.5
 30
0.0
  3
ARROW
  1

  0
LINE
  5
49A
330
EF7C85537
100
AcDbEntity
  8
0
100
AcDbLine
 10
1.0
 20
0.5
 30
0.0
 11
-0.5000000000000214
 21
0.0980762113533018
 31
0.0
  0
LINE
  5
49B
330
EF7C85537
100
AcDbEntity
  8
0
100
AcDbLine
 10
0.0
 20
0.5
 30
0.0
 11
1.0
 21
0.5
 31
0.0
  0
LINE
  5
49C
330
EF7C85537
100
AcDbEntity
  8
0
100
AcDbLine
 10
1.0
 20
0.5
 30
0.0
 11
-0.4999999999999574
 21
0.9019237886467408
 31
0.0
  0
ENDBLK
  5
49D
330
EF7C85537
100
AcDbEntity
  8
0
100
AcDbBlockEnd
  0
BLOCK
  5
4A7
330
EF7C8553B
100
AcDbEntity
  8
0
100
AcDbBlockBegin
  2
WAKU
 70
     0
 10
0.0
 20
0.0
 30
0.0
  3
WAKU
  1

  0
LINE
  5
4A8
330
EF7C8553B
100
AcDbEntity
  8
WAKU
100
AcDbLine
 10
0.999999996
 20
0.0
 30
0.0
 11
0.999999996
 21
0.9999999999999998
 31
0.0
  0
LINE
  5
4A9
330
EF7C8553B
100
AcDbEntity
  8
WAKU
100
AcDbLine
 10
0.0
 20
0.9999999999999998
 30
0.0
 11
0.999999996
 21
0.9999999999999998
 31
0.0
  0
LINE
  5
4AA
330
EF7C8553B
100
AcDbEntity
  8
WAKU
100
AcDbLine
 10
0.999999996
 20
0.0
 30
0.0
 11
0.0
 21
0.0
 31
0.0
  0
LINE
  5
4AB
330
EF7C8553B
100
AcDbEntity
  8
WAKU
100
AcDbLine
 10
0.0
 20
0.0
 30
0.0
 11
0.0
 21
0.9999999999999998
 31
0.0
  0
ENDBLK
  5
4AC
330
EF7C8553B
100
AcDbEntity
  8
0
100
AcDbBlockEnd
  0
BLOCK
  5
2764
330
EF7C8553D
100
AcDbEntity
  8
0
100
AcDbBlockBegin
  2
*X2
 70
     1
 10
0.0
 20
0.0
 30
0.0
  3
*X2
  1

  0
ENDBLK
  5
2765
330
EF7C8553D
100
AcDbEntity
  8
0
100
AcDbBlockEnd
  0
BLOCK
  5
2766
330
EF7C8553E
100
AcDbEntity
  8
0
100
AcDbBlockBegin
  2
STDGX5
 70
     0
 10
0.0
 20
0.0
 30
0.0
  3
STDGX5
  1

  0
ENDBLK
  5
2767
330
EF7C8553E
100
AcDbEntity
  8
0
100
AcDbBlockEnd
  0
BLOCK
  5
2F5A
330
EF7C8553F
100
AcDbEntity
  8
0
100
AcDbBlockBegin
  2
*X4
 70
     1
 10
0.0
 20
0.0
 30
0.0
  3
*X4
  1

  0
ENDBLK
  5
2F5B
330
EF7C8553F
100
AcDbEntity
  8
0
100
AcDbBlockEnd
  0
BLOCK
  5
32BB
330
EF7C85540
100
AcDbEntity
  8
0
100
AcDbBlockBegin
  2
*X5
 70
     1
 10
0.0
 20
0.0
 30
0.0
  3
*X5
  1

  0
ENDBLK
  5
32BC
330
EF7C85540
100
AcDbEntity
  8
0
100
AcDbBlockEnd
  0
BLOCK
  5
372F
330
EF7C85541
100
AcDbEntity
  8
0
100
AcDbBlockBegin
  2
*X6
 70
     1
 10
0.0
 20
0.0
 30
0.0
  3
*X6
  1

  0
ENDBLK
  5
3730
330
EF7C85541
100
AcDbEntity
  8
0
100
AcDbBlockEnd
  0
BLOCK
  5
3A6D
330
EF7C85542
100
AcDbEntity
  8
0
100
AcDbBlockBegin
  2
*X7
 70
     1
 10
0.0
 20
0.0
 30
0.0
  3
*X7
  1

  0
ENDBLK
  5
3A6E
330
EF7C85542
100
AcDbEntity
  8
0
100
AcDbBlockEnd
  0
BLOCK
  5
4CC9
330
EF7C85543
100
AcDbEntity
  8
0
100
AcDbBlockBegin
  2
ARROWANG
 70
     0
 10
0.0
 20
0.0
 30
0.0
  3
ARROWANG
  1

  0
LINE
  5
4CCA
330
EF7C85543
100
AcDbEntity
  8
SUNPOU
100
AcDbLine
 10
0.0
 20
0.0
 30
0.0
 11
-1.499999999999957
 21
0.4019237886467409
 31
0.0
  0
LINE
  5
4CCB
330
EF7C85543
100
AcDbEntity
  8
SUNPOU
100
AcDbLine
 10
0.0
 20
0.0
 30
0.0
 11
-1.500000000000028
 21
-0.4019237886467124
 31
0.0
  0
ENDBLK
  5
4CCC
330
EF7C85543
100
AcDbEntity
  8
0
100
AcDbBlockEnd
  0
BLOCK
  5
4CCD
330
EF7C85544
100
AcDbEntity
  8
0
100
AcDbBlockBegin
  2
STDR12J
 70
     0
 10
0.0
 20
0.0
 30
0.0
  3
STDR12J
  1

  0
ENDBLK
  5
4CF2
330
EF7C85544
100
AcDbEntity
  8
0
100
AcDbBlockEnd
  0
ENDSEC
  0
SECTION
  2
ENTITIES
  0
TEXT
  5
1
330
EF7C85532
100
AcDbEntity
  8
SUNPOU
100
AcDbText
 10
95.05869565217389
 20
43.7966872748706
 30
0.0
 40
1.5
  1
                          
100
AcDbText
  0
TEXT
  5
2
330
EF7C85532
100
AcDbEntity
  8
SUNPOU
100
AcDbText
 10
332.2793466870868
 20
21.8983436374353
 30
0.0
 40
0.75
  1
                          
100
AcDbText
  0
TEXT
  5
1A
330
EF7C85532
100
AcDbEntity
  8
SUNPOU
100
AcDbText
 10
289.9834441000535
 20
43.7966872748706
 30
0.0
 40
1.5
  1
                          
100
AcDbText
  0
TEXT
  5
1B
330
EF7C85532
100
AcDbEntity
  8
SUNPOU
100
AcDbText
 10
527.2040951349665
 20
21.8983436374353
 30
0.0
 40
0.75
  1
                          
100
AcDbText
  0
TEXT
  5
1C
330
EF7C85532
100
AcDbEntity
  8
SUNPOU
100
AcDbText
 10
490.6272568090836
 20
43.79668727487057
 30
0.0
 40
1.5
  1
                          
100
AcDbText
  0
TEXT
  5
1D
330
EF7C85532
100
AcDbEntity
  8
SUNPOU
100
AcDbText
 10
727.8479078439966
 20
21.89834363743527
 30
0.0
 40
0.75
  1
                          
100
AcDbText
  0
INSERT
  5
1E
330
EF7C85532
100
AcDbEntity
  8
HATCH
100
AcDbBlockReference
  2
*X2
 10
194.9247484478796
 20
0.0
 30
0.0
  0
TEXT
  5
1F
330
EF7C85532
100
AcDbEntity
  8
SUNPOU
100
AcDbText
 10
493.0101992368964
 20
43.7966872748706
 30
0.0
 40
1.5
  1
                          
100
AcDbText
  0
TEXT
  5
20
330
EF7C85532
100
AcDbEntity
  8
SUNPOU
100
AcDbText
 10
730.2308502718094
 20
21.8983436374353
 30
0.0
 40
0.75
  1
                          
100
AcDbText
  0
TEXT
  5
21
330
EF7C85532
100
AcDbEntity
  8
SUNPOU
100
AcDbText
 10
482.0486607753579
 20
43.7966872748706
 30
0.0
 40
1.5
  1
                          
100
AcDbText
  0
TEXT
  5
22
330
EF7C85532
100
AcDbEntity
  8
SUNPOU
100
AcDbText
 10
719.269311810271
 20
21.8983436374353
 30
0.0
 40
0.75
  1
                          
100
AcDbText
  0
INSERT
  5
25
330
EF7C85532
100
AcDbEntity
  8
JISSEN
100
AcDbBlockReference
  2
STDGX5
 10
0.0
 20
0.0
 30
0.0
  0
TEXT
  5
60
330
EF7C85532
100
AcDbEntity
  8
SUNPOU
100
AcDbText
 10
274.0586949361738
 20
43.7966872748706
 30
0.0
 40
1.5
  1
                          
100
AcDbText
  0
TEXT
  5
61
330
EF7C85532
100
AcDbEntity
  8
SUNPOU
100
AcDbText
 10
511.2793459710869
 20
21.8983436374353
 30
0.0
 40
0.75
  1
                          
100
AcDbText
  0
TEXT
  5
62
330
EF7C85532
100
AcDbEntity
  8
SUNPOU
100
AcDbText
 10
474.702507645204
 20
43.79668727487057
 30
0.0
 40
1.5
  1
                          
100
AcDbText
  0
TEXT
  5
63
330
EF7C85532
100
AcDbEntity
  8
SUNPOU
100
AcDbText
 10
711.923158680117
 20
21.89834363743527
 30
0.0
 40
0.75
  1
                          
100
AcDbText
  0
INSERT
  5
64
330
EF7C85532
100
AcDbEntity
  8
HATCH
100
AcDbBlockReference
  2
*X4
 10
178.999999284
 20
0.0
 30
0.0
  0
TEXT
  5
65
330
EF7C85532
100
AcDbEntity
  8
SUNPOU
100
AcDbText
 10
477.0854500730167
 20
43.7966872748706
 30
0.0
 40
1.5
  1
                          
100
AcDbText
  0
TEXT
  5
66
330
EF7C85532
100
AcDbEntity
  8
SUNPOU
100
AcDbText
 10
714.3061011079298
 20
21.8983436374353
 30
0.0
 40
0.75
  1
                          
100
AcDbText
  0
TEXT
  5
67
330
EF7C85532
100
AcDbEntity
  8
SUNPOU
100
AcDbText
 10
466.1239116114783
 20
43.7966872748706
 30
0.0
 40
1.5
  1
                          
100
AcDbText
  0
TEXT
  5
68
330
EF7C85532
100
AcDbEntity
  8
SUNPOU
100
AcDbText
 10
703.3445626463913
 20
21.8983436374353
 30
0.0
 40
0.75
  1
                          
100
AcDbText
  0
INSERT
  5
69
330
EF7C85532
100
AcDbEntity
  8
TEXT
100
AcDbBlockReference
  2
STDGX5
 10
178.999999284
 20
0.0
 30
0.0
  0
TEXT
  5
6A
330
EF7C85532
100
AcDbEntity
  8
SUNPOU
100
AcDbText
 10
453.0586949361739
 20
43.7966872748706
 30
0.0
 40
1.5
  1
                          
100
AcDbText
  0
TEXT
  5
6B
330
EF7C85532
100
AcDbEntity
  8
SUNPOU
100
AcDbText
 10
690.279345971087
 20
21.8983436374353
 30
0.0
 40
0.75
  1
                          
100
AcDbText
  0
TEXT
  5
6C
330
EF7C85532
100
AcDbEntity
  8
SUNPOU
100
AcDbText
 10
647.9834433840535
 20
43.7966872748706
 30
0.0
 40
1.5
  1
                          
100
AcDbText
  0
TEXT
  5
6D
330
EF7C85532
100
AcDbEntity
  8
SUNPOU
100
AcDbText
 10
885.2040944189665
 20
21.8983436374353
 30
0.0
 40
0.75
  1
                          
100
AcDbText
  0
TEXT
  5
6E
330
EF7C85532
100
AcDbEntity
  8
SUNPOU
100
AcDbText
 10
848.6272560930835
 20
43.79668727487057
 30
0.0
 40
1.5
  1
                          
100
AcDbText
  0
TEXT
  5
6F
330
EF7C85532
100
AcDbEntity
  8
SUNPOU
100
AcDbText
 10
1085.847907127996
 20
21.89834363743527
 30
0.0
 40
0.75
  1
                          
100
AcDbText
  0
INSERT
  5
70
330
EF7C85532
100
AcDbEntity
  8
HATCH
100
AcDbBlockReference
  2
*X5
 10
552.9247477318797
 20
0.0
 30
0.0
  0
TEXT
  5
71
330
EF7C85532
100
AcDbEntity
  8
SUNPOU
100
AcDbText
 10
851.0101985208963
 20
43.7966872748706
 30
0.0
 40
1.5
  1
                          
100
AcDbText
  0
TEXT
  5
72
330
EF7C85532
100
AcDbEntity
  8
SUNPOU
100
AcDbText
 10
1088.230849555809
 20
21.8983436374353
 30
0.0
 40
0.75
  1
                          
100
AcDbText
  0
TEXT
  5
73
330
EF7C85532
100
AcDbEntity
  8
SUNPOU
100
AcDbText
 10
840.048660059358
 20
43.7966872748706
 30
0.0
 40
1.5
  1
                          
100
AcDbText
  0
TEXT
  5
74
330
EF7C85532
100
AcDbEntity
  8
SUNPOU
100
AcDbText
 10
1077.269311094271
 20
21.8983436374353
 30
0.0
 40
0.75
  1
                          
100
AcDbText
  0
INSERT
  5
75
330
EF7C85532
100
AcDbEntity
  8
JISSEN
100
AcDbBlockReference
  2
STDGX5
 10
357.999999284
 20
0.0
 30
0.0
  0
TEXT
  5
76
330
EF7C85532
100
AcDbEntity
  8
SUNPOU
100
AcDbText
 10
453.0586949361739
 20
43.7966872748706
 30
0.0
 40
1.5
  1
                          
100
AcDbText
  0
TEXT
  5
77
330
EF7C85532
100
AcDbEntity
  8
SUNPOU
100
AcDbText
 10
690.279345971087
 20
21.8983436374353
 30
0.0
 40
0.75
  1
                          
100
AcDbText
  0
TEXT
  5
78
330
EF7C85532
100
AcDbEntity
  8
SUNPOU
100
AcDbText
 10
647.9834433840535
 20
43.7966872748706
 30
0.0
 40
1.5
  1
                          
100
AcDbText
  0
TEXT
  5
79
330
EF7C85532
100
AcDbEntity
  8
SUNPOU
100
AcDbText
 10
885.2040944189665
 20
21.8983436374353
 30
0.0
 40
0.75
  1
                          
100
AcDbText
  0
TEXT
  5
7A
330
EF7C85532
100
AcDbEntity
  8
SUNPOU
100
AcDbText
 10
848.6272560930835
 20
43.79668727487057
 30
0.0
 40
1.5
  1
                          
100
AcDbText
  0
TEXT
  5
7B
330
EF7C85532
100
AcDbEntity
  8
SUNPOU
100
AcDbText
 10
1085.847907127996
 20
21.89834363743527
 30
0.0
 40
0.75
  1
                          
100
AcDbText
  0
INSERT
  5
7C
330
EF7C85532
100
AcDbEntity
  8
HATCH
100
AcDbBlockReference
  2
*X6
 10
552.9247477318797
 20
0.0
 30
0.0
  0
TEXT
  5
7D
330
EF7C85532
100
AcDbEntity
  8
SUNPOU
100
AcDbText
 10
851.0101985208963
 20
43.7966872748706
 30
0.0
 40
1.5
  1
                          
100
AcDbText
  0
TEXT
  5
7E
330
EF7C85532
100
AcDbEntity
  8
SUNPOU
100
AcDbText
 10
1088.230849555809
 20
21.8983436374353
 30
0.0
 40
0.75
  1
                          
100
AcDbText
  0
TEXT
  5
7F
330
EF7C85532
100
AcDbEntity
  8
SUNPOU
100
AcDbText
 10
840.048660059358
 20
43.7966872748706
 30
0.0
 40
1.5
  1
                          
100
AcDbText
  0
TEXT
  5
80
330
EF7C85532
100
AcDbEntity
  8
SUNPOU
100
AcDbText
 10
1077.269311094271
 20
21.8983436374353
 30
0.0
 40
0.75
  1
                          
100
AcDbText
  0
INSERT
  5
81
330
EF7C85532
100
AcDbEntity
  8
JISSEN
100
AcDbBlockReference
  2
STDGX5
 10
357.999999284
 20
0.0
 30
0.0
  0
TEXT
  5
82
330
EF7C85532
100
AcDbEntity
  8
SUNPOU
100
AcDbText
 10
632.0586942201739
 20
43.7966872748706
 30
0.0
 40
1.5
  1
                          
100
AcDbText
  0
TEXT
  5
83
330
EF7C85532
100
AcDbEntity
  8
SUNPOU
100
AcDbText
 10
869.2793452550871
 20
21.8983436374353
 30
0.0
 40
0.75
  1
                          
100
AcDbText
  0
TEXT
  5
84
330
EF7C85532
100
AcDbEntity
  8
SUNPOU
100
AcDbText
 10
826.9834426680535
 20
43.7966872748706
 30
0.0
 40
1.5
  1
                          
100
AcDbText
  0
TEXT
  5
85
330
EF7C85532
100
AcDbEntity
  8
SUNPOU
100
AcDbText
 10
1064.204093702966
 20
21.8983436374353
 30
0.0
 40
0.75
  1
                          
100
AcDbText
  0
TEXT
  5
86
330
EF7C85532
100
AcDbEntity
  8
SUNPOU
100
AcDbText
 10
1027.627255377083
 20
43.79668727487057
 30
0.0
 40
1.5
  1
                          
100
AcDbText
  0
TEXT
  5
87
330
EF7C85532
100
AcDbEntity
  8
SUNPOU
100
AcDbText
 10
1264.847906411996
 20
21.89834363743527
 30
0.0
 40
0.75
  1
                          
100
AcDbText
  0
INSERT
  5
88
330
EF7C85532
100
AcDbEntity
  8
HATCH
100
AcDbBlockReference
  2
*X7
 10
731.9247470158797
 20
0.0
 30
0.0
  0
TEXT
  5
89
330
EF7C85532
100
AcDbEntity
  8
SUNPOU
100
AcDbText
 10
1030.010197804896
 20
43.7966872748706
 30
0.0
 40
1.5
  1
                          
100
AcDbText
  0
TEXT
  5
8A
330
EF7C85532
100
AcDbEntity
  8
SUNPOU
100
AcDbText
 10
1267.230848839809
 20
21.8983436374353
 30
0.0
 40
0.75
  1
                          
100
AcDbText
  0
TEXT
  5
8B
330
EF7C85532
100
AcDbEntity
  8
SUNPOU
100
AcDbText
 10
1019.048659343358
 20
43.7966872748706
 30
0.0
 40
1.5
  1
                          
100
AcDbText
  0
TEXT
  5
8C
330
EF7C85532
100
AcDbEntity
  8
SUNPOU
100
AcDbText
 10
1256.269310378271
 20
21.8983436374353
 30
0.0
 40
0.75
  1
                          
100
AcDbText
  0
INSERT
  5
8D
330
EF7C85532
100
AcDbEntity
  8
JISSEN
100
AcDbBlockReference
  2
STDGX5
 10
536.999998568
 20
0.0
 30
0.0
  0
INSERT
  5
8E
330
EF7C85532
100
AcDbEntity
  8
SUNPOU
100
AcDbBlockReference
  2
STDGX5
 10
739.0804232644236
 20
50.83533235670902
 30
0.0
 41
0.5
 42
0.5
 43
0.5
  0
INSERT
  5
8F
330
EF7C85532
100
AcDbEntity
  8
SUNPOU
100
AcDbBlockReference
  2
STDGX5
 10
726.2208210623692
 20
105.0763138619288
 30
0.0
 41
0.5
 42
0.5
 43
0.5
  0
INSERT
  5
90
330
EF7C85532
100
AcDbEntity
  8
HATCH
100
AcDbBlockReference
  2
STDGX5
 10
852.3985550581901
 20
151.7065097967401
 30
0.0
 41
0.5
 42
0.5
 43
0.5
  0
INSERT
  5
91
330
EF7C85532
100
AcDbEntity
  8
HATCH
100
AcDbBlockReference
  2
STDGX5
 10
866.6806796277285
 20
102.7017487639613
 30
0.0
 41
0.5
 42
0.5
 43
0.5
  0
INSERT
  5
92
330
EF7C85532
100
AcDbEntity
  8
TEXT
100
AcDbBlockReference
  2
STDGX5
 10
970.3434408521969
 20
102.8213468229236
 30
0.0
 41
0.5
 42
0.5
 43
0.5
  0
INSERT
  5
93
330
EF7C85532
100
AcDbEntity
  8
SUNPOU
100
AcDbBlockReference
  2
STDGX5
 10
996.1728907397869
 20
174.5475645486174
 30
0.0
 41
0.5
 42
0.5
 43
0.5
  0
INSERT
  5
94
330
EF7C85532
100
AcDbEntity
  8
TEXT
100
AcDbBlockReference
  2
STDGX5
 10
725.7513886810995
 20
124.5860190441302
 30
0.0
 41
0.5
 42
0.5
 43
0.5
  0
INSERT
  5
95
330
EF7C85532
100
AcDbEntity
  8
HATCH
100
AcDbBlockReference
  2
STDGX5
 10
777.1755722656421
 20
145.5222028932424
 30
0.0
 41
0.5
 42
0.5
 43
0.5
  0
INSERT
  5
96
330
EF7C85532
100
AcDbEntity
  8
SUNPOU
100
AcDbBlockReference
  2
STDGX5
 10
846.1963575359604
 20
112.6957974729892
 30
0.0
 41
0.5
 42
0.5
 43
0.5
  0
INSERT
  5
97
330
EF7C85532
100
AcDbEntity
  8
SUNPOU
100
AcDbBlockReference
  2
STDGX5
 10
916.6681156211122
 20
121.7330617103085
 30
0.0
 41
0.5
 42
0.5
 43
0.5
  0
INSERT
  5
98
330
EF7C85532
100
AcDbEntity
  8
TEXT
100
AcDbBlockReference
  2
STDGX5
 10
983.7969461426769
 20
84.61852224867081
 30
0.0
 41
0.5
 42
0.5
 43
0.5
  0
INSERT
  5
99
330
EF7C85532
100
AcDbEntity
  8
HATCH
100
AcDbBlockReference
  2
STDGX5
 10
974.2802715042099
 20
136.4849386559231
 30
0.0
 41
0.5
 42
0.5
 43
0.5
  0
INSERT
  5
9A
330
EF7C85532
100
AcDbEntity
  8
SUNPOU
100
AcDbBlockReference
  2
STDGX5
 10
749.7834008663489
 20
95.14721172234004
 30
0.0
 41
0.5
 42
0.5
 43
0.5
  0
INSERT
  5
9B
330
EF7C85532
100
AcDbEntity
  8
SUNPOU
100
AcDbBlockReference
  2
STDGX5
 10
736.9237986642947
 20
149.3881932275598
 30
0.0
 41
0.5
 42
0.5
 43
0.5
  0
INSERT
  5
9C
330
EF7C85532
100
AcDbEntity
  8
HATCH
100
AcDbBlockReference
  2
STDGX5
 10
863.1015326601156
 20
196.0183891623711
 30
0.0
 41
0.5
 42
0.5
 43
0.5
  0
INSERT
  5
9D
330
EF7C85532
100
AcDbEntity
  8
HATCH
100
AcDbBlockReference
  2
STDGX5
 10
877.3836572296538
 20
147.0136281295923
 30
0.0
 41
0.5
 42
0.5
 43
0.5
  0
INSERT
  5
9E
330
EF7C85532
100
AcDbEntity
  8
TEXT
100
AcDbBlockReference
  2
STDGX5
 10
981.0464184541224
 20
147.1332261885546
 30
0.0
 41
0.5
 42
0.5
 43
0.5
  0
INSERT
  5
9F
330
EF7C85532
100
AcDbEntity
  8
SUNPOU
100
AcDbBlockReference
  2
STDGX5
 10
1006.875868341712
 20
218.8594439142484
 30
0.0
 41
0.5
 42
0.5
 43
0.5
  0
INSERT
  5
A0
330
EF7C85532
100
AcDbEntity
  8
TEXT
100
AcDbBlockReference
  2
STDGX5
 10
736.4543662830251
 20
168.8978984097612
 30
0.0
 41
0.5
 42
0.5
 43
0.5
  0
INSERT
  5
A1
330
EF7C85532
100
AcDbEntity
  8
HATCH
100
AcDbBlockReference
  2
STDGX5
 10
787.8785498675677
 20
189.8340822588735
 30
0.0
 41
0.5
 42
0.5
 43
0.5
  0
INSERT
  5
A2
330
EF7C85532
100
AcDbEntity
  8
SUNPOU
100
AcDbBlockReference
  2
STDGX5
 10
856.899335137886
 20
157.0076768386202
 30
0.0
 41
0.5
 42
0.5
 43
0.5
  0
INSERT
  5
A3
330
EF7C85532
100
AcDbEntity
  8
SUNPOU
100
AcDbBlockReference
  2
STDGX5
 10
927.3710932230379
 20
166.0449410759395
 30
0.0
 41
0.5
 42
0.5
 43
0.5
  0
INSERT
  5
A4
330
EF7C85532
100
AcDbEntity
  8
TEXT
100
AcDbBlockReference
  2
STDGX5
 10
994.4999237446024
 20
128.9304016143018
 30
0.0
 41
0.5
 42
0.5
 43
0.5
  0
INSERT
  5
A5
330
EF7C85532
100
AcDbEntity
  8
HATCH
100
AcDbBlockReference
  2
STDGX5
 10
984.9832491061354
 20
180.7968180215541
 30
0.0
 41
0.5
 42
0.5
 43
0.5
  0
TEXT
  5
DE
330
EF7C85532
100
AcDbEntity
  8
SUNPOU
100
AcDbText
 10
274.0586949361738
 20
43.7966872748706
 30
0.0
 40
1.5
  1
                          
100
AcDbText
  0
TEXT
  5
145
330
EF7C85532
100
AcDbEntity
  8
SUNPOU
100
AcDbText
 10
511.2793459710869
 20
21.8983436374353
 30
0.0
 40
0.75
  1
                          
100
AcDbText
  0
TEXT
  5
265
330
EF7C85532
100
AcDbEntity
  8
SUNPOU
100
AcDbText
 10
474.702507645204
 20
43.79668727487057
 30
0.0
 40
1.5
  1
                          
100
AcDbText
  0
TEXT
  5
266
330
EF7C85532
100
AcDbEntity
  8
SUNPOU
100
AcDbText
 10
711.923158680117
 20
21.89834363743527
 30
0.0
 40
0.75
  1
                          
100
AcDbText
  0
INSERT
  5
2F7
330
EF7C85532
100
AcDbEntity
  8
HATCH
100
AcDbBlockReference
  2
*X4
 10
178.999999284
 20
0.0
 30
0.0
  0
TEXT
  5
31A
330
EF7C85532
100
AcDbEntity
  8
SUNPOU
100
AcDbText
 10
477.0854500730167
 20
43.7966872748706
 30
0.0
 40
1.5
  1
                          
100
AcDbText
  0
TEXT
  5
31C
330
EF7C85532
100
AcDbEntity
  8
SUNPOU
100
AcDbText
 10
714.3061011079298
 20
21.8983436374353
 30
0.0
 40
0.75
  1
                          
100
AcDbText
  0
TEXT
  5
3A6
330
EF7C85532
100
AcDbEntity
  8
TEXT
100
AcDbText
 10
100.9999992839998
 20
244.9999999999999
 30
0.0
 40
3.0
  1
 
  7
K
100
AcDbText
  0
TEXT
  5
3AB
330
EF7C85532
100
AcDbEntity
  8
SUNPOU
100
AcDbText
 10
466.1239116114783
 20
43.7966872748706
 30
0.0
 40
1.5
  1
                          
100
AcDbText
  0
TEXT
  5
3AC
330
EF7C85532
100
AcDbEntity
  8
SUNPOU
100
AcDbText
 10
703.3445626463913
 20
21.8983436374353
 30
0.0
 40
0.75
  1
                          
100
AcDbText
  0
INSERT
  5
3F6
330
EF7C85532
100
AcDbEntity
  8
TEXT
100
AcDbBlockReference
  2
STDGX5
 10
178.999999284
 20
0.0
 30
0.0
  0
TEXT
  5
3F7
330
EF7C85532
100
AcDbEntity
  8
SUNPOU
100
AcDbText
 10
453.0586949361739
 20
43.7966872748706
 30
0.0
 40
1.5
  1
                          
100
AcDbText
  0
TEXT
  5
3F8
330
EF7C85532
100
AcDbEntity
  8
SUNPOU
100
AcDbText
 10
690.279345971087
 20
21.8983436374353
 30
0.0
 40
0.75
  1
                          
100
AcDbText
  0
TEXT
  5
3F9
330
EF7C85532
100
AcDbEntity
  8
SUNPOU
100
AcDbText
 10
647.9834433840535
 20
43.7966872748706
 30
0.0
 40
1.5
  1
                          
100
AcDbText
  0
TEXT
  5
3FA
330
EF7C85532
100
AcDbEntity
  8
SUNPOU
100
AcDbText
 10
885.2040944189665
 20
21.8983436374353
 30
0.0
 40
0.75
  1
                          
100
AcDbText
  0
TEXT
  5
3FB
330
EF7C85532
100
AcDbEntity
  8
SUNPOU
100
AcDbText
 10
848.6272560930835
 20
43.79668727487057
 30
0.0
 40
1.5
  1
                          
100
AcDbText
  0
TEXT
  5
3FC
330
EF7C85532
100
AcDbEntity
  8
SUNPOU
100
AcDbText
 10
1085.847907127996
 20
21.89834363743527
 30
0.0
 40
0.75
  1
                          
100
AcDbText
  0
INSERT
  5
3FD
330
EF7C85532
100
AcDbEntity
  8
HATCH
100
AcDbBlockReference
  2
*X5
 10
552.9247477318797
 20
0.0
 30
0.0
  0
TEXT
  5
3FE
330
EF7C85532
100
AcDbEntity
  8
SUNPOU
100
AcDbText
 10
851.0101985208963
 20
43.7966872748706
 30
0.0
 40
1.5
  1
                          
100
AcDbText
  0
TEXT
  5
3FF
330
EF7C85532
100
AcDbEntity
  8
SUNPOU
100
AcDbText
 10
1088.230849555809
 20
21.8983436374353
 30
0.0
 40
0.75
  1
                          
100
AcDbText
  0
TEXT
  5
400
330
EF7C85532
100
AcDbEntity
  8
SUNPOU
100
AcDbText
 10
840.048660059358
 20
43.7966872748706
 30
0.0
 40
1.5
  1
                          
100
AcDbText
  0
TEXT
  5
401
330
EF7C85532
100
AcDbEntity
  8
SUNPOU
100
AcDbText
 10
1077.269311094271
 20
21.8983436374353
 30
0.0
 40
0.75
  1
                          
100
AcDbText
  0
INSERT
  5
402
330
EF7C85532
100
AcDbEntity
  8
JISSEN
100
AcDbBlockReference
  2
STDGX5
 10
357.999999284
 20
0.0
 30
0.0
  0
TEXT
  5
409
330
EF7C85532
100
AcDbEntity
  8
SUNPOU
100
AcDbText
 10
453.0586949361739
 20
43.7966872748706
 30
0.0
 40
1.5
  1
                          
100
AcDbText
  0
TEXT
  5
40A
330
EF7C85532
100
AcDbEntity
  8
SUNPOU
100
AcDbText
 10
690.279345971087
 20
21.8983436374353
 30
0.0
 40
0.75
  1
                          
100
AcDbText
  0
TEXT
  5
41B
330
EF7C85532
100
AcDbEntity
  8
SUNPOU
100
AcDbText
 10
647.9834433840535
 20
43.7966872748706
 30
0.0
 40
1.5
  1
                          
100
AcDbText
  0
TEXT
  5
41C
330
EF7C85532
100
AcDbEntity
  8
SUNPOU
100
AcDbText
 10
885.2040944189665
 20
21.8983436374353
 30
0.0
 40
0.75
  1
                          
100
AcDbText
  0
TEXT
  5
41D
330
EF7C85532
100
AcDbEntity
  8
SUNPOU
100
AcDbText
 10
848.6272560930835
 20
43.79668727487057
 30
0.0
 40
1.5
  1
                          
100
AcDbText
  0
TEXT
  5
41E
330
EF7C85532
100
AcDbEntity
  8
SUNPOU
100
AcDbText
 10
1085.847907127996
 20
21.89834363743527
 30
0.0
 40
0.75
  1
                          
100
AcDbText
  0
INSERT
  5
41F
330
EF7C85532
100
AcDbEntity
  8
HATCH
100
AcDbBlockReference
  2
*X6
 10
552.9247477318797
 20
0.0
 30
0.0
  0
TEXT
  5
420
330
EF7C85532
100
AcDbEntity
  8
SUNPOU
100
AcDbText
 10
851.0101985208963
 20
43.7966872748706
 30
0.0
 40
1.5
  1
                          
100
AcDbText
  0
TEXT
  5
421
330
EF7C85532
100
AcDbEntity
  8
SUNPOU
100
AcDbText
 10
1088.230849555809
 20
21.8983436374353
 30
0.0
 40
0.75
  1
                          
100
AcDbText
  0
TEXT
  5
422
330
EF7C85532
100
AcDbEntity
  8
SUNPOU
100
AcDbText
 10
840.048660059358
 20
43.7966872748706
 30
0.0
 40
1.5
  1
                          
100
AcDbText
  0
TEXT
  5
423
330
EF7C85532
100
AcDbEntity
  8
SUNPOU
100
AcDbText
 10
1077.269311094271
 20
21.8983436374353
 30
0.0
 40
0.75
  1
                          
100
AcDbText
  0
INSERT
  5
424
330
EF7C85532
100
AcDbEntity
  8
JISSEN
100
AcDbBlockReference
  2
STDGX5
 10
357.999999284
 20
0.0
 30
0.0
  0
TEXT
  5
425
330
EF7C85532
100
AcDbEntity
  8
SUNPOU
100
AcDbText
 10
632.0586942201739
 20
43.7966872748706
 30
0.0
 40
1.5
  1
                          
100
AcDbText
  0
TEXT
  5
426
330
EF7C85532
100
AcDbEntity
  8
SUNPOU
100
AcDbText
 10
869.2793452550871
 20
21.8983436374353
 30
0.0
 40
0.75
  1
                          
100
AcDbText
  0
TEXT
  5
427
330
EF7C85532
100
AcDbEntity
  8
SUNPOU
100
AcDbText
 10
826.9834426680535
 20
43.7966872748706
 30
0.0
 40
1.5
  1
                          
100
AcDbText
  0
TEXT
  5
428
330
EF7C85532
100
AcDbEntity
  8
SUNPOU
100
AcDbText
 10
1064.204093702966
 20
21.8983436374353
 30
0.0
 40
0.75
  1
                          
100
AcDbText
  0
TEXT
  5
429
330
EF7C85532
100
AcDbEntity
  8
SUNPOU
100
AcDbText
 10
1027.627255377083
 20
43.79668727487057
 30
0.0
 40
1.5
  1
                          
100
AcDbText
  0
TEXT
  5
42A
330
EF7C85532
100
AcDbEntity
  8
SUNPOU
100
AcDbText
 10
1264.847906411996
 20
21.89834363743527
 30
0.0
 40
0.75
  1
                          
100
AcDbText
  0
INSERT
  5
42B
330
EF7C85532
100
AcDbEntity
  8
HATCH
100
AcDbBlockReference
  2
*X7
 10
731.9247470158797
 20
0.0
 30
0.0
  0
TEXT
  5
42C
330
EF7C85532
100
AcDbEntity
  8
SUNPOU
100
AcDbText
 10
1030.010197804896
 20
43.7966872748706
 30
0.0
 40
1.5
  1
                          
100
AcDbText
  0
TEXT
  5
42D
330
EF7C85532
100
AcDbEntity
  8
SUNPOU
100
AcDbText
 10
1267.230848839809
 20
21.8983436374353
 30
0.0
 40
0.75
  1
                          
100
AcDbText
  0
TEXT
  5
42E
330
EF7C85532
100
AcDbEntity
  8
SUNPOU
100
AcDbText
 10
1019.048659343358
 20
43.7966872748706
 30
0.0
 40
1.5
  1
                          
100
AcDbText
  0
TEXT
  5
42F
330
EF7C85532
100
AcDbEntity
  8
SUNPOU
100
AcDbText
 10
1256.269310378271
 20
21.8983436374353
 30
0.0
 40
0.75
  1
                          
100
AcDbText
  0
INSERT
  5
430
330
EF7C85532
100
AcDbEntity
  8
JISSEN
100
AcDbBlockReference
  2
STDGX5
 10
536.999998568
 20
0.0
 30
0.0
  0
INSERT
  5
43B
330
EF7C85532
100
AcDbEntity
  8
SUNPOU
100
AcDbBlockReference
  2
STDGX5
 10
739.0804232644236
 20
50.83533235670902
 30
0.0
 41
0.5
 42
0.5
 43
0.5
  0
INSERT
  5
43C
330
EF7C85532
100
AcDbEntity
  8
SUNPOU
100
AcDbBlockReference
  2
STDGX5
 10
726.2208210623692
 20
105.0763138619288
 30
0.0
 41
0.5
 42
0.5
 43
0.5
  0
INSERT
  5
43D
330
EF7C85532
100
AcDbEntity
  8
HATCH
100
AcDbBlockReference
  2
STDGX5
 10
852.3985550581901
 20
151.7065097967401
 30
0.0
 41
0.5
 42
0.5
 43
0.5
  0
INSERT
  5
43E
330
EF7C85532
100
AcDbEntity
  8
HATCH
100
AcDbBlockReference
  2
STDGX5
 10
866.6806796277285
 20
102.7017487639613
 30
0.0
 41
0.5
 42
0.5
 43
0.5
  0
INSERT
  5
43F
330
EF7C85532
100
AcDbEntity
  8
TEXT
100
AcDbBlockReference
  2
STDGX5
 10
970.3434408521969
 20
102.8213468229236
 30
0.0
 41
0.5
 42
0.5
 43
0.5
  0
INSERT
  5
440
330
EF7C85532
100
AcDbEntity
  8
SUNPOU
100
AcDbBlockReference
  2
STDGX5
 10
996.1728907397869
 20
174.5475645486174
 30
0.0
 41
0.5
 42
0.5
 43
0.5
  0
INSERT
  5
441
330
EF7C85532
100
AcDbEntity
  8
TEXT
100
AcDbBlockReference
  2
STDGX5
 10
725.7513886810995
 20
124.5860190441302
 30
0.0
 41
0.5
 42
0.5
 43
0.5
  0
INSERT
  5
442
330
EF7C85532
100
AcDbEntity
  8
HATCH
100
AcDbBlockReference
  2
STDGX5
 10
777.1755722656421
 20
145.5222028932424
 30
0.0
 41
0.5
 42
0.5
 43
0.5
  0
INSERT
  5
443
330
EF7C85532
100
AcDbEntity
  8
SUNPOU
100
AcDbBlockReference
  2
STDGX5
 10
846.1963575359604
 20
112.6957974729892
 30
0.0
 41
0.5
 42
0.5
 43
0.5
  0
INSERT
  5
444
330
EF7C85532
100
AcDbEntity
  8
SUNPOU
100
AcDbBlockReference
  2
STDGX5
 10
916.6681156211122
 20
121.7330617103085
 30
0.0
 41
0.5
 42
0.5
 43
0.5
  0
INSERT
  5
445
330
EF7C85532
100
AcDbEntity
  8
TEXT
100
AcDbBlockReference
  2
STDGX5
 10
983.7969461426769
 20
84.61852224867081
 30
0.0
 41
0.5
 42
0.5
 43
0.5
  0
INSERT
  5
446
330
EF7C85532
100
AcDbEntity
  8
HATCH
100
AcDbBlockReference
  2
STDGX5
 10
974.2802715042099
 20
136.4849386559231
 30
0.0
 41
0.5
 42
0.5
 43
0.5
  0
INSERT
  5
447
330
EF7C85532
100
AcDbEntity
  8
SUNPOU
100
AcDbBlockReference
  2
STDGX5
 10
749.7834008663489
 20
95.14721172234004
 30
0.0
 41
0.5
 42
0.5
 43
0.5
  0
INSERT
  5
448
330
EF7C85532
100
AcDbEntity
  8
SUNPOU
100
AcDbBlockReference
  2
STDGX5
 10
736.9237986642947
 20
149.3881932275598
 30
0.0
 41
0.5
 42
0.5
 43
0.5
  0
INSERT
  5
449
330
EF7C85532
100
AcDbEntity
  8
HATCH
100
AcDbBlockReference
  2
STDGX5
 10
863.1015326601156
 20
196.0183891623711
 30
0.0
 41
0.5
 42
0.5
 43
0.5
  0
INSERT
  5
44A
330
EF7C85532
100
AcDbEntity
  8
HATCH
100
AcDbBlockReference
  2
STDGX5
 10
877.3836572296538
 20
147.0136281295923
 30
0.0
 41
0.5
 42
0.5
 43
0.5
  0
INSERT
  5
44B
330
EF7C85532
100
AcDbEntity
  8
TEXT
100
AcDbBlockReference
  2
STDGX5
 10
981.0464184541224
 20
147.1332261885546
 30
0.0
 41
0.5
 42
0.5
 43
0.5
  0
INSERT
  5
44C
330
EF7C85532
100
AcDbEntity
  8
SUNPOU
100
AcDbBlockReference
  2
STDGX5
 10
1006.875868341712
 20
218.8594439142484
 30
0.0
 41
0.5
 42
0.5
 43
0.5
  0
INSERT
  5
44D
330
EF7C85532
100
AcDbEntity
  8
TEXT
100
AcDbBlockReference
  2
STDGX5
 10
736.4543662830251
 20
168.8978984097612
 30
0.0
 41
0.5
 42
0.5
 43
0.5
  0
INSERT
  5
44E
330
EF7C85532
100
AcDbEntity
  8
HATCH
100
AcDbBlockReference
  2
STDGX5
 10
787.8785498675677
 20
189.8340822588735
 30
0.0
 41
0.5
 42
0.5
 43
0.5
  0
INSERT
  5
44F
330
EF7C85532
100
AcDbEntity
  8
SUNPOU
100
AcDbBlockReference
  2
STDGX5
 10
856.899335137886
 20
157.0076768386202
 30
0.0
 41
0.5
 42
0.5
 43
0.5
  0
INSERT
  5
450
330
EF7C85532
100
AcDbEntity
  8
SUNPOU
100
AcDbBlockReference
  2
STDGX5
 10
927.3710932230379
 20
166.0449410759395
 30
0.0
 41
0.5
 42
0.5
 43
0.5
  0
INSERT
  5
451
330
EF7C85532
100
AcDbEntity
  8
TEXT
100
AcDbBlockReference
  2
STDGX5
 10
994.4999237446024
 20
128.9304016143018
 30
0.0
 41
0.5
 42
0.5
 43
0.5
  0
INSERT
  5
452
330
EF7C85532
100
AcDbEntity
  8
HATCH
100
AcDbBlockReference
  2
STDGX5
 10
984.9832491061354
 20
180.7968180215541
 30
0.0
 41
0.5
 42
0.5
 43
0.5
  0
INSERT
  5
4CF3
330
EF7C85532
100
AcDbEntity
  8
JISSEN
100
AcDbBlockReference
  2
STDR12J
 10
0.0
 20
0.0
 30
0.0
  0
LINE
  5
EF7C87449
330
EF7C85532
100
AcDbEntity
  8
JISSEN
100
AcDbLine
 10
91.49999927599987
 20
264.9999999256194
 30
0.0
 11
180.9999992759999
 21
264.9999999256194
 31
0.0
  0
LINE
  5
EF7C8744B
330
EF7C85532
100
AcDbEntity
  8
JISSEN
100
AcDbLine
 10
91.49999927599987
 20
270.9999999999999
 30
0.0
 11
180.9999992759999
 21
270.9999999999999
 31
0.0
  0
LINE
  5
EF7C8744C
330
EF7C85532
100
AcDbEntity
  8
JISSEN
100
AcDbLine
 10
91.49999927599987
 20
276.9999999999999
 30
0.0
 11
180.9999992759999
 21
276.9999999999999
 31
0.0
  0
TEXT
  5
EF7C874EA
330
EF7C85532
100
AcDbEntity
  8
TEXT
100
AcDbText
 10
102.6142849902855
 20
266.4999999256194
 30
0.0
 40
3.0
  1
シーリングプレート S
 41
0.75
  7
K
 72
     4
 11
116.4999992759998
 21
267.9999999256194
 31
0.0
100
AcDbText
  0
TEXT
  5
EF7C874EB
330
EF7C85532
100
AcDbEntity
  8
TEXT
100
AcDbText
 10
95.38307168153421
 20
266.4999999256194
 30
0.0
 40
3.0
  1
2
  7
K
 72
     4
 11
96.81164311010565
 21
267.9999999256194
 31
0.0
100
AcDbText
  0
LINE
  5
EF7C874EC
330
EF7C85532
100
AcDbEntity
  8
JISSEN
100
AcDbLine
 10
131.4999992759998
 20
282.9999999256194
 30
0.0
 11
131.4999992759998
 21
264.9999999256194
 31
0.0
  0
LINE
  5
EF7C874ED
330
EF7C85532
100
AcDbEntity
  8
JISSEN
100
AcDbLine
 10
101.4999992759998
 20
282.9999999256194
 30
0.0
 11
101.4999992759998
 21
264.9999999256194
 31
0.0
  0
LINE
  5
EF7C874EE
330
EF7C85532
100
AcDbEntity
  8
JISSEN
100
AcDbLine
 10
91.49999927599987
 20
264.9999999256194
 30
0.0
 11
91.49999927599987
 21
282.9999999256194
 31
0.0
  0
TEXT
  5
EF7C875AD
330
EF7C85532
100
AcDbEntity
  8
TEXT
100
AcDbText
 10
156.6795477624091
 20
266.5808351019605
 30
0.0
 40
3.0
  1
1
  7
K
 72
     4
 11
157.8938334766948
 21
268.0808351019605
 31
0.0
100
AcDbText
  0
TEXT
  5
EF7C875AE
330
EF7C85532
100
AcDbEntity
  8
TEXT
100
AcDbText
 10
135.2142849902856
 20
266.4999999256194
 30
0.0
 40
3.0
  1
C2801
  7
K
 72
     4
 11
141.9999992759998
 21
267.9999999256194
 31
0.0
100
AcDbText
  0
LINE
  5
EF7C875AF
330
EF7C85532
100
AcDbEntity
  8
JISSEN
100
AcDbLine
 10
163.4999992759998
 20
282.9999999256194
 30
0.0
 11
163.4999992759998
 21
264.9999999256194
 31
0.0
  0
LINE
  5
EF7C875B0
330
EF7C85532
100
AcDbEntity
  8
JISSEN
100
AcDbLine
 10
152.4999992759998
 20
264.9999999256194
 30
0.0
 11
152.4999992759998
 21
282.9999999256194
 31
0.0
  0
TEXT
  5
EF7C88641
330
EF7C85532
100
AcDbEntity
  8
TEXT
100
AcDbText
 10
164.9571421331427
 20
266.4999999256194
 30
0.0
 40
3.0
  1
Crメッキ
  7
K
 72
     4
 11
172.4999992759998
 21
267.9999999256194
 31
0.0
100
AcDbText
  0
INSERT
  5
EF7C88EB6
330
EF7C85532
100
AcDbEntity
  8
WAKU
100
AcDbBlockReference
  2
WAKU
 10
0.0
 20
0.0
 30
0.0
 41
181.0
 42
283.0
 43
181.0
  0
LINE
  5
EF7C88EB9
330
EF7C85532
100
AcDbEntity
  8
JISSEN
100
AcDbLine
 10
94.57219500718883
 20
142.5883405388707
 30
0.0
 11
94.57219500718883
 21
138.0883405388707
 31
0.0
  0
LINE
  5
EF7C88EBA
330
EF7C85532
100
AcDbEntity
  8
JISSEN
100
AcDbLine
 10
89.32219500718884
 20
142.5883405388707
 30
0.0
 11
89.32219500718884
 21
138.0883405388707
 31
0.0
  0
LINE
  5
EF7C88EBB
330
EF7C85532
100
AcDbEntity
  8
JISSEN
100
AcDbLine
 10
94.44719500718889
 20
137.3849620743442
 30
0.0
 11
93.48783346250598
 21
150.816023699905
 31
0.0
  0
LINE
  5
EF7C88EBC
330
EF7C85532
100
AcDbEntity
  8
JISSEN
100
AcDbLine
 10
90.4065565518718
 20
150.816023699905
 30
0.0
 11
89.44719500718889
 21
137.3849620743442
 31
0.0
  0
ARC
  5
EF7C88EBD
330
EF7C85532
100
AcDbEntity
  8
JISSEN
100
AcDbCircle
 10
97.94719500718883
 20
142.8383405388707
 30
0.0
 40
13.5
100
AcDbArc
 50
180.0
 51
222.2054464037317
  0
ARC
  5
EF7C88EBE
330
EF7C85532
100
AcDbEntity
  8
JISSEN
100
AcDbCircle
 10
85.94719500718884
 20
142.8383405388707
 30
0.0
 40
13.5
100
AcDbArc
 50
317.7945535962688
 51
0.0
  0
ARC
  5
EF7C88EBF
330
EF7C85532
100
AcDbEntity
  8
JISSEN
100
AcDbCircle
 10
99.90603226701956
 20
150.5007540037038
 30
0.0
 40
24.0
100
AcDbArc
 50
180.0
 51
237.8181160795958
  0
ARC
  5
EF7C88EC0
330
EF7C85532
100
AcDbEntity
  8
JISSEN
100
AcDbCircle
 10
99.90603226701956
 20
150.5007540037038
 30
0.0
 40
30.0
100
AcDbArc
 50
180.0
 51
220.2190987445562
  0
ARC
  5
EF7C88EC1
330
EF7C85532
100
AcDbEntity
  8
JISSEN
100
AcDbCircle
 10
83.90603226701955
 20
150.5007540037038
 30
0.0
 40
30.0
100
AcDbArc
 50
319.7809012554437
 51
0.0
  0
ARC
  5
EF7C88EC2
330
EF7C85532
100
AcDbEntity
  8
JISSEN
100
AcDbCircle
 10
83.90603226701955
 20
150.5007540037038
 30
0.0
 40
24.0
100
AcDbArc
 50
302.1818839204041
 51
0.0
  0
ARC
  5
EF7C88EC3
330
EF7C85532
100
AcDbEntity
  8
JISSEN
100
AcDbCircle
 10
83.90603226701955
 20
150.5007540037038
 30
0.0
 40
26.0
100
AcDbArc
 50
336.1811586065437
 51
0.0
  0
ARC
  5
EF7C88EC4
330
EF7C85532
100
AcDbEntity
  8
JISSEN
100
AcDbCircle
 10
83.90603226701955
 20
150.5007540037038
 30
0.0
 40
28.0
100
AcDbArc
 50
337.975687162958
 51
0.0
  0
ARC
  5
EF7C88EC5
330
EF7C85532
100
AcDbEntity
  8
JISSEN
100
AcDbCircle
 10
99.90603226701956
 20
150.5007540037038
 30
0.0
 40
26.0
100
AcDbArc
 50
180.0
 51
203.8188413934562
  0
ARC
  5
EF7C88EC6
330
EF7C85532
100
AcDbEntity
  8
JISSEN
100
AcDbCircle
 10
99.90603226701956
 20
150.5007540037038
 30
0.0
 40
28.0
100
AcDbArc
 50
180.0
 51
202.0243128370419
  0
TEXT
  5
EF7C88EC7
330
EF7C85532
100
AcDbEntity
  8
SUNPOU
100
AcDbText
 10
123.7999594378957
 20
7.849423898685245
 30
0.0
 40
3.0
  1
DP シーリングプレート取付状態
  7
K
100
AcDbText
  0
TEXT
  5
EF7C88EC8
330
EF7C85532
100
AcDbEntity
  8
SUNPOU
100
AcDbText
 10
123.7999594378957
 20
2.849423898685245
 30
0.0
 40
3.0
  1
尺度　1/1
  7
K
100
AcDbText
  0
LINE
  5
EF7C88ECC
330
EF7C85532
100
AcDbEntity
  8
JISSEN
100
AcDbLine
 10
95.63786412444205
 20
135.1124841385515
 30
0.0
 11
97.01792862703747
 21
135.1124841385515
 31
0.0
  0
ARC
  5
EF7C88ECD
330
EF7C85532
100
AcDbEntity
  8
JISSEN
100
AcDbCircle
 10
96.15603226701956
 20
131.0344369406331
 30
0.0
 40
1.0
100
AcDbArc
 50
234.43667142405
 51
302.1818839204041
  0
LINE
  5
EF7C88ECE
330
EF7C85532
100
AcDbEntity
  8
JISSEN
100
AcDbLine
 10
95.31954797131357
 20
119.5007624031976
 30
0.0
 11
99.22429147461423
 21
119.5007624031977
 31
0.0
  0
LINE
  5
EF7C88ECF
330
EF7C85532
100
AcDbEntity
  8
JISSEN
100
AcDbLine
 10
96.16095517650149
 20
117.863526654173
 30
0.0
 11
95.80066002106264
 21
119.1368917372372
 31
0.0
  0
LINE
  5
EF7C88ED0
330
EF7C85532
100
AcDbEntity
  8
JISSEN
100
AcDbLine
 10
110.7323840893525
 20
116.8787189011607
 30
0.0
 11
73.07968044468646
 21
116.8787189011607
 31
0.0
  0
LINE
  5
EF7C88ED1
330
EF7C85532
100
AcDbEntity
  8
JISSEN
100
AcDbLine
 10
72.90603226701955
 20
117.8635266541729
 30
0.0
 11
110.9060322670195
 21
117.8635266541731
 31
0.0
  0
LINE
  5
EF7C88ED2
330
EF7C85532
100
AcDbEntity
  8
JISSEN
100
AcDbLine
 10
101.4265993175713
 20
116.7007540037038
 30
0.0
 11
91.90603226701956
 21
116.7007540037038
 31
0.0
  0
ARC
  5
EF7C88ED3
330
EF7C85532
100
AcDbEntity
  8
JISSEN
100
AcDbCircle
 10
95.31954797131357
 20
119.0007624031967
 30
0.0
 40
0.5
100
AcDbArc
 50
15.79871507350289
 51
166.7098700100968
  0
LINE
  5
EF7C88ED4
330
EF7C85532
100
AcDbEntity
  8
JISSEN
100
AcDbLine
 10
94.1604369797667
 20
119.5007624031977
 30
0.0
 11
94.32857705225217
 21
117.863526654173
 31
0.0
  0
LINE
  5
EF7C88ED5
330
EF7C85532
100
AcDbEntity
  8
JISSEN
100
AcDbLine
 10
89.48348748178728
 20
117.863526654173
 30
0.0
 11
89.65162755427241
 21
119.5007624031977
 31
0.0
  0
ARC
  5
EF7C88ED6
330
EF7C85532
100
AcDbEntity
  8
JISSEN
100
AcDbCircle
 10
88.49251656272555
 20
119.0007624031967
 30
0.0
 40
0.5
100
AcDbArc
 50
13.29012998990317
 51
164.2012849264971
  0
ARC
  5
EF7C88ED7
330
EF7C85532
100
AcDbEntity
  8
JISSEN
100
AcDbCircle
 10
83.73924492200103
 20
118.5007624031972
 30
0.0
 40
1.0
100
AcDbArc
 50
47.91894748809134
 51
146.3490341753983
  0
LINE
  5
EF7C88ED8
330
EF7C85532
100
AcDbEntity
  8
JISSEN
100
AcDbLine
 10
83.45513870590378
 20
117.863526654173
 30
0.0
 11
84.58777305942499
 21
119.5007624031977
 31
0.0
  0
ARC
  5
EF7C88ED9
330
EF7C85532
100
AcDbEntity
  8
JISSEN
100
AcDbCircle
 10
80.94002417983029
 20
118.1452624031976
 30
0.0
 40
1.355499999999999
100
AcDbArc
 50
70.26879749382175
 51
124.999999999997
  0
LINE
  5
EF7C88EDA
330
EF7C85532
100
AcDbEntity
  8
JISSEN
100
AcDbLine
 10
79.69120003504304
 20
117.8635266541729
 30
0.0
 11
81.48484020925389
 21
119.5007624031977
 31
0.0
  0
LINE
  5
EF7C88EDB
330
EF7C85532
100
AcDbEntity
  8
JISSEN
100
AcDbLine
 10
74.81854360349359
 20
118.2007540037038
 30
0.0
 11
78.65603226701955
 21
118.2007540037038
 31
0.0
  0
LINE
  5
EF7C88EDC
330
EF7C85532
100
AcDbEntity
  8
JISSEN
100
AcDbLine
 10
72.90603226701955
 20
117.8635266541729
 30
0.0
 11
73.9060322670191
 21
118.0398536348811
 31
0.0
  0
LINE
  5
EF7C88EDD
330
EF7C85532
100
AcDbEntity
  8
JISSEN
100
AcDbLine
 10
73.07968044468657
 20
116.8787189011604
 30
0.0
 11
72.90603226701955
 21
117.8635266541729
 31
0.0
  0
LINE
  5
EF7C88EDE
330
EF7C85532
100
AcDbEntity
  8
JISSEN
100
AcDbLine
 10
73.9060322670191
 20
118.0398536348811
 30
0.0
 11
74.81854360349348
 21
118.2007540037038
 31
0.0
  0
LINE
  5
EF7C88EDF
330
EF7C85532
100
AcDbEntity
  8
JISSEN
100
AcDbLine
 10
78.65603226701955
 20
118.2007540037038
 30
0.0
 11
80.16254132035646
 21
119.2556229992314
 31
0.0
  0
LINE
  5
EF7C88EE0
330
EF7C85532
100
AcDbEntity
  8
JISSEN
100
AcDbLine
 10
89.2749001080133
 20
117.863526654173
 30
0.0
 11
88.97912580655816
 21
119.1157034481575
 31
0.0
  0
LINE
  5
EF7C88EE1
330
EF7C85532
100
AcDbEntity
  8
JISSEN
100
AcDbLine
 10
82.38546521646776
 20
116.7007540037038
 30
0.0
 11
91.90603226701956
 21
116.7007540037038
 31
0.0
  0
LINE
  5
EF7C88EE2
330
EF7C85532
100
AcDbEntity
  8
JISSEN
100
AcDbLine
 10
82.38546521646776
 20
116.7007540037038
 30
0.0
 11
82.26085285373187
 21
116.8787189011607
 31
0.0
  0
LINE
  5
EF7C88EE3
330
EF7C85532
100
AcDbEntity
  8
JISSEN
100
AcDbLine
 10
82.11374482027554
 20
117.863526654173
 30
0.0
 11
82.90681626440051
 21
119.0548946347136
 31
0.0
  0
LINE
  5
EF7C88EE4
330
EF7C85532
100
AcDbEntity
  8
JISSEN
100
AcDbLine
 10
87.65110935753773
 20
117.863526654173
 30
0.0
 11
88.01140451297658
 21
119.1368917372372
 31
0.0
  0
ARC
  5
EF7C88EE5
330
EF7C85532
100
AcDbEntity
  8
JISSEN
100
AcDbCircle
 10
88.69220468625371
 20
118.2019721681093
 30
0.0
 40
0.1
100
AcDbArc
 50
13.29012998990878
 51
164.2012849264932
  0
LINE
  5
EF7C88EE6
330
EF7C85532
100
AcDbEntity
  8
JISSEN
100
AcDbLine
 10
88.8749001080132
 20
117.863526654173
 30
0.0
 11
88.78952653502029
 21
118.2249603771015
 31
0.0
  0
LINE
  5
EF7C88EE7
330
EF7C85532
100
AcDbEntity
  8
JISSEN
100
AcDbLine
 10
88.49251656272555
 20
117.863526654173
 30
0.0
 11
88.59598227630385
 21
118.2291980349174
 31
0.0
  0
ARC
  5
EF7C88EE8
330
EF7C85532
100
AcDbEntity
  8
JISSEN
100
AcDbCircle
 10
95.11985984778538
 20
118.2019721681093
 30
0.0
 40
0.1
100
AcDbArc
 50
15.79871507350672
 51
166.7098700100912
  0
LINE
  5
EF7C88EE9
330
EF7C85532
100
AcDbEntity
  8
JISSEN
100
AcDbLine
 10
95.31954797131357
 20
117.863526654173
 30
0.0
 11
95.21608225773524
 21
118.2291980349174
 31
0.0
  0
LINE
  5
EF7C88EEA
330
EF7C85532
100
AcDbEntity
  8
JISSEN
100
AcDbLine
 10
94.9371644260259
 20
117.863526654173
 30
0.0
 11
95.02253799901893
 21
118.2249603771015
 31
0.0
  0
LINE
  5
EF7C88EEB
330
EF7C85532
100
AcDbEntity
  8
JISSEN
100
AcDbLine
 10
94.53716442602582
 20
117.863526654173
 30
0.0
 11
94.83293872748095
 21
119.1157034481575
 31
0.0
  0
LINE
  5
EF7C88EEC
330
EF7C85532
100
AcDbEntity
  8
JISSEN
100
AcDbLine
 10
81.48484020925389
 20
119.5007624031977
 30
0.0
 11
83.73924492200103
 21
119.5007624031977
 31
0.0
  0
LINE
  5
EF7C88EED
330
EF7C85532
100
AcDbEntity
  8
JISSEN
100
AcDbLine
 10
76.99860730891373
 20
131.1293864270782
 30
0.0
 11
86.8322027823874
 21
119.5007624031977
 31
0.0
  0
ARC
  5
EF7C88EEE
330
EF7C85532
100
AcDbEntity
  8
JISSEN
100
AcDbCircle
 10
94.70202617623362
 20
129.0007540037038
 30
0.0
 40
1.5
100
AcDbArc
 50
54.4366714240505
 51
90.0
  0
ARC
  5
EF7C88EEF
330
EF7C85532
100
AcDbEntity
  8
JISSEN
100
AcDbCircle
 10
89.11003835780547
 20
129.0007540037038
 30
0.0
 40
1.5
100
AcDbArc
 50
90.0
 51
125.5633285759494
  0
ARC
  5
EF7C88EF0
330
EF7C85532
100
AcDbEntity
  8
JISSEN
100
AcDbCircle
 10
75.15603226701955
 20
124.5007540037038
 30
0.0
 40
12.49999999999999
100
AcDbArc
 50
343.7397952916875
 51
16.26020470831243
  0
LINE
  5
EF7C88EF1
330
EF7C85532
100
AcDbEntity
  8
JISSEN
100
AcDbLine
 10
88.49251656272555
 20
119.5007624031977
 30
0.0
 11
84.58777305942499
 21
119.5007624031977
 31
0.0
  0
ARC
  5
EF7C88EF2
330
EF7C85532
100
AcDbEntity
  8
JISSEN
100
AcDbCircle
 10
85.90603226701956
 20
119.0473190215647
 30
0.0
 40
1.0
100
AcDbArc
 50
26.96482331252983
 51
40.21909874455624
  0
ARC
  5
EF7C88EF3
330
EF7C85532
100
AcDbEntity
  8
JISSEN
100
AcDbCircle
 10
87.65603226701955
 20
131.0344369406331
 30
0.0
 40
1.0
100
AcDbArc
 50
237.8181160795958
 51
305.5633285759499
  0
LINE
  5
EF7C88EF4
330
EF7C85532
100
AcDbEntity
  8
JISSEN
100
AcDbLine
 10
89.65162755427241
 20
119.5007624031977
 30
0.0
 11
94.1604369797667
 21
119.5007624031977
 31
0.0
  0
LINE
  5
EF7C88EF5
330
EF7C85532
100
AcDbEntity
  8
JISSEN
100
AcDbLine
 10
95.94719500718889
 20
131.6098931419531
 30
0.0
 11
87.94719500718889
 21
131.6098931419531
 31
0.0
  0
ARC
  5
EF7C88EF6
330
EF7C85532
100
AcDbEntity
  8
JISSEN
100
AcDbCircle
 10
87.94719500718889
 20
137.3849620743442
 30
0.0
 40
1.5
100
AcDbArc
 50
284.2500326978036
 51
0.0
  0
LINE
  5
EF7C88EF7
330
EF7C85532
100
AcDbEntity
  8
JISSEN
100
AcDbLine
 10
86.87646138734027
 20
135.1124841385515
 30
0.0
 11
88.2565258899358
 21
135.1124841385515
 31
0.0
  0
LINE
  5
EF7C88EF8
330
EF7C85532
100
AcDbEntity
  8
JISSEN
100
AcDbLine
 10
88.20281833561983
 20
134.3784808962335
 30
0.0
 11
88.3164257764197
 21
135.9311159204981
 31
0.0
  0
ARC
  5
EF7C88EF9
330
EF7C85532
100
AcDbEntity
  8
JISSEN
100
AcDbCircle
 10
87.71743046906113
 20
134.4139970815915
 30
0.0
 40
0.4866855046380603
100
AcDbArc
 50
298.1707402297523
 51
355.8150838748825
  0
LINE
  5
EF7C88EFA
330
EF7C85532
100
AcDbEntity
  8
JISSEN
100
AcDbLine
 10
87.94719500718889
 20
131.6098931419531
 30
0.0
 11
87.94719500718889
 21
133.9849620743441
 31
0.0
  0
ARC
  5
EF7C88EFB
330
EF7C85532
100
AcDbEntity
  8
JISSEN
100
AcDbCircle
 10
95.94719500718889
 20
137.3849620743442
 30
0.0
 40
1.5
100
AcDbArc
 50
180.0
 51
255.7499673021965
  0
LINE
  5
EF7C88EFC
330
EF7C85532
100
AcDbEntity
  8
JISSEN
100
AcDbLine
 10
94.70202617623362
 20
130.5007540037038
 30
0.0
 11
91.90603226701956
 21
130.5007540037038
 31
0.0
  0
LINE
  5
EF7C88EFD
330
EF7C85532
100
AcDbEntity
  8
JISSEN
100
AcDbLine
 10
89.474378062249
 20
130.5007540037038
 30
0.0
 11
90.58351720049831
 21
131.6098931419531
 31
0.0
  0
LINE
  5
EF7C88EFE
330
EF7C85532
100
AcDbEntity
  8
SAISEN
100
AcDbLine
 10
89.90603226701962
 20
130.5007540037038
 30
0.0
 11
89.90603226701962
 21
130.9324082084744
 31
0.0
  0
LINE
  5
EF7C88EFF
330
EF7C85532
100
AcDbEntity
  8
JISSEN
100
AcDbLine
 10
89.11003835780547
 20
130.5007540037038
 30
0.0
 11
91.90603226701956
 21
130.5007540037038
 31
0.0
  0
LINE
  5
EF7C88F00
330
EF7C85532
100
AcDbEntity
  8
JISSEN
100
AcDbLine
 10
94.33768647179016
 20
130.5007540037038
 30
0.0
 11
93.22854733354096
 21
131.6098931419531
 31
0.0
  0
LINE
  5
EF7C88F01
330
EF7C85532
100
AcDbEntity
  8
SAISEN
100
AcDbLine
 10
93.9060322670196
 20
130.5007540037038
 30
0.0
 11
93.9060322670196
 21
130.9324082084744
 31
0.0
  0
LINE
  5
EF7C88F02
330
EF7C85532
100
AcDbEntity
  8
JISSEN
100
AcDbLine
 10
95.57796423795815
 20
135.931115920498
 30
0.0
 11
95.69157167875795
 21
134.3784808962335
 31
0.0
  0
ARC
  5
EF7C88F03
330
EF7C85532
100
AcDbEntity
  8
JISSEN
100
AcDbCircle
 10
96.17695954531672
 20
134.4139970815915
 30
0.0
 40
0.4866855046380603
100
AcDbArc
 50
184.1849161251174
 51
241.8292597702476
  0
LINE
  5
EF7C88F04
330
EF7C85532
100
AcDbEntity
  8
JISSEN
100
AcDbLine
 10
95.94719500718889
 20
133.9849620743441
 30
0.0
 11
95.94719500718889
 21
131.6098931419531
 31
0.0
  0
LINE
  5
EF7C88F05
330
EF7C85532
100
AcDbEntity
  8
JISSEN
100
AcDbLine
 10
104.120864498996
 20
117.8635266541729
 30
0.0
 11
102.3272243247852
 21
119.5007624031976
 31
0.0
  0
ARC
  5
EF7C88F06
330
EF7C85532
100
AcDbEntity
  8
JISSEN
100
AcDbCircle
 10
102.8720403542088
 20
118.1452624031976
 30
0.0
 40
1.355499999999999
100
AcDbArc
 50
55.00000000000298
 51
109.731202506171
  0
ARC
  5
EF7C88F07
330
EF7C85532
100
AcDbEntity
  8
JISSEN
100
AcDbCircle
 10
100.0728196120381
 20
118.5007624031972
 30
0.0
 40
1.0
100
AcDbArc
 50
33.65096582460159
 51
132.0810525119086
  0
LINE
  5
EF7C88F08
330
EF7C85532
100
AcDbEntity
  8
JISSEN
100
AcDbLine
 10
100.3569258281353
 20
117.863526654173
 30
0.0
 11
99.22429147461423
 21
119.5007624031976
 31
0.0
  0
LINE
  5
EF7C88F09
330
EF7C85532
100
AcDbEntity
  8
JISSEN
100
AcDbLine
 10
110.9060322670195
 20
117.8635266541731
 30
0.0
 11
108.9935209305456
 21
118.2007540037041
 31
0.0
  0
LINE
  5
EF7C88F0B
330
EF7C85532
100
AcDbEntity
  8
JISSEN
100
AcDbLine
 10
101.4265993175713
 20
116.7007540037038
 30
0.0
 11
101.5512116803073
 21
116.8787189011607
 31
0.0
  0
LINE
  5
EF7C88F0C
330
EF7C85532
100
AcDbEntity
  8
JISSEN
100
AcDbLine
 10
101.6983197137635
 20
117.863526654173
 30
0.0
 11
100.9052482696387
 21
119.0548946347136
 31
0.0
  0
LINE
  5
EF7C88F0D
330
EF7C85532
100
AcDbEntity
  8
JISSEN
100
AcDbLine
 10
105.1560322670195
 20
118.2007540037038
 30
0.0
 11
108.9935209305469
 21
118.2007540037038
 31
0.0
  0
LINE
  5
EF7C88F0E
330
EF7C85532
100
AcDbEntity
  8
JISSEN
100
AcDbLine
 10
105.1560322670195
 20
118.2007540037038
 30
0.0
 11
103.6495232136826
 21
119.2556229992314
 31
0.0
  0
LINE
  5
EF7C88F0F
330
EF7C85532
100
AcDbEntity
  8
JISSEN
100
AcDbLine
 10
110.7323840893525
 20
116.8787189011607
 30
0.0
 11
110.9060322670195
 21
117.8635266541731
 31
0.0
  0
LINE
  5
EF7C88F10
330
EF7C85532
100
AcDbEntity
  8
JISSEN
100
AcDbLine
 10
106.8134572251253
 20
131.1293864270782
 30
0.0
 11
96.97986175165169
 21
119.5007624031976
 31
0.0
  0
ARC
  5
EF7C88F11
330
EF7C85532
100
AcDbEntity
  8
JISSEN
100
AcDbCircle
 10
108.6560322670195
 20
124.5007540037038
 30
0.0
 40
12.49999999999999
100
AcDbArc
 50
163.7397952916875
 51
196.2602047083124
  0
ARC
  5
EF7C88F12
330
EF7C85532
100
AcDbEntity
  8
JISSEN
100
AcDbCircle
 10
97.90603226701955
 20
119.0473190215647
 30
0.0
 40
1.0
100
AcDbArc
 50
139.7809012554437
 51
153.0351766874614
  0
LINE
  5
EF7C88F13
330
EF7C85532
100
AcDbEntity
  8
JISSEN
100
AcDbLine
 10
102.3272243247852
 20
119.5007624031976
 30
0.0
 11
100.0728196120381
 21
119.5007624031976
 31
0.0
  0
LINE
  5
EF7C88F14
330
EF7C85532
100
AcDbEntity
  8
JISSEN
100
AcDbLine
 10
81.51344231230956
 20
177.0577396729266
 30
0.0
 11
54.47461554495112
 21
177.0577396729264
 31
0.0
  0
LINE
  5
EF7C88F15
330
EF7C85532
100
AcDbEntity
  8
JISSEN
100
AcDbLine
 10
54.47461554495134
 20
172.0577396729264
 30
0.0
 11
81.35718450378892
 21
172.0577396729264
 31
0.0
  0
HATCH
  5
EF7C88F16
330
EF7C85532
100
AcDbEntity
  8
JISSEN
 62
     0
100
AcDbHatch
 10
0.0
 20
0.0
 30
0.0
210
0.0
220
0.0
230
1.0
  2
ANSI31
 70
     0
 71
     0
 91
        2
 92
        7
 72
     0
 73
     1
 93
       50
 10
130.7692038690433
 20
175.594926901706
 10
130.6471654434895
 20
175.6610012999502
 10
130.4854762479981
 20
175.7246132872863
 10
130.3103544953911
 20
175.7877327850159
 10
130.1480183984869
 20
175.8523297144437
 10
130.0246861701046
 20
175.9203739968726
 10
129.9665760230635
 20
175.9938355536062
 10
129.9891224596979
 20
176.0747718044514
 10
130.0646251404037
 20
176.1655901632341
 10
130.1546000150834
 20
176.2687855422764
 10
130.2205630336512
 20
176.3868528539121
 10
130.2240301460134
 20
176.5222870104673
 10
130.1265173020786
 20
176.6775829242694
 10
129.889540451755
 20
176.8552355076464
 10
129.4746155449514
 20
177.0577396729262
 10
111.9746155449509
 20
177.0577396729263
 10
111.9746155449509
 20
172.0577396729262
 10
129.4746155449507
 20
172.0577396729264
 10
129.8696734803973
 20
172.2166672314149
 10
130.0711019489525
 20
172.3558642264994
 10
130.11797032751
 20
172.4788880322009
 10
130.0493479929642
 20
172.5892960225406
 10
129.9043043222086
 20
172.6906455715388
 10
129.7219086921394
 20
172.7864940532219
 10
129.5412304796437
 20
172.8803988415956
 10
129.4013390616221
 20
172.9759173106958
 10
129.3031363584761
 20
173.1168130114535
 10
129.3575290844701
 20
173.2871495087726
 10
129.415798628914
 20
173.3964955428489
 10
129.4794905110935
 20
173.5069496533
 10
129.5299962725989
 20
173.6174960955287
 10
129.5487074550233
 20
173.7271191249433
 10
129.517015599959
 20
173.8348029969518
 10
129.4232031288693
 20
173.9398141185668
 10
129.2831159827024
 20
174.0425475032245
 10
129.1194909822768
 20
174.1436803159649
 10
128.9550649484161
 20
174.2438897218331
 10
128.8125747019356
 20
174.3438528858663
 10
128.7147570636566
 20
174.4442469731083
 10
128.6843488543986
 20
174.5457491485997
 10
128.7440868949812
 20
174.6490365773822
 10
128.9081021094405
 20
174.7544478429665
 10
129.1561018346784
 20
174.8609672027393
 10
129.4591875108118
 20
174.9672403325563
 10
129.7884605779636
 20
175.0719129082759
 10
130.1150224762412
 20
175.1736306057495
 10
130.4099746457746
 20
175.2710391008379
 10
130.6444185266755
 20
175.3627840693952
 10
130.789455559064
 20
175.4475111872777
 10
130.8253733118413
 20
175.5244201712494
 97
        0
 92
        7
 72
     0
 73
     1
 93
       50
 10
71.97461554495089
 20
177.0577396729265
 10
54.47461554495101
 20
177.0577396729264
 10
54.05969063814689
 20
176.8552355076463
 10
53.8227137878232
 20
176.6775829242694
 10
53.72520094388836
 20
176.5222870104672
 10
53.72866805625074
 20
176.3868528539122
 10
53.79463107481843
 20
176.2687855422764
 10
53.88460594950084
 20
176.165590163231
 10
53.96010863020388
 20
176.0747718044514
 10
53.98265506683845
 20
175.9938355536062
 10
53.92454491979743
 20
175.9203739968727
 10
53.80121269141477
 20
175.8523297144439
 10
53.63887659451006
 20
175.787732785016
 10
53.46375484190275
 20
175.7246132872858
 10
53.30206564641264
 20
175.6610012999503
 10
53.18002722085862
 20
175.594926901706
 10
53.12385777806071
 20
175.5244201712495
 10
53.15977553083792
 20
175.4475111872777
 10
53.30481256322639
 20
175.3627840693953
 10
53.53925644412834
 20
175.2710391008377
 10
53.83420861365744
 20
175.1736306057502
 10
54.16077051194111
 20
175.0719129082759
 10
54.49004357908961
 20
174.9672403325563
 10
54.79312925522368
 20
174.8609672027391
 10
55.04112898046173
 20
174.7544478429665
 10
55.20514419492065
 20
174.6490365773823
 10
55.26488223550336
 20
174.5457491485996
 10
55.23447402624526
 20
174.4442469731083
 10
55.13665638796658
 20
174.3438528858667
 10
54.99416614148628
 20
174.2438897218332
 10
54.82974010762041
 20
174.143680315964
 10
54.6661151071994
 20
174.0425475032245
 10
54.5260279610327
 20
173.9398141185668
 10
54.43221548994279
 20
173.8348029969518
 10
54.40052363487859
 20
173.7271191249432
 10
54.41923481730305
 20
173.6174960955285
 10
54.46974057880857
 20
173.5069496532996
 10
54.53343246098723
 20
173.3964955428503
 10
54.5917020054319
 20
173.2871495087725
 10
54.64609473142582
 20
173.1168130114535
 10
54.54789202827964
 20
172.9759173106958
 10
54.40800061025811
 20
172.8803988415957
 10
54.22732239776678
 20
172.786494053218
 10
54.04492676769326
 20
172.6906455715389
 10
53.89988309693785
 20
172.5892960225407
 10
53.83126076239193
 20
172.478888032201
 10
53.87812914094957
 20
172.3558642264994
 10
54.07955760950471
 20
172.2166672314149
 10
54.47461554495124
 20
172.0577396729264
 10
71.97461554495089
 20
172.0577396729264
 97
        0
 75
     0
 76
     1
 52
0.0
 41
20.0
 77
     0
 78
     1
 53
45.0
 43
33.61511078150602
 44
-534.296717527619
 45
-1.767766952966368
 46
1.767766952966368
 79
     0
 47
0.1350417537953048
 98
        2
 10
198.5383570654297
 20
174.2419035301762
 10
142.4437654253127
 20
175.7273629303139
  0
ARC
  5
EF7C88F17
330
EF7C85532
100
AcDbEntity
  8
JISSEN
100
AcDbCircle
 10
86.90603226701956
 20
150.5007540037038
 30
0.0
 40
17.0
100
AcDbArc
 50
109.7499227956426
 51
180.0
  0
POLYLINE
  5
EF7C88F18
330
EF7C85532
100
AcDbEntity
  8
JISSEN
 62
     0
100
AcDb2dPolyline
 66
     1
 10
0.0
 20
0.0
 30
0.0
 70
     4
 75
     6
  0
VERTEX
  5
EF7C88F19
330
EF7C88F18
100
AcDbEntity
  8
JISSEN
 62
     0
100
AcDbVertex
100
AcDb2dVertex
 10
54.47461554495089
 20
177.0577396729264
 30
0.0
 70
    16
  0
VERTEX
  5
EF7C88F1A
330
EF7C88F18
100
AcDbEntity
  8
JISSEN
 62
     0
100
AcDbVertex
100
AcDb2dVertex
 10
54.47461554495089
 20
177.0577396729264
 30
0.0
 70
     8
  0
VERTEX
  5
EF7C88F1B
330
EF7C88F18
100
AcDbEntity
  8
JISSEN
 62
     0
100
AcDbVertex
100
AcDb2dVertex
 10
54.059690638147
 20
176.8552355076463
 30
0.0
 70
     8
  0
VERTEX
  5
EF7C88F1C
330
EF7C88F18
100
AcDbEntity
  8
JISSEN
 62
     0
100
AcDbVertex
100
AcDb2dVertex
 10
53.8227137878232
 20
176.6775829242693
 30
0.0
 70
     8
  0
VERTEX
  5
EF7C88F1D
330
EF7C88F18
100
AcDbEntity
  8
JISSEN
 62
     0
100
AcDbVertex
100
AcDb2dVertex
 10
53.72520094388846
 20
176.5222870104672
 30
0.0
 70
     8
  0
VERTEX
  5
EF7C88F1E
330
EF7C88F18
100
AcDbEntity
  8
JISSEN
 62
     0
100
AcDbVertex
100
AcDb2dVertex
 10
53.72866805625062
 20
176.3868528539121
 30
0.0
 70
     8
  0
VERTEX
  5
EF7C88F1F
330
EF7C88F18
100
AcDbEntity
  8
JISSEN
 62
     0
100
AcDbVertex
100
AcDb2dVertex
 10
53.79463107481843
 20
176.2687855422765
 30
0.0
 70
     8
  0
VERTEX
  5
EF7C88F20
330
EF7C88F18
100
AcDbEntity
  8
JISSEN
 62
     0
100
AcDbVertex
100
AcDb2dVertex
 10
53.88460594949993
 20
176.1655901632321
 30
0.0
 70
     8
  0
VERTEX
  5
EF7C88F21
330
EF7C88F18
100
AcDbEntity
  8
JISSEN
 62
     0
100
AcDbVertex
100
AcDb2dVertex
 10
53.96010863020388
 20
176.0747718044514
 30
0.0
 70
     8
  0
VERTEX
  5
EF7C88F22
330
EF7C88F18
100
AcDbEntity
  8
JISSEN
 62
     0
100
AcDbVertex
100
AcDb2dVertex
 10
53.98265506683856
 20
175.9938355536062
 30
0.0
 70
     8
  0
VERTEX
  5
EF7C88F23
330
EF7C88F18
100
AcDbEntity
  8
JISSEN
 62
     0
100
AcDbVertex
100
AcDb2dVertex
 10
53.92454491979743
 20
175.9203739968727
 30
0.0
 70
     8
  0
VERTEX
  5
EF7C88F24
330
EF7C88F18
100
AcDbEntity
  8
JISSEN
 62
     0
100
AcDbVertex
100
AcDb2dVertex
 10
53.80121269141477
 20
175.8523297144438
 30
0.0
 70
     8
  0
VERTEX
  5
EF7C88F25
330
EF7C88F18
100
AcDbEntity
  8
JISSEN
 62
     0
100
AcDbVertex
100
AcDb2dVertex
 10
53.63887659451006
 20
175.787732785016
 30
0.0
 70
     8
  0
VERTEX
  5
EF7C88F26
330
EF7C88F18
100
AcDbEntity
  8
JISSEN
 62
     0
100
AcDbVertex
100
AcDb2dVertex
 10
53.46375484190298
 20
175.7246132872858
 30
0.0
 70
     8
  0
VERTEX
  5
EF7C88F27
330
EF7C88F18
100
AcDbEntity
  8
JISSEN
 62
     0
100
AcDbVertex
100
AcDb2dVertex
 10
53.30206564641253
 20
175.6610012999503
 30
0.0
 70
     8
  0
VERTEX
  5
EF7C88F28
330
EF7C88F18
100
AcDbEntity
  8
JISSEN
 62
     0
100
AcDbVertex
100
AcDb2dVertex
 10
53.18002722085862
 20
175.594926901706
 30
0.0
 70
     8
  0
VERTEX
  5
EF7C88F29
330
EF7C88F18
100
AcDbEntity
  8
JISSEN
 62
     0
100
AcDbVertex
100
AcDb2dVertex
 10
53.12385777806071
 20
175.5244201712495
 30
0.0
 70
     8
  0
VERTEX
  5
EF7C88F2A
330
EF7C88F18
100
AcDbEntity
  8
JISSEN
 62
     0
100
AcDbVertex
100
AcDb2dVertex
 10
53.1597755308378
 20
175.4475111872777
 30
0.0
 70
     8
  0
VERTEX
  5
EF7C88F2B
330
EF7C88F18
100
AcDbEntity
  8
JISSEN
 62
     0
100
AcDbVertex
100
AcDb2dVertex
 10
53.30481256322627
 20
175.3627840693952
 30
0.0
 70
     8
  0
VERTEX
  5
EF7C88F2C
330
EF7C88F18
100
AcDbEntity
  8
JISSEN
 62
     0
100
AcDbVertex
100
AcDb2dVertex
 10
53.53925644412743
 20
175.2710391008379
 30
0.0
 70
     8
  0
VERTEX
  5
EF7C88F2D
330
EF7C88F18
100
AcDbEntity
  8
JISSEN
 62
     0
100
AcDbVertex
100
AcDb2dVertex
 10
53.83420861365971
 20
175.1736306057498
 30
0.0
 70
     8
  0
VERTEX
  5
EF7C88F2E
330
EF7C88F18
100
AcDbEntity
  8
JISSEN
 62
     0
100
AcDbVertex
100
AcDb2dVertex
 10
54.16077051194111
 20
175.0719129082747
 30
0.0
 70
     8
  0
VERTEX
  5
EF7C88F2F
330
EF7C88F18
100
AcDbEntity
  8
JISSEN
 62
     0
100
AcDbVertex
100
AcDb2dVertex
 10
54.49004357908984
 20
174.9672403325564
 30
0.0
 70
     8
  0
VERTEX
  5
EF7C88F30
330
EF7C88F18
100
AcDbEntity
  8
JISSEN
 62
     0
100
AcDbVertex
100
AcDb2dVertex
 10
54.7931292552239
 20
174.8609672027391
 30
0.0
 70
     8
  0
VERTEX
  5
EF7C88F31
330
EF7C88F18
100
AcDbEntity
  8
JISSEN
 62
     0
100
AcDbVertex
100
AcDb2dVertex
 10
55.04112898046151
 20
174.7544478429664
 30
0.0
 70
     8
  0
VERTEX
  5
EF7C88F32
330
EF7C88F18
100
AcDbEntity
  8
JISSEN
 62
     0
100
AcDbVertex
100
AcDb2dVertex
 10
55.20514419492065
 20
174.6490365773822
 30
0.0
 70
     8
  0
VERTEX
  5
EF7C88F33
330
EF7C88F18
100
AcDbEntity
  8
JISSEN
 62
     0
100
AcDbVertex
100
AcDb2dVertex
 10
55.26488223550336
 20
174.5457491485997
 30
0.0
 70
     8
  0
VERTEX
  5
EF7C88F34
330
EF7C88F18
100
AcDbEntity
  8
JISSEN
 62
     0
100
AcDbVertex
100
AcDb2dVertex
 10
55.23447402624538
 20
174.4442469731084
 30
0.0
 70
     8
  0
VERTEX
  5
EF7C88F35
330
EF7C88F18
100
AcDbEntity
  8
JISSEN
 62
     0
100
AcDbVertex
100
AcDb2dVertex
 10
55.13665638796647
 20
174.3438528858665
 30
0.0
 70
     8
  0
VERTEX
  5
EF7C88F36
330
EF7C88F18
100
AcDbEntity
  8
JISSEN
 62
     0
100
AcDbVertex
100
AcDb2dVertex
 10
54.99416614148595
 20
174.243889721833
 30
0.0
 70
     8
  0
VERTEX
  5
EF7C88F37
330
EF7C88F18
100
AcDbEntity
  8
JISSEN
 62
     0
100
AcDbVertex
100
AcDb2dVertex
 10
54.82974010762382
 20
174.143680315966
 30
0.0
 70
     8
  0
VERTEX
  5
EF7C88F38
330
EF7C88F18
100
AcDbEntity
  8
JISSEN
 62
     0
100
AcDbVertex
100
AcDb2dVertex
 10
54.66611510719963
 20
174.0425475032245
 30
0.0
 70
     8
  0
VERTEX
  5
EF7C88F39
330
EF7C88F18
100
AcDbEntity
  8
JISSEN
 62
     0
100
AcDbVertex
100
AcDb2dVertex
 10
54.5260279610327
 20
173.9398141185668
 30
0.0
 70
     8
  0
VERTEX
  5
EF7C88F3A
330
EF7C88F18
100
AcDbEntity
  8
JISSEN
 62
     0
100
AcDbVertex
100
AcDb2dVertex
 10
54.43221548994279
 20
173.8348029969517
 30
0.0
 70
     8
  0
VERTEX
  5
EF7C88F3B
330
EF7C88F18
100
AcDbEntity
  8
JISSEN
 62
     0
100
AcDbVertex
100
AcDb2dVertex
 10
54.40052363487848
 20
173.7271191249433
 30
0.0
 70
     8
  0
VERTEX
  5
EF7C88F3C
330
EF7C88F18
100
AcDbEntity
  8
JISSEN
 62
     0
100
AcDbVertex
100
AcDb2dVertex
 10
54.41923481730305
 20
173.6174960955283
 30
0.0
 70
     8
  0
VERTEX
  5
EF7C88F3D
330
EF7C88F18
100
AcDbEntity
  8
JISSEN
 62
     0
100
AcDbVertex
100
AcDb2dVertex
 10
54.46974057880857
 20
173.5069496532998
 30
0.0
 70
     8
  0
VERTEX
  5
EF7C88F3E
330
EF7C88F18
100
AcDbEntity
  8
JISSEN
 62
     0
100
AcDbVertex
100
AcDb2dVertex
 10
54.53343246098757
 20
173.3964955428505
 30
0.0
 70
     8
  0
VERTEX
  5
EF7C88F3F
330
EF7C88F18
100
AcDbEntity
  8
JISSEN
 62
     0
100
AcDbVertex
100
AcDb2dVertex
 10
54.5917020054319
 20
173.2871495087727
 30
0.0
 70
     8
  0
VERTEX
  5
EF7C88F40
330
EF7C88F18
100
AcDbEntity
  8
JISSEN
 62
     0
100
AcDbVertex
100
AcDb2dVertex
 10
54.62594075373385
 20
173.1799272956592
 30
0.0
 70
     8
  0
VERTEX
  5
EF7C88F41
330
EF7C88F18
100
AcDbEntity
  8
JISSEN
 62
     0
100
AcDbVertex
100
AcDb2dVertex
 10
54.61754024748575
 20
173.0758446481028
 30
0.0
 70
     8
  0
VERTEX
  5
EF7C88F42
330
EF7C88F18
100
AcDbEntity
  8
JISSEN
 62
     0
100
AcDbVertex
100
AcDb2dVertex
 10
54.54789202827964
 20
172.9759173106958
 30
0.0
 70
     8
  0
VERTEX
  5
EF7C88F43
330
EF7C88F18
100
AcDbEntity
  8
JISSEN
 62
     0
100
AcDbVertex
100
AcDb2dVertex
 10
54.40800061025811
 20
172.8803988415957
 30
0.0
 70
     8
  0
VERTEX
  5
EF7C88F44
330
EF7C88F18
100
AcDbEntity
  8
JISSEN
 62
     0
100
AcDbVertex
100
AcDb2dVertex
 10
54.22732239776474
 20
172.7864940532169
 30
0.0
 70
     8
  0
VERTEX
  5
EF7C88F45
330
EF7C88F18
100
AcDbEntity
  8
JISSEN
 62
     0
100
AcDbVertex
100
AcDb2dVertex
 10
54.04492676769336
 20
172.6906455715389
 30
0.0
 70
     8
  0
VERTEX
  5
EF7C88F46
330
EF7C88F18
100
AcDbEntity
  8
JISSEN
 62
     0
100
AcDbVertex
100
AcDb2dVertex
 10
53.89988309693785
 20
172.5892960225406
 30
0.0
 70
     8
  0
VERTEX
  5
EF7C88F47
330
EF7C88F18
100
AcDbEntity
  8
JISSEN
 62
     0
100
AcDbVertex
100
AcDb2dVertex
 10
53.83126076239182
 20
172.4788880322009
 30
0.0
 70
     8
  0
VERTEX
  5
EF7C88F48
330
EF7C88F18
100
AcDbEntity
  8
JISSEN
 62
     0
100
AcDbVertex
100
AcDb2dVertex
 10
53.87812914094957
 20
172.3558642264994
 30
0.0
 70
     8
  0
VERTEX
  5
EF7C88F49
330
EF7C88F18
100
AcDbEntity
  8
JISSEN
 62
     0
100
AcDbVertex
100
AcDb2dVertex
 10
54.07955760950471
 20
172.2166672314149
 30
0.0
 70
     8
  0
VERTEX
  5
EF7C88F4A
330
EF7C88F18
100
AcDbEntity
  8
JISSEN
 62
     0
100
AcDbVertex
100
AcDb2dVertex
 10
54.47461554495089
 20
172.0577396729265
 30
0.0
 70
     8
  0
VERTEX
  5
EF7C88F4B
330
EF7C88F18
100
AcDbEntity
  8
JISSEN
 62
     0
100
AcDbVertex
100
AcDb2dVertex
 10
53.096677006974
 20
176.4823754231289
 30
0.0
 70
    16
  0
VERTEX
  5
EF7C88F4C
330
EF7C88F18
100
AcDbEntity
  8
JISSEN
 62
     0
100
AcDbVertex
100
AcDb2dVertex
 10
54.95801820455517
 20
175.9150388004574
 30
0.0
 70
    16
  0
VERTEX
  5
EF7C88F4D
330
EF7C88F18
100
AcDbEntity
  8
JISSEN
 62
     0
100
AcDbVertex
100
AcDb2dVertex
 10
51.89785117462725
 20
175.5368143853435
 30
0.0
 70
    16
  0
VERTEX
  5
EF7C88F4E
330
EF7C88F18
100
AcDbEntity
  8
JISSEN
 62
     0
100
AcDbVertex
100
AcDb2dVertex
 10
56.40923028196311
 20
174.6227707818358
 30
0.0
 70
    16
  0
VERTEX
  5
EF7C88F4F
330
EF7C88F18
100
AcDbEntity
  8
JISSEN
 62
     0
100
AcDbVertex
100
AcDb2dVertex
 10
53.69609286704508
 20
173.8663219516075
 30
0.0
 70
    16
  0
VERTEX
  5
EF7C88F50
330
EF7C88F18
100
AcDbEntity
  8
JISSEN
 62
     0
100
AcDbVertex
100
AcDb2dVertex
 10
55.39969118951422
 20
172.9207593934444
 30
0.0
 70
    16
  0
VERTEX
  5
EF7C88F51
330
EF7C88F18
100
AcDbEntity
  8
JISSEN
 62
     0
100
AcDbVertex
100
AcDb2dVertex
 10
53.12822675955567
 20
172.5110160236746
 30
0.0
 70
    16
  0
VERTEX
  5
EF7C88F52
330
EF7C88F18
100
AcDbEntity
  8
JISSEN
 62
     0
100
AcDbVertex
100
AcDb2dVertex
 10
54.47461554495089
 20
172.0577396729264
 30
0.0
 70
    16
  0
SEQEND
  5
EF7C88F53
330
EF7C88F18
100
AcDbEntity
  8
JISSEN
 62
     0
  0
LWPOLYLINE
  5
EF7C88F54
330
EF7C85532
100
AcDbEntity
  8
NITEN
100
AcDbPolyline
 90
        5
 70
     0
 43
0.0
 10
108.9060322670196
 20
212.6113029094276
 10
108.9060322670196
 20
233.4490205605735
 42
-0.5882352941176475
 10
91.90603226701961
 20
233.4490205605735
 42
0.5882352941176476
 10
74.90603226701961
 20
233.4490205605732
 10
74.90603226701961
 20
212.6113029094276
  0
LINE
  5
EF7C88F55
330
EF7C85532
100
AcDbEntity
  8
JISSEN
100
AcDbLine
 10
102.2986222217296
 20
177.0577396729263
 30
0.0
 11
129.4746155449514
 21
177.0577396729262
 31
0.0
  0
LINE
  5
EF7C88F56
330
EF7C85532
100
AcDbEntity
  8
JISSEN
100
AcDbLine
 10
102.4548800302503
 20
172.057739672926
 30
0.0
 11
129.4746155449507
 21
172.0577396729264
 31
0.0
  0
LWPOLYLINE
  5
EF7C88F57
330
EF7C85532
100
AcDbEntity
  8
NITEN
100
AcDbPolyline
 90
       15
 70
     1
 43
0.0
 10
77.90603226701961
 20
172.1113029094276
 42
0.4142135623730927
 10
79.40603226701956
 20
170.6113029094276
 10
102.5000834380161
 20
170.6113029094276
 10
104.4060322670196
 20
170.6113029094276
 42
0.4142135623730925
 10
105.9060322670196
 20
172.1113029094276
 10
105.9060322670196
 20
183.1573189356456
 42
-0.4142135623730943
 10
110.9060322670196
 20
188.1573189356456
 42
0.4142135623730951
 10
112.9060322670196
 20
190.1573189356455
 10
112.9060322670195
 20
210.6113029094276
 42
0.4142135623730948
 10
110.9060322670196
 20
212.6113029094276
 10
72.90603226701961
 20
212.6113029094276
 42
0.4142135623730951
 10
70.90603226701961
 20
210.6113029094276
 10
70.90603226701961
 20
190.1573189356455
 42
0.4142135623730951
 10
72.90603226701961
 20
188.1573189356456
 42
-0.4142135623730961
 10
77.90603226701961
 20
183.1573189356456
  0
ARC
  5
EF7C88F58
330
EF7C85532
100
AcDbEntity
  8
JISSEN
100
AcDbCircle
 10
85.94719500718884
 20
147.8383405388707
 30
0.0
 40
10.5
100
AcDbArc
 50
0.0
 51
14.14900450893455
  0
ARC
  5
EF7C88F59
330
EF7C85532
100
AcDbEntity
  8
JISSEN
100
AcDbCircle
 10
94.94719500718884
 20
144.0883405388707
 30
0.0
 40
1.5
100
AcDbArc
 50
270.0
 51
0.0
  0
LINE
  5
EF7C88F5A
330
EF7C85532
100
AcDbEntity
  8
JISSEN
100
AcDbLine
 10
96.90363190335359
 20
155.7254496759601
 30
0.0
 11
86.99075811102408
 21
155.7254496759601
 31
0.0
  0
ARC
  5
EF7C88F5B
330
EF7C85532
100
AcDbEntity
  8
JISSEN
100
AcDbCircle
 10
94.67416469889741
 20
150.0383405388707
 30
0.0
 40
1.5
100
AcDbArc
 50
14.14900450893455
 51
90.0
  0
LINE
  5
EF7C88F5C
330
EF7C85532
100
AcDbEntity
  8
JISSEN
100
AcDbLine
 10
102.6505949135575
 20
166.5007540037039
 30
0.0
 11
94.90603226701955
 21
166.5007540037039
 31
0.0
  0
LINE
  5
EF7C88F5D
330
EF7C85532
100
AcDbEntity
  8
JISSEN
100
AcDbLine
 10
99.15603226701955
 20
159.7224418401909
 30
0.0
 11
93.44936425730599
 21
159.7224418401909
 31
0.0
  0
LINE
  5
EF7C88F5E
330
EF7C85532
100
AcDbEntity
  8
JISSEN
100
AcDbLine
 10
97.90603226702002
 20
159.2883405388716
 30
0.0
 11
93.59477627177875
 21
159.2883405388715
 31
0.0
  0
LINE
  5
EF7C88F5F
330
EF7C85532
100
AcDbEntity
  8
JISSEN
100
AcDbLine
 10
99.40603226701956
 20
160.7007540037038
 30
0.0
 11
93.40603226701956
 21
160.7007540037038
 31
0.0
  0
LINE
  5
EF7C88F60
330
EF7C85532
100
AcDbEntity
  8
JISSEN
100
AcDbLine
 10
100.1054937542523
 20
162.5007540037038
 30
0.0
 11
93.40603226701956
 21
162.5007540037038
 31
0.0
  0
LINE
  5
EF7C88F61
330
EF7C85532
100
AcDbEntity
  8
JISSEN
100
AcDbLine
 10
102.1840864949317
 20
180.7226997757916
 30
0.0
 11
81.62797803910734
 21
180.7226997757916
 31
0.0
  0
LINE
  5
EF7C88F62
330
EF7C85532
100
AcDbEntity
  8
JISSEN
100
AcDbLine
 10
100.4060322670195
 20
182.5007540037038
 30
0.0
 11
91.90603226701956
 21
182.5007540037038
 31
0.0
  0
LINE
  5
EF7C88F63
330
EF7C85532
100
AcDbEntity
  8
JISSEN
100
AcDbLine
 10
84.40603226701956
 20
156.6883405388715
 30
0.0
 11
99.40603226701956
 21
156.6883405388715
 31
0.0
  0
LINE
  5
EF7C88F64
330
EF7C85532
100
AcDbEntity
  8
JISSEN
100
AcDbLine
 10
99.40603226701956
 20
158.9883405388714
 30
0.0
 11
91.90603226701956
 21
158.9883405388714
 31
0.0
  0
LINE
  5
EF7C88F65
330
EF7C85532
100
AcDbEntity
  8
JISSEN
100
AcDbLine
 10
102.5695466213453
 20
168.3885921218126
 30
0.0
 11
91.90603226701956
 21
168.3885921218126
 31
0.0
  0
LINE
  5
EF7C88F66
330
EF7C85532
100
AcDbEntity
  8
JISSEN
100
AcDbLine
 10
101.4060322670195
 20
168.0007540037038
 30
0.0
 11
91.90603226701956
 21
168.0007540037038
 31
0.0
  0
ARC
  5
EF7C88F67
330
EF7C85532
100
AcDbEntity
  8
JISSEN
100
AcDbCircle
 10
94.60603226701961
 20
163.8100283753507
 30
0.0
 40
0.3
100
AcDbArc
 50
270.0
 51
0.0
  0
LINE
  5
EF7C88F68
330
EF7C85532
100
AcDbEntity
  8
JISSEN
100
AcDbLine
 10
95.90603226701956
 20
162.5007540037038
 30
0.0
 11
95.90603226701956
 21
166.5007540037039
 31
0.0
  0
ARC
  5
EF7C88F69
330
EF7C85532
100
AcDbEntity
  8
JISSEN
100
AcDbCircle
 10
89.20603226701951
 20
163.8100283753507
 30
0.0
 40
0.3
100
AcDbArc
 50
180.0
 51
270.0
  0
ARC
  5
EF7C88F6A
330
EF7C85532
100
AcDbEntity
  8
JISSEN
100
AcDbCircle
 10
78.01828373535136
 20
169.6438713320802
 30
0.0
 40
6.498907295833106
100
AcDbArc
 50
284.679080052196
 51
320.8990391255045
  0
TEXT
  5
EF7C88F6B
330
EF7C85532
100
AcDbEntity
  8
JISSEN
100
AcDbText
 10
87.42381664368476
 20
165.9594225373321
 30
0.0
 40
3.0
  1
D
 50
180.0
  7
K
 72
     4
 11
85.8523880722562
 21
164.4594225373321
 31
0.0
100
AcDbText
  0
LINE
  5
EF7C88F6C
330
EF7C85532
100
AcDbEntity
  8
JISSEN
100
AcDbLine
 10
87.90603226701955
 20
162.5007540037038
 30
0.0
 11
87.90603226701955
 21
166.5007540037039
 31
0.0
  0
LINE
  5
EF7C88F6D
330
EF7C85532
100
AcDbEntity
  8
JISSEN
100
AcDbLine
 10
83.70657077978682
 20
166.5007540037039
 30
0.0
 11
83.70657077978682
 21
162.5007540037038
 31
0.0
  0
ARC
  5
EF7C88F6E
330
EF7C85532
100
AcDbEntity
  8
JISSEN
100
AcDbCircle
 10
86.84533731469537
 20
149.3468020662754
 30
0.0
 40
11.0
100
AcDbArc
 50
104.840214838518
 51
173.9783228073659
  0
ARC
  5
EF7C88F6F
330
EF7C85532
100
AcDbEntity
  8
JISSEN
100
AcDbCircle
 10
84.6947854834973
 20
149.8990962808592
 30
0.0
 40
10.80551655320168
100
AcDbArc
 50
91.53128360361938
 51
176.8080854238748
  0
ARC
  5
EF7C88F70
330
EF7C85532
100
AcDbEntity
  8
JISSEN
100
AcDbCircle
 10
86.90603226701956
 20
150.5007540037038
 30
0.0
 40
15.0
100
AcDbArc
 50
126.6829888003598
 51
180.0
  0
ARC
  5
EF7C88F71
330
EF7C85532
100
AcDbEntity
  8
JISSEN
100
AcDbCircle
 10
80.93216154409493
 20
158.5202844504185
 30
0.0
 40
5.0
100
AcDbArc
 50
104.679080052196
 51
126.6829888003598
  0
LINE
  5
EF7C88F72
330
EF7C85532
100
AcDbEntity
  8
JISSEN
100
AcDbLine
 10
93.6971950071889
 20
153.3283942015011
 30
0.0
 11
93.6971950071889
 21
150.816023699905
 31
0.0
  0
LINE
  5
EF7C88F73
330
EF7C85532
100
AcDbEntity
  8
JISSEN
100
AcDbLine
 10
90.1971950071889
 20
150.816023699905
 30
0.0
 11
90.1971950071889
 21
153.3283942015011
 31
0.0
  0
LINE
  5
EF7C88F74
330
EF7C85532
100
AcDbEntity
  8
JISSEN
100
AcDbLine
 10
93.94719500718883
 20
151.7383405388707
 30
0.0
 11
93.94719500718883
 21
154.5516777454886
 31
0.0
  0
LINE
  5
EF7C88F75
330
EF7C85532
100
AcDbEntity
  8
JISSEN
100
AcDbLine
 10
89.94719500718884
 20
151.7383405388707
 30
0.0
 11
89.94719500718884
 21
154.5516777454886
 31
0.0
  0
ARC
  5
EF7C88F76
330
EF7C85532
100
AcDbEntity
  8
JISSEN
100
AcDbCircle
 10
97.94719500718883
 20
147.8383405388707
 30
0.0
 40
13.5
100
AcDbArc
 50
139.0382114476458
 51
180.0
  0
ARC
  5
EF7C88F77
330
EF7C85532
100
AcDbEntity
  8
JISSEN
100
AcDbCircle
 10
89.74132607749954
 20
150.1908344685776
 30
0.0
 40
0.6441310703106079
100
AcDbArc
 50
103.6591051852965
 51
180.0
  0
ARC
  5
EF7C88F78
330
EF7C85532
100
AcDbEntity
  8
JISSEN
100
AcDbCircle
 10
90.05046515502698
 20
138.547185690211
 30
0.0
 40
10.00141397672728
100
AcDbArc
 50
94.32888202861118
 51
100.3564926490359
  0
LINE
  5
EF7C88F79
330
EF7C85532
100
AcDbEntity
  8
JISSEN
100
AcDbLine
 10
88.94719500718883
 20
142.5883405388707
 30
0.0
 11
89.32219500718884
 21
142.5883405388707
 31
0.0
  0
ARC
  5
EF7C88F7A
330
EF7C85532
100
AcDbEntity
  8
JISSEN
100
AcDbCircle
 10
90.05046515502778
 20
132.6802711707543
 30
0.0
 40
10.00141397672734
100
AcDbArc
 50
94.32888202861446
 51
97.36809719179866
  0
LINE
  5
EF7C88F7B
330
EF7C85532
100
AcDbEntity
  8
JISSEN
100
AcDbLine
 10
88.68523899907023
 20
151.4396933285899
 30
0.0
 11
89.44719500718917
 21
150.9997778221918
 31
0.0
  0
ARC
  5
EF7C88F7C
330
EF7C85532
100
AcDbEntity
  8
JISSEN
100
AcDbCircle
 10
89.22022531548027
 20
150.0383405388707
 30
0.0
 40
1.5
100
AcDbArc
 50
90.0
 51
165.8509954910654
  0
LINE
  5
EF7C88F7D
330
EF7C85532
100
AcDbEntity
  8
JISSEN
100
AcDbLine
 10
88.19719500718889
 20
147.2024106524251
 30
0.0
 11
88.19719500718889
 21
146.4851287222009
 31
0.0
  0
LINE
  5
EF7C88F7E
330
EF7C85532
100
AcDbEntity
  8
JISSEN
100
AcDbLine
 10
87.44719500718884
 20
144.0883405388707
 30
0.0
 11
87.44719500718884
 21
147.8383405388707
 31
0.0
  0
LINE
  5
EF7C88F7F
330
EF7C85532
100
AcDbEntity
  8
JISSEN
100
AcDbLine
 10
84.44719500718884
 20
142.8383405388707
 30
0.0
 11
84.44719500718884
 21
147.8383405388707
 31
0.0
  0
LINE
  5
EF7C88F80
330
EF7C85532
100
AcDbEntity
  8
JISSEN
100
AcDbLine
 10
88.19719500716059
 20
146.485128721807
 30
0.0
 11
88.19719500716059
 21
146.4851287223488
 31
0.0
  0
LINE
  5
EF7C88F81
330
EF7C85532
100
AcDbEntity
  8
JISSEN
100
AcDbLine
 10
88.19719500718889
 20
146.1767394906033
 30
0.0
 11
88.19719500718889
 21
146.4851287222009
 31
0.0
  0
ARC
  5
EF7C88F82
330
EF7C85532
100
AcDbEntity
  8
JISSEN
100
AcDbCircle
 10
88.94719500718883
 20
144.0883405388707
 30
0.0
 40
1.5
100
AcDbArc
 50
180.0
 51
270.0
  0
LINE
  5
EF7C88F83
330
EF7C85532
100
AcDbEntity
  8
JISSEN
100
AcDbLine
 10
88.19719500718889
 20
146.1767394906033
 30
0.0
 11
88.19719500718889
 21
142.7893024331939
 31
0.0
  0
LINE
  5
EF7C88F84
330
EF7C85532
100
AcDbEntity
  8
JISSEN
100
AcDbLine
 10
88.19719500718889
 20
147.2024106524251
 30
0.0
 11
88.19719500718889
 21
147.5089805736354
 31
0.0
  0
LINE
  5
EF7C88F85
330
EF7C85532
100
AcDbEntity
  8
JISSEN
100
AcDbLine
 10
88.19719500729798
 20
147.5089805514117
 30
0.0
 11
88.19719500729798
 21
147.5089806277466
 31
0.0
  0
LINE
  5
EF7C88F86
330
EF7C85532
100
AcDbEntity
  8
JISSEN
100
AcDbLine
 10
88.19719500718889
 20
148.3193448773643
 30
0.0
 11
88.19719500718889
 21
147.5089805736354
 31
0.0
  0
ARC
  5
EF7C88F87
330
EF7C85532
100
AcDbEntity
  8
JISSEN
100
AcDbCircle
 10
97.94719500718883
 20
147.8383405388707
 30
0.0
 40
10.5
100
AcDbArc
 50
165.8509954910654
 51
180.0
  0
ARC
  5
EF7C88F88
330
EF7C85532
100
AcDbEntity
  8
JISSEN
100
AcDbCircle
 10
88.26460766809749
 20
148.3193448773643
 30
0.0
 40
0.0674126609085717
100
AcDbArc
 50
100.3564926490459
 51
180.0000000000244
  0
LINE
  5
EF7C88F89
330
EF7C85532
100
AcDbEntity
  8
JISSEN
100
AcDbLine
 10
95.69719500718889
 20
146.4851287222009
 30
0.0
 11
95.69719500718889
 21
147.2024106524251
 31
0.0
  0
ARC
  5
EF7C88F8A
330
EF7C85532
100
AcDbEntity
  8
JISSEN
100
AcDbCircle
 10
91.17526233436455
 20
117.8211324198592
 30
0.0
 40
24.90306398982979
100
AcDbArc
 50
93.10594061441934
 51
94.32888202860793
  0
ARC
  5
EF7C88F8B
330
EF7C85532
100
AcDbEntity
  8
JISSEN
100
AcDbCircle
 10
91.17526233436747
 20
167.0837282959578
 30
0.0
 40
24.90306398983168
100
AcDbArc
 50
265.7326069421967
 51
266.816945111796
  0
ARC
  5
EF7C88F8C
330
EF7C85532
100
AcDbEntity
  8
JISSEN
100
AcDbCircle
 10
89.32219500718884
 20
142.8883405388707
 30
0.0
 40
1.199999999999999
100
AcDbArc
 50
270.0
 51
291.4232972478954
  0
LINE
  5
EF7C88F8D
330
EF7C85532
100
AcDbEntity
  8
JISSEN
100
AcDbLine
 10
95.69727016422701
 20
146.173251372698
 30
0.0
 11
95.69727016422701
 21
146.5019851532676
 31
0.0
  0
ARC
  5
EF7C88F8E
330
EF7C85532
100
AcDbEntity
  8
JISSEN
100
AcDbCircle
 10
94.57219500718883
 20
142.8883405388707
 30
0.0
 40
1.199999999999999
100
AcDbArc
 50
248.5767027521151
 51
270.0
  0
ARC
  5
EF7C88F8F
330
EF7C85532
100
AcDbEntity
  8
JISSEN
100
AcDbCircle
 10
92.71912768001294
 20
167.0837282959545
 30
0.0
 40
24.90306398982813
100
AcDbArc
 50
273.1830548881973
 51
274.2673930577966
  0
ARC
  5
EF7C88F90
330
EF7C85532
100
AcDbEntity
  8
JISSEN
100
AcDbCircle
 10
92.71912768001341
 20
117.8211324198599
 30
0.0
 40
24.90306398982914
100
AcDbArc
 50
85.67111797139208
 51
86.89405938558067
  0
LINE
  5
EF7C88F91
330
EF7C85532
100
AcDbEntity
  8
JISSEN
100
AcDbLine
 10
94.94719500718884
 20
142.5883405388707
 30
0.0
 11
94.57219500718883
 21
142.5883405388707
 31
0.0
  0
ARC
  5
EF7C88F92
330
EF7C85532
100
AcDbEntity
  8
JISSEN
100
AcDbCircle
 10
93.8439248593508
 20
132.6802711707527
 30
0.0
 40
10.00141397672887
100
AcDbArc
 50
82.6319028082079
 51
85.67111797138881
  0
LINE
  5
EF7C88F93
330
EF7C85532
100
AcDbEntity
  8
JISSEN
100
AcDbLine
 10
95.69719500718889
 20
142.7893024331941
 30
0.0
 11
95.69719500718889
 21
146.1767394906033
 31
0.0
  0
LINE
  5
EF7C88F94
330
EF7C85532
100
AcDbEntity
  8
JISSEN
100
AcDbLine
 10
93.6971950071889
 20
150.816023699905
 30
0.0
 11
90.1971950071889
 21
150.816023699905
 31
0.0
  0
LINE
  5
EF7C88F95
330
EF7C85532
100
AcDbEntity
  8
JISSEN
100
AcDbLine
 10
93.6971950071889
 20
151.5991948400691
 30
0.0
 11
90.1971950071889
 21
151.5991948400691
 31
0.0
  0
ARC
  5
EF7C88F96
330
EF7C85532
100
AcDbEntity
  8
JISSEN
100
AcDbCircle
 10
90.51675865479968
 20
146.9999861955638
 30
0.0
 40
3.927849752435048
100
AcDbArc
 50
98.5626121814966
 51
103.6591051852965
  0
ARC
  5
EF7C88F97
330
EF7C85532
100
AcDbEntity
  8
JISSEN
100
AcDbCircle
 10
91.94719500718912
 20
155.329904841114
 30
0.0
 40
5.0
100
AcDbArc
 50
239.9999999999999
 51
243.6791901783917
  0
LINE
  5
EF7C88F98
330
EF7C85532
100
AcDbEntity
  8
JISSEN
100
AcDbLine
 10
89.09719500718892
 20
148.5030662418808
 30
0.0
 11
89.09719500718892
 21
150.1908344685776
 31
0.0
  0
ARC
  5
EF7C88F99
330
EF7C85532
100
AcDbEntity
  8
JISSEN
100
AcDbCircle
 10
91.37110486627875
 20
141.325845281877
 30
0.0
 40
9.665948963623709
100
AcDbArc
 50
96.97567628298456
 51
98.56261218149008
  0
ARC
  5
EF7C88F9A
330
EF7C85532
100
AcDbEntity
  8
JISSEN
100
AcDbCircle
 10
91.17526233436587
 20
123.6880469393149
 30
0.0
 40
24.90306398983088
100
AcDbArc
 50
92.13758614180552
 51
94.32888202860793
  0
ARC
  5
EF7C88F9B
330
EF7C85532
100
AcDbEntity
  8
JISSEN
100
AcDbCircle
 10
89.74719500718885
 20
151.7383405388707
 30
0.0
 40
0.2
100
AcDbArc
 50
270.0
 51
0.0
  0
LINE
  5
EF7C88F9C
330
EF7C85532
100
AcDbEntity
  8
JISSEN
100
AcDbLine
 10
89.22022531548027
 20
151.5383405388707
 30
0.0
 11
89.74719500718885
 21
151.5383405388707
 31
0.0
  0
ARC
  5
EF7C88F9D
330
EF7C85532
100
AcDbEntity
  8
JISSEN
100
AcDbCircle
 10
91.94719500718912
 20
155.329904841114
 30
0.0
 40
5.0
100
AcDbArc
 50
296.3208098216078
 51
300.0
  0
ARC
  5
EF7C88F9E
330
EF7C85532
100
AcDbEntity
  8
JISSEN
100
AcDbCircle
 10
93.37763135957812
 20
146.9999861955636
 30
0.0
 40
3.927849752435279
100
AcDbArc
 50
76.34089481470347
 51
81.43738781850341
  0
ARC
  5
EF7C88F9F
330
EF7C85532
100
AcDbEntity
  8
JISSEN
100
AcDbCircle
 10
92.52328514809835
 20
141.3258452818774
 30
0.0
 40
9.665948963623366
100
AcDbArc
 50
81.43738781850341
 51
83.02432371701216
  0
LINE
  5
EF7C88FA0
330
EF7C85532
100
AcDbEntity
  8
JISSEN
100
AcDbLine
 10
94.79719500718891
 20
150.1908344685776
 30
0.0
 11
94.79719500718891
 21
148.5030662418808
 31
0.0
  0
ARC
  5
EF7C88FA1
330
EF7C85532
100
AcDbEntity
  8
JISSEN
100
AcDbCircle
 10
94.15306393687831
 20
150.1908344685776
 30
0.0
 40
0.6441310703106079
100
AcDbArc
 50
0.0
 51
76.34089481470343
  0
ARC
  5
EF7C88FA2
330
EF7C85532
100
AcDbEntity
  8
JISSEN
100
AcDbCircle
 10
92.71912768001124
 20
123.6880469393166
 30
0.0
 40
24.90306398982923
100
AcDbArc
 50
85.67111797138881
 51
87.86241385819122
  0
ARC
  5
EF7C88FA3
330
EF7C85532
100
AcDbEntity
  8
JISSEN
100
AcDbCircle
 10
93.84392485935057
 20
138.5471856902095
 30
0.0
 40
10.00141397672878
100
AcDbArc
 50
79.64350735096402
 51
85.67111797138881
  0
LINE
  5
EF7C88FA4
330
EF7C85532
100
AcDbEntity
  8
JISSEN
100
AcDbLine
 10
95.69727016422701
 20
147.2064153514812
 30
0.0
 11
95.69727016422701
 21
147.5104321023996
 31
0.0
  0
LINE
  5
EF7C88FA5
330
EF7C85532
100
AcDbEntity
  8
JISSEN
100
AcDbLine
 10
95.69719500718889
 20
147.5089805736354
 30
0.0
 11
95.69719500718889
 21
148.3193448773643
 31
0.0
  0
ARC
  5
EF7C88FA6
330
EF7C85532
100
AcDbEntity
  8
JISSEN
100
AcDbCircle
 10
95.62978234628024
 20
148.3193448773643
 30
0.0
 40
0.0674126609086159
100
AcDbArc
 50
0.0000000000244267
 51
79.64350735095739
  0
LINE
  5
EF7C88FA7
330
EF7C85532
100
AcDbEntity
  8
JISSEN
100
AcDbLine
 10
94.67416469889741
 20
151.5383405388707
 30
0.0
 11
94.14719500718883
 21
151.5383405388707
 31
0.0
  0
ARC
  5
EF7C88FA8
330
EF7C85532
100
AcDbEntity
  8
JISSEN
100
AcDbCircle
 10
94.14719500718883
 20
151.7383405388707
 30
0.0
 40
0.2
100
AcDbArc
 50
180.0
 51
270.0
  0
LINE
  5
EF7C88FA9
330
EF7C85532
100
AcDbEntity
  8
JISSEN
100
AcDbLine
 10
95.20915101530802
 20
151.4396933285899
 30
0.0
 11
94.44719500718917
 21
150.9997778221918
 31
0.0
  0
LINE
  5
EF7C88FAA
330
EF7C85532
100
AcDbEntity
  8
JISSEN
100
AcDbLine
 10
85.9060322670191
 20
159.2883405388716
 30
0.0
 11
90.21728826226036
 21
159.2883405388715
 31
0.0
  0
LINE
  5
EF7C88FAB
330
EF7C85532
100
AcDbEntity
  8
JISSEN
100
AcDbLine
 10
84.40603226701956
 20
158.9883405388714
 30
0.0
 11
91.90603226701956
 21
158.9883405388714
 31
0.0
  0
LINE
  5
EF7C88FAC
330
EF7C85532
100
AcDbEntity
  8
JISSEN
100
AcDbLine
 10
84.40603226701956
 20
160.7007540037038
 30
0.0
 11
90.40603226701955
 21
160.7007540037038
 31
0.0
  0
LINE
  5
EF7C88FAD
330
EF7C85532
100
AcDbEntity
  8
JISSEN
100
AcDbLine
 10
84.65603226701956
 20
159.7224418401909
 30
0.0
 11
90.3627002767331
 21
159.7224418401909
 31
0.0
  0
LINE
  5
EF7C88FAE
330
EF7C85532
100
AcDbEntity
  8
JISSEN
100
AcDbLine
 10
83.70657077978682
 20
162.5007540037038
 30
0.0
 11
90.40603226701955
 21
162.5007540037038
 31
0.0
  0
LINE
  5
EF7C88FAF
330
EF7C85532
100
AcDbEntity
  8
JISSEN
100
AcDbLine
 10
84.40603226701956
 20
159.2883405388714
 30
0.0
 11
84.40603226701956
 21
156.6883405388715
 31
0.0
  0
LINE
  5
EF7C88FB0
330
EF7C85532
100
AcDbEntity
  8
JISSEN
100
AcDbLine
 10
85.9060322670191
 20
159.2883405388714
 30
0.0
 11
84.40603226701956
 21
159.2883405388714
 31
0.0
  0
LINE
  5
EF7C88FB1
330
EF7C85532
100
AcDbEntity
  8
JISSEN
100
AcDbLine
 10
84.40603226701956
 20
162.5007540037038
 30
0.0
 11
84.40603226701956
 21
160.7007540037038
 31
0.0
  0
ARC
  5
EF7C88FB2
330
EF7C85532
100
AcDbEntity
  8
JISSEN
100
AcDbCircle
 10
84.15603226701955
 20
159.4965625738217
 30
0.0
 40
0.5
100
AcDbArc
 50
33.02876887191203
 51
104.840214838518
  0
LINE
  5
EF7C88FB3
330
EF7C85532
100
AcDbEntity
  8
JISSEN
100
AcDbLine
 10
85.40791777653636
 20
159.2883405388714
 30
0.0
 11
84.57523076336679
 21
159.7690926100758
 31
0.0
  0
LINE
  5
EF7C88FB4
330
EF7C85532
100
AcDbEntity
  8
JISSEN
100
AcDbLine
 10
92.74345955438338
 20
156.3356450761673
 30
0.0
 11
90.82716544258762
 21
156.3356450761671
 31
0.0
  0
LINE
  5
EF7C88FB5
330
EF7C85532
100
AcDbEntity
  8
JISSEN
100
AcDbLine
 10
90.1971950071889
 20
153.3283942015011
 30
0.0
 11
93.6971950071889
 21
153.3283942015011
 31
0.0
  0
ARC
  5
EF7C88FB6
330
EF7C85532
100
AcDbEntity
  8
JISSEN
100
AcDbCircle
 10
91.7853124984856
 20
165.6866853508784
 30
0.0
 40
9.4
100
AcDbArc
 50
253.2252557359049
 51
264.1496496988334
  0
ARC
  5
EF7C88FB7
330
EF7C85532
100
AcDbEntity
  8
JISSEN
100
AcDbCircle
 10
90.24719500718886
 20
152.7558737563342
 30
0.0
 40
0.3
100
AcDbArc
 50
99.59406822683844
 51
180.0
  0
ARC
  5
EF7C88FB8
330
EF7C85532
100
AcDbEntity
  8
JISSEN
100
AcDbCircle
 10
91.7853124984856
 20
165.6866853508784
 30
0.0
 40
9.4
100
AcDbArc
 50
275.8503503011665
 51
286.7747442640951
  0
ARC
  5
EF7C88FB9
330
EF7C85532
100
AcDbEntity
  8
JISSEN
100
AcDbCircle
 10
93.64719500718882
 20
152.7558737563342
 30
0.0
 40
0.3
100
AcDbArc
 50
0.0
 51
80.4059317731351
  0
LINE
  5
EF7C88FBA
330
EF7C85532
100
AcDbEntity
  8
JISSEN
100
AcDbLine
 10
90.65603226701956
 20
163.5100283753507
 30
0.0
 11
89.20603226701951
 21
163.5100283753507
 31
0.0
  0
LINE
  5
EF7C88FBB
330
EF7C85532
100
AcDbEntity
  8
JISSEN
100
AcDbLine
 10
90.40603226701955
 20
160.7007540037038
 30
0.0
 11
90.40603226701955
 21
162.5007540037038
 31
0.0
  0
ARC
  5
EF7C88FBC
330
EF7C85532
100
AcDbEntity
  8
JISSEN
100
AcDbCircle
 10
83.65603226701955
 20
161.7275862757577
 30
0.0
 40
7.0
100
AcDbArc
 50
336.9632903547648
 51
0.0
  0
LINE
  5
EF7C88FBD
330
EF7C85532
100
AcDbEntity
  8
JISSEN
100
AcDbLine
 10
90.65603226701956
 20
163.5100283753507
 30
0.0
 11
90.65603226701956
 21
161.7275862757577
 31
0.0
  0
ARC
  5
EF7C88FBE
330
EF7C85532
100
AcDbEntity
  8
JISSEN
100
AcDbCircle
 10
100.1560322670195
 20
161.7275862757577
 30
0.0
 40
7.0
100
AcDbArc
 50
180.0
 51
203.0367096452355
  0
LINE
  5
EF7C88FBF
330
EF7C85532
100
AcDbEntity
  8
JISSEN
100
AcDbLine
 10
94.60603226701961
 20
163.5100283753507
 30
0.0
 11
93.15603226701956
 21
163.5100283753507
 31
0.0
  0
LINE
  5
EF7C88FC0
330
EF7C85532
100
AcDbEntity
  8
JISSEN
100
AcDbLine
 10
93.40603226701956
 20
162.5007540037038
 30
0.0
 11
93.40603226701956
 21
160.7007540037038
 31
0.0
  0
LINE
  5
EF7C88FC1
330
EF7C85532
100
AcDbEntity
  8
JISSEN
100
AcDbLine
 10
93.15603226701956
 20
163.5100283753507
 30
0.0
 11
93.15603226701956
 21
161.7275862757577
 31
0.0
  0
LINE
  5
EF7C88FC2
330
EF7C85532
100
AcDbEntity
  8
JISSEN
100
AcDbLine
 10
83.40603226701956
 20
182.5007540037038
 30
0.0
 11
81.62797803910734
 21
180.7226997757916
 31
0.0
  0
LINE
  5
EF7C88FC3
330
EF7C85532
100
AcDbEntity
  8
JISSEN
100
AcDbLine
 10
81.24251791269376
 20
168.3885921218126
 30
0.0
 11
82.40603226701955
 21
168.0007540037038
 31
0.0
  0
LINE
  5
EF7C88FC4
330
EF7C85532
100
AcDbEntity
  8
JISSEN
100
AcDbLine
 10
81.24251791269376
 20
168.3885921218126
 30
0.0
 11
91.90603226701956
 21
168.3885921218126
 31
0.0
  0
LINE
  5
EF7C88FC5
330
EF7C85532
100
AcDbEntity
  8
JISSEN
100
AcDbLine
 10
81.16146962048151
 20
166.5007540037039
 30
0.0
 11
88.90603226701955
 21
166.5007540037039
 31
0.0
  0
LINE
  5
EF7C88FC6
330
EF7C85532
100
AcDbEntity
  8
JISSEN
100
AcDbLine
 10
71.97461554495089
 20
172.0577396729264
 30
0.0
 11
71.97461554495089
 21
177.0577396729264
 31
0.0
  0
LINE
  5
EF7C88FC7
330
EF7C85532
100
AcDbEntity
  8
JISSEN
100
AcDbLine
 10
81.24251791269376
 20
168.3885921218126
 30
0.0
 11
81.62797803910734
 21
180.7226997757916
 31
0.0
  0
LINE
  5
EF7C88FC8
330
EF7C85532
100
AcDbEntity
  8
SAISEN
100
AcDbLine
 10
82.82746384374513
 20
181.9221855804295
 30
0.0
 11
82.39253793875946
 21
168.0052521131239
 31
0.0
  0
ARC
  5
EF7C88FC9
330
EF7C85532
100
AcDbEntity
  8
JISSEN
100
AcDbCircle
 10
89.20603226701951
 20
165.2100283753507
 30
0.0
 40
0.3
100
AcDbArc
 50
90.0
 51
180.0
  0
LINE
  5
EF7C88FCA
330
EF7C85532
100
AcDbEntity
  8
JISSEN
100
AcDbLine
 10
82.40603226701955
 20
168.0007540037038
 30
0.0
 11
91.90603226701956
 21
168.0007540037038
 31
0.0
  0
LINE
  5
EF7C88FCB
330
EF7C85532
100
AcDbEntity
  8
JISSEN
100
AcDbLine
 10
82.40603226701955
 20
166.5007540037039
 30
0.0
 11
82.40603226701955
 21
168.0007540037038
 31
0.0
  0
LINE
  5
EF7C88FCC
330
EF7C85532
100
AcDbEntity
  8
JISSEN
100
AcDbLine
 10
88.90603226701955
 20
163.8100283753507
 30
0.0
 11
88.90603226701955
 21
165.2100283753507
 31
0.0
  0
LINE
  5
EF7C88FCD
330
EF7C85532
100
AcDbEntity
  8
JISSEN
100
AcDbLine
 10
88.90603226701955
 20
166.5007540037039
 30
0.0
 11
88.90603226701955
 21
168.0007540037038
 31
0.0
  0
LINE
  5
EF7C88FCE
330
EF7C85532
100
AcDbEntity
  8
JISSEN
100
AcDbLine
 10
89.20603226701951
 20
165.5100283753507
 30
0.0
 11
94.60603226701961
 21
165.5100283753507
 31
0.0
  0
LINE
  5
EF7C88FCF
330
EF7C85532
100
AcDbEntity
  8
JISSEN
100
AcDbLine
 10
94.90603226701955
 20
165.2100283753507
 30
0.0
 11
94.90603226701955
 21
163.8100283753507
 31
0.0
  0
ARC
  5
EF7C88FD0
330
EF7C85532
100
AcDbEntity
  8
JISSEN
100
AcDbCircle
 10
94.60603226701961
 20
165.2100283753507
 30
0.0
 40
0.3
100
AcDbArc
 50
0.0
 51
90.0
  0
LINE
  5
EF7C88FD1
330
EF7C85532
100
AcDbEntity
  8
JISSEN
100
AcDbLine
 10
94.90603226701955
 20
168.0007540037038
 30
0.0
 11
94.90603226701955
 21
166.5007540037039
 31
0.0
  0
LINE
  5
EF7C88FD2
330
EF7C85532
100
AcDbEntity
  8
JISSEN
100
AcDbLine
 10
83.40603226701956
 20
182.5007540037038
 30
0.0
 11
91.90603226701956
 21
182.5007540037038
 31
0.0
  0
ARC
  5
EF7C88FD3
330
EF7C85532
100
AcDbEntity
  8
JISSEN
100
AcDbCircle
 10
105.7937807986879
 20
169.6438713320802
 30
0.0
 40
6.498907295833106
100
AcDbArc
 50
219.1009608744954
 51
255.3209199478007
  0
LINE
  5
EF7C88FD4
330
EF7C85532
100
AcDbEntity
  8
JISSEN
100
AcDbLine
 10
100.1054937542523
 20
166.5007540037039
 30
0.0
 11
100.1054937542523
 21
162.5007540037038
 31
0.0
  0
ARC
  5
EF7C88FD5
330
EF7C85532
100
AcDbEntity
  8
JISSEN
100
AcDbCircle
 10
96.90603226701956
 20
150.5007540037038
 30
0.0
 40
17.0
100
AcDbArc
 50
0.0
 51
70.25007720435737
  0
ARC
  5
EF7C88FD6
330
EF7C85532
100
AcDbEntity
  8
JISSEN
100
AcDbCircle
 10
99.11727905054192
 20
149.8990962808592
 30
0.0
 40
10.80551655320168
100
AcDbArc
 50
3.191914576125969
 51
88.46871639638065
  0
ARC
  5
EF7C88FD7
330
EF7C85532
100
AcDbEntity
  8
JISSEN
100
AcDbCircle
 10
96.90603226701956
 20
150.5007540037038
 30
0.0
 40
15.0
100
AcDbArc
 50
0.0
 51
53.31701119964015
  0
ARC
  5
EF7C88FD8
330
EF7C85532
100
AcDbEntity
  8
JISSEN
100
AcDbCircle
 10
85.94719500718884
 20
147.8383405388707
 30
0.0
 40
13.5
100
AcDbArc
 50
0.0
 51
40.9617885523541
  0
ARC
  5
EF7C88FD9
330
EF7C85532
100
AcDbEntity
  8
JISSEN
100
AcDbCircle
 10
96.96672721934374
 20
149.3468020662754
 30
0.0
 40
11.0
100
AcDbArc
 50
6.021677192634045
 51
75.15978516148194
  0
LINE
  5
EF7C88FDA
330
EF7C85532
100
AcDbEntity
  8
JISSEN
100
AcDbLine
 10
96.44719500718885
 20
144.0883405388707
 30
0.0
 11
96.44719500718885
 21
147.8383405388707
 31
0.0
  0
LINE
  5
EF7C88FDB
330
EF7C85532
100
AcDbEntity
  8
JISSEN
100
AcDbLine
 10
99.44719500718884
 20
142.8383405388707
 30
0.0
 11
99.44719500718884
 21
147.8383405388707
 31
0.0
  0
LINE
  5
EF7C88FDC
330
EF7C85532
100
AcDbEntity
  8
JISSEN
100
AcDbLine
 10
99.40603226701956
 20
159.2883405388714
 30
0.0
 11
99.40603226701956
 21
156.6883405388715
 31
0.0
  0
ARC
  5
EF7C88FDD
330
EF7C85532
100
AcDbEntity
  8
JISSEN
100
AcDbCircle
 10
99.65603226701956
 20
159.4965625738217
 30
0.0
 40
0.5
100
AcDbArc
 50
75.15978516148199
 51
146.9712311280871
  0
LINE
  5
EF7C88FDE
330
EF7C85532
100
AcDbEntity
  8
JISSEN
100
AcDbLine
 10
99.40603226701956
 20
162.5007540037038
 30
0.0
 11
99.40603226701956
 21
160.7007540037038
 31
0.0
  0
LINE
  5
EF7C88FDF
330
EF7C85532
100
AcDbEntity
  8
JISSEN
100
AcDbLine
 10
97.90603226702002
 20
159.2883405388714
 30
0.0
 11
99.40603226701956
 21
159.2883405388714
 31
0.0
  0
LINE
  5
EF7C88FE0
330
EF7C85532
100
AcDbEntity
  8
JISSEN
100
AcDbLine
 10
98.40414675750276
 20
159.2883405388714
 30
0.0
 11
99.23683377067323
 21
159.7690926100763
 31
0.0
  0
ARC
  5
EF7C88FE1
330
EF7C85532
100
AcDbEntity
  8
JISSEN
100
AcDbCircle
 10
102.8799029899441
 20
158.5202844504185
 30
0.0
 40
5.0
100
AcDbArc
 50
53.31701119964015
 51
75.32091994780396
  0
LINE
  5
EF7C88FE2
330
EF7C85532
100
AcDbEntity
  8
SAISEN
100
AcDbLine
 10
100.9846006902939
 20
181.9221855804295
 30
0.0
 11
101.4195265952796
 21
168.0052521131239
 31
0.0
  0
LINE
  5
EF7C88FE3
330
EF7C85532
100
AcDbEntity
  8
JISSEN
100
AcDbLine
 10
102.5695466213453
 20
168.3885921218126
 30
0.0
 11
102.1840864949317
 21
180.7226997757916
 31
0.0
  0
LINE
  5
EF7C88FE4
330
EF7C85532
100
AcDbEntity
  8
JISSEN
100
AcDbLine
 10
102.5695466213453
 20
168.3885921218126
 30
0.0
 11
101.4060322670195
 21
168.0007540037038
 31
0.0
  0
LINE
  5
EF7C88FE5
330
EF7C85532
100
AcDbEntity
  8
JISSEN
100
AcDbLine
 10
101.4060322670195
 20
166.5007540037039
 30
0.0
 11
101.4060322670195
 21
168.0007540037038
 31
0.0
  0
LINE
  5
EF7C88FE6
330
EF7C85532
100
AcDbEntity
  8
JISSEN
100
AcDbLine
 10
100.4060322670195
 20
182.5007540037038
 30
0.0
 11
102.1840864949317
 21
180.7226997757916
 31
0.0
  0
LINE
  5
EF7C88FE7
330
EF7C85532
100
AcDbEntity
  8
JISSEN
100
AcDbLine
 10
111.9746155449509
 20
177.0577396729264
 30
0.0
 11
111.9746155449509
 21
172.0577396729265
 31
0.0
  0
POLYLINE
  5
EF7C88FE8
330
EF7C85532
100
AcDbEntity
  8
JISSEN
 62
     0
100
AcDb2dPolyline
 66
     1
 10
0.0
 20
0.0
 30
0.0
 70
     4
 75
     6
  0
VERTEX
  5
EF7C88FE9
330
EF7C88FE8
100
AcDbEntity
  8
JISSEN
 62
     0
100
AcDbVertex
100
AcDb2dVertex
 10
129.4746155449509
 20
177.0577396729264
 30
0.0
 70
    16
  0
VERTEX
  5
EF7C88FEA
330
EF7C88FE8
100
AcDbEntity
  8
JISSEN
 62
     0
100
AcDbVertex
100
AcDb2dVertex
 10
129.4746155449509
 20
177.0577396729264
 30
0.0
 70
     8
  0
VERTEX
  5
EF7C88FEB
330
EF7C88FE8
100
AcDbEntity
  8
JISSEN
 62
     0
100
AcDbVertex
100
AcDb2dVertex
 10
129.889540451755
 20
176.8552355076463
 30
0.0
 70
     8
  0
VERTEX
  5
EF7C88FEC
330
EF7C88FE8
100
AcDbEntity
  8
JISSEN
 62
     0
100
AcDbVertex
100
AcDb2dVertex
 10
130.1265173020786
 20
176.6775829242693
 30
0.0
 70
     8
  0
VERTEX
  5
EF7C88FED
330
EF7C88FE8
100
AcDbEntity
  8
JISSEN
 62
     0
100
AcDbVertex
100
AcDb2dVertex
 10
130.2240301460136
 20
176.5222870104672
 30
0.0
 70
     8
  0
VERTEX
  5
EF7C88FEE
330
EF7C88FE8
100
AcDbEntity
  8
JISSEN
 62
     0
100
AcDbVertex
100
AcDb2dVertex
 10
130.2205630336512
 20
176.3868528539121
 30
0.0
 70
     8
  0
VERTEX
  5
EF7C88FEF
330
EF7C88FE8
100
AcDbEntity
  8
JISSEN
 62
     0
100
AcDbVertex
100
AcDb2dVertex
 10
130.1546000150836
 20
176.2687855422765
 30
0.0
 70
     8
  0
VERTEX
  5
EF7C88FF0
330
EF7C88FE8
100
AcDbEntity
  8
JISSEN
 62
     0
100
AcDbVertex
100
AcDb2dVertex
 10
130.0646251404019
 20
176.1655901632321
 30
0.0
 70
     8
  0
VERTEX
  5
EF7C88FF1
330
EF7C88FE8
100
AcDbEntity
  8
JISSEN
 62
     0
100
AcDbVertex
100
AcDb2dVertex
 10
129.9891224596979
 20
176.0747718044514
 30
0.0
 70
     8
  0
VERTEX
  5
EF7C88FF2
330
EF7C88FE8
100
AcDbEntity
  8
JISSEN
 62
     0
100
AcDbVertex
100
AcDb2dVertex
 10
129.9665760230635
 20
175.9938355536062
 30
0.0
 70
     8
  0
VERTEX
  5
EF7C88FF3
330
EF7C88FE8
100
AcDbEntity
  8
JISSEN
 62
     0
100
AcDbVertex
100
AcDb2dVertex
 10
130.0246861701046
 20
175.9203739968727
 30
0.0
 70
     8
  0
VERTEX
  5
EF7C88FF4
330
EF7C88FE8
100
AcDbEntity
  8
JISSEN
 62
     0
100
AcDbVertex
100
AcDb2dVertex
 10
130.1480183984873
 20
175.8523297144438
 30
0.0
 70
     8
  0
VERTEX
  5
EF7C88FF5
330
EF7C88FE8
100
AcDbEntity
  8
JISSEN
 62
     0
100
AcDbVertex
100
AcDb2dVertex
 10
130.3103544953917
 20
175.787732785016
 30
0.0
 70
     8
  0
VERTEX
  5
EF7C88FF6
330
EF7C88FE8
100
AcDbEntity
  8
JISSEN
 62
     0
100
AcDbVertex
100
AcDb2dVertex
 10
130.485476247999
 20
175.7246132872858
 30
0.0
 70
     8
  0
VERTEX
  5
EF7C88FF7
330
EF7C88FE8
100
AcDbEntity
  8
JISSEN
 62
     0
100
AcDbVertex
100
AcDb2dVertex
 10
130.6471654434893
 20
175.6610012999503
 30
0.0
 70
     8
  0
VERTEX
  5
EF7C88FF8
330
EF7C88FE8
100
AcDbEntity
  8
JISSEN
 62
     0
100
AcDbVertex
100
AcDb2dVertex
 10
130.7692038690432
 20
175.594926901706
 30
0.0
 70
     8
  0
VERTEX
  5
EF7C88FF9
330
EF7C88FE8
100
AcDbEntity
  8
JISSEN
 62
     0
100
AcDbVertex
100
AcDb2dVertex
 10
130.8253733118413
 20
175.5244201712495
 30
0.0
 70
     8
  0
VERTEX
  5
EF7C88FFA
330
EF7C88FE8
100
AcDbEntity
  8
JISSEN
 62
     0
100
AcDbVertex
100
AcDb2dVertex
 10
130.789455559064
 20
175.4475111872777
 30
0.0
 70
     8
  0
VERTEX
  5
EF7C88FFB
330
EF7C88FE8
100
AcDbEntity
  8
JISSEN
 62
     0
100
AcDbVertex
100
AcDb2dVertex
 10
130.6444185266757
 20
175.3627840693952
 30
0.0
 70
     8
  0
VERTEX
  5
EF7C88FFC
330
EF7C88FE8
100
AcDbEntity
  8
JISSEN
 62
     0
100
AcDbVertex
100
AcDb2dVertex
 10
130.4099746457744
 20
175.2710391008379
 30
0.0
 70
     8
  0
VERTEX
  5
EF7C88FFD
330
EF7C88FE8
100
AcDbEntity
  8
JISSEN
 62
     0
100
AcDbVertex
100
AcDb2dVertex
 10
130.1150224762421
 20
175.1736306057498
 30
0.0
 70
     8
  0
VERTEX
  5
EF7C88FFE
330
EF7C88FE8
100
AcDbEntity
  8
JISSEN
 62
     0
100
AcDbVertex
100
AcDb2dVertex
 10
129.7884605779607
 20
175.0719129082747
 30
0.0
 70
     8
  0
VERTEX
  5
EF7C88FFF
330
EF7C88FE8
100
AcDbEntity
  8
JISSEN
 62
     0
100
AcDbVertex
100
AcDb2dVertex
 10
129.4591875108122
 20
174.9672403325564
 30
0.0
 70
     8
  0
VERTEX
  5
EF7C89000
330
EF7C88FE8
100
AcDbEntity
  8
JISSEN
 62
     0
100
AcDbVertex
100
AcDb2dVertex
 10
129.1561018346779
 20
174.8609672027391
 30
0.0
 70
     8
  0
VERTEX
  5
EF7C89001
330
EF7C88FE8
100
AcDbEntity
  8
JISSEN
 62
     0
100
AcDbVertex
100
AcDb2dVertex
 10
128.9081021094405
 20
174.7544478429664
 30
0.0
 70
     8
  0
VERTEX
  5
EF7C89002
330
EF7C88FE8
100
AcDbEntity
  8
JISSEN
 62
     0
100
AcDbVertex
100
AcDb2dVertex
 10
128.7440868949812
 20
174.6490365773822
 30
0.0
 70
     8
  0
VERTEX
  5
EF7C89003
330
EF7C88FE8
100
AcDbEntity
  8
JISSEN
 62
     0
100
AcDbVertex
100
AcDb2dVertex
 10
128.6843488543986
 20
174.5457491485997
 30
0.0
 70
     8
  0
VERTEX
  5
EF7C89004
330
EF7C88FE8
100
AcDbEntity
  8
JISSEN
 62
     0
100
AcDbVertex
100
AcDb2dVertex
 10
128.7147570636566
 20
174.4442469731084
 30
0.0
 70
     8
  0
VERTEX
  5
EF7C89005
330
EF7C88FE8
100
AcDbEntity
  8
JISSEN
 62
     0
100
AcDbVertex
100
AcDb2dVertex
 10
128.8125747019356
 20
174.3438528858665
 30
0.0
 70
     8
  0
VERTEX
  5
EF7C89006
330
EF7C88FE8
100
AcDbEntity
  8
JISSEN
 62
     0
100
AcDbVertex
100
AcDb2dVertex
 10
128.9550649484158
 20
174.243889721833
 30
0.0
 70
     8
  0
VERTEX
  5
EF7C89007
330
EF7C88FE8
100
AcDbEntity
  8
JISSEN
 62
     0
100
AcDbVertex
100
AcDb2dVertex
 10
129.119490982278
 20
174.143680315966
 30
0.0
 70
     8
  0
VERTEX
  5
EF7C89008
330
EF7C88FE8
100
AcDbEntity
  8
JISSEN
 62
     0
100
AcDbVertex
100
AcDb2dVertex
 10
129.2831159827024
 20
174.0425475032245
 30
0.0
 70
     8
  0
VERTEX
  5
EF7C89009
330
EF7C88FE8
100
AcDbEntity
  8
JISSEN
 62
     0
100
AcDbVertex
100
AcDb2dVertex
 10
129.4232031288693
 20
173.9398141185668
 30
0.0
 70
     8
  0
VERTEX
  5
EF7C8900A
330
EF7C88FE8
100
AcDbEntity
  8
JISSEN
 62
     0
100
AcDbVertex
100
AcDb2dVertex
 10
129.517015599959
 20
173.8348029969517
 30
0.0
 70
     8
  0
VERTEX
  5
EF7C8900B
330
EF7C88FE8
100
AcDbEntity
  8
JISSEN
 62
     0
100
AcDbVertex
100
AcDb2dVertex
 10
129.5487074550233
 20
173.7271191249433
 30
0.0
 70
     8
  0
VERTEX
  5
EF7C8900C
330
EF7C88FE8
100
AcDbEntity
  8
JISSEN
 62
     0
100
AcDbVertex
100
AcDb2dVertex
 10
129.5299962725988
 20
173.6174960955283
 30
0.0
 70
     8
  0
VERTEX
  5
EF7C8900D
330
EF7C88FE8
100
AcDbEntity
  8
JISSEN
 62
     0
100
AcDbVertex
100
AcDb2dVertex
 10
129.4794905110932
 20
173.5069496532998
 30
0.0
 70
     8
  0
VERTEX
  5
EF7C8900E
330
EF7C88FE8
100
AcDbEntity
  8
JISSEN
 62
     0
100
AcDbVertex
100
AcDb2dVertex
 10
129.4157986289145
 20
173.3964955428505
 30
0.0
 70
     8
  0
VERTEX
  5
EF7C8900F
330
EF7C88FE8
100
AcDbEntity
  8
JISSEN
 62
     0
100
AcDbVertex
100
AcDb2dVertex
 10
129.3575290844701
 20
173.2871495087727
 30
0.0
 70
     8
  0
VERTEX
  5
EF7C89010
330
EF7C88FE8
100
AcDbEntity
  8
JISSEN
 62
     0
100
AcDbVertex
100
AcDb2dVertex
 10
129.3232903361682
 20
173.1799272956592
 30
0.0
 70
     8
  0
VERTEX
  5
EF7C89011
330
EF7C88FE8
100
AcDbEntity
  8
JISSEN
 62
     0
100
AcDbVertex
100
AcDb2dVertex
 10
129.3316908424163
 20
173.0758446481028
 30
0.0
 70
     8
  0
VERTEX
  5
EF7C89012
330
EF7C88FE8
100
AcDbEntity
  8
JISSEN
 62
     0
100
AcDbVertex
100
AcDb2dVertex
 10
129.4013390616221
 20
172.9759173106958
 30
0.0
 70
     8
  0
VERTEX
  5
EF7C89013
330
EF7C88FE8
100
AcDbEntity
  8
JISSEN
 62
     0
100
AcDbVertex
100
AcDb2dVertex
 10
129.5412304796437
 20
172.8803988415957
 30
0.0
 70
     8
  0
VERTEX
  5
EF7C89014
330
EF7C88FE8
100
AcDbEntity
  8
JISSEN
 62
     0
100
AcDbVertex
100
AcDb2dVertex
 10
129.7219086921371
 20
172.7864940532169
 30
0.0
 70
     8
  0
VERTEX
  5
EF7C89015
330
EF7C88FE8
100
AcDbEntity
  8
JISSEN
 62
     0
100
AcDbVertex
100
AcDb2dVertex
 10
129.9043043222086
 20
172.6906455715389
 30
0.0
 70
     8
  0
VERTEX
  5
EF7C89016
330
EF7C88FE8
100
AcDbEntity
  8
JISSEN
 62
     0
100
AcDbVertex
100
AcDb2dVertex
 10
130.0493479929642
 20
172.5892960225406
 30
0.0
 70
     8
  0
VERTEX
  5
EF7C89017
330
EF7C88FE8
100
AcDbEntity
  8
JISSEN
 62
     0
100
AcDbVertex
100
AcDb2dVertex
 10
130.11797032751
 20
172.4788880322009
 30
0.0
 70
     8
  0
VERTEX
  5
EF7C89018
330
EF7C88FE8
100
AcDbEntity
  8
JISSEN
 62
     0
100
AcDbVertex
100
AcDb2dVertex
 10
130.0711019489525
 20
172.3558642264994
 30
0.0
 70
     8
  0
VERTEX
  5
EF7C89019
330
EF7C88FE8
100
AcDbEntity
  8
JISSEN
 62
     0
100
AcDbVertex
100
AcDb2dVertex
 10
129.8696734803973
 20
172.2166672314149
 30
0.0
 70
     8
  0
VERTEX
  5
EF7C8901A
330
EF7C88FE8
100
AcDbEntity
  8
JISSEN
 62
     0
100
AcDbVertex
100
AcDb2dVertex
 10
129.4746155449509
 20
172.0577396729265
 30
0.0
 70
     8
  0
VERTEX
  5
EF7C8901B
330
EF7C88FE8
100
AcDbEntity
  8
JISSEN
 62
     0
100
AcDbVertex
100
AcDb2dVertex
 10
130.852554082928
 20
176.4823754231289
 30
0.0
 70
    16
  0
VERTEX
  5
EF7C8901C
330
EF7C88FE8
100
AcDbEntity
  8
JISSEN
 62
     0
100
AcDbVertex
100
AcDb2dVertex
 10
128.9912128853468
 20
175.9150388004574
 30
0.0
 70
    16
  0
VERTEX
  5
EF7C8901D
330
EF7C88FE8
100
AcDbEntity
  8
JISSEN
 62
     0
100
AcDbVertex
100
AcDb2dVertex
 10
132.0513799152748
 20
175.5368143853435
 30
0.0
 70
    16
  0
VERTEX
  5
EF7C8901E
330
EF7C88FE8
100
AcDbEntity
  8
JISSEN
 62
     0
100
AcDbVertex
100
AcDb2dVertex
 10
127.5400008079389
 20
174.6227707818358
 30
0.0
 70
    16
  0
VERTEX
  5
EF7C8901F
330
EF7C88FE8
100
AcDbEntity
  8
JISSEN
 62
     0
100
AcDbVertex
100
AcDb2dVertex
 10
130.253138222857
 20
173.8663219516075
 30
0.0
 70
    16
  0
VERTEX
  5
EF7C89020
330
EF7C88FE8
100
AcDbEntity
  8
JISSEN
 62
     0
100
AcDbVertex
100
AcDb2dVertex
 10
128.5495399003878
 20
172.9207593934444
 30
0.0
 70
    16
  0
VERTEX
  5
EF7C89021
330
EF7C88FE8
100
AcDbEntity
  8
JISSEN
 62
     0
100
AcDbVertex
100
AcDb2dVertex
 10
130.8210043303464
 20
172.5110160236746
 30
0.0
 70
    16
  0
VERTEX
  5
EF7C89022
330
EF7C88FE8
100
AcDbEntity
  8
JISSEN
 62
     0
100
AcDbVertex
100
AcDb2dVertex
 10
129.4746155449509
 20
172.0577396729264
 30
0.0
 70
    16
  0
SEQEND
  5
EF7C89023
330
EF7C88FE8
100
AcDbEntity
  8
JISSEN
 62
     0
  0
TEXT
  5
EF7C89024
330
EF7C85532
100
AcDbEntity
  8
TEXT
100
AcDbText
 10
106.7928564188571
 20
272.4999999999999
 30
0.0
 40
3.0
  1
DP 型ヘッド
 41
0.9
  7
K
 72
     4
 11
116.4999992759999
 21
273.9999999999999
 31
0.0
100
AcDbText
  0
TEXT
  5
EF7C89025
330
EF7C85532
100
AcDbEntity
  8
TEXT
100
AcDbText
 10
107.8999992759999
 20
278.4999999999999
 30
0.0
 40
3.0
  1
名      称
  7
K
 72
     4
 11
116.4999992759999
 21
279.9999999999999
 31
0.0
100
AcDbText
  0
TEXT
  5
EF7C89026
330
EF7C85532
100
AcDbEntity
  8
TEXT
100
AcDbText
 10
95.28571356171427
 20
272.4999999999999
 30
0.0
 40
3.0
  1
1
  7
K
 72
     4
 11
96.49999927599999
 21
273.9999999999999
 31
0.0
100
AcDbText
  0
LWPOLYLINE
  5
EF7C89029
330
EF7C85532
100
AcDbEntity
  8
NITEN
100
AcDbPolyline
 90
        2
 70
     0
 43
0.0
 10
108.9060322670197
 20
233.4490205605735
 42
0.5882352941176294
 10
91.90603226701961
 20
233.4490205605737
 42
0.5882352941176294
  0
TEXT
  5
EF7C8902A
330
EF7C85532
100
AcDbEntity
  8
TEXT
100
AcDbText
 10
93.29999927599997
 20
278.4999999999999
 30
0.0
 40
3.0
  1
番号
  7
K
 72
     4
 11
96.49999927599999
 21
279.9999999999999
 31
0.0
100
AcDbText
  0
TEXT
  5
EF7C8902B
330
EF7C85532
100
AcDbEntity
  8
TEXT
100
AcDbText
 10
156.6795477624092
 20
272.4999999999999
 30
0.0
 40
3.0
  1
1
  7
K
 72
     4
 11
157.8938334766949
 21
273.9999999999999
 31
0.0
100
AcDbText
  0
TEXT
  5
EF7C8902F
330
EF7C85532
100
AcDbEntity
  8
TEXT
100
AcDbText
 10
136.8249992759999
 20
274.2999999999999
 30
0.0
 40
3.0
  1
%%u      
  7
K
 72
     4
 11
141.9999992759999
 21
273.9999999999999
 31
0.0
100
AcDbText
  0
TEXT
  5
EF7C89030
330
EF7C85532
100
AcDbEntity
  8
TEXT
100
AcDbText
 10
135.1999992759999
 20
278.4999999999999
 30
0.0
 40
3.0
  1
材    質
  7
K
 72
     4
 11
141.9999992759999
 21
279.9999999999999
 31
0.0
100
AcDbText
  0
TEXT
  5
EF7C89031
330
EF7C85532
100
AcDbEntity
  8
TEXT
100
AcDbText
 10
165.6999992759999
 20
278.4999999999999
 30
0.0
 40
3.0
  1
備    考
  7
K
 72
     4
 11
172.4999992759999
 21
279.9999999999999
 31
0.0
100
AcDbText
  0
TEXT
  5
EF7C89032
330
EF7C85532
100
AcDbEntity
  8
TEXT
100
AcDbText
 10
154.7999992759999
 20
278.4999999999999
 30
0.0
 40
3.0
  1
個数
  7
K
 72
     4
 11
157.9999992759999
 21
279.9999999999999
 31
0.0
100
AcDbText
  0
ARC
  5
EF7C89033
330
EF7C85532
100
AcDbEntity
  8
JISSEN
100
AcDbCircle
 10
264.9060315430195
 20
150.5007540037038
 30
0.0
 40
30.0
100
AcDbArc
 50
319.7809012554437
 51
0.0
  0
ARC
  5
EF7C89034
330
EF7C85532
100
AcDbEntity
  8
JISSEN
100
AcDbCircle
 10
264.9060315430195
 20
150.5007540037038
 30
0.0
 40
28.0
100
AcDbArc
 50
337.975687162958
 51
0.0
  0
ARC
  5
EF7C89035
330
EF7C85532
100
AcDbEntity
  8
JISSEN
100
AcDbCircle
 10
264.9060315430195
 20
150.5007540037038
 30
0.0
 40
26.0
100
AcDbArc
 50
336.1811586065437
 51
0.0
  0
ARC
  5
EF7C89036
330
EF7C85532
100
AcDbEntity
  8
JISSEN
100
AcDbCircle
 10
280.9060315430195
 20
150.5007540037038
 30
0.0
 40
24.0
100
AcDbArc
 50
180.0
 51
237.8181160795958
  0
ARC
  5
EF7C89037
330
EF7C85532
100
AcDbEntity
  8
JISSEN
100
AcDbCircle
 10
280.9060315430195
 20
150.5007540037038
 30
0.0
 40
30.0
100
AcDbArc
 50
180.0
 51
220.2190987445562
  0
ARC
  5
EF7C89038
330
EF7C85532
100
AcDbEntity
  8
JISSEN
100
AcDbCircle
 10
280.9060315430195
 20
150.5007540037038
 30
0.0
 40
28.0
100
AcDbArc
 50
180.0
 51
202.0243128370419
  0
ARC
  5
EF7C89039
330
EF7C85532
100
AcDbEntity
  8
JISSEN
100
AcDbCircle
 10
280.9060315430195
 20
150.5007540037038
 30
0.0
 40
26.0
100
AcDbArc
 50
180.0
 51
203.8188413934562
  0
ARC
  5
EF7C8903A
330
EF7C85532
100
AcDbEntity
  8
JISSEN
100
AcDbCircle
 10
264.9060315430195
 20
150.5007540037038
 30
0.0
 40
24.0
100
AcDbArc
 50
302.1818839204041
 51
0.0
  0
INSERT
  5
EF7C8903B
330
EF7C85532
100
AcDbEntity
  8
WAKU
100
AcDbBlockReference
  2
WAKU
 10
180.9999992759999
 20
0.0
 30
0.0
 41
181.0
 42
283.0
 43
181.0
  0
LINE
  5
EF7C8903C
330
EF7C85532
100
AcDbEntity
  8
JISSEN
100
AcDbLine
 10
269.4925158387255
 20
119.5007624031977
 30
0.0
 11
265.5877723354249
 21
119.5007624031977
 31
0.0
  0
LINE
  5
EF7C8903D
330
EF7C85532
100
AcDbEntity
  8
JISSEN
100
AcDbLine
 10
263.3854644924677
 20
116.7007540037038
 30
0.0
 11
272.9060315430195
 21
116.7007540037038
 31
0.0
  0
LINE
  5
EF7C8903E
330
EF7C85532
100
AcDbEntity
  8
JISSEN
100
AcDbLine
 10
253.9060315430195
 20
117.8635266541729
 30
0.0
 11
291.9060315430195
 21
117.8635266541731
 31
0.0
  0
LINE
  5
EF7C8903F
330
EF7C85532
100
AcDbEntity
  8
JISSEN
100
AcDbLine
 10
291.7323833653525
 20
116.8787189011607
 30
0.0
 11
254.0796797206864
 21
116.8787189011607
 31
0.0
  0
LINE
  5
EF7C89040
330
EF7C85532
100
AcDbEntity
  8
JISSEN
100
AcDbLine
 10
257.9986065849137
 20
131.1293864270782
 30
0.0
 11
267.8322020583873
 21
119.5007624031977
 31
0.0
  0
ARC
  5
EF7C89041
330
EF7C85532
100
AcDbEntity
  8
JISSEN
100
AcDbCircle
 10
264.739244198001
 20
118.5007624031972
 30
0.0
 40
1.0
100
AcDbArc
 50
47.91894748809134
 51
146.3490341753983
  0
LINE
  5
EF7C89042
330
EF7C85532
100
AcDbEntity
  8
JISSEN
100
AcDbLine
 10
264.4551379819038
 20
117.863526654173
 30
0.0
 11
265.5877723354249
 21
119.5007624031977
 31
0.0
  0
LINE
  5
EF7C89043
330
EF7C85532
100
AcDbEntity
  8
JISSEN
100
AcDbLine
 10
260.691199311043
 20
117.8635266541729
 30
0.0
 11
262.4848394852538
 21
119.5007624031977
 31
0.0
  0
ARC
  5
EF7C89044
330
EF7C85532
100
AcDbEntity
  8
JISSEN
100
AcDbCircle
 10
261.9400234558302
 20
118.1452624031976
 30
0.0
 40
1.355499999999999
100
AcDbArc
 50
70.26879749382175
 51
124.999999999997
  0
LINE
  5
EF7C89045
330
EF7C85532
100
AcDbEntity
  8
JISSEN
100
AcDbLine
 10
255.8185428794935
 20
118.2007540037038
 30
0.0
 11
259.6560315430195
 21
118.2007540037038
 31
0.0
  0
LINE
  5
EF7C89046
330
EF7C85532
100
AcDbEntity
  8
JISSEN
100
AcDbLine
 10
254.906031543019
 20
118.0398536348811
 30
0.0
 11
255.8185428794933
 21
118.2007540037038
 31
0.0
  0
LINE
  5
EF7C89047
330
EF7C85532
100
AcDbEntity
  8
JISSEN
100
AcDbLine
 10
253.9060315430195
 20
117.8635266541729
 30
0.0
 11
254.906031543019
 21
118.0398536348811
 31
0.0
  0
LINE
  5
EF7C89048
330
EF7C85532
100
AcDbEntity
  8
JISSEN
100
AcDbLine
 10
254.0796797206864
 20
116.8787189011604
 30
0.0
 11
253.9060315430195
 21
117.8635266541729
 31
0.0
  0
LINE
  5
EF7C89049
330
EF7C85532
100
AcDbEntity
  8
JISSEN
100
AcDbLine
 10
259.6560315430195
 20
118.2007540037038
 30
0.0
 11
261.1625405963564
 21
119.2556229992314
 31
0.0
  0
LINE
  5
EF7C8904A
330
EF7C85532
100
AcDbEntity
  8
JISSEN
100
AcDbLine
 10
263.3854644924677
 20
116.7007540037038
 30
0.0
 11
263.2608521297318
 21
116.8787189011607
 31
0.0
  0
LINE
  5
EF7C8904B
330
EF7C85532
100
AcDbEntity
  8
JISSEN
100
AcDbLine
 10
263.1137440962755
 20
117.863526654173
 30
0.0
 11
263.9068155404004
 21
119.0548946347136
 31
0.0
  0
LINE
  5
EF7C8904C
330
EF7C85532
100
AcDbEntity
  8
JISSEN
100
AcDbLine
 10
262.4848394852538
 20
119.5007624031977
 30
0.0
 11
264.739244198001
 21
119.5007624031977
 31
0.0
  0
ARC
  5
EF7C8904D
330
EF7C85532
100
AcDbEntity
  8
JISSEN
100
AcDbCircle
 10
283.8720396302088
 20
118.1452624031976
 30
0.0
 40
1.355499999999999
100
AcDbArc
 50
55.00000000000298
 51
109.731202506171
  0
ARC
  5
EF7C8904E
330
EF7C85532
100
AcDbEntity
  8
JISSEN
100
AcDbCircle
 10
281.0728188880382
 20
118.5007624031972
 30
0.0
 40
1.0
100
AcDbArc
 50
33.65096582460159
 51
132.0810525119086
  0
LINE
  5
EF7C8904F
330
EF7C85532
100
AcDbEntity
  8
JISSEN
100
AcDbLine
 10
285.120863774996
 20
117.8635266541729
 30
0.0
 11
283.3272236007852
 21
119.5007624031976
 31
0.0
  0
LINE
  5
EF7C89050
330
EF7C85532
100
AcDbEntity
  8
JISSEN
100
AcDbLine
 10
281.3569251041354
 20
117.863526654173
 30
0.0
 11
280.2242907506143
 21
119.5007624031976
 31
0.0
  0
ARC
  5
EF7C89051
330
EF7C85532
100
AcDbEntity
  8
JISSEN
100
AcDbCircle
 10
276.3195472473135
 20
119.0007624031967
 30
0.0
 40
0.5
100
AcDbArc
 50
15.79871507350289
 51
166.7098700100968
  0
ARC
  5
EF7C89052
330
EF7C85532
100
AcDbEntity
  8
JISSEN
100
AcDbCircle
 10
269.4925158387255
 20
119.0007624031967
 30
0.0
 40
0.5
100
AcDbArc
 50
13.29012998990317
 51
164.2012849264971
  0
LINE
  5
EF7C89053
330
EF7C85532
100
AcDbEntity
  8
JISSEN
100
AcDbLine
 10
275.1604362557666
 20
119.5007624031977
 30
0.0
 11
275.3285763282522
 21
117.863526654173
 31
0.0
  0
LINE
  5
EF7C89054
330
EF7C85532
100
AcDbEntity
  8
JISSEN
100
AcDbLine
 10
270.4834867577872
 20
117.863526654173
 30
0.0
 11
270.6516268302724
 21
119.5007624031977
 31
0.0
  0
LINE
  5
EF7C89055
330
EF7C85532
100
AcDbEntity
  8
JISSEN
100
AcDbLine
 10
282.4265985935713
 20
116.7007540037038
 30
0.0
 11
272.9060315430195
 21
116.7007540037038
 31
0.0
  0
LINE
  5
EF7C89056
330
EF7C85532
100
AcDbEntity
  8
JISSEN
100
AcDbLine
 10
268.6511086335377
 20
117.863526654173
 30
0.0
 11
269.0114037889766
 21
119.1368917372372
 31
0.0
  0
LINE
  5
EF7C89057
330
EF7C85532
100
AcDbEntity
  8
JISSEN
100
AcDbLine
 10
269.4925158387255
 20
117.863526654173
 30
0.0
 11
269.5959815523038
 21
118.2291980349174
 31
0.0
  0
LINE
  5
EF7C89058
330
EF7C85532
100
AcDbEntity
  8
JISSEN
100
AcDbLine
 10
269.8748993840132
 20
117.863526654173
 30
0.0
 11
269.7895258110202
 21
118.2249603771015
 31
0.0
  0
LINE
  5
EF7C89059
330
EF7C85532
100
AcDbEntity
  8
JISSEN
100
AcDbLine
 10
270.2748993840133
 20
117.863526654173
 30
0.0
 11
269.9791250825581
 21
119.1157034481575
 31
0.0
  0
ARC
  5
EF7C8905A
330
EF7C85532
100
AcDbEntity
  8
JISSEN
100
AcDbCircle
 10
269.6922039622537
 20
118.2019721681093
 30
0.0
 40
0.1
100
AcDbArc
 50
13.29012998990878
 51
164.2012849264932
  0
LINE
  5
EF7C8905B
330
EF7C85532
100
AcDbEntity
  8
JISSEN
100
AcDbLine
 10
275.9371637020259
 20
117.863526654173
 30
0.0
 11
276.022537275019
 21
118.2249603771015
 31
0.0
  0
LINE
  5
EF7C8905C
330
EF7C85532
100
AcDbEntity
  8
JISSEN
100
AcDbLine
 10
276.3195472473135
 20
117.863526654173
 30
0.0
 11
276.2160815337352
 21
118.2291980349174
 31
0.0
  0
ARC
  5
EF7C8905D
330
EF7C85532
100
AcDbEntity
  8
JISSEN
100
AcDbCircle
 10
276.1198591237853
 20
118.2019721681093
 30
0.0
 40
0.1
100
AcDbArc
 50
15.79871507350672
 51
166.7098700100912
  0
LINE
  5
EF7C8905E
330
EF7C85532
100
AcDbEntity
  8
JISSEN
100
AcDbLine
 10
275.5371637020258
 20
117.863526654173
 30
0.0
 11
275.8329380034809
 21
119.1157034481575
 31
0.0
  0
LINE
  5
EF7C8905F
330
EF7C85532
100
AcDbEntity
  8
JISSEN
100
AcDbLine
 10
277.1609544525015
 20
117.863526654173
 30
0.0
 11
276.8006592970626
 21
119.1368917372372
 31
0.0
  0
LINE
  5
EF7C89060
330
EF7C85532
100
AcDbEntity
  8
JISSEN
100
AcDbLine
 10
286.1560315430195
 20
118.2007540037038
 30
0.0
 11
289.9935202065469
 21
118.2007540037038
 31
0.0
  0
LINE
  5
EF7C89061
330
EF7C85532
100
AcDbEntity
  8
JISSEN
100
AcDbLine
 10
282.4265985935713
 20
116.7007540037038
 30
0.0
 11
282.5512109563074
 21
116.8787189011607
 31
0.0
  0
LINE
  5
EF7C89062
330
EF7C85532
100
AcDbEntity
  8
JISSEN
100
AcDbLine
 10
282.6983189897635
 20
117.863526654173
 30
0.0
 11
281.9052475456388
 21
119.0548946347136
 31
0.0
  0
LINE
  5
EF7C89063
330
EF7C85532
100
AcDbEntity
  8
JISSEN
100
AcDbLine
 10
286.1560315430195
 20
118.2007540037038
 30
0.0
 11
284.6495224896826
 21
119.2556229992314
 31
0.0
  0
LINE
  5
EF7C89064
330
EF7C85532
100
AcDbEntity
  8
JISSEN
100
AcDbLine
 10
291.9060315430195
 20
117.8635266541731
 30
0.0
 11
289.9935202065456
 21
118.2007540037041
 31
0.0
  0
LINE
  5
EF7C89065
330
EF7C85532
100
AcDbEntity
  8
JISSEN
100
AcDbLine
 10
291.7323833653525
 20
116.8787189011607
 30
0.0
 11
291.9060315430195
 21
117.8635266541731
 31
0.0
  0
LINE
  5
EF7C89066
330
EF7C85532
100
AcDbEntity
  8
JISSEN
100
AcDbLine
 10
276.3195472473135
 20
119.5007624031976
 30
0.0
 11
280.2242907506143
 21
119.5007624031977
 31
0.0
  0
LINE
  5
EF7C89067
330
EF7C85532
100
AcDbEntity
  8
JISSEN
100
AcDbLine
 10
287.8134565011253
 20
131.1293864270782
 30
0.0
 11
277.9798610276516
 21
119.5007624031976
 31
0.0
  0
ARC
  5
EF7C89068
330
EF7C85532
100
AcDbEntity
  8
JISSEN
100
AcDbCircle
 10
275.7020254522336
 20
129.0007540037038
 30
0.0
 40
1.5
100
AcDbArc
 50
54.4366714240505
 51
90.0
  0
ARC
  5
EF7C89069
330
EF7C85532
100
AcDbEntity
  8
JISSEN
100
AcDbCircle
 10
270.1100376338054
 20
129.0007540037038
 30
0.0
 40
1.5
100
AcDbArc
 50
90.0
 51
125.5633285759494
  0
LINE
  5
EF7C8906A
330
EF7C85532
100
AcDbEntity
  8
JISSEN
100
AcDbLine
 10
270.6516268302724
 20
119.5007624031977
 30
0.0
 11
275.1604362557666
 21
119.5007624031977
 31
0.0
  0
ARC
  5
EF7C8906B
330
EF7C85532
100
AcDbEntity
  8
JISSEN
100
AcDbCircle
 10
256.1560315430195
 20
124.5007540037038
 30
0.0
 40
12.49999999999999
100
AcDbArc
 50
343.7397952916875
 51
16.26020470831243
  0
ARC
  5
EF7C8906C
330
EF7C85532
100
AcDbEntity
  8
JISSEN
100
AcDbCircle
 10
266.9060315430195
 20
119.0473190215647
 30
0.0
 40
1.0
100
AcDbArc
 50
26.96482331252983
 51
40.21909874455624
  0
ARC
  5
EF7C8906D
330
EF7C85532
100
AcDbEntity
  8
JISSEN
100
AcDbCircle
 10
268.6560315430195
 20
131.0344369406331
 30
0.0
 40
1.0
100
AcDbArc
 50
237.8181160795958
 51
305.5633285759499
  0
ARC
  5
EF7C8906E
330
EF7C85532
100
AcDbEntity
  8
JISSEN
100
AcDbCircle
 10
289.6560315430195
 20
124.5007540037038
 30
0.0
 40
12.49999999999999
100
AcDbArc
 50
163.7397952916875
 51
196.2602047083124
  0
ARC
  5
EF7C8906F
330
EF7C85532
100
AcDbEntity
  8
JISSEN
100
AcDbCircle
 10
278.9060315430195
 20
119.0473190215647
 30
0.0
 40
1.0
100
AcDbArc
 50
139.7809012554437
 51
153.0351766874614
  0
ARC
  5
EF7C89070
330
EF7C85532
100
AcDbEntity
  8
JISSEN
100
AcDbCircle
 10
277.1560315430195
 20
131.0344369406331
 30
0.0
 40
1.0
100
AcDbArc
 50
234.43667142405
 51
302.1818839204041
  0
LINE
  5
EF7C89071
330
EF7C85532
100
AcDbEntity
  8
JISSEN
100
AcDbLine
 10
275.7020254522336
 20
130.5007540037038
 30
0.0
 11
272.9060315430195
 21
130.5007540037038
 31
0.0
  0
ARC
  5
EF7C89072
330
EF7C85532
100
AcDbEntity
  8
JISSEN
100
AcDbCircle
 10
272.9052469875271
 20
130.4406868061364
 30
0.0
 40
1.6
100
AcDbArc
 50
17.33173146614687
 51
162.753711697013
  0
LINE
  5
EF7C89073
330
EF7C85532
100
AcDbEntity
  8
JISSEN
100
AcDbLine
 10
270.9628840095761
 20
130.5007540037038
 30
0.0
 11
271.3771843430277
 21
130.9150543371553
 31
0.0
  0
LINE
  5
EF7C89074
330
EF7C85532
100
AcDbEntity
  8
JISSEN
100
AcDbLine
 10
270.1100376338054
 20
130.5007540037038
 30
0.0
 11
272.9060315430195
 21
130.5007540037038
 31
0.0
  0
LINE
  5
EF7C89075
330
EF7C85532
100
AcDbEntity
  8
JISSEN
100
AcDbLine
 10
274.8491790764631
 20
130.5007540037038
 30
0.0
 11
274.432600525714
 21
130.9173325544531
 31
0.0
  0
LINE
  5
EF7C89076
330
EF7C85532
100
AcDbEntity
  8
JISSEN
100
AcDbLine
 10
283.3272236007852
 20
119.5007624031976
 30
0.0
 11
281.0728188880382
 21
119.5007624031976
 31
0.0
  0
TEXT
  5
EF7C89077
330
EF7C85532
100
AcDbEntity
  8
SUNPOU
100
AcDbText
 10
304.7999587138956
 20
2.849423898685245
 30
0.0
 40
3.0
  1
尺度　1/1
  7
K
100
AcDbText
  0
TEXT
  5
EF7C89078
330
EF7C85532
100
AcDbEntity
  8
SUNPOU
100
AcDbText
 10
304.7999587138956
 20
7.849423898685245
 30
0.0
 40
3.0
  1
DP シーリングプレート作動状態
  7
K
100
AcDbText
  0
LINE
  5
EF7C89079
330
EF7C85532
100
AcDbEntity
  8
JISSEN
100
AcDbLine
 10
283.4548793062502
 20
172.057739672926
 30
0.0
 11
310.4746148209506
 21
172.0577396729264
 31
0.0
  0
LINE
  5
EF7C8907A
330
EF7C85532
100
AcDbEntity
  8
JISSEN
100
AcDbLine
 10
283.2986214977296
 20
177.0577396729263
 30
0.0
 11
310.4746148209513
 21
177.0577396729262
 31
0.0
  0
HATCH
  5
EF7C8907B
330
EF7C85532
100
AcDbEntity
  8
JISSEN
 62
     0
100
AcDbHatch
 10
0.0
 20
0.0
 30
0.0
210
0.0
220
0.0
230
1.0
  2
ANSI31
 70
     0
 71
     0
 91
        2
 92
        7
 72
     0
 73
     1
 93
       50
 10
311.7692031450433
 20
175.594926901706
 10
311.6471647194894
 20
175.6610012999502
 10
311.4854755239981
 20
175.7246132872863
 10
311.310353771391
 20
175.7877327850159
 10
311.148017674487
 20
175.8523297144437
 10
311.0246854461045
 20
175.9203739968726
 10
310.9665752990634
 20
175.9938355536062
 10
310.9891217356978
 20
176.0747718044514
 10
311.0646244164036
 20
176.1655901632341
 10
311.1545992910833
 20
176.2687855422764
 10
311.2205623096511
 20
176.3868528539121
 10
311.2240294220135
 20
176.5222870104673
 10
311.1265165780785
 20
176.6775829242694
 10
310.8895397277549
 20
176.8552355076464
 10
310.4746148209513
 20
177.0577396729262
 10
292.9746148209508
 20
177.0577396729263
 10
292.9746148209508
 20
172.0577396729262
 10
310.4746148209506
 20
172.0577396729264
 10
310.8696727563972
 20
172.2166672314149
 10
311.0711012249524
 20
172.3558642264994
 10
311.1179696035099
 20
172.4788880322009
 10
311.0493472689641
 20
172.5892960225406
 10
310.9043035982086
 20
172.6906455715388
 10
310.7219079681395
 20
172.7864940532219
 10
310.5412297556436
 20
172.8803988415956
 10
310.4013383376221
 20
172.9759173106958
 10
310.3031356344761
 20
173.1168130114535
 10
310.3575283604701
 20
173.2871495087726
 10
310.4157979049139
 20
173.3964955428489
 10
310.4794897870934
 20
173.5069496533
 10
310.5299955485989
 20
173.6174960955287
 10
310.5487067310233
 20
173.7271191249433
 10
310.5170148759589
 20
173.8348029969518
 10
310.4232024048692
 20
173.9398141185668
 10
310.2831152587023
 20
174.0425475032245
 10
310.1194902582768
 20
174.1436803159649
 10
309.955064224416
 20
174.2438897218331
 10
309.8125739779355
 20
174.3438528858663
 10
309.7147563396566
 20
174.4442469731083
 10
309.6843481303986
 20
174.5457491485997
 10
309.7440861709811
 20
174.6490365773822
 10
309.9081013854405
 20
174.7544478429665
 10
310.1561011106783
 20
174.8609672027393
 10
310.4591867868119
 20
174.9672403325563
 10
310.7884598539636
 20
175.0719129082759
 10
311.1150217522411
 20
175.1736306057495
 10
311.4099739217745
 20
175.2710391008379
 10
311.6444178026755
 20
175.3627840693952
 10
311.7894548350639
 20
175.4475111872777
 10
311.8253725878413
 20
175.5244201712494
 97
        0
 92
        7
 72
     0
 73
     1
 93
       50
 10
252.9746148209508
 20
177.0577396729265
 10
235.474614820951
 20
177.0577396729264
 10
235.0596899141468
 20
176.8552355076463
 10
234.8227130638231
 20
176.6775829242694
 10
234.7252002198883
 20
176.5222870104672
 10
234.7286673322507
 20
176.3868528539122
 10
234.7946303508184
 20
176.2687855422764
 10
234.8846052255008
 20
176.165590163231
 10
234.9601079062038
 20
176.0747718044514
 10
234.9826543428384
 20
175.9938355536062
 10
234.9245441957974
 20
175.9203739968727
 10
234.8012119674147
 20
175.8523297144439
 10
234.63887587051
 20
175.787732785016
 10
234.4637541179027
 20
175.7246132872858
 10
234.3020649224126
 20
175.6610012999503
 10
234.1800264968586
 20
175.594926901706
 10
234.1238570540606
 20
175.5244201712495
 10
234.1597748068378
 20
175.4475111872777
 10
234.3048118392264
 20
175.3627840693953
 10
234.5392557201283
 20
175.2710391008377
 10
234.8342078896574
 20
175.1736306057502
 10
235.1607697879411
 20
175.0719129082759
 10
235.4900428550895
 20
174.9672403325563
 10
235.7931285312236
 20
174.8609672027391
 10
236.0411282564617
 20
174.7544478429665
 10
236.2051434709206
 20
174.6490365773823
 10
236.2648815115033
 20
174.5457491485996
 10
236.2344733022452
 20
174.4442469731083
 10
236.1366556639665
 20
174.3438528858667
 10
235.9941654174862
 20
174.2438897218332
 10
235.8297393836203
 20
174.143680315964
 10
235.6661143831993
 20
174.0425475032245
 10
235.5260272370326
 20
173.9398141185668
 10
235.4322147659427
 20
173.8348029969518
 10
235.4005229108785
 20
173.7271191249432
 10
235.419234093303
 20
173.6174960955285
 10
235.4697398548085
 20
173.5069496532996
 10
235.5334317369872
 20
173.3964955428503
 10
235.5917012814318
 20
173.2871495087725
 10
235.6460940074258
 20
173.1168130114535
 10
235.5478913042796
 20
172.9759173106958
 10
235.4079998862581
 20
172.8803988415957
 10
235.2273216737667
 20
172.786494053218
 10
235.0449260436932
 20
172.6906455715389
 10
234.8998823729378
 20
172.5892960225407
 10
234.8312600383919
 20
172.478888032201
 10
234.8781284169495
 20
172.3558642264994
 10
235.0795568855047
 20
172.2166672314149
 10
235.4746148209512
 20
172.0577396729264
 10
252.9746148209508
 20
172.0577396729264
 97
        0
 75
     0
 76
     1
 52
0.0
 41
20.0
 77
     0
 78
     1
 53
45.0
 43
214.6151100575059
 44
-534.296717527619
 45
-1.767766952966368
 46
1.767766952966368
 79
     0
 47
0.1350417537953048
 98
        2
 10
379.5383563414296
 20
174.2419035301762
 10
323.4437647013126
 20
175.7273629303139
  0
ARC
  5
EF7C8907C
330
EF7C85532
100
AcDbEntity
  8
JISSEN
100
AcDbCircle
 10
277.9060315430195
 20
150.5007540037038
 30
0.0
 40
15.0
100
AcDbArc
 50
0.0
 51
53.31701119964015
  0
ARC
  5
EF7C8907D
330
EF7C85532
100
AcDbEntity
  8
JISSEN
100
AcDbCircle
 10
277.9060315430195
 20
150.5007540037038
 30
0.0
 40
17.0
100
AcDbArc
 50
0.0
 51
70.25007720435737
  0
LWPOLYLINE
  5
EF7C8907E
330
EF7C85532
100
AcDbEntity
  8
NITEN
100
AcDbPolyline
 90
       15
 70
     1
 43
0.0
 10
258.9060315430195
 20
172.1113029094276
 42
0.4142135623730927
 10
260.4060315430195
 20
170.6113029094276
 10
283.5000827140161
 20
170.6113029094276
 10
285.4060315430195
 20
170.6113029094276
 42
0.4142135623730925
 10
286.9060315430195
 20
172.1113029094276
 10
286.9060315430195
 20
183.1573189356456
 42
-0.4142135623730943
 10
291.9060315430195
 20
188.1573189356456
 42
0.4142135623730951
 10
293.9060315430195
 20
190.1573189356455
 10
293.9060315430195
 20
210.6113029094276
 42
0.4142135623730948
 10
291.9060315430195
 20
212.6113029094276
 10
253.9060315430195
 20
212.6113029094276
 42
0.4142135623730951
 10
251.9060315430195
 20
210.6113029094276
 10
251.9060315430195
 20
190.1573189356455
 42
0.4142135623730951
 10
253.9060315430195
 20
188.1573189356456
 42
-0.4142135623730961
 10
258.9060315430195
 20
183.1573189356456
  0
LWPOLYLINE
  5
EF7C8907F
330
EF7C85532
100
AcDbEntity
  8
NITEN
100
AcDbPolyline
 90
        5
 70
     0
 43
0.0
 10
289.9060315430195
 20
212.6113029094276
 10
289.9060315430195
 20
233.4490205605735
 42
-0.5882352941176475
 10
272.9060315430195
 20
233.4490205605735
 42
0.5882352941176476
 10
255.9060315430195
 20
233.4490205605732
 10
255.9060315430195
 20
212.6113029094276
  0
LINE
  5
EF7C89080
330
EF7C85532
100
AcDbEntity
  8
JISSEN
100
AcDbLine
 10
235.4746148209513
 20
172.0577396729264
 30
0.0
 11
262.3571837797888
 21
172.0577396729264
 31
0.0
  0
LINE
  5
EF7C89081
330
EF7C85532
100
AcDbEntity
  8
JISSEN
100
AcDbLine
 10
262.5134415883095
 20
177.0577396729266
 30
0.0
 11
235.474614820951
 21
177.0577396729264
 31
0.0
  0
POLYLINE
  5
EF7C89082
330
EF7C85532
100
AcDbEntity
  8
JISSEN
 62
     0
100
AcDb2dPolyline
 66
     1
 10
0.0
 20
0.0
 30
0.0
 70
     4
 75
     6
  0
VERTEX
  5
EF7C89083
330
EF7C89082
100
AcDbEntity
  8
JISSEN
 62
     0
100
AcDbVertex
100
AcDb2dVertex
 10
235.4746148209508
 20
177.0577396729264
 30
0.0
 70
    16
  0
VERTEX
  5
EF7C89084
330
EF7C89082
100
AcDbEntity
  8
JISSEN
 62
     0
100
AcDbVertex
100
AcDb2dVertex
 10
235.4746148209508
 20
177.0577396729264
 30
0.0
 70
     8
  0
VERTEX
  5
EF7C89085
330
EF7C89082
100
AcDbEntity
  8
JISSEN
 62
     0
100
AcDbVertex
100
AcDb2dVertex
 10
235.059689914147
 20
176.8552355076463
 30
0.0
 70
     8
  0
VERTEX
  5
EF7C89086
330
EF7C89082
100
AcDbEntity
  8
JISSEN
 62
     0
100
AcDbVertex
100
AcDb2dVertex
 10
234.8227130638231
 20
176.6775829242693
 30
0.0
 70
     8
  0
VERTEX
  5
EF7C89087
330
EF7C89082
100
AcDbEntity
  8
JISSEN
 62
     0
100
AcDbVertex
100
AcDb2dVertex
 10
234.7252002198884
 20
176.5222870104672
 30
0.0
 70
     8
  0
VERTEX
  5
EF7C89088
330
EF7C89082
100
AcDbEntity
  8
JISSEN
 62
     0
100
AcDbVertex
100
AcDb2dVertex
 10
234.7286673322506
 20
176.3868528539121
 30
0.0
 70
     8
  0
VERTEX
  5
EF7C89089
330
EF7C89082
100
AcDbEntity
  8
JISSEN
 62
     0
100
AcDbVertex
100
AcDb2dVertex
 10
234.7946303508184
 20
176.2687855422765
 30
0.0
 70
     8
  0
VERTEX
  5
EF7C8908A
330
EF7C89082
100
AcDbEntity
  8
JISSEN
 62
     0
100
AcDbVertex
100
AcDb2dVertex
 10
234.8846052254998
 20
176.1655901632321
 30
0.0
 70
     8
  0
VERTEX
  5
EF7C8908B
330
EF7C89082
100
AcDbEntity
  8
JISSEN
 62
     0
100
AcDbVertex
100
AcDb2dVertex
 10
234.9601079062038
 20
176.0747718044514
 30
0.0
 70
     8
  0
VERTEX
  5
EF7C8908C
330
EF7C89082
100
AcDbEntity
  8
JISSEN
 62
     0
100
AcDbVertex
100
AcDb2dVertex
 10
234.9826543428385
 20
175.9938355536062
 30
0.0
 70
     8
  0
VERTEX
  5
EF7C8908D
330
EF7C89082
100
AcDbEntity
  8
JISSEN
 62
     0
100
AcDbVertex
100
AcDb2dVertex
 10
234.9245441957974
 20
175.9203739968727
 30
0.0
 70
     8
  0
VERTEX
  5
EF7C8908E
330
EF7C89082
100
AcDbEntity
  8
JISSEN
 62
     0
100
AcDbVertex
100
AcDb2dVertex
 10
234.8012119674147
 20
175.8523297144438
 30
0.0
 70
     8
  0
VERTEX
  5
EF7C8908F
330
EF7C89082
100
AcDbEntity
  8
JISSEN
 62
     0
100
AcDbVertex
100
AcDb2dVertex
 10
234.63887587051
 20
175.787732785016
 30
0.0
 70
     8
  0
VERTEX
  5
EF7C89090
330
EF7C89082
100
AcDbEntity
  8
JISSEN
 62
     0
100
AcDbVertex
100
AcDb2dVertex
 10
234.4637541179029
 20
175.7246132872858
 30
0.0
 70
     8
  0
VERTEX
  5
EF7C89091
330
EF7C89082
100
AcDbEntity
  8
JISSEN
 62
     0
100
AcDbVertex
100
AcDb2dVertex
 10
234.3020649224125
 20
175.6610012999503
 30
0.0
 70
     8
  0
VERTEX
  5
EF7C89092
330
EF7C89082
100
AcDbEntity
  8
JISSEN
 62
     0
100
AcDbVertex
100
AcDb2dVertex
 10
234.1800264968586
 20
175.594926901706
 30
0.0
 70
     8
  0
VERTEX
  5
EF7C89093
330
EF7C89082
100
AcDbEntity
  8
JISSEN
 62
     0
100
AcDbVertex
100
AcDb2dVertex
 10
234.1238570540606
 20
175.5244201712495
 30
0.0
 70
     8
  0
VERTEX
  5
EF7C89094
330
EF7C89082
100
AcDbEntity
  8
JISSEN
 62
     0
100
AcDbVertex
100
AcDb2dVertex
 10
234.1597748068378
 20
175.4475111872777
 30
0.0
 70
     8
  0
VERTEX
  5
EF7C89095
330
EF7C89082
100
AcDbEntity
  8
JISSEN
 62
     0
100
AcDbVertex
100
AcDb2dVertex
 10
234.3048118392262
 20
175.3627840693952
 30
0.0
 70
     8
  0
VERTEX
  5
EF7C89096
330
EF7C89082
100
AcDbEntity
  8
JISSEN
 62
     0
100
AcDbVertex
100
AcDb2dVertex
 10
234.5392557201274
 20
175.2710391008379
 30
0.0
 70
     8
  0
VERTEX
  5
EF7C89097
330
EF7C89082
100
AcDbEntity
  8
JISSEN
 62
     0
100
AcDbVertex
100
AcDb2dVertex
 10
234.8342078896596
 20
175.1736306057498
 30
0.0
 70
     8
  0
VERTEX
  5
EF7C89098
330
EF7C89082
100
AcDbEntity
  8
JISSEN
 62
     0
100
AcDbVertex
100
AcDb2dVertex
 10
235.1607697879411
 20
175.0719129082747
 30
0.0
 70
     8
  0
VERTEX
  5
EF7C89099
330
EF7C89082
100
AcDbEntity
  8
JISSEN
 62
     0
100
AcDbVertex
100
AcDb2dVertex
 10
235.4900428550898
 20
174.9672403325564
 30
0.0
 70
     8
  0
VERTEX
  5
EF7C8909A
330
EF7C89082
100
AcDbEntity
  8
JISSEN
 62
     0
100
AcDbVertex
100
AcDb2dVertex
 10
235.7931285312238
 20
174.8609672027391
 30
0.0
 70
     8
  0
VERTEX
  5
EF7C8909B
330
EF7C89082
100
AcDbEntity
  8
JISSEN
 62
     0
100
AcDbVertex
100
AcDb2dVertex
 10
236.0411282564614
 20
174.7544478429664
 30
0.0
 70
     8
  0
VERTEX
  5
EF7C8909C
330
EF7C89082
100
AcDbEntity
  8
JISSEN
 62
     0
100
AcDbVertex
100
AcDb2dVertex
 10
236.2051434709206
 20
174.6490365773822
 30
0.0
 70
     8
  0
VERTEX
  5
EF7C8909D
330
EF7C89082
100
AcDbEntity
  8
JISSEN
 62
     0
100
AcDbVertex
100
AcDb2dVertex
 10
236.2648815115033
 20
174.5457491485997
 30
0.0
 70
     8
  0
VERTEX
  5
EF7C8909E
330
EF7C89082
100
AcDbEntity
  8
JISSEN
 62
     0
100
AcDbVertex
100
AcDb2dVertex
 10
236.2344733022453
 20
174.4442469731084
 30
0.0
 70
     8
  0
VERTEX
  5
EF7C8909F
330
EF7C89082
100
AcDbEntity
  8
JISSEN
 62
     0
100
AcDbVertex
100
AcDb2dVertex
 10
236.1366556639664
 20
174.3438528858665
 30
0.0
 70
     8
  0
VERTEX
  5
EF7C890A0
330
EF7C89082
100
AcDbEntity
  8
JISSEN
 62
     0
100
AcDbVertex
100
AcDb2dVertex
 10
235.9941654174859
 20
174.243889721833
 30
0.0
 70
     8
  0
VERTEX
  5
EF7C890A1
330
EF7C89082
100
AcDbEntity
  8
JISSEN
 62
     0
100
AcDbVertex
100
AcDb2dVertex
 10
235.8297393836238
 20
174.143680315966
 30
0.0
 70
     8
  0
VERTEX
  5
EF7C890A2
330
EF7C89082
100
AcDbEntity
  8
JISSEN
 62
     0
100
AcDbVertex
100
AcDb2dVertex
 10
235.6661143831995
 20
174.0425475032245
 30
0.0
 70
     8
  0
VERTEX
  5
EF7C890A3
330
EF7C89082
100
AcDbEntity
  8
JISSEN
 62
     0
100
AcDbVertex
100
AcDb2dVertex
 10
235.5260272370326
 20
173.9398141185668
 30
0.0
 70
     8
  0
VERTEX
  5
EF7C890A4
330
EF7C89082
100
AcDbEntity
  8
JISSEN
 62
     0
100
AcDbVertex
100
AcDb2dVertex
 10
235.4322147659427
 20
173.8348029969517
 30
0.0
 70
     8
  0
VERTEX
  5
EF7C890A5
330
EF7C89082
100
AcDbEntity
  8
JISSEN
 62
     0
100
AcDbVertex
100
AcDb2dVertex
 10
235.4005229108784
 20
173.7271191249433
 30
0.0
 70
     8
  0
VERTEX
  5
EF7C890A6
330
EF7C89082
100
AcDbEntity
  8
JISSEN
 62
     0
100
AcDbVertex
100
AcDb2dVertex
 10
235.419234093303
 20
173.6174960955283
 30
0.0
 70
     8
  0
VERTEX
  5
EF7C890A7
330
EF7C89082
100
AcDbEntity
  8
JISSEN
 62
     0
100
AcDbVertex
100
AcDb2dVertex
 10
235.4697398548085
 20
173.5069496532998
 30
0.0
 70
     8
  0
VERTEX
  5
EF7C890A8
330
EF7C89082
100
AcDbEntity
  8
JISSEN
 62
     0
100
AcDbVertex
100
AcDb2dVertex
 10
235.5334317369875
 20
173.3964955428505
 30
0.0
 70
     8
  0
VERTEX
  5
EF7C890A9
330
EF7C89082
100
AcDbEntity
  8
JISSEN
 62
     0
100
AcDbVertex
100
AcDb2dVertex
 10
235.5917012814318
 20
173.2871495087727
 30
0.0
 70
     8
  0
VERTEX
  5
EF7C890AA
330
EF7C89082
100
AcDbEntity
  8
JISSEN
 62
     0
100
AcDbVertex
100
AcDb2dVertex
 10
235.6259400297338
 20
173.1799272956592
 30
0.0
 70
     8
  0
VERTEX
  5
EF7C890AB
330
EF7C89082
100
AcDbEntity
  8
JISSEN
 62
     0
100
AcDbVertex
100
AcDb2dVertex
 10
235.6175395234857
 20
173.0758446481028
 30
0.0
 70
     8
  0
VERTEX
  5
EF7C890AC
330
EF7C89082
100
AcDbEntity
  8
JISSEN
 62
     0
100
AcDbVertex
100
AcDb2dVertex
 10
235.5478913042796
 20
172.9759173106958
 30
0.0
 70
     8
  0
VERTEX
  5
EF7C890AD
330
EF7C89082
100
AcDbEntity
  8
JISSEN
 62
     0
100
AcDbVertex
100
AcDb2dVertex
 10
235.4079998862581
 20
172.8803988415957
 30
0.0
 70
     8
  0
VERTEX
  5
EF7C890AE
330
EF7C89082
100
AcDbEntity
  8
JISSEN
 62
     0
100
AcDbVertex
100
AcDb2dVertex
 10
235.2273216737647
 20
172.7864940532169
 30
0.0
 70
     8
  0
VERTEX
  5
EF7C890AF
330
EF7C89082
100
AcDbEntity
  8
JISSEN
 62
     0
100
AcDbVertex
100
AcDb2dVertex
 10
235.0449260436933
 20
172.6906455715389
 30
0.0
 70
     8
  0
VERTEX
  5
EF7C890B0
330
EF7C89082
100
AcDbEntity
  8
JISSEN
 62
     0
100
AcDbVertex
100
AcDb2dVertex
 10
234.8998823729378
 20
172.5892960225406
 30
0.0
 70
     8
  0
VERTEX
  5
EF7C890B1
330
EF7C89082
100
AcDbEntity
  8
JISSEN
 62
     0
100
AcDbVertex
100
AcDb2dVertex
 10
234.8312600383918
 20
172.4788880322009
 30
0.0
 70
     8
  0
VERTEX
  5
EF7C890B2
330
EF7C89082
100
AcDbEntity
  8
JISSEN
 62
     0
100
AcDbVertex
100
AcDb2dVertex
 10
234.8781284169495
 20
172.3558642264994
 30
0.0
 70
     8
  0
VERTEX
  5
EF7C890B3
330
EF7C89082
100
AcDbEntity
  8
JISSEN
 62
     0
100
AcDbVertex
100
AcDb2dVertex
 10
235.0795568855047
 20
172.2166672314149
 30
0.0
 70
     8
  0
VERTEX
  5
EF7C890B4
330
EF7C89082
100
AcDbEntity
  8
JISSEN
 62
     0
100
AcDbVertex
100
AcDb2dVertex
 10
235.4746148209508
 20
172.0577396729265
 30
0.0
 70
     8
  0
VERTEX
  5
EF7C890B5
330
EF7C89082
100
AcDbEntity
  8
JISSEN
 62
     0
100
AcDbVertex
100
AcDb2dVertex
 10
234.096676282974
 20
176.4823754231289
 30
0.0
 70
    16
  0
VERTEX
  5
EF7C890B6
330
EF7C89082
100
AcDbEntity
  8
JISSEN
 62
     0
100
AcDbVertex
100
AcDb2dVertex
 10
235.9580174805551
 20
175.9150388004574
 30
0.0
 70
    16
  0
VERTEX
  5
EF7C890B7
330
EF7C89082
100
AcDbEntity
  8
JISSEN
 62
     0
100
AcDbVertex
100
AcDb2dVertex
 10
232.8978504506272
 20
175.5368143853435
 30
0.0
 70
    16
  0
VERTEX
  5
EF7C890B8
330
EF7C89082
100
AcDbEntity
  8
JISSEN
 62
     0
100
AcDbVertex
100
AcDb2dVertex
 10
237.4092295579631
 20
174.6227707818358
 30
0.0
 70
    16
  0
VERTEX
  5
EF7C890B9
330
EF7C89082
100
AcDbEntity
  8
JISSEN
 62
     0
100
AcDbVertex
100
AcDb2dVertex
 10
234.696092143045
 20
173.8663219516075
 30
0.0
 70
    16
  0
VERTEX
  5
EF7C890BA
330
EF7C89082
100
AcDbEntity
  8
JISSEN
 62
     0
100
AcDbVertex
100
AcDb2dVertex
 10
236.3996904655142
 20
172.9207593934444
 30
0.0
 70
    16
  0
VERTEX
  5
EF7C890BB
330
EF7C89082
100
AcDbEntity
  8
JISSEN
 62
     0
100
AcDbVertex
100
AcDb2dVertex
 10
234.1282260355556
 20
172.5110160236746
 30
0.0
 70
    16
  0
VERTEX
  5
EF7C890BC
330
EF7C89082
100
AcDbEntity
  8
JISSEN
 62
     0
100
AcDbVertex
100
AcDb2dVertex
 10
235.4746148209508
 20
172.0577396729264
 30
0.0
 70
    16
  0
SEQEND
  5
EF7C890BD
330
EF7C89082
100
AcDbEntity
  8
JISSEN
 62
     0
  0
LINE
  5
EF7C890BE
330
EF7C85532
100
AcDbEntity
  8
JISSEN
100
AcDbLine
 10
264.4060315430195
 20
182.5007540037038
 30
0.0
 11
272.9060315430195
 21
182.5007540037038
 31
0.0
  0
LINE
  5
EF7C890BF
330
EF7C85532
100
AcDbEntity
  8
JISSEN
100
AcDbLine
 10
262.2425171886937
 20
168.3885921218126
 30
0.0
 11
272.9060315430195
 21
168.3885921218126
 31
0.0
  0
LINE
  5
EF7C890C0
330
EF7C85532
100
AcDbEntity
  8
JISSEN
100
AcDbLine
 10
283.1840857709317
 20
180.7226997757916
 30
0.0
 11
262.6279773151073
 21
180.7226997757916
 31
0.0
  0
TEXT
  5
EF7C890C1
330
EF7C85532
100
AcDbEntity
  8
JISSEN
100
AcDbText
 10
268.4238159196847
 20
165.9594225373321
 30
0.0
 40
3.0
  1
D
 50
180.0
  7
K
 72
     4
 11
266.8523873482561
 21
164.4594225373321
 31
0.0
100
AcDbText
  0
LINE
  5
EF7C890C2
330
EF7C85532
100
AcDbEntity
  8
JISSEN
100
AcDbLine
 10
263.4060315430195
 20
168.0007540037038
 30
0.0
 11
272.9060315430195
 21
168.0007540037038
 31
0.0
  0
LINE
  5
EF7C890C3
330
EF7C85532
100
AcDbEntity
  8
JISSEN
100
AcDbLine
 10
266.9060315430195
 20
157.7007540037038
 30
0.0
 11
265.6560315430195
 21
158.4224418401909
 31
0.0
  0
LINE
  5
EF7C890C4
330
EF7C85532
100
AcDbEntity
  8
JISSEN
100
AcDbLine
 10
264.7065700557869
 20
162.5007540037038
 30
0.0
 11
271.4060315430195
 21
162.5007540037038
 31
0.0
  0
LINE
  5
EF7C890C5
330
EF7C85532
100
AcDbEntity
  8
JISSEN
100
AcDbLine
 10
265.4060315430195
 20
160.7007540037038
 30
0.0
 11
271.4060315430195
 21
160.7007540037038
 31
0.0
  0
LINE
  5
EF7C890C6
330
EF7C85532
100
AcDbEntity
  8
JISSEN
100
AcDbLine
 10
262.1614688964815
 20
166.5007540037039
 30
0.0
 11
269.9060315430195
 21
166.5007540037039
 31
0.0
  0
LINE
  5
EF7C890C7
330
EF7C85532
100
AcDbEntity
  8
JISSEN
100
AcDbLine
 10
280.1560315430195
 20
159.7224418401908
 30
0.0
 11
265.6560315430197
 21
159.7224418401908
 31
0.0
  0
LINE
  5
EF7C890C8
330
EF7C85532
100
AcDbEntity
  8
JISSEN
100
AcDbLine
 10
264.7065700557869
 20
166.5007540037039
 30
0.0
 11
264.7065700557869
 21
162.5007540037038
 31
0.0
  0
ARC
  5
EF7C890C9
330
EF7C85532
100
AcDbEntity
  8
JISSEN
100
AcDbCircle
 10
259.0182830113513
 20
169.6438713320802
 30
0.0
 40
6.498907295833106
100
AcDbArc
 50
284.679080052196
 51
320.8990391255045
  0
ARC
  5
EF7C890CA
330
EF7C85532
100
AcDbEntity
  8
JISSEN
100
AcDbCircle
 10
267.9060315430195
 20
150.5007540037038
 30
0.0
 40
17.0
100
AcDbArc
 50
109.7499227956426
 51
180.0
  0
ARC
  5
EF7C890CB
330
EF7C85532
100
AcDbEntity
  8
JISSEN
100
AcDbCircle
 10
267.9060315430195
 20
150.5007540037038
 30
0.0
 40
15.0
100
AcDbArc
 50
126.6829888003598
 51
180.0
  0
ARC
  5
EF7C890CC
330
EF7C85532
100
AcDbEntity
  8
JISSEN
100
AcDbCircle
 10
265.6947847594973
 20
149.8990962808592
 30
0.0
 40
10.80551655320168
100
AcDbArc
 50
91.53128360361938
 51
176.8080854238748
  0
ARC
  5
EF7C890CD
330
EF7C85532
100
AcDbEntity
  8
JISSEN
100
AcDbCircle
 10
267.8453365906953
 20
149.3468020662754
 30
0.0
 40
11.0
100
AcDbArc
 50
104.840214838518
 51
173.9783228073659
  0
ARC
  5
EF7C890CE
330
EF7C85532
100
AcDbEntity
  8
JISSEN
100
AcDbCircle
 10
261.9321608200948
 20
158.5202844504185
 30
0.0
 40
5.0
100
AcDbArc
 50
104.679080052196
 51
126.6829888003598
  0
LINE
  5
EF7C890CF
330
EF7C85532
100
AcDbEntity
  8
JISSEN
100
AcDbLine
 10
265.6560315430195
 20
158.4224418401909
 30
0.0
 11
265.6560315430197
 21
159.7224418401909
 31
0.0
  0
LINE
  5
EF7C890D0
330
EF7C85532
100
AcDbEntity
  8
JISSEN
100
AcDbLine
 10
265.6560315430197
 20
159.7224418401908
 30
0.0
 11
265.5752300393658
 21
159.7690926100763
 31
0.0
  0
ARC
  5
EF7C890D1
330
EF7C85532
100
AcDbEntity
  8
JISSEN
100
AcDbCircle
 10
265.1560315430195
 20
159.4965625738217
 30
0.0
 40
0.5
100
AcDbArc
 50
33.02876887191282
 51
104.840214838518
  0
LINE
  5
EF7C890D2
330
EF7C85532
100
AcDbEntity
  8
JISSEN
100
AcDbLine
 10
265.4060315430195
 20
162.5007540037038
 30
0.0
 11
265.4060315430195
 21
160.7007540037038
 31
0.0
  0
LINE
  5
EF7C890D3
330
EF7C85532
100
AcDbEntity
  8
JISSEN
100
AcDbLine
 10
252.9746148209508
 20
172.0577396729264
 30
0.0
 11
252.9746148209508
 21
177.0577396729264
 31
0.0
  0
LINE
  5
EF7C890D4
330
EF7C85532
100
AcDbEntity
  8
JISSEN
100
AcDbLine
 10
262.2425171886937
 20
168.3885921218126
 30
0.0
 11
262.6279773151073
 21
180.7226997757916
 31
0.0
  0
LINE
  5
EF7C890D5
330
EF7C85532
100
AcDbEntity
  8
SAISEN
100
AcDbLine
 10
263.8274631197451
 20
181.9221855804295
 30
0.0
 11
263.3925372147594
 21
168.0052521131239
 31
0.0
  0
LINE
  5
EF7C890D6
330
EF7C85532
100
AcDbEntity
  8
JISSEN
100
AcDbLine
 10
262.2425171886937
 20
168.3885921218126
 30
0.0
 11
263.4060315430195
 21
168.0007540037038
 31
0.0
  0
LINE
  5
EF7C890D7
330
EF7C85532
100
AcDbEntity
  8
JISSEN
100
AcDbLine
 10
263.4060315430195
 20
166.5007540037039
 30
0.0
 11
263.4060315430195
 21
168.0007540037038
 31
0.0
  0
LINE
  5
EF7C890D8
330
EF7C85532
100
AcDbEntity
  8
JISSEN
100
AcDbLine
 10
264.4060315430195
 20
182.5007540037038
 30
0.0
 11
262.6279773151073
 21
180.7226997757916
 31
0.0
  0
ARC
  5
EF7C890D9
330
EF7C85532
100
AcDbEntity
  8
JISSEN
100
AcDbCircle
 10
286.7937800746879
 20
169.6438713320802
 30
0.0
 40
6.498907295833106
100
AcDbArc
 50
219.1009608744954
 51
255.3209199478007
  0
LINE
  5
EF7C890DA
330
EF7C85532
100
AcDbEntity
  8
JISSEN
100
AcDbLine
 10
281.1054930302523
 20
166.5007540037039
 30
0.0
 11
281.1054930302523
 21
162.5007540037038
 31
0.0
  0
LINE
  5
EF7C890DB
330
EF7C85532
100
AcDbEntity
  8
JISSEN
100
AcDbLine
 10
276.9060315430195
 20
162.5007540037038
 30
0.0
 11
276.9060315430195
 21
166.5007540037039
 31
0.0
  0
LINE
  5
EF7C890DC
330
EF7C85532
100
AcDbEntity
  8
JISSEN
100
AcDbLine
 10
268.9060315430195
 20
162.5007540037038
 30
0.0
 11
268.9060315430195
 21
166.5007540037039
 31
0.0
  0
LINE
  5
EF7C890DD
330
EF7C85532
100
AcDbEntity
  8
JISSEN
100
AcDbLine
 10
278.9060315430195
 20
157.7007540037038
 30
0.0
 11
280.1560315430195
 21
158.4224418401909
 31
0.0
  0
LINE
  5
EF7C890DE
330
EF7C85532
100
AcDbEntity
  8
JISSEN
100
AcDbLine
 10
281.1054930302523
 20
162.5007540037038
 30
0.0
 11
274.4060315430195
 21
162.5007540037038
 31
0.0
  0
LINE
  5
EF7C890DF
330
EF7C85532
100
AcDbEntity
  8
JISSEN
100
AcDbLine
 10
280.4060315430195
 20
160.7007540037038
 30
0.0
 11
274.4060315430195
 21
160.7007540037038
 31
0.0
  0
LINE
  5
EF7C890E0
330
EF7C85532
100
AcDbEntity
  8
JISSEN
100
AcDbLine
 10
278.9060315430195
 20
157.7007540037038
 30
0.0
 11
266.9060315430195
 21
157.7007540037038
 31
0.0
  0
LINE
  5
EF7C890E1
330
EF7C85532
100
AcDbEntity
  8
JISSEN
100
AcDbLine
 10
271.4060315430195
 20
160.7007540037038
 30
0.0
 11
271.4060315430195
 21
162.5007540037038
 31
0.0
  0
LINE
  5
EF7C890E2
330
EF7C85532
100
AcDbEntity
  8
JISSEN
100
AcDbLine
 10
274.4060315430195
 20
162.5007540037038
 30
0.0
 11
274.4060315430195
 21
160.7007540037038
 31
0.0
  0
ARC
  5
EF7C890E3
330
EF7C85532
100
AcDbEntity
  8
JISSEN
100
AcDbCircle
 10
277.9667264953437
 20
149.3468020662754
 30
0.0
 40
11.0
100
AcDbArc
 50
6.021677192634045
 51
75.15978516148194
  0
ARC
  5
EF7C890E4
330
EF7C85532
100
AcDbEntity
  8
JISSEN
100
AcDbCircle
 10
280.117278326542
 20
149.8990962808592
 30
0.0
 40
10.80551655320168
100
AcDbArc
 50
3.191914576125969
 51
88.46871639638065
  0
LINE
  5
EF7C890E5
330
EF7C85532
100
AcDbEntity
  8
JISSEN
100
AcDbLine
 10
280.1560315430195
 20
158.4224418401909
 30
0.0
 11
280.1560315430195
 21
159.7224418401909
 31
0.0
  0
ARC
  5
EF7C890E6
330
EF7C85532
100
AcDbEntity
  8
JISSEN
100
AcDbCircle
 10
280.6560315430195
 20
159.4965625738217
 30
0.0
 40
0.5
100
AcDbArc
 50
75.15978516148199
 51
146.9712311280871
  0
LINE
  5
EF7C890E7
330
EF7C85532
100
AcDbEntity
  8
JISSEN
100
AcDbLine
 10
280.1560315430195
 20
159.7224418401908
 30
0.0
 11
280.2368330466732
 21
159.7690926100763
 31
0.0
  0
LINE
  5
EF7C890E8
330
EF7C85532
100
AcDbEntity
  8
JISSEN
100
AcDbLine
 10
280.4060315430195
 20
162.5007540037038
 30
0.0
 11
280.4060315430195
 21
160.7007540037038
 31
0.0
  0
ARC
  5
EF7C890E9
330
EF7C85532
100
AcDbEntity
  8
JISSEN
100
AcDbCircle
 10
283.8799022659441
 20
158.5202844504185
 30
0.0
 40
5.0
100
AcDbArc
 50
53.31701119964015
 51
75.32091994780396
  0
LINE
  5
EF7C890EA
330
EF7C85532
100
AcDbEntity
  8
JISSEN
100
AcDbLine
 10
283.5695458973453
 20
168.3885921218126
 30
0.0
 11
272.9060315430195
 21
168.3885921218126
 31
0.0
  0
LINE
  5
EF7C890EB
330
EF7C85532
100
AcDbEntity
  8
JISSEN
100
AcDbLine
 10
281.4060315430195
 20
182.5007540037038
 30
0.0
 11
272.9060315430195
 21
182.5007540037038
 31
0.0
  0
LINE
  5
EF7C890EC
330
EF7C85532
100
AcDbEntity
  8
JISSEN
100
AcDbLine
 10
282.4060315430195
 20
168.0007540037038
 30
0.0
 11
272.9060315430195
 21
168.0007540037038
 31
0.0
  0
LINE
  5
EF7C890ED
330
EF7C85532
100
AcDbEntity
  8
JISSEN
100
AcDbLine
 10
283.6505941895575
 20
166.5007540037039
 30
0.0
 11
275.9060315430195
 21
166.5007540037039
 31
0.0
  0
LINE
  5
EF7C890EE
330
EF7C85532
100
AcDbEntity
  8
JISSEN
100
AcDbLine
 10
269.9060315430195
 20
166.5007540037039
 30
0.0
 11
269.9060315430195
 21
168.0007540037038
 31
0.0
  0
LINE
  5
EF7C890EF
330
EF7C85532
100
AcDbEntity
  8
JISSEN
100
AcDbLine
 10
275.9060315430195
 20
168.0007540037038
 30
0.0
 11
275.9060315430195
 21
166.5007540037039
 31
0.0
  0
LINE
  5
EF7C890F0
330
EF7C85532
100
AcDbEntity
  8
JISSEN
100
AcDbLine
 10
292.9746148209508
 20
177.0577396729264
 30
0.0
 11
292.9746148209508
 21
172.0577396729265
 31
0.0
  0
LINE
  5
EF7C890F1
330
EF7C85532
100
AcDbEntity
  8
JISSEN
100
AcDbLine
 10
283.5695458973453
 20
168.3885921218126
 30
0.0
 11
283.1840857709317
 21
180.7226997757916
 31
0.0
  0
LINE
  5
EF7C890F2
330
EF7C85532
100
AcDbEntity
  8
SAISEN
100
AcDbLine
 10
281.9845999662939
 20
181.9221855804295
 30
0.0
 11
282.4195258712796
 21
168.0052521131239
 31
0.0
  0
LINE
  5
EF7C890F3
330
EF7C85532
100
AcDbEntity
  8
JISSEN
100
AcDbLine
 10
283.5695458973453
 20
168.3885921218126
 30
0.0
 11
282.4060315430195
 21
168.0007540037038
 31
0.0
  0
LINE
  5
EF7C890F4
330
EF7C85532
100
AcDbEntity
  8
JISSEN
100
AcDbLine
 10
282.4060315430195
 20
166.5007540037039
 30
0.0
 11
282.4060315430195
 21
168.0007540037038
 31
0.0
  0
LINE
  5
EF7C890F5
330
EF7C85532
100
AcDbEntity
  8
JISSEN
100
AcDbLine
 10
281.4060315430195
 20
182.5007540037038
 30
0.0
 11
283.1840857709317
 21
180.7226997757916
 31
0.0
  0
LWPOLYLINE
  5
EF7C890F6
330
EF7C85532
100
AcDbEntity
  8
NITEN
100
AcDbPolyline
 90
        2
 70
     0
 43
0.0
 10
289.9060315430197
 20
233.4490205605735
 42
0.5882352941176294
 10
272.9060315430195
 20
233.4490205605737
 42
0.5882352941176294
  0
POLYLINE
  5
EF7C890F7
330
EF7C85532
100
AcDbEntity
  8
JISSEN
 62
     0
100
AcDb2dPolyline
 66
     1
 10
0.0
 20
0.0
 30
0.0
 70
     4
 75
     6
  0
VERTEX
  5
EF7C890F8
330
EF7C890F7
100
AcDbEntity
  8
JISSEN
 62
     0
100
AcDbVertex
100
AcDb2dVertex
 10
310.4746148209508
 20
177.0577396729264
 30
0.0
 70
    16
  0
VERTEX
  5
EF7C890F9
330
EF7C890F7
100
AcDbEntity
  8
JISSEN
 62
     0
100
AcDbVertex
100
AcDb2dVertex
 10
310.4746148209508
 20
177.0577396729264
 30
0.0
 70
     8
  0
VERTEX
  5
EF7C890FA
330
EF7C890F7
100
AcDbEntity
  8
JISSEN
 62
     0
100
AcDbVertex
100
AcDb2dVertex
 10
310.8895397277549
 20
176.8552355076463
 30
0.0
 70
     8
  0
VERTEX
  5
EF7C890FB
330
EF7C890F7
100
AcDbEntity
  8
JISSEN
 62
     0
100
AcDbVertex
100
AcDb2dVertex
 10
311.1265165780785
 20
176.6775829242693
 30
0.0
 70
     8
  0
VERTEX
  5
EF7C890FC
330
EF7C890F7
100
AcDbEntity
  8
JISSEN
 62
     0
100
AcDbVertex
100
AcDb2dVertex
 10
311.2240294220135
 20
176.5222870104672
 30
0.0
 70
     8
  0
VERTEX
  5
EF7C890FD
330
EF7C890F7
100
AcDbEntity
  8
JISSEN
 62
     0
100
AcDbVertex
100
AcDb2dVertex
 10
311.2205623096511
 20
176.3868528539121
 30
0.0
 70
     8
  0
VERTEX
  5
EF7C890FE
330
EF7C890F7
100
AcDbEntity
  8
JISSEN
 62
     0
100
AcDbVertex
100
AcDb2dVertex
 10
311.1545992910835
 20
176.2687855422765
 30
0.0
 70
     8
  0
VERTEX
  5
EF7C890FF
330
EF7C890F7
100
AcDbEntity
  8
JISSEN
 62
     0
100
AcDbVertex
100
AcDb2dVertex
 10
311.0646244164018
 20
176.1655901632321
 30
0.0
 70
     8
  0
VERTEX
  5
EF7C89100
330
EF7C890F7
100
AcDbEntity
  8
JISSEN
 62
     0
100
AcDbVertex
100
AcDb2dVertex
 10
310.9891217356978
 20
176.0747718044514
 30
0.0
 70
     8
  0
VERTEX
  5
EF7C89101
330
EF7C890F7
100
AcDbEntity
  8
JISSEN
 62
     0
100
AcDbVertex
100
AcDb2dVertex
 10
310.9665752990634
 20
175.9938355536062
 30
0.0
 70
     8
  0
VERTEX
  5
EF7C89102
330
EF7C890F7
100
AcDbEntity
  8
JISSEN
 62
     0
100
AcDbVertex
100
AcDb2dVertex
 10
311.0246854461045
 20
175.9203739968727
 30
0.0
 70
     8
  0
VERTEX
  5
EF7C89103
330
EF7C890F7
100
AcDbEntity
  8
JISSEN
 62
     0
100
AcDbVertex
100
AcDb2dVertex
 10
311.1480176744872
 20
175.8523297144438
 30
0.0
 70
     8
  0
VERTEX
  5
EF7C89104
330
EF7C890F7
100
AcDbEntity
  8
JISSEN
 62
     0
100
AcDbVertex
100
AcDb2dVertex
 10
311.3103537713917
 20
175.787732785016
 30
0.0
 70
     8
  0
VERTEX
  5
EF7C89105
330
EF7C890F7
100
AcDbEntity
  8
JISSEN
 62
     0
100
AcDbVertex
100
AcDb2dVertex
 10
311.485475523999
 20
175.7246132872858
 30
0.0
 70
     8
  0
VERTEX
  5
EF7C89106
330
EF7C890F7
100
AcDbEntity
  8
JISSEN
 62
     0
100
AcDbVertex
100
AcDb2dVertex
 10
311.6471647194892
 20
175.6610012999503
 30
0.0
 70
     8
  0
VERTEX
  5
EF7C89107
330
EF7C890F7
100
AcDbEntity
  8
JISSEN
 62
     0
100
AcDbVertex
100
AcDb2dVertex
 10
311.7692031450431
 20
175.594926901706
 30
0.0
 70
     8
  0
VERTEX
  5
EF7C89108
330
EF7C890F7
100
AcDbEntity
  8
JISSEN
 62
     0
100
AcDbVertex
100
AcDb2dVertex
 10
311.8253725878413
 20
175.5244201712495
 30
0.0
 70
     8
  0
VERTEX
  5
EF7C89109
330
EF7C890F7
100
AcDbEntity
  8
JISSEN
 62
     0
100
AcDbVertex
100
AcDb2dVertex
 10
311.7894548350639
 20
175.4475111872777
 30
0.0
 70
     8
  0
VERTEX
  5
EF7C8910A
330
EF7C890F7
100
AcDbEntity
  8
JISSEN
 62
     0
100
AcDbVertex
100
AcDb2dVertex
 10
311.6444178026757
 20
175.3627840693952
 30
0.0
 70
     8
  0
VERTEX
  5
EF7C8910B
330
EF7C890F7
100
AcDbEntity
  8
JISSEN
 62
     0
100
AcDbVertex
100
AcDb2dVertex
 10
311.4099739217743
 20
175.2710391008379
 30
0.0
 70
     8
  0
VERTEX
  5
EF7C8910C
330
EF7C890F7
100
AcDbEntity
  8
JISSEN
 62
     0
100
AcDbVertex
100
AcDb2dVertex
 10
311.115021752242
 20
175.1736306057498
 30
0.0
 70
     8
  0
VERTEX
  5
EF7C8910D
330
EF7C890F7
100
AcDbEntity
  8
JISSEN
 62
     0
100
AcDbVertex
100
AcDb2dVertex
 10
310.7884598539606
 20
175.0719129082747
 30
0.0
 70
     8
  0
VERTEX
  5
EF7C8910E
330
EF7C890F7
100
AcDbEntity
  8
JISSEN
 62
     0
100
AcDbVertex
100
AcDb2dVertex
 10
310.4591867868121
 20
174.9672403325564
 30
0.0
 70
     8
  0
VERTEX
  5
EF7C8910F
330
EF7C890F7
100
AcDbEntity
  8
JISSEN
 62
     0
100
AcDbVertex
100
AcDb2dVertex
 10
310.1561011106778
 20
174.8609672027391
 30
0.0
 70
     8
  0
VERTEX
  5
EF7C89110
330
EF7C890F7
100
AcDbEntity
  8
JISSEN
 62
     0
100
AcDbVertex
100
AcDb2dVertex
 10
309.9081013854405
 20
174.7544478429664
 30
0.0
 70
     8
  0
VERTEX
  5
EF7C89111
330
EF7C890F7
100
AcDbEntity
  8
JISSEN
 62
     0
100
AcDbVertex
100
AcDb2dVertex
 10
309.7440861709811
 20
174.6490365773822
 30
0.0
 70
     8
  0
VERTEX
  5
EF7C89112
330
EF7C890F7
100
AcDbEntity
  8
JISSEN
 62
     0
100
AcDbVertex
100
AcDb2dVertex
 10
309.6843481303986
 20
174.5457491485997
 30
0.0
 70
     8
  0
VERTEX
  5
EF7C89113
330
EF7C890F7
100
AcDbEntity
  8
JISSEN
 62
     0
100
AcDbVertex
100
AcDb2dVertex
 10
309.7147563396566
 20
174.4442469731084
 30
0.0
 70
     8
  0
VERTEX
  5
EF7C89114
330
EF7C890F7
100
AcDbEntity
  8
JISSEN
 62
     0
100
AcDbVertex
100
AcDb2dVertex
 10
309.8125739779355
 20
174.3438528858665
 30
0.0
 70
     8
  0
VERTEX
  5
EF7C89115
330
EF7C890F7
100
AcDbEntity
  8
JISSEN
 62
     0
100
AcDbVertex
100
AcDb2dVertex
 10
309.9550642244158
 20
174.243889721833
 30
0.0
 70
     8
  0
VERTEX
  5
EF7C89116
330
EF7C890F7
100
AcDbEntity
  8
JISSEN
 62
     0
100
AcDbVertex
100
AcDb2dVertex
 10
310.1194902582779
 20
174.143680315966
 30
0.0
 70
     8
  0
VERTEX
  5
EF7C89117
330
EF7C890F7
100
AcDbEntity
  8
JISSEN
 62
     0
100
AcDbVertex
100
AcDb2dVertex
 10
310.2831152587023
 20
174.0425475032245
 30
0.0
 70
     8
  0
VERTEX
  5
EF7C89118
330
EF7C890F7
100
AcDbEntity
  8
JISSEN
 62
     0
100
AcDbVertex
100
AcDb2dVertex
 10
310.4232024048692
 20
173.9398141185668
 30
0.0
 70
     8
  0
VERTEX
  5
EF7C89119
330
EF7C890F7
100
AcDbEntity
  8
JISSEN
 62
     0
100
AcDbVertex
100
AcDb2dVertex
 10
310.5170148759589
 20
173.8348029969517
 30
0.0
 70
     8
  0
VERTEX
  5
EF7C8911A
330
EF7C890F7
100
AcDbEntity
  8
JISSEN
 62
     0
100
AcDbVertex
100
AcDb2dVertex
 10
310.5487067310233
 20
173.7271191249433
 30
0.0
 70
     8
  0
VERTEX
  5
EF7C8911B
330
EF7C890F7
100
AcDbEntity
  8
JISSEN
 62
     0
100
AcDbVertex
100
AcDb2dVertex
 10
310.5299955485987
 20
173.6174960955283
 30
0.0
 70
     8
  0
VERTEX
  5
EF7C8911C
330
EF7C890F7
100
AcDbEntity
  8
JISSEN
 62
     0
100
AcDbVertex
100
AcDb2dVertex
 10
310.4794897870931
 20
173.5069496532998
 30
0.0
 70
     8
  0
VERTEX
  5
EF7C8911D
330
EF7C890F7
100
AcDbEntity
  8
JISSEN
 62
     0
100
AcDbVertex
100
AcDb2dVertex
 10
310.4157979049144
 20
173.3964955428505
 30
0.0
 70
     8
  0
VERTEX
  5
EF7C8911E
330
EF7C890F7
100
AcDbEntity
  8
JISSEN
 62
     0
100
AcDbVertex
100
AcDb2dVertex
 10
310.3575283604701
 20
173.2871495087727
 30
0.0
 70
     8
  0
VERTEX
  5
EF7C8911F
330
EF7C890F7
100
AcDbEntity
  8
JISSEN
 62
     0
100
AcDbVertex
100
AcDb2dVertex
 10
310.3232896121681
 20
173.1799272956592
 30
0.0
 70
     8
  0
VERTEX
  5
EF7C89120
330
EF7C890F7
100
AcDbEntity
  8
JISSEN
 62
     0
100
AcDbVertex
100
AcDb2dVertex
 10
310.3316901184162
 20
173.0758446481028
 30
0.0
 70
     8
  0
VERTEX
  5
EF7C89121
330
EF7C890F7
100
AcDbEntity
  8
JISSEN
 62
     0
100
AcDbVertex
100
AcDb2dVertex
 10
310.4013383376221
 20
172.9759173106958
 30
0.0
 70
     8
  0
VERTEX
  5
EF7C89122
330
EF7C890F7
100
AcDbEntity
  8
JISSEN
 62
     0
100
AcDbVertex
100
AcDb2dVertex
 10
310.5412297556436
 20
172.8803988415957
 30
0.0
 70
     8
  0
VERTEX
  5
EF7C89123
330
EF7C890F7
100
AcDbEntity
  8
JISSEN
 62
     0
100
AcDbVertex
100
AcDb2dVertex
 10
310.721907968137
 20
172.7864940532169
 30
0.0
 70
     8
  0
VERTEX
  5
EF7C89124
330
EF7C890F7
100
AcDbEntity
  8
JISSEN
 62
     0
100
AcDbVertex
100
AcDb2dVertex
 10
310.9043035982086
 20
172.6906455715389
 30
0.0
 70
     8
  0
VERTEX
  5
EF7C89125
330
EF7C890F7
100
AcDbEntity
  8
JISSEN
 62
     0
100
AcDbVertex
100
AcDb2dVertex
 10
311.0493472689641
 20
172.5892960225406
 30
0.0
 70
     8
  0
VERTEX
  5
EF7C89126
330
EF7C890F7
100
AcDbEntity
  8
JISSEN
 62
     0
100
AcDbVertex
100
AcDb2dVertex
 10
311.1179696035099
 20
172.4788880322009
 30
0.0
 70
     8
  0
VERTEX
  5
EF7C89127
330
EF7C890F7
100
AcDbEntity
  8
JISSEN
 62
     0
100
AcDbVertex
100
AcDb2dVertex
 10
311.0711012249524
 20
172.3558642264994
 30
0.0
 70
     8
  0
VERTEX
  5
EF7C89128
330
EF7C890F7
100
AcDbEntity
  8
JISSEN
 62
     0
100
AcDbVertex
100
AcDb2dVertex
 10
310.8696727563972
 20
172.2166672314149
 30
0.0
 70
     8
  0
VERTEX
  5
EF7C89129
330
EF7C890F7
100
AcDbEntity
  8
JISSEN
 62
     0
100
AcDbVertex
100
AcDb2dVertex
 10
310.4746148209508
 20
172.0577396729265
 30
0.0
 70
     8
  0
VERTEX
  5
EF7C8912A
330
EF7C890F7
100
AcDbEntity
  8
JISSEN
 62
     0
100
AcDbVertex
100
AcDb2dVertex
 10
311.8525533589279
 20
176.4823754231289
 30
0.0
 70
    16
  0
VERTEX
  5
EF7C8912B
330
EF7C890F7
100
AcDbEntity
  8
JISSEN
 62
     0
100
AcDbVertex
100
AcDb2dVertex
 10
309.9912121613468
 20
175.9150388004574
 30
0.0
 70
    16
  0
VERTEX
  5
EF7C8912C
330
EF7C890F7
100
AcDbEntity
  8
JISSEN
 62
     0
100
AcDbVertex
100
AcDb2dVertex
 10
313.0513791912747
 20
175.5368143853435
 30
0.0
 70
    16
  0
VERTEX
  5
EF7C8912D
330
EF7C890F7
100
AcDbEntity
  8
JISSEN
 62
     0
100
AcDbVertex
100
AcDb2dVertex
 10
308.5400000839388
 20
174.6227707818358
 30
0.0
 70
    16
  0
VERTEX
  5
EF7C8912E
330
EF7C890F7
100
AcDbEntity
  8
JISSEN
 62
     0
100
AcDbVertex
100
AcDb2dVertex
 10
311.2531374988569
 20
173.8663219516075
 30
0.0
 70
    16
  0
VERTEX
  5
EF7C8912F
330
EF7C890F7
100
AcDbEntity
  8
JISSEN
 62
     0
100
AcDbVertex
100
AcDb2dVertex
 10
309.5495391763877
 20
172.9207593934444
 30
0.0
 70
    16
  0
VERTEX
  5
EF7C89130
330
EF7C890F7
100
AcDbEntity
  8
JISSEN
 62
     0
100
AcDbVertex
100
AcDb2dVertex
 10
311.8210036063463
 20
172.5110160236746
 30
0.0
 70
    16
  0
VERTEX
  5
EF7C89131
330
EF7C890F7
100
AcDbEntity
  8
JISSEN
 62
     0
100
AcDbVertex
100
AcDb2dVertex
 10
310.4746148209508
 20
172.0577396729264
 30
0.0
 70
    16
  0
SEQEND
  5
EF7C89132
330
EF7C890F7
100
AcDbEntity
  8
JISSEN
 62
     0
  0
LINE
  5
EF7C8916F
330
EF7C85532
100
AcDbEntity
  8
SUNPOU
100
AcDbLine
 10
115.0289067826126
 20
168.5813863289233
 30
0.0
 11
135.3437890237128
 21
109.1135955254388
 31
0.0
  0
TEXT
  5
EF7C89170
330
EF7C85532
100
AcDbEntity
  8
SUNPOU
100
AcDbText
 10
135.1405480777996
 20
101.1857535931063
 30
0.0
 40
4.5
  1
2
  7
K
 72
     4
 11
137.2834052206567
 21
103.4357535931063
 31
0.0
100
AcDbText
  0
CIRCLE
  5
EF7C89171
330
EF7C85532
100
AcDbEntity
  8
SUNPOU
100
AcDbCircle
 10
137.2834052206567
 20
103.4357535931063
 30
0.0
 40
6.0
  0
HATCH
  5
EF7C89172
330
EF7C85532
100
AcDbEntity
  8
HATCH
100
AcDbHatch
 10
0.0
 20
0.0
 30
0.0
210
0.0
220
0.0
230
1.0
  2
ANSI31
 70
     0
 71
     0
 91
        2
 92
        7
 72
     1
 73
     1
 93
       13
 10
121.8882835352069
 20
172.0577396729263
 42
0.0
 10
120.1368851706069
 20
172.0577396729263
 42
-0.1557399217224488
 10
107.4445639359049
 20
168.6020656929761
 42
0.3050742458420811
 10
105.3494693821101
 20
167.320331870622
 42
-0.2933139429535041
 10
104.9403504316367
 20
167.0577396729234
 42
0.0
 10
104.6382835352032
 20
167.0577396729234
 42
-0.4142135623730951
 10
103.6382835352032
 20
168.0577396729234
 42
0.0
 10
103.6382835352032
 20
169.0577396729235
 42
0.0
 10
102.6382835352032
 20
169.0577396729235
 42
0.0
 10
102.6382835352032
 20
168.0577396729234
 42
0.438343819183208
 10
104.8014571272976
 20
166.0644071921659
 42
0.3195508479178618
 10
106.2586226053849
 20
166.9038700877301
 42
-0.3050742458420883
 10
107.4014014529092
 20
167.602997627196
 42
0.172429417736941
 97
        0
 92
        7
 72
     1
 73
     1
 93
       13
 10
79.13828353520324
 20
167.0577396729234
 42
0.0
 10
78.83621663876948
 20
167.0577396729234
 42
-0.2933139429534796
 10
78.42709768829599
 20
167.3203318706221
 42
0.3050742458420794
 10
76.33200313450135
 20
168.6020656929761
 42
-0.15573992172245
 10
63.63968189979932
 20
172.0577396729264
 42
0.0
 10
61.88828353519927
 20
172.0577396729264
 42
0.1724294177369433
 10
76.37516561749709
 20
167.602997627196
 42
-0.3050742458420882
 10
77.51794446502157
 20
166.9038700877301
 42
0.3195508479178619
 10
78.97510994310886
 20
166.0644071921659
 42
0.438343819183208
 10
81.13828353520323
 20
168.0577396729234
 42
0.0
 10
81.13828353520323
 20
169.0577396729235
 42
0.0
 10
80.13828353520324
 20
169.0577396729235
 42
0.0
 10
80.13828353520324
 20
168.0577396729234
 42
-0.4142135623730951
 97
        0
 75
     0
 76
     1
 52
90.0
 41
10.0
 77
     0
 78
     1
 53
135.0
 43
-180.9999992759999
 44
0.0
 45
-0.8838834764831844
 46
-0.8838834764831842
 79
     0
 47
0.0763726391003648
 98
        2
 10
109.0565473306036
 20
168.0696771182665
 10
79.0176870245254
 20
166.6949655852258
  0
LWPOLYLINE
  5
EF7C89173
330
EF7C85532
100
AcDbEntity
  8
JISSEN
100
AcDbPolyline
 90
        7
 70
     0
 43
0.0
 10
121.8882835352032
 20
172.0577396729234
 42
-0.1724294177368876
 10
107.4014014529092
 20
167.602997627196
 42
0.3050742458420749
 10
106.2586226053849
 20
166.9038700877301
 42
-0.2933139429534979
 10
104.9403504316368
 20
166.0577396729235
 10
104.6382835352032
 20
166.0577396729235
 42
-0.4142135623730951
 10
102.6382835352032
 20
168.0577396729234
 10
102.6382835352032
 20
169.0577396729235
  0
LWPOLYLINE
  5
EF7C89174
330
EF7C85532
100
AcDbEntity
  8
JISSEN
100
AcDbPolyline
 90
        7
 70
     0
 43
0.0
 10
120.1368851706026
 20
172.0577396729234
 42
-0.1557399217223865
 10
107.444563935905
 20
168.6020656929761
 42
0.3050742458420765
 10
105.3494693821102
 20
167.3203318706221
 42
-0.2933139429534918
 10
104.9403504316368
 20
167.0577396729234
 10
104.6382835352032
 20
167.0577396729234
 42
-0.4142135623730951
 10
103.6382835352032
 20
168.0577396729234
 10
103.6382835352032
 20
169.0577396729235
  0
INSERT
  5
EF7C89175
330
EF7C85532
100
AcDbEntity
  8
SUNPOU
100
AcDbBlockReference
  2
ARROW
 10
115.0289067826126
 20
168.5813863289231
 30
0.0
 41
-1.500000000000002
 42
1.5
 43
1.5
 50
288.8607579839983
  0
LINE
  5
EF7C89176
330
EF7C85532
100
AcDbEntity
  8
JISSEN
100
AcDbLine
 10
102.6382835352032
 20
169.0577396729235
 30
0.0
 11
103.6382835352032
 21
169.0577396729235
 31
0.0
  0
LWPOLYLINE
  5
EF7C89177
330
EF7C85532
100
AcDbEntity
  8
JISSEN
100
AcDbPolyline
 90
        7
 70
     0
 43
0.0
 10
61.88828353520325
 20
172.0577396729234
 42
0.1724294177368876
 10
76.3751656174972
 20
167.602997627196
 42
-0.3050742458420749
 10
77.51794446502157
 20
166.9038700877301
 42
0.2933139429534979
 10
78.8362166387696
 20
166.0577396729235
 10
79.13828353520324
 20
166.0577396729235
 42
0.4142135623730951
 10
81.13828353520323
 20
168.0577396729234
 10
81.13828353520323
 20
169.0577396729235
  0
LWPOLYLINE
  5
EF7C89178
330
EF7C85532
100
AcDbEntity
  8
JISSEN
100
AcDbPolyline
 90
        7
 70
     0
 43
0.0
 10
63.63968189980386
 20
172.0577396729234
 42
0.1557399217223865
 10
76.33200313450146
 20
168.6020656929761
 42
-0.3050742458420765
 10
78.42709768829599
 20
167.3203318706221
 42
0.2933139429534918
 10
78.8362166387696
 20
167.0577396729234
 10
79.13828353520324
 20
167.0577396729234
 42
0.4142135623730951
 10
80.13828353520324
 20
168.0577396729234
 10
80.13828353520324
 20
169.0577396729235
  0
LINE
  5
EF7C89179
330
EF7C85532
100
AcDbEntity
  8
JISSEN
 62
     0
100
AcDbLine
 10
80.13828353520324
 20
169.0577396729235
 30
0.0
 11
81.13828353520323
 21
169.0577396729235
 31
0.0
  0
LINE
  5
EF7C8917A
330
EF7C85532
100
AcDbEntity
  8
JISSEN
100
AcDbLine
 10
80.13828353520324
 20
169.0577396729235
 30
0.0
 11
81.13828353520323
 21
169.0577396729235
 31
0.0
  0
LINE
  5
EF7C8917B
330
EF7C85532
100
AcDbEntity
  8
SUNPOU
100
AcDbLine
 10
91.90603226701938
 20
116.7007539293233
 30
0.0
 11
107.2549669112653
 21
106.7091016775145
 31
0.0
  0
INSERT
  5
EF7C8917C
330
EF7C85532
100
AcDbEntity
  8
SUNPOU
100
AcDbBlockReference
  2
ARROW
 10
91.90603226701961
 20
116.7007539293231
 30
0.0
 41
-1.500000000000002
 42
1.5
 43
1.5
 50
326.9371945411395
  0
CIRCLE
  5
EF7C8917D
330
EF7C85532
100
AcDbEntity
  8
SUNPOU
100
AcDbCircle
 10
112.2834052206566
 20
103.4357535187258
 30
0.0
 40
6.0
  0
TEXT
  5
EF7C8917E
330
EF7C85532
100
AcDbEntity
  8
SUNPOU
100
AcDbText
 10
110.461976649228
 20
101.1857535187258
 30
0.0
 40
4.5
  1
1
  7
K
 72
     4
 11
112.2834052206566
 21
103.4357535187258
 31
0.0
100
AcDbText
  0
ARC
  5
EF7C8917F
330
EF7C85532
100
AcDbEntity
  8
JISSEN
100
AcDbCircle
 10
277.9060315430195
 20
50.50075392932338
 30
0.0
 40
17.0
100
AcDbArc
 50
0.0
 51
66.22232022148328
  0
ARC
  5
EF7C89180
330
EF7C85532
100
AcDbEntity
  8
JISSEN
100
AcDbCircle
 10
277.9060315430195
 20
50.50075392932338
 30
0.0
 40
15.0
100
AcDbArc
 50
0.0
 51
53.31701119964003
  0
LWPOLYLINE
  5
EF7C89181
330
EF7C85532
100
AcDbEntity
  8
JISSEN
100
AcDbPolyline
 90
        5
 70
     0
 43
0.0
 10
302.888282811203
 20
72.05773959854299
 42
-0.1724294177368879
 10
288.4014007289091
 20
67.60299755281552
 42
0.3050742458420749
 10
287.2586218813847
 20
66.90387001334967
 42
-0.2933139429534979
 10
285.9403497076367
 20
66.057739598543
 10
285.638282811203
 20
66.057739598543
  0
LINE
  5
EF7C89182
330
EF7C85532
100
AcDbEntity
  8
JISSEN
100
AcDbLine
 10
235.4746148209513
 20
72.05773959854595
 30
0.0
 11
310.4746148209508
 21
72.05773959854588
 31
0.0
  0
ARC
  5
EF7C89183
330
EF7C85532
100
AcDbEntity
  8
JISSEN
100
AcDbCircle
 10
264.9060315430195
 20
50.50075392932338
 30
0.0
 40
30.0
100
AcDbArc
 50
319.7809012554443
 51
0.0
  0
ARC
  5
EF7C89184
330
EF7C85532
100
AcDbEntity
  8
JISSEN
100
AcDbCircle
 10
277.9667264953437
 20
49.34680199189497
 30
0.0
 40
11.0
100
AcDbArc
 50
6.021677192633947
 51
75.15978516148108
  0
ARC
  5
EF7C89185
330
EF7C85532
100
AcDbEntity
  8
JISSEN
100
AcDbCircle
 10
267.8453365906953
 20
49.34680199189497
 30
0.0
 40
11.0
100
AcDbArc
 50
104.8402148385189
 51
173.978322807366
  0
ARC
  5
EF7C89186
330
EF7C85532
100
AcDbEntity
  8
JISSEN
100
AcDbCircle
 10
265.6947847594973
 20
49.89909620647871
 30
0.0
 40
10.80551655320168
100
AcDbArc
 50
91.53128360361854
 51
176.8080854238748
  0
ARC
  5
EF7C89187
330
EF7C85532
100
AcDbEntity
  8
JISSEN
100
AcDbCircle
 10
267.9060315430195
 20
50.50075392932338
 30
0.0
 40
15.0
100
AcDbArc
 50
126.6829888003599
 51
180.0
  0
ARC
  5
EF7C89188
330
EF7C85532
100
AcDbEntity
  8
JISSEN
100
AcDbCircle
 10
280.117278326542
 20
49.89909620647871
 30
0.0
 40
10.80551655320168
100
AcDbArc
 50
3.191914576125952
 51
88.46871639638145
  0
ARC
  5
EF7C89189
330
EF7C85532
100
AcDbEntity
  8
JISSEN
100
AcDbCircle
 10
267.9060315430195
 20
50.50075392932338
 30
0.0
 40
17.0
100
AcDbArc
 50
113.7776797785166
 51
180.0
  0
LINE
  5
EF7C8918A
330
EF7C85532
100
AcDbEntity
  8
JISSEN
100
AcDbLine
 10
269.4925158387255
 20
19.5007623288172
 30
0.0
 11
265.5877723354249
 21
19.5007623288172
 31
0.0
  0
LINE
  5
EF7C8918B
330
EF7C85532
100
AcDbEntity
  8
JISSEN
100
AcDbLine
 10
257.9986065849137
 20
31.12938635269769
 30
0.0
 11
267.8322020583873
 21
19.5007623288172
 31
0.0
  0
LINE
  5
EF7C8918C
330
EF7C85532
100
AcDbEntity
  8
JISSEN
100
AcDbLine
 10
263.3854644924677
 20
16.70075392932337
 30
0.0
 11
272.9060315430195
 21
16.70075392932337
 31
0.0
  0
LINE
  5
EF7C8918D
330
EF7C85532
100
AcDbEntity
  8
JISSEN
100
AcDbLine
 10
291.7323833653525
 20
16.8787188267802
 30
0.0
 11
254.0796797206864
 21
16.8787188267802
 31
0.0
  0
LINE
  5
EF7C8918E
330
EF7C85532
100
AcDbEntity
  8
JISSEN
100
AcDbLine
 10
253.9060315430195
 20
17.8635265797924
 30
0.0
 11
291.9060315430195
 21
17.86352657979263
 31
0.0
  0
ARC
  5
EF7C8918F
330
EF7C85532
100
AcDbEntity
  8
JISSEN
100
AcDbCircle
 10
280.9060315430195
 20
50.50075392932338
 30
0.0
 40
24.0
100
AcDbArc
 50
180.0
 51
237.8181160795964
  0
ARC
  5
EF7C89190
330
EF7C85532
100
AcDbEntity
  8
JISSEN
100
AcDbCircle
 10
280.9060315430195
 20
50.50075392932338
 30
0.0
 40
30.0
100
AcDbArc
 50
180.0
 51
220.2190987445557
  0
LINE
  5
EF7C89191
330
EF7C85532
100
AcDbEntity
  8
JISSEN
100
AcDbLine
 10
255.8185428794935
 20
18.20075392932336
 30
0.0
 11
259.6560315430195
 21
18.20075392932336
 31
0.0
  0
LINE
  5
EF7C89192
330
EF7C85532
100
AcDbEntity
  8
JISSEN
100
AcDbLine
 10
254.906031543019
 20
18.03985356050067
 30
0.0
 11
255.8185428794933
 21
18.20075392932336
 31
0.0
  0
LINE
  5
EF7C89193
330
EF7C85532
100
AcDbEntity
  8
JISSEN
100
AcDbLine
 10
254.0796797206864
 20
16.87871882677997
 30
0.0
 11
253.9060315430195
 21
17.8635265797924
 31
0.0
  0
LINE
  5
EF7C89194
330
EF7C85532
100
AcDbEntity
  8
JISSEN
100
AcDbLine
 10
253.9060315430195
 20
17.8635265797924
 30
0.0
 11
254.906031543019
 21
18.03985356050067
 31
0.0
  0
ARC
  5
EF7C89195
330
EF7C85532
100
AcDbEntity
  8
JISSEN
100
AcDbCircle
 10
261.9400234558302
 20
18.14526232881713
 30
0.0
 40
1.355499999999999
100
AcDbArc
 50
70.26879749382101
 51
124.9999999999968
  0
LINE
  5
EF7C89196
330
EF7C85532
100
AcDbEntity
  8
JISSEN
100
AcDbLine
 10
260.691199311043
 20
17.86352657979246
 30
0.0
 11
262.4848394852538
 21
19.5007623288172
 31
0.0
  0
LINE
  5
EF7C89197
330
EF7C85532
100
AcDbEntity
  8
JISSEN
100
AcDbLine
 10
259.6560315430195
 20
18.20075392932336
 30
0.0
 11
261.1625405963564
 21
19.25562292485098
 31
0.0
  0
LINE
  5
EF7C89198
330
EF7C85532
100
AcDbEntity
  8
JISSEN
100
AcDbLine
 10
262.4848394852538
 20
19.5007623288172
 30
0.0
 11
264.739244198001
 21
19.5007623288172
 31
0.0
  0
LINE
  5
EF7C89199
330
EF7C85532
100
AcDbEntity
  8
JISSEN
100
AcDbLine
 10
263.3854644924677
 20
16.70075392932337
 30
0.0
 11
263.2608521297318
 21
16.8787188267802
 31
0.0
  0
LINE
  5
EF7C8919A
330
EF7C85532
100
AcDbEntity
  8
JISSEN
100
AcDbLine
 10
263.1137440962755
 20
17.86352657979252
 30
0.0
 11
263.9068155404004
 21
19.05489456033315
 31
0.0
  0
ARC
  5
EF7C8919B
330
EF7C85532
100
AcDbEntity
  8
JISSEN
100
AcDbCircle
 10
264.739244198001
 20
18.50076232881669
 30
0.0
 40
1.0
100
AcDbArc
 50
47.91894748809069
 51
146.3490341753988
  0
LINE
  5
EF7C8919C
330
EF7C85532
100
AcDbEntity
  8
JISSEN
100
AcDbLine
 10
264.4551379819038
 20
17.86352657979252
 30
0.0
 11
265.5877723354249
 21
19.5007623288172
 31
0.0
  0
ARC
  5
EF7C8919D
330
EF7C85532
100
AcDbEntity
  8
JISSEN
100
AcDbCircle
 10
280.9060315430195
 20
50.50075392932338
 30
0.0
 40
26.0
100
AcDbArc
 50
180.0
 51
203.8188413934565
  0
ARC
  5
EF7C8919E
330
EF7C85532
100
AcDbEntity
  8
JISSEN
100
AcDbCircle
 10
280.9060315430195
 20
50.50075392932338
 30
0.0
 40
28.0
100
AcDbArc
 50
180.0
 51
202.024312837042
  0
ARC
  5
EF7C8919F
330
EF7C85532
100
AcDbEntity
  8
JISSEN
100
AcDbCircle
 10
272.9052469875271
 20
30.44068673175594
 30
0.0
 40
1.6
100
AcDbArc
 50
17.33173146614729
 51
162.7537116970127
  0
LINE
  5
EF7C891A0
330
EF7C85532
100
AcDbEntity
  8
JISSEN
100
AcDbLine
 10
287.8134565011253
 20
31.12938635269769
 30
0.0
 11
277.9798610276516
 21
19.50076232881714
 31
0.0
  0
ARC
  5
EF7C891A1
330
EF7C85532
100
AcDbEntity
  8
JISSEN
100
AcDbCircle
 10
264.9060315430195
 20
50.50075392932338
 30
0.0
 40
24.0
100
AcDbArc
 50
302.1818839204035
 51
0.0
  0
LINE
  5
EF7C891A2
330
EF7C85532
100
AcDbEntity
  8
JISSEN
100
AcDbLine
 10
276.3195472473135
 20
19.50076232881714
 30
0.0
 11
280.2242907506143
 21
19.5007623288172
 31
0.0
  0
LINE
  5
EF7C891A3
330
EF7C85532
100
AcDbEntity
  8
JISSEN
100
AcDbLine
 10
282.4265985935713
 20
16.70075392932337
 30
0.0
 11
272.9060315430195
 21
16.70075392932337
 31
0.0
  0
LINE
  5
EF7C891A4
330
EF7C85532
100
AcDbEntity
  8
JISSEN
100
AcDbLine
 10
270.6516268302724
 20
19.50076232881725
 30
0.0
 11
275.1604362557666
 21
19.5007623288172
 31
0.0
  0
ARC
  5
EF7C891A5
330
EF7C85532
100
AcDbEntity
  8
JISSEN
100
AcDbCircle
 10
269.4925158387255
 20
19.00076232881623
 30
0.0
 40
0.5
100
AcDbArc
 50
13.29012998990297
 51
164.2012849264975
  0
ARC
  5
EF7C891A6
330
EF7C85532
100
AcDbEntity
  8
JISSEN
100
AcDbCircle
 10
266.9060315430195
 20
19.04731894718419
 30
0.0
 40
1.0
100
AcDbArc
 50
26.96482331253057
 51
40.21909874455571
  0
LINE
  5
EF7C891A7
330
EF7C85532
100
AcDbEntity
  8
JISSEN
100
AcDbLine
 10
268.6511086335377
 20
17.86352657979252
 30
0.0
 11
269.0114037889766
 21
19.13689166285668
 31
0.0
  0
ARC
  5
EF7C891A8
330
EF7C85532
100
AcDbEntity
  8
JISSEN
100
AcDbCircle
 10
269.6922039622537
 20
18.2019720937288
 30
0.0
 40
0.1
100
AcDbArc
 50
13.29012998990889
 51
164.2012849264934
  0
LINE
  5
EF7C891A9
330
EF7C85532
100
AcDbEntity
  8
JISSEN
100
AcDbLine
 10
269.8748993840132
 20
17.86352657979252
 30
0.0
 11
269.7895258110202
 21
18.22496030272101
 31
0.0
  0
LINE
  5
EF7C891AA
330
EF7C85532
100
AcDbEntity
  8
JISSEN
100
AcDbLine
 10
269.4925158387255
 20
17.86352657979252
 30
0.0
 11
269.5959815523038
 21
18.22919796053692
 31
0.0
  0
LINE
  5
EF7C891AB
330
EF7C85532
100
AcDbEntity
  8
JISSEN
100
AcDbLine
 10
270.2748993840133
 20
17.86352657979252
 30
0.0
 11
269.9791250825581
 21
19.11570337377703
 31
0.0
  0
LINE
  5
EF7C891AC
330
EF7C85532
100
AcDbEntity
  8
JISSEN
100
AcDbLine
 10
270.4834867577872
 20
17.86352657979252
 30
0.0
 11
270.6516268302724
 21
19.5007623288172
 31
0.0
  0
ARC
  5
EF7C891AD
330
EF7C85532
100
AcDbEntity
  8
JISSEN
100
AcDbCircle
 10
276.3195472473135
 20
19.00076232881623
 30
0.0
 40
0.5
100
AcDbArc
 50
15.79871507350246
 51
166.709870010097
  0
ARC
  5
EF7C891AE
330
EF7C85532
100
AcDbEntity
  8
JISSEN
100
AcDbCircle
 10
276.1198591237853
 20
18.2019720937288
 30
0.0
 40
0.1
100
AcDbArc
 50
15.79871507350659
 51
166.7098700100911
  0
LINE
  5
EF7C891AF
330
EF7C85532
100
AcDbEntity
  8
JISSEN
100
AcDbLine
 10
276.3195472473135
 20
17.86352657979252
 30
0.0
 11
276.2160815337352
 21
18.22919796053692
 31
0.0
  0
LINE
  5
EF7C891B0
330
EF7C85532
100
AcDbEntity
  8
JISSEN
100
AcDbLine
 10
275.9371637020259
 20
17.86352657979252
 30
0.0
 11
276.022537275019
 21
18.22496030272101
 31
0.0
  0
LINE
  5
EF7C891B1
330
EF7C85532
100
AcDbEntity
  8
JISSEN
100
AcDbLine
 10
275.5371637020258
 20
17.86352657979252
 30
0.0
 11
275.8329380034809
 21
19.11570337377703
 31
0.0
  0
LINE
  5
EF7C891B2
330
EF7C85532
100
AcDbEntity
  8
JISSEN
100
AcDbLine
 10
275.1604362557666
 20
19.5007623288172
 30
0.0
 11
275.3285763282522
 21
17.86352657979252
 31
0.0
  0
ARC
  5
EF7C891B3
330
EF7C85532
100
AcDbEntity
  8
JISSEN
100
AcDbCircle
 10
278.9060315430195
 20
19.04731894718419
 30
0.0
 40
1.0
100
AcDbArc
 50
139.7809012554442
 51
153.0351766874621
  0
LINE
  5
EF7C891B4
330
EF7C85532
100
AcDbEntity
  8
JISSEN
100
AcDbLine
 10
277.1609544525015
 20
17.86352657979252
 30
0.0
 11
276.8006592970626
 21
19.13689166285668
 31
0.0
  0
LINE
  5
EF7C891B5
330
EF7C85532
100
AcDbEntity
  8
JISSEN
100
AcDbLine
 10
275.7020254522336
 20
30.50075392932338
 30
0.0
 11
272.9060315430195
 21
30.50075392932338
 31
0.0
  0
ARC
  5
EF7C891B6
330
EF7C85532
100
AcDbEntity
  8
JISSEN
100
AcDbCircle
 10
256.1560315430195
 20
24.50075392932338
 30
0.0
 40
12.49999999999999
100
AcDbArc
 50
343.7397952916878
 51
16.26020470831211
  0
ARC
  5
EF7C891B7
330
EF7C85532
100
AcDbEntity
  8
JISSEN
100
AcDbCircle
 10
270.1100376338054
 20
29.00075392932338
 30
0.0
 40
1.5
100
AcDbArc
 50
90.0
 51
125.5633285759494
  0
ARC
  5
EF7C891B8
330
EF7C85532
100
AcDbEntity
  8
JISSEN
100
AcDbCircle
 10
268.6560315430195
 20
31.03443686625265
 30
0.0
 40
1.0
100
AcDbArc
 50
237.8181160795964
 51
305.5633285759505
  0
LINE
  5
EF7C891B9
330
EF7C85532
100
AcDbEntity
  8
JISSEN
100
AcDbLine
 10
270.1100376338054
 20
30.50075392932338
 30
0.0
 11
272.9060315430195
 21
30.50075392932338
 31
0.0
  0
LINE
  5
EF7C891BA
330
EF7C85532
100
AcDbEntity
  8
JISSEN
100
AcDbLine
 10
270.9628840095761
 20
30.50075392932338
 30
0.0
 11
271.3771843430277
 21
30.91505426277489
 31
0.0
  0
ARC
  5
EF7C891BB
330
EF7C85532
100
AcDbEntity
  8
JISSEN
100
AcDbCircle
 10
289.6560315430195
 20
24.50075392932338
 30
0.0
 40
12.49999999999999
100
AcDbArc
 50
163.7397952916878
 51
196.2602047083121
  0
ARC
  5
EF7C891BC
330
EF7C85532
100
AcDbEntity
  8
JISSEN
100
AcDbCircle
 10
275.7020254522336
 20
29.00075392932338
 30
0.0
 40
1.5
100
AcDbArc
 50
54.43667142405059
 51
90.0
  0
LINE
  5
EF7C891BD
330
EF7C85532
100
AcDbEntity
  8
JISSEN
100
AcDbLine
 10
274.8491790764631
 20
30.50075392932338
 30
0.0
 11
274.432600525714
 21
30.9173324800726
 31
0.0
  0
ARC
  5
EF7C891BE
330
EF7C85532
100
AcDbEntity
  8
JISSEN
100
AcDbCircle
 10
277.1560315430195
 20
31.03443686625265
 30
0.0
 40
1.0
100
AcDbArc
 50
234.4366714240494
 51
302.1818839204035
  0
LINE
  5
EF7C891BF
330
EF7C85532
100
AcDbEntity
  8
JISSEN
100
AcDbLine
 10
286.1560315430195
 20
18.20075392932336
 30
0.0
 11
289.9935202065469
 21
18.20075392932336
 31
0.0
  0
LINE
  5
EF7C891C0
330
EF7C85532
100
AcDbEntity
  8
JISSEN
100
AcDbLine
 10
285.120863774996
 20
17.86352657979246
 30
0.0
 11
283.3272236007852
 21
19.50076232881714
 31
0.0
  0
ARC
  5
EF7C891C1
330
EF7C85532
100
AcDbEntity
  8
JISSEN
100
AcDbCircle
 10
283.8720396302088
 20
18.14526232881713
 30
0.0
 40
1.355499999999999
100
AcDbArc
 50
55.00000000000309
 51
109.7312025061702
  0
LINE
  5
EF7C891C2
330
EF7C85532
100
AcDbEntity
  8
JISSEN
100
AcDbLine
 10
283.3272236007852
 20
19.50076232881714
 30
0.0
 11
281.0728188880382
 21
19.50076232881714
 31
0.0
  0
LINE
  5
EF7C891C3
330
EF7C85532
100
AcDbEntity
  8
JISSEN
100
AcDbLine
 10
282.6983189897635
 20
17.86352657979252
 30
0.0
 11
281.9052475456388
 21
19.05489456033309
 31
0.0
  0
LINE
  5
EF7C891C4
330
EF7C85532
100
AcDbEntity
  8
JISSEN
100
AcDbLine
 10
282.4265985935713
 20
16.70075392932337
 30
0.0
 11
282.5512109563074
 21
16.8787188267802
 31
0.0
  0
ARC
  5
EF7C891C5
330
EF7C85532
100
AcDbEntity
  8
JISSEN
100
AcDbCircle
 10
281.0728188880382
 20
18.50076232881669
 30
0.0
 40
1.0
100
AcDbArc
 50
33.65096582460109
 51
132.0810525119092
  0
LINE
  5
EF7C891C6
330
EF7C85532
100
AcDbEntity
  8
JISSEN
100
AcDbLine
 10
281.3569251041354
 20
17.86352657979252
 30
0.0
 11
280.2242907506143
 21
19.50076232881714
 31
0.0
  0
LINE
  5
EF7C891C7
330
EF7C85532
100
AcDbEntity
  8
JISSEN
100
AcDbLine
 10
286.1560315430195
 20
18.20075392932336
 30
0.0
 11
284.6495224896826
 21
19.25562292485098
 31
0.0
  0
LINE
  5
EF7C891C8
330
EF7C85532
100
AcDbEntity
  8
JISSEN
100
AcDbLine
 10
291.9060315430195
 20
17.86352657979263
 30
0.0
 11
289.9935202065456
 21
18.20075392932359
 31
0.0
  0
LINE
  5
EF7C891C9
330
EF7C85532
100
AcDbEntity
  8
JISSEN
100
AcDbLine
 10
291.7323833653525
 20
16.8787188267802
 30
0.0
 11
291.9060315430195
 21
17.86352657979263
 31
0.0
  0
ARC
  5
EF7C891CA
330
EF7C85532
100
AcDbEntity
  8
JISSEN
100
AcDbCircle
 10
264.9060315430195
 20
50.50075392932338
 30
0.0
 40
26.0
100
AcDbArc
 50
336.1811586065433
 51
0.0
  0
ARC
  5
EF7C891CB
330
EF7C85532
100
AcDbEntity
  8
JISSEN
100
AcDbCircle
 10
264.9060315430195
 20
50.50075392932338
 30
0.0
 40
28.0
100
AcDbArc
 50
337.9756871629579
 51
0.0
  0
LINE
  5
EF7C891CC
330
EF7C85532
100
AcDbEntity
  8
JISSEN
100
AcDbLine
 10
260.0049980948027
 20
67.55773959854565
 30
0.0
 11
285.8070649912363
 21
67.55773959854599
 31
0.0
  0
LINE
  5
EF7C891CD
330
EF7C85532
100
AcDbEntity
  8
JISSEN
100
AcDbLine
 10
260.138282811203
 20
66.05773959854595
 30
0.0
 11
285.9403497076367
 21
66.05773959854592
 31
0.0
  0
LINE
  5
EF7C891CE
330
EF7C85532
100
AcDbEntity
  8
JISSEN
100
AcDbLine
 10
266.9060315430195
 20
57.70075392932337
 30
0.0
 11
265.6560315430195
 21
58.4224417658104
 31
0.0
  0
LINE
  5
EF7C891CF
330
EF7C85532
100
AcDbEntity
  8
JISSEN
100
AcDbLine
 10
265.4060315430195
 20
60.70075392932331
 30
0.0
 11
271.4060315430195
 21
60.70075392932331
 31
0.0
  0
LINE
  5
EF7C891D0
330
EF7C85532
100
AcDbEntity
  8
JISSEN
100
AcDbLine
 10
264.7065700557869
 20
62.50075392932338
 30
0.0
 11
271.4060315430195
 21
62.50075392932338
 31
0.0
  0
LINE
  5
EF7C891D1
330
EF7C85532
100
AcDbEntity
  8
JISSEN
100
AcDbLine
 10
280.1560315430195
 20
59.72244176581035
 30
0.0
 11
265.6560315430197
 21
59.72244176581035
 31
0.0
  0
TEXT
  5
EF7C891D2
330
EF7C85532
100
AcDbEntity
  8
JISSEN
100
AcDbText
 10
268.4238159196847
 20
65.95942246295165
 30
0.0
 40
3.0
  1
D
 50
180.0
  7
K
 72
     4
 11
266.8523873482561
 21
64.45942246295165
 31
0.0
100
AcDbText
  0
LWPOLYLINE
  5
EF7C891D3
330
EF7C85532
100
AcDbEntity
  8
JISSEN
100
AcDbPolyline
 90
        5
 70
     0
 43
0.0
 10
242.888282811203
 20
72.05773959854299
 42
0.1724294177368879
 10
257.375164893497
 20
67.60299755281552
 42
-0.3050742458420749
 10
258.5179437410213
 20
66.90387001334967
 42
0.2933139429534979
 10
259.8362159147693
 20
66.057739598543
 10
260.138282811203
 20
66.057739598543
  0
LINE
  5
EF7C891D4
330
EF7C85532
100
AcDbEntity
  8
JISSEN
100
AcDbLine
 10
264.7065700557869
 20
66.05773959854595
 30
0.0
 11
264.7065700557869
 21
62.50075392932338
 31
0.0
  0
ARC
  5
EF7C891D5
330
EF7C85532
100
AcDbEntity
  8
JISSEN
100
AcDbCircle
 10
259.0182830113513
 20
69.6438712576997
 30
0.0
 40
6.498907295833106
100
AcDbArc
 50
284.6790800521976
 51
320.8990391255044
  0
LINE
  5
EF7C891D6
330
EF7C85532
100
AcDbEntity
  8
JISSEN
100
AcDbLine
 10
265.6560315430195
 20
58.4224417658104
 30
0.0
 11
265.6560315430197
 21
59.72244176581042
 31
0.0
  0
ARC
  5
EF7C891D7
330
EF7C85532
100
AcDbEntity
  8
JISSEN
100
AcDbCircle
 10
261.9321608200948
 20
58.52028437603805
 30
0.0
 40
5.0
100
AcDbArc
 50
104.6790800521975
 51
126.6829888003599
  0
LINE
  5
EF7C891D8
330
EF7C85532
100
AcDbEntity
  8
JISSEN
100
AcDbLine
 10
265.4060315430195
 20
62.50075392932338
 30
0.0
 11
265.4060315430195
 21
60.70075392932331
 31
0.0
  0
ARC
  5
EF7C891D9
330
EF7C85532
100
AcDbEntity
  8
JISSEN
100
AcDbCircle
 10
265.1560315430195
 20
59.49656249944123
 30
0.0
 40
0.5
100
AcDbArc
 50
33.02876887191276
 51
104.8402148385181
  0
LINE
  5
EF7C891DA
330
EF7C85532
100
AcDbEntity
  8
JISSEN
100
AcDbLine
 10
265.6560315430197
 20
59.72244176581035
 30
0.0
 11
265.5752300393658
 21
59.76909253569586
 31
0.0
  0
LINE
  5
EF7C891DB
330
EF7C85532
100
AcDbEntity
  8
JISSEN
100
AcDbLine
 10
280.4060315430195
 20
60.70075392932331
 30
0.0
 11
274.4060315430195
 21
60.70075392932331
 31
0.0
  0
LINE
  5
EF7C891DC
330
EF7C85532
100
AcDbEntity
  8
JISSEN
100
AcDbLine
 10
278.9060315430195
 20
57.70075392932337
 30
0.0
 11
280.1560315430195
 21
58.4224417658104
 31
0.0
  0
LINE
  5
EF7C891DD
330
EF7C85532
100
AcDbEntity
  8
JISSEN
100
AcDbLine
 10
281.1054930302523
 20
62.50075392932338
 30
0.0
 11
274.4060315430195
 21
62.50075392932338
 31
0.0
  0
LINE
  5
EF7C891DE
330
EF7C85532
100
AcDbEntity
  8
JISSEN
100
AcDbLine
 10
276.9060315430195
 20
62.50075392932338
 30
0.0
 11
276.9060315430195
 21
66.05773959854594
 31
0.0
  0
LINE
  5
EF7C891DF
330
EF7C85532
100
AcDbEntity
  8
JISSEN
100
AcDbLine
 10
268.9060315430195
 20
62.50075392932338
 30
0.0
 11
268.9060315430195
 21
66.05773959854594
 31
0.0
  0
LINE
  5
EF7C891E0
330
EF7C85532
100
AcDbEntity
  8
JISSEN
100
AcDbLine
 10
278.9060315430195
 20
57.70075392932337
 30
0.0
 11
266.9060315430195
 21
57.70075392932337
 31
0.0
  0
LINE
  5
EF7C891E1
330
EF7C85532
100
AcDbEntity
  8
JISSEN
100
AcDbLine
 10
271.4060315430195
 20
60.70075392932331
 30
0.0
 11
271.4060315430195
 21
62.50075392932338
 31
0.0
  0
LINE
  5
EF7C891E2
330
EF7C85532
100
AcDbEntity
  8
JISSEN
100
AcDbLine
 10
274.4060315430195
 20
62.50075392932338
 30
0.0
 11
274.4060315430195
 21
60.70075392932331
 31
0.0
  0
ARC
  5
EF7C891E3
330
EF7C85532
100
AcDbEntity
  8
JISSEN
100
AcDbCircle
 10
286.7937800746879
 20
69.6438712576997
 30
0.0
 40
6.498907295833106
100
AcDbArc
 50
219.1009608744955
 51
255.3209199478016
  0
LINE
  5
EF7C891E4
330
EF7C85532
100
AcDbEntity
  8
JISSEN
100
AcDbLine
 10
281.1054930302523
 20
66.05773959854594
 30
0.0
 11
281.1054930302523
 21
62.50075392932338
 31
0.0
  0
LINE
  5
EF7C891E5
330
EF7C85532
100
AcDbEntity
  8
JISSEN
100
AcDbLine
 10
280.1560315430195
 20
58.4224417658104
 30
0.0
 11
280.1560315430195
 21
59.72244176581042
 31
0.0
  0
LINE
  5
EF7C891E6
330
EF7C85532
100
AcDbEntity
  8
JISSEN
100
AcDbLine
 10
280.4060315430195
 20
62.50075392932338
 30
0.0
 11
280.4060315430195
 21
60.70075392932331
 31
0.0
  0
LINE
  5
EF7C891E7
330
EF7C85532
100
AcDbEntity
  8
JISSEN
100
AcDbLine
 10
280.1560315430195
 20
59.72244176581035
 30
0.0
 11
280.2368330466732
 21
59.76909253569586
 31
0.0
  0
ARC
  5
EF7C891E8
330
EF7C85532
100
AcDbEntity
  8
JISSEN
100
AcDbCircle
 10
280.6560315430195
 20
59.49656249944123
 30
0.0
 40
0.5
100
AcDbArc
 50
75.15978516148187
 51
146.9712311280872
  0
ARC
  5
EF7C891E9
330
EF7C85532
100
AcDbEntity
  8
JISSEN
100
AcDbCircle
 10
283.8799022659441
 20
58.52028437603805
 30
0.0
 40
5.0
100
AcDbArc
 50
53.31701119964003
 51
75.32091994780239
  0
LWPOLYLINE
  5
EF7C891EA
330
EF7C85532
100
AcDbEntity
  8
JISSEN
100
AcDbPolyline
 90
        5
 70
     0
 43
0.0
 10
61.88828353520325
 20
72.05773967292351
 42
0.1724294177368876
 10
76.3751656174972
 20
67.60299762719604
 42
-0.3050742458420749
 10
77.51794446502157
 20
66.90387008773019
 42
0.2933139429534979
 10
78.8362166387696
 20
66.05773967292352
 10
79.13828353520324
 20
66.05773967292352
  0
LINE
  5
EF7C891EB
330
EF7C85532
100
AcDbEntity
  8
JISSEN
100
AcDbLine
 10
54.47461554495141
 20
72.05773967292647
 30
0.0
 11
129.4746155449507
 21
72.05773967292642
 31
0.0
  0
LINE
  5
EF7C891EC
330
EF7C85532
100
AcDbEntity
  8
JISSEN
100
AcDbLine
 10
78.8362166387696
 20
67.55773967292618
 30
0.0
 11
104.6382835352032
 21
67.55773967292653
 31
0.0
  0
LWPOLYLINE
  5
EF7C891ED
330
EF7C85532
100
AcDbEntity
  8
JISSEN
100
AcDbPolyline
 90
        5
 70
     0
 43
0.0
 10
121.8882835352032
 20
72.05773967292351
 42
-0.1724294177368876
 10
107.4014014529092
 20
67.60299762719604
 42
0.3050742458420749
 10
106.2586226053849
 20
66.90387008773019
 42
-0.2933139429534979
 10
104.9403504316368
 20
66.05773967292352
 10
104.6382835352032
 20
66.05773967292352
  0
LINE
  5
EF7C891EE
330
EF7C85532
100
AcDbEntity
  8
JISSEN
100
AcDbLine
 10
78.8362166387696
 20
66.05773967292619
 30
0.0
 11
104.6382835352032
 21
66.05773967292653
 31
0.0
  0
ARC
  5
EF7C891F0
330
EF7C85532
100
AcDbEntity
  8
JISSEN
100
AcDbCircle
 10
99.90603226701949
 20
50.50075400370412
 30
0.0
 40
28.0
100
AcDbArc
 50
180.0
 51
202.0243128370419
  0
ARC
  5
EF7C891F1
330
EF7C85532
100
AcDbEntity
  8
JISSEN
100
AcDbCircle
 10
99.90603226701949
 20
50.50075400370412
 30
0.0
 40
26.0
100
AcDbArc
 50
180.0
 51
203.8188413934562
  0
ARC
  5
EF7C891F2
330
EF7C85532
100
AcDbEntity
  8
JISSEN
100
AcDbCircle
 10
83.9060322670195
 20
50.50075400370412
 30
0.0
 40
28.0
100
AcDbArc
 50
337.975687162958
 51
0.0
  0
ARC
  5
EF7C891F3
330
EF7C85532
100
AcDbEntity
  8
JISSEN
100
AcDbCircle
 10
83.9060322670195
 20
50.50075400370412
 30
0.0
 40
26.0
100
AcDbArc
 50
336.1811586065437
 51
0.0
  0
ARC
  5
EF7C891F4
330
EF7C85532
100
AcDbEntity
  8
JISSEN
100
AcDbCircle
 10
83.9060322670195
 20
50.50075400370412
 30
0.0
 40
24.0
100
AcDbArc
 50
302.1818839204041
 51
0.0
  0
ARC
  5
EF7C891F5
330
EF7C85532
100
AcDbEntity
  8
JISSEN
100
AcDbCircle
 10
83.9060322670195
 20
50.50075400370412
 30
0.0
 40
30.0
100
AcDbArc
 50
319.7809012554437
 51
0.0
  0
ARC
  5
EF7C891F6
330
EF7C85532
100
AcDbEntity
  8
JISSEN
100
AcDbCircle
 10
99.90603226701949
 20
50.50075400370412
 30
0.0
 40
30.0
100
AcDbArc
 50
180.0
 51
220.2190987445562
  0
ARC
  5
EF7C891F7
330
EF7C85532
100
AcDbEntity
  8
JISSEN
100
AcDbCircle
 10
99.90603226701949
 20
50.50075400370412
 30
0.0
 40
24.0
100
AcDbArc
 50
180.0
 51
237.8181160795958
  0
ARC
  5
EF7C891F8
330
EF7C85532
100
AcDbEntity
  8
JISSEN
100
AcDbCircle
 10
85.94719500718879
 20
42.83834053887099
 30
0.0
 40
13.5
100
AcDbArc
 50
317.7945535962688
 51
0.0
  0
ARC
  5
EF7C891F9
330
EF7C85532
100
AcDbEntity
  8
JISSEN
100
AcDbCircle
 10
97.94719500718878
 20
42.83834053887099
 30
0.0
 40
13.5
100
AcDbArc
 50
180.0
 51
222.2054464037317
  0
LINE
  5
EF7C891FA
330
EF7C85532
100
AcDbEntity
  8
JISSEN
100
AcDbLine
 10
90.40655655187174
 20
50.81602369990529
 30
0.0
 11
89.44719500718884
 21
37.38496207434442
 31
0.0
  0
LINE
  5
EF7C891FB
330
EF7C85532
100
AcDbEntity
  8
JISSEN
100
AcDbLine
 10
94.44719500718884
 20
37.38496207434442
 30
0.0
 11
93.48783346250593
 21
50.81602369990529
 31
0.0
  0
LINE
  5
EF7C891FC
330
EF7C85532
100
AcDbEntity
  8
JISSEN
100
AcDbLine
 10
89.32219500718877
 20
42.58834053887099
 30
0.0
 11
89.32219500718877
 21
38.08834053887099
 31
0.0
  0
LINE
  5
EF7C891FD
330
EF7C85532
100
AcDbEntity
  8
JISSEN
100
AcDbLine
 10
94.57219500718878
 20
42.58834053887099
 30
0.0
 11
94.57219500718878
 21
38.08834053887099
 31
0.0
  0
LINE
  5
EF7C891FE
330
EF7C85532
100
AcDbEntity
  8
JISSEN
100
AcDbLine
 10
86.87646138734022
 20
35.11248413855176
 30
0.0
 11
88.25652588993575
 21
35.11248413855176
 31
0.0
  0
ARC
  5
EF7C891FF
330
EF7C85532
100
AcDbEntity
  8
JISSEN
100
AcDbCircle
 10
95.94719500718884
 20
37.38496207434442
 30
0.0
 40
1.5
100
AcDbArc
 50
180.0
 51
255.7499673021965
  0
ARC
  5
EF7C89200
330
EF7C85532
100
AcDbEntity
  8
JISSEN
100
AcDbCircle
 10
87.94719500718883
 20
37.38496207434442
 30
0.0
 40
1.5
100
AcDbArc
 50
284.2500326978036
 51
0.0
  0
LINE
  5
EF7C89201
330
EF7C85532
100
AcDbEntity
  8
JISSEN
100
AcDbLine
 10
87.94719500718883
 20
31.60989314195333
 30
0.0
 11
87.94719500718883
 21
33.98496207434439
 31
0.0
  0
ARC
  5
EF7C89202
330
EF7C85532
100
AcDbEntity
  8
JISSEN
100
AcDbCircle
 10
87.71743046906108
 20
34.41399708159176
 30
0.0
 40
0.4866855046380603
100
AcDbArc
 50
298.1707402297523
 51
355.8150838748825
  0
LINE
  5
EF7C89203
330
EF7C85532
100
AcDbEntity
  8
JISSEN
100
AcDbLine
 10
88.20281833561978
 20
34.37848089623381
 30
0.0
 11
88.31642577641963
 21
35.93111592049834
 31
0.0
  0
LINE
  5
EF7C89204
330
EF7C85532
100
AcDbEntity
  8
JISSEN
100
AcDbLine
 10
95.94719500718884
 20
33.98496207434439
 30
0.0
 11
95.94719500718884
 21
31.60989314195333
 31
0.0
  0
ARC
  5
EF7C89205
330
EF7C85532
100
AcDbEntity
  8
JISSEN
100
AcDbCircle
 10
96.17695954531667
 20
34.41399708159176
 30
0.0
 40
0.4866855046380603
100
AcDbArc
 50
184.1849161251174
 51
241.8292597702476
  0
LINE
  5
EF7C89206
330
EF7C85532
100
AcDbEntity
  8
JISSEN
100
AcDbLine
 10
95.5779642379581
 20
35.93111592049828
 30
0.0
 11
95.6915716787579
 21
34.37848089623381
 31
0.0
  0
LINE
  5
EF7C89207
330
EF7C85532
100
AcDbEntity
  8
JISSEN
100
AcDbLine
 10
95.637864124442
 20
35.11248413855176
 30
0.0
 11
97.0179286270374
 21
35.11248413855176
 31
0.0
  0
ARC
  5
EF7C89208
330
EF7C85532
100
AcDbEntity
  8
JISSEN
100
AcDbCircle
 10
96.96672721934369
 20
49.3468020662757
 30
0.0
 40
11.0
100
AcDbArc
 50
6.021677192634045
 51
75.15978516148194
  0
ARC
  5
EF7C89209
330
EF7C85532
100
AcDbEntity
  8
JISSEN
100
AcDbCircle
 10
99.11727905054187
 20
49.89909628085945
 30
0.0
 40
10.80551655320168
100
AcDbArc
 50
3.191914576125969
 51
88.46871639638065
  0
ARC
  5
EF7C8920A
330
EF7C85532
100
AcDbEntity
  8
JISSEN
100
AcDbCircle
 10
105.7937807986879
 20
69.64387133208044
 30
0.0
 40
6.498907295833106
100
AcDbArc
 50
219.1009608744954
 51
255.3209199478007
  0
ARC
  5
EF7C8920B
330
EF7C85532
100
AcDbEntity
  8
JISSEN
100
AcDbCircle
 10
86.9060322670195
 20
50.50075400370412
 30
0.0
 40
15.0
100
AcDbArc
 50
126.6829888003598
 51
180.0
  0
ARC
  5
EF7C8920C
330
EF7C85532
100
AcDbEntity
  8
JISSEN
100
AcDbCircle
 10
84.69478548349725
 20
49.89909628085945
 30
0.0
 40
10.80551655320168
100
AcDbArc
 50
91.53128360361938
 51
176.8080854238748
  0
ARC
  5
EF7C8920D
330
EF7C85532
100
AcDbEntity
  8
JISSEN
100
AcDbCircle
 10
86.9060322670195
 20
50.50075400370412
 30
0.0
 40
17.0
100
AcDbArc
 50
113.7776797785206
 51
180.0
  0
LINE
  5
EF7C8920E
330
EF7C85532
100
AcDbEntity
  8
JISSEN
100
AcDbLine
 10
100.1054937542523
 20
66.05773967292647
 30
0.0
 11
100.1054937542523
 21
62.50075400370412
 31
0.0
  0
LINE
  5
EF7C8920F
330
EF7C85532
100
AcDbEntity
  8
JISSEN
100
AcDbLine
 10
83.70657077978677
 20
66.05773967292626
 30
0.0
 11
83.70657077978677
 21
62.50075400370412
 31
0.0
  0
LINE
  5
EF7C89210
330
EF7C85532
100
AcDbEntity
  8
JISSEN
100
AcDbLine
 10
87.9060322670195
 20
62.50075400370412
 30
0.0
 11
87.9060322670195
 21
66.05773967292631
 31
0.0
  0
TEXT
  5
EF7C89211
330
EF7C85532
100
AcDbEntity
  8
JISSEN
100
AcDbText
 10
87.42381664368471
 20
65.95942253733238
 30
0.0
 40
3.0
  1
D
 50
180.0
  7
K
 72
     4
 11
85.85238807225612
 21
64.45942253733239
 31
0.0
100
AcDbText
  0
ARC
  5
EF7C89212
330
EF7C85532
100
AcDbEntity
  8
JISSEN
100
AcDbCircle
 10
78.0182837353513
 20
69.64387133208044
 30
0.0
 40
6.498907295833106
100
AcDbArc
 50
284.679080052196
 51
320.8990391255045
  0
ARC
  5
EF7C89213
330
EF7C85532
100
AcDbEntity
  8
JISSEN
100
AcDbCircle
 10
89.20603226701945
 20
63.81002837535096
 30
0.0
 40
0.3
100
AcDbArc
 50
180.0
 51
270.0
  0
LINE
  5
EF7C89214
330
EF7C85532
100
AcDbEntity
  8
JISSEN
100
AcDbLine
 10
95.90603226701949
 20
62.50075400370412
 30
0.0
 11
95.90603226701949
 21
66.05773967292641
 31
0.0
  0
ARC
  5
EF7C89215
330
EF7C85532
100
AcDbEntity
  8
JISSEN
100
AcDbCircle
 10
94.60603226701953
 20
63.81002837535096
 30
0.0
 40
0.3
100
AcDbArc
 50
270.0
 51
0.0
  0
LINE
  5
EF7C89216
330
EF7C85532
100
AcDbEntity
  8
JISSEN
100
AcDbLine
 10
83.70657077978677
 20
62.50075400370412
 30
0.0
 11
90.4060322670195
 21
62.50075400370412
 31
0.0
  0
LINE
  5
EF7C89217
330
EF7C85532
100
AcDbEntity
  8
JISSEN
100
AcDbLine
 10
84.65603226701949
 20
59.72244184019115
 30
0.0
 11
90.36270027673305
 21
59.72244184019115
 31
0.0
  0
LINE
  5
EF7C89218
330
EF7C85532
100
AcDbEntity
  8
JISSEN
100
AcDbLine
 10
84.4060322670195
 20
60.70075400370405
 30
0.0
 11
90.4060322670195
 21
60.70075400370405
 31
0.0
  0
LINE
  5
EF7C89219
330
EF7C85532
100
AcDbEntity
  8
JISSEN
100
AcDbLine
 10
84.4060322670195
 20
58.98834053887168
 30
0.0
 11
91.9060322670195
 21
58.98834053887168
 31
0.0
  0
LINE
  5
EF7C8921A
330
EF7C85532
100
AcDbEntity
  8
JISSEN
100
AcDbLine
 10
85.90603226701905
 20
59.28834053887186
 30
0.0
 11
90.21728826226029
 21
59.28834053887175
 31
0.0
  0
ARC
  5
EF7C8921B
330
EF7C85532
100
AcDbEntity
  8
JISSEN
100
AcDbCircle
 10
97.94719500718878
 20
47.83834053887099
 30
0.0
 40
10.5
100
AcDbArc
 50
165.8509954910654
 51
180.0
  0
ARC
  5
EF7C8921C
330
EF7C85532
100
AcDbEntity
  8
JISSEN
100
AcDbCircle
 10
88.94719500718878
 20
44.08834053887099
 30
0.0
 40
1.5
100
AcDbArc
 50
180.0
 51
270.0
  0
ARC
  5
EF7C8921D
330
EF7C85532
100
AcDbEntity
  8
JISSEN
100
AcDbCircle
 10
89.22022531548021
 20
50.03834053887098
 30
0.0
 40
1.5
100
AcDbArc
 50
90.0
 51
165.8509954910654
  0
ARC
  5
EF7C8921E
330
EF7C85532
100
AcDbEntity
  8
JISSEN
100
AcDbCircle
 10
97.94719500718878
 20
47.83834053887099
 30
0.0
 40
13.5
100
AcDbArc
 50
139.0382114476458
 51
180.0
  0
LINE
  5
EF7C8921F
330
EF7C85532
100
AcDbEntity
  8
JISSEN
100
AcDbLine
 10
84.4060322670195
 20
56.68834053887173
 30
0.0
 11
99.4060322670195
 21
56.68834053887173
 31
0.0
  0
LINE
  5
EF7C89220
330
EF7C85532
100
AcDbEntity
  8
JISSEN
100
AcDbLine
 10
96.90363190335354
 20
55.72544967596034
 30
0.0
 11
86.99075811102403
 21
55.72544967596039
 31
0.0
  0
ARC
  5
EF7C89221
330
EF7C85532
100
AcDbEntity
  8
JISSEN
100
AcDbCircle
 10
86.84533731469532
 20
49.3468020662757
 30
0.0
 40
11.0
100
AcDbArc
 50
104.840214838518
 51
173.9783228073659
  0
LINE
  5
EF7C89222
330
EF7C85532
100
AcDbEntity
  8
JISSEN
100
AcDbLine
 10
84.44719500718878
 20
42.83834053887099
 30
0.0
 11
84.44719500718878
 21
47.83834053887099
 31
0.0
  0
LINE
  5
EF7C89223
330
EF7C85532
100
AcDbEntity
  8
JISSEN
100
AcDbLine
 10
87.44719500718877
 20
44.08834053887099
 30
0.0
 11
87.44719500718877
 21
47.83834053887099
 31
0.0
  0
ARC
  5
EF7C89224
330
EF7C85532
100
AcDbEntity
  8
JISSEN
100
AcDbCircle
 10
80.93216154409487
 20
58.52028445041878
 30
0.0
 40
5.0
100
AcDbArc
 50
104.679080052196
 51
126.6829888003598
  0
LINE
  5
EF7C89225
330
EF7C85532
100
AcDbEntity
  8
JISSEN
100
AcDbLine
 10
84.4060322670195
 20
59.28834053887169
 30
0.0
 11
84.4060322670195
 21
56.68834053887173
 31
0.0
  0
ARC
  5
EF7C89226
330
EF7C85532
100
AcDbEntity
  8
JISSEN
100
AcDbCircle
 10
84.1560322670195
 20
59.49656257382196
 30
0.0
 40
0.5
100
AcDbArc
 50
33.02876887191203
 51
104.840214838518
  0
LINE
  5
EF7C89227
330
EF7C85532
100
AcDbEntity
  8
JISSEN
100
AcDbLine
 10
85.40791777653629
 20
59.28834053887169
 30
0.0
 11
84.57523076336673
 21
59.76909261007603
 31
0.0
  0
LINE
  5
EF7C89228
330
EF7C85532
100
AcDbEntity
  8
JISSEN
100
AcDbLine
 10
84.4060322670195
 20
62.50075400370412
 30
0.0
 11
84.4060322670195
 21
60.70075400370405
 31
0.0
  0
LINE
  5
EF7C89229
330
EF7C85532
100
AcDbEntity
  8
JISSEN
100
AcDbLine
 10
85.90603226701905
 20
59.28834053887169
 30
0.0
 11
84.4060322670195
 21
59.28834053887169
 31
0.0
  0
ARC
  5
EF7C8922A
330
EF7C85532
100
AcDbEntity
  8
JISSEN
100
AcDbCircle
 10
85.94719500718879
 20
47.83834053887099
 30
0.0
 40
13.5
100
AcDbArc
 50
0.0
 51
40.9617885523541
  0
LINE
  5
EF7C8922B
330
EF7C85532
100
AcDbEntity
  8
JISSEN
100
AcDbLine
 10
89.94719500718877
 20
51.73834053887097
 30
0.0
 11
89.94719500718877
 21
54.55167774548889
 31
0.0
  0
LINE
  5
EF7C8922C
330
EF7C85532
100
AcDbEntity
  8
JISSEN
100
AcDbLine
 10
93.94719500718878
 20
51.73834053887097
 30
0.0
 11
93.94719500718878
 21
54.55167774548889
 31
0.0
  0
LINE
  5
EF7C8922D
330
EF7C85532
100
AcDbEntity
  8
JISSEN
100
AcDbLine
 10
90.19719500718883
 20
50.81602369990529
 30
0.0
 11
90.19719500718883
 21
53.32839420150136
 31
0.0
  0
LINE
  5
EF7C8922E
330
EF7C85532
100
AcDbEntity
  8
JISSEN
100
AcDbLine
 10
93.69719500718884
 20
53.32839420150136
 30
0.0
 11
93.69719500718884
 21
50.81602369990529
 31
0.0
  0
LINE
  5
EF7C8922F
330
EF7C85532
100
AcDbEntity
  8
JISSEN
100
AcDbLine
 10
95.20915101530794
 20
51.43969332859015
 30
0.0
 11
94.44719500718912
 21
50.9997778221921
 31
0.0
  0
ARC
  5
EF7C89230
330
EF7C85532
100
AcDbEntity
  8
JISSEN
100
AcDbCircle
 10
93.84392485935052
 20
38.54718569020977
 30
0.0
 40
10.00141397672878
100
AcDbArc
 50
79.64350735096402
 51
85.67111797138881
  0
ARC
  5
EF7C89231
330
EF7C85532
100
AcDbEntity
  8
JISSEN
100
AcDbCircle
 10
94.15306393687826
 20
50.19083446857783
 30
0.0
 40
0.6441310703106079
100
AcDbArc
 50
0.0
 51
76.34089481470343
  0
ARC
  5
EF7C89232
330
EF7C85532
100
AcDbEntity
  8
JISSEN
100
AcDbCircle
 10
93.84392485935075
 20
32.680271170753
 30
0.0
 40
10.00141397672887
100
AcDbArc
 50
82.6319028082079
 51
85.67111797138881
  0
LINE
  5
EF7C89233
330
EF7C85532
100
AcDbEntity
  8
JISSEN
100
AcDbLine
 10
94.94719500718877
 20
42.58834053887099
 30
0.0
 11
94.57219500718878
 21
42.58834053887099
 31
0.0
  0
ARC
  5
EF7C89234
330
EF7C85532
100
AcDbEntity
  8
JISSEN
100
AcDbCircle
 10
94.67416469889736
 20
50.03834053887098
 30
0.0
 40
1.5
100
AcDbArc
 50
14.14900450893455
 51
90.0
  0
LINE
  5
EF7C89235
330
EF7C85532
100
AcDbEntity
  8
JISSEN
100
AcDbLine
 10
88.19719500718884
 20
47.20241065242541
 30
0.0
 11
88.19719500718884
 21
46.48512872220121
 31
0.0
  0
ARC
  5
EF7C89236
330
EF7C85532
100
AcDbEntity
  8
JISSEN
100
AcDbCircle
 10
89.32219500718877
 20
42.888340538871
 30
0.0
 40
1.199999999999999
100
AcDbArc
 50
270.0
 51
291.4232972478954
  0
ARC
  5
EF7C89237
330
EF7C85532
100
AcDbEntity
  8
JISSEN
100
AcDbCircle
 10
91.17526233436739
 20
67.08372829595808
 30
0.0
 40
24.90306398983168
100
AcDbArc
 50
265.7326069421967
 51
266.816945111796
  0
ARC
  5
EF7C89238
330
EF7C85532
100
AcDbEntity
  8
JISSEN
100
AcDbCircle
 10
91.1752623343645
 20
17.82113241985951
 30
0.0
 40
24.90306398982979
100
AcDbArc
 50
93.10594061441934
 51
94.32888202860793
  0
LINE
  5
EF7C89239
330
EF7C85532
100
AcDbEntity
  8
JISSEN
100
AcDbLine
 10
88.19719500718884
 20
46.17673949060358
 30
0.0
 11
88.19719500718884
 21
42.78930243319419
 31
0.0
  0
LINE
  5
EF7C8923A
330
EF7C85532
100
AcDbEntity
  8
JISSEN
100
AcDbLine
 10
88.19719500718884
 20
46.17673949060358
 30
0.0
 11
88.19719500718884
 21
46.48512872220121
 31
0.0
  0
LINE
  5
EF7C8923B
330
EF7C85532
100
AcDbEntity
  8
JISSEN
100
AcDbLine
 10
88.19719500716052
 20
46.48512872180723
 30
0.0
 11
88.19719500716052
 21
46.48512872234905
 31
0.0
  0
ARC
  5
EF7C8923C
330
EF7C85532
100
AcDbEntity
  8
JISSEN
100
AcDbCircle
 10
90.05046515502773
 20
32.68027117075459
 30
0.0
 40
10.00141397672734
100
AcDbArc
 50
94.32888202861446
 51
97.36809719179866
  0
LINE
  5
EF7C8923D
330
EF7C85532
100
AcDbEntity
  8
JISSEN
100
AcDbLine
 10
88.94719500718878
 20
42.58834053887099
 30
0.0
 11
89.32219500718877
 21
42.58834053887099
 31
0.0
  0
ARC
  5
EF7C8923E
330
EF7C85532
100
AcDbEntity
  8
JISSEN
100
AcDbCircle
 10
92.71912768001334
 20
17.82113241986016
 30
0.0
 40
24.90306398982914
100
AcDbArc
 50
85.67111797139208
 51
86.89405938558067
  0
ARC
  5
EF7C8923F
330
EF7C85532
100
AcDbEntity
  8
JISSEN
100
AcDbCircle
 10
92.71912768001289
 20
67.08372829595472
 30
0.0
 40
24.90306398982813
100
AcDbArc
 50
273.1830548881973
 51
274.2673930577966
  0
ARC
  5
EF7C89240
330
EF7C85532
100
AcDbEntity
  8
JISSEN
100
AcDbCircle
 10
94.57219500718878
 20
42.888340538871
 30
0.0
 40
1.199999999999999
100
AcDbArc
 50
248.5767027521151
 51
270.0
  0
LINE
  5
EF7C89241
330
EF7C85532
100
AcDbEntity
  8
JISSEN
100
AcDbLine
 10
93.69719500718884
 20
51.59919484006938
 30
0.0
 11
90.19719500718883
 21
51.59919484006938
 31
0.0
  0
LINE
  5
EF7C89242
330
EF7C85532
100
AcDbEntity
  8
JISSEN
100
AcDbLine
 10
93.69719500718884
 20
50.81602369990529
 30
0.0
 11
90.19719500718883
 21
50.81602369990529
 31
0.0
  0
LINE
  5
EF7C89243
330
EF7C85532
100
AcDbEntity
  8
JISSEN
100
AcDbLine
 10
89.22022531548021
 20
51.53834053887099
 30
0.0
 11
89.7471950071888
 21
51.53834053887099
 31
0.0
  0
ARC
  5
EF7C89244
330
EF7C85532
100
AcDbEntity
  8
JISSEN
100
AcDbCircle
 10
89.7471950071888
 20
51.73834053887097
 30
0.0
 40
0.2
100
AcDbArc
 50
270.0
 51
0.0
  0
ARC
  5
EF7C89245
330
EF7C85532
100
AcDbEntity
  8
JISSEN
100
AcDbCircle
 10
91.17526233436581
 20
23.68804693931517
 30
0.0
 40
24.90306398983088
100
AcDbArc
 50
92.13758614180552
 51
94.32888202860793
  0
ARC
  5
EF7C89246
330
EF7C85532
100
AcDbEntity
  8
JISSEN
100
AcDbCircle
 10
91.3711048662787
 20
41.32584528187723
 30
0.0
 40
9.665948963623709
100
AcDbArc
 50
96.97567628298456
 51
98.56261218149008
  0
LINE
  5
EF7C89247
330
EF7C85532
100
AcDbEntity
  8
JISSEN
100
AcDbLine
 10
89.09719500718887
 20
48.50306624188104
 30
0.0
 11
89.09719500718887
 21
50.19083446857783
 31
0.0
  0
ARC
  5
EF7C89248
330
EF7C85532
100
AcDbEntity
  8
JISSEN
100
AcDbCircle
 10
91.94719500718907
 20
55.32990484111431
 30
0.0
 40
5.0
100
AcDbArc
 50
239.9999999999999
 51
243.6791901783917
  0
ARC
  5
EF7C89249
330
EF7C85532
100
AcDbEntity
  8
JISSEN
100
AcDbCircle
 10
90.51675865479962
 20
46.9999861955641
 30
0.0
 40
3.927849752435048
100
AcDbArc
 50
98.5626121814966
 51
103.6591051852965
  0
ARC
  5
EF7C8924A
330
EF7C85532
100
AcDbEntity
  8
JISSEN
100
AcDbCircle
 10
88.26460766809743
 20
48.31934487736461
 30
0.0
 40
0.0674126609085717
100
AcDbArc
 50
100.3564926490459
 51
180.0000000000244
  0
LINE
  5
EF7C8924B
330
EF7C85532
100
AcDbEntity
  8
JISSEN
100
AcDbLine
 10
88.19719500718884
 20
48.31934487736461
 30
0.0
 11
88.19719500718884
 21
47.50898057363568
 31
0.0
  0
LINE
  5
EF7C8924C
330
EF7C85532
100
AcDbEntity
  8
JISSEN
100
AcDbLine
 10
88.19719500729792
 20
47.50898055141195
 30
0.0
 11
88.19719500729792
 21
47.50898062774692
 31
0.0
  0
LINE
  5
EF7C8924D
330
EF7C85532
100
AcDbEntity
  8
JISSEN
100
AcDbLine
 10
88.19719500718884
 20
47.20241065242541
 30
0.0
 11
88.19719500718884
 21
47.50898057363568
 31
0.0
  0
LINE
  5
EF7C8924E
330
EF7C85532
100
AcDbEntity
  8
JISSEN
100
AcDbLine
 10
88.68523899907017
 20
51.43969332859021
 30
0.0
 11
89.44719500718912
 21
50.9997778221921
 31
0.0
  0
ARC
  5
EF7C8924F
330
EF7C85532
100
AcDbEntity
  8
JISSEN
100
AcDbCircle
 10
90.05046515502693
 20
38.54718569021125
 30
0.0
 40
10.00141397672728
100
AcDbArc
 50
94.32888202861118
 51
100.3564926490359
  0
ARC
  5
EF7C89250
330
EF7C85532
100
AcDbEntity
  8
JISSEN
100
AcDbCircle
 10
89.74132607749949
 20
50.19083446857783
 30
0.0
 40
0.6441310703106079
100
AcDbArc
 50
103.6591051852965
 51
180.0
  0
ARC
  5
EF7C89251
330
EF7C85532
100
AcDbEntity
  8
JISSEN
100
AcDbCircle
 10
94.14719500718877
 20
51.73834053887097
 30
0.0
 40
0.2
100
AcDbArc
 50
180.0
 51
270.0
  0
LINE
  5
EF7C89252
330
EF7C85532
100
AcDbEntity
  8
JISSEN
100
AcDbLine
 10
94.67416469889736
 20
51.53834053887099
 30
0.0
 11
94.14719500718877
 21
51.53834053887099
 31
0.0
  0
ARC
  5
EF7C89253
330
EF7C85532
100
AcDbEntity
  8
JISSEN
100
AcDbCircle
 10
92.71912768001119
 20
23.68804693931687
 30
0.0
 40
24.90306398982923
100
AcDbArc
 50
85.67111797138881
 51
87.86241385819122
  0
LINE
  5
EF7C89254
330
EF7C85532
100
AcDbEntity
  8
JISSEN
100
AcDbLine
 10
94.79719500718886
 20
50.19083446857783
 30
0.0
 11
94.79719500718886
 21
48.5030662418811
 31
0.0
  0
ARC
  5
EF7C89255
330
EF7C85532
100
AcDbEntity
  8
JISSEN
100
AcDbCircle
 10
92.5232851480983
 20
41.32584528187769
 30
0.0
 40
9.665948963623366
100
AcDbArc
 50
81.43738781850341
 51
83.02432371701216
  0
ARC
  5
EF7C89256
330
EF7C85532
100
AcDbEntity
  8
JISSEN
100
AcDbCircle
 10
93.37763135957805
 20
46.99998619556388
 30
0.0
 40
3.927849752435279
100
AcDbArc
 50
76.34089481470347
 51
81.43738781850341
  0
ARC
  5
EF7C89257
330
EF7C85532
100
AcDbEntity
  8
JISSEN
100
AcDbCircle
 10
91.94719500718907
 20
55.32990484111431
 30
0.0
 40
5.0
100
AcDbArc
 50
296.3208098216078
 51
300.0
  0
LINE
  5
EF7C89258
330
EF7C85532
100
AcDbEntity
  8
JISSEN
100
AcDbLine
 10
99.44719500718878
 20
42.83834053887099
 30
0.0
 11
99.44719500718878
 21
47.83834053887099
 31
0.0
  0
LINE
  5
EF7C89259
330
EF7C85532
100
AcDbEntity
  8
JISSEN
100
AcDbLine
 10
96.44719500718878
 20
44.08834053887099
 30
0.0
 11
96.44719500718878
 21
47.83834053887099
 31
0.0
  0
LINE
  5
EF7C8925A
330
EF7C85532
100
AcDbEntity
  8
JISSEN
100
AcDbLine
 10
95.69719500718884
 20
46.48512872220121
 30
0.0
 11
95.69719500718884
 21
47.20241065242541
 31
0.0
  0
LINE
  5
EF7C8925B
330
EF7C85532
100
AcDbEntity
  8
JISSEN
100
AcDbLine
 10
95.69719500718884
 20
42.78930243319436
 30
0.0
 11
95.69719500718884
 21
46.17673949060358
 31
0.0
  0
LINE
  5
EF7C8925C
330
EF7C85532
100
AcDbEntity
  8
JISSEN
100
AcDbLine
 10
95.69727016422694
 20
46.17325137269827
 30
0.0
 11
95.69727016422694
 21
46.50198515326789
 31
0.0
  0
ARC
  5
EF7C8925D
330
EF7C85532
100
AcDbEntity
  8
JISSEN
100
AcDbCircle
 10
94.94719500718877
 20
44.08834053887099
 30
0.0
 40
1.5
100
AcDbArc
 50
270.0
 51
0.0
  0
ARC
  5
EF7C8925E
330
EF7C85532
100
AcDbEntity
  8
JISSEN
100
AcDbCircle
 10
95.62978234628019
 20
48.31934487736456
 30
0.0
 40
0.0674126609086159
100
AcDbArc
 50
0.0000000000244267
 51
79.64350735095739
  0
LINE
  5
EF7C8925F
330
EF7C85532
100
AcDbEntity
  8
JISSEN
100
AcDbLine
 10
95.69719500718884
 20
47.50898057363568
 30
0.0
 11
95.69719500718884
 21
48.31934487736461
 31
0.0
  0
LINE
  5
EF7C89260
330
EF7C85532
100
AcDbEntity
  8
JISSEN
100
AcDbLine
 10
95.69727016422694
 20
47.20641535148152
 30
0.0
 11
95.69727016422694
 21
47.5104321023999
 31
0.0
  0
ARC
  5
EF7C89261
330
EF7C85532
100
AcDbEntity
  8
JISSEN
100
AcDbCircle
 10
85.94719500718879
 20
47.83834053887099
 30
0.0
 40
10.5
100
AcDbArc
 50
0.0
 51
14.14900450893455
  0
LINE
  5
EF7C89262
330
EF7C85532
100
AcDbEntity
  8
JISSEN
100
AcDbLine
 10
99.4060322670195
 20
58.98834053887168
 30
0.0
 11
91.9060322670195
 21
58.98834053887168
 31
0.0
  0
LINE
  5
EF7C89263
330
EF7C85532
100
AcDbEntity
  8
JISSEN
100
AcDbLine
 10
100.1054937542523
 20
62.50075400370412
 30
0.0
 11
93.40603226701949
 21
62.50075400370412
 31
0.0
  0
LINE
  5
EF7C89264
330
EF7C85532
100
AcDbEntity
  8
JISSEN
100
AcDbLine
 10
99.4060322670195
 20
60.70075400370405
 30
0.0
 11
93.40603226701949
 21
60.70075400370405
 31
0.0
  0
LINE
  5
EF7C89265
330
EF7C85532
100
AcDbEntity
  8
JISSEN
100
AcDbLine
 10
97.90603226701996
 20
59.28834053887186
 30
0.0
 11
93.5947762717787
 21
59.28834053887175
 31
0.0
  0
LINE
  5
EF7C89266
330
EF7C85532
100
AcDbEntity
  8
JISSEN
100
AcDbLine
 10
99.1560322670195
 20
59.72244184019115
 30
0.0
 11
93.44936425730594
 21
59.72244184019115
 31
0.0
  0
LINE
  5
EF7C89267
330
EF7C85532
100
AcDbEntity
  8
JISSEN
100
AcDbLine
 10
90.19719500718883
 20
53.32839420150136
 30
0.0
 11
93.69719500718884
 21
53.32839420150136
 31
0.0
  0
LINE
  5
EF7C89268
330
EF7C85532
100
AcDbEntity
  8
JISSEN
100
AcDbLine
 10
92.74345955438333
 20
56.33564507616753
 30
0.0
 11
90.82716544258756
 21
56.33564507616736
 31
0.0
  0
ARC
  5
EF7C89269
330
EF7C85532
100
AcDbEntity
  8
JISSEN
100
AcDbCircle
 10
90.24719500718878
 20
52.75587375633453
 30
0.0
 40
0.3
100
AcDbArc
 50
99.59406822683844
 51
180.0
  0
ARC
  5
EF7C8926A
330
EF7C85532
100
AcDbEntity
  8
JISSEN
100
AcDbCircle
 10
91.78531249848555
 20
65.68668535087866
 30
0.0
 40
9.4
100
AcDbArc
 50
253.2252557359049
 51
264.1496496988334
  0
ARC
  5
EF7C8926B
330
EF7C85532
100
AcDbEntity
  8
JISSEN
100
AcDbCircle
 10
93.64719500718877
 20
52.75587375633453
 30
0.0
 40
0.3
100
AcDbArc
 50
0.0
 51
80.4059317731351
  0
ARC
  5
EF7C8926C
330
EF7C85532
100
AcDbEntity
  8
JISSEN
100
AcDbCircle
 10
91.78531249848555
 20
65.68668535087866
 30
0.0
 40
9.4
100
AcDbArc
 50
275.8503503011665
 51
286.7747442640951
  0
LINE
  5
EF7C8926D
330
EF7C85532
100
AcDbEntity
  8
JISSEN
100
AcDbLine
 10
90.6560322670195
 20
63.510028375351
 30
0.0
 11
90.6560322670195
 21
61.72758627575797
 31
0.0
  0
ARC
  5
EF7C8926E
330
EF7C85532
100
AcDbEntity
  8
JISSEN
100
AcDbCircle
 10
83.65603226701949
 20
61.72758627575797
 30
0.0
 40
7.0
100
AcDbArc
 50
336.9632903547648
 51
0.0
  0
LINE
  5
EF7C8926F
330
EF7C85532
100
AcDbEntity
  8
JISSEN
100
AcDbLine
 10
90.4060322670195
 20
60.70075400370405
 30
0.0
 11
90.4060322670195
 21
62.50075400370412
 31
0.0
  0
LINE
  5
EF7C89270
330
EF7C85532
100
AcDbEntity
  8
JISSEN
100
AcDbLine
 10
90.6560322670195
 20
63.510028375351
 30
0.0
 11
89.20603226701945
 21
63.510028375351
 31
0.0
  0
LINE
  5
EF7C89271
330
EF7C85532
100
AcDbEntity
  8
JISSEN
100
AcDbLine
 10
93.1560322670195
 20
63.510028375351
 30
0.0
 11
93.1560322670195
 21
61.72758627575797
 31
0.0
  0
LINE
  5
EF7C89272
330
EF7C85532
100
AcDbEntity
  8
JISSEN
100
AcDbLine
 10
93.40603226701949
 20
62.50075400370412
 30
0.0
 11
93.40603226701949
 21
60.70075400370405
 31
0.0
  0
LINE
  5
EF7C89273
330
EF7C85532
100
AcDbEntity
  8
JISSEN
100
AcDbLine
 10
94.60603226701953
 20
63.510028375351
 30
0.0
 11
93.1560322670195
 21
63.510028375351
 31
0.0
  0
ARC
  5
EF7C89274
330
EF7C85532
100
AcDbEntity
  8
JISSEN
100
AcDbCircle
 10
100.1560322670195
 20
61.72758627575797
 30
0.0
 40
7.0
100
AcDbArc
 50
180.0
 51
203.0367096452355
  0
LINE
  5
EF7C89275
330
EF7C85532
100
AcDbEntity
  8
JISSEN
100
AcDbLine
 10
99.4060322670195
 20
59.28834053887169
 30
0.0
 11
99.4060322670195
 21
56.68834053887173
 31
0.0
  0
LINE
  5
EF7C89276
330
EF7C85532
100
AcDbEntity
  8
JISSEN
100
AcDbLine
 10
97.90603226701996
 20
59.28834053887169
 30
0.0
 11
99.4060322670195
 21
59.28834053887169
 31
0.0
  0
LINE
  5
EF7C89277
330
EF7C85532
100
AcDbEntity
  8
JISSEN
100
AcDbLine
 10
98.4041467575027
 20
59.28834053887169
 30
0.0
 11
99.23683377067318
 21
59.76909261007659
 31
0.0
  0
LINE
  5
EF7C89278
330
EF7C85532
100
AcDbEntity
  8
JISSEN
100
AcDbLine
 10
99.4060322670195
 20
62.50075400370412
 30
0.0
 11
99.4060322670195
 21
60.70075400370405
 31
0.0
  0
ARC
  5
EF7C89279
330
EF7C85532
100
AcDbEntity
  8
JISSEN
100
AcDbCircle
 10
99.65603226701951
 20
59.49656257382196
 30
0.0
 40
0.5
100
AcDbArc
 50
75.15978516148199
 51
146.9712311280871
  0
ARC
  5
EF7C8927A
330
EF7C85532
100
AcDbEntity
  8
JISSEN
100
AcDbCircle
 10
94.60603226701953
 20
65.21002837535099
 30
0.0
 40
0.3
100
AcDbArc
 50
0.0
 51
90.0
  0
LINE
  5
EF7C8927B
330
EF7C85532
100
AcDbEntity
  8
JISSEN
100
AcDbLine
 10
89.20603226701945
 20
65.510028375351
 30
0.0
 11
94.60603226701953
 21
65.510028375351
 31
0.0
  0
LINE
  5
EF7C8927C
330
EF7C85532
100
AcDbEntity
  8
JISSEN
100
AcDbLine
 10
88.9060322670195
 20
63.81002837535101
 30
0.0
 11
88.9060322670195
 21
65.21002837535099
 31
0.0
  0
ARC
  5
EF7C8927D
330
EF7C85532
100
AcDbEntity
  8
JISSEN
100
AcDbCircle
 10
89.20603226701945
 20
65.21002837535099
 30
0.0
 40
0.3
100
AcDbArc
 50
90.0
 51
180.0
  0
LINE
  5
EF7C8927E
330
EF7C85532
100
AcDbEntity
  8
JISSEN
100
AcDbLine
 10
94.90603226701949
 20
65.21002837535099
 30
0.0
 11
94.90603226701949
 21
63.81002837535101
 31
0.0
  0
ARC
  5
EF7C8927F
330
EF7C85532
100
AcDbEntity
  8
JISSEN
100
AcDbCircle
 10
96.9060322670195
 20
50.50075400370412
 30
0.0
 40
17.0
100
AcDbArc
 50
0.0
 51
66.22232022148188
  0
ARC
  5
EF7C89280
330
EF7C85532
100
AcDbEntity
  8
JISSEN
100
AcDbCircle
 10
96.9060322670195
 20
50.50075400370412
 30
0.0
 40
15.0
100
AcDbArc
 50
0.0
 51
53.31701119964015
  0
ARC
  5
EF7C89281
330
EF7C85532
100
AcDbEntity
  8
JISSEN
100
AcDbCircle
 10
102.8799029899441
 20
58.52028445041878
 30
0.0
 40
5.0
100
AcDbArc
 50
53.31701119964015
 51
75.32091994780396
  0
LINE
  5
EF7C89282
330
EF7C85532
100
AcDbEntity
  8
JISSEN
100
AcDbLine
 10
102.3272243247851
 20
19.50076240319751
 30
0.0
 11
100.0728196120381
 21
19.50076240319751
 31
0.0
  0
LINE
  5
EF7C89283
330
EF7C85532
100
AcDbEntity
  8
JISSEN
100
AcDbLine
 10
72.9060322670195
 20
17.86352665417277
 30
0.0
 11
110.9060322670194
 21
17.863526654173
 31
0.0
  0
LINE
  5
EF7C89284
330
EF7C85532
100
AcDbEntity
  8
JISSEN
100
AcDbLine
 10
110.7323840893524
 20
16.87871890116056
 30
0.0
 11
73.07968044468641
 21
16.87871890116056
 31
0.0
  0
LINE
  5
EF7C89285
330
EF7C85532
100
AcDbEntity
  8
JISSEN
100
AcDbLine
 10
72.9060322670195
 20
17.86352665417277
 30
0.0
 11
73.90603226701904
 21
18.03985363488104
 31
0.0
  0
LINE
  5
EF7C89286
330
EF7C85532
100
AcDbEntity
  8
JISSEN
100
AcDbLine
 10
73.07968044468651
 20
16.87871890116034
 30
0.0
 11
72.9060322670195
 21
17.86352665417277
 31
0.0
  0
LINE
  5
EF7C89287
330
EF7C85532
100
AcDbEntity
  8
JISSEN
100
AcDbLine
 10
100.3569258281352
 20
17.86352665417288
 30
0.0
 11
99.22429147461418
 21
19.50076240319751
 31
0.0
  0
ARC
  5
EF7C89288
330
EF7C85532
100
AcDbEntity
  8
JISSEN
100
AcDbCircle
 10
100.0728196120381
 20
18.50076240319705
 30
0.0
 40
1.0
100
AcDbArc
 50
33.65096582460159
 51
132.0810525119086
  0
LINE
  5
EF7C89289
330
EF7C85532
100
AcDbEntity
  8
JISSEN
100
AcDbLine
 10
79.69120003504298
 20
17.86352665417282
 30
0.0
 11
81.48484020925383
 21
19.50076240319757
 31
0.0
  0
ARC
  5
EF7C8928A
330
EF7C85532
100
AcDbEntity
  8
JISSEN
100
AcDbCircle
 10
80.94002417983023
 20
18.1452624031975
 30
0.0
 40
1.355499999999999
100
AcDbArc
 50
70.26879749382175
 51
124.999999999997
  0
LINE
  5
EF7C8928B
330
EF7C85532
100
AcDbEntity
  8
JISSEN
100
AcDbLine
 10
83.45513870590371
 20
17.86352665417288
 30
0.0
 11
84.58777305942493
 21
19.50076240319757
 31
0.0
  0
ARC
  5
EF7C8928C
330
EF7C85532
100
AcDbEntity
  8
JISSEN
100
AcDbCircle
 10
83.73924492200098
 20
18.50076240319705
 30
0.0
 40
1.0
100
AcDbArc
 50
47.91894748809134
 51
146.3490341753983
  0
ARC
  5
EF7C8928D
330
EF7C85532
100
AcDbEntity
  8
JISSEN
100
AcDbCircle
 10
88.49251656272548
 20
19.0007624031966
 30
0.0
 40
0.5
100
AcDbArc
 50
13.29012998990317
 51
164.2012849264971
  0
LINE
  5
EF7C8928E
330
EF7C85532
100
AcDbEntity
  8
JISSEN
100
AcDbLine
 10
89.48348748178721
 20
17.86352665417288
 30
0.0
 11
89.65162755427234
 21
19.50076240319757
 31
0.0
  0
LINE
  5
EF7C8928F
330
EF7C85532
100
AcDbEntity
  8
JISSEN
100
AcDbLine
 10
94.16043697976665
 20
19.50076240319757
 30
0.0
 11
94.32857705225211
 21
17.86352665417288
 31
0.0
  0
ARC
  5
EF7C89290
330
EF7C85532
100
AcDbEntity
  8
JISSEN
100
AcDbCircle
 10
95.31954797131351
 20
19.0007624031966
 30
0.0
 40
0.5
100
AcDbArc
 50
15.79871507350289
 51
166.7098700100968
  0
LINE
  5
EF7C89291
330
EF7C85532
100
AcDbEntity
  8
JISSEN
100
AcDbLine
 10
87.65110935753767
 20
17.86352665417288
 30
0.0
 11
88.01140451297653
 21
19.13689173723705
 31
0.0
  0
LINE
  5
EF7C89292
330
EF7C85532
100
AcDbEntity
  8
JISSEN
100
AcDbLine
 10
82.38546521646771
 20
16.70075400370373
 30
0.0
 11
91.9060322670195
 21
16.70075400370373
 31
0.0
  0
LINE
  5
EF7C89293
330
EF7C85532
100
AcDbEntity
  8
JISSEN
100
AcDbLine
 10
74.81854360349354
 20
18.20075400370373
 30
0.0
 11
78.65603226701949
 21
18.20075400370373
 31
0.0
  0
LINE
  5
EF7C89294
330
EF7C85532
100
AcDbEntity
  8
JISSEN
100
AcDbLine
 10
73.90603226701904
 20
18.03985363488104
 30
0.0
 11
74.81854360349342
 21
18.20075400370373
 31
0.0
  0
LINE
  5
EF7C89295
330
EF7C85532
100
AcDbEntity
  8
JISSEN
100
AcDbLine
 10
78.65603226701949
 20
18.20075400370373
 30
0.0
 11
80.16254132035641
 21
19.25562299923134
 31
0.0
  0
LINE
  5
EF7C89296
330
EF7C85532
100
AcDbEntity
  8
JISSEN
100
AcDbLine
 10
82.11374482027549
 20
17.86352665417288
 30
0.0
 11
82.90681626440045
 21
19.05489463471352
 31
0.0
  0
LINE
  5
EF7C89297
330
EF7C85532
100
AcDbEntity
  8
JISSEN
100
AcDbLine
 10
82.38546521646771
 20
16.70075400370373
 30
0.0
 11
82.26085285373182
 21
16.87871890116056
 31
0.0
  0
LINE
  5
EF7C89298
330
EF7C85532
100
AcDbEntity
  8
JISSEN
100
AcDbLine
 10
94.53716442602575
 20
17.86352665417288
 30
0.0
 11
94.8329387274809
 21
19.1157034481574
 31
0.0
  0
LINE
  5
EF7C89299
330
EF7C85532
100
AcDbEntity
  8
JISSEN
100
AcDbLine
 10
101.4265993175712
 20
16.70075400370373
 30
0.0
 11
91.9060322670195
 21
16.70075400370373
 31
0.0
  0
LINE
  5
EF7C8929A
330
EF7C85532
100
AcDbEntity
  8
JISSEN
100
AcDbLine
 10
88.49251656272548
 20
17.86352665417288
 30
0.0
 11
88.5959822763038
 21
18.22919803491728
 31
0.0
  0
LINE
  5
EF7C8929B
330
EF7C85532
100
AcDbEntity
  8
JISSEN
100
AcDbLine
 10
88.87490010801315
 20
17.86352665417288
 30
0.0
 11
88.78952653502024
 21
18.22496037710138
 31
0.0
  0
ARC
  5
EF7C8929C
330
EF7C85532
100
AcDbEntity
  8
JISSEN
100
AcDbCircle
 10
88.69220468625366
 20
18.20197216810916
 30
0.0
 40
0.1
100
AcDbArc
 50
13.29012998990878
 51
164.2012849264932
  0
LINE
  5
EF7C8929D
330
EF7C85532
100
AcDbEntity
  8
JISSEN
100
AcDbLine
 10
89.27490010801324
 20
17.86352665417288
 30
0.0
 11
88.97912580655811
 21
19.1157034481574
 31
0.0
  0
LINE
  5
EF7C8929E
330
EF7C85532
100
AcDbEntity
  8
JISSEN
100
AcDbLine
 10
94.93716442602584
 20
17.86352665417288
 30
0.0
 11
95.02253799901888
 21
18.22496037710138
 31
0.0
  0
LINE
  5
EF7C8929F
330
EF7C85532
100
AcDbEntity
  8
JISSEN
100
AcDbLine
 10
95.31954797131351
 20
17.86352665417288
 30
0.0
 11
95.21608225773519
 21
18.22919803491728
 31
0.0
  0
ARC
  5
EF7C892A0
330
EF7C85532
100
AcDbEntity
  8
JISSEN
100
AcDbCircle
 10
95.11985984778533
 20
18.20197216810916
 30
0.0
 40
0.1
100
AcDbArc
 50
15.79871507350672
 51
166.7098700100912
  0
LINE
  5
EF7C892A1
330
EF7C85532
100
AcDbEntity
  8
JISSEN
100
AcDbLine
 10
96.16095517650144
 20
17.86352665417288
 30
0.0
 11
95.80066002106258
 21
19.13689173723705
 31
0.0
  0
LINE
  5
EF7C892A2
330
EF7C85532
100
AcDbEntity
  8
JISSEN
100
AcDbLine
 10
101.6983197137635
 20
17.86352665417288
 30
0.0
 11
100.9052482696386
 21
19.05489463471346
 31
0.0
  0
LINE
  5
EF7C892A3
330
EF7C85532
100
AcDbEntity
  8
JISSEN
100
AcDbLine
 10
101.4265993175712
 20
16.70075400370373
 30
0.0
 11
101.5512116803072
 21
16.87871890116056
 31
0.0
  0
LINE
  5
EF7C892A4
330
EF7C85532
100
AcDbEntity
  8
JISSEN
100
AcDbLine
 10
88.49251656272548
 20
19.50076240319757
 30
0.0
 11
84.58777305942493
 21
19.50076240319757
 31
0.0
  0
LINE
  5
EF7C892A5
330
EF7C85532
100
AcDbEntity
  8
JISSEN
100
AcDbLine
 10
81.48484020925383
 20
19.50076240319757
 30
0.0
 11
83.73924492200098
 21
19.50076240319757
 31
0.0
  0
ARC
  5
EF7C892A6
330
EF7C85532
100
AcDbEntity
  8
JISSEN
100
AcDbCircle
 10
85.90603226701949
 20
19.04731902156456
 30
0.0
 40
1.0
100
AcDbArc
 50
26.96482331252983
 51
40.21909874455624
  0
LINE
  5
EF7C892A7
330
EF7C85532
100
AcDbEntity
  8
JISSEN
100
AcDbLine
 10
89.65162755427234
 20
19.50076240319762
 30
0.0
 11
94.16043697976665
 21
19.50076240319757
 31
0.0
  0
LINE
  5
EF7C892A8
330
EF7C85532
100
AcDbEntity
  8
JISSEN
100
AcDbLine
 10
95.31954797131351
 20
19.50076240319751
 30
0.0
 11
99.22429147461418
 21
19.50076240319757
 31
0.0
  0
ARC
  5
EF7C892A9
330
EF7C85532
100
AcDbEntity
  8
JISSEN
100
AcDbCircle
 10
97.9060322670195
 20
19.04731902156456
 30
0.0
 40
1.0
100
AcDbArc
 50
139.7809012554437
 51
153.0351766874614
  0
ARC
  5
EF7C892AA
330
EF7C85532
100
AcDbEntity
  8
JISSEN
100
AcDbCircle
 10
102.8720403542087
 20
18.1452624031975
 30
0.0
 40
1.355499999999999
100
AcDbArc
 50
55.00000000000298
 51
109.731202506171
  0
LINE
  5
EF7C892AB
330
EF7C85532
100
AcDbEntity
  8
JISSEN
100
AcDbLine
 10
104.120864498996
 20
17.86352665417282
 30
0.0
 11
102.3272243247851
 21
19.50076240319751
 31
0.0
  0
LINE
  5
EF7C892AC
330
EF7C85532
100
AcDbEntity
  8
JISSEN
100
AcDbLine
 10
105.1560322670195
 20
18.20075400370373
 30
0.0
 11
108.9935209305469
 21
18.20075400370373
 31
0.0
  0
LINE
  5
EF7C892AD
330
EF7C85532
100
AcDbEntity
  8
JISSEN
100
AcDbLine
 10
105.1560322670195
 20
18.20075400370373
 30
0.0
 11
103.6495232136825
 21
19.25562299923134
 31
0.0
  0
LINE
  5
EF7C892AE
330
EF7C85532
100
AcDbEntity
  8
JISSEN
100
AcDbLine
 10
110.7323840893524
 20
16.87871890116056
 30
0.0
 11
110.9060322670194
 21
17.863526654173
 31
0.0
  0
LINE
  5
EF7C892AF
330
EF7C85532
100
AcDbEntity
  8
JISSEN
100
AcDbLine
 10
110.9060322670194
 20
17.863526654173
 30
0.0
 11
108.9935209305455
 21
18.20075400370396
 31
0.0
  0
LINE
  5
EF7C892B0
330
EF7C85532
100
AcDbEntity
  8
JISSEN
100
AcDbLine
 10
106.8134572251253
 20
31.12938642707806
 30
0.0
 11
96.97986175165164
 21
19.50076240319751
 31
0.0
  0
LINE
  5
EF7C892B1
330
EF7C85532
100
AcDbEntity
  8
JISSEN
100
AcDbLine
 10
76.99860730891368
 20
31.12938642707806
 30
0.0
 11
86.83220278238735
 21
19.50076240319757
 31
0.0
  0
ARC
  5
EF7C892B2
330
EF7C85532
100
AcDbEntity
  8
JISSEN
100
AcDbCircle
 10
75.1560322670195
 20
24.50075400370375
 30
0.0
 40
12.49999999999999
100
AcDbArc
 50
343.7397952916875
 51
16.26020470831243
  0
ARC
  5
EF7C892B3
330
EF7C85532
100
AcDbEntity
  8
JISSEN
100
AcDbCircle
 10
108.6560322670194
 20
24.50075400370375
 30
0.0
 40
12.49999999999999
100
AcDbArc
 50
163.7397952916875
 51
196.2602047083124
  0
ARC
  5
EF7C892B4
330
EF7C85532
100
AcDbEntity
  8
JISSEN
100
AcDbCircle
 10
87.65603226701973
 20
31.03443694063348
 30
0.0
 40
1.0
100
AcDbArc
 50
237.8181160795958
 51
305.5633285759499
  0
ARC
  5
EF7C892B5
330
EF7C85532
100
AcDbEntity
  8
JISSEN
100
AcDbCircle
 10
89.11003835780565
 20
29.00075400370421
 30
0.0
 40
1.5
100
AcDbArc
 50
90.0
 51
125.5633285759494
  0
ARC
  5
EF7C892B6
330
EF7C85532
100
AcDbEntity
  8
JISSEN
100
AcDbCircle
 10
94.7020261762338
 20
29.00075400370421
 30
0.0
 40
1.5
100
AcDbArc
 50
54.4366714240505
 51
90.0
  0
ARC
  5
EF7C892B7
330
EF7C85532
100
AcDbEntity
  8
JISSEN
100
AcDbCircle
 10
96.15603226701972
 20
31.03443694063348
 30
0.0
 40
1.0
100
AcDbArc
 50
234.43667142405
 51
302.1818839204041
  0
LINE
  5
EF7C892B8
330
EF7C85532
100
AcDbEntity
  8
JISSEN
100
AcDbLine
 10
89.11003835780565
 20
30.50075400370421
 30
0.0
 11
91.90603226701972
 21
30.50075400370421
 31
0.0
  0
LINE
  5
EF7C892B9
330
EF7C85532
100
AcDbEntity
  8
SAISEN
100
AcDbLine
 10
89.90603226701978
 20
30.50075400370421
 30
0.0
 11
89.90603226701978
 21
30.93240820847479
 31
0.0
  0
LINE
  5
EF7C892BA
330
EF7C85532
100
AcDbEntity
  8
SAISEN
100
AcDbLine
 10
93.90603226701978
 20
30.50075400370421
 30
0.0
 11
93.90603226701978
 21
30.93240820847479
 31
0.0
  0
LINE
  5
EF7C892BB
330
EF7C85532
100
AcDbEntity
  8
JISSEN
100
AcDbLine
 10
94.7020261762338
 20
30.50075400370421
 30
0.0
 11
91.90603226701972
 21
30.50075400370421
 31
0.0
  0
LINE
  5
EF7C892BC
330
EF7C85532
100
AcDbEntity
  8
JISSEN
100
AcDbLine
 10
89.47437806224916
 20
30.50075400370421
 30
0.0
 11
90.58351720049847
 21
31.60989314195346
 31
0.0
  0
LINE
  5
EF7C892BD
330
EF7C85532
100
AcDbEntity
  8
JISSEN
100
AcDbLine
 10
94.33768647179034
 20
30.50075400370421
 30
0.0
 11
93.22854733354114
 21
31.60989314195346
 31
0.0
  0
LINE
  5
EF7C892BE
330
EF7C85532
100
AcDbEntity
  8
JISSEN
100
AcDbLine
 10
95.94719500718884
 20
31.60989314195333
 30
0.0
 11
87.94719500718883
 21
31.60989314195333
 31
0.0
  0
HATCH
  5
EF7C89300
330
EF7C85532
100
AcDbEntity
  8
HATCH
100
AcDbHatch
 10
0.0
 20
0.0
 30
0.0
210
0.0
220
0.0
230
1.0
  2
ANSI31
 70
     0
 71
     0
 91
        2
 92
        7
 72
     1
 73
     1
 93
       13
 10
302.8882828112069
 20
172.0577396729263
 42
0.0
 10
301.1368844466069
 20
172.0577396729263
 42
-0.1557399217224488
 10
288.4445632119049
 20
168.6020656929761
 42
0.3050742458420811
 10
286.3494686581101
 20
167.320331870622
 42
-0.2933139429535041
 10
285.9403497076367
 20
167.0577396729234
 42
0.0
 10
285.6382828112032
 20
167.0577396729234
 42
-0.4142135623730951
 10
284.6382828112032
 20
168.0577396729234
 42
0.0
 10
284.6382828112032
 20
169.0577396729235
 42
0.0
 10
283.6382828112032
 20
169.0577396729235
 42
0.0
 10
283.6382828112032
 20
168.0577396729234
 42
0.438343819183208
 10
285.8014564032976
 20
166.0644071921659
 42
0.3195508479178618
 10
287.2586218813848
 20
166.9038700877301
 42
-0.3050742458420883
 10
288.4014007289092
 20
167.602997627196
 42
0.172429417736941
 97
        0
 92
        7
 72
     1
 73
     1
 93
       13
 10
260.1382828112032
 20
167.0577396729234
 42
0.0
 10
259.8362159147694
 20
167.0577396729234
 42
-0.2933139429534796
 10
259.4270969642959
 20
167.3203318706221
 42
0.3050742458420794
 10
257.3320024105013
 20
168.6020656929761
 42
-0.15573992172245
 10
244.6396811757993
 20
172.0577396729264
 42
0.0
 10
242.8882828111992
 20
172.0577396729264
 42
0.1724294177369433
 10
257.375164893497
 20
167.602997627196
 42
-0.3050742458420882
 10
258.5179437410215
 20
166.9038700877301
 42
0.3195508479178619
 10
259.9751092191088
 20
166.0644071921659
 42
0.438343819183208
 10
262.1382828112032
 20
168.0577396729234
 42
0.0
 10
262.1382828112032
 20
169.0577396729235
 42
0.0
 10
261.1382828112032
 20
169.0577396729235
 42
0.0
 10
261.1382828112032
 20
168.0577396729234
 42
-0.4142135623730951
 97
        0
 75
     0
 76
     1
 52
90.0
 41
10.0
 77
     0
 78
     1
 53
135.0
 43
0.0000000000000568
 44
0.0
 45
-0.8838834764831844
 46
-0.8838834764831842
 79
     0
 47
0.0763726391003648
 98
        2
 10
290.0565466066036
 20
168.0696771182665
 10
260.0176863005253
 20
166.6949655852258
  0
LWPOLYLINE
  5
EF7C89301
330
EF7C85532
100
AcDbEntity
  8
JISSEN
100
AcDbPolyline
 90
        7
 70
     0
 43
0.0
 10
301.1368844466026
 20
172.0577396729234
 42
-0.1557399217223865
 10
288.4445632119049
 20
168.6020656929761
 42
0.3050742458420765
 10
286.3494686581102
 20
167.3203318706221
 42
-0.2933139429534918
 10
285.9403497076368
 20
167.0577396729234
 10
285.6382828112032
 20
167.0577396729234
 42
-0.4142135623730951
 10
284.6382828112032
 20
168.0577396729234
 10
284.6382828112032
 20
169.0577396729235
  0
LWPOLYLINE
  5
EF7C89302
330
EF7C85532
100
AcDbEntity
  8
JISSEN
100
AcDbPolyline
 90
        7
 70
     0
 43
0.0
 10
302.8882828112032
 20
172.0577396729234
 42
-0.1724294177368876
 10
288.4014007289092
 20
167.602997627196
 42
0.3050742458420749
 10
287.2586218813848
 20
166.9038700877301
 42
-0.2933139429534979
 10
285.9403497076368
 20
166.0577396729235
 10
285.6382828112032
 20
166.0577396729235
 42
-0.4142135623730951
 10
283.6382828112032
 20
168.0577396729234
 10
283.6382828112032
 20
169.0577396729235
  0
LINE
  5
EF7C89303
330
EF7C85532
100
AcDbEntity
  8
JISSEN
100
AcDbLine
 10
283.6382828112032
 20
169.0577396729235
 30
0.0
 11
284.6382828112032
 21
169.0577396729235
 31
0.0
  0
LWPOLYLINE
  5
EF7C89304
330
EF7C85532
100
AcDbEntity
  8
JISSEN
100
AcDbPolyline
 90
        7
 70
     0
 43
0.0
 10
244.6396811758038
 20
172.0577396729234
 42
0.1557399217223865
 10
257.3320024105014
 20
168.6020656929761
 42
-0.3050742458420765
 10
259.4270969642959
 20
167.3203318706221
 42
0.2933139429534918
 10
259.8362159147695
 20
167.0577396729234
 10
260.1382828112032
 20
167.0577396729234
 42
0.4142135623730951
 10
261.1382828112032
 20
168.0577396729234
 10
261.1382828112032
 20
169.0577396729235
  0
LWPOLYLINE
  5
EF7C89305
330
EF7C85532
100
AcDbEntity
  8
JISSEN
100
AcDbPolyline
 90
        7
 70
     0
 43
0.0
 10
242.8882828112032
 20
172.0577396729234
 42
0.1724294177368876
 10
257.3751648934972
 20
167.602997627196
 42
-0.3050742458420749
 10
258.5179437410215
 20
166.9038700877301
 42
0.2933139429534979
 10
259.8362159147695
 20
166.0577396729235
 10
260.1382828112032
 20
166.0577396729235
 42
0.4142135623730951
 10
262.1382828112032
 20
168.0577396729234
 10
262.1382828112032
 20
169.0577396729235
  0
LINE
  5
EF7C89306
330
EF7C85532
100
AcDbEntity
  8
JISSEN
100
AcDbLine
 10
261.1382828112032
 20
169.0577396729235
 30
0.0
 11
262.1382828112032
 21
169.0577396729235
 31
0.0
  0
LINE
  5
EF7C89307
330
EF7C85532
100
AcDbEntity
  8
JISSEN
 62
     0
100
AcDbLine
 10
261.1382828112032
 20
169.0577396729235
 30
0.0
 11
262.1382828112032
 21
169.0577396729235
 31
0.0
  0
ENDSEC
  0
SECTION
  2
OBJECTS
  0
DICTIONARY
  5
EF7C85527
330
0
100
AcDbDictionary
  3
ACAD_GROUP
350
EF7C85528
  3
ACAD_LAYOUT
350
EF7C85BB7
  3
ACAD_MLINESTYLE
350
EF7C85535
  3
ACAD_PLOTSETTINGS
350
EF7C85BB8
  3
ACAD_PLOTSTYLENAME
350
EF7C85BB5
  3
ACDBHEADERROUNDTRIPXREC
350
EF7C8934B
  3
ACDBVARIABLEDICTIONARY
350
EF7C85DB7
  0
DICTIONARY
  5
EF7C85D9A
330
EF7C85532
100
AcDbDictionary
280
     1
  3
ACAD_LAYOUTSELFREF
360
EF7C8936D
  0
DICTIONARY
  5
EF7C85D98
330
EF7C8552F
100
AcDbDictionary
280
     1
  3
ACAD_LAYOUTSELFREF
360
EF7C8936C
  0
DICTIONARY
  5
EF7C85528
102
{ACAD_REACTORS
330
EF7C85527
102
}
330
EF7C85527
100
AcDbDictionary
  0
DICTIONARY
  5
EF7C85BB7
102
{ACAD_REACTORS
330
EF7C85527
102
}
330
EF7C85527
100
AcDbDictionary
  0
DICTIONARY
  5
EF7C85535
102
{ACAD_REACTORS
330
EF7C85527
102
}
330
EF7C85527
100
AcDbDictionary
  3
STANDARD
350
EF7C85536
  0
DICTIONARY
  5
EF7C85BB8
102
{ACAD_REACTORS
330
EF7C85527
102
}
330
EF7C85527
100
AcDbDictionary
  0
ACDBDICTIONARYWDFLT
  5
EF7C85BB5
102
{ACAD_REACTORS
330
EF7C85527
102
}
330
EF7C85527
100
AcDbDictionary
281
     1
  3
Normal
350
EF7C85BB6
100
AcDbDictionaryWithDefault
340
EF7C85BB6
  0
DICTIONARY
  5
EF7C8934B
102
{ACAD_REACTORS
330
EF7C85527
102
}
330
EF7C85527
100
AcDbDictionary
  3
CEPSNTYPE
350
EF7C89355
  3
DIMSTYLEDATA
350
EF7C89359
  3
FINGERPRINTGUID
350
EF7C89356
  3
HYPERLINKBASE
350
EF7C8934E
  3
INSUNITS
350
EF7C89354
  3
LAYOUTDICT
350
EF7C89350
  3
LWETCUNION
350
EF7C89353
  3
PLOTSETDICT
350
EF7C89351
  3
PLOTSTYLNAMDICT
350
EF7C89352
  3
PSVPSCALE
350
EF7C89358
  3
PUCSBASE
350
EF7C8935C
  3
PUCSORGBACK
350
EF7C89362
  3
PUCSORGBOTTOM
350
EF7C8935E
  3
PUCSORGFRONT
350
EF7C89361
  3
PUCSORGLEFT
350
EF7C8935F
  3
PUCSORGRIGHT
350
EF7C89360
  3
PUCSORGTOP
350
EF7C8935D
  3
PUCSORTHOREF
350
EF7C8935A
  3
PUCSORTHOVIEW
350
EF7C8935B
  3
STYLESHEET
350
EF7C8934F
  3
TSTACKALIGN
350
EF7C8934C
  3
TSTACKSIZE
350
EF7C8934D
  3
UCSBASE
350
EF7C89365
  3
UCSORGBACK
350
EF7C8936B
  3
UCSORGBOTTOM
350
EF7C89367
  3
UCSORGFRONT
350
EF7C8936A
  3
UCSORGLEFT
350
EF7C89368
  3
UCSORGRIGHT
350
EF7C89369
  3
UCSORGTOP
350
EF7C89366
  3
UCSORTHOREF
350
EF7C89363
  3
UCSORTHOVIEW
350
EF7C89364
  3
VERSIONGUID
350
EF7C89357
  0
DICTIONARY
  5
EF7C85DB7
102
{ACAD_REACTORS
330
EF7C85527
102
}
330
EF7C85527
100
AcDbDictionary
  3
DIMASSOC
350
EF7C89349
  3
SORTENTS
350
EF7C85DB8
  0
XRECORD
  5
EF7C8936D
102
{ACAD_REACTORS
330
EF7C85D9A
102
}
330
EF7C85D9A
100
AcDbXrecord
340
EF7C85532
  0
XRECORD
  5
EF7C8936C
102
{ACAD_REACTORS
330
EF7C85D98
102
}
330
EF7C85D98
100
AcDbXrecord
340
EF7C8552F
  0
MLINESTYLE
  5
EF7C85536
102
{ACAD_REACTORS
330
EF7C85535
102
}
330
EF7C85535
100
AcDbMlineStyle
  2
STANDARD
 70
     0
  3

 62
   256
 51
90.0
 52
90.0
 71
     2
 49
0.5
 62
   256
  6
BYLAYER
 49
-0.5
 62
   256
  6
BYLAYER
  0
ACDBPLACEHOLDER
  5
EF7C85BB6
102
{ACAD_REACTORS
330
EF7C85BB5
102
}
330
EF7C85BB5
100
AcDbPlaceHolder
280
     0
  0
XRECORD
  5
EF7C89355
102
{ACAD_REACTORS
330
EF7C8934B
102
}
330
EF7C8934B
100
AcDbXrecord
 90
        0
  0
XRECORD
  5
EF7C89359
102
{ACAD_REACTORS
330
EF7C8934B
102
}
330
EF7C8934B
100
AcDbXrecord
1000
DSTYLE
1002
{
1070
   279
 70
     2
1070
   341
340
EF7C85537
1070
   342
340
EF7C85537
1070
   343
340
EF7C85543
1070
   344
340
EF7C85543
1002
}
  0
XRECORD
  5
EF7C89356
102
{ACAD_REACTORS
330
EF7C8934B
102
}
330
EF7C8934B
100
AcDbXrecord
  1
{09AA4C7A-3D6F-4857-A850-771461888CEC}
  0
XRECORD
  5
EF7C8934E
102
{ACAD_REACTORS
330
EF7C8934B
102
}
330
EF7C8934B
100
AcDbXrecord
  1

  0
XRECORD
  5
EF7C89354
102
{ACAD_REACTORS
330
EF7C8934B
102
}
330
EF7C8934B
100
AcDbXrecord
 90
        0
  0
XRECORD
  5
EF7C89350
102
{ACAD_REACTORS
330
EF7C8934B
102
}
330
EF7C8934B
100
AcDbXrecord
340
EF7C85BB7
  0
XRECORD
  5
EF7C89353
102
{ACAD_REACTORS
330
EF7C8934B
102
}
330
EF7C8934B
100
AcDbXrecord
 90
    14877
  0
XRECORD
  5
EF7C89351
102
{ACAD_REACTORS
330
EF7C8934B
102
}
330
EF7C8934B
100
AcDbXrecord
340
EF7C85BB8
  0
XRECORD
  5
EF7C89352
102
{ACAD_REACTORS
330
EF7C8934B
102
}
330
EF7C8934B
100
AcDbXrecord
340
EF7C85BB5
  0
XRECORD
  5
EF7C89358
102
{ACAD_REACTORS
330
EF7C8934B
102
}
330
EF7C8934B
100
AcDbXrecord
 40
0.0
  0
XRECORD
  5
EF7C8935C
102
{ACAD_REACTORS
330
EF7C8934B
102
}
330
EF7C8934B
100
AcDbXrecord
340
0
  0
XRECORD
  5
EF7C89362
102
{ACAD_REACTORS
330
EF7C8934B
102
}
330
EF7C8934B
100
AcDbXrecord
 10
0.0
 20
0.0
 30
0.0
  0
XRECORD
  5
EF7C8935E
102
{ACAD_REACTORS
330
EF7C8934B
102
}
330
EF7C8934B
100
AcDbXrecord
 10
0.0
 20
0.0
 30
0.0
  0
XRECORD
  5
EF7C89361
102
{ACAD_REACTORS
330
EF7C8934B
102
}
330
EF7C8934B
100
AcDbXrecord
 10
0.0
 20
0.0
 30
0.0
  0
XRECORD
  5
EF7C8935F
102
{ACAD_REACTORS
330
EF7C8934B
102
}
330
EF7C8934B
100
AcDbXrecord
 10
0.0
 20
0.0
 30
0.0
  0
XRECORD
  5
EF7C89360
102
{ACAD_REACTORS
330
EF7C8934B
102
}
330
EF7C8934B
100
AcDbXrecord
 10
0.0
 20
0.0
 30
0.0
  0
XRECORD
  5
EF7C8935D
102
{ACAD_REACTORS
330
EF7C8934B
102
}
330
EF7C8934B
100
AcDbXrecord
 10
0.0
 20
0.0
 30
0.0
  0
XRECORD
  5
EF7C8935A
102
{ACAD_REACTORS
330
EF7C8934B
102
}
330
EF7C8934B
100
AcDbXrecord
340
0
  0
XRECORD
  5
EF7C8935B
102
{ACAD_REACTORS
330
EF7C8934B
102
}
330
EF7C8934B
100
AcDbXrecord
 70
     0
  0
XRECORD
  5
EF7C8934F
102
{ACAD_REACTORS
330
EF7C8934B
102
}
330
EF7C8934B
100
AcDbXrecord
  1

  0
XRECORD
  5
EF7C8934C
102
{ACAD_REACTORS
330
EF7C8934B
102
}
330
EF7C8934B
100
AcDbXrecord
 90
        1
  0
XRECORD
  5
EF7C8934D
102
{ACAD_REACTORS
330
EF7C8934B
102
}
330
EF7C8934B
100
AcDbXrecord
 90
       70
  0
XRECORD
  5
EF7C89365
102
{ACAD_REACTORS
330
EF7C8934B
102
}
330
EF7C8934B
100
AcDbXrecord
340
0
  0
XRECORD
  5
EF7C8936B
102
{ACAD_REACTORS
330
EF7C8934B
102
}
330
EF7C8934B
100
AcDbXrecord
 10
0.0
 20
0.0
 30
0.0
  0
XRECORD
  5
EF7C89367
102
{ACAD_REACTORS
330
EF7C8934B
102
}
330
EF7C8934B
100
AcDbXrecord
 10
0.0
 20
0.0
 30
0.0
  0
XRECORD
  5
EF7C8936A
102
{ACAD_REACTORS
330
EF7C8934B
102
}
330
EF7C8934B
100
AcDbXrecord
 10
0.0
 20
0.0
 30
0.0
  0
XRECORD
  5
EF7C89368
102
{ACAD_REACTORS
330
EF7C8934B
102
}
330
EF7C8934B
100
AcDbXrecord
 10
0.0
 20
0.0
 30
0.0
  0
XRECORD
  5
EF7C89369
102
{ACAD_REACTORS
330
EF7C8934B
102
}
330
EF7C8934B
100
AcDbXrecord
 10
0.0
 20
0.0
 30
0.0
  0
XRECORD
  5
EF7C89366
102
{ACAD_REACTORS
330
EF7C8934B
102
}
330
EF7C8934B
100
AcDbXrecord
 10
0.0
 20
0.0
 30
0.0
  0
XRECORD
  5
EF7C89363
102
{ACAD_REACTORS
330
EF7C8934B
102
}
330
EF7C8934B
100
AcDbXrecord
340
0
  0
XRECORD
  5
EF7C89364
102
{ACAD_REACTORS
330
EF7C8934B
102
}
330
EF7C8934B
100
AcDbXrecord
 70
     0
  0
XRECORD
  5
EF7C89357
102
{ACAD_REACTORS
330
EF7C8934B
102
}
330
EF7C8934B
100
AcDbXrecord
  1
{52234F6E-9BCF-432F-8639-F3B6728453E5}
  0
DICTIONARYVAR
  5
EF7C89349
102
{ACAD_REACTORS
330
EF7C85DB7
102
}
330
EF7C85DB7
100
DictionaryVariables
280
     0
  1
0
  0
DICTIONARYVAR
  5
EF7C85DB8
102
{ACAD_REACTORS
330
EF7C85DB7
102
}
330
EF7C85DB7
100
DictionaryVariables
280
     0
  1
96
  0
ENDSEC
  0
EOF
