  0
SECTION
  2
HEADER
  9
$ACADVER
  1
AC1014
  9
$ACADMAINTVER
 70
     9
  9
$DWGCODEPAGE
  3
ANSI_932
  9
$INSBASE
 10
0.0
 20
0.0
 30
0.0
  9
$EXTMIN
 10
0.0
 20
0.0
 30
0.0
  9
$EXTMAX
 10
361.999998552
 20
282.9999999999999
 30
0.0
  9
$LIMMIN
 10
0.0
 20
0.0
  9
$LIMMAX
 10
181.0
 20
283.0
  9
$ORTHOMODE
 70
     1
  9
$REGENMODE
 70
     1
  9
$FILLMODE
 70
     1
  9
$QTEXTMODE
 70
     0
  9
$MIRRTEXT
 70
     0
  9
$DRAGMODE
 70
     2
  9
$LTSCALE
 40
5.0
  9
$OSMODE
 70
   167
  9
$ATTMODE
 70
     1
  9
$TEXTSIZE
 40
3.0
  9
$TRACEWID
 40
0.05
  9
$TEXTSTYLE
  7
BIGFONT
  9
$CLAYER
  8
JISSEN
  9
$CELTYPE
  6
BYLAYER
  9
$CECOLOR
 62
   256
  9
$CELTSCALE
 40
1.0
  9
$DELOBJ
 70
     1
  9
$DISPSILH
 70
     0
  9
$DIMSCALE
 40
1.0
  9
$DIMASZ
 40
1.5
  9
$DIMEXO
 40
1.0
  9
$DIMDLI
 40
6.0
  9
$DIMRND
 40
0.0
  9
$DIMDLE
 40
0.0
  9
$DIMEXE
 40
1.0
  9
$DIMTP
 40
0.0
  9
$DIMTM
 40
0.0
  9
$DIMTXT
 40
3.0
  9
$DIMCEN
 40
1.0
  9
$DIMTSZ
 40
0.0
  9
$DIMTOL
 70
     0
  9
$DIMLIM
 70
     0
  9
$DIMTIH
 70
     0
  9
$DIMTOH
 70
     0
  9
$DIMSE1
 70
     0
  9
$DIMSE2
 70
     0
  9
$DIMTAD
 70
     0
  9
$DIMZIN
 70
     8
  9
$DIMBLK
  1
ARROW
  9
$DIMASO
 70
     0
  9
$DIMSHO
 70
     0
  9
$DIMPOST
  1

  9
$DIMAPOST
  1

  9
$DIMALT
 70
     0
  9
$DIMALTD
 70
     2
  9
$DIMALTF
 40
25.4
  9
$DIMLFAC
 40
1.0
  9
$DIMTOFL
 70
     1
  9
$DIMTVP
 40
0.0
  9
$DIMTIX
 70
     0
  9
$DIMSOXD
 70
     0
  9
$DIMSAH
 70
     0
  9
$DIMBLK1
  1
ARROWANG
  9
$DIMBLK2
  1
ARROWANG
  9
$DIMSTYLE
  2
IMAO
  9
$DIMCLRD
 70
     0
  9
$DIMCLRE
 70
     0
  9
$DIMCLRT
 70
     0
  9
$DIMTFAC
 40
1.0
  9
$DIMGAP
 40
0.09
  9
$DIMJUST
 70
     0
  9
$DIMSD1
 70
     0
  9
$DIMSD2
 70
     0
  9
$DIMTOLJ
 70
     1
  9
$DIMTZIN
 70
     8
  9
$DIMALTZ
 70
     8
  9
$DIMALTTZ
 70
     8
  9
$DIMFIT
 70
     5
  9
$DIMUPT
 70
     0
  9
$DIMUNIT
 70
     2
  9
$DIMDEC
 70
     2
  9
$DIMTDEC
 70
     2
  9
$DIMALTU
 70
     2
  9
$DIMALTTD
 70
     2
  9
$DIMTXSTY
  7
BIGFONT
  9
$DIMAUNIT
 70
     0
  9
$LUNITS
 70
     2
  9
$LUPREC
 70
     2
  9
$SKETCHINC
 40
0.1
  9
$FILLETRAD
 40
0.2
  9
$AUNITS
 70
     0
  9
$AUPREC
 70
     2
  9
$MENU
  1
stdr12j
  9
$ELEVATION
 40
0.0
  9
$PELEVATION
 40
0.0
  9
$THICKNESS
 40
0.0
  9
$LIMCHECK
 70
     0
  9
$BLIPMODE
 70
     0
  9
$CHAMFERA
 40
0.0
  9
$CHAMFERB
 40
0.0
  9
$CHAMFERC
 40
0.0
  9
$CHAMFERD
 40
0.0
  9
$SKPOLY
 70
     0
  9
$TDCREATE
 40
2450617.453041203
  9
$TDUPDATE
 40
2453334.772155671
  9
$TDINDWG
 40
0.1277521759
  9
$TDUSRTIMER
 40
0.1277521759
  9
$USRTIMER
 70
     1
  9
$ANGBASE
 50
0.0
  9
$ANGDIR
 70
     0
  9
$PDMODE
 70
     0
  9
$PDSIZE
 40
0.0
  9
$PLINEWID
 40
0.0
  9
$COORDS
 70
     2
  9
$SPLFRAME
 70
     0
  9
$SPLINETYPE
 70
     6
  9
$SPLINESEGS
 70
     8
  9
$ATTDIA
 70
     0
  9
$ATTREQ
 70
     1
  9
$HANDLING
 70
 22529
  9
$HANDSEED
  5
EF7C8854B
  9
$SURFTAB1
 70
     6
  9
$SURFTAB2
 70
     6
  9
$SURFTYPE
 70
     6
  9
$SURFU
 70
     6
  9
$SURFV
 70
     6
  9
$UCSNAME
  2

  9
$UCSORG
 10
0.0
 20
0.0
 30
0.0
  9
$UCSXDIR
 10
1.0
 20
0.0
 30
0.0
  9
$UCSYDIR
 10
0.0
 20
1.0
 30
0.0
  9
$PUCSNAME
  2

  9
$PUCSORG
 10
0.0
 20
0.0
 30
0.0
  9
$PUCSXDIR
 10
1.0
 20
0.0
 30
0.0
  9
$PUCSYDIR
 10
0.0
 20
1.0
 30
0.0
  9
$USERI1
 70
     0
  9
$USERI2
 70
     1
  9
$USERI3
 70
     1
  9
$USERI4
 70
     3
  9
$USERI5
 70
     0
  9
$USERR1
 40
1.0
  9
$USERR2
 40
3.0
  9
$USERR3
 40
3.0
  9
$USERR4
 40
1.5
  9
$USERR5
 40
8.0
  9
$WORLDVIEW
 70
     1
  9
$SHADEDGE
 70
     3
  9
$SHADEDIF
 70
    70
  9
$TILEMODE
 70
     1
  9
$MAXACTVP
 70
    16
  9
$PINSBASE
 10
0.0
 20
0.0
 30
0.0
  9
$PLIMCHECK
 70
     0
  9
$PEXTMIN
 10
1.000000000000000E+20
 20
1.000000000000000E+20
 30
1.000000000000000E+20
  9
$PEXTMAX
 10
-1.000000000000000E+20
 20
-1.000000000000000E+20
 30
-1.000000000000000E+20
  9
$PLIMMIN
 10
0.0
 20
0.0
  9
$PLIMMAX
 10
12.0
 20
9.0
  9
$UNITMODE
 70
     0
  9
$VISRETAIN
 70
     0
  9
$PLINEGEN
 70
     0
  9
$PSLTSCALE
 70
     0
  9
$TREEDEPTH
 70
  3020
  9
$PICKSTYLE
 70
     1
  9
$CMLSTYLE
  2
STANDARD
  9
$CMLJUST
 70
     0
  9
$CMLSCALE
 40
1.0
  9
$PROXYGRAPHICS
 70
     1
  9
$MEASUREMENT
 70
     0
  0
ENDSEC
  0
SECTION
  2
CLASSES
  0
CLASS
  1
LWPOLYLINE
  2
AcDbPolyline
  3
AutoCAD 2000
 90
        0
280
     0
281
     1
  0
CLASS
  1
HATCH
  2
AcDbHatch
  3
AutoCAD 2000
 90
        0
280
     0
281
     1
  0
CLASS
  1
ACDBDICTIONARYWDFLT
  2
AcDbDictionaryWithDefault
  3
AutoCAD 2000
 90
        0
280
     0
281
     0
  0
CLASS
  1
ACDBPLACEHOLDER
  2
AcDbPlaceHolder
  3
AutoCAD 2000
 90
        0
280
     0
281
     0
  0
CLASS
  1
LAYOUT
  2
AcDbLayout
  3
AutoCAD 2000
 90
        0
280
     0
281
     0
  0
CLASS
  1
LONG_TRANSACTION
  2
AcDbLongTransaction
  3
AutoCAD 2000
 90
        0
280
     0
281
     0
  0
CLASS
  1
LWPOLYLINE
  2
AcDbPolyline
  3
AutoCAD 2000
 90
        0
280
     0
281
     1
  0
CLASS
  1
HATCH
  2
AcDbHatch
  3
AutoCAD 2000
 90
        0
280
     0
281
     1
  0
CLASS
  1
XRECORD
  2
AcDbXrecord
  3
AutoCAD 2000
 90
        0
280
     0
281
     0
  0
CLASS
  1
DICTIONARYVAR
  2
AcDbDictionaryVar
  3
AutoCAD 2000
 90
        0
280
     0
281
     0
  0
CLASS
  1
LONG_TRANSACTION
  2
AcDbLongTransaction
  3
AutoCAD 2000
 90
        0
280
     0
281
     0
  0
CLASS
  1
LWPOLYLINE
  2
AcDbPolyline
  3
AutoCAD 2000
 90
        0
280
     0
281
     1
  0
CLASS
  1
HATCH
  2
AcDbHatch
  3
AutoCAD 2000
 90
        0
280
     0
281
     1
  0
CLASS
  1
XRECORD
  2
AcDbXrecord
  3
AutoCAD 2000
 90
        0
280
     0
281
     0
  0
CLASS
  1
LONG_TRANSACTION
  2
AcDbLongTransaction
  3
AutoCAD 2000
 90
        0
280
     0
281
     0
  0
CLASS
  1
LWPOLYLINE
  2
AcDbPolyline
  3
AutoCAD 2000
 90
        0
280
     0
281
     1
  0
CLASS
  1
HATCH
  2
AcDbHatch
  3
AutoCAD 2000
 90
        0
280
     0
281
     1
  0
CLASS
  1
XRECORD
  2
AcDbXrecord
  3
AutoCAD 2000
 90
        0
280
     0
281
     0
  0
CLASS
  1
LONG_TRANSACTION
  2
AcDbLongTransaction
  3
AutoCAD 2000
 90
        0
280
     0
281
     0
  0
CLASS
  1
LWPOLYLINE
  2
AcDbPolyline
  3
AutoCAD 2000
 90
        0
280
     0
281
     1
  0
CLASS
  1
HATCH
  2
AcDbHatch
  3
AutoCAD 2000
 90
        0
280
     0
281
     1
  0
CLASS
  1
XRECORD
  2
AcDbXrecord
  3
AutoCAD 2000
 90
        0
280
     0
281
     0
  0
CLASS
  1
LONG_TRANSACTION
  2
AcDbLongTransaction
  3
AutoCAD 2000
 90
        0
280
     0
281
     0
  0
CLASS
  1
LWPOLYLINE
  2
AcDbPolyline
  3
AutoCAD 2000
 90
        0
280
     0
281
     1
  0
CLASS
  1
HATCH
  2
AcDbHatch
  3
AutoCAD 2000
 90
        0
280
     0
281
     1
  0
CLASS
  1
XRECORD
  2
AcDbXrecord
  3
AutoCAD 2000
 90
        0
280
     0
281
     0
  0
CLASS
  1
LONG_TRANSACTION
  2
AcDbLongTransaction
  3
AutoCAD 2000
 90
        0
280
     0
281
     0
  0
CLASS
  1
LWPOLYLINE
  2
AcDbPolyline
  3
AutoCAD 2000
 90
        0
280
     0
281
     1
  0
CLASS
  1
HATCH
  2
AcDbHatch
  3
AutoCAD 2000
 90
        0
280
     0
281
     1
  0
CLASS
  1
XRECORD
  2
AcDbXrecord
  3
AutoCAD 2000
 90
        0
280
     0
281
     0
  0
CLASS
  1
LONG_TRANSACTION
  2
AcDbLongTransaction
  3
AutoCAD 2000
 90
        0
280
     0
281
     0
  0
CLASS
  1
LWPOLYLINE
  2
AcDbPolyline
  3
AutoCAD 2000
 90
        0
280
     0
281
     1
  0
CLASS
  1
HATCH
  2
AcDbHatch
  3
AutoCAD 2000
 90
        0
280
     0
281
     1
  0
CLASS
  1
XRECORD
  2
AcDbXrecord
  3
AutoCAD 2000
 90
        0
280
     0
281
     0
  0
CLASS
  1
LONG_TRANSACTION
  2
AcDbLongTransaction
  3
AutoCAD 2000
 90
        0
280
     0
281
     0
  0
CLASS
  1
LWPOLYLINE
  2
AcDbPolyline
  3
AutoCAD 2000
 90
        0
280
     0
281
     1
  0
CLASS
  1
HATCH
  2
AcDbHatch
  3
AutoCAD 2000
 90
        0
280
     0
281
     1
  0
CLASS
  1
XRECORD
  2
AcDbXrecord
  3
AutoCAD 2000
 90
        0
280
     0
281
     0
  0
CLASS
  1
LONG_TRANSACTION
  2
AcDbLongTransaction
  3
AutoCAD 2000
 90
        0
280
     0
281
     0
  0
CLASS
  1
LWPOLYLINE
  2
AcDbPolyline
  3
AutoCAD 2000
 90
        0
280
     0
281
     1
  0
CLASS
  1
HATCH
  2
AcDbHatch
  3
AutoCAD 2000
 90
        0
280
     0
281
     1
  0
CLASS
  1
XRECORD
  2
AcDbXrecord
  3
AutoCAD 2000
 90
        0
280
     0
281
     0
  0
CLASS
  1
LONG_TRANSACTION
  2
AcDbLongTransaction
  3
AutoCAD 2000
 90
        0
280
     0
281
     0
  0
CLASS
  1
LWPOLYLINE
  2
AcDbPolyline
  3
AutoCAD 2000
 90
        0
280
     0
281
     1
  0
CLASS
  1
HATCH
  2
AcDbHatch
  3
AutoCAD 2000
 90
        0
280
     0
281
     1
  0
CLASS
  1
XRECORD
  2
AcDbXrecord
  3
AutoCAD 2000
 90
        0
280
     0
281
     0
  0
CLASS
  1
LONG_TRANSACTION
  2
AcDbLongTransaction
  3
AutoCAD 2000
 90
        0
280
     0
281
     0
  0
CLASS
  1
LWPOLYLINE
  2
AcDbPolyline
  3
AutoCAD 2000
 90
        0
280
     0
281
     1
  0
CLASS
  1
HATCH
  2
AcDbHatch
  3
AutoCAD 2000
 90
        0
280
     0
281
     1
  0
CLASS
  1
XRECORD
  2
AcDbXrecord
  3
AutoCAD 2000
 90
        0
280
     0
281
     0
  0
CLASS
  1
LONG_TRANSACTION
  2
AcDbLongTransaction
  3
AutoCAD 2000
 90
        0
280
     0
281
     0
  0
CLASS
  1
LWPOLYLINE
  2
AcDbPolyline
  3
AutoCAD 2000
 90
        0
280
     0
281
     1
  0
CLASS
  1
HATCH
  2
AcDbHatch
  3
AutoCAD 2000
 90
        0
280
     0
281
     1
  0
CLASS
  1
XRECORD
  2
AcDbXrecord
  3
AutoCAD 2000
 90
        0
280
     0
281
     0
  0
CLASS
  1
LONG_TRANSACTION
  2
AcDbLongTransaction
  3
AutoCAD 2000
 90
        0
280
     0
281
     0
  0
CLASS
  1
LWPOLYLINE
  2
AcDbPolyline
  3
AutoCAD 2000
 90
        0
280
     0
281
     1
  0
CLASS
  1
HATCH
  2
AcDbHatch
  3
AutoCAD 2000
 90
        0
280
     0
281
     1
  0
CLASS
  1
XRECORD
  2
AcDbXrecord
  3
AutoCAD 2000
 90
        0
280
     0
281
     0
  0
CLASS
  1
LONG_TRANSACTION
  2
AcDbLongTransaction
  3
AutoCAD 2000
 90
        0
280
     0
281
     0
  0
CLASS
  1
LWPOLYLINE
  2
AcDbPolyline
  3
AutoCAD 2000
 90
        0
280
     0
281
     1
  0
CLASS
  1
HATCH
  2
AcDbHatch
  3
AutoCAD 2000
 90
        0
280
     0
281
     1
  0
CLASS
  1
XRECORD
  2
AcDbXrecord
  3
AutoCAD 2000
 90
        0
280
     0
281
     0
  0
CLASS
  1
LONG_TRANSACTION
  2
AcDbLongTransaction
  3
AutoCAD 2000
 90
        0
280
     0
281
     0
  0
CLASS
  1
LWPOLYLINE
  2
AcDbPolyline
  3
AutoCAD 2000
 90
        0
280
     0
281
     1
  0
CLASS
  1
HATCH
  2
AcDbHatch
  3
AutoCAD 2000
 90
        0
280
     0
281
     1
  0
CLASS
  1
XRECORD
  2
AcDbXrecord
  3
AutoCAD 2000
 90
        0
280
     0
281
     0
  0
ENDSEC
  0
SECTION
  2
TABLES
  0
TABLE
  2
VPORT
  5
EF7C85523
330
0
100
AcDbSymbolTable
 70
    10
  0
VPORT
  5
EF7C85567
330
EF7C85523
100
AcDbSymbolTableRecord
100
AcDbViewportTableRecord
  2
2
 70
     0
 10
0.5
 20
0.0
 11
1.0
 21
1.0
 12
0.9240312421264802
 22
1.052650975462766
 13
0.0
 23
0.0
 14
1.0
 24
1.0
 15
10.0
 25
10.0
 16
0.0
 26
0.0
 36
1.0
 17
0.0
 27
0.0
 37
0.0
 40
2.105301950925533
 41
0.8778135048231511
 42
50.0
 43
0.0
 44
0.0
 50
0.0
 51
0.0
 71
     0
 72
   500
 73
     1
 74
     1
 75
     0
 76
     0
 77
     0
 78
     0
  0
VPORT
  5
EF7C85568
330
EF7C85523
100
AcDbSymbolTableRecord
100
AcDbViewportTableRecord
  2
2
 70
     0
 10
0.0
 20
0.0
 11
0.5
 21
1.0
 12
0.9240312421264802
 22
1.052650975462766
 13
0.0
 23
0.0
 14
1.0
 24
1.0
 15
10.0
 25
10.0
 16
0.0
 26
0.0
 36
1.0
 17
0.0
 27
0.0
 37
0.0
 40
2.105301950925533
 41
0.8778135048231511
 42
50.0
 43
0.0
 44
0.0
 50
0.0
 51
0.0
 71
     0
 72
   500
 73
     1
 74
     1
 75
     0
 76
     0
 77
     0
 78
     0
  0
VPORT
  5
EF7C85569
330
EF7C85523
100
AcDbSymbolTableRecord
100
AcDbViewportTableRecord
  2
3
 70
     0
 10
0.0
 20
0.5
 11
1.0
 21
1.0
 12
2.832169994473273
 22
1.052650975462766
 13
0.0
 23
0.0
 14
1.0
 24
1.0
 15
10.0
 25
10.0
 16
0.0
 26
0.0
 36
1.0
 17
0.0
 27
0.0
 37
0.0
 40
2.105301950925533
 41
3.571428571428571
 42
50.0
 43
0.0
 44
0.0
 50
0.0
 51
0.0
 71
     0
 72
   500
 73
     1
 74
     1
 75
     0
 76
     0
 77
     0
 78
     0
  0
VPORT
  5
EF7C8556A
330
EF7C85523
100
AcDbSymbolTableRecord
100
AcDbViewportTableRecord
  2
3
 70
     0
 10
0.0
 20
0.0
 11
1.0
 21
0.5
 12
2.856741679241311
 22
1.052650975462766
 13
0.0
 23
0.0
 14
1.0
 24
1.0
 15
10.0
 25
10.0
 16
0.0
 26
0.0
 36
1.0
 17
0.0
 27
0.0
 37
0.0
 40
2.105301950925533
 41
3.594771241830065
 42
50.0
 43
0.0
 44
0.0
 50
0.0
 51
0.0
 71
     0
 72
   500
 73
     1
 74
     1
 75
     0
 76
     0
 77
     0
 78
     0
  0
VPORT
  5
EF7C8556B
330
EF7C85523
100
AcDbSymbolTableRecord
100
AcDbViewportTableRecord
  2
4
 70
     0
 10
0.5
 20
0.0
 11
1.0
 21
0.5
 12
2.886857516709719
 22
1.052650975462766
 13
0.0
 23
0.0
 14
1.0
 24
1.0
 15
10.0
 25
10.0
 16
0.0
 26
0.0
 36
1.0
 17
0.0
 27
0.0
 37
0.0
 40
4.27520703030907
 41
1.784313725490195
 42
50.0
 43
0.0
 44
0.0
 50
0.0
 51
0.0
 71
     0
 72
   500
 73
     1
 74
     1
 75
     0
 76
     0
 77
     0
 78
     0
  0
VPORT
  5
EF7C8556C
330
EF7C85523
100
AcDbSymbolTableRecord
100
AcDbViewportTableRecord
  2
4
 70
     0
 10
0.5
 20
0.5
 11
1.0
 21
1.0
 12
2.862090274555523
 22
1.052650975462766
 13
0.0
 23
0.0
 14
1.0
 24
1.0
 15
10.0
 25
10.0
 16
0.0
 26
0.0
 36
1.0
 17
0.0
 27
0.0
 37
0.0
 40
4.27520703030907
 41
1.772727272727272
 42
50.0
 43
0.0
 44
0.0
 50
0.0
 51
0.0
 71
     0
 72
   500
 73
     1
 74
     1
 75
     0
 76
     0
 77
     0
 78
     0
  0
VPORT
  5
EF7C8556D
330
EF7C85523
100
AcDbSymbolTableRecord
100
AcDbViewportTableRecord
  2
4
 70
     0
 10
0.0
 20
0.5
 11
0.5
 21
1.0
 12
2.862090274555523
 22
1.052650975462766
 13
0.0
 23
0.0
 14
1.0
 24
1.0
 15
10.0
 25
10.0
 16
0.0
 26
0.0
 36
1.0
 17
0.0
 27
0.0
 37
0.0
 40
4.27520703030907
 41
1.772727272727272
 42
50.0
 43
0.0
 44
0.0
 50
0.0
 51
0.0
 71
     0
 72
   500
 73
     1
 74
     1
 75
     0
 76
     0
 77
     0
 78
     0
  0
VPORT
  5
EF7C8556E
330
EF7C85523
100
AcDbSymbolTableRecord
100
AcDbViewportTableRecord
  2
4
 70
     0
 10
0.0
 20
0.0
 11
0.5
 21
0.5
 12
2.886857516709719
 22
1.052650975462766
 13
0.0
 23
0.0
 14
1.0
 24
1.0
 15
10.0
 25
10.0
 16
0.0
 26
0.0
 36
1.0
 17
0.0
 27
0.0
 37
0.0
 40
4.27520703030907
 41
1.784313725490195
 42
50.0
 43
0.0
 44
0.0
 50
0.0
 51
0.0
 71
     0
 72
   500
 73
     1
 74
     1
 75
     0
 76
     0
 77
     0
 78
     0
  0
VPORT
  5
EF7C88527
330
EF7C85523
100
AcDbSymbolTableRecord
100
AcDbViewportTableRecord
  2
*ACTIVE
 70
     0
 10
0.0
 20
0.0
 11
1.0
 21
1.0
 12
262.8462190729081
 22
141.5028203951366
 13
0.0
 23
0.0
 14
1.0
 24
1.0
 15
10.0
 25
10.0
 16
0.0
 26
0.0
 36
1.0
 17
0.0
 27
0.0
 37
0.0
 40
286.2727286106247
 41
1.771962616822429
 42
50.0
 43
0.0
 44
0.0
 50
0.0
 51
0.0
 71
     0
 72
   500
 73
     1
 74
     0
 75
     0
 76
     0
 77
     0
 78
     0
  0
ENDTAB
  0
TABLE
  2
LTYPE
  5
EF7C85520
330
0
100
AcDbSymbolTable
 70
     3
  0
LTYPE
  5
EF7C8552C
330
EF7C85520
100
AcDbSymbolTableRecord
100
AcDbLinetypeTableRecord
  2
BYBLOCK
 70
     0
  3

 72
    65
 73
     0
 40
0.0
  0
LTYPE
  5
EF7C8552D
330
EF7C85520
100
AcDbSymbolTableRecord
100
AcDbLinetypeTableRecord
  2
BYLAYER
 70
     0
  3

 72
    65
 73
     0
 40
0.0
  0
LTYPE
  5
EF7C8552E
330
EF7C85520
100
AcDbSymbolTableRecord
100
AcDbLinetypeTableRecord
  2
CONTINUOUS
 70
     0
  3
実線
 72
    65
 73
     0
 40
0.0
  0
LTYPE
  5
EF7C85565
330
EF7C85520
100
AcDbSymbolTableRecord
100
AcDbLinetypeTableRecord
  2
PHANTOM
 70
     0
  3
_____ _ _ _____ _ _ _____ _ _ _____ _ _ ____
 72
    65
 73
     6
 40
2.5
 49
1.25
 74
     0
 49
-0.25
 74
     0
 49
0.25
 74
     0
 49
-0.25
 74
     0
 49
0.25
 74
     0
 49
-0.25
 74
     0
  0
LTYPE
  5
EF7C8711F
330
EF7C85520
100
AcDbSymbolTableRecord
100
AcDbLinetypeTableRecord
  2
CENTER
 70
     0
  3
____ _ ____ _ ____ _ ____ _ ____ _ ____ _ ____
 72
    65
 73
     4
 40
2.0
 49
1.25
 74
     0
 49
-0.25
 74
     0
 49
0.25
 74
     0
 49
-0.25
 74
     0
  0
ENDTAB
  0
TABLE
  2
LAYER
  5
EF7C8551D
330
0
100
AcDbSymbolTable
 70
     9
  0
LAYER
  5
EF7C85529
330
EF7C8551D
100
AcDbSymbolTableRecord
100
AcDbLayerTableRecord
  2
0
 70
     0
 62
     6
  6
CONTINUOUS
  0
LAYER
  5
EF7C85574
330
EF7C8551D
100
AcDbSymbolTableRecord
100
AcDbLayerTableRecord
  2
NITEN
 70
     0
 62
     2
  6
PHANTOM
  0
LAYER
  5
EF7C85575
330
EF7C8551D
100
AcDbSymbolTableRecord
100
AcDbLayerTableRecord
  2
HATCH
 70
     0
 62
     4
  6
CONTINUOUS
  0
LAYER
  5
EF7C85576
330
EF7C8551D
100
AcDbSymbolTableRecord
100
AcDbLayerTableRecord
  2
SUNPOU
 70
     0
 62
     3
  6
CONTINUOUS
  0
LAYER
  5
EF7C85577
330
EF7C8551D
100
AcDbSymbolTableRecord
100
AcDbLayerTableRecord
  2
TEXT
 70
     0
 62
     3
  6
CONTINUOUS
  0
LAYER
  5
EF7C85578
330
EF7C8551D
100
AcDbSymbolTableRecord
100
AcDbLayerTableRecord
  2
SAISEN
 70
     0
 62
     4
  6
CONTINUOUS
  0
LAYER
  5
EF7C85579
330
EF7C8551D
100
AcDbSymbolTableRecord
100
AcDbLayerTableRecord
  2
JISSEN
 70
     0
 62
     7
  6
CONTINUOUS
  0
LAYER
  5
EF7C8557D
330
EF7C8551D
100
AcDbSymbolTableRecord
100
AcDbLayerTableRecord
  2
WAKU
 70
     0
 62
     5
  6
CONTINUOUS
  0
LAYER
  5
EF7C87120
330
EF7C8551D
100
AcDbSymbolTableRecord
100
AcDbLayerTableRecord
  2
ITTEN
 70
     0
 62
     1
  6
CENTER
  0
ENDTAB
  0
TABLE
  2
STYLE
  5
EF7C8551E
330
0
100
AcDbSymbolTable
 70
     3
  0
STYLE
  5
EF7C8552A
330
EF7C8551E
100
AcDbSymbolTableRecord
100
AcDbTextStyleTableRecord
  2
STANDARD
 70
     0
 40
0.0
 41
1.0
 50
0.0
 71
     0
 42
1.5
  3
SIMPLEX
  4

  0
STYLE
  5
EF7C85558
330
EF7C8551E
100
AcDbSymbolTableRecord
100
AcDbTextStyleTableRecord
  2
K
 70
     0
 40
0.0
 41
1.0
 50
0.0
 71
     0
 42
3.0
  3
ROMANS
  4
BIGFONT
  0
STYLE
  5
EF7C8555B
330
EF7C8551E
100
AcDbSymbolTableRecord
100
AcDbTextStyleTableRecord
  2
BIGFONT
 70
     0
 40
0.0
 41
1.0
 50
0.0
 71
     0
 42
3.0
  3
txt.shx
  4
bigfont
  0
ENDTAB
  0
TABLE
  2
VIEW
  5
EF7C85521
330
0
100
AcDbSymbolTable
 70
     0
  0
ENDTAB
  0
TABLE
  2
UCS
  5
EF7C85522
330
0
100
AcDbSymbolTable
 70
     0
  0
ENDTAB
  0
TABLE
  2
APPID
  5
EF7C85524
330
0
100
AcDbSymbolTable
 70
     1
  0
APPID
  5
EF7C8552B
330
EF7C85524
100
AcDbSymbolTableRecord
100
AcDbRegAppTableRecord
  2
ACAD
 70
     0
  0
ENDTAB
  0
TABLE
  2
DIMSTYLE
  5
EF7C85525
330
0
100
AcDbSymbolTable
 70
     1
  0
DIMSTYLE
105
EF7C85571
330
EF7C85525
100
AcDbSymbolTableRecord
100
AcDbDimStyleTableRecord
  2
IMAO
 70
     0
  3

  4

  5
ARROWANG
  6
ARROWANG
  7
ARROWANG
 40
1.0
 41
1.5
 42
1.0
 43
6.0
 44
1.0
 45
0.0
 46
0.0
 47
495.0
 48
0.0
140
3.0
141
0.0
142
0.0
143
25.4
144
1.0
145
0.0
146
1.0
147
0.09
 71
     0
 72
     0
 73
     0
 74
     0
 75
     0
 76
     0
 77
     1
 78
     8
170
     0
171
     2
172
     1
173
     0
174
     1
175
     0
176
     0
177
     0
178
     0
270
     2
271
     2
272
     2
273
     2
274
     2
340
EF7C8555B
275
     0
280
     0
281
     0
282
     0
283
     1
284
     8
285
     8
286
     8
287
     5
288
     0
  0
ENDTAB
  0
TABLE
  2
BLOCK_RECORD
  5
EF7C8551C
330
0
100
AcDbSymbolTable
 70
    10
  0
BLOCK_RECORD
  5
EF7C85532
102
{ACAD_XDICTIONARY
360
EF7C85D9A
102
}
330
EF7C8551C
100
AcDbSymbolTableRecord
100
AcDbBlockTableRecord
  2
*MODEL_SPACE
  0
BLOCK_RECORD
  5
EF7C8552F
102
{ACAD_XDICTIONARY
360
EF7C85D98
102
}
330
EF7C8551C
100
AcDbSymbolTableRecord
100
AcDbBlockTableRecord
  2
*PAPER_SPACE
  0
BLOCK_RECORD
  5
EF7C85537
330
EF7C8551C
100
AcDbSymbolTableRecord
100
AcDbBlockTableRecord
  2
ARROW
  0
BLOCK_RECORD
  5
EF7C8553B
330
EF7C8551C
100
AcDbSymbolTableRecord
100
AcDbBlockTableRecord
  2
WAKU
  0
BLOCK_RECORD
  5
EF7C8553D
330
EF7C8551C
100
AcDbSymbolTableRecord
100
AcDbBlockTableRecord
  2
*X2
  0
BLOCK_RECORD
  5
EF7C8553E
330
EF7C8551C
100
AcDbSymbolTableRecord
100
AcDbBlockTableRecord
  2
STDGX5
  0
BLOCK_RECORD
  5
EF7C8553F
330
EF7C8551C
100
AcDbSymbolTableRecord
100
AcDbBlockTableRecord
  2
*X4
  0
BLOCK_RECORD
  5
EF7C85540
330
EF7C8551C
100
AcDbSymbolTableRecord
100
AcDbBlockTableRecord
  2
*X5
  0
BLOCK_RECORD
  5
EF7C85541
330
EF7C8551C
100
AcDbSymbolTableRecord
100
AcDbBlockTableRecord
  2
*X6
  0
BLOCK_RECORD
  5
EF7C85542
330
EF7C8551C
100
AcDbSymbolTableRecord
100
AcDbBlockTableRecord
  2
*X7
  0
BLOCK_RECORD
  5
EF7C85543
330
EF7C8551C
100
AcDbSymbolTableRecord
100
AcDbBlockTableRecord
  2
ARROWANG
  0
BLOCK_RECORD
  5
EF7C85544
330
EF7C8551C
100
AcDbSymbolTableRecord
100
AcDbBlockTableRecord
  2
STDR12J
  0
ENDTAB
  0
ENDSEC
  0
SECTION
  2
BLOCKS
  0
BLOCK
  5
EF7C85580
330
EF7C85532
100
AcDbEntity
  8
0
100
AcDbBlockBegin
  2
*MODEL_SPACE
 70
     0
 10
0.0
 20
0.0
 30
0.0
  3
*MODEL_SPACE
  1

  0
ENDBLK
  5
EF7C85581
330
EF7C85532
100
AcDbEntity
  8
0
100
AcDbBlockEnd
  0
BLOCK
  5
EF7C8557E
330
EF7C8552F
100
AcDbEntity
 67
     1
  8
0
100
AcDbBlockBegin
  2
*PAPER_SPACE
 70
     0
 10
0.0
 20
0.0
 30
0.0
  3
*PAPER_SPACE
  1

  0
ENDBLK
  5
EF7C8557F
330
EF7C8552F
100
AcDbEntity
 67
     1
  8
0
100
AcDbBlockEnd
  0
BLOCK
  5
499
330
EF7C85537
100
AcDbEntity
  8
0
100
AcDbBlockBegin
  2
ARROW
 70
     0
 10
1.0
 20
0.5
 30
0.0
  3
ARROW
  1

  0
LINE
  5
49A
330
EF7C85537
100
AcDbEntity
  8
0
100
AcDbLine
 10
1.0
 20
0.5
 30
0.0
 11
-0.5000000000000214
 21
0.0980762113533018
 31
0.0
  0
LINE
  5
49B
330
EF7C85537
100
AcDbEntity
  8
0
100
AcDbLine
 10
0.0
 20
0.5
 30
0.0
 11
1.0
 21
0.5
 31
0.0
  0
LINE
  5
49C
330
EF7C85537
100
AcDbEntity
  8
0
100
AcDbLine
 10
1.0
 20
0.5
 30
0.0
 11
-0.4999999999999574
 21
0.9019237886467408
 31
0.0
  0
ENDBLK
  5
49D
330
EF7C85537
100
AcDbEntity
  8
0
100
AcDbBlockEnd
  0
BLOCK
  5
4A7
330
EF7C8553B
100
AcDbEntity
  8
0
100
AcDbBlockBegin
  2
WAKU
 70
     0
 10
0.0
 20
0.0
 30
0.0
  3
WAKU
  1

  0
LINE
  5
4A8
330
EF7C8553B
100
AcDbEntity
  8
WAKU
100
AcDbLine
 10
0.999999996
 20
0.0
 30
0.0
 11
0.999999996
 21
0.9999999999999998
 31
0.0
  0
LINE
  5
4A9
330
EF7C8553B
100
AcDbEntity
  8
WAKU
100
AcDbLine
 10
0.0
 20
0.9999999999999998
 30
0.0
 11
0.999999996
 21
0.9999999999999998
 31
0.0
  0
LINE
  5
4AA
330
EF7C8553B
100
AcDbEntity
  8
WAKU
100
AcDbLine
 10
0.999999996
 20
0.0
 30
0.0
 11
0.0
 21
0.0
 31
0.0
  0
LINE
  5
4AB
330
EF7C8553B
100
AcDbEntity
  8
WAKU
100
AcDbLine
 10
0.0
 20
0.0
 30
0.0
 11
0.0
 21
0.9999999999999998
 31
0.0
  0
ENDBLK
  5
4AC
330
EF7C8553B
100
AcDbEntity
  8
0
100
AcDbBlockEnd
  0
BLOCK
  5
2764
330
EF7C8553D
100
AcDbEntity
  8
0
100
AcDbBlockBegin
  2
*X2
 70
     1
 10
0.0
 20
0.0
 30
0.0
  3
*X2
  1

  0
ENDBLK
  5
2765
330
EF7C8553D
100
AcDbEntity
  8
0
100
AcDbBlockEnd
  0
BLOCK
  5
2766
330
EF7C8553E
100
AcDbEntity
  8
0
100
AcDbBlockBegin
  2
STDGX5
 70
     0
 10
0.0
 20
0.0
 30
0.0
  3
STDGX5
  1

  0
ENDBLK
  5
2767
330
EF7C8553E
100
AcDbEntity
  8
0
100
AcDbBlockEnd
  0
BLOCK
  5
2F5A
330
EF7C8553F
100
AcDbEntity
  8
0
100
AcDbBlockBegin
  2
*X4
 70
     1
 10
0.0
 20
0.0
 30
0.0
  3
*X4
  1

  0
ENDBLK
  5
2F5B
330
EF7C8553F
100
AcDbEntity
  8
0
100
AcDbBlockEnd
  0
BLOCK
  5
32BB
330
EF7C85540
100
AcDbEntity
  8
0
100
AcDbBlockBegin
  2
*X5
 70
     1
 10
0.0
 20
0.0
 30
0.0
  3
*X5
  1

  0
ENDBLK
  5
32BC
330
EF7C85540
100
AcDbEntity
  8
0
100
AcDbBlockEnd
  0
BLOCK
  5
372F
330
EF7C85541
100
AcDbEntity
  8
0
100
AcDbBlockBegin
  2
*X6
 70
     1
 10
0.0
 20
0.0
 30
0.0
  3
*X6
  1

  0
ENDBLK
  5
3730
330
EF7C85541
100
AcDbEntity
  8
0
100
AcDbBlockEnd
  0
BLOCK
  5
3A6D
330
EF7C85542
100
AcDbEntity
  8
0
100
AcDbBlockBegin
  2
*X7
 70
     1
 10
0.0
 20
0.0
 30
0.0
  3
*X7
  1

  0
ENDBLK
  5
3A6E
330
EF7C85542
100
AcDbEntity
  8
0
100
AcDbBlockEnd
  0
BLOCK
  5
4CC9
330
EF7C85543
100
AcDbEntity
  8
0
100
AcDbBlockBegin
  2
ARROWANG
 70
     0
 10
0.0
 20
0.0
 30
0.0
  3
ARROWANG
  1

  0
LINE
  5
4CCA
330
EF7C85543
100
AcDbEntity
  8
SUNPOU
100
AcDbLine
 10
0.0
 20
0.0
 30
0.0
 11
-1.499999999999957
 21
0.4019237886467409
 31
0.0
  0
LINE
  5
4CCB
330
EF7C85543
100
AcDbEntity
  8
SUNPOU
100
AcDbLine
 10
0.0
 20
0.0
 30
0.0
 11
-1.500000000000028
 21
-0.4019237886467124
 31
0.0
  0
ENDBLK
  5
4CCC
330
EF7C85543
100
AcDbEntity
  8
0
100
AcDbBlockEnd
  0
BLOCK
  5
4CCD
330
EF7C85544
100
AcDbEntity
  8
0
100
AcDbBlockBegin
  2
STDR12J
 70
     0
 10
0.0
 20
0.0
 30
0.0
  3
STDR12J
  1

  0
ENDBLK
  5
4CF2
330
EF7C85544
100
AcDbEntity
  8
0
100
AcDbBlockEnd
  0
ENDSEC
  0
SECTION
  2
ENTITIES
  0
TEXT
  5
1
330
EF7C85532
100
AcDbEntity
  8
SUNPOU
100
AcDbText
 10
95.05869565217389
 20
43.7966872748706
 30
0.0
 40
1.5
  1
                          
100
AcDbText
  0
TEXT
  5
2
330
EF7C85532
100
AcDbEntity
  8
SUNPOU
100
AcDbText
 10
332.2793466870868
 20
21.8983436374353
 30
0.0
 40
0.75
  1
                          
100
AcDbText
  0
TEXT
  5
1A
330
EF7C85532
100
AcDbEntity
  8
SUNPOU
100
AcDbText
 10
289.9834441000535
 20
43.7966872748706
 30
0.0
 40
1.5
  1
                          
100
AcDbText
  0
TEXT
  5
1B
330
EF7C85532
100
AcDbEntity
  8
SUNPOU
100
AcDbText
 10
527.2040951349665
 20
21.8983436374353
 30
0.0
 40
0.75
  1
                          
100
AcDbText
  0
TEXT
  5
1C
330
EF7C85532
100
AcDbEntity
  8
SUNPOU
100
AcDbText
 10
490.6272568090836
 20
43.79668727487057
 30
0.0
 40
1.5
  1
                          
100
AcDbText
  0
TEXT
  5
1D
330
EF7C85532
100
AcDbEntity
  8
SUNPOU
100
AcDbText
 10
727.8479078439966
 20
21.89834363743527
 30
0.0
 40
0.75
  1
                          
100
AcDbText
  0
INSERT
  5
1E
330
EF7C85532
100
AcDbEntity
  8
HATCH
100
AcDbBlockReference
  2
*X2
 10
194.9247484478796
 20
0.0
 30
0.0
  0
TEXT
  5
1F
330
EF7C85532
100
AcDbEntity
  8
SUNPOU
100
AcDbText
 10
493.0101992368964
 20
43.7966872748706
 30
0.0
 40
1.5
  1
                          
100
AcDbText
  0
TEXT
  5
20
330
EF7C85532
100
AcDbEntity
  8
SUNPOU
100
AcDbText
 10
730.2308502718094
 20
21.8983436374353
 30
0.0
 40
0.75
  1
                          
100
AcDbText
  0
TEXT
  5
21
330
EF7C85532
100
AcDbEntity
  8
SUNPOU
100
AcDbText
 10
482.0486607753579
 20
43.7966872748706
 30
0.0
 40
1.5
  1
                          
100
AcDbText
  0
TEXT
  5
22
330
EF7C85532
100
AcDbEntity
  8
SUNPOU
100
AcDbText
 10
719.269311810271
 20
21.8983436374353
 30
0.0
 40
0.75
  1
                          
100
AcDbText
  0
INSERT
  5
25
330
EF7C85532
100
AcDbEntity
  8
JISSEN
100
AcDbBlockReference
  2
STDGX5
 10
0.0
 20
0.0
 30
0.0
  0
TEXT
  5
60
330
EF7C85532
100
AcDbEntity
  8
SUNPOU
100
AcDbText
 10
274.0586949361738
 20
43.7966872748706
 30
0.0
 40
1.5
  1
                          
100
AcDbText
  0
TEXT
  5
61
330
EF7C85532
100
AcDbEntity
  8
SUNPOU
100
AcDbText
 10
511.2793459710869
 20
21.8983436374353
 30
0.0
 40
0.75
  1
                          
100
AcDbText
  0
TEXT
  5
62
330
EF7C85532
100
AcDbEntity
  8
SUNPOU
100
AcDbText
 10
474.702507645204
 20
43.79668727487057
 30
0.0
 40
1.5
  1
                          
100
AcDbText
  0
TEXT
  5
63
330
EF7C85532
100
AcDbEntity
  8
SUNPOU
100
AcDbText
 10
711.923158680117
 20
21.89834363743527
 30
0.0
 40
0.75
  1
                          
100
AcDbText
  0
INSERT
  5
64
330
EF7C85532
100
AcDbEntity
  8
HATCH
100
AcDbBlockReference
  2
*X4
 10
178.999999284
 20
0.0
 30
0.0
  0
TEXT
  5
65
330
EF7C85532
100
AcDbEntity
  8
SUNPOU
100
AcDbText
 10
477.0854500730167
 20
43.7966872748706
 30
0.0
 40
1.5
  1
                          
100
AcDbText
  0
TEXT
  5
66
330
EF7C85532
100
AcDbEntity
  8
SUNPOU
100
AcDbText
 10
714.3061011079298
 20
21.8983436374353
 30
0.0
 40
0.75
  1
                          
100
AcDbText
  0
TEXT
  5
67
330
EF7C85532
100
AcDbEntity
  8
SUNPOU
100
AcDbText
 10
466.1239116114783
 20
43.7966872748706
 30
0.0
 40
1.5
  1
                          
100
AcDbText
  0
TEXT
  5
68
330
EF7C85532
100
AcDbEntity
  8
SUNPOU
100
AcDbText
 10
703.3445626463913
 20
21.8983436374353
 30
0.0
 40
0.75
  1
                          
100
AcDbText
  0
INSERT
  5
69
330
EF7C85532
100
AcDbEntity
  8
TEXT
100
AcDbBlockReference
  2
STDGX5
 10
178.999999284
 20
0.0
 30
0.0
  0
TEXT
  5
6A
330
EF7C85532
100
AcDbEntity
  8
SUNPOU
100
AcDbText
 10
453.0586949361739
 20
43.7966872748706
 30
0.0
 40
1.5
  1
                          
100
AcDbText
  0
TEXT
  5
6B
330
EF7C85532
100
AcDbEntity
  8
SUNPOU
100
AcDbText
 10
690.279345971087
 20
21.8983436374353
 30
0.0
 40
0.75
  1
                          
100
AcDbText
  0
TEXT
  5
6C
330
EF7C85532
100
AcDbEntity
  8
SUNPOU
100
AcDbText
 10
647.9834433840535
 20
43.7966872748706
 30
0.0
 40
1.5
  1
                          
100
AcDbText
  0
TEXT
  5
6D
330
EF7C85532
100
AcDbEntity
  8
SUNPOU
100
AcDbText
 10
885.2040944189665
 20
21.8983436374353
 30
0.0
 40
0.75
  1
                          
100
AcDbText
  0
TEXT
  5
6E
330
EF7C85532
100
AcDbEntity
  8
SUNPOU
100
AcDbText
 10
848.6272560930835
 20
43.79668727487057
 30
0.0
 40
1.5
  1
                          
100
AcDbText
  0
TEXT
  5
6F
330
EF7C85532
100
AcDbEntity
  8
SUNPOU
100
AcDbText
 10
1085.847907127996
 20
21.89834363743527
 30
0.0
 40
0.75
  1
                          
100
AcDbText
  0
INSERT
  5
70
330
EF7C85532
100
AcDbEntity
  8
HATCH
100
AcDbBlockReference
  2
*X5
 10
552.9247477318797
 20
0.0
 30
0.0
  0
TEXT
  5
71
330
EF7C85532
100
AcDbEntity
  8
SUNPOU
100
AcDbText
 10
851.0101985208963
 20
43.7966872748706
 30
0.0
 40
1.5
  1
                          
100
AcDbText
  0
TEXT
  5
72
330
EF7C85532
100
AcDbEntity
  8
SUNPOU
100
AcDbText
 10
1088.230849555809
 20
21.8983436374353
 30
0.0
 40
0.75
  1
                          
100
AcDbText
  0
TEXT
  5
73
330
EF7C85532
100
AcDbEntity
  8
SUNPOU
100
AcDbText
 10
840.048660059358
 20
43.7966872748706
 30
0.0
 40
1.5
  1
                          
100
AcDbText
  0
TEXT
  5
74
330
EF7C85532
100
AcDbEntity
  8
SUNPOU
100
AcDbText
 10
1077.269311094271
 20
21.8983436374353
 30
0.0
 40
0.75
  1
                          
100
AcDbText
  0
INSERT
  5
75
330
EF7C85532
100
AcDbEntity
  8
JISSEN
100
AcDbBlockReference
  2
STDGX5
 10
357.999999284
 20
0.0
 30
0.0
  0
TEXT
  5
76
330
EF7C85532
100
AcDbEntity
  8
SUNPOU
100
AcDbText
 10
453.0586949361739
 20
43.7966872748706
 30
0.0
 40
1.5
  1
                          
100
AcDbText
  0
TEXT
  5
77
330
EF7C85532
100
AcDbEntity
  8
SUNPOU
100
AcDbText
 10
690.279345971087
 20
21.8983436374353
 30
0.0
 40
0.75
  1
                          
100
AcDbText
  0
TEXT
  5
78
330
EF7C85532
100
AcDbEntity
  8
SUNPOU
100
AcDbText
 10
647.9834433840535
 20
43.7966872748706
 30
0.0
 40
1.5
  1
                          
100
AcDbText
  0
TEXT
  5
79
330
EF7C85532
100
AcDbEntity
  8
SUNPOU
100
AcDbText
 10
885.2040944189665
 20
21.8983436374353
 30
0.0
 40
0.75
  1
                          
100
AcDbText
  0
TEXT
  5
7A
330
EF7C85532
100
AcDbEntity
  8
SUNPOU
100
AcDbText
 10
848.6272560930835
 20
43.79668727487057
 30
0.0
 40
1.5
  1
                          
100
AcDbText
  0
TEXT
  5
7B
330
EF7C85532
100
AcDbEntity
  8
SUNPOU
100
AcDbText
 10
1085.847907127996
 20
21.89834363743527
 30
0.0
 40
0.75
  1
                          
100
AcDbText
  0
INSERT
  5
7C
330
EF7C85532
100
AcDbEntity
  8
HATCH
100
AcDbBlockReference
  2
*X6
 10
552.9247477318797
 20
0.0
 30
0.0
  0
TEXT
  5
7D
330
EF7C85532
100
AcDbEntity
  8
SUNPOU
100
AcDbText
 10
851.0101985208963
 20
43.7966872748706
 30
0.0
 40
1.5
  1
                          
100
AcDbText
  0
TEXT
  5
7E
330
EF7C85532
100
AcDbEntity
  8
SUNPOU
100
AcDbText
 10
1088.230849555809
 20
21.8983436374353
 30
0.0
 40
0.75
  1
                          
100
AcDbText
  0
TEXT
  5
7F
330
EF7C85532
100
AcDbEntity
  8
SUNPOU
100
AcDbText
 10
840.048660059358
 20
43.7966872748706
 30
0.0
 40
1.5
  1
                          
100
AcDbText
  0
TEXT
  5
80
330
EF7C85532
100
AcDbEntity
  8
SUNPOU
100
AcDbText
 10
1077.269311094271
 20
21.8983436374353
 30
0.0
 40
0.75
  1
                          
100
AcDbText
  0
INSERT
  5
81
330
EF7C85532
100
AcDbEntity
  8
JISSEN
100
AcDbBlockReference
  2
STDGX5
 10
357.999999284
 20
0.0
 30
0.0
  0
TEXT
  5
82
330
EF7C85532
100
AcDbEntity
  8
SUNPOU
100
AcDbText
 10
632.0586942201739
 20
43.7966872748706
 30
0.0
 40
1.5
  1
                          
100
AcDbText
  0
TEXT
  5
83
330
EF7C85532
100
AcDbEntity
  8
SUNPOU
100
AcDbText
 10
869.2793452550871
 20
21.8983436374353
 30
0.0
 40
0.75
  1
                          
100
AcDbText
  0
TEXT
  5
84
330
EF7C85532
100
AcDbEntity
  8
SUNPOU
100
AcDbText
 10
826.9834426680535
 20
43.7966872748706
 30
0.0
 40
1.5
  1
                          
100
AcDbText
  0
TEXT
  5
85
330
EF7C85532
100
AcDbEntity
  8
SUNPOU
100
AcDbText
 10
1064.204093702966
 20
21.8983436374353
 30
0.0
 40
0.75
  1
                          
100
AcDbText
  0
TEXT
  5
86
330
EF7C85532
100
AcDbEntity
  8
SUNPOU
100
AcDbText
 10
1027.627255377083
 20
43.79668727487057
 30
0.0
 40
1.5
  1
                          
100
AcDbText
  0
TEXT
  5
87
330
EF7C85532
100
AcDbEntity
  8
SUNPOU
100
AcDbText
 10
1264.847906411996
 20
21.89834363743527
 30
0.0
 40
0.75
  1
                          
100
AcDbText
  0
INSERT
  5
88
330
EF7C85532
100
AcDbEntity
  8
HATCH
100
AcDbBlockReference
  2
*X7
 10
731.9247470158797
 20
0.0
 30
0.0
  0
TEXT
  5
89
330
EF7C85532
100
AcDbEntity
  8
SUNPOU
100
AcDbText
 10
1030.010197804896
 20
43.7966872748706
 30
0.0
 40
1.5
  1
                          
100
AcDbText
  0
TEXT
  5
8A
330
EF7C85532
100
AcDbEntity
  8
SUNPOU
100
AcDbText
 10
1267.230848839809
 20
21.8983436374353
 30
0.0
 40
0.75
  1
                          
100
AcDbText
  0
TEXT
  5
8B
330
EF7C85532
100
AcDbEntity
  8
SUNPOU
100
AcDbText
 10
1019.048659343358
 20
43.7966872748706
 30
0.0
 40
1.5
  1
                          
100
AcDbText
  0
TEXT
  5
8C
330
EF7C85532
100
AcDbEntity
  8
SUNPOU
100
AcDbText
 10
1256.269310378271
 20
21.8983436374353
 30
0.0
 40
0.75
  1
                          
100
AcDbText
  0
INSERT
  5
8D
330
EF7C85532
100
AcDbEntity
  8
JISSEN
100
AcDbBlockReference
  2
STDGX5
 10
536.999998568
 20
0.0
 30
0.0
  0
INSERT
  5
8E
330
EF7C85532
100
AcDbEntity
  8
SUNPOU
100
AcDbBlockReference
  2
STDGX5
 10
739.0804232644236
 20
50.83533235670902
 30
0.0
 41
0.5
 42
0.5
 43
0.5
  0
INSERT
  5
8F
330
EF7C85532
100
AcDbEntity
  8
SUNPOU
100
AcDbBlockReference
  2
STDGX5
 10
726.2208210623692
 20
105.0763138619288
 30
0.0
 41
0.5
 42
0.5
 43
0.5
  0
INSERT
  5
90
330
EF7C85532
100
AcDbEntity
  8
HATCH
100
AcDbBlockReference
  2
STDGX5
 10
852.3985550581901
 20
151.7065097967401
 30
0.0
 41
0.5
 42
0.5
 43
0.5
  0
INSERT
  5
91
330
EF7C85532
100
AcDbEntity
  8
HATCH
100
AcDbBlockReference
  2
STDGX5
 10
866.6806796277285
 20
102.7017487639613
 30
0.0
 41
0.5
 42
0.5
 43
0.5
  0
INSERT
  5
92
330
EF7C85532
100
AcDbEntity
  8
TEXT
100
AcDbBlockReference
  2
STDGX5
 10
970.3434408521969
 20
102.8213468229236
 30
0.0
 41
0.5
 42
0.5
 43
0.5
  0
INSERT
  5
93
330
EF7C85532
100
AcDbEntity
  8
SUNPOU
100
AcDbBlockReference
  2
STDGX5
 10
996.1728907397869
 20
174.5475645486174
 30
0.0
 41
0.5
 42
0.5
 43
0.5
  0
INSERT
  5
94
330
EF7C85532
100
AcDbEntity
  8
TEXT
100
AcDbBlockReference
  2
STDGX5
 10
725.7513886810995
 20
124.5860190441302
 30
0.0
 41
0.5
 42
0.5
 43
0.5
  0
INSERT
  5
95
330
EF7C85532
100
AcDbEntity
  8
HATCH
100
AcDbBlockReference
  2
STDGX5
 10
777.1755722656421
 20
145.5222028932424
 30
0.0
 41
0.5
 42
0.5
 43
0.5
  0
INSERT
  5
96
330
EF7C85532
100
AcDbEntity
  8
SUNPOU
100
AcDbBlockReference
  2
STDGX5
 10
846.1963575359604
 20
112.6957974729892
 30
0.0
 41
0.5
 42
0.5
 43
0.5
  0
INSERT
  5
97
330
EF7C85532
100
AcDbEntity
  8
SUNPOU
100
AcDbBlockReference
  2
STDGX5
 10
916.6681156211122
 20
121.7330617103085
 30
0.0
 41
0.5
 42
0.5
 43
0.5
  0
INSERT
  5
98
330
EF7C85532
100
AcDbEntity
  8
TEXT
100
AcDbBlockReference
  2
STDGX5
 10
983.7969461426769
 20
84.61852224867081
 30
0.0
 41
0.5
 42
0.5
 43
0.5
  0
INSERT
  5
99
330
EF7C85532
100
AcDbEntity
  8
HATCH
100
AcDbBlockReference
  2
STDGX5
 10
974.2802715042099
 20
136.4849386559231
 30
0.0
 41
0.5
 42
0.5
 43
0.5
  0
INSERT
  5
9A
330
EF7C85532
100
AcDbEntity
  8
SUNPOU
100
AcDbBlockReference
  2
STDGX5
 10
749.7834008663489
 20
95.14721172234004
 30
0.0
 41
0.5
 42
0.5
 43
0.5
  0
INSERT
  5
9B
330
EF7C85532
100
AcDbEntity
  8
SUNPOU
100
AcDbBlockReference
  2
STDGX5
 10
736.9237986642947
 20
149.3881932275598
 30
0.0
 41
0.5
 42
0.5
 43
0.5
  0
INSERT
  5
9C
330
EF7C85532
100
AcDbEntity
  8
HATCH
100
AcDbBlockReference
  2
STDGX5
 10
863.1015326601156
 20
196.0183891623711
 30
0.0
 41
0.5
 42
0.5
 43
0.5
  0
INSERT
  5
9D
330
EF7C85532
100
AcDbEntity
  8
HATCH
100
AcDbBlockReference
  2
STDGX5
 10
877.3836572296538
 20
147.0136281295923
 30
0.0
 41
0.5
 42
0.5
 43
0.5
  0
INSERT
  5
9E
330
EF7C85532
100
AcDbEntity
  8
TEXT
100
AcDbBlockReference
  2
STDGX5
 10
981.0464184541224
 20
147.1332261885546
 30
0.0
 41
0.5
 42
0.5
 43
0.5
  0
INSERT
  5
9F
330
EF7C85532
100
AcDbEntity
  8
SUNPOU
100
AcDbBlockReference
  2
STDGX5
 10
1006.875868341712
 20
218.8594439142484
 30
0.0
 41
0.5
 42
0.5
 43
0.5
  0
INSERT
  5
A0
330
EF7C85532
100
AcDbEntity
  8
TEXT
100
AcDbBlockReference
  2
STDGX5
 10
736.4543662830251
 20
168.8978984097612
 30
0.0
 41
0.5
 42
0.5
 43
0.5
  0
INSERT
  5
A1
330
EF7C85532
100
AcDbEntity
  8
HATCH
100
AcDbBlockReference
  2
STDGX5
 10
787.8785498675677
 20
189.8340822588735
 30
0.0
 41
0.5
 42
0.5
 43
0.5
  0
INSERT
  5
A2
330
EF7C85532
100
AcDbEntity
  8
SUNPOU
100
AcDbBlockReference
  2
STDGX5
 10
856.899335137886
 20
157.0076768386202
 30
0.0
 41
0.5
 42
0.5
 43
0.5
  0
INSERT
  5
A3
330
EF7C85532
100
AcDbEntity
  8
SUNPOU
100
AcDbBlockReference
  2
STDGX5
 10
927.3710932230379
 20
166.0449410759395
 30
0.0
 41
0.5
 42
0.5
 43
0.5
  0
INSERT
  5
A4
330
EF7C85532
100
AcDbEntity
  8
TEXT
100
AcDbBlockReference
  2
STDGX5
 10
994.4999237446024
 20
128.9304016143018
 30
0.0
 41
0.5
 42
0.5
 43
0.5
  0
INSERT
  5
A5
330
EF7C85532
100
AcDbEntity
  8
HATCH
100
AcDbBlockReference
  2
STDGX5
 10
984.9832491061354
 20
180.7968180215541
 30
0.0
 41
0.5
 42
0.5
 43
0.5
  0
TEXT
  5
DE
330
EF7C85532
100
AcDbEntity
  8
SUNPOU
100
AcDbText
 10
274.0586949361738
 20
43.7966872748706
 30
0.0
 40
1.5
  1
                          
100
AcDbText
  0
TEXT
  5
145
330
EF7C85532
100
AcDbEntity
  8
SUNPOU
100
AcDbText
 10
511.2793459710869
 20
21.8983436374353
 30
0.0
 40
0.75
  1
                          
100
AcDbText
  0
TEXT
  5
265
330
EF7C85532
100
AcDbEntity
  8
SUNPOU
100
AcDbText
 10
474.702507645204
 20
43.79668727487057
 30
0.0
 40
1.5
  1
                          
100
AcDbText
  0
TEXT
  5
266
330
EF7C85532
100
AcDbEntity
  8
SUNPOU
100
AcDbText
 10
711.923158680117
 20
21.89834363743527
 30
0.0
 40
0.75
  1
                          
100
AcDbText
  0
INSERT
  5
2F7
330
EF7C85532
100
AcDbEntity
  8
HATCH
100
AcDbBlockReference
  2
*X4
 10
178.999999284
 20
0.0
 30
0.0
  0
TEXT
  5
31A
330
EF7C85532
100
AcDbEntity
  8
SUNPOU
100
AcDbText
 10
477.0854500730167
 20
43.7966872748706
 30
0.0
 40
1.5
  1
                          
100
AcDbText
  0
TEXT
  5
31C
330
EF7C85532
100
AcDbEntity
  8
SUNPOU
100
AcDbText
 10
714.3061011079298
 20
21.8983436374353
 30
0.0
 40
0.75
  1
                          
100
AcDbText
  0
TEXT
  5
3A6
330
EF7C85532
100
AcDbEntity
  8
TEXT
100
AcDbText
 10
100.9999992839998
 20
244.9999999999999
 30
0.0
 40
3.0
  1
 
  7
K
100
AcDbText
  0
TEXT
  5
3AB
330
EF7C85532
100
AcDbEntity
  8
SUNPOU
100
AcDbText
 10
466.1239116114783
 20
43.7966872748706
 30
0.0
 40
1.5
  1
                          
100
AcDbText
  0
TEXT
  5
3AC
330
EF7C85532
100
AcDbEntity
  8
SUNPOU
100
AcDbText
 10
703.3445626463913
 20
21.8983436374353
 30
0.0
 40
0.75
  1
                          
100
AcDbText
  0
INSERT
  5
3F6
330
EF7C85532
100
AcDbEntity
  8
TEXT
100
AcDbBlockReference
  2
STDGX5
 10
178.999999284
 20
0.0
 30
0.0
  0
TEXT
  5
3F7
330
EF7C85532
100
AcDbEntity
  8
SUNPOU
100
AcDbText
 10
453.0586949361739
 20
43.7966872748706
 30
0.0
 40
1.5
  1
                          
100
AcDbText
  0
TEXT
  5
3F8
330
EF7C85532
100
AcDbEntity
  8
SUNPOU
100
AcDbText
 10
690.279345971087
 20
21.8983436374353
 30
0.0
 40
0.75
  1
                          
100
AcDbText
  0
TEXT
  5
3F9
330
EF7C85532
100
AcDbEntity
  8
SUNPOU
100
AcDbText
 10
647.9834433840535
 20
43.7966872748706
 30
0.0
 40
1.5
  1
                          
100
AcDbText
  0
TEXT
  5
3FA
330
EF7C85532
100
AcDbEntity
  8
SUNPOU
100
AcDbText
 10
885.2040944189665
 20
21.8983436374353
 30
0.0
 40
0.75
  1
                          
100
AcDbText
  0
TEXT
  5
3FB
330
EF7C85532
100
AcDbEntity
  8
SUNPOU
100
AcDbText
 10
848.6272560930835
 20
43.79668727487057
 30
0.0
 40
1.5
  1
                          
100
AcDbText
  0
TEXT
  5
3FC
330
EF7C85532
100
AcDbEntity
  8
SUNPOU
100
AcDbText
 10
1085.847907127996
 20
21.89834363743527
 30
0.0
 40
0.75
  1
                          
100
AcDbText
  0
INSERT
  5
3FD
330
EF7C85532
100
AcDbEntity
  8
HATCH
100
AcDbBlockReference
  2
*X5
 10
552.9247477318797
 20
0.0
 30
0.0
  0
TEXT
  5
3FE
330
EF7C85532
100
AcDbEntity
  8
SUNPOU
100
AcDbText
 10
851.0101985208963
 20
43.7966872748706
 30
0.0
 40
1.5
  1
                          
100
AcDbText
  0
TEXT
  5
3FF
330
EF7C85532
100
AcDbEntity
  8
SUNPOU
100
AcDbText
 10
1088.230849555809
 20
21.8983436374353
 30
0.0
 40
0.75
  1
                          
100
AcDbText
  0
TEXT
  5
400
330
EF7C85532
100
AcDbEntity
  8
SUNPOU
100
AcDbText
 10
840.048660059358
 20
43.7966872748706
 30
0.0
 40
1.5
  1
                          
100
AcDbText
  0
TEXT
  5
401
330
EF7C85532
100
AcDbEntity
  8
SUNPOU
100
AcDbText
 10
1077.269311094271
 20
21.8983436374353
 30
0.0
 40
0.75
  1
                          
100
AcDbText
  0
INSERT
  5
402
330
EF7C85532
100
AcDbEntity
  8
JISSEN
100
AcDbBlockReference
  2
STDGX5
 10
357.999999284
 20
0.0
 30
0.0
  0
TEXT
  5
409
330
EF7C85532
100
AcDbEntity
  8
SUNPOU
100
AcDbText
 10
453.0586949361739
 20
43.7966872748706
 30
0.0
 40
1.5
  1
                          
100
AcDbText
  0
TEXT
  5
40A
330
EF7C85532
100
AcDbEntity
  8
SUNPOU
100
AcDbText
 10
690.279345971087
 20
21.8983436374353
 30
0.0
 40
0.75
  1
                          
100
AcDbText
  0
TEXT
  5
41B
330
EF7C85532
100
AcDbEntity
  8
SUNPOU
100
AcDbText
 10
647.9834433840535
 20
43.7966872748706
 30
0.0
 40
1.5
  1
                          
100
AcDbText
  0
TEXT
  5
41C
330
EF7C85532
100
AcDbEntity
  8
SUNPOU
100
AcDbText
 10
885.2040944189665
 20
21.8983436374353
 30
0.0
 40
0.75
  1
                          
100
AcDbText
  0
TEXT
  5
41D
330
EF7C85532
100
AcDbEntity
  8
SUNPOU
100
AcDbText
 10
848.6272560930835
 20
43.79668727487057
 30
0.0
 40
1.5
  1
                          
100
AcDbText
  0
TEXT
  5
41E
330
EF7C85532
100
AcDbEntity
  8
SUNPOU
100
AcDbText
 10
1085.847907127996
 20
21.89834363743527
 30
0.0
 40
0.75
  1
                          
100
AcDbText
  0
INSERT
  5
41F
330
EF7C85532
100
AcDbEntity
  8
HATCH
100
AcDbBlockReference
  2
*X6
 10
552.9247477318797
 20
0.0
 30
0.0
  0
TEXT
  5
420
330
EF7C85532
100
AcDbEntity
  8
SUNPOU
100
AcDbText
 10
851.0101985208963
 20
43.7966872748706
 30
0.0
 40
1.5
  1
                          
100
AcDbText
  0
TEXT
  5
421
330
EF7C85532
100
AcDbEntity
  8
SUNPOU
100
AcDbText
 10
1088.230849555809
 20
21.8983436374353
 30
0.0
 40
0.75
  1
                          
100
AcDbText
  0
TEXT
  5
422
330
EF7C85532
100
AcDbEntity
  8
SUNPOU
100
AcDbText
 10
840.048660059358
 20
43.7966872748706
 30
0.0
 40
1.5
  1
                          
100
AcDbText
  0
TEXT
  5
423
330
EF7C85532
100
AcDbEntity
  8
SUNPOU
100
AcDbText
 10
1077.269311094271
 20
21.8983436374353
 30
0.0
 40
0.75
  1
                          
100
AcDbText
  0
INSERT
  5
424
330
EF7C85532
100
AcDbEntity
  8
JISSEN
100
AcDbBlockReference
  2
STDGX5
 10
357.999999284
 20
0.0
 30
0.0
  0
TEXT
  5
425
330
EF7C85532
100
AcDbEntity
  8
SUNPOU
100
AcDbText
 10
632.0586942201739
 20
43.7966872748706
 30
0.0
 40
1.5
  1
                          
100
AcDbText
  0
TEXT
  5
426
330
EF7C85532
100
AcDbEntity
  8
SUNPOU
100
AcDbText
 10
869.2793452550871
 20
21.8983436374353
 30
0.0
 40
0.75
  1
                          
100
AcDbText
  0
TEXT
  5
427
330
EF7C85532
100
AcDbEntity
  8
SUNPOU
100
AcDbText
 10
826.9834426680535
 20
43.7966872748706
 30
0.0
 40
1.5
  1
                          
100
AcDbText
  0
TEXT
  5
428
330
EF7C85532
100
AcDbEntity
  8
SUNPOU
100
AcDbText
 10
1064.204093702966
 20
21.8983436374353
 30
0.0
 40
0.75
  1
                          
100
AcDbText
  0
TEXT
  5
429
330
EF7C85532
100
AcDbEntity
  8
SUNPOU
100
AcDbText
 10
1027.627255377083
 20
43.79668727487057
 30
0.0
 40
1.5
  1
                          
100
AcDbText
  0
TEXT
  5
42A
330
EF7C85532
100
AcDbEntity
  8
SUNPOU
100
AcDbText
 10
1264.847906411996
 20
21.89834363743527
 30
0.0
 40
0.75
  1
                          
100
AcDbText
  0
INSERT
  5
42B
330
EF7C85532
100
AcDbEntity
  8
HATCH
100
AcDbBlockReference
  2
*X7
 10
731.9247470158797
 20
0.0
 30
0.0
  0
TEXT
  5
42C
330
EF7C85532
100
AcDbEntity
  8
SUNPOU
100
AcDbText
 10
1030.010197804896
 20
43.7966872748706
 30
0.0
 40
1.5
  1
                          
100
AcDbText
  0
TEXT
  5
42D
330
EF7C85532
100
AcDbEntity
  8
SUNPOU
100
AcDbText
 10
1267.230848839809
 20
21.8983436374353
 30
0.0
 40
0.75
  1
                          
100
AcDbText
  0
TEXT
  5
42E
330
EF7C85532
100
AcDbEntity
  8
SUNPOU
100
AcDbText
 10
1019.048659343358
 20
43.7966872748706
 30
0.0
 40
1.5
  1
                          
100
AcDbText
  0
TEXT
  5
42F
330
EF7C85532
100
AcDbEntity
  8
SUNPOU
100
AcDbText
 10
1256.269310378271
 20
21.8983436374353
 30
0.0
 40
0.75
  1
                          
100
AcDbText
  0
INSERT
  5
430
330
EF7C85532
100
AcDbEntity
  8
JISSEN
100
AcDbBlockReference
  2
STDGX5
 10
536.999998568
 20
0.0
 30
0.0
  0
INSERT
  5
43B
330
EF7C85532
100
AcDbEntity
  8
SUNPOU
100
AcDbBlockReference
  2
STDGX5
 10
739.0804232644236
 20
50.83533235670902
 30
0.0
 41
0.5
 42
0.5
 43
0.5
  0
INSERT
  5
43C
330
EF7C85532
100
AcDbEntity
  8
SUNPOU
100
AcDbBlockReference
  2
STDGX5
 10
726.2208210623692
 20
105.0763138619288
 30
0.0
 41
0.5
 42
0.5
 43
0.5
  0
INSERT
  5
43D
330
EF7C85532
100
AcDbEntity
  8
HATCH
100
AcDbBlockReference
  2
STDGX5
 10
852.3985550581901
 20
151.7065097967401
 30
0.0
 41
0.5
 42
0.5
 43
0.5
  0
INSERT
  5
43E
330
EF7C85532
100
AcDbEntity
  8
HATCH
100
AcDbBlockReference
  2
STDGX5
 10
866.6806796277285
 20
102.7017487639613
 30
0.0
 41
0.5
 42
0.5
 43
0.5
  0
INSERT
  5
43F
330
EF7C85532
100
AcDbEntity
  8
TEXT
100
AcDbBlockReference
  2
STDGX5
 10
970.3434408521969
 20
102.8213468229236
 30
0.0
 41
0.5
 42
0.5
 43
0.5
  0
INSERT
  5
440
330
EF7C85532
100
AcDbEntity
  8
SUNPOU
100
AcDbBlockReference
  2
STDGX5
 10
996.1728907397869
 20
174.5475645486174
 30
0.0
 41
0.5
 42
0.5
 43
0.5
  0
INSERT
  5
441
330
EF7C85532
100
AcDbEntity
  8
TEXT
100
AcDbBlockReference
  2
STDGX5
 10
725.7513886810995
 20
124.5860190441302
 30
0.0
 41
0.5
 42
0.5
 43
0.5
  0
INSERT
  5
442
330
EF7C85532
100
AcDbEntity
  8
HATCH
100
AcDbBlockReference
  2
STDGX5
 10
777.1755722656421
 20
145.5222028932424
 30
0.0
 41
0.5
 42
0.5
 43
0.5
  0
INSERT
  5
443
330
EF7C85532
100
AcDbEntity
  8
SUNPOU
100
AcDbBlockReference
  2
STDGX5
 10
846.1963575359604
 20
112.6957974729892
 30
0.0
 41
0.5
 42
0.5
 43
0.5
  0
INSERT
  5
444
330
EF7C85532
100
AcDbEntity
  8
SUNPOU
100
AcDbBlockReference
  2
STDGX5
 10
916.6681156211122
 20
121.7330617103085
 30
0.0
 41
0.5
 42
0.5
 43
0.5
  0
INSERT
  5
445
330
EF7C85532
100
AcDbEntity
  8
TEXT
100
AcDbBlockReference
  2
STDGX5
 10
983.7969461426769
 20
84.61852224867081
 30
0.0
 41
0.5
 42
0.5
 43
0.5
  0
INSERT
  5
446
330
EF7C85532
100
AcDbEntity
  8
HATCH
100
AcDbBlockReference
  2
STDGX5
 10
974.2802715042099
 20
136.4849386559231
 30
0.0
 41
0.5
 42
0.5
 43
0.5
  0
INSERT
  5
447
330
EF7C85532
100
AcDbEntity
  8
SUNPOU
100
AcDbBlockReference
  2
STDGX5
 10
749.7834008663489
 20
95.14721172234004
 30
0.0
 41
0.5
 42
0.5
 43
0.5
  0
INSERT
  5
448
330
EF7C85532
100
AcDbEntity
  8
SUNPOU
100
AcDbBlockReference
  2
STDGX5
 10
736.9237986642947
 20
149.3881932275598
 30
0.0
 41
0.5
 42
0.5
 43
0.5
  0
INSERT
  5
449
330
EF7C85532
100
AcDbEntity
  8
HATCH
100
AcDbBlockReference
  2
STDGX5
 10
863.1015326601156
 20
196.0183891623711
 30
0.0
 41
0.5
 42
0.5
 43
0.5
  0
INSERT
  5
44A
330
EF7C85532
100
AcDbEntity
  8
HATCH
100
AcDbBlockReference
  2
STDGX5
 10
877.3836572296538
 20
147.0136281295923
 30
0.0
 41
0.5
 42
0.5
 43
0.5
  0
INSERT
  5
44B
330
EF7C85532
100
AcDbEntity
  8
TEXT
100
AcDbBlockReference
  2
STDGX5
 10
981.0464184541224
 20
147.1332261885546
 30
0.0
 41
0.5
 42
0.5
 43
0.5
  0
INSERT
  5
44C
330
EF7C85532
100
AcDbEntity
  8
SUNPOU
100
AcDbBlockReference
  2
STDGX5
 10
1006.875868341712
 20
218.8594439142484
 30
0.0
 41
0.5
 42
0.5
 43
0.5
  0
INSERT
  5
44D
330
EF7C85532
100
AcDbEntity
  8
TEXT
100
AcDbBlockReference
  2
STDGX5
 10
736.4543662830251
 20
168.8978984097612
 30
0.0
 41
0.5
 42
0.5
 43
0.5
  0
INSERT
  5
44E
330
EF7C85532
100
AcDbEntity
  8
HATCH
100
AcDbBlockReference
  2
STDGX5
 10
787.8785498675677
 20
189.8340822588735
 30
0.0
 41
0.5
 42
0.5
 43
0.5
  0
INSERT
  5
44F
330
EF7C85532
100
AcDbEntity
  8
SUNPOU
100
AcDbBlockReference
  2
STDGX5
 10
856.899335137886
 20
157.0076768386202
 30
0.0
 41
0.5
 42
0.5
 43
0.5
  0
INSERT
  5
450
330
EF7C85532
100
AcDbEntity
  8
SUNPOU
100
AcDbBlockReference
  2
STDGX5
 10
927.3710932230379
 20
166.0449410759395
 30
0.0
 41
0.5
 42
0.5
 43
0.5
  0
INSERT
  5
451
330
EF7C85532
100
AcDbEntity
  8
TEXT
100
AcDbBlockReference
  2
STDGX5
 10
994.4999237446024
 20
128.9304016143018
 30
0.0
 41
0.5
 42
0.5
 43
0.5
  0
INSERT
  5
452
330
EF7C85532
100
AcDbEntity
  8
HATCH
100
AcDbBlockReference
  2
STDGX5
 10
984.9832491061354
 20
180.7968180215541
 30
0.0
 41
0.5
 42
0.5
 43
0.5
  0
INSERT
  5
4CF3
330
EF7C85532
100
AcDbEntity
  8
JISSEN
100
AcDbBlockReference
  2
STDR12J
 10
0.0
 20
0.0
 30
0.0
  0
INSERT
  5
EF7C87442
330
EF7C85532
100
AcDbEntity
  8
WAKU
100
AcDbBlockReference
  2
WAKU
 10
0.0
 20
0.0
 30
0.0
 41
181.0
 42
283.0
 43
181.0
  0
TEXT
  5
EF7C87443
330
EF7C85532
100
AcDbEntity
  8
SUNPOU
100
AcDbText
 10
145.9718401388224
 20
7.849423898685245
 30
0.0
 40
3.0
  1
DU ガード取付状態
  7
K
100
AcDbText
  0
TEXT
  5
EF7C87444
330
EF7C85532
100
AcDbEntity
  8
SUNPOU
100
AcDbText
 10
145.9718401388224
 20
2.849423898685245
 30
0.0
 40
3.0
  1
尺度　1/1
  7
K
100
AcDbText
  0
LINE
  5
EF7C87449
330
EF7C85532
100
AcDbEntity
  8
JISSEN
100
AcDbLine
 10
91.49999927599996
 20
264.9999999999999
 30
0.0
 11
180.999999276
 21
264.9999999999999
 31
0.0
  0
TEXT
  5
EF7C8744A
330
EF7C85532
100
AcDbEntity
  8
TEXT
100
AcDbText
 10
135.1999992759999
 20
278.4999999999999
 30
0.0
 40
3.0
  1
材    質
  7
K
 72
     4
 11
141.9999992759999
 21
279.9999999999999
 31
0.0
100
AcDbText
  0
LINE
  5
EF7C8744B
330
EF7C85532
100
AcDbEntity
  8
JISSEN
100
AcDbLine
 10
91.49999927599996
 20
270.9999999999999
 30
0.0
 11
180.999999276
 21
270.9999999999999
 31
0.0
  0
LINE
  5
EF7C8744C
330
EF7C85532
100
AcDbEntity
  8
JISSEN
100
AcDbLine
 10
91.49999927599996
 20
276.9999999999999
 30
0.0
 11
180.999999276
 21
276.9999999999999
 31
0.0
  0
LWPOLYLINE
  5
EF7C8745D
330
EF7C85532
100
AcDbEntity
  8
NITEN
100
AcDbPolyline
 90
       15
 70
     1
 43
0.0
 10
104.000083438016
 20
145.8886970905723
 42
0.4142135623730927
 10
102.5000834380161
 20
147.3886970905723
 10
79.40603226701952
 20
147.3886970905723
 10
77.50008343801605
 20
147.3886970905723
 42
0.4142135623730925
 10
76.00008343801604
 20
145.8886970905723
 10
76.00008343801604
 20
134.8426810643544
 42
-0.4142135623730943
 10
71.00008343801604
 20
129.8426810643544
 42
0.4142135623730951
 10
69.00008343801605
 20
127.8426810643544
 10
69.0000834380161
 20
107.3886970905724
 42
0.4142135623730948
 10
71.00008343801604
 20
105.3886970905724
 10
109.000083438016
 20
105.3886970905724
 42
0.4142135623730951
 10
111.000083438016
 20
107.3886970905724
 10
111.000083438016
 20
127.8426810643544
 42
0.4142135623730951
 10
109.000083438016
 20
129.8426810643544
 42
-0.4142135623730961
 10
104.000083438016
 20
134.8426810643544
  0
LWPOLYLINE
  5
EF7C8745E
330
EF7C85532
100
AcDbEntity
  8
NITEN
100
AcDbPolyline
 90
        2
 70
     0
 43
0.0
 10
73.00008343801599
 20
84.55097943942655
 42
0.5882352941176294
 10
90.0000834380161
 20
84.55097943942627
 42
0.5882352941176294
  0
LWPOLYLINE
  5
EF7C8745F
330
EF7C85532
100
AcDbEntity
  8
NITEN
100
AcDbPolyline
 90
        5
 70
     0
 43
0.0
 10
73.00008343801605
 20
105.3886970905724
 10
73.00008343801605
 20
84.55097943942655
 42
-0.5882352941176475
 10
90.00008343801605
 20
84.55097943942655
 42
0.5882352941176476
 10
107.000083438016
 20
84.55097943942684
 10
107.000083438016
 20
105.3886970905724
  0
TEXT
  5
EF7C874EA
330
EF7C85532
100
AcDbEntity
  8
TEXT
100
AcDbText
 10
106.6714278474285
 20
266.7857142857142
 30
0.0
 40
3.0
  1
ガード S,D
  7
K
 72
     4
 11
116.4999992759999
 21
267.9999999999999
 31
0.0
100
AcDbText
  0
TEXT
  5
EF7C874EB
330
EF7C85532
100
AcDbEntity
  8
TEXT
100
AcDbText
 10
95.3830716815343
 20
266.4999999999999
 30
0.0
 40
3.0
  1
2
  7
K
 72
     4
 11
96.81164311010574
 21
267.9999999999999
 31
0.0
100
AcDbText
  0
LINE
  5
EF7C874EC
330
EF7C85532
100
AcDbEntity
  8
JISSEN
100
AcDbLine
 10
131.4999992759999
 20
282.9999999999999
 30
0.0
 11
131.4999992759999
 21
264.9999999999999
 31
0.0
  0
LINE
  5
EF7C874ED
330
EF7C85532
100
AcDbEntity
  8
JISSEN
100
AcDbLine
 10
101.4999992759999
 20
282.9999999999999
 30
0.0
 11
101.4999992759999
 21
264.9999999999999
 31
0.0
  0
LINE
  5
EF7C874EE
330
EF7C85532
100
AcDbEntity
  8
JISSEN
100
AcDbLine
 10
91.49999927599996
 20
264.9999999999999
 30
0.0
 11
91.49999927599996
 21
282.9999999999999
 31
0.0
  0
TEXT
  5
EF7C875A6
330
EF7C85532
100
AcDbEntity
  8
TEXT
100
AcDbText
 10
93.29999927599995
 20
278.4999999999999
 30
0.0
 40
3.0
  1
番号
  7
K
 72
     4
 11
96.49999927599996
 21
279.9999999999999
 31
0.0
100
AcDbText
  0
TEXT
  5
EF7C875A7
330
EF7C85532
100
AcDbEntity
  8
TEXT
100
AcDbText
 10
95.28571356171424
 20
272.4999999999999
 30
0.0
 40
3.0
  1
1
  7
K
 72
     4
 11
96.49999927599996
 21
273.9999999999999
 31
0.0
100
AcDbText
  0
TEXT
  5
EF7C875A8
330
EF7C85532
100
AcDbEntity
  8
TEXT
100
AcDbText
 10
107.8999992759999
 20
278.4999999999999
 30
0.0
 40
3.0
  1
名      称
  7
K
 72
     4
 11
116.4999992759999
 21
279.9999999999999
 31
0.0
100
AcDbText
  0
TEXT
  5
EF7C875AD
330
EF7C85532
100
AcDbEntity
  8
TEXT
100
AcDbText
 10
156.6795477624092
 20
266.580835176341
 30
0.0
 40
3.0
  1
1
  7
K
 72
     4
 11
157.8938334766949
 21
268.080835176341
 31
0.0
100
AcDbText
  0
TEXT
  5
EF7C875AE
330
EF7C85532
100
AcDbEntity
  8
TEXT
100
AcDbText
 10
137.5714278474285
 20
266.4999999999999
 30
0.0
 40
3.0
  1
ZDC
  7
K
 72
     4
 11
141.9999992759999
 21
267.9999999999999
 31
0.0
100
AcDbText
  0
LINE
  5
EF7C875AF
330
EF7C85532
100
AcDbEntity
  8
JISSEN
100
AcDbLine
 10
163.4999992759999
 20
282.9999999999999
 30
0.0
 11
163.4999992759999
 21
264.9999999999999
 31
0.0
  0
LINE
  5
EF7C875B0
330
EF7C85532
100
AcDbEntity
  8
JISSEN
100
AcDbLine
 10
152.4999992759999
 20
264.9999999999999
 30
0.0
 11
152.4999992759999
 21
282.9999999999999
 31
0.0
  0
TEXT
  5
EF7C875B1
330
EF7C85532
100
AcDbEntity
  8
TEXT
100
AcDbText
 10
136.8249992759999
 20
274.2999999999999
 30
0.0
 40
3.0
  1
%%u      
  7
K
 72
     4
 11
141.9999992759999
 21
273.9999999999999
 31
0.0
100
AcDbText
  0
TEXT
  5
EF7C875B2
330
EF7C85532
100
AcDbEntity
  8
TEXT
100
AcDbText
 10
156.6795477624092
 20
272.4999999999999
 30
0.0
 40
3.0
  1
1
  7
K
 72
     4
 11
157.8938334766949
 21
273.9999999999999
 31
0.0
100
AcDbText
  0
TEXT
  5
EF7C875B3
330
EF7C85532
100
AcDbEntity
  8
TEXT
100
AcDbText
 10
154.7999992759999
 20
278.4999999999999
 30
0.0
 40
3.0
  1
個数
  7
K
 72
     4
 11
157.9999992759999
 21
279.9999999999999
 31
0.0
100
AcDbText
  0
TEXT
  5
EF7C875B4
330
EF7C85532
100
AcDbEntity
  8
TEXT
100
AcDbText
 10
165.6999992759999
 20
278.4999999999999
 30
0.0
 40
3.0
  1
備    考
  7
K
 72
     4
 11
172.4999992759999
 21
279.9999999999999
 31
0.0
100
AcDbText
  0
ARC
  5
EF7C8783E
330
EF7C85532
100
AcDbEntity
  8
JISSEN
100
AcDbCircle
 10
82.00008343801611
 20
167.4992459962961
 30
0.0
 40
30.0
100
AcDbArc
 50
0.0
 51
35.20920564492591
  0
ARC
  5
EF7C8783F
330
EF7C85532
100
AcDbEntity
  8
JISSEN
100
AcDbCircle
 10
82.00008343801611
 20
167.4992459962961
 30
0.0
 40
26.0
100
AcDbArc
 50
0.0
 51
18.90919600832483
  0
ARC
  5
EF7C87840
330
EF7C85532
100
AcDbEntity
  8
JISSEN
100
AcDbCircle
 10
82.00008343801611
 20
167.4992459962961
 30
0.0
 40
28.0
100
AcDbArc
 50
0.0
 51
22.02431283704207
  0
ARC
  5
EF7C87846
330
EF7C85532
100
AcDbEntity
  8
JISSEN
100
AcDbCircle
 10
98.00008343801611
 20
167.4992459962961
 30
0.0
 40
26.0
100
AcDbArc
 50
161.0908039916749
 51
180.0
  0
ARC
  5
EF7C87847
330
EF7C85532
100
AcDbEntity
  8
JISSEN
100
AcDbCircle
 10
98.00008343801611
 20
167.4992459962961
 30
0.0
 40
28.0
100
AcDbArc
 50
157.9756871629579
 51
180.0
  0
ARC
  5
EF7C8784A
330
EF7C85532
100
AcDbEntity
  8
JISSEN
100
AcDbCircle
 10
82.78883665449374
 20
168.1009037191408
 30
0.0
 40
10.80551655320168
100
AcDbArc
 50
183.1919145761251
 51
208.3428535834902
  0
ARC
  5
EF7C8784B
330
EF7C85532
100
AcDbEntity
  8
JISSEN
100
AcDbCircle
 10
85.0000834380161
 20
167.4992459962961
 30
0.0
 40
17.0
100
AcDbArc
 50
180.0
 51
206.1789687040125
  0
ARC
  5
EF7C8784F
330
EF7C85532
100
AcDbEntity
  8
JISSEN
100
AcDbCircle
 10
85.0000834380161
 20
167.4992459962961
 30
0.0
 40
15.0
100
AcDbArc
 50
180.0
 51
209.9999999999999
  0
LINE
  5
EF7C87851
330
EF7C85532
100
AcDbEntity
  8
JISSEN
100
AcDbLine
 10
100.6635977923419
 20
149.6114078781873
 30
0.0
 11
100.2781376659283
 21
137.2773002242083
 31
0.0
  0
LINE
  5
EF7C87852
330
EF7C85532
100
AcDbEntity
  8
SAISEN
100
AcDbLine
 10
99.07865186129047
 20
136.0778144195705
 30
0.0
 11
99.51357776627615
 21
149.9947478868761
 31
0.0
  0
LINE
  5
EF7C87853
330
EF7C85532
100
AcDbEntity
  8
SAISEN
100
AcDbLine
 10
80.92151501474175
 20
136.0778144195705
 30
0.0
 11
80.48658910975607
 21
149.9947478868761
 31
0.0
  0
LINE
  5
EF7C87854
330
EF7C85532
100
AcDbEntity
  8
JISSEN
100
AcDbLine
 10
79.33656908369025
 20
149.6114078781873
 30
0.0
 11
79.72202921010389
 21
137.2773002242083
 31
0.0
  0
LINE
  5
EF7C87855
330
EF7C85532
100
AcDbEntity
  8
JISSEN
100
AcDbLine
 10
79.72202921010389
 20
137.2773002242083
 30
0.0
 11
100.2781376659283
 21
137.2773002242083
 31
0.0
  0
LINE
  5
EF7C87856
330
EF7C85532
100
AcDbEntity
  8
JISSEN
100
AcDbLine
 10
98.50008343801611
 20
135.4992459962961
 30
0.0
 11
90.0000834380161
 21
135.4992459962961
 31
0.0
  0
LINE
  5
EF7C87857
330
EF7C85532
100
AcDbEntity
  8
JISSEN
100
AcDbLine
 10
81.5000834380161
 20
135.4992459962961
 30
0.0
 11
90.0000834380161
 21
135.4992459962961
 31
0.0
  0
LINE
  5
EF7C87858
330
EF7C85532
100
AcDbEntity
  8
JISSEN
100
AcDbLine
 10
81.5000834380161
 20
135.4992459962961
 30
0.0
 11
79.72202921010389
 21
137.2773002242083
 31
0.0
  0
LINE
  5
EF7C87859
330
EF7C85532
100
AcDbEntity
  8
JISSEN
100
AcDbLine
 10
98.50008343801611
 20
135.4992459962961
 30
0.0
 11
100.2781376659283
 21
137.2773002242083
 31
0.0
  0
ARC
  5
EF7C8785B
330
EF7C85532
100
AcDbEntity
  8
JISSEN
100
AcDbCircle
 10
95.06077839034029
 20
168.6531979337245
 30
0.0
 40
11.0
100
AcDbArc
 50
308.1196922672755
 51
312.5552199034004
  0
LINE
  5
EF7C87862
330
EF7C85532
100
AcDbEntity
  8
JISSEN
100
AcDbLine
 10
99.50008343801611
 20
149.9992459962961
 30
0.0
 11
90.0000834380161
 21
149.9992459962961
 31
0.0
  0
LINE
  5
EF7C87864
330
EF7C85532
100
AcDbEntity
  8
JISSEN
100
AcDbLine
 10
100.6635977923419
 20
149.6114078781874
 30
0.0
 11
90.0000834380161
 21
149.6114078781874
 31
0.0
  0
LINE
  5
EF7C8786B
330
EF7C85532
100
AcDbEntity
  8
JISSEN
100
AcDbLine
 10
79.33656908369025
 20
149.6114078781874
 30
0.0
 11
90.0000834380161
 21
149.6114078781874
 31
0.0
  0
LINE
  5
EF7C8786C
330
EF7C85532
100
AcDbEntity
  8
JISSEN
100
AcDbLine
 10
80.50008343801611
 20
149.9992459962961
 30
0.0
 11
90.0000834380161
 21
149.9992459962961
 31
0.0
  0
LINE
  5
EF7C8786D
330
EF7C85532
100
AcDbEntity
  8
JISSEN
100
AcDbLine
 10
79.33656908369025
 20
149.6114078781874
 30
0.0
 11
80.50008343801611
 21
149.9992459962961
 31
0.0
  0
LINE
  5
EF7C8788A
330
EF7C85532
100
AcDbEntity
  8
JISSEN
100
AcDbLine
 10
100.6635977923419
 20
149.6114078781874
 30
0.0
 11
99.50008343801611
 21
149.9992459962961
 31
0.0
  0
LINE
  5
EF7C87897
330
EF7C85532
100
AcDbEntity
  8
JISSEN
100
AcDbLine
 10
97.5000834380161
 20
161.3116594611285
 30
0.0
 11
82.5000834380161
 21
161.3116594611286
 31
0.0
  0
LINE
  5
EF7C878D3
330
EF7C85532
100
AcDbEntity
  8
ITTEN
100
AcDbLine
 10
101.5000834380161
 20
175.35368325948
 30
0.0
 11
101.5000834380161
 21
175.35368325948
 31
0.0
  0
ARC
  5
EF7C878D4
330
EF7C85532
100
AcDbEntity
  8
JISSEN
100
AcDbCircle
 10
78.83361628685108
 20
197.8992459962959
 30
0.0
 40
0.4
100
AcDbArc
 50
270.0
 51
341.9500333794147
  0
ARC
  5
EF7C878D5
330
EF7C85532
100
AcDbEntity
  8
JISSEN
100
AcDbCircle
 10
80.42695752737623
 20
199.1992459962961
 30
0.0
 40
1.3
100
AcDbArc
 50
90.0
 51
168.7010440842481
  0
LINE
  5
EF7C878D6
330
EF7C85532
100
AcDbEntity
  8
JISSEN
100
AcDbLine
 10
102.1481284355229
 20
201.2992459962961
 30
0.0
 11
77.85203844050929
 21
201.2992459962961
 31
0.0
  0
ARC
  5
EF7C878D8
330
EF7C85532
100
AcDbEntity
  8
JISSEN
100
AcDbCircle
 10
72.59377272850966
 20
199.1992459962961
 30
0.0
 40
1.3
100
AcDbArc
 50
90.0
 51
178.8942957104758
  0
LINE
  5
EF7C878D9
330
EF7C85532
100
AcDbEntity
  8
JISSEN
100
AcDbLine
 10
72.1626310719138
 20
197.4992459962961
 30
0.0
 11
71.00008343801604
 21
197.4992459962961
 31
0.0
  0
ARC
  5
EF7C878DA
330
EF7C85532
100
AcDbEntity
  8
JISSEN
100
AcDbCircle
 10
73.36904940636029
 20
199.5130382443607
 30
0.0
 40
1.244540968917422
100
AcDbArc
 50
127.5871082537664
 51
184.6273535933104
  0
LINE
  5
EF7C878DB
330
EF7C85532
100
AcDbEntity
  8
JISSEN
100
AcDbLine
 10
71.43914876631353
 20
200.5011743389773
 30
0.0
 11
73.25529198598687
 21
200.7241686867417
 31
0.0
  0
LINE
  5
EF7C878DC
330
EF7C85532
100
AcDbEntity
  8
JISSEN
100
AcDbLine
 10
71.00008343801604
 20
197.4992459962961
 30
0.0
 11
71.00008343801611
 21
200.0049012631567
 31
0.0
  0
LINE
  5
EF7C878DD
330
EF7C85532
100
AcDbEntity
  8
JISSEN
100
AcDbLine
 10
71.26261245150349
 20
197.5973162980336
 30
0.0
 11
71.29401479384554
 21
199.2243320736639
 31
0.0
  0
ARC
  5
EF7C878DE
330
EF7C85532
100
AcDbEntity
  8
JISSEN
100
AcDbCircle
 10
71.16263107191369
 20
197.5992459962927
 30
0.0
 40
0.1
100
AcDbArc
 50
270.0
 51
358.8942957104782
  0
ARC
  5
EF7C878DF
330
EF7C85532
100
AcDbEntity
  8
JISSEN
100
AcDbCircle
 10
71.5000834380161
 20
200.0049012631567
 30
0.0
 40
0.5
100
AcDbArc
 50
96.99999999999944
 51
179.9999999999991
  0
LINE
  5
EF7C878E0
330
EF7C85532
100
AcDbEntity
  8
JISSEN
100
AcDbLine
 10
78.82586357847239
 20
197.8208746863937
 30
0.0
 11
79.15215382960716
 21
199.4539527534784
 31
0.0
  0
LINE
  5
EF7C878E1
330
EF7C85532
100
AcDbEntity
  8
JISSEN
100
AcDbLine
 10
78.83361628685108
 20
197.4992459962961
 30
0.0
 11
78.43361628685105
 21
197.4992459962961
 31
0.0
  0
ARC
  5
EF7C878E2
330
EF7C85532
100
AcDbEntity
  8
JISSEN
100
AcDbCircle
 10
78.43361628685105
 20
197.8992459962959
 30
0.0
 40
0.4
100
AcDbArc
 50
190.436221658696
 51
348.7010440842461
  0
LINE
  5
EF7C878F0
330
EF7C85532
100
AcDbEntity
  8
JISSEN
100
AcDbLine
 10
72.64556268074912
 20
197.6812682237668
 30
0.0
 11
72.7931133002485
 21
199.3161015177362
 31
0.0
  0
ARC
  5
EF7C878F1
330
EF7C85532
100
AcDbEntity
  8
JISSEN
100
AcDbCircle
 10
73.24637232030241
 20
197.6992459962961
 30
0.0
 40
0.2
100
AcDbArc
 50
270.0
 51
294.2439297532961
  0
ARC
  5
EF7C878F3
330
EF7C85532
100
AcDbEntity
  8
JISSEN
100
AcDbCircle
 10
72.1626310719138
 20
197.5992459962972
 30
0.0
 40
0.1
100
AcDbArc
 50
270.0
 51
359.1038427224347
  0
LINE
  5
EF7C878F4
330
EF7C85532
100
AcDbEntity
  8
JISSEN
100
AcDbLine
 10
72.12856504726253
 20
199.4126351659826
 30
0.0
 11
72.24683967549234
 21
197.68558130987
 31
0.0
  0
LINE
  5
EF7C878F5
330
EF7C85532
100
AcDbEntity
  8
JISSEN
100
AcDbLine
 10
72.26296007036606
 20
197.6194967231135
 30
0.0
 11
72.26261884028318
 21
197.597681970558
 31
0.0
  0
ARC
  5
EF7C878F6
330
EF7C85532
100
AcDbEntity
  8
JISSEN
100
AcDbCircle
 10
72.44637232030246
 20
197.6992459962961
 30
0.0
 40
0.2
100
AcDbArc
 50
183.9176963714471
 51
354.8427865251754
  0
LINE
  5
EF7C878F7
330
EF7C85532
100
AcDbEntity
  8
JISSEN
100
AcDbLine
 10
73.24637232030241
 20
197.4992459962961
 30
0.0
 11
72.44637232030246
 21
197.4992459962961
 31
0.0
  0
ARC
  5
EF7C878F8
330
EF7C85532
100
AcDbEntity
  8
JISSEN
100
AcDbCircle
 10
74.08785064315205
 20
199.1992459962961
 30
0.0
 40
1.3
100
AcDbArc
 50
129.1502676331692
 51
174.8427865251746
  0
LINE
  5
EF7C878FC
330
EF7C85532
100
AcDbEntity
  8
JISSEN
100
AcDbLine
 10
78.04023342589895
 20
197.826789632122
 30
0.0
 11
77.83095939875526
 21
198.9629881767124
 31
0.0
  0
ARC
  5
EF7C878FD
330
EF7C85532
100
AcDbEntity
  8
JISSEN
100
AcDbCircle
 10
107.5537945557297
 20
197.6992459962961
 30
0.0
 40
0.2
100
AcDbArc
 50
185.1572134748245
 51
356.0823036285527
  0
LINE
  5
EF7C878FE
330
EF7C85532
100
AcDbEntity
  8
JISSEN
100
AcDbLine
 10
106.7537945557297
 20
197.4992459962961
 30
0.0
 11
107.5537945557297
 21
197.4992459962961
 31
0.0
  0
ARC
  5
EF7C878FF
330
EF7C85532
100
AcDbEntity
  8
JISSEN
100
AcDbCircle
 10
107.4063941475225
 20
199.1992459962961
 30
0.0
 40
1.3
100
AcDbArc
 50
1.105704289524135
 51
90.0
  0
ARC
  5
EF7C87900
330
EF7C85532
100
AcDbEntity
  8
JISSEN
100
AcDbCircle
 10
106.6311174696718
 20
199.5130382443607
 30
0.0
 40
1.244540968917422
100
AcDbArc
 50
355.3726464066895
 51
52.41289174619006
  0
LINE
  5
EF7C87901
330
EF7C85532
100
AcDbEntity
  8
JISSEN
100
AcDbLine
 10
108.5610181097186
 20
200.5011743389773
 30
0.0
 11
106.7448748900453
 21
200.7241686867417
 31
0.0
  0
LINE
  5
EF7C87902
330
EF7C85532
100
AcDbEntity
  8
JISSEN
100
AcDbLine
 10
102.2499568544149
 20
190.0132756628926
 30
0.0
 11
94.74398185650157
 21
198.8893944150655
 31
0.0
  0
ARC
  5
EF7C87903
330
EF7C85532
100
AcDbEntity
  8
JISSEN
100
AcDbCircle
 10
106.750083438016
 20
193.4992459962961
 30
0.0
 40
12.49999999999999
100
AcDbArc
 50
163.739795291688
 51
196.2602047083119
  0
ARC
  5
EF7C87904
330
EF7C85532
100
AcDbEntity
  8
JISSEN
100
AcDbCircle
 10
73.25008343801616
 20
193.4992459962961
 30
0.0
 40
12.49999999999999
100
AcDbArc
 50
343.7397952916881
 51
16.26020470831189
  0
LINE
  5
EF7C8792E
330
EF7C85532
100
AcDbEntity
  8
JISSEN
100
AcDbLine
 10
93.35686084112579
 20
199.4498319602246
 30
0.0
 11
93.06882883501996
 21
197.983590936022
 31
0.0
  0
ARC
  5
EF7C8792F
330
EF7C85532
100
AcDbEntity
  8
JISSEN
100
AcDbCircle
 10
94.63248095490653
 20
199.1992459962962
 30
0.0
 40
1.3
100
AcDbArc
 50
90.0
 51
168.886192807504
  0
LINE
  5
EF7C87930
330
EF7C85532
100
AcDbEntity
  8
JISSEN
100
AcDbLine
 10
90.0000834380161
 20
201.2992459962961
 30
0.0
 11
102.1481284355229
 21
201.2992459962961
 31
0.0
  0
ARC
  5
EF7C87931
330
EF7C85532
100
AcDbEntity
  8
JISSEN
100
AcDbCircle
 10
85.36768592112563
 20
199.1992459962961
 30
0.0
 40
1.3
100
AcDbArc
 50
11.11380719249675
 51
90.0
  0
LINE
  5
EF7C87932
330
EF7C85532
100
AcDbEntity
  8
JISSEN
100
AcDbLine
 10
82.2500834380161
 20
201.2992459962961
 30
0.0
 11
90.0000834380161
 21
201.2992459962961
 31
0.0
  0
LINE
  5
EF7C87933
330
EF7C85532
100
AcDbEntity
  8
JISSEN
100
AcDbLine
 10
84.70798563055494
 20
199.4992459962961
 30
0.0
 11
86.63259698519331
 21
199.4992459962961
 31
0.0
  0
ARC
  5
EF7C87934
330
EF7C85532
100
AcDbEntity
  8
JISSEN
100
AcDbCircle
 10
84.87439460356219
 20
199.2122505413425
 30
0.0
 40
0.5
100
AcDbArc
 50
319.7809012554437
 51
6.703115329654639
  0
LINE
  5
EF7C87935
330
EF7C85532
100
AcDbEntity
  8
JISSEN
100
AcDbLine
 10
85.37097675574235
 20
199.2706129105205
 30
0.0
 11
85.34410593789331
 21
199.4992459962961
 31
0.0
  0
LINE
  5
EF7C87936
330
EF7C85532
100
AcDbEntity
  8
JISSEN
100
AcDbLine
 10
83.39884976764116
 20
197.8279757817736
 30
0.0
 11
83.76848254143302
 21
198.8417864253412
 31
0.0
  0
LINE
  5
EF7C87937
330
EF7C85532
100
AcDbEntity
  8
JISSEN
100
AcDbLine
 10
83.21758225012414
 20
197.8925531880885
 30
0.0
 11
83.56357401168796
 21
199.4766472976357
 31
0.0
  0
ARC
  5
EF7C87938
330
EF7C85532
100
AcDbEntity
  8
JISSEN
100
AcDbCircle
 10
84.83363248200143
 20
199.1992459962961
 30
0.0
 40
1.3
100
AcDbArc
 50
90.0
 51
167.6791678141218
  0
ARC
  5
EF7C87939
330
EF7C85532
100
AcDbEntity
  8
JISSEN
100
AcDbCircle
 10
84.70798563055494
 20
198.4992459962961
 30
0.0
 40
1.0
100
AcDbArc
 50
90.0
 51
159.9682734747159
  0
ARC
  5
EF7C8793A
330
EF7C85532
100
AcDbEntity
  8
JISSEN
100
AcDbCircle
 10
84.0000834380161
 20
198.9526809784353
 30
0.0
 40
1.0
100
AcDbArc
 50
319.7809012554437
 51
333.0351766874621
  0
LINE
  5
EF7C8793B
330
EF7C85532
100
AcDbEntity
  8
JISSEN
100
AcDbLine
 10
82.23958927662508
 20
197.8973588462726
 30
0.0
 11
81.91347440169179
 21
199.4641525863575
 31
0.0
  0
LINE
  5
EF7C8793C
330
EF7C85532
100
AcDbEntity
  8
JISSEN
100
AcDbLine
 10
82.92909822308022
 20
197.4992459962961
 30
0.0
 11
82.72909822308022
 21
197.4992459962961
 31
0.0
  0
ARC
  5
EF7C8793D
330
EF7C85532
100
AcDbEntity
  8
JISSEN
100
AcDbCircle
 10
82.92909822308022
 20
197.9992459962961
 30
0.0
 40
0.5
100
AcDbArc
 50
270.0
 51
339.9682734747166
  0
ARC
  5
EF7C8793E
330
EF7C85532
100
AcDbEntity
  8
JISSEN
100
AcDbCircle
 10
82.72909822308022
 20
197.9992459962961
 30
0.0
 40
0.5
100
AcDbArc
 50
191.7577571472666
 51
347.679167814121
  0
LINE
  5
EF7C8793F
330
EF7C85532
100
AcDbEntity
  8
JISSEN
100
AcDbLine
 10
80.42695752737623
 20
200.4992459962961
 30
0.0
 11
80.64075114090726
 21
200.4992459962961
 31
0.0
  0
LINE
  5
EF7C87940
330
EF7C85532
100
AcDbEntity
  8
JISSEN
100
AcDbLine
 10
79.59580702661051
 20
198.9471230171552
 30
0.0
 11
79.21393095345294
 21
197.7753074858664
 31
0.0
  0
ARC
  5
EF7C87941
330
EF7C85532
100
AcDbEntity
  8
JISSEN
100
AcDbCircle
 10
80.35643635981429
 20
198.6992459962961
 30
0.0
 40
0.8
100
AcDbArc
 50
90.0
 51
161.9500333794132
  0
LINE
  5
EF7C87942
330
EF7C85532
100
AcDbEntity
  8
JISSEN
100
AcDbLine
 10
80.35643635981429
 20
199.4992459962961
 30
0.0
 11
81.9056622049745
 21
199.4992459962961
 31
0.0
  0
ARC
  5
EF7C87943
330
EF7C85532
100
AcDbEntity
  8
JISSEN
100
AcDbCircle
 10
80.64075114090726
 20
199.1992459962961
 30
0.0
 40
1.3
100
AcDbArc
 50
11.75775714726694
 51
90.0
  0
LINE
  5
EF7C87944
330
EF7C85532
100
AcDbEntity
  8
JISSEN
100
AcDbLine
 10
85.36768592112556
 20
200.4992459962961
 30
0.0
 11
84.83363248200143
 21
200.4992459962961
 31
0.0
  0
LINE
  5
EF7C87945
330
EF7C85532
100
AcDbEntity
  8
JISSEN
100
AcDbLine
 10
92.48008109019801
 20
197.4992459962961
 30
0.0
 11
92.38008109019805
 21
197.4992459962961
 31
0.0
  0
LINE
  5
EF7C87946
330
EF7C85532
100
AcDbEntity
  8
JISSEN
100
AcDbLine
 10
91.80724329034175
 20
197.9207611088247
 30
0.0
 11
91.57809021647906
 21
198.6562157712398
 31
0.0
  0
LINE
  5
EF7C87947
330
EF7C85532
100
AcDbEntity
  8
JISSEN
100
AcDbLine
 10
91.89175097259616
 20
197.9814849130741
 30
0.0
 11
91.59693096711354
 21
199.4543950099453
 31
0.0
  0
ARC
  5
EF7C87948
330
EF7C85532
100
AcDbEntity
  8
JISSEN
100
AcDbCircle
 10
90.43241461676652
 20
198.2992459962961
 30
0.0
 40
1.199999999999999
100
AcDbArc
 50
17.3059974608022
 51
90.0
  0
ARC
  5
EF7C87949
330
EF7C85532
100
AcDbEntity
  8
JISSEN
100
AcDbCircle
 10
90.32221571230801
 20
199.1992459962961
 30
0.0
 40
1.3
100
AcDbArc
 50
11.31883372739381
 51
90.0
  0
LINE
  5
EF7C8794A
330
EF7C85532
100
AcDbEntity
  8
JISSEN
100
AcDbLine
 10
89.56775225926563
 20
199.4992459962961
 30
0.0
 11
90.0000834380161
 21
199.4992459962961
 31
0.0
  0
LINE
  5
EF7C8794B
330
EF7C85532
100
AcDbEntity
  8
JISSEN
100
AcDbLine
 10
90.43241461676652
 20
199.4992459962961
 30
0.0
 11
90.0000834380161
 21
199.4992459962961
 31
0.0
  0
LINE
  5
EF7C8794C
330
EF7C85532
100
AcDbEntity
  8
JISSEN
100
AcDbLine
 10
90.32221571230806
 20
200.4992459962961
 30
0.0
 11
89.67795116372414
 21
200.4992459962961
 31
0.0
  0
ARC
  5
EF7C8794D
330
EF7C85532
100
AcDbEntity
  8
JISSEN
100
AcDbCircle
 10
87.52008578583414
 20
198.0992459962966
 30
0.0
 40
0.6
100
AcDbArc
 50
191.113807192497
 51
348.6811662726061
  0
LINE
  5
EF7C8794E
330
EF7C85532
100
AcDbEntity
  8
JISSEN
100
AcDbLine
 10
88.19292358569041
 20
197.9207611088247
 30
0.0
 11
88.42207665955308
 21
198.6562157712398
 31
0.0
  0
LINE
  5
EF7C8794F
330
EF7C85532
100
AcDbEntity
  8
JISSEN
100
AcDbLine
 10
88.10841590343605
 20
197.9814849130741
 30
0.0
 11
88.40323590891861
 21
199.4543950099453
 31
0.0
  0
LINE
  5
EF7C87950
330
EF7C85532
100
AcDbEntity
  8
JISSEN
100
AcDbLine
 10
87.62008578583417
 20
197.4992459962961
 30
0.0
 11
87.52008578583414
 21
197.4992459962961
 31
0.0
  0
ARC
  5
EF7C87951
330
EF7C85532
100
AcDbEntity
  8
JISSEN
100
AcDbCircle
 10
87.62008578583417
 20
198.0992459962966
 30
0.0
 40
0.6
100
AcDbArc
 50
270.0
 51
342.6940025391978
  0
LINE
  5
EF7C87952
330
EF7C85532
100
AcDbEntity
  8
JISSEN
100
AcDbLine
 10
86.64330603490638
 20
199.4498319602246
 30
0.0
 11
86.93133804101226
 21
197.9835909360219
 31
0.0
  0
ARC
  5
EF7C87953
330
EF7C85532
100
AcDbEntity
  8
JISSEN
100
AcDbCircle
 10
89.56775225926563
 20
198.2992459962961
 30
0.0
 40
1.199999999999999
100
AcDbArc
 50
90.0
 51
162.6940025391977
  0
ARC
  5
EF7C87954
330
EF7C85532
100
AcDbEntity
  8
JISSEN
100
AcDbCircle
 10
89.67795116372414
 20
199.1992459962961
 30
0.0
 40
1.3
100
AcDbArc
 50
90.0
 51
168.6811662726061
  0
ARC
  5
EF7C87955
330
EF7C85532
100
AcDbEntity
  8
JISSEN
100
AcDbCircle
 10
92.38008109019805
 20
198.0992459962966
 30
0.0
 40
0.6
100
AcDbArc
 50
197.3059974608022
 51
270.0
  0
ARC
  5
EF7C87956
330
EF7C85532
100
AcDbEntity
  8
JISSEN
100
AcDbCircle
 10
92.48008109019801
 20
198.0992459962966
 30
0.0
 40
0.6
100
AcDbArc
 50
191.318833727393
 51
348.8861928075048
  0
ARC
  5
EF7C87957
330
EF7C85532
100
AcDbEntity
  8
JISSEN
100
AcDbCircle
 10
99.64373051621791
 20
198.6992459962961
 30
0.0
 40
0.8
100
AcDbArc
 50
18.04996662058674
 51
90.0
  0
ARC
  5
EF7C87958
330
EF7C85532
100
AcDbEntity
  8
JISSEN
100
AcDbCircle
 10
99.57320934865592
 20
199.1992459962961
 30
0.0
 40
1.3
100
AcDbArc
 50
11.2989559157519
 51
90.0
  0
LINE
  5
EF7C87959
330
EF7C85532
100
AcDbEntity
  8
JISSEN
100
AcDbLine
 10
99.57320934865592
 20
200.4992459962961
 30
0.0
 11
99.35941573512494
 21
200.4992459962961
 31
0.0
  0
LINE
  5
EF7C8795A
330
EF7C85532
100
AcDbEntity
  8
JISSEN
100
AcDbLine
 10
97.76057759940707
 20
197.8973588462726
 30
0.0
 11
98.08669247434037
 21
199.4641525863575
 31
0.0
  0
LINE
  5
EF7C8795B
330
EF7C85532
100
AcDbEntity
  8
JISSEN
100
AcDbLine
 10
96.78258462590802
 20
197.8925531880885
 30
0.0
 11
96.43659286434425
 21
199.4766472976357
 31
0.0
  0
LINE
  5
EF7C8795C
330
EF7C85532
100
AcDbEntity
  8
JISSEN
100
AcDbLine
 10
96.60131710839099
 20
197.8279757817736
 30
0.0
 11
96.23168433459918
 21
198.8417864253412
 31
0.0
  0
ARC
  5
EF7C8795D
330
EF7C85532
100
AcDbEntity
  8
JISSEN
100
AcDbCircle
 10
97.07106865295195
 20
197.9992459962961
 30
0.0
 40
0.5
100
AcDbArc
 50
200.0317265252833
 51
270.0
  0
LINE
  5
EF7C8795E
330
EF7C85532
100
AcDbEntity
  8
JISSEN
100
AcDbLine
 10
97.07106865295195
 20
197.4992459962961
 30
0.0
 11
97.27106865295192
 21
197.4992459962961
 31
0.0
  0
ARC
  5
EF7C8795F
330
EF7C85532
100
AcDbEntity
  8
JISSEN
100
AcDbCircle
 10
97.27106865295192
 20
197.9992459962961
 30
0.0
 40
0.5
100
AcDbArc
 50
192.3208321858781
 51
348.2422428527334
  0
LINE
  5
EF7C87960
330
EF7C85532
100
AcDbEntity
  8
JISSEN
100
AcDbLine
 10
94.63248095490659
 20
200.4992459962961
 30
0.0
 11
95.16653439403071
 21
200.4992459962961
 31
0.0
  0
ARC
  5
EF7C87961
330
EF7C85532
100
AcDbEntity
  8
JISSEN
100
AcDbCircle
 10
95.12577227247001
 20
199.2122505413425
 30
0.0
 40
0.5
100
AcDbArc
 50
173.2968846703453
 51
220.2190987445551
  0
LINE
  5
EF7C87962
330
EF7C85532
100
AcDbEntity
  8
JISSEN
100
AcDbLine
 10
94.62919012028979
 20
199.2706129105205
 30
0.0
 11
94.65606093813883
 21
199.4992459962961
 31
0.0
  0
LINE
  5
EF7C87963
330
EF7C85532
100
AcDbEntity
  8
JISSEN
100
AcDbLine
 10
95.29218124547728
 20
199.4992459962961
 30
0.0
 11
93.36756989083941
 21
199.4992459962961
 31
0.0
  0
ARC
  5
EF7C87964
330
EF7C85532
100
AcDbEntity
  8
JISSEN
100
AcDbCircle
 10
95.16653439403071
 20
199.1992459962961
 30
0.0
 40
1.3
100
AcDbArc
 50
12.32083218587817
 51
89.99999999999836
  0
ARC
  5
EF7C87965
330
EF7C85532
100
AcDbEntity
  8
JISSEN
100
AcDbCircle
 10
95.29218124547723
 20
198.4992459962961
 30
0.0
 40
1.0
100
AcDbArc
 50
20.03172652528407
 51
90.0
  0
ARC
  5
EF7C87966
330
EF7C85532
100
AcDbEntity
  8
JISSEN
100
AcDbCircle
 10
99.35941573512494
 20
199.1992459962961
 30
0.0
 40
1.3
100
AcDbArc
 50
90.0
 51
168.242242852733
  0
LINE
  5
EF7C87967
330
EF7C85532
100
AcDbEntity
  8
JISSEN
100
AcDbLine
 10
99.64373051621791
 20
199.4992459962961
 30
0.0
 11
98.0945046710577
 21
199.4992459962961
 31
0.0
  0
LINE
  5
EF7C87968
330
EF7C85532
100
AcDbEntity
  8
JISSEN
100
AcDbLine
 10
107.354604195283
 20
197.6812682237668
 30
0.0
 11
107.2070535757837
 21
199.3161015177362
 31
0.0
  0
ARC
  5
EF7C8796A
330
EF7C85532
100
AcDbEntity
  8
JISSEN
100
AcDbCircle
 10
106.7537945557297
 20
197.6992459962961
 30
0.0
 40
0.2
100
AcDbArc
 50
245.7560702467311
 51
270.0
  0
LINE
  5
EF7C87977
330
EF7C85532
100
AcDbEntity
  8
JISSEN
100
AcDbLine
 10
101.9599334501332
 20
197.826789632122
 30
0.0
 11
102.1692074772769
 21
198.9629881767126
 31
0.0
  0
ARC
  5
EF7C87978
330
EF7C85532
100
AcDbEntity
  8
JISSEN
100
AcDbCircle
 10
101.5665505891811
 20
197.8992459962959
 30
0.0
 40
0.4
100
AcDbArc
 50
191.2989559157538
 51
349.5637783413032
  0
LINE
  5
EF7C87979
330
EF7C85532
100
AcDbEntity
  8
JISSEN
100
AcDbLine
 10
101.1665505891811
 20
197.4992459962961
 30
0.0
 11
101.5665505891811
 21
197.4992459962961
 31
0.0
  0
LINE
  5
EF7C8797B
330
EF7C85532
100
AcDbEntity
  8
JISSEN
100
AcDbLine
 10
100.4043598494216
 20
198.9471230171552
 30
0.0
 11
100.7862359225792
 21
197.7753074858664
 31
0.0
  0
LINE
  5
EF7C8797C
330
EF7C85532
100
AcDbEntity
  8
JISSEN
100
AcDbLine
 10
101.1743032975598
 20
197.8208746863937
 30
0.0
 11
100.8480130464249
 21
199.4539527534784
 31
0.0
  0
ARC
  5
EF7C8797D
330
EF7C85532
100
AcDbEntity
  8
JISSEN
100
AcDbCircle
 10
101.1665505891811
 20
197.8992459962959
 30
0.0
 40
0.4
100
AcDbArc
 50
198.0499666205844
 51
270.0
  0
ARC
  5
EF7C87981
330
EF7C85532
100
AcDbEntity
  8
JISSEN
100
AcDbCircle
 10
105.9123162328801
 20
199.1992459962961
 30
0.0
 40
1.3
100
AcDbArc
 50
5.157213474825391
 51
50.84973236682586
  0
LINE
  5
EF7C87982
330
EF7C85532
100
AcDbEntity
  8
JISSEN
100
AcDbLine
 10
109.0000834380161
 20
197.4992459962961
 30
0.0
 11
109.0000834380161
 21
200.0049012631567
 31
0.0
  0
LINE
  5
EF7C87983
330
EF7C85532
100
AcDbEntity
  8
JISSEN
100
AcDbLine
 10
108.7375544245286
 20
197.5973162980336
 30
0.0
 11
108.7061520821866
 21
199.2243320736639
 31
0.0
  0
ARC
  5
EF7C87984
330
EF7C85532
100
AcDbEntity
  8
JISSEN
100
AcDbCircle
 10
108.8375358041184
 20
197.5992459962927
 30
0.0
 40
0.1
100
AcDbArc
 50
181.1057042895208
 51
270.0
  0
ARC
  5
EF7C87985
330
EF7C85532
100
AcDbEntity
  8
JISSEN
100
AcDbCircle
 10
108.500083438016
 20
200.0049012631567
 30
0.0
 40
0.5
100
AcDbArc
 50
0.0
 51
83.00000000000057
  0
LINE
  5
EF7C87986
330
EF7C85532
100
AcDbEntity
  8
JISSEN
100
AcDbLine
 10
107.8716018287696
 20
199.4126351659826
 30
0.0
 11
107.7533272005398
 21
197.68558130987
 31
0.0
  0
LINE
  5
EF7C87987
330
EF7C85532
100
AcDbEntity
  8
JISSEN
100
AcDbLine
 10
107.737206805666
 20
197.6194967231135
 30
0.0
 11
107.737548035749
 21
197.597681970558
 31
0.0
  0
ARC
  5
EF7C87988
330
EF7C85532
100
AcDbEntity
  8
JISSEN
100
AcDbCircle
 10
107.8375358041184
 20
197.5992459962972
 30
0.0
 40
0.1
100
AcDbArc
 50
180.8961572775653
 51
270.0
  0
LINE
  5
EF7C87989
330
EF7C85532
100
AcDbEntity
  8
JISSEN
100
AcDbLine
 10
107.8375358041184
 20
197.4992459962961
 30
0.0
 11
109.0000834380161
 21
197.4992459962961
 31
0.0
  0
ARC
  5
EF7C879B1
330
EF7C85532
100
AcDbEntity
  8
JISSEN
100
AcDbCircle
 10
90.0000834380161
 20
189.9992459962961
 30
0.0
 40
30.0
100
AcDbArc
 50
124.340908552915
 51
180.0
  0
ARC
  5
EF7C879B2
330
EF7C85532
100
AcDbEntity
  8
JISSEN
100
AcDbCircle
 10
90.0000834380161
 20
189.9992459962961
 30
0.0
 40
30.0
100
AcDbArc
 50
0.0
 51
55.65909144708474
  0
LWPOLYLINE
  5
EF7C879B3
330
EF7C85532
100
AcDbEntity
  8
JISSEN
100
AcDbPolyline
 90
        4
 70
     1
 43
0.0
 10
76.00008343801611
 20
222.077275860987
 10
77.99815541139529
 20
217.4938586257516
 10
77.7500834380161
 20
189.9992459962961
 10
76.00008343801611
 20
188.4992459962961
  0
LWPOLYLINE
  5
EF7C879B4
330
EF7C85532
100
AcDbEntity
  8
JISSEN
100
AcDbPolyline
 90
        5
 70
     1
 43
0.0
 10
106.5000834380161
 20
189.9992459962961
 10
106.7500834380161
 20
200.9523681350994
 10
106.9235553469072
 20
214.7701179742659
 10
105.0000834380161
 20
221.6220225979799
 10
105.0000834380161
 20
188.4992459962961
  0
LWPOLYLINE
  5
EF7C879B5
330
EF7C85532
100
AcDbEntity
  8
JISSEN
100
AcDbPolyline
 90
        4
 70
     1
 43
0.0
 10
104.000083438016
 20
222.077275860987
 10
102.0020114646369
 20
217.4938586257516
 10
102.2500834380161
 20
189.9992459962961
 10
104.000083438016
 20
188.4992459962961
  0
ARC
  5
EF7C879B6
330
EF7C85532
100
AcDbEntity
  8
JISSEN
100
AcDbCircle
 10
90.0000834380161
 20
189.9992459962961
 30
0.0
 40
35.0
100
AcDbArc
 50
0.0
 51
180.0
  0
LWPOLYLINE
  5
EF7C879B7
330
EF7C85532
100
AcDbEntity
  8
JISSEN
100
AcDbPolyline
 90
        5
 70
     1
 43
0.0
 10
73.50008343801613
 20
189.9992459962961
 10
73.25008343801613
 20
200.9523681350994
 10
73.07661152912499
 20
214.770117974266
 10
75.0000834380161
 20
221.6220225979799
 10
75.0000834380161
 20
188.4992459962961
  0
LWPOLYLINE
  5
EF7C879B8
330
EF7C85532
100
AcDbEntity
  8
JISSEN
100
AcDbPolyline
 90
        2
 70
     0
 43
0.0
 10
102.5000834380161
 20
159.9992459962961
 10
90.0000834380161
 20
159.9992459962961
  0
LWPOLYLINE
  5
EF7C879B9
330
EF7C85532
100
AcDbEntity
  8
JISSEN
100
AcDbPolyline
 90
       15
 70
     0
 43
0.0
 10
73.25008343801613
 20
159.9992459962961
 10
64.43112882696573
 20
159.9992459962961
 42
0.493145426031304
 10
62.98224008753209
 20
158.1110174286424
 10
64.46480646569131
 20
152.5780043797587
 42
0.1651006681921958
 10
64.64338866433149
 20
152.3107372321644
 10
67.52112910694243
 20
150.1025693261505
 42
0.1651006681921981
 10
67.82550982144678
 20
149.9992459962961
 10
90.0000834380161
 20
149.9992459962961
 10
112.1746570545854
 20
149.9992459962961
 42
0.1651006681921981
 10
112.4790377690898
 20
150.1025693261505
 10
115.3567782117008
 20
152.3107372321644
 42
0.1651006681921958
 10
115.5353604103409
 20
152.5780043797587
 10
117.0179267885001
 20
158.1110174286423
 42
0.493145426031304
 10
115.5690380490665
 20
159.9992459962961
 10
106.7500834380161
 20
159.9992459962961
  0
LWPOLYLINE
  5
EF7C879BA
330
EF7C85532
100
AcDbEntity
  8
JISSEN
100
AcDbPolyline
 90
        2
 70
     0
 43
0.0
 10
102.5000834380161
 20
185.9992459962962
 10
77.5000834380161
 20
185.9992459962961
  0
LWPOLYLINE
  5
EF7C879BB
330
EF7C85532
100
AcDbEntity
  8
JISSEN
100
AcDbPolyline
 90
        2
 70
     0
 43
0.0
 10
102.2500834380161
 20
189.9992459962961
 10
77.7500834380161
 20
189.9992459962961
  0
LWPOLYLINE
  5
EF7C879BC
330
EF7C85532
100
AcDbEntity
  8
JISSEN
100
AcDbPolyline
 90
        4
 70
     0
 43
0.0
 10
73.50008343801613
 20
189.9992459962961
 10
60.00008343801614
 20
189.9992459962961
 10
55.00008343801614
 20
188.4992459962961
 10
125.0000834380161
 20
188.4992459962961
  0
LWPOLYLINE
  5
EF7C879BD
330
EF7C85532
100
AcDbEntity
  8
JISSEN
100
AcDbPolyline
 90
        4
 70
     0
 43
0.0
 10
73.50008343801613
 20
185.9992459962961
 10
60.00008343801614
 20
185.9992459962961
 10
55.00008343801614
 20
187.4992459962961
 10
125.0000834380161
 20
187.4992459962961
  0
LINE
  5
EF7C879BE
330
EF7C85532
100
AcDbEntity
  8
JISSEN
100
AcDbLine
 10
57.11967640274554
 20
158.4770173650205
 30
0.0
 11
64.19685727326021
 21
153.5780043797588
 31
0.0
  0
ARC
  5
EF7C879BF
330
EF7C85532
100
AcDbEntity
  8
JISSEN
100
AcDbCircle
 10
60.2500834380161
 20
162.9992459962961
 30
0.0
 40
5.5
100
AcDbArc
 50
326.9442688491452
 51
299.5045238972962
  0
LINE
  5
EF7C879C0
330
EF7C85532
100
AcDbEntity
  8
JISSEN
100
AcDbLine
 10
74.50008343801608
 20
149.9992459962961
 30
0.0
 11
74.50008343801613
 21
157.856388853439
 31
0.0
  0
LWPOLYLINE
  5
EF7C879C1
330
EF7C85532
100
AcDbEntity
  8
JISSEN
100
AcDbPolyline
 90
        4
 70
     1
 43
0.0
 10
77.5000834380161
 20
185.9992459962961
 10
76.00008343801611
 20
187.4992459962961
 10
76.00008343801611
 20
156.9992459962961
 10
77.5000834380161
 20
159.9992459962961
  0
LWPOLYLINE
  5
EF7C879C2
330
EF7C85532
100
AcDbEntity
  8
JISSEN
100
AcDbPolyline
 90
        4
 70
     1
 43
0.0
 10
75.0000834380161
 20
187.4992459962961
 10
75.0000834380161
 20
156.9992459962961
 10
73.25008343801613
 20
159.9992459962961
 10
73.50008343801613
 20
185.9992459962961
  0
LINE
  5
EF7C879C4
330
EF7C85532
100
AcDbEntity
  8
JISSEN
100
AcDbLine
 10
55.00008343801607
 20
164.6386056273715
 30
0.0
 11
55.00008343801607
 21
189.9992459962961
 31
0.0
  0
LINE
  5
EF7C879C5
330
EF7C85532
100
AcDbEntity
  8
JISSEN
100
AcDbLine
 10
60.00008343801607
 20
168.4935612402551
 30
0.0
 11
60.00008343801607
 21
185.9992459962961
 31
0.0
  0
LWPOLYLINE
  5
EF7C879C6
330
EF7C85532
100
AcDbEntity
  8
JISSEN
100
AcDbPolyline
 90
        6
 70
     1
 43
0.0
 10
62.07687835725926
 20
166.1633476114339
 10
63.90367327650238
 20
162.9992459962961
 10
62.07687835725926
 20
159.8351443811584
 10
58.42328851877306
 20
159.8351443811584
 10
56.59649359952993
 20
162.9992459962961
 10
58.42328851877306
 20
166.1633476114339
  0
LWPOLYLINE
  5
EF7C879C7
330
EF7C85532
100
AcDbEntity
  8
JISSEN
100
AcDbPolyline
 90
        6
 70
     1
 43
0.0
 10
62.25008343801613
 20
166.4633476114339
 10
64.25008343801613
 20
162.9992459962961
 10
62.25008343801613
 20
159.5351443811584
 10
58.25008343801613
 20
159.5351443811584
 10
56.25008343801614
 20
162.9992459962961
 10
58.25008343801613
 20
166.4633476114339
  0
CIRCLE
  5
EF7C879C8
330
EF7C85532
100
AcDbEntity
  8
JISSEN
100
AcDbCircle
 10
60.2500834380161
 20
162.9992459962961
 30
0.0
 40
2.0
  0
LWPOLYLINE
  5
EF7C879C9
330
EF7C85532
100
AcDbEntity
  8
JISSEN
100
AcDbPolyline
 90
        2
 70
     0
 43
0.0
 10
90.0000834380161
 20
159.9992459962961
 10
77.5000834380161
 20
159.9992459962961
 42
0.493145426031304
  0
LINE
  5
EF7C879CA
330
EF7C85532
100
AcDbEntity
  8
JISSEN
100
AcDbLine
 10
105.5000834380161
 20
149.9992459962961
 30
0.0
 11
105.5000834380161
 21
157.856388853439
 31
0.0
  0
LINE
  5
EF7C879CB
330
EF7C85532
100
AcDbEntity
  8
JISSEN
100
AcDbLine
 10
122.8804904732866
 20
158.4770173650205
 30
0.0
 11
115.803309602772
 21
153.5780043797588
 31
0.0
  0
ARC
  5
EF7C879CC
330
EF7C85532
100
AcDbEntity
  8
JISSEN
100
AcDbCircle
 10
119.750083438016
 20
162.9992459962961
 30
0.0
 40
5.5
100
AcDbArc
 50
240.4954761027037
 51
213.0557311508547
  0
LWPOLYLINE
  5
EF7C879CD
330
EF7C85532
100
AcDbEntity
  8
JISSEN
100
AcDbPolyline
 90
        4
 70
     1
 43
0.0
 10
105.0000834380161
 20
187.4992459962961
 10
105.0000834380161
 20
156.9992459962961
 10
106.7500834380161
 20
159.9992459962961
 10
106.5000834380161
 20
185.9992459962961
  0
LWPOLYLINE
  5
EF7C879CE
330
EF7C85532
100
AcDbEntity
  8
JISSEN
100
AcDbPolyline
 90
        4
 70
     1
 43
0.0
 10
102.5000834380161
 20
185.9992459962961
 10
104.000083438016
 20
187.4992459962961
 10
104.000083438016
 20
156.9992459962961
 10
102.5000834380161
 20
159.9992459962961
  0
LINE
  5
EF7C879CF
330
EF7C85532
100
AcDbEntity
  8
JISSEN
100
AcDbLine
 10
125.0000834380161
 20
164.6386056273716
 30
0.0
 11
125.0000834380161
 21
189.9992459962961
 31
0.0
  0
LINE
  5
EF7C879D0
330
EF7C85532
100
AcDbEntity
  8
JISSEN
100
AcDbLine
 10
120.0000834380161
 20
168.4935612402551
 30
0.0
 11
120.0000834380161
 21
185.9992459962961
 31
0.0
  0
LWPOLYLINE
  5
EF7C879D1
330
EF7C85532
100
AcDbEntity
  8
JISSEN
100
AcDbPolyline
 90
        6
 70
     1
 43
0.0
 10
117.923288518773
 20
166.1633476114339
 10
116.0964935995298
 20
162.9992459962961
 10
117.9232885187729
 20
159.8351443811584
 10
121.5768783572592
 20
159.8351443811584
 10
123.4036732765023
 20
162.9992459962961
 10
121.5768783572591
 20
166.1633476114339
  0
LWPOLYLINE
  5
EF7C879D2
330
EF7C85532
100
AcDbEntity
  8
JISSEN
100
AcDbPolyline
 90
        6
 70
     1
 43
0.0
 10
117.7500834380161
 20
166.4633476114339
 10
115.7500834380161
 20
162.9992459962961
 10
117.7500834380161
 20
159.5351443811583
 10
121.750083438016
 20
159.5351443811583
 10
123.7500834380161
 20
162.9992459962961
 10
121.750083438016
 20
166.4633476114339
  0
CIRCLE
  5
EF7C879D3
330
EF7C85532
100
AcDbEntity
  8
JISSEN
100
AcDbCircle
 10
119.750083438016
 20
162.9992459962961
 30
0.0
 40
2.0
  0
LWPOLYLINE
  5
EF7C879D4
330
EF7C85532
100
AcDbEntity
  8
JISSEN
100
AcDbPolyline
 90
        3
 70
     0
 43
0.0
 10
125.0000834380161
 20
188.4992459962961
 10
120.0000834380161
 20
189.9992459962961
 10
106.5000834380161
 20
189.9992459962961
  0
LWPOLYLINE
  5
EF7C879D5
330
EF7C85532
100
AcDbEntity
  8
JISSEN
100
AcDbPolyline
 90
        3
 70
     0
 43
0.0
 10
125.0000834380161
 20
187.4992459962961
 10
120.0000834380161
 20
185.9992459962961
 10
106.5000834380161
 20
185.9992459962961
  0
ARC
  5
EF7C879D6
330
EF7C85532
100
AcDbEntity
  8
JISSEN
100
AcDbCircle
 10
90.0000834380161
 20
189.9992459962961
 30
0.0
 40
30.0
100
AcDbArc
 50
66.41780378570306
 51
113.5821962142969
  0
ARC
  5
EF7C879DE
330
EF7C85532
100
AcDbEntity
  8
JISSEN
100
AcDbCircle
 10
95.0000834380161
 20
167.4992459962961
 30
0.0
 40
17.0
100
AcDbArc
 50
333.8210312959872
 51
0.0
  0
ARC
  5
EF7C879DF
330
EF7C85532
100
AcDbEntity
  8
JISSEN
100
AcDbCircle
 10
97.21133022153843
 20
168.1009037191408
 30
0.0
 40
10.80551655320168
100
AcDbArc
 50
331.6571464165105
 51
356.808085423874
  0
ARC
  5
EF7C879E0
330
EF7C85532
100
AcDbEntity
  8
JISSEN
100
AcDbCircle
 10
82.00008343801611
 20
167.4992459962961
 30
0.0
 40
24.0
100
AcDbArc
 50
31.33220670723315
 51
50.42878054276929
  0
LINE
  5
EF7C879E3
330
EF7C85532
100
AcDbEntity
  8
JISSEN
100
AcDbLine
 10
77.75021002161728
 20
190.0132756628927
 30
0.0
 11
85.2561850195306
 21
198.8893944150655
 31
0.0
  0
ARC
  5
EF7C879E4
330
EF7C85532
100
AcDbEntity
  8
JISSEN
100
AcDbCircle
 10
98.00008343801611
 20
167.4992459962961
 30
0.0
 40
30.0
100
AcDbArc
 50
144.7907943550739
 51
180.0
  0
ARC
  5
EF7C879E7
330
EF7C85532
100
AcDbEntity
  8
JISSEN
100
AcDbCircle
 10
84.93938848569191
 20
168.6531979337245
 30
0.0
 40
11.0
100
AcDbArc
 50
227.4447800965997
 51
231.8803077327242
  0
ARC
  5
EF7C879EB
330
EF7C85532
100
AcDbEntity
  8
JISSEN
100
AcDbCircle
 10
95.0000834380161
 20
167.4992459962961
 30
0.0
 40
15.0
100
AcDbArc
 50
329.9999999999996
 51
0.0
  0
ARC
  5
EF7C879ED
330
EF7C85532
100
AcDbEntity
  8
JISSEN
100
AcDbCircle
 10
98.00008343801611
 20
167.4992459962961
 30
0.0
 40
24.0
100
AcDbArc
 50
129.5712194572308
 51
148.6677932927667
  0
LINE
  5
EF7C879EE
330
EF7C85532
100
AcDbEntity
  8
JISSEN
100
AcDbLine
 10
97.5000834380161
 20
159.9992459962961
 30
0.0
 11
97.5000834380161
 21
161.3116594611285
 31
0.0
  0
LINE
  5
EF7C879EF
330
EF7C85532
100
AcDbEntity
  8
JISSEN
100
AcDbLine
 10
82.5000834380161
 20
159.9992459962961
 30
0.0
 11
82.5000834380161
 21
161.3116594611286
 31
0.0
  0
LINE
  5
EF7C87A05
330
EF7C85532
100
AcDbEntity
  8
SUNPOU
100
AcDbLine
 10
95.1382898171901
 20
201.2992459962961
 30
0.0
 11
109.6599510902687
 21
231.1681840994558
 31
0.0
  0
INSERT
  5
EF7C87A06
330
EF7C85532
100
AcDbEntity
  8
SUNPOU
100
AcDbBlockReference
  2
ARROW
 10
95.1382898171901
 20
201.2992459962962
 30
0.0
 41
1.500000000000002
 42
1.5
 43
1.5
 50
244.0719355263534
  0
CIRCLE
  5
EF7C87A07
330
EF7C85532
100
AcDbEntity
  8
SUNPOU
100
AcDbCircle
 10
112.2834052206567
 20
236.5642464068935
 30
0.0
 40
6.0
  0
TEXT
  5
EF7C87A08
330
EF7C85532
100
AcDbEntity
  8
SUNPOU
100
AcDbText
 10
110.4619766492281
 20
234.3142464068936
 30
0.0
 40
4.5
  1
1
  7
K
 72
     4
 11
112.2834052206567
 21
236.5642464068935
 31
0.0
100
AcDbText
  0
CIRCLE
  5
EF7C87A09
330
EF7C85532
100
AcDbEntity
  8
SUNPOU
100
AcDbCircle
 10
132.2834052206567
 20
236.5642464068935
 30
0.0
 40
6.0
  0
TEXT
  5
EF7C87A0A
330
EF7C85532
100
AcDbEntity
  8
SUNPOU
100
AcDbText
 10
130.1405480777996
 20
234.3142464068936
 30
0.0
 40
4.5
  1
2
  7
K
 72
     4
 11
132.2834052206567
 21
236.5642464068935
 31
0.0
100
AcDbText
  0
INSERT
  5
EF7C87A0B
330
EF7C85532
100
AcDbEntity
  8
SUNPOU
100
AcDbBlockReference
  2
ARROW
 10
119.0995983564356
 20
209.4470795906243
 30
0.0
 41
1.500000000000002
 42
1.5
 43
1.5
 50
244.0719355263534
  0
LINE
  5
EF7C87A0C
330
EF7C85532
100
AcDbEntity
  8
SUNPOU
100
AcDbLine
 10
119.0995983564356
 20
209.4470795906242
 30
0.0
 11
129.6599510902687
 21
231.1681840994558
 31
0.0
  0
LINE
  5
EF7C87E0A
330
EF7C85532
100
AcDbEntity
  8
JISSEN
100
AcDbLine
 10
260.3365683596903
 20
149.6114078781873
 30
0.0
 11
260.722028486104
 21
137.2773002242083
 31
0.0
  0
LINE
  5
EF7C87E0B
330
EF7C85532
100
AcDbEntity
  8
SAISEN
100
AcDbLine
 10
261.9215142907417
 20
136.0778144195705
 30
0.0
 11
261.4865883857561
 21
149.9947478868761
 31
0.0
  0
LINE
  5
EF7C87E0C
330
EF7C85532
100
AcDbEntity
  8
SAISEN
100
AcDbLine
 10
280.0786511372905
 20
136.0778144195705
 30
0.0
 11
280.5135770422761
 21
149.9947478868761
 31
0.0
  0
LINE
  5
EF7C87E0D
330
EF7C85532
100
AcDbEntity
  8
JISSEN
100
AcDbLine
 10
281.663597068342
 20
149.6114078781873
 30
0.0
 11
281.2781369419284
 21
137.2773002242083
 31
0.0
  0
LWPOLYLINE
  5
EF7C87E0E
330
EF7C85532
100
AcDbEntity
  8
NITEN
100
AcDbPolyline
 90
       15
 70
     1
 43
0.0
 10
285.0000827140161
 20
145.8886970905723
 42
0.4142135623730927
 10
283.5000827140162
 20
147.3886970905723
 10
260.4060315430195
 20
147.3886970905723
 10
258.5000827140161
 20
147.3886970905723
 42
0.4142135623730925
 10
257.0000827140161
 20
145.8886970905723
 10
257.0000827140161
 20
134.8426810643544
 42
-0.4142135623730943
 10
252.000082714016
 20
129.8426810643544
 42
0.4142135623730951
 10
250.000082714016
 20
127.8426810643544
 10
250.0000827140162
 20
107.3886970905724
 42
0.4142135623730948
 10
252.000082714016
 20
105.3886970905724
 10
290.0000827140161
 20
105.3886970905724
 42
0.4142135623730951
 10
292.0000827140161
 20
107.3886970905724
 10
292.0000827140161
 20
127.8426810643544
 42
0.4142135623730951
 10
290.0000827140161
 20
129.8426810643544
 42
-0.4142135623730961
 10
285.0000827140161
 20
134.8426810643544
  0
INSERT
  5
EF7C87E0F
330
EF7C85532
100
AcDbEntity
  8
WAKU
100
AcDbBlockReference
  2
WAKU
 10
180.999999276
 20
0.0
 30
0.0
 41
181.0
 42
283.0
 43
181.0
  0
LWPOLYLINE
  5
EF7C87E10
330
EF7C85532
100
AcDbEntity
  8
NITEN
100
AcDbPolyline
 90
        5
 70
     0
 43
0.0
 10
254.000082714016
 20
105.3886970905724
 10
254.000082714016
 20
84.55097943942655
 42
-0.5882352941176475
 10
271.0000827140161
 20
84.55097943942655
 42
0.5882352941176476
 10
288.0000827140161
 20
84.55097943942684
 10
288.0000827140161
 20
105.3886970905724
  0
LWPOLYLINE
  5
EF7C87E11
330
EF7C85532
100
AcDbEntity
  8
NITEN
100
AcDbPolyline
 90
        2
 70
     0
 43
0.0
 10
254.0000827140159
 20
84.55097943942655
 42
0.5882352941176294
 10
271.0000827140162
 20
84.55097943942627
 42
0.5882352941176294
  0
LINE
  5
EF7C87E12
330
EF7C85532
100
AcDbEntity
  8
JISSEN
100
AcDbLine
 10
262.5000827140162
 20
135.4992459962961
 30
0.0
 11
271.0000827140162
 21
135.4992459962961
 31
0.0
  0
LINE
  5
EF7C87E13
330
EF7C85532
100
AcDbEntity
  8
JISSEN
100
AcDbLine
 10
260.722028486104
 20
137.2773002242083
 30
0.0
 11
281.2781369419284
 21
137.2773002242083
 31
0.0
  0
LINE
  5
EF7C87E14
330
EF7C85532
100
AcDbEntity
  8
JISSEN
100
AcDbLine
 10
262.5000827140162
 20
135.4992459962961
 30
0.0
 11
260.722028486104
 21
137.2773002242083
 31
0.0
  0
LINE
  5
EF7C87E15
330
EF7C85532
100
AcDbEntity
  8
JISSEN
100
AcDbLine
 10
279.5000827140162
 20
135.4992459962961
 30
0.0
 11
281.2781369419284
 21
137.2773002242083
 31
0.0
  0
LINE
  5
EF7C87E16
330
EF7C85532
100
AcDbEntity
  8
JISSEN
100
AcDbLine
 10
279.5000827140162
 20
135.4992459962961
 30
0.0
 11
271.0000827140162
 21
135.4992459962961
 31
0.0
  0
TEXT
  5
EF7C87E17
330
EF7C85532
100
AcDbEntity
  8
SUNPOU
100
AcDbText
 10
326.9718394148225
 20
7.849423898685245
 30
0.0
 40
3.0
  1
DU ガード作動状態
  7
K
100
AcDbText
  0
TEXT
  5
EF7C87E1A
330
EF7C85532
100
AcDbEntity
  8
SUNPOU
100
AcDbText
 10
326.9718394148225
 20
2.849423898685245
 30
0.0
 40
3.0
  1
尺度　1/1
  7
K
100
AcDbText
  0
LWPOLYLINE
  5
EF7C87E1E
330
EF7C85532
100
AcDbEntity
  8
JISSEN
100
AcDbPolyline
 90
        3
 70
     0
 43
0.0
 10
306.0000827140162
 20
187.4992459962961
 10
301.0000827140162
 20
185.9992459962961
 10
287.5000827140162
 20
185.9992459962961
  0
LWPOLYLINE
  5
EF7C87E1F
330
EF7C85532
100
AcDbEntity
  8
JISSEN
100
AcDbPolyline
 90
        3
 70
     0
 43
0.0
 10
306.0000827140162
 20
188.4992459962961
 10
301.0000827140162
 20
189.9992459962961
 10
287.5000827140162
 20
189.9992459962961
  0
LWPOLYLINE
  5
EF7C87E20
330
EF7C85532
100
AcDbEntity
  8
JISSEN
100
AcDbPolyline
 90
        4
 70
     0
 43
0.0
 10
254.5000827140162
 20
185.9992459962961
 10
241.0000827140162
 20
185.9992459962961
 10
236.0000827140162
 20
187.4992459962961
 10
306.0000827140162
 20
187.4992459962961
  0
LWPOLYLINE
  5
EF7C87E21
330
EF7C85532
100
AcDbEntity
  8
JISSEN
100
AcDbPolyline
 90
        4
 70
     0
 43
0.0
 10
254.5000827140162
 20
189.9992459962961
 10
241.0000827140162
 20
189.9992459962961
 10
236.0000827140162
 20
188.4992459962961
 10
306.0000827140162
 20
188.4992459962961
  0
LWPOLYLINE
  5
EF7C87E22
330
EF7C85532
100
AcDbEntity
  8
JISSEN
100
AcDbPolyline
 90
       15
 70
     0
 43
0.0
 10
254.2500827140162
 20
159.9992459962961
 10
245.4311281029657
 20
159.9992459962961
 42
0.493145426031304
 10
243.9822393635321
 20
158.1110174286424
 10
245.4648057416914
 20
152.5780043797587
 42
0.1651006681921958
 10
245.6433879403315
 20
152.3107372321644
 10
248.5211283829424
 20
150.1025693261505
 42
0.1651006681921981
 10
248.8255090974467
 20
149.9992459962961
 10
271.0000827140162
 20
149.9992459962961
 10
293.1746563305854
 20
149.9992459962961
 42
0.1651006681921981
 10
293.4790370450899
 20
150.1025693261505
 10
296.3567774877009
 20
152.3107372321644
 42
0.1651006681921958
 10
296.5353596863409
 20
152.5780043797587
 10
298.0179260645002
 20
158.1110174286423
 42
0.493145426031304
 10
296.5690373250666
 20
159.9992459962961
 10
287.7500827140162
 20
159.9992459962961
  0
ARC
  5
EF7C87E23
330
EF7C85532
100
AcDbEntity
  8
JISSEN
100
AcDbCircle
 10
271.0000827140162
 20
189.9992459962961
 30
0.0
 40
35.0
100
AcDbArc
 50
0.0
 51
180.0
  0
ARC
  5
EF7C87E24
330
EF7C85532
100
AcDbEntity
  8
JISSEN
100
AcDbCircle
 10
271.0000827140162
 20
189.9992459962961
 30
0.0
 40
30.0
100
AcDbArc
 50
0.0
 51
55.65909144708474
  0
ARC
  5
EF7C87E25
330
EF7C85532
100
AcDbEntity
  8
JISSEN
100
AcDbCircle
 10
263.0000827140162
 20
167.4992459962961
 30
0.0
 40
30.0
100
AcDbArc
 50
0.0
 51
35.20920564492591
  0
LWPOLYLINE
  5
EF7C87E2F
330
EF7C85532
100
AcDbEntity
  8
JISSEN
100
AcDbPolyline
 90
        6
 70
     1
 43
0.0
 10
243.2500827140162
 20
166.4633476114339
 10
245.2500827140162
 20
162.9992459962961
 10
243.2500827140162
 20
159.5351443811584
 10
239.2500827140162
 20
159.5351443811584
 10
237.2500827140162
 20
162.9992459962961
 10
239.2500827140162
 20
166.4633476114339
  0
ARC
  5
EF7C87E30
330
EF7C85532
100
AcDbEntity
  8
JISSEN
100
AcDbCircle
 10
241.2500827140162
 20
162.9992459962961
 30
0.0
 40
5.5
100
AcDbArc
 50
326.9442688491452
 51
299.5045238972962
  0
LINE
  5
EF7C87E31
330
EF7C85532
100
AcDbEntity
  8
JISSEN
100
AcDbLine
 10
236.0000827140161
 20
164.6386056273715
 30
0.0
 11
236.0000827140161
 21
189.9992459962961
 31
0.0
  0
ARC
  5
EF7C87E32
330
EF7C85532
100
AcDbEntity
  8
JISSEN
100
AcDbCircle
 10
279.0000827140162
 20
167.4992459962961
 30
0.0
 40
24.0
100
AcDbArc
 50
129.5712194572308
 51
148.6677932927667
  0
ARC
  5
EF7C87E33
330
EF7C85532
100
AcDbEntity
  8
JISSEN
100
AcDbCircle
 10
263.0000827140162
 20
167.4992459962961
 30
0.0
 40
24.0
100
AcDbArc
 50
31.33220670723315
 51
50.42878054276929
  0
LWPOLYLINE
  5
EF7C87E34
330
EF7C85532
100
AcDbEntity
  8
JISSEN
100
AcDbPolyline
 90
        4
 70
     1
 43
0.0
 10
283.5000827140162
 20
185.9992459962961
 10
285.0000827140162
 20
187.4992459962961
 10
285.0000827140162
 20
156.9992459962961
 10
283.5000827140162
 20
159.9992459962961
  0
LWPOLYLINE
  5
EF7C87E35
330
EF7C85532
100
AcDbEntity
  8
JISSEN
100
AcDbPolyline
 90
        4
 70
     1
 43
0.0
 10
286.0000827140162
 20
187.4992459962961
 10
286.0000827140162
 20
156.9992459962961
 10
287.7500827140162
 20
159.9992459962961
 10
287.5000827140162
 20
185.9992459962961
  0
LINE
  5
EF7C87E36
330
EF7C85532
100
AcDbEntity
  8
JISSEN
100
AcDbLine
 10
241.000082714016
 20
168.4935612402551
 30
0.0
 11
241.000082714016
 21
185.9992459962961
 31
0.0
  0
LWPOLYLINE
  5
EF7C87E37
330
EF7C85532
100
AcDbEntity
  8
JISSEN
100
AcDbPolyline
 90
        4
 70
     1
 43
0.0
 10
256.0000827140162
 20
187.4992459962961
 10
256.0000827140162
 20
156.9992459962961
 10
254.2500827140162
 20
159.9992459962961
 10
254.5000827140162
 20
185.9992459962961
  0
LWPOLYLINE
  5
EF7C87E38
330
EF7C85532
100
AcDbEntity
  8
JISSEN
100
AcDbPolyline
 90
        4
 70
     1
 43
0.0
 10
258.5000827140162
 20
185.9992459962961
 10
257.0000827140162
 20
187.4992459962961
 10
257.0000827140162
 20
156.9992459962961
 10
258.5000827140162
 20
159.9992459962961
  0
LWPOLYLINE
  5
EF7C87E3B
330
EF7C85532
100
AcDbEntity
  8
JISSEN
100
AcDbPolyline
 90
        2
 70
     0
 43
0.0
 10
271.0000827140162
 20
159.9992459962961
 10
258.5000827140162
 20
159.9992459962961
 42
0.493145426031304
  0
LINE
  5
EF7C87E3F
330
EF7C85532
100
AcDbEntity
  8
JISSEN
100
AcDbLine
 10
261.5000827140162
 20
149.9992459962961
 30
0.0
 11
271.0000827140162
 21
149.9992459962961
 31
0.0
  0
LINE
  5
EF7C87E40
330
EF7C85532
100
AcDbEntity
  8
JISSEN
100
AcDbLine
 10
260.3365683596903
 20
149.6114078781874
 30
0.0
 11
271.0000827140162
 21
149.6114078781874
 31
0.0
  0
CIRCLE
  5
EF7C87E42
330
EF7C85532
100
AcDbEntity
  8
JISSEN
100
AcDbCircle
 10
241.2500827140162
 20
162.9992459962961
 30
0.0
 40
2.0
  0
LWPOLYLINE
  5
EF7C87E43
330
EF7C85532
100
AcDbEntity
  8
JISSEN
100
AcDbPolyline
 90
        6
 70
     1
 43
0.0
 10
243.0768776332592
 20
166.1633476114339
 10
244.9036725525024
 20
162.9992459962961
 10
243.0768776332592
 20
159.8351443811584
 10
239.4232877947731
 20
159.8351443811584
 10
237.5964928755299
 20
162.9992459962961
 10
239.4232877947731
 20
166.1633476114339
  0
ARC
  5
EF7C87E44
330
EF7C85532
100
AcDbEntity
  8
JISSEN
100
AcDbCircle
 10
266.0000827140162
 20
167.4992459962961
 30
0.0
 40
15.0
100
AcDbArc
 50
180.0
 51
209.9999999999999
  0
ARC
  5
EF7C87E45
330
EF7C85532
100
AcDbEntity
  8
JISSEN
100
AcDbCircle
 10
266.0000827140162
 20
167.4992459962961
 30
0.0
 40
17.0
100
AcDbArc
 50
180.0
 51
206.1789687040125
  0
ARC
  5
EF7C87E46
330
EF7C85532
100
AcDbEntity
  8
JISSEN
100
AcDbCircle
 10
263.7888359304937
 20
168.1009037191408
 30
0.0
 40
10.80551655320168
100
AcDbArc
 50
183.1919145761251
 51
208.3428535834902
  0
LINE
  5
EF7C87E47
330
EF7C85532
100
AcDbEntity
  8
JISSEN
100
AcDbLine
 10
238.1196756787455
 20
158.4770173650205
 30
0.0
 11
245.1968565492602
 21
153.5780043797588
 31
0.0
  0
LINE
  5
EF7C87E48
330
EF7C85532
100
AcDbEntity
  8
JISSEN
100
AcDbLine
 10
255.500082714016
 20
149.9992459962961
 30
0.0
 11
255.5000827140161
 21
157.856388853439
 31
0.0
  0
LINE
  5
EF7C87E49
330
EF7C85532
100
AcDbEntity
  8
JISSEN
100
AcDbLine
 10
260.3365683596903
 20
149.6114078781874
 30
0.0
 11
261.5000827140162
 21
149.9992459962961
 31
0.0
  0
ARC
  5
EF7C87E4A
330
EF7C85532
100
AcDbEntity
  8
JISSEN
100
AcDbCircle
 10
265.939387761692
 20
168.6531979337245
 30
0.0
 40
11.0
100
AcDbArc
 50
227.4447800965997
 51
231.8803077327242
  0
ARC
  5
EF7C87E4C
330
EF7C85532
100
AcDbEntity
  8
JISSEN
100
AcDbCircle
 10
279.0000827140162
 20
167.4992459962961
 30
0.0
 40
30.0
100
AcDbArc
 50
144.7907943550739
 51
180.0
  0
ARC
  5
EF7C87E4D
330
EF7C85532
100
AcDbEntity
  8
JISSEN
100
AcDbCircle
 10
279.0000827140162
 20
167.4992459962961
 30
0.0
 40
28.0
100
AcDbArc
 50
157.9756871629579
 51
180.0
  0
ARC
  5
EF7C87E51
330
EF7C85532
100
AcDbEntity
  8
JISSEN
100
AcDbCircle
 10
279.0000827140162
 20
167.4992459962961
 30
0.0
 40
26.0
100
AcDbArc
 50
161.0908039916749
 51
180.0
  0
ARC
  5
EF7C87E5B
330
EF7C85532
100
AcDbEntity
  8
JISSEN
100
AcDbCircle
 10
276.0000827140162
 20
167.4992459962961
 30
0.0
 40
15.0
100
AcDbArc
 50
329.9999999999996
 51
0.0
  0
ARC
  5
EF7C87E5C
330
EF7C85532
100
AcDbEntity
  8
JISSEN
100
AcDbCircle
 10
278.2113294975384
 20
168.1009037191408
 30
0.0
 40
10.80551655320168
100
AcDbArc
 50
331.6571464165105
 51
356.808085423874
  0
ARC
  5
EF7C87E5D
330
EF7C85532
100
AcDbEntity
  8
JISSEN
100
AcDbCircle
 10
276.0000827140162
 20
167.4992459962961
 30
0.0
 40
17.0
100
AcDbArc
 50
333.8210312959872
 51
0.0
  0
LWPOLYLINE
  5
EF7C87E61
330
EF7C85532
100
AcDbEntity
  8
JISSEN
100
AcDbPolyline
 90
        2
 70
     0
 43
0.0
 10
283.5000827140162
 20
159.9992459962961
 10
271.0000827140162
 20
159.9992459962961
  0
LINE
  5
EF7C87E62
330
EF7C85532
100
AcDbEntity
  8
JISSEN
100
AcDbLine
 10
281.663597068342
 20
149.6114078781874
 30
0.0
 11
271.0000827140162
 21
149.6114078781874
 31
0.0
  0
LINE
  5
EF7C87E63
330
EF7C85532
100
AcDbEntity
  8
JISSEN
100
AcDbLine
 10
280.5000827140162
 20
149.9992459962961
 30
0.0
 11
271.0000827140162
 21
149.9992459962961
 31
0.0
  0
LINE
  5
EF7C87E67
330
EF7C85532
100
AcDbEntity
  8
JISSEN
100
AcDbLine
 10
286.5000827140162
 20
149.9992459962961
 30
0.0
 11
286.5000827140162
 21
157.856388853439
 31
0.0
  0
LINE
  5
EF7C87E68
330
EF7C85532
100
AcDbEntity
  8
JISSEN
100
AcDbLine
 10
281.663597068342
 20
149.6114078781874
 30
0.0
 11
280.5000827140162
 21
149.9992459962961
 31
0.0
  0
ARC
  5
EF7C87E69
330
EF7C85532
100
AcDbEntity
  8
JISSEN
100
AcDbCircle
 10
276.0607776663404
 20
168.6531979337245
 30
0.0
 40
11.0
100
AcDbArc
 50
308.1196922672755
 51
312.5552199034004
  0
ARC
  5
EF7C87EB7
330
EF7C85532
100
AcDbEntity
  8
JISSEN
100
AcDbCircle
 10
263.0000827140162
 20
167.4992459962961
 30
0.0
 40
28.0
100
AcDbArc
 50
0.0
 51
22.02431283704207
  0
ARC
  5
EF7C87EB8
330
EF7C85532
100
AcDbEntity
  8
JISSEN
100
AcDbCircle
 10
263.0000827140162
 20
167.4992459962961
 30
0.0
 40
26.0
100
AcDbArc
 50
0.0
 51
18.90919600832483
  0
LINE
  5
EF7C87EBC
330
EF7C85532
100
AcDbEntity
  8
JISSEN
100
AcDbLine
 10
258.7502092976172
 20
190.0132756628927
 30
0.0
 11
266.2561842955307
 21
198.8893944150655
 31
0.0
  0
ARC
  5
EF7C87EBD
330
EF7C85532
100
AcDbEntity
  8
JISSEN
100
AcDbCircle
 10
271.0000827140162
 20
189.9992459962961
 30
0.0
 40
30.0
100
AcDbArc
 50
66.41780378570306
 51
113.5821962142969
  0
LWPOLYLINE
  5
EF7C87EBE
330
EF7C85532
100
AcDbEntity
  8
JISSEN
100
AcDbPolyline
 90
        2
 70
     0
 43
0.0
 10
283.2500827140162
 20
189.9992459962961
 10
258.7500827140162
 20
189.9992459962961
  0
LWPOLYLINE
  5
EF7C87EBF
330
EF7C85532
100
AcDbEntity
  8
JISSEN
100
AcDbPolyline
 90
        2
 70
     0
 43
0.0
 10
283.5000827140162
 20
185.9992459962962
 10
258.5000827140162
 20
185.9992459962961
  0
LINE
  5
EF7C87EC0
330
EF7C85532
100
AcDbEntity
  8
JISSEN
100
AcDbLine
 10
266.3676851971256
 20
200.4992459962961
 30
0.0
 11
265.8336317580014
 21
200.4992459962961
 31
0.0
  0
ARC
  5
EF7C87EC1
330
EF7C85532
100
AcDbEntity
  8
JISSEN
100
AcDbCircle
 10
265.0000827140162
 20
198.9526809784353
 30
0.0
 40
1.0
100
AcDbArc
 50
319.7809012554437
 51
333.0351766874621
  0
LINE
  5
EF7C87EC2
330
EF7C85532
100
AcDbEntity
  8
JISSEN
100
AcDbLine
 10
265.7079849065549
 20
199.4992459962961
 30
0.0
 11
267.6325962611934
 21
199.4992459962961
 31
0.0
  0
LINE
  5
EF7C87EC3
330
EF7C85532
100
AcDbEntity
  8
JISSEN
100
AcDbLine
 10
263.2500827140162
 20
201.2992459962961
 30
0.0
 11
271.0000827140162
 21
201.2992459962961
 31
0.0
  0
LINE
  5
EF7C87EC4
330
EF7C85532
100
AcDbEntity
  8
JISSEN
100
AcDbLine
 10
283.148127711523
 20
201.2992459962961
 30
0.0
 11
258.8520377165093
 21
201.2992459962961
 31
0.0
  0
LWPOLYLINE
  5
EF7C87EC5
330
EF7C85532
100
AcDbEntity
  8
JISSEN
100
AcDbPolyline
 90
        5
 70
     1
 43
0.0
 10
254.5000827140162
 20
189.9992459962961
 10
254.2500827140162
 20
200.9523681350994
 10
254.076610805125
 20
214.770117974266
 10
256.0000827140162
 20
221.6220225979799
 10
256.0000827140162
 20
188.4992459962961
  0
LWPOLYLINE
  5
EF7C87EC6
330
EF7C85532
100
AcDbEntity
  8
JISSEN
100
AcDbPolyline
 90
        4
 70
     1
 43
0.0
 10
257.0000827140162
 20
222.077275860987
 10
258.9981546873953
 20
217.4938586257516
 10
258.7500827140162
 20
189.9992459962961
 10
257.0000827140162
 20
188.4992459962961
  0
ARC
  5
EF7C87EC7
330
EF7C85532
100
AcDbEntity
  8
JISSEN
100
AcDbCircle
 10
271.0000827140162
 20
189.9992459962961
 30
0.0
 40
30.0
100
AcDbArc
 50
124.340908552915
 51
180.0
  0
ARC
  5
EF7C87EC8
330
EF7C85532
100
AcDbEntity
  8
JISSEN
100
AcDbCircle
 10
255.087849919152
 20
199.1992459962961
 30
0.0
 40
1.3
100
AcDbArc
 50
129.1502676331692
 51
174.8427865251746
  0
LINE
  5
EF7C87EC9
330
EF7C85532
100
AcDbEntity
  8
JISSEN
100
AcDbLine
 10
254.2463715963025
 20
197.4992459962961
 30
0.0
 11
253.4463715963025
 21
197.4992459962961
 31
0.0
  0
ARC
  5
EF7C87ECA
330
EF7C85532
100
AcDbEntity
  8
JISSEN
100
AcDbCircle
 10
253.4463715963025
 20
197.6992459962961
 30
0.0
 40
0.2
100
AcDbArc
 50
183.9176963714471
 51
354.8427865251754
  0
LINE
  5
EF7C87ECB
330
EF7C85532
100
AcDbEntity
  8
JISSEN
100
AcDbLine
 10
253.262959346366
 20
197.6194967231135
 30
0.0
 11
253.2626181162832
 21
197.597681970558
 31
0.0
  0
LINE
  5
EF7C87ECC
330
EF7C85532
100
AcDbEntity
  8
JISSEN
100
AcDbLine
 10
253.1285643232625
 20
199.4126351659826
 30
0.0
 11
253.2468389514923
 21
197.68558130987
 31
0.0
  0
ARC
  5
EF7C87ECD
330
EF7C85532
100
AcDbEntity
  8
JISSEN
100
AcDbCircle
 10
253.1626303479139
 20
197.5992459962972
 30
0.0
 40
0.1
100
AcDbArc
 50
270.0
 51
359.1038427224347
  0
ARC
  5
EF7C87ECE
330
EF7C85532
100
AcDbEntity
  8
JISSEN
100
AcDbCircle
 10
254.2463715963025
 20
197.6992459962961
 30
0.0
 40
0.2
100
AcDbArc
 50
270.0
 51
294.2439297532961
  0
LINE
  5
EF7C87ECF
330
EF7C85532
100
AcDbEntity
  8
JISSEN
100
AcDbLine
 10
253.6455619567492
 20
197.6812682237668
 30
0.0
 11
253.7931125762484
 21
199.3161015177362
 31
0.0
  0
ARC
  5
EF7C87ED0
330
EF7C85532
100
AcDbEntity
  8
JISSEN
100
AcDbCircle
 10
252.5000827140162
 20
200.0049012631567
 30
0.0
 40
0.5
100
AcDbArc
 50
96.99999999999944
 51
179.9999999999991
  0
ARC
  5
EF7C87ED1
330
EF7C85532
100
AcDbEntity
  8
JISSEN
100
AcDbCircle
 10
252.1626303479136
 20
197.5992459962927
 30
0.0
 40
0.1
100
AcDbArc
 50
270.0
 51
358.8942957104782
  0
LINE
  5
EF7C87ED2
330
EF7C85532
100
AcDbEntity
  8
JISSEN
100
AcDbLine
 10
252.2626117275035
 20
197.5973162980336
 30
0.0
 11
252.2940140698455
 21
199.2243320736639
 31
0.0
  0
LINE
  5
EF7C87ED3
330
EF7C85532
100
AcDbEntity
  8
JISSEN
100
AcDbLine
 10
252.000082714016
 20
197.4992459962961
 30
0.0
 11
252.0000827140162
 21
200.0049012631567
 31
0.0
  0
LINE
  5
EF7C87ED4
330
EF7C85532
100
AcDbEntity
  8
JISSEN
100
AcDbLine
 10
252.4391480423135
 20
200.5011743389773
 30
0.0
 11
254.2552912619869
 21
200.7241686867417
 31
0.0
  0
ARC
  5
EF7C87ED5
330
EF7C85532
100
AcDbEntity
  8
JISSEN
100
AcDbCircle
 10
254.3690486823603
 20
199.5130382443607
 30
0.0
 40
1.244540968917422
100
AcDbArc
 50
127.5871082537664
 51
184.6273535933104
  0
LINE
  5
EF7C87ED6
330
EF7C85532
100
AcDbEntity
  8
JISSEN
100
AcDbLine
 10
253.1626303479139
 20
197.4992459962961
 30
0.0
 11
252.000082714016
 21
197.4992459962961
 31
0.0
  0
ARC
  5
EF7C87ED7
330
EF7C85532
100
AcDbEntity
  8
JISSEN
100
AcDbCircle
 10
253.5937720045097
 20
199.1992459962961
 30
0.0
 40
1.3
100
AcDbArc
 50
90.0
 51
178.8942957104758
  0
ARC
  5
EF7C87ED8
330
EF7C85532
100
AcDbEntity
  8
JISSEN
100
AcDbCircle
 10
261.6407504169072
 20
199.1992459962961
 30
0.0
 40
1.3
100
AcDbArc
 50
11.75775714726694
 51
90.0
  0
LINE
  5
EF7C87ED9
330
EF7C85532
100
AcDbEntity
  8
JISSEN
100
AcDbLine
 10
261.3564356358143
 20
199.4992459962961
 30
0.0
 11
262.9056614809745
 21
199.4992459962961
 31
0.0
  0
ARC
  5
EF7C87EDA
330
EF7C85532
100
AcDbEntity
  8
JISSEN
100
AcDbCircle
 10
261.3564356358143
 20
198.6992459962961
 30
0.0
 40
0.8
100
AcDbArc
 50
90.0
 51
161.9500333794132
  0
LINE
  5
EF7C87EDB
330
EF7C85532
100
AcDbEntity
  8
JISSEN
100
AcDbLine
 10
260.5958063026106
 20
198.9471230171552
 30
0.0
 11
260.213930229453
 21
197.7753074858664
 31
0.0
  0
LINE
  5
EF7C87EDC
330
EF7C85532
100
AcDbEntity
  8
JISSEN
100
AcDbLine
 10
261.4269568033763
 20
200.4992459962961
 30
0.0
 11
261.6407504169072
 21
200.4992459962961
 31
0.0
  0
LINE
  5
EF7C87EDD
330
EF7C85532
100
AcDbEntity
  8
JISSEN
100
AcDbLine
 10
259.040232701899
 20
197.826789632122
 30
0.0
 11
258.8309586747553
 21
198.9629881767124
 31
0.0
  0
ARC
  5
EF7C87EDE
330
EF7C85532
100
AcDbEntity
  8
JISSEN
100
AcDbCircle
 10
259.433615562851
 20
197.8992459962959
 30
0.0
 40
0.4
100
AcDbArc
 50
190.436221658696
 51
348.7010440842461
  0
LINE
  5
EF7C87EDF
330
EF7C85532
100
AcDbEntity
  8
JISSEN
100
AcDbLine
 10
259.8336155628511
 20
197.4992459962961
 30
0.0
 11
259.433615562851
 21
197.4992459962961
 31
0.0
  0
LINE
  5
EF7C87EE0
330
EF7C85532
100
AcDbEntity
  8
JISSEN
100
AcDbLine
 10
259.8258628544724
 20
197.8208746863937
 30
0.0
 11
260.1521531056072
 21
199.4539527534784
 31
0.0
  0
ARC
  5
EF7C87EE1
330
EF7C85532
100
AcDbEntity
  8
JISSEN
100
AcDbCircle
 10
261.4269568033763
 20
199.1992459962961
 30
0.0
 40
1.3
100
AcDbArc
 50
90.0
 51
168.7010440842481
  0
ARC
  5
EF7C87EE2
330
EF7C85532
100
AcDbEntity
  8
JISSEN
100
AcDbCircle
 10
259.8336155628511
 20
197.8992459962959
 30
0.0
 40
0.4
100
AcDbArc
 50
270.0
 51
341.9500333794147
  0
ARC
  5
EF7C87EE3
330
EF7C85532
100
AcDbEntity
  8
JISSEN
100
AcDbCircle
 10
263.7290974990802
 20
197.9992459962961
 30
0.0
 40
0.5
100
AcDbArc
 50
191.7577571472666
 51
347.679167814121
  0
ARC
  5
EF7C87EE4
330
EF7C85532
100
AcDbEntity
  8
JISSEN
100
AcDbCircle
 10
263.9290974990803
 20
197.9992459962961
 30
0.0
 40
0.5
100
AcDbArc
 50
270.0
 51
339.9682734747166
  0
LINE
  5
EF7C87EE5
330
EF7C85532
100
AcDbEntity
  8
JISSEN
100
AcDbLine
 10
263.9290974990803
 20
197.4992459962961
 30
0.0
 11
263.7290974990802
 21
197.4992459962961
 31
0.0
  0
LINE
  5
EF7C87EE6
330
EF7C85532
100
AcDbEntity
  8
JISSEN
100
AcDbLine
 10
263.2395885526251
 20
197.8973588462726
 30
0.0
 11
262.9134736776918
 21
199.4641525863575
 31
0.0
  0
ARC
  5
EF7C87EE7
330
EF7C85532
100
AcDbEntity
  8
JISSEN
100
AcDbCircle
 10
265.7079849065549
 20
198.4992459962961
 30
0.0
 40
1.0
100
AcDbArc
 50
90.0
 51
159.9682734747159
  0
ARC
  5
EF7C87EE8
330
EF7C85532
100
AcDbEntity
  8
JISSEN
100
AcDbCircle
 10
265.8336317580014
 20
199.1992459962961
 30
0.0
 40
1.3
100
AcDbArc
 50
90.0
 51
167.6791678141218
  0
LINE
  5
EF7C87EE9
330
EF7C85532
100
AcDbEntity
  8
JISSEN
100
AcDbLine
 10
264.2175815261242
 20
197.8925531880885
 30
0.0
 11
264.5635732876879
 21
199.4766472976357
 31
0.0
  0
LINE
  5
EF7C87EEA
330
EF7C85532
100
AcDbEntity
  8
JISSEN
100
AcDbLine
 10
264.3988490436412
 20
197.8279757817736
 30
0.0
 11
264.768481817433
 21
198.8417864253412
 31
0.0
  0
LWPOLYLINE
  5
EF7C87EEB
330
EF7C85532
100
AcDbEntity
  8
JISSEN
100
AcDbPolyline
 90
        4
 70
     1
 43
0.0
 10
285.0000827140162
 20
222.077275860987
 10
283.002010740637
 20
217.4938586257516
 10
283.2500827140162
 20
189.9992459962961
 10
285.0000827140162
 20
188.4992459962961
  0
LWPOLYLINE
  5
EF7C87EEC
330
EF7C85532
100
AcDbEntity
  8
JISSEN
100
AcDbPolyline
 90
        5
 70
     1
 43
0.0
 10
287.5000827140162
 20
189.9992459962961
 10
287.7500827140162
 20
200.9523681350994
 10
287.9235546229073
 20
214.7701179742659
 10
286.0000827140162
 20
221.6220225979799
 10
286.0000827140162
 20
188.4992459962961
  0
LINE
  5
EF7C87EED
330
EF7C85532
100
AcDbEntity
  8
JISSEN
100
AcDbLine
 10
280.6437297922179
 20
199.4992459962961
 30
0.0
 11
279.0945039470577
 21
199.4992459962961
 31
0.0
  0
ARC
  5
EF7C87EEE
330
EF7C85532
100
AcDbEntity
  8
JISSEN
100
AcDbCircle
 10
280.3594150111249
 20
199.1992459962961
 30
0.0
 40
1.3
100
AcDbArc
 50
90.0
 51
168.242242852733
  0
LINE
  5
EF7C87EEF
330
EF7C85532
100
AcDbEntity
  8
JISSEN
100
AcDbLine
 10
271.0000827140162
 20
201.2992459962961
 30
0.0
 11
283.148127711523
 21
201.2992459962961
 31
0.0
  0
LINE
  5
EF7C87EF0
330
EF7C85532
100
AcDbEntity
  8
JISSEN
100
AcDbLine
 10
283.249956130415
 20
190.0132756628926
 30
0.0
 11
275.7439811325016
 21
198.8893944150655
 31
0.0
  0
ARC
  5
EF7C87EF1
330
EF7C85532
100
AcDbEntity
  8
JISSEN
100
AcDbCircle
 10
254.2500827140162
 20
193.4992459962961
 30
0.0
 40
12.49999999999999
100
AcDbArc
 50
343.7397952916881
 51
16.26020470831189
  0
ARC
  5
EF7C87EF2
330
EF7C85532
100
AcDbEntity
  8
JISSEN
100
AcDbCircle
 10
287.7500827140161
 20
193.4992459962961
 30
0.0
 40
12.49999999999999
100
AcDbArc
 50
163.739795291688
 51
196.2602047083119
  0
ARC
  5
EF7C87EF3
330
EF7C85532
100
AcDbEntity
  8
JISSEN
100
AcDbCircle
 10
273.480080366198
 20
198.0992459962966
 30
0.0
 40
0.6
100
AcDbArc
 50
191.318833727393
 51
348.8861928075048
  0
ARC
  5
EF7C87EF4
330
EF7C85532
100
AcDbEntity
  8
JISSEN
100
AcDbCircle
 10
273.380080366198
 20
198.0992459962966
 30
0.0
 40
0.6
100
AcDbArc
 50
197.3059974608022
 51
270.0
  0
ARC
  5
EF7C87EF5
330
EF7C85532
100
AcDbEntity
  8
JISSEN
100
AcDbCircle
 10
270.6779504397242
 20
199.1992459962961
 30
0.0
 40
1.3
100
AcDbArc
 50
90.0
 51
168.6811662726061
  0
ARC
  5
EF7C87EF6
330
EF7C85532
100
AcDbEntity
  8
JISSEN
100
AcDbCircle
 10
270.5677515352657
 20
198.2992459962961
 30
0.0
 40
1.199999999999999
100
AcDbArc
 50
90.0
 51
162.6940025391977
  0
LINE
  5
EF7C87EF7
330
EF7C85532
100
AcDbEntity
  8
JISSEN
100
AcDbLine
 10
269.108415179436
 20
197.9814849130741
 30
0.0
 11
269.4032351849187
 21
199.4543950099453
 31
0.0
  0
LINE
  5
EF7C87EF8
330
EF7C85532
100
AcDbEntity
  8
JISSEN
100
AcDbLine
 10
269.1929228616904
 20
197.9207611088247
 30
0.0
 11
269.4220759355531
 21
198.6562157712398
 31
0.0
  0
LINE
  5
EF7C87EF9
330
EF7C85532
100
AcDbEntity
  8
JISSEN
100
AcDbLine
 10
267.6433053109064
 20
199.4498319602246
 30
0.0
 11
267.9313373170123
 21
197.9835909360219
 31
0.0
  0
ARC
  5
EF7C87EFA
330
EF7C85532
100
AcDbEntity
  8
JISSEN
100
AcDbCircle
 10
268.6200850618341
 20
198.0992459962966
 30
0.0
 40
0.6
100
AcDbArc
 50
270.0
 51
342.6940025391978
  0
LINE
  5
EF7C87EFB
330
EF7C85532
100
AcDbEntity
  8
JISSEN
100
AcDbLine
 10
268.6200850618341
 20
197.4992459962961
 30
0.0
 11
268.5200850618342
 21
197.4992459962961
 31
0.0
  0
ARC
  5
EF7C87EFC
330
EF7C85532
100
AcDbEntity
  8
JISSEN
100
AcDbCircle
 10
268.5200850618342
 20
198.0992459962966
 30
0.0
 40
0.6
100
AcDbArc
 50
191.113807192497
 51
348.6811662726061
  0
LINE
  5
EF7C87EFD
330
EF7C85532
100
AcDbEntity
  8
JISSEN
100
AcDbLine
 10
266.3709760317424
 20
199.2706129105205
 30
0.0
 11
266.3441052138933
 21
199.4992459962961
 31
0.0
  0
ARC
  5
EF7C87EFE
330
EF7C85532
100
AcDbEntity
  8
JISSEN
100
AcDbCircle
 10
265.8743938795622
 20
199.2122505413425
 30
0.0
 40
0.5
100
AcDbArc
 50
319.7809012554437
 51
6.703115329654639
  0
ARC
  5
EF7C87EFF
330
EF7C85532
100
AcDbEntity
  8
JISSEN
100
AcDbCircle
 10
266.3676851971257
 20
199.1992459962961
 30
0.0
 40
1.3
100
AcDbArc
 50
11.11380719249675
 51
90.0
  0
LINE
  5
EF7C87F00
330
EF7C85532
100
AcDbEntity
  8
JISSEN
100
AcDbLine
 10
271.3222149883081
 20
200.4992459962961
 30
0.0
 11
270.6779504397242
 21
200.4992459962961
 31
0.0
  0
LINE
  5
EF7C87F01
330
EF7C85532
100
AcDbEntity
  8
JISSEN
100
AcDbLine
 10
271.4324138927665
 20
199.4992459962961
 30
0.0
 11
271.0000827140162
 21
199.4992459962961
 31
0.0
  0
LINE
  5
EF7C87F02
330
EF7C85532
100
AcDbEntity
  8
JISSEN
100
AcDbLine
 10
270.5677515352657
 20
199.4992459962961
 30
0.0
 11
271.0000827140162
 21
199.4992459962961
 31
0.0
  0
ARC
  5
EF7C87F03
330
EF7C85532
100
AcDbEntity
  8
JISSEN
100
AcDbCircle
 10
271.322214988308
 20
199.1992459962961
 30
0.0
 40
1.3
100
AcDbArc
 50
11.31883372739381
 51
90.0
  0
ARC
  5
EF7C87F04
330
EF7C85532
100
AcDbEntity
  8
JISSEN
100
AcDbCircle
 10
271.4324138927665
 20
198.2992459962961
 30
0.0
 40
1.199999999999999
100
AcDbArc
 50
17.3059974608022
 51
90.0
  0
LINE
  5
EF7C87F05
330
EF7C85532
100
AcDbEntity
  8
JISSEN
100
AcDbLine
 10
272.8917502485961
 20
197.9814849130741
 30
0.0
 11
272.5969302431136
 21
199.4543950099453
 31
0.0
  0
LINE
  5
EF7C87F06
330
EF7C85532
100
AcDbEntity
  8
JISSEN
100
AcDbLine
 10
272.8072425663418
 20
197.9207611088247
 30
0.0
 11
272.5780894924791
 21
198.6562157712398
 31
0.0
  0
ARC
  5
EF7C87F08
330
EF7C85532
100
AcDbEntity
  8
JISSEN
100
AcDbCircle
 10
276.2921805214772
 20
198.4992459962961
 30
0.0
 40
1.0
100
AcDbArc
 50
20.03172652528407
 51
90.0
  0
ARC
  5
EF7C87F09
330
EF7C85532
100
AcDbEntity
  8
JISSEN
100
AcDbCircle
 10
276.1665336700308
 20
199.1992459962961
 30
0.0
 40
1.3
100
AcDbArc
 50
12.32083218587817
 51
89.99999999999836
  0
LINE
  5
EF7C87F0A
330
EF7C85532
100
AcDbEntity
  8
JISSEN
100
AcDbLine
 10
276.2921805214773
 20
199.4992459962961
 30
0.0
 11
274.3675691668394
 21
199.4992459962961
 31
0.0
  0
LINE
  5
EF7C87F0B
330
EF7C85532
100
AcDbEntity
  8
JISSEN
100
AcDbLine
 10
275.6291893962899
 20
199.2706129105205
 30
0.0
 11
275.6560602141388
 21
199.4992459962961
 31
0.0
  0
ARC
  5
EF7C87F0C
330
EF7C85532
100
AcDbEntity
  8
JISSEN
100
AcDbCircle
 10
276.12577154847
 20
199.2122505413425
 30
0.0
 40
0.5
100
AcDbArc
 50
173.2968846703453
 51
220.2190987445551
  0
LINE
  5
EF7C87F0D
330
EF7C85532
100
AcDbEntity
  8
JISSEN
100
AcDbLine
 10
275.6324802309066
 20
200.4992459962961
 30
0.0
 11
276.1665336700308
 21
200.4992459962961
 31
0.0
  0
LINE
  5
EF7C87F0E
330
EF7C85532
100
AcDbEntity
  8
JISSEN
100
AcDbLine
 10
273.480080366198
 20
197.4992459962961
 30
0.0
 11
273.380080366198
 21
197.4992459962961
 31
0.0
  0
ARC
  5
EF7C87F0F
330
EF7C85532
100
AcDbEntity
  8
JISSEN
100
AcDbCircle
 10
275.6324802309066
 20
199.1992459962962
 30
0.0
 40
1.3
100
AcDbArc
 50
90.0
 51
168.886192807504
  0
LINE
  5
EF7C87F10
330
EF7C85532
100
AcDbEntity
  8
JISSEN
100
AcDbLine
 10
274.3568601171258
 20
199.4498319602246
 30
0.0
 11
274.06882811102
 21
197.983590936022
 31
0.0
  0
ARC
  5
EF7C87F11
330
EF7C85532
100
AcDbEntity
  8
JISSEN
100
AcDbCircle
 10
278.2710679289519
 20
197.9992459962961
 30
0.0
 40
0.5
100
AcDbArc
 50
192.3208321858781
 51
348.2422428527334
  0
LINE
  5
EF7C87F12
330
EF7C85532
100
AcDbEntity
  8
JISSEN
100
AcDbLine
 10
278.0710679289519
 20
197.4992459962961
 30
0.0
 11
278.2710679289519
 21
197.4992459962961
 31
0.0
  0
ARC
  5
EF7C87F13
330
EF7C85532
100
AcDbEntity
  8
JISSEN
100
AcDbCircle
 10
278.0710679289519
 20
197.9992459962961
 30
0.0
 40
0.5
100
AcDbArc
 50
200.0317265252833
 51
270.0
  0
LINE
  5
EF7C87F14
330
EF7C85532
100
AcDbEntity
  8
JISSEN
100
AcDbLine
 10
277.6013163843909
 20
197.8279757817736
 30
0.0
 11
277.2316836105992
 21
198.8417864253412
 31
0.0
  0
LINE
  5
EF7C87F15
330
EF7C85532
100
AcDbEntity
  8
JISSEN
100
AcDbLine
 10
277.782583901908
 20
197.8925531880885
 30
0.0
 11
277.4365921403442
 21
199.4766472976357
 31
0.0
  0
LINE
  5
EF7C87F16
330
EF7C85532
100
AcDbEntity
  8
JISSEN
100
AcDbLine
 10
278.760576875407
 20
197.8973588462726
 30
0.0
 11
279.0866917503405
 21
199.4641525863575
 31
0.0
  0
ARC
  5
EF7C87F17
330
EF7C85532
100
AcDbEntity
  8
JISSEN
100
AcDbCircle
 10
282.1665498651812
 20
197.8992459962959
 30
0.0
 40
0.4
100
AcDbArc
 50
198.0499666205844
 51
270.0
  0
LINE
  5
EF7C87F18
330
EF7C85532
100
AcDbEntity
  8
JISSEN
100
AcDbLine
 10
282.1743025735599
 20
197.8208746863937
 30
0.0
 11
281.8480123224249
 21
199.4539527534784
 31
0.0
  0
LINE
  5
EF7C87F19
330
EF7C85532
100
AcDbEntity
  8
JISSEN
100
AcDbLine
 10
281.4043591254216
 20
198.9471230171552
 30
0.0
 11
281.7862351985792
 21
197.7753074858664
 31
0.0
  0
LINE
  5
EF7C87F1A
330
EF7C85532
100
AcDbEntity
  8
JISSEN
100
AcDbLine
 10
282.1665498651812
 20
197.4992459962961
 30
0.0
 11
282.5665498651811
 21
197.4992459962961
 31
0.0
  0
ARC
  5
EF7C87F1B
330
EF7C85532
100
AcDbEntity
  8
JISSEN
100
AcDbCircle
 10
282.5665498651811
 20
197.8992459962959
 30
0.0
 40
0.4
100
AcDbArc
 50
191.2989559157538
 51
349.5637783413032
  0
LINE
  5
EF7C87F1C
330
EF7C85532
100
AcDbEntity
  8
JISSEN
100
AcDbLine
 10
282.9599327261334
 20
197.826789632122
 30
0.0
 11
283.169206753277
 21
198.9629881767126
 31
0.0
  0
LINE
  5
EF7C87F1D
330
EF7C85532
100
AcDbEntity
  8
JISSEN
100
AcDbLine
 10
280.573208624656
 20
200.4992459962961
 30
0.0
 11
280.3594150111249
 21
200.4992459962961
 31
0.0
  0
ARC
  5
EF7C87F1E
330
EF7C85532
100
AcDbEntity
  8
JISSEN
100
AcDbCircle
 10
280.573208624656
 20
199.1992459962961
 30
0.0
 40
1.3
100
AcDbArc
 50
11.2989559157519
 51
90.0
  0
ARC
  5
EF7C87F1F
330
EF7C85532
100
AcDbEntity
  8
JISSEN
100
AcDbCircle
 10
280.6437297922179
 20
198.6992459962961
 30
0.0
 40
0.8
100
AcDbArc
 50
18.04996662058674
 51
90.0
  0
LINE
  5
EF7C87F20
330
EF7C85532
100
AcDbEntity
  8
JISSEN
100
AcDbLine
 10
288.8375350801185
 20
197.4992459962961
 30
0.0
 11
290.0000827140162
 21
197.4992459962961
 31
0.0
  0
ARC
  5
EF7C87F21
330
EF7C85532
100
AcDbEntity
  8
JISSEN
100
AcDbCircle
 10
288.8375350801185
 20
197.5992459962972
 30
0.0
 40
0.1
100
AcDbArc
 50
180.8961572775653
 51
270.0
  0
LINE
  5
EF7C87F22
330
EF7C85532
100
AcDbEntity
  8
JISSEN
100
AcDbLine
 10
288.7372060816661
 20
197.6194967231135
 30
0.0
 11
288.7375473117491
 21
197.597681970558
 31
0.0
  0
LINE
  5
EF7C87F23
330
EF7C85532
100
AcDbEntity
  8
JISSEN
100
AcDbLine
 10
288.8716011047696
 20
199.4126351659826
 30
0.0
 11
288.7533264765398
 21
197.68558130987
 31
0.0
  0
ARC
  5
EF7C87F24
330
EF7C85532
100
AcDbEntity
  8
JISSEN
100
AcDbCircle
 10
289.5000827140161
 20
200.0049012631567
 30
0.0
 40
0.5
100
AcDbArc
 50
0.0
 51
83.00000000000057
  0
ARC
  5
EF7C87F25
330
EF7C85532
100
AcDbEntity
  8
JISSEN
100
AcDbCircle
 10
289.8375350801185
 20
197.5992459962927
 30
0.0
 40
0.1
100
AcDbArc
 50
181.1057042895208
 51
270.0
  0
LINE
  5
EF7C87F26
330
EF7C85532
100
AcDbEntity
  8
JISSEN
100
AcDbLine
 10
289.7375537005288
 20
197.5973162980336
 30
0.0
 11
289.7061513581867
 21
199.2243320736639
 31
0.0
  0
LINE
  5
EF7C87F27
330
EF7C85532
100
AcDbEntity
  8
JISSEN
100
AcDbLine
 10
290.0000827140162
 20
197.4992459962961
 30
0.0
 11
290.0000827140162
 21
200.0049012631567
 31
0.0
  0
ARC
  5
EF7C87F28
330
EF7C85532
100
AcDbEntity
  8
JISSEN
100
AcDbCircle
 10
286.9123155088801
 20
199.1992459962961
 30
0.0
 40
1.3
100
AcDbArc
 50
5.157213474825391
 51
50.84973236682586
  0
ARC
  5
EF7C87F29
330
EF7C85532
100
AcDbEntity
  8
JISSEN
100
AcDbCircle
 10
287.7537938317298
 20
197.6992459962961
 30
0.0
 40
0.2
100
AcDbArc
 50
245.7560702467311
 51
270.0
  0
LINE
  5
EF7C87F2A
330
EF7C85532
100
AcDbEntity
  8
JISSEN
100
AcDbLine
 10
288.3546034712831
 20
197.6812682237668
 30
0.0
 11
288.2070528517837
 21
199.3161015177362
 31
0.0
  0
LINE
  5
EF7C87F2B
330
EF7C85532
100
AcDbEntity
  8
JISSEN
100
AcDbLine
 10
289.5610173857186
 20
200.5011743389773
 30
0.0
 11
287.7448741660454
 21
200.7241686867417
 31
0.0
  0
ARC
  5
EF7C87F2C
330
EF7C85532
100
AcDbEntity
  8
JISSEN
100
AcDbCircle
 10
287.6311167456718
 20
199.5130382443607
 30
0.0
 40
1.244540968917422
100
AcDbArc
 50
355.3726464066895
 51
52.41289174619006
  0
ARC
  5
EF7C87F2D
330
EF7C85532
100
AcDbEntity
  8
JISSEN
100
AcDbCircle
 10
288.4063934235226
 20
199.1992459962961
 30
0.0
 40
1.3
100
AcDbArc
 50
1.105704289524135
 51
90.0
  0
LINE
  5
EF7C87F2E
330
EF7C85532
100
AcDbEntity
  8
JISSEN
100
AcDbLine
 10
287.7537938317298
 20
197.4992459962961
 30
0.0
 11
288.5537938317298
 21
197.4992459962961
 31
0.0
  0
ARC
  5
EF7C87F2F
330
EF7C85532
100
AcDbEntity
  8
JISSEN
100
AcDbCircle
 10
288.5537938317298
 20
197.6992459962961
 30
0.0
 40
0.2
100
AcDbArc
 50
185.1572134748245
 51
356.0823036285527
  0
LINE
  5
EF7C87F37
330
EF7C85532
100
AcDbEntity
  8
JISSEN
100
AcDbLine
 10
301.0000827140162
 20
168.4935612402551
 30
0.0
 11
301.0000827140162
 21
185.9992459962961
 31
0.0
  0
LINE
  5
EF7C87F38
330
EF7C85532
100
AcDbEntity
  8
JISSEN
100
AcDbLine
 10
306.0000827140162
 20
164.6386056273716
 30
0.0
 11
306.0000827140162
 21
189.9992459962961
 31
0.0
  0
CIRCLE
  5
EF7C87F39
330
EF7C85532
100
AcDbEntity
  8
JISSEN
100
AcDbCircle
 10
300.7500827140162
 20
162.9992459962961
 30
0.0
 40
2.0
  0
LWPOLYLINE
  5
EF7C87F3A
330
EF7C85532
100
AcDbEntity
  8
JISSEN
100
AcDbPolyline
 90
        6
 70
     1
 43
0.0
 10
298.7500827140162
 20
166.4633476114339
 10
296.7500827140162
 20
162.9992459962961
 10
298.7500827140162
 20
159.5351443811583
 10
302.7500827140162
 20
159.5351443811583
 10
304.7500827140162
 20
162.9992459962961
 10
302.7500827140162
 20
166.4633476114339
  0
LWPOLYLINE
  5
EF7C87F3B
330
EF7C85532
100
AcDbEntity
  8
JISSEN
100
AcDbPolyline
 90
        6
 70
     1
 43
0.0
 10
298.923287794773
 20
166.1633476114339
 10
297.0964928755298
 20
162.9992459962961
 10
298.923287794773
 20
159.8351443811584
 10
302.5768776332593
 20
159.8351443811584
 10
304.4036725525023
 20
162.9992459962961
 10
302.5768776332591
 20
166.1633476114339
  0
ARC
  5
EF7C87F3C
330
EF7C85532
100
AcDbEntity
  8
JISSEN
100
AcDbCircle
 10
300.7500827140162
 20
162.9992459962961
 30
0.0
 40
5.5
100
AcDbArc
 50
240.4954761027037
 51
213.0557311508547
  0
LINE
  5
EF7C87F3D
330
EF7C85532
100
AcDbEntity
  8
JISSEN
100
AcDbLine
 10
303.8804897492867
 20
158.4770173650205
 30
0.0
 11
296.803308878772
 21
153.5780043797588
 31
0.0
  0
LINE
  5
EF7C87F5A
330
EF7C85532
100
AcDbEntity
  8
JISSEN
100
AcDbLine
 10
265.0000827140162
 20
160.2992459962961
 30
0.0
 11
277.0000827140162
 21
160.2992459962961
 31
0.0
  0
LINE
  5
EF7C87F5B
330
EF7C85532
100
AcDbEntity
  8
JISSEN
100
AcDbLine
 10
265.0000827140162
 20
160.2992459962961
 30
0.0
 11
264.4804674717454
 21
159.9992459962961
 31
0.0
  0
LINE
  5
EF7C87F5C
330
EF7C85532
100
AcDbEntity
  8
JISSEN
100
AcDbLine
 10
277.0000827140162
 20
160.2992459962961
 30
0.0
 11
277.519697956287
 21
159.9992459962961
 31
0.0
  0
ARC
  5
EF7C87F5D
330
EF7C85532
100
AcDbEntity
  8
JISSEN
100
AcDbCircle
 10
271.0008672695086
 20
187.5593131938636
 30
0.0
 40
1.6
100
AcDbArc
 50
257.1722657098074
 51
282.8277342901926
  0
TEXT
  5
EF7C8848A
330
EF7C85532
100
AcDbEntity
  8
TEXT
100
AcDbText
 10
105.642856418857
 20
272.5000000743804
 30
0.0
 40
3.0
  1
DU 型ヘッド
  7
K
 72
     4
 11
116.4999992759999
 21
274.0000000743804
 31
0.0
100
AcDbText
  0
LINE
  5
EF7C8848B
330
EF7C85532
100
AcDbEntity
  8
JISSEN
100
AcDbLine
 10
85.83820092931274
 20
184.0133827376628
 30
0.0
 11
85.83820092931274
 21
185.9992459962962
 31
0.0
  0
LINE
  5
EF7C8848C
330
EF7C85532
100
AcDbEntity
  8
JISSEN
100
AcDbLine
 10
93.83820092931278
 20
185.9992459962962
 30
0.0
 11
93.83820092931278
 21
184.0133827376628
 31
0.0
  0
LINE
  5
EF7C88492
330
EF7C85532
100
AcDbEntity
  8
JISSEN
100
AcDbLine
 10
87.33820092931273
 20
180.6133827376628
 30
0.0
 11
88.29756247399563
 21
167.1823211121019
 31
0.0
  0
ARC
  5
EF7C88493
330
EF7C85532
100
AcDbEntity
  8
JISSEN
100
AcDbCircle
 10
95.83820092931285
 20
175.1600042731362
 30
0.0
 40
13.5
100
AcDbArc
 50
137.7945535962691
 51
180.0
  0
LINE
  5
EF7C88494
330
EF7C85532
100
AcDbEntity
  8
JISSEN
100
AcDbLine
 10
87.21320092931284
 20
175.4100042731362
 30
0.0
 11
87.21320092931284
 21
179.9100042731362
 31
0.0
  0
ARC
  5
EF7C88495
330
EF7C85532
100
AcDbEntity
  8
JISSEN
100
AcDbCircle
 10
85.83820092931285
 20
180.6133827376628
 30
0.0
 40
1.5
100
AcDbArc
 50
0.0
 51
75.74996730219652
  0
LINE
  5
EF7C88496
330
EF7C85532
100
AcDbEntity
  8
JISSEN
100
AcDbLine
 10
86.20743169854359
 20
182.0672288915089
 30
0.0
 11
86.09382425774368
 21
183.6198639157734
 31
0.0
  0
ARC
  5
EF7C88497
330
EF7C85532
100
AcDbEntity
  8
JISSEN
100
AcDbCircle
 10
85.60843639118502
 20
183.5843477304154
 30
0.0
 40
0.4866855046380603
100
AcDbArc
 50
4.184916125117465
 51
61.82925977024751
  0
LINE
  5
EF7C88498
330
EF7C85532
100
AcDbEntity
  8
JISSEN
100
AcDbLine
 10
86.14753181205969
 20
182.8858606734554
 30
0.0
 11
84.76746730946421
 21
182.8858606734554
 31
0.0
  0
LINE
  5
EF7C88499
330
EF7C85532
100
AcDbEntity
  8
JISSEN
100
AcDbLine
 10
91.37883938462989
 20
167.1823211121019
 30
0.0
 11
92.33820092931285
 21
180.6133827376628
 31
0.0
  0
LINE
  5
EF7C8849A
330
EF7C85532
100
AcDbEntity
  8
JISSEN
100
AcDbLine
 10
94.90893454916147
 20
182.8858606734554
 30
0.0
 11
93.52887004656588
 21
182.8858606734554
 31
0.0
  0
ARC
  5
EF7C8849B
330
EF7C85532
100
AcDbEntity
  8
JISSEN
100
AcDbCircle
 10
83.83820092931285
 20
175.1600042731362
 30
0.0
 40
13.5
100
AcDbArc
 50
0.0
 51
42.20544640373181
  0
LINE
  5
EF7C8849C
330
EF7C85532
100
AcDbEntity
  8
JISSEN
100
AcDbLine
 10
92.46320092931284
 20
175.4100042731362
 30
0.0
 11
92.46320092931284
 21
179.9100042731362
 31
0.0
  0
LINE
  5
EF7C8849D
330
EF7C85532
100
AcDbEntity
  8
JISSEN
100
AcDbLine
 10
93.58257760088184
 20
183.6198639157734
 30
0.0
 11
93.46897016008199
 21
182.0672288915089
 31
0.0
  0
ARC
  5
EF7C8849E
330
EF7C85532
100
AcDbEntity
  8
JISSEN
100
AcDbCircle
 10
94.06796546744056
 20
183.5843477304154
 30
0.0
 40
0.4866855046380603
100
AcDbArc
 50
118.1707402297524
 51
175.8150838748817
  0
ARC
  5
EF7C8849F
330
EF7C85532
100
AcDbEntity
  8
JISSEN
100
AcDbCircle
 10
93.83820092931278
 20
180.6133827376628
 30
0.0
 40
1.5
100
AcDbArc
 50
104.2500326978035
 51
180.0
  0
LINE
  5
EF7C884A0
330
EF7C85532
100
AcDbEntity
  8
JISSEN
100
AcDbLine
 10
91.83820092931284
 20
166.2600042731362
 30
0.0
 11
91.83820092931284
 21
163.4466670665183
 31
0.0
  0
LINE
  5
EF7C884A1
330
EF7C85532
100
AcDbEntity
  8
JISSEN
100
AcDbLine
 10
87.83820092931284
 20
166.2600042731362
 30
0.0
 11
87.83820092931284
 21
163.4466670665183
 31
0.0
  0
ARC
  5
EF7C884A2
330
EF7C85532
100
AcDbEntity
  8
JISSEN
100
AcDbCircle
 10
95.83820092931285
 20
170.1600042731362
 30
0.0
 40
13.5
100
AcDbArc
 50
180.0
 51
220.9617885523541
  0
ARC
  5
EF7C884A3
330
EF7C85532
100
AcDbEntity
  8
JISSEN
100
AcDbCircle
 10
83.83820092931285
 20
170.1600042731362
 30
0.0
 40
13.5
100
AcDbArc
 50
319.0382114476459
 51
0.0
  0
ARC
  5
EF7C884A4
330
EF7C85532
100
AcDbEntity
  8
JISSEN
100
AcDbCircle
 10
90.00008343801608
 20
152.3116594611285
 30
0.0
 40
9.4
100
AcDbArc
 50
95.85035030116658
 51
106.7747442640951
  0
LINE
  5
EF7C884A5
330
EF7C85532
100
AcDbEntity
  8
JISSEN
100
AcDbLine
 10
84.8817640331481
 20
162.2728951360468
 30
0.0
 11
94.79463782547759
 21
162.2728951360468
 31
0.0
  0
ARC
  5
EF7C884A6
330
EF7C85532
100
AcDbEntity
  8
JISSEN
100
AcDbCircle
 10
90.00008343801608
 20
152.3116594611285
 30
0.0
 40
9.4
100
AcDbArc
 50
73.22525573590489
 51
84.14964969883341
  0
LINE
  5
EF7C884A7
330
EF7C85532
100
AcDbEntity
  8
JISSEN
100
AcDbLine
 10
89.04193638211836
 20
161.6626997358396
 30
0.0
 11
90.95823049391412
 21
161.6626997358398
 31
0.0
  0
ARC
  5
EF7C884A8
330
EF7C85532
100
AcDbEntity
  8
JISSEN
100
AcDbCircle
 10
89.06626825649039
 20
194.3102978726903
 30
0.0
 40
24.90306398982921
100
AcDbArc
 50
265.6711179713888
 51
267.8624138581912
  0
ARC
  5
EF7C884A9
330
EF7C85532
100
AcDbEntity
  8
JISSEN
100
AcDbCircle
 10
87.63820092931291
 20
166.2600042731362
 30
0.0
 40
0.2
100
AcDbArc
 50
0.0
 51
90.0
  0
ARC
  5
EF7C884AA
330
EF7C85532
100
AcDbEntity
  8
JISSEN
100
AcDbCircle
 10
88.40776457692356
 20
170.9983586164433
 30
0.0
 40
3.927849752435348
100
AcDbArc
 50
256.3408948147034
 51
261.4373878185034
  0
ARC
  5
EF7C884AB
330
EF7C85532
100
AcDbEntity
  8
JISSEN
100
AcDbCircle
 10
86.83820092931284
 20
173.9100042731362
 30
0.0
 40
1.5
100
AcDbArc
 50
90.0
 51
180.0
  0
LINE
  5
EF7C884AC
330
EF7C85532
100
AcDbEntity
  8
JISSEN
100
AcDbLine
 10
82.33820092931285
 20
175.1600042731362
 30
0.0
 11
82.33820092931285
 21
170.1600042731362
 31
0.0
  0
LINE
  5
EF7C884AD
330
EF7C85532
100
AcDbEntity
  8
JISSEN
100
AcDbLine
 10
86.0882009293128
 20
175.2090423788128
 30
0.0
 11
86.0882009293128
 21
171.8216053214036
 31
0.0
  0
ARC
  5
EF7C884AE
330
EF7C85532
100
AcDbEntity
  8
JISSEN
100
AcDbCircle
 10
95.83820092931285
 20
170.1600042731362
 30
0.0
 40
10.5
100
AcDbArc
 50
180.0
 51
194.1490045089345
  0
LINE
  5
EF7C884AF
330
EF7C85532
100
AcDbEntity
  8
JISSEN
100
AcDbLine
 10
86.98820092931283
 20
167.8075103434293
 30
0.0
 11
86.98820092931283
 21
169.4952785701261
 31
0.0
  0
LINE
  5
EF7C884B0
330
EF7C85532
100
AcDbEntity
  8
JISSEN
100
AcDbLine
 10
87.11123123760433
 20
166.4600042731362
 30
0.0
 11
87.63820092931281
 21
166.4600042731362
 31
0.0
  0
LINE
  5
EF7C884B1
330
EF7C85532
100
AcDbEntity
  8
JISSEN
100
AcDbLine
 10
86.57624492119373
 20
166.558651483417
 30
0.0
 11
87.33820092931251
 21
166.9985669898151
 31
0.0
  0
ARC
  5
EF7C884B2
330
EF7C85532
100
AcDbEntity
  8
JISSEN
100
AcDbCircle
 10
87.63233199962337
 20
167.8075103434293
 30
0.0
 40
0.6441310703106079
100
AcDbArc
 50
180.0
 51
256.3408948147034
  0
ARC
  5
EF7C884B3
330
EF7C85532
100
AcDbEntity
  8
JISSEN
100
AcDbCircle
 10
89.83820092931251
 20
162.6684399708929
 30
0.0
 40
5.0
100
AcDbArc
 50
116.3208098216079
 51
119.9999999999999
  0
ARC
  5
EF7C884B4
330
EF7C85532
100
AcDbEntity
  8
JISSEN
100
AcDbCircle
 10
87.11123123760433
 20
167.9600042731362
 30
0.0
 40
1.5
100
AcDbArc
 50
194.1490045089345
 51
270.0
  0
LINE
  5
EF7C884B5
330
EF7C85532
100
AcDbEntity
  8
JISSEN
100
AcDbLine
 10
86.0882009293128
 20
170.4893642383715
 30
0.0
 11
86.08820092931285
 21
169.6789999346426
 31
0.0
  0
ARC
  5
EF7C884B6
330
EF7C85532
100
AcDbEntity
  8
JISSEN
100
AcDbCircle
 10
86.15561359022137
 20
169.6789999346426
 30
0.0
 40
0.0674126609086159
100
AcDbArc
 50
180.0000000000122
 51
259.6435073509606
  0
ARC
  5
EF7C884B7
330
EF7C85532
100
AcDbEntity
  8
JISSEN
100
AcDbCircle
 10
87.94147107715104
 20
179.4511591217975
 30
0.0
 40
10.0014139767289
100
AcDbArc
 50
259.643507350964
 51
265.6711179713888
  0
LINE
  5
EF7C884B8
330
EF7C85532
100
AcDbEntity
  8
JISSEN
100
AcDbLine
 10
86.08812577227467
 20
171.8250934393089
 30
0.0
 11
86.08812577227467
 21
171.4963596587393
 31
0.0
  0
LINE
  5
EF7C884B9
330
EF7C85532
100
AcDbEntity
  8
JISSEN
100
AcDbLine
 10
86.08812577227467
 20
170.7919294605257
 30
0.0
 11
86.08812577227467
 21
170.4879127096073
 31
0.0
  0
LINE
  5
EF7C884BA
330
EF7C85532
100
AcDbEntity
  8
JISSEN
100
AcDbLine
 10
86.0882009293128
 20
171.513216089806
 30
0.0
 11
86.0882009293128
 21
170.7959341595818
 31
0.0
  0
LINE
  5
EF7C884BB
330
EF7C85532
100
AcDbEntity
  8
JISSEN
100
AcDbLine
 10
85.33820092931284
 20
173.9100042731362
 30
0.0
 11
85.33820092931284
 21
170.1600042731362
 31
0.0
  0
LINE
  5
EF7C884BC
330
EF7C85532
100
AcDbEntity
  8
JISSEN
100
AcDbLine
 10
86.83820092931284
 20
175.4100042731362
 30
0.0
 11
87.21320092931284
 21
175.4100042731362
 31
0.0
  0
ARC
  5
EF7C884BD
330
EF7C85532
100
AcDbEntity
  8
JISSEN
100
AcDbCircle
 10
87.94147107715094
 20
185.3180736412542
 30
0.0
 40
10.00141397672889
100
AcDbArc
 50
262.6319028082078
 51
265.6711179713888
  0
ARC
  5
EF7C884BE
330
EF7C85532
100
AcDbEntity
  8
JISSEN
100
AcDbCircle
 10
89.0662682564897
 20
200.177212392147
 30
0.0
 40
24.90306398982924
100
AcDbArc
 50
265.671117971392
 51
266.8940593855773
  0
ARC
  5
EF7C884BF
330
EF7C85532
100
AcDbEntity
  8
JISSEN
100
AcDbCircle
 10
87.21320092931284
 20
175.1100042731362
 30
0.0
 40
1.199999999999999
100
AcDbArc
 50
68.57670275211511
 51
90.0
  0
ARC
  5
EF7C884C0
330
EF7C85532
100
AcDbEntity
  8
JISSEN
100
AcDbCircle
 10
89.0662682564888
 20
150.9146165160513
 30
0.0
 40
24.90306398982924
100
AcDbArc
 50
93.18305488819737
 51
94.26739305779667
  0
LINE
  5
EF7C884C1
330
EF7C85532
100
AcDbEntity
  8
JISSEN
100
AcDbLine
 10
97.33820092931285
 20
175.1600042731362
 30
0.0
 11
97.33820092931285
 21
170.1600042731362
 31
0.0
  0
ARC
  5
EF7C884C2
330
EF7C85532
100
AcDbEntity
  8
JISSEN
100
AcDbCircle
 10
92.83820092931284
 20
173.9100042731362
 30
0.0
 40
1.5
100
AcDbArc
 50
0.0
 51
90.0
  0
LINE
  5
EF7C884C3
330
EF7C85532
100
AcDbEntity
  8
JISSEN
100
AcDbLine
 10
93.5882009293128
 20
171.8216053214036
 30
0.0
 11
93.5882009293128
 21
175.209042378813
 31
0.0
  0
LINE
  5
EF7C884C4
330
EF7C85532
100
AcDbEntity
  8
JISSEN
100
AcDbLine
 10
92.68820092931276
 20
169.4952785701261
 30
0.0
 11
92.68820092931276
 21
167.8075103434293
 31
0.0
  0
ARC
  5
EF7C884C5
330
EF7C85532
100
AcDbEntity
  8
JISSEN
100
AcDbCircle
 10
83.83820092931285
 20
170.1600042731362
 30
0.0
 40
10.5
100
AcDbArc
 50
345.8509954910654
 51
0.0
  0
LINE
  5
EF7C884C6
330
EF7C85532
100
AcDbEntity
  8
JISSEN
100
AcDbLine
 10
88.08820092931279
 20
167.1823211121019
 30
0.0
 11
91.58820092931279
 21
167.1823211121019
 31
0.0
  0
LINE
  5
EF7C884C7
330
EF7C85532
100
AcDbEntity
  8
JISSEN
100
AcDbLine
 10
88.08820092931279
 20
166.3991499719378
 30
0.0
 11
91.58820092931279
 21
166.3991499719378
 31
0.0
  0
LINE
  5
EF7C884C8
330
EF7C85532
100
AcDbEntity
  8
JISSEN
100
AcDbLine
 10
91.58820092931279
 20
164.6699506105058
 30
0.0
 11
88.08820092931279
 21
164.6699506105058
 31
0.0
  0
ARC
  5
EF7C884C9
330
EF7C85532
100
AcDbEntity
  8
JISSEN
100
AcDbCircle
 10
89.26211078840333
 20
176.6724995301289
 30
0.0
 40
9.665948963622831
100
AcDbArc
 50
261.4373878185034
 51
263.0243237170121
  0
ARC
  5
EF7C884CA
330
EF7C85532
100
AcDbEntity
  8
JISSEN
100
AcDbCircle
 10
88.1382009293128
 20
165.2424710556726
 30
0.0
 40
0.3
100
AcDbArc
 50
180.0
 51
260.4059317731351
  0
LINE
  5
EF7C884CB
330
EF7C85532
100
AcDbEntity
  8
JISSEN
100
AcDbLine
 10
88.08820092931279
 20
164.6699506105058
 30
0.0
 11
88.08820092931279
 21
167.1823211121019
 31
0.0
  0
LINE
  5
EF7C884CC
330
EF7C85532
100
AcDbEntity
  8
JISSEN
100
AcDbLine
 10
92.56517062102147
 20
166.4600042731362
 30
0.0
 11
92.03820092931289
 21
166.4600042731362
 31
0.0
  0
ARC
  5
EF7C884CD
330
EF7C85532
100
AcDbEntity
  8
JISSEN
100
AcDbCircle
 10
92.03820092931289
 20
166.2600042731362
 30
0.0
 40
0.2
100
AcDbArc
 50
90.0
 51
180.0
  0
ARC
  5
EF7C884CE
330
EF7C85532
100
AcDbEntity
  8
JISSEN
100
AcDbCircle
 10
90.41429107022242
 20
176.6724995301299
 30
0.0
 40
9.665948963623756
100
AcDbArc
 50
276.9756762829846
 51
278.5626121814933
  0
ARC
  5
EF7C884CF
330
EF7C85532
100
AcDbEntity
  8
JISSEN
100
AcDbCircle
 10
91.53820092931288
 20
165.2424710556726
 30
0.0
 40
0.3
100
AcDbArc
 50
279.5940682268383
 51
0.0
  0
ARC
  5
EF7C884D0
330
EF7C85532
100
AcDbEntity
  8
JISSEN
100
AcDbCircle
 10
89.83820092931251
 20
162.6684399708929
 30
0.0
 40
5.0
100
AcDbArc
 50
60.00000000000007
 51
63.67919017839175
  0
ARC
  5
EF7C884D1
330
EF7C85532
100
AcDbEntity
  8
JISSEN
100
AcDbCircle
 10
91.2686372817019
 20
170.9983586164433
 30
0.0
 40
3.927849752435323
100
AcDbArc
 50
278.5626121814966
 51
283.6591051852966
  0
LINE
  5
EF7C884D2
330
EF7C85532
100
AcDbEntity
  8
JISSEN
100
AcDbLine
 10
91.58820092931279
 20
167.1823211121019
 30
0.0
 11
91.58820092931279
 21
164.6699506105058
 31
0.0
  0
ARC
  5
EF7C884D3
330
EF7C85532
100
AcDbEntity
  8
JISSEN
100
AcDbCircle
 10
92.56517062102147
 20
167.9600042731362
 30
0.0
 40
1.5
100
AcDbArc
 50
270.0
 51
345.8509954910654
  0
LINE
  5
EF7C884D4
330
EF7C85532
100
AcDbEntity
  8
JISSEN
100
AcDbLine
 10
93.10015693743151
 20
166.558651483417
 30
0.0
 11
92.33820092931251
 21
166.9985669898151
 31
0.0
  0
ARC
  5
EF7C884D5
330
EF7C85532
100
AcDbEntity
  8
JISSEN
100
AcDbCircle
 10
92.0440698590022
 20
167.8075103434293
 30
0.0
 40
0.6441310703106079
100
AcDbArc
 50
283.6591051852966
 51
0.0
  0
LINE
  5
EF7C884D6
330
EF7C85532
100
AcDbEntity
  8
JISSEN
100
AcDbLine
 10
93.5882009293128
 20
169.6789999346426
 30
0.0
 11
93.5882009293128
 21
170.4893642383715
 31
0.0
  0
ARC
  5
EF7C884D7
330
EF7C85532
100
AcDbEntity
  8
JISSEN
100
AcDbCircle
 10
93.5207882684042
 20
169.6789999346426
 30
0.0
 40
0.0674126609085984
100
AcDbArc
 50
280.3564926490359
 51
0.0
  0
LINE
  5
EF7C884D8
330
EF7C85532
100
AcDbEntity
  8
JISSEN
100
AcDbLine
 10
93.5882009293128
 20
171.8216053214036
 30
0.0
 11
93.5882009293128
 21
171.513216089806
 31
0.0
  0
LINE
  5
EF7C884D9
330
EF7C85532
100
AcDbEntity
  8
JISSEN
100
AcDbLine
 10
93.58820092934115
 20
171.5132160901999
 30
0.0
 11
93.58820092934115
 21
171.5132160896581
 31
0.0
  0
LINE
  5
EF7C884DA
330
EF7C85532
100
AcDbEntity
  8
JISSEN
100
AcDbLine
 10
93.58820092920371
 20
170.4893642605952
 30
0.0
 11
93.58820092920371
 21
170.4893641842603
 31
0.0
  0
LINE
  5
EF7C884DB
330
EF7C85532
100
AcDbEntity
  8
JISSEN
100
AcDbLine
 10
93.5882009293128
 20
170.7959341595818
 30
0.0
 11
93.5882009293128
 21
170.4893642383715
 31
0.0
  0
LINE
  5
EF7C884DC
330
EF7C85532
100
AcDbEntity
  8
JISSEN
100
AcDbLine
 10
93.5882009293128
 20
170.7959341595818
 30
0.0
 11
93.5882009293128
 21
171.513216089806
 31
0.0
  0
LINE
  5
EF7C884DD
330
EF7C85532
100
AcDbEntity
  8
JISSEN
100
AcDbLine
 10
94.33820092931284
 20
173.9100042731362
 30
0.0
 11
94.33820092931284
 21
170.1600042731362
 31
0.0
  0
ARC
  5
EF7C884DE
330
EF7C85532
100
AcDbEntity
  8
JISSEN
100
AcDbCircle
 10
90.61013360213582
 20
194.310297872692
 30
0.0
 40
24.90306398983088
100
AcDbArc
 50
272.1375861418055
 51
274.3288820286079
  0
ARC
  5
EF7C884DF
330
EF7C85532
100
AcDbEntity
  8
JISSEN
100
AcDbCircle
 10
91.73493078147476
 20
179.4511591217958
 30
0.0
 40
10.00141397672717
100
AcDbArc
 50
274.3288820286112
 51
280.356492649036
  0
ARC
  5
EF7C884E0
330
EF7C85532
100
AcDbEntity
  8
JISSEN
100
AcDbCircle
 10
90.61013360213582
 20
200.1772123921487
 30
0.0
 40
24.90306398983089
100
AcDbArc
 50
273.1059406144225
 51
274.3288820286079
  0
ARC
  5
EF7C884E1
330
EF7C85532
100
AcDbEntity
  8
JISSEN
100
AcDbCircle
 10
92.46320092931284
 20
175.1100042731362
 30
0.0
 40
1.199999999999999
100
AcDbArc
 50
90.0
 51
111.4232972478953
  0
ARC
  5
EF7C884E2
330
EF7C85532
100
AcDbEntity
  8
JISSEN
100
AcDbCircle
 10
90.61013360213577
 20
150.9146165160498
 30
0.0
 40
24.90306398983085
100
AcDbArc
 50
85.73260694220003
 51
86.81694511179935
  0
LINE
  5
EF7C884E3
330
EF7C85532
100
AcDbEntity
  8
JISSEN
100
AcDbLine
 10
92.83820092931284
 20
175.4100042731362
 30
0.0
 11
92.46320092931284
 21
175.4100042731362
 31
0.0
  0
ARC
  5
EF7C884E4
330
EF7C85532
100
AcDbEntity
  8
JISSEN
100
AcDbCircle
 10
91.73493078147442
 20
185.3180736412525
 30
0.0
 40
10.00141397672718
100
AcDbArc
 50
274.3288820286112
 51
277.3680971917953
  0
ENDSEC
  0
SECTION
  2
OBJECTS
  0
DICTIONARY
  5
EF7C85527
330
0
100
AcDbDictionary
  3
ACAD_GROUP
350
EF7C85528
  3
ACAD_LAYOUT
350
EF7C85BB7
  3
ACAD_MLINESTYLE
350
EF7C85535
  3
ACAD_PLOTSETTINGS
350
EF7C85BB8
  3
ACAD_PLOTSTYLENAME
350
EF7C85BB5
  3
ACDBHEADERROUNDTRIPXREC
350
EF7C88528
  3
ACDBVARIABLEDICTIONARY
350
EF7C85DB7
  0
DICTIONARY
  5
EF7C85D9A
330
EF7C85532
100
AcDbDictionary
280
     1
  3
ACAD_LAYOUTSELFREF
360
EF7C8854A
  0
DICTIONARY
  5
EF7C85D98
330
EF7C8552F
100
AcDbDictionary
280
     1
  3
ACAD_LAYOUTSELFREF
360
EF7C88549
  0
DICTIONARY
  5
EF7C85528
102
{ACAD_REACTORS
330
EF7C85527
102
}
330
EF7C85527
100
AcDbDictionary
  0
DICTIONARY
  5
EF7C85BB7
102
{ACAD_REACTORS
330
EF7C85527
102
}
330
EF7C85527
100
AcDbDictionary
  0
DICTIONARY
  5
EF7C85535
102
{ACAD_REACTORS
330
EF7C85527
102
}
330
EF7C85527
100
AcDbDictionary
  3
STANDARD
350
EF7C85536
  0
DICTIONARY
  5
EF7C85BB8
102
{ACAD_REACTORS
330
EF7C85527
102
}
330
EF7C85527
100
AcDbDictionary
  0
ACDBDICTIONARYWDFLT
  5
EF7C85BB5
102
{ACAD_REACTORS
330
EF7C85527
102
}
330
EF7C85527
100
AcDbDictionary
281
     1
  3
Normal
350
EF7C85BB6
100
AcDbDictionaryWithDefault
340
EF7C85BB6
  0
DICTIONARY
  5
EF7C88528
102
{ACAD_REACTORS
330
EF7C85527
102
}
330
EF7C85527
100
AcDbDictionary
  3
CEPSNTYPE
350
EF7C88532
  3
DIMSTYLEDATA
350
EF7C88536
  3
FINGERPRINTGUID
350
EF7C88533
  3
HYPERLINKBASE
350
EF7C8852B
  3
INSUNITS
350
EF7C88531
  3
LAYOUTDICT
350
EF7C8852D
  3
LWETCUNION
350
EF7C88530
  3
PLOTSETDICT
350
EF7C8852E
  3
PLOTSTYLNAMDICT
350
EF7C8852F
  3
PSVPSCALE
350
EF7C88535
  3
PUCSBASE
350
EF7C88539
  3
PUCSORGBACK
350
EF7C8853F
  3
PUCSORGBOTTOM
350
EF7C8853B
  3
PUCSORGFRONT
350
EF7C8853E
  3
PUCSORGLEFT
350
EF7C8853C
  3
PUCSORGRIGHT
350
EF7C8853D
  3
PUCSORGTOP
350
EF7C8853A
  3
PUCSORTHOREF
350
EF7C88537
  3
PUCSORTHOVIEW
350
EF7C88538
  3
STYLESHEET
350
EF7C8852C
  3
TSTACKALIGN
350
EF7C88529
  3
TSTACKSIZE
350
EF7C8852A
  3
UCSBASE
350
EF7C88542
  3
UCSORGBACK
350
EF7C88548
  3
UCSORGBOTTOM
350
EF7C88544
  3
UCSORGFRONT
350
EF7C88547
  3
UCSORGLEFT
350
EF7C88545
  3
UCSORGRIGHT
350
EF7C88546
  3
UCSORGTOP
350
EF7C88543
  3
UCSORTHOREF
350
EF7C88540
  3
UCSORTHOVIEW
350
EF7C88541
  3
VERSIONGUID
350
EF7C88534
  0
DICTIONARY
  5
EF7C85DB7
102
{ACAD_REACTORS
330
EF7C85527
102
}
330
EF7C85527
100
AcDbDictionary
  3
DIMASSOC
350
EF7C88526
  3
SORTENTS
350
EF7C85DB8
  0
XRECORD
  5
EF7C8854A
102
{ACAD_REACTORS
330
EF7C85D9A
102
}
330
EF7C85D9A
100
AcDbXrecord
340
EF7C85532
  0
XRECORD
  5
EF7C88549
102
{ACAD_REACTORS
330
EF7C85D98
102
}
330
EF7C85D98
100
AcDbXrecord
340
EF7C8552F
  0
MLINESTYLE
  5
EF7C85536
102
{ACAD_REACTORS
330
EF7C85535
102
}
330
EF7C85535
100
AcDbMlineStyle
  2
STANDARD
 70
     0
  3

 62
   256
 51
90.0
 52
90.0
 71
     2
 49
0.5
 62
   256
  6
BYLAYER
 49
-0.5
 62
   256
  6
BYLAYER
  0
ACDBPLACEHOLDER
  5
EF7C85BB6
102
{ACAD_REACTORS
330
EF7C85BB5
102
}
330
EF7C85BB5
100
AcDbPlaceHolder
280
     0
  0
XRECORD
  5
EF7C88532
102
{ACAD_REACTORS
330
EF7C88528
102
}
330
EF7C88528
100
AcDbXrecord
 90
        0
  0
XRECORD
  5
EF7C88536
102
{ACAD_REACTORS
330
EF7C88528
102
}
330
EF7C88528
100
AcDbXrecord
1000
DSTYLE
1002
{
1070
   279
 70
     2
1070
   341
340
EF7C85537
1070
   342
340
EF7C85537
1070
   343
340
EF7C85543
1070
   344
340
EF7C85543
1002
}
  0
XRECORD
  5
EF7C88533
102
{ACAD_REACTORS
330
EF7C88528
102
}
330
EF7C88528
100
AcDbXrecord
  1
{09AA4C7A-3D6F-4857-A850-771461888CEC}
  0
XRECORD
  5
EF7C8852B
102
{ACAD_REACTORS
330
EF7C88528
102
}
330
EF7C88528
100
AcDbXrecord
  1

  0
XRECORD
  5
EF7C88531
102
{ACAD_REACTORS
330
EF7C88528
102
}
330
EF7C88528
100
AcDbXrecord
 90
        0
  0
XRECORD
  5
EF7C8852D
102
{ACAD_REACTORS
330
EF7C88528
102
}
330
EF7C88528
100
AcDbXrecord
340
EF7C85BB7
  0
XRECORD
  5
EF7C88530
102
{ACAD_REACTORS
330
EF7C88528
102
}
330
EF7C88528
100
AcDbXrecord
 90
    14877
  0
XRECORD
  5
EF7C8852E
102
{ACAD_REACTORS
330
EF7C88528
102
}
330
EF7C88528
100
AcDbXrecord
340
EF7C85BB8
  0
XRECORD
  5
EF7C8852F
102
{ACAD_REACTORS
330
EF7C88528
102
}
330
EF7C88528
100
AcDbXrecord
340
EF7C85BB5
  0
XRECORD
  5
EF7C88535
102
{ACAD_REACTORS
330
EF7C88528
102
}
330
EF7C88528
100
AcDbXrecord
 40
0.0
  0
XRECORD
  5
EF7C88539
102
{ACAD_REACTORS
330
EF7C88528
102
}
330
EF7C88528
100
AcDbXrecord
340
0
  0
XRECORD
  5
EF7C8853F
102
{ACAD_REACTORS
330
EF7C88528
102
}
330
EF7C88528
100
AcDbXrecord
 10
0.0
 20
0.0
 30
0.0
  0
XRECORD
  5
EF7C8853B
102
{ACAD_REACTORS
330
EF7C88528
102
}
330
EF7C88528
100
AcDbXrecord
 10
0.0
 20
0.0
 30
0.0
  0
XRECORD
  5
EF7C8853E
102
{ACAD_REACTORS
330
EF7C88528
102
}
330
EF7C88528
100
AcDbXrecord
 10
0.0
 20
0.0
 30
0.0
  0
XRECORD
  5
EF7C8853C
102
{ACAD_REACTORS
330
EF7C88528
102
}
330
EF7C88528
100
AcDbXrecord
 10
0.0
 20
0.0
 30
0.0
  0
XRECORD
  5
EF7C8853D
102
{ACAD_REACTORS
330
EF7C88528
102
}
330
EF7C88528
100
AcDbXrecord
 10
0.0
 20
0.0
 30
0.0
  0
XRECORD
  5
EF7C8853A
102
{ACAD_REACTORS
330
EF7C88528
102
}
330
EF7C88528
100
AcDbXrecord
 10
0.0
 20
0.0
 30
0.0
  0
XRECORD
  5
EF7C88537
102
{ACAD_REACTORS
330
EF7C88528
102
}
330
EF7C88528
100
AcDbXrecord
340
0
  0
XRECORD
  5
EF7C88538
102
{ACAD_REACTORS
330
EF7C88528
102
}
330
EF7C88528
100
AcDbXrecord
 70
     0
  0
XRECORD
  5
EF7C8852C
102
{ACAD_REACTORS
330
EF7C88528
102
}
330
EF7C88528
100
AcDbXrecord
  1

  0
XRECORD
  5
EF7C88529
102
{ACAD_REACTORS
330
EF7C88528
102
}
330
EF7C88528
100
AcDbXrecord
 90
        1
  0
XRECORD
  5
EF7C8852A
102
{ACAD_REACTORS
330
EF7C88528
102
}
330
EF7C88528
100
AcDbXrecord
 90
       70
  0
XRECORD
  5
EF7C88542
102
{ACAD_REACTORS
330
EF7C88528
102
}
330
EF7C88528
100
AcDbXrecord
340
0
  0
XRECORD
  5
EF7C88548
102
{ACAD_REACTORS
330
EF7C88528
102
}
330
EF7C88528
100
AcDbXrecord
 10
0.0
 20
0.0
 30
0.0
  0
XRECORD
  5
EF7C88544
102
{ACAD_REACTORS
330
EF7C88528
102
}
330
EF7C88528
100
AcDbXrecord
 10
0.0
 20
0.0
 30
0.0
  0
XRECORD
  5
EF7C88547
102
{ACAD_REACTORS
330
EF7C88528
102
}
330
EF7C88528
100
AcDbXrecord
 10
0.0
 20
0.0
 30
0.0
  0
XRECORD
  5
EF7C88545
102
{ACAD_REACTORS
330
EF7C88528
102
}
330
EF7C88528
100
AcDbXrecord
 10
0.0
 20
0.0
 30
0.0
  0
XRECORD
  5
EF7C88546
102
{ACAD_REACTORS
330
EF7C88528
102
}
330
EF7C88528
100
AcDbXrecord
 10
0.0
 20
0.0
 30
0.0
  0
XRECORD
  5
EF7C88543
102
{ACAD_REACTORS
330
EF7C88528
102
}
330
EF7C88528
100
AcDbXrecord
 10
0.0
 20
0.0
 30
0.0
  0
XRECORD
  5
EF7C88540
102
{ACAD_REACTORS
330
EF7C88528
102
}
330
EF7C88528
100
AcDbXrecord
340
0
  0
XRECORD
  5
EF7C88541
102
{ACAD_REACTORS
330
EF7C88528
102
}
330
EF7C88528
100
AcDbXrecord
 70
     0
  0
XRECORD
  5
EF7C88534
102
{ACAD_REACTORS
330
EF7C88528
102
}
330
EF7C88528
100
AcDbXrecord
  1
{747C0664-319A-44B6-BD01-587B40416B8B}
  0
DICTIONARYVAR
  5
EF7C88526
102
{ACAD_REACTORS
330
EF7C85DB7
102
}
330
EF7C85DB7
100
DictionaryVariables
280
     0
  1
0
  0
DICTIONARYVAR
  5
EF7C85DB8
102
{ACAD_REACTORS
330
EF7C85DB7
102
}
330
EF7C85DB7
100
DictionaryVariables
280
     0
  1
96
  0
ENDSEC
  0
EOF
