  0
SECTION
  2
HEADER
  9
$ACADVER
  1
AC1014
  9
$ACADMAINTVER
 70
     9
  9
$DWGCODEPAGE
  3
ANSI_932
  9
$INSBASE
 10
0.0
 20
0.0
 30
0.0
  9
$EXTMIN
 10
0.0
 20
0.0
 30
0.0
  9
$EXTMAX
 10
361.999998552
 20
282.9999999999999
 30
0.0
  9
$LIMMIN
 10
0.0
 20
0.0
  9
$LIMMAX
 10
181.0
 20
283.0
  9
$ORTHOMODE
 70
     1
  9
$REGENMODE
 70
     1
  9
$FILLMODE
 70
     1
  9
$QTEXTMODE
 70
     0
  9
$MIRRTEXT
 70
     0
  9
$DRAGMODE
 70
     2
  9
$LTSCALE
 40
5.0
  9
$OSMODE
 70
   167
  9
$ATTMODE
 70
     1
  9
$TEXTSIZE
 40
3.0
  9
$TRACEWID
 40
0.05
  9
$TEXTSTYLE
  7
BIGFONT
  9
$CLAYER
  8
JISSEN
  9
$CELTYPE
  6
BYLAYER
  9
$CECOLOR
 62
   256
  9
$CELTSCALE
 40
1.0
  9
$DELOBJ
 70
     1
  9
$DISPSILH
 70
     0
  9
$DIMSCALE
 40
1.0
  9
$DIMASZ
 40
1.5
  9
$DIMEXO
 40
1.0
  9
$DIMDLI
 40
6.0
  9
$DIMRND
 40
0.0
  9
$DIMDLE
 40
0.0
  9
$DIMEXE
 40
1.0
  9
$DIMTP
 40
0.0
  9
$DIMTM
 40
0.0
  9
$DIMTXT
 40
3.0
  9
$DIMCEN
 40
1.0
  9
$DIMTSZ
 40
0.0
  9
$DIMTOL
 70
     0
  9
$DIMLIM
 70
     0
  9
$DIMTIH
 70
     0
  9
$DIMTOH
 70
     0
  9
$DIMSE1
 70
     0
  9
$DIMSE2
 70
     0
  9
$DIMTAD
 70
     0
  9
$DIMZIN
 70
     8
  9
$DIMBLK
  1
ARROW
  9
$DIMASO
 70
     0
  9
$DIMSHO
 70
     0
  9
$DIMPOST
  1

  9
$DIMAPOST
  1

  9
$DIMALT
 70
     0
  9
$DIMALTD
 70
     2
  9
$DIMALTF
 40
25.4
  9
$DIMLFAC
 40
1.0
  9
$DIMTOFL
 70
     1
  9
$DIMTVP
 40
0.0
  9
$DIMTIX
 70
     0
  9
$DIMSOXD
 70
     0
  9
$DIMSAH
 70
     0
  9
$DIMBLK1
  1
ARROWANG
  9
$DIMBLK2
  1
ARROWANG
  9
$DIMSTYLE
  2
IMAO
  9
$DIMCLRD
 70
     0
  9
$DIMCLRE
 70
     0
  9
$DIMCLRT
 70
     0
  9
$DIMTFAC
 40
1.0
  9
$DIMGAP
 40
0.09
  9
$DIMJUST
 70
     0
  9
$DIMSD1
 70
     0
  9
$DIMSD2
 70
     0
  9
$DIMTOLJ
 70
     1
  9
$DIMTZIN
 70
     8
  9
$DIMALTZ
 70
     8
  9
$DIMALTTZ
 70
     8
  9
$DIMFIT
 70
     5
  9
$DIMUPT
 70
     0
  9
$DIMUNIT
 70
     2
  9
$DIMDEC
 70
     2
  9
$DIMTDEC
 70
     2
  9
$DIMALTU
 70
     2
  9
$DIMALTTD
 70
     2
  9
$DIMTXSTY
  7
BIGFONT
  9
$DIMAUNIT
 70
     0
  9
$LUNITS
 70
     2
  9
$LUPREC
 70
     2
  9
$SKETCHINC
 40
0.1
  9
$FILLETRAD
 40
0.2
  9
$AUNITS
 70
     0
  9
$AUPREC
 70
     2
  9
$MENU
  1
stdr12j
  9
$ELEVATION
 40
0.0
  9
$PELEVATION
 40
0.0
  9
$THICKNESS
 40
0.0
  9
$LIMCHECK
 70
     0
  9
$BLIPMODE
 70
     0
  9
$CHAMFERA
 40
0.0
  9
$CHAMFERB
 40
0.0
  9
$CHAMFERC
 40
0.0
  9
$CHAMFERD
 40
0.0
  9
$SKPOLY
 70
     0
  9
$TDCREATE
 40
2450617.453041203
  9
$TDUPDATE
 40
2453334.771981342
  9
$TDINDWG
 40
0.1313211574
  9
$TDUSRTIMER
 40
0.1313211574
  9
$USRTIMER
 70
     1
  9
$ANGBASE
 50
0.0
  9
$ANGDIR
 70
     0
  9
$PDMODE
 70
     0
  9
$PDSIZE
 40
0.0
  9
$PLINEWID
 40
0.0
  9
$COORDS
 70
     2
  9
$SPLFRAME
 70
     0
  9
$SPLINETYPE
 70
     6
  9
$SPLINESEGS
 70
     8
  9
$ATTDIA
 70
     0
  9
$ATTREQ
 70
     1
  9
$HANDLING
 70
 22529
  9
$HANDSEED
  5
EF7C8840C
  9
$SURFTAB1
 70
     6
  9
$SURFTAB2
 70
     6
  9
$SURFTYPE
 70
     6
  9
$SURFU
 70
     6
  9
$SURFV
 70
     6
  9
$UCSNAME
  2

  9
$UCSORG
 10
0.0
 20
0.0
 30
0.0
  9
$UCSXDIR
 10
1.0
 20
0.0
 30
0.0
  9
$UCSYDIR
 10
0.0
 20
1.0
 30
0.0
  9
$PUCSNAME
  2

  9
$PUCSORG
 10
0.0
 20
0.0
 30
0.0
  9
$PUCSXDIR
 10
1.0
 20
0.0
 30
0.0
  9
$PUCSYDIR
 10
0.0
 20
1.0
 30
0.0
  9
$USERI1
 70
     0
  9
$USERI2
 70
     1
  9
$USERI3
 70
     1
  9
$USERI4
 70
     3
  9
$USERI5
 70
     0
  9
$USERR1
 40
1.0
  9
$USERR2
 40
3.0
  9
$USERR3
 40
3.0
  9
$USERR4
 40
1.5
  9
$USERR5
 40
8.0
  9
$WORLDVIEW
 70
     1
  9
$SHADEDGE
 70
     3
  9
$SHADEDIF
 70
    70
  9
$TILEMODE
 70
     1
  9
$MAXACTVP
 70
    16
  9
$PINSBASE
 10
0.0
 20
0.0
 30
0.0
  9
$PLIMCHECK
 70
     0
  9
$PEXTMIN
 10
1.000000000000000E+20
 20
1.000000000000000E+20
 30
1.000000000000000E+20
  9
$PEXTMAX
 10
-1.000000000000000E+20
 20
-1.000000000000000E+20
 30
-1.000000000000000E+20
  9
$PLIMMIN
 10
0.0
 20
0.0
  9
$PLIMMAX
 10
12.0
 20
9.0
  9
$UNITMODE
 70
     0
  9
$VISRETAIN
 70
     0
  9
$PLINEGEN
 70
     0
  9
$PSLTSCALE
 70
     0
  9
$TREEDEPTH
 70
  3020
  9
$PICKSTYLE
 70
     1
  9
$CMLSTYLE
  2
STANDARD
  9
$CMLJUST
 70
     0
  9
$CMLSCALE
 40
1.0
  9
$PROXYGRAPHICS
 70
     1
  9
$MEASUREMENT
 70
     0
  0
ENDSEC
  0
SECTION
  2
CLASSES
  0
CLASS
  1
LWPOLYLINE
  2
AcDbPolyline
  3
AutoCAD 2000
 90
        0
280
     0
281
     1
  0
CLASS
  1
HATCH
  2
AcDbHatch
  3
AutoCAD 2000
 90
        0
280
     0
281
     1
  0
CLASS
  1
ACDBDICTIONARYWDFLT
  2
AcDbDictionaryWithDefault
  3
AutoCAD 2000
 90
        0
280
     0
281
     0
  0
CLASS
  1
ACDBPLACEHOLDER
  2
AcDbPlaceHolder
  3
AutoCAD 2000
 90
        0
280
     0
281
     0
  0
CLASS
  1
LAYOUT
  2
AcDbLayout
  3
AutoCAD 2000
 90
        0
280
     0
281
     0
  0
CLASS
  1
LONG_TRANSACTION
  2
AcDbLongTransaction
  3
AutoCAD 2000
 90
        0
280
     0
281
     0
  0
CLASS
  1
LWPOLYLINE
  2
AcDbPolyline
  3
AutoCAD 2000
 90
        0
280
     0
281
     1
  0
CLASS
  1
HATCH
  2
AcDbHatch
  3
AutoCAD 2000
 90
        0
280
     0
281
     1
  0
CLASS
  1
XRECORD
  2
AcDbXrecord
  3
AutoCAD 2000
 90
        0
280
     0
281
     0
  0
CLASS
  1
DICTIONARYVAR
  2
AcDbDictionaryVar
  3
AutoCAD 2000
 90
        0
280
     0
281
     0
  0
CLASS
  1
LONG_TRANSACTION
  2
AcDbLongTransaction
  3
AutoCAD 2000
 90
        0
280
     0
281
     0
  0
CLASS
  1
LWPOLYLINE
  2
AcDbPolyline
  3
AutoCAD 2000
 90
        0
280
     0
281
     1
  0
CLASS
  1
HATCH
  2
AcDbHatch
  3
AutoCAD 2000
 90
        0
280
     0
281
     1
  0
CLASS
  1
XRECORD
  2
AcDbXrecord
  3
AutoCAD 2000
 90
        0
280
     0
281
     0
  0
CLASS
  1
LONG_TRANSACTION
  2
AcDbLongTransaction
  3
AutoCAD 2000
 90
        0
280
     0
281
     0
  0
CLASS
  1
LWPOLYLINE
  2
AcDbPolyline
  3
AutoCAD 2000
 90
        0
280
     0
281
     1
  0
CLASS
  1
HATCH
  2
AcDbHatch
  3
AutoCAD 2000
 90
        0
280
     0
281
     1
  0
CLASS
  1
XRECORD
  2
AcDbXrecord
  3
AutoCAD 2000
 90
        0
280
     0
281
     0
  0
CLASS
  1
LONG_TRANSACTION
  2
AcDbLongTransaction
  3
AutoCAD 2000
 90
        0
280
     0
281
     0
  0
CLASS
  1
LWPOLYLINE
  2
AcDbPolyline
  3
AutoCAD 2000
 90
        0
280
     0
281
     1
  0
CLASS
  1
HATCH
  2
AcDbHatch
  3
AutoCAD 2000
 90
        0
280
     0
281
     1
  0
CLASS
  1
XRECORD
  2
AcDbXrecord
  3
AutoCAD 2000
 90
        0
280
     0
281
     0
  0
CLASS
  1
LONG_TRANSACTION
  2
AcDbLongTransaction
  3
AutoCAD 2000
 90
        0
280
     0
281
     0
  0
CLASS
  1
LWPOLYLINE
  2
AcDbPolyline
  3
AutoCAD 2000
 90
        0
280
     0
281
     1
  0
CLASS
  1
HATCH
  2
AcDbHatch
  3
AutoCAD 2000
 90
        0
280
     0
281
     1
  0
CLASS
  1
XRECORD
  2
AcDbXrecord
  3
AutoCAD 2000
 90
        0
280
     0
281
     0
  0
CLASS
  1
LONG_TRANSACTION
  2
AcDbLongTransaction
  3
AutoCAD 2000
 90
        0
280
     0
281
     0
  0
CLASS
  1
LWPOLYLINE
  2
AcDbPolyline
  3
AutoCAD 2000
 90
        0
280
     0
281
     1
  0
CLASS
  1
HATCH
  2
AcDbHatch
  3
AutoCAD 2000
 90
        0
280
     0
281
     1
  0
CLASS
  1
XRECORD
  2
AcDbXrecord
  3
AutoCAD 2000
 90
        0
280
     0
281
     0
  0
CLASS
  1
LONG_TRANSACTION
  2
AcDbLongTransaction
  3
AutoCAD 2000
 90
        0
280
     0
281
     0
  0
CLASS
  1
LWPOLYLINE
  2
AcDbPolyline
  3
AutoCAD 2000
 90
        0
280
     0
281
     1
  0
CLASS
  1
HATCH
  2
AcDbHatch
  3
AutoCAD 2000
 90
        0
280
     0
281
     1
  0
CLASS
  1
XRECORD
  2
AcDbXrecord
  3
AutoCAD 2000
 90
        0
280
     0
281
     0
  0
CLASS
  1
LONG_TRANSACTION
  2
AcDbLongTransaction
  3
AutoCAD 2000
 90
        0
280
     0
281
     0
  0
CLASS
  1
LWPOLYLINE
  2
AcDbPolyline
  3
AutoCAD 2000
 90
        0
280
     0
281
     1
  0
CLASS
  1
HATCH
  2
AcDbHatch
  3
AutoCAD 2000
 90
        0
280
     0
281
     1
  0
CLASS
  1
XRECORD
  2
AcDbXrecord
  3
AutoCAD 2000
 90
        0
280
     0
281
     0
  0
CLASS
  1
LONG_TRANSACTION
  2
AcDbLongTransaction
  3
AutoCAD 2000
 90
        0
280
     0
281
     0
  0
CLASS
  1
LWPOLYLINE
  2
AcDbPolyline
  3
AutoCAD 2000
 90
        0
280
     0
281
     1
  0
CLASS
  1
HATCH
  2
AcDbHatch
  3
AutoCAD 2000
 90
        0
280
     0
281
     1
  0
CLASS
  1
XRECORD
  2
AcDbXrecord
  3
AutoCAD 2000
 90
        0
280
     0
281
     0
  0
CLASS
  1
LONG_TRANSACTION
  2
AcDbLongTransaction
  3
AutoCAD 2000
 90
        0
280
     0
281
     0
  0
CLASS
  1
LWPOLYLINE
  2
AcDbPolyline
  3
AutoCAD 2000
 90
        0
280
     0
281
     1
  0
CLASS
  1
HATCH
  2
AcDbHatch
  3
AutoCAD 2000
 90
        0
280
     0
281
     1
  0
CLASS
  1
XRECORD
  2
AcDbXrecord
  3
AutoCAD 2000
 90
        0
280
     0
281
     0
  0
CLASS
  1
LONG_TRANSACTION
  2
AcDbLongTransaction
  3
AutoCAD 2000
 90
        0
280
     0
281
     0
  0
CLASS
  1
LWPOLYLINE
  2
AcDbPolyline
  3
AutoCAD 2000
 90
        0
280
     0
281
     1
  0
CLASS
  1
HATCH
  2
AcDbHatch
  3
AutoCAD 2000
 90
        0
280
     0
281
     1
  0
CLASS
  1
XRECORD
  2
AcDbXrecord
  3
AutoCAD 2000
 90
        0
280
     0
281
     0
  0
CLASS
  1
LONG_TRANSACTION
  2
AcDbLongTransaction
  3
AutoCAD 2000
 90
        0
280
     0
281
     0
  0
CLASS
  1
LWPOLYLINE
  2
AcDbPolyline
  3
AutoCAD 2000
 90
        0
280
     0
281
     1
  0
CLASS
  1
HATCH
  2
AcDbHatch
  3
AutoCAD 2000
 90
        0
280
     0
281
     1
  0
CLASS
  1
XRECORD
  2
AcDbXrecord
  3
AutoCAD 2000
 90
        0
280
     0
281
     0
  0
CLASS
  1
LONG_TRANSACTION
  2
AcDbLongTransaction
  3
AutoCAD 2000
 90
        0
280
     0
281
     0
  0
CLASS
  1
LWPOLYLINE
  2
AcDbPolyline
  3
AutoCAD 2000
 90
        0
280
     0
281
     1
  0
CLASS
  1
HATCH
  2
AcDbHatch
  3
AutoCAD 2000
 90
        0
280
     0
281
     1
  0
CLASS
  1
XRECORD
  2
AcDbXrecord
  3
AutoCAD 2000
 90
        0
280
     0
281
     0
  0
CLASS
  1
LONG_TRANSACTION
  2
AcDbLongTransaction
  3
AutoCAD 2000
 90
        0
280
     0
281
     0
  0
CLASS
  1
LWPOLYLINE
  2
AcDbPolyline
  3
AutoCAD 2000
 90
        0
280
     0
281
     1
  0
CLASS
  1
HATCH
  2
AcDbHatch
  3
AutoCAD 2000
 90
        0
280
     0
281
     1
  0
CLASS
  1
XRECORD
  2
AcDbXrecord
  3
AutoCAD 2000
 90
        0
280
     0
281
     0
  0
CLASS
  1
LONG_TRANSACTION
  2
AcDbLongTransaction
  3
AutoCAD 2000
 90
        0
280
     0
281
     0
  0
CLASS
  1
LWPOLYLINE
  2
AcDbPolyline
  3
AutoCAD 2000
 90
        0
280
     0
281
     1
  0
CLASS
  1
HATCH
  2
AcDbHatch
  3
AutoCAD 2000
 90
        0
280
     0
281
     1
  0
CLASS
  1
XRECORD
  2
AcDbXrecord
  3
AutoCAD 2000
 90
        0
280
     0
281
     0
  0
ENDSEC
  0
SECTION
  2
TABLES
  0
TABLE
  2
VPORT
  5
EF7C85523
330
0
100
AcDbSymbolTable
 70
    11
  0
VPORT
  5
EF7C85567
330
EF7C85523
100
AcDbSymbolTableRecord
100
AcDbViewportTableRecord
  2
2
 70
     0
 10
0.5
 20
0.0
 11
1.0
 21
1.0
 12
0.9240312421264802
 22
1.052650975462766
 13
0.0
 23
0.0
 14
1.0
 24
1.0
 15
10.0
 25
10.0
 16
0.0
 26
0.0
 36
1.0
 17
0.0
 27
0.0
 37
0.0
 40
2.105301950925533
 41
0.8778135048231511
 42
50.0
 43
0.0
 44
0.0
 50
0.0
 51
0.0
 71
     0
 72
   500
 73
     1
 74
     1
 75
     0
 76
     0
 77
     0
 78
     0
  0
VPORT
  5
EF7C85568
330
EF7C85523
100
AcDbSymbolTableRecord
100
AcDbViewportTableRecord
  2
2
 70
     0
 10
0.0
 20
0.0
 11
0.5
 21
1.0
 12
0.9240312421264802
 22
1.052650975462766
 13
0.0
 23
0.0
 14
1.0
 24
1.0
 15
10.0
 25
10.0
 16
0.0
 26
0.0
 36
1.0
 17
0.0
 27
0.0
 37
0.0
 40
2.105301950925533
 41
0.8778135048231511
 42
50.0
 43
0.0
 44
0.0
 50
0.0
 51
0.0
 71
     0
 72
   500
 73
     1
 74
     1
 75
     0
 76
     0
 77
     0
 78
     0
  0
VPORT
  5
EF7C85569
330
EF7C85523
100
AcDbSymbolTableRecord
100
AcDbViewportTableRecord
  2
3
 70
     0
 10
0.0
 20
0.5
 11
1.0
 21
1.0
 12
2.832169994473273
 22
1.052650975462766
 13
0.0
 23
0.0
 14
1.0
 24
1.0
 15
10.0
 25
10.0
 16
0.0
 26
0.0
 36
1.0
 17
0.0
 27
0.0
 37
0.0
 40
2.105301950925533
 41
3.571428571428571
 42
50.0
 43
0.0
 44
0.0
 50
0.0
 51
0.0
 71
     0
 72
   500
 73
     1
 74
     1
 75
     0
 76
     0
 77
     0
 78
     0
  0
VPORT
  5
EF7C8556A
330
EF7C85523
100
AcDbSymbolTableRecord
100
AcDbViewportTableRecord
  2
3
 70
     0
 10
0.0
 20
0.0
 11
1.0
 21
0.5
 12
2.856741679241311
 22
1.052650975462766
 13
0.0
 23
0.0
 14
1.0
 24
1.0
 15
10.0
 25
10.0
 16
0.0
 26
0.0
 36
1.0
 17
0.0
 27
0.0
 37
0.0
 40
2.105301950925533
 41
3.594771241830065
 42
50.0
 43
0.0
 44
0.0
 50
0.0
 51
0.0
 71
     0
 72
   500
 73
     1
 74
     1
 75
     0
 76
     0
 77
     0
 78
     0
  0
VPORT
  5
EF7C8556B
330
EF7C85523
100
AcDbSymbolTableRecord
100
AcDbViewportTableRecord
  2
4
 70
     0
 10
0.5
 20
0.0
 11
1.0
 21
0.5
 12
2.886857516709719
 22
1.052650975462766
 13
0.0
 23
0.0
 14
1.0
 24
1.0
 15
10.0
 25
10.0
 16
0.0
 26
0.0
 36
1.0
 17
0.0
 27
0.0
 37
0.0
 40
4.27520703030907
 41
1.784313725490195
 42
50.0
 43
0.0
 44
0.0
 50
0.0
 51
0.0
 71
     0
 72
   500
 73
     1
 74
     1
 75
     0
 76
     0
 77
     0
 78
     0
  0
VPORT
  5
EF7C8556C
330
EF7C85523
100
AcDbSymbolTableRecord
100
AcDbViewportTableRecord
  2
4
 70
     0
 10
0.5
 20
0.5
 11
1.0
 21
1.0
 12
2.862090274555523
 22
1.052650975462766
 13
0.0
 23
0.0
 14
1.0
 24
1.0
 15
10.0
 25
10.0
 16
0.0
 26
0.0
 36
1.0
 17
0.0
 27
0.0
 37
0.0
 40
4.27520703030907
 41
1.772727272727272
 42
50.0
 43
0.0
 44
0.0
 50
0.0
 51
0.0
 71
     0
 72
   500
 73
     1
 74
     1
 75
     0
 76
     0
 77
     0
 78
     0
  0
VPORT
  5
EF7C8556D
330
EF7C85523
100
AcDbSymbolTableRecord
100
AcDbViewportTableRecord
  2
4
 70
     0
 10
0.0
 20
0.5
 11
0.5
 21
1.0
 12
2.862090274555523
 22
1.052650975462766
 13
0.0
 23
0.0
 14
1.0
 24
1.0
 15
10.0
 25
10.0
 16
0.0
 26
0.0
 36
1.0
 17
0.0
 27
0.0
 37
0.0
 40
4.27520703030907
 41
1.772727272727272
 42
50.0
 43
0.0
 44
0.0
 50
0.0
 51
0.0
 71
     0
 72
   500
 73
     1
 74
     1
 75
     0
 76
     0
 77
     0
 78
     0
  0
VPORT
  5
EF7C8556E
330
EF7C85523
100
AcDbSymbolTableRecord
100
AcDbViewportTableRecord
  2
4
 70
     0
 10
0.0
 20
0.0
 11
0.5
 21
0.5
 12
2.886857516709719
 22
1.052650975462766
 13
0.0
 23
0.0
 14
1.0
 24
1.0
 15
10.0
 25
10.0
 16
0.0
 26
0.0
 36
1.0
 17
0.0
 27
0.0
 37
0.0
 40
4.27520703030907
 41
1.784313725490195
 42
50.0
 43
0.0
 44
0.0
 50
0.0
 51
0.0
 71
     0
 72
   500
 73
     1
 74
     1
 75
     0
 76
     0
 77
     0
 78
     0
  0
VPORT
  5
EF7C883E8
330
EF7C85523
100
AcDbSymbolTableRecord
100
AcDbViewportTableRecord
  2
*ACTIVE
 70
     0
 10
0.0
 20
0.0
 11
1.0
 21
1.0
 12
262.8462190729081
 22
141.5028203951366
 13
0.0
 23
0.0
 14
1.0
 24
1.0
 15
10.0
 25
10.0
 16
0.0
 26
0.0
 36
1.0
 17
0.0
 27
0.0
 37
0.0
 40
286.2727286106247
 41
1.771962616822429
 42
50.0
 43
0.0
 44
0.0
 50
0.0
 51
0.0
 71
     0
 72
   500
 73
     1
 74
     0
 75
     0
 76
     0
 77
     0
 78
     0
  0
ENDTAB
  0
TABLE
  2
LTYPE
  5
EF7C85520
330
0
100
AcDbSymbolTable
 70
     4
  0
LTYPE
  5
EF7C8552C
330
EF7C85520
100
AcDbSymbolTableRecord
100
AcDbLinetypeTableRecord
  2
BYBLOCK
 70
     0
  3

 72
    65
 73
     0
 40
0.0
  0
LTYPE
  5
EF7C8552D
330
EF7C85520
100
AcDbSymbolTableRecord
100
AcDbLinetypeTableRecord
  2
BYLAYER
 70
     0
  3

 72
    65
 73
     0
 40
0.0
  0
LTYPE
  5
EF7C8552E
330
EF7C85520
100
AcDbSymbolTableRecord
100
AcDbLinetypeTableRecord
  2
CONTINUOUS
 70
     0
  3
実線
 72
    65
 73
     0
 40
0.0
  0
LTYPE
  5
EF7C85565
330
EF7C85520
100
AcDbSymbolTableRecord
100
AcDbLinetypeTableRecord
  2
PHANTOM
 70
     0
  3
_____ _ _ _____ _ _ _____ _ _ _____ _ _ ____
 72
    65
 73
     6
 40
2.5
 49
1.25
 74
     0
 49
-0.25
 74
     0
 49
0.25
 74
     0
 49
-0.25
 74
     0
 49
0.25
 74
     0
 49
-0.25
 74
     0
  0
LTYPE
  5
EF7C8711F
330
EF7C85520
100
AcDbSymbolTableRecord
100
AcDbLinetypeTableRecord
  2
CENTER
 70
     0
  3
____ _ ____ _ ____ _ ____ _ ____ _ ____ _ ____
 72
    65
 73
     4
 40
2.0
 49
1.25
 74
     0
 49
-0.25
 74
     0
 49
0.25
 74
     0
 49
-0.25
 74
     0
  0
LTYPE
  5
EF7C8805A
330
EF7C85520
100
AcDbSymbolTableRecord
100
AcDbLinetypeTableRecord
  2
HIDDEN
 70
     0
  3
_ _ _ _ _ _ _ _ _ _ _ _ _ _ _ _ _ _ _ _ _ _ _
 72
    65
 73
     2
 40
0.375
 49
0.25
 74
     0
 49
-0.125
 74
     0
  0
ENDTAB
  0
TABLE
  2
LAYER
  5
EF7C8551D
330
0
100
AcDbSymbolTable
 70
    10
  0
LAYER
  5
EF7C85529
330
EF7C8551D
100
AcDbSymbolTableRecord
100
AcDbLayerTableRecord
  2
0
 70
     0
 62
     6
  6
CONTINUOUS
  0
LAYER
  5
EF7C85574
330
EF7C8551D
100
AcDbSymbolTableRecord
100
AcDbLayerTableRecord
  2
NITEN
 70
     0
 62
     2
  6
PHANTOM
  0
LAYER
  5
EF7C85575
330
EF7C8551D
100
AcDbSymbolTableRecord
100
AcDbLayerTableRecord
  2
HATCH
 70
     0
 62
     4
  6
CONTINUOUS
  0
LAYER
  5
EF7C85576
330
EF7C8551D
100
AcDbSymbolTableRecord
100
AcDbLayerTableRecord
  2
SUNPOU
 70
     0
 62
     3
  6
CONTINUOUS
  0
LAYER
  5
EF7C85577
330
EF7C8551D
100
AcDbSymbolTableRecord
100
AcDbLayerTableRecord
  2
TEXT
 70
     0
 62
     3
  6
CONTINUOUS
  0
LAYER
  5
EF7C85578
330
EF7C8551D
100
AcDbSymbolTableRecord
100
AcDbLayerTableRecord
  2
SAISEN
 70
     0
 62
     4
  6
CONTINUOUS
  0
LAYER
  5
EF7C85579
330
EF7C8551D
100
AcDbSymbolTableRecord
100
AcDbLayerTableRecord
  2
JISSEN
 70
     0
 62
     7
  6
CONTINUOUS
  0
LAYER
  5
EF7C8557D
330
EF7C8551D
100
AcDbSymbolTableRecord
100
AcDbLayerTableRecord
  2
WAKU
 70
     0
 62
     5
  6
CONTINUOUS
  0
LAYER
  5
EF7C87120
330
EF7C8551D
100
AcDbSymbolTableRecord
100
AcDbLayerTableRecord
  2
ITTEN
 70
     0
 62
     1
  6
CENTER
  0
LAYER
  5
EF7C8805B
330
EF7C8551D
100
AcDbSymbolTableRecord
100
AcDbLayerTableRecord
  2
TENSEN
 70
     0
 62
     2
  6
HIDDEN
  0
ENDTAB
  0
TABLE
  2
STYLE
  5
EF7C8551E
330
0
100
AcDbSymbolTable
 70
     3
  0
STYLE
  5
EF7C8552A
330
EF7C8551E
100
AcDbSymbolTableRecord
100
AcDbTextStyleTableRecord
  2
STANDARD
 70
     0
 40
0.0
 41
1.0
 50
0.0
 71
     0
 42
1.5
  3
SIMPLEX
  4

  0
STYLE
  5
EF7C85558
330
EF7C8551E
100
AcDbSymbolTableRecord
100
AcDbTextStyleTableRecord
  2
K
 70
     0
 40
0.0
 41
1.0
 50
0.0
 71
     0
 42
3.0
  3
ROMANS
  4
BIGFONT
  0
STYLE
  5
EF7C8555B
330
EF7C8551E
100
AcDbSymbolTableRecord
100
AcDbTextStyleTableRecord
  2
BIGFONT
 70
     0
 40
0.0
 41
1.0
 50
0.0
 71
     0
 42
3.0
  3
txt.shx
  4
bigfont
  0
ENDTAB
  0
TABLE
  2
VIEW
  5
EF7C85521
330
0
100
AcDbSymbolTable
 70
     0
  0
ENDTAB
  0
TABLE
  2
UCS
  5
EF7C85522
330
0
100
AcDbSymbolTable
 70
     0
  0
ENDTAB
  0
TABLE
  2
APPID
  5
EF7C85524
330
0
100
AcDbSymbolTable
 70
     1
  0
APPID
  5
EF7C8552B
330
EF7C85524
100
AcDbSymbolTableRecord
100
AcDbRegAppTableRecord
  2
ACAD
 70
     0
  0
ENDTAB
  0
TABLE
  2
DIMSTYLE
  5
EF7C85525
330
0
100
AcDbSymbolTable
 70
     1
  0
DIMSTYLE
105
EF7C85571
330
EF7C85525
100
AcDbSymbolTableRecord
100
AcDbDimStyleTableRecord
  2
IMAO
 70
     0
  3

  4

  5
ARROWANG
  6
ARROWANG
  7
ARROWANG
 40
1.0
 41
1.5
 42
1.0
 43
6.0
 44
1.0
 45
0.0
 46
0.0
 47
495.0
 48
0.0
140
3.0
141
0.0
142
0.0
143
25.4
144
1.0
145
0.0
146
1.0
147
0.09
 71
     0
 72
     0
 73
     0
 74
     0
 75
     0
 76
     0
 77
     1
 78
     8
170
     0
171
     2
172
     1
173
     0
174
     1
175
     0
176
     0
177
     0
178
     0
270
     2
271
     2
272
     2
273
     2
274
     2
340
EF7C8555B
275
     0
280
     0
281
     0
282
     0
283
     1
284
     8
285
     8
286
     8
287
     5
288
     0
  0
ENDTAB
  0
TABLE
  2
BLOCK_RECORD
  5
EF7C8551C
330
0
100
AcDbSymbolTable
 70
    10
  0
BLOCK_RECORD
  5
EF7C85532
102
{ACAD_XDICTIONARY
360
EF7C85D9A
102
}
330
EF7C8551C
100
AcDbSymbolTableRecord
100
AcDbBlockTableRecord
  2
*MODEL_SPACE
  0
BLOCK_RECORD
  5
EF7C8552F
102
{ACAD_XDICTIONARY
360
EF7C85D98
102
}
330
EF7C8551C
100
AcDbSymbolTableRecord
100
AcDbBlockTableRecord
  2
*PAPER_SPACE
  0
BLOCK_RECORD
  5
EF7C85537
330
EF7C8551C
100
AcDbSymbolTableRecord
100
AcDbBlockTableRecord
  2
ARROW
  0
BLOCK_RECORD
  5
EF7C8553B
330
EF7C8551C
100
AcDbSymbolTableRecord
100
AcDbBlockTableRecord
  2
WAKU
  0
BLOCK_RECORD
  5
EF7C8553D
330
EF7C8551C
100
AcDbSymbolTableRecord
100
AcDbBlockTableRecord
  2
*X2
  0
BLOCK_RECORD
  5
EF7C8553E
330
EF7C8551C
100
AcDbSymbolTableRecord
100
AcDbBlockTableRecord
  2
STDGX5
  0
BLOCK_RECORD
  5
EF7C8553F
330
EF7C8551C
100
AcDbSymbolTableRecord
100
AcDbBlockTableRecord
  2
*X4
  0
BLOCK_RECORD
  5
EF7C85540
330
EF7C8551C
100
AcDbSymbolTableRecord
100
AcDbBlockTableRecord
  2
*X5
  0
BLOCK_RECORD
  5
EF7C85541
330
EF7C8551C
100
AcDbSymbolTableRecord
100
AcDbBlockTableRecord
  2
*X6
  0
BLOCK_RECORD
  5
EF7C85542
330
EF7C8551C
100
AcDbSymbolTableRecord
100
AcDbBlockTableRecord
  2
*X7
  0
BLOCK_RECORD
  5
EF7C85543
330
EF7C8551C
100
AcDbSymbolTableRecord
100
AcDbBlockTableRecord
  2
ARROWANG
  0
BLOCK_RECORD
  5
EF7C85544
330
EF7C8551C
100
AcDbSymbolTableRecord
100
AcDbBlockTableRecord
  2
STDR12J
  0
ENDTAB
  0
ENDSEC
  0
SECTION
  2
BLOCKS
  0
BLOCK
  5
EF7C85580
330
EF7C85532
100
AcDbEntity
  8
0
100
AcDbBlockBegin
  2
*MODEL_SPACE
 70
     0
 10
0.0
 20
0.0
 30
0.0
  3
*MODEL_SPACE
  1

  0
ENDBLK
  5
EF7C85581
330
EF7C85532
100
AcDbEntity
  8
0
100
AcDbBlockEnd
  0
BLOCK
  5
EF7C8557E
330
EF7C8552F
100
AcDbEntity
 67
     1
  8
0
100
AcDbBlockBegin
  2
*PAPER_SPACE
 70
     0
 10
0.0
 20
0.0
 30
0.0
  3
*PAPER_SPACE
  1

  0
ENDBLK
  5
EF7C8557F
330
EF7C8552F
100
AcDbEntity
 67
     1
  8
0
100
AcDbBlockEnd
  0
BLOCK
  5
499
330
EF7C85537
100
AcDbEntity
  8
0
100
AcDbBlockBegin
  2
ARROW
 70
     0
 10
1.0
 20
0.5
 30
0.0
  3
ARROW
  1

  0
LINE
  5
49A
330
EF7C85537
100
AcDbEntity
  8
0
100
AcDbLine
 10
1.0
 20
0.5
 30
0.0
 11
-0.5000000000000214
 21
0.0980762113533018
 31
0.0
  0
LINE
  5
49B
330
EF7C85537
100
AcDbEntity
  8
0
100
AcDbLine
 10
0.0
 20
0.5
 30
0.0
 11
1.0
 21
0.5
 31
0.0
  0
LINE
  5
49C
330
EF7C85537
100
AcDbEntity
  8
0
100
AcDbLine
 10
1.0
 20
0.5
 30
0.0
 11
-0.4999999999999574
 21
0.9019237886467408
 31
0.0
  0
ENDBLK
  5
49D
330
EF7C85537
100
AcDbEntity
  8
0
100
AcDbBlockEnd
  0
BLOCK
  5
4A7
330
EF7C8553B
100
AcDbEntity
  8
0
100
AcDbBlockBegin
  2
WAKU
 70
     0
 10
0.0
 20
0.0
 30
0.0
  3
WAKU
  1

  0
LINE
  5
4A8
330
EF7C8553B
100
AcDbEntity
  8
WAKU
100
AcDbLine
 10
0.999999996
 20
0.0
 30
0.0
 11
0.999999996
 21
0.9999999999999998
 31
0.0
  0
LINE
  5
4A9
330
EF7C8553B
100
AcDbEntity
  8
WAKU
100
AcDbLine
 10
0.0
 20
0.9999999999999998
 30
0.0
 11
0.999999996
 21
0.9999999999999998
 31
0.0
  0
LINE
  5
4AA
330
EF7C8553B
100
AcDbEntity
  8
WAKU
100
AcDbLine
 10
0.999999996
 20
0.0
 30
0.0
 11
0.0
 21
0.0
 31
0.0
  0
LINE
  5
4AB
330
EF7C8553B
100
AcDbEntity
  8
WAKU
100
AcDbLine
 10
0.0
 20
0.0
 30
0.0
 11
0.0
 21
0.9999999999999998
 31
0.0
  0
ENDBLK
  5
4AC
330
EF7C8553B
100
AcDbEntity
  8
0
100
AcDbBlockEnd
  0
BLOCK
  5
2764
330
EF7C8553D
100
AcDbEntity
  8
0
100
AcDbBlockBegin
  2
*X2
 70
     1
 10
0.0
 20
0.0
 30
0.0
  3
*X2
  1

  0
ENDBLK
  5
2765
330
EF7C8553D
100
AcDbEntity
  8
0
100
AcDbBlockEnd
  0
BLOCK
  5
2766
330
EF7C8553E
100
AcDbEntity
  8
0
100
AcDbBlockBegin
  2
STDGX5
 70
     0
 10
0.0
 20
0.0
 30
0.0
  3
STDGX5
  1

  0
ENDBLK
  5
2767
330
EF7C8553E
100
AcDbEntity
  8
0
100
AcDbBlockEnd
  0
BLOCK
  5
2F5A
330
EF7C8553F
100
AcDbEntity
  8
0
100
AcDbBlockBegin
  2
*X4
 70
     1
 10
0.0
 20
0.0
 30
0.0
  3
*X4
  1

  0
ENDBLK
  5
2F5B
330
EF7C8553F
100
AcDbEntity
  8
0
100
AcDbBlockEnd
  0
BLOCK
  5
32BB
330
EF7C85540
100
AcDbEntity
  8
0
100
AcDbBlockBegin
  2
*X5
 70
     1
 10
0.0
 20
0.0
 30
0.0
  3
*X5
  1

  0
ENDBLK
  5
32BC
330
EF7C85540
100
AcDbEntity
  8
0
100
AcDbBlockEnd
  0
BLOCK
  5
372F
330
EF7C85541
100
AcDbEntity
  8
0
100
AcDbBlockBegin
  2
*X6
 70
     1
 10
0.0
 20
0.0
 30
0.0
  3
*X6
  1

  0
ENDBLK
  5
3730
330
EF7C85541
100
AcDbEntity
  8
0
100
AcDbBlockEnd
  0
BLOCK
  5
3A6D
330
EF7C85542
100
AcDbEntity
  8
0
100
AcDbBlockBegin
  2
*X7
 70
     1
 10
0.0
 20
0.0
 30
0.0
  3
*X7
  1

  0
ENDBLK
  5
3A6E
330
EF7C85542
100
AcDbEntity
  8
0
100
AcDbBlockEnd
  0
BLOCK
  5
4CC9
330
EF7C85543
100
AcDbEntity
  8
0
100
AcDbBlockBegin
  2
ARROWANG
 70
     0
 10
0.0
 20
0.0
 30
0.0
  3
ARROWANG
  1

  0
LINE
  5
4CCA
330
EF7C85543
100
AcDbEntity
  8
SUNPOU
100
AcDbLine
 10
0.0
 20
0.0
 30
0.0
 11
-1.499999999999957
 21
0.4019237886467409
 31
0.0
  0
LINE
  5
4CCB
330
EF7C85543
100
AcDbEntity
  8
SUNPOU
100
AcDbLine
 10
0.0
 20
0.0
 30
0.0
 11
-1.500000000000028
 21
-0.4019237886467124
 31
0.0
  0
ENDBLK
  5
4CCC
330
EF7C85543
100
AcDbEntity
  8
0
100
AcDbBlockEnd
  0
BLOCK
  5
4CCD
330
EF7C85544
100
AcDbEntity
  8
0
100
AcDbBlockBegin
  2
STDR12J
 70
     0
 10
0.0
 20
0.0
 30
0.0
  3
STDR12J
  1

  0
ENDBLK
  5
4CF2
330
EF7C85544
100
AcDbEntity
  8
0
100
AcDbBlockEnd
  0
ENDSEC
  0
SECTION
  2
ENTITIES
  0
TEXT
  5
1
330
EF7C85532
100
AcDbEntity
  8
SUNPOU
100
AcDbText
 10
95.05869565217389
 20
43.7966872748706
 30
0.0
 40
1.5
  1
                          
100
AcDbText
  0
TEXT
  5
2
330
EF7C85532
100
AcDbEntity
  8
SUNPOU
100
AcDbText
 10
332.2793466870868
 20
21.8983436374353
 30
0.0
 40
0.75
  1
                          
100
AcDbText
  0
TEXT
  5
1A
330
EF7C85532
100
AcDbEntity
  8
SUNPOU
100
AcDbText
 10
289.9834441000535
 20
43.7966872748706
 30
0.0
 40
1.5
  1
                          
100
AcDbText
  0
TEXT
  5
1B
330
EF7C85532
100
AcDbEntity
  8
SUNPOU
100
AcDbText
 10
527.2040951349665
 20
21.8983436374353
 30
0.0
 40
0.75
  1
                          
100
AcDbText
  0
TEXT
  5
1C
330
EF7C85532
100
AcDbEntity
  8
SUNPOU
100
AcDbText
 10
490.6272568090836
 20
43.79668727487057
 30
0.0
 40
1.5
  1
                          
100
AcDbText
  0
TEXT
  5
1D
330
EF7C85532
100
AcDbEntity
  8
SUNPOU
100
AcDbText
 10
727.8479078439966
 20
21.89834363743527
 30
0.0
 40
0.75
  1
                          
100
AcDbText
  0
INSERT
  5
1E
330
EF7C85532
100
AcDbEntity
  8
HATCH
100
AcDbBlockReference
  2
*X2
 10
194.9247484478796
 20
0.0
 30
0.0
  0
TEXT
  5
1F
330
EF7C85532
100
AcDbEntity
  8
SUNPOU
100
AcDbText
 10
493.0101992368964
 20
43.7966872748706
 30
0.0
 40
1.5
  1
                          
100
AcDbText
  0
TEXT
  5
20
330
EF7C85532
100
AcDbEntity
  8
SUNPOU
100
AcDbText
 10
730.2308502718094
 20
21.8983436374353
 30
0.0
 40
0.75
  1
                          
100
AcDbText
  0
TEXT
  5
21
330
EF7C85532
100
AcDbEntity
  8
SUNPOU
100
AcDbText
 10
482.0486607753579
 20
43.7966872748706
 30
0.0
 40
1.5
  1
                          
100
AcDbText
  0
TEXT
  5
22
330
EF7C85532
100
AcDbEntity
  8
SUNPOU
100
AcDbText
 10
719.269311810271
 20
21.8983436374353
 30
0.0
 40
0.75
  1
                          
100
AcDbText
  0
INSERT
  5
25
330
EF7C85532
100
AcDbEntity
  8
JISSEN
100
AcDbBlockReference
  2
STDGX5
 10
0.0
 20
0.0
 30
0.0
  0
TEXT
  5
60
330
EF7C85532
100
AcDbEntity
  8
SUNPOU
100
AcDbText
 10
274.0586949361738
 20
43.7966872748706
 30
0.0
 40
1.5
  1
                          
100
AcDbText
  0
TEXT
  5
61
330
EF7C85532
100
AcDbEntity
  8
SUNPOU
100
AcDbText
 10
511.2793459710869
 20
21.8983436374353
 30
0.0
 40
0.75
  1
                          
100
AcDbText
  0
TEXT
  5
62
330
EF7C85532
100
AcDbEntity
  8
SUNPOU
100
AcDbText
 10
474.702507645204
 20
43.79668727487057
 30
0.0
 40
1.5
  1
                          
100
AcDbText
  0
TEXT
  5
63
330
EF7C85532
100
AcDbEntity
  8
SUNPOU
100
AcDbText
 10
711.923158680117
 20
21.89834363743527
 30
0.0
 40
0.75
  1
                          
100
AcDbText
  0
INSERT
  5
64
330
EF7C85532
100
AcDbEntity
  8
HATCH
100
AcDbBlockReference
  2
*X4
 10
178.999999284
 20
0.0
 30
0.0
  0
TEXT
  5
65
330
EF7C85532
100
AcDbEntity
  8
SUNPOU
100
AcDbText
 10
477.0854500730167
 20
43.7966872748706
 30
0.0
 40
1.5
  1
                          
100
AcDbText
  0
TEXT
  5
66
330
EF7C85532
100
AcDbEntity
  8
SUNPOU
100
AcDbText
 10
714.3061011079298
 20
21.8983436374353
 30
0.0
 40
0.75
  1
                          
100
AcDbText
  0
TEXT
  5
67
330
EF7C85532
100
AcDbEntity
  8
SUNPOU
100
AcDbText
 10
466.1239116114783
 20
43.7966872748706
 30
0.0
 40
1.5
  1
                          
100
AcDbText
  0
TEXT
  5
68
330
EF7C85532
100
AcDbEntity
  8
SUNPOU
100
AcDbText
 10
703.3445626463913
 20
21.8983436374353
 30
0.0
 40
0.75
  1
                          
100
AcDbText
  0
INSERT
  5
69
330
EF7C85532
100
AcDbEntity
  8
TEXT
100
AcDbBlockReference
  2
STDGX5
 10
178.999999284
 20
0.0
 30
0.0
  0
TEXT
  5
6A
330
EF7C85532
100
AcDbEntity
  8
SUNPOU
100
AcDbText
 10
453.0586949361739
 20
43.7966872748706
 30
0.0
 40
1.5
  1
                          
100
AcDbText
  0
TEXT
  5
6B
330
EF7C85532
100
AcDbEntity
  8
SUNPOU
100
AcDbText
 10
690.279345971087
 20
21.8983436374353
 30
0.0
 40
0.75
  1
                          
100
AcDbText
  0
TEXT
  5
6C
330
EF7C85532
100
AcDbEntity
  8
SUNPOU
100
AcDbText
 10
647.9834433840535
 20
43.7966872748706
 30
0.0
 40
1.5
  1
                          
100
AcDbText
  0
TEXT
  5
6D
330
EF7C85532
100
AcDbEntity
  8
SUNPOU
100
AcDbText
 10
885.2040944189665
 20
21.8983436374353
 30
0.0
 40
0.75
  1
                          
100
AcDbText
  0
TEXT
  5
6E
330
EF7C85532
100
AcDbEntity
  8
SUNPOU
100
AcDbText
 10
848.6272560930835
 20
43.79668727487057
 30
0.0
 40
1.5
  1
                          
100
AcDbText
  0
TEXT
  5
6F
330
EF7C85532
100
AcDbEntity
  8
SUNPOU
100
AcDbText
 10
1085.847907127996
 20
21.89834363743527
 30
0.0
 40
0.75
  1
                          
100
AcDbText
  0
INSERT
  5
70
330
EF7C85532
100
AcDbEntity
  8
HATCH
100
AcDbBlockReference
  2
*X5
 10
552.9247477318797
 20
0.0
 30
0.0
  0
TEXT
  5
71
330
EF7C85532
100
AcDbEntity
  8
SUNPOU
100
AcDbText
 10
851.0101985208963
 20
43.7966872748706
 30
0.0
 40
1.5
  1
                          
100
AcDbText
  0
TEXT
  5
72
330
EF7C85532
100
AcDbEntity
  8
SUNPOU
100
AcDbText
 10
1088.230849555809
 20
21.8983436374353
 30
0.0
 40
0.75
  1
                          
100
AcDbText
  0
TEXT
  5
73
330
EF7C85532
100
AcDbEntity
  8
SUNPOU
100
AcDbText
 10
840.048660059358
 20
43.7966872748706
 30
0.0
 40
1.5
  1
                          
100
AcDbText
  0
TEXT
  5
74
330
EF7C85532
100
AcDbEntity
  8
SUNPOU
100
AcDbText
 10
1077.269311094271
 20
21.8983436374353
 30
0.0
 40
0.75
  1
                          
100
AcDbText
  0
INSERT
  5
75
330
EF7C85532
100
AcDbEntity
  8
JISSEN
100
AcDbBlockReference
  2
STDGX5
 10
357.999999284
 20
0.0
 30
0.0
  0
TEXT
  5
76
330
EF7C85532
100
AcDbEntity
  8
SUNPOU
100
AcDbText
 10
453.0586949361739
 20
43.7966872748706
 30
0.0
 40
1.5
  1
                          
100
AcDbText
  0
TEXT
  5
77
330
EF7C85532
100
AcDbEntity
  8
SUNPOU
100
AcDbText
 10
690.279345971087
 20
21.8983436374353
 30
0.0
 40
0.75
  1
                          
100
AcDbText
  0
TEXT
  5
78
330
EF7C85532
100
AcDbEntity
  8
SUNPOU
100
AcDbText
 10
647.9834433840535
 20
43.7966872748706
 30
0.0
 40
1.5
  1
                          
100
AcDbText
  0
TEXT
  5
79
330
EF7C85532
100
AcDbEntity
  8
SUNPOU
100
AcDbText
 10
885.2040944189665
 20
21.8983436374353
 30
0.0
 40
0.75
  1
                          
100
AcDbText
  0
TEXT
  5
7A
330
EF7C85532
100
AcDbEntity
  8
SUNPOU
100
AcDbText
 10
848.6272560930835
 20
43.79668727487057
 30
0.0
 40
1.5
  1
                          
100
AcDbText
  0
TEXT
  5
7B
330
EF7C85532
100
AcDbEntity
  8
SUNPOU
100
AcDbText
 10
1085.847907127996
 20
21.89834363743527
 30
0.0
 40
0.75
  1
                          
100
AcDbText
  0
INSERT
  5
7C
330
EF7C85532
100
AcDbEntity
  8
HATCH
100
AcDbBlockReference
  2
*X6
 10
552.9247477318797
 20
0.0
 30
0.0
  0
TEXT
  5
7D
330
EF7C85532
100
AcDbEntity
  8
SUNPOU
100
AcDbText
 10
851.0101985208963
 20
43.7966872748706
 30
0.0
 40
1.5
  1
                          
100
AcDbText
  0
TEXT
  5
7E
330
EF7C85532
100
AcDbEntity
  8
SUNPOU
100
AcDbText
 10
1088.230849555809
 20
21.8983436374353
 30
0.0
 40
0.75
  1
                          
100
AcDbText
  0
TEXT
  5
7F
330
EF7C85532
100
AcDbEntity
  8
SUNPOU
100
AcDbText
 10
840.048660059358
 20
43.7966872748706
 30
0.0
 40
1.5
  1
                          
100
AcDbText
  0
TEXT
  5
80
330
EF7C85532
100
AcDbEntity
  8
SUNPOU
100
AcDbText
 10
1077.269311094271
 20
21.8983436374353
 30
0.0
 40
0.75
  1
                          
100
AcDbText
  0
INSERT
  5
81
330
EF7C85532
100
AcDbEntity
  8
JISSEN
100
AcDbBlockReference
  2
STDGX5
 10
357.999999284
 20
0.0
 30
0.0
  0
TEXT
  5
82
330
EF7C85532
100
AcDbEntity
  8
SUNPOU
100
AcDbText
 10
632.0586942201739
 20
43.7966872748706
 30
0.0
 40
1.5
  1
                          
100
AcDbText
  0
TEXT
  5
83
330
EF7C85532
100
AcDbEntity
  8
SUNPOU
100
AcDbText
 10
869.2793452550871
 20
21.8983436374353
 30
0.0
 40
0.75
  1
                          
100
AcDbText
  0
TEXT
  5
84
330
EF7C85532
100
AcDbEntity
  8
SUNPOU
100
AcDbText
 10
826.9834426680535
 20
43.7966872748706
 30
0.0
 40
1.5
  1
                          
100
AcDbText
  0
TEXT
  5
85
330
EF7C85532
100
AcDbEntity
  8
SUNPOU
100
AcDbText
 10
1064.204093702966
 20
21.8983436374353
 30
0.0
 40
0.75
  1
                          
100
AcDbText
  0
TEXT
  5
86
330
EF7C85532
100
AcDbEntity
  8
SUNPOU
100
AcDbText
 10
1027.627255377083
 20
43.79668727487057
 30
0.0
 40
1.5
  1
                          
100
AcDbText
  0
TEXT
  5
87
330
EF7C85532
100
AcDbEntity
  8
SUNPOU
100
AcDbText
 10
1264.847906411996
 20
21.89834363743527
 30
0.0
 40
0.75
  1
                          
100
AcDbText
  0
INSERT
  5
88
330
EF7C85532
100
AcDbEntity
  8
HATCH
100
AcDbBlockReference
  2
*X7
 10
731.9247470158797
 20
0.0
 30
0.0
  0
TEXT
  5
89
330
EF7C85532
100
AcDbEntity
  8
SUNPOU
100
AcDbText
 10
1030.010197804896
 20
43.7966872748706
 30
0.0
 40
1.5
  1
                          
100
AcDbText
  0
TEXT
  5
8A
330
EF7C85532
100
AcDbEntity
  8
SUNPOU
100
AcDbText
 10
1267.230848839809
 20
21.8983436374353
 30
0.0
 40
0.75
  1
                          
100
AcDbText
  0
TEXT
  5
8B
330
EF7C85532
100
AcDbEntity
  8
SUNPOU
100
AcDbText
 10
1019.048659343358
 20
43.7966872748706
 30
0.0
 40
1.5
  1
                          
100
AcDbText
  0
TEXT
  5
8C
330
EF7C85532
100
AcDbEntity
  8
SUNPOU
100
AcDbText
 10
1256.269310378271
 20
21.8983436374353
 30
0.0
 40
0.75
  1
                          
100
AcDbText
  0
INSERT
  5
8D
330
EF7C85532
100
AcDbEntity
  8
JISSEN
100
AcDbBlockReference
  2
STDGX5
 10
536.999998568
 20
0.0
 30
0.0
  0
INSERT
  5
8E
330
EF7C85532
100
AcDbEntity
  8
SUNPOU
100
AcDbBlockReference
  2
STDGX5
 10
739.0804232644236
 20
50.83533235670902
 30
0.0
 41
0.5
 42
0.5
 43
0.5
  0
INSERT
  5
8F
330
EF7C85532
100
AcDbEntity
  8
SUNPOU
100
AcDbBlockReference
  2
STDGX5
 10
726.2208210623692
 20
105.0763138619288
 30
0.0
 41
0.5
 42
0.5
 43
0.5
  0
INSERT
  5
90
330
EF7C85532
100
AcDbEntity
  8
HATCH
100
AcDbBlockReference
  2
STDGX5
 10
852.3985550581901
 20
151.7065097967401
 30
0.0
 41
0.5
 42
0.5
 43
0.5
  0
INSERT
  5
91
330
EF7C85532
100
AcDbEntity
  8
HATCH
100
AcDbBlockReference
  2
STDGX5
 10
866.6806796277285
 20
102.7017487639613
 30
0.0
 41
0.5
 42
0.5
 43
0.5
  0
INSERT
  5
92
330
EF7C85532
100
AcDbEntity
  8
TEXT
100
AcDbBlockReference
  2
STDGX5
 10
970.3434408521969
 20
102.8213468229236
 30
0.0
 41
0.5
 42
0.5
 43
0.5
  0
INSERT
  5
93
330
EF7C85532
100
AcDbEntity
  8
SUNPOU
100
AcDbBlockReference
  2
STDGX5
 10
996.1728907397869
 20
174.5475645486174
 30
0.0
 41
0.5
 42
0.5
 43
0.5
  0
INSERT
  5
94
330
EF7C85532
100
AcDbEntity
  8
TEXT
100
AcDbBlockReference
  2
STDGX5
 10
725.7513886810995
 20
124.5860190441302
 30
0.0
 41
0.5
 42
0.5
 43
0.5
  0
INSERT
  5
95
330
EF7C85532
100
AcDbEntity
  8
HATCH
100
AcDbBlockReference
  2
STDGX5
 10
777.1755722656421
 20
145.5222028932424
 30
0.0
 41
0.5
 42
0.5
 43
0.5
  0
INSERT
  5
96
330
EF7C85532
100
AcDbEntity
  8
SUNPOU
100
AcDbBlockReference
  2
STDGX5
 10
846.1963575359604
 20
112.6957974729892
 30
0.0
 41
0.5
 42
0.5
 43
0.5
  0
INSERT
  5
97
330
EF7C85532
100
AcDbEntity
  8
SUNPOU
100
AcDbBlockReference
  2
STDGX5
 10
916.6681156211122
 20
121.7330617103085
 30
0.0
 41
0.5
 42
0.5
 43
0.5
  0
INSERT
  5
98
330
EF7C85532
100
AcDbEntity
  8
TEXT
100
AcDbBlockReference
  2
STDGX5
 10
983.7969461426769
 20
84.61852224867081
 30
0.0
 41
0.5
 42
0.5
 43
0.5
  0
INSERT
  5
99
330
EF7C85532
100
AcDbEntity
  8
HATCH
100
AcDbBlockReference
  2
STDGX5
 10
974.2802715042099
 20
136.4849386559231
 30
0.0
 41
0.5
 42
0.5
 43
0.5
  0
INSERT
  5
9A
330
EF7C85532
100
AcDbEntity
  8
SUNPOU
100
AcDbBlockReference
  2
STDGX5
 10
749.7834008663489
 20
95.14721172234004
 30
0.0
 41
0.5
 42
0.5
 43
0.5
  0
INSERT
  5
9B
330
EF7C85532
100
AcDbEntity
  8
SUNPOU
100
AcDbBlockReference
  2
STDGX5
 10
736.9237986642947
 20
149.3881932275598
 30
0.0
 41
0.5
 42
0.5
 43
0.5
  0
INSERT
  5
9C
330
EF7C85532
100
AcDbEntity
  8
HATCH
100
AcDbBlockReference
  2
STDGX5
 10
863.1015326601156
 20
196.0183891623711
 30
0.0
 41
0.5
 42
0.5
 43
0.5
  0
INSERT
  5
9D
330
EF7C85532
100
AcDbEntity
  8
HATCH
100
AcDbBlockReference
  2
STDGX5
 10
877.3836572296538
 20
147.0136281295923
 30
0.0
 41
0.5
 42
0.5
 43
0.5
  0
INSERT
  5
9E
330
EF7C85532
100
AcDbEntity
  8
TEXT
100
AcDbBlockReference
  2
STDGX5
 10
981.0464184541224
 20
147.1332261885546
 30
0.0
 41
0.5
 42
0.5
 43
0.5
  0
INSERT
  5
9F
330
EF7C85532
100
AcDbEntity
  8
SUNPOU
100
AcDbBlockReference
  2
STDGX5
 10
1006.875868341712
 20
218.8594439142484
 30
0.0
 41
0.5
 42
0.5
 43
0.5
  0
INSERT
  5
A0
330
EF7C85532
100
AcDbEntity
  8
TEXT
100
AcDbBlockReference
  2
STDGX5
 10
736.4543662830251
 20
168.8978984097612
 30
0.0
 41
0.5
 42
0.5
 43
0.5
  0
INSERT
  5
A1
330
EF7C85532
100
AcDbEntity
  8
HATCH
100
AcDbBlockReference
  2
STDGX5
 10
787.8785498675677
 20
189.8340822588735
 30
0.0
 41
0.5
 42
0.5
 43
0.5
  0
INSERT
  5
A2
330
EF7C85532
100
AcDbEntity
  8
SUNPOU
100
AcDbBlockReference
  2
STDGX5
 10
856.899335137886
 20
157.0076768386202
 30
0.0
 41
0.5
 42
0.5
 43
0.5
  0
INSERT
  5
A3
330
EF7C85532
100
AcDbEntity
  8
SUNPOU
100
AcDbBlockReference
  2
STDGX5
 10
927.3710932230379
 20
166.0449410759395
 30
0.0
 41
0.5
 42
0.5
 43
0.5
  0
INSERT
  5
A4
330
EF7C85532
100
AcDbEntity
  8
TEXT
100
AcDbBlockReference
  2
STDGX5
 10
994.4999237446024
 20
128.9304016143018
 30
0.0
 41
0.5
 42
0.5
 43
0.5
  0
INSERT
  5
A5
330
EF7C85532
100
AcDbEntity
  8
HATCH
100
AcDbBlockReference
  2
STDGX5
 10
984.9832491061354
 20
180.7968180215541
 30
0.0
 41
0.5
 42
0.5
 43
0.5
  0
TEXT
  5
DE
330
EF7C85532
100
AcDbEntity
  8
SUNPOU
100
AcDbText
 10
274.0586949361738
 20
43.7966872748706
 30
0.0
 40
1.5
  1
                          
100
AcDbText
  0
TEXT
  5
145
330
EF7C85532
100
AcDbEntity
  8
SUNPOU
100
AcDbText
 10
511.2793459710869
 20
21.8983436374353
 30
0.0
 40
0.75
  1
                          
100
AcDbText
  0
TEXT
  5
265
330
EF7C85532
100
AcDbEntity
  8
SUNPOU
100
AcDbText
 10
474.702507645204
 20
43.79668727487057
 30
0.0
 40
1.5
  1
                          
100
AcDbText
  0
TEXT
  5
266
330
EF7C85532
100
AcDbEntity
  8
SUNPOU
100
AcDbText
 10
711.923158680117
 20
21.89834363743527
 30
0.0
 40
0.75
  1
                          
100
AcDbText
  0
INSERT
  5
2F7
330
EF7C85532
100
AcDbEntity
  8
HATCH
100
AcDbBlockReference
  2
*X4
 10
178.999999284
 20
0.0
 30
0.0
  0
TEXT
  5
31A
330
EF7C85532
100
AcDbEntity
  8
SUNPOU
100
AcDbText
 10
477.0854500730167
 20
43.7966872748706
 30
0.0
 40
1.5
  1
                          
100
AcDbText
  0
TEXT
  5
31C
330
EF7C85532
100
AcDbEntity
  8
SUNPOU
100
AcDbText
 10
714.3061011079298
 20
21.8983436374353
 30
0.0
 40
0.75
  1
                          
100
AcDbText
  0
TEXT
  5
3A6
330
EF7C85532
100
AcDbEntity
  8
TEXT
100
AcDbText
 10
100.9999992839998
 20
244.9999999999999
 30
0.0
 40
3.0
  1
 
  7
K
100
AcDbText
  0
TEXT
  5
3AB
330
EF7C85532
100
AcDbEntity
  8
SUNPOU
100
AcDbText
 10
466.1239116114783
 20
43.7966872748706
 30
0.0
 40
1.5
  1
                          
100
AcDbText
  0
TEXT
  5
3AC
330
EF7C85532
100
AcDbEntity
  8
SUNPOU
100
AcDbText
 10
703.3445626463913
 20
21.8983436374353
 30
0.0
 40
0.75
  1
                          
100
AcDbText
  0
INSERT
  5
3F6
330
EF7C85532
100
AcDbEntity
  8
TEXT
100
AcDbBlockReference
  2
STDGX5
 10
178.999999284
 20
0.0
 30
0.0
  0
TEXT
  5
3F7
330
EF7C85532
100
AcDbEntity
  8
SUNPOU
100
AcDbText
 10
453.0586949361739
 20
43.7966872748706
 30
0.0
 40
1.5
  1
                          
100
AcDbText
  0
TEXT
  5
3F8
330
EF7C85532
100
AcDbEntity
  8
SUNPOU
100
AcDbText
 10
690.279345971087
 20
21.8983436374353
 30
0.0
 40
0.75
  1
                          
100
AcDbText
  0
TEXT
  5
3F9
330
EF7C85532
100
AcDbEntity
  8
SUNPOU
100
AcDbText
 10
647.9834433840535
 20
43.7966872748706
 30
0.0
 40
1.5
  1
                          
100
AcDbText
  0
TEXT
  5
3FA
330
EF7C85532
100
AcDbEntity
  8
SUNPOU
100
AcDbText
 10
885.2040944189665
 20
21.8983436374353
 30
0.0
 40
0.75
  1
                          
100
AcDbText
  0
TEXT
  5
3FB
330
EF7C85532
100
AcDbEntity
  8
SUNPOU
100
AcDbText
 10
848.6272560930835
 20
43.79668727487057
 30
0.0
 40
1.5
  1
                          
100
AcDbText
  0
TEXT
  5
3FC
330
EF7C85532
100
AcDbEntity
  8
SUNPOU
100
AcDbText
 10
1085.847907127996
 20
21.89834363743527
 30
0.0
 40
0.75
  1
                          
100
AcDbText
  0
INSERT
  5
3FD
330
EF7C85532
100
AcDbEntity
  8
HATCH
100
AcDbBlockReference
  2
*X5
 10
552.9247477318797
 20
0.0
 30
0.0
  0
TEXT
  5
3FE
330
EF7C85532
100
AcDbEntity
  8
SUNPOU
100
AcDbText
 10
851.0101985208963
 20
43.7966872748706
 30
0.0
 40
1.5
  1
                          
100
AcDbText
  0
TEXT
  5
3FF
330
EF7C85532
100
AcDbEntity
  8
SUNPOU
100
AcDbText
 10
1088.230849555809
 20
21.8983436374353
 30
0.0
 40
0.75
  1
                          
100
AcDbText
  0
TEXT
  5
400
330
EF7C85532
100
AcDbEntity
  8
SUNPOU
100
AcDbText
 10
840.048660059358
 20
43.7966872748706
 30
0.0
 40
1.5
  1
                          
100
AcDbText
  0
TEXT
  5
401
330
EF7C85532
100
AcDbEntity
  8
SUNPOU
100
AcDbText
 10
1077.269311094271
 20
21.8983436374353
 30
0.0
 40
0.75
  1
                          
100
AcDbText
  0
INSERT
  5
402
330
EF7C85532
100
AcDbEntity
  8
JISSEN
100
AcDbBlockReference
  2
STDGX5
 10
357.999999284
 20
0.0
 30
0.0
  0
TEXT
  5
409
330
EF7C85532
100
AcDbEntity
  8
SUNPOU
100
AcDbText
 10
453.0586949361739
 20
43.7966872748706
 30
0.0
 40
1.5
  1
                          
100
AcDbText
  0
TEXT
  5
40A
330
EF7C85532
100
AcDbEntity
  8
SUNPOU
100
AcDbText
 10
690.279345971087
 20
21.8983436374353
 30
0.0
 40
0.75
  1
                          
100
AcDbText
  0
TEXT
  5
41B
330
EF7C85532
100
AcDbEntity
  8
SUNPOU
100
AcDbText
 10
647.9834433840535
 20
43.7966872748706
 30
0.0
 40
1.5
  1
                          
100
AcDbText
  0
TEXT
  5
41C
330
EF7C85532
100
AcDbEntity
  8
SUNPOU
100
AcDbText
 10
885.2040944189665
 20
21.8983436374353
 30
0.0
 40
0.75
  1
                          
100
AcDbText
  0
TEXT
  5
41D
330
EF7C85532
100
AcDbEntity
  8
SUNPOU
100
AcDbText
 10
848.6272560930835
 20
43.79668727487057
 30
0.0
 40
1.5
  1
                          
100
AcDbText
  0
TEXT
  5
41E
330
EF7C85532
100
AcDbEntity
  8
SUNPOU
100
AcDbText
 10
1085.847907127996
 20
21.89834363743527
 30
0.0
 40
0.75
  1
                          
100
AcDbText
  0
INSERT
  5
41F
330
EF7C85532
100
AcDbEntity
  8
HATCH
100
AcDbBlockReference
  2
*X6
 10
552.9247477318797
 20
0.0
 30
0.0
  0
TEXT
  5
420
330
EF7C85532
100
AcDbEntity
  8
SUNPOU
100
AcDbText
 10
851.0101985208963
 20
43.7966872748706
 30
0.0
 40
1.5
  1
                          
100
AcDbText
  0
TEXT
  5
421
330
EF7C85532
100
AcDbEntity
  8
SUNPOU
100
AcDbText
 10
1088.230849555809
 20
21.8983436374353
 30
0.0
 40
0.75
  1
                          
100
AcDbText
  0
TEXT
  5
422
330
EF7C85532
100
AcDbEntity
  8
SUNPOU
100
AcDbText
 10
840.048660059358
 20
43.7966872748706
 30
0.0
 40
1.5
  1
                          
100
AcDbText
  0
TEXT
  5
423
330
EF7C85532
100
AcDbEntity
  8
SUNPOU
100
AcDbText
 10
1077.269311094271
 20
21.8983436374353
 30
0.0
 40
0.75
  1
                          
100
AcDbText
  0
INSERT
  5
424
330
EF7C85532
100
AcDbEntity
  8
JISSEN
100
AcDbBlockReference
  2
STDGX5
 10
357.999999284
 20
0.0
 30
0.0
  0
TEXT
  5
425
330
EF7C85532
100
AcDbEntity
  8
SUNPOU
100
AcDbText
 10
632.0586942201739
 20
43.7966872748706
 30
0.0
 40
1.5
  1
                          
100
AcDbText
  0
TEXT
  5
426
330
EF7C85532
100
AcDbEntity
  8
SUNPOU
100
AcDbText
 10
869.2793452550871
 20
21.8983436374353
 30
0.0
 40
0.75
  1
                          
100
AcDbText
  0
TEXT
  5
427
330
EF7C85532
100
AcDbEntity
  8
SUNPOU
100
AcDbText
 10
826.9834426680535
 20
43.7966872748706
 30
0.0
 40
1.5
  1
                          
100
AcDbText
  0
TEXT
  5
428
330
EF7C85532
100
AcDbEntity
  8
SUNPOU
100
AcDbText
 10
1064.204093702966
 20
21.8983436374353
 30
0.0
 40
0.75
  1
                          
100
AcDbText
  0
TEXT
  5
429
330
EF7C85532
100
AcDbEntity
  8
SUNPOU
100
AcDbText
 10
1027.627255377083
 20
43.79668727487057
 30
0.0
 40
1.5
  1
                          
100
AcDbText
  0
TEXT
  5
42A
330
EF7C85532
100
AcDbEntity
  8
SUNPOU
100
AcDbText
 10
1264.847906411996
 20
21.89834363743527
 30
0.0
 40
0.75
  1
                          
100
AcDbText
  0
INSERT
  5
42B
330
EF7C85532
100
AcDbEntity
  8
HATCH
100
AcDbBlockReference
  2
*X7
 10
731.9247470158797
 20
0.0
 30
0.0
  0
TEXT
  5
42C
330
EF7C85532
100
AcDbEntity
  8
SUNPOU
100
AcDbText
 10
1030.010197804896
 20
43.7966872748706
 30
0.0
 40
1.5
  1
                          
100
AcDbText
  0
TEXT
  5
42D
330
EF7C85532
100
AcDbEntity
  8
SUNPOU
100
AcDbText
 10
1267.230848839809
 20
21.8983436374353
 30
0.0
 40
0.75
  1
                          
100
AcDbText
  0
TEXT
  5
42E
330
EF7C85532
100
AcDbEntity
  8
SUNPOU
100
AcDbText
 10
1019.048659343358
 20
43.7966872748706
 30
0.0
 40
1.5
  1
                          
100
AcDbText
  0
TEXT
  5
42F
330
EF7C85532
100
AcDbEntity
  8
SUNPOU
100
AcDbText
 10
1256.269310378271
 20
21.8983436374353
 30
0.0
 40
0.75
  1
                          
100
AcDbText
  0
INSERT
  5
430
330
EF7C85532
100
AcDbEntity
  8
JISSEN
100
AcDbBlockReference
  2
STDGX5
 10
536.999998568
 20
0.0
 30
0.0
  0
INSERT
  5
43B
330
EF7C85532
100
AcDbEntity
  8
SUNPOU
100
AcDbBlockReference
  2
STDGX5
 10
739.0804232644236
 20
50.83533235670902
 30
0.0
 41
0.5
 42
0.5
 43
0.5
  0
INSERT
  5
43C
330
EF7C85532
100
AcDbEntity
  8
SUNPOU
100
AcDbBlockReference
  2
STDGX5
 10
726.2208210623692
 20
105.0763138619288
 30
0.0
 41
0.5
 42
0.5
 43
0.5
  0
INSERT
  5
43D
330
EF7C85532
100
AcDbEntity
  8
HATCH
100
AcDbBlockReference
  2
STDGX5
 10
852.3985550581901
 20
151.7065097967401
 30
0.0
 41
0.5
 42
0.5
 43
0.5
  0
INSERT
  5
43E
330
EF7C85532
100
AcDbEntity
  8
HATCH
100
AcDbBlockReference
  2
STDGX5
 10
866.6806796277285
 20
102.7017487639613
 30
0.0
 41
0.5
 42
0.5
 43
0.5
  0
INSERT
  5
43F
330
EF7C85532
100
AcDbEntity
  8
TEXT
100
AcDbBlockReference
  2
STDGX5
 10
970.3434408521969
 20
102.8213468229236
 30
0.0
 41
0.5
 42
0.5
 43
0.5
  0
INSERT
  5
440
330
EF7C85532
100
AcDbEntity
  8
SUNPOU
100
AcDbBlockReference
  2
STDGX5
 10
996.1728907397869
 20
174.5475645486174
 30
0.0
 41
0.5
 42
0.5
 43
0.5
  0
INSERT
  5
441
330
EF7C85532
100
AcDbEntity
  8
TEXT
100
AcDbBlockReference
  2
STDGX5
 10
725.7513886810995
 20
124.5860190441302
 30
0.0
 41
0.5
 42
0.5
 43
0.5
  0
INSERT
  5
442
330
EF7C85532
100
AcDbEntity
  8
HATCH
100
AcDbBlockReference
  2
STDGX5
 10
777.1755722656421
 20
145.5222028932424
 30
0.0
 41
0.5
 42
0.5
 43
0.5
  0
INSERT
  5
443
330
EF7C85532
100
AcDbEntity
  8
SUNPOU
100
AcDbBlockReference
  2
STDGX5
 10
846.1963575359604
 20
112.6957974729892
 30
0.0
 41
0.5
 42
0.5
 43
0.5
  0
INSERT
  5
444
330
EF7C85532
100
AcDbEntity
  8
SUNPOU
100
AcDbBlockReference
  2
STDGX5
 10
916.6681156211122
 20
121.7330617103085
 30
0.0
 41
0.5
 42
0.5
 43
0.5
  0
INSERT
  5
445
330
EF7C85532
100
AcDbEntity
  8
TEXT
100
AcDbBlockReference
  2
STDGX5
 10
983.7969461426769
 20
84.61852224867081
 30
0.0
 41
0.5
 42
0.5
 43
0.5
  0
INSERT
  5
446
330
EF7C85532
100
AcDbEntity
  8
HATCH
100
AcDbBlockReference
  2
STDGX5
 10
974.2802715042099
 20
136.4849386559231
 30
0.0
 41
0.5
 42
0.5
 43
0.5
  0
INSERT
  5
447
330
EF7C85532
100
AcDbEntity
  8
SUNPOU
100
AcDbBlockReference
  2
STDGX5
 10
749.7834008663489
 20
95.14721172234004
 30
0.0
 41
0.5
 42
0.5
 43
0.5
  0
INSERT
  5
448
330
EF7C85532
100
AcDbEntity
  8
SUNPOU
100
AcDbBlockReference
  2
STDGX5
 10
736.9237986642947
 20
149.3881932275598
 30
0.0
 41
0.5
 42
0.5
 43
0.5
  0
INSERT
  5
449
330
EF7C85532
100
AcDbEntity
  8
HATCH
100
AcDbBlockReference
  2
STDGX5
 10
863.1015326601156
 20
196.0183891623711
 30
0.0
 41
0.5
 42
0.5
 43
0.5
  0
INSERT
  5
44A
330
EF7C85532
100
AcDbEntity
  8
HATCH
100
AcDbBlockReference
  2
STDGX5
 10
877.3836572296538
 20
147.0136281295923
 30
0.0
 41
0.5
 42
0.5
 43
0.5
  0
INSERT
  5
44B
330
EF7C85532
100
AcDbEntity
  8
TEXT
100
AcDbBlockReference
  2
STDGX5
 10
981.0464184541224
 20
147.1332261885546
 30
0.0
 41
0.5
 42
0.5
 43
0.5
  0
INSERT
  5
44C
330
EF7C85532
100
AcDbEntity
  8
SUNPOU
100
AcDbBlockReference
  2
STDGX5
 10
1006.875868341712
 20
218.8594439142484
 30
0.0
 41
0.5
 42
0.5
 43
0.5
  0
INSERT
  5
44D
330
EF7C85532
100
AcDbEntity
  8
TEXT
100
AcDbBlockReference
  2
STDGX5
 10
736.4543662830251
 20
168.8978984097612
 30
0.0
 41
0.5
 42
0.5
 43
0.5
  0
INSERT
  5
44E
330
EF7C85532
100
AcDbEntity
  8
HATCH
100
AcDbBlockReference
  2
STDGX5
 10
787.8785498675677
 20
189.8340822588735
 30
0.0
 41
0.5
 42
0.5
 43
0.5
  0
INSERT
  5
44F
330
EF7C85532
100
AcDbEntity
  8
SUNPOU
100
AcDbBlockReference
  2
STDGX5
 10
856.899335137886
 20
157.0076768386202
 30
0.0
 41
0.5
 42
0.5
 43
0.5
  0
INSERT
  5
450
330
EF7C85532
100
AcDbEntity
  8
SUNPOU
100
AcDbBlockReference
  2
STDGX5
 10
927.3710932230379
 20
166.0449410759395
 30
0.0
 41
0.5
 42
0.5
 43
0.5
  0
INSERT
  5
451
330
EF7C85532
100
AcDbEntity
  8
TEXT
100
AcDbBlockReference
  2
STDGX5
 10
994.4999237446024
 20
128.9304016143018
 30
0.0
 41
0.5
 42
0.5
 43
0.5
  0
INSERT
  5
452
330
EF7C85532
100
AcDbEntity
  8
HATCH
100
AcDbBlockReference
  2
STDGX5
 10
984.9832491061354
 20
180.7968180215541
 30
0.0
 41
0.5
 42
0.5
 43
0.5
  0
INSERT
  5
4CF3
330
EF7C85532
100
AcDbEntity
  8
JISSEN
100
AcDbBlockReference
  2
STDR12J
 10
0.0
 20
0.0
 30
0.0
  0
LINE
  5
EAFFB3C99
330
EF7C85532
100
AcDbEntity
  8
JISSEN
100
AcDbLine
 10
91.49999927599997
 20
276.9999999999999
 30
0.0
 11
180.999999276
 21
276.9999999999999
 31
0.0
  0
LINE
  5
EAFFB3C9A
330
EF7C85532
100
AcDbEntity
  8
JISSEN
100
AcDbLine
 10
91.49999927599997
 20
270.9999999999999
 30
0.0
 11
180.999999276
 21
270.9999999999999
 31
0.0
  0
TEXT
  5
EAFFB3C9B
330
EF7C85532
100
AcDbEntity
  8
TEXT
100
AcDbText
 10
107.8999992759999
 20
278.4999999999999
 30
0.0
 40
3.0
  1
名      称
  7
K
 72
     4
 11
116.4999992759999
 21
279.9999999999999
 31
0.0
100
AcDbText
  0
TEXT
  5
EAFFB3C9C
330
EF7C85532
100
AcDbEntity
  8
TEXT
100
AcDbText
 10
93.29999927599997
 20
278.4999999999999
 30
0.0
 40
3.0
  1
番号
  7
K
 72
     4
 11
96.49999927599999
 21
279.9999999999999
 31
0.0
100
AcDbText
  0
LINE
  5
EAFFB3C9D
330
EF7C85532
100
AcDbEntity
  8
JISSEN
100
AcDbLine
 10
91.49999927599997
 20
270.9999999999999
 30
0.0
 11
91.49999927599997
 21
282.9999999999999
 31
0.0
  0
LINE
  5
EAFFB3C9E
330
EF7C85532
100
AcDbEntity
  8
JISSEN
100
AcDbLine
 10
101.4999992759999
 20
282.9999999999999
 30
0.0
 11
101.4999992759999
 21
270.9999999999999
 31
0.0
  0
TEXT
  5
EAFFB3C9F
330
EF7C85532
100
AcDbEntity
  8
TEXT
100
AcDbText
 10
135.1999992759999
 20
278.4999999999999
 30
0.0
 40
3.0
  1
材    質
  7
K
 72
     4
 11
141.9999992759999
 21
279.9999999999999
 31
0.0
100
AcDbText
  0
LINE
  5
EAFFB3CA0
330
EF7C85532
100
AcDbEntity
  8
JISSEN
100
AcDbLine
 10
131.4999992759999
 20
282.9999999999999
 30
0.0
 11
131.4999992759999
 21
270.9999999999999
 31
0.0
  0
LINE
  5
EAFFB3CA1
330
EF7C85532
100
AcDbEntity
  8
JISSEN
100
AcDbLine
 10
152.4999992759999
 20
270.9999999999999
 30
0.0
 11
152.4999992759999
 21
282.9999999999999
 31
0.0
  0
TEXT
  5
EAFFB3CA2
330
EF7C85532
100
AcDbEntity
  8
TEXT
100
AcDbText
 10
165.6999992759999
 20
278.4999999999999
 30
0.0
 40
3.0
  1
備    考
  7
K
 72
     4
 11
172.4999992759999
 21
279.9999999999999
 31
0.0
100
AcDbText
  0
TEXT
  5
EAFFB3CA3
330
EF7C85532
100
AcDbEntity
  8
TEXT
100
AcDbText
 10
154.7999992759999
 20
278.4999999999999
 30
0.0
 40
3.0
  1
個数
  7
K
 72
     4
 11
157.9999992759999
 21
279.9999999999999
 31
0.0
100
AcDbText
  0
LINE
  5
EAFFB3CA4
330
EF7C85532
100
AcDbEntity
  8
JISSEN
100
AcDbLine
 10
163.4999992759999
 20
282.9999999999999
 30
0.0
 11
163.4999992759999
 21
270.9999999999999
 31
0.0
  0
TEXT
  5
EAFFB3CAC
330
EF7C85532
100
AcDbEntity
  8
TEXT
100
AcDbText
 10
95.28571356171427
 20
272.4999999999999
 30
0.0
 40
3.0
  1
1
  7
K
 72
     4
 11
96.49999927599999
 21
273.9999999999999
 31
0.0
100
AcDbText
  0
TEXT
  5
EAFFB3CC2
330
EF7C85532
100
AcDbEntity
  8
TEXT
100
AcDbText
 10
136.8249992759999
 20
274.2999999999999
 30
0.0
 40
3.0
  1
%%u      
  7
K
 72
     4
 11
141.9999992759999
 21
273.9999999999999
 31
0.0
100
AcDbText
  0
INSERT
  5
EAFFB3CF7
330
EF7C85532
100
AcDbEntity
  8
WAKU
100
AcDbBlockReference
  2
WAKU
 10
0.0
 20
0.0
 30
0.0
 41
181.0
 42
283.0
 43
181.0
  0
TEXT
  5
EF7C85BB1
330
EF7C85532
100
AcDbEntity
  8
TEXT
100
AcDbText
 10
156.6795477624092
 20
272.4999999999999
 30
0.0
 40
3.0
  1
1
  7
K
 72
     4
 11
157.8938334766949
 21
273.9999999999999
 31
0.0
100
AcDbText
  0
TEXT
  5
EF7C85D65
330
EF7C85532
100
AcDbEntity
  8
SUNPOU
100
AcDbText
 10
156.400733613173
 20
7.849423898685245
 30
0.0
 40
3.0
  1
DU 取付状態
  7
K
100
AcDbText
  0
TEXT
  5
EF7C85D66
330
EF7C85532
100
AcDbEntity
  8
SUNPOU
100
AcDbText
 10
156.400733613173
 20
2.849423898685245
 30
0.0
 40
3.0
  1
尺度　1/1
  7
K
100
AcDbText
  0
TEXT
  5
EF7C85DB5
330
EF7C85532
100
AcDbEntity
  8
TEXT
100
AcDbText
 10
105.6428564188571
 20
272.4999999999999
 30
0.0
 40
3.0
  1
DU 型ヘッド
  7
K
 72
     4
 11
116.4999992759999
 21
273.9999999999999
 31
0.0
100
AcDbText
  0
ARC
  5
EF7C87290
330
EF7C85532
100
AcDbEntity
  8
JISSEN
100
AcDbCircle
 10
92.48008109019798
 20
198.0992459962966
 30
0.0
 40
0.6
100
AcDbArc
 50
191.318833727393
 51
348.8861928075048
  0
ARC
  5
EF7C87291
330
EF7C85532
100
AcDbEntity
  8
JISSEN
100
AcDbCircle
 10
92.38008109019801
 20
198.0992459962966
 30
0.0
 40
0.6
100
AcDbArc
 50
197.3059974608022
 51
270.0
  0
LINE
  5
EF7C87292
330
EF7C85532
100
AcDbEntity
  8
JISSEN
100
AcDbLine
 10
90.00008343801608
 20
201.2992459962961
 30
0.0
 11
102.000083438016
 21
201.2992459962961
 31
0.0
  0
LINE
  5
EF7C87293
330
EF7C85532
100
AcDbEntity
  8
JISSEN
100
AcDbLine
 10
92.79607734723015
 20
187.4992459962961
 30
0.0
 11
90.00008343801608
 21
187.4992459962961
 31
0.0
  0
LINE
  5
EF7C8729F
330
EF7C85532
100
AcDbEntity
  8
JISSEN
100
AcDbLine
 10
97.50008343801608
 20
161.3116594611285
 30
0.0
 11
82.50008343801608
 21
161.3116594611286
 31
0.0
  0
LINE
  5
EF7C872A0
330
EF7C85532
100
AcDbEntity
  8
JISSEN
100
AcDbLine
 10
91.25008343801608
 20
154.4899716246492
 30
0.0
 11
92.70008343801606
 21
154.4899716246492
 31
0.0
  0
LINE
  5
EF7C872A1
330
EF7C85532
100
AcDbEntity
  8
JISSEN
100
AcDbLine
 10
98.1995449252488
 20
155.4992459962961
 30
0.0
 11
91.50008343801607
 21
155.4992459962961
 31
0.0
  0
LINE
  5
EF7C872A2
330
EF7C85532
100
AcDbEntity
  8
JISSEN
100
AcDbLine
 10
97.25008343801608
 20
158.2775581598091
 30
0.0
 11
91.54341542830252
 21
158.2775581598091
 31
0.0
  0
LINE
  5
EF7C872A3
330
EF7C85532
100
AcDbEntity
  8
JISSEN
100
AcDbLine
 10
96.00008343801654
 20
158.7116594611284
 30
0.0
 11
91.68882744277533
 21
158.7116594611285
 31
0.0
  0
LINE
  5
EF7C872A4
330
EF7C85532
100
AcDbEntity
  8
JISSEN
100
AcDbLine
 10
100.6635977923419
 20
149.6114078781874
 30
0.0
 11
90.00008343801608
 21
149.6114078781874
 31
0.0
  0
LINE
  5
EF7C872A5
330
EF7C85532
100
AcDbEntity
  8
JISSEN
100
AcDbLine
 10
97.50008343801608
 20
157.2992459962962
 30
0.0
 11
91.50008343801607
 21
157.2992459962962
 31
0.0
  0
LINE
  5
EF7C872A6
330
EF7C85532
100
AcDbEntity
  8
JISSEN
100
AcDbLine
 10
99.50008343801608
 20
149.9992459962961
 30
0.0
 11
90.00008343801608
 21
149.9992459962961
 31
0.0
  0
LINE
  5
EF7C872A7
330
EF7C85532
100
AcDbEntity
  8
JISSEN
100
AcDbLine
 10
97.50008343801608
 20
159.0116594611286
 30
0.0
 11
90.00008343801608
 21
159.0116594611286
 31
0.0
  0
LINE
  5
EF7C872A8
330
EF7C85532
100
AcDbEntity
  8
JISSEN
100
AcDbLine
 10
92.70008343801606
 20
152.4899716246492
 30
0.0
 11
87.30008343801609
 21
152.4899716246492
 31
0.0
  0
LINE
  5
EF7C872A9
330
EF7C85532
100
AcDbEntity
  8
JISSEN
100
AcDbLine
 10
98.50008343801608
 20
135.4992459962961
 30
0.0
 11
90.00008343801608
 21
135.4992459962961
 31
0.0
  0
LINE
  5
EF7C872AA
330
EF7C85532
100
AcDbEntity
  8
JISSEN
100
AcDbLine
 10
79.72202921010387
 20
137.2773002242083
 30
0.0
 11
100.2781376659282
 21
137.2773002242083
 31
0.0
  0
ARC
  5
EF7C872B1
330
EF7C85532
100
AcDbEntity
  8
JISSEN
100
AcDbCircle
 10
98.00008343801607
 20
167.4992459962961
 30
0.0
 40
28.0
100
AcDbArc
 50
157.9756871629579
 51
180.0
  0
ARC
  5
EF7C872B2
330
EF7C85532
100
AcDbEntity
  8
JISSEN
100
AcDbCircle
 10
98.00008343801607
 20
167.4992459962961
 30
0.0
 40
26.0
100
AcDbArc
 50
156.1811586065437
 51
180.0
  0
ARC
  5
EF7C872B3
330
EF7C85532
100
AcDbEntity
  8
JISSEN
100
AcDbCircle
 10
98.00008343801607
 20
167.4992459962961
 30
0.0
 40
24.0
100
AcDbArc
 50
122.1818839204042
 51
180.0
  0
ARC
  5
EF7C872B4
330
EF7C85532
100
AcDbEntity
  8
JISSEN
100
AcDbCircle
 10
98.00008343801607
 20
167.4992459962961
 30
0.0
 40
30.0
100
AcDbArc
 50
139.7809012554448
 51
180.0
  0
ARC
  5
EF7C872B7
330
EF7C85532
100
AcDbEntity
  8
JISSEN
100
AcDbCircle
 10
76.11233490634777
 20
148.3561286679198
 30
0.0
 40
6.498907295833106
100
AcDbArc
 50
39.10096087449549
 51
75.32091994780239
  0
ARC
  5
EF7C872B8
330
EF7C85532
100
AcDbEntity
  8
JISSEN
100
AcDbCircle
 10
84.9393884856919
 20
168.6531979337245
 30
0.0
 40
11.0
100
AcDbArc
 50
186.0216771926338
 51
255.1597851614818
  0
ARC
  5
EF7C872B9
330
EF7C85532
100
AcDbEntity
  8
JISSEN
100
AcDbCircle
 10
85.00008343801608
 20
167.4992459962961
 30
0.0
 40
17.0
100
AcDbArc
 50
180.0
 51
250.2500772043573
  0
ARC
  5
EF7C872BA
330
EF7C85532
100
AcDbEntity
  8
JISSEN
100
AcDbCircle
 10
82.7888366544937
 20
168.1009037191408
 30
0.0
 40
10.80551655320168
100
AcDbArc
 50
183.1919145761251
 51
268.4687163963806
  0
ARC
  5
EF7C872BC
330
EF7C85532
100
AcDbEntity
  8
JISSEN
100
AcDbCircle
 10
85.00008343801608
 20
167.4992459962961
 30
0.0
 40
15.0
100
AcDbArc
 50
180.0
 51
233.31701119964
  0
ARC
  5
EF7C872BF
330
EF7C85532
100
AcDbEntity
  8
JISSEN
100
AcDbCircle
 10
79.02621271509139
 20
159.4797155495815
 30
0.0
 40
5.0
100
AcDbArc
 50
233.31701119964
 51
255.3209199478024
  0
LINE
  5
EF7C872C1
330
EF7C85532
100
AcDbEntity
  8
JISSEN
100
AcDbLine
 10
87.00008343801608
 20
152.7899716246492
 30
0.0
 11
87.00008343801608
 21
154.1899716246492
 31
0.0
  0
LINE
  5
EF7C872C2
330
EF7C85532
100
AcDbEntity
  8
JISSEN
100
AcDbLine
 10
81.80062195078329
 20
151.4992459962961
 30
0.0
 11
81.80062195078329
 21
155.4992459962961
 31
0.0
  0
LINE
  5
EF7C872C3
330
EF7C85532
100
AcDbEntity
  8
JISSEN
100
AcDbLine
 10
86.00008343801603
 20
155.4992459962961
 30
0.0
 11
86.00008343801603
 21
151.4992459962961
 31
0.0
  0
LINE
  5
EF7C872C4
330
EF7C85532
100
AcDbEntity
  8
JISSEN
100
AcDbLine
 10
79.25552079147798
 20
151.4992459962961
 30
0.0
 11
87.00008343801608
 21
151.4992459962961
 31
0.0
  0
LINE
  5
EF7C872C5
330
EF7C85532
100
AcDbEntity
  8
JISSEN
100
AcDbLine
 10
80.50008343801607
 20
149.9992459962961
 30
0.0
 11
90.00008343801608
 21
149.9992459962961
 31
0.0
  0
LINE
  5
EF7C872C6
330
EF7C85532
100
AcDbEntity
  8
JISSEN
100
AcDbLine
 10
79.33656908369022
 20
149.6114078781874
 30
0.0
 11
90.00008343801608
 21
149.6114078781874
 31
0.0
  0
LINE
  5
EF7C872C7
330
EF7C85532
100
AcDbEntity
  8
JISSEN
100
AcDbLine
 10
81.50008343801607
 20
135.4992459962961
 30
0.0
 11
90.00008343801608
 21
135.4992459962961
 31
0.0
  0
LINE
  5
EF7C872C8
330
EF7C85532
100
AcDbEntity
  8
JISSEN
100
AcDbLine
 10
79.33656908369022
 20
149.6114078781873
 30
0.0
 11
79.72202921010387
 21
137.2773002242083
 31
0.0
  0
LINE
  5
EF7C872C9
330
EF7C85532
100
AcDbEntity
  8
SAISEN
100
AcDbLine
 10
80.92151501474171
 20
136.0778144195705
 30
0.0
 11
80.48658910975603
 21
149.9947478868761
 31
0.0
  0
LINE
  5
EF7C872CA
330
EF7C85532
100
AcDbEntity
  8
JISSEN
100
AcDbLine
 10
81.50008343801607
 20
135.4992459962961
 30
0.0
 11
79.72202921010387
 21
137.2773002242083
 31
0.0
  0
LINE
  5
EF7C872CC
330
EF7C85532
100
AcDbEntity
  8
JISSEN
100
AcDbLine
 10
79.33656908369022
 20
149.6114078781874
 30
0.0
 11
80.50008343801607
 21
149.9992459962961
 31
0.0
  0
LINE
  5
EF7C872CD
330
EF7C85532
100
AcDbEntity
  8
JISSEN
100
AcDbLine
 10
80.50008343801607
 20
151.4992459962961
 30
0.0
 11
80.50008343801607
 21
149.9992459962961
 31
0.0
  0
ARC
  5
EF7C872CE
330
EF7C85532
100
AcDbEntity
  8
JISSEN
100
AcDbCircle
 10
87.30008343801609
 20
152.7899716246492
 30
0.0
 40
0.3
100
AcDbArc
 50
180.0
 51
270.0
  0
LINE
  5
EF7C872CF
330
EF7C85532
100
AcDbEntity
  8
JISSEN
100
AcDbLine
 10
87.00008343801608
 20
149.9992459962961
 30
0.0
 11
87.00008343801608
 21
151.4992459962961
 31
0.0
  0
LINE
  5
EF7C872D1
330
EF7C85532
100
AcDbEntity
  8
JISSEN
100
AcDbLine
 10
82.50008343801608
 20
157.2992459962962
 30
0.0
 11
88.50008343801608
 21
157.2992459962962
 31
0.0
  0
LINE
  5
EF7C872D2
330
EF7C85532
100
AcDbEntity
  8
JISSEN
100
AcDbLine
 10
84.00008343801557
 20
158.7116594611284
 30
0.0
 11
88.31133943325681
 21
158.7116594611285
 31
0.0
  0
LINE
  5
EF7C872D3
330
EF7C85532
100
AcDbEntity
  8
JISSEN
100
AcDbLine
 10
82.75008343801607
 20
158.2775581598091
 30
0.0
 11
88.45675144772963
 21
158.2775581598091
 31
0.0
  0
LINE
  5
EF7C872D4
330
EF7C85532
100
AcDbEntity
  8
JISSEN
100
AcDbLine
 10
81.80062195078329
 20
155.4992459962961
 30
0.0
 11
88.50008343801608
 21
155.4992459962961
 31
0.0
  0
LINE
  5
EF7C872D5
330
EF7C85532
100
AcDbEntity
  8
JISSEN
100
AcDbLine
 10
82.50008343801608
 20
159.0116594611286
 30
0.0
 11
90.00008343801608
 21
159.0116594611286
 31
0.0
  0
LINE
  5
EF7C872D6
330
EF7C85532
100
AcDbEntity
  8
JISSEN
100
AcDbLine
 10
82.50008343801608
 20
158.7116594611285
 30
0.0
 11
82.50008343801608
 21
161.3116594611286
 31
0.0
  0
LINE
  5
EF7C872D7
330
EF7C85532
100
AcDbEntity
  8
JISSEN
100
AcDbLine
 10
83.50196894753281
 20
158.7116594611285
 30
0.0
 11
82.66928193436234
 21
158.2309073899237
 31
0.0
  0
LINE
  5
EF7C872D8
330
EF7C85532
100
AcDbEntity
  8
JISSEN
100
AcDbLine
 10
84.00008343801557
 20
158.7116594611285
 30
0.0
 11
82.50008343801608
 21
158.7116594611285
 31
0.0
  0
ARC
  5
EF7C872D9
330
EF7C85532
100
AcDbEntity
  8
JISSEN
100
AcDbCircle
 10
82.25008343801608
 20
158.5034374261783
 30
0.0
 40
0.5
100
AcDbArc
 50
255.1597851614818
 51
326.9712311280872
  0
LINE
  5
EF7C872DA
330
EF7C85532
100
AcDbEntity
  8
JISSEN
100
AcDbLine
 10
82.50008343801608
 20
155.4992459962961
 30
0.0
 11
82.50008343801608
 21
157.2992459962962
 31
0.0
  0
ARC
  5
EF7C872E0
330
EF7C85532
100
AcDbEntity
  8
JISSEN
100
AcDbCircle
 10
81.75008343801607
 20
156.2724137242423
 30
0.0
 40
7.0
100
AcDbArc
 50
0.0
 51
23.0367096452352
  0
LINE
  5
EF7C872E1
330
EF7C85532
100
AcDbEntity
  8
JISSEN
100
AcDbLine
 10
87.30008343801609
 20
154.4899716246492
 30
0.0
 11
88.75008343801608
 21
154.4899716246492
 31
0.0
  0
LINE
  5
EF7C872E2
330
EF7C85532
100
AcDbEntity
  8
JISSEN
100
AcDbLine
 10
88.50008343801608
 20
155.4992459962961
 30
0.0
 11
88.50008343801608
 21
157.2992459962962
 31
0.0
  0
ARC
  5
EF7C872E3
330
EF7C85532
100
AcDbEntity
  8
JISSEN
100
AcDbCircle
 10
87.30008343801609
 20
154.1899716246493
 30
0.0
 40
0.3
100
AcDbArc
 50
90.0
 51
180.0
  0
LINE
  5
EF7C872E4
330
EF7C85532
100
AcDbEntity
  8
JISSEN
100
AcDbLine
 10
88.75008343801608
 20
154.4899716246492
 30
0.0
 11
88.75008343801608
 21
156.2724137242423
 31
0.0
  0
LINE
  5
EF7C872E5
330
EF7C85532
100
AcDbEntity
  8
JISSEN
100
AcDbLine
 10
91.25008343801608
 20
154.4899716246492
 30
0.0
 11
91.25008343801608
 21
156.2724137242423
 31
0.0
  0
LINE
  5
EF7C872E6
330
EF7C85532
100
AcDbEntity
  8
JISSEN
100
AcDbLine
 10
91.50008343801607
 20
157.2992459962962
 30
0.0
 11
91.50008343801607
 21
155.4992459962961
 31
0.0
  0
ARC
  5
EF7C872E7
330
EF7C85532
100
AcDbEntity
  8
JISSEN
100
AcDbCircle
 10
98.25008343801608
 20
156.2724137242423
 30
0.0
 40
7.0
100
AcDbArc
 50
156.9632903547655
 51
180.0
  0
LINE
  5
EF7C87301
330
EF7C85532
100
AcDbEntity
  8
JISSEN
100
AcDbLine
 10
78.04023342589892
 20
197.826789632122
 30
0.0
 11
77.74813986278082
 21
199.4126351659835
 31
0.0
  0
LINE
  5
EF7C87302
330
EF7C85532
100
AcDbEntity
  8
JISSEN
100
AcDbLine
 10
75.0926584799102
 20
186.8706135729218
 30
0.0
 11
85.25618501953056
 21
198.8893944150655
 31
0.0
  0
ARC
  5
EF7C87303
330
EF7C85532
100
AcDbEntity
  8
JISSEN
100
AcDbCircle
 10
75.75089093404546
 20
199.5028511694648
 30
0.0
 40
1.346883607168649
100
AcDbArc
 50
132.287494158842
 51
183.8406207871296
  0
LINE
  5
EF7C87304
330
EF7C85532
100
AcDbEntity
  8
JISSEN
100
AcDbLine
 10
74.08785064315202
 20
200.4992459962961
 30
0.0
 11
74.84463887180038
 21
200.4992459962961
 31
0.0
  0
LINE
  5
EF7C87305
330
EF7C85532
100
AcDbEntity
  8
JISSEN
100
AcDbLine
 10
73.97919128418874
 20
199.4992459962961
 30
0.0
 11
74.40401215182856
 21
199.4992459962961
 31
0.0
  0
LINE
  5
EF7C87306
330
EF7C85532
100
AcDbEntity
  8
JISSEN
100
AcDbLine
 10
71.43914876631351
 20
200.5011743389773
 30
0.0
 11
77.87821409461088
 21
201.2917921479374
 31
0.0
  0
ARC
  5
EF7C87307
330
EF7C85532
100
AcDbEntity
  8
JISSEN
100
AcDbCircle
 10
74.08785064315202
 20
199.1992459962961
 30
0.0
 40
1.3
100
AcDbArc
 50
90.0
 51
174.8427865251746
  0
LINE
  5
EF7C87308
330
EF7C85532
100
AcDbEntity
  8
JISSEN
100
AcDbLine
 10
73.24637232030238
 20
197.4992459962961
 30
0.0
 11
72.44637232030243
 21
197.4992459962961
 31
0.0
  0
ARC
  5
EF7C87309
330
EF7C85532
100
AcDbEntity
  8
JISSEN
100
AcDbCircle
 10
72.44637232030243
 20
197.6992459962961
 30
0.0
 40
0.2
100
AcDbArc
 50
183.9176963714471
 51
354.8427865251754
  0
ARC
  5
EF7C8730A
330
EF7C85532
100
AcDbEntity
  8
JISSEN
100
AcDbCircle
 10
73.36904940636026
 20
199.5130382443607
 30
0.0
 40
1.244540968917422
100
AcDbArc
 50
127.5871082537664
 51
184.6273535933104
  0
LINE
  5
EF7C8730B
330
EF7C85532
100
AcDbEntity
  8
JISSEN
100
AcDbLine
 10
72.26296007036603
 20
197.6194967231135
 30
0.0
 11
72.26261884028315
 21
197.597681970558
 31
0.0
  0
ARC
  5
EF7C8730C
330
EF7C85532
100
AcDbEntity
  8
JISSEN
100
AcDbCircle
 10
71.50008343801608
 20
200.0049012631567
 30
0.0
 40
0.5
100
AcDbArc
 50
96.99999999999944
 51
179.9999999999991
  0
ARC
  5
EF7C8730D
330
EF7C85532
100
AcDbEntity
  8
JISSEN
100
AcDbCircle
 10
71.16263107191366
 20
197.5992459962927
 30
0.0
 40
0.1
100
AcDbArc
 50
270.0
 51
358.8942957104782
  0
LINE
  5
EF7C8730E
330
EF7C85532
100
AcDbEntity
  8
JISSEN
100
AcDbLine
 10
72.16263107191378
 20
197.4992459962961
 30
0.0
 11
71.00008343801602
 21
197.4992459962961
 31
0.0
  0
LINE
  5
EF7C8730F
330
EF7C85532
100
AcDbEntity
  8
JISSEN
100
AcDbLine
 10
71.26261245150345
 20
197.5973162980336
 30
0.0
 11
71.29401479384552
 21
199.2243320736639
 31
0.0
  0
LINE
  5
EF7C87310
330
EF7C85532
100
AcDbEntity
  8
JISSEN
100
AcDbLine
 10
71.00008343801602
 20
197.4992459962961
 30
0.0
 11
71.00008343801608
 21
200.0049012631567
 31
0.0
  0
LINE
  5
EF7C87311
330
EF7C85532
100
AcDbEntity
  8
JISSEN
100
AcDbLine
 10
72.1285650472625
 20
199.4126351659826
 30
0.0
 11
72.24683967549231
 21
197.68558130987
 31
0.0
  0
ARC
  5
EF7C87312
330
EF7C85532
100
AcDbEntity
  8
JISSEN
100
AcDbCircle
 10
72.16263107191378
 20
197.5992459962972
 30
0.0
 40
0.1
100
AcDbArc
 50
270.0
 51
359.1038427224347
  0
ARC
  5
EF7C87313
330
EF7C85532
100
AcDbEntity
  8
JISSEN
100
AcDbCircle
 10
72.59377272850963
 20
199.1992459962961
 30
0.0
 40
1.3
100
AcDbArc
 50
90.0
 51
178.8942957104758
  0
ARC
  5
EF7C87314
330
EF7C85532
100
AcDbEntity
  8
JISSEN
100
AcDbCircle
 10
73.97919128418874
 20
199.0992459962962
 30
0.0
 40
0.4
100
AcDbArc
 50
90.00000000000161
 51
174.6856104413451
  0
ARC
  5
EF7C87315
330
EF7C85532
100
AcDbEntity
  8
JISSEN
100
AcDbCircle
 10
73.24637232030238
 20
197.6992459962961
 30
0.0
 40
0.2
100
AcDbArc
 50
270.0
 51
354.6856104413459
  0
LINE
  5
EF7C87316
330
EF7C85532
100
AcDbEntity
  8
JISSEN
100
AcDbLine
 10
72.64556268074909
 20
197.6812682237668
 30
0.0
 11
72.79311330024848
 21
199.3161015177362
 31
0.0
  0
LINE
  5
EF7C87317
330
EF7C85532
100
AcDbEntity
  8
JISSEN
100
AcDbLine
 10
73.58091069684667
 20
199.1362942586905
 30
0.0
 11
73.44551261397345
 21
197.6807218650989
 31
0.0
  0
ARC
  5
EF7C87318
330
EF7C85532
100
AcDbEntity
  8
JISSEN
100
AcDbCircle
 10
76.69868723170196
 20
198.8992459962961
 30
0.0
 40
0.6
100
AcDbArc
 50
90.0
 51
167.2223180644369
  0
ARC
  5
EF7C87319
330
EF7C85532
100
AcDbEntity
  8
JISSEN
100
AcDbCircle
 10
76.76050169945392
 20
199.1992459962961
 30
0.0
 40
1.3
100
AcDbArc
 50
90.0
 51
171.2564626852239
  0
ARC
  5
EF7C8731A
330
EF7C85532
100
AcDbEntity
  8
JISSEN
100
AcDbCircle
 10
74.92636997248371
 20
197.7992459962964
 30
0.0
 40
0.3
100
AcDbArc
 50
187.6479080429014
 51
351.2564626852231
  0
ARC
  5
EF7C8731B
330
EF7C85532
100
AcDbEntity
  8
JISSEN
100
AcDbCircle
 10
74.92636997248371
 20
197.7992459962964
 30
0.0
 40
0.3
100
AcDbArc
 50
186.0956014599831
 51
187.6479080429014
  0
LINE
  5
EF7C8731C
330
EF7C85532
100
AcDbEntity
  8
JISSEN
100
AcDbLine
 10
75.52636997248368
 20
197.4992459962961
 30
0.0
 11
74.92636997248371
 21
197.4992459962961
 31
0.0
  0
ARC
  5
EF7C8731D
330
EF7C85532
100
AcDbEntity
  8
JISSEN
100
AcDbCircle
 10
75.52636997248368
 20
197.7992459962964
 30
0.0
 40
0.3
100
AcDbArc
 50
270.0
 51
347.2223180644385
  0
LINE
  5
EF7C8731E
330
EF7C85532
100
AcDbEntity
  8
JISSEN
100
AcDbLine
 10
74.40703211557724
 20
199.4126351659817
 30
0.0
 11
74.62903859033236
 21
197.7593204507382
 31
0.0
  0
LINE
  5
EF7C8731F
330
EF7C85532
100
AcDbEntity
  8
JISSEN
100
AcDbLine
 10
75.22288357137114
 20
197.7536424254408
 30
0.0
 11
75.475609437608
 21
199.3968614700034
 31
0.0
  0
LINE
  5
EF7C87320
330
EF7C85532
100
AcDbEntity
  8
JISSEN
100
AcDbLine
 10
76.1135458844721
 20
199.0319471785141
 30
0.0
 11
75.81894064609861
 21
197.7328954051874
 31
0.0
  0
ARC
  5
EF7C87321
330
EF7C85532
100
AcDbEntity
  8
JISSEN
100
AcDbCircle
 10
85.76889719053339
 20
200.8665112348023
 30
0.0
 40
8.151460220977577
100
AcDbArc
 50
182.5823439498852
 51
190.274117728383
  0
LINE
  5
EF7C87322
330
EF7C85532
100
AcDbEntity
  8
JISSEN
100
AcDbLine
 10
76.76050169945392
 20
200.4992459962961
 30
0.0
 11
77.62571476725651
 21
200.4992459962961
 31
0.0
  0
LINE
  5
EF7C87323
330
EF7C85532
100
AcDbEntity
  8
JISSEN
100
AcDbLine
 10
76.69868723170196
 20
199.4992459962961
 30
0.0
 11
77.73292248289812
 21
199.4992459962961
 31
0.0
  0
ARC
  5
EF7C87325
330
EF7C85532
100
AcDbEntity
  8
JISSEN
100
AcDbCircle
 10
73.25008343801613
 20
193.4992459962961
 30
0.0
 40
12.49999999999999
100
AcDbArc
 50
343.7397952916881
 51
16.26020470831189
  0
LINE
  5
EF7C8733C
330
EF7C85532
100
AcDbEntity
  8
JISSEN
100
AcDbLine
 10
87.204089528802
 20
187.4992459962961
 30
0.0
 11
90.00008343801608
 21
187.4992459962961
 31
0.0
  0
ARC
  5
EF7C8733D
330
EF7C85532
100
AcDbEntity
  8
JISSEN
100
AcDbCircle
 10
87.204089528802
 20
188.9992459962961
 30
0.0
 40
1.5
100
AcDbArc
 50
234.4366714240505
 51
270.0
  0
ARC
  5
EF7C8733E
330
EF7C85532
100
AcDbEntity
  8
JISSEN
100
AcDbCircle
 10
85.75008343801608
 20
186.9655630593669
 30
0.0
 40
1.0
100
AcDbArc
 50
54.43667142405012
 51
122.1818839204028
  0
LINE
  5
EF7C87342
330
EF7C85532
100
AcDbEntity
  8
JISSEN
100
AcDbLine
 10
85.36768592112554
 20
200.4992459962961
 30
0.0
 11
84.8336324820014
 21
200.4992459962961
 31
0.0
  0
LINE
  5
EF7C87343
330
EF7C85532
100
AcDbEntity
  8
JISSEN
100
AcDbLine
 10
84.7079856305549
 20
199.4992459962961
 30
0.0
 11
86.63259698519329
 21
199.4992459962961
 31
0.0
  0
LINE
  5
EF7C87344
330
EF7C85532
100
AcDbEntity
  8
JISSEN
100
AcDbLine
 10
82.25008343801608
 20
201.2992459962961
 30
0.0
 11
90.00008343801608
 21
201.2992459962961
 31
0.0
  0
ARC
  5
EF7C87345
330
EF7C85532
100
AcDbEntity
  8
JISSEN
100
AcDbCircle
 10
80.64075114090725
 20
199.1992459962961
 30
0.0
 40
1.3
100
AcDbArc
 50
11.75775714726694
 51
90.0
  0
LINE
  5
EF7C87346
330
EF7C85532
100
AcDbEntity
  8
JISSEN
100
AcDbLine
 10
80.35643635981427
 20
199.4992459962961
 30
0.0
 11
81.90566220497448
 21
199.4992459962961
 31
0.0
  0
LINE
  5
EF7C87347
330
EF7C85532
100
AcDbEntity
  8
JISSEN
100
AcDbLine
 10
82.25008343801608
 20
201.2992459962961
 30
0.0
 11
78.00008343801607
 21
201.2992459962961
 31
0.0
  0
ARC
  5
EF7C87348
330
EF7C85532
100
AcDbEntity
  8
JISSEN
100
AcDbCircle
 10
80.42695752737619
 20
199.1992459962961
 30
0.0
 40
1.3
100
AcDbArc
 50
90.0
 51
168.7010440842481
  0
ARC
  5
EF7C87349
330
EF7C85532
100
AcDbEntity
  8
JISSEN
100
AcDbCircle
 10
80.35643635981427
 20
198.6992459962961
 30
0.0
 40
0.8
100
AcDbArc
 50
90.0
 51
161.9500333794132
  0
ARC
  5
EF7C8734A
330
EF7C85532
100
AcDbEntity
  8
JISSEN
100
AcDbCircle
 10
78.43361628685102
 20
197.8992459962959
 30
0.0
 40
0.4
100
AcDbArc
 50
190.436221658696
 51
348.7010440842461
  0
LINE
  5
EF7C8734B
330
EF7C85532
100
AcDbEntity
  8
JISSEN
100
AcDbLine
 10
78.83361628685105
 20
197.4992459962961
 30
0.0
 11
78.43361628685102
 21
197.4992459962961
 31
0.0
  0
ARC
  5
EF7C8734C
330
EF7C85532
100
AcDbEntity
  8
JISSEN
100
AcDbCircle
 10
78.83361628685105
 20
197.8992459962959
 30
0.0
 40
0.4
100
AcDbArc
 50
270.0
 51
341.9500333794147
  0
LINE
  5
EF7C8734D
330
EF7C85532
100
AcDbEntity
  8
JISSEN
100
AcDbLine
 10
78.82586357847237
 20
197.8208746863937
 30
0.0
 11
79.15215382960713
 21
199.4539527534784
 31
0.0
  0
LINE
  5
EF7C8734E
330
EF7C85532
100
AcDbEntity
  8
JISSEN
100
AcDbLine
 10
79.59580702661049
 20
198.9471230171552
 30
0.0
 11
79.21393095345291
 21
197.7753074858664
 31
0.0
  0
LINE
  5
EF7C8734F
330
EF7C85532
100
AcDbEntity
  8
JISSEN
100
AcDbLine
 10
80.42695752737619
 20
200.4992459962961
 30
0.0
 11
80.64075114090725
 21
200.4992459962961
 31
0.0
  0
ARC
  5
EF7C87350
330
EF7C85532
100
AcDbEntity
  8
JISSEN
100
AcDbCircle
 10
82.72909822308021
 20
197.9992459962961
 30
0.0
 40
0.5
100
AcDbArc
 50
191.7577571472666
 51
347.679167814121
  0
ARC
  5
EF7C87351
330
EF7C85532
100
AcDbEntity
  8
JISSEN
100
AcDbCircle
 10
82.92909822308018
 20
197.9992459962961
 30
0.0
 40
0.5
100
AcDbArc
 50
270.0
 51
339.9682734747166
  0
LINE
  5
EF7C87352
330
EF7C85532
100
AcDbEntity
  8
JISSEN
100
AcDbLine
 10
82.92909822308018
 20
197.4992459962961
 30
0.0
 11
82.72909822308021
 21
197.4992459962961
 31
0.0
  0
LINE
  5
EF7C87353
330
EF7C85532
100
AcDbEntity
  8
JISSEN
100
AcDbLine
 10
82.23958927662506
 20
197.8973588462726
 30
0.0
 11
81.91347440169176
 21
199.4641525863575
 31
0.0
  0
ARC
  5
EF7C87354
330
EF7C85532
100
AcDbEntity
  8
JISSEN
100
AcDbCircle
 10
84.00008343801607
 20
198.9526809784353
 30
0.0
 40
1.0
100
AcDbArc
 50
319.7809012554437
 51
333.0351766874621
  0
ARC
  5
EF7C87355
330
EF7C85532
100
AcDbEntity
  8
JISSEN
100
AcDbCircle
 10
84.7079856305549
 20
198.4992459962961
 30
0.0
 40
1.0
100
AcDbArc
 50
90.0
 51
159.9682734747159
  0
ARC
  5
EF7C87356
330
EF7C85532
100
AcDbEntity
  8
JISSEN
100
AcDbCircle
 10
84.8336324820014
 20
199.1992459962961
 30
0.0
 40
1.3
100
AcDbArc
 50
90.0
 51
167.6791678141218
  0
LINE
  5
EF7C87357
330
EF7C85532
100
AcDbEntity
  8
JISSEN
100
AcDbLine
 10
83.21758225012411
 20
197.8925531880885
 30
0.0
 11
83.56357401168793
 21
199.4766472976357
 31
0.0
  0
LINE
  5
EF7C87358
330
EF7C85532
100
AcDbEntity
  8
JISSEN
100
AcDbLine
 10
83.39884976764114
 20
197.8279757817736
 30
0.0
 11
83.768482541433
 21
198.8417864253412
 31
0.0
  0
ARC
  5
EF7C87359
330
EF7C85532
100
AcDbEntity
  8
JISSEN
100
AcDbCircle
 10
89.67795116372412
 20
199.1992459962961
 30
0.0
 40
1.3
100
AcDbArc
 50
90.0
 51
168.6811662726061
  0
ARC
  5
EF7C8735A
330
EF7C85532
100
AcDbEntity
  8
JISSEN
100
AcDbCircle
 10
89.56775225926561
 20
198.2992459962961
 30
0.0
 40
1.199999999999999
100
AcDbArc
 50
90.0
 51
162.6940025391977
  0
ARC
  5
EF7C8735B
330
EF7C85532
100
AcDbEntity
  8
JISSEN
100
AcDbCircle
 10
85.3676859211256
 20
199.1992459962961
 30
0.0
 40
1.3
100
AcDbArc
 50
11.11380719249675
 51
90.0
  0
LINE
  5
EF7C8735C
330
EF7C85532
100
AcDbEntity
  8
JISSEN
100
AcDbLine
 10
86.64330603490634
 20
199.4498319602246
 30
0.0
 11
86.93133804101222
 21
197.9835909360219
 31
0.0
  0
LINE
  5
EF7C8735D
330
EF7C85532
100
AcDbEntity
  8
JISSEN
100
AcDbLine
 10
85.37097675574234
 20
199.2706129105205
 30
0.0
 11
85.34410593789329
 21
199.4992459962961
 31
0.0
  0
ARC
  5
EF7C8735E
330
EF7C85532
100
AcDbEntity
  8
JISSEN
100
AcDbCircle
 10
84.87439460356217
 20
199.2122505413425
 30
0.0
 40
0.5
100
AcDbArc
 50
319.7809012554437
 51
6.703115329654639
  0
ARC
  5
EF7C8735F
330
EF7C85532
100
AcDbEntity
  8
JISSEN
100
AcDbCircle
 10
87.62008578583413
 20
198.0992459962966
 30
0.0
 40
0.6
100
AcDbArc
 50
270.0
 51
342.6940025391978
  0
LINE
  5
EF7C87360
330
EF7C85532
100
AcDbEntity
  8
JISSEN
100
AcDbLine
 10
87.62008578583413
 20
197.4992459962961
 30
0.0
 11
87.52008578583412
 21
197.4992459962961
 31
0.0
  0
LINE
  5
EF7C87361
330
EF7C85532
100
AcDbEntity
  8
JISSEN
100
AcDbLine
 10
88.10841590343603
 20
197.9814849130741
 30
0.0
 11
88.40323590891859
 21
199.4543950099453
 31
0.0
  0
LINE
  5
EF7C87362
330
EF7C85532
100
AcDbEntity
  8
JISSEN
100
AcDbLine
 10
88.19292358569038
 20
197.9207611088247
 30
0.0
 11
88.42207665955305
 21
198.6562157712398
 31
0.0
  0
ARC
  5
EF7C87363
330
EF7C85532
100
AcDbEntity
  8
JISSEN
100
AcDbCircle
 10
87.52008578583412
 20
198.0992459962966
 30
0.0
 40
0.6
100
AcDbArc
 50
191.113807192497
 51
348.6811662726061
  0
LINE
  5
EF7C87364
330
EF7C85532
100
AcDbEntity
  8
JISSEN
100
AcDbLine
 10
90.32221571230804
 20
200.4992459962961
 30
0.0
 11
89.67795116372412
 21
200.4992459962961
 31
0.0
  0
LINE
  5
EF7C87365
330
EF7C85532
100
AcDbEntity
  8
JISSEN
100
AcDbLine
 10
90.43241461676648
 20
199.4992459962961
 30
0.0
 11
90.00008343801608
 21
199.4992459962961
 31
0.0
  0
LINE
  5
EF7C87366
330
EF7C85532
100
AcDbEntity
  8
JISSEN
100
AcDbLine
 10
89.56775225926561
 20
199.4992459962961
 30
0.0
 11
90.00008343801608
 21
199.4992459962961
 31
0.0
  0
ARC
  5
EF7C87367
330
EF7C85532
100
AcDbEntity
  8
JISSEN
100
AcDbCircle
 10
90.32221571230797
 20
199.1992459962961
 30
0.0
 40
1.3
100
AcDbArc
 50
11.31883372739381
 51
90.0
  0
ARC
  5
EF7C87368
330
EF7C85532
100
AcDbEntity
  8
JISSEN
100
AcDbCircle
 10
90.43241461676648
 20
198.2992459962961
 30
0.0
 40
1.199999999999999
100
AcDbArc
 50
17.3059974608022
 51
90.0
  0
LINE
  5
EF7C87369
330
EF7C85532
100
AcDbEntity
  8
JISSEN
100
AcDbLine
 10
91.89175097259612
 20
197.9814849130741
 30
0.0
 11
91.5969309671135
 21
199.4543950099453
 31
0.0
  0
LINE
  5
EF7C8736A
330
EF7C85532
100
AcDbEntity
  8
JISSEN
100
AcDbLine
 10
91.80724329034172
 20
197.9207611088247
 30
0.0
 11
91.57809021647905
 21
198.6562157712398
 31
0.0
  0
ARC
  5
EF7C8736B
330
EF7C85532
100
AcDbEntity
  8
JISSEN
100
AcDbCircle
 10
82.00008343801608
 20
167.4992459962961
 30
0.0
 40
28.0
100
AcDbArc
 50
0.0
 51
22.02431283704207
  0
ARC
  5
EF7C8736C
330
EF7C85532
100
AcDbEntity
  8
JISSEN
100
AcDbCircle
 10
82.00008343801608
 20
167.4992459962961
 30
0.0
 40
26.0
100
AcDbArc
 50
0.0
 51
23.81884139345626
  0
ARC
  5
EF7C8736F
330
EF7C85532
100
AcDbEntity
  8
JISSEN
100
AcDbCircle
 10
82.00008343801608
 20
167.4992459962961
 30
0.0
 40
30.0
100
AcDbArc
 50
0.0
 51
40.21909874455518
  0
ARC
  5
EF7C87370
330
EF7C85532
100
AcDbEntity
  8
JISSEN
100
AcDbCircle
 10
82.00008343801608
 20
167.4992459962961
 30
0.0
 40
24.0
100
AcDbArc
 50
0.0
 51
57.81811607959579
  0
ARC
  5
EF7C87372
330
EF7C85532
100
AcDbEntity
  8
JISSEN
100
AcDbCircle
 10
95.00008343801608
 20
167.4992459962961
 30
0.0
 40
15.0
100
AcDbArc
 50
306.6829888003599
 51
0.0
  0
ARC
  5
EF7C87373
330
EF7C85532
100
AcDbEntity
  8
JISSEN
100
AcDbCircle
 10
97.21133022153839
 20
168.1009037191408
 30
0.0
 40
10.80551655320168
100
AcDbArc
 50
271.5312836036177
 51
356.808085423874
  0
ARC
  5
EF7C87374
330
EF7C85532
100
AcDbEntity
  8
JISSEN
100
AcDbCircle
 10
95.06077839034025
 20
168.6531979337245
 30
0.0
 40
11.0
100
AcDbArc
 50
284.8402148385181
 51
353.9783228073661
  0
ARC
  5
EF7C87375
330
EF7C85532
100
AcDbEntity
  8
JISSEN
100
AcDbCircle
 10
95.00008343801608
 20
167.4992459962961
 30
0.0
 40
17.0
100
AcDbArc
 50
289.7499227956426
 51
0.0
  0
ARC
  5
EF7C87376
330
EF7C85532
100
AcDbEntity
  8
JISSEN
100
AcDbCircle
 10
103.8878319696843
 20
148.3561286679198
 30
0.0
 40
6.498907295833106
100
AcDbArc
 50
104.6790800521975
 51
140.8990391255045
  0
LINE
  5
EF7C87377
330
EF7C85532
100
AcDbEntity
  8
JISSEN
100
AcDbLine
 10
98.1995449252488
 20
151.4992459962961
 30
0.0
 11
98.1995449252488
 21
155.4992459962961
 31
0.0
  0
LINE
  5
EF7C87378
330
EF7C85532
100
AcDbEntity
  8
JISSEN
100
AcDbLine
 10
93.00008343801607
 20
154.1899716246492
 30
0.0
 11
93.00008343801607
 21
152.7899716246492
 31
0.0
  0
LINE
  5
EF7C87379
330
EF7C85532
100
AcDbEntity
  8
JISSEN
100
AcDbLine
 10
94.00008343801601
 20
155.4992459962961
 30
0.0
 11
94.00008343801601
 21
151.4992459962961
 31
0.0
  0
TEXT
  5
EF7C8737A
330
EF7C85532
100
AcDbEntity
  8
JISSEN
100
AcDbText
 10
94.48229906135093
 20
152.0405774626679
 30
0.0
 40
3.0
  1
D
  7
K
 72
     4
 11
96.0537276327795
 21
153.5405774626678
 31
0.0
100
AcDbText
  0
LINE
  5
EF7C8737B
330
EF7C85532
100
AcDbEntity
  8
JISSEN
100
AcDbLine
 10
100.7446460845541
 20
151.4992459962961
 30
0.0
 11
93.00008343801607
 21
151.4992459962961
 31
0.0
  0
LINE
  5
EF7C8737C
330
EF7C85532
100
AcDbEntity
  8
JISSEN
100
AcDbLine
 10
98.50008343801608
 20
135.4992459962961
 30
0.0
 11
100.2781376659282
 21
137.2773002242083
 31
0.0
  0
LINE
  5
EF7C8737D
330
EF7C85532
100
AcDbEntity
  8
SAISEN
100
AcDbLine
 10
99.07865186129043
 20
136.0778144195705
 30
0.0
 11
99.51357776627611
 21
149.9947478868761
 31
0.0
  0
ARC
  5
EF7C8737E
330
EF7C85532
100
AcDbEntity
  8
JISSEN
100
AcDbCircle
 10
92.70008343801606
 20
152.7899716246492
 30
0.0
 40
0.3
100
AcDbArc
 50
270.0
 51
0.0
  0
LINE
  5
EF7C8737F
330
EF7C85532
100
AcDbEntity
  8
JISSEN
100
AcDbLine
 10
93.00008343801607
 20
151.4992459962961
 30
0.0
 11
93.00008343801607
 21
149.9992459962961
 31
0.0
  0
LINE
  5
EF7C87380
330
EF7C85532
100
AcDbEntity
  8
JISSEN
100
AcDbLine
 10
100.6635977923419
 20
149.6114078781873
 30
0.0
 11
100.2781376659282
 21
137.2773002242083
 31
0.0
  0
LINE
  5
EF7C87381
330
EF7C85532
100
AcDbEntity
  8
JISSEN
100
AcDbLine
 10
100.6635977923419
 20
149.6114078781874
 30
0.0
 11
99.50008343801608
 21
149.9992459962961
 31
0.0
  0
LINE
  5
EF7C87382
330
EF7C85532
100
AcDbEntity
  8
JISSEN
100
AcDbLine
 10
99.50008343801608
 20
151.4992459962961
 30
0.0
 11
99.50008343801608
 21
149.9992459962961
 31
0.0
  0
ARC
  5
EF7C87384
330
EF7C85532
100
AcDbEntity
  8
JISSEN
100
AcDbCircle
 10
92.70008343801606
 20
154.1899716246493
 30
0.0
 40
0.3
100
AcDbArc
 50
359.9999999999992
 51
90.0
  0
LINE
  5
EF7C87385
330
EF7C85532
100
AcDbEntity
  8
JISSEN
100
AcDbLine
 10
97.50008343801608
 20
158.7116594611285
 30
0.0
 11
97.50008343801608
 21
161.3116594611285
 31
0.0
  0
ARC
  5
EF7C87386
330
EF7C85532
100
AcDbEntity
  8
JISSEN
100
AcDbCircle
 10
97.75008343801609
 20
158.5034374261783
 30
0.0
 40
0.5
100
AcDbArc
 50
213.028768871912
 51
284.8402148385179
  0
LINE
  5
EF7C87387
330
EF7C85532
100
AcDbEntity
  8
JISSEN
100
AcDbLine
 10
96.00008343801654
 20
158.7116594611285
 30
0.0
 11
97.50008343801608
 21
158.7116594611285
 31
0.0
  0
LINE
  5
EF7C87388
330
EF7C85532
100
AcDbEntity
  8
JISSEN
100
AcDbLine
 10
96.49819792849934
 20
158.7116594611285
 30
0.0
 11
97.33088494166885
 21
158.2309073899242
 31
0.0
  0
LINE
  5
EF7C87389
330
EF7C85532
100
AcDbEntity
  8
JISSEN
100
AcDbLine
 10
97.50008343801608
 20
155.4992459962961
 30
0.0
 11
97.50008343801608
 21
157.2992459962962
 31
0.0
  0
ARC
  5
EF7C87398
330
EF7C85532
100
AcDbEntity
  8
JISSEN
100
AcDbCircle
 10
100.9739541609407
 20
159.4797155495815
 30
0.0
 40
5.0
100
AcDbArc
 50
284.6790800521976
 51
306.6829888003599
  0
ARC
  5
EF7C87399
330
EF7C85532
100
AcDbEntity
  8
JISSEN
100
AcDbCircle
 10
105.91231623288
 20
199.1992459962961
 30
0.0
 40
1.3
100
AcDbArc
 50
5.157213474825391
 51
90.0
  0
ARC
  5
EF7C8739A
330
EF7C85532
100
AcDbEntity
  8
JISSEN
100
AcDbCircle
 10
106.0209755918433
 20
199.0992459962962
 30
0.0
 40
0.4
100
AcDbArc
 50
5.314389558654025
 51
89.99999999999836
  0
LINE
  5
EF7C8739B
330
EF7C85532
100
AcDbEntity
  8
JISSEN
100
AcDbLine
 10
108.5610181097185
 20
200.5011743389773
 30
0.0
 11
102.1219527814212
 21
201.2917921479374
 31
0.0
  0
ARC
  5
EF7C8739C
330
EF7C85532
100
AcDbEntity
  8
JISSEN
100
AcDbCircle
 10
106.750083438016
 20
193.4992459962961
 30
0.0
 40
12.49999999999999
100
AcDbArc
 50
163.739795291688
 51
196.2602047083119
  0
LINE
  5
EF7C8739D
330
EF7C85532
100
AcDbEntity
  8
JISSEN
100
AcDbLine
 10
104.9075083961219
 20
186.8706135729218
 30
0.0
 11
94.74398185650153
 21
198.8893944150655
 31
0.0
  0
ARC
  5
EF7C873B0
330
EF7C85532
100
AcDbEntity
  8
JISSEN
100
AcDbCircle
 10
94.25008343801607
 20
186.9655630593669
 30
0.0
 40
1.0
100
AcDbArc
 50
57.81811607959717
 51
125.5633285759498
  0
ARC
  5
EF7C873B1
330
EF7C85532
100
AcDbEntity
  8
JISSEN
100
AcDbCircle
 10
92.79607734723015
 20
188.9992459962961
 30
0.0
 40
1.5
100
AcDbArc
 50
270.0
 51
305.5633285759494
  0
LINE
  5
EF7C873B5
330
EF7C85532
100
AcDbEntity
  8
JISSEN
100
AcDbLine
 10
99.64373051621789
 20
199.4992459962961
 30
0.0
 11
98.09450467105769
 21
199.4992459962961
 31
0.0
  0
ARC
  5
EF7C873B6
330
EF7C85532
100
AcDbEntity
  8
JISSEN
100
AcDbCircle
 10
99.35941573512492
 20
199.1992459962961
 30
0.0
 40
1.3
100
AcDbArc
 50
90.0
 51
168.242242852733
  0
ARC
  5
EF7C873B7
330
EF7C85532
100
AcDbEntity
  8
JISSEN
100
AcDbCircle
 10
95.29218124547719
 20
198.4992459962961
 30
0.0
 40
1.0
100
AcDbArc
 50
20.03172652528407
 51
90.0
  0
ARC
  5
EF7C873B8
330
EF7C85532
100
AcDbEntity
  8
JISSEN
100
AcDbCircle
 10
95.1665343940307
 20
199.1992459962961
 30
0.0
 40
1.3
100
AcDbArc
 50
12.32083218587817
 51
89.99999999999836
  0
ARC
  5
EF7C873B9
330
EF7C85532
100
AcDbEntity
  8
JISSEN
100
AcDbCircle
 10
94.6324809549065
 20
199.1992459962962
 30
0.0
 40
1.3
100
AcDbArc
 50
90.0
 51
168.886192807504
  0
LINE
  5
EF7C873BA
330
EF7C85532
100
AcDbEntity
  8
JISSEN
100
AcDbLine
 10
95.29218124547725
 20
199.4992459962961
 30
0.0
 11
93.36756989083937
 21
199.4992459962961
 31
0.0
  0
LINE
  5
EF7C873BB
330
EF7C85532
100
AcDbEntity
  8
JISSEN
100
AcDbLine
 10
92.48008109019798
 20
197.4992459962961
 30
0.0
 11
92.38008109019801
 21
197.4992459962961
 31
0.0
  0
LINE
  5
EF7C873BC
330
EF7C85532
100
AcDbEntity
  8
JISSEN
100
AcDbLine
 10
93.35686084112575
 20
199.4498319602246
 30
0.0
 11
93.06882883501993
 21
197.983590936022
 31
0.0
  0
LINE
  5
EF7C873BD
330
EF7C85532
100
AcDbEntity
  8
JISSEN
100
AcDbLine
 10
94.62919012028976
 20
199.2706129105205
 30
0.0
 11
94.6560609381388
 21
199.4992459962961
 31
0.0
  0
ARC
  5
EF7C873BE
330
EF7C85532
100
AcDbEntity
  8
JISSEN
100
AcDbCircle
 10
95.12577227246998
 20
199.2122505413425
 30
0.0
 40
0.5
100
AcDbArc
 50
173.2968846703453
 51
220.2190987445551
  0
LINE
  5
EF7C873BF
330
EF7C85532
100
AcDbEntity
  8
JISSEN
100
AcDbLine
 10
94.63248095490655
 20
200.4992459962961
 30
0.0
 11
95.1665343940307
 21
200.4992459962961
 31
0.0
  0
ARC
  5
EF7C873C0
330
EF7C85532
100
AcDbEntity
  8
JISSEN
100
AcDbCircle
 10
97.27106865295191
 20
197.9992459962961
 30
0.0
 40
0.5
100
AcDbArc
 50
192.3208321858781
 51
348.2422428527334
  0
LINE
  5
EF7C873C1
330
EF7C85532
100
AcDbEntity
  8
JISSEN
100
AcDbLine
 10
97.07106865295191
 20
197.4992459962961
 30
0.0
 11
97.27106865295191
 21
197.4992459962961
 31
0.0
  0
ARC
  5
EF7C873C2
330
EF7C85532
100
AcDbEntity
  8
JISSEN
100
AcDbCircle
 10
97.07106865295191
 20
197.9992459962961
 30
0.0
 40
0.5
100
AcDbArc
 50
200.0317265252833
 51
270.0
  0
LINE
  5
EF7C873C3
330
EF7C85532
100
AcDbEntity
  8
JISSEN
100
AcDbLine
 10
96.60131710839095
 20
197.8279757817736
 30
0.0
 11
96.23168433459916
 21
198.8417864253412
 31
0.0
  0
LINE
  5
EF7C873C4
330
EF7C85532
100
AcDbEntity
  8
JISSEN
100
AcDbLine
 10
96.78258462590799
 20
197.8925531880885
 30
0.0
 11
96.43659286434422
 21
199.4766472976357
 31
0.0
  0
LINE
  5
EF7C873C5
330
EF7C85532
100
AcDbEntity
  8
JISSEN
100
AcDbLine
 10
97.76057759940705
 20
197.8973588462726
 30
0.0
 11
98.08669247434034
 21
199.4641525863575
 31
0.0
  0
LINE
  5
EF7C873C6
330
EF7C85532
100
AcDbEntity
  8
JISSEN
100
AcDbLine
 10
103.3014796443301
 20
199.4992459962961
 30
0.0
 11
102.2672443931339
 21
199.4992459962961
 31
0.0
  0
LINE
  5
EF7C873C7
330
EF7C85532
100
AcDbEntity
  8
JISSEN
100
AcDbLine
 10
103.2396651765782
 20
200.4992459962961
 30
0.0
 11
102.3744521087755
 21
200.4992459962961
 31
0.0
  0
ARC
  5
EF7C873C8
330
EF7C85532
100
AcDbEntity
  8
JISSEN
100
AcDbCircle
 10
99.5732093486559
 20
199.1992459962961
 30
0.0
 40
1.3
100
AcDbArc
 50
11.2989559157519
 51
90.0
  0
ARC
  5
EF7C873C9
330
EF7C85532
100
AcDbEntity
  8
JISSEN
100
AcDbCircle
 10
101.166550589181
 20
197.8992459962959
 30
0.0
 40
0.4
100
AcDbArc
 50
198.0499666205844
 51
270.0
  0
LINE
  5
EF7C873CA
330
EF7C85532
100
AcDbEntity
  8
JISSEN
100
AcDbLine
 10
101.1743032975597
 20
197.8208746863937
 30
0.0
 11
100.8480130464249
 21
199.4539527534784
 31
0.0
  0
ARC
  5
EF7C873CB
330
EF7C85532
100
AcDbEntity
  8
JISSEN
100
AcDbCircle
 10
99.64373051621789
 20
198.6992459962961
 30
0.0
 40
0.8
100
AcDbArc
 50
18.04996662058674
 51
90.0
  0
LINE
  5
EF7C873CC
330
EF7C85532
100
AcDbEntity
  8
JISSEN
100
AcDbLine
 10
99.5732093486559
 20
200.4992459962961
 30
0.0
 11
99.35941573512492
 21
200.4992459962961
 31
0.0
  0
LINE
  5
EF7C873CD
330
EF7C85532
100
AcDbEntity
  8
JISSEN
100
AcDbLine
 10
100.4043598494216
 20
198.9471230171552
 30
0.0
 11
100.7862359225791
 21
197.7753074858664
 31
0.0
  0
ARC
  5
EF7C873CE
330
EF7C85532
100
AcDbEntity
  8
JISSEN
100
AcDbCircle
 10
94.23126968549878
 20
200.8665112348023
 30
0.0
 40
8.151460220977577
100
AcDbArc
 50
349.7258822716161
 51
357.4176560501147
  0
LINE
  5
EF7C873CF
330
EF7C85532
100
AcDbEntity
  8
JISSEN
100
AcDbLine
 10
101.166550589181
 20
197.4992459962961
 30
0.0
 11
101.566550589181
 21
197.4992459962961
 31
0.0
  0
ARC
  5
EF7C873D0
330
EF7C85532
100
AcDbEntity
  8
JISSEN
100
AcDbCircle
 10
101.566550589181
 20
197.8992459962959
 30
0.0
 40
0.4
100
AcDbArc
 50
191.2989559157538
 51
349.5637783413032
  0
LINE
  5
EF7C873D1
330
EF7C85532
100
AcDbEntity
  8
JISSEN
100
AcDbLine
 10
101.9599334501332
 20
197.826789632122
 30
0.0
 11
102.2520270132513
 21
199.4126351659835
 31
0.0
  0
ARC
  5
EF7C873D2
330
EF7C85532
100
AcDbEntity
  8
JISSEN
100
AcDbCircle
 10
103.2396651765782
 20
199.1992459962961
 30
0.0
 40
1.3
100
AcDbArc
 50
8.74353731477602
 51
90.0
  0
ARC
  5
EF7C873D3
330
EF7C85532
100
AcDbEntity
  8
JISSEN
100
AcDbCircle
 10
104.4737969035484
 20
197.7992459962964
 30
0.0
 40
0.3
100
AcDbArc
 50
192.7776819355615
 51
270.0
  0
ARC
  5
EF7C873D4
330
EF7C85532
100
AcDbEntity
  8
JISSEN
100
AcDbCircle
 10
103.3014796443301
 20
198.8992459962961
 30
0.0
 40
0.6
100
AcDbArc
 50
12.77768193556307
 51
90.0
  0
LINE
  5
EF7C873D5
330
EF7C85532
100
AcDbEntity
  8
JISSEN
100
AcDbLine
 10
103.8866209915599
 20
199.0319471785141
 30
0.0
 11
104.1812262299334
 21
197.7328954051874
 31
0.0
  0
LINE
  5
EF7C873D6
330
EF7C85532
100
AcDbEntity
  8
JISSEN
100
AcDbLine
 10
106.0209755918433
 20
199.4992459962961
 30
0.0
 11
105.5961547242035
 21
199.4992459962961
 31
0.0
  0
LINE
  5
EF7C873D7
330
EF7C85532
100
AcDbEntity
  8
JISSEN
100
AcDbLine
 10
105.91231623288
 20
200.4992459962961
 30
0.0
 11
105.1555280042317
 21
200.4992459962961
 31
0.0
  0
ARC
  5
EF7C873D8
330
EF7C85532
100
AcDbEntity
  8
JISSEN
100
AcDbCircle
 10
104.2492759419866
 20
199.5028511694648
 30
0.0
 40
1.346883607168649
100
AcDbArc
 50
356.1593792128704
 51
47.71250584115743
  0
ARC
  5
EF7C873D9
330
EF7C85532
100
AcDbEntity
  8
JISSEN
100
AcDbCircle
 10
105.0737969035484
 20
197.7992459962964
 30
0.0
 40
0.3
100
AcDbArc
 50
188.7435373147768
 51
352.3520919570977
  0
ARC
  5
EF7C873DA
330
EF7C85532
100
AcDbEntity
  8
JISSEN
100
AcDbCircle
 10
105.0737969035484
 20
197.7992459962964
 30
0.0
 40
0.3
100
AcDbArc
 50
352.3520919570977
 51
353.9043985400168
  0
LINE
  5
EF7C873DB
330
EF7C85532
100
AcDbEntity
  8
JISSEN
100
AcDbLine
 10
104.4737969035484
 20
197.4992459962961
 30
0.0
 11
105.0737969035484
 21
197.4992459962961
 31
0.0
  0
LINE
  5
EF7C873DC
330
EF7C85532
100
AcDbEntity
  8
JISSEN
100
AcDbLine
 10
104.777283304661
 20
197.7536424254408
 30
0.0
 11
104.5245574384241
 21
199.3968614700034
 31
0.0
  0
LINE
  5
EF7C873DD
330
EF7C85532
100
AcDbEntity
  8
JISSEN
100
AcDbLine
 10
105.5931347604549
 20
199.4126351659817
 30
0.0
 11
105.3711282856997
 21
197.7593204507382
 31
0.0
  0
ARC
  5
EF7C873DE
330
EF7C85532
100
AcDbEntity
  8
JISSEN
100
AcDbCircle
 10
106.6311174696718
 20
199.5130382443607
 30
0.0
 40
1.244540968917422
100
AcDbArc
 50
355.3726464066895
 51
52.41289174619006
  0
ARC
  5
EF7C873DF
330
EF7C85532
100
AcDbEntity
  8
JISSEN
100
AcDbCircle
 10
107.4063941475225
 20
199.1992459962961
 30
0.0
 40
1.3
100
AcDbArc
 50
1.105704289524135
 51
90.0
  0
LINE
  5
EF7C873E0
330
EF7C85532
100
AcDbEntity
  8
JISSEN
100
AcDbLine
 10
107.8375358041183
 20
197.4992459962961
 30
0.0
 11
109.000083438016
 21
197.4992459962961
 31
0.0
  0
LINE
  5
EF7C873E1
330
EF7C85532
100
AcDbEntity
  8
JISSEN
100
AcDbLine
 10
106.7537945557297
 20
197.4992459962961
 30
0.0
 11
107.5537945557297
 21
197.4992459962961
 31
0.0
  0
ARC
  5
EF7C873E2
330
EF7C85532
100
AcDbEntity
  8
JISSEN
100
AcDbCircle
 10
106.7537945557297
 20
197.6992459962961
 30
0.0
 40
0.2
100
AcDbArc
 50
185.314389558654
 51
270.0
  0
ARC
  5
EF7C873E3
330
EF7C85532
100
AcDbEntity
  8
JISSEN
100
AcDbCircle
 10
107.8375358041183
 20
197.5992459962972
 30
0.0
 40
0.1
100
AcDbArc
 50
180.8961572775653
 51
270.0
  0
LINE
  5
EF7C873E4
330
EF7C85532
100
AcDbEntity
  8
JISSEN
100
AcDbLine
 10
107.737206805666
 20
197.6194967231135
 30
0.0
 11
107.7375480357489
 21
197.597681970558
 31
0.0
  0
ARC
  5
EF7C873E5
330
EF7C85532
100
AcDbEntity
  8
JISSEN
100
AcDbCircle
 10
107.5537945557297
 20
197.6992459962961
 30
0.0
 40
0.2
100
AcDbArc
 50
185.1572134748245
 51
356.0823036285527
  0
LINE
  5
EF7C873E6
330
EF7C85532
100
AcDbEntity
  8
JISSEN
100
AcDbLine
 10
106.4192561791854
 20
199.1362942586905
 30
0.0
 11
106.5546542620586
 21
197.6807218650989
 31
0.0
  0
LINE
  5
EF7C873E7
330
EF7C85532
100
AcDbEntity
  8
JISSEN
100
AcDbLine
 10
107.3546041952829
 20
197.6812682237668
 30
0.0
 11
107.2070535757836
 21
199.3161015177362
 31
0.0
  0
LINE
  5
EF7C873E8
330
EF7C85532
100
AcDbEntity
  8
JISSEN
100
AcDbLine
 10
107.8716018287696
 20
199.4126351659826
 30
0.0
 11
107.7533272005397
 21
197.68558130987
 31
0.0
  0
ARC
  5
EF7C873E9
330
EF7C85532
100
AcDbEntity
  8
JISSEN
100
AcDbCircle
 10
108.500083438016
 20
200.0049012631567
 30
0.0
 40
0.5
100
AcDbArc
 50
0.0
 51
83.00000000000057
  0
ARC
  5
EF7C873EA
330
EF7C85532
100
AcDbEntity
  8
JISSEN
100
AcDbCircle
 10
108.8375358041184
 20
197.5992459962927
 30
0.0
 40
0.1
100
AcDbArc
 50
181.1057042895208
 51
270.0
  0
LINE
  5
EF7C873EB
330
EF7C85532
100
AcDbEntity
  8
JISSEN
100
AcDbLine
 10
108.7375544245286
 20
197.5973162980336
 30
0.0
 11
108.7061520821866
 21
199.2243320736639
 31
0.0
  0
LINE
  5
EF7C873EC
330
EF7C85532
100
AcDbEntity
  8
JISSEN
100
AcDbLine
 10
109.000083438016
 20
197.4992459962961
 30
0.0
 11
109.000083438016
 21
200.0049012631567
 31
0.0
  0
LWPOLYLINE
  5
EF7C873F5
330
EF7C85532
100
AcDbEntity
  8
NITEN
100
AcDbPolyline
 90
        5
 70
     0
 43
0.0
 10
73.00008343801606
 20
105.3886970905724
 10
73.00008343801606
 20
84.55097943942655
 42
-0.5882352941176475
 10
90.00008343801606
 20
84.55097943942655
 42
0.5882352941176476
 10
107.000083438016
 20
84.55097943942684
 10
107.000083438016
 20
105.3886970905724
  0
LWPOLYLINE
  5
EF7C873F6
330
EF7C85532
100
AcDbEntity
  8
NITEN
100
AcDbPolyline
 90
        2
 70
     0
 43
0.0
 10
73.00008343801597
 20
84.55097943942655
 42
0.5882352941176294
 10
90.00008343801608
 20
84.55097943942627
 42
0.5882352941176294
  0
LWPOLYLINE
  5
EF7C873FD
330
EF7C85532
100
AcDbEntity
  8
NITEN
100
AcDbPolyline
 90
       15
 70
     1
 43
0.0
 10
104.000083438016
 20
145.8886970905723
 42
0.4142135623730927
 10
102.5000834380161
 20
147.3886970905723
 10
79.40603226701954
 20
147.3886970905723
 10
77.50008343801606
 20
147.3886970905723
 42
0.4142135623730925
 10
76.00008343801606
 20
145.8886970905723
 10
76.00008343801606
 20
134.8426810643544
 42
-0.4142135623730943
 10
71.00008343801606
 20
129.8426810643544
 42
0.4142135623730951
 10
69.00008343801606
 20
127.8426810643544
 10
69.00008343801612
 20
107.3886970905724
 42
0.4142135623730948
 10
71.00008343801606
 20
105.3886970905724
 10
109.000083438016
 20
105.3886970905724
 42
0.4142135623730951
 10
111.000083438016
 20
107.3886970905724
 10
111.000083438016
 20
127.8426810643544
 42
0.4142135623730951
 10
109.000083438016
 20
129.8426810643544
 42
-0.4142135623730961
 10
104.000083438016
 20
134.8426810643544
  0
TEXT
  5
EF7C879FF
330
EF7C85532
100
AcDbEntity
  8
SUNPOU
100
AcDbText
 10
110.4619766492282
 20
224.3142464068935
 30
0.0
 40
4.5
  1
1
  7
K
 72
     4
 11
112.2834052206567
 21
226.5642464068935
 31
0.0
100
AcDbText
  0
CIRCLE
  5
EF7C87A00
330
EF7C85532
100
AcDbEntity
  8
SUNPOU
100
AcDbCircle
 10
112.2834052206567
 20
226.5642464068935
 30
0.0
 40
6.0
  0
LINE
  5
EF7C87A02
330
EF7C85532
100
AcDbEntity
  8
SUNPOU
100
AcDbLine
 10
100.000083438016
 20
201.2992459962961
 30
0.0
 11
109.6599510902687
 21
221.1681840994558
 31
0.0
  0
INSERT
  5
EF7C87A03
330
EF7C85532
100
AcDbEntity
  8
SUNPOU
100
AcDbBlockReference
  2
ARROW
 10
100.000083438016
 20
201.2992459962961
 30
0.0
 41
1.500000000000002
 42
1.5
 43
1.5
 50
244.0719355263534
  0
INSERT
  5
EF7C87C98
330
EF7C85532
100
AcDbEntity
  8
WAKU
100
AcDbBlockReference
  2
WAKU
 10
180.999999276
 20
0.0
 30
0.0
 41
181.0
 42
283.0
 43
181.0
  0
LWPOLYLINE
  5
EF7C87C9B
330
EF7C85532
100
AcDbEntity
  8
NITEN
100
AcDbPolyline
 90
       15
 70
     1
 43
0.0
 10
285.0000827140161
 20
145.8886970905723
 42
0.4142135623730927
 10
283.5000827140161
 20
147.3886970905723
 10
260.4060315430195
 20
147.3886970905723
 10
258.5000827140161
 20
147.3886970905723
 42
0.4142135623730925
 10
257.0000827140161
 20
145.8886970905723
 10
257.0000827140161
 20
134.8426810643544
 42
-0.4142135623730943
 10
252.000082714016
 20
129.8426810643544
 42
0.4142135623730951
 10
250.000082714016
 20
127.8426810643544
 10
250.0000827140161
 20
107.3886970905724
 42
0.4142135623730948
 10
252.000082714016
 20
105.3886970905724
 10
290.0000827140161
 20
105.3886970905724
 42
0.4142135623730951
 10
292.0000827140161
 20
107.3886970905724
 10
292.0000827140161
 20
127.8426810643544
 42
0.4142135623730951
 10
290.0000827140161
 20
129.8426810643544
 42
-0.4142135623730961
 10
285.0000827140161
 20
134.8426810643544
  0
LINE
  5
EF7C87C9C
330
EF7C85532
100
AcDbEntity
  8
JISSEN
100
AcDbLine
 10
281.6635970683419
 20
149.6114078781873
 30
0.0
 11
281.2781369419283
 21
137.2773002242083
 31
0.0
  0
LINE
  5
EF7C87C9D
330
EF7C85532
100
AcDbEntity
  8
SAISEN
100
AcDbLine
 10
280.0786511372904
 20
136.0778144195705
 30
0.0
 11
280.5135770422761
 21
149.9947478868761
 31
0.0
  0
LINE
  5
EF7C87C9E
330
EF7C85532
100
AcDbEntity
  8
SAISEN
100
AcDbLine
 10
261.9215142907417
 20
136.0778144195705
 30
0.0
 11
261.486588385756
 21
149.9947478868761
 31
0.0
  0
LINE
  5
EF7C87C9F
330
EF7C85532
100
AcDbEntity
  8
JISSEN
100
AcDbLine
 10
260.3365683596901
 20
149.6114078781873
 30
0.0
 11
260.7220284861039
 21
137.2773002242083
 31
0.0
  0
LWPOLYLINE
  5
EF7C87CA6
330
EF7C85532
100
AcDbEntity
  8
NITEN
100
AcDbPolyline
 90
        5
 70
     0
 43
0.0
 10
254.000082714016
 20
105.3886970905724
 10
254.000082714016
 20
84.55097943942655
 42
-0.5882352941176475
 10
271.0000827140161
 20
84.55097943942655
 42
0.5882352941176476
 10
288.0000827140161
 20
84.55097943942684
 10
288.0000827140161
 20
105.3886970905724
  0
LWPOLYLINE
  5
EF7C87CA7
330
EF7C85532
100
AcDbEntity
  8
NITEN
100
AcDbPolyline
 90
        2
 70
     0
 43
0.0
 10
254.0000827140159
 20
84.55097943942655
 42
0.5882352941176294
 10
271.0000827140161
 20
84.55097943942627
 42
0.5882352941176294
  0
LINE
  5
EF7C87CA8
330
EF7C85532
100
AcDbEntity
  8
JISSEN
100
AcDbLine
 10
260.7220284861039
 20
137.2773002242083
 30
0.0
 11
281.2781369419283
 21
137.2773002242083
 31
0.0
  0
LINE
  5
EF7C87CA9
330
EF7C85532
100
AcDbEntity
  8
JISSEN
100
AcDbLine
 10
279.5000827140161
 20
135.4992459962961
 30
0.0
 11
271.0000827140161
 21
135.4992459962961
 31
0.0
  0
LINE
  5
EF7C87CAA
330
EF7C85532
100
AcDbEntity
  8
JISSEN
100
AcDbLine
 10
262.5000827140161
 20
135.4992459962961
 30
0.0
 11
271.0000827140161
 21
135.4992459962961
 31
0.0
  0
LINE
  5
EF7C87CAB
330
EF7C85532
100
AcDbEntity
  8
JISSEN
100
AcDbLine
 10
262.5000827140161
 20
135.4992459962961
 30
0.0
 11
260.7220284861039
 21
137.2773002242083
 31
0.0
  0
LINE
  5
EF7C87CAC
330
EF7C85532
100
AcDbEntity
  8
JISSEN
100
AcDbLine
 10
279.5000827140161
 20
135.4992459962961
 30
0.0
 11
281.2781369419283
 21
137.2773002242083
 31
0.0
  0
ARC
  5
EF7C87CAD
330
EF7C85532
100
AcDbEntity
  8
JISSEN
100
AcDbCircle
 10
266.0000827140161
 20
167.4992459962961
 30
0.0
 40
17.0
100
AcDbArc
 50
180.0
 51
250.2500772043573
  0
ARC
  5
EF7C87CAE
330
EF7C85532
100
AcDbEntity
  8
JISSEN
100
AcDbCircle
 10
279.0000827140161
 20
167.4992459962961
 30
0.0
 40
30.0
100
AcDbArc
 50
139.7809012554448
 51
180.0
  0
ARC
  5
EF7C87CB1
330
EF7C85532
100
AcDbEntity
  8
JISSEN
100
AcDbCircle
 10
263.0000827140161
 20
167.4992459962961
 30
0.0
 40
24.0
100
AcDbArc
 50
0.0
 51
57.81811607959579
  0
ARC
  5
EF7C87CB2
330
EF7C85532
100
AcDbEntity
  8
JISSEN
100
AcDbCircle
 10
263.0000827140161
 20
167.4992459962961
 30
0.0
 40
30.0
100
AcDbArc
 50
0.0
 51
40.21909874455518
  0
ARC
  5
EF7C87CB4
330
EF7C85532
100
AcDbEntity
  8
JISSEN
100
AcDbCircle
 10
279.0000827140161
 20
167.4992459962961
 30
0.0
 40
24.0
100
AcDbArc
 50
122.1818839204042
 51
180.0
  0
LINE
  5
EF7C87CB8
330
EF7C85532
100
AcDbEntity
  8
JISSEN
100
AcDbLine
 10
281.7446453605541
 20
151.4992459962961
 30
0.0
 11
274.0000827140161
 21
151.4992459962961
 31
0.0
  0
TEXT
  5
EF7C87CB9
330
EF7C85532
100
AcDbEntity
  8
JISSEN
100
AcDbText
 10
275.4822983373509
 20
152.0405774626679
 30
0.0
 40
3.0
  1
D
  7
K
 72
     4
 11
277.0537269087794
 21
153.5405774626678
 31
0.0
100
AcDbText
  0
LINE
  5
EF7C87CBC
330
EF7C85532
100
AcDbEntity
  8
JISSEN
100
AcDbLine
 10
280.5000827140161
 20
149.9992459962961
 30
0.0
 11
271.0000827140161
 21
149.9992459962961
 31
0.0
  0
LINE
  5
EF7C87CBD
330
EF7C85532
100
AcDbEntity
  8
JISSEN
100
AcDbLine
 10
278.5000827140161
 20
157.2992459962962
 30
0.0
 11
272.5000827140161
 21
157.2992459962962
 31
0.0
  0
LINE
  5
EF7C87CBE
330
EF7C85532
100
AcDbEntity
  8
JISSEN
100
AcDbLine
 10
281.6635970683419
 20
149.6114078781874
 30
0.0
 11
271.0000827140161
 21
149.6114078781874
 31
0.0
  0
LINE
  5
EF7C87CC0
330
EF7C85532
100
AcDbEntity
  8
JISSEN
100
AcDbLine
 10
279.1995442012488
 20
155.4992459962961
 30
0.0
 11
272.5000827140161
 21
155.4992459962961
 31
0.0
  0
ARC
  5
EF7C87CC5
330
EF7C85532
100
AcDbEntity
  8
JISSEN
100
AcDbCircle
 10
266.0000827140161
 20
167.4992459962961
 30
0.0
 40
15.0
100
AcDbArc
 50
180.0
 51
233.31701119964
  0
ARC
  5
EF7C87CC6
330
EF7C85532
100
AcDbEntity
  8
JISSEN
100
AcDbCircle
 10
263.7888359304937
 20
168.1009037191408
 30
0.0
 40
10.80551655320168
100
AcDbArc
 50
183.1919145761251
 51
268.4687163963806
  0
ARC
  5
EF7C87CC7
330
EF7C85532
100
AcDbEntity
  8
JISSEN
100
AcDbCircle
 10
265.9393877616919
 20
168.6531979337245
 30
0.0
 40
11.0
100
AcDbArc
 50
186.0216771926338
 51
255.1597851614818
  0
LINE
  5
EF7C87CC8
330
EF7C85532
100
AcDbEntity
  8
JISSEN
100
AcDbLine
 10
262.8006212267832
 20
155.4992459962961
 30
0.0
 11
269.5000827140161
 21
155.4992459962961
 31
0.0
  0
LINE
  5
EF7C87CC9
330
EF7C85532
100
AcDbEntity
  8
JISSEN
100
AcDbLine
 10
260.3365683596901
 20
149.6114078781874
 30
0.0
 11
271.0000827140161
 21
149.6114078781874
 31
0.0
  0
LINE
  5
EF7C87CCA
330
EF7C85532
100
AcDbEntity
  8
JISSEN
100
AcDbLine
 10
261.5000827140161
 20
149.9992459962961
 30
0.0
 11
271.0000827140161
 21
149.9992459962961
 31
0.0
  0
LINE
  5
EF7C87CCB
330
EF7C85532
100
AcDbEntity
  8
JISSEN
100
AcDbLine
 10
260.2555200674779
 20
151.4992459962961
 30
0.0
 11
268.0000827140161
 21
151.4992459962961
 31
0.0
  0
LINE
  5
EF7C87CCC
330
EF7C85532
100
AcDbEntity
  8
JISSEN
100
AcDbLine
 10
262.8006212267832
 20
151.4992459962961
 30
0.0
 11
262.8006212267832
 21
155.4992459962961
 31
0.0
  0
ARC
  5
EF7C87CCD
330
EF7C85532
100
AcDbEntity
  8
JISSEN
100
AcDbCircle
 10
257.1123341823478
 20
148.3561286679198
 30
0.0
 40
6.498907295833106
100
AcDbArc
 50
39.10096087449549
 51
75.32091994780239
  0
LINE
  5
EF7C87CCE
330
EF7C85532
100
AcDbEntity
  8
JISSEN
100
AcDbLine
 10
261.5000827140161
 20
151.4992459962961
 30
0.0
 11
261.5000827140161
 21
149.9992459962961
 31
0.0
  0
LINE
  5
EF7C87CCF
330
EF7C85532
100
AcDbEntity
  8
JISSEN
100
AcDbLine
 10
260.3365683596901
 20
149.6114078781874
 30
0.0
 11
261.5000827140161
 21
149.9992459962961
 31
0.0
  0
ARC
  5
EF7C87CD0
330
EF7C85532
100
AcDbEntity
  8
JISSEN
100
AcDbCircle
 10
260.0262119910913
 20
159.4797155495815
 30
0.0
 40
5.0
100
AcDbArc
 50
233.31701119964
 51
255.3209199478024
  0
LINE
  5
EF7C87CD2
330
EF7C85532
100
AcDbEntity
  8
JISSEN
100
AcDbLine
 10
275.0000827140159
 20
155.4992459962961
 30
0.0
 11
275.0000827140159
 21
151.4992459962961
 31
0.0
  0
LINE
  5
EF7C87CD4
330
EF7C85532
100
AcDbEntity
  8
JISSEN
100
AcDbLine
 10
267.000082714016
 20
155.4992459962961
 30
0.0
 11
267.000082714016
 21
151.4992459962961
 31
0.0
  0
LINE
  5
EF7C87CD6
330
EF7C85532
100
AcDbEntity
  8
JISSEN
100
AcDbLine
 10
268.0000827140161
 20
149.9992459962961
 30
0.0
 11
268.0000827140161
 21
151.4992459962961
 31
0.0
  0
LINE
  5
EF7C87CD7
330
EF7C85532
100
AcDbEntity
  8
JISSEN
100
AcDbLine
 10
274.0000827140161
 20
151.4992459962961
 30
0.0
 11
274.0000827140161
 21
149.9992459962961
 31
0.0
  0
LINE
  5
EF7C87CDD
330
EF7C85532
100
AcDbEntity
  8
JISSEN
100
AcDbLine
 10
263.5000827140161
 20
157.2992459962962
 30
0.0
 11
269.5000827140161
 21
157.2992459962962
 31
0.0
  0
LINE
  5
EF7C87CDE
330
EF7C85532
100
AcDbEntity
  8
JISSEN
100
AcDbLine
 10
263.5000827140161
 20
155.4992459962961
 30
0.0
 11
263.5000827140161
 21
157.2992459962962
 31
0.0
  0
LINE
  5
EF7C87CE1
330
EF7C85532
100
AcDbEntity
  8
JISSEN
100
AcDbLine
 10
269.5000827140161
 20
155.4992459962961
 30
0.0
 11
269.5000827140161
 21
157.2992459962962
 31
0.0
  0
LINE
  5
EF7C87CEB
330
EF7C85532
100
AcDbEntity
  8
JISSEN
100
AcDbLine
 10
272.5000827140161
 20
157.2992459962962
 30
0.0
 11
272.5000827140161
 21
155.4992459962961
 31
0.0
  0
ARC
  5
EF7C87CF3
330
EF7C85532
100
AcDbEntity
  8
JISSEN
100
AcDbCircle
 10
279.0000827140161
 20
167.4992459962961
 30
0.0
 40
26.0
100
AcDbArc
 50
156.1811586065437
 51
180.0
  0
ARC
  5
EF7C87CF4
330
EF7C85532
100
AcDbEntity
  8
JISSEN
100
AcDbCircle
 10
279.0000827140161
 20
167.4992459962961
 30
0.0
 40
28.0
100
AcDbArc
 50
157.9756871629579
 51
180.0
  0
ARC
  5
EF7C87D40
330
EF7C85532
100
AcDbEntity
  8
JISSEN
100
AcDbCircle
 10
276.0000827140161
 20
167.4992459962961
 30
0.0
 40
17.0
100
AcDbArc
 50
289.7499227956426
 51
0.0
  0
ARC
  5
EF7C87D41
330
EF7C85532
100
AcDbEntity
  8
JISSEN
100
AcDbCircle
 10
276.0607776663403
 20
168.6531979337245
 30
0.0
 40
11.0
100
AcDbArc
 50
284.8402148385181
 51
353.9783228073661
  0
ARC
  5
EF7C87D42
330
EF7C85532
100
AcDbEntity
  8
JISSEN
100
AcDbCircle
 10
278.2113294975383
 20
168.1009037191408
 30
0.0
 40
10.80551655320168
100
AcDbArc
 50
271.5312836036177
 51
356.808085423874
  0
ARC
  5
EF7C87D43
330
EF7C85532
100
AcDbEntity
  8
JISSEN
100
AcDbCircle
 10
276.0000827140161
 20
167.4992459962961
 30
0.0
 40
15.0
100
AcDbArc
 50
306.6829888003599
 51
0.0
  0
LINE
  5
EF7C87D44
330
EF7C85532
100
AcDbEntity
  8
JISSEN
100
AcDbLine
 10
279.1995442012488
 20
151.4992459962961
 30
0.0
 11
279.1995442012488
 21
155.4992459962961
 31
0.0
  0
ARC
  5
EF7C87D45
330
EF7C85532
100
AcDbEntity
  8
JISSEN
100
AcDbCircle
 10
284.8878312456844
 20
148.3561286679198
 30
0.0
 40
6.498907295833106
100
AcDbArc
 50
104.6790800521975
 51
140.8990391255045
  0
LINE
  5
EF7C87D46
330
EF7C85532
100
AcDbEntity
  8
JISSEN
100
AcDbLine
 10
281.6635970683419
 20
149.6114078781874
 30
0.0
 11
280.5000827140161
 21
149.9992459962961
 31
0.0
  0
LINE
  5
EF7C87D47
330
EF7C85532
100
AcDbEntity
  8
JISSEN
100
AcDbLine
 10
280.5000827140161
 20
151.4992459962961
 30
0.0
 11
280.5000827140161
 21
149.9992459962961
 31
0.0
  0
ARC
  5
EF7C87D48
330
EF7C85532
100
AcDbEntity
  8
JISSEN
100
AcDbCircle
 10
281.9739534369407
 20
159.4797155495815
 30
0.0
 40
5.0
100
AcDbArc
 50
284.6790800521976
 51
306.6829888003599
  0
LINE
  5
EF7C87D4A
330
EF7C85532
100
AcDbEntity
  8
JISSEN
100
AcDbLine
 10
278.5000827140161
 20
155.4992459962961
 30
0.0
 11
278.5000827140161
 21
157.2992459962962
 31
0.0
  0
ARC
  5
EF7C87D4D
330
EF7C85532
100
AcDbEntity
  8
JISSEN
100
AcDbCircle
 10
263.0000827140161
 20
167.4992459962961
 30
0.0
 40
28.0
100
AcDbArc
 50
0.0
 51
22.02431283704207
  0
ARC
  5
EF7C87D50
330
EF7C85532
100
AcDbEntity
  8
JISSEN
100
AcDbCircle
 10
263.0000827140161
 20
167.4992459962961
 30
0.0
 40
26.0
100
AcDbArc
 50
0.0
 51
23.81884139345626
  0
ARC
  5
EF7C87D5C
330
EF7C85532
100
AcDbEntity
  8
JISSEN
100
AcDbCircle
 10
276.1665336700307
 20
199.1992459962961
 30
0.0
 40
1.3
100
AcDbArc
 50
12.32083218587817
 51
89.99999999999836
  0
ARC
  5
EF7C87D5D
330
EF7C85532
100
AcDbEntity
  8
JISSEN
100
AcDbCircle
 10
276.2921805214772
 20
198.4992459962961
 30
0.0
 40
1.0
100
AcDbArc
 50
20.03172652528407
 51
90.0
  0
LINE
  5
EF7C87D5E
330
EF7C85532
100
AcDbEntity
  8
JISSEN
100
AcDbLine
 10
285.9075076721219
 20
186.8706135729218
 30
0.0
 11
275.7439811325015
 21
198.8893944150655
 31
0.0
  0
LINE
  5
EF7C87D5F
330
EF7C85532
100
AcDbEntity
  8
JISSEN
100
AcDbLine
 10
271.0000827140161
 20
201.2992459962961
 30
0.0
 11
283.0000827140159
 21
201.2992459962961
 31
0.0
  0
LINE
  5
EF7C87D60
330
EF7C85532
100
AcDbEntity
  8
JISSEN
100
AcDbLine
 10
263.239588552625
 20
197.8973588462726
 30
0.0
 11
262.9134736776917
 21
199.4641525863575
 31
0.0
  0
LINE
  5
EF7C87D61
330
EF7C85532
100
AcDbEntity
  8
JISSEN
100
AcDbLine
 10
263.2500827140161
 20
201.2992459962961
 30
0.0
 11
259.0000827140161
 21
201.2992459962961
 31
0.0
  0
ARC
  5
EF7C87D62
330
EF7C85532
100
AcDbEntity
  8
JISSEN
100
AcDbCircle
 10
261.6407504169072
 20
199.1992459962961
 30
0.0
 40
1.3
100
AcDbArc
 50
11.75775714726694
 51
90.0
  0
LINE
  5
EF7C87D63
330
EF7C85532
100
AcDbEntity
  8
JISSEN
100
AcDbLine
 10
256.0926577559101
 20
186.8706135729218
 30
0.0
 11
266.2561842955306
 21
198.8893944150655
 31
0.0
  0
LINE
  5
EF7C87D64
330
EF7C85532
100
AcDbEntity
  8
JISSEN
100
AcDbLine
 10
256.5263692484836
 20
197.4992459962961
 30
0.0
 11
255.9263692484837
 21
197.4992459962961
 31
0.0
  0
ARC
  5
EF7C87D65
330
EF7C85532
100
AcDbEntity
  8
JISSEN
100
AcDbCircle
 10
255.9263692484837
 20
197.7992459962964
 30
0.0
 40
0.3
100
AcDbArc
 50
187.6479080429014
 51
351.2564626852231
  0
LINE
  5
EF7C87D66
330
EF7C85532
100
AcDbEntity
  8
JISSEN
100
AcDbLine
 10
252.4391480423135
 20
200.5011743389773
 30
0.0
 11
258.8782133706108
 21
201.2917921479374
 31
0.0
  0
ARC
  5
EF7C87D67
330
EF7C85532
100
AcDbEntity
  8
JISSEN
100
AcDbCircle
 10
253.5937720045096
 20
199.1992459962961
 30
0.0
 40
1.3
100
AcDbArc
 50
90.0
 51
178.8942957104758
  0
LINE
  5
EF7C87D68
330
EF7C85532
100
AcDbEntity
  8
JISSEN
100
AcDbLine
 10
253.1626303479137
 20
197.4992459962961
 30
0.0
 11
252.000082714016
 21
197.4992459962961
 31
0.0
  0
ARC
  5
EF7C87D69
330
EF7C85532
100
AcDbEntity
  8
JISSEN
100
AcDbCircle
 10
252.500082714016
 20
200.0049012631567
 30
0.0
 40
0.5
100
AcDbArc
 50
96.99999999999944
 51
179.9999999999991
  0
LINE
  5
EF7C87D6A
330
EF7C85532
100
AcDbEntity
  8
JISSEN
100
AcDbLine
 10
252.000082714016
 20
197.4992459962961
 30
0.0
 11
252.000082714016
 21
200.0049012631567
 31
0.0
  0
LINE
  5
EF7C87D6B
330
EF7C85532
100
AcDbEntity
  8
JISSEN
100
AcDbLine
 10
252.2626117275034
 20
197.5973162980336
 30
0.0
 11
252.2940140698455
 21
199.2243320736639
 31
0.0
  0
ARC
  5
EF7C87D6C
330
EF7C85532
100
AcDbEntity
  8
JISSEN
100
AcDbCircle
 10
252.1626303479136
 20
197.5992459962927
 30
0.0
 40
0.1
100
AcDbArc
 50
270.0
 51
358.8942957104782
  0
LINE
  5
EF7C87D6D
330
EF7C85532
100
AcDbEntity
  8
JISSEN
100
AcDbLine
 10
255.4070313915772
 20
199.4126351659817
 30
0.0
 11
255.6290378663323
 21
197.7593204507382
 31
0.0
  0
ARC
  5
EF7C87D6E
330
EF7C85532
100
AcDbEntity
  8
JISSEN
100
AcDbCircle
 10
255.9263692484837
 20
197.7992459962964
 30
0.0
 40
0.3
100
AcDbArc
 50
186.0956014599831
 51
187.6479080429014
  0
LINE
  5
EF7C87D6F
330
EF7C85532
100
AcDbEntity
  8
JISSEN
100
AcDbLine
 10
254.5809099728467
 20
199.1362942586905
 30
0.0
 11
254.4455118899734
 21
197.6807218650989
 31
0.0
  0
LINE
  5
EF7C87D70
330
EF7C85532
100
AcDbEntity
  8
JISSEN
100
AcDbLine
 10
253.6455619567491
 20
197.6812682237668
 30
0.0
 11
253.7931125762484
 21
199.3161015177362
 31
0.0
  0
ARC
  5
EF7C87D71
330
EF7C85532
100
AcDbEntity
  8
JISSEN
100
AcDbCircle
 10
254.2463715963024
 20
197.6992459962961
 30
0.0
 40
0.2
100
AcDbArc
 50
270.0
 51
354.6856104413459
  0
ARC
  5
EF7C87D72
330
EF7C85532
100
AcDbEntity
  8
JISSEN
100
AcDbCircle
 10
254.9791905601887
 20
199.0992459962962
 30
0.0
 40
0.4
100
AcDbArc
 50
90.00000000000161
 51
174.6856104413451
  0
ARC
  5
EF7C87D73
330
EF7C85532
100
AcDbEntity
  8
JISSEN
100
AcDbCircle
 10
253.1626303479137
 20
197.5992459962972
 30
0.0
 40
0.1
100
AcDbArc
 50
270.0
 51
359.1038427224347
  0
LINE
  5
EF7C87D74
330
EF7C85532
100
AcDbEntity
  8
JISSEN
100
AcDbLine
 10
253.1285643232624
 20
199.4126351659826
 30
0.0
 11
253.2468389514923
 21
197.68558130987
 31
0.0
  0
LINE
  5
EF7C87D75
330
EF7C85532
100
AcDbEntity
  8
JISSEN
100
AcDbLine
 10
253.262959346366
 20
197.6194967231135
 30
0.0
 11
253.2626181162831
 21
197.597681970558
 31
0.0
  0
ARC
  5
EF7C87D76
330
EF7C85532
100
AcDbEntity
  8
JISSEN
100
AcDbCircle
 10
254.3690486823602
 20
199.5130382443607
 30
0.0
 40
1.244540968917422
100
AcDbArc
 50
127.5871082537664
 51
184.6273535933104
  0
ARC
  5
EF7C87D77
330
EF7C85532
100
AcDbEntity
  8
JISSEN
100
AcDbCircle
 10
253.4463715963024
 20
197.6992459962961
 30
0.0
 40
0.2
100
AcDbArc
 50
183.9176963714471
 51
354.8427865251754
  0
LINE
  5
EF7C87D78
330
EF7C85532
100
AcDbEntity
  8
JISSEN
100
AcDbLine
 10
254.2463715963024
 20
197.4992459962961
 30
0.0
 11
253.4463715963024
 21
197.4992459962961
 31
0.0
  0
ARC
  5
EF7C87D79
330
EF7C85532
100
AcDbEntity
  8
JISSEN
100
AcDbCircle
 10
255.087849919152
 20
199.1992459962961
 30
0.0
 40
1.3
100
AcDbArc
 50
90.0
 51
174.8427865251746
  0
LINE
  5
EF7C87D7A
330
EF7C85532
100
AcDbEntity
  8
JISSEN
100
AcDbLine
 10
254.9791905601887
 20
199.4992459962961
 30
0.0
 11
255.4040114278286
 21
199.4992459962961
 31
0.0
  0
LINE
  5
EF7C87D7B
330
EF7C85532
100
AcDbEntity
  8
JISSEN
100
AcDbLine
 10
255.087849919152
 20
200.4992459962961
 30
0.0
 11
255.8446381478003
 21
200.4992459962961
 31
0.0
  0
ARC
  5
EF7C87D7C
330
EF7C85532
100
AcDbEntity
  8
JISSEN
100
AcDbCircle
 10
256.7508902100454
 20
199.5028511694648
 30
0.0
 40
1.346883607168649
100
AcDbArc
 50
132.287494158842
 51
183.8406207871296
  0
LINE
  5
EF7C87D7D
330
EF7C85532
100
AcDbEntity
  8
JISSEN
100
AcDbLine
 10
259.833615562851
 20
197.4992459962961
 30
0.0
 11
259.433615562851
 21
197.4992459962961
 31
0.0
  0
ARC
  5
EF7C87D7E
330
EF7C85532
100
AcDbEntity
  8
JISSEN
100
AcDbCircle
 10
259.433615562851
 20
197.8992459962959
 30
0.0
 40
0.4
100
AcDbArc
 50
190.436221658696
 51
348.7010440842461
  0
LINE
  5
EF7C87D7F
330
EF7C85532
100
AcDbEntity
  8
JISSEN
100
AcDbLine
 10
257.6986865077019
 20
199.4992459962961
 30
0.0
 11
258.7329217588981
 21
199.4992459962961
 31
0.0
  0
LINE
  5
EF7C87D80
330
EF7C85532
100
AcDbEntity
  8
JISSEN
100
AcDbLine
 10
257.7605009754539
 20
200.4992459962961
 30
0.0
 11
258.6257140432564
 21
200.4992459962961
 31
0.0
  0
ARC
  5
EF7C87D81
330
EF7C85532
100
AcDbEntity
  8
JISSEN
100
AcDbCircle
 10
266.7688964665334
 20
200.8665112348023
 30
0.0
 40
8.151460220977577
100
AcDbArc
 50
182.5823439498852
 51
190.274117728383
  0
LINE
  5
EF7C87D82
330
EF7C85532
100
AcDbEntity
  8
JISSEN
100
AcDbLine
 10
257.1135451604721
 20
199.0319471785141
 30
0.0
 11
256.8189399220985
 21
197.7328954051874
 31
0.0
  0
LINE
  5
EF7C87D83
330
EF7C85532
100
AcDbEntity
  8
JISSEN
100
AcDbLine
 10
256.2228828473711
 20
197.7536424254408
 30
0.0
 11
256.475608713608
 21
199.3968614700034
 31
0.0
  0
ARC
  5
EF7C87D84
330
EF7C85532
100
AcDbEntity
  8
JISSEN
100
AcDbCircle
 10
256.5263692484836
 20
197.7992459962964
 30
0.0
 40
0.3
100
AcDbArc
 50
270.0
 51
347.2223180644385
  0
ARC
  5
EF7C87D85
330
EF7C85532
100
AcDbEntity
  8
JISSEN
100
AcDbCircle
 10
257.7605009754539
 20
199.1992459962961
 30
0.0
 40
1.3
100
AcDbArc
 50
90.0
 51
171.2564626852239
  0
ARC
  5
EF7C87D86
330
EF7C85532
100
AcDbEntity
  8
JISSEN
100
AcDbCircle
 10
257.6986865077019
 20
198.8992459962961
 30
0.0
 40
0.6
100
AcDbArc
 50
90.0
 51
167.2223180644369
  0
LINE
  5
EF7C87D87
330
EF7C85532
100
AcDbEntity
  8
JISSEN
100
AcDbLine
 10
259.0402327018989
 20
197.826789632122
 30
0.0
 11
258.7481391387808
 21
199.4126351659835
 31
0.0
  0
LINE
  5
EF7C87D88
330
EF7C85532
100
AcDbEntity
  8
JISSEN
100
AcDbLine
 10
261.4269568033762
 20
200.4992459962961
 30
0.0
 11
261.6407504169072
 21
200.4992459962961
 31
0.0
  0
LINE
  5
EF7C87D89
330
EF7C85532
100
AcDbEntity
  8
JISSEN
100
AcDbLine
 10
260.5958063026105
 20
198.9471230171552
 30
0.0
 11
260.2139302294529
 21
197.7753074858664
 31
0.0
  0
LINE
  5
EF7C87D8A
330
EF7C85532
100
AcDbEntity
  8
JISSEN
100
AcDbLine
 10
259.8258628544723
 20
197.8208746863937
 30
0.0
 11
260.1521531056071
 21
199.4539527534784
 31
0.0
  0
ARC
  5
EF7C87D8B
330
EF7C85532
100
AcDbEntity
  8
JISSEN
100
AcDbCircle
 10
259.833615562851
 20
197.8992459962959
 30
0.0
 40
0.4
100
AcDbArc
 50
270.0
 51
341.9500333794147
  0
ARC
  5
EF7C87D8C
330
EF7C85532
100
AcDbEntity
  8
JISSEN
100
AcDbCircle
 10
261.3564356358142
 20
198.6992459962961
 30
0.0
 40
0.8
100
AcDbArc
 50
90.0
 51
161.9500333794132
  0
ARC
  5
EF7C87D8D
330
EF7C85532
100
AcDbEntity
  8
JISSEN
100
AcDbCircle
 10
261.4269568033762
 20
199.1992459962961
 30
0.0
 40
1.3
100
AcDbArc
 50
90.0
 51
168.7010440842481
  0
LINE
  5
EF7C87D8E
330
EF7C85532
100
AcDbEntity
  8
JISSEN
100
AcDbLine
 10
261.3564356358142
 20
199.4992459962961
 30
0.0
 11
262.9056614809744
 21
199.4992459962961
 31
0.0
  0
ARC
  5
EF7C87D8F
330
EF7C85532
100
AcDbEntity
  8
JISSEN
100
AcDbCircle
 10
287.7500827140159
 20
193.4992459962961
 30
0.0
 40
12.49999999999999
100
AcDbArc
 50
163.739795291688
 51
196.2602047083119
  0
ARC
  5
EF7C87D90
330
EF7C85532
100
AcDbEntity
  8
JISSEN
100
AcDbCircle
 10
254.2500827140161
 20
193.4992459962961
 30
0.0
 40
12.49999999999999
100
AcDbArc
 50
343.7397952916881
 51
16.26020470831189
  0
LINE
  5
EF7C87D91
330
EF7C85532
100
AcDbEntity
  8
JISSEN
100
AcDbLine
 10
268.204088804802
 20
187.4992459962961
 30
0.0
 11
271.0000827140161
 21
187.4992459962961
 31
0.0
  0
ARC
  5
EF7C87D93
330
EF7C85532
100
AcDbEntity
  8
JISSEN
100
AcDbCircle
 10
266.7500827140161
 20
186.9655630593669
 30
0.0
 40
1.0
100
AcDbArc
 50
54.43667142405012
 51
122.1818839204028
  0
ARC
  5
EF7C87D95
330
EF7C85532
100
AcDbEntity
  8
JISSEN
100
AcDbCircle
 10
268.204088804802
 20
188.9992459962961
 30
0.0
 40
1.5
100
AcDbArc
 50
234.4366714240505
 51
270.0
  0
LINE
  5
EF7C87D98
330
EF7C85532
100
AcDbEntity
  8
JISSEN
100
AcDbLine
 10
273.7960766232301
 20
187.4992459962961
 30
0.0
 11
271.0000827140161
 21
187.4992459962961
 31
0.0
  0
ARC
  5
EF7C87D9B
330
EF7C85532
100
AcDbEntity
  8
JISSEN
100
AcDbCircle
 10
273.7960766232301
 20
188.9992459962961
 30
0.0
 40
1.5
100
AcDbArc
 50
270.0
 51
305.5633285759494
  0
ARC
  5
EF7C87D9C
330
EF7C85532
100
AcDbEntity
  8
JISSEN
100
AcDbCircle
 10
275.2500827140161
 20
186.9655630593669
 30
0.0
 40
1.0
100
AcDbArc
 50
57.81811607959717
 51
125.5633285759498
  0
ARC
  5
EF7C87D9D
330
EF7C85532
100
AcDbEntity
  8
JISSEN
100
AcDbCircle
 10
270.5677515352656
 20
198.2992459962961
 30
0.0
 40
1.199999999999999
100
AcDbArc
 50
90.0
 51
162.6940025391977
  0
ARC
  5
EF7C87D9E
330
EF7C85532
100
AcDbEntity
  8
JISSEN
100
AcDbCircle
 10
270.677950439724
 20
199.1992459962961
 30
0.0
 40
1.3
100
AcDbArc
 50
90.0
 51
168.6811662726061
  0
LINE
  5
EF7C87D9F
330
EF7C85532
100
AcDbEntity
  8
JISSEN
100
AcDbLine
 10
263.2500827140161
 20
201.2992459962961
 30
0.0
 11
271.0000827140161
 21
201.2992459962961
 31
0.0
  0
ARC
  5
EF7C87DA0
330
EF7C85532
100
AcDbEntity
  8
JISSEN
100
AcDbCircle
 10
266.3676851971256
 20
199.1992459962961
 30
0.0
 40
1.3
100
AcDbArc
 50
11.11380719249675
 51
90.0
  0
LINE
  5
EF7C87DA1
330
EF7C85532
100
AcDbEntity
  8
JISSEN
100
AcDbLine
 10
265.7079849065548
 20
199.4992459962961
 30
0.0
 11
267.6325962611932
 21
199.4992459962961
 31
0.0
  0
ARC
  5
EF7C87DA2
330
EF7C85532
100
AcDbEntity
  8
JISSEN
100
AcDbCircle
 10
265.8743938795621
 20
199.2122505413425
 30
0.0
 40
0.5
100
AcDbArc
 50
319.7809012554437
 51
6.703115329654639
  0
LINE
  5
EF7C87DA3
330
EF7C85532
100
AcDbEntity
  8
JISSEN
100
AcDbLine
 10
266.3709760317423
 20
199.2706129105205
 30
0.0
 11
266.3441052138932
 21
199.4992459962961
 31
0.0
  0
LINE
  5
EF7C87DA4
330
EF7C85532
100
AcDbEntity
  8
JISSEN
100
AcDbLine
 10
264.3988490436411
 20
197.8279757817736
 30
0.0
 11
264.7684818174329
 21
198.8417864253412
 31
0.0
  0
LINE
  5
EF7C87DA5
330
EF7C85532
100
AcDbEntity
  8
JISSEN
100
AcDbLine
 10
264.2175815261241
 20
197.8925531880885
 30
0.0
 11
264.5635732876879
 21
199.4766472976357
 31
0.0
  0
ARC
  5
EF7C87DA6
330
EF7C85532
100
AcDbEntity
  8
JISSEN
100
AcDbCircle
 10
265.8336317580014
 20
199.1992459962961
 30
0.0
 40
1.3
100
AcDbArc
 50
90.0
 51
167.6791678141218
  0
ARC
  5
EF7C87DA7
330
EF7C85532
100
AcDbEntity
  8
JISSEN
100
AcDbCircle
 10
265.7079849065548
 20
198.4992459962961
 30
0.0
 40
1.0
100
AcDbArc
 50
90.0
 51
159.9682734747159
  0
ARC
  5
EF7C87DA8
330
EF7C85532
100
AcDbEntity
  8
JISSEN
100
AcDbCircle
 10
265.0000827140161
 20
198.9526809784353
 30
0.0
 40
1.0
100
AcDbArc
 50
319.7809012554437
 51
333.0351766874621
  0
LINE
  5
EF7C87DA9
330
EF7C85532
100
AcDbEntity
  8
JISSEN
100
AcDbLine
 10
263.9290974990801
 20
197.4992459962961
 30
0.0
 11
263.7290974990802
 21
197.4992459962961
 31
0.0
  0
ARC
  5
EF7C87DAA
330
EF7C85532
100
AcDbEntity
  8
JISSEN
100
AcDbCircle
 10
263.9290974990801
 20
197.9992459962961
 30
0.0
 40
0.5
100
AcDbArc
 50
270.0
 51
339.9682734747166
  0
ARC
  5
EF7C87DAB
330
EF7C85532
100
AcDbEntity
  8
JISSEN
100
AcDbCircle
 10
263.7290974990802
 20
197.9992459962961
 30
0.0
 40
0.5
100
AcDbArc
 50
191.7577571472666
 51
347.679167814121
  0
LINE
  5
EF7C87DAC
330
EF7C85532
100
AcDbEntity
  8
JISSEN
100
AcDbLine
 10
266.3676851971255
 20
200.4992459962961
 30
0.0
 11
265.8336317580014
 21
200.4992459962961
 31
0.0
  0
ARC
  5
EF7C87DAD
330
EF7C85532
100
AcDbEntity
  8
JISSEN
100
AcDbCircle
 10
268.5200850618341
 20
198.0992459962966
 30
0.0
 40
0.6
100
AcDbArc
 50
191.113807192497
 51
348.6811662726061
  0
LINE
  5
EF7C87DAE
330
EF7C85532
100
AcDbEntity
  8
JISSEN
100
AcDbLine
 10
269.1929228616903
 20
197.9207611088247
 30
0.0
 11
269.422075935553
 21
198.6562157712398
 31
0.0
  0
LINE
  5
EF7C87DAF
330
EF7C85532
100
AcDbEntity
  8
JISSEN
100
AcDbLine
 10
269.108415179436
 20
197.9814849130741
 30
0.0
 11
269.4032351849185
 21
199.4543950099453
 31
0.0
  0
LINE
  5
EF7C87DB0
330
EF7C85532
100
AcDbEntity
  8
JISSEN
100
AcDbLine
 10
268.6200850618341
 20
197.4992459962961
 30
0.0
 11
268.5200850618341
 21
197.4992459962961
 31
0.0
  0
ARC
  5
EF7C87DB1
330
EF7C85532
100
AcDbEntity
  8
JISSEN
100
AcDbCircle
 10
268.6200850618341
 20
198.0992459962966
 30
0.0
 40
0.6
100
AcDbArc
 50
270.0
 51
342.6940025391978
  0
LINE
  5
EF7C87DB2
330
EF7C85532
100
AcDbEntity
  8
JISSEN
100
AcDbLine
 10
267.6433053109064
 20
199.4498319602246
 30
0.0
 11
267.9313373170121
 21
197.9835909360219
 31
0.0
  0
ARC
  5
EF7C87DB3
330
EF7C85532
100
AcDbEntity
  8
JISSEN
100
AcDbCircle
 10
273.4800803661979
 20
198.0992459962966
 30
0.0
 40
0.6
100
AcDbArc
 50
191.318833727393
 51
348.8861928075048
  0
LINE
  5
EF7C87DB4
330
EF7C85532
100
AcDbEntity
  8
JISSEN
100
AcDbLine
 10
273.4800803661979
 20
197.4992459962961
 30
0.0
 11
273.380080366198
 21
197.4992459962961
 31
0.0
  0
LINE
  5
EF7C87DB5
330
EF7C85532
100
AcDbEntity
  8
JISSEN
100
AcDbLine
 10
272.8072425663417
 20
197.9207611088247
 30
0.0
 11
272.5780894924791
 21
198.6562157712398
 31
0.0
  0
LINE
  5
EF7C87DB6
330
EF7C85532
100
AcDbEntity
  8
JISSEN
100
AcDbLine
 10
272.8917502485961
 20
197.9814849130741
 30
0.0
 11
272.5969302431135
 21
199.4543950099453
 31
0.0
  0
ARC
  5
EF7C87DB7
330
EF7C85532
100
AcDbEntity
  8
JISSEN
100
AcDbCircle
 10
271.4324138927664
 20
198.2992459962961
 30
0.0
 40
1.199999999999999
100
AcDbArc
 50
17.3059974608022
 51
90.0
  0
ARC
  5
EF7C87DB8
330
EF7C85532
100
AcDbEntity
  8
JISSEN
100
AcDbCircle
 10
271.322214988308
 20
199.1992459962961
 30
0.0
 40
1.3
100
AcDbArc
 50
11.31883372739381
 51
90.0
  0
LINE
  5
EF7C87DB9
330
EF7C85532
100
AcDbEntity
  8
JISSEN
100
AcDbLine
 10
270.5677515352656
 20
199.4992459962961
 30
0.0
 11
271.0000827140161
 21
199.4992459962961
 31
0.0
  0
LINE
  5
EF7C87DBA
330
EF7C85532
100
AcDbEntity
  8
JISSEN
100
AcDbLine
 10
271.4324138927664
 20
199.4992459962961
 30
0.0
 11
271.0000827140161
 21
199.4992459962961
 31
0.0
  0
LINE
  5
EF7C87DBB
330
EF7C85532
100
AcDbEntity
  8
JISSEN
100
AcDbLine
 10
271.322214988308
 20
200.4992459962961
 30
0.0
 11
270.677950439724
 21
200.4992459962961
 31
0.0
  0
ARC
  5
EF7C87DBC
330
EF7C85532
100
AcDbEntity
  8
JISSEN
100
AcDbCircle
 10
273.380080366198
 20
198.0992459962966
 30
0.0
 40
0.6
100
AcDbArc
 50
197.3059974608022
 51
270.0
  0
LINE
  5
EF7C87DBD
330
EF7C85532
100
AcDbEntity
  8
JISSEN
100
AcDbLine
 10
275.6324802309066
 20
200.4992459962961
 30
0.0
 11
276.1665336700307
 21
200.4992459962961
 31
0.0
  0
ARC
  5
EF7C87DBE
330
EF7C85532
100
AcDbEntity
  8
JISSEN
100
AcDbCircle
 10
276.1257715484699
 20
199.2122505413425
 30
0.0
 40
0.5
100
AcDbArc
 50
173.2968846703453
 51
220.2190987445551
  0
LINE
  5
EF7C87DBF
330
EF7C85532
100
AcDbEntity
  8
JISSEN
100
AcDbLine
 10
275.6291893962897
 20
199.2706129105205
 30
0.0
 11
275.6560602141388
 21
199.4992459962961
 31
0.0
  0
LINE
  5
EF7C87DC0
330
EF7C85532
100
AcDbEntity
  8
JISSEN
100
AcDbLine
 10
274.3568601171257
 20
199.4498319602246
 30
0.0
 11
274.0688281110199
 21
197.983590936022
 31
0.0
  0
LINE
  5
EF7C87DC1
330
EF7C85532
100
AcDbEntity
  8
JISSEN
100
AcDbLine
 10
276.2921805214772
 20
199.4992459962961
 30
0.0
 11
274.3675691668394
 21
199.4992459962961
 31
0.0
  0
ARC
  5
EF7C87DC2
330
EF7C85532
100
AcDbEntity
  8
JISSEN
100
AcDbCircle
 10
275.6324802309064
 20
199.1992459962962
 30
0.0
 40
1.3
100
AcDbArc
 50
90.0
 51
168.886192807504
  0
LINE
  5
EF7C87DC4
330
EF7C85532
100
AcDbEntity
  8
JISSEN
100
AcDbLine
 10
284.2396644525782
 20
200.4992459962961
 30
0.0
 11
283.3744513847756
 21
200.4992459962961
 31
0.0
  0
LINE
  5
EF7C87DC5
330
EF7C85532
100
AcDbEntity
  8
JISSEN
100
AcDbLine
 10
284.3014789203301
 20
199.4992459962961
 30
0.0
 11
283.2672436691339
 21
199.4992459962961
 31
0.0
  0
LINE
  5
EF7C87DC6
330
EF7C85532
100
AcDbEntity
  8
JISSEN
100
AcDbLine
 10
289.5610173857186
 20
200.5011743389773
 30
0.0
 11
283.1219520574212
 21
201.2917921479374
 31
0.0
  0
ARC
  5
EF7C87DC8
330
EF7C85532
100
AcDbEntity
  8
JISSEN
100
AcDbCircle
 10
280.6437297922178
 20
198.6992459962961
 30
0.0
 40
0.8
100
AcDbArc
 50
18.04996662058674
 51
90.0
  0
ARC
  5
EF7C87DC9
330
EF7C85532
100
AcDbEntity
  8
JISSEN
100
AcDbCircle
 10
280.5732086246558
 20
199.1992459962961
 30
0.0
 40
1.3
100
AcDbArc
 50
11.2989559157519
 51
90.0
  0
LINE
  5
EF7C87DCA
330
EF7C85532
100
AcDbEntity
  8
JISSEN
100
AcDbLine
 10
280.5732086246558
 20
200.4992459962961
 30
0.0
 11
280.3594150111249
 21
200.4992459962961
 31
0.0
  0
LINE
  5
EF7C87DCB
330
EF7C85532
100
AcDbEntity
  8
JISSEN
100
AcDbLine
 10
278.760576875407
 20
197.8973588462726
 30
0.0
 11
279.0866917503403
 21
199.4641525863575
 31
0.0
  0
LINE
  5
EF7C87DCC
330
EF7C85532
100
AcDbEntity
  8
JISSEN
100
AcDbLine
 10
277.7825839019079
 20
197.8925531880885
 30
0.0
 11
277.4365921403442
 21
199.4766472976357
 31
0.0
  0
LINE
  5
EF7C87DCD
330
EF7C85532
100
AcDbEntity
  8
JISSEN
100
AcDbLine
 10
277.6013163843909
 20
197.8279757817736
 30
0.0
 11
277.2316836105991
 21
198.8417864253412
 31
0.0
  0
ARC
  5
EF7C87DCE
330
EF7C85532
100
AcDbEntity
  8
JISSEN
100
AcDbCircle
 10
278.0710679289519
 20
197.9992459962961
 30
0.0
 40
0.5
100
AcDbArc
 50
200.0317265252833
 51
270.0
  0
LINE
  5
EF7C87DCF
330
EF7C85532
100
AcDbEntity
  8
JISSEN
100
AcDbLine
 10
278.0710679289519
 20
197.4992459962961
 30
0.0
 11
278.2710679289518
 21
197.4992459962961
 31
0.0
  0
ARC
  5
EF7C87DD0
330
EF7C85532
100
AcDbEntity
  8
JISSEN
100
AcDbCircle
 10
278.2710679289518
 20
197.9992459962961
 30
0.0
 40
0.5
100
AcDbArc
 50
192.3208321858781
 51
348.2422428527334
  0
ARC
  5
EF7C87DD1
330
EF7C85532
100
AcDbEntity
  8
JISSEN
100
AcDbCircle
 10
280.3594150111249
 20
199.1992459962961
 30
0.0
 40
1.3
100
AcDbArc
 50
90.0
 51
168.242242852733
  0
LINE
  5
EF7C87DD2
330
EF7C85532
100
AcDbEntity
  8
JISSEN
100
AcDbLine
 10
280.6437297922178
 20
199.4992459962961
 30
0.0
 11
279.0945039470576
 21
199.4992459962961
 31
0.0
  0
LINE
  5
EF7C87DD3
330
EF7C85532
100
AcDbEntity
  8
JISSEN
100
AcDbLine
 10
282.9599327261332
 20
197.826789632122
 30
0.0
 11
283.2520262892513
 21
199.4126351659835
 31
0.0
  0
ARC
  5
EF7C87DD4
330
EF7C85532
100
AcDbEntity
  8
JISSEN
100
AcDbCircle
 10
282.566549865181
 20
197.8992459962959
 30
0.0
 40
0.4
100
AcDbArc
 50
191.2989559157538
 51
349.5637783413032
  0
LINE
  5
EF7C87DD5
330
EF7C85532
100
AcDbEntity
  8
JISSEN
100
AcDbLine
 10
282.166549865181
 20
197.4992459962961
 30
0.0
 11
282.566549865181
 21
197.4992459962961
 31
0.0
  0
ARC
  5
EF7C87DD6
330
EF7C85532
100
AcDbEntity
  8
JISSEN
100
AcDbCircle
 10
275.2312689614988
 20
200.8665112348023
 30
0.0
 40
8.151460220977577
100
AcDbArc
 50
349.7258822716161
 51
357.4176560501147
  0
LINE
  5
EF7C87DD7
330
EF7C85532
100
AcDbEntity
  8
JISSEN
100
AcDbLine
 10
281.4043591254216
 20
198.9471230171552
 30
0.0
 11
281.7862351985792
 21
197.7753074858664
 31
0.0
  0
LINE
  5
EF7C87DD8
330
EF7C85532
100
AcDbEntity
  8
JISSEN
100
AcDbLine
 10
282.1743025735597
 20
197.8208746863937
 30
0.0
 11
281.8480123224249
 21
199.4539527534784
 31
0.0
  0
ARC
  5
EF7C87DD9
330
EF7C85532
100
AcDbEntity
  8
JISSEN
100
AcDbCircle
 10
282.166549865181
 20
197.8992459962959
 30
0.0
 40
0.4
100
AcDbArc
 50
198.0499666205844
 51
270.0
  0
ARC
  5
EF7C87DDA
330
EF7C85532
100
AcDbEntity
  8
JISSEN
100
AcDbCircle
 10
287.7537938317296
 20
197.6992459962961
 30
0.0
 40
0.2
100
AcDbArc
 50
185.314389558654
 51
270.0
  0
ARC
  5
EF7C87DDB
330
EF7C85532
100
AcDbEntity
  8
JISSEN
100
AcDbCircle
 10
286.91231550888
 20
199.1992459962961
 30
0.0
 40
1.3
100
AcDbArc
 50
5.157213474825391
 51
90.0
  0
LINE
  5
EF7C87DDC
330
EF7C85532
100
AcDbEntity
  8
JISSEN
100
AcDbLine
 10
287.4192554551854
 20
199.1362942586905
 30
0.0
 11
287.5546535380586
 21
197.6807218650989
 31
0.0
  0
LINE
  5
EF7C87DDD
330
EF7C85532
100
AcDbEntity
  8
JISSEN
100
AcDbLine
 10
286.5931340364549
 20
199.4126351659817
 30
0.0
 11
286.3711275616997
 21
197.7593204507382
 31
0.0
  0
LINE
  5
EF7C87DDE
330
EF7C85532
100
AcDbEntity
  8
JISSEN
100
AcDbLine
 10
285.7772825806609
 20
197.7536424254408
 30
0.0
 11
285.524556714424
 21
199.3968614700034
 31
0.0
  0
LINE
  5
EF7C87DDF
330
EF7C85532
100
AcDbEntity
  8
JISSEN
100
AcDbLine
 10
285.4737961795484
 20
197.4992459962961
 30
0.0
 11
286.0737961795484
 21
197.4992459962961
 31
0.0
  0
ARC
  5
EF7C87DE0
330
EF7C85532
100
AcDbEntity
  8
JISSEN
100
AcDbCircle
 10
286.0737961795484
 20
197.7992459962964
 30
0.0
 40
0.3
100
AcDbArc
 50
352.3520919570977
 51
353.9043985400168
  0
ARC
  5
EF7C87DE1
330
EF7C85532
100
AcDbEntity
  8
JISSEN
100
AcDbCircle
 10
286.0737961795484
 20
197.7992459962964
 30
0.0
 40
0.3
100
AcDbArc
 50
188.7435373147768
 51
352.3520919570977
  0
ARC
  5
EF7C87DE2
330
EF7C85532
100
AcDbEntity
  8
JISSEN
100
AcDbCircle
 10
285.2492752179866
 20
199.5028511694648
 30
0.0
 40
1.346883607168649
100
AcDbArc
 50
356.1593792128704
 51
47.71250584115743
  0
LINE
  5
EF7C87DE3
330
EF7C85532
100
AcDbEntity
  8
JISSEN
100
AcDbLine
 10
286.91231550888
 20
200.4992459962961
 30
0.0
 11
286.1555272802316
 21
200.4992459962961
 31
0.0
  0
LINE
  5
EF7C87DE4
330
EF7C85532
100
AcDbEntity
  8
JISSEN
100
AcDbLine
 10
287.0209748678433
 20
199.4992459962961
 30
0.0
 11
286.5961540002036
 21
199.4992459962961
 31
0.0
  0
LINE
  5
EF7C87DE5
330
EF7C85532
100
AcDbEntity
  8
JISSEN
100
AcDbLine
 10
284.88662026756
 20
199.0319471785141
 30
0.0
 11
285.1812255059335
 21
197.7328954051874
 31
0.0
  0
ARC
  5
EF7C87DE6
330
EF7C85532
100
AcDbEntity
  8
JISSEN
100
AcDbCircle
 10
284.3014789203301
 20
198.8992459962961
 30
0.0
 40
0.6
100
AcDbArc
 50
12.77768193556307
 51
90.0
  0
ARC
  5
EF7C87DE7
330
EF7C85532
100
AcDbEntity
  8
JISSEN
100
AcDbCircle
 10
285.4737961795484
 20
197.7992459962964
 30
0.0
 40
0.3
100
AcDbArc
 50
192.7776819355615
 51
270.0
  0
ARC
  5
EF7C87DE8
330
EF7C85532
100
AcDbEntity
  8
JISSEN
100
AcDbCircle
 10
284.2396644525782
 20
199.1992459962961
 30
0.0
 40
1.3
100
AcDbArc
 50
8.74353731477602
 51
90.0
  0
ARC
  5
EF7C87DE9
330
EF7C85532
100
AcDbEntity
  8
JISSEN
100
AcDbCircle
 10
287.0209748678433
 20
199.0992459962962
 30
0.0
 40
0.4
100
AcDbArc
 50
5.314389558654025
 51
89.99999999999836
  0
LINE
  5
EF7C87DEA
330
EF7C85532
100
AcDbEntity
  8
JISSEN
100
AcDbLine
 10
290.0000827140161
 20
197.4992459962961
 30
0.0
 11
290.0000827140161
 21
200.0049012631567
 31
0.0
  0
LINE
  5
EF7C87DEB
330
EF7C85532
100
AcDbEntity
  8
JISSEN
100
AcDbLine
 10
289.7375537005286
 20
197.5973162980336
 30
0.0
 11
289.7061513581866
 21
199.2243320736639
 31
0.0
  0
ARC
  5
EF7C87DEC
330
EF7C85532
100
AcDbEntity
  8
JISSEN
100
AcDbCircle
 10
289.8375350801184
 20
197.5992459962927
 30
0.0
 40
0.1
100
AcDbArc
 50
181.1057042895208
 51
270.0
  0
ARC
  5
EF7C87DED
330
EF7C85532
100
AcDbEntity
  8
JISSEN
100
AcDbCircle
 10
289.500082714016
 20
200.0049012631567
 30
0.0
 40
0.5
100
AcDbArc
 50
0.0
 51
83.00000000000057
  0
LINE
  5
EF7C87DEE
330
EF7C85532
100
AcDbEntity
  8
JISSEN
100
AcDbLine
 10
288.8716011047696
 20
199.4126351659826
 30
0.0
 11
288.7533264765398
 21
197.68558130987
 31
0.0
  0
LINE
  5
EF7C87DEF
330
EF7C85532
100
AcDbEntity
  8
JISSEN
100
AcDbLine
 10
288.3546034712829
 20
197.6812682237668
 30
0.0
 11
288.2070528517837
 21
199.3161015177362
 31
0.0
  0
ARC
  5
EF7C87DF0
330
EF7C85532
100
AcDbEntity
  8
JISSEN
100
AcDbCircle
 10
288.5537938317297
 20
197.6992459962961
 30
0.0
 40
0.2
100
AcDbArc
 50
185.1572134748245
 51
356.0823036285527
  0
LINE
  5
EF7C87DF1
330
EF7C85532
100
AcDbEntity
  8
JISSEN
100
AcDbLine
 10
288.737206081666
 20
197.6194967231135
 30
0.0
 11
288.737547311749
 21
197.597681970558
 31
0.0
  0
ARC
  5
EF7C87DF2
330
EF7C85532
100
AcDbEntity
  8
JISSEN
100
AcDbCircle
 10
288.8375350801183
 20
197.5992459962972
 30
0.0
 40
0.1
100
AcDbArc
 50
180.8961572775653
 51
270.0
  0
LINE
  5
EF7C87DF3
330
EF7C85532
100
AcDbEntity
  8
JISSEN
100
AcDbLine
 10
287.7537938317296
 20
197.4992459962961
 30
0.0
 11
288.5537938317297
 21
197.4992459962961
 31
0.0
  0
LINE
  5
EF7C87DF4
330
EF7C85532
100
AcDbEntity
  8
JISSEN
100
AcDbLine
 10
288.8375350801183
 20
197.4992459962961
 30
0.0
 11
290.0000827140161
 21
197.4992459962961
 31
0.0
  0
ARC
  5
EF7C87DF5
330
EF7C85532
100
AcDbEntity
  8
JISSEN
100
AcDbCircle
 10
288.4063934235225
 20
199.1992459962961
 30
0.0
 40
1.3
100
AcDbArc
 50
1.105704289524135
 51
90.0
  0
ARC
  5
EF7C87DF6
330
EF7C85532
100
AcDbEntity
  8
JISSEN
100
AcDbCircle
 10
287.6311167456718
 20
199.5130382443607
 30
0.0
 40
1.244540968917422
100
AcDbArc
 50
355.3726464066895
 51
52.41289174619006
  0
LINE
  5
EF7C87F4D
330
EF7C85532
100
AcDbEntity
  8
JISSEN
100
AcDbLine
 10
265.0000827140161
 20
160.2992459962961
 30
0.0
 11
277.0000827140161
 21
160.2992459962961
 31
0.0
  0
LINE
  5
EF7C87F4E
330
EF7C85532
100
AcDbEntity
  8
JISSEN
100
AcDbLine
 10
263.7500827140162
 20
158.2775581598091
 30
0.0
 11
278.250082714016
 21
158.2775581598091
 31
0.0
  0
LINE
  5
EF7C87F4F
330
EF7C85532
100
AcDbEntity
  8
JISSEN
100
AcDbLine
 10
265.0000827140161
 20
160.2992459962961
 30
0.0
 11
263.7500827140161
 21
159.5775581598091
 31
0.0
  0
ARC
  5
EF7C87F50
330
EF7C85532
100
AcDbEntity
  8
JISSEN
100
AcDbCircle
 10
263.2500827140161
 20
158.5034374261783
 30
0.0
 40
0.5
100
AcDbArc
 50
255.1597851614785
 51
326.9712311280886
  0
LINE
  5
EF7C87F51
330
EF7C85532
100
AcDbEntity
  8
JISSEN
100
AcDbLine
 10
263.7500827140161
 20
159.5775581598091
 30
0.0
 11
263.7500827140162
 21
158.2775581598091
 31
0.0
  0
LINE
  5
EF7C87F52
330
EF7C85532
100
AcDbEntity
  8
JISSEN
100
AcDbLine
 10
263.7500827140162
 20
158.2775581598091
 30
0.0
 11
263.6692812103624
 21
158.2309073899236
 31
0.0
  0
ARC
  5
EF7C87F53
330
EF7C85532
100
AcDbEntity
  8
JISSEN
100
AcDbCircle
 10
278.7500827140161
 20
158.5034374261783
 30
0.0
 40
0.5
100
AcDbArc
 50
213.0287688719113
 51
284.8402148385214
  0
LINE
  5
EF7C87F54
330
EF7C85532
100
AcDbEntity
  8
JISSEN
100
AcDbLine
 10
278.250082714016
 20
158.2775581598091
 30
0.0
 11
278.3308842176698
 21
158.2309073899236
 31
0.0
  0
LINE
  5
EF7C87F55
330
EF7C85532
100
AcDbEntity
  8
JISSEN
100
AcDbLine
 10
278.2500827140161
 20
159.5775581598091
 30
0.0
 11
278.250082714016
 21
158.2775581598091
 31
0.0
  0
LINE
  5
EF7C87F56
330
EF7C85532
100
AcDbEntity
  8
JISSEN
100
AcDbLine
 10
277.0000827140161
 20
160.2992459962961
 30
0.0
 11
278.2500827140161
 21
159.5775581598091
 31
0.0
  0
ARC
  5
EF7C87F57
330
EF7C85532
100
AcDbEntity
  8
JISSEN
100
AcDbCircle
 10
271.0008672695085
 20
187.5593131938636
 30
0.0
 40
1.6
100
AcDbArc
 50
197.3317314661467
 51
342.7537116970134
  0
LINE
  5
EF7C87F58
330
EF7C85532
100
AcDbEntity
  8
JISSEN
100
AcDbLine
 10
269.0569351805726
 20
187.4992459962961
 30
0.0
 11
269.4735137313217
 21
187.0826674455469
 31
0.0
  0
LINE
  5
EF7C87F59
330
EF7C85532
100
AcDbEntity
  8
JISSEN
100
AcDbLine
 10
272.9432302474596
 20
187.4992459962961
 30
0.0
 11
272.528929914008
 21
187.0849456628446
 31
0.0
  0
TEXT
  5
EF7C88058
330
EF7C85532
100
AcDbEntity
  8
SUNPOU
100
AcDbText
 10
337.4007328891731
 20
7.849423898685245
 30
0.0
 40
3.0
  1
DU 作動状態
  7
K
100
AcDbText
  0
TEXT
  5
EF7C88059
330
EF7C85532
100
AcDbEntity
  8
SUNPOU
100
AcDbText
 10
337.4007328891731
 20
2.849423898685245
 30
0.0
 40
3.0
  1
尺度　1/1
  7
K
100
AcDbText
  0
LINE
  5
EF7C8830D
330
EF7C85532
100
AcDbEntity
  8
JISSEN
100
AcDbLine
 10
92.42855297620769
 20
187.4992459962961
 30
0.0
 11
91.31941383795853
 21
186.3901068580469
 31
0.0
  0
LINE
  5
EF7C8830E
330
EF7C85532
100
AcDbEntity
  8
JISSEN
100
AcDbLine
 10
87.5716138998244
 20
187.4992459962961
 30
0.0
 11
88.68075303807357
 21
186.3901068580469
 31
0.0
  0
LINE
  5
EF7C8830F
330
EF7C85532
100
AcDbEntity
  8
JISSEN
100
AcDbLine
 10
85.8382009293127
 20
186.3884516700538
 30
0.0
 11
93.83820092931273
 21
186.3884516700538
 31
0.0
  0
LINE
  5
EF7C88310
330
EF7C85532
100
AcDbEntity
  8
JISSEN
100
AcDbLine
 10
85.8382009293127
 20
184.0133827376628
 30
0.0
 11
85.8382009293127
 21
186.3884516700538
 31
0.0
  0
LINE
  5
EF7C88311
330
EF7C85532
100
AcDbEntity
  8
JISSEN
100
AcDbLine
 10
93.83820092931273
 20
186.3884516700538
 30
0.0
 11
93.83820092931273
 21
184.0133827376628
 31
0.0
  0
LINE
  5
EF7C88313
330
EF7C85532
100
AcDbEntity
  8
SAISEN
100
AcDbLine
 10
88.00008343801605
 20
187.4992459962961
 30
0.0
 11
88.00008343801605
 21
187.0707764581045
 31
0.0
  0
LINE
  5
EF7C88315
330
EF7C85532
100
AcDbEntity
  8
SAISEN
100
AcDbLine
 10
92.00008343801604
 20
187.4992459962961
 30
0.0
 11
92.00008343801604
 21
187.0707764581045
 31
0.0
  0
ARC
  5
EF7C88316
330
EF7C85532
100
AcDbEntity
  8
JISSEN
100
AcDbCircle
 10
93.83820092931273
 20
180.6133827376628
 30
0.0
 40
1.5
100
AcDbArc
 50
104.2500326978044
 51
180.0
  0
ARC
  5
EF7C88317
330
EF7C85532
100
AcDbEntity
  8
JISSEN
100
AcDbCircle
 10
92.83820092931282
 20
173.9100042731362
 30
0.0
 40
1.5
100
AcDbArc
 50
0.0
 51
90.0
  0
ARC
  5
EF7C88318
330
EF7C85532
100
AcDbEntity
  8
JISSEN
100
AcDbCircle
 10
86.83820092931282
 20
173.9100042731362
 30
0.0
 40
1.5
100
AcDbArc
 50
90.0
 51
180.0
  0
LINE
  5
EF7C88319
330
EF7C85532
100
AcDbEntity
  8
JISSEN
100
AcDbLine
 10
87.33820092931271
 20
180.6133827376628
 30
0.0
 11
88.29756247399561
 21
167.1823211121019
 31
0.0
  0
LINE
  5
EF7C8831A
330
EF7C85532
100
AcDbEntity
  8
JISSEN
100
AcDbLine
 10
91.37883938462982
 20
167.1823211121019
 30
0.0
 11
92.33820092931276
 21
180.6133827376628
 31
0.0
  0
ARC
  5
EF7C8831B
330
EF7C85532
100
AcDbEntity
  8
JISSEN
100
AcDbCircle
 10
95.83820092931281
 20
175.1600042731362
 30
0.0
 40
13.5
100
AcDbArc
 50
137.7945535962688
 51
180.0
  0
LINE
  5
EF7C8831C
330
EF7C85532
100
AcDbEntity
  8
JISSEN
100
AcDbLine
 10
87.21320092931282
 20
175.4100042731362
 30
0.0
 11
87.21320092931282
 21
179.9100042731362
 31
0.0
  0
LINE
  5
EF7C8831D
330
EF7C85532
100
AcDbEntity
  8
JISSEN
100
AcDbLine
 10
92.46320092931282
 20
175.4100042731362
 30
0.0
 11
92.46320092931282
 21
179.9100042731362
 31
0.0
  0
LINE
  5
EF7C8831E
330
EF7C85532
100
AcDbEntity
  8
JISSEN
100
AcDbLine
 10
82.33820092931281
 20
175.1600042731362
 30
0.0
 11
82.33820092931281
 21
170.1600042731362
 31
0.0
  0
LINE
  5
EF7C8831F
330
EF7C85532
100
AcDbEntity
  8
JISSEN
100
AcDbLine
 10
86.83820092931282
 20
175.4100042731362
 30
0.0
 11
87.21320092931282
 21
175.4100042731362
 31
0.0
  0
ARC
  5
EF7C88320
330
EF7C85532
100
AcDbEntity
  8
JISSEN
100
AcDbCircle
 10
87.94147107715085
 20
185.3180736412542
 30
0.0
 40
10.00141397672889
100
AcDbArc
 50
262.631902808207
 51
265.67111797139
  0
ARC
  5
EF7C88321
330
EF7C85532
100
AcDbEntity
  8
JISSEN
100
AcDbCircle
 10
89.06626825648961
 20
200.177212392147
 30
0.0
 40
24.90306398982924
100
AcDbArc
 50
265.6711179713908
 51
266.8940593855781
  0
LINE
  5
EF7C88322
330
EF7C85532
100
AcDbEntity
  8
JISSEN
100
AcDbLine
 10
86.08820092931273
 20
175.2090423788128
 30
0.0
 11
86.08820092931273
 21
171.8216053214036
 31
0.0
  0
LINE
  5
EF7C88323
330
EF7C85532
100
AcDbEntity
  8
JISSEN
100
AcDbLine
 10
92.83820092931282
 20
175.4100042731362
 30
0.0
 11
92.46320092931282
 21
175.4100042731362
 31
0.0
  0
ARC
  5
EF7C88324
330
EF7C85532
100
AcDbEntity
  8
JISSEN
100
AcDbCircle
 10
90.61013360213577
 20
200.1772123921487
 30
0.0
 40
24.90306398983089
100
AcDbArc
 50
273.1059406144217
 51
274.3288820286091
  0
ARC
  5
EF7C88325
330
EF7C85532
100
AcDbEntity
  8
JISSEN
100
AcDbCircle
 10
91.73493078147439
 20
185.3180736412525
 30
0.0
 40
10.00141397672718
100
AcDbArc
 50
274.328882028612
 51
277.3680971917956
  0
LINE
  5
EF7C88326
330
EF7C85532
100
AcDbEntity
  8
JISSEN
100
AcDbLine
 10
86.1475318120596
 20
182.8858606734554
 30
0.0
 11
84.76746730946414
 21
182.8858606734554
 31
0.0
  0
ARC
  5
EF7C88327
330
EF7C85532
100
AcDbEntity
  8
JISSEN
100
AcDbCircle
 10
85.83820092931276
 20
180.6133827376628
 30
0.0
 40
1.5
100
AcDbArc
 50
0.0
 51
75.74996730219755
  0
ARC
  5
EF7C88328
330
EF7C85532
100
AcDbEntity
  8
JISSEN
100
AcDbCircle
 10
87.21320092931282
 20
175.1100042731362
 30
0.0
 40
1.199999999999999
100
AcDbArc
 50
68.57670275211505
 51
90.0
  0
ARC
  5
EF7C88329
330
EF7C85532
100
AcDbEntity
  8
JISSEN
100
AcDbCircle
 10
89.06626825648871
 20
150.9146165160513
 30
0.0
 40
24.90306398982924
100
AcDbArc
 50
93.18305488819701
 51
94.26739305779745
  0
ARC
  5
EF7C8832A
330
EF7C85532
100
AcDbEntity
  8
JISSEN
100
AcDbCircle
 10
92.46320092931282
 20
175.1100042731362
 30
0.0
 40
1.199999999999999
100
AcDbArc
 50
90.0
 51
111.4232972478952
  0
ARC
  5
EF7C8832B
330
EF7C85532
100
AcDbEntity
  8
JISSEN
100
AcDbCircle
 10
90.61013360213573
 20
150.9146165160498
 30
0.0
 40
24.90306398983085
100
AcDbArc
 50
85.7326069422
 51
86.81694511180095
  0
LINE
  5
EF7C8832C
330
EF7C85532
100
AcDbEntity
  8
JISSEN
100
AcDbLine
 10
86.2074316985435
 20
182.0672288915089
 30
0.0
 11
86.09382425774365
 21
183.6198639157734
 31
0.0
  0
ARC
  5
EF7C8832D
330
EF7C85532
100
AcDbEntity
  8
JISSEN
100
AcDbCircle
 10
83.83820092931282
 20
175.1600042731362
 30
0.0
 40
13.5
100
AcDbArc
 50
0.0
 51
42.20544640373288
  0
LINE
  5
EF7C8832E
330
EF7C85532
100
AcDbEntity
  8
JISSEN
100
AcDbLine
 10
93.58820092931273
 20
171.8216053214036
 30
0.0
 11
93.58820092931273
 21
175.209042378813
 31
0.0
  0
LINE
  5
EF7C8832F
330
EF7C85532
100
AcDbEntity
  8
JISSEN
100
AcDbLine
 10
97.33820092931281
 20
175.1600042731362
 30
0.0
 11
97.33820092931281
 21
170.1600042731362
 31
0.0
  0
LINE
  5
EF7C88330
330
EF7C85532
100
AcDbEntity
  8
JISSEN
100
AcDbLine
 10
93.58257760088179
 20
183.6198639157734
 30
0.0
 11
93.46897016008197
 21
182.0672288915089
 31
0.0
  0
LINE
  5
EF7C88331
330
EF7C85532
100
AcDbEntity
  8
JISSEN
100
AcDbLine
 10
94.90893454916141
 20
182.8858606734554
 30
0.0
 11
93.52887004656585
 21
182.8858606734554
 31
0.0
  0
ARC
  5
EF7C88332
330
EF7C85532
100
AcDbEntity
  8
JISSEN
100
AcDbCircle
 10
92.56517062102139
 20
167.9600042731362
 30
0.0
 40
1.5
100
AcDbArc
 50
270.0
 51
345.8509954910656
  0
LINE
  5
EF7C88333
330
EF7C85532
100
AcDbEntity
  8
JISSEN
100
AcDbLine
 10
84.88176403314801
 20
162.2728951360468
 30
0.0
 11
94.79463782547757
 21
162.2728951360468
 31
0.0
  0
ARC
  5
EF7C88334
330
EF7C85532
100
AcDbEntity
  8
JISSEN
100
AcDbCircle
 10
91.73493078147467
 20
179.4511591217958
 30
0.0
 40
10.00141397672717
100
AcDbArc
 50
274.3288820286108
 51
280.3564926490368
  0
LINE
  5
EF7C88335
330
EF7C85532
100
AcDbEntity
  8
JISSEN
100
AcDbLine
 10
93.10015693743142
 20
166.558651483417
 30
0.0
 11
92.33820092931248
 21
166.9985669898151
 31
0.0
  0
LINE
  5
EF7C88336
330
EF7C85532
100
AcDbEntity
  8
JISSEN
100
AcDbLine
 10
91.83820092931282
 20
166.2600042731362
 30
0.0
 11
91.83820092931282
 21
163.4466670665183
 31
0.0
  0
LINE
  5
EF7C88337
330
EF7C85532
100
AcDbEntity
  8
JISSEN
100
AcDbLine
 10
87.83820092931282
 20
166.2600042731362
 30
0.0
 11
87.83820092931282
 21
163.4466670665183
 31
0.0
  0
ARC
  5
EF7C88338
330
EF7C85532
100
AcDbEntity
  8
JISSEN
100
AcDbCircle
 10
95.83820092931281
 20
170.1600042731362
 30
0.0
 40
13.5
100
AcDbArc
 50
180.0
 51
220.9617885523534
  0
LINE
  5
EF7C88339
330
EF7C85532
100
AcDbEntity
  8
JISSEN
100
AcDbLine
 10
89.04193638211827
 20
161.6626997358396
 30
0.0
 11
90.95823049391404
 21
161.6626997358398
 31
0.0
  0
ARC
  5
EF7C8833A
330
EF7C85532
100
AcDbEntity
  8
JISSEN
100
AcDbCircle
 10
90.00008343801605
 20
152.3116594611285
 30
0.0
 40
9.4
100
AcDbArc
 50
95.8503503011658
 51
106.7747442640958
  0
ARC
  5
EF7C8833B
330
EF7C85532
100
AcDbEntity
  8
JISSEN
100
AcDbCircle
 10
90.00008343801605
 20
152.3116594611285
 30
0.0
 40
9.4
100
AcDbArc
 50
73.22525573590415
 51
84.14964969883419
  0
ARC
  5
EF7C8833C
330
EF7C85532
100
AcDbEntity
  8
JISSEN
100
AcDbCircle
 10
87.11123123760424
 20
167.9600042731362
 30
0.0
 40
1.5
100
AcDbArc
 50
194.1490045089343
 51
270.0
  0
ARC
  5
EF7C8833D
330
EF7C85532
100
AcDbEntity
  8
JISSEN
100
AcDbCircle
 10
95.83820092931281
 20
170.1600042731362
 30
0.0
 40
10.5
100
AcDbArc
 50
180.0
 51
194.1490045089343
  0
LINE
  5
EF7C8833E
330
EF7C85532
100
AcDbEntity
  8
JISSEN
100
AcDbLine
 10
85.33820092931282
 20
173.9100042731362
 30
0.0
 11
85.33820092931282
 21
170.1600042731362
 31
0.0
  0
LINE
  5
EF7C8833F
330
EF7C85532
100
AcDbEntity
  8
JISSEN
100
AcDbLine
 10
86.08820092931273
 20
170.4893642383715
 30
0.0
 11
86.08820092931276
 21
169.6789999346426
 31
0.0
  0
LINE
  5
EF7C88340
330
EF7C85532
100
AcDbEntity
  8
JISSEN
100
AcDbLine
 10
88.08820092931274
 20
167.1823211121019
 30
0.0
 11
91.58820092931273
 21
167.1823211121019
 31
0.0
  0
LINE
  5
EF7C88341
330
EF7C85532
100
AcDbEntity
  8
JISSEN
100
AcDbLine
 10
88.08820092931274
 20
166.3991499719378
 30
0.0
 11
91.58820092931273
 21
166.3991499719378
 31
0.0
  0
LINE
  5
EF7C88342
330
EF7C85532
100
AcDbEntity
  8
JISSEN
100
AcDbLine
 10
91.58820092931273
 20
164.6699506105058
 30
0.0
 11
88.08820092931274
 21
164.6699506105058
 31
0.0
  0
ARC
  5
EF7C88343
330
EF7C85532
100
AcDbEntity
  8
JISSEN
100
AcDbCircle
 10
86.15561359022136
 20
169.6789999346426
 30
0.0
 40
0.0674126609086159
100
AcDbArc
 50
180.0000000000122
 51
259.6435073509599
  0
ARC
  5
EF7C88344
330
EF7C85532
100
AcDbEntity
  8
JISSEN
100
AcDbCircle
 10
89.06626825649036
 20
194.3102978726903
 30
0.0
 40
24.90306398982921
100
AcDbArc
 50
265.6711179713892
 51
267.8624138581915
  0
LINE
  5
EF7C88345
330
EF7C85532
100
AcDbEntity
  8
JISSEN
100
AcDbLine
 10
86.98820092931274
 20
167.8075103434293
 30
0.0
 11
86.98820092931274
 21
169.4952785701261
 31
0.0
  0
ARC
  5
EF7C88346
330
EF7C85532
100
AcDbEntity
  8
JISSEN
100
AcDbCircle
 10
87.94147107715096
 20
179.4511591217975
 30
0.0
 40
10.0014139767289
100
AcDbArc
 50
259.6435073509645
 51
265.6711179713892
  0
ARC
  5
EF7C88347
330
EF7C85532
100
AcDbEntity
  8
JISSEN
100
AcDbCircle
 10
87.63820092931283
 20
166.2600042731362
 30
0.0
 40
0.2
100
AcDbArc
 50
0.0
 51
90.0
  0
ARC
  5
EF7C88348
330
EF7C85532
100
AcDbEntity
  8
JISSEN
100
AcDbCircle
 10
89.2621107884033
 20
176.6724995301289
 30
0.0
 40
9.665948963622831
100
AcDbArc
 50
261.4373878185034
 51
263.0243237170125
  0
ARC
  5
EF7C88349
330
EF7C85532
100
AcDbEntity
  8
JISSEN
100
AcDbCircle
 10
88.13820092931278
 20
165.2424710556726
 30
0.0
 40
0.3
100
AcDbArc
 50
180.0
 51
260.4059317731342
  0
LINE
  5
EF7C8834A
330
EF7C85532
100
AcDbEntity
  8
JISSEN
100
AcDbLine
 10
87.11123123760424
 20
166.4600042731362
 30
0.0
 11
87.63820092931277
 21
166.4600042731362
 31
0.0
  0
LINE
  5
EF7C8834B
330
EF7C85532
100
AcDbEntity
  8
JISSEN
100
AcDbLine
 10
86.57624492119365
 20
166.558651483417
 30
0.0
 11
87.33820092931248
 21
166.9985669898151
 31
0.0
  0
ARC
  5
EF7C8834C
330
EF7C85532
100
AcDbEntity
  8
JISSEN
100
AcDbCircle
 10
87.63233199962334
 20
167.8075103434293
 30
0.0
 40
0.6441310703106079
100
AcDbArc
 50
180.0
 51
256.3408948147033
  0
ARC
  5
EF7C8834D
330
EF7C85532
100
AcDbEntity
  8
JISSEN
100
AcDbCircle
 10
89.83820092931248
 20
162.6684399708929
 30
0.0
 40
5.0
100
AcDbArc
 50
116.3208098216074
 51
119.9999999999997
  0
ARC
  5
EF7C8834E
330
EF7C85532
100
AcDbEntity
  8
JISSEN
100
AcDbCircle
 10
88.40776457692355
 20
170.9983586164433
 30
0.0
 40
3.927849752435348
100
AcDbArc
 50
256.3408948147043
 51
261.4373878185042
  0
LINE
  5
EF7C8834F
330
EF7C85532
100
AcDbEntity
  8
JISSEN
100
AcDbLine
 10
88.08820092931274
 20
164.6699506105058
 30
0.0
 11
88.08820092931274
 21
167.1823211121019
 31
0.0
  0
LINE
  5
EF7C88350
330
EF7C85532
100
AcDbEntity
  8
JISSEN
100
AcDbLine
 10
92.68820092931273
 20
169.4952785701261
 30
0.0
 11
92.68820092931273
 21
167.8075103434293
 31
0.0
  0
ARC
  5
EF7C88351
330
EF7C85532
100
AcDbEntity
  8
JISSEN
100
AcDbCircle
 10
90.61013360213577
 20
194.310297872692
 30
0.0
 40
24.90306398983088
100
AcDbArc
 50
272.1375861418067
 51
274.3288820286091
  0
LINE
  5
EF7C88352
330
EF7C85532
100
AcDbEntity
  8
JISSEN
100
AcDbLine
 10
92.56517062102139
 20
166.4600042731362
 30
0.0
 11
92.0382009293128
 21
166.4600042731362
 31
0.0
  0
ARC
  5
EF7C88353
330
EF7C85532
100
AcDbEntity
  8
JISSEN
100
AcDbCircle
 10
92.0382009293128
 20
166.2600042731362
 30
0.0
 40
0.2
100
AcDbArc
 50
90.0
 51
180.0
  0
ARC
  5
EF7C88354
330
EF7C85532
100
AcDbEntity
  8
JISSEN
100
AcDbCircle
 10
90.41429107022237
 20
176.6724995301299
 30
0.0
 40
9.665948963623756
100
AcDbArc
 50
276.9756762829857
 51
278.5626121814945
  0
ARC
  5
EF7C88355
330
EF7C85532
100
AcDbEntity
  8
JISSEN
100
AcDbCircle
 10
91.53820092931281
 20
165.2424710556726
 30
0.0
 40
0.3
100
AcDbArc
 50
279.5940682268376
 51
0.0
  0
ARC
  5
EF7C88356
330
EF7C85532
100
AcDbEntity
  8
JISSEN
100
AcDbCircle
 10
92.04406985900211
 20
167.8075103434293
 30
0.0
 40
0.6441310703106079
100
AcDbArc
 50
283.6591051852966
 51
0.0
  0
ARC
  5
EF7C88357
330
EF7C85532
100
AcDbEntity
  8
JISSEN
100
AcDbCircle
 10
89.83820092931248
 20
162.6684399708929
 30
0.0
 40
5.0
100
AcDbArc
 50
60.00000000000028
 51
63.67919017839106
  0
ARC
  5
EF7C88358
330
EF7C85532
100
AcDbEntity
  8
JISSEN
100
AcDbCircle
 10
91.26863728170182
 20
170.9983586164433
 30
0.0
 40
3.927849752435323
100
AcDbArc
 50
278.5626121814974
 51
283.6591051852978
  0
LINE
  5
EF7C88359
330
EF7C85532
100
AcDbEntity
  8
JISSEN
100
AcDbLine
 10
91.58820092931273
 20
167.1823211121019
 30
0.0
 11
91.58820092931273
 21
164.6699506105058
 31
0.0
  0
LINE
  5
EF7C8835A
330
EF7C85532
100
AcDbEntity
  8
JISSEN
100
AcDbLine
 10
86.08812577227466
 20
171.8250934393089
 30
0.0
 11
86.08812577227466
 21
171.4963596587393
 31
0.0
  0
LINE
  5
EF7C8835B
330
EF7C85532
100
AcDbEntity
  8
JISSEN
100
AcDbLine
 10
86.08812577227466
 20
170.7919294605257
 30
0.0
 11
86.08812577227466
 21
170.4879127096073
 31
0.0
  0
LINE
  5
EF7C8835C
330
EF7C85532
100
AcDbEntity
  8
JISSEN
100
AcDbLine
 10
86.08820092931273
 20
171.513216089806
 30
0.0
 11
86.08820092931273
 21
170.7959341595818
 31
0.0
  0
ARC
  5
EF7C8835D
330
EF7C85532
100
AcDbEntity
  8
JISSEN
100
AcDbCircle
 10
83.83820092931282
 20
170.1600042731362
 30
0.0
 40
13.5
100
AcDbArc
 50
319.0382114476465
 51
0.0
  0
ARC
  5
EF7C8835E
330
EF7C85532
100
AcDbEntity
  8
JISSEN
100
AcDbCircle
 10
83.83820092931282
 20
170.1600042731362
 30
0.0
 40
10.5
100
AcDbArc
 50
345.8509954910656
 51
0.0
  0
LINE
  5
EF7C8835F
330
EF7C85532
100
AcDbEntity
  8
JISSEN
100
AcDbLine
 10
93.58820092931273
 20
169.6789999346426
 30
0.0
 11
93.58820092931273
 21
170.4893642383715
 31
0.0
  0
ARC
  5
EF7C88360
330
EF7C85532
100
AcDbEntity
  8
JISSEN
100
AcDbCircle
 10
93.52078826840415
 20
169.6789999346426
 30
0.0
 40
0.0674126609085984
100
AcDbArc
 50
280.3564926490364
 51
0.0
  0
LINE
  5
EF7C88361
330
EF7C85532
100
AcDbEntity
  8
JISSEN
100
AcDbLine
 10
93.58820092931273
 20
171.8216053214036
 30
0.0
 11
93.58820092931273
 21
171.513216089806
 31
0.0
  0
LINE
  5
EF7C88362
330
EF7C85532
100
AcDbEntity
  8
JISSEN
100
AcDbLine
 10
93.58820092934108
 20
171.5132160901999
 30
0.0
 11
93.58820092934108
 21
171.5132160896581
 31
0.0
  0
LINE
  5
EF7C88363
330
EF7C85532
100
AcDbEntity
  8
JISSEN
100
AcDbLine
 10
93.58820092920367
 20
170.4893642605952
 30
0.0
 11
93.58820092920367
 21
170.4893641842603
 31
0.0
  0
LINE
  5
EF7C88364
330
EF7C85532
100
AcDbEntity
  8
JISSEN
100
AcDbLine
 10
93.58820092931273
 20
170.7959341595818
 30
0.0
 11
93.58820092931273
 21
170.4893642383715
 31
0.0
  0
LINE
  5
EF7C88365
330
EF7C85532
100
AcDbEntity
  8
JISSEN
100
AcDbLine
 10
93.58820092931273
 20
170.7959341595818
 30
0.0
 11
93.58820092931273
 21
171.513216089806
 31
0.0
  0
LINE
  5
EF7C88366
330
EF7C85532
100
AcDbEntity
  8
JISSEN
100
AcDbLine
 10
94.33820092931282
 20
173.9100042731362
 30
0.0
 11
94.33820092931282
 21
170.1600042731362
 31
0.0
  0
ARC
  5
EF7C88367
330
EF7C85532
100
AcDbEntity
  8
JISSEN
100
AcDbCircle
 10
85.60843639118493
 20
183.5843477304154
 30
0.0
 40
0.4866855046380603
100
AcDbArc
 50
4.184916125117464
 51
61.82925977024789
  0
ARC
  5
EF7C88368
330
EF7C85532
100
AcDbEntity
  8
JISSEN
100
AcDbCircle
 10
94.06796546744052
 20
183.5843477304154
 30
0.0
 40
0.4866855046380603
100
AcDbArc
 50
118.170740229752
 51
175.8150838748817
  0
ENDSEC
  0
SECTION
  2
OBJECTS
  0
DICTIONARY
  5
EF7C85527
330
0
100
AcDbDictionary
  3
ACAD_GROUP
350
EF7C85528
  3
ACAD_LAYOUT
350
EF7C85BB7
  3
ACAD_MLINESTYLE
350
EF7C85535
  3
ACAD_PLOTSETTINGS
350
EF7C85BB8
  3
ACAD_PLOTSTYLENAME
350
EF7C85BB5
  3
ACDBHEADERROUNDTRIPXREC
350
EF7C883E9
  3
ACDBVARIABLEDICTIONARY
350
EF7C85DB7
  0
DICTIONARY
  5
EF7C85D9A
330
EF7C85532
100
AcDbDictionary
280
     1
  3
ACAD_LAYOUTSELFREF
360
EF7C8840B
  0
DICTIONARY
  5
EF7C85D98
330
EF7C8552F
100
AcDbDictionary
280
     1
  3
ACAD_LAYOUTSELFREF
360
EF7C8840A
  0
DICTIONARY
  5
EF7C85528
102
{ACAD_REACTORS
330
EF7C85527
102
}
330
EF7C85527
100
AcDbDictionary
  0
DICTIONARY
  5
EF7C85BB7
102
{ACAD_REACTORS
330
EF7C85527
102
}
330
EF7C85527
100
AcDbDictionary
  0
DICTIONARY
  5
EF7C85535
102
{ACAD_REACTORS
330
EF7C85527
102
}
330
EF7C85527
100
AcDbDictionary
  3
STANDARD
350
EF7C85536
  0
DICTIONARY
  5
EF7C85BB8
102
{ACAD_REACTORS
330
EF7C85527
102
}
330
EF7C85527
100
AcDbDictionary
  0
ACDBDICTIONARYWDFLT
  5
EF7C85BB5
102
{ACAD_REACTORS
330
EF7C85527
102
}
330
EF7C85527
100
AcDbDictionary
281
     1
  3
Normal
350
EF7C85BB6
100
AcDbDictionaryWithDefault
340
EF7C85BB6
  0
DICTIONARY
  5
EF7C883E9
102
{ACAD_REACTORS
330
EF7C85527
102
}
330
EF7C85527
100
AcDbDictionary
  3
CEPSNTYPE
350
EF7C883F3
  3
DIMSTYLEDATA
350
EF7C883F7
  3
FINGERPRINTGUID
350
EF7C883F4
  3
HYPERLINKBASE
350
EF7C883EC
  3
INSUNITS
350
EF7C883F2
  3
LAYOUTDICT
350
EF7C883EE
  3
LWETCUNION
350
EF7C883F1
  3
PLOTSETDICT
350
EF7C883EF
  3
PLOTSTYLNAMDICT
350
EF7C883F0
  3
PSVPSCALE
350
EF7C883F6
  3
PUCSBASE
350
EF7C883FA
  3
PUCSORGBACK
350
EF7C88400
  3
PUCSORGBOTTOM
350
EF7C883FC
  3
PUCSORGFRONT
350
EF7C883FF
  3
PUCSORGLEFT
350
EF7C883FD
  3
PUCSORGRIGHT
350
EF7C883FE
  3
PUCSORGTOP
350
EF7C883FB
  3
PUCSORTHOREF
350
EF7C883F8
  3
PUCSORTHOVIEW
350
EF7C883F9
  3
STYLESHEET
350
EF7C883ED
  3
TSTACKALIGN
350
EF7C883EA
  3
TSTACKSIZE
350
EF7C883EB
  3
UCSBASE
350
EF7C88403
  3
UCSORGBACK
350
EF7C88409
  3
UCSORGBOTTOM
350
EF7C88405
  3
UCSORGFRONT
350
EF7C88408
  3
UCSORGLEFT
350
EF7C88406
  3
UCSORGRIGHT
350
EF7C88407
  3
UCSORGTOP
350
EF7C88404
  3
UCSORTHOREF
350
EF7C88401
  3
UCSORTHOVIEW
350
EF7C88402
  3
VERSIONGUID
350
EF7C883F5
  0
DICTIONARY
  5
EF7C85DB7
102
{ACAD_REACTORS
330
EF7C85527
102
}
330
EF7C85527
100
AcDbDictionary
  3
DIMASSOC
350
EF7C883E7
  3
SORTENTS
350
EF7C85DB8
  0
XRECORD
  5
EF7C8840B
102
{ACAD_REACTORS
330
EF7C85D9A
102
}
330
EF7C85D9A
100
AcDbXrecord
340
EF7C85532
  0
XRECORD
  5
EF7C8840A
102
{ACAD_REACTORS
330
EF7C85D98
102
}
330
EF7C85D98
100
AcDbXrecord
340
EF7C8552F
  0
MLINESTYLE
  5
EF7C85536
102
{ACAD_REACTORS
330
EF7C85535
102
}
330
EF7C85535
100
AcDbMlineStyle
  2
STANDARD
 70
     0
  3

 62
   256
 51
90.0
 52
90.0
 71
     2
 49
0.5
 62
   256
  6
BYLAYER
 49
-0.5
 62
   256
  6
BYLAYER
  0
ACDBPLACEHOLDER
  5
EF7C85BB6
102
{ACAD_REACTORS
330
EF7C85BB5
102
}
330
EF7C85BB5
100
AcDbPlaceHolder
280
     0
  0
XRECORD
  5
EF7C883F3
102
{ACAD_REACTORS
330
EF7C883E9
102
}
330
EF7C883E9
100
AcDbXrecord
 90
        0
  0
XRECORD
  5
EF7C883F7
102
{ACAD_REACTORS
330
EF7C883E9
102
}
330
EF7C883E9
100
AcDbXrecord
1000
DSTYLE
1002
{
1070
   279
 70
     2
1070
   341
340
EF7C85537
1070
   342
340
EF7C85537
1070
   343
340
EF7C85543
1070
   344
340
EF7C85543
1002
}
  0
XRECORD
  5
EF7C883F4
102
{ACAD_REACTORS
330
EF7C883E9
102
}
330
EF7C883E9
100
AcDbXrecord
  1
{09AA4C7A-3D6F-4857-A850-771461888CEC}
  0
XRECORD
  5
EF7C883EC
102
{ACAD_REACTORS
330
EF7C883E9
102
}
330
EF7C883E9
100
AcDbXrecord
  1

  0
XRECORD
  5
EF7C883F2
102
{ACAD_REACTORS
330
EF7C883E9
102
}
330
EF7C883E9
100
AcDbXrecord
 90
        0
  0
XRECORD
  5
EF7C883EE
102
{ACAD_REACTORS
330
EF7C883E9
102
}
330
EF7C883E9
100
AcDbXrecord
340
EF7C85BB7
  0
XRECORD
  5
EF7C883F1
102
{ACAD_REACTORS
330
EF7C883E9
102
}
330
EF7C883E9
100
AcDbXrecord
 90
    14877
  0
XRECORD
  5
EF7C883EF
102
{ACAD_REACTORS
330
EF7C883E9
102
}
330
EF7C883E9
100
AcDbXrecord
340
EF7C85BB8
  0
XRECORD
  5
EF7C883F0
102
{ACAD_REACTORS
330
EF7C883E9
102
}
330
EF7C883E9
100
AcDbXrecord
340
EF7C85BB5
  0
XRECORD
  5
EF7C883F6
102
{ACAD_REACTORS
330
EF7C883E9
102
}
330
EF7C883E9
100
AcDbXrecord
 40
0.0
  0
XRECORD
  5
EF7C883FA
102
{ACAD_REACTORS
330
EF7C883E9
102
}
330
EF7C883E9
100
AcDbXrecord
340
0
  0
XRECORD
  5
EF7C88400
102
{ACAD_REACTORS
330
EF7C883E9
102
}
330
EF7C883E9
100
AcDbXrecord
 10
0.0
 20
0.0
 30
0.0
  0
XRECORD
  5
EF7C883FC
102
{ACAD_REACTORS
330
EF7C883E9
102
}
330
EF7C883E9
100
AcDbXrecord
 10
0.0
 20
0.0
 30
0.0
  0
XRECORD
  5
EF7C883FF
102
{ACAD_REACTORS
330
EF7C883E9
102
}
330
EF7C883E9
100
AcDbXrecord
 10
0.0
 20
0.0
 30
0.0
  0
XRECORD
  5
EF7C883FD
102
{ACAD_REACTORS
330
EF7C883E9
102
}
330
EF7C883E9
100
AcDbXrecord
 10
0.0
 20
0.0
 30
0.0
  0
XRECORD
  5
EF7C883FE
102
{ACAD_REACTORS
330
EF7C883E9
102
}
330
EF7C883E9
100
AcDbXrecord
 10
0.0
 20
0.0
 30
0.0
  0
XRECORD
  5
EF7C883FB
102
{ACAD_REACTORS
330
EF7C883E9
102
}
330
EF7C883E9
100
AcDbXrecord
 10
0.0
 20
0.0
 30
0.0
  0
XRECORD
  5
EF7C883F8
102
{ACAD_REACTORS
330
EF7C883E9
102
}
330
EF7C883E9
100
AcDbXrecord
340
0
  0
XRECORD
  5
EF7C883F9
102
{ACAD_REACTORS
330
EF7C883E9
102
}
330
EF7C883E9
100
AcDbXrecord
 70
     0
  0
XRECORD
  5
EF7C883ED
102
{ACAD_REACTORS
330
EF7C883E9
102
}
330
EF7C883E9
100
AcDbXrecord
  1

  0
XRECORD
  5
EF7C883EA
102
{ACAD_REACTORS
330
EF7C883E9
102
}
330
EF7C883E9
100
AcDbXrecord
 90
        1
  0
XRECORD
  5
EF7C883EB
102
{ACAD_REACTORS
330
EF7C883E9
102
}
330
EF7C883E9
100
AcDbXrecord
 90
       70
  0
XRECORD
  5
EF7C88403
102
{ACAD_REACTORS
330
EF7C883E9
102
}
330
EF7C883E9
100
AcDbXrecord
340
0
  0
XRECORD
  5
EF7C88409
102
{ACAD_REACTORS
330
EF7C883E9
102
}
330
EF7C883E9
100
AcDbXrecord
 10
0.0
 20
0.0
 30
0.0
  0
XRECORD
  5
EF7C88405
102
{ACAD_REACTORS
330
EF7C883E9
102
}
330
EF7C883E9
100
AcDbXrecord
 10
0.0
 20
0.0
 30
0.0
  0
XRECORD
  5
EF7C88408
102
{ACAD_REACTORS
330
EF7C883E9
102
}
330
EF7C883E9
100
AcDbXrecord
 10
0.0
 20
0.0
 30
0.0
  0
XRECORD
  5
EF7C88406
102
{ACAD_REACTORS
330
EF7C883E9
102
}
330
EF7C883E9
100
AcDbXrecord
 10
0.0
 20
0.0
 30
0.0
  0
XRECORD
  5
EF7C88407
102
{ACAD_REACTORS
330
EF7C883E9
102
}
330
EF7C883E9
100
AcDbXrecord
 10
0.0
 20
0.0
 30
0.0
  0
XRECORD
  5
EF7C88404
102
{ACAD_REACTORS
330
EF7C883E9
102
}
330
EF7C883E9
100
AcDbXrecord
 10
0.0
 20
0.0
 30
0.0
  0
XRECORD
  5
EF7C88401
102
{ACAD_REACTORS
330
EF7C883E9
102
}
330
EF7C883E9
100
AcDbXrecord
340
0
  0
XRECORD
  5
EF7C88402
102
{ACAD_REACTORS
330
EF7C883E9
102
}
330
EF7C883E9
100
AcDbXrecord
 70
     0
  0
XRECORD
  5
EF7C883F5
102
{ACAD_REACTORS
330
EF7C883E9
102
}
330
EF7C883E9
100
AcDbXrecord
  1
{ED968EC4-0F48-4FF4-9AB1-22A7D84D00B4}
  0
DICTIONARYVAR
  5
EF7C883E7
102
{ACAD_REACTORS
330
EF7C85DB7
102
}
330
EF7C85DB7
100
DictionaryVariables
280
     0
  1
0
  0
DICTIONARYVAR
  5
EF7C85DB8
102
{ACAD_REACTORS
330
EF7C85DB7
102
}
330
EF7C85DB7
100
DictionaryVariables
280
     0
  1
96
  0
ENDSEC
  0
EOF
