  0
SECTION
  2
HEADER
  9
$ACADVER
  1
AC1014
  9
$ACADMAINTVER
 70
     9
  9
$DWGCODEPAGE
  3
ANSI_932
  9
$INSBASE
 10
0.0
 20
0.0
 30
0.0
  9
$EXTMIN
 10
-0.0331408080403435
 20
-0.0172721585058753
 30
-0.0000000349181948
  9
$EXTMAX
 10
543.033143928726
 20
283.017274794229
 30
0.0000000814935746
  9
$LIMMIN
 10
0.0
 20
0.0
  9
$LIMMAX
 10
181.0
 20
283.0
  9
$ORTHOMODE
 70
     1
  9
$REGENMODE
 70
     1
  9
$FILLMODE
 70
     1
  9
$QTEXTMODE
 70
     0
  9
$MIRRTEXT
 70
     0
  9
$DRAGMODE
 70
     2
  9
$LTSCALE
 40
5.0
  9
$OSMODE
 70
   167
  9
$ATTMODE
 70
     1
  9
$TEXTSIZE
 40
3.0
  9
$TRACEWID
 40
0.05
  9
$TEXTSTYLE
  7
BIGFONT
  9
$CLAYER
  8
JISSEN
  9
$CELTYPE
  6
BYLAYER
  9
$CECOLOR
 62
   256
  9
$CELTSCALE
 40
1.0
  9
$DELOBJ
 70
     1
  9
$DISPSILH
 70
     0
  9
$DIMSCALE
 40
1.0
  9
$DIMASZ
 40
1.5
  9
$DIMEXO
 40
1.0
  9
$DIMDLI
 40
6.0
  9
$DIMRND
 40
0.0
  9
$DIMDLE
 40
0.0
  9
$DIMEXE
 40
1.0
  9
$DIMTP
 40
0.0
  9
$DIMTM
 40
0.0
  9
$DIMTXT
 40
3.0
  9
$DIMCEN
 40
1.0
  9
$DIMTSZ
 40
0.0
  9
$DIMTOL
 70
     0
  9
$DIMLIM
 70
     0
  9
$DIMTIH
 70
     0
  9
$DIMTOH
 70
     0
  9
$DIMSE1
 70
     0
  9
$DIMSE2
 70
     0
  9
$DIMTAD
 70
     0
  9
$DIMZIN
 70
     8
  9
$DIMBLK
  1
ARROW
  9
$DIMASO
 70
     0
  9
$DIMSHO
 70
     0
  9
$DIMPOST
  1

  9
$DIMAPOST
  1

  9
$DIMALT
 70
     0
  9
$DIMALTD
 70
     2
  9
$DIMALTF
 40
25.4
  9
$DIMLFAC
 40
1.0
  9
$DIMTOFL
 70
     1
  9
$DIMTVP
 40
0.0
  9
$DIMTIX
 70
     0
  9
$DIMSOXD
 70
     0
  9
$DIMSAH
 70
     0
  9
$DIMBLK1
  1
ARROWANG
  9
$DIMBLK2
  1
ARROWANG
  9
$DIMSTYLE
  2
IMAO
  9
$DIMCLRD
 70
     0
  9
$DIMCLRE
 70
     0
  9
$DIMCLRT
 70
     0
  9
$DIMTFAC
 40
1.0
  9
$DIMGAP
 40
0.09
  9
$DIMJUST
 70
     0
  9
$DIMSD1
 70
     0
  9
$DIMSD2
 70
     0
  9
$DIMTOLJ
 70
     1
  9
$DIMTZIN
 70
     8
  9
$DIMALTZ
 70
     8
  9
$DIMALTTZ
 70
     8
  9
$DIMFIT
 70
     3
  9
$DIMUPT
 70
     0
  9
$DIMUNIT
 70
     2
  9
$DIMDEC
 70
     2
  9
$DIMTDEC
 70
     2
  9
$DIMALTU
 70
     2
  9
$DIMALTTD
 70
     2
  9
$DIMTXSTY
  7
BIGFONT
  9
$DIMAUNIT
 70
     0
  9
$LUNITS
 70
     2
  9
$LUPREC
 70
     2
  9
$SKETCHINC
 40
0.1
  9
$FILLETRAD
 40
1.5
  9
$AUNITS
 70
     0
  9
$AUPREC
 70
     2
  9
$MENU
  1
stdr12j
  9
$ELEVATION
 40
0.0
  9
$PELEVATION
 40
0.0
  9
$THICKNESS
 40
0.0
  9
$LIMCHECK
 70
     0
  9
$BLIPMODE
 70
     0
  9
$CHAMFERA
 40
0.0
  9
$CHAMFERB
 40
0.0
  9
$CHAMFERC
 40
0.0
  9
$CHAMFERD
 40
0.0
  9
$SKPOLY
 70
     0
  9
$TDCREATE
 40
2450617.453041203
  9
$TDUPDATE
 40
2453614.459118345
  9
$TDINDWG
 40
0.1838593403
  9
$TDUSRTIMER
 40
0.1838593403
  9
$USRTIMER
 70
     1
  9
$ANGBASE
 50
0.0
  9
$ANGDIR
 70
     0
  9
$PDMODE
 70
     0
  9
$PDSIZE
 40
0.0
  9
$PLINEWID
 40
0.0
  9
$COORDS
 70
     2
  9
$SPLFRAME
 70
     0
  9
$SPLINETYPE
 70
     6
  9
$SPLINESEGS
 70
     8
  9
$ATTDIA
 70
     0
  9
$ATTREQ
 70
     1
  9
$HANDLING
 70
 22529
  9
$HANDSEED
  5
EF7C89732
  9
$SURFTAB1
 70
     6
  9
$SURFTAB2
 70
     6
  9
$SURFTYPE
 70
     6
  9
$SURFU
 70
     6
  9
$SURFV
 70
     6
  9
$UCSNAME
  2

  9
$UCSORG
 10
0.0
 20
0.0
 30
0.0
  9
$UCSXDIR
 10
1.0
 20
0.0
 30
0.0
  9
$UCSYDIR
 10
0.0
 20
1.0
 30
0.0
  9
$PUCSNAME
  2

  9
$PUCSORG
 10
0.0
 20
0.0
 30
0.0
  9
$PUCSXDIR
 10
1.0
 20
0.0
 30
0.0
  9
$PUCSYDIR
 10
0.0
 20
1.0
 30
0.0
  9
$USERI1
 70
     0
  9
$USERI2
 70
     1
  9
$USERI3
 70
     1
  9
$USERI4
 70
     3
  9
$USERI5
 70
     0
  9
$USERR1
 40
1.0
  9
$USERR2
 40
3.0
  9
$USERR3
 40
3.0
  9
$USERR4
 40
1.5
  9
$USERR5
 40
8.0
  9
$WORLDVIEW
 70
     1
  9
$SHADEDGE
 70
     3
  9
$SHADEDIF
 70
    70
  9
$TILEMODE
 70
     1
  9
$MAXACTVP
 70
    16
  9
$PINSBASE
 10
0.0
 20
0.0
 30
0.0
  9
$PLIMCHECK
 70
     0
  9
$PEXTMIN
 10
1.000000000000000E+20
 20
1.000000000000000E+20
 30
1.000000000000000E+20
  9
$PEXTMAX
 10
-1.000000000000000E+20
 20
-1.000000000000000E+20
 30
-1.000000000000000E+20
  9
$PLIMMIN
 10
0.0
 20
0.0
  9
$PLIMMAX
 10
12.0
 20
9.0
  9
$UNITMODE
 70
     0
  9
$VISRETAIN
 70
     0
  9
$PLINEGEN
 70
     0
  9
$PSLTSCALE
 70
     0
  9
$TREEDEPTH
 70
  3020
  9
$PICKSTYLE
 70
     1
  9
$CMLSTYLE
  2
STANDARD
  9
$CMLJUST
 70
     0
  9
$CMLSCALE
 40
1.0
  9
$PROXYGRAPHICS
 70
     1
  9
$MEASUREMENT
 70
     0
  0
ENDSEC
  0
SECTION
  2
CLASSES
  0
CLASS
  1
LWPOLYLINE
  2
AcDbPolyline
  3
AutoCAD 2000
 90
        0
280
     0
281
     1
  0
CLASS
  1
HATCH
  2
AcDbHatch
  3
AutoCAD 2000
 90
        0
280
     0
281
     1
  0
CLASS
  1
ACDBDICTIONARYWDFLT
  2
AcDbDictionaryWithDefault
  3
AutoCAD 2000
 90
        0
280
     0
281
     0
  0
CLASS
  1
ACDBPLACEHOLDER
  2
AcDbPlaceHolder
  3
AutoCAD 2000
 90
        0
280
     0
281
     0
  0
CLASS
  1
LAYOUT
  2
AcDbLayout
  3
AutoCAD 2000
 90
        0
280
     0
281
     0
  0
CLASS
  1
LONG_TRANSACTION
  2
AcDbLongTransaction
  3
AutoCAD 2000
 90
        0
280
     0
281
     0
  0
CLASS
  1
LWPOLYLINE
  2
AcDbPolyline
  3
AutoCAD 2000
 90
        0
280
     0
281
     1
  0
CLASS
  1
HATCH
  2
AcDbHatch
  3
AutoCAD 2000
 90
        0
280
     0
281
     1
  0
CLASS
  1
XRECORD
  2
AcDbXrecord
  3
AutoCAD 2000
 90
        0
280
     0
281
     0
  0
CLASS
  1
DICTIONARYVAR
  2
AcDbDictionaryVar
  3
AutoCAD 2000
 90
        0
280
     0
281
     0
  0
CLASS
  1
LONG_TRANSACTION
  2
AcDbLongTransaction
  3
AutoCAD 2000
 90
        0
280
     0
281
     0
  0
CLASS
  1
LWPOLYLINE
  2
AcDbPolyline
  3
AutoCAD 2000
 90
        0
280
     0
281
     1
  0
CLASS
  1
HATCH
  2
AcDbHatch
  3
AutoCAD 2000
 90
        0
280
     0
281
     1
  0
CLASS
  1
XRECORD
  2
AcDbXrecord
  3
AutoCAD 2000
 90
        0
280
     0
281
     0
  0
CLASS
  1
LONG_TRANSACTION
  2
AcDbLongTransaction
  3
AutoCAD 2000
 90
        0
280
     0
281
     0
  0
CLASS
  1
LWPOLYLINE
  2
AcDbPolyline
  3
AutoCAD 2000
 90
        0
280
     0
281
     1
  0
CLASS
  1
HATCH
  2
AcDbHatch
  3
AutoCAD 2000
 90
        0
280
     0
281
     1
  0
CLASS
  1
XRECORD
  2
AcDbXrecord
  3
AutoCAD 2000
 90
        0
280
     0
281
     0
  0
CLASS
  1
LONG_TRANSACTION
  2
AcDbLongTransaction
  3
AutoCAD 2000
 90
        0
280
     0
281
     0
  0
CLASS
  1
LWPOLYLINE
  2
AcDbPolyline
  3
AutoCAD 2000
 90
        0
280
     0
281
     1
  0
CLASS
  1
HATCH
  2
AcDbHatch
  3
AutoCAD 2000
 90
        0
280
     0
281
     1
  0
CLASS
  1
XRECORD
  2
AcDbXrecord
  3
AutoCAD 2000
 90
        0
280
     0
281
     0
  0
CLASS
  1
LONG_TRANSACTION
  2
AcDbLongTransaction
  3
AutoCAD 2000
 90
        0
280
     0
281
     0
  0
CLASS
  1
LWPOLYLINE
  2
AcDbPolyline
  3
AutoCAD 2000
 90
        0
280
     0
281
     1
  0
CLASS
  1
HATCH
  2
AcDbHatch
  3
AutoCAD 2000
 90
        0
280
     0
281
     1
  0
CLASS
  1
XRECORD
  2
AcDbXrecord
  3
AutoCAD 2000
 90
        0
280
     0
281
     0
  0
CLASS
  1
LONG_TRANSACTION
  2
AcDbLongTransaction
  3
AutoCAD 2000
 90
        0
280
     0
281
     0
  0
CLASS
  1
LWPOLYLINE
  2
AcDbPolyline
  3
AutoCAD 2000
 90
        0
280
     0
281
     1
  0
CLASS
  1
HATCH
  2
AcDbHatch
  3
AutoCAD 2000
 90
        0
280
     0
281
     1
  0
CLASS
  1
XRECORD
  2
AcDbXrecord
  3
AutoCAD 2000
 90
        0
280
     0
281
     0
  0
CLASS
  1
LONG_TRANSACTION
  2
AcDbLongTransaction
  3
AutoCAD 2000
 90
        0
280
     0
281
     0
  0
CLASS
  1
LWPOLYLINE
  2
AcDbPolyline
  3
AutoCAD 2000
 90
        0
280
     0
281
     1
  0
CLASS
  1
HATCH
  2
AcDbHatch
  3
AutoCAD 2000
 90
        0
280
     0
281
     1
  0
CLASS
  1
XRECORD
  2
AcDbXrecord
  3
AutoCAD 2000
 90
        0
280
     0
281
     0
  0
CLASS
  1
LONG_TRANSACTION
  2
AcDbLongTransaction
  3
AutoCAD 2000
 90
        0
280
     0
281
     0
  0
CLASS
  1
LWPOLYLINE
  2
AcDbPolyline
  3
AutoCAD 2000
 90
        0
280
     0
281
     1
  0
CLASS
  1
HATCH
  2
AcDbHatch
  3
AutoCAD 2000
 90
        0
280
     0
281
     1
  0
CLASS
  1
XRECORD
  2
AcDbXrecord
  3
AutoCAD 2000
 90
        0
280
     0
281
     0
  0
CLASS
  1
LONG_TRANSACTION
  2
AcDbLongTransaction
  3
AutoCAD 2000
 90
        0
280
     0
281
     0
  0
CLASS
  1
LWPOLYLINE
  2
AcDbPolyline
  3
AutoCAD 2000
 90
        0
280
     0
281
     1
  0
CLASS
  1
HATCH
  2
AcDbHatch
  3
AutoCAD 2000
 90
        0
280
     0
281
     1
  0
CLASS
  1
XRECORD
  2
AcDbXrecord
  3
AutoCAD 2000
 90
        0
280
     0
281
     0
  0
CLASS
  1
LONG_TRANSACTION
  2
AcDbLongTransaction
  3
AutoCAD 2000
 90
        0
280
     0
281
     0
  0
CLASS
  1
LWPOLYLINE
  2
AcDbPolyline
  3
AutoCAD 2000
 90
        0
280
     0
281
     1
  0
CLASS
  1
HATCH
  2
AcDbHatch
  3
AutoCAD 2000
 90
        0
280
     0
281
     1
  0
CLASS
  1
XRECORD
  2
AcDbXrecord
  3
AutoCAD 2000
 90
        0
280
     0
281
     0
  0
CLASS
  1
LONG_TRANSACTION
  2
AcDbLongTransaction
  3
AutoCAD 2000
 90
        0
280
     0
281
     0
  0
CLASS
  1
LWPOLYLINE
  2
AcDbPolyline
  3
AutoCAD 2000
 90
        0
280
     0
281
     1
  0
CLASS
  1
HATCH
  2
AcDbHatch
  3
AutoCAD 2000
 90
        0
280
     0
281
     1
  0
CLASS
  1
XRECORD
  2
AcDbXrecord
  3
AutoCAD 2000
 90
        0
280
     0
281
     0
  0
CLASS
  1
LONG_TRANSACTION
  2
AcDbLongTransaction
  3
AutoCAD 2000
 90
        0
280
     0
281
     0
  0
CLASS
  1
LWPOLYLINE
  2
AcDbPolyline
  3
AutoCAD 2000
 90
        0
280
     0
281
     1
  0
CLASS
  1
HATCH
  2
AcDbHatch
  3
AutoCAD 2000
 90
        0
280
     0
281
     1
  0
CLASS
  1
XRECORD
  2
AcDbXrecord
  3
AutoCAD 2000
 90
        0
280
     0
281
     0
  0
CLASS
  1
LONG_TRANSACTION
  2
AcDbLongTransaction
  3
AutoCAD 2000
 90
        0
280
     0
281
     0
  0
CLASS
  1
LWPOLYLINE
  2
AcDbPolyline
  3
AutoCAD 2000
 90
        0
280
     0
281
     1
  0
CLASS
  1
HATCH
  2
AcDbHatch
  3
AutoCAD 2000
 90
        0
280
     0
281
     1
  0
CLASS
  1
XRECORD
  2
AcDbXrecord
  3
AutoCAD 2000
 90
        0
280
     0
281
     0
  0
CLASS
  1
LONG_TRANSACTION
  2
AcDbLongTransaction
  3
AutoCAD 2000
 90
        0
280
     0
281
     0
  0
CLASS
  1
LWPOLYLINE
  2
AcDbPolyline
  3
AutoCAD 2000
 90
        0
280
     0
281
     1
  0
CLASS
  1
HATCH
  2
AcDbHatch
  3
AutoCAD 2000
 90
        0
280
     0
281
     1
  0
CLASS
  1
XRECORD
  2
AcDbXrecord
  3
AutoCAD 2000
 90
        0
280
     0
281
     0
  0
CLASS
  1
LONG_TRANSACTION
  2
AcDbLongTransaction
  3
AutoCAD 2000
 90
        0
280
     0
281
     0
  0
CLASS
  1
LWPOLYLINE
  2
AcDbPolyline
  3
AutoCAD 2000
 90
        0
280
     0
281
     1
  0
CLASS
  1
HATCH
  2
AcDbHatch
  3
AutoCAD 2000
 90
        0
280
     0
281
     1
  0
CLASS
  1
XRECORD
  2
AcDbXrecord
  3
AutoCAD 2000
 90
        0
280
     0
281
     0
  0
CLASS
  1
LONG_TRANSACTION
  2
AcDbLongTransaction
  3
AutoCAD 2000
 90
        0
280
     0
281
     0
  0
CLASS
  1
LWPOLYLINE
  2
AcDbPolyline
  3
AutoCAD 2000
 90
        0
280
     0
281
     1
  0
CLASS
  1
HATCH
  2
AcDbHatch
  3
AutoCAD 2000
 90
        0
280
     0
281
     1
  0
CLASS
  1
XRECORD
  2
AcDbXrecord
  3
AutoCAD 2000
 90
        0
280
     0
281
     0
  0
CLASS
  1
LONG_TRANSACTION
  2
AcDbLongTransaction
  3
AutoCAD 2000
 90
        0
280
     0
281
     0
  0
CLASS
  1
LWPOLYLINE
  2
AcDbPolyline
  3
AutoCAD 2000
 90
        0
280
     0
281
     1
  0
CLASS
  1
HATCH
  2
AcDbHatch
  3
AutoCAD 2000
 90
        0
280
     0
281
     1
  0
CLASS
  1
XRECORD
  2
AcDbXrecord
  3
AutoCAD 2000
 90
        0
280
     0
281
     0
  0
ENDSEC
  0
SECTION
  2
TABLES
  0
TABLE
  2
VPORT
  5
EF7C85523
330
0
100
AcDbSymbolTable
 70
    10
  0
VPORT
  5
EF7C85567
330
EF7C85523
100
AcDbSymbolTableRecord
100
AcDbViewportTableRecord
  2
2
 70
     0
 10
0.5
 20
0.0
 11
1.0
 21
1.0
 12
0.9240312421264802
 22
1.052650975462765
 13
0.0
 23
0.0
 14
1.0
 24
1.0
 15
10.0
 25
10.0
 16
0.0
 26
0.0
 36
1.0
 17
0.0
 27
0.0
 37
0.0
 40
2.105301950925533
 41
0.8778135048231511
 42
50.0
 43
0.0
 44
0.0
 50
0.0
 51
0.0
 71
     0
 72
   500
 73
     1
 74
     1
 75
     0
 76
     0
 77
     0
 78
     0
  0
VPORT
  5
EF7C85568
330
EF7C85523
100
AcDbSymbolTableRecord
100
AcDbViewportTableRecord
  2
2
 70
     0
 10
0.0
 20
0.0
 11
0.5
 21
1.0
 12
0.9240312421264802
 22
1.052650975462765
 13
0.0
 23
0.0
 14
1.0
 24
1.0
 15
10.0
 25
10.0
 16
0.0
 26
0.0
 36
1.0
 17
0.0
 27
0.0
 37
0.0
 40
2.105301950925533
 41
0.8778135048231511
 42
50.0
 43
0.0
 44
0.0
 50
0.0
 51
0.0
 71
     0
 72
   500
 73
     1
 74
     1
 75
     0
 76
     0
 77
     0
 78
     0
  0
VPORT
  5
EF7C85569
330
EF7C85523
100
AcDbSymbolTableRecord
100
AcDbViewportTableRecord
  2
3
 70
     0
 10
0.0
 20
0.5
 11
1.0
 21
1.0
 12
2.832169994473273
 22
1.052650975462765
 13
0.0
 23
0.0
 14
1.0
 24
1.0
 15
10.0
 25
10.0
 16
0.0
 26
0.0
 36
1.0
 17
0.0
 27
0.0
 37
0.0
 40
2.105301950925533
 41
3.571428571428571
 42
50.0
 43
0.0
 44
0.0
 50
0.0
 51
0.0
 71
     0
 72
   500
 73
     1
 74
     1
 75
     0
 76
     0
 77
     0
 78
     0
  0
VPORT
  5
EF7C8556A
330
EF7C85523
100
AcDbSymbolTableRecord
100
AcDbViewportTableRecord
  2
3
 70
     0
 10
0.0
 20
0.0
 11
1.0
 21
0.5
 12
2.856741679241311
 22
1.052650975462765
 13
0.0
 23
0.0
 14
1.0
 24
1.0
 15
10.0
 25
10.0
 16
0.0
 26
0.0
 36
1.0
 17
0.0
 27
0.0
 37
0.0
 40
2.105301950925533
 41
3.594771241830064
 42
50.0
 43
0.0
 44
0.0
 50
0.0
 51
0.0
 71
     0
 72
   500
 73
     1
 74
     1
 75
     0
 76
     0
 77
     0
 78
     0
  0
VPORT
  5
EF7C8556B
330
EF7C85523
100
AcDbSymbolTableRecord
100
AcDbViewportTableRecord
  2
4
 70
     0
 10
0.5
 20
0.0
 11
1.0
 21
0.5
 12
2.886857516709718
 22
1.052650975462765
 13
0.0
 23
0.0
 14
1.0
 24
1.0
 15
10.0
 25
10.0
 16
0.0
 26
0.0
 36
1.0
 17
0.0
 27
0.0
 37
0.0
 40
4.275207030309069
 41
1.784313725490195
 42
50.0
 43
0.0
 44
0.0
 50
0.0
 51
0.0
 71
     0
 72
   500
 73
     1
 74
     1
 75
     0
 76
     0
 77
     0
 78
     0
  0
VPORT
  5
EF7C8556C
330
EF7C85523
100
AcDbSymbolTableRecord
100
AcDbViewportTableRecord
  2
4
 70
     0
 10
0.5
 20
0.5
 11
1.0
 21
1.0
 12
2.862090274555523
 22
1.052650975462765
 13
0.0
 23
0.0
 14
1.0
 24
1.0
 15
10.0
 25
10.0
 16
0.0
 26
0.0
 36
1.0
 17
0.0
 27
0.0
 37
0.0
 40
4.275207030309069
 41
1.772727272727271
 42
50.0
 43
0.0
 44
0.0
 50
0.0
 51
0.0
 71
     0
 72
   500
 73
     1
 74
     1
 75
     0
 76
     0
 77
     0
 78
     0
  0
VPORT
  5
EF7C8556D
330
EF7C85523
100
AcDbSymbolTableRecord
100
AcDbViewportTableRecord
  2
4
 70
     0
 10
0.0
 20
0.5
 11
0.5
 21
1.0
 12
2.862090274555523
 22
1.052650975462765
 13
0.0
 23
0.0
 14
1.0
 24
1.0
 15
10.0
 25
10.0
 16
0.0
 26
0.0
 36
1.0
 17
0.0
 27
0.0
 37
0.0
 40
4.275207030309069
 41
1.772727272727271
 42
50.0
 43
0.0
 44
0.0
 50
0.0
 51
0.0
 71
     0
 72
   500
 73
     1
 74
     1
 75
     0
 76
     0
 77
     0
 78
     0
  0
VPORT
  5
EF7C8556E
330
EF7C85523
100
AcDbSymbolTableRecord
100
AcDbViewportTableRecord
  2
4
 70
     0
 10
0.0
 20
0.0
 11
0.5
 21
0.5
 12
2.886857516709718
 22
1.052650975462765
 13
0.0
 23
0.0
 14
1.0
 24
1.0
 15
10.0
 25
10.0
 16
0.0
 26
0.0
 36
1.0
 17
0.0
 27
0.0
 37
0.0
 40
4.275207030309069
 41
1.784313725490195
 42
50.0
 43
0.0
 44
0.0
 50
0.0
 51
0.0
 71
     0
 72
   500
 73
     1
 74
     1
 75
     0
 76
     0
 77
     0
 78
     0
  0
VPORT
  5
EF7C8970E
330
EF7C85523
100
AcDbSymbolTableRecord
100
AcDbViewportTableRecord
  2
*ACTIVE
 70
     0
 10
0.0
 20
0.0
 11
1.0
 21
1.0
 12
271.5000015603428
 22
141.5000013178616
 13
0.0
 23
0.0
 14
1.0
 24
1.0
 15
10.0
 25
10.0
 16
0.0
 26
0.0
 36
1.0
 17
0.0
 27
0.0
 37
0.0
 40
286.528800618818
 41
1.954639175257731
 42
50.0
 43
0.0
 44
0.0
 50
0.0
 51
0.0
 71
     0
 72
   500
 73
     1
 74
     0
 75
     0
 76
     0
 77
     0
 78
     0
  0
ENDTAB
  0
TABLE
  2
LTYPE
  5
EF7C85520
330
0
100
AcDbSymbolTable
 70
     3
  0
LTYPE
  5
EF7C8552C
330
EF7C85520
100
AcDbSymbolTableRecord
100
AcDbLinetypeTableRecord
  2
BYBLOCK
 70
     0
  3

 72
    65
 73
     0
 40
0.0
  0
LTYPE
  5
EF7C8552D
330
EF7C85520
100
AcDbSymbolTableRecord
100
AcDbLinetypeTableRecord
  2
BYLAYER
 70
     0
  3

 72
    65
 73
     0
 40
0.0
  0
LTYPE
  5
EF7C8552E
330
EF7C85520
100
AcDbSymbolTableRecord
100
AcDbLinetypeTableRecord
  2
CONTINUOUS
 70
     0
  3
実線
 72
    65
 73
     0
 40
0.0
  0
LTYPE
  5
EF7C85565
330
EF7C85520
100
AcDbSymbolTableRecord
100
AcDbLinetypeTableRecord
  2
PHANTOM
 70
     0
  3
_____ _ _ _____ _ _ _____ _ _ _____ _ _ ____
 72
    65
 73
     6
 40
2.5
 49
1.25
 74
     0
 49
-0.25
 74
     0
 49
0.25
 74
     0
 49
-0.25
 74
     0
 49
0.25
 74
     0
 49
-0.25
 74
     0
  0
LTYPE
  5
EF7C89259
330
EF7C85520
100
AcDbSymbolTableRecord
100
AcDbLinetypeTableRecord
  2
HIDDEN
 70
     0
  3
_ _ _ _ _ _ _ _ _ _ _ _ _ _ _ _ _ _ _ _ _ _ _
 72
    65
 73
     2
 40
0.375
 49
0.25
 74
     0
 49
-0.125
 74
     0
  0
ENDTAB
  0
TABLE
  2
LAYER
  5
EF7C8551D
102
{ACAD_XDICTIONARY
360
EF7C89476
102
}
330
0
100
AcDbSymbolTable
 70
     9
  0
LAYER
  5
EF7C85529
330
EF7C8551D
100
AcDbSymbolTableRecord
100
AcDbLayerTableRecord
  2
0
 70
     0
 62
     6
  6
CONTINUOUS
  0
LAYER
  5
EF7C85574
330
EF7C8551D
100
AcDbSymbolTableRecord
100
AcDbLayerTableRecord
  2
NITEN
 70
     0
 62
     2
  6
PHANTOM
  0
LAYER
  5
EF7C85575
330
EF7C8551D
100
AcDbSymbolTableRecord
100
AcDbLayerTableRecord
  2
HATCH
 70
     0
 62
     4
  6
CONTINUOUS
  0
LAYER
  5
EF7C85576
330
EF7C8551D
100
AcDbSymbolTableRecord
100
AcDbLayerTableRecord
  2
SUNPOU
 70
     0
 62
     3
  6
CONTINUOUS
  0
LAYER
  5
EF7C85577
330
EF7C8551D
100
AcDbSymbolTableRecord
100
AcDbLayerTableRecord
  2
TEXT
 70
     0
 62
     3
  6
CONTINUOUS
  0
LAYER
  5
EF7C85578
330
EF7C8551D
100
AcDbSymbolTableRecord
100
AcDbLayerTableRecord
  2
SAISEN
 70
     0
 62
     4
  6
CONTINUOUS
  0
LAYER
  5
EF7C85579
330
EF7C8551D
100
AcDbSymbolTableRecord
100
AcDbLayerTableRecord
  2
JISSEN
 70
     0
 62
     7
  6
CONTINUOUS
  0
LAYER
  5
EF7C8557D
330
EF7C8551D
100
AcDbSymbolTableRecord
100
AcDbLayerTableRecord
  2
WAKU
 70
     0
 62
     5
  6
CONTINUOUS
  0
LAYER
  5
EF7C8925B
330
EF7C8551D
100
AcDbSymbolTableRecord
100
AcDbLayerTableRecord
  2
TENSEN
 70
     0
 62
     2
  6
HIDDEN
  0
ENDTAB
  0
TABLE
  2
STYLE
  5
EF7C8551E
330
0
100
AcDbSymbolTable
 70
     3
  0
STYLE
  5
EF7C8552A
330
EF7C8551E
100
AcDbSymbolTableRecord
100
AcDbTextStyleTableRecord
  2
STANDARD
 70
     0
 40
0.0
 41
1.0
 50
0.0
 71
     0
 42
1.5
  3
SIMPLEX
  4

  0
STYLE
  5
EF7C85558
330
EF7C8551E
100
AcDbSymbolTableRecord
100
AcDbTextStyleTableRecord
  2
K
 70
     0
 40
0.0
 41
1.0
 50
0.0
 71
     0
 42
3.0
  3
ROMANS
  4
BIGFONT
  0
STYLE
  5
EF7C8555B
330
EF7C8551E
100
AcDbSymbolTableRecord
100
AcDbTextStyleTableRecord
  2
BIGFONT
 70
     0
 40
0.0
 41
1.0
 50
0.0
 71
     0
 42
3.0
  3
txt.shx
  4
bigfont
  0
ENDTAB
  0
TABLE
  2
VIEW
  5
EF7C85521
330
0
100
AcDbSymbolTable
 70
     0
  0
ENDTAB
  0
TABLE
  2
UCS
  5
EF7C85522
330
0
100
AcDbSymbolTable
 70
     0
  0
ENDTAB
  0
TABLE
  2
APPID
  5
EF7C85524
330
0
100
AcDbSymbolTable
 70
     1
  0
APPID
  5
EF7C8552B
330
EF7C85524
100
AcDbSymbolTableRecord
100
AcDbRegAppTableRecord
  2
ACAD
 70
     0
  0
ENDTAB
  0
TABLE
  2
DIMSTYLE
  5
EF7C85525
330
0
100
AcDbSymbolTable
 70
     2
  0
DIMSTYLE
105
EF7C85571
330
EF7C85525
100
AcDbSymbolTableRecord
100
AcDbDimStyleTableRecord
  2
IMAO
 70
     0
  3

  4

  5
ARROWANG
  6
ARROWANG
  7
ARROWANG
 40
1.0
 41
1.5
 42
1.0
 43
6.0
 44
1.0
 45
0.0
 46
0.0
 47
495.0
 48
0.0
140
3.0
141
0.0
142
0.0
143
25.4
144
1.0
145
0.0
146
1.0
147
0.09
 71
     0
 72
     0
 73
     0
 74
     0
 75
     0
 76
     0
 77
     1
 78
     8
170
     0
171
     2
172
     1
173
     0
174
     1
175
     0
176
     0
177
     0
178
     0
270
     2
271
     2
272
     2
273
     2
274
     2
340
EF7C8555B
275
     0
280
     0
281
     0
282
     0
283
     1
284
     8
285
     8
286
     8
287
     3
288
     0
  0
DIMSTYLE
105
EF7C87CA1
330
EF7C85525
100
AcDbSymbolTableRecord
100
AcDbDimStyleTableRecord
  2
STANDARD
 70
     0
  3

  4

  5

  6

  7

 40
1.0
 41
0.18
 42
0.0625
 43
0.38
 44
0.18
 45
0.0
 46
0.0
 47
0.0
 48
0.0
140
0.18
141
0.09
142
0.0
143
25.4
144
1.0
145
0.0
146
1.0
147
0.09
 71
     0
 72
     0
 73
     1
 74
     1
 75
     0
 76
     0
 77
     0
 78
     0
170
     0
171
     2
172
     0
173
     0
174
     0
175
     0
176
     0
177
     0
178
     0
270
     2
271
     4
272
     4
273
     2
274
     2
340
EF7C8552A
275
     0
280
     0
281
     0
282
     0
283
     1
284
     0
285
     0
286
     0
287
     3
288
     0
  0
ENDTAB
  0
TABLE
  2
BLOCK_RECORD
  5
EF7C8551C
330
0
100
AcDbSymbolTable
 70
    10
  0
BLOCK_RECORD
  5
EF7C85532
102
{ACAD_XDICTIONARY
360
EF7C85D9A
102
}
330
EF7C8551C
100
AcDbSymbolTableRecord
100
AcDbBlockTableRecord
  2
*MODEL_SPACE
  0
BLOCK_RECORD
  5
EF7C8552F
102
{ACAD_XDICTIONARY
360
EF7C85D98
102
}
330
EF7C8551C
100
AcDbSymbolTableRecord
100
AcDbBlockTableRecord
  2
*PAPER_SPACE
  0
BLOCK_RECORD
  5
EF7C85537
330
EF7C8551C
100
AcDbSymbolTableRecord
100
AcDbBlockTableRecord
  2
ARROW
  0
BLOCK_RECORD
  5
EF7C8553B
330
EF7C8551C
100
AcDbSymbolTableRecord
100
AcDbBlockTableRecord
  2
WAKU
  0
BLOCK_RECORD
  5
EF7C8553D
330
EF7C8551C
100
AcDbSymbolTableRecord
100
AcDbBlockTableRecord
  2
*X2
  0
BLOCK_RECORD
  5
EF7C8553E
330
EF7C8551C
100
AcDbSymbolTableRecord
100
AcDbBlockTableRecord
  2
STDGX5
  0
BLOCK_RECORD
  5
EF7C8553F
330
EF7C8551C
100
AcDbSymbolTableRecord
100
AcDbBlockTableRecord
  2
*X4
  0
BLOCK_RECORD
  5
EF7C85540
330
EF7C8551C
100
AcDbSymbolTableRecord
100
AcDbBlockTableRecord
  2
*X5
  0
BLOCK_RECORD
  5
EF7C85541
330
EF7C8551C
100
AcDbSymbolTableRecord
100
AcDbBlockTableRecord
  2
*X6
  0
BLOCK_RECORD
  5
EF7C85542
330
EF7C8551C
100
AcDbSymbolTableRecord
100
AcDbBlockTableRecord
  2
*X7
  0
BLOCK_RECORD
  5
EF7C85543
330
EF7C8551C
100
AcDbSymbolTableRecord
100
AcDbBlockTableRecord
  2
ARROWANG
  0
BLOCK_RECORD
  5
EF7C85544
330
EF7C8551C
100
AcDbSymbolTableRecord
100
AcDbBlockTableRecord
  2
STDR12J
  0
ENDTAB
  0
ENDSEC
  0
SECTION
  2
BLOCKS
  0
BLOCK
  5
EF7C85580
330
EF7C85532
100
AcDbEntity
  8
0
100
AcDbBlockBegin
  2
*MODEL_SPACE
 70
     0
 10
0.0
 20
0.0
 30
0.0
  3
*MODEL_SPACE
  1

  0
ENDBLK
  5
EF7C85581
330
EF7C85532
100
AcDbEntity
  8
0
100
AcDbBlockEnd
  0
BLOCK
  5
EF7C8557E
330
EF7C8552F
100
AcDbEntity
 67
     1
  8
0
100
AcDbBlockBegin
  2
*PAPER_SPACE
 70
     0
 10
0.0
 20
0.0
 30
0.0
  3
*PAPER_SPACE
  1

  0
ENDBLK
  5
EF7C8557F
330
EF7C8552F
100
AcDbEntity
 67
     1
  8
0
100
AcDbBlockEnd
  0
BLOCK
  5
499
330
EF7C85537
100
AcDbEntity
  8
0
100
AcDbBlockBegin
  2
ARROW
 70
     0
 10
1.0
 20
0.5
 30
0.0
  3
ARROW
  1

  0
LINE
  5
49A
330
EF7C85537
100
AcDbEntity
  8
0
100
AcDbLine
 10
1.0
 20
0.5
 30
0.0
 11
-0.5000000000000214
 21
0.0980762113533018
 31
0.0
  0
LINE
  5
49B
330
EF7C85537
100
AcDbEntity
  8
0
100
AcDbLine
 10
0.0
 20
0.5
 30
0.0
 11
1.0
 21
0.5
 31
0.0
  0
LINE
  5
49C
330
EF7C85537
100
AcDbEntity
  8
0
100
AcDbLine
 10
1.0
 20
0.5
 30
0.0
 11
-0.4999999999999575
 21
0.9019237886467408
 31
0.0
  0
ENDBLK
  5
49D
330
EF7C85537
100
AcDbEntity
  8
0
100
AcDbBlockEnd
  0
BLOCK
  5
4A7
330
EF7C8553B
100
AcDbEntity
  8
0
100
AcDbBlockBegin
  2
WAKU
 70
     0
 10
0.0
 20
0.0
 30
0.0
  3
WAKU
  1

  0
LINE
  5
4A8
330
EF7C8553B
100
AcDbEntity
  8
WAKU
100
AcDbLine
 10
0.9999999959999998
 20
0.0
 30
0.0
 11
0.9999999959999998
 21
0.9999999999999998
 31
0.0
  0
LINE
  5
4A9
330
EF7C8553B
100
AcDbEntity
  8
WAKU
100
AcDbLine
 10
0.0
 20
0.9999999999999998
 30
0.0
 11
0.9999999959999998
 21
0.9999999999999998
 31
0.0
  0
LINE
  5
4AA
330
EF7C8553B
100
AcDbEntity
  8
WAKU
100
AcDbLine
 10
0.9999999959999998
 20
0.0
 30
0.0
 11
0.0
 21
0.0
 31
0.0
  0
LINE
  5
4AB
330
EF7C8553B
100
AcDbEntity
  8
WAKU
100
AcDbLine
 10
0.0
 20
0.0
 30
0.0
 11
0.0
 21
0.9999999999999998
 31
0.0
  0
ENDBLK
  5
4AC
330
EF7C8553B
100
AcDbEntity
  8
0
100
AcDbBlockEnd
  0
BLOCK
  5
2764
330
EF7C8553D
100
AcDbEntity
  8
0
100
AcDbBlockBegin
  2
*X2
 70
     1
 10
0.0
 20
0.0
 30
0.0
  3
*X2
  1

  0
ENDBLK
  5
2765
330
EF7C8553D
100
AcDbEntity
  8
0
100
AcDbBlockEnd
  0
BLOCK
  5
2766
330
EF7C8553E
100
AcDbEntity
  8
0
100
AcDbBlockBegin
  2
STDGX5
 70
     0
 10
0.0
 20
0.0
 30
0.0
  3
STDGX5
  1

  0
ENDBLK
  5
2767
330
EF7C8553E
100
AcDbEntity
  8
0
100
AcDbBlockEnd
  0
BLOCK
  5
2F5A
330
EF7C8553F
100
AcDbEntity
  8
0
100
AcDbBlockBegin
  2
*X4
 70
     1
 10
0.0
 20
0.0
 30
0.0
  3
*X4
  1

  0
ENDBLK
  5
2F5B
330
EF7C8553F
100
AcDbEntity
  8
0
100
AcDbBlockEnd
  0
BLOCK
  5
32BB
330
EF7C85540
100
AcDbEntity
  8
0
100
AcDbBlockBegin
  2
*X5
 70
     1
 10
0.0
 20
0.0
 30
0.0
  3
*X5
  1

  0
ENDBLK
  5
32BC
330
EF7C85540
100
AcDbEntity
  8
0
100
AcDbBlockEnd
  0
BLOCK
  5
372F
330
EF7C85541
100
AcDbEntity
  8
0
100
AcDbBlockBegin
  2
*X6
 70
     1
 10
0.0
 20
0.0
 30
0.0
  3
*X6
  1

  0
ENDBLK
  5
3730
330
EF7C85541
100
AcDbEntity
  8
0
100
AcDbBlockEnd
  0
BLOCK
  5
3A6D
330
EF7C85542
100
AcDbEntity
  8
0
100
AcDbBlockBegin
  2
*X7
 70
     1
 10
0.0
 20
0.0
 30
0.0
  3
*X7
  1

  0
ENDBLK
  5
3A6E
330
EF7C85542
100
AcDbEntity
  8
0
100
AcDbBlockEnd
  0
BLOCK
  5
4CC9
330
EF7C85543
100
AcDbEntity
  8
0
100
AcDbBlockBegin
  2
ARROWANG
 70
     0
 10
0.0
 20
0.0
 30
0.0
  3
ARROWANG
  1

  0
LINE
  5
4CCA
330
EF7C85543
100
AcDbEntity
  8
SUNPOU
100
AcDbLine
 10
0.0
 20
0.0
 30
0.0
 11
-1.499999999999956
 21
0.401923788646741
 31
0.0
  0
LINE
  5
4CCB
330
EF7C85543
100
AcDbEntity
  8
SUNPOU
100
AcDbLine
 10
0.0
 20
0.0
 30
0.0
 11
-1.500000000000027
 21
-0.4019237886467124
 31
0.0
  0
ENDBLK
  5
4CCC
330
EF7C85543
100
AcDbEntity
  8
0
100
AcDbBlockEnd
  0
BLOCK
  5
4CCD
330
EF7C85544
100
AcDbEntity
  8
0
100
AcDbBlockBegin
  2
STDR12J
 70
     0
 10
0.0
 20
0.0
 30
0.0
  3
STDR12J
  1

  0
ENDBLK
  5
4CF2
330
EF7C85544
100
AcDbEntity
  8
0
100
AcDbBlockEnd
  0
ENDSEC
  0
SECTION
  2
ENTITIES
  0
TEXT
  5
1
330
EF7C85532
100
AcDbEntity
  8
SUNPOU
100
AcDbText
 10
95.05869565217388
 20
43.7966872748706
 30
0.0
 40
1.5
  1
                          
100
AcDbText
  0
TEXT
  5
2
330
EF7C85532
100
AcDbEntity
  8
SUNPOU
100
AcDbText
 10
332.2793466870868
 20
21.8983436374353
 30
0.0
 40
0.75
  1
                          
100
AcDbText
  0
TEXT
  5
1A
330
EF7C85532
100
AcDbEntity
  8
SUNPOU
100
AcDbText
 10
289.9834441000535
 20
43.7966872748706
 30
0.0
 40
1.5
  1
                          
100
AcDbText
  0
TEXT
  5
1B
330
EF7C85532
100
AcDbEntity
  8
SUNPOU
100
AcDbText
 10
527.2040951349664
 20
21.8983436374353
 30
0.0
 40
0.75
  1
                          
100
AcDbText
  0
TEXT
  5
1C
330
EF7C85532
100
AcDbEntity
  8
SUNPOU
100
AcDbText
 10
490.6272568090836
 20
43.79668727487056
 30
0.0
 40
1.5
  1
                          
100
AcDbText
  0
TEXT
  5
1D
330
EF7C85532
100
AcDbEntity
  8
SUNPOU
100
AcDbText
 10
727.8479078439966
 20
21.89834363743526
 30
0.0
 40
0.75
  1
                          
100
AcDbText
  0
INSERT
  5
1E
330
EF7C85532
100
AcDbEntity
  8
HATCH
100
AcDbBlockReference
  2
*X2
 10
194.9247484478796
 20
0.0
 30
0.0
  0
TEXT
  5
1F
330
EF7C85532
100
AcDbEntity
  8
SUNPOU
100
AcDbText
 10
493.0101992368963
 20
43.7966872748706
 30
0.0
 40
1.5
  1
                          
100
AcDbText
  0
TEXT
  5
20
330
EF7C85532
100
AcDbEntity
  8
SUNPOU
100
AcDbText
 10
730.2308502718093
 20
21.8983436374353
 30
0.0
 40
0.75
  1
                          
100
AcDbText
  0
TEXT
  5
21
330
EF7C85532
100
AcDbEntity
  8
SUNPOU
100
AcDbText
 10
482.0486607753578
 20
43.7966872748706
 30
0.0
 40
1.5
  1
                          
100
AcDbText
  0
TEXT
  5
22
330
EF7C85532
100
AcDbEntity
  8
SUNPOU
100
AcDbText
 10
719.269311810271
 20
21.8983436374353
 30
0.0
 40
0.75
  1
                          
100
AcDbText
  0
INSERT
  5
25
330
EF7C85532
100
AcDbEntity
  8
JISSEN
100
AcDbBlockReference
  2
STDGX5
 10
0.0
 20
0.0
 30
0.0
  0
TEXT
  5
60
330
EF7C85532
100
AcDbEntity
  8
SUNPOU
100
AcDbText
 10
274.0586949361738
 20
43.7966872748706
 30
0.0
 40
1.5
  1
                          
100
AcDbText
  0
TEXT
  5
61
330
EF7C85532
100
AcDbEntity
  8
SUNPOU
100
AcDbText
 10
511.2793459710869
 20
21.8983436374353
 30
0.0
 40
0.75
  1
                          
100
AcDbText
  0
TEXT
  5
62
330
EF7C85532
100
AcDbEntity
  8
SUNPOU
100
AcDbText
 10
474.702507645204
 20
43.79668727487056
 30
0.0
 40
1.5
  1
                          
100
AcDbText
  0
TEXT
  5
63
330
EF7C85532
100
AcDbEntity
  8
SUNPOU
100
AcDbText
 10
711.923158680117
 20
21.89834363743526
 30
0.0
 40
0.75
  1
                          
100
AcDbText
  0
INSERT
  5
64
330
EF7C85532
100
AcDbEntity
  8
HATCH
100
AcDbBlockReference
  2
*X4
 10
178.999999284
 20
0.0
 30
0.0
  0
TEXT
  5
65
330
EF7C85532
100
AcDbEntity
  8
SUNPOU
100
AcDbText
 10
477.0854500730166
 20
43.7966872748706
 30
0.0
 40
1.5
  1
                          
100
AcDbText
  0
TEXT
  5
66
330
EF7C85532
100
AcDbEntity
  8
SUNPOU
100
AcDbText
 10
714.3061011079296
 20
21.8983436374353
 30
0.0
 40
0.75
  1
                          
100
AcDbText
  0
TEXT
  5
67
330
EF7C85532
100
AcDbEntity
  8
SUNPOU
100
AcDbText
 10
466.1239116114783
 20
43.7966872748706
 30
0.0
 40
1.5
  1
                          
100
AcDbText
  0
TEXT
  5
68
330
EF7C85532
100
AcDbEntity
  8
SUNPOU
100
AcDbText
 10
703.3445626463913
 20
21.8983436374353
 30
0.0
 40
0.75
  1
                          
100
AcDbText
  0
INSERT
  5
69
330
EF7C85532
100
AcDbEntity
  8
TEXT
100
AcDbBlockReference
  2
STDGX5
 10
178.999999284
 20
0.0
 30
0.0
  0
TEXT
  5
6A
330
EF7C85532
100
AcDbEntity
  8
SUNPOU
100
AcDbText
 10
453.0586949361739
 20
43.7966872748706
 30
0.0
 40
1.5
  1
                          
100
AcDbText
  0
TEXT
  5
6B
330
EF7C85532
100
AcDbEntity
  8
SUNPOU
100
AcDbText
 10
690.2793459710871
 20
21.8983436374353
 30
0.0
 40
0.75
  1
                          
100
AcDbText
  0
TEXT
  5
6C
330
EF7C85532
100
AcDbEntity
  8
SUNPOU
100
AcDbText
 10
647.9834433840535
 20
43.7966872748706
 30
0.0
 40
1.5
  1
                          
100
AcDbText
  0
TEXT
  5
6D
330
EF7C85532
100
AcDbEntity
  8
SUNPOU
100
AcDbText
 10
885.2040944189665
 20
21.8983436374353
 30
0.0
 40
0.75
  1
                          
100
AcDbText
  0
TEXT
  5
6E
330
EF7C85532
100
AcDbEntity
  8
SUNPOU
100
AcDbText
 10
848.6272560930835
 20
43.79668727487056
 30
0.0
 40
1.5
  1
                          
100
AcDbText
  0
TEXT
  5
6F
330
EF7C85532
100
AcDbEntity
  8
SUNPOU
100
AcDbText
 10
1085.847907127996
 20
21.89834363743526
 30
0.0
 40
0.75
  1
                          
100
AcDbText
  0
INSERT
  5
70
330
EF7C85532
100
AcDbEntity
  8
HATCH
100
AcDbBlockReference
  2
*X5
 10
552.9247477318796
 20
0.0
 30
0.0
  0
TEXT
  5
71
330
EF7C85532
100
AcDbEntity
  8
SUNPOU
100
AcDbText
 10
851.0101985208963
 20
43.7966872748706
 30
0.0
 40
1.5
  1
                          
100
AcDbText
  0
TEXT
  5
72
330
EF7C85532
100
AcDbEntity
  8
SUNPOU
100
AcDbText
 10
1088.230849555809
 20
21.8983436374353
 30
0.0
 40
0.75
  1
                          
100
AcDbText
  0
TEXT
  5
73
330
EF7C85532
100
AcDbEntity
  8
SUNPOU
100
AcDbText
 10
840.048660059358
 20
43.7966872748706
 30
0.0
 40
1.5
  1
                          
100
AcDbText
  0
TEXT
  5
74
330
EF7C85532
100
AcDbEntity
  8
SUNPOU
100
AcDbText
 10
1077.269311094271
 20
21.8983436374353
 30
0.0
 40
0.75
  1
                          
100
AcDbText
  0
INSERT
  5
75
330
EF7C85532
100
AcDbEntity
  8
JISSEN
100
AcDbBlockReference
  2
STDGX5
 10
357.999999284
 20
0.0
 30
0.0
  0
TEXT
  5
76
330
EF7C85532
100
AcDbEntity
  8
SUNPOU
100
AcDbText
 10
453.0586949361739
 20
43.7966872748706
 30
0.0
 40
1.5
  1
                          
100
AcDbText
  0
TEXT
  5
77
330
EF7C85532
100
AcDbEntity
  8
SUNPOU
100
AcDbText
 10
690.2793459710871
 20
21.8983436374353
 30
0.0
 40
0.75
  1
                          
100
AcDbText
  0
TEXT
  5
78
330
EF7C85532
100
AcDbEntity
  8
SUNPOU
100
AcDbText
 10
647.9834433840535
 20
43.7966872748706
 30
0.0
 40
1.5
  1
                          
100
AcDbText
  0
TEXT
  5
79
330
EF7C85532
100
AcDbEntity
  8
SUNPOU
100
AcDbText
 10
885.2040944189665
 20
21.8983436374353
 30
0.0
 40
0.75
  1
                          
100
AcDbText
  0
TEXT
  5
7A
330
EF7C85532
100
AcDbEntity
  8
SUNPOU
100
AcDbText
 10
848.6272560930835
 20
43.79668727487056
 30
0.0
 40
1.5
  1
                          
100
AcDbText
  0
TEXT
  5
7B
330
EF7C85532
100
AcDbEntity
  8
SUNPOU
100
AcDbText
 10
1085.847907127996
 20
21.89834363743526
 30
0.0
 40
0.75
  1
                          
100
AcDbText
  0
INSERT
  5
7C
330
EF7C85532
100
AcDbEntity
  8
HATCH
100
AcDbBlockReference
  2
*X6
 10
552.9247477318796
 20
0.0
 30
0.0
  0
TEXT
  5
7D
330
EF7C85532
100
AcDbEntity
  8
SUNPOU
100
AcDbText
 10
851.0101985208963
 20
43.7966872748706
 30
0.0
 40
1.5
  1
                          
100
AcDbText
  0
TEXT
  5
7E
330
EF7C85532
100
AcDbEntity
  8
SUNPOU
100
AcDbText
 10
1088.230849555809
 20
21.8983436374353
 30
0.0
 40
0.75
  1
                          
100
AcDbText
  0
TEXT
  5
7F
330
EF7C85532
100
AcDbEntity
  8
SUNPOU
100
AcDbText
 10
840.048660059358
 20
43.7966872748706
 30
0.0
 40
1.5
  1
                          
100
AcDbText
  0
TEXT
  5
80
330
EF7C85532
100
AcDbEntity
  8
SUNPOU
100
AcDbText
 10
1077.269311094271
 20
21.8983436374353
 30
0.0
 40
0.75
  1
                          
100
AcDbText
  0
INSERT
  5
81
330
EF7C85532
100
AcDbEntity
  8
JISSEN
100
AcDbBlockReference
  2
STDGX5
 10
357.999999284
 20
0.0
 30
0.0
  0
TEXT
  5
82
330
EF7C85532
100
AcDbEntity
  8
SUNPOU
100
AcDbText
 10
632.0586942201738
 20
43.7966872748706
 30
0.0
 40
1.5
  1
                          
100
AcDbText
  0
TEXT
  5
83
330
EF7C85532
100
AcDbEntity
  8
SUNPOU
100
AcDbText
 10
869.2793452550871
 20
21.8983436374353
 30
0.0
 40
0.75
  1
                          
100
AcDbText
  0
TEXT
  5
84
330
EF7C85532
100
AcDbEntity
  8
SUNPOU
100
AcDbText
 10
826.9834426680533
 20
43.7966872748706
 30
0.0
 40
1.5
  1
                          
100
AcDbText
  0
TEXT
  5
85
330
EF7C85532
100
AcDbEntity
  8
SUNPOU
100
AcDbText
 10
1064.204093702966
 20
21.8983436374353
 30
0.0
 40
0.75
  1
                          
100
AcDbText
  0
TEXT
  5
86
330
EF7C85532
100
AcDbEntity
  8
SUNPOU
100
AcDbText
 10
1027.627255377083
 20
43.79668727487056
 30
0.0
 40
1.5
  1
                          
100
AcDbText
  0
TEXT
  5
87
330
EF7C85532
100
AcDbEntity
  8
SUNPOU
100
AcDbText
 10
1264.847906411996
 20
21.89834363743526
 30
0.0
 40
0.75
  1
                          
100
AcDbText
  0
INSERT
  5
88
330
EF7C85532
100
AcDbEntity
  8
HATCH
100
AcDbBlockReference
  2
*X7
 10
731.9247470158797
 20
0.0
 30
0.0
  0
TEXT
  5
89
330
EF7C85532
100
AcDbEntity
  8
SUNPOU
100
AcDbText
 10
1030.010197804895
 20
43.7966872748706
 30
0.0
 40
1.5
  1
                          
100
AcDbText
  0
TEXT
  5
8A
330
EF7C85532
100
AcDbEntity
  8
SUNPOU
100
AcDbText
 10
1267.230848839808
 20
21.8983436374353
 30
0.0
 40
0.75
  1
                          
100
AcDbText
  0
TEXT
  5
8B
330
EF7C85532
100
AcDbEntity
  8
SUNPOU
100
AcDbText
 10
1019.048659343358
 20
43.7966872748706
 30
0.0
 40
1.5
  1
                          
100
AcDbText
  0
TEXT
  5
8C
330
EF7C85532
100
AcDbEntity
  8
SUNPOU
100
AcDbText
 10
1256.269310378271
 20
21.8983436374353
 30
0.0
 40
0.75
  1
                          
100
AcDbText
  0
INSERT
  5
8D
330
EF7C85532
100
AcDbEntity
  8
JISSEN
100
AcDbBlockReference
  2
STDGX5
 10
536.999998568
 20
0.0
 30
0.0
  0
INSERT
  5
8E
330
EF7C85532
100
AcDbEntity
  8
SUNPOU
100
AcDbBlockReference
  2
STDGX5
 10
739.0804232644236
 20
50.83533235670902
 30
0.0
 41
0.5
 42
0.5
 43
0.5
  0
INSERT
  5
8F
330
EF7C85532
100
AcDbEntity
  8
SUNPOU
100
AcDbBlockReference
  2
STDGX5
 10
726.2208210623692
 20
105.0763138619288
 30
0.0
 41
0.5
 42
0.5
 43
0.5
  0
INSERT
  5
90
330
EF7C85532
100
AcDbEntity
  8
HATCH
100
AcDbBlockReference
  2
STDGX5
 10
852.3985550581901
 20
151.7065097967401
 30
0.0
 41
0.5
 42
0.5
 43
0.5
  0
INSERT
  5
91
330
EF7C85532
100
AcDbEntity
  8
HATCH
100
AcDbBlockReference
  2
STDGX5
 10
866.6806796277283
 20
102.7017487639612
 30
0.0
 41
0.5
 42
0.5
 43
0.5
  0
INSERT
  5
92
330
EF7C85532
100
AcDbEntity
  8
TEXT
100
AcDbBlockReference
  2
STDGX5
 10
970.3434408521969
 20
102.8213468229236
 30
0.0
 41
0.5
 42
0.5
 43
0.5
  0
INSERT
  5
93
330
EF7C85532
100
AcDbEntity
  8
SUNPOU
100
AcDbBlockReference
  2
STDGX5
 10
996.1728907397867
 20
174.5475645486173
 30
0.0
 41
0.5
 42
0.5
 43
0.5
  0
INSERT
  5
94
330
EF7C85532
100
AcDbEntity
  8
TEXT
100
AcDbBlockReference
  2
STDGX5
 10
725.7513886810995
 20
124.5860190441302
 30
0.0
 41
0.5
 42
0.5
 43
0.5
  0
INSERT
  5
95
330
EF7C85532
100
AcDbEntity
  8
HATCH
100
AcDbBlockReference
  2
STDGX5
 10
777.1755722656421
 20
145.5222028932424
 30
0.0
 41
0.5
 42
0.5
 43
0.5
  0
INSERT
  5
96
330
EF7C85532
100
AcDbEntity
  8
SUNPOU
100
AcDbBlockReference
  2
STDGX5
 10
846.1963575359604
 20
112.6957974729892
 30
0.0
 41
0.5
 42
0.5
 43
0.5
  0
INSERT
  5
97
330
EF7C85532
100
AcDbEntity
  8
SUNPOU
100
AcDbBlockReference
  2
STDGX5
 10
916.6681156211122
 20
121.7330617103084
 30
0.0
 41
0.5
 42
0.5
 43
0.5
  0
INSERT
  5
98
330
EF7C85532
100
AcDbEntity
  8
TEXT
100
AcDbBlockReference
  2
STDGX5
 10
983.7969461426766
 20
84.61852224867081
 30
0.0
 41
0.5
 42
0.5
 43
0.5
  0
INSERT
  5
99
330
EF7C85532
100
AcDbEntity
  8
HATCH
100
AcDbBlockReference
  2
STDGX5
 10
974.2802715042101
 20
136.484938655923
 30
0.0
 41
0.5
 42
0.5
 43
0.5
  0
INSERT
  5
9A
330
EF7C85532
100
AcDbEntity
  8
SUNPOU
100
AcDbBlockReference
  2
STDGX5
 10
749.7834008663488
 20
95.14721172234004
 30
0.0
 41
0.5
 42
0.5
 43
0.5
  0
INSERT
  5
9B
330
EF7C85532
100
AcDbEntity
  8
SUNPOU
100
AcDbBlockReference
  2
STDGX5
 10
736.9237986642947
 20
149.3881932275598
 30
0.0
 41
0.5
 42
0.5
 43
0.5
  0
INSERT
  5
9C
330
EF7C85532
100
AcDbEntity
  8
HATCH
100
AcDbBlockReference
  2
STDGX5
 10
863.1015326601156
 20
196.0183891623711
 30
0.0
 41
0.5
 42
0.5
 43
0.5
  0
INSERT
  5
9D
330
EF7C85532
100
AcDbEntity
  8
HATCH
100
AcDbBlockReference
  2
STDGX5
 10
877.3836572296538
 20
147.0136281295922
 30
0.0
 41
0.5
 42
0.5
 43
0.5
  0
INSERT
  5
9E
330
EF7C85532
100
AcDbEntity
  8
TEXT
100
AcDbBlockReference
  2
STDGX5
 10
981.0464184541222
 20
147.1332261885546
 30
0.0
 41
0.5
 42
0.5
 43
0.5
  0
INSERT
  5
9F
330
EF7C85532
100
AcDbEntity
  8
SUNPOU
100
AcDbBlockReference
  2
STDGX5
 10
1006.875868341712
 20
218.8594439142483
 30
0.0
 41
0.5
 42
0.5
 43
0.5
  0
INSERT
  5
A0
330
EF7C85532
100
AcDbEntity
  8
TEXT
100
AcDbBlockReference
  2
STDGX5
 10
736.454366283025
 20
168.8978984097611
 30
0.0
 41
0.5
 42
0.5
 43
0.5
  0
INSERT
  5
A1
330
EF7C85532
100
AcDbEntity
  8
HATCH
100
AcDbBlockReference
  2
STDGX5
 10
787.8785498675677
 20
189.8340822588734
 30
0.0
 41
0.5
 42
0.5
 43
0.5
  0
INSERT
  5
A2
330
EF7C85532
100
AcDbEntity
  8
SUNPOU
100
AcDbBlockReference
  2
STDGX5
 10
856.899335137886
 20
157.0076768386202
 30
0.0
 41
0.5
 42
0.5
 43
0.5
  0
INSERT
  5
A3
330
EF7C85532
100
AcDbEntity
  8
SUNPOU
100
AcDbBlockReference
  2
STDGX5
 10
927.3710932230379
 20
166.0449410759395
 30
0.0
 41
0.5
 42
0.5
 43
0.5
  0
INSERT
  5
A4
330
EF7C85532
100
AcDbEntity
  8
TEXT
100
AcDbBlockReference
  2
STDGX5
 10
994.4999237446024
 20
128.9304016143017
 30
0.0
 41
0.5
 42
0.5
 43
0.5
  0
INSERT
  5
A5
330
EF7C85532
100
AcDbEntity
  8
HATCH
100
AcDbBlockReference
  2
STDGX5
 10
984.9832491061354
 20
180.7968180215541
 30
0.0
 41
0.5
 42
0.5
 43
0.5
  0
TEXT
  5
DE
330
EF7C85532
100
AcDbEntity
  8
SUNPOU
100
AcDbText
 10
274.0586949361738
 20
43.7966872748706
 30
0.0
 40
1.5
  1
                          
100
AcDbText
  0
TEXT
  5
145
330
EF7C85532
100
AcDbEntity
  8
SUNPOU
100
AcDbText
 10
511.2793459710869
 20
21.8983436374353
 30
0.0
 40
0.75
  1
                          
100
AcDbText
  0
TEXT
  5
265
330
EF7C85532
100
AcDbEntity
  8
SUNPOU
100
AcDbText
 10
474.702507645204
 20
43.79668727487056
 30
0.0
 40
1.5
  1
                          
100
AcDbText
  0
TEXT
  5
266
330
EF7C85532
100
AcDbEntity
  8
SUNPOU
100
AcDbText
 10
711.923158680117
 20
21.89834363743526
 30
0.0
 40
0.75
  1
                          
100
AcDbText
  0
INSERT
  5
2F7
330
EF7C85532
100
AcDbEntity
  8
HATCH
100
AcDbBlockReference
  2
*X4
 10
178.999999284
 20
0.0
 30
0.0
  0
TEXT
  5
31A
330
EF7C85532
100
AcDbEntity
  8
SUNPOU
100
AcDbText
 10
477.0854500730166
 20
43.7966872748706
 30
0.0
 40
1.5
  1
                          
100
AcDbText
  0
TEXT
  5
31C
330
EF7C85532
100
AcDbEntity
  8
SUNPOU
100
AcDbText
 10
714.3061011079296
 20
21.8983436374353
 30
0.0
 40
0.75
  1
                          
100
AcDbText
  0
TEXT
  5
3A6
330
EF7C85532
100
AcDbEntity
  8
TEXT
100
AcDbText
 10
100.9999992839998
 20
244.9999999999999
 30
0.0
 40
3.0
  1
 
  7
K
100
AcDbText
  0
TEXT
  5
3AB
330
EF7C85532
100
AcDbEntity
  8
SUNPOU
100
AcDbText
 10
466.1239116114783
 20
43.7966872748706
 30
0.0
 40
1.5
  1
                          
100
AcDbText
  0
TEXT
  5
3AC
330
EF7C85532
100
AcDbEntity
  8
SUNPOU
100
AcDbText
 10
703.3445626463913
 20
21.8983436374353
 30
0.0
 40
0.75
  1
                          
100
AcDbText
  0
INSERT
  5
3F6
330
EF7C85532
100
AcDbEntity
  8
TEXT
100
AcDbBlockReference
  2
STDGX5
 10
178.999999284
 20
0.0
 30
0.0
  0
TEXT
  5
3F7
330
EF7C85532
100
AcDbEntity
  8
SUNPOU
100
AcDbText
 10
453.0586949361739
 20
43.7966872748706
 30
0.0
 40
1.5
  1
                          
100
AcDbText
  0
TEXT
  5
3F8
330
EF7C85532
100
AcDbEntity
  8
SUNPOU
100
AcDbText
 10
690.2793459710871
 20
21.8983436374353
 30
0.0
 40
0.75
  1
                          
100
AcDbText
  0
TEXT
  5
3F9
330
EF7C85532
100
AcDbEntity
  8
SUNPOU
100
AcDbText
 10
647.9834433840535
 20
43.7966872748706
 30
0.0
 40
1.5
  1
                          
100
AcDbText
  0
TEXT
  5
3FA
330
EF7C85532
100
AcDbEntity
  8
SUNPOU
100
AcDbText
 10
885.2040944189665
 20
21.8983436374353
 30
0.0
 40
0.75
  1
                          
100
AcDbText
  0
TEXT
  5
3FB
330
EF7C85532
100
AcDbEntity
  8
SUNPOU
100
AcDbText
 10
848.6272560930835
 20
43.79668727487056
 30
0.0
 40
1.5
  1
                          
100
AcDbText
  0
TEXT
  5
3FC
330
EF7C85532
100
AcDbEntity
  8
SUNPOU
100
AcDbText
 10
1085.847907127996
 20
21.89834363743526
 30
0.0
 40
0.75
  1
                          
100
AcDbText
  0
INSERT
  5
3FD
330
EF7C85532
100
AcDbEntity
  8
HATCH
100
AcDbBlockReference
  2
*X5
 10
552.9247477318796
 20
0.0
 30
0.0
  0
TEXT
  5
3FE
330
EF7C85532
100
AcDbEntity
  8
SUNPOU
100
AcDbText
 10
851.0101985208963
 20
43.7966872748706
 30
0.0
 40
1.5
  1
                          
100
AcDbText
  0
TEXT
  5
3FF
330
EF7C85532
100
AcDbEntity
  8
SUNPOU
100
AcDbText
 10
1088.230849555809
 20
21.8983436374353
 30
0.0
 40
0.75
  1
                          
100
AcDbText
  0
TEXT
  5
400
330
EF7C85532
100
AcDbEntity
  8
SUNPOU
100
AcDbText
 10
840.048660059358
 20
43.7966872748706
 30
0.0
 40
1.5
  1
                          
100
AcDbText
  0
TEXT
  5
401
330
EF7C85532
100
AcDbEntity
  8
SUNPOU
100
AcDbText
 10
1077.269311094271
 20
21.8983436374353
 30
0.0
 40
0.75
  1
                          
100
AcDbText
  0
INSERT
  5
402
330
EF7C85532
100
AcDbEntity
  8
JISSEN
100
AcDbBlockReference
  2
STDGX5
 10
357.999999284
 20
0.0
 30
0.0
  0
TEXT
  5
409
330
EF7C85532
100
AcDbEntity
  8
SUNPOU
100
AcDbText
 10
453.0586949361739
 20
43.7966872748706
 30
0.0
 40
1.5
  1
                          
100
AcDbText
  0
TEXT
  5
40A
330
EF7C85532
100
AcDbEntity
  8
SUNPOU
100
AcDbText
 10
690.2793459710871
 20
21.8983436374353
 30
0.0
 40
0.75
  1
                          
100
AcDbText
  0
TEXT
  5
41B
330
EF7C85532
100
AcDbEntity
  8
SUNPOU
100
AcDbText
 10
647.9834433840535
 20
43.7966872748706
 30
0.0
 40
1.5
  1
                          
100
AcDbText
  0
TEXT
  5
41C
330
EF7C85532
100
AcDbEntity
  8
SUNPOU
100
AcDbText
 10
885.2040944189665
 20
21.8983436374353
 30
0.0
 40
0.75
  1
                          
100
AcDbText
  0
TEXT
  5
41D
330
EF7C85532
100
AcDbEntity
  8
SUNPOU
100
AcDbText
 10
848.6272560930835
 20
43.79668727487056
 30
0.0
 40
1.5
  1
                          
100
AcDbText
  0
TEXT
  5
41E
330
EF7C85532
100
AcDbEntity
  8
SUNPOU
100
AcDbText
 10
1085.847907127996
 20
21.89834363743526
 30
0.0
 40
0.75
  1
                          
100
AcDbText
  0
INSERT
  5
41F
330
EF7C85532
100
AcDbEntity
  8
HATCH
100
AcDbBlockReference
  2
*X6
 10
552.9247477318796
 20
0.0
 30
0.0
  0
TEXT
  5
420
330
EF7C85532
100
AcDbEntity
  8
SUNPOU
100
AcDbText
 10
851.0101985208963
 20
43.7966872748706
 30
0.0
 40
1.5
  1
                          
100
AcDbText
  0
TEXT
  5
421
330
EF7C85532
100
AcDbEntity
  8
SUNPOU
100
AcDbText
 10
1088.230849555809
 20
21.8983436374353
 30
0.0
 40
0.75
  1
                          
100
AcDbText
  0
TEXT
  5
422
330
EF7C85532
100
AcDbEntity
  8
SUNPOU
100
AcDbText
 10
840.048660059358
 20
43.7966872748706
 30
0.0
 40
1.5
  1
                          
100
AcDbText
  0
TEXT
  5
423
330
EF7C85532
100
AcDbEntity
  8
SUNPOU
100
AcDbText
 10
1077.269311094271
 20
21.8983436374353
 30
0.0
 40
0.75
  1
                          
100
AcDbText
  0
INSERT
  5
424
330
EF7C85532
100
AcDbEntity
  8
JISSEN
100
AcDbBlockReference
  2
STDGX5
 10
357.999999284
 20
0.0
 30
0.0
  0
TEXT
  5
425
330
EF7C85532
100
AcDbEntity
  8
SUNPOU
100
AcDbText
 10
632.0586942201738
 20
43.7966872748706
 30
0.0
 40
1.5
  1
                          
100
AcDbText
  0
TEXT
  5
426
330
EF7C85532
100
AcDbEntity
  8
SUNPOU
100
AcDbText
 10
869.2793452550871
 20
21.8983436374353
 30
0.0
 40
0.75
  1
                          
100
AcDbText
  0
TEXT
  5
427
330
EF7C85532
100
AcDbEntity
  8
SUNPOU
100
AcDbText
 10
826.9834426680533
 20
43.7966872748706
 30
0.0
 40
1.5
  1
                          
100
AcDbText
  0
TEXT
  5
428
330
EF7C85532
100
AcDbEntity
  8
SUNPOU
100
AcDbText
 10
1064.204093702966
 20
21.8983436374353
 30
0.0
 40
0.75
  1
                          
100
AcDbText
  0
TEXT
  5
429
330
EF7C85532
100
AcDbEntity
  8
SUNPOU
100
AcDbText
 10
1027.627255377083
 20
43.79668727487056
 30
0.0
 40
1.5
  1
                          
100
AcDbText
  0
TEXT
  5
42A
330
EF7C85532
100
AcDbEntity
  8
SUNPOU
100
AcDbText
 10
1264.847906411996
 20
21.89834363743526
 30
0.0
 40
0.75
  1
                          
100
AcDbText
  0
INSERT
  5
42B
330
EF7C85532
100
AcDbEntity
  8
HATCH
100
AcDbBlockReference
  2
*X7
 10
731.9247470158797
 20
0.0
 30
0.0
  0
TEXT
  5
42C
330
EF7C85532
100
AcDbEntity
  8
SUNPOU
100
AcDbText
 10
1030.010197804895
 20
43.7966872748706
 30
0.0
 40
1.5
  1
                          
100
AcDbText
  0
TEXT
  5
42D
330
EF7C85532
100
AcDbEntity
  8
SUNPOU
100
AcDbText
 10
1267.230848839808
 20
21.8983436374353
 30
0.0
 40
0.75
  1
                          
100
AcDbText
  0
TEXT
  5
42E
330
EF7C85532
100
AcDbEntity
  8
SUNPOU
100
AcDbText
 10
1019.048659343358
 20
43.7966872748706
 30
0.0
 40
1.5
  1
                          
100
AcDbText
  0
TEXT
  5
42F
330
EF7C85532
100
AcDbEntity
  8
SUNPOU
100
AcDbText
 10
1256.269310378271
 20
21.8983436374353
 30
0.0
 40
0.75
  1
                          
100
AcDbText
  0
INSERT
  5
430
330
EF7C85532
100
AcDbEntity
  8
JISSEN
100
AcDbBlockReference
  2
STDGX5
 10
536.999998568
 20
0.0
 30
0.0
  0
INSERT
  5
43B
330
EF7C85532
100
AcDbEntity
  8
SUNPOU
100
AcDbBlockReference
  2
STDGX5
 10
739.0804232644236
 20
50.83533235670902
 30
0.0
 41
0.5
 42
0.5
 43
0.5
  0
INSERT
  5
43C
330
EF7C85532
100
AcDbEntity
  8
SUNPOU
100
AcDbBlockReference
  2
STDGX5
 10
726.2208210623692
 20
105.0763138619288
 30
0.0
 41
0.5
 42
0.5
 43
0.5
  0
INSERT
  5
43D
330
EF7C85532
100
AcDbEntity
  8
HATCH
100
AcDbBlockReference
  2
STDGX5
 10
852.3985550581901
 20
151.7065097967401
 30
0.0
 41
0.5
 42
0.5
 43
0.5
  0
INSERT
  5
43E
330
EF7C85532
100
AcDbEntity
  8
HATCH
100
AcDbBlockReference
  2
STDGX5
 10
866.6806796277283
 20
102.7017487639612
 30
0.0
 41
0.5
 42
0.5
 43
0.5
  0
INSERT
  5
43F
330
EF7C85532
100
AcDbEntity
  8
TEXT
100
AcDbBlockReference
  2
STDGX5
 10
970.3434408521969
 20
102.8213468229236
 30
0.0
 41
0.5
 42
0.5
 43
0.5
  0
INSERT
  5
440
330
EF7C85532
100
AcDbEntity
  8
SUNPOU
100
AcDbBlockReference
  2
STDGX5
 10
996.1728907397867
 20
174.5475645486173
 30
0.0
 41
0.5
 42
0.5
 43
0.5
  0
INSERT
  5
441
330
EF7C85532
100
AcDbEntity
  8
TEXT
100
AcDbBlockReference
  2
STDGX5
 10
725.7513886810995
 20
124.5860190441302
 30
0.0
 41
0.5
 42
0.5
 43
0.5
  0
INSERT
  5
442
330
EF7C85532
100
AcDbEntity
  8
HATCH
100
AcDbBlockReference
  2
STDGX5
 10
777.1755722656421
 20
145.5222028932424
 30
0.0
 41
0.5
 42
0.5
 43
0.5
  0
INSERT
  5
443
330
EF7C85532
100
AcDbEntity
  8
SUNPOU
100
AcDbBlockReference
  2
STDGX5
 10
846.1963575359604
 20
112.6957974729892
 30
0.0
 41
0.5
 42
0.5
 43
0.5
  0
INSERT
  5
444
330
EF7C85532
100
AcDbEntity
  8
SUNPOU
100
AcDbBlockReference
  2
STDGX5
 10
916.6681156211122
 20
121.7330617103084
 30
0.0
 41
0.5
 42
0.5
 43
0.5
  0
INSERT
  5
445
330
EF7C85532
100
AcDbEntity
  8
TEXT
100
AcDbBlockReference
  2
STDGX5
 10
983.7969461426766
 20
84.61852224867081
 30
0.0
 41
0.5
 42
0.5
 43
0.5
  0
INSERT
  5
446
330
EF7C85532
100
AcDbEntity
  8
HATCH
100
AcDbBlockReference
  2
STDGX5
 10
974.2802715042101
 20
136.484938655923
 30
0.0
 41
0.5
 42
0.5
 43
0.5
  0
INSERT
  5
447
330
EF7C85532
100
AcDbEntity
  8
SUNPOU
100
AcDbBlockReference
  2
STDGX5
 10
749.7834008663488
 20
95.14721172234004
 30
0.0
 41
0.5
 42
0.5
 43
0.5
  0
INSERT
  5
448
330
EF7C85532
100
AcDbEntity
  8
SUNPOU
100
AcDbBlockReference
  2
STDGX5
 10
736.9237986642947
 20
149.3881932275598
 30
0.0
 41
0.5
 42
0.5
 43
0.5
  0
INSERT
  5
449
330
EF7C85532
100
AcDbEntity
  8
HATCH
100
AcDbBlockReference
  2
STDGX5
 10
863.1015326601156
 20
196.0183891623711
 30
0.0
 41
0.5
 42
0.5
 43
0.5
  0
INSERT
  5
44A
330
EF7C85532
100
AcDbEntity
  8
HATCH
100
AcDbBlockReference
  2
STDGX5
 10
877.3836572296538
 20
147.0136281295922
 30
0.0
 41
0.5
 42
0.5
 43
0.5
  0
INSERT
  5
44B
330
EF7C85532
100
AcDbEntity
  8
TEXT
100
AcDbBlockReference
  2
STDGX5
 10
981.0464184541222
 20
147.1332261885546
 30
0.0
 41
0.5
 42
0.5
 43
0.5
  0
INSERT
  5
44C
330
EF7C85532
100
AcDbEntity
  8
SUNPOU
100
AcDbBlockReference
  2
STDGX5
 10
1006.875868341712
 20
218.8594439142483
 30
0.0
 41
0.5
 42
0.5
 43
0.5
  0
INSERT
  5
44D
330
EF7C85532
100
AcDbEntity
  8
TEXT
100
AcDbBlockReference
  2
STDGX5
 10
736.454366283025
 20
168.8978984097611
 30
0.0
 41
0.5
 42
0.5
 43
0.5
  0
INSERT
  5
44E
330
EF7C85532
100
AcDbEntity
  8
HATCH
100
AcDbBlockReference
  2
STDGX5
 10
787.8785498675677
 20
189.8340822588734
 30
0.0
 41
0.5
 42
0.5
 43
0.5
  0
INSERT
  5
44F
330
EF7C85532
100
AcDbEntity
  8
SUNPOU
100
AcDbBlockReference
  2
STDGX5
 10
856.899335137886
 20
157.0076768386202
 30
0.0
 41
0.5
 42
0.5
 43
0.5
  0
INSERT
  5
450
330
EF7C85532
100
AcDbEntity
  8
SUNPOU
100
AcDbBlockReference
  2
STDGX5
 10
927.3710932230379
 20
166.0449410759395
 30
0.0
 41
0.5
 42
0.5
 43
0.5
  0
INSERT
  5
451
330
EF7C85532
100
AcDbEntity
  8
TEXT
100
AcDbBlockReference
  2
STDGX5
 10
994.4999237446024
 20
128.9304016143017
 30
0.0
 41
0.5
 42
0.5
 43
0.5
  0
INSERT
  5
452
330
EF7C85532
100
AcDbEntity
  8
HATCH
100
AcDbBlockReference
  2
STDGX5
 10
984.9832491061354
 20
180.7968180215541
 30
0.0
 41
0.5
 42
0.5
 43
0.5
  0
INSERT
  5
4CF3
330
EF7C85532
100
AcDbEntity
  8
JISSEN
100
AcDbBlockReference
  2
STDR12J
 10
0.0
 20
0.0
 30
0.0
  0
INSERT
  5
EF7C86777
330
EF7C85532
100
AcDbEntity
  8
WAKU
100
AcDbBlockReference
  2
WAKU
 10
180.9999992759999
 20
0.0
 30
0.0
 41
181.0
 42
283.0
 43
181.0
  0
TEXT
  5
EF7C87A6A
330
EF7C85532
100
AcDbEntity
  8
SUNPOU
100
AcDbText
 10
321.9213415365171
 20
6.665259596075087
 30
0.0
 40
3.0
  1
MFJ   ガード取付状態
  7
K
100
AcDbText
  0
TEXT
  5
EF7C87A7B
330
EF7C85532
100
AcDbEntity
  8
SUNPOU
100
AcDbText
 10
321.9213415365171
 20
1.665259596075087
 30
0.0
 40
3.0
  1
尺度　1/1
  7
K
100
AcDbText
  0
LINE
  5
EF7C87B81
102
{ACAD_REACTORS
330
EF7C87B82
102
}
330
EF7C85532
100
AcDbEntity
  8
JISSEN
100
AcDbLine
 10
339.7336682651255
 20
58.82859396089518
 30
0.0
 11
281.5350854510283
 21
58.82859396089514
 31
0.0
  0
HATCH
  5
EF7C87B82
330
EF7C85532
100
AcDbEntity
  8
HATCH
100
AcDbHatch
 10
0.0
 20
0.0
 30
0.0
210
0.0
220
0.0
230
1.0
  2
_U
 70
     0
 71
     1
 91
        2
 92
        7
 72
     0
 73
     1
 93
       15
 10
288.500082714016
 20
58.82859396089514
 10
288.500082714016
 20
53.82859396089518
 10
297.350082714016
 20
53.82859396089518
 10
336.2741459719157
 20
53.82859396089518
 10
336.5837094893949
 20
54.57676250475016
 10
336.9139660821094
 20
55.11433350237845
 10
337.295102108459
 20
55.53755389100271
 10
337.7052745212531
 20
55.87886698262762
 10
338.1226402733009
 20
56.17071608925725
 10
338.5253563174089
 20
56.44554452289402
 10
338.8915796063883
 20
56.73579559554425
 10
339.1994670930471
 20
57.07391261921106
 10
339.4271757301952
 20
57.49233890589888
 10
339.5690810868756
 20
58.00895688266337
 10
339.7336682651255
 20
58.82859396089517
 97
        5
330
EF7C87C97
330
EF7C87B81
330
EF7C87C7B
330
EF7C87C3C
330
EF7C87B83
 92
        7
 72
     0
 73
     1
 93
       14
 10
202.2663302868745
 20
58.82859396089517
 10
202.4309174651246
 20
58.00895688266311
 10
202.5728228218049
 20
57.49233890589863
 10
202.8005314589527
 20
57.07391261921099
 10
203.1084189456118
 20
56.73579559554402
 10
203.4746422345916
 20
56.44554452289367
 10
203.8773582787006
 20
56.17071608925567
 10
204.2947240307467
 20
55.87886698262762
 10
204.7048964435408
 20
55.53755389100277
 10
205.0860324698907
 20
55.11433350237831
 10
205.4162890626051
 20
54.57676250474981
 10
205.7258525800843
 20
53.82859396089518
 10
253.500082714016
 20
53.82859396089518
 10
253.500082714016
 20
58.82859396089521
 97
        4
330
EF7C87B89
330
EF7C87B8A
330
EF7C87B90
330
EF7C87BD0
 75
     0
 76
     0
 52
45.0
 41
2.0
 77
     0
 78
     1
 53
45.0
 43
180.9999992759999
 44
-126.5000001996573
 45
-1.414213562373094
 46
1.414213562373094
 79
     0
 47
0.2346837798524018
 98
        2
 10
298.2263867658445
 20
56.6842257965508
 10
247.2585814721885
 20
57.38827685032188
  0
LINE
  5
EF7C87B83
102
{ACAD_REACTORS
330
EF7C87B82
102
}
330
EF7C85532
100
AcDbEntity
  8
JISSEN
100
AcDbLine
 10
281.5975886309648
 20
53.82859396089521
 30
0.0
 11
336.2759052316956
 21
53.82859396089518
 31
0.0
  0
LWPOLYLINE
  5
EF7C87B88
330
EF7C85532
100
AcDbEntity
  8
NITEN
100
AcDbPolyline
 90
        5
 70
     0
 43
0.0
 10
287.9999992759999
 20
101.9391428666226
 10
287.9999992759999
 20
122.7768605177683
 42
-0.5882352941176476
 10
270.9999992759999
 20
122.7768605177683
 42
0.5882352941176477
 10
253.9999992759999
 20
122.7768605177681
 10
253.9999992759999
 20
101.9391428666226
  0
LINE
  5
EF7C87B89
102
{ACAD_REACTORS
330
EF7C87B82
102
}
330
EF7C85532
100
AcDbEntity
  8
JISSEN
100
AcDbLine
 10
202.2663302868745
 20
58.82859396089518
 30
0.0
 11
260.4650799770038
 21
58.82859396089522
 31
0.0
  0
LWPOLYLINE
  5
EF7C87B8A
102
{ACAD_REACTORS
330
EF7C87B82
102
}
330
EF7C85532
100
AcDbEntity
  8
HATCH
100
AcDbPolyline
 90
       13
 70
     0
 43
0.0
 10
202.2663302868745
 20
58.82859396089518
 10
202.4309174651246
 20
58.00895688266312
 10
202.5728228218049
 20
57.49233890589882
 10
202.8005314589526
 20
57.07391261921102
 10
203.108418945612
 20
56.73579559554409
 10
203.4746422345914
 20
56.44554452289398
 10
203.8773582787003
 20
56.17071608925649
 10
204.2947240307471
 20
55.87886698262749
 10
204.7048964435409
 20
55.53755389100277
 10
205.0860324698907
 20
55.1143335023784
 10
205.416289062605
 20
54.57676250475012
 10
205.6908691258079
 20
53.91314371746265
 10
205.7240933203044
 20
53.82859396089518
  0
LINE
  5
EF7C87B8B
330
EF7C85532
100
AcDbEntity
  8
SAISEN
100
AcDbLine
 10
280.459315714016
 20
56.06936096089517
 30
0.0
 11
279.9668158672826
 21
71.82859396089881
 31
0.0
  0
LINE
  5
EF7C87B8C
330
EF7C85532
100
AcDbEntity
  8
JISSEN
100
AcDbLine
 10
281.1652274353808
 20
70.66344831622572
 30
0.0
 11
281.658801714016
 21
54.8698749608952
 31
0.0
  0
LINE
  5
EF7C87B8D
330
EF7C85532
100
AcDbEntity
  8
JISSEN
100
AcDbLine
 10
260.8349379926512
 20
70.66344831622572
 30
0.0
 11
260.3413637140159
 21
54.8698749608952
 31
0.0
  0
LINE
  5
EF7C87B8E
330
EF7C85532
100
AcDbEntity
  8
SAISEN
100
AcDbLine
 10
261.540849714016
 20
56.06936096089517
 30
0.0
 11
262.0333495607493
 21
71.82859396089881
 31
0.0
  0
LINE
  5
EF7C87B8F
330
EF7C85532
100
AcDbEntity
  8
JISSEN
100
AcDbLine
 10
259.300082714016
 20
53.82859396089518
 30
0.0
 11
260.3413637140159
 21
54.8698749608952
 31
0.0
  0
LINE
  5
EF7C87B90
102
{ACAD_REACTORS
330
EF7C87B82
102
}
330
EF7C85532
100
AcDbEntity
  8
JISSEN
100
AcDbLine
 10
260.4025767970671
 20
53.82859396089518
 30
0.0
 11
205.7240933203044
 21
53.82859396089518
 31
0.0
  0
LINE
  5
EF7C87B92
330
EF7C85532
100
AcDbEntity
  8
JISSEN
100
AcDbLine
 10
244.5000827140161
 20
46.32859396089517
 30
0.0
 11
246.093817224834
 21
46.32859396089517
 31
0.0
  0
LINE
  5
EF7C87B93
330
EF7C85532
100
AcDbEntity
  8
JISSEN
100
AcDbLine
 10
245.500082714016
 20
45.32859396089517
 30
0.0
 11
246.093817224834
 21
45.32859396089515
 31
0.0
  0
LINE
  5
EF7C87B94
330
EF7C85532
100
AcDbEntity
  8
JISSEN
100
AcDbLine
 10
244.650082714016
 20
53.82859396089518
 30
0.0
 11
271.000082714016
 21
53.82859396089518
 31
0.0
  0
LINE
  5
EF7C87B98
330
EF7C85532
100
AcDbEntity
  8
JISSEN
100
AcDbLine
 10
271.000082714016
 20
32.49271163855589
 30
0.0
 11
256.4708796974144
 21
32.49271163855567
 31
0.0
1001
ACAD
1000
ASC_BOUNDS
1002
{
1070
    19
1002
}
  0
ARC
  5
EF7C87B9A
330
EF7C85532
100
AcDbEntity
  8
JISSEN
100
AcDbCircle
 10
255.685631714016
 20
37.5354929608952
 30
0.0
 40
0.4
100
AcDbArc
 50
183.7443620000003
 51
270.0
  0
ARC
  5
EF7C87B9B
330
EF7C85532
100
AcDbEntity
  8
JISSEN
100
AcDbCircle
 10
251.592214714016
 20
37.45147396089517
 30
0.0
 40
0.5
100
AcDbArc
 50
185.2015590000002
 51
242.253262
  0
ARC
  5
EF7C87B9C
330
EF7C85532
100
AcDbEntity
  8
JISSEN
100
AcDbCircle
 10
255.695255714016
 20
37.7861219608952
 30
0.0
 40
1.199999999999999
100
AcDbArc
 50
184.0179690000003
 51
234.6729319999998
  0
ARC
  5
EF7C87B9D
330
EF7C85532
100
AcDbEntity
  8
JISSEN
100
AcDbCircle
 10
257.221885714016
 20
37.35236996089517
 30
0.0
 40
0.4
100
AcDbArc
 50
184.0179690000003
 51
234.6729319999998
  0
ARC
  5
EF7C87BA1
330
EF7C85532
100
AcDbEntity
  8
JISSEN
100
AcDbCircle
 10
250.846839714016
 20
37.9584419608952
 30
0.0
 40
1.3
100
AcDbArc
 50
195.4499661289538
 51
242.253262
  0
ARC
  5
EF7C87BA2
330
EF7C85532
100
AcDbEntity
  8
JISSEN
100
AcDbCircle
 10
251.118163714016
 20
37.63549296089522
 30
0.0
 40
0.5
100
AcDbArc
 50
185.0389269999999
 51
279.3495549999998
  0
LINE
  5
EF7C87BA6
330
EF7C85532
100
AcDbEntity
  8
JISSEN
100
AcDbLine
 10
256.4708796974144
 20
32.49271163855567
 30
0.0
 11
249.5938172248341
 21
35.72618673360369
 31
0.0
1001
ACAD
1000
ASC_BOUNDS
1002
{
1070
    19
1002
}
  0
LINE
  5
EF7C87BA7
330
EF7C85532
100
AcDbEntity
  8
JISSEN
100
AcDbLine
 10
252.858807714016
 20
36.2202169608952
 30
0.0
 11
251.359432714016
 21
37.0089669608952
 31
0.0
  0
LINE
  5
EF7C87BA8
330
EF7C85532
100
AcDbEntity
  8
JISSEN
100
AcDbLine
 10
251.815931714016
 20
36.03171496089518
 30
0.0
 11
252.812250714016
 21
36.03171496089518
 31
0.0
  0
ARC
  5
EF7C87BA9
330
EF7C85532
100
AcDbEntity
  8
JISSEN
100
AcDbCircle
 10
251.815931714016
 20
36.43171496089515
 30
0.0
 40
0.4
100
AcDbArc
 50
242.253262
 51
270.0
  0
ARC
  5
EF7C87BAA
330
EF7C85532
100
AcDbEntity
  8
JISSEN
100
AcDbCircle
 10
252.812250714016
 20
36.1317149608952
 30
0.0
 40
0.1
100
AcDbArc
 50
270.0
 51
62.25326200000021
  0
LINE
  5
EF7C87BAB
330
EF7C85532
100
AcDbEntity
  8
JISSEN
100
AcDbLine
 10
249.5938172248341
 20
36.1587746119936
 30
0.0
 11
249.620653714016
 21
36.14635996089518
 31
0.0
  0
LINE
  5
EF7C87BAC
330
EF7C85532
100
AcDbEntity
  8
JISSEN
100
AcDbLine
 10
250.135175714016
 20
36.14933096089517
 30
0.0
 11
249.5938172248341
 21
36.39976519788918
 31
0.0
  0
ARC
  5
EF7C87BAD
330
EF7C85532
100
AcDbEntity
  8
JISSEN
100
AcDbCircle
 10
250.114183714016
 20
36.10395196089516
 30
0.0
 40
0.05
100
AcDbArc
 50
270.0
 51
65.17459499999985
  0
LINE
  5
EF7C87BAE
330
EF7C85532
100
AcDbEntity
  8
JISSEN
100
AcDbLine
 10
250.0405087140161
 20
36.0539519608952
 30
0.0
 11
250.114183714016
 21
36.0539519608952
 31
0.0
  0
ARC
  5
EF7C87BAF
330
EF7C85532
100
AcDbEntity
  8
JISSEN
100
AcDbCircle
 10
250.0405087140161
 20
37.0539519608952
 30
0.0
 40
1.0
100
AcDbArc
 50
245.1745949999998
 51
270.0
  0
LINE
  5
EF7C87BB0
330
EF7C85532
100
AcDbEntity
  8
JISSEN
100
AcDbLine
 10
250.241606714016
 20
36.80792296089518
 30
0.0
 11
251.629705714016
 21
36.07770996089518
 31
0.0
  0
ARC
  5
EF7C87BB1
330
EF7C85532
100
AcDbEntity
  8
JISSEN
100
AcDbCircle
 10
257.922447714016
 20
36.18171496089515
 30
0.0
 40
0.15
100
AcDbArc
 50
270.0
 51
54.67293199999994
  0
LINE
  5
EF7C87BB2
330
EF7C85532
100
AcDbEntity
  8
JISSEN
100
AcDbLine
 10
256.004429714016
 20
36.0961629608952
 30
0.0
 11
255.001363714016
 21
36.80708496089518
 31
0.0
  0
ARC
  5
EF7C87BB3
330
EF7C85532
100
AcDbEntity
  8
JISSEN
100
AcDbCircle
 10
256.206814714016
 20
36.38171496089521
 30
0.0
 40
0.35
100
AcDbArc
 50
234.6729319999998
 51
270.0
  0
LINE
  5
EF7C87BB4
330
EF7C85532
100
AcDbEntity
  8
JISSEN
100
AcDbLine
 10
257.922447714016
 20
36.03171496089518
 30
0.0
 11
256.206814714016
 21
36.03171496089518
 31
0.0
  0
LINE
  5
EF7C87BB5
330
EF7C85532
100
AcDbEntity
  8
JISSEN
100
AcDbLine
 10
256.9905887140161
 20
37.02602396089517
 30
0.0
 11
258.0091837140161
 21
36.30409496089518
 31
0.0
  0
LINE
  5
EF7C87BB7
330
EF7C85532
100
AcDbEntity
  8
JISSEN
100
AcDbLine
 10
245.500082714016
 20
45.32859396089517
 30
0.0
 11
246.093817224834
 21
45.3285939608952
 31
0.0
  0
LINE
  5
EF7C87BB8
330
EF7C85532
100
AcDbEntity
  8
JISSEN
100
AcDbLine
 10
244.5000827140161
 20
46.32859396089517
 30
0.0
 11
245.500082714016
 21
45.32859396089517
 31
0.0
  0
LINE
  5
EF7C87BB9
330
EF7C85532
100
AcDbEntity
  8
JISSEN
100
AcDbLine
 10
254.498205714016
 20
37.70203896089518
 30
0.0
 11
254.094171714016
 21
43.45406896089516
 31
0.0
  0
LINE
  5
EF7C87BBA
330
EF7C85532
100
AcDbEntity
  8
JISSEN
100
AcDbLine
 10
254.893842714016
 20
43.50900196089518
 30
0.0
 11
255.286485714016
 21
37.50937096089514
 31
0.0
  0
LINE
  5
EF7C87BBB
330
EF7C85532
100
AcDbEntity
  8
JISSEN
100
AcDbLine
 10
256.379061714016
 20
43.64260796089515
 30
0.0
 11
256.822868714016
 21
37.32434196089517
 31
0.0
  0
LINE
  5
EF7C87BBF
330
EF7C85532
100
AcDbEntity
  8
JISSEN
100
AcDbLine
 10
250.0893417140161
 20
43.6110269608952
 30
0.0
 11
250.6200957140161
 21
37.59157696089518
 31
0.0
  0
LINE
  5
EF7C87BC1
330
EF7C85532
100
AcDbEntity
  8
JISSEN
100
AcDbLine
 10
251.094273714016
 20
37.40614396089515
 30
0.0
 11
250.526165714016
 21
43.64672596089515
 31
0.0
  0
LINE
  5
EF7C87BC2
330
EF7C85532
100
AcDbEntity
  8
JISSEN
100
AcDbLine
 10
255.685631714016
 20
37.13549296089522
 30
0.0
 11
256.8857837140161
 21
37.13549296089522
 31
0.0
  0
ARC
  5
EF7C87BC6
330
EF7C85532
100
AcDbEntity
  8
JISSEN
100
AcDbCircle
 10
250.288568714016
 20
43.62859396089517
 30
0.0
 40
0.2
100
AcDbArc
 50
90.0
 51
185.0389269999999
  0
LINE
  5
EF7C87BC8
330
EF7C85532
100
AcDbEntity
  8
JISSEN
100
AcDbLine
 10
250.326988714016
 20
43.82859396089517
 30
0.0
 11
249.5938172248341
 21
43.82859396089517
 31
0.0
  0
ARC
  5
EF7C87BC9
330
EF7C85532
100
AcDbEntity
  8
JISSEN
100
AcDbCircle
 10
250.326988714016
 20
43.62859396089517
 30
0.0
 40
0.2
100
AcDbArc
 50
5.201559000000191
 51
90.0
  0
LINE
  5
EF7C87BCA
330
EF7C85532
100
AcDbEntity
  8
JISSEN
100
AcDbLine
 10
255.193201714016
 20
43.82859396089517
 30
0.0
 11
256.179552714016
 21
43.82859396089517
 31
0.0
  0
LINE
  5
EF7C87BCB
330
EF7C85532
100
AcDbEntity
  8
JISSEN
100
AcDbLine
 10
254.443310714016
 20
43.82859396089517
 30
0.0
 11
255.193201714016
 21
43.82859396089517
 31
0.0
  0
ARC
  5
EF7C87BCC
330
EF7C85532
100
AcDbEntity
  8
JISSEN
100
AcDbCircle
 10
254.443310714016
 20
43.47859396089514
 30
0.0
 40
0.35
100
AcDbArc
 50
90.0
 51
184.0179690000003
  0
ARC
  5
EF7C87BCD
330
EF7C85532
100
AcDbEntity
  8
JISSEN
100
AcDbCircle
 10
255.193201714016
 20
43.52859396089516
 30
0.0
 40
0.3
100
AcDbArc
 50
90.0
 51
183.7443620000003
  0
ARC
  5
EF7C87BCE
330
EF7C85532
100
AcDbEntity
  8
JISSEN
100
AcDbCircle
 10
256.179552714016
 20
43.62859396089517
 30
0.0
 40
0.2
100
AcDbArc
 50
4.017969000000318
 51
90.0
  0
LINE
  5
EF7C87BD0
102
{ACAD_REACTORS
330
EF7C87B82
102
}
330
EF7C85532
100
AcDbEntity
  8
JISSEN
100
AcDbLine
 10
253.500082714016
 20
58.82859396089521
 30
0.0
 11
253.500082714016
 21
53.82859396089518
 31
0.0
  0
ARC
  5
EF7C87BD1
330
EF7C85532
100
AcDbEntity
  8
JISSEN
100
AcDbCircle
 10
293.258613714016
 20
38.0955799608952
 30
0.0
 40
1.399999999999999
100
AcDbArc
 50
294.825405
 51
353.8576429999998
  0
ARC
  5
EF7C87BD2
330
EF7C85532
100
AcDbEntity
  8
JISSEN
100
AcDbCircle
 10
292.8310377140161
 20
38.02859096089517
 30
0.0
 40
1.3
100
AcDbArc
 50
294.825405
 51
353.8576429999998
  0
ARC
  5
EF7C87BD3
330
EF7C85532
100
AcDbEntity
  8
JISSEN
100
AcDbCircle
 10
293.4542033844787
 20
37.87576853503177
 30
0.0
 40
1.5
100
AcDbArc
 50
290.0
 51
355.0000000000001
  0
ARC
  5
EF7C87BD4
330
EF7C85532
100
AcDbEntity
  8
JISSEN
100
AcDbCircle
 10
286.304909714016
 20
37.7861219608952
 30
0.0
 40
1.199999999999999
100
AcDbArc
 50
305.327068
 51
355.9820309999997
  0
ARC
  5
EF7C87BD5
330
EF7C85532
100
AcDbEntity
  8
JISSEN
100
AcDbCircle
 10
290.4079507140161
 20
37.45147396089517
 30
0.0
 40
0.5
100
AcDbArc
 50
297.7467379999998
 51
354.7984409999998
  0
ARC
  5
EF7C87BD6
330
EF7C85532
100
AcDbEntity
  8
JISSEN
100
AcDbCircle
 10
286.314533714016
 20
37.5354929608952
 30
0.0
 40
0.4
100
AcDbArc
 50
270.0
 51
356.2556379999997
  0
ARC
  5
EF7C87BD7
330
EF7C85532
100
AcDbEntity
  8
JISSEN
100
AcDbCircle
 10
291.1533257140161
 20
37.9584419608952
 30
0.0
 40
1.3
100
AcDbArc
 50
297.7467379999998
 51
354.5938149999996
  0
ARC
  5
EF7C87BD8
330
EF7C85532
100
AcDbEntity
  8
JISSEN
100
AcDbCircle
 10
290.8820017140159
 20
37.63549296089522
 30
0.0
 40
0.5
100
AcDbArc
 50
260.650445
 51
354.9610729999998
  0
ARC
  5
EF7C87BDB
330
EF7C85532
100
AcDbEntity
  8
JISSEN
100
AcDbCircle
 10
284.7782797140159
 20
37.35236996089517
 30
0.0
 40
0.4
100
AcDbArc
 50
305.327068
 51
355.9820309999997
  0
ARC
  5
EF7C87BDC
330
EF7C85532
100
AcDbEntity
  8
JISSEN
100
AcDbCircle
 10
272.000082714016
 20
37.63549296089522
 30
0.0
 40
0.5
100
AcDbArc
 50
270.0
 51
0.000000000000007
  0
ARC
  5
EF7C87BDD
330
EF7C85532
100
AcDbEntity
  8
JISSEN
100
AcDbCircle
 10
277.442144714016
 20
37.24052196089516
 30
0.0
 40
0.3
100
AcDbArc
 50
323.1028380000003
 51
357.8595680000001
  0
ARC
  5
EF7C87BDE
330
EF7C85532
100
AcDbEntity
  8
JISSEN
100
AcDbCircle
 10
270.000082714016
 20
37.63549296089522
 30
0.0
 40
0.5
100
AcDbArc
 50
180.0
 51
270.0
  0
LINE
  5
EF7C87BDF
330
EF7C85532
100
AcDbEntity
  8
JISSEN
100
AcDbLine
 10
272.500082714016
 20
43.32859396089517
 30
0.0
 11
272.500082714016
 21
36.53171496089518
 31
0.0
  0
LINE
  5
EF7C87BE0
330
EF7C85532
100
AcDbEntity
  8
JISSEN
100
AcDbLine
 10
269.500082714016
 20
43.32859396089517
 30
0.0
 11
269.500082714016
 21
36.53171496089518
 31
0.0
  0
ARC
  5
EF7C87BE1
330
EF7C85532
100
AcDbEntity
  8
JISSEN
100
AcDbCircle
 10
262.4302717140161
 20
37.48558996089517
 30
0.0
 40
1.0
100
AcDbArc
 50
182.1404319999997
 51
216.8971619999997
  0
ARC
  5
EF7C87BE2
330
EF7C85532
100
AcDbEntity
  8
JISSEN
100
AcDbCircle
 10
262.1436737140161
 20
37.43549296089517
 30
0.0
 40
0.3
100
AcDbArc
 50
181.994368
 51
270.0
  0
ARC
  5
EF7C87BE3
330
EF7C85532
100
AcDbEntity
  8
JISSEN
100
AcDbCircle
 10
264.558020714016
 20
37.24052196089516
 30
0.0
 40
0.3
100
AcDbArc
 50
182.1404319999997
 51
216.8971619999997
  0
LINE
  5
EF7C87BE4
330
EF7C85532
100
AcDbEntity
  8
JISSEN
100
AcDbLine
 10
285.5292857306178
 20
32.49271163855567
 30
0.0
 11
294.0546883398555
 21
36.50120758026614
 31
0.0
1001
ACAD
1000
ASC_BOUNDS
1002
{
1070
    19
1002
}
  0
LINE
  5
EF7C87C08
330
EF7C85532
100
AcDbEntity
  8
JISSEN
100
AcDbLine
 10
271.000082714016
 20
32.49271163855589
 30
0.0
 11
278.093485642005
 21
32.49271163855579
 31
0.0
1001
ACAD
1000
ASC_BOUNDS
1002
{
1070
    19
1002
}
  0
LINE
  5
EF7C87C12
330
EF7C85532
100
AcDbEntity
  8
JISSEN
100
AcDbLine
 10
262.421223714016
 20
36.03171496089518
 30
0.0
 11
264.690152714016
 21
36.03171496089518
 31
0.0
  0
ARC
  5
EF7C87C13
330
EF7C85532
100
AcDbEntity
  8
JISSEN
100
AcDbCircle
 10
262.421223714016
 20
36.3317149608952
 30
0.0
 40
0.3
100
AcDbArc
 50
216.8971619999997
 51
270.0
  0
LINE
  5
EF7C87C14
330
EF7C85532
100
AcDbEntity
  8
JISSEN
100
AcDbLine
 10
261.630557714016
 20
36.88520896089518
 30
0.0
 11
262.181308714016
 21
36.15160096089518
 31
0.0
  0
LINE
  5
EF7C87C15
330
EF7C85532
100
AcDbEntity
  8
JISSEN
100
AcDbLine
 10
264.850095714016
 20
36.35179196089521
 30
0.0
 11
264.318105714016
 21
37.06040796089515
 31
0.0
  0
ARC
  5
EF7C87C16
330
EF7C85532
100
AcDbEntity
  8
JISSEN
100
AcDbCircle
 10
264.690152714016
 20
36.23171496089517
 30
0.0
 40
0.2
100
AcDbArc
 50
270.0
 51
36.89716199999973
  0
ARC
  5
EF7C87C17
330
EF7C85532
100
AcDbEntity
  8
JISSEN
100
AcDbCircle
 10
272.000082714016
 20
36.53171496089518
 30
0.0
 40
0.5
100
AcDbArc
 50
270.0
 51
0.000000000000007
  0
ARC
  5
EF7C87C18
330
EF7C85532
100
AcDbEntity
  8
JISSEN
100
AcDbCircle
 10
270.000082714016
 20
36.53171496089518
 30
0.0
 40
0.5
100
AcDbArc
 50
180.0
 51
270.0
  0
LINE
  5
EF7C87C19
330
EF7C85532
100
AcDbEntity
  8
JISSEN
100
AcDbLine
 10
271.000082714016
 20
36.03171496089518
 30
0.0
 11
270.000082714016
 21
36.03171496089518
 31
0.0
  0
LINE
  5
EF7C87C1A
330
EF7C85532
100
AcDbEntity
  8
JISSEN
100
AcDbLine
 10
271.000082714016
 20
36.03171496089518
 30
0.0
 11
272.000082714016
 21
36.03171496089518
 31
0.0
  0
ARC
  5
EF7C87C26
330
EF7C85532
100
AcDbEntity
  8
JISSEN
100
AcDbCircle
 10
277.310012714016
 20
36.23171496089517
 30
0.0
 40
0.2
100
AcDbArc
 50
143.1028380000001
 51
270.0
  0
LINE
  5
EF7C87C27
330
EF7C85532
100
AcDbEntity
  8
JISSEN
100
AcDbLine
 10
277.150069714016
 20
36.35179196089521
 30
0.0
 11
277.682059714016
 21
37.06040796089515
 31
0.0
  0
LINE
  5
EF7C87C28
330
EF7C85532
100
AcDbEntity
  8
JISSEN
100
AcDbLine
 10
278.0949890783726
 20
36.03171496089514
 30
0.0
 11
277.310012714016
 21
36.03171496089518
 31
0.0
  0
ARC
  5
EF7C87C29
330
EF7C85532
100
AcDbEntity
  8
JISSEN
100
AcDbCircle
 10
284.0777177140159
 20
36.18171496089515
 30
0.0
 40
0.15
100
AcDbArc
 50
125.3270679999999
 51
270.0
  0
ARC
  5
EF7C87C2A
330
EF7C85532
100
AcDbEntity
  8
JISSEN
100
AcDbCircle
 10
285.7933507140161
 20
36.38171496089521
 30
0.0
 40
0.35
100
AcDbArc
 50
270.0
 51
305.327068
  0
LINE
  5
EF7C87C2B
330
EF7C85532
100
AcDbEntity
  8
JISSEN
100
AcDbLine
 10
285.009576714016
 20
37.02602396089517
 30
0.0
 11
283.9909817140161
 21
36.30409496089518
 31
0.0
  0
LINE
  5
EF7C87C2C
330
EF7C85532
100
AcDbEntity
  8
JISSEN
100
AcDbLine
 10
284.0777177140159
 20
36.03171496089518
 30
0.0
 11
285.7933507140161
 21
36.03171496089518
 31
0.0
  0
LINE
  5
EF7C87C2D
330
EF7C85532
100
AcDbEntity
  8
JISSEN
100
AcDbLine
 10
285.995735714016
 20
36.0961629608952
 30
0.0
 11
286.998801714016
 21
36.80708496089518
 31
0.0
  0
ARC
  5
EF7C87C32
330
EF7C85532
100
AcDbEntity
  8
JISSEN
100
AcDbCircle
 10
289.187914714016
 20
36.1317149608952
 30
0.0
 40
0.1
100
AcDbArc
 50
117.7467379999998
 51
270.0
  0
ARC
  5
EF7C87C33
330
EF7C85532
100
AcDbEntity
  8
JISSEN
100
AcDbCircle
 10
290.1842337140159
 20
36.43171496089515
 30
0.0
 40
0.4
100
AcDbArc
 50
270.0
 51
297.7467379999998
  0
LINE
  5
EF7C87C34
330
EF7C85532
100
AcDbEntity
  8
JISSEN
100
AcDbLine
 10
290.1842337140159
 20
36.03171496089518
 30
0.0
 11
289.187914714016
 21
36.03171496089518
 31
0.0
  0
LINE
  5
EF7C87C35
330
EF7C85532
100
AcDbEntity
  8
JISSEN
100
AcDbLine
 10
289.141357714016
 20
36.2202169608952
 30
0.0
 11
290.640732714016
 21
37.0089669608952
 31
0.0
  0
ARC
  5
EF7C87C36
330
EF7C85532
100
AcDbEntity
  8
JISSEN
100
AcDbCircle
 10
291.959656714016
 20
37.0539519608952
 30
0.0
 40
1.0
100
AcDbArc
 50
270.0
 51
294.825405
  0
LINE
  5
EF7C87C37
330
EF7C85532
100
AcDbEntity
  8
JISSEN
100
AcDbLine
 10
291.959656714016
 20
36.0539519608952
 30
0.0
 11
291.8859817140161
 21
36.0539519608952
 31
0.0
  0
ARC
  5
EF7C87C38
330
EF7C85532
100
AcDbEntity
  8
JISSEN
100
AcDbCircle
 10
291.8859817140161
 20
36.10395196089516
 30
0.0
 40
0.05
100
AcDbArc
 50
114.825405
 51
270.0
  0
LINE
  5
EF7C87C39
330
EF7C85532
100
AcDbEntity
  8
JISSEN
100
AcDbLine
 10
291.7585587140159
 20
36.80792296089518
 30
0.0
 11
290.370459714016
 21
36.07770996089518
 31
0.0
  0
LINE
  5
EF7C87C3A
330
EF7C85532
100
AcDbEntity
  8
JISSEN
100
AcDbLine
 10
291.864989714016
 20
36.14933096089517
 30
0.0
 11
293.3768487140159
 21
36.84872196089516
 31
0.0
  0
LINE
  5
EF7C87C3B
330
EF7C85532
100
AcDbEntity
  8
JISSEN
100
AcDbLine
 10
293.8464097140159
 20
36.82495196089515
 30
0.0
 11
292.379511714016
 21
36.14635996089518
 31
0.0
  0
LINE
  5
EF7C87C3C
102
{ACAD_REACTORS
330
EF7C87B82
102
}
330
EF7C85532
100
AcDbEntity
  8
JISSEN
100
AcDbLine
 10
297.350082714016
 20
53.82859396089518
 30
0.0
 11
271.000082714016
 21
53.82859396089518
 31
0.0
  0
LINE
  5
EF7C87C3D
330
EF7C85532
100
AcDbEntity
  8
JISSEN
100
AcDbLine
 10
296.1500827140162
 20
45.32859396089517
 30
0.0
 11
281.5949890783725
 21
45.32859396089517
 31
0.0
  0
LINE
  5
EF7C87C3E
330
EF7C85532
100
AcDbEntity
  8
JISSEN
100
AcDbLine
 10
296.1500827140162
 20
46.32859396089517
 30
0.0
 11
281.5949890783725
 21
46.32859396089513
 31
0.0
  0
LINE
  5
EF7C87C40
330
EF7C85532
100
AcDbEntity
  8
JISSEN
100
AcDbLine
 10
272.000082714016
 20
47.3285939608952
 30
0.0
 11
272.000082714016
 21
46.32859396089517
 31
0.0
  0
LINE
  5
EF7C87C41
330
EF7C85532
100
AcDbEntity
  8
JISSEN
100
AcDbLine
 10
270.000082714016
 20
47.3285939608952
 30
0.0
 11
270.000082714016
 21
46.32859396089517
 31
0.0
  0
LINE
  5
EF7C87C42
330
EF7C85532
100
AcDbEntity
  8
JISSEN
100
AcDbLine
 10
261.204135714016
 20
43.5173889608952
 30
0.0
 11
261.4309697140161
 21
37.44824096089522
 31
0.0
  0
LINE
  5
EF7C87C43
330
EF7C85532
100
AcDbEntity
  8
JISSEN
100
AcDbLine
 10
261.629877714016
 20
43.5698929608952
 30
0.0
 11
261.843855714016
 21
37.42505296089514
 31
0.0
  0
LINE
  5
EF7C87C44
330
EF7C85532
100
AcDbEntity
  8
JISSEN
100
AcDbLine
 10
264.258229714016
 20
37.2293179608952
 30
0.0
 11
264.0187777140161
 21
43.63606396089521
 31
0.0
  0
LINE
  5
EF7C87C45
330
EF7C85532
100
AcDbEntity
  8
JISSEN
100
AcDbLine
 10
262.1436737140161
 20
37.13549296089522
 30
0.0
 11
264.277006714016
 21
37.13549296089522
 31
0.0
  0
LINE
  5
EF7C87C46
330
EF7C85532
100
AcDbEntity
  8
JISSEN
100
AcDbLine
 10
270.000082714016
 20
37.13549296089522
 30
0.0
 11
271.000082714016
 21
37.13549296089522
 31
0.0
  0
LINE
  5
EF7C87C47
330
EF7C85532
100
AcDbEntity
  8
JISSEN
100
AcDbLine
 10
272.000082714016
 20
37.13549296089522
 30
0.0
 11
271.000082714016
 21
37.13549296089522
 31
0.0
  0
LINE
  5
EF7C87C48
330
EF7C85532
100
AcDbEntity
  8
JISSEN
100
AcDbLine
 10
263.818916714016
 20
43.82859396089517
 30
0.0
 11
261.503925714016
 21
43.82859396089517
 31
0.0
  0
ARC
  5
EF7C87C49
330
EF7C85532
100
AcDbEntity
  8
JISSEN
100
AcDbCircle
 10
261.503925714016
 20
43.52859396089516
 30
0.0
 40
0.3
100
AcDbArc
 50
90.0
 51
182.1404319999997
  0
ARC
  5
EF7C87C4A
330
EF7C85532
100
AcDbEntity
  8
JISSEN
100
AcDbCircle
 10
261.879725714016
 20
43.57859396089518
 30
0.0
 40
0.25
100
AcDbArc
 50
90.0
 51
181.994368
  0
ARC
  5
EF7C87C4B
330
EF7C85532
100
AcDbEntity
  8
JISSEN
100
AcDbCircle
 10
263.818916714016
 20
43.62859396089517
 30
0.0
 40
0.2
100
AcDbArc
 50
2.140431999999735
 51
90.0
  0
ARC
  5
EF7C87C4C
330
EF7C85532
100
AcDbEntity
  8
JISSEN
100
AcDbCircle
 10
272.000082714016
 20
43.32859396089517
 30
0.0
 40
0.5
100
AcDbArc
 50
0.000000000000007
 51
90.0
  0
ARC
  5
EF7C87C4D
330
EF7C85532
100
AcDbEntity
  8
JISSEN
100
AcDbCircle
 10
270.000082714016
 20
43.32859396089517
 30
0.0
 40
0.5
100
AcDbArc
 50
90.0
 51
180.0
  0
LINE
  5
EF7C87C4E
330
EF7C85532
100
AcDbEntity
  8
JISSEN
100
AcDbLine
 10
271.000082714016
 20
43.82859396089517
 30
0.0
 11
270.000082714016
 21
43.82859396089517
 31
0.0
  0
LINE
  5
EF7C87C4F
330
EF7C85532
100
AcDbEntity
  8
JISSEN
100
AcDbLine
 10
271.000082714016
 20
43.82859396089517
 30
0.0
 11
272.000082714016
 21
43.82859396089517
 31
0.0
  0
ARC
  5
EF7C87C50
330
EF7C85532
100
AcDbEntity
  8
JISSEN
100
AcDbCircle
 10
271.000082714016
 20
46.32859396089517
 30
0.0
 40
1.0
100
AcDbArc
 50
270.0
 51
0.000000000000007
  0
ARC
  5
EF7C87C51
330
EF7C85532
100
AcDbEntity
  8
JISSEN
100
AcDbCircle
 10
271.000082714016
 20
46.32859396089517
 30
0.0
 40
1.0
100
AcDbArc
 50
180.0
 51
270.0
  0
LINE
  5
EF7C87C52
330
EF7C85532
100
AcDbEntity
  8
JISSEN
100
AcDbLine
 10
285.6211037140159
 20
43.64260796089515
 30
0.0
 11
285.177296714016
 21
37.32434196089517
 31
0.0
  0
LINE
  5
EF7C87C55
330
EF7C85532
100
AcDbEntity
  8
JISSEN
100
AcDbLine
 10
287.106322714016
 20
43.50900196089518
 30
0.0
 11
286.713679714016
 21
37.50937096089514
 31
0.0
  0
LINE
  5
EF7C87C56
330
EF7C85532
100
AcDbEntity
  8
JISSEN
100
AcDbLine
 10
287.5019597140159
 20
37.70203896089518
 30
0.0
 11
287.9059937140159
 21
43.45406896089516
 31
0.0
  0
LINE
  5
EF7C87C57
330
EF7C85532
100
AcDbEntity
  8
JISSEN
100
AcDbLine
 10
277.741935714016
 20
37.2293179608952
 30
0.0
 11
277.981387714016
 21
43.63606396089521
 31
0.0
  0
LINE
  5
EF7C87C58
330
EF7C85532
100
AcDbEntity
  8
JISSEN
100
AcDbLine
 10
278.0949890783726
 20
37.13549296089524
 30
0.0
 11
277.723158714016
 21
37.13549296089522
 31
0.0
  0
LINE
  5
EF7C87C59
330
EF7C85532
100
AcDbEntity
  8
JISSEN
100
AcDbLine
 10
286.314533714016
 20
37.13549296089522
 30
0.0
 11
285.114381714016
 21
37.13549296089522
 31
0.0
  0
ARC
  5
EF7C87C5C
330
EF7C85532
100
AcDbEntity
  8
JISSEN
100
AcDbCircle
 10
278.1812487140161
 20
43.62859396089517
 30
0.0
 40
0.2
100
AcDbArc
 50
115.5499740378471
 51
177.8595680000002
  0
ARC
  5
EF7C87C5E
330
EF7C85532
100
AcDbEntity
  8
JISSEN
100
AcDbCircle
 10
286.8069637140159
 20
43.52859396089516
 30
0.0
 40
0.3
100
AcDbArc
 50
356.2556379999997
 51
90.0
  0
ARC
  5
EF7C87C5F
330
EF7C85532
100
AcDbEntity
  8
JISSEN
100
AcDbCircle
 10
287.556854714016
 20
43.47859396089514
 30
0.0
 40
0.35
100
AcDbArc
 50
355.9820309999997
 51
90.0
  0
LINE
  5
EF7C87C60
330
EF7C85532
100
AcDbEntity
  8
JISSEN
100
AcDbLine
 10
287.556854714016
 20
43.82859396089517
 30
0.0
 11
286.8069637140159
 21
43.82859396089517
 31
0.0
  0
ARC
  5
EF7C87C61
330
EF7C85532
100
AcDbEntity
  8
JISSEN
100
AcDbCircle
 10
285.820612714016
 20
43.62859396089517
 30
0.0
 40
0.2
100
AcDbArc
 50
90.0
 51
175.9820309999995
  0
LINE
  5
EF7C87C62
330
EF7C85532
100
AcDbEntity
  8
JISSEN
100
AcDbLine
 10
286.8069637140159
 20
43.82859396089517
 30
0.0
 11
285.820612714016
 21
43.82859396089517
 31
0.0
  0
LINE
  5
EF7C87C63
330
EF7C85532
100
AcDbEntity
  8
JISSEN
100
AcDbLine
 10
271.000082714016
 20
56.06936096089517
 30
0.0
 11
281.621315714016
 21
56.06936096089517
 31
0.0
  0
LINE
  5
EF7C87C66
330
EF7C85532
100
AcDbEntity
  8
JISSEN
100
AcDbLine
 10
271.000082714016
 20
56.06936096089517
 30
0.0
 11
260.3788497140161
 21
56.06936096089517
 31
0.0
  0
LINE
  5
EF7C87C67
330
EF7C85532
100
AcDbEntity
  8
SAISEN
100
AcDbLine
 10
260.3413637140159
 20
54.8698749608952
 30
0.0
 11
261.540849714016
 21
56.06936096089517
 31
0.0
  0
LINE
  5
EF7C87C68
330
EF7C85532
100
AcDbEntity
  8
SAISEN
100
AcDbLine
 10
281.658801714016
 20
54.8698749608952
 30
0.0
 11
280.459315714016
 21
56.06936096089517
 31
0.0
  0
LINE
  5
EF7C87C69
330
EF7C85532
100
AcDbEntity
  8
JISSEN
100
AcDbLine
 10
282.7000827140159
 20
53.82859396089518
 30
0.0
 11
281.658801714016
 21
54.8698749608952
 31
0.0
  0
LINE
  5
EF7C87C6B
330
EF7C85532
100
AcDbEntity
  8
JISSEN
100
AcDbLine
 10
295.468849714016
 20
43.82859396089517
 30
0.0
 11
294.948495714016
 21
37.88091696089518
 31
0.0
  0
LINE
  5
EF7C87C6C
330
EF7C85532
100
AcDbEntity
  8
JISSEN
100
AcDbLine
 10
295.238406714016
 20
43.40802996089515
 30
0.0
 11
294.6505767140159
 21
37.94578096089518
 31
0.0
  0
LINE
  5
EF7C87C6D
330
EF7C85532
100
AcDbEntity
  8
JISSEN
100
AcDbLine
 10
294.123573714016
 20
37.88949196089518
 30
0.0
 11
294.755504714016
 21
43.76152996089516
 31
0.0
  0
LINE
  5
EF7C87C6E
330
EF7C85532
100
AcDbEntity
  8
JISSEN
100
AcDbLine
 10
290.9058917140161
 20
37.40614396089515
 30
0.0
 11
291.4739997140159
 21
43.64672596089515
 31
0.0
  0
LINE
  5
EF7C87C6F
330
EF7C85532
100
AcDbEntity
  8
JISSEN
100
AcDbLine
 10
292.9732447140161
 20
43.39090696089519
 30
0.0
 11
292.4475427140161
 21
37.83596096089516
 31
0.0
  0
LINE
  5
EF7C87C70
330
EF7C85532
100
AcDbEntity
  8
JISSEN
100
AcDbLine
 10
291.9108237140159
 20
43.6110269608952
 30
0.0
 11
291.3800697140159
 21
37.59157696089518
 31
0.0
  0
LINE
  5
EF7C87C71
330
EF7C85532
100
AcDbEntity
  8
JISSEN
100
AcDbLine
 10
295.600082714016
 20
45.32859396089517
 30
0.0
 11
295.468849714016
 21
43.82859396089517
 31
0.0
  0
ARC
  5
EF7C87C72
330
EF7C85532
100
AcDbEntity
  8
JISSEN
100
AcDbCircle
 10
294.854930714016
 20
43.75082996089517
 30
0.0
 40
0.1
100
AcDbArc
 50
92.7179019999998
 51
173.8576429999999
  0
ARC
  5
EF7C87C73
330
EF7C85532
100
AcDbEntity
  8
JISSEN
100
AcDbCircle
 10
294.840703714016
 20
43.45082996089515
 30
0.0
 40
0.4
100
AcDbArc
 50
353.8576429999998
 51
88.64114500000017
  0
ARC
  5
EF7C87C74
330
EF7C85532
100
AcDbEntity
  8
JISSEN
100
AcDbCircle
 10
291.6731767140161
 20
43.62859396089517
 30
0.0
 40
0.2
100
AcDbArc
 50
90.0
 51
174.7984409999996
  0
LINE
  5
EF7C87C75
330
EF7C85532
100
AcDbEntity
  8
JISSEN
100
AcDbLine
 10
291.6731767140161
 20
43.82859396089517
 30
0.0
 11
292.575023714016
 21
43.82859396089517
 31
0.0
  0
ARC
  5
EF7C87C76
330
EF7C85532
100
AcDbEntity
  8
JISSEN
100
AcDbCircle
 10
292.575023714016
 20
43.4285939608952
 30
0.0
 40
0.4
100
AcDbArc
 50
354.5938149999996
 51
90.0
  0
ARC
  5
EF7C87C77
330
EF7C85532
100
AcDbEntity
  8
JISSEN
100
AcDbCircle
 10
291.711596714016
 20
43.62859396089517
 30
0.0
 40
0.2
100
AcDbArc
 50
354.9610729999998
 51
90.0
  0
LINE
  5
EF7C87C78
330
EF7C85532
100
AcDbEntity
  8
JISSEN
100
AcDbLine
 10
296.1500827140162
 20
45.32859396089517
 30
0.0
 11
295.600082714016
 21
45.32859396089517
 31
0.0
  0
LINE
  5
EF7C87C7B
102
{ACAD_REACTORS
330
EF7C87B82
102
}
330
EF7C85532
100
AcDbEntity
  8
JISSEN
100
AcDbLine
 10
288.500082714016
 20
58.82859396089518
 30
0.0
 11
288.500082714016
 21
53.82859396089521
 31
0.0
  0
LWPOLYLINE
  5
EF7C87C7C
330
EF7C85532
100
AcDbEntity
  8
NITEN
100
AcDbPolyline
 90
       15
 70
     1
 43
0.0
 10
256.9999992759999
 20
61.4391428666226
 42
0.4142135623730927
 10
258.4999992759999
 20
59.9391428666226
 10
281.5940504469965
 20
59.9391428666226
 10
283.4999992759999
 20
59.9391428666226
 42
0.4142135623730925
 10
284.9999992759999
 20
61.4391428666226
 10
284.9999992759999
 20
72.48515889284057
 42
-0.4142135623730943
 10
289.9999992759999
 20
77.48515889284057
 42
0.4142135623730951
 10
291.9999992759999
 20
79.48515889284057
 10
291.9999992759998
 20
99.9391428666226
 42
0.4142135623730949
 10
289.9999992759999
 20
101.9391428666226
 10
251.9999992759999
 20
101.9391428666226
 42
0.4142135623730951
 10
249.9999992759999
 20
99.9391428666226
 10
249.9999992759999
 20
79.48515889284057
 42
0.4142135623730951
 10
251.9999992759999
 20
77.48515889284057
 42
-0.4142135623730961
 10
256.9999992759999
 20
72.48515889284057
  0
LINE
  5
EF7C87C7D
330
EF7C85532
100
AcDbEntity
  8
JISSEN
100
AcDbLine
 10
281.262006714016
 20
70.56666896089883
 30
0.0
 11
271.000082714016
 21
70.56666896089883
 31
0.0
  0
LINE
  5
EF7C87C7E
330
EF7C85532
100
AcDbEntity
  8
JISSEN
100
AcDbLine
 10
280.000082714016
 20
71.82859396089884
 30
0.0
 11
271.000082714016
 21
71.82859396089881
 31
0.0
  0
LINE
  5
EF7C87C7F
330
EF7C85532
100
AcDbEntity
  8
JISSEN
100
AcDbLine
 10
262.000082714016
 20
71.82859396089884
 30
0.0
 11
271.000082714016
 21
71.82859396089881
 31
0.0
  0
LINE
  5
EF7C87C80
330
EF7C85532
100
AcDbEntity
  8
JISSEN
100
AcDbLine
 10
260.7381587140161
 20
70.56666896089883
 30
0.0
 11
271.000082714016
 21
70.56666896089883
 31
0.0
  0
LINE
  5
EF7C87C81
330
EF7C85532
100
AcDbEntity
  8
JISSEN
100
AcDbLine
 10
260.7381587140161
 20
70.56666896089883
 30
0.0
 11
262.000082714016
 21
71.82859396089884
 31
0.0
  0
LINE
  5
EF7C87C82
330
EF7C85532
100
AcDbEntity
  8
JISSEN
100
AcDbLine
 10
281.262006714016
 20
70.56666896089883
 30
0.0
 11
280.000082714016
 21
71.82859396089884
 31
0.0
  0
LWPOLYLINE
  5
EF7C87C8A
330
EF7C85532
100
AcDbEntity
  8
NITEN
100
AcDbPolyline
 90
        2
 70
     0
 43
0.0
 10
287.9999992760001
 20
122.7768605177683
 42
0.5882352941176295
 10
270.9999992759999
 20
122.7768605177687
 42
0.5882352941176295
  0
LWPOLYLINE
  5
EF7C87C97
102
{ACAD_REACTORS
330
EF7C87B82
102
}
330
EF7C85532
100
AcDbEntity
  8
HATCH
100
AcDbPolyline
 90
       13
 70
     0
 43
0.0
 10
339.7336682651255
 20
58.82859396089521
 10
339.5690810868756
 20
58.00895688266314
 10
339.4271757301952
 20
57.49233890589885
 10
339.1994670930472
 20
57.07391261921106
 10
338.8915796063881
 20
56.73579559554411
 10
338.5253563174086
 20
56.44554452289401
 10
338.1226402732998
 20
56.17071608925654
 10
337.7052745212529
 20
55.87886698262753
 10
337.2951021084592
 20
55.5375538910028
 10
336.9139660821093
 20
55.11433350237843
 10
336.5837094893949
 20
54.57676250475015
 10
336.3091294261921
 20
53.91314371746267
 10
336.2759052316956
 20
53.82859396089521
  0
LINE
  5
EF7C87CFB
330
EF7C85532
100
AcDbEntity
  8
JISSEN
100
AcDbLine
 10
294.7506351697666
 20
30.38003001505348
 30
0.0
 11
286.8661992375333
 21
20.96247743737774
 31
0.0
  0
LINE
  5
EF7C87CFC
330
EF7C85532
100
AcDbEntity
  8
JISSEN
100
AcDbLine
 10
297.9594915378151
 20
30.04850454993155
 30
0.0
 11
288.6339661904994
 21
19.19471048441201
 31
0.0
  0
LINE
  5
EF7C87CFF
330
EF7C85532
100
AcDbEntity
  8
JISSEN
100
AcDbLine
 10
239.3500827140162
 20
47.3285939608952
 30
0.0
 11
296.1500827140162
 21
47.32859396089522
 31
0.0
  0
LINE
  5
EF7C87D00
330
EF7C85532
100
AcDbEntity
  8
JISSEN
100
AcDbLine
 10
299.6500827140162
 20
53.82859396089521
 30
0.0
 11
239.3500827140162
 21
53.82859396089521
 31
0.0
  0
LINE
  5
EF7C87D09
330
EF7C85532
100
AcDbEntity
  8
JISSEN
100
AcDbLine
 10
257.7642157024513
 20
21.32859396089588
 30
0.0
 11
251.6139260091083
 21
29.66838083413333
 31
0.0
  0
LINE
  5
EF7C87D0A
330
EF7C85532
100
AcDbEntity
  8
JISSEN
100
AcDbLine
 10
255.129231182618
 20
20.12082664848966
 30
0.0
 11
248.4025129782903
 21
29.36193967673364
 31
0.0
  0
LINE
  5
EF7C87D0B
330
EF7C85532
100
AcDbEntity
  8
JISSEN
100
AcDbLine
 10
287.7500827140161
 20
18.8285939608952
 30
0.0
 11
254.2500827140162
 21
18.8285939608952
 31
0.0
  0
ARC
  5
EF7C87D0C
330
EF7C85532
100
AcDbEntity
  8
JISSEN
100
AcDbCircle
 10
254.2500827140162
 20
20.0785939608952
 30
0.0
 40
1.25
100
AcDbArc
 50
90.0
 51
270.0
  0
LINE
  5
EF7C87D0F
330
EF7C85532
100
AcDbEntity
  8
SAISEN
100
AcDbLine
 10
236.907817740933
 20
48.97859396089521
 30
0.0
 11
239.3500827140162
 21
48.97859396089518
 31
0.0
  0
LINE
  5
EF7C87D10
330
EF7C85532
100
AcDbEntity
  8
SAISEN
100
AcDbLine
 10
239.3500827140162
 20
52.1785939608952
 30
0.0
 11
236.9078177409346
 21
52.1785939608952
 31
0.0
  0
LINE
  5
EF7C87D15
330
EF7C85532
100
AcDbEntity
  8
JISSEN
100
AcDbLine
 10
236.8500827140162
 20
49.07859396089161
 30
0.0
 11
237.138757848609
 21
48.5785939608952
 31
0.0
  0
LINE
  5
EF7C87D16
330
EF7C85532
100
AcDbEntity
  8
JISSEN
100
AcDbLine
 10
236.8500827140162
 20
52.07859396089521
 30
0.0
 11
237.138757848609
 21
52.57859396089521
 31
0.0
  0
LINE
  5
EF7C87D19
330
EF7C85532
100
AcDbEntity
  8
JISSEN
100
AcDbLine
 10
236.8500827140162
 20
52.07859396089521
 30
0.0
 11
236.8500827140162
 21
49.0785939608952
 31
0.0
  0
LINE
  5
EF7C87D1A
330
EF7C85532
100
AcDbEntity
  8
JISSEN
100
AcDbLine
 10
242.6100827140162
 20
53.82859396089521
 30
0.0
 11
242.6100827140162
 21
47.3285939608952
 31
0.0
  0
LINE
  5
EF7C87D1B
330
EF7C85532
100
AcDbEntity
  8
JISSEN
100
AcDbLine
 10
237.138757848609
 20
52.57859396089521
 30
0.0
 11
237.1387578486089
 21
48.5785939608952
 31
0.0
  0
LINE
  5
EF7C87D1E
330
EF7C85532
100
AcDbEntity
  8
JISSEN
100
AcDbLine
 10
239.3500827140162
 20
53.82859396089521
 30
0.0
 11
239.3500827140162
 21
47.3285939608952
 31
0.0
  0
ARC
  5
EF7C87D20
330
EF7C85532
100
AcDbEntity
  8
JISSEN
100
AcDbCircle
 10
254.0938172248341
 20
34.98413284072865
 30
0.0
 40
8.0
100
AcDbArc
 50
180.0
 51
224.6499999999993
  0
LINE
  5
EF7C87D22
330
EF7C85532
100
AcDbEntity
  8
JISSEN
100
AcDbLine
 10
237.138757848609
 20
48.5785939608952
 30
0.0
 11
239.3500827140162
 21
48.5785939608952
 31
0.0
  0
LINE
  5
EF7C87D23
330
EF7C85532
100
AcDbEntity
  8
JISSEN
100
AcDbLine
 10
249.5938172248341
 20
47.3285939608952
 30
0.0
 11
249.5938172248341
 21
34.58779985262896
 31
0.0
  0
LINE
  5
EF7C87D24
330
EF7C85532
100
AcDbEntity
  8
JISSEN
100
AcDbLine
 10
246.093817224834
 20
47.3285939608952
 30
0.0
 11
246.093817224834
 21
34.98413284072865
 31
0.0
  0
ARC
  5
EF7C87D25
330
EF7C85532
100
AcDbEntity
  8
JISSEN
100
AcDbCircle
 10
256.593817224834
 20
34.58779985262896
 30
0.0
 40
7.0
100
AcDbArc
 50
180.0
 51
224.6499999999993
  0
LINE
  5
EF7C87D2A
330
EF7C85532
100
AcDbEntity
  8
JISSEN
100
AcDbLine
 10
244.3500827140161
 20
53.82859396089521
 30
0.0
 11
239.3500827140162
 21
53.82859396089521
 31
0.0
  0
LINE
  5
EF7C87D2B
330
EF7C85532
100
AcDbEntity
  8
JISSEN
100
AcDbLine
 10
239.3500827140162
 20
52.57859396089521
 30
0.0
 11
237.138757848609
 21
52.57859396089521
 31
0.0
  0
LINE
  5
EF7C87D2E
330
EF7C85532
100
AcDbEntity
  8
JISSEN
100
AcDbLine
 10
274.5903115674523
 20
21.32859396089514
 30
0.0
 11
277.297954196339
 21
28.38224416450628
 31
0.0
  0
LINE
  5
EF7C87D2F
330
EF7C85532
100
AcDbEntity
  8
JISSEN
100
AcDbLine
 10
280.9307933433446
 20
30.87004342609878
 30
0.0
 11
277.2681740515449
 21
21.32859396089514
 31
0.0
  0
LINE
  5
EF7C87D30
330
EF7C85532
100
AcDbEntity
  8
JISSEN
100
AcDbLine
 10
287.1727143591211
 20
21.3285939608952
 30
0.0
 11
257.7642157024513
 21
21.32859396089585
 31
0.0
  0
ARC
  5
EF7C87D32
330
EF7C85532
100
AcDbEntity
  8
JISSEN
100
AcDbCircle
 10
256.4093774713214
 20
20.80618796600564
 30
0.0
 40
1.452065651418106
100
AcDbArc
 50
208.1635875388365
 51
21.08591664036369
  0
LINE
  5
EF7C87D39
330
EF7C85532
100
AcDbEntity
  8
JISSEN
100
AcDbLine
 10
277.2681740515449
 20
21.32859396089514
 30
0.0
 11
274.5903115674523
 21
21.32859396089514
 31
0.0
  0
ARC
  5
EF7C87D3A
330
EF7C85532
100
AcDbEntity
  8
JISSEN
100
AcDbCircle
 10
287.7500827140161
 20
20.0785939608952
 30
0.0
 40
1.25
100
AcDbArc
 50
135.0000000000046
 51
315.0
  0
LINE
  5
EF7C87D3D
330
EF7C85532
100
AcDbEntity
  8
JISSEN
100
AcDbLine
 10
278.0949890783726
 20
32.68265955904991
 30
0.0
 11
278.0949890783726
 21
47.3285939608952
 31
0.0
  0
ARC
  5
EF7C87D3E
330
EF7C85532
100
AcDbEntity
  8
JISSEN
100
AcDbCircle
 10
266.0949890783725
 20
32.68265955904991
 30
0.0
 40
12.0
100
AcDbArc
 50
338.9999999999993
 51
0.0
  0
LINE
  5
EF7C87D3F
330
EF7C85532
100
AcDbEntity
  8
JISSEN
100
AcDbLine
 10
281.5949890783725
 20
47.3285939608952
 30
0.0
 11
281.5949890783725
 21
34.45372292155179
 31
0.0
  0
ARC
  5
EF7C87D40
330
EF7C85532
100
AcDbEntity
  8
JISSEN
100
AcDbCircle
 10
271.5949890783725
 20
34.45372292155179
 30
0.0
 40
10.0
100
AcDbArc
 50
338.9999999999993
 51
0.0
  0
LINE
  5
EF7C87D46
330
EF7C85532
100
AcDbEntity
  8
JISSEN
100
AcDbLine
 10
299.6500827140162
 20
53.82859396089521
 30
0.0
 11
299.6500827140162
 21
34.61032194454139
 31
0.0
  0
ARC
  5
EF7C87D47
330
EF7C85532
100
AcDbEntity
  8
JISSEN
100
AcDbCircle
 10
292.6500827140161
 20
34.61032194454139
 30
0.0
 40
7.0
100
AcDbArc
 50
315.0
 51
0.0
  0
LINE
  5
EF7C87D48
330
EF7C85532
100
AcDbEntity
  8
JISSEN
100
AcDbLine
 10
296.1500827140162
 20
34.23164228810071
 30
0.0
 11
296.1500827140162
 21
53.82859396089518
 31
0.0
  0
ARC
  5
EF7C87D49
330
EF7C85532
100
AcDbEntity
  8
JISSEN
100
AcDbCircle
 10
290.1500827140162
 20
34.23164228810071
 30
0.0
 40
6.0
100
AcDbArc
 50
315.0000000000046
 51
0.0
  0
LINE
  5
EF7C87DE1
330
EF7C85532
100
AcDbEntity
  8
JISSEN
100
AcDbLine
 10
244.5000827140161
 20
47.32859396089518
 30
0.0
 11
244.5000827140161
 21
46.32859396089517
 31
0.0
  0
LINE
  5
EF7C87DE2
330
EF7C85532
100
AcDbEntity
  8
JISSEN
100
AcDbLine
 10
278.0949890783726
 20
46.32859396089517
 30
0.0
 11
272.000082714016
 21
46.32859396089517
 31
0.0
  0
LINE
  5
EF7C87DE3
330
EF7C85532
100
AcDbEntity
  8
JISSEN
100
AcDbLine
 10
278.0949890783726
 20
45.32859396089517
 30
0.0
 11
271.000082714016
 21
45.32859396089517
 31
0.0
  0
LINE
  5
EF7C87DE4
330
EF7C85532
100
AcDbEntity
  8
JISSEN
100
AcDbLine
 10
281.4008258477645
 20
32.49271163855573
 30
0.0
 11
285.5292857306178
 21
32.49271163855567
 31
0.0
1001
ACAD
1000
ASC_BOUNDS
1002
{
1070
    19
1002
}
  0
LINE
  5
EF7C87DEB
330
EF7C85532
100
AcDbEntity
  8
JISSEN
100
AcDbLine
 10
249.5938172248341
 20
46.32859396089517
 30
0.0
 11
270.000082714016
 21
46.32859396089517
 31
0.0
  0
LINE
  5
EF7C87DEC
330
EF7C85532
100
AcDbEntity
  8
JISSEN
100
AcDbLine
 10
249.5938172248341
 20
45.32859396089517
 30
0.0
 11
271.000082714016
 21
45.32859396089517
 31
0.0
  0
LINE
  5
EF7C87DED
330
EF7C85532
100
AcDbEntity
  8
SUNPOU
100
AcDbLine
 10
299.6500827140162
 20
44.21945795271832
 30
0.0
 11
324.2798251640987
 21
25.20257224334071
 31
0.0
  0
LINE
  5
EF7C87DEE
330
EF7C85532
100
AcDbEntity
  8
SUNPOU
100
AcDbLine
 10
289.7919870352367
 20
34.49695960941089
 30
0.0
 11
304.0530171911068
 21
24.88834333592348
 31
0.0
  0
TEXT
  5
EF7C87DEF
330
EF7C85532
100
AcDbEntity
  8
SUNPOU
100
AcDbText
 10
307.2075231711619
 20
19.28572117717192
 30
0.0
 40
4.5
  1
1
  7
K
 72
     4
 11
309.0289517425905
 21
21.53572117717192
 31
0.0
100
AcDbText
  0
CIRCLE
  5
EF7C87DF0
330
EF7C85532
100
AcDbEntity
  8
SUNPOU
100
AcDbCircle
 10
309.0289517425905
 20
21.53572117717192
 30
0.0
 40
6.0
  0
INSERT
  5
EF7C87DF1
330
EF7C85532
100
AcDbEntity
  8
SUNPOU
100
AcDbBlockReference
  2
ARROW
 10
289.7919870352367
 20
34.49695960941089
 30
0.0
 41
1.499999999999995
 42
1.5
 43
1.5
 50
146.0291974830132
  0
TEXT
  5
EF7C87DF2
330
EF7C85532
100
AcDbEntity
  8
SUNPOU
100
AcDbText
 10
326.8860945997332
 20
19.28572117717192
 30
0.0
 40
4.5
  1
2
  7
K
 72
     4
 11
329.0289517425903
 21
21.53572117717192
 31
0.0
100
AcDbText
  0
CIRCLE
  5
EF7C87DF3
330
EF7C85532
100
AcDbEntity
  8
SUNPOU
100
AcDbCircle
 10
329.0289517425903
 20
21.53572117717192
 30
0.0
 40
6.0
  0
INSERT
  5
EF7C87DF4
330
EF7C85532
100
AcDbEntity
  8
SUNPOU
100
AcDbBlockReference
  2
ARROW
 10
299.6500827140162
 20
44.21945795271829
 30
0.0
 41
1.499999999999995
 42
1.5
 43
1.5
 50
142.3278883834794
  0
LINE
  5
EF7C8846A
330
EF7C85532
100
AcDbEntity
  8
SUNPOU
100
AcDbLine
 10
480.6500822254655
 20
44.21945795271832
 30
0.0
 11
505.2798246755478
 21
25.20257224334071
 31
0.0
  0
LINE
  5
EF7C8846B
330
EF7C85532
100
AcDbEntity
  8
JISSEN
100
AcDbLine
 10
477.1500822254655
 20
34.23164228810071
 30
0.0
 11
477.1500822254655
 21
53.82859396089518
 31
0.0
  0
LINE
  5
EF7C8846C
330
EF7C85532
100
AcDbEntity
  8
JISSEN
100
AcDbLine
 10
480.6500822254655
 20
53.82859396089521
 30
0.0
 11
480.6500822254655
 21
34.61032194454139
 31
0.0
  0
LINE
  5
EF7C8846D
330
EF7C85532
100
AcDbEntity
  8
JISSEN
100
AcDbLine
 10
462.5949885898217
 20
47.3285939608952
 30
0.0
 11
462.5949885898217
 21
34.45372292155179
 31
0.0
  0
LINE
  5
EF7C8846E
330
EF7C85532
100
AcDbEntity
  8
JISSEN
100
AcDbLine
 10
459.0949885898218
 20
32.68265955904991
 30
0.0
 11
459.0949885898218
 21
47.3285939608952
 31
0.0
  0
LINE
  5
EF7C8846F
330
EF7C85532
100
AcDbEntity
  8
JISSEN
100
AcDbLine
 10
427.0938167362833
 20
47.3285939608952
 30
0.0
 11
427.0938167362833
 21
34.98413284072865
 31
0.0
  0
LINE
  5
EF7C88470
330
EF7C85532
100
AcDbEntity
  8
JISSEN
100
AcDbLine
 10
430.5938167362833
 20
47.3285939608952
 30
0.0
 11
430.5938167362833
 21
34.58779985262896
 31
0.0
  0
LINE
  5
EF7C88471
330
EF7C85532
100
AcDbEntity
  8
JISSEN
100
AcDbLine
 10
466.529285242067
 20
32.49271163855567
 30
0.0
 11
475.0546878513048
 21
36.50120758026614
 31
0.0
1001
ACAD
1000
ASC_BOUNDS
1002
{
1070
    19
1002
}
  0
LINE
  5
EF7C88472
330
EF7C85532
100
AcDbEntity
  8
JISSEN
100
AcDbLine
 10
437.4708792088636
 20
32.49271163855567
 30
0.0
 11
430.5938167362833
 21
35.72618673360369
 31
0.0
1001
ACAD
1000
ASC_BOUNDS
1002
{
1070
    19
1002
}
  0
INSERT
  5
EF7C88473
330
EF7C85532
100
AcDbEntity
  8
WAKU
100
AcDbBlockReference
  2
WAKU
 10
361.9999987874493
 20
0.0
 30
0.0
 41
181.0
 42
283.0
 43
181.0
  0
LINE
  5
EF7C88474
330
EF7C85532
100
AcDbEntity
  8
SUNPOU
100
AcDbLine
 10
470.7919865466861
 20
34.49695960941089
 30
0.0
 11
485.0530167025561
 21
24.88834333592348
 31
0.0
  0
LINE
  5
EF7C88475
330
EF7C85532
100
AcDbEntity
  8
JISSEN
100
AcDbLine
 10
478.9594910492644
 20
30.04850454993155
 30
0.0
 11
469.6339657019486
 21
19.19471048441201
 31
0.0
  0
LINE
  5
EF7C88476
330
EF7C85532
100
AcDbEntity
  8
JISSEN
100
AcDbLine
 10
475.7506346812159
 20
30.38003001505348
 30
0.0
 11
467.8661987489828
 21
20.96247743737774
 31
0.0
  0
LINE
  5
EF7C88477
330
EF7C85532
100
AcDbEntity
  8
JISSEN
100
AcDbLine
 10
468.1727138705705
 20
21.3285939608952
 30
0.0
 11
438.7642152139006
 21
21.32859396089585
 31
0.0
  0
LINE
  5
EF7C88478
330
EF7C85532
100
AcDbEntity
  8
JISSEN
100
AcDbLine
 10
468.7500822254654
 20
18.8285939608952
 30
0.0
 11
435.2500822254653
 21
18.8285939608952
 31
0.0
  0
LINE
  5
EF7C8847E
330
EF7C85532
100
AcDbEntity
  8
JISSEN
100
AcDbLine
 10
452.0000822254655
 20
32.49271163855589
 30
0.0
 11
437.4708792088636
 21
32.49271163855567
 31
0.0
1001
ACAD
1000
ASC_BOUNDS
1002
{
1070
    19
1002
}
  0
LINE
  5
EF7C88481
330
EF7C85532
100
AcDbEntity
  8
JISSEN
100
AcDbLine
 10
436.1292306940673
 20
20.12082664848966
 30
0.0
 11
429.4025124897395
 21
29.36193967673364
 31
0.0
  0
LINE
  5
EF7C88482
330
EF7C85532
100
AcDbEntity
  8
JISSEN
100
AcDbLine
 10
438.7642152139006
 20
21.32859396089588
 30
0.0
 11
432.6139255205577
 21
29.66838083413333
 31
0.0
  0
ARC
  5
EF7C88483
330
EF7C85532
100
AcDbEntity
  8
JISSEN
100
AcDbCircle
 10
437.5938167362833
 20
34.58779985262896
 30
0.0
 40
7.0
100
AcDbArc
 50
180.0
 51
224.6499999999993
  0
ARC
  5
EF7C88484
330
EF7C85532
100
AcDbEntity
  8
JISSEN
100
AcDbCircle
 10
435.0938167362833
 20
34.98413284072865
 30
0.0
 40
8.0
100
AcDbArc
 50
180.0
 51
224.6499999999993
  0
ARC
  5
EF7C88485
330
EF7C85532
100
AcDbEntity
  8
JISSEN
100
AcDbCircle
 10
437.4093769827708
 20
20.80618796600564
 30
0.0
 40
1.452065651418106
100
AcDbArc
 50
208.1635875388365
 51
21.08591664036369
  0
ARC
  5
EF7C88486
330
EF7C85532
100
AcDbEntity
  8
JISSEN
100
AcDbCircle
 10
435.2500822254653
 20
20.0785939608952
 30
0.0
 40
1.25
100
AcDbArc
 50
90.0
 51
270.0
  0
LINE
  5
EF7C88493
330
EF7C85532
100
AcDbEntity
  8
JISSEN
100
AcDbLine
 10
461.9307928547938
 20
30.87004342609878
 30
0.0
 11
458.2681735629943
 21
21.32859396089514
 31
0.0
  0
LINE
  5
EF7C88497
330
EF7C85532
100
AcDbEntity
  8
JISSEN
100
AcDbLine
 10
455.5903110789015
 20
21.32859396089514
 30
0.0
 11
458.2979537077881
 21
28.38224416450628
 31
0.0
  0
LINE
  5
EF7C884A1
330
EF7C85532
100
AcDbEntity
  8
JISSEN
100
AcDbLine
 10
458.2681735629943
 20
21.32859396089514
 30
0.0
 11
455.5903110789015
 21
21.32859396089514
 31
0.0
  0
LINE
  5
EF7C884A8
330
EF7C85532
100
AcDbEntity
  8
JISSEN
100
AcDbLine
 10
452.0000822254655
 20
32.49271163855589
 30
0.0
 11
459.0934851534542
 21
32.49271163855579
 31
0.0
1001
ACAD
1000
ASC_BOUNDS
1002
{
1070
    19
1002
}
  0
ARC
  5
EF7C884A9
330
EF7C85532
100
AcDbEntity
  8
JISSEN
100
AcDbCircle
 10
447.0949885898217
 20
32.68265955904991
 30
0.0
 40
12.0
100
AcDbArc
 50
338.9999999999993
 51
0.0
  0
ARC
  5
EF7C884AB
330
EF7C85532
100
AcDbEntity
  8
JISSEN
100
AcDbCircle
 10
468.7500822254654
 20
20.0785939608952
 30
0.0
 40
1.25
100
AcDbArc
 50
135.0000000000046
 51
315.0
  0
LINE
  5
EF7C884B1
330
EF7C85532
100
AcDbEntity
  8
JISSEN
100
AcDbLine
 10
462.400825359214
 20
32.49271163855573
 30
0.0
 11
466.529285242067
 21
32.49271163855567
 31
0.0
1001
ACAD
1000
ASC_BOUNDS
1002
{
1070
    19
1002
}
  0
ARC
  5
EF7C884B2
330
EF7C85532
100
AcDbEntity
  8
JISSEN
100
AcDbCircle
 10
452.5949885898217
 20
34.45372292155179
 30
0.0
 40
10.0
100
AcDbArc
 50
338.9999999999993
 51
0.0
  0
INSERT
  5
EF7C884B5
330
EF7C85532
100
AcDbEntity
  8
SUNPOU
100
AcDbBlockReference
  2
ARROW
 10
470.7919865466858
 20
34.49695960941089
 30
0.0
 41
1.499999999999995
 42
1.5
 43
1.5
 50
146.0291974830132
  0
TEXT
  5
EF7C884B6
330
EF7C85532
100
AcDbEntity
  8
SUNPOU
100
AcDbText
 10
502.9213410479663
 20
6.665259596075087
 30
0.0
 40
3.0
  1
MFJ   ガード作動状態
  7
K
100
AcDbText
  0
TEXT
  5
EF7C884B9
330
EF7C85532
100
AcDbEntity
  8
SUNPOU
100
AcDbText
 10
502.9213410479663
 20
1.665259596075087
 30
0.0
 40
3.0
  1
尺度　1/1
  7
K
100
AcDbText
  0
CIRCLE
  5
EF7C884BC
330
EF7C85532
100
AcDbEntity
  8
SUNPOU
100
AcDbCircle
 10
490.0289512540398
 20
21.53572117717192
 30
0.0
 40
6.0
  0
ARC
  5
EF7C884BD
330
EF7C85532
100
AcDbEntity
  8
JISSEN
100
AcDbCircle
 10
473.6500822254654
 20
34.61032194454139
 30
0.0
 40
7.0
100
AcDbArc
 50
315.0
 51
0.0
  0
ARC
  5
EF7C884BE
330
EF7C85532
100
AcDbEntity
  8
JISSEN
100
AcDbCircle
 10
471.1500822254655
 20
34.23164228810071
 30
0.0
 40
6.0
100
AcDbArc
 50
315.0000000000046
 51
0.0
  0
TEXT
  5
EF7C884BF
330
EF7C85532
100
AcDbEntity
  8
SUNPOU
100
AcDbText
 10
488.2075226826112
 20
19.28572117717192
 30
0.0
 40
4.5
  1
1
  7
K
 72
     4
 11
490.0289512540398
 21
21.53572117717192
 31
0.0
100
AcDbText
  0
CIRCLE
  5
EF7C884C0
330
EF7C85532
100
AcDbEntity
  8
SUNPOU
100
AcDbCircle
 10
510.0289512540398
 20
21.53572117717192
 30
0.0
 40
6.0
  0
TEXT
  5
EF7C884C1
330
EF7C85532
100
AcDbEntity
  8
SUNPOU
100
AcDbText
 10
507.8860941111826
 20
19.28572117717192
 30
0.0
 40
4.5
  1
2
  7
K
 72
     4
 11
510.0289512540398
 21
21.53572117717192
 31
0.0
100
AcDbText
  0
LINE
  5
EF7C884C2
330
EF7C85532
100
AcDbEntity
  8
JISSEN
100
AcDbLine
 10
480.6500822254655
 20
53.82859396089521
 30
0.0
 11
420.3500822254656
 21
53.82859396089521
 31
0.0
  0
LINE
  5
EF7C884C3
330
EF7C85532
100
AcDbEntity
  8
JISSEN
100
AcDbLine
 10
420.3500822254656
 20
47.3285939608952
 30
0.0
 11
477.1500822254655
 21
47.32859396089522
 31
0.0
  0
LINE
  5
EF7C884C7
330
EF7C85532
100
AcDbEntity
  8
JISSEN
100
AcDbLine
 10
477.1500822254655
 20
46.32859396089517
 30
0.0
 11
462.5949885898217
 21
46.32859396089513
 31
0.0
  0
LINE
  5
EF7C884C8
330
EF7C85532
100
AcDbEntity
  8
JISSEN
100
AcDbLine
 10
477.1500822254655
 20
45.32859396089517
 30
0.0
 11
462.5949885898217
 21
45.32859396089517
 31
0.0
  0
LINE
  5
EF7C884C9
102
{ACAD_REACTORS
330
EF7C884D1
102
}
330
EF7C85532
100
AcDbEntity
  8
JISSEN
100
AcDbLine
 10
478.3500822254652
 20
53.82859396089518
 30
0.0
 11
452.0000822254655
 21
53.82859396089518
 31
0.0
  0
ARC
  5
EF7C884CA
330
EF7C85532
100
AcDbEntity
  8
JISSEN
100
AcDbCircle
 10
474.4542028959282
 20
37.87576853503177
 30
0.0
 40
1.5
100
AcDbArc
 50
290.0
 51
355.0000000000001
  0
ARC
  5
EF7C884CB
330
EF7C85532
100
AcDbEntity
  8
JISSEN
100
AcDbCircle
 10
473.8310372254654
 20
38.02859096089517
 30
0.0
 40
1.3
100
AcDbArc
 50
294.825405
 51
353.8576429999998
  0
ARC
  5
EF7C884CC
330
EF7C85532
100
AcDbEntity
  8
JISSEN
100
AcDbCircle
 10
474.2586132254654
 20
38.0955799608952
 30
0.0
 40
1.399999999999999
100
AcDbArc
 50
294.825405
 51
353.8576429999998
  0
LINE
  5
EF7C884D0
102
{ACAD_REACTORS
330
EF7C884D1
102
}
330
EF7C85532
100
AcDbEntity
  8
JISSEN
100
AcDbLine
 10
462.5975881424143
 20
53.82859396089521
 30
0.0
 11
517.2759047431449
 21
53.82859396089518
 31
0.0
  0
HATCH
  5
EF7C884D1
330
EF7C85532
100
AcDbEntity
  8
HATCH
100
AcDbHatch
 10
0.0
 20
0.0
 30
0.0
210
0.0
220
0.0
230
1.0
  2
_U
 70
     0
 71
     1
 91
        2
 92
        7
 72
     0
 73
     1
 93
       15
 10
469.5000822254653
 20
58.82859396089514
 10
469.5000822254653
 20
53.82859396089517
 10
478.3500822254652
 20
53.82859396089518
 10
517.2741454833651
 20
53.82859396089518
 10
517.5837090008441
 20
54.57676250474985
 10
517.9139655935586
 20
55.11433350237833
 10
518.2951016199084
 20
55.53755389100248
 10
518.7052740327025
 20
55.87886698262789
 10
519.1226397847461
 20
56.17071608925622
 10
519.5253558288575
 20
56.44554452289423
 10
519.8915791178376
 20
56.73579559554432
 10
520.1994666044964
 20
57.07391261921122
 10
520.4271752416445
 20
57.49233890589868
 10
520.5690805983249
 20
58.0089568826628
 10
520.7336677765747
 20
58.82859396089518
 97
        5
330
EF7C8857E
330
EF7C884D2
330
EF7C88528
330
EF7C884C9
330
EF7C884D0
 92
        7
 72
     0
 73
     1
 93
       14
 10
383.2663297983239
 20
58.82859396089518
 10
383.4309169765738
 20
58.00895688266246
 10
383.5728223332543
 20
57.49233890589873
 10
383.8005309704021
 20
57.07391261921114
 10
384.1084184570614
 20
56.73579559554408
 10
384.4746417460407
 20
56.4455445228938
 10
384.8773577901513
 20
56.17071608925538
 10
385.2947235421959
 20
55.87886698262756
 10
385.7048959549903
 20
55.5375538910027
 10
386.0860319813399
 20
55.11433350237822
 10
386.4162885740546
 20
54.57676250474999
 10
386.7258520915335
 20
53.82859396089517
 10
434.5000822254654
 20
53.82859396089518
 10
434.5000822254654
 20
58.82859396089521
 97
        4
330
EF7C884DA
330
EF7C884DB
330
EF7C884D9
330
EF7C884E7
 75
     0
 76
     0
 52
45.0
 41
2.0
 77
     0
 78
     1
 53
45.0
 43
361.9999987874493
 44
-126.5000001996573
 45
-1.414213562373094
 46
1.414213562373094
 79
     0
 47
0.2346837798524018
 98
        2
 10
479.2263862772937
 20
56.6842257965508
 10
428.258580983638
 20
57.38827685032188
  0
LINE
  5
EF7C884D2
102
{ACAD_REACTORS
330
EF7C884D1
102
}
330
EF7C85532
100
AcDbEntity
  8
JISSEN
100
AcDbLine
 10
520.7336677765747
 20
58.82859396089518
 30
0.0
 11
462.5350849624776
 21
58.82859396089514
 31
0.0
  0
LWPOLYLINE
  5
EF7C884D3
330
EF7C85532
100
AcDbEntity
  8
NITEN
100
AcDbPolyline
 90
        2
 70
     0
 43
0.0
 10
468.9999987874495
 20
122.7768605177683
 42
0.5882352941176295
 10
451.9999987874491
 20
122.7768605177687
 42
0.5882352941176295
  0
LWPOLYLINE
  5
EF7C884D4
330
EF7C85532
100
AcDbEntity
  8
NITEN
100
AcDbPolyline
 90
        5
 70
     0
 43
0.0
 10
468.9999987874493
 20
101.9391428666226
 10
468.9999987874493
 20
122.7768605177683
 42
-0.5882352941176476
 10
451.9999987874493
 20
122.7768605177683
 42
0.5882352941176477
 10
434.9999987874493
 20
122.7768605177681
 10
434.9999987874493
 20
101.9391428666226
  0
LINE
  5
EF7C884D5
330
EF7C85532
100
AcDbEntity
  8
JISSEN
100
AcDbLine
 10
420.3500822254656
 20
52.57859396089521
 30
0.0
 11
418.1387573600582
 21
52.57859396089521
 31
0.0
  0
LINE
  5
EF7C884D6
330
EF7C85532
100
AcDbEntity
  8
JISSEN
100
AcDbLine
 10
418.1387573600582
 20
48.5785939608952
 30
0.0
 11
420.3500822254656
 21
48.5785939608952
 31
0.0
  0
LINE
  5
EF7C884D7
330
EF7C85532
100
AcDbEntity
  8
SAISEN
100
AcDbLine
 10
420.3500822254656
 20
52.1785939608952
 30
0.0
 11
417.907817252384
 21
52.1785939608952
 31
0.0
  0
LINE
  5
EF7C884D8
330
EF7C85532
100
AcDbEntity
  8
SAISEN
100
AcDbLine
 10
417.9078172523823
 20
48.97859396089521
 30
0.0
 11
420.3500822254656
 21
48.97859396089518
 31
0.0
  0
LINE
  5
EF7C884D9
102
{ACAD_REACTORS
330
EF7C884D1
102
}
330
EF7C85532
100
AcDbEntity
  8
JISSEN
100
AcDbLine
 10
441.4025763085166
 20
53.82859396089518
 30
0.0
 11
386.7240928317538
 21
53.82859396089518
 31
0.0
  0
LINE
  5
EF7C884DA
102
{ACAD_REACTORS
330
EF7C884D1
102
}
330
EF7C85532
100
AcDbEntity
  8
JISSEN
100
AcDbLine
 10
383.2663297983239
 20
58.82859396089518
 30
0.0
 11
441.4650794884531
 21
58.82859396089522
 31
0.0
  0
LWPOLYLINE
  5
EF7C884DB
102
{ACAD_REACTORS
330
EF7C884D1
102
}
330
EF7C85532
100
AcDbEntity
  8
HATCH
100
AcDbPolyline
 90
       13
 70
     0
 43
0.0
 10
383.2663297983239
 20
58.82859396089518
 10
383.4309169765738
 20
58.00895688266312
 10
383.5728223332543
 20
57.49233890589882
 10
383.800530970402
 20
57.07391261921102
 10
384.1084184570613
 20
56.73579559554409
 10
384.4746417460409
 20
56.44554452289398
 10
384.8773577901496
 20
56.17071608925649
 10
385.2947235421963
 20
55.87886698262749
 10
385.7048959549903
 20
55.53755389100277
 10
386.0860319813399
 20
55.1143335023784
 10
386.4162885740544
 20
54.57676250475012
 10
386.6908686372571
 20
53.91314371746265
 10
386.7240928317538
 20
53.82859396089518
  0
LINE
  5
EF7C884DC
330
EF7C85532
100
AcDbEntity
  8
JISSEN
100
AcDbLine
 10
418.1387573600582
 20
52.57859396089521
 30
0.0
 11
418.1387573600582
 21
48.5785939608952
 31
0.0
  0
LINE
  5
EF7C884DD
330
EF7C85532
100
AcDbEntity
  8
JISSEN
100
AcDbLine
 10
417.8500822254656
 20
52.07859396089521
 30
0.0
 11
417.8500822254656
 21
49.0785939608952
 31
0.0
  0
LINE
  5
EF7C884DE
330
EF7C85532
100
AcDbEntity
  8
JISSEN
100
AcDbLine
 10
417.8500822254656
 20
49.07859396089161
 30
0.0
 11
418.1387573600582
 21
48.5785939608952
 31
0.0
  0
LINE
  5
EF7C884DF
330
EF7C85532
100
AcDbEntity
  8
JISSEN
100
AcDbLine
 10
417.8500822254656
 20
52.07859396089521
 30
0.0
 11
418.1387573600582
 21
52.57859396089521
 31
0.0
  0
LWPOLYLINE
  5
EF7C884E0
330
EF7C85532
100
AcDbEntity
  8
NITEN
100
AcDbPolyline
 90
       15
 70
     1
 43
0.0
 10
437.9999987874493
 20
61.4391428666226
 42
0.4142135623730927
 10
439.4999987874491
 20
59.9391428666226
 10
462.5940499584459
 20
59.9391428666226
 10
464.4999987874493
 20
59.9391428666226
 42
0.4142135623730925
 10
465.9999987874493
 20
61.4391428666226
 10
465.9999987874493
 20
72.48515889284057
 42
-0.4142135623730943
 10
470.9999987874493
 20
77.48515889284057
 42
0.4142135623730951
 10
472.9999987874493
 20
79.48515889284057
 10
472.9999987874491
 20
99.9391428666226
 42
0.4142135623730949
 10
470.9999987874493
 20
101.9391428666226
 10
432.9999987874493
 20
101.9391428666226
 42
0.4142135623730951
 10
430.9999987874493
 20
99.9391428666226
 10
430.9999987874493
 20
79.48515889284057
 42
0.4142135623730951
 10
432.9999987874493
 20
77.48515889284057
 42
-0.4142135623730961
 10
437.9999987874493
 20
72.48515889284057
  0
LINE
  5
EF7C884E1
330
EF7C85532
100
AcDbEntity
  8
JISSEN
100
AcDbLine
 10
430.5938167362833
 20
45.32859396089517
 30
0.0
 11
452.0000822254655
 21
45.32859396089517
 31
0.0
  0
LINE
  5
EF7C884E2
330
EF7C85532
100
AcDbEntity
  8
JISSEN
100
AcDbLine
 10
430.5938167362833
 20
46.32859396089517
 30
0.0
 11
451.0000822254654
 21
46.32859396089517
 31
0.0
  0
LINE
  5
EF7C884E3
330
EF7C85532
100
AcDbEntity
  8
JISSEN
100
AcDbLine
 10
441.7381582254654
 20
70.56666896089883
 30
0.0
 11
452.0000822254655
 21
70.56666896089883
 31
0.0
  0
LINE
  5
EF7C884E4
330
EF7C85532
100
AcDbEntity
  8
JISSEN
100
AcDbLine
 10
443.0000822254654
 20
71.82859396089884
 30
0.0
 11
452.0000822254655
 21
71.82859396089881
 31
0.0
  0
LINE
  5
EF7C884E5
330
EF7C85532
100
AcDbEntity
  8
JISSEN
100
AcDbLine
 10
452.0000822254655
 20
56.06936096089517
 30
0.0
 11
441.3788492254654
 21
56.06936096089517
 31
0.0
  0
LINE
  5
EF7C884E6
330
EF7C85532
100
AcDbEntity
  8
JISSEN
100
AcDbLine
 10
425.6500822254653
 20
53.82859396089518
 30
0.0
 11
452.0000822254655
 21
53.82859396089518
 31
0.0
  0
LINE
  5
EF7C884E7
102
{ACAD_REACTORS
330
EF7C884D1
102
}
330
EF7C85532
100
AcDbEntity
  8
JISSEN
100
AcDbLine
 10
434.5000822254654
 20
58.82859396089521
 30
0.0
 11
434.5000822254654
 21
53.82859396089518
 31
0.0
  0
LINE
  5
EF7C884E8
330
EF7C85532
100
AcDbEntity
  8
SAISEN
100
AcDbLine
 10
442.5408492254653
 20
56.06936096089517
 30
0.0
 11
443.0333490721986
 21
71.82859396089881
 31
0.0
  0
LINE
  5
EF7C884E9
330
EF7C85532
100
AcDbEntity
  8
JISSEN
100
AcDbLine
 10
441.8349375041006
 20
70.66344831622572
 30
0.0
 11
441.3413632254654
 21
54.8698749608952
 31
0.0
  0
ARC
  5
EF7C884EA
330
EF7C85532
100
AcDbEntity
  8
JISSEN
100
AcDbCircle
 10
432.8159312254654
 20
36.43171496089515
 30
0.0
 40
0.4
100
AcDbArc
 50
242.253262
 51
270.0
  0
LINE
  5
EF7C884EB
330
EF7C85532
100
AcDbEntity
  8
JISSEN
100
AcDbLine
 10
433.8588072254654
 20
36.2202169608952
 30
0.0
 11
432.3594322254654
 21
37.0089669608952
 31
0.0
  0
LINE
  5
EF7C884EC
330
EF7C85532
100
AcDbEntity
  8
JISSEN
100
AcDbLine
 10
425.5000822254654
 20
46.32859396089517
 30
0.0
 11
426.5000822254654
 21
45.32859396089517
 31
0.0
  0
LINE
  5
EF7C884ED
330
EF7C85532
100
AcDbEntity
  8
JISSEN
100
AcDbLine
 10
432.0942732254653
 20
37.40614396089515
 30
0.0
 11
431.5261652254654
 21
43.64672596089515
 31
0.0
  0
LINE
  5
EF7C884EE
330
EF7C85532
100
AcDbEntity
  8
JISSEN
100
AcDbLine
 10
431.0893412254653
 20
43.6110269608952
 30
0.0
 11
431.6200952254654
 21
37.59157696089518
 31
0.0
  0
LINE
  5
EF7C884EF
330
EF7C85532
100
AcDbEntity
  8
JISSEN
100
AcDbLine
 10
431.2416062254653
 20
36.80792296089518
 30
0.0
 11
432.6297052254654
 21
36.07770996089518
 31
0.0
  0
ARC
  5
EF7C884F0
330
EF7C85532
100
AcDbEntity
  8
JISSEN
100
AcDbCircle
 10
431.0405082254654
 20
37.0539519608952
 30
0.0
 40
1.0
100
AcDbArc
 50
245.1745949999998
 51
270.0
  0
LINE
  5
EF7C884F1
330
EF7C85532
100
AcDbEntity
  8
JISSEN
100
AcDbLine
 10
431.0405082254654
 20
36.0539519608952
 30
0.0
 11
431.1141832254654
 21
36.0539519608952
 31
0.0
  0
ARC
  5
EF7C884F2
330
EF7C85532
100
AcDbEntity
  8
JISSEN
100
AcDbCircle
 10
431.1141832254654
 20
36.10395196089516
 30
0.0
 40
0.05
100
AcDbArc
 50
270.0
 51
65.17459499999985
  0
LINE
  5
EF7C884F3
330
EF7C85532
100
AcDbEntity
  8
JISSEN
100
AcDbLine
 10
431.1351752254654
 20
36.14933096089517
 30
0.0
 11
430.5938167362834
 21
36.39976519788918
 31
0.0
  0
LINE
  5
EF7C884F4
330
EF7C85532
100
AcDbEntity
  8
JISSEN
100
AcDbLine
 10
430.5938167362834
 20
36.1587746119936
 30
0.0
 11
430.6206532254654
 21
36.14635996089518
 31
0.0
  0
ARC
  5
EF7C884F5
330
EF7C85532
100
AcDbEntity
  8
JISSEN
100
AcDbCircle
 10
432.1181632254654
 20
37.63549296089522
 30
0.0
 40
0.5
100
AcDbArc
 50
185.0389269999999
 51
279.3495549999998
  0
ARC
  5
EF7C884F6
330
EF7C85532
100
AcDbEntity
  8
JISSEN
100
AcDbCircle
 10
431.8468392254653
 20
37.9584419608952
 30
0.0
 40
1.3
100
AcDbArc
 50
195.4499661289538
 51
242.253262
  0
ARC
  5
EF7C884F7
330
EF7C85532
100
AcDbEntity
  8
JISSEN
100
AcDbCircle
 10
432.5922142254653
 20
37.45147396089517
 30
0.0
 40
0.5
100
AcDbArc
 50
185.2015590000002
 51
242.253262
  0
LINE
  5
EF7C884F8
330
EF7C85532
100
AcDbEntity
  8
JISSEN
100
AcDbLine
 10
426.5000822254654
 20
45.32859396089517
 30
0.0
 11
427.0938167362833
 21
45.3285939608952
 31
0.0
  0
LINE
  5
EF7C884F9
330
EF7C85532
100
AcDbEntity
  8
JISSEN
100
AcDbLine
 10
426.5000822254654
 20
45.32859396089517
 30
0.0
 11
427.0938167362833
 21
45.32859396089515
 31
0.0
  0
ARC
  5
EF7C884FA
330
EF7C85532
100
AcDbEntity
  8
JISSEN
100
AcDbCircle
 10
431.3269882254655
 20
43.62859396089517
 30
0.0
 40
0.2
100
AcDbArc
 50
5.201559000000191
 51
90.0
  0
LINE
  5
EF7C884FB
330
EF7C85532
100
AcDbEntity
  8
JISSEN
100
AcDbLine
 10
431.3269882254655
 20
43.82859396089517
 30
0.0
 11
430.5938167362833
 21
43.82859396089517
 31
0.0
  0
ARC
  5
EF7C884FC
330
EF7C85532
100
AcDbEntity
  8
JISSEN
100
AcDbCircle
 10
431.2885682254654
 20
43.62859396089517
 30
0.0
 40
0.2
100
AcDbArc
 50
90.0
 51
185.0389269999999
  0
LINE
  5
EF7C884FD
330
EF7C85532
100
AcDbEntity
  8
JISSEN
100
AcDbLine
 10
425.5000822254654
 20
46.32859396089517
 30
0.0
 11
427.0938167362834
 21
46.32859396089517
 31
0.0
  0
LINE
  5
EF7C884FE
330
EF7C85532
100
AcDbEntity
  8
JISSEN
100
AcDbLine
 10
420.3500822254656
 20
53.82859396089521
 30
0.0
 11
420.3500822254656
 21
47.3285939608952
 31
0.0
  0
LINE
  5
EF7C884FF
330
EF7C85532
100
AcDbEntity
  8
JISSEN
100
AcDbLine
 10
423.6100822254655
 20
53.82859396089521
 30
0.0
 11
423.6100822254655
 21
47.3285939608952
 31
0.0
  0
LINE
  5
EF7C88500
330
EF7C85532
100
AcDbEntity
  8
JISSEN
100
AcDbLine
 10
425.5000822254654
 20
47.32859396089518
 30
0.0
 11
425.5000822254654
 21
46.32859396089517
 31
0.0
  0
LINE
  5
EF7C88501
330
EF7C85532
100
AcDbEntity
  8
JISSEN
100
AcDbLine
 10
425.3500822254656
 20
53.82859396089521
 30
0.0
 11
420.3500822254656
 21
53.82859396089521
 31
0.0
  0
LINE
  5
EF7C88502
330
EF7C85532
100
AcDbEntity
  8
JISSEN
100
AcDbLine
 10
437.3790612254654
 20
43.64260796089515
 30
0.0
 11
437.8228682254654
 21
37.32434196089517
 31
0.0
  0
LINE
  5
EF7C88503
330
EF7C85532
100
AcDbEntity
  8
JISSEN
100
AcDbLine
 10
435.8938422254653
 20
43.50900196089518
 30
0.0
 11
436.2864852254654
 21
37.50937096089514
 31
0.0
  0
LINE
  5
EF7C88504
330
EF7C85532
100
AcDbEntity
  8
JISSEN
100
AcDbLine
 10
435.4982052254653
 20
37.70203896089518
 30
0.0
 11
435.0941712254654
 21
43.45406896089516
 31
0.0
  0
LINE
  5
EF7C88505
330
EF7C85532
100
AcDbEntity
  8
JISSEN
100
AcDbLine
 10
437.0044292254654
 20
36.0961629608952
 30
0.0
 11
436.0013632254654
 21
36.80708496089518
 31
0.0
  0
ARC
  5
EF7C88506
330
EF7C85532
100
AcDbEntity
  8
JISSEN
100
AcDbCircle
 10
436.6856312254654
 20
37.5354929608952
 30
0.0
 40
0.4
100
AcDbArc
 50
183.7443620000003
 51
270.0
  0
ARC
  5
EF7C88507
330
EF7C85532
100
AcDbEntity
  8
JISSEN
100
AcDbCircle
 10
433.8122502254654
 20
36.1317149608952
 30
0.0
 40
0.1
100
AcDbArc
 50
270.0
 51
62.25326200000021
  0
LINE
  5
EF7C88508
330
EF7C85532
100
AcDbEntity
  8
JISSEN
100
AcDbLine
 10
432.8159312254654
 20
36.03171496089518
 30
0.0
 11
433.8122502254654
 21
36.03171496089518
 31
0.0
  0
ARC
  5
EF7C88509
330
EF7C85532
100
AcDbEntity
  8
JISSEN
100
AcDbCircle
 10
436.6952552254653
 20
37.7861219608952
 30
0.0
 40
1.199999999999999
100
AcDbArc
 50
184.0179690000003
 51
234.6729319999998
  0
LINE
  5
EF7C8850A
330
EF7C85532
100
AcDbEntity
  8
JISSEN
100
AcDbLine
 10
436.6856312254654
 20
37.13549296089522
 30
0.0
 11
437.8857832254653
 21
37.13549296089522
 31
0.0
  0
LINE
  5
EF7C8850B
330
EF7C85532
100
AcDbEntity
  8
JISSEN
100
AcDbLine
 10
437.9905882254654
 20
37.02602396089517
 30
0.0
 11
439.0091832254653
 21
36.30409496089518
 31
0.0
  0
LINE
  5
EF7C8850C
330
EF7C85532
100
AcDbEntity
  8
JISSEN
100
AcDbLine
 10
438.9224472254654
 20
36.03171496089518
 30
0.0
 11
437.2068142254653
 21
36.03171496089518
 31
0.0
  0
ARC
  5
EF7C8850D
330
EF7C85532
100
AcDbEntity
  8
JISSEN
100
AcDbCircle
 10
437.2068142254653
 20
36.38171496089521
 30
0.0
 40
0.35
100
AcDbArc
 50
234.6729319999998
 51
270.0
  0
ARC
  5
EF7C8850E
330
EF7C85532
100
AcDbEntity
  8
JISSEN
100
AcDbCircle
 10
438.9224472254654
 20
36.18171496089515
 30
0.0
 40
0.15
100
AcDbArc
 50
270.0
 51
54.67293199999994
  0
ARC
  5
EF7C8850F
330
EF7C85532
100
AcDbEntity
  8
JISSEN
100
AcDbCircle
 10
438.2218852254655
 20
37.35236996089517
 30
0.0
 40
0.4
100
AcDbArc
 50
184.0179690000003
 51
234.6729319999998
  0
LINE
  5
EF7C88510
330
EF7C85532
100
AcDbEntity
  8
JISSEN
100
AcDbLine
 10
436.1932012254653
 20
43.82859396089517
 30
0.0
 11
437.1795522254654
 21
43.82859396089517
 31
0.0
  0
ARC
  5
EF7C88511
330
EF7C85532
100
AcDbEntity
  8
JISSEN
100
AcDbCircle
 10
436.1932012254653
 20
43.52859396089516
 30
0.0
 40
0.3
100
AcDbArc
 50
90.0
 51
183.7443620000003
  0
ARC
  5
EF7C88512
330
EF7C85532
100
AcDbEntity
  8
JISSEN
100
AcDbCircle
 10
435.4433102254653
 20
43.47859396089514
 30
0.0
 40
0.35
100
AcDbArc
 50
90.0
 51
184.0179690000003
  0
LINE
  5
EF7C88513
330
EF7C85532
100
AcDbEntity
  8
JISSEN
100
AcDbLine
 10
435.4433102254653
 20
43.82859396089517
 30
0.0
 11
436.1932012254653
 21
43.82859396089517
 31
0.0
  0
ARC
  5
EF7C88514
330
EF7C85532
100
AcDbEntity
  8
JISSEN
100
AcDbCircle
 10
437.1795522254654
 20
43.62859396089517
 30
0.0
 40
0.2
100
AcDbArc
 50
4.017969000000318
 51
90.0
  0
LINE
  5
EF7C88515
330
EF7C85532
100
AcDbEntity
  8
JISSEN
100
AcDbLine
 10
445.2582292254653
 20
37.2293179608952
 30
0.0
 11
445.0187772254653
 21
43.63606396089521
 31
0.0
  0
LINE
  5
EF7C88516
330
EF7C85532
100
AcDbEntity
  8
JISSEN
100
AcDbLine
 10
442.6298772254654
 20
43.5698929608952
 30
0.0
 11
442.8438552254654
 21
37.42505296089514
 31
0.0
  0
LINE
  5
EF7C88517
330
EF7C85532
100
AcDbEntity
  8
JISSEN
100
AcDbLine
 10
442.2041352254654
 20
43.5173889608952
 30
0.0
 11
442.4309692254653
 21
37.44824096089522
 31
0.0
  0
LINE
  5
EF7C88518
330
EF7C85532
100
AcDbEntity
  8
JISSEN
100
AcDbLine
 10
443.1436732254653
 20
37.13549296089522
 30
0.0
 11
445.2770062254653
 21
37.13549296089522
 31
0.0
  0
ARC
  5
EF7C88519
330
EF7C85532
100
AcDbEntity
  8
JISSEN
100
AcDbCircle
 10
443.4212232254655
 20
36.3317149608952
 30
0.0
 40
0.3
100
AcDbArc
 50
216.8971619999997
 51
270.0
  0
LINE
  5
EF7C8851A
330
EF7C85532
100
AcDbEntity
  8
JISSEN
100
AcDbLine
 10
442.6305572254654
 20
36.88520896089518
 30
0.0
 11
443.1813082254653
 21
36.15160096089518
 31
0.0
  0
ARC
  5
EF7C8851B
330
EF7C85532
100
AcDbEntity
  8
JISSEN
100
AcDbCircle
 10
443.1436732254653
 20
37.43549296089517
 30
0.0
 40
0.3
100
AcDbArc
 50
181.994368
 51
270.0
  0
ARC
  5
EF7C8851C
330
EF7C85532
100
AcDbEntity
  8
JISSEN
100
AcDbCircle
 10
443.4302712254654
 20
37.48558996089517
 30
0.0
 40
1.0
100
AcDbArc
 50
182.1404319999997
 51
216.8971619999997
  0
ARC
  5
EF7C8851D
330
EF7C85532
100
AcDbEntity
  8
JISSEN
100
AcDbCircle
 10
445.6901522254653
 20
36.23171496089517
 30
0.0
 40
0.2
100
AcDbArc
 50
270.0
 51
36.89716199999973
  0
LINE
  5
EF7C8851E
330
EF7C85532
100
AcDbEntity
  8
JISSEN
100
AcDbLine
 10
445.8500952254653
 20
36.35179196089521
 30
0.0
 11
445.3181052254654
 21
37.06040796089515
 31
0.0
  0
LINE
  5
EF7C8851F
330
EF7C85532
100
AcDbEntity
  8
JISSEN
100
AcDbLine
 10
443.4212232254655
 20
36.03171496089518
 30
0.0
 11
445.6901522254653
 21
36.03171496089518
 31
0.0
  0
ARC
  5
EF7C88520
330
EF7C85532
100
AcDbEntity
  8
JISSEN
100
AcDbCircle
 10
445.5580202254654
 20
37.24052196089516
 30
0.0
 40
0.3
100
AcDbArc
 50
182.1404319999997
 51
216.8971619999997
  0
LINE
  5
EF7C88521
330
EF7C85532
100
AcDbEntity
  8
JISSEN
100
AcDbLine
 10
444.8189162254654
 20
43.82859396089517
 30
0.0
 11
442.5039252254653
 21
43.82859396089517
 31
0.0
  0
ARC
  5
EF7C88522
330
EF7C85532
100
AcDbEntity
  8
JISSEN
100
AcDbCircle
 10
442.8797252254653
 20
43.57859396089518
 30
0.0
 40
0.25
100
AcDbArc
 50
90.0
 51
181.994368
  0
ARC
  5
EF7C88523
330
EF7C85532
100
AcDbEntity
  8
JISSEN
100
AcDbCircle
 10
442.5039252254653
 20
43.52859396089516
 30
0.0
 40
0.3
100
AcDbArc
 50
90.0
 51
182.1404319999997
  0
ARC
  5
EF7C88524
330
EF7C85532
100
AcDbEntity
  8
JISSEN
100
AcDbCircle
 10
444.8189162254654
 20
43.62859396089517
 30
0.0
 40
0.2
100
AcDbArc
 50
2.140431999999735
 51
90.0
  0
LINE
  5
EF7C88525
330
EF7C85532
100
AcDbEntity
  8
SAISEN
100
AcDbLine
 10
441.3413632254654
 20
54.8698749608952
 30
0.0
 11
442.5408492254653
 21
56.06936096089517
 31
0.0
  0
LINE
  5
EF7C88526
330
EF7C85532
100
AcDbEntity
  8
JISSEN
100
AcDbLine
 10
440.3000822254654
 20
53.82859396089518
 30
0.0
 11
441.3413632254654
 21
54.8698749608952
 31
0.0
  0
LINE
  5
EF7C88527
330
EF7C85532
100
AcDbEntity
  8
JISSEN
100
AcDbLine
 10
441.7381582254654
 20
70.56666896089883
 30
0.0
 11
443.0000822254654
 21
71.82859396089884
 31
0.0
  0
LINE
  5
EF7C88528
102
{ACAD_REACTORS
330
EF7C884D1
102
}
330
EF7C85532
100
AcDbEntity
  8
JISSEN
100
AcDbLine
 10
469.5000822254653
 20
58.82859396089518
 30
0.0
 11
469.5000822254653
 21
53.82859396089521
 31
0.0
  0
LINE
  5
EF7C88529
330
EF7C85532
100
AcDbEntity
  8
JISSEN
100
AcDbLine
 10
462.1652269468302
 20
70.66344831622572
 30
0.0
 11
462.6588012254654
 21
54.8698749608952
 31
0.0
  0
LINE
  5
EF7C8852A
330
EF7C85532
100
AcDbEntity
  8
SAISEN
100
AcDbLine
 10
461.4593152254654
 20
56.06936096089517
 30
0.0
 11
460.9668153787321
 21
71.82859396089881
 31
0.0
  0
LINE
  5
EF7C8852B
330
EF7C85532
100
AcDbEntity
  8
JISSEN
100
AcDbLine
 10
452.0000822254655
 20
56.06936096089517
 30
0.0
 11
462.6213152254654
 21
56.06936096089517
 31
0.0
  0
ARC
  5
EF7C8852C
330
EF7C85532
100
AcDbEntity
  8
JISSEN
100
AcDbCircle
 10
452.0000822254655
 20
46.32859396089517
 30
0.0
 40
1.0
100
AcDbArc
 50
180.0
 51
270.0
  0
ARC
  5
EF7C8852D
330
EF7C85532
100
AcDbEntity
  8
JISSEN
100
AcDbCircle
 10
452.0000822254655
 20
46.32859396089517
 30
0.0
 40
1.0
100
AcDbArc
 50
270.0
 51
0.000000000000007
  0
LINE
  5
EF7C8852E
330
EF7C85532
100
AcDbEntity
  8
JISSEN
100
AcDbLine
 10
459.0949885898218
 20
45.32859396089517
 30
0.0
 11
452.0000822254655
 21
45.32859396089517
 31
0.0
  0
LINE
  5
EF7C8852F
330
EF7C85532
100
AcDbEntity
  8
JISSEN
100
AcDbLine
 10
450.5000822254654
 20
43.32859396089517
 30
0.0
 11
450.5000822254654
 21
36.53171496089518
 31
0.0
  0
LINE
  5
EF7C88530
330
EF7C85532
100
AcDbEntity
  8
JISSEN
100
AcDbLine
 10
453.5000822254653
 20
43.32859396089517
 30
0.0
 11
453.5000822254653
 21
36.53171496089518
 31
0.0
  0
LINE
  5
EF7C88531
330
EF7C85532
100
AcDbEntity
  8
JISSEN
100
AcDbLine
 10
453.0000822254653
 20
37.13549296089522
 30
0.0
 11
452.0000822254655
 21
37.13549296089522
 31
0.0
  0
LINE
  5
EF7C88532
330
EF7C85532
100
AcDbEntity
  8
JISSEN
100
AcDbLine
 10
451.0000822254654
 20
37.13549296089522
 30
0.0
 11
452.0000822254655
 21
37.13549296089522
 31
0.0
  0
LINE
  5
EF7C88533
330
EF7C85532
100
AcDbEntity
  8
JISSEN
100
AcDbLine
 10
452.0000822254655
 20
36.03171496089518
 30
0.0
 11
453.0000822254653
 21
36.03171496089518
 31
0.0
  0
LINE
  5
EF7C88534
330
EF7C85532
100
AcDbEntity
  8
JISSEN
100
AcDbLine
 10
452.0000822254655
 20
36.03171496089518
 30
0.0
 11
451.0000822254654
 21
36.03171496089518
 31
0.0
  0
ARC
  5
EF7C88535
330
EF7C85532
100
AcDbEntity
  8
JISSEN
100
AcDbCircle
 10
451.0000822254654
 20
36.53171496089518
 30
0.0
 40
0.5
100
AcDbArc
 50
180.0
 51
270.0
  0
ARC
  5
EF7C88536
330
EF7C85532
100
AcDbEntity
  8
JISSEN
100
AcDbCircle
 10
453.0000822254653
 20
36.53171496089518
 30
0.0
 40
0.5
100
AcDbArc
 50
270.0
 51
0.000000000000007
  0
ARC
  5
EF7C88537
330
EF7C85532
100
AcDbEntity
  8
JISSEN
100
AcDbCircle
 10
451.0000822254654
 20
37.63549296089522
 30
0.0
 40
0.5
100
AcDbArc
 50
180.0
 51
270.0
  0
ARC
  5
EF7C88538
330
EF7C85532
100
AcDbEntity
  8
JISSEN
100
AcDbCircle
 10
453.0000822254653
 20
37.63549296089522
 30
0.0
 40
0.5
100
AcDbArc
 50
270.0
 51
0.000000000000007
  0
LINE
  5
EF7C88539
330
EF7C85532
100
AcDbEntity
  8
JISSEN
100
AcDbLine
 10
452.0000822254655
 20
43.82859396089517
 30
0.0
 11
453.0000822254653
 21
43.82859396089517
 31
0.0
  0
LINE
  5
EF7C8853A
330
EF7C85532
100
AcDbEntity
  8
JISSEN
100
AcDbLine
 10
452.0000822254655
 20
43.82859396089517
 30
0.0
 11
451.0000822254654
 21
43.82859396089517
 31
0.0
  0
ARC
  5
EF7C8853B
330
EF7C85532
100
AcDbEntity
  8
JISSEN
100
AcDbCircle
 10
451.0000822254654
 20
43.32859396089517
 30
0.0
 40
0.5
100
AcDbArc
 50
90.0
 51
180.0
  0
ARC
  5
EF7C8853C
330
EF7C85532
100
AcDbEntity
  8
JISSEN
100
AcDbCircle
 10
453.0000822254653
 20
43.32859396089517
 30
0.0
 40
0.5
100
AcDbArc
 50
0.000000000000007
 51
90.0
  0
LINE
  5
EF7C8853D
330
EF7C85532
100
AcDbEntity
  8
JISSEN
100
AcDbLine
 10
458.7419352254654
 20
37.2293179608952
 30
0.0
 11
458.9813872254653
 21
43.63606396089521
 31
0.0
  0
LINE
  5
EF7C8853E
330
EF7C85532
100
AcDbEntity
  8
JISSEN
100
AcDbLine
 10
459.0949885898218
 20
37.13549296089524
 30
0.0
 11
458.7231582254654
 21
37.13549296089522
 31
0.0
  0
LINE
  5
EF7C8853F
330
EF7C85532
100
AcDbEntity
  8
JISSEN
100
AcDbLine
 10
459.0949885898218
 20
36.03171496089514
 30
0.0
 11
458.3100122254655
 21
36.03171496089518
 31
0.0
  0
LINE
  5
EF7C88540
330
EF7C85532
100
AcDbEntity
  8
JISSEN
100
AcDbLine
 10
458.1500692254654
 20
36.35179196089521
 30
0.0
 11
458.6820592254653
 21
37.06040796089515
 31
0.0
  0
ARC
  5
EF7C88541
330
EF7C85532
100
AcDbEntity
  8
JISSEN
100
AcDbCircle
 10
458.3100122254655
 20
36.23171496089517
 30
0.0
 40
0.2
100
AcDbArc
 50
143.1028380000001
 51
270.0
  0
ARC
  5
EF7C88542
330
EF7C85532
100
AcDbEntity
  8
JISSEN
100
AcDbCircle
 10
458.4421442254654
 20
37.24052196089516
 30
0.0
 40
0.3
100
AcDbArc
 50
323.1028380000003
 51
357.8595680000001
  0
ARC
  5
EF7C88543
330
EF7C85532
100
AcDbEntity
  8
JISSEN
100
AcDbCircle
 10
459.1812482254653
 20
43.62859396089517
 30
0.0
 40
0.2
100
AcDbArc
 50
115.5499740378471
 51
177.8595680000002
  0
LINE
  5
EF7C88544
330
EF7C85532
100
AcDbEntity
  8
JISSEN
100
AcDbLine
 10
459.0949885898218
 20
46.32859396089517
 30
0.0
 11
453.0000822254653
 21
46.32859396089517
 31
0.0
  0
LINE
  5
EF7C88545
330
EF7C85532
100
AcDbEntity
  8
JISSEN
100
AcDbLine
 10
451.0000822254654
 20
47.3285939608952
 30
0.0
 11
451.0000822254654
 21
46.32859396089517
 31
0.0
  0
LINE
  5
EF7C88546
330
EF7C85532
100
AcDbEntity
  8
JISSEN
100
AcDbLine
 10
453.0000822254653
 20
47.3285939608952
 30
0.0
 11
453.0000822254653
 21
46.32859396089517
 31
0.0
  0
LINE
  5
EF7C88547
330
EF7C85532
100
AcDbEntity
  8
JISSEN
100
AcDbLine
 10
468.5568542254653
 20
43.82859396089517
 30
0.0
 11
467.8069632254653
 21
43.82859396089517
 31
0.0
  0
ARC
  5
EF7C88548
330
EF7C85532
100
AcDbEntity
  8
JISSEN
100
AcDbCircle
 10
467.8069632254653
 20
43.52859396089516
 30
0.0
 40
0.3
100
AcDbArc
 50
356.2556379999997
 51
90.0
  0
LINE
  5
EF7C88549
330
EF7C85532
100
AcDbEntity
  8
JISSEN
100
AcDbLine
 10
468.1063222254654
 20
43.50900196089518
 30
0.0
 11
467.7136792254653
 21
37.50937096089514
 31
0.0
  0
ARC
  5
EF7C8854A
330
EF7C85532
100
AcDbEntity
  8
JISSEN
100
AcDbCircle
 10
467.3049092254654
 20
37.7861219608952
 30
0.0
 40
1.199999999999999
100
AcDbArc
 50
305.327068
 51
355.9820309999997
  0
LINE
  5
EF7C8854B
330
EF7C85532
100
AcDbEntity
  8
JISSEN
100
AcDbLine
 10
466.6211032254653
 20
43.64260796089515
 30
0.0
 11
466.1772962254653
 21
37.32434196089517
 31
0.0
  0
LINE
  5
EF7C8854C
330
EF7C85532
100
AcDbEntity
  8
JISSEN
100
AcDbLine
 10
467.3145332254653
 20
37.13549296089522
 30
0.0
 11
466.1143812254653
 21
37.13549296089522
 31
0.0
  0
LINE
  5
EF7C8854D
330
EF7C85532
100
AcDbEntity
  8
JISSEN
100
AcDbLine
 10
466.9957352254654
 20
36.0961629608952
 30
0.0
 11
467.9988012254653
 21
36.80708496089518
 31
0.0
  0
LINE
  5
EF7C8854E
330
EF7C85532
100
AcDbEntity
  8
JISSEN
100
AcDbLine
 10
465.0777172254653
 20
36.03171496089518
 30
0.0
 11
466.7933502254654
 21
36.03171496089518
 31
0.0
  0
LINE
  5
EF7C8854F
330
EF7C85532
100
AcDbEntity
  8
JISSEN
100
AcDbLine
 10
466.0095762254654
 20
37.02602396089517
 30
0.0
 11
464.9909812254652
 21
36.30409496089518
 31
0.0
  0
ARC
  5
EF7C88550
330
EF7C85532
100
AcDbEntity
  8
JISSEN
100
AcDbCircle
 10
466.7933502254654
 20
36.38171496089521
 30
0.0
 40
0.35
100
AcDbArc
 50
270.0
 51
305.327068
  0
ARC
  5
EF7C88551
330
EF7C85532
100
AcDbEntity
  8
JISSEN
100
AcDbCircle
 10
465.0777172254653
 20
36.18171496089515
 30
0.0
 40
0.15
100
AcDbArc
 50
125.3270679999999
 51
270.0
  0
ARC
  5
EF7C88552
330
EF7C85532
100
AcDbEntity
  8
JISSEN
100
AcDbCircle
 10
465.7782792254653
 20
37.35236996089517
 30
0.0
 40
0.4
100
AcDbArc
 50
305.327068
 51
355.9820309999997
  0
ARC
  5
EF7C88553
330
EF7C85532
100
AcDbEntity
  8
JISSEN
100
AcDbCircle
 10
467.3145332254653
 20
37.5354929608952
 30
0.0
 40
0.4
100
AcDbArc
 50
270.0
 51
356.2556379999997
  0
LINE
  5
EF7C88554
330
EF7C85532
100
AcDbEntity
  8
JISSEN
100
AcDbLine
 10
467.8069632254653
 20
43.82859396089517
 30
0.0
 11
466.8206122254654
 21
43.82859396089517
 31
0.0
  0
ARC
  5
EF7C88555
330
EF7C85532
100
AcDbEntity
  8
JISSEN
100
AcDbCircle
 10
466.8206122254654
 20
43.62859396089517
 30
0.0
 40
0.2
100
AcDbArc
 50
90.0
 51
175.9820309999995
  0
LINE
  5
EF7C88556
330
EF7C85532
100
AcDbEntity
  8
JISSEN
100
AcDbLine
 10
472.9108232254652
 20
43.6110269608952
 30
0.0
 11
472.3800692254654
 21
37.59157696089518
 31
0.0
  0
LINE
  5
EF7C88557
330
EF7C85532
100
AcDbEntity
  8
JISSEN
100
AcDbLine
 10
473.9732442254655
 20
43.39090696089519
 30
0.0
 11
473.4475422254654
 21
37.83596096089516
 31
0.0
  0
LINE
  5
EF7C88558
330
EF7C85532
100
AcDbEntity
  8
JISSEN
100
AcDbLine
 10
471.9058912254653
 20
37.40614396089515
 30
0.0
 11
472.4739992254654
 21
43.64672596089515
 31
0.0
  0
LINE
  5
EF7C88559
330
EF7C85532
100
AcDbEntity
  8
JISSEN
100
AcDbLine
 10
468.5019592254653
 20
37.70203896089518
 30
0.0
 11
468.9059932254654
 21
43.45406896089516
 31
0.0
  0
LINE
  5
EF7C8855A
330
EF7C85532
100
AcDbEntity
  8
JISSEN
100
AcDbLine
 10
472.7585582254653
 20
36.80792296089518
 30
0.0
 11
471.3704592254654
 21
36.07770996089518
 31
0.0
  0
LINE
  5
EF7C8855B
330
EF7C85532
100
AcDbEntity
  8
JISSEN
100
AcDbLine
 10
470.1413572254653
 20
36.2202169608952
 30
0.0
 11
471.6407322254654
 21
37.0089669608952
 31
0.0
  0
LINE
  5
EF7C8855C
330
EF7C85532
100
AcDbEntity
  8
JISSEN
100
AcDbLine
 10
471.1842332254653
 20
36.03171496089518
 30
0.0
 11
470.1879142254654
 21
36.03171496089518
 31
0.0
  0
ARC
  5
EF7C8855D
330
EF7C85532
100
AcDbEntity
  8
JISSEN
100
AcDbCircle
 10
471.1842332254653
 20
36.43171496089515
 30
0.0
 40
0.4
100
AcDbArc
 50
270.0
 51
297.7467379999998
  0
ARC
  5
EF7C8855E
330
EF7C85532
100
AcDbEntity
  8
JISSEN
100
AcDbCircle
 10
470.1879142254654
 20
36.1317149608952
 30
0.0
 40
0.1
100
AcDbArc
 50
117.7467379999998
 51
270.0
  0
LINE
  5
EF7C8855F
330
EF7C85532
100
AcDbEntity
  8
JISSEN
100
AcDbLine
 10
474.8464092254653
 20
36.82495196089515
 30
0.0
 11
473.3795112254654
 21
36.14635996089518
 31
0.0
  0
LINE
  5
EF7C88560
330
EF7C85532
100
AcDbEntity
  8
JISSEN
100
AcDbLine
 10
472.8649892254654
 20
36.14933096089517
 30
0.0
 11
474.3768482254654
 21
36.84872196089516
 31
0.0
  0
ARC
  5
EF7C88561
330
EF7C85532
100
AcDbEntity
  8
JISSEN
100
AcDbCircle
 10
472.8859812254653
 20
36.10395196089516
 30
0.0
 40
0.05
100
AcDbArc
 50
114.825405
 51
270.0
  0
LINE
  5
EF7C88562
330
EF7C85532
100
AcDbEntity
  8
JISSEN
100
AcDbLine
 10
472.9596562254654
 20
36.0539519608952
 30
0.0
 11
472.8859812254653
 21
36.0539519608952
 31
0.0
  0
ARC
  5
EF7C88563
330
EF7C85532
100
AcDbEntity
  8
JISSEN
100
AcDbCircle
 10
472.9596562254654
 20
37.0539519608952
 30
0.0
 40
1.0
100
AcDbArc
 50
270.0
 51
294.825405
  0
ARC
  5
EF7C88564
330
EF7C85532
100
AcDbEntity
  8
JISSEN
100
AcDbCircle
 10
471.8820012254654
 20
37.63549296089522
 30
0.0
 40
0.5
100
AcDbArc
 50
260.650445
 51
354.9610729999998
  0
ARC
  5
EF7C88565
330
EF7C85532
100
AcDbEntity
  8
JISSEN
100
AcDbCircle
 10
472.1533252254653
 20
37.9584419608952
 30
0.0
 40
1.3
100
AcDbArc
 50
297.7467379999998
 51
354.5938149999996
  0
ARC
  5
EF7C88566
330
EF7C85532
100
AcDbEntity
  8
JISSEN
100
AcDbCircle
 10
471.4079502254654
 20
37.45147396089517
 30
0.0
 40
0.5
100
AcDbArc
 50
297.7467379999998
 51
354.7984409999998
  0
ARC
  5
EF7C88567
330
EF7C85532
100
AcDbEntity
  8
JISSEN
100
AcDbCircle
 10
468.5568542254653
 20
43.47859396089514
 30
0.0
 40
0.35
100
AcDbArc
 50
355.9820309999997
 51
90.0
  0
ARC
  5
EF7C88568
330
EF7C85532
100
AcDbEntity
  8
JISSEN
100
AcDbCircle
 10
472.7115962254654
 20
43.62859396089517
 30
0.0
 40
0.2
100
AcDbArc
 50
354.9610729999998
 51
90.0
  0
ARC
  5
EF7C88569
330
EF7C85532
100
AcDbEntity
  8
JISSEN
100
AcDbCircle
 10
473.5750232254654
 20
43.4285939608952
 30
0.0
 40
0.4
100
AcDbArc
 50
354.5938149999996
 51
90.0
  0
LINE
  5
EF7C8856A
330
EF7C85532
100
AcDbEntity
  8
JISSEN
100
AcDbLine
 10
472.6731762254654
 20
43.82859396089517
 30
0.0
 11
473.5750232254654
 21
43.82859396089517
 31
0.0
  0
ARC
  5
EF7C8856B
330
EF7C85532
100
AcDbEntity
  8
JISSEN
100
AcDbCircle
 10
472.6731762254654
 20
43.62859396089517
 30
0.0
 40
0.2
100
AcDbArc
 50
90.0
 51
174.7984409999996
  0
LINE
  5
EF7C8856C
330
EF7C85532
100
AcDbEntity
  8
JISSEN
100
AcDbLine
 10
463.7000822254654
 20
53.82859396089518
 30
0.0
 11
462.6588012254654
 21
54.8698749608952
 31
0.0
  0
LINE
  5
EF7C8856D
330
EF7C85532
100
AcDbEntity
  8
SAISEN
100
AcDbLine
 10
462.6588012254654
 20
54.8698749608952
 30
0.0
 11
461.4593152254654
 21
56.06936096089517
 31
0.0
  0
LINE
  5
EF7C8856E
330
EF7C85532
100
AcDbEntity
  8
JISSEN
100
AcDbLine
 10
461.0000822254654
 20
71.82859396089884
 30
0.0
 11
452.0000822254655
 21
71.82859396089881
 31
0.0
  0
LINE
  5
EF7C8856F
330
EF7C85532
100
AcDbEntity
  8
JISSEN
100
AcDbLine
 10
462.2620062254653
 20
70.56666896089883
 30
0.0
 11
452.0000822254655
 21
70.56666896089883
 31
0.0
  0
LINE
  5
EF7C88570
330
EF7C85532
100
AcDbEntity
  8
JISSEN
100
AcDbLine
 10
462.2620062254653
 20
70.56666896089883
 30
0.0
 11
461.0000822254654
 21
71.82859396089884
 31
0.0
  0
INSERT
  5
EF7C88576
330
EF7C85532
100
AcDbEntity
  8
SUNPOU
100
AcDbBlockReference
  2
ARROW
 10
480.6500822254655
 20
44.21945795271829
 30
0.0
 41
1.499999999999995
 42
1.5
 43
1.5
 50
142.3278883834794
  0
LINE
  5
EF7C88577
330
EF7C85532
100
AcDbEntity
  8
JISSEN
100
AcDbLine
 10
475.1235732254654
 20
37.88949196089518
 30
0.0
 11
475.7555042254653
 21
43.76152996089516
 31
0.0
  0
LINE
  5
EF7C88578
330
EF7C85532
100
AcDbEntity
  8
JISSEN
100
AcDbLine
 10
476.2384062254652
 20
43.40802996089515
 30
0.0
 11
475.6505762254653
 21
37.94578096089518
 31
0.0
  0
LINE
  5
EF7C88579
330
EF7C85532
100
AcDbEntity
  8
JISSEN
100
AcDbLine
 10
476.4688492254654
 20
43.82859396089517
 30
0.0
 11
475.9484952254653
 21
37.88091696089518
 31
0.0
  0
LINE
  5
EF7C8857A
330
EF7C85532
100
AcDbEntity
  8
JISSEN
100
AcDbLine
 10
477.1500822254655
 20
45.32859396089517
 30
0.0
 11
476.6000822254652
 21
45.32859396089517
 31
0.0
  0
ARC
  5
EF7C8857B
330
EF7C85532
100
AcDbEntity
  8
JISSEN
100
AcDbCircle
 10
475.8407032254654
 20
43.45082996089515
 30
0.0
 40
0.4
100
AcDbArc
 50
353.8576429999998
 51
88.64114500000017
  0
ARC
  5
EF7C8857C
330
EF7C85532
100
AcDbEntity
  8
JISSEN
100
AcDbCircle
 10
475.8549302254654
 20
43.75082996089517
 30
0.0
 40
0.1
100
AcDbArc
 50
92.7179019999998
 51
173.8576429999999
  0
LINE
  5
EF7C8857D
330
EF7C85532
100
AcDbEntity
  8
JISSEN
100
AcDbLine
 10
476.6000822254652
 20
45.32859396089517
 30
0.0
 11
476.4688492254654
 21
43.82859396089517
 31
0.0
  0
LWPOLYLINE
  5
EF7C8857E
102
{ACAD_REACTORS
330
EF7C884D1
102
}
330
EF7C85532
100
AcDbEntity
  8
HATCH
100
AcDbPolyline
 90
       13
 70
     0
 43
0.0
 10
520.7336677765747
 20
58.82859396089521
 10
520.5690805983249
 20
58.00895688266314
 10
520.4271752416445
 20
57.49233890589885
 10
520.1994666044965
 20
57.07391261921106
 10
519.8915791178372
 20
56.73579559554411
 10
519.5253558288579
 20
56.44554452289401
 10
519.1226397847493
 20
56.17071608925654
 10
518.7052740327024
 20
55.87886698262753
 10
518.2951016199085
 20
55.5375538910028
 10
517.9139655935586
 20
55.11433350237843
 10
517.5837090008442
 20
54.57676250475015
 10
517.3091289376416
 20
53.91314371746267
 10
517.2759047431449
 20
53.82859396089521
  0
LINE
  5
EF7C886B1
330
EF7C85532
100
AcDbEntity
  8
JISSEN
100
AcDbLine
 10
452.0000822254665
 20
30.74271163855565
 30
0.0
 11
458.9371421974123
 21
30.74271163855596
 31
0.0
1001
ACAD
1000
ASC_BOUNDS
1002
{
1070
    19
1002
}
  0
LINE
  5
EF7C886B2
330
EF7C85532
100
AcDbEntity
  8
JISSEN
100
AcDbLine
 10
439.2500822254666
 20
32.49271163855569
 30
0.0
 11
439.2500822254666
 21
30.94271163855486
 31
0.0
1001
ACAD
1000
ASC_BOUNDS
1002
{
1070
    19
1002
}
  0
LINE
  5
EF7C886B3
330
EF7C85532
100
AcDbEntity
  8
JISSEN
100
AcDbLine
 10
452.0000822254665
 20
30.74271163855565
 30
0.0
 11
439.4500822254665
 21
30.74271163855623
 31
0.0
1001
ACAD
1000
ASC_BOUNDS
1002
{
1070
    19
1002
}
  0
LINE
  5
EF7C886B4
330
EF7C85532
100
AcDbEntity
  8
JISSEN
100
AcDbLine
 10
440.3250822254654
 20
21.74271163855618
 30
0.0
 11
444.5000822254653
 21
21.74271163855618
 31
0.0
  0
LINE
  5
EF7C886B5
330
EF7C85532
100
AcDbEntity
  8
JISSEN
100
AcDbLine
 10
440.3250822254654
 20
30.74271163855621
 30
0.0
 11
440.3250822254654
 21
21.74271163855618
 31
0.0
  0
ARC
  5
EF7C886B6
330
EF7C85532
100
AcDbEntity
  8
JISSEN
100
AcDbCircle
 10
439.4500822254665
 20
30.942711638556
 30
0.0
 40
0.2
100
AcDbArc
 50
180.0000000000006
 51
269.9999999999982
1001
ACAD
1000
ASC_BOUNDS
1002
{
1070
    19
1002
}
  0
LINE
  5
EF7C886B7
330
EF7C85532
100
AcDbEntity
  8
JISSEN
100
AcDbLine
 10
445.538543763927
 20
30.74271163855596
 30
0.0
 11
444.5000822254653
 21
21.74271163855618
 31
0.0
  0
LINE
  5
EF7C886B8
330
EF7C85532
100
AcDbEntity
  8
JISSEN
100
AcDbLine
 10
463.6750822254654
 20
30.74271163855621
 30
0.0
 11
463.6750822254654
 21
21.74271163855618
 31
0.0
  0
LINE
  5
EF7C886B9
330
EF7C85532
100
AcDbEntity
  8
JISSEN
100
AcDbLine
 10
458.461620687004
 20
30.74271163855596
 30
0.0
 11
458.6224920301361
 21
29.34849333140951
 31
0.0
  0
LINE
  5
EF7C886BA
330
EF7C85532
100
AcDbEntity
  8
JISSEN
100
AcDbLine
 10
459.5000822254654
 20
21.74271163855618
 30
0.0
 11
463.6750822254656
 21
21.74271163855618
 31
0.0
  0
LINE
  5
EF7C886BB
330
EF7C85532
100
AcDbEntity
  8
JISSEN
100
AcDbLine
 10
464.7500822254666
 20
32.49271163855569
 30
0.0
 11
464.7500822254666
 21
30.94271163855486
 31
0.0
1001
ACAD
1000
ASC_BOUNDS
1002
{
1070
    19
1002
}
  0
ARC
  5
EF7C886BC
330
EF7C85532
100
AcDbEntity
  8
JISSEN
100
AcDbCircle
 10
464.5500822254665
 20
30.942711638556
 30
0.0
 40
0.2
100
AcDbArc
 50
270.0000000000016
 51
359.9999999999991
1001
ACAD
1000
ASC_BOUNDS
1002
{
1070
    19
1002
}
  0
LINE
  5
EF7C886BD
330
EF7C85532
100
AcDbEntity
  8
JISSEN
100
AcDbLine
 10
461.8819147610393
 20
30.7427116385561
 30
0.0
 11
464.5500822254665
 21
30.74271163855623
 31
0.0
1001
ACAD
1000
ASC_BOUNDS
1002
{
1070
    19
1002
}
  0
LINE
  5
EF7C886BE
330
EF7C85532
100
AcDbEntity
  8
JISSEN
100
AcDbLine
 10
459.2521071828668
 20
23.89182867440996
 30
0.0
 11
459.5000822254654
 21
21.74271163855618
 31
0.0
  0
LINE
  5
EF7C88BE3
330
EF7C85532
100
AcDbEntity
  8
WAKU
100
AcDbLine
 10
361.9999987874493
 20
141.5000001996573
 30
0.0
 11
180.9999992759999
 21
141.5000001996573
 31
0.0
  0
LINE
  5
EF7C88BE5
330
EF7C85532
100
AcDbEntity
  8
JISSEN
100
AcDbLine
 10
272.499998552
 20
264.9999999999999
 30
0.0
 11
361.9999985519999
 21
264.9999999999999
 31
0.0
  0
LINE
  5
EF7C88BE6
330
EF7C85532
100
AcDbEntity
  8
JISSEN
100
AcDbLine
 10
272.499998552
 20
270.9999999999999
 30
0.0
 11
361.9999985519999
 21
270.9999999999999
 31
0.0
  0
LINE
  5
EF7C88BE7
330
EF7C85532
100
AcDbEntity
  8
JISSEN
100
AcDbLine
 10
272.499998552
 20
276.9999999999999
 30
0.0
 11
361.9999985519999
 21
276.9999999999999
 31
0.0
  0
LINE
  5
EF7C88C0B
330
EF7C85532
100
AcDbEntity
  8
JISSEN
100
AcDbLine
 10
277.2500827140112
 20
29.27493363415536
 30
0.0
 11
273.500082714014
 21
29.54712983019907
 31
0.0
  0
LINE
  5
EF7C88C0C
330
EF7C85532
100
AcDbEntity
  8
JISSEN
100
AcDbLine
 10
284.2500827140107
 20
26.62859396089149
 30
0.0
 11
279.3026534372311
 21
26.62859396089148
 31
0.0
  0
LINE
  5
EF7C88C0D
330
EF7C85532
100
AcDbEntity
  8
JISSEN
100
AcDbLine
 10
271.000082714014
 20
30.74271163855569
 30
0.0
 11
277.9371426859629
 21
30.74271163855467
 31
0.0
1001
ACAD
1000
ASC_BOUNDS
1002
{
1070
    19
1002
}
  0
LINE
  5
EF7C88C0E
330
EF7C85532
100
AcDbEntity
  8
JISSEN
100
AcDbLine
 10
274.0000827140105
 20
25.12859396089373
 30
0.0
 11
276.0489949005862
 21
25.12859396089337
 31
0.0
  0
LINE
  5
EF7C88C0F
330
EF7C85532
100
AcDbEntity
  8
JISSEN
100
AcDbLine
 10
284.250082714011
 20
28.12859396089196
 30
0.0
 11
279.8784494897848
 21
28.12859396089272
 31
0.0
  0
ARC
  5
EF7C88C14
330
EF7C85532
100
AcDbEntity
  8
JISSEN
100
AcDbCircle
 10
258.4500827140166
 20
30.94271163855363
 30
0.0
 40
0.2
100
AcDbArc
 50
180.0000000000114
 51
270.0000000000065
1001
ACAD
1000
ASC_BOUNDS
1002
{
1070
    19
1002
}
  0
LINE
  5
EF7C88C15
330
EF7C85532
100
AcDbEntity
  8
JISSEN
100
AcDbLine
 10
257.7500827140172
 20
28.12859396089196
 30
0.0
 11
271.000082714014
 21
28.12859396089425
 31
0.0
  0
LINE
  5
EF7C88C16
330
EF7C85532
100
AcDbEntity
  8
JISSEN
100
AcDbLine
 10
268.0000827140178
 20
25.12859396089373
 30
0.0
 11
259.2500827140173
 21
25.12859396089222
 31
0.0
  0
LINE
  5
EF7C88C17
330
EF7C85532
100
AcDbEntity
  8
JISSEN
100
AcDbLine
 10
271.000082714014
 20
30.74271163855569
 30
0.0
 11
258.4500827140166
 21
30.74271163855385
 31
0.0
1001
ACAD
1000
ASC_BOUNDS
1002
{
1070
    19
1002
}
  0
LINE
  5
EF7C88C18
330
EF7C85532
100
AcDbEntity
  8
JISSEN
100
AcDbLine
 10
257.7500827140174
 20
26.62859396089149
 30
0.0
 11
271.000082714014
 21
26.62859396089146
 31
0.0
  0
LINE
  5
EF7C88C19
330
EF7C85532
100
AcDbEntity
  8
JISSEN
100
AcDbLine
 10
259.2500827140173
 20
25.12859396089222
 30
0.0
 11
257.7500827140174
 21
26.62859396089149
 31
0.0
  0
LINE
  5
EF7C88C1A
330
EF7C85532
100
AcDbEntity
  8
JISSEN
100
AcDbLine
 10
257.7500827140172
 20
28.12859396089146
 30
0.0
 11
257.7500827140174
 21
26.62859396089149
 31
0.0
  0
LINE
  5
EF7C88C1B
330
EF7C85532
100
AcDbEntity
  8
JISSEN
100
AcDbLine
 10
262.0545438872458
 20
30.27407211555493
 30
0.0
 11
261.4043518677439
 21
29.18710294189498
 31
0.0
  0
ARC
  5
EF7C88C1C
330
EF7C85532
100
AcDbEntity
  8
JISSEN
100
AcDbCircle
 10
261.5759888920479
 20
29.08443487535013
 30
0.0
 40
0.2
100
AcDbArc
 50
149.1134150964271
 51
240.0000000000111
  0
ARC
  5
EF7C88C1D
330
EF7C85532
100
AcDbEntity
  8
JISSEN
100
AcDbCircle
 10
262.9127290087633
 20
29.76073178283224
 30
0.0
 40
1.0
100
AcDbArc
 50
100.8935918178659
 51
149.1134150964166
  0
ARC
  5
EF7C88C1E
330
EF7C85532
100
AcDbEntity
  8
JISSEN
100
AcDbCircle
 10
262.4119386775694
 20
28.6017990416505
 30
0.0
 40
0.2
100
AcDbArc
 50
240.0000000000111
 51
330.00000000001
  0
LINE
  5
EF7C88C1F
330
EF7C85532
100
AcDbEntity
  8
JISSEN
100
AcDbLine
 10
262.8775648982013
 20
30.74271163855451
 30
0.0
 11
262.8775648982018
 21
28.12859396089285
 31
0.0
  0
LINE
  5
EF7C88C20
330
EF7C85532
100
AcDbEntity
  8
JISSEN
100
AcDbLine
 10
262.5851437583266
 20
28.50179904165051
 30
0.0
 11
262.8775648982017
 21
29.00828731312174
 31
0.0
  0
LINE
  5
EF7C88C21
330
EF7C85532
100
AcDbEntity
  8
JISSEN
100
AcDbLine
 10
261.475988892048
 20
28.91122979459321
 30
0.0
 11
262.3119386775695
 21
28.42859396089363
 31
0.0
  0
LINE
  5
EF7C88C22
330
EF7C85532
100
AcDbEntity
  8
JISSEN
100
AcDbLine
 10
268.0000827140176
 20
25.12859396089368
 30
0.0
 11
271.0000827140176
 21
25.12859396089423
 31
0.0
  0
LINE
  5
EF7C88C23
330
EF7C85532
100
AcDbEntity
  8
JISSEN
100
AcDbLine
 10
264.7500827140169
 20
29.27493363415536
 30
0.0
 11
268.5000827140141
 21
29.54712983019907
 31
0.0
  0
LINE
  5
EF7C88C24
330
EF7C85532
100
AcDbEntity
  8
JISSEN
100
AcDbLine
 10
264.750082714017
 20
28.12859396089317
 30
0.0
 11
264.7500827140166
 21
30.74271163855478
 31
0.0
  0
LINE
  5
EF7C88C25
330
EF7C85532
100
AcDbEntity
  8
JISSEN
100
AcDbLine
 10
268.500082714014
 20
28.12859396089382
 30
0.0
 11
268.5000827140143
 21
30.74271163855533
 31
0.0
  0
LINE
  5
EF7C88C26
330
EF7C85532
100
AcDbEntity
  8
JISSEN
100
AcDbLine
 10
274.0000827140105
 20
25.12859396089368
 30
0.0
 11
271.0000827140104
 21
25.12859396089423
 31
0.0
  0
LINE
  5
EF7C88C27
330
EF7C85532
100
AcDbEntity
  8
JISSEN
100
AcDbLine
 10
273.500082714014
 20
28.12859396089382
 30
0.0
 11
273.500082714014
 21
30.74271163855533
 31
0.0
  0
LINE
  5
EF7C88C45
330
EF7C85532
100
AcDbEntity
  8
JISSEN
100
AcDbLine
 10
258.2500827140163
 20
32.49271163855589
 30
0.0
 11
258.2500827140167
 21
30.94271163855245
 31
0.0
1001
ACAD
1000
ASC_BOUNDS
1002
{
1070
    19
1002
}
  0
ARC
  5
EF7C88C6D
330
EF7C85532
100
AcDbEntity
  8
JISSEN
100
AcDbCircle
 10
283.5500827140116
 20
30.94271163855363
 30
0.0
 40
0.2
100
AcDbArc
 50
269.9999999999902
 51
359.9999999999884
1001
ACAD
1000
ASC_BOUNDS
1002
{
1070
    19
1002
}
  0
LINE
  5
EF7C88C6F
330
EF7C85532
100
AcDbEntity
  8
JISSEN
100
AcDbLine
 10
282.7500827140108
 20
25.12859396089222
 30
0.0
 11
284.2500827140107
 21
26.62859396089149
 31
0.0
  0
LINE
  5
EF7C88C70
330
EF7C85532
100
AcDbEntity
  8
JISSEN
100
AcDbLine
 10
280.4063546644686
 20
29.5038339586568
 30
0.0
 11
280.5958135602841
 21
29.18710294189498
 31
0.0
  0
ARC
  5
EF7C88C71
330
EF7C85532
100
AcDbEntity
  8
JISSEN
100
AcDbCircle
 10
280.4241765359801
 20
29.08443487535013
 30
0.0
 40
0.2
100
AcDbArc
 50
299.9999999999887
 51
30.8865849035729
  0
LINE
  5
EF7C88C75
330
EF7C85532
100
AcDbEntity
  8
JISSEN
100
AcDbLine
 10
277.250082714011
 20
28.25753468938335
 30
0.0
 11
277.2500827140116
 21
30.74271163855478
 31
0.0
  0
LINE
  5
EF7C88C76
330
EF7C85532
100
AcDbEntity
  8
JISSEN
100
AcDbLine
 10
280.5241765359801
 20
28.91122979459321
 30
0.0
 11
280.0805589284685
 21
28.65510704947933
 31
0.0
  0
LINE
  5
EF7C88C78
330
EF7C85532
100
AcDbEntity
  8
JISSEN
100
AcDbLine
 10
284.250082714011
 20
28.12859396089146
 30
0.0
 11
284.2500827140107
 21
26.62859396089149
 31
0.0
  0
LINE
  5
EF7C88C8A
330
EF7C85532
100
AcDbEntity
  8
JISSEN
100
AcDbLine
 10
283.7500827140118
 20
32.49271163855589
 30
0.0
 11
283.7500827140116
 21
30.94271163855245
 31
0.0
1001
ACAD
1000
ASC_BOUNDS
1002
{
1070
    19
1002
}
  0
HATCH
  5
EF7C88CE1
330
EF7C85532
100
AcDbEntity
  8
HATCH
100
AcDbHatch
 10
0.0
 20
0.0
 30
0.0
210
0.0
220
0.0
230
1.0
  2
_U
 70
     0
 71
     1
 91
        2
 92
        7
 72
     0
 73
     1
 93
       15
 10
288.500082714016
 20
188.3285941605524
 10
288.500082714016
 20
183.3285941605525
 10
297.350082714016
 20
183.3285941605524
 10
336.2741459719156
 20
183.3285941605524
 10
336.5837094893953
 20
184.0767627044077
 10
336.9139660821096
 20
184.6143337020357
 10
337.2951021084592
 20
185.03755409066
 10
337.7052745212528
 20
185.3788671822847
 10
338.1226402732975
 20
185.6707162889124
 10
338.5253563174086
 20
185.9455447225514
 10
338.891579606388
 20
186.2357957952013
 10
339.1994670930474
 20
186.5739128188685
 10
339.4271757301952
 20
186.9923391055563
 10
339.5690810868756
 20
187.5089570823206
 10
339.7336682651256
 20
188.3285941605524
 97
        5
330
EF7C88DC7
330
EF7C88CFB
330
EF7C88CFE
330
EF7C88D0B
330
EF7C88CFC
 92
        7
 72
     0
 73
     1
 93
       14
 10
202.2663302868745
 20
188.3285941605524
 10
202.4309174651244
 20
187.508957082321
 10
202.5728228218049
 20
186.9923391055561
 10
202.8005314589527
 20
186.5739128188682
 10
203.1084189456119
 20
186.2357957952014
 10
203.474642234592
 20
185.9455447225512
 10
203.8773582787031
 20
185.6707162889156
 10
204.2947240307465
 20
185.3788671822854
 10
204.704896443541
 20
185.0375540906598
 10
205.0860324698906
 20
184.6143337020355
 10
205.4162890626051
 20
184.0767627044075
 10
205.7258525800843
 20
183.3285941605524
 10
253.500082714016
 20
183.3285941605524
 10
253.500082714016
 20
188.3285941605525
 97
        4
330
EF7C88CE9
330
EF7C88CEB
330
EF7C88CEA
330
EF7C88CFD
 75
     0
 76
     0
 52
45.0
 41
2.0
 77
     0
 78
     1
 53
45.0
 43
180.9999992759999
 44
3.0
 45
-1.414213562373094
 46
1.414213562373094
 79
     0
 47
0.2346837798524018
 98
        2
 10
298.2263867658445
 20
186.1842259962081
 10
247.2585814721885
 20
186.8882770499791
  0
LINE
  5
EF7C88CE2
330
EF7C85532
100
AcDbEntity
  8
JISSEN
100
AcDbLine
 10
244.650082714016
 20
183.3285941605524
 30
0.0
 11
271.000082714016
 21
183.3285941605524
 31
0.0
  0
LINE
  5
EF7C88CE3
330
EF7C85532
100
AcDbEntity
  8
JISSEN
100
AcDbLine
 10
245.500082714016
 20
174.8285941605525
 30
0.0
 11
271.000082714016
 21
174.8285941605525
 31
0.0
  0
LINE
  5
EF7C88CE4
330
EF7C85532
100
AcDbEntity
  8
JISSEN
100
AcDbLine
 10
244.5000827140161
 20
175.8285941605524
 30
0.0
 11
270.000082714016
 21
175.8285941605524
 31
0.0
  0
LINE
  5
EF7C88CE5
330
EF7C85532
100
AcDbEntity
  8
JISSEN
100
AcDbLine
 10
270.000082714016
 20
182.8285941605524
 30
0.0
 11
244.5000827140161
 21
182.8285941605524
 31
0.0
  0
LINE
  5
EF7C88CE6
330
EF7C85532
100
AcDbEntity
  8
JISSEN
100
AcDbLine
 10
250.135175714016
 20
165.6493311605524
 30
0.0
 11
248.623316714016
 21
166.3487221605525
 31
0.0
  0
LINE
  5
EF7C88CE7
330
EF7C85532
100
AcDbEntity
  8
JISSEN
100
AcDbLine
 10
248.153755714016
 20
166.3249521605524
 30
0.0
 11
249.620653714016
 21
165.6463601605524
 31
0.0
  0
LINE
  5
EF7C88CE8
330
EF7C85532
100
AcDbEntity
  8
JISSEN
100
AcDbLine
 10
256.4708796974144
 20
161.992711838213
 30
0.0
 11
247.9454770881766
 21
166.0012077799235
 31
0.0
1001
ACAD
1000
ASC_BOUNDS
1002
{
1070
    19
1002
}
  0
LINE
  5
EF7C88CE9
102
{ACAD_REACTORS
330
EF7C88CE1
102
}
330
EF7C85532
100
AcDbEntity
  8
JISSEN
100
AcDbLine
 10
202.2663302868745
 20
188.3285941605524
 30
0.0
 11
260.4650799770038
 21
188.3285941605526
 31
0.0
  0
LINE
  5
EF7C88CEA
102
{ACAD_REACTORS
330
EF7C88CE1
102
}
330
EF7C85532
100
AcDbEntity
  8
JISSEN
100
AcDbLine
 10
260.4025767970671
 20
183.3285941605524
 30
0.0
 11
205.7240933203044
 21
183.3285941605524
 31
0.0
  0
LWPOLYLINE
  5
EF7C88CEB
102
{ACAD_REACTORS
330
EF7C88CE1
102
}
330
EF7C85532
100
AcDbEntity
  8
HATCH
100
AcDbPolyline
 90
       13
 70
     0
 43
0.0
 10
202.2663302868745
 20
188.3285941605524
 10
202.4309174651246
 20
187.5089570823203
 10
202.5728228218049
 20
186.9923391055561
 10
202.8005314589526
 20
186.5739128188682
 10
203.108418945612
 20
186.2357957952014
 10
203.4746422345914
 20
185.9455447225513
 10
203.8773582787003
 20
185.6707162889138
 10
204.2947240307471
 20
185.3788671822847
 10
204.7048964435409
 20
185.0375540906601
 10
205.0860324698907
 20
184.6143337020356
 10
205.416289062605
 20
184.0767627044074
 10
205.6908691258079
 20
183.4131439171199
 10
205.7240933203044
 20
183.3285941605524
  0
LINE
  5
EF7C88CEC
330
EF7C85532
100
AcDbEntity
  8
JISSEN
100
AcDbLine
 10
246.400082714016
 20
174.8285941605525
 30
0.0
 11
246.531315714016
 21
173.3285941605524
 31
0.0
  0
LINE
  5
EF7C88CED
330
EF7C85532
100
AcDbEntity
  8
JISSEN
100
AcDbLine
 10
246.531315714016
 20
173.3285941605524
 30
0.0
 11
247.051669714016
 21
167.3809171605525
 31
0.0
  0
LINE
  5
EF7C88CEE
330
EF7C85532
100
AcDbEntity
  8
JISSEN
100
AcDbLine
 10
246.761758714016
 20
172.9080301605524
 30
0.0
 11
247.349588714016
 21
167.4457811605525
 31
0.0
  0
LINE
  5
EF7C88CEF
330
EF7C85532
100
AcDbEntity
  8
JISSEN
100
AcDbLine
 10
247.876591714016
 20
167.3894921605524
 30
0.0
 11
247.244660714016
 21
173.2615301605525
 31
0.0
  0
ARC
  5
EF7C88CF0
330
EF7C85532
100
AcDbEntity
  8
JISSEN
100
AcDbCircle
 10
248.741551714016
 20
167.5955801605525
 30
0.0
 40
1.399999999999999
100
AcDbArc
 50
186.1423569999999
 51
245.1745949999999
  0
ARC
  5
EF7C88CF1
330
EF7C85532
100
AcDbEntity
  8
JISSEN
100
AcDbCircle
 10
249.169127714016
 20
167.5285911605525
 30
0.0
 40
1.3
100
AcDbArc
 50
186.1423569999999
 51
245.1745949999999
  0
ARC
  5
EF7C88CF2
330
EF7C85532
100
AcDbEntity
  8
JISSEN
100
AcDbCircle
 10
248.5459620435533
 20
167.3757687346891
 30
0.0
 40
1.5
100
AcDbArc
 50
184.9999999999998
 51
249.9999999999999
  0
ARC
  5
EF7C88CF3
330
EF7C85532
100
AcDbEntity
  8
JISSEN
100
AcDbCircle
 10
247.145234714016
 20
173.2508301605524
 30
0.0
 40
0.1
100
AcDbArc
 50
6.142356999999947
 51
87.28209800000021
  0
ARC
  5
EF7C88CF4
330
EF7C85532
100
AcDbEntity
  8
JISSEN
100
AcDbCircle
 10
247.159461714016
 20
172.9508301605524
 30
0.0
 40
0.4
100
AcDbArc
 50
91.35885500000069
 51
186.1423569999999
  0
LINE
  5
EF7C88CF5
330
EF7C85532
100
AcDbEntity
  8
JISSEN
100
AcDbLine
 10
244.5000827140161
 20
183.1785941605524
 30
0.0
 11
244.5000827140161
 21
175.8285941605524
 31
0.0
  0
LINE
  5
EF7C88CF6
330
EF7C85532
100
AcDbEntity
  8
JISSEN
100
AcDbLine
 10
244.5000827140161
 20
175.8285941605524
 30
0.0
 11
245.500082714016
 21
174.8285941605525
 31
0.0
  0
LINE
  5
EF7C88CF7
330
EF7C85532
100
AcDbEntity
  8
JISSEN
100
AcDbLine
 10
245.500082714016
 20
174.8285941605525
 30
0.0
 11
246.400082714016
 21
174.8285941605525
 31
0.0
  0
LINE
  5
EF7C88CF8
330
EF7C85532
100
AcDbEntity
  8
JISSEN
100
AcDbLine
 10
244.5000827140161
 20
183.1785941605524
 30
0.0
 11
244.650082714016
 21
183.3285941605524
 31
0.0
  0
LWPOLYLINE
  5
EF7C88CF9
330
EF7C85532
100
AcDbEntity
  8
NITEN
100
AcDbPolyline
 90
       15
 70
     1
 43
0.0
 10
256.9999992759999
 20
190.9391430662799
 42
0.4142135623730927
 10
258.4999992759999
 20
189.4391430662799
 10
281.5940504469965
 20
189.4391430662799
 10
283.4999992759999
 20
189.4391430662799
 42
0.4142135623730925
 10
284.9999992759999
 20
190.9391430662799
 10
284.9999992759999
 20
201.9851590924978
 42
-0.4142135623730943
 10
289.9999992759999
 20
206.9851590924979
 42
0.4142135623730951
 10
291.9999992759999
 20
208.9851590924979
 10
291.9999992759998
 20
229.4391430662799
 42
0.4142135623730949
 10
289.9999992759999
 20
231.4391430662799
 10
251.9999992759999
 20
231.4391430662799
 42
0.4142135623730951
 10
249.9999992759999
 20
229.4391430662799
 10
249.9999992759999
 20
208.9851590924979
 42
0.4142135623730951
 10
251.9999992759999
 20
206.9851590924979
 42
-0.4142135623730961
 10
256.9999992759999
 20
201.9851590924978
  0
CIRCLE
  5
EF7C88CFA
330
EF7C85532
100
AcDbEntity
  8
SUNPOU
100
AcDbCircle
 10
309.0289517425905
 20
151.0357213768291
 30
0.0
 40
6.0
  0
LINE
  5
EF7C88CFB
102
{ACAD_REACTORS
330
EF7C88CE1
102
}
330
EF7C85532
100
AcDbEntity
  8
JISSEN
100
AcDbLine
 10
339.7336682651256
 20
188.3285941605524
 30
0.0
 11
281.5350854510283
 21
188.3285941605524
 31
0.0
  0
LINE
  5
EF7C88CFC
102
{ACAD_REACTORS
330
EF7C88CE1
102
}
330
EF7C85532
100
AcDbEntity
  8
JISSEN
100
AcDbLine
 10
281.5975886309648
 20
183.3285941605524
 30
0.0
 11
336.2759052316956
 21
183.3285941605524
 31
0.0
  0
LINE
  5
EF7C88CFD
102
{ACAD_REACTORS
330
EF7C88CE1
102
}
330
EF7C85532
100
AcDbEntity
  8
JISSEN
100
AcDbLine
 10
253.500082714016
 20
188.3285941605524
 30
0.0
 11
253.500082714016
 21
183.3285941605524
 31
0.0
  0
LINE
  5
EF7C88CFE
102
{ACAD_REACTORS
330
EF7C88CE1
102
}
330
EF7C85532
100
AcDbEntity
  8
JISSEN
100
AcDbLine
 10
288.500082714016
 20
188.3285941605524
 30
0.0
 11
288.500082714016
 21
183.3285941605524
 31
0.0
  0
LINE
  5
EF7C88CFF
330
EF7C85532
100
AcDbEntity
  8
SAISEN
100
AcDbLine
 10
261.540849714016
 20
185.5693611605524
 30
0.0
 11
262.0333495607494
 21
201.328594160556
 31
0.0
  0
LINE
  5
EF7C88D00
330
EF7C85532
100
AcDbEntity
  8
JISSEN
100
AcDbLine
 10
260.8349379926512
 20
200.1634485158831
 30
0.0
 11
260.341363714016
 21
184.3698751605524
 31
0.0
  0
LINE
  5
EF7C88D01
330
EF7C85532
100
AcDbEntity
  8
JISSEN
100
AcDbLine
 10
281.1652274353808
 20
200.1634485158831
 30
0.0
 11
281.658801714016
 21
184.3698751605524
 31
0.0
  0
LINE
  5
EF7C88D02
330
EF7C85532
100
AcDbEntity
  8
SAISEN
100
AcDbLine
 10
280.459315714016
 20
185.5693611605524
 30
0.0
 11
279.9668158672828
 21
201.328594160556
 31
0.0
  0
LINE
  5
EF7C88D03
330
EF7C85532
100
AcDbEntity
  8
JISSEN
100
AcDbLine
 10
284.2500827140131
 20
157.6285941605493
 30
0.0
 11
271.000082714016
 21
157.6285941605515
 31
0.0
  0
LINE
  5
EF7C88D04
330
EF7C85532
100
AcDbEntity
  8
JISSEN
100
AcDbLine
 10
274.0000827140125
 20
154.6285941605511
 30
0.0
 11
282.7500827140129
 21
154.6285941605495
 31
0.0
  0
LINE
  5
EF7C88D05
330
EF7C85532
100
AcDbEntity
  8
JISSEN
100
AcDbLine
 10
271.000082714016
 20
160.242711838213
 30
0.0
 11
283.5500827140136
 21
160.2427118382111
 31
0.0
1001
ACAD
1000
ASC_BOUNDS
1002
{
1070
    19
1002
}
  0
LINE
  5
EF7C88D06
330
EF7C85532
100
AcDbEntity
  8
JISSEN
100
AcDbLine
 10
284.2500827140128
 20
156.1285941605488
 30
0.0
 11
271.000082714016
 21
156.1285941605488
 31
0.0
  0
LINE
  5
EF7C88D07
330
EF7C85532
100
AcDbEntity
  8
JISSEN
100
AcDbLine
 10
277.2500827140134
 20
158.7749338338126
 30
0.0
 11
273.500082714016
 21
159.0471300298564
 31
0.0
  0
LINE
  5
EF7C88D08
330
EF7C85532
100
AcDbEntity
  8
JISSEN
100
AcDbLine
 10
272.000082714016
 20
182.8285941605524
 30
0.0
 11
297.5000827140161
 21
182.8285941605524
 31
0.0
  0
LINE
  5
EF7C88D09
330
EF7C85532
100
AcDbEntity
  8
JISSEN
100
AcDbLine
 10
297.5000827140161
 20
175.8285941605524
 30
0.0
 11
272.000082714016
 21
175.8285941605524
 31
0.0
  0
LINE
  5
EF7C88D0A
330
EF7C85532
100
AcDbEntity
  8
JISSEN
100
AcDbLine
 10
296.5000827140161
 20
174.8285941605525
 30
0.0
 11
271.000082714016
 21
174.8285941605525
 31
0.0
  0
LINE
  5
EF7C88D0B
102
{ACAD_REACTORS
330
EF7C88CE1
102
}
330
EF7C85532
100
AcDbEntity
  8
JISSEN
100
AcDbLine
 10
297.350082714016
 20
183.3285941605524
 30
0.0
 11
271.000082714016
 21
183.3285941605524
 31
0.0
  0
LINE
  5
EF7C88D0C
330
EF7C85532
100
AcDbEntity
  8
JISSEN
100
AcDbLine
 10
271.000082714016
 20
185.5693611605524
 30
0.0
 11
281.621315714016
 21
185.5693611605524
 31
0.0
  0
ARC
  5
EF7C88D0D
330
EF7C85532
100
AcDbEntity
  8
JISSEN
100
AcDbCircle
 10
277.310012714016
 20
165.7317151605525
 30
0.0
 40
0.2
100
AcDbArc
 50
143.1028380000009
 51
270.0
  0
LINE
  5
EF7C88D0E
330
EF7C85532
100
AcDbEntity
  8
JISSEN
100
AcDbLine
 10
271.000082714016
 20
161.9927118382131
 30
0.0
 11
285.5292857306178
 21
161.992711838213
 31
0.0
1001
ACAD
1000
ASC_BOUNDS
1002
{
1070
    19
1002
}
  0
LINE
  5
EF7C88D0F
330
EF7C85532
100
AcDbEntity
  8
JISSEN
100
AcDbLine
 10
257.7500827140196
 20
156.1285941605488
 30
0.0
 11
271.0000827140161
 21
156.1285941605488
 31
0.0
  0
LINE
  5
EF7C88D10
330
EF7C85532
100
AcDbEntity
  8
JISSEN
100
AcDbLine
 10
271.0000827140161
 20
160.242711838213
 30
0.0
 11
258.4500827140186
 21
160.2427118382111
 31
0.0
1001
ACAD
1000
ASC_BOUNDS
1002
{
1070
    19
1002
}
  0
LINE
  5
EF7C88D11
330
EF7C85532
100
AcDbEntity
  8
JISSEN
100
AcDbLine
 10
268.0000827140198
 20
154.6285941605511
 30
0.0
 11
259.2500827140194
 21
154.6285941605495
 31
0.0
  0
LINE
  5
EF7C88D12
330
EF7C85532
100
AcDbEntity
  8
JISSEN
100
AcDbLine
 10
257.7500827140192
 20
157.6285941605493
 30
0.0
 11
271.0000827140161
 21
157.6285941605515
 31
0.0
  0
LINE
  5
EF7C88D13
330
EF7C85532
100
AcDbEntity
  8
JISSEN
100
AcDbLine
 10
271.000082714016
 20
161.9927118382131
 30
0.0
 11
256.4708796974144
 21
161.992711838213
 31
0.0
1001
ACAD
1000
ASC_BOUNDS
1002
{
1070
    19
1002
}
  0
LINE
  5
EF7C88D14
330
EF7C85532
100
AcDbEntity
  8
JISSEN
100
AcDbLine
 10
261.4759888920501
 20
158.4112299942504
 30
0.0
 11
262.3119386775716
 21
157.928594160551
 31
0.0
  0
LINE
  5
EF7C88D15
330
EF7C85532
100
AcDbEntity
  8
JISSEN
100
AcDbLine
 10
262.5851437583285
 20
158.0017992413078
 30
0.0
 11
262.8775648982036
 21
158.5082875127791
 31
0.0
  0
LINE
  5
EF7C88D16
330
EF7C85532
100
AcDbEntity
  8
JISSEN
100
AcDbLine
 10
262.8775648982033
 20
160.2427118382117
 30
0.0
 11
262.8775648982037
 21
157.6285941605501
 31
0.0
  0
LINE
  5
EF7C88D17
330
EF7C85532
100
AcDbEntity
  8
JISSEN
100
AcDbLine
 10
257.7500827140192
 20
157.6285941605488
 30
0.0
 11
257.7500827140196
 21
156.1285941605488
 31
0.0
  0
LINE
  5
EF7C88D18
330
EF7C85532
100
AcDbEntity
  8
JISSEN
100
AcDbLine
 10
259.2500827140194
 20
154.6285941605495
 30
0.0
 11
257.7500827140196
 21
156.1285941605488
 31
0.0
  0
ARC
  5
EF7C88D19
330
EF7C85532
100
AcDbEntity
  8
JISSEN
100
AcDbCircle
 10
262.4119386775714
 20
158.1017992413078
 30
0.0
 40
0.2
100
AcDbArc
 50
240.0000000000111
 51
330.00000000001
  0
ARC
  5
EF7C88D1A
330
EF7C85532
100
AcDbEntity
  8
JISSEN
100
AcDbCircle
 10
258.4500827140186
 20
160.442711838211
 30
0.0
 40
0.2
100
AcDbArc
 50
180.0000000000114
 51
270.0000000000065
1001
ACAD
1000
ASC_BOUNDS
1002
{
1070
    19
1002
}
  0
LINE
  5
EF7C88D1B
330
EF7C85532
100
AcDbEntity
  8
JISSEN
100
AcDbLine
 10
258.2500827140183
 20
161.9927118382131
 30
0.0
 11
258.2500827140186
 21
160.4427118382098
 31
0.0
1001
ACAD
1000
ASC_BOUNDS
1002
{
1070
    19
1002
}
  0
ARC
  5
EF7C88D1C
330
EF7C85532
100
AcDbEntity
  8
JISSEN
100
AcDbCircle
 10
262.9127290087653
 20
159.2607319824895
 30
0.0
 40
1.0
100
AcDbArc
 50
100.8935918178659
 51
149.1134150964166
  0
ARC
  5
EF7C88D1D
330
EF7C85532
100
AcDbEntity
  8
JISSEN
100
AcDbCircle
 10
261.57598889205
 20
158.5844350750075
 30
0.0
 40
0.2
100
AcDbArc
 50
149.1134150964271
 51
240.0000000000111
  0
LINE
  5
EF7C88D1E
330
EF7C85532
100
AcDbEntity
  8
JISSEN
100
AcDbLine
 10
262.0545438872478
 20
159.7740723152123
 30
0.0
 11
261.404351867746
 21
158.6871031415523
 31
0.0
  0
LINE
  5
EF7C88D1F
330
EF7C85532
100
AcDbEntity
  8
JISSEN
100
AcDbLine
 10
268.0000827140198
 20
154.6285941605509
 30
0.0
 11
271.0000827140198
 21
154.6285941605515
 31
0.0
  0
LINE
  5
EF7C88D20
330
EF7C85532
100
AcDbEntity
  8
JISSEN
100
AcDbLine
 10
268.5000827140161
 20
157.6285941605511
 30
0.0
 11
268.5000827140163
 21
160.2427118382125
 31
0.0
  0
LINE
  5
EF7C88D21
330
EF7C85532
100
AcDbEntity
  8
JISSEN
100
AcDbLine
 10
264.7500827140191
 20
157.6285941605505
 30
0.0
 11
264.7500827140186
 21
160.2427118382121
 31
0.0
  0
LINE
  5
EF7C88D22
330
EF7C85532
100
AcDbEntity
  8
JISSEN
100
AcDbLine
 10
264.750082714019
 20
158.7749338338126
 30
0.0
 11
268.5000827140163
 21
159.0471300298564
 31
0.0
  0
LINE
  5
EF7C88D23
330
EF7C85532
100
AcDbEntity
  8
JISSEN
100
AcDbLine
 10
273.500082714016
 20
157.6285941605511
 30
0.0
 11
273.500082714016
 21
160.2427118382125
 31
0.0
  0
LINE
  5
EF7C88D24
330
EF7C85532
100
AcDbEntity
  8
JISSEN
100
AcDbLine
 10
274.0000827140125
 20
154.6285941605509
 30
0.0
 11
271.0000827140126
 21
154.6285941605515
 31
0.0
  0
LINE
  5
EF7C88D25
330
EF7C85532
100
AcDbEntity
  8
JISSEN
100
AcDbLine
 10
271.000082714016
 20
185.5693611605524
 30
0.0
 11
260.3788497140161
 21
185.5693611605524
 31
0.0
  0
LINE
  5
EF7C88D26
330
EF7C85532
100
AcDbEntity
  8
JISSEN
100
AcDbLine
 10
263.818916714016
 20
173.3285941605524
 30
0.0
 11
261.503925714016
 21
173.3285941605524
 31
0.0
  0
LINE
  5
EF7C88D27
330
EF7C85532
100
AcDbEntity
  8
JISSEN
100
AcDbLine
 10
262.1436737140161
 20
166.6354931605525
 30
0.0
 11
264.277006714016
 21
166.6354931605525
 31
0.0
  0
LINE
  5
EF7C88D28
330
EF7C85532
100
AcDbEntity
  8
JISSEN
100
AcDbLine
 10
262.421223714016
 20
165.5317151605524
 30
0.0
 11
264.690152714016
 21
165.5317151605524
 31
0.0
  0
LINE
  5
EF7C88D29
330
EF7C85532
100
AcDbEntity
  8
JISSEN
100
AcDbLine
 10
255.193201714016
 20
173.3285941605524
 30
0.0
 11
256.179552714016
 21
173.3285941605524
 31
0.0
  0
LINE
  5
EF7C88D2A
330
EF7C85532
100
AcDbEntity
  8
JISSEN
100
AcDbLine
 10
255.685631714016
 20
166.6354931605525
 30
0.0
 11
256.8857837140161
 21
166.6354931605525
 31
0.0
  0
LINE
  5
EF7C88D2B
330
EF7C85532
100
AcDbEntity
  8
JISSEN
100
AcDbLine
 10
256.004429714016
 20
165.5961631605524
 30
0.0
 11
255.001363714016
 21
166.3070851605525
 31
0.0
  0
LINE
  5
EF7C88D2C
330
EF7C85532
100
AcDbEntity
  8
JISSEN
100
AcDbLine
 10
254.893842714016
 20
173.0090021605524
 30
0.0
 11
255.286485714016
 21
167.0093711605525
 31
0.0
  0
LINE
  5
EF7C88D2D
330
EF7C85532
100
AcDbEntity
  8
JISSEN
100
AcDbLine
 10
254.498205714016
 20
167.2020391605524
 30
0.0
 11
254.094171714016
 21
172.9540691605524
 31
0.0
  0
LINE
  5
EF7C88D2E
330
EF7C85532
100
AcDbEntity
  8
JISSEN
100
AcDbLine
 10
251.094273714016
 20
166.9061441605525
 30
0.0
 11
250.526165714016
 21
173.1467261605524
 31
0.0
  0
LINE
  5
EF7C88D2F
330
EF7C85532
100
AcDbEntity
  8
JISSEN
100
AcDbLine
 10
249.0269207140161
 20
172.8909071605524
 30
0.0
 11
249.552622714016
 21
167.3359611605524
 31
0.0
  0
LINE
  5
EF7C88D30
330
EF7C85532
100
AcDbEntity
  8
JISSEN
100
AcDbLine
 10
250.0893417140161
 20
173.1110271605524
 30
0.0
 11
250.6200957140161
 21
167.0915771605525
 31
0.0
  0
LINE
  5
EF7C88D31
330
EF7C85532
100
AcDbEntity
  8
JISSEN
100
AcDbLine
 10
251.815931714016
 20
165.5317151605524
 30
0.0
 11
252.812250714016
 21
165.5317151605524
 31
0.0
  0
LINE
  5
EF7C88D32
330
EF7C85532
100
AcDbEntity
  8
JISSEN
100
AcDbLine
 10
252.858807714016
 20
165.7202171605525
 30
0.0
 11
251.359432714016
 21
166.5089671605525
 31
0.0
  0
ARC
  5
EF7C88D33
330
EF7C85532
100
AcDbEntity
  8
JISSEN
100
AcDbCircle
 10
251.815931714016
 20
165.9317151605524
 30
0.0
 40
0.4
100
AcDbArc
 50
242.2532619999987
 51
270.0
  0
ARC
  5
EF7C88D34
330
EF7C85532
100
AcDbEntity
  8
JISSEN
100
AcDbCircle
 10
251.592214714016
 20
166.9514741605524
 30
0.0
 40
0.5
100
AcDbArc
 50
185.2015590000002
 51
242.2532619999987
  0
ARC
  5
EF7C88D35
330
EF7C85532
100
AcDbEntity
  8
JISSEN
100
AcDbCircle
 10
250.846839714016
 20
167.4584421605525
 30
0.0
 40
1.3
100
AcDbArc
 50
185.4061850000004
 51
242.2532619999987
  0
ARC
  5
EF7C88D36
330
EF7C85532
100
AcDbEntity
  8
JISSEN
100
AcDbCircle
 10
250.0405087140161
 20
166.5539521605525
 30
0.0
 40
1.0
100
AcDbArc
 50
245.1745949999999
 51
270.0
  0
LINE
  5
EF7C88D37
330
EF7C85532
100
AcDbEntity
  8
JISSEN
100
AcDbLine
 10
250.0405087140161
 20
165.5539521605525
 30
0.0
 11
250.114183714016
 21
165.5539521605525
 31
0.0
  0
ARC
  5
EF7C88D38
330
EF7C85532
100
AcDbEntity
  8
JISSEN
100
AcDbCircle
 10
250.114183714016
 20
165.6039521605524
 30
0.0
 40
0.05
100
AcDbArc
 50
270.0
 51
65.17459499999998
  0
LINE
  5
EF7C88D39
330
EF7C85532
100
AcDbEntity
  8
JISSEN
100
AcDbLine
 10
250.241606714016
 20
166.3079231605524
 30
0.0
 11
251.629705714016
 21
165.5777101605524
 31
0.0
  0
ARC
  5
EF7C88D3A
330
EF7C85532
100
AcDbEntity
  8
JISSEN
100
AcDbCircle
 10
251.118163714016
 20
167.1354931605524
 30
0.0
 40
0.5
100
AcDbArc
 50
185.038927
 51
279.3495549999982
  0
ARC
  5
EF7C88D3B
330
EF7C85532
100
AcDbEntity
  8
JISSEN
100
AcDbCircle
 10
255.695255714016
 20
167.2861221605525
 30
0.0
 40
1.199999999999999
100
AcDbArc
 50
184.0179690000004
 51
234.6729319999993
  0
ARC
  5
EF7C88D3C
330
EF7C85532
100
AcDbEntity
  8
JISSEN
100
AcDbCircle
 10
252.812250714016
 20
165.6317151605524
 30
0.0
 40
0.1
100
AcDbArc
 50
270.0
 51
62.25326199999882
  0
ARC
  5
EF7C88D3D
330
EF7C85532
100
AcDbEntity
  8
JISSEN
100
AcDbCircle
 10
255.685631714016
 20
167.0354931605525
 30
0.0
 40
0.4
100
AcDbArc
 50
183.7443620000001
 51
270.0
  0
ARC
  5
EF7C88D3E
330
EF7C85532
100
AcDbEntity
  8
JISSEN
100
AcDbCircle
 10
250.326988714016
 20
173.1285941605525
 30
0.0
 40
0.2
100
AcDbArc
 50
5.201559000000278
 51
90.0
  0
LINE
  5
EF7C88D3F
330
EF7C85532
100
AcDbEntity
  8
JISSEN
100
AcDbLine
 10
250.326988714016
 20
173.3285941605524
 30
0.0
 11
249.425141714016
 21
173.3285941605524
 31
0.0
  0
ARC
  5
EF7C88D40
330
EF7C85532
100
AcDbEntity
  8
JISSEN
100
AcDbCircle
 10
249.425141714016
 20
172.9285941605524
 30
0.0
 40
0.4
100
AcDbArc
 50
90.0
 51
185.4061850000004
  0
ARC
  5
EF7C88D41
330
EF7C85532
100
AcDbEntity
  8
JISSEN
100
AcDbCircle
 10
250.288568714016
 20
173.1285941605525
 30
0.0
 40
0.2
100
AcDbArc
 50
90.0
 51
185.038927
  0
ARC
  5
EF7C88D42
330
EF7C85532
100
AcDbEntity
  8
JISSEN
100
AcDbCircle
 10
255.193201714016
 20
173.0285941605524
 30
0.0
 40
0.3
100
AcDbArc
 50
90.0
 51
183.7443620000001
  0
ARC
  5
EF7C88D43
330
EF7C85532
100
AcDbEntity
  8
JISSEN
100
AcDbCircle
 10
254.443310714016
 20
172.9785941605524
 30
0.0
 40
0.35
100
AcDbArc
 50
90.0
 51
184.0179690000004
  0
LINE
  5
EF7C88D44
330
EF7C85532
100
AcDbEntity
  8
JISSEN
100
AcDbLine
 10
254.443310714016
 20
173.3285941605524
 30
0.0
 11
255.193201714016
 21
173.3285941605524
 31
0.0
  0
LINE
  5
EF7C88D45
330
EF7C85532
100
AcDbEntity
  8
JISSEN
100
AcDbLine
 10
256.379061714016
 20
173.1426081605524
 30
0.0
 11
256.822868714016
 21
166.8243421605525
 31
0.0
  0
LINE
  5
EF7C88D46
330
EF7C85532
100
AcDbEntity
  8
JISSEN
100
AcDbLine
 10
261.629877714016
 20
173.0698931605524
 30
0.0
 11
261.843855714016
 21
166.9250531605525
 31
0.0
  0
LINE
  5
EF7C88D47
330
EF7C85532
100
AcDbEntity
  8
JISSEN
100
AcDbLine
 10
261.204135714016
 20
173.0173891605524
 30
0.0
 11
261.4309697140161
 21
166.9482411605525
 31
0.0
  0
ARC
  5
EF7C88D48
330
EF7C85532
100
AcDbEntity
  8
JISSEN
100
AcDbCircle
 10
257.922447714016
 20
165.6817151605524
 30
0.0
 40
0.15
100
AcDbArc
 50
270.0
 51
54.67293199999947
  0
ARC
  5
EF7C88D49
330
EF7C85532
100
AcDbEntity
  8
JISSEN
100
AcDbCircle
 10
257.221885714016
 20
166.8523701605525
 30
0.0
 40
0.4
100
AcDbArc
 50
184.0179690000004
 51
234.6729319999993
  0
ARC
  5
EF7C88D4A
330
EF7C85532
100
AcDbEntity
  8
JISSEN
100
AcDbCircle
 10
256.206814714016
 20
165.8817151605525
 30
0.0
 40
0.35
100
AcDbArc
 50
234.6729319999993
 51
270.0
  0
LINE
  5
EF7C88D4B
330
EF7C85532
100
AcDbEntity
  8
JISSEN
100
AcDbLine
 10
256.9905887140161
 20
166.5260241605525
 30
0.0
 11
258.0091837140161
 21
165.8040951605524
 31
0.0
  0
LINE
  5
EF7C88D4C
330
EF7C85532
100
AcDbEntity
  8
JISSEN
100
AcDbLine
 10
257.922447714016
 20
165.5317151605524
 30
0.0
 11
256.206814714016
 21
165.5317151605524
 31
0.0
  0
ARC
  5
EF7C88D4D
330
EF7C85532
100
AcDbEntity
  8
JISSEN
100
AcDbCircle
 10
262.1436737140161
 20
166.9354931605525
 30
0.0
 40
0.3
100
AcDbArc
 50
181.994368
 51
270.0
  0
LINE
  5
EF7C88D4E
330
EF7C85532
100
AcDbEntity
  8
JISSEN
100
AcDbLine
 10
261.630557714016
 20
166.3852091605525
 30
0.0
 11
262.181308714016
 21
165.6516011605525
 31
0.0
  0
ARC
  5
EF7C88D4F
330
EF7C85532
100
AcDbEntity
  8
JISSEN
100
AcDbCircle
 10
262.421223714016
 20
165.8317151605525
 30
0.0
 40
0.3
100
AcDbArc
 50
216.8971619999989
 51
270.0
  0
ARC
  5
EF7C88D50
330
EF7C85532
100
AcDbEntity
  8
JISSEN
100
AcDbCircle
 10
262.4302717140161
 20
166.9855901605524
 30
0.0
 40
1.0
100
AcDbArc
 50
182.1404319999997
 51
216.8971619999989
  0
ARC
  5
EF7C88D51
330
EF7C85532
100
AcDbEntity
  8
JISSEN
100
AcDbCircle
 10
256.179552714016
 20
173.1285941605525
 30
0.0
 40
0.2
100
AcDbArc
 50
4.017969000000398
 51
90.0
  0
ARC
  5
EF7C88D52
330
EF7C85532
100
AcDbEntity
  8
JISSEN
100
AcDbCircle
 10
261.879725714016
 20
173.0785941605524
 30
0.0
 40
0.25
100
AcDbArc
 50
90.0
 51
181.994368
  0
ARC
  5
EF7C88D53
330
EF7C85532
100
AcDbEntity
  8
JISSEN
100
AcDbCircle
 10
261.503925714016
 20
173.0285941605524
 30
0.0
 40
0.3
100
AcDbArc
 50
90.0
 51
182.1404319999997
  0
LINE
  5
EF7C88D54
330
EF7C85532
100
AcDbEntity
  8
JISSEN
100
AcDbLine
 10
259.300082714016
 20
183.3285941605524
 30
0.0
 11
260.341363714016
 21
184.3698751605524
 31
0.0
  0
LINE
  5
EF7C88D55
330
EF7C85532
100
AcDbEntity
  8
SAISEN
100
AcDbLine
 10
260.341363714016
 20
184.3698751605524
 30
0.0
 11
261.540849714016
 21
185.5693611605524
 31
0.0
  0
ARC
  5
EF7C88D56
330
EF7C85532
100
AcDbEntity
  8
JISSEN
100
AcDbCircle
 10
271.000082714016
 20
175.8285941605524
 30
0.0
 40
1.0
100
AcDbArc
 50
180.0
 51
270.0
  0
ARC
  5
EF7C88D57
330
EF7C85532
100
AcDbEntity
  8
JISSEN
100
AcDbCircle
 10
271.000082714016
 20
175.8285941605524
 30
0.0
 40
1.0
100
AcDbArc
 50
270.0
 51
0.000000000000007
  0
LINE
  5
EF7C88D58
330
EF7C85532
100
AcDbEntity
  8
JISSEN
100
AcDbLine
 10
271.000082714016
 20
173.3285941605524
 30
0.0
 11
270.000082714016
 21
173.3285941605524
 31
0.0
  0
LINE
  5
EF7C88D59
330
EF7C85532
100
AcDbEntity
  8
JISSEN
100
AcDbLine
 10
270.000082714016
 20
166.6354931605525
 30
0.0
 11
271.000082714016
 21
166.6354931605525
 31
0.0
  0
LINE
  5
EF7C88D5A
330
EF7C85532
100
AcDbEntity
  8
JISSEN
100
AcDbLine
 10
271.000082714016
 20
165.5317151605524
 30
0.0
 11
270.000082714016
 21
165.5317151605524
 31
0.0
  0
LINE
  5
EF7C88D5B
330
EF7C85532
100
AcDbEntity
  8
JISSEN
100
AcDbLine
 10
269.500082714016
 20
172.8285941605524
 30
0.0
 11
269.500082714016
 21
166.0317151605525
 31
0.0
  0
LINE
  5
EF7C88D5C
330
EF7C85532
100
AcDbEntity
  8
JISSEN
100
AcDbLine
 10
264.258229714016
 20
166.7293181605525
 30
0.0
 11
264.0187777140161
 21
173.1360641605524
 31
0.0
  0
ARC
  5
EF7C88D5D
330
EF7C85532
100
AcDbEntity
  8
JISSEN
100
AcDbCircle
 10
264.558020714016
 20
166.7405221605525
 30
0.0
 40
0.3
100
AcDbArc
 50
182.1404319999997
 51
216.8971619999989
  0
ARC
  5
EF7C88D5E
330
EF7C85532
100
AcDbEntity
  8
JISSEN
100
AcDbCircle
 10
264.690152714016
 20
165.7317151605525
 30
0.0
 40
0.2
100
AcDbArc
 50
270.0
 51
36.8971619999989
  0
LINE
  5
EF7C88D5F
330
EF7C85532
100
AcDbEntity
  8
JISSEN
100
AcDbLine
 10
264.850095714016
 20
165.8517921605525
 30
0.0
 11
264.318105714016
 21
166.5604081605525
 31
0.0
  0
ARC
  5
EF7C88D60
330
EF7C85532
100
AcDbEntity
  8
JISSEN
100
AcDbCircle
 10
270.000082714016
 20
166.0317151605525
 30
0.0
 40
0.5
100
AcDbArc
 50
180.0
 51
270.0
  0
ARC
  5
EF7C88D61
330
EF7C85532
100
AcDbEntity
  8
JISSEN
100
AcDbCircle
 10
270.000082714016
 20
167.1354931605524
 30
0.0
 40
0.5
100
AcDbArc
 50
180.0
 51
270.0
  0
ARC
  5
EF7C88D62
330
EF7C85532
100
AcDbEntity
  8
JISSEN
100
AcDbCircle
 10
263.818916714016
 20
173.1285941605525
 30
0.0
 40
0.2
100
AcDbArc
 50
2.140431999999683
 51
90.0
  0
ARC
  5
EF7C88D63
330
EF7C85532
100
AcDbEntity
  8
JISSEN
100
AcDbCircle
 10
270.000082714016
 20
172.8285941605524
 30
0.0
 40
0.5
100
AcDbArc
 50
90.0
 51
180.0
  0
LINE
  5
EF7C88D64
330
EF7C85532
100
AcDbEntity
  8
JISSEN
100
AcDbLine
 10
272.500082714016
 20
172.8285941605524
 30
0.0
 11
272.500082714016
 21
166.0317151605525
 31
0.0
  0
ARC
  5
EF7C88D65
330
EF7C85532
100
AcDbEntity
  8
JISSEN
100
AcDbCircle
 10
272.000082714016
 20
167.1354931605524
 30
0.0
 40
0.5
100
AcDbArc
 50
270.0
 51
0.000000000000007
  0
ARC
  5
EF7C88D66
330
EF7C85532
100
AcDbEntity
  8
JISSEN
100
AcDbCircle
 10
272.000082714016
 20
166.0317151605525
 30
0.0
 40
0.5
100
AcDbArc
 50
270.0
 51
0.000000000000007
  0
LINE
  5
EF7C88D67
330
EF7C85532
100
AcDbEntity
  8
JISSEN
100
AcDbLine
 10
271.000082714016
 20
165.5317151605524
 30
0.0
 11
272.000082714016
 21
165.5317151605524
 31
0.0
  0
LINE
  5
EF7C88D68
330
EF7C85532
100
AcDbEntity
  8
JISSEN
100
AcDbLine
 10
272.000082714016
 20
166.6354931605525
 30
0.0
 11
271.000082714016
 21
166.6354931605525
 31
0.0
  0
ARC
  5
EF7C88D69
330
EF7C85532
100
AcDbEntity
  8
JISSEN
100
AcDbCircle
 10
272.000082714016
 20
172.8285941605524
 30
0.0
 40
0.5
100
AcDbArc
 50
0.000000000000007
 51
90.0
  0
LINE
  5
EF7C88D6A
330
EF7C85532
100
AcDbEntity
  8
JISSEN
100
AcDbLine
 10
271.000082714016
 20
173.3285941605524
 30
0.0
 11
272.000082714016
 21
173.3285941605524
 31
0.0
  0
ARC
  5
EF7C88D6B
330
EF7C85532
100
AcDbEntity
  8
JISSEN
100
AcDbCircle
 10
271.000082714016
 20
182.0785941605524
 30
0.0
 40
1.25
100
AcDbArc
 50
90.0
 51
143.1301019999993
  0
LINE
  5
EF7C88D6C
330
EF7C85532
100
AcDbEntity
  8
JISSEN
100
AcDbLine
 10
270.000082714016
 20
182.8285941605524
 30
0.0
 11
270.000082714016
 21
175.8285941605524
 31
0.0
  0
LINE
  5
EF7C88D6D
330
EF7C85532
100
AcDbEntity
  8
JISSEN
100
AcDbLine
 10
272.000082714016
 20
182.8285941605524
 30
0.0
 11
272.000082714016
 21
175.8285941605524
 31
0.0
  0
ARC
  5
EF7C88D6E
330
EF7C85532
100
AcDbEntity
  8
JISSEN
100
AcDbCircle
 10
271.000082714016
 20
182.0785941605524
 30
0.0
 40
1.25
100
AcDbArc
 50
36.86989800000061
 51
90.0
  0
INSERT
  5
EF7C88D6F
330
EF7C85532
100
AcDbEntity
  8
SUNPOU
100
AcDbBlockReference
  2
ARROW
 10
289.7919870352366
 20
163.9969598090681
 30
0.0
 41
1.499999999999981
 42
1.5
 43
1.5
 50
146.029197483013
  0
LINE
  5
EF7C88D70
330
EF7C85532
100
AcDbEntity
  8
SUNPOU
100
AcDbLine
 10
289.7919870352367
 20
163.9969598090681
 30
0.0
 11
304.0530171911068
 21
154.3883435355808
 31
0.0
  0
LINE
  5
EF7C88D71
330
EF7C85532
100
AcDbEntity
  8
JISSEN
100
AcDbLine
 10
285.5292857306178
 20
161.992711838213
 30
0.0
 11
294.0546883398555
 21
166.0012077799235
 31
0.0
1001
ACAD
1000
ASC_BOUNDS
1002
{
1070
    19
1002
}
  0
LINE
  5
EF7C88D72
330
EF7C85532
100
AcDbEntity
  8
JISSEN
100
AcDbLine
 10
282.7500827140129
 20
154.6285941605495
 30
0.0
 11
284.2500827140128
 21
156.1285941605488
 31
0.0
  0
LINE
  5
EF7C88D73
330
EF7C85532
100
AcDbEntity
  8
JISSEN
100
AcDbLine
 10
279.4150216697038
 20
158.0017992413078
 30
0.0
 11
279.1226005298286
 21
158.5082875127791
 31
0.0
  0
LINE
  5
EF7C88D74
330
EF7C85532
100
AcDbEntity
  8
JISSEN
100
AcDbLine
 10
280.5241765359823
 20
158.4112299942504
 30
0.0
 11
279.6882267504607
 21
157.928594160551
 31
0.0
  0
LINE
  5
EF7C88D75
330
EF7C85532
100
AcDbEntity
  8
JISSEN
100
AcDbLine
 10
277.2500827140131
 20
157.6285941605505
 30
0.0
 11
277.2500827140136
 21
160.2427118382121
 31
0.0
  0
LINE
  5
EF7C88D76
330
EF7C85532
100
AcDbEntity
  8
JISSEN
100
AcDbLine
 10
279.1226005298288
 20
160.2427118382117
 30
0.0
 11
279.1226005298284
 21
157.6285941605501
 31
0.0
  0
ARC
  5
EF7C88D77
330
EF7C85532
100
AcDbEntity
  8
JISSEN
100
AcDbCircle
 10
279.5882267504608
 20
158.1017992413078
 30
0.0
 40
0.2
100
AcDbArc
 50
209.99999999999
 51
299.9999999999887
  0
ARC
  5
EF7C88D78
330
EF7C85532
100
AcDbEntity
  8
JISSEN
100
AcDbCircle
 10
279.0874364192668
 20
159.2607319824895
 30
0.0
 40
1.0
100
AcDbArc
 50
30.88658490358321
 51
79.10640818213394
  0
ARC
  5
EF7C88D79
330
EF7C85532
100
AcDbEntity
  8
JISSEN
100
AcDbCircle
 10
280.4241765359821
 20
158.5844350750075
 30
0.0
 40
0.2
100
AcDbArc
 50
299.9999999999887
 51
30.8865849035729
  0
LINE
  5
EF7C88D7A
330
EF7C85532
100
AcDbEntity
  8
JISSEN
100
AcDbLine
 10
279.9456215407845
 20
159.7740723152123
 30
0.0
 11
280.5958135602863
 21
158.6871031415523
 31
0.0
  0
LINE
  5
EF7C88D7B
330
EF7C85532
100
AcDbEntity
  8
JISSEN
100
AcDbLine
 10
283.7500827140138
 20
161.9927118382131
 30
0.0
 11
283.7500827140136
 21
160.4427118382098
 31
0.0
1001
ACAD
1000
ASC_BOUNDS
1002
{
1070
    19
1002
}
  0
ARC
  5
EF7C88D7C
330
EF7C85532
100
AcDbEntity
  8
JISSEN
100
AcDbCircle
 10
283.5500827140137
 20
160.442711838211
 30
0.0
 40
0.2
100
AcDbArc
 50
269.9999999999902
 51
359.9999999999884
1001
ACAD
1000
ASC_BOUNDS
1002
{
1070
    19
1002
}
  0
LINE
  5
EF7C88D7D
330
EF7C85532
100
AcDbEntity
  8
JISSEN
100
AcDbLine
 10
284.2500827140131
 20
157.6285941605488
 30
0.0
 11
284.2500827140128
 21
156.1285941605488
 31
0.0
  0
ARC
  5
EF7C88D7E
330
EF7C85532
100
AcDbEntity
  8
JISSEN
100
AcDbCircle
 10
290.8820017140161
 20
167.1354931605524
 30
0.0
 40
0.5
100
AcDbArc
 50
260.6504449999984
 51
354.9610729999998
  0
LINE
  5
EF7C88D7F
330
EF7C85532
100
AcDbEntity
  8
JISSEN
100
AcDbLine
 10
291.7585587140159
 20
166.3079231605524
 30
0.0
 11
290.370459714016
 21
165.5777101605524
 31
0.0
  0
LINE
  5
EF7C88D80
330
EF7C85532
100
AcDbEntity
  8
JISSEN
100
AcDbLine
 10
290.9058917140161
 20
166.9061441605525
 30
0.0
 11
291.4739997140161
 21
173.1467261605524
 31
0.0
  0
LINE
  5
EF7C88D81
330
EF7C85532
100
AcDbEntity
  8
JISSEN
100
AcDbLine
 10
284.0777177140159
 20
165.5317151605524
 30
0.0
 11
285.7933507140161
 21
165.5317151605524
 31
0.0
  0
LINE
  5
EF7C88D82
330
EF7C85532
100
AcDbEntity
  8
JISSEN
100
AcDbLine
 10
285.009576714016
 20
166.5260241605525
 30
0.0
 11
283.9909817140161
 21
165.8040951605524
 31
0.0
  0
LINE
  5
EF7C88D83
330
EF7C85532
100
AcDbEntity
  8
JISSEN
100
AcDbLine
 10
280.796029714016
 20
173.0173891605524
 30
0.0
 11
280.569195714016
 21
166.9482411605525
 31
0.0
  0
LINE
  5
EF7C88D84
330
EF7C85532
100
AcDbEntity
  8
JISSEN
100
AcDbLine
 10
280.370287714016
 20
173.0698931605524
 30
0.0
 11
280.156309714016
 21
166.9250531605525
 31
0.0
  0
LINE
  5
EF7C88D85
330
EF7C85532
100
AcDbEntity
  8
JISSEN
100
AcDbLine
 10
277.741935714016
 20
166.7293181605525
 30
0.0
 11
277.981387714016
 21
173.1360641605524
 31
0.0
  0
ARC
  5
EF7C88D86
330
EF7C85532
100
AcDbEntity
  8
JISSEN
100
AcDbCircle
 10
279.569893714016
 20
166.9855901605524
 30
0.0
 40
1.0
100
AcDbArc
 50
323.1028380000011
 51
357.8595680000001
  0
ARC
  5
EF7C88D87
330
EF7C85532
100
AcDbEntity
  8
JISSEN
100
AcDbCircle
 10
279.578941714016
 20
165.8317151605525
 30
0.0
 40
0.3
100
AcDbArc
 50
270.0
 51
323.1028380000011
  0
LINE
  5
EF7C88D88
330
EF7C85532
100
AcDbEntity
  8
JISSEN
100
AcDbLine
 10
280.3696077140159
 20
166.3852091605525
 30
0.0
 11
279.818856714016
 21
165.6516011605525
 31
0.0
  0
ARC
  5
EF7C88D89
330
EF7C85532
100
AcDbEntity
  8
JISSEN
100
AcDbCircle
 10
279.856491714016
 20
166.9354931605525
 30
0.0
 40
0.3
100
AcDbArc
 50
270.0
 51
358.0056319999998
  0
LINE
  5
EF7C88D8A
330
EF7C85532
100
AcDbEntity
  8
JISSEN
100
AcDbLine
 10
277.150069714016
 20
165.8517921605525
 30
0.0
 11
277.682059714016
 21
166.5604081605525
 31
0.0
  0
ARC
  5
EF7C88D8B
330
EF7C85532
100
AcDbEntity
  8
JISSEN
100
AcDbCircle
 10
277.442144714016
 20
166.7405221605525
 30
0.0
 40
0.3
100
AcDbArc
 50
323.1028380000011
 51
357.8595680000001
  0
LINE
  5
EF7C88D8C
330
EF7C85532
100
AcDbEntity
  8
JISSEN
100
AcDbLine
 10
279.578941714016
 20
165.5317151605524
 30
0.0
 11
277.310012714016
 21
165.5317151605524
 31
0.0
  0
LINE
  5
EF7C88D8D
330
EF7C85532
100
AcDbEntity
  8
JISSEN
100
AcDbLine
 10
279.856491714016
 20
166.6354931605525
 30
0.0
 11
277.723158714016
 21
166.6354931605525
 31
0.0
  0
ARC
  5
EF7C88D8E
330
EF7C85532
100
AcDbEntity
  8
JISSEN
100
AcDbCircle
 10
284.0777177140159
 20
165.6817151605524
 30
0.0
 40
0.15
100
AcDbArc
 50
125.3270680000005
 51
270.0
  0
ARC
  5
EF7C88D8F
330
EF7C85532
100
AcDbEntity
  8
JISSEN
100
AcDbCircle
 10
280.496239714016
 20
173.0285941605524
 30
0.0
 40
0.3
100
AcDbArc
 50
357.8595680000001
 51
90.0
  0
ARC
  5
EF7C88D90
330
EF7C85532
100
AcDbEntity
  8
JISSEN
100
AcDbCircle
 10
280.120439714016
 20
173.0785941605524
 30
0.0
 40
0.25
100
AcDbArc
 50
358.0056319999998
 51
90.0
  0
ARC
  5
EF7C88D91
330
EF7C85532
100
AcDbEntity
  8
JISSEN
100
AcDbCircle
 10
278.1812487140161
 20
173.1285941605525
 30
0.0
 40
0.2
100
AcDbArc
 50
90.0
 51
177.8595680000003
  0
LINE
  5
EF7C88D92
330
EF7C85532
100
AcDbEntity
  8
JISSEN
100
AcDbLine
 10
278.1812487140161
 20
173.3285941605524
 30
0.0
 11
280.496239714016
 21
173.3285941605524
 31
0.0
  0
LINE
  5
EF7C88D93
330
EF7C85532
100
AcDbEntity
  8
JISSEN
100
AcDbLine
 10
287.5019597140159
 20
167.2020391605524
 30
0.0
 11
287.9059937140161
 21
172.9540691605524
 31
0.0
  0
LINE
  5
EF7C88D94
330
EF7C85532
100
AcDbEntity
  8
JISSEN
100
AcDbLine
 10
287.106322714016
 20
173.0090021605524
 30
0.0
 11
286.7136797140161
 21
167.0093711605525
 31
0.0
  0
LINE
  5
EF7C88D95
330
EF7C85532
100
AcDbEntity
  8
JISSEN
100
AcDbLine
 10
285.6211037140161
 20
173.1426081605524
 30
0.0
 11
285.1772967140161
 21
166.8243421605525
 31
0.0
  0
ARC
  5
EF7C88D96
330
EF7C85532
100
AcDbEntity
  8
JISSEN
100
AcDbCircle
 10
286.314533714016
 20
167.0354931605525
 30
0.0
 40
0.4
100
AcDbArc
 50
270.0
 51
356.2556379999997
  0
ARC
  5
EF7C88D97
330
EF7C85532
100
AcDbEntity
  8
JISSEN
100
AcDbCircle
 10
286.304909714016
 20
167.2861221605525
 30
0.0
 40
1.199999999999999
100
AcDbArc
 50
305.3270680000005
 51
355.9820309999996
  0
ARC
  5
EF7C88D98
330
EF7C85532
100
AcDbEntity
  8
JISSEN
100
AcDbCircle
 10
285.7933507140161
 20
165.8817151605525
 30
0.0
 40
0.35
100
AcDbArc
 50
270.0
 51
305.3270680000005
  0
ARC
  5
EF7C88D99
330
EF7C85532
100
AcDbEntity
  8
JISSEN
100
AcDbCircle
 10
284.7782797140159
 20
166.8523701605525
 30
0.0
 40
0.4
100
AcDbArc
 50
305.3270680000005
 51
355.9820309999996
  0
LINE
  5
EF7C88D9A
330
EF7C85532
100
AcDbEntity
  8
JISSEN
100
AcDbLine
 10
285.995735714016
 20
165.5961631605524
 30
0.0
 11
286.998801714016
 21
166.3070851605525
 31
0.0
  0
LINE
  5
EF7C88D9B
330
EF7C85532
100
AcDbEntity
  8
JISSEN
100
AcDbLine
 10
286.314533714016
 20
166.6354931605525
 30
0.0
 11
285.114381714016
 21
166.6354931605525
 31
0.0
  0
LINE
  5
EF7C88D9C
330
EF7C85532
100
AcDbEntity
  8
JISSEN
100
AcDbLine
 10
289.141357714016
 20
165.7202171605525
 30
0.0
 11
290.6407327140161
 21
166.5089671605525
 31
0.0
  0
LINE
  5
EF7C88D9D
330
EF7C85532
100
AcDbEntity
  8
JISSEN
100
AcDbLine
 10
290.1842337140161
 20
165.5317151605524
 30
0.0
 11
289.187914714016
 21
165.5317151605524
 31
0.0
  0
ARC
  5
EF7C88D9E
330
EF7C85532
100
AcDbEntity
  8
JISSEN
100
AcDbCircle
 10
290.4079507140161
 20
166.9514741605524
 30
0.0
 40
0.5
100
AcDbArc
 50
297.7467380000011
 51
354.7984409999997
  0
ARC
  5
EF7C88D9F
330
EF7C85532
100
AcDbEntity
  8
JISSEN
100
AcDbCircle
 10
290.1842337140161
 20
165.9317151605524
 30
0.0
 40
0.4
100
AcDbArc
 50
270.0
 51
297.7467380000011
  0
ARC
  5
EF7C88DA0
330
EF7C85532
100
AcDbEntity
  8
JISSEN
100
AcDbCircle
 10
289.187914714016
 20
165.6317151605524
 30
0.0
 40
0.1
100
AcDbArc
 50
117.7467380000011
 51
270.0
  0
ARC
  5
EF7C88DA1
330
EF7C85532
100
AcDbEntity
  8
JISSEN
100
AcDbCircle
 10
287.5568547140161
 20
172.9785941605524
 30
0.0
 40
0.35
100
AcDbArc
 50
355.9820309999996
 51
90.0
  0
LINE
  5
EF7C88DA2
330
EF7C85532
100
AcDbEntity
  8
JISSEN
100
AcDbLine
 10
287.5568547140161
 20
173.3285941605524
 30
0.0
 11
286.8069637140159
 21
173.3285941605524
 31
0.0
  0
ARC
  5
EF7C88DA3
330
EF7C85532
100
AcDbEntity
  8
JISSEN
100
AcDbCircle
 10
286.8069637140159
 20
173.0285941605524
 30
0.0
 40
0.3
100
AcDbArc
 50
356.2556379999997
 51
90.0
  0
ARC
  5
EF7C88DA4
330
EF7C85532
100
AcDbEntity
  8
JISSEN
100
AcDbCircle
 10
285.820612714016
 20
173.1285941605525
 30
0.0
 40
0.2
100
AcDbArc
 50
90.0
 51
175.9820309999995
  0
LINE
  5
EF7C88DA5
330
EF7C85532
100
AcDbEntity
  8
JISSEN
100
AcDbLine
 10
286.8069637140159
 20
173.3285941605524
 30
0.0
 11
285.820612714016
 21
173.3285941605524
 31
0.0
  0
LINE
  5
EF7C88DA6
330
EF7C85532
100
AcDbEntity
  8
SAISEN
100
AcDbLine
 10
281.658801714016
 20
184.3698751605524
 30
0.0
 11
280.459315714016
 21
185.5693611605524
 31
0.0
  0
LINE
  5
EF7C88DA7
330
EF7C85532
100
AcDbEntity
  8
JISSEN
100
AcDbLine
 10
282.7000827140161
 20
183.3285941605524
 30
0.0
 11
281.658801714016
 21
184.3698751605524
 31
0.0
  0
LINE
  5
EF7C88DA8
330
EF7C85532
100
AcDbEntity
  8
JISSEN
100
AcDbLine
 10
295.600082714016
 20
174.8285941605525
 30
0.0
 11
295.468849714016
 21
173.3285941605524
 31
0.0
  0
LINE
  5
EF7C88DA9
330
EF7C85532
100
AcDbEntity
  8
JISSEN
100
AcDbLine
 10
294.1235737140161
 20
167.3894921605524
 30
0.0
 11
294.755504714016
 21
173.2615301605525
 31
0.0
  0
LINE
  5
EF7C88DAA
330
EF7C85532
100
AcDbEntity
  8
JISSEN
100
AcDbLine
 10
295.238406714016
 20
172.9080301605524
 30
0.0
 11
294.6505767140159
 21
167.4457811605525
 31
0.0
  0
LINE
  5
EF7C88DAB
330
EF7C85532
100
AcDbEntity
  8
JISSEN
100
AcDbLine
 10
295.468849714016
 20
173.3285941605524
 30
0.0
 11
294.948495714016
 21
167.3809171605525
 31
0.0
  0
LINE
  5
EF7C88DAC
330
EF7C85532
100
AcDbEntity
  8
JISSEN
100
AcDbLine
 10
291.9108237140159
 20
173.1110271605524
 30
0.0
 11
291.3800697140159
 21
167.0915771605525
 31
0.0
  0
LINE
  5
EF7C88DAD
330
EF7C85532
100
AcDbEntity
  8
JISSEN
100
AcDbLine
 10
292.9732447140161
 20
172.8909071605524
 30
0.0
 11
292.4475427140161
 21
167.3359611605524
 31
0.0
  0
ARC
  5
EF7C88DAE
330
EF7C85532
100
AcDbEntity
  8
JISSEN
100
AcDbCircle
 10
293.4542033844787
 20
167.3757687346891
 30
0.0
 40
1.5
100
AcDbArc
 50
290.0
 51
355.0000000000001
  0
ARC
  5
EF7C88DAF
330
EF7C85532
100
AcDbEntity
  8
JISSEN
100
AcDbCircle
 10
292.8310377140161
 20
167.5285911605525
 30
0.0
 40
1.3
100
AcDbArc
 50
294.825405
 51
353.8576430000002
  0
ARC
  5
EF7C88DB0
330
EF7C85532
100
AcDbEntity
  8
JISSEN
100
AcDbCircle
 10
293.2586137140161
 20
167.5955801605525
 30
0.0
 40
1.399999999999999
100
AcDbArc
 50
294.825405
 51
353.8576430000002
  0
ARC
  5
EF7C88DB1
330
EF7C85532
100
AcDbEntity
  8
JISSEN
100
AcDbCircle
 10
291.8859817140161
 20
165.6039521605524
 30
0.0
 40
0.05
100
AcDbArc
 50
114.825405
 51
270.0
  0
LINE
  5
EF7C88DB2
330
EF7C85532
100
AcDbEntity
  8
JISSEN
100
AcDbLine
 10
291.959656714016
 20
165.5539521605525
 30
0.0
 11
291.8859817140161
 21
165.5539521605525
 31
0.0
  0
ARC
  5
EF7C88DB3
330
EF7C85532
100
AcDbEntity
  8
JISSEN
100
AcDbCircle
 10
291.959656714016
 20
166.5539521605525
 30
0.0
 40
1.0
100
AcDbArc
 50
270.0
 51
294.825405
  0
ARC
  5
EF7C88DB4
330
EF7C85532
100
AcDbEntity
  8
JISSEN
100
AcDbCircle
 10
291.1533257140161
 20
167.4584421605525
 30
0.0
 40
1.3
100
AcDbArc
 50
297.7467380000011
 51
354.5938149999994
  0
LINE
  5
EF7C88DB5
330
EF7C85532
100
AcDbEntity
  8
JISSEN
100
AcDbLine
 10
293.8464097140159
 20
166.3249521605524
 30
0.0
 11
292.379511714016
 21
165.6463601605524
 31
0.0
  0
LINE
  5
EF7C88DB6
330
EF7C85532
100
AcDbEntity
  8
JISSEN
100
AcDbLine
 10
291.864989714016
 20
165.6493311605524
 30
0.0
 11
293.3768487140159
 21
166.3487221605525
 31
0.0
  0
ARC
  5
EF7C88DB7
330
EF7C85532
100
AcDbEntity
  8
JISSEN
100
AcDbCircle
 10
294.8549307140161
 20
173.2508301605524
 30
0.0
 40
0.1
100
AcDbArc
 50
92.7179019999998
 51
173.8576429999999
  0
ARC
  5
EF7C88DB8
330
EF7C85532
100
AcDbEntity
  8
JISSEN
100
AcDbCircle
 10
291.711596714016
 20
173.1285941605525
 30
0.0
 40
0.2
100
AcDbArc
 50
354.9610729999998
 51
90.0
  0
ARC
  5
EF7C88DB9
330
EF7C85532
100
AcDbEntity
  8
JISSEN
100
AcDbCircle
 10
292.575023714016
 20
172.9285941605524
 30
0.0
 40
0.4
100
AcDbArc
 50
354.5938149999994
 51
90.0
  0
LINE
  5
EF7C88DBA
330
EF7C85532
100
AcDbEntity
  8
JISSEN
100
AcDbLine
 10
291.6731767140161
 20
173.3285941605524
 30
0.0
 11
292.575023714016
 21
173.3285941605524
 31
0.0
  0
ARC
  5
EF7C88DBB
330
EF7C85532
100
AcDbEntity
  8
JISSEN
100
AcDbCircle
 10
291.6731767140161
 20
173.1285941605525
 30
0.0
 40
0.2
100
AcDbArc
 50
90.0
 51
174.7984409999996
  0
ARC
  5
EF7C88DBC
330
EF7C85532
100
AcDbEntity
  8
JISSEN
100
AcDbCircle
 10
294.8407037140161
 20
172.9508301605524
 30
0.0
 40
0.4
100
AcDbArc
 50
353.8576430000002
 51
88.64114499999931
  0
LINE
  5
EF7C88DBD
330
EF7C85532
100
AcDbEntity
  8
JISSEN
100
AcDbLine
 10
297.5000827140161
 20
183.1785941605524
 30
0.0
 11
297.5000827140161
 21
175.8285941605524
 31
0.0
  0
LINE
  5
EF7C88DBE
330
EF7C85532
100
AcDbEntity
  8
JISSEN
100
AcDbLine
 10
296.5000827140161
 20
174.8285941605525
 30
0.0
 11
295.600082714016
 21
174.8285941605525
 31
0.0
  0
LINE
  5
EF7C88DBF
330
EF7C85532
100
AcDbEntity
  8
JISSEN
100
AcDbLine
 10
297.5000827140161
 20
175.8285941605524
 30
0.0
 11
296.5000827140161
 21
174.8285941605525
 31
0.0
  0
LINE
  5
EF7C88DC0
330
EF7C85532
100
AcDbEntity
  8
JISSEN
100
AcDbLine
 10
297.5000827140161
 20
183.1785941605524
 30
0.0
 11
297.350082714016
 21
183.3285941605524
 31
0.0
  0
LINE
  5
EF7C88DC1
330
EF7C85532
100
AcDbEntity
  8
JISSEN
100
AcDbLine
 10
280.000082714016
 20
201.3285941605561
 30
0.0
 11
271.000082714016
 21
201.328594160556
 31
0.0
  0
LINE
  5
EF7C88DC2
330
EF7C85532
100
AcDbEntity
  8
JISSEN
100
AcDbLine
 10
281.262006714016
 20
200.0666691605561
 30
0.0
 11
271.000082714016
 21
200.0666691605561
 31
0.0
  0
LINE
  5
EF7C88DC3
330
EF7C85532
100
AcDbEntity
  8
JISSEN
100
AcDbLine
 10
260.7381587140161
 20
200.0666691605561
 30
0.0
 11
271.000082714016
 21
200.0666691605561
 31
0.0
  0
LINE
  5
EF7C88DC4
330
EF7C85532
100
AcDbEntity
  8
JISSEN
100
AcDbLine
 10
262.000082714016
 20
201.3285941605561
 30
0.0
 11
271.000082714016
 21
201.328594160556
 31
0.0
  0
LINE
  5
EF7C88DC5
330
EF7C85532
100
AcDbEntity
  8
JISSEN
100
AcDbLine
 10
260.7381587140161
 20
200.0666691605561
 30
0.0
 11
262.000082714016
 21
201.3285941605561
 31
0.0
  0
LINE
  5
EF7C88DC6
330
EF7C85532
100
AcDbEntity
  8
JISSEN
100
AcDbLine
 10
281.262006714016
 20
200.0666691605561
 30
0.0
 11
280.000082714016
 21
201.3285941605561
 31
0.0
  0
LWPOLYLINE
  5
EF7C88DC7
102
{ACAD_REACTORS
330
EF7C88CE1
102
}
330
EF7C85532
100
AcDbEntity
  8
HATCH
100
AcDbPolyline
 90
       13
 70
     0
 43
0.0
 10
339.7336682651256
 20
188.3285941605524
 10
339.5690810868756
 20
187.5089570823205
 10
339.4271757301952
 20
186.9923391055561
 10
339.1994670930473
 20
186.5739128188684
 10
338.8915796063881
 20
186.2357957952014
 10
338.5253563174086
 20
185.9455447225513
 10
338.1226402732998
 20
185.6707162889138
 10
337.7052745212529
 20
185.3788671822847
 10
337.2951021084592
 20
185.0375540906601
 10
336.9139660821096
 20
184.6143337020356
 10
336.5837094893951
 20
184.0767627044075
 10
336.3091294261921
 20
183.4131439171199
 10
336.2759052316956
 20
183.3285941605524
  0
TEXT
  5
EF7C88DC8
330
EF7C85532
100
AcDbEntity
  8
SUNPOU
100
AcDbText
 10
331.687322155842
 20
144.3494238986851
 30
0.0
 40
3.0
  1
尺度　1/1
  7
K
100
AcDbText
  0
TEXT
  5
EF7C88DC9
330
EF7C85532
100
AcDbEntity
  8
SUNPOU
100
AcDbText
 10
331.687322155842
 20
149.3494238986851
 30
0.0
 40
3.0
  1
MFJ   取付状態
  7
K
100
AcDbText
  0
TEXT
  5
EF7C88DCA
330
EF7C85532
100
AcDbEntity
  8
SUNPOU
100
AcDbText
 10
307.2075231711619
 20
148.7857213768291
 30
0.0
 40
4.5
  1
1
  7
K
 72
     4
 11
309.0289517425905
 21
151.0357213768291
 31
0.0
100
AcDbText
  0
TEXT
  5
EF7C88DCF
330
EF7C85532
100
AcDbEntity
  8
TEXT
100
AcDbText
 10
283.7714271234285
 20
272.4999999999999
 30
0.0
 40
3.0
  1
MFJ   型ヘッド
  7
K
 72
     4
 11
297.499998552
 21
273.9999999999999
 31
0.0
100
AcDbText
  0
TEXT
  5
EF7C88DD0
330
EF7C85532
100
AcDbEntity
  8
TEXT
100
AcDbText
 10
285.2571414091428
 20
266.4999999999999
 30
0.0
 40
3.0
  1
ガード MFJ  
  7
K
 72
     4
 11
297.499998552
 21
267.9999999999999
 31
0.0
100
AcDbText
  0
TEXT
  5
EF7C88DD1
330
EF7C85532
100
AcDbEntity
  8
TEXT
100
AcDbText
 10
288.8999985519999
 20
278.4999999999999
 30
0.0
 40
3.0
  1
名      称
  7
K
 72
     4
 11
297.499998552
 21
279.9999999999999
 31
0.0
100
AcDbText
  0
TEXT
  5
EF7C88DD4
330
EF7C85532
100
AcDbEntity
  8
TEXT
100
AcDbText
 10
276.2857128377143
 20
272.4999999999999
 30
0.0
 40
3.0
  1
1
  7
K
 72
     4
 11
277.499998552
 21
273.9999999999999
 31
0.0
100
AcDbText
  0
LINE
  5
EF7C88DD5
330
EF7C85532
100
AcDbEntity
  8
JISSEN
100
AcDbLine
 10
282.499998552
 20
282.9999999999998
 30
0.0
 11
282.499998552
 21
264.9999999999999
 31
0.0
  0
LINE
  5
EF7C88DD6
330
EF7C85532
100
AcDbEntity
  8
JISSEN
100
AcDbLine
 10
272.4999985519999
 20
264.9999999999999
 30
0.0
 11
272.499998552
 21
282.9999999999998
 31
0.0
  0
TEXT
  5
EF7C88DD7
330
EF7C85532
100
AcDbEntity
  8
TEXT
100
AcDbText
 10
276.3830709575343
 20
266.4999999999999
 30
0.0
 40
3.0
  1
2
  7
K
 72
     4
 11
277.8116423861058
 21
267.9999999999999
 31
0.0
100
AcDbText
  0
LWPOLYLINE
  5
EF7C88DD8
330
EF7C85532
100
AcDbEntity
  8
NITEN
100
AcDbPolyline
 90
        5
 70
     0
 43
0.0
 10
287.9999992759999
 20
231.4391430662799
 10
287.9999992759999
 20
252.2768607174258
 42
-0.5882352941176476
 10
270.9999992759999
 20
252.2768607174258
 42
0.5882352941176477
 10
253.9999992759999
 20
252.2768607174254
 10
253.9999992759999
 20
231.4391430662799
  0
LWPOLYLINE
  5
EF7C88DD9
330
EF7C85532
100
AcDbEntity
  8
NITEN
100
AcDbPolyline
 90
        2
 70
     0
 43
0.0
 10
287.9999992760001
 20
252.2768607174258
 42
0.5882352941176295
 10
270.9999992759999
 20
252.2768607174261
 42
0.5882352941176295
  0
TEXT
  5
EF7C88DDB
330
EF7C85532
100
AcDbEntity
  8
TEXT
100
AcDbText
 10
274.299998552
 20
278.4999999999999
 30
0.0
 40
3.0
  1
番号
  7
K
 72
     4
 11
277.499998552
 21
279.9999999999999
 31
0.0
100
AcDbText
  0
TEXT
  5
EF7C88DDD
330
EF7C85532
100
AcDbEntity
  8
TEXT
100
AcDbText
 10
337.6795470384091
 20
272.4999999999999
 30
0.0
 40
3.0
  1
1
  7
K
 72
     4
 11
338.8938327526949
 21
273.9999999999999
 31
0.0
100
AcDbText
  0
LINE
  5
EF7C88DDE
330
EF7C85532
100
AcDbEntity
  8
JISSEN
100
AcDbLine
 10
344.4999985519999
 20
282.9999999999998
 30
0.0
 11
344.4999985519999
 21
264.9999999999999
 31
0.0
  0
LINE
  5
EF7C88DDF
330
EF7C85532
100
AcDbEntity
  8
JISSEN
100
AcDbLine
 10
333.4999985519999
 20
264.9999999999999
 30
0.0
 11
333.4999985519999
 21
282.9999999999998
 31
0.0
  0
LINE
  5
EF7C88DE0
330
EF7C85532
100
AcDbEntity
  8
JISSEN
100
AcDbLine
 10
312.499998552
 20
282.9999999999998
 30
0.0
 11
312.4999985519999
 21
264.9999999999999
 31
0.0
  0
TEXT
  5
EF7C88DE1
330
EF7C85532
100
AcDbEntity
  8
TEXT
100
AcDbText
 10
317.8249985519999
 20
274.2999999999999
 30
0.0
 40
3.0
  1
%%u      
  7
K
 72
     4
 11
322.9999985519999
 21
273.9999999999999
 31
0.0
100
AcDbText
  0
TEXT
  5
EF7C88DE2
330
EF7C85532
100
AcDbEntity
  8
TEXT
100
AcDbText
 10
318.8571414091427
 20
266.4999999999999
 30
0.0
 40
3.0
  1
ADC
  7
K
 72
     4
 11
322.9999985519999
 21
267.9999999999999
 31
0.0
100
AcDbText
  0
TEXT
  5
EF7C88DE3
330
EF7C85532
100
AcDbEntity
  8
TEXT
100
AcDbText
 10
337.6795470384091
 20
266.580835176341
 30
0.0
 40
3.0
  1
1
  7
K
 72
     4
 11
338.8938327526949
 21
268.0808351763409
 31
0.0
100
AcDbText
  0
TEXT
  5
EF7C88DE4
330
EF7C85532
100
AcDbEntity
  8
TEXT
100
AcDbText
 10
316.199998552
 20
278.4999999999999
 30
0.0
 40
3.0
  1
材    質
  7
K
 72
     4
 11
322.999998552
 21
279.9999999999999
 31
0.0
100
AcDbText
  0
TEXT
  5
EF7C88DE5
330
EF7C85532
100
AcDbEntity
  8
TEXT
100
AcDbText
 10
346.6999985519998
 20
278.4999999999999
 30
0.0
 40
3.0
  1
備    考
  7
K
 72
     4
 11
353.4999985519998
 21
279.9999999999999
 31
0.0
100
AcDbText
  0
TEXT
  5
EF7C88DE6
330
EF7C85532
100
AcDbEntity
  8
TEXT
100
AcDbText
 10
335.7999985519999
 20
278.4999999999999
 30
0.0
 40
3.0
  1
個数
  7
K
 72
     4
 11
338.9999985519999
 21
279.9999999999999
 31
0.0
100
AcDbText
  0
LINE
  5
EF7C88DF7
330
EF7C85532
100
AcDbEntity
  8
WAKU
100
AcDbLine
 10
542.9999982988987
 20
141.5000001996573
 30
0.0
 11
361.9999987874493
 21
141.5000001996573
 31
0.0
  0
TEXT
  5
EF7C88ECA
330
EF7C85532
100
AcDbEntity
  8
TEXT
100
AcDbText
 10
464.7714266348778
 20
272.4999999999999
 30
0.0
 40
3.0
  1
MFJ   型ヘッド
  7
K
 72
     4
 11
478.4999980634493
 21
273.9999999999999
 31
0.0
100
AcDbText
  0
TEXT
  5
EF7C88ECB
330
EF7C85532
100
AcDbEntity
  8
TEXT
100
AcDbText
 10
469.8999980634493
 20
278.4999999999999
 30
0.0
 40
3.0
  1
名      称
  7
K
 72
     4
 11
478.4999980634493
 21
279.9999999999999
 31
0.0
100
AcDbText
  0
ARC
  5
EF7C88ECD
330
EF7C85532
100
AcDbEntity
  8
JISSEN
100
AcDbCircle
 10
474.2586132254654
 20
167.5955801605525
 30
0.0
 40
1.399999999999999
100
AcDbArc
 50
294.825405
 51
353.8576430000002
  0
ARC
  5
EF7C88ECE
330
EF7C85532
100
AcDbEntity
  8
JISSEN
100
AcDbCircle
 10
473.8310372254654
 20
167.5285911605525
 30
0.0
 40
1.3
100
AcDbArc
 50
294.825405
 51
353.8576430000002
  0
ARC
  5
EF7C88ECF
330
EF7C85532
100
AcDbEntity
  8
JISSEN
100
AcDbCircle
 10
474.4542028959282
 20
167.3757687346891
 30
0.0
 40
1.5
100
AcDbArc
 50
290.0
 51
355.0000000000001
  0
LINE
  5
EF7C88ED0
330
EF7C85532
100
AcDbEntity
  8
JISSEN
100
AcDbLine
 10
475.1235732254654
 20
167.3894921605524
 30
0.0
 11
475.7555042254653
 21
173.2615301605525
 31
0.0
  0
LINE
  5
EF7C88ED1
330
EF7C85532
100
AcDbEntity
  8
SUNPOU
100
AcDbLine
 10
470.7919865466861
 20
163.9969598090681
 30
0.0
 11
485.0530167025561
 21
154.3883435355808
 31
0.0
  0
LINE
  5
EF7C88ED2
330
EF7C85532
100
AcDbEntity
  8
JISSEN
100
AcDbLine
 10
478.3500822254652
 20
183.3285941605524
 30
0.0
 11
452.0000822254655
 21
183.3285941605524
 31
0.0
  0
LINE
  5
EF7C88ED3
330
EF7C85532
100
AcDbEntity
  8
JISSEN
100
AcDbLine
 10
477.5000822254654
 20
174.8285941605525
 30
0.0
 11
452.0000822254655
 21
174.8285941605525
 31
0.0
  0
LINE
  5
EF7C88ED4
330
EF7C85532
100
AcDbEntity
  8
JISSEN
100
AcDbLine
 10
478.5000822254653
 20
175.8285941605524
 30
0.0
 11
453.0000822254653
 21
175.8285941605524
 31
0.0
  0
LINE
  5
EF7C88ED5
330
EF7C85532
100
AcDbEntity
  8
JISSEN
100
AcDbLine
 10
453.0000822254653
 20
182.8285941605524
 30
0.0
 11
478.5000822254653
 21
182.8285941605524
 31
0.0
  0
LINE
  5
EF7C88ED6
330
EF7C85532
100
AcDbEntity
  8
JISSEN
100
AcDbLine
 10
462.5975881424143
 20
183.3285941605524
 30
0.0
 11
517.2759047431449
 21
183.3285941605524
 31
0.0
  0
LINE
  5
EF7C88ED7
330
EF7C85532
100
AcDbEntity
  8
JISSEN
100
AcDbLine
 10
520.7336677765749
 20
188.3285941605524
 30
0.0
 11
462.5350849624776
 21
188.3285941605524
 31
0.0
  0
HATCH
  5
EF7C88ED8
330
EF7C85532
100
AcDbEntity
  8
HATCH
100
AcDbHatch
 10
0.0
 20
0.0
 30
0.0
210
0.0
220
0.0
230
1.0
  2
_U
 70
     0
 71
     0
 91
        2
 92
        7
 72
     0
 73
     1
 93
       15
 10
469.5000822254653
 20
188.3285941605524
 10
469.5000822254653
 20
183.3285941605524
 10
478.3500822254652
 20
183.3285941605524
 10
517.2741454833651
 20
183.3285941605524
 10
517.5837090008443
 20
184.0767627044074
 10
517.9139655935588
 20
184.6143337020356
 10
518.2951016199083
 20
185.03755409066
 10
518.7052740327024
 20
185.3788671822848
 10
519.1226397847501
 20
185.6707162889147
 10
519.5253558288579
 20
185.9455447225514
 10
519.8915791178375
 20
186.2357957952014
 10
520.1994666044968
 20
186.5739128188684
 10
520.4271752416445
 20
186.9923391055561
 10
520.5690805983249
 20
187.5089570823201
 10
520.7336677765749
 20
188.3285941605526
 97
        0
 92
        7
 72
     0
 73
     1
 93
       14
 10
383.2663297983239
 20
188.3285941605524
 10
383.4309169765738
 20
187.5089570823203
 10
383.5728223332543
 20
186.9923391055561
 10
383.800530970402
 20
186.5739128188684
 10
384.1084184570613
 20
186.2357957952014
 10
384.4746417460411
 20
185.9455447225513
 10
384.8773577901474
 20
185.6707162889144
 10
385.2947235421966
 20
185.3788671822845
 10
385.7048959549903
 20
185.0375540906603
 10
386.0860319813399
 20
184.6143337020358
 10
386.4162885740544
 20
184.0767627044075
 10
386.7258520915336
 20
183.3285941605524
 10
434.5000822254654
 20
183.3285941605524
 10
434.5000822254654
 20
188.3285941605524
 97
        0
 75
     0
 76
     0
 52
45.0
 41
2.0
 77
     0
 78
     1
 53
45.0
 43
361.9999987874493
 44
3.0
 45
-1.414213562373094
 46
1.414213562373094
 79
     0
 47
0.2346837798524018
 98
        2
 10
479.2263862772937
 20
186.1842259962081
 10
428.258580983638
 20
186.8882770499791
  0
LINE
  5
EF7C88ED9
330
EF7C85532
100
AcDbEntity
  8
JISSEN
100
AcDbLine
 10
453.4999980634493
 20
276.9999999999999
 30
0.0
 11
542.9999980634494
 21
276.9999999999999
 31
0.0
  0
LINE
  5
EF7C88EDA
330
EF7C85532
100
AcDbEntity
  8
JISSEN
100
AcDbLine
 10
453.4999980634493
 20
270.9999999999999
 30
0.0
 11
542.9999980634494
 21
270.9999999999999
 31
0.0
  0
LINE
  5
EF7C88EDB
330
EF7C85532
100
AcDbEntity
  8
JISSEN
100
AcDbLine
 10
453.4999980634493
 20
264.9999999999999
 30
0.0
 11
542.9999980634494
 21
264.9999999999999
 31
0.0
  0
LWPOLYLINE
  5
EF7C88EDC
330
EF7C85532
100
AcDbEntity
  8
NITEN
100
AcDbPolyline
 90
       15
 70
     1
 43
0.0
 10
437.9999987874493
 20
190.9391430662799
 42
0.4142135623730927
 10
439.4999987874491
 20
189.4391430662799
 10
462.5940499584459
 20
189.4391430662799
 10
464.4999987874493
 20
189.4391430662799
 42
0.4142135623730925
 10
465.9999987874493
 20
190.9391430662799
 10
465.9999987874493
 20
201.9851590924978
 42
-0.4142135623730943
 10
470.9999987874493
 20
206.9851590924979
 42
0.4142135623730951
 10
472.9999987874493
 20
208.9851590924979
 10
472.9999987874491
 20
229.4391430662799
 42
0.4142135623730949
 10
470.9999987874493
 20
231.4391430662799
 10
432.9999987874493
 20
231.4391430662799
 42
0.4142135623730951
 10
430.9999987874493
 20
229.4391430662799
 10
430.9999987874493
 20
208.9851590924979
 42
0.4142135623730951
 10
432.9999987874493
 20
206.9851590924979
 42
-0.4142135623730961
 10
437.9999987874493
 20
201.9851590924978
  0
LINE
  5
EF7C88EDD
330
EF7C85532
100
AcDbEntity
  8
JISSEN
100
AcDbLine
 10
441.4025763085166
 20
183.3285941605524
 30
0.0
 11
386.7240928317538
 21
183.3285941605524
 31
0.0
  0
LINE
  5
EF7C88EDE
330
EF7C85532
100
AcDbEntity
  8
JISSEN
100
AcDbLine
 10
383.2663297983239
 20
188.3285941605524
 30
0.0
 11
441.4650794884531
 21
188.3285941605526
 31
0.0
  0
LWPOLYLINE
  5
EF7C88EDF
330
EF7C85532
100
AcDbEntity
  8
HATCH
100
AcDbPolyline
 90
       13
 70
     0
 43
0.0
 10
383.2663297983239
 20
188.3285941605524
 10
383.4309169765738
 20
187.5089570823203
 10
383.5728223332543
 20
186.9923391055561
 10
383.800530970402
 20
186.5739128188682
 10
384.1084184570613
 20
186.2357957952014
 10
384.4746417460409
 20
185.9455447225513
 10
384.8773577901496
 20
185.6707162889138
 10
385.2947235421963
 20
185.3788671822847
 10
385.7048959549903
 20
185.0375540906601
 10
386.0860319813399
 20
184.6143337020356
 10
386.4162885740544
 20
184.0767627044074
 10
386.6908686372571
 20
183.4131439171199
 10
386.7240928317538
 20
183.3285941605524
  0
LINE
  5
EF7C88EE0
330
EF7C85532
100
AcDbEntity
  8
SAISEN
100
AcDbLine
 10
461.4593152254654
 20
185.5693611605524
 30
0.0
 11
460.9668153787321
 21
201.328594160556
 31
0.0
  0
LINE
  5
EF7C88EE1
330
EF7C85532
100
AcDbEntity
  8
JISSEN
100
AcDbLine
 10
462.1652269468302
 20
200.1634485158831
 30
0.0
 11
462.6588012254654
 21
184.3698751605524
 31
0.0
  0
LINE
  5
EF7C88EE2
330
EF7C85532
100
AcDbEntity
  8
JISSEN
100
AcDbLine
 10
441.8349375041006
 20
200.1634485158831
 30
0.0
 11
441.3413632254654
 21
184.3698751605524
 31
0.0
  0
LINE
  5
EF7C88EE3
330
EF7C85532
100
AcDbEntity
  8
SAISEN
100
AcDbLine
 10
442.5408492254653
 20
185.5693611605524
 30
0.0
 11
443.0333490721986
 21
201.328594160556
 31
0.0
  0
LINE
  5
EF7C88EE4
330
EF7C85532
100
AcDbEntity
  8
JISSEN
100
AcDbLine
 10
469.5000822254653
 20
188.3285941605524
 30
0.0
 11
469.5000822254653
 21
183.3285941605524
 31
0.0
  0
LINE
  5
EF7C88EE5
330
EF7C85532
100
AcDbEntity
  8
JISSEN
100
AcDbLine
 10
434.5000822254654
 20
188.3285941605524
 30
0.0
 11
434.5000822254654
 21
183.3285941605524
 31
0.0
  0
LINE
  5
EF7C88EE6
330
EF7C85532
100
AcDbEntity
  8
JISSEN
100
AcDbLine
 10
452.0000822254685
 20
160.2427118382129
 30
0.0
 11
439.4500822254685
 21
160.2427118382134
 31
0.0
1001
ACAD
1000
ASC_BOUNDS
1002
{
1070
    19
1002
}
  0
LINE
  5
EF7C88EE7
330
EF7C85532
100
AcDbEntity
  8
JISSEN
100
AcDbLine
 10
452.0000822254655
 20
185.5693611605524
 30
0.0
 11
441.3788492254654
 21
185.5693611605524
 31
0.0
  0
LINE
  5
EF7C88EE8
330
EF7C85532
100
AcDbEntity
  8
JISSEN
100
AcDbLine
 10
452.0000822254655
 20
161.9927118382131
 30
0.0
 11
437.4708792088636
 21
161.992711838213
 31
0.0
1001
ACAD
1000
ASC_BOUNDS
1002
{
1070
    19
1002
}
  0
LINE
  5
EF7C88EE9
330
EF7C85532
100
AcDbEntity
  8
JISSEN
100
AcDbLine
 10
451.0000822254654
 20
182.8285941605524
 30
0.0
 11
425.5000822254654
 21
182.8285941605524
 31
0.0
  0
LINE
  5
EF7C88EEA
330
EF7C85532
100
AcDbEntity
  8
JISSEN
100
AcDbLine
 10
425.5000822254654
 20
175.8285941605524
 30
0.0
 11
451.0000822254654
 21
175.8285941605524
 31
0.0
  0
LINE
  5
EF7C88EEB
330
EF7C85532
100
AcDbEntity
  8
JISSEN
100
AcDbLine
 10
426.5000822254654
 20
174.8285941605525
 30
0.0
 11
452.0000822254655
 21
174.8285941605525
 31
0.0
  0
LINE
  5
EF7C88EEC
330
EF7C85532
100
AcDbEntity
  8
JISSEN
100
AcDbLine
 10
425.6500822254653
 20
183.3285941605524
 30
0.0
 11
452.0000822254655
 21
183.3285941605524
 31
0.0
  0
LINE
  5
EF7C88EED
330
EF7C85532
100
AcDbEntity
  8
JISSEN
100
AcDbLine
 10
437.4708792088636
 20
161.992711838213
 30
0.0
 11
428.9454765996261
 21
166.0012077799235
 31
0.0
1001
ACAD
1000
ASC_BOUNDS
1002
{
1070
    19
1002
}
  0
LINE
  5
EF7C88EEE
330
EF7C85532
100
AcDbEntity
  8
JISSEN
100
AcDbLine
 10
445.5385437639288
 20
160.2427118382133
 30
0.0
 11
444.5000822254674
 21
151.2427118382134
 31
0.0
  0
LINE
  5
EF7C88EEF
330
EF7C85532
100
AcDbEntity
  8
JISSEN
100
AcDbLine
 10
440.3250822254673
 20
160.2427118382134
 30
0.0
 11
440.3250822254674
 21
151.2427118382134
 31
0.0
  0
LINE
  5
EF7C88EF0
330
EF7C85532
100
AcDbEntity
  8
JISSEN
100
AcDbLine
 10
440.3250822254673
 20
151.2427118382134
 30
0.0
 11
444.5000822254674
 21
151.2427118382134
 31
0.0
  0
ARC
  5
EF7C88EF1
330
EF7C85532
100
AcDbEntity
  8
JISSEN
100
AcDbCircle
 10
439.4500822254685
 20
160.4427118382133
 30
0.0
 40
0.2
100
AcDbArc
 50
180.0000000000006
 51
269.9999999999966
1001
ACAD
1000
ASC_BOUNDS
1002
{
1070
    19
1002
}
  0
LINE
  5
EF7C88EF2
330
EF7C85532
100
AcDbEntity
  8
JISSEN
100
AcDbLine
 10
439.2500822254685
 20
161.992711838213
 30
0.0
 11
439.2500822254685
 21
160.4427118382121
 31
0.0
1001
ACAD
1000
ASC_BOUNDS
1002
{
1070
    19
1002
}
  0
ARC
  5
EF7C88EF3
330
EF7C85532
100
AcDbEntity
  8
JISSEN
100
AcDbCircle
 10
432.8159312254654
 20
165.9317151605524
 30
0.0
 40
0.4
100
AcDbArc
 50
242.2532619999987
 51
270.0
  0
LINE
  5
EF7C88EF4
330
EF7C85532
100
AcDbEntity
  8
JISSEN
100
AcDbLine
 10
433.8588072254654
 20
165.7202171605525
 30
0.0
 11
432.3594322254654
 21
166.5089671605525
 31
0.0
  0
LINE
  5
EF7C88EF5
330
EF7C85532
100
AcDbEntity
  8
JISSEN
100
AcDbLine
 10
427.4000822254653
 20
174.8285941605525
 30
0.0
 11
427.5313152254653
 21
173.3285941605524
 31
0.0
  0
LINE
  5
EF7C88EF6
330
EF7C85532
100
AcDbEntity
  8
JISSEN
100
AcDbLine
 10
431.0893412254653
 20
173.1110271605524
 30
0.0
 11
431.6200952254654
 21
167.0915771605525
 31
0.0
  0
LINE
  5
EF7C88EF7
330
EF7C85532
100
AcDbEntity
  8
JISSEN
100
AcDbLine
 10
430.0269202254654
 20
172.8909071605524
 30
0.0
 11
430.5526222254655
 21
167.3359611605524
 31
0.0
  0
LINE
  5
EF7C88EF8
330
EF7C85532
100
AcDbEntity
  8
JISSEN
100
AcDbLine
 10
432.0942732254653
 20
166.9061441605525
 30
0.0
 11
431.5261652254654
 21
173.1467261605524
 31
0.0
  0
LINE
  5
EF7C88EF9
330
EF7C85532
100
AcDbEntity
  8
JISSEN
100
AcDbLine
 10
428.8765912254652
 20
167.3894921605524
 30
0.0
 11
428.2446602254654
 21
173.2615301605525
 31
0.0
  0
LINE
  5
EF7C88EFA
330
EF7C85532
100
AcDbEntity
  8
JISSEN
100
AcDbLine
 10
427.7617582254653
 20
172.9080301605524
 30
0.0
 11
428.3495882254653
 21
167.4457811605525
 31
0.0
  0
LINE
  5
EF7C88EFB
330
EF7C85532
100
AcDbEntity
  8
JISSEN
100
AcDbLine
 10
427.5313152254653
 20
173.3285941605524
 30
0.0
 11
428.0516692254654
 21
167.3809171605525
 31
0.0
  0
ARC
  5
EF7C88EFC
330
EF7C85532
100
AcDbEntity
  8
JISSEN
100
AcDbCircle
 10
430.1691272254654
 20
167.5285911605525
 30
0.0
 40
1.3
100
AcDbArc
 50
186.1423569999999
 51
245.1745949999999
  0
LINE
  5
EF7C88EFD
330
EF7C85532
100
AcDbEntity
  8
JISSEN
100
AcDbLine
 10
429.1537552254655
 20
166.3249521605524
 30
0.0
 11
430.6206532254654
 21
165.6463601605524
 31
0.0
  0
ARC
  5
EF7C88EFE
330
EF7C85532
100
AcDbEntity
  8
JISSEN
100
AcDbCircle
 10
429.5459615550027
 20
167.3757687346891
 30
0.0
 40
1.5
100
AcDbArc
 50
184.9999999999998
 51
249.9999999999999
  0
ARC
  5
EF7C88EFF
330
EF7C85532
100
AcDbEntity
  8
JISSEN
100
AcDbCircle
 10
429.7415512254653
 20
167.5955801605525
 30
0.0
 40
1.399999999999999
100
AcDbArc
 50
186.1423569999999
 51
245.1745949999999
  0
ARC
  5
EF7C88F00
330
EF7C85532
100
AcDbEntity
  8
JISSEN
100
AcDbCircle
 10
432.1181632254654
 20
167.1354931605524
 30
0.0
 40
0.5
100
AcDbArc
 50
185.038927
 51
279.3495549999982
  0
LINE
  5
EF7C88F01
330
EF7C85532
100
AcDbEntity
  8
JISSEN
100
AcDbLine
 10
431.2416062254653
 20
166.3079231605524
 30
0.0
 11
432.6297052254654
 21
165.5777101605524
 31
0.0
  0
ARC
  5
EF7C88F02
330
EF7C85532
100
AcDbEntity
  8
JISSEN
100
AcDbCircle
 10
431.1141832254654
 20
165.6039521605524
 30
0.0
 40
0.05
100
AcDbArc
 50
270.0
 51
65.17459499999998
  0
LINE
  5
EF7C88F03
330
EF7C85532
100
AcDbEntity
  8
JISSEN
100
AcDbLine
 10
431.0405082254654
 20
165.5539521605525
 30
0.0
 11
431.1141832254654
 21
165.5539521605525
 31
0.0
  0
ARC
  5
EF7C88F04
330
EF7C85532
100
AcDbEntity
  8
JISSEN
100
AcDbCircle
 10
431.0405082254654
 20
166.5539521605525
 30
0.0
 40
1.0
100
AcDbArc
 50
245.1745949999999
 51
270.0
  0
ARC
  5
EF7C88F05
330
EF7C85532
100
AcDbEntity
  8
JISSEN
100
AcDbCircle
 10
431.8468392254653
 20
167.4584421605525
 30
0.0
 40
1.3
100
AcDbArc
 50
185.4061850000004
 51
242.2532619999987
  0
ARC
  5
EF7C88F06
330
EF7C85532
100
AcDbEntity
  8
JISSEN
100
AcDbCircle
 10
432.5922142254653
 20
166.9514741605524
 30
0.0
 40
0.5
100
AcDbArc
 50
185.2015590000002
 51
242.2532619999987
  0
LINE
  5
EF7C88F07
330
EF7C85532
100
AcDbEntity
  8
JISSEN
100
AcDbLine
 10
431.1351752254654
 20
165.6493311605524
 30
0.0
 11
429.6233162254655
 21
166.3487221605525
 31
0.0
  0
ARC
  5
EF7C88F08
330
EF7C85532
100
AcDbEntity
  8
JISSEN
100
AcDbCircle
 10
428.1594612254654
 20
172.9508301605524
 30
0.0
 40
0.4
100
AcDbArc
 50
91.35885500000069
 51
186.1423569999999
  0
ARC
  5
EF7C88F09
330
EF7C85532
100
AcDbEntity
  8
JISSEN
100
AcDbCircle
 10
428.1452342254653
 20
173.2508301605524
 30
0.0
 40
0.1
100
AcDbArc
 50
6.142356999999947
 51
87.28209800000021
  0
ARC
  5
EF7C88F0A
330
EF7C85532
100
AcDbEntity
  8
JISSEN
100
AcDbCircle
 10
431.2885682254655
 20
173.1285941605525
 30
0.0
 40
0.2
100
AcDbArc
 50
90.0
 51
185.038927
  0
ARC
  5
EF7C88F0B
330
EF7C85532
100
AcDbEntity
  8
JISSEN
100
AcDbCircle
 10
430.4251412254655
 20
172.9285941605524
 30
0.0
 40
0.4
100
AcDbArc
 50
90.0
 51
185.4061850000004
  0
LINE
  5
EF7C88F0C
330
EF7C85532
100
AcDbEntity
  8
JISSEN
100
AcDbLine
 10
431.3269882254655
 20
173.3285941605524
 30
0.0
 11
430.4251412254655
 21
173.3285941605524
 31
0.0
  0
ARC
  5
EF7C88F0D
330
EF7C85532
100
AcDbEntity
  8
JISSEN
100
AcDbCircle
 10
431.3269882254655
 20
173.1285941605525
 30
0.0
 40
0.2
100
AcDbArc
 50
5.201559000000278
 51
90.0
  0
LINE
  5
EF7C88F0E
330
EF7C85532
100
AcDbEntity
  8
JISSEN
100
AcDbLine
 10
425.5000822254654
 20
183.1785941605524
 30
0.0
 11
425.6500822254653
 21
183.3285941605524
 31
0.0
  0
LINE
  5
EF7C88F0F
330
EF7C85532
100
AcDbEntity
  8
JISSEN
100
AcDbLine
 10
425.5000822254654
 20
175.8285941605524
 30
0.0
 11
426.5000822254654
 21
174.8285941605525
 31
0.0
  0
LINE
  5
EF7C88F10
330
EF7C85532
100
AcDbEntity
  8
JISSEN
100
AcDbLine
 10
425.5000822254654
 20
183.1785941605524
 30
0.0
 11
425.5000822254654
 21
175.8285941605524
 31
0.0
  0
LINE
  5
EF7C88F11
330
EF7C85532
100
AcDbEntity
  8
JISSEN
100
AcDbLine
 10
426.5000822254654
 20
174.8285941605525
 30
0.0
 11
427.4000822254653
 21
174.8285941605525
 31
0.0
  0
LINE
  5
EF7C88F12
330
EF7C85532
100
AcDbEntity
  8
JISSEN
100
AcDbLine
 10
437.3790612254654
 20
173.1426081605524
 30
0.0
 11
437.8228682254654
 21
166.8243421605525
 31
0.0
  0
LINE
  5
EF7C88F13
330
EF7C85532
100
AcDbEntity
  8
JISSEN
100
AcDbLine
 10
435.4982052254653
 20
167.2020391605524
 30
0.0
 11
435.0941712254654
 21
172.9540691605524
 31
0.0
  0
LINE
  5
EF7C88F14
330
EF7C85532
100
AcDbEntity
  8
JISSEN
100
AcDbLine
 10
435.8938422254654
 20
173.0090021605524
 30
0.0
 11
436.2864852254654
 21
167.0093711605525
 31
0.0
  0
ARC
  5
EF7C88F15
330
EF7C85532
100
AcDbEntity
  8
JISSEN
100
AcDbCircle
 10
436.6856312254654
 20
167.0354931605525
 30
0.0
 40
0.4
100
AcDbArc
 50
183.7443620000001
 51
270.0
  0
LINE
  5
EF7C88F16
330
EF7C85532
100
AcDbEntity
  8
JISSEN
100
AcDbLine
 10
437.0044292254654
 20
165.5961631605524
 30
0.0
 11
436.0013632254654
 21
166.3070851605525
 31
0.0
  0
ARC
  5
EF7C88F17
330
EF7C85532
100
AcDbEntity
  8
JISSEN
100
AcDbCircle
 10
433.8122502254655
 20
165.6317151605524
 30
0.0
 40
0.1
100
AcDbArc
 50
270.0
 51
62.25326199999882
  0
ARC
  5
EF7C88F18
330
EF7C85532
100
AcDbEntity
  8
JISSEN
100
AcDbCircle
 10
436.6952552254653
 20
167.2861221605525
 30
0.0
 40
1.199999999999999
100
AcDbArc
 50
184.0179690000004
 51
234.6729319999993
  0
LINE
  5
EF7C88F19
330
EF7C85532
100
AcDbEntity
  8
JISSEN
100
AcDbLine
 10
432.8159312254654
 20
165.5317151605524
 30
0.0
 11
433.8122502254655
 21
165.5317151605524
 31
0.0
  0
LINE
  5
EF7C88F1A
330
EF7C85532
100
AcDbEntity
  8
JISSEN
100
AcDbLine
 10
438.9224472254654
 20
165.5317151605524
 30
0.0
 11
437.2068142254653
 21
165.5317151605524
 31
0.0
  0
LINE
  5
EF7C88F1B
330
EF7C85532
100
AcDbEntity
  8
JISSEN
100
AcDbLine
 10
437.9905882254654
 20
166.5260241605525
 30
0.0
 11
439.0091832254653
 21
165.8040951605524
 31
0.0
  0
ARC
  5
EF7C88F1C
330
EF7C85532
100
AcDbEntity
  8
JISSEN
100
AcDbCircle
 10
437.2068142254653
 20
165.8817151605525
 30
0.0
 40
0.35
100
AcDbArc
 50
234.6729319999993
 51
270.0
  0
ARC
  5
EF7C88F1D
330
EF7C85532
100
AcDbEntity
  8
JISSEN
100
AcDbCircle
 10
438.2218852254655
 20
166.8523701605525
 30
0.0
 40
0.4
100
AcDbArc
 50
184.0179690000004
 51
234.6729319999993
  0
ARC
  5
EF7C88F1E
330
EF7C85532
100
AcDbEntity
  8
JISSEN
100
AcDbCircle
 10
438.9224472254654
 20
165.6817151605524
 30
0.0
 40
0.15
100
AcDbArc
 50
270.0
 51
54.67293199999947
  0
LINE
  5
EF7C88F1F
330
EF7C85532
100
AcDbEntity
  8
JISSEN
100
AcDbLine
 10
436.6856312254654
 20
166.6354931605525
 30
0.0
 11
437.8857832254654
 21
166.6354931605525
 31
0.0
  0
LINE
  5
EF7C88F20
330
EF7C85532
100
AcDbEntity
  8
JISSEN
100
AcDbLine
 10
436.1932012254653
 20
173.3285941605524
 30
0.0
 11
437.1795522254654
 21
173.3285941605524
 31
0.0
  0
LINE
  5
EF7C88F21
330
EF7C85532
100
AcDbEntity
  8
JISSEN
100
AcDbLine
 10
435.4433102254653
 20
173.3285941605524
 30
0.0
 11
436.1932012254653
 21
173.3285941605524
 31
0.0
  0
ARC
  5
EF7C88F22
330
EF7C85532
100
AcDbEntity
  8
JISSEN
100
AcDbCircle
 10
435.4433102254653
 20
172.9785941605524
 30
0.0
 40
0.35
100
AcDbArc
 50
90.0
 51
184.0179690000004
  0
ARC
  5
EF7C88F23
330
EF7C85532
100
AcDbEntity
  8
JISSEN
100
AcDbCircle
 10
436.1932012254653
 20
173.0285941605524
 30
0.0
 40
0.3
100
AcDbArc
 50
90.0
 51
183.7443620000001
  0
ARC
  5
EF7C88F24
330
EF7C85532
100
AcDbEntity
  8
JISSEN
100
AcDbCircle
 10
437.1795522254654
 20
173.1285941605525
 30
0.0
 40
0.2
100
AcDbArc
 50
4.017969000000398
 51
90.0
  0
LINE
  5
EF7C88F25
330
EF7C85532
100
AcDbEntity
  8
JISSEN
100
AcDbLine
 10
445.2582292254653
 20
166.7293181605525
 30
0.0
 11
445.0187772254653
 21
173.1360641605524
 31
0.0
  0
LINE
  5
EF7C88F26
330
EF7C85532
100
AcDbEntity
  8
JISSEN
100
AcDbLine
 10
442.2041352254654
 20
173.0173891605524
 30
0.0
 11
442.4309692254653
 21
166.9482411605525
 31
0.0
  0
LINE
  5
EF7C88F27
330
EF7C85532
100
AcDbEntity
  8
JISSEN
100
AcDbLine
 10
442.6298772254654
 20
173.0698931605524
 30
0.0
 11
442.8438552254654
 21
166.9250531605525
 31
0.0
  0
ARC
  5
EF7C88F28
330
EF7C85532
100
AcDbEntity
  8
JISSEN
100
AcDbCircle
 10
443.4212232254655
 20
165.8317151605525
 30
0.0
 40
0.3
100
AcDbArc
 50
216.8971619999989
 51
270.0
  0
LINE
  5
EF7C88F29
330
EF7C85532
100
AcDbEntity
  8
JISSEN
100
AcDbLine
 10
443.1436732254653
 20
166.6354931605525
 30
0.0
 11
445.2770062254653
 21
166.6354931605525
 31
0.0
  0
ARC
  5
EF7C88F2A
330
EF7C85532
100
AcDbEntity
  8
JISSEN
100
AcDbCircle
 10
443.4302712254654
 20
166.9855901605524
 30
0.0
 40
1.0
100
AcDbArc
 50
182.1404319999997
 51
216.8971619999989
  0
LINE
  5
EF7C88F2B
330
EF7C85532
100
AcDbEntity
  8
JISSEN
100
AcDbLine
 10
442.6305572254654
 20
166.3852091605525
 30
0.0
 11
443.1813082254654
 21
165.6516011605525
 31
0.0
  0
ARC
  5
EF7C88F2C
330
EF7C85532
100
AcDbEntity
  8
JISSEN
100
AcDbCircle
 10
443.1436732254653
 20
166.9354931605525
 30
0.0
 40
0.3
100
AcDbArc
 50
181.994368
 51
270.0
  0
LINE
  5
EF7C88F2D
330
EF7C85532
100
AcDbEntity
  8
JISSEN
100
AcDbLine
 10
445.8500952254653
 20
165.8517921605525
 30
0.0
 11
445.3181052254654
 21
166.5604081605525
 31
0.0
  0
ARC
  5
EF7C88F2E
330
EF7C85532
100
AcDbEntity
  8
JISSEN
100
AcDbCircle
 10
445.6901522254653
 20
165.7317151605525
 30
0.0
 40
0.2
100
AcDbArc
 50
270.0
 51
36.8971619999989
  0
ARC
  5
EF7C88F2F
330
EF7C85532
100
AcDbEntity
  8
JISSEN
100
AcDbCircle
 10
445.5580202254654
 20
166.7405221605525
 30
0.0
 40
0.3
100
AcDbArc
 50
182.1404319999997
 51
216.8971619999989
  0
LINE
  5
EF7C88F30
330
EF7C85532
100
AcDbEntity
  8
JISSEN
100
AcDbLine
 10
443.4212232254655
 20
165.5317151605524
 30
0.0
 11
445.6901522254653
 21
165.5317151605524
 31
0.0
  0
LINE
  5
EF7C88F31
330
EF7C85532
100
AcDbEntity
  8
JISSEN
100
AcDbLine
 10
444.8189162254654
 20
173.3285941605524
 30
0.0
 11
442.5039252254653
 21
173.3285941605524
 31
0.0
  0
ARC
  5
EF7C88F32
330
EF7C85532
100
AcDbEntity
  8
JISSEN
100
AcDbCircle
 10
442.5039252254653
 20
173.0285941605524
 30
0.0
 40
0.3
100
AcDbArc
 50
90.0
 51
182.1404319999997
  0
ARC
  5
EF7C88F33
330
EF7C85532
100
AcDbEntity
  8
JISSEN
100
AcDbCircle
 10
442.8797252254653
 20
173.0785941605524
 30
0.0
 40
0.25
100
AcDbArc
 50
90.0
 51
181.994368
  0
ARC
  5
EF7C88F34
330
EF7C85532
100
AcDbEntity
  8
JISSEN
100
AcDbCircle
 10
444.8189162254654
 20
173.1285941605525
 30
0.0
 40
0.2
100
AcDbArc
 50
2.140431999999683
 51
90.0
  0
LINE
  5
EF7C88F35
330
EF7C85532
100
AcDbEntity
  8
SAISEN
100
AcDbLine
 10
441.3413632254654
 20
184.3698751605524
 30
0.0
 11
442.5408492254653
 21
185.5693611605524
 31
0.0
  0
LINE
  5
EF7C88F36
330
EF7C85532
100
AcDbEntity
  8
JISSEN
100
AcDbLine
 10
440.3000822254654
 20
183.3285941605524
 30
0.0
 11
441.3413632254654
 21
184.3698751605524
 31
0.0
  0
LINE
  5
EF7C88F37
330
EF7C85532
100
AcDbEntity
  8
JISSEN
100
AcDbLine
 10
466.529285242067
 20
161.992711838213
 30
0.0
 11
475.0546878513048
 21
166.0012077799235
 31
0.0
1001
ACAD
1000
ASC_BOUNDS
1002
{
1070
    19
1002
}
  0
INSERT
  5
EF7C88F38
330
EF7C85532
100
AcDbEntity
  8
SUNPOU
100
AcDbBlockReference
  2
ARROW
 10
470.7919865466858
 20
163.9969598090681
 30
0.0
 41
1.499999999999981
 42
1.5
 43
1.5
 50
146.029197483013
  0
LINE
  5
EF7C88F39
330
EF7C85532
100
AcDbEntity
  8
JISSEN
100
AcDbLine
 10
459.5000822254672
 20
151.2427118382134
 30
0.0
 11
463.6750822254676
 21
151.2427118382134
 31
0.0
  0
LINE
  5
EF7C88F3A
330
EF7C85532
100
AcDbEntity
  8
JISSEN
100
AcDbLine
 10
452.0000822254685
 20
160.2427118382129
 30
0.0
 11
464.5500822254684
 21
160.2427118382134
 31
0.0
1001
ACAD
1000
ASC_BOUNDS
1002
{
1070
    19
1002
}
  0
LINE
  5
EF7C88F3B
330
EF7C85532
100
AcDbEntity
  8
JISSEN
100
AcDbLine
 10
452.0000822254655
 20
161.9927118382131
 30
0.0
 11
466.529285242067
 21
161.992711838213
 31
0.0
1001
ACAD
1000
ASC_BOUNDS
1002
{
1070
    19
1002
}
  0
LINE
  5
EF7C88F3C
330
EF7C85532
100
AcDbEntity
  8
JISSEN
100
AcDbLine
 10
458.4616206870058
 20
160.2427118382133
 30
0.0
 11
459.5000822254673
 21
151.2427118382134
 31
0.0
  0
LINE
  5
EF7C88F3D
330
EF7C85532
100
AcDbEntity
  8
JISSEN
100
AcDbLine
 10
463.6750822254675
 20
160.2427118382134
 30
0.0
 11
463.6750822254675
 21
151.2427118382134
 31
0.0
  0
LINE
  5
EF7C88F3E
330
EF7C85532
100
AcDbEntity
  8
JISSEN
100
AcDbLine
 10
464.7500822254685
 20
161.992711838213
 30
0.0
 11
464.7500822254685
 21
160.4427118382121
 31
0.0
1001
ACAD
1000
ASC_BOUNDS
1002
{
1070
    19
1002
}
  0
ARC
  5
EF7C88F3F
330
EF7C85532
100
AcDbEntity
  8
JISSEN
100
AcDbCircle
 10
464.5500822254684
 20
160.4427118382133
 30
0.0
 40
0.2
100
AcDbArc
 50
270.0
 51
359.9999999999991
1001
ACAD
1000
ASC_BOUNDS
1002
{
1070
    19
1002
}
  0
LINE
  5
EF7C88F40
330
EF7C85532
100
AcDbEntity
  8
JISSEN
100
AcDbLine
 10
459.1812482254653
 20
173.3285941605524
 30
0.0
 11
461.4962392254652
 21
173.3285941605524
 31
0.0
  0
ARC
  5
EF7C88F41
330
EF7C85532
100
AcDbEntity
  8
JISSEN
100
AcDbCircle
 10
460.8564912254654
 20
166.9354931605525
 30
0.0
 40
0.3
100
AcDbArc
 50
270.0
 51
358.0056319999998
  0
LINE
  5
EF7C88F42
330
EF7C85532
100
AcDbEntity
  8
JISSEN
100
AcDbLine
 10
461.3696072254652
 20
166.3852091605525
 30
0.0
 11
460.8188562254653
 21
165.6516011605525
 31
0.0
  0
LINE
  5
EF7C88F43
330
EF7C85532
100
AcDbEntity
  8
JISSEN
100
AcDbLine
 10
452.0000822254655
 20
185.5693611605524
 30
0.0
 11
462.6213152254654
 21
185.5693611605524
 31
0.0
  0
ARC
  5
EF7C88F44
330
EF7C85532
100
AcDbEntity
  8
JISSEN
100
AcDbCircle
 10
452.0000822254655
 20
175.8285941605524
 30
0.0
 40
1.0
100
AcDbArc
 50
270.0
 51
0.000000000000007
  0
ARC
  5
EF7C88F45
330
EF7C85532
100
AcDbEntity
  8
JISSEN
100
AcDbCircle
 10
452.0000822254655
 20
175.8285941605524
 30
0.0
 40
1.0
100
AcDbArc
 50
180.0
 51
270.0
  0
LINE
  5
EF7C88F46
330
EF7C85532
100
AcDbEntity
  8
JISSEN
100
AcDbLine
 10
453.5000822254653
 20
172.8285941605524
 30
0.0
 11
453.5000822254653
 21
166.0317151605525
 31
0.0
  0
LINE
  5
EF7C88F47
330
EF7C85532
100
AcDbEntity
  8
JISSEN
100
AcDbLine
 10
450.5000822254654
 20
172.8285941605524
 30
0.0
 11
450.5000822254654
 21
166.0317151605525
 31
0.0
  0
LINE
  5
EF7C88F48
330
EF7C85532
100
AcDbEntity
  8
JISSEN
100
AcDbLine
 10
453.0000822254653
 20
166.6354931605525
 30
0.0
 11
452.0000822254655
 21
166.6354931605525
 31
0.0
  0
LINE
  5
EF7C88F49
330
EF7C85532
100
AcDbEntity
  8
JISSEN
100
AcDbLine
 10
452.0000822254655
 20
165.5317151605524
 30
0.0
 11
453.0000822254653
 21
165.5317151605524
 31
0.0
  0
ARC
  5
EF7C88F4A
330
EF7C85532
100
AcDbEntity
  8
JISSEN
100
AcDbCircle
 10
453.0000822254653
 20
166.0317151605525
 30
0.0
 40
0.5
100
AcDbArc
 50
270.0
 51
0.000000000000007
  0
ARC
  5
EF7C88F4B
330
EF7C85532
100
AcDbEntity
  8
JISSEN
100
AcDbCircle
 10
453.0000822254653
 20
167.1354931605524
 30
0.0
 40
0.5
100
AcDbArc
 50
270.0
 51
0.000000000000007
  0
ARC
  5
EF7C88F4C
330
EF7C85532
100
AcDbEntity
  8
JISSEN
100
AcDbCircle
 10
451.0000822254654
 20
167.1354931605524
 30
0.0
 40
0.5
100
AcDbArc
 50
180.0
 51
270.0
  0
ARC
  5
EF7C88F4D
330
EF7C85532
100
AcDbEntity
  8
JISSEN
100
AcDbCircle
 10
451.0000822254654
 20
166.0317151605525
 30
0.0
 40
0.5
100
AcDbArc
 50
180.0
 51
270.0
  0
LINE
  5
EF7C88F4E
330
EF7C85532
100
AcDbEntity
  8
JISSEN
100
AcDbLine
 10
452.0000822254655
 20
165.5317151605524
 30
0.0
 11
451.0000822254654
 21
165.5317151605524
 31
0.0
  0
LINE
  5
EF7C88F4F
330
EF7C85532
100
AcDbEntity
  8
JISSEN
100
AcDbLine
 10
451.0000822254654
 20
166.6354931605525
 30
0.0
 11
452.0000822254655
 21
166.6354931605525
 31
0.0
  0
LINE
  5
EF7C88F50
330
EF7C85532
100
AcDbEntity
  8
JISSEN
100
AcDbLine
 10
452.0000822254655
 20
173.3285941605524
 30
0.0
 11
453.0000822254653
 21
173.3285941605524
 31
0.0
  0
ARC
  5
EF7C88F51
330
EF7C85532
100
AcDbEntity
  8
JISSEN
100
AcDbCircle
 10
453.0000822254653
 20
172.8285941605524
 30
0.0
 40
0.5
100
AcDbArc
 50
0.000000000000007
 51
90.0
  0
ARC
  5
EF7C88F52
330
EF7C85532
100
AcDbEntity
  8
JISSEN
100
AcDbCircle
 10
451.0000822254654
 20
172.8285941605524
 30
0.0
 40
0.5
100
AcDbArc
 50
90.0
 51
180.0
  0
LINE
  5
EF7C88F53
330
EF7C85532
100
AcDbEntity
  8
JISSEN
100
AcDbLine
 10
452.0000822254655
 20
173.3285941605524
 30
0.0
 11
451.0000822254654
 21
173.3285941605524
 31
0.0
  0
LINE
  5
EF7C88F54
330
EF7C85532
100
AcDbEntity
  8
JISSEN
100
AcDbLine
 10
458.7419352254654
 20
166.7293181605525
 30
0.0
 11
458.9813872254653
 21
173.1360641605524
 31
0.0
  0
LINE
  5
EF7C88F55
330
EF7C85532
100
AcDbEntity
  8
JISSEN
100
AcDbLine
 10
460.8564912254654
 20
166.6354931605525
 30
0.0
 11
458.7231582254654
 21
166.6354931605525
 31
0.0
  0
LINE
  5
EF7C88F56
330
EF7C85532
100
AcDbEntity
  8
JISSEN
100
AcDbLine
 10
460.5789412254654
 20
165.5317151605524
 30
0.0
 11
458.3100122254655
 21
165.5317151605524
 31
0.0
  0
ARC
  5
EF7C88F57
330
EF7C85532
100
AcDbEntity
  8
JISSEN
100
AcDbCircle
 10
458.4421442254654
 20
166.7405221605525
 30
0.0
 40
0.3
100
AcDbArc
 50
323.1028380000011
 51
357.8595680000001
  0
LINE
  5
EF7C88F58
330
EF7C85532
100
AcDbEntity
  8
JISSEN
100
AcDbLine
 10
458.1500692254654
 20
165.8517921605525
 30
0.0
 11
458.6820592254653
 21
166.5604081605525
 31
0.0
  0
ARC
  5
EF7C88F59
330
EF7C85532
100
AcDbEntity
  8
JISSEN
100
AcDbCircle
 10
460.5789412254654
 20
165.8317151605525
 30
0.0
 40
0.3
100
AcDbArc
 50
270.0
 51
323.1028380000011
  0
ARC
  5
EF7C88F5A
330
EF7C85532
100
AcDbEntity
  8
JISSEN
100
AcDbCircle
 10
458.3100122254655
 20
165.7317151605525
 30
0.0
 40
0.2
100
AcDbArc
 50
143.1028380000009
 51
270.0
  0
ARC
  5
EF7C88F5B
330
EF7C85532
100
AcDbEntity
  8
JISSEN
100
AcDbCircle
 10
459.1812482254653
 20
173.1285941605525
 30
0.0
 40
0.2
100
AcDbArc
 50
90.0
 51
177.8595680000003
  0
LINE
  5
EF7C88F5C
330
EF7C85532
100
AcDbEntity
  8
JISSEN
100
AcDbLine
 10
453.0000822254653
 20
182.8285941605524
 30
0.0
 11
453.0000822254653
 21
175.8285941605524
 31
0.0
  0
LINE
  5
EF7C88F5D
330
EF7C85532
100
AcDbEntity
  8
JISSEN
100
AcDbLine
 10
451.0000822254654
 20
182.8285941605524
 30
0.0
 11
451.0000822254654
 21
175.8285941605524
 31
0.0
  0
ARC
  5
EF7C88F5E
330
EF7C85532
100
AcDbEntity
  8
JISSEN
100
AcDbCircle
 10
452.0000822254655
 20
182.0785941605524
 30
0.0
 40
1.25
100
AcDbArc
 50
36.86989800000061
 51
90.0
  0
ARC
  5
EF7C88F5F
330
EF7C85532
100
AcDbEntity
  8
JISSEN
100
AcDbCircle
 10
452.0000822254655
 20
182.0785941605524
 30
0.0
 40
1.25
100
AcDbArc
 50
90.0
 51
143.1301019999993
  0
ARC
  5
EF7C88F60
330
EF7C85532
100
AcDbEntity
  8
JISSEN
100
AcDbCircle
 10
467.8069632254653
 20
173.0285941605524
 30
0.0
 40
0.3
100
AcDbArc
 50
356.2556379999997
 51
90.0
  0
LINE
  5
EF7C88F61
330
EF7C85532
100
AcDbEntity
  8
JISSEN
100
AcDbLine
 10
468.5568542254653
 20
173.3285941605524
 30
0.0
 11
467.8069632254653
 21
173.3285941605524
 31
0.0
  0
ARC
  5
EF7C88F62
330
EF7C85532
100
AcDbEntity
  8
JISSEN
100
AcDbCircle
 10
467.3049092254654
 20
167.2861221605525
 30
0.0
 40
1.199999999999999
100
AcDbArc
 50
305.3270680000005
 51
355.9820309999996
  0
LINE
  5
EF7C88F63
330
EF7C85532
100
AcDbEntity
  8
JISSEN
100
AcDbLine
 10
468.1063222254654
 20
173.0090021605524
 30
0.0
 11
467.7136792254653
 21
167.0093711605525
 31
0.0
  0
LINE
  5
EF7C88F64
330
EF7C85532
100
AcDbEntity
  8
JISSEN
100
AcDbLine
 10
466.6211032254653
 20
173.1426081605524
 30
0.0
 11
466.1772962254653
 21
166.8243421605525
 31
0.0
  0
LINE
  5
EF7C88F65
330
EF7C85532
100
AcDbEntity
  8
JISSEN
100
AcDbLine
 10
461.3702872254654
 20
173.0698931605524
 30
0.0
 11
461.1563092254653
 21
166.9250531605525
 31
0.0
  0
LINE
  5
EF7C88F66
330
EF7C85532
100
AcDbEntity
  8
JISSEN
100
AcDbLine
 10
461.7960292254654
 20
173.0173891605524
 30
0.0
 11
461.5691952254654
 21
166.9482411605525
 31
0.0
  0
ARC
  5
EF7C88F67
330
EF7C85532
100
AcDbEntity
  8
JISSEN
100
AcDbCircle
 10
460.5698932254654
 20
166.9855901605524
 30
0.0
 40
1.0
100
AcDbArc
 50
323.1028380000011
 51
357.8595680000001
  0
LINE
  5
EF7C88F68
330
EF7C85532
100
AcDbEntity
  8
JISSEN
100
AcDbLine
 10
467.3145332254653
 20
166.6354931605525
 30
0.0
 11
466.1143812254653
 21
166.6354931605525
 31
0.0
  0
LINE
  5
EF7C88F69
330
EF7C85532
100
AcDbEntity
  8
JISSEN
100
AcDbLine
 10
466.9957352254654
 20
165.5961631605524
 30
0.0
 11
467.9988012254653
 21
166.3070851605525
 31
0.0
  0
ARC
  5
EF7C88F6A
330
EF7C85532
100
AcDbEntity
  8
JISSEN
100
AcDbCircle
 10
465.7782792254653
 20
166.8523701605525
 30
0.0
 40
0.4
100
AcDbArc
 50
305.3270680000005
 51
355.9820309999996
  0
ARC
  5
EF7C88F6B
330
EF7C85532
100
AcDbEntity
  8
JISSEN
100
AcDbCircle
 10
466.7933502254654
 20
165.8817151605525
 30
0.0
 40
0.35
100
AcDbArc
 50
270.0
 51
305.3270680000005
  0
ARC
  5
EF7C88F6C
330
EF7C85532
100
AcDbEntity
  8
JISSEN
100
AcDbCircle
 10
467.3145332254653
 20
167.0354931605525
 30
0.0
 40
0.4
100
AcDbArc
 50
270.0
 51
356.2556379999997
  0
ARC
  5
EF7C88F6D
330
EF7C85532
100
AcDbEntity
  8
JISSEN
100
AcDbCircle
 10
465.0777172254653
 20
165.6817151605524
 30
0.0
 40
0.15
100
AcDbArc
 50
125.3270680000005
 51
270.0
  0
LINE
  5
EF7C88F6E
330
EF7C85532
100
AcDbEntity
  8
JISSEN
100
AcDbLine
 10
466.0095762254654
 20
166.5260241605525
 30
0.0
 11
464.9909812254654
 21
165.8040951605524
 31
0.0
  0
LINE
  5
EF7C88F6F
330
EF7C85532
100
AcDbEntity
  8
JISSEN
100
AcDbLine
 10
465.0777172254653
 20
165.5317151605524
 30
0.0
 11
466.7933502254654
 21
165.5317151605524
 31
0.0
  0
ARC
  5
EF7C88F70
330
EF7C85532
100
AcDbEntity
  8
JISSEN
100
AcDbCircle
 10
461.1204392254655
 20
173.0785941605524
 30
0.0
 40
0.25
100
AcDbArc
 50
358.0056319999998
 51
90.0
  0
ARC
  5
EF7C88F71
330
EF7C85532
100
AcDbEntity
  8
JISSEN
100
AcDbCircle
 10
461.4962392254652
 20
173.0285941605524
 30
0.0
 40
0.3
100
AcDbArc
 50
357.8595680000001
 51
90.0
  0
LINE
  5
EF7C88F72
330
EF7C85532
100
AcDbEntity
  8
JISSEN
100
AcDbLine
 10
467.8069632254653
 20
173.3285941605524
 30
0.0
 11
466.8206122254654
 21
173.3285941605524
 31
0.0
  0
ARC
  5
EF7C88F73
330
EF7C85532
100
AcDbEntity
  8
JISSEN
100
AcDbCircle
 10
466.8206122254654
 20
173.1285941605525
 30
0.0
 40
0.2
100
AcDbArc
 50
90.0
 51
175.9820309999995
  0
LINE
  5
EF7C88F74
330
EF7C85532
100
AcDbEntity
  8
JISSEN
100
AcDbLine
 10
473.9732442254655
 20
172.8909071605524
 30
0.0
 11
473.4475422254654
 21
167.3359611605524
 31
0.0
  0
LINE
  5
EF7C88F75
330
EF7C85532
100
AcDbEntity
  8
JISSEN
100
AcDbLine
 10
472.9108232254652
 20
173.1110271605524
 30
0.0
 11
472.3800692254654
 21
167.0915771605525
 31
0.0
  0
LINE
  5
EF7C88F76
330
EF7C85532
100
AcDbEntity
  8
JISSEN
100
AcDbLine
 10
468.5019592254653
 20
167.2020391605524
 30
0.0
 11
468.9059932254654
 21
172.9540691605524
 31
0.0
  0
LINE
  5
EF7C88F77
330
EF7C85532
100
AcDbEntity
  8
JISSEN
100
AcDbLine
 10
471.9058912254653
 20
166.9061441605525
 30
0.0
 11
472.4739992254654
 21
173.1467261605524
 31
0.0
  0
LINE
  5
EF7C88F78
330
EF7C85532
100
AcDbEntity
  8
JISSEN
100
AcDbLine
 10
470.1413572254653
 20
165.7202171605525
 30
0.0
 11
471.6407322254654
 21
166.5089671605525
 31
0.0
  0
LINE
  5
EF7C88F79
330
EF7C85532
100
AcDbEntity
  8
JISSEN
100
AcDbLine
 10
472.7585582254653
 20
166.3079231605524
 30
0.0
 11
471.3704592254654
 21
165.5777101605524
 31
0.0
  0
ARC
  5
EF7C88F7A
330
EF7C85532
100
AcDbEntity
  8
JISSEN
100
AcDbCircle
 10
470.1879142254654
 20
165.6317151605524
 30
0.0
 40
0.1
100
AcDbArc
 50
117.7467380000011
 51
270.0
  0
ARC
  5
EF7C88F7B
330
EF7C85532
100
AcDbEntity
  8
JISSEN
100
AcDbCircle
 10
471.1842332254653
 20
165.9317151605524
 30
0.0
 40
0.4
100
AcDbArc
 50
270.0
 51
297.7467380000011
  0
LINE
  5
EF7C88F7C
330
EF7C85532
100
AcDbEntity
  8
JISSEN
100
AcDbLine
 10
471.1842332254653
 20
165.5317151605524
 30
0.0
 11
470.1879142254654
 21
165.5317151605524
 31
0.0
  0
LINE
  5
EF7C88F7D
330
EF7C85532
100
AcDbEntity
  8
JISSEN
100
AcDbLine
 10
472.8649892254654
 20
165.6493311605524
 30
0.0
 11
474.3768482254654
 21
166.3487221605525
 31
0.0
  0
LINE
  5
EF7C88F7E
330
EF7C85532
100
AcDbEntity
  8
JISSEN
100
AcDbLine
 10
474.8464092254653
 20
166.3249521605524
 30
0.0
 11
473.3795112254654
 21
165.6463601605524
 31
0.0
  0
ARC
  5
EF7C88F7F
330
EF7C85532
100
AcDbEntity
  8
JISSEN
100
AcDbCircle
 10
472.1533252254653
 20
167.4584421605525
 30
0.0
 40
1.3
100
AcDbArc
 50
297.7467380000011
 51
354.5938149999994
  0
ARC
  5
EF7C88F80
330
EF7C85532
100
AcDbEntity
  8
JISSEN
100
AcDbCircle
 10
472.9596562254654
 20
166.5539521605525
 30
0.0
 40
1.0
100
AcDbArc
 50
270.0
 51
294.825405
  0
LINE
  5
EF7C88F81
330
EF7C85532
100
AcDbEntity
  8
JISSEN
100
AcDbLine
 10
472.9596562254654
 20
165.5539521605525
 30
0.0
 11
472.8859812254653
 21
165.5539521605525
 31
0.0
  0
ARC
  5
EF7C88F82
330
EF7C85532
100
AcDbEntity
  8
JISSEN
100
AcDbCircle
 10
472.8859812254653
 20
165.6039521605524
 30
0.0
 40
0.05
100
AcDbArc
 50
114.825405
 51
270.0
  0
ARC
  5
EF7C88F83
330
EF7C85532
100
AcDbEntity
  8
JISSEN
100
AcDbCircle
 10
471.4079502254654
 20
166.9514741605524
 30
0.0
 40
0.5
100
AcDbArc
 50
297.7467380000011
 51
354.7984409999997
  0
ARC
  5
EF7C88F84
330
EF7C85532
100
AcDbEntity
  8
JISSEN
100
AcDbCircle
 10
471.8820012254654
 20
167.1354931605524
 30
0.0
 40
0.5
100
AcDbArc
 50
260.6504449999984
 51
354.9610729999998
  0
ARC
  5
EF7C88F85
330
EF7C85532
100
AcDbEntity
  8
JISSEN
100
AcDbCircle
 10
468.5568542254653
 20
172.9785941605524
 30
0.0
 40
0.35
100
AcDbArc
 50
355.9820309999996
 51
90.0
  0
ARC
  5
EF7C88F86
330
EF7C85532
100
AcDbEntity
  8
JISSEN
100
AcDbCircle
 10
472.6731762254654
 20
173.1285941605525
 30
0.0
 40
0.2
100
AcDbArc
 50
90.0
 51
174.7984409999996
  0
LINE
  5
EF7C88F87
330
EF7C85532
100
AcDbEntity
  8
JISSEN
100
AcDbLine
 10
472.6731762254654
 20
173.3285941605524
 30
0.0
 11
473.5750232254654
 21
173.3285941605524
 31
0.0
  0
ARC
  5
EF7C88F88
330
EF7C85532
100
AcDbEntity
  8
JISSEN
100
AcDbCircle
 10
473.5750232254654
 20
172.9285941605524
 30
0.0
 40
0.4
100
AcDbArc
 50
354.5938149999994
 51
90.0
  0
ARC
  5
EF7C88F89
330
EF7C85532
100
AcDbEntity
  8
JISSEN
100
AcDbCircle
 10
472.7115962254654
 20
173.1285941605525
 30
0.0
 40
0.2
100
AcDbArc
 50
354.9610729999998
 51
90.0
  0
LINE
  5
EF7C88F8A
330
EF7C85532
100
AcDbEntity
  8
JISSEN
100
AcDbLine
 10
463.7000822254654
 20
183.3285941605524
 30
0.0
 11
462.6588012254654
 21
184.3698751605524
 31
0.0
  0
LINE
  5
EF7C88F8B
330
EF7C85532
100
AcDbEntity
  8
SAISEN
100
AcDbLine
 10
462.6588012254654
 20
184.3698751605524
 30
0.0
 11
461.4593152254654
 21
185.5693611605524
 31
0.0
  0
LINE
  5
EF7C88F8C
330
EF7C85532
100
AcDbEntity
  8
JISSEN
100
AcDbLine
 10
443.0000822254654
 20
201.3285941605561
 30
0.0
 11
452.0000822254655
 21
201.328594160556
 31
0.0
  0
LINE
  5
EF7C88F8D
330
EF7C85532
100
AcDbEntity
  8
JISSEN
100
AcDbLine
 10
441.7381582254654
 20
200.0666691605561
 30
0.0
 11
452.0000822254655
 21
200.0666691605561
 31
0.0
  0
LINE
  5
EF7C88F8E
330
EF7C85532
100
AcDbEntity
  8
JISSEN
100
AcDbLine
 10
441.7381582254654
 20
200.0666691605561
 30
0.0
 11
443.0000822254654
 21
201.3285941605561
 31
0.0
  0
LINE
  5
EF7C88F8F
330
EF7C85532
100
AcDbEntity
  8
JISSEN
100
AcDbLine
 10
462.2620062254653
 20
200.0666691605561
 30
0.0
 11
452.0000822254655
 21
200.0666691605561
 31
0.0
  0
LINE
  5
EF7C88F90
330
EF7C85532
100
AcDbEntity
  8
JISSEN
100
AcDbLine
 10
461.0000822254654
 20
201.3285941605561
 30
0.0
 11
452.0000822254655
 21
201.328594160556
 31
0.0
  0
LINE
  5
EF7C88F91
330
EF7C85532
100
AcDbEntity
  8
JISSEN
100
AcDbLine
 10
462.2620062254653
 20
200.0666691605561
 30
0.0
 11
461.0000822254654
 21
201.3285941605561
 31
0.0
  0
LINE
  5
EF7C88F93
330
EF7C85532
100
AcDbEntity
  8
JISSEN
100
AcDbLine
 10
453.4999980634493
 20
264.9999999999999
 30
0.0
 11
453.4999980634493
 21
282.9999999999998
 31
0.0
  0
LINE
  5
EF7C88F94
330
EF7C85532
100
AcDbEntity
  8
JISSEN
100
AcDbLine
 10
463.4999980634493
 20
282.9999999999998
 30
0.0
 11
463.4999980634493
 21
264.9999999999999
 31
0.0
  0
TEXT
  5
EF7C88F95
330
EF7C85532
100
AcDbEntity
  8
TEXT
100
AcDbText
 10
457.2857123491636
 20
272.4999999999999
 30
0.0
 40
3.0
  1
1
  7
K
 72
     4
 11
458.4999980634493
 21
273.9999999999999
 31
0.0
100
AcDbText
  0
LWPOLYLINE
  5
EF7C88F96
330
EF7C85532
100
AcDbEntity
  8
NITEN
100
AcDbPolyline
 90
        5
 70
     0
 43
0.0
 10
468.9999987874493
 20
231.4391430662799
 10
468.9999987874493
 20
252.2768607174258
 42
-0.5882352941176476
 10
451.9999987874493
 20
252.2768607174258
 42
0.5882352941176477
 10
434.9999987874493
 20
252.2768607174254
 10
434.9999987874493
 20
231.4391430662799
  0
LWPOLYLINE
  5
EF7C88F97
330
EF7C85532
100
AcDbEntity
  8
NITEN
100
AcDbPolyline
 90
        2
 70
     0
 43
0.0
 10
468.9999987874493
 20
252.2768607174258
 42
0.5882352941176295
 10
451.9999987874491
 20
252.2768607174261
 42
0.5882352941176295
  0
TEXT
  5
EF7C88F98
330
EF7C85532
100
AcDbEntity
  8
TEXT
100
AcDbText
 10
457.3830704689837
 20
266.4999999999999
 30
0.0
 40
3.0
  1
2
  7
K
 72
     4
 11
458.8116418975551
 21
267.9999999999999
 31
0.0
100
AcDbText
  0
TEXT
  5
EF7C88F99
330
EF7C85532
100
AcDbEntity
  8
TEXT
100
AcDbText
 10
455.2999980634493
 20
278.4999999999999
 30
0.0
 40
3.0
  1
番号
  7
K
 72
     4
 11
458.4999980634493
 21
279.9999999999999
 31
0.0
100
AcDbText
  0
TEXT
  5
EF7C88F9A
330
EF7C85532
100
AcDbEntity
  8
SUNPOU
100
AcDbText
 10
512.6873214318419
 20
149.3494238986851
 30
0.0
 40
3.0
  1
MFJ   作動状態
  7
K
100
AcDbText
  0
LWPOLYLINE
  5
EF7C88F9B
330
EF7C85532
100
AcDbEntity
  8
HATCH
100
AcDbPolyline
 90
       13
 70
     0
 43
0.0
 10
520.7336677765749
 20
188.3285941605524
 10
520.5690805983249
 20
187.5089570823205
 10
520.4271752416445
 20
186.9923391055561
 10
520.1994666044968
 20
186.5739128188684
 10
519.8915791178375
 20
186.2357957952014
 10
519.5253558288579
 20
185.9455447225513
 10
519.1226397847493
 20
185.6707162889138
 10
518.7052740327024
 20
185.3788671822847
 10
518.2951016199085
 20
185.0375540906601
 10
517.9139655935588
 20
184.6143337020356
 10
517.5837090008443
 20
184.0767627044075
 10
517.3091289376416
 20
183.4131439171199
 10
517.2759047431449
 20
183.3285941605524
  0
CIRCLE
  5
EF7C88F9C
330
EF7C85532
100
AcDbEntity
  8
SUNPOU
100
AcDbCircle
 10
490.0289512540398
 20
151.0357213768291
 30
0.0
 40
6.0
  0
TEXT
  5
EF7C88F9D
330
EF7C85532
100
AcDbEntity
  8
SUNPOU
100
AcDbText
 10
488.2075226826112
 20
148.7857213768291
 30
0.0
 40
4.5
  1
1
  7
K
 72
     4
 11
490.0289512540398
 21
151.0357213768291
 31
0.0
100
AcDbText
  0
LINE
  5
EF7C88F9E
330
EF7C85532
100
AcDbEntity
  8
JISSEN
100
AcDbLine
 10
476.6000822254652
 20
174.8285941605525
 30
0.0
 11
476.4688492254654
 21
173.3285941605524
 31
0.0
  0
LINE
  5
EF7C88F9F
330
EF7C85532
100
AcDbEntity
  8
JISSEN
100
AcDbLine
 10
476.4688492254654
 20
173.3285941605524
 30
0.0
 11
475.9484952254653
 21
167.3809171605525
 31
0.0
  0
LINE
  5
EF7C88FA0
330
EF7C85532
100
AcDbEntity
  8
JISSEN
100
AcDbLine
 10
476.2384062254652
 20
172.9080301605524
 30
0.0
 11
475.6505762254653
 21
167.4457811605525
 31
0.0
  0
ARC
  5
EF7C88FA1
330
EF7C85532
100
AcDbEntity
  8
JISSEN
100
AcDbCircle
 10
475.8407032254654
 20
172.9508301605524
 30
0.0
 40
0.4
100
AcDbArc
 50
353.8576430000002
 51
88.64114499999931
  0
ARC
  5
EF7C88FA2
330
EF7C85532
100
AcDbEntity
  8
JISSEN
100
AcDbCircle
 10
475.8549302254654
 20
173.2508301605524
 30
0.0
 40
0.1
100
AcDbArc
 50
92.7179019999998
 51
173.8576429999999
  0
LINE
  5
EF7C88FA3
330
EF7C85532
100
AcDbEntity
  8
JISSEN
100
AcDbLine
 10
478.5000822254653
 20
183.1785941605524
 30
0.0
 11
478.5000822254653
 21
175.8285941605524
 31
0.0
  0
LINE
  5
EF7C88FA4
330
EF7C85532
100
AcDbEntity
  8
JISSEN
100
AcDbLine
 10
478.5000822254653
 20
175.8285941605524
 30
0.0
 11
477.5000822254654
 21
174.8285941605525
 31
0.0
  0
LINE
  5
EF7C88FA5
330
EF7C85532
100
AcDbEntity
  8
JISSEN
100
AcDbLine
 10
477.5000822254654
 20
174.8285941605525
 30
0.0
 11
476.6000822254652
 21
174.8285941605525
 31
0.0
  0
LINE
  5
EF7C88FA6
330
EF7C85532
100
AcDbEntity
  8
JISSEN
100
AcDbLine
 10
478.5000822254653
 20
183.1785941605524
 30
0.0
 11
478.3500822254652
 21
183.3285941605524
 31
0.0
  0
TEXT
  5
EF7C88FA7
330
EF7C85532
100
AcDbEntity
  8
SUNPOU
100
AcDbText
 10
512.6873214318419
 20
144.3494238986851
 30
0.0
 40
3.0
  1
尺度　1/1
  7
K
100
AcDbText
  0
TEXT
  5
EF7C88FAC
330
EF7C85532
100
AcDbEntity
  8
TEXT
100
AcDbText
 10
527.6999980634493
 20
278.4999999999999
 30
0.0
 40
3.0
  1
備    考
  7
K
 72
     4
 11
534.4999980634493
 21
279.9999999999999
 31
0.0
100
AcDbText
  0
LINE
  5
EF7C88FAE
330
EF7C85532
100
AcDbEntity
  8
JISSEN
100
AcDbLine
 10
493.4999980634493
 20
282.9999999999998
 30
0.0
 11
493.4999980634493
 21
264.9999999999999
 31
0.0
  0
LINE
  5
EF7C88FAF
330
EF7C85532
100
AcDbEntity
  8
JISSEN
100
AcDbLine
 10
514.4999980634493
 20
264.9999999999999
 30
0.0
 11
514.4999980634493
 21
282.9999999999998
 31
0.0
  0
LINE
  5
EF7C88FB0
330
EF7C85532
100
AcDbEntity
  8
JISSEN
100
AcDbLine
 10
525.4999980634493
 20
282.9999999999998
 30
0.0
 11
525.4999980634493
 21
264.9999999999999
 31
0.0
  0
TEXT
  5
EF7C88FB1
330
EF7C85532
100
AcDbEntity
  8
TEXT
100
AcDbText
 10
518.6795465498586
 20
272.4999999999999
 30
0.0
 40
3.0
  1
1
  7
K
 72
     4
 11
519.8938322641443
 21
273.9999999999999
 31
0.0
100
AcDbText
  0
TEXT
  5
EF7C88FB2
330
EF7C85532
100
AcDbEntity
  8
TEXT
100
AcDbText
 10
499.8571409205921
 20
266.4999999999999
 30
0.0
 40
3.0
  1
ADC
  7
K
 72
     4
 11
503.9999980634493
 21
267.9999999999999
 31
0.0
100
AcDbText
  0
TEXT
  5
EF7C88FB3
330
EF7C85532
100
AcDbEntity
  8
TEXT
100
AcDbText
 10
498.8249980634493
 20
274.2999999999999
 30
0.0
 40
3.0
  1
%%u      
  7
K
 72
     4
 11
503.9999980634493
 21
273.9999999999999
 31
0.0
100
AcDbText
  0
TEXT
  5
EF7C88FB4
330
EF7C85532
100
AcDbEntity
  8
TEXT
100
AcDbText
 10
518.6795465498586
 20
266.580835176341
 30
0.0
 40
3.0
  1
1
  7
K
 72
     4
 11
519.8938322641443
 21
268.0808351763409
 31
0.0
100
AcDbText
  0
TEXT
  5
EF7C88FB5
330
EF7C85532
100
AcDbEntity
  8
TEXT
100
AcDbText
 10
497.1999980634492
 20
278.4999999999999
 30
0.0
 40
3.0
  1
材    質
  7
K
 72
     4
 11
503.9999980634493
 21
279.9999999999999
 31
0.0
100
AcDbText
  0
TEXT
  5
EF7C88FB6
330
EF7C85532
100
AcDbEntity
  8
TEXT
100
AcDbText
 10
516.7999980634492
 20
278.4999999999999
 30
0.0
 40
3.0
  1
個数
  7
K
 72
     4
 11
519.9999980634493
 21
279.9999999999999
 31
0.0
100
AcDbText
  0
LINE
  5
EF7C88FB7
330
EF7C85532
100
AcDbEntity
  8
JISSEN
100
AcDbLine
 10
280.8819152495894
 20
30.74271163855424
 30
0.0
 11
283.5500827140115
 21
30.74271163855385
 31
0.0
1001
ACAD
1000
ASC_BOUNDS
1002
{
1070
    19
1002
}
  0
LINE
  5
EF7C88FB9
330
EF7C85532
100
AcDbEntity
  8
JISSEN
100
AcDbLine
 10
277.2005870056923
 20
28.12859396089317
 30
0.0
 11
271.000082714014
 21
28.12859396089425
 31
0.0
  0
LINE
  5
EF7C88FBA
330
EF7C85532
100
AcDbEntity
  8
JISSEN
100
AcDbLine
 10
276.6247909531386
 20
26.62859396089147
 30
0.0
 11
271.000082714014
 21
26.62859396089146
 31
0.0
  0
LINE
  5
EF7C88FBB
330
EF7C85532
100
AcDbEntity
  8
JISSEN
100
AcDbLine
 10
278.7268573846787
 20
25.12859396089293
 30
0.0
 11
282.7500827140108
 21
25.12859396089222
 31
0.0
  0
LINE
  5
EF7C88FBC
330
EF7C85532
100
AcDbEntity
  8
TEXT
100
AcDbLine
 10
308.1404868390291
 20
269.5000369239013
 30
0.0
 11
308.1404868390291
 21
266.5000369239013
 31
0.0
  0
LINE
  5
EF7C88FBD
330
EF7C85532
100
AcDbEntity
  8
TEXT
100
AcDbLine
 10
307.240486839029
 20
269.5000369239013
 30
0.0
 11
307.240486839029
 21
266.5000369239013
 31
0.0
  0
LINE
  5
EF7C88FBE
330
EF7C85532
100
AcDbEntity
  8
TEXT
100
AcDbLine
 10
306.790486839029
 20
266.5000369239013
 30
0.0
 11
308.590486839029
 21
266.5000369239013
 31
0.0
  0
LINE
  5
EF7C88FBF
330
EF7C85532
100
AcDbEntity
  8
TEXT
100
AcDbLine
 10
306.790486839029
 20
269.5000369239013
 30
0.0
 11
308.590486839029
 21
269.5000369239013
 31
0.0
  0
TEXT
  5
EF7C88FC0
330
EF7C85532
100
AcDbEntity
  8
TEXT
100
AcDbText
 10
466.2571409205922
 20
266.4999999999999
 30
0.0
 40
3.0
  1
ガード MFJ  
  7
K
 72
     4
 11
478.4999980634493
 21
267.9999999999999
 31
0.0
100
AcDbText
  0
LINE
  5
EF7C88FC1
330
EF7C85532
100
AcDbEntity
  8
TEXT
100
AcDbLine
 10
488.2404863504783
 20
269.5000369239013
 30
0.0
 11
488.2404863504783
 21
266.5000369239013
 31
0.0
  0
LINE
  5
EF7C88FC2
330
EF7C85532
100
AcDbEntity
  8
TEXT
100
AcDbLine
 10
489.1404863504783
 20
269.5000369239013
 30
0.0
 11
489.1404863504783
 21
266.5000369239013
 31
0.0
  0
LINE
  5
EF7C88FC3
330
EF7C85532
100
AcDbEntity
  8
TEXT
100
AcDbLine
 10
487.7904863504784
 20
266.5000369239013
 30
0.0
 11
489.5904863504783
 21
266.5000369239013
 31
0.0
  0
LINE
  5
EF7C88FC4
330
EF7C85532
100
AcDbEntity
  8
TEXT
100
AcDbLine
 10
487.7904863504784
 20
269.5000369239013
 30
0.0
 11
489.5904863504783
 21
269.5000369239013
 31
0.0
  0
INSERT
  5
EF7C89048
330
EF7C85532
100
AcDbEntity
  8
WAKU
100
AcDbBlockReference
  2
WAKU
 10
-0.0000002354493063
 20
0.0
 30
0.0
 41
181.0
 42
283.0
 43
181.0
  0
HATCH
  5
EF7C8914B
330
EF7C85532
100
AcDbEntity
  8
HATCH
100
AcDbHatch
 10
0.0
 20
0.0
 30
0.0
210
0.0
220
0.0
230
1.0
  2
_U
 70
     0
 71
     1
 91
        2
 92
        7
 72
     0
 73
     1
 93
       15
 10
107.5000832025666
 20
188.3285941605524
 10
107.5000832025666
 20
183.3285941605524
 10
116.3500832025667
 20
183.3285941605524
 10
155.2741464604664
 20
183.3285941605524
 10
155.5837099779456
 20
184.0767627044074
 10
155.9139665706602
 20
184.6143337020357
 10
156.2951025970098
 20
185.0375540906601
 10
156.7052750098034
 20
185.3788671822847
 10
157.1226407618503
 20
185.6707162889135
 10
157.5253568059592
 20
185.9455447225513
 10
157.8915800949387
 20
186.2357957952014
 10
158.1994675815981
 20
186.5739128188685
 10
158.4271762187459
 20
186.9923391055561
 10
158.5690815754261
 20
187.5089570823206
 10
158.7336687536762
 20
188.3285941605524
 97
        5
330
EF7C89238
330
EF7C8915D
330
EF7C89164
330
EF7C8915C
330
EF7C8915E
 92
        7
 72
     0
 73
     1
 93
       14
 10
21.26633077542526
 20
188.3285941605525
 10
21.43091795367526
 20
187.5089570823204
 10
21.57282331035561
 20
186.9923391055561
 10
21.80053194750341
 20
186.5739128188682
 10
22.10841943416264
 20
186.2357957952015
 10
22.47464272314239
 20
185.9455447225512
 10
22.87735876725168
 20
185.6707162889135
 10
23.29472451929815
 20
185.3788671822848
 10
23.70489693209148
 20
185.0375540906603
 10
24.08603295844132
 20
184.6143337020356
 10
24.41628955115573
 20
184.0767627044074
 10
24.72585306863503
 20
183.3285941605525
 10
72.50008320256677
 20
183.3285941605524
 10
72.50008320256677
 20
188.3285941605526
 97
        4
330
EF7C89160
330
EF7C89162
330
EF7C89161
330
EF7C89163
 75
     0
 76
     0
 52
45.0
 41
2.0
 77
     0
 78
     1
 53
45.0
 43
-0.0000002354493063
 44
3.0
 45
-1.414213562373094
 46
1.414213562373094
 79
     0
 47
0.2346837798524018
 98
        2
 10
117.226387254395
 20
186.1842259962081
 10
66.25858196073932
 20
186.8882770499791
  0
ARC
  5
EF7C89154
330
EF7C85532
100
AcDbEntity
  8
JISSEN
100
AcDbCircle
 10
111.8310382025667
 20
167.5285911605525
 30
0.0
 40
1.3
100
AcDbArc
 50
294.825405
 51
353.8576430000002
  0
ARC
  5
EF7C89155
330
EF7C85532
100
AcDbEntity
  8
JISSEN
100
AcDbCircle
 10
112.2586142025667
 20
167.5955801605525
 30
0.0
 40
1.399999999999999
100
AcDbArc
 50
294.825405
 51
353.8576430000002
  0
ARC
  5
EF7C89156
330
EF7C85532
100
AcDbEntity
  8
JISSEN
100
AcDbCircle
 10
112.4542038730295
 20
167.3757687346891
 30
0.0
 40
1.5
100
AcDbArc
 50
290.0
 51
355.0000000000001
  0
LINE
  5
EF7C89157
330
EF7C85532
100
AcDbEntity
  8
JISSEN
100
AcDbLine
 10
113.1235742025667
 20
167.3894921605524
 30
0.0
 11
113.7555052025666
 21
173.2615301605525
 31
0.0
  0
LINE
  5
EF7C89159
330
EF7C85532
100
AcDbEntity
  8
JISSEN
100
AcDbLine
 10
91.00008320256675
 20
182.8285941605524
 30
0.0
 11
116.5000832025667
 21
182.8285941605524
 31
0.0
  0
LINE
  5
EF7C8915A
330
EF7C85532
100
AcDbEntity
  8
JISSEN
100
AcDbLine
 10
116.5000832025667
 20
175.8285941605524
 30
0.0
 11
91.00008320256675
 21
175.8285941605524
 31
0.0
  0
LINE
  5
EF7C8915B
330
EF7C85532
100
AcDbEntity
  8
JISSEN
100
AcDbLine
 10
115.5000832025667
 20
174.8285941605525
 30
0.0
 11
90.00008320256675
 21
174.8285941605525
 31
0.0
  0
LINE
  5
EF7C8915C
102
{ACAD_REACTORS
330
EF7C8914B
102
}
330
EF7C85532
100
AcDbEntity
  8
JISSEN
100
AcDbLine
 10
116.3500832025667
 20
183.3285941605524
 30
0.0
 11
90.00008320256675
 21
183.3285941605524
 31
0.0
  0
LINE
  5
EF7C8915D
102
{ACAD_REACTORS
330
EF7C8914B
102
}
330
EF7C85532
100
AcDbEntity
  8
JISSEN
100
AcDbLine
 10
158.7336687536762
 20
188.3285941605524
 30
0.0
 11
100.5350859395789
 21
188.3285941605524
 31
0.0
  0
LINE
  5
EF7C8915E
102
{ACAD_REACTORS
330
EF7C8914B
102
}
330
EF7C85532
100
AcDbEntity
  8
JISSEN
100
AcDbLine
 10
100.5975891195155
 20
183.3285941605524
 30
0.0
 11
155.2759057202463
 21
183.3285941605524
 31
0.0
  0
LWPOLYLINE
  5
EF7C8915F
330
EF7C85532
100
AcDbEntity
  8
NITEN
100
AcDbPolyline
 90
       15
 70
     1
 43
0.0
 10
75.9999997645507
 20
190.9391430662799
 42
0.4142135623730927
 10
77.49999976455064
 20
189.4391430662799
 10
100.5940509355472
 20
189.4391430662799
 10
102.4999997645505
 20
189.4391430662799
 42
0.4142135623730925
 10
103.9999997645505
 20
190.9391430662799
 10
103.9999997645505
 20
201.9851590924978
 42
-0.4142135623730943
 10
108.9999997645507
 20
206.9851590924979
 42
0.4142135623730951
 10
110.9999997645507
 20
208.9851590924979
 10
110.9999997645505
 20
229.4391430662799
 42
0.4142135623730949
 10
108.9999997645507
 20
231.4391430662799
 10
70.9999997645507
 20
231.4391430662799
 42
0.4142135623730951
 10
68.99999976455068
 20
229.4391430662799
 10
68.99999976455068
 20
208.9851590924979
 42
0.4142135623730951
 10
70.9999997645507
 20
206.9851590924979
 42
-0.4142135623730961
 10
75.9999997645507
 20
201.9851590924978
  0
LINE
  5
EF7C89160
102
{ACAD_REACTORS
330
EF7C8914B
102
}
330
EF7C85532
100
AcDbEntity
  8
JISSEN
100
AcDbLine
 10
21.26633077542527
 20
188.3285941605524
 30
0.0
 11
79.46508046555454
 21
188.3285941605526
 31
0.0
  0
LINE
  5
EF7C89161
102
{ACAD_REACTORS
330
EF7C8914B
102
}
330
EF7C85532
100
AcDbEntity
  8
JISSEN
100
AcDbLine
 10
79.40257728561789
 20
183.3285941605524
 30
0.0
 11
24.72409380885517
 21
183.3285941605524
 31
0.0
  0
LWPOLYLINE
  5
EF7C89162
102
{ACAD_REACTORS
330
EF7C8914B
102
}
330
EF7C85532
100
AcDbEntity
  8
HATCH
100
AcDbPolyline
 90
       13
 70
     0
 43
0.0
 10
21.26633077542527
 20
188.3285941605524
 10
21.43091795367523
 20
187.5089570823203
 10
21.5728233103556
 20
186.9923391055561
 10
21.80053194750342
 20
186.5739128188682
 10
22.10841943416267
 20
186.2357957952014
 10
22.47464272314221
 20
185.9455447225513
 10
22.87735876725093
 20
185.6707162889138
 10
23.2947245192978
 20
185.3788671822847
 10
23.70489693209163
 20
185.0375540906601
 10
24.08603295844136
 20
184.6143337020356
 10
24.41628955115578
 20
184.0767627044074
 10
24.69086961435857
 20
183.4131439171199
 10
24.72409380885517
 20
183.3285941605524
  0
LINE
  5
EF7C89163
102
{ACAD_REACTORS
330
EF7C8914B
102
}
330
EF7C85532
100
AcDbEntity
  8
JISSEN
100
AcDbLine
 10
72.50008320256677
 20
188.3285941605524
 30
0.0
 11
72.50008320256677
 21
183.3285941605524
 31
0.0
  0
LINE
  5
EF7C89164
102
{ACAD_REACTORS
330
EF7C8914B
102
}
330
EF7C85532
100
AcDbEntity
  8
JISSEN
100
AcDbLine
 10
107.5000832025666
 20
188.3285941605524
 30
0.0
 11
107.5000832025666
 21
183.3285941605524
 31
0.0
  0
LINE
  5
EF7C89165
330
EF7C85532
100
AcDbEntity
  8
SAISEN
100
AcDbLine
 10
80.54085020256678
 20
185.5693611605524
 30
0.0
 11
81.03335004930006
 21
201.328594160556
 31
0.0
  0
LINE
  5
EF7C89166
330
EF7C85532
100
AcDbEntity
  8
JISSEN
100
AcDbLine
 10
79.8349384812019
 20
200.1634485158831
 30
0.0
 11
79.34136420256681
 21
184.3698751605524
 31
0.0
  0
LINE
  5
EF7C89167
330
EF7C85532
100
AcDbEntity
  8
JISSEN
100
AcDbLine
 10
100.1652279239315
 20
200.1634485158831
 30
0.0
 11
100.6588022025667
 21
184.3698751605524
 31
0.0
  0
LINE
  5
EF7C89168
330
EF7C85532
100
AcDbEntity
  8
SAISEN
100
AcDbLine
 10
99.45931620256676
 20
185.5693611605524
 30
0.0
 11
98.96681635583348
 21
201.328594160556
 31
0.0
  0
LINE
  5
EF7C89169
330
EF7C85532
100
AcDbEntity
  8
JISSEN
100
AcDbLine
 10
90.00008320256675
 20
185.5693611605524
 30
0.0
 11
79.37885020256681
 21
185.5693611605524
 31
0.0
  0
LINE
  5
EF7C8916A
330
EF7C85532
100
AcDbEntity
  8
JISSEN
100
AcDbLine
 10
83.75008320256965
 20
158.7749338338126
 30
0.0
 11
87.50008320256695
 21
159.0471300298564
 31
0.0
  0
LINE
  5
EF7C8916B
330
EF7C85532
100
AcDbEntity
  8
JISSEN
100
AcDbLine
 10
76.75008320257024
 20
156.1285941605488
 30
0.0
 11
90.00008320256688
 21
156.1285941605488
 31
0.0
  0
LINE
  5
EF7C8916C
330
EF7C85532
100
AcDbEntity
  8
JISSEN
100
AcDbLine
 10
90.00008320256688
 20
160.242711838213
 30
0.0
 11
77.45008320256943
 21
160.2427118382111
 31
0.0
1001
ACAD
1000
ASC_BOUNDS
1002
{
1070
    19
1002
}
  0
LINE
  5
EF7C8916D
330
EF7C85532
100
AcDbEntity
  8
JISSEN
100
AcDbLine
 10
87.00008320257053
 20
154.6285941605511
 30
0.0
 11
78.25008320257007
 21
154.6285941605495
 31
0.0
  0
LINE
  5
EF7C8916E
330
EF7C85532
100
AcDbEntity
  8
JISSEN
100
AcDbLine
 10
76.75008320256996
 20
157.6285941605493
 30
0.0
 11
90.00008320256688
 21
157.6285941605515
 31
0.0
  0
LINE
  5
EF7C8916F
330
EF7C85532
100
AcDbEntity
  8
JISSEN
100
AcDbLine
 10
90.00008320256675
 20
161.9927118382131
 30
0.0
 11
75.47088018596503
 21
161.992711838213
 31
0.0
1001
ACAD
1000
ASC_BOUNDS
1002
{
1070
    19
1002
}
  0
LINE
  5
EF7C89170
330
EF7C85532
100
AcDbEntity
  8
JISSEN
100
AcDbLine
 10
63.65008320256681
 20
183.3285941605524
 30
0.0
 11
90.00008320256675
 21
183.3285941605524
 31
0.0
  0
LINE
  5
EF7C89171
330
EF7C85532
100
AcDbEntity
  8
JISSEN
100
AcDbLine
 10
64.50008320256677
 20
174.8285941605525
 30
0.0
 11
90.00008320256675
 21
174.8285941605525
 31
0.0
  0
LINE
  5
EF7C89172
330
EF7C85532
100
AcDbEntity
  8
JISSEN
100
AcDbLine
 10
63.50008320256677
 20
175.8285941605524
 30
0.0
 11
89.00008320256675
 21
175.8285941605524
 31
0.0
  0
LINE
  5
EF7C89173
330
EF7C85532
100
AcDbEntity
  8
JISSEN
100
AcDbLine
 10
89.00008320256675
 20
182.8285941605524
 30
0.0
 11
63.50008320256677
 21
182.8285941605524
 31
0.0
  0
LINE
  5
EF7C89174
330
EF7C85532
100
AcDbEntity
  8
JISSEN
100
AcDbLine
 10
75.47088018596503
 20
161.992711838213
 30
0.0
 11
66.9454775767274
 21
166.0012077799235
 31
0.0
1001
ACAD
1000
ASC_BOUNDS
1002
{
1070
    19
1002
}
  0
LINE
  5
EF7C89175
330
EF7C85532
100
AcDbEntity
  8
JISSEN
100
AcDbLine
 10
78.25008320257007
 20
154.6285941605495
 30
0.0
 11
76.75008320257024
 21
156.1285941605488
 31
0.0
  0
LINE
  5
EF7C89176
330
EF7C85532
100
AcDbEntity
  8
JISSEN
100
AcDbLine
 10
76.75008320256996
 20
157.6285941605488
 30
0.0
 11
76.75008320257024
 21
156.1285941605488
 31
0.0
  0
ARC
  5
EF7C89177
330
EF7C85532
100
AcDbEntity
  8
JISSEN
100
AcDbCircle
 10
77.45008320256937
 20
160.442711838211
 30
0.0
 40
0.2
100
AcDbArc
 50
180.0000000000114
 51
270.0000000000065
1001
ACAD
1000
ASC_BOUNDS
1002
{
1070
    19
1002
}
  0
LINE
  5
EF7C89178
330
EF7C85532
100
AcDbEntity
  8
JISSEN
100
AcDbLine
 10
77.25008320256908
 20
161.9927118382131
 30
0.0
 11
77.25008320256939
 21
160.4427118382098
 31
0.0
1001
ACAD
1000
ASC_BOUNDS
1002
{
1070
    19
1002
}
  0
LINE
  5
EF7C89179
330
EF7C85532
100
AcDbEntity
  8
JISSEN
100
AcDbLine
 10
83.75008320256991
 20
157.6285941605505
 30
0.0
 11
83.75008320256936
 21
160.2427118382121
 31
0.0
  0
LINE
  5
EF7C8917A
330
EF7C85532
100
AcDbEntity
  8
JISSEN
100
AcDbLine
 10
80.47598938060076
 20
158.4112299942504
 30
0.0
 11
81.31193916612231
 21
157.928594160551
 31
0.0
  0
LINE
  5
EF7C8917B
330
EF7C85532
100
AcDbEntity
  8
JISSEN
100
AcDbLine
 10
81.58514424687927
 20
158.0017992413078
 30
0.0
 11
81.87756538675444
 21
158.5082875127791
 31
0.0
  0
LINE
  5
EF7C8917C
330
EF7C85532
100
AcDbEntity
  8
JISSEN
100
AcDbLine
 10
81.8775653867541
 20
160.2427118382117
 30
0.0
 11
81.87756538675456
 21
157.6285941605501
 31
0.0
  0
ARC
  5
EF7C8917D
330
EF7C85532
100
AcDbEntity
  8
JISSEN
100
AcDbCircle
 10
81.41193916612223
 20
158.1017992413078
 30
0.0
 40
0.2
100
AcDbArc
 50
240.0000000000111
 51
330.00000000001
  0
ARC
  5
EF7C8917E
330
EF7C85532
100
AcDbEntity
  8
JISSEN
100
AcDbCircle
 10
81.91272949731603
 20
159.2607319824895
 30
0.0
 40
1.0
100
AcDbArc
 50
100.8935918178659
 51
149.1134150964166
  0
ARC
  5
EF7C8917F
330
EF7C85532
100
AcDbEntity
  8
JISSEN
100
AcDbCircle
 10
80.57598938060072
 20
158.5844350750075
 30
0.0
 40
0.2
100
AcDbArc
 50
149.1134150964271
 51
240.0000000000111
  0
LINE
  5
EF7C89180
330
EF7C85532
100
AcDbEntity
  8
JISSEN
100
AcDbLine
 10
81.05454437579851
 20
159.7740723152123
 30
0.0
 11
80.40435235629672
 21
158.6871031415523
 31
0.0
  0
ARC
  5
EF7C89181
330
EF7C85532
100
AcDbEntity
  8
JISSEN
100
AcDbCircle
 10
70.81593220256678
 20
165.9317151605524
 30
0.0
 40
0.4
100
AcDbArc
 50
242.2532619999987
 51
270.0
  0
LINE
  5
EF7C89182
330
EF7C85532
100
AcDbEntity
  8
JISSEN
100
AcDbLine
 10
71.85880820256682
 20
165.7202171605525
 30
0.0
 11
70.35943320256677
 21
166.5089671605525
 31
0.0
  0
LINE
  5
EF7C89183
330
EF7C85532
100
AcDbEntity
  8
JISSEN
100
AcDbLine
 10
65.40008320256679
 20
174.8285941605525
 30
0.0
 11
65.53131620256682
 21
173.3285941605524
 31
0.0
  0
LINE
  5
EF7C89184
330
EF7C85532
100
AcDbEntity
  8
JISSEN
100
AcDbLine
 10
70.09427420256677
 20
166.9061441605525
 30
0.0
 11
69.5261662025668
 21
173.1467261605524
 31
0.0
  0
LINE
  5
EF7C89185
330
EF7C85532
100
AcDbEntity
  8
JISSEN
100
AcDbLine
 10
68.02692120256678
 20
172.8909071605524
 30
0.0
 11
68.55262320256679
 21
167.3359611605524
 31
0.0
  0
LINE
  5
EF7C89186
330
EF7C85532
100
AcDbEntity
  8
JISSEN
100
AcDbLine
 10
69.08934220256679
 20
173.1110271605524
 30
0.0
 11
69.62009620256679
 21
167.0915771605525
 31
0.0
  0
LINE
  5
EF7C89187
330
EF7C85532
100
AcDbEntity
  8
JISSEN
100
AcDbLine
 10
65.53131620256682
 20
173.3285941605524
 30
0.0
 11
66.05167020256681
 21
167.3809171605525
 31
0.0
  0
LINE
  5
EF7C89188
330
EF7C85532
100
AcDbEntity
  8
JISSEN
100
AcDbLine
 10
65.76175920256678
 20
172.9080301605524
 30
0.0
 11
66.34958920256678
 21
167.4457811605525
 31
0.0
  0
LINE
  5
EF7C89189
330
EF7C85532
100
AcDbEntity
  8
JISSEN
100
AcDbLine
 10
66.87659220256676
 20
167.3894921605524
 30
0.0
 11
66.24466120256681
 21
173.2615301605525
 31
0.0
  0
ARC
  5
EF7C8918A
330
EF7C85532
100
AcDbEntity
  8
JISSEN
100
AcDbCircle
 10
68.16912820256675
 20
167.5285911605525
 30
0.0
 40
1.3
100
AcDbArc
 50
186.1423569999999
 51
245.1745949999999
  0
LINE
  5
EF7C8918B
330
EF7C85532
100
AcDbEntity
  8
JISSEN
100
AcDbLine
 10
67.15375620256678
 20
166.3249521605524
 30
0.0
 11
68.62065420256681
 21
165.6463601605524
 31
0.0
  0
ARC
  5
EF7C8918C
330
EF7C85532
100
AcDbEntity
  8
JISSEN
100
AcDbCircle
 10
67.74155220256678
 20
167.5955801605525
 30
0.0
 40
1.399999999999999
100
AcDbArc
 50
186.1423569999999
 51
245.1745949999999
  0
ARC
  5
EF7C8918D
330
EF7C85532
100
AcDbEntity
  8
JISSEN
100
AcDbCircle
 10
67.545962532104
 20
167.3757687346891
 30
0.0
 40
1.5
100
AcDbArc
 50
184.9999999999998
 51
249.9999999999999
  0
ARC
  5
EF7C8918E
330
EF7C85532
100
AcDbEntity
  8
JISSEN
100
AcDbCircle
 10
70.59221520256676
 20
166.9514741605524
 30
0.0
 40
0.5
100
AcDbArc
 50
185.2015590000002
 51
242.2532619999987
  0
ARC
  5
EF7C8918F
330
EF7C85532
100
AcDbEntity
  8
JISSEN
100
AcDbCircle
 10
69.84684020256678
 20
167.4584421605525
 30
0.0
 40
1.3
100
AcDbArc
 50
185.4061850000004
 51
242.2532619999987
  0
ARC
  5
EF7C89190
330
EF7C85532
100
AcDbEntity
  8
JISSEN
100
AcDbCircle
 10
69.04050920256678
 20
166.5539521605525
 30
0.0
 40
1.0
100
AcDbArc
 50
245.1745949999999
 51
270.0
  0
LINE
  5
EF7C89191
330
EF7C85532
100
AcDbEntity
  8
JISSEN
100
AcDbLine
 10
69.04050920256678
 20
165.5539521605525
 30
0.0
 11
69.11418420256677
 21
165.5539521605525
 31
0.0
  0
ARC
  5
EF7C89192
330
EF7C85532
100
AcDbEntity
  8
JISSEN
100
AcDbCircle
 10
69.11418420256677
 20
165.6039521605524
 30
0.0
 40
0.05
100
AcDbArc
 50
270.0
 51
65.17459499999998
  0
LINE
  5
EF7C89193
330
EF7C85532
100
AcDbEntity
  8
JISSEN
100
AcDbLine
 10
69.24160720256678
 20
166.3079231605524
 30
0.0
 11
70.62970620256681
 21
165.5777101605524
 31
0.0
  0
ARC
  5
EF7C89194
330
EF7C85532
100
AcDbEntity
  8
JISSEN
100
AcDbCircle
 10
70.11816420256678
 20
167.1354931605524
 30
0.0
 40
0.5
100
AcDbArc
 50
185.038927
 51
279.3495549999982
  0
LINE
  5
EF7C89195
330
EF7C85532
100
AcDbEntity
  8
JISSEN
100
AcDbLine
 10
69.13517620256681
 20
165.6493311605524
 30
0.0
 11
67.62331720256678
 21
166.3487221605525
 31
0.0
  0
ARC
  5
EF7C89196
330
EF7C85532
100
AcDbEntity
  8
JISSEN
100
AcDbCircle
 10
66.14523520256678
 20
173.2508301605524
 30
0.0
 40
0.1
100
AcDbArc
 50
6.142356999999947
 51
87.28209800000021
  0
ARC
  5
EF7C89197
330
EF7C85532
100
AcDbEntity
  8
JISSEN
100
AcDbCircle
 10
66.15946220256677
 20
172.9508301605524
 30
0.0
 40
0.4
100
AcDbArc
 50
91.35885500000069
 51
186.1423569999999
  0
ARC
  5
EF7C89198
330
EF7C85532
100
AcDbEntity
  8
JISSEN
100
AcDbCircle
 10
69.32698920256679
 20
173.1285941605525
 30
0.0
 40
0.2
100
AcDbArc
 50
5.201559000000278
 51
90.0
  0
LINE
  5
EF7C89199
330
EF7C85532
100
AcDbEntity
  8
JISSEN
100
AcDbLine
 10
69.32698920256679
 20
173.3285941605524
 30
0.0
 11
68.42514220256679
 21
173.3285941605524
 31
0.0
  0
ARC
  5
EF7C8919A
330
EF7C85532
100
AcDbEntity
  8
JISSEN
100
AcDbCircle
 10
68.42514220256679
 20
172.9285941605524
 30
0.0
 40
0.4
100
AcDbArc
 50
90.0
 51
185.4061850000004
  0
ARC
  5
EF7C8919B
330
EF7C85532
100
AcDbEntity
  8
JISSEN
100
AcDbCircle
 10
69.28856920256682
 20
173.1285941605525
 30
0.0
 40
0.2
100
AcDbArc
 50
90.0
 51
185.038927
  0
LINE
  5
EF7C8919C
330
EF7C85532
100
AcDbEntity
  8
JISSEN
100
AcDbLine
 10
63.50008320256677
 20
183.1785941605524
 30
0.0
 11
63.65008320256681
 21
183.3285941605524
 31
0.0
  0
LINE
  5
EF7C8919D
330
EF7C85532
100
AcDbEntity
  8
JISSEN
100
AcDbLine
 10
63.50008320256677
 20
175.8285941605524
 30
0.0
 11
64.50008320256677
 21
174.8285941605525
 31
0.0
  0
LINE
  5
EF7C8919E
330
EF7C85532
100
AcDbEntity
  8
JISSEN
100
AcDbLine
 10
63.50008320256677
 20
183.1785941605524
 30
0.0
 11
63.50008320256677
 21
175.8285941605524
 31
0.0
  0
LINE
  5
EF7C8919F
330
EF7C85532
100
AcDbEntity
  8
JISSEN
100
AcDbLine
 10
64.50008320256677
 20
174.8285941605525
 30
0.0
 11
65.40008320256679
 21
174.8285941605525
 31
0.0
  0
LINE
  5
EF7C891A0
330
EF7C85532
100
AcDbEntity
  8
JISSEN
100
AcDbLine
 10
75.3790622025668
 20
173.1426081605524
 30
0.0
 11
75.82286920256676
 21
166.8243421605525
 31
0.0
  0
LINE
  5
EF7C891A1
330
EF7C85532
100
AcDbEntity
  8
JISSEN
100
AcDbLine
 10
73.89384320256681
 20
173.0090021605524
 30
0.0
 11
74.28648620256677
 21
167.0093711605525
 31
0.0
  0
LINE
  5
EF7C891A2
330
EF7C85532
100
AcDbEntity
  8
JISSEN
100
AcDbLine
 10
73.49820620256679
 20
167.2020391605524
 30
0.0
 11
73.09417220256676
 21
172.9540691605524
 31
0.0
  0
ARC
  5
EF7C891A3
330
EF7C85532
100
AcDbEntity
  8
JISSEN
100
AcDbCircle
 10
74.6856322025668
 20
167.0354931605525
 30
0.0
 40
0.4
100
AcDbArc
 50
183.7443620000001
 51
270.0
  0
LINE
  5
EF7C891A4
330
EF7C85532
100
AcDbEntity
  8
JISSEN
100
AcDbLine
 10
75.00443020256676
 20
165.5961631605524
 30
0.0
 11
74.00136420256679
 21
166.3070851605525
 31
0.0
  0
ARC
  5
EF7C891A5
330
EF7C85532
100
AcDbEntity
  8
JISSEN
100
AcDbCircle
 10
74.69525620256678
 20
167.2861221605525
 30
0.0
 40
1.199999999999999
100
AcDbArc
 50
184.0179690000004
 51
234.6729319999993
  0
ARC
  5
EF7C891A6
330
EF7C85532
100
AcDbEntity
  8
JISSEN
100
AcDbCircle
 10
71.81225120256681
 20
165.6317151605524
 30
0.0
 40
0.1
100
AcDbArc
 50
270.0
 51
62.25326199999882
  0
LINE
  5
EF7C891A7
330
EF7C85532
100
AcDbEntity
  8
JISSEN
100
AcDbLine
 10
70.81593220256678
 20
165.5317151605524
 30
0.0
 11
71.81225120256681
 21
165.5317151605524
 31
0.0
  0
ARC
  5
EF7C891A8
330
EF7C85532
100
AcDbEntity
  8
JISSEN
100
AcDbCircle
 10
76.92244820256679
 20
165.6817151605524
 30
0.0
 40
0.15
100
AcDbArc
 50
270.0
 51
54.67293199999947
  0
ARC
  5
EF7C891A9
330
EF7C85532
100
AcDbEntity
  8
JISSEN
100
AcDbCircle
 10
76.22188620256679
 20
166.8523701605525
 30
0.0
 40
0.4
100
AcDbArc
 50
184.0179690000004
 51
234.6729319999993
  0
ARC
  5
EF7C891AA
330
EF7C85532
100
AcDbEntity
  8
JISSEN
100
AcDbCircle
 10
75.20681520256677
 20
165.8817151605525
 30
0.0
 40
0.35
100
AcDbArc
 50
234.6729319999993
 51
270.0
  0
LINE
  5
EF7C891AB
330
EF7C85532
100
AcDbEntity
  8
JISSEN
100
AcDbLine
 10
75.9905892025668
 20
166.5260241605525
 30
0.0
 11
77.00918420256677
 21
165.8040951605524
 31
0.0
  0
LINE
  5
EF7C891AC
330
EF7C85532
100
AcDbEntity
  8
JISSEN
100
AcDbLine
 10
76.92244820256679
 20
165.5317151605524
 30
0.0
 11
75.20681520256677
 21
165.5317151605524
 31
0.0
  0
LINE
  5
EF7C891AD
330
EF7C85532
100
AcDbEntity
  8
JISSEN
100
AcDbLine
 10
74.6856322025668
 20
166.6354931605525
 30
0.0
 11
75.88578420256681
 21
166.6354931605525
 31
0.0
  0
LINE
  5
EF7C891AE
330
EF7C85532
100
AcDbEntity
  8
JISSEN
100
AcDbLine
 10
74.19320220256679
 20
173.3285941605524
 30
0.0
 11
75.17955320256681
 21
173.3285941605524
 31
0.0
  0
ARC
  5
EF7C891AF
330
EF7C85532
100
AcDbEntity
  8
JISSEN
100
AcDbCircle
 10
74.19320220256679
 20
173.0285941605524
 30
0.0
 40
0.3
100
AcDbArc
 50
90.0
 51
183.7443620000001
  0
ARC
  5
EF7C891B0
330
EF7C85532
100
AcDbEntity
  8
JISSEN
100
AcDbCircle
 10
73.44331120256679
 20
172.9785941605524
 30
0.0
 40
0.35
100
AcDbArc
 50
90.0
 51
184.0179690000004
  0
LINE
  5
EF7C891B1
330
EF7C85532
100
AcDbEntity
  8
JISSEN
100
AcDbLine
 10
73.44331120256679
 20
173.3285941605524
 30
0.0
 11
74.19320220256679
 21
173.3285941605524
 31
0.0
  0
ARC
  5
EF7C891B2
330
EF7C85532
100
AcDbEntity
  8
JISSEN
100
AcDbCircle
 10
75.17955320256681
 20
173.1285941605525
 30
0.0
 40
0.2
100
AcDbArc
 50
4.017969000000398
 51
90.0
  0
LINE
  5
EF7C891B3
330
EF7C85532
100
AcDbEntity
  8
JISSEN
100
AcDbLine
 10
83.25823020256676
 20
166.7293181605525
 30
0.0
 11
83.01877820256676
 21
173.1360641605524
 31
0.0
  0
LINE
  5
EF7C891B4
330
EF7C85532
100
AcDbEntity
  8
JISSEN
100
AcDbLine
 10
80.62987820256678
 20
173.0698931605524
 30
0.0
 11
80.84385620256677
 21
166.9250531605525
 31
0.0
  0
LINE
  5
EF7C891B5
330
EF7C85532
100
AcDbEntity
  8
JISSEN
100
AcDbLine
 10
80.20413620256681
 20
173.0173891605524
 30
0.0
 11
80.43097020256674
 21
166.9482411605525
 31
0.0
  0
ARC
  5
EF7C891B6
330
EF7C85532
100
AcDbEntity
  8
JISSEN
100
AcDbCircle
 10
81.42122420256681
 20
165.8317151605525
 30
0.0
 40
0.3
100
AcDbArc
 50
216.8971619999989
 51
270.0
  0
LINE
  5
EF7C891B7
330
EF7C85532
100
AcDbEntity
  8
JISSEN
100
AcDbLine
 10
81.14367420256678
 20
166.6354931605525
 30
0.0
 11
83.27700720256677
 21
166.6354931605525
 31
0.0
  0
ARC
  5
EF7C891B8
330
EF7C85532
100
AcDbEntity
  8
JISSEN
100
AcDbCircle
 10
81.14367420256678
 20
166.9354931605525
 30
0.0
 40
0.3
100
AcDbArc
 50
181.994368
 51
270.0
  0
LINE
  5
EF7C891B9
330
EF7C85532
100
AcDbEntity
  8
JISSEN
100
AcDbLine
 10
80.63055820256682
 20
166.3852091605525
 30
0.0
 11
81.1813092025668
 21
165.6516011605525
 31
0.0
  0
ARC
  5
EF7C891BA
330
EF7C85532
100
AcDbEntity
  8
JISSEN
100
AcDbCircle
 10
81.43027220256682
 20
166.9855901605524
 30
0.0
 40
1.0
100
AcDbArc
 50
182.1404319999997
 51
216.8971619999989
  0
ARC
  5
EF7C891BB
330
EF7C85532
100
AcDbEntity
  8
JISSEN
100
AcDbCircle
 10
83.55802120256681
 20
166.7405221605525
 30
0.0
 40
0.3
100
AcDbArc
 50
182.1404319999997
 51
216.8971619999989
  0
ARC
  5
EF7C891BC
330
EF7C85532
100
AcDbEntity
  8
JISSEN
100
AcDbCircle
 10
83.69015320256677
 20
165.7317151605525
 30
0.0
 40
0.2
100
AcDbArc
 50
270.0
 51
36.8971619999989
  0
LINE
  5
EF7C891BD
330
EF7C85532
100
AcDbEntity
  8
JISSEN
100
AcDbLine
 10
83.85009620256676
 20
165.8517921605525
 30
0.0
 11
83.3181062025668
 21
166.5604081605525
 31
0.0
  0
LINE
  5
EF7C891BE
330
EF7C85532
100
AcDbEntity
  8
JISSEN
100
AcDbLine
 10
81.42122420256681
 20
165.5317151605524
 30
0.0
 11
83.69015320256677
 21
165.5317151605524
 31
0.0
  0
LINE
  5
EF7C891BF
330
EF7C85532
100
AcDbEntity
  8
JISSEN
100
AcDbLine
 10
82.81891720256679
 20
173.3285941605524
 30
0.0
 11
80.50392620256678
 21
173.3285941605524
 31
0.0
  0
ARC
  5
EF7C891C0
330
EF7C85532
100
AcDbEntity
  8
JISSEN
100
AcDbCircle
 10
80.87972620256676
 20
173.0785941605524
 30
0.0
 40
0.25
100
AcDbArc
 50
90.0
 51
181.994368
  0
ARC
  5
EF7C891C1
330
EF7C85532
100
AcDbEntity
  8
JISSEN
100
AcDbCircle
 10
80.50392620256678
 20
173.0285941605524
 30
0.0
 40
0.3
100
AcDbArc
 50
90.0
 51
182.1404319999997
  0
ARC
  5
EF7C891C2
330
EF7C85532
100
AcDbEntity
  8
JISSEN
100
AcDbCircle
 10
82.81891720256679
 20
173.1285941605525
 30
0.0
 40
0.2
100
AcDbArc
 50
2.140431999999683
 51
90.0
  0
LINE
  5
EF7C891C3
330
EF7C85532
100
AcDbEntity
  8
SAISEN
100
AcDbLine
 10
79.34136420256681
 20
184.3698751605524
 30
0.0
 11
80.54085020256678
 21
185.5693611605524
 31
0.0
  0
LINE
  5
EF7C891C4
330
EF7C85532
100
AcDbEntity
  8
JISSEN
100
AcDbLine
 10
78.30008320256678
 20
183.3285941605524
 30
0.0
 11
79.34136420256681
 21
184.3698751605524
 31
0.0
  0
LINE
  5
EF7C891C6
330
EF7C85532
100
AcDbEntity
  8
JISSEN
100
AcDbLine
 10
104.5292862191685
 20
161.992711838213
 30
0.0
 11
113.054688828406
 21
166.0012077799235
 31
0.0
1001
ACAD
1000
ASC_BOUNDS
1002
{
1070
    19
1002
}
  0
ARC
  5
EF7C891C7
330
EF7C85532
100
AcDbEntity
  8
JISSEN
100
AcDbCircle
 10
98.08743690781764
 20
159.2607319824895
 30
0.0
 40
1.0
100
AcDbArc
 50
30.88658490358321
 51
79.10640818213394
  0
LINE
  5
EF7C891C8
330
EF7C85532
100
AcDbEntity
  8
JISSEN
100
AcDbLine
 10
98.94562202933528
 20
159.7740723152123
 30
0.0
 11
99.59581404883699
 21
158.6871031415523
 31
0.0
  0
LINE
  5
EF7C891C9
330
EF7C85532
100
AcDbEntity
  8
JISSEN
100
AcDbLine
 10
99.52417702453296
 20
158.4112299942504
 30
0.0
 11
98.68822723901139
 21
157.928594160551
 31
0.0
  0
LINE
  5
EF7C891CA
330
EF7C85532
100
AcDbEntity
  8
JISSEN
100
AcDbLine
 10
103.2500832025637
 20
157.6285941605493
 30
0.0
 11
90.0000832025668
 21
157.6285941605515
 31
0.0
  0
LINE
  5
EF7C891CB
330
EF7C85532
100
AcDbEntity
  8
JISSEN
100
AcDbLine
 10
93.00008320256321
 20
154.6285941605511
 30
0.0
 11
101.7500832025635
 21
154.6285941605495
 31
0.0
  0
LINE
  5
EF7C891CC
330
EF7C85532
100
AcDbEntity
  8
JISSEN
100
AcDbLine
 10
90.0000832025668
 20
160.242711838213
 30
0.0
 11
102.5500832025642
 21
160.2427118382111
 31
0.0
1001
ACAD
1000
ASC_BOUNDS
1002
{
1070
    19
1002
}
  0
LINE
  5
EF7C891CD
330
EF7C85532
100
AcDbEntity
  8
JISSEN
100
AcDbLine
 10
103.2500832025634
 20
156.1285941605488
 30
0.0
 11
90.0000832025668
 21
156.1285941605488
 31
0.0
  0
LINE
  5
EF7C891CE
330
EF7C85532
100
AcDbEntity
  8
JISSEN
100
AcDbLine
 10
90.00008320256675
 20
161.9927118382131
 30
0.0
 11
104.5292862191685
 21
161.992711838213
 31
0.0
1001
ACAD
1000
ASC_BOUNDS
1002
{
1070
    19
1002
}
  0
LINE
  5
EF7C891CF
330
EF7C85532
100
AcDbEntity
  8
JISSEN
100
AcDbLine
 10
93.00008320256322
 20
154.6285941605509
 30
0.0
 11
90.00008320256325
 21
154.6285941605515
 31
0.0
  0
LINE
  5
EF7C891D0
330
EF7C85532
100
AcDbEntity
  8
JISSEN
100
AcDbLine
 10
87.50008320256688
 20
157.6285941605511
 30
0.0
 11
87.50008320256702
 21
160.2427118382125
 31
0.0
  0
LINE
  5
EF7C891D1
330
EF7C85532
100
AcDbEntity
  8
JISSEN
100
AcDbLine
 10
87.00008320257046
 20
154.6285941605509
 30
0.0
 11
90.00008320257045
 21
154.6285941605515
 31
0.0
  0
LINE
  5
EF7C891D2
330
EF7C85532
100
AcDbEntity
  8
JISSEN
100
AcDbLine
 10
98.41502215825451
 20
158.0017992413078
 30
0.0
 11
98.12260101837928
 21
158.5082875127791
 31
0.0
  0
LINE
  5
EF7C891D3
330
EF7C85532
100
AcDbEntity
  8
JISSEN
100
AcDbLine
 10
96.25008320256382
 20
157.6285941605505
 30
0.0
 11
96.25008320256434
 21
160.2427118382121
 31
0.0
  0
LINE
  5
EF7C891D4
330
EF7C85532
100
AcDbEntity
  8
JISSEN
100
AcDbLine
 10
98.12260101837964
 20
160.2427118382117
 30
0.0
 11
98.1226010183791
 21
157.6285941605501
 31
0.0
  0
LINE
  5
EF7C891D5
330
EF7C85532
100
AcDbEntity
  8
JISSEN
100
AcDbLine
 10
92.50008320256675
 20
157.6285941605511
 30
0.0
 11
92.50008320256675
 21
160.2427118382125
 31
0.0
  0
ARC
  5
EF7C891D6
330
EF7C85532
100
AcDbEntity
  8
JISSEN
100
AcDbCircle
 10
98.58822723901148
 20
158.1017992413078
 30
0.0
 40
0.2
100
AcDbArc
 50
209.99999999999
 51
299.9999999999887
  0
LINE
  5
EF7C891D7
330
EF7C85532
100
AcDbEntity
  8
JISSEN
100
AcDbLine
 10
96.25008320256405
 20
158.7749338338126
 30
0.0
 11
92.50008320256675
 21
159.0471300298564
 31
0.0
  0
LINE
  5
EF7C891D8
330
EF7C85532
100
AcDbEntity
  8
JISSEN
100
AcDbLine
 10
101.7500832025635
 20
154.6285941605495
 30
0.0
 11
103.2500832025634
 21
156.1285941605488
 31
0.0
  0
LINE
  5
EF7C891D9
330
EF7C85532
100
AcDbEntity
  8
JISSEN
100
AcDbLine
 10
103.2500832025637
 20
157.6285941605488
 30
0.0
 11
103.2500832025634
 21
156.1285941605488
 31
0.0
  0
ARC
  5
EF7C891DA
330
EF7C85532
100
AcDbEntity
  8
JISSEN
100
AcDbCircle
 10
99.42417702453292
 20
158.5844350750075
 30
0.0
 40
0.2
100
AcDbArc
 50
299.9999999999887
 51
30.8865849035729
  0
LINE
  5
EF7C891DB
330
EF7C85532
100
AcDbEntity
  8
JISSEN
100
AcDbLine
 10
102.7500832025646
 20
161.9927118382131
 30
0.0
 11
102.7500832025642
 21
160.4427118382098
 31
0.0
1001
ACAD
1000
ASC_BOUNDS
1002
{
1070
    19
1002
}
  0
ARC
  5
EF7C891DC
330
EF7C85532
100
AcDbEntity
  8
JISSEN
100
AcDbCircle
 10
102.5500832025642
 20
160.442711838211
 30
0.0
 40
0.2
100
AcDbArc
 50
269.9999999999902
 51
359.9999999999884
1001
ACAD
1000
ASC_BOUNDS
1002
{
1070
    19
1002
}
  0
LINE
  5
EF7C891DD
330
EF7C85532
100
AcDbEntity
  8
JISSEN
100
AcDbLine
 10
97.18124920256672
 20
173.3285941605524
 30
0.0
 11
99.49624020256676
 21
173.3285941605524
 31
0.0
  0
LINE
  5
EF7C891DE
330
EF7C85532
100
AcDbEntity
  8
JISSEN
100
AcDbLine
 10
99.36960820256672
 20
166.3852091605525
 30
0.0
 11
98.81885720256674
 21
165.6516011605525
 31
0.0
  0
ARC
  5
EF7C891DF
330
EF7C85532
100
AcDbEntity
  8
JISSEN
100
AcDbCircle
 10
98.85649220256675
 20
166.9354931605525
 30
0.0
 40
0.3
100
AcDbArc
 50
270.0
 51
358.0056319999998
  0
LINE
  5
EF7C891E0
330
EF7C85532
100
AcDbEntity
  8
JISSEN
100
AcDbLine
 10
90.00008320256675
 20
185.5693611605524
 30
0.0
 11
100.6213162025667
 21
185.5693611605524
 31
0.0
  0
ARC
  5
EF7C891E1
330
EF7C85532
100
AcDbEntity
  8
JISSEN
100
AcDbCircle
 10
90.00008320256675
 20
175.8285941605524
 30
0.0
 40
1.0
100
AcDbArc
 50
180.0
 51
270.0
  0
ARC
  5
EF7C891E2
330
EF7C85532
100
AcDbEntity
  8
JISSEN
100
AcDbCircle
 10
90.00008320256675
 20
175.8285941605524
 30
0.0
 40
1.0
100
AcDbArc
 50
270.0
 51
0.000000000000007
  0
LINE
  5
EF7C891E3
330
EF7C85532
100
AcDbEntity
  8
JISSEN
100
AcDbLine
 10
91.50008320256675
 20
172.8285941605524
 30
0.0
 11
91.50008320256675
 21
166.0317151605525
 31
0.0
  0
LINE
  5
EF7C891E4
330
EF7C85532
100
AcDbEntity
  8
JISSEN
100
AcDbLine
 10
88.50008320256675
 20
172.8285941605524
 30
0.0
 11
88.50008320256675
 21
166.0317151605525
 31
0.0
  0
ARC
  5
EF7C891E5
330
EF7C85532
100
AcDbEntity
  8
JISSEN
100
AcDbCircle
 10
91.00008320256675
 20
167.1354931605524
 30
0.0
 40
0.5
100
AcDbArc
 50
270.0
 51
0.000000000000007
  0
ARC
  5
EF7C891E6
330
EF7C85532
100
AcDbEntity
  8
JISSEN
100
AcDbCircle
 10
91.00008320256675
 20
166.0317151605525
 30
0.0
 40
0.5
100
AcDbArc
 50
270.0
 51
0.000000000000007
  0
LINE
  5
EF7C891E7
330
EF7C85532
100
AcDbEntity
  8
JISSEN
100
AcDbLine
 10
90.00008320256675
 20
165.5317151605524
 30
0.0
 11
91.00008320256675
 21
165.5317151605524
 31
0.0
  0
LINE
  5
EF7C891E8
330
EF7C85532
100
AcDbEntity
  8
JISSEN
100
AcDbLine
 10
91.00008320256675
 20
166.6354931605525
 30
0.0
 11
90.00008320256675
 21
166.6354931605525
 31
0.0
  0
ARC
  5
EF7C891E9
330
EF7C85532
100
AcDbEntity
  8
JISSEN
100
AcDbCircle
 10
89.00008320256675
 20
166.0317151605525
 30
0.0
 40
0.5
100
AcDbArc
 50
180.0
 51
270.0
  0
ARC
  5
EF7C891EA
330
EF7C85532
100
AcDbEntity
  8
JISSEN
100
AcDbCircle
 10
89.00008320256675
 20
167.1354931605524
 30
0.0
 40
0.5
100
AcDbArc
 50
180.0
 51
270.0
  0
LINE
  5
EF7C891EB
330
EF7C85532
100
AcDbEntity
  8
JISSEN
100
AcDbLine
 10
89.00008320256675
 20
166.6354931605525
 30
0.0
 11
90.00008320256675
 21
166.6354931605525
 31
0.0
  0
LINE
  5
EF7C891EC
330
EF7C85532
100
AcDbEntity
  8
JISSEN
100
AcDbLine
 10
90.00008320256675
 20
165.5317151605524
 30
0.0
 11
89.00008320256675
 21
165.5317151605524
 31
0.0
  0
ARC
  5
EF7C891ED
330
EF7C85532
100
AcDbEntity
  8
JISSEN
100
AcDbCircle
 10
91.00008320256675
 20
172.8285941605524
 30
0.0
 40
0.5
100
AcDbArc
 50
0.000000000000007
 51
90.0
  0
LINE
  5
EF7C891EE
330
EF7C85532
100
AcDbEntity
  8
JISSEN
100
AcDbLine
 10
90.00008320256675
 20
173.3285941605524
 30
0.0
 11
91.00008320256675
 21
173.3285941605524
 31
0.0
  0
ARC
  5
EF7C891EF
330
EF7C85532
100
AcDbEntity
  8
JISSEN
100
AcDbCircle
 10
89.00008320256675
 20
172.8285941605524
 30
0.0
 40
0.5
100
AcDbArc
 50
90.0
 51
180.0
  0
LINE
  5
EF7C891F0
330
EF7C85532
100
AcDbEntity
  8
JISSEN
100
AcDbLine
 10
90.00008320256675
 20
173.3285941605524
 30
0.0
 11
89.00008320256675
 21
173.3285941605524
 31
0.0
  0
LINE
  5
EF7C891F1
330
EF7C85532
100
AcDbEntity
  8
JISSEN
100
AcDbLine
 10
96.74193620256676
 20
166.7293181605525
 30
0.0
 11
96.9813882025668
 21
173.1360641605524
 31
0.0
  0
ARC
  5
EF7C891F2
330
EF7C85532
100
AcDbEntity
  8
JISSEN
100
AcDbCircle
 10
98.57894220256675
 20
165.8317151605525
 30
0.0
 40
0.3
100
AcDbArc
 50
270.0
 51
323.1028380000011
  0
ARC
  5
EF7C891F3
330
EF7C85532
100
AcDbEntity
  8
JISSEN
100
AcDbCircle
 10
96.44214520256674
 20
166.7405221605525
 30
0.0
 40
0.3
100
AcDbArc
 50
323.1028380000011
 51
357.8595680000001
  0
LINE
  5
EF7C891F4
330
EF7C85532
100
AcDbEntity
  8
JISSEN
100
AcDbLine
 10
98.57894220256675
 20
165.5317151605524
 30
0.0
 11
96.31001320256679
 21
165.5317151605524
 31
0.0
  0
LINE
  5
EF7C891F5
330
EF7C85532
100
AcDbEntity
  8
JISSEN
100
AcDbLine
 10
98.85649220256675
 20
166.6354931605525
 30
0.0
 11
96.72315920256677
 21
166.6354931605525
 31
0.0
  0
ARC
  5
EF7C891F6
330
EF7C85532
100
AcDbEntity
  8
JISSEN
100
AcDbCircle
 10
96.31001320256679
 20
165.7317151605525
 30
0.0
 40
0.2
100
AcDbArc
 50
143.1028380000009
 51
270.0
  0
LINE
  5
EF7C891F7
330
EF7C85532
100
AcDbEntity
  8
JISSEN
100
AcDbLine
 10
96.15007020256678
 20
165.8517921605525
 30
0.0
 11
96.68206020256674
 21
166.5604081605525
 31
0.0
  0
ARC
  5
EF7C891F8
330
EF7C85532
100
AcDbEntity
  8
JISSEN
100
AcDbCircle
 10
97.18124920256672
 20
173.1285941605525
 30
0.0
 40
0.2
100
AcDbArc
 50
90.0
 51
177.8595680000003
  0
LINE
  5
EF7C891F9
330
EF7C85532
100
AcDbEntity
  8
JISSEN
100
AcDbLine
 10
91.00008320256675
 20
182.8285941605524
 30
0.0
 11
91.00008320256675
 21
175.8285941605524
 31
0.0
  0
LINE
  5
EF7C891FA
330
EF7C85532
100
AcDbEntity
  8
JISSEN
100
AcDbLine
 10
89.00008320256675
 20
182.8285941605524
 30
0.0
 11
89.00008320256675
 21
175.8285941605524
 31
0.0
  0
ARC
  5
EF7C891FB
330
EF7C85532
100
AcDbEntity
  8
JISSEN
100
AcDbCircle
 10
90.00008320256675
 20
182.0785941605524
 30
0.0
 40
1.25
100
AcDbArc
 50
36.86989800000061
 51
90.0
  0
ARC
  5
EF7C891FC
330
EF7C85532
100
AcDbEntity
  8
JISSEN
100
AcDbCircle
 10
90.00008320256675
 20
182.0785941605524
 30
0.0
 40
1.25
100
AcDbArc
 50
90.0
 51
143.1301019999993
  0
LINE
  5
EF7C891FD
330
EF7C85532
100
AcDbEntity
  8
JISSEN
100
AcDbLine
 10
106.5568552025667
 20
173.3285941605524
 30
0.0
 11
105.8069642025667
 21
173.3285941605524
 31
0.0
  0
ARC
  5
EF7C891FE
330
EF7C85532
100
AcDbEntity
  8
JISSEN
100
AcDbCircle
 10
105.8069642025667
 20
173.0285941605524
 30
0.0
 40
0.3
100
AcDbArc
 50
356.2556379999997
 51
90.0
  0
ARC
  5
EF7C891FF
330
EF7C85532
100
AcDbEntity
  8
JISSEN
100
AcDbCircle
 10
105.3049102025667
 20
167.2861221605525
 30
0.0
 40
1.199999999999999
100
AcDbArc
 50
305.3270680000005
 51
355.9820309999996
  0
LINE
  5
EF7C89200
330
EF7C85532
100
AcDbEntity
  8
JISSEN
100
AcDbLine
 10
106.1063232025666
 20
173.0090021605524
 30
0.0
 11
105.7136802025667
 21
167.0093711605525
 31
0.0
  0
LINE
  5
EF7C89201
330
EF7C85532
100
AcDbEntity
  8
JISSEN
100
AcDbLine
 10
104.6211042025666
 20
173.1426081605524
 30
0.0
 11
104.1772972025666
 21
166.8243421605525
 31
0.0
  0
LINE
  5
EF7C89202
330
EF7C85532
100
AcDbEntity
  8
JISSEN
100
AcDbLine
 10
99.79603020256673
 20
173.0173891605524
 30
0.0
 11
99.56919620256677
 21
166.9482411605525
 31
0.0
  0
LINE
  5
EF7C89203
330
EF7C85532
100
AcDbEntity
  8
JISSEN
100
AcDbLine
 10
99.37028820256678
 20
173.0698931605524
 30
0.0
 11
99.15631020256675
 21
166.9250531605525
 31
0.0
  0
ARC
  5
EF7C89204
330
EF7C85532
100
AcDbEntity
  8
JISSEN
100
AcDbCircle
 10
98.56989420256674
 20
166.9855901605524
 30
0.0
 40
1.0
100
AcDbArc
 50
323.1028380000011
 51
357.8595680000001
  0
ARC
  5
EF7C89205
330
EF7C85532
100
AcDbEntity
  8
JISSEN
100
AcDbCircle
 10
105.3145342025667
 20
167.0354931605525
 30
0.0
 40
0.4
100
AcDbArc
 50
270.0
 51
356.2556379999997
  0
ARC
  5
EF7C89206
330
EF7C85532
100
AcDbEntity
  8
JISSEN
100
AcDbCircle
 10
104.7933512025666
 20
165.8817151605525
 30
0.0
 40
0.35
100
AcDbArc
 50
270.0
 51
305.3270680000005
  0
ARC
  5
EF7C89207
330
EF7C85532
100
AcDbEntity
  8
JISSEN
100
AcDbCircle
 10
103.7782802025666
 20
166.8523701605525
 30
0.0
 40
0.4
100
AcDbArc
 50
305.3270680000005
 51
355.9820309999996
  0
LINE
  5
EF7C89208
330
EF7C85532
100
AcDbEntity
  8
JISSEN
100
AcDbLine
 10
104.9957362025667
 20
165.5961631605524
 30
0.0
 11
105.9988022025666
 21
166.3070851605525
 31
0.0
  0
LINE
  5
EF7C89209
330
EF7C85532
100
AcDbEntity
  8
JISSEN
100
AcDbLine
 10
105.3145342025667
 20
166.6354931605525
 30
0.0
 11
104.1143822025667
 21
166.6354931605525
 31
0.0
  0
ARC
  5
EF7C8920A
330
EF7C85532
100
AcDbEntity
  8
JISSEN
100
AcDbCircle
 10
103.0777182025667
 20
165.6817151605524
 30
0.0
 40
0.15
100
AcDbArc
 50
125.3270680000005
 51
270.0
  0
LINE
  5
EF7C8920B
330
EF7C85532
100
AcDbEntity
  8
JISSEN
100
AcDbLine
 10
103.0777182025667
 20
165.5317151605524
 30
0.0
 11
104.7933512025666
 21
165.5317151605524
 31
0.0
  0
LINE
  5
EF7C8920C
330
EF7C85532
100
AcDbEntity
  8
JISSEN
100
AcDbLine
 10
104.0095772025666
 20
166.5260241605525
 30
0.0
 11
102.9909822025667
 21
165.8040951605524
 31
0.0
  0
ARC
  5
EF7C8920D
330
EF7C85532
100
AcDbEntity
  8
JISSEN
100
AcDbCircle
 10
99.12044020256679
 20
173.0785941605524
 30
0.0
 40
0.25
100
AcDbArc
 50
358.0056319999998
 51
90.0
  0
ARC
  5
EF7C8920E
330
EF7C85532
100
AcDbEntity
  8
JISSEN
100
AcDbCircle
 10
99.49624020256676
 20
173.0285941605524
 30
0.0
 40
0.3
100
AcDbArc
 50
357.8595680000001
 51
90.0
  0
ARC
  5
EF7C8920F
330
EF7C85532
100
AcDbEntity
  8
JISSEN
100
AcDbCircle
 10
104.8206132025667
 20
173.1285941605525
 30
0.0
 40
0.2
100
AcDbArc
 50
90.0
 51
175.9820309999995
  0
LINE
  5
EF7C89210
330
EF7C85532
100
AcDbEntity
  8
JISSEN
100
AcDbLine
 10
105.8069642025667
 20
173.3285941605524
 30
0.0
 11
104.8206132025667
 21
173.3285941605524
 31
0.0
  0
LINE
  5
EF7C89211
330
EF7C85532
100
AcDbEntity
  8
JISSEN
100
AcDbLine
 10
110.9108242025667
 20
173.1110271605524
 30
0.0
 11
110.3800702025667
 21
167.0915771605525
 31
0.0
  0
LINE
  5
EF7C89212
330
EF7C85532
100
AcDbEntity
  8
JISSEN
100
AcDbLine
 10
111.9732452025667
 20
172.8909071605524
 30
0.0
 11
111.4475432025667
 21
167.3359611605524
 31
0.0
  0
LINE
  5
EF7C89213
330
EF7C85532
100
AcDbEntity
  8
JISSEN
100
AcDbLine
 10
106.5019602025667
 20
167.2020391605524
 30
0.0
 11
106.9059942025667
 21
172.9540691605524
 31
0.0
  0
LINE
  5
EF7C89214
330
EF7C85532
100
AcDbEntity
  8
JISSEN
100
AcDbLine
 10
109.9058922025667
 20
166.9061441605525
 30
0.0
 11
110.4740002025667
 21
173.1467261605524
 31
0.0
  0
LINE
  5
EF7C89215
330
EF7C85532
100
AcDbEntity
  8
JISSEN
100
AcDbLine
 10
108.1413582025667
 20
165.7202171605525
 30
0.0
 11
109.6407332025666
 21
166.5089671605525
 31
0.0
  0
LINE
  5
EF7C89216
330
EF7C85532
100
AcDbEntity
  8
JISSEN
100
AcDbLine
 10
110.7585592025666
 20
166.3079231605524
 30
0.0
 11
109.3704602025667
 21
165.5777101605524
 31
0.0
  0
LINE
  5
EF7C89217
330
EF7C85532
100
AcDbEntity
  8
JISSEN
100
AcDbLine
 10
109.1842342025667
 20
165.5317151605524
 30
0.0
 11
108.1879152025666
 21
165.5317151605524
 31
0.0
  0
ARC
  5
EF7C89218
330
EF7C85532
100
AcDbEntity
  8
JISSEN
100
AcDbCircle
 10
109.1842342025667
 20
165.9317151605524
 30
0.0
 40
0.4
100
AcDbArc
 50
270.0
 51
297.7467380000011
  0
ARC
  5
EF7C89219
330
EF7C85532
100
AcDbEntity
  8
JISSEN
100
AcDbCircle
 10
108.1879152025666
 20
165.6317151605524
 30
0.0
 40
0.1
100
AcDbArc
 50
117.7467380000011
 51
270.0
  0
ARC
  5
EF7C8921A
330
EF7C85532
100
AcDbEntity
  8
JISSEN
100
AcDbCircle
 10
110.8859822025666
 20
165.6039521605524
 30
0.0
 40
0.05
100
AcDbArc
 50
114.825405
 51
270.0
  0
LINE
  5
EF7C8921B
330
EF7C85532
100
AcDbEntity
  8
JISSEN
100
AcDbLine
 10
110.9596572025667
 20
165.5539521605525
 30
0.0
 11
110.8859822025666
 21
165.5539521605525
 31
0.0
  0
ARC
  5
EF7C8921C
330
EF7C85532
100
AcDbEntity
  8
JISSEN
100
AcDbCircle
 10
110.9596572025667
 20
166.5539521605525
 30
0.0
 40
1.0
100
AcDbArc
 50
270.0
 51
294.825405
  0
ARC
  5
EF7C8921D
330
EF7C85532
100
AcDbEntity
  8
JISSEN
100
AcDbCircle
 10
110.1533262025667
 20
167.4584421605525
 30
0.0
 40
1.3
100
AcDbArc
 50
297.7467380000011
 51
354.5938149999994
  0
LINE
  5
EF7C8921E
330
EF7C85532
100
AcDbEntity
  8
JISSEN
100
AcDbLine
 10
112.8464102025666
 20
166.3249521605524
 30
0.0
 11
111.3795122025666
 21
165.6463601605524
 31
0.0
  0
LINE
  5
EF7C8921F
330
EF7C85532
100
AcDbEntity
  8
JISSEN
100
AcDbLine
 10
110.8649902025667
 20
165.6493311605524
 30
0.0
 11
112.3768492025666
 21
166.3487221605525
 31
0.0
  0
ARC
  5
EF7C89220
330
EF7C85532
100
AcDbEntity
  8
JISSEN
100
AcDbCircle
 10
109.4079512025667
 20
166.9514741605524
 30
0.0
 40
0.5
100
AcDbArc
 50
297.7467380000011
 51
354.7984409999997
  0
ARC
  5
EF7C89221
330
EF7C85532
100
AcDbEntity
  8
JISSEN
100
AcDbCircle
 10
109.8820022025666
 20
167.1354931605524
 30
0.0
 40
0.5
100
AcDbArc
 50
260.6504449999984
 51
354.9610729999998
  0
ARC
  5
EF7C89222
330
EF7C85532
100
AcDbEntity
  8
JISSEN
100
AcDbCircle
 10
106.5568552025667
 20
172.9785941605524
 30
0.0
 40
0.35
100
AcDbArc
 50
355.9820309999996
 51
90.0
  0
ARC
  5
EF7C89223
330
EF7C85532
100
AcDbEntity
  8
JISSEN
100
AcDbCircle
 10
110.7115972025666
 20
173.1285941605525
 30
0.0
 40
0.2
100
AcDbArc
 50
354.9610729999998
 51
90.0
  0
ARC
  5
EF7C89224
330
EF7C85532
100
AcDbEntity
  8
JISSEN
100
AcDbCircle
 10
111.5750242025667
 20
172.9285941605524
 30
0.0
 40
0.4
100
AcDbArc
 50
354.5938149999994
 51
90.0
  0
LINE
  5
EF7C89225
330
EF7C85532
100
AcDbEntity
  8
JISSEN
100
AcDbLine
 10
110.6731772025667
 20
173.3285941605524
 30
0.0
 11
111.5750242025667
 21
173.3285941605524
 31
0.0
  0
ARC
  5
EF7C89226
330
EF7C85532
100
AcDbEntity
  8
JISSEN
100
AcDbCircle
 10
110.6731772025667
 20
173.1285941605525
 30
0.0
 40
0.2
100
AcDbArc
 50
90.0
 51
174.7984409999996
  0
LINE
  5
EF7C89227
330
EF7C85532
100
AcDbEntity
  8
JISSEN
100
AcDbLine
 10
101.7000832025666
 20
183.3285941605524
 30
0.0
 11
100.6588022025667
 21
184.3698751605524
 31
0.0
  0
LINE
  5
EF7C89228
330
EF7C85532
100
AcDbEntity
  8
SAISEN
100
AcDbLine
 10
100.6588022025667
 20
184.3698751605524
 30
0.0
 11
99.45931620256676
 21
185.5693611605524
 31
0.0
  0
LINE
  5
EF7C89229
330
EF7C85532
100
AcDbEntity
  8
JISSEN
100
AcDbLine
 10
79.73815920256679
 20
200.0666691605561
 30
0.0
 11
90.00008320256675
 21
200.0666691605561
 31
0.0
  0
LINE
  5
EF7C8922A
330
EF7C85532
100
AcDbEntity
  8
JISSEN
100
AcDbLine
 10
81.00008320256677
 20
201.3285941605561
 30
0.0
 11
90.00008320256675
 21
201.328594160556
 31
0.0
  0
LINE
  5
EF7C8922B
330
EF7C85532
100
AcDbEntity
  8
JISSEN
100
AcDbLine
 10
79.73815920256679
 20
200.0666691605561
 30
0.0
 11
81.00008320256677
 21
201.3285941605561
 31
0.0
  0
LINE
  5
EF7C8922C
330
EF7C85532
100
AcDbEntity
  8
JISSEN
100
AcDbLine
 10
99.00008320256675
 20
201.3285941605561
 30
0.0
 11
90.00008320256675
 21
201.328594160556
 31
0.0
  0
LINE
  5
EF7C8922D
330
EF7C85532
100
AcDbEntity
  8
JISSEN
100
AcDbLine
 10
100.2620072025667
 20
200.0666691605561
 30
0.0
 11
90.00008320256675
 21
200.0666691605561
 31
0.0
  0
LINE
  5
EF7C8922E
330
EF7C85532
100
AcDbEntity
  8
JISSEN
100
AcDbLine
 10
100.2620072025667
 20
200.0666691605561
 30
0.0
 11
99.00008320256675
 21
201.3285941605561
 31
0.0
  0
LWPOLYLINE
  5
EF7C89233
330
EF7C85532
100
AcDbEntity
  8
NITEN
100
AcDbPolyline
 90
        5
 70
     0
 43
0.0
 10
106.9999997645507
 20
231.4391430662799
 10
106.9999997645507
 20
252.2768607174258
 42
-0.5882352941176476
 10
89.9999997645507
 20
252.2768607174258
 42
0.5882352941176477
 10
72.99999976455068
 20
252.2768607174254
 10
72.99999976455068
 20
231.4391430662799
  0
LWPOLYLINE
  5
EF7C89234
330
EF7C85532
100
AcDbEntity
  8
NITEN
100
AcDbPolyline
 90
        2
 70
     0
 43
0.0
 10
106.9999997645507
 20
252.2768607174258
 42
0.5882352941176295
 10
89.99999976455063
 20
252.2768607174261
 42
0.5882352941176295
  0
LWPOLYLINE
  5
EF7C89238
102
{ACAD_REACTORS
330
EF7C8914B
102
}
330
EF7C85532
100
AcDbEntity
  8
HATCH
100
AcDbPolyline
 90
       13
 70
     0
 43
0.0
 10
158.7336687536762
 20
188.3285941605524
 10
158.5690815754261
 20
187.5089570823205
 10
158.4271762187459
 20
186.9923391055561
 10
158.1994675815981
 20
186.5739128188684
 10
157.8915800949387
 20
186.2357957952014
 10
157.5253568059591
 20
185.9455447225513
 10
157.1226407618504
 20
185.6707162889138
 10
156.7052750098037
 20
185.3788671822847
 10
156.2951025970098
 20
185.0375540906601
 10
155.9139665706601
 20
184.6143337020356
 10
155.5837099779456
 20
184.0767627044075
 10
155.3091299147429
 20
183.4131439171199
 10
155.2759057202463
 20
183.3285941605524
  0
LINE
  5
EF7C8923B
330
EF7C85532
100
AcDbEntity
  8
JISSEN
100
AcDbLine
 10
114.6000832025666
 20
174.8285941605525
 30
0.0
 11
114.4688502025666
 21
173.3285941605524
 31
0.0
  0
LINE
  5
EF7C8923C
330
EF7C85532
100
AcDbEntity
  8
JISSEN
100
AcDbLine
 10
114.2384072025667
 20
172.9080301605524
 30
0.0
 11
113.6505772025667
 21
167.4457811605525
 31
0.0
  0
LINE
  5
EF7C8923D
330
EF7C85532
100
AcDbEntity
  8
JISSEN
100
AcDbLine
 10
114.4688502025666
 20
173.3285941605524
 30
0.0
 11
113.9484962025667
 21
167.3809171605525
 31
0.0
  0
ARC
  5
EF7C8923E
330
EF7C85532
100
AcDbEntity
  8
JISSEN
100
AcDbCircle
 10
113.8407042025667
 20
172.9508301605524
 30
0.0
 40
0.4
100
AcDbArc
 50
353.8576430000002
 51
88.64114499999931
  0
ARC
  5
EF7C8923F
330
EF7C85532
100
AcDbEntity
  8
JISSEN
100
AcDbCircle
 10
113.8549312025667
 20
173.2508301605524
 30
0.0
 40
0.1
100
AcDbArc
 50
92.7179019999998
 51
173.8576429999999
  0
LINE
  5
EF7C89240
330
EF7C85532
100
AcDbEntity
  8
JISSEN
100
AcDbLine
 10
116.5000832025667
 20
183.1785941605524
 30
0.0
 11
116.5000832025667
 21
175.8285941605524
 31
0.0
  0
LINE
  5
EF7C89241
330
EF7C85532
100
AcDbEntity
  8
JISSEN
100
AcDbLine
 10
115.5000832025667
 20
174.8285941605525
 30
0.0
 11
114.6000832025666
 21
174.8285941605525
 31
0.0
  0
LINE
  5
EF7C89242
330
EF7C85532
100
AcDbEntity
  8
JISSEN
100
AcDbLine
 10
116.5000832025667
 20
175.8285941605524
 30
0.0
 11
115.5000832025667
 21
174.8285941605525
 31
0.0
  0
LINE
  5
EF7C89243
330
EF7C85532
100
AcDbEntity
  8
JISSEN
100
AcDbLine
 10
116.5000832025667
 20
183.1785941605524
 30
0.0
 11
116.3500832025667
 21
183.3285941605524
 31
0.0
  0
ARC
  5
EF7C89319
330
EF7C85532
100
AcDbEntity
  8
JISSEN
100
AcDbCircle
 10
90.00008320257045
 20
127.0644776503518
 30
0.0
 40
1.0
100
AcDbArc
 50
181.0811165961094
 51
358.9188834038903
  0
ARC
  5
EF7C8931A
330
EF7C85532
100
AcDbEntity
  8
JISSEN
100
AcDbCircle
 10
90.00008320257045
 20
100.5644776503517
 30
0.0
 40
23.35
100
AcDbArc
 50
86.3167926881413
 51
93.68320731185869
  0
ARC
  5
EF7C8931B
330
EF7C85532
100
AcDbEntity
  8
JISSEN
100
AcDbCircle
 10
90.00008320257045
 20
100.5644776503517
 30
0.0
 40
23.35
100
AcDbArc
 50
86.31679268814298
 51
93.68320731186031
  0
ARC
  5
EF7C8931C
330
EF7C85532
100
AcDbEntity
  8
JISSEN
100
AcDbCircle
 10
90.00008320257045
 20
100.5644776503517
 30
0.0
 40
23.35
100
AcDbArc
 50
86.31679268814298
 51
93.68320731186031
  0
LINE
  5
EF7C8931D
330
EF7C85532
100
AcDbEntity
  8
JISSEN
100
AcDbLine
 10
81.74115951461521
 20
120.3318795918445
 30
0.0
 11
83.62054475618711
 21
121.0159198784959
 31
0.0
  0
ARC
  5
EF7C8931E
330
EF7C85532
100
AcDbEntity
  8
JISSEN
100
AcDbCircle
 10
81.57014944295239
 20
120.8017259022375
 30
0.0
 40
0.5
100
AcDbArc
 50
200.0
 51
290.0
  0
ARC
  5
EF7C8931F
330
EF7C85532
100
AcDbEntity
  8
JISSEN
100
AcDbCircle
 10
83.44953468452422
 20
121.4857661888889
 30
0.0
 40
0.5
100
AcDbArc
 50
290.0
 51
20.00000000000009
  0
LINE
  5
EF7C89320
330
EF7C85532
100
AcDbEntity
  8
JISSEN
100
AcDbLine
 10
96.37962164895384
 20
121.0159198784959
 30
0.0
 11
98.25900689052573
 21
120.3318795918445
 31
0.0
  0
ARC
  5
EF7C89321
330
EF7C85532
100
AcDbEntity
  8
JISSEN
100
AcDbCircle
 10
98.43001696218848
 20
120.8017259022375
 30
0.0
 40
0.5
100
AcDbArc
 50
249.9999999999999
 51
339.9999999999991
  0
LINE
  5
EF7C89322
330
EF7C85532
100
AcDbEntity
  8
JISSEN
100
AcDbLine
 10
89.00008320257049
 20
121.9644776503517
 30
0.0
 11
91.00008320257044
 21
121.9644776503517
 31
0.0
  0
ARC
  5
EF7C89323
330
EF7C85532
100
AcDbEntity
  8
JISSEN
100
AcDbCircle
 10
89.00008320257049
 20
122.4644776503517
 30
0.0
 40
0.5
100
AcDbArc
 50
180.0
 51
270.0
  0
ARC
  5
EF7C89324
330
EF7C85532
100
AcDbEntity
  8
JISSEN
100
AcDbCircle
 10
91.00008320257044
 20
122.4644776503517
 30
0.0
 40
0.5
100
AcDbArc
 50
270.0
 51
0.0
  0
ARC
  5
EF7C89325
330
EF7C85532
100
AcDbEntity
  8
JISSEN
100
AcDbCircle
 10
96.55063172061673
 20
121.4857661888889
 30
0.0
 40
0.5
100
AcDbArc
 50
159.9999999999991
 51
249.9999999999999
  0
ARC
  5
EF7C89326
330
EF7C85532
100
AcDbEntity
  8
JISSEN
100
AcDbCircle
 10
90.00008320257045
 20
100.5644776503517
 30
0.0
 40
23.35
100
AcDbArc
 50
126.3167926881414
 51
133.6832073118583
  0
ARC
  5
EF7C89327
330
EF7C85532
100
AcDbEntity
  8
JISSEN
100
AcDbCircle
 10
76.68907899355423
 20
117.983638564344
 30
0.0
 40
0.5
100
AcDbArc
 50
310.0000000000001
 51
40.00000000000009
  0
ARC
  5
EF7C89328
330
EF7C85532
100
AcDbEntity
  8
JISSEN
100
AcDbCircle
 10
103.3110874115866
 20
117.983638564344
 30
0.0
 40
0.5
100
AcDbArc
 50
139.9999999999998
 51
229.9999999999999
  0
ARC
  5
EF7C89329
330
EF7C85532
100
AcDbEntity
  8
JISSEN
100
AcDbCircle
 10
90.00008320257045
 20
100.5644776503517
 30
0.0
 40
23.35
100
AcDbArc
 50
46.31679268814106
 51
53.68320731185843
  0
LINE
  5
EF7C8932A
330
EF7C85532
100
AcDbEntity
  8
JISSEN
100
AcDbLine
 10
77.07210121511372
 20
118.3050323691873
 30
0.0
 11
75.36599781826277
 21
120.3382872217215
 31
0.0
  0
LINE
  5
EF7C8932B
330
EF7C85532
100
AcDbEntity
  8
JISSEN
100
AcDbLine
 10
104.6341685868781
 20
120.3382872217215
 30
0.0
 11
102.9280651900271
 21
118.3050323691872
 31
0.0
  0
ARC
  5
EF7C8932C
330
EF7C85532
100
AcDbEntity
  8
JISSEN
100
AcDbCircle
 10
75.15699010731629
 20
116.6980633449709
 30
0.0
 40
0.5
100
AcDbArc
 50
220.0000000000001
 51
310.0000000000001
  0
ARC
  5
EF7C8932D
330
EF7C85532
100
AcDbEntity
  8
JISSEN
100
AcDbCircle
 10
104.8431762978246
 20
116.6980633449709
 30
0.0
 40
0.5
100
AcDbArc
 50
229.9999999999999
 51
319.9999999999998
  0
ARC
  5
EF7C8932E
330
EF7C85532
100
AcDbEntity
  8
JISSEN
100
AcDbCircle
 10
71.53412685969129
 20
112.3805030541362
 30
0.0
 40
0.5
100
AcDbArc
 50
330.0000000000001
 51
59.99999999999985
  0
LINE
  5
EF7C8932F
330
EF7C85532
100
AcDbEntity
  8
JISSEN
100
AcDbLine
 10
69.48549997129129
 20
114.1406286088126
 30
0.0
 11
71.7841268596913
 21
112.8135157560284
 31
0.0
  0
ARC
  5
EF7C89330
330
EF7C85532
100
AcDbEntity
  8
JISSEN
100
AcDbCircle
 10
108.4660395454496
 20
112.3805030541362
 30
0.0
 40
0.5
100
AcDbArc
 50
120.0000000000001
 51
209.9999999999989
  0
LINE
  5
EF7C89331
330
EF7C85532
100
AcDbEntity
  8
JISSEN
100
AcDbLine
 10
110.5146664338497
 20
114.1406286088126
 30
0.0
 11
108.2160395454496
 21
112.8135157560284
 31
0.0
  0
LINE
  5
EF7C89332
330
EF7C85532
100
AcDbEntity
  8
JISSEN
100
AcDbLine
 10
73.06786448890584
 20
118.4099243926619
 30
0.0
 11
74.7739678857568
 21
116.3766695401276
 31
0.0
  0
LINE
  5
EF7C89333
330
EF7C85532
100
AcDbEntity
  8
JISSEN
100
AcDbLine
 10
75.47838391215953
 20
116.3150411234114
 30
0.0
 11
77.01047279839746
 21
117.6006163427845
 31
0.0
  0
LINE
  5
EF7C89334
330
EF7C85532
100
AcDbEntity
  8
JISSEN
100
AcDbLine
 10
102.9896936067434
 20
117.6006163427845
 30
0.0
 11
104.5217824929814
 21
116.3150411234114
 31
0.0
  0
LINE
  5
EF7C89335
330
EF7C85532
100
AcDbEntity
  8
JISSEN
100
AcDbLine
 10
105.2261985193841
 20
116.3766695401276
 30
0.0
 11
106.932301916235
 21
118.4099243926618
 31
0.0
  0
LINE
  5
EF7C89336
330
EF7C85532
100
AcDbEntity
  8
JISSEN
100
AcDbLine
 10
80.19250447632225
 20
123.1248721399976
 30
0.0
 11
81.10030313255947
 21
120.6307158305746
 31
0.0
  0
ARC
  5
EF7C89337
330
EF7C85532
100
AcDbEntity
  8
JISSEN
100
AcDbCircle
 10
90.00008320257045
 20
100.5644776503517
 30
0.0
 40
23.35
100
AcDbArc
 50
106.3167926881415
 51
113.6832073118595
  0
LINE
  5
EF7C89338
330
EF7C85532
100
AcDbEntity
  8
JISSEN
100
AcDbLine
 10
83.91938099491715
 20
121.6567762605516
 30
0.0
 11
83.01158233867999
 21
124.1509325699746
 31
0.0
  0
LINE
  5
EF7C89339
330
EF7C85532
100
AcDbEntity
  8
JISSEN
100
AcDbLine
 10
98.89986327258144
 20
120.6307158305746
 30
0.0
 11
99.80766192881869
 21
123.1248721399975
 31
0.0
  0
LINE
  5
EF7C8933A
330
EF7C85532
100
AcDbEntity
  8
JISSEN
100
AcDbLine
 10
88.50008320256961
 20
122.4644776503517
 30
0.0
 11
88.50008320256961
 21
125.1187033559202
 31
0.0
  0
LINE
  5
EF7C8933B
330
EF7C85532
100
AcDbEntity
  8
JISSEN
100
AcDbLine
 10
91.5000832025697
 20
122.4644776503517
 30
0.0
 11
91.5000832025696
 21
125.1187033559203
 31
0.0
  0
ARC
  5
EF7C8933C
330
EF7C85532
100
AcDbEntity
  8
JISSEN
100
AcDbCircle
 10
90.00008320257045
 20
100.5644776503517
 30
0.0
 40
23.35
100
AcDbArc
 50
66.31679268814051
 51
73.6832073118585
  0
LINE
  5
EF7C8933D
330
EF7C85532
100
AcDbEntity
  8
JISSEN
100
AcDbLine
 10
96.98858406646094
 20
124.1509325699747
 30
0.0
 11
96.08078541022372
 21
121.6567762605516
 31
0.0
  0
LINE
  5
EF7C8933E
330
EF7C85532
100
AcDbEntity
  8
JISSEN
100
AcDbLine
 10
70.28412685969128
 20
110.2154395446751
 30
0.0
 11
67.98549997129128
 21
111.5425523974594
 31
0.0
  0
ARC
  5
EF7C8933F
330
EF7C85532
100
AcDbEntity
  8
JISSEN
100
AcDbCircle
 10
70.5341268596913
 20
110.6484522465674
 30
0.0
 40
0.5
100
AcDbArc
 50
240.0000000000002
 51
330.0000000000001
  0
LINE
  5
EF7C89340
330
EF7C85532
100
AcDbEntity
  8
JISSEN
100
AcDbLine
 10
109.7160395454496
 20
110.2154395446751
 30
0.0
 11
112.0146664338496
 21
111.5425523974594
 31
0.0
  0
ARC
  5
EF7C89341
330
EF7C85532
100
AcDbEntity
  8
JISSEN
100
AcDbCircle
 10
109.4660395454496
 20
110.6484522465672
 30
0.0
 40
0.5
100
AcDbArc
 50
209.9999999999996
 51
300.0000000000001
  0
ARC
  5
EF7C89344
330
EF7C85532
100
AcDbEntity
  8
JISSEN
100
AcDbCircle
 10
68.60644158926999
 20
105.3521804942697
 30
0.0
 40
0.5
100
AcDbArc
 50
349.9999999999998
 51
79.9999999999998
  0
ARC
  5
EF7C89345
330
EF7C85532
100
AcDbEntity
  8
JISSEN
100
AcDbCircle
 10
111.3937248158707
 20
105.3521804942697
 30
0.0
 40
0.5
100
AcDbArc
 50
100.0000000000001
 51
190.0000000000002
  0
LINE
  5
EF7C89346
330
EF7C85532
100
AcDbEntity
  8
JISSEN
100
AcDbLine
 10
65.55841909201456
 20
103.351062568628
 30
0.0
 11
68.17232114510267
 21
102.8901611117392
 31
0.0
  0
ARC
  5
EF7C89347
330
EF7C85532
100
AcDbEntity
  8
JISSEN
100
AcDbCircle
 10
68.25914523393618
 20
103.3825649882454
 30
0.0
 40
0.5
100
AcDbArc
 50
259.9999999999998
 51
349.9999999999998
  0
ARC
  5
EF7C89348
330
EF7C85532
100
AcDbEntity
  8
JISSEN
100
AcDbCircle
 10
111.7410211712047
 20
103.3825649882454
 30
0.0
 40
0.5
100
AcDbArc
 50
190.0000000000002
 51
280.0
  0
LINE
  5
EF7C89349
330
EF7C85532
100
AcDbEntity
  8
JISSEN
100
AcDbLine
 10
111.827845260038
 20
102.8901611117392
 30
0.0
 11
114.4417473131263
 21
103.3510625686279
 31
0.0
  0
ARC
  5
EF7C8934C
330
EF7C85532
100
AcDbEntity
  8
JISSEN
100
AcDbCircle
 10
90.00008320257045
 20
100.5644776503517
 30
0.0
 40
23.35
100
AcDbArc
 50
166.3167926881406
 51
173.6832073118588
  0
LINE
  5
EF7C8934D
330
EF7C85532
100
AcDbEntity
  8
JISSEN
100
AcDbLine
 10
68.75154911044228
 20
103.2957408994119
 30
0.0
 11
69.09884546577609
 21
105.2653564054363
 31
0.0
  0
LINE
  5
EF7C8934E
330
EF7C85532
100
AcDbEntity
  8
JISSEN
100
AcDbLine
 10
110.9013209393648
 20
105.2653564054363
 30
0.0
 11
111.2486172946986
 21
103.2957408994119
 31
0.0
  0
ARC
  5
EF7C8934F
330
EF7C85532
100
AcDbEntity
  8
JISSEN
100
AcDbCircle
 10
90.00008320257045
 20
100.5644776503517
 30
0.0
 40
23.35
100
AcDbArc
 50
6.316792688141071
 51
13.6832073118586
  0
ARC
  5
EF7C89350
330
EF7C85532
100
AcDbEntity
  8
JISSEN
100
AcDbCircle
 10
90.00008320257045
 20
100.5644776503517
 30
0.0
 40
23.35
100
AcDbArc
 50
6.316792688141071
 51
13.68320731185939
  0
LINE
  5
EF7C89352
330
EF7C85532
100
AcDbEntity
  8
JISSEN
100
AcDbLine
 10
68.6932656781035
 20
105.8445843707759
 30
0.0
 11
66.07936362501532
 21
106.3054858276645
 31
0.0
  0
LINE
  5
EF7C89353
330
EF7C85532
100
AcDbEntity
  8
JISSEN
100
AcDbLine
 10
113.9208027801255
 20
106.3054858276645
 30
0.0
 11
111.3069007270373
 21
105.8445843707759
 31
0.0
  0
LINE
  5
EF7C89355
330
EF7C85532
100
AcDbEntity
  8
JISSEN
100
AcDbLine
 10
68.75154911044228
 20
97.83321440129173
 30
0.0
 11
69.09884546577609
 21
95.86359889526731
 31
0.0
  0
LINE
  5
EF7C89356
330
EF7C85532
100
AcDbEntity
  8
JISSEN
100
AcDbLine
 10
110.9013209393648
 20
95.86359889526727
 30
0.0
 11
111.2486172946986
 21
97.83321440129171
 31
0.0
  0
LINE
  5
EF7C89357
330
EF7C85532
100
AcDbEntity
  8
JISSEN
100
AcDbLine
 10
65.55841909201456
 20
97.77789273207568
 30
0.0
 11
68.17232114510267
 21
98.23879418896437
 31
0.0
  0
ARC
  5
EF7C89358
330
EF7C85532
100
AcDbEntity
  8
JISSEN
100
AcDbCircle
 10
68.25914523393618
 20
97.74639031245827
 30
0.0
 40
0.5
100
AcDbArc
 50
10.00000000000021
 51
100.0000000000001
  0
ARC
  5
EF7C89359
330
EF7C85532
100
AcDbEntity
  8
JISSEN
100
AcDbCircle
 10
111.7410211712047
 20
97.74639031245824
 30
0.0
 40
0.5
100
AcDbArc
 50
79.9999999999998
 51
169.9999999999996
  0
LINE
  5
EF7C8935A
330
EF7C85532
100
AcDbEntity
  8
JISSEN
100
AcDbLine
 10
111.827845260038
 20
98.23879418896432
 30
0.0
 11
114.4417473131263
 21
97.77789273207563
 31
0.0
  0
ARC
  5
EF7C8935C
330
EF7C85532
100
AcDbEntity
  8
JISSEN
100
AcDbCircle
 10
70.53412685969124
 20
90.48050305413623
 30
0.0
 40
0.5
100
AcDbArc
 50
29.99999999999972
 51
120.0000000000001
  0
ARC
  5
EF7C8935D
330
EF7C85532
100
AcDbEntity
  8
JISSEN
100
AcDbCircle
 10
109.4660395454496
 20
90.48050305413623
 30
0.0
 40
0.5
100
AcDbArc
 50
59.99999999999985
 51
150.0000000000001
  0
ARC
  5
EF7C89363
330
EF7C85532
100
AcDbEntity
  8
JISSEN
100
AcDbCircle
 10
90.00008320257045
 20
100.5644776503517
 30
0.0
 40
23.35
100
AcDbArc
 50
186.3167926881409
 51
193.6832073118593
  0
LINE
  5
EF7C89364
330
EF7C85532
100
AcDbEntity
  8
JISSEN
100
AcDbLine
 10
68.6932656781035
 20
95.28437092992772
 30
0.0
 11
66.07936362501532
 21
94.82346947303907
 31
0.0
  0
ARC
  5
EF7C89365
330
EF7C85532
100
AcDbEntity
  8
JISSEN
100
AcDbCircle
 10
68.60644158926999
 20
95.77677480643385
 30
0.0
 40
0.5
100
AcDbArc
 50
280.0
 51
10.00000000000021
  0
LINE
  5
EF7C89366
330
EF7C85532
100
AcDbEntity
  8
JISSEN
100
AcDbLine
 10
113.9208027801255
 20
94.823469473039
 30
0.0
 11
111.3069007270373
 21
95.28437092992772
 31
0.0
  0
ARC
  5
EF7C89367
330
EF7C85532
100
AcDbEntity
  8
JISSEN
100
AcDbCircle
 10
111.3937248158707
 20
95.7767748064338
 30
0.0
 40
0.5
100
AcDbArc
 50
169.9999999999996
 51
259.9999999999998
  0
ARC
  5
EF7C89368
330
EF7C85532
100
AcDbEntity
  8
JISSEN
100
AcDbCircle
 10
90.00008320257045
 20
100.5644776503517
 30
0.0
 40
23.35
100
AcDbArc
 50
346.3167926881406
 51
353.6832073118588
  0
ARC
  5
EF7C8936A
330
EF7C85532
100
AcDbEntity
  8
JISSEN
100
AcDbCircle
 10
63.50008320257046
 20
100.5644776503517
 30
0.0
 40
1.0
100
AcDbArc
 50
271.0811165961095
 51
89.99999999999511
  0
ARC
  5
EF7C8936B
330
EF7C85532
100
AcDbEntity
  8
JISSEN
100
AcDbCircle
 10
116.5000832025705
 20
100.5644776503517
 30
0.0
 40
1.0
100
AcDbArc
 50
91.0811165961128
 51
268.9188834038871
  0
CIRCLE
  5
EF7C8936C
330
EF7C85532
100
AcDbEntity
  8
JISSEN
100
AcDbCircle
 10
90.00008320257045
 20
100.5644776503517
 30
0.0
 40
3.0
  0
ARC
  5
EF7C8936E
330
EF7C85532
100
AcDbEntity
  8
JISSEN
100
AcDbCircle
 10
90.00008320257045
 20
100.5644776503517
 30
0.0
 40
26.5
100
AcDbArc
 50
2.162233192218069
 51
87.83776680778194
  0
ARC
  5
EF7C8936F
330
EF7C85532
100
AcDbEntity
  8
JISSEN
100
AcDbCircle
 10
90.00008320257045
 20
100.5644776503517
 30
0.0
 40
26.5
100
AcDbArc
 50
92.16223319221807
 51
177.8377668077819
  0
ARC
  5
EF7C89370
330
EF7C85532
100
AcDbEntity
  8
JISSEN
100
AcDbCircle
 10
90.00008320257045
 20
100.5644776503517
 30
0.0
 40
23.35
100
AcDbArc
 50
146.3167926881411
 51
153.6832073118582
  0
LINE
  5
EF7C89371
330
EF7C85532
100
AcDbEntity
  8
JISSEN
100
AcDbLine
 10
71.96713956158352
 20
112.1305030541362
 30
0.0
 11
70.9671395615835
 21
110.3984522465674
 31
0.0
  0
ARC
  5
EF7C89372
330
EF7C85532
100
AcDbEntity
  8
JISSEN
100
AcDbCircle
 10
90.00008320257045
 20
100.5644776503517
 30
0.0
 40
23.35
100
AcDbArc
 50
26.31679268814087
 51
33.6832073118588
  0
LINE
  5
EF7C89373
330
EF7C85532
100
AcDbEntity
  8
JISSEN
100
AcDbLine
 10
108.0330268435574
 20
112.1305030541362
 30
0.0
 11
109.0330268435574
 21
110.3984522465672
 31
0.0
  0
LINE
  5
EF7C89374
330
EF7C85532
100
AcDbEntity
  8
JISSEN
100
AcDbLine
 10
108.21603954545
 20
88.31543954467578
 30
0.0
 11
110.5146664338501
 21
86.98832669189163
 31
0.0
  0
LINE
  5
EF7C89375
330
EF7C85532
100
AcDbEntity
  8
JISSEN
100
AcDbLine
 10
71.78412685969163
 20
88.31543954467443
 30
0.0
 11
69.48549997129169
 21
86.98832669189021
 31
0.0
  0
ARC
  5
EF7C89376
330
EF7C85532
100
AcDbEntity
  8
JISSEN
100
AcDbCircle
 10
71.53412685969124
 20
88.74845224656736
 30
0.0
 40
0.5
100
AcDbArc
 50
300.0000000000001
 51
29.99999999999972
  0
ARC
  5
EF7C89377
330
EF7C85532
100
AcDbEntity
  8
JISSEN
100
AcDbCircle
 10
108.4660395454496
 20
88.74845224656736
 30
0.0
 40
0.5
100
AcDbArc
 50
150.0000000000001
 51
239.9999999999998
  0
ARC
  5
EF7C89378
330
EF7C85532
100
AcDbEntity
  8
JISSEN
100
AcDbCircle
 10
75.15699010731629
 20
84.4308919557327
 30
0.0
 40
0.5
100
AcDbArc
 50
49.99999999999992
 51
139.9999999999998
  0
ARC
  5
EF7C89379
330
EF7C85532
100
AcDbEntity
  8
JISSEN
100
AcDbCircle
 10
104.8431762978246
 20
84.4308919557327
 30
0.0
 40
0.5
100
AcDbArc
 50
40.00000000000009
 51
130.0
  0
ARC
  5
EF7C8937A
330
EF7C85532
100
AcDbEntity
  8
JISSEN
100
AcDbCircle
 10
90.00008320257045
 20
100.5644776503517
 30
0.0
 40
23.35
100
AcDbArc
 50
226.3167926881409
 51
233.6832073118584
  0
ARC
  5
EF7C8937B
330
EF7C85532
100
AcDbEntity
  8
JISSEN
100
AcDbCircle
 10
76.68907899355423
 20
83.14531673635961
 30
0.0
 40
0.5
100
AcDbArc
 50
319.9999999999998
 51
49.99999999999992
  0
ARC
  5
EF7C8937C
330
EF7C85532
100
AcDbEntity
  8
JISSEN
100
AcDbCircle
 10
103.3110874115865
 20
83.14531673635961
 30
0.0
 40
0.5
100
AcDbArc
 50
130.0
 51
220.0000000000001
  0
ARC
  5
EF7C8937D
330
EF7C85532
100
AcDbEntity
  8
JISSEN
100
AcDbCircle
 10
90.00008320257045
 20
100.5644776503517
 30
0.0
 40
23.35
100
AcDbArc
 50
306.3167926881415
 51
313.6832073118588
  0
LINE
  5
EF7C8937E
330
EF7C85532
100
AcDbEntity
  8
JISSEN
100
AcDbLine
 10
81.74115951461521
 20
80.79707570885901
 30
0.0
 11
83.62054475618704
 21
80.11303542220771
 31
0.0
  0
ARC
  5
EF7C8937F
330
EF7C85532
100
AcDbEntity
  8
JISSEN
100
AcDbCircle
 10
81.57014944295239
 20
80.32722939846605
 30
0.0
 40
0.5
100
AcDbArc
 50
69.99999999999992
 51
159.9999999999998
  0
ARC
  5
EF7C89380
330
EF7C85532
100
AcDbEntity
  8
JISSEN
100
AcDbCircle
 10
83.44953468452422
 20
79.64318911181473
 30
0.0
 40
0.5
100
AcDbArc
 50
339.9999999999999
 51
69.99999999999992
  0
LINE
  5
EF7C89381
330
EF7C85532
100
AcDbEntity
  8
JISSEN
100
AcDbLine
 10
89.00008320257049
 20
79.16447765035178
 30
0.0
 11
91.00008320257044
 21
79.16447765035178
 31
0.0
  0
LINE
  5
EF7C89382
330
EF7C85532
100
AcDbEntity
  8
JISSEN
100
AcDbLine
 10
96.37962164895384
 20
80.11303542220767
 30
0.0
 11
98.25900689052559
 21
80.79707570885901
 31
0.0
  0
ARC
  5
EF7C89383
330
EF7C85532
100
AcDbEntity
  8
JISSEN
100
AcDbCircle
 10
96.55063172061673
 20
79.64318911181473
 30
0.0
 40
0.5
100
AcDbArc
 50
110.0
 51
200.0000000000007
  0
ARC
  5
EF7C89384
330
EF7C85532
100
AcDbEntity
  8
JISSEN
100
AcDbCircle
 10
98.43001696218848
 20
80.32722939846605
 30
0.0
 40
0.5
100
AcDbArc
 50
20.00000000000085
 51
110.0
  0
LINE
  5
EF7C89385
330
EF7C85532
100
AcDbEntity
  8
JISSEN
100
AcDbLine
 10
77.07210121511372
 20
82.82392293151636
 30
0.0
 11
75.36599781826277
 21
80.79066807898209
 31
0.0
  0
LINE
  5
EF7C89386
330
EF7C85532
100
AcDbEntity
  8
JISSEN
100
AcDbLine
 10
104.6341685868781
 20
80.79066807898199
 30
0.0
 11
102.928065190027
 21
82.82392293151636
 31
0.0
  0
LINE
  5
EF7C89387
330
EF7C85532
100
AcDbEntity
  8
JISSEN
100
AcDbLine
 10
73.06786448890584
 20
82.71903090804171
 30
0.0
 11
74.7739678857568
 21
84.75228576057597
 31
0.0
  0
LINE
  5
EF7C89388
330
EF7C85532
100
AcDbEntity
  8
JISSEN
100
AcDbLine
 10
75.47838391215953
 20
84.81391417729218
 30
0.0
 11
77.01047279839746
 21
83.52833895791912
 31
0.0
  0
LINE
  5
EF7C89389
330
EF7C85532
100
AcDbEntity
  8
JISSEN
100
AcDbLine
 10
102.9896936067434
 20
83.52833895791912
 30
0.0
 11
104.5217824929814
 21
84.81391417729218
 31
0.0
  0
LINE
  5
EF7C8938A
330
EF7C85532
100
AcDbEntity
  8
JISSEN
100
AcDbLine
 10
105.2261985193841
 20
84.75228576057597
 30
0.0
 11
106.932301916235
 21
82.71903090804176
 31
0.0
  0
LINE
  5
EF7C8938B
330
EF7C85532
100
AcDbEntity
  8
JISSEN
100
AcDbLine
 10
91.50008320257049
 20
78.6644776503518
 30
0.0
 11
91.50008320257049
 21
76.01025194478332
 31
0.0
  0
LINE
  5
EF7C8938C
330
EF7C85532
100
AcDbEntity
  8
JISSEN
100
AcDbLine
 10
88.50008320257044
 20
76.01025194478332
 30
0.0
 11
88.50008320257044
 21
78.6644776503518
 31
0.0
  0
ARC
  5
EF7C8938D
330
EF7C85532
100
AcDbEntity
  8
JISSEN
100
AcDbCircle
 10
90.00008320257045
 20
100.5644776503517
 30
0.0
 40
23.35
100
AcDbArc
 50
266.3167926881413
 51
273.6832073118586
  0
ARC
  5
EF7C8938E
330
EF7C85532
100
AcDbEntity
  8
JISSEN
100
AcDbCircle
 10
90.00008320257045
 20
74.0644776503518
 30
0.0
 40
1.0
100
AcDbArc
 50
1.08111659610956
 51
178.9188834038904
  0
ARC
  5
EF7C8938F
330
EF7C85532
100
AcDbEntity
  8
JISSEN
100
AcDbCircle
 10
90.00008320257045
 20
100.5644776503517
 30
0.0
 40
23.35
100
AcDbArc
 50
246.3167926881404
 51
253.6832073118584
  0
LINE
  5
EF7C89390
330
EF7C85532
100
AcDbEntity
  8
JISSEN
100
AcDbLine
 10
80.1925044763222
 20
78.00408316070593
 30
0.0
 11
81.10030313255942
 21
80.49823947012891
 31
0.0
  0
LINE
  5
EF7C89391
330
EF7C85532
100
AcDbEntity
  8
JISSEN
100
AcDbLine
 10
83.91938099491715
 20
79.47217904015191
 30
0.0
 11
83.01158233867992
 21
76.97802273072899
 31
0.0
  0
ARC
  5
EF7C89392
330
EF7C85532
100
AcDbEntity
  8
JISSEN
100
AcDbCircle
 10
89.00008320257049
 20
78.6644776503518
 30
0.0
 40
0.5
100
AcDbArc
 50
90.0
 51
180.0
  0
ARC
  5
EF7C89393
330
EF7C85532
100
AcDbEntity
  8
JISSEN
100
AcDbCircle
 10
91.00008320257044
 20
78.6644776503518
 30
0.0
 40
0.5
100
AcDbArc
 50
0.0
 51
90.0
  0
LINE
  5
EF7C89394
330
EF7C85532
100
AcDbEntity
  8
JISSEN
100
AcDbLine
 10
98.89986327258144
 20
80.49823947012891
 30
0.0
 11
99.80766192881869
 21
78.00408316070593
 31
0.0
  0
ARC
  5
EF7C89395
330
EF7C85532
100
AcDbEntity
  8
JISSEN
100
AcDbCircle
 10
90.00008320257045
 20
100.5644776503517
 30
0.0
 40
23.35
100
AcDbArc
 50
286.3167926881414
 51
293.6832073118593
  0
LINE
  5
EF7C89396
330
EF7C85532
100
AcDbEntity
  8
JISSEN
100
AcDbLine
 10
96.98858406646094
 20
76.97802273072892
 30
0.0
 11
96.08078541022372
 21
79.47217904015191
 31
0.0
  0
ARC
  5
EF7C89397
330
EF7C85532
100
AcDbEntity
  8
JISSEN
100
AcDbCircle
 10
90.00008320257045
 20
100.5644776503517
 30
0.0
 40
26.5
100
AcDbArc
 50
272.162233192218
 51
357.8377668077811
  0
ARC
  5
EF7C89398
330
EF7C85532
100
AcDbEntity
  8
JISSEN
100
AcDbCircle
 10
90.00008320257045
 20
100.5644776503517
 30
0.0
 40
26.5
100
AcDbArc
 50
182.162233192218
 51
267.8377668077819
  0
CIRCLE
  5
EF7C89399
330
EF7C85532
100
AcDbEntity
  8
JISSEN
100
AcDbCircle
 10
90.0000832025705
 20
100.5644776503517
 30
0.0
 40
25.5
  0
ARC
  5
EF7C8939A
330
EF7C85532
100
AcDbEntity
  8
JISSEN
100
AcDbCircle
 10
90.00008320257045
 20
100.5644776503517
 30
0.0
 40
24.6
100
AcDbArc
 50
0.0
 51
180.0
  0
ARC
  5
EF7C8939B
330
EF7C85532
100
AcDbEntity
  8
JISSEN
100
AcDbCircle
 10
90.00008320257045
 20
100.5644776503517
 30
0.0
 40
24.6
100
AcDbArc
 50
180.0
 51
0.0
  0
LINE
  5
EF7C8939C
330
EF7C85532
100
AcDbEntity
  8
JISSEN
100
AcDbLine
 10
70.28412685969158
 20
90.91351575602777
 30
0.0
 11
67.98549997129163
 21
89.58640290324344
 31
0.0
  0
ARC
  5
EF7C8939D
330
EF7C85532
100
AcDbEntity
  8
JISSEN
100
AcDbCircle
 10
90.00008320257045
 20
100.5644776503517
 30
0.0
 40
23.35
100
AcDbArc
 50
206.3167926881408
 51
213.6832073118588
  0
LINE
  5
EF7C8939E
330
EF7C85532
100
AcDbEntity
  8
JISSEN
100
AcDbLine
 10
71.96713956158345
 20
88.99845224656738
 30
0.0
 11
70.96713956158345
 21
90.73050305413623
 31
0.0
  0
LINE
  5
EF7C8939F
330
EF7C85532
100
AcDbEntity
  8
JISSEN
100
AcDbLine
 10
109.7160395454499
 20
90.91351575602914
 30
0.0
 11
112.01466643385
 21
89.58640290324499
 31
0.0
  0
LINE
  5
EF7C893A0
330
EF7C85532
100
AcDbEntity
  8
JISSEN
100
AcDbLine
 10
109.0330268435574
 20
90.73050305413623
 30
0.0
 11
108.0330268435574
 21
88.99845224656734
 31
0.0
  0
ARC
  5
EF7C893A1
330
EF7C85532
100
AcDbEntity
  8
JISSEN
100
AcDbCircle
 10
90.00008320257045
 20
100.5644776503517
 30
0.0
 40
23.35
100
AcDbArc
 50
326.3167926881412
 51
333.6832073118583
  0
CIRCLE
  5
EF7C893A2
330
EF7C85532
100
AcDbEntity
  8
JISSEN
100
AcDbCircle
 10
90.00008320257045
 20
100.5644776503517
 30
0.0
 40
13.25
  0
CIRCLE
  5
EF7C893A3
330
EF7C85532
100
AcDbEntity
  8
NITEN
100
AcDbCircle
 10
90.00008320257045
 20
100.5644776503517
 30
0.0
 40
14.5
  0
CIRCLE
  5
EF7C893A4
330
EF7C85532
100
AcDbEntity
  8
JISSEN
100
AcDbCircle
 10
90.00008320257045
 20
100.5644776503517
 30
0.0
 40
11.75
  0
LINE
  5
EF7C89529
330
EF7C85532
100
AcDbEntity
  8
TENSEN
100
AcDbLine
 10
83.88296078673288
 20
95.40881926856798
 30
0.0
 11
82.1706310349923
 21
93.56807294824902
 31
0.0
  0
LINE
  5
EF7C8952A
330
EF7C85532
100
AcDbEntity
  8
TENSEN
100
AcDbLine
 10
82.10635381760026
 20
101.8641069809143
 30
0.0
 11
79.7222043549056
 21
102.7127807930027
 31
0.0
  0
LINE
  5
EF7C8952B
330
EF7C85532
100
AcDbEntity
  8
TENSEN
100
AcDbLine
 10
89.76045115636649
 20
108.5608878750984
 30
0.0
 11
89.38184896465667
 21
111.0462612021654
 31
0.0
  0
LINE
  5
EF7C8952C
330
EF7C85532
100
AcDbEntity
  8
TENSEN
100
AcDbLine
 10
95.92256488423741
 20
105.9426009968658
 30
0.0
 11
98.06877317215798
 21
107.2835729893596
 31
0.0
  0
ARC
  5
EF7C8952D
330
EF7C85532
100
AcDbEntity
  8
TENSEN
100
AcDbCircle
 10
90.00008320257045
 20
100.5644776503517
 30
0.0
 40
8.0
100
AcDbArc
 50
170.6506554167905
 51
220.1249977043998
  0
ARC
  5
EF7C8952E
330
EF7C85532
100
AcDbEntity
  8
TENSEN
100
AcDbCircle
 10
90.00008320257045
 20
100.5644776503517
 30
0.0
 40
8.0
100
AcDbArc
 50
42.24215257346755
 51
91.71649486107646
  0
ARC
  5
EF7C8952F
330
EF7C85532
100
AcDbEntity
  8
TENSEN
100
AcDbCircle
 10
90.00008320257045
 20
100.5644776503517
 30
0.0
 40
10.5
100
AcDbArc
 50
168.1938980438907
 51
221.7839991740418
  0
ARC
  5
EF7C89530
330
EF7C85532
100
AcDbEntity
  8
TENSEN
100
AcDbCircle
 10
90.00008320257045
 20
100.5644776503517
 30
0.0
 40
10.5
100
AcDbArc
 50
39.78539520056762
 51
93.37549633071896
  0
TEXT
  5
EF7C89547
330
EF7C85532
100
AcDbEntity
  8
SUNPOU
100
AcDbText
 10
84.11008598518929
 20
91.95967545666535
 30
0.0
 40
2.0
  1
S
 50
331.9146387206517
  7
K
100
AcDbText
  0
TEXT
  5
EF7C89548
330
EF7C85532
100
AcDbEntity
  8
SUNPOU
100
AcDbText
 10
86.43505836534442
 20
90.76522839731259
 30
0.0
 40
2.0
  1
E
 50
346.3146387206514
  7
K
100
AcDbText
  0
TEXT
  5
EF7C89549
330
EF7C85532
100
AcDbEntity
  8
SUNPOU
100
AcDbText
 10
94.10933965669634
 20
90.98070493771652
 30
0.0
 40
2.0
  1
U
 50
29.51463872065155
  7
K
100
AcDbText
  0
TEXT
  5
EF7C8954A
330
EF7C85532
100
AcDbEntity
  8
SUNPOU
100
AcDbText
 10
88.98403436726658
 20
90.18650420764606
 30
0.0
 40
2.0
  1
N
 50
0.7146387206514487
  7
K
100
AcDbText
  0
TEXT
  5
EF7C8954B
330
EF7C85532
100
AcDbEntity
  8
SUNPOU
100
AcDbText
 10
91.59685245427708
 20
90.25986625690119
 30
0.0
 40
2.0
  1
J
 50
15.11463872065182
  7
K
100
AcDbText
  0
TEXT
  5
EF7C8954D
330
EF7C85532
100
AcDbEntity
  8
SUNPOU
100
AcDbText
 10
81.82083680873523
 20
107.0324461445671
 30
0.0
 40
2.0
  1
P
 50
237.9701512669149
  7
K
100
AcDbText
  0
TEXT
  5
EF7C8954E
330
EF7C85532
100
AcDbEntity
  8
SUNPOU
100
AcDbText
 10
85.94852253599031
 20
110.1727836497592
 30
0.0
 40
2.0
  1
S
 50
209.1701512669142
  7
K
100
AcDbText
  0
TEXT
  5
EF7C8954F
330
EF7C85532
100
AcDbEntity
  8
SUNPOU
100
AcDbText
 10
83.68632122979185
 20
108.8633388833357
 30
0.0
 40
2.0
  1
S
 50
223.5701512669141
  7
K
100
AcDbText
  0
LINE
  5
EF7C89563
330
EF7C85532
100
AcDbEntity
  8
SUNPOU
100
AcDbLine
 10
99.48392514305066
 20
104.8996594850077
 30
0.0
 11
100.2213341070957
 21
102.722208000186
 31
0.0
  0
LINE
  5
EF7C89564
330
EF7C85532
100
AcDbEntity
  8
SUNPOU
100
AcDbLine
 10
97.56607434286324
 20
104.2921117820307
 30
0.0
 11
98.31241103357619
 21
102.0882981391163
 31
0.0
  0
TEXT
  5
EF7C89565
330
EF7C85532
100
AcDbEntity
  8
SUNPOU
100
AcDbText
 10
100.1973864507159
 20
102.7438570295763
 30
0.0
 40
2.0
  1
lll
 50
108.3701512669143
  7
K
100
AcDbText
  0
TEXT
  5
EF7C89566
330
EF7C85532
100
AcDbEntity
  8
SUNPOU
100
AcDbText
 10
100.4190090295552
 20
100.1394216246125
 30
0.0
 40
2.0
  1
J
 50
93.9701512669143
  7
K
100
AcDbText
  0
TEXT
  5
EF7C89567
330
EF7C85532
100
AcDbEntity
  8
SUNPOU
100
AcDbText
 10
99.98597218055628
 20
97.56169405299267
 30
0.0
 40
2.0
  1
F
 50
79.57015126691415
  7
K
100
AcDbText
  0
TEXT
  5
EF7C89568
330
EF7C85532
100
AcDbEntity
  8
SUNPOU
100
AcDbText
 10
98.9254852015398
 20
95.17264241826042
 30
0.0
 40
2.0
  1
M
 50
65.17015126691525
  7
K
100
AcDbText
  0
LINE
  5
EF7C8967B
330
EF7C85532
100
AcDbEntity
  8
TEXT
100
AcDbLine
 10
342.3981581949127
 20
152.3495934133889
 30
0.0
 11
342.3981581949127
 21
149.3495934133889
 31
0.0
  0
LINE
  5
EF7C8967C
330
EF7C85532
100
AcDbEntity
  8
TEXT
100
AcDbLine
 10
341.2981581949126
 20
152.3495934133889
 30
0.0
 11
341.2981581949126
 21
149.3495934133889
 31
0.0
  0
LINE
  5
EF7C8967D
330
EF7C85532
100
AcDbEntity
  8
TEXT
100
AcDbLine
 10
341.8481581949126
 20
152.3495934133889
 30
0.0
 11
341.8481581949126
 21
149.3495934133889
 31
0.0
  0
LINE
  5
EF7C89680
330
EF7C85532
100
AcDbEntity
  8
TEXT
100
AcDbLine
 10
340.7481581949127
 20
149.3495934133889
 30
0.0
 11
342.9481581949126
 21
149.3495934133889
 31
0.0
  0
LINE
  5
EF7C89681
330
EF7C85532
100
AcDbEntity
  8
TEXT
100
AcDbLine
 10
340.7481581949127
 20
152.3495934133889
 30
0.0
 11
342.9481581949126
 21
152.3495934133889
 31
0.0
  0
LINE
  5
EF7C896DE
330
EF7C85532
100
AcDbEntity
  8
TEXT
100
AcDbLine
 10
294.3904608439434
 20
275.5007423895086
 30
0.0
 11
294.3904608439434
 21
272.5007423895086
 31
0.0
  0
LINE
  5
EF7C896DF
330
EF7C85532
100
AcDbEntity
  8
TEXT
100
AcDbLine
 10
293.2904608439433
 20
275.5007423895086
 30
0.0
 11
293.2904608439433
 21
272.5007423895086
 31
0.0
  0
LINE
  5
EF7C896E0
330
EF7C85532
100
AcDbEntity
  8
TEXT
100
AcDbLine
 10
293.8404608439433
 20
275.5007423895086
 30
0.0
 11
293.8404608439433
 21
272.5007423895086
 31
0.0
  0
LINE
  5
EF7C896E7
330
EF7C85532
100
AcDbEntity
  8
TEXT
100
AcDbLine
 10
292.8404608439433
 20
272.5007423895086
 30
0.0
 11
294.8404608439433
 21
272.5007423895086
 31
0.0
  0
LINE
  5
EF7C896E9
330
EF7C85532
100
AcDbEntity
  8
TEXT
100
AcDbLine
 10
292.8404608439433
 20
275.5007423895086
 30
0.0
 11
294.8404608439433
 21
275.5007423895086
 31
0.0
  0
LINE
  5
EF7C896F4
330
EF7C85532
100
AcDbEntity
  8
TEXT
100
AcDbLine
 10
331.9026113383167
 20
9.68070503788823
 30
0.0
 11
331.9026113383167
 21
6.68070503788823
 31
0.0
  0
LINE
  5
EF7C896F5
330
EF7C85532
100
AcDbEntity
  8
TEXT
100
AcDbLine
 10
331.3526113383168
 20
9.68070503788823
 30
0.0
 11
331.3526113383168
 21
6.68070503788823
 31
0.0
  0
LINE
  5
EF7C896F6
330
EF7C85532
100
AcDbEntity
  8
TEXT
100
AcDbLine
 10
332.4526113383168
 20
9.68070503788823
 30
0.0
 11
332.4526113383168
 21
6.68070503788823
 31
0.0
  0
LINE
  5
EF7C896F7
330
EF7C85532
100
AcDbEntity
  8
TEXT
100
AcDbLine
 10
330.8026113383168
 20
6.68070503788823
 30
0.0
 11
333.0026113383167
 21
6.68070503788823
 31
0.0
  0
LINE
  5
EF7C896F8
330
EF7C85532
100
AcDbEntity
  8
TEXT
100
AcDbLine
 10
330.8026113383168
 20
9.68070503788823
 30
0.0
 11
333.0026113383167
 21
9.68070503788823
 31
0.0
  0
LINE
  5
EF7C896F9
330
EF7C85532
100
AcDbEntity
  8
TEXT
100
AcDbLine
 10
522.8481577063619
 20
152.3495933955664
 30
0.0
 11
522.8481577063619
 21
149.3495933955664
 31
0.0
  0
LINE
  5
EF7C896FA
330
EF7C85532
100
AcDbEntity
  8
TEXT
100
AcDbLine
 10
522.2981577063619
 20
152.3495933955664
 30
0.0
 11
522.2981577063619
 21
149.3495933955664
 31
0.0
  0
LINE
  5
EF7C896FB
330
EF7C85532
100
AcDbEntity
  8
TEXT
100
AcDbLine
 10
523.398157706362
 20
152.3495933955664
 30
0.0
 11
523.398157706362
 21
149.3495933955664
 31
0.0
  0
LINE
  5
EF7C896FC
330
EF7C85532
100
AcDbEntity
  8
TEXT
100
AcDbLine
 10
521.748157706362
 20
149.3495933955664
 30
0.0
 11
523.948157706362
 21
149.3495933955664
 31
0.0
  0
LINE
  5
EF7C896FD
330
EF7C85532
100
AcDbEntity
  8
TEXT
100
AcDbLine
 10
521.748157706362
 20
152.3495933955664
 30
0.0
 11
523.948157706362
 21
152.3495933955664
 31
0.0
  0
LINE
  5
EF7C896FE
330
EF7C85532
100
AcDbEntity
  8
TEXT
100
AcDbLine
 10
513.4526108497661
 20
9.680705020065772
 30
0.0
 11
513.4526108497661
 21
6.680705020065772
 31
0.0
  0
LINE
  5
EF7C896FF
330
EF7C85532
100
AcDbEntity
  8
TEXT
100
AcDbLine
 10
512.3526108497661
 20
9.680705020065772
 30
0.0
 11
512.3526108497661
 21
6.680705020065772
 31
0.0
  0
LINE
  5
EF7C89700
330
EF7C85532
100
AcDbEntity
  8
TEXT
100
AcDbLine
 10
512.9026108497661
 20
9.680705020065772
 30
0.0
 11
512.9026108497661
 21
6.680705020065772
 31
0.0
  0
LINE
  5
EF7C89701
330
EF7C85532
100
AcDbEntity
  8
TEXT
100
AcDbLine
 10
511.8026108497661
 20
6.680705020065772
 30
0.0
 11
514.0026108497661
 21
6.680705020065772
 31
0.0
  0
LINE
  5
EF7C89702
330
EF7C85532
100
AcDbEntity
  8
TEXT
100
AcDbLine
 10
511.8026108497661
 20
9.680705020065772
 30
0.0
 11
514.0026108497661
 21
9.680705020065772
 31
0.0
  0
LINE
  5
EF7C89703
330
EF7C85532
100
AcDbEntity
  8
TEXT
100
AcDbLine
 10
474.8404603553926
 20
275.5007423895086
 30
0.0
 11
474.8404603553926
 21
272.5007423895086
 31
0.0
  0
LINE
  5
EF7C89704
330
EF7C85532
100
AcDbEntity
  8
TEXT
100
AcDbLine
 10
474.2904603553927
 20
275.5007423895086
 30
0.0
 11
474.2904603553927
 21
272.5007423895086
 31
0.0
  0
LINE
  5
EF7C89705
330
EF7C85532
100
AcDbEntity
  8
TEXT
100
AcDbLine
 10
475.3904603553927
 20
275.5007423895086
 30
0.0
 11
475.3904603553927
 21
272.5007423895086
 31
0.0
  0
LINE
  5
EF7C89706
330
EF7C85532
100
AcDbEntity
  8
TEXT
100
AcDbLine
 10
473.8404603553926
 20
272.5007423895086
 30
0.0
 11
475.8404603553926
 21
272.5007423895086
 31
0.0
  0
LINE
  5
EF7C89707
330
EF7C85532
100
AcDbEntity
  8
TEXT
100
AcDbLine
 10
473.8404603553926
 20
275.5007423895086
 30
0.0
 11
475.8404603553926
 21
275.5007423895086
 31
0.0
  0
ENDSEC
  0
SECTION
  2
OBJECTS
  0
DICTIONARY
  5
EF7C85527
330
0
100
AcDbDictionary
  3
ACAD_GROUP
350
EF7C85528
  3
ACAD_LAYOUT
350
EF7C85BB7
  3
ACAD_MLINESTYLE
350
EF7C85535
  3
ACAD_PLOTSETTINGS
350
EF7C85BB8
  3
ACAD_PLOTSTYLENAME
350
EF7C85BB5
  3
ACDBHEADERROUNDTRIPXREC
350
EF7C8970F
  3
ACDBVARIABLEDICTIONARY
350
EF7C85DB7
  0
DICTIONARY
  5
EF7C89476
330
EF7C8551D
100
AcDbDictionary
280
     1
  3
ACAD_LAYERSTATES
360
EF7C89477
  0
DICTIONARY
  5
EF7C85D9A
330
EF7C85532
100
AcDbDictionary
280
     1
  3
ACAD_LAYOUTSELFREF
360
EF7C89731
  0
DICTIONARY
  5
EF7C85D98
330
EF7C8552F
100
AcDbDictionary
280
     1
  3
ACAD_LAYOUTSELFREF
360
EF7C89730
  0
DICTIONARY
  5
EF7C85528
102
{ACAD_REACTORS
330
EF7C85527
102
}
330
EF7C85527
100
AcDbDictionary
  0
DICTIONARY
  5
EF7C85BB7
102
{ACAD_REACTORS
330
EF7C85527
102
}
330
EF7C85527
100
AcDbDictionary
  0
DICTIONARY
  5
EF7C85535
102
{ACAD_REACTORS
330
EF7C85527
102
}
330
EF7C85527
100
AcDbDictionary
  3
STANDARD
350
EF7C85536
  0
DICTIONARY
  5
EF7C85BB8
102
{ACAD_REACTORS
330
EF7C85527
102
}
330
EF7C85527
100
AcDbDictionary
  0
ACDBDICTIONARYWDFLT
  5
EF7C85BB5
102
{ACAD_REACTORS
330
EF7C85527
102
}
330
EF7C85527
100
AcDbDictionary
281
     1
  3
Normal
350
EF7C85BB6
100
AcDbDictionaryWithDefault
340
EF7C85BB6
  0
DICTIONARY
  5
EF7C8970F
102
{ACAD_REACTORS
330
EF7C85527
102
}
330
EF7C85527
100
AcDbDictionary
  3
CEPSNTYPE
350
EF7C89719
  3
DIMSTYLEDATA
350
EF7C8971D
  3
FINGERPRINTGUID
350
EF7C8971A
  3
HYPERLINKBASE
350
EF7C89712
  3
INSUNITS
350
EF7C89718
  3
LAYOUTDICT
350
EF7C89714
  3
LWETCUNION
350
EF7C89717
  3
PLOTSETDICT
350
EF7C89715
  3
PLOTSTYLNAMDICT
350
EF7C89716
  3
PSVPSCALE
350
EF7C8971C
  3
PUCSBASE
350
EF7C89720
  3
PUCSORGBACK
350
EF7C89726
  3
PUCSORGBOTTOM
350
EF7C89722
  3
PUCSORGFRONT
350
EF7C89725
  3
PUCSORGLEFT
350
EF7C89723
  3
PUCSORGRIGHT
350
EF7C89724
  3
PUCSORGTOP
350
EF7C89721
  3
PUCSORTHOREF
350
EF7C8971E
  3
PUCSORTHOVIEW
350
EF7C8971F
  3
STYLESHEET
350
EF7C89713
  3
TSTACKALIGN
350
EF7C89710
  3
TSTACKSIZE
350
EF7C89711
  3
UCSBASE
350
EF7C89729
  3
UCSORGBACK
350
EF7C8972F
  3
UCSORGBOTTOM
350
EF7C8972B
  3
UCSORGFRONT
350
EF7C8972E
  3
UCSORGLEFT
350
EF7C8972C
  3
UCSORGRIGHT
350
EF7C8972D
  3
UCSORGTOP
350
EF7C8972A
  3
UCSORTHOREF
350
EF7C89727
  3
UCSORTHOVIEW
350
EF7C89728
  3
VERSIONGUID
350
EF7C8971B
  0
DICTIONARY
  5
EF7C85DB7
102
{ACAD_REACTORS
330
EF7C85527
102
}
330
EF7C85527
100
AcDbDictionary
  3
DIMASSOC
350
EF7C893FD
  3
SORTENTS
350
EF7C85DB8
  0
DICTIONARY
  5
EF7C89477
102
{ACAD_REACTORS
330
EF7C89476
102
}
330
EF7C89476
100
AcDbDictionary
  0
XRECORD
  5
EF7C89731
102
{ACAD_REACTORS
330
EF7C85D9A
102
}
330
EF7C85D9A
100
AcDbXrecord
340
EF7C85532
  0
XRECORD
  5
EF7C89730
102
{ACAD_REACTORS
330
EF7C85D98
102
}
330
EF7C85D98
100
AcDbXrecord
340
EF7C8552F
  0
MLINESTYLE
  5
EF7C85536
102
{ACAD_REACTORS
330
EF7C85535
102
}
330
EF7C85535
100
AcDbMlineStyle
  2
STANDARD
 70
     0
  3

 62
   256
 51
90.0
 52
90.0
 71
     2
 49
0.5
 62
   256
  6
BYLAYER
 49
-0.5
 62
   256
  6
BYLAYER
  0
ACDBPLACEHOLDER
  5
EF7C85BB6
102
{ACAD_REACTORS
330
EF7C85BB5
102
}
330
EF7C85BB5
100
AcDbPlaceHolder
280
     0
  0
XRECORD
  5
EF7C89719
102
{ACAD_REACTORS
330
EF7C8970F
102
}
330
EF7C8970F
100
AcDbXrecord
 90
        0
  0
XRECORD
  5
EF7C8971D
102
{ACAD_REACTORS
330
EF7C8970F
102
}
330
EF7C8970F
100
AcDbXrecord
1000
DSTYLE
1002
{
1070
   341
340
EF7C85537
1070
   342
340
EF7C85537
1070
   343
340
EF7C85543
1070
   344
340
EF7C85543
1002
}
  0
XRECORD
  5
EF7C8971A
102
{ACAD_REACTORS
330
EF7C8970F
102
}
330
EF7C8970F
100
AcDbXrecord
  1
{09AA4C7A-3D6F-4857-A850-771461888CEC}
  0
XRECORD
  5
EF7C89712
102
{ACAD_REACTORS
330
EF7C8970F
102
}
330
EF7C8970F
100
AcDbXrecord
  1

  0
XRECORD
  5
EF7C89718
102
{ACAD_REACTORS
330
EF7C8970F
102
}
330
EF7C8970F
100
AcDbXrecord
 90
        0
  0
XRECORD
  5
EF7C89714
102
{ACAD_REACTORS
330
EF7C8970F
102
}
330
EF7C8970F
100
AcDbXrecord
340
EF7C85BB7
  0
XRECORD
  5
EF7C89717
102
{ACAD_REACTORS
330
EF7C8970F
102
}
330
EF7C8970F
100
AcDbXrecord
 90
    14877
  0
XRECORD
  5
EF7C89715
102
{ACAD_REACTORS
330
EF7C8970F
102
}
330
EF7C8970F
100
AcDbXrecord
340
EF7C85BB8
  0
XRECORD
  5
EF7C89716
102
{ACAD_REACTORS
330
EF7C8970F
102
}
330
EF7C8970F
100
AcDbXrecord
340
EF7C85BB5
  0
XRECORD
  5
EF7C8971C
102
{ACAD_REACTORS
330
EF7C8970F
102
}
330
EF7C8970F
100
AcDbXrecord
 40
0.0
  0
XRECORD
  5
EF7C89720
102
{ACAD_REACTORS
330
EF7C8970F
102
}
330
EF7C8970F
100
AcDbXrecord
340
0
  0
XRECORD
  5
EF7C89726
102
{ACAD_REACTORS
330
EF7C8970F
102
}
330
EF7C8970F
100
AcDbXrecord
 10
0.0
 20
0.0
 30
0.0
  0
XRECORD
  5
EF7C89722
102
{ACAD_REACTORS
330
EF7C8970F
102
}
330
EF7C8970F
100
AcDbXrecord
 10
0.0
 20
0.0
 30
0.0
  0
XRECORD
  5
EF7C89725
102
{ACAD_REACTORS
330
EF7C8970F
102
}
330
EF7C8970F
100
AcDbXrecord
 10
0.0
 20
0.0
 30
0.0
  0
XRECORD
  5
EF7C89723
102
{ACAD_REACTORS
330
EF7C8970F
102
}
330
EF7C8970F
100
AcDbXrecord
 10
0.0
 20
0.0
 30
0.0
  0
XRECORD
  5
EF7C89724
102
{ACAD_REACTORS
330
EF7C8970F
102
}
330
EF7C8970F
100
AcDbXrecord
 10
0.0
 20
0.0
 30
0.0
  0
XRECORD
  5
EF7C89721
102
{ACAD_REACTORS
330
EF7C8970F
102
}
330
EF7C8970F
100
AcDbXrecord
 10
0.0
 20
0.0
 30
0.0
  0
XRECORD
  5
EF7C8971E
102
{ACAD_REACTORS
330
EF7C8970F
102
}
330
EF7C8970F
100
AcDbXrecord
340
0
  0
XRECORD
  5
EF7C8971F
102
{ACAD_REACTORS
330
EF7C8970F
102
}
330
EF7C8970F
100
AcDbXrecord
 70
     0
  0
XRECORD
  5
EF7C89713
102
{ACAD_REACTORS
330
EF7C8970F
102
}
330
EF7C8970F
100
AcDbXrecord
  1

  0
XRECORD
  5
EF7C89710
102
{ACAD_REACTORS
330
EF7C8970F
102
}
330
EF7C8970F
100
AcDbXrecord
 90
        1
  0
XRECORD
  5
EF7C89711
102
{ACAD_REACTORS
330
EF7C8970F
102
}
330
EF7C8970F
100
AcDbXrecord
 90
       70
  0
XRECORD
  5
EF7C89729
102
{ACAD_REACTORS
330
EF7C8970F
102
}
330
EF7C8970F
100
AcDbXrecord
340
0
  0
XRECORD
  5
EF7C8972F
102
{ACAD_REACTORS
330
EF7C8970F
102
}
330
EF7C8970F
100
AcDbXrecord
 10
0.0
 20
0.0
 30
0.0
  0
XRECORD
  5
EF7C8972B
102
{ACAD_REACTORS
330
EF7C8970F
102
}
330
EF7C8970F
100
AcDbXrecord
 10
0.0
 20
0.0
 30
0.0
  0
XRECORD
  5
EF7C8972E
102
{ACAD_REACTORS
330
EF7C8970F
102
}
330
EF7C8970F
100
AcDbXrecord
 10
0.0
 20
0.0
 30
0.0
  0
XRECORD
  5
EF7C8972C
102
{ACAD_REACTORS
330
EF7C8970F
102
}
330
EF7C8970F
100
AcDbXrecord
 10
0.0
 20
0.0
 30
0.0
  0
XRECORD
  5
EF7C8972D
102
{ACAD_REACTORS
330
EF7C8970F
102
}
330
EF7C8970F
100
AcDbXrecord
 10
0.0
 20
0.0
 30
0.0
  0
XRECORD
  5
EF7C8972A
102
{ACAD_REACTORS
330
EF7C8970F
102
}
330
EF7C8970F
100
AcDbXrecord
 10
0.0
 20
0.0
 30
0.0
  0
XRECORD
  5
EF7C89727
102
{ACAD_REACTORS
330
EF7C8970F
102
}
330
EF7C8970F
100
AcDbXrecord
340
0
  0
XRECORD
  5
EF7C89728
102
{ACAD_REACTORS
330
EF7C8970F
102
}
330
EF7C8970F
100
AcDbXrecord
 70
     0
  0
XRECORD
  5
EF7C8971B
102
{ACAD_REACTORS
330
EF7C8970F
102
}
330
EF7C8970F
100
AcDbXrecord
  1
{9B412964-8D47-42B1-B19A-F55B04834383}
  0
DICTIONARYVAR
  5
EF7C893FD
102
{ACAD_REACTORS
330
EF7C85DB7
102
}
330
EF7C85DB7
100
DictionaryVariables
280
     0
  1
0
  0
DICTIONARYVAR
  5
EF7C85DB8
102
{ACAD_REACTORS
330
EF7C85DB7
102
}
330
EF7C85DB7
100
DictionaryVariables
280
     0
  1
96
  0
ENDSEC
  0
EOF
