  0
SECTION
  2
HEADER
  9
$ACADVER
  1
AC1014
  9
$ACADMAINTVER
 70
     9
  9
$DWGCODEPAGE
  3
ANSI_932
  9
$INSBASE
 10
0.0
 20
0.0
 30
0.0
  9
$EXTMIN
 10
-0.0165697806260141
 20
-0.0086358157209361
 30
-0.0015258207003583
  9
$EXTMAX
 10
543.0165708435149
 20
283.0086375328569
 30
0.0000000349246037
  9
$LIMMIN
 10
0.0
 20
0.0
  9
$LIMMAX
 10
181.0
 20
283.0
  9
$ORTHOMODE
 70
     1
  9
$REGENMODE
 70
     1
  9
$FILLMODE
 70
     1
  9
$QTEXTMODE
 70
     0
  9
$MIRRTEXT
 70
     0
  9
$DRAGMODE
 70
     2
  9
$LTSCALE
 40
5.0
  9
$OSMODE
 70
   167
  9
$ATTMODE
 70
     1
  9
$TEXTSIZE
 40
3.0
  9
$TRACEWID
 40
0.05
  9
$TEXTSTYLE
  7
BIGFONT
  9
$CLAYER
  8
JISSEN
  9
$CELTYPE
  6
BYLAYER
  9
$CECOLOR
 62
   256
  9
$CELTSCALE
 40
1.0
  9
$DELOBJ
 70
     1
  9
$DISPSILH
 70
     0
  9
$DIMSCALE
 40
1.0
  9
$DIMASZ
 40
1.5
  9
$DIMEXO
 40
1.0
  9
$DIMDLI
 40
6.0
  9
$DIMRND
 40
0.0
  9
$DIMDLE
 40
0.0
  9
$DIMEXE
 40
1.0
  9
$DIMTP
 40
0.0
  9
$DIMTM
 40
0.0
  9
$DIMTXT
 40
3.0
  9
$DIMCEN
 40
1.0
  9
$DIMTSZ
 40
0.0
  9
$DIMTOL
 70
     0
  9
$DIMLIM
 70
     0
  9
$DIMTIH
 70
     0
  9
$DIMTOH
 70
     0
  9
$DIMSE1
 70
     0
  9
$DIMSE2
 70
     0
  9
$DIMTAD
 70
     0
  9
$DIMZIN
 70
     8
  9
$DIMBLK
  1
ARROW
  9
$DIMASO
 70
     0
  9
$DIMSHO
 70
     0
  9
$DIMPOST
  1

  9
$DIMAPOST
  1

  9
$DIMALT
 70
     0
  9
$DIMALTD
 70
     2
  9
$DIMALTF
 40
25.4
  9
$DIMLFAC
 40
1.0
  9
$DIMTOFL
 70
     1
  9
$DIMTVP
 40
0.0
  9
$DIMTIX
 70
     0
  9
$DIMSOXD
 70
     0
  9
$DIMSAH
 70
     0
  9
$DIMBLK1
  1
ARROWANG
  9
$DIMBLK2
  1
ARROWANG
  9
$DIMSTYLE
  2
IMAO
  9
$DIMCLRD
 70
     0
  9
$DIMCLRE
 70
     0
  9
$DIMCLRT
 70
     0
  9
$DIMTFAC
 40
1.0
  9
$DIMGAP
 40
0.09
  9
$DIMJUST
 70
     0
  9
$DIMSD1
 70
     0
  9
$DIMSD2
 70
     0
  9
$DIMTOLJ
 70
     1
  9
$DIMTZIN
 70
     8
  9
$DIMALTZ
 70
     8
  9
$DIMALTTZ
 70
     8
  9
$DIMFIT
 70
     3
  9
$DIMUPT
 70
     0
  9
$DIMUNIT
 70
     2
  9
$DIMDEC
 70
     2
  9
$DIMTDEC
 70
     2
  9
$DIMALTU
 70
     2
  9
$DIMALTTD
 70
     2
  9
$DIMTXSTY
  7
BIGFONT
  9
$DIMAUNIT
 70
     0
  9
$LUNITS
 70
     2
  9
$LUPREC
 70
     2
  9
$SKETCHINC
 40
0.1
  9
$FILLETRAD
 40
1.5
  9
$AUNITS
 70
     0
  9
$AUPREC
 70
     2
  9
$MENU
  1
stdr12j
  9
$ELEVATION
 40
0.0
  9
$PELEVATION
 40
0.0
  9
$THICKNESS
 40
0.0
  9
$LIMCHECK
 70
     0
  9
$BLIPMODE
 70
     0
  9
$CHAMFERA
 40
0.0
  9
$CHAMFERB
 40
0.0
  9
$CHAMFERC
 40
0.0
  9
$CHAMFERD
 40
0.0
  9
$SKPOLY
 70
     0
  9
$TDCREATE
 40
2450617.453041203
  9
$TDUPDATE
 40
2453614.461529479
  9
$TDINDWG
 40
0.1760410301
  9
$TDUSRTIMER
 40
0.1760410301
  9
$USRTIMER
 70
     1
  9
$ANGBASE
 50
0.0
  9
$ANGDIR
 70
     0
  9
$PDMODE
 70
     0
  9
$PDSIZE
 40
0.0
  9
$PLINEWID
 40
0.0
  9
$COORDS
 70
     2
  9
$SPLFRAME
 70
     0
  9
$SPLINETYPE
 70
     6
  9
$SPLINESEGS
 70
     8
  9
$ATTDIA
 70
     0
  9
$ATTREQ
 70
     1
  9
$HANDLING
 70
 22529
  9
$HANDSEED
  5
EF7C89B30
  9
$SURFTAB1
 70
     6
  9
$SURFTAB2
 70
     6
  9
$SURFTYPE
 70
     6
  9
$SURFU
 70
     6
  9
$SURFV
 70
     6
  9
$UCSNAME
  2

  9
$UCSORG
 10
0.0
 20
0.0
 30
0.0
  9
$UCSXDIR
 10
1.0
 20
0.0
 30
0.0
  9
$UCSYDIR
 10
0.0
 20
1.0
 30
0.0
  9
$PUCSNAME
  2

  9
$PUCSORG
 10
0.0
 20
0.0
 30
0.0
  9
$PUCSXDIR
 10
1.0
 20
0.0
 30
0.0
  9
$PUCSYDIR
 10
0.0
 20
1.0
 30
0.0
  9
$USERI1
 70
     0
  9
$USERI2
 70
     1
  9
$USERI3
 70
     1
  9
$USERI4
 70
     3
  9
$USERI5
 70
     0
  9
$USERR1
 40
1.0
  9
$USERR2
 40
3.0
  9
$USERR3
 40
3.0
  9
$USERR4
 40
1.5
  9
$USERR5
 40
8.0
  9
$WORLDVIEW
 70
     1
  9
$SHADEDGE
 70
     3
  9
$SHADEDIF
 70
    70
  9
$TILEMODE
 70
     1
  9
$MAXACTVP
 70
    16
  9
$PINSBASE
 10
0.0
 20
0.0
 30
0.0
  9
$PLIMCHECK
 70
     0
  9
$PEXTMIN
 10
1.000000000000000E+20
 20
1.000000000000000E+20
 30
1.000000000000000E+20
  9
$PEXTMAX
 10
-1.000000000000000E+20
 20
-1.000000000000000E+20
 30
-1.000000000000000E+20
  9
$PLIMMIN
 10
0.0
 20
0.0
  9
$PLIMMAX
 10
12.0
 20
9.0
  9
$UNITMODE
 70
     0
  9
$VISRETAIN
 70
     0
  9
$PLINEGEN
 70
     0
  9
$PSLTSCALE
 70
     0
  9
$TREEDEPTH
 70
  3020
  9
$PICKSTYLE
 70
     1
  9
$CMLSTYLE
  2
STANDARD
  9
$CMLJUST
 70
     0
  9
$CMLSCALE
 40
1.0
  9
$PROXYGRAPHICS
 70
     1
  9
$MEASUREMENT
 70
     0
  0
ENDSEC
  0
SECTION
  2
CLASSES
  0
CLASS
  1
LWPOLYLINE
  2
AcDbPolyline
  3
AutoCAD 2000
 90
        0
280
     0
281
     1
  0
CLASS
  1
HATCH
  2
AcDbHatch
  3
AutoCAD 2000
 90
        0
280
     0
281
     1
  0
CLASS
  1
ACDBDICTIONARYWDFLT
  2
AcDbDictionaryWithDefault
  3
AutoCAD 2000
 90
        0
280
     0
281
     0
  0
CLASS
  1
ACDBPLACEHOLDER
  2
AcDbPlaceHolder
  3
AutoCAD 2000
 90
        0
280
     0
281
     0
  0
CLASS
  1
LAYOUT
  2
AcDbLayout
  3
AutoCAD 2000
 90
        0
280
     0
281
     0
  0
CLASS
  1
LONG_TRANSACTION
  2
AcDbLongTransaction
  3
AutoCAD 2000
 90
        0
280
     0
281
     0
  0
CLASS
  1
LWPOLYLINE
  2
AcDbPolyline
  3
AutoCAD 2000
 90
        0
280
     0
281
     1
  0
CLASS
  1
HATCH
  2
AcDbHatch
  3
AutoCAD 2000
 90
        0
280
     0
281
     1
  0
CLASS
  1
XRECORD
  2
AcDbXrecord
  3
AutoCAD 2000
 90
        0
280
     0
281
     0
  0
CLASS
  1
DICTIONARYVAR
  2
AcDbDictionaryVar
  3
AutoCAD 2000
 90
        0
280
     0
281
     0
  0
CLASS
  1
LONG_TRANSACTION
  2
AcDbLongTransaction
  3
AutoCAD 2000
 90
        0
280
     0
281
     0
  0
CLASS
  1
LWPOLYLINE
  2
AcDbPolyline
  3
AutoCAD 2000
 90
        0
280
     0
281
     1
  0
CLASS
  1
HATCH
  2
AcDbHatch
  3
AutoCAD 2000
 90
        0
280
     0
281
     1
  0
CLASS
  1
XRECORD
  2
AcDbXrecord
  3
AutoCAD 2000
 90
        0
280
     0
281
     0
  0
CLASS
  1
LONG_TRANSACTION
  2
AcDbLongTransaction
  3
AutoCAD 2000
 90
        0
280
     0
281
     0
  0
CLASS
  1
LWPOLYLINE
  2
AcDbPolyline
  3
AutoCAD 2000
 90
        0
280
     0
281
     1
  0
CLASS
  1
HATCH
  2
AcDbHatch
  3
AutoCAD 2000
 90
        0
280
     0
281
     1
  0
CLASS
  1
XRECORD
  2
AcDbXrecord
  3
AutoCAD 2000
 90
        0
280
     0
281
     0
  0
CLASS
  1
LONG_TRANSACTION
  2
AcDbLongTransaction
  3
AutoCAD 2000
 90
        0
280
     0
281
     0
  0
CLASS
  1
LWPOLYLINE
  2
AcDbPolyline
  3
AutoCAD 2000
 90
        0
280
     0
281
     1
  0
CLASS
  1
HATCH
  2
AcDbHatch
  3
AutoCAD 2000
 90
        0
280
     0
281
     1
  0
CLASS
  1
XRECORD
  2
AcDbXrecord
  3
AutoCAD 2000
 90
        0
280
     0
281
     0
  0
CLASS
  1
LONG_TRANSACTION
  2
AcDbLongTransaction
  3
AutoCAD 2000
 90
        0
280
     0
281
     0
  0
CLASS
  1
LWPOLYLINE
  2
AcDbPolyline
  3
AutoCAD 2000
 90
        0
280
     0
281
     1
  0
CLASS
  1
HATCH
  2
AcDbHatch
  3
AutoCAD 2000
 90
        0
280
     0
281
     1
  0
CLASS
  1
XRECORD
  2
AcDbXrecord
  3
AutoCAD 2000
 90
        0
280
     0
281
     0
  0
CLASS
  1
LONG_TRANSACTION
  2
AcDbLongTransaction
  3
AutoCAD 2000
 90
        0
280
     0
281
     0
  0
CLASS
  1
LWPOLYLINE
  2
AcDbPolyline
  3
AutoCAD 2000
 90
        0
280
     0
281
     1
  0
CLASS
  1
HATCH
  2
AcDbHatch
  3
AutoCAD 2000
 90
        0
280
     0
281
     1
  0
CLASS
  1
XRECORD
  2
AcDbXrecord
  3
AutoCAD 2000
 90
        0
280
     0
281
     0
  0
CLASS
  1
LONG_TRANSACTION
  2
AcDbLongTransaction
  3
AutoCAD 2000
 90
        0
280
     0
281
     0
  0
CLASS
  1
LWPOLYLINE
  2
AcDbPolyline
  3
AutoCAD 2000
 90
        0
280
     0
281
     1
  0
CLASS
  1
HATCH
  2
AcDbHatch
  3
AutoCAD 2000
 90
        0
280
     0
281
     1
  0
CLASS
  1
XRECORD
  2
AcDbXrecord
  3
AutoCAD 2000
 90
        0
280
     0
281
     0
  0
CLASS
  1
LONG_TRANSACTION
  2
AcDbLongTransaction
  3
AutoCAD 2000
 90
        0
280
     0
281
     0
  0
CLASS
  1
LWPOLYLINE
  2
AcDbPolyline
  3
AutoCAD 2000
 90
        0
280
     0
281
     1
  0
CLASS
  1
HATCH
  2
AcDbHatch
  3
AutoCAD 2000
 90
        0
280
     0
281
     1
  0
CLASS
  1
XRECORD
  2
AcDbXrecord
  3
AutoCAD 2000
 90
        0
280
     0
281
     0
  0
CLASS
  1
LONG_TRANSACTION
  2
AcDbLongTransaction
  3
AutoCAD 2000
 90
        0
280
     0
281
     0
  0
CLASS
  1
LWPOLYLINE
  2
AcDbPolyline
  3
AutoCAD 2000
 90
        0
280
     0
281
     1
  0
CLASS
  1
HATCH
  2
AcDbHatch
  3
AutoCAD 2000
 90
        0
280
     0
281
     1
  0
CLASS
  1
XRECORD
  2
AcDbXrecord
  3
AutoCAD 2000
 90
        0
280
     0
281
     0
  0
CLASS
  1
LONG_TRANSACTION
  2
AcDbLongTransaction
  3
AutoCAD 2000
 90
        0
280
     0
281
     0
  0
CLASS
  1
LWPOLYLINE
  2
AcDbPolyline
  3
AutoCAD 2000
 90
        0
280
     0
281
     1
  0
CLASS
  1
HATCH
  2
AcDbHatch
  3
AutoCAD 2000
 90
        0
280
     0
281
     1
  0
CLASS
  1
XRECORD
  2
AcDbXrecord
  3
AutoCAD 2000
 90
        0
280
     0
281
     0
  0
CLASS
  1
LONG_TRANSACTION
  2
AcDbLongTransaction
  3
AutoCAD 2000
 90
        0
280
     0
281
     0
  0
CLASS
  1
LWPOLYLINE
  2
AcDbPolyline
  3
AutoCAD 2000
 90
        0
280
     0
281
     1
  0
CLASS
  1
HATCH
  2
AcDbHatch
  3
AutoCAD 2000
 90
        0
280
     0
281
     1
  0
CLASS
  1
XRECORD
  2
AcDbXrecord
  3
AutoCAD 2000
 90
        0
280
     0
281
     0
  0
CLASS
  1
LONG_TRANSACTION
  2
AcDbLongTransaction
  3
AutoCAD 2000
 90
        0
280
     0
281
     0
  0
CLASS
  1
LWPOLYLINE
  2
AcDbPolyline
  3
AutoCAD 2000
 90
        0
280
     0
281
     1
  0
CLASS
  1
HATCH
  2
AcDbHatch
  3
AutoCAD 2000
 90
        0
280
     0
281
     1
  0
CLASS
  1
XRECORD
  2
AcDbXrecord
  3
AutoCAD 2000
 90
        0
280
     0
281
     0
  0
CLASS
  1
LONG_TRANSACTION
  2
AcDbLongTransaction
  3
AutoCAD 2000
 90
        0
280
     0
281
     0
  0
CLASS
  1
LWPOLYLINE
  2
AcDbPolyline
  3
AutoCAD 2000
 90
        0
280
     0
281
     1
  0
CLASS
  1
HATCH
  2
AcDbHatch
  3
AutoCAD 2000
 90
        0
280
     0
281
     1
  0
CLASS
  1
XRECORD
  2
AcDbXrecord
  3
AutoCAD 2000
 90
        0
280
     0
281
     0
  0
CLASS
  1
LONG_TRANSACTION
  2
AcDbLongTransaction
  3
AutoCAD 2000
 90
        0
280
     0
281
     0
  0
CLASS
  1
LWPOLYLINE
  2
AcDbPolyline
  3
AutoCAD 2000
 90
        0
280
     0
281
     1
  0
CLASS
  1
HATCH
  2
AcDbHatch
  3
AutoCAD 2000
 90
        0
280
     0
281
     1
  0
CLASS
  1
XRECORD
  2
AcDbXrecord
  3
AutoCAD 2000
 90
        0
280
     0
281
     0
  0
CLASS
  1
LONG_TRANSACTION
  2
AcDbLongTransaction
  3
AutoCAD 2000
 90
        0
280
     0
281
     0
  0
CLASS
  1
LWPOLYLINE
  2
AcDbPolyline
  3
AutoCAD 2000
 90
        0
280
     0
281
     1
  0
CLASS
  1
HATCH
  2
AcDbHatch
  3
AutoCAD 2000
 90
        0
280
     0
281
     1
  0
CLASS
  1
XRECORD
  2
AcDbXrecord
  3
AutoCAD 2000
 90
        0
280
     0
281
     0
  0
CLASS
  1
LONG_TRANSACTION
  2
AcDbLongTransaction
  3
AutoCAD 2000
 90
        0
280
     0
281
     0
  0
CLASS
  1
LWPOLYLINE
  2
AcDbPolyline
  3
AutoCAD 2000
 90
        0
280
     0
281
     1
  0
CLASS
  1
HATCH
  2
AcDbHatch
  3
AutoCAD 2000
 90
        0
280
     0
281
     1
  0
CLASS
  1
XRECORD
  2
AcDbXrecord
  3
AutoCAD 2000
 90
        0
280
     0
281
     0
  0
ENDSEC
  0
SECTION
  2
TABLES
  0
TABLE
  2
VPORT
  5
EF7C85523
330
0
100
AcDbSymbolTable
 70
    11
  0
VPORT
  5
EF7C85567
330
EF7C85523
100
AcDbSymbolTableRecord
100
AcDbViewportTableRecord
  2
2
 70
     0
 10
0.5
 20
0.0
 11
1.0
 21
1.0
 12
0.9240312421264802
 22
1.052650975462765
 13
0.0
 23
0.0
 14
1.0
 24
1.0
 15
10.0
 25
10.0
 16
0.0
 26
0.0
 36
1.0
 17
0.0
 27
0.0
 37
0.0
 40
2.105301950925533
 41
0.8778135048231511
 42
50.0
 43
0.0
 44
0.0
 50
0.0
 51
0.0
 71
     0
 72
   500
 73
     1
 74
     1
 75
     0
 76
     0
 77
     0
 78
     0
  0
VPORT
  5
EF7C85568
330
EF7C85523
100
AcDbSymbolTableRecord
100
AcDbViewportTableRecord
  2
2
 70
     0
 10
0.0
 20
0.0
 11
0.5
 21
1.0
 12
0.9240312421264802
 22
1.052650975462765
 13
0.0
 23
0.0
 14
1.0
 24
1.0
 15
10.0
 25
10.0
 16
0.0
 26
0.0
 36
1.0
 17
0.0
 27
0.0
 37
0.0
 40
2.105301950925533
 41
0.8778135048231511
 42
50.0
 43
0.0
 44
0.0
 50
0.0
 51
0.0
 71
     0
 72
   500
 73
     1
 74
     1
 75
     0
 76
     0
 77
     0
 78
     0
  0
VPORT
  5
EF7C85569
330
EF7C85523
100
AcDbSymbolTableRecord
100
AcDbViewportTableRecord
  2
3
 70
     0
 10
0.0
 20
0.5
 11
1.0
 21
1.0
 12
2.832169994473273
 22
1.052650975462765
 13
0.0
 23
0.0
 14
1.0
 24
1.0
 15
10.0
 25
10.0
 16
0.0
 26
0.0
 36
1.0
 17
0.0
 27
0.0
 37
0.0
 40
2.105301950925533
 41
3.571428571428571
 42
50.0
 43
0.0
 44
0.0
 50
0.0
 51
0.0
 71
     0
 72
   500
 73
     1
 74
     1
 75
     0
 76
     0
 77
     0
 78
     0
  0
VPORT
  5
EF7C8556A
330
EF7C85523
100
AcDbSymbolTableRecord
100
AcDbViewportTableRecord
  2
3
 70
     0
 10
0.0
 20
0.0
 11
1.0
 21
0.5
 12
2.856741679241311
 22
1.052650975462765
 13
0.0
 23
0.0
 14
1.0
 24
1.0
 15
10.0
 25
10.0
 16
0.0
 26
0.0
 36
1.0
 17
0.0
 27
0.0
 37
0.0
 40
2.105301950925533
 41
3.594771241830064
 42
50.0
 43
0.0
 44
0.0
 50
0.0
 51
0.0
 71
     0
 72
   500
 73
     1
 74
     1
 75
     0
 76
     0
 77
     0
 78
     0
  0
VPORT
  5
EF7C8556B
330
EF7C85523
100
AcDbSymbolTableRecord
100
AcDbViewportTableRecord
  2
4
 70
     0
 10
0.5
 20
0.0
 11
1.0
 21
0.5
 12
2.886857516709718
 22
1.052650975462765
 13
0.0
 23
0.0
 14
1.0
 24
1.0
 15
10.0
 25
10.0
 16
0.0
 26
0.0
 36
1.0
 17
0.0
 27
0.0
 37
0.0
 40
4.275207030309069
 41
1.784313725490195
 42
50.0
 43
0.0
 44
0.0
 50
0.0
 51
0.0
 71
     0
 72
   500
 73
     1
 74
     1
 75
     0
 76
     0
 77
     0
 78
     0
  0
VPORT
  5
EF7C8556C
330
EF7C85523
100
AcDbSymbolTableRecord
100
AcDbViewportTableRecord
  2
4
 70
     0
 10
0.5
 20
0.5
 11
1.0
 21
1.0
 12
2.862090274555523
 22
1.052650975462765
 13
0.0
 23
0.0
 14
1.0
 24
1.0
 15
10.0
 25
10.0
 16
0.0
 26
0.0
 36
1.0
 17
0.0
 27
0.0
 37
0.0
 40
4.275207030309069
 41
1.772727272727271
 42
50.0
 43
0.0
 44
0.0
 50
0.0
 51
0.0
 71
     0
 72
   500
 73
     1
 74
     1
 75
     0
 76
     0
 77
     0
 78
     0
  0
VPORT
  5
EF7C8556D
330
EF7C85523
100
AcDbSymbolTableRecord
100
AcDbViewportTableRecord
  2
4
 70
     0
 10
0.0
 20
0.5
 11
0.5
 21
1.0
 12
2.862090274555523
 22
1.052650975462765
 13
0.0
 23
0.0
 14
1.0
 24
1.0
 15
10.0
 25
10.0
 16
0.0
 26
0.0
 36
1.0
 17
0.0
 27
0.0
 37
0.0
 40
4.275207030309069
 41
1.772727272727271
 42
50.0
 43
0.0
 44
0.0
 50
0.0
 51
0.0
 71
     0
 72
   500
 73
     1
 74
     1
 75
     0
 76
     0
 77
     0
 78
     0
  0
VPORT
  5
EF7C8556E
330
EF7C85523
100
AcDbSymbolTableRecord
100
AcDbViewportTableRecord
  2
4
 70
     0
 10
0.0
 20
0.0
 11
0.5
 21
0.5
 12
2.886857516709718
 22
1.052650975462765
 13
0.0
 23
0.0
 14
1.0
 24
1.0
 15
10.0
 25
10.0
 16
0.0
 26
0.0
 36
1.0
 17
0.0
 27
0.0
 37
0.0
 40
4.275207030309069
 41
1.784313725490195
 42
50.0
 43
0.0
 44
0.0
 50
0.0
 51
0.0
 71
     0
 72
   500
 73
     1
 74
     1
 75
     0
 76
     0
 77
     0
 78
     0
  0
VPORT
  5
EF7C89B0C
330
EF7C85523
100
AcDbSymbolTableRecord
100
AcDbViewportTableRecord
  2
*ACTIVE
 70
     0
 10
0.0
 20
0.0
 11
1.0
 21
1.0
 12
271.5000005314444
 22
141.5000008585679
 13
0.0
 23
0.0
 14
1.0
 24
1.0
 15
10.0
 25
10.0
 16
0.0
 26
0.0
 36
1.0
 17
0.0
 27
0.0
 37
0.0
 40
286.5113137602886
 41
1.954639175257731
 42
50.0
 43
0.0
 44
0.0
 50
0.0
 51
0.0
 71
     0
 72
   500
 73
     1
 74
     0
 75
     0
 76
     0
 77
     0
 78
     0
  0
ENDTAB
  0
TABLE
  2
LTYPE
  5
EF7C85520
330
0
100
AcDbSymbolTable
 70
     3
  0
LTYPE
  5
EF7C8552C
330
EF7C85520
100
AcDbSymbolTableRecord
100
AcDbLinetypeTableRecord
  2
BYBLOCK
 70
     0
  3

 72
    65
 73
     0
 40
0.0
  0
LTYPE
  5
EF7C8552D
330
EF7C85520
100
AcDbSymbolTableRecord
100
AcDbLinetypeTableRecord
  2
BYLAYER
 70
     0
  3

 72
    65
 73
     0
 40
0.0
  0
LTYPE
  5
EF7C8552E
330
EF7C85520
100
AcDbSymbolTableRecord
100
AcDbLinetypeTableRecord
  2
CONTINUOUS
 70
     0
  3
実線
 72
    65
 73
     0
 40
0.0
  0
LTYPE
  5
EF7C85565
330
EF7C85520
100
AcDbSymbolTableRecord
100
AcDbLinetypeTableRecord
  2
PHANTOM
 70
     0
  3
_____ _ _ _____ _ _ _____ _ _ _____ _ _ ____
 72
    65
 73
     6
 40
2.5
 49
1.25
 74
     0
 49
-0.25
 74
     0
 49
0.25
 74
     0
 49
-0.25
 74
     0
 49
0.25
 74
     0
 49
-0.25
 74
     0
  0
LTYPE
  5
EF7C88E45
330
EF7C85520
100
AcDbSymbolTableRecord
100
AcDbLinetypeTableRecord
  2
HIDDEN
 70
     0
  3
_ _ _ _ _ _ _ _ _ _ _ _ _ _ _ _ _ _ _ _ _ _ _
 72
    65
 73
     2
 40
0.375
 49
0.25
 74
     0
 49
-0.125
 74
     0
  0
ENDTAB
  0
TABLE
  2
LAYER
  5
EF7C8551D
102
{ACAD_XDICTIONARY
360
EF7C89014
102
}
330
0
100
AcDbSymbolTable
 70
     9
  0
LAYER
  5
EF7C85529
330
EF7C8551D
100
AcDbSymbolTableRecord
100
AcDbLayerTableRecord
  2
0
 70
     0
 62
     6
  6
CONTINUOUS
  0
LAYER
  5
EF7C85574
330
EF7C8551D
100
AcDbSymbolTableRecord
100
AcDbLayerTableRecord
  2
NITEN
 70
     0
 62
     2
  6
PHANTOM
  0
LAYER
  5
EF7C85575
330
EF7C8551D
100
AcDbSymbolTableRecord
100
AcDbLayerTableRecord
  2
HATCH
 70
     0
 62
     4
  6
CONTINUOUS
  0
LAYER
  5
EF7C85576
330
EF7C8551D
100
AcDbSymbolTableRecord
100
AcDbLayerTableRecord
  2
SUNPOU
 70
     0
 62
     3
  6
CONTINUOUS
  0
LAYER
  5
EF7C85577
330
EF7C8551D
100
AcDbSymbolTableRecord
100
AcDbLayerTableRecord
  2
TEXT
 70
     0
 62
     3
  6
CONTINUOUS
  0
LAYER
  5
EF7C85578
330
EF7C8551D
100
AcDbSymbolTableRecord
100
AcDbLayerTableRecord
  2
SAISEN
 70
     0
 62
     4
  6
CONTINUOUS
  0
LAYER
  5
EF7C85579
330
EF7C8551D
100
AcDbSymbolTableRecord
100
AcDbLayerTableRecord
  2
JISSEN
 70
     0
 62
     7
  6
CONTINUOUS
  0
LAYER
  5
EF7C8557D
330
EF7C8551D
100
AcDbSymbolTableRecord
100
AcDbLayerTableRecord
  2
WAKU
 70
     0
 62
     5
  6
CONTINUOUS
  0
LAYER
  5
EF7C88E46
330
EF7C8551D
100
AcDbSymbolTableRecord
100
AcDbLayerTableRecord
  2
TENSEN
 70
     0
 62
     2
  6
HIDDEN
  0
ENDTAB
  0
TABLE
  2
STYLE
  5
EF7C8551E
330
0
100
AcDbSymbolTable
 70
     3
  0
STYLE
  5
EF7C8552A
330
EF7C8551E
100
AcDbSymbolTableRecord
100
AcDbTextStyleTableRecord
  2
STANDARD
 70
     0
 40
0.0
 41
1.0
 50
0.0
 71
     0
 42
1.5
  3
SIMPLEX
  4

  0
STYLE
  5
EF7C85558
330
EF7C8551E
100
AcDbSymbolTableRecord
100
AcDbTextStyleTableRecord
  2
K
 70
     0
 40
0.0
 41
1.0
 50
0.0
 71
     0
 42
3.0
  3
ROMANS
  4
BIGFONT
  0
STYLE
  5
EF7C8555B
330
EF7C8551E
100
AcDbSymbolTableRecord
100
AcDbTextStyleTableRecord
  2
BIGFONT
 70
     0
 40
0.0
 41
1.0
 50
0.0
 71
     0
 42
3.0
  3
txt.shx
  4
bigfont
  0
ENDTAB
  0
TABLE
  2
VIEW
  5
EF7C85521
330
0
100
AcDbSymbolTable
 70
     0
  0
ENDTAB
  0
TABLE
  2
UCS
  5
EF7C85522
330
0
100
AcDbSymbolTable
 70
     0
  0
ENDTAB
  0
TABLE
  2
APPID
  5
EF7C85524
330
0
100
AcDbSymbolTable
 70
     1
  0
APPID
  5
EF7C8552B
330
EF7C85524
100
AcDbSymbolTableRecord
100
AcDbRegAppTableRecord
  2
ACAD
 70
     0
  0
ENDTAB
  0
TABLE
  2
DIMSTYLE
  5
EF7C85525
330
0
100
AcDbSymbolTable
 70
     2
  0
DIMSTYLE
105
EF7C85571
330
EF7C85525
100
AcDbSymbolTableRecord
100
AcDbDimStyleTableRecord
  2
IMAO
 70
     0
  3

  4

  5
ARROWANG
  6
ARROWANG
  7
ARROWANG
 40
1.0
 41
1.5
 42
1.0
 43
6.0
 44
1.0
 45
0.0
 46
0.0
 47
495.0
 48
0.0
140
3.0
141
0.0
142
0.0
143
25.4
144
1.0
145
0.0
146
1.0
147
0.09
 71
     0
 72
     0
 73
     0
 74
     0
 75
     0
 76
     0
 77
     1
 78
     8
170
     0
171
     2
172
     1
173
     0
174
     1
175
     0
176
     0
177
     0
178
     0
270
     2
271
     2
272
     2
273
     2
274
     2
340
EF7C8555B
275
     0
280
     0
281
     0
282
     0
283
     1
284
     8
285
     8
286
     8
287
     3
288
     0
  0
DIMSTYLE
105
EF7C87CA1
330
EF7C85525
100
AcDbSymbolTableRecord
100
AcDbDimStyleTableRecord
  2
STANDARD
 70
     0
  3

  4

  5

  6

  7

 40
1.0
 41
0.18
 42
0.0625
 43
0.38
 44
0.18
 45
0.0
 46
0.0
 47
0.0
 48
0.0
140
0.18
141
0.09
142
0.0
143
25.4
144
1.0
145
0.0
146
1.0
147
0.09
 71
     0
 72
     0
 73
     1
 74
     1
 75
     0
 76
     0
 77
     0
 78
     0
170
     0
171
     2
172
     0
173
     0
174
     0
175
     0
176
     0
177
     0
178
     0
270
     2
271
     4
272
     4
273
     2
274
     2
340
EF7C8552A
275
     0
280
     0
281
     0
282
     0
283
     1
284
     0
285
     0
286
     0
287
     3
288
     0
  0
ENDTAB
  0
TABLE
  2
BLOCK_RECORD
  5
EF7C8551C
330
0
100
AcDbSymbolTable
 70
    11
  0
BLOCK_RECORD
  5
EF7C85532
102
{ACAD_XDICTIONARY
360
EF7C85D9A
102
}
330
EF7C8551C
100
AcDbSymbolTableRecord
100
AcDbBlockTableRecord
  2
*MODEL_SPACE
  0
BLOCK_RECORD
  5
EF7C8552F
102
{ACAD_XDICTIONARY
360
EF7C85D98
102
}
330
EF7C8551C
100
AcDbSymbolTableRecord
100
AcDbBlockTableRecord
  2
*PAPER_SPACE
  0
BLOCK_RECORD
  5
EF7C85537
330
EF7C8551C
100
AcDbSymbolTableRecord
100
AcDbBlockTableRecord
  2
ARROW
  0
BLOCK_RECORD
  5
EF7C8553B
330
EF7C8551C
100
AcDbSymbolTableRecord
100
AcDbBlockTableRecord
  2
WAKU
  0
BLOCK_RECORD
  5
EF7C8553D
330
EF7C8551C
100
AcDbSymbolTableRecord
100
AcDbBlockTableRecord
  2
*X2
  0
BLOCK_RECORD
  5
EF7C8553E
330
EF7C8551C
100
AcDbSymbolTableRecord
100
AcDbBlockTableRecord
  2
STDGX5
  0
BLOCK_RECORD
  5
EF7C8553F
330
EF7C8551C
100
AcDbSymbolTableRecord
100
AcDbBlockTableRecord
  2
*X4
  0
BLOCK_RECORD
  5
EF7C85540
330
EF7C8551C
100
AcDbSymbolTableRecord
100
AcDbBlockTableRecord
  2
*X5
  0
BLOCK_RECORD
  5
EF7C85541
330
EF7C8551C
100
AcDbSymbolTableRecord
100
AcDbBlockTableRecord
  2
*X6
  0
BLOCK_RECORD
  5
EF7C85542
330
EF7C8551C
100
AcDbSymbolTableRecord
100
AcDbBlockTableRecord
  2
*X7
  0
BLOCK_RECORD
  5
EF7C85543
330
EF7C8551C
100
AcDbSymbolTableRecord
100
AcDbBlockTableRecord
  2
ARROWANG
  0
BLOCK_RECORD
  5
EF7C85544
330
EF7C8551C
100
AcDbSymbolTableRecord
100
AcDbBlockTableRecord
  2
STDR12J
  0
ENDTAB
  0
ENDSEC
  0
SECTION
  2
BLOCKS
  0
BLOCK
  5
EF7C85580
330
EF7C85532
100
AcDbEntity
  8
0
100
AcDbBlockBegin
  2
*MODEL_SPACE
 70
     0
 10
0.0
 20
0.0
 30
0.0
  3
*MODEL_SPACE
  1

  0
ENDBLK
  5
EF7C85581
330
EF7C85532
100
AcDbEntity
  8
0
100
AcDbBlockEnd
  0
BLOCK
  5
EF7C8557E
330
EF7C8552F
100
AcDbEntity
 67
     1
  8
0
100
AcDbBlockBegin
  2
*PAPER_SPACE
 70
     0
 10
0.0
 20
0.0
 30
0.0
  3
*PAPER_SPACE
  1

  0
ENDBLK
  5
EF7C8557F
330
EF7C8552F
100
AcDbEntity
 67
     1
  8
0
100
AcDbBlockEnd
  0
BLOCK
  5
499
330
EF7C85537
100
AcDbEntity
  8
0
100
AcDbBlockBegin
  2
ARROW
 70
     0
 10
1.0
 20
0.5
 30
0.0
  3
ARROW
  1

  0
LINE
  5
49A
330
EF7C85537
100
AcDbEntity
  8
0
100
AcDbLine
 10
1.0
 20
0.5
 30
0.0
 11
-0.5000000000000214
 21
0.0980762113533018
 31
0.0
  0
LINE
  5
49B
330
EF7C85537
100
AcDbEntity
  8
0
100
AcDbLine
 10
0.0
 20
0.5
 30
0.0
 11
1.0
 21
0.5
 31
0.0
  0
LINE
  5
49C
330
EF7C85537
100
AcDbEntity
  8
0
100
AcDbLine
 10
1.0
 20
0.5
 30
0.0
 11
-0.4999999999999575
 21
0.9019237886467408
 31
0.0
  0
ENDBLK
  5
49D
330
EF7C85537
100
AcDbEntity
  8
0
100
AcDbBlockEnd
  0
BLOCK
  5
4A7
330
EF7C8553B
100
AcDbEntity
  8
0
100
AcDbBlockBegin
  2
WAKU
 70
     0
 10
0.0
 20
0.0
 30
0.0
  3
WAKU
  1

  0
LINE
  5
4A8
330
EF7C8553B
100
AcDbEntity
  8
WAKU
100
AcDbLine
 10
0.9999999959999998
 20
0.0
 30
0.0
 11
0.9999999959999998
 21
0.9999999999999998
 31
0.0
  0
LINE
  5
4A9
330
EF7C8553B
100
AcDbEntity
  8
WAKU
100
AcDbLine
 10
0.0
 20
0.9999999999999998
 30
0.0
 11
0.9999999959999998
 21
0.9999999999999998
 31
0.0
  0
LINE
  5
4AA
330
EF7C8553B
100
AcDbEntity
  8
WAKU
100
AcDbLine
 10
0.9999999959999998
 20
0.0
 30
0.0
 11
0.0
 21
0.0
 31
0.0
  0
LINE
  5
4AB
330
EF7C8553B
100
AcDbEntity
  8
WAKU
100
AcDbLine
 10
0.0
 20
0.0
 30
0.0
 11
0.0
 21
0.9999999999999998
 31
0.0
  0
ENDBLK
  5
4AC
330
EF7C8553B
100
AcDbEntity
  8
0
100
AcDbBlockEnd
  0
BLOCK
  5
2764
330
EF7C8553D
100
AcDbEntity
  8
0
100
AcDbBlockBegin
  2
*X2
 70
     1
 10
0.0
 20
0.0
 30
0.0
  3
*X2
  1

  0
ENDBLK
  5
2765
330
EF7C8553D
100
AcDbEntity
  8
0
100
AcDbBlockEnd
  0
BLOCK
  5
2766
330
EF7C8553E
100
AcDbEntity
  8
0
100
AcDbBlockBegin
  2
STDGX5
 70
     0
 10
0.0
 20
0.0
 30
0.0
  3
STDGX5
  1

  0
ENDBLK
  5
2767
330
EF7C8553E
100
AcDbEntity
  8
0
100
AcDbBlockEnd
  0
BLOCK
  5
2F5A
330
EF7C8553F
100
AcDbEntity
  8
0
100
AcDbBlockBegin
  2
*X4
 70
     1
 10
0.0
 20
0.0
 30
0.0
  3
*X4
  1

  0
ENDBLK
  5
2F5B
330
EF7C8553F
100
AcDbEntity
  8
0
100
AcDbBlockEnd
  0
BLOCK
  5
32BB
330
EF7C85540
100
AcDbEntity
  8
0
100
AcDbBlockBegin
  2
*X5
 70
     1
 10
0.0
 20
0.0
 30
0.0
  3
*X5
  1

  0
ENDBLK
  5
32BC
330
EF7C85540
100
AcDbEntity
  8
0
100
AcDbBlockEnd
  0
BLOCK
  5
372F
330
EF7C85541
100
AcDbEntity
  8
0
100
AcDbBlockBegin
  2
*X6
 70
     1
 10
0.0
 20
0.0
 30
0.0
  3
*X6
  1

  0
ENDBLK
  5
3730
330
EF7C85541
100
AcDbEntity
  8
0
100
AcDbBlockEnd
  0
BLOCK
  5
3A6D
330
EF7C85542
100
AcDbEntity
  8
0
100
AcDbBlockBegin
  2
*X7
 70
     1
 10
0.0
 20
0.0
 30
0.0
  3
*X7
  1

  0
ENDBLK
  5
3A6E
330
EF7C85542
100
AcDbEntity
  8
0
100
AcDbBlockEnd
  0
BLOCK
  5
4CC9
330
EF7C85543
100
AcDbEntity
  8
0
100
AcDbBlockBegin
  2
ARROWANG
 70
     0
 10
0.0
 20
0.0
 30
0.0
  3
ARROWANG
  1

  0
LINE
  5
4CCA
330
EF7C85543
100
AcDbEntity
  8
SUNPOU
100
AcDbLine
 10
0.0
 20
0.0
 30
0.0
 11
-1.499999999999956
 21
0.401923788646741
 31
0.0
  0
LINE
  5
4CCB
330
EF7C85543
100
AcDbEntity
  8
SUNPOU
100
AcDbLine
 10
0.0
 20
0.0
 30
0.0
 11
-1.500000000000027
 21
-0.4019237886467124
 31
0.0
  0
ENDBLK
  5
4CCC
330
EF7C85543
100
AcDbEntity
  8
0
100
AcDbBlockEnd
  0
BLOCK
  5
4CCD
330
EF7C85544
100
AcDbEntity
  8
0
100
AcDbBlockBegin
  2
STDR12J
 70
     0
 10
0.0
 20
0.0
 30
0.0
  3
STDR12J
  1

  0
ENDBLK
  5
4CF2
330
EF7C85544
100
AcDbEntity
  8
0
100
AcDbBlockEnd
  0
ENDSEC
  0
SECTION
  2
ENTITIES
  0
TEXT
  5
1
330
EF7C85532
100
AcDbEntity
  8
SUNPOU
100
AcDbText
 10
95.05869565217388
 20
43.7966872748706
 30
0.0
 40
1.5
  1
                          
100
AcDbText
  0
TEXT
  5
2
330
EF7C85532
100
AcDbEntity
  8
SUNPOU
100
AcDbText
 10
332.2793466870868
 20
21.8983436374353
 30
0.0
 40
0.75
  1
                          
100
AcDbText
  0
TEXT
  5
1A
330
EF7C85532
100
AcDbEntity
  8
SUNPOU
100
AcDbText
 10
289.9834441000535
 20
43.7966872748706
 30
0.0
 40
1.5
  1
                          
100
AcDbText
  0
TEXT
  5
1B
330
EF7C85532
100
AcDbEntity
  8
SUNPOU
100
AcDbText
 10
527.2040951349664
 20
21.8983436374353
 30
0.0
 40
0.75
  1
                          
100
AcDbText
  0
TEXT
  5
1C
330
EF7C85532
100
AcDbEntity
  8
SUNPOU
100
AcDbText
 10
490.6272568090836
 20
43.79668727487056
 30
0.0
 40
1.5
  1
                          
100
AcDbText
  0
TEXT
  5
1D
330
EF7C85532
100
AcDbEntity
  8
SUNPOU
100
AcDbText
 10
727.8479078439966
 20
21.89834363743526
 30
0.0
 40
0.75
  1
                          
100
AcDbText
  0
INSERT
  5
1E
330
EF7C85532
100
AcDbEntity
  8
HATCH
100
AcDbBlockReference
  2
*X2
 10
194.9247484478796
 20
0.0
 30
0.0
  0
TEXT
  5
1F
330
EF7C85532
100
AcDbEntity
  8
SUNPOU
100
AcDbText
 10
493.0101992368963
 20
43.7966872748706
 30
0.0
 40
1.5
  1
                          
100
AcDbText
  0
TEXT
  5
20
330
EF7C85532
100
AcDbEntity
  8
SUNPOU
100
AcDbText
 10
730.2308502718093
 20
21.8983436374353
 30
0.0
 40
0.75
  1
                          
100
AcDbText
  0
TEXT
  5
21
330
EF7C85532
100
AcDbEntity
  8
SUNPOU
100
AcDbText
 10
482.0486607753578
 20
43.7966872748706
 30
0.0
 40
1.5
  1
                          
100
AcDbText
  0
TEXT
  5
22
330
EF7C85532
100
AcDbEntity
  8
SUNPOU
100
AcDbText
 10
719.269311810271
 20
21.8983436374353
 30
0.0
 40
0.75
  1
                          
100
AcDbText
  0
INSERT
  5
25
330
EF7C85532
100
AcDbEntity
  8
JISSEN
100
AcDbBlockReference
  2
STDGX5
 10
0.0
 20
0.0
 30
0.0
  0
TEXT
  5
60
330
EF7C85532
100
AcDbEntity
  8
SUNPOU
100
AcDbText
 10
274.0586949361738
 20
43.7966872748706
 30
0.0
 40
1.5
  1
                          
100
AcDbText
  0
TEXT
  5
61
330
EF7C85532
100
AcDbEntity
  8
SUNPOU
100
AcDbText
 10
511.2793459710869
 20
21.8983436374353
 30
0.0
 40
0.75
  1
                          
100
AcDbText
  0
TEXT
  5
62
330
EF7C85532
100
AcDbEntity
  8
SUNPOU
100
AcDbText
 10
474.702507645204
 20
43.79668727487056
 30
0.0
 40
1.5
  1
                          
100
AcDbText
  0
TEXT
  5
63
330
EF7C85532
100
AcDbEntity
  8
SUNPOU
100
AcDbText
 10
711.923158680117
 20
21.89834363743526
 30
0.0
 40
0.75
  1
                          
100
AcDbText
  0
INSERT
  5
64
330
EF7C85532
100
AcDbEntity
  8
HATCH
100
AcDbBlockReference
  2
*X4
 10
178.999999284
 20
0.0
 30
0.0
  0
TEXT
  5
65
330
EF7C85532
100
AcDbEntity
  8
SUNPOU
100
AcDbText
 10
477.0854500730166
 20
43.7966872748706
 30
0.0
 40
1.5
  1
                          
100
AcDbText
  0
TEXT
  5
66
330
EF7C85532
100
AcDbEntity
  8
SUNPOU
100
AcDbText
 10
714.3061011079296
 20
21.8983436374353
 30
0.0
 40
0.75
  1
                          
100
AcDbText
  0
TEXT
  5
67
330
EF7C85532
100
AcDbEntity
  8
SUNPOU
100
AcDbText
 10
466.1239116114783
 20
43.7966872748706
 30
0.0
 40
1.5
  1
                          
100
AcDbText
  0
TEXT
  5
68
330
EF7C85532
100
AcDbEntity
  8
SUNPOU
100
AcDbText
 10
703.3445626463913
 20
21.8983436374353
 30
0.0
 40
0.75
  1
                          
100
AcDbText
  0
INSERT
  5
69
330
EF7C85532
100
AcDbEntity
  8
TEXT
100
AcDbBlockReference
  2
STDGX5
 10
178.999999284
 20
0.0
 30
0.0
  0
TEXT
  5
6A
330
EF7C85532
100
AcDbEntity
  8
SUNPOU
100
AcDbText
 10
453.0586949361739
 20
43.7966872748706
 30
0.0
 40
1.5
  1
                          
100
AcDbText
  0
TEXT
  5
6B
330
EF7C85532
100
AcDbEntity
  8
SUNPOU
100
AcDbText
 10
690.2793459710871
 20
21.8983436374353
 30
0.0
 40
0.75
  1
                          
100
AcDbText
  0
TEXT
  5
6C
330
EF7C85532
100
AcDbEntity
  8
SUNPOU
100
AcDbText
 10
647.9834433840535
 20
43.7966872748706
 30
0.0
 40
1.5
  1
                          
100
AcDbText
  0
TEXT
  5
6D
330
EF7C85532
100
AcDbEntity
  8
SUNPOU
100
AcDbText
 10
885.2040944189665
 20
21.8983436374353
 30
0.0
 40
0.75
  1
                          
100
AcDbText
  0
TEXT
  5
6E
330
EF7C85532
100
AcDbEntity
  8
SUNPOU
100
AcDbText
 10
848.6272560930835
 20
43.79668727487056
 30
0.0
 40
1.5
  1
                          
100
AcDbText
  0
TEXT
  5
6F
330
EF7C85532
100
AcDbEntity
  8
SUNPOU
100
AcDbText
 10
1085.847907127996
 20
21.89834363743526
 30
0.0
 40
0.75
  1
                          
100
AcDbText
  0
INSERT
  5
70
330
EF7C85532
100
AcDbEntity
  8
HATCH
100
AcDbBlockReference
  2
*X5
 10
552.9247477318796
 20
0.0
 30
0.0
  0
TEXT
  5
71
330
EF7C85532
100
AcDbEntity
  8
SUNPOU
100
AcDbText
 10
851.0101985208963
 20
43.7966872748706
 30
0.0
 40
1.5
  1
                          
100
AcDbText
  0
TEXT
  5
72
330
EF7C85532
100
AcDbEntity
  8
SUNPOU
100
AcDbText
 10
1088.230849555809
 20
21.8983436374353
 30
0.0
 40
0.75
  1
                          
100
AcDbText
  0
TEXT
  5
73
330
EF7C85532
100
AcDbEntity
  8
SUNPOU
100
AcDbText
 10
840.048660059358
 20
43.7966872748706
 30
0.0
 40
1.5
  1
                          
100
AcDbText
  0
TEXT
  5
74
330
EF7C85532
100
AcDbEntity
  8
SUNPOU
100
AcDbText
 10
1077.269311094271
 20
21.8983436374353
 30
0.0
 40
0.75
  1
                          
100
AcDbText
  0
INSERT
  5
75
330
EF7C85532
100
AcDbEntity
  8
JISSEN
100
AcDbBlockReference
  2
STDGX5
 10
357.999999284
 20
0.0
 30
0.0
  0
TEXT
  5
76
330
EF7C85532
100
AcDbEntity
  8
SUNPOU
100
AcDbText
 10
453.0586949361739
 20
43.7966872748706
 30
0.0
 40
1.5
  1
                          
100
AcDbText
  0
TEXT
  5
77
330
EF7C85532
100
AcDbEntity
  8
SUNPOU
100
AcDbText
 10
690.2793459710871
 20
21.8983436374353
 30
0.0
 40
0.75
  1
                          
100
AcDbText
  0
TEXT
  5
78
330
EF7C85532
100
AcDbEntity
  8
SUNPOU
100
AcDbText
 10
647.9834433840535
 20
43.7966872748706
 30
0.0
 40
1.5
  1
                          
100
AcDbText
  0
TEXT
  5
79
330
EF7C85532
100
AcDbEntity
  8
SUNPOU
100
AcDbText
 10
885.2040944189665
 20
21.8983436374353
 30
0.0
 40
0.75
  1
                          
100
AcDbText
  0
TEXT
  5
7A
330
EF7C85532
100
AcDbEntity
  8
SUNPOU
100
AcDbText
 10
848.6272560930835
 20
43.79668727487056
 30
0.0
 40
1.5
  1
                          
100
AcDbText
  0
TEXT
  5
7B
330
EF7C85532
100
AcDbEntity
  8
SUNPOU
100
AcDbText
 10
1085.847907127996
 20
21.89834363743526
 30
0.0
 40
0.75
  1
                          
100
AcDbText
  0
INSERT
  5
7C
330
EF7C85532
100
AcDbEntity
  8
HATCH
100
AcDbBlockReference
  2
*X6
 10
552.9247477318796
 20
0.0
 30
0.0
  0
TEXT
  5
7D
330
EF7C85532
100
AcDbEntity
  8
SUNPOU
100
AcDbText
 10
851.0101985208963
 20
43.7966872748706
 30
0.0
 40
1.5
  1
                          
100
AcDbText
  0
TEXT
  5
7E
330
EF7C85532
100
AcDbEntity
  8
SUNPOU
100
AcDbText
 10
1088.230849555809
 20
21.8983436374353
 30
0.0
 40
0.75
  1
                          
100
AcDbText
  0
TEXT
  5
7F
330
EF7C85532
100
AcDbEntity
  8
SUNPOU
100
AcDbText
 10
840.048660059358
 20
43.7966872748706
 30
0.0
 40
1.5
  1
                          
100
AcDbText
  0
TEXT
  5
80
330
EF7C85532
100
AcDbEntity
  8
SUNPOU
100
AcDbText
 10
1077.269311094271
 20
21.8983436374353
 30
0.0
 40
0.75
  1
                          
100
AcDbText
  0
INSERT
  5
81
330
EF7C85532
100
AcDbEntity
  8
JISSEN
100
AcDbBlockReference
  2
STDGX5
 10
357.999999284
 20
0.0
 30
0.0
  0
TEXT
  5
82
330
EF7C85532
100
AcDbEntity
  8
SUNPOU
100
AcDbText
 10
632.0586942201738
 20
43.7966872748706
 30
0.0
 40
1.5
  1
                          
100
AcDbText
  0
TEXT
  5
83
330
EF7C85532
100
AcDbEntity
  8
SUNPOU
100
AcDbText
 10
869.2793452550871
 20
21.8983436374353
 30
0.0
 40
0.75
  1
                          
100
AcDbText
  0
TEXT
  5
84
330
EF7C85532
100
AcDbEntity
  8
SUNPOU
100
AcDbText
 10
826.9834426680533
 20
43.7966872748706
 30
0.0
 40
1.5
  1
                          
100
AcDbText
  0
TEXT
  5
85
330
EF7C85532
100
AcDbEntity
  8
SUNPOU
100
AcDbText
 10
1064.204093702966
 20
21.8983436374353
 30
0.0
 40
0.75
  1
                          
100
AcDbText
  0
TEXT
  5
86
330
EF7C85532
100
AcDbEntity
  8
SUNPOU
100
AcDbText
 10
1027.627255377083
 20
43.79668727487056
 30
0.0
 40
1.5
  1
                          
100
AcDbText
  0
TEXT
  5
87
330
EF7C85532
100
AcDbEntity
  8
SUNPOU
100
AcDbText
 10
1264.847906411996
 20
21.89834363743526
 30
0.0
 40
0.75
  1
                          
100
AcDbText
  0
INSERT
  5
88
330
EF7C85532
100
AcDbEntity
  8
HATCH
100
AcDbBlockReference
  2
*X7
 10
731.9247470158797
 20
0.0
 30
0.0
  0
TEXT
  5
89
330
EF7C85532
100
AcDbEntity
  8
SUNPOU
100
AcDbText
 10
1030.010197804895
 20
43.7966872748706
 30
0.0
 40
1.5
  1
                          
100
AcDbText
  0
TEXT
  5
8A
330
EF7C85532
100
AcDbEntity
  8
SUNPOU
100
AcDbText
 10
1267.230848839808
 20
21.8983436374353
 30
0.0
 40
0.75
  1
                          
100
AcDbText
  0
TEXT
  5
8B
330
EF7C85532
100
AcDbEntity
  8
SUNPOU
100
AcDbText
 10
1019.048659343358
 20
43.7966872748706
 30
0.0
 40
1.5
  1
                          
100
AcDbText
  0
TEXT
  5
8C
330
EF7C85532
100
AcDbEntity
  8
SUNPOU
100
AcDbText
 10
1256.269310378271
 20
21.8983436374353
 30
0.0
 40
0.75
  1
                          
100
AcDbText
  0
INSERT
  5
8D
330
EF7C85532
100
AcDbEntity
  8
JISSEN
100
AcDbBlockReference
  2
STDGX5
 10
536.999998568
 20
0.0
 30
0.0
  0
INSERT
  5
8E
330
EF7C85532
100
AcDbEntity
  8
SUNPOU
100
AcDbBlockReference
  2
STDGX5
 10
739.0804232644236
 20
50.83533235670902
 30
0.0
 41
0.5
 42
0.5
 43
0.5
  0
INSERT
  5
8F
330
EF7C85532
100
AcDbEntity
  8
SUNPOU
100
AcDbBlockReference
  2
STDGX5
 10
726.2208210623692
 20
105.0763138619288
 30
0.0
 41
0.5
 42
0.5
 43
0.5
  0
INSERT
  5
90
330
EF7C85532
100
AcDbEntity
  8
HATCH
100
AcDbBlockReference
  2
STDGX5
 10
852.3985550581901
 20
151.7065097967401
 30
0.0
 41
0.5
 42
0.5
 43
0.5
  0
INSERT
  5
91
330
EF7C85532
100
AcDbEntity
  8
HATCH
100
AcDbBlockReference
  2
STDGX5
 10
866.6806796277283
 20
102.7017487639612
 30
0.0
 41
0.5
 42
0.5
 43
0.5
  0
INSERT
  5
92
330
EF7C85532
100
AcDbEntity
  8
TEXT
100
AcDbBlockReference
  2
STDGX5
 10
970.3434408521969
 20
102.8213468229236
 30
0.0
 41
0.5
 42
0.5
 43
0.5
  0
INSERT
  5
93
330
EF7C85532
100
AcDbEntity
  8
SUNPOU
100
AcDbBlockReference
  2
STDGX5
 10
996.1728907397867
 20
174.5475645486173
 30
0.0
 41
0.5
 42
0.5
 43
0.5
  0
INSERT
  5
94
330
EF7C85532
100
AcDbEntity
  8
TEXT
100
AcDbBlockReference
  2
STDGX5
 10
725.7513886810995
 20
124.5860190441302
 30
0.0
 41
0.5
 42
0.5
 43
0.5
  0
INSERT
  5
95
330
EF7C85532
100
AcDbEntity
  8
HATCH
100
AcDbBlockReference
  2
STDGX5
 10
777.1755722656421
 20
145.5222028932424
 30
0.0
 41
0.5
 42
0.5
 43
0.5
  0
INSERT
  5
96
330
EF7C85532
100
AcDbEntity
  8
SUNPOU
100
AcDbBlockReference
  2
STDGX5
 10
846.1963575359604
 20
112.6957974729892
 30
0.0
 41
0.5
 42
0.5
 43
0.5
  0
INSERT
  5
97
330
EF7C85532
100
AcDbEntity
  8
SUNPOU
100
AcDbBlockReference
  2
STDGX5
 10
916.6681156211122
 20
121.7330617103084
 30
0.0
 41
0.5
 42
0.5
 43
0.5
  0
INSERT
  5
98
330
EF7C85532
100
AcDbEntity
  8
TEXT
100
AcDbBlockReference
  2
STDGX5
 10
983.7969461426766
 20
84.61852224867081
 30
0.0
 41
0.5
 42
0.5
 43
0.5
  0
INSERT
  5
99
330
EF7C85532
100
AcDbEntity
  8
HATCH
100
AcDbBlockReference
  2
STDGX5
 10
974.2802715042101
 20
136.484938655923
 30
0.0
 41
0.5
 42
0.5
 43
0.5
  0
INSERT
  5
9A
330
EF7C85532
100
AcDbEntity
  8
SUNPOU
100
AcDbBlockReference
  2
STDGX5
 10
749.7834008663488
 20
95.14721172234004
 30
0.0
 41
0.5
 42
0.5
 43
0.5
  0
INSERT
  5
9B
330
EF7C85532
100
AcDbEntity
  8
SUNPOU
100
AcDbBlockReference
  2
STDGX5
 10
736.9237986642947
 20
149.3881932275598
 30
0.0
 41
0.5
 42
0.5
 43
0.5
  0
INSERT
  5
9C
330
EF7C85532
100
AcDbEntity
  8
HATCH
100
AcDbBlockReference
  2
STDGX5
 10
863.1015326601156
 20
196.0183891623711
 30
0.0
 41
0.5
 42
0.5
 43
0.5
  0
INSERT
  5
9D
330
EF7C85532
100
AcDbEntity
  8
HATCH
100
AcDbBlockReference
  2
STDGX5
 10
877.3836572296538
 20
147.0136281295922
 30
0.0
 41
0.5
 42
0.5
 43
0.5
  0
INSERT
  5
9E
330
EF7C85532
100
AcDbEntity
  8
TEXT
100
AcDbBlockReference
  2
STDGX5
 10
981.0464184541222
 20
147.1332261885546
 30
0.0
 41
0.5
 42
0.5
 43
0.5
  0
INSERT
  5
9F
330
EF7C85532
100
AcDbEntity
  8
SUNPOU
100
AcDbBlockReference
  2
STDGX5
 10
1006.875868341712
 20
218.8594439142483
 30
0.0
 41
0.5
 42
0.5
 43
0.5
  0
INSERT
  5
A0
330
EF7C85532
100
AcDbEntity
  8
TEXT
100
AcDbBlockReference
  2
STDGX5
 10
736.454366283025
 20
168.8978984097611
 30
0.0
 41
0.5
 42
0.5
 43
0.5
  0
INSERT
  5
A1
330
EF7C85532
100
AcDbEntity
  8
HATCH
100
AcDbBlockReference
  2
STDGX5
 10
787.8785498675677
 20
189.8340822588734
 30
0.0
 41
0.5
 42
0.5
 43
0.5
  0
INSERT
  5
A2
330
EF7C85532
100
AcDbEntity
  8
SUNPOU
100
AcDbBlockReference
  2
STDGX5
 10
856.899335137886
 20
157.0076768386202
 30
0.0
 41
0.5
 42
0.5
 43
0.5
  0
INSERT
  5
A3
330
EF7C85532
100
AcDbEntity
  8
SUNPOU
100
AcDbBlockReference
  2
STDGX5
 10
927.3710932230379
 20
166.0449410759395
 30
0.0
 41
0.5
 42
0.5
 43
0.5
  0
INSERT
  5
A4
330
EF7C85532
100
AcDbEntity
  8
TEXT
100
AcDbBlockReference
  2
STDGX5
 10
994.4999237446024
 20
128.9304016143017
 30
0.0
 41
0.5
 42
0.5
 43
0.5
  0
INSERT
  5
A5
330
EF7C85532
100
AcDbEntity
  8
HATCH
100
AcDbBlockReference
  2
STDGX5
 10
984.9832491061354
 20
180.7968180215541
 30
0.0
 41
0.5
 42
0.5
 43
0.5
  0
TEXT
  5
DE
330
EF7C85532
100
AcDbEntity
  8
SUNPOU
100
AcDbText
 10
274.0586949361738
 20
43.7966872748706
 30
0.0
 40
1.5
  1
                          
100
AcDbText
  0
TEXT
  5
145
330
EF7C85532
100
AcDbEntity
  8
SUNPOU
100
AcDbText
 10
511.2793459710869
 20
21.8983436374353
 30
0.0
 40
0.75
  1
                          
100
AcDbText
  0
TEXT
  5
265
330
EF7C85532
100
AcDbEntity
  8
SUNPOU
100
AcDbText
 10
474.702507645204
 20
43.79668727487056
 30
0.0
 40
1.5
  1
                          
100
AcDbText
  0
TEXT
  5
266
330
EF7C85532
100
AcDbEntity
  8
SUNPOU
100
AcDbText
 10
711.923158680117
 20
21.89834363743526
 30
0.0
 40
0.75
  1
                          
100
AcDbText
  0
INSERT
  5
2F7
330
EF7C85532
100
AcDbEntity
  8
HATCH
100
AcDbBlockReference
  2
*X4
 10
178.999999284
 20
0.0
 30
0.0
  0
TEXT
  5
31A
330
EF7C85532
100
AcDbEntity
  8
SUNPOU
100
AcDbText
 10
477.0854500730166
 20
43.7966872748706
 30
0.0
 40
1.5
  1
                          
100
AcDbText
  0
TEXT
  5
31C
330
EF7C85532
100
AcDbEntity
  8
SUNPOU
100
AcDbText
 10
714.3061011079296
 20
21.8983436374353
 30
0.0
 40
0.75
  1
                          
100
AcDbText
  0
TEXT
  5
3A6
330
EF7C85532
100
AcDbEntity
  8
TEXT
100
AcDbText
 10
100.9999992839998
 20
244.9999999999999
 30
0.0
 40
3.0
  1
 
  7
K
100
AcDbText
  0
TEXT
  5
3AB
330
EF7C85532
100
AcDbEntity
  8
SUNPOU
100
AcDbText
 10
466.1239116114783
 20
43.7966872748706
 30
0.0
 40
1.5
  1
                          
100
AcDbText
  0
TEXT
  5
3AC
330
EF7C85532
100
AcDbEntity
  8
SUNPOU
100
AcDbText
 10
703.3445626463913
 20
21.8983436374353
 30
0.0
 40
0.75
  1
                          
100
AcDbText
  0
INSERT
  5
3F6
330
EF7C85532
100
AcDbEntity
  8
TEXT
100
AcDbBlockReference
  2
STDGX5
 10
178.999999284
 20
0.0
 30
0.0
  0
TEXT
  5
3F7
330
EF7C85532
100
AcDbEntity
  8
SUNPOU
100
AcDbText
 10
453.0586949361739
 20
43.7966872748706
 30
0.0
 40
1.5
  1
                          
100
AcDbText
  0
TEXT
  5
3F8
330
EF7C85532
100
AcDbEntity
  8
SUNPOU
100
AcDbText
 10
690.2793459710871
 20
21.8983436374353
 30
0.0
 40
0.75
  1
                          
100
AcDbText
  0
TEXT
  5
3F9
330
EF7C85532
100
AcDbEntity
  8
SUNPOU
100
AcDbText
 10
647.9834433840535
 20
43.7966872748706
 30
0.0
 40
1.5
  1
                          
100
AcDbText
  0
TEXT
  5
3FA
330
EF7C85532
100
AcDbEntity
  8
SUNPOU
100
AcDbText
 10
885.2040944189665
 20
21.8983436374353
 30
0.0
 40
0.75
  1
                          
100
AcDbText
  0
TEXT
  5
3FB
330
EF7C85532
100
AcDbEntity
  8
SUNPOU
100
AcDbText
 10
848.6272560930835
 20
43.79668727487056
 30
0.0
 40
1.5
  1
                          
100
AcDbText
  0
TEXT
  5
3FC
330
EF7C85532
100
AcDbEntity
  8
SUNPOU
100
AcDbText
 10
1085.847907127996
 20
21.89834363743526
 30
0.0
 40
0.75
  1
                          
100
AcDbText
  0
INSERT
  5
3FD
330
EF7C85532
100
AcDbEntity
  8
HATCH
100
AcDbBlockReference
  2
*X5
 10
552.9247477318796
 20
0.0
 30
0.0
  0
TEXT
  5
3FE
330
EF7C85532
100
AcDbEntity
  8
SUNPOU
100
AcDbText
 10
851.0101985208963
 20
43.7966872748706
 30
0.0
 40
1.5
  1
                          
100
AcDbText
  0
TEXT
  5
3FF
330
EF7C85532
100
AcDbEntity
  8
SUNPOU
100
AcDbText
 10
1088.230849555809
 20
21.8983436374353
 30
0.0
 40
0.75
  1
                          
100
AcDbText
  0
TEXT
  5
400
330
EF7C85532
100
AcDbEntity
  8
SUNPOU
100
AcDbText
 10
840.048660059358
 20
43.7966872748706
 30
0.0
 40
1.5
  1
                          
100
AcDbText
  0
TEXT
  5
401
330
EF7C85532
100
AcDbEntity
  8
SUNPOU
100
AcDbText
 10
1077.269311094271
 20
21.8983436374353
 30
0.0
 40
0.75
  1
                          
100
AcDbText
  0
INSERT
  5
402
330
EF7C85532
100
AcDbEntity
  8
JISSEN
100
AcDbBlockReference
  2
STDGX5
 10
357.999999284
 20
0.0
 30
0.0
  0
TEXT
  5
409
330
EF7C85532
100
AcDbEntity
  8
SUNPOU
100
AcDbText
 10
453.0586949361739
 20
43.7966872748706
 30
0.0
 40
1.5
  1
                          
100
AcDbText
  0
TEXT
  5
40A
330
EF7C85532
100
AcDbEntity
  8
SUNPOU
100
AcDbText
 10
690.2793459710871
 20
21.8983436374353
 30
0.0
 40
0.75
  1
                          
100
AcDbText
  0
TEXT
  5
41B
330
EF7C85532
100
AcDbEntity
  8
SUNPOU
100
AcDbText
 10
647.9834433840535
 20
43.7966872748706
 30
0.0
 40
1.5
  1
                          
100
AcDbText
  0
TEXT
  5
41C
330
EF7C85532
100
AcDbEntity
  8
SUNPOU
100
AcDbText
 10
885.2040944189665
 20
21.8983436374353
 30
0.0
 40
0.75
  1
                          
100
AcDbText
  0
TEXT
  5
41D
330
EF7C85532
100
AcDbEntity
  8
SUNPOU
100
AcDbText
 10
848.6272560930835
 20
43.79668727487056
 30
0.0
 40
1.5
  1
                          
100
AcDbText
  0
TEXT
  5
41E
330
EF7C85532
100
AcDbEntity
  8
SUNPOU
100
AcDbText
 10
1085.847907127996
 20
21.89834363743526
 30
0.0
 40
0.75
  1
                          
100
AcDbText
  0
INSERT
  5
41F
330
EF7C85532
100
AcDbEntity
  8
HATCH
100
AcDbBlockReference
  2
*X6
 10
552.9247477318796
 20
0.0
 30
0.0
  0
TEXT
  5
420
330
EF7C85532
100
AcDbEntity
  8
SUNPOU
100
AcDbText
 10
851.0101985208963
 20
43.7966872748706
 30
0.0
 40
1.5
  1
                          
100
AcDbText
  0
TEXT
  5
421
330
EF7C85532
100
AcDbEntity
  8
SUNPOU
100
AcDbText
 10
1088.230849555809
 20
21.8983436374353
 30
0.0
 40
0.75
  1
                          
100
AcDbText
  0
TEXT
  5
422
330
EF7C85532
100
AcDbEntity
  8
SUNPOU
100
AcDbText
 10
840.048660059358
 20
43.7966872748706
 30
0.0
 40
1.5
  1
                          
100
AcDbText
  0
TEXT
  5
423
330
EF7C85532
100
AcDbEntity
  8
SUNPOU
100
AcDbText
 10
1077.269311094271
 20
21.8983436374353
 30
0.0
 40
0.75
  1
                          
100
AcDbText
  0
INSERT
  5
424
330
EF7C85532
100
AcDbEntity
  8
JISSEN
100
AcDbBlockReference
  2
STDGX5
 10
357.999999284
 20
0.0
 30
0.0
  0
TEXT
  5
425
330
EF7C85532
100
AcDbEntity
  8
SUNPOU
100
AcDbText
 10
632.0586942201738
 20
43.7966872748706
 30
0.0
 40
1.5
  1
                          
100
AcDbText
  0
TEXT
  5
426
330
EF7C85532
100
AcDbEntity
  8
SUNPOU
100
AcDbText
 10
869.2793452550871
 20
21.8983436374353
 30
0.0
 40
0.75
  1
                          
100
AcDbText
  0
TEXT
  5
427
330
EF7C85532
100
AcDbEntity
  8
SUNPOU
100
AcDbText
 10
826.9834426680533
 20
43.7966872748706
 30
0.0
 40
1.5
  1
                          
100
AcDbText
  0
TEXT
  5
428
330
EF7C85532
100
AcDbEntity
  8
SUNPOU
100
AcDbText
 10
1064.204093702966
 20
21.8983436374353
 30
0.0
 40
0.75
  1
                          
100
AcDbText
  0
TEXT
  5
429
330
EF7C85532
100
AcDbEntity
  8
SUNPOU
100
AcDbText
 10
1027.627255377083
 20
43.79668727487056
 30
0.0
 40
1.5
  1
                          
100
AcDbText
  0
TEXT
  5
42A
330
EF7C85532
100
AcDbEntity
  8
SUNPOU
100
AcDbText
 10
1264.847906411996
 20
21.89834363743526
 30
0.0
 40
0.75
  1
                          
100
AcDbText
  0
INSERT
  5
42B
330
EF7C85532
100
AcDbEntity
  8
HATCH
100
AcDbBlockReference
  2
*X7
 10
731.9247470158797
 20
0.0
 30
0.0
  0
TEXT
  5
42C
330
EF7C85532
100
AcDbEntity
  8
SUNPOU
100
AcDbText
 10
1030.010197804895
 20
43.7966872748706
 30
0.0
 40
1.5
  1
                          
100
AcDbText
  0
TEXT
  5
42D
330
EF7C85532
100
AcDbEntity
  8
SUNPOU
100
AcDbText
 10
1267.230848839808
 20
21.8983436374353
 30
0.0
 40
0.75
  1
                          
100
AcDbText
  0
TEXT
  5
42E
330
EF7C85532
100
AcDbEntity
  8
SUNPOU
100
AcDbText
 10
1019.048659343358
 20
43.7966872748706
 30
0.0
 40
1.5
  1
                          
100
AcDbText
  0
TEXT
  5
42F
330
EF7C85532
100
AcDbEntity
  8
SUNPOU
100
AcDbText
 10
1256.269310378271
 20
21.8983436374353
 30
0.0
 40
0.75
  1
                          
100
AcDbText
  0
INSERT
  5
430
330
EF7C85532
100
AcDbEntity
  8
JISSEN
100
AcDbBlockReference
  2
STDGX5
 10
536.999998568
 20
0.0
 30
0.0
  0
INSERT
  5
43B
330
EF7C85532
100
AcDbEntity
  8
SUNPOU
100
AcDbBlockReference
  2
STDGX5
 10
739.0804232644236
 20
50.83533235670902
 30
0.0
 41
0.5
 42
0.5
 43
0.5
  0
INSERT
  5
43C
330
EF7C85532
100
AcDbEntity
  8
SUNPOU
100
AcDbBlockReference
  2
STDGX5
 10
726.2208210623692
 20
105.0763138619288
 30
0.0
 41
0.5
 42
0.5
 43
0.5
  0
INSERT
  5
43D
330
EF7C85532
100
AcDbEntity
  8
HATCH
100
AcDbBlockReference
  2
STDGX5
 10
852.3985550581901
 20
151.7065097967401
 30
0.0
 41
0.5
 42
0.5
 43
0.5
  0
INSERT
  5
43E
330
EF7C85532
100
AcDbEntity
  8
HATCH
100
AcDbBlockReference
  2
STDGX5
 10
866.6806796277283
 20
102.7017487639612
 30
0.0
 41
0.5
 42
0.5
 43
0.5
  0
INSERT
  5
43F
330
EF7C85532
100
AcDbEntity
  8
TEXT
100
AcDbBlockReference
  2
STDGX5
 10
970.3434408521969
 20
102.8213468229236
 30
0.0
 41
0.5
 42
0.5
 43
0.5
  0
INSERT
  5
440
330
EF7C85532
100
AcDbEntity
  8
SUNPOU
100
AcDbBlockReference
  2
STDGX5
 10
996.1728907397867
 20
174.5475645486173
 30
0.0
 41
0.5
 42
0.5
 43
0.5
  0
INSERT
  5
441
330
EF7C85532
100
AcDbEntity
  8
TEXT
100
AcDbBlockReference
  2
STDGX5
 10
725.7513886810995
 20
124.5860190441302
 30
0.0
 41
0.5
 42
0.5
 43
0.5
  0
INSERT
  5
442
330
EF7C85532
100
AcDbEntity
  8
HATCH
100
AcDbBlockReference
  2
STDGX5
 10
777.1755722656421
 20
145.5222028932424
 30
0.0
 41
0.5
 42
0.5
 43
0.5
  0
INSERT
  5
443
330
EF7C85532
100
AcDbEntity
  8
SUNPOU
100
AcDbBlockReference
  2
STDGX5
 10
846.1963575359604
 20
112.6957974729892
 30
0.0
 41
0.5
 42
0.5
 43
0.5
  0
INSERT
  5
444
330
EF7C85532
100
AcDbEntity
  8
SUNPOU
100
AcDbBlockReference
  2
STDGX5
 10
916.6681156211122
 20
121.7330617103084
 30
0.0
 41
0.5
 42
0.5
 43
0.5
  0
INSERT
  5
445
330
EF7C85532
100
AcDbEntity
  8
TEXT
100
AcDbBlockReference
  2
STDGX5
 10
983.7969461426766
 20
84.61852224867081
 30
0.0
 41
0.5
 42
0.5
 43
0.5
  0
INSERT
  5
446
330
EF7C85532
100
AcDbEntity
  8
HATCH
100
AcDbBlockReference
  2
STDGX5
 10
974.2802715042101
 20
136.484938655923
 30
0.0
 41
0.5
 42
0.5
 43
0.5
  0
INSERT
  5
447
330
EF7C85532
100
AcDbEntity
  8
SUNPOU
100
AcDbBlockReference
  2
STDGX5
 10
749.7834008663488
 20
95.14721172234004
 30
0.0
 41
0.5
 42
0.5
 43
0.5
  0
INSERT
  5
448
330
EF7C85532
100
AcDbEntity
  8
SUNPOU
100
AcDbBlockReference
  2
STDGX5
 10
736.9237986642947
 20
149.3881932275598
 30
0.0
 41
0.5
 42
0.5
 43
0.5
  0
INSERT
  5
449
330
EF7C85532
100
AcDbEntity
  8
HATCH
100
AcDbBlockReference
  2
STDGX5
 10
863.1015326601156
 20
196.0183891623711
 30
0.0
 41
0.5
 42
0.5
 43
0.5
  0
INSERT
  5
44A
330
EF7C85532
100
AcDbEntity
  8
HATCH
100
AcDbBlockReference
  2
STDGX5
 10
877.3836572296538
 20
147.0136281295922
 30
0.0
 41
0.5
 42
0.5
 43
0.5
  0
INSERT
  5
44B
330
EF7C85532
100
AcDbEntity
  8
TEXT
100
AcDbBlockReference
  2
STDGX5
 10
981.0464184541222
 20
147.1332261885546
 30
0.0
 41
0.5
 42
0.5
 43
0.5
  0
INSERT
  5
44C
330
EF7C85532
100
AcDbEntity
  8
SUNPOU
100
AcDbBlockReference
  2
STDGX5
 10
1006.875868341712
 20
218.8594439142483
 30
0.0
 41
0.5
 42
0.5
 43
0.5
  0
INSERT
  5
44D
330
EF7C85532
100
AcDbEntity
  8
TEXT
100
AcDbBlockReference
  2
STDGX5
 10
736.454366283025
 20
168.8978984097611
 30
0.0
 41
0.5
 42
0.5
 43
0.5
  0
INSERT
  5
44E
330
EF7C85532
100
AcDbEntity
  8
HATCH
100
AcDbBlockReference
  2
STDGX5
 10
787.8785498675677
 20
189.8340822588734
 30
0.0
 41
0.5
 42
0.5
 43
0.5
  0
INSERT
  5
44F
330
EF7C85532
100
AcDbEntity
  8
SUNPOU
100
AcDbBlockReference
  2
STDGX5
 10
856.899335137886
 20
157.0076768386202
 30
0.0
 41
0.5
 42
0.5
 43
0.5
  0
INSERT
  5
450
330
EF7C85532
100
AcDbEntity
  8
SUNPOU
100
AcDbBlockReference
  2
STDGX5
 10
927.3710932230379
 20
166.0449410759395
 30
0.0
 41
0.5
 42
0.5
 43
0.5
  0
INSERT
  5
451
330
EF7C85532
100
AcDbEntity
  8
TEXT
100
AcDbBlockReference
  2
STDGX5
 10
994.4999237446024
 20
128.9304016143017
 30
0.0
 41
0.5
 42
0.5
 43
0.5
  0
INSERT
  5
452
330
EF7C85532
100
AcDbEntity
  8
HATCH
100
AcDbBlockReference
  2
STDGX5
 10
984.9832491061354
 20
180.7968180215541
 30
0.0
 41
0.5
 42
0.5
 43
0.5
  0
INSERT
  5
4CF3
330
EF7C85532
100
AcDbEntity
  8
JISSEN
100
AcDbBlockReference
  2
STDR12J
 10
0.0
 20
0.0
 30
0.0
  0
LWPOLYLINE
  5
1D277
330
EF7C85532
100
AcDbEntity
  8
NITEN
100
AcDbPolyline
 90
        2
 70
     0
 43
0.0
 10
287.9999995114493
 20
252.2768609170832
 42
0.5882352941176295
 10
270.9999995114491
 20
252.2768609170835
 42
0.5882352941176295
  0
LWPOLYLINE
  5
1D27B
330
EF7C85532
100
AcDbEntity
  8
NITEN
100
AcDbPolyline
 90
        5
 70
     0
 43
0.0
 10
287.9999995114493
 20
231.4391432659373
 10
287.9999995114493
 20
252.2768609170832
 42
-0.5882352941176476
 10
270.9999995114493
 20
252.2768609170832
 42
0.5882352941176477
 10
253.9999995114493
 20
252.2768609170829
 10
253.9999995114493
 20
231.4391432659373
  0
LWPOLYLINE
  5
1D282
330
EF7C85532
100
AcDbEntity
  8
NITEN
100
AcDbPolyline
 90
       15
 70
     1
 43
0.0
 10
256.9999995114493
 20
190.9391432659372
 42
0.4142135623730927
 10
258.4999995114491
 20
189.4391432659373
 10
281.5940506824458
 20
189.4391432659373
 10
283.4999995114493
 20
189.4391432659373
 42
0.4142135623730925
 10
284.9999995114493
 20
190.9391432659372
 10
284.9999995114493
 20
201.9851592921553
 42
-0.4142135623730943
 10
289.9999995114491
 20
206.9851592921553
 42
0.4142135623730951
 10
291.9999995114493
 20
208.9851592921553
 10
291.9999995114491
 20
229.4391432659373
 42
0.4142135623730949
 10
289.9999995114493
 20
231.4391432659373
 10
251.9999995114493
 20
231.4391432659373
 42
0.4142135623730951
 10
249.9999995114493
 20
229.4391432659373
 10
249.9999995114493
 20
208.9851592921553
 42
0.4142135623730951
 10
251.9999995114493
 20
206.9851592921553
 42
-0.4142135623730961
 10
256.9999995114493
 20
201.9851592921553
  0
LINE
  5
1D2BA
102
{ACAD_REACTORS
330
EF7C87630
102
}
330
EF7C85532
100
AcDbEntity
  8
JISSEN
100
AcDbLine
 10
260.4025770325165
 20
183.3285943602099
 30
0.0
 11
205.7240935557536
 21
183.3285943602099
 31
0.0
  0
LWPOLYLINE
  5
1E284
102
{ACAD_REACTORS
330
EF7C87630
102
}
330
EF7C85532
100
AcDbEntity
  8
HATCH
100
AcDbPolyline
 90
       13
 70
     0
 43
0.0
 10
202.2663305223239
 20
188.3285943602099
 10
202.4309177005738
 20
187.5089572819778
 10
202.5728230572541
 20
186.9923393052135
 10
202.800531694402
 20
186.5739130185257
 10
203.1084191810613
 20
186.2357959948588
 10
203.4746424700407
 20
185.9455449222086
 10
203.8773585141496
 20
185.6707164885712
 10
204.2947242661964
 20
185.3788673819421
 10
204.7048966789901
 20
185.0375542903174
 10
205.0860327053399
 20
184.614333901693
 10
205.4162892980543
 20
184.0767629040648
 10
205.6908693612571
 20
183.4131441167773
 10
205.7240935557538
 20
183.3285943602099
  0
LINE
  5
EAFFB3C99
330
EF7C85532
100
AcDbEntity
  8
JISSEN
100
AcDbLine
 10
272.4999987874492
 20
277.0000001996573
 30
0.0
 11
361.9999987874493
 21
277.0000001996573
 31
0.0
  0
LINE
  5
EAFFB3C9A
330
EF7C85532
100
AcDbEntity
  8
JISSEN
100
AcDbLine
 10
272.4999987874492
 20
271.0000001996573
 30
0.0
 11
361.9999987874493
 21
271.0000001996573
 31
0.0
  0
TEXT
  5
EAFFB3C9B
330
EF7C85532
100
AcDbEntity
  8
TEXT
100
AcDbText
 10
288.8999987874491
 20
278.5000001996573
 30
0.0
 40
3.0
  1
名      称
  7
K
 72
     4
 11
297.4999987874492
 21
280.0000001996573
 31
0.0
100
AcDbText
  0
TEXT
  5
EAFFB3C9C
330
EF7C85532
100
AcDbEntity
  8
TEXT
100
AcDbText
 10
274.2999987874492
 20
278.5000001996573
 30
0.0
 40
3.0
  1
番号
  7
K
 72
     4
 11
277.4999987874492
 21
280.0000001996573
 31
0.0
100
AcDbText
  0
LINE
  5
EAFFB3C9D
330
EF7C85532
100
AcDbEntity
  8
JISSEN
100
AcDbLine
 10
272.4999987874492
 20
265.0000001996573
 30
0.0
 11
272.4999987874492
 21
283.0000001996573
 31
0.0
  0
LINE
  5
EAFFB3C9E
330
EF7C85532
100
AcDbEntity
  8
JISSEN
100
AcDbLine
 10
282.4999987874493
 20
283.0000001996573
 30
0.0
 11
282.4999987874493
 21
265.0000001996573
 31
0.0
  0
TEXT
  5
EAFFB3C9F
330
EF7C85532
100
AcDbEntity
  8
TEXT
100
AcDbText
 10
316.1999987874492
 20
278.5000001996573
 30
0.0
 40
3.0
  1
材    質
  7
K
 72
     4
 11
322.9999987874492
 21
280.0000001996573
 31
0.0
100
AcDbText
  0
LINE
  5
EAFFB3CA0
330
EF7C85532
100
AcDbEntity
  8
JISSEN
100
AcDbLine
 10
312.4999987874492
 20
283.0000001996573
 30
0.0
 11
312.4999987874492
 21
265.0000001996573
 31
0.0
  0
LINE
  5
EAFFB3CA1
330
EF7C85532
100
AcDbEntity
  8
JISSEN
100
AcDbLine
 10
333.4999987874492
 20
265.0000001996573
 30
0.0
 11
333.4999987874492
 21
283.0000001996573
 31
0.0
  0
TEXT
  5
EAFFB3CA2
330
EF7C85532
100
AcDbEntity
  8
TEXT
100
AcDbText
 10
346.6999987874491
 20
278.5000001996573
 30
0.0
 40
3.0
  1
備    考
  7
K
 72
     4
 11
353.4999987874492
 21
280.0000001996573
 31
0.0
100
AcDbText
  0
TEXT
  5
EAFFB3CA3
330
EF7C85532
100
AcDbEntity
  8
TEXT
100
AcDbText
 10
335.7999987874492
 20
278.5000001996573
 30
0.0
 40
3.0
  1
個数
  7
K
 72
     4
 11
338.9999987874492
 21
280.0000001996573
 31
0.0
100
AcDbText
  0
LINE
  5
EAFFB3CA4
330
EF7C85532
100
AcDbEntity
  8
JISSEN
100
AcDbLine
 10
344.4999987874492
 20
283.0000001996573
 30
0.0
 11
344.4999987874492
 21
265.0000001996573
 31
0.0
  0
LINE
  5
EAFFB3CA6
330
EF7C85532
100
AcDbEntity
  8
JISSEN
100
AcDbLine
 10
272.4999987874492
 20
265.0000001996573
 30
0.0
 11
361.9999987874493
 21
265.0000001996573
 31
0.0
  0
TEXT
  5
EAFFB3CAC
330
EF7C85532
100
AcDbEntity
  8
TEXT
100
AcDbText
 10
276.2857130731635
 20
272.5000001996573
 30
0.0
 40
3.0
  1
1
  7
K
 72
     4
 11
277.4999987874492
 21
274.0000001996573
 31
0.0
100
AcDbText
  0
TEXT
  5
EAFFB3CB0
330
EF7C85532
100
AcDbEntity
  8
TEXT
100
AcDbText
 10
276.3830711929835
 20
266.5000001996573
 30
0.0
 40
3.0
  1
2
  7
K
 72
     4
 11
277.811642621555
 21
268.0000001996573
 31
0.0
100
AcDbText
  0
TEXT
  5
EAFFB3CC2
330
EF7C85532
100
AcDbEntity
  8
TEXT
100
AcDbText
 10
317.8249987874492
 20
274.3000001996573
 30
0.0
 40
3.0
  1
%%u      
  7
K
 72
     4
 11
322.9999987874492
 21
274.0000001996573
 31
0.0
100
AcDbText
  0
TEXT
  5
EAFFB3CC3
330
EF7C85532
100
AcDbEntity
  8
TEXT
100
AcDbText
 10
319.9999987874492
 20
266.5000001996573
 30
0.0
 40
3.0
  1
PE
  7
K
 72
     4
 11
322.9999987874492
 21
268.0000001996573
 31
0.0
100
AcDbText
  0
INSERT
  5
EAFFB3CF7
330
EF7C85532
100
AcDbEntity
  8
WAKU
100
AcDbBlockReference
  2
WAKU
 10
180.9999995114493
 20
0.0000001996573928
 30
0.0
 41
181.0
 42
283.0
 43
181.0
  0
LINE
  5
EF7C854DA
102
{ACAD_REACTORS
330
EF7C87630
102
}
330
EF7C85532
100
AcDbEntity
  8
JISSEN
100
AcDbLine
 10
202.2663305223239
 20
188.3285943602099
 30
0.0
 11
260.465080212453
 21
188.3285943602099
 31
0.0
  0
TEXT
  5
EF7C85BB1
330
EF7C85532
100
AcDbEntity
  8
TEXT
100
AcDbText
 10
337.6795472738584
 20
272.5000001996573
 30
0.0
 40
3.0
  1
1
  7
K
 72
     4
 11
338.8938329881442
 21
274.0000001996573
 31
0.0
100
AcDbText
  0
TEXT
  5
EF7C85BB2
330
EF7C85532
100
AcDbEntity
  8
TEXT
100
AcDbText
 10
337.6795472738584
 20
266.5808353759984
 30
0.0
 40
3.0
  1
1
  7
K
 72
     4
 11
338.8938329881442
 21
268.0808353759984
 31
0.0
100
AcDbText
  0
LINE
  5
EF7C85D60
102
{ACAD_REACTORS
330
EF7C87630
102
}
330
EF7C85532
100
AcDbEntity
  8
JISSEN
100
AcDbLine
 10
281.5975888664141
 20
183.3285943602099
 30
0.0
 11
336.275905467145
 21
183.3285943602099
 31
0.0
  0
LINE
  5
EF7C85D62
102
{ACAD_REACTORS
330
EF7C87630
102
}
330
EF7C85532
100
AcDbEntity
  8
JISSEN
100
AcDbLine
 10
339.7336685005748
 20
188.3285943602099
 30
0.0
 11
281.5350856864776
 21
188.3285943602098
 31
0.0
  0
LWPOLYLINE
  5
EF7C85D63
102
{ACAD_REACTORS
330
EF7C87630
102
}
330
EF7C85532
100
AcDbEntity
  8
HATCH
100
AcDbPolyline
 90
       13
 70
     0
 43
0.0
 10
339.7336685005748
 20
188.3285943602099
 10
339.5690813223248
 20
187.5089572819778
 10
339.4271759656445
 20
186.9923393052135
 10
339.1994673284965
 20
186.5739130185258
 10
338.8915798418373
 20
186.2357959948588
 10
338.5253565528578
 20
185.9455449222086
 10
338.1226405087492
 20
185.6707164885713
 10
337.7052747567022
 20
185.3788673819421
 10
337.2951023439085
 20
185.0375542903174
 10
336.9139663175586
 20
184.614333901693
 10
336.5837097248443
 20
184.0767629040649
 10
336.3091296616415
 20
183.4131441167774
 10
336.275905467145
 20
183.3285943602099
  0
TEXT
  5
EF7C85DB5
330
EF7C85532
100
AcDbEntity
  8
TEXT
100
AcDbText
 10
283.7714273588777
 20
272.5000001996573
 30
0.0
 40
3.0
  1
MFJ   型ヘッド
  7
K
 72
     4
 11
297.4999987874492
 21
274.0000001996573
 31
0.0
100
AcDbText
  0
TEXT
  5
EF7C85DB6
330
EF7C85532
100
AcDbEntity
  8
TEXT
100
AcDbText
 10
283.7478559303063
 20
266.5000001996573
 30
0.0
 40
3.0
  1
シーリングプレート MFJ
 41
0.65
  7
K
 72
     4
 11
297.4999987874492
 21
268.0000001996573
 31
0.0
100
AcDbText
  0
LINE
  5
EF7C87513
330
EF7C85532
100
AcDbEntity
  8
JISSEN
100
AcDbLine
 10
272.5000829494654
 20
172.8285943602099
 30
0.0
 11
272.5000829494654
 21
166.0317153602099
 31
0.0
  0
LINE
  5
EF7C87514
330
EF7C85532
100
AcDbEntity
  8
JISSEN
100
AcDbLine
 10
277.7419359494654
 20
166.7293183602098
 30
0.0
 11
277.9813879494652
 21
173.1360643602099
 31
0.0
  0
LINE
  5
EF7C87515
330
EF7C85532
100
AcDbEntity
  8
JISSEN
100
AcDbLine
 10
285.6211039494652
 20
173.1426083602099
 30
0.0
 11
285.1772969494652
 21
166.8243423602099
 31
0.0
  0
LINE
  5
EF7C87516
330
EF7C85532
100
AcDbEntity
  8
JISSEN
100
AcDbLine
 10
280.3702879494652
 20
173.0698933602099
 30
0.0
 11
280.1563099494653
 21
166.9250533602099
 31
0.0
  0
LINE
  5
EF7C87517
330
EF7C85532
100
AcDbEntity
  8
JISSEN
100
AcDbLine
 10
280.7960299494654
 20
173.0173893602099
 30
0.0
 11
280.5691959494652
 21
166.9482413602098
 31
0.0
  0
LINE
  5
EF7C87518
330
EF7C85532
100
AcDbEntity
  8
JISSEN
100
AcDbLine
 10
287.1063229494652
 20
173.0090023602099
 30
0.0
 11
286.7136799494653
 21
167.0093713602099
 31
0.0
  0
LINE
  5
EF7C87519
330
EF7C85532
100
AcDbEntity
  8
JISSEN
100
AcDbLine
 10
287.5019599494653
 20
167.2020393602099
 30
0.0
 11
287.9059939494652
 21
172.9540693602099
 31
0.0
  0
LINE
  5
EF7C8751A
330
EF7C85532
100
AcDbEntity
  8
JISSEN
100
AcDbLine
 10
290.9058919494653
 20
166.9061443602099
 30
0.0
 11
291.4739999494652
 21
173.1467263602099
 31
0.0
  0
LINE
  5
EF7C8751B
330
EF7C85532
100
AcDbEntity
  8
JISSEN
100
AcDbLine
 10
292.9732449494654
 20
172.8909073602099
 30
0.0
 11
292.4475429494653
 21
167.3359613602098
 31
0.0
  0
LINE
  5
EF7C8751C
330
EF7C85532
100
AcDbEntity
  8
JISSEN
100
AcDbLine
 10
291.9108239494653
 20
173.1110273602099
 30
0.0
 11
291.3800699494652
 21
167.0915773602098
 31
0.0
  0
LINE
  5
EF7C8751D
330
EF7C85532
100
AcDbEntity
  8
JISSEN
100
AcDbLine
 10
295.4688499494654
 20
173.3285943602099
 30
0.0
 11
294.9484959494654
 21
167.3809173602099
 31
0.0
  0
LINE
  5
EF7C8751E
330
EF7C85532
100
AcDbEntity
  8
JISSEN
100
AcDbLine
 10
295.2384069494653
 20
172.9080303602099
 30
0.0
 11
294.6505769494653
 21
167.4457813602099
 31
0.0
  0
LINE
  5
EF7C8751F
330
EF7C85532
100
AcDbEntity
  8
JISSEN
100
AcDbLine
 10
294.1235739494653
 20
167.3894923602099
 30
0.0
 11
294.7555049494653
 21
173.2615303602099
 31
0.0
  0
LINE
  5
EF7C87520
330
EF7C85532
100
AcDbEntity
  8
JISSEN
100
AcDbLine
 10
247.8765919494652
 20
167.3894923602099
 30
0.0
 11
247.2446609494654
 21
173.2615303602099
 31
0.0
  0
LINE
  5
EF7C87521
330
EF7C85532
100
AcDbEntity
  8
JISSEN
100
AcDbLine
 10
246.7617589494654
 20
172.9080303602099
 30
0.0
 11
247.3495889494654
 21
167.4457813602099
 31
0.0
  0
LINE
  5
EF7C87522
330
EF7C85532
100
AcDbEntity
  8
JISSEN
100
AcDbLine
 10
246.5313159494654
 20
173.3285943602099
 30
0.0
 11
247.0516699494654
 21
167.3809173602099
 31
0.0
  0
LINE
  5
EF7C87523
330
EF7C85532
100
AcDbEntity
  8
JISSEN
100
AcDbLine
 10
250.0893419494654
 20
173.1110273602099
 30
0.0
 11
250.6200959494654
 21
167.0915773602098
 31
0.0
  0
LINE
  5
EF7C87524
330
EF7C85532
100
AcDbEntity
  8
JISSEN
100
AcDbLine
 10
249.0269209494654
 20
172.8909073602099
 30
0.0
 11
249.5526229494654
 21
167.3359613602098
 31
0.0
  0
LINE
  5
EF7C87525
330
EF7C85532
100
AcDbEntity
  8
JISSEN
100
AcDbLine
 10
251.0942739494654
 20
166.9061443602099
 30
0.0
 11
250.5261659494654
 21
173.1467263602099
 31
0.0
  0
LINE
  5
EF7C87526
330
EF7C85532
100
AcDbEntity
  8
JISSEN
100
AcDbLine
 10
254.4982059494654
 20
167.2020393602099
 30
0.0
 11
254.0941719494653
 21
172.9540693602099
 31
0.0
  0
LINE
  5
EF7C87527
330
EF7C85532
100
AcDbEntity
  8
JISSEN
100
AcDbLine
 10
254.8938429494654
 20
173.0090023602099
 30
0.0
 11
255.2864859494654
 21
167.0093713602099
 31
0.0
  0
LINE
  5
EF7C87528
330
EF7C85532
100
AcDbEntity
  8
JISSEN
100
AcDbLine
 10
261.2041359494654
 20
173.0173893602099
 30
0.0
 11
261.4309699494654
 21
166.9482413602098
 31
0.0
  0
LINE
  5
EF7C87529
330
EF7C85532
100
AcDbEntity
  8
JISSEN
100
AcDbLine
 10
261.6298779494653
 20
173.0698933602099
 30
0.0
 11
261.8438559494653
 21
166.9250533602099
 31
0.0
  0
LINE
  5
EF7C8752A
330
EF7C85532
100
AcDbEntity
  8
JISSEN
100
AcDbLine
 10
256.3790619494652
 20
173.1426083602099
 30
0.0
 11
256.8228689494653
 21
166.8243423602099
 31
0.0
  0
LINE
  5
EF7C8752B
330
EF7C85532
100
AcDbEntity
  8
JISSEN
100
AcDbLine
 10
264.2582299494654
 20
166.7293183602098
 30
0.0
 11
264.0187779494654
 21
173.1360643602099
 31
0.0
  0
LINE
  5
EF7C8752C
330
EF7C85532
100
AcDbEntity
  8
JISSEN
100
AcDbLine
 10
269.5000829494654
 20
172.8285943602099
 30
0.0
 11
269.5000829494654
 21
166.0317153602099
 31
0.0
  0
LINE
  5
EF7C8752D
330
EF7C85532
100
AcDbEntity
  8
JISSEN
100
AcDbLine
 10
256.4708799328637
 20
161.9927120378704
 30
0.0
 11
247.9454773236259
 21
166.0012079795809
 31
0.0
1001
ACAD
1000
ASC_BOUNDS
1002
{
1070
    19
1002
}
  0
ARC
  5
EF7C8752E
330
EF7C85532
100
AcDbEntity
  8
JISSEN
100
AcDbCircle
 10
251.1181639494654
 20
167.1354933602098
 30
0.0
 40
0.5
100
AcDbArc
 50
185.0389269999999
 51
279.3495549999998
  0
LINE
  5
EF7C8752F
330
EF7C85532
100
AcDbEntity
  8
JISSEN
100
AcDbLine
 10
250.2416069494654
 20
166.3079233602099
 30
0.0
 11
251.6297059494652
 21
165.5777103602098
 31
0.0
  0
ARC
  5
EF7C87530
330
EF7C85532
100
AcDbEntity
  8
JISSEN
100
AcDbCircle
 10
248.5459622790026
 20
167.3757689343464
 30
0.0
 40
1.5
100
AcDbArc
 50
184.9999999999998
 51
249.9999999999999
  0
ARC
  5
EF7C87531
330
EF7C85532
100
AcDbEntity
  8
JISSEN
100
AcDbCircle
 10
249.1691279494653
 20
167.5285913602098
 30
0.0
 40
1.3
100
AcDbArc
 50
186.1423570000001
 51
245.1745949999998
  0
LINE
  5
EF7C87532
330
EF7C85532
100
AcDbEntity
  8
JISSEN
100
AcDbLine
 10
248.1537559494654
 20
166.3249523602098
 30
0.0
 11
249.6206539494654
 21
165.6463603602099
 31
0.0
  0
ARC
  5
EF7C87533
330
EF7C85532
100
AcDbEntity
  8
JISSEN
100
AcDbCircle
 10
248.7415519494653
 20
167.5955803602099
 30
0.0
 40
1.399999999999999
100
AcDbArc
 50
186.1423570000001
 51
245.1745949999998
  0
LINE
  5
EF7C87534
330
EF7C85532
100
AcDbEntity
  8
JISSEN
100
AcDbLine
 10
250.1351759494653
 20
165.6493313602099
 30
0.0
 11
248.6233169494654
 21
166.3487223602098
 31
0.0
  0
ARC
  5
EF7C87535
330
EF7C85532
100
AcDbEntity
  8
JISSEN
100
AcDbCircle
 10
250.1141839494652
 20
165.6039523602099
 30
0.0
 40
0.05
100
AcDbArc
 50
270.0
 51
65.17459499999985
  0
LINE
  5
EF7C87536
330
EF7C85532
100
AcDbEntity
  8
JISSEN
100
AcDbLine
 10
250.0405089494654
 20
165.5539523602099
 30
0.0
 11
250.1141839494652
 21
165.5539523602099
 31
0.0
  0
ARC
  5
EF7C87537
330
EF7C85532
100
AcDbEntity
  8
JISSEN
100
AcDbCircle
 10
250.0405089494654
 20
166.5539523602099
 30
0.0
 40
1.0
100
AcDbArc
 50
245.1745949999998
 51
270.0
  0
ARC
  5
EF7C87538
330
EF7C85532
100
AcDbEntity
  8
JISSEN
100
AcDbCircle
 10
250.8468399494654
 20
167.4584423602099
 30
0.0
 40
1.3
100
AcDbArc
 50
185.4061850000002
 51
242.253262
  0
LINE
  5
EF7C87539
330
EF7C85532
100
AcDbEntity
  8
JISSEN
100
AcDbLine
 10
279.8564919494654
 20
166.6354933602098
 30
0.0
 11
277.7231589494653
 21
166.6354933602098
 31
0.0
  0
LINE
  5
EF7C8753A
330
EF7C85532
100
AcDbEntity
  8
JISSEN
100
AcDbLine
 10
279.5789419494652
 20
165.5317153602099
 30
0.0
 11
277.3100129494654
 21
165.5317153602099
 31
0.0
  0
LINE
  5
EF7C8753B
330
EF7C85532
100
AcDbEntity
  8
JISSEN
100
AcDbLine
 10
271.0000829494654
 20
161.9927120378705
 30
0.0
 11
285.5292859660671
 21
161.9927120378704
 31
0.0
1001
ACAD
1000
ASC_BOUNDS
1002
{
1070
    19
1002
}
  0
LINE
  5
EF7C87563
330
EF7C85532
100
AcDbEntity
  8
JISSEN
100
AcDbLine
 10
271.0000829494654
 20
161.9927120378705
 30
0.0
 11
256.4708799328637
 21
161.9927120378704
 31
0.0
1001
ACAD
1000
ASC_BOUNDS
1002
{
1070
    19
1002
}
  0
LINE
  5
EF7C87564
330
EF7C85532
100
AcDbEntity
  8
JISSEN
100
AcDbLine
 10
264.8500959494654
 20
165.8517923602099
 30
0.0
 11
264.3181059494654
 21
166.5604083602098
 31
0.0
  0
ARC
  5
EF7C87565
330
EF7C85532
100
AcDbEntity
  8
JISSEN
100
AcDbCircle
 10
264.6901529494654
 20
165.7317153602098
 30
0.0
 40
0.2
100
AcDbArc
 50
270.0
 51
36.89716199999973
  0
LINE
  5
EF7C8756E
330
EF7C85532
100
AcDbEntity
  8
JISSEN
100
AcDbLine
 10
257.9224479494654
 20
165.5317153602099
 30
0.0
 11
256.2068149494654
 21
165.5317153602099
 31
0.0
  0
LINE
  5
EF7C8756F
330
EF7C85532
100
AcDbEntity
  8
JISSEN
100
AcDbLine
 10
256.9905889494654
 20
166.5260243602099
 30
0.0
 11
258.0091839494654
 21
165.8040953602099
 31
0.0
  0
LINE
  5
EF7C87570
330
EF7C85532
100
AcDbEntity
  8
JISSEN
100
AcDbLine
 10
256.0044299494653
 20
165.5961633602099
 30
0.0
 11
255.0013639494653
 21
166.3070853602099
 31
0.0
  0
ARC
  5
EF7C87571
330
EF7C85532
100
AcDbEntity
  8
JISSEN
100
AcDbCircle
 10
255.6856319494654
 20
167.0354933602099
 30
0.0
 40
0.4
100
AcDbArc
 50
183.7443620000003
 51
270.0
  0
LINE
  5
EF7C87572
330
EF7C85532
100
AcDbEntity
  8
JISSEN
100
AcDbLine
 10
252.8588079494654
 20
165.7202173602099
 30
0.0
 11
251.3594329494654
 21
166.5089673602099
 31
0.0
  0
LINE
  5
EF7C87573
330
EF7C85532
100
AcDbEntity
  8
JISSEN
100
AcDbLine
 10
251.8159319494654
 20
165.5317153602099
 30
0.0
 11
252.8122509494654
 21
165.5317153602099
 31
0.0
  0
ARC
  5
EF7C87574
330
EF7C85532
100
AcDbEntity
  8
JISSEN
100
AcDbCircle
 10
251.5922149494652
 20
166.9514743602099
 30
0.0
 40
0.5
100
AcDbArc
 50
185.2015590000002
 51
242.253262
  0
ARC
  5
EF7C87575
330
EF7C85532
100
AcDbEntity
  8
JISSEN
100
AcDbCircle
 10
251.8159319494654
 20
165.9317153602098
 30
0.0
 40
0.4
100
AcDbArc
 50
242.253262
 51
270.0
  0
ARC
  5
EF7C87576
330
EF7C85532
100
AcDbEntity
  8
JISSEN
100
AcDbCircle
 10
252.8122509494654
 20
165.6317153602099
 30
0.0
 40
0.1
100
AcDbArc
 50
270.0
 51
62.25326200000021
  0
ARC
  5
EF7C87577
330
EF7C85532
100
AcDbEntity
  8
JISSEN
100
AcDbCircle
 10
255.6952559494654
 20
167.2861223602098
 30
0.0
 40
1.199999999999999
100
AcDbArc
 50
184.0179690000003
 51
234.6729319999998
  0
ARC
  5
EF7C87578
330
EF7C85532
100
AcDbEntity
  8
JISSEN
100
AcDbCircle
 10
256.2068149494654
 20
165.8817153602099
 30
0.0
 40
0.35
100
AcDbArc
 50
234.6729319999998
 51
270.0
  0
ARC
  5
EF7C87579
330
EF7C85532
100
AcDbEntity
  8
JISSEN
100
AcDbCircle
 10
257.2218859494654
 20
166.8523703602098
 30
0.0
 40
0.4
100
AcDbArc
 50
184.0179690000003
 51
234.6729319999998
  0
LINE
  5
EF7C8757A
330
EF7C85532
100
AcDbEntity
  8
JISSEN
100
AcDbLine
 10
255.6856319494654
 20
166.6354933602098
 30
0.0
 11
256.8857839494654
 21
166.6354933602098
 31
0.0
  0
LINE
  5
EF7C8757B
330
EF7C85532
100
AcDbEntity
  8
JISSEN
100
AcDbLine
 10
262.4212239494653
 20
165.5317153602099
 30
0.0
 11
264.6901529494654
 21
165.5317153602099
 31
0.0
  0
LINE
  5
EF7C8757C
330
EF7C85532
100
AcDbEntity
  8
JISSEN
100
AcDbLine
 10
262.1436739494654
 20
166.6354933602098
 30
0.0
 11
264.2770069494654
 21
166.6354933602098
 31
0.0
  0
ARC
  5
EF7C8757D
330
EF7C85532
100
AcDbEntity
  8
JISSEN
100
AcDbCircle
 10
257.9224479494654
 20
165.6817153602099
 30
0.0
 40
0.15
100
AcDbArc
 50
270.0
 51
54.67293199999994
  0
ARC
  5
EF7C8757E
330
EF7C85532
100
AcDbEntity
  8
JISSEN
100
AcDbCircle
 10
262.4302719494654
 20
166.9855903602099
 30
0.0
 40
1.0
100
AcDbArc
 50
182.1404319999997
 51
216.8971619999997
  0
ARC
  5
EF7C8757F
330
EF7C85532
100
AcDbEntity
  8
JISSEN
100
AcDbCircle
 10
262.4212239494653
 20
165.8317153602099
 30
0.0
 40
0.3
100
AcDbArc
 50
216.8971619999997
 51
270.0
  0
LINE
  5
EF7C87580
330
EF7C85532
100
AcDbEntity
  8
JISSEN
100
AcDbLine
 10
261.6305579494654
 20
166.3852093602099
 30
0.0
 11
262.1813089494654
 21
165.6516013602098
 31
0.0
  0
ARC
  5
EF7C87581
330
EF7C85532
100
AcDbEntity
  8
JISSEN
100
AcDbCircle
 10
262.1436739494654
 20
166.9354933602098
 30
0.0
 40
0.3
100
AcDbArc
 50
181.994368
 51
270.0
  0
ARC
  5
EF7C87582
330
EF7C85532
100
AcDbEntity
  8
JISSEN
100
AcDbCircle
 10
264.5580209494653
 20
166.7405223602099
 30
0.0
 40
0.3
100
AcDbArc
 50
182.1404319999997
 51
216.8971619999997
  0
LINE
  5
EF7C87586
330
EF7C85532
100
AcDbEntity
  8
JISSEN
100
AcDbLine
 10
272.0000829494654
 20
166.6354933602098
 30
0.0
 11
271.0000829494654
 21
166.6354933602098
 31
0.0
  0
LINE
  5
EF7C87587
330
EF7C85532
100
AcDbEntity
  8
JISSEN
100
AcDbLine
 10
271.0000829494654
 20
165.5317153602099
 30
0.0
 11
272.0000829494654
 21
165.5317153602099
 31
0.0
  0
ARC
  5
EF7C87588
330
EF7C85532
100
AcDbEntity
  8
JISSEN
100
AcDbCircle
 10
270.0000829494654
 20
167.1354933602098
 30
0.0
 40
0.5
100
AcDbArc
 50
180.0
 51
270.0
  0
ARC
  5
EF7C87589
330
EF7C85532
100
AcDbEntity
  8
JISSEN
100
AcDbCircle
 10
270.0000829494654
 20
166.0317153602099
 30
0.0
 40
0.5
100
AcDbArc
 50
180.0
 51
270.0
  0
LINE
  5
EF7C8758A
330
EF7C85532
100
AcDbEntity
  8
JISSEN
100
AcDbLine
 10
271.0000829494654
 20
165.5317153602099
 30
0.0
 11
270.0000829494654
 21
165.5317153602099
 31
0.0
  0
LINE
  5
EF7C8758B
330
EF7C85532
100
AcDbEntity
  8
JISSEN
100
AcDbLine
 10
270.0000829494654
 20
166.6354933602098
 30
0.0
 11
271.0000829494654
 21
166.6354933602098
 31
0.0
  0
ARC
  5
EF7C8758C
330
EF7C85532
100
AcDbEntity
  8
JISSEN
100
AcDbCircle
 10
272.0000829494654
 20
166.0317153602099
 30
0.0
 40
0.5
100
AcDbArc
 50
270.0
 51
0.000000000000007
  0
ARC
  5
EF7C8758D
330
EF7C85532
100
AcDbEntity
  8
JISSEN
100
AcDbCircle
 10
272.0000829494654
 20
167.1354933602098
 30
0.0
 40
0.5
100
AcDbArc
 50
270.0
 51
0.000000000000007
  0
ARC
  5
EF7C8758E
330
EF7C85532
100
AcDbEntity
  8
JISSEN
100
AcDbCircle
 10
277.4421449494652
 20
166.7405223602099
 30
0.0
 40
0.3
100
AcDbArc
 50
323.1028380000003
 51
357.8595680000001
  0
ARC
  5
EF7C8758F
330
EF7C85532
100
AcDbEntity
  8
JISSEN
100
AcDbCircle
 10
277.3100129494654
 20
165.7317153602098
 30
0.0
 40
0.2
100
AcDbArc
 50
143.1028380000001
 51
270.0
  0
LINE
  5
EF7C87590
330
EF7C85532
100
AcDbEntity
  8
JISSEN
100
AcDbLine
 10
277.1500699494653
 20
165.8517923602099
 30
0.0
 11
277.6820599494652
 21
166.5604083602098
 31
0.0
  0
LINE
  5
EF7C87596
330
EF7C85532
100
AcDbEntity
  8
JISSEN
100
AcDbLine
 10
291.8649899494652
 20
165.6493313602099
 30
0.0
 11
293.3768489494653
 21
166.3487223602098
 31
0.0
  0
LINE
  5
EF7C87597
330
EF7C85532
100
AcDbEntity
  8
JISSEN
100
AcDbLine
 10
293.8464099494654
 20
166.3249523602098
 30
0.0
 11
292.3795119494652
 21
165.6463603602099
 31
0.0
  0
LINE
  5
EF7C87598
330
EF7C85532
100
AcDbEntity
  8
JISSEN
100
AcDbLine
 10
285.5292859660671
 20
161.9927120378704
 30
0.0
 11
294.0546885753048
 21
166.0012079795809
 31
0.0
1001
ACAD
1000
ASC_BOUNDS
1002
{
1070
    19
1002
}
  0
LINE
  5
EF7C8759E
330
EF7C85532
100
AcDbEntity
  8
JISSEN
100
AcDbLine
 10
286.3145339494652
 20
166.6354933602098
 30
0.0
 11
285.1143819494652
 21
166.6354933602098
 31
0.0
  0
LINE
  5
EF7C8759F
330
EF7C85532
100
AcDbEntity
  8
JISSEN
100
AcDbLine
 10
285.9957359494653
 20
165.5961633602099
 30
0.0
 11
286.9988019494653
 21
166.3070853602099
 31
0.0
  0
ARC
  5
EF7C875A0
330
EF7C85532
100
AcDbEntity
  8
JISSEN
100
AcDbCircle
 10
279.8564919494654
 20
166.9354933602098
 30
0.0
 40
0.3
100
AcDbArc
 50
270.0
 51
358.0056319999998
  0
LINE
  5
EF7C875A1
330
EF7C85532
100
AcDbEntity
  8
JISSEN
100
AcDbLine
 10
280.3696079494653
 20
166.3852093602099
 30
0.0
 11
279.8188569494652
 21
165.6516013602098
 31
0.0
  0
ARC
  5
EF7C875A2
330
EF7C85532
100
AcDbEntity
  8
JISSEN
100
AcDbCircle
 10
279.5789419494652
 20
165.8317153602099
 30
0.0
 40
0.3
100
AcDbArc
 50
270.0
 51
323.1028380000003
  0
ARC
  5
EF7C875A3
330
EF7C85532
100
AcDbEntity
  8
JISSEN
100
AcDbCircle
 10
279.5698939494652
 20
166.9855903602099
 30
0.0
 40
1.0
100
AcDbArc
 50
323.1028380000003
 51
357.8595680000001
  0
ARC
  5
EF7C875A4
330
EF7C85532
100
AcDbEntity
  8
JISSEN
100
AcDbCircle
 10
284.0777179494653
 20
165.6817153602099
 30
0.0
 40
0.15
100
AcDbArc
 50
125.3270679999999
 51
270.0
  0
ARC
  5
EF7C875A5
330
EF7C85532
100
AcDbEntity
  8
JISSEN
100
AcDbCircle
 10
284.7782799494653
 20
166.8523703602098
 30
0.0
 40
0.4
100
AcDbArc
 50
305.327068
 51
355.9820309999997
  0
ARC
  5
EF7C875A6
330
EF7C85532
100
AcDbEntity
  8
JISSEN
100
AcDbCircle
 10
285.7933509494653
 20
165.8817153602099
 30
0.0
 40
0.35
100
AcDbArc
 50
270.0
 51
305.327068
  0
LINE
  5
EF7C875A7
330
EF7C85532
100
AcDbEntity
  8
JISSEN
100
AcDbLine
 10
285.0095769494652
 20
166.5260243602099
 30
0.0
 11
283.9909819494653
 21
165.8040953602099
 31
0.0
  0
LINE
  5
EF7C875A8
330
EF7C85532
100
AcDbEntity
  8
JISSEN
100
AcDbLine
 10
284.0777179494653
 20
165.5317153602099
 30
0.0
 11
285.7933509494653
 21
165.5317153602099
 31
0.0
  0
ARC
  5
EF7C875A9
330
EF7C85532
100
AcDbEntity
  8
JISSEN
100
AcDbCircle
 10
286.3049099494653
 20
167.2861223602098
 30
0.0
 40
1.199999999999999
100
AcDbArc
 50
305.327068
 51
355.9820309999997
  0
ARC
  5
EF7C875AA
330
EF7C85532
100
AcDbEntity
  8
JISSEN
100
AcDbCircle
 10
289.1879149494652
 20
165.6317153602099
 30
0.0
 40
0.1
100
AcDbArc
 50
117.7467379999998
 51
270.0
  0
ARC
  5
EF7C875AB
330
EF7C85532
100
AcDbEntity
  8
JISSEN
100
AcDbCircle
 10
290.1842339494653
 20
165.9317153602098
 30
0.0
 40
0.4
100
AcDbArc
 50
270.0
 51
297.7467379999998
  0
ARC
  5
EF7C875AC
330
EF7C85532
100
AcDbEntity
  8
JISSEN
100
AcDbCircle
 10
290.4079509494653
 20
166.9514743602099
 30
0.0
 40
0.5
100
AcDbArc
 50
297.7467379999998
 51
354.7984409999998
  0
LINE
  5
EF7C875AD
330
EF7C85532
100
AcDbEntity
  8
JISSEN
100
AcDbLine
 10
290.1842339494653
 20
165.5317153602099
 30
0.0
 11
289.1879149494652
 21
165.5317153602099
 31
0.0
  0
LINE
  5
EF7C875AE
330
EF7C85532
100
AcDbEntity
  8
JISSEN
100
AcDbLine
 10
289.1413579494653
 20
165.7202173602099
 30
0.0
 11
290.6407329494653
 21
166.5089673602099
 31
0.0
  0
ARC
  5
EF7C875AF
330
EF7C85532
100
AcDbEntity
  8
JISSEN
100
AcDbCircle
 10
286.3145339494652
 20
167.0354933602099
 30
0.0
 40
0.4
100
AcDbArc
 50
270.0
 51
356.2556379999997
  0
ARC
  5
EF7C875B0
330
EF7C85532
100
AcDbEntity
  8
JISSEN
100
AcDbCircle
 10
291.1533259494654
 20
167.4584423602099
 30
0.0
 40
1.3
100
AcDbArc
 50
297.7467379999998
 51
354.5938149999996
  0
ARC
  5
EF7C875B1
330
EF7C85532
100
AcDbEntity
  8
JISSEN
100
AcDbCircle
 10
291.9596569494654
 20
166.5539523602099
 30
0.0
 40
1.0
100
AcDbArc
 50
270.0
 51
294.825405
  0
LINE
  5
EF7C875B2
330
EF7C85532
100
AcDbEntity
  8
JISSEN
100
AcDbLine
 10
291.9596569494654
 20
165.5539523602099
 30
0.0
 11
291.8859819494653
 21
165.5539523602099
 31
0.0
  0
ARC
  5
EF7C875B3
330
EF7C85532
100
AcDbEntity
  8
JISSEN
100
AcDbCircle
 10
291.8859819494653
 20
165.6039523602099
 30
0.0
 40
0.05
100
AcDbArc
 50
114.825405
 51
270.0
  0
LINE
  5
EF7C875B4
330
EF7C85532
100
AcDbEntity
  8
JISSEN
100
AcDbLine
 10
291.7585589494652
 20
166.3079233602099
 30
0.0
 11
290.3704599494652
 21
165.5777103602098
 31
0.0
  0
ARC
  5
EF7C875B5
330
EF7C85532
100
AcDbEntity
  8
JISSEN
100
AcDbCircle
 10
290.8820019494653
 20
167.1354933602098
 30
0.0
 40
0.5
100
AcDbArc
 50
260.650445
 51
354.9610729999998
  0
ARC
  5
EF7C875B6
330
EF7C85532
100
AcDbEntity
  8
JISSEN
100
AcDbCircle
 10
293.2586139494653
 20
167.5955803602099
 30
0.0
 40
1.399999999999999
100
AcDbArc
 50
294.825405
 51
353.8576429999998
  0
ARC
  5
EF7C875B7
330
EF7C85532
100
AcDbEntity
  8
JISSEN
100
AcDbCircle
 10
292.8310379494652
 20
167.5285913602098
 30
0.0
 40
1.3
100
AcDbArc
 50
294.825405
 51
353.8576429999998
  0
ARC
  5
EF7C875B8
330
EF7C85532
100
AcDbEntity
  8
JISSEN
100
AcDbCircle
 10
293.4542036199281
 20
167.3757689343464
 30
0.0
 40
1.5
100
AcDbArc
 50
290.0
 51
355.0000000000001
  0
LINE
  5
EF7C875B9
330
EF7C85532
100
AcDbEntity
  8
JISSEN
100
AcDbLine
 10
270.0000829494654
 20
182.8285943602099
 30
0.0
 11
244.5000829494654
 21
182.8285943602099
 31
0.0
  0
LINE
  5
EF7C875BA
330
EF7C85532
100
AcDbEntity
  8
JISSEN
100
AcDbLine
 10
244.5000829494654
 20
175.8285943602099
 30
0.0
 11
270.0000829494654
 21
175.8285943602099
 31
0.0
  0
LINE
  5
EF7C875BB
330
EF7C85532
100
AcDbEntity
  8
JISSEN
100
AcDbLine
 10
245.5000829494653
 20
174.8285943602099
 30
0.0
 11
271.0000829494654
 21
174.8285943602099
 31
0.0
  0
LINE
  5
EF7C875BC
330
EF7C85532
100
AcDbEntity
  8
JISSEN
100
AcDbLine
 10
244.6500829494654
 20
183.3285943602099
 30
0.0
 11
271.0000829494654
 21
183.3285943602099
 31
0.0
  0
LINE
  5
EF7C875C1
330
EF7C85532
100
AcDbEntity
  8
JISSEN
100
AcDbLine
 10
244.5000829494654
 20
183.1785943602099
 30
0.0
 11
244.5000829494654
 21
175.8285943602099
 31
0.0
  0
LINE
  5
EF7C875C2
330
EF7C85532
100
AcDbEntity
  8
JISSEN
100
AcDbLine
 10
244.5000829494654
 20
175.8285943602099
 30
0.0
 11
245.5000829494653
 21
174.8285943602099
 31
0.0
  0
LINE
  5
EF7C875C3
330
EF7C85532
100
AcDbEntity
  8
JISSEN
100
AcDbLine
 10
246.4000829494654
 20
174.8285943602099
 30
0.0
 11
246.5313159494654
 21
173.3285943602099
 31
0.0
  0
ARC
  5
EF7C875C4
330
EF7C85532
100
AcDbEntity
  8
JISSEN
100
AcDbCircle
 10
247.1594619494652
 20
172.9508303602099
 30
0.0
 40
0.4
100
AcDbArc
 50
91.35885499999986
 51
186.1423570000001
  0
ARC
  5
EF7C875C5
330
EF7C85532
100
AcDbEntity
  8
JISSEN
100
AcDbCircle
 10
247.1452349494652
 20
173.2508303602099
 30
0.0
 40
0.1
100
AcDbArc
 50
6.142357000000093
 51
87.28209800000021
  0
ARC
  5
EF7C875C6
330
EF7C85532
100
AcDbEntity
  8
JISSEN
100
AcDbCircle
 10
250.2885689494652
 20
173.1285943602099
 30
0.0
 40
0.2
100
AcDbArc
 50
90.0
 51
185.0389269999999
  0
ARC
  5
EF7C875C7
330
EF7C85532
100
AcDbEntity
  8
JISSEN
100
AcDbCircle
 10
249.4251419494653
 20
172.9285943602099
 30
0.0
 40
0.4
100
AcDbArc
 50
90.0
 51
185.4061850000002
  0
LINE
  5
EF7C875C8
330
EF7C85532
100
AcDbEntity
  8
JISSEN
100
AcDbLine
 10
250.3269889494653
 20
173.3285943602099
 30
0.0
 11
249.4251419494653
 21
173.3285943602099
 31
0.0
  0
ARC
  5
EF7C875C9
330
EF7C85532
100
AcDbEntity
  8
JISSEN
100
AcDbCircle
 10
250.3269889494653
 20
173.1285943602099
 30
0.0
 40
0.2
100
AcDbArc
 50
5.201559000000191
 51
90.0
  0
LINE
  5
EF7C875CA
330
EF7C85532
100
AcDbEntity
  8
JISSEN
100
AcDbLine
 10
245.5000829494653
 20
174.8285943602099
 30
0.0
 11
246.4000829494654
 21
174.8285943602099
 31
0.0
  0
LINE
  5
EF7C875CB
330
EF7C85532
100
AcDbEntity
  8
JISSEN
100
AcDbLine
 10
244.5000829494654
 20
183.1785943602099
 30
0.0
 11
244.6500829494654
 21
183.3285943602099
 31
0.0
  0
LINE
  5
EF7C875CC
330
EF7C85532
100
AcDbEntity
  8
SAISEN
100
AcDbLine
 10
280.4593159494653
 20
185.5693613602099
 30
0.0
 11
279.966816102732
 21
201.3285943602135
 31
0.0
  0
LINE
  5
EF7C875CD
330
EF7C85532
100
AcDbEntity
  8
JISSEN
100
AcDbLine
 10
281.1652276708301
 20
200.1634487155405
 30
0.0
 11
281.6588019494652
 21
184.3698753602099
 31
0.0
  0
LINE
  5
EF7C875CE
330
EF7C85532
100
AcDbEntity
  8
JISSEN
100
AcDbLine
 10
260.8349382281005
 20
200.1634487155405
 30
0.0
 11
260.3413639494652
 21
184.3698753602099
 31
0.0
  0
LINE
  5
EF7C875CF
330
EF7C85532
100
AcDbEntity
  8
SAISEN
100
AcDbLine
 10
261.5408499494654
 20
185.5693613602099
 30
0.0
 11
262.0333497961985
 21
201.3285943602135
 31
0.0
  0
LINE
  5
EF7C875D0
330
EF7C85532
100
AcDbEntity
  8
JISSEN
100
AcDbLine
 10
271.0000829494654
 20
185.5693613602099
 30
0.0
 11
281.6213159494652
 21
185.5693613602099
 31
0.0
  0
LINE
  5
EF7C875D1
330
EF7C85532
100
AcDbEntity
  8
JISSEN
100
AcDbLine
 10
278.1812489494654
 20
173.3285943602099
 30
0.0
 11
280.4962399494653
 21
173.3285943602099
 31
0.0
  0
LINE
  5
EF7C875D2
102
{ACAD_REACTORS
330
EF7C87630
102
}
330
EF7C85532
100
AcDbEntity
  8
JISSEN
100
AcDbLine
 10
297.3500829494652
 20
183.3285943602099
 30
0.0
 11
271.0000829494654
 21
183.3285943602099
 31
0.0
  0
LINE
  5
EF7C875D3
330
EF7C85532
100
AcDbEntity
  8
JISSEN
100
AcDbLine
 10
296.5000829494653
 20
174.8285943602099
 30
0.0
 11
271.0000829494654
 21
174.8285943602099
 31
0.0
  0
LINE
  5
EF7C875D4
330
EF7C85532
100
AcDbEntity
  8
JISSEN
100
AcDbLine
 10
297.5000829494653
 20
175.8285943602099
 30
0.0
 11
272.0000829494654
 21
175.8285943602099
 31
0.0
  0
LINE
  5
EF7C875D5
330
EF7C85532
100
AcDbEntity
  8
JISSEN
100
AcDbLine
 10
272.0000829494654
 20
182.8285943602099
 30
0.0
 11
297.5000829494653
 21
182.8285943602099
 31
0.0
  0
LINE
  5
EF7C875D6
330
EF7C85532
100
AcDbEntity
  8
JISSEN
100
AcDbLine
 10
272.0000829494654
 20
182.8285943602099
 30
0.0
 11
272.0000829494654
 21
175.8285943602099
 31
0.0
  0
LINE
  5
EF7C875D7
330
EF7C85532
100
AcDbEntity
  8
JISSEN
100
AcDbLine
 10
270.0000829494654
 20
182.8285943602099
 30
0.0
 11
270.0000829494654
 21
175.8285943602099
 31
0.0
  0
LINE
  5
EF7C875D8
330
EF7C85532
100
AcDbEntity
  8
JISSEN
100
AcDbLine
 10
255.1932019494654
 20
173.3285943602099
 30
0.0
 11
256.1795529494653
 21
173.3285943602099
 31
0.0
  0
LINE
  5
EF7C875D9
330
EF7C85532
100
AcDbEntity
  8
JISSEN
100
AcDbLine
 10
254.4433109494653
 20
173.3285943602099
 30
0.0
 11
255.1932019494654
 21
173.3285943602099
 31
0.0
  0
ARC
  5
EF7C875DA
330
EF7C85532
100
AcDbEntity
  8
JISSEN
100
AcDbCircle
 10
254.4433109494653
 20
172.9785943602099
 30
0.0
 40
0.35
100
AcDbArc
 50
90.0
 51
184.0179690000003
  0
ARC
  5
EF7C875DB
330
EF7C85532
100
AcDbEntity
  8
JISSEN
100
AcDbCircle
 10
255.1932019494654
 20
173.0285943602099
 30
0.0
 40
0.3
100
AcDbArc
 50
90.0
 51
183.7443620000003
  0
ARC
  5
EF7C875DC
330
EF7C85532
100
AcDbEntity
  8
JISSEN
100
AcDbCircle
 10
256.1795529494653
 20
173.1285943602099
 30
0.0
 40
0.2
100
AcDbArc
 50
4.017969000000318
 51
90.0
  0
LINE
  5
EF7C875DD
330
EF7C85532
100
AcDbEntity
  8
JISSEN
100
AcDbLine
 10
263.8189169494653
 20
173.3285943602099
 30
0.0
 11
261.5039259494654
 21
173.3285943602099
 31
0.0
  0
ARC
  5
EF7C875DE
330
EF7C85532
100
AcDbEntity
  8
JISSEN
100
AcDbCircle
 10
261.5039259494654
 20
173.0285943602099
 30
0.0
 40
0.3
100
AcDbArc
 50
90.0
 51
182.1404319999997
  0
ARC
  5
EF7C875DF
330
EF7C85532
100
AcDbEntity
  8
JISSEN
100
AcDbCircle
 10
261.8797259494654
 20
173.0785943602099
 30
0.0
 40
0.25
100
AcDbArc
 50
90.0
 51
181.994368
  0
ARC
  5
EF7C875E0
330
EF7C85532
100
AcDbEntity
  8
JISSEN
100
AcDbCircle
 10
263.8189169494653
 20
173.1285943602099
 30
0.0
 40
0.2
100
AcDbArc
 50
2.140431999999735
 51
90.0
  0
ARC
  5
EF7C875E1
330
EF7C85532
100
AcDbEntity
  8
JISSEN
100
AcDbCircle
 10
271.0000829494654
 20
175.8285943602099
 30
0.0
 40
1.0
100
AcDbArc
 50
270.0
 51
0.000000000000007
  0
ARC
  5
EF7C875E2
330
EF7C85532
100
AcDbEntity
  8
JISSEN
100
AcDbCircle
 10
271.0000829494654
 20
175.8285943602099
 30
0.0
 40
1.0
100
AcDbArc
 50
180.0
 51
270.0
  0
LINE
  5
EF7C875E3
330
EF7C85532
100
AcDbEntity
  8
JISSEN
100
AcDbLine
 10
271.0000829494654
 20
173.3285943602099
 30
0.0
 11
272.0000829494654
 21
173.3285943602099
 31
0.0
  0
ARC
  5
EF7C875E4
330
EF7C85532
100
AcDbEntity
  8
JISSEN
100
AcDbCircle
 10
270.0000829494654
 20
172.8285943602099
 30
0.0
 40
0.5
100
AcDbArc
 50
90.0
 51
180.0
  0
LINE
  5
EF7C875E5
330
EF7C85532
100
AcDbEntity
  8
JISSEN
100
AcDbLine
 10
271.0000829494654
 20
173.3285943602099
 30
0.0
 11
270.0000829494654
 21
173.3285943602099
 31
0.0
  0
ARC
  5
EF7C875E6
330
EF7C85532
100
AcDbEntity
  8
JISSEN
100
AcDbCircle
 10
272.0000829494654
 20
172.8285943602099
 30
0.0
 40
0.5
100
AcDbArc
 50
0.000000000000007
 51
90.0
  0
ARC
  5
EF7C875E7
330
EF7C85532
100
AcDbEntity
  8
JISSEN
100
AcDbCircle
 10
278.1812489494654
 20
173.1285943602099
 30
0.0
 40
0.2
100
AcDbArc
 50
90.0
 51
177.8595680000002
  0
LINE
  5
EF7C875E8
330
EF7C85532
100
AcDbEntity
  8
JISSEN
100
AcDbLine
 10
271.0000829494654
 20
185.5693613602099
 30
0.0
 11
260.3788499494654
 21
185.5693613602099
 31
0.0
  0
LINE
  5
EF7C875E9
330
EF7C85532
100
AcDbEntity
  8
SAISEN
100
AcDbLine
 10
260.3413639494652
 20
184.3698753602099
 30
0.0
 11
261.5408499494654
 21
185.5693613602099
 31
0.0
  0
LINE
  5
EF7C875EA
330
EF7C85532
100
AcDbEntity
  8
JISSEN
100
AcDbLine
 10
259.3000829494653
 20
183.3285943602099
 30
0.0
 11
260.3413639494652
 21
184.3698753602099
 31
0.0
  0
ARC
  5
EF7C875EB
330
EF7C85532
100
AcDbEntity
  8
JISSEN
100
AcDbCircle
 10
271.0000829494654
 20
182.0785943602099
 30
0.0
 40
1.25
100
AcDbArc
 50
36.86989799999964
 51
90.0
  0
ARC
  5
EF7C875EC
330
EF7C85532
100
AcDbEntity
  8
JISSEN
100
AcDbCircle
 10
271.0000829494654
 20
182.0785943602099
 30
0.0
 40
1.25
100
AcDbArc
 50
90.0
 51
143.1301020000003
  0
LINE
  5
EF7C875ED
330
EF7C85532
100
AcDbEntity
  8
JISSEN
100
AcDbLine
 10
297.5000829494653
 20
183.1785943602099
 30
0.0
 11
297.5000829494653
 21
175.8285943602099
 31
0.0
  0
LINE
  5
EF7C875EE
330
EF7C85532
100
AcDbEntity
  8
JISSEN
100
AcDbLine
 10
286.8069639494652
 20
173.3285943602099
 30
0.0
 11
285.8206129494652
 21
173.3285943602099
 31
0.0
  0
ARC
  5
EF7C875EF
330
EF7C85532
100
AcDbEntity
  8
JISSEN
100
AcDbCircle
 10
280.1204399494654
 20
173.0785943602099
 30
0.0
 40
0.25
100
AcDbArc
 50
358.0056319999998
 51
90.0
  0
ARC
  5
EF7C875F0
330
EF7C85532
100
AcDbEntity
  8
JISSEN
100
AcDbCircle
 10
280.4962399494653
 20
173.0285943602099
 30
0.0
 40
0.3
100
AcDbArc
 50
357.8595680000001
 51
90.0
  0
ARC
  5
EF7C875F1
330
EF7C85532
100
AcDbEntity
  8
JISSEN
100
AcDbCircle
 10
285.8206129494652
 20
173.1285943602099
 30
0.0
 40
0.2
100
AcDbArc
 50
90.0
 51
175.9820309999995
  0
ARC
  5
EF7C875F2
330
EF7C85532
100
AcDbEntity
  8
JISSEN
100
AcDbCircle
 10
286.8069639494652
 20
173.0285943602099
 30
0.0
 40
0.3
100
AcDbArc
 50
356.2556379999997
 51
90.0
  0
ARC
  5
EF7C875F3
330
EF7C85532
100
AcDbEntity
  8
JISSEN
100
AcDbCircle
 10
287.5568549494652
 20
172.9785943602099
 30
0.0
 40
0.35
100
AcDbArc
 50
355.9820309999997
 51
90.0
  0
LINE
  5
EF7C875F4
330
EF7C85532
100
AcDbEntity
  8
JISSEN
100
AcDbLine
 10
287.5568549494652
 20
173.3285943602099
 30
0.0
 11
286.8069639494652
 21
173.3285943602099
 31
0.0
  0
ARC
  5
EF7C875F5
330
EF7C85532
100
AcDbEntity
  8
JISSEN
100
AcDbCircle
 10
291.6731769494653
 20
173.1285943602099
 30
0.0
 40
0.2
100
AcDbArc
 50
90.0
 51
174.7984409999996
  0
LINE
  5
EF7C875F6
330
EF7C85532
100
AcDbEntity
  8
JISSEN
100
AcDbLine
 10
291.6731769494653
 20
173.3285943602099
 30
0.0
 11
292.5750239494652
 21
173.3285943602099
 31
0.0
  0
ARC
  5
EF7C875F7
330
EF7C85532
100
AcDbEntity
  8
JISSEN
100
AcDbCircle
 10
292.5750239494652
 20
172.9285943602099
 30
0.0
 40
0.4
100
AcDbArc
 50
354.5938149999996
 51
90.0
  0
ARC
  5
EF7C875F8
330
EF7C85532
100
AcDbEntity
  8
JISSEN
100
AcDbCircle
 10
291.7115969494652
 20
173.1285943602099
 30
0.0
 40
0.2
100
AcDbArc
 50
354.9610729999998
 51
90.0
  0
LINE
  5
EF7C875F9
330
EF7C85532
100
AcDbEntity
  8
JISSEN
100
AcDbLine
 10
297.5000829494653
 20
175.8285943602099
 30
0.0
 11
296.5000829494653
 21
174.8285943602099
 31
0.0
  0
LINE
  5
EF7C875FA
330
EF7C85532
100
AcDbEntity
  8
JISSEN
100
AcDbLine
 10
296.5000829494653
 20
174.8285943602099
 30
0.0
 11
295.6000829494652
 21
174.8285943602099
 31
0.0
  0
ARC
  5
EF7C875FB
330
EF7C85532
100
AcDbEntity
  8
JISSEN
100
AcDbCircle
 10
294.8549309494653
 20
173.2508303602099
 30
0.0
 40
0.1
100
AcDbArc
 50
92.7179019999998
 51
173.8576429999999
  0
ARC
  5
EF7C875FC
330
EF7C85532
100
AcDbEntity
  8
JISSEN
100
AcDbCircle
 10
294.8407039494653
 20
172.9508303602099
 30
0.0
 40
0.4
100
AcDbArc
 50
353.8576429999998
 51
88.64114500000017
  0
LINE
  5
EF7C875FD
330
EF7C85532
100
AcDbEntity
  8
JISSEN
100
AcDbLine
 10
295.6000829494652
 20
174.8285943602099
 30
0.0
 11
295.4688499494654
 21
173.3285943602099
 31
0.0
  0
LINE
  5
EF7C875FE
330
EF7C85532
100
AcDbEntity
  8
JISSEN
100
AcDbLine
 10
282.7000829494652
 20
183.3285943602099
 30
0.0
 11
281.6588019494652
 21
184.3698753602099
 31
0.0
  0
LINE
  5
EF7C875FF
330
EF7C85532
100
AcDbEntity
  8
SAISEN
100
AcDbLine
 10
281.6588019494652
 20
184.3698753602099
 30
0.0
 11
280.4593159494653
 21
185.5693613602099
 31
0.0
  0
LINE
  5
EF7C87600
330
EF7C85532
100
AcDbEntity
  8
JISSEN
100
AcDbLine
 10
297.5000829494653
 20
183.1785943602099
 30
0.0
 11
297.3500829494652
 21
183.3285943602099
 31
0.0
  0
LINE
  5
EF7C87601
330
EF7C85532
100
AcDbEntity
  8
JISSEN
100
AcDbLine
 10
281.2620069494652
 20
200.0666693602136
 30
0.0
 11
271.0000829494654
 21
200.0666693602136
 31
0.0
  0
LINE
  5
EF7C87602
330
EF7C85532
100
AcDbEntity
  8
JISSEN
100
AcDbLine
 10
280.0000829494654
 20
201.3285943602135
 30
0.0
 11
271.0000829494654
 21
201.3285943602135
 31
0.0
  0
LINE
  5
EF7C87603
330
EF7C85532
100
AcDbEntity
  8
JISSEN
100
AcDbLine
 10
262.0000829494654
 20
201.3285943602135
 30
0.0
 11
271.0000829494654
 21
201.3285943602135
 31
0.0
  0
LINE
  5
EF7C87604
330
EF7C85532
100
AcDbEntity
  8
JISSEN
100
AcDbLine
 10
260.7381589494654
 20
200.0666693602136
 30
0.0
 11
271.0000829494654
 21
200.0666693602136
 31
0.0
  0
LINE
  5
EF7C87605
330
EF7C85532
100
AcDbEntity
  8
JISSEN
100
AcDbLine
 10
260.7381589494654
 20
200.0666693602136
 30
0.0
 11
262.0000829494654
 21
201.3285943602135
 31
0.0
  0
LINE
  5
EF7C87606
330
EF7C85532
100
AcDbEntity
  8
JISSEN
100
AcDbLine
 10
281.2620069494652
 20
200.0666693602136
 30
0.0
 11
280.0000829494654
 21
201.3285943602135
 31
0.0
  0
LINE
  5
EF7C87609
102
{ACAD_REACTORS
330
EF7C87630
102
}
330
EF7C85532
100
AcDbEntity
  8
JISSEN
100
AcDbLine
 10
288.5000829494653
 20
188.3285943602099
 30
0.0
 11
288.5000829494653
 21
183.3285943602099
 31
0.0
  0
LINE
  5
EF7C8760A
102
{ACAD_REACTORS
330
EF7C87630
102
}
330
EF7C85532
100
AcDbEntity
  8
JISSEN
100
AcDbLine
 10
253.5000829494652
 20
188.3285943602099
 30
0.0
 11
253.5000829494652
 21
183.3285943602099
 31
0.0
  0
HATCH
  5
EF7C87630
330
EF7C85532
100
AcDbEntity
  8
HATCH
100
AcDbHatch
 10
0.0
 20
0.0
 30
0.0
210
0.0
220
0.0
230
1.0
  2
_U
 70
     0
 71
     1
 91
        2
 92
        7
 72
     0
 73
     1
 93
       13
 10
288.5000829494653
 20
188.3285943602098
 10
288.5000829494653
 20
183.3285943602099
 10
297.3500829494652
 20
183.3285943602099
 10
336.274146207365
 20
183.3285943602099
 10
336.7144843128393
 20
184.3928254487412
 10
337.4276416997141
 20
185.184728406103
 10
338.1226405087455
 20
185.6707164885689
 10
338.5253565528577
 20
185.9455449222085
 10
338.8915798418373
 20
186.2357959948588
 10
339.1994673284965
 20
186.5739130185258
 10
339.4271759656445
 20
186.9923393052135
 10
339.5690813223246
 20
187.5089572819772
 10
339.7336685005748
 20
188.3285943602099
 97
        5
330
EF7C85D63
330
EF7C85D62
330
EF7C87609
330
EF7C875D2
330
EF7C85D60
 92
        7
 72
     0
 73
     1
 93
       12
 10
202.2663305223239
 20
188.3285943602099
 10
202.4309177005739
 20
187.508957281978
 10
202.5728230572541
 20
186.9923393052133
 10
202.8005316944021
 20
186.5739130185259
 10
203.108419181061
 20
186.2357959948589
 10
203.4746424700411
 20
185.945544922209
 10
203.8773585141477
 20
185.67071648857
 10
204.5723573231809
 20
185.1847284061071
 10
205.2855147100593
 20
184.3928254487414
 10
205.7258528155336
 20
183.3285943602099
 10
253.5000829494652
 20
183.3285943602099
 10
253.5000829494652
 20
188.3285943602099
 97
        4
330
EF7C854DA
330
1E284
330
1D2BA
330
EF7C8760A
 75
     0
 76
     0
 52
45.0
 41
2.0
 77
     0
 78
     1
 53
45.0
 43
180.9999995114493
 44
3.000000199657391
 45
-1.414213562373094
 46
1.414213562373094
 79
     0
 47
0.2346837798524018
 98
        2
 10
298.2263870012938
 20
186.1842261958654
 10
247.2585817076379
 20
186.8882772496366
  0
TEXT
  5
EF7C87631
330
EF7C85532
100
AcDbEntity
  8
SUNPOU
100
AcDbText
 10
331.6873223912913
 20
149.3494240983425
 30
0.0
 40
3.0
  1
MFJ   取付状態
  7
K
100
AcDbText
  0
TEXT
  5
EF7C87634
330
EF7C85532
100
AcDbEntity
  8
SUNPOU
100
AcDbText
 10
331.6873223912913
 20
144.3494240983425
 30
0.0
 40
3.0
  1
尺度　1/1
  7
K
100
AcDbText
  0
HATCH
  5
EF7C87637
330
EF7C85532
100
AcDbEntity
  8
HATCH
100
AcDbHatch
 10
0.0
 20
0.0
 30
0.0
210
0.0
220
0.0
230
1.0
  2
_U
 70
     0
 71
     1
 91
        2
 92
        7
 72
     0
 73
     1
 93
       15
 10
288.5000829494653
 20
58.82859436020994
 10
288.5000829494653
 20
53.82859436020996
 10
297.3500829494652
 20
53.82859436020996
 10
336.274146207365
 20
53.82859436020996
 10
336.583709724844
 20
54.57676290406478
 10
336.9139663175585
 20
55.11433390169307
 10
337.2951023439085
 20
55.53755429031753
 10
337.7052747567026
 20
55.87886738194239
 10
338.1226405087485
 20
56.17071648856998
 10
338.525356552858
 20
56.44554492220887
 10
338.8915798418374
 20
56.73579599485896
 10
339.1994673284965
 20
57.07391301852588
 10
339.4271759656445
 20
57.49233930521336
 10
339.5690813223246
 20
58.00895728197691
 10
339.7336685005748
 20
58.82859436020996
 97
        5
330
EF7C87738
330
EF7C87638
330
EF7C87729
330
EF7C876EA
330
EF7C87639
 92
        7
 72
     0
 73
     1
 93
       14
 10
202.2663305223239
 20
58.82859436020997
 10
202.4309177005739
 20
58.00895728197787
 10
202.572823057254
 20
57.49233930521373
 10
202.800531694402
 20
57.07391301852576
 10
203.1084191810613
 20
56.73579599485888
 10
203.4746424700407
 20
56.44554492220913
 10
203.8773585141504
 20
56.17071648856996
 10
204.2947242661964
 20
55.87886738194212
 10
204.7048966789902
 20
55.53755429031767
 10
205.0860327053398
 20
55.1143339016931
 10
205.4162892980544
 20
54.57676290406485
 10
205.7258528155336
 20
53.82859436020996
 10
253.5000829494653
 20
53.82859436020996
 10
253.5000829494653
 20
58.82859436021002
 97
        4
330
EF7C8763B
330
EF7C8763C
330
EF7C87641
330
EF7C87682
 75
     0
 76
     0
 52
45.0
 41
2.0
 77
     0
 78
     1
 53
45.0
 43
180.9999995114493
 44
-126.4999998003424
 45
-1.414213562373094
 46
1.414213562373094
 79
     0
 47
0.2346837798524018
 98
        2
 10
298.2263870012938
 20
56.68422619586559
 10
247.2585817076379
 20
57.38827724963667
  0
LINE
  5
EF7C87638
102
{ACAD_REACTORS
330
EF7C87637
102
}
330
EF7C85532
100
AcDbEntity
  8
JISSEN
100
AcDbLine
 10
339.7336685005748
 20
58.82859436020996
 30
0.0
 11
281.5350856864776
 21
58.82859436020993
 31
0.0
  0
LINE
  5
EF7C87639
102
{ACAD_REACTORS
330
EF7C87637
102
}
330
EF7C85532
100
AcDbEntity
  8
JISSEN
100
AcDbLine
 10
281.5975888664141
 20
53.82859436020999
 30
0.0
 11
336.275905467145
 21
53.82859436020996
 31
0.0
  0
LWPOLYLINE
  5
EF7C8763A
330
EF7C85532
100
AcDbEntity
  8
NITEN
100
AcDbPolyline
 90
        5
 70
     0
 43
0.0
 10
287.9999995114493
 20
101.9391432659372
 10
287.9999995114493
 20
122.7768609170832
 42
-0.5882352941176476
 10
270.9999995114493
 20
122.7768609170832
 42
0.5882352941176477
 10
253.9999995114493
 20
122.7768609170829
 10
253.9999995114493
 20
101.9391432659372
  0
LINE
  5
EF7C8763B
102
{ACAD_REACTORS
330
EF7C87637
102
}
330
EF7C85532
100
AcDbEntity
  8
JISSEN
100
AcDbLine
 10
202.2663305223239
 20
58.82859436020996
 30
0.0
 11
260.465080212453
 21
58.82859436021003
 31
0.0
  0
LWPOLYLINE
  5
EF7C8763C
102
{ACAD_REACTORS
330
EF7C87637
102
}
330
EF7C85532
100
AcDbEntity
  8
HATCH
100
AcDbPolyline
 90
       13
 70
     0
 43
0.0
 10
202.2663305223239
 20
58.82859436020996
 10
202.4309177005738
 20
58.0089572819779
 10
202.5728230572541
 20
57.49233930521361
 10
202.800531694402
 20
57.07391301852581
 10
203.1084191810613
 20
56.73579599485886
 10
203.4746424700407
 20
56.44554492220876
 10
203.8773585141496
 20
56.17071648857129
 10
204.2947242661964
 20
55.87886738194228
 10
204.7048966789901
 20
55.53755429031756
 10
205.0860327053399
 20
55.11433390169319
 10
205.4162892980543
 20
54.5767629040649
 10
205.6908693612571
 20
53.91314411677743
 10
205.7240935557538
 20
53.82859436020996
  0
LINE
  5
EF7C8763D
330
EF7C85532
100
AcDbEntity
  8
SAISEN
100
AcDbLine
 10
280.4593159494653
 20
56.06936136020997
 30
0.0
 11
279.966816102732
 21
71.8285943602136
 31
0.0
  0
LINE
  5
EF7C8763E
330
EF7C85532
100
AcDbEntity
  8
JISSEN
100
AcDbLine
 10
281.1652276708301
 20
70.66344871554051
 30
0.0
 11
281.6588019494652
 21
54.86987536020999
 31
0.0
  0
LINE
  5
EF7C8763F
330
EF7C85532
100
AcDbEntity
  8
JISSEN
100
AcDbLine
 10
260.8349382281005
 20
70.66344871554051
 30
0.0
 11
260.3413639494652
 21
54.86987536020999
 31
0.0
  0
LINE
  5
EF7C87640
330
EF7C85532
100
AcDbEntity
  8
SAISEN
100
AcDbLine
 10
261.5408499494654
 20
56.06936136020997
 30
0.0
 11
262.0333497961985
 21
71.8285943602136
 31
0.0
  0
LINE
  5
EF7C87641
102
{ACAD_REACTORS
330
EF7C87637
102
}
330
EF7C85532
100
AcDbEntity
  8
JISSEN
100
AcDbLine
 10
260.4025770325165
 20
53.82859436020996
 30
0.0
 11
205.7240935557536
 21
53.82859436020996
 31
0.0
  0
LINE
  5
EF7C87642
330
EF7C85532
100
AcDbEntity
  8
JISSEN
100
AcDbLine
 10
259.3000829494653
 20
53.82859436020996
 30
0.0
 11
260.3413639494652
 21
54.86987536020999
 31
0.0
  0
LINE
  5
EF7C87646
330
EF7C85532
100
AcDbEntity
  8
JISSEN
100
AcDbLine
 10
244.6500829494654
 20
53.82859436020996
 30
0.0
 11
271.0000829494654
 21
53.82859436020996
 31
0.0
  0
LINE
  5
EF7C87682
102
{ACAD_REACTORS
330
EF7C87637
102
}
330
EF7C85532
100
AcDbEntity
  8
JISSEN
100
AcDbLine
 10
253.5000829494652
 20
58.82859436020999
 30
0.0
 11
253.5000829494652
 21
53.82859436020996
 31
0.0
  0
LINE
  5
EF7C876EA
102
{ACAD_REACTORS
330
EF7C87637
102
}
330
EF7C85532
100
AcDbEntity
  8
JISSEN
100
AcDbLine
 10
297.3500829494652
 20
53.82859436020996
 30
0.0
 11
271.0000829494654
 21
53.82859436020996
 31
0.0
  0
LINE
  5
EF7C87711
330
EF7C85532
100
AcDbEntity
  8
JISSEN
100
AcDbLine
 10
271.0000829494654
 20
56.06936136020997
 30
0.0
 11
281.6213159494652
 21
56.06936136020997
 31
0.0
  0
LINE
  5
EF7C87714
330
EF7C85532
100
AcDbEntity
  8
JISSEN
100
AcDbLine
 10
271.0000829494654
 20
56.06936136020997
 30
0.0
 11
260.3788499494654
 21
56.06936136020997
 31
0.0
  0
LINE
  5
EF7C87715
330
EF7C85532
100
AcDbEntity
  8
SAISEN
100
AcDbLine
 10
260.3413639494652
 20
54.86987536020999
 30
0.0
 11
261.5408499494654
 21
56.06936136020997
 31
0.0
  0
LINE
  5
EF7C87716
330
EF7C85532
100
AcDbEntity
  8
SAISEN
100
AcDbLine
 10
281.6588019494652
 20
54.86987536020999
 30
0.0
 11
280.4593159494653
 21
56.06936136020997
 31
0.0
  0
LINE
  5
EF7C87717
330
EF7C85532
100
AcDbEntity
  8
JISSEN
100
AcDbLine
 10
282.7000829494652
 20
53.82859436020996
 30
0.0
 11
281.6588019494652
 21
54.86987536020999
 31
0.0
  0
LINE
  5
EF7C87729
102
{ACAD_REACTORS
330
EF7C87637
102
}
330
EF7C85532
100
AcDbEntity
  8
JISSEN
100
AcDbLine
 10
288.5000829494653
 20
58.82859436020996
 30
0.0
 11
288.5000829494653
 21
53.82859436020999
 31
0.0
  0
LWPOLYLINE
  5
EF7C8772A
330
EF7C85532
100
AcDbEntity
  8
NITEN
100
AcDbPolyline
 90
       15
 70
     1
 43
0.0
 10
256.9999995114493
 20
61.4391432659374
 42
0.4142135623730927
 10
258.4999995114491
 20
59.93914326593738
 10
281.5940506824458
 20
59.93914326593738
 10
283.4999995114493
 20
59.93914326593738
 42
0.4142135623730925
 10
284.9999995114493
 20
61.4391432659374
 10
284.9999995114493
 20
72.48515929215535
 42
-0.4142135623730943
 10
289.9999995114491
 20
77.48515929215535
 42
0.4142135623730951
 10
291.9999995114493
 20
79.48515929215535
 10
291.9999995114491
 20
99.93914326593737
 42
0.4142135623730949
 10
289.9999995114493
 20
101.9391432659372
 10
251.9999995114493
 20
101.9391432659372
 42
0.4142135623730951
 10
249.9999995114493
 20
99.93914326593737
 10
249.9999995114493
 20
79.48515929215535
 42
0.4142135623730951
 10
251.9999995114493
 20
77.48515929215535
 42
-0.4142135623730961
 10
256.9999995114493
 20
72.48515929215535
  0
LINE
  5
EF7C8772B
330
EF7C85532
100
AcDbEntity
  8
JISSEN
100
AcDbLine
 10
281.2620069494652
 20
70.56666936021361
 30
0.0
 11
271.0000829494654
 21
70.56666936021361
 31
0.0
  0
LINE
  5
EF7C8772C
330
EF7C85532
100
AcDbEntity
  8
JISSEN
100
AcDbLine
 10
280.0000829494654
 20
71.82859436021363
 30
0.0
 11
271.0000829494654
 21
71.8285943602136
 31
0.0
  0
LINE
  5
EF7C8772D
330
EF7C85532
100
AcDbEntity
  8
JISSEN
100
AcDbLine
 10
262.0000829494654
 20
71.82859436021363
 30
0.0
 11
271.0000829494654
 21
71.8285943602136
 31
0.0
  0
LINE
  5
EF7C8772E
330
EF7C85532
100
AcDbEntity
  8
JISSEN
100
AcDbLine
 10
260.7381589494654
 20
70.56666936021361
 30
0.0
 11
271.0000829494654
 21
70.56666936021361
 31
0.0
  0
LINE
  5
EF7C8772F
330
EF7C85532
100
AcDbEntity
  8
JISSEN
100
AcDbLine
 10
260.7381589494654
 20
70.56666936021361
 30
0.0
 11
262.0000829494654
 21
71.82859436021363
 31
0.0
  0
LINE
  5
EF7C87730
330
EF7C85532
100
AcDbEntity
  8
JISSEN
100
AcDbLine
 10
281.2620069494652
 20
70.56666936021361
 30
0.0
 11
280.0000829494654
 21
71.82859436021363
 31
0.0
  0
LWPOLYLINE
  5
EF7C87731
330
EF7C85532
100
AcDbEntity
  8
NITEN
100
AcDbPolyline
 90
        2
 70
     0
 43
0.0
 10
287.9999995114493
 20
122.7768609170832
 42
0.5882352941176295
 10
270.9999995114491
 20
122.7768609170835
 42
0.5882352941176295
  0
TEXT
  5
EF7C87732
330
EF7C85532
100
AcDbEntity
  8
SUNPOU
100
AcDbText
 10
300.639235479961
 20
6.665259795732481
 30
0.0
 40
3.0
  1
MFJ   シーリングプレート取付状態
  7
K
100
AcDbText
  0
TEXT
  5
EF7C87733
330
EF7C85532
100
AcDbEntity
  8
SUNPOU
100
AcDbText
 10
300.639235479961
 20
1.66525979573248
 30
0.0
 40
3.0
  1
尺度　1/1
  7
K
100
AcDbText
  0
LWPOLYLINE
  5
EF7C87738
102
{ACAD_REACTORS
330
EF7C87637
102
}
330
EF7C85532
100
AcDbEntity
  8
HATCH
100
AcDbPolyline
 90
       13
 70
     0
 43
0.0
 10
339.7336685005748
 20
58.82859436020999
 10
339.5690813223248
 20
58.00895728197793
 10
339.4271759656445
 20
57.49233930521365
 10
339.1994673284965
 20
57.07391301852585
 10
338.8915798418373
 20
56.7357959948589
 10
338.5253565528578
 20
56.4455449222088
 10
338.1226405087492
 20
56.1707164885713
 10
337.7052747567022
 20
55.87886738194232
 10
337.2951023439085
 20
55.5375542903176
 10
336.9139663175586
 20
55.11433390169321
 10
336.5837097248443
 20
54.57676290406493
 10
336.3091296616415
 20
53.91314411677746
 10
336.275905467145
 20
53.82859436020999
  0
ARC
  5
EF7C87739
330
EF7C85532
100
AcDbEntity
  8
JISSEN
100
AcDbCircle
 10
306.5000829494653
 20
53.50746408006606
 30
0.0
 40
1.0
100
AcDbArc
 50
284.9999999999806
 51
0.000000000000007
  0
LINE
  5
EF7C8773A
330
EF7C85532
100
AcDbEntity
  8
JISSEN
100
AcDbLine
 10
234.5000829494654
 20
53.82859436020996
 30
0.0
 11
307.5000829494653
 21
53.82859436020996
 31
0.0
  0
LINE
  5
EF7C8773B
330
EF7C85532
100
AcDbEntity
  8
JISSEN
100
AcDbLine
 10
272.5000829494654
 20
43.32859436020996
 30
0.0
 11
272.5000829494654
 21
36.53171536020997
 31
0.0
  0
LINE
  5
EF7C8773C
330
EF7C85532
100
AcDbEntity
  8
JISSEN
100
AcDbLine
 10
277.7419359494654
 20
37.22931836020999
 30
0.0
 11
277.9813879494652
 21
43.63606436020997
 31
0.0
  0
LINE
  5
EF7C8773D
330
EF7C85532
100
AcDbEntity
  8
JISSEN
100
AcDbLine
 10
285.6211039494652
 20
43.64260836020995
 30
0.0
 11
285.1772969494652
 21
37.32434236020995
 31
0.0
  0
LINE
  5
EF7C8773E
330
EF7C85532
100
AcDbEntity
  8
JISSEN
100
AcDbLine
 10
280.3702879494652
 20
43.56989336020999
 30
0.0
 11
280.1563099494653
 21
37.42505336020993
 31
0.0
  0
LINE
  5
EF7C8773F
330
EF7C85532
100
AcDbEntity
  8
JISSEN
100
AcDbLine
 10
280.7960299494654
 20
43.51738936020999
 30
0.0
 11
280.5691959494652
 21
37.44824136021
 31
0.0
  0
LINE
  5
EF7C87740
330
EF7C85532
100
AcDbEntity
  8
JISSEN
100
AcDbLine
 10
287.1063229494652
 20
43.50900236020996
 30
0.0
 11
286.7136799494653
 21
37.50937136020992
 31
0.0
  0
LINE
  5
EF7C87741
330
EF7C85532
100
AcDbEntity
  8
JISSEN
100
AcDbLine
 10
287.5019599494653
 20
37.70203936020996
 30
0.0
 11
287.9059939494652
 21
43.45406936020995
 31
0.0
  0
LINE
  5
EF7C87742
330
EF7C85532
100
AcDbEntity
  8
JISSEN
100
AcDbLine
 10
290.9058919494653
 20
37.40614436020992
 30
0.0
 11
291.4739999494652
 21
43.64672636020995
 31
0.0
  0
LINE
  5
EF7C87743
330
EF7C85532
100
AcDbEntity
  8
JISSEN
100
AcDbLine
 10
292.9732449494654
 20
43.39090736020998
 30
0.0
 11
292.4475429494653
 21
37.83596136020995
 31
0.0
  0
LINE
  5
EF7C87744
330
EF7C85532
100
AcDbEntity
  8
JISSEN
100
AcDbLine
 10
291.9108239494653
 20
43.61102736020998
 30
0.0
 11
291.3800699494652
 21
37.59157736020997
 31
0.0
  0
LINE
  5
EF7C87745
330
EF7C85532
100
AcDbEntity
  8
JISSEN
100
AcDbLine
 10
295.4688499494654
 20
43.82859436020996
 30
0.0
 11
294.9361556020828
 21
37.73986645967115
 31
0.0
  0
LINE
  5
EF7C87746
330
EF7C85532
100
AcDbEntity
  8
JISSEN
100
AcDbLine
 10
295.2384069494653
 20
43.40803036020995
 30
0.0
 11
294.6505769494653
 21
37.94578136020996
 31
0.0
  0
LINE
  5
EF7C87747
330
EF7C85532
100
AcDbEntity
  8
JISSEN
100
AcDbLine
 10
294.1235739494653
 20
37.88949236020997
 30
0.0
 11
294.7555049494653
 21
43.76153036020993
 31
0.0
  0
LINE
  5
EF7C87748
330
EF7C85532
100
AcDbEntity
  8
JISSEN
100
AcDbLine
 10
247.8765919494652
 20
37.88949236020997
 30
0.0
 11
247.2446609494654
 21
43.76153036020993
 31
0.0
  0
LINE
  5
EF7C87749
330
EF7C85532
100
AcDbEntity
  8
JISSEN
100
AcDbLine
 10
246.7617589494654
 20
43.40803036020995
 30
0.0
 11
247.3495889494654
 21
37.94578136020996
 31
0.0
  0
LINE
  5
EF7C8774A
330
EF7C85532
100
AcDbEntity
  8
JISSEN
100
AcDbLine
 10
246.5313159494654
 20
43.82859436020996
 30
0.0
 11
247.0640102968479
 21
37.73986645967115
 31
0.0
  0
LINE
  5
EF7C8774B
330
EF7C85532
100
AcDbEntity
  8
JISSEN
100
AcDbLine
 10
250.0893419494654
 20
43.61102736020998
 30
0.0
 11
250.6200959494654
 21
37.59157736020997
 31
0.0
  0
LINE
  5
EF7C8774C
330
EF7C85532
100
AcDbEntity
  8
JISSEN
100
AcDbLine
 10
249.0269209494654
 20
43.39090736020998
 30
0.0
 11
249.5526229494654
 21
37.83596136020995
 31
0.0
  0
LINE
  5
EF7C8774D
330
EF7C85532
100
AcDbEntity
  8
JISSEN
100
AcDbLine
 10
251.0942739494654
 20
37.40614436020992
 30
0.0
 11
250.5261659494654
 21
43.64672636020995
 31
0.0
  0
LINE
  5
EF7C8774E
330
EF7C85532
100
AcDbEntity
  8
JISSEN
100
AcDbLine
 10
254.4982059494654
 20
37.70203936020996
 30
0.0
 11
254.0941719494653
 21
43.45406936020995
 31
0.0
  0
LINE
  5
EF7C8774F
330
EF7C85532
100
AcDbEntity
  8
JISSEN
100
AcDbLine
 10
254.8938429494654
 20
43.50900236020996
 30
0.0
 11
255.2864859494654
 21
37.50937136020992
 31
0.0
  0
LINE
  5
EF7C87750
330
EF7C85532
100
AcDbEntity
  8
JISSEN
100
AcDbLine
 10
261.2041359494654
 20
43.51738936020999
 30
0.0
 11
261.4309699494654
 21
37.44824136021
 31
0.0
  0
LINE
  5
EF7C87751
330
EF7C85532
100
AcDbEntity
  8
JISSEN
100
AcDbLine
 10
261.6298779494653
 20
43.56989336020999
 30
0.0
 11
261.8438559494653
 21
37.42505336020993
 31
0.0
  0
LINE
  5
EF7C87752
330
EF7C85532
100
AcDbEntity
  8
JISSEN
100
AcDbLine
 10
256.3790619494652
 20
43.64260836020995
 30
0.0
 11
256.8228689494653
 21
37.32434236020995
 31
0.0
  0
LINE
  5
EF7C87753
330
EF7C85532
100
AcDbEntity
  8
JISSEN
100
AcDbLine
 10
264.2582299494654
 20
37.22931836020999
 30
0.0
 11
264.0187779494654
 21
43.63606436020997
 31
0.0
  0
LINE
  5
EF7C87754
330
EF7C85532
100
AcDbEntity
  8
JISSEN
100
AcDbLine
 10
269.5000829494654
 20
43.32859436020996
 30
0.0
 11
269.5000829494654
 21
36.53171536020997
 31
0.0
  0
LINE
  5
EF7C87755
330
EF7C85532
100
AcDbEntity
  8
JISSEN
100
AcDbLine
 10
256.4708799328637
 20
32.49271203787046
 30
0.0
 11
247.9200576300216
 21
36.51315987714204
 31
0.0
1001
ACAD
1000
ASC_BOUNDS
1002
{
1070
    19
1002
}
  0
ARC
  5
EF7C87756
330
EF7C85532
100
AcDbEntity
  8
JISSEN
100
AcDbCircle
 10
251.1181639494654
 20
37.63549336021
 30
0.0
 40
0.5
100
AcDbArc
 50
185.0389269999999
 51
279.3495549999998
  0
LINE
  5
EF7C87757
330
EF7C85532
100
AcDbEntity
  8
JISSEN
100
AcDbLine
 10
250.2416069494654
 20
36.80792336020997
 30
0.0
 11
251.6297059494652
 21
36.07771036020997
 31
0.0
  0
ARC
  5
EF7C87759
330
EF7C85532
100
AcDbEntity
  8
JISSEN
100
AcDbCircle
 10
249.1691279494653
 20
38.02859136020996
 30
0.0
 40
1.3
100
AcDbArc
 50
186.1423570000001
 51
245.1745949999998
  0
LINE
  5
EF7C8775A
330
EF7C85532
100
AcDbEntity
  8
JISSEN
100
AcDbLine
 10
248.1537559494654
 20
36.82495236020995
 30
0.0
 11
249.6206539494654
 21
36.14636036020996
 31
0.0
  0
ARC
  5
EF7C8775B
330
EF7C85532
100
AcDbEntity
  8
JISSEN
100
AcDbCircle
 10
248.7415519494653
 20
38.09558036020999
 30
0.0
 40
1.399999999999999
100
AcDbArc
 50
186.1423570000001
 51
245.1745949999998
  0
LINE
  5
EF7C8775C
330
EF7C85532
100
AcDbEntity
  8
JISSEN
100
AcDbLine
 10
250.1351759494653
 20
36.14933136020997
 30
0.0
 11
248.6233169494654
 21
36.84872236020996
 31
0.0
  0
ARC
  5
EF7C8775D
330
EF7C85532
100
AcDbEntity
  8
JISSEN
100
AcDbCircle
 10
250.1141839494652
 20
36.10395236020993
 30
0.0
 40
0.05
100
AcDbArc
 50
270.0
 51
65.17459499999985
  0
LINE
  5
EF7C8775E
330
EF7C85532
100
AcDbEntity
  8
JISSEN
100
AcDbLine
 10
250.0405089494654
 20
36.05395236020999
 30
0.0
 11
250.1141839494652
 21
36.05395236020999
 31
0.0
  0
ARC
  5
EF7C8775F
330
EF7C85532
100
AcDbEntity
  8
JISSEN
100
AcDbCircle
 10
250.0405089494654
 20
37.05395236020999
 30
0.0
 40
1.0
100
AcDbArc
 50
245.1745949999998
 51
270.0
  0
ARC
  5
EF7C87760
330
EF7C85532
100
AcDbEntity
  8
JISSEN
100
AcDbCircle
 10
250.8468399494654
 20
37.95844236021
 30
0.0
 40
1.3
100
AcDbArc
 50
185.4061850000002
 51
242.253262
  0
LINE
  5
EF7C87761
330
EF7C85532
100
AcDbEntity
  8
JISSEN
100
AcDbLine
 10
279.8564919494654
 20
37.13549336020999
 30
0.0
 11
277.7231589494653
 21
37.13549336020999
 31
0.0
  0
LINE
  5
EF7C87762
330
EF7C85532
100
AcDbEntity
  8
JISSEN
100
AcDbLine
 10
279.5789419494652
 20
36.03171536020997
 30
0.0
 11
277.3100129494654
 21
36.03171536020997
 31
0.0
  0
LINE
  5
EF7C87763
330
EF7C85532
100
AcDbEntity
  8
JISSEN
100
AcDbLine
 10
271.0000829494654
 20
32.49271203787069
 30
0.0
 11
285.5292859660671
 21
32.49271203787046
 31
0.0
1001
ACAD
1000
ASC_BOUNDS
1002
{
1070
    19
1002
}
  0
LINE
  5
EF7C8778B
330
EF7C85532
100
AcDbEntity
  8
JISSEN
100
AcDbLine
 10
271.0000829494654
 20
32.49271203787069
 30
0.0
 11
256.4708799328637
 21
32.49271203787046
 31
0.0
1001
ACAD
1000
ASC_BOUNDS
1002
{
1070
    19
1002
}
  0
LINE
  5
EF7C8778C
330
EF7C85532
100
AcDbEntity
  8
JISSEN
100
AcDbLine
 10
264.8500959494654
 20
36.35179236021
 30
0.0
 11
264.3181059494654
 21
37.06040836020993
 31
0.0
  0
ARC
  5
EF7C8778D
330
EF7C85532
100
AcDbEntity
  8
JISSEN
100
AcDbCircle
 10
264.6901529494654
 20
36.23171536020996
 30
0.0
 40
0.2
100
AcDbArc
 50
270.0
 51
36.89716199999973
  0
LINE
  5
EF7C87796
330
EF7C85532
100
AcDbEntity
  8
JISSEN
100
AcDbLine
 10
257.9224479494654
 20
36.03171536020997
 30
0.0
 11
256.2068149494654
 21
36.03171536020997
 31
0.0
  0
LINE
  5
EF7C87797
330
EF7C85532
100
AcDbEntity
  8
JISSEN
100
AcDbLine
 10
256.9905889494654
 20
37.02602436020995
 30
0.0
 11
258.0091839494654
 21
36.30409536020997
 31
0.0
  0
LINE
  5
EF7C87798
330
EF7C85532
100
AcDbEntity
  8
JISSEN
100
AcDbLine
 10
256.0044299494653
 20
36.09616336021
 30
0.0
 11
255.0013639494653
 21
36.80708536020997
 31
0.0
  0
ARC
  5
EF7C87799
330
EF7C85532
100
AcDbEntity
  8
JISSEN
100
AcDbCircle
 10
255.6856319494654
 20
37.53549336020997
 30
0.0
 40
0.4
100
AcDbArc
 50
183.7443620000003
 51
270.0
  0
LINE
  5
EF7C8779A
330
EF7C85532
100
AcDbEntity
  8
JISSEN
100
AcDbLine
 10
252.8588079494654
 20
36.22021736021
 30
0.0
 11
251.3594329494654
 21
37.00896736020999
 31
0.0
  0
LINE
  5
EF7C8779B
330
EF7C85532
100
AcDbEntity
  8
JISSEN
100
AcDbLine
 10
251.8159319494654
 20
36.03171536020997
 30
0.0
 11
252.8122509494654
 21
36.03171536020997
 31
0.0
  0
ARC
  5
EF7C8779C
330
EF7C85532
100
AcDbEntity
  8
JISSEN
100
AcDbCircle
 10
251.5922149494652
 20
37.45147436020997
 30
0.0
 40
0.5
100
AcDbArc
 50
185.2015590000002
 51
242.253262
  0
ARC
  5
EF7C8779D
330
EF7C85532
100
AcDbEntity
  8
JISSEN
100
AcDbCircle
 10
251.8159319494654
 20
36.43171536020995
 30
0.0
 40
0.4
100
AcDbArc
 50
242.253262
 51
270.0
  0
ARC
  5
EF7C8779E
330
EF7C85532
100
AcDbEntity
  8
JISSEN
100
AcDbCircle
 10
252.8122509494654
 20
36.13171536020999
 30
0.0
 40
0.1
100
AcDbArc
 50
270.0
 51
62.25326200000021
  0
ARC
  5
EF7C8779F
330
EF7C85532
100
AcDbEntity
  8
JISSEN
100
AcDbCircle
 10
255.6952559494654
 20
37.78612236020999
 30
0.0
 40
1.199999999999999
100
AcDbArc
 50
184.0179690000003
 51
234.6729319999998
  0
ARC
  5
EF7C877A0
330
EF7C85532
100
AcDbEntity
  8
JISSEN
100
AcDbCircle
 10
256.2068149494654
 20
36.38171536020999
 30
0.0
 40
0.35
100
AcDbArc
 50
234.6729319999998
 51
270.0
  0
ARC
  5
EF7C877A1
330
EF7C85532
100
AcDbEntity
  8
JISSEN
100
AcDbCircle
 10
257.2218859494654
 20
37.35237036020996
 30
0.0
 40
0.4
100
AcDbArc
 50
184.0179690000003
 51
234.6729319999998
  0
LINE
  5
EF7C877A2
330
EF7C85532
100
AcDbEntity
  8
JISSEN
100
AcDbLine
 10
255.6856319494654
 20
37.13549336020999
 30
0.0
 11
256.8857839494654
 21
37.13549336020999
 31
0.0
  0
LINE
  5
EF7C877A3
330
EF7C85532
100
AcDbEntity
  8
JISSEN
100
AcDbLine
 10
262.4212239494653
 20
36.03171536020997
 30
0.0
 11
264.6901529494654
 21
36.03171536020997
 31
0.0
  0
LINE
  5
EF7C877A4
330
EF7C85532
100
AcDbEntity
  8
JISSEN
100
AcDbLine
 10
262.1436739494654
 20
37.13549336020999
 30
0.0
 11
264.2770069494654
 21
37.13549336020999
 31
0.0
  0
ARC
  5
EF7C877A5
330
EF7C85532
100
AcDbEntity
  8
JISSEN
100
AcDbCircle
 10
257.9224479494654
 20
36.18171536020993
 30
0.0
 40
0.15
100
AcDbArc
 50
270.0
 51
54.67293199999994
  0
ARC
  5
EF7C877A6
330
EF7C85532
100
AcDbEntity
  8
JISSEN
100
AcDbCircle
 10
262.4302719494654
 20
37.48559036020995
 30
0.0
 40
1.0
100
AcDbArc
 50
182.1404319999997
 51
216.8971619999997
  0
ARC
  5
EF7C877A7
330
EF7C85532
100
AcDbEntity
  8
JISSEN
100
AcDbCircle
 10
262.4212239494653
 20
36.33171536020997
 30
0.0
 40
0.3
100
AcDbArc
 50
216.8971619999997
 51
270.0
  0
LINE
  5
EF7C877A8
330
EF7C85532
100
AcDbEntity
  8
JISSEN
100
AcDbLine
 10
261.6305579494654
 20
36.88520936020998
 30
0.0
 11
262.1813089494654
 21
36.15160136020997
 31
0.0
  0
ARC
  5
EF7C877A9
330
EF7C85532
100
AcDbEntity
  8
JISSEN
100
AcDbCircle
 10
262.1436739494654
 20
37.43549336020996
 30
0.0
 40
0.3
100
AcDbArc
 50
181.994368
 51
270.0
  0
ARC
  5
EF7C877AA
330
EF7C85532
100
AcDbEntity
  8
JISSEN
100
AcDbCircle
 10
264.5580209494653
 20
37.24052236020995
 30
0.0
 40
0.3
100
AcDbArc
 50
182.1404319999997
 51
216.8971619999997
  0
LINE
  5
EF7C877AE
330
EF7C85532
100
AcDbEntity
  8
JISSEN
100
AcDbLine
 10
272.0000829494654
 20
37.13549336020999
 30
0.0
 11
271.0000829494654
 21
37.13549336020999
 31
0.0
  0
LINE
  5
EF7C877AF
330
EF7C85532
100
AcDbEntity
  8
JISSEN
100
AcDbLine
 10
271.0000829494654
 20
36.03171536020997
 30
0.0
 11
272.0000829494654
 21
36.03171536020997
 31
0.0
  0
ARC
  5
EF7C877B0
330
EF7C85532
100
AcDbEntity
  8
JISSEN
100
AcDbCircle
 10
270.0000829494654
 20
37.63549336021
 30
0.0
 40
0.5
100
AcDbArc
 50
180.0
 51
270.0
  0
ARC
  5
EF7C877B1
330
EF7C85532
100
AcDbEntity
  8
JISSEN
100
AcDbCircle
 10
270.0000829494654
 20
36.53171536020997
 30
0.0
 40
0.5
100
AcDbArc
 50
180.0
 51
270.0
  0
LINE
  5
EF7C877B2
330
EF7C85532
100
AcDbEntity
  8
JISSEN
100
AcDbLine
 10
271.0000829494654
 20
36.03171536020997
 30
0.0
 11
270.0000829494654
 21
36.03171536020997
 31
0.0
  0
LINE
  5
EF7C877B3
330
EF7C85532
100
AcDbEntity
  8
JISSEN
100
AcDbLine
 10
270.0000829494654
 20
37.13549336020999
 30
0.0
 11
271.0000829494654
 21
37.13549336020999
 31
0.0
  0
ARC
  5
EF7C877B4
330
EF7C85532
100
AcDbEntity
  8
JISSEN
100
AcDbCircle
 10
272.0000829494654
 20
36.53171536020997
 30
0.0
 40
0.5
100
AcDbArc
 50
270.0
 51
0.000000000000007
  0
ARC
  5
EF7C877B5
330
EF7C85532
100
AcDbEntity
  8
JISSEN
100
AcDbCircle
 10
272.0000829494654
 20
37.63549336021
 30
0.0
 40
0.5
100
AcDbArc
 50
270.0
 51
0.000000000000007
  0
ARC
  5
EF7C877B6
330
EF7C85532
100
AcDbEntity
  8
JISSEN
100
AcDbCircle
 10
277.4421449494652
 20
37.24052236020995
 30
0.0
 40
0.3
100
AcDbArc
 50
323.1028380000003
 51
357.8595680000001
  0
ARC
  5
EF7C877B7
330
EF7C85532
100
AcDbEntity
  8
JISSEN
100
AcDbCircle
 10
277.3100129494654
 20
36.23171536020996
 30
0.0
 40
0.2
100
AcDbArc
 50
143.1028380000001
 51
270.0
  0
LINE
  5
EF7C877B8
330
EF7C85532
100
AcDbEntity
  8
JISSEN
100
AcDbLine
 10
277.1500699494653
 20
36.35179236021
 30
0.0
 11
277.6820599494652
 21
37.06040836020993
 31
0.0
  0
LINE
  5
EF7C877BE
330
EF7C85532
100
AcDbEntity
  8
JISSEN
100
AcDbLine
 10
291.8649899494652
 20
36.14933136020997
 30
0.0
 11
293.3768489494653
 21
36.84872236020996
 31
0.0
  0
LINE
  5
EF7C877BF
330
EF7C85532
100
AcDbEntity
  8
JISSEN
100
AcDbLine
 10
293.8464099494654
 20
36.82495236020995
 30
0.0
 11
292.3795119494652
 21
36.14636036020996
 31
0.0
  0
LINE
  5
EF7C877C0
330
EF7C85532
100
AcDbEntity
  8
JISSEN
100
AcDbLine
 10
285.5292859660671
 20
32.49271203787046
 30
0.0
 11
294.0801082689091
 21
36.51315987714204
 31
0.0
1001
ACAD
1000
ASC_BOUNDS
1002
{
1070
    19
1002
}
  0
LINE
  5
EF7C877C6
330
EF7C85532
100
AcDbEntity
  8
JISSEN
100
AcDbLine
 10
286.3145339494652
 20
37.13549336020999
 30
0.0
 11
285.1143819494652
 21
37.13549336020999
 31
0.0
  0
LINE
  5
EF7C877C7
330
EF7C85532
100
AcDbEntity
  8
JISSEN
100
AcDbLine
 10
285.9957359494653
 20
36.09616336021
 30
0.0
 11
286.9988019494653
 21
36.80708536020997
 31
0.0
  0
ARC
  5
EF7C877C8
330
EF7C85532
100
AcDbEntity
  8
JISSEN
100
AcDbCircle
 10
279.8564919494654
 20
37.43549336020996
 30
0.0
 40
0.3
100
AcDbArc
 50
270.0
 51
358.0056319999998
  0
LINE
  5
EF7C877C9
330
EF7C85532
100
AcDbEntity
  8
JISSEN
100
AcDbLine
 10
280.3696079494653
 20
36.88520936020998
 30
0.0
 11
279.8188569494652
 21
36.15160136020997
 31
0.0
  0
ARC
  5
EF7C877CA
330
EF7C85532
100
AcDbEntity
  8
JISSEN
100
AcDbCircle
 10
279.5789419494652
 20
36.33171536020997
 30
0.0
 40
0.3
100
AcDbArc
 50
270.0
 51
323.1028380000003
  0
ARC
  5
EF7C877CB
330
EF7C85532
100
AcDbEntity
  8
JISSEN
100
AcDbCircle
 10
279.5698939494652
 20
37.48559036020995
 30
0.0
 40
1.0
100
AcDbArc
 50
323.1028380000003
 51
357.8595680000001
  0
ARC
  5
EF7C877CC
330
EF7C85532
100
AcDbEntity
  8
JISSEN
100
AcDbCircle
 10
284.0777179494653
 20
36.18171536020993
 30
0.0
 40
0.15
100
AcDbArc
 50
125.3270679999999
 51
270.0
  0
ARC
  5
EF7C877CD
330
EF7C85532
100
AcDbEntity
  8
JISSEN
100
AcDbCircle
 10
284.7782799494653
 20
37.35237036020996
 30
0.0
 40
0.4
100
AcDbArc
 50
305.327068
 51
355.9820309999997
  0
ARC
  5
EF7C877CE
330
EF7C85532
100
AcDbEntity
  8
JISSEN
100
AcDbCircle
 10
285.7933509494653
 20
36.38171536020999
 30
0.0
 40
0.35
100
AcDbArc
 50
270.0
 51
305.327068
  0
LINE
  5
EF7C877CF
330
EF7C85532
100
AcDbEntity
  8
JISSEN
100
AcDbLine
 10
285.0095769494652
 20
37.02602436020995
 30
0.0
 11
283.9909819494653
 21
36.30409536020997
 31
0.0
  0
LINE
  5
EF7C877D0
330
EF7C85532
100
AcDbEntity
  8
JISSEN
100
AcDbLine
 10
284.0777179494653
 20
36.03171536020997
 30
0.0
 11
285.7933509494653
 21
36.03171536020997
 31
0.0
  0
ARC
  5
EF7C877D1
330
EF7C85532
100
AcDbEntity
  8
JISSEN
100
AcDbCircle
 10
286.3049099494653
 20
37.78612236020999
 30
0.0
 40
1.199999999999999
100
AcDbArc
 50
305.327068
 51
355.9820309999997
  0
ARC
  5
EF7C877D2
330
EF7C85532
100
AcDbEntity
  8
JISSEN
100
AcDbCircle
 10
289.1879149494652
 20
36.13171536020999
 30
0.0
 40
0.1
100
AcDbArc
 50
117.7467379999998
 51
270.0
  0
ARC
  5
EF7C877D3
330
EF7C85532
100
AcDbEntity
  8
JISSEN
100
AcDbCircle
 10
290.1842339494653
 20
36.43171536020995
 30
0.0
 40
0.4
100
AcDbArc
 50
270.0
 51
297.7467379999998
  0
ARC
  5
EF7C877D4
330
EF7C85532
100
AcDbEntity
  8
JISSEN
100
AcDbCircle
 10
290.4079509494653
 20
37.45147436020997
 30
0.0
 40
0.5
100
AcDbArc
 50
297.7467379999998
 51
354.7984409999998
  0
LINE
  5
EF7C877D5
330
EF7C85532
100
AcDbEntity
  8
JISSEN
100
AcDbLine
 10
290.1842339494653
 20
36.03171536020997
 30
0.0
 11
289.1879149494652
 21
36.03171536020997
 31
0.0
  0
LINE
  5
EF7C877D6
330
EF7C85532
100
AcDbEntity
  8
JISSEN
100
AcDbLine
 10
289.1413579494653
 20
36.22021736021
 30
0.0
 11
290.6407329494653
 21
37.00896736020999
 31
0.0
  0
ARC
  5
EF7C877D7
330
EF7C85532
100
AcDbEntity
  8
JISSEN
100
AcDbCircle
 10
286.3145339494652
 20
37.53549336020997
 30
0.0
 40
0.4
100
AcDbArc
 50
270.0
 51
356.2556379999997
  0
ARC
  5
EF7C877D8
330
EF7C85532
100
AcDbEntity
  8
JISSEN
100
AcDbCircle
 10
291.1533259494654
 20
37.95844236021
 30
0.0
 40
1.3
100
AcDbArc
 50
297.7467379999998
 51
354.5938149999996
  0
ARC
  5
EF7C877D9
330
EF7C85532
100
AcDbEntity
  8
JISSEN
100
AcDbCircle
 10
291.9596569494654
 20
37.05395236020999
 30
0.0
 40
1.0
100
AcDbArc
 50
270.0
 51
294.825405
  0
LINE
  5
EF7C877DA
330
EF7C85532
100
AcDbEntity
  8
JISSEN
100
AcDbLine
 10
291.9596569494654
 20
36.05395236020999
 30
0.0
 11
291.8859819494653
 21
36.05395236020999
 31
0.0
  0
ARC
  5
EF7C877DB
330
EF7C85532
100
AcDbEntity
  8
JISSEN
100
AcDbCircle
 10
291.8859819494653
 20
36.10395236020993
 30
0.0
 40
0.05
100
AcDbArc
 50
114.825405
 51
270.0
  0
LINE
  5
EF7C877DC
330
EF7C85532
100
AcDbEntity
  8
JISSEN
100
AcDbLine
 10
291.7585589494652
 20
36.80792336020997
 30
0.0
 11
290.3704599494652
 21
36.07771036020997
 31
0.0
  0
ARC
  5
EF7C877DD
330
EF7C85532
100
AcDbEntity
  8
JISSEN
100
AcDbCircle
 10
290.8820019494653
 20
37.63549336021
 30
0.0
 40
0.5
100
AcDbArc
 50
260.650445
 51
354.9610729999998
  0
ARC
  5
EF7C877DE
330
EF7C85532
100
AcDbEntity
  8
JISSEN
100
AcDbCircle
 10
293.2586139494653
 20
38.09558036020999
 30
0.0
 40
1.399999999999999
100
AcDbArc
 50
294.825405
 51
353.8576429999998
  0
ARC
  5
EF7C877DF
330
EF7C85532
100
AcDbEntity
  8
JISSEN
100
AcDbCircle
 10
292.8310379494652
 20
38.02859136020996
 30
0.0
 40
1.3
100
AcDbArc
 50
294.825405
 51
353.8576429999998
  0
LINE
  5
EF7C877E1
330
EF7C85532
100
AcDbEntity
  8
JISSEN
100
AcDbLine
 10
243.5000829494653
 20
50.32859436020996
 30
0.0
 11
298.5000829494653
 21
50.32859436021002
 31
0.0
  0
LINE
  5
EF7C877E2
330
EF7C85532
100
AcDbEntity
  8
JISSEN
100
AcDbLine
 10
298.5000829494653
 20
46.32859436020996
 30
0.0
 11
243.5000829494653
 21
46.32859436020996
 31
0.0
  0
LINE
  5
EF7C877E3
330
EF7C85532
100
AcDbEntity
  8
JISSEN
100
AcDbLine
 10
244.5000829494654
 20
46.32859436020996
 30
0.0
 11
270.0000829494654
 21
46.32859436020996
 31
0.0
  0
LINE
  5
EF7C877E4
330
EF7C85532
100
AcDbEntity
  8
JISSEN
100
AcDbLine
 10
245.5000829494653
 20
45.32859436020996
 30
0.0
 11
271.0000829494654
 21
45.32859436020996
 31
0.0
  0
LINE
  5
EF7C877E5
330
EF7C85532
100
AcDbEntity
  8
JISSEN
100
AcDbLine
 10
244.6500829494654
 20
53.82859436020996
 30
0.0
 11
271.0000829494654
 21
53.82859436020996
 31
0.0
  0
LINE
  5
EF7C877E6
330
EF7C85532
100
AcDbEntity
  8
JISSEN
100
AcDbLine
 10
243.5000829494653
 20
50.32859436020996
 30
0.0
 11
235.2412639043631
 21
52.54153825377691
 31
0.0
  0
LINE
  5
EF7C877E7
330
EF7C85532
100
AcDbEntity
  8
JISSEN
100
AcDbLine
 10
244.5000829494654
 20
46.32859436020996
 30
0.0
 11
245.5000829494653
 21
45.32859436020996
 31
0.0
  0
LINE
  5
EF7C877E8
330
EF7C85532
100
AcDbEntity
  8
JISSEN
100
AcDbLine
 10
246.4000829494654
 20
45.32859436020996
 30
0.0
 11
246.5313159494654
 21
43.82859436020996
 31
0.0
  0
ARC
  5
EF7C877E9
330
EF7C85532
100
AcDbEntity
  8
JISSEN
100
AcDbCircle
 10
247.1594619494652
 20
43.45083036020993
 30
0.0
 40
0.4
100
AcDbArc
 50
91.35885499999986
 51
186.1423570000001
  0
ARC
  5
EF7C877EA
330
EF7C85532
100
AcDbEntity
  8
JISSEN
100
AcDbCircle
 10
247.1452349494652
 20
43.75083036020996
 30
0.0
 40
0.1
100
AcDbArc
 50
6.142357000000093
 51
87.28209800000021
  0
ARC
  5
EF7C877EB
330
EF7C85532
100
AcDbEntity
  8
JISSEN
100
AcDbCircle
 10
250.2885689494652
 20
43.62859436020997
 30
0.0
 40
0.2
100
AcDbArc
 50
90.0
 51
185.0389269999999
  0
ARC
  5
EF7C877EC
330
EF7C85532
100
AcDbEntity
  8
JISSEN
100
AcDbCircle
 10
249.4251419494653
 20
43.42859436020997
 30
0.0
 40
0.4
100
AcDbArc
 50
90.0
 51
185.4061850000002
  0
LINE
  5
EF7C877ED
330
EF7C85532
100
AcDbEntity
  8
JISSEN
100
AcDbLine
 10
250.3269889494653
 20
43.82859436020996
 30
0.0
 11
249.4251419494653
 21
43.82859436020996
 31
0.0
  0
ARC
  5
EF7C877EE
330
EF7C85532
100
AcDbEntity
  8
JISSEN
100
AcDbCircle
 10
250.3269889494653
 20
43.62859436020997
 30
0.0
 40
0.2
100
AcDbArc
 50
5.201559000000191
 51
90.0
  0
LINE
  5
EF7C877EF
330
EF7C85532
100
AcDbEntity
  8
JISSEN
100
AcDbLine
 10
245.5000829494653
 20
45.32859436020996
 30
0.0
 11
246.4000829494654
 21
45.32859436020996
 31
0.0
  0
LINE
  5
EF7C877F0
330
EF7C85532
100
AcDbEntity
  8
JISSEN
100
AcDbLine
 10
243.5000829494653
 20
46.32859436020996
 30
0.0
 11
243.5000829494653
 21
50.32859436020996
 31
0.0
  0
LINE
  5
EF7C877F1
330
EF7C85532
100
AcDbEntity
  8
JISSEN
100
AcDbLine
 10
234.5000829494654
 20
53.50746408006606
 30
0.0
 11
234.5000829494654
 21
53.82859436020996
 31
0.0
  0
ARC
  5
EF7C877F2
330
EF7C85532
100
AcDbEntity
  8
JISSEN
100
AcDbCircle
 10
235.5000829494652
 20
53.50746408006606
 30
0.0
 40
1.0
100
AcDbArc
 50
180.0
 51
255.0000000000193
  0
LINE
  5
EF7C877F3
330
EF7C85532
100
AcDbEntity
  8
JISSEN
100
AcDbLine
 10
278.1812489494654
 20
43.82859436020996
 30
0.0
 11
280.4962399494653
 21
43.82859436020996
 31
0.0
  0
LINE
  5
EF7C877F4
330
EF7C85532
100
AcDbEntity
  8
JISSEN
100
AcDbLine
 10
297.3500829494652
 20
53.82859436020996
 30
0.0
 11
271.0000829494654
 21
53.82859436020996
 31
0.0
  0
LINE
  5
EF7C877F5
330
EF7C85532
100
AcDbEntity
  8
JISSEN
100
AcDbLine
 10
296.5000829494653
 20
45.32859436020996
 30
0.0
 11
271.0000829494654
 21
45.32859436020996
 31
0.0
  0
LINE
  5
EF7C877F6
330
EF7C85532
100
AcDbEntity
  8
JISSEN
100
AcDbLine
 10
297.5000829494653
 20
46.32859436020996
 30
0.0
 11
272.0000829494654
 21
46.32859436020996
 31
0.0
  0
LINE
  5
EF7C877F7
330
EF7C85532
100
AcDbEntity
  8
JISSEN
100
AcDbLine
 10
255.1932019494654
 20
43.82859436020996
 30
0.0
 11
256.1795529494653
 21
43.82859436020996
 31
0.0
  0
LINE
  5
EF7C877F8
330
EF7C85532
100
AcDbEntity
  8
JISSEN
100
AcDbLine
 10
254.4433109494653
 20
43.82859436020996
 30
0.0
 11
255.1932019494654
 21
43.82859436020996
 31
0.0
  0
ARC
  5
EF7C877F9
330
EF7C85532
100
AcDbEntity
  8
JISSEN
100
AcDbCircle
 10
254.4433109494653
 20
43.47859436020994
 30
0.0
 40
0.35
100
AcDbArc
 50
90.0
 51
184.0179690000003
  0
ARC
  5
EF7C877FA
330
EF7C85532
100
AcDbEntity
  8
JISSEN
100
AcDbCircle
 10
255.1932019494654
 20
43.52859436020994
 30
0.0
 40
0.3
100
AcDbArc
 50
90.0
 51
183.7443620000003
  0
ARC
  5
EF7C877FB
330
EF7C85532
100
AcDbEntity
  8
JISSEN
100
AcDbCircle
 10
256.1795529494653
 20
43.62859436020997
 30
0.0
 40
0.2
100
AcDbArc
 50
4.017969000000318
 51
90.0
  0
LINE
  5
EF7C877FC
330
EF7C85532
100
AcDbEntity
  8
JISSEN
100
AcDbLine
 10
263.8189169494653
 20
43.82859436020996
 30
0.0
 11
261.5039259494654
 21
43.82859436020996
 31
0.0
  0
ARC
  5
EF7C877FD
330
EF7C85532
100
AcDbEntity
  8
JISSEN
100
AcDbCircle
 10
261.5039259494654
 20
43.52859436020994
 30
0.0
 40
0.3
100
AcDbArc
 50
90.0
 51
182.1404319999997
  0
ARC
  5
EF7C877FE
330
EF7C85532
100
AcDbEntity
  8
JISSEN
100
AcDbCircle
 10
261.8797259494654
 20
43.57859436020996
 30
0.0
 40
0.25
100
AcDbArc
 50
90.0
 51
181.994368
  0
ARC
  5
EF7C877FF
330
EF7C85532
100
AcDbEntity
  8
JISSEN
100
AcDbCircle
 10
263.8189169494653
 20
43.62859436020997
 30
0.0
 40
0.2
100
AcDbArc
 50
2.140431999999735
 51
90.0
  0
ARC
  5
EF7C87800
330
EF7C85532
100
AcDbEntity
  8
JISSEN
100
AcDbCircle
 10
271.0000829494654
 20
46.32859436020996
 30
0.0
 40
1.0
100
AcDbArc
 50
270.0
 51
0.000000000000007
  0
ARC
  5
EF7C87801
330
EF7C85532
100
AcDbEntity
  8
JISSEN
100
AcDbCircle
 10
271.0000829494654
 20
46.32859436020996
 30
0.0
 40
1.0
100
AcDbArc
 50
180.0
 51
270.0
  0
LINE
  5
EF7C87802
330
EF7C85532
100
AcDbEntity
  8
JISSEN
100
AcDbLine
 10
271.0000829494654
 20
43.82859436020996
 30
0.0
 11
272.0000829494654
 21
43.82859436020996
 31
0.0
  0
ARC
  5
EF7C87803
330
EF7C85532
100
AcDbEntity
  8
JISSEN
100
AcDbCircle
 10
270.0000829494654
 20
43.32859436020996
 30
0.0
 40
0.5
100
AcDbArc
 50
90.0
 51
180.0
  0
LINE
  5
EF7C87804
330
EF7C85532
100
AcDbEntity
  8
JISSEN
100
AcDbLine
 10
271.0000829494654
 20
43.82859436020996
 30
0.0
 11
270.0000829494654
 21
43.82859436020996
 31
0.0
  0
ARC
  5
EF7C87805
330
EF7C85532
100
AcDbEntity
  8
JISSEN
100
AcDbCircle
 10
272.0000829494654
 20
43.32859436020996
 30
0.0
 40
0.5
100
AcDbArc
 50
0.000000000000007
 51
90.0
  0
ARC
  5
EF7C87806
330
EF7C85532
100
AcDbEntity
  8
JISSEN
100
AcDbCircle
 10
278.1812489494654
 20
43.62859436020997
 30
0.0
 40
0.2
100
AcDbArc
 50
90.0
 51
177.8595680000002
  0
LINE
  5
EF7C87807
330
EF7C85532
100
AcDbEntity
  8
JISSEN
100
AcDbLine
 10
259.3000829494653
 20
53.82859436020996
 30
0.0
 11
260.3413639494652
 21
54.86987536020999
 31
0.0
  0
LINE
  5
EF7C87808
330
EF7C85532
100
AcDbEntity
  8
JISSEN
100
AcDbLine
 10
298.5000829494653
 20
50.32859436020996
 30
0.0
 11
306.7589019945676
 21
52.54153825377691
 31
0.0
  0
LINE
  5
EF7C87809
330
EF7C85532
100
AcDbEntity
  8
JISSEN
100
AcDbLine
 10
286.8069639494652
 20
43.82859436020996
 30
0.0
 11
285.8206129494652
 21
43.82859436020996
 31
0.0
  0
ARC
  5
EF7C8780A
330
EF7C85532
100
AcDbEntity
  8
JISSEN
100
AcDbCircle
 10
280.1204399494654
 20
43.57859436020996
 30
0.0
 40
0.25
100
AcDbArc
 50
358.0056319999998
 51
90.0
  0
ARC
  5
EF7C8780B
330
EF7C85532
100
AcDbEntity
  8
JISSEN
100
AcDbCircle
 10
280.4962399494653
 20
43.52859436020994
 30
0.0
 40
0.3
100
AcDbArc
 50
357.8595680000001
 51
90.0
  0
ARC
  5
EF7C8780C
330
EF7C85532
100
AcDbEntity
  8
JISSEN
100
AcDbCircle
 10
285.8206129494652
 20
43.62859436020997
 30
0.0
 40
0.2
100
AcDbArc
 50
90.0
 51
175.9820309999995
  0
ARC
  5
EF7C8780D
330
EF7C85532
100
AcDbEntity
  8
JISSEN
100
AcDbCircle
 10
286.8069639494652
 20
43.52859436020994
 30
0.0
 40
0.3
100
AcDbArc
 50
356.2556379999997
 51
90.0
  0
ARC
  5
EF7C8780E
330
EF7C85532
100
AcDbEntity
  8
JISSEN
100
AcDbCircle
 10
287.5568549494652
 20
43.47859436020994
 30
0.0
 40
0.35
100
AcDbArc
 50
355.9820309999997
 51
90.0
  0
LINE
  5
EF7C8780F
330
EF7C85532
100
AcDbEntity
  8
JISSEN
100
AcDbLine
 10
287.5568549494652
 20
43.82859436020996
 30
0.0
 11
286.8069639494652
 21
43.82859436020996
 31
0.0
  0
ARC
  5
EF7C87810
330
EF7C85532
100
AcDbEntity
  8
JISSEN
100
AcDbCircle
 10
291.6731769494653
 20
43.62859436020997
 30
0.0
 40
0.2
100
AcDbArc
 50
90.0
 51
174.7984409999996
  0
LINE
  5
EF7C87811
330
EF7C85532
100
AcDbEntity
  8
JISSEN
100
AcDbLine
 10
291.6731769494653
 20
43.82859436020996
 30
0.0
 11
292.5750239494652
 21
43.82859436020996
 31
0.0
  0
ARC
  5
EF7C87812
330
EF7C85532
100
AcDbEntity
  8
JISSEN
100
AcDbCircle
 10
292.5750239494652
 20
43.42859436020997
 30
0.0
 40
0.4
100
AcDbArc
 50
354.5938149999996
 51
90.0
  0
ARC
  5
EF7C87813
330
EF7C85532
100
AcDbEntity
  8
JISSEN
100
AcDbCircle
 10
291.7115969494652
 20
43.62859436020997
 30
0.0
 40
0.2
100
AcDbArc
 50
354.9610729999998
 51
90.0
  0
LINE
  5
EF7C87814
330
EF7C85532
100
AcDbEntity
  8
JISSEN
100
AcDbLine
 10
297.5000829494653
 20
46.32859436020996
 30
0.0
 11
296.5000829494653
 21
45.32859436020996
 31
0.0
  0
LINE
  5
EF7C87815
330
EF7C85532
100
AcDbEntity
  8
JISSEN
100
AcDbLine
 10
296.5000829494653
 20
45.32859436020996
 30
0.0
 11
295.6000829494652
 21
45.32859436020996
 31
0.0
  0
ARC
  5
EF7C87816
330
EF7C85532
100
AcDbEntity
  8
JISSEN
100
AcDbCircle
 10
294.8549309494653
 20
43.75083036020996
 30
0.0
 40
0.1
100
AcDbArc
 50
92.7179019999998
 51
173.8576429999999
  0
ARC
  5
EF7C87817
330
EF7C85532
100
AcDbEntity
  8
JISSEN
100
AcDbCircle
 10
294.8407039494653
 20
43.45083036020993
 30
0.0
 40
0.4
100
AcDbArc
 50
353.8576429999998
 51
88.64114500000017
  0
LINE
  5
EF7C87818
330
EF7C85532
100
AcDbEntity
  8
JISSEN
100
AcDbLine
 10
295.6000829494652
 20
45.32859436020996
 30
0.0
 11
295.4688499494654
 21
43.82859436020996
 31
0.0
  0
LINE
  5
EF7C87819
330
EF7C85532
100
AcDbEntity
  8
JISSEN
100
AcDbLine
 10
298.5000829494653
 20
46.32859436020996
 30
0.0
 11
298.5000829494653
 21
50.32859436020996
 31
0.0
  0
LINE
  5
EF7C8781A
330
EF7C85532
100
AcDbEntity
  8
JISSEN
100
AcDbLine
 10
282.7000829494652
 20
53.82859436020996
 30
0.0
 11
281.6588019494652
 21
54.86987536020999
 31
0.0
  0
LINE
  5
EF7C8781B
330
EF7C85532
100
AcDbEntity
  8
JISSEN
100
AcDbLine
 10
307.5000829494653
 20
53.50746408006606
 30
0.0
 11
307.5000829494653
 21
53.82859436020996
 31
0.0
  0
TEXT
  5
EF7C87824
330
EF7C85532
100
AcDbEntity
  8
SUNPOU
100
AcDbText
 10
307.2075234066112
 20
19.28572157648671
 30
0.0
 40
4.5
  1
1
  7
K
 72
     4
 11
309.0289519780398
 21
21.53572157648671
 31
0.0
100
AcDbText
  0
CIRCLE
  5
EF7C87825
330
EF7C85532
100
AcDbEntity
  8
SUNPOU
100
AcDbCircle
 10
309.0289519780398
 20
21.53572157648671
 30
0.0
 40
6.0
  0
LINE
  5
EF7C87826
330
EF7C85532
100
AcDbEntity
  8
SUNPOU
100
AcDbLine
 10
289.7919872706858
 20
34.49696000872569
 30
0.0
 11
304.0530174265561
 21
24.88834373523826
 31
0.0
  0
INSERT
  5
EF7C87827
330
EF7C85532
100
AcDbEntity
  8
SUNPOU
100
AcDbBlockReference
  2
ARROW
 10
289.7919872706858
 20
34.49696000872569
 30
0.0
 41
1.499999999999995
 42
1.5
 43
1.5
 50
146.0291974830132
  0
LINE
  5
EF7C87828
330
EF7C85532
100
AcDbEntity
  8
WAKU
100
AcDbLine
 10
361.9999990228986
 20
141.5000003993147
 30
0.0
 11
180.9999995114493
 21
141.5000003993147
 31
0.0
  0
ARC
  5
EF7C87829
330
EF7C85532
100
AcDbEntity
  8
JISSEN
100
AcDbCircle
 10
293.4418635481435
 20
37.87059999604771
 30
0.0
 40
1.5
100
AcDbArc
 50
295.1820930545796
 51
355.0000029809806
  0
ARC
  5
EF7C8782A
330
EF7C85532
100
AcDbEntity
  8
JISSEN
100
AcDbCircle
 10
248.5583023507873
 20
37.87059999604772
 30
0.0
 40
1.5
100
AcDbArc
 50
184.9999970190193
 51
244.8179069454202
  0
LINE
  5
EF7C8782B
330
EF7C85532
100
AcDbEntity
  8
SUNPOU
100
AcDbLine
 10
302.6294924720163
 20
51.43506630699342
 30
0.0
 11
325.0577266111899
 21
26.03342866851582
 31
0.0
  0
TEXT
  5
EF7C8782C
330
EF7C85532
100
AcDbEntity
  8
SUNPOU
100
AcDbText
 10
326.8860948351825
 20
19.28572157648671
 30
0.0
 40
4.5
  1
2
  7
K
 72
     4
 11
329.0289519780396
 21
21.53572157648671
 31
0.0
100
AcDbText
  0
CIRCLE
  5
EF7C8782D
330
EF7C85532
100
AcDbEntity
  8
SUNPOU
100
AcDbCircle
 10
329.0289519780396
 20
21.53572157648671
 30
0.0
 40
6.0
  0
INSERT
  5
EF7C8782E
330
EF7C85532
100
AcDbEntity
  8
SUNPOU
100
AcDbBlockReference
  2
ARROW
 10
302.6294924720164
 20
51.43506630699338
 30
0.0
 41
1.499999999999995
 42
1.5
 43
1.5
 50
131.4427143987435
  0
LINE
  5
EF7C8782F
330
EF7C85532
100
AcDbEntity
  8
SUNPOU
100
AcDbLine
 10
289.7919872706858
 20
163.9969600087255
 30
0.0
 11
304.0530174265561
 21
154.3883437352381
 31
0.0
  0
TEXT
  5
EF7C87830
330
EF7C85532
100
AcDbEntity
  8
SUNPOU
100
AcDbText
 10
307.2075234066112
 20
148.7857215764865
 30
0.0
 40
4.5
  1
1
  7
K
 72
     4
 11
309.0289519780398
 21
151.0357215764865
 31
0.0
100
AcDbText
  0
CIRCLE
  5
EF7C87831
330
EF7C85532
100
AcDbEntity
  8
SUNPOU
100
AcDbCircle
 10
309.0289519780398
 20
151.0357215764865
 30
0.0
 40
6.0
  0
INSERT
  5
EF7C87832
330
EF7C85532
100
AcDbEntity
  8
SUNPOU
100
AcDbBlockReference
  2
ARROW
 10
289.7919872706858
 20
163.9969600087255
 30
0.0
 41
1.499999999999995
 42
1.5
 43
1.5
 50
146.0291974830132
  0
LINE
  5
EF7C8823A
330
EF7C85532
100
AcDbEntity
  8
WAKU
100
AcDbLine
 10
542.999998534348
 20
141.5000003993147
 30
0.0
 11
361.9999990228986
 21
141.5000003993147
 31
0.0
  0
INSERT
  5
EF7C8823B
330
EF7C85532
100
AcDbEntity
  8
WAKU
100
AcDbBlockReference
  2
WAKU
 10
361.9999990228986
 20
0.0000001996573928
 30
0.0
 41
181.0
 42
283.0
 43
181.0
  0
LINE
  5
EF7C8823C
330
EF7C85532
100
AcDbEntity
  8
JISSEN
100
AcDbLine
 10
453.4999982988986
 20
265.0000001996573
 30
0.0
 11
542.9999982988987
 21
265.0000001996573
 31
0.0
  0
LINE
  5
EF7C8823D
330
EF7C85532
100
AcDbEntity
  8
JISSEN
100
AcDbLine
 10
453.4999982988986
 20
271.0000001996573
 30
0.0
 11
542.9999982988987
 21
271.0000001996573
 31
0.0
  0
LINE
  5
EF7C8823E
330
EF7C85532
100
AcDbEntity
  8
JISSEN
100
AcDbLine
 10
453.4999982988986
 20
277.0000001996573
 30
0.0
 11
542.9999982988987
 21
277.0000001996573
 31
0.0
  0
LINE
  5
EF7C8823F
330
EF7C85532
100
AcDbEntity
  8
JISSEN
100
AcDbLine
 10
425.6500824609147
 20
53.82859436020996
 30
0.0
 11
452.0000824609147
 21
53.82859436020996
 31
0.0
  0
LINE
  5
EF7C88240
330
EF7C85532
100
AcDbEntity
  8
JISSEN
100
AcDbLine
 10
426.5000824609145
 20
45.32859436020996
 30
0.0
 11
452.0000824609147
 21
45.32859436020996
 31
0.0
  0
LINE
  5
EF7C88241
330
EF7C85532
100
AcDbEntity
  8
JISSEN
100
AcDbLine
 10
425.5000824609147
 20
46.32859436020996
 30
0.0
 11
451.0000824609146
 21
46.32859436020996
 31
0.0
  0
LINE
  5
EF7C88242
330
EF7C85532
100
AcDbEntity
  8
JISSEN
100
AcDbLine
 10
479.5000824609148
 20
46.32859436020996
 30
0.0
 11
424.5000824609147
 21
46.32859436020996
 31
0.0
  0
LINE
  5
EF7C88243
330
EF7C85532
100
AcDbEntity
  8
JISSEN
100
AcDbLine
 10
424.5000824609147
 20
50.32859436020996
 30
0.0
 11
479.5000824609148
 21
50.32859436021002
 31
0.0
  0
LINE
  5
EF7C88244
330
EF7C85532
100
AcDbEntity
  8
JISSEN
100
AcDbLine
 10
431.1351754609146
 20
36.14933136020997
 30
0.0
 11
429.6233164609146
 21
36.84872236020996
 31
0.0
  0
LINE
  5
EF7C88245
330
EF7C85532
100
AcDbEntity
  8
JISSEN
100
AcDbLine
 10
429.1537554609146
 20
36.82495236020995
 30
0.0
 11
430.6206534609146
 21
36.14636036020996
 31
0.0
  0
LINE
  5
EF7C88246
330
EF7C85532
100
AcDbEntity
  8
JISSEN
100
AcDbLine
 10
437.4708794443129
 20
32.49271203787046
 30
0.0
 11
428.9200571414708
 21
36.51315987714204
 31
0.0
1001
ACAD
1000
ASC_BOUNDS
1002
{
1070
    19
1002
}
  0
LINE
  5
EF7C88247
330
EF7C85532
100
AcDbEntity
  8
JISSEN
100
AcDbLine
 10
415.5000824609147
 20
53.82859436020996
 30
0.0
 11
488.5000824609146
 21
53.82859436020996
 31
0.0
  0
LINE
  5
EF7C88248
330
EF7C85532
100
AcDbEntity
  8
JISSEN
100
AcDbLine
 10
425.6500824609147
 20
53.82859436020996
 30
0.0
 11
452.0000824609147
 21
53.82859436020996
 31
0.0
  0
LINE
  5
EF7C88249
330
EF7C85532
100
AcDbEntity
  8
JISSEN
100
AcDbLine
 10
441.4025765439658
 20
53.82859436020996
 30
0.0
 11
386.7240930672031
 21
53.82859436020996
 31
0.0
  0
LINE
  5
EF7C8824A
330
EF7C85532
100
AcDbEntity
  8
JISSEN
100
AcDbLine
 10
383.2663300337732
 20
58.82859436020996
 30
0.0
 11
441.4650797239024
 21
58.82859436021003
 31
0.0
  0
HATCH
  5
EF7C8824B
330
EF7C85532
100
AcDbEntity
  8
HATCH
100
AcDbHatch
 10
0.0
 20
0.0
 30
0.0
210
0.0
220
0.0
230
1.0
  2
_U
 70
     0
 71
     0
 91
        2
 92
        7
 72
     0
 73
     1
 93
       13
 10
469.5000824609147
 20
58.82859436020993
 10
469.5000824609147
 20
53.82859436020996
 10
478.3500824609147
 20
53.82859436020996
 10
517.2741457188143
 20
53.82859436020996
 10
517.7144838242886
 20
54.89282544874143
 10
518.4276412111635
 20
55.68472840610318
 10
519.1226400201975
 20
56.17071648857054
 10
519.5253560643073
 20
56.44554492220876
 10
519.8915793532867
 20
56.73579599485888
 10
520.199466839946
 20
57.07391301852585
 10
520.4271754770939
 20
57.49233930521356
 10
520.5690808337741
 20
58.00895728197779
 10
520.7336680120241
 20
58.82859436020996
 97
        0
 92
        7
 72
     0
 73
     1
 93
       12
 10
383.2663300337732
 20
58.82859436020996
 10
383.4309172120232
 20
58.00895728197793
 10
383.5728225687033
 20
57.49233930521363
 10
383.8005312058513
 20
57.07391301852581
 10
384.1084186925106
 20
56.73579599485885
 10
384.4746419814903
 20
56.44554492220866
 10
385.2478037520103
 20
55.91791052211757
 10
385.9527153404606
 20
55.33133876333621
 10
386.4162888095037
 20
54.5767629040649
 10
386.7258523269828
 20
53.82859436020996
 10
434.5000824609146
 20
53.82859436020996
 10
434.5000824609146
 20
58.82859436021001
 97
        0
 75
     0
 76
     0
 52
45.0
 41
2.0
 77
     0
 78
     1
 53
45.0
 43
361.9999990228986
 44
-126.4999998003424
 45
-1.414213562373094
 46
1.414213562373094
 79
     0
 47
0.2346837798524018
 98
        2
 10
479.2263865127431
 20
56.68422619586559
 10
428.2585812190871
 20
57.38827724963667
  0
ARC
  5
EF7C8824C
330
EF7C85532
100
AcDbEntity
  8
JISSEN
100
AcDbCircle
 10
416.5000824609147
 20
53.50746408006606
 30
0.0
 40
1.0
100
AcDbArc
 50
180.0
 51
255.0000000000193
  0
LINE
  5
EF7C8824D
330
EF7C85532
100
AcDbEntity
  8
JISSEN
100
AcDbLine
 10
427.5313154609147
 20
43.82859436020996
 30
0.0
 11
428.0640098082971
 21
37.73986645967115
 31
0.0
  0
LINE
  5
EF7C8824E
330
EF7C85532
100
AcDbEntity
  8
JISSEN
100
AcDbLine
 10
427.7617584609147
 20
43.40803036020995
 30
0.0
 11
428.3495884609147
 21
37.94578136020996
 31
0.0
  0
LINE
  5
EF7C8824F
330
EF7C85532
100
AcDbEntity
  8
JISSEN
100
AcDbLine
 10
428.8765914609147
 20
37.88949236020997
 30
0.0
 11
428.2446604609146
 21
43.76153036020993
 31
0.0
  0
ARC
  5
EF7C88250
330
EF7C85532
100
AcDbEntity
  8
JISSEN
100
AcDbCircle
 10
429.5583018622366
 20
37.87059999604772
 30
0.0
 40
1.5
100
AcDbArc
 50
184.9999970190193
 51
244.8179069454202
  0
ARC
  5
EF7C88251
330
EF7C85532
100
AcDbEntity
  8
JISSEN
100
AcDbCircle
 10
429.7415514609147
 20
38.09558036020999
 30
0.0
 40
1.399999999999999
100
AcDbArc
 50
186.1423570000001
 51
245.1745949999998
  0
ARC
  5
EF7C88252
330
EF7C85532
100
AcDbEntity
  8
JISSEN
100
AcDbCircle
 10
430.1691274609146
 20
38.02859136020996
 30
0.0
 40
1.3
100
AcDbArc
 50
186.1423570000001
 51
245.1745949999998
  0
LINE
  5
EF7C88253
330
EF7C85532
100
AcDbEntity
  8
JISSEN
100
AcDbLine
 10
424.5000824609147
 20
50.32859436020996
 30
0.0
 11
416.2412634158124
 21
52.54153825377691
 31
0.0
  0
LINE
  5
EF7C88254
330
EF7C85532
100
AcDbEntity
  8
JISSEN
100
AcDbLine
 10
424.5000824609147
 20
46.32859436020996
 30
0.0
 11
424.5000824609147
 21
50.32859436020996
 31
0.0
  0
LINE
  5
EF7C88255
330
EF7C85532
100
AcDbEntity
  8
JISSEN
100
AcDbLine
 10
425.5000824609147
 20
46.32859436020996
 30
0.0
 11
426.5000824609145
 21
45.32859436020996
 31
0.0
  0
LINE
  5
EF7C88256
330
EF7C85532
100
AcDbEntity
  8
JISSEN
100
AcDbLine
 10
426.5000824609145
 20
45.32859436020996
 30
0.0
 11
427.4000824609147
 21
45.32859436020996
 31
0.0
  0
ARC
  5
EF7C88257
330
EF7C85532
100
AcDbEntity
  8
JISSEN
100
AcDbCircle
 10
428.1452344609147
 20
43.75083036020996
 30
0.0
 40
0.1
100
AcDbArc
 50
6.142357000000093
 51
87.28209800000021
  0
ARC
  5
EF7C88258
330
EF7C85532
100
AcDbEntity
  8
JISSEN
100
AcDbCircle
 10
428.1594614609145
 20
43.45083036020993
 30
0.0
 40
0.4
100
AcDbArc
 50
91.35885499999986
 51
186.1423570000001
  0
LINE
  5
EF7C88259
330
EF7C85532
100
AcDbEntity
  8
JISSEN
100
AcDbLine
 10
427.4000824609147
 20
45.32859436020996
 30
0.0
 11
427.5313154609147
 21
43.82859436020996
 31
0.0
  0
LWPOLYLINE
  5
EF7C8825A
330
EF7C85532
100
AcDbEntity
  8
HATCH
100
AcDbPolyline
 90
       13
 70
     0
 43
0.0
 10
383.2663300337732
 20
58.82859436020996
 10
383.4309172120232
 20
58.0089572819779
 10
383.5728225687035
 20
57.49233930521361
 10
383.8005312058513
 20
57.07391301852581
 10
384.1084186925106
 20
56.73579599485886
 10
384.47464198149
 20
56.44554492220876
 10
384.8773580255988
 20
56.17071648857129
 10
385.2947237776457
 20
55.87886738194228
 10
385.7048961904395
 20
55.53755429031756
 10
386.0860322167892
 20
55.11433390169319
 10
386.4162888095037
 20
54.5767629040649
 10
386.6908688727065
 20
53.91314411677743
 10
386.7240930672031
 20
53.82859436020996
  0
LINE
  5
EF7C8825B
330
EF7C85532
100
AcDbEntity
  8
JISSEN
100
AcDbLine
 10
415.5000824609147
 20
53.50746408006606
 30
0.0
 11
415.5000824609147
 21
53.82859436020996
 31
0.0
  0
ARC
  5
EF7C8825C
330
EF7C85532
100
AcDbEntity
  8
JISSEN
100
AcDbCircle
 10
487.5000824609148
 20
53.50746408006606
 30
0.0
 40
1.0
100
AcDbArc
 50
284.9999999999806
 51
0.000000000000007
  0
LINE
  5
EF7C8825D
330
EF7C85532
100
AcDbEntity
  8
SUNPOU
100
AcDbLine
 10
483.6294919834656
 20
51.43506630699342
 30
0.0
 11
506.0577261226393
 21
26.03342866851582
 31
0.0
  0
CIRCLE
  5
EF7C8825E
330
EF7C85532
100
AcDbEntity
  8
SUNPOU
100
AcDbCircle
 10
490.0289514894891
 20
21.53572157648671
 30
0.0
 40
6.0
  0
LINE
  5
EF7C8825F
330
EF7C85532
100
AcDbEntity
  8
JISSEN
100
AcDbLine
 10
479.5000824609148
 20
50.32859436020996
 30
0.0
 11
487.7589015060168
 21
52.54153825377691
 31
0.0
  0
TEXT
  5
EF7C88260
330
EF7C85532
100
AcDbEntity
  8
SUNPOU
100
AcDbText
 10
481.6392349914103
 20
1.66525979573248
 30
0.0
 40
3.0
  1
尺度　1/1
  7
K
100
AcDbText
  0
TEXT
  5
EF7C88261
330
EF7C85532
100
AcDbEntity
  8
SUNPOU
100
AcDbText
 10
481.6392349914103
 20
6.665259795732481
 30
0.0
 40
3.0
  1
MFJ   シーリングプレート作動状態
  7
K
100
AcDbText
  0
LINE
  5
EF7C88262
330
EF7C85532
100
AcDbEntity
  8
JISSEN
100
AcDbLine
 10
478.5000824609148
 20
46.32859436020996
 30
0.0
 11
453.0000824609147
 21
46.32859436020996
 31
0.0
  0
LINE
  5
EF7C88263
330
EF7C85532
100
AcDbEntity
  8
JISSEN
100
AcDbLine
 10
477.5000824609147
 20
45.32859436020996
 30
0.0
 11
452.0000824609147
 21
45.32859436020996
 31
0.0
  0
ARC
  5
EF7C88264
330
EF7C85532
100
AcDbEntity
  8
JISSEN
100
AcDbCircle
 10
458.3100124609146
 20
36.23171536020996
 30
0.0
 40
0.2
100
AcDbArc
 50
143.1028380000001
 51
270.0
  0
LINE
  5
EF7C8826E
330
EF7C85532
100
AcDbEntity
  8
JISSEN
100
AcDbLine
 10
452.0000824609147
 20
32.49271203787069
 30
0.0
 11
466.5292854775164
 21
32.49271203787046
 31
0.0
1001
ACAD
1000
ASC_BOUNDS
1002
{
1070
    19
1002
}
  0
LINE
  5
EF7C88294
330
EF7C85532
100
AcDbEntity
  8
JISSEN
100
AcDbLine
 10
444.8189164609146
 20
43.82859436020996
 30
0.0
 11
442.5039254609147
 21
43.82859436020996
 31
0.0
  0
LINE
  5
EF7C88295
330
EF7C85532
100
AcDbEntity
  8
JISSEN
100
AcDbLine
 10
443.1436734609148
 20
37.13549336020999
 30
0.0
 11
445.2770064609146
 21
37.13549336020999
 31
0.0
  0
LINE
  5
EF7C88296
330
EF7C85532
100
AcDbEntity
  8
JISSEN
100
AcDbLine
 10
443.4212234609146
 20
36.03171536020997
 30
0.0
 11
445.6901524609147
 21
36.03171536020997
 31
0.0
  0
LINE
  5
EF7C88297
330
EF7C85532
100
AcDbEntity
  8
JISSEN
100
AcDbLine
 10
452.0000824609147
 20
32.49271203787069
 30
0.0
 11
437.4708794443129
 21
32.49271203787046
 31
0.0
1001
ACAD
1000
ASC_BOUNDS
1002
{
1070
    19
1002
}
  0
LINE
  5
EF7C88298
330
EF7C85532
100
AcDbEntity
  8
JISSEN
100
AcDbLine
 10
437.3790614609147
 20
43.64260836020995
 30
0.0
 11
437.8228684609147
 21
37.32434236020995
 31
0.0
  0
LINE
  5
EF7C88299
330
EF7C85532
100
AcDbEntity
  8
JISSEN
100
AcDbLine
 10
442.6298774609147
 20
43.56989336020999
 30
0.0
 11
442.8438554609146
 21
37.42505336020993
 31
0.0
  0
LINE
  5
EF7C8829A
330
EF7C85532
100
AcDbEntity
  8
JISSEN
100
AcDbLine
 10
442.2041354609148
 20
43.51738936020999
 30
0.0
 11
442.4309694609148
 21
37.44824136021
 31
0.0
  0
LINE
  5
EF7C8829B
330
EF7C85532
100
AcDbEntity
  8
JISSEN
100
AcDbLine
 10
435.8938424609148
 20
43.50900236020996
 30
0.0
 11
436.2864854609147
 21
37.50937136020992
 31
0.0
  0
LINE
  5
EF7C8829C
330
EF7C85532
100
AcDbEntity
  8
JISSEN
100
AcDbLine
 10
435.4982054609147
 20
37.70203936020996
 30
0.0
 11
435.0941714609147
 21
43.45406936020995
 31
0.0
  0
LINE
  5
EF7C8829D
330
EF7C85532
100
AcDbEntity
  8
JISSEN
100
AcDbLine
 10
432.0942734609146
 20
37.40614436020992
 30
0.0
 11
431.5261654609146
 21
43.64672636020995
 31
0.0
  0
LINE
  5
EF7C8829E
330
EF7C85532
100
AcDbEntity
  8
JISSEN
100
AcDbLine
 10
430.0269204609147
 20
43.39090736020998
 30
0.0
 11
430.5526224609146
 21
37.83596136020995
 31
0.0
  0
LINE
  5
EF7C8829F
330
EF7C85532
100
AcDbEntity
  8
JISSEN
100
AcDbLine
 10
431.0893414609147
 20
43.61102736020998
 30
0.0
 11
431.6200954609146
 21
37.59157736020997
 31
0.0
  0
LINE
  5
EF7C882A0
330
EF7C85532
100
AcDbEntity
  8
JISSEN
100
AcDbLine
 10
436.6856314609147
 20
37.13549336020999
 30
0.0
 11
437.8857834609148
 21
37.13549336020999
 31
0.0
  0
LINE
  5
EF7C882A1
330
EF7C85532
100
AcDbEntity
  8
JISSEN
100
AcDbLine
 10
437.0044294609146
 20
36.09616336021
 30
0.0
 11
436.0013634609146
 21
36.80708536020997
 31
0.0
  0
LINE
  5
EF7C882A2
330
EF7C85532
100
AcDbEntity
  8
JISSEN
100
AcDbLine
 10
433.8588074609146
 20
36.22021736021
 30
0.0
 11
432.3594324609146
 21
37.00896736020999
 31
0.0
  0
LINE
  5
EF7C882A3
330
EF7C85532
100
AcDbEntity
  8
JISSEN
100
AcDbLine
 10
431.2416064609147
 20
36.80792336020997
 30
0.0
 11
432.6297054609146
 21
36.07771036020997
 31
0.0
  0
LINE
  5
EF7C882A4
330
EF7C85532
100
AcDbEntity
  8
JISSEN
100
AcDbLine
 10
432.8159314609147
 20
36.03171536020997
 30
0.0
 11
433.8122504609146
 21
36.03171536020997
 31
0.0
  0
ARC
  5
EF7C882A5
330
EF7C85532
100
AcDbEntity
  8
JISSEN
100
AcDbCircle
 10
432.8159314609147
 20
36.43171536020995
 30
0.0
 40
0.4
100
AcDbArc
 50
242.253262
 51
270.0
  0
ARC
  5
EF7C882A6
330
EF7C85532
100
AcDbEntity
  8
JISSEN
100
AcDbCircle
 10
431.0405084609146
 20
37.05395236020999
 30
0.0
 40
1.0
100
AcDbArc
 50
245.1745949999998
 51
270.0
  0
LINE
  5
EF7C882A7
330
EF7C85532
100
AcDbEntity
  8
JISSEN
100
AcDbLine
 10
431.0405084609146
 20
36.05395236020999
 30
0.0
 11
431.1141834609146
 21
36.05395236020999
 31
0.0
  0
ARC
  5
EF7C882A8
330
EF7C85532
100
AcDbEntity
  8
JISSEN
100
AcDbCircle
 10
431.1141834609146
 20
36.10395236020993
 30
0.0
 40
0.05
100
AcDbArc
 50
270.0
 51
65.17459499999985
  0
ARC
  5
EF7C882A9
330
EF7C85532
100
AcDbEntity
  8
JISSEN
100
AcDbCircle
 10
433.8122504609146
 20
36.13171536020999
 30
0.0
 40
0.1
100
AcDbArc
 50
270.0
 51
62.25326200000021
  0
ARC
  5
EF7C882AA
330
EF7C85532
100
AcDbEntity
  8
JISSEN
100
AcDbCircle
 10
432.5922144609147
 20
37.45147436020997
 30
0.0
 40
0.5
100
AcDbArc
 50
185.2015590000002
 51
242.253262
  0
ARC
  5
EF7C882AB
330
EF7C85532
100
AcDbEntity
  8
JISSEN
100
AcDbCircle
 10
431.8468394609147
 20
37.95844236021
 30
0.0
 40
1.3
100
AcDbArc
 50
185.4061850000002
 51
242.253262
  0
ARC
  5
EF7C882AC
330
EF7C85532
100
AcDbEntity
  8
JISSEN
100
AcDbCircle
 10
432.1181634609146
 20
37.63549336021
 30
0.0
 40
0.5
100
AcDbArc
 50
185.0389269999999
 51
279.3495549999998
  0
ARC
  5
EF7C882AD
330
EF7C85532
100
AcDbEntity
  8
JISSEN
100
AcDbCircle
 10
436.6952554609146
 20
37.78612236020999
 30
0.0
 40
1.199999999999999
100
AcDbArc
 50
184.0179690000003
 51
234.6729319999998
  0
ARC
  5
EF7C882AE
330
EF7C85532
100
AcDbEntity
  8
JISSEN
100
AcDbCircle
 10
436.6856314609147
 20
37.53549336020997
 30
0.0
 40
0.4
100
AcDbArc
 50
183.7443620000003
 51
270.0
  0
LINE
  5
EF7C882AF
330
EF7C85532
100
AcDbEntity
  8
JISSEN
100
AcDbLine
 10
442.6305574609147
 20
36.88520936020998
 30
0.0
 11
443.1813084609149
 21
36.15160136020997
 31
0.0
  0
LINE
  5
EF7C882B0
330
EF7C85532
100
AcDbEntity
  8
JISSEN
100
AcDbLine
 10
437.9905884609146
 20
37.02602436020995
 30
0.0
 11
439.0091834609147
 21
36.30409536020997
 31
0.0
  0
ARC
  5
EF7C882B1
330
EF7C85532
100
AcDbEntity
  8
JISSEN
100
AcDbCircle
 10
438.9224474609147
 20
36.18171536020993
 30
0.0
 40
0.15
100
AcDbArc
 50
270.0
 51
54.67293199999994
  0
ARC
  5
EF7C882B2
330
EF7C85532
100
AcDbEntity
  8
JISSEN
100
AcDbCircle
 10
437.2068144609147
 20
36.38171536020999
 30
0.0
 40
0.35
100
AcDbArc
 50
234.6729319999998
 51
270.0
  0
LINE
  5
EF7C882B3
330
EF7C85532
100
AcDbEntity
  8
JISSEN
100
AcDbLine
 10
438.9224474609147
 20
36.03171536020997
 30
0.0
 11
437.2068144609147
 21
36.03171536020997
 31
0.0
  0
ARC
  5
EF7C882B4
330
EF7C85532
100
AcDbEntity
  8
JISSEN
100
AcDbCircle
 10
443.4212234609146
 20
36.33171536020997
 30
0.0
 40
0.3
100
AcDbArc
 50
216.8971619999997
 51
270.0
  0
ARC
  5
EF7C882B5
330
EF7C85532
100
AcDbEntity
  8
JISSEN
100
AcDbCircle
 10
438.2218854609146
 20
37.35237036020996
 30
0.0
 40
0.4
100
AcDbArc
 50
184.0179690000003
 51
234.6729319999998
  0
ARC
  5
EF7C882B6
330
EF7C85532
100
AcDbEntity
  8
JISSEN
100
AcDbCircle
 10
443.1436734609148
 20
37.43549336020996
 30
0.0
 40
0.3
100
AcDbArc
 50
181.994368
 51
270.0
  0
ARC
  5
EF7C882B7
330
EF7C85532
100
AcDbEntity
  8
JISSEN
100
AcDbCircle
 10
443.4302714609148
 20
37.48559036020995
 30
0.0
 40
1.0
100
AcDbArc
 50
182.1404319999997
 51
216.8971619999997
  0
LINE
  5
EF7C882B8
330
EF7C85532
100
AcDbEntity
  8
JISSEN
100
AcDbLine
 10
436.1932014609147
 20
43.82859436020996
 30
0.0
 11
437.1795524609146
 21
43.82859436020996
 31
0.0
  0
ARC
  5
EF7C882B9
330
EF7C85532
100
AcDbEntity
  8
JISSEN
100
AcDbCircle
 10
431.3269884609146
 20
43.62859436020997
 30
0.0
 40
0.2
100
AcDbArc
 50
5.201559000000191
 51
90.0
  0
LINE
  5
EF7C882BA
330
EF7C85532
100
AcDbEntity
  8
JISSEN
100
AcDbLine
 10
431.3269884609146
 20
43.82859436020996
 30
0.0
 11
430.4251414609146
 21
43.82859436020996
 31
0.0
  0
ARC
  5
EF7C882BB
330
EF7C85532
100
AcDbEntity
  8
JISSEN
100
AcDbCircle
 10
430.4251414609146
 20
43.42859436020997
 30
0.0
 40
0.4
100
AcDbArc
 50
90.0
 51
185.4061850000002
  0
ARC
  5
EF7C882BC
330
EF7C85532
100
AcDbEntity
  8
JISSEN
100
AcDbCircle
 10
431.2885684609146
 20
43.62859436020997
 30
0.0
 40
0.2
100
AcDbArc
 50
90.0
 51
185.0389269999999
  0
ARC
  5
EF7C882BD
330
EF7C85532
100
AcDbEntity
  8
JISSEN
100
AcDbCircle
 10
436.1932014609147
 20
43.52859436020994
 30
0.0
 40
0.3
100
AcDbArc
 50
90.0
 51
183.7443620000003
  0
ARC
  5
EF7C882BE
330
EF7C85532
100
AcDbEntity
  8
JISSEN
100
AcDbCircle
 10
435.4433104609147
 20
43.47859436020994
 30
0.0
 40
0.35
100
AcDbArc
 50
90.0
 51
184.0179690000003
  0
LINE
  5
EF7C882BF
330
EF7C85532
100
AcDbEntity
  8
JISSEN
100
AcDbLine
 10
435.4433104609147
 20
43.82859436020996
 30
0.0
 11
436.1932014609147
 21
43.82859436020996
 31
0.0
  0
ARC
  5
EF7C882C0
330
EF7C85532
100
AcDbEntity
  8
JISSEN
100
AcDbCircle
 10
437.1795524609146
 20
43.62859436020997
 30
0.0
 40
0.2
100
AcDbArc
 50
4.017969000000318
 51
90.0
  0
ARC
  5
EF7C882C1
330
EF7C85532
100
AcDbEntity
  8
JISSEN
100
AcDbCircle
 10
442.8797254609147
 20
43.57859436020996
 30
0.0
 40
0.25
100
AcDbArc
 50
90.0
 51
181.994368
  0
ARC
  5
EF7C882C2
330
EF7C85532
100
AcDbEntity
  8
JISSEN
100
AcDbCircle
 10
442.5039254609147
 20
43.52859436020994
 30
0.0
 40
0.3
100
AcDbArc
 50
90.0
 51
182.1404319999997
  0
LINE
  5
EF7C882C3
330
EF7C85532
100
AcDbEntity
  8
JISSEN
100
AcDbLine
 10
450.5000824609147
 20
43.32859436020996
 30
0.0
 11
450.5000824609147
 21
36.53171536020997
 31
0.0
  0
LINE
  5
EF7C882C4
330
EF7C85532
100
AcDbEntity
  8
JISSEN
100
AcDbLine
 10
445.2582294609148
 20
37.22931836020999
 30
0.0
 11
445.0187774609147
 21
43.63606436020997
 31
0.0
  0
LINE
  5
EF7C882C5
330
EF7C85532
100
AcDbEntity
  8
JISSEN
100
AcDbLine
 10
453.5000824609148
 20
43.32859436020996
 30
0.0
 11
453.5000824609148
 21
36.53171536020997
 31
0.0
  0
LINE
  5
EF7C882C6
330
EF7C85532
100
AcDbEntity
  8
JISSEN
100
AcDbLine
 10
451.0000824609146
 20
37.13549336020999
 30
0.0
 11
452.0000824609147
 21
37.13549336020999
 31
0.0
  0
LINE
  5
EF7C882C7
330
EF7C85532
100
AcDbEntity
  8
JISSEN
100
AcDbLine
 10
452.0000824609147
 20
36.03171536020997
 30
0.0
 11
451.0000824609146
 21
36.03171536020997
 31
0.0
  0
ARC
  5
EF7C882C8
330
EF7C85532
100
AcDbEntity
  8
JISSEN
100
AcDbCircle
 10
451.0000824609146
 20
36.53171536020997
 30
0.0
 40
0.5
100
AcDbArc
 50
180.0
 51
270.0
  0
LINE
  5
EF7C882C9
330
EF7C85532
100
AcDbEntity
  8
JISSEN
100
AcDbLine
 10
445.8500954609148
 20
36.35179236021
 30
0.0
 11
445.3181054609149
 21
37.06040836020993
 31
0.0
  0
ARC
  5
EF7C882CA
330
EF7C85532
100
AcDbEntity
  8
JISSEN
100
AcDbCircle
 10
445.6901524609147
 20
36.23171536020996
 30
0.0
 40
0.2
100
AcDbArc
 50
270.0
 51
36.89716199999973
  0
ARC
  5
EF7C882CB
330
EF7C85532
100
AcDbEntity
  8
JISSEN
100
AcDbCircle
 10
445.5580204609146
 20
37.24052236020995
 30
0.0
 40
0.3
100
AcDbArc
 50
182.1404319999997
 51
216.8971619999997
  0
ARC
  5
EF7C882CC
330
EF7C85532
100
AcDbEntity
  8
JISSEN
100
AcDbCircle
 10
451.0000824609146
 20
37.63549336021
 30
0.0
 40
0.5
100
AcDbArc
 50
180.0
 51
270.0
  0
ARC
  5
EF7C882CD
330
EF7C85532
100
AcDbEntity
  8
JISSEN
100
AcDbCircle
 10
453.0000824609147
 20
36.53171536020997
 30
0.0
 40
0.5
100
AcDbArc
 50
270.0
 51
0.000000000000007
  0
LINE
  5
EF7C882CE
330
EF7C85532
100
AcDbEntity
  8
JISSEN
100
AcDbLine
 10
452.0000824609147
 20
36.03171536020997
 30
0.0
 11
453.0000824609147
 21
36.03171536020997
 31
0.0
  0
ARC
  5
EF7C882CF
330
EF7C85532
100
AcDbEntity
  8
JISSEN
100
AcDbCircle
 10
453.0000824609147
 20
37.63549336021
 30
0.0
 40
0.5
100
AcDbArc
 50
270.0
 51
0.000000000000007
  0
LINE
  5
EF7C882D0
330
EF7C85532
100
AcDbEntity
  8
JISSEN
100
AcDbLine
 10
453.0000824609147
 20
37.13549336020999
 30
0.0
 11
452.0000824609147
 21
37.13549336020999
 31
0.0
  0
LINE
  5
EF7C882D1
330
EF7C85532
100
AcDbEntity
  8
JISSEN
100
AcDbLine
 10
452.0000824609147
 20
43.82859436020996
 30
0.0
 11
451.0000824609146
 21
43.82859436020996
 31
0.0
  0
ARC
  5
EF7C882D2
330
EF7C85532
100
AcDbEntity
  8
JISSEN
100
AcDbCircle
 10
452.0000824609147
 20
46.32859436020996
 30
0.0
 40
1.0
100
AcDbArc
 50
180.0
 51
270.0
  0
ARC
  5
EF7C882D3
330
EF7C85532
100
AcDbEntity
  8
JISSEN
100
AcDbCircle
 10
444.8189164609146
 20
43.62859436020997
 30
0.0
 40
0.2
100
AcDbArc
 50
2.140431999999735
 51
90.0
  0
ARC
  5
EF7C882D4
330
EF7C85532
100
AcDbEntity
  8
JISSEN
100
AcDbCircle
 10
451.0000824609146
 20
43.32859436020996
 30
0.0
 40
0.5
100
AcDbArc
 50
90.0
 51
180.0
  0
ARC
  5
EF7C882D5
330
EF7C85532
100
AcDbEntity
  8
JISSEN
100
AcDbCircle
 10
453.0000824609147
 20
43.32859436020996
 30
0.0
 40
0.5
100
AcDbArc
 50
0.000000000000007
 51
90.0
  0
LINE
  5
EF7C882D6
330
EF7C85532
100
AcDbEntity
  8
JISSEN
100
AcDbLine
 10
452.0000824609147
 20
43.82859436020996
 30
0.0
 11
453.0000824609147
 21
43.82859436020996
 31
0.0
  0
ARC
  5
EF7C882D7
330
EF7C85532
100
AcDbEntity
  8
JISSEN
100
AcDbCircle
 10
452.0000824609147
 20
46.32859436020996
 30
0.0
 40
1.0
100
AcDbArc
 50
270.0
 51
0.000000000000007
  0
LINE
  5
EF7C882D8
330
EF7C85532
100
AcDbEntity
  8
SUNPOU
100
AcDbLine
 10
470.7919867821352
 20
34.49696000872569
 30
0.0
 11
485.0530169380053
 21
24.88834373523826
 31
0.0
  0
INSERT
  5
EF7C882E7
330
EF7C85532
100
AcDbEntity
  8
SUNPOU
100
AcDbBlockReference
  2
ARROW
 10
470.7919867821352
 20
34.49696000872569
 30
0.0
 41
1.499999999999995
 42
1.5
 43
1.5
 50
146.0291974830132
  0
ARC
  5
EF7C882E8
330
EF7C85532
100
AcDbEntity
  8
JISSEN
100
AcDbCircle
 10
471.8820014609146
 20
37.63549336021
 30
0.0
 40
0.5
100
AcDbArc
 50
260.650445
 51
354.9610729999998
  0
LINE
  5
EF7C882E9
330
EF7C85532
100
AcDbEntity
  8
JISSEN
100
AcDbLine
 10
472.7585584609147
 20
36.80792336020997
 30
0.0
 11
471.3704594609146
 21
36.07771036020997
 31
0.0
  0
LINE
  5
EF7C882EA
330
EF7C85532
100
AcDbEntity
  8
JISSEN
100
AcDbLine
 10
466.5292854775164
 20
32.49271203787046
 30
0.0
 11
475.0801077803583
 21
36.51315987714204
 31
0.0
1001
ACAD
1000
ASC_BOUNDS
1002
{
1070
    19
1002
}
  0
LINE
  5
EF7C882EB
330
EF7C85532
100
AcDbEntity
  8
JISSEN
100
AcDbLine
 10
471.9058914609147
 20
37.40614436020992
 30
0.0
 11
472.4739994609146
 21
43.64672636020995
 31
0.0
  0
LINE
  5
EF7C882EC
330
EF7C85532
100
AcDbEntity
  8
JISSEN
100
AcDbLine
 10
468.5019594609147
 20
37.70203936020996
 30
0.0
 11
468.9059934609145
 21
43.45406936020995
 31
0.0
  0
LINE
  5
EF7C882ED
330
EF7C85532
100
AcDbEntity
  8
JISSEN
100
AcDbLine
 10
468.1063224609146
 20
43.50900236020996
 30
0.0
 11
467.7136794609147
 21
37.50937136020992
 31
0.0
  0
LINE
  5
EF7C882EE
330
EF7C85532
100
AcDbEntity
  8
JISSEN
100
AcDbLine
 10
461.7960294609146
 20
43.51738936020999
 30
0.0
 11
461.5691954609148
 21
37.44824136021
 31
0.0
  0
LINE
  5
EF7C882EF
330
EF7C85532
100
AcDbEntity
  8
JISSEN
100
AcDbLine
 10
461.3702874609145
 20
43.56989336020999
 30
0.0
 11
461.1563094609147
 21
37.42505336020993
 31
0.0
  0
LINE
  5
EF7C882F0
330
EF7C85532
100
AcDbEntity
  8
JISSEN
100
AcDbLine
 10
466.6211034609147
 20
43.64260836020995
 30
0.0
 11
466.1772964609147
 21
37.32434236020995
 31
0.0
  0
LINE
  5
EF7C882F1
330
EF7C85532
100
AcDbEntity
  8
JISSEN
100
AcDbLine
 10
458.7419354609147
 20
37.22931836020999
 30
0.0
 11
458.9813874609148
 21
43.63606436020997
 31
0.0
  0
LINE
  5
EF7C882F2
330
EF7C85532
100
AcDbEntity
  8
JISSEN
100
AcDbLine
 10
465.0777174609147
 20
36.03171536020997
 30
0.0
 11
466.7933504609147
 21
36.03171536020997
 31
0.0
  0
LINE
  5
EF7C882F3
330
EF7C85532
100
AcDbEntity
  8
JISSEN
100
AcDbLine
 10
466.0095764609145
 20
37.02602436020995
 30
0.0
 11
464.9909814609148
 21
36.30409536020997
 31
0.0
  0
LINE
  5
EF7C882F4
330
EF7C85532
100
AcDbEntity
  8
JISSEN
100
AcDbLine
 10
461.3696074609146
 20
36.88520936020998
 30
0.0
 11
460.8188564609147
 21
36.15160136020997
 31
0.0
  0
LINE
  5
EF7C882F5
330
EF7C85532
100
AcDbEntity
  8
JISSEN
100
AcDbLine
 10
458.1500694609148
 20
36.35179236021
 30
0.0
 11
458.6820594609147
 21
37.06040836020993
 31
0.0
  0
ARC
  5
EF7C882F6
330
EF7C85532
100
AcDbEntity
  8
JISSEN
100
AcDbCircle
 10
460.5789414609146
 20
36.33171536020997
 30
0.0
 40
0.3
100
AcDbArc
 50
270.0
 51
323.1028380000003
  0
LINE
  5
EF7C882F7
330
EF7C85532
100
AcDbEntity
  8
JISSEN
100
AcDbLine
 10
460.5789414609146
 20
36.03171536020997
 30
0.0
 11
458.3100124609146
 21
36.03171536020997
 31
0.0
  0
ARC
  5
EF7C882F8
330
EF7C85532
100
AcDbEntity
  8
JISSEN
100
AcDbCircle
 10
465.0777174609147
 20
36.18171536020993
 30
0.0
 40
0.15
100
AcDbArc
 50
125.3270679999999
 51
270.0
  0
ARC
  5
EF7C882F9
330
EF7C85532
100
AcDbEntity
  8
JISSEN
100
AcDbCircle
 10
460.5698934609146
 20
37.48559036020995
 30
0.0
 40
1.0
100
AcDbArc
 50
323.1028380000003
 51
357.8595680000001
  0
ARC
  5
EF7C882FA
330
EF7C85532
100
AcDbEntity
  8
JISSEN
100
AcDbCircle
 10
460.8564914609146
 20
37.43549336020996
 30
0.0
 40
0.3
100
AcDbArc
 50
270.0
 51
358.0056319999998
  0
ARC
  5
EF7C882FB
330
EF7C85532
100
AcDbEntity
  8
JISSEN
100
AcDbCircle
 10
458.4421444609146
 20
37.24052236020995
 30
0.0
 40
0.3
100
AcDbArc
 50
323.1028380000003
 51
357.8595680000001
  0
LINE
  5
EF7C882FC
330
EF7C85532
100
AcDbEntity
  8
JISSEN
100
AcDbLine
 10
460.8564914609146
 20
37.13549336020999
 30
0.0
 11
458.7231584609146
 21
37.13549336020999
 31
0.0
  0
LINE
  5
EF7C882FD
330
EF7C85532
100
AcDbEntity
  8
JISSEN
100
AcDbLine
 10
470.1413574609146
 20
36.22021736021
 30
0.0
 11
471.6407324609146
 21
37.00896736020999
 31
0.0
  0
LINE
  5
EF7C882FE
330
EF7C85532
100
AcDbEntity
  8
JISSEN
100
AcDbLine
 10
466.9957354609147
 20
36.09616336021
 30
0.0
 11
467.9988014609147
 21
36.80708536020997
 31
0.0
  0
ARC
  5
EF7C882FF
330
EF7C85532
100
AcDbEntity
  8
JISSEN
100
AcDbCircle
 10
466.7933504609147
 20
36.38171536020999
 30
0.0
 40
0.35
100
AcDbArc
 50
270.0
 51
305.327068
  0
LINE
  5
EF7C88300
330
EF7C85532
100
AcDbEntity
  8
JISSEN
100
AcDbLine
 10
471.1842334609147
 20
36.03171536020997
 30
0.0
 11
470.1879144609146
 21
36.03171536020997
 31
0.0
  0
ARC
  5
EF7C88301
330
EF7C85532
100
AcDbEntity
  8
JISSEN
100
AcDbCircle
 10
471.1842334609147
 20
36.43171536020995
 30
0.0
 40
0.4
100
AcDbArc
 50
270.0
 51
297.7467379999998
  0
ARC
  5
EF7C88302
330
EF7C85532
100
AcDbEntity
  8
JISSEN
100
AcDbCircle
 10
470.1879144609146
 20
36.13171536020999
 30
0.0
 40
0.1
100
AcDbArc
 50
117.7467379999998
 51
270.0
  0
ARC
  5
EF7C88303
330
EF7C85532
100
AcDbEntity
  8
JISSEN
100
AcDbCircle
 10
467.3145334609146
 20
37.53549336020997
 30
0.0
 40
0.4
100
AcDbArc
 50
270.0
 51
356.2556379999997
  0
ARC
  5
EF7C88304
330
EF7C85532
100
AcDbEntity
  8
JISSEN
100
AcDbCircle
 10
467.3049094609146
 20
37.78612236020999
 30
0.0
 40
1.199999999999999
100
AcDbArc
 50
305.327068
 51
355.9820309999997
  0
ARC
  5
EF7C88305
330
EF7C85532
100
AcDbEntity
  8
JISSEN
100
AcDbCircle
 10
465.7782794609146
 20
37.35237036020996
 30
0.0
 40
0.4
100
AcDbArc
 50
305.327068
 51
355.9820309999997
  0
LINE
  5
EF7C88306
330
EF7C85532
100
AcDbEntity
  8
JISSEN
100
AcDbLine
 10
467.3145334609146
 20
37.13549336020999
 30
0.0
 11
466.1143814609146
 21
37.13549336020999
 31
0.0
  0
ARC
  5
EF7C88307
330
EF7C85532
100
AcDbEntity
  8
JISSEN
100
AcDbCircle
 10
471.4079504609148
 20
37.45147436020997
 30
0.0
 40
0.5
100
AcDbArc
 50
297.7467379999998
 51
354.7984409999998
  0
ARC
  5
EF7C88308
330
EF7C85532
100
AcDbEntity
  8
JISSEN
100
AcDbCircle
 10
461.4962394609147
 20
43.52859436020994
 30
0.0
 40
0.3
100
AcDbArc
 50
357.8595680000001
 51
90.0
  0
ARC
  5
EF7C88309
330
EF7C85532
100
AcDbEntity
  8
JISSEN
100
AcDbCircle
 10
461.1204394609146
 20
43.57859436020996
 30
0.0
 40
0.25
100
AcDbArc
 50
358.0056319999998
 51
90.0
  0
ARC
  5
EF7C8830A
330
EF7C85532
100
AcDbEntity
  8
JISSEN
100
AcDbCircle
 10
459.1812484609146
 20
43.62859436020997
 30
0.0
 40
0.2
100
AcDbArc
 50
90.0
 51
177.8595680000002
  0
LINE
  5
EF7C8830B
330
EF7C85532
100
AcDbEntity
  8
JISSEN
100
AcDbLine
 10
459.1812484609146
 20
43.82859436020996
 30
0.0
 11
461.4962394609147
 21
43.82859436020996
 31
0.0
  0
ARC
  5
EF7C8830C
330
EF7C85532
100
AcDbEntity
  8
JISSEN
100
AcDbCircle
 10
468.5568544609147
 20
43.47859436020994
 30
0.0
 40
0.35
100
AcDbArc
 50
355.9820309999997
 51
90.0
  0
LINE
  5
EF7C8830D
330
EF7C85532
100
AcDbEntity
  8
JISSEN
100
AcDbLine
 10
468.5568544609147
 20
43.82859436020996
 30
0.0
 11
467.8069634609147
 21
43.82859436020996
 31
0.0
  0
ARC
  5
EF7C8830E
330
EF7C85532
100
AcDbEntity
  8
JISSEN
100
AcDbCircle
 10
467.8069634609147
 20
43.52859436020994
 30
0.0
 40
0.3
100
AcDbArc
 50
356.2556379999997
 51
90.0
  0
ARC
  5
EF7C8830F
330
EF7C85532
100
AcDbEntity
  8
JISSEN
100
AcDbCircle
 10
466.8206124609146
 20
43.62859436020997
 30
0.0
 40
0.2
100
AcDbArc
 50
90.0
 51
175.9820309999995
  0
LINE
  5
EF7C88310
330
EF7C85532
100
AcDbEntity
  8
JISSEN
100
AcDbLine
 10
467.8069634609147
 20
43.82859436020996
 30
0.0
 11
466.8206124609146
 21
43.82859436020996
 31
0.0
  0
LINE
  5
EF7C88311
330
EF7C85532
100
AcDbEntity
  8
JISSEN
100
AcDbLine
 10
475.1235734609147
 20
37.88949236020997
 30
0.0
 11
475.7555044609146
 21
43.76153036020993
 31
0.0
  0
LINE
  5
EF7C88312
330
EF7C85532
100
AcDbEntity
  8
JISSEN
100
AcDbLine
 10
476.2384064609147
 20
43.40803036020995
 30
0.0
 11
475.6505764609147
 21
37.94578136020996
 31
0.0
  0
LINE
  5
EF7C88313
330
EF7C85532
100
AcDbEntity
  8
JISSEN
100
AcDbLine
 10
476.4688494609147
 20
43.82859436020996
 30
0.0
 11
475.9361551135322
 21
37.73986645967115
 31
0.0
  0
LINE
  5
EF7C88314
330
EF7C85532
100
AcDbEntity
  8
JISSEN
100
AcDbLine
 10
472.9108234609147
 20
43.61102736020998
 30
0.0
 11
472.3800694609145
 21
37.59157736020997
 31
0.0
  0
LINE
  5
EF7C88315
330
EF7C85532
100
AcDbEntity
  8
JISSEN
100
AcDbLine
 10
473.9732444609146
 20
43.39090736020998
 30
0.0
 11
473.4475424609146
 21
37.83596136020995
 31
0.0
  0
ARC
  5
EF7C88316
330
EF7C85532
100
AcDbEntity
  8
JISSEN
100
AcDbCircle
 10
474.4418630595928
 20
37.87059999604771
 30
0.0
 40
1.5
100
AcDbArc
 50
295.1820930545796
 51
355.0000029809806
  0
LINE
  5
EF7C88317
330
EF7C85532
100
AcDbEntity
  8
JISSEN
100
AcDbLine
 10
474.8464094609146
 20
36.82495236020995
 30
0.0
 11
473.3795114609146
 21
36.14636036020996
 31
0.0
  0
LINE
  5
EF7C88318
330
EF7C85532
100
AcDbEntity
  8
JISSEN
100
AcDbLine
 10
472.8649894609146
 20
36.14933136020997
 30
0.0
 11
474.3768484609146
 21
36.84872236020996
 31
0.0
  0
ARC
  5
EF7C88319
330
EF7C85532
100
AcDbEntity
  8
JISSEN
100
AcDbCircle
 10
472.8859814609148
 20
36.10395236020993
 30
0.0
 40
0.05
100
AcDbArc
 50
114.825405
 51
270.0
  0
LINE
  5
EF7C8831A
330
EF7C85532
100
AcDbEntity
  8
JISSEN
100
AcDbLine
 10
472.9596564609146
 20
36.05395236020999
 30
0.0
 11
472.8859814609148
 21
36.05395236020999
 31
0.0
  0
ARC
  5
EF7C8831B
330
EF7C85532
100
AcDbEntity
  8
JISSEN
100
AcDbCircle
 10
472.9596564609146
 20
37.05395236020999
 30
0.0
 40
1.0
100
AcDbArc
 50
270.0
 51
294.825405
  0
ARC
  5
EF7C8831C
330
EF7C85532
100
AcDbEntity
  8
JISSEN
100
AcDbCircle
 10
473.8310374609148
 20
38.02859136020996
 30
0.0
 40
1.3
100
AcDbArc
 50
294.825405
 51
353.8576429999998
  0
ARC
  5
EF7C8831D
330
EF7C85532
100
AcDbEntity
  8
JISSEN
100
AcDbCircle
 10
474.2586134609147
 20
38.09558036020999
 30
0.0
 40
1.399999999999999
100
AcDbArc
 50
294.825405
 51
353.8576429999998
  0
ARC
  5
EF7C8831E
330
EF7C85532
100
AcDbEntity
  8
JISSEN
100
AcDbCircle
 10
472.1533254609147
 20
37.95844236021
 30
0.0
 40
1.3
100
AcDbArc
 50
297.7467379999998
 51
354.5938149999996
  0
ARC
  5
EF7C8831F
330
EF7C85532
100
AcDbEntity
  8
JISSEN
100
AcDbCircle
 10
475.8549304609147
 20
43.75083036020996
 30
0.0
 40
0.1
100
AcDbArc
 50
92.7179019999998
 51
173.8576429999999
  0
ARC
  5
EF7C88320
330
EF7C85532
100
AcDbEntity
  8
JISSEN
100
AcDbCircle
 10
472.7115964609146
 20
43.62859436020997
 30
0.0
 40
0.2
100
AcDbArc
 50
354.9610729999998
 51
90.0
  0
ARC
  5
EF7C88321
330
EF7C85532
100
AcDbEntity
  8
JISSEN
100
AcDbCircle
 10
473.5750234609146
 20
43.42859436020997
 30
0.0
 40
0.4
100
AcDbArc
 50
354.5938149999996
 51
90.0
  0
LINE
  5
EF7C88322
330
EF7C85532
100
AcDbEntity
  8
JISSEN
100
AcDbLine
 10
472.6731764609147
 20
43.82859436020996
 30
0.0
 11
473.5750234609146
 21
43.82859436020996
 31
0.0
  0
ARC
  5
EF7C88323
330
EF7C85532
100
AcDbEntity
  8
JISSEN
100
AcDbCircle
 10
472.6731764609147
 20
43.62859436020997
 30
0.0
 40
0.2
100
AcDbArc
 50
90.0
 51
174.7984409999996
  0
LINE
  5
EF7C88324
330
EF7C85532
100
AcDbEntity
  8
JISSEN
100
AcDbLine
 10
476.6000824609147
 20
45.32859436020996
 30
0.0
 11
476.4688494609147
 21
43.82859436020996
 31
0.0
  0
ARC
  5
EF7C88325
330
EF7C85532
100
AcDbEntity
  8
JISSEN
100
AcDbCircle
 10
475.8407034609147
 20
43.45083036020993
 30
0.0
 40
0.4
100
AcDbArc
 50
353.8576429999998
 51
88.64114500000017
  0
LINE
  5
EF7C88326
330
EF7C85532
100
AcDbEntity
  8
JISSEN
100
AcDbLine
 10
477.5000824609147
 20
45.32859436020996
 30
0.0
 11
476.6000824609147
 21
45.32859436020996
 31
0.0
  0
LINE
  5
EF7C88327
330
EF7C85532
100
AcDbEntity
  8
JISSEN
100
AcDbLine
 10
478.5000824609148
 20
46.32859436020996
 30
0.0
 11
477.5000824609147
 21
45.32859436020996
 31
0.0
  0
LINE
  5
EF7C88328
330
EF7C85532
100
AcDbEntity
  8
JISSEN
100
AcDbLine
 10
479.5000824609148
 20
46.32859436020996
 30
0.0
 11
479.5000824609148
 21
50.32859436020996
 31
0.0
  0
INSERT
  5
EF7C88329
330
EF7C85532
100
AcDbEntity
  8
SUNPOU
100
AcDbBlockReference
  2
ARROW
 10
483.6294919834657
 20
51.43506630699338
 30
0.0
 41
1.499999999999995
 42
1.5
 43
1.5
 50
131.4427143987435
  0
CIRCLE
  5
EF7C8832D
330
EF7C85532
100
AcDbEntity
  8
SUNPOU
100
AcDbCircle
 10
510.0289514894891
 20
21.53572157648671
 30
0.0
 40
6.0
  0
TEXT
  5
EF7C8832E
330
EF7C85532
100
AcDbEntity
  8
SUNPOU
100
AcDbText
 10
488.2075229180606
 20
19.28572157648671
 30
0.0
 40
4.5
  1
1
  7
K
 72
     4
 11
490.0289514894891
 21
21.53572157648671
 31
0.0
100
AcDbText
  0
TEXT
  5
EF7C88330
330
EF7C85532
100
AcDbEntity
  8
SUNPOU
100
AcDbText
 10
507.8860943466319
 20
19.28572157648671
 30
0.0
 40
4.5
  1
2
  7
K
 72
     4
 11
510.0289514894891
 21
21.53572157648671
 31
0.0
100
AcDbText
  0
LINE
  5
EF7C88331
330
EF7C85532
100
AcDbEntity
  8
JISSEN
100
AcDbLine
 10
462.5975883778636
 20
53.82859436020999
 30
0.0
 11
517.2759049785943
 21
53.82859436020996
 31
0.0
  0
LINE
  5
EF7C88332
330
EF7C85532
100
AcDbEntity
  8
JISSEN
100
AcDbLine
 10
520.7336680120241
 20
58.82859436020996
 30
0.0
 11
462.5350851979269
 21
58.82859436020993
 31
0.0
  0
LWPOLYLINE
  5
EF7C88333
330
EF7C85532
100
AcDbEntity
  8
NITEN
100
AcDbPolyline
 90
       15
 70
     1
 43
0.0
 10
437.9999990228987
 20
61.4391432659374
 42
0.4142135623730927
 10
439.4999990228986
 20
59.93914326593738
 10
462.5940501938952
 20
59.93914326593738
 10
464.4999990228987
 20
59.93914326593738
 42
0.4142135623730925
 10
465.9999990228986
 20
61.4391432659374
 10
465.9999990228986
 20
72.48515929215535
 42
-0.4142135623730943
 10
470.9999990228986
 20
77.48515929215535
 42
0.4142135623730951
 10
472.9999990228987
 20
79.48515929215535
 10
472.9999990228986
 20
99.93914326593737
 42
0.4142135623730949
 10
470.9999990228986
 20
101.9391432659372
 10
432.9999990228986
 20
101.9391432659372
 42
0.4142135623730951
 10
430.9999990228986
 20
99.93914326593737
 10
430.9999990228986
 20
79.48515929215535
 42
0.4142135623730951
 10
432.9999990228986
 20
77.48515929215535
 42
-0.4142135623730961
 10
437.9999990228987
 20
72.48515929215535
  0
LINE
  5
EF7C88334
330
EF7C85532
100
AcDbEntity
  8
JISSEN
100
AcDbLine
 10
478.3500824609147
 20
53.82859436020996
 30
0.0
 11
452.0000824609147
 21
53.82859436020996
 31
0.0
  0
LINE
  5
EF7C88335
330
EF7C85532
100
AcDbEntity
  8
JISSEN
100
AcDbLine
 10
461.0000824609147
 20
71.82859436021363
 30
0.0
 11
452.0000824609147
 21
71.8285943602136
 31
0.0
  0
LINE
  5
EF7C88336
330
EF7C85532
100
AcDbEntity
  8
JISSEN
100
AcDbLine
 10
462.2620064609145
 20
70.56666936021361
 30
0.0
 11
452.0000824609147
 21
70.56666936021361
 31
0.0
  0
LINE
  5
EF7C88337
330
EF7C85532
100
AcDbEntity
  8
JISSEN
100
AcDbLine
 10
452.0000824609147
 20
56.06936136020997
 30
0.0
 11
462.6213154609146
 21
56.06936136020997
 31
0.0
  0
LINE
  5
EF7C88338
330
EF7C85532
100
AcDbEntity
  8
JISSEN
100
AcDbLine
 10
478.3500824609147
 20
53.82859436020996
 30
0.0
 11
452.0000824609147
 21
53.82859436020996
 31
0.0
  0
LINE
  5
EF7C88339
330
EF7C85532
100
AcDbEntity
  8
JISSEN
100
AcDbLine
 10
441.7381584609146
 20
70.56666936021361
 30
0.0
 11
452.0000824609147
 21
70.56666936021361
 31
0.0
  0
LINE
  5
EF7C8833A
330
EF7C85532
100
AcDbEntity
  8
JISSEN
100
AcDbLine
 10
443.0000824609146
 20
71.82859436021363
 30
0.0
 11
452.0000824609147
 21
71.8285943602136
 31
0.0
  0
LINE
  5
EF7C8833B
330
EF7C85532
100
AcDbEntity
  8
JISSEN
100
AcDbLine
 10
452.0000824609147
 20
56.06936136020997
 30
0.0
 11
441.3788494609148
 21
56.06936136020997
 31
0.0
  0
LINE
  5
EF7C8833C
330
EF7C85532
100
AcDbEntity
  8
SAISEN
100
AcDbLine
 10
442.5408494609146
 20
56.06936136020997
 30
0.0
 11
443.033349307648
 21
71.8285943602136
 31
0.0
  0
LINE
  5
EF7C8833D
330
EF7C85532
100
AcDbEntity
  8
JISSEN
100
AcDbLine
 10
441.8349377395498
 20
70.66344871554051
 30
0.0
 11
441.3413634609146
 21
54.86987536020999
 31
0.0
  0
LINE
  5
EF7C8833E
330
EF7C85532
100
AcDbEntity
  8
JISSEN
100
AcDbLine
 10
434.5000824609146
 20
58.82859436020999
 30
0.0
 11
434.5000824609146
 21
53.82859436020996
 31
0.0
  0
LINE
  5
EF7C8833F
330
EF7C85532
100
AcDbEntity
  8
JISSEN
100
AcDbLine
 10
440.3000824609146
 20
53.82859436020996
 30
0.0
 11
441.3413634609146
 21
54.86987536020999
 31
0.0
  0
LINE
  5
EF7C88340
330
EF7C85532
100
AcDbEntity
  8
JISSEN
100
AcDbLine
 10
440.3000824609146
 20
53.82859436020996
 30
0.0
 11
441.3413634609146
 21
54.86987536020999
 31
0.0
  0
LINE
  5
EF7C88341
330
EF7C85532
100
AcDbEntity
  8
SAISEN
100
AcDbLine
 10
441.3413634609146
 20
54.86987536020999
 30
0.0
 11
442.5408494609146
 21
56.06936136020997
 31
0.0
  0
LINE
  5
EF7C88342
330
EF7C85532
100
AcDbEntity
  8
JISSEN
100
AcDbLine
 10
441.7381584609146
 20
70.56666936021361
 30
0.0
 11
443.0000824609146
 21
71.82859436021363
 31
0.0
  0
LINE
  5
EF7C88343
330
EF7C85532
100
AcDbEntity
  8
JISSEN
100
AcDbLine
 10
462.1652271822796
 20
70.66344871554051
 30
0.0
 11
462.6588014609146
 21
54.86987536020999
 31
0.0
  0
LINE
  5
EF7C88344
330
EF7C85532
100
AcDbEntity
  8
SAISEN
100
AcDbLine
 10
461.4593154609146
 20
56.06936136020997
 30
0.0
 11
460.9668156141814
 21
71.8285943602136
 31
0.0
  0
LINE
  5
EF7C88345
330
EF7C85532
100
AcDbEntity
  8
SAISEN
100
AcDbLine
 10
462.6588014609146
 20
54.86987536020999
 30
0.0
 11
461.4593154609146
 21
56.06936136020997
 31
0.0
  0
LINE
  5
EF7C88346
330
EF7C85532
100
AcDbEntity
  8
JISSEN
100
AcDbLine
 10
463.7000824609145
 20
53.82859436020996
 30
0.0
 11
462.6588014609146
 21
54.86987536020999
 31
0.0
  0
LINE
  5
EF7C88347
330
EF7C85532
100
AcDbEntity
  8
JISSEN
100
AcDbLine
 10
463.7000824609145
 20
53.82859436020996
 30
0.0
 11
462.6588014609146
 21
54.86987536020999
 31
0.0
  0
LINE
  5
EF7C88348
330
EF7C85532
100
AcDbEntity
  8
JISSEN
100
AcDbLine
 10
469.5000824609147
 20
58.82859436020996
 30
0.0
 11
469.5000824609147
 21
53.82859436020999
 31
0.0
  0
LINE
  5
EF7C88349
330
EF7C85532
100
AcDbEntity
  8
JISSEN
100
AcDbLine
 10
462.2620064609145
 20
70.56666936021361
 30
0.0
 11
461.0000824609147
 21
71.82859436021363
 31
0.0
  0
LWPOLYLINE
  5
EF7C8834A
330
EF7C85532
100
AcDbEntity
  8
NITEN
100
AcDbPolyline
 90
        2
 70
     0
 43
0.0
 10
468.9999990228987
 20
122.7768609170832
 42
0.5882352941176295
 10
451.9999990228986
 20
122.7768609170835
 42
0.5882352941176295
  0
LWPOLYLINE
  5
EF7C8834B
330
EF7C85532
100
AcDbEntity
  8
NITEN
100
AcDbPolyline
 90
        5
 70
     0
 43
0.0
 10
468.9999990228987
 20
101.9391432659372
 10
468.9999990228987
 20
122.7768609170832
 42
-0.5882352941176476
 10
451.9999990228987
 20
122.7768609170832
 42
0.5882352941176477
 10
434.9999990228986
 20
122.7768609170829
 10
434.9999990228986
 20
101.9391432659372
  0
LINE
  5
EF7C8834C
330
EF7C85532
100
AcDbEntity
  8
JISSEN
100
AcDbLine
 10
488.5000824609146
 20
53.50746408006606
 30
0.0
 11
488.5000824609146
 21
53.82859436020996
 31
0.0
  0
LWPOLYLINE
  5
EF7C8834D
330
EF7C85532
100
AcDbEntity
  8
HATCH
100
AcDbPolyline
 90
       13
 70
     0
 43
0.0
 10
520.7336680120241
 20
58.82859436020999
 10
520.5690808337741
 20
58.00895728197793
 10
520.4271754770939
 20
57.49233930521365
 10
520.1994668399461
 20
57.07391301852585
 10
519.8915793532868
 20
56.7357959948589
 10
519.5253560643073
 20
56.4455449222088
 10
519.1226400201985
 20
56.1707164885713
 10
518.7052742681515
 20
55.87886738194232
 10
518.2951018553579
 20
55.5375542903176
 10
517.9139658290081
 20
55.11433390169321
 10
517.5837092362938
 20
54.57676290406493
 10
517.3091291730909
 20
53.91314411677746
 10
517.2759049785943
 20
53.82859436020999
  0
HATCH
  5
EF7C8834E
330
EF7C85532
100
AcDbEntity
  8
HATCH
100
AcDbHatch
 10
0.0
 20
0.0
 30
0.0
210
0.0
220
0.0
230
1.0
  2
_U
 70
     0
 71
     0
 91
        2
 92
        7
 72
     0
 73
     1
 93
       15
 10
469.5000824609147
 20
188.3285943602098
 10
469.5000824609147
 20
183.3285943602099
 10
478.3500824609147
 20
183.3285943602099
 10
517.2741457188143
 20
183.3285943602099
 10
517.5837092362936
 20
184.0767629040648
 10
517.9139658290081
 20
184.614333901693
 10
518.2951018553576
 20
185.0375542903174
 10
518.7052742681515
 20
185.3788673819424
 10
519.1226400201997
 20
185.6707164885722
 10
519.5253560643073
 20
185.9455449222088
 10
519.8915793532868
 20
186.2357959948589
 10
520.1994668399461
 20
186.5739130185258
 10
520.4271754770939
 20
186.9923393052135
 10
520.5690808337741
 20
187.5089572819775
 10
520.7336680120241
 20
188.3285943602099
 97
        0
 92
        7
 72
     0
 73
     1
 93
       14
 10
383.2663300337732
 20
188.3285943602099
 10
383.4309172120232
 20
187.5089572819778
 10
383.5728225687035
 20
186.9923393052135
 10
383.8005312058513
 20
186.5739130185258
 10
384.1084186925106
 20
186.2357959948589
 10
384.4746419814903
 20
185.9455449222086
 10
384.8773580255968
 20
185.6707164885719
 10
385.2947237776458
 20
185.3788673819419
 10
385.7048961904395
 20
185.0375542903177
 10
386.0860322167892
 20
184.6143339016931
 10
386.4162888095037
 20
184.076762904065
 10
386.7258523269828
 20
183.3285943602099
 10
434.5000824609146
 20
183.3285943602099
 10
434.5000824609146
 20
188.3285943602099
 97
        0
 75
     0
 76
     0
 52
45.0
 41
2.0
 77
     0
 78
     1
 53
45.0
 43
361.9999990228986
 44
3.000000199657391
 45
-1.414213562373094
 46
1.414213562373094
 79
     0
 47
0.2346837798524018
 98
        2
 10
479.2263865127431
 20
186.1842261958654
 10
428.2585812190871
 20
186.8882772496366
  0
LINE
  5
EF7C8834F
330
EF7C85532
100
AcDbEntity
  8
JISSEN
100
AcDbLine
 10
425.6500824609147
 20
183.3285943602099
 30
0.0
 11
452.0000824609147
 21
183.3285943602099
 31
0.0
  0
LINE
  5
EF7C88350
330
EF7C85532
100
AcDbEntity
  8
JISSEN
100
AcDbLine
 10
426.5000824609145
 20
174.8285943602099
 30
0.0
 11
452.0000824609147
 21
174.8285943602099
 31
0.0
  0
LINE
  5
EF7C88351
330
EF7C85532
100
AcDbEntity
  8
JISSEN
100
AcDbLine
 10
425.5000824609147
 20
175.8285943602099
 30
0.0
 11
451.0000824609146
 21
175.8285943602099
 31
0.0
  0
LINE
  5
EF7C88352
330
EF7C85532
100
AcDbEntity
  8
JISSEN
100
AcDbLine
 10
451.0000824609146
 20
182.8285943602099
 30
0.0
 11
425.5000824609147
 21
182.8285943602099
 31
0.0
  0
LINE
  5
EF7C88353
330
EF7C85532
100
AcDbEntity
  8
JISSEN
100
AcDbLine
 10
431.1351754609146
 20
165.6493313602099
 30
0.0
 11
429.6233164609146
 21
166.3487223602098
 31
0.0
  0
LINE
  5
EF7C88354
330
EF7C85532
100
AcDbEntity
  8
JISSEN
100
AcDbLine
 10
429.1537554609146
 20
166.3249523602098
 30
0.0
 11
430.6206534609146
 21
165.6463603602099
 31
0.0
  0
LINE
  5
EF7C88355
330
EF7C85532
100
AcDbEntity
  8
JISSEN
100
AcDbLine
 10
437.4708794443129
 20
161.9927120378704
 30
0.0
 11
428.9454768350752
 21
166.0012079795809
 31
0.0
1001
ACAD
1000
ASC_BOUNDS
1002
{
1070
    19
1002
}
  0
LINE
  5
EF7C88356
330
EF7C85532
100
AcDbEntity
  8
JISSEN
100
AcDbLine
 10
383.2663300337732
 20
188.3285943602099
 30
0.0
 11
441.4650797239024
 21
188.3285943602099
 31
0.0
  0
LINE
  5
EF7C88357
330
EF7C85532
100
AcDbEntity
  8
JISSEN
100
AcDbLine
 10
441.4025765439658
 20
183.3285943602099
 30
0.0
 11
386.7240930672031
 21
183.3285943602099
 31
0.0
  0
LWPOLYLINE
  5
EF7C88358
330
EF7C85532
100
AcDbEntity
  8
HATCH
100
AcDbPolyline
 90
       13
 70
     0
 43
0.0
 10
383.2663300337732
 20
188.3285943602099
 10
383.4309172120232
 20
187.5089572819778
 10
383.5728225687035
 20
186.9923393052135
 10
383.8005312058513
 20
186.5739130185257
 10
384.1084186925106
 20
186.2357959948588
 10
384.47464198149
 20
185.9455449222086
 10
384.8773580255988
 20
185.6707164885712
 10
385.2947237776457
 20
185.3788673819421
 10
385.7048961904395
 20
185.0375542903174
 10
386.0860322167892
 20
184.614333901693
 10
386.4162888095037
 20
184.0767629040648
 10
386.6908688727065
 20
183.4131441167773
 10
386.7240930672031
 20
183.3285943602099
  0
LINE
  5
EF7C88359
330
EF7C85532
100
AcDbEntity
  8
JISSEN
100
AcDbLine
 10
427.4000824609147
 20
174.8285943602099
 30
0.0
 11
427.5313154609147
 21
173.3285943602099
 31
0.0
  0
LINE
  5
EF7C8835A
330
EF7C85532
100
AcDbEntity
  8
JISSEN
100
AcDbLine
 10
427.5313154609147
 20
173.3285943602099
 30
0.0
 11
428.0516694609146
 21
167.3809173602099
 31
0.0
  0
LINE
  5
EF7C8835B
330
EF7C85532
100
AcDbEntity
  8
JISSEN
100
AcDbLine
 10
427.7617584609147
 20
172.9080303602099
 30
0.0
 11
428.3495884609147
 21
167.4457813602099
 31
0.0
  0
LINE
  5
EF7C8835C
330
EF7C85532
100
AcDbEntity
  8
JISSEN
100
AcDbLine
 10
428.8765914609147
 20
167.3894923602099
 30
0.0
 11
428.2446604609146
 21
173.2615303602099
 31
0.0
  0
ARC
  5
EF7C8835D
330
EF7C85532
100
AcDbEntity
  8
JISSEN
100
AcDbCircle
 10
429.7415514609147
 20
167.5955803602099
 30
0.0
 40
1.399999999999999
100
AcDbArc
 50
186.1423570000001
 51
245.1745949999998
  0
ARC
  5
EF7C8835E
330
EF7C85532
100
AcDbEntity
  8
JISSEN
100
AcDbCircle
 10
430.1691274609146
 20
167.5285913602098
 30
0.0
 40
1.3
100
AcDbArc
 50
186.1423570000001
 51
245.1745949999998
  0
ARC
  5
EF7C8835F
330
EF7C85532
100
AcDbEntity
  8
JISSEN
100
AcDbCircle
 10
429.5459617904518
 20
167.3757689343464
 30
0.0
 40
1.5
100
AcDbArc
 50
184.9999999999998
 51
249.9999999999999
  0
ARC
  5
EF7C88360
330
EF7C85532
100
AcDbEntity
  8
JISSEN
100
AcDbCircle
 10
428.1452344609147
 20
173.2508303602099
 30
0.0
 40
0.1
100
AcDbArc
 50
6.142357000000093
 51
87.28209800000021
  0
ARC
  5
EF7C88361
330
EF7C85532
100
AcDbEntity
  8
JISSEN
100
AcDbCircle
 10
428.1594614609145
 20
172.9508303602099
 30
0.0
 40
0.4
100
AcDbArc
 50
91.35885499999986
 51
186.1423570000001
  0
LINE
  5
EF7C88362
330
EF7C85532
100
AcDbEntity
  8
JISSEN
100
AcDbLine
 10
425.5000824609147
 20
183.1785943602099
 30
0.0
 11
425.5000824609147
 21
175.8285943602099
 31
0.0
  0
LINE
  5
EF7C88363
330
EF7C85532
100
AcDbEntity
  8
JISSEN
100
AcDbLine
 10
425.5000824609147
 20
175.8285943602099
 30
0.0
 11
426.5000824609145
 21
174.8285943602099
 31
0.0
  0
LINE
  5
EF7C88364
330
EF7C85532
100
AcDbEntity
  8
JISSEN
100
AcDbLine
 10
426.5000824609145
 20
174.8285943602099
 30
0.0
 11
427.4000824609147
 21
174.8285943602099
 31
0.0
  0
LINE
  5
EF7C88365
330
EF7C85532
100
AcDbEntity
  8
JISSEN
100
AcDbLine
 10
425.5000824609147
 20
183.1785943602099
 30
0.0
 11
425.6500824609147
 21
183.3285943602099
 31
0.0
  0
LWPOLYLINE
  5
EF7C88366
330
EF7C85532
100
AcDbEntity
  8
NITEN
100
AcDbPolyline
 90
       15
 70
     1
 43
0.0
 10
437.9999990228987
 20
190.9391432659372
 42
0.4142135623730927
 10
439.4999990228986
 20
189.4391432659373
 10
462.5940501938952
 20
189.4391432659373
 10
464.4999990228987
 20
189.4391432659373
 42
0.4142135623730925
 10
465.9999990228986
 20
190.9391432659372
 10
465.9999990228986
 20
201.9851592921553
 42
-0.4142135623730943
 10
470.9999990228986
 20
206.9851592921553
 42
0.4142135623730951
 10
472.9999990228987
 20
208.9851592921553
 10
472.9999990228986
 20
229.4391432659373
 42
0.4142135623730949
 10
470.9999990228986
 20
231.4391432659373
 10
432.9999990228986
 20
231.4391432659373
 42
0.4142135623730951
 10
430.9999990228986
 20
229.4391432659373
 10
430.9999990228986
 20
208.9851592921553
 42
0.4142135623730951
 10
432.9999990228986
 20
206.9851592921553
 42
-0.4142135623730961
 10
437.9999990228987
 20
201.9851592921553
  0
CIRCLE
  5
EF7C88367
330
EF7C85532
100
AcDbEntity
  8
SUNPOU
100
AcDbCircle
 10
490.0289514894891
 20
151.0357215764865
 30
0.0
 40
6.0
  0
LINE
  5
EF7C88368
330
EF7C85532
100
AcDbEntity
  8
JISSEN
100
AcDbLine
 10
520.7336680120241
 20
188.3285943602099
 30
0.0
 11
462.5350851979269
 21
188.3285943602098
 31
0.0
  0
LINE
  5
EF7C88369
330
EF7C85532
100
AcDbEntity
  8
JISSEN
100
AcDbLine
 10
462.5975883778636
 20
183.3285943602099
 30
0.0
 11
517.2759049785943
 21
183.3285943602099
 31
0.0
  0
LINE
  5
EF7C8836A
330
EF7C85532
100
AcDbEntity
  8
JISSEN
100
AcDbLine
 10
434.5000824609146
 20
188.3285943602099
 30
0.0
 11
434.5000824609146
 21
183.3285943602099
 31
0.0
  0
LINE
  5
EF7C8836B
330
EF7C85532
100
AcDbEntity
  8
JISSEN
100
AcDbLine
 10
469.5000824609147
 20
188.3285943602099
 30
0.0
 11
469.5000824609147
 21
183.3285943602099
 31
0.0
  0
LINE
  5
EF7C8836C
330
EF7C85532
100
AcDbEntity
  8
SAISEN
100
AcDbLine
 10
442.5408494609146
 20
185.5693613602099
 30
0.0
 11
443.033349307648
 21
201.3285943602135
 31
0.0
  0
LINE
  5
EF7C8836D
330
EF7C85532
100
AcDbEntity
  8
JISSEN
100
AcDbLine
 10
441.8349377395498
 20
200.1634487155405
 30
0.0
 11
441.3413634609146
 21
184.3698753602099
 31
0.0
  0
LINE
  5
EF7C8836E
330
EF7C85532
100
AcDbEntity
  8
JISSEN
100
AcDbLine
 10
462.1652271822796
 20
200.1634487155405
 30
0.0
 11
462.6588014609146
 21
184.3698753602099
 31
0.0
  0
LINE
  5
EF7C8836F
330
EF7C85532
100
AcDbEntity
  8
SAISEN
100
AcDbLine
 10
461.4593154609146
 20
185.5693613602099
 30
0.0
 11
460.9668156141814
 21
201.3285943602135
 31
0.0
  0
LINE
  5
EF7C88370
330
EF7C85532
100
AcDbEntity
  8
JISSEN
100
AcDbLine
 10
453.0000824609147
 20
182.8285943602099
 30
0.0
 11
478.5000824609148
 21
182.8285943602099
 31
0.0
  0
LINE
  5
EF7C88371
330
EF7C85532
100
AcDbEntity
  8
JISSEN
100
AcDbLine
 10
478.5000824609148
 20
175.8285943602099
 30
0.0
 11
453.0000824609147
 21
175.8285943602099
 31
0.0
  0
LINE
  5
EF7C88372
330
EF7C85532
100
AcDbEntity
  8
JISSEN
100
AcDbLine
 10
477.5000824609147
 20
174.8285943602099
 30
0.0
 11
452.0000824609147
 21
174.8285943602099
 31
0.0
  0
LINE
  5
EF7C88373
330
EF7C85532
100
AcDbEntity
  8
JISSEN
100
AcDbLine
 10
478.3500824609147
 20
183.3285943602099
 30
0.0
 11
452.0000824609147
 21
183.3285943602099
 31
0.0
  0
LINE
  5
EF7C88374
330
EF7C85532
100
AcDbEntity
  8
JISSEN
100
AcDbLine
 10
452.0000824609147
 20
185.5693613602099
 30
0.0
 11
462.6213154609146
 21
185.5693613602099
 31
0.0
  0
ARC
  5
EF7C88375
330
EF7C85532
100
AcDbEntity
  8
JISSEN
100
AcDbCircle
 10
458.3100124609146
 20
165.7317153602098
 30
0.0
 40
0.2
100
AcDbArc
 50
143.1028380000001
 51
270.0
  0
LINE
  5
EF7C8837F
330
EF7C85532
100
AcDbEntity
  8
JISSEN
100
AcDbLine
 10
452.0000824609147
 20
161.9927120378705
 30
0.0
 11
466.5292854775164
 21
161.9927120378704
 31
0.0
1001
ACAD
1000
ASC_BOUNDS
1002
{
1070
    19
1002
}
  0
LINE
  5
EF7C88380
330
EF7C85532
100
AcDbEntity
  8
JISSEN
100
AcDbLine
 10
452.0000824609147
 20
161.9927120378705
 30
0.0
 11
437.4708794443129
 21
161.9927120378704
 31
0.0
1001
ACAD
1000
ASC_BOUNDS
1002
{
1070
    19
1002
}
  0
LINE
  5
EF7C883A6
330
EF7C85532
100
AcDbEntity
  8
JISSEN
100
AcDbLine
 10
452.0000824609147
 20
185.5693613602099
 30
0.0
 11
441.3788494609148
 21
185.5693613602099
 31
0.0
  0
LINE
  5
EF7C883A7
330
EF7C85532
100
AcDbEntity
  8
JISSEN
100
AcDbLine
 10
444.8189164609146
 20
173.3285943602099
 30
0.0
 11
442.5039254609147
 21
173.3285943602099
 31
0.0
  0
LINE
  5
EF7C883A8
330
EF7C85532
100
AcDbEntity
  8
JISSEN
100
AcDbLine
 10
443.1436734609148
 20
166.6354933602098
 30
0.0
 11
445.2770064609146
 21
166.6354933602098
 31
0.0
  0
LINE
  5
EF7C883A9
330
EF7C85532
100
AcDbEntity
  8
JISSEN
100
AcDbLine
 10
443.4212234609146
 20
165.5317153602099
 30
0.0
 11
445.6901524609147
 21
165.5317153602099
 31
0.0
  0
LINE
  5
EF7C883AA
330
EF7C85532
100
AcDbEntity
  8
JISSEN
100
AcDbLine
 10
436.1932014609147
 20
173.3285943602099
 30
0.0
 11
437.1795524609146
 21
173.3285943602099
 31
0.0
  0
LINE
  5
EF7C883AB
330
EF7C85532
100
AcDbEntity
  8
JISSEN
100
AcDbLine
 10
436.6856314609147
 20
166.6354933602098
 30
0.0
 11
437.8857834609148
 21
166.6354933602098
 31
0.0
  0
LINE
  5
EF7C883AC
330
EF7C85532
100
AcDbEntity
  8
JISSEN
100
AcDbLine
 10
437.0044294609146
 20
165.5961633602099
 30
0.0
 11
436.0013634609146
 21
166.3070853602099
 31
0.0
  0
LINE
  5
EF7C883AD
330
EF7C85532
100
AcDbEntity
  8
JISSEN
100
AcDbLine
 10
435.8938424609148
 20
173.0090023602099
 30
0.0
 11
436.2864854609147
 21
167.0093713602099
 31
0.0
  0
LINE
  5
EF7C883AE
330
EF7C85532
100
AcDbEntity
  8
JISSEN
100
AcDbLine
 10
435.4982054609147
 20
167.2020393602099
 30
0.0
 11
435.0941714609147
 21
172.9540693602099
 31
0.0
  0
LINE
  5
EF7C883AF
330
EF7C85532
100
AcDbEntity
  8
JISSEN
100
AcDbLine
 10
432.0942734609146
 20
166.9061443602099
 30
0.0
 11
431.5261654609146
 21
173.1467263602099
 31
0.0
  0
LINE
  5
EF7C883B0
330
EF7C85532
100
AcDbEntity
  8
JISSEN
100
AcDbLine
 10
430.0269204609147
 20
172.8909073602099
 30
0.0
 11
430.5526224609146
 21
167.3359613602098
 31
0.0
  0
LINE
  5
EF7C883B1
330
EF7C85532
100
AcDbEntity
  8
JISSEN
100
AcDbLine
 10
431.0893414609147
 20
173.1110273602099
 30
0.0
 11
431.6200954609146
 21
167.0915773602098
 31
0.0
  0
LINE
  5
EF7C883B2
330
EF7C85532
100
AcDbEntity
  8
JISSEN
100
AcDbLine
 10
432.8159314609147
 20
165.5317153602099
 30
0.0
 11
433.8122504609146
 21
165.5317153602099
 31
0.0
  0
LINE
  5
EF7C883B3
330
EF7C85532
100
AcDbEntity
  8
JISSEN
100
AcDbLine
 10
433.8588074609146
 20
165.7202173602099
 30
0.0
 11
432.3594324609146
 21
166.5089673602099
 31
0.0
  0
ARC
  5
EF7C883B4
330
EF7C85532
100
AcDbEntity
  8
JISSEN
100
AcDbCircle
 10
432.8159314609147
 20
165.9317153602098
 30
0.0
 40
0.4
100
AcDbArc
 50
242.253262
 51
270.0
  0
ARC
  5
EF7C883B5
330
EF7C85532
100
AcDbEntity
  8
JISSEN
100
AcDbCircle
 10
432.5922144609147
 20
166.9514743602099
 30
0.0
 40
0.5
100
AcDbArc
 50
185.2015590000002
 51
242.253262
  0
ARC
  5
EF7C883B6
330
EF7C85532
100
AcDbEntity
  8
JISSEN
100
AcDbCircle
 10
431.8468394609147
 20
167.4584423602099
 30
0.0
 40
1.3
100
AcDbArc
 50
185.4061850000002
 51
242.253262
  0
ARC
  5
EF7C883B7
330
EF7C85532
100
AcDbEntity
  8
JISSEN
100
AcDbCircle
 10
431.0405084609146
 20
166.5539523602099
 30
0.0
 40
1.0
100
AcDbArc
 50
245.1745949999998
 51
270.0
  0
LINE
  5
EF7C883B8
330
EF7C85532
100
AcDbEntity
  8
JISSEN
100
AcDbLine
 10
431.0405084609146
 20
165.5539523602099
 30
0.0
 11
431.1141834609146
 21
165.5539523602099
 31
0.0
  0
ARC
  5
EF7C883B9
330
EF7C85532
100
AcDbEntity
  8
JISSEN
100
AcDbCircle
 10
431.1141834609146
 20
165.6039523602099
 30
0.0
 40
0.05
100
AcDbArc
 50
270.0
 51
65.17459499999985
  0
LINE
  5
EF7C883BA
330
EF7C85532
100
AcDbEntity
  8
JISSEN
100
AcDbLine
 10
431.2416064609147
 20
166.3079233602099
 30
0.0
 11
432.6297054609146
 21
165.5777103602098
 31
0.0
  0
ARC
  5
EF7C883BB
330
EF7C85532
100
AcDbEntity
  8
JISSEN
100
AcDbCircle
 10
432.1181634609146
 20
167.1354933602098
 30
0.0
 40
0.5
100
AcDbArc
 50
185.0389269999999
 51
279.3495549999998
  0
ARC
  5
EF7C883BC
330
EF7C85532
100
AcDbEntity
  8
JISSEN
100
AcDbCircle
 10
436.6952554609146
 20
167.2861223602098
 30
0.0
 40
1.199999999999999
100
AcDbArc
 50
184.0179690000003
 51
234.6729319999998
  0
ARC
  5
EF7C883BD
330
EF7C85532
100
AcDbEntity
  8
JISSEN
100
AcDbCircle
 10
433.8122504609146
 20
165.6317153602099
 30
0.0
 40
0.1
100
AcDbArc
 50
270.0
 51
62.25326200000021
  0
ARC
  5
EF7C883BE
330
EF7C85532
100
AcDbEntity
  8
JISSEN
100
AcDbCircle
 10
436.6856314609147
 20
167.0354933602099
 30
0.0
 40
0.4
100
AcDbArc
 50
183.7443620000003
 51
270.0
  0
ARC
  5
EF7C883BF
330
EF7C85532
100
AcDbEntity
  8
JISSEN
100
AcDbCircle
 10
431.3269884609146
 20
173.1285943602099
 30
0.0
 40
0.2
100
AcDbArc
 50
5.201559000000191
 51
90.0
  0
LINE
  5
EF7C883C0
330
EF7C85532
100
AcDbEntity
  8
JISSEN
100
AcDbLine
 10
431.3269884609146
 20
173.3285943602099
 30
0.0
 11
430.4251414609146
 21
173.3285943602099
 31
0.0
  0
ARC
  5
EF7C883C1
330
EF7C85532
100
AcDbEntity
  8
JISSEN
100
AcDbCircle
 10
430.4251414609146
 20
172.9285943602099
 30
0.0
 40
0.4
100
AcDbArc
 50
90.0
 51
185.4061850000002
  0
ARC
  5
EF7C883C2
330
EF7C85532
100
AcDbEntity
  8
JISSEN
100
AcDbCircle
 10
431.2885684609146
 20
173.1285943602099
 30
0.0
 40
0.2
100
AcDbArc
 50
90.0
 51
185.0389269999999
  0
ARC
  5
EF7C883C3
330
EF7C85532
100
AcDbEntity
  8
JISSEN
100
AcDbCircle
 10
436.1932014609147
 20
173.0285943602099
 30
0.0
 40
0.3
100
AcDbArc
 50
90.0
 51
183.7443620000003
  0
ARC
  5
EF7C883C4
330
EF7C85532
100
AcDbEntity
  8
JISSEN
100
AcDbCircle
 10
435.4433104609147
 20
172.9785943602099
 30
0.0
 40
0.35
100
AcDbArc
 50
90.0
 51
184.0179690000003
  0
LINE
  5
EF7C883C5
330
EF7C85532
100
AcDbEntity
  8
JISSEN
100
AcDbLine
 10
435.4433104609147
 20
173.3285943602099
 30
0.0
 11
436.1932014609147
 21
173.3285943602099
 31
0.0
  0
LINE
  5
EF7C883C6
330
EF7C85532
100
AcDbEntity
  8
JISSEN
100
AcDbLine
 10
437.3790614609147
 20
173.1426083602099
 30
0.0
 11
437.8228684609147
 21
166.8243423602099
 31
0.0
  0
LINE
  5
EF7C883C7
330
EF7C85532
100
AcDbEntity
  8
JISSEN
100
AcDbLine
 10
442.6298774609147
 20
173.0698933602099
 30
0.0
 11
442.8438554609146
 21
166.9250533602099
 31
0.0
  0
LINE
  5
EF7C883C8
330
EF7C85532
100
AcDbEntity
  8
JISSEN
100
AcDbLine
 10
442.2041354609148
 20
173.0173893602099
 30
0.0
 11
442.4309694609148
 21
166.9482413602098
 31
0.0
  0
ARC
  5
EF7C883C9
330
EF7C85532
100
AcDbEntity
  8
JISSEN
100
AcDbCircle
 10
438.9224474609147
 20
165.6817153602099
 30
0.0
 40
0.15
100
AcDbArc
 50
270.0
 51
54.67293199999994
  0
ARC
  5
EF7C883CA
330
EF7C85532
100
AcDbEntity
  8
JISSEN
100
AcDbCircle
 10
438.2218854609146
 20
166.8523703602098
 30
0.0
 40
0.4
100
AcDbArc
 50
184.0179690000003
 51
234.6729319999998
  0
ARC
  5
EF7C883CB
330
EF7C85532
100
AcDbEntity
  8
JISSEN
100
AcDbCircle
 10
437.2068144609147
 20
165.8817153602099
 30
0.0
 40
0.35
100
AcDbArc
 50
234.6729319999998
 51
270.0
  0
LINE
  5
EF7C883CC
330
EF7C85532
100
AcDbEntity
  8
JISSEN
100
AcDbLine
 10
437.9905884609146
 20
166.5260243602099
 30
0.0
 11
439.0091834609147
 21
165.8040953602099
 31
0.0
  0
LINE
  5
EF7C883CD
330
EF7C85532
100
AcDbEntity
  8
JISSEN
100
AcDbLine
 10
438.9224474609147
 20
165.5317153602099
 30
0.0
 11
437.2068144609147
 21
165.5317153602099
 31
0.0
  0
ARC
  5
EF7C883CE
330
EF7C85532
100
AcDbEntity
  8
JISSEN
100
AcDbCircle
 10
443.1436734609148
 20
166.9354933602098
 30
0.0
 40
0.3
100
AcDbArc
 50
181.994368
 51
270.0
  0
LINE
  5
EF7C883CF
330
EF7C85532
100
AcDbEntity
  8
JISSEN
100
AcDbLine
 10
442.6305574609147
 20
166.3852093602099
 30
0.0
 11
443.1813084609149
 21
165.6516013602098
 31
0.0
  0
ARC
  5
EF7C883D0
330
EF7C85532
100
AcDbEntity
  8
JISSEN
100
AcDbCircle
 10
443.4212234609146
 20
165.8317153602099
 30
0.0
 40
0.3
100
AcDbArc
 50
216.8971619999997
 51
270.0
  0
ARC
  5
EF7C883D1
330
EF7C85532
100
AcDbEntity
  8
JISSEN
100
AcDbCircle
 10
443.4302714609148
 20
166.9855903602099
 30
0.0
 40
1.0
100
AcDbArc
 50
182.1404319999997
 51
216.8971619999997
  0
ARC
  5
EF7C883D2
330
EF7C85532
100
AcDbEntity
  8
JISSEN
100
AcDbCircle
 10
437.1795524609146
 20
173.1285943602099
 30
0.0
 40
0.2
100
AcDbArc
 50
4.017969000000318
 51
90.0
  0
ARC
  5
EF7C883D3
330
EF7C85532
100
AcDbEntity
  8
JISSEN
100
AcDbCircle
 10
442.8797254609147
 20
173.0785943602099
 30
0.0
 40
0.25
100
AcDbArc
 50
90.0
 51
181.994368
  0
ARC
  5
EF7C883D4
330
EF7C85532
100
AcDbEntity
  8
JISSEN
100
AcDbCircle
 10
442.5039254609147
 20
173.0285943602099
 30
0.0
 40
0.3
100
AcDbArc
 50
90.0
 51
182.1404319999997
  0
LINE
  5
EF7C883D5
330
EF7C85532
100
AcDbEntity
  8
JISSEN
100
AcDbLine
 10
440.3000824609146
 20
183.3285943602099
 30
0.0
 11
441.3413634609146
 21
184.3698753602099
 31
0.0
  0
LINE
  5
EF7C883D6
330
EF7C85532
100
AcDbEntity
  8
SAISEN
100
AcDbLine
 10
441.3413634609146
 20
184.3698753602099
 30
0.0
 11
442.5408494609146
 21
185.5693613602099
 31
0.0
  0
ARC
  5
EF7C883D7
330
EF7C85532
100
AcDbEntity
  8
JISSEN
100
AcDbCircle
 10
452.0000824609147
 20
175.8285943602099
 30
0.0
 40
1.0
100
AcDbArc
 50
180.0
 51
270.0
  0
ARC
  5
EF7C883D8
330
EF7C85532
100
AcDbEntity
  8
JISSEN
100
AcDbCircle
 10
452.0000824609147
 20
175.8285943602099
 30
0.0
 40
1.0
100
AcDbArc
 50
270.0
 51
0.000000000000007
  0
LINE
  5
EF7C883D9
330
EF7C85532
100
AcDbEntity
  8
JISSEN
100
AcDbLine
 10
452.0000824609147
 20
173.3285943602099
 30
0.0
 11
451.0000824609146
 21
173.3285943602099
 31
0.0
  0
LINE
  5
EF7C883DA
330
EF7C85532
100
AcDbEntity
  8
JISSEN
100
AcDbLine
 10
451.0000824609146
 20
166.6354933602098
 30
0.0
 11
452.0000824609147
 21
166.6354933602098
 31
0.0
  0
LINE
  5
EF7C883DB
330
EF7C85532
100
AcDbEntity
  8
JISSEN
100
AcDbLine
 10
452.0000824609147
 20
165.5317153602099
 30
0.0
 11
451.0000824609146
 21
165.5317153602099
 31
0.0
  0
LINE
  5
EF7C883DC
330
EF7C85532
100
AcDbEntity
  8
JISSEN
100
AcDbLine
 10
450.5000824609147
 20
172.8285943602099
 30
0.0
 11
450.5000824609147
 21
166.0317153602099
 31
0.0
  0
LINE
  5
EF7C883DD
330
EF7C85532
100
AcDbEntity
  8
JISSEN
100
AcDbLine
 10
445.2582294609148
 20
166.7293183602098
 30
0.0
 11
445.0187774609147
 21
173.1360643602099
 31
0.0
  0
ARC
  5
EF7C883DE
330
EF7C85532
100
AcDbEntity
  8
JISSEN
100
AcDbCircle
 10
445.5580204609146
 20
166.7405223602099
 30
0.0
 40
0.3
100
AcDbArc
 50
182.1404319999997
 51
216.8971619999997
  0
ARC
  5
EF7C883DF
330
EF7C85532
100
AcDbEntity
  8
JISSEN
100
AcDbCircle
 10
445.6901524609147
 20
165.7317153602098
 30
0.0
 40
0.2
100
AcDbArc
 50
270.0
 51
36.89716199999973
  0
LINE
  5
EF7C883E0
330
EF7C85532
100
AcDbEntity
  8
JISSEN
100
AcDbLine
 10
445.8500954609148
 20
165.8517923602099
 30
0.0
 11
445.3181054609149
 21
166.5604083602098
 31
0.0
  0
ARC
  5
EF7C883E1
330
EF7C85532
100
AcDbEntity
  8
JISSEN
100
AcDbCircle
 10
451.0000824609146
 20
166.0317153602099
 30
0.0
 40
0.5
100
AcDbArc
 50
180.0
 51
270.0
  0
ARC
  5
EF7C883E2
330
EF7C85532
100
AcDbEntity
  8
JISSEN
100
AcDbCircle
 10
451.0000824609146
 20
167.1354933602098
 30
0.0
 40
0.5
100
AcDbArc
 50
180.0
 51
270.0
  0
ARC
  5
EF7C883E3
330
EF7C85532
100
AcDbEntity
  8
JISSEN
100
AcDbCircle
 10
444.8189164609146
 20
173.1285943602099
 30
0.0
 40
0.2
100
AcDbArc
 50
2.140431999999735
 51
90.0
  0
ARC
  5
EF7C883E4
330
EF7C85532
100
AcDbEntity
  8
JISSEN
100
AcDbCircle
 10
451.0000824609146
 20
172.8285943602099
 30
0.0
 40
0.5
100
AcDbArc
 50
90.0
 51
180.0
  0
LINE
  5
EF7C883E5
330
EF7C85532
100
AcDbEntity
  8
JISSEN
100
AcDbLine
 10
453.5000824609148
 20
172.8285943602099
 30
0.0
 11
453.5000824609148
 21
166.0317153602099
 31
0.0
  0
ARC
  5
EF7C883E6
330
EF7C85532
100
AcDbEntity
  8
JISSEN
100
AcDbCircle
 10
453.0000824609147
 20
167.1354933602098
 30
0.0
 40
0.5
100
AcDbArc
 50
270.0
 51
0.000000000000007
  0
ARC
  5
EF7C883E7
330
EF7C85532
100
AcDbEntity
  8
JISSEN
100
AcDbCircle
 10
453.0000824609147
 20
166.0317153602099
 30
0.0
 40
0.5
100
AcDbArc
 50
270.0
 51
0.000000000000007
  0
LINE
  5
EF7C883E8
330
EF7C85532
100
AcDbEntity
  8
JISSEN
100
AcDbLine
 10
452.0000824609147
 20
165.5317153602099
 30
0.0
 11
453.0000824609147
 21
165.5317153602099
 31
0.0
  0
LINE
  5
EF7C883E9
330
EF7C85532
100
AcDbEntity
  8
JISSEN
100
AcDbLine
 10
453.0000824609147
 20
166.6354933602098
 30
0.0
 11
452.0000824609147
 21
166.6354933602098
 31
0.0
  0
ARC
  5
EF7C883EA
330
EF7C85532
100
AcDbEntity
  8
JISSEN
100
AcDbCircle
 10
453.0000824609147
 20
172.8285943602099
 30
0.0
 40
0.5
100
AcDbArc
 50
0.000000000000007
 51
90.0
  0
LINE
  5
EF7C883EB
330
EF7C85532
100
AcDbEntity
  8
JISSEN
100
AcDbLine
 10
452.0000824609147
 20
173.3285943602099
 30
0.0
 11
453.0000824609147
 21
173.3285943602099
 31
0.0
  0
ARC
  5
EF7C883EC
330
EF7C85532
100
AcDbEntity
  8
JISSEN
100
AcDbCircle
 10
452.0000824609147
 20
182.0785943602099
 30
0.0
 40
1.25
100
AcDbArc
 50
90.0
 51
143.1301020000003
  0
LINE
  5
EF7C883ED
330
EF7C85532
100
AcDbEntity
  8
JISSEN
100
AcDbLine
 10
451.0000824609146
 20
182.8285943602099
 30
0.0
 11
451.0000824609146
 21
175.8285943602099
 31
0.0
  0
LINE
  5
EF7C883EE
330
EF7C85532
100
AcDbEntity
  8
JISSEN
100
AcDbLine
 10
453.0000824609147
 20
182.8285943602099
 30
0.0
 11
453.0000824609147
 21
175.8285943602099
 31
0.0
  0
ARC
  5
EF7C883EF
330
EF7C85532
100
AcDbEntity
  8
JISSEN
100
AcDbCircle
 10
452.0000824609147
 20
182.0785943602099
 30
0.0
 40
1.25
100
AcDbArc
 50
36.86989799999964
 51
90.0
  0
INSERT
  5
EF7C883F0
330
EF7C85532
100
AcDbEntity
  8
SUNPOU
100
AcDbBlockReference
  2
ARROW
 10
470.7919867821352
 20
163.9969600087255
 30
0.0
 41
1.499999999999995
 42
1.5
 43
1.5
 50
146.0291974830132
  0
LINE
  5
EF7C883F1
330
EF7C85532
100
AcDbEntity
  8
SUNPOU
100
AcDbLine
 10
470.7919867821352
 20
163.9969600087255
 30
0.0
 11
485.0530169380053
 21
154.3883437352381
 31
0.0
  0
LINE
  5
EF7C883F2
330
EF7C85532
100
AcDbEntity
  8
JISSEN
100
AcDbLine
 10
466.5292854775164
 20
161.9927120378704
 30
0.0
 11
475.0546880867541
 21
166.0012079795809
 31
0.0
1001
ACAD
1000
ASC_BOUNDS
1002
{
1070
    19
1002
}
  0
ARC
  5
EF7C88401
330
EF7C85532
100
AcDbEntity
  8
JISSEN
100
AcDbCircle
 10
471.8820014609146
 20
167.1354933602098
 30
0.0
 40
0.5
100
AcDbArc
 50
260.650445
 51
354.9610729999998
  0
LINE
  5
EF7C88402
330
EF7C85532
100
AcDbEntity
  8
JISSEN
100
AcDbLine
 10
472.7585584609147
 20
166.3079233602099
 30
0.0
 11
471.3704594609146
 21
165.5777103602098
 31
0.0
  0
LINE
  5
EF7C88403
330
EF7C85532
100
AcDbEntity
  8
JISSEN
100
AcDbLine
 10
471.9058914609147
 20
166.9061443602099
 30
0.0
 11
472.4739994609146
 21
173.1467263602099
 31
0.0
  0
LINE
  5
EF7C88404
330
EF7C85532
100
AcDbEntity
  8
JISSEN
100
AcDbLine
 10
465.0777174609147
 20
165.5317153602099
 30
0.0
 11
466.7933504609147
 21
165.5317153602099
 31
0.0
  0
LINE
  5
EF7C88405
330
EF7C85532
100
AcDbEntity
  8
JISSEN
100
AcDbLine
 10
466.0095764609145
 20
166.5260243602099
 30
0.0
 11
464.9909814609148
 21
165.8040953602099
 31
0.0
  0
LINE
  5
EF7C88406
330
EF7C85532
100
AcDbEntity
  8
JISSEN
100
AcDbLine
 10
461.7960294609146
 20
173.0173893602099
 30
0.0
 11
461.5691954609148
 21
166.9482413602098
 31
0.0
  0
LINE
  5
EF7C88407
330
EF7C85532
100
AcDbEntity
  8
JISSEN
100
AcDbLine
 10
461.3702874609145
 20
173.0698933602099
 30
0.0
 11
461.1563094609147
 21
166.9250533602099
 31
0.0
  0
LINE
  5
EF7C88408
330
EF7C85532
100
AcDbEntity
  8
JISSEN
100
AcDbLine
 10
458.7419354609147
 20
166.7293183602098
 30
0.0
 11
458.9813874609148
 21
173.1360643602099
 31
0.0
  0
ARC
  5
EF7C88409
330
EF7C85532
100
AcDbEntity
  8
JISSEN
100
AcDbCircle
 10
460.5698934609146
 20
166.9855903602099
 30
0.0
 40
1.0
100
AcDbArc
 50
323.1028380000003
 51
357.8595680000001
  0
ARC
  5
EF7C8840A
330
EF7C85532
100
AcDbEntity
  8
JISSEN
100
AcDbCircle
 10
460.5789414609146
 20
165.8317153602099
 30
0.0
 40
0.3
100
AcDbArc
 50
270.0
 51
323.1028380000003
  0
LINE
  5
EF7C8840B
330
EF7C85532
100
AcDbEntity
  8
JISSEN
100
AcDbLine
 10
461.3696074609146
 20
166.3852093602099
 30
0.0
 11
460.8188564609147
 21
165.6516013602098
 31
0.0
  0
ARC
  5
EF7C8840C
330
EF7C85532
100
AcDbEntity
  8
JISSEN
100
AcDbCircle
 10
460.8564914609146
 20
166.9354933602098
 30
0.0
 40
0.3
100
AcDbArc
 50
270.0
 51
358.0056319999998
  0
LINE
  5
EF7C8840D
330
EF7C85532
100
AcDbEntity
  8
JISSEN
100
AcDbLine
 10
458.1500694609148
 20
165.8517923602099
 30
0.0
 11
458.6820594609147
 21
166.5604083602098
 31
0.0
  0
ARC
  5
EF7C8840E
330
EF7C85532
100
AcDbEntity
  8
JISSEN
100
AcDbCircle
 10
458.4421444609146
 20
166.7405223602099
 30
0.0
 40
0.3
100
AcDbArc
 50
323.1028380000003
 51
357.8595680000001
  0
LINE
  5
EF7C8840F
330
EF7C85532
100
AcDbEntity
  8
JISSEN
100
AcDbLine
 10
460.5789414609146
 20
165.5317153602099
 30
0.0
 11
458.3100124609146
 21
165.5317153602099
 31
0.0
  0
LINE
  5
EF7C88410
330
EF7C85532
100
AcDbEntity
  8
JISSEN
100
AcDbLine
 10
460.8564914609146
 20
166.6354933602098
 30
0.0
 11
458.7231584609146
 21
166.6354933602098
 31
0.0
  0
ARC
  5
EF7C88411
330
EF7C85532
100
AcDbEntity
  8
JISSEN
100
AcDbCircle
 10
465.0777174609147
 20
165.6817153602099
 30
0.0
 40
0.15
100
AcDbArc
 50
125.3270679999999
 51
270.0
  0
ARC
  5
EF7C88412
330
EF7C85532
100
AcDbEntity
  8
JISSEN
100
AcDbCircle
 10
461.4962394609147
 20
173.0285943602099
 30
0.0
 40
0.3
100
AcDbArc
 50
357.8595680000001
 51
90.0
  0
ARC
  5
EF7C88413
330
EF7C85532
100
AcDbEntity
  8
JISSEN
100
AcDbCircle
 10
461.1204394609146
 20
173.0785943602099
 30
0.0
 40
0.25
100
AcDbArc
 50
358.0056319999998
 51
90.0
  0
ARC
  5
EF7C88414
330
EF7C85532
100
AcDbEntity
  8
JISSEN
100
AcDbCircle
 10
459.1812484609146
 20
173.1285943602099
 30
0.0
 40
0.2
100
AcDbArc
 50
90.0
 51
177.8595680000002
  0
LINE
  5
EF7C88415
330
EF7C85532
100
AcDbEntity
  8
JISSEN
100
AcDbLine
 10
459.1812484609146
 20
173.3285943602099
 30
0.0
 11
461.4962394609147
 21
173.3285943602099
 31
0.0
  0
LINE
  5
EF7C88416
330
EF7C85532
100
AcDbEntity
  8
JISSEN
100
AcDbLine
 10
468.5019594609147
 20
167.2020393602099
 30
0.0
 11
468.9059934609145
 21
172.9540693602099
 31
0.0
  0
LINE
  5
EF7C88417
330
EF7C85532
100
AcDbEntity
  8
JISSEN
100
AcDbLine
 10
468.1063224609146
 20
173.0090023602099
 30
0.0
 11
467.7136794609147
 21
167.0093713602099
 31
0.0
  0
LINE
  5
EF7C88418
330
EF7C85532
100
AcDbEntity
  8
JISSEN
100
AcDbLine
 10
466.6211034609147
 20
173.1426083602099
 30
0.0
 11
466.1772964609147
 21
166.8243423602099
 31
0.0
  0
ARC
  5
EF7C88419
330
EF7C85532
100
AcDbEntity
  8
JISSEN
100
AcDbCircle
 10
467.3145334609146
 20
167.0354933602099
 30
0.0
 40
0.4
100
AcDbArc
 50
270.0
 51
356.2556379999997
  0
ARC
  5
EF7C8841A
330
EF7C85532
100
AcDbEntity
  8
JISSEN
100
AcDbCircle
 10
467.3049094609146
 20
167.2861223602098
 30
0.0
 40
1.199999999999999
100
AcDbArc
 50
305.327068
 51
355.9820309999997
  0
ARC
  5
EF7C8841B
330
EF7C85532
100
AcDbEntity
  8
JISSEN
100
AcDbCircle
 10
466.7933504609147
 20
165.8817153602099
 30
0.0
 40
0.35
100
AcDbArc
 50
270.0
 51
305.327068
  0
ARC
  5
EF7C8841C
330
EF7C85532
100
AcDbEntity
  8
JISSEN
100
AcDbCircle
 10
465.7782794609146
 20
166.8523703602098
 30
0.0
 40
0.4
100
AcDbArc
 50
305.327068
 51
355.9820309999997
  0
LINE
  5
EF7C8841D
330
EF7C85532
100
AcDbEntity
  8
JISSEN
100
AcDbLine
 10
466.9957354609147
 20
165.5961633602099
 30
0.0
 11
467.9988014609147
 21
166.3070853602099
 31
0.0
  0
LINE
  5
EF7C8841E
330
EF7C85532
100
AcDbEntity
  8
JISSEN
100
AcDbLine
 10
467.3145334609146
 20
166.6354933602098
 30
0.0
 11
466.1143814609146
 21
166.6354933602098
 31
0.0
  0
LINE
  5
EF7C8841F
330
EF7C85532
100
AcDbEntity
  8
JISSEN
100
AcDbLine
 10
470.1413574609146
 20
165.7202173602099
 30
0.0
 11
471.6407324609146
 21
166.5089673602099
 31
0.0
  0
LINE
  5
EF7C88420
330
EF7C85532
100
AcDbEntity
  8
JISSEN
100
AcDbLine
 10
471.1842334609147
 20
165.5317153602099
 30
0.0
 11
470.1879144609146
 21
165.5317153602099
 31
0.0
  0
ARC
  5
EF7C88421
330
EF7C85532
100
AcDbEntity
  8
JISSEN
100
AcDbCircle
 10
471.4079504609148
 20
166.9514743602099
 30
0.0
 40
0.5
100
AcDbArc
 50
297.7467379999998
 51
354.7984409999998
  0
ARC
  5
EF7C88422
330
EF7C85532
100
AcDbEntity
  8
JISSEN
100
AcDbCircle
 10
471.1842334609147
 20
165.9317153602098
 30
0.0
 40
0.4
100
AcDbArc
 50
270.0
 51
297.7467379999998
  0
ARC
  5
EF7C88423
330
EF7C85532
100
AcDbEntity
  8
JISSEN
100
AcDbCircle
 10
470.1879144609146
 20
165.6317153602099
 30
0.0
 40
0.1
100
AcDbArc
 50
117.7467379999998
 51
270.0
  0
ARC
  5
EF7C88424
330
EF7C85532
100
AcDbEntity
  8
JISSEN
100
AcDbCircle
 10
468.5568544609147
 20
172.9785943602099
 30
0.0
 40
0.35
100
AcDbArc
 50
355.9820309999997
 51
90.0
  0
LINE
  5
EF7C88425
330
EF7C85532
100
AcDbEntity
  8
JISSEN
100
AcDbLine
 10
468.5568544609147
 20
173.3285943602099
 30
0.0
 11
467.8069634609147
 21
173.3285943602099
 31
0.0
  0
ARC
  5
EF7C88426
330
EF7C85532
100
AcDbEntity
  8
JISSEN
100
AcDbCircle
 10
467.8069634609147
 20
173.0285943602099
 30
0.0
 40
0.3
100
AcDbArc
 50
356.2556379999997
 51
90.0
  0
ARC
  5
EF7C88427
330
EF7C85532
100
AcDbEntity
  8
JISSEN
100
AcDbCircle
 10
466.8206124609146
 20
173.1285943602099
 30
0.0
 40
0.2
100
AcDbArc
 50
90.0
 51
175.9820309999995
  0
LINE
  5
EF7C88428
330
EF7C85532
100
AcDbEntity
  8
JISSEN
100
AcDbLine
 10
467.8069634609147
 20
173.3285943602099
 30
0.0
 11
466.8206124609146
 21
173.3285943602099
 31
0.0
  0
LINE
  5
EF7C88429
330
EF7C85532
100
AcDbEntity
  8
SAISEN
100
AcDbLine
 10
462.6588014609146
 20
184.3698753602099
 30
0.0
 11
461.4593154609146
 21
185.5693613602099
 31
0.0
  0
LINE
  5
EF7C8842A
330
EF7C85532
100
AcDbEntity
  8
JISSEN
100
AcDbLine
 10
463.7000824609145
 20
183.3285943602099
 30
0.0
 11
462.6588014609146
 21
184.3698753602099
 31
0.0
  0
LINE
  5
EF7C8842B
330
EF7C85532
100
AcDbEntity
  8
JISSEN
100
AcDbLine
 10
476.6000824609147
 20
174.8285943602099
 30
0.0
 11
476.4688494609147
 21
173.3285943602099
 31
0.0
  0
LINE
  5
EF7C8842C
330
EF7C85532
100
AcDbEntity
  8
JISSEN
100
AcDbLine
 10
475.1235734609147
 20
167.3894923602099
 30
0.0
 11
475.7555044609146
 21
173.2615303602099
 31
0.0
  0
LINE
  5
EF7C8842D
330
EF7C85532
100
AcDbEntity
  8
JISSEN
100
AcDbLine
 10
476.2384064609147
 20
172.9080303602099
 30
0.0
 11
475.6505764609147
 21
167.4457813602099
 31
0.0
  0
LINE
  5
EF7C8842E
330
EF7C85532
100
AcDbEntity
  8
JISSEN
100
AcDbLine
 10
476.4688494609147
 20
173.3285943602099
 30
0.0
 11
475.9484954609146
 21
167.3809173602099
 31
0.0
  0
LINE
  5
EF7C8842F
330
EF7C85532
100
AcDbEntity
  8
JISSEN
100
AcDbLine
 10
472.9108234609147
 20
173.1110273602099
 30
0.0
 11
472.3800694609145
 21
167.0915773602098
 31
0.0
  0
LINE
  5
EF7C88430
330
EF7C85532
100
AcDbEntity
  8
JISSEN
100
AcDbLine
 10
473.9732444609146
 20
172.8909073602099
 30
0.0
 11
473.4475424609146
 21
167.3359613602098
 31
0.0
  0
ARC
  5
EF7C88431
330
EF7C85532
100
AcDbEntity
  8
JISSEN
100
AcDbCircle
 10
474.4542031313774
 20
167.3757689343464
 30
0.0
 40
1.5
100
AcDbArc
 50
290.0
 51
355.0000000000001
  0
ARC
  5
EF7C88432
330
EF7C85532
100
AcDbEntity
  8
JISSEN
100
AcDbCircle
 10
473.8310374609148
 20
167.5285913602098
 30
0.0
 40
1.3
100
AcDbArc
 50
294.825405
 51
353.8576429999998
  0
ARC
  5
EF7C88433
330
EF7C85532
100
AcDbEntity
  8
JISSEN
100
AcDbCircle
 10
474.2586134609147
 20
167.5955803602099
 30
0.0
 40
1.399999999999999
100
AcDbArc
 50
294.825405
 51
353.8576429999998
  0
ARC
  5
EF7C88434
330
EF7C85532
100
AcDbEntity
  8
JISSEN
100
AcDbCircle
 10
472.8859814609148
 20
165.6039523602099
 30
0.0
 40
0.05
100
AcDbArc
 50
114.825405
 51
270.0
  0
LINE
  5
EF7C88435
330
EF7C85532
100
AcDbEntity
  8
JISSEN
100
AcDbLine
 10
472.9596564609146
 20
165.5539523602099
 30
0.0
 11
472.8859814609148
 21
165.5539523602099
 31
0.0
  0
ARC
  5
EF7C88436
330
EF7C85532
100
AcDbEntity
  8
JISSEN
100
AcDbCircle
 10
472.9596564609146
 20
166.5539523602099
 30
0.0
 40
1.0
100
AcDbArc
 50
270.0
 51
294.825405
  0
ARC
  5
EF7C88437
330
EF7C85532
100
AcDbEntity
  8
JISSEN
100
AcDbCircle
 10
472.1533254609147
 20
167.4584423602099
 30
0.0
 40
1.3
100
AcDbArc
 50
297.7467379999998
 51
354.5938149999996
  0
LINE
  5
EF7C88438
330
EF7C85532
100
AcDbEntity
  8
JISSEN
100
AcDbLine
 10
474.8464094609146
 20
166.3249523602098
 30
0.0
 11
473.3795114609146
 21
165.6463603602099
 31
0.0
  0
LINE
  5
EF7C88439
330
EF7C85532
100
AcDbEntity
  8
JISSEN
100
AcDbLine
 10
472.8649894609146
 20
165.6493313602099
 30
0.0
 11
474.3768484609146
 21
166.3487223602098
 31
0.0
  0
ARC
  5
EF7C8843A
330
EF7C85532
100
AcDbEntity
  8
JISSEN
100
AcDbCircle
 10
475.8549304609147
 20
173.2508303602099
 30
0.0
 40
0.1
100
AcDbArc
 50
92.7179019999998
 51
173.8576429999999
  0
ARC
  5
EF7C8843B
330
EF7C85532
100
AcDbEntity
  8
JISSEN
100
AcDbCircle
 10
472.7115964609146
 20
173.1285943602099
 30
0.0
 40
0.2
100
AcDbArc
 50
354.9610729999998
 51
90.0
  0
ARC
  5
EF7C8843C
330
EF7C85532
100
AcDbEntity
  8
JISSEN
100
AcDbCircle
 10
473.5750234609146
 20
172.9285943602099
 30
0.0
 40
0.4
100
AcDbArc
 50
354.5938149999996
 51
90.0
  0
LINE
  5
EF7C8843D
330
EF7C85532
100
AcDbEntity
  8
JISSEN
100
AcDbLine
 10
472.6731764609147
 20
173.3285943602099
 30
0.0
 11
473.5750234609146
 21
173.3285943602099
 31
0.0
  0
ARC
  5
EF7C8843E
330
EF7C85532
100
AcDbEntity
  8
JISSEN
100
AcDbCircle
 10
472.6731764609147
 20
173.1285943602099
 30
0.0
 40
0.2
100
AcDbArc
 50
90.0
 51
174.7984409999996
  0
ARC
  5
EF7C8843F
330
EF7C85532
100
AcDbEntity
  8
JISSEN
100
AcDbCircle
 10
475.8407034609147
 20
172.9508303602099
 30
0.0
 40
0.4
100
AcDbArc
 50
353.8576429999998
 51
88.64114500000017
  0
LINE
  5
EF7C88440
330
EF7C85532
100
AcDbEntity
  8
JISSEN
100
AcDbLine
 10
478.5000824609148
 20
183.1785943602099
 30
0.0
 11
478.5000824609148
 21
175.8285943602099
 31
0.0
  0
LINE
  5
EF7C88441
330
EF7C85532
100
AcDbEntity
  8
JISSEN
100
AcDbLine
 10
477.5000824609147
 20
174.8285943602099
 30
0.0
 11
476.6000824609147
 21
174.8285943602099
 31
0.0
  0
LINE
  5
EF7C88442
330
EF7C85532
100
AcDbEntity
  8
JISSEN
100
AcDbLine
 10
478.5000824609148
 20
175.8285943602099
 30
0.0
 11
477.5000824609147
 21
174.8285943602099
 31
0.0
  0
LINE
  5
EF7C88443
330
EF7C85532
100
AcDbEntity
  8
JISSEN
100
AcDbLine
 10
478.5000824609148
 20
183.1785943602099
 30
0.0
 11
478.3500824609147
 21
183.3285943602099
 31
0.0
  0
LINE
  5
EF7C88444
330
EF7C85532
100
AcDbEntity
  8
JISSEN
100
AcDbLine
 10
461.0000824609147
 20
201.3285943602135
 30
0.0
 11
452.0000824609147
 21
201.3285943602135
 31
0.0
  0
LINE
  5
EF7C88445
330
EF7C85532
100
AcDbEntity
  8
JISSEN
100
AcDbLine
 10
462.2620064609145
 20
200.0666693602136
 30
0.0
 11
452.0000824609147
 21
200.0666693602136
 31
0.0
  0
LINE
  5
EF7C88446
330
EF7C85532
100
AcDbEntity
  8
JISSEN
100
AcDbLine
 10
441.7381584609146
 20
200.0666693602136
 30
0.0
 11
452.0000824609147
 21
200.0666693602136
 31
0.0
  0
LINE
  5
EF7C88447
330
EF7C85532
100
AcDbEntity
  8
JISSEN
100
AcDbLine
 10
443.0000824609146
 20
201.3285943602135
 30
0.0
 11
452.0000824609147
 21
201.3285943602135
 31
0.0
  0
LINE
  5
EF7C88448
330
EF7C85532
100
AcDbEntity
  8
JISSEN
100
AcDbLine
 10
441.7381584609146
 20
200.0666693602136
 30
0.0
 11
443.0000824609146
 21
201.3285943602135
 31
0.0
  0
LINE
  5
EF7C88449
330
EF7C85532
100
AcDbEntity
  8
JISSEN
100
AcDbLine
 10
462.2620064609145
 20
200.0666693602136
 30
0.0
 11
461.0000824609147
 21
201.3285943602135
 31
0.0
  0
LWPOLYLINE
  5
EF7C8844A
330
EF7C85532
100
AcDbEntity
  8
HATCH
100
AcDbPolyline
 90
       13
 70
     0
 43
0.0
 10
520.7336680120241
 20
188.3285943602099
 10
520.5690808337741
 20
187.5089572819778
 10
520.4271754770939
 20
186.9923393052135
 10
520.1994668399461
 20
186.5739130185258
 10
519.8915793532868
 20
186.2357959948588
 10
519.5253560643073
 20
185.9455449222086
 10
519.1226400201985
 20
185.6707164885713
 10
518.7052742681515
 20
185.3788673819421
 10
518.2951018553579
 20
185.0375542903174
 10
517.9139658290081
 20
184.614333901693
 10
517.5837092362938
 20
184.0767629040649
 10
517.3091291730909
 20
183.4131441167774
 10
517.2759049785943
 20
183.3285943602099
  0
TEXT
  5
EF7C8844D
330
EF7C85532
100
AcDbEntity
  8
SUNPOU
100
AcDbText
 10
488.2075229180606
 20
148.7857215764865
 30
0.0
 40
4.5
  1
1
  7
K
 72
     4
 11
490.0289514894891
 21
151.0357215764865
 31
0.0
100
AcDbText
  0
TEXT
  5
EF7C88452
330
EF7C85532
100
AcDbEntity
  8
TEXT
100
AcDbText
 10
464.7478554417557
 20
266.5000001996573
 30
0.0
 40
3.0
  1
シーリングプレート MFJ
 41
0.65
  7
K
 72
     4
 11
478.4999982988986
 21
268.0000001996573
 31
0.0
100
AcDbText
  0
TEXT
  5
EF7C88454
330
EF7C85532
100
AcDbEntity
  8
TEXT
100
AcDbText
 10
469.8999982988985
 20
278.5000001996573
 30
0.0
 40
3.0
  1
名      称
  7
K
 72
     4
 11
478.4999982988986
 21
280.0000001996573
 31
0.0
100
AcDbText
  0
TEXT
  5
EF7C88457
330
EF7C85532
100
AcDbEntity
  8
TEXT
100
AcDbText
 10
457.2857125846129
 20
272.5000001996573
 30
0.0
 40
3.0
  1
1
  7
K
 72
     4
 11
458.4999982988986
 21
274.0000001996573
 31
0.0
100
AcDbText
  0
LINE
  5
EF7C88458
330
EF7C85532
100
AcDbEntity
  8
JISSEN
100
AcDbLine
 10
463.4999982988984
 20
283.0000001996573
 30
0.0
 11
463.4999982988984
 21
265.0000001996573
 31
0.0
  0
LINE
  5
EF7C88459
330
EF7C85532
100
AcDbEntity
  8
JISSEN
100
AcDbLine
 10
453.4999982988986
 20
265.0000001996573
 30
0.0
 11
453.4999982988986
 21
283.0000001996573
 31
0.0
  0
TEXT
  5
EF7C8845A
330
EF7C85532
100
AcDbEntity
  8
TEXT
100
AcDbText
 10
457.3830707044329
 20
266.5000001996573
 30
0.0
 40
3.0
  1
2
  7
K
 72
     4
 11
458.8116421330044
 21
268.0000001996573
 31
0.0
100
AcDbText
  0
LWPOLYLINE
  5
EF7C8845B
330
EF7C85532
100
AcDbEntity
  8
NITEN
100
AcDbPolyline
 90
        5
 70
     0
 43
0.0
 10
468.9999990228987
 20
231.4391432659373
 10
468.9999990228987
 20
252.2768609170832
 42
-0.5882352941176476
 10
451.9999990228987
 20
252.2768609170832
 42
0.5882352941176477
 10
434.9999990228986
 20
252.2768609170829
 10
434.9999990228986
 20
231.4391432659373
  0
LWPOLYLINE
  5
EF7C8845C
330
EF7C85532
100
AcDbEntity
  8
NITEN
100
AcDbPolyline
 90
        2
 70
     0
 43
0.0
 10
468.9999990228987
 20
252.2768609170832
 42
0.5882352941176295
 10
451.9999990228986
 20
252.2768609170835
 42
0.5882352941176295
  0
TEXT
  5
EF7C8845E
330
EF7C85532
100
AcDbEntity
  8
TEXT
100
AcDbText
 10
455.2999982988986
 20
278.5000001996573
 30
0.0
 40
3.0
  1
番号
  7
K
 72
     4
 11
458.4999982988986
 21
280.0000001996573
 31
0.0
100
AcDbText
  0
TEXT
  5
EF7C88460
330
EF7C85532
100
AcDbEntity
  8
TEXT
100
AcDbText
 10
518.679546785308
 20
272.5000001996573
 30
0.0
 40
3.0
  1
1
  7
K
 72
     4
 11
519.8938324995936
 21
274.0000001996573
 31
0.0
100
AcDbText
  0
LINE
  5
EF7C88461
330
EF7C85532
100
AcDbEntity
  8
JISSEN
100
AcDbLine
 10
525.4999982988985
 20
283.0000001996573
 30
0.0
 11
525.4999982988985
 21
265.0000001996573
 31
0.0
  0
LINE
  5
EF7C88462
330
EF7C85532
100
AcDbEntity
  8
JISSEN
100
AcDbLine
 10
514.4999982988986
 20
265.0000001996573
 30
0.0
 11
514.4999982988986
 21
283.0000001996573
 31
0.0
  0
LINE
  5
EF7C88463
330
EF7C85532
100
AcDbEntity
  8
JISSEN
100
AcDbLine
 10
493.4999982988986
 20
283.0000001996573
 30
0.0
 11
493.4999982988986
 21
265.0000001996573
 31
0.0
  0
TEXT
  5
EF7C88464
330
EF7C85532
100
AcDbEntity
  8
TEXT
100
AcDbText
 10
498.8249982988985
 20
274.3000001996573
 30
0.0
 40
3.0
  1
%%u      
  7
K
 72
     4
 11
503.9999982988986
 21
274.0000001996573
 31
0.0
100
AcDbText
  0
TEXT
  5
EF7C88465
330
EF7C85532
100
AcDbEntity
  8
TEXT
100
AcDbText
 10
500.9999982988985
 20
266.5000001996573
 30
0.0
 40
3.0
  1
PE
  7
K
 72
     4
 11
503.9999982988986
 21
268.0000001996573
 31
0.0
100
AcDbText
  0
TEXT
  5
EF7C88466
330
EF7C85532
100
AcDbEntity
  8
TEXT
100
AcDbText
 10
518.679546785308
 20
266.5808353759984
 30
0.0
 40
3.0
  1
1
  7
K
 72
     4
 11
519.8938324995936
 21
268.0808353759984
 31
0.0
100
AcDbText
  0
TEXT
  5
EF7C88467
330
EF7C85532
100
AcDbEntity
  8
TEXT
100
AcDbText
 10
497.1999982988986
 20
278.5000001996573
 30
0.0
 40
3.0
  1
材    質
  7
K
 72
     4
 11
503.9999982988986
 21
280.0000001996573
 31
0.0
100
AcDbText
  0
TEXT
  5
EF7C88468
330
EF7C85532
100
AcDbEntity
  8
TEXT
100
AcDbText
 10
527.6999982988987
 20
278.5000001996573
 30
0.0
 40
3.0
  1
備    考
  7
K
 72
     4
 11
534.4999982988986
 21
280.0000001996573
 31
0.0
100
AcDbText
  0
TEXT
  5
EF7C88469
330
EF7C85532
100
AcDbEntity
  8
TEXT
100
AcDbText
 10
516.7999982988986
 20
278.5000001996573
 30
0.0
 40
3.0
  1
個数
  7
K
 72
     4
 11
519.9999982988986
 21
280.0000001996573
 31
0.0
100
AcDbText
  0
LINE
  5
EF7C88699
330
EF7C85532
100
AcDbEntity
  8
JISSEN
100
AcDbLine
 10
452.0000824609178
 20
160.2427120378703
 30
0.0
 11
464.5500824609178
 21
160.2427120378709
 31
0.0
1001
ACAD
1000
ASC_BOUNDS
1002
{
1070
    19
1002
}
  0
LINE
  5
EF7C8869A
330
EF7C85532
100
AcDbEntity
  8
JISSEN
100
AcDbLine
 10
452.0000824609178
 20
160.2427120378703
 30
0.0
 11
439.4500824609179
 21
160.2427120378709
 31
0.0
1001
ACAD
1000
ASC_BOUNDS
1002
{
1070
    19
1002
}
  0
LINE
  5
EF7C8869B
330
EF7C85532
100
AcDbEntity
  8
JISSEN
100
AcDbLine
 10
440.3250824609165
 20
160.2427120378709
 30
0.0
 11
440.3250824609166
 21
151.2427120378709
 31
0.0
  0
LINE
  5
EF7C8869C
330
EF7C85532
100
AcDbEntity
  8
JISSEN
100
AcDbLine
 10
445.5385439993782
 20
160.2427120378706
 30
0.0
 11
444.5000824609166
 21
151.2427120378709
 31
0.0
  0
LINE
  5
EF7C8869D
330
EF7C85532
100
AcDbEntity
  8
JISSEN
100
AcDbLine
 10
440.3250824609165
 20
151.2427120378709
 30
0.0
 11
444.5000824609166
 21
151.2427120378709
 31
0.0
  0
LINE
  5
EF7C8869E
330
EF7C85532
100
AcDbEntity
  8
JISSEN
100
AcDbLine
 10
439.2500824609178
 20
161.9927120378704
 30
0.0
 11
439.2500824609178
 21
160.4427120378694
 31
0.0
1001
ACAD
1000
ASC_BOUNDS
1002
{
1070
    19
1002
}
  0
ARC
  5
EF7C8869F
330
EF7C85532
100
AcDbEntity
  8
JISSEN
100
AcDbCircle
 10
439.4500824609179
 20
160.4427120378707
 30
0.0
 40
0.2
100
AcDbArc
 50
180.0000000000006
 51
269.9999999999982
1001
ACAD
1000
ASC_BOUNDS
1002
{
1070
    19
1002
}
  0
LINE
  5
EF7C886A0
330
EF7C85532
100
AcDbEntity
  8
JISSEN
100
AcDbLine
 10
458.4616209224551
 20
160.2427120378706
 30
0.0
 11
459.5000824609168
 21
151.2427120378709
 31
0.0
  0
LINE
  5
EF7C886A1
330
EF7C85532
100
AcDbEntity
  8
JISSEN
100
AcDbLine
 10
463.6750824609166
 20
160.2427120378709
 30
0.0
 11
463.6750824609166
 21
151.2427120378709
 31
0.0
  0
LINE
  5
EF7C886A2
330
EF7C85532
100
AcDbEntity
  8
JISSEN
100
AcDbLine
 10
459.5000824609166
 20
151.2427120378709
 30
0.0
 11
463.6750824609168
 21
151.2427120378709
 31
0.0
  0
ARC
  5
EF7C886A3
330
EF7C85532
100
AcDbEntity
  8
JISSEN
100
AcDbCircle
 10
464.5500824609178
 20
160.4427120378707
 30
0.0
 40
0.2
100
AcDbArc
 50
270.0000000000016
 51
359.9999999999991
1001
ACAD
1000
ASC_BOUNDS
1002
{
1070
    19
1002
}
  0
LINE
  5
EF7C886A4
330
EF7C85532
100
AcDbEntity
  8
JISSEN
100
AcDbLine
 10
464.7500824609178
 20
161.9927120378704
 30
0.0
 11
464.7500824609178
 21
160.4427120378694
 31
0.0
1001
ACAD
1000
ASC_BOUNDS
1002
{
1070
    19
1002
}
  0
LINE
  5
EF7C886A5
330
EF7C85532
100
AcDbEntity
  8
JISSEN
100
AcDbLine
 10
452.0000824609159
 20
30.74271203787043
 30
0.0
 11
464.5500824609158
 21
30.74271203787103
 31
0.0
1001
ACAD
1000
ASC_BOUNDS
1002
{
1070
    19
1002
}
  0
LINE
  5
EF7C886A6
330
EF7C85532
100
AcDbEntity
  8
JISSEN
100
AcDbLine
 10
452.0000824609159
 20
30.74271203787043
 30
0.0
 11
439.4500824609159
 21
30.74271203787103
 31
0.0
1001
ACAD
1000
ASC_BOUNDS
1002
{
1070
    19
1002
}
  0
LINE
  5
EF7C886A7
330
EF7C85532
100
AcDbEntity
  8
JISSEN
100
AcDbLine
 10
440.3250824609147
 20
30.742712037871
 30
0.0
 11
440.3250824609147
 21
21.74271203787097
 31
0.0
  0
LINE
  5
EF7C886A8
330
EF7C85532
100
AcDbEntity
  8
JISSEN
100
AcDbLine
 10
445.5385439993762
 20
30.74271203787073
 30
0.0
 11
444.5000824609145
 21
21.74271203787097
 31
0.0
  0
LINE
  5
EF7C886A9
330
EF7C85532
100
AcDbEntity
  8
JISSEN
100
AcDbLine
 10
440.3250824609147
 20
21.74271203787097
 30
0.0
 11
444.5000824609145
 21
21.74271203787097
 31
0.0
  0
LINE
  5
EF7C886AA
330
EF7C85532
100
AcDbEntity
  8
JISSEN
100
AcDbLine
 10
439.2500824609158
 20
32.49271203787049
 30
0.0
 11
439.2500824609158
 21
30.94271203786965
 31
0.0
1001
ACAD
1000
ASC_BOUNDS
1002
{
1070
    19
1002
}
  0
ARC
  5
EF7C886AB
330
EF7C85532
100
AcDbEntity
  8
JISSEN
100
AcDbCircle
 10
439.4500824609159
 20
30.94271203787078
 30
0.0
 40
0.2
100
AcDbArc
 50
180.0000000000006
 51
269.9999999999982
1001
ACAD
1000
ASC_BOUNDS
1002
{
1070
    19
1002
}
  0
LINE
  5
EF7C886AC
330
EF7C85532
100
AcDbEntity
  8
JISSEN
100
AcDbLine
 10
458.4616209224531
 20
30.74271203787073
 30
0.0
 11
459.5000824609146
 21
21.74271203787097
 31
0.0
  0
LINE
  5
EF7C886AD
330
EF7C85532
100
AcDbEntity
  8
JISSEN
100
AcDbLine
 10
463.6750824609148
 20
30.742712037871
 30
0.0
 11
463.6750824609148
 21
21.74271203787097
 31
0.0
  0
LINE
  5
EF7C886AE
330
EF7C85532
100
AcDbEntity
  8
JISSEN
100
AcDbLine
 10
459.5000824609146
 20
21.74271203787097
 30
0.0
 11
463.6750824609148
 21
21.74271203787097
 31
0.0
  0
ARC
  5
EF7C886AF
330
EF7C85532
100
AcDbEntity
  8
JISSEN
100
AcDbCircle
 10
464.5500824609158
 20
30.94271203787078
 30
0.0
 40
0.2
100
AcDbArc
 50
270.0000000000016
 51
359.9999999999991
1001
ACAD
1000
ASC_BOUNDS
1002
{
1070
    19
1002
}
  0
LINE
  5
EF7C886B0
330
EF7C85532
100
AcDbEntity
  8
JISSEN
100
AcDbLine
 10
464.7500824609159
 20
32.49271203787049
 30
0.0
 11
464.7500824609159
 21
30.94271203786965
 31
0.0
1001
ACAD
1000
ASC_BOUNDS
1002
{
1070
    19
1002
}
  0
LINE
  5
EF7C88BA4
330
EF7C85532
100
AcDbEntity
  8
JISSEN
100
AcDbLine
 10
277.2500829494627
 20
158.77493403347
 30
0.0
 11
273.5000829494654
 21
159.0471302295138
 31
0.0
  0
LINE
  5
EF7C88BA5
330
EF7C85532
100
AcDbEntity
  8
JISSEN
100
AcDbLine
 10
284.2500829494621
 20
156.1285943602062
 30
0.0
 11
271.0000829494654
 21
156.1285943602062
 31
0.0
  0
LINE
  5
EF7C88BA6
330
EF7C85532
100
AcDbEntity
  8
JISSEN
100
AcDbLine
 10
271.0000829494654
 20
160.2427120378704
 30
0.0
 11
283.5500829494628
 21
160.2427120378685
 31
0.0
1001
ACAD
1000
ASC_BOUNDS
1002
{
1070
    19
1002
}
  0
LINE
  5
EF7C88BA7
330
EF7C85532
100
AcDbEntity
  8
JISSEN
100
AcDbLine
 10
274.0000829494618
 20
154.6285943602085
 30
0.0
 11
282.7500829494622
 21
154.6285943602069
 31
0.0
  0
LINE
  5
EF7C88BA8
330
EF7C85532
100
AcDbEntity
  8
JISSEN
100
AcDbLine
 10
284.2500829494623
 20
157.6285943602066
 30
0.0
 11
271.0000829494654
 21
157.628594360209
 31
0.0
  0
LINE
  5
EF7C88BA9
330
EF7C85532
100
AcDbEntity
  8
JISSEN
100
AcDbLine
 10
257.7500829494685
 20
157.6285943602066
 30
0.0
 11
271.0000829494654
 21
157.628594360209
 31
0.0
  0
LINE
  5
EF7C88BAA
330
EF7C85532
100
AcDbEntity
  8
JISSEN
100
AcDbLine
 10
268.0000829494691
 20
154.6285943602085
 30
0.0
 11
259.2500829494686
 21
154.6285943602069
 31
0.0
  0
LINE
  5
EF7C88BAB
330
EF7C85532
100
AcDbEntity
  8
JISSEN
100
AcDbLine
 10
271.0000829494654
 20
160.2427120378704
 30
0.0
 11
258.450082949468
 21
160.2427120378685
 31
0.0
1001
ACAD
1000
ASC_BOUNDS
1002
{
1070
    19
1002
}
  0
LINE
  5
EF7C88BAC
330
EF7C85532
100
AcDbEntity
  8
JISSEN
100
AcDbLine
 10
257.7500829494687
 20
156.1285943602062
 30
0.0
 11
271.0000829494654
 21
156.1285943602062
 31
0.0
  0
LINE
  5
EF7C88BAD
330
EF7C85532
100
AcDbEntity
  8
JISSEN
100
AcDbLine
 10
259.2500829494686
 20
154.6285943602069
 30
0.0
 11
257.7500829494687
 21
156.1285943602062
 31
0.0
  0
LINE
  5
EF7C88BAE
330
EF7C85532
100
AcDbEntity
  8
JISSEN
100
AcDbLine
 10
257.7500829494685
 20
157.6285943602061
 30
0.0
 11
257.7500829494687
 21
156.1285943602062
 31
0.0
  0
LINE
  5
EF7C88BAF
330
EF7C85532
100
AcDbEntity
  8
JISSEN
100
AcDbLine
 10
258.2500829494676
 20
161.9927120378705
 30
0.0
 11
258.250082949468
 21
160.4427120378671
 31
0.0
1001
ACAD
1000
ASC_BOUNDS
1002
{
1070
    19
1002
}
  0
ARC
  5
EF7C88BB0
330
EF7C85532
100
AcDbEntity
  8
JISSEN
100
AcDbCircle
 10
258.450082949468
 20
160.4427120378684
 30
0.0
 40
0.2
100
AcDbArc
 50
180.0000000000114
 51
270.000000000008
1001
ACAD
1000
ASC_BOUNDS
1002
{
1070
    19
1002
}
  0
LINE
  5
EF7C88BB1
330
EF7C85532
100
AcDbEntity
  8
JISSEN
100
AcDbLine
 10
268.0000829494689
 20
154.6285943602084
 30
0.0
 11
271.000082949469
 21
154.628594360209
 31
0.0
  0
LINE
  5
EF7C88BB2
330
EF7C85532
100
AcDbEntity
  8
JISSEN
100
AcDbLine
 10
264.7500829494682
 20
158.77493403347
 30
0.0
 11
268.5000829494654
 21
159.0471302295138
 31
0.0
  0
LINE
  5
EF7C88BB3
330
EF7C85532
100
AcDbEntity
  8
JISSEN
100
AcDbLine
 10
262.0545441226971
 20
159.7740725148696
 30
0.0
 11
261.4043521031953
 21
158.6871033412096
 31
0.0
  0
LINE
  5
EF7C88BB4
330
EF7C85532
100
AcDbEntity
  8
JISSEN
100
AcDbLine
 10
264.7500829494684
 20
157.6285943602079
 30
0.0
 11
264.750082949468
 21
160.2427120378695
 31
0.0
  0
LINE
  5
EF7C88BB5
330
EF7C85532
100
AcDbEntity
  8
JISSEN
100
AcDbLine
 10
262.8775651336527
 20
160.2427120378691
 30
0.0
 11
262.8775651336531
 21
157.6285943602075
 31
0.0
  0
LINE
  5
EF7C88BB6
330
EF7C85532
100
AcDbEntity
  8
JISSEN
100
AcDbLine
 10
262.5851439937779
 20
158.0017994409652
 30
0.0
 11
262.8775651336529
 21
158.5082877124365
 31
0.0
  0
ARC
  5
EF7C88BB7
330
EF7C85532
100
AcDbEntity
  8
JISSEN
100
AcDbCircle
 10
261.5759891274993
 20
158.5844352746648
 30
0.0
 40
0.2
100
AcDbArc
 50
149.1134150964279
 51
240.0000000000111
  0
ARC
  5
EF7C88BB8
330
EF7C85532
100
AcDbEntity
  8
JISSEN
100
AcDbCircle
 10
262.4119389130208
 20
158.1017994409651
 30
0.0
 40
0.2
100
AcDbArc
 50
240.0000000000111
 51
330.0000000000096
  0
LINE
  5
EF7C88BB9
330
EF7C85532
100
AcDbEntity
  8
JISSEN
100
AcDbLine
 10
261.4759891274993
 20
158.4112301939079
 30
0.0
 11
262.3119389130209
 21
157.9285943602084
 31
0.0
  0
ARC
  5
EF7C88BBA
330
EF7C85532
100
AcDbEntity
  8
JISSEN
100
AcDbCircle
 10
262.9127292442145
 20
159.260732182147
 30
0.0
 40
1.0
100
AcDbArc
 50
100.8935918178675
 51
149.1134150964161
  0
LINE
  5
EF7C88BBB
330
EF7C85532
100
AcDbEntity
  8
JISSEN
100
AcDbLine
 10
273.5000829494654
 20
157.6285943602085
 30
0.0
 11
273.5000829494653
 21
160.2427120378701
 31
0.0
  0
LINE
  5
EF7C88BBC
330
EF7C85532
100
AcDbEntity
  8
JISSEN
100
AcDbLine
 10
268.5000829494654
 20
157.6285943602085
 30
0.0
 11
268.5000829494656
 21
160.2427120378701
 31
0.0
  0
LINE
  5
EF7C88BBD
330
EF7C85532
100
AcDbEntity
  8
JISSEN
100
AcDbLine
 10
274.0000829494618
 20
154.6285943602084
 30
0.0
 11
271.0000829494619
 21
154.628594360209
 31
0.0
  0
LINE
  5
EF7C88BBE
330
EF7C85532
100
AcDbEntity
  8
JISSEN
100
AcDbLine
 10
279.1226007652781
 20
160.2427120378691
 30
0.0
 11
279.1226007652777
 21
157.6285943602075
 31
0.0
  0
LINE
  5
EF7C88BBF
330
EF7C85532
100
AcDbEntity
  8
JISSEN
100
AcDbLine
 10
277.2500829494624
 20
157.6285943602079
 30
0.0
 11
277.2500829494628
 21
160.2427120378695
 31
0.0
  0
LINE
  5
EF7C88BC0
330
EF7C85532
100
AcDbEntity
  8
JISSEN
100
AcDbLine
 10
279.9456217762338
 20
159.7740725148696
 30
0.0
 11
280.5958137957355
 21
158.6871033412096
 31
0.0
  0
LINE
  5
EF7C88BC1
330
EF7C85532
100
AcDbEntity
  8
JISSEN
100
AcDbLine
 10
280.5241767714316
 20
158.4112301939079
 30
0.0
 11
279.68822698591
 21
157.9285943602084
 31
0.0
  0
ARC
  5
EF7C88BC2
330
EF7C85532
100
AcDbEntity
  8
JISSEN
100
AcDbCircle
 10
279.58822698591
 20
158.1017994409651
 30
0.0
 40
0.2
100
AcDbArc
 50
209.9999999999901
 51
299.9999999999888
  0
ARC
  5
EF7C88BC3
330
EF7C85532
100
AcDbEntity
  8
JISSEN
100
AcDbCircle
 10
280.4241767714315
 20
158.5844352746648
 30
0.0
 40
0.2
100
AcDbArc
 50
299.9999999999888
 51
30.88658490357206
  0
LINE
  5
EF7C88BC4
330
EF7C85532
100
AcDbEntity
  8
JISSEN
100
AcDbLine
 10
279.415021905153
 20
158.0017994409652
 30
0.0
 11
279.1226007652779
 21
158.5082877124365
 31
0.0
  0
ARC
  5
EF7C88BC5
330
EF7C85532
100
AcDbEntity
  8
JISSEN
100
AcDbCircle
 10
279.0874366547162
 20
159.260732182147
 30
0.0
 40
1.0
100
AcDbArc
 50
30.88658490358381
 51
79.10640818213249
  0
LINE
  5
EF7C88BC6
330
EF7C85532
100
AcDbEntity
  8
JISSEN
100
AcDbLine
 10
284.2500829494623
 20
157.6285943602061
 30
0.0
 11
284.2500829494621
 21
156.1285943602062
 31
0.0
  0
LINE
  5
EF7C88BC7
330
EF7C85532
100
AcDbEntity
  8
JISSEN
100
AcDbLine
 10
282.7500829494622
 20
154.6285943602069
 30
0.0
 11
284.2500829494621
 21
156.1285943602062
 31
0.0
  0
ARC
  5
EF7C88BC8
330
EF7C85532
100
AcDbEntity
  8
JISSEN
100
AcDbCircle
 10
283.5500829494628
 20
160.4427120378684
 30
0.0
 40
0.2
100
AcDbArc
 50
269.9999999999918
 51
359.9999999999884
1001
ACAD
1000
ASC_BOUNDS
1002
{
1070
    19
1002
}
  0
LINE
  5
EF7C88BC9
330
EF7C85532
100
AcDbEntity
  8
JISSEN
100
AcDbLine
 10
283.7500829494631
 20
161.9927120378705
 30
0.0
 11
283.7500829494628
 21
160.4427120378671
 31
0.0
1001
ACAD
1000
ASC_BOUNDS
1002
{
1070
    19
1002
}
  0
TEXT
  5
EF7C88BCA
330
EF7C85532
100
AcDbEntity
  8
TEXT
100
AcDbText
 10
464.7714268703271
 20
272.5000001996573
 30
0.0
 40
3.0
  1
MFJ   型ヘッド
  7
K
 72
     4
 11
478.4999982988986
 21
274.0000001996573
 31
0.0
100
AcDbText
  0
TEXT
  5
EF7C88BCF
330
EF7C85532
100
AcDbEntity
  8
SUNPOU
100
AcDbText
 10
512.6873216672914
 20
149.3494240983425
 30
0.0
 40
3.0
  1
MFJ   作動状態
  7
K
100
AcDbText
  0
TEXT
  5
EF7C88BD0
330
EF7C85532
100
AcDbEntity
  8
SUNPOU
100
AcDbText
 10
512.6873216672914
 20
144.3494240983425
 30
0.0
 40
3.0
  1
尺度　1/1
  7
K
100
AcDbText
  0
LINE
  5
EF7C88BD9
330
EF7C85532
100
AcDbEntity
  8
JISSEN
100
AcDbLine
 10
284.2500829494603
 20
28.12859436020676
 30
0.0
 11
271.0000829494634
 21
28.12859436020903
 31
0.0
  0
LINE
  5
EF7C88BDA
330
EF7C85532
100
AcDbEntity
  8
JISSEN
100
AcDbLine
 10
274.0000829494598
 20
25.12859436020852
 30
0.0
 11
282.7500829494601
 21
25.12859436020701
 31
0.0
  0
LINE
  5
EF7C88BDB
330
EF7C85532
100
AcDbEntity
  8
JISSEN
100
AcDbLine
 10
271.0000829494633
 20
30.74271203787048
 30
0.0
 11
283.5500829494608
 21
30.74271203786864
 31
0.0
1001
ACAD
1000
ASC_BOUNDS
1002
{
1070
    19
1002
}
  0
LINE
  5
EF7C88BDC
330
EF7C85532
100
AcDbEntity
  8
JISSEN
100
AcDbLine
 10
284.25008294946
 20
26.62859436020628
 30
0.0
 11
271.0000829494633
 21
26.62859436020625
 31
0.0
  0
LINE
  5
EF7C88BDD
330
EF7C85532
100
AcDbEntity
  8
JISSEN
100
AcDbLine
 10
277.2500829494605
 20
29.27493403347014
 30
0.0
 11
273.5000829494633
 21
29.54713022951386
 31
0.0
  0
LINE
  5
EF7C88BDE
330
EF7C85532
100
AcDbEntity
  8
JISSEN
100
AcDbLine
 10
257.7500829494667
 20
26.62859436020628
 30
0.0
 11
271.0000829494635
 21
26.62859436020625
 31
0.0
  0
LINE
  5
EF7C88BDF
330
EF7C85532
100
AcDbEntity
  8
JISSEN
100
AcDbLine
 10
271.0000829494635
 20
30.74271203787048
 30
0.0
 11
258.450082949466
 21
30.74271203786864
 31
0.0
1001
ACAD
1000
ASC_BOUNDS
1002
{
1070
    19
1002
}
  0
LINE
  5
EF7C88BE0
330
EF7C85532
100
AcDbEntity
  8
JISSEN
100
AcDbLine
 10
268.000082949467
 20
25.12859436020852
 30
0.0
 11
259.2500829494666
 21
25.12859436020701
 31
0.0
  0
LINE
  5
EF7C88BE1
330
EF7C85532
100
AcDbEntity
  8
JISSEN
100
AcDbLine
 10
257.7500829494665
 20
28.12859436020676
 30
0.0
 11
271.0000829494634
 21
28.12859436020903
 31
0.0
  0
LINE
  5
EF7C88BE2
330
EF7C85532
100
AcDbEntity
  8
JISSEN
100
AcDbLine
 10
261.4759891274973
 20
28.91123019390801
 30
0.0
 11
262.3119389130188
 21
28.42859436020842
 31
0.0
  0
LINE
  5
EF7C88BE3
330
EF7C85532
100
AcDbEntity
  8
JISSEN
100
AcDbLine
 10
262.5851439937758
 20
28.50179944096529
 30
0.0
 11
262.877565133651
 21
29.00828771243652
 31
0.0
  0
LINE
  5
EF7C88BE4
330
EF7C85532
100
AcDbEntity
  8
JISSEN
100
AcDbLine
 10
262.8775651336507
 20
30.74271203786929
 30
0.0
 11
262.8775651336511
 21
28.12859436020763
 31
0.0
  0
LINE
  5
EF7C88BE5
330
EF7C85532
100
AcDbEntity
  8
JISSEN
100
AcDbLine
 10
257.7500829494665
 20
28.12859436020625
 30
0.0
 11
257.7500829494667
 21
26.62859436020628
 31
0.0
  0
LINE
  5
EF7C88BE6
330
EF7C85532
100
AcDbEntity
  8
JISSEN
100
AcDbLine
 10
259.2500829494666
 20
25.12859436020701
 30
0.0
 11
257.7500829494667
 21
26.62859436020628
 31
0.0
  0
ARC
  5
EF7C88BE7
330
EF7C85532
100
AcDbEntity
  8
JISSEN
100
AcDbCircle
 10
262.4119389130187
 20
28.60179944096529
 30
0.0
 40
0.2
100
AcDbArc
 50
240.0000000000111
 51
330.0000000000096
  0
ARC
  5
EF7C88BE8
330
EF7C85532
100
AcDbEntity
  8
JISSEN
100
AcDbCircle
 10
258.4500829494659
 20
30.94271203786842
 30
0.0
 40
0.2
100
AcDbArc
 50
180.0000000000114
 51
270.000000000008
1001
ACAD
1000
ASC_BOUNDS
1002
{
1070
    19
1002
}
  0
LINE
  5
EF7C88BE9
330
EF7C85532
100
AcDbEntity
  8
JISSEN
100
AcDbLine
 10
258.2500829494656
 20
32.49271203787069
 30
0.0
 11
258.250082949466
 21
30.94271203786723
 31
0.0
1001
ACAD
1000
ASC_BOUNDS
1002
{
1070
    19
1002
}
  0
ARC
  5
EF7C88BEA
330
EF7C85532
100
AcDbEntity
  8
JISSEN
100
AcDbCircle
 10
262.9127292442126
 20
29.76073218214702
 30
0.0
 40
1.0
100
AcDbArc
 50
100.8935918178675
 51
149.1134150964161
  0
ARC
  5
EF7C88BEB
330
EF7C85532
100
AcDbEntity
  8
JISSEN
100
AcDbCircle
 10
261.5759891274973
 20
29.08443527466491
 30
0.0
 40
0.2
100
AcDbArc
 50
149.1134150964279
 51
240.0000000000111
  0
LINE
  5
EF7C88BEC
330
EF7C85532
100
AcDbEntity
  8
JISSEN
100
AcDbLine
 10
262.0545441226949
 20
30.2740725148697
 30
0.0
 11
261.4043521031933
 21
29.18710334120976
 31
0.0
  0
LINE
  5
EF7C88BED
330
EF7C85532
100
AcDbEntity
  8
JISSEN
100
AcDbLine
 10
268.000082949467
 20
25.12859436020846
 30
0.0
 11
271.000082949467
 21
25.12859436020903
 31
0.0
  0
LINE
  5
EF7C88BEE
330
EF7C85532
100
AcDbEntity
  8
JISSEN
100
AcDbLine
 10
268.5000829494634
 20
28.12859436020861
 30
0.0
 11
268.5000829494634
 21
30.74271203787012
 31
0.0
  0
LINE
  5
EF7C88BEF
330
EF7C85532
100
AcDbEntity
  8
JISSEN
100
AcDbLine
 10
264.7500829494664
 20
28.12859436020795
 30
0.0
 11
264.7500829494658
 21
30.74271203786957
 31
0.0
  0
LINE
  5
EF7C88BF0
330
EF7C85532
100
AcDbEntity
  8
JISSEN
100
AcDbLine
 10
264.7500829494661
 20
29.27493403347014
 30
0.0
 11
268.5000829494634
 21
29.54713022951386
 31
0.0
  0
LINE
  5
EF7C88BF1
330
EF7C85532
100
AcDbEntity
  8
JISSEN
100
AcDbLine
 10
273.5000829494633
 20
28.12859436020861
 30
0.0
 11
273.5000829494633
 21
30.74271203787012
 31
0.0
  0
LINE
  5
EF7C88BF2
330
EF7C85532
100
AcDbEntity
  8
JISSEN
100
AcDbLine
 10
274.0000829494598
 20
25.12859436020846
 30
0.0
 11
271.0000829494597
 21
25.12859436020903
 31
0.0
  0
LINE
  5
EF7C88BF3
330
EF7C85532
100
AcDbEntity
  8
JISSEN
100
AcDbLine
 10
282.7500829494601
 20
25.12859436020701
 30
0.0
 11
284.25008294946
 21
26.62859436020628
 31
0.0
  0
LINE
  5
EF7C88BF4
330
EF7C85532
100
AcDbEntity
  8
JISSEN
100
AcDbLine
 10
279.4150219051509
 20
28.50179944096529
 30
0.0
 11
279.1226007652758
 21
29.00828771243652
 31
0.0
  0
LINE
  5
EF7C88BF5
330
EF7C85532
100
AcDbEntity
  8
JISSEN
100
AcDbLine
 10
280.5241767714294
 20
28.91123019390801
 30
0.0
 11
279.688226985908
 21
28.42859436020842
 31
0.0
  0
LINE
  5
EF7C88BF6
330
EF7C85532
100
AcDbEntity
  8
JISSEN
100
AcDbLine
 10
277.2500829494604
 20
28.12859436020795
 30
0.0
 11
277.2500829494609
 21
30.74271203786957
 31
0.0
  0
LINE
  5
EF7C88BF7
330
EF7C85532
100
AcDbEntity
  8
JISSEN
100
AcDbLine
 10
279.1226007652761
 20
30.74271203786929
 30
0.0
 11
279.1226007652757
 21
28.12859436020763
 31
0.0
  0
ARC
  5
EF7C88BF8
330
EF7C85532
100
AcDbEntity
  8
JISSEN
100
AcDbCircle
 10
279.588226985908
 20
28.60179944096529
 30
0.0
 40
0.2
100
AcDbArc
 50
209.9999999999901
 51
299.9999999999888
  0
ARC
  5
EF7C88BF9
330
EF7C85532
100
AcDbEntity
  8
JISSEN
100
AcDbCircle
 10
279.0874366547142
 20
29.76073218214702
 30
0.0
 40
1.0
100
AcDbArc
 50
30.88658490358381
 51
79.10640818213249
  0
ARC
  5
EF7C88BFA
330
EF7C85532
100
AcDbEntity
  8
JISSEN
100
AcDbCircle
 10
280.4241767714294
 20
29.08443527466491
 30
0.0
 40
0.2
100
AcDbArc
 50
299.9999999999888
 51
30.88658490357206
  0
LINE
  5
EF7C88BFB
330
EF7C85532
100
AcDbEntity
  8
JISSEN
100
AcDbLine
 10
279.9456217762318
 20
30.2740725148697
 30
0.0
 11
280.5958137957334
 21
29.18710334120976
 31
0.0
  0
LINE
  5
EF7C88BFC
330
EF7C85532
100
AcDbEntity
  8
JISSEN
100
AcDbLine
 10
283.7500829494611
 20
32.49271203787069
 30
0.0
 11
283.7500829494608
 21
30.94271203786723
 31
0.0
1001
ACAD
1000
ASC_BOUNDS
1002
{
1070
    19
1002
}
  0
ARC
  5
EF7C88BFD
330
EF7C85532
100
AcDbEntity
  8
JISSEN
100
AcDbCircle
 10
283.5500829494609
 20
30.94271203786842
 30
0.0
 40
0.2
100
AcDbArc
 50
269.9999999999918
 51
359.9999999999884
1001
ACAD
1000
ASC_BOUNDS
1002
{
1070
    19
1002
}
  0
LINE
  5
EF7C88BFE
330
EF7C85532
100
AcDbEntity
  8
JISSEN
100
AcDbLine
 10
284.2500829494603
 20
28.12859436020625
 30
0.0
 11
284.25008294946
 21
26.62859436020628
 31
0.0
  0
INSERT
  5
EF7C88C41
330
EF7C85532
100
AcDbEntity
  8
WAKU
100
AcDbBlockReference
  2
WAKU
 10
0.0
 20
0.0000003993147857
 30
0.0
 41
181.0
 42
283.0
 43
181.0
  0
HATCH
  5
EF7C88D3C
330
EF7C85532
100
AcDbEntity
  8
HATCH
100
AcDbHatch
 10
0.0
 20
0.0
 30
0.0
210
0.0
220
0.0
230
1.0
  2
_U
 70
     0
 71
     1
 91
        2
 92
        7
 72
     0
 73
     1
 93
       15
 10
107.500083438016
 20
188.3285945598673
 10
107.5000834380161
 20
183.3285945598673
 10
116.350083438016
 20
183.3285945598673
 10
155.2741466959157
 20
183.3285945598673
 10
155.5837102133948
 20
184.0767631037221
 10
155.9139668061094
 20
184.6143341013506
 10
156.2951028324592
 20
185.0375544899749
 10
156.7052752452529
 20
185.3788675815995
 10
157.1226409972996
 20
185.6707166882283
 10
157.5253570414087
 20
185.9455451218661
 10
157.891580330388
 20
186.2357961945161
 10
158.1994678170472
 20
186.573913218183
 10
158.4271764541951
 20
186.9923395048709
 10
158.5690818108754
 20
187.508957481635
 10
158.7336689891255
 20
188.3285945598673
 97
        5
330
EF7C88E29
330
EF7C88D4C
330
EF7C88D58
330
EF7C88D47
330
EF7C88D4B
 92
        7
 72
     0
 73
     1
 93
       14
 10
21.26633101087456
 20
188.3285945598673
 10
21.43091818912454
 20
187.5089574816351
 10
21.57282354580488
 20
186.992339504871
 10
21.80053218295276
 20
186.5739132181831
 10
22.10841966961198
 20
186.2357961945161
 10
22.47464295859149
 20
185.9455451218661
 10
22.87735900269844
 20
185.67071668823
 10
23.29472475474703
 20
185.3788675815995
 10
23.70489716754099
 20
185.0375544899749
 10
24.08603319389072
 20
184.6143341013504
 10
24.41628978660512
 20
184.0767631037222
 10
24.72585330408435
 20
183.3285945598673
 10
72.50008343801606
 20
183.3285945598673
 10
72.50008343801606
 20
188.3285945598673
 97
        4
330
EF7C88D52
330
EF7C88D53
330
EF7C88D51
330
EF7C88D59
 75
     0
 76
     0
 52
45.0
 41
2.0
 77
     0
 78
     1
 53
45.0
 43
0.0
 44
3.000000399314784
 45
-1.414213562373094
 46
1.414213562373094
 79
     0
 47
0.2346837798524018
 98
        2
 10
117.2263874898443
 20
186.1842263955229
 10
66.25858219618862
 20
186.888277449294
  0
ARC
  5
EF7C88D42
330
EF7C85532
100
AcDbEntity
  8
JISSEN
100
AcDbCircle
 10
112.2586144380159
 20
167.5955805598673
 30
0.0
 40
1.399999999999999
100
AcDbArc
 50
294.825405
 51
353.8576429999998
  0
ARC
  5
EF7C88D43
330
EF7C85532
100
AcDbEntity
  8
JISSEN
100
AcDbCircle
 10
111.831038438016
 20
167.5285915598673
 30
0.0
 40
1.3
100
AcDbArc
 50
294.825405
 51
353.8576429999998
  0
ARC
  5
EF7C88D44
330
EF7C85532
100
AcDbEntity
  8
JISSEN
100
AcDbCircle
 10
112.4542041084787
 20
167.3757691340039
 30
0.0
 40
1.5
100
AcDbArc
 50
290.0
 51
355.0000000000001
  0
LINE
  5
EF7C88D45
330
EF7C85532
100
AcDbEntity
  8
JISSEN
100
AcDbLine
 10
113.1235744380159
 20
167.3894925598673
 30
0.0
 11
113.755505438016
 21
173.2615305598673
 31
0.0
  0
LINE
  5
EF7C88D47
102
{ACAD_REACTORS
330
EF7C88D3C
102
}
330
EF7C85532
100
AcDbEntity
  8
JISSEN
100
AcDbLine
 10
116.350083438016
 20
183.3285945598673
 30
0.0
 11
90.00008343801608
 21
183.3285945598673
 31
0.0
  0
LINE
  5
EF7C88D48
330
EF7C85532
100
AcDbEntity
  8
JISSEN
100
AcDbLine
 10
115.5000834380159
 20
174.8285945598673
 30
0.0
 11
90.00008343801608
 21
174.8285945598673
 31
0.0
  0
LINE
  5
EF7C88D49
330
EF7C85532
100
AcDbEntity
  8
JISSEN
100
AcDbLine
 10
116.5000834380159
 20
175.8285945598673
 30
0.0
 11
91.0000834380161
 21
175.8285945598673
 31
0.0
  0
LINE
  5
EF7C88D4A
330
EF7C85532
100
AcDbEntity
  8
JISSEN
100
AcDbLine
 10
91.0000834380161
 20
182.8285945598673
 30
0.0
 11
116.5000834380159
 21
182.8285945598673
 31
0.0
  0
LINE
  5
EF7C88D4B
102
{ACAD_REACTORS
330
EF7C88D3C
102
}
330
EF7C85532
100
AcDbEntity
  8
JISSEN
100
AcDbLine
 10
100.5975893549649
 20
183.3285945598673
 30
0.0
 11
155.2759059556955
 21
183.3285945598673
 31
0.0
  0
LINE
  5
EF7C88D4C
102
{ACAD_REACTORS
330
EF7C88D3C
102
}
330
EF7C85532
100
AcDbEntity
  8
JISSEN
100
AcDbLine
 10
158.7336689891255
 20
188.3285945598673
 30
0.0
 11
100.5350861750282
 21
188.3285945598673
 31
0.0
  0
LWPOLYLINE
  5
EF7C88D50
330
EF7C85532
100
AcDbEntity
  8
NITEN
100
AcDbPolyline
 90
       15
 70
     1
 43
0.0
 10
76.00000000000003
 20
190.9391434655946
 42
0.4142135623730927
 10
77.49999999999992
 20
189.4391434655946
 10
100.5940511709964
 20
189.4391434655946
 10
102.4999999999999
 20
189.4391434655946
 42
0.4142135623730925
 10
104.0
 20
190.9391434655946
 10
104.0
 20
201.9851594918127
 42
-0.4142135623730943
 10
108.9999999999998
 20
206.9851594918127
 42
0.4142135623730951
 10
111.0
 20
208.9851594918127
 10
110.9999999999998
 20
229.4391434655946
 42
0.4142135623730949
 10
109.0
 20
231.4391434655946
 10
71.0
 20
231.4391434655946
 42
0.4142135623730951
 10
69.0
 20
229.4391434655946
 10
69.0
 20
208.9851594918127
 42
0.4142135623730951
 10
71.0
 20
206.9851594918127
 42
-0.4142135623730961
 10
76.00000000000003
 20
201.9851594918127
  0
LINE
  5
EF7C88D51
102
{ACAD_REACTORS
330
EF7C88D3C
102
}
330
EF7C85532
100
AcDbEntity
  8
JISSEN
100
AcDbLine
 10
79.40257752106724
 20
183.3285945598673
 30
0.0
 11
24.72409404430448
 21
183.3285945598673
 31
0.0
  0
LINE
  5
EF7C88D52
102
{ACAD_REACTORS
330
EF7C88D3C
102
}
330
EF7C85532
100
AcDbEntity
  8
JISSEN
100
AcDbLine
 10
21.26633101087457
 20
188.3285945598673
 30
0.0
 11
79.46508070100382
 21
188.3285945598673
 31
0.0
  0
LWPOLYLINE
  5
EF7C88D53
102
{ACAD_REACTORS
330
EF7C88D3C
102
}
330
EF7C85532
100
AcDbEntity
  8
HATCH
100
AcDbPolyline
 90
       13
 70
     0
 43
0.0
 10
21.26633101087457
 20
188.3285945598673
 10
21.43091818912455
 20
187.5089574816351
 10
21.57282354580487
 20
186.992339504871
 10
21.80053218295272
 20
186.5739132181831
 10
22.108419669612
 20
186.2357961945161
 10
22.47464295859153
 20
185.9455451218661
 10
22.87735900270027
 20
185.6707166882285
 10
23.2947247547471
 20
185.3788675815996
 10
23.70489716754093
 20
185.0375544899748
 10
24.08603319389063
 20
184.6143341013505
 10
24.41628978660512
 20
184.0767631037221
 10
24.69086984980787
 20
183.4131443164348
 10
24.7240940443045
 20
183.3285945598673
  0
LINE
  5
EF7C88D54
330
EF7C85532
100
AcDbEntity
  8
SAISEN
100
AcDbLine
 10
99.45931643801605
 20
185.5693615598673
 30
0.0
 11
98.96681659128276
 21
201.3285945598709
 31
0.0
  0
LINE
  5
EF7C88D55
330
EF7C85532
100
AcDbEntity
  8
JISSEN
100
AcDbLine
 10
100.1652281593809
 20
200.1634489151978
 30
0.0
 11
100.6588024380159
 21
184.3698755598673
 31
0.0
  0
LINE
  5
EF7C88D56
330
EF7C85532
100
AcDbEntity
  8
JISSEN
100
AcDbLine
 10
79.83493871665119
 20
200.1634489151978
 30
0.0
 11
79.34136443801609
 21
184.3698755598673
 31
0.0
  0
LINE
  5
EF7C88D57
330
EF7C85532
100
AcDbEntity
  8
SAISEN
100
AcDbLine
 10
80.54085043801606
 20
185.5693615598673
 30
0.0
 11
81.03335028474933
 21
201.3285945598709
 31
0.0
  0
LINE
  5
EF7C88D58
102
{ACAD_REACTORS
330
EF7C88D3C
102
}
330
EF7C85532
100
AcDbEntity
  8
JISSEN
100
AcDbLine
 10
107.500083438016
 20
188.3285945598673
 30
0.0
 11
107.500083438016
 21
183.3285945598673
 31
0.0
  0
LINE
  5
EF7C88D59
102
{ACAD_REACTORS
330
EF7C88D3C
102
}
330
EF7C85532
100
AcDbEntity
  8
JISSEN
100
AcDbLine
 10
72.50008343801606
 20
188.3285945598673
 30
0.0
 11
72.50008343801606
 21
183.3285945598673
 31
0.0
  0
LINE
  5
EF7C88D5A
330
EF7C85532
100
AcDbEntity
  8
JISSEN
100
AcDbLine
 10
90.00008343801608
 20
185.5693615598673
 30
0.0
 11
79.37885043801614
 21
185.5693615598673
 31
0.0
  0
LINE
  5
EF7C88D5B
330
EF7C85532
100
AcDbEntity
  8
JISSEN
100
AcDbLine
 10
83.75008343801894
 20
158.7749342331275
 30
0.0
 11
87.50008343801622
 21
159.0471304291711
 31
0.0
  0
LINE
  5
EF7C88D5C
330
EF7C85532
100
AcDbEntity
  8
JISSEN
100
AcDbLine
 10
90.00008343801608
 20
161.992712237528
 30
0.0
 11
75.47088042141435
 21
161.9927122375278
 31
0.0
1001
ACAD
1000
ASC_BOUNDS
1002
{
1070
    19
1002
}
  0
LINE
  5
EF7C88D5D
330
EF7C85532
100
AcDbEntity
  8
JISSEN
100
AcDbLine
 10
76.75008343801923
 20
157.6285945598641
 30
0.0
 11
90.00008343801615
 21
157.6285945598663
 31
0.0
  0
LINE
  5
EF7C88D5E
330
EF7C85532
100
AcDbEntity
  8
JISSEN
100
AcDbLine
 10
87.00008343801981
 20
154.6285945598658
 30
0.0
 11
78.25008343801934
 21
154.6285945598643
 31
0.0
  0
LINE
  5
EF7C88D5F
330
EF7C85532
100
AcDbEntity
  8
JISSEN
100
AcDbLine
 10
90.00008343801622
 20
160.2427122375277
 30
0.0
 11
77.45008343801877
 21
160.242712237526
 31
0.0
1001
ACAD
1000
ASC_BOUNDS
1002
{
1070
    19
1002
}
  0
LINE
  5
EF7C88D60
330
EF7C85532
100
AcDbEntity
  8
JISSEN
100
AcDbLine
 10
76.75008343801952
 20
156.1285945598635
 30
0.0
 11
90.00008343801622
 21
156.1285945598635
 31
0.0
  0
LINE
  5
EF7C88D61
330
EF7C85532
100
AcDbEntity
  8
JISSEN
100
AcDbLine
 10
89.00008343801609
 20
182.8285945598673
 30
0.0
 11
63.50008343801608
 21
182.8285945598673
 31
0.0
  0
LINE
  5
EF7C88D62
330
EF7C85532
100
AcDbEntity
  8
JISSEN
100
AcDbLine
 10
63.50008343801608
 20
175.8285945598673
 30
0.0
 11
89.00008343801609
 21
175.8285945598673
 31
0.0
  0
LINE
  5
EF7C88D63
330
EF7C85532
100
AcDbEntity
  8
JISSEN
100
AcDbLine
 10
64.50008343801608
 20
174.8285945598673
 30
0.0
 11
90.00008343801608
 21
174.8285945598673
 31
0.0
  0
LINE
  5
EF7C88D64
330
EF7C85532
100
AcDbEntity
  8
JISSEN
100
AcDbLine
 10
63.65008343801611
 20
183.3285945598673
 30
0.0
 11
90.00008343801608
 21
183.3285945598673
 31
0.0
  0
LINE
  5
EF7C88D65
330
EF7C85532
100
AcDbEntity
  8
JISSEN
100
AcDbLine
 10
75.47088042141435
 20
161.9927122375278
 30
0.0
 11
66.94547781217671
 21
166.0012081792381
 31
0.0
1001
ACAD
1000
ASC_BOUNDS
1002
{
1070
    19
1002
}
  0
LINE
  5
EF7C88D66
330
EF7C85532
100
AcDbEntity
  8
JISSEN
100
AcDbLine
 10
78.25008343801934
 20
154.6285945598643
 30
0.0
 11
76.75008343801952
 21
156.1285945598635
 31
0.0
  0
LINE
  5
EF7C88D67
330
EF7C85532
100
AcDbEntity
  8
JISSEN
100
AcDbLine
 10
76.75008343801923
 20
157.6285945598636
 30
0.0
 11
76.75008343801952
 21
156.1285945598635
 31
0.0
  0
LINE
  5
EF7C88D68
330
EF7C85532
100
AcDbEntity
  8
JISSEN
100
AcDbLine
 10
77.25008343801838
 20
161.992712237528
 30
0.0
 11
77.25008343801872
 21
160.4427122375245
 31
0.0
1001
ACAD
1000
ASC_BOUNDS
1002
{
1070
    19
1002
}
  0
ARC
  5
EF7C88D69
330
EF7C85532
100
AcDbEntity
  8
JISSEN
100
AcDbCircle
 10
77.4500834380187
 20
160.4427122375256
 30
0.0
 40
0.2
100
AcDbArc
 50
180.0000000000114
 51
270.000000000008
1001
ACAD
1000
ASC_BOUNDS
1002
{
1070
    19
1002
}
  0
LINE
  5
EF7C88D6A
330
EF7C85532
100
AcDbEntity
  8
JISSEN
100
AcDbLine
 10
83.75008343801917
 20
157.6285945598652
 30
0.0
 11
83.75008343801864
 21
160.2427122375269
 31
0.0
  0
LINE
  5
EF7C88D6B
330
EF7C85532
100
AcDbEntity
  8
JISSEN
100
AcDbLine
 10
81.87756562220343
 20
160.2427122375265
 30
0.0
 11
81.87756562220389
 21
157.628594559865
 31
0.0
  0
LINE
  5
EF7C88D6C
330
EF7C85532
100
AcDbEntity
  8
JISSEN
100
AcDbLine
 10
81.58514448232855
 20
158.0017996406226
 30
0.0
 11
81.8775656222037
 21
158.5082879120939
 31
0.0
  0
LINE
  5
EF7C88D6D
330
EF7C85532
100
AcDbEntity
  8
JISSEN
100
AcDbLine
 10
80.47598961605004
 20
158.4112303935653
 30
0.0
 11
81.31193940157158
 21
157.9285945598656
 31
0.0
  0
ARC
  5
EF7C88D6E
330
EF7C85532
100
AcDbEntity
  8
JISSEN
100
AcDbCircle
 10
81.41193940157156
 20
158.1017996406226
 30
0.0
 40
0.2
100
AcDbArc
 50
240.0000000000111
 51
330.0000000000096
  0
ARC
  5
EF7C88D6F
330
EF7C85532
100
AcDbEntity
  8
JISSEN
100
AcDbCircle
 10
81.91272973276538
 20
159.2607323818043
 30
0.0
 40
1.0
100
AcDbArc
 50
100.8935918178675
 51
149.1134150964161
  0
LINE
  5
EF7C88D70
330
EF7C85532
100
AcDbEntity
  8
JISSEN
100
AcDbLine
 10
81.05454461124779
 20
159.7740727145269
 30
0.0
 11
80.40435259174605
 21
158.6871035408671
 31
0.0
  0
ARC
  5
EF7C88D71
330
EF7C85532
100
AcDbEntity
  8
JISSEN
100
AcDbCircle
 10
80.57598961605007
 20
158.5844354743221
 30
0.0
 40
0.2
100
AcDbArc
 50
149.1134150964279
 51
240.0000000000111
  0
ARC
  5
EF7C88D72
330
EF7C85532
100
AcDbEntity
  8
JISSEN
100
AcDbCircle
 10
70.81593243801609
 20
165.9317155598673
 30
0.0
 40
0.4
100
AcDbArc
 50
242.253262
 51
270.0
  0
LINE
  5
EF7C88D73
330
EF7C85532
100
AcDbEntity
  8
JISSEN
100
AcDbLine
 10
71.85880843801609
 20
165.7202175598673
 30
0.0
 11
70.35943343801609
 21
166.5089675598673
 31
0.0
  0
LINE
  5
EF7C88D74
330
EF7C85532
100
AcDbEntity
  8
JISSEN
100
AcDbLine
 10
65.40008343801611
 20
174.8285945598673
 30
0.0
 11
65.53131643801609
 21
173.3285945598673
 31
0.0
  0
LINE
  5
EF7C88D75
330
EF7C85532
100
AcDbEntity
  8
JISSEN
100
AcDbLine
 10
69.0893424380161
 20
173.1110275598673
 30
0.0
 11
69.62009643801611
 21
167.0915775598673
 31
0.0
  0
LINE
  5
EF7C88D76
330
EF7C85532
100
AcDbEntity
  8
JISSEN
100
AcDbLine
 10
68.02692143801607
 20
172.8909075598673
 30
0.0
 11
68.5526234380161
 21
167.3359615598673
 31
0.0
  0
LINE
  5
EF7C88D77
330
EF7C85532
100
AcDbEntity
  8
JISSEN
100
AcDbLine
 10
70.0942744380161
 20
166.9061445598671
 30
0.0
 11
69.52616643801611
 21
173.1467265598673
 31
0.0
  0
LINE
  5
EF7C88D78
330
EF7C85532
100
AcDbEntity
  8
JISSEN
100
AcDbLine
 10
66.87659243801608
 20
167.3894925598673
 30
0.0
 11
66.24466143801609
 21
173.2615305598673
 31
0.0
  0
LINE
  5
EF7C88D79
330
EF7C85532
100
AcDbEntity
  8
JISSEN
100
AcDbLine
 10
65.7617594380161
 20
172.9080305598673
 30
0.0
 11
66.3495894380161
 21
167.4457815598673
 31
0.0
  0
LINE
  5
EF7C88D7A
330
EF7C85532
100
AcDbEntity
  8
JISSEN
100
AcDbLine
 10
65.53131643801609
 20
173.3285945598673
 30
0.0
 11
66.05167043801609
 21
167.3809175598672
 31
0.0
  0
ARC
  5
EF7C88D7B
330
EF7C85532
100
AcDbEntity
  8
JISSEN
100
AcDbCircle
 10
68.16912843801609
 20
167.5285915598673
 30
0.0
 40
1.3
100
AcDbArc
 50
186.1423570000001
 51
245.1745949999998
  0
LINE
  5
EF7C88D7C
330
EF7C85532
100
AcDbEntity
  8
JISSEN
100
AcDbLine
 10
67.15375643801611
 20
166.3249525598673
 30
0.0
 11
68.62065443801609
 21
165.6463605598673
 31
0.0
  0
ARC
  5
EF7C88D7D
330
EF7C85532
100
AcDbEntity
  8
JISSEN
100
AcDbCircle
 10
67.5459627675533
 20
167.3757691340039
 30
0.0
 40
1.5
100
AcDbArc
 50
184.9999999999998
 51
249.9999999999999
  0
ARC
  5
EF7C88D7E
330
EF7C85532
100
AcDbEntity
  8
JISSEN
100
AcDbCircle
 10
67.74155243801607
 20
167.5955805598673
 30
0.0
 40
1.399999999999999
100
AcDbArc
 50
186.1423570000001
 51
245.1745949999998
  0
ARC
  5
EF7C88D7F
330
EF7C85532
100
AcDbEntity
  8
JISSEN
100
AcDbCircle
 10
70.1181644380161
 20
167.1354935598673
 30
0.0
 40
0.5
100
AcDbArc
 50
185.0389269999999
 51
279.3495549999998
  0
LINE
  5
EF7C88D80
330
EF7C85532
100
AcDbEntity
  8
JISSEN
100
AcDbLine
 10
69.24160743801611
 20
166.3079235598672
 30
0.0
 11
70.62970643801609
 21
165.5777105598673
 31
0.0
  0
ARC
  5
EF7C88D81
330
EF7C85532
100
AcDbEntity
  8
JISSEN
100
AcDbCircle
 10
69.11418443801608
 20
165.6039525598673
 30
0.0
 40
0.05
100
AcDbArc
 50
270.0
 51
65.17459499999985
  0
LINE
  5
EF7C88D82
330
EF7C85532
100
AcDbEntity
  8
JISSEN
100
AcDbLine
 10
69.0405094380161
 20
165.5539525598673
 30
0.0
 11
69.11418443801608
 21
165.5539525598673
 31
0.0
  0
ARC
  5
EF7C88D83
330
EF7C85532
100
AcDbEntity
  8
JISSEN
100
AcDbCircle
 10
69.0405094380161
 20
166.5539525598672
 30
0.0
 40
1.0
100
AcDbArc
 50
245.1745949999998
 51
270.0
  0
ARC
  5
EF7C88D84
330
EF7C85532
100
AcDbEntity
  8
JISSEN
100
AcDbCircle
 10
69.8468404380161
 20
167.4584425598673
 30
0.0
 40
1.3
100
AcDbArc
 50
185.4061850000002
 51
242.253262
  0
ARC
  5
EF7C88D85
330
EF7C85532
100
AcDbEntity
  8
JISSEN
100
AcDbCircle
 10
70.59221543801605
 20
166.9514745598673
 30
0.0
 40
0.5
100
AcDbArc
 50
185.2015590000002
 51
242.253262
  0
LINE
  5
EF7C88D86
330
EF7C85532
100
AcDbEntity
  8
JISSEN
100
AcDbLine
 10
69.1351764380161
 20
165.6493315598673
 30
0.0
 11
67.6233174380161
 21
166.3487225598673
 31
0.0
  0
ARC
  5
EF7C88D87
330
EF7C85532
100
AcDbEntity
  8
JISSEN
100
AcDbCircle
 10
66.15946243801608
 20
172.9508305598673
 30
0.0
 40
0.4
100
AcDbArc
 50
91.35885499999986
 51
186.1423570000001
  0
ARC
  5
EF7C88D88
330
EF7C85532
100
AcDbEntity
  8
JISSEN
100
AcDbCircle
 10
66.14523543801607
 20
173.2508305598673
 30
0.0
 40
0.1
100
AcDbArc
 50
6.142357000000093
 51
87.28209800000021
  0
ARC
  5
EF7C88D89
330
EF7C85532
100
AcDbEntity
  8
JISSEN
100
AcDbCircle
 10
69.28856943801608
 20
173.1285945598673
 30
0.0
 40
0.2
100
AcDbArc
 50
90.0
 51
185.0389269999999
  0
ARC
  5
EF7C88D8A
330
EF7C85532
100
AcDbEntity
  8
JISSEN
100
AcDbCircle
 10
68.42514243801608
 20
172.9285945598673
 30
0.0
 40
0.4
100
AcDbArc
 50
90.0
 51
185.4061850000002
  0
LINE
  5
EF7C88D8B
330
EF7C85532
100
AcDbEntity
  8
JISSEN
100
AcDbLine
 10
69.32698943801608
 20
173.3285945598673
 30
0.0
 11
68.42514243801608
 21
173.3285945598673
 31
0.0
  0
ARC
  5
EF7C88D8C
330
EF7C85532
100
AcDbEntity
  8
JISSEN
100
AcDbCircle
 10
69.32698943801608
 20
173.1285945598673
 30
0.0
 40
0.2
100
AcDbArc
 50
5.201559000000191
 51
90.0
  0
LINE
  5
EF7C88D8D
330
EF7C85532
100
AcDbEntity
  8
JISSEN
100
AcDbLine
 10
63.50008343801608
 20
183.1785945598673
 30
0.0
 11
63.65008343801611
 21
183.3285945598673
 31
0.0
  0
LINE
  5
EF7C88D8E
330
EF7C85532
100
AcDbEntity
  8
JISSEN
100
AcDbLine
 10
63.50008343801608
 20
175.8285945598673
 30
0.0
 11
64.50008343801608
 21
174.8285945598673
 31
0.0
  0
LINE
  5
EF7C88D8F
330
EF7C85532
100
AcDbEntity
  8
JISSEN
100
AcDbLine
 10
63.50008343801608
 20
183.1785945598673
 30
0.0
 11
63.50008343801608
 21
175.8285945598673
 31
0.0
  0
LINE
  5
EF7C88D90
330
EF7C85532
100
AcDbEntity
  8
JISSEN
100
AcDbLine
 10
64.50008343801608
 20
174.8285945598673
 30
0.0
 11
65.40008343801611
 21
174.8285945598673
 31
0.0
  0
LINE
  5
EF7C88D91
330
EF7C85532
100
AcDbEntity
  8
JISSEN
100
AcDbLine
 10
75.37906243801606
 20
173.1426085598673
 30
0.0
 11
75.82286943801604
 21
166.8243425598673
 31
0.0
  0
LINE
  5
EF7C88D92
330
EF7C85532
100
AcDbEntity
  8
JISSEN
100
AcDbLine
 10
73.49820643801608
 20
167.2020395598672
 30
0.0
 11
73.09417243801608
 21
172.9540695598673
 31
0.0
  0
LINE
  5
EF7C88D93
330
EF7C85532
100
AcDbEntity
  8
JISSEN
100
AcDbLine
 10
73.89384343801609
 20
173.0090025598673
 30
0.0
 11
74.28648643801608
 21
167.0093715598673
 31
0.0
  0
ARC
  5
EF7C88D94
330
EF7C85532
100
AcDbEntity
  8
JISSEN
100
AcDbCircle
 10
74.68563243801608
 20
167.0354935598673
 30
0.0
 40
0.4
100
AcDbArc
 50
183.7443620000003
 51
270.0
  0
LINE
  5
EF7C88D95
330
EF7C85532
100
AcDbEntity
  8
JISSEN
100
AcDbLine
 10
75.00443043801604
 20
165.5961635598672
 30
0.0
 11
74.00136443801608
 21
166.3070855598673
 31
0.0
  0
ARC
  5
EF7C88D96
330
EF7C85532
100
AcDbEntity
  8
JISSEN
100
AcDbCircle
 10
71.81225143801609
 20
165.6317155598673
 30
0.0
 40
0.1
100
AcDbArc
 50
270.0
 51
62.25326200000021
  0
ARC
  5
EF7C88D97
330
EF7C85532
100
AcDbEntity
  8
JISSEN
100
AcDbCircle
 10
74.69525643801609
 20
167.2861225598673
 30
0.0
 40
1.199999999999999
100
AcDbArc
 50
184.0179690000003
 51
234.6729319999998
  0
LINE
  5
EF7C88D98
330
EF7C85532
100
AcDbEntity
  8
JISSEN
100
AcDbLine
 10
70.81593243801609
 20
165.5317155598673
 30
0.0
 11
71.81225143801609
 21
165.5317155598673
 31
0.0
  0
LINE
  5
EF7C88D99
330
EF7C85532
100
AcDbEntity
  8
JISSEN
100
AcDbLine
 10
76.92244843801613
 20
165.5317155598673
 30
0.0
 11
75.20681543801609
 21
165.5317155598673
 31
0.0
  0
LINE
  5
EF7C88D9A
330
EF7C85532
100
AcDbEntity
  8
JISSEN
100
AcDbLine
 10
75.99058943801608
 20
166.5260245598672
 30
0.0
 11
77.00918443801609
 21
165.8040955598672
 31
0.0
  0
ARC
  5
EF7C88D9B
330
EF7C85532
100
AcDbEntity
  8
JISSEN
100
AcDbCircle
 10
75.20681543801609
 20
165.8817155598673
 30
0.0
 40
0.35
100
AcDbArc
 50
234.6729319999998
 51
270.0
  0
ARC
  5
EF7C88D9C
330
EF7C85532
100
AcDbEntity
  8
JISSEN
100
AcDbCircle
 10
76.22188643801613
 20
166.8523705598673
 30
0.0
 40
0.4
100
AcDbArc
 50
184.0179690000003
 51
234.6729319999998
  0
ARC
  5
EF7C88D9D
330
EF7C85532
100
AcDbEntity
  8
JISSEN
100
AcDbCircle
 10
76.92244843801613
 20
165.6817155598673
 30
0.0
 40
0.15
100
AcDbArc
 50
270.0
 51
54.67293199999994
  0
LINE
  5
EF7C88D9E
330
EF7C85532
100
AcDbEntity
  8
JISSEN
100
AcDbLine
 10
74.68563243801608
 20
166.6354935598673
 30
0.0
 11
75.88578443801607
 21
166.6354935598673
 31
0.0
  0
LINE
  5
EF7C88D9F
330
EF7C85532
100
AcDbEntity
  8
JISSEN
100
AcDbLine
 10
74.19320243801609
 20
173.3285945598673
 30
0.0
 11
75.17955343801609
 21
173.3285945598673
 31
0.0
  0
LINE
  5
EF7C88DA0
330
EF7C85532
100
AcDbEntity
  8
JISSEN
100
AcDbLine
 10
73.44331143801611
 20
173.3285945598673
 30
0.0
 11
74.19320243801609
 21
173.3285945598673
 31
0.0
  0
ARC
  5
EF7C88DA1
330
EF7C85532
100
AcDbEntity
  8
JISSEN
100
AcDbCircle
 10
73.44331143801611
 20
172.9785945598673
 30
0.0
 40
0.35
100
AcDbArc
 50
90.0
 51
184.0179690000003
  0
ARC
  5
EF7C88DA2
330
EF7C85532
100
AcDbEntity
  8
JISSEN
100
AcDbCircle
 10
74.19320243801609
 20
173.0285945598673
 30
0.0
 40
0.3
100
AcDbArc
 50
90.0
 51
183.7443620000003
  0
ARC
  5
EF7C88DA3
330
EF7C85532
100
AcDbEntity
  8
JISSEN
100
AcDbCircle
 10
75.17955343801609
 20
173.1285945598673
 30
0.0
 40
0.2
100
AcDbArc
 50
4.017969000000318
 51
90.0
  0
LINE
  5
EF7C88DA4
330
EF7C85532
100
AcDbEntity
  8
JISSEN
100
AcDbLine
 10
83.25823043801609
 20
166.7293185598673
 30
0.0
 11
83.01877843801609
 21
173.1360645598673
 31
0.0
  0
LINE
  5
EF7C88DA5
330
EF7C85532
100
AcDbEntity
  8
JISSEN
100
AcDbLine
 10
80.20413643801608
 20
173.0173895598673
 30
0.0
 11
80.43097043801607
 21
166.9482415598673
 31
0.0
  0
LINE
  5
EF7C88DA6
330
EF7C85532
100
AcDbEntity
  8
JISSEN
100
AcDbLine
 10
80.62987843801606
 20
173.0698935598673
 30
0.0
 11
80.84385643801605
 21
166.9250535598673
 31
0.0
  0
ARC
  5
EF7C88DA7
330
EF7C85532
100
AcDbEntity
  8
JISSEN
100
AcDbCircle
 10
81.42122443801614
 20
165.8317155598673
 30
0.0
 40
0.3
100
AcDbArc
 50
216.8971619999997
 51
270.0
  0
LINE
  5
EF7C88DA8
330
EF7C85532
100
AcDbEntity
  8
JISSEN
100
AcDbLine
 10
81.14367443801613
 20
166.6354935598673
 30
0.0
 11
83.27700743801612
 21
166.6354935598673
 31
0.0
  0
ARC
  5
EF7C88DA9
330
EF7C85532
100
AcDbEntity
  8
JISSEN
100
AcDbCircle
 10
81.4302724380161
 20
166.9855905598673
 30
0.0
 40
1.0
100
AcDbArc
 50
182.1404319999997
 51
216.8971619999997
  0
LINE
  5
EF7C88DAA
330
EF7C85532
100
AcDbEntity
  8
JISSEN
100
AcDbLine
 10
80.6305584380161
 20
166.3852095598672
 30
0.0
 11
81.18130943801608
 21
165.6516015598673
 31
0.0
  0
ARC
  5
EF7C88DAB
330
EF7C85532
100
AcDbEntity
  8
JISSEN
100
AcDbCircle
 10
81.14367443801613
 20
166.9354935598672
 30
0.0
 40
0.3
100
AcDbArc
 50
181.994368
 51
270.0
  0
LINE
  5
EF7C88DAC
330
EF7C85532
100
AcDbEntity
  8
JISSEN
100
AcDbLine
 10
83.85009643801609
 20
165.8517925598673
 30
0.0
 11
83.31810643801608
 21
166.5604085598673
 31
0.0
  0
ARC
  5
EF7C88DAD
330
EF7C85532
100
AcDbEntity
  8
JISSEN
100
AcDbCircle
 10
83.6901534380161
 20
165.7317155598672
 30
0.0
 40
0.2
100
AcDbArc
 50
270.0
 51
36.89716199999973
  0
ARC
  5
EF7C88DAE
330
EF7C85532
100
AcDbEntity
  8
JISSEN
100
AcDbCircle
 10
83.55802143801614
 20
166.7405225598673
 30
0.0
 40
0.3
100
AcDbArc
 50
182.1404319999997
 51
216.8971619999997
  0
LINE
  5
EF7C88DAF
330
EF7C85532
100
AcDbEntity
  8
JISSEN
100
AcDbLine
 10
81.42122443801614
 20
165.5317155598673
 30
0.0
 11
83.6901534380161
 21
165.5317155598673
 31
0.0
  0
LINE
  5
EF7C88DB0
330
EF7C85532
100
AcDbEntity
  8
JISSEN
100
AcDbLine
 10
82.81891743801608
 20
173.3285945598673
 30
0.0
 11
80.50392643801606
 21
173.3285945598673
 31
0.0
  0
ARC
  5
EF7C88DB1
330
EF7C85532
100
AcDbEntity
  8
JISSEN
100
AcDbCircle
 10
80.50392643801606
 20
173.0285945598673
 30
0.0
 40
0.3
100
AcDbArc
 50
90.0
 51
182.1404319999997
  0
ARC
  5
EF7C88DB2
330
EF7C85532
100
AcDbEntity
  8
JISSEN
100
AcDbCircle
 10
80.87972643801609
 20
173.0785945598673
 30
0.0
 40
0.25
100
AcDbArc
 50
90.0
 51
181.994368
  0
ARC
  5
EF7C88DB3
330
EF7C85532
100
AcDbEntity
  8
JISSEN
100
AcDbCircle
 10
82.81891743801608
 20
173.1285945598673
 30
0.0
 40
0.2
100
AcDbArc
 50
2.140431999999735
 51
90.0
  0
LINE
  5
EF7C88DB4
330
EF7C85532
100
AcDbEntity
  8
SAISEN
100
AcDbLine
 10
79.34136443801609
 20
184.3698755598673
 30
0.0
 11
80.54085043801606
 21
185.5693615598673
 31
0.0
  0
LINE
  5
EF7C88DB5
330
EF7C85532
100
AcDbEntity
  8
JISSEN
100
AcDbLine
 10
78.30008343801606
 20
183.3285945598673
 30
0.0
 11
79.34136443801609
 21
184.3698755598673
 31
0.0
  0
LINE
  5
EF7C88DB6
330
EF7C85532
100
AcDbEntity
  8
JISSEN
100
AcDbLine
 10
104.5292864546178
 20
161.9927122375278
 30
0.0
 11
113.0546890638554
 21
166.0012081792381
 31
0.0
1001
ACAD
1000
ASC_BOUNDS
1002
{
1070
    19
1002
}
  0
LINE
  5
EF7C88DB8
330
EF7C85532
100
AcDbEntity
  8
JISSEN
100
AcDbLine
 10
98.94562226478456
 20
159.7740727145269
 30
0.0
 11
99.59581428428629
 21
158.6871035408671
 31
0.0
  0
ARC
  5
EF7C88DB9
330
EF7C85532
100
AcDbEntity
  8
JISSEN
100
AcDbCircle
 10
98.08743714326695
 20
159.2607323818043
 30
0.0
 40
1.0
100
AcDbArc
 50
30.88658490358381
 51
79.10640818213249
  0
LINE
  5
EF7C88DBA
330
EF7C85532
100
AcDbEntity
  8
JISSEN
100
AcDbLine
 10
99.52417725998229
 20
158.4112303935653
 30
0.0
 11
98.68822747446072
 21
157.9285945598656
 31
0.0
  0
LINE
  5
EF7C88DBB
330
EF7C85532
100
AcDbEntity
  8
JISSEN
100
AcDbLine
 10
90.00008343801608
 20
161.992712237528
 30
0.0
 11
104.5292864546178
 21
161.9927122375278
 31
0.0
1001
ACAD
1000
ASC_BOUNDS
1002
{
1070
    19
1002
}
  0
LINE
  5
EF7C88DBC
330
EF7C85532
100
AcDbEntity
  8
JISSEN
100
AcDbLine
 10
103.2500834380127
 20
156.1285945598635
 30
0.0
 11
90.00008343801608
 21
156.1285945598635
 31
0.0
  0
LINE
  5
EF7C88DBD
330
EF7C85532
100
AcDbEntity
  8
JISSEN
100
AcDbLine
 10
90.00008343801608
 20
160.2427122375277
 30
0.0
 11
102.5500834380135
 21
160.242712237526
 31
0.0
1001
ACAD
1000
ASC_BOUNDS
1002
{
1070
    19
1002
}
  0
LINE
  5
EF7C88DBE
330
EF7C85532
100
AcDbEntity
  8
JISSEN
100
AcDbLine
 10
93.00008343801252
 20
154.6285945598658
 30
0.0
 11
101.7500834380129
 21
154.6285945598643
 31
0.0
  0
LINE
  5
EF7C88DBF
330
EF7C85532
100
AcDbEntity
  8
JISSEN
100
AcDbLine
 10
103.250083438013
 20
157.6285945598641
 30
0.0
 11
90.00008343801615
 21
157.6285945598663
 31
0.0
  0
LINE
  5
EF7C88DC0
330
EF7C85532
100
AcDbEntity
  8
JISSEN
100
AcDbLine
 10
93.00008343801257
 20
154.6285945598658
 30
0.0
 11
90.00008343801258
 21
154.6285945598663
 31
0.0
  0
LINE
  5
EF7C88DC1
330
EF7C85532
100
AcDbEntity
  8
JISSEN
100
AcDbLine
 10
87.50008343801622
 20
157.6285945598659
 30
0.0
 11
87.50008343801628
 21
160.2427122375273
 31
0.0
  0
LINE
  5
EF7C88DC2
330
EF7C85532
100
AcDbEntity
  8
JISSEN
100
AcDbLine
 10
87.00008343801973
 20
154.6285945598658
 30
0.0
 11
90.00008343801972
 21
154.6285945598663
 31
0.0
  0
LINE
  5
EF7C88DC3
330
EF7C85532
100
AcDbEntity
  8
JISSEN
100
AcDbLine
 10
98.12260125382891
 20
160.2427122375265
 30
0.0
 11
98.12260125382843
 21
157.628594559865
 31
0.0
  0
LINE
  5
EF7C88DC4
330
EF7C85532
100
AcDbEntity
  8
JISSEN
100
AcDbLine
 10
96.25008343801315
 20
157.6285945598652
 30
0.0
 11
96.25008343801368
 21
160.2427122375269
 31
0.0
  0
LINE
  5
EF7C88DC5
330
EF7C85532
100
AcDbEntity
  8
JISSEN
100
AcDbLine
 10
98.41502239370377
 20
158.0017996406226
 30
0.0
 11
98.12260125382861
 21
158.5082879120939
 31
0.0
  0
LINE
  5
EF7C88DC6
330
EF7C85532
100
AcDbEntity
  8
JISSEN
100
AcDbLine
 10
92.50008343801608
 20
157.6285945598659
 30
0.0
 11
92.50008343801605
 21
160.2427122375273
 31
0.0
  0
ARC
  5
EF7C88DC7
330
EF7C85532
100
AcDbEntity
  8
JISSEN
100
AcDbCircle
 10
98.58822747446078
 20
158.1017996406226
 30
0.0
 40
0.2
100
AcDbArc
 50
209.9999999999901
 51
299.9999999999888
  0
LINE
  5
EF7C88DC8
330
EF7C85532
100
AcDbEntity
  8
JISSEN
100
AcDbLine
 10
96.25008343801338
 20
158.7749342331275
 30
0.0
 11
92.50008343801608
 21
159.0471304291711
 31
0.0
  0
LINE
  5
EF7C88DC9
330
EF7C85532
100
AcDbEntity
  8
JISSEN
100
AcDbLine
 10
101.7500834380129
 20
154.6285945598643
 30
0.0
 11
103.2500834380127
 21
156.1285945598635
 31
0.0
  0
LINE
  5
EF7C88DCA
330
EF7C85532
100
AcDbEntity
  8
JISSEN
100
AcDbLine
 10
103.250083438013
 20
157.6285945598636
 30
0.0
 11
103.2500834380127
 21
156.1285945598635
 31
0.0
  0
ARC
  5
EF7C88DCB
330
EF7C85532
100
AcDbEntity
  8
JISSEN
100
AcDbCircle
 10
99.42417725998225
 20
158.5844354743221
 30
0.0
 40
0.2
100
AcDbArc
 50
299.9999999999888
 51
30.88658490357206
  0
ARC
  5
EF7C88DCC
330
EF7C85532
100
AcDbEntity
  8
JISSEN
100
AcDbCircle
 10
102.5500834380135
 20
160.4427122375256
 30
0.0
 40
0.2
100
AcDbArc
 50
269.9999999999918
 51
359.9999999999884
1001
ACAD
1000
ASC_BOUNDS
1002
{
1070
    19
1002
}
  0
LINE
  5
EF7C88DCD
330
EF7C85532
100
AcDbEntity
  8
JISSEN
100
AcDbLine
 10
102.7500834380139
 20
161.992712237528
 30
0.0
 11
102.7500834380134
 21
160.4427122375245
 31
0.0
1001
ACAD
1000
ASC_BOUNDS
1002
{
1070
    19
1002
}
  0
LINE
  5
EF7C88DCE
330
EF7C85532
100
AcDbEntity
  8
JISSEN
100
AcDbLine
 10
97.18124943801607
 20
173.3285945598673
 30
0.0
 11
99.49624043801605
 21
173.3285945598673
 31
0.0
  0
ARC
  5
EF7C88DCF
330
EF7C85532
100
AcDbEntity
  8
JISSEN
100
AcDbCircle
 10
98.85649243801609
 20
166.9354935598672
 30
0.0
 40
0.3
100
AcDbArc
 50
270.0
 51
358.0056319999998
  0
LINE
  5
EF7C88DD0
330
EF7C85532
100
AcDbEntity
  8
JISSEN
100
AcDbLine
 10
99.36960843801607
 20
166.3852095598672
 30
0.0
 11
98.81885743801607
 21
165.6516015598673
 31
0.0
  0
LINE
  5
EF7C88DD1
330
EF7C85532
100
AcDbEntity
  8
JISSEN
100
AcDbLine
 10
90.00008343801608
 20
185.5693615598673
 30
0.0
 11
100.6213164380159
 21
185.5693615598673
 31
0.0
  0
ARC
  5
EF7C88DD2
330
EF7C85532
100
AcDbEntity
  8
JISSEN
100
AcDbCircle
 10
90.00008343801608
 20
175.8285945598673
 30
0.0
 40
1.0
100
AcDbArc
 50
270.0
 51
0.000000000000007
  0
ARC
  5
EF7C88DD3
330
EF7C85532
100
AcDbEntity
  8
JISSEN
100
AcDbCircle
 10
90.00008343801608
 20
175.8285945598673
 30
0.0
 40
1.0
100
AcDbArc
 50
180.0
 51
270.0
  0
LINE
  5
EF7C88DD4
330
EF7C85532
100
AcDbEntity
  8
JISSEN
100
AcDbLine
 10
91.50008343801609
 20
172.8285945598673
 30
0.0
 11
91.50008343801609
 21
166.0317155598673
 31
0.0
  0
LINE
  5
EF7C88DD5
330
EF7C85532
100
AcDbEntity
  8
JISSEN
100
AcDbLine
 10
88.5000834380161
 20
172.8285945598673
 30
0.0
 11
88.5000834380161
 21
166.0317155598673
 31
0.0
  0
LINE
  5
EF7C88DD6
330
EF7C85532
100
AcDbEntity
  8
JISSEN
100
AcDbLine
 10
91.0000834380161
 20
166.6354935598673
 30
0.0
 11
90.00008343801608
 21
166.6354935598673
 31
0.0
  0
LINE
  5
EF7C88DD7
330
EF7C85532
100
AcDbEntity
  8
JISSEN
100
AcDbLine
 10
90.00008343801608
 20
165.5317155598673
 30
0.0
 11
91.0000834380161
 21
165.5317155598673
 31
0.0
  0
ARC
  5
EF7C88DD8
330
EF7C85532
100
AcDbEntity
  8
JISSEN
100
AcDbCircle
 10
91.0000834380161
 20
166.0317155598673
 30
0.0
 40
0.5
100
AcDbArc
 50
270.0
 51
0.000000000000007
  0
ARC
  5
EF7C88DD9
330
EF7C85532
100
AcDbEntity
  8
JISSEN
100
AcDbCircle
 10
91.0000834380161
 20
167.1354935598673
 30
0.0
 40
0.5
100
AcDbArc
 50
270.0
 51
0.000000000000007
  0
ARC
  5
EF7C88DDA
330
EF7C85532
100
AcDbEntity
  8
JISSEN
100
AcDbCircle
 10
89.00008343801609
 20
167.1354935598673
 30
0.0
 40
0.5
100
AcDbArc
 50
180.0
 51
270.0
  0
ARC
  5
EF7C88DDB
330
EF7C85532
100
AcDbEntity
  8
JISSEN
100
AcDbCircle
 10
89.00008343801609
 20
166.0317155598673
 30
0.0
 40
0.5
100
AcDbArc
 50
180.0
 51
270.0
  0
LINE
  5
EF7C88DDC
330
EF7C85532
100
AcDbEntity
  8
JISSEN
100
AcDbLine
 10
90.00008343801608
 20
165.5317155598673
 30
0.0
 11
89.00008343801609
 21
165.5317155598673
 31
0.0
  0
LINE
  5
EF7C88DDD
330
EF7C85532
100
AcDbEntity
  8
JISSEN
100
AcDbLine
 10
89.00008343801609
 20
166.6354935598673
 30
0.0
 11
90.00008343801608
 21
166.6354935598673
 31
0.0
  0
LINE
  5
EF7C88DDE
330
EF7C85532
100
AcDbEntity
  8
JISSEN
100
AcDbLine
 10
90.00008343801608
 20
173.3285945598673
 30
0.0
 11
91.0000834380161
 21
173.3285945598673
 31
0.0
  0
ARC
  5
EF7C88DDF
330
EF7C85532
100
AcDbEntity
  8
JISSEN
100
AcDbCircle
 10
91.0000834380161
 20
172.8285945598673
 30
0.0
 40
0.5
100
AcDbArc
 50
0.000000000000007
 51
90.0
  0
ARC
  5
EF7C88DE0
330
EF7C85532
100
AcDbEntity
  8
JISSEN
100
AcDbCircle
 10
89.00008343801609
 20
172.8285945598673
 30
0.0
 40
0.5
100
AcDbArc
 50
90.0
 51
180.0
  0
LINE
  5
EF7C88DE1
330
EF7C85532
100
AcDbEntity
  8
JISSEN
100
AcDbLine
 10
90.00008343801608
 20
173.3285945598673
 30
0.0
 11
89.00008343801609
 21
173.3285945598673
 31
0.0
  0
LINE
  5
EF7C88DE2
330
EF7C85532
100
AcDbEntity
  8
JISSEN
100
AcDbLine
 10
96.7419364380161
 20
166.7293185598673
 30
0.0
 11
96.98138843801608
 21
173.1360645598673
 31
0.0
  0
LINE
  5
EF7C88DE3
330
EF7C85532
100
AcDbEntity
  8
JISSEN
100
AcDbLine
 10
98.85649243801609
 20
166.6354935598673
 30
0.0
 11
96.7231594380161
 21
166.6354935598673
 31
0.0
  0
LINE
  5
EF7C88DE4
330
EF7C85532
100
AcDbEntity
  8
JISSEN
100
AcDbLine
 10
98.57894243801608
 20
165.5317155598673
 30
0.0
 11
96.31001343801614
 21
165.5317155598673
 31
0.0
  0
ARC
  5
EF7C88DE5
330
EF7C85532
100
AcDbEntity
  8
JISSEN
100
AcDbCircle
 10
96.44214543801608
 20
166.7405225598673
 30
0.0
 40
0.3
100
AcDbArc
 50
323.1028380000003
 51
357.8595680000001
  0
LINE
  5
EF7C88DE6
330
EF7C85532
100
AcDbEntity
  8
JISSEN
100
AcDbLine
 10
96.15007043801607
 20
165.8517925598673
 30
0.0
 11
96.68206043801607
 21
166.5604085598673
 31
0.0
  0
ARC
  5
EF7C88DE7
330
EF7C85532
100
AcDbEntity
  8
JISSEN
100
AcDbCircle
 10
98.57894243801608
 20
165.8317155598673
 30
0.0
 40
0.3
100
AcDbArc
 50
270.0
 51
323.1028380000003
  0
ARC
  5
EF7C88DE8
330
EF7C85532
100
AcDbEntity
  8
JISSEN
100
AcDbCircle
 10
96.31001343801614
 20
165.7317155598672
 30
0.0
 40
0.2
100
AcDbArc
 50
143.1028380000001
 51
270.0
  0
ARC
  5
EF7C88DE9
330
EF7C85532
100
AcDbEntity
  8
JISSEN
100
AcDbCircle
 10
97.18124943801607
 20
173.1285945598673
 30
0.0
 40
0.2
100
AcDbArc
 50
90.0
 51
177.8595680000002
  0
LINE
  5
EF7C88DEA
330
EF7C85532
100
AcDbEntity
  8
JISSEN
100
AcDbLine
 10
91.0000834380161
 20
182.8285945598673
 30
0.0
 11
91.0000834380161
 21
175.8285945598673
 31
0.0
  0
LINE
  5
EF7C88DEB
330
EF7C85532
100
AcDbEntity
  8
JISSEN
100
AcDbLine
 10
89.00008343801609
 20
182.8285945598673
 30
0.0
 11
89.00008343801609
 21
175.8285945598673
 31
0.0
  0
ARC
  5
EF7C88DEC
330
EF7C85532
100
AcDbEntity
  8
JISSEN
100
AcDbCircle
 10
90.00008343801608
 20
182.0785945598673
 30
0.0
 40
1.25
100
AcDbArc
 50
36.86989799999964
 51
90.0
  0
ARC
  5
EF7C88DED
330
EF7C85532
100
AcDbEntity
  8
JISSEN
100
AcDbCircle
 10
90.00008343801608
 20
182.0785945598673
 30
0.0
 40
1.25
100
AcDbArc
 50
90.0
 51
143.1301020000003
  0
ARC
  5
EF7C88DEE
330
EF7C85532
100
AcDbEntity
  8
JISSEN
100
AcDbCircle
 10
105.806964438016
 20
173.0285945598673
 30
0.0
 40
0.3
100
AcDbArc
 50
356.2556379999997
 51
90.0
  0
LINE
  5
EF7C88DEF
330
EF7C85532
100
AcDbEntity
  8
JISSEN
100
AcDbLine
 10
106.556855438016
 20
173.3285945598673
 30
0.0
 11
105.806964438016
 21
173.3285945598673
 31
0.0
  0
ARC
  5
EF7C88DF0
330
EF7C85532
100
AcDbEntity
  8
JISSEN
100
AcDbCircle
 10
105.3049104380159
 20
167.2861225598673
 30
0.0
 40
1.199999999999999
100
AcDbArc
 50
305.327068
 51
355.9820309999997
  0
LINE
  5
EF7C88DF1
330
EF7C85532
100
AcDbEntity
  8
JISSEN
100
AcDbLine
 10
106.106323438016
 20
173.0090025598673
 30
0.0
 11
105.713680438016
 21
167.0093715598673
 31
0.0
  0
LINE
  5
EF7C88DF2
330
EF7C85532
100
AcDbEntity
  8
JISSEN
100
AcDbLine
 10
104.6211044380159
 20
173.1426085598673
 30
0.0
 11
104.177297438016
 21
166.8243425598673
 31
0.0
  0
LINE
  5
EF7C88DF3
330
EF7C85532
100
AcDbEntity
  8
JISSEN
100
AcDbLine
 10
99.37028843801607
 20
173.0698935598673
 30
0.0
 11
99.15631043801605
 21
166.9250535598673
 31
0.0
  0
LINE
  5
EF7C88DF4
330
EF7C85532
100
AcDbEntity
  8
JISSEN
100
AcDbLine
 10
99.79603043801608
 20
173.0173895598673
 30
0.0
 11
99.56919643801608
 21
166.9482415598673
 31
0.0
  0
ARC
  5
EF7C88DF5
330
EF7C85532
100
AcDbEntity
  8
JISSEN
100
AcDbCircle
 10
98.56989443801609
 20
166.9855905598673
 30
0.0
 40
1.0
100
AcDbArc
 50
323.1028380000003
 51
357.8595680000001
  0
LINE
  5
EF7C88DF6
330
EF7C85532
100
AcDbEntity
  8
JISSEN
100
AcDbLine
 10
105.3145344380159
 20
166.6354935598673
 30
0.0
 11
104.114382438016
 21
166.6354935598673
 31
0.0
  0
LINE
  5
EF7C88DF7
330
EF7C85532
100
AcDbEntity
  8
JISSEN
100
AcDbLine
 10
104.995736438016
 20
165.5961635598672
 30
0.0
 11
105.998802438016
 21
166.3070855598673
 31
0.0
  0
ARC
  5
EF7C88DF8
330
EF7C85532
100
AcDbEntity
  8
JISSEN
100
AcDbCircle
 10
103.778280438016
 20
166.8523705598673
 30
0.0
 40
0.4
100
AcDbArc
 50
305.327068
 51
355.9820309999997
  0
ARC
  5
EF7C88DF9
330
EF7C85532
100
AcDbEntity
  8
JISSEN
100
AcDbCircle
 10
104.793351438016
 20
165.8817155598673
 30
0.0
 40
0.35
100
AcDbArc
 50
270.0
 51
305.327068
  0
ARC
  5
EF7C88DFA
330
EF7C85532
100
AcDbEntity
  8
JISSEN
100
AcDbCircle
 10
105.3145344380159
 20
167.0354935598673
 30
0.0
 40
0.4
100
AcDbArc
 50
270.0
 51
356.2556379999997
  0
ARC
  5
EF7C88DFB
330
EF7C85532
100
AcDbEntity
  8
JISSEN
100
AcDbCircle
 10
103.0777184380159
 20
165.6817155598673
 30
0.0
 40
0.15
100
AcDbArc
 50
125.3270679999999
 51
270.0
  0
LINE
  5
EF7C88DFC
330
EF7C85532
100
AcDbEntity
  8
JISSEN
100
AcDbLine
 10
104.0095774380159
 20
166.5260245598672
 30
0.0
 11
102.9909824380159
 21
165.8040955598672
 31
0.0
  0
LINE
  5
EF7C88DFD
330
EF7C85532
100
AcDbEntity
  8
JISSEN
100
AcDbLine
 10
103.0777184380159
 20
165.5317155598673
 30
0.0
 11
104.793351438016
 21
165.5317155598673
 31
0.0
  0
ARC
  5
EF7C88DFE
330
EF7C85532
100
AcDbEntity
  8
JISSEN
100
AcDbCircle
 10
99.12044043801607
 20
173.0785945598673
 30
0.0
 40
0.25
100
AcDbArc
 50
358.0056319999998
 51
90.0
  0
ARC
  5
EF7C88DFF
330
EF7C85532
100
AcDbEntity
  8
JISSEN
100
AcDbCircle
 10
99.49624043801605
 20
173.0285945598673
 30
0.0
 40
0.3
100
AcDbArc
 50
357.8595680000001
 51
90.0
  0
LINE
  5
EF7C88E00
330
EF7C85532
100
AcDbEntity
  8
JISSEN
100
AcDbLine
 10
105.806964438016
 20
173.3285945598673
 30
0.0
 11
104.820613438016
 21
173.3285945598673
 31
0.0
  0
ARC
  5
EF7C88E01
330
EF7C85532
100
AcDbEntity
  8
JISSEN
100
AcDbCircle
 10
104.820613438016
 20
173.1285945598673
 30
0.0
 40
0.2
100
AcDbArc
 50
90.0
 51
175.9820309999995
  0
LINE
  5
EF7C88E02
330
EF7C85532
100
AcDbEntity
  8
JISSEN
100
AcDbLine
 10
111.9732454380161
 20
172.8909075598673
 30
0.0
 11
111.4475434380159
 21
167.3359615598673
 31
0.0
  0
LINE
  5
EF7C88E03
330
EF7C85532
100
AcDbEntity
  8
JISSEN
100
AcDbLine
 10
110.9108244380159
 20
173.1110275598673
 30
0.0
 11
110.3800704380159
 21
167.0915775598673
 31
0.0
  0
LINE
  5
EF7C88E04
330
EF7C85532
100
AcDbEntity
  8
JISSEN
100
AcDbLine
 10
106.501960438016
 20
167.2020395598672
 30
0.0
 11
106.905994438016
 21
172.9540695598673
 31
0.0
  0
LINE
  5
EF7C88E05
330
EF7C85532
100
AcDbEntity
  8
JISSEN
100
AcDbLine
 10
109.905892438016
 20
166.9061445598671
 30
0.0
 11
110.4740004380159
 21
173.1467265598673
 31
0.0
  0
LINE
  5
EF7C88E06
330
EF7C85532
100
AcDbEntity
  8
JISSEN
100
AcDbLine
 10
108.1413584380159
 20
165.7202175598673
 30
0.0
 11
109.6407334380159
 21
166.5089675598673
 31
0.0
  0
LINE
  5
EF7C88E07
330
EF7C85532
100
AcDbEntity
  8
JISSEN
100
AcDbLine
 10
110.758559438016
 20
166.3079235598672
 30
0.0
 11
109.3704604380159
 21
165.5777105598673
 31
0.0
  0
ARC
  5
EF7C88E08
330
EF7C85532
100
AcDbEntity
  8
JISSEN
100
AcDbCircle
 10
108.187915438016
 20
165.6317155598673
 30
0.0
 40
0.1
100
AcDbArc
 50
117.7467379999998
 51
270.0
  0
ARC
  5
EF7C88E09
330
EF7C85532
100
AcDbEntity
  8
JISSEN
100
AcDbCircle
 10
109.1842344380159
 20
165.9317155598673
 30
0.0
 40
0.4
100
AcDbArc
 50
270.0
 51
297.7467379999998
  0
LINE
  5
EF7C88E0A
330
EF7C85532
100
AcDbEntity
  8
JISSEN
100
AcDbLine
 10
109.1842344380159
 20
165.5317155598673
 30
0.0
 11
108.187915438016
 21
165.5317155598673
 31
0.0
  0
LINE
  5
EF7C88E0B
330
EF7C85532
100
AcDbEntity
  8
JISSEN
100
AcDbLine
 10
110.8649904380159
 20
165.6493315598673
 30
0.0
 11
112.376849438016
 21
166.3487225598673
 31
0.0
  0
LINE
  5
EF7C88E0C
330
EF7C85532
100
AcDbEntity
  8
JISSEN
100
AcDbLine
 10
112.8464104380159
 20
166.3249525598673
 30
0.0
 11
111.379512438016
 21
165.6463605598673
 31
0.0
  0
ARC
  5
EF7C88E0D
330
EF7C85532
100
AcDbEntity
  8
JISSEN
100
AcDbCircle
 10
110.153326438016
 20
167.4584425598673
 30
0.0
 40
1.3
100
AcDbArc
 50
297.7467379999998
 51
354.5938149999996
  0
ARC
  5
EF7C88E0E
330
EF7C85532
100
AcDbEntity
  8
JISSEN
100
AcDbCircle
 10
110.9596574380159
 20
166.5539525598672
 30
0.0
 40
1.0
100
AcDbArc
 50
270.0
 51
294.825405
  0
LINE
  5
EF7C88E0F
330
EF7C85532
100
AcDbEntity
  8
JISSEN
100
AcDbLine
 10
110.9596574380159
 20
165.5539525598673
 30
0.0
 11
110.885982438016
 21
165.5539525598673
 31
0.0
  0
ARC
  5
EF7C88E10
330
EF7C85532
100
AcDbEntity
  8
JISSEN
100
AcDbCircle
 10
110.885982438016
 20
165.6039525598673
 30
0.0
 40
0.05
100
AcDbArc
 50
114.825405
 51
270.0
  0
ARC
  5
EF7C88E11
330
EF7C85532
100
AcDbEntity
  8
JISSEN
100
AcDbCircle
 10
109.407951438016
 20
166.9514745598673
 30
0.0
 40
0.5
100
AcDbArc
 50
297.7467379999998
 51
354.7984409999998
  0
ARC
  5
EF7C88E12
330
EF7C85532
100
AcDbEntity
  8
JISSEN
100
AcDbCircle
 10
109.882002438016
 20
167.1354935598673
 30
0.0
 40
0.5
100
AcDbArc
 50
260.650445
 51
354.9610729999998
  0
ARC
  5
EF7C88E13
330
EF7C85532
100
AcDbEntity
  8
JISSEN
100
AcDbCircle
 10
106.556855438016
 20
172.9785945598673
 30
0.0
 40
0.35
100
AcDbArc
 50
355.9820309999997
 51
90.0
  0
ARC
  5
EF7C88E14
330
EF7C85532
100
AcDbEntity
  8
JISSEN
100
AcDbCircle
 10
110.6731774380161
 20
173.1285945598673
 30
0.0
 40
0.2
100
AcDbArc
 50
90.0
 51
174.7984409999996
  0
LINE
  5
EF7C88E15
330
EF7C85532
100
AcDbEntity
  8
JISSEN
100
AcDbLine
 10
110.6731774380161
 20
173.3285945598673
 30
0.0
 11
111.575024438016
 21
173.3285945598673
 31
0.0
  0
ARC
  5
EF7C88E16
330
EF7C85532
100
AcDbEntity
  8
JISSEN
100
AcDbCircle
 10
111.575024438016
 20
172.9285945598673
 30
0.0
 40
0.4
100
AcDbArc
 50
354.5938149999996
 51
90.0
  0
ARC
  5
EF7C88E17
330
EF7C85532
100
AcDbEntity
  8
JISSEN
100
AcDbCircle
 10
110.7115974380159
 20
173.1285945598673
 30
0.0
 40
0.2
100
AcDbArc
 50
354.9610729999998
 51
90.0
  0
LINE
  5
EF7C88E18
330
EF7C85532
100
AcDbEntity
  8
JISSEN
100
AcDbLine
 10
101.7000834380159
 20
183.3285945598673
 30
0.0
 11
100.6588024380159
 21
184.3698755598673
 31
0.0
  0
LINE
  5
EF7C88E19
330
EF7C85532
100
AcDbEntity
  8
SAISEN
100
AcDbLine
 10
100.6588024380159
 20
184.3698755598673
 30
0.0
 11
99.45931643801605
 21
185.5693615598673
 31
0.0
  0
LINE
  5
EF7C88E1A
330
EF7C85532
100
AcDbEntity
  8
JISSEN
100
AcDbLine
 10
81.0000834380161
 20
201.3285945598709
 30
0.0
 11
90.00008343801608
 21
201.3285945598709
 31
0.0
  0
LINE
  5
EF7C88E1B
330
EF7C85532
100
AcDbEntity
  8
JISSEN
100
AcDbLine
 10
79.73815943801608
 20
200.0666695598709
 30
0.0
 11
90.00008343801608
 21
200.0666695598709
 31
0.0
  0
LINE
  5
EF7C88E1C
330
EF7C85532
100
AcDbEntity
  8
JISSEN
100
AcDbLine
 10
79.73815943801608
 20
200.0666695598709
 30
0.0
 11
81.0000834380161
 21
201.3285945598709
 31
0.0
  0
LINE
  5
EF7C88E1D
330
EF7C85532
100
AcDbEntity
  8
JISSEN
100
AcDbLine
 10
100.262007438016
 20
200.0666695598709
 30
0.0
 11
90.00008343801608
 21
200.0666695598709
 31
0.0
  0
LINE
  5
EF7C88E1E
330
EF7C85532
100
AcDbEntity
  8
JISSEN
100
AcDbLine
 10
99.00008343801609
 20
201.3285945598709
 30
0.0
 11
90.00008343801608
 21
201.3285945598709
 31
0.0
  0
LINE
  5
EF7C88E1F
330
EF7C85532
100
AcDbEntity
  8
JISSEN
100
AcDbLine
 10
100.262007438016
 20
200.0666695598709
 30
0.0
 11
99.00008343801609
 21
201.3285945598709
 31
0.0
  0
LWPOLYLINE
  5
EF7C88E24
330
EF7C85532
100
AcDbEntity
  8
NITEN
100
AcDbPolyline
 90
        5
 70
     0
 43
0.0
 10
107.0
 20
231.4391434655946
 10
107.0
 20
252.2768611167406
 42
-0.5882352941176476
 10
90.00000000000005
 20
252.2768611167406
 42
0.5882352941176477
 10
73.0
 20
252.2768611167403
 10
73.0
 20
231.4391434655946
  0
LWPOLYLINE
  5
EF7C88E25
330
EF7C85532
100
AcDbEntity
  8
NITEN
100
AcDbPolyline
 90
        2
 70
     0
 43
0.0
 10
107.0
 20
252.2768611167406
 42
0.5882352941176295
 10
89.99999999999998
 20
252.2768611167407
 42
0.5882352941176295
  0
LWPOLYLINE
  5
EF7C88E29
102
{ACAD_REACTORS
330
EF7C88D3C
102
}
330
EF7C85532
100
AcDbEntity
  8
HATCH
100
AcDbPolyline
 90
       13
 70
     0
 43
0.0
 10
158.7336689891255
 20
188.3285945598673
 10
158.5690818108755
 20
187.5089574816351
 10
158.4271764541952
 20
186.992339504871
 10
158.1994678170473
 20
186.5739132181831
 10
157.891580330388
 20
186.2357961945161
 10
157.5253570414085
 20
185.9455451218661
 10
157.1226409972998
 20
185.6707166882285
 10
156.7052752452529
 20
185.3788675815996
 10
156.2951028324591
 20
185.0375544899748
 10
155.9139668061094
 20
184.6143341013505
 10
155.5837102133949
 20
184.0767631037221
 10
155.3091301501921
 20
183.4131443164348
 10
155.2759059556955
 20
183.3285945598673
  0
LINE
  5
EF7C88E2C
330
EF7C85532
100
AcDbEntity
  8
JISSEN
100
AcDbLine
 10
114.6000834380159
 20
174.8285945598673
 30
0.0
 11
114.468850438016
 21
173.3285945598673
 31
0.0
  0
LINE
  5
EF7C88E2D
330
EF7C85532
100
AcDbEntity
  8
JISSEN
100
AcDbLine
 10
114.468850438016
 20
173.3285945598673
 30
0.0
 11
113.9484964380159
 21
167.3809175598672
 31
0.0
  0
LINE
  5
EF7C88E2E
330
EF7C85532
100
AcDbEntity
  8
JISSEN
100
AcDbLine
 10
114.238407438016
 20
172.9080305598673
 30
0.0
 11
113.650577438016
 21
167.4457815598673
 31
0.0
  0
ARC
  5
EF7C88E2F
330
EF7C85532
100
AcDbEntity
  8
JISSEN
100
AcDbCircle
 10
113.8407044380159
 20
172.9508305598673
 30
0.0
 40
0.4
100
AcDbArc
 50
353.8576429999998
 51
88.64114500000017
  0
ARC
  5
EF7C88E30
330
EF7C85532
100
AcDbEntity
  8
JISSEN
100
AcDbCircle
 10
113.8549314380159
 20
173.2508305598673
 30
0.0
 40
0.1
100
AcDbArc
 50
92.7179019999998
 51
173.8576429999999
  0
LINE
  5
EF7C88E31
330
EF7C85532
100
AcDbEntity
  8
JISSEN
100
AcDbLine
 10
116.5000834380159
 20
183.1785945598673
 30
0.0
 11
116.5000834380159
 21
175.8285945598673
 31
0.0
  0
LINE
  5
EF7C88E32
330
EF7C85532
100
AcDbEntity
  8
JISSEN
100
AcDbLine
 10
116.5000834380159
 20
175.8285945598673
 30
0.0
 11
115.5000834380159
 21
174.8285945598673
 31
0.0
  0
LINE
  5
EF7C88E33
330
EF7C85532
100
AcDbEntity
  8
JISSEN
100
AcDbLine
 10
115.5000834380159
 20
174.8285945598673
 30
0.0
 11
114.6000834380159
 21
174.8285945598673
 31
0.0
  0
LINE
  5
EF7C88E34
330
EF7C85532
100
AcDbEntity
  8
JISSEN
100
AcDbLine
 10
116.5000834380159
 20
183.1785945598673
 30
0.0
 11
116.350083438016
 21
183.3285945598673
 31
0.0
  0
CIRCLE
  5
EF7C895B7
330
EF7C85532
100
AcDbEntity
  8
NITEN
100
AcDbCircle
 10
90.00008343801971
 20
100.5644780496666
 30
0.0
 40
14.5
  0
CIRCLE
  5
EF7C895B8
330
EF7C85532
100
AcDbEntity
  8
JISSEN
100
AcDbCircle
 10
90.00008343801971
 20
100.5644780496666
 30
0.0
 40
13.25
  0
ARC
  5
EF7C895B9
330
EF7C85532
100
AcDbEntity
  8
JISSEN
100
AcDbCircle
 10
90.00008343801971
 20
100.5644780496666
 30
0.0
 40
24.6
100
AcDbArc
 50
180.0
 51
0.0
  0
ARC
  5
EF7C895BA
330
EF7C85532
100
AcDbEntity
  8
JISSEN
100
AcDbCircle
 10
90.00008343801971
 20
100.5644780496666
 30
0.0
 40
24.6
100
AcDbArc
 50
0.0
 51
180.0
  0
CIRCLE
  5
EF7C895BB
330
EF7C85532
100
AcDbEntity
  8
JISSEN
100
AcDbCircle
 10
90.00008343801983
 20
100.5644780496666
 30
0.0
 40
25.5
  0
ARC
  5
EF7C895BC
330
EF7C85532
100
AcDbEntity
  8
JISSEN
100
AcDbCircle
 10
90.00008343801971
 20
100.5644780496666
 30
0.0
 40
26.5
100
AcDbArc
 50
272.162233192218
 51
357.837766807781
  0
ARC
  5
EF7C895BD
330
EF7C85532
100
AcDbEntity
  8
JISSEN
100
AcDbCircle
 10
90.00008343801971
 20
100.5644780496666
 30
0.0
 40
26.5
100
AcDbArc
 50
2.162233192218158
 51
87.83776680778196
  0
TEXT
  5
EF7C895BE
330
EF7C85532
100
AcDbEntity
  8
SUNPOU
100
AcDbText
 10
98.92548543698911
 20
95.17264281757524
 30
0.0
 40
2.0
  1
M
 50
65.17015126691669
  7
K
100
AcDbText
  0
ARC
  5
EF7C895BF
330
EF7C85532
100
AcDbEntity
  8
TENSEN
100
AcDbCircle
 10
90.00008343801971
 20
100.5644780496666
 30
0.0
 40
10.5
100
AcDbArc
 50
168.1938980438907
 51
221.7839991740417
  0
ARC
  5
EF7C895C0
330
EF7C85532
100
AcDbEntity
  8
TENSEN
100
AcDbCircle
 10
90.00008343801971
 20
100.5644780496666
 30
0.0
 40
8.0
100
AcDbArc
 50
170.6506554167907
 51
220.1249977043978
  0
CIRCLE
  5
EF7C895C1
330
EF7C85532
100
AcDbEntity
  8
JISSEN
100
AcDbCircle
 10
90.00008343801971
 20
100.5644780496666
 30
0.0
 40
11.75
  0
ARC
  5
EF7C895C2
330
EF7C85532
100
AcDbEntity
  8
JISSEN
100
AcDbCircle
 10
90.00008343801971
 20
100.5644780496666
 30
0.0
 40
26.5
100
AcDbArc
 50
182.1622331922181
 51
267.8377668077819
  0
ARC
  5
EF7C895C3
330
EF7C85532
100
AcDbEntity
  8
JISSEN
100
AcDbCircle
 10
90.00008343801971
 20
100.5644780496666
 30
0.0
 40
23.35
100
AcDbArc
 50
186.3167926881408
 51
193.6832073118589
  0
LINE
  5
EF7C895C4
330
EF7C85532
100
AcDbEntity
  8
JISSEN
100
AcDbLine
 10
68.75154934589159
 20
97.83321480060655
 30
0.0
 11
69.0988457012254
 21
95.86359929458213
 31
0.0
  0
ARC
  5
EF7C895C5
330
EF7C85532
100
AcDbEntity
  8
JISSEN
100
AcDbCircle
 10
90.00008343801971
 20
74.06447804966662
 30
0.0
 40
1.0
100
AcDbArc
 50
1.081116596109614
 51
178.9188834038903
  0
LINE
  5
EF7C895C6
330
EF7C85532
100
AcDbEntity
  8
JISSEN
100
AcDbLine
 10
80.19250471177157
 20
78.00408356002074
 30
0.0
 11
81.10030336800878
 21
80.49823986944373
 31
0.0
  0
ARC
  5
EF7C895C7
330
EF7C85532
100
AcDbEntity
  8
JISSEN
100
AcDbCircle
 10
90.00008343801971
 20
100.5644780496666
 30
0.0
 40
23.35
100
AcDbArc
 50
226.31679268814
 51
233.6832073118608
  0
ARC
  5
EF7C895C8
330
EF7C85532
100
AcDbEntity
  8
JISSEN
100
AcDbCircle
 10
75.15699034276554
 20
84.43089235504752
 30
0.0
 40
0.5
100
AcDbArc
 50
49.99999999999761
 51
139.9999999999996
  0
LINE
  5
EF7C895C9
330
EF7C85532
100
AcDbEntity
  8
JISSEN
100
AcDbLine
 10
73.0678647243551
 20
82.71903130735651
 30
0.0
 11
74.77396812120606
 21
84.75228615989079
 31
0.0
  0
LINE
  5
EF7C895CA
330
EF7C85532
100
AcDbEntity
  8
JISSEN
100
AcDbLine
 10
75.47838414760883
 20
84.813914576607
 30
0.0
 11
77.01047303384678
 21
83.52833935723394
 31
0.0
  0
LINE
  5
EF7C895CB
330
EF7C85532
100
AcDbEntity
  8
JISSEN
100
AcDbLine
 10
77.07210145056297
 20
82.82392333083118
 30
0.0
 11
75.36599805371202
 21
80.79066847829691
 31
0.0
  0
ARC
  5
EF7C895CC
330
EF7C85532
100
AcDbEntity
  8
JISSEN
100
AcDbCircle
 10
76.68907922900348
 20
83.14531713567443
 30
0.0
 40
0.5
100
AcDbArc
 50
319.9999999999996
 51
49.99999999999761
  0
ARC
  5
EF7C895CD
330
EF7C85532
100
AcDbEntity
  8
JISSEN
100
AcDbCircle
 10
90.00008343801971
 20
100.5644780496666
 30
0.0
 40
23.35
100
AcDbArc
 50
206.3167926881401
 51
213.6832073118605
  0
LINE
  5
EF7C895CE
330
EF7C85532
100
AcDbEntity
  8
JISSEN
100
AcDbLine
 10
70.28412709514089
 20
90.91351615534259
 30
0.0
 11
67.98550020674088
 21
89.58640330255827
 31
0.0
  0
LINE
  5
EF7C895CF
330
EF7C85532
100
AcDbEntity
  8
JISSEN
100
AcDbLine
 10
71.78412709514089
 20
88.31543994398925
 30
0.0
 11
69.48550020674099
 21
86.98832709120502
 31
0.0
  0
ARC
  5
EF7C895D0
330
EF7C85532
100
AcDbEntity
  8
JISSEN
100
AcDbCircle
 10
68.60644182471924
 20
95.77677520574866
 30
0.0
 40
0.5
100
AcDbArc
 50
279.9999999999986
 51
10.00000000000022
  0
LINE
  5
EF7C895D1
330
EF7C85532
100
AcDbEntity
  8
JISSEN
100
AcDbLine
 10
68.69326591355275
 20
95.28437132924254
 30
0.0
 11
66.07936386046458
 21
94.82346987235388
 31
0.0
  0
LINE
  5
EF7C895D2
330
EF7C85532
100
AcDbEntity
  8
JISSEN
100
AcDbLine
 10
71.96713979703281
 20
88.9984526458822
 30
0.0
 11
70.96713979703281
 21
90.73050345345105
 31
0.0
  0
ARC
  5
EF7C895D3
330
EF7C85532
100
AcDbEntity
  8
JISSEN
100
AcDbCircle
 10
71.53412709514054
 20
88.74845264588218
 30
0.0
 40
0.5
100
AcDbArc
 50
300.0
 51
30.00000000000034
  0
ARC
  5
EF7C895D4
330
EF7C85532
100
AcDbEntity
  8
JISSEN
100
AcDbCircle
 10
70.53412709514055
 20
90.48050345345105
 30
0.0
 40
0.5
100
AcDbArc
 50
30.00000000000034
 51
120.0
  0
ARC
  5
EF7C895D5
330
EF7C85532
100
AcDbEntity
  8
JISSEN
100
AcDbCircle
 10
91.00008343801972
 20
78.66447804966661
 30
0.0
 40
0.5
100
AcDbArc
 50
0.0
 51
90.0
  0
ARC
  5
EF7C895D6
330
EF7C85532
100
AcDbEntity
  8
JISSEN
100
AcDbCircle
 10
90.00008343801971
 20
100.5644780496666
 30
0.0
 40
23.35
100
AcDbArc
 50
266.3167926881429
 51
273.683207311857
  0
ARC
  5
EF7C895D7
330
EF7C85532
100
AcDbEntity
  8
JISSEN
100
AcDbCircle
 10
81.57014967840167
 20
80.32722979778087
 30
0.0
 40
0.5
100
AcDbArc
 50
69.9999999999969
 51
159.9999999999991
  0
LINE
  5
EF7C895D8
330
EF7C85532
100
AcDbEntity
  8
JISSEN
100
AcDbLine
 10
81.74115975006452
 20
80.79707610817383
 30
0.0
 11
83.62054499163638
 21
80.11303582152251
 31
0.0
  0
LINE
  5
EF7C895D9
330
EF7C85532
100
AcDbEntity
  8
JISSEN
100
AcDbLine
 10
83.91938123036641
 20
79.47217943946673
 30
0.0
 11
83.0115825741292
 21
76.9780231300438
 31
0.0
  0
ARC
  5
EF7C895DA
330
EF7C85532
100
AcDbEntity
  8
JISSEN
100
AcDbCircle
 10
90.00008343801971
 20
100.5644780496666
 30
0.0
 40
23.35
100
AcDbArc
 50
246.3167926881434
 51
253.6832073118584
  0
ARC
  5
EF7C895DB
330
EF7C85532
100
AcDbEntity
  8
JISSEN
100
AcDbCircle
 10
83.44953491997353
 20
79.64318951112955
 30
0.0
 40
0.5
100
AcDbArc
 50
339.9999999999992
 51
69.9999999999969
  0
ARC
  5
EF7C895DC
330
EF7C85532
100
AcDbEntity
  8
JISSEN
100
AcDbCircle
 10
89.00008343801983
 20
78.66447804966661
 30
0.0
 40
0.5
100
AcDbArc
 50
90.0
 51
180.0
  0
LINE
  5
EF7C895DD
330
EF7C85532
100
AcDbEntity
  8
JISSEN
100
AcDbLine
 10
88.50008343801972
 20
76.01025234409814
 30
0.0
 11
88.50008343801972
 21
78.66447804966661
 31
0.0
  0
LINE
  5
EF7C895DE
330
EF7C85532
100
AcDbEntity
  8
JISSEN
100
AcDbLine
 10
89.00008343801983
 20
79.1644780496666
 30
0.0
 11
91.00008343801972
 21
79.1644780496666
 31
0.0
  0
ARC
  5
EF7C895DF
330
EF7C85532
100
AcDbEntity
  8
JISSEN
100
AcDbCircle
 10
98.43001719763776
 20
80.32722979778087
 30
0.0
 40
0.5
100
AcDbArc
 50
20.00000000000137
 51
109.9999999999969
  0
LINE
  5
EF7C895E0
330
EF7C85532
100
AcDbEntity
  8
JISSEN
100
AcDbLine
 10
96.37962188440315
 20
80.11303582152249
 30
0.0
 11
98.25900712597491
 21
80.79707610817383
 31
0.0
  0
LINE
  5
EF7C895E1
330
EF7C85532
100
AcDbEntity
  8
JISSEN
100
AcDbLine
 10
96.98858430191023
 20
76.97802313004373
 30
0.0
 11
96.08078564567302
 21
79.47217943946673
 31
0.0
  0
LINE
  5
EF7C895E2
330
EF7C85532
100
AcDbEntity
  8
JISSEN
100
AcDbLine
 10
91.50008343801983
 20
78.66447804966661
 30
0.0
 11
91.50008343801983
 21
76.01025234409814
 31
0.0
  0
ARC
  5
EF7C895E3
330
EF7C85532
100
AcDbEntity
  8
JISSEN
100
AcDbCircle
 10
96.55063195606601
 20
79.64318951112955
 30
0.0
 40
0.5
100
AcDbArc
 50
109.9999999999969
 51
200.0000000000013
  0
ARC
  5
EF7C895E4
330
EF7C85532
100
AcDbEntity
  8
JISSEN
100
AcDbCircle
 10
90.00008343801971
 20
100.5644780496666
 30
0.0
 40
23.35
100
AcDbArc
 50
286.3167926881416
 51
293.6832073118565
  0
LINE
  5
EF7C895E5
330
EF7C85532
100
AcDbEntity
  8
JISSEN
100
AcDbLine
 10
98.89986350803077
 20
80.49823986944373
 30
0.0
 11
99.80766216426799
 21
78.00408356002074
 31
0.0
  0
TEXT
  5
EF7C895E6
330
EF7C85532
100
AcDbEntity
  8
SUNPOU
100
AcDbText
 10
88.98403460271584
 20
90.18650460696086
 30
0.0
 40
2.0
  1
N
 50
0.7146387206514535
  7
K
100
AcDbText
  0
TEXT
  5
EF7C895E7
330
EF7C85532
100
AcDbEntity
  8
SUNPOU
100
AcDbText
 10
86.4350586007937
 20
90.76522879662739
 30
0.0
 40
2.0
  1
E
 50
346.3146387206509
  7
K
100
AcDbText
  0
TEXT
  5
EF7C895E8
330
EF7C85532
100
AcDbEntity
  8
SUNPOU
100
AcDbText
 10
84.11008622063855
 20
91.95967585598017
 30
0.0
 40
2.0
  1
S
 50
331.9146387206528
  7
K
100
AcDbText
  0
LINE
  5
EF7C895E9
330
EF7C85532
100
AcDbEntity
  8
TENSEN
100
AcDbLine
 10
83.88296102218214
 20
95.4088196678828
 30
0.0
 11
82.17063127044161
 21
93.56807334756384
 31
0.0
  0
TEXT
  5
EF7C895EA
330
EF7C85532
100
AcDbEntity
  8
SUNPOU
100
AcDbText
 10
91.59685268972635
 20
90.259866656216
 30
0.0
 40
2.0
  1
J
 50
15.11463872065115
  7
K
100
AcDbText
  0
TEXT
  5
EF7C895EB
330
EF7C85532
100
AcDbEntity
  8
SUNPOU
100
AcDbText
 10
94.1093398921456
 20
90.98070533703134
 30
0.0
 40
2.0
  1
U
 50
29.51463872064998
  7
K
100
AcDbText
  0
ARC
  5
EF7C895EC
330
EF7C85532
100
AcDbEntity
  8
JISSEN
100
AcDbCircle
 10
90.00008343801971
 20
100.5644780496666
 30
0.0
 40
26.5
100
AcDbArc
 50
92.16223319221803
 51
177.8377668077818
  0
LINE
  5
EF7C895ED
330
EF7C85532
100
AcDbEntity
  8
JISSEN
100
AcDbLine
 10
77.07210145056297
 20
118.3050327685021
 30
0.0
 11
75.36599805371202
 21
120.3382876210363
 31
0.0
  0
ARC
  5
EF7C895EE
330
EF7C85532
100
AcDbEntity
  8
JISSEN
100
AcDbCircle
 10
90.00008343801971
 20
100.5644780496666
 30
0.0
 40
23.35
100
AcDbArc
 50
126.316792688139
 51
133.6832073118596
  0
LINE
  5
EF7C895EF
330
EF7C85532
100
AcDbEntity
  8
TENSEN
100
AcDbLine
 10
82.10635405304959
 20
101.8641073802291
 30
0.0
 11
79.72220459035487
 21
102.7127811923175
 31
0.0
  0
ARC
  5
EF7C895F0
330
EF7C85532
100
AcDbEntity
  8
JISSEN
100
AcDbCircle
 10
68.25914546938543
 20
103.3825653875602
 30
0.0
 40
0.5
100
AcDbArc
 50
260.0000000000014
 51
349.9999999999998
  0
ARC
  5
EF7C895F1
330
EF7C85532
100
AcDbEntity
  8
JISSEN
100
AcDbCircle
 10
63.50008343801971
 20
100.5644780496666
 30
0.0
 40
1.0
100
AcDbArc
 50
271.0811165961095
 51
89.99999999999349
  0
ARC
  5
EF7C895F2
330
EF7C85532
100
AcDbEntity
  8
JISSEN
100
AcDbCircle
 10
68.25914546938543
 20
97.74639071177309
 30
0.0
 40
0.5
100
AcDbArc
 50
10.00000000000022
 51
99.99999999999859
  0
LINE
  5
EF7C895F3
330
EF7C85532
100
AcDbEntity
  8
JISSEN
100
AcDbLine
 10
65.55841932746386
 20
97.7778931313905
 30
0.0
 11
68.17232138055192
 21
98.23879458827917
 31
0.0
  0
LINE
  5
EF7C895F4
330
EF7C85532
100
AcDbEntity
  8
JISSEN
100
AcDbLine
 10
68.69326591355275
 20
105.8445847700907
 30
0.0
 11
66.07936386046458
 21
106.3054862269793
 31
0.0
  0
LINE
  5
EF7C895F5
330
EF7C85532
100
AcDbEntity
  8
JISSEN
100
AcDbLine
 10
68.75154934589159
 20
103.2957412987267
 30
0.0
 11
69.0988457012254
 21
105.2653568047511
 31
0.0
  0
ARC
  5
EF7C895F6
330
EF7C85532
100
AcDbEntity
  8
JISSEN
100
AcDbCircle
 10
90.00008343801971
 20
100.5644780496666
 30
0.0
 40
23.35
100
AcDbArc
 50
166.316792688141
 51
173.683207311859
  0
LINE
  5
EF7C895F7
330
EF7C85532
100
AcDbEntity
  8
JISSEN
100
AcDbLine
 10
65.55841932746386
 20
103.3510629679428
 30
0.0
 11
68.17232138055192
 21
102.890161511054
 31
0.0
  0
ARC
  5
EF7C895F8
330
EF7C85532
100
AcDbEntity
  8
JISSEN
100
AcDbCircle
 10
68.60644182471924
 20
105.3521808935846
 30
0.0
 40
0.5
100
AcDbArc
 50
349.9999999999998
 51
80.0000000000014
  0
ARC
  5
EF7C895F9
330
EF7C85532
100
AcDbEntity
  8
JISSEN
100
AcDbCircle
 10
90.00008343801971
 20
100.5644780496666
 30
0.0
 40
23.35
100
AcDbArc
 50
146.3167926881393
 51
153.683207311859
  0
LINE
  5
EF7C895FA
330
EF7C85532
100
AcDbEntity
  8
JISSEN
100
AcDbLine
 10
70.28412709514054
 20
110.21543994399
 30
0.0
 11
67.98550020674065
 21
111.5425527967742
 31
0.0
  0
LINE
  5
EF7C895FB
330
EF7C85532
100
AcDbEntity
  8
JISSEN
100
AcDbLine
 10
69.48550020674066
 20
114.1406290081275
 30
0.0
 11
71.78412709514055
 21
112.8135161553433
 31
0.0
  0
LINE
  5
EF7C895FC
330
EF7C85532
100
AcDbEntity
  8
JISSEN
100
AcDbLine
 10
71.96713979703281
 20
112.1305034534511
 30
0.0
 11
70.96713979703281
 21
110.3984526458822
 31
0.0
  0
ARC
  5
EF7C895FD
330
EF7C85532
100
AcDbEntity
  8
JISSEN
100
AcDbCircle
 10
70.53412709514055
 20
110.6484526458822
 30
0.0
 40
0.5
100
AcDbArc
 50
240.0
 51
329.9999999999996
  0
ARC
  5
EF7C895FE
330
EF7C85532
100
AcDbEntity
  8
JISSEN
100
AcDbCircle
 10
71.53412709514054
 20
112.3805034534511
 30
0.0
 40
0.5
100
AcDbArc
 50
329.9999999999996
 51
59.99999999999997
  0
ARC
  5
EF7C895FF
330
EF7C85532
100
AcDbEntity
  8
JISSEN
100
AcDbCircle
 10
75.15699034276554
 20
116.6980637442857
 30
0.0
 40
0.5
100
AcDbArc
 50
220.0000000000002
 51
310.0000000000024
  0
LINE
  5
EF7C89600
330
EF7C85532
100
AcDbEntity
  8
JISSEN
100
AcDbLine
 10
73.0678647243551
 20
118.4099247919767
 30
0.0
 11
74.77396812120606
 21
116.3766699394424
 31
0.0
  0
LINE
  5
EF7C89601
330
EF7C85532
100
AcDbEntity
  8
JISSEN
100
AcDbLine
 10
75.47838414760883
 20
116.3150415227262
 30
0.0
 11
77.01047303384678
 21
117.6006167420993
 31
0.0
  0
ARC
  5
EF7C89602
330
EF7C85532
100
AcDbEntity
  8
JISSEN
100
AcDbCircle
 10
76.68907922900348
 20
117.9836389636588
 30
0.0
 40
0.5
100
AcDbArc
 50
310.0000000000024
 51
40.00000000000029
  0
TEXT
  5
EF7C89603
330
EF7C85532
100
AcDbEntity
  8
SUNPOU
100
AcDbText
 10
83.68632146524111
 20
108.8633392826505
 30
0.0
 40
2.0
  1
S
 50
223.5701512669162
  7
K
100
AcDbText
  0
TEXT
  5
EF7C89604
330
EF7C85532
100
AcDbEntity
  8
SUNPOU
100
AcDbText
 10
85.94852277143957
 20
110.172784049074
 30
0.0
 40
2.0
  1
S
 50
209.1701512669132
  7
K
100
AcDbText
  0
ARC
  5
EF7C89605
330
EF7C85532
100
AcDbEntity
  8
TENSEN
100
AcDbCircle
 10
90.00008343801971
 20
100.5644780496666
 30
0.0
 40
10.5
100
AcDbArc
 50
39.78539520056965
 51
93.37549633071571
  0
ARC
  5
EF7C89606
330
EF7C85532
100
AcDbEntity
  8
TENSEN
100
AcDbCircle
 10
90.00008343801971
 20
100.5644780496666
 30
0.0
 40
8.0
100
AcDbArc
 50
42.24215257346862
 51
91.7164948610765
  0
CIRCLE
  5
EF7C89607
330
EF7C85532
100
AcDbEntity
  8
JISSEN
100
AcDbCircle
 10
90.00008343801971
 20
100.5644780496666
 30
0.0
 40
3.0
  0
TEXT
  5
EF7C89608
330
EF7C85532
100
AcDbEntity
  8
SUNPOU
100
AcDbText
 10
81.82083704418449
 20
107.0324465438819
 30
0.0
 40
2.0
  1
P
 50
237.9701512669138
  7
K
100
AcDbText
  0
TEXT
  5
EF7C89609
330
EF7C85532
100
AcDbEntity
  8
SUNPOU
100
AcDbText
 10
100.1973866861652
 20
102.7438574288911
 30
0.0
 40
2.0
  1
lll
 50
108.3701512669158
  7
K
100
AcDbText
  0
LINE
  5
EF7C8960A
330
EF7C85532
100
AcDbEntity
  8
SUNPOU
100
AcDbLine
 10
97.5660745783125
 20
104.2921121813456
 30
0.0
 11
98.31241126902547
 21
102.0882985384311
 31
0.0
  0
LINE
  5
EF7C8960B
330
EF7C85532
100
AcDbEntity
  8
SUNPOU
100
AcDbLine
 10
99.48392537849997
 20
104.8996598843225
 30
0.0
 11
100.221334342545
 21
102.7222083995009
 31
0.0
  0
TEXT
  5
EF7C8960C
330
EF7C85532
100
AcDbEntity
  8
SUNPOU
100
AcDbText
 10
99.98597241600556
 20
97.56169445230749
 30
0.0
 40
2.0
  1
F
 50
79.57015126691416
  7
K
100
AcDbText
  0
TEXT
  5
EF7C8960D
330
EF7C85532
100
AcDbEntity
  8
SUNPOU
100
AcDbText
 10
100.4190092650045
 20
100.1394220239273
 30
0.0
 40
2.0
  1
J
 50
93.97015126691592
  7
K
100
AcDbText
  0
LINE
  5
EF7C8960E
330
EF7C85532
100
AcDbEntity
  8
TENSEN
100
AcDbLine
 10
95.92256511968674
 20
105.9426013961806
 30
0.0
 11
98.06877340760729
 21
107.2835733886744
 31
0.0
  0
LINE
  5
EF7C8960F
330
EF7C85532
100
AcDbEntity
  8
TENSEN
100
AcDbLine
 10
89.76045139181577
 20
108.5608882744132
 30
0.0
 11
89.38184920010598
 21
111.0462616014802
 31
0.0
  0
LINE
  5
EF7C89610
330
EF7C85532
100
AcDbEntity
  8
JISSEN
100
AcDbLine
 10
80.19250471177157
 20
123.1248725393125
 30
0.0
 11
81.10030336800878
 21
120.6307162298895
 31
0.0
  0
ARC
  5
EF7C89611
330
EF7C85532
100
AcDbEntity
  8
JISSEN
100
AcDbCircle
 10
91.00008343801972
 20
122.4644780496666
 30
0.0
 40
0.5
100
AcDbArc
 50
270.0
 51
0.0
  0
ARC
  5
EF7C89612
330
EF7C85532
100
AcDbEntity
  8
JISSEN
100
AcDbCircle
 10
90.00008343801971
 20
100.5644780496666
 30
0.0
 40
23.35
100
AcDbArc
 50
86.31679268814295
 51
93.68320731185708
  0
ARC
  5
EF7C89613
330
EF7C85532
100
AcDbEntity
  8
JISSEN
100
AcDbCircle
 10
90.00008343801971
 20
100.5644780496666
 30
0.0
 40
23.35
100
AcDbArc
 50
86.31679268814295
 51
93.68320731185708
  0
ARC
  5
EF7C89614
330
EF7C85532
100
AcDbEntity
  8
JISSEN
100
AcDbCircle
 10
90.00008343801971
 20
100.5644780496666
 30
0.0
 40
23.35
100
AcDbArc
 50
86.31679268814295
 51
93.68320731185704
  0
LINE
  5
EF7C89615
330
EF7C85532
100
AcDbEntity
  8
JISSEN
100
AcDbLine
 10
88.50008343801892
 20
122.4644780496666
 30
0.0
 11
88.50008343801892
 21
125.118703755235
 31
0.0
  0
LINE
  5
EF7C89616
330
EF7C85532
100
AcDbEntity
  8
JISSEN
100
AcDbLine
 10
83.91938123036641
 20
121.6567766598665
 30
0.0
 11
83.01158257412931
 21
124.1509329692894
 31
0.0
  0
ARC
  5
EF7C89617
330
EF7C85532
100
AcDbEntity
  8
JISSEN
100
AcDbCircle
 10
90.00008343801971
 20
100.5644780496666
 30
0.0
 40
23.35
100
AcDbArc
 50
106.3167926881416
 51
113.6832073118565
  0
ARC
  5
EF7C89618
330
EF7C85532
100
AcDbEntity
  8
JISSEN
100
AcDbCircle
 10
83.44953491997353
 20
121.4857665882037
 30
0.0
 40
0.5
100
AcDbArc
 50
289.9999999999969
 51
20.00000000000069
  0
ARC
  5
EF7C89619
330
EF7C85532
100
AcDbEntity
  8
JISSEN
100
AcDbCircle
 10
81.57014967840167
 20
120.8017263015523
 30
0.0
 40
0.5
100
AcDbArc
 50
200.0000000000006
 51
289.9999999999969
  0
LINE
  5
EF7C8961A
330
EF7C85532
100
AcDbEntity
  8
JISSEN
100
AcDbLine
 10
81.74115975006452
 20
120.3318799911594
 30
0.0
 11
83.62054499163638
 21
121.0159202778107
 31
0.0
  0
ARC
  5
EF7C8961B
330
EF7C85532
100
AcDbEntity
  8
JISSEN
100
AcDbCircle
 10
89.00008343801983
 20
122.4644780496666
 30
0.0
 40
0.5
100
AcDbArc
 50
180.0
 51
270.0
  0
LINE
  5
EF7C8961C
330
EF7C85532
100
AcDbEntity
  8
JISSEN
100
AcDbLine
 10
89.00008343801983
 20
121.9644780496666
 30
0.0
 11
91.00008343801972
 21
121.9644780496666
 31
0.0
  0
ARC
  5
EF7C8961D
330
EF7C85532
100
AcDbEntity
  8
JISSEN
100
AcDbCircle
 10
90.00008343801971
 20
127.0644780496666
 30
0.0
 40
1.0
100
AcDbArc
 50
181.0811165961095
 51
358.9188834038903
  0
LINE
  5
EF7C8961E
330
EF7C85532
100
AcDbEntity
  8
JISSEN
100
AcDbLine
 10
91.50008343801903
 20
122.4644780496666
 30
0.0
 11
91.50008343801891
 21
125.1187037552351
 31
0.0
  0
LINE
  5
EF7C8961F
330
EF7C85532
100
AcDbEntity
  8
JISSEN
100
AcDbLine
 10
96.98858430191023
 20
124.1509329692895
 30
0.0
 11
96.08078564567302
 21
121.6567766598665
 31
0.0
  0
LINE
  5
EF7C89620
330
EF7C85532
100
AcDbEntity
  8
JISSEN
100
AcDbLine
 10
96.37962188440315
 20
121.0159202778107
 30
0.0
 11
98.25900712597501
 21
120.3318799911594
 31
0.0
  0
ARC
  5
EF7C89621
330
EF7C85532
100
AcDbEntity
  8
JISSEN
100
AcDbCircle
 10
96.55063195606601
 20
121.4857665882037
 30
0.0
 40
0.5
100
AcDbArc
 50
159.9999999999986
 51
249.9999999999969
  0
ARC
  5
EF7C89622
330
EF7C85532
100
AcDbEntity
  8
JISSEN
100
AcDbCircle
 10
90.00008343801971
 20
100.5644780496666
 30
0.0
 40
23.35
100
AcDbArc
 50
66.31679268814342
 51
73.68320731185841
  0
LINE
  5
EF7C89623
330
EF7C85532
100
AcDbEntity
  8
JISSEN
100
AcDbLine
 10
98.89986350803077
 20
120.6307162298895
 30
0.0
 11
99.80766216426799
 21
123.1248725393124
 31
0.0
  0
ARC
  5
EF7C89624
330
EF7C85532
100
AcDbEntity
  8
JISSEN
100
AcDbCircle
 10
98.43001719763776
 20
120.8017263015523
 30
0.0
 40
0.5
100
AcDbArc
 50
249.9999999999969
 51
339.9999999999986
  0
ARC
  5
EF7C8968F
330
EF7C85532
100
AcDbEntity
  8
JISSEN
100
AcDbCircle
 10
90.00008343801971
 20
100.5644780496666
 30
0.0
 40
23.35
100
AcDbArc
 50
346.3167926881411
 51
353.6832073118589
  0
LINE
  5
EF7C89690
330
EF7C85532
100
AcDbEntity
  8
JISSEN
100
AcDbLine
 10
110.9013211748141
 20
95.86359929458209
 30
0.0
 11
111.2486175301479
 21
97.83321480060651
 31
0.0
  0
LINE
  5
EF7C89691
330
EF7C85532
100
AcDbEntity
  8
JISSEN
100
AcDbLine
 10
105.2261987548333
 20
84.75228615989079
 30
0.0
 11
106.9323021516843
 21
82.71903130735656
 31
0.0
  0
LINE
  5
EF7C89692
330
EF7C85532
100
AcDbEntity
  8
JISSEN
100
AcDbLine
 10
102.9896938421927
 20
83.52833935723394
 30
0.0
 11
104.5217827284307
 21
84.813914576607
 31
0.0
  0
LINE
  5
EF7C89693
330
EF7C85532
100
AcDbEntity
  8
JISSEN
100
AcDbLine
 10
104.6341688223275
 20
80.79066847829681
 30
0.0
 11
102.9280654254763
 21
82.82392333083118
 31
0.0
  0
ARC
  5
EF7C89694
330
EF7C85532
100
AcDbEntity
  8
JISSEN
100
AcDbCircle
 10
90.00008343801971
 20
100.5644780496666
 30
0.0
 40
23.35
100
AcDbArc
 50
306.316792688139
 51
313.6832073118598
  0
ARC
  5
EF7C89695
330
EF7C85532
100
AcDbEntity
  8
JISSEN
100
AcDbCircle
 10
103.3110876470359
 20
83.14531713567443
 30
0.0
 40
0.5
100
AcDbArc
 50
130.0000000000023
 51
220.0000000000002
  0
ARC
  5
EF7C89696
330
EF7C85532
100
AcDbEntity
  8
JISSEN
100
AcDbCircle
 10
104.8431765332738
 20
84.43089235504752
 30
0.0
 40
0.5
100
AcDbArc
 50
40.00000000000029
 51
130.0000000000023
  0
LINE
  5
EF7C89697
330
EF7C85532
100
AcDbEntity
  8
JISSEN
100
AcDbLine
 10
113.9208030155748
 20
94.82346987235381
 30
0.0
 11
111.3069009624865
 21
95.28437132924253
 31
0.0
  0
ARC
  5
EF7C89698
330
EF7C85532
100
AcDbEntity
  8
JISSEN
100
AcDbCircle
 10
90.00008343801971
 20
100.5644780496665
 30
0.0
 40
23.35
100
AcDbArc
 50
326.3167926881394
 51
333.6832073118591
  0
LINE
  5
EF7C89699
330
EF7C85532
100
AcDbEntity
  8
JISSEN
100
AcDbLine
 10
109.0330270790067
 20
90.73050345345105
 30
0.0
 11
108.0330270790067
 21
88.99845264588215
 31
0.0
  0
LINE
  5
EF7C8969A
330
EF7C85532
100
AcDbEntity
  8
JISSEN
100
AcDbLine
 10
109.7160397808993
 20
90.91351615534396
 30
0.0
 11
112.0146666692993
 21
89.58640330255979
 31
0.0
  0
ARC
  5
EF7C8969B
330
EF7C85532
100
AcDbEntity
  8
JISSEN
100
AcDbCircle
 10
108.4660397808988
 20
88.74845264588218
 30
0.0
 40
0.5
100
AcDbArc
 50
149.9999999999996
 51
239.9999999999999
  0
LINE
  5
EF7C8969C
330
EF7C85532
100
AcDbEntity
  8
JISSEN
100
AcDbLine
 10
108.2160397808993
 20
88.3154399439906
 30
0.0
 11
110.5146666692994
 21
86.98832709120644
 31
0.0
  0
ARC
  5
EF7C8969D
330
EF7C85532
100
AcDbEntity
  8
JISSEN
100
AcDbCircle
 10
109.4660397808988
 20
90.48050345345105
 30
0.0
 40
0.5
100
AcDbArc
 50
59.99999999999997
 51
149.9999999999996
  0
ARC
  5
EF7C8969E
330
EF7C85532
100
AcDbEntity
  8
JISSEN
100
AcDbCircle
 10
111.39372505132
 20
95.77677520574862
 30
0.0
 40
0.5
100
AcDbArc
 50
169.9999999999996
 51
260.0000000000014
  0
LINE
  5
EF7C8969F
330
EF7C85532
100
AcDbEntity
  8
JISSEN
100
AcDbLine
 10
104.6341688223275
 20
120.3382876210363
 30
0.0
 11
102.9280654254764
 21
118.305032768502
 31
0.0
  0
ARC
  5
EF7C896A0
330
EF7C85532
100
AcDbEntity
  8
JISSEN
100
AcDbCircle
 10
90.00008343801971
 20
100.5644780496666
 30
0.0
 40
23.35
100
AcDbArc
 50
46.3167926881401
 51
53.68320731186091
  0
LINE
  5
EF7C896A1
330
EF7C85532
100
AcDbEntity
  8
JISSEN
100
AcDbLine
 10
111.8278454954873
 20
98.23879458827912
 30
0.0
 11
114.4417475485755
 21
97.77789313139045
 31
0.0
  0
LINE
  5
EF7C896A2
330
EF7C85532
100
AcDbEntity
  8
JISSEN
100
AcDbLine
 10
113.9208030155748
 20
106.3054862269793
 30
0.0
 11
111.3069009624865
 21
105.8445847700907
 31
0.0
  0
LINE
  5
EF7C896A3
330
EF7C85532
100
AcDbEntity
  8
JISSEN
100
AcDbLine
 10
111.8278454954873
 20
102.890161511054
 30
0.0
 11
114.4417475485755
 21
103.3510629679427
 31
0.0
  0
ARC
  5
EF7C896A4
330
EF7C85532
100
AcDbEntity
  8
JISSEN
100
AcDbCircle
 10
111.741021406654
 20
103.3825653875602
 30
0.0
 40
0.5
100
AcDbArc
 50
190.0000000000002
 51
279.9999999999986
  0
ARC
  5
EF7C896A5
330
EF7C85532
100
AcDbEntity
  8
JISSEN
100
AcDbCircle
 10
111.741021406654
 20
97.74639071177304
 30
0.0
 40
0.5
100
AcDbArc
 50
80.0000000000014
 51
169.9999999999996
  0
LINE
  5
EF7C896A6
330
EF7C85532
100
AcDbEntity
  8
JISSEN
100
AcDbLine
 10
110.9013211748141
 20
105.2653568047511
 30
0.0
 11
111.2486175301479
 21
103.2957412987267
 31
0.0
  0
ARC
  5
EF7C896A7
330
EF7C85532
100
AcDbEntity
  8
JISSEN
100
AcDbCircle
 10
111.39372505132
 20
105.3521808935846
 30
0.0
 40
0.5
100
AcDbArc
 50
99.99999999999859
 51
190.0000000000002
  0
ARC
  5
EF7C896A8
330
EF7C85532
100
AcDbEntity
  8
JISSEN
100
AcDbCircle
 10
116.5000834380198
 20
100.5644780496666
 30
0.0
 40
1.0
100
AcDbArc
 50
91.08111659610958
 51
268.9188834038839
  0
ARC
  5
EF7C896A9
330
EF7C85532
100
AcDbEntity
  8
JISSEN
100
AcDbCircle
 10
90.00008343801971
 20
100.5644780496666
 30
0.0
 40
23.35
100
AcDbArc
 50
6.316792688140942
 51
13.68320731185892
  0
ARC
  5
EF7C896AA
330
EF7C85532
100
AcDbEntity
  8
JISSEN
100
AcDbCircle
 10
90.00008343801971
 20
100.5644780496666
 30
0.0
 40
23.35
100
AcDbArc
 50
6.316792688140942
 51
13.68320731185817
  0
LINE
  5
EF7C896AB
330
EF7C85532
100
AcDbEntity
  8
JISSEN
100
AcDbLine
 10
110.514666669299
 20
114.1406290081275
 30
0.0
 11
108.2160397808988
 21
112.8135161553432
 31
0.0
  0
LINE
  5
EF7C896AC
330
EF7C85532
100
AcDbEntity
  8
JISSEN
100
AcDbLine
 10
108.0330270790068
 20
112.130503453451
 30
0.0
 11
109.0330270790067
 21
110.3984526458821
 31
0.0
  0
ARC
  5
EF7C896AD
330
EF7C85532
100
AcDbEntity
  8
JISSEN
100
AcDbCircle
 10
90.00008343801971
 20
100.5644780496666
 30
0.0
 40
23.35
100
AcDbArc
 50
26.31679268814021
 51
33.68320731186055
  0
ARC
  5
EF7C896AE
330
EF7C85532
100
AcDbEntity
  8
JISSEN
100
AcDbCircle
 10
109.4660397808988
 20
110.6484526458821
 30
0.0
 40
0.5
100
AcDbArc
 50
210.0000000000002
 51
300.0
  0
LINE
  5
EF7C896AF
330
EF7C85532
100
AcDbEntity
  8
JISSEN
100
AcDbLine
 10
109.7160397808988
 20
110.2154399439899
 30
0.0
 11
112.0146666692988
 21
111.5425527967742
 31
0.0
  0
ARC
  5
EF7C896B0
330
EF7C85532
100
AcDbEntity
  8
JISSEN
100
AcDbCircle
 10
108.4660397808988
 20
112.380503453451
 30
0.0
 40
0.5
100
AcDbArc
 50
120.0
 51
209.9999999999997
  0
LINE
  5
EF7C896B1
330
EF7C85532
100
AcDbEntity
  8
JISSEN
100
AcDbLine
 10
105.2261987548333
 20
116.3766699394424
 30
0.0
 11
106.9323021516843
 21
118.4099247919766
 31
0.0
  0
LINE
  5
EF7C896B2
330
EF7C85532
100
AcDbEntity
  8
JISSEN
100
AcDbLine
 10
102.9896938421927
 20
117.6006167420993
 30
0.0
 11
104.5217827284307
 21
116.3150415227262
 31
0.0
  0
ARC
  5
EF7C896B3
330
EF7C85532
100
AcDbEntity
  8
JISSEN
100
AcDbCircle
 10
104.8431765332738
 20
116.6980637442857
 30
0.0
 40
0.5
100
AcDbArc
 50
229.9999999999976
 51
319.9999999999996
  0
ARC
  5
EF7C896B4
330
EF7C85532
100
AcDbEntity
  8
JISSEN
100
AcDbCircle
 10
103.3110876470359
 20
117.9836389636588
 30
0.0
 40
0.5
100
AcDbArc
 50
139.9999999999996
 51
229.9999999999976
  0
LINE
  5
EF7C899EF
330
EF7C85532
100
AcDbEntity
  8
TEXT
100
AcDbLine
 10
340.748158430362
 20
152.3495933955663
 30
0.0
 11
342.9481584303619
 21
152.3495933955663
 31
0.0
  0
LINE
  5
EF7C899F0
330
EF7C85532
100
AcDbEntity
  8
TEXT
100
AcDbLine
 10
340.748158430362
 20
149.3495933955663
 30
0.0
 11
342.9481584303619
 21
149.3495933955663
 31
0.0
  0
LINE
  5
EF7C899F1
330
EF7C85532
100
AcDbEntity
  8
TEXT
100
AcDbLine
 10
341.848158430362
 20
152.3495933955663
 30
0.0
 11
341.848158430362
 21
149.3495933955663
 31
0.0
  0
LINE
  5
EF7C899F2
330
EF7C85532
100
AcDbEntity
  8
TEXT
100
AcDbLine
 10
341.298158430362
 20
152.3495933955663
 30
0.0
 11
341.298158430362
 21
149.3495933955663
 31
0.0
  0
LINE
  5
EF7C899F3
330
EF7C85532
100
AcDbEntity
  8
TEXT
100
AcDbLine
 10
342.3981584303619
 20
152.3495933955663
 30
0.0
 11
342.3981584303619
 21
149.3495933955663
 31
0.0
  0
LINE
  5
EF7C89A32
330
EF7C85532
100
AcDbEntity
  8
TEXT
100
AcDbLine
 10
293.8404610793926
 20
275.500742589166
 30
0.0
 11
293.8404610793926
 21
272.500742589166
 31
0.0
  0
LINE
  5
EF7C89A33
330
EF7C85532
100
AcDbEntity
  8
TEXT
100
AcDbLine
 10
293.2904610793926
 20
275.500742589166
 30
0.0
 11
293.2904610793926
 21
272.500742589166
 31
0.0
  0
LINE
  5
EF7C89A34
330
EF7C85532
100
AcDbEntity
  8
TEXT
100
AcDbLine
 10
294.3904610793927
 20
275.500742589166
 30
0.0
 11
294.3904610793927
 21
272.500742589166
 31
0.0
  0
LINE
  5
EF7C89A3F
330
EF7C85532
100
AcDbEntity
  8
TEXT
100
AcDbLine
 10
292.8404610793926
 20
272.500742589166
 30
0.0
 11
294.8404610793926
 21
272.500742589166
 31
0.0
  0
LINE
  5
EF7C89A49
330
EF7C85532
100
AcDbEntity
  8
TEXT
100
AcDbLine
 10
292.8404610793926
 20
275.500742589166
 30
0.0
 11
294.8404610793926
 21
275.500742589166
 31
0.0
  0
LINE
  5
EF7C89AE0
330
EF7C85532
100
AcDbEntity
  8
TEXT
100
AcDbLine
 10
475.3904605908419
 20
275.500742589166
 30
0.0
 11
475.3904605908419
 21
272.500742589166
 31
0.0
  0
LINE
  5
EF7C89AE1
330
EF7C85532
100
AcDbEntity
  8
TEXT
100
AcDbLine
 10
474.290460590842
 20
275.500742589166
 30
0.0
 11
474.290460590842
 21
272.500742589166
 31
0.0
  0
LINE
  5
EF7C89AE2
330
EF7C85532
100
AcDbEntity
  8
TEXT
100
AcDbLine
 10
474.840460590842
 20
275.500742589166
 30
0.0
 11
474.840460590842
 21
272.500742589166
 31
0.0
  0
LINE
  5
EF7C89AEE
330
EF7C85532
100
AcDbEntity
  8
TEXT
100
AcDbLine
 10
473.840460590842
 20
272.500742589166
 30
0.0
 11
475.8404605908419
 21
272.500742589166
 31
0.0
  0
LINE
  5
EF7C89AF8
330
EF7C85532
100
AcDbEntity
  8
TEXT
100
AcDbLine
 10
473.840460590842
 20
275.500742589166
 30
0.0
 11
475.8404605908419
 21
275.500742589166
 31
0.0
  0
LINE
  5
EF7C89AFC
330
EF7C85532
100
AcDbEntity
  8
TEXT
100
AcDbLine
 10
311.2113261945996
 20
9.670003391526421
 30
0.0
 11
311.2113261945996
 21
6.670003391526421
 31
0.0
  0
LINE
  5
EF7C89AFD
330
EF7C85532
100
AcDbEntity
  8
TEXT
100
AcDbLine
 10
310.1113261945997
 20
9.670003391526421
 30
0.0
 11
310.1113261945997
 21
6.670003391526421
 31
0.0
  0
LINE
  5
EF7C89AFE
330
EF7C85532
100
AcDbEntity
  8
TEXT
100
AcDbLine
 10
310.6613261945997
 20
9.670003391526421
 30
0.0
 11
310.6613261945997
 21
6.670003391526421
 31
0.0
  0
LINE
  5
EF7C89AFF
330
EF7C85532
100
AcDbEntity
  8
TEXT
100
AcDbLine
 10
309.5613261945998
 20
6.670003391526421
 30
0.0
 11
311.7613261945996
 21
6.670003391526421
 31
0.0
  0
LINE
  5
EF7C89B00
330
EF7C85532
100
AcDbEntity
  8
TEXT
100
AcDbLine
 10
309.5613261945998
 20
9.670003391526421
 30
0.0
 11
311.7613261945996
 21
9.670003391526421
 31
0.0
  0
LINE
  5
EF7C89B01
330
EF7C85532
100
AcDbEntity
  8
TEXT
100
AcDbLine
 10
523.3981579418112
 20
152.3495933955663
 30
0.0
 11
523.3981579418112
 21
149.3495933955663
 31
0.0
  0
LINE
  5
EF7C89B02
330
EF7C85532
100
AcDbEntity
  8
TEXT
100
AcDbLine
 10
522.2981579418114
 20
152.3495933955663
 30
0.0
 11
522.2981579418114
 21
149.3495933955663
 31
0.0
  0
LINE
  5
EF7C89B03
330
EF7C85532
100
AcDbEntity
  8
TEXT
100
AcDbLine
 10
522.8481579418113
 20
152.3495933955663
 30
0.0
 11
522.8481579418113
 21
149.3495933955663
 31
0.0
  0
LINE
  5
EF7C89B04
330
EF7C85532
100
AcDbEntity
  8
TEXT
100
AcDbLine
 10
521.7481579418114
 20
149.3495933955663
 30
0.0
 11
523.9481579418112
 21
149.3495933955663
 31
0.0
  0
LINE
  5
EF7C89B05
330
EF7C85532
100
AcDbEntity
  8
TEXT
100
AcDbLine
 10
521.7481579418114
 20
152.3495933955663
 30
0.0
 11
523.9481579418112
 21
152.3495933955663
 31
0.0
  0
LINE
  5
EF7C89B06
330
EF7C85532
100
AcDbEntity
  8
TEXT
100
AcDbLine
 10
492.211325706049
 20
9.670003391526421
 30
0.0
 11
492.211325706049
 21
6.670003391526421
 31
0.0
  0
LINE
  5
EF7C89B07
330
EF7C85532
100
AcDbEntity
  8
TEXT
100
AcDbLine
 10
491.1113257060491
 20
9.670003391526421
 30
0.0
 11
491.1113257060491
 21
6.670003391526421
 31
0.0
  0
LINE
  5
EF7C89B08
330
EF7C85532
100
AcDbEntity
  8
TEXT
100
AcDbLine
 10
491.6613257060491
 20
9.670003391526421
 30
0.0
 11
491.6613257060491
 21
6.670003391526421
 31
0.0
  0
LINE
  5
EF7C89B09
330
EF7C85532
100
AcDbEntity
  8
TEXT
100
AcDbLine
 10
490.5613257060491
 20
6.670003391526421
 30
0.0
 11
492.761325706049
 21
6.670003391526421
 31
0.0
  0
LINE
  5
EF7C89B0A
330
EF7C85532
100
AcDbEntity
  8
TEXT
100
AcDbLine
 10
490.5613257060491
 20
9.670003391526421
 30
0.0
 11
492.761325706049
 21
9.670003391526421
 31
0.0
  0
ENDSEC
  0
SECTION
  2
OBJECTS
  0
DICTIONARY
  5
EF7C85527
330
0
100
AcDbDictionary
  3
ACAD_GROUP
350
EF7C85528
  3
ACAD_LAYOUT
350
EF7C85BB7
  3
ACAD_MLINESTYLE
350
EF7C85535
  3
ACAD_PLOTSETTINGS
350
EF7C85BB8
  3
ACAD_PLOTSTYLENAME
350
EF7C85BB5
  3
ACDBHEADERROUNDTRIPXREC
350
EF7C89B0D
  3
ACDBVARIABLEDICTIONARY
350
EF7C85DB7
  0
DICTIONARY
  5
EF7C89014
330
EF7C8551D
100
AcDbDictionary
280
     1
  3
ACAD_LAYERSTATES
360
EF7C89015
  0
DICTIONARY
  5
EF7C85D9A
330
EF7C85532
100
AcDbDictionary
280
     1
  3
ACAD_LAYOUTSELFREF
360
EF7C89B2F
  0
DICTIONARY
  5
EF7C85D98
330
EF7C8552F
100
AcDbDictionary
280
     1
  3
ACAD_LAYOUTSELFREF
360
EF7C89B2E
  0
DICTIONARY
  5
EF7C85528
102
{ACAD_REACTORS
330
EF7C85527
102
}
330
EF7C85527
100
AcDbDictionary
  0
DICTIONARY
  5
EF7C85BB7
102
{ACAD_REACTORS
330
EF7C85527
102
}
330
EF7C85527
100
AcDbDictionary
  0
DICTIONARY
  5
EF7C85535
102
{ACAD_REACTORS
330
EF7C85527
102
}
330
EF7C85527
100
AcDbDictionary
  3
STANDARD
350
EF7C85536
  0
DICTIONARY
  5
EF7C85BB8
102
{ACAD_REACTORS
330
EF7C85527
102
}
330
EF7C85527
100
AcDbDictionary
  0
ACDBDICTIONARYWDFLT
  5
EF7C85BB5
102
{ACAD_REACTORS
330
EF7C85527
102
}
330
EF7C85527
100
AcDbDictionary
281
     1
  3
Normal
350
EF7C85BB6
100
AcDbDictionaryWithDefault
340
EF7C85BB6
  0
DICTIONARY
  5
EF7C89B0D
102
{ACAD_REACTORS
330
EF7C85527
102
}
330
EF7C85527
100
AcDbDictionary
  3
CEPSNTYPE
350
EF7C89B17
  3
DIMSTYLEDATA
350
EF7C89B1B
  3
FINGERPRINTGUID
350
EF7C89B18
  3
HYPERLINKBASE
350
EF7C89B10
  3
INSUNITS
350
EF7C89B16
  3
LAYOUTDICT
350
EF7C89B12
  3
LWETCUNION
350
EF7C89B15
  3
PLOTSETDICT
350
EF7C89B13
  3
PLOTSTYLNAMDICT
350
EF7C89B14
  3
PSVPSCALE
350
EF7C89B1A
  3
PUCSBASE
350
EF7C89B1E
  3
PUCSORGBACK
350
EF7C89B24
  3
PUCSORGBOTTOM
350
EF7C89B20
  3
PUCSORGFRONT
350
EF7C89B23
  3
PUCSORGLEFT
350
EF7C89B21
  3
PUCSORGRIGHT
350
EF7C89B22
  3
PUCSORGTOP
350
EF7C89B1F
  3
PUCSORTHOREF
350
EF7C89B1C
  3
PUCSORTHOVIEW
350
EF7C89B1D
  3
STYLESHEET
350
EF7C89B11
  3
TSTACKALIGN
350
EF7C89B0E
  3
TSTACKSIZE
350
EF7C89B0F
  3
UCSBASE
350
EF7C89B27
  3
UCSORGBACK
350
EF7C89B2D
  3
UCSORGBOTTOM
350
EF7C89B29
  3
UCSORGFRONT
350
EF7C89B2C
  3
UCSORGLEFT
350
EF7C89B2A
  3
UCSORGRIGHT
350
EF7C89B2B
  3
UCSORGTOP
350
EF7C89B28
  3
UCSORTHOREF
350
EF7C89B25
  3
UCSORTHOVIEW
350
EF7C89B26
  3
VERSIONGUID
350
EF7C89B19
  0
DICTIONARY
  5
EF7C85DB7
102
{ACAD_REACTORS
330
EF7C85527
102
}
330
EF7C85527
100
AcDbDictionary
  3
DIMASSOC
350
EF7C88FE7
  3
SORTENTS
350
EF7C85DB8
  0
DICTIONARY
  5
EF7C89015
102
{ACAD_REACTORS
330
EF7C89014
102
}
330
EF7C89014
100
AcDbDictionary
  0
XRECORD
  5
EF7C89B2F
102
{ACAD_REACTORS
330
EF7C85D9A
102
}
330
EF7C85D9A
100
AcDbXrecord
340
EF7C85532
  0
XRECORD
  5
EF7C89B2E
102
{ACAD_REACTORS
330
EF7C85D98
102
}
330
EF7C85D98
100
AcDbXrecord
340
EF7C8552F
  0
MLINESTYLE
  5
EF7C85536
102
{ACAD_REACTORS
330
EF7C85535
102
}
330
EF7C85535
100
AcDbMlineStyle
  2
STANDARD
 70
     0
  3

 62
   256
 51
90.0
 52
90.0
 71
     2
 49
0.5
 62
   256
  6
BYLAYER
 49
-0.5
 62
   256
  6
BYLAYER
  0
ACDBPLACEHOLDER
  5
EF7C85BB6
102
{ACAD_REACTORS
330
EF7C85BB5
102
}
330
EF7C85BB5
100
AcDbPlaceHolder
280
     0
  0
XRECORD
  5
EF7C89B17
102
{ACAD_REACTORS
330
EF7C89B0D
102
}
330
EF7C89B0D
100
AcDbXrecord
 90
        0
  0
XRECORD
  5
EF7C89B1B
102
{ACAD_REACTORS
330
EF7C89B0D
102
}
330
EF7C89B0D
100
AcDbXrecord
1000
DSTYLE
1002
{
1070
   341
340
EF7C85537
1070
   342
340
EF7C85537
1070
   343
340
EF7C85543
1070
   344
340
EF7C85543
1002
}
  0
XRECORD
  5
EF7C89B18
102
{ACAD_REACTORS
330
EF7C89B0D
102
}
330
EF7C89B0D
100
AcDbXrecord
  1
{09AA4C7A-3D6F-4857-A850-771461888CEC}
  0
XRECORD
  5
EF7C89B10
102
{ACAD_REACTORS
330
EF7C89B0D
102
}
330
EF7C89B0D
100
AcDbXrecord
  1

  0
XRECORD
  5
EF7C89B16
102
{ACAD_REACTORS
330
EF7C89B0D
102
}
330
EF7C89B0D
100
AcDbXrecord
 90
        0
  0
XRECORD
  5
EF7C89B12
102
{ACAD_REACTORS
330
EF7C89B0D
102
}
330
EF7C89B0D
100
AcDbXrecord
340
EF7C85BB7
  0
XRECORD
  5
EF7C89B15
102
{ACAD_REACTORS
330
EF7C89B0D
102
}
330
EF7C89B0D
100
AcDbXrecord
 90
    14877
  0
XRECORD
  5
EF7C89B13
102
{ACAD_REACTORS
330
EF7C89B0D
102
}
330
EF7C89B0D
100
AcDbXrecord
340
EF7C85BB8
  0
XRECORD
  5
EF7C89B14
102
{ACAD_REACTORS
330
EF7C89B0D
102
}
330
EF7C89B0D
100
AcDbXrecord
340
EF7C85BB5
  0
XRECORD
  5
EF7C89B1A
102
{ACAD_REACTORS
330
EF7C89B0D
102
}
330
EF7C89B0D
100
AcDbXrecord
 40
0.0
  0
XRECORD
  5
EF7C89B1E
102
{ACAD_REACTORS
330
EF7C89B0D
102
}
330
EF7C89B0D
100
AcDbXrecord
340
0
  0
XRECORD
  5
EF7C89B24
102
{ACAD_REACTORS
330
EF7C89B0D
102
}
330
EF7C89B0D
100
AcDbXrecord
 10
0.0
 20
0.0
 30
0.0
  0
XRECORD
  5
EF7C89B20
102
{ACAD_REACTORS
330
EF7C89B0D
102
}
330
EF7C89B0D
100
AcDbXrecord
 10
0.0
 20
0.0
 30
0.0
  0
XRECORD
  5
EF7C89B23
102
{ACAD_REACTORS
330
EF7C89B0D
102
}
330
EF7C89B0D
100
AcDbXrecord
 10
0.0
 20
0.0
 30
0.0
  0
XRECORD
  5
EF7C89B21
102
{ACAD_REACTORS
330
EF7C89B0D
102
}
330
EF7C89B0D
100
AcDbXrecord
 10
0.0
 20
0.0
 30
0.0
  0
XRECORD
  5
EF7C89B22
102
{ACAD_REACTORS
330
EF7C89B0D
102
}
330
EF7C89B0D
100
AcDbXrecord
 10
0.0
 20
0.0
 30
0.0
  0
XRECORD
  5
EF7C89B1F
102
{ACAD_REACTORS
330
EF7C89B0D
102
}
330
EF7C89B0D
100
AcDbXrecord
 10
0.0
 20
0.0
 30
0.0
  0
XRECORD
  5
EF7C89B1C
102
{ACAD_REACTORS
330
EF7C89B0D
102
}
330
EF7C89B0D
100
AcDbXrecord
340
0
  0
XRECORD
  5
EF7C89B1D
102
{ACAD_REACTORS
330
EF7C89B0D
102
}
330
EF7C89B0D
100
AcDbXrecord
 70
     0
  0
XRECORD
  5
EF7C89B11
102
{ACAD_REACTORS
330
EF7C89B0D
102
}
330
EF7C89B0D
100
AcDbXrecord
  1

  0
XRECORD
  5
EF7C89B0E
102
{ACAD_REACTORS
330
EF7C89B0D
102
}
330
EF7C89B0D
100
AcDbXrecord
 90
        1
  0
XRECORD
  5
EF7C89B0F
102
{ACAD_REACTORS
330
EF7C89B0D
102
}
330
EF7C89B0D
100
AcDbXrecord
 90
       70
  0
XRECORD
  5
EF7C89B27
102
{ACAD_REACTORS
330
EF7C89B0D
102
}
330
EF7C89B0D
100
AcDbXrecord
340
0
  0
XRECORD
  5
EF7C89B2D
102
{ACAD_REACTORS
330
EF7C89B0D
102
}
330
EF7C89B0D
100
AcDbXrecord
 10
0.0
 20
0.0
 30
0.0
  0
XRECORD
  5
EF7C89B29
102
{ACAD_REACTORS
330
EF7C89B0D
102
}
330
EF7C89B0D
100
AcDbXrecord
 10
0.0
 20
0.0
 30
0.0
  0
XRECORD
  5
EF7C89B2C
102
{ACAD_REACTORS
330
EF7C89B0D
102
}
330
EF7C89B0D
100
AcDbXrecord
 10
0.0
 20
0.0
 30
0.0
  0
XRECORD
  5
EF7C89B2A
102
{ACAD_REACTORS
330
EF7C89B0D
102
}
330
EF7C89B0D
100
AcDbXrecord
 10
0.0
 20
0.0
 30
0.0
  0
XRECORD
  5
EF7C89B2B
102
{ACAD_REACTORS
330
EF7C89B0D
102
}
330
EF7C89B0D
100
AcDbXrecord
 10
0.0
 20
0.0
 30
0.0
  0
XRECORD
  5
EF7C89B28
102
{ACAD_REACTORS
330
EF7C89B0D
102
}
330
EF7C89B0D
100
AcDbXrecord
 10
0.0
 20
0.0
 30
0.0
  0
XRECORD
  5
EF7C89B25
102
{ACAD_REACTORS
330
EF7C89B0D
102
}
330
EF7C89B0D
100
AcDbXrecord
340
0
  0
XRECORD
  5
EF7C89B26
102
{ACAD_REACTORS
330
EF7C89B0D
102
}
330
EF7C89B0D
100
AcDbXrecord
 70
     0
  0
XRECORD
  5
EF7C89B19
102
{ACAD_REACTORS
330
EF7C89B0D
102
}
330
EF7C89B0D
100
AcDbXrecord
  1
{761872D8-DF4E-4FE7-9D83-F8D7AC1BD1E6}
  0
DICTIONARYVAR
  5
EF7C88FE7
102
{ACAD_REACTORS
330
EF7C85DB7
102
}
330
EF7C85DB7
100
DictionaryVariables
280
     0
  1
0
  0
DICTIONARYVAR
  5
EF7C85DB8
102
{ACAD_REACTORS
330
EF7C85DB7
102
}
330
EF7C85DB7
100
DictionaryVariables
280
     0
  1
96
  0
ENDSEC
  0
EOF
