  0
SECTION
  2
HEADER
  9
$ACADVER
  1
AC1014
  9
$ACADMAINTVER
 70
     9
  9
$DWGCODEPAGE
  3
ANSI_932
  9
$INSBASE
 10
0.0
 20
0.0
 30
0.0
  9
$EXTMIN
 10
-0.0366937119110844
 20
-0.0136090661075059
 30
-0.000000000000013
  9
$EXTMAX
 10
543.0088690426857
 20
283.0090967690521
 30
0.0000000000000023
  9
$LIMMIN
 10
0.0
 20
0.0
  9
$LIMMAX
 10
181.0
 20
283.0
  9
$ORTHOMODE
 70
     1
  9
$REGENMODE
 70
     1
  9
$FILLMODE
 70
     1
  9
$QTEXTMODE
 70
     0
  9
$MIRRTEXT
 70
     0
  9
$DRAGMODE
 70
     2
  9
$LTSCALE
 40
5.0
  9
$OSMODE
 70
   167
  9
$ATTMODE
 70
     1
  9
$TEXTSIZE
 40
3.0
  9
$TRACEWID
 40
0.05
  9
$TEXTSTYLE
  7
BIGFONT
  9
$CLAYER
  8
JISSEN
  9
$CELTYPE
  6
BYLAYER
  9
$CECOLOR
 62
   256
  9
$CELTSCALE
 40
1.0
  9
$DELOBJ
 70
     1
  9
$DISPSILH
 70
     0
  9
$DIMSCALE
 40
1.0
  9
$DIMASZ
 40
1.5
  9
$DIMEXO
 40
1.0
  9
$DIMDLI
 40
6.0
  9
$DIMRND
 40
0.0
  9
$DIMDLE
 40
0.0
  9
$DIMEXE
 40
1.0
  9
$DIMTP
 40
0.0
  9
$DIMTM
 40
0.0
  9
$DIMTXT
 40
3.0
  9
$DIMCEN
 40
1.0
  9
$DIMTSZ
 40
0.0
  9
$DIMTOL
 70
     0
  9
$DIMLIM
 70
     0
  9
$DIMTIH
 70
     0
  9
$DIMTOH
 70
     0
  9
$DIMSE1
 70
     0
  9
$DIMSE2
 70
     0
  9
$DIMTAD
 70
     0
  9
$DIMZIN
 70
     8
  9
$DIMBLK
  1
ARROW
  9
$DIMASO
 70
     0
  9
$DIMSHO
 70
     0
  9
$DIMPOST
  1

  9
$DIMAPOST
  1

  9
$DIMALT
 70
     0
  9
$DIMALTD
 70
     2
  9
$DIMALTF
 40
25.4
  9
$DIMLFAC
 40
1.0
  9
$DIMTOFL
 70
     1
  9
$DIMTVP
 40
0.0
  9
$DIMTIX
 70
     0
  9
$DIMSOXD
 70
     0
  9
$DIMSAH
 70
     0
  9
$DIMBLK1
  1
ARROWANG
  9
$DIMBLK2
  1
ARROWANG
  9
$DIMSTYLE
  2
IMAO
  9
$DIMCLRD
 70
     0
  9
$DIMCLRE
 70
     0
  9
$DIMCLRT
 70
     0
  9
$DIMTFAC
 40
1.0
  9
$DIMGAP
 40
0.09
  9
$DIMJUST
 70
     0
  9
$DIMSD1
 70
     0
  9
$DIMSD2
 70
     0
  9
$DIMTOLJ
 70
     1
  9
$DIMTZIN
 70
     8
  9
$DIMALTZ
 70
     8
  9
$DIMALTTZ
 70
     8
  9
$DIMFIT
 70
     3
  9
$DIMUPT
 70
     0
  9
$DIMUNIT
 70
     2
  9
$DIMDEC
 70
     2
  9
$DIMTDEC
 70
     2
  9
$DIMALTU
 70
     2
  9
$DIMALTTD
 70
     2
  9
$DIMTXSTY
  7
BIGFONT
  9
$DIMAUNIT
 70
     0
  9
$LUNITS
 70
     2
  9
$LUPREC
 70
     2
  9
$SKETCHINC
 40
0.1
  9
$FILLETRAD
 40
0.0
  9
$AUNITS
 70
     0
  9
$AUPREC
 70
     2
  9
$MENU
  1
stdr12j
  9
$ELEVATION
 40
0.0
  9
$PELEVATION
 40
0.0
  9
$THICKNESS
 40
0.0
  9
$LIMCHECK
 70
     0
  9
$BLIPMODE
 70
     0
  9
$CHAMFERA
 40
0.0
  9
$CHAMFERB
 40
0.0
  9
$CHAMFERC
 40
0.0
  9
$CHAMFERD
 40
0.0
  9
$SKPOLY
 70
     0
  9
$TDCREATE
 40
2450617.453041203
  9
$TDUPDATE
 40
2453614.652620046
  9
$TDINDWG
 40
0.1570456250
  9
$TDUSRTIMER
 40
0.1570456250
  9
$USRTIMER
 70
     1
  9
$ANGBASE
 50
0.0
  9
$ANGDIR
 70
     0
  9
$PDMODE
 70
     0
  9
$PDSIZE
 40
0.0
  9
$PLINEWID
 40
0.0
  9
$COORDS
 70
     2
  9
$SPLFRAME
 70
     0
  9
$SPLINETYPE
 70
     6
  9
$SPLINESEGS
 70
     8
  9
$ATTDIA
 70
     0
  9
$ATTREQ
 70
     1
  9
$HANDLING
 70
 22529
  9
$HANDSEED
  5
EF7C882BC
  9
$SURFTAB1
 70
     6
  9
$SURFTAB2
 70
     6
  9
$SURFTYPE
 70
     6
  9
$SURFU
 70
     6
  9
$SURFV
 70
     6
  9
$UCSNAME
  2

  9
$UCSORG
 10
0.0
 20
0.0
 30
0.0
  9
$UCSXDIR
 10
1.0
 20
0.0
 30
0.0
  9
$UCSYDIR
 10
0.0
 20
1.0
 30
0.0
  9
$PUCSNAME
  2

  9
$PUCSORG
 10
0.0
 20
0.0
 30
0.0
  9
$PUCSXDIR
 10
1.0
 20
0.0
 30
0.0
  9
$PUCSYDIR
 10
0.0
 20
1.0
 30
0.0
  9
$USERI1
 70
     0
  9
$USERI2
 70
     1
  9
$USERI3
 70
     1
  9
$USERI4
 70
     3
  9
$USERI5
 70
     0
  9
$USERR1
 40
1.0
  9
$USERR2
 40
3.0
  9
$USERR3
 40
3.0
  9
$USERR4
 40
1.5
  9
$USERR5
 40
8.0
  9
$WORLDVIEW
 70
     1
  9
$SHADEDGE
 70
     3
  9
$SHADEDIF
 70
    70
  9
$TILEMODE
 70
     1
  9
$MAXACTVP
 70
    16
  9
$PINSBASE
 10
0.0
 20
0.0
 30
0.0
  9
$PLIMCHECK
 70
     0
  9
$PEXTMIN
 10
1.000000000000000E+20
 20
1.000000000000000E+20
 30
1.000000000000000E+20
  9
$PEXTMAX
 10
-1.000000000000000E+20
 20
-1.000000000000000E+20
 30
-1.000000000000000E+20
  9
$PLIMMIN
 10
0.0
 20
0.0
  9
$PLIMMAX
 10
12.0
 20
9.0
  9
$UNITMODE
 70
     0
  9
$VISRETAIN
 70
     0
  9
$PLINEGEN
 70
     0
  9
$PSLTSCALE
 70
     0
  9
$TREEDEPTH
 70
  3020
  9
$PICKSTYLE
 70
     1
  9
$CMLSTYLE
  2
STANDARD
  9
$CMLJUST
 70
     0
  9
$CMLSCALE
 40
1.0
  9
$PROXYGRAPHICS
 70
     1
  9
$MEASUREMENT
 70
     0
  0
ENDSEC
  0
SECTION
  2
CLASSES
  0
CLASS
  1
LWPOLYLINE
  2
AcDbPolyline
  3
AutoCAD 2000
 90
        0
280
     0
281
     1
  0
CLASS
  1
HATCH
  2
AcDbHatch
  3
AutoCAD 2000
 90
        0
280
     0
281
     1
  0
CLASS
  1
ACDBDICTIONARYWDFLT
  2
AcDbDictionaryWithDefault
  3
AutoCAD 2000
 90
        0
280
     0
281
     0
  0
CLASS
  1
ACDBPLACEHOLDER
  2
AcDbPlaceHolder
  3
AutoCAD 2000
 90
        0
280
     0
281
     0
  0
CLASS
  1
LAYOUT
  2
AcDbLayout
  3
AutoCAD 2000
 90
        0
280
     0
281
     0
  0
CLASS
  1
LONG_TRANSACTION
  2
AcDbLongTransaction
  3
AutoCAD 2000
 90
        0
280
     0
281
     0
  0
CLASS
  1
LWPOLYLINE
  2
AcDbPolyline
  3
AutoCAD 2000
 90
        0
280
     0
281
     1
  0
CLASS
  1
HATCH
  2
AcDbHatch
  3
AutoCAD 2000
 90
        0
280
     0
281
     1
  0
CLASS
  1
XRECORD
  2
AcDbXrecord
  3
AutoCAD 2000
 90
        0
280
     0
281
     0
  0
CLASS
  1
DICTIONARYVAR
  2
AcDbDictionaryVar
  3
AutoCAD 2000
 90
        0
280
     0
281
     0
  0
CLASS
  1
LONG_TRANSACTION
  2
AcDbLongTransaction
  3
AutoCAD 2000
 90
        0
280
     0
281
     0
  0
CLASS
  1
LWPOLYLINE
  2
AcDbPolyline
  3
AutoCAD 2000
 90
        0
280
     0
281
     1
  0
CLASS
  1
HATCH
  2
AcDbHatch
  3
AutoCAD 2000
 90
        0
280
     0
281
     1
  0
CLASS
  1
XRECORD
  2
AcDbXrecord
  3
AutoCAD 2000
 90
        0
280
     0
281
     0
  0
CLASS
  1
LONG_TRANSACTION
  2
AcDbLongTransaction
  3
AutoCAD 2000
 90
        0
280
     0
281
     0
  0
CLASS
  1
LWPOLYLINE
  2
AcDbPolyline
  3
AutoCAD 2000
 90
        0
280
     0
281
     1
  0
CLASS
  1
HATCH
  2
AcDbHatch
  3
AutoCAD 2000
 90
        0
280
     0
281
     1
  0
CLASS
  1
XRECORD
  2
AcDbXrecord
  3
AutoCAD 2000
 90
        0
280
     0
281
     0
  0
CLASS
  1
LONG_TRANSACTION
  2
AcDbLongTransaction
  3
AutoCAD 2000
 90
        0
280
     0
281
     0
  0
CLASS
  1
LWPOLYLINE
  2
AcDbPolyline
  3
AutoCAD 2000
 90
        0
280
     0
281
     1
  0
CLASS
  1
HATCH
  2
AcDbHatch
  3
AutoCAD 2000
 90
        0
280
     0
281
     1
  0
CLASS
  1
XRECORD
  2
AcDbXrecord
  3
AutoCAD 2000
 90
        0
280
     0
281
     0
  0
CLASS
  1
LONG_TRANSACTION
  2
AcDbLongTransaction
  3
AutoCAD 2000
 90
        0
280
     0
281
     0
  0
CLASS
  1
LWPOLYLINE
  2
AcDbPolyline
  3
AutoCAD 2000
 90
        0
280
     0
281
     1
  0
CLASS
  1
HATCH
  2
AcDbHatch
  3
AutoCAD 2000
 90
        0
280
     0
281
     1
  0
CLASS
  1
XRECORD
  2
AcDbXrecord
  3
AutoCAD 2000
 90
        0
280
     0
281
     0
  0
CLASS
  1
LONG_TRANSACTION
  2
AcDbLongTransaction
  3
AutoCAD 2000
 90
        0
280
     0
281
     0
  0
CLASS
  1
LWPOLYLINE
  2
AcDbPolyline
  3
AutoCAD 2000
 90
        0
280
     0
281
     1
  0
CLASS
  1
HATCH
  2
AcDbHatch
  3
AutoCAD 2000
 90
        0
280
     0
281
     1
  0
CLASS
  1
XRECORD
  2
AcDbXrecord
  3
AutoCAD 2000
 90
        0
280
     0
281
     0
  0
CLASS
  1
LONG_TRANSACTION
  2
AcDbLongTransaction
  3
AutoCAD 2000
 90
        0
280
     0
281
     0
  0
CLASS
  1
LWPOLYLINE
  2
AcDbPolyline
  3
AutoCAD 2000
 90
        0
280
     0
281
     1
  0
CLASS
  1
HATCH
  2
AcDbHatch
  3
AutoCAD 2000
 90
        0
280
     0
281
     1
  0
CLASS
  1
XRECORD
  2
AcDbXrecord
  3
AutoCAD 2000
 90
        0
280
     0
281
     0
  0
CLASS
  1
LONG_TRANSACTION
  2
AcDbLongTransaction
  3
AutoCAD 2000
 90
        0
280
     0
281
     0
  0
CLASS
  1
LWPOLYLINE
  2
AcDbPolyline
  3
AutoCAD 2000
 90
        0
280
     0
281
     1
  0
CLASS
  1
HATCH
  2
AcDbHatch
  3
AutoCAD 2000
 90
        0
280
     0
281
     1
  0
CLASS
  1
XRECORD
  2
AcDbXrecord
  3
AutoCAD 2000
 90
        0
280
     0
281
     0
  0
CLASS
  1
LONG_TRANSACTION
  2
AcDbLongTransaction
  3
AutoCAD 2000
 90
        0
280
     0
281
     0
  0
CLASS
  1
LWPOLYLINE
  2
AcDbPolyline
  3
AutoCAD 2000
 90
        0
280
     0
281
     1
  0
CLASS
  1
HATCH
  2
AcDbHatch
  3
AutoCAD 2000
 90
        0
280
     0
281
     1
  0
CLASS
  1
XRECORD
  2
AcDbXrecord
  3
AutoCAD 2000
 90
        0
280
     0
281
     0
  0
CLASS
  1
LONG_TRANSACTION
  2
AcDbLongTransaction
  3
AutoCAD 2000
 90
        0
280
     0
281
     0
  0
CLASS
  1
LWPOLYLINE
  2
AcDbPolyline
  3
AutoCAD 2000
 90
        0
280
     0
281
     1
  0
CLASS
  1
HATCH
  2
AcDbHatch
  3
AutoCAD 2000
 90
        0
280
     0
281
     1
  0
CLASS
  1
XRECORD
  2
AcDbXrecord
  3
AutoCAD 2000
 90
        0
280
     0
281
     0
  0
CLASS
  1
LONG_TRANSACTION
  2
AcDbLongTransaction
  3
AutoCAD 2000
 90
        0
280
     0
281
     0
  0
CLASS
  1
LWPOLYLINE
  2
AcDbPolyline
  3
AutoCAD 2000
 90
        0
280
     0
281
     1
  0
CLASS
  1
HATCH
  2
AcDbHatch
  3
AutoCAD 2000
 90
        0
280
     0
281
     1
  0
CLASS
  1
XRECORD
  2
AcDbXrecord
  3
AutoCAD 2000
 90
        0
280
     0
281
     0
  0
CLASS
  1
LONG_TRANSACTION
  2
AcDbLongTransaction
  3
AutoCAD 2000
 90
        0
280
     0
281
     0
  0
CLASS
  1
LWPOLYLINE
  2
AcDbPolyline
  3
AutoCAD 2000
 90
        0
280
     0
281
     1
  0
CLASS
  1
HATCH
  2
AcDbHatch
  3
AutoCAD 2000
 90
        0
280
     0
281
     1
  0
CLASS
  1
XRECORD
  2
AcDbXrecord
  3
AutoCAD 2000
 90
        0
280
     0
281
     0
  0
CLASS
  1
LONG_TRANSACTION
  2
AcDbLongTransaction
  3
AutoCAD 2000
 90
        0
280
     0
281
     0
  0
CLASS
  1
LWPOLYLINE
  2
AcDbPolyline
  3
AutoCAD 2000
 90
        0
280
     0
281
     1
  0
CLASS
  1
HATCH
  2
AcDbHatch
  3
AutoCAD 2000
 90
        0
280
     0
281
     1
  0
CLASS
  1
XRECORD
  2
AcDbXrecord
  3
AutoCAD 2000
 90
        0
280
     0
281
     0
  0
CLASS
  1
LONG_TRANSACTION
  2
AcDbLongTransaction
  3
AutoCAD 2000
 90
        0
280
     0
281
     0
  0
CLASS
  1
LWPOLYLINE
  2
AcDbPolyline
  3
AutoCAD 2000
 90
        0
280
     0
281
     1
  0
CLASS
  1
HATCH
  2
AcDbHatch
  3
AutoCAD 2000
 90
        0
280
     0
281
     1
  0
CLASS
  1
XRECORD
  2
AcDbXrecord
  3
AutoCAD 2000
 90
        0
280
     0
281
     0
  0
CLASS
  1
LONG_TRANSACTION
  2
AcDbLongTransaction
  3
AutoCAD 2000
 90
        0
280
     0
281
     0
  0
CLASS
  1
LWPOLYLINE
  2
AcDbPolyline
  3
AutoCAD 2000
 90
        0
280
     0
281
     1
  0
CLASS
  1
HATCH
  2
AcDbHatch
  3
AutoCAD 2000
 90
        0
280
     0
281
     1
  0
CLASS
  1
XRECORD
  2
AcDbXrecord
  3
AutoCAD 2000
 90
        0
280
     0
281
     0
  0
CLASS
  1
LONG_TRANSACTION
  2
AcDbLongTransaction
  3
AutoCAD 2000
 90
        0
280
     0
281
     0
  0
CLASS
  1
LWPOLYLINE
  2
AcDbPolyline
  3
AutoCAD 2000
 90
        0
280
     0
281
     1
  0
CLASS
  1
HATCH
  2
AcDbHatch
  3
AutoCAD 2000
 90
        0
280
     0
281
     1
  0
CLASS
  1
XRECORD
  2
AcDbXrecord
  3
AutoCAD 2000
 90
        0
280
     0
281
     0
  0
CLASS
  1
LONG_TRANSACTION
  2
AcDbLongTransaction
  3
AutoCAD 2000
 90
        0
280
     0
281
     0
  0
CLASS
  1
LWPOLYLINE
  2
AcDbPolyline
  3
AutoCAD 2000
 90
        0
280
     0
281
     1
  0
CLASS
  1
HATCH
  2
AcDbHatch
  3
AutoCAD 2000
 90
        0
280
     0
281
     1
  0
CLASS
  1
XRECORD
  2
AcDbXrecord
  3
AutoCAD 2000
 90
        0
280
     0
281
     0
  0
CLASS
  1
LONG_TRANSACTION
  2
AcDbLongTransaction
  3
AutoCAD 2000
 90
        0
280
     0
281
     0
  0
CLASS
  1
LWPOLYLINE
  2
AcDbPolyline
  3
AutoCAD 2000
 90
        0
280
     0
281
     1
  0
CLASS
  1
HATCH
  2
AcDbHatch
  3
AutoCAD 2000
 90
        0
280
     0
281
     1
  0
CLASS
  1
XRECORD
  2
AcDbXrecord
  3
AutoCAD 2000
 90
        0
280
     0
281
     0
  0
CLASS
  1
LONG_TRANSACTION
  2
AcDbLongTransaction
  3
AutoCAD 2000
 90
        0
280
     0
281
     0
  0
CLASS
  1
LWPOLYLINE
  2
AcDbPolyline
  3
AutoCAD 2000
 90
        0
280
     0
281
     1
  0
CLASS
  1
HATCH
  2
AcDbHatch
  3
AutoCAD 2000
 90
        0
280
     0
281
     1
  0
CLASS
  1
XRECORD
  2
AcDbXrecord
  3
AutoCAD 2000
 90
        0
280
     0
281
     0
  0
CLASS
  1
LONG_TRANSACTION
  2
AcDbLongTransaction
  3
AutoCAD 2000
 90
        0
280
     0
281
     0
  0
CLASS
  1
LWPOLYLINE
  2
AcDbPolyline
  3
AutoCAD 2000
 90
        0
280
     0
281
     1
  0
CLASS
  1
HATCH
  2
AcDbHatch
  3
AutoCAD 2000
 90
        0
280
     0
281
     1
  0
CLASS
  1
XRECORD
  2
AcDbXrecord
  3
AutoCAD 2000
 90
        0
280
     0
281
     0
  0
CLASS
  1
LONG_TRANSACTION
  2
AcDbLongTransaction
  3
AutoCAD 2000
 90
        0
280
     0
281
     0
  0
CLASS
  1
LWPOLYLINE
  2
AcDbPolyline
  3
AutoCAD 2000
 90
        0
280
     0
281
     1
  0
CLASS
  1
HATCH
  2
AcDbHatch
  3
AutoCAD 2000
 90
        0
280
     0
281
     1
  0
CLASS
  1
XRECORD
  2
AcDbXrecord
  3
AutoCAD 2000
 90
        0
280
     0
281
     0
  0
CLASS
  1
LONG_TRANSACTION
  2
AcDbLongTransaction
  3
AutoCAD 2000
 90
        0
280
     0
281
     0
  0
CLASS
  1
LWPOLYLINE
  2
AcDbPolyline
  3
AutoCAD 2000
 90
        0
280
     0
281
     1
  0
CLASS
  1
HATCH
  2
AcDbHatch
  3
AutoCAD 2000
 90
        0
280
     0
281
     1
  0
CLASS
  1
XRECORD
  2
AcDbXrecord
  3
AutoCAD 2000
 90
        0
280
     0
281
     0
  0
ENDSEC
  0
SECTION
  2
TABLES
  0
TABLE
  2
VPORT
  5
EF7C85523
330
0
100
AcDbSymbolTable
 70
    12
  0
VPORT
  5
EF7C85567
330
EF7C85523
100
AcDbSymbolTableRecord
100
AcDbViewportTableRecord
  2
2
 70
     0
 10
0.5
 20
0.0
 11
1.0
 21
1.0
 12
0.9240312421264802
 22
1.052650975462765
 13
0.0
 23
0.0
 14
1.0
 24
1.0
 15
10.0
 25
10.0
 16
0.0
 26
0.0
 36
1.0
 17
0.0
 27
0.0
 37
0.0
 40
2.105301950925533
 41
0.8778135048231511
 42
50.0
 43
0.0
 44
0.0
 50
0.0
 51
0.0
 71
     0
 72
   500
 73
     1
 74
     1
 75
     0
 76
     0
 77
     0
 78
     0
  0
VPORT
  5
EF7C85568
330
EF7C85523
100
AcDbSymbolTableRecord
100
AcDbViewportTableRecord
  2
2
 70
     0
 10
0.0
 20
0.0
 11
0.5
 21
1.0
 12
0.9240312421264802
 22
1.052650975462765
 13
0.0
 23
0.0
 14
1.0
 24
1.0
 15
10.0
 25
10.0
 16
0.0
 26
0.0
 36
1.0
 17
0.0
 27
0.0
 37
0.0
 40
2.105301950925533
 41
0.8778135048231511
 42
50.0
 43
0.0
 44
0.0
 50
0.0
 51
0.0
 71
     0
 72
   500
 73
     1
 74
     1
 75
     0
 76
     0
 77
     0
 78
     0
  0
VPORT
  5
EF7C85569
330
EF7C85523
100
AcDbSymbolTableRecord
100
AcDbViewportTableRecord
  2
3
 70
     0
 10
0.0
 20
0.5
 11
1.0
 21
1.0
 12
2.832169994473273
 22
1.052650975462765
 13
0.0
 23
0.0
 14
1.0
 24
1.0
 15
10.0
 25
10.0
 16
0.0
 26
0.0
 36
1.0
 17
0.0
 27
0.0
 37
0.0
 40
2.105301950925533
 41
3.571428571428571
 42
50.0
 43
0.0
 44
0.0
 50
0.0
 51
0.0
 71
     0
 72
   500
 73
     1
 74
     1
 75
     0
 76
     0
 77
     0
 78
     0
  0
VPORT
  5
EF7C8556A
330
EF7C85523
100
AcDbSymbolTableRecord
100
AcDbViewportTableRecord
  2
3
 70
     0
 10
0.0
 20
0.0
 11
1.0
 21
0.5
 12
2.856741679241311
 22
1.052650975462765
 13
0.0
 23
0.0
 14
1.0
 24
1.0
 15
10.0
 25
10.0
 16
0.0
 26
0.0
 36
1.0
 17
0.0
 27
0.0
 37
0.0
 40
2.105301950925533
 41
3.594771241830064
 42
50.0
 43
0.0
 44
0.0
 50
0.0
 51
0.0
 71
     0
 72
   500
 73
     1
 74
     1
 75
     0
 76
     0
 77
     0
 78
     0
  0
VPORT
  5
EF7C8556B
330
EF7C85523
100
AcDbSymbolTableRecord
100
AcDbViewportTableRecord
  2
4
 70
     0
 10
0.5
 20
0.0
 11
1.0
 21
0.5
 12
2.886857516709718
 22
1.052650975462765
 13
0.0
 23
0.0
 14
1.0
 24
1.0
 15
10.0
 25
10.0
 16
0.0
 26
0.0
 36
1.0
 17
0.0
 27
0.0
 37
0.0
 40
4.275207030309069
 41
1.784313725490195
 42
50.0
 43
0.0
 44
0.0
 50
0.0
 51
0.0
 71
     0
 72
   500
 73
     1
 74
     1
 75
     0
 76
     0
 77
     0
 78
     0
  0
VPORT
  5
EF7C8556C
330
EF7C85523
100
AcDbSymbolTableRecord
100
AcDbViewportTableRecord
  2
4
 70
     0
 10
0.5
 20
0.5
 11
1.0
 21
1.0
 12
2.862090274555523
 22
1.052650975462765
 13
0.0
 23
0.0
 14
1.0
 24
1.0
 15
10.0
 25
10.0
 16
0.0
 26
0.0
 36
1.0
 17
0.0
 27
0.0
 37
0.0
 40
4.275207030309069
 41
1.772727272727271
 42
50.0
 43
0.0
 44
0.0
 50
0.0
 51
0.0
 71
     0
 72
   500
 73
     1
 74
     1
 75
     0
 76
     0
 77
     0
 78
     0
  0
VPORT
  5
EF7C8556D
330
EF7C85523
100
AcDbSymbolTableRecord
100
AcDbViewportTableRecord
  2
4
 70
     0
 10
0.0
 20
0.5
 11
0.5
 21
1.0
 12
2.862090274555523
 22
1.052650975462765
 13
0.0
 23
0.0
 14
1.0
 24
1.0
 15
10.0
 25
10.0
 16
0.0
 26
0.0
 36
1.0
 17
0.0
 27
0.0
 37
0.0
 40
4.275207030309069
 41
1.772727272727271
 42
50.0
 43
0.0
 44
0.0
 50
0.0
 51
0.0
 71
     0
 72
   500
 73
     1
 74
     1
 75
     0
 76
     0
 77
     0
 78
     0
  0
VPORT
  5
EF7C8556E
330
EF7C85523
100
AcDbSymbolTableRecord
100
AcDbViewportTableRecord
  2
4
 70
     0
 10
0.0
 20
0.0
 11
0.5
 21
0.5
 12
2.886857516709718
 22
1.052650975462765
 13
0.0
 23
0.0
 14
1.0
 24
1.0
 15
10.0
 25
10.0
 16
0.0
 26
0.0
 36
1.0
 17
0.0
 27
0.0
 37
0.0
 40
4.275207030309069
 41
1.784313725490195
 42
50.0
 43
0.0
 44
0.0
 50
0.0
 51
0.0
 71
     0
 72
   500
 73
     1
 74
     1
 75
     0
 76
     0
 77
     0
 78
     0
  0
VPORT
  5
EF7C88298
330
EF7C85523
100
AcDbSymbolTableRecord
100
AcDbViewportTableRecord
  2
*ACTIVE
 70
     0
 10
0.0
 20
0.0
 11
1.0
 21
1.0
 12
271.4860876653874
 22
141.4977438514722
 13
0.0
 23
0.0
 14
1.0
 24
1.0
 15
10.0
 25
10.0
 16
0.0
 26
0.0
 36
1.0
 17
0.0
 27
0.0
 37
0.0
 40
286.516813314606
 41
1.954639175257731
 42
50.0
 43
0.0
 44
0.0
 50
0.0
 51
0.0
 71
     0
 72
   500
 73
     1
 74
     0
 75
     0
 76
     0
 77
     0
 78
     0
  0
ENDTAB
  0
TABLE
  2
LTYPE
  5
EF7C85520
330
0
100
AcDbSymbolTable
 70
     3
  0
LTYPE
  5
EF7C8552C
330
EF7C85520
100
AcDbSymbolTableRecord
100
AcDbLinetypeTableRecord
  2
BYBLOCK
 70
     0
  3

 72
    65
 73
     0
 40
0.0
  0
LTYPE
  5
EF7C8552D
330
EF7C85520
100
AcDbSymbolTableRecord
100
AcDbLinetypeTableRecord
  2
BYLAYER
 70
     0
  3

 72
    65
 73
     0
 40
0.0
  0
LTYPE
  5
EF7C8552E
330
EF7C85520
100
AcDbSymbolTableRecord
100
AcDbLinetypeTableRecord
  2
CONTINUOUS
 70
     0
  3
実線
 72
    65
 73
     0
 40
0.0
  0
LTYPE
  5
EF7C85565
330
EF7C85520
100
AcDbSymbolTableRecord
100
AcDbLinetypeTableRecord
  2
PHANTOM
 70
     0
  3
_____ _ _ _____ _ _ _____ _ _ _____ _ _ ____
 72
    65
 73
     6
 40
2.5
 49
1.25
 74
     0
 49
-0.25
 74
     0
 49
0.25
 74
     0
 49
-0.25
 74
     0
 49
0.25
 74
     0
 49
-0.25
 74
     0
  0
LTYPE
  5
EF7C87CD2
330
EF7C85520
100
AcDbSymbolTableRecord
100
AcDbLinetypeTableRecord
  2
HIDDEN
 70
     0
  3
_ _ _ _ _ _ _ _ _ _ _ _ _ _ _ _ _ _ _ _ _ _ _
 72
    65
 73
     2
 40
0.375
 49
0.25
 74
     0
 49
-0.125
 74
     0
  0
ENDTAB
  0
TABLE
  2
LAYER
  5
EF7C8551D
102
{ACAD_XDICTIONARY
360
EF7C88047
102
}
330
0
100
AcDbSymbolTable
 70
     9
  0
LAYER
  5
EF7C85529
330
EF7C8551D
100
AcDbSymbolTableRecord
100
AcDbLayerTableRecord
  2
0
 70
     0
 62
     6
  6
CONTINUOUS
  0
LAYER
  5
EF7C85574
330
EF7C8551D
100
AcDbSymbolTableRecord
100
AcDbLayerTableRecord
  2
NITEN
 70
     0
 62
     2
  6
PHANTOM
  0
LAYER
  5
EF7C85575
330
EF7C8551D
100
AcDbSymbolTableRecord
100
AcDbLayerTableRecord
  2
HATCH
 70
     0
 62
     4
  6
CONTINUOUS
  0
LAYER
  5
EF7C85576
330
EF7C8551D
100
AcDbSymbolTableRecord
100
AcDbLayerTableRecord
  2
SUNPOU
 70
     0
 62
     3
  6
CONTINUOUS
  0
LAYER
  5
EF7C85577
330
EF7C8551D
100
AcDbSymbolTableRecord
100
AcDbLayerTableRecord
  2
TEXT
 70
     0
 62
     3
  6
CONTINUOUS
  0
LAYER
  5
EF7C85578
330
EF7C8551D
100
AcDbSymbolTableRecord
100
AcDbLayerTableRecord
  2
SAISEN
 70
     0
 62
     4
  6
CONTINUOUS
  0
LAYER
  5
EF7C85579
330
EF7C8551D
100
AcDbSymbolTableRecord
100
AcDbLayerTableRecord
  2
JISSEN
 70
     0
 62
     7
  6
CONTINUOUS
  0
LAYER
  5
EF7C8557D
330
EF7C8551D
100
AcDbSymbolTableRecord
100
AcDbLayerTableRecord
  2
WAKU
 70
     0
 62
     5
  6
CONTINUOUS
  0
LAYER
  5
EF7C87CD3
330
EF7C8551D
100
AcDbSymbolTableRecord
100
AcDbLayerTableRecord
  2
TENSEN
 70
     0
 62
     2
  6
HIDDEN
  0
ENDTAB
  0
TABLE
  2
STYLE
  5
EF7C8551E
330
0
100
AcDbSymbolTable
 70
     3
  0
STYLE
  5
EF7C8552A
330
EF7C8551E
100
AcDbSymbolTableRecord
100
AcDbTextStyleTableRecord
  2
STANDARD
 70
     0
 40
0.0
 41
1.0
 50
0.0
 71
     0
 42
1.5
  3
SIMPLEX
  4

  0
STYLE
  5
EF7C85558
330
EF7C8551E
100
AcDbSymbolTableRecord
100
AcDbTextStyleTableRecord
  2
K
 70
     0
 40
0.0
 41
1.0
 50
0.0
 71
     0
 42
3.0
  3
ROMANS
  4
BIGFONT
  0
STYLE
  5
EF7C8555B
330
EF7C8551E
100
AcDbSymbolTableRecord
100
AcDbTextStyleTableRecord
  2
BIGFONT
 70
     0
 40
0.0
 41
1.0
 50
0.0
 71
     0
 42
3.0
  3
txt.shx
  4
bigfont
  0
ENDTAB
  0
TABLE
  2
VIEW
  5
EF7C85521
330
0
100
AcDbSymbolTable
 70
     0
  0
ENDTAB
  0
TABLE
  2
UCS
  5
EF7C85522
330
0
100
AcDbSymbolTable
 70
     0
  0
ENDTAB
  0
TABLE
  2
APPID
  5
EF7C85524
330
0
100
AcDbSymbolTable
 70
     1
  0
APPID
  5
EF7C8552B
330
EF7C85524
100
AcDbSymbolTableRecord
100
AcDbRegAppTableRecord
  2
ACAD
 70
     0
  0
ENDTAB
  0
TABLE
  2
DIMSTYLE
  5
EF7C85525
330
0
100
AcDbSymbolTable
 70
     1
  0
DIMSTYLE
105
EF7C85571
330
EF7C85525
100
AcDbSymbolTableRecord
100
AcDbDimStyleTableRecord
  2
IMAO
 70
     0
  3

  4

  5
ARROWANG
  6
ARROWANG
  7
ARROWANG
 40
1.0
 41
1.5
 42
1.0
 43
6.0
 44
1.0
 45
0.0
 46
0.0
 47
495.0
 48
0.0
140
3.0
141
0.0
142
0.0
143
25.4
144
1.0
145
0.0
146
1.0
147
0.09
 71
     0
 72
     0
 73
     0
 74
     0
 75
     0
 76
     0
 77
     1
 78
     8
170
     0
171
     2
172
     1
173
     0
174
     1
175
     0
176
     0
177
     0
178
     0
270
     2
271
     2
272
     2
273
     2
274
     2
340
EF7C8555B
275
     0
280
     0
281
     0
282
     0
283
     1
284
     8
285
     8
286
     8
287
     3
288
     0
  0
ENDTAB
  0
TABLE
  2
BLOCK_RECORD
  5
EF7C8551C
330
0
100
AcDbSymbolTable
 70
    11
  0
BLOCK_RECORD
  5
EF7C85532
102
{ACAD_XDICTIONARY
360
EF7C85D9A
102
}
330
EF7C8551C
100
AcDbSymbolTableRecord
100
AcDbBlockTableRecord
  2
*MODEL_SPACE
  0
BLOCK_RECORD
  5
EF7C8552F
102
{ACAD_XDICTIONARY
360
EF7C85D98
102
}
330
EF7C8551C
100
AcDbSymbolTableRecord
100
AcDbBlockTableRecord
  2
*PAPER_SPACE
  0
BLOCK_RECORD
  5
EF7C85537
330
EF7C8551C
100
AcDbSymbolTableRecord
100
AcDbBlockTableRecord
  2
ARROW
  0
BLOCK_RECORD
  5
EF7C8553B
330
EF7C8551C
100
AcDbSymbolTableRecord
100
AcDbBlockTableRecord
  2
WAKU
  0
BLOCK_RECORD
  5
EF7C8553D
330
EF7C8551C
100
AcDbSymbolTableRecord
100
AcDbBlockTableRecord
  2
*X2
  0
BLOCK_RECORD
  5
EF7C8553E
330
EF7C8551C
100
AcDbSymbolTableRecord
100
AcDbBlockTableRecord
  2
STDGX5
  0
BLOCK_RECORD
  5
EF7C8553F
330
EF7C8551C
100
AcDbSymbolTableRecord
100
AcDbBlockTableRecord
  2
*X4
  0
BLOCK_RECORD
  5
EF7C85540
330
EF7C8551C
100
AcDbSymbolTableRecord
100
AcDbBlockTableRecord
  2
*X5
  0
BLOCK_RECORD
  5
EF7C85541
330
EF7C8551C
100
AcDbSymbolTableRecord
100
AcDbBlockTableRecord
  2
*X6
  0
BLOCK_RECORD
  5
EF7C85542
330
EF7C8551C
100
AcDbSymbolTableRecord
100
AcDbBlockTableRecord
  2
*X7
  0
BLOCK_RECORD
  5
EF7C85543
330
EF7C8551C
100
AcDbSymbolTableRecord
100
AcDbBlockTableRecord
  2
ARROWANG
  0
BLOCK_RECORD
  5
EF7C85544
330
EF7C8551C
100
AcDbSymbolTableRecord
100
AcDbBlockTableRecord
  2
STDR12J
  0
ENDTAB
  0
ENDSEC
  0
SECTION
  2
BLOCKS
  0
BLOCK
  5
EF7C85580
330
EF7C85532
100
AcDbEntity
  8
0
100
AcDbBlockBegin
  2
*MODEL_SPACE
 70
     0
 10
0.0
 20
0.0
 30
0.0
  3
*MODEL_SPACE
  1

  0
ENDBLK
  5
EF7C85581
330
EF7C85532
100
AcDbEntity
  8
0
100
AcDbBlockEnd
  0
BLOCK
  5
EF7C8557E
330
EF7C8552F
100
AcDbEntity
 67
     1
  8
0
100
AcDbBlockBegin
  2
*PAPER_SPACE
 70
     0
 10
0.0
 20
0.0
 30
0.0
  3
*PAPER_SPACE
  1

  0
ENDBLK
  5
EF7C8557F
330
EF7C8552F
100
AcDbEntity
 67
     1
  8
0
100
AcDbBlockEnd
  0
BLOCK
  5
499
330
EF7C85537
100
AcDbEntity
  8
0
100
AcDbBlockBegin
  2
ARROW
 70
     0
 10
1.0
 20
0.5
 30
0.0
  3
ARROW
  1

  0
LINE
  5
49A
330
EF7C85537
100
AcDbEntity
  8
0
100
AcDbLine
 10
1.0
 20
0.5
 30
0.0
 11
-0.5000000000000214
 21
0.0980762113533018
 31
0.0
  0
LINE
  5
49B
330
EF7C85537
100
AcDbEntity
  8
0
100
AcDbLine
 10
0.0
 20
0.5
 30
0.0
 11
1.0
 21
0.5
 31
0.0
  0
LINE
  5
49C
330
EF7C85537
100
AcDbEntity
  8
0
100
AcDbLine
 10
1.0
 20
0.5
 30
0.0
 11
-0.4999999999999575
 21
0.9019237886467408
 31
0.0
  0
ENDBLK
  5
49D
330
EF7C85537
100
AcDbEntity
  8
0
100
AcDbBlockEnd
  0
BLOCK
  5
4A7
330
EF7C8553B
100
AcDbEntity
  8
0
100
AcDbBlockBegin
  2
WAKU
 70
     0
 10
0.0
 20
0.0
 30
0.0
  3
WAKU
  1

  0
LINE
  5
4A8
330
EF7C8553B
100
AcDbEntity
  8
WAKU
100
AcDbLine
 10
0.9999999959999998
 20
0.0
 30
0.0
 11
0.9999999959999998
 21
0.9999999999999998
 31
0.0
  0
LINE
  5
4A9
330
EF7C8553B
100
AcDbEntity
  8
WAKU
100
AcDbLine
 10
0.0
 20
0.9999999999999998
 30
0.0
 11
0.9999999959999998
 21
0.9999999999999998
 31
0.0
  0
LINE
  5
4AA
330
EF7C8553B
100
AcDbEntity
  8
WAKU
100
AcDbLine
 10
0.9999999959999998
 20
0.0
 30
0.0
 11
0.0
 21
0.0
 31
0.0
  0
LINE
  5
4AB
330
EF7C8553B
100
AcDbEntity
  8
WAKU
100
AcDbLine
 10
0.0
 20
0.0
 30
0.0
 11
0.0
 21
0.9999999999999998
 31
0.0
  0
ENDBLK
  5
4AC
330
EF7C8553B
100
AcDbEntity
  8
0
100
AcDbBlockEnd
  0
BLOCK
  5
2764
330
EF7C8553D
100
AcDbEntity
  8
0
100
AcDbBlockBegin
  2
*X2
 70
     1
 10
0.0
 20
0.0
 30
0.0
  3
*X2
  1

  0
ENDBLK
  5
2765
330
EF7C8553D
100
AcDbEntity
  8
0
100
AcDbBlockEnd
  0
BLOCK
  5
2766
330
EF7C8553E
100
AcDbEntity
  8
0
100
AcDbBlockBegin
  2
STDGX5
 70
     0
 10
0.0
 20
0.0
 30
0.0
  3
STDGX5
  1

  0
ENDBLK
  5
2767
330
EF7C8553E
100
AcDbEntity
  8
0
100
AcDbBlockEnd
  0
BLOCK
  5
2F5A
330
EF7C8553F
100
AcDbEntity
  8
0
100
AcDbBlockBegin
  2
*X4
 70
     1
 10
0.0
 20
0.0
 30
0.0
  3
*X4
  1

  0
ENDBLK
  5
2F5B
330
EF7C8553F
100
AcDbEntity
  8
0
100
AcDbBlockEnd
  0
BLOCK
  5
32BB
330
EF7C85540
100
AcDbEntity
  8
0
100
AcDbBlockBegin
  2
*X5
 70
     1
 10
0.0
 20
0.0
 30
0.0
  3
*X5
  1

  0
ENDBLK
  5
32BC
330
EF7C85540
100
AcDbEntity
  8
0
100
AcDbBlockEnd
  0
BLOCK
  5
372F
330
EF7C85541
100
AcDbEntity
  8
0
100
AcDbBlockBegin
  2
*X6
 70
     1
 10
0.0
 20
0.0
 30
0.0
  3
*X6
  1

  0
ENDBLK
  5
3730
330
EF7C85541
100
AcDbEntity
  8
0
100
AcDbBlockEnd
  0
BLOCK
  5
3A6D
330
EF7C85542
100
AcDbEntity
  8
0
100
AcDbBlockBegin
  2
*X7
 70
     1
 10
0.0
 20
0.0
 30
0.0
  3
*X7
  1

  0
ENDBLK
  5
3A6E
330
EF7C85542
100
AcDbEntity
  8
0
100
AcDbBlockEnd
  0
BLOCK
  5
4CC9
330
EF7C85543
100
AcDbEntity
  8
0
100
AcDbBlockBegin
  2
ARROWANG
 70
     0
 10
0.0
 20
0.0
 30
0.0
  3
ARROWANG
  1

  0
LINE
  5
4CCA
330
EF7C85543
100
AcDbEntity
  8
SUNPOU
100
AcDbLine
 10
0.0
 20
0.0
 30
0.0
 11
-1.499999999999956
 21
0.401923788646741
 31
0.0
  0
LINE
  5
4CCB
330
EF7C85543
100
AcDbEntity
  8
SUNPOU
100
AcDbLine
 10
0.0
 20
0.0
 30
0.0
 11
-1.500000000000027
 21
-0.4019237886467124
 31
0.0
  0
ENDBLK
  5
4CCC
330
EF7C85543
100
AcDbEntity
  8
0
100
AcDbBlockEnd
  0
BLOCK
  5
4CCD
330
EF7C85544
100
AcDbEntity
  8
0
100
AcDbBlockBegin
  2
STDR12J
 70
     0
 10
0.0
 20
0.0
 30
0.0
  3
STDR12J
  1

  0
ENDBLK
  5
4CF2
330
EF7C85544
100
AcDbEntity
  8
0
100
AcDbBlockEnd
  0
ENDSEC
  0
SECTION
  2
ENTITIES
  0
TEXT
  5
1
330
EF7C85532
100
AcDbEntity
  8
SUNPOU
100
AcDbText
 10
95.05869565217388
 20
43.7966872748706
 30
0.0
 40
1.5
  1
                          
100
AcDbText
  0
TEXT
  5
2
330
EF7C85532
100
AcDbEntity
  8
SUNPOU
100
AcDbText
 10
332.2793466870868
 20
21.8983436374353
 30
0.0
 40
0.75
  1
                          
100
AcDbText
  0
TEXT
  5
1A
330
EF7C85532
100
AcDbEntity
  8
SUNPOU
100
AcDbText
 10
289.9834441000535
 20
43.7966872748706
 30
0.0
 40
1.5
  1
                          
100
AcDbText
  0
TEXT
  5
1B
330
EF7C85532
100
AcDbEntity
  8
SUNPOU
100
AcDbText
 10
527.2040951349664
 20
21.8983436374353
 30
0.0
 40
0.75
  1
                          
100
AcDbText
  0
TEXT
  5
1C
330
EF7C85532
100
AcDbEntity
  8
SUNPOU
100
AcDbText
 10
490.6272568090836
 20
43.79668727487056
 30
0.0
 40
1.5
  1
                          
100
AcDbText
  0
TEXT
  5
1D
330
EF7C85532
100
AcDbEntity
  8
SUNPOU
100
AcDbText
 10
727.8479078439966
 20
21.89834363743526
 30
0.0
 40
0.75
  1
                          
100
AcDbText
  0
INSERT
  5
1E
330
EF7C85532
100
AcDbEntity
  8
HATCH
100
AcDbBlockReference
  2
*X2
 10
194.9247484478796
 20
0.0
 30
0.0
  0
TEXT
  5
1F
330
EF7C85532
100
AcDbEntity
  8
SUNPOU
100
AcDbText
 10
493.0101992368963
 20
43.7966872748706
 30
0.0
 40
1.5
  1
                          
100
AcDbText
  0
TEXT
  5
20
330
EF7C85532
100
AcDbEntity
  8
SUNPOU
100
AcDbText
 10
730.2308502718093
 20
21.8983436374353
 30
0.0
 40
0.75
  1
                          
100
AcDbText
  0
TEXT
  5
21
330
EF7C85532
100
AcDbEntity
  8
SUNPOU
100
AcDbText
 10
482.0486607753578
 20
43.7966872748706
 30
0.0
 40
1.5
  1
                          
100
AcDbText
  0
TEXT
  5
22
330
EF7C85532
100
AcDbEntity
  8
SUNPOU
100
AcDbText
 10
719.269311810271
 20
21.8983436374353
 30
0.0
 40
0.75
  1
                          
100
AcDbText
  0
INSERT
  5
25
330
EF7C85532
100
AcDbEntity
  8
JISSEN
100
AcDbBlockReference
  2
STDGX5
 10
0.0
 20
0.0
 30
0.0
  0
TEXT
  5
60
330
EF7C85532
100
AcDbEntity
  8
SUNPOU
100
AcDbText
 10
274.0586949361738
 20
43.7966872748706
 30
0.0
 40
1.5
  1
                          
100
AcDbText
  0
TEXT
  5
61
330
EF7C85532
100
AcDbEntity
  8
SUNPOU
100
AcDbText
 10
511.2793459710869
 20
21.8983436374353
 30
0.0
 40
0.75
  1
                          
100
AcDbText
  0
TEXT
  5
62
330
EF7C85532
100
AcDbEntity
  8
SUNPOU
100
AcDbText
 10
474.702507645204
 20
43.79668727487056
 30
0.0
 40
1.5
  1
                          
100
AcDbText
  0
TEXT
  5
63
330
EF7C85532
100
AcDbEntity
  8
SUNPOU
100
AcDbText
 10
711.923158680117
 20
21.89834363743526
 30
0.0
 40
0.75
  1
                          
100
AcDbText
  0
INSERT
  5
64
330
EF7C85532
100
AcDbEntity
  8
HATCH
100
AcDbBlockReference
  2
*X4
 10
178.999999284
 20
0.0
 30
0.0
  0
TEXT
  5
65
330
EF7C85532
100
AcDbEntity
  8
SUNPOU
100
AcDbText
 10
477.0854500730166
 20
43.7966872748706
 30
0.0
 40
1.5
  1
                          
100
AcDbText
  0
TEXT
  5
66
330
EF7C85532
100
AcDbEntity
  8
SUNPOU
100
AcDbText
 10
714.3061011079296
 20
21.8983436374353
 30
0.0
 40
0.75
  1
                          
100
AcDbText
  0
TEXT
  5
67
330
EF7C85532
100
AcDbEntity
  8
SUNPOU
100
AcDbText
 10
466.1239116114783
 20
43.7966872748706
 30
0.0
 40
1.5
  1
                          
100
AcDbText
  0
TEXT
  5
68
330
EF7C85532
100
AcDbEntity
  8
SUNPOU
100
AcDbText
 10
703.3445626463913
 20
21.8983436374353
 30
0.0
 40
0.75
  1
                          
100
AcDbText
  0
INSERT
  5
69
330
EF7C85532
100
AcDbEntity
  8
TEXT
100
AcDbBlockReference
  2
STDGX5
 10
178.999999284
 20
0.0
 30
0.0
  0
TEXT
  5
6A
330
EF7C85532
100
AcDbEntity
  8
SUNPOU
100
AcDbText
 10
453.0586949361739
 20
43.7966872748706
 30
0.0
 40
1.5
  1
                          
100
AcDbText
  0
TEXT
  5
6B
330
EF7C85532
100
AcDbEntity
  8
SUNPOU
100
AcDbText
 10
690.2793459710871
 20
21.8983436374353
 30
0.0
 40
0.75
  1
                          
100
AcDbText
  0
TEXT
  5
6C
330
EF7C85532
100
AcDbEntity
  8
SUNPOU
100
AcDbText
 10
647.9834433840535
 20
43.7966872748706
 30
0.0
 40
1.5
  1
                          
100
AcDbText
  0
TEXT
  5
6D
330
EF7C85532
100
AcDbEntity
  8
SUNPOU
100
AcDbText
 10
885.2040944189665
 20
21.8983436374353
 30
0.0
 40
0.75
  1
                          
100
AcDbText
  0
TEXT
  5
6E
330
EF7C85532
100
AcDbEntity
  8
SUNPOU
100
AcDbText
 10
848.6272560930835
 20
43.79668727487056
 30
0.0
 40
1.5
  1
                          
100
AcDbText
  0
TEXT
  5
6F
330
EF7C85532
100
AcDbEntity
  8
SUNPOU
100
AcDbText
 10
1085.847907127996
 20
21.89834363743526
 30
0.0
 40
0.75
  1
                          
100
AcDbText
  0
INSERT
  5
70
330
EF7C85532
100
AcDbEntity
  8
HATCH
100
AcDbBlockReference
  2
*X5
 10
552.9247477318796
 20
0.0
 30
0.0
  0
TEXT
  5
71
330
EF7C85532
100
AcDbEntity
  8
SUNPOU
100
AcDbText
 10
851.0101985208963
 20
43.7966872748706
 30
0.0
 40
1.5
  1
                          
100
AcDbText
  0
TEXT
  5
72
330
EF7C85532
100
AcDbEntity
  8
SUNPOU
100
AcDbText
 10
1088.230849555809
 20
21.8983436374353
 30
0.0
 40
0.75
  1
                          
100
AcDbText
  0
TEXT
  5
73
330
EF7C85532
100
AcDbEntity
  8
SUNPOU
100
AcDbText
 10
840.048660059358
 20
43.7966872748706
 30
0.0
 40
1.5
  1
                          
100
AcDbText
  0
TEXT
  5
74
330
EF7C85532
100
AcDbEntity
  8
SUNPOU
100
AcDbText
 10
1077.269311094271
 20
21.8983436374353
 30
0.0
 40
0.75
  1
                          
100
AcDbText
  0
INSERT
  5
75
330
EF7C85532
100
AcDbEntity
  8
JISSEN
100
AcDbBlockReference
  2
STDGX5
 10
357.999999284
 20
0.0
 30
0.0
  0
TEXT
  5
76
330
EF7C85532
100
AcDbEntity
  8
SUNPOU
100
AcDbText
 10
453.0586949361739
 20
43.7966872748706
 30
0.0
 40
1.5
  1
                          
100
AcDbText
  0
TEXT
  5
77
330
EF7C85532
100
AcDbEntity
  8
SUNPOU
100
AcDbText
 10
690.2793459710871
 20
21.8983436374353
 30
0.0
 40
0.75
  1
                          
100
AcDbText
  0
TEXT
  5
78
330
EF7C85532
100
AcDbEntity
  8
SUNPOU
100
AcDbText
 10
647.9834433840535
 20
43.7966872748706
 30
0.0
 40
1.5
  1
                          
100
AcDbText
  0
TEXT
  5
79
330
EF7C85532
100
AcDbEntity
  8
SUNPOU
100
AcDbText
 10
885.2040944189665
 20
21.8983436374353
 30
0.0
 40
0.75
  1
                          
100
AcDbText
  0
TEXT
  5
7A
330
EF7C85532
100
AcDbEntity
  8
SUNPOU
100
AcDbText
 10
848.6272560930835
 20
43.79668727487056
 30
0.0
 40
1.5
  1
                          
100
AcDbText
  0
TEXT
  5
7B
330
EF7C85532
100
AcDbEntity
  8
SUNPOU
100
AcDbText
 10
1085.847907127996
 20
21.89834363743526
 30
0.0
 40
0.75
  1
                          
100
AcDbText
  0
INSERT
  5
7C
330
EF7C85532
100
AcDbEntity
  8
HATCH
100
AcDbBlockReference
  2
*X6
 10
552.9247477318796
 20
0.0
 30
0.0
  0
TEXT
  5
7D
330
EF7C85532
100
AcDbEntity
  8
SUNPOU
100
AcDbText
 10
851.0101985208963
 20
43.7966872748706
 30
0.0
 40
1.5
  1
                          
100
AcDbText
  0
TEXT
  5
7E
330
EF7C85532
100
AcDbEntity
  8
SUNPOU
100
AcDbText
 10
1088.230849555809
 20
21.8983436374353
 30
0.0
 40
0.75
  1
                          
100
AcDbText
  0
TEXT
  5
7F
330
EF7C85532
100
AcDbEntity
  8
SUNPOU
100
AcDbText
 10
840.048660059358
 20
43.7966872748706
 30
0.0
 40
1.5
  1
                          
100
AcDbText
  0
TEXT
  5
80
330
EF7C85532
100
AcDbEntity
  8
SUNPOU
100
AcDbText
 10
1077.269311094271
 20
21.8983436374353
 30
0.0
 40
0.75
  1
                          
100
AcDbText
  0
INSERT
  5
81
330
EF7C85532
100
AcDbEntity
  8
JISSEN
100
AcDbBlockReference
  2
STDGX5
 10
357.999999284
 20
0.0
 30
0.0
  0
TEXT
  5
82
330
EF7C85532
100
AcDbEntity
  8
SUNPOU
100
AcDbText
 10
632.0586942201738
 20
43.7966872748706
 30
0.0
 40
1.5
  1
                          
100
AcDbText
  0
TEXT
  5
83
330
EF7C85532
100
AcDbEntity
  8
SUNPOU
100
AcDbText
 10
869.2793452550871
 20
21.8983436374353
 30
0.0
 40
0.75
  1
                          
100
AcDbText
  0
TEXT
  5
84
330
EF7C85532
100
AcDbEntity
  8
SUNPOU
100
AcDbText
 10
826.9834426680533
 20
43.7966872748706
 30
0.0
 40
1.5
  1
                          
100
AcDbText
  0
TEXT
  5
85
330
EF7C85532
100
AcDbEntity
  8
SUNPOU
100
AcDbText
 10
1064.204093702966
 20
21.8983436374353
 30
0.0
 40
0.75
  1
                          
100
AcDbText
  0
TEXT
  5
86
330
EF7C85532
100
AcDbEntity
  8
SUNPOU
100
AcDbText
 10
1027.627255377083
 20
43.79668727487056
 30
0.0
 40
1.5
  1
                          
100
AcDbText
  0
TEXT
  5
87
330
EF7C85532
100
AcDbEntity
  8
SUNPOU
100
AcDbText
 10
1264.847906411996
 20
21.89834363743526
 30
0.0
 40
0.75
  1
                          
100
AcDbText
  0
INSERT
  5
88
330
EF7C85532
100
AcDbEntity
  8
HATCH
100
AcDbBlockReference
  2
*X7
 10
731.9247470158797
 20
0.0
 30
0.0
  0
TEXT
  5
89
330
EF7C85532
100
AcDbEntity
  8
SUNPOU
100
AcDbText
 10
1030.010197804895
 20
43.7966872748706
 30
0.0
 40
1.5
  1
                          
100
AcDbText
  0
TEXT
  5
8A
330
EF7C85532
100
AcDbEntity
  8
SUNPOU
100
AcDbText
 10
1267.230848839808
 20
21.8983436374353
 30
0.0
 40
0.75
  1
                          
100
AcDbText
  0
TEXT
  5
8B
330
EF7C85532
100
AcDbEntity
  8
SUNPOU
100
AcDbText
 10
1019.048659343358
 20
43.7966872748706
 30
0.0
 40
1.5
  1
                          
100
AcDbText
  0
TEXT
  5
8C
330
EF7C85532
100
AcDbEntity
  8
SUNPOU
100
AcDbText
 10
1256.269310378271
 20
21.8983436374353
 30
0.0
 40
0.75
  1
                          
100
AcDbText
  0
INSERT
  5
8D
330
EF7C85532
100
AcDbEntity
  8
JISSEN
100
AcDbBlockReference
  2
STDGX5
 10
536.999998568
 20
0.0
 30
0.0
  0
INSERT
  5
8E
330
EF7C85532
100
AcDbEntity
  8
SUNPOU
100
AcDbBlockReference
  2
STDGX5
 10
739.0804232644236
 20
50.83533235670902
 30
0.0
 41
0.5
 42
0.5
 43
0.5
  0
INSERT
  5
8F
330
EF7C85532
100
AcDbEntity
  8
SUNPOU
100
AcDbBlockReference
  2
STDGX5
 10
726.2208210623692
 20
105.0763138619288
 30
0.0
 41
0.5
 42
0.5
 43
0.5
  0
INSERT
  5
90
330
EF7C85532
100
AcDbEntity
  8
HATCH
100
AcDbBlockReference
  2
STDGX5
 10
852.3985550581901
 20
151.7065097967401
 30
0.0
 41
0.5
 42
0.5
 43
0.5
  0
INSERT
  5
91
330
EF7C85532
100
AcDbEntity
  8
HATCH
100
AcDbBlockReference
  2
STDGX5
 10
866.6806796277283
 20
102.7017487639612
 30
0.0
 41
0.5
 42
0.5
 43
0.5
  0
INSERT
  5
92
330
EF7C85532
100
AcDbEntity
  8
TEXT
100
AcDbBlockReference
  2
STDGX5
 10
970.3434408521969
 20
102.8213468229236
 30
0.0
 41
0.5
 42
0.5
 43
0.5
  0
INSERT
  5
93
330
EF7C85532
100
AcDbEntity
  8
SUNPOU
100
AcDbBlockReference
  2
STDGX5
 10
996.1728907397867
 20
174.5475645486173
 30
0.0
 41
0.5
 42
0.5
 43
0.5
  0
INSERT
  5
94
330
EF7C85532
100
AcDbEntity
  8
TEXT
100
AcDbBlockReference
  2
STDGX5
 10
725.7513886810995
 20
124.5860190441302
 30
0.0
 41
0.5
 42
0.5
 43
0.5
  0
INSERT
  5
95
330
EF7C85532
100
AcDbEntity
  8
HATCH
100
AcDbBlockReference
  2
STDGX5
 10
777.1755722656421
 20
145.5222028932424
 30
0.0
 41
0.5
 42
0.5
 43
0.5
  0
INSERT
  5
96
330
EF7C85532
100
AcDbEntity
  8
SUNPOU
100
AcDbBlockReference
  2
STDGX5
 10
846.1963575359604
 20
112.6957974729892
 30
0.0
 41
0.5
 42
0.5
 43
0.5
  0
INSERT
  5
97
330
EF7C85532
100
AcDbEntity
  8
SUNPOU
100
AcDbBlockReference
  2
STDGX5
 10
916.6681156211122
 20
121.7330617103084
 30
0.0
 41
0.5
 42
0.5
 43
0.5
  0
INSERT
  5
98
330
EF7C85532
100
AcDbEntity
  8
TEXT
100
AcDbBlockReference
  2
STDGX5
 10
983.7969461426766
 20
84.61852224867081
 30
0.0
 41
0.5
 42
0.5
 43
0.5
  0
INSERT
  5
99
330
EF7C85532
100
AcDbEntity
  8
HATCH
100
AcDbBlockReference
  2
STDGX5
 10
974.2802715042101
 20
136.484938655923
 30
0.0
 41
0.5
 42
0.5
 43
0.5
  0
INSERT
  5
9A
330
EF7C85532
100
AcDbEntity
  8
SUNPOU
100
AcDbBlockReference
  2
STDGX5
 10
749.7834008663488
 20
95.14721172234004
 30
0.0
 41
0.5
 42
0.5
 43
0.5
  0
INSERT
  5
9B
330
EF7C85532
100
AcDbEntity
  8
SUNPOU
100
AcDbBlockReference
  2
STDGX5
 10
736.9237986642947
 20
149.3881932275598
 30
0.0
 41
0.5
 42
0.5
 43
0.5
  0
INSERT
  5
9C
330
EF7C85532
100
AcDbEntity
  8
HATCH
100
AcDbBlockReference
  2
STDGX5
 10
863.1015326601156
 20
196.0183891623711
 30
0.0
 41
0.5
 42
0.5
 43
0.5
  0
INSERT
  5
9D
330
EF7C85532
100
AcDbEntity
  8
HATCH
100
AcDbBlockReference
  2
STDGX5
 10
877.3836572296538
 20
147.0136281295922
 30
0.0
 41
0.5
 42
0.5
 43
0.5
  0
INSERT
  5
9E
330
EF7C85532
100
AcDbEntity
  8
TEXT
100
AcDbBlockReference
  2
STDGX5
 10
981.0464184541222
 20
147.1332261885546
 30
0.0
 41
0.5
 42
0.5
 43
0.5
  0
INSERT
  5
9F
330
EF7C85532
100
AcDbEntity
  8
SUNPOU
100
AcDbBlockReference
  2
STDGX5
 10
1006.875868341712
 20
218.8594439142483
 30
0.0
 41
0.5
 42
0.5
 43
0.5
  0
INSERT
  5
A0
330
EF7C85532
100
AcDbEntity
  8
TEXT
100
AcDbBlockReference
  2
STDGX5
 10
736.454366283025
 20
168.8978984097611
 30
0.0
 41
0.5
 42
0.5
 43
0.5
  0
INSERT
  5
A1
330
EF7C85532
100
AcDbEntity
  8
HATCH
100
AcDbBlockReference
  2
STDGX5
 10
787.8785498675677
 20
189.8340822588734
 30
0.0
 41
0.5
 42
0.5
 43
0.5
  0
INSERT
  5
A2
330
EF7C85532
100
AcDbEntity
  8
SUNPOU
100
AcDbBlockReference
  2
STDGX5
 10
856.899335137886
 20
157.0076768386202
 30
0.0
 41
0.5
 42
0.5
 43
0.5
  0
INSERT
  5
A3
330
EF7C85532
100
AcDbEntity
  8
SUNPOU
100
AcDbBlockReference
  2
STDGX5
 10
927.3710932230379
 20
166.0449410759395
 30
0.0
 41
0.5
 42
0.5
 43
0.5
  0
INSERT
  5
A4
330
EF7C85532
100
AcDbEntity
  8
TEXT
100
AcDbBlockReference
  2
STDGX5
 10
994.4999237446024
 20
128.9304016143017
 30
0.0
 41
0.5
 42
0.5
 43
0.5
  0
INSERT
  5
A5
330
EF7C85532
100
AcDbEntity
  8
HATCH
100
AcDbBlockReference
  2
STDGX5
 10
984.9832491061354
 20
180.7968180215541
 30
0.0
 41
0.5
 42
0.5
 43
0.5
  0
TEXT
  5
DE
330
EF7C85532
100
AcDbEntity
  8
SUNPOU
100
AcDbText
 10
274.0586949361738
 20
43.7966872748706
 30
0.0
 40
1.5
  1
                          
100
AcDbText
  0
TEXT
  5
145
330
EF7C85532
100
AcDbEntity
  8
SUNPOU
100
AcDbText
 10
511.2793459710869
 20
21.8983436374353
 30
0.0
 40
0.75
  1
                          
100
AcDbText
  0
TEXT
  5
265
330
EF7C85532
100
AcDbEntity
  8
SUNPOU
100
AcDbText
 10
474.702507645204
 20
43.79668727487056
 30
0.0
 40
1.5
  1
                          
100
AcDbText
  0
TEXT
  5
266
330
EF7C85532
100
AcDbEntity
  8
SUNPOU
100
AcDbText
 10
711.923158680117
 20
21.89834363743526
 30
0.0
 40
0.75
  1
                          
100
AcDbText
  0
INSERT
  5
2F7
330
EF7C85532
100
AcDbEntity
  8
HATCH
100
AcDbBlockReference
  2
*X4
 10
178.999999284
 20
0.0
 30
0.0
  0
TEXT
  5
31A
330
EF7C85532
100
AcDbEntity
  8
SUNPOU
100
AcDbText
 10
477.0854500730166
 20
43.7966872748706
 30
0.0
 40
1.5
  1
                          
100
AcDbText
  0
TEXT
  5
31C
330
EF7C85532
100
AcDbEntity
  8
SUNPOU
100
AcDbText
 10
714.3061011079296
 20
21.8983436374353
 30
0.0
 40
0.75
  1
                          
100
AcDbText
  0
TEXT
  5
3A6
330
EF7C85532
100
AcDbEntity
  8
TEXT
100
AcDbText
 10
100.9999992839998
 20
244.9999999999999
 30
0.0
 40
3.0
  1
 
  7
K
100
AcDbText
  0
TEXT
  5
3AB
330
EF7C85532
100
AcDbEntity
  8
SUNPOU
100
AcDbText
 10
466.1239116114783
 20
43.7966872748706
 30
0.0
 40
1.5
  1
                          
100
AcDbText
  0
TEXT
  5
3AC
330
EF7C85532
100
AcDbEntity
  8
SUNPOU
100
AcDbText
 10
703.3445626463913
 20
21.8983436374353
 30
0.0
 40
0.75
  1
                          
100
AcDbText
  0
INSERT
  5
3F6
330
EF7C85532
100
AcDbEntity
  8
TEXT
100
AcDbBlockReference
  2
STDGX5
 10
178.999999284
 20
0.0
 30
0.0
  0
TEXT
  5
3F7
330
EF7C85532
100
AcDbEntity
  8
SUNPOU
100
AcDbText
 10
453.0586949361739
 20
43.7966872748706
 30
0.0
 40
1.5
  1
                          
100
AcDbText
  0
TEXT
  5
3F8
330
EF7C85532
100
AcDbEntity
  8
SUNPOU
100
AcDbText
 10
690.2793459710871
 20
21.8983436374353
 30
0.0
 40
0.75
  1
                          
100
AcDbText
  0
TEXT
  5
3F9
330
EF7C85532
100
AcDbEntity
  8
SUNPOU
100
AcDbText
 10
647.9834433840535
 20
43.7966872748706
 30
0.0
 40
1.5
  1
                          
100
AcDbText
  0
TEXT
  5
3FA
330
EF7C85532
100
AcDbEntity
  8
SUNPOU
100
AcDbText
 10
885.2040944189665
 20
21.8983436374353
 30
0.0
 40
0.75
  1
                          
100
AcDbText
  0
TEXT
  5
3FB
330
EF7C85532
100
AcDbEntity
  8
SUNPOU
100
AcDbText
 10
848.6272560930835
 20
43.79668727487056
 30
0.0
 40
1.5
  1
                          
100
AcDbText
  0
TEXT
  5
3FC
330
EF7C85532
100
AcDbEntity
  8
SUNPOU
100
AcDbText
 10
1085.847907127996
 20
21.89834363743526
 30
0.0
 40
0.75
  1
                          
100
AcDbText
  0
INSERT
  5
3FD
330
EF7C85532
100
AcDbEntity
  8
HATCH
100
AcDbBlockReference
  2
*X5
 10
552.9247477318796
 20
0.0
 30
0.0
  0
TEXT
  5
3FE
330
EF7C85532
100
AcDbEntity
  8
SUNPOU
100
AcDbText
 10
851.0101985208963
 20
43.7966872748706
 30
0.0
 40
1.5
  1
                          
100
AcDbText
  0
TEXT
  5
3FF
330
EF7C85532
100
AcDbEntity
  8
SUNPOU
100
AcDbText
 10
1088.230849555809
 20
21.8983436374353
 30
0.0
 40
0.75
  1
                          
100
AcDbText
  0
TEXT
  5
400
330
EF7C85532
100
AcDbEntity
  8
SUNPOU
100
AcDbText
 10
840.048660059358
 20
43.7966872748706
 30
0.0
 40
1.5
  1
                          
100
AcDbText
  0
TEXT
  5
401
330
EF7C85532
100
AcDbEntity
  8
SUNPOU
100
AcDbText
 10
1077.269311094271
 20
21.8983436374353
 30
0.0
 40
0.75
  1
                          
100
AcDbText
  0
INSERT
  5
402
330
EF7C85532
100
AcDbEntity
  8
JISSEN
100
AcDbBlockReference
  2
STDGX5
 10
357.999999284
 20
0.0
 30
0.0
  0
TEXT
  5
409
330
EF7C85532
100
AcDbEntity
  8
SUNPOU
100
AcDbText
 10
453.0586949361739
 20
43.7966872748706
 30
0.0
 40
1.5
  1
                          
100
AcDbText
  0
TEXT
  5
40A
330
EF7C85532
100
AcDbEntity
  8
SUNPOU
100
AcDbText
 10
690.2793459710871
 20
21.8983436374353
 30
0.0
 40
0.75
  1
                          
100
AcDbText
  0
TEXT
  5
41B
330
EF7C85532
100
AcDbEntity
  8
SUNPOU
100
AcDbText
 10
647.9834433840535
 20
43.7966872748706
 30
0.0
 40
1.5
  1
                          
100
AcDbText
  0
TEXT
  5
41C
330
EF7C85532
100
AcDbEntity
  8
SUNPOU
100
AcDbText
 10
885.2040944189665
 20
21.8983436374353
 30
0.0
 40
0.75
  1
                          
100
AcDbText
  0
TEXT
  5
41D
330
EF7C85532
100
AcDbEntity
  8
SUNPOU
100
AcDbText
 10
848.6272560930835
 20
43.79668727487056
 30
0.0
 40
1.5
  1
                          
100
AcDbText
  0
TEXT
  5
41E
330
EF7C85532
100
AcDbEntity
  8
SUNPOU
100
AcDbText
 10
1085.847907127996
 20
21.89834363743526
 30
0.0
 40
0.75
  1
                          
100
AcDbText
  0
INSERT
  5
41F
330
EF7C85532
100
AcDbEntity
  8
HATCH
100
AcDbBlockReference
  2
*X6
 10
552.9247477318796
 20
0.0
 30
0.0
  0
TEXT
  5
420
330
EF7C85532
100
AcDbEntity
  8
SUNPOU
100
AcDbText
 10
851.0101985208963
 20
43.7966872748706
 30
0.0
 40
1.5
  1
                          
100
AcDbText
  0
TEXT
  5
421
330
EF7C85532
100
AcDbEntity
  8
SUNPOU
100
AcDbText
 10
1088.230849555809
 20
21.8983436374353
 30
0.0
 40
0.75
  1
                          
100
AcDbText
  0
TEXT
  5
422
330
EF7C85532
100
AcDbEntity
  8
SUNPOU
100
AcDbText
 10
840.048660059358
 20
43.7966872748706
 30
0.0
 40
1.5
  1
                          
100
AcDbText
  0
TEXT
  5
423
330
EF7C85532
100
AcDbEntity
  8
SUNPOU
100
AcDbText
 10
1077.269311094271
 20
21.8983436374353
 30
0.0
 40
0.75
  1
                          
100
AcDbText
  0
INSERT
  5
424
330
EF7C85532
100
AcDbEntity
  8
JISSEN
100
AcDbBlockReference
  2
STDGX5
 10
357.999999284
 20
0.0
 30
0.0
  0
TEXT
  5
425
330
EF7C85532
100
AcDbEntity
  8
SUNPOU
100
AcDbText
 10
632.0586942201738
 20
43.7966872748706
 30
0.0
 40
1.5
  1
                          
100
AcDbText
  0
TEXT
  5
426
330
EF7C85532
100
AcDbEntity
  8
SUNPOU
100
AcDbText
 10
869.2793452550871
 20
21.8983436374353
 30
0.0
 40
0.75
  1
                          
100
AcDbText
  0
TEXT
  5
427
330
EF7C85532
100
AcDbEntity
  8
SUNPOU
100
AcDbText
 10
826.9834426680533
 20
43.7966872748706
 30
0.0
 40
1.5
  1
                          
100
AcDbText
  0
TEXT
  5
428
330
EF7C85532
100
AcDbEntity
  8
SUNPOU
100
AcDbText
 10
1064.204093702966
 20
21.8983436374353
 30
0.0
 40
0.75
  1
                          
100
AcDbText
  0
TEXT
  5
429
330
EF7C85532
100
AcDbEntity
  8
SUNPOU
100
AcDbText
 10
1027.627255377083
 20
43.79668727487056
 30
0.0
 40
1.5
  1
                          
100
AcDbText
  0
TEXT
  5
42A
330
EF7C85532
100
AcDbEntity
  8
SUNPOU
100
AcDbText
 10
1264.847906411996
 20
21.89834363743526
 30
0.0
 40
0.75
  1
                          
100
AcDbText
  0
INSERT
  5
42B
330
EF7C85532
100
AcDbEntity
  8
HATCH
100
AcDbBlockReference
  2
*X7
 10
731.9247470158797
 20
0.0
 30
0.0
  0
TEXT
  5
42C
330
EF7C85532
100
AcDbEntity
  8
SUNPOU
100
AcDbText
 10
1030.010197804895
 20
43.7966872748706
 30
0.0
 40
1.5
  1
                          
100
AcDbText
  0
TEXT
  5
42D
330
EF7C85532
100
AcDbEntity
  8
SUNPOU
100
AcDbText
 10
1267.230848839808
 20
21.8983436374353
 30
0.0
 40
0.75
  1
                          
100
AcDbText
  0
TEXT
  5
42E
330
EF7C85532
100
AcDbEntity
  8
SUNPOU
100
AcDbText
 10
1019.048659343358
 20
43.7966872748706
 30
0.0
 40
1.5
  1
                          
100
AcDbText
  0
TEXT
  5
42F
330
EF7C85532
100
AcDbEntity
  8
SUNPOU
100
AcDbText
 10
1256.269310378271
 20
21.8983436374353
 30
0.0
 40
0.75
  1
                          
100
AcDbText
  0
INSERT
  5
430
330
EF7C85532
100
AcDbEntity
  8
JISSEN
100
AcDbBlockReference
  2
STDGX5
 10
536.999998568
 20
0.0
 30
0.0
  0
INSERT
  5
43B
330
EF7C85532
100
AcDbEntity
  8
SUNPOU
100
AcDbBlockReference
  2
STDGX5
 10
739.0804232644236
 20
50.83533235670902
 30
0.0
 41
0.5
 42
0.5
 43
0.5
  0
INSERT
  5
43C
330
EF7C85532
100
AcDbEntity
  8
SUNPOU
100
AcDbBlockReference
  2
STDGX5
 10
726.2208210623692
 20
105.0763138619288
 30
0.0
 41
0.5
 42
0.5
 43
0.5
  0
INSERT
  5
43D
330
EF7C85532
100
AcDbEntity
  8
HATCH
100
AcDbBlockReference
  2
STDGX5
 10
852.3985550581901
 20
151.7065097967401
 30
0.0
 41
0.5
 42
0.5
 43
0.5
  0
INSERT
  5
43E
330
EF7C85532
100
AcDbEntity
  8
HATCH
100
AcDbBlockReference
  2
STDGX5
 10
866.6806796277283
 20
102.7017487639612
 30
0.0
 41
0.5
 42
0.5
 43
0.5
  0
INSERT
  5
43F
330
EF7C85532
100
AcDbEntity
  8
TEXT
100
AcDbBlockReference
  2
STDGX5
 10
970.3434408521969
 20
102.8213468229236
 30
0.0
 41
0.5
 42
0.5
 43
0.5
  0
INSERT
  5
440
330
EF7C85532
100
AcDbEntity
  8
SUNPOU
100
AcDbBlockReference
  2
STDGX5
 10
996.1728907397867
 20
174.5475645486173
 30
0.0
 41
0.5
 42
0.5
 43
0.5
  0
INSERT
  5
441
330
EF7C85532
100
AcDbEntity
  8
TEXT
100
AcDbBlockReference
  2
STDGX5
 10
725.7513886810995
 20
124.5860190441302
 30
0.0
 41
0.5
 42
0.5
 43
0.5
  0
INSERT
  5
442
330
EF7C85532
100
AcDbEntity
  8
HATCH
100
AcDbBlockReference
  2
STDGX5
 10
777.1755722656421
 20
145.5222028932424
 30
0.0
 41
0.5
 42
0.5
 43
0.5
  0
INSERT
  5
443
330
EF7C85532
100
AcDbEntity
  8
SUNPOU
100
AcDbBlockReference
  2
STDGX5
 10
846.1963575359604
 20
112.6957974729892
 30
0.0
 41
0.5
 42
0.5
 43
0.5
  0
INSERT
  5
444
330
EF7C85532
100
AcDbEntity
  8
SUNPOU
100
AcDbBlockReference
  2
STDGX5
 10
916.6681156211122
 20
121.7330617103084
 30
0.0
 41
0.5
 42
0.5
 43
0.5
  0
INSERT
  5
445
330
EF7C85532
100
AcDbEntity
  8
TEXT
100
AcDbBlockReference
  2
STDGX5
 10
983.7969461426766
 20
84.61852224867081
 30
0.0
 41
0.5
 42
0.5
 43
0.5
  0
INSERT
  5
446
330
EF7C85532
100
AcDbEntity
  8
HATCH
100
AcDbBlockReference
  2
STDGX5
 10
974.2802715042101
 20
136.484938655923
 30
0.0
 41
0.5
 42
0.5
 43
0.5
  0
INSERT
  5
447
330
EF7C85532
100
AcDbEntity
  8
SUNPOU
100
AcDbBlockReference
  2
STDGX5
 10
749.7834008663488
 20
95.14721172234004
 30
0.0
 41
0.5
 42
0.5
 43
0.5
  0
INSERT
  5
448
330
EF7C85532
100
AcDbEntity
  8
SUNPOU
100
AcDbBlockReference
  2
STDGX5
 10
736.9237986642947
 20
149.3881932275598
 30
0.0
 41
0.5
 42
0.5
 43
0.5
  0
INSERT
  5
449
330
EF7C85532
100
AcDbEntity
  8
HATCH
100
AcDbBlockReference
  2
STDGX5
 10
863.1015326601156
 20
196.0183891623711
 30
0.0
 41
0.5
 42
0.5
 43
0.5
  0
INSERT
  5
44A
330
EF7C85532
100
AcDbEntity
  8
HATCH
100
AcDbBlockReference
  2
STDGX5
 10
877.3836572296538
 20
147.0136281295922
 30
0.0
 41
0.5
 42
0.5
 43
0.5
  0
INSERT
  5
44B
330
EF7C85532
100
AcDbEntity
  8
TEXT
100
AcDbBlockReference
  2
STDGX5
 10
981.0464184541222
 20
147.1332261885546
 30
0.0
 41
0.5
 42
0.5
 43
0.5
  0
INSERT
  5
44C
330
EF7C85532
100
AcDbEntity
  8
SUNPOU
100
AcDbBlockReference
  2
STDGX5
 10
1006.875868341712
 20
218.8594439142483
 30
0.0
 41
0.5
 42
0.5
 43
0.5
  0
INSERT
  5
44D
330
EF7C85532
100
AcDbEntity
  8
TEXT
100
AcDbBlockReference
  2
STDGX5
 10
736.454366283025
 20
168.8978984097611
 30
0.0
 41
0.5
 42
0.5
 43
0.5
  0
INSERT
  5
44E
330
EF7C85532
100
AcDbEntity
  8
HATCH
100
AcDbBlockReference
  2
STDGX5
 10
787.8785498675677
 20
189.8340822588734
 30
0.0
 41
0.5
 42
0.5
 43
0.5
  0
INSERT
  5
44F
330
EF7C85532
100
AcDbEntity
  8
SUNPOU
100
AcDbBlockReference
  2
STDGX5
 10
856.899335137886
 20
157.0076768386202
 30
0.0
 41
0.5
 42
0.5
 43
0.5
  0
INSERT
  5
450
330
EF7C85532
100
AcDbEntity
  8
SUNPOU
100
AcDbBlockReference
  2
STDGX5
 10
927.3710932230379
 20
166.0449410759395
 30
0.0
 41
0.5
 42
0.5
 43
0.5
  0
INSERT
  5
451
330
EF7C85532
100
AcDbEntity
  8
TEXT
100
AcDbBlockReference
  2
STDGX5
 10
994.4999237446024
 20
128.9304016143017
 30
0.0
 41
0.5
 42
0.5
 43
0.5
  0
INSERT
  5
452
330
EF7C85532
100
AcDbEntity
  8
HATCH
100
AcDbBlockReference
  2
STDGX5
 10
984.9832491061354
 20
180.7968180215541
 30
0.0
 41
0.5
 42
0.5
 43
0.5
  0
INSERT
  5
4CF3
330
EF7C85532
100
AcDbEntity
  8
JISSEN
100
AcDbBlockReference
  2
STDR12J
 10
0.0
 20
0.0
 30
0.0
  0
LINE
  5
EAFFB3C99
330
EF7C85532
100
AcDbEntity
  8
JISSEN
100
AcDbLine
 10
91.49999927599994
 20
276.9999999999999
 30
0.0
 11
180.9999992759999
 21
276.9999999999999
 31
0.0
  0
LINE
  5
EAFFB3C9A
330
EF7C85532
100
AcDbEntity
  8
JISSEN
100
AcDbLine
 10
91.49999927599994
 20
270.9999999999999
 30
0.0
 11
180.9999992759999
 21
270.9999999999999
 31
0.0
  0
TEXT
  5
EAFFB3C9B
330
EF7C85532
100
AcDbEntity
  8
TEXT
100
AcDbText
 10
107.8999992759999
 20
278.4999999999999
 30
0.0
 40
3.0
  1
名      称
  7
K
 72
     4
 11
116.4999992759999
 21
279.9999999999999
 31
0.0
100
AcDbText
  0
TEXT
  5
EAFFB3C9C
330
EF7C85532
100
AcDbEntity
  8
TEXT
100
AcDbText
 10
93.29999927599999
 20
278.4999999999999
 30
0.0
 40
3.0
  1
番号
  7
K
 72
     4
 11
96.49999927599999
 21
279.9999999999999
 31
0.0
100
AcDbText
  0
LINE
  5
EAFFB3C9D
330
EF7C85532
100
AcDbEntity
  8
JISSEN
100
AcDbLine
 10
91.49999927599994
 20
264.9999999999999
 30
0.0
 11
91.49999927599994
 21
282.9999999999998
 31
0.0
  0
LINE
  5
EAFFB3C9E
330
EF7C85532
100
AcDbEntity
  8
JISSEN
100
AcDbLine
 10
101.4999992759999
 20
282.9999999999998
 30
0.0
 11
101.4999992759999
 21
264.9999999999999
 31
0.0
  0
TEXT
  5
EAFFB3C9F
330
EF7C85532
100
AcDbEntity
  8
TEXT
100
AcDbText
 10
135.1999992759998
 20
278.4999999999999
 30
0.0
 40
3.0
  1
材    質
  7
K
 72
     4
 11
141.9999992759999
 21
279.9999999999999
 31
0.0
100
AcDbText
  0
LINE
  5
EAFFB3CA0
330
EF7C85532
100
AcDbEntity
  8
JISSEN
100
AcDbLine
 10
131.4999992759998
 20
282.9999999999998
 30
0.0
 11
131.4999992759998
 21
264.9999999999999
 31
0.0
  0
LINE
  5
EAFFB3CA1
330
EF7C85532
100
AcDbEntity
  8
JISSEN
100
AcDbLine
 10
152.4999992759999
 20
264.9999999999999
 30
0.0
 11
152.4999992759999
 21
282.9999999999998
 31
0.0
  0
TEXT
  5
EAFFB3CA2
330
EF7C85532
100
AcDbEntity
  8
TEXT
100
AcDbText
 10
165.6999992759998
 20
278.4999999999999
 30
0.0
 40
3.0
  1
備    考
  7
K
 72
     4
 11
172.4999992759999
 21
279.9999999999999
 31
0.0
100
AcDbText
  0
TEXT
  5
EAFFB3CA3
330
EF7C85532
100
AcDbEntity
  8
TEXT
100
AcDbText
 10
154.7999992759999
 20
278.4999999999999
 30
0.0
 40
3.0
  1
個数
  7
K
 72
     4
 11
157.9999992759999
 21
279.9999999999999
 31
0.0
100
AcDbText
  0
LINE
  5
EAFFB3CA4
330
EF7C85532
100
AcDbEntity
  8
JISSEN
100
AcDbLine
 10
163.4999992759999
 20
282.9999999999998
 30
0.0
 11
163.4999992759999
 21
264.9999999999999
 31
0.0
  0
LINE
  5
EAFFB3CA6
330
EF7C85532
100
AcDbEntity
  8
JISSEN
100
AcDbLine
 10
91.49999927599994
 20
264.9999999999999
 30
0.0
 11
180.9999992759999
 21
264.9999999999999
 31
0.0
  0
TEXT
  5
EAFFB3CAC
330
EF7C85532
100
AcDbEntity
  8
TEXT
100
AcDbText
 10
95.28571356171429
 20
272.4999999999999
 30
0.0
 40
3.0
  1
1
  7
K
 72
     4
 11
96.49999927599999
 21
273.9999999999999
 31
0.0
100
AcDbText
  0
TEXT
  5
EAFFB3CB0
330
EF7C85532
100
AcDbEntity
  8
TEXT
100
AcDbText
 10
95.38307168153433
 20
266.4999999999999
 30
0.0
 40
3.0
  1
2
  7
K
 72
     4
 11
96.81164311010576
 21
267.9999999999999
 31
0.0
100
AcDbText
  0
TEXT
  5
EAFFB3CC2
330
EF7C85532
100
AcDbEntity
  8
TEXT
100
AcDbText
 10
136.8249992759998
 20
274.2999999999999
 30
0.0
 40
3.0
  1
%%u      
  7
K
 72
     4
 11
141.9999992759999
 21
273.9999999999999
 31
0.0
100
AcDbText
  0
TEXT
  5
EAFFB3CC3
330
EF7C85532
100
AcDbEntity
  8
TEXT
100
AcDbText
 10
135.2142849902856
 20
266.4999999999999
 30
0.0
 40
3.0
  1
C2801
  7
K
 72
     4
 11
141.9999992759999
 21
267.9999999999999
 31
0.0
100
AcDbText
  0
INSERT
  5
EAFFB3CF7
330
EF7C85532
100
AcDbEntity
  8
WAKU
100
AcDbBlockReference
  2
WAKU
 10
0.0
 20
0.0
 30
0.0
 41
181.0
 42
283.0
 43
181.0
  0
TEXT
  5
EF7C85BB1
330
EF7C85532
100
AcDbEntity
  8
TEXT
100
AcDbText
 10
156.6795477624092
 20
272.4999999999999
 30
0.0
 40
3.0
  1
1
  7
K
 72
     4
 11
157.8938334766949
 21
273.9999999999999
 31
0.0
100
AcDbText
  0
TEXT
  5
EF7C85BB2
330
EF7C85532
100
AcDbEntity
  8
TEXT
100
AcDbText
 10
156.6795477624092
 20
266.580835176341
 30
0.0
 40
3.0
  1
1
  7
K
 72
     4
 11
157.8938334766949
 21
268.0808351763409
 31
0.0
100
AcDbText
  0
TEXT
  5
EF7C85D66
330
EF7C85532
100
AcDbEntity
  8
SUNPOU
100
AcDbText
 10
142.5208741196623
 20
2.849423898685245
 30
0.0
 40
3.0
  1
尺度　1/1
  7
K
100
AcDbText
  0
LINE
  5
EF7C85D70
330
EF7C85532
100
AcDbEntity
  8
SUNPOU
100
AcDbLine
 10
102.8500834380158
 20
118.5785941605558
 30
0.0
 11
124.6814474624251
 21
81.35329596242582
 31
0.0
  0
CIRCLE
  5
EF7C85D71
330
EF7C85532
100
AcDbEntity
  8
SUNPOU
100
AcDbCircle
 10
127.7167616553739
 20
76.17769283331288
 30
0.0
 40
6.0
  0
TEXT
  5
EF7C85D72
330
EF7C85532
100
AcDbEntity
  8
SUNPOU
100
AcDbText
 10
125.5739045125167
 20
73.92769283331287
 30
0.0
 40
4.5
  1
2
  7
K
 72
     4
 11
127.7167616553739
 21
76.17769283331288
 31
0.0
100
AcDbText
  0
INSERT
  5
EF7C85D73
330
EF7C85532
100
AcDbEntity
  8
SUNPOU
100
AcDbBlockReference
  2
ARROW
 10
102.8500834380158
 20
118.5785941605558
 30
0.0
 41
1.5
 42
1.5
 43
1.5
 50
120.390164689852
  0
TEXT
  5
EF7C85FFA
330
EF7C85532
100
AcDbEntity
  8
TEXT
100
AcDbText
 10
107.0857135617142
 20
266.4999999999999
 30
0.0
 40
3.0
  1
スリーブ X
  7
K
 72
     4
 11
116.4999992759999
 21
267.9999999999999
 31
0.0
100
AcDbText
  0
LINE
  5
EF7C86573
330
EF7C85532
100
AcDbEntity
  8
SUNPOU
100
AcDbLine
 10
79.00008343628627
 20
114.403594165834
 30
0.0
 11
65.184561020041
 21
83.7863973769763
 31
0.0
  0
CIRCLE
  5
EF7C86574
330
EF7C85532
100
AcDbEntity
  8
SUNPOU
100
AcDbCircle
 10
62.71676165537531
 20
78.31739689281507
 30
0.0
 40
6.0
  0
TEXT
  5
EF7C86575
330
EF7C85532
100
AcDbEntity
  8
SUNPOU
100
AcDbText
 10
60.89533308394674
 20
76.06739689281507
 30
0.0
 40
4.5
  1
1
  7
K
 72
     4
 11
62.71676165537531
 21
78.31739689281507
 31
0.0
100
AcDbText
  0
INSERT
  5
EF7C8658A
330
EF7C85532
100
AcDbEntity
  8
SUNPOU
100
AcDbBlockReference
  2
ARROW
 10
79.00008343628627
 20
114.4035941658337
 30
0.0
 41
1.499999999999989
 42
1.5
 43
1.5
 50
65.71348169146296
  0
LWPOLYLINE
  5
EF7C8670D
330
EF7C85532
100
AcDbEntity
  8
NITEN
100
AcDbPolyline
 90
        5
 70
     0
 43
0.0
 10
107.0
 20
209.4176454850768
 10
107.0
 20
230.2553631362227
 42
-0.5882352941176476
 10
90.0
 20
230.2553631362227
 42
0.5882352941176477
 10
73.0
 20
230.2553631362224
 10
73.0
 20
209.4176454850768
  0
LWPOLYLINE
  5
EF7C8670E
330
EF7C85532
100
AcDbEntity
  8
NITEN
100
AcDbPolyline
 90
       15
 70
     1
 43
0.0
 10
76.0
 20
168.9176454850768
 42
0.4142135623730927
 10
77.4999999999999
 20
167.4176454850768
 10
100.5940511709964
 20
167.4176454850768
 10
102.4999999999999
 20
167.4176454850768
 42
0.4142135623730925
 10
104.0
 20
168.9176454850768
 10
104.0
 20
179.9636615112948
 42
-0.4142135623730943
 10
108.9999999999997
 20
184.9636615112948
 42
0.4142135623730951
 10
111.0
 20
186.9636615112948
 10
110.9999999999997
 20
207.4176454850768
 42
0.4142135623730949
 10
109.0
 20
209.4176454850768
 10
71.0
 20
209.4176454850768
 42
0.4142135623730951
 10
69.0
 20
207.4176454850768
 10
69.0
 20
186.9636615112948
 42
0.4142135623730951
 10
71.0
 20
184.9636615112948
 42
-0.4142135623730961
 10
76.0
 20
179.9636615112948
  0
LINE
  5
EF7C8670F
330
EF7C85532
100
AcDbEntity
  8
JISSEN
100
AcDbLine
 10
81.00008343801688
 20
179.3070965793531
 30
0.0
 11
90.00008343801608
 21
179.3070965793531
 31
0.0
  0
LINE
  5
EF7C86710
330
EF7C85532
100
AcDbEntity
  8
JISSEN
100
AcDbLine
 10
79.73815907440587
 20
178.0451722157419
 30
0.0
 11
90.00008343801608
 21
178.0451722157419
 31
0.0
  0
LINE
  5
EF7C86711
330
EF7C85532
100
AcDbEntity
  8
JISSEN
100
AcDbLine
 10
90.00008343801608
 20
164.9994737656565
 30
0.0
 11
79.33046062431971
 21
164.9994737656565
 31
0.0
  0
LINE
  5
EF7C86712
330
EF7C85532
100
AcDbEntity
  8
JISSEN
100
AcDbLine
 10
77.65008343801607
 20
159.8070965793539
 30
0.0
 11
90.00008343801598
 21
159.8070965793539
 31
0.0
  0
LINE
  5
EF7C86713
330
EF7C85532
100
AcDbEntity
  8
JISSEN
100
AcDbLine
 10
76.14367697746503
 20
159.8070965793537
 30
0.0
 11
90.00008343801598
 21
159.8070965793539
 31
0.0
  0
LINE
  5
EF7C86714
330
EF7C85532
100
AcDbEntity
  8
JISSEN
100
AcDbLine
 10
76.14367697746503
 20
162.8070965793438
 30
0.0
 11
90.00008343801598
 21
162.8070965793488
 31
0.0
  0
LWPOLYLINE
  5
EF7C86721
330
EF7C85532
100
AcDbEntity
  8
SAISEN
100
AcDbPolyline
 90
       11
 70
     0
 43
0.0
 10
11.82487420466259
 20
124.0785941605557
 10
12.00293510125252
 20
123.7856339354783
 10
12.49039256459558
 20
123.3280584764697
 10
13.06679834043065
 20
122.9485919981506
 10
13.68560144379397
 20
122.6038488272916
 10
14.30025088972191
 20
122.2504432906641
 10
14.86419569325073
 20
121.8449897150385
 10
15.3308848694168
 20
121.3441024271858
 10
15.65376743325639
 20
120.7043957538767
 10
15.81972474378439
 20
119.9017512591074
 10
15.93665731641736
 20
119.0785941605559
  0
LINE
  5
EF7C86735
330
EF7C85532
100
AcDbEntity
  8
JISSEN
100
AcDbLine
 10
77.50008343801582
 20
124.0785941605557
 30
0.0
 11
77.50008343801582
 21
119.2215227391284
 31
0.0
  0
LINE
  5
EF7C8673D
330
EF7C85532
100
AcDbEntity
  8
JISSEN
100
AcDbLine
 10
76.14367697746503
 20
162.8070965793537
 30
0.0
 11
76.14367697746503
 21
159.8070965793537
 31
0.0
  0
LINE
  5
EF7C8673E
330
EF7C85532
100
AcDbEntity
  8
JISSEN
100
AcDbLine
 10
83.07188020774049
 20
159.8070965793538
 30
0.0
 11
83.07188020774049
 21
162.8070965793513
 31
0.0
  0
LINE
  5
EF7C86740
330
EF7C85532
100
AcDbEntity
  8
SAISEN
100
AcDbLine
 10
80.49246062431974
 20
164.9994737656565
 30
0.0
 11
80.93764487904264
 21
179.2446580203788
 31
0.0
  0
LINE
  5
EF7C86741
330
EF7C85532
100
AcDbEntity
  8
JISSEN
100
AcDbLine
 10
79.73815907440587
 20
178.0451722157419
 30
0.0
 11
79.29297481968287
 21
163.7999879610198
 31
0.0
  0
LINE
  5
EF7C86742
330
EF7C85532
100
AcDbEntity
  8
JISSEN
100
AcDbLine
 10
80.49246062431963
 20
164.9994737656565
 30
0.0
 11
78.30008343801605
 21
162.807096579353
 31
0.0
  0
LINE
  5
EF7C86743
330
EF7C85532
100
AcDbEntity
  8
JISSEN
100
AcDbLine
 10
79.73815907440587
 20
178.0451722157419
 30
0.0
 11
81.00008343801688
 21
179.3070965793531
 31
0.0
  0
LINE
  5
EF7C867B3
330
EF7C85532
100
AcDbEntity
  8
JISSEN
100
AcDbLine
 10
90.00008343801598
 20
158.3070965793538
 30
0.0
 11
100.2500834380164
 21
158.3070965793538
 31
0.0
  0
LINE
  5
EF7C867B4
330
EF7C85532
100
AcDbEntity
  8
JISSEN
100
AcDbLine
 10
90.00008343801598
 20
157.7070965793538
 30
0.0
 11
101.7000834380159
 21
157.7070965793538
 31
0.0
  0
LINE
  5
EF7C867B5
330
EF7C85532
100
AcDbEntity
  8
JISSEN
100
AcDbLine
 10
100.2620078016261
 20
178.0451722157419
 30
0.0
 11
90.00008343801598
 21
178.0451722157419
 31
0.0
  0
LINE
  5
EF7C867B6
330
EF7C85532
100
AcDbEntity
  8
JISSEN
100
AcDbLine
 10
100.2620078016261
 20
178.0451722157419
 30
0.0
 11
99.0000834380152
 21
179.3070965793531
 31
0.0
  0
LINE
  5
EF7C867B7
330
EF7C85532
100
AcDbEntity
  8
JISSEN
100
AcDbLine
 10
90.00008343801598
 20
164.9994737656565
 30
0.0
 11
100.6697062517122
 21
164.9994737656565
 31
0.0
  0
LINE
  5
EF7C867B8
330
EF7C85532
100
AcDbEntity
  8
JISSEN
100
AcDbLine
 10
90.00008343801598
 20
162.8070965793488
 30
0.0
 11
103.856489898567
 21
162.8070965793537
 31
0.0
  0
LINE
  5
EF7C867B9
330
EF7C85532
100
AcDbEntity
  8
JISSEN
100
AcDbLine
 10
103.856489898567
 20
159.8070965793537
 30
0.0
 11
90.00008343801598
 21
159.8070965793539
 31
0.0
  0
LINE
  5
EF7C867BA
330
EF7C85532
100
AcDbEntity
  8
JISSEN
100
AcDbLine
 10
96.92828666829157
 20
159.8070965793538
 30
0.0
 11
96.92828666829157
 21
162.8070965793513
 31
0.0
  0
LINE
  5
EF7C867BB
330
EF7C85532
100
AcDbEntity
  8
JISSEN
100
AcDbLine
 10
99.0000834380152
 20
179.3070965793531
 30
0.0
 11
90.00008343801598
 21
179.3070965793531
 31
0.0
  0
LINE
  5
EF7C867BC
330
EF7C85532
100
AcDbEntity
  8
JISSEN
100
AcDbLine
 10
103.856489898567
 20
162.8070965793537
 30
0.0
 11
103.856489898567
 21
159.8070965793537
 31
0.0
  0
ARC
  5
EF7C867BF
330
EF7C85532
100
AcDbEntity
  8
JISSEN
100
AcDbCircle
 10
101.1000834380159
 20
158.8070965793539
 30
0.0
 40
1.0
100
AcDbArc
 50
90.0
 51
180.0
  0
LINE
  5
EF7C867C0
330
EF7C85532
100
AcDbEntity
  8
JISSEN
100
AcDbLine
 10
100.1000834380164
 20
158.3070965793538
 30
0.0
 11
100.1000834380159
 21
158.8070965793539
 31
0.0
  0
LINE
  5
EF7C867C1
330
EF7C85532
100
AcDbEntity
  8
JISSEN
100
AcDbLine
 10
100.7500834380164
 20
157.8070965793538
 30
0.0
 11
100.7500834380164
 21
157.7070965793538
 31
0.0
  0
LINE
  5
EF7C867C2
330
EF7C85532
100
AcDbEntity
  8
SAISEN
100
AcDbLine
 10
100.2500834380164
 20
158.3070965793538
 30
0.0
 11
100.2500834380164
 21
157.7070965793538
 31
0.0
  0
LINE
  5
EF7C867C3
330
EF7C85532
100
AcDbEntity
  8
JISSEN
100
AcDbLine
 10
100.2500834380164
 20
158.3070965793538
 30
0.0
 11
100.7500834380164
 21
157.8070965793538
 31
0.0
  0
LINE
  5
EF7C867C4
330
EF7C85532
100
AcDbEntity
  8
SAISEN
100
AcDbLine
 10
99.5077062517123
 20
164.9994737656565
 30
0.0
 11
99.06252199698931
 21
179.2446580203788
 31
0.0
  0
LINE
  5
EF7C867C5
330
EF7C85532
100
AcDbEntity
  8
JISSEN
100
AcDbLine
 10
100.2620078016261
 20
178.0451722157419
 30
0.0
 11
100.707192056349
 21
163.7999879610198
 31
0.0
  0
LINE
  5
EF7C867C6
330
EF7C85532
100
AcDbEntity
  8
JISSEN
100
AcDbLine
 10
99.5077062517123
 20
164.9994737656565
 30
0.0
 11
101.7000834380159
 21
162.807096579353
 31
0.0
  0
LWPOLYLINE
  5
EF7C867CB
330
EF7C85532
100
AcDbEntity
  8
NITEN
100
AcDbPolyline
 90
        2
 70
     0
 43
0.0
 10
107.0
 20
230.2553631362227
 42
0.5882352941176295
 10
89.99999999999989
 20
230.255363136223
 42
0.5882352941176295
  0
LINE
  5
EF7C86842
330
EF7C85532
100
AcDbEntity
  8
JISSEN
100
AcDbLine
 10
90.00008343801608
 20
157.7070965793538
 30
0.0
 11
78.30008343801615
 21
157.7070965793538
 31
0.0
  0
LINE
  5
EF7C86843
330
EF7C85532
100
AcDbEntity
  8
JISSEN
100
AcDbLine
 10
90.00008343801608
 20
158.3070965793538
 30
0.0
 11
79.75008343801562
 21
158.3070965793538
 31
0.0
  0
LINE
  5
EF7C86844
330
EF7C85532
100
AcDbEntity
  8
JISSEN
100
AcDbLine
 10
79.75008343801562
 20
158.3070965793538
 30
0.0
 11
79.25008343801564
 21
157.8070965793538
 31
0.0
  0
LINE
  5
EF7C86845
330
EF7C85532
100
AcDbEntity
  8
SAISEN
100
AcDbLine
 10
79.75008343801562
 20
158.3070965793538
 30
0.0
 11
79.75008343801562
 21
157.7070965793538
 31
0.0
  0
LINE
  5
EF7C86846
330
EF7C85532
100
AcDbEntity
  8
JISSEN
100
AcDbLine
 10
79.90008343801574
 20
158.3070965793538
 30
0.0
 11
79.90008343801607
 21
158.8070965793539
 31
0.0
  0
LINE
  5
EF7C86847
330
EF7C85532
100
AcDbEntity
  8
JISSEN
100
AcDbLine
 10
79.25008343801564
 20
157.8070965793538
 30
0.0
 11
79.25008343801564
 21
157.7070965793538
 31
0.0
  0
ARC
  5
EF7C86848
330
EF7C85532
100
AcDbEntity
  8
JISSEN
100
AcDbCircle
 10
78.90008343801607
 20
158.8070965793539
 30
0.0
 40
1.0
100
AcDbArc
 50
0.000000000000007
 51
90.0
  0
LWPOLYLINE
  5
EF7C86862
330
EF7C85532
100
AcDbEntity
  8
SAISEN
100
AcDbPolyline
 90
       11
 70
     0
 43
0.0
 10
168.1752926713695
 20
124.0785941605557
 10
167.9972317747797
 20
123.7856339354783
 10
167.5097743114365
 20
123.3280584764697
 10
166.9333685356015
 20
122.9485919981506
 10
166.3145654322381
 20
122.6038488272916
 10
165.6999159863103
 20
122.2504432906641
 10
165.1359711827814
 20
121.8449897150385
 10
164.6692820066153
 20
121.3441024271858
 10
164.3463994427758
 20
120.7043957538767
 10
164.1804421322476
 20
119.9017512591074
 10
164.0635095596147
 20
119.0785941605559
  0
TEXT
  5
EF7C86889
330
EF7C85532
100
AcDbEntity
  8
SUNPOU
100
AcDbText
 10
142.5208741196623
 20
7.849423898685245
 30
0.0
 40
3.0
  1
X  スリーブ取付状態
  7
K
100
AcDbText
  0
LINE
  5
EF7C868CC
330
EF7C85532
100
AcDbEntity
  8
JISSEN
100
AcDbLine
 10
102.5000834380159
 20
124.0785941605557
 30
0.0
 11
102.5000834380159
 21
119.2215227391284
 31
0.0
  0
LINE
  5
EF7C86A94
330
EF7C85532
100
AcDbEntity
  8
JISSEN
100
AcDbLine
 10
101.7000834380159
 20
157.7070965793538
 30
0.0
 11
101.7000834380159
 21
136.5785941605558
 31
0.0
  0
LINE
  5
EF7C86AD1
330
EF7C85532
100
AcDbEntity
  8
JISSEN
100
AcDbLine
 10
104.0000834380159
 20
119.0785941605557
 30
0.0
 11
164.0635095596147
 21
119.0785941605559
 31
0.0
  0
LINE
  5
EF7C86B77
330
EF7C85532
100
AcDbEntity
  8
JISSEN
100
AcDbLine
 10
78.30008343801608
 20
157.7070965793538
 30
0.0
 11
78.30008343801608
 21
136.5785941605558
 31
0.0
  0
TEXT
  5
EF7C86D74
330
EF7C85532
100
AcDbEntity
  8
SUNPOU
100
AcDbText
 10
128.4508427877719
 20
158.1560541285736
 30
0.0
 40
4.5
  1
設備プレート
  7
K
100
AcDbText
  0
LINE
  5
EF7C86D75
330
EF7C85532
100
AcDbEntity
  8
SUNPOU
100
AcDbLine
 10
125.8392715290707
 20
157.6711554898793
 30
0.0
 11
159.8756944775479
 21
157.6711554898793
 31
0.0
  0
LINE
  5
EF7C86E02
330
EF7C85532
100
AcDbEntity
  8
JISSEN
100
AcDbLine
 10
77.15008343801598
 20
118.5785941605558
 30
0.0
 11
104.0000834380159
 21
118.578594160556
 31
0.0
  0
LINE
  5
EF7C86E11
330
EF7C85532
100
AcDbEntity
  8
JISSEN
100
AcDbLine
 10
102.3500834380159
 20
136.5785941605558
 30
0.0
 11
102.3500834380159
 21
119.5785941605558
 31
0.0
  0
ARC
  5
EF7C86E14
330
EF7C85532
100
AcDbEntity
  8
JISSEN
100
AcDbCircle
 10
102.8500834380158
 20
119.5785941605558
 30
0.0
 40
0.5
100
AcDbArc
 50
180.0
 51
270.0
  0
LINE
  5
EF7C86E1A
330
EF7C85532
100
AcDbEntity
  8
JISSEN
100
AcDbLine
 10
104.0000834380159
 20
118.5785941605558
 30
0.0
 11
102.8500834380158
 21
118.5785941605558
 31
0.0
  0
LINE
  5
EF7C86E1B
330
EF7C85532
100
AcDbEntity
  8
JISSEN
100
AcDbLine
 10
102.8500834380158
 20
119.0785941605557
 30
0.0
 11
104.0000834380159
 21
119.0785941605557
 31
0.0
  0
LINE
  5
EF7C86E1D
330
EF7C85532
100
AcDbEntity
  8
JISSEN
100
AcDbLine
 10
104.0000834380159
 20
119.0785941605557
 30
0.0
 11
104.0000834380159
 21
118.5785941605558
 31
0.0
  0
LINE
  5
EF7C86E52
330
EF7C85532
100
AcDbEntity
  8
JISSEN
100
AcDbLine
 10
77.65008343801601
 20
136.5785941605558
 30
0.0
 11
77.65008343801601
 21
119.5785941605558
 31
0.0
  0
LINE
  5
EF7C86E54
330
EF7C85532
100
AcDbEntity
  8
JISSEN
100
AcDbLine
 10
77.15008343801598
 20
119.0785941605557
 30
0.0
 11
76.00008343801599
 21
119.0785941605557
 31
0.0
  0
LINE
  5
EF7C86E55
330
EF7C85532
100
AcDbEntity
  8
JISSEN
100
AcDbLine
 10
76.00008343801599
 20
118.5785941605558
 30
0.0
 11
77.15008343801598
 21
118.5785941605558
 31
0.0
  0
ARC
  5
EF7C86E58
330
EF7C85532
100
AcDbEntity
  8
JISSEN
100
AcDbCircle
 10
77.15008343801598
 20
119.5785941605558
 30
0.0
 40
0.5
100
AcDbArc
 50
270.0
 51
0.000000000000007
  0
LINE
  5
EF7C86E5B
330
EF7C85532
100
AcDbEntity
  8
JISSEN
100
AcDbLine
 10
76.00008343801599
 20
119.0785941605557
 30
0.0
 11
76.00008343801599
 21
118.5785941605558
 31
0.0
  0
LINE
  5
EF7C86E74
330
EF7C85532
100
AcDbEntity
  8
JISSEN
100
AcDbLine
 10
102.3500834380159
 20
124.0785941605557
 30
0.0
 11
168.1752926713695
 21
124.0785941605557
 31
0.0
  0
LINE
  5
EF7C86E77
330
EF7C85532
100
AcDbEntity
  8
JISSEN
100
AcDbLine
 10
104.0000834380159
 20
119.0785941605557
 30
0.0
 11
15.93665731641738
 21
119.0785941605559
 31
0.0
  0
HATCH
  5
EF7C86EA9
330
EF7C85532
100
AcDbEntity
  8
JISSEN
100
AcDbHatch
 10
0.0
 20
0.0
 30
0.0
210
0.0
220
0.0
230
1.0
  2
ANSI31
 70
     0
 71
     0
 91
        2
 92
        7
 72
     1
 73
     1
 93
       14
 10
167.5097743114365
 20
123.3280584764697
 42
0.0
 10
167.9972317747797
 20
123.7856339354783
 42
0.0
 10
168.1752926713695
 20
124.0785941605557
 42
0.0
 10
102.5000834380159
 20
124.0785941605557
 42
0.0
 10
102.5000834380159
 20
119.2215227391284
 42
0.1963145652733771
 10
102.8500834380158
 20
119.0785941605557
 42
0.0
 10
164.0635095596147
 20
119.0785941605557
 42
0.0
 10
164.1804421322476
 20
119.9017512591074
 42
0.0
 10
164.3463994427758
 20
120.7043957538769
 42
0.0
 10
164.6692820066153
 20
121.3441024271858
 42
0.0
 10
165.1359711827814
 20
121.8449897150385
 42
0.0
 10
165.6999159863102
 20
122.250443290664
 42
0.0
 10
166.3145654322383
 20
122.6038488272918
 42
0.0
 10
166.9333685356015
 20
122.9485919981505
 42
0.0
 97
        0
 92
        7
 72
     1
 73
     1
 93
       14
 10
77.50008343801582
 20
124.0785941605557
 42
0.0
 10
11.82487420466258
 20
124.0785941605557
 42
0.0
 10
12.00293510125252
 20
123.7856339354783
 42
0.0
 10
12.49039256459561
 20
123.3280584764697
 42
0.0
 10
13.0667983404306
 20
122.9485919981505
 42
0.0
 10
13.6856014437943
 20
122.6038488272914
 42
0.0
 10
14.30025088972203
 20
122.2504432906641
 42
0.0
 10
14.86419569325074
 20
121.8449897150384
 42
0.0
 10
15.33088486941678
 20
121.3441024271858
 42
0.0
 10
15.65376743325638
 20
120.7043957538769
 42
0.0
 10
15.81972474378438
 20
119.9017512591075
 42
0.0
 10
15.93665731641736
 20
119.0785941605557
 42
0.0
 10
77.15008343801598
 20
119.0785941605557
 42
0.1963145652733251
 10
77.50008343801582
 20
119.2215227391284
 42
0.0
 97
        0
 75
     0
 76
     1
 52
90.0
 41
15.0
 77
     0
 78
     1
 53
135.0
 43
0.0
 44
0.0
 45
-1.325825214724775
 46
-1.325825214724775
 79
     0
 47
0.5177232085739521
 98
        2
 10
130.6683305668431
 20
123.079378338806
 10
50.87410083576765
 20
120.4907620870842
  0
LINE
  5
EF7C86EAA
330
EF7C85532
100
AcDbEntity
  8
SUNPOU
100
AcDbLine
 10
112.065756736175
 20
124.0785941605558
 30
0.0
 11
125.8392715290707
 21
157.6711554898793
 31
0.0
  0
INSERT
  5
EF7C86EAB
330
EF7C85532
100
AcDbEntity
  8
SUNPOU
100
AcDbBlockReference
  2
ARROW
 10
112.065756736175
 20
124.0785941605558
 30
0.0
 41
1.5
 42
1.5
 43
1.5
 50
247.705546370749
  0
LINE
  5
EF7C8727C
330
EF7C85532
100
AcDbEntity
  8
JISSEN
100
AcDbLine
 10
77.65008343801601
 20
124.0785941605557
 30
0.0
 11
11.82487420466258
 21
124.0785941605557
 31
0.0
  0
LINE
  5
EF7C872F6
330
EF7C85532
100
AcDbEntity
  8
JISSEN
100
AcDbLine
 10
102.3500834380159
 20
136.5785941605558
 30
0.0
 11
77.65008343801601
 21
136.5785941605558
 31
0.0
  0
LINE
  5
EF7C87740
330
EF7C85532
100
AcDbEntity
  8
SUNPOU
100
AcDbLine
 10
248.0547373756121
 20
70.10267398707475
 30
0.0
 11
215.5871279601266
 21
70.10267398707475
 31
0.0
  0
TEXT
  5
EF7C87741
330
EF7C85532
100
AcDbEntity
  8
SUNPOU
100
AcDbText
 10
216.4122762703507
 20
70.59042969307149
 30
0.0
 40
4.5
  1
スリーブ X
  7
K
 72
     2
 11
244.3551334132078
 21
70.59042969307149
 31
0.0
100
AcDbText
  0
LWPOLYLINE
  5
EF7C87742
330
EF7C85532
100
AcDbEntity
  8
JISSEN
 62
     0
100
AcDbPolyline
 90
       11
 70
     0
 43
0.0
 10
288.4986561177667
 20
176.2776245727287
 42
0.4142135623730951
 10
291.9986561177667
 20
179.7776245727288
 10
291.9986561177667
 20
205.0276245727288
 10
250.9986561177666
 20
205.0276245727288
 10
250.9986561177666
 20
181.0276245727288
 10
250.9986561177666
 20
179.7776245727288
 42
0.4142135623730951
 10
254.4986561177666
 20
176.2776245727287
 10
254.9986561177666
 20
176.2776245727287
 42
-0.4142135623730951
 10
258.4986561177667
 20
172.7776245727288
 10
258.4986561177667
 20
171.5276245727288
 10
258.4986561177667
 20
155.5673612824309
  0
LINE
  5
EF7C87743
330
EF7C85532
100
AcDbEntity
  8
JISSEN
 62
     0
100
AcDbLine
 10
293.0794920435753
 20
127.0287132550701
 30
0.0
 11
295.8294920435753
 21
127.0287132550701
 31
0.0
  0
LINE
  5
EF7C87744
330
EF7C85532
100
AcDbEntity
  8
JISSEN
 62
     0
100
AcDbLine
 10
295.8294920435753
 20
122.5287132550701
 30
0.0
 11
293.0794920435753
 21
120.22871325507
 31
0.0
  0
LINE
  5
EF7C87745
330
EF7C85532
100
AcDbEntity
  8
JISSEN
 62
     0
100
AcDbLine
 10
294.3294920435753
 20
118.22871325507
 30
0.0
 11
295.8294920435753
 21
118.22871325507
 31
0.0
  0
LINE
  5
EF7C87746
330
EF7C85532
100
AcDbEntity
  8
SUNPOU
100
AcDbLine
 10
295.1560179516656
 20
86.87871325507009
 30
0.0
 11
296.059251072901
 21
82.30836813510117
 31
0.0
  0
LINE
  5
EF7C87747
330
EF7C85532
100
AcDbEntity
  8
SUNPOU
100
AcDbLine
 10
295.1560179516656
 20
86.87871325507009
 30
0.0
 11
298.2234133401796
 21
83.37229483773242
 31
0.0
  0
LINE
  5
EF7C87748
330
EF7C85532
100
AcDbEntity
  8
JISSEN
 62
     0
100
AcDbLine
 10
295.8294920435753
 20
88.57871325507012
 30
0.0
 11
284.4294920435755
 21
88.57871325507012
 31
0.0
  0
LINE
  5
EF7C87749
330
EF7C85532
100
AcDbEntity
  8
JISSEN
 62
     0
100
AcDbLine
 10
284.4986561177666
 20
137.5673612824309
 30
0.0
 11
301.6999989176024
 21
137.5673612824309
 31
0.0
  0
LINE
  5
EF7C8774A
330
EF7C85532
100
AcDbEntity
  8
JISSEN
 62
     0
100
AcDbLine
 10
299.1999989176024
 20
147.5254011739806
 30
0.0
 11
288.9999989176026
 21
147.5254011739806
 31
0.0
  0
LINE
  5
EF7C8774B
330
EF7C85532
100
AcDbEntity
  8
JISSEN
 62
     0
100
AcDbLine
 10
300.0794920435753
 20
128.5287132550701
 30
0.0
 11
293.0794920435753
 21
128.5287132550701
 31
0.0
  0
LWPOLYLINE
  5
EF7C8774C
330
EF7C85532
100
AcDbEntity
  8
JISSEN
 62
     0
100
AcDbPolyline
 90
       13
 70
     0
 43
0.0
 10
299.1999989176024
 20
153.8692405311446
 42
0.0123075550001654
 10
299.6401697670358
 20
154.0031712222974
 42
0.0889226874667008
 10
302.0032997765015
 20
155.2860725679508
 42
0.1049567332455664
 10
303.6581769271023
 20
157.3038449923805
 42
0.120011216869144
 10
304.1999989176025
 20
159.52871325507
 42
0.1200112168691424
 10
303.6581769271023
 20
161.7535815177595
 42
0.1049567332455653
 10
302.0032997765015
 20
163.7713539421894
 42
0.0889226874666963
 10
299.6401697670358
 20
165.0542552878428
 42
0.0801668980116132
 10
296.6999989176025
 20
165.5287132550701
 42
0.0801668980116128
 10
293.7598280681691
 20
165.0542552878428
 42
0.0889226874666951
 10
291.3966980587034
 20
163.7713539421894
 42
0.1049567332455669
 10
289.7418209081029
 20
161.7535815177595
 42
0.1200112168691447
 10
289.1999989176024
 20
159.52871325507
 42
0.1200112168691455
  0
LINE
  5
EF7C8774D
330
EF7C85532
100
AcDbEntity
  8
JISSEN
 62
     0
100
AcDbLine
 10
284.4294920435755
 20
86.87871325507009
 30
0.0
 11
309.0794920435754
 21
86.87871325507009
 31
0.0
  0
LINE
  5
EF7C8774E
330
EF7C85532
100
AcDbEntity
  8
SUNPOU
100
AcDbLine
 10
295.1560179516656
 20
86.87871325507009
 30
0.0
 11
303.2631639347953
 21
70.38774692382336
 31
0.0
  0
HATCH
  5
EF7C8774F
330
EF7C85532
100
AcDbEntity
  8
JISSEN
100
AcDbHatch
 10
0.0
 20
0.0
 30
0.0
210
0.0
220
0.0
230
1.0
  2
ANSI31
 70
     0
 71
     0
 91
        2
 92
        7
 72
     0
 73
     1
 93
       25
 10
297.3294920435753
 20
118.22871325507
 10
298.8294920435754
 20
118.22871325507
 10
298.8294920435754
 20
117.22871325507
 10
300.0794920435753
 20
117.22871325507
 10
300.0794920435753
 20
120.22871325507
 10
297.3294920435753
 20
122.5287132550701
 10
297.3294920435753
 20
127.0287132550701
 10
300.0794920435753
 20
127.0287132550701
 10
300.0794920435753
 20
128.5287132550701
 10
293.0794920435753
 20
128.5287132550701
 10
293.0794920435753
 20
127.0287132550701
 10
295.8294920435753
 20
127.0287132550701
 10
295.8294920435753
 20
122.5287132550701
 10
293.0794920435753
 20
120.2287132550702
 10
293.0794920435753
 20
117.22871325507
 10
294.3294920435753
 20
117.22871325507
 10
294.3294920435753
 20
118.22871325507
 10
295.8294920435753
 20
118.22871325507
 10
295.8294920435753
 20
88.57871325507012
 10
284.4294920435757
 20
88.57871325507012
 10
284.4294920435755
 20
86.87871325507014
 10
309.0794920435754
 20
86.87871325507005
 10
309.0794920435754
 20
88.57871325507012
 10
302.3294920435753
 20
88.57871325507012
 10
297.3294920435753
 20
88.57871325507012
 97
        0
 92
        7
 72
     0
 73
     1
 93
       24
 10
247.1705057916299
 20
118.22871325507
 10
248.6705057916298
 20
118.22871325507
 10
248.6705057916298
 20
117.22871325507
 10
249.9205057916298
 20
117.22871325507
 10
249.9205057916298
 20
120.2287132550702
 10
247.1705057916298
 20
122.5287132550699
 10
247.1705057916298
 20
127.0287132550701
 10
249.9205057916298
 20
127.0287132550701
 10
249.9205057916298
 20
128.5287132550701
 10
242.9205057916298
 20
128.5287132550701
 10
242.9205057916298
 20
127.0287132550701
 10
245.6705057916298
 20
127.0287132550701
 10
245.6705057916298
 20
122.5287132550701
 10
242.9205057916298
 20
120.2287132550702
 10
242.9205057916298
 20
117.22871325507
 10
244.1705057916298
 20
117.22871325507
 10
244.1705057916298
 20
118.22871325507
 10
245.6705057916298
 20
118.22871325507
 10
245.6705057916299
 20
88.57871325507012
 10
233.9205057916298
 20
88.57871325507012
 10
233.9205057916298
 20
86.87871325507014
 10
258.5705057916296
 20
86.87871325507014
 10
258.5705057916296
 20
88.57871325507012
 10
247.1705057916298
 20
88.57871325507012
 97
        0
 75
     0
 76
     1
 52
0.0
 41
5.0
 77
     0
 78
     1
 53
45.0
 43
-307.4255189799798
 44
259.1869929352066
 45
-0.4419417382415923
 46
0.4419417382415923
 79
     0
 47
0.1461541772446758
 98
        2
 10
296.5948326768071
 20
108.6948122572267
 10
246.5694421607282
 20
109.2794289949857
  0
ARC
  5
EF7C87750
330
EF7C85532
100
AcDbEntity
  8
JISSEN
 62
     0
100
AcDbCircle
 10
282.5999989176031
 20
125.7984782119905
 30
0.0
 40
1.0
100
AcDbArc
 50
90.0
 51
180.0
  0
ARC
  5
EF7C87751
330
EF7C85532
100
AcDbEntity
  8
JISSEN
 62
     0
100
AcDbCircle
 10
260.3999989176021
 20
125.7984782119905
 30
0.0
 40
1.0
100
AcDbArc
 50
0.0
 51
90.0
  0
LINE
  5
EF7C87752
330
EF7C85532
100
AcDbEntity
  8
JISSEN
 62
     0
100
AcDbLine
 10
247.1705057916298
 20
122.5287132550701
 30
0.0
 11
247.1705057916298
 21
127.0287132550701
 31
0.0
  0
LINE
  5
EF7C87753
330
EF7C85532
100
AcDbEntity
  8
JISSEN
 62
     0
100
AcDbLine
 10
245.6705057916298
 20
127.0287132550701
 30
0.0
 11
245.6705057916298
 21
122.5287132550701
 31
0.0
  0
LINE
  5
EF7C87754
330
EF7C85532
100
AcDbEntity
  8
JISSEN
 62
     0
100
AcDbLine
 10
241.2999989176025
 20
138.7673612824309
 30
0.0
 11
241.2999989176025
 21
116.0673612824308
 31
0.0
  0
LINE
  5
EF7C87755
330
EF7C85532
100
AcDbEntity
  8
JISSEN
 62
     0
100
AcDbLine
 10
242.4999989176026
 20
116.0673612824308
 30
0.0
 11
242.4999989176026
 21
137.5673612824309
 31
0.0
  0
LINE
  5
EF7C87756
330
EF7C85532
100
AcDbEntity
  8
JISSEN
 62
     0
100
AcDbLine
 10
258.5705057916296
 20
88.57871325507012
 30
0.0
 11
247.1705057916298
 21
88.57871325507012
 31
0.0
  0
LINE
  5
EF7C87757
330
EF7C85532
100
AcDbEntity
  8
SUNPOU
100
AcDbLine
 10
258.5226279653767
 20
85.94922012909725
 30
0.0
 11
248.0547373756121
 21
70.10267398707475
 31
0.0
  0
LINE
  5
EF7C87758
330
EF7C85532
100
AcDbEntity
  8
JISSEN
 62
     0
100
AcDbLine
 10
233.9205057916298
 20
86.87871325507014
 30
0.0
 11
258.5705057916296
 21
86.87871325507014
 31
0.0
  0
LINE
  5
EF7C87759
330
EF7C85532
100
AcDbEntity
  8
JISSEN
 62
     0
100
AcDbLine
 10
245.6705057916298
 20
118.22871325507
 30
0.0
 11
245.6705057916298
 21
88.57871325507012
 31
0.0
  0
LINE
  5
EF7C8775A
330
EF7C85532
100
AcDbEntity
  8
JISSEN
 62
     0
100
AcDbLine
 10
247.1705057916298
 20
88.57871325507012
 30
0.0
 11
247.1705057916298
 21
118.22871325507
 31
0.0
  0
LINE
  5
EF7C8775B
330
EF7C85532
100
AcDbEntity
  8
0
 62
     0
100
AcDbLine
 10
233.2063488290705
 20
88.57871325507018
 30
0.0
 11
240.6705057916298
 21
96.04287021762926
 31
0.0
  0
LWPOLYLINE
  5
EF7C8775C
330
EF7C85532
100
AcDbEntity
  8
JISSEN
 62
     0
100
AcDbPolyline
 90
        8
 70
     1
 43
0.0
 10
216.8278626773719
 20
100.5787132550701
 10
240.6705057916298
 20
100.5787132550701
 10
240.6705057916298
 20
88.57871325507018
 10
219.7659092362813
 20
88.57871325507012
 42
-0.202120388705406
 10
221.0966265295925
 20
90.70189220342328
 42
0.5713525608206203
 10
220.8690229507949
 20
93.5606482310129
 42
-0.3987555679944311
 10
219.7404885392578
 20
96.5701702965687
 42
0.4814910058598528
 10
218.2326148297248
 20
99.34774461140733
 42
-0.2786868946516943
  0
LINE
  5
EF7C8775D
330
EF7C85532
100
AcDbEntity
  8
SAISEN
 62
     0
100
AcDbLine
 10
228.7869314466548
 20
88.57871325507012
 30
0.0
 11
240.6705057916298
 21
100.4622876000449
 31
0.0
  0
LINE
  5
EF7C8775E
330
EF7C85532
100
AcDbEntity
  8
0
 62
     0
100
AcDbLine
 10
220.639099390944
 20
93.6891333466074
 30
0.0
 11
227.5286792994068
 21
100.5787132550701
 31
0.0
  0
LINE
  5
EF7C8775F
330
EF7C85532
100
AcDbEntity
  8
0
 62
     0
100
AcDbLine
 10
224.3675140642388
 20
88.57871325507012
 30
0.0
 11
236.3675140642389
 21
100.5787132550701
 31
0.0
  0
LINE
  5
EF7C87760
330
EF7C85532
100
AcDbEntity
  8
0
 62
     0
100
AcDbLine
 10
219.9480966818228
 20
88.57871325507012
 30
0.0
 11
231.9480966818229
 21
100.5787132550701
 31
0.0
  0
LINE
  5
EF7C87761
330
EF7C85532
100
AcDbEntity
  8
0
 62
     0
100
AcDbLine
 10
228.7869314466548
 20
88.57871325507018
 30
0.0
 11
231.32478766497
 21
91.11656947338557
 31
0.0
  0
LINE
  5
EF7C87762
330
EF7C85532
100
AcDbEntity
  8
0
 62
     0
100
AcDbLine
 10
226.3529431097523
 20
90.56414230058356
 30
0.0
 11
226.3529431097523
 21
90.56414230058356
 31
0.0
  0
LINE
  5
EF7C87763
330
EF7C85532
100
AcDbEntity
  8
0
 62
     0
100
AcDbLine
 10
224.3675140642388
 20
88.57871325507018
 30
0.0
 11
225.2480887641483
 21
89.45928795497961
 31
0.0
  0
LINE
  5
EF7C87764
330
EF7C85532
100
AcDbEntity
  8
0
 62
     0
100
AcDbLine
 10
220.6390993909439
 20
93.689133346607
 30
0.0
 11
220.8286713817323
 21
93.87870533739548
 31
0.0
  0
LINE
  5
EF7C87765
330
EF7C85532
100
AcDbEntity
  8
0
 62
     0
100
AcDbLine
 10
220.2762442089303
 20
88.90686078217759
 30
0.0
 11
220.2762442089303
 21
88.90686078217759
 31
0.0
  0
LINE
  5
EF7C87766
330
EF7C85532
100
AcDbEntity
  8
0
 62
     0
100
AcDbLine
 10
237.6257662114865
 20
88.57871325507018
 30
0.0
 11
240.6705057916298
 21
91.62345283521331
 31
0.0
  0
LINE
  5
EF7C87767
330
EF7C85532
100
AcDbEntity
  8
JISSEN
 62
     0
100
AcDbLine
 10
245.6705057916298
 20
88.57871325507012
 30
0.0
 11
233.9205057916298
 21
88.57871325507012
 31
0.0
  0
LINE
  5
EF7C87768
330
EF7C85532
100
AcDbEntity
  8
0
 62
     0
100
AcDbLine
 10
238.506340911396
 20
93.87870533739548
 30
0.0
 11
238.506340911396
 21
93.87870533739548
 31
0.0
  0
LINE
  5
EF7C87769
330
EF7C85532
100
AcDbEntity
  8
0
 62
     0
100
AcDbLine
 10
232.4296420105742
 20
92.22142381898953
 30
0.0
 11
232.4296420105742
 21
92.22142381898953
 31
0.0
  0
LINE
  5
EF7C8776A
330
EF7C85532
100
AcDbEntity
  8
JISSEN
 62
     0
100
AcDbLine
 10
233.9205057916298
 20
88.57871325507012
 30
0.0
 11
233.9205057916298
 21
86.87871325507014
 31
0.0
  0
LINE
  5
EF7C8776B
330
EF7C85532
100
AcDbEntity
  8
0
 62
     0
100
AcDbLine
 10
218.6189626905243
 20
100.5078314110193
 30
0.0
 11
218.6898445345752
 21
100.5787132550701
 31
0.0
  0
LINE
  5
EF7C8776C
330
EF7C85532
100
AcDbEntity
  8
0
 62
     0
100
AcDbLine
 10
221.9335257273364
 20
94.98355968299945
 30
0.0
 11
221.9335257273364
 21
94.98355968299945
 31
0.0
  0
LINE
  5
EF7C8776D
330
EF7C85532
100
AcDbEntity
  8
0
 62
     0
100
AcDbLine
 10
219.9001052156724
 20
97.36955655375162
 30
0.0
 11
223.1092619169908
 21
100.5787132550701
 31
0.0
  0
LINE
  5
EF7C8776E
330
EF7C85532
100
AcDbEntity
  8
0
 62
     0
100
AcDbLine
 10
228.0102246281582
 20
96.6408412014055
 30
0.0
 11
228.0102246281582
 21
96.6408412014055
 31
0.0
  0
LINE
  5
EF7C8776F
330
EF7C85532
100
AcDbEntity
  8
0
 62
     0
100
AcDbLine
 10
234.0869235289799
 20
98.2981227198114
 30
0.0
 11
234.0869235289799
 21
98.2981227198114
 31
0.0
  0
LINE
  5
EF7C87770
330
EF7C85532
100
AcDbEntity
  8
0
 62
     0
100
AcDbLine
 10
235.191777874584
 20
99.40297706541535
 30
0.0
 11
236.3675140642385
 21
100.5787132550701
 31
0.0
  0
LINE
  5
EF7C87771
330
EF7C85532
100
AcDbEntity
  8
0
 62
     0
100
AcDbLine
 10
240.1636224298019
 20
99.95540423821736
 30
0.0
 11
240.1636224298019
 21
99.95540423821736
 31
0.0
  0
LINE
  5
EF7C87772
330
EF7C85532
100
AcDbEntity
  8
JISSEN
 62
     0
100
AcDbLine
 10
248.6705057916298
 20
118.22871325507
 30
0.0
 11
248.6705057916298
 21
117.22871325507
 31
0.0
  0
LINE
  5
EF7C87773
330
EF7C85532
100
AcDbEntity
  8
JISSEN
 62
     0
100
AcDbLine
 10
248.6705057916298
 20
117.22871325507
 30
0.0
 11
249.9205057916298
 21
117.22871325507
 31
0.0
  0
LINE
  5
EF7C87774
330
EF7C85532
100
AcDbEntity
  8
JISSEN
 62
     0
100
AcDbLine
 10
249.9205057916298
 20
117.22871325507
 30
0.0
 11
249.9205057916298
 21
120.22871325507
 31
0.0
  0
LINE
  5
EF7C87775
330
EF7C85532
100
AcDbEntity
  8
JISSEN
 62
     0
100
AcDbLine
 10
247.1705057916298
 20
118.22871325507
 30
0.0
 11
248.6705057916298
 21
118.22871325507
 31
0.0
  0
LINE
  5
EF7C87776
330
EF7C85532
100
AcDbEntity
  8
JISSEN
 62
     0
100
AcDbLine
 10
249.9205057916298
 20
120.22871325507
 30
0.0
 11
247.1705057916298
 21
122.5287132550701
 31
0.0
  0
LINE
  5
EF7C87777
330
EF7C85532
100
AcDbEntity
  8
JISSEN
 62
     0
100
AcDbLine
 10
244.1705057916298
 20
117.22871325507
 30
0.0
 11
244.1705057916298
 21
118.22871325507
 31
0.0
  0
LINE
  5
EF7C87778
330
EF7C85532
100
AcDbEntity
  8
JISSEN
 62
     0
100
AcDbLine
 10
242.9205057916298
 20
120.22871325507
 30
0.0
 11
242.9205057916298
 21
117.22871325507
 31
0.0
  0
LINE
  5
EF7C87779
330
EF7C85532
100
AcDbEntity
  8
JISSEN
 62
     0
100
AcDbLine
 10
242.9205057916298
 20
117.22871325507
 30
0.0
 11
244.1705057916298
 21
117.22871325507
 31
0.0
  0
ARC
  5
EF7C8777A
330
EF7C85532
100
AcDbEntity
  8
JISSEN
 62
     0
100
AcDbCircle
 10
242.9999989176026
 20
116.0673612824308
 30
0.0
 40
1.699999999999988
100
AcDbArc
 50
180.0
 51
346.137858554223
  0
LINE
  5
EF7C8777B
330
EF7C85532
100
AcDbEntity
  8
JISSEN
 62
     0
100
AcDbLine
 10
244.4999989176027
 20
117.7994120899997
 30
0.0
 11
243.4999989176026
 21
116.0673612824308
 31
0.0
  0
ARC
  5
EF7C8777C
330
EF7C85532
100
AcDbEntity
  8
JISSEN
 62
     0
100
AcDbCircle
 10
242.9999989176026
 20
116.0673612824308
 30
0.0
 40
0.5
100
AcDbArc
 50
180.0
 51
0.0000000000032569
  0
LINE
  5
EF7C8777D
330
EF7C85532
100
AcDbEntity
  8
JISSEN
 62
     0
100
AcDbLine
 10
245.5392294021438
 20
117.1994120899997
 30
0.0
 11
244.4999989176027
 21
117.7994120899997
 31
0.0
  0
LINE
  5
EF7C8777E
330
EF7C85532
100
AcDbEntity
  8
JISSEN
 62
     0
100
AcDbLine
 10
244.1705057916298
 20
118.22871325507
 30
0.0
 11
245.6705057916298
 21
118.22871325507
 31
0.0
  0
LINE
  5
EF7C8777F
330
EF7C85532
100
AcDbEntity
  8
JISSEN
 62
     0
100
AcDbLine
 10
245.6705057916298
 20
122.5287132550701
 30
0.0
 11
242.9205057916298
 21
120.22871325507
 31
0.0
  0
LINE
  5
EF7C87780
330
EF7C85532
100
AcDbEntity
  8
JISSEN
 62
     0
100
AcDbLine
 10
244.6504864208008
 20
115.6600640914434
 30
0.0
 11
245.5392294021438
 21
117.1994120899997
 31
0.0
  0
LINE
  5
EF7C87781
330
EF7C85532
100
AcDbEntity
  8
SAISEN
 62
     0
100
AcDbLine
 10
284.0482619341766
 20
92.91439382744
 30
0.0
 11
284.1982619341758
 21
94.41439382743991
 31
0.0
  0
LINE
  5
EF7C87782
330
EF7C85532
100
AcDbEntity
  8
SAISEN
 62
     0
100
AcDbLine
 10
284.0482619341766
 20
92.91439382744
 30
0.0
 11
284.1982619341758
 21
94.41439382743991
 31
0.0
  0
LINE
  5
EF7C87783
330
EF7C85532
100
AcDbEntity
  8
SAISEN
 62
     0
100
AcDbLine
 10
283.3499989176025
 20
94.44922012909714
 30
0.0
 11
283.199998917603
 21
92.94922012909728
 31
0.0
  0
LINE
  5
EF7C87784
330
EF7C85532
100
AcDbEntity
  8
JISSEN
 62
     0
100
AcDbLine
 10
283.1999989109572
 20
89.7086823040467
 30
0.0
 11
283.1999989109572
 21
94.64856672947719
 31
0.0
  0
LINE
  5
EF7C87785
330
EF7C85532
100
AcDbEntity
  8
SAISEN
 62
     0
100
AcDbLine
 10
259.6499989176026
 20
94.44922012909714
 30
0.0
 11
259.799998917602
 21
92.94922012909728
 31
0.0
  0
LINE
  5
EF7C87786
330
EF7C85532
100
AcDbEntity
  8
JISSEN
 62
     0
100
AcDbLine
 10
259.7999989170415
 20
94.64856672946943
 30
0.0
 11
259.7999989170415
 21
89.7086823040467
 31
0.0
  0
LINE
  5
EF7C87787
330
EF7C85532
100
AcDbEntity
  8
SAISEN
 62
     0
100
AcDbLine
 10
258.9517359010286
 20
92.91439382744
 30
0.0
 11
258.801735901029
 21
94.41439382743991
 31
0.0
  0
LINE
  5
EF7C87788
330
EF7C85532
100
AcDbEntity
  8
SAISEN
 62
     0
100
AcDbLine
 10
258.9517359010286
 20
92.91439382744
 30
0.0
 11
258.801735901029
 21
94.41439382743991
 31
0.0
  0
LINE
  5
EF7C87789
330
EF7C85532
100
AcDbEntity
  8
SAISEN
 62
     0
100
AcDbLine
 10
284.1999989176025
 20
87.09922012909727
 30
0.0
 11
284.1999989176025
 21
103.9492201290971
 31
0.0
  0
LINE
  5
EF7C8778A
330
EF7C85532
100
AcDbEntity
  8
SAISEN
 62
     0
100
AcDbLine
 10
284.1999989176025
 20
87.09922012909727
 30
0.0
 11
284.1999989176025
 21
103.9492201290971
 31
0.0
  0
LINE
  5
EF7C8778B
330
EF7C85532
100
AcDbEntity
  8
SAISEN
 62
     0
100
AcDbLine
 10
258.7999989176024
 20
87.09922012909727
 30
0.0
 11
258.7999989176024
 21
103.9492201290971
 31
0.0
  0
LINE
  5
EF7C87794
330
EF7C85532
100
AcDbEntity
  8
JISSEN
 62
     0
100
AcDbLine
 10
259.7999989170415
 20
89.7086823040467
 30
0.0
 11
283.1999989109572
 21
89.7086823040467
 31
0.0
  0
LINE
  5
EF7C87796
330
EF7C85532
100
AcDbEntity
  8
JISSEN
 62
     0
100
AcDbLine
 10
271.499998914
 20
89.19847822254665
 30
0.0
 11
282.6897948294572
 21
89.19847822254672
 31
0.0
  0
LINE
  5
EF7C877AE
330
EF7C85532
100
AcDbEntity
  8
JISSEN
 62
     0
100
AcDbLine
 10
260.3102029985415
 20
89.19847822254665
 30
0.0
 11
271.499998914
 21
89.19847822254665
 31
0.0
  0
LINE
  5
EF7C877B0
330
EF7C85532
100
AcDbEntity
  8
SAISEN
 62
     0
100
AcDbLine
 10
259.799998917602
 20
93.1984782119906
 30
0.0
 11
259.799998917602
 21
89.7086823040467
 31
0.0
  0
LINE
  5
EF7C877B1
330
EF7C85532
100
AcDbEntity
  8
SAISEN
 62
     0
100
AcDbLine
 10
259.799998917602
 20
92.94922012909728
 30
0.0
 11
259.674998917602
 21
92.44922012909723
 31
0.0
  0
LINE
  5
EF7C877B2
330
EF7C85532
100
AcDbEntity
  8
SAISEN
 62
     0
100
AcDbLine
 10
259.799998917602
 20
93.1984782119906
 30
0.0
 11
259.799998917602
 21
89.7086823040467
 31
0.0
  0
LINE
  5
EF7C877B3
330
EF7C85532
100
AcDbEntity
  8
JISSEN
 62
     0
100
AcDbLine
 10
260.3102029985415
 20
89.19847822254665
 30
0.0
 11
259.7999989170415
 21
89.7086823040467
 31
0.0
  0
LINE
  5
EF7C877B4
330
EF7C85532
100
AcDbEntity
  8
SAISEN
 62
     0
100
AcDbLine
 10
258.8354490425512
 20
92.53410759785998
 30
0.0
 11
258.9604490425512
 21
93.03410759785998
 31
0.0
  0
LINE
  5
EF7C877B5
330
EF7C85532
100
AcDbEntity
  8
SAISEN
 62
     0
100
AcDbLine
 10
259.674998917602
 20
92.44922012909723
 30
0.0
 11
258.7999989176024
 21
92.44922012909723
 31
0.0
  0
LINE
  5
EF7C877B6
330
EF7C85532
100
AcDbEntity
  8
SAISEN
 62
     0
100
AcDbLine
 10
259.6499989176026
 20
91.64922012909729
 30
0.0
 11
258.7999989176024
 21
91.64922012909729
 31
0.0
  0
ARC
  5
EF7C877B7
330
EF7C85532
100
AcDbEntity
  8
SAISEN
 62
     0
100
AcDbCircle
 10
258.4999989176025
 20
87.09922012909727
 30
0.0
 40
0.3
100
AcDbArc
 50
270.0
 51
0.0000000000016284
  0
LINE
  5
EF7C877B8
330
EF7C85532
100
AcDbEntity
  8
SAISEN
 62
     0
100
AcDbLine
 10
258.6499989176024
 20
85.94922012909725
 30
0.0
 11
260.499998917602
 21
85.94922012909725
 31
0.0
  0
LINE
  5
EF7C877B9
330
EF7C85532
100
AcDbEntity
  8
SAISEN
 62
     0
100
AcDbLine
 10
260.499998917602
 20
85.94922012909725
 30
0.0
 11
258.6499989176024
 21
85.94922012909725
 31
0.0
  0
ARC
  5
EF7C877BA
330
EF7C85532
100
AcDbEntity
  8
SAISEN
 62
     0
100
AcDbCircle
 10
258.6499989176024
 20
86.94922012909726
 30
0.0
 40
1.0
100
AcDbArc
 50
270.0
 51
0.0
  0
LINE
  5
EF7C877BB
330
EF7C85532
100
AcDbEntity
  8
SAISEN
 62
     0
100
AcDbLine
 10
258.6499989176024
 20
85.94922012909725
 30
0.0
 11
260.4999989139999
 21
85.94922012909725
 31
0.0
  0
LINE
  5
EF7C877BC
330
EF7C85532
100
AcDbEntity
  8
SAISEN
 62
     0
100
AcDbLine
 10
259.674998917602
 20
92.44922012909723
 30
0.0
 11
259.6499989176026
 21
86.94922012909726
 31
0.0
  0
LINE
  5
EF7C877BD
330
EF7C85532
100
AcDbEntity
  8
JISSEN
 62
     0
100
AcDbLine
 10
258.5705057916296
 20
86.87871325507014
 30
0.0
 11
258.5705057916296
 21
88.57871325507012
 31
0.0
  0
LINE
  5
EF7C877BE
330
EF7C85532
100
AcDbEntity
  8
SAISEN
 62
     0
100
AcDbLine
 10
257.4999989176025
 20
85.94922012909725
 30
0.0
 11
257.4999989176025
 21
86.79922012909726
 31
0.0
  0
LINE
  5
EF7C877BF
330
EF7C85532
100
AcDbEntity
  8
SAISEN
 62
     0
100
AcDbLine
 10
258.6499989176024
 20
85.94922012909725
 30
0.0
 11
257.4999989176025
 21
85.94922012909725
 31
0.0
  0
LINE
  5
EF7C877C0
330
EF7C85532
100
AcDbEntity
  8
SAISEN
 62
     0
100
AcDbLine
 10
257.4999989176025
 20
86.79922012909726
 30
0.0
 11
258.4999989176025
 21
86.79922012909726
 31
0.0
  0
LINE
  5
EF7C877C1
330
EF7C85532
100
AcDbEntity
  8
SUNPOU
100
AcDbLine
 10
258.5226279653767
 20
85.94922012909725
 30
0.0
 11
255.0362443280206
 21
82.85907228148587
 31
0.0
  0
LINE
  5
EF7C877C2
330
EF7C85532
100
AcDbEntity
  8
SUNPOU
100
AcDbLine
 10
258.5226279653767
 20
85.94922012909725
 30
0.0
 11
257.0484050918941
 21
81.52988177293778
 31
0.0
  0
ARC
  5
EF7C877D8
330
EF7C85532
100
AcDbEntity
  8
SAISEN
 62
     0
100
AcDbCircle
 10
284.4999989176025
 20
87.09922012909727
 30
0.0
 40
0.3
100
AcDbArc
 50
179.9999999999983
 51
270.0
  0
LINE
  5
EF7C877D9
330
EF7C85532
100
AcDbEntity
  8
SAISEN
 62
     0
100
AcDbLine
 10
284.3499989176025
 20
85.94922012909725
 30
0.0
 11
285.4999989176026
 21
85.94922012909725
 31
0.0
  0
LINE
  5
EF7C877DD
330
EF7C85532
100
AcDbEntity
  8
SAISEN
 62
     0
100
AcDbLine
 10
283.199998917603
 20
93.1984782119906
 30
0.0
 11
283.199998917603
 21
92.94922012909728
 31
0.0
  0
LINE
  5
EF7C877DE
330
EF7C85532
100
AcDbEntity
  8
SAISEN
 62
     0
100
AcDbLine
 10
283.199998917603
 20
93.1984782119906
 30
0.0
 11
283.199998917603
 21
92.94922012909728
 31
0.0
  0
LINE
  5
EF7C877DF
330
EF7C85532
100
AcDbEntity
  8
SAISEN
 62
     0
100
AcDbLine
 10
283.3499989176025
 20
91.64922012909729
 30
0.0
 11
284.1999989176025
 21
91.64922012909729
 31
0.0
  0
LINE
  5
EF7C877E0
330
EF7C85532
100
AcDbEntity
  8
SAISEN
 62
     0
100
AcDbLine
 10
283.324998917603
 20
92.44922012909723
 30
0.0
 11
284.1999989176025
 21
92.44922012909723
 31
0.0
  0
LINE
  5
EF7C877E1
330
EF7C85532
100
AcDbEntity
  8
SAISEN
 62
     0
100
AcDbLine
 10
284.1645487926538
 20
92.53410759785998
 30
0.0
 11
284.0395487926538
 21
93.03410759785998
 31
0.0
  0
LINE
  5
EF7C877E2
330
EF7C85532
100
AcDbEntity
  8
SAISEN
 62
     0
100
AcDbLine
 10
283.199998917603
 20
92.94922012909728
 30
0.0
 11
283.324998917603
 21
92.44922012909723
 31
0.0
  0
LINE
  5
EF7C877E3
330
EF7C85532
100
AcDbEntity
  8
JISSEN
 62
     0
100
AcDbLine
 10
283.1999989109572
 20
89.7086823040467
 30
0.0
 11
282.6897948294572
 21
89.19847822254672
 31
0.0
  0
LINE
  5
EF7C877E4
330
EF7C85532
100
AcDbEntity
  8
SAISEN
 62
     0
100
AcDbLine
 10
282.4999989176031
 20
85.94922012909725
 30
0.0
 11
284.3499989176025
 21
85.94922012909725
 31
0.0
  0
ARC
  5
EF7C877E5
330
EF7C85532
100
AcDbEntity
  8
SAISEN
 62
     0
100
AcDbCircle
 10
284.3499989176025
 20
86.94922012909726
 30
0.0
 40
1.0
100
AcDbArc
 50
180.0
 51
270.0
  0
LINE
  5
EF7C877E6
330
EF7C85532
100
AcDbEntity
  8
SAISEN
 62
     0
100
AcDbLine
 10
282.499998914
 20
85.94922012909725
 30
0.0
 11
284.3499989176025
 21
85.94922012909725
 31
0.0
  0
LINE
  5
EF7C877E7
330
EF7C85532
100
AcDbEntity
  8
SAISEN
 62
     0
100
AcDbLine
 10
283.3499989176025
 20
92.44922012909723
 30
0.0
 11
283.3499989176025
 21
86.94922012909726
 31
0.0
  0
LINE
  5
EF7C877E8
330
EF7C85532
100
AcDbEntity
  8
SAISEN
 62
     0
100
AcDbLine
 10
285.4999989176026
 20
85.94922012909725
 30
0.0
 11
285.4999989176025
 21
86.79922012909726
 31
0.0
  0
LINE
  5
EF7C877E9
330
EF7C85532
100
AcDbEntity
  8
JISSEN
 62
     0
100
AcDbLine
 10
284.4294920435755
 20
88.57871325507012
 30
0.0
 11
284.4294920435755
 21
86.87871325507009
 31
0.0
  0
LINE
  5
EF7C877EA
330
EF7C85532
100
AcDbEntity
  8
SAISEN
 62
     0
100
AcDbLine
 10
285.4999989176026
 20
86.79922012909726
 30
0.0
 11
284.4999989176025
 21
86.79922012909726
 31
0.0
  0
LINE
  5
EF7C877EB
330
EF7C85532
100
AcDbEntity
  8
JISSEN
 62
     0
100
AcDbLine
 10
283.1999989109572
 20
124.6984782133165
 30
0.0
 11
271.499998914
 21
124.6984782133165
 31
0.0
  0
LINE
  5
EF7C877EC
330
EF7C85532
100
AcDbEntity
  8
JISSEN
 62
     0
100
AcDbLine
 10
259.7999989170415
 20
124.6984782133165
 30
0.0
 11
259.7999989170415
 21
97.6984782225467
 31
0.0
  0
LINE
  5
EF7C877F0
330
EF7C85532
100
AcDbEntity
  8
SAISEN
 62
     0
100
AcDbLine
 10
259.799998917602
 20
103.6492201290971
 30
0.0
 11
259.6499989176026
 21
103.6492201290971
 31
0.0
  0
LINE
  5
EF7C877F1
330
EF7C85532
100
AcDbEntity
  8
SAISEN
 62
     0
100
AcDbLine
 10
259.799998917602
 20
103.9492201290971
 30
0.0
 11
259.3499989176025
 21
103.9492201290971
 31
0.0
  0
LINE
  5
EF7C877F2
330
EF7C85532
100
AcDbEntity
  8
SAISEN
 62
     0
100
AcDbLine
 10
259.3499989176025
 20
103.9492201290971
 30
0.0
 11
259.6499989176026
 21
103.6492201290971
 31
0.0
  0
LINE
  5
EF7C877F3
330
EF7C85532
100
AcDbEntity
  8
SAISEN
 62
     0
100
AcDbLine
 10
258.7999989176024
 20
103.9492201290971
 30
0.0
 11
259.3499989176025
 21
103.9492201290971
 31
0.0
  0
LINE
  5
EF7C877F5
330
EF7C85532
100
AcDbEntity
  8
SAISEN
 62
     0
100
AcDbLine
 10
259.6499989176026
 20
103.6492201290971
 30
0.0
 11
259.6499989176026
 21
94.44922012909714
 31
0.0
  0
LINE
  5
EF7C877FA
330
EF7C85532
100
AcDbEntity
  8
JISSEN
 62
     0
100
AcDbLine
 10
271.499998914
 20
124.6984782133165
 30
0.0
 11
259.7999989170415
 21
124.6984782133165
 31
0.0
  0
LINE
  5
EF7C877FB
330
EF7C85532
100
AcDbEntity
  8
SAISEN
 62
     0
100
AcDbLine
 10
261.2499989176019
 20
125.2984782119905
 30
0.0
 11
261.2499989176019
 21
124.6984782119905
 31
0.0
  0
LINE
  5
EF7C877FC
330
EF7C85532
100
AcDbEntity
  8
JISSEN
 62
     0
100
AcDbLine
 10
261.399998917602
 20
125.7984782119905
 30
0.0
 11
261.399998917602
 21
125.2984782119905
 31
0.0
  0
LINE
  5
EF7C877FD
330
EF7C85532
100
AcDbEntity
  8
JISSEN
 62
     0
100
AcDbLine
 10
261.2499989176019
 20
125.2984782119905
 30
0.0
 11
261.399998917602
 21
125.2984782119905
 31
0.0
  0
LINE
  5
EF7C877FE
330
EF7C85532
100
AcDbEntity
  8
JISSEN
 62
     0
100
AcDbLine
 10
260.7499989176019
 20
124.7984782119905
 30
0.0
 11
260.7499989176019
 21
124.6984782119905
 31
0.0
  0
LINE
  5
EF7C877FF
330
EF7C85532
100
AcDbEntity
  8
JISSEN
 62
     0
100
AcDbLine
 10
261.2499989176019
 20
125.2984782119905
 30
0.0
 11
260.7499989176019
 21
124.7984782119905
 31
0.0
  0
LINE
  5
EF7C87800
330
EF7C85532
100
AcDbEntity
  8
JISSEN
 62
     0
100
AcDbLine
 10
283.1999989109572
 20
97.69847822255442
 30
0.0
 11
283.1999989109572
 21
124.6984782133165
 31
0.0
  0
LINE
  5
EF7C87806
330
EF7C85532
100
AcDbEntity
  8
SAISEN
 62
     0
100
AcDbLine
 10
284.1999989176025
 20
103.9492201290971
 30
0.0
 11
283.6499989176024
 21
103.9492201290971
 31
0.0
  0
LINE
  5
EF7C87807
330
EF7C85532
100
AcDbEntity
  8
SAISEN
 62
     0
100
AcDbLine
 10
283.6499989176024
 20
103.9492201290971
 30
0.0
 11
283.3499989176025
 21
103.6492201290971
 31
0.0
  0
LINE
  5
EF7C87808
330
EF7C85532
100
AcDbEntity
  8
SAISEN
 62
     0
100
AcDbLine
 10
283.199998917603
 20
103.9492201290971
 30
0.0
 11
283.6499989176024
 21
103.9492201290971
 31
0.0
  0
LINE
  5
EF7C87809
330
EF7C85532
100
AcDbEntity
  8
SAISEN
 62
     0
100
AcDbLine
 10
283.199998917603
 20
103.6492201290971
 30
0.0
 11
283.3499989176025
 21
103.6492201290971
 31
0.0
  0
LINE
  5
EF7C8780D
330
EF7C85532
100
AcDbEntity
  8
SAISEN
 62
     0
100
AcDbLine
 10
283.3499989176025
 20
103.6492201290971
 30
0.0
 11
283.3499989176025
 21
94.44922012909714
 31
0.0
  0
LINE
  5
EF7C8780E
330
EF7C85532
100
AcDbEntity
  8
JISSEN
 62
     0
100
AcDbLine
 10
281.5999989176031
 20
125.7984782119905
 30
0.0
 11
281.5999989176031
 21
125.2984782119905
 31
0.0
  0
LINE
  5
EF7C8780F
330
EF7C85532
100
AcDbEntity
  8
JISSEN
 62
     0
100
AcDbLine
 10
282.2499989176031
 20
124.7984782119905
 30
0.0
 11
282.2499989176031
 21
124.6984782119905
 31
0.0
  0
LINE
  5
EF7C87810
330
EF7C85532
100
AcDbEntity
  8
SAISEN
 62
     0
100
AcDbLine
 10
281.7499989176031
 20
125.2984782119905
 30
0.0
 11
281.7499989176031
 21
124.6984782119905
 31
0.0
  0
LINE
  5
EF7C87811
330
EF7C85532
100
AcDbEntity
  8
JISSEN
 62
     0
100
AcDbLine
 10
281.7499989176031
 20
125.2984782119905
 30
0.0
 11
282.2499989176031
 21
124.7984782119905
 31
0.0
  0
LINE
  5
EF7C87812
330
EF7C85532
100
AcDbEntity
  8
JISSEN
 62
     0
100
AcDbLine
 10
281.7499989176031
 20
125.2984782119905
 30
0.0
 11
281.5999989176031
 21
125.2984782119905
 31
0.0
  0
LINE
  5
EF7C87813
330
EF7C85532
100
AcDbEntity
  8
JISSEN
 62
     0
100
AcDbLine
 10
293.0794920435753
 20
117.22871325507
 30
0.0
 11
294.3294920435753
 21
117.22871325507
 31
0.0
  0
LINE
  5
EF7C87814
330
EF7C85532
100
AcDbEntity
  8
JISSEN
 62
     0
100
AcDbLine
 10
293.0794920435753
 20
120.22871325507
 30
0.0
 11
293.0794920435753
 21
117.22871325507
 31
0.0
  0
LINE
  5
EF7C87815
330
EF7C85532
100
AcDbEntity
  8
JISSEN
 62
     0
100
AcDbLine
 10
294.3294920435753
 20
117.22871325507
 30
0.0
 11
294.3294920435753
 21
118.22871325507
 31
0.0
  0
LWPOLYLINE
  5
EF7C87816
330
EF7C85532
100
AcDbEntity
  8
JISSEN
 62
     0
100
AcDbPolyline
 90
       13
 70
     0
 43
0.0
 10
248.7999989176024
 20
153.8692405311446
 42
0.0123075550001654
 10
249.2401697670358
 20
154.0031712222974
 42
0.0889226874667008
 10
251.6032997765015
 20
155.2860725679508
 42
0.1049567332455664
 10
253.2581769271021
 20
157.3038449923805
 42
0.120011216869144
 10
253.7999989176025
 20
159.52871325507
 42
0.1200112168691424
 10
253.2581769271021
 20
161.7535815177595
 42
0.1049567332455653
 10
251.6032997765015
 20
163.7713539421894
 42
0.0889226874666963
 10
249.2401697670358
 20
165.0542552878428
 42
0.0801668980116132
 10
246.2999989176025
 20
165.5287132550701
 42
0.0801668980116128
 10
243.3598280681693
 20
165.0542552878428
 42
0.0889226874666951
 10
240.9966980587034
 20
163.7713539421894
 42
0.1049567332455669
 10
239.3418209081028
 20
161.7535815177595
 42
0.1200112168691447
 10
238.7999989176024
 20
159.52871325507
 42
0.1200112168691455
  0
LINE
  5
EF7C87817
330
EF7C85532
100
AcDbEntity
  8
JISSEN
 62
     0
100
AcDbLine
 10
242.4999989176026
 20
137.5673612824309
 30
0.0
 11
258.4986561177667
 21
137.5673612824309
 31
0.0
  0
LINE
  5
EF7C87818
330
EF7C85532
100
AcDbEntity
  8
JISSEN
 62
     0
100
AcDbLine
 10
253.9999989176026
 20
147.5254011739806
 30
0.0
 11
243.7999989176025
 21
147.5254011739806
 31
0.0
  0
LWPOLYLINE
  5
EF7C87819
330
EF7C85532
100
AcDbEntity
  8
JISSEN
 62
     0
100
AcDbPolyline
 90
        5
 70
     0
 43
0.0
 10
238.7999989176024
 20
159.52871325507
 42
0.1200112168691455
 10
239.3418209081028
 20
157.3038449923805
 42
0.1049567332455674
 10
240.9966980587034
 20
155.2860725679508
 42
0.0889226874667021
 10
243.3598280681693
 20
154.0031712222974
 42
0.012307555000165
 10
243.7999989176025
 20
153.8692405311446
 42
0.0801668980116146
  0
LINE
  5
EF7C8781A
330
EF7C85532
100
AcDbEntity
  8
JISSEN
 62
     0
100
AcDbLine
 10
241.2999989176025
 20
138.7673612824309
 30
0.0
 11
241.2999989176025
 21
144.5673612824309
 31
0.0
  0
LINE
  5
EF7C8781B
330
EF7C85532
100
AcDbEntity
  8
JISSEN
 62
     0
100
AcDbLine
 10
248.7999989176024
 20
129.0287132550701
 30
0.0
 11
248.2999989176025
 21
128.5287132550701
 31
0.0
  0
LINE
  5
EF7C8781C
330
EF7C85532
100
AcDbEntity
  8
JISSEN
 62
     0
100
AcDbLine
 10
249.9205057916298
 20
127.0287132550701
 30
0.0
 11
249.9205057916298
 21
128.5287132550701
 31
0.0
  0
LINE
  5
EF7C8781D
330
EF7C85532
100
AcDbEntity
  8
JISSEN
 62
     0
100
AcDbLine
 10
247.1705057916298
 20
127.0287132550701
 30
0.0
 11
249.9205057916298
 21
127.0287132550701
 31
0.0
  0
LINE
  5
EF7C8781E
330
EF7C85532
100
AcDbEntity
  8
JISSEN
 62
     0
100
AcDbLine
 10
248.7999989176024
 20
137.5673612824309
 30
0.0
 11
248.7999989176024
 21
129.0287132550701
 31
0.0
  0
LINE
  5
EF7C8781F
330
EF7C85532
100
AcDbEntity
  8
JISSEN
 62
     0
100
AcDbLine
 10
243.7999989176025
 20
129.0287132550701
 30
0.0
 11
244.2999989176025
 21
128.5287132550701
 31
0.0
  0
LINE
  5
EF7C87820
330
EF7C85532
100
AcDbEntity
  8
JISSEN
 62
     0
100
AcDbLine
 10
242.9205057916298
 20
128.5287132550701
 30
0.0
 11
242.9205057916298
 21
127.0287132550701
 31
0.0
  0
LINE
  5
EF7C87821
330
EF7C85532
100
AcDbEntity
  8
JISSEN
 62
     0
100
AcDbLine
 10
243.7999989176025
 20
129.0287132550701
 30
0.0
 11
243.7999989176025
 21
137.5673612824309
 31
0.0
  0
LINE
  5
EF7C87822
330
EF7C85532
100
AcDbEntity
  8
JISSEN
 62
     0
100
AcDbLine
 10
242.9205057916298
 20
127.0287132550701
 30
0.0
 11
245.6705057916298
 21
127.0287132550701
 31
0.0
  0
LINE
  5
EF7C87823
330
EF7C85532
100
AcDbEntity
  8
JISSEN
 62
     0
100
AcDbLine
 10
249.9205057916298
 20
128.5287132550701
 30
0.0
 11
242.9205057916298
 21
128.5287132550701
 31
0.0
  0
LINE
  5
EF7C87824
330
EF7C85532
100
AcDbEntity
  8
JISSEN
 62
     0
100
AcDbLine
 10
248.7999989176024
 20
153.8692405311446
 30
0.0
 11
248.7999989176024
 21
147.5254011739806
 31
0.0
  0
LINE
  5
EF7C87825
330
EF7C85532
100
AcDbEntity
  8
JISSEN
 62
     0
100
AcDbLine
 10
243.7999989176025
 20
147.5254011739806
 30
0.0
 11
243.7999989176025
 21
153.8692405311446
 31
0.0
  0
ARC
  5
EF7C87826
330
EF7C85532
100
AcDbEntity
  8
JISSEN
 62
     0
100
AcDbCircle
 10
244.2999989176025
 20
144.5673612824309
 30
0.0
 40
3.0
100
AcDbArc
 50
99.5940682268648
 51
180.0
  0
LWPOLYLINE
  5
EF7C87827
330
EF7C85532
100
AcDbEntity
  8
JISSEN
 62
     0
100
AcDbPolyline
 90
        5
 70
     0
 43
0.0
 10
289.1999989176024
 20
159.52871325507
 42
0.1200112168691455
 10
289.7418209081029
 20
157.3038449923805
 42
0.1049567332455674
 10
291.3966980587034
 20
155.2860725679508
 42
0.0889226874667021
 10
293.7598280681693
 20
154.0031712222974
 42
0.012307555000165
 10
294.1999989176025
 20
153.8692405311446
 42
0.0801668980116146
  0
LWPOLYLINE
  5
EF7C87828
330
EF7C85532
100
AcDbEntity
  8
JISSEN
 62
     0
100
AcDbPolyline
 90
        4
 70
     0
 43
0.0
 10
284.4986561177666
 20
155.5673612824309
 10
284.4986561177666
 20
172.7776245727288
 42
-0.4142135623730951
 10
287.9986561177667
 20
176.2776245727287
 10
288.4986561177667
 20
176.2776245727287
 42
0.4142135623730951
  0
LWPOLYLINE
  5
EF7C87829
330
EF7C85532
100
AcDbEntity
  8
JISSEN
 62
     0
100
AcDbPolyline
 90
        4
 70
     0
 43
0.0
 10
258.4986561177667
 20
137.5673612824309
 10
258.4986561177667
 20
135.0276245727288
 10
284.4986561177666
 20
135.0276245727288
 10
284.4986561177666
 20
137.5673612824307
  0
LINE
  5
EF7C8782A
330
EF7C85532
100
AcDbEntity
  8
JISSEN
 62
     0
100
AcDbLine
 10
258.4986561177667
 20
137.5673612824309
 30
0.0
 11
284.4986561177666
 21
137.5673612824307
 31
0.0
  0
LINE
  5
EF7C8782B
330
EF7C85532
100
AcDbEntity
  8
JISSEN
 62
     0
100
AcDbLine
 10
260.8303761039059
 20
131.9908553982934
 30
0.0
 11
282.1696217312993
 21
131.9908553982934
 31
0.0
  0
LINE
  5
EF7C8782C
330
EF7C85532
100
AcDbEntity
  8
JISSEN
 62
     0
100
AcDbLine
 10
284.4986561177666
 20
155.5673612824309
 30
0.0
 11
253.9999989176026
 21
155.5673612824309
 31
0.0
  0
LINE
  5
EF7C8782D
330
EF7C85532
100
AcDbEntity
  8
JISSEN
 62
     0
100
AcDbLine
 10
285.3564053781533
 20
129.7984782119804
 30
0.0
 11
257.6435924570515
 21
129.7984782119904
 31
0.0
  0
LINE
  5
EF7C8782E
330
EF7C85532
100
AcDbEntity
  8
JISSEN
 62
     0
100
AcDbLine
 10
257.6435924570515
 20
126.7984782119904
 30
0.0
 11
285.3564053781533
 21
126.7984782119907
 31
0.0
  0
CIRCLE
  5
EF7C8782F
330
EF7C85532
100
AcDbEntity
  8
JISSEN
 62
     0
100
AcDbCircle
 10
271.4999989176025
 20
142.5673612824309
 30
0.0
 40
4.001768729385497
  0
LINE
  5
EF7C87830
330
EF7C85532
100
AcDbEntity
  8
JISSEN
 62
     0
100
AcDbLine
 10
260.632156445428
 20
141.8166611274646
 30
0.0
 11
260.632156445428
 21
143.318061437397
 31
0.0
  0
LINE
  5
EF7C87831
330
EF7C85532
100
AcDbEntity
  8
JISSEN
 62
     0
100
AcDbLine
 10
253.9999989176026
 20
137.5673612824309
 30
0.0
 11
253.9999989176026
 21
155.5673612824309
 31
0.0
  0
LINE
  5
EF7C87832
330
EF7C85532
100
AcDbEntity
  8
JISSEN
 62
     0
100
AcDbLine
 10
267.8327953810323
 20
140.4925388593688
 30
0.0
 11
261.5801727753504
 21
140.8180131924818
 31
0.0
  0
ARC
  5
EF7C87833
330
EF7C85532
100
AcDbEntity
  8
JISSEN
 62
     0
100
AcDbCircle
 10
261.6321564454278
 20
141.8166611274646
 30
0.0
 40
1.0
100
AcDbArc
 50
180.0
 51
267.0202120241716
  0
LINE
  5
EF7C87834
330
EF7C85532
100
AcDbEntity
  8
JISSEN
 62
     0
100
AcDbLine
 10
260.9252798831418
 20
135.0276245727288
 30
0.0
 11
260.7920310577021
 21
130.763875237535
 31
0.0
  0
LINE
  5
EF7C87835
330
EF7C85532
100
AcDbEntity
  8
SAISEN
 62
     0
100
AcDbLine
 10
262.0528633604018
 20
131.9908553982934
 30
0.0
 11
262.1477671396376
 21
135.0276245727288
 31
0.0
  0
LINE
  5
EF7C87836
330
EF7C85532
100
AcDbEntity
  8
JISSEN
 62
     0
100
AcDbLine
 10
262.0528633604018
 20
131.9908553982934
 30
0.0
 11
259.799998917602
 21
129.7984782119897
 31
0.0
  0
LINE
  5
EF7C87837
330
EF7C85532
100
AcDbEntity
  8
JISSEN
 62
     0
100
AcDbLine
 10
257.6435924570515
 20
129.7984782119904
 30
0.0
 11
257.6435924570515
 21
126.7984782119904
 31
0.0
  0
LINE
  5
EF7C87838
330
EF7C85532
100
AcDbEntity
  8
JISSEN
 62
     0
100
AcDbLine
 10
264.5717956873268
 20
129.7984782119879
 30
0.0
 11
264.5717956873268
 21
126.7984782119905
 31
0.0
  0
ARC
  5
EF7C87839
330
EF7C85532
100
AcDbEntity
  8
JISSEN
 62
     0
100
AcDbCircle
 10
267.8068035459935
 20
139.9932148918774
 30
0.0
 40
0.5
100
AcDbArc
 50
34.87638431273655
 51
87.02021202417169
  0
LINE
  5
EF7C8783A
330
EF7C85532
100
AcDbEntity
  8
JISSEN
 62
     0
100
AcDbLine
 10
267.8327953810323
 20
144.6421837054929
 30
0.0
 11
261.5801727753504
 21
144.3167093723796
 31
0.0
  0
ARC
  5
EF7C8783B
330
EF7C85532
100
AcDbEntity
  8
JISSEN
 62
     0
100
AcDbCircle
 10
261.6321564454278
 20
143.318061437397
 30
0.0
 40
1.0
100
AcDbArc
 50
92.9797879758283
 51
180.0
  0
ARC
  5
EF7C8783C
330
EF7C85532
100
AcDbEntity
  8
JISSEN
 62
     0
100
AcDbCircle
 10
267.8068035459935
 20
145.1415076729844
 30
0.0
 40
0.5
100
AcDbArc
 50
272.9797879758283
 51
325.1236156872672
  0
LINE
  5
EF7C8783D
330
EF7C85532
100
AcDbEntity
  8
JISSEN
 62
     0
100
AcDbLine
 10
282.367841389777
 20
141.8166611274646
 30
0.0
 11
282.367841389777
 21
143.318061437397
 31
0.0
  0
LINE
  5
EF7C8783E
330
EF7C85532
100
AcDbEntity
  8
JISSEN
 62
     0
100
AcDbLine
 10
288.9999989176026
 20
155.5673612824309
 30
0.0
 11
288.9999989176026
 21
137.5673612824309
 31
0.0
  0
LINE
  5
EF7C8783F
330
EF7C85532
100
AcDbEntity
  8
JISSEN
 62
     0
100
AcDbLine
 10
275.1672024541726
 20
140.4925388593688
 30
0.0
 11
281.4198250598548
 21
140.8180131924818
 31
0.0
  0
ARC
  5
EF7C87840
330
EF7C85532
100
AcDbEntity
  8
JISSEN
 62
     0
100
AcDbCircle
 10
275.1931942892115
 20
139.9932148918774
 30
0.0
 40
0.5
100
AcDbArc
 50
92.9797879758283
 51
145.1236156872634
  0
LINE
  5
EF7C87841
330
EF7C85532
100
AcDbEntity
  8
JISSEN
 62
     0
100
AcDbLine
 10
278.4282021478781
 20
129.7984782119879
 30
0.0
 11
278.4282021478781
 21
126.7984782119905
 31
0.0
  0
ARC
  5
EF7C87842
330
EF7C85532
100
AcDbEntity
  8
JISSEN
 62
     0
100
AcDbCircle
 10
281.3678413897769
 20
141.8166611274646
 30
0.0
 40
1.0
100
AcDbArc
 50
272.9797879758283
 51
0.0
  0
LINE
  5
EF7C87843
330
EF7C85532
100
AcDbEntity
  8
JISSEN
 62
     0
100
AcDbLine
 10
282.0747179520631
 20
135.0276245727288
 30
0.0
 11
282.2071075359358
 21
130.7913695936567
 31
0.0
  0
LINE
  5
EF7C87844
330
EF7C85532
100
AcDbEntity
  8
SAISEN
 62
     0
100
AcDbLine
 10
280.9471344748036
 20
131.9908553982934
 30
0.0
 11
280.8522306955675
 21
135.0276245727288
 31
0.0
  0
LINE
  5
EF7C87845
330
EF7C85532
100
AcDbEntity
  8
JISSEN
 62
     0
100
AcDbLine
 10
280.9471344748036
 20
131.9908553982934
 30
0.0
 11
283.199998917603
 21
129.7984782119897
 31
0.0
  0
LINE
  5
EF7C87846
330
EF7C85532
100
AcDbEntity
  8
JISSEN
 62
     0
100
AcDbLine
 10
293.0794920435753
 20
128.5287132550701
 30
0.0
 11
293.0794920435753
 21
127.0287132550701
 31
0.0
  0
LINE
  5
EF7C87847
330
EF7C85532
100
AcDbEntity
  8
JISSEN
 62
     0
100
AcDbLine
 10
285.3564053781533
 20
129.7984782119904
 30
0.0
 11
285.3564053781533
 21
126.7984782119904
 31
0.0
  0
LINE
  5
EF7C87848
330
EF7C85532
100
AcDbEntity
  8
JISSEN
 62
     0
100
AcDbLine
 10
294.1999989176025
 20
129.0287132550701
 30
0.0
 11
294.6999989176024
 21
128.5287132550701
 31
0.0
  0
LINE
  5
EF7C87849
330
EF7C85532
100
AcDbEntity
  8
JISSEN
 62
     0
100
AcDbLine
 10
294.1999989176025
 20
129.0287132550701
 30
0.0
 11
294.1999989176025
 21
137.5673612824309
 31
0.0
  0
LINE
  5
EF7C8784A
330
EF7C85532
100
AcDbEntity
  8
JISSEN
 62
     0
100
AcDbLine
 10
275.1672024541726
 20
144.6421837054929
 30
0.0
 11
281.4198250598548
 21
144.3167093723796
 31
0.0
  0
ARC
  5
EF7C8784B
330
EF7C85532
100
AcDbEntity
  8
JISSEN
 62
     0
100
AcDbCircle
 10
275.1931942892115
 20
145.1415076729844
 30
0.0
 40
0.5
100
AcDbArc
 50
214.876384312734
 51
267.0202120241716
  0
ARC
  5
EF7C8784C
330
EF7C85532
100
AcDbEntity
  8
JISSEN
 62
     0
100
AcDbCircle
 10
281.3678413897769
 20
143.318061437397
 30
0.0
 40
1.0
100
AcDbArc
 50
0.0
 51
87.02021202417169
  0
LINE
  5
EF7C8784D
330
EF7C85532
100
AcDbEntity
  8
JISSEN
 62
     0
100
AcDbLine
 10
294.1999989176025
 20
147.5254011739806
 30
0.0
 11
294.1999989176025
 21
153.8692405311446
 31
0.0
  0
LINE
  5
EF7C8784E
330
EF7C85532
100
AcDbEntity
  8
JISSEN
 62
     0
100
AcDbLine
 10
288.9999989176026
 20
155.5673612824309
 30
0.0
 11
284.4986561177666
 21
155.5673612824309
 31
0.0
  0
LINE
  5
EF7C8784F
330
EF7C85532
100
AcDbEntity
  8
JISSEN
 62
     0
100
AcDbLine
 10
300.4999989176027
 20
137.5673612824309
 30
0.0
 11
300.4999989176027
 21
116.0673612824308
 31
0.0
  0
LINE
  5
EF7C87850
330
EF7C85532
100
AcDbEntity
  8
JISSEN
 62
     0
100
AcDbLine
 10
301.6999989176024
 20
116.0673612824308
 30
0.0
 11
301.6999989176024
 21
138.7673612824309
 31
0.0
  0
LINE
  5
EF7C87851
330
EF7C85532
100
AcDbEntity
  8
JISSEN
 62
     0
100
AcDbLine
 10
297.3294920435753
 20
122.5287132550701
 30
0.0
 11
297.3294920435753
 21
127.0287132550701
 31
0.0
  0
LINE
  5
EF7C87852
330
EF7C85532
100
AcDbEntity
  8
JISSEN
 62
     0
100
AcDbLine
 10
295.8294920435753
 20
127.0287132550701
 30
0.0
 11
295.8294920435753
 21
122.5287132550701
 31
0.0
  0
TEXT
  5
EF7C87853
330
EF7C85532
100
AcDbEntity
  8
SUNPOU
100
AcDbText
 10
321.8932077128282
 20
111.3172257764518
 30
0.0
 40
4.5
  1
天井ボード
  7
K
100
AcDbText
  0
LINE
  5
EF7C87854
330
EF7C85532
100
AcDbEntity
  8
SUNPOU
100
AcDbLine
 10
319.8932077128282
 20
110.7045222902064
 30
0.0
 11
348.2180594026042
 21
110.7045222902064
 31
0.0
  0
TEXT
  5
EF7C87855
330
EF7C85532
100
AcDbEntity
  8
SUNPOU
100
AcDbText
 10
306.1128706625197
 20
70.68971483411022
 30
0.0
 40
4.5
  1
T バーチャンネル
  7
K
100
AcDbText
  0
LINE
  5
EF7C87856
330
EF7C85532
100
AcDbEntity
  8
SUNPOU
100
AcDbLine
 10
303.2631639347953
 20
70.38774692382336
 30
0.0
 11
349.9662937808673
 21
70.38774692382336
 31
0.0
  0
LINE
  5
EF7C87857
330
EF7C85532
100
AcDbEntity
  8
0
 62
     0
100
AcDbLine
 10
302.3294920435753
 20
91.41059573333606
 30
0.0
 11
311.4976095653094
 21
100.5787132550701
 31
0.0
  0
LINE
  5
EF7C87858
330
EF7C85532
100
AcDbEntity
  8
0
 62
     0
100
AcDbLine
 10
303.9170269477255
 20
88.57871325507012
 30
0.0
 11
315.9170269477255
 21
100.5787132550701
 31
0.0
  0
LWPOLYLINE
  5
EF7C87859
330
EF7C85532
100
AcDbEntity
  8
JISSEN
 62
     0
100
AcDbPolyline
 90
        8
 70
     1
 43
0.0
 10
326.1721351578333
 20
88.57871325507012
 10
302.3294920435753
 20
88.57871325507012
 10
302.3294920435753
 20
100.5787132550701
 10
323.2340885989238
 20
100.5787132550701
 42
-0.202120388705406
 10
321.9033713056123
 20
98.45553430671699
 42
0.5713525608206203
 10
322.1309748844098
 20
95.59677827912741
 42
-0.3987555679944311
 10
323.2595092959471
 20
92.58725621357156
 42
0.4814910058598528
 10
324.7673830054801
 20
89.809681898733
 42
-0.2786868946516943
  0
LINE
  5
EF7C8785A
330
EF7C85532
100
AcDbEntity
  8
0
 62
     0
100
AcDbLine
 10
308.3364443301412
 20
88.57871325507012
 30
0.0
 11
320.3364443301412
 21
100.5787132550701
 31
0.0
  0
LINE
  5
EF7C8785B
330
EF7C85532
100
AcDbEntity
  8
0
 62
     0
100
AcDbLine
 10
312.7558617125572
 20
88.57871325507012
 30
0.0
 11
321.1968682590468
 21
97.01971980155972
 31
0.0
  0
LINE
  5
EF7C8785C
330
EF7C85532
100
AcDbEntity
  8
0
 62
     0
100
AcDbLine
 10
317.1752790949732
 20
88.57871325507012
 30
0.0
 11
323.1773015443478
 21
94.58073570444485
 31
0.0
  0
LINE
  5
EF7C8785D
330
EF7C85532
100
AcDbEntity
  8
JISSEN
 62
     0
100
AcDbLine
 10
295.8294920435753
 20
118.22871325507
 30
0.0
 11
295.8294920435753
 21
88.57871325507012
 31
0.0
  0
LINE
  5
EF7C8785E
330
EF7C85532
100
AcDbEntity
  8
JISSEN
 62
     0
100
AcDbLine
 10
297.3294920435753
 20
88.57871325507012
 30
0.0
 11
297.3294920435753
 21
118.22871325507
 31
0.0
  0
LINE
  5
EF7C8785F
330
EF7C85532
100
AcDbEntity
  8
JISSEN
 62
     0
100
AcDbLine
 10
309.0794920435754
 20
88.57871325507012
 30
0.0
 11
297.3294920435753
 21
88.57871325507012
 31
0.0
  0
LINE
  5
EF7C87860
330
EF7C85532
100
AcDbEntity
  8
0
 62
     0
100
AcDbLine
 10
304.7976016476348
 20
89.45928795497962
 30
0.0
 11
304.7976016476348
 21
89.45928795497962
 31
0.0
  0
LINE
  5
EF7C87861
330
EF7C85532
100
AcDbEntity
  8
0
 62
     0
100
AcDbLine
 10
316.9509994492786
 20
92.77385099179154
 30
0.0
 11
316.9509994492786
 21
92.77385099179154
 31
0.0
  0
LINE
  5
EF7C87862
330
EF7C85532
100
AcDbEntity
  8
0
 62
     0
100
AcDbLine
 10
310.8743005484567
 20
91.11656947338557
 30
0.0
 11
310.8743005484567
 21
91.11656947338557
 31
0.0
  0
LINE
  5
EF7C87863
330
EF7C85532
100
AcDbEntity
  8
JISSEN
 62
     0
100
AcDbLine
 10
309.0794920435754
 20
86.87871325507009
 30
0.0
 11
309.0794920435754
 21
88.57871325507012
 31
0.0
  0
LINE
  5
EF7C87864
330
EF7C85532
100
AcDbEntity
  8
0
 62
     0
100
AcDbLine
 10
326.0141138598048
 20
88.57871325507012
 30
0.0
 11
326.1306577378848
 21
88.69525713315002
 31
0.0
  0
LINE
  5
EF7C87865
330
EF7C85532
100
AcDbEntity
  8
SUNPOU
100
AcDbLine
 10
309.9151826757038
 20
100.5787132550701
 30
0.0
 11
319.8932077128282
 21
110.7045222902064
 31
0.0
  0
LINE
  5
EF7C87866
330
EF7C85532
100
AcDbEntity
  8
0
 62
     0
100
AcDbLine
 10
302.3294920435753
 20
95.83001311575205
 30
0.0
 11
307.0073103388426
 21
100.5078314110193
 31
0.0
  0
LINE
  5
EF7C87867
330
EF7C85532
100
AcDbEntity
  8
0
 62
     0
100
AcDbLine
 10
312.5315820668626
 20
97.19326837420746
 30
0.0
 11
312.5315820668626
 21
97.19326837420746
 31
0.0
  0
LINE
  5
EF7C87868
330
EF7C85532
100
AcDbEntity
  8
0
 62
     0
100
AcDbLine
 10
306.4548831660407
 20
95.53598685580151
 30
0.0
 11
306.4548831660407
 21
95.53598685580151
 31
0.0
  0
LINE
  5
EF7C87869
330
EF7C85532
100
AcDbEntity
  8
SUNPOU
100
AcDbLine
 10
309.9151826757038
 20
100.5787132550701
 30
0.0
 11
313.9325404655883
 21
102.9376793368474
 31
0.0
  0
LINE
  5
EF7C8786A
330
EF7C85532
100
AcDbEntity
  8
SUNPOU
100
AcDbLine
 10
309.9151826757038
 20
100.5787132550701
 30
0.0
 11
312.2148335369461
 21
104.6303167034976
 31
0.0
  0
LINE
  5
EF7C8786B
330
EF7C85532
100
AcDbEntity
  8
JISSEN
 62
     0
100
AcDbLine
 10
298.8294920435754
 20
118.22871325507
 30
0.0
 11
298.8294920435754
 21
117.22871325507
 31
0.0
  0
LINE
  5
EF7C8786C
330
EF7C85532
100
AcDbEntity
  8
JISSEN
 62
     0
100
AcDbLine
 10
298.8294920435754
 20
117.22871325507
 30
0.0
 11
300.0794920435753
 21
117.22871325507
 31
0.0
  0
LINE
  5
EF7C8786D
330
EF7C85532
100
AcDbEntity
  8
JISSEN
 62
     0
100
AcDbLine
 10
300.0794920435753
 20
117.22871325507
 30
0.0
 11
300.0794920435753
 21
120.22871325507
 31
0.0
  0
ARC
  5
EF7C8786E
330
EF7C85532
100
AcDbEntity
  8
JISSEN
 62
     0
100
AcDbCircle
 10
299.9999989176026
 20
116.0673612824308
 30
0.0
 40
1.699999999999992
100
AcDbArc
 50
193.8621414457761
 51
0.0
  0
LINE
  5
EF7C8786F
330
EF7C85532
100
AcDbEntity
  8
JISSEN
 62
     0
100
AcDbLine
 10
299.4999989176026
 20
116.0673612824308
 30
0.0
 11
298.4999989176026
 21
117.7994120899997
 31
0.0
  0
ARC
  5
EF7C87870
330
EF7C85532
100
AcDbEntity
  8
JISSEN
 62
     0
100
AcDbCircle
 10
299.9999989176026
 20
116.0673612824308
 30
0.0
 40
0.5
100
AcDbArc
 50
179.9999999999966
 51
0.0
  0
LINE
  5
EF7C87871
330
EF7C85532
100
AcDbEntity
  8
JISSEN
 62
     0
100
AcDbLine
 10
298.4999989176026
 20
117.7994120899997
 30
0.0
 11
297.4607684330612
 21
117.1994120899997
 31
0.0
  0
LINE
  5
EF7C87872
330
EF7C85532
100
AcDbEntity
  8
JISSEN
 62
     0
100
AcDbLine
 10
297.4607684330612
 20
117.1994120899997
 30
0.0
 11
298.3495114144044
 21
115.6600640914432
 31
0.0
  0
LINE
  5
EF7C87873
330
EF7C85532
100
AcDbEntity
  8
JISSEN
 62
     0
100
AcDbLine
 10
297.3294920435753
 20
118.22871325507
 30
0.0
 11
298.8294920435754
 21
118.22871325507
 31
0.0
  0
LINE
  5
EF7C87874
330
EF7C85532
100
AcDbEntity
  8
JISSEN
 62
     0
100
AcDbLine
 10
300.0794920435753
 20
120.22871325507
 30
0.0
 11
297.3294920435753
 21
122.5287132550701
 31
0.0
  0
LINE
  5
EF7C87875
330
EF7C85532
100
AcDbEntity
  8
0
 62
     0
100
AcDbLine
 10
319.7131353132887
 20
99.95540423821736
 30
0.0
 11
320.3364443301412
 21
100.5787132550699
 31
0.0
  0
LINE
  5
EF7C87876
330
EF7C85532
100
AcDbEntity
  8
0
 62
     0
100
AcDbLine
 10
318.6082809676846
 20
98.85054989261341
 30
0.0
 11
318.6082809676846
 21
98.85054989261341
 31
0.0
  0
LINE
  5
EF7C87877
330
EF7C85532
100
AcDbEntity
  8
0
 62
     0
100
AcDbLine
 10
323.0276983501003
 20
94.43113251019752
 30
0.0
 11
323.0276983501003
 21
94.43113251019752
 31
0.0
  0
TEXT
  5
EF7C87878
330
EF7C85532
100
AcDbEntity
  8
SUNPOU
100
AcDbText
 10
315.8648166895794
 20
156.7633018929995
 30
0.0
 40
4.5
  1
振れ止め金具
  7
K
100
AcDbText
  0
LINE
  5
EF7C87879
330
EF7C85532
100
AcDbEntity
  8
SUNPOU
100
AcDbLine
 10
313.8648166895794
 20
156.074576765624
 30
0.0
 11
348.1896683793554
 21
156.074576765624
 31
0.0
  0
LINE
  5
EF7C8787A
330
EF7C85532
100
AcDbEntity
  8
JISSEN
 62
     0
100
AcDbLine
 10
301.6999989176024
 20
144.5673612824309
 30
0.0
 11
301.6999989176024
 21
138.7673612824309
 31
0.0
  0
LINE
  5
EF7C8787B
330
EF7C85532
100
AcDbEntity
  8
JISSEN
 62
     0
100
AcDbLine
 10
299.1999989176024
 20
129.0287132550701
 30
0.0
 11
298.6999989176025
 21
128.5287132550701
 31
0.0
  0
LINE
  5
EF7C8787C
330
EF7C85532
100
AcDbEntity
  8
JISSEN
 62
     0
100
AcDbLine
 10
300.0794920435753
 20
127.0287132550701
 30
0.0
 11
300.0794920435753
 21
128.5287132550701
 31
0.0
  0
LINE
  5
EF7C8787D
330
EF7C85532
100
AcDbEntity
  8
JISSEN
 62
     0
100
AcDbLine
 10
299.1999989176024
 20
137.5673612824309
 30
0.0
 11
299.1999989176024
 21
129.0287132550701
 31
0.0
  0
LINE
  5
EF7C8787E
330
EF7C85532
100
AcDbEntity
  8
JISSEN
 62
     0
100
AcDbLine
 10
297.3294920435753
 20
127.0287132550701
 30
0.0
 11
300.0794920435753
 21
127.0287132550701
 31
0.0
  0
LINE
  5
EF7C8787F
330
EF7C85532
100
AcDbEntity
  8
SUNPOU
100
AcDbLine
 10
301.6874634627325
 20
144.8413240382781
 30
0.0
 11
313.8648166895794
 21
156.074576765624
 31
0.0
  0
LINE
  5
EF7C87880
330
EF7C85532
100
AcDbEntity
  8
SUNPOU
100
AcDbLine
 10
301.6874634627325
 20
144.8413240382781
 30
0.0
 11
305.8126386326224
 21
147.0062292104841
 31
0.0
  0
LINE
  5
EF7C87881
330
EF7C85532
100
AcDbEntity
  8
SUNPOU
100
AcDbLine
 10
301.6874634627325
 20
144.8413240382781
 30
0.0
 11
304.1775173688147
 21
148.7787744991379
 31
0.0
  0
LINE
  5
EF7C87882
330
EF7C85532
100
AcDbEntity
  8
JISSEN
 62
     0
100
AcDbLine
 10
299.1999989176024
 20
153.8692405311446
 30
0.0
 11
299.1999989176024
 21
147.5254011739806
 31
0.0
  0
ARC
  5
EF7C87883
330
EF7C85532
100
AcDbEntity
  8
JISSEN
 62
     0
100
AcDbCircle
 10
298.6999989176025
 20
144.5673612824309
 30
0.0
 40
3.0
100
AcDbArc
 50
0.0
 51
80.40593177313521
  0
INSERT
  5
EF7C87884
330
EF7C85532
100
AcDbEntity
  8
WAKU
100
AcDbBlockReference
  2
WAKU
 10
180.9999992759999
 20
0.0
 30
0.0
 41
181.0
 42
283.0
 43
181.0
  0
MTEXT
  5
EF7C87885
330
EF7C85532
100
AcDbEntity
  8
SUNPOU
100
AcDbMText
 10
271.499998914
 20
254.0828664346347
 30
0.0
 40
3.0
 41
0.0
 71
     5
 72
     1
  1
\A1;%%c25
  7
K
1001
ACAD
1000
MTEXTBEGIN
1070
    73
1070
     1
1070
    44
1040
1.0
1070
    74
1070
     0
1000
MTEXTEND
1000
MTEXTBEGIN
1070
    73
1070
     1
1070
    44
1040
1.0
1070
    74
1070
     0
1000
MTEXTEND
  0
LINE
  5
EF7C87886
330
EF7C85532
100
AcDbEntity
  8
JISSEN
100
AcDbLine
 10
258.999998914
 20
234.7069753526299
 30
0.0
 11
197.4365727924013
 21
234.7069753526299
 31
0.0
  0
LINE
  5
EF7C87887
330
EF7C85532
100
AcDbEntity
  8
JISSEN
100
AcDbLine
 10
258.999998914
 20
242.7069753526299
 30
0.0
 11
197.4365727924013
 21
242.7069753526302
 31
0.0
  0
HATCH
  5
EF7C87888
330
EF7C85532
100
AcDbEntity
  8
HATCH
100
AcDbHatch
 10
0.0
 20
0.0
 30
0.0
210
0.0
220
0.0
230
1.0
  2
ANSI31
 70
     0
 71
     0
 91
        2
 92
        7
 72
     0
 73
     1
 93
        4
 10
345.5634250355989
 20
242.7069753526299
 10
283.999998914
 20
242.7069753526299
 10
283.999998914
 20
234.7069753526299
 10
345.5634250355989
 20
234.7069753526299
 97
        0
 92
        7
 72
     0
 73
     1
 93
        4
 10
258.999998914
 20
242.70697535263
 10
197.4365727924013
 20
242.7069753526302
 10
197.4365727924013
 20
234.7069753526302
 10
258.999998914
 20
234.70697535263
 97
        0
 75
     0
 76
     1
 52
0.0
 41
20.0
 77
     0
 78
     1
 53
45.0
 43
181.4999154759839
 44
195.6283811920743
 45
-1.767766952966368
 46
1.767766952966368
 79
     0
 47
0.1733828905373426
 98
        2
 10
303.1131983211343
 20
238.9565665533528
 10
244.2885865653518
 20
238.7831836180593
  0
LINE
  5
EF7C87889
330
EF7C85532
100
AcDbEntity
  8
JISSEN
100
AcDbLine
 10
283.999998914
 20
234.7069753526299
 30
0.0
 11
345.5634250355989
 21
234.7069753526299
 31
0.0
  0
LINE
  5
EF7C8788A
330
EF7C85532
100
AcDbEntity
  8
SUNPOU
100
AcDbLine
 10
303.7623375615283
 20
242.7069753526299
 30
0.0
 11
307.3391870050548
 21
251.4306407426285
 31
0.0
  0
LINE
  5
EF7C8788B
330
EF7C85532
100
AcDbEntity
  8
JISSEN
100
AcDbLine
 10
345.5634250355989
 20
242.7069753526299
 30
0.0
 11
283.999998914
 21
242.7069753526299
 31
0.0
  0
LINE
  5
EF7C8788C
330
EF7C85532
100
AcDbEntity
  8
SUNPOU
100
AcDbLine
 10
283.999998914
 20
252.1320623562297
 30
0.0
 11
258.999998914
 21
252.1320623562297
 31
0.0
  0
LINE
  5
EF7C8788D
330
EF7C85532
100
AcDbEntity
  8
JISSEN
100
AcDbLine
 10
283.999998914
 20
234.7069753526299
 30
0.0
 11
258.999998914
 21
234.7069753526299
 31
0.0
  0
LINE
  5
EF7C8788F
330
EF7C85532
100
AcDbEntity
  8
JISSEN
100
AcDbLine
 10
258.649998914
 20
234.2069753526299
 30
0.0
 11
285.4999989139999
 21
234.2069753526303
 31
0.0
  0
LINE
  5
EF7C87890
330
EF7C85532
100
AcDbEntity
  8
JISSEN
100
AcDbLine
 10
258.999998914
 20
234.7069753526299
 30
0.0
 11
258.999998914
 21
242.7069753526299
 31
0.0
  0
LINE
  5
EF7C87894
330
EF7C85532
100
AcDbEntity
  8
JISSEN
100
AcDbLine
 10
257.4999989139998
 20
234.7069753526299
 30
0.0
 11
257.4999989139998
 21
234.2069753526299
 31
0.0
  0
LINE
  5
EF7C87895
330
EF7C85532
100
AcDbEntity
  8
JISSEN
100
AcDbLine
 10
257.4999989139998
 20
234.2069753526299
 30
0.0
 11
258.649998914
 21
234.2069753526299
 31
0.0
  0
LINE
  5
EF7C87898
330
EF7C85532
100
AcDbEntity
  8
SUNPOU
100
AcDbLine
 10
258.999998914
 20
243.7069753526301
 30
0.0
 11
258.999998914
 21
253.1320623562297
 31
0.0
  0
INSERT
  5
EF7C87899
330
EF7C85532
100
AcDbEntity
  8
SUNPOU
100
AcDbBlockReference
  2
ARROW
 10
258.999998914
 20
252.1320623562297
 30
0.0
 41
1.5
 42
1.5
 43
1.5
 50
180.0
  0
LINE
  5
EF7C8789A
330
EF7C85532
100
AcDbEntity
  8
JISSEN
100
AcDbLine
 10
283.999998914
 20
234.7069753526299
 30
0.0
 11
283.999998914
 21
242.7069753526299
 31
0.0
  0
LINE
  5
EF7C8789C
330
EF7C85532
100
AcDbEntity
  8
JISSEN
100
AcDbLine
 10
285.4999989139999
 20
234.2069753526299
 30
0.0
 11
284.3499989139998
 21
234.2069753526299
 31
0.0
  0
LINE
  5
EF7C8789E
330
EF7C85532
100
AcDbEntity
  8
JISSEN
100
AcDbLine
 10
285.4999989139999
 20
234.7069753526299
 30
0.0
 11
285.4999989139999
 21
234.2069753526299
 31
0.0
  0
LINE
  5
EF7C8789F
330
EF7C85532
100
AcDbEntity
  8
SUNPOU
100
AcDbLine
 10
283.999998914
 20
243.7069753526301
 30
0.0
 11
283.999998914
 21
253.1320623562297
 31
0.0
  0
INSERT
  5
EF7C878A0
330
EF7C85532
100
AcDbEntity
  8
SUNPOU
100
AcDbBlockReference
  2
ARROW
 10
283.999998914
 20
252.1320623562297
 30
0.0
 41
1.5
 42
1.5
 43
1.5
  0
INSERT
  5
EF7C878A1
330
EF7C85532
100
AcDbEntity
  8
SUNPOU
100
AcDbBlockReference
  2
ARROW
 10
303.7623375615283
 20
242.7069753526299
 30
0.0
 41
1.5
 42
1.5
 43
1.5
 50
247.705546370749
  0
TEXT
  5
EF7C878A2
330
EF7C85532
100
AcDbEntity
  8
SUNPOU
100
AcDbText
 10
309.9507582637558
 20
251.9155393813229
 30
0.0
 40
4.5
  1
設備プレート
  7
K
100
AcDbText
  0
LINE
  5
EF7C878A3
330
EF7C85532
100
AcDbEntity
  8
SUNPOU
100
AcDbLine
 10
307.3391870050548
 20
251.4306407426285
 30
0.0
 11
341.3756099535319
 21
251.4306407426285
 31
0.0
  0
TEXT
  5
EF7C878CF
330
EF7C85532
100
AcDbEntity
  8
SUNPOU
100
AcDbText
 10
323.5208733956624
 20
7.849423569401778
 30
0.0
 40
3.0
  1
X  スリーブ取付状態
  7
K
100
AcDbText
  0
TEXT
  5
EF7C878D0
330
EF7C85532
100
AcDbEntity
  8
SUNPOU
100
AcDbText
 10
323.5208733956624
 20
2.849423569401778
 30
0.0
 40
3.0
  1
尺度　1/1
  7
K
100
AcDbText
  0
INSERT
  5
EF7C879A0
330
EF7C85532
100
AcDbEntity
  8
WAKU
100
AcDbBlockReference
  2
WAKU
 10
361.9999985519999
 20
0.0
 30
0.0
 41
181.0
 42
283.0
 43
181.0
  0
LWPOLYLINE
  5
EF7C879A1
330
EF7C85532
100
AcDbEntity
  8
JISSEN
 62
     0
100
AcDbPolyline
 90
        4
 70
     0
 43
0.0
 10
465.4986553937668
 20
155.5673612824309
 10
465.4986553937668
 20
172.7776245727288
 42
-0.4142135623730951
 10
468.9986553937668
 20
176.2776245727287
 10
469.4986553937668
 20
176.2776245727287
 42
0.4142135623730951
  0
LWPOLYLINE
  5
EF7C879A2
330
EF7C85532
100
AcDbEntity
  8
JISSEN
 62
     0
100
AcDbPolyline
 90
       11
 70
     0
 43
0.0
 10
469.4986553937668
 20
176.2776245727287
 42
0.4142135623730951
 10
472.9986553937668
 20
179.7776245727288
 10
472.9986553937668
 20
205.0276245727288
 10
431.9986553937668
 20
205.0276245727288
 10
431.9986553937668
 20
181.0276245727288
 10
431.9986553937668
 20
179.7776245727288
 42
0.4142135623730951
 10
435.4986553937668
 20
176.2776245727287
 10
435.9986553937668
 20
176.2776245727287
 42
-0.4142135623730951
 10
439.4986553937668
 20
172.7776245727288
 10
439.4986553937668
 20
171.5276245727288
 10
439.4986553937668
 20
155.5673612824309
  0
LINE
  5
EF7C879A3
330
EF7C85532
100
AcDbEntity
  8
JISSEN
 62
     0
100
AcDbLine
 10
443.052862636402
 20
131.9908553982934
 30
0.0
 11
440.7999981936021
 21
129.7984782119897
 31
0.0
  0
LINE
  5
EF7C879A4
330
EF7C85532
100
AcDbEntity
  8
JISSEN
 62
     0
100
AcDbLine
 10
438.6435917330516
 20
126.7984782119904
 30
0.0
 11
466.3564046541536
 21
126.7984782119907
 31
0.0
  0
LINE
  5
EF7C879A5
330
EF7C85532
100
AcDbEntity
  8
JISSEN
 62
     0
100
AcDbLine
 10
466.3564046541536
 20
129.7984782119804
 30
0.0
 11
438.6435917330516
 21
129.7984782119904
 31
0.0
  0
LINE
  5
EF7C879A6
330
EF7C85532
100
AcDbEntity
  8
JISSEN
 62
     0
100
AcDbLine
 10
465.4986553937668
 20
155.5673612824309
 30
0.0
 11
434.9999981936028
 21
155.5673612824309
 31
0.0
  0
LINE
  5
EF7C879A7
330
EF7C85532
100
AcDbEntity
  8
JISSEN
 62
     0
100
AcDbLine
 10
439.4986553937668
 20
137.5673612824309
 30
0.0
 11
465.4986553937668
 21
137.5673612824307
 31
0.0
  0
LWPOLYLINE
  5
EF7C879A8
330
EF7C85532
100
AcDbEntity
  8
JISSEN
 62
     0
100
AcDbPolyline
 90
        4
 70
     0
 43
0.0
 10
439.4986553937668
 20
137.5673612824309
 10
439.4986553937668
 20
135.0276245727288
 10
465.4986553937668
 20
135.0276245727288
 10
465.4986553937668
 20
137.5673612824307
  0
LINE
  5
EF7C879A9
330
EF7C85532
100
AcDbEntity
  8
JISSEN
 62
     0
100
AcDbLine
 10
452.4999981900001
 20
124.6984782133165
 30
0.0
 11
440.7999981930417
 21
124.6984782133165
 31
0.0
  0
LINE
  5
EF7C879AA
330
EF7C85532
100
AcDbEntity
  8
JISSEN
 62
     0
100
AcDbLine
 10
440.7999981930417
 20
94.64856672946943
 30
0.0
 11
443.8966589393412
 21
94.64856672946943
 31
0.0
  0
LINE
  5
EF7C879AB
330
EF7C85532
100
AcDbEntity
  8
JISSEN
 62
     0
100
AcDbLine
 10
440.7999981930417
 20
97.6984782225467
 30
0.0
 11
443.8966589393412
 21
97.6984782225467
 31
0.0
  0
LINE
  5
EF7C879AF
330
EF7C85532
100
AcDbEntity
  8
JISSEN
 62
     0
100
AcDbLine
 10
441.3102022745416
 20
89.19847822254665
 30
0.0
 11
440.7999981930417
 21
89.7086823040467
 31
0.0
  0
LINE
  5
EF7C879B0
330
EF7C85532
100
AcDbEntity
  8
JISSEN
 62
     0
100
AcDbLine
 10
440.7999981930417
 20
89.7086823040467
 30
0.0
 11
464.1999981869575
 21
89.7086823040467
 31
0.0
  0
HATCH
  5
EF7C879B1
330
EF7C85532
100
AcDbEntity
  8
JISSEN
100
AcDbHatch
 10
0.0
 20
0.0
 30
0.0
210
0.0
220
0.0
230
1.0
  2
ANSI31
 70
     0
 71
     0
 91
        2
 92
        7
 72
     0
 73
     1
 93
       25
 10
478.3294913195756
 20
118.22871325507
 10
479.8294913195754
 20
118.22871325507
 10
479.8294913195754
 20
117.22871325507
 10
481.0794913195755
 20
117.22871325507
 10
481.0794913195755
 20
120.22871325507
 10
478.3294913195756
 20
122.5287132550701
 10
478.3294913195756
 20
127.0287132550701
 10
481.0794913195755
 20
127.0287132550701
 10
481.0794913195755
 20
128.5287132550701
 10
474.0794913195754
 20
128.5287132550701
 10
474.0794913195754
 20
127.0287132550701
 10
476.8294913195756
 20
127.0287132550701
 10
476.8294913195756
 20
122.5287132550701
 10
474.0794913195754
 20
120.2287132550702
 10
474.0794913195754
 20
117.22871325507
 10
475.3294913195754
 20
117.22871325507
 10
475.3294913195754
 20
118.22871325507
 10
476.8294913195756
 20
118.22871325507
 10
476.8294913195756
 20
88.57871325507012
 10
465.429491319576
 20
88.57871325507012
 10
465.4294913195756
 20
86.87871325507014
 10
490.0794913195754
 20
86.87871325507005
 10
490.0794913195754
 20
88.57871325507012
 10
483.3294913195754
 20
88.57871325507012
 10
478.3294913195756
 20
88.57871325507012
 97
        0
 92
        7
 72
     0
 73
     1
 93
       24
 10
428.1705050676301
 20
118.22871325507
 10
429.6705050676298
 20
118.22871325507
 10
429.6705050676298
 20
117.22871325507
 10
430.9205050676298
 20
117.22871325507
 10
430.9205050676298
 20
120.2287132550702
 10
428.17050506763
 20
122.5287132550699
 10
428.17050506763
 20
127.0287132550701
 10
430.9205050676298
 20
127.0287132550701
 10
430.9205050676298
 20
128.5287132550701
 10
423.9205050676298
 20
128.5287132550701
 10
423.9205050676298
 20
127.0287132550701
 10
426.6705050676298
 20
127.0287132550701
 10
426.6705050676298
 20
122.5287132550701
 10
423.9205050676298
 20
120.2287132550702
 10
423.9205050676298
 20
117.22871325507
 10
425.1705050676298
 20
117.22871325507
 10
425.1705050676298
 20
118.22871325507
 10
426.6705050676298
 20
118.22871325507
 10
426.6705050676301
 20
88.57871325507012
 10
414.9205050676298
 20
88.57871325507012
 10
414.9205050676298
 20
86.87871325507014
 10
439.5705050676297
 20
86.87871325507014
 10
439.5705050676297
 20
88.57871325507012
 10
428.17050506763
 20
88.57871325507012
 97
        0
 75
     0
 76
     1
 52
0.0
 41
5.0
 77
     0
 78
     1
 53
45.0
 43
-126.4255197039799
 44
259.1869929352066
 45
-0.4419417382415923
 46
0.4419417382415923
 79
     0
 47
0.1461541772446758
 98
        2
 10
477.5948319528073
 20
108.6948122572267
 10
427.5694414367284
 20
109.2794289949857
  0
LINE
  5
EF7C879B2
330
EF7C85532
100
AcDbEntity
  8
SUNPOU
100
AcDbLine
 10
439.5226272413768
 20
85.94922012909725
 30
0.0
 11
438.0484043678942
 21
81.52988177293778
 31
0.0
  0
LINE
  5
EF7C879B3
330
EF7C85532
100
AcDbEntity
  8
SUNPOU
100
AcDbLine
 10
439.5226272413768
 20
85.94922012909725
 30
0.0
 11
436.0362436040206
 21
82.85907228148587
 31
0.0
  0
LINE
  5
EF7C879B4
330
EF7C85532
100
AcDbEntity
  8
SUNPOU
100
AcDbLine
 10
439.5226272413768
 20
85.94922012909725
 30
0.0
 11
429.0547366516124
 21
70.10267398707475
 31
0.0
  0
TEXT
  5
EF7C879B5
330
EF7C85532
100
AcDbEntity
  8
SUNPOU
100
AcDbText
 10
397.4122755463509
 20
70.59042969307149
 30
0.0
 40
4.5
  1
スリーブ X
  7
K
 72
     2
 11
425.355132689208
 21
70.59042969307149
 31
0.0
100
AcDbText
  0
LINE
  5
EF7C879B6
330
EF7C85532
100
AcDbEntity
  8
SUNPOU
100
AcDbLine
 10
429.0547366516124
 20
70.10267398707475
 30
0.0
 11
396.5871272361267
 21
70.10267398707475
 31
0.0
  0
LINE
  5
EF7C879B7
330
EF7C85532
100
AcDbEntity
  8
JISSEN
 62
     0
100
AcDbLine
 10
438.6435917330516
 20
129.7984782119904
 30
0.0
 11
438.6435917330516
 21
126.7984782119904
 31
0.0
  0
LINE
  5
EF7C879B8
330
EF7C85532
100
AcDbEntity
  8
JISSEN
 62
     0
100
AcDbLine
 10
423.9205050676298
 20
128.5287132550701
 30
0.0
 11
423.9205050676298
 21
127.0287132550701
 31
0.0
  0
LINE
  5
EF7C879B9
330
EF7C85532
100
AcDbEntity
  8
JISSEN
 62
     0
100
AcDbLine
 10
430.9205050676298
 20
127.0287132550701
 30
0.0
 11
430.9205050676298
 21
128.5287132550701
 31
0.0
  0
LINE
  5
EF7C879BA
330
EF7C85532
100
AcDbEntity
  8
JISSEN
 62
     0
100
AcDbLine
 10
423.4999981936028
 20
116.0673612824308
 30
0.0
 11
423.4999981936028
 21
137.5673612824309
 31
0.0
  0
LINE
  5
EF7C879BB
330
EF7C85532
100
AcDbEntity
  8
JISSEN
 62
     0
100
AcDbLine
 10
422.2999981936026
 20
138.7673612824309
 30
0.0
 11
422.2999981936026
 21
116.0673612824308
 31
0.0
  0
LWPOLYLINE
  5
EF7C879BC
330
EF7C85532
100
AcDbEntity
  8
JISSEN
 62
     0
100
AcDbPolyline
 90
        8
 70
     1
 43
0.0
 10
397.8278619533719
 20
100.5787132550701
 10
421.6705050676298
 20
100.5787132550701
 10
421.6705050676298
 20
88.57871325507018
 10
400.7659085122813
 20
88.57871325507012
 42
-0.202120388705406
 10
402.0966258055926
 20
90.70189220342328
 42
0.5713525608206203
 10
401.8690222267951
 20
93.5606482310129
 42
-0.3987555679944311
 10
400.740487815258
 20
96.5701702965687
 42
0.4814910058598528
 10
399.232614105725
 20
99.34774461140733
 42
-0.2786868946516943
  0
LINE
  5
EF7C879BD
330
EF7C85532
100
AcDbEntity
  8
JISSEN
 62
     0
100
AcDbLine
 10
440.7999981930417
 20
124.6984782133165
 30
0.0
 11
440.7999981930417
 21
97.6984782225467
 31
0.0
  0
LINE
  5
EF7C879BE
330
EF7C85532
100
AcDbEntity
  8
JISSEN
 62
     0
100
AcDbLine
 10
428.17050506763
 20
88.57871325507012
 30
0.0
 11
428.17050506763
 21
118.22871325507
 31
0.0
  0
LINE
  5
EF7C879BF
330
EF7C85532
100
AcDbEntity
  8
JISSEN
 62
     0
100
AcDbLine
 10
426.6705050676298
 20
118.22871325507
 30
0.0
 11
426.6705050676298
 21
88.57871325507012
 31
0.0
  0
LINE
  5
EF7C879C0
330
EF7C85532
100
AcDbEntity
  8
JISSEN
 62
     0
100
AcDbLine
 10
426.6705050676298
 20
88.57871325507012
 30
0.0
 11
414.9205050676298
 21
88.57871325507012
 31
0.0
  0
LINE
  5
EF7C879C1
330
EF7C85532
100
AcDbEntity
  8
0
 62
     0
100
AcDbLine
 10
418.6257654874867
 20
88.57871325507018
 30
0.0
 11
421.6705050676298
 21
91.62345283521331
 31
0.0
  0
LINE
  5
EF7C879C2
330
EF7C85532
100
AcDbEntity
  8
SAISEN
 62
     0
100
AcDbLine
 10
409.786930722655
 20
88.57871325507012
 30
0.0
 11
421.6705050676298
 21
100.4622876000449
 31
0.0
  0
LINE
  5
EF7C879C3
330
EF7C85532
100
AcDbEntity
  8
0
 62
     0
100
AcDbLine
 10
414.2063481050707
 20
88.57871325507018
 30
0.0
 11
421.6705050676298
 21
96.04287021762926
 31
0.0
  0
LINE
  5
EF7C879C4
330
EF7C85532
100
AcDbEntity
  8
JISSEN
 62
     0
100
AcDbLine
 10
414.9205050676298
 20
86.87871325507014
 30
0.0
 11
439.5705050676297
 21
86.87871325507014
 31
0.0
  0
LINE
  5
EF7C879C5
330
EF7C85532
100
AcDbEntity
  8
0
 62
     0
100
AcDbLine
 10
400.9480959578231
 20
88.57871325507012
 30
0.0
 11
412.948095957823
 21
100.5787132550701
 31
0.0
  0
LINE
  5
EF7C879C6
330
EF7C85532
100
AcDbEntity
  8
0
 62
     0
100
AcDbLine
 10
405.367513340239
 20
88.57871325507012
 30
0.0
 11
417.367513340239
 21
100.5787132550701
 31
0.0
  0
LINE
  5
EF7C879C7
330
EF7C85532
100
AcDbEntity
  8
0
 62
     0
100
AcDbLine
 10
401.6390986669442
 20
93.6891333466074
 30
0.0
 11
408.5286785754069
 21
100.5787132550701
 31
0.0
  0
LINE
  5
EF7C879C8
330
EF7C85532
100
AcDbEntity
  8
0
 62
     0
100
AcDbLine
 10
401.2762434849303
 20
88.90686078217759
 30
0.0
 11
401.2762434849303
 21
88.90686078217759
 31
0.0
  0
LINE
  5
EF7C879C9
330
EF7C85532
100
AcDbEntity
  8
0
 62
     0
100
AcDbLine
 10
401.6390986669439
 20
93.689133346607
 30
0.0
 11
401.8286706577324
 21
93.87870533739548
 31
0.0
  0
LINE
  5
EF7C879CA
330
EF7C85532
100
AcDbEntity
  8
0
 62
     0
100
AcDbLine
 10
405.367513340239
 20
88.57871325507018
 30
0.0
 11
406.2480880401484
 21
89.45928795497961
 31
0.0
  0
LINE
  5
EF7C879CB
330
EF7C85532
100
AcDbEntity
  8
0
 62
     0
100
AcDbLine
 10
407.3529423857523
 20
90.56414230058356
 30
0.0
 11
407.3529423857523
 21
90.56414230058356
 31
0.0
  0
LINE
  5
EF7C879CC
330
EF7C85532
100
AcDbEntity
  8
JISSEN
 62
     0
100
AcDbLine
 10
414.9205050676298
 20
88.57871325507012
 30
0.0
 11
414.9205050676298
 21
86.87871325507014
 31
0.0
  0
LINE
  5
EF7C879CD
330
EF7C85532
100
AcDbEntity
  8
0
 62
     0
100
AcDbLine
 10
413.4296412865743
 20
92.22142381898953
 30
0.0
 11
413.4296412865743
 21
92.22142381898953
 31
0.0
  0
LINE
  5
EF7C879CE
330
EF7C85532
100
AcDbEntity
  8
0
 62
     0
100
AcDbLine
 10
409.786930722655
 20
88.57871325507018
 30
0.0
 11
412.3247869409701
 21
91.11656947338557
 31
0.0
  0
LINE
  5
EF7C879CF
330
EF7C85532
100
AcDbEntity
  8
0
 62
     0
100
AcDbLine
 10
419.506340187396
 20
93.87870533739548
 30
0.0
 11
419.506340187396
 21
93.87870533739548
 31
0.0
  0
LINE
  5
EF7C879D0
330
EF7C85532
100
AcDbEntity
  8
0
 62
     0
100
AcDbLine
 10
400.9001044916725
 20
97.36955655375162
 30
0.0
 11
404.1092611929911
 21
100.5787132550701
 31
0.0
  0
LINE
  5
EF7C879D1
330
EF7C85532
100
AcDbEntity
  8
0
 62
     0
100
AcDbLine
 10
402.9335250033365
 20
94.98355968299945
 30
0.0
 11
402.9335250033365
 21
94.98355968299945
 31
0.0
  0
LINE
  5
EF7C879D2
330
EF7C85532
100
AcDbEntity
  8
0
 62
     0
100
AcDbLine
 10
409.0102239041583
 20
96.6408412014055
 30
0.0
 11
409.0102239041583
 21
96.6408412014055
 31
0.0
  0
LINE
  5
EF7C879D3
330
EF7C85532
100
AcDbEntity
  8
0
 62
     0
100
AcDbLine
 10
399.6189619665246
 20
100.5078314110193
 30
0.0
 11
399.6898438105753
 21
100.5787132550701
 31
0.0
  0
LINE
  5
EF7C879D4
330
EF7C85532
100
AcDbEntity
  8
0
 62
     0
100
AcDbLine
 10
416.1917771505842
 20
99.40297706541535
 30
0.0
 11
417.3675133402388
 21
100.5787132550701
 31
0.0
  0
LINE
  5
EF7C879D5
330
EF7C85532
100
AcDbEntity
  8
0
 62
     0
100
AcDbLine
 10
415.0869228049802
 20
98.2981227198114
 30
0.0
 11
415.0869228049802
 21
98.2981227198114
 31
0.0
  0
LINE
  5
EF7C879D6
330
EF7C85532
100
AcDbEntity
  8
SAISEN
 62
     0
100
AcDbLine
 10
439.7999981936026
 20
87.09922012909727
 30
0.0
 11
439.7999981936026
 21
103.9492201290971
 31
0.0
  0
LINE
  5
EF7C879D7
330
EF7C85532
100
AcDbEntity
  8
SAISEN
 62
     0
100
AcDbLine
 10
439.9517351770286
 20
92.91439382744
 30
0.0
 11
439.8017351770291
 21
94.41439382743991
 31
0.0
  0
LINE
  5
EF7C879D8
330
EF7C85532
100
AcDbEntity
  8
SAISEN
 62
     0
100
AcDbLine
 10
439.9517351770286
 20
92.91439382744
 30
0.0
 11
439.8017351770291
 21
94.41439382743991
 31
0.0
  0
LINE
  5
EF7C879D9
330
EF7C85532
100
AcDbEntity
  8
JISSEN
 62
     0
100
AcDbLine
 10
440.7999981930417
 20
94.64856672946943
 30
0.0
 11
440.7999981930417
 21
89.7086823040467
 31
0.0
  0
LINE
  5
EF7C879DA
330
EF7C85532
100
AcDbEntity
  8
SAISEN
 62
     0
100
AcDbLine
 10
440.6499981936026
 20
94.44922012909714
 30
0.0
 11
440.7999981936021
 21
92.94922012909728
 31
0.0
  0
LINE
  5
EF7C879DB
330
EF7C85532
100
AcDbEntity
  8
JISSEN
 62
     0
100
AcDbLine
 10
439.5705050676297
 20
88.57871325507012
 30
0.0
 11
428.17050506763
 21
88.57871325507012
 31
0.0
  0
LINE
  5
EF7C879DC
330
EF7C85532
100
AcDbEntity
  8
JISSEN
 62
     0
100
AcDbLine
 10
439.5705050676297
 20
86.87871325507014
 30
0.0
 11
439.5705050676297
 21
88.57871325507012
 31
0.0
  0
LINE
  5
EF7C879DD
330
EF7C85532
100
AcDbEntity
  8
SAISEN
 62
     0
100
AcDbLine
 10
440.6749981936021
 20
92.44922012909723
 30
0.0
 11
440.6499981936026
 21
86.94922012909726
 31
0.0
  0
LINE
  5
EF7C879DE
330
EF7C85532
100
AcDbEntity
  8
SAISEN
 62
     0
100
AcDbLine
 10
438.4999981936026
 20
86.79922012909726
 30
0.0
 11
439.4999981936027
 21
86.79922012909726
 31
0.0
  0
LINE
  5
EF7C879DF
330
EF7C85532
100
AcDbEntity
  8
SAISEN
 62
     0
100
AcDbLine
 10
439.6499981936027
 20
85.94922012909725
 30
0.0
 11
438.4999981936026
 21
85.94922012909725
 31
0.0
  0
LINE
  5
EF7C879E0
330
EF7C85532
100
AcDbEntity
  8
SAISEN
 62
     0
100
AcDbLine
 10
438.4999981936026
 20
85.94922012909725
 30
0.0
 11
438.4999981936026
 21
86.79922012909726
 31
0.0
  0
ARC
  5
EF7C879E1
330
EF7C85532
100
AcDbEntity
  8
SAISEN
 62
     0
100
AcDbCircle
 10
439.6499981936027
 20
86.94922012909726
 30
0.0
 40
1.0
100
AcDbArc
 50
270.0
 51
0.0
  0
ARC
  5
EF7C879E2
330
EF7C85532
100
AcDbEntity
  8
SAISEN
 62
     0
100
AcDbCircle
 10
439.4999981936027
 20
87.09922012909727
 30
0.0
 40
0.3
100
AcDbArc
 50
270.0
 51
0.0000000000016284
  0
LINE
  5
EF7C879E3
330
EF7C85532
100
AcDbEntity
  8
SAISEN
 62
     0
100
AcDbLine
 10
440.6499981936026
 20
91.64922012909729
 30
0.0
 11
439.7999981936026
 21
91.64922012909729
 31
0.0
  0
LINE
  5
EF7C879E4
330
EF7C85532
100
AcDbEntity
  8
SAISEN
 62
     0
100
AcDbLine
 10
440.6749981936021
 20
92.44922012909723
 30
0.0
 11
439.7999981936026
 21
92.44922012909723
 31
0.0
  0
LINE
  5
EF7C879E5
330
EF7C85532
100
AcDbEntity
  8
SAISEN
 62
     0
100
AcDbLine
 10
439.8354483185513
 20
92.53410759785998
 30
0.0
 11
439.9604483185513
 21
93.03410759785998
 31
0.0
  0
LINE
  5
EF7C879E6
330
EF7C85532
100
AcDbEntity
  8
SAISEN
 62
     0
100
AcDbLine
 10
440.7999981936021
 20
93.1984782119906
 30
0.0
 11
440.7999981936021
 21
89.70868230348623
 31
0.0
  0
LINE
  5
EF7C879E7
330
EF7C85532
100
AcDbEntity
  8
SAISEN
 62
     0
100
AcDbLine
 10
440.7999981936021
 20
92.94922012909728
 30
0.0
 11
440.6749981936021
 21
92.44922012909723
 31
0.0
  0
LINE
  5
EF7C879E8
330
EF7C85532
100
AcDbEntity
  8
SAISEN
 62
     0
100
AcDbLine
 10
440.7999981936021
 20
93.1984782119906
 30
0.0
 11
440.7999981936021
 21
89.70868230348623
 31
0.0
  0
LINE
  5
EF7C879E9
330
EF7C85532
100
AcDbEntity
  8
0
 62
     0
100
AcDbLine
 10
421.1636217058019
 20
99.95540423821736
 30
0.0
 11
421.1636217058019
 21
99.95540423821736
 31
0.0
  0
LINE
  5
EF7C879EA
330
EF7C85532
100
AcDbEntity
  8
SAISEN
 62
     0
100
AcDbLine
 10
440.6499981936026
 20
103.6492201290971
 30
0.0
 11
440.6499981936026
 21
94.44922012909714
 31
0.0
  0
LINE
  5
EF7C879EB
330
EF7C85532
100
AcDbEntity
  8
SAISEN
 62
     0
100
AcDbLine
 10
439.7999981936026
 20
103.9492201290971
 30
0.0
 11
440.3499981936028
 21
103.9492201290971
 31
0.0
  0
LINE
  5
EF7C879EC
330
EF7C85532
100
AcDbEntity
  8
SAISEN
 62
     0
100
AcDbLine
 10
440.3499981936028
 20
103.9492201290971
 30
0.0
 11
440.6499981936026
 21
103.6492201290971
 31
0.0
  0
LINE
  5
EF7C879ED
330
EF7C85532
100
AcDbEntity
  8
SAISEN
 62
     0
100
AcDbLine
 10
440.7999981936021
 20
103.9492201290971
 30
0.0
 11
440.3499981936028
 21
103.9492201290971
 31
0.0
  0
LINE
  5
EF7C879EE
330
EF7C85532
100
AcDbEntity
  8
SAISEN
 62
     0
100
AcDbLine
 10
440.7999981936021
 20
103.6492201290971
 30
0.0
 11
440.6499981936026
 21
103.6492201290971
 31
0.0
  0
LINE
  5
EF7C879EF
330
EF7C85532
100
AcDbEntity
  8
JISSEN
 62
     0
100
AcDbLine
 10
425.6504856968008
 20
115.6600640914434
 30
0.0
 11
426.5392286781438
 21
117.1994120899997
 31
0.0
  0
ARC
  5
EF7C879F0
330
EF7C85532
100
AcDbEntity
  8
JISSEN
 62
     0
100
AcDbCircle
 10
423.9999981936028
 20
116.0673612824308
 30
0.0
 40
0.5
100
AcDbArc
 50
180.0
 51
0.0000000000032569
  0
LINE
  5
EF7C879F1
330
EF7C85532
100
AcDbEntity
  8
JISSEN
 62
     0
100
AcDbLine
 10
425.4999981936029
 20
117.7994120899997
 30
0.0
 11
424.4999981936029
 21
116.0673612824308
 31
0.0
  0
ARC
  5
EF7C879F2
330
EF7C85532
100
AcDbEntity
  8
JISSEN
 62
     0
100
AcDbCircle
 10
423.9999981936028
 20
116.0673612824308
 30
0.0
 40
1.699999999999988
100
AcDbArc
 50
180.0
 51
346.137858554223
  0
LINE
  5
EF7C879F3
330
EF7C85532
100
AcDbEntity
  8
JISSEN
 62
     0
100
AcDbLine
 10
428.17050506763
 20
127.0287132550701
 30
0.0
 11
430.9205050676298
 21
127.0287132550701
 31
0.0
  0
LINE
  5
EF7C879F4
330
EF7C85532
100
AcDbEntity
  8
JISSEN
 62
     0
100
AcDbLine
 10
430.9205050676298
 20
120.22871325507
 30
0.0
 11
428.17050506763
 21
122.5287132550701
 31
0.0
  0
LINE
  5
EF7C879F5
330
EF7C85532
100
AcDbEntity
  8
JISSEN
 62
     0
100
AcDbLine
 10
429.6705050676298
 20
117.22871325507
 30
0.0
 11
430.9205050676298
 21
117.22871325507
 31
0.0
  0
LINE
  5
EF7C879F6
330
EF7C85532
100
AcDbEntity
  8
JISSEN
 62
     0
100
AcDbLine
 10
426.6705050676298
 20
122.5287132550701
 30
0.0
 11
423.9205050676298
 21
120.22871325507
 31
0.0
  0
LINE
  5
EF7C879F7
330
EF7C85532
100
AcDbEntity
  8
JISSEN
 62
     0
100
AcDbLine
 10
425.1705050676298
 20
118.22871325507
 30
0.0
 11
426.6705050676298
 21
118.22871325507
 31
0.0
  0
LINE
  5
EF7C879F8
330
EF7C85532
100
AcDbEntity
  8
JISSEN
 62
     0
100
AcDbLine
 10
423.9205050676298
 20
117.22871325507
 30
0.0
 11
425.1705050676298
 21
117.22871325507
 31
0.0
  0
LINE
  5
EF7C879F9
330
EF7C85532
100
AcDbEntity
  8
JISSEN
 62
     0
100
AcDbLine
 10
423.9205050676298
 20
120.22871325507
 30
0.0
 11
423.9205050676298
 21
117.22871325507
 31
0.0
  0
LINE
  5
EF7C879FA
330
EF7C85532
100
AcDbEntity
  8
JISSEN
 62
     0
100
AcDbLine
 10
425.1705050676298
 20
117.22871325507
 30
0.0
 11
425.1705050676298
 21
118.22871325507
 31
0.0
  0
LINE
  5
EF7C879FB
330
EF7C85532
100
AcDbEntity
  8
JISSEN
 62
     0
100
AcDbLine
 10
426.5392286781438
 20
117.1994120899997
 30
0.0
 11
425.4999981936029
 21
117.7994120899997
 31
0.0
  0
LINE
  5
EF7C879FC
330
EF7C85532
100
AcDbEntity
  8
JISSEN
 62
     0
100
AcDbLine
 10
428.17050506763
 20
118.22871325507
 30
0.0
 11
429.6705050676298
 21
118.22871325507
 31
0.0
  0
LINE
  5
EF7C879FD
330
EF7C85532
100
AcDbEntity
  8
JISSEN
 62
     0
100
AcDbLine
 10
429.6705050676298
 20
118.22871325507
 30
0.0
 11
429.6705050676298
 21
117.22871325507
 31
0.0
  0
LINE
  5
EF7C879FE
330
EF7C85532
100
AcDbEntity
  8
JISSEN
 62
     0
100
AcDbLine
 10
423.9205050676298
 20
127.0287132550701
 30
0.0
 11
426.6705050676298
 21
127.0287132550701
 31
0.0
  0
LINE
  5
EF7C879FF
330
EF7C85532
100
AcDbEntity
  8
JISSEN
 62
     0
100
AcDbLine
 10
426.6705050676298
 20
127.0287132550701
 30
0.0
 11
426.6705050676298
 21
122.5287132550701
 31
0.0
  0
LINE
  5
EF7C87A00
330
EF7C85532
100
AcDbEntity
  8
JISSEN
 62
     0
100
AcDbLine
 10
428.17050506763
 20
122.5287132550701
 30
0.0
 11
428.17050506763
 21
127.0287132550701
 31
0.0
  0
LINE
  5
EF7C87A01
330
EF7C85532
100
AcDbEntity
  8
JISSEN
 62
     0
100
AcDbLine
 10
430.9205050676298
 20
117.22871325507
 30
0.0
 11
430.9205050676298
 21
120.22871325507
 31
0.0
  0
LINE
  5
EF7C87A02
330
EF7C85532
100
AcDbEntity
  8
JISSEN
 62
     0
100
AcDbLine
 10
434.9999981936028
 20
137.5673612824309
 30
0.0
 11
434.9999981936028
 21
155.5673612824309
 31
0.0
  0
LINE
  5
EF7C87A03
330
EF7C85532
100
AcDbEntity
  8
JISSEN
 62
     0
100
AcDbLine
 10
424.7999981936025
 20
147.5254011739806
 30
0.0
 11
424.7999981936025
 21
153.8692405311446
 31
0.0
  0
LINE
  5
EF7C87A04
330
EF7C85532
100
AcDbEntity
  8
JISSEN
 62
     0
100
AcDbLine
 10
429.7999981936026
 20
153.8692405311446
 30
0.0
 11
429.7999981936026
 21
147.5254011739806
 31
0.0
  0
LINE
  5
EF7C87A05
330
EF7C85532
100
AcDbEntity
  8
JISSEN
 62
     0
100
AcDbLine
 10
430.9205050676298
 20
128.5287132550701
 30
0.0
 11
423.9205050676298
 21
128.5287132550701
 31
0.0
  0
LINE
  5
EF7C87A06
330
EF7C85532
100
AcDbEntity
  8
JISSEN
 62
     0
100
AcDbLine
 10
423.4999981936028
 20
137.5673612824309
 30
0.0
 11
439.4986553937668
 21
137.5673612824309
 31
0.0
  0
LINE
  5
EF7C87A07
330
EF7C85532
100
AcDbEntity
  8
JISSEN
 62
     0
100
AcDbLine
 10
424.7999981936025
 20
129.0287132550701
 30
0.0
 11
424.7999981936025
 21
137.5673612824309
 31
0.0
  0
LINE
  5
EF7C87A08
330
EF7C85532
100
AcDbEntity
  8
JISSEN
 62
     0
100
AcDbLine
 10
429.7999981936026
 20
137.5673612824309
 30
0.0
 11
429.7999981936026
 21
129.0287132550701
 31
0.0
  0
LINE
  5
EF7C87A09
330
EF7C85532
100
AcDbEntity
  8
JISSEN
 62
     0
100
AcDbLine
 10
424.7999981936025
 20
129.0287132550701
 30
0.0
 11
425.2999981936026
 21
128.5287132550701
 31
0.0
  0
LINE
  5
EF7C87A0A
330
EF7C85532
100
AcDbEntity
  8
JISSEN
 62
     0
100
AcDbLine
 10
429.7999981936026
 20
129.0287132550701
 30
0.0
 11
429.2999981936026
 21
128.5287132550701
 31
0.0
  0
LINE
  5
EF7C87A0B
330
EF7C85532
100
AcDbEntity
  8
JISSEN
 62
     0
100
AcDbLine
 10
434.9999981936028
 20
147.5254011739806
 30
0.0
 11
424.7999981936025
 21
147.5254011739806
 31
0.0
  0
LINE
  5
EF7C87A0C
330
EF7C85532
100
AcDbEntity
  8
JISSEN
 62
     0
100
AcDbLine
 10
422.2999981936026
 20
138.7673612824309
 30
0.0
 11
422.2999981936026
 21
144.5673612824309
 31
0.0
  0
ARC
  5
EF7C87A0D
330
EF7C85532
100
AcDbEntity
  8
JISSEN
 62
     0
100
AcDbCircle
 10
425.2999981936026
 20
144.5673612824309
 30
0.0
 40
3.0
100
AcDbArc
 50
99.5940682268648
 51
180.0
  0
LWPOLYLINE
  5
EF7C87A0E
330
EF7C85532
100
AcDbEntity
  8
JISSEN
 62
     0
100
AcDbPolyline
 90
        5
 70
     0
 43
0.0
 10
419.7999981936026
 20
159.52871325507
 42
0.1200112168691455
 10
420.3418201841031
 20
157.3038449923805
 42
0.1049567332455674
 10
421.9966973347035
 20
155.2860725679508
 42
0.0889226874667021
 10
424.3598273441694
 20
154.0031712222974
 42
0.012307555000165
 10
424.7999981936025
 20
153.8692405311446
 42
0.0801668980116146
  0
LWPOLYLINE
  5
EF7C87A0F
330
EF7C85532
100
AcDbEntity
  8
JISSEN
 62
     0
100
AcDbPolyline
 90
       13
 70
     0
 43
0.0
 10
429.7999981936026
 20
153.8692405311446
 42
0.0123075550001654
 10
430.2401690430358
 20
154.0031712222974
 42
0.0889226874667008
 10
432.6032990525016
 20
155.2860725679508
 42
0.1049567332455664
 10
434.2581762031023
 20
157.3038449923805
 42
0.120011216869144
 10
434.7999981936026
 20
159.52871325507
 42
0.1200112168691424
 10
434.2581762031023
 20
161.7535815177595
 42
0.1049567332455653
 10
432.6032990525016
 20
163.7713539421894
 42
0.0889226874666963
 10
430.2401690430358
 20
165.0542552878428
 42
0.0801668980116132
 10
427.2999981936026
 20
165.5287132550701
 42
0.0801668980116128
 10
424.3598273441694
 20
165.0542552878428
 42
0.0889226874666951
 10
421.9966973347035
 20
163.7713539421894
 42
0.1049567332455669
 10
420.3418201841031
 20
161.7535815177595
 42
0.1200112168691447
 10
419.7999981936026
 20
159.52871325507
 42
0.1200112168691455
  0
LINE
  5
EF7C87A12
330
EF7C85532
100
AcDbEntity
  8
SUNPOU
100
AcDbLine
 10
476.1560172276658
 20
86.87871325507009
 30
0.0
 11
484.2631632107956
 21
70.38774692382336
 31
0.0
  0
LINE
  5
EF7C87A13
330
EF7C85532
100
AcDbEntity
  8
SUNPOU
100
AcDbLine
 10
476.1560172276658
 20
86.87871325507009
 30
0.0
 11
477.0592503489011
 21
82.30836813510117
 31
0.0
  0
TEXT
  5
EF7C87A14
330
EF7C85532
100
AcDbEntity
  8
SUNPOU
100
AcDbText
 10
504.5208726716625
 20
7.849423569401778
 30
0.0
 40
3.0
  1
X  スリーブ作動状態
  7
K
100
AcDbText
  0
LINE
  5
EF7C87A15
330
EF7C85532
100
AcDbEntity
  8
SUNPOU
100
AcDbLine
 10
484.2631632107956
 20
70.38774692382336
 30
0.0
 11
530.9662930568672
 21
70.38774692382336
 31
0.0
  0
TEXT
  5
EF7C87A16
330
EF7C85532
100
AcDbEntity
  8
SUNPOU
100
AcDbText
 10
487.11286993852
 20
70.68971483411022
 30
0.0
 40
4.5
  1
T バーチャンネル
  7
K
100
AcDbText
  0
TEXT
  5
EF7C87A17
330
EF7C85532
100
AcDbEntity
  8
SUNPOU
100
AcDbText
 10
504.5208726716625
 20
2.849423569401778
 30
0.0
 40
3.0
  1
尺度　1/1
  7
K
100
AcDbText
  0
LINE
  5
EF7C87A41
330
EF7C85532
100
AcDbEntity
  8
SUNPOU
100
AcDbLine
 10
494.8648159655796
 20
156.074576765624
 30
0.0
 11
529.1896676553554
 21
156.074576765624
 31
0.0
  0
TEXT
  5
EF7C87A42
330
EF7C85532
100
AcDbEntity
  8
SUNPOU
100
AcDbText
 10
496.8648159655796
 20
156.7633018929995
 30
0.0
 40
4.5
  1
振れ止め金具
  7
K
100
AcDbText
  0
LINE
  5
EF7C87A43
330
EF7C85532
100
AcDbEntity
  8
SUNPOU
100
AcDbLine
 10
500.8932069888283
 20
110.7045222902064
 30
0.0
 11
529.2180586786042
 21
110.7045222902064
 31
0.0
  0
TEXT
  5
EF7C87A44
330
EF7C85532
100
AcDbEntity
  8
SUNPOU
100
AcDbText
 10
502.8932069888282
 20
111.3172257764518
 30
0.0
 40
4.5
  1
天井ボード
  7
K
100
AcDbText
  0
LINE
  5
EF7C87A45
330
EF7C85532
100
AcDbEntity
  8
JISSEN
 62
     0
100
AcDbLine
 10
481.0794913195755
 20
127.0287132550701
 30
0.0
 11
481.0794913195755
 21
128.5287132550701
 31
0.0
  0
LINE
  5
EF7C87A46
330
EF7C85532
100
AcDbEntity
  8
JISSEN
 62
     0
100
AcDbLine
 10
482.6999981936026
 20
116.0673612824308
 30
0.0
 11
482.6999981936026
 21
138.7673612824309
 31
0.0
  0
LINE
  5
EF7C87A47
330
EF7C85532
100
AcDbEntity
  8
JISSEN
 62
     0
100
AcDbLine
 10
481.4999981936028
 20
137.5673612824309
 30
0.0
 11
481.4999981936028
 21
116.0673612824308
 31
0.0
  0
LINE
  5
EF7C87A48
330
EF7C85532
100
AcDbEntity
  8
JISSEN
 62
     0
100
AcDbLine
 10
466.3564046541536
 20
129.7984782119904
 30
0.0
 11
466.3564046541536
 21
126.7984782119904
 31
0.0
  0
LINE
  5
EF7C87A49
330
EF7C85532
100
AcDbEntity
  8
JISSEN
 62
     0
100
AcDbLine
 10
474.0794913195754
 20
128.5287132550701
 30
0.0
 11
474.0794913195754
 21
127.0287132550701
 31
0.0
  0
LINE
  5
EF7C87A4A
330
EF7C85532
100
AcDbEntity
  8
JISSEN
 62
     0
100
AcDbLine
 10
459.4282014238782
 20
129.7984782119879
 30
0.0
 11
459.4282014238782
 21
126.7984782119905
 31
0.0
  0
LINE
  5
EF7C87A4B
330
EF7C85532
100
AcDbEntity
  8
JISSEN
 62
     0
100
AcDbLine
 10
445.571794963327
 20
129.7984782119879
 30
0.0
 11
445.571794963327
 21
126.7984782119905
 31
0.0
  0
LINE
  5
EF7C87A4C
330
EF7C85532
100
AcDbEntity
  8
0
 62
     0
100
AcDbLine
 10
483.3294913195754
 20
95.83001311575205
 30
0.0
 11
488.0073096148429
 21
100.5078314110193
 31
0.0
  0
LINE
  5
EF7C87A4D
330
EF7C85532
100
AcDbEntity
  8
JISSEN
 62
     0
100
AcDbLine
 10
490.0794913195754
 20
88.57871325507012
 30
0.0
 11
478.3294913195756
 21
88.57871325507012
 31
0.0
  0
LWPOLYLINE
  5
EF7C87A4E
330
EF7C85532
100
AcDbEntity
  8
JISSEN
 62
     0
100
AcDbPolyline
 90
        8
 70
     1
 43
0.0
 10
507.1721344338334
 20
88.57871325507012
 10
483.3294913195754
 20
88.57871325507012
 10
483.3294913195754
 20
100.5787132550701
 10
504.2340878749239
 20
100.5787132550701
 42
-0.202120388705406
 10
502.9033705816126
 20
98.45553430671699
 42
0.5713525608206203
 10
503.1309741604101
 20
95.59677827912741
 42
-0.3987555679944311
 10
504.2595085719473
 20
92.58725621357156
 42
0.4814910058598528
 10
505.7673822814803
 20
89.809681898733
 42
-0.2786868946516943
  0
LINE
  5
EF7C87A4F
330
EF7C85532
100
AcDbEntity
  8
0
 62
     0
100
AcDbLine
 10
483.3294913195754
 20
91.41059573333606
 30
0.0
 11
492.4976088413096
 21
100.5787132550701
 31
0.0
  0
LINE
  5
EF7C87A50
330
EF7C85532
100
AcDbEntity
  8
JISSEN
 62
     0
100
AcDbLine
 10
465.4294913195756
 20
86.87871325507009
 30
0.0
 11
490.0794913195754
 21
86.87871325507009
 31
0.0
  0
LINE
  5
EF7C87A51
330
EF7C85532
100
AcDbEntity
  8
JISSEN
 62
     0
100
AcDbLine
 10
478.3294913195756
 20
88.57871325507012
 30
0.0
 11
478.3294913195756
 21
118.22871325507
 31
0.0
  0
LINE
  5
EF7C87A52
330
EF7C85532
100
AcDbEntity
  8
JISSEN
 62
     0
100
AcDbLine
 10
476.8294913195756
 20
118.22871325507
 30
0.0
 11
476.8294913195756
 21
88.57871325507012
 31
0.0
  0
LINE
  5
EF7C87A53
330
EF7C85532
100
AcDbEntity
  8
JISSEN
 62
     0
100
AcDbLine
 10
464.1999981869575
 20
97.69847822255442
 30
0.0
 11
464.1999981869575
 21
124.6984782133165
 31
0.0
  0
LINE
  5
EF7C87A54
330
EF7C85532
100
AcDbEntity
  8
JISSEN
 62
     0
100
AcDbLine
 10
464.1999981869601
 20
94.64856672947719
 30
0.0
 11
461.1033374406605
 21
94.64856672947515
 31
0.0
  0
LINE
  5
EF7C87A55
330
EF7C85532
100
AcDbEntity
  8
JISSEN
 62
     0
100
AcDbLine
 10
464.1999981869584
 20
97.69847822255442
 30
0.0
 11
461.1033374406587
 21
97.69847822255238
 31
0.0
  0
LINE
  5
EF7C87A58
330
EF7C85532
100
AcDbEntity
  8
JISSEN
 62
     0
100
AcDbLine
 10
452.4999981900001
 20
89.19847822254665
 30
0.0
 11
463.6897941054574
 21
89.19847822254672
 31
0.0
  0
LINE
  5
EF7C87A59
330
EF7C85532
100
AcDbEntity
  8
JISSEN
 62
     0
100
AcDbLine
 10
445.9999981916896
 20
88.19847822280664
 30
0.0
 11
452.4999981900001
 21
88.19847822280664
 31
0.0
  0
LINE
  5
EF7C87A5B
330
EF7C85532
100
AcDbEntity
  8
JISSEN
 62
     0
100
AcDbLine
 10
441.3102022745416
 20
89.19847822254665
 30
0.0
 11
452.4999981900001
 21
89.19847822254665
 31
0.0
  0
LINE
  5
EF7C87A5C
330
EF7C85532
100
AcDbEntity
  8
JISSEN
 62
     0
100
AcDbLine
 10
445.8473169618216
 20
89.19847822254665
 30
0.0
 11
445.9999981916896
 21
88.19847822280664
 31
0.0
  0
LINE
  5
EF7C87A61
330
EF7C85532
100
AcDbEntity
  8
JISSEN
 62
     0
100
AcDbLine
 10
458.9999981883096
 20
88.19847822280664
 30
0.0
 11
459.1526794181773
 21
89.19847822254665
 31
0.0
  0
LINE
  5
EF7C87A62
330
EF7C85532
100
AcDbEntity
  8
JISSEN
 62
     0
100
AcDbLine
 10
452.4999981900001
 20
88.19847822280664
 30
0.0
 11
458.9999981883096
 21
88.19847822280664
 31
0.0
  0
ARC
  5
EF7C87A68
330
EF7C85532
100
AcDbEntity
  8
JISSEN
 62
     0
100
AcDbCircle
 10
443.8966589393412
 20
96.17352247600805
 30
0.0
 40
1.524955746538608
100
AcDbArc
 50
270.0
 51
89.99691535268258
  0
ARC
  5
EF7C87A70
330
EF7C85532
100
AcDbEntity
  8
JISSEN
 62
     0
100
AcDbCircle
 10
461.1033374406596
 20
96.17352247601377
 30
0.0
 40
1.524955746538608
100
AcDbArc
 50
90.00308904205786
 51
270.000000000039
  0
LINE
  5
EF7C87A71
330
EF7C85532
100
AcDbEntity
  8
SAISEN
 62
     0
100
AcDbLine
 10
465.1999981936026
 20
87.09922012909727
 30
0.0
 11
465.1999981936026
 21
103.9492201290971
 31
0.0
  0
LINE
  5
EF7C87A72
330
EF7C85532
100
AcDbEntity
  8
SAISEN
 62
     0
100
AcDbLine
 10
465.1999981936026
 20
87.09922012909727
 30
0.0
 11
465.1999981936026
 21
103.9492201290971
 31
0.0
  0
LINE
  5
EF7C87A73
330
EF7C85532
100
AcDbEntity
  8
JISSEN
 62
     0
100
AcDbLine
 10
464.1999981869575
 20
89.7086823040467
 30
0.0
 11
464.1999981869575
 21
94.64856672947719
 31
0.0
  0
LINE
  5
EF7C87A74
330
EF7C85532
100
AcDbEntity
  8
SAISEN
 62
     0
100
AcDbLine
 10
464.3499981936026
 20
94.44922012909714
 30
0.0
 11
464.1999981936031
 21
92.94922012909728
 31
0.0
  0
LINE
  5
EF7C87A75
330
EF7C85532
100
AcDbEntity
  8
SAISEN
 62
     0
100
AcDbLine
 10
465.0482612101766
 20
92.91439382744
 30
0.0
 11
465.1982612101761
 21
94.41439382743991
 31
0.0
  0
LINE
  5
EF7C87A76
330
EF7C85532
100
AcDbEntity
  8
SAISEN
 62
     0
100
AcDbLine
 10
465.0482612101766
 20
92.91439382744
 30
0.0
 11
465.1982612101761
 21
94.41439382743991
 31
0.0
  0
LINE
  5
EF7C87A77
330
EF7C85532
100
AcDbEntity
  8
JISSEN
 62
     0
100
AcDbLine
 10
476.8294913195756
 20
88.57871325507012
 30
0.0
 11
465.4294913195756
 21
88.57871325507012
 31
0.0
  0
LINE
  5
EF7C87A78
330
EF7C85532
100
AcDbEntity
  8
JISSEN
 62
     0
100
AcDbLine
 10
465.4294913195756
 20
88.57871325507012
 30
0.0
 11
465.4294913195756
 21
86.87871325507009
 31
0.0
  0
LINE
  5
EF7C87A79
330
EF7C85532
100
AcDbEntity
  8
SAISEN
 62
     0
100
AcDbLine
 10
464.3499981936026
 20
92.44922012909723
 30
0.0
 11
464.3499981936026
 21
86.94922012909726
 31
0.0
  0
LINE
  5
EF7C87A7A
330
EF7C85532
100
AcDbEntity
  8
SAISEN
 62
     0
100
AcDbLine
 10
466.4999981936029
 20
86.79922012909726
 30
0.0
 11
465.4999981936025
 21
86.79922012909726
 31
0.0
  0
LINE
  5
EF7C87A7B
330
EF7C85532
100
AcDbEntity
  8
SAISEN
 62
     0
100
AcDbLine
 10
466.4999981936029
 20
85.94922012909725
 30
0.0
 11
466.4999981936026
 21
86.79922012909726
 31
0.0
  0
ARC
  5
EF7C87A7D
330
EF7C85532
100
AcDbEntity
  8
SAISEN
 62
     0
100
AcDbCircle
 10
465.3499981936028
 20
86.94922012909726
 30
0.0
 40
1.0
100
AcDbArc
 50
180.0
 51
270.0
  0
LINE
  5
EF7C87A7F
330
EF7C85532
100
AcDbEntity
  8
SAISEN
 62
     0
100
AcDbLine
 10
465.3499981936028
 20
85.94922012909725
 30
0.0
 11
466.4999981936029
 21
85.94922012909725
 31
0.0
  0
ARC
  5
EF7C87A80
330
EF7C85532
100
AcDbEntity
  8
SAISEN
 62
     0
100
AcDbCircle
 10
465.4999981936025
 20
87.09922012909727
 30
0.0
 40
0.3
100
AcDbArc
 50
179.9999999999983
 51
270.0
  0
LINE
  5
EF7C87A81
330
EF7C85532
100
AcDbEntity
  8
JISSEN
 62
     0
100
AcDbLine
 10
464.1999981869575
 20
89.7086823040467
 30
0.0
 11
463.6897941054574
 21
89.19847822254672
 31
0.0
  0
LINE
  5
EF7C87A82
330
EF7C85532
100
AcDbEntity
  8
SAISEN
 62
     0
100
AcDbLine
 10
464.1999981936031
 20
92.94922012909728
 30
0.0
 11
464.3249981936032
 21
92.44922012909723
 31
0.0
  0
LINE
  5
EF7C87A83
330
EF7C85532
100
AcDbEntity
  8
SAISEN
 62
     0
100
AcDbLine
 10
465.1645480686538
 20
92.53410759785998
 30
0.0
 11
465.0395480686539
 21
93.03410759785998
 31
0.0
  0
LINE
  5
EF7C87A84
330
EF7C85532
100
AcDbEntity
  8
SAISEN
 62
     0
100
AcDbLine
 10
464.3249981936032
 20
92.44922012909723
 30
0.0
 11
465.1999981936026
 21
92.44922012909723
 31
0.0
  0
LINE
  5
EF7C87A85
330
EF7C85532
100
AcDbEntity
  8
SAISEN
 62
     0
100
AcDbLine
 10
464.3499981936026
 20
91.64922012909729
 30
0.0
 11
465.1999981936026
 21
91.64922012909729
 31
0.0
  0
LINE
  5
EF7C87A86
330
EF7C85532
100
AcDbEntity
  8
SAISEN
 62
     0
100
AcDbLine
 10
464.1999981936031
 20
93.1984782119906
 30
0.0
 11
464.1999981936031
 21
92.94922012909728
 31
0.0
  0
LINE
  5
EF7C87A87
330
EF7C85532
100
AcDbEntity
  8
SAISEN
 62
     0
100
AcDbLine
 10
464.1999981936031
 20
93.1984782119906
 30
0.0
 11
464.1999981936031
 21
92.94922012909728
 31
0.0
  0
LINE
  5
EF7C87A88
330
EF7C85532
100
AcDbEntity
  8
SUNPOU
100
AcDbLine
 10
476.1560172276658
 20
86.87871325507009
 30
0.0
 11
479.2234126161798
 21
83.37229483773242
 31
0.0
  0
LINE
  5
EF7C87A89
330
EF7C85532
100
AcDbEntity
  8
SAISEN
 62
     0
100
AcDbLine
 10
464.3499981936026
 20
103.6492201290971
 30
0.0
 11
464.3499981936026
 21
94.44922012909714
 31
0.0
  0
LINE
  5
EF7C87A8B
330
EF7C85532
100
AcDbEntity
  8
SAISEN
 62
     0
100
AcDbLine
 10
464.1999981936031
 20
103.6492201290971
 30
0.0
 11
464.3499981936026
 21
103.6492201290971
 31
0.0
  0
LINE
  5
EF7C87A8C
330
EF7C85532
100
AcDbEntity
  8
SAISEN
 62
     0
100
AcDbLine
 10
464.1999981936031
 20
103.9492201290971
 30
0.0
 11
464.6499981936027
 21
103.9492201290971
 31
0.0
  0
LINE
  5
EF7C87A8D
330
EF7C85532
100
AcDbEntity
  8
SAISEN
 62
     0
100
AcDbLine
 10
464.6499981936027
 20
103.9492201290971
 30
0.0
 11
464.3499981936026
 21
103.6492201290971
 31
0.0
  0
LINE
  5
EF7C87A8E
330
EF7C85532
100
AcDbEntity
  8
SAISEN
 62
     0
100
AcDbLine
 10
465.1999981936026
 20
103.9492201290971
 30
0.0
 11
464.6499981936027
 21
103.9492201290971
 31
0.0
  0
LINE
  5
EF7C87A8F
330
EF7C85532
100
AcDbEntity
  8
JISSEN
 62
     0
100
AcDbLine
 10
464.1999981869575
 20
124.6984782133165
 30
0.0
 11
452.4999981900001
 21
124.6984782133165
 31
0.0
  0
ARC
  5
EF7C87A90
330
EF7C85532
100
AcDbEntity
  8
JISSEN
 62
     0
100
AcDbCircle
 10
463.5999981936032
 20
125.7984782119905
 30
0.0
 40
1.0
100
AcDbArc
 50
90.0
 51
180.0
  0
LINE
  5
EF7C87A91
330
EF7C85532
100
AcDbEntity
  8
JISSEN
 62
     0
100
AcDbLine
 10
442.2499981936022
 20
125.2984782119905
 30
0.0
 11
441.7499981936022
 21
124.7984782119905
 31
0.0
  0
LINE
  5
EF7C87A92
330
EF7C85532
100
AcDbEntity
  8
JISSEN
 62
     0
100
AcDbLine
 10
441.7499981936022
 20
124.7984782119905
 30
0.0
 11
441.7499981936022
 21
124.6984782119905
 31
0.0
  0
LINE
  5
EF7C87A93
330
EF7C85532
100
AcDbEntity
  8
JISSEN
 62
     0
100
AcDbLine
 10
442.2499981936022
 20
125.2984782119905
 30
0.0
 11
442.3999981936023
 21
125.2984782119905
 31
0.0
  0
LINE
  5
EF7C87A94
330
EF7C85532
100
AcDbEntity
  8
JISSEN
 62
     0
100
AcDbLine
 10
442.3999981936023
 20
125.7984782119905
 30
0.0
 11
442.3999981936023
 21
125.2984782119905
 31
0.0
  0
LINE
  5
EF7C87A95
330
EF7C85532
100
AcDbEntity
  8
SAISEN
 62
     0
100
AcDbLine
 10
442.2499981936022
 20
125.2984782119905
 30
0.0
 11
442.2499981936022
 21
124.6984782119905
 31
0.0
  0
ARC
  5
EF7C87A96
330
EF7C85532
100
AcDbEntity
  8
JISSEN
 62
     0
100
AcDbCircle
 10
441.3999981936022
 20
125.7984782119905
 30
0.0
 40
1.0
100
AcDbArc
 50
0.0
 51
90.0
  0
LINE
  5
EF7C87A97
330
EF7C85532
100
AcDbEntity
  8
JISSEN
 62
     0
100
AcDbLine
 10
478.4607677090614
 20
117.1994120899997
 30
0.0
 11
479.3495106904044
 21
115.6600640914432
 31
0.0
  0
ARC
  5
EF7C87A98
330
EF7C85532
100
AcDbEntity
  8
JISSEN
 62
     0
100
AcDbCircle
 10
480.9999981936028
 20
116.0673612824308
 30
0.0
 40
0.5
100
AcDbArc
 50
179.9999999999966
 51
0.0
  0
LINE
  5
EF7C87A99
330
EF7C85532
100
AcDbEntity
  8
JISSEN
 62
     0
100
AcDbLine
 10
480.4999981936028
 20
116.0673612824308
 30
0.0
 11
479.4999981936029
 21
117.7994120899997
 31
0.0
  0
ARC
  5
EF7C87A9A
330
EF7C85532
100
AcDbEntity
  8
JISSEN
 62
     0
100
AcDbCircle
 10
480.9999981936028
 20
116.0673612824308
 30
0.0
 40
1.699999999999992
100
AcDbArc
 50
193.8621414457761
 51
0.0
  0
LINE
  5
EF7C87A9B
330
EF7C85532
100
AcDbEntity
  8
JISSEN
 62
     0
100
AcDbLine
 10
462.7499981936033
 20
125.2984782119905
 30
0.0
 11
462.5999981936032
 21
125.2984782119905
 31
0.0
  0
LINE
  5
EF7C87A9C
330
EF7C85532
100
AcDbEntity
  8
JISSEN
 62
     0
100
AcDbLine
 10
462.7499981936033
 20
125.2984782119905
 30
0.0
 11
463.2499981936033
 21
124.7984782119905
 31
0.0
  0
LINE
  5
EF7C87A9D
330
EF7C85532
100
AcDbEntity
  8
SAISEN
 62
     0
100
AcDbLine
 10
462.7499981936033
 20
125.2984782119905
 30
0.0
 11
462.7499981936033
 21
124.6984782119905
 31
0.0
  0
LINE
  5
EF7C87A9E
330
EF7C85532
100
AcDbEntity
  8
JISSEN
 62
     0
100
AcDbLine
 10
463.2499981936033
 20
124.7984782119905
 30
0.0
 11
463.2499981936033
 21
124.6984782119905
 31
0.0
  0
LINE
  5
EF7C87A9F
330
EF7C85532
100
AcDbEntity
  8
JISSEN
 62
     0
100
AcDbLine
 10
462.5999981936032
 20
125.7984782119905
 30
0.0
 11
462.5999981936032
 21
125.2984782119905
 31
0.0
  0
LINE
  5
EF7C87AA0
330
EF7C85532
100
AcDbEntity
  8
JISSEN
 62
     0
100
AcDbLine
 10
481.0794913195755
 20
120.22871325507
 30
0.0
 11
478.3294913195756
 21
122.5287132550701
 31
0.0
  0
LINE
  5
EF7C87AA1
330
EF7C85532
100
AcDbEntity
  8
JISSEN
 62
     0
100
AcDbLine
 10
476.8294913195756
 20
122.5287132550701
 30
0.0
 11
474.0794913195754
 21
120.22871325507
 31
0.0
  0
LINE
  5
EF7C87AA2
330
EF7C85532
100
AcDbEntity
  8
JISSEN
 62
     0
100
AcDbLine
 10
475.3294913195754
 20
117.22871325507
 30
0.0
 11
475.3294913195754
 21
118.22871325507
 31
0.0
  0
LINE
  5
EF7C87AA3
330
EF7C85532
100
AcDbEntity
  8
JISSEN
 62
     0
100
AcDbLine
 10
474.0794913195754
 20
120.22871325507
 30
0.0
 11
474.0794913195754
 21
117.22871325507
 31
0.0
  0
LINE
  5
EF7C87AA4
330
EF7C85532
100
AcDbEntity
  8
JISSEN
 62
     0
100
AcDbLine
 10
474.0794913195754
 20
117.22871325507
 30
0.0
 11
475.3294913195754
 21
117.22871325507
 31
0.0
  0
LINE
  5
EF7C87AA5
330
EF7C85532
100
AcDbEntity
  8
JISSEN
 62
     0
100
AcDbLine
 10
475.3294913195754
 20
118.22871325507
 30
0.0
 11
476.8294913195756
 21
118.22871325507
 31
0.0
  0
LINE
  5
EF7C87AA6
330
EF7C85532
100
AcDbEntity
  8
JISSEN
 62
     0
100
AcDbLine
 10
478.3294913195756
 20
118.22871325507
 30
0.0
 11
479.8294913195754
 21
118.22871325507
 31
0.0
  0
LINE
  5
EF7C87AA7
330
EF7C85532
100
AcDbEntity
  8
JISSEN
 62
     0
100
AcDbLine
 10
479.4999981936029
 20
117.7994120899997
 30
0.0
 11
478.4607677090614
 21
117.1994120899997
 31
0.0
  0
LINE
  5
EF7C87AA8
330
EF7C85532
100
AcDbEntity
  8
JISSEN
 62
     0
100
AcDbLine
 10
481.0794913195755
 20
117.22871325507
 30
0.0
 11
481.0794913195755
 21
120.22871325507
 31
0.0
  0
LINE
  5
EF7C87AA9
330
EF7C85532
100
AcDbEntity
  8
JISSEN
 62
     0
100
AcDbLine
 10
479.8294913195754
 20
117.22871325507
 30
0.0
 11
481.0794913195755
 21
117.22871325507
 31
0.0
  0
LINE
  5
EF7C87AAA
330
EF7C85532
100
AcDbEntity
  8
JISSEN
 62
     0
100
AcDbLine
 10
479.8294913195754
 20
118.22871325507
 30
0.0
 11
479.8294913195754
 21
117.22871325507
 31
0.0
  0
LINE
  5
EF7C87AAB
330
EF7C85532
100
AcDbEntity
  8
JISSEN
 62
     0
100
AcDbLine
 10
476.8294913195756
 20
127.0287132550701
 30
0.0
 11
476.8294913195756
 21
122.5287132550701
 31
0.0
  0
LINE
  5
EF7C87AAC
330
EF7C85532
100
AcDbEntity
  8
JISSEN
 62
     0
100
AcDbLine
 10
474.0794913195754
 20
127.0287132550701
 30
0.0
 11
476.8294913195756
 21
127.0287132550701
 31
0.0
  0
LINE
  5
EF7C87AAD
330
EF7C85532
100
AcDbEntity
  8
JISSEN
 62
     0
100
AcDbLine
 10
478.3294913195756
 20
127.0287132550701
 30
0.0
 11
481.0794913195755
 21
127.0287132550701
 31
0.0
  0
LINE
  5
EF7C87AAE
330
EF7C85532
100
AcDbEntity
  8
JISSEN
 62
     0
100
AcDbLine
 10
478.3294913195756
 20
122.5287132550701
 30
0.0
 11
478.3294913195756
 21
127.0287132550701
 31
0.0
  0
LINE
  5
EF7C87AAF
330
EF7C85532
100
AcDbEntity
  8
SUNPOU
100
AcDbLine
 10
490.9151819517041
 20
100.5787132550701
 30
0.0
 11
500.8932069888283
 21
110.7045222902064
 31
0.0
  0
LINE
  5
EF7C87AB0
330
EF7C85532
100
AcDbEntity
  8
0
 62
     0
100
AcDbLine
 10
498.1752783709732
 20
88.57871325507012
 30
0.0
 11
504.1773008203479
 21
94.58073570444485
 31
0.0
  0
LINE
  5
EF7C87AB1
330
EF7C85532
100
AcDbEntity
  8
0
 62
     0
100
AcDbLine
 10
493.7558609885573
 20
88.57871325507012
 30
0.0
 11
502.1968675350469
 21
97.01971980155972
 31
0.0
  0
LINE
  5
EF7C87AB2
330
EF7C85532
100
AcDbEntity
  8
0
 62
     0
100
AcDbLine
 10
489.3364436061413
 20
88.57871325507012
 30
0.0
 11
501.3364436061413
 21
100.5787132550701
 31
0.0
  0
LINE
  5
EF7C87AB3
330
EF7C85532
100
AcDbEntity
  8
0
 62
     0
100
AcDbLine
 10
484.9170262237256
 20
88.57871325507012
 30
0.0
 11
496.9170262237256
 21
100.5787132550701
 31
0.0
  0
LINE
  5
EF7C87AB4
330
EF7C85532
100
AcDbEntity
  8
JISSEN
 62
     0
100
AcDbLine
 10
490.0794913195754
 20
86.87871325507009
 30
0.0
 11
490.0794913195754
 21
88.57871325507012
 31
0.0
  0
LINE
  5
EF7C87AB5
330
EF7C85532
100
AcDbEntity
  8
0
 62
     0
100
AcDbLine
 10
485.7976009236351
 20
89.45928795497962
 30
0.0
 11
485.7976009236351
 21
89.45928795497962
 31
0.0
  0
LINE
  5
EF7C87AB6
330
EF7C85532
100
AcDbEntity
  8
0
 62
     0
100
AcDbLine
 10
491.8742998244567
 20
91.11656947338557
 30
0.0
 11
491.8742998244567
 21
91.11656947338557
 31
0.0
  0
LINE
  5
EF7C87AB7
330
EF7C85532
100
AcDbEntity
  8
0
 62
     0
100
AcDbLine
 10
497.9509987252787
 20
92.77385099179154
 30
0.0
 11
497.9509987252787
 21
92.77385099179154
 31
0.0
  0
LINE
  5
EF7C87AB8
330
EF7C85532
100
AcDbEntity
  8
SUNPOU
100
AcDbLine
 10
490.9151819517041
 20
100.5787132550701
 30
0.0
 11
494.9325397415885
 21
102.9376793368474
 31
0.0
  0
LINE
  5
EF7C87AB9
330
EF7C85532
100
AcDbEntity
  8
0
 62
     0
100
AcDbLine
 10
487.4548824420408
 20
95.53598685580151
 30
0.0
 11
487.4548824420408
 21
95.53598685580151
 31
0.0
  0
LINE
  5
EF7C87ABA
330
EF7C85532
100
AcDbEntity
  8
0
 62
     0
100
AcDbLine
 10
493.5315813428626
 20
97.19326837420746
 30
0.0
 11
493.5315813428626
 21
97.19326837420746
 31
0.0
  0
LINE
  5
EF7C87ABB
330
EF7C85532
100
AcDbEntity
  8
SUNPOU
100
AcDbLine
 10
490.9151819517041
 20
100.5787132550701
 30
0.0
 11
493.2148328129463
 21
104.6303167034976
 31
0.0
  0
LINE
  5
EF7C87ABC
330
EF7C85532
100
AcDbEntity
  8
0
 62
     0
100
AcDbLine
 10
504.0276976261004
 20
94.43113251019752
 30
0.0
 11
504.0276976261004
 21
94.43113251019752
 31
0.0
  0
LINE
  5
EF7C87ABD
330
EF7C85532
100
AcDbEntity
  8
0
 62
     0
100
AcDbLine
 10
499.6082802436847
 20
98.85054989261341
 30
0.0
 11
499.6082802436847
 21
98.85054989261341
 31
0.0
  0
LINE
  5
EF7C87ABE
330
EF7C85532
100
AcDbEntity
  8
0
 62
     0
100
AcDbLine
 10
500.7131345892887
 20
99.95540423821736
 30
0.0
 11
501.3364436061413
 21
100.5787132550699
 31
0.0
  0
LINE
  5
EF7C87ABF
330
EF7C85532
100
AcDbEntity
  8
0
 62
     0
100
AcDbLine
 10
507.0141131358051
 20
88.57871325507012
 30
0.0
 11
507.1306570138849
 21
88.69525713315002
 31
0.0
  0
LINE
  5
EF7C87AC0
330
EF7C85532
100
AcDbEntity
  8
SUNPOU
100
AcDbLine
 10
482.6874627387327
 20
144.8413240382781
 30
0.0
 11
485.177516644815
 21
148.7787744991379
 31
0.0
  0
LINE
  5
EF7C87AC1
330
EF7C85532
100
AcDbEntity
  8
SUNPOU
100
AcDbLine
 10
482.6874627387327
 20
144.8413240382781
 30
0.0
 11
486.8126379086226
 21
147.0062292104841
 31
0.0
  0
LINE
  5
EF7C87AC2
330
EF7C85532
100
AcDbEntity
  8
SUNPOU
100
AcDbLine
 10
482.6874627387327
 20
144.8413240382781
 30
0.0
 11
494.8648159655796
 21
156.074576765624
 31
0.0
  0
LWPOLYLINE
  5
EF7C87AC3
330
EF7C85532
100
AcDbEntity
  8
JISSEN
 62
     0
100
AcDbPolyline
 90
       13
 70
     0
 43
0.0
 10
480.1999981936027
 20
153.8692405311446
 42
0.0123075550001654
 10
480.6401690430361
 20
154.0031712222974
 42
0.0889226874667008
 10
483.0032990525018
 20
155.2860725679508
 42
0.1049567332455664
 10
484.6581762031023
 20
157.3038449923805
 42
0.120011216869144
 10
485.1999981936025
 20
159.52871325507
 42
0.1200112168691424
 10
484.6581762031023
 20
161.7535815177595
 42
0.1049567332455653
 10
483.0032990525018
 20
163.7713539421894
 42
0.0889226874666963
 10
480.6401690430361
 20
165.0542552878428
 42
0.0801668980116132
 10
477.6999981936026
 20
165.5287132550701
 42
0.0801668980116128
 10
474.7598273441694
 20
165.0542552878428
 42
0.0889226874666951
 10
472.3966973347036
 20
163.7713539421894
 42
0.1049567332455669
 10
470.741820184103
 20
161.7535815177595
 42
0.1200112168691447
 10
470.1999981936026
 20
159.52871325507
 42
0.1200112168691455
  0
LINE
  5
EF7C87AC4
330
EF7C85532
100
AcDbEntity
  8
JISSEN
 62
     0
100
AcDbLine
 10
480.1999981936027
 20
153.8692405311446
 30
0.0
 11
480.1999981936027
 21
147.5254011739806
 31
0.0
  0
LINE
  5
EF7C87AC5
330
EF7C85532
100
AcDbEntity
  8
JISSEN
 62
     0
100
AcDbLine
 10
475.1999981936026
 20
147.5254011739806
 30
0.0
 11
475.1999981936026
 21
153.8692405311446
 31
0.0
  0
LINE
  5
EF7C87AC6
330
EF7C85532
100
AcDbEntity
  8
JISSEN
 62
     0
100
AcDbLine
 10
469.9999981936029
 20
155.5673612824309
 30
0.0
 11
469.9999981936029
 21
137.5673612824309
 31
0.0
  0
LINE
  5
EF7C87AC7
330
EF7C85532
100
AcDbEntity
  8
JISSEN
 62
     0
100
AcDbLine
 10
456.1672017301729
 20
144.6421837054929
 30
0.0
 11
462.419824335855
 21
144.3167093723796
 31
0.0
  0
LINE
  5
EF7C87AC8
330
EF7C85532
100
AcDbEntity
  8
JISSEN
 62
     0
100
AcDbLine
 10
461.9471337508038
 20
131.9908553982934
 30
0.0
 11
464.1999981936031
 21
129.7984782119897
 31
0.0
  0
LINE
  5
EF7C87AC9
330
EF7C85532
100
AcDbEntity
  8
JISSEN
 62
     0
100
AcDbLine
 10
456.1672017301729
 20
140.4925388593688
 30
0.0
 11
462.419824335855
 21
140.8180131924818
 31
0.0
  0
LINE
  5
EF7C87ACA
330
EF7C85532
100
AcDbEntity
  8
JISSEN
 62
     0
100
AcDbLine
 10
441.830375379906
 20
131.9908553982934
 30
0.0
 11
463.1696210072995
 21
131.9908553982934
 31
0.0
  0
LINE
  5
EF7C87ACB
330
EF7C85532
100
AcDbEntity
  8
SAISEN
 62
     0
100
AcDbLine
 10
443.052862636402
 20
131.9908553982934
 30
0.0
 11
443.1477664156378
 21
135.0276245727288
 31
0.0
  0
LINE
  5
EF7C87ACC
330
EF7C85532
100
AcDbEntity
  8
JISSEN
 62
     0
100
AcDbLine
 10
441.9252791591418
 20
135.0276245727288
 30
0.0
 11
441.7920303337023
 21
130.763875237535
 31
0.0
  0
LINE
  5
EF7C87ACD
330
EF7C85532
100
AcDbEntity
  8
SAISEN
 62
     0
100
AcDbLine
 10
461.9471337508038
 20
131.9908553982934
 30
0.0
 11
461.8522299715676
 21
135.0276245727288
 31
0.0
  0
CIRCLE
  5
EF7C87ACE
330
EF7C85532
100
AcDbEntity
  8
JISSEN
 62
     0
100
AcDbCircle
 10
452.4999981936026
 20
142.5673612824309
 30
0.0
 40
4.001768729385497
  0
ARC
  5
EF7C87ACF
330
EF7C85532
100
AcDbEntity
  8
JISSEN
 62
     0
100
AcDbCircle
 10
442.6321557214281
 20
143.318061437397
 30
0.0
 40
1.0
100
AcDbArc
 50
92.9797879758283
 51
180.0
  0
LINE
  5
EF7C87AD0
330
EF7C85532
100
AcDbEntity
  8
JISSEN
 62
     0
100
AcDbLine
 10
448.8327946570326
 20
140.4925388593688
 30
0.0
 11
442.5801720513504
 21
140.8180131924818
 31
0.0
  0
ARC
  5
EF7C87AD1
330
EF7C85532
100
AcDbEntity
  8
JISSEN
 62
     0
100
AcDbCircle
 10
442.6321557214281
 20
141.8166611274646
 30
0.0
 40
1.0
100
AcDbArc
 50
180.0
 51
267.0202120241716
  0
LINE
  5
EF7C87AD2
330
EF7C85532
100
AcDbEntity
  8
JISSEN
 62
     0
100
AcDbLine
 10
441.6321557214281
 20
141.8166611274646
 30
0.0
 11
441.6321557214281
 21
143.318061437397
 31
0.0
  0
ARC
  5
EF7C87AD3
330
EF7C85532
100
AcDbEntity
  8
JISSEN
 62
     0
100
AcDbCircle
 10
448.8068028219936
 20
139.9932148918774
 30
0.0
 40
0.5
100
AcDbArc
 50
34.87638431273655
 51
87.02021202417169
  0
LINE
  5
EF7C87AD4
330
EF7C85532
100
AcDbEntity
  8
JISSEN
 62
     0
100
AcDbLine
 10
448.8327946570326
 20
144.6421837054929
 30
0.0
 11
442.5801720513504
 21
144.3167093723796
 31
0.0
  0
ARC
  5
EF7C87AD5
330
EF7C85532
100
AcDbEntity
  8
JISSEN
 62
     0
100
AcDbCircle
 10
448.8068028219936
 20
145.1415076729844
 30
0.0
 40
0.5
100
AcDbArc
 50
272.9797879758283
 51
325.1236156872672
  0
ARC
  5
EF7C87AD6
330
EF7C85532
100
AcDbEntity
  8
JISSEN
 62
     0
100
AcDbCircle
 10
456.1931935652117
 20
139.9932148918774
 30
0.0
 40
0.5
100
AcDbArc
 50
92.9797879758283
 51
145.1236156872634
  0
ARC
  5
EF7C87AD7
330
EF7C85532
100
AcDbEntity
  8
JISSEN
 62
     0
100
AcDbCircle
 10
456.1931935652117
 20
145.1415076729844
 30
0.0
 40
0.5
100
AcDbArc
 50
214.876384312734
 51
267.0202120241716
  0
LINE
  5
EF7C87AD8
330
EF7C85532
100
AcDbEntity
  8
JISSEN
 62
     0
100
AcDbLine
 10
465.4986553937668
 20
137.5673612824309
 30
0.0
 11
482.6999981936026
 21
137.5673612824309
 31
0.0
  0
LINE
  5
EF7C87AD9
330
EF7C85532
100
AcDbEntity
  8
JISSEN
 62
     0
100
AcDbLine
 10
463.0747172280632
 20
135.0276245727288
 30
0.0
 11
463.2071068119361
 21
130.7913695936567
 31
0.0
  0
LINE
  5
EF7C87ADA
330
EF7C85532
100
AcDbEntity
  8
JISSEN
 62
     0
100
AcDbLine
 10
480.1999981936027
 20
137.5673612824309
 30
0.0
 11
480.1999981936027
 21
129.0287132550701
 31
0.0
  0
LINE
  5
EF7C87ADB
330
EF7C85532
100
AcDbEntity
  8
JISSEN
 62
     0
100
AcDbLine
 10
475.1999981936026
 20
129.0287132550701
 30
0.0
 11
475.1999981936026
 21
137.5673612824309
 31
0.0
  0
LINE
  5
EF7C87ADC
330
EF7C85532
100
AcDbEntity
  8
JISSEN
 62
     0
100
AcDbLine
 10
481.0794913195755
 20
128.5287132550701
 30
0.0
 11
474.0794913195754
 21
128.5287132550701
 31
0.0
  0
LINE
  5
EF7C87ADD
330
EF7C85532
100
AcDbEntity
  8
JISSEN
 62
     0
100
AcDbLine
 10
475.1999981936026
 20
129.0287132550701
 30
0.0
 11
475.6999981936026
 21
128.5287132550701
 31
0.0
  0
LINE
  5
EF7C87ADE
330
EF7C85532
100
AcDbEntity
  8
JISSEN
 62
     0
100
AcDbLine
 10
480.1999981936027
 20
129.0287132550701
 30
0.0
 11
479.6999981936026
 21
128.5287132550701
 31
0.0
  0
LINE
  5
EF7C87ADF
330
EF7C85532
100
AcDbEntity
  8
JISSEN
 62
     0
100
AcDbLine
 10
480.1999981936027
 20
147.5254011739806
 30
0.0
 11
469.9999981936029
 21
147.5254011739806
 31
0.0
  0
ARC
  5
EF7C87AE0
330
EF7C85532
100
AcDbEntity
  8
JISSEN
 62
     0
100
AcDbCircle
 10
462.3678406657772
 20
143.318061437397
 30
0.0
 40
1.0
100
AcDbArc
 50
0.0
 51
87.02021202417169
  0
ARC
  5
EF7C87AE1
330
EF7C85532
100
AcDbEntity
  8
JISSEN
 62
     0
100
AcDbCircle
 10
462.3678406657772
 20
141.8166611274646
 30
0.0
 40
1.0
100
AcDbArc
 50
272.9797879758283
 51
0.0
  0
LINE
  5
EF7C87AE2
330
EF7C85532
100
AcDbEntity
  8
JISSEN
 62
     0
100
AcDbLine
 10
463.3678406657772
 20
141.8166611274646
 30
0.0
 11
463.3678406657772
 21
143.318061437397
 31
0.0
  0
LINE
  5
EF7C87AE3
330
EF7C85532
100
AcDbEntity
  8
JISSEN
 62
     0
100
AcDbLine
 10
482.6999981936026
 20
144.5673612824309
 30
0.0
 11
482.6999981936026
 21
138.7673612824309
 31
0.0
  0
ARC
  5
EF7C87AE4
330
EF7C85532
100
AcDbEntity
  8
JISSEN
 62
     0
100
AcDbCircle
 10
479.6999981936026
 20
144.5673612824309
 30
0.0
 40
3.0
100
AcDbArc
 50
0.0
 51
80.40593177313521
  0
LWPOLYLINE
  5
EF7C87AE5
330
EF7C85532
100
AcDbEntity
  8
JISSEN
 62
     0
100
AcDbPolyline
 90
        5
 70
     0
 43
0.0
 10
470.1999981936026
 20
159.52871325507
 42
0.1200112168691455
 10
470.741820184103
 20
157.3038449923805
 42
0.1049567332455674
 10
472.3966973347036
 20
155.2860725679508
 42
0.0889226874667021
 10
474.7598273441695
 20
154.0031712222974
 42
0.012307555000165
 10
475.1999981936026
 20
153.8692405311446
 42
0.0801668980116146
  0
LINE
  5
EF7C87AE6
330
EF7C85532
100
AcDbEntity
  8
JISSEN
 62
     0
100
AcDbLine
 10
469.9999981936029
 20
155.5673612824309
 30
0.0
 11
465.4986553937668
 21
155.5673612824309
 31
0.0
  0
INSERT
  5
EF7C87AE7
330
EF7C85532
100
AcDbEntity
  8
SUNPOU
100
AcDbBlockReference
  2
ARROW
 10
439.9999981900001
 20
252.1320623562297
 30
0.0
 41
1.5
 42
1.5
 43
1.5
 50
180.0
  0
LINE
  5
EF7C87AE9
330
EF7C85532
100
AcDbEntity
  8
JISSEN
100
AcDbLine
 10
464.9999981900001
 20
234.7069753526299
 30
0.0
 11
439.9999981900001
 21
234.7069753526299
 31
0.0
  0
LINE
  5
EF7C87AEA
330
EF7C85532
100
AcDbEntity
  8
SUNPOU
100
AcDbLine
 10
464.9999981900001
 20
252.1320623562297
 30
0.0
 11
439.9999981900001
 21
252.1320623562297
 31
0.0
  0
HATCH
  5
EF7C87AEB
330
EF7C85532
100
AcDbEntity
  8
HATCH
100
AcDbHatch
 10
0.0
 20
0.0
 30
0.0
210
0.0
220
0.0
230
1.0
  2
ANSI31
 70
     0
 71
     0
 91
        2
 92
        7
 72
     0
 73
     1
 93
        4
 10
526.5634243115989
 20
242.7069753526299
 10
464.9999981900001
 20
242.7069753526299
 10
464.9999981900001
 20
234.7069753526299
 10
526.5634243115989
 20
234.7069753526299
 97
        0
 92
        7
 72
     0
 73
     1
 93
        4
 10
439.9999981900001
 20
242.70697535263
 10
378.4365720684014
 20
242.7069753526302
 10
378.4365720684014
 20
234.7069753526302
 10
439.9999981900001
 20
234.70697535263
 97
        0
 75
     0
 76
     1
 52
0.0
 41
20.0
 77
     0
 78
     1
 53
45.0
 43
362.4999147519838
 44
195.6283811920743
 45
-1.767766952966368
 46
1.767766952966368
 79
     0
 47
0.1733828905373426
 98
        2
 10
484.1131975971343
 20
238.9565665533528
 10
425.2885858413518
 20
238.7831836180593
  0
LINE
  5
EF7C87AEC
330
EF7C85532
100
AcDbEntity
  8
JISSEN
100
AcDbLine
 10
439.9999981900001
 20
242.7069753526299
 30
0.0
 11
378.4365720684014
 21
242.7069753526302
 31
0.0
  0
LINE
  5
EF7C87AED
330
EF7C85532
100
AcDbEntity
  8
JISSEN
100
AcDbLine
 10
439.9999981900001
 20
234.7069753526299
 30
0.0
 11
378.4365720684014
 21
234.7069753526299
 31
0.0
  0
LINE
  5
EF7C87AEE
330
EF7C85532
100
AcDbEntity
  8
SUNPOU
100
AcDbLine
 10
439.9999981900001
 20
243.7069753526301
 30
0.0
 11
439.9999981900001
 21
253.1320623562297
 31
0.0
  0
LINE
  5
EF7C87AEF
330
EF7C85532
100
AcDbEntity
  8
JISSEN
100
AcDbLine
 10
439.9999981900001
 20
234.7069753526299
 30
0.0
 11
439.9999981900001
 21
242.7069753526299
 31
0.0
  0
LINE
  5
EF7C87AF1
330
EF7C85532
100
AcDbEntity
  8
JISSEN
100
AcDbLine
 10
438.4999981899999
 20
234.7069753526299
 30
0.0
 11
438.4999981899999
 21
234.2069753526299
 31
0.0
  0
LINE
  5
EF7C87B1E
330
EF7C85532
100
AcDbEntity
  8
JISSEN
100
AcDbLine
 10
526.5634243115989
 20
242.7069753526299
 30
0.0
 11
464.9999981900001
 21
242.7069753526299
 31
0.0
  0
LINE
  5
EF7C87B1F
330
EF7C85532
100
AcDbEntity
  8
JISSEN
100
AcDbLine
 10
464.9999981900001
 20
234.7069753526299
 30
0.0
 11
526.5634243115989
 21
234.7069753526299
 31
0.0
  0
INSERT
  5
EF7C87B20
330
EF7C85532
100
AcDbEntity
  8
SUNPOU
100
AcDbBlockReference
  2
ARROW
 10
464.9999981900001
 20
252.1320623562297
 30
0.0
 41
1.5
 42
1.5
 43
1.5
  0
LINE
  5
EF7C87B21
330
EF7C85532
100
AcDbEntity
  8
SUNPOU
100
AcDbLine
 10
464.9999981900001
 20
243.7069753526301
 30
0.0
 11
464.9999981900001
 21
253.1320623562297
 31
0.0
  0
LINE
  5
EF7C87B22
330
EF7C85532
100
AcDbEntity
  8
JISSEN
100
AcDbLine
 10
464.9999981900001
 20
234.7069753526299
 30
0.0
 11
464.9999981900001
 21
242.7069753526299
 31
0.0
  0
LINE
  5
EF7C87B23
330
EF7C85532
100
AcDbEntity
  8
JISSEN
100
AcDbLine
 10
466.4999981899998
 20
234.7069753526299
 30
0.0
 11
466.4999981899998
 21
234.2069753526299
 31
0.0
  0
MTEXT
  5
EF7C87B25
330
EF7C85532
100
AcDbEntity
  8
SUNPOU
100
AcDbMText
 10
452.4999981900001
 20
254.0828664346347
 30
0.0
 40
3.0
 41
0.0
 71
     5
 72
     1
  1
\A1;%%c25
  7
K
1001
ACAD
1000
MTEXTBEGIN
1070
    73
1070
     1
1070
    44
1040
1.0
1070
    74
1070
     0
1000
MTEXTEND
1000
MTEXTBEGIN
1070
    73
1070
     1
1070
    44
1040
1.0
1070
    74
1070
     0
1000
MTEXTEND
  0
TEXT
  5
EF7C87B26
330
EF7C85532
100
AcDbEntity
  8
SUNPOU
100
AcDbText
 10
490.9507575397558
 20
251.9155393813229
 30
0.0
 40
4.5
  1
設備プレート
  7
K
100
AcDbText
  0
LINE
  5
EF7C87B27
330
EF7C85532
100
AcDbEntity
  8
SUNPOU
100
AcDbLine
 10
488.3391862810547
 20
251.4306407426285
 30
0.0
 11
522.3756092295319
 21
251.4306407426285
 31
0.0
  0
LINE
  5
EF7C87B28
330
EF7C85532
100
AcDbEntity
  8
SUNPOU
100
AcDbLine
 10
484.7623368375283
 20
242.7069753526299
 30
0.0
 11
488.3391862810547
 21
251.4306407426285
 31
0.0
  0
INSERT
  5
EF7C87B29
330
EF7C85532
100
AcDbEntity
  8
SUNPOU
100
AcDbBlockReference
  2
ARROW
 10
484.7623368375283
 20
242.7069753526299
 30
0.0
 41
1.5
 42
1.5
 43
1.5
 50
247.705546370749
  0
LINE
  5
EF7C87B2A
330
EF7C85532
100
AcDbEntity
  8
JISSEN
100
AcDbLine
 10
466.4999981936029
 20
85.94922012909725
 30
0.0
 11
460.5718210139168
 21
85.94922012909725
 31
0.0
  0
ARC
  5
EF7C87BB3
330
EF7C85532
100
AcDbEntity
  8
JISSEN
100
AcDbCircle
 10
452.4779210532482
 20
77.64827119855127
 30
0.0
 40
4.249999998894995
100
AcDbArc
 50
241.9275130641455
 51
269.9999999999934
  0
ARC
  5
EF7C87BB4
330
EF7C85532
100
AcDbEntity
  8
JISSEN
100
AcDbCircle
 10
452.4718210160228
 20
77.64827119855127
 30
0.0
 40
4.249999998894995
100
AcDbArc
 50
270.0000000000065
 51
298.0724869358543
  0
ARC
  5
EF7C87BB5
330
EF7C85532
100
AcDbEntity
  8
JISSEN
100
AcDbCircle
 10
452.4779210532475
 20
79.29827119905827
 30
0.0
 40
3.1
100
AcDbArc
 50
89.99999999999348
 51
181.9160832903886
  0
LINE
  5
EF7C87BB6
330
EF7C85532
100
AcDbEntity
  8
JISSEN
100
AcDbLine
 10
445.3779210550942
 20
75.6982711990583
 30
0.0
 11
452.4748710346356
 21
75.6982711990583
 31
0.0
  0
LINE
  5
EF7C87BB7
330
EF7C85532
100
AcDbEntity
  8
JISSEN
100
AcDbLine
 10
452.4748710346356
 20
74.69827119931828
 30
0.0
 11
445.3779210550942
 21
74.6982711993183
 31
0.0
  0
LINE
  5
EF7C87BB8
330
EF7C85532
100
AcDbEntity
  8
JISSEN
100
AcDbLine
 10
452.4748710346356
 20
77.19827119905829
 30
0.0
 11
445.6779210550147
 21
77.19827119905899
 31
0.0
  0
LINE
  5
EF7C87BB9
330
EF7C85532
100
AcDbEntity
  8
JISSEN
100
AcDbLine
 10
444.3779210553541
 20
75.6982711990583
 30
0.0
 11
444.3779210553541
 21
89.19827119463827
 31
0.0
  0
LINE
  5
EF7C87BBA
330
EF7C85532
100
AcDbEntity
  8
JISSEN
100
AcDbLine
 10
445.3779210550942
 20
89.19827119463823
 30
0.0
 11
445.3779210550942
 21
75.6982711990583
 31
0.0
  0
LINE
  5
EF7C87BBB
330
EF7C85532
100
AcDbEntity
  8
JISSEN
100
AcDbLine
 10
449.2163145034874
 20
77.49827119905862
 30
0.0
 11
449.3796543571908
 21
79.19462043877842
 31
0.0
  0
ARC
  5
EF7C87BBC
330
EF7C85532
100
AcDbEntity
  8
JISSEN
100
AcDbCircle
 10
445.3779210550942
 20
75.6982711990583
 30
0.0
 40
0.9999999997399998
100
AcDbArc
 50
180.0
 51
270.0
  0
LINE
  5
EF7C87BBD
330
EF7C85532
100
AcDbEntity
  8
JISSEN
100
AcDbLine
 10
449.2163145034874
 20
77.49827119905862
 30
0.0
 11
445.6779210550147
 21
77.49827119905898
 31
0.0
  0
LINE
  5
EF7C87BBE
330
EF7C85532
100
AcDbEntity
  8
JISSEN
100
AcDbLine
 10
445.6779210550163
 20
75.6982711990583
 30
0.0
 11
445.6779210550163
 21
77.19827119866829
 31
0.0
  0
LINE
  5
EF7C87BBF
330
EF7C85532
100
AcDbEntity
  8
JISSEN
100
AcDbLine
 10
445.6779210550163
 20
77.19827119866829
 30
0.0
 11
445.6779210550163
 21
77.4982711985903
 31
0.0
  0
LINE
  5
EF7C87BC0
330
EF7C85532
100
AcDbEntity
  8
JISSEN
100
AcDbLine
 10
459.5718210141768
 20
89.19827119463823
 30
0.0
 11
459.5718210141767
 21
75.6982711990583
 31
0.0
  0
LINE
  5
EF7C87BC1
330
EF7C85532
100
AcDbEntity
  8
JISSEN
100
AcDbLine
 10
460.5718210139168
 20
75.6982711990583
 30
0.0
 11
460.5718210139168
 21
89.19827119463827
 31
0.0
  0
ARC
  5
EF7C87BC2
330
EF7C85532
100
AcDbEntity
  8
JISSEN
100
AcDbCircle
 10
459.5718210141768
 20
75.6982711990583
 30
0.0
 40
0.9999999997399998
100
AcDbArc
 50
270.0
 51
0.0
  0
LINE
  5
EF7C87BC3
330
EF7C85532
100
AcDbEntity
  8
JISSEN
100
AcDbLine
 10
455.7334275657836
 20
77.49827119905862
 30
0.0
 11
455.5700877120804
 21
79.19462043877842
 31
0.0
  0
LINE
  5
EF7C87BC4
330
EF7C85532
100
AcDbEntity
  8
JISSEN
100
AcDbLine
 10
452.4748710346356
 20
74.69827119931828
 30
0.0
 11
459.5718210141768
 21
74.6982711993183
 31
0.0
  0
LINE
  5
EF7C87BC5
330
EF7C85532
100
AcDbEntity
  8
JISSEN
100
AcDbLine
 10
459.5718210141767
 20
75.6982711990583
 30
0.0
 11
452.4748710346356
 21
75.6982711990583
 31
0.0
  0
LINE
  5
EF7C87BC6
330
EF7C85532
100
AcDbEntity
  8
JISSEN
100
AcDbLine
 10
452.4748710346356
 20
77.19827119905829
 30
0.0
 11
459.2718210142565
 21
77.19827119905899
 31
0.0
  0
LINE
  5
EF7C87BC7
330
EF7C85532
100
AcDbEntity
  8
JISSEN
100
AcDbLine
 10
450.4779210537681
 20
73.89827119952631
 30
0.0
 11
450.4779210537681
 21
74.69827119931827
 31
0.0
  0
LINE
  5
EF7C87BC8
330
EF7C85532
100
AcDbEntity
  8
JISSEN
100
AcDbLine
 10
454.4718210155028
 20
73.89827119952631
 30
0.0
 11
454.4718210155028
 21
74.69827119931827
 31
0.0
  0
LINE
  5
EF7C87BC9
330
EF7C85532
100
AcDbEntity
  8
JISSEN
100
AcDbLine
 10
455.7334275657836
 20
77.49827119905862
 30
0.0
 11
459.2718210142565
 21
77.49827119905898
 31
0.0
  0
LINE
  5
EF7C87BCA
330
EF7C85532
100
AcDbEntity
  8
JISSEN
100
AcDbLine
 10
459.2718210142548
 20
75.6982711990583
 30
0.0
 11
459.2718210142548
 21
77.19827119866829
 31
0.0
  0
LINE
  5
EF7C87BCB
330
EF7C85532
100
AcDbEntity
  8
JISSEN
100
AcDbLine
 10
459.2718210142548
 20
77.19827119866829
 30
0.0
 11
459.2718210142548
 21
77.4982711985903
 31
0.0
  0
ARC
  5
EF7C87BCC
330
EF7C85532
100
AcDbEntity
  8
JISSEN
100
AcDbCircle
 10
452.4718210160236
 20
79.29827119905827
 30
0.0
 40
3.1
100
AcDbArc
 50
358.0839167096112
 51
90.00000000000651
  0
LINE
  5
EF7C87BCD
330
EF7C85532
100
AcDbEntity
  8
JISSEN
100
AcDbLine
 10
459.5718210141767
 20
85.94922012909725
 30
0.0
 11
445.3779210550941
 21
85.94922012909725
 31
0.0
  0
LINE
  5
EF7C87BCE
330
EF7C85532
100
AcDbEntity
  8
JISSEN
100
AcDbLine
 10
444.3779210553541
 20
85.94922012909725
 30
0.0
 11
438.4999981936026
 21
85.94922012909725
 31
0.0
  0
ARC
  5
EF7C87BDA
330
EF7C85532
100
AcDbEntity
  8
JISSEN
100
AcDbCircle
 10
452.4718210160236
 20
39.29827119905825
 30
0.0
 40
3.1
100
AcDbArc
 50
358.0839167096112
 51
90.00000000000651
  0
LINE
  5
EF7C87BDB
330
EF7C85532
100
AcDbEntity
  8
JISSEN
100
AcDbLine
 10
460.5718210139168
 20
35.69827119905829
 30
0.0
 11
460.5718210139167
 21
45.94922012909727
 31
0.0
  0
LINE
  5
EF7C87BDC
330
EF7C85532
100
AcDbEntity
  8
JISSEN
100
AcDbLine
 10
459.5718210141768
 20
45.94922012909727
 30
0.0
 11
459.5718210141767
 21
35.69827119905829
 31
0.0
  0
LINE
  5
EF7C87BDD
330
EF7C85532
100
AcDbEntity
  8
JISSEN
100
AcDbLine
 10
445.3779210550942
 20
45.94922012909727
 30
0.0
 11
445.3779210550942
 21
35.69827119905829
 31
0.0
  0
LINE
  5
EF7C87BDE
330
EF7C85532
100
AcDbEntity
  8
JISSEN
100
AcDbLine
 10
444.3779210553541
 20
35.69827119905829
 30
0.0
 11
444.3779210553542
 21
45.94922012909727
 31
0.0
  0
ARC
  5
EF7C87BDF
330
EF7C85532
100
AcDbEntity
  8
JISSEN
100
AcDbCircle
 10
452.4779210532475
 20
39.29827119905825
 30
0.0
 40
3.1
100
AcDbArc
 50
89.99999999999348
 51
181.9160832903886
  0
LINE
  5
EF7C87BE4
330
EF7C85532
100
AcDbEntity
  8
JISSEN
100
AcDbLine
 10
452.4748710346356
 20
37.19827119905829
 30
0.0
 11
445.6779210550147
 21
37.198271199059
 31
0.0
  0
LINE
  5
EF7C87BE5
330
EF7C85532
100
AcDbEntity
  8
JISSEN
100
AcDbLine
 10
452.4748710346356
 20
34.69827119931828
 30
0.0
 11
445.3779210550942
 21
34.6982711993183
 31
0.0
  0
LINE
  5
EF7C87BE6
330
EF7C85532
100
AcDbEntity
  8
JISSEN
100
AcDbLine
 10
445.3779210550942
 20
35.69827119905829
 30
0.0
 11
452.4748710346356
 21
35.69827119905829
 31
0.0
  0
ARC
  5
EF7C87BE7
330
EF7C85532
100
AcDbEntity
  8
JISSEN
100
AcDbCircle
 10
452.4779210532482
 20
37.64827119855127
 30
0.0
 40
4.249999998894995
100
AcDbArc
 50
241.9275130641455
 51
269.9999999999934
  0
LINE
  5
EF7C87BE8
330
EF7C85532
100
AcDbEntity
  8
JISSEN
100
AcDbLine
 10
449.2163145034874
 20
37.49827119905862
 30
0.0
 11
449.3796543571908
 21
39.1946204387784
 31
0.0
  0
LINE
  5
EF7C87BE9
330
EF7C85532
100
AcDbEntity
  8
JISSEN
100
AcDbLine
 10
449.2163145034874
 20
37.49827119905862
 30
0.0
 11
445.6779210550147
 21
37.49827119905899
 31
0.0
  0
LINE
  5
EF7C87BEA
330
EF7C85532
100
AcDbEntity
  8
JISSEN
100
AcDbLine
 10
445.6779210550163
 20
37.19827119866828
 30
0.0
 11
445.6779210550163
 21
37.49827119859029
 31
0.0
  0
LINE
  5
EF7C87BEB
330
EF7C85532
100
AcDbEntity
  8
JISSEN
100
AcDbLine
 10
445.6779210550163
 20
35.69827119905829
 30
0.0
 11
445.6779210550163
 21
37.19827119866828
 31
0.0
  0
ARC
  5
EF7C87BEC
330
EF7C85532
100
AcDbEntity
  8
JISSEN
100
AcDbCircle
 10
445.3779210550942
 20
35.69827119905829
 30
0.0
 40
0.9999999997399998
100
AcDbArc
 50
180.0
 51
270.0
  0
LINE
  5
EF7C87BED
330
EF7C85532
100
AcDbEntity
  8
JISSEN
100
AcDbLine
 10
450.4779210537681
 20
33.89827119952629
 30
0.0
 11
450.4779210537681
 21
34.69827119931827
 31
0.0
  0
LINE
  5
EF7C87BEE
330
EF7C85532
100
AcDbEntity
  8
JISSEN
100
AcDbLine
 10
455.7334275657836
 20
37.49827119905862
 30
0.0
 11
455.5700877120804
 21
39.1946204387784
 31
0.0
  0
LINE
  5
EF7C87BEF
330
EF7C85532
100
AcDbEntity
  8
JISSEN
100
AcDbLine
 10
455.7334275657836
 20
37.49827119905862
 30
0.0
 11
459.2718210142565
 21
37.49827119905899
 31
0.0
  0
LINE
  5
EF7C87BF0
330
EF7C85532
100
AcDbEntity
  8
JISSEN
100
AcDbLine
 10
452.4748710346356
 20
37.19827119905829
 30
0.0
 11
459.2718210142565
 21
37.198271199059
 31
0.0
  0
LINE
  5
EF7C87BF1
330
EF7C85532
100
AcDbEntity
  8
JISSEN
100
AcDbLine
 10
459.5718210141767
 20
35.69827119905829
 30
0.0
 11
452.4748710346356
 21
35.69827119905829
 31
0.0
  0
LINE
  5
EF7C87BF2
330
EF7C85532
100
AcDbEntity
  8
JISSEN
100
AcDbLine
 10
452.4748710346356
 20
34.69827119931828
 30
0.0
 11
459.5718210141768
 21
34.6982711993183
 31
0.0
  0
LINE
  5
EF7C87BF3
330
EF7C85532
100
AcDbEntity
  8
JISSEN
100
AcDbLine
 10
454.4718210155028
 20
33.89827119952629
 30
0.0
 11
454.4718210155028
 21
34.69827119931827
 31
0.0
  0
ARC
  5
EF7C87BF4
330
EF7C85532
100
AcDbEntity
  8
JISSEN
100
AcDbCircle
 10
452.4718210160228
 20
37.64827119855127
 30
0.0
 40
4.249999998894995
100
AcDbArc
 50
270.0000000000065
 51
298.0724869358543
  0
LINE
  5
EF7C87BF5
330
EF7C85532
100
AcDbEntity
  8
JISSEN
100
AcDbLine
 10
459.2718210142548
 20
37.19827119866828
 30
0.0
 11
459.2718210142548
 21
37.49827119859029
 31
0.0
  0
LINE
  5
EF7C87BF6
330
EF7C85532
100
AcDbEntity
  8
JISSEN
100
AcDbLine
 10
459.2718210142548
 20
35.69827119905829
 30
0.0
 11
459.2718210142548
 21
37.19827119866828
 31
0.0
  0
ARC
  5
EF7C87BF7
330
EF7C85532
100
AcDbEntity
  8
JISSEN
100
AcDbCircle
 10
459.5718210141768
 20
35.69827119905829
 30
0.0
 40
0.9999999997399998
100
AcDbArc
 50
270.0
 51
0.0
  0
LINE
  5
EF7C87C03
330
EF7C85532
100
AcDbEntity
  8
JISSEN
100
AcDbLine
 10
466.4999981936029
 20
45.94922012909727
 30
0.0
 11
438.4999981936026
 21
45.94922012909726
 31
0.0
  0
LINE
  5
EF7C87C09
330
EF7C85532
100
AcDbEntity
  8
SAISEN
 62
     0
100
AcDbLine
 10
438.4999981936026
 20
45.94922012909726
 30
0.0
 11
438.4999981936026
 21
46.79922012909725
 31
0.0
  0
LINE
  5
EF7C87C0B
330
EF7C85532
100
AcDbEntity
  8
SAISEN
 62
     0
100
AcDbLine
 10
438.4999981936026
 20
46.79922012909725
 30
0.0
 11
439.4999981936027
 21
46.79922012909725
 31
0.0
  0
LINE
  5
EF7C87C2A
330
EF7C85532
100
AcDbEntity
  8
SAISEN
 62
     0
100
AcDbLine
 10
466.4999981936029
 20
45.94922012909726
 30
0.0
 11
466.4999981936026
 21
46.79922012909725
 31
0.0
  0
LINE
  5
EF7C87C2B
330
EF7C85532
100
AcDbEntity
  8
SAISEN
 62
     0
100
AcDbLine
 10
466.4999981936029
 20
46.79922012909725
 30
0.0
 11
465.4999981936025
 21
46.79922012909725
 31
0.0
  0
LINE
  5
EF7C87C4C
330
EF7C85532
100
AcDbEntity
  8
JISSEN
100
AcDbLine
 10
490.0794913195754
 20
46.8787132550701
 30
0.0
 11
490.0794913195756
 21
48.49922012909726
 31
0.0
  0
LINE
  5
EF7C87C4D
330
EF7C85532
100
AcDbEntity
  8
JISSEN
100
AcDbLine
 10
414.9205050676298
 20
46.87871325507011
 30
0.0
 11
414.9205050676298
 21
48.49922012909726
 31
0.0
  0
LINE
  5
EF7C87C4E
330
EF7C85532
100
AcDbEntity
  8
JISSEN
100
AcDbLine
 10
490.0794913195754
 20
46.79922012909725
 30
0.0
 11
414.9205050676298
 21
46.79922012909725
 31
0.0
  0
LINE
  5
EF7C87C50
330
EF7C85532
100
AcDbEntity
  8
JISSEN
100
AcDbLine
 10
500.0794913195756
 20
48.49922012909726
 30
0.0
 11
404.9205050676297
 21
48.49922012909726
 31
0.0
  0
LINE
  5
EF7C87E01
330
EF7C85532
100
AcDbEntity
  8
JISSEN
100
AcDbLine
 10
99.50008343628622
 20
108.7285941711119
 30
0.0
 11
90.00008343628627
 21
108.7285941711119
 31
0.0
  0
LINE
  5
EF7C87E02
330
EF7C85532
100
AcDbEntity
  8
JISSEN
100
AcDbLine
 10
101.0000834362862
 20
118.578594160556
 30
0.0
 11
101.0000834362862
 21
110.2285941711119
 31
0.0
  0
ARC
  5
EF7C87E03
330
EF7C85532
100
AcDbEntity
  8
JISSEN
100
AcDbCircle
 10
99.50008343628622
 20
110.2285941711119
 30
0.0
 40
1.5
100
AcDbArc
 50
270.0
 51
0.0
  0
LINE
  5
EF7C87E05
330
EF7C85532
100
AcDbEntity
  8
JISSEN
100
AcDbLine
 10
80.50008343628627
 20
108.7285941711119
 30
0.0
 11
90.00008343628627
 21
108.7285941711119
 31
0.0
  0
LINE
  5
EF7C87E06
330
EF7C85532
100
AcDbEntity
  8
JISSEN
100
AcDbLine
 10
79.00008343628627
 20
118.578594160556
 30
0.0
 11
79.00008343628627
 21
110.2285941711119
 31
0.0
  0
ARC
  5
EF7C87E07
330
EF7C85532
100
AcDbEntity
  8
JISSEN
100
AcDbCircle
 10
80.50008343628627
 20
110.2285941711119
 30
0.0
 40
1.5
100
AcDbArc
 50
180.0
 51
270.0
  0
LINE
  5
EF7C87E33
330
EF7C85532
100
AcDbEntity
  8
JISSEN
100
AcDbLine
 10
280.9999989122701
 20
224.3569753631862
 30
0.0
 11
271.49999891227
 21
224.3569753631862
 31
0.0
  0
LINE
  5
EF7C87E34
330
EF7C85532
100
AcDbEntity
  8
JISSEN
100
AcDbLine
 10
282.4999989122701
 20
234.2069753526302
 30
0.0
 11
282.4999989122701
 21
225.8569753631861
 31
0.0
  0
ARC
  5
EF7C87E35
330
EF7C85532
100
AcDbEntity
  8
JISSEN
100
AcDbCircle
 10
280.9999989122701
 20
225.8569753631861
 30
0.0
 40
1.5
100
AcDbArc
 50
270.0
 51
0.0
  0
ARC
  5
EF7C87E36
330
EF7C85532
100
AcDbEntity
  8
JISSEN
100
AcDbCircle
 10
261.9999989122701
 20
225.8569753631861
 30
0.0
 40
1.5
100
AcDbArc
 50
180.0
 51
270.0
  0
LINE
  5
EF7C87E37
330
EF7C85532
100
AcDbEntity
  8
JISSEN
100
AcDbLine
 10
260.49999891227
 20
234.2069753526302
 30
0.0
 11
260.49999891227
 21
225.8569753631861
 31
0.0
  0
LINE
  5
EF7C87E38
330
EF7C85532
100
AcDbEntity
  8
JISSEN
100
AcDbLine
 10
261.9999989122701
 20
224.3569753631862
 30
0.0
 11
271.49999891227
 21
224.3569753631862
 31
0.0
  0
ARC
  5
EF7C87E3F
330
EF7C85532
100
AcDbEntity
  8
JISSEN
100
AcDbCircle
 10
263.8999989159755
 20
95.19847822098663
 30
0.0
 40
0.4999999998699999
100
AcDbArc
 50
95.14084203241692
 51
180.0
  0
ARC
  5
EF7C87E40
330
EF7C85532
100
AcDbEntity
  8
JISSEN
100
AcDbCircle
 10
262.8966596633399
 20
96.17352247601377
 30
0.0
 40
1.524955746538608
100
AcDbArc
 50
269.9999999999624
 51
89.99691095794132
  0
ARC
  5
EF7C87E41
330
EF7C85532
100
AcDbEntity
  8
JISSEN
100
AcDbCircle
 10
263.8999989159755
 20
95.19847822098663
 30
0.0
 40
2.499999999349999
100
AcDbArc
 50
103.0473327248087
 51
180.0
  0
LINE
  5
EF7C87E42
330
EF7C85532
100
AcDbEntity
  8
JISSEN
100
AcDbLine
 10
263.3999989161054
 20
94.73402963979452
 30
0.0
 11
263.3999989161054
 21
95.19847822098663
 31
0.0
  0
LINE
  5
EF7C87E43
330
EF7C85532
100
AcDbEntity
  8
JISSEN
100
AcDbLine
 10
261.3999989166253
 20
94.64856672947613
 30
0.0
 11
261.3999989166253
 21
95.19847822098663
 31
0.0
  0
LINE
  5
EF7C87E44
330
EF7C85532
100
AcDbEntity
  8
JISSEN
100
AcDbLine
 10
259.7999989139994
 20
97.69847822255444
 30
0.0
 11
262.8966596633409
 21
97.69847822255242
 31
0.0
  0
LINE
  5
EF7C87E45
330
EF7C85532
100
AcDbEntity
  8
JISSEN
100
AcDbLine
 10
259.7999989170418
 20
94.64856672947719
 30
0.0
 11
262.8966596633389
 21
94.64856672947515
 31
0.0
  0
LINE
  5
EF7C87E46
330
EF7C85532
100
AcDbEntity
  8
JISSEN
100
AcDbLine
 10
263.9506301531556
 20
95.07141711104241
 30
0.0
 11
263.5737351688705
 21
97.53992607258163
 31
0.0
  0
LINE
  5
EF7C87E47
330
EF7C85532
100
AcDbEntity
  8
JISSEN
100
AcDbLine
 10
283.1999989109568
 20
94.64856672947719
 30
0.0
 11
280.1033381646599
 21
94.64856672947515
 31
0.0
  0
LINE
  5
EF7C87E48
330
EF7C85532
100
AcDbEntity
  8
JISSEN
100
AcDbLine
 10
283.1999989139993
 20
97.69847822255444
 30
0.0
 11
280.1033381646579
 21
97.69847822255242
 31
0.0
  0
LINE
  5
EF7C87E49
330
EF7C85532
100
AcDbEntity
  8
JISSEN
100
AcDbLine
 10
281.5999989113733
 20
94.64856672947613
 30
0.0
 11
281.5999989113733
 21
95.19847822098663
 31
0.0
  0
LINE
  5
EF7C87E4A
330
EF7C85532
100
AcDbEntity
  8
JISSEN
100
AcDbLine
 10
279.0493676748431
 20
95.07141711104241
 30
0.0
 11
279.4262626591284
 21
97.53992607258163
 31
0.0
  0
ARC
  5
EF7C87E4B
330
EF7C85532
100
AcDbEntity
  8
JISSEN
100
AcDbCircle
 10
280.1033381646589
 20
96.17352247601377
 30
0.0
 40
1.524955746538608
100
AcDbArc
 50
90.00308904205869
 51
270.0000000000374
  0
ARC
  5
EF7C87E4C
330
EF7C85532
100
AcDbEntity
  8
JISSEN
100
AcDbCircle
 10
279.0999989120233
 20
95.19847822098663
 30
0.0
 40
0.4999999998699999
100
AcDbArc
 50
0.0
 51
84.85915796758305
  0
LINE
  5
EF7C87E4D
330
EF7C85532
100
AcDbEntity
  8
JISSEN
100
AcDbLine
 10
279.5999989118933
 20
94.73402963979452
 30
0.0
 11
279.5999989118933
 21
95.19847822098663
 31
0.0
  0
ARC
  5
EF7C87E4E
330
EF7C85532
100
AcDbEntity
  8
JISSEN
100
AcDbCircle
 10
279.0999989120233
 20
95.19847822098663
 30
0.0
 40
2.499999999349999
100
AcDbArc
 50
0.0
 51
76.9526672751912
  0
LINE
  5
EF7C87E4F
330
EF7C85532
100
AcDbEntity
  8
JISSEN
100
AcDbLine
 10
268.1999989122696
 20
86.44922013965333
 30
0.0
 11
268.1999989122696
 21
88.19847822254661
 31
0.0
  0
LINE
  5
EF7C87E50
330
EF7C85532
100
AcDbEntity
  8
JISSEN
100
AcDbLine
 10
266.1999989122696
 20
88.19847822254661
 30
0.0
 11
266.1999989122696
 21
86.44922013965333
 31
0.0
  0
LINE
  5
EF7C87E51
330
EF7C85532
100
AcDbEntity
  8
JISSEN
100
AcDbLine
 10
276.7999989122695
 20
88.19847822254661
 30
0.0
 11
276.7999989122695
 21
86.44922013965333
 31
0.0
  0
LINE
  5
EF7C87E52
330
EF7C85532
100
AcDbEntity
  8
JISSEN
100
AcDbLine
 10
274.7999989122695
 20
86.44922013965333
 30
0.0
 11
274.7999989122695
 21
88.19847822254661
 31
0.0
  0
LINE
  5
EF7C87E53
330
EF7C85532
100
AcDbEntity
  8
JISSEN
100
AcDbLine
 10
271.4999989122695
 20
86.44922013965333
 30
0.0
 11
282.4999989122697
 21
86.44922013965333
 31
0.0
  0
LINE
  5
EF7C87E54
330
EF7C85532
100
AcDbEntity
  8
JISSEN
100
AcDbLine
 10
271.4999989122695
 20
86.44922013965333
 30
0.0
 11
260.4999989122695
 21
86.44922013965333
 31
0.0
  0
LINE
  5
EF7C87E55
330
EF7C85532
100
AcDbEntity
  8
JISSEN
100
AcDbLine
 10
271.4999989122695
 20
88.19847822254661
 30
0.0
 11
277.9999989122691
 21
88.19847822254661
 31
0.0
  0
LINE
  5
EF7C87E56
330
EF7C85532
100
AcDbEntity
  8
JISSEN
100
AcDbLine
 10
271.4999989122695
 20
87.94922013965328
 30
0.0
 11
268.1999989122696
 21
87.94922013965331
 31
0.0
  0
LINE
  5
EF7C87E57
330
EF7C85532
100
AcDbEntity
  8
JISSEN
100
AcDbLine
 10
271.4999989122695
 20
88.19847822254661
 30
0.0
 11
264.9999989122702
 21
88.19847822254661
 31
0.0
  0
LINE
  5
EF7C87E58
330
EF7C85532
100
AcDbEntity
  8
JISSEN
100
AcDbLine
 10
264.9999989122702
 20
88.19847822254661
 30
0.0
 11
264.8473176823628
 21
89.19847822254665
 31
0.0
  0
LINE
  5
EF7C87E59
330
EF7C85532
100
AcDbEntity
  8
JISSEN
100
AcDbLine
 10
264.9999989122304
 20
88.19847822280662
 30
0.0
 11
264.8473176823628
 21
89.19847822254665
 31
0.0
  0
LINE
  5
EF7C87E5A
330
EF7C85532
100
AcDbEntity
  8
JISSEN
100
AcDbLine
 10
268.3999989122701
 20
88.19847822254661
 30
0.0
 11
268.3999989122701
 21
87.94922013965331
 31
0.0
  0
LINE
  5
EF7C87E5B
330
EF7C85532
100
AcDbEntity
  8
JISSEN
100
AcDbLine
 10
274.5999989122692
 20
88.19847822254661
 30
0.0
 11
274.5999989122692
 21
87.94922013965331
 31
0.0
  0
LINE
  5
EF7C87E5C
330
EF7C85532
100
AcDbEntity
  8
JISSEN
100
AcDbLine
 10
271.4999989122695
 20
87.94922013965328
 30
0.0
 11
274.7999989122695
 21
87.94922013965331
 31
0.0
  0
LINE
  5
EF7C87E5D
330
EF7C85532
100
AcDbEntity
  8
JISSEN
100
AcDbLine
 10
277.9999989123089
 20
88.19847822280662
 30
0.0
 11
278.1526801421765
 21
89.19847822254665
 31
0.0
  0
LINE
  5
EF7C87E5E
330
EF7C85532
100
AcDbEntity
  8
JISSEN
100
AcDbLine
 10
277.9999989122691
 20
88.19847822254661
 30
0.0
 11
278.1526801421765
 21
89.19847822254665
 31
0.0
  0
LINE
  5
EF7C87E5F
330
EF7C85532
100
AcDbEntity
  8
JISSEN
100
AcDbLine
 10
280.9999989122695
 20
76.44922013965331
 30
0.0
 11
271.4999989122695
 21
76.44922013965331
 31
0.0
  0
LINE
  5
EF7C87E60
330
EF7C85532
100
AcDbEntity
  8
JISSEN
100
AcDbLine
 10
282.4999989122697
 20
86.44922013965333
 30
0.0
 11
282.4999989122697
 21
77.9492201396533
 31
0.0
  0
ARC
  5
EF7C87E61
330
EF7C85532
100
AcDbEntity
  8
JISSEN
100
AcDbCircle
 10
280.9999989122695
 20
77.9492201396533
 30
0.0
 40
1.5
100
AcDbArc
 50
270.0
 51
0.0
  0
LINE
  5
EF7C87E62
330
EF7C85532
100
AcDbEntity
  8
JISSEN
100
AcDbLine
 10
261.9999989122697
 20
76.44922013965331
 30
0.0
 11
271.4999989122695
 21
76.44922013965331
 31
0.0
  0
LINE
  5
EF7C87E63
330
EF7C85532
100
AcDbEntity
  8
JISSEN
100
AcDbLine
 10
260.4999989122695
 20
86.44922013965333
 30
0.0
 11
260.4999989122695
 21
77.9492201396533
 31
0.0
  0
ARC
  5
EF7C87E64
330
EF7C85532
100
AcDbEntity
  8
JISSEN
100
AcDbCircle
 10
261.9999989122697
 20
77.9492201396533
 30
0.0
 40
1.5
100
AcDbArc
 50
180.0
 51
270.0
  0
CIRCLE
  5
EF7C87EC5
330
EF7C85532
100
AcDbEntity
  8
JISSEN
100
AcDbCircle
 10
90.57508343801599
 20
90.93646189331549
 30
0.0
 40
11.0
  0
CIRCLE
  5
EF7C87EC6
330
EF7C85532
100
AcDbEntity
  8
JISSEN
100
AcDbCircle
 10
90.57508343801595
 20
90.93646189331549
 30
0.0
 40
11.69999999999999
  0
LINE
  5
EF7C87EC7
330
EF7C85532
100
AcDbEntity
  8
TENSEN
100
AcDbLine
 10
96.57508343801598
 20
90.93646189331549
 30
0.0
 11
99.07508343801598
 21
90.93646189331549
 31
0.0
  0
ARC
  5
EF7C87EC8
330
EF7C85532
100
AcDbEntity
  8
TENSEN
100
AcDbCircle
 10
90.57508343801599
 20
90.93646189331549
 30
0.0
 40
6.0
100
AcDbArc
 50
312.2121173636315
 51
0.0
  0
ARC
  5
EF7C87EC9
330
EF7C85532
100
AcDbEntity
  8
TENSEN
100
AcDbCircle
 10
90.57508343801599
 20
90.93646189331549
 30
0.0
 40
8.5
100
AcDbArc
 50
312.2121173636315
 51
0.0
  0
LINE
  5
EF7C87ECB
330
EF7C85532
100
AcDbEntity
  8
TENSEN
100
AcDbLine
 10
84.57508343801597
 20
90.93646189331549
 30
0.0
 11
82.07508343801597
 21
90.93646189331549
 31
0.0
  0
ARC
  5
EF7C87ECC
330
EF7C85532
100
AcDbEntity
  8
TENSEN
100
AcDbCircle
 10
90.57508343801599
 20
90.93646189331549
 30
0.0
 40
8.5
100
AcDbArc
 50
180.0
 51
220.0843624270259
  0
ARC
  5
EF7C87ECD
330
EF7C85532
100
AcDbEntity
  8
TENSEN
100
AcDbCircle
 10
90.57508343801599
 20
90.93646189331549
 30
0.0
 40
6.0
100
AcDbArc
 50
180.0
 51
220.0843624270266
  0
CIRCLE
  5
EF7C87ECE
330
EF7C85532
100
AcDbEntity
  8
TENSEN
100
AcDbCircle
 10
90.57508343801595
 20
90.93646189331549
 30
0.0
 40
5.0
  0
TEXT
  5
EF7C87ECF
330
EF7C85532
100
AcDbEntity
  8
JISSEN
100
AcDbText
 10
90.13528369102921
 20
84.84264879789146
 30
0.0
 40
2.2
  1
P
 50
165.0
  7
K
 72
     4
 11
88.73746821778809
 21
84.07838852666305
 31
0.0
100
AcDbText
  0
LINE
  5
EF7C87ED0
330
EF7C85532
100
AcDbEntity
  8
TENSEN
100
AcDbLine
 10
85.98450041055095
 20
87.072972865513
 30
0.0
 11
84.07175748244052
 21
85.46318577059532
 31
0.0
  0
TEXT
  5
EF7C87ED1
330
EF7C85532
100
AcDbEntity
  8
JISSEN
100
AcDbText
 10
93.13992000283873
 20
85.41205069711701
 30
0.0
 40
2.2
  1
S
 50
194.9999999999999
  7
K
 72
     4
 11
92.4126986582439
 21
84.07838852666307
 31
0.0
100
AcDbText
  0
TEXT
  5
EF7C87ED2
330
EF7C85532
100
AcDbEntity
  8
JISSEN
100
AcDbText
 10
91.62270248563505
 20
84.93646189331544
 30
0.0
 40
2.2
  1
S
 50
180.0
  7
K
 72
     4
 11
90.57508343801599
 21
83.83646189331544
 31
0.0
100
AcDbText
  0
LINE
  5
EF7C87ED3
330
EF7C85532
100
AcDbEntity
  8
TENSEN
100
AcDbLine
 10
94.60634691102931
 20
86.49248677961958
 30
0.0
 11
96.28604002478487
 21
84.64083048224628
 31
0.0
  0
CIRCLE
  5
EF7C87ED4
330
EF7C85532
100
AcDbEntity
  8
JISSEN
100
AcDbCircle
 10
90.57508343801599
 20
90.93646189331549
 30
0.0
 40
2.75
  0
CIRCLE
  5
EF7C87ED5
330
EF7C85532
100
AcDbEntity
  8
JISSEN
100
AcDbCircle
 10
90.57508343801599
 20
90.93646189331549
 30
0.0
 40
2.5
  0
CIRCLE
  5
EF7C87ED6
330
EF7C85532
100
AcDbEntity
  8
TENSEN
100
AcDbCircle
 10
90.57508343801595
 20
90.93646189331549
 30
0.0
 40
3.0
  0
ARC
  5
EF7C87EDB
330
EF7C85532
100
AcDbEntity
  8
TENSEN
100
AcDbCircle
 10
271.4999989122698
 20
43.01863914824622
 30
0.0
 40
8.5
100
AcDbArc
 50
312.2121173636315
 51
0.0
  0
ARC
  5
EF7C87EDC
330
EF7C85532
100
AcDbEntity
  8
TENSEN
100
AcDbCircle
 10
271.4999989122698
 20
43.01863914824622
 30
0.0
 40
6.0
100
AcDbArc
 50
312.2121173636315
 51
0.0
  0
ARC
  5
EF7C87EDD
330
EF7C85532
100
AcDbEntity
  8
TENSEN
100
AcDbCircle
 10
271.4999989122698
 20
43.01863914824622
 30
0.0
 40
6.0
100
AcDbArc
 50
180.0
 51
220.0843624270266
  0
ARC
  5
EF7C87EDE
330
EF7C85532
100
AcDbEntity
  8
TENSEN
100
AcDbCircle
 10
271.4999989122698
 20
43.01863914824622
 30
0.0
 40
8.5
100
AcDbArc
 50
180.0
 51
220.0843624270259
  0
CIRCLE
  5
EF7C87EDF
330
EF7C85532
100
AcDbEntity
  8
TENSEN
100
AcDbCircle
 10
271.4999989122695
 20
43.01863914824621
 30
0.0
 40
3.0
  0
CIRCLE
  5
EF7C87EE0
330
EF7C85532
100
AcDbEntity
  8
JISSEN
100
AcDbCircle
 10
271.4999989122698
 20
43.01863914824622
 30
0.0
 40
2.75
  0
CIRCLE
  5
EF7C87EE1
330
EF7C85532
100
AcDbEntity
  8
TENSEN
100
AcDbCircle
 10
271.4999989122695
 20
43.01863914824621
 30
0.0
 40
5.0
  0
CIRCLE
  5
EF7C87EE2
330
EF7C85532
100
AcDbEntity
  8
JISSEN
100
AcDbCircle
 10
271.4999989122698
 20
43.01863914824622
 30
0.0
 40
2.5
  0
CIRCLE
  5
EF7C87EE3
330
EF7C85532
100
AcDbEntity
  8
JISSEN
100
AcDbCircle
 10
271.4999989122695
 20
43.01863914824622
 30
0.0
 40
11.69999999999999
  0
CIRCLE
  5
EF7C87EE4
330
EF7C85532
100
AcDbEntity
  8
JISSEN
100
AcDbCircle
 10
271.4999989122698
 20
43.01863914824622
 30
0.0
 40
11.0
  0
TEXT
  5
EF7C87EE5
330
EF7C85532
100
AcDbEntity
  8
JISSEN
100
AcDbText
 10
274.0648354770924
 20
37.49422795204776
 30
0.0
 40
2.2
  1
S
 50
194.9999999999999
  7
K
 72
     4
 11
273.3376141324976
 21
36.16056578159382
 31
0.0
100
AcDbText
  0
TEXT
  5
EF7C87EE6
330
EF7C85532
100
AcDbEntity
  8
JISSEN
100
AcDbText
 10
272.5476179598888
 20
37.0186391482462
 30
0.0
 40
2.2
  1
S
 50
180.0
  7
K
 72
     4
 11
271.4999989122698
 21
35.9186391482462
 31
0.0
100
AcDbText
  0
TEXT
  5
EF7C87EE7
330
EF7C85532
100
AcDbEntity
  8
JISSEN
100
AcDbText
 10
271.060199165283
 20
36.92482605282218
 30
0.0
 40
2.2
  1
P
 50
165.0
  7
K
 72
     4
 11
269.6623836920418
 21
36.16056578159378
 31
0.0
100
AcDbText
  0
LINE
  5
EF7C87EE8
330
EF7C85532
100
AcDbEntity
  8
TENSEN
100
AcDbLine
 10
266.9094158848046
 20
39.15515012044375
 30
0.0
 11
264.9966729566941
 21
37.54536302552604
 31
0.0
  0
LINE
  5
EF7C87EE9
330
EF7C85532
100
AcDbEntity
  8
TENSEN
100
AcDbLine
 10
275.531262385283
 20
38.57466403455031
 30
0.0
 11
277.2109554990385
 21
36.72300773717703
 31
0.0
  0
LINE
  5
EF7C87EEC
330
EF7C85532
100
AcDbEntity
  8
TENSEN
100
AcDbLine
 10
265.4999989122698
 20
43.01863914824622
 30
0.0
 11
262.9999989122698
 21
43.01863914824622
 31
0.0
  0
LINE
  5
EF7C87EF1
330
EF7C85532
100
AcDbEntity
  8
TENSEN
100
AcDbLine
 10
277.4999989122698
 20
43.01863914824622
 30
0.0
 11
279.9999989122698
 21
43.01863914824622
 31
0.0
  0
CIRCLE
  5
EF7C87EF4
330
EF7C85532
100
AcDbEntity
  8
JISSEN
100
AcDbCircle
 10
271.4999989122698
 20
43.01863914824622
 30
0.0
 40
14.00000000533305
  0
LINE
  5
EF7C87EF5
330
EF7C85532
100
AcDbEntity
  8
JISSEN
100
AcDbLine
 10
283.9999989122698
 20
23.01863914824621
 30
0.0
 11
283.9999989122698
 21
36.71387902994473
 31
0.0
  0
LINE
  5
EF7C87EF6
330
EF7C85532
100
AcDbEntity
  8
JISSEN
100
AcDbLine
 10
258.9999989122699
 20
23.01863914824621
 30
0.0
 11
258.9999989122698
 21
36.71387902994464
 31
0.0
  0
LINE
  5
EF7C87EF9
330
EF7C85532
100
AcDbEntity
  8
JISSEN
100
AcDbLine
 10
283.9999989122698
 20
49.32339926654774
 30
0.0
 11
283.9999989122698
 21
63.01863914824622
 31
0.0
  0
LINE
  5
EF7C87EFA
330
EF7C85532
100
AcDbEntity
  8
JISSEN
100
AcDbLine
 10
258.9999989122695
 20
49.32339926654766
 30
0.0
 11
258.9999989122695
 21
63.01863914824622
 31
0.0
  0
TEXT
  5
EF7C87F7D
330
EF7C85532
100
AcDbEntity
  8
TEXT
100
AcDbText
 10
165.1714278474284
 20
266.4999999999999
 30
0.0
 40
3.0
  1
Niメッキ
  7
K
 72
     4
 11
172.4999992759999
 21
267.9999999999999
 31
0.0
100
AcDbText
  0
ARC
  5
EF7C87FC0
330
EF7C85532
100
AcDbEntity
  8
JISSEN
100
AcDbCircle
 10
459.5718210141757
 20
223.9560264225911
 30
0.0
 40
0.9999999997399998
100
AcDbArc
 50
270.0
 51
0.0
  0
ARC
  5
EF7C87FC1
330
EF7C85532
100
AcDbEntity
  8
JISSEN
100
AcDbCircle
 10
445.3779210550928
 20
223.9560264225911
 30
0.0
 40
0.9999999997399998
100
AcDbArc
 50
180.0
 51
270.0
  0
LINE
  5
EF7C87FC2
330
EF7C85532
100
AcDbEntity
  8
JISSEN
100
AcDbLine
 10
452.4748710346343
 20
222.9560264228511
 30
0.0
 11
445.3779210550928
 21
222.9560264228511
 31
0.0
  0
ARC
  5
EF7C87FC3
330
EF7C85532
100
AcDbEntity
  8
JISSEN
100
AcDbCircle
 10
452.4779210532468
 20
225.9060264220841
 30
0.0
 40
4.249999998894995
100
AcDbArc
 50
241.9275130641455
 51
269.9999999999934
  0
LINE
  5
EF7C87FC4
330
EF7C85532
100
AcDbEntity
  8
JISSEN
100
AcDbLine
 10
450.4779210537669
 20
222.1560264230591
 30
0.0
 11
450.4779210537669
 21
222.9560264228511
 31
0.0
  0
LINE
  5
EF7C87FC5
330
EF7C85532
100
AcDbEntity
  8
JISSEN
100
AcDbLine
 10
452.4748710346343
 20
222.9560264228511
 30
0.0
 11
459.5718210141757
 21
222.9560264228511
 31
0.0
  0
LINE
  5
EF7C87FC6
330
EF7C85532
100
AcDbEntity
  8
JISSEN
100
AcDbLine
 10
454.4718210155017
 20
222.1560264230591
 30
0.0
 11
454.4718210155017
 21
222.9560264228511
 31
0.0
  0
ARC
  5
EF7C87FC7
330
EF7C85532
100
AcDbEntity
  8
JISSEN
100
AcDbCircle
 10
452.4718210160216
 20
225.9060264220841
 30
0.0
 40
4.249999998894995
100
AcDbArc
 50
270.0000000000065
 51
298.0724869358543
  0
LINE
  5
EF7C87FC9
330
EF7C85532
100
AcDbEntity
  8
JISSEN
100
AcDbLine
 10
460.5718210139157
 20
223.9560264225911
 30
0.0
 11
460.5718210139157
 21
234.20697535263
 31
0.0
  0
LINE
  5
EF7C87FCA
330
EF7C85532
100
AcDbEntity
  8
JISSEN
100
AcDbLine
 10
459.5718210141757
 20
234.2069753526299
 30
0.0
 11
459.5718210141755
 21
223.9560264225911
 31
0.0
  0
LINE
  5
EF7C87FCB
330
EF7C85532
100
AcDbEntity
  8
JISSEN
100
AcDbLine
 10
445.377921055093
 20
234.2069753526299
 30
0.0
 11
445.377921055093
 21
223.9560264225911
 31
0.0
  0
LINE
  5
EF7C87FCC
330
EF7C85532
100
AcDbEntity
  8
JISSEN
100
AcDbLine
 10
444.3779210553528
 20
223.9560264225911
 30
0.0
 11
444.3779210553528
 21
234.20697535263
 31
0.0
  0
LINE
  5
EF7C87FCE
330
EF7C85532
100
AcDbEntity
  8
JISSEN
100
AcDbLine
 10
452.4748710346343
 20
225.4560264225911
 30
0.0
 11
445.6779210550133
 21
225.4560264225919
 31
0.0
  0
LINE
  5
EF7C87FCF
330
EF7C85532
100
AcDbEntity
  8
JISSEN
100
AcDbLine
 10
445.377921055093
 20
223.9560264225911
 30
0.0
 11
452.4748710346343
 21
223.9560264225911
 31
0.0
  0
ARC
  5
EF7C87FD0
330
EF7C85532
100
AcDbEntity
  8
JISSEN
100
AcDbCircle
 10
452.4779210532462
 20
227.5560264225911
 30
0.0
 40
3.1
100
AcDbArc
 50
89.99999999999348
 51
181.9160832903886
  0
LINE
  5
EF7C87FD1
330
EF7C85532
100
AcDbEntity
  8
JISSEN
100
AcDbLine
 10
449.2163145034862
 20
225.7560264225915
 30
0.0
 11
445.6779210550133
 21
225.7560264225919
 31
0.0
  0
LINE
  5
EF7C87FD2
330
EF7C85532
100
AcDbEntity
  8
JISSEN
100
AcDbLine
 10
445.677921055015
 20
225.4560264222011
 30
0.0
 11
445.677921055015
 21
225.7560264221231
 31
0.0
  0
LINE
  5
EF7C87FD3
330
EF7C85532
100
AcDbEntity
  8
JISSEN
100
AcDbLine
 10
445.677921055015
 20
223.9560264225911
 30
0.0
 11
445.677921055015
 21
225.4560264222011
 31
0.0
  0
LINE
  5
EF7C87FD4
330
EF7C85532
100
AcDbEntity
  8
JISSEN
100
AcDbLine
 10
449.2163145034862
 20
225.7560264225915
 30
0.0
 11
449.3796543571895
 21
227.4523756623113
 31
0.0
  0
ARC
  5
EF7C87FD5
330
EF7C85532
100
AcDbEntity
  8
JISSEN
100
AcDbCircle
 10
452.4718210160223
 20
227.5560264225911
 30
0.0
 40
3.1
100
AcDbArc
 50
358.0839167096112
 51
90.00000000000651
  0
LINE
  5
EF7C87FD6
330
EF7C85532
100
AcDbEntity
  8
JISSEN
100
AcDbLine
 10
455.7334275657823
 20
225.7560264225915
 30
0.0
 11
459.271821014255
 21
225.7560264225919
 31
0.0
  0
LINE
  5
EF7C87FD7
330
EF7C85532
100
AcDbEntity
  8
JISSEN
100
AcDbLine
 10
452.4748710346343
 20
225.4560264225911
 30
0.0
 11
459.271821014255
 21
225.4560264225919
 31
0.0
  0
LINE
  5
EF7C87FD8
330
EF7C85532
100
AcDbEntity
  8
JISSEN
100
AcDbLine
 10
459.5718210141755
 20
223.9560264225911
 30
0.0
 11
452.4748710346343
 21
223.9560264225911
 31
0.0
  0
LINE
  5
EF7C87FD9
330
EF7C85532
100
AcDbEntity
  8
JISSEN
100
AcDbLine
 10
455.7334275657823
 20
225.7560264225915
 30
0.0
 11
455.570087712079
 21
227.4523756623113
 31
0.0
  0
LINE
  5
EF7C87FDA
330
EF7C85532
100
AcDbEntity
  8
JISSEN
100
AcDbLine
 10
459.2718210142535
 20
225.4560264222011
 30
0.0
 11
459.2718210142535
 21
225.7560264221231
 31
0.0
  0
LINE
  5
EF7C87FDB
330
EF7C85532
100
AcDbEntity
  8
JISSEN
100
AcDbLine
 10
459.2718210142535
 20
223.9560264225911
 30
0.0
 11
459.2718210142535
 21
225.4560264222011
 31
0.0
  0
LINE
  5
EF7C87FDC
330
EF7C85532
100
AcDbEntity
  8
JISSEN
100
AcDbLine
 10
466.4999981899998
 20
234.2069753526299
 30
0.0
 11
438.4999981899999
 21
234.2069753526299
 31
0.0
  0
TEXT
  5
EF7C88179
330
EF7C85532
100
AcDbEntity
  8
JISSEN
100
AcDbText
 10
90.1093294393199
 20
97.02834625466946
 30
0.0
 40
2.2
  1
U
 50
353.4999999999998
  7
K
 72
     4
 11
91.37882625576811
 21
97.99082206861925
 31
0.0
100
AcDbText
  0
TEXT
  5
EF7C8817A
330
EF7C85532
100
AcDbEntity
  8
JISSEN
100
AcDbText
 10
88.96294867143963
 20
96.76216350532527
 30
0.0
 40
2.2
  1
J
 50
8.499999999999573
  7
K
 72
     4
 11
89.5256366189958
 21
97.95847452318509
 31
0.0
100
AcDbText
  0
LINE
  5
EF7C88182
330
EF7C85532
100
AcDbEntity
  8
JISSEN
100
AcDbLine
 10
97.06691715455509
 20
95.85805710187276
 30
0.0
 11
95.24303449493414
 21
94.62783271423711
 31
0.0
  0
LINE
  5
EF7C88183
330
EF7C85532
100
AcDbEntity
  8
JISSEN
100
AcDbLine
 10
97.57019076767893
 20
95.11192328657324
 30
0.0
 11
95.74630810805775
 21
93.8816988989376
 31
0.0
  0
TEXT
  5
EF7C88190
330
EF7C85532
100
AcDbEntity
  8
JISSEN
100
AcDbText
 10
85.97912664565255
 20
94.9473447341286
 30
0.0
 40
2.2
  1
E
 50
38.49999999999859
  7
K
 72
     4
 11
86.15522951788888
 21
96.49297980696765
 31
0.0
100
AcDbText
  0
TEXT
  5
EF7C88191
330
EF7C85532
100
AcDbEntity
  8
JISSEN
100
AcDbText
 10
85.12879459295398
 20
93.66326285508169
 30
0.0
 40
2.2
  1
S
 50
53.49999999999847
  7
K
 72
     4
 11
84.86769972763363
 21
95.15970367925001
 31
0.0
100
AcDbText
  0
TEXT
  5
EF7C88192
330
EF7C85532
100
AcDbEntity
  8
JISSEN
100
AcDbText
 10
87.12578646255398
 20
95.97931150781716
 30
0.0
 40
2.2
  1
N
 50
23.49999999999887
  7
K
 72
     4
 11
87.74396504864672
 21
97.44758842144989
 31
0.0
100
AcDbText
  0
TEXT
  5
EF7C88193
330
EF7C85532
100
AcDbEntity
  8
JISSEN
100
AcDbText
 10
91.56454373188104
 20
97.16431554209606
 30
0.0
 40
2.2
  1
-
 50
338.4999999999989
  7
K
 72
     4
 11
93.17724214775854
 21
97.54242662598791
 31
0.0
100
AcDbText
  0
TEXT
  5
EF7C88194
330
EF7C85532
100
AcDbEntity
  8
JISSEN
100
AcDbText
 10
93.30188439978222
 20
96.38275073837737
 30
0.0
 40
2.2
  1
X
 50
323.4999999999992
  7
K
 72
     4
 11
94.79832522395055
 21
96.64384560369775
 31
0.0
100
AcDbText
  0
LINE
  5
EF7C88195
330
EF7C85532
100
AcDbEntity
  8
JISSEN
100
AcDbLine
 10
94.99874745887678
 20
94.99000313900944
 30
0.0
 11
95.99059514411511
 21
93.51952847416526
 31
0.0
  0
LINE
  5
EF7C88196
330
EF7C85532
100
AcDbEntity
  8
JISSEN
100
AcDbLine
 10
96.82263011849773
 20
96.22022752664509
 30
0.0
 11
97.81447780373628
 21
94.74975286180091
 31
0.0
  0
LINE
  5
EF7C88197
330
EF7C85532
100
AcDbEntity
  8
TEXT
100
AcDbLine
 10
147.3462302543746
 20
10.84959319590905
 30
0.0
 11
147.3462302543746
 21
7.849593195909051
 31
0.0
  0
LINE
  5
EF7C88198
330
EF7C85532
100
AcDbEntity
  8
TEXT
100
AcDbLine
 10
146.4462302543745
 20
10.84959319590905
 30
0.0
 11
146.4462302543745
 21
7.849593195909051
 31
0.0
  0
LINE
  5
EF7C88199
330
EF7C85532
100
AcDbEntity
  8
TEXT
100
AcDbLine
 10
145.8962302543745
 20
7.849593195909051
 30
0.0
 11
147.8962302543745
 21
7.849593195909051
 31
0.0
  0
LINE
  5
EF7C8819A
330
EF7C85532
100
AcDbEntity
  8
TEXT
100
AcDbLine
 10
145.8962302543745
 20
10.84959319590905
 30
0.0
 11
147.8962302543745
 21
10.84959319590905
 31
0.0
  0
TEXT
  5
EF7C881E7
330
EF7C85532
100
AcDbEntity
  8
TEXT
100
AcDbText
 10
106.4571421331427
 20
272.4999999999999
 30
0.0
 40
3.0
  1
X  型ヘッド
  7
K
 72
     4
 11
116.4999992759999
 21
273.9999999999999
 31
0.0
100
AcDbText
  0
LINE
  5
EF7C881ED
330
EF7C85532
100
AcDbEntity
  8
TEXT
100
AcDbLine
 10
110.4496113121381
 20
275.5069518502916
 30
0.0
 11
110.4496113121381
 21
272.5069518502919
 31
0.0
  0
LINE
  5
EF7C881EE
330
EF7C85532
100
AcDbEntity
  8
TEXT
100
AcDbLine
 10
111.3496113121381
 20
275.5069518502916
 30
0.0
 11
111.3496113121381
 21
272.5069518502919
 31
0.0
  0
LINE
  5
EF7C881F4
330
EF7C85532
100
AcDbEntity
  8
TEXT
100
AcDbLine
 10
109.899611312138
 20
272.5069518502919
 30
0.0
 11
111.899611312138
 21
272.5069518502919
 31
0.0
  0
LINE
  5
EF7C881F6
330
EF7C85532
100
AcDbEntity
  8
TEXT
100
AcDbLine
 10
109.899611312138
 20
275.5069518502916
 30
0.0
 11
111.899611312138
 21
275.5069518502916
 31
0.0
  0
TEXT
  5
EF7C88283
330
EF7C85532
100
AcDbEntity
  8
JISSEN
100
AcDbText
 10
274.2267998740357
 20
48.4649279933081
 30
0.0
 40
2.2
  1
X
 50
323.4999999999992
  7
K
 72
     4
 11
275.7232406982041
 21
48.72602285862846
 31
0.0
100
AcDbText
  0
TEXT
  5
EF7C88284
330
EF7C85532
100
AcDbEntity
  8
JISSEN
100
AcDbText
 10
272.4894592061346
 20
49.24649279702679
 30
0.0
 40
2.2
  1
-
 50
338.4999999999989
  7
K
 72
     4
 11
274.102157622012
 21
49.62460388091862
 31
0.0
100
AcDbText
  0
TEXT
  5
EF7C88285
330
EF7C85532
100
AcDbEntity
  8
JISSEN
100
AcDbText
 10
268.0507019368075
 20
48.0614887627479
 30
0.0
 40
2.2
  1
N
 50
23.49999999999887
  7
K
 72
     4
 11
268.6688805229002
 21
49.52976567638062
 31
0.0
100
AcDbText
  0
TEXT
  5
EF7C88286
330
EF7C85532
100
AcDbEntity
  8
JISSEN
100
AcDbText
 10
266.9040421199061
 20
47.02952198905933
 30
0.0
 40
2.2
  1
E
 50
38.49999999999859
  7
K
 72
     4
 11
267.0801449921424
 21
48.57515706189836
 31
0.0
100
AcDbText
  0
TEXT
  5
EF7C88287
330
EF7C85532
100
AcDbEntity
  8
JISSEN
100
AcDbText
 10
269.8878641456932
 20
48.84434076025599
 30
0.0
 40
2.2
  1
J
 50
8.499999999999573
  7
K
 72
     4
 11
270.4505520932493
 21
50.04065177811582
 31
0.0
100
AcDbText
  0
TEXT
  5
EF7C88288
330
EF7C85532
100
AcDbEntity
  8
JISSEN
100
AcDbText
 10
271.0342449135734
 20
49.11052350960018
 30
0.0
 40
2.2
  1
U
 50
353.4999999999998
  7
K
 72
     4
 11
272.3037417300216
 21
50.07299932354998
 31
0.0
100
AcDbText
  0
TEXT
  5
EF7C88289
330
EF7C85532
100
AcDbEntity
  8
JISSEN
100
AcDbText
 10
266.0537100672076
 20
45.74544011001241
 30
0.0
 40
2.2
  1
S
 50
53.49999999999847
  7
K
 72
     4
 11
265.7926152018871
 21
47.24188093418073
 31
0.0
100
AcDbText
  0
LINE
  5
EF7C8828A
330
EF7C85532
100
AcDbEntity
  8
JISSEN
100
AcDbLine
 10
277.9918326288086
 20
47.94023435680348
 30
0.0
 11
276.1679499691877
 21
46.71000996916784
 31
0.0
  0
LINE
  5
EF7C8828B
330
EF7C85532
100
AcDbEntity
  8
JISSEN
100
AcDbLine
 10
278.4951062419324
 20
47.19410054150396
 30
0.0
 11
276.6712235823113
 21
45.96387615386833
 31
0.0
  0
LINE
  5
EF7C8828C
330
EF7C85532
100
AcDbEntity
  8
JISSEN
100
AcDbLine
 10
275.9236629331303
 20
47.07218039394017
 30
0.0
 11
276.9155106183686
 21
45.601705729096
 31
0.0
  0
LINE
  5
EF7C8828D
330
EF7C85532
100
AcDbEntity
  8
JISSEN
100
AcDbLine
 10
277.7475455927512
 20
48.30240478157581
 30
0.0
 11
278.7393932779898
 21
46.83193011673163
 31
0.0
  0
LINE
  5
EF7C8828E
330
EF7C85532
100
AcDbEntity
  8
TEXT
100
AcDbLine
 10
328.3462295303746
 20
10.84959319590905
 30
0.0
 11
328.3462295303746
 21
7.849593195909051
 31
0.0
  0
LINE
  5
EF7C8828F
330
EF7C85532
100
AcDbEntity
  8
TEXT
100
AcDbLine
 10
327.4462295303745
 20
10.84959319590905
 30
0.0
 11
327.4462295303745
 21
7.849593195909051
 31
0.0
  0
LINE
  5
EF7C88290
330
EF7C85532
100
AcDbEntity
  8
TEXT
100
AcDbLine
 10
326.8962295303745
 20
7.849593195909051
 30
0.0
 11
328.8962295303745
 21
7.849593195909051
 31
0.0
  0
LINE
  5
EF7C88291
330
EF7C85532
100
AcDbEntity
  8
TEXT
100
AcDbLine
 10
326.8962295303745
 20
10.84959319590905
 30
0.0
 11
328.8962295303745
 21
10.84959319590905
 31
0.0
  0
LINE
  5
EF7C88292
330
EF7C85532
100
AcDbEntity
  8
TEXT
100
AcDbLine
 10
508.4462288063745
 20
10.84959319590905
 30
0.0
 11
508.4462288063745
 21
7.849593195909051
 31
0.0
  0
LINE
  5
EF7C88293
330
EF7C85532
100
AcDbEntity
  8
TEXT
100
AcDbLine
 10
509.3462288063746
 20
10.84959319590905
 30
0.0
 11
509.3462288063746
 21
7.849593195909051
 31
0.0
  0
LINE
  5
EF7C88294
330
EF7C85532
100
AcDbEntity
  8
TEXT
100
AcDbLine
 10
507.8962288063745
 20
7.849593195909051
 30
0.0
 11
509.8962288063746
 21
7.849593195909051
 31
0.0
  0
LINE
  5
EF7C88295
330
EF7C85532
100
AcDbEntity
  8
TEXT
100
AcDbLine
 10
507.8962288063745
 20
10.84959319590905
 30
0.0
 11
509.8962288063746
 21
10.84959319590905
 31
0.0
  0
ENDSEC
  0
SECTION
  2
OBJECTS
  0
DICTIONARY
  5
EF7C85527
330
0
100
AcDbDictionary
  3
ACAD_GROUP
350
EF7C85528
  3
ACAD_LAYOUT
350
EF7C85BB7
  3
ACAD_MLINESTYLE
350
EF7C85535
  3
ACAD_PLOTSETTINGS
350
EF7C85BB8
  3
ACAD_PLOTSTYLENAME
350
EF7C85BB5
  3
ACDBHEADERROUNDTRIPXREC
350
EF7C88299
  3
ACDBVARIABLEDICTIONARY
350
EF7C85FA1
  0
DICTIONARY
  5
EF7C88047
330
EF7C8551D
100
AcDbDictionary
280
     1
  3
ACAD_LAYERSTATES
360
EF7C88048
  0
DICTIONARY
  5
EF7C85D9A
330
EF7C85532
100
AcDbDictionary
280
     1
  3
ACAD_LAYOUTSELFREF
360
EF7C882BB
  0
DICTIONARY
  5
EF7C85D98
330
EF7C8552F
100
AcDbDictionary
280
     1
  3
ACAD_LAYOUTSELFREF
360
EF7C882BA
  0
DICTIONARY
  5
EF7C85528
102
{ACAD_REACTORS
330
EF7C85527
102
}
330
EF7C85527
100
AcDbDictionary
  0
DICTIONARY
  5
EF7C85BB7
102
{ACAD_REACTORS
330
EF7C85527
102
}
330
EF7C85527
100
AcDbDictionary
  0
DICTIONARY
  5
EF7C85535
102
{ACAD_REACTORS
330
EF7C85527
102
}
330
EF7C85527
100
AcDbDictionary
  3
STANDARD
350
EF7C85536
  0
DICTIONARY
  5
EF7C85BB8
102
{ACAD_REACTORS
330
EF7C85527
102
}
330
EF7C85527
100
AcDbDictionary
  0
ACDBDICTIONARYWDFLT
  5
EF7C85BB5
102
{ACAD_REACTORS
330
EF7C85527
102
}
330
EF7C85527
100
AcDbDictionary
281
     1
  3
Normal
350
EF7C85BB6
100
AcDbDictionaryWithDefault
340
EF7C85BB6
  0
DICTIONARY
  5
EF7C88299
102
{ACAD_REACTORS
330
EF7C85527
102
}
330
EF7C85527
100
AcDbDictionary
  3
CEPSNTYPE
350
EF7C882A3
  3
DIMSTYLEDATA
350
EF7C882A7
  3
FINGERPRINTGUID
350
EF7C882A4
  3
HYPERLINKBASE
350
EF7C8829C
  3
INSUNITS
350
EF7C882A2
  3
LAYOUTDICT
350
EF7C8829E
  3
LWETCUNION
350
EF7C882A1
  3
PLOTSETDICT
350
EF7C8829F
  3
PLOTSTYLNAMDICT
350
EF7C882A0
  3
PSVPSCALE
350
EF7C882A6
  3
PUCSBASE
350
EF7C882AA
  3
PUCSORGBACK
350
EF7C882B0
  3
PUCSORGBOTTOM
350
EF7C882AC
  3
PUCSORGFRONT
350
EF7C882AF
  3
PUCSORGLEFT
350
EF7C882AD
  3
PUCSORGRIGHT
350
EF7C882AE
  3
PUCSORGTOP
350
EF7C882AB
  3
PUCSORTHOREF
350
EF7C882A8
  3
PUCSORTHOVIEW
350
EF7C882A9
  3
STYLESHEET
350
EF7C8829D
  3
TSTACKALIGN
350
EF7C8829A
  3
TSTACKSIZE
350
EF7C8829B
  3
UCSBASE
350
EF7C882B3
  3
UCSORGBACK
350
EF7C882B9
  3
UCSORGBOTTOM
350
EF7C882B5
  3
UCSORGFRONT
350
EF7C882B8
  3
UCSORGLEFT
350
EF7C882B6
  3
UCSORGRIGHT
350
EF7C882B7
  3
UCSORGTOP
350
EF7C882B4
  3
UCSORTHOREF
350
EF7C882B1
  3
UCSORTHOVIEW
350
EF7C882B2
  3
VERSIONGUID
350
EF7C882A5
  0
DICTIONARY
  5
EF7C85FA1
102
{ACAD_REACTORS
330
EF7C85527
102
}
330
EF7C85527
100
AcDbDictionary
  3
DIMASSOC
350
EF7C8801A
  3
SORTENTS
350
EF7C85FA2
  0
DICTIONARY
  5
EF7C88048
102
{ACAD_REACTORS
330
EF7C88047
102
}
330
EF7C88047
100
AcDbDictionary
  0
XRECORD
  5
EF7C882BB
102
{ACAD_REACTORS
330
EF7C85D9A
102
}
330
EF7C85D9A
100
AcDbXrecord
340
EF7C85532
  0
XRECORD
  5
EF7C882BA
102
{ACAD_REACTORS
330
EF7C85D98
102
}
330
EF7C85D98
100
AcDbXrecord
340
EF7C8552F
  0
MLINESTYLE
  5
EF7C85536
102
{ACAD_REACTORS
330
EF7C85535
102
}
330
EF7C85535
100
AcDbMlineStyle
  2
STANDARD
 70
     0
  3

 62
   256
 51
90.0
 52
90.0
 71
     2
 49
0.5
 62
   256
  6
BYLAYER
 49
-0.5
 62
   256
  6
BYLAYER
  0
ACDBPLACEHOLDER
  5
EF7C85BB6
102
{ACAD_REACTORS
330
EF7C85BB5
102
}
330
EF7C85BB5
100
AcDbPlaceHolder
280
     0
  0
XRECORD
  5
EF7C882A3
102
{ACAD_REACTORS
330
EF7C88299
102
}
330
EF7C88299
100
AcDbXrecord
 90
        0
  0
XRECORD
  5
EF7C882A7
102
{ACAD_REACTORS
330
EF7C88299
102
}
330
EF7C88299
100
AcDbXrecord
1000
DSTYLE
1002
{
1070
   341
340
EF7C85537
1070
   342
340
EF7C85537
1070
   343
340
EF7C85543
1070
   344
340
EF7C85543
1002
}
  0
XRECORD
  5
EF7C882A4
102
{ACAD_REACTORS
330
EF7C88299
102
}
330
EF7C88299
100
AcDbXrecord
  1
{09AA4C7A-3D6F-4857-A850-771461888CEC}
  0
XRECORD
  5
EF7C8829C
102
{ACAD_REACTORS
330
EF7C88299
102
}
330
EF7C88299
100
AcDbXrecord
  1

  0
XRECORD
  5
EF7C882A2
102
{ACAD_REACTORS
330
EF7C88299
102
}
330
EF7C88299
100
AcDbXrecord
 90
        0
  0
XRECORD
  5
EF7C8829E
102
{ACAD_REACTORS
330
EF7C88299
102
}
330
EF7C88299
100
AcDbXrecord
340
EF7C85BB7
  0
XRECORD
  5
EF7C882A1
102
{ACAD_REACTORS
330
EF7C88299
102
}
330
EF7C88299
100
AcDbXrecord
 90
    14877
  0
XRECORD
  5
EF7C8829F
102
{ACAD_REACTORS
330
EF7C88299
102
}
330
EF7C88299
100
AcDbXrecord
340
EF7C85BB8
  0
XRECORD
  5
EF7C882A0
102
{ACAD_REACTORS
330
EF7C88299
102
}
330
EF7C88299
100
AcDbXrecord
340
EF7C85BB5
  0
XRECORD
  5
EF7C882A6
102
{ACAD_REACTORS
330
EF7C88299
102
}
330
EF7C88299
100
AcDbXrecord
 40
0.0
  0
XRECORD
  5
EF7C882AA
102
{ACAD_REACTORS
330
EF7C88299
102
}
330
EF7C88299
100
AcDbXrecord
340
0
  0
XRECORD
  5
EF7C882B0
102
{ACAD_REACTORS
330
EF7C88299
102
}
330
EF7C88299
100
AcDbXrecord
 10
0.0
 20
0.0
 30
0.0
  0
XRECORD
  5
EF7C882AC
102
{ACAD_REACTORS
330
EF7C88299
102
}
330
EF7C88299
100
AcDbXrecord
 10
0.0
 20
0.0
 30
0.0
  0
XRECORD
  5
EF7C882AF
102
{ACAD_REACTORS
330
EF7C88299
102
}
330
EF7C88299
100
AcDbXrecord
 10
0.0
 20
0.0
 30
0.0
  0
XRECORD
  5
EF7C882AD
102
{ACAD_REACTORS
330
EF7C88299
102
}
330
EF7C88299
100
AcDbXrecord
 10
0.0
 20
0.0
 30
0.0
  0
XRECORD
  5
EF7C882AE
102
{ACAD_REACTORS
330
EF7C88299
102
}
330
EF7C88299
100
AcDbXrecord
 10
0.0
 20
0.0
 30
0.0
  0
XRECORD
  5
EF7C882AB
102
{ACAD_REACTORS
330
EF7C88299
102
}
330
EF7C88299
100
AcDbXrecord
 10
0.0
 20
0.0
 30
0.0
  0
XRECORD
  5
EF7C882A8
102
{ACAD_REACTORS
330
EF7C88299
102
}
330
EF7C88299
100
AcDbXrecord
340
0
  0
XRECORD
  5
EF7C882A9
102
{ACAD_REACTORS
330
EF7C88299
102
}
330
EF7C88299
100
AcDbXrecord
 70
     0
  0
XRECORD
  5
EF7C8829D
102
{ACAD_REACTORS
330
EF7C88299
102
}
330
EF7C88299
100
AcDbXrecord
  1

  0
XRECORD
  5
EF7C8829A
102
{ACAD_REACTORS
330
EF7C88299
102
}
330
EF7C88299
100
AcDbXrecord
 90
        1
  0
XRECORD
  5
EF7C8829B
102
{ACAD_REACTORS
330
EF7C88299
102
}
330
EF7C88299
100
AcDbXrecord
 90
       70
  0
XRECORD
  5
EF7C882B3
102
{ACAD_REACTORS
330
EF7C88299
102
}
330
EF7C88299
100
AcDbXrecord
340
0
  0
XRECORD
  5
EF7C882B9
102
{ACAD_REACTORS
330
EF7C88299
102
}
330
EF7C88299
100
AcDbXrecord
 10
0.0
 20
0.0
 30
0.0
  0
XRECORD
  5
EF7C882B5
102
{ACAD_REACTORS
330
EF7C88299
102
}
330
EF7C88299
100
AcDbXrecord
 10
0.0
 20
0.0
 30
0.0
  0
XRECORD
  5
EF7C882B8
102
{ACAD_REACTORS
330
EF7C88299
102
}
330
EF7C88299
100
AcDbXrecord
 10
0.0
 20
0.0
 30
0.0
  0
XRECORD
  5
EF7C882B6
102
{ACAD_REACTORS
330
EF7C88299
102
}
330
EF7C88299
100
AcDbXrecord
 10
0.0
 20
0.0
 30
0.0
  0
XRECORD
  5
EF7C882B7
102
{ACAD_REACTORS
330
EF7C88299
102
}
330
EF7C88299
100
AcDbXrecord
 10
0.0
 20
0.0
 30
0.0
  0
XRECORD
  5
EF7C882B4
102
{ACAD_REACTORS
330
EF7C88299
102
}
330
EF7C88299
100
AcDbXrecord
 10
0.0
 20
0.0
 30
0.0
  0
XRECORD
  5
EF7C882B1
102
{ACAD_REACTORS
330
EF7C88299
102
}
330
EF7C88299
100
AcDbXrecord
340
0
  0
XRECORD
  5
EF7C882B2
102
{ACAD_REACTORS
330
EF7C88299
102
}
330
EF7C88299
100
AcDbXrecord
 70
     0
  0
XRECORD
  5
EF7C882A5
102
{ACAD_REACTORS
330
EF7C88299
102
}
330
EF7C88299
100
AcDbXrecord
  1
{3F531959-C469-4143-9751-C26FBD28D46B}
  0
DICTIONARYVAR
  5
EF7C8801A
102
{ACAD_REACTORS
330
EF7C85FA1
102
}
330
EF7C85FA1
100
DictionaryVariables
280
     0
  1
0
  0
DICTIONARYVAR
  5
EF7C85FA2
102
{ACAD_REACTORS
330
EF7C85FA1
102
}
330
EF7C85FA1
100
DictionaryVariables
280
     0
  1
96
  0
ENDSEC
  0
EOF
