  0
SECTION
  2
HEADER
  9
$ACADVER
  1
AC1014
  9
$ACADMAINTVER
 70
     9
  9
$DWGCODEPAGE
  3
ANSI_932
  9
$INSBASE
 10
0.0
 20
0.0
 30
0.0
  9
$EXTMIN
 10
-0.0110465204030561
 20
-0.0086358157087716
 30
-0.0015258207003583
  9
$EXTMAX
 10
362.0110467580966
 20
283.0086371335301
 30
0.0000000349246037
  9
$LIMMIN
 10
0.0
 20
0.0
  9
$LIMMAX
 10
181.0
 20
283.0
  9
$ORTHOMODE
 70
     1
  9
$REGENMODE
 70
     1
  9
$FILLMODE
 70
     1
  9
$QTEXTMODE
 70
     0
  9
$MIRRTEXT
 70
     0
  9
$DRAGMODE
 70
     2
  9
$LTSCALE
 40
5.0
  9
$OSMODE
 70
   167
  9
$ATTMODE
 70
     1
  9
$TEXTSIZE
 40
3.0
  9
$TRACEWID
 40
0.05
  9
$TEXTSTYLE
  7
BIGFONT
  9
$CLAYER
  8
JISSEN
  9
$CELTYPE
  6
BYLAYER
  9
$CECOLOR
 62
   256
  9
$CELTSCALE
 40
1.0
  9
$DELOBJ
 70
     1
  9
$DISPSILH
 70
     0
  9
$DIMSCALE
 40
1.0
  9
$DIMASZ
 40
1.5
  9
$DIMEXO
 40
1.0
  9
$DIMDLI
 40
6.0
  9
$DIMRND
 40
0.0
  9
$DIMDLE
 40
0.0
  9
$DIMEXE
 40
1.0
  9
$DIMTP
 40
0.0
  9
$DIMTM
 40
0.0
  9
$DIMTXT
 40
3.0
  9
$DIMCEN
 40
1.0
  9
$DIMTSZ
 40
0.0
  9
$DIMTOL
 70
     0
  9
$DIMLIM
 70
     0
  9
$DIMTIH
 70
     0
  9
$DIMTOH
 70
     0
  9
$DIMSE1
 70
     0
  9
$DIMSE2
 70
     0
  9
$DIMTAD
 70
     0
  9
$DIMZIN
 70
     8
  9
$DIMBLK
  1
ARROW
  9
$DIMASO
 70
     0
  9
$DIMSHO
 70
     0
  9
$DIMPOST
  1

  9
$DIMAPOST
  1

  9
$DIMALT
 70
     0
  9
$DIMALTD
 70
     2
  9
$DIMALTF
 40
25.4
  9
$DIMLFAC
 40
1.0
  9
$DIMTOFL
 70
     1
  9
$DIMTVP
 40
0.0
  9
$DIMTIX
 70
     0
  9
$DIMSOXD
 70
     0
  9
$DIMSAH
 70
     0
  9
$DIMBLK1
  1
ARROWANG
  9
$DIMBLK2
  1
ARROWANG
  9
$DIMSTYLE
  2
IMAO
  9
$DIMCLRD
 70
     0
  9
$DIMCLRE
 70
     0
  9
$DIMCLRT
 70
     0
  9
$DIMTFAC
 40
1.0
  9
$DIMGAP
 40
0.09
  9
$DIMJUST
 70
     0
  9
$DIMSD1
 70
     0
  9
$DIMSD2
 70
     0
  9
$DIMTOLJ
 70
     1
  9
$DIMTZIN
 70
     8
  9
$DIMALTZ
 70
     8
  9
$DIMALTTZ
 70
     8
  9
$DIMFIT
 70
     3
  9
$DIMUPT
 70
     0
  9
$DIMUNIT
 70
     2
  9
$DIMDEC
 70
     2
  9
$DIMTDEC
 70
     2
  9
$DIMALTU
 70
     2
  9
$DIMALTTD
 70
     2
  9
$DIMTXSTY
  7
BIGFONT
  9
$DIMAUNIT
 70
     0
  9
$LUNITS
 70
     2
  9
$LUPREC
 70
     2
  9
$SKETCHINC
 40
0.1
  9
$FILLETRAD
 40
0.0
  9
$AUNITS
 70
     0
  9
$AUPREC
 70
     2
  9
$MENU
  1
stdr12j
  9
$ELEVATION
 40
0.0
  9
$PELEVATION
 40
0.0
  9
$THICKNESS
 40
0.0
  9
$LIMCHECK
 70
     0
  9
$BLIPMODE
 70
     0
  9
$CHAMFERA
 40
0.0
  9
$CHAMFERB
 40
0.0
  9
$CHAMFERC
 40
0.0
  9
$CHAMFERD
 40
0.0
  9
$SKPOLY
 70
     0
  9
$TDCREATE
 40
2450617.453041203
  9
$TDUPDATE
 40
2453614.646890081
  9
$TDINDWG
 40
0.1220486574
  9
$TDUSRTIMER
 40
0.1220486574
  9
$USRTIMER
 70
     1
  9
$ANGBASE
 50
0.0
  9
$ANGDIR
 70
     0
  9
$PDMODE
 70
     0
  9
$PDSIZE
 40
0.0
  9
$PLINEWID
 40
0.0
  9
$COORDS
 70
     2
  9
$SPLFRAME
 70
     0
  9
$SPLINETYPE
 70
     6
  9
$SPLINESEGS
 70
     8
  9
$ATTDIA
 70
     0
  9
$ATTREQ
 70
     1
  9
$HANDLING
 70
 22529
  9
$HANDSEED
  5
EF7C87427
  9
$SURFTAB1
 70
     6
  9
$SURFTAB2
 70
     6
  9
$SURFTYPE
 70
     6
  9
$SURFU
 70
     6
  9
$SURFV
 70
     6
  9
$UCSNAME
  2

  9
$UCSORG
 10
0.0
 20
0.0
 30
0.0
  9
$UCSXDIR
 10
1.0
 20
0.0
 30
0.0
  9
$UCSYDIR
 10
0.0
 20
1.0
 30
0.0
  9
$PUCSNAME
  2

  9
$PUCSORG
 10
0.0
 20
0.0
 30
0.0
  9
$PUCSXDIR
 10
1.0
 20
0.0
 30
0.0
  9
$PUCSYDIR
 10
0.0
 20
1.0
 30
0.0
  9
$USERI1
 70
     0
  9
$USERI2
 70
     1
  9
$USERI3
 70
     1
  9
$USERI4
 70
     3
  9
$USERI5
 70
     0
  9
$USERR1
 40
1.0
  9
$USERR2
 40
3.0
  9
$USERR3
 40
3.0
  9
$USERR4
 40
1.5
  9
$USERR5
 40
8.0
  9
$WORLDVIEW
 70
     1
  9
$SHADEDGE
 70
     3
  9
$SHADEDIF
 70
    70
  9
$TILEMODE
 70
     1
  9
$MAXACTVP
 70
    16
  9
$PINSBASE
 10
0.0
 20
0.0
 30
0.0
  9
$PLIMCHECK
 70
     0
  9
$PEXTMIN
 10
1.000000000000000E+20
 20
1.000000000000000E+20
 30
1.000000000000000E+20
  9
$PEXTMAX
 10
-1.000000000000000E+20
 20
-1.000000000000000E+20
 30
-1.000000000000000E+20
  9
$PLIMMIN
 10
0.0
 20
0.0
  9
$PLIMMAX
 10
12.0
 20
9.0
  9
$UNITMODE
 70
     0
  9
$VISRETAIN
 70
     0
  9
$PLINEGEN
 70
     0
  9
$PSLTSCALE
 70
     0
  9
$TREEDEPTH
 70
  3020
  9
$PICKSTYLE
 70
     1
  9
$CMLSTYLE
  2
STANDARD
  9
$CMLJUST
 70
     0
  9
$CMLSCALE
 40
1.0
  9
$PROXYGRAPHICS
 70
     1
  9
$MEASUREMENT
 70
     0
  0
ENDSEC
  0
SECTION
  2
CLASSES
  0
CLASS
  1
LWPOLYLINE
  2
AcDbPolyline
  3
AutoCAD 2000
 90
        0
280
     0
281
     1
  0
CLASS
  1
HATCH
  2
AcDbHatch
  3
AutoCAD 2000
 90
        0
280
     0
281
     1
  0
CLASS
  1
ACDBDICTIONARYWDFLT
  2
AcDbDictionaryWithDefault
  3
AutoCAD 2000
 90
        0
280
     0
281
     0
  0
CLASS
  1
ACDBPLACEHOLDER
  2
AcDbPlaceHolder
  3
AutoCAD 2000
 90
        0
280
     0
281
     0
  0
CLASS
  1
LAYOUT
  2
AcDbLayout
  3
AutoCAD 2000
 90
        0
280
     0
281
     0
  0
CLASS
  1
LONG_TRANSACTION
  2
AcDbLongTransaction
  3
AutoCAD 2000
 90
        0
280
     0
281
     0
  0
CLASS
  1
LWPOLYLINE
  2
AcDbPolyline
  3
AutoCAD 2000
 90
        0
280
     0
281
     1
  0
CLASS
  1
HATCH
  2
AcDbHatch
  3
AutoCAD 2000
 90
        0
280
     0
281
     1
  0
CLASS
  1
XRECORD
  2
AcDbXrecord
  3
AutoCAD 2000
 90
        0
280
     0
281
     0
  0
CLASS
  1
DICTIONARYVAR
  2
AcDbDictionaryVar
  3
AutoCAD 2000
 90
        0
280
     0
281
     0
  0
CLASS
  1
LONG_TRANSACTION
  2
AcDbLongTransaction
  3
AutoCAD 2000
 90
        0
280
     0
281
     0
  0
CLASS
  1
LWPOLYLINE
  2
AcDbPolyline
  3
AutoCAD 2000
 90
        0
280
     0
281
     1
  0
CLASS
  1
HATCH
  2
AcDbHatch
  3
AutoCAD 2000
 90
        0
280
     0
281
     1
  0
CLASS
  1
XRECORD
  2
AcDbXrecord
  3
AutoCAD 2000
 90
        0
280
     0
281
     0
  0
CLASS
  1
LONG_TRANSACTION
  2
AcDbLongTransaction
  3
AutoCAD 2000
 90
        0
280
     0
281
     0
  0
CLASS
  1
LWPOLYLINE
  2
AcDbPolyline
  3
AutoCAD 2000
 90
        0
280
     0
281
     1
  0
CLASS
  1
HATCH
  2
AcDbHatch
  3
AutoCAD 2000
 90
        0
280
     0
281
     1
  0
CLASS
  1
XRECORD
  2
AcDbXrecord
  3
AutoCAD 2000
 90
        0
280
     0
281
     0
  0
CLASS
  1
LONG_TRANSACTION
  2
AcDbLongTransaction
  3
AutoCAD 2000
 90
        0
280
     0
281
     0
  0
CLASS
  1
LWPOLYLINE
  2
AcDbPolyline
  3
AutoCAD 2000
 90
        0
280
     0
281
     1
  0
CLASS
  1
HATCH
  2
AcDbHatch
  3
AutoCAD 2000
 90
        0
280
     0
281
     1
  0
CLASS
  1
XRECORD
  2
AcDbXrecord
  3
AutoCAD 2000
 90
        0
280
     0
281
     0
  0
CLASS
  1
LONG_TRANSACTION
  2
AcDbLongTransaction
  3
AutoCAD 2000
 90
        0
280
     0
281
     0
  0
CLASS
  1
LWPOLYLINE
  2
AcDbPolyline
  3
AutoCAD 2000
 90
        0
280
     0
281
     1
  0
CLASS
  1
HATCH
  2
AcDbHatch
  3
AutoCAD 2000
 90
        0
280
     0
281
     1
  0
CLASS
  1
XRECORD
  2
AcDbXrecord
  3
AutoCAD 2000
 90
        0
280
     0
281
     0
  0
CLASS
  1
LONG_TRANSACTION
  2
AcDbLongTransaction
  3
AutoCAD 2000
 90
        0
280
     0
281
     0
  0
CLASS
  1
LWPOLYLINE
  2
AcDbPolyline
  3
AutoCAD 2000
 90
        0
280
     0
281
     1
  0
CLASS
  1
HATCH
  2
AcDbHatch
  3
AutoCAD 2000
 90
        0
280
     0
281
     1
  0
CLASS
  1
XRECORD
  2
AcDbXrecord
  3
AutoCAD 2000
 90
        0
280
     0
281
     0
  0
CLASS
  1
LONG_TRANSACTION
  2
AcDbLongTransaction
  3
AutoCAD 2000
 90
        0
280
     0
281
     0
  0
CLASS
  1
LWPOLYLINE
  2
AcDbPolyline
  3
AutoCAD 2000
 90
        0
280
     0
281
     1
  0
CLASS
  1
HATCH
  2
AcDbHatch
  3
AutoCAD 2000
 90
        0
280
     0
281
     1
  0
CLASS
  1
XRECORD
  2
AcDbXrecord
  3
AutoCAD 2000
 90
        0
280
     0
281
     0
  0
CLASS
  1
LONG_TRANSACTION
  2
AcDbLongTransaction
  3
AutoCAD 2000
 90
        0
280
     0
281
     0
  0
CLASS
  1
LWPOLYLINE
  2
AcDbPolyline
  3
AutoCAD 2000
 90
        0
280
     0
281
     1
  0
CLASS
  1
HATCH
  2
AcDbHatch
  3
AutoCAD 2000
 90
        0
280
     0
281
     1
  0
CLASS
  1
XRECORD
  2
AcDbXrecord
  3
AutoCAD 2000
 90
        0
280
     0
281
     0
  0
CLASS
  1
LONG_TRANSACTION
  2
AcDbLongTransaction
  3
AutoCAD 2000
 90
        0
280
     0
281
     0
  0
CLASS
  1
LWPOLYLINE
  2
AcDbPolyline
  3
AutoCAD 2000
 90
        0
280
     0
281
     1
  0
CLASS
  1
HATCH
  2
AcDbHatch
  3
AutoCAD 2000
 90
        0
280
     0
281
     1
  0
CLASS
  1
XRECORD
  2
AcDbXrecord
  3
AutoCAD 2000
 90
        0
280
     0
281
     0
  0
CLASS
  1
LONG_TRANSACTION
  2
AcDbLongTransaction
  3
AutoCAD 2000
 90
        0
280
     0
281
     0
  0
CLASS
  1
LWPOLYLINE
  2
AcDbPolyline
  3
AutoCAD 2000
 90
        0
280
     0
281
     1
  0
CLASS
  1
HATCH
  2
AcDbHatch
  3
AutoCAD 2000
 90
        0
280
     0
281
     1
  0
CLASS
  1
XRECORD
  2
AcDbXrecord
  3
AutoCAD 2000
 90
        0
280
     0
281
     0
  0
CLASS
  1
LONG_TRANSACTION
  2
AcDbLongTransaction
  3
AutoCAD 2000
 90
        0
280
     0
281
     0
  0
CLASS
  1
LWPOLYLINE
  2
AcDbPolyline
  3
AutoCAD 2000
 90
        0
280
     0
281
     1
  0
CLASS
  1
HATCH
  2
AcDbHatch
  3
AutoCAD 2000
 90
        0
280
     0
281
     1
  0
CLASS
  1
XRECORD
  2
AcDbXrecord
  3
AutoCAD 2000
 90
        0
280
     0
281
     0
  0
CLASS
  1
LONG_TRANSACTION
  2
AcDbLongTransaction
  3
AutoCAD 2000
 90
        0
280
     0
281
     0
  0
CLASS
  1
LWPOLYLINE
  2
AcDbPolyline
  3
AutoCAD 2000
 90
        0
280
     0
281
     1
  0
CLASS
  1
HATCH
  2
AcDbHatch
  3
AutoCAD 2000
 90
        0
280
     0
281
     1
  0
CLASS
  1
XRECORD
  2
AcDbXrecord
  3
AutoCAD 2000
 90
        0
280
     0
281
     0
  0
CLASS
  1
LONG_TRANSACTION
  2
AcDbLongTransaction
  3
AutoCAD 2000
 90
        0
280
     0
281
     0
  0
CLASS
  1
LWPOLYLINE
  2
AcDbPolyline
  3
AutoCAD 2000
 90
        0
280
     0
281
     1
  0
CLASS
  1
HATCH
  2
AcDbHatch
  3
AutoCAD 2000
 90
        0
280
     0
281
     1
  0
CLASS
  1
XRECORD
  2
AcDbXrecord
  3
AutoCAD 2000
 90
        0
280
     0
281
     0
  0
CLASS
  1
LONG_TRANSACTION
  2
AcDbLongTransaction
  3
AutoCAD 2000
 90
        0
280
     0
281
     0
  0
CLASS
  1
LWPOLYLINE
  2
AcDbPolyline
  3
AutoCAD 2000
 90
        0
280
     0
281
     1
  0
CLASS
  1
HATCH
  2
AcDbHatch
  3
AutoCAD 2000
 90
        0
280
     0
281
     1
  0
CLASS
  1
XRECORD
  2
AcDbXrecord
  3
AutoCAD 2000
 90
        0
280
     0
281
     0
  0
CLASS
  1
LONG_TRANSACTION
  2
AcDbLongTransaction
  3
AutoCAD 2000
 90
        0
280
     0
281
     0
  0
CLASS
  1
LWPOLYLINE
  2
AcDbPolyline
  3
AutoCAD 2000
 90
        0
280
     0
281
     1
  0
CLASS
  1
HATCH
  2
AcDbHatch
  3
AutoCAD 2000
 90
        0
280
     0
281
     1
  0
CLASS
  1
XRECORD
  2
AcDbXrecord
  3
AutoCAD 2000
 90
        0
280
     0
281
     0
  0
CLASS
  1
LONG_TRANSACTION
  2
AcDbLongTransaction
  3
AutoCAD 2000
 90
        0
280
     0
281
     0
  0
CLASS
  1
LWPOLYLINE
  2
AcDbPolyline
  3
AutoCAD 2000
 90
        0
280
     0
281
     1
  0
CLASS
  1
HATCH
  2
AcDbHatch
  3
AutoCAD 2000
 90
        0
280
     0
281
     1
  0
CLASS
  1
XRECORD
  2
AcDbXrecord
  3
AutoCAD 2000
 90
        0
280
     0
281
     0
  0
CLASS
  1
LONG_TRANSACTION
  2
AcDbLongTransaction
  3
AutoCAD 2000
 90
        0
280
     0
281
     0
  0
CLASS
  1
LWPOLYLINE
  2
AcDbPolyline
  3
AutoCAD 2000
 90
        0
280
     0
281
     1
  0
CLASS
  1
HATCH
  2
AcDbHatch
  3
AutoCAD 2000
 90
        0
280
     0
281
     1
  0
CLASS
  1
XRECORD
  2
AcDbXrecord
  3
AutoCAD 2000
 90
        0
280
     0
281
     0
  0
ENDSEC
  0
SECTION
  2
TABLES
  0
TABLE
  2
VPORT
  5
EF7C85523
330
0
100
AcDbSymbolTable
 70
    11
  0
VPORT
  5
EF7C85567
330
EF7C85523
100
AcDbSymbolTableRecord
100
AcDbViewportTableRecord
  2
2
 70
     0
 10
0.5
 20
0.0
 11
1.0
 21
1.0
 12
0.9240312421264802
 22
1.052650975462765
 13
0.0
 23
0.0
 14
1.0
 24
1.0
 15
10.0
 25
10.0
 16
0.0
 26
0.0
 36
1.0
 17
0.0
 27
0.0
 37
0.0
 40
2.105301950925533
 41
0.8778135048231511
 42
50.0
 43
0.0
 44
0.0
 50
0.0
 51
0.0
 71
     0
 72
   500
 73
     1
 74
     1
 75
     0
 76
     0
 77
     0
 78
     0
  0
VPORT
  5
EF7C85568
330
EF7C85523
100
AcDbSymbolTableRecord
100
AcDbViewportTableRecord
  2
2
 70
     0
 10
0.0
 20
0.0
 11
0.5
 21
1.0
 12
0.9240312421264802
 22
1.052650975462765
 13
0.0
 23
0.0
 14
1.0
 24
1.0
 15
10.0
 25
10.0
 16
0.0
 26
0.0
 36
1.0
 17
0.0
 27
0.0
 37
0.0
 40
2.105301950925533
 41
0.8778135048231511
 42
50.0
 43
0.0
 44
0.0
 50
0.0
 51
0.0
 71
     0
 72
   500
 73
     1
 74
     1
 75
     0
 76
     0
 77
     0
 78
     0
  0
VPORT
  5
EF7C85569
330
EF7C85523
100
AcDbSymbolTableRecord
100
AcDbViewportTableRecord
  2
3
 70
     0
 10
0.0
 20
0.5
 11
1.0
 21
1.0
 12
2.832169994473273
 22
1.052650975462765
 13
0.0
 23
0.0
 14
1.0
 24
1.0
 15
10.0
 25
10.0
 16
0.0
 26
0.0
 36
1.0
 17
0.0
 27
0.0
 37
0.0
 40
2.105301950925533
 41
3.571428571428571
 42
50.0
 43
0.0
 44
0.0
 50
0.0
 51
0.0
 71
     0
 72
   500
 73
     1
 74
     1
 75
     0
 76
     0
 77
     0
 78
     0
  0
VPORT
  5
EF7C8556A
330
EF7C85523
100
AcDbSymbolTableRecord
100
AcDbViewportTableRecord
  2
3
 70
     0
 10
0.0
 20
0.0
 11
1.0
 21
0.5
 12
2.856741679241311
 22
1.052650975462765
 13
0.0
 23
0.0
 14
1.0
 24
1.0
 15
10.0
 25
10.0
 16
0.0
 26
0.0
 36
1.0
 17
0.0
 27
0.0
 37
0.0
 40
2.105301950925533
 41
3.594771241830064
 42
50.0
 43
0.0
 44
0.0
 50
0.0
 51
0.0
 71
     0
 72
   500
 73
     1
 74
     1
 75
     0
 76
     0
 77
     0
 78
     0
  0
VPORT
  5
EF7C8556B
330
EF7C85523
100
AcDbSymbolTableRecord
100
AcDbViewportTableRecord
  2
4
 70
     0
 10
0.5
 20
0.0
 11
1.0
 21
0.5
 12
2.886857516709718
 22
1.052650975462765
 13
0.0
 23
0.0
 14
1.0
 24
1.0
 15
10.0
 25
10.0
 16
0.0
 26
0.0
 36
1.0
 17
0.0
 27
0.0
 37
0.0
 40
4.275207030309069
 41
1.784313725490195
 42
50.0
 43
0.0
 44
0.0
 50
0.0
 51
0.0
 71
     0
 72
   500
 73
     1
 74
     1
 75
     0
 76
     0
 77
     0
 78
     0
  0
VPORT
  5
EF7C8556C
330
EF7C85523
100
AcDbSymbolTableRecord
100
AcDbViewportTableRecord
  2
4
 70
     0
 10
0.5
 20
0.5
 11
1.0
 21
1.0
 12
2.862090274555523
 22
1.052650975462765
 13
0.0
 23
0.0
 14
1.0
 24
1.0
 15
10.0
 25
10.0
 16
0.0
 26
0.0
 36
1.0
 17
0.0
 27
0.0
 37
0.0
 40
4.275207030309069
 41
1.772727272727271
 42
50.0
 43
0.0
 44
0.0
 50
0.0
 51
0.0
 71
     0
 72
   500
 73
     1
 74
     1
 75
     0
 76
     0
 77
     0
 78
     0
  0
VPORT
  5
EF7C8556D
330
EF7C85523
100
AcDbSymbolTableRecord
100
AcDbViewportTableRecord
  2
4
 70
     0
 10
0.0
 20
0.5
 11
0.5
 21
1.0
 12
2.862090274555523
 22
1.052650975462765
 13
0.0
 23
0.0
 14
1.0
 24
1.0
 15
10.0
 25
10.0
 16
0.0
 26
0.0
 36
1.0
 17
0.0
 27
0.0
 37
0.0
 40
4.275207030309069
 41
1.772727272727271
 42
50.0
 43
0.0
 44
0.0
 50
0.0
 51
0.0
 71
     0
 72
   500
 73
     1
 74
     1
 75
     0
 76
     0
 77
     0
 78
     0
  0
VPORT
  5
EF7C8556E
330
EF7C85523
100
AcDbSymbolTableRecord
100
AcDbViewportTableRecord
  2
4
 70
     0
 10
0.0
 20
0.0
 11
0.5
 21
0.5
 12
2.886857516709718
 22
1.052650975462765
 13
0.0
 23
0.0
 14
1.0
 24
1.0
 15
10.0
 25
10.0
 16
0.0
 26
0.0
 36
1.0
 17
0.0
 27
0.0
 37
0.0
 40
4.275207030309069
 41
1.784313725490195
 42
50.0
 43
0.0
 44
0.0
 50
0.0
 51
0.0
 71
     0
 72
   500
 73
     1
 74
     1
 75
     0
 76
     0
 77
     0
 78
     0
  0
VPORT
  5
EF7C87403
330
EF7C85523
100
AcDbSymbolTableRecord
100
AcDbViewportTableRecord
  2
*ACTIVE
 70
     0
 10
0.0
 20
0.0
 11
1.0
 21
1.0
 12
181.0000001188468
 22
141.5000006589106
 13
0.0
 23
0.0
 14
1.0
 24
1.0
 15
10.0
 25
10.0
 16
0.0
 26
0.0
 36
1.0
 17
0.0
 27
0.0
 37
0.0
 40
286.5113133560196
 41
1.954639175257731
 42
50.0
 43
0.0
 44
0.0
 50
0.0
 51
0.0
 71
     0
 72
   500
 73
     1
 74
     0
 75
     0
 76
     0
 77
     0
 78
     0
  0
ENDTAB
  0
TABLE
  2
LTYPE
  5
EF7C85520
330
0
100
AcDbSymbolTable
 70
     3
  0
LTYPE
  5
EF7C8552C
330
EF7C85520
100
AcDbSymbolTableRecord
100
AcDbLinetypeTableRecord
  2
BYBLOCK
 70
     0
  3

 72
    65
 73
     0
 40
0.0
  0
LTYPE
  5
EF7C8552D
330
EF7C85520
100
AcDbSymbolTableRecord
100
AcDbLinetypeTableRecord
  2
BYLAYER
 70
     0
  3

 72
    65
 73
     0
 40
0.0
  0
LTYPE
  5
EF7C8552E
330
EF7C85520
100
AcDbSymbolTableRecord
100
AcDbLinetypeTableRecord
  2
CONTINUOUS
 70
     0
  3
実線
 72
    65
 73
     0
 40
0.0
  0
LTYPE
  5
EF7C85565
330
EF7C85520
100
AcDbSymbolTableRecord
100
AcDbLinetypeTableRecord
  2
PHANTOM
 70
     0
  3
_____ _ _ _____ _ _ _____ _ _ _____ _ _ ____
 72
    65
 73
     6
 40
2.5
 49
1.25
 74
     0
 49
-0.25
 74
     0
 49
0.25
 74
     0
 49
-0.25
 74
     0
 49
0.25
 74
     0
 49
-0.25
 74
     0
  0
LTYPE
  5
EF7C86EBE
330
EF7C85520
100
AcDbSymbolTableRecord
100
AcDbLinetypeTableRecord
  2
HIDDEN
 70
     0
  3
_ _ _ _ _ _ _ _ _ _ _ _ _ _ _ _ _ _ _ _ _ _ _
 72
    65
 73
     2
 40
0.375
 49
0.25
 74
     0
 49
-0.125
 74
     0
  0
ENDTAB
  0
TABLE
  2
LAYER
  5
EF7C8551D
102
{ACAD_XDICTIONARY
360
EF7C870F5
102
}
330
0
100
AcDbSymbolTable
 70
     9
  0
LAYER
  5
EF7C85529
330
EF7C8551D
100
AcDbSymbolTableRecord
100
AcDbLayerTableRecord
  2
0
 70
     0
 62
     6
  6
CONTINUOUS
  0
LAYER
  5
EF7C85574
330
EF7C8551D
100
AcDbSymbolTableRecord
100
AcDbLayerTableRecord
  2
NITEN
 70
     0
 62
     2
  6
PHANTOM
  0
LAYER
  5
EF7C85575
330
EF7C8551D
100
AcDbSymbolTableRecord
100
AcDbLayerTableRecord
  2
HATCH
 70
     0
 62
     4
  6
CONTINUOUS
  0
LAYER
  5
EF7C85576
330
EF7C8551D
100
AcDbSymbolTableRecord
100
AcDbLayerTableRecord
  2
SUNPOU
 70
     0
 62
     3
  6
CONTINUOUS
  0
LAYER
  5
EF7C85577
330
EF7C8551D
100
AcDbSymbolTableRecord
100
AcDbLayerTableRecord
  2
TEXT
 70
     0
 62
     3
  6
CONTINUOUS
  0
LAYER
  5
EF7C85578
330
EF7C8551D
100
AcDbSymbolTableRecord
100
AcDbLayerTableRecord
  2
SAISEN
 70
     0
 62
     4
  6
CONTINUOUS
  0
LAYER
  5
EF7C85579
330
EF7C8551D
100
AcDbSymbolTableRecord
100
AcDbLayerTableRecord
  2
JISSEN
 70
     0
 62
     7
  6
CONTINUOUS
  0
LAYER
  5
EF7C8557D
330
EF7C8551D
100
AcDbSymbolTableRecord
100
AcDbLayerTableRecord
  2
WAKU
 70
     0
 62
     5
  6
CONTINUOUS
  0
LAYER
  5
EF7C86EBF
330
EF7C8551D
100
AcDbSymbolTableRecord
100
AcDbLayerTableRecord
  2
TENSEN
 70
     0
 62
     2
  6
HIDDEN
  0
ENDTAB
  0
TABLE
  2
STYLE
  5
EF7C8551E
330
0
100
AcDbSymbolTable
 70
     3
  0
STYLE
  5
EF7C8552A
330
EF7C8551E
100
AcDbSymbolTableRecord
100
AcDbTextStyleTableRecord
  2
STANDARD
 70
     0
 40
0.0
 41
1.0
 50
0.0
 71
     0
 42
1.5
  3
SIMPLEX
  4

  0
STYLE
  5
EF7C85558
330
EF7C8551E
100
AcDbSymbolTableRecord
100
AcDbTextStyleTableRecord
  2
K
 70
     0
 40
0.0
 41
1.0
 50
0.0
 71
     0
 42
3.0
  3
ROMANS
  4
BIGFONT
  0
STYLE
  5
EF7C8555B
330
EF7C8551E
100
AcDbSymbolTableRecord
100
AcDbTextStyleTableRecord
  2
BIGFONT
 70
     0
 40
0.0
 41
1.0
 50
0.0
 71
     0
 42
3.0
  3
txt.shx
  4
bigfont
  0
ENDTAB
  0
TABLE
  2
VIEW
  5
EF7C85521
330
0
100
AcDbSymbolTable
 70
     0
  0
ENDTAB
  0
TABLE
  2
UCS
  5
EF7C85522
330
0
100
AcDbSymbolTable
 70
     0
  0
ENDTAB
  0
TABLE
  2
APPID
  5
EF7C85524
330
0
100
AcDbSymbolTable
 70
     1
  0
APPID
  5
EF7C8552B
330
EF7C85524
100
AcDbSymbolTableRecord
100
AcDbRegAppTableRecord
  2
ACAD
 70
     0
  0
ENDTAB
  0
TABLE
  2
DIMSTYLE
  5
EF7C85525
330
0
100
AcDbSymbolTable
 70
     1
  0
DIMSTYLE
105
EF7C85571
330
EF7C85525
100
AcDbSymbolTableRecord
100
AcDbDimStyleTableRecord
  2
IMAO
 70
     0
  3

  4

  5
ARROWANG
  6
ARROWANG
  7
ARROWANG
 40
1.0
 41
1.5
 42
1.0
 43
6.0
 44
1.0
 45
0.0
 46
0.0
 47
495.0
 48
0.0
140
3.0
141
0.0
142
0.0
143
25.4
144
1.0
145
0.0
146
1.0
147
0.09
 71
     0
 72
     0
 73
     0
 74
     0
 75
     0
 76
     0
 77
     1
 78
     8
170
     0
171
     2
172
     1
173
     0
174
     1
175
     0
176
     0
177
     0
178
     0
270
     2
271
     2
272
     2
273
     2
274
     2
340
EF7C8555B
275
     0
280
     0
281
     0
282
     0
283
     1
284
     8
285
     8
286
     8
287
     3
288
     0
  0
ENDTAB
  0
TABLE
  2
BLOCK_RECORD
  5
EF7C8551C
330
0
100
AcDbSymbolTable
 70
    11
  0
BLOCK_RECORD
  5
EF7C85532
102
{ACAD_XDICTIONARY
360
EF7C85D9A
102
}
330
EF7C8551C
100
AcDbSymbolTableRecord
100
AcDbBlockTableRecord
  2
*MODEL_SPACE
  0
BLOCK_RECORD
  5
EF7C8552F
102
{ACAD_XDICTIONARY
360
EF7C85D98
102
}
330
EF7C8551C
100
AcDbSymbolTableRecord
100
AcDbBlockTableRecord
  2
*PAPER_SPACE
  0
BLOCK_RECORD
  5
EF7C85537
330
EF7C8551C
100
AcDbSymbolTableRecord
100
AcDbBlockTableRecord
  2
ARROW
  0
BLOCK_RECORD
  5
EF7C8553B
330
EF7C8551C
100
AcDbSymbolTableRecord
100
AcDbBlockTableRecord
  2
WAKU
  0
BLOCK_RECORD
  5
EF7C8553D
330
EF7C8551C
100
AcDbSymbolTableRecord
100
AcDbBlockTableRecord
  2
*X2
  0
BLOCK_RECORD
  5
EF7C8553E
330
EF7C8551C
100
AcDbSymbolTableRecord
100
AcDbBlockTableRecord
  2
STDGX5
  0
BLOCK_RECORD
  5
EF7C8553F
330
EF7C8551C
100
AcDbSymbolTableRecord
100
AcDbBlockTableRecord
  2
*X4
  0
BLOCK_RECORD
  5
EF7C85540
330
EF7C8551C
100
AcDbSymbolTableRecord
100
AcDbBlockTableRecord
  2
*X5
  0
BLOCK_RECORD
  5
EF7C85541
330
EF7C8551C
100
AcDbSymbolTableRecord
100
AcDbBlockTableRecord
  2
*X6
  0
BLOCK_RECORD
  5
EF7C85542
330
EF7C8551C
100
AcDbSymbolTableRecord
100
AcDbBlockTableRecord
  2
*X7
  0
BLOCK_RECORD
  5
EF7C85543
330
EF7C8551C
100
AcDbSymbolTableRecord
100
AcDbBlockTableRecord
  2
ARROWANG
  0
BLOCK_RECORD
  5
EF7C85544
330
EF7C8551C
100
AcDbSymbolTableRecord
100
AcDbBlockTableRecord
  2
STDR12J
  0
ENDTAB
  0
ENDSEC
  0
SECTION
  2
BLOCKS
  0
BLOCK
  5
EF7C85580
330
EF7C85532
100
AcDbEntity
  8
0
100
AcDbBlockBegin
  2
*MODEL_SPACE
 70
     0
 10
0.0
 20
0.0
 30
0.0
  3
*MODEL_SPACE
  1

  0
ENDBLK
  5
EF7C85581
330
EF7C85532
100
AcDbEntity
  8
0
100
AcDbBlockEnd
  0
BLOCK
  5
EF7C8557E
330
EF7C8552F
100
AcDbEntity
 67
     1
  8
0
100
AcDbBlockBegin
  2
*PAPER_SPACE
 70
     0
 10
0.0
 20
0.0
 30
0.0
  3
*PAPER_SPACE
  1

  0
ENDBLK
  5
EF7C8557F
330
EF7C8552F
100
AcDbEntity
 67
     1
  8
0
100
AcDbBlockEnd
  0
BLOCK
  5
499
330
EF7C85537
100
AcDbEntity
  8
0
100
AcDbBlockBegin
  2
ARROW
 70
     0
 10
1.0
 20
0.5
 30
0.0
  3
ARROW
  1

  0
LINE
  5
49A
330
EF7C85537
100
AcDbEntity
  8
0
100
AcDbLine
 10
1.0
 20
0.5
 30
0.0
 11
-0.5000000000000214
 21
0.0980762113533018
 31
0.0
  0
LINE
  5
49B
330
EF7C85537
100
AcDbEntity
  8
0
100
AcDbLine
 10
0.0
 20
0.5
 30
0.0
 11
1.0
 21
0.5
 31
0.0
  0
LINE
  5
49C
330
EF7C85537
100
AcDbEntity
  8
0
100
AcDbLine
 10
1.0
 20
0.5
 30
0.0
 11
-0.4999999999999575
 21
0.9019237886467408
 31
0.0
  0
ENDBLK
  5
49D
330
EF7C85537
100
AcDbEntity
  8
0
100
AcDbBlockEnd
  0
BLOCK
  5
4A7
330
EF7C8553B
100
AcDbEntity
  8
0
100
AcDbBlockBegin
  2
WAKU
 70
     0
 10
0.0
 20
0.0
 30
0.0
  3
WAKU
  1

  0
LINE
  5
4A8
330
EF7C8553B
100
AcDbEntity
  8
WAKU
100
AcDbLine
 10
0.9999999959999998
 20
0.0
 30
0.0
 11
0.9999999959999998
 21
0.9999999999999998
 31
0.0
  0
LINE
  5
4A9
330
EF7C8553B
100
AcDbEntity
  8
WAKU
100
AcDbLine
 10
0.0
 20
0.9999999999999998
 30
0.0
 11
0.9999999959999998
 21
0.9999999999999998
 31
0.0
  0
LINE
  5
4AA
330
EF7C8553B
100
AcDbEntity
  8
WAKU
100
AcDbLine
 10
0.9999999959999998
 20
0.0
 30
0.0
 11
0.0
 21
0.0
 31
0.0
  0
LINE
  5
4AB
330
EF7C8553B
100
AcDbEntity
  8
WAKU
100
AcDbLine
 10
0.0
 20
0.0
 30
0.0
 11
0.0
 21
0.9999999999999998
 31
0.0
  0
ENDBLK
  5
4AC
330
EF7C8553B
100
AcDbEntity
  8
0
100
AcDbBlockEnd
  0
BLOCK
  5
2764
330
EF7C8553D
100
AcDbEntity
  8
0
100
AcDbBlockBegin
  2
*X2
 70
     1
 10
0.0
 20
0.0
 30
0.0
  3
*X2
  1

  0
ENDBLK
  5
2765
330
EF7C8553D
100
AcDbEntity
  8
0
100
AcDbBlockEnd
  0
BLOCK
  5
2766
330
EF7C8553E
100
AcDbEntity
  8
0
100
AcDbBlockBegin
  2
STDGX5
 70
     0
 10
0.0
 20
0.0
 30
0.0
  3
STDGX5
  1

  0
ENDBLK
  5
2767
330
EF7C8553E
100
AcDbEntity
  8
0
100
AcDbBlockEnd
  0
BLOCK
  5
2F5A
330
EF7C8553F
100
AcDbEntity
  8
0
100
AcDbBlockBegin
  2
*X4
 70
     1
 10
0.0
 20
0.0
 30
0.0
  3
*X4
  1

  0
ENDBLK
  5
2F5B
330
EF7C8553F
100
AcDbEntity
  8
0
100
AcDbBlockEnd
  0
BLOCK
  5
32BB
330
EF7C85540
100
AcDbEntity
  8
0
100
AcDbBlockBegin
  2
*X5
 70
     1
 10
0.0
 20
0.0
 30
0.0
  3
*X5
  1

  0
ENDBLK
  5
32BC
330
EF7C85540
100
AcDbEntity
  8
0
100
AcDbBlockEnd
  0
BLOCK
  5
372F
330
EF7C85541
100
AcDbEntity
  8
0
100
AcDbBlockBegin
  2
*X6
 70
     1
 10
0.0
 20
0.0
 30
0.0
  3
*X6
  1

  0
ENDBLK
  5
3730
330
EF7C85541
100
AcDbEntity
  8
0
100
AcDbBlockEnd
  0
BLOCK
  5
3A6D
330
EF7C85542
100
AcDbEntity
  8
0
100
AcDbBlockBegin
  2
*X7
 70
     1
 10
0.0
 20
0.0
 30
0.0
  3
*X7
  1

  0
ENDBLK
  5
3A6E
330
EF7C85542
100
AcDbEntity
  8
0
100
AcDbBlockEnd
  0
BLOCK
  5
4CC9
330
EF7C85543
100
AcDbEntity
  8
0
100
AcDbBlockBegin
  2
ARROWANG
 70
     0
 10
0.0
 20
0.0
 30
0.0
  3
ARROWANG
  1

  0
LINE
  5
4CCA
330
EF7C85543
100
AcDbEntity
  8
SUNPOU
100
AcDbLine
 10
0.0
 20
0.0
 30
0.0
 11
-1.499999999999956
 21
0.401923788646741
 31
0.0
  0
LINE
  5
4CCB
330
EF7C85543
100
AcDbEntity
  8
SUNPOU
100
AcDbLine
 10
0.0
 20
0.0
 30
0.0
 11
-1.500000000000027
 21
-0.4019237886467124
 31
0.0
  0
ENDBLK
  5
4CCC
330
EF7C85543
100
AcDbEntity
  8
0
100
AcDbBlockEnd
  0
BLOCK
  5
4CCD
330
EF7C85544
100
AcDbEntity
  8
0
100
AcDbBlockBegin
  2
STDR12J
 70
     0
 10
0.0
 20
0.0
 30
0.0
  3
STDR12J
  1

  0
ENDBLK
  5
4CF2
330
EF7C85544
100
AcDbEntity
  8
0
100
AcDbBlockEnd
  0
ENDSEC
  0
SECTION
  2
ENTITIES
  0
TEXT
  5
1
330
EF7C85532
100
AcDbEntity
  8
SUNPOU
100
AcDbText
 10
95.05869565217388
 20
43.7966872748706
 30
0.0
 40
1.5
  1
                          
100
AcDbText
  0
TEXT
  5
2
330
EF7C85532
100
AcDbEntity
  8
SUNPOU
100
AcDbText
 10
332.2793466870868
 20
21.8983436374353
 30
0.0
 40
0.75
  1
                          
100
AcDbText
  0
TEXT
  5
1A
330
EF7C85532
100
AcDbEntity
  8
SUNPOU
100
AcDbText
 10
289.9834441000535
 20
43.7966872748706
 30
0.0
 40
1.5
  1
                          
100
AcDbText
  0
TEXT
  5
1B
330
EF7C85532
100
AcDbEntity
  8
SUNPOU
100
AcDbText
 10
527.2040951349664
 20
21.8983436374353
 30
0.0
 40
0.75
  1
                          
100
AcDbText
  0
TEXT
  5
1C
330
EF7C85532
100
AcDbEntity
  8
SUNPOU
100
AcDbText
 10
490.6272568090836
 20
43.79668727487056
 30
0.0
 40
1.5
  1
                          
100
AcDbText
  0
TEXT
  5
1D
330
EF7C85532
100
AcDbEntity
  8
SUNPOU
100
AcDbText
 10
727.8479078439966
 20
21.89834363743526
 30
0.0
 40
0.75
  1
                          
100
AcDbText
  0
INSERT
  5
1E
330
EF7C85532
100
AcDbEntity
  8
HATCH
100
AcDbBlockReference
  2
*X2
 10
194.9247484478796
 20
0.0
 30
0.0
  0
TEXT
  5
1F
330
EF7C85532
100
AcDbEntity
  8
SUNPOU
100
AcDbText
 10
493.0101992368963
 20
43.7966872748706
 30
0.0
 40
1.5
  1
                          
100
AcDbText
  0
TEXT
  5
20
330
EF7C85532
100
AcDbEntity
  8
SUNPOU
100
AcDbText
 10
730.2308502718093
 20
21.8983436374353
 30
0.0
 40
0.75
  1
                          
100
AcDbText
  0
TEXT
  5
21
330
EF7C85532
100
AcDbEntity
  8
SUNPOU
100
AcDbText
 10
482.0486607753578
 20
43.7966872748706
 30
0.0
 40
1.5
  1
                          
100
AcDbText
  0
TEXT
  5
22
330
EF7C85532
100
AcDbEntity
  8
SUNPOU
100
AcDbText
 10
719.269311810271
 20
21.8983436374353
 30
0.0
 40
0.75
  1
                          
100
AcDbText
  0
INSERT
  5
25
330
EF7C85532
100
AcDbEntity
  8
JISSEN
100
AcDbBlockReference
  2
STDGX5
 10
0.0
 20
0.0
 30
0.0
  0
TEXT
  5
60
330
EF7C85532
100
AcDbEntity
  8
SUNPOU
100
AcDbText
 10
274.0586949361738
 20
43.7966872748706
 30
0.0
 40
1.5
  1
                          
100
AcDbText
  0
TEXT
  5
61
330
EF7C85532
100
AcDbEntity
  8
SUNPOU
100
AcDbText
 10
511.2793459710869
 20
21.8983436374353
 30
0.0
 40
0.75
  1
                          
100
AcDbText
  0
TEXT
  5
62
330
EF7C85532
100
AcDbEntity
  8
SUNPOU
100
AcDbText
 10
474.702507645204
 20
43.79668727487056
 30
0.0
 40
1.5
  1
                          
100
AcDbText
  0
TEXT
  5
63
330
EF7C85532
100
AcDbEntity
  8
SUNPOU
100
AcDbText
 10
711.923158680117
 20
21.89834363743526
 30
0.0
 40
0.75
  1
                          
100
AcDbText
  0
INSERT
  5
64
330
EF7C85532
100
AcDbEntity
  8
HATCH
100
AcDbBlockReference
  2
*X4
 10
178.999999284
 20
0.0
 30
0.0
  0
TEXT
  5
65
330
EF7C85532
100
AcDbEntity
  8
SUNPOU
100
AcDbText
 10
477.0854500730166
 20
43.7966872748706
 30
0.0
 40
1.5
  1
                          
100
AcDbText
  0
TEXT
  5
66
330
EF7C85532
100
AcDbEntity
  8
SUNPOU
100
AcDbText
 10
714.3061011079296
 20
21.8983436374353
 30
0.0
 40
0.75
  1
                          
100
AcDbText
  0
TEXT
  5
67
330
EF7C85532
100
AcDbEntity
  8
SUNPOU
100
AcDbText
 10
466.1239116114783
 20
43.7966872748706
 30
0.0
 40
1.5
  1
                          
100
AcDbText
  0
TEXT
  5
68
330
EF7C85532
100
AcDbEntity
  8
SUNPOU
100
AcDbText
 10
703.3445626463913
 20
21.8983436374353
 30
0.0
 40
0.75
  1
                          
100
AcDbText
  0
INSERT
  5
69
330
EF7C85532
100
AcDbEntity
  8
TEXT
100
AcDbBlockReference
  2
STDGX5
 10
178.999999284
 20
0.0
 30
0.0
  0
TEXT
  5
6A
330
EF7C85532
100
AcDbEntity
  8
SUNPOU
100
AcDbText
 10
453.0586949361739
 20
43.7966872748706
 30
0.0
 40
1.5
  1
                          
100
AcDbText
  0
TEXT
  5
6B
330
EF7C85532
100
AcDbEntity
  8
SUNPOU
100
AcDbText
 10
690.2793459710871
 20
21.8983436374353
 30
0.0
 40
0.75
  1
                          
100
AcDbText
  0
TEXT
  5
6C
330
EF7C85532
100
AcDbEntity
  8
SUNPOU
100
AcDbText
 10
647.9834433840535
 20
43.7966872748706
 30
0.0
 40
1.5
  1
                          
100
AcDbText
  0
TEXT
  5
6D
330
EF7C85532
100
AcDbEntity
  8
SUNPOU
100
AcDbText
 10
885.2040944189665
 20
21.8983436374353
 30
0.0
 40
0.75
  1
                          
100
AcDbText
  0
TEXT
  5
6E
330
EF7C85532
100
AcDbEntity
  8
SUNPOU
100
AcDbText
 10
848.6272560930835
 20
43.79668727487056
 30
0.0
 40
1.5
  1
                          
100
AcDbText
  0
TEXT
  5
6F
330
EF7C85532
100
AcDbEntity
  8
SUNPOU
100
AcDbText
 10
1085.847907127996
 20
21.89834363743526
 30
0.0
 40
0.75
  1
                          
100
AcDbText
  0
INSERT
  5
70
330
EF7C85532
100
AcDbEntity
  8
HATCH
100
AcDbBlockReference
  2
*X5
 10
552.9247477318796
 20
0.0
 30
0.0
  0
TEXT
  5
71
330
EF7C85532
100
AcDbEntity
  8
SUNPOU
100
AcDbText
 10
851.0101985208963
 20
43.7966872748706
 30
0.0
 40
1.5
  1
                          
100
AcDbText
  0
TEXT
  5
72
330
EF7C85532
100
AcDbEntity
  8
SUNPOU
100
AcDbText
 10
1088.230849555809
 20
21.8983436374353
 30
0.0
 40
0.75
  1
                          
100
AcDbText
  0
TEXT
  5
73
330
EF7C85532
100
AcDbEntity
  8
SUNPOU
100
AcDbText
 10
840.048660059358
 20
43.7966872748706
 30
0.0
 40
1.5
  1
                          
100
AcDbText
  0
TEXT
  5
74
330
EF7C85532
100
AcDbEntity
  8
SUNPOU
100
AcDbText
 10
1077.269311094271
 20
21.8983436374353
 30
0.0
 40
0.75
  1
                          
100
AcDbText
  0
INSERT
  5
75
330
EF7C85532
100
AcDbEntity
  8
JISSEN
100
AcDbBlockReference
  2
STDGX5
 10
357.999999284
 20
0.0
 30
0.0
  0
TEXT
  5
76
330
EF7C85532
100
AcDbEntity
  8
SUNPOU
100
AcDbText
 10
453.0586949361739
 20
43.7966872748706
 30
0.0
 40
1.5
  1
                          
100
AcDbText
  0
TEXT
  5
77
330
EF7C85532
100
AcDbEntity
  8
SUNPOU
100
AcDbText
 10
690.2793459710871
 20
21.8983436374353
 30
0.0
 40
0.75
  1
                          
100
AcDbText
  0
TEXT
  5
78
330
EF7C85532
100
AcDbEntity
  8
SUNPOU
100
AcDbText
 10
647.9834433840535
 20
43.7966872748706
 30
0.0
 40
1.5
  1
                          
100
AcDbText
  0
TEXT
  5
79
330
EF7C85532
100
AcDbEntity
  8
SUNPOU
100
AcDbText
 10
885.2040944189665
 20
21.8983436374353
 30
0.0
 40
0.75
  1
                          
100
AcDbText
  0
TEXT
  5
7A
330
EF7C85532
100
AcDbEntity
  8
SUNPOU
100
AcDbText
 10
848.6272560930835
 20
43.79668727487056
 30
0.0
 40
1.5
  1
                          
100
AcDbText
  0
TEXT
  5
7B
330
EF7C85532
100
AcDbEntity
  8
SUNPOU
100
AcDbText
 10
1085.847907127996
 20
21.89834363743526
 30
0.0
 40
0.75
  1
                          
100
AcDbText
  0
INSERT
  5
7C
330
EF7C85532
100
AcDbEntity
  8
HATCH
100
AcDbBlockReference
  2
*X6
 10
552.9247477318796
 20
0.0
 30
0.0
  0
TEXT
  5
7D
330
EF7C85532
100
AcDbEntity
  8
SUNPOU
100
AcDbText
 10
851.0101985208963
 20
43.7966872748706
 30
0.0
 40
1.5
  1
                          
100
AcDbText
  0
TEXT
  5
7E
330
EF7C85532
100
AcDbEntity
  8
SUNPOU
100
AcDbText
 10
1088.230849555809
 20
21.8983436374353
 30
0.0
 40
0.75
  1
                          
100
AcDbText
  0
TEXT
  5
7F
330
EF7C85532
100
AcDbEntity
  8
SUNPOU
100
AcDbText
 10
840.048660059358
 20
43.7966872748706
 30
0.0
 40
1.5
  1
                          
100
AcDbText
  0
TEXT
  5
80
330
EF7C85532
100
AcDbEntity
  8
SUNPOU
100
AcDbText
 10
1077.269311094271
 20
21.8983436374353
 30
0.0
 40
0.75
  1
                          
100
AcDbText
  0
INSERT
  5
81
330
EF7C85532
100
AcDbEntity
  8
JISSEN
100
AcDbBlockReference
  2
STDGX5
 10
357.999999284
 20
0.0
 30
0.0
  0
TEXT
  5
82
330
EF7C85532
100
AcDbEntity
  8
SUNPOU
100
AcDbText
 10
632.0586942201738
 20
43.7966872748706
 30
0.0
 40
1.5
  1
                          
100
AcDbText
  0
TEXT
  5
83
330
EF7C85532
100
AcDbEntity
  8
SUNPOU
100
AcDbText
 10
869.2793452550871
 20
21.8983436374353
 30
0.0
 40
0.75
  1
                          
100
AcDbText
  0
TEXT
  5
84
330
EF7C85532
100
AcDbEntity
  8
SUNPOU
100
AcDbText
 10
826.9834426680533
 20
43.7966872748706
 30
0.0
 40
1.5
  1
                          
100
AcDbText
  0
TEXT
  5
85
330
EF7C85532
100
AcDbEntity
  8
SUNPOU
100
AcDbText
 10
1064.204093702966
 20
21.8983436374353
 30
0.0
 40
0.75
  1
                          
100
AcDbText
  0
TEXT
  5
86
330
EF7C85532
100
AcDbEntity
  8
SUNPOU
100
AcDbText
 10
1027.627255377083
 20
43.79668727487056
 30
0.0
 40
1.5
  1
                          
100
AcDbText
  0
TEXT
  5
87
330
EF7C85532
100
AcDbEntity
  8
SUNPOU
100
AcDbText
 10
1264.847906411996
 20
21.89834363743526
 30
0.0
 40
0.75
  1
                          
100
AcDbText
  0
INSERT
  5
88
330
EF7C85532
100
AcDbEntity
  8
HATCH
100
AcDbBlockReference
  2
*X7
 10
731.9247470158797
 20
0.0
 30
0.0
  0
TEXT
  5
89
330
EF7C85532
100
AcDbEntity
  8
SUNPOU
100
AcDbText
 10
1030.010197804895
 20
43.7966872748706
 30
0.0
 40
1.5
  1
                          
100
AcDbText
  0
TEXT
  5
8A
330
EF7C85532
100
AcDbEntity
  8
SUNPOU
100
AcDbText
 10
1267.230848839808
 20
21.8983436374353
 30
0.0
 40
0.75
  1
                          
100
AcDbText
  0
TEXT
  5
8B
330
EF7C85532
100
AcDbEntity
  8
SUNPOU
100
AcDbText
 10
1019.048659343358
 20
43.7966872748706
 30
0.0
 40
1.5
  1
                          
100
AcDbText
  0
TEXT
  5
8C
330
EF7C85532
100
AcDbEntity
  8
SUNPOU
100
AcDbText
 10
1256.269310378271
 20
21.8983436374353
 30
0.0
 40
0.75
  1
                          
100
AcDbText
  0
INSERT
  5
8D
330
EF7C85532
100
AcDbEntity
  8
JISSEN
100
AcDbBlockReference
  2
STDGX5
 10
536.999998568
 20
0.0
 30
0.0
  0
INSERT
  5
8E
330
EF7C85532
100
AcDbEntity
  8
SUNPOU
100
AcDbBlockReference
  2
STDGX5
 10
739.0804232644236
 20
50.83533235670902
 30
0.0
 41
0.5
 42
0.5
 43
0.5
  0
INSERT
  5
8F
330
EF7C85532
100
AcDbEntity
  8
SUNPOU
100
AcDbBlockReference
  2
STDGX5
 10
726.2208210623692
 20
105.0763138619288
 30
0.0
 41
0.5
 42
0.5
 43
0.5
  0
INSERT
  5
90
330
EF7C85532
100
AcDbEntity
  8
HATCH
100
AcDbBlockReference
  2
STDGX5
 10
852.3985550581901
 20
151.7065097967401
 30
0.0
 41
0.5
 42
0.5
 43
0.5
  0
INSERT
  5
91
330
EF7C85532
100
AcDbEntity
  8
HATCH
100
AcDbBlockReference
  2
STDGX5
 10
866.6806796277283
 20
102.7017487639612
 30
0.0
 41
0.5
 42
0.5
 43
0.5
  0
INSERT
  5
92
330
EF7C85532
100
AcDbEntity
  8
TEXT
100
AcDbBlockReference
  2
STDGX5
 10
970.3434408521969
 20
102.8213468229236
 30
0.0
 41
0.5
 42
0.5
 43
0.5
  0
INSERT
  5
93
330
EF7C85532
100
AcDbEntity
  8
SUNPOU
100
AcDbBlockReference
  2
STDGX5
 10
996.1728907397867
 20
174.5475645486173
 30
0.0
 41
0.5
 42
0.5
 43
0.5
  0
INSERT
  5
94
330
EF7C85532
100
AcDbEntity
  8
TEXT
100
AcDbBlockReference
  2
STDGX5
 10
725.7513886810995
 20
124.5860190441302
 30
0.0
 41
0.5
 42
0.5
 43
0.5
  0
INSERT
  5
95
330
EF7C85532
100
AcDbEntity
  8
HATCH
100
AcDbBlockReference
  2
STDGX5
 10
777.1755722656421
 20
145.5222028932424
 30
0.0
 41
0.5
 42
0.5
 43
0.5
  0
INSERT
  5
96
330
EF7C85532
100
AcDbEntity
  8
SUNPOU
100
AcDbBlockReference
  2
STDGX5
 10
846.1963575359604
 20
112.6957974729892
 30
0.0
 41
0.5
 42
0.5
 43
0.5
  0
INSERT
  5
97
330
EF7C85532
100
AcDbEntity
  8
SUNPOU
100
AcDbBlockReference
  2
STDGX5
 10
916.6681156211122
 20
121.7330617103084
 30
0.0
 41
0.5
 42
0.5
 43
0.5
  0
INSERT
  5
98
330
EF7C85532
100
AcDbEntity
  8
TEXT
100
AcDbBlockReference
  2
STDGX5
 10
983.7969461426766
 20
84.61852224867081
 30
0.0
 41
0.5
 42
0.5
 43
0.5
  0
INSERT
  5
99
330
EF7C85532
100
AcDbEntity
  8
HATCH
100
AcDbBlockReference
  2
STDGX5
 10
974.2802715042101
 20
136.484938655923
 30
0.0
 41
0.5
 42
0.5
 43
0.5
  0
INSERT
  5
9A
330
EF7C85532
100
AcDbEntity
  8
SUNPOU
100
AcDbBlockReference
  2
STDGX5
 10
749.7834008663488
 20
95.14721172234004
 30
0.0
 41
0.5
 42
0.5
 43
0.5
  0
INSERT
  5
9B
330
EF7C85532
100
AcDbEntity
  8
SUNPOU
100
AcDbBlockReference
  2
STDGX5
 10
736.9237986642947
 20
149.3881932275598
 30
0.0
 41
0.5
 42
0.5
 43
0.5
  0
INSERT
  5
9C
330
EF7C85532
100
AcDbEntity
  8
HATCH
100
AcDbBlockReference
  2
STDGX5
 10
863.1015326601156
 20
196.0183891623711
 30
0.0
 41
0.5
 42
0.5
 43
0.5
  0
INSERT
  5
9D
330
EF7C85532
100
AcDbEntity
  8
HATCH
100
AcDbBlockReference
  2
STDGX5
 10
877.3836572296538
 20
147.0136281295922
 30
0.0
 41
0.5
 42
0.5
 43
0.5
  0
INSERT
  5
9E
330
EF7C85532
100
AcDbEntity
  8
TEXT
100
AcDbBlockReference
  2
STDGX5
 10
981.0464184541222
 20
147.1332261885546
 30
0.0
 41
0.5
 42
0.5
 43
0.5
  0
INSERT
  5
9F
330
EF7C85532
100
AcDbEntity
  8
SUNPOU
100
AcDbBlockReference
  2
STDGX5
 10
1006.875868341712
 20
218.8594439142483
 30
0.0
 41
0.5
 42
0.5
 43
0.5
  0
INSERT
  5
A0
330
EF7C85532
100
AcDbEntity
  8
TEXT
100
AcDbBlockReference
  2
STDGX5
 10
736.454366283025
 20
168.8978984097611
 30
0.0
 41
0.5
 42
0.5
 43
0.5
  0
INSERT
  5
A1
330
EF7C85532
100
AcDbEntity
  8
HATCH
100
AcDbBlockReference
  2
STDGX5
 10
787.8785498675677
 20
189.8340822588734
 30
0.0
 41
0.5
 42
0.5
 43
0.5
  0
INSERT
  5
A2
330
EF7C85532
100
AcDbEntity
  8
SUNPOU
100
AcDbBlockReference
  2
STDGX5
 10
856.899335137886
 20
157.0076768386202
 30
0.0
 41
0.5
 42
0.5
 43
0.5
  0
INSERT
  5
A3
330
EF7C85532
100
AcDbEntity
  8
SUNPOU
100
AcDbBlockReference
  2
STDGX5
 10
927.3710932230379
 20
166.0449410759395
 30
0.0
 41
0.5
 42
0.5
 43
0.5
  0
INSERT
  5
A4
330
EF7C85532
100
AcDbEntity
  8
TEXT
100
AcDbBlockReference
  2
STDGX5
 10
994.4999237446024
 20
128.9304016143017
 30
0.0
 41
0.5
 42
0.5
 43
0.5
  0
INSERT
  5
A5
330
EF7C85532
100
AcDbEntity
  8
HATCH
100
AcDbBlockReference
  2
STDGX5
 10
984.9832491061354
 20
180.7968180215541
 30
0.0
 41
0.5
 42
0.5
 43
0.5
  0
TEXT
  5
DE
330
EF7C85532
100
AcDbEntity
  8
SUNPOU
100
AcDbText
 10
274.0586949361738
 20
43.7966872748706
 30
0.0
 40
1.5
  1
                          
100
AcDbText
  0
TEXT
  5
145
330
EF7C85532
100
AcDbEntity
  8
SUNPOU
100
AcDbText
 10
511.2793459710869
 20
21.8983436374353
 30
0.0
 40
0.75
  1
                          
100
AcDbText
  0
TEXT
  5
265
330
EF7C85532
100
AcDbEntity
  8
SUNPOU
100
AcDbText
 10
474.702507645204
 20
43.79668727487056
 30
0.0
 40
1.5
  1
                          
100
AcDbText
  0
TEXT
  5
266
330
EF7C85532
100
AcDbEntity
  8
SUNPOU
100
AcDbText
 10
711.923158680117
 20
21.89834363743526
 30
0.0
 40
0.75
  1
                          
100
AcDbText
  0
INSERT
  5
2F7
330
EF7C85532
100
AcDbEntity
  8
HATCH
100
AcDbBlockReference
  2
*X4
 10
178.999999284
 20
0.0
 30
0.0
  0
TEXT
  5
31A
330
EF7C85532
100
AcDbEntity
  8
SUNPOU
100
AcDbText
 10
477.0854500730166
 20
43.7966872748706
 30
0.0
 40
1.5
  1
                          
100
AcDbText
  0
TEXT
  5
31C
330
EF7C85532
100
AcDbEntity
  8
SUNPOU
100
AcDbText
 10
714.3061011079296
 20
21.8983436374353
 30
0.0
 40
0.75
  1
                          
100
AcDbText
  0
TEXT
  5
3A6
330
EF7C85532
100
AcDbEntity
  8
TEXT
100
AcDbText
 10
100.9999992839998
 20
244.9999999999999
 30
0.0
 40
3.0
  1
 
  7
K
100
AcDbText
  0
TEXT
  5
3AB
330
EF7C85532
100
AcDbEntity
  8
SUNPOU
100
AcDbText
 10
466.1239116114783
 20
43.7966872748706
 30
0.0
 40
1.5
  1
                          
100
AcDbText
  0
TEXT
  5
3AC
330
EF7C85532
100
AcDbEntity
  8
SUNPOU
100
AcDbText
 10
703.3445626463913
 20
21.8983436374353
 30
0.0
 40
0.75
  1
                          
100
AcDbText
  0
INSERT
  5
3F6
330
EF7C85532
100
AcDbEntity
  8
TEXT
100
AcDbBlockReference
  2
STDGX5
 10
178.999999284
 20
0.0
 30
0.0
  0
TEXT
  5
3F7
330
EF7C85532
100
AcDbEntity
  8
SUNPOU
100
AcDbText
 10
453.0586949361739
 20
43.7966872748706
 30
0.0
 40
1.5
  1
                          
100
AcDbText
  0
TEXT
  5
3F8
330
EF7C85532
100
AcDbEntity
  8
SUNPOU
100
AcDbText
 10
690.2793459710871
 20
21.8983436374353
 30
0.0
 40
0.75
  1
                          
100
AcDbText
  0
TEXT
  5
3F9
330
EF7C85532
100
AcDbEntity
  8
SUNPOU
100
AcDbText
 10
647.9834433840535
 20
43.7966872748706
 30
0.0
 40
1.5
  1
                          
100
AcDbText
  0
TEXT
  5
3FA
330
EF7C85532
100
AcDbEntity
  8
SUNPOU
100
AcDbText
 10
885.2040944189665
 20
21.8983436374353
 30
0.0
 40
0.75
  1
                          
100
AcDbText
  0
TEXT
  5
3FB
330
EF7C85532
100
AcDbEntity
  8
SUNPOU
100
AcDbText
 10
848.6272560930835
 20
43.79668727487056
 30
0.0
 40
1.5
  1
                          
100
AcDbText
  0
TEXT
  5
3FC
330
EF7C85532
100
AcDbEntity
  8
SUNPOU
100
AcDbText
 10
1085.847907127996
 20
21.89834363743526
 30
0.0
 40
0.75
  1
                          
100
AcDbText
  0
INSERT
  5
3FD
330
EF7C85532
100
AcDbEntity
  8
HATCH
100
AcDbBlockReference
  2
*X5
 10
552.9247477318796
 20
0.0
 30
0.0
  0
TEXT
  5
3FE
330
EF7C85532
100
AcDbEntity
  8
SUNPOU
100
AcDbText
 10
851.0101985208963
 20
43.7966872748706
 30
0.0
 40
1.5
  1
                          
100
AcDbText
  0
TEXT
  5
3FF
330
EF7C85532
100
AcDbEntity
  8
SUNPOU
100
AcDbText
 10
1088.230849555809
 20
21.8983436374353
 30
0.0
 40
0.75
  1
                          
100
AcDbText
  0
TEXT
  5
400
330
EF7C85532
100
AcDbEntity
  8
SUNPOU
100
AcDbText
 10
840.048660059358
 20
43.7966872748706
 30
0.0
 40
1.5
  1
                          
100
AcDbText
  0
TEXT
  5
401
330
EF7C85532
100
AcDbEntity
  8
SUNPOU
100
AcDbText
 10
1077.269311094271
 20
21.8983436374353
 30
0.0
 40
0.75
  1
                          
100
AcDbText
  0
INSERT
  5
402
330
EF7C85532
100
AcDbEntity
  8
JISSEN
100
AcDbBlockReference
  2
STDGX5
 10
357.999999284
 20
0.0
 30
0.0
  0
TEXT
  5
409
330
EF7C85532
100
AcDbEntity
  8
SUNPOU
100
AcDbText
 10
453.0586949361739
 20
43.7966872748706
 30
0.0
 40
1.5
  1
                          
100
AcDbText
  0
TEXT
  5
40A
330
EF7C85532
100
AcDbEntity
  8
SUNPOU
100
AcDbText
 10
690.2793459710871
 20
21.8983436374353
 30
0.0
 40
0.75
  1
                          
100
AcDbText
  0
TEXT
  5
41B
330
EF7C85532
100
AcDbEntity
  8
SUNPOU
100
AcDbText
 10
647.9834433840535
 20
43.7966872748706
 30
0.0
 40
1.5
  1
                          
100
AcDbText
  0
TEXT
  5
41C
330
EF7C85532
100
AcDbEntity
  8
SUNPOU
100
AcDbText
 10
885.2040944189665
 20
21.8983436374353
 30
0.0
 40
0.75
  1
                          
100
AcDbText
  0
TEXT
  5
41D
330
EF7C85532
100
AcDbEntity
  8
SUNPOU
100
AcDbText
 10
848.6272560930835
 20
43.79668727487056
 30
0.0
 40
1.5
  1
                          
100
AcDbText
  0
TEXT
  5
41E
330
EF7C85532
100
AcDbEntity
  8
SUNPOU
100
AcDbText
 10
1085.847907127996
 20
21.89834363743526
 30
0.0
 40
0.75
  1
                          
100
AcDbText
  0
INSERT
  5
41F
330
EF7C85532
100
AcDbEntity
  8
HATCH
100
AcDbBlockReference
  2
*X6
 10
552.9247477318796
 20
0.0
 30
0.0
  0
TEXT
  5
420
330
EF7C85532
100
AcDbEntity
  8
SUNPOU
100
AcDbText
 10
851.0101985208963
 20
43.7966872748706
 30
0.0
 40
1.5
  1
                          
100
AcDbText
  0
TEXT
  5
421
330
EF7C85532
100
AcDbEntity
  8
SUNPOU
100
AcDbText
 10
1088.230849555809
 20
21.8983436374353
 30
0.0
 40
0.75
  1
                          
100
AcDbText
  0
TEXT
  5
422
330
EF7C85532
100
AcDbEntity
  8
SUNPOU
100
AcDbText
 10
840.048660059358
 20
43.7966872748706
 30
0.0
 40
1.5
  1
                          
100
AcDbText
  0
TEXT
  5
423
330
EF7C85532
100
AcDbEntity
  8
SUNPOU
100
AcDbText
 10
1077.269311094271
 20
21.8983436374353
 30
0.0
 40
0.75
  1
                          
100
AcDbText
  0
INSERT
  5
424
330
EF7C85532
100
AcDbEntity
  8
JISSEN
100
AcDbBlockReference
  2
STDGX5
 10
357.999999284
 20
0.0
 30
0.0
  0
TEXT
  5
425
330
EF7C85532
100
AcDbEntity
  8
SUNPOU
100
AcDbText
 10
632.0586942201738
 20
43.7966872748706
 30
0.0
 40
1.5
  1
                          
100
AcDbText
  0
TEXT
  5
426
330
EF7C85532
100
AcDbEntity
  8
SUNPOU
100
AcDbText
 10
869.2793452550871
 20
21.8983436374353
 30
0.0
 40
0.75
  1
                          
100
AcDbText
  0
TEXT
  5
427
330
EF7C85532
100
AcDbEntity
  8
SUNPOU
100
AcDbText
 10
826.9834426680533
 20
43.7966872748706
 30
0.0
 40
1.5
  1
                          
100
AcDbText
  0
TEXT
  5
428
330
EF7C85532
100
AcDbEntity
  8
SUNPOU
100
AcDbText
 10
1064.204093702966
 20
21.8983436374353
 30
0.0
 40
0.75
  1
                          
100
AcDbText
  0
TEXT
  5
429
330
EF7C85532
100
AcDbEntity
  8
SUNPOU
100
AcDbText
 10
1027.627255377083
 20
43.79668727487056
 30
0.0
 40
1.5
  1
                          
100
AcDbText
  0
TEXT
  5
42A
330
EF7C85532
100
AcDbEntity
  8
SUNPOU
100
AcDbText
 10
1264.847906411996
 20
21.89834363743526
 30
0.0
 40
0.75
  1
                          
100
AcDbText
  0
INSERT
  5
42B
330
EF7C85532
100
AcDbEntity
  8
HATCH
100
AcDbBlockReference
  2
*X7
 10
731.9247470158797
 20
0.0
 30
0.0
  0
TEXT
  5
42C
330
EF7C85532
100
AcDbEntity
  8
SUNPOU
100
AcDbText
 10
1030.010197804895
 20
43.7966872748706
 30
0.0
 40
1.5
  1
                          
100
AcDbText
  0
TEXT
  5
42D
330
EF7C85532
100
AcDbEntity
  8
SUNPOU
100
AcDbText
 10
1267.230848839808
 20
21.8983436374353
 30
0.0
 40
0.75
  1
                          
100
AcDbText
  0
TEXT
  5
42E
330
EF7C85532
100
AcDbEntity
  8
SUNPOU
100
AcDbText
 10
1019.048659343358
 20
43.7966872748706
 30
0.0
 40
1.5
  1
                          
100
AcDbText
  0
TEXT
  5
42F
330
EF7C85532
100
AcDbEntity
  8
SUNPOU
100
AcDbText
 10
1256.269310378271
 20
21.8983436374353
 30
0.0
 40
0.75
  1
                          
100
AcDbText
  0
INSERT
  5
430
330
EF7C85532
100
AcDbEntity
  8
JISSEN
100
AcDbBlockReference
  2
STDGX5
 10
536.999998568
 20
0.0
 30
0.0
  0
INSERT
  5
43B
330
EF7C85532
100
AcDbEntity
  8
SUNPOU
100
AcDbBlockReference
  2
STDGX5
 10
739.0804232644236
 20
50.83533235670902
 30
0.0
 41
0.5
 42
0.5
 43
0.5
  0
INSERT
  5
43C
330
EF7C85532
100
AcDbEntity
  8
SUNPOU
100
AcDbBlockReference
  2
STDGX5
 10
726.2208210623692
 20
105.0763138619288
 30
0.0
 41
0.5
 42
0.5
 43
0.5
  0
INSERT
  5
43D
330
EF7C85532
100
AcDbEntity
  8
HATCH
100
AcDbBlockReference
  2
STDGX5
 10
852.3985550581901
 20
151.7065097967401
 30
0.0
 41
0.5
 42
0.5
 43
0.5
  0
INSERT
  5
43E
330
EF7C85532
100
AcDbEntity
  8
HATCH
100
AcDbBlockReference
  2
STDGX5
 10
866.6806796277283
 20
102.7017487639612
 30
0.0
 41
0.5
 42
0.5
 43
0.5
  0
INSERT
  5
43F
330
EF7C85532
100
AcDbEntity
  8
TEXT
100
AcDbBlockReference
  2
STDGX5
 10
970.3434408521969
 20
102.8213468229236
 30
0.0
 41
0.5
 42
0.5
 43
0.5
  0
INSERT
  5
440
330
EF7C85532
100
AcDbEntity
  8
SUNPOU
100
AcDbBlockReference
  2
STDGX5
 10
996.1728907397867
 20
174.5475645486173
 30
0.0
 41
0.5
 42
0.5
 43
0.5
  0
INSERT
  5
441
330
EF7C85532
100
AcDbEntity
  8
TEXT
100
AcDbBlockReference
  2
STDGX5
 10
725.7513886810995
 20
124.5860190441302
 30
0.0
 41
0.5
 42
0.5
 43
0.5
  0
INSERT
  5
442
330
EF7C85532
100
AcDbEntity
  8
HATCH
100
AcDbBlockReference
  2
STDGX5
 10
777.1755722656421
 20
145.5222028932424
 30
0.0
 41
0.5
 42
0.5
 43
0.5
  0
INSERT
  5
443
330
EF7C85532
100
AcDbEntity
  8
SUNPOU
100
AcDbBlockReference
  2
STDGX5
 10
846.1963575359604
 20
112.6957974729892
 30
0.0
 41
0.5
 42
0.5
 43
0.5
  0
INSERT
  5
444
330
EF7C85532
100
AcDbEntity
  8
SUNPOU
100
AcDbBlockReference
  2
STDGX5
 10
916.6681156211122
 20
121.7330617103084
 30
0.0
 41
0.5
 42
0.5
 43
0.5
  0
INSERT
  5
445
330
EF7C85532
100
AcDbEntity
  8
TEXT
100
AcDbBlockReference
  2
STDGX5
 10
983.7969461426766
 20
84.61852224867081
 30
0.0
 41
0.5
 42
0.5
 43
0.5
  0
INSERT
  5
446
330
EF7C85532
100
AcDbEntity
  8
HATCH
100
AcDbBlockReference
  2
STDGX5
 10
974.2802715042101
 20
136.484938655923
 30
0.0
 41
0.5
 42
0.5
 43
0.5
  0
INSERT
  5
447
330
EF7C85532
100
AcDbEntity
  8
SUNPOU
100
AcDbBlockReference
  2
STDGX5
 10
749.7834008663488
 20
95.14721172234004
 30
0.0
 41
0.5
 42
0.5
 43
0.5
  0
INSERT
  5
448
330
EF7C85532
100
AcDbEntity
  8
SUNPOU
100
AcDbBlockReference
  2
STDGX5
 10
736.9237986642947
 20
149.3881932275598
 30
0.0
 41
0.5
 42
0.5
 43
0.5
  0
INSERT
  5
449
330
EF7C85532
100
AcDbEntity
  8
HATCH
100
AcDbBlockReference
  2
STDGX5
 10
863.1015326601156
 20
196.0183891623711
 30
0.0
 41
0.5
 42
0.5
 43
0.5
  0
INSERT
  5
44A
330
EF7C85532
100
AcDbEntity
  8
HATCH
100
AcDbBlockReference
  2
STDGX5
 10
877.3836572296538
 20
147.0136281295922
 30
0.0
 41
0.5
 42
0.5
 43
0.5
  0
INSERT
  5
44B
330
EF7C85532
100
AcDbEntity
  8
TEXT
100
AcDbBlockReference
  2
STDGX5
 10
981.0464184541222
 20
147.1332261885546
 30
0.0
 41
0.5
 42
0.5
 43
0.5
  0
INSERT
  5
44C
330
EF7C85532
100
AcDbEntity
  8
SUNPOU
100
AcDbBlockReference
  2
STDGX5
 10
1006.875868341712
 20
218.8594439142483
 30
0.0
 41
0.5
 42
0.5
 43
0.5
  0
INSERT
  5
44D
330
EF7C85532
100
AcDbEntity
  8
TEXT
100
AcDbBlockReference
  2
STDGX5
 10
736.454366283025
 20
168.8978984097611
 30
0.0
 41
0.5
 42
0.5
 43
0.5
  0
INSERT
  5
44E
330
EF7C85532
100
AcDbEntity
  8
HATCH
100
AcDbBlockReference
  2
STDGX5
 10
787.8785498675677
 20
189.8340822588734
 30
0.0
 41
0.5
 42
0.5
 43
0.5
  0
INSERT
  5
44F
330
EF7C85532
100
AcDbEntity
  8
SUNPOU
100
AcDbBlockReference
  2
STDGX5
 10
856.899335137886
 20
157.0076768386202
 30
0.0
 41
0.5
 42
0.5
 43
0.5
  0
INSERT
  5
450
330
EF7C85532
100
AcDbEntity
  8
SUNPOU
100
AcDbBlockReference
  2
STDGX5
 10
927.3710932230379
 20
166.0449410759395
 30
0.0
 41
0.5
 42
0.5
 43
0.5
  0
INSERT
  5
451
330
EF7C85532
100
AcDbEntity
  8
TEXT
100
AcDbBlockReference
  2
STDGX5
 10
994.4999237446024
 20
128.9304016143017
 30
0.0
 41
0.5
 42
0.5
 43
0.5
  0
INSERT
  5
452
330
EF7C85532
100
AcDbEntity
  8
HATCH
100
AcDbBlockReference
  2
STDGX5
 10
984.9832491061354
 20
180.7968180215541
 30
0.0
 41
0.5
 42
0.5
 43
0.5
  0
INSERT
  5
4CF3
330
EF7C85532
100
AcDbEntity
  8
JISSEN
100
AcDbBlockReference
  2
STDR12J
 10
0.0
 20
0.0
 30
0.0
  0
LINE
  5
EAFFB3C99
330
EF7C85532
100
AcDbEntity
  8
JISSEN
100
AcDbLine
 10
91.49999927599994
 20
276.9999999999999
 30
0.0
 11
180.9999992759999
 21
276.9999999999999
 31
0.0
  0
LINE
  5
EAFFB3C9A
330
EF7C85532
100
AcDbEntity
  8
JISSEN
100
AcDbLine
 10
91.49999927599994
 20
270.9999999999999
 30
0.0
 11
180.9999992759999
 21
270.9999999999999
 31
0.0
  0
TEXT
  5
EAFFB3C9B
330
EF7C85532
100
AcDbEntity
  8
TEXT
100
AcDbText
 10
107.8999992759999
 20
278.4999999999999
 30
0.0
 40
3.0
  1
名      称
  7
K
 72
     4
 11
116.4999992759999
 21
279.9999999999999
 31
0.0
100
AcDbText
  0
TEXT
  5
EAFFB3C9C
330
EF7C85532
100
AcDbEntity
  8
TEXT
100
AcDbText
 10
93.29999927599999
 20
278.4999999999999
 30
0.0
 40
3.0
  1
番号
  7
K
 72
     4
 11
96.49999927599999
 21
279.9999999999999
 31
0.0
100
AcDbText
  0
LINE
  5
EAFFB3C9D
330
EF7C85532
100
AcDbEntity
  8
JISSEN
100
AcDbLine
 10
91.49999927599994
 20
264.9999999999999
 30
0.0
 11
91.49999927599994
 21
282.9999999999998
 31
0.0
  0
LINE
  5
EAFFB3C9E
330
EF7C85532
100
AcDbEntity
  8
JISSEN
100
AcDbLine
 10
101.4999992759999
 20
282.9999999999998
 30
0.0
 11
101.4999992759999
 21
264.9999999999999
 31
0.0
  0
TEXT
  5
EAFFB3C9F
330
EF7C85532
100
AcDbEntity
  8
TEXT
100
AcDbText
 10
135.1999992759998
 20
278.4999999999999
 30
0.0
 40
3.0
  1
材    質
  7
K
 72
     4
 11
141.9999992759999
 21
279.9999999999999
 31
0.0
100
AcDbText
  0
LINE
  5
EAFFB3CA0
330
EF7C85532
100
AcDbEntity
  8
JISSEN
100
AcDbLine
 10
131.4999992759998
 20
282.9999999999998
 30
0.0
 11
131.4999992759998
 21
264.9999999999999
 31
0.0
  0
LINE
  5
EAFFB3CA1
330
EF7C85532
100
AcDbEntity
  8
JISSEN
100
AcDbLine
 10
152.4999992759999
 20
264.9999999999999
 30
0.0
 11
152.4999992759999
 21
282.9999999999998
 31
0.0
  0
TEXT
  5
EAFFB3CA2
330
EF7C85532
100
AcDbEntity
  8
TEXT
100
AcDbText
 10
165.6999992759998
 20
278.4999999999999
 30
0.0
 40
3.0
  1
備    考
  7
K
 72
     4
 11
172.4999992759999
 21
279.9999999999999
 31
0.0
100
AcDbText
  0
TEXT
  5
EAFFB3CA3
330
EF7C85532
100
AcDbEntity
  8
TEXT
100
AcDbText
 10
154.7999992759999
 20
278.4999999999999
 30
0.0
 40
3.0
  1
個数
  7
K
 72
     4
 11
157.9999992759999
 21
279.9999999999999
 31
0.0
100
AcDbText
  0
LINE
  5
EAFFB3CA4
330
EF7C85532
100
AcDbEntity
  8
JISSEN
100
AcDbLine
 10
163.4999992759999
 20
282.9999999999998
 30
0.0
 11
163.4999992759999
 21
264.9999999999999
 31
0.0
  0
LINE
  5
EAFFB3CA6
330
EF7C85532
100
AcDbEntity
  8
JISSEN
100
AcDbLine
 10
91.49999927599994
 20
264.9999999999999
 30
0.0
 11
180.9999992759999
 21
264.9999999999999
 31
0.0
  0
TEXT
  5
EAFFB3CAC
330
EF7C85532
100
AcDbEntity
  8
TEXT
100
AcDbText
 10
95.28571356171429
 20
272.4999999999999
 30
0.0
 40
3.0
  1
1
  7
K
 72
     4
 11
96.49999927599999
 21
273.9999999999999
 31
0.0
100
AcDbText
  0
TEXT
  5
EAFFB3CB0
330
EF7C85532
100
AcDbEntity
  8
TEXT
100
AcDbText
 10
95.38307168153433
 20
266.4999999999999
 30
0.0
 40
3.0
  1
2
  7
K
 72
     4
 11
96.81164311010576
 21
267.9999999999999
 31
0.0
100
AcDbText
  0
TEXT
  5
EAFFB3CC2
330
EF7C85532
100
AcDbEntity
  8
TEXT
100
AcDbText
 10
136.8249992759998
 20
274.2999999999999
 30
0.0
 40
3.0
  1
%%u      
  7
K
 72
     4
 11
141.9999992759999
 21
273.9999999999999
 31
0.0
100
AcDbText
  0
TEXT
  5
EAFFB3CC3
330
EF7C85532
100
AcDbEntity
  8
TEXT
100
AcDbText
 10
132.3314278474284
 20
266.4999999999999
 30
0.0
 40
3.0
  1
66 ナイロン
 41
0.9
  7
K
 72
     4
 11
141.9999992759999
 21
267.9999999999999
 31
0.0
100
AcDbText
  0
INSERT
  5
EAFFB3CF7
330
EF7C85532
100
AcDbEntity
  8
WAKU
100
AcDbBlockReference
  2
WAKU
 10
0.0
 20
0.0
 30
0.0
 41
181.0
 42
283.0
 43
181.0
  0
TEXT
  5
EF7C85BB1
330
EF7C85532
100
AcDbEntity
  8
TEXT
100
AcDbText
 10
156.6795477624092
 20
272.4999999999999
 30
0.0
 40
3.0
  1
1
  7
K
 72
     4
 11
157.8938334766949
 21
273.9999999999999
 31
0.0
100
AcDbText
  0
TEXT
  5
EF7C85BB2
330
EF7C85532
100
AcDbEntity
  8
TEXT
100
AcDbText
 10
156.6795477624092
 20
266.580835176341
 30
0.0
 40
3.0
  1
1
  7
K
 72
     4
 11
157.8938334766949
 21
268.0808351763409
 31
0.0
100
AcDbText
  0
TEXT
  5
EF7C85D66
330
EF7C85532
100
AcDbEntity
  8
SUNPOU
100
AcDbText
 10
123.7358286379077
 20
2.849423898685245
 30
0.0
 40
3.0
  1
尺度　1/1
  7
K
100
AcDbText
  0
LINE
  5
EF7C85D70
330
EF7C85532
100
AcDbEntity
  8
SUNPOU
100
AcDbLine
 10
109.222100591618
 20
136.8805892682762
 30
0.0
 11
125.2346842684527
 21
101.6402281279662
 31
0.0
  0
CIRCLE
  5
EF7C85D71
330
EF7C85532
100
AcDbEntity
  8
SUNPOU
100
AcDbCircle
 10
127.7167616553739
 20
96.17769283331288
 30
0.0
 40
6.0
  0
TEXT
  5
EF7C85D72
330
EF7C85532
100
AcDbEntity
  8
SUNPOU
100
AcDbText
 10
125.5739045125167
 20
93.92769283331288
 30
0.0
 40
4.5
  1
2
  7
K
 72
     4
 11
127.7167616553739
 21
96.17769283331288
 31
0.0
100
AcDbText
  0
INSERT
  5
EF7C85D73
330
EF7C85532
100
AcDbEntity
  8
SUNPOU
100
AcDbBlockReference
  2
ARROW
 10
109.2221005916184
 20
136.8805892682761
 30
0.0
 41
1.5
 42
1.5
 43
1.5
 50
114.4361898581507
  0
TEXT
  5
EF7C85FFA
330
EF7C85532
100
AcDbEntity
  8
TEXT
100
AcDbText
 10
103.5399992759999
 20
266.4999999999999
 30
0.0
 40
3.0
  1
シーリングプレート X
 41
0.7
  7
K
 72
     4
 11
116.4999992759999
 21
267.9999999999999
 31
0.0
100
AcDbText
  0
LINE
  5
EF7C86573
330
EF7C85532
100
AcDbEntity
  8
SUNPOU
100
AcDbLine
 10
90.0000834362862
 20
127.4000917523137
 30
0.0
 11
79.91336802130831
 21
101.7611434217162
 31
0.0
  0
CIRCLE
  5
EF7C86574
330
EF7C85532
100
AcDbEntity
  8
SUNPOU
100
AcDbCircle
 10
77.71676165537531
 20
96.17769283331288
 30
0.0
 40
6.0
  0
TEXT
  5
EF7C86575
330
EF7C85532
100
AcDbEntity
  8
SUNPOU
100
AcDbText
 10
75.89533308394674
 20
93.92769283331288
 30
0.0
 40
4.5
  1
1
  7
K
 72
     4
 11
77.71676165537531
 21
96.17769283331288
 31
0.0
100
AcDbText
  0
INSERT
  5
EF7C8658A
330
EF7C85532
100
AcDbEntity
  8
SUNPOU
100
AcDbBlockReference
  2
ARROW
 10
90.00008343628643
 20
127.4000917523139
 30
0.0
 41
1.499999999999989
 42
1.5
 43
1.5
 50
68.52464040596585
  0
LWPOLYLINE
  5
EF7C8670D
330
EF7C85532
100
AcDbEntity
  8
NITEN
100
AcDbPolyline
 90
        5
 70
     0
 43
0.0
 10
106.9999999999998
 20
228.0891430662788
 10
106.9999999999998
 20
248.9268607174245
 42
-0.5882352941176476
 10
89.99999999999998
 20
248.9268607174245
 42
0.5882352941176477
 10
72.99999999999998
 20
248.9268607174243
 10
72.99999999999998
 20
228.0891430662788
  0
LWPOLYLINE
  5
EF7C8670E
330
EF7C85532
100
AcDbEntity
  8
NITEN
100
AcDbPolyline
 90
       15
 70
     1
 43
0.0
 10
75.99999999999998
 20
187.5891430662788
 42
0.4142135623730927
 10
77.49999999999987
 20
186.0891430662788
 10
100.5940511709964
 20
186.0891430662788
 10
102.4999999999999
 20
186.0891430662788
 42
0.4142135623730925
 10
103.9999999999998
 20
187.5891430662788
 10
103.9999999999998
 20
198.6351590924966
 42
-0.4142135623730943
 10
108.9999999999997
 20
203.6351590924966
 42
0.4142135623730951
 10
110.9999999999998
 20
205.6351590924966
 10
110.9999999999997
 20
226.0891430662788
 42
0.4142135623730949
 10
108.9999999999998
 20
228.0891430662788
 10
70.99999999999998
 20
228.0891430662788
 42
0.4142135623730951
 10
68.99999999999998
 20
226.0891430662788
 10
68.99999999999998
 20
205.6351590924966
 42
0.4142135623730951
 10
70.99999999999998
 20
203.6351590924966
 42
-0.4142135623730961
 10
75.99999999999998
 20
198.6351590924966
  0
LINE
  5
EF7C8670F
330
EF7C85532
100
AcDbEntity
  8
JISSEN
100
AcDbLine
 10
81.00008343801688
 20
197.9785941605549
 30
0.0
 11
90.00008343801608
 21
197.9785941605549
 31
0.0
  0
LINE
  5
EF7C86710
330
EF7C85532
100
AcDbEntity
  8
JISSEN
100
AcDbLine
 10
79.73815907440587
 20
196.716669796944
 30
0.0
 11
90.00008343801608
 21
196.716669796944
 31
0.0
  0
LINE
  5
EF7C86711
330
EF7C85532
100
AcDbEntity
  8
JISSEN
100
AcDbLine
 10
90.00008343801608
 20
183.6709713468586
 30
0.0
 11
79.33046062431968
 21
183.6709713468586
 31
0.0
  0
LINE
  5
EF7C86712
330
EF7C85532
100
AcDbEntity
  8
JISSEN
100
AcDbLine
 10
77.65008343801603
 20
178.4785941605558
 30
0.0
 11
90.00008343801596
 21
178.4785941605558
 31
0.0
  0
LINE
  5
EF7C86713
330
EF7C85532
100
AcDbEntity
  8
JISSEN
100
AcDbLine
 10
76.14367697746502
 20
178.4785941605556
 30
0.0
 11
90.00008343801596
 21
178.4785941605558
 31
0.0
  0
LINE
  5
EF7C86714
330
EF7C85532
100
AcDbEntity
  8
JISSEN
100
AcDbLine
 10
76.14367697746502
 20
181.4785941605458
 30
0.0
 11
90.00008343801596
 21
181.4785941605506
 31
0.0
  0
LINE
  5
EF7C8671F
102
{ACAD_REACTORS
330
EF7C868F1
102
}
330
EF7C85532
100
AcDbEntity
  8
JISSEN
100
AcDbLine
 10
75.00008343801606
 20
144.0785941605559
 30
0.0
 11
11.82487420466258
 21
144.0785941605558
 31
0.0
  0
LINE
  5
EF7C86720
102
{ACAD_REACTORS
330
EF7C868F1
102
}
330
EF7C85532
100
AcDbEntity
  8
JISSEN
100
AcDbLine
 10
75.00008343801606
 20
139.0785941605558
 30
0.0
 11
15.93665731641738
 21
139.0785941605559
 31
0.0
  0
LWPOLYLINE
  5
EF7C86721
102
{ACAD_REACTORS
330
EF7C868F1
102
}
330
EF7C85532
100
AcDbEntity
  8
SAISEN
100
AcDbPolyline
 90
       11
 70
     0
 43
0.0
 10
11.82487420466259
 20
144.0785941605558
 10
12.00293510125252
 20
143.7856339354782
 10
12.49039256459558
 20
143.3280584764696
 10
13.06679834043065
 20
142.9485919981505
 10
13.68560144379397
 20
142.6038488272916
 10
14.30025088972191
 20
142.2504432906641
 10
14.86419569325073
 20
141.8449897150385
 10
15.3308848694168
 20
141.3441024271858
 10
15.65376743325639
 20
140.7043957538768
 10
15.81972474378439
 20
139.9017512591075
 10
15.93665731641736
 20
139.0785941605559
  0
LINE
  5
EF7C86735
102
{ACAD_REACTORS
330
EF7C868F1
102
}
330
EF7C85532
100
AcDbEntity
  8
JISSEN
100
AcDbLine
 10
72.500083800016
 20
144.0785941605558
 30
0.0
 11
72.500083800016
 21
139.0785941605559
 31
0.0
  0
LINE
  5
EF7C8673D
330
EF7C85532
100
AcDbEntity
  8
JISSEN
100
AcDbLine
 10
76.14367697746502
 20
181.4785941605556
 30
0.0
 11
76.14367697746502
 21
178.4785941605556
 31
0.0
  0
LINE
  5
EF7C8673E
330
EF7C85532
100
AcDbEntity
  8
JISSEN
100
AcDbLine
 10
83.07188020774049
 20
178.4785941605556
 30
0.0
 11
83.07188020774049
 21
181.4785941605531
 31
0.0
  0
LINE
  5
EF7C86740
330
EF7C85532
100
AcDbEntity
  8
SAISEN
100
AcDbLine
 10
80.49246062431974
 20
183.6709713468586
 30
0.0
 11
80.93764487904264
 21
197.9161556015808
 31
0.0
  0
LINE
  5
EF7C86741
330
EF7C85532
100
AcDbEntity
  8
JISSEN
100
AcDbLine
 10
79.73815907440587
 20
196.716669796944
 30
0.0
 11
79.29297481968283
 21
182.4714855422217
 31
0.0
  0
LINE
  5
EF7C86742
330
EF7C85532
100
AcDbEntity
  8
JISSEN
100
AcDbLine
 10
80.4924606243196
 20
183.6709713468586
 30
0.0
 11
78.30008343801603
 21
181.4785941605549
 31
0.0
  0
LINE
  5
EF7C86743
330
EF7C85532
100
AcDbEntity
  8
JISSEN
100
AcDbLine
 10
79.73815907440587
 20
196.716669796944
 30
0.0
 11
81.00008343801688
 21
197.9785941605549
 31
0.0
  0
LINE
  5
EF7C86747
330
EF7C85532
100
AcDbEntity
  8
JISSEN
100
AcDbLine
 10
101.7000834380159
 20
176.3785941605557
 30
0.0
 11
101.7000834380159
 21
156.0785941605558
 31
0.0
  0
LINE
  5
EF7C86750
330
EF7C85532
100
AcDbEntity
  8
JISSEN
100
AcDbLine
 10
105.0000834380159
 20
139.0785941605559
 30
0.0
 11
115.0000834380159
 21
139.0785941605559
 31
0.0
  0
LINE
  5
EF7C86751
330
EF7C85532
100
AcDbEntity
  8
JISSEN
100
AcDbLine
 10
114.4441177452204
 20
138.1825843759969
 30
0.0
 11
104.0000834380159
 21
135.5785941605558
 31
0.0
  0
LINE
  5
EF7C86791
330
EF7C85532
100
AcDbEntity
  8
JISSEN
100
AcDbLine
 10
105.0000834380159
 20
156.0785941605558
 30
0.0
 11
105.0000834380159
 21
139.0785941605559
 31
0.0
  0
ARC
  5
EF7C867A3
330
EF7C85532
100
AcDbEntity
  8
JISSEN
100
AcDbCircle
 10
114.0000834380159
 20
139.0785941605559
 30
0.0
 40
1.0
100
AcDbArc
 50
296.3615705606468
 51
0.0
  0
LINE
  5
EF7C867B3
330
EF7C85532
100
AcDbEntity
  8
JISSEN
100
AcDbLine
 10
90.00008343801596
 20
176.9785941605559
 30
0.0
 11
100.2500834380164
 21
176.9785941605558
 31
0.0
  0
LINE
  5
EF7C867B4
330
EF7C85532
100
AcDbEntity
  8
JISSEN
100
AcDbLine
 10
90.00008343801596
 20
176.3785941605557
 30
0.0
 11
101.7000834380159
 21
176.3785941605557
 31
0.0
  0
LINE
  5
EF7C867B5
330
EF7C85532
100
AcDbEntity
  8
JISSEN
100
AcDbLine
 10
100.2620078016261
 20
196.716669796944
 30
0.0
 11
90.00008343801596
 21
196.716669796944
 31
0.0
  0
LINE
  5
EF7C867B6
330
EF7C85532
100
AcDbEntity
  8
JISSEN
100
AcDbLine
 10
100.2620078016261
 20
196.716669796944
 30
0.0
 11
99.00008343801516
 21
197.9785941605549
 31
0.0
  0
LINE
  5
EF7C867B7
330
EF7C85532
100
AcDbEntity
  8
JISSEN
100
AcDbLine
 10
90.00008343801596
 20
183.6709713468586
 30
0.0
 11
100.6697062517122
 21
183.6709713468586
 31
0.0
  0
LINE
  5
EF7C867B8
330
EF7C85532
100
AcDbEntity
  8
JISSEN
100
AcDbLine
 10
90.00008343801596
 20
181.4785941605506
 30
0.0
 11
103.856489898567
 21
181.4785941605556
 31
0.0
  0
LINE
  5
EF7C867B9
330
EF7C85532
100
AcDbEntity
  8
JISSEN
100
AcDbLine
 10
103.856489898567
 20
178.4785941605556
 30
0.0
 11
90.00008343801596
 21
178.4785941605558
 31
0.0
  0
LINE
  5
EF7C867BA
330
EF7C85532
100
AcDbEntity
  8
JISSEN
100
AcDbLine
 10
96.92828666829157
 20
178.4785941605556
 30
0.0
 11
96.92828666829157
 21
181.4785941605531
 31
0.0
  0
LINE
  5
EF7C867BB
330
EF7C85532
100
AcDbEntity
  8
JISSEN
100
AcDbLine
 10
99.00008343801516
 20
197.9785941605549
 30
0.0
 11
90.00008343801596
 21
197.9785941605549
 31
0.0
  0
LINE
  5
EF7C867BC
330
EF7C85532
100
AcDbEntity
  8
JISSEN
100
AcDbLine
 10
103.856489898567
 20
181.4785941605556
 30
0.0
 11
103.856489898567
 21
178.4785941605556
 31
0.0
  0
ARC
  5
EF7C867BF
330
EF7C85532
100
AcDbEntity
  8
JISSEN
100
AcDbCircle
 10
101.1000834380159
 20
177.4785941605558
 30
0.0
 40
1.0
100
AcDbArc
 50
90.0
 51
180.0
  0
LINE
  5
EF7C867C0
330
EF7C85532
100
AcDbEntity
  8
JISSEN
100
AcDbLine
 10
100.1000834380164
 20
176.9785941605558
 30
0.0
 11
100.1000834380159
 21
177.4785941605558
 31
0.0
  0
LINE
  5
EF7C867C1
330
EF7C85532
100
AcDbEntity
  8
JISSEN
100
AcDbLine
 10
100.7500834380164
 20
176.4785941605558
 30
0.0
 11
100.7500834380164
 21
176.3785941605557
 31
0.0
  0
LINE
  5
EF7C867C2
330
EF7C85532
100
AcDbEntity
  8
SAISEN
100
AcDbLine
 10
100.2500834380164
 20
176.9785941605558
 30
0.0
 11
100.2500834380164
 21
176.3785941605557
 31
0.0
  0
LINE
  5
EF7C867C3
330
EF7C85532
100
AcDbEntity
  8
JISSEN
100
AcDbLine
 10
100.2500834380164
 20
176.9785941605558
 30
0.0
 11
100.7500834380164
 21
176.4785941605558
 31
0.0
  0
LINE
  5
EF7C867C4
330
EF7C85532
100
AcDbEntity
  8
SAISEN
100
AcDbLine
 10
99.5077062517123
 20
183.6709713468586
 30
0.0
 11
99.06252199698929
 21
197.9161556015808
 31
0.0
  0
LINE
  5
EF7C867C5
330
EF7C85532
100
AcDbEntity
  8
JISSEN
100
AcDbLine
 10
100.2620078016261
 20
196.716669796944
 30
0.0
 11
100.707192056349
 21
182.4714855422217
 31
0.0
  0
LINE
  5
EF7C867C6
330
EF7C85532
100
AcDbEntity
  8
JISSEN
100
AcDbLine
 10
99.5077062517123
 20
183.6709713468586
 30
0.0
 11
101.7000834380159
 21
181.4785941605549
 31
0.0
  0
LWPOLYLINE
  5
EF7C867CB
330
EF7C85532
100
AcDbEntity
  8
NITEN
100
AcDbPolyline
 90
        2
 70
     0
 43
0.0
 10
106.9999999999998
 20
248.9268607174245
 42
0.5882352941176295
 10
89.99999999999987
 20
248.9268607174249
 42
0.5882352941176295
  0
LINE
  5
EF7C86814
330
EF7C85532
100
AcDbEntity
  8
JISSEN
100
AcDbLine
 10
75.00008343801606
 20
156.0785941605558
 30
0.0
 11
105.0000834380159
 21
156.0785941605558
 31
0.0
  0
LINE
  5
EF7C86816
330
EF7C85532
100
AcDbEntity
  8
JISSEN
100
AcDbLine
 10
65.55604913081163
 20
138.1825843759969
 30
0.0
 11
76.00008343801608
 21
135.5785941605558
 31
0.0
  0
LINE
  5
EF7C8682F
330
EF7C85532
100
AcDbEntity
  8
JISSEN
100
AcDbLine
 10
76.00008343801608
 20
135.5785941605558
 30
0.0
 11
104.0000834380159
 21
135.5785941605558
 31
0.0
  0
LINE
  5
EF7C8683C
330
EF7C85532
100
AcDbEntity
  8
JISSEN
100
AcDbLine
 10
75.00008343801606
 20
156.0785941605558
 30
0.0
 11
75.00008343801606
 21
139.0785941605559
 31
0.0
  0
LINE
  5
EF7C8683E
330
EF7C85532
100
AcDbEntity
  8
JISSEN
100
AcDbLine
 10
75.00008343801606
 20
139.0785941605559
 30
0.0
 11
65.00008343801607
 21
139.0785941605559
 31
0.0
  0
ARC
  5
EF7C86840
330
EF7C85532
100
AcDbEntity
  8
JISSEN
100
AcDbCircle
 10
66.00008343801608
 20
139.0785941605559
 30
0.0
 40
1.0
100
AcDbArc
 50
180.0
 51
243.6384294393531
  0
LINE
  5
EF7C86841
330
EF7C85532
100
AcDbEntity
  8
JISSEN
100
AcDbLine
 10
78.30008343801615
 20
176.3785941605557
 30
0.0
 11
78.30008343801615
 21
156.0785941605558
 31
0.0
  0
LINE
  5
EF7C86842
330
EF7C85532
100
AcDbEntity
  8
JISSEN
100
AcDbLine
 10
90.00008343801608
 20
176.3785941605557
 30
0.0
 11
78.30008343801615
 21
176.3785941605557
 31
0.0
  0
LINE
  5
EF7C86843
330
EF7C85532
100
AcDbEntity
  8
JISSEN
100
AcDbLine
 10
90.00008343801608
 20
176.9785941605559
 30
0.0
 11
79.75008343801562
 21
176.9785941605558
 31
0.0
  0
LINE
  5
EF7C86844
330
EF7C85532
100
AcDbEntity
  8
JISSEN
100
AcDbLine
 10
79.75008343801562
 20
176.9785941605558
 30
0.0
 11
79.25008343801562
 21
176.4785941605558
 31
0.0
  0
LINE
  5
EF7C86845
330
EF7C85532
100
AcDbEntity
  8
SAISEN
100
AcDbLine
 10
79.75008343801562
 20
176.9785941605558
 30
0.0
 11
79.75008343801562
 21
176.3785941605557
 31
0.0
  0
LINE
  5
EF7C86846
330
EF7C85532
100
AcDbEntity
  8
JISSEN
100
AcDbLine
 10
79.90008343801569
 20
176.9785941605558
 30
0.0
 11
79.90008343801604
 21
177.4785941605558
 31
0.0
  0
LINE
  5
EF7C86847
330
EF7C85532
100
AcDbEntity
  8
JISSEN
100
AcDbLine
 10
79.25008343801562
 20
176.4785941605558
 30
0.0
 11
79.25008343801562
 21
176.3785941605557
 31
0.0
  0
ARC
  5
EF7C86848
330
EF7C85532
100
AcDbEntity
  8
JISSEN
100
AcDbCircle
 10
78.90008343801603
 20
177.4785941605558
 30
0.0
 40
1.0
100
AcDbArc
 50
0.000000000000007
 51
90.0
  0
LINE
  5
EF7C86860
102
{ACAD_REACTORS
330
EF7C868F1
102
}
330
EF7C85532
100
AcDbEntity
  8
JISSEN
100
AcDbLine
 10
105.0000834380161
 20
139.0785941605558
 30
0.0
 11
164.0635095596147
 21
139.0785941605559
 31
0.0
  0
LINE
  5
EF7C86861
102
{ACAD_REACTORS
330
EF7C868F1
102
}
330
EF7C85532
100
AcDbEntity
  8
JISSEN
100
AcDbLine
 10
105.0000834380159
 20
144.0785941605559
 30
0.0
 11
168.1752926713695
 21
144.0785941605558
 31
0.0
  0
LWPOLYLINE
  5
EF7C86862
102
{ACAD_REACTORS
330
EF7C868F1
102
}
330
EF7C85532
100
AcDbEntity
  8
SAISEN
100
AcDbPolyline
 90
       11
 70
     0
 43
0.0
 10
168.1752926713695
 20
144.0785941605558
 10
167.9972317747797
 20
143.7856339354782
 10
167.5097743114365
 20
143.3280584764696
 10
166.9333685356015
 20
142.9485919981505
 10
166.3145654322381
 20
142.6038488272916
 10
165.6999159863103
 20
142.2504432906641
 10
165.1359711827814
 20
141.8449897150385
 10
164.6692820066153
 20
141.3441024271858
 10
164.3463994427758
 20
140.7043957538768
 10
164.1804421322476
 20
139.9017512591075
 10
164.0635095596147
 20
139.0785941605559
  0
TEXT
  5
EF7C86889
330
EF7C85532
100
AcDbEntity
  8
SUNPOU
100
AcDbText
 10
123.7358286379077
 20
7.849423898685245
 30
0.0
 40
3.0
  1
X  シーリングプレート取付状態
  7
K
100
AcDbText
  0
LINE
  5
EF7C868CB
330
EF7C85532
100
AcDbEntity
  8
JISSEN
100
AcDbLine
 10
105.0000834380159
 20
139.0785941605558
 30
0.0
 11
75.00008343801606
 21
139.0785941605558
 31
0.0
  0
LINE
  5
EF7C868CC
102
{ACAD_REACTORS
330
EF7C868F1
102
}
330
EF7C85532
100
AcDbEntity
  8
JISSEN
100
AcDbLine
 10
107.500083076016
 20
144.0785941605558
 30
0.0
 11
107.500083076016
 21
139.0785941605559
 31
0.0
  0
HATCH
  5
EF7C868F1
330
EF7C85532
100
AcDbEntity
  8
HATCH
100
AcDbHatch
 10
0.0
 20
0.0
 30
0.0
210
0.0
220
0.0
230
1.0
  2
ANSI31
 70
     0
 71
     1
 91
        2
 92
        7
 72
     0
 73
     1
 93
       13
 10
72.500083800016
 20
139.0785941605558
 10
72.500083800016
 20
144.0785941605559
 10
11.82487420466258
 20
144.0785941605558
 10
12.00293510125251
 20
143.7856339354782
 10
12.49039256459564
 20
143.3280584764695
 10
13.06679834043042
 20
142.9485919981508
 10
13.68560144379237
 20
142.6038488272918
 10
14.30025088972202
 20
142.250443290664
 10
14.86419569325065
 20
141.8449897150385
 10
15.33088486941679
 20
141.3441024271858
 10
15.65376743325638
 20
140.7043957538768
 10
15.81972474378438
 20
139.9017512591075
 10
15.93665731641736
 20
139.0785941605558
 97
        4
330
EF7C8671F
330
EF7C86721
330
EF7C86720
330
EF7C86735
 92
        7
 72
     0
 73
     1
 93
       13
 10
164.0635095596147
 20
139.0785941605559
 10
164.1804421322476
 20
139.9017512591072
 10
164.3463994427756
 20
140.7043957538768
 10
164.6692820066153
 20
141.3441024271856
 10
165.1359711827814
 20
141.8449897150385
 10
165.6999159863103
 20
142.2504432906641
 10
166.3145654322386
 20
142.6038488272918
 10
166.9333685356015
 20
142.9485919981505
 10
167.5097743114365
 20
143.3280584764696
 10
167.9972317747795
 20
143.7856339354781
 10
168.1752926713695
 20
144.0785941605559
 10
107.500083076016
 20
144.0785941605558
 10
107.500083076016
 20
139.0785941605558
 97
        4
330
EF7C86862
330
EF7C86861
330
EF7C868CC
330
EF7C86860
 75
     0
 76
     1
 52
90.0
 41
15.0
 77
     0
 78
     1
 53
135.0
 43
0.0
 44
20.0
 45
-1.325825214724775
 46
-1.325825214724775
 79
     0
 47
0.2009669510095255
 98
        2
 10
65.22012149873785
 20
140.8846684557341
 10
125.7603804064025
 20
140.683701885151
  0
LINE
  5
EF7C86B44
330
EF7C85532
100
AcDbEntity
  8
JISSEN
100
AcDbLine
 10
105.0000834380159
 20
79.07859416055583
 30
0.0
 11
75.00008343801606
 21
79.07859416055583
 31
0.0
  0
LINE
  5
EF7C86B45
330
EF7C85532
100
AcDbEntity
  8
JISSEN
100
AcDbLine
 10
76.00008343801608
 20
75.57859416055588
 30
0.0
 11
104.0000834380159
 21
75.57859416055588
 31
0.0
  0
LINE
  5
EF7C86B4F
330
EF7C85532
100
AcDbEntity
  8
JISSEN
100
AcDbLine
 10
75.00008343801606
 20
79.07859416055583
 30
0.0
 11
15.93665731641738
 21
79.07859416055591
 31
0.0
  0
LINE
  5
EF7C86B54
330
EF7C85532
100
AcDbEntity
  8
JISSEN
100
AcDbLine
 10
75.00008343801606
 20
79.07859416055591
 30
0.0
 11
65.00008343801607
 21
79.07859416055591
 31
0.0
  0
LINE
  5
EF7C86B55
330
EF7C85532
100
AcDbEntity
  8
JISSEN
100
AcDbLine
 10
65.55604913081163
 20
78.18258437599689
 30
0.0
 11
76.00008343801608
 21
75.57859416055588
 31
0.0
  0
ARC
  5
EF7C86B56
330
EF7C85532
100
AcDbEntity
  8
JISSEN
100
AcDbCircle
 10
66.00008343801608
 20
79.07859416055591
 30
0.0
 40
1.0
100
AcDbArc
 50
180.0
 51
243.6384294393531
  0
LINE
  5
EF7C86B6F
330
EF7C85532
100
AcDbEntity
  8
JISSEN
100
AcDbLine
 10
105.0000834380161
 20
79.07859416055583
 30
0.0
 11
164.0635095596147
 21
79.07859416055591
 31
0.0
  0
LINE
  5
EF7C86B70
330
EF7C85532
100
AcDbEntity
  8
JISSEN
100
AcDbLine
 10
114.4441177452204
 20
78.18258437599689
 30
0.0
 11
104.0000834380159
 21
75.57859416055588
 31
0.0
  0
LINE
  5
EF7C86B81
330
EF7C85532
100
AcDbEntity
  8
JISSEN
100
AcDbLine
 10
105.0000834380159
 20
79.07859416055591
 30
0.0
 11
115.0000834380159
 21
79.07859416055591
 31
0.0
  0
ARC
  5
EF7C86B83
330
EF7C85532
100
AcDbEntity
  8
JISSEN
100
AcDbCircle
 10
114.0000834380159
 20
79.07859416055591
 30
0.0
 40
1.0
100
AcDbArc
 50
296.3615705606468
 51
0.0
  0
INSERT
  5
EF7C86C50
330
EF7C85532
100
AcDbEntity
  8
WAKU
100
AcDbBlockReference
  2
WAKU
 10
180.9999992759999
 20
0.0
 30
0.0
 41
181.0
 42
283.0
 43
181.0
  0
LINE
  5
EF7C86C54
330
EF7C85532
100
AcDbEntity
  8
JISSEN
100
AcDbLine
 10
259.3000827140162
 20
176.3785941605557
 30
0.0
 11
259.3000827140162
 21
156.0785941605558
 31
0.0
  0
LINE
  5
EF7C86C55
330
EF7C85532
100
AcDbEntity
  8
JISSEN
100
AcDbLine
 10
282.7000827140159
 20
176.3785941605557
 30
0.0
 11
282.7000827140159
 21
156.0785941605558
 31
0.0
  0
LINE
  5
EF7C86C56
330
EF7C85532
100
AcDbEntity
  8
JISSEN
100
AcDbLine
 10
246.5560484068116
 20
78.18258437599689
 30
0.0
 11
257.000082714016
 21
75.57859416055588
 31
0.0
  0
LINE
  5
EF7C86C57
330
EF7C85532
100
AcDbEntity
  8
JISSEN
100
AcDbLine
 10
256.000082714016
 20
79.07859416055591
 30
0.0
 11
246.0000827140159
 21
79.07859416055591
 31
0.0
  0
LINE
  5
EF7C86C58
330
EF7C85532
100
AcDbEntity
  8
JISSEN
100
AcDbLine
 10
256.000082714016
 20
79.07859416055583
 30
0.0
 11
196.9366565924174
 21
79.07859416055591
 31
0.0
  0
HATCH
  5
EF7C86C59
330
EF7C85532
100
AcDbEntity
  8
HATCH
100
AcDbHatch
 10
0.0
 20
0.0
 30
0.0
210
0.0
220
0.0
230
1.0
  2
ANSI31
 70
     0
 71
     1
 91
        2
 92
        7
 72
     0
 73
     1
 93
       13
 10
253.500083076016
 20
139.0785941605558
 10
253.5000830760159
 20
144.0785941605559
 10
192.8248734806626
 20
144.0785941605557
 10
193.0029343772525
 20
143.7856339354782
 10
193.4903918405956
 20
143.3280584764696
 10
194.0667976164304
 20
142.9485919981503
 10
194.685600719796
 20
142.6038488272912
 10
195.3002501657217
 20
142.2504432906639
 10
195.8641949692507
 20
141.8449897150385
 10
196.3308841454168
 20
141.3441024271857
 10
196.6537667092564
 20
140.7043957538767
 10
196.8197240197844
 20
139.9017512591074
 10
196.9366565924172
 20
139.0785941605559
 97
        4
330
EF7C86C5D
330
EF7C86C5F
330
EF7C86C5C
330
EF7C86CA7
 92
        7
 72
     0
 73
     1
 93
       13
 10
345.0635088356148
 20
139.0785941605559
 10
345.1804414082476
 20
139.9017512591061
 10
345.3463987187758
 20
140.7043957538767
 10
345.6692812826156
 20
141.3441024271859
 10
346.1359704587815
 20
141.8449897150386
 10
346.69991526231
 20
142.2504432906638
 10
347.3145647082377
 20
142.6038488272917
 10
347.9333678116014
 20
142.9485919981503
 10
348.5097735874365
 20
143.3280584764696
 10
348.9972310507796
 20
143.7856339354782
 10
349.1752919473695
 20
144.0785941605558
 10
288.5000823520159
 20
144.0785941605559
 10
288.5000823520159
 20
139.0785941605558
 97
        4
330
EF7C86CD5
330
EF7C86C95
330
EF7C86CC8
330
EF7C86C96
 75
     0
 76
     1
 52
90.0
 41
15.0
 77
     0
 78
     1
 53
135.0
 43
180.9999992759999
 44
20.0
 45
-1.325825214724775
 46
-1.325825214724775
 79
     0
 47
0.2009669510095255
 98
        2
 10
246.2201207747378
 20
140.8846684557341
 10
306.7603796824026
 20
140.683701885151
  0
LINE
  5
EF7C86C5A
330
EF7C85532
100
AcDbEntity
  8
JISSEN
100
AcDbLine
 10
256.000082714016
 20
139.0785941605559
 30
0.0
 11
246.0000827140159
 21
139.0785941605559
 31
0.0
  0
LINE
  5
EF7C86C5B
330
EF7C85532
100
AcDbEntity
  8
JISSEN
100
AcDbLine
 10
246.5560484068116
 20
138.1825843759969
 30
0.0
 11
257.000082714016
 21
135.5785941605558
 31
0.0
  0
LINE
  5
EF7C86C5C
102
{ACAD_REACTORS
330
EF7C86C59
102
}
330
EF7C85532
100
AcDbEntity
  8
JISSEN
100
AcDbLine
 10
256.000082714016
 20
139.0785941605558
 30
0.0
 11
196.9366565924173
 21
139.0785941605559
 31
0.0
  0
LINE
  5
EF7C86C5D
102
{ACAD_REACTORS
330
EF7C86C59
102
}
330
EF7C85532
100
AcDbEntity
  8
JISSEN
100
AcDbLine
 10
256.000082714016
 20
144.0785941605559
 30
0.0
 11
192.8248734806625
 21
144.0785941605558
 31
0.0
  0
ARC
  5
EF7C86C5E
330
EF7C85532
100
AcDbEntity
  8
JISSEN
100
AcDbCircle
 10
247.0000827140161
 20
79.07859416055591
 30
0.0
 40
1.0
100
AcDbArc
 50
180.0
 51
243.6384294393531
  0
LWPOLYLINE
  5
EF7C86C5F
102
{ACAD_REACTORS
330
EF7C86C59
102
}
330
EF7C85532
100
AcDbEntity
  8
SAISEN
100
AcDbPolyline
 90
       11
 70
     0
 43
0.0
 10
192.8248734806625
 20
144.0785941605558
 10
193.0029343772525
 20
143.7856339354782
 10
193.4903918405955
 20
143.3280584764696
 10
194.0667976164306
 20
142.9485919981505
 10
194.685600719794
 20
142.6038488272916
 10
195.3002501657218
 20
142.2504432906641
 10
195.8641949692506
 20
141.8449897150385
 10
196.3308841454168
 20
141.3441024271858
 10
196.6537667092563
 20
140.7043957538768
 10
196.8197240197843
 20
139.9017512591075
 10
196.9366565924173
 20
139.0785941605559
  0
ARC
  5
EF7C86C60
330
EF7C85532
100
AcDbEntity
  8
JISSEN
100
AcDbCircle
 10
247.0000827140161
 20
139.0785941605559
 30
0.0
 40
1.0
100
AcDbArc
 50
180.0
 51
243.6384294393531
  0
LINE
  5
EF7C86C61
330
EF7C85532
100
AcDbEntity
  8
JISSEN
100
AcDbLine
 10
286.0000827140161
 20
79.07859416055583
 30
0.0
 11
345.0635088356148
 21
79.07859416055591
 31
0.0
  0
TEXT
  5
EF7C86C62
330
EF7C85532
100
AcDbEntity
  8
SUNPOU
100
AcDbText
 10
304.7358279139078
 20
7.849423898685245
 30
0.0
 40
3.0
  1
X  シーリングプレート作動状態
  7
K
100
AcDbText
  0
TEXT
  5
EF7C86C63
330
EF7C85532
100
AcDbEntity
  8
SUNPOU
100
AcDbText
 10
304.7358279139078
 20
2.849423898685245
 30
0.0
 40
3.0
  1
尺度　1/1
  7
K
100
AcDbText
  0
LINE
  5
EF7C86C6B
330
EF7C85532
100
AcDbEntity
  8
JISSEN
100
AcDbLine
 10
257.000082714016
 20
75.57859416055588
 30
0.0
 11
285.000082714016
 21
75.57859416055588
 31
0.0
  0
LINE
  5
EF7C86C6C
330
EF7C85532
100
AcDbEntity
  8
JISSEN
100
AcDbLine
 10
286.000082714016
 20
79.07859416055583
 30
0.0
 11
256.000082714016
 21
79.07859416055583
 31
0.0
  0
LINE
  5
EF7C86C92
330
EF7C85532
100
AcDbEntity
  8
JISSEN
100
AcDbLine
 10
286.000082714016
 20
79.07859416055591
 30
0.0
 11
296.0000827140158
 21
79.07859416055591
 31
0.0
  0
LINE
  5
EF7C86C93
330
EF7C85532
100
AcDbEntity
  8
JISSEN
100
AcDbLine
 10
295.4441170212203
 20
78.18258437599689
 30
0.0
 11
285.000082714016
 21
75.57859416055588
 31
0.0
  0
ARC
  5
EF7C86C94
330
EF7C85532
100
AcDbEntity
  8
JISSEN
100
AcDbCircle
 10
295.000082714016
 20
79.07859416055591
 30
0.0
 40
1.0
100
AcDbArc
 50
296.3615705606468
 51
0.0
  0
LINE
  5
EF7C86C95
102
{ACAD_REACTORS
330
EF7C86C59
102
}
330
EF7C85532
100
AcDbEntity
  8
JISSEN
100
AcDbLine
 10
286.0000827140161
 20
144.0785941605559
 30
0.0
 11
349.1752919473696
 21
144.0785941605558
 31
0.0
  0
LINE
  5
EF7C86C96
102
{ACAD_REACTORS
330
EF7C86C59
102
}
330
EF7C85532
100
AcDbEntity
  8
JISSEN
100
AcDbLine
 10
286.0000827140161
 20
139.0785941605558
 30
0.0
 11
345.0635088356148
 21
139.0785941605559
 31
0.0
  0
LINE
  5
EF7C86C9C
330
EF7C85532
100
AcDbEntity
  8
JISSEN
100
AcDbLine
 10
286.000082714016
 20
139.0785941605558
 30
0.0
 11
256.000082714016
 21
139.0785941605558
 31
0.0
  0
LINE
  5
EF7C86C9D
330
EF7C85532
100
AcDbEntity
  8
JISSEN
100
AcDbLine
 10
257.000082714016
 20
135.5785941605558
 30
0.0
 11
285.000082714016
 21
135.5785941605558
 31
0.0
  0
LINE
  5
EF7C86C9E
330
EF7C85532
100
AcDbEntity
  8
JISSEN
100
AcDbLine
 10
256.000082714016
 20
156.0785941605558
 30
0.0
 11
286.000082714016
 21
156.0785941605558
 31
0.0
  0
LINE
  5
EF7C86CA6
330
EF7C85532
100
AcDbEntity
  8
JISSEN
100
AcDbLine
 10
256.000082714016
 20
156.0785941605558
 30
0.0
 11
256.000082714016
 21
139.0785941605559
 31
0.0
  0
LINE
  5
EF7C86CA7
102
{ACAD_REACTORS
330
EF7C86C59
102
}
330
EF7C85532
100
AcDbEntity
  8
JISSEN
100
AcDbLine
 10
253.500083076016
 20
144.0785941605558
 30
0.0
 11
253.500083076016
 21
139.0785941605559
 31
0.0
  0
LINE
  5
EF7C86CC8
102
{ACAD_REACTORS
330
EF7C86C59
102
}
330
EF7C85532
100
AcDbEntity
  8
JISSEN
100
AcDbLine
 10
288.5000823520159
 20
144.0785941605558
 30
0.0
 11
288.5000823520159
 21
139.0785941605559
 31
0.0
  0
LINE
  5
EF7C86CC9
330
EF7C85532
100
AcDbEntity
  8
JISSEN
100
AcDbLine
 10
286.000082714016
 20
156.0785941605558
 30
0.0
 11
286.000082714016
 21
139.0785941605559
 31
0.0
  0
LINE
  5
EF7C86CCA
330
EF7C85532
100
AcDbEntity
  8
JISSEN
100
AcDbLine
 10
295.4441170212203
 20
138.1825843759969
 30
0.0
 11
285.000082714016
 21
135.5785941605558
 31
0.0
  0
LINE
  5
EF7C86CCB
330
EF7C85532
100
AcDbEntity
  8
JISSEN
100
AcDbLine
 10
286.000082714016
 20
139.0785941605559
 30
0.0
 11
296.0000827140158
 21
139.0785941605559
 31
0.0
  0
ARC
  5
EF7C86CD3
330
EF7C85532
100
AcDbEntity
  8
JISSEN
100
AcDbCircle
 10
295.000082714016
 20
139.0785941605559
 30
0.0
 40
1.0
100
AcDbArc
 50
296.3615705606468
 51
0.0
  0
LWPOLYLINE
  5
EF7C86CD5
102
{ACAD_REACTORS
330
EF7C86C59
102
}
330
EF7C85532
100
AcDbEntity
  8
SAISEN
100
AcDbPolyline
 90
       11
 70
     0
 43
0.0
 10
349.1752919473696
 20
144.0785941605558
 10
348.9972310507797
 20
143.7856339354782
 10
348.5097735874366
 20
143.3280584764696
 10
347.9333678116014
 20
142.9485919981505
 10
347.3145647082383
 20
142.6038488272916
 10
346.6999152623103
 20
142.2504432906641
 10
346.1359704587813
 20
141.8449897150385
 10
345.6692812826153
 20
141.3441024271858
 10
345.3463987187757
 20
140.7043957538768
 10
345.1804414082478
 20
139.9017512591075
 10
345.0635088356148
 20
139.0785941605559
  0
LWPOLYLINE
  5
EF7C86CD6
330
EF7C85532
100
AcDbEntity
  8
NITEN
100
AcDbPolyline
 90
        2
 70
     0
 43
0.0
 10
287.9999992759999
 20
248.9268607174245
 42
0.5882352941176295
 10
270.9999992759999
 20
248.9268607174249
 42
0.5882352941176295
  0
LWPOLYLINE
  5
EF7C86CD7
330
EF7C85532
100
AcDbEntity
  8
NITEN
100
AcDbPolyline
 90
        5
 70
     0
 43
0.0
 10
287.9999992759999
 20
228.0891430662788
 10
287.9999992759999
 20
248.9268607174245
 42
-0.5882352941176476
 10
270.9999992759999
 20
248.9268607174245
 42
0.5882352941176477
 10
253.9999992759999
 20
248.9268607174243
 10
253.9999992759999
 20
228.0891430662788
  0
LWPOLYLINE
  5
EF7C86CD8
330
EF7C85532
100
AcDbEntity
  8
NITEN
100
AcDbPolyline
 90
       15
 70
     1
 43
0.0
 10
256.9999992759999
 20
187.5891430662788
 42
0.4142135623730927
 10
258.4999992759999
 20
186.0891430662788
 10
281.5940504469963
 20
186.0891430662788
 10
283.4999992759999
 20
186.0891430662788
 42
0.4142135623730925
 10
284.9999992759999
 20
187.5891430662788
 10
284.9999992759999
 20
198.6351590924966
 42
-0.4142135623730943
 10
289.9999992759998
 20
203.6351590924966
 42
0.4142135623730951
 10
291.9999992759999
 20
205.6351590924966
 10
291.9999992759998
 20
226.0891430662788
 42
0.4142135623730949
 10
289.9999992759999
 20
228.0891430662788
 10
251.9999992759999
 20
228.0891430662788
 42
0.4142135623730951
 10
249.9999992759999
 20
226.0891430662788
 10
249.9999992759999
 20
205.6351590924966
 42
0.4142135623730951
 10
251.9999992759999
 20
203.6351590924966
 42
-0.4142135623730961
 10
256.9999992759999
 20
198.6351590924966
  0
LINE
  5
EF7C86CD9
330
EF7C85532
100
AcDbEntity
  8
JISSEN
100
AcDbLine
 10
280.0000827140152
 20
197.9785941605549
 30
0.0
 11
271.0000827140159
 21
197.9785941605549
 31
0.0
  0
LINE
  5
EF7C86CDA
330
EF7C85532
100
AcDbEntity
  8
JISSEN
100
AcDbLine
 10
284.856489174567
 20
178.4785941605556
 30
0.0
 11
271.0000827140159
 21
178.4785941605558
 31
0.0
  0
LINE
  5
EF7C86CDB
330
EF7C85532
100
AcDbEntity
  8
JISSEN
100
AcDbLine
 10
271.0000827140159
 20
181.4785941605506
 30
0.0
 11
284.856489174567
 21
181.4785941605556
 31
0.0
  0
LINE
  5
EF7C86CDC
330
EF7C85532
100
AcDbEntity
  8
JISSEN
100
AcDbLine
 10
271.0000827140159
 20
183.6709713468586
 30
0.0
 11
281.6697055277123
 21
183.6709713468586
 31
0.0
  0
LINE
  5
EF7C86CDD
330
EF7C85532
100
AcDbEntity
  8
JISSEN
100
AcDbLine
 10
281.2620070776262
 20
196.716669796944
 30
0.0
 11
271.0000827140159
 21
196.716669796944
 31
0.0
  0
LINE
  5
EF7C86CDE
330
EF7C85532
100
AcDbEntity
  8
JISSEN
100
AcDbLine
 10
271.0000827140159
 20
176.3785941605557
 30
0.0
 11
282.7000827140159
 21
176.3785941605557
 31
0.0
  0
LINE
  5
EF7C86CDF
330
EF7C85532
100
AcDbEntity
  8
JISSEN
100
AcDbLine
 10
271.0000827140159
 20
176.9785941605559
 30
0.0
 11
281.2500827140164
 21
176.9785941605558
 31
0.0
  0
LINE
  5
EF7C86CE0
330
EF7C85532
100
AcDbEntity
  8
JISSEN
100
AcDbLine
 10
261.4924599003196
 20
183.6709713468586
 30
0.0
 11
259.300082714016
 21
181.4785941605549
 31
0.0
  0
LINE
  5
EF7C86CE1
330
EF7C85532
100
AcDbEntity
  8
JISSEN
100
AcDbLine
 10
260.7381583504059
 20
196.716669796944
 30
0.0
 11
260.2929740956828
 21
182.4714855422217
 31
0.0
  0
LINE
  5
EF7C86CE2
330
EF7C85532
100
AcDbEntity
  8
JISSEN
100
AcDbLine
 10
271.000082714016
 20
176.9785941605559
 30
0.0
 11
260.7500827140156
 21
176.9785941605558
 31
0.0
  0
LINE
  5
EF7C86CE3
330
EF7C85532
100
AcDbEntity
  8
JISSEN
100
AcDbLine
 10
271.000082714016
 20
176.3785941605557
 30
0.0
 11
259.3000827140162
 21
176.3785941605557
 31
0.0
  0
LINE
  5
EF7C86CE4
330
EF7C85532
100
AcDbEntity
  8
JISSEN
100
AcDbLine
 10
257.1436762534649
 20
181.4785941605458
 30
0.0
 11
271.0000827140159
 21
181.4785941605506
 31
0.0
  0
LINE
  5
EF7C86CE5
330
EF7C85532
100
AcDbEntity
  8
JISSEN
100
AcDbLine
 10
257.1436762534649
 20
178.4785941605556
 30
0.0
 11
271.0000827140159
 21
178.4785941605558
 31
0.0
  0
LINE
  5
EF7C86CE6
330
EF7C85532
100
AcDbEntity
  8
JISSEN
100
AcDbLine
 10
258.6500827140159
 20
178.4785941605558
 30
0.0
 11
271.0000827140159
 21
178.4785941605558
 31
0.0
  0
ARC
  5
EF7C86CE7
330
EF7C85532
100
AcDbEntity
  8
JISSEN
100
AcDbCircle
 10
259.9000827140161
 20
177.4785941605558
 30
0.0
 40
1.0
100
AcDbArc
 50
0.000000000000007
 51
90.0
  0
LINE
  5
EF7C86CE8
330
EF7C85532
100
AcDbEntity
  8
JISSEN
100
AcDbLine
 10
260.2500827140155
 20
176.4785941605558
 30
0.0
 11
260.2500827140155
 21
176.3785941605557
 31
0.0
  0
LINE
  5
EF7C86CE9
330
EF7C85532
100
AcDbEntity
  8
JISSEN
100
AcDbLine
 10
260.9000827140156
 20
176.9785941605558
 30
0.0
 11
260.9000827140159
 21
177.4785941605558
 31
0.0
  0
LINE
  5
EF7C86CEA
330
EF7C85532
100
AcDbEntity
  8
SAISEN
100
AcDbLine
 10
260.7500827140156
 20
176.9785941605558
 30
0.0
 11
260.7500827140156
 21
176.3785941605557
 31
0.0
  0
LINE
  5
EF7C86CEB
330
EF7C85532
100
AcDbEntity
  8
JISSEN
100
AcDbLine
 10
260.7500827140156
 20
176.9785941605558
 30
0.0
 11
260.2500827140155
 21
176.4785941605558
 31
0.0
  0
LINE
  5
EF7C86CEC
330
EF7C85532
100
AcDbEntity
  8
JISSEN
100
AcDbLine
 10
257.1436762534649
 20
181.4785941605556
 30
0.0
 11
257.1436762534649
 21
178.4785941605556
 31
0.0
  0
LINE
  5
EF7C86CED
330
EF7C85532
100
AcDbEntity
  8
JISSEN
100
AcDbLine
 10
264.0718794837404
 20
178.4785941605556
 30
0.0
 11
264.0718794837404
 21
181.4785941605531
 31
0.0
  0
LINE
  5
EF7C86CEE
330
EF7C85532
100
AcDbEntity
  8
JISSEN
100
AcDbLine
 10
271.000082714016
 20
183.6709713468586
 30
0.0
 11
260.3304599003196
 21
183.6709713468586
 31
0.0
  0
LINE
  5
EF7C86CEF
330
EF7C85532
100
AcDbEntity
  8
JISSEN
100
AcDbLine
 10
260.7381583504059
 20
196.716669796944
 30
0.0
 11
271.000082714016
 21
196.716669796944
 31
0.0
  0
LINE
  5
EF7C86CF0
330
EF7C85532
100
AcDbEntity
  8
JISSEN
100
AcDbLine
 10
262.0000827140169
 20
197.9785941605549
 30
0.0
 11
271.000082714016
 21
197.9785941605549
 31
0.0
  0
LINE
  5
EF7C86CF1
330
EF7C85532
100
AcDbEntity
  8
SAISEN
100
AcDbLine
 10
261.4924599003196
 20
183.6709713468586
 30
0.0
 11
261.9376441550426
 21
197.9161556015808
 31
0.0
  0
LINE
  5
EF7C86CF2
330
EF7C85532
100
AcDbEntity
  8
JISSEN
100
AcDbLine
 10
260.7381583504059
 20
196.716669796944
 30
0.0
 11
262.0000827140169
 21
197.9785941605549
 31
0.0
  0
LINE
  5
EF7C86CF3
330
EF7C85532
100
AcDbEntity
  8
JISSEN
100
AcDbLine
 10
280.5077055277123
 20
183.6709713468586
 30
0.0
 11
282.7000827140159
 21
181.4785941605549
 31
0.0
  0
LINE
  5
EF7C86CF4
330
EF7C85532
100
AcDbEntity
  8
JISSEN
100
AcDbLine
 10
281.2620070776262
 20
196.716669796944
 30
0.0
 11
281.7071913323492
 21
182.4714855422217
 31
0.0
  0
ARC
  5
EF7C86CF5
330
EF7C85532
100
AcDbEntity
  8
JISSEN
100
AcDbCircle
 10
282.100082714016
 20
177.4785941605558
 30
0.0
 40
1.0
100
AcDbArc
 50
90.0
 51
180.0
  0
LINE
  5
EF7C86CF6
330
EF7C85532
100
AcDbEntity
  8
JISSEN
100
AcDbLine
 10
281.2500827140164
 20
176.9785941605558
 30
0.0
 11
281.7500827140164
 21
176.4785941605558
 31
0.0
  0
LINE
  5
EF7C86CF7
330
EF7C85532
100
AcDbEntity
  8
SAISEN
100
AcDbLine
 10
281.2500827140164
 20
176.9785941605558
 30
0.0
 11
281.2500827140164
 21
176.3785941605557
 31
0.0
  0
LINE
  5
EF7C86CF8
330
EF7C85532
100
AcDbEntity
  8
JISSEN
100
AcDbLine
 10
281.7500827140164
 20
176.4785941605558
 30
0.0
 11
281.7500827140164
 21
176.3785941605557
 31
0.0
  0
LINE
  5
EF7C86CF9
330
EF7C85532
100
AcDbEntity
  8
JISSEN
100
AcDbLine
 10
281.1000827140164
 20
176.9785941605558
 30
0.0
 11
281.100082714016
 21
177.4785941605558
 31
0.0
  0
LINE
  5
EF7C86CFA
330
EF7C85532
100
AcDbEntity
  8
JISSEN
100
AcDbLine
 10
277.9282859442914
 20
178.4785941605556
 30
0.0
 11
277.9282859442914
 21
181.4785941605531
 31
0.0
  0
LINE
  5
EF7C86CFB
330
EF7C85532
100
AcDbEntity
  8
JISSEN
100
AcDbLine
 10
284.856489174567
 20
181.4785941605556
 30
0.0
 11
284.856489174567
 21
178.4785941605556
 31
0.0
  0
LINE
  5
EF7C86CFC
330
EF7C85532
100
AcDbEntity
  8
SAISEN
100
AcDbLine
 10
280.5077055277123
 20
183.6709713468586
 30
0.0
 11
280.0625212729893
 21
197.9161556015808
 31
0.0
  0
LINE
  5
EF7C86CFD
330
EF7C85532
100
AcDbEntity
  8
JISSEN
100
AcDbLine
 10
281.2620070776262
 20
196.716669796944
 30
0.0
 11
280.0000827140152
 21
197.9785941605549
 31
0.0
  0
LINE
  5
EF7C86E07
330
EF7C85532
100
AcDbEntity
  8
JISSEN
100
AcDbLine
 10
271.0000827140159
 20
128.1493498396272
 30
0.0
 11
277.7970326936368
 21
128.149349839628
 31
0.0
  0
ARC
  5
EF7C86E08
330
EF7C85532
100
AcDbEntity
  8
JISSEN
100
AcDbCircle
 10
270.997032695404
 20
130.2493498396271
 30
0.0
 40
3.1
100
AcDbArc
 50
358.0839167096111
 51
90.00000000000651
  0
ARC
  5
EF7C86E09
330
EF7C85532
100
AcDbEntity
  8
JISSEN
100
AcDbCircle
 10
270.9970326954033
 20
128.5993498391202
 30
0.0
 40
4.249999998894995
100
AcDbArc
 50
270.0000000000065
 51
298.0724869358514
  0
LINE
  5
EF7C86E0A
330
EF7C85532
100
AcDbEntity
  8
JISSEN
100
AcDbLine
 10
278.0970326935571
 20
126.6493498396273
 30
0.0
 11
271.0000827140159
 21
126.6493498396273
 31
0.0
  0
LINE
  5
EF7C86E0B
330
EF7C85532
100
AcDbEntity
  8
JISSEN
100
AcDbLine
 10
271.0000827140159
 20
125.6493498398872
 30
0.0
 11
278.0970326935573
 21
125.6493498398872
 31
0.0
  0
LINE
  5
EF7C86E0C
330
EF7C85532
100
AcDbEntity
  8
JISSEN
100
AcDbLine
 10
263.9031327344746
 20
135.5785941605558
 30
0.0
 11
263.9031327344746
 21
126.6493498396273
 31
0.0
  0
LINE
  5
EF7C86E0D
330
EF7C85532
100
AcDbEntity
  8
JISSEN
100
AcDbLine
 10
262.9031327347346
 20
126.6493498396273
 30
0.0
 11
262.9031327347346
 21
135.5785941605558
 31
0.0
  0
LINE
  5
EF7C86E0E
330
EF7C85532
100
AcDbEntity
  8
JISSEN
100
AcDbLine
 10
264.2031327343967
 20
128.1493498392372
 30
0.0
 11
264.2031327343967
 21
128.4493498391593
 31
0.0
  0
LINE
  5
EF7C86E0F
330
EF7C85532
100
AcDbEntity
  8
JISSEN
100
AcDbLine
 10
271.0000827140159
 20
128.1493498396272
 30
0.0
 11
264.2031327343951
 21
128.149349839628
 31
0.0
  0
LINE
  5
EF7C86E10
330
EF7C85532
100
AcDbEntity
  8
JISSEN
100
AcDbLine
 10
271.0000827140159
 20
125.6493498398872
 30
0.0
 11
263.9031327344745
 21
125.6493498398872
 31
0.0
  0
LINE
  5
EF7C86E11
330
EF7C85532
100
AcDbEntity
  8
JISSEN
100
AcDbLine
 10
263.9031327344746
 20
126.6493498396273
 30
0.0
 11
271.0000827140159
 21
126.6493498396273
 31
0.0
  0
ARC
  5
EF7C86E12
330
EF7C85532
100
AcDbEntity
  8
JISSEN
100
AcDbCircle
 10
263.9031327344745
 20
126.6493498396273
 30
0.0
 40
0.9999999997399998
100
AcDbArc
 50
180.0
 51
270.0
  0
LINE
  5
EF7C86E13
330
EF7C85532
100
AcDbEntity
  8
JISSEN
100
AcDbLine
 10
264.2031327343967
 20
126.6493498396273
 30
0.0
 11
264.2031327343967
 21
128.1493498392372
 31
0.0
  0
LINE
  5
EF7C86E14
330
EF7C85532
100
AcDbEntity
  8
JISSEN
100
AcDbLine
 10
269.0031327331485
 20
124.8493498400952
 30
0.0
 11
269.0031327331485
 21
125.6493498398872
 31
0.0
  0
ARC
  5
EF7C86E15
330
EF7C85532
100
AcDbEntity
  8
JISSEN
100
AcDbCircle
 10
271.0031327326286
 20
128.5993498391202
 30
0.0
 40
4.249999998894995
100
AcDbArc
 50
241.9275130641485
 51
269.9999999999934
  0
LINE
  5
EF7C86E16
330
EF7C85532
100
AcDbEntity
  8
JISSEN
100
AcDbLine
 10
267.7415261828679
 20
128.4493498396275
 30
0.0
 11
264.2031327343951
 21
128.4493498396279
 31
0.0
  0
ARC
  5
EF7C86E17
330
EF7C85532
100
AcDbEntity
  8
JISSEN
100
AcDbCircle
 10
271.0031327326279
 20
130.2493498396271
 30
0.0
 40
3.1
100
AcDbArc
 50
89.99999999999348
 51
181.9160832903888
  0
LINE
  5
EF7C86E18
330
EF7C85532
100
AcDbEntity
  8
JISSEN
100
AcDbLine
 10
267.7415261828679
 20
128.4493498396275
 30
0.0
 11
267.9048660365712
 21
130.1456990793473
 31
0.0
  0
LINE
  5
EF7C86E19
330
EF7C85532
100
AcDbEntity
  8
JISSEN
100
AcDbLine
 10
279.0970326932973
 20
126.6493498396273
 30
0.0
 11
279.0970326932973
 21
135.5785941605558
 31
0.0
  0
LINE
  5
EF7C86E1A
330
EF7C85532
100
AcDbEntity
  8
JISSEN
100
AcDbLine
 10
278.0970326935573
 20
135.5785941605558
 30
0.0
 11
278.0970326935571
 21
126.6493498396273
 31
0.0
  0
LINE
  5
EF7C86E1B
330
EF7C85532
100
AcDbEntity
  8
JISSEN
100
AcDbLine
 10
277.7970326936351
 20
128.1493498392372
 30
0.0
 11
277.7970326936351
 21
128.4493498391593
 31
0.0
  0
ARC
  5
EF7C86E1C
330
EF7C85532
100
AcDbEntity
  8
JISSEN
100
AcDbCircle
 10
278.0970326935573
 20
126.6493498396273
 30
0.0
 40
0.9999999997399998
100
AcDbArc
 50
270.0
 51
0.000000000000007
  0
LINE
  5
EF7C86E1D
330
EF7C85532
100
AcDbEntity
  8
JISSEN
100
AcDbLine
 10
272.9970326948834
 20
124.8493498400952
 30
0.0
 11
272.9970326948834
 21
125.6493498398872
 31
0.0
  0
LINE
  5
EF7C86E1E
330
EF7C85532
100
AcDbEntity
  8
JISSEN
100
AcDbLine
 10
277.7970326936351
 20
126.6493498396273
 30
0.0
 11
277.7970326936351
 21
128.1493498392372
 31
0.0
  0
LINE
  5
EF7C86E1F
330
EF7C85532
100
AcDbEntity
  8
JISSEN
100
AcDbLine
 10
274.2586392451641
 20
128.4493498396275
 30
0.0
 11
277.7970326936368
 21
128.4493498396279
 31
0.0
  0
LINE
  5
EF7C86E20
330
EF7C85532
100
AcDbEntity
  8
JISSEN
100
AcDbLine
 10
274.2586392451641
 20
128.4493498396275
 30
0.0
 11
274.0952993914608
 21
130.1456990793473
 31
0.0
  0
ARC
  5
EF7C86E21
330
EF7C85532
100
AcDbEntity
  8
JISSEN
100
AcDbCircle
 10
271.0031327326279
 20
70.24934983962727
 30
0.0
 40
3.1
100
AcDbArc
 50
89.99999999999348
 51
181.9160832903888
  0
LINE
  5
EF7C86E22
330
EF7C85532
100
AcDbEntity
  8
JISSEN
100
AcDbLine
 10
263.9031327344746
 20
66.64934983962729
 30
0.0
 11
271.0000827140159
 21
66.64934983962729
 31
0.0
  0
LINE
  5
EF7C86E23
330
EF7C85532
100
AcDbEntity
  8
JISSEN
100
AcDbLine
 10
271.0000827140159
 20
65.64934983988727
 30
0.0
 11
263.9031327344745
 21
65.64934983988731
 31
0.0
  0
LINE
  5
EF7C86E24
330
EF7C85532
100
AcDbEntity
  8
JISSEN
100
AcDbLine
 10
271.0000827140159
 20
68.14934983962729
 30
0.0
 11
264.2031327343951
 21
68.14934983962801
 31
0.0
  0
LINE
  5
EF7C86E25
330
EF7C85532
100
AcDbEntity
  8
JISSEN
100
AcDbLine
 10
262.9031327347346
 20
66.64934983962729
 30
0.0
 11
262.9031327347346
 21
75.57859416055588
 31
0.0
  0
LINE
  5
EF7C86E26
330
EF7C85532
100
AcDbEntity
  8
JISSEN
100
AcDbLine
 10
263.9031327344746
 20
75.57859416055588
 30
0.0
 11
263.9031327344746
 21
66.64934983962729
 31
0.0
  0
LINE
  5
EF7C86E27
330
EF7C85532
100
AcDbEntity
  8
JISSEN
100
AcDbLine
 10
264.2031327343967
 20
68.1493498392373
 30
0.0
 11
264.2031327343967
 21
68.4493498391593
 31
0.0
  0
LINE
  5
EF7C86E28
330
EF7C85532
100
AcDbEntity
  8
JISSEN
100
AcDbLine
 10
264.2031327343967
 20
66.64934983962729
 30
0.0
 11
264.2031327343967
 21
68.1493498392373
 31
0.0
  0
ARC
  5
EF7C86E29
330
EF7C85532
100
AcDbEntity
  8
JISSEN
100
AcDbCircle
 10
263.9031327344745
 20
66.64934983962729
 30
0.0
 40
0.9999999997399998
100
AcDbArc
 50
180.0
 51
270.0
  0
LINE
  5
EF7C86E2A
330
EF7C85532
100
AcDbEntity
  8
JISSEN
100
AcDbLine
 10
267.7415261828679
 20
68.44934983962763
 30
0.0
 11
264.2031327343951
 21
68.449349839628
 31
0.0
  0
LINE
  5
EF7C86E2B
330
EF7C85532
100
AcDbEntity
  8
JISSEN
100
AcDbLine
 10
267.7415261828679
 20
68.44934983962763
 30
0.0
 11
267.9048660365712
 21
70.14569907934741
 31
0.0
  0
LINE
  5
EF7C86E2C
330
EF7C85532
100
AcDbEntity
  8
JISSEN
100
AcDbLine
 10
278.0970326935573
 20
75.57859416055588
 30
0.0
 11
278.0970326935571
 21
66.64934983962729
 31
0.0
  0
LINE
  5
EF7C86E2D
330
EF7C85532
100
AcDbEntity
  8
JISSEN
100
AcDbLine
 10
279.0970326932973
 20
66.64934983962729
 30
0.0
 11
279.0970326932973
 21
75.57859416055588
 31
0.0
  0
LINE
  5
EF7C86E2E
330
EF7C85532
100
AcDbEntity
  8
JISSEN
100
AcDbLine
 10
277.7970326936351
 20
68.1493498392373
 30
0.0
 11
277.7970326936351
 21
68.4493498391593
 31
0.0
  0
LINE
  5
EF7C86E2F
330
EF7C85532
100
AcDbEntity
  8
JISSEN
100
AcDbLine
 10
271.0000827140159
 20
65.64934983988727
 30
0.0
 11
278.0970326935573
 21
65.64934983988731
 31
0.0
  0
LINE
  5
EF7C86E30
330
EF7C85532
100
AcDbEntity
  8
JISSEN
100
AcDbLine
 10
278.0970326935571
 20
66.64934983962729
 30
0.0
 11
271.0000827140159
 21
66.64934983962729
 31
0.0
  0
LINE
  5
EF7C86E31
330
EF7C85532
100
AcDbEntity
  8
JISSEN
100
AcDbLine
 10
271.0000827140159
 20
68.14934983962729
 30
0.0
 11
277.7970326936368
 21
68.14934983962801
 31
0.0
  0
ARC
  5
EF7C86E32
330
EF7C85532
100
AcDbEntity
  8
JISSEN
100
AcDbCircle
 10
270.9970326954033
 20
68.59934983912028
 30
0.0
 40
4.249999998894995
100
AcDbArc
 50
270.0000000000065
 51
298.0724869358514
  0
ARC
  5
EF7C86E33
330
EF7C85532
100
AcDbEntity
  8
JISSEN
100
AcDbCircle
 10
271.0031327326286
 20
68.59934983912028
 30
0.0
 40
4.249999998894995
100
AcDbArc
 50
241.9275130641485
 51
269.9999999999934
  0
LINE
  5
EF7C86E34
330
EF7C85532
100
AcDbEntity
  8
JISSEN
100
AcDbLine
 10
269.0031327331485
 20
64.84934984009531
 30
0.0
 11
269.0031327331485
 21
65.64934983988727
 31
0.0
  0
LINE
  5
EF7C86E35
330
EF7C85532
100
AcDbEntity
  8
JISSEN
100
AcDbLine
 10
272.9970326948834
 20
64.84934984009531
 30
0.0
 11
272.9970326948834
 21
65.64934983988727
 31
0.0
  0
ARC
  5
EF7C86E36
330
EF7C85532
100
AcDbEntity
  8
JISSEN
100
AcDbCircle
 10
278.0970326935573
 20
66.64934983962729
 30
0.0
 40
0.9999999997399998
100
AcDbArc
 50
270.0
 51
0.000000000000007
  0
LINE
  5
EF7C86E37
330
EF7C85532
100
AcDbEntity
  8
JISSEN
100
AcDbLine
 10
277.7970326936351
 20
66.64934983962729
 30
0.0
 11
277.7970326936351
 21
68.1493498392373
 31
0.0
  0
LINE
  5
EF7C86E38
330
EF7C85532
100
AcDbEntity
  8
JISSEN
100
AcDbLine
 10
274.2586392451641
 20
68.44934983962763
 30
0.0
 11
277.7970326936368
 21
68.449349839628
 31
0.0
  0
ARC
  5
EF7C86E39
330
EF7C85532
100
AcDbEntity
  8
JISSEN
100
AcDbCircle
 10
270.997032695404
 20
70.24934983962727
 30
0.0
 40
3.1
100
AcDbArc
 50
358.0839167096111
 51
90.00000000000651
  0
LINE
  5
EF7C86E3A
330
EF7C85532
100
AcDbEntity
  8
JISSEN
100
AcDbLine
 10
274.2586392451641
 20
68.44934983962763
 30
0.0
 11
274.0952993914608
 21
70.14569907934741
 31
0.0
  0
ARC
  5
EF7C86FB6
330
EF7C85532
100
AcDbEntity
  8
JISSEN
100
AcDbCircle
 10
99.50008343628622
 20
128.9000917523138
 30
0.0
 40
1.5
100
AcDbArc
 50
270.0
 51
0.0
  0
LINE
  5
EF7C86FB7
330
EF7C85532
100
AcDbEntity
  8
JISSEN
100
AcDbLine
 10
99.50008343628622
 20
127.4000917523137
 30
0.0
 11
90.00008343628627
 21
127.4000917523137
 31
0.0
  0
LINE
  5
EF7C86FB9
330
EF7C85532
100
AcDbEntity
  8
JISSEN
100
AcDbLine
 10
101.0000834362862
 20
135.5785941605558
 30
0.0
 11
101.0000834362862
 21
128.9000917523138
 31
0.0
  0
LINE
  5
EF7C86FBA
330
EF7C85532
100
AcDbEntity
  8
JISSEN
100
AcDbLine
 10
80.50008343628627
 20
127.4000917523137
 30
0.0
 11
90.00008343628627
 21
127.4000917523137
 31
0.0
  0
ARC
  5
EF7C86FBB
330
EF7C85532
100
AcDbEntity
  8
JISSEN
100
AcDbCircle
 10
80.50008343628627
 20
128.9000917523138
 30
0.0
 40
1.5
100
AcDbArc
 50
180.0
 51
270.0
  0
LINE
  5
EF7C86FBC
330
EF7C85532
100
AcDbEntity
  8
JISSEN
100
AcDbLine
 10
79.00008343628627
 20
135.5785941605558
 30
0.0
 11
79.00008343628627
 21
128.9000917523138
 31
0.0
  0
LINE
  5
EF7C86FBD
330
EF7C85532
100
AcDbEntity
  8
JISSEN
100
AcDbLine
 10
99.50008343628622
 20
67.40009175231381
 30
0.0
 11
90.00008343628627
 21
67.40009175231381
 31
0.0
  0
ARC
  5
EF7C86FBE
330
EF7C85532
100
AcDbEntity
  8
JISSEN
100
AcDbCircle
 10
99.50008343628622
 20
68.90009175231381
 30
0.0
 40
1.5
100
AcDbArc
 50
270.0
 51
0.0
  0
LINE
  5
EF7C86FBF
330
EF7C85532
100
AcDbEntity
  8
JISSEN
100
AcDbLine
 10
101.0000834362862
 20
75.57859416055588
 30
0.0
 11
101.0000834362862
 21
68.90009175231381
 31
0.0
  0
LINE
  5
EF7C86FC0
330
EF7C85532
100
AcDbEntity
  8
JISSEN
100
AcDbLine
 10
80.50008343628633
 20
67.40009175231381
 30
0.0
 11
90.00008343628627
 21
67.40009175231381
 31
0.0
  0
ARC
  5
EF7C86FC1
330
EF7C85532
100
AcDbEntity
  8
JISSEN
100
AcDbCircle
 10
80.50008343628633
 20
68.90009175231381
 30
0.0
 40
1.5
100
AcDbArc
 50
180.0
 51
270.0
  0
LINE
  5
EF7C86FC2
330
EF7C85532
100
AcDbEntity
  8
JISSEN
100
AcDbLine
 10
79.00008343628633
 20
75.57859416055588
 30
0.0
 11
79.00008343628633
 21
68.90009175231381
 31
0.0
  0
LINE
  5
EF7C87291
330
EF7C85532
100
AcDbEntity
  8
JISSEN
100
AcDbLine
 10
96.99519076594919
 20
49.22500742770314
 30
0.0
 11
95.17130810632812
 21
47.99478304006749
 31
0.0
  0
LINE
  5
EF7C87292
330
EF7C85532
100
AcDbEntity
  8
JISSEN
100
AcDbLine
 10
96.49191715282547
 20
49.97114124300265
 30
0.0
 11
94.6680344932044
 21
48.74091685536701
 31
0.0
  0
LINE
  5
EF7C87293
330
EF7C85532
100
AcDbEntity
  8
TENSEN
100
AcDbLine
 10
96.00008343628628
 20
45.04954603444537
 30
0.0
 11
98.50008343628628
 21
45.04954603444537
 31
0.0
  0
ARC
  5
EF7C87294
330
EF7C85532
100
AcDbEntity
  8
TENSEN
100
AcDbCircle
 10
90.00008343628627
 20
45.04954603444537
 30
0.0
 40
6.0
100
AcDbArc
 50
312.2121173636313
 51
0.0
  0
ARC
  5
EF7C87295
330
EF7C85532
100
AcDbEntity
  8
TENSEN
100
AcDbCircle
 10
90.00008343628627
 20
45.04954603444537
 30
0.0
 40
8.5
100
AcDbArc
 50
312.2121173636313
 51
0.0
  0
CIRCLE
  5
EF7C87296
330
EF7C85532
100
AcDbEntity
  8
JISSEN
100
AcDbCircle
 10
90.00008343628627
 20
45.04954603444537
 30
0.0
 40
11.0
  0
CIRCLE
  5
EF7C87297
330
EF7C85532
100
AcDbEntity
  8
JISSEN
100
AcDbCircle
 10
90.00008343628627
 20
45.04954603444537
 30
0.0
 40
11.69999999999999
  0
TEXT
  5
EF7C87298
330
EF7C85532
100
AcDbEntity
  8
JISSEN
100
AcDbText
 10
89.56028368929947
 20
38.95573293902134
 30
0.0
 40
2.2
  1
P
 50
165.0000000000003
  7
K
 72
     4
 11
88.16246821605835
 21
38.19147266779293
 31
0.0
100
AcDbText
  0
TEXT
  5
EF7C87299
330
EF7C85532
100
AcDbEntity
  8
JISSEN
100
AcDbText
 10
91.04770248390533
 20
39.04954603444535
 30
0.0
 40
2.2
  1
S
 50
180.0
  7
K
 72
     4
 11
90.00008343628627
 21
37.94954603444534
 31
0.0
100
AcDbText
  0
TEXT
  5
EF7C8729A
330
EF7C85532
100
AcDbEntity
  8
JISSEN
100
AcDbText
 10
92.56492000110901
 20
39.52513483824694
 30
0.0
 40
2.2
  1
S
 50
194.9999999999994
  7
K
 72
     4
 11
91.83769865651418
 21
38.19147266779299
 31
0.0
100
AcDbText
  0
LINE
  5
EF7C8729B
330
EF7C85532
100
AcDbEntity
  8
TENSEN
100
AcDbLine
 10
84.00008343628627
 20
45.04954603444537
 30
0.0
 11
81.50008343628627
 21
45.04954603444537
 31
0.0
  0
ARC
  5
EF7C8729C
330
EF7C85532
100
AcDbEntity
  8
TENSEN
100
AcDbCircle
 10
90.00008343628627
 20
45.04954603444537
 30
0.0
 40
8.5
100
AcDbArc
 50
180.0
 51
220.0843624270262
  0
TEXT
  5
EF7C8729D
330
EF7C85532
100
AcDbEntity
  8
JISSEN
100
AcDbText
 10
84.55379459122438
 20
47.77634699621158
 30
0.0
 40
2.2
  1
S
 50
53.49999999999877
  7
K
 72
     4
 11
84.29269972590402
 21
49.27278782037991
 31
0.0
100
AcDbText
  0
CIRCLE
  5
EF7C8729E
330
EF7C85532
100
AcDbEntity
  8
TENSEN
100
AcDbCircle
 10
90.00008343628627
 20
45.04954603444537
 30
0.0
 40
5.0
  0
CIRCLE
  5
EF7C8729F
330
EF7C85532
100
AcDbEntity
  8
JISSEN
100
AcDbCircle
 10
90.00008343628627
 20
45.04954603444537
 30
0.0
 40
2.75
  0
CIRCLE
  5
EF7C872A0
330
EF7C85532
100
AcDbEntity
  8
JISSEN
100
AcDbCircle
 10
90.00008343628627
 20
45.04954603444537
 30
0.0
 40
2.5
  0
CIRCLE
  5
EF7C872A1
330
EF7C85532
100
AcDbEntity
  8
TENSEN
100
AcDbCircle
 10
90.00008343628627
 20
45.04954603444537
 30
0.0
 40
3.0
  0
ARC
  5
EF7C872A2
330
EF7C85532
100
AcDbEntity
  8
TENSEN
100
AcDbCircle
 10
90.00008343628627
 20
45.04954603444537
 30
0.0
 40
6.0
100
AcDbArc
 50
180.0
 51
220.0843624270263
  0
LINE
  5
EF7C872A3
330
EF7C85532
100
AcDbEntity
  8
TENSEN
100
AcDbLine
 10
85.40950040882126
 20
41.18605700664289
 30
0.0
 11
83.49675748071081
 21
39.5762699117252
 31
0.0
  0
LINE
  5
EF7C872A4
330
EF7C85532
100
AcDbEntity
  8
TENSEN
100
AcDbLine
 10
94.03134690929965
 20
40.60557092074946
 30
0.0
 11
95.71104002305515
 21
38.7539146233762
 31
0.0
  0
LINE
  5
EF7C872A5
330
EF7C85532
100
AcDbEntity
  8
JISSEN
100
AcDbLine
 10
94.42374745714705
 20
49.10308728013934
 30
0.0
 11
95.41559514238542
 21
47.63261261529516
 31
0.0
  0
TEXT
  5
EF7C872A6
330
EF7C85532
100
AcDbEntity
  8
JISSEN
100
AcDbText
 10
88.38794866970991
 20
50.87524764645515
 30
0.0
 40
2.2
  1
J
 50
8.499999999999786
  7
K
 72
     4
 11
88.95063661726608
 21
52.07155866431498
 31
0.0
100
AcDbText
  0
TEXT
  5
EF7C872A7
330
EF7C85532
100
AcDbEntity
  8
JISSEN
100
AcDbText
 10
85.40412664392293
 20
49.06042887525849
 30
0.0
 40
2.2
  1
E
 50
38.50000000000047
  7
K
 72
     4
 11
85.58022951615919
 21
50.60606394809752
 31
0.0
100
AcDbText
  0
TEXT
  5
EF7C872A8
330
EF7C85532
100
AcDbEntity
  8
JISSEN
100
AcDbText
 10
86.55078646082435
 20
50.09239564894705
 30
0.0
 40
2.2
  1
N
 50
23.50000000000008
  7
K
 72
     4
 11
87.16896504691703
 21
51.56067256257978
 31
0.0
100
AcDbText
  0
TEXT
  5
EF7C872A9
330
EF7C85532
100
AcDbEntity
  8
JISSEN
100
AcDbText
 10
90.9895437301513
 20
51.27739968322592
 30
0.0
 40
2.2
  1
-
 50
338.4999999999998
  7
K
 72
     4
 11
92.6022421460288
 21
51.65551076711778
 31
0.0
100
AcDbText
  0
TEXT
  5
EF7C872AA
330
EF7C85532
100
AcDbEntity
  8
JISSEN
100
AcDbText
 10
89.53432943759024
 20
51.14143039579934
 30
0.0
 40
2.2
  1
U
 50
353.4999999999998
  7
K
 72
     4
 11
90.80382625403842
 21
52.10390620974914
 31
0.0
100
AcDbText
  0
TEXT
  5
EF7C872AB
330
EF7C85532
100
AcDbEntity
  8
JISSEN
100
AcDbText
 10
92.72688439805248
 20
50.49583487950725
 30
0.0
 40
2.2
  1
X
 50
323.4999999999995
  7
K
 72
     4
 11
94.22332522222081
 21
50.75692974482763
 31
0.0
100
AcDbText
  0
LINE
  5
EF7C872AC
330
EF7C85532
100
AcDbEntity
  8
JISSEN
100
AcDbLine
 10
96.24763011676812
 20
50.33331166777498
 30
0.0
 11
97.23947780200655
 21
48.86283700293081
 31
0.0
  0
LINE
  5
EF7C872AD
330
EF7C85532
100
AcDbEntity
  8
TEXT
100
AcDbLine
 10
127.6599495897736
 20
10.84959319590905
 30
0.0
 11
127.6599495897736
 21
7.849593195909051
 31
0.0
  0
LINE
  5
EF7C872AE
330
EF7C85532
100
AcDbEntity
  8
TEXT
100
AcDbLine
 10
128.5599495897735
 20
10.84959319590905
 30
0.0
 11
128.5599495897735
 21
7.849593195909051
 31
0.0
  0
LINE
  5
EF7C872B0
330
EF7C85532
100
AcDbEntity
  8
TEXT
100
AcDbLine
 10
127.1099495897736
 20
7.849593195909051
 30
0.0
 11
129.1099495897736
 21
7.849593195909051
 31
0.0
  0
LINE
  5
EF7C872B2
330
EF7C85532
100
AcDbEntity
  8
TEXT
100
AcDbLine
 10
127.1099495897736
 20
10.84959319590905
 30
0.0
 11
129.1099495897736
 21
10.84959319590905
 31
0.0
  0
TEXT
  5
EF7C8733A
330
EF7C85532
100
AcDbEntity
  8
TEXT
100
AcDbText
 10
106.4571421331427
 20
272.4999999999999
 30
0.0
 40
3.0
  1
X  型ヘッド
  7
K
 72
     4
 11
116.4999992759999
 21
273.9999999999999
 31
0.0
100
AcDbText
  0
LINE
  5
EF7C8733F
330
EF7C85532
100
AcDbEntity
  8
TEXT
100
AcDbLine
 10
111.3496113121381
 20
275.5069518502916
 30
0.0
 11
111.3496113121381
 21
272.5069518502919
 31
0.0
  0
LINE
  5
EF7C87340
330
EF7C85532
100
AcDbEntity
  8
TEXT
100
AcDbLine
 10
110.4496113121381
 20
275.5069518502916
 30
0.0
 11
110.4496113121381
 21
272.5069518502919
 31
0.0
  0
LINE
  5
EF7C87346
330
EF7C85532
100
AcDbEntity
  8
TEXT
100
AcDbLine
 10
109.899611312138
 20
272.5069518502919
 30
0.0
 11
111.899611312138
 21
272.5069518502919
 31
0.0
  0
LINE
  5
EF7C87349
330
EF7C85532
100
AcDbEntity
  8
TEXT
100
AcDbLine
 10
109.899611312138
 20
275.5069518502916
 30
0.0
 11
111.899611312138
 21
275.5069518502916
 31
0.0
  0
LINE
  5
EF7C873FD
330
EF7C85532
100
AcDbEntity
  8
TEXT
100
AcDbLine
 10
309.5599488657735
 20
10.84959319590905
 30
0.0
 11
309.5599488657735
 21
7.849593195909051
 31
0.0
  0
LINE
  5
EF7C873FE
330
EF7C85532
100
AcDbEntity
  8
TEXT
100
AcDbLine
 10
308.6599488657735
 20
10.84959319590905
 30
0.0
 11
308.6599488657735
 21
7.849593195909051
 31
0.0
  0
LINE
  5
EF7C873FF
330
EF7C85532
100
AcDbEntity
  8
TEXT
100
AcDbLine
 10
308.1099488657736
 20
7.849593195909051
 30
0.0
 11
310.1099488657736
 21
7.849593195909051
 31
0.0
  0
LINE
  5
EF7C87400
330
EF7C85532
100
AcDbEntity
  8
TEXT
100
AcDbLine
 10
308.1099488657736
 20
10.84959319590905
 30
0.0
 11
310.1099488657736
 21
10.84959319590905
 31
0.0
  0
ENDSEC
  0
SECTION
  2
OBJECTS
  0
DICTIONARY
  5
EF7C85527
330
0
100
AcDbDictionary
  3
ACAD_GROUP
350
EF7C85528
  3
ACAD_LAYOUT
350
EF7C85BB7
  3
ACAD_MLINESTYLE
350
EF7C85535
  3
ACAD_PLOTSETTINGS
350
EF7C85BB8
  3
ACAD_PLOTSTYLENAME
350
EF7C85BB5
  3
ACDBHEADERROUNDTRIPXREC
350
EF7C87404
  3
ACDBVARIABLEDICTIONARY
350
EF7C85FA1
  0
DICTIONARY
  5
EF7C870F5
330
EF7C8551D
100
AcDbDictionary
280
     1
  3
ACAD_LAYERSTATES
360
EF7C870F6
  0
DICTIONARY
  5
EF7C85D9A
330
EF7C85532
100
AcDbDictionary
280
     1
  3
ACAD_LAYOUTSELFREF
360
EF7C87426
  0
DICTIONARY
  5
EF7C85D98
330
EF7C8552F
100
AcDbDictionary
280
     1
  3
ACAD_LAYOUTSELFREF
360
EF7C87425
  0
DICTIONARY
  5
EF7C85528
102
{ACAD_REACTORS
330
EF7C85527
102
}
330
EF7C85527
100
AcDbDictionary
  0
DICTIONARY
  5
EF7C85BB7
102
{ACAD_REACTORS
330
EF7C85527
102
}
330
EF7C85527
100
AcDbDictionary
  0
DICTIONARY
  5
EF7C85535
102
{ACAD_REACTORS
330
EF7C85527
102
}
330
EF7C85527
100
AcDbDictionary
  3
STANDARD
350
EF7C85536
  0
DICTIONARY
  5
EF7C85BB8
102
{ACAD_REACTORS
330
EF7C85527
102
}
330
EF7C85527
100
AcDbDictionary
  0
ACDBDICTIONARYWDFLT
  5
EF7C85BB5
102
{ACAD_REACTORS
330
EF7C85527
102
}
330
EF7C85527
100
AcDbDictionary
281
     1
  3
Normal
350
EF7C85BB6
100
AcDbDictionaryWithDefault
340
EF7C85BB6
  0
DICTIONARY
  5
EF7C87404
102
{ACAD_REACTORS
330
EF7C85527
102
}
330
EF7C85527
100
AcDbDictionary
  3
CEPSNTYPE
350
EF7C8740E
  3
DIMSTYLEDATA
350
EF7C87412
  3
FINGERPRINTGUID
350
EF7C8740F
  3
HYPERLINKBASE
350
EF7C87407
  3
INSUNITS
350
EF7C8740D
  3
LAYOUTDICT
350
EF7C87409
  3
LWETCUNION
350
EF7C8740C
  3
PLOTSETDICT
350
EF7C8740A
  3
PLOTSTYLNAMDICT
350
EF7C8740B
  3
PSVPSCALE
350
EF7C87411
  3
PUCSBASE
350
EF7C87415
  3
PUCSORGBACK
350
EF7C8741B
  3
PUCSORGBOTTOM
350
EF7C87417
  3
PUCSORGFRONT
350
EF7C8741A
  3
PUCSORGLEFT
350
EF7C87418
  3
PUCSORGRIGHT
350
EF7C87419
  3
PUCSORGTOP
350
EF7C87416
  3
PUCSORTHOREF
350
EF7C87413
  3
PUCSORTHOVIEW
350
EF7C87414
  3
STYLESHEET
350
EF7C87408
  3
TSTACKALIGN
350
EF7C87405
  3
TSTACKSIZE
350
EF7C87406
  3
UCSBASE
350
EF7C8741E
  3
UCSORGBACK
350
EF7C87424
  3
UCSORGBOTTOM
350
EF7C87420
  3
UCSORGFRONT
350
EF7C87423
  3
UCSORGLEFT
350
EF7C87421
  3
UCSORGRIGHT
350
EF7C87422
  3
UCSORGTOP
350
EF7C8741F
  3
UCSORTHOREF
350
EF7C8741C
  3
UCSORTHOVIEW
350
EF7C8741D
  3
VERSIONGUID
350
EF7C87410
  0
DICTIONARY
  5
EF7C85FA1
102
{ACAD_REACTORS
330
EF7C85527
102
}
330
EF7C85527
100
AcDbDictionary
  3
DIMASSOC
350
EF7C870C8
  3
SORTENTS
350
EF7C85FA2
  0
DICTIONARY
  5
EF7C870F6
102
{ACAD_REACTORS
330
EF7C870F5
102
}
330
EF7C870F5
100
AcDbDictionary
  0
XRECORD
  5
EF7C87426
102
{ACAD_REACTORS
330
EF7C85D9A
102
}
330
EF7C85D9A
100
AcDbXrecord
340
EF7C85532
  0
XRECORD
  5
EF7C87425
102
{ACAD_REACTORS
330
EF7C85D98
102
}
330
EF7C85D98
100
AcDbXrecord
340
EF7C8552F
  0
MLINESTYLE
  5
EF7C85536
102
{ACAD_REACTORS
330
EF7C85535
102
}
330
EF7C85535
100
AcDbMlineStyle
  2
STANDARD
 70
     0
  3

 62
   256
 51
90.0
 52
90.0
 71
     2
 49
0.5
 62
   256
  6
BYLAYER
 49
-0.5
 62
   256
  6
BYLAYER
  0
ACDBPLACEHOLDER
  5
EF7C85BB6
102
{ACAD_REACTORS
330
EF7C85BB5
102
}
330
EF7C85BB5
100
AcDbPlaceHolder
280
     0
  0
XRECORD
  5
EF7C8740E
102
{ACAD_REACTORS
330
EF7C87404
102
}
330
EF7C87404
100
AcDbXrecord
 90
        0
  0
XRECORD
  5
EF7C87412
102
{ACAD_REACTORS
330
EF7C87404
102
}
330
EF7C87404
100
AcDbXrecord
1000
DSTYLE
1002
{
1070
   341
340
EF7C85537
1070
   342
340
EF7C85537
1070
   343
340
EF7C85543
1070
   344
340
EF7C85543
1002
}
  0
XRECORD
  5
EF7C8740F
102
{ACAD_REACTORS
330
EF7C87404
102
}
330
EF7C87404
100
AcDbXrecord
  1
{09AA4C7A-3D6F-4857-A850-771461888CEC}
  0
XRECORD
  5
EF7C87407
102
{ACAD_REACTORS
330
EF7C87404
102
}
330
EF7C87404
100
AcDbXrecord
  1

  0
XRECORD
  5
EF7C8740D
102
{ACAD_REACTORS
330
EF7C87404
102
}
330
EF7C87404
100
AcDbXrecord
 90
        0
  0
XRECORD
  5
EF7C87409
102
{ACAD_REACTORS
330
EF7C87404
102
}
330
EF7C87404
100
AcDbXrecord
340
EF7C85BB7
  0
XRECORD
  5
EF7C8740C
102
{ACAD_REACTORS
330
EF7C87404
102
}
330
EF7C87404
100
AcDbXrecord
 90
    14877
  0
XRECORD
  5
EF7C8740A
102
{ACAD_REACTORS
330
EF7C87404
102
}
330
EF7C87404
100
AcDbXrecord
340
EF7C85BB8
  0
XRECORD
  5
EF7C8740B
102
{ACAD_REACTORS
330
EF7C87404
102
}
330
EF7C87404
100
AcDbXrecord
340
EF7C85BB5
  0
XRECORD
  5
EF7C87411
102
{ACAD_REACTORS
330
EF7C87404
102
}
330
EF7C87404
100
AcDbXrecord
 40
0.0
  0
XRECORD
  5
EF7C87415
102
{ACAD_REACTORS
330
EF7C87404
102
}
330
EF7C87404
100
AcDbXrecord
340
0
  0
XRECORD
  5
EF7C8741B
102
{ACAD_REACTORS
330
EF7C87404
102
}
330
EF7C87404
100
AcDbXrecord
 10
0.0
 20
0.0
 30
0.0
  0
XRECORD
  5
EF7C87417
102
{ACAD_REACTORS
330
EF7C87404
102
}
330
EF7C87404
100
AcDbXrecord
 10
0.0
 20
0.0
 30
0.0
  0
XRECORD
  5
EF7C8741A
102
{ACAD_REACTORS
330
EF7C87404
102
}
330
EF7C87404
100
AcDbXrecord
 10
0.0
 20
0.0
 30
0.0
  0
XRECORD
  5
EF7C87418
102
{ACAD_REACTORS
330
EF7C87404
102
}
330
EF7C87404
100
AcDbXrecord
 10
0.0
 20
0.0
 30
0.0
  0
XRECORD
  5
EF7C87419
102
{ACAD_REACTORS
330
EF7C87404
102
}
330
EF7C87404
100
AcDbXrecord
 10
0.0
 20
0.0
 30
0.0
  0
XRECORD
  5
EF7C87416
102
{ACAD_REACTORS
330
EF7C87404
102
}
330
EF7C87404
100
AcDbXrecord
 10
0.0
 20
0.0
 30
0.0
  0
XRECORD
  5
EF7C87413
102
{ACAD_REACTORS
330
EF7C87404
102
}
330
EF7C87404
100
AcDbXrecord
340
0
  0
XRECORD
  5
EF7C87414
102
{ACAD_REACTORS
330
EF7C87404
102
}
330
EF7C87404
100
AcDbXrecord
 70
     0
  0
XRECORD
  5
EF7C87408
102
{ACAD_REACTORS
330
EF7C87404
102
}
330
EF7C87404
100
AcDbXrecord
  1

  0
XRECORD
  5
EF7C87405
102
{ACAD_REACTORS
330
EF7C87404
102
}
330
EF7C87404
100
AcDbXrecord
 90
        1
  0
XRECORD
  5
EF7C87406
102
{ACAD_REACTORS
330
EF7C87404
102
}
330
EF7C87404
100
AcDbXrecord
 90
       70
  0
XRECORD
  5
EF7C8741E
102
{ACAD_REACTORS
330
EF7C87404
102
}
330
EF7C87404
100
AcDbXrecord
340
0
  0
XRECORD
  5
EF7C87424
102
{ACAD_REACTORS
330
EF7C87404
102
}
330
EF7C87404
100
AcDbXrecord
 10
0.0
 20
0.0
 30
0.0
  0
XRECORD
  5
EF7C87420
102
{ACAD_REACTORS
330
EF7C87404
102
}
330
EF7C87404
100
AcDbXrecord
 10
0.0
 20
0.0
 30
0.0
  0
XRECORD
  5
EF7C87423
102
{ACAD_REACTORS
330
EF7C87404
102
}
330
EF7C87404
100
AcDbXrecord
 10
0.0
 20
0.0
 30
0.0
  0
XRECORD
  5
EF7C87421
102
{ACAD_REACTORS
330
EF7C87404
102
}
330
EF7C87404
100
AcDbXrecord
 10
0.0
 20
0.0
 30
0.0
  0
XRECORD
  5
EF7C87422
102
{ACAD_REACTORS
330
EF7C87404
102
}
330
EF7C87404
100
AcDbXrecord
 10
0.0
 20
0.0
 30
0.0
  0
XRECORD
  5
EF7C8741F
102
{ACAD_REACTORS
330
EF7C87404
102
}
330
EF7C87404
100
AcDbXrecord
 10
0.0
 20
0.0
 30
0.0
  0
XRECORD
  5
EF7C8741C
102
{ACAD_REACTORS
330
EF7C87404
102
}
330
EF7C87404
100
AcDbXrecord
340
0
  0
XRECORD
  5
EF7C8741D
102
{ACAD_REACTORS
330
EF7C87404
102
}
330
EF7C87404
100
AcDbXrecord
 70
     0
  0
XRECORD
  5
EF7C87410
102
{ACAD_REACTORS
330
EF7C87404
102
}
330
EF7C87404
100
AcDbXrecord
  1
{2D285E3F-CEBB-44AA-B2F6-03F3B8DE1BC7}
  0
DICTIONARYVAR
  5
EF7C870C8
102
{ACAD_REACTORS
330
EF7C85FA1
102
}
330
EF7C85FA1
100
DictionaryVariables
280
     0
  1
0
  0
DICTIONARYVAR
  5
EF7C85FA2
102
{ACAD_REACTORS
330
EF7C85FA1
102
}
330
EF7C85FA1
100
DictionaryVariables
280
     0
  1
96
  0
ENDSEC
  0
EOF
