  0
SECTION
  2
HEADER
  9
$ACADVER
  1
AC1014
  9
$ACADMAINTVER
 70
     9
  9
$DWGCODEPAGE
  3
ANSI_932
  9
$INSBASE
 10
0.0
 20
0.0
 30
0.0
  9
$EXTMIN
 10
0.0
 20
0.0
 30
0.0
  9
$EXTMAX
 10
361.9999985519998
 20
282.9999999999999
 30
0.0
  9
$LIMMIN
 10
0.0
 20
0.0
  9
$LIMMAX
 10
181.0
 20
283.0
  9
$ORTHOMODE
 70
     1
  9
$REGENMODE
 70
     1
  9
$FILLMODE
 70
     1
  9
$QTEXTMODE
 70
     0
  9
$MIRRTEXT
 70
     0
  9
$DRAGMODE
 70
     2
  9
$LTSCALE
 40
5.0
  9
$OSMODE
 70
   167
  9
$ATTMODE
 70
     1
  9
$TEXTSIZE
 40
3.0
  9
$TRACEWID
 40
0.05
  9
$TEXTSTYLE
  7
BIGFONT
  9
$CLAYER
  8
JISSEN
  9
$CELTYPE
  6
BYLAYER
  9
$CECOLOR
 62
   256
  9
$CELTSCALE
 40
1.0
  9
$DELOBJ
 70
     1
  9
$DISPSILH
 70
     0
  9
$DIMSCALE
 40
1.0
  9
$DIMASZ
 40
1.5
  9
$DIMEXO
 40
1.0
  9
$DIMDLI
 40
6.0
  9
$DIMRND
 40
0.0
  9
$DIMDLE
 40
0.0
  9
$DIMEXE
 40
1.0
  9
$DIMTP
 40
0.0
  9
$DIMTM
 40
0.0
  9
$DIMTXT
 40
3.0
  9
$DIMCEN
 40
1.0
  9
$DIMTSZ
 40
0.0
  9
$DIMTOL
 70
     0
  9
$DIMLIM
 70
     0
  9
$DIMTIH
 70
     0
  9
$DIMTOH
 70
     0
  9
$DIMSE1
 70
     0
  9
$DIMSE2
 70
     0
  9
$DIMTAD
 70
     0
  9
$DIMZIN
 70
     8
  9
$DIMBLK
  1
ARROW
  9
$DIMASO
 70
     0
  9
$DIMSHO
 70
     0
  9
$DIMPOST
  1

  9
$DIMAPOST
  1

  9
$DIMALT
 70
     0
  9
$DIMALTD
 70
     2
  9
$DIMALTF
 40
25.4
  9
$DIMLFAC
 40
1.0
  9
$DIMTOFL
 70
     1
  9
$DIMTVP
 40
0.0
  9
$DIMTIX
 70
     0
  9
$DIMSOXD
 70
     0
  9
$DIMSAH
 70
     0
  9
$DIMBLK1
  1
ARROWANG
  9
$DIMBLK2
  1
ARROWANG
  9
$DIMSTYLE
  2
IMAO
  9
$DIMCLRD
 70
     0
  9
$DIMCLRE
 70
     0
  9
$DIMCLRT
 70
     0
  9
$DIMTFAC
 40
1.0
  9
$DIMGAP
 40
0.09
  9
$DIMJUST
 70
     0
  9
$DIMSD1
 70
     0
  9
$DIMSD2
 70
     0
  9
$DIMTOLJ
 70
     1
  9
$DIMTZIN
 70
     8
  9
$DIMALTZ
 70
     8
  9
$DIMALTTZ
 70
     8
  9
$DIMFIT
 70
     3
  9
$DIMUPT
 70
     0
  9
$DIMUNIT
 70
     2
  9
$DIMDEC
 70
     2
  9
$DIMTDEC
 70
     2
  9
$DIMALTU
 70
     2
  9
$DIMALTTD
 70
     2
  9
$DIMTXSTY
  7
BIGFONT
  9
$DIMAUNIT
 70
     0
  9
$LUNITS
 70
     2
  9
$LUPREC
 70
     2
  9
$SKETCHINC
 40
0.1
  9
$FILLETRAD
 40
0.2
  9
$AUNITS
 70
     0
  9
$AUPREC
 70
     2
  9
$MENU
  1
stdr12j
  9
$ELEVATION
 40
0.0
  9
$PELEVATION
 40
0.0
  9
$THICKNESS
 40
0.0
  9
$LIMCHECK
 70
     0
  9
$BLIPMODE
 70
     0
  9
$CHAMFERA
 40
0.0
  9
$CHAMFERB
 40
0.0
  9
$CHAMFERC
 40
0.0
  9
$CHAMFERD
 40
0.0
  9
$SKPOLY
 70
     0
  9
$TDCREATE
 40
2450617.453041203
  9
$TDUPDATE
 40
2454146.706071666
  9
$TDINDWG
 40
0.1210590278
  9
$TDUSRTIMER
 40
0.1210590278
  9
$USRTIMER
 70
     1
  9
$ANGBASE
 50
0.0
  9
$ANGDIR
 70
     0
  9
$PDMODE
 70
     0
  9
$PDSIZE
 40
0.0
  9
$PLINEWID
 40
0.0
  9
$COORDS
 70
     2
  9
$SPLFRAME
 70
     0
  9
$SPLINETYPE
 70
     6
  9
$SPLINESEGS
 70
     8
  9
$ATTDIA
 70
     0
  9
$ATTREQ
 70
     1
  9
$HANDLING
 70
 22529
  9
$HANDSEED
  5
EF7C88997
  9
$SURFTAB1
 70
     6
  9
$SURFTAB2
 70
     6
  9
$SURFTYPE
 70
     6
  9
$SURFU
 70
     6
  9
$SURFV
 70
     6
  9
$UCSNAME
  2

  9
$UCSORG
 10
0.0
 20
0.0
 30
0.0
  9
$UCSXDIR
 10
1.0
 20
0.0
 30
0.0
  9
$UCSYDIR
 10
0.0
 20
1.0
 30
0.0
  9
$PUCSNAME
  2

  9
$PUCSORG
 10
0.0
 20
0.0
 30
0.0
  9
$PUCSXDIR
 10
1.0
 20
0.0
 30
0.0
  9
$PUCSYDIR
 10
0.0
 20
1.0
 30
0.0
  9
$USERI1
 70
     0
  9
$USERI2
 70
     1
  9
$USERI3
 70
     1
  9
$USERI4
 70
     3
  9
$USERI5
 70
     0
  9
$USERR1
 40
1.0
  9
$USERR2
 40
3.0
  9
$USERR3
 40
3.0
  9
$USERR4
 40
1.5
  9
$USERR5
 40
8.0
  9
$WORLDVIEW
 70
     1
  9
$SHADEDGE
 70
     3
  9
$SHADEDIF
 70
    70
  9
$TILEMODE
 70
     1
  9
$MAXACTVP
 70
    16
  9
$PINSBASE
 10
0.0
 20
0.0
 30
0.0
  9
$PLIMCHECK
 70
     0
  9
$PEXTMIN
 10
1.000000000000000E+20
 20
1.000000000000000E+20
 30
1.000000000000000E+20
  9
$PEXTMAX
 10
-1.000000000000000E+20
 20
-1.000000000000000E+20
 30
-1.000000000000000E+20
  9
$PLIMMIN
 10
0.0
 20
0.0
  9
$PLIMMAX
 10
12.0
 20
9.0
  9
$UNITMODE
 70
     0
  9
$VISRETAIN
 70
     0
  9
$PLINEGEN
 70
     0
  9
$PSLTSCALE
 70
     0
  9
$TREEDEPTH
 70
  3020
  9
$PICKSTYLE
 70
     1
  9
$CMLSTYLE
  2
STANDARD
  9
$CMLJUST
 70
     0
  9
$CMLSCALE
 40
1.0
  9
$PROXYGRAPHICS
 70
     1
  9
$MEASUREMENT
 70
     0
  0
ENDSEC
  0
SECTION
  2
CLASSES
  0
CLASS
  1
LWPOLYLINE
  2
AcDbPolyline
  3
AutoCAD 2000
 90
        0
280
     0
281
     1
  0
CLASS
  1
HATCH
  2
AcDbHatch
  3
AutoCAD 2000
 90
        0
280
     0
281
     1
  0
CLASS
  1
ACDBDICTIONARYWDFLT
  2
AcDbDictionaryWithDefault
  3
AutoCAD 2000
 90
        0
280
     0
281
     0
  0
CLASS
  1
ACDBPLACEHOLDER
  2
AcDbPlaceHolder
  3
AutoCAD 2000
 90
        0
280
     0
281
     0
  0
CLASS
  1
LAYOUT
  2
AcDbLayout
  3
AutoCAD 2000
 90
        0
280
     0
281
     0
  0
CLASS
  1
LONG_TRANSACTION
  2
AcDbLongTransaction
  3
AutoCAD 2000
 90
        0
280
     0
281
     0
  0
CLASS
  1
LWPOLYLINE
  2
AcDbPolyline
  3
AutoCAD 2000
 90
        0
280
     0
281
     1
  0
CLASS
  1
HATCH
  2
AcDbHatch
  3
AutoCAD 2000
 90
        0
280
     0
281
     1
  0
CLASS
  1
XRECORD
  2
AcDbXrecord
  3
AutoCAD 2000
 90
        0
280
     0
281
     0
  0
CLASS
  1
DICTIONARYVAR
  2
AcDbDictionaryVar
  3
AutoCAD 2000
 90
        0
280
     0
281
     0
  0
CLASS
  1
LONG_TRANSACTION
  2
AcDbLongTransaction
  3
AutoCAD 2000
 90
        0
280
     0
281
     0
  0
CLASS
  1
LWPOLYLINE
  2
AcDbPolyline
  3
AutoCAD 2000
 90
        0
280
     0
281
     1
  0
CLASS
  1
HATCH
  2
AcDbHatch
  3
AutoCAD 2000
 90
        0
280
     0
281
     1
  0
CLASS
  1
XRECORD
  2
AcDbXrecord
  3
AutoCAD 2000
 90
        0
280
     0
281
     0
  0
CLASS
  1
LONG_TRANSACTION
  2
AcDbLongTransaction
  3
AutoCAD 2000
 90
        0
280
     0
281
     0
  0
CLASS
  1
LWPOLYLINE
  2
AcDbPolyline
  3
AutoCAD 2000
 90
        0
280
     0
281
     1
  0
CLASS
  1
HATCH
  2
AcDbHatch
  3
AutoCAD 2000
 90
        0
280
     0
281
     1
  0
CLASS
  1
XRECORD
  2
AcDbXrecord
  3
AutoCAD 2000
 90
        0
280
     0
281
     0
  0
CLASS
  1
LONG_TRANSACTION
  2
AcDbLongTransaction
  3
AutoCAD 2000
 90
        0
280
     0
281
     0
  0
CLASS
  1
LWPOLYLINE
  2
AcDbPolyline
  3
AutoCAD 2000
 90
        0
280
     0
281
     1
  0
CLASS
  1
HATCH
  2
AcDbHatch
  3
AutoCAD 2000
 90
        0
280
     0
281
     1
  0
CLASS
  1
XRECORD
  2
AcDbXrecord
  3
AutoCAD 2000
 90
        0
280
     0
281
     0
  0
CLASS
  1
LONG_TRANSACTION
  2
AcDbLongTransaction
  3
AutoCAD 2000
 90
        0
280
     0
281
     0
  0
CLASS
  1
LWPOLYLINE
  2
AcDbPolyline
  3
AutoCAD 2000
 90
        0
280
     0
281
     1
  0
CLASS
  1
HATCH
  2
AcDbHatch
  3
AutoCAD 2000
 90
        0
280
     0
281
     1
  0
CLASS
  1
XRECORD
  2
AcDbXrecord
  3
AutoCAD 2000
 90
        0
280
     0
281
     0
  0
CLASS
  1
LONG_TRANSACTION
  2
AcDbLongTransaction
  3
AutoCAD 2000
 90
        0
280
     0
281
     0
  0
CLASS
  1
LWPOLYLINE
  2
AcDbPolyline
  3
AutoCAD 2000
 90
        0
280
     0
281
     1
  0
CLASS
  1
HATCH
  2
AcDbHatch
  3
AutoCAD 2000
 90
        0
280
     0
281
     1
  0
CLASS
  1
XRECORD
  2
AcDbXrecord
  3
AutoCAD 2000
 90
        0
280
     0
281
     0
  0
CLASS
  1
LONG_TRANSACTION
  2
AcDbLongTransaction
  3
AutoCAD 2000
 90
        0
280
     0
281
     0
  0
CLASS
  1
LWPOLYLINE
  2
AcDbPolyline
  3
AutoCAD 2000
 90
        0
280
     0
281
     1
  0
CLASS
  1
HATCH
  2
AcDbHatch
  3
AutoCAD 2000
 90
        0
280
     0
281
     1
  0
CLASS
  1
XRECORD
  2
AcDbXrecord
  3
AutoCAD 2000
 90
        0
280
     0
281
     0
  0
CLASS
  1
LONG_TRANSACTION
  2
AcDbLongTransaction
  3
AutoCAD 2000
 90
        0
280
     0
281
     0
  0
CLASS
  1
LWPOLYLINE
  2
AcDbPolyline
  3
AutoCAD 2000
 90
        0
280
     0
281
     1
  0
CLASS
  1
HATCH
  2
AcDbHatch
  3
AutoCAD 2000
 90
        0
280
     0
281
     1
  0
CLASS
  1
XRECORD
  2
AcDbXrecord
  3
AutoCAD 2000
 90
        0
280
     0
281
     0
  0
CLASS
  1
LONG_TRANSACTION
  2
AcDbLongTransaction
  3
AutoCAD 2000
 90
        0
280
     0
281
     0
  0
CLASS
  1
LWPOLYLINE
  2
AcDbPolyline
  3
AutoCAD 2000
 90
        0
280
     0
281
     1
  0
CLASS
  1
HATCH
  2
AcDbHatch
  3
AutoCAD 2000
 90
        0
280
     0
281
     1
  0
CLASS
  1
XRECORD
  2
AcDbXrecord
  3
AutoCAD 2000
 90
        0
280
     0
281
     0
  0
CLASS
  1
LONG_TRANSACTION
  2
AcDbLongTransaction
  3
AutoCAD 2000
 90
        0
280
     0
281
     0
  0
CLASS
  1
LWPOLYLINE
  2
AcDbPolyline
  3
AutoCAD 2000
 90
        0
280
     0
281
     1
  0
CLASS
  1
HATCH
  2
AcDbHatch
  3
AutoCAD 2000
 90
        0
280
     0
281
     1
  0
CLASS
  1
XRECORD
  2
AcDbXrecord
  3
AutoCAD 2000
 90
        0
280
     0
281
     0
  0
CLASS
  1
LONG_TRANSACTION
  2
AcDbLongTransaction
  3
AutoCAD 2000
 90
        0
280
     0
281
     0
  0
CLASS
  1
LWPOLYLINE
  2
AcDbPolyline
  3
AutoCAD 2000
 90
        0
280
     0
281
     1
  0
CLASS
  1
HATCH
  2
AcDbHatch
  3
AutoCAD 2000
 90
        0
280
     0
281
     1
  0
CLASS
  1
XRECORD
  2
AcDbXrecord
  3
AutoCAD 2000
 90
        0
280
     0
281
     0
  0
CLASS
  1
LONG_TRANSACTION
  2
AcDbLongTransaction
  3
AutoCAD 2000
 90
        0
280
     0
281
     0
  0
CLASS
  1
LWPOLYLINE
  2
AcDbPolyline
  3
AutoCAD 2000
 90
        0
280
     0
281
     1
  0
CLASS
  1
HATCH
  2
AcDbHatch
  3
AutoCAD 2000
 90
        0
280
     0
281
     1
  0
CLASS
  1
XRECORD
  2
AcDbXrecord
  3
AutoCAD 2000
 90
        0
280
     0
281
     0
  0
CLASS
  1
LONG_TRANSACTION
  2
AcDbLongTransaction
  3
AutoCAD 2000
 90
        0
280
     0
281
     0
  0
CLASS
  1
LWPOLYLINE
  2
AcDbPolyline
  3
AutoCAD 2000
 90
        0
280
     0
281
     1
  0
CLASS
  1
HATCH
  2
AcDbHatch
  3
AutoCAD 2000
 90
        0
280
     0
281
     1
  0
CLASS
  1
XRECORD
  2
AcDbXrecord
  3
AutoCAD 2000
 90
        0
280
     0
281
     0
  0
CLASS
  1
LONG_TRANSACTION
  2
AcDbLongTransaction
  3
AutoCAD 2000
 90
        0
280
     0
281
     0
  0
CLASS
  1
LWPOLYLINE
  2
AcDbPolyline
  3
AutoCAD 2000
 90
        0
280
     0
281
     1
  0
CLASS
  1
HATCH
  2
AcDbHatch
  3
AutoCAD 2000
 90
        0
280
     0
281
     1
  0
CLASS
  1
XRECORD
  2
AcDbXrecord
  3
AutoCAD 2000
 90
        0
280
     0
281
     0
  0
CLASS
  1
LONG_TRANSACTION
  2
AcDbLongTransaction
  3
AutoCAD 2000
 90
        0
280
     0
281
     0
  0
CLASS
  1
LWPOLYLINE
  2
AcDbPolyline
  3
AutoCAD 2000
 90
        0
280
     0
281
     1
  0
CLASS
  1
HATCH
  2
AcDbHatch
  3
AutoCAD 2000
 90
        0
280
     0
281
     1
  0
CLASS
  1
XRECORD
  2
AcDbXrecord
  3
AutoCAD 2000
 90
        0
280
     0
281
     0
  0
CLASS
  1
LONG_TRANSACTION
  2
AcDbLongTransaction
  3
AutoCAD 2000
 90
        0
280
     0
281
     0
  0
CLASS
  1
LWPOLYLINE
  2
AcDbPolyline
  3
AutoCAD 2000
 90
        0
280
     0
281
     1
  0
CLASS
  1
HATCH
  2
AcDbHatch
  3
AutoCAD 2000
 90
        0
280
     0
281
     1
  0
CLASS
  1
XRECORD
  2
AcDbXrecord
  3
AutoCAD 2000
 90
        0
280
     0
281
     0
  0
ENDSEC
  0
SECTION
  2
TABLES
  0
TABLE
  2
VPORT
  5
EF7C85523
330
0
100
AcDbSymbolTable
 70
    10
  0
VPORT
  5
EF7C85567
330
EF7C85523
100
AcDbSymbolTableRecord
100
AcDbViewportTableRecord
  2
2
 70
     0
 10
0.5
 20
0.0
 11
1.0
 21
1.0
 12
0.9240312421264802
 22
1.052650975462765
 13
0.0
 23
0.0
 14
1.0
 24
1.0
 15
10.0
 25
10.0
 16
0.0
 26
0.0
 36
1.0
 17
0.0
 27
0.0
 37
0.0
 40
2.105301950925533
 41
0.8778135048231511
 42
50.0
 43
0.0
 44
0.0
 50
0.0
 51
0.0
 71
     0
 72
   500
 73
     1
 74
     1
 75
     0
 76
     0
 77
     0
 78
     0
  0
VPORT
  5
EF7C85568
330
EF7C85523
100
AcDbSymbolTableRecord
100
AcDbViewportTableRecord
  2
2
 70
     0
 10
0.0
 20
0.0
 11
0.5
 21
1.0
 12
0.9240312421264802
 22
1.052650975462765
 13
0.0
 23
0.0
 14
1.0
 24
1.0
 15
10.0
 25
10.0
 16
0.0
 26
0.0
 36
1.0
 17
0.0
 27
0.0
 37
0.0
 40
2.105301950925533
 41
0.8778135048231511
 42
50.0
 43
0.0
 44
0.0
 50
0.0
 51
0.0
 71
     0
 72
   500
 73
     1
 74
     1
 75
     0
 76
     0
 77
     0
 78
     0
  0
VPORT
  5
EF7C85569
330
EF7C85523
100
AcDbSymbolTableRecord
100
AcDbViewportTableRecord
  2
3
 70
     0
 10
0.0
 20
0.5
 11
1.0
 21
1.0
 12
2.832169994473273
 22
1.052650975462765
 13
0.0
 23
0.0
 14
1.0
 24
1.0
 15
10.0
 25
10.0
 16
0.0
 26
0.0
 36
1.0
 17
0.0
 27
0.0
 37
0.0
 40
2.105301950925533
 41
3.571428571428571
 42
50.0
 43
0.0
 44
0.0
 50
0.0
 51
0.0
 71
     0
 72
   500
 73
     1
 74
     1
 75
     0
 76
     0
 77
     0
 78
     0
  0
VPORT
  5
EF7C8556A
330
EF7C85523
100
AcDbSymbolTableRecord
100
AcDbViewportTableRecord
  2
3
 70
     0
 10
0.0
 20
0.0
 11
1.0
 21
0.5
 12
2.856741679241311
 22
1.052650975462765
 13
0.0
 23
0.0
 14
1.0
 24
1.0
 15
10.0
 25
10.0
 16
0.0
 26
0.0
 36
1.0
 17
0.0
 27
0.0
 37
0.0
 40
2.105301950925533
 41
3.594771241830064
 42
50.0
 43
0.0
 44
0.0
 50
0.0
 51
0.0
 71
     0
 72
   500
 73
     1
 74
     1
 75
     0
 76
     0
 77
     0
 78
     0
  0
VPORT
  5
EF7C8556B
330
EF7C85523
100
AcDbSymbolTableRecord
100
AcDbViewportTableRecord
  2
4
 70
     0
 10
0.5
 20
0.0
 11
1.0
 21
0.5
 12
2.886857516709718
 22
1.052650975462765
 13
0.0
 23
0.0
 14
1.0
 24
1.0
 15
10.0
 25
10.0
 16
0.0
 26
0.0
 36
1.0
 17
0.0
 27
0.0
 37
0.0
 40
4.275207030309069
 41
1.784313725490195
 42
50.0
 43
0.0
 44
0.0
 50
0.0
 51
0.0
 71
     0
 72
   500
 73
     1
 74
     1
 75
     0
 76
     0
 77
     0
 78
     0
  0
VPORT
  5
EF7C8556C
330
EF7C85523
100
AcDbSymbolTableRecord
100
AcDbViewportTableRecord
  2
4
 70
     0
 10
0.5
 20
0.5
 11
1.0
 21
1.0
 12
2.862090274555523
 22
1.052650975462765
 13
0.0
 23
0.0
 14
1.0
 24
1.0
 15
10.0
 25
10.0
 16
0.0
 26
0.0
 36
1.0
 17
0.0
 27
0.0
 37
0.0
 40
4.275207030309069
 41
1.772727272727271
 42
50.0
 43
0.0
 44
0.0
 50
0.0
 51
0.0
 71
     0
 72
   500
 73
     1
 74
     1
 75
     0
 76
     0
 77
     0
 78
     0
  0
VPORT
  5
EF7C8556D
330
EF7C85523
100
AcDbSymbolTableRecord
100
AcDbViewportTableRecord
  2
4
 70
     0
 10
0.0
 20
0.5
 11
0.5
 21
1.0
 12
2.862090274555523
 22
1.052650975462765
 13
0.0
 23
0.0
 14
1.0
 24
1.0
 15
10.0
 25
10.0
 16
0.0
 26
0.0
 36
1.0
 17
0.0
 27
0.0
 37
0.0
 40
4.275207030309069
 41
1.772727272727271
 42
50.0
 43
0.0
 44
0.0
 50
0.0
 51
0.0
 71
     0
 72
   500
 73
     1
 74
     1
 75
     0
 76
     0
 77
     0
 78
     0
  0
VPORT
  5
EF7C8556E
330
EF7C85523
100
AcDbSymbolTableRecord
100
AcDbViewportTableRecord
  2
4
 70
     0
 10
0.0
 20
0.0
 11
0.5
 21
0.5
 12
2.886857516709718
 22
1.052650975462765
 13
0.0
 23
0.0
 14
1.0
 24
1.0
 15
10.0
 25
10.0
 16
0.0
 26
0.0
 36
1.0
 17
0.0
 27
0.0
 37
0.0
 40
4.275207030309069
 41
1.784313725490195
 42
50.0
 43
0.0
 44
0.0
 50
0.0
 51
0.0
 71
     0
 72
   500
 73
     1
 74
     1
 75
     0
 76
     0
 77
     0
 78
     0
  0
VPORT
  5
EF7C88973
330
EF7C85523
100
AcDbSymbolTableRecord
100
AcDbViewportTableRecord
  2
*ACTIVE
 70
     0
 10
0.0
 20
0.0
 11
1.0
 21
1.0
 12
229.4333334329901
 22
141.5000006589106
 13
0.0
 23
0.0
 14
1.0
 24
1.0
 15
10.0
 25
10.0
 16
0.0
 26
0.0
 36
1.0
 17
0.0
 27
0.0
 37
0.0
 40
284.9309312489039
 41
1.764444444444444
 42
50.0
 43
0.0
 44
0.0
 50
0.0
 51
0.0
 71
     0
 72
   500
 73
     1
 74
     0
 75
     0
 76
     0
 77
     0
 78
     0
  0
ENDTAB
  0
TABLE
  2
LTYPE
  5
EF7C85520
330
0
100
AcDbSymbolTable
 70
     3
  0
LTYPE
  5
EF7C8552C
330
EF7C85520
100
AcDbSymbolTableRecord
100
AcDbLinetypeTableRecord
  2
BYBLOCK
 70
     0
  3

 72
    65
 73
     0
 40
0.0
  0
LTYPE
  5
EF7C8552D
330
EF7C85520
100
AcDbSymbolTableRecord
100
AcDbLinetypeTableRecord
  2
BYLAYER
 70
     0
  3

 72
    65
 73
     0
 40
0.0
  0
LTYPE
  5
EF7C8552E
330
EF7C85520
100
AcDbSymbolTableRecord
100
AcDbLinetypeTableRecord
  2
CONTINUOUS
 70
     0
  3
実線
 72
    65
 73
     0
 40
0.0
  0
LTYPE
  5
EF7C85565
330
EF7C85520
100
AcDbSymbolTableRecord
100
AcDbLinetypeTableRecord
  2
PHANTOM
 70
     0
  3
_____ _ _ _____ _ _ _____ _ _ _____ _ _ ____
 72
    65
 73
     6
 40
2.5
 49
1.25
 74
     0
 49
-0.25
 74
     0
 49
0.25
 74
     0
 49
-0.25
 74
     0
 49
0.25
 74
     0
 49
-0.25
 74
     0
  0
LTYPE
  5
EF7C87DCB
330
EF7C85520
100
AcDbSymbolTableRecord
100
AcDbLinetypeTableRecord
  2
HIDDEN
 70
     0
  3
_ _ _ _ _ _ _ _ _ _ _ _ _ _ _ _ _ _ _ _ _ _ _
 72
    65
 73
     2
 40
0.375
 49
0.25
 74
     0
 49
-0.125
 74
     0
  0
ENDTAB
  0
TABLE
  2
LAYER
  5
EF7C8551D
102
{ACAD_XDICTIONARY
360
EF7C87ED7
102
}
330
0
100
AcDbSymbolTable
 70
     9
  0
LAYER
  5
EF7C85529
330
EF7C8551D
100
AcDbSymbolTableRecord
100
AcDbLayerTableRecord
  2
0
 70
     0
 62
     6
  6
CONTINUOUS
  0
LAYER
  5
EF7C85574
330
EF7C8551D
100
AcDbSymbolTableRecord
100
AcDbLayerTableRecord
  2
NITEN
 70
     0
 62
     2
  6
PHANTOM
  0
LAYER
  5
EF7C85575
330
EF7C8551D
100
AcDbSymbolTableRecord
100
AcDbLayerTableRecord
  2
HATCH
 70
     0
 62
     4
  6
CONTINUOUS
  0
LAYER
  5
EF7C85576
330
EF7C8551D
100
AcDbSymbolTableRecord
100
AcDbLayerTableRecord
  2
SUNPOU
 70
     0
 62
     3
  6
CONTINUOUS
  0
LAYER
  5
EF7C85577
330
EF7C8551D
100
AcDbSymbolTableRecord
100
AcDbLayerTableRecord
  2
TEXT
 70
     0
 62
     3
  6
CONTINUOUS
  0
LAYER
  5
EF7C85578
330
EF7C8551D
100
AcDbSymbolTableRecord
100
AcDbLayerTableRecord
  2
SAISEN
 70
     0
 62
     4
  6
CONTINUOUS
  0
LAYER
  5
EF7C85579
330
EF7C8551D
100
AcDbSymbolTableRecord
100
AcDbLayerTableRecord
  2
JISSEN
 70
     0
 62
     7
  6
CONTINUOUS
  0
LAYER
  5
EF7C8557D
330
EF7C8551D
100
AcDbSymbolTableRecord
100
AcDbLayerTableRecord
  2
WAKU
 70
     0
 62
     5
  6
CONTINUOUS
  0
LAYER
  5
EF7C87DCD
330
EF7C8551D
100
AcDbSymbolTableRecord
100
AcDbLayerTableRecord
  2
TENSEN
 70
     0
 62
     2
  6
HIDDEN
  0
ENDTAB
  0
TABLE
  2
STYLE
  5
EF7C8551E
330
0
100
AcDbSymbolTable
 70
     5
  0
STYLE
  5
EF7C8552A
330
EF7C8551E
100
AcDbSymbolTableRecord
100
AcDbTextStyleTableRecord
  2
STANDARD
 70
     0
 40
0.0
 41
1.0
 50
0.0
 71
     0
 42
1.5
  3
SIMPLEX
  4

  0
STYLE
  5
EF7C85558
330
EF7C8551E
100
AcDbSymbolTableRecord
100
AcDbTextStyleTableRecord
  2
K
 70
     0
 40
0.0
 41
1.0
 50
0.0
 71
     0
 42
3.0
  3
ROMANS
  4
BIGFONT
  0
STYLE
  5
EF7C8555B
330
EF7C8551E
100
AcDbSymbolTableRecord
100
AcDbTextStyleTableRecord
  2
BIGFONT
 70
     0
 40
0.0
 41
1.0
 50
0.0
 71
     0
 42
3.0
  3
txt.shx
  4
bigfont
  0
STYLE
  5
EF7C87DCE
330
EF7C8551E
100
AcDbSymbolTableRecord
100
AcDbTextStyleTableRecord
  2
ROMANS
 70
     0
 40
0.0
 41
0.8
 50
0.0
 71
     0
 42
6.0
  3
romans
  4

  0
STYLE
  5
EF7C88231
330
EF7C8551E
100
AcDbSymbolTableRecord
100
AcDbTextStyleTableRecord
  2
DIMENSION
 70
     0
 40
0.0
 41
1.0
 50
0.0
 71
     0
 42
2.5
  3
TXT
  4

  0
ENDTAB
  0
TABLE
  2
VIEW
  5
EF7C85521
330
0
100
AcDbSymbolTable
 70
     0
  0
ENDTAB
  0
TABLE
  2
UCS
  5
EF7C85522
330
0
100
AcDbSymbolTable
 70
     0
  0
ENDTAB
  0
TABLE
  2
APPID
  5
EF7C85524
330
0
100
AcDbSymbolTable
 70
     1
  0
APPID
  5
EF7C8552B
330
EF7C85524
100
AcDbSymbolTableRecord
100
AcDbRegAppTableRecord
  2
ACAD
 70
     0
  0
ENDTAB
  0
TABLE
  2
DIMSTYLE
  5
EF7C85525
330
0
100
AcDbSymbolTable
 70
     2
  0
DIMSTYLE
105
EF7C85571
330
EF7C85525
100
AcDbSymbolTableRecord
100
AcDbDimStyleTableRecord
  2
IMAO
 70
     0
  3

  4

  5
ARROWANG
  6
ARROWANG
  7
ARROWANG
 40
1.0
 41
1.5
 42
1.0
 43
6.0
 44
1.0
 45
0.0
 46
0.0
 47
495.0
 48
0.0
140
3.0
141
0.0
142
0.0
143
25.4
144
1.0
145
0.0
146
1.0
147
0.09
 71
     0
 72
     0
 73
     0
 74
     0
 75
     0
 76
     0
 77
     1
 78
     8
170
     0
171
     2
172
     1
173
     0
174
     1
175
     0
176
     0
177
     0
178
     0
270
     2
271
     2
272
     2
273
     2
274
     2
340
EF7C8555B
275
     0
280
     0
281
     0
282
     0
283
     1
284
     8
285
     8
286
     8
287
     3
288
     0
  0
DIMSTYLE
105
EF7C88232
330
EF7C85525
100
AcDbSymbolTableRecord
100
AcDbDimStyleTableRecord
  2
STANDARD
 70
     0
  3

  4

  5
AR_OPEN
  6

  7

 40
0.5
 41
2.0
 42
0.1
 43
10.0
 44
1.5
 45
0.0
 46
0.0
 47
0.0
 48
0.0
140
3.0
141
0.09
142
0.0
143
25.4
144
1.0
145
1.0
146
1.0
147
0.1
 71
     0
 72
     0
 73
     0
 74
     0
 75
     0
 76
     0
 77
     0
 78
     8
170
     0
171
     2
172
     1
173
     0
174
     0
175
     0
176
   256
177
   256
178
   256
270
     2
271
     2
272
     2
273
     2
274
     2
340
EF7C88231
275
     0
280
     0
281
     0
282
     0
283
     1
284
     8
285
     0
286
     0
287
     3
288
     0
  0
ENDTAB
  0
TABLE
  2
BLOCK_RECORD
  5
EF7C8551C
330
0
100
AcDbSymbolTable
 70
    13
  0
BLOCK_RECORD
  5
EF7C85532
102
{ACAD_XDICTIONARY
360
EF7C85D9A
102
}
330
EF7C8551C
100
AcDbSymbolTableRecord
100
AcDbBlockTableRecord
  2
*MODEL_SPACE
  0
BLOCK_RECORD
  5
EF7C8552F
102
{ACAD_XDICTIONARY
360
EF7C85D98
102
}
330
EF7C8551C
100
AcDbSymbolTableRecord
100
AcDbBlockTableRecord
  2
*PAPER_SPACE
  0
BLOCK_RECORD
  5
EF7C85537
330
EF7C8551C
100
AcDbSymbolTableRecord
100
AcDbBlockTableRecord
  2
ARROW
  0
BLOCK_RECORD
  5
EF7C8553B
330
EF7C8551C
100
AcDbSymbolTableRecord
100
AcDbBlockTableRecord
  2
WAKU
  0
BLOCK_RECORD
  5
EF7C8553D
330
EF7C8551C
100
AcDbSymbolTableRecord
100
AcDbBlockTableRecord
  2
*X2
  0
BLOCK_RECORD
  5
EF7C8553E
330
EF7C8551C
100
AcDbSymbolTableRecord
100
AcDbBlockTableRecord
  2
STDGX5
  0
BLOCK_RECORD
  5
EF7C8553F
330
EF7C8551C
100
AcDbSymbolTableRecord
100
AcDbBlockTableRecord
  2
*X4
  0
BLOCK_RECORD
  5
EF7C85540
330
EF7C8551C
100
AcDbSymbolTableRecord
100
AcDbBlockTableRecord
  2
*X5
  0
BLOCK_RECORD
  5
EF7C85541
330
EF7C8551C
100
AcDbSymbolTableRecord
100
AcDbBlockTableRecord
  2
*X6
  0
BLOCK_RECORD
  5
EF7C85542
330
EF7C8551C
100
AcDbSymbolTableRecord
100
AcDbBlockTableRecord
  2
*X7
  0
BLOCK_RECORD
  5
EF7C85543
330
EF7C8551C
100
AcDbSymbolTableRecord
100
AcDbBlockTableRecord
  2
ARROWANG
  0
BLOCK_RECORD
  5
EF7C85544
330
EF7C8551C
100
AcDbSymbolTableRecord
100
AcDbBlockTableRecord
  2
STDR12J
  0
BLOCK_RECORD
  5
EF7C87827
330
EF7C8551C
100
AcDbSymbolTableRecord
100
AcDbBlockTableRecord
  2
*X10
  0
BLOCK_RECORD
  5
EF7C8783B
330
EF7C8551C
100
AcDbSymbolTableRecord
100
AcDbBlockTableRecord
  2
*X11
  0
BLOCK_RECORD
  5
EF7C88229
330
EF7C8551C
100
AcDbSymbolTableRecord
100
AcDbBlockTableRecord
  2
AR_OPEN
  0
ENDTAB
  0
ENDSEC
  0
SECTION
  2
BLOCKS
  0
BLOCK
  5
EF7C85580
330
EF7C85532
100
AcDbEntity
  8
0
100
AcDbBlockBegin
  2
*MODEL_SPACE
 70
     0
 10
0.0
 20
0.0
 30
0.0
  3
*MODEL_SPACE
  1

  0
ENDBLK
  5
EF7C85581
330
EF7C85532
100
AcDbEntity
  8
0
100
AcDbBlockEnd
  0
BLOCK
  5
EF7C8557E
330
EF7C8552F
100
AcDbEntity
 67
     1
  8
0
100
AcDbBlockBegin
  2
*PAPER_SPACE
 70
     0
 10
0.0
 20
0.0
 30
0.0
  3
*PAPER_SPACE
  1

  0
ENDBLK
  5
EF7C8557F
330
EF7C8552F
100
AcDbEntity
 67
     1
  8
0
100
AcDbBlockEnd
  0
BLOCK
  5
499
330
EF7C85537
100
AcDbEntity
  8
0
100
AcDbBlockBegin
  2
ARROW
 70
     0
 10
1.0
 20
0.5
 30
0.0
  3
ARROW
  1

  0
LINE
  5
49A
330
EF7C85537
100
AcDbEntity
  8
0
100
AcDbLine
 10
1.0
 20
0.5
 30
0.0
 11
-0.5000000000000214
 21
0.0980762113533018
 31
0.0
  0
LINE
  5
49B
330
EF7C85537
100
AcDbEntity
  8
0
100
AcDbLine
 10
0.0
 20
0.5
 30
0.0
 11
1.0
 21
0.5
 31
0.0
  0
LINE
  5
49C
330
EF7C85537
100
AcDbEntity
  8
0
100
AcDbLine
 10
1.0
 20
0.5
 30
0.0
 11
-0.4999999999999575
 21
0.9019237886467408
 31
0.0
  0
ENDBLK
  5
49D
330
EF7C85537
100
AcDbEntity
  8
0
100
AcDbBlockEnd
  0
BLOCK
  5
4A7
330
EF7C8553B
100
AcDbEntity
  8
0
100
AcDbBlockBegin
  2
WAKU
 70
     0
 10
0.0
 20
0.0
 30
0.0
  3
WAKU
  1

  0
LINE
  5
4A8
330
EF7C8553B
100
AcDbEntity
  8
WAKU
100
AcDbLine
 10
0.9999999959999998
 20
0.0
 30
0.0
 11
0.9999999959999998
 21
0.9999999999999998
 31
0.0
  0
LINE
  5
4A9
330
EF7C8553B
100
AcDbEntity
  8
WAKU
100
AcDbLine
 10
0.0
 20
0.9999999999999998
 30
0.0
 11
0.9999999959999998
 21
0.9999999999999998
 31
0.0
  0
LINE
  5
4AA
330
EF7C8553B
100
AcDbEntity
  8
WAKU
100
AcDbLine
 10
0.9999999959999998
 20
0.0
 30
0.0
 11
0.0
 21
0.0
 31
0.0
  0
LINE
  5
4AB
330
EF7C8553B
100
AcDbEntity
  8
WAKU
100
AcDbLine
 10
0.0
 20
0.0
 30
0.0
 11
0.0
 21
0.9999999999999998
 31
0.0
  0
ENDBLK
  5
4AC
330
EF7C8553B
100
AcDbEntity
  8
0
100
AcDbBlockEnd
  0
BLOCK
  5
2764
330
EF7C8553D
100
AcDbEntity
  8
0
100
AcDbBlockBegin
  2
*X2
 70
     1
 10
0.0
 20
0.0
 30
0.0
  3
*X2
  1

  0
ENDBLK
  5
2765
330
EF7C8553D
100
AcDbEntity
  8
0
100
AcDbBlockEnd
  0
BLOCK
  5
2766
330
EF7C8553E
100
AcDbEntity
  8
0
100
AcDbBlockBegin
  2
STDGX5
 70
     0
 10
0.0
 20
0.0
 30
0.0
  3
STDGX5
  1

  0
ENDBLK
  5
2767
330
EF7C8553E
100
AcDbEntity
  8
0
100
AcDbBlockEnd
  0
BLOCK
  5
2F5A
330
EF7C8553F
100
AcDbEntity
  8
0
100
AcDbBlockBegin
  2
*X4
 70
     1
 10
0.0
 20
0.0
 30
0.0
  3
*X4
  1

  0
ENDBLK
  5
2F5B
330
EF7C8553F
100
AcDbEntity
  8
0
100
AcDbBlockEnd
  0
BLOCK
  5
32BB
330
EF7C85540
100
AcDbEntity
  8
0
100
AcDbBlockBegin
  2
*X5
 70
     1
 10
0.0
 20
0.0
 30
0.0
  3
*X5
  1

  0
ENDBLK
  5
32BC
330
EF7C85540
100
AcDbEntity
  8
0
100
AcDbBlockEnd
  0
BLOCK
  5
372F
330
EF7C85541
100
AcDbEntity
  8
0
100
AcDbBlockBegin
  2
*X6
 70
     1
 10
0.0
 20
0.0
 30
0.0
  3
*X6
  1

  0
ENDBLK
  5
3730
330
EF7C85541
100
AcDbEntity
  8
0
100
AcDbBlockEnd
  0
BLOCK
  5
3A6D
330
EF7C85542
100
AcDbEntity
  8
0
100
AcDbBlockBegin
  2
*X7
 70
     1
 10
0.0
 20
0.0
 30
0.0
  3
*X7
  1

  0
ENDBLK
  5
3A6E
330
EF7C85542
100
AcDbEntity
  8
0
100
AcDbBlockEnd
  0
BLOCK
  5
4CC9
330
EF7C85543
100
AcDbEntity
  8
0
100
AcDbBlockBegin
  2
ARROWANG
 70
     0
 10
0.0
 20
0.0
 30
0.0
  3
ARROWANG
  1

  0
LINE
  5
4CCA
330
EF7C85543
100
AcDbEntity
  8
SUNPOU
100
AcDbLine
 10
0.0
 20
0.0
 30
0.0
 11
-1.499999999999956
 21
0.401923788646741
 31
0.0
  0
LINE
  5
4CCB
330
EF7C85543
100
AcDbEntity
  8
SUNPOU
100
AcDbLine
 10
0.0
 20
0.0
 30
0.0
 11
-1.500000000000027
 21
-0.4019237886467124
 31
0.0
  0
ENDBLK
  5
4CCC
330
EF7C85543
100
AcDbEntity
  8
0
100
AcDbBlockEnd
  0
BLOCK
  5
4CCD
330
EF7C85544
100
AcDbEntity
  8
0
100
AcDbBlockBegin
  2
STDR12J
 70
     0
 10
0.0
 20
0.0
 30
0.0
  3
STDR12J
  1

  0
ENDBLK
  5
4CF2
330
EF7C85544
100
AcDbEntity
  8
0
100
AcDbBlockEnd
  0
BLOCK
  5
EF7C87839
330
EF7C87827
100
AcDbEntity
  8
0
100
AcDbBlockBegin
  2
*X10
 70
     1
 10
0.0
 20
0.0
 30
0.0
  3
*X10
  1

  0
LINE
  5
EF7C87828
330
EF7C87827
100
AcDbEntity
  8
0
 62
     0
100
AcDbLine
 10
42.91207191918546
 20
139.0785941605559
 30
0.0
 11
47.91207191918546
 21
144.0785941605559
 31
0.0
  0
LINE
  5
EF7C87829
330
EF7C87827
100
AcDbEntity
  8
0
 62
     0
100
AcDbLine
 10
40.08364479443928
 20
139.0785941605559
 30
0.0
 11
45.08364479443929
 21
144.0785941605559
 31
0.0
  0
LINE
  5
EF7C8782A
330
EF7C87827
100
AcDbEntity
  8
0
 62
     0
100
AcDbLine
 10
37.25521766969309
 20
139.0785941605559
 30
0.0
 11
42.25521766969309
 21
144.0785941605559
 31
0.0
  0
LINE
  5
EF7C8782B
330
EF7C87827
100
AcDbEntity
  8
0
 62
     0
100
AcDbLine
 10
34.42679054494689
 20
139.0785941605559
 30
0.0
 11
39.42679054494689
 21
144.0785941605559
 31
0.0
  0
LINE
  5
EF7C8782C
330
EF7C87827
100
AcDbEntity
  8
0
 62
     0
100
AcDbLine
 10
31.59836342020071
 20
139.0785941605559
 30
0.0
 11
36.59836342020072
 21
144.0785941605559
 31
0.0
  0
LINE
  5
EF7C8782D
330
EF7C87827
100
AcDbEntity
  8
0
 62
     0
100
AcDbLine
 10
28.76993629545451
 20
139.0785941605559
 30
0.0
 11
33.76993629545452
 21
144.0785941605559
 31
0.0
  0
LINE
  5
EF7C8782E
330
EF7C87827
100
AcDbEntity
  8
0
 62
     0
100
AcDbLine
 10
25.94150917070832
 20
139.0785941605559
 30
0.0
 11
30.94150917070832
 21
144.0785941605559
 31
0.0
  0
LINE
  5
EF7C8782F
330
EF7C87827
100
AcDbEntity
  8
0
 62
     0
100
AcDbLine
 10
24.20506654826371
 20
140.1705786628574
 30
0.0
 11
28.11308204596214
 21
144.0785941605559
 31
0.0
  0
LINE
  5
EF7C87830
330
EF7C87827
100
AcDbEntity
  8
0
 62
     0
100
AcDbLine
 10
22.72841915269601
 20
141.522358392036
 30
0.0
 11
25.28465492121595
 21
144.0785941605559
 31
0.0
  0
LINE
  5
EF7C87831
330
EF7C87827
100
AcDbEntity
  8
0
 62
     0
100
AcDbLine
 10
21.47523861350567
 20
143.0976049775918
 30
0.0
 11
22.45622779646976
 21
144.0785941605559
 31
0.0
  0
LINE
  5
EF7C87832
330
EF7C87827
100
AcDbEntity
  8
0
 62
     0
100
AcDbLine
 10
45.74049904393166
 20
139.0785941605559
 30
0.0
 11
50.74049904393167
 21
144.0785941605559
 31
0.0
  0
LINE
  5
EF7C87833
330
EF7C87827
100
AcDbEntity
  8
0
 62
     0
100
AcDbLine
 10
48.56892616867785
 20
139.0785941605559
 30
0.0
 11
53.56892616867786
 21
144.0785941605559
 31
0.0
  0
LINE
  5
EF7C87834
330
EF7C87827
100
AcDbEntity
  8
0
 62
     0
100
AcDbLine
 10
51.39735329342403
 20
139.0785941605559
 30
0.0
 11
56.39735329342404
 21
144.0785941605559
 31
0.0
  0
LINE
  5
EF7C87835
330
EF7C87827
100
AcDbEntity
  8
0
 62
     0
100
AcDbLine
 10
54.22578041817022
 20
139.0785941605559
 30
0.0
 11
59.22578041817022
 21
144.0785941605559
 31
0.0
  0
LINE
  5
EF7C87836
330
EF7C87827
100
AcDbEntity
  8
0
 62
     0
100
AcDbLine
 10
57.0542075429164
 20
139.0785941605559
 30
0.0
 11
62.05420754291642
 21
144.0785941605559
 31
0.0
  0
LINE
  5
EF7C87837
330
EF7C87827
100
AcDbEntity
  8
0
 62
     0
100
AcDbLine
 10
59.8826346676626
 20
139.0785941605559
 30
0.0
 11
64.88263466766261
 21
144.0785941605559
 31
0.0
  0
LINE
  5
EF7C87838
330
EF7C87827
100
AcDbEntity
  8
0
 62
     0
100
AcDbLine
 10
62.71106179240879
 20
139.0785941605559
 30
0.0
 11
65.0
 21
141.367532368147
 31
0.0
  0
ENDBLK
  5
EF7C8783A
330
EF7C87827
100
AcDbEntity
  8
0
100
AcDbBlockEnd
  0
BLOCK
  5
EF7C8784D
330
EF7C8783B
100
AcDbEntity
  8
0
100
AcDbBlockBegin
  2
*X11
 70
     1
 10
0.0
 20
0.0
 30
0.0
  3
*X11
  1

  0
LINE
  5
EF7C8783C
330
EF7C8783B
100
AcDbEntity
  8
0
 62
     0
100
AcDbLine
 10
42.91207191918546
 20
139.0785941605559
 30
0.0
 11
47.91207191918546
 21
144.0785941605559
 31
0.0
  0
LINE
  5
EF7C8783D
330
EF7C8783B
100
AcDbEntity
  8
0
 62
     0
100
AcDbLine
 10
40.08364479443928
 20
139.0785941605559
 30
0.0
 11
45.08364479443929
 21
144.0785941605559
 31
0.0
  0
LINE
  5
EF7C8783E
330
EF7C8783B
100
AcDbEntity
  8
0
 62
     0
100
AcDbLine
 10
37.25521766969309
 20
139.0785941605559
 30
0.0
 11
42.25521766969309
 21
144.0785941605559
 31
0.0
  0
LINE
  5
EF7C8783F
330
EF7C8783B
100
AcDbEntity
  8
0
 62
     0
100
AcDbLine
 10
34.42679054494689
 20
139.0785941605559
 30
0.0
 11
39.42679054494689
 21
144.0785941605559
 31
0.0
  0
LINE
  5
EF7C87840
330
EF7C8783B
100
AcDbEntity
  8
0
 62
     0
100
AcDbLine
 10
31.59836342020071
 20
139.0785941605559
 30
0.0
 11
36.59836342020072
 21
144.0785941605559
 31
0.0
  0
LINE
  5
EF7C87841
330
EF7C8783B
100
AcDbEntity
  8
0
 62
     0
100
AcDbLine
 10
28.76993629545451
 20
139.0785941605559
 30
0.0
 11
33.76993629545452
 21
144.0785941605559
 31
0.0
  0
LINE
  5
EF7C87842
330
EF7C8783B
100
AcDbEntity
  8
0
 62
     0
100
AcDbLine
 10
25.94150917070832
 20
139.0785941605559
 30
0.0
 11
30.94150917070832
 21
144.0785941605559
 31
0.0
  0
LINE
  5
EF7C87843
330
EF7C8783B
100
AcDbEntity
  8
0
 62
     0
100
AcDbLine
 10
24.20506654826371
 20
140.1705786628574
 30
0.0
 11
28.11308204596214
 21
144.0785941605559
 31
0.0
  0
LINE
  5
EF7C87844
330
EF7C8783B
100
AcDbEntity
  8
0
 62
     0
100
AcDbLine
 10
22.72841915269601
 20
141.522358392036
 30
0.0
 11
25.28465492121595
 21
144.0785941605559
 31
0.0
  0
LINE
  5
EF7C87845
330
EF7C8783B
100
AcDbEntity
  8
0
 62
     0
100
AcDbLine
 10
21.47523861350567
 20
143.0976049775918
 30
0.0
 11
22.45622779646976
 21
144.0785941605559
 31
0.0
  0
LINE
  5
EF7C87846
330
EF7C8783B
100
AcDbEntity
  8
0
 62
     0
100
AcDbLine
 10
45.74049904393166
 20
139.0785941605559
 30
0.0
 11
50.74049904393167
 21
144.0785941605559
 31
0.0
  0
LINE
  5
EF7C87847
330
EF7C8783B
100
AcDbEntity
  8
0
 62
     0
100
AcDbLine
 10
48.56892616867785
 20
139.0785941605559
 30
0.0
 11
53.56892616867786
 21
144.0785941605559
 31
0.0
  0
LINE
  5
EF7C87848
330
EF7C8783B
100
AcDbEntity
  8
0
 62
     0
100
AcDbLine
 10
51.39735329342403
 20
139.0785941605559
 30
0.0
 11
56.39735329342404
 21
144.0785941605559
 31
0.0
  0
LINE
  5
EF7C87849
330
EF7C8783B
100
AcDbEntity
  8
0
 62
     0
100
AcDbLine
 10
54.22578041817022
 20
139.0785941605559
 30
0.0
 11
59.22578041817022
 21
144.0785941605559
 31
0.0
  0
LINE
  5
EF7C8784A
330
EF7C8783B
100
AcDbEntity
  8
0
 62
     0
100
AcDbLine
 10
57.0542075429164
 20
139.0785941605559
 30
0.0
 11
62.05420754291642
 21
144.0785941605559
 31
0.0
  0
LINE
  5
EF7C8784B
330
EF7C8783B
100
AcDbEntity
  8
0
 62
     0
100
AcDbLine
 10
59.8826346676626
 20
139.0785941605559
 30
0.0
 11
64.88263466766261
 21
144.0785941605559
 31
0.0
  0
LINE
  5
EF7C8784C
330
EF7C8783B
100
AcDbEntity
  8
0
 62
     0
100
AcDbLine
 10
62.71106179240879
 20
139.0785941605559
 30
0.0
 11
65.0
 21
141.367532368147
 31
0.0
  0
ENDBLK
  5
EF7C8784E
330
EF7C8783B
100
AcDbEntity
  8
0
100
AcDbBlockEnd
  0
BLOCK
  5
EF7C8822D
330
EF7C88229
100
AcDbEntity
  8
0
100
AcDbBlockBegin
  2
AR_OPEN
 70
     0
 10
0.0
 20
0.0
 30
0.0
  3
AR_OPEN
  1

  0
LINE
  5
EF7C8822A
330
EF7C88229
100
AcDbEntity
  8
0
 62
     0
100
AcDbLine
 10
-1.0
 20
0.0
 30
0.0
 11
0.0
 21
0.0
 31
0.0
  0
LINE
  5
EF7C8822B
330
EF7C88229
100
AcDbEntity
  8
0
 62
     0
100
AcDbLine
 10
0.0
 20
0.0
 30
0.0
 11
-1.0
 21
0.2679491924311037
 31
0.0
  0
LINE
  5
EF7C8822C
330
EF7C88229
100
AcDbEntity
  8
0
 62
     0
100
AcDbLine
 10
0.0
 20
0.0
 30
0.0
 11
-1.0
 21
-0.2679491924311037
 31
0.0
  0
ENDBLK
  5
EF7C8822E
330
EF7C88229
100
AcDbEntity
  8
0
100
AcDbBlockEnd
  0
ENDSEC
  0
SECTION
  2
ENTITIES
  0
TEXT
  5
1
330
EF7C85532
100
AcDbEntity
  8
SUNPOU
100
AcDbText
 10
95.05869565217388
 20
43.7966872748706
 30
0.0
 40
1.5
  1
                          
100
AcDbText
  0
TEXT
  5
2
330
EF7C85532
100
AcDbEntity
  8
SUNPOU
100
AcDbText
 10
332.2793466870868
 20
21.8983436374353
 30
0.0
 40
0.75
  1
                          
100
AcDbText
  0
TEXT
  5
1A
330
EF7C85532
100
AcDbEntity
  8
SUNPOU
100
AcDbText
 10
289.9834441000535
 20
43.7966872748706
 30
0.0
 40
1.5
  1
                          
100
AcDbText
  0
TEXT
  5
1B
330
EF7C85532
100
AcDbEntity
  8
SUNPOU
100
AcDbText
 10
527.2040951349664
 20
21.8983436374353
 30
0.0
 40
0.75
  1
                          
100
AcDbText
  0
TEXT
  5
1C
330
EF7C85532
100
AcDbEntity
  8
SUNPOU
100
AcDbText
 10
490.6272568090836
 20
43.79668727487056
 30
0.0
 40
1.5
  1
                          
100
AcDbText
  0
TEXT
  5
1D
330
EF7C85532
100
AcDbEntity
  8
SUNPOU
100
AcDbText
 10
727.8479078439966
 20
21.89834363743526
 30
0.0
 40
0.75
  1
                          
100
AcDbText
  0
INSERT
  5
1E
330
EF7C85532
100
AcDbEntity
  8
HATCH
100
AcDbBlockReference
  2
*X2
 10
194.9247484478796
 20
0.0
 30
0.0
  0
TEXT
  5
1F
330
EF7C85532
100
AcDbEntity
  8
SUNPOU
100
AcDbText
 10
493.0101992368963
 20
43.7966872748706
 30
0.0
 40
1.5
  1
                          
100
AcDbText
  0
TEXT
  5
20
330
EF7C85532
100
AcDbEntity
  8
SUNPOU
100
AcDbText
 10
730.2308502718093
 20
21.8983436374353
 30
0.0
 40
0.75
  1
                          
100
AcDbText
  0
TEXT
  5
21
330
EF7C85532
100
AcDbEntity
  8
SUNPOU
100
AcDbText
 10
482.0486607753578
 20
43.7966872748706
 30
0.0
 40
1.5
  1
                          
100
AcDbText
  0
TEXT
  5
22
330
EF7C85532
100
AcDbEntity
  8
SUNPOU
100
AcDbText
 10
719.269311810271
 20
21.8983436374353
 30
0.0
 40
0.75
  1
                          
100
AcDbText
  0
INSERT
  5
25
330
EF7C85532
100
AcDbEntity
  8
JISSEN
100
AcDbBlockReference
  2
STDGX5
 10
0.0
 20
0.0
 30
0.0
  0
TEXT
  5
60
330
EF7C85532
100
AcDbEntity
  8
SUNPOU
100
AcDbText
 10
274.0586949361738
 20
43.7966872748706
 30
0.0
 40
1.5
  1
                          
100
AcDbText
  0
TEXT
  5
61
330
EF7C85532
100
AcDbEntity
  8
SUNPOU
100
AcDbText
 10
511.2793459710869
 20
21.8983436374353
 30
0.0
 40
0.75
  1
                          
100
AcDbText
  0
TEXT
  5
62
330
EF7C85532
100
AcDbEntity
  8
SUNPOU
100
AcDbText
 10
474.702507645204
 20
43.79668727487056
 30
0.0
 40
1.5
  1
                          
100
AcDbText
  0
TEXT
  5
63
330
EF7C85532
100
AcDbEntity
  8
SUNPOU
100
AcDbText
 10
711.923158680117
 20
21.89834363743526
 30
0.0
 40
0.75
  1
                          
100
AcDbText
  0
INSERT
  5
64
330
EF7C85532
100
AcDbEntity
  8
HATCH
100
AcDbBlockReference
  2
*X4
 10
178.999999284
 20
0.0
 30
0.0
  0
TEXT
  5
65
330
EF7C85532
100
AcDbEntity
  8
SUNPOU
100
AcDbText
 10
477.0854500730166
 20
43.7966872748706
 30
0.0
 40
1.5
  1
                          
100
AcDbText
  0
TEXT
  5
66
330
EF7C85532
100
AcDbEntity
  8
SUNPOU
100
AcDbText
 10
714.3061011079296
 20
21.8983436374353
 30
0.0
 40
0.75
  1
                          
100
AcDbText
  0
TEXT
  5
67
330
EF7C85532
100
AcDbEntity
  8
SUNPOU
100
AcDbText
 10
466.1239116114783
 20
43.7966872748706
 30
0.0
 40
1.5
  1
                          
100
AcDbText
  0
TEXT
  5
68
330
EF7C85532
100
AcDbEntity
  8
SUNPOU
100
AcDbText
 10
703.3445626463913
 20
21.8983436374353
 30
0.0
 40
0.75
  1
                          
100
AcDbText
  0
INSERT
  5
69
330
EF7C85532
100
AcDbEntity
  8
TEXT
100
AcDbBlockReference
  2
STDGX5
 10
178.999999284
 20
0.0
 30
0.0
  0
TEXT
  5
6A
330
EF7C85532
100
AcDbEntity
  8
SUNPOU
100
AcDbText
 10
453.0586949361739
 20
43.7966872748706
 30
0.0
 40
1.5
  1
                          
100
AcDbText
  0
TEXT
  5
6B
330
EF7C85532
100
AcDbEntity
  8
SUNPOU
100
AcDbText
 10
690.2793459710871
 20
21.8983436374353
 30
0.0
 40
0.75
  1
                          
100
AcDbText
  0
TEXT
  5
6C
330
EF7C85532
100
AcDbEntity
  8
SUNPOU
100
AcDbText
 10
647.9834433840535
 20
43.7966872748706
 30
0.0
 40
1.5
  1
                          
100
AcDbText
  0
TEXT
  5
6D
330
EF7C85532
100
AcDbEntity
  8
SUNPOU
100
AcDbText
 10
885.2040944189665
 20
21.8983436374353
 30
0.0
 40
0.75
  1
                          
100
AcDbText
  0
TEXT
  5
6E
330
EF7C85532
100
AcDbEntity
  8
SUNPOU
100
AcDbText
 10
848.6272560930835
 20
43.79668727487056
 30
0.0
 40
1.5
  1
                          
100
AcDbText
  0
TEXT
  5
6F
330
EF7C85532
100
AcDbEntity
  8
SUNPOU
100
AcDbText
 10
1085.847907127996
 20
21.89834363743526
 30
0.0
 40
0.75
  1
                          
100
AcDbText
  0
INSERT
  5
70
330
EF7C85532
100
AcDbEntity
  8
HATCH
100
AcDbBlockReference
  2
*X5
 10
552.9247477318796
 20
0.0
 30
0.0
  0
TEXT
  5
71
330
EF7C85532
100
AcDbEntity
  8
SUNPOU
100
AcDbText
 10
851.0101985208963
 20
43.7966872748706
 30
0.0
 40
1.5
  1
                          
100
AcDbText
  0
TEXT
  5
72
330
EF7C85532
100
AcDbEntity
  8
SUNPOU
100
AcDbText
 10
1088.230849555809
 20
21.8983436374353
 30
0.0
 40
0.75
  1
                          
100
AcDbText
  0
TEXT
  5
73
330
EF7C85532
100
AcDbEntity
  8
SUNPOU
100
AcDbText
 10
840.048660059358
 20
43.7966872748706
 30
0.0
 40
1.5
  1
                          
100
AcDbText
  0
TEXT
  5
74
330
EF7C85532
100
AcDbEntity
  8
SUNPOU
100
AcDbText
 10
1077.269311094271
 20
21.8983436374353
 30
0.0
 40
0.75
  1
                          
100
AcDbText
  0
INSERT
  5
75
330
EF7C85532
100
AcDbEntity
  8
JISSEN
100
AcDbBlockReference
  2
STDGX5
 10
357.999999284
 20
0.0
 30
0.0
  0
TEXT
  5
76
330
EF7C85532
100
AcDbEntity
  8
SUNPOU
100
AcDbText
 10
453.0586949361739
 20
43.7966872748706
 30
0.0
 40
1.5
  1
                          
100
AcDbText
  0
TEXT
  5
77
330
EF7C85532
100
AcDbEntity
  8
SUNPOU
100
AcDbText
 10
690.2793459710871
 20
21.8983436374353
 30
0.0
 40
0.75
  1
                          
100
AcDbText
  0
TEXT
  5
78
330
EF7C85532
100
AcDbEntity
  8
SUNPOU
100
AcDbText
 10
647.9834433840535
 20
43.7966872748706
 30
0.0
 40
1.5
  1
                          
100
AcDbText
  0
TEXT
  5
79
330
EF7C85532
100
AcDbEntity
  8
SUNPOU
100
AcDbText
 10
885.2040944189665
 20
21.8983436374353
 30
0.0
 40
0.75
  1
                          
100
AcDbText
  0
TEXT
  5
7A
330
EF7C85532
100
AcDbEntity
  8
SUNPOU
100
AcDbText
 10
848.6272560930835
 20
43.79668727487056
 30
0.0
 40
1.5
  1
                          
100
AcDbText
  0
TEXT
  5
7B
330
EF7C85532
100
AcDbEntity
  8
SUNPOU
100
AcDbText
 10
1085.847907127996
 20
21.89834363743526
 30
0.0
 40
0.75
  1
                          
100
AcDbText
  0
INSERT
  5
7C
330
EF7C85532
100
AcDbEntity
  8
HATCH
100
AcDbBlockReference
  2
*X6
 10
552.9247477318796
 20
0.0
 30
0.0
  0
TEXT
  5
7D
330
EF7C85532
100
AcDbEntity
  8
SUNPOU
100
AcDbText
 10
851.0101985208963
 20
43.7966872748706
 30
0.0
 40
1.5
  1
                          
100
AcDbText
  0
TEXT
  5
7E
330
EF7C85532
100
AcDbEntity
  8
SUNPOU
100
AcDbText
 10
1088.230849555809
 20
21.8983436374353
 30
0.0
 40
0.75
  1
                          
100
AcDbText
  0
TEXT
  5
7F
330
EF7C85532
100
AcDbEntity
  8
SUNPOU
100
AcDbText
 10
840.048660059358
 20
43.7966872748706
 30
0.0
 40
1.5
  1
                          
100
AcDbText
  0
TEXT
  5
80
330
EF7C85532
100
AcDbEntity
  8
SUNPOU
100
AcDbText
 10
1077.269311094271
 20
21.8983436374353
 30
0.0
 40
0.75
  1
                          
100
AcDbText
  0
INSERT
  5
81
330
EF7C85532
100
AcDbEntity
  8
JISSEN
100
AcDbBlockReference
  2
STDGX5
 10
357.999999284
 20
0.0
 30
0.0
  0
TEXT
  5
82
330
EF7C85532
100
AcDbEntity
  8
SUNPOU
100
AcDbText
 10
632.0586942201738
 20
43.7966872748706
 30
0.0
 40
1.5
  1
                          
100
AcDbText
  0
TEXT
  5
83
330
EF7C85532
100
AcDbEntity
  8
SUNPOU
100
AcDbText
 10
869.2793452550871
 20
21.8983436374353
 30
0.0
 40
0.75
  1
                          
100
AcDbText
  0
TEXT
  5
84
330
EF7C85532
100
AcDbEntity
  8
SUNPOU
100
AcDbText
 10
826.9834426680533
 20
43.7966872748706
 30
0.0
 40
1.5
  1
                          
100
AcDbText
  0
TEXT
  5
85
330
EF7C85532
100
AcDbEntity
  8
SUNPOU
100
AcDbText
 10
1064.204093702966
 20
21.8983436374353
 30
0.0
 40
0.75
  1
                          
100
AcDbText
  0
TEXT
  5
86
330
EF7C85532
100
AcDbEntity
  8
SUNPOU
100
AcDbText
 10
1027.627255377083
 20
43.79668727487056
 30
0.0
 40
1.5
  1
                          
100
AcDbText
  0
TEXT
  5
87
330
EF7C85532
100
AcDbEntity
  8
SUNPOU
100
AcDbText
 10
1264.847906411996
 20
21.89834363743526
 30
0.0
 40
0.75
  1
                          
100
AcDbText
  0
INSERT
  5
88
330
EF7C85532
100
AcDbEntity
  8
HATCH
100
AcDbBlockReference
  2
*X7
 10
731.9247470158797
 20
0.0
 30
0.0
  0
TEXT
  5
89
330
EF7C85532
100
AcDbEntity
  8
SUNPOU
100
AcDbText
 10
1030.010197804895
 20
43.7966872748706
 30
0.0
 40
1.5
  1
                          
100
AcDbText
  0
TEXT
  5
8A
330
EF7C85532
100
AcDbEntity
  8
SUNPOU
100
AcDbText
 10
1267.230848839808
 20
21.8983436374353
 30
0.0
 40
0.75
  1
                          
100
AcDbText
  0
TEXT
  5
8B
330
EF7C85532
100
AcDbEntity
  8
SUNPOU
100
AcDbText
 10
1019.048659343358
 20
43.7966872748706
 30
0.0
 40
1.5
  1
                          
100
AcDbText
  0
TEXT
  5
8C
330
EF7C85532
100
AcDbEntity
  8
SUNPOU
100
AcDbText
 10
1256.269310378271
 20
21.8983436374353
 30
0.0
 40
0.75
  1
                          
100
AcDbText
  0
INSERT
  5
8D
330
EF7C85532
100
AcDbEntity
  8
JISSEN
100
AcDbBlockReference
  2
STDGX5
 10
536.999998568
 20
0.0
 30
0.0
  0
INSERT
  5
8E
330
EF7C85532
100
AcDbEntity
  8
SUNPOU
100
AcDbBlockReference
  2
STDGX5
 10
739.0804232644236
 20
50.83533235670902
 30
0.0
 41
0.5
 42
0.5
 43
0.5
  0
INSERT
  5
8F
330
EF7C85532
100
AcDbEntity
  8
SUNPOU
100
AcDbBlockReference
  2
STDGX5
 10
726.2208210623692
 20
105.0763138619288
 30
0.0
 41
0.5
 42
0.5
 43
0.5
  0
INSERT
  5
90
330
EF7C85532
100
AcDbEntity
  8
HATCH
100
AcDbBlockReference
  2
STDGX5
 10
852.3985550581901
 20
151.7065097967401
 30
0.0
 41
0.5
 42
0.5
 43
0.5
  0
INSERT
  5
91
330
EF7C85532
100
AcDbEntity
  8
HATCH
100
AcDbBlockReference
  2
STDGX5
 10
866.6806796277283
 20
102.7017487639612
 30
0.0
 41
0.5
 42
0.5
 43
0.5
  0
INSERT
  5
92
330
EF7C85532
100
AcDbEntity
  8
TEXT
100
AcDbBlockReference
  2
STDGX5
 10
970.3434408521969
 20
102.8213468229236
 30
0.0
 41
0.5
 42
0.5
 43
0.5
  0
INSERT
  5
93
330
EF7C85532
100
AcDbEntity
  8
SUNPOU
100
AcDbBlockReference
  2
STDGX5
 10
996.1728907397867
 20
174.5475645486173
 30
0.0
 41
0.5
 42
0.5
 43
0.5
  0
INSERT
  5
94
330
EF7C85532
100
AcDbEntity
  8
TEXT
100
AcDbBlockReference
  2
STDGX5
 10
725.7513886810995
 20
124.5860190441302
 30
0.0
 41
0.5
 42
0.5
 43
0.5
  0
INSERT
  5
95
330
EF7C85532
100
AcDbEntity
  8
HATCH
100
AcDbBlockReference
  2
STDGX5
 10
777.1755722656421
 20
145.5222028932424
 30
0.0
 41
0.5
 42
0.5
 43
0.5
  0
INSERT
  5
96
330
EF7C85532
100
AcDbEntity
  8
SUNPOU
100
AcDbBlockReference
  2
STDGX5
 10
846.1963575359604
 20
112.6957974729892
 30
0.0
 41
0.5
 42
0.5
 43
0.5
  0
INSERT
  5
97
330
EF7C85532
100
AcDbEntity
  8
SUNPOU
100
AcDbBlockReference
  2
STDGX5
 10
916.6681156211122
 20
121.7330617103084
 30
0.0
 41
0.5
 42
0.5
 43
0.5
  0
INSERT
  5
98
330
EF7C85532
100
AcDbEntity
  8
TEXT
100
AcDbBlockReference
  2
STDGX5
 10
983.7969461426766
 20
84.61852224867081
 30
0.0
 41
0.5
 42
0.5
 43
0.5
  0
INSERT
  5
99
330
EF7C85532
100
AcDbEntity
  8
HATCH
100
AcDbBlockReference
  2
STDGX5
 10
974.2802715042101
 20
136.484938655923
 30
0.0
 41
0.5
 42
0.5
 43
0.5
  0
INSERT
  5
9A
330
EF7C85532
100
AcDbEntity
  8
SUNPOU
100
AcDbBlockReference
  2
STDGX5
 10
749.7834008663488
 20
95.14721172234004
 30
0.0
 41
0.5
 42
0.5
 43
0.5
  0
INSERT
  5
9B
330
EF7C85532
100
AcDbEntity
  8
SUNPOU
100
AcDbBlockReference
  2
STDGX5
 10
736.9237986642947
 20
149.3881932275598
 30
0.0
 41
0.5
 42
0.5
 43
0.5
  0
INSERT
  5
9C
330
EF7C85532
100
AcDbEntity
  8
HATCH
100
AcDbBlockReference
  2
STDGX5
 10
863.1015326601156
 20
196.0183891623711
 30
0.0
 41
0.5
 42
0.5
 43
0.5
  0
INSERT
  5
9D
330
EF7C85532
100
AcDbEntity
  8
HATCH
100
AcDbBlockReference
  2
STDGX5
 10
877.3836572296538
 20
147.0136281295922
 30
0.0
 41
0.5
 42
0.5
 43
0.5
  0
INSERT
  5
9E
330
EF7C85532
100
AcDbEntity
  8
TEXT
100
AcDbBlockReference
  2
STDGX5
 10
981.0464184541222
 20
147.1332261885546
 30
0.0
 41
0.5
 42
0.5
 43
0.5
  0
INSERT
  5
9F
330
EF7C85532
100
AcDbEntity
  8
SUNPOU
100
AcDbBlockReference
  2
STDGX5
 10
1006.875868341712
 20
218.8594439142483
 30
0.0
 41
0.5
 42
0.5
 43
0.5
  0
INSERT
  5
A0
330
EF7C85532
100
AcDbEntity
  8
TEXT
100
AcDbBlockReference
  2
STDGX5
 10
736.454366283025
 20
168.8978984097611
 30
0.0
 41
0.5
 42
0.5
 43
0.5
  0
INSERT
  5
A1
330
EF7C85532
100
AcDbEntity
  8
HATCH
100
AcDbBlockReference
  2
STDGX5
 10
787.8785498675677
 20
189.8340822588734
 30
0.0
 41
0.5
 42
0.5
 43
0.5
  0
INSERT
  5
A2
330
EF7C85532
100
AcDbEntity
  8
SUNPOU
100
AcDbBlockReference
  2
STDGX5
 10
856.899335137886
 20
157.0076768386202
 30
0.0
 41
0.5
 42
0.5
 43
0.5
  0
INSERT
  5
A3
330
EF7C85532
100
AcDbEntity
  8
SUNPOU
100
AcDbBlockReference
  2
STDGX5
 10
927.3710932230379
 20
166.0449410759395
 30
0.0
 41
0.5
 42
0.5
 43
0.5
  0
INSERT
  5
A4
330
EF7C85532
100
AcDbEntity
  8
TEXT
100
AcDbBlockReference
  2
STDGX5
 10
994.4999237446024
 20
128.9304016143017
 30
0.0
 41
0.5
 42
0.5
 43
0.5
  0
INSERT
  5
A5
330
EF7C85532
100
AcDbEntity
  8
HATCH
100
AcDbBlockReference
  2
STDGX5
 10
984.9832491061354
 20
180.7968180215541
 30
0.0
 41
0.5
 42
0.5
 43
0.5
  0
TEXT
  5
DE
330
EF7C85532
100
AcDbEntity
  8
SUNPOU
100
AcDbText
 10
274.0586949361738
 20
43.7966872748706
 30
0.0
 40
1.5
  1
                          
100
AcDbText
  0
TEXT
  5
145
330
EF7C85532
100
AcDbEntity
  8
SUNPOU
100
AcDbText
 10
511.2793459710869
 20
21.8983436374353
 30
0.0
 40
0.75
  1
                          
100
AcDbText
  0
TEXT
  5
265
330
EF7C85532
100
AcDbEntity
  8
SUNPOU
100
AcDbText
 10
474.702507645204
 20
43.79668727487056
 30
0.0
 40
1.5
  1
                          
100
AcDbText
  0
TEXT
  5
266
330
EF7C85532
100
AcDbEntity
  8
SUNPOU
100
AcDbText
 10
711.923158680117
 20
21.89834363743526
 30
0.0
 40
0.75
  1
                          
100
AcDbText
  0
INSERT
  5
2F7
330
EF7C85532
100
AcDbEntity
  8
HATCH
100
AcDbBlockReference
  2
*X4
 10
178.999999284
 20
0.0
 30
0.0
  0
TEXT
  5
31A
330
EF7C85532
100
AcDbEntity
  8
SUNPOU
100
AcDbText
 10
477.0854500730166
 20
43.7966872748706
 30
0.0
 40
1.5
  1
                          
100
AcDbText
  0
TEXT
  5
31C
330
EF7C85532
100
AcDbEntity
  8
SUNPOU
100
AcDbText
 10
714.3061011079296
 20
21.8983436374353
 30
0.0
 40
0.75
  1
                          
100
AcDbText
  0
TEXT
  5
3A6
330
EF7C85532
100
AcDbEntity
  8
TEXT
100
AcDbText
 10
100.9999992839998
 20
244.9999999999999
 30
0.0
 40
3.0
  1
 
  7
K
100
AcDbText
  0
TEXT
  5
3AB
330
EF7C85532
100
AcDbEntity
  8
SUNPOU
100
AcDbText
 10
466.1239116114783
 20
43.7966872748706
 30
0.0
 40
1.5
  1
                          
100
AcDbText
  0
TEXT
  5
3AC
330
EF7C85532
100
AcDbEntity
  8
SUNPOU
100
AcDbText
 10
703.3445626463913
 20
21.8983436374353
 30
0.0
 40
0.75
  1
                          
100
AcDbText
  0
INSERT
  5
3F6
330
EF7C85532
100
AcDbEntity
  8
TEXT
100
AcDbBlockReference
  2
STDGX5
 10
178.999999284
 20
0.0
 30
0.0
  0
TEXT
  5
3F7
330
EF7C85532
100
AcDbEntity
  8
SUNPOU
100
AcDbText
 10
453.0586949361739
 20
43.7966872748706
 30
0.0
 40
1.5
  1
                          
100
AcDbText
  0
TEXT
  5
3F8
330
EF7C85532
100
AcDbEntity
  8
SUNPOU
100
AcDbText
 10
690.2793459710871
 20
21.8983436374353
 30
0.0
 40
0.75
  1
                          
100
AcDbText
  0
TEXT
  5
3F9
330
EF7C85532
100
AcDbEntity
  8
SUNPOU
100
AcDbText
 10
647.9834433840535
 20
43.7966872748706
 30
0.0
 40
1.5
  1
                          
100
AcDbText
  0
TEXT
  5
3FA
330
EF7C85532
100
AcDbEntity
  8
SUNPOU
100
AcDbText
 10
885.2040944189665
 20
21.8983436374353
 30
0.0
 40
0.75
  1
                          
100
AcDbText
  0
TEXT
  5
3FB
330
EF7C85532
100
AcDbEntity
  8
SUNPOU
100
AcDbText
 10
848.6272560930835
 20
43.79668727487056
 30
0.0
 40
1.5
  1
                          
100
AcDbText
  0
TEXT
  5
3FC
330
EF7C85532
100
AcDbEntity
  8
SUNPOU
100
AcDbText
 10
1085.847907127996
 20
21.89834363743526
 30
0.0
 40
0.75
  1
                          
100
AcDbText
  0
INSERT
  5
3FD
330
EF7C85532
100
AcDbEntity
  8
HATCH
100
AcDbBlockReference
  2
*X5
 10
552.9247477318796
 20
0.0
 30
0.0
  0
TEXT
  5
3FE
330
EF7C85532
100
AcDbEntity
  8
SUNPOU
100
AcDbText
 10
851.0101985208963
 20
43.7966872748706
 30
0.0
 40
1.5
  1
                          
100
AcDbText
  0
TEXT
  5
3FF
330
EF7C85532
100
AcDbEntity
  8
SUNPOU
100
AcDbText
 10
1088.230849555809
 20
21.8983436374353
 30
0.0
 40
0.75
  1
                          
100
AcDbText
  0
TEXT
  5
400
330
EF7C85532
100
AcDbEntity
  8
SUNPOU
100
AcDbText
 10
840.048660059358
 20
43.7966872748706
 30
0.0
 40
1.5
  1
                          
100
AcDbText
  0
TEXT
  5
401
330
EF7C85532
100
AcDbEntity
  8
SUNPOU
100
AcDbText
 10
1077.269311094271
 20
21.8983436374353
 30
0.0
 40
0.75
  1
                          
100
AcDbText
  0
INSERT
  5
402
330
EF7C85532
100
AcDbEntity
  8
JISSEN
100
AcDbBlockReference
  2
STDGX5
 10
357.999999284
 20
0.0
 30
0.0
  0
TEXT
  5
409
330
EF7C85532
100
AcDbEntity
  8
SUNPOU
100
AcDbText
 10
453.0586949361739
 20
43.7966872748706
 30
0.0
 40
1.5
  1
                          
100
AcDbText
  0
TEXT
  5
40A
330
EF7C85532
100
AcDbEntity
  8
SUNPOU
100
AcDbText
 10
690.2793459710871
 20
21.8983436374353
 30
0.0
 40
0.75
  1
                          
100
AcDbText
  0
TEXT
  5
41B
330
EF7C85532
100
AcDbEntity
  8
SUNPOU
100
AcDbText
 10
647.9834433840535
 20
43.7966872748706
 30
0.0
 40
1.5
  1
                          
100
AcDbText
  0
TEXT
  5
41C
330
EF7C85532
100
AcDbEntity
  8
SUNPOU
100
AcDbText
 10
885.2040944189665
 20
21.8983436374353
 30
0.0
 40
0.75
  1
                          
100
AcDbText
  0
TEXT
  5
41D
330
EF7C85532
100
AcDbEntity
  8
SUNPOU
100
AcDbText
 10
848.6272560930835
 20
43.79668727487056
 30
0.0
 40
1.5
  1
                          
100
AcDbText
  0
TEXT
  5
41E
330
EF7C85532
100
AcDbEntity
  8
SUNPOU
100
AcDbText
 10
1085.847907127996
 20
21.89834363743526
 30
0.0
 40
0.75
  1
                          
100
AcDbText
  0
INSERT
  5
41F
330
EF7C85532
100
AcDbEntity
  8
HATCH
100
AcDbBlockReference
  2
*X6
 10
552.9247477318796
 20
0.0
 30
0.0
  0
TEXT
  5
420
330
EF7C85532
100
AcDbEntity
  8
SUNPOU
100
AcDbText
 10
851.0101985208963
 20
43.7966872748706
 30
0.0
 40
1.5
  1
                          
100
AcDbText
  0
TEXT
  5
421
330
EF7C85532
100
AcDbEntity
  8
SUNPOU
100
AcDbText
 10
1088.230849555809
 20
21.8983436374353
 30
0.0
 40
0.75
  1
                          
100
AcDbText
  0
TEXT
  5
422
330
EF7C85532
100
AcDbEntity
  8
SUNPOU
100
AcDbText
 10
840.048660059358
 20
43.7966872748706
 30
0.0
 40
1.5
  1
                          
100
AcDbText
  0
TEXT
  5
423
330
EF7C85532
100
AcDbEntity
  8
SUNPOU
100
AcDbText
 10
1077.269311094271
 20
21.8983436374353
 30
0.0
 40
0.75
  1
                          
100
AcDbText
  0
INSERT
  5
424
330
EF7C85532
100
AcDbEntity
  8
JISSEN
100
AcDbBlockReference
  2
STDGX5
 10
357.999999284
 20
0.0
 30
0.0
  0
TEXT
  5
425
330
EF7C85532
100
AcDbEntity
  8
SUNPOU
100
AcDbText
 10
632.0586942201738
 20
43.7966872748706
 30
0.0
 40
1.5
  1
                          
100
AcDbText
  0
TEXT
  5
426
330
EF7C85532
100
AcDbEntity
  8
SUNPOU
100
AcDbText
 10
869.2793452550871
 20
21.8983436374353
 30
0.0
 40
0.75
  1
                          
100
AcDbText
  0
TEXT
  5
427
330
EF7C85532
100
AcDbEntity
  8
SUNPOU
100
AcDbText
 10
826.9834426680533
 20
43.7966872748706
 30
0.0
 40
1.5
  1
                          
100
AcDbText
  0
TEXT
  5
428
330
EF7C85532
100
AcDbEntity
  8
SUNPOU
100
AcDbText
 10
1064.204093702966
 20
21.8983436374353
 30
0.0
 40
0.75
  1
                          
100
AcDbText
  0
TEXT
  5
429
330
EF7C85532
100
AcDbEntity
  8
SUNPOU
100
AcDbText
 10
1027.627255377083
 20
43.79668727487056
 30
0.0
 40
1.5
  1
                          
100
AcDbText
  0
TEXT
  5
42A
330
EF7C85532
100
AcDbEntity
  8
SUNPOU
100
AcDbText
 10
1264.847906411996
 20
21.89834363743526
 30
0.0
 40
0.75
  1
                          
100
AcDbText
  0
INSERT
  5
42B
330
EF7C85532
100
AcDbEntity
  8
HATCH
100
AcDbBlockReference
  2
*X7
 10
731.9247470158797
 20
0.0
 30
0.0
  0
TEXT
  5
42C
330
EF7C85532
100
AcDbEntity
  8
SUNPOU
100
AcDbText
 10
1030.010197804895
 20
43.7966872748706
 30
0.0
 40
1.5
  1
                          
100
AcDbText
  0
TEXT
  5
42D
330
EF7C85532
100
AcDbEntity
  8
SUNPOU
100
AcDbText
 10
1267.230848839808
 20
21.8983436374353
 30
0.0
 40
0.75
  1
                          
100
AcDbText
  0
TEXT
  5
42E
330
EF7C85532
100
AcDbEntity
  8
SUNPOU
100
AcDbText
 10
1019.048659343358
 20
43.7966872748706
 30
0.0
 40
1.5
  1
                          
100
AcDbText
  0
TEXT
  5
42F
330
EF7C85532
100
AcDbEntity
  8
SUNPOU
100
AcDbText
 10
1256.269310378271
 20
21.8983436374353
 30
0.0
 40
0.75
  1
                          
100
AcDbText
  0
INSERT
  5
430
330
EF7C85532
100
AcDbEntity
  8
JISSEN
100
AcDbBlockReference
  2
STDGX5
 10
536.999998568
 20
0.0
 30
0.0
  0
INSERT
  5
43B
330
EF7C85532
100
AcDbEntity
  8
SUNPOU
100
AcDbBlockReference
  2
STDGX5
 10
739.0804232644236
 20
50.83533235670902
 30
0.0
 41
0.5
 42
0.5
 43
0.5
  0
INSERT
  5
43C
330
EF7C85532
100
AcDbEntity
  8
SUNPOU
100
AcDbBlockReference
  2
STDGX5
 10
726.2208210623692
 20
105.0763138619288
 30
0.0
 41
0.5
 42
0.5
 43
0.5
  0
INSERT
  5
43D
330
EF7C85532
100
AcDbEntity
  8
HATCH
100
AcDbBlockReference
  2
STDGX5
 10
852.3985550581901
 20
151.7065097967401
 30
0.0
 41
0.5
 42
0.5
 43
0.5
  0
INSERT
  5
43E
330
EF7C85532
100
AcDbEntity
  8
HATCH
100
AcDbBlockReference
  2
STDGX5
 10
866.6806796277283
 20
102.7017487639612
 30
0.0
 41
0.5
 42
0.5
 43
0.5
  0
INSERT
  5
43F
330
EF7C85532
100
AcDbEntity
  8
TEXT
100
AcDbBlockReference
  2
STDGX5
 10
970.3434408521969
 20
102.8213468229236
 30
0.0
 41
0.5
 42
0.5
 43
0.5
  0
INSERT
  5
440
330
EF7C85532
100
AcDbEntity
  8
SUNPOU
100
AcDbBlockReference
  2
STDGX5
 10
996.1728907397867
 20
174.5475645486173
 30
0.0
 41
0.5
 42
0.5
 43
0.5
  0
INSERT
  5
441
330
EF7C85532
100
AcDbEntity
  8
TEXT
100
AcDbBlockReference
  2
STDGX5
 10
725.7513886810995
 20
124.5860190441302
 30
0.0
 41
0.5
 42
0.5
 43
0.5
  0
INSERT
  5
442
330
EF7C85532
100
AcDbEntity
  8
HATCH
100
AcDbBlockReference
  2
STDGX5
 10
777.1755722656421
 20
145.5222028932424
 30
0.0
 41
0.5
 42
0.5
 43
0.5
  0
INSERT
  5
443
330
EF7C85532
100
AcDbEntity
  8
SUNPOU
100
AcDbBlockReference
  2
STDGX5
 10
846.1963575359604
 20
112.6957974729892
 30
0.0
 41
0.5
 42
0.5
 43
0.5
  0
INSERT
  5
444
330
EF7C85532
100
AcDbEntity
  8
SUNPOU
100
AcDbBlockReference
  2
STDGX5
 10
916.6681156211122
 20
121.7330617103084
 30
0.0
 41
0.5
 42
0.5
 43
0.5
  0
INSERT
  5
445
330
EF7C85532
100
AcDbEntity
  8
TEXT
100
AcDbBlockReference
  2
STDGX5
 10
983.7969461426766
 20
84.61852224867081
 30
0.0
 41
0.5
 42
0.5
 43
0.5
  0
INSERT
  5
446
330
EF7C85532
100
AcDbEntity
  8
HATCH
100
AcDbBlockReference
  2
STDGX5
 10
974.2802715042101
 20
136.484938655923
 30
0.0
 41
0.5
 42
0.5
 43
0.5
  0
INSERT
  5
447
330
EF7C85532
100
AcDbEntity
  8
SUNPOU
100
AcDbBlockReference
  2
STDGX5
 10
749.7834008663488
 20
95.14721172234004
 30
0.0
 41
0.5
 42
0.5
 43
0.5
  0
INSERT
  5
448
330
EF7C85532
100
AcDbEntity
  8
SUNPOU
100
AcDbBlockReference
  2
STDGX5
 10
736.9237986642947
 20
149.3881932275598
 30
0.0
 41
0.5
 42
0.5
 43
0.5
  0
INSERT
  5
449
330
EF7C85532
100
AcDbEntity
  8
HATCH
100
AcDbBlockReference
  2
STDGX5
 10
863.1015326601156
 20
196.0183891623711
 30
0.0
 41
0.5
 42
0.5
 43
0.5
  0
INSERT
  5
44A
330
EF7C85532
100
AcDbEntity
  8
HATCH
100
AcDbBlockReference
  2
STDGX5
 10
877.3836572296538
 20
147.0136281295922
 30
0.0
 41
0.5
 42
0.5
 43
0.5
  0
INSERT
  5
44B
330
EF7C85532
100
AcDbEntity
  8
TEXT
100
AcDbBlockReference
  2
STDGX5
 10
981.0464184541222
 20
147.1332261885546
 30
0.0
 41
0.5
 42
0.5
 43
0.5
  0
INSERT
  5
44C
330
EF7C85532
100
AcDbEntity
  8
SUNPOU
100
AcDbBlockReference
  2
STDGX5
 10
1006.875868341712
 20
218.8594439142483
 30
0.0
 41
0.5
 42
0.5
 43
0.5
  0
INSERT
  5
44D
330
EF7C85532
100
AcDbEntity
  8
TEXT
100
AcDbBlockReference
  2
STDGX5
 10
736.454366283025
 20
168.8978984097611
 30
0.0
 41
0.5
 42
0.5
 43
0.5
  0
INSERT
  5
44E
330
EF7C85532
100
AcDbEntity
  8
HATCH
100
AcDbBlockReference
  2
STDGX5
 10
787.8785498675677
 20
189.8340822588734
 30
0.0
 41
0.5
 42
0.5
 43
0.5
  0
INSERT
  5
44F
330
EF7C85532
100
AcDbEntity
  8
SUNPOU
100
AcDbBlockReference
  2
STDGX5
 10
856.899335137886
 20
157.0076768386202
 30
0.0
 41
0.5
 42
0.5
 43
0.5
  0
INSERT
  5
450
330
EF7C85532
100
AcDbEntity
  8
SUNPOU
100
AcDbBlockReference
  2
STDGX5
 10
927.3710932230379
 20
166.0449410759395
 30
0.0
 41
0.5
 42
0.5
 43
0.5
  0
INSERT
  5
451
330
EF7C85532
100
AcDbEntity
  8
TEXT
100
AcDbBlockReference
  2
STDGX5
 10
994.4999237446024
 20
128.9304016143017
 30
0.0
 41
0.5
 42
0.5
 43
0.5
  0
INSERT
  5
452
330
EF7C85532
100
AcDbEntity
  8
HATCH
100
AcDbBlockReference
  2
STDGX5
 10
984.9832491061354
 20
180.7968180215541
 30
0.0
 41
0.5
 42
0.5
 43
0.5
  0
INSERT
  5
4CF3
330
EF7C85532
100
AcDbEntity
  8
JISSEN
100
AcDbBlockReference
  2
STDR12J
 10
0.0
 20
0.0
 30
0.0
  0
TEXT
  5
EF7C85DB5
330
EF7C85532
100
AcDbEntity
  8
TEXT
100
AcDbText
 10
103.9857135617142
 20
272.4999999999999
 30
0.0
 40
3.0
  1
ZN   型ヘッド
  7
K
 72
     4
 11
116.499999276
 21
273.9999999999999
 31
0.0
100
AcDbText
  0
LINE
  5
EF7C863F6
330
EF7C85532
100
AcDbEntity
  8
TEXT
100
AcDbLine
 10
110.6855077023229
 20
275.5007423895086
 30
0.0
 11
112.6855077023229
 21
275.5007423895086
 31
0.0
  0
LINE
  5
EF7C863F7
330
EF7C85532
100
AcDbEntity
  8
TEXT
100
AcDbLine
 10
110.6855077023229
 20
272.5007423895086
 30
0.0
 11
112.6855077023229
 21
272.5007423895086
 31
0.0
  0
INSERT
  5
EF7C87A64
330
EF7C85532
100
AcDbEntity
  8
WAKU
100
AcDbBlockReference
  2
WAKU
 10
180.9999992759999
 20
0.0
 30
0.0
 41
181.0
 42
283.0
 43
181.0
  0
LINE
  5
EF7C87A65
330
EF7C85532
100
AcDbEntity
  8
JISSEN
100
AcDbLine
 10
108.4999999999997
 20
159.0785941605559
 30
0.0
 11
108.4999999999997
 21
184.8285941605563
 31
0.0
  0
LINE
  5
EF7C87A66
330
EF7C85532
100
AcDbEntity
  8
JISSEN
100
AcDbLine
 10
71.49999999999983
 20
159.0785941605559
 30
0.0
 11
71.49999999999983
 21
184.8285941605563
 31
0.0
  0
LINE
  5
EF7C87A67
330
EF7C85532
100
AcDbEntity
  8
JISSEN
100
AcDbLine
 10
115.0000000000001
 20
159.0785941605559
 30
0.0
 11
115.0000000000001
 21
164.0785941605559
 31
0.0
  0
LWPOLYLINE
  5
EF7C87A68
330
EF7C85532
100
AcDbEntity
  8
HATCH
100
AcDbPolyline
 90
       13
 70
     0
 43
0.0
 10
158.7336689891255
 20
164.0785941605559
 10
158.5690818108755
 20
163.2589570823238
 10
158.4271764541952
 20
162.7423391055595
 10
158.1994678170473
 20
162.3239128188716
 10
157.8915803303879
 20
161.9857957952048
 10
157.5253570414085
 20
161.6955447225546
 10
157.1226409972998
 20
161.4207162889171
 10
156.7052752452529
 20
161.1288671822881
 10
156.2951028324591
 20
160.7875540906635
 10
155.9139668061094
 20
160.364333702039
 10
155.5837102133949
 20
159.8267627044108
 10
155.3091301501923
 20
159.1631439171234
 10
155.2759059556955
 20
159.0785941605559
  0
INSERT
  5
EF7C87A69
330
EF7C85532
100
AcDbEntity
  8
HATCH
100
AcDbBlockReference
  2
*X10
 10
180.0
 20
20.0
 30
0.0
 41
-1.0
1001
ACAD
1000
HATCH
1002
{
1070
    16
1000
_U
1040
2.0
1040
0.7853981633974483
1070
     0
1002
}
  0
INSERT
  5
EF7C87A6A
330
EF7C85532
100
AcDbEntity
  8
HATCH
100
AcDbBlockReference
  2
*X10
 10
0.0
 20
20.0
 30
0.0
1001
ACAD
1000
HATCH
1002
{
1070
    16
1000
_U
1040
2.0
1040
0.7853981633974483
1070
     0
1002
}
  0
INSERT
  5
EF7C87A6B
330
EF7C85532
100
AcDbEntity
  8
WAKU
100
AcDbBlockReference
  2
WAKU
 10
0.0
 20
0.0
 30
0.0
 41
181.0
 42
283.0
 43
181.0
  0
LWPOLYLINE
  5
EF7C87A6C
330
EF7C85532
100
AcDbEntity
  8
HATCH
100
AcDbPolyline
 90
       13
 70
     0
 43
0.0
 10
21.26633101087457
 20
164.0785941605559
 10
21.43091818912455
 20
163.2589570823238
 10
21.57282354580485
 20
162.7423391055595
 10
21.80053218295272
 20
162.3239128188716
 10
22.10841966961197
 20
161.9857957952048
 10
22.47464295859151
 20
161.6955447225546
 10
22.87735900270023
 20
161.4207162889171
 10
23.2947247547471
 20
161.1288671822881
 10
23.70489716754093
 20
160.7875540906635
 10
24.08603319389061
 20
160.364333702039
 10
24.41628978660509
 20
159.8267627044108
 10
24.69086984980787
 20
159.1631439171234
 10
24.72409404430448
 20
159.0785941605559
  0
LINE
  5
EF7C87A6D
330
EF7C85532
100
AcDbEntity
  8
JISSEN
100
AcDbLine
 10
65.0
 20
159.0785941605559
 30
0.0
 11
65.0
 21
164.0785941605559
 31
0.0
  0
TEXT
  5
EF7C87ADA
330
EF7C85532
100
AcDbEntity
  8
SUNPOU
100
AcDbText
 10
131.0931222469607
 20
7.849423898685245
 30
0.0
 40
3.0
  1
ZN   ガードZN   取付状態
  7
K
100
AcDbText
  0
LINE
  5
EF7C87ADB
330
EF7C85532
100
AcDbEntity
  8
TEXT
100
AcDbLine
 10
137.8982213328471
 20
7.849593213731623
 30
0.0
 11
140.0982213328471
 21
7.849593213731623
 31
0.0
  0
TEXT
  5
EF7C87ADC
330
EF7C85532
100
AcDbEntity
  8
SUNPOU
100
AcDbText
 10
131.0931222469607
 20
2.849423898685245
 30
0.0
 40
3.0
  1
尺度　1/1
  7
K
100
AcDbText
  0
LINE
  5
EF7C87ADE
330
EF7C85532
100
AcDbEntity
  8
TEXT
100
AcDbLine
 10
137.8982213328471
 20
10.84959321373162
 30
0.0
 11
140.0982213328471
 21
10.84959321373162
 31
0.0
  0
LINE
  5
EF7C87B3A
330
EF7C85532
100
AcDbEntity
  8
JISSEN
100
AcDbLine
 10
21.26633101087457
 20
164.0785941605559
 30
0.0
 11
71.50000000000051
 21
164.0785941605559
 31
0.0
  0
LWPOLYLINE
  5
EF7C87B3B
330
EF7C85532
100
AcDbEntity
  8
NITEN
100
AcDbPolyline
 90
        5
 70
     0
 43
0.0
 10
107.0
 20
228.4391430662799
 10
107.0
 20
249.2768607174257
 42
-0.5882352941176476
 10
90.0
 20
249.2768607174257
 42
0.5882352941176477
 10
73.0
 20
249.2768607174255
 10
73.0
 20
228.4391430662799
  0
LWPOLYLINE
  5
EF7C87B3C
330
EF7C85532
100
AcDbEntity
  8
NITEN
100
AcDbPolyline
 90
        2
 70
     0
 43
0.0
 10
107.0
 20
249.2768607174257
 42
0.5882352941176295
 10
89.99999999999994
 20
249.276860717426
 42
0.5882352941176295
  0
LINE
  5
EF7C87B3D
330
EF7C85532
100
AcDbEntity
  8
JISSEN
100
AcDbLine
 10
158.7336689891255
 20
164.0785941605559
 30
0.0
 11
108.4999999999995
 21
164.0785941605559
 31
0.0
  0
LWPOLYLINE
  5
EF7C87B3E
330
EF7C85532
100
AcDbEntity
  8
NITEN
100
AcDbPolyline
 90
       15
 70
     1
 43
0.0
 10
76.0
 20
187.9391430662799
 42
0.4142135623730927
 10
77.49999999999992
 20
186.4391430662799
 10
100.5940511709964
 20
186.4391430662799
 10
102.4999999999999
 20
186.4391430662799
 42
0.4142135623730925
 10
104.0
 20
187.9391430662799
 10
104.0
 20
198.9851590924978
 42
-0.4142135623730943
 10
109.0
 20
203.9851590924978
 42
0.4142135623730951
 10
111.0
 20
205.9851590924978
 10
110.9999999999998
 20
226.4391430662799
 42
0.4142135623730949
 10
109.0
 20
228.4391430662799
 10
71.0
 20
228.4391430662799
 42
0.4142135623730951
 10
69.0
 20
226.4391430662799
 10
69.0
 20
205.9851590924978
 42
0.4142135623730951
 10
71.0
 20
203.9851590924978
 42
-0.4142135623730961
 10
76.0
 20
198.9851590924978
  0
LINE
  5
EF7C87B3F
330
EF7C85532
100
AcDbEntity
  8
JISSEN
100
AcDbLine
 10
108.2499999999997
 20
185.0785941605563
 30
0.0
 11
90.4999999999989
 21
185.0785941605568
 31
0.0
  0
LINE
  5
EF7C87B40
330
EF7C85532
100
AcDbEntity
  8
JISSEN
100
AcDbLine
 10
79.7380756363907
 20
197.0666697969454
 30
0.0
 11
100.2619243636108
 21
197.0666697969473
 31
0.0
  0
LINE
  5
EF7C87B41
330
EF7C85532
100
AcDbEntity
  8
JISSEN
100
AcDbLine
 10
81.92326141544265
 20
198.3285941605558
 30
0.0
 11
98.0769054605895
 21
198.3285941605566
 31
0.0
  0
LINE
  5
EF7C87B42
330
EF7C85532
100
AcDbEntity
  8
JISSEN
100
AcDbLine
 10
90.4999999999989
 20
185.0785941605563
 30
0.0
 11
90.4999999999989
 21
167.6785941605571
 31
0.0
  0
LINE
  5
EF7C87B43
330
EF7C85532
100
AcDbEntity
  8
JISSEN
100
AcDbLine
 10
89.50000000000073
 20
185.0785941605563
 30
0.0
 11
89.50000000000073
 21
167.6785941605571
 31
0.0
  0
LINE
  5
EF7C87B44
330
EF7C85532
100
AcDbEntity
  8
JISSEN
100
AcDbLine
 10
73.50195324422367
 20
185.0785941605563
 30
0.0
 11
73.50195324422367
 21
167.6785941605561
 31
0.0
  0
LINE
  5
EF7C87B45
330
EF7C85532
100
AcDbEntity
  8
JISSEN
100
AcDbLine
 10
74.50195324422367
 20
185.0785941605563
 30
0.0
 11
74.50195324422367
 21
167.6785941605561
 31
0.0
  0
LINE
  5
EF7C87B46
330
EF7C85532
100
AcDbEntity
  8
JISSEN
100
AcDbLine
 10
74.50195324422367
 20
167.6785941605561
 30
0.0
 11
73.50195324422367
 21
167.6785941605561
 31
0.0
  0
LINE
  5
EF7C87B47
330
EF7C85532
100
AcDbEntity
  8
JISSEN
100
AcDbLine
 10
89.50000000000073
 20
167.6785941605571
 30
0.0
 11
89.99999999999984
 21
167.6785941605571
 31
0.0
  0
LINE
  5
EF7C87B48
330
EF7C85532
100
AcDbEntity
  8
JISSEN
100
AcDbLine
 10
90.4999999999989
 20
167.6785941605571
 30
0.0
 11
89.99999999999984
 21
167.6785941605571
 31
0.0
  0
LINE
  5
EF7C87B49
330
EF7C85532
100
AcDbEntity
  8
JISSEN
100
AcDbLine
 10
71.74999999999982
 20
185.0785941605563
 30
0.0
 11
89.50000000000073
 21
185.0785941605568
 31
0.0
  0
LINE
  5
EF7C87B4A
330
EF7C85532
100
AcDbEntity
  8
JISSEN
100
AcDbLine
 10
79.7380756363907
 20
197.0666697969454
 30
0.0
 11
79.36342955092644
 21
185.0785941605565
 31
0.0
  0
LINE
  5
EF7C87B4B
330
EF7C85532
100
AcDbEntity
  8
SAISEN
100
AcDbLine
 10
80.93756144102746
 20
198.2661556015824
 30
0.0
 11
80.52542955092636
 21
185.0785941605565
 31
0.0
  0
LINE
  5
EF7C87B4C
330
EF7C85532
100
AcDbEntity
  8
JISSEN
100
AcDbLine
 10
71.74999999999982
 20
185.0785941605563
 30
0.0
 11
71.49999999999983
 21
184.8285941605563
 31
0.0
  0
LINE
  5
EF7C87B4D
330
EF7C85532
100
AcDbEntity
  8
JISSEN
100
AcDbLine
 10
81.00000000000079
 20
198.3285941605556
 30
0.0
 11
81.92326141544265
 21
198.3285941605558
 31
0.0
  0
LINE
  5
EF7C87B4E
330
EF7C85532
100
AcDbEntity
  8
JISSEN
100
AcDbLine
 10
81.00000000000079
 20
198.3285941605556
 30
0.0
 11
79.7380756363907
 21
197.0666697969454
 31
0.0
  0
LINE
  5
EF7C87B4F
330
EF7C85532
100
AcDbEntity
  8
JISSEN
100
AcDbLine
 10
106.4980467557758
 20
185.0785941605563
 30
0.0
 11
106.4980467557758
 21
167.6785941605561
 31
0.0
  0
LINE
  5
EF7C87B50
330
EF7C85532
100
AcDbEntity
  8
JISSEN
100
AcDbLine
 10
105.4980467557758
 20
185.0785941605563
 30
0.0
 11
105.4980467557758
 21
167.6785941605561
 31
0.0
  0
LINE
  5
EF7C87B51
330
EF7C85532
100
AcDbEntity
  8
JISSEN
100
AcDbLine
 10
105.4980467557758
 20
167.6785941605561
 30
0.0
 11
106.4980467557758
 21
167.6785941605561
 31
0.0
  0
LINE
  5
EF7C87B52
330
EF7C85532
100
AcDbEntity
  8
JISSEN
100
AcDbLine
 10
100.2619243636108
 20
197.0666697969473
 30
0.0
 11
100.6365704490751
 21
185.0785941605565
 31
0.0
  0
LINE
  5
EF7C87B53
330
EF7C85532
100
AcDbEntity
  8
SAISEN
100
AcDbLine
 10
99.06243855897415
 20
198.2661556015842
 30
0.0
 11
99.47457044907515
 21
185.0785941605565
 31
0.0
  0
LINE
  5
EF7C87B54
330
EF7C85532
100
AcDbEntity
  8
JISSEN
100
AcDbLine
 10
108.2499999999997
 20
185.0785941605563
 30
0.0
 11
108.4999999999997
 21
184.8285941605563
 31
0.0
  0
LINE
  5
EF7C87B55
330
EF7C85532
100
AcDbEntity
  8
JISSEN
100
AcDbLine
 10
99.0000000000008
 20
198.3285941605575
 30
0.0
 11
100.2619243636108
 21
197.0666697969473
 31
0.0
  0
LINE
  5
EF7C87B56
330
EF7C85532
100
AcDbEntity
  8
JISSEN
100
AcDbLine
 10
98.07690546058942
 20
198.3285941605574
 30
0.0
 11
99.0000000000008
 21
198.3285941605575
 31
0.0
  0
LINE
  5
EF7C87B58
330
EF7C85532
100
AcDbEntity
  8
JISSEN
100
AcDbLine
 10
91.49999927599994
 20
264.9999999999999
 30
0.0
 11
180.9999992759999
 21
264.9999999999999
 31
0.0
  0
TEXT
  5
EF7C87B59
330
EF7C85532
100
AcDbEntity
  8
TEXT
100
AcDbText
 10
107.8999992759999
 20
278.4999999999999
 30
0.0
 40
3.0
  1
名      称
  7
K
 72
     4
 11
116.4999992759999
 21
279.9999999999999
 31
0.0
100
AcDbText
  0
LINE
  5
EF7C87B5A
330
EF7C85532
100
AcDbEntity
  8
JISSEN
100
AcDbLine
 10
91.49999927599994
 20
270.9999999999999
 30
0.0
 11
180.9999992759999
 21
270.9999999999999
 31
0.0
  0
LINE
  5
EF7C87B5B
330
EF7C85532
100
AcDbEntity
  8
JISSEN
100
AcDbLine
 10
91.49999927599994
 20
276.9999999999999
 30
0.0
 11
180.9999992759999
 21
276.9999999999999
 31
0.0
  0
TEXT
  5
EF7C87B5E
330
EF7C85532
100
AcDbEntity
  8
TEXT
100
AcDbText
 10
95.28571356171429
 20
272.4999999999999
 30
0.0
 40
3.0
  1
1
  7
K
 72
     4
 11
96.49999927599999
 21
273.9999999999999
 31
0.0
100
AcDbText
  0
LINE
  5
EF7C87B5F
330
EF7C85532
100
AcDbEntity
  8
JISSEN
100
AcDbLine
 10
101.4999992759999
 20
282.9999999999998
 30
0.0
 11
101.4999992759999
 21
264.9999999999999
 31
0.0
  0
LINE
  5
EF7C87B60
330
EF7C85532
100
AcDbEntity
  8
JISSEN
100
AcDbLine
 10
91.49999927599994
 20
264.9999999999999
 30
0.0
 11
91.49999927599994
 21
282.9999999999998
 31
0.0
  0
TEXT
  5
EF7C87B61
330
EF7C85532
100
AcDbEntity
  8
TEXT
100
AcDbText
 10
95.38307168153433
 20
266.4999999999999
 30
0.0
 40
3.0
  1
2
  7
K
 72
     4
 11
96.81164311010576
 21
267.9999999999999
 31
0.0
100
AcDbText
  0
TEXT
  5
EF7C87B64
330
EF7C85532
100
AcDbEntity
  8
TEXT
100
AcDbText
 10
93.29999927599999
 20
278.4999999999999
 30
0.0
 40
3.0
  1
番号
  7
K
 72
     4
 11
96.49999927599999
 21
279.9999999999999
 31
0.0
100
AcDbText
  0
TEXT
  5
EF7C87B66
330
EF7C85532
100
AcDbEntity
  8
TEXT
100
AcDbText
 10
156.6795477624092
 20
272.4999999999999
 30
0.0
 40
3.0
  1
1
  7
K
 72
     4
 11
157.8938334766949
 21
273.9999999999999
 31
0.0
100
AcDbText
  0
LINE
  5
EF7C87B67
330
EF7C85532
100
AcDbEntity
  8
JISSEN
100
AcDbLine
 10
163.4999992759999
 20
282.9999999999998
 30
0.0
 11
163.4999992759999
 21
264.9999999999999
 31
0.0
  0
LINE
  5
EF7C87B68
330
EF7C85532
100
AcDbEntity
  8
JISSEN
100
AcDbLine
 10
152.4999992759999
 20
264.9999999999999
 30
0.0
 11
152.4999992759999
 21
282.9999999999998
 31
0.0
  0
LINE
  5
EF7C87B69
330
EF7C85532
100
AcDbEntity
  8
JISSEN
100
AcDbLine
 10
131.4999992759998
 20
282.9999999999998
 30
0.0
 11
131.4999992759998
 21
264.9999999999999
 31
0.0
  0
TEXT
  5
EF7C87B6A
330
EF7C85532
100
AcDbEntity
  8
TEXT
100
AcDbText
 10
137.642856418857
 20
266.4999999999999
 30
0.0
 40
3.0
  1
PBT
  7
K
 72
     4
 11
141.9999992759999
 21
267.9999999999999
 31
0.0
100
AcDbText
  0
TEXT
  5
EF7C87B6B
330
EF7C85532
100
AcDbEntity
  8
TEXT
100
AcDbText
 10
136.8249992759998
 20
274.2999999999999
 30
0.0
 40
3.0
  1
%%u      
  7
K
 72
     4
 11
141.9999992759999
 21
273.9999999999999
 31
0.0
100
AcDbText
  0
TEXT
  5
EF7C87B70
330
EF7C85532
100
AcDbEntity
  8
TEXT
100
AcDbText
 10
156.6795477624092
 20
266.580835176341
 30
0.0
 40
3.0
  1
1
  7
K
 72
     4
 11
157.8938334766949
 21
268.0808351763409
 31
0.0
100
AcDbText
  0
TEXT
  5
EF7C87B71
330
EF7C85532
100
AcDbEntity
  8
TEXT
100
AcDbText
 10
135.1999992759998
 20
278.4999999999999
 30
0.0
 40
3.0
  1
材    質
  7
K
 72
     4
 11
141.9999992759999
 21
279.9999999999999
 31
0.0
100
AcDbText
  0
TEXT
  5
EF7C87B72
330
EF7C85532
100
AcDbEntity
  8
TEXT
100
AcDbText
 10
165.6999992759998
 20
278.4999999999999
 30
0.0
 40
3.0
  1
備    考
  7
K
 72
     4
 11
172.4999992759999
 21
279.9999999999999
 31
0.0
100
AcDbText
  0
TEXT
  5
EF7C87B73
330
EF7C85532
100
AcDbEntity
  8
TEXT
100
AcDbText
 10
154.7999992759999
 20
278.4999999999999
 30
0.0
 40
3.0
  1
個数
  7
K
 72
     4
 11
157.9999992759999
 21
279.9999999999999
 31
0.0
100
AcDbText
  0
LINE
  5
EF7C87B74
330
EF7C85532
100
AcDbEntity
  8
JISSEN
100
AcDbLine
 10
289.4999992759998
 20
159.078594091518
 30
0.0
 11
289.4999992759998
 21
184.8285940915184
 31
0.0
  0
LINE
  5
EF7C87B75
330
EF7C85532
100
AcDbEntity
  8
JISSEN
100
AcDbLine
 10
252.4999992760001
 20
159.078594091518
 30
0.0
 11
252.4999992760001
 21
184.8285940915184
 31
0.0
  0
LINE
  5
EF7C87B76
330
EF7C85532
100
AcDbEntity
  8
JISSEN
100
AcDbLine
 10
295.9999992760001
 20
159.0785940915185
 30
0.0
 11
295.9999992760001
 21
164.0785940915185
 31
0.0
  0
LWPOLYLINE
  5
EF7C87B77
330
EF7C85532
100
AcDbEntity
  8
HATCH
100
AcDbPolyline
 90
       13
 70
     0
 43
0.0
 10
339.7336682651255
 20
164.0785940915185
 10
339.5690810868754
 20
163.2589570132863
 10
339.4271757301952
 20
162.7423390365221
 10
339.1994670930473
 20
162.3239127498344
 10
338.8915796063882
 20
161.9857957261674
 10
338.5253563174084
 20
161.6955446535173
 10
338.1226402732998
 20
161.4207162198798
 10
337.7052745212528
 20
161.1288671132508
 10
337.295102108459
 20
160.787554021626
 10
336.9139660821094
 20
160.3643336330016
 10
336.5837094893949
 20
159.8267626353734
 10
336.3091294261921
 20
159.163143848086
 10
336.2759052316956
 20
159.0785940915185
  0
INSERT
  5
EF7C87B78
330
EF7C85532
100
AcDbEntity
  8
HATCH
100
AcDbBlockReference
  2
*X11
 10
360.9999992760002
 20
19.99999993096264
 30
0.0
 41
-1.0
1001
ACAD
1000
HATCH
1002
{
1070
    16
1000
_U
1040
2.0
1040
0.7853981633974483
1070
     0
1002
}
  0
INSERT
  5
EF7C87B79
330
EF7C85532
100
AcDbEntity
  8
HATCH
100
AcDbBlockReference
  2
*X11
 10
180.9999992759999
 20
19.99999993096264
 30
0.0
1001
ACAD
1000
HATCH
1002
{
1070
    16
1000
_U
1040
2.0
1040
0.7853981633974483
1070
     0
1002
}
  0
LWPOLYLINE
  5
EF7C87B7A
330
EF7C85532
100
AcDbEntity
  8
HATCH
100
AcDbPolyline
 90
       13
 70
     0
 43
0.0
 10
202.2663302868745
 20
164.0785940915185
 10
202.4309174651245
 20
163.2589570132863
 10
202.5728228218047
 20
162.7423390365221
 10
202.8005314589526
 20
162.3239127498344
 10
203.1084189456119
 20
161.9857957261674
 10
203.4746422345913
 20
161.6955446535173
 10
203.8773582787001
 20
161.4207162198798
 10
204.2947240307471
 20
161.1288671132508
 10
204.7048964435409
 20
160.787554021626
 10
205.0860324698906
 20
160.3643336330016
 10
205.416289062605
 20
159.8267626353734
 10
205.6908691258078
 20
159.163143848086
 10
205.7240933203043
 20
159.0785940915185
  0
LINE
  5
EF7C87B7B
330
EF7C85532
100
AcDbEntity
  8
JISSEN
100
AcDbLine
 10
245.9999992759998
 20
159.0785940915185
 30
0.0
 11
245.9999992759998
 21
164.0785940915185
 31
0.0
  0
LINE
  5
EF7C87C58
330
EF7C85532
100
AcDbEntity
  8
JISSEN
100
AcDbLine
 10
339.7336682651255
 20
164.0785940915185
 30
0.0
 11
289.4999992759995
 21
164.0785940915185
 31
0.0
  0
LWPOLYLINE
  5
EF7C87C59
330
EF7C85532
100
AcDbEntity
  8
NITEN
100
AcDbPolyline
 90
        5
 70
     0
 43
0.0
 10
287.9999992759998
 20
228.4391429972425
 10
287.9999992759998
 20
249.2768606483884
 42
-0.5882352941176476
 10
270.9999992759999
 20
249.2768606483884
 42
0.5882352941176477
 10
253.9999992759998
 20
249.2768606483881
 10
253.9999992759998
 20
228.4391429972425
  0
LWPOLYLINE
  5
EF7C87C5A
330
EF7C85532
100
AcDbEntity
  8
NITEN
100
AcDbPolyline
 90
        2
 70
     0
 43
0.0
 10
287.9999992759998
 20
249.2768606483884
 42
0.5882352941176295
 10
270.9999992759999
 20
249.2768606483886
 42
0.5882352941176295
  0
LINE
  5
EF7C87C5B
330
EF7C85532
100
AcDbEntity
  8
JISSEN
100
AcDbLine
 10
202.2663302868745
 20
164.0785940915185
 30
0.0
 11
252.4999992760005
 21
164.0785940915185
 31
0.0
  0
LWPOLYLINE
  5
EF7C87C5C
330
EF7C85532
100
AcDbEntity
  8
NITEN
100
AcDbPolyline
 90
       15
 70
     1
 43
0.0
 10
256.9999992759999
 20
187.9391429972425
 42
0.4142135623730927
 10
258.4999992759999
 20
186.4391429972425
 10
281.5940504469966
 20
186.4391429972425
 10
283.4999992759998
 20
186.4391429972425
 42
0.4142135623730925
 10
284.9999992759998
 20
187.9391429972425
 10
284.9999992759998
 20
198.9851590234605
 42
-0.4142135623730943
 10
289.9999992759998
 20
203.9851590234605
 42
0.4142135623730951
 10
291.9999992759998
 20
205.9851590234605
 10
291.9999992759998
 20
226.4391429972425
 42
0.4142135623730949
 10
289.9999992759998
 20
228.4391429972425
 10
251.9999992759998
 20
228.4391429972425
 42
0.4142135623730951
 10
249.9999992759998
 20
226.4391429972425
 10
249.9999992759998
 20
205.9851590234605
 42
0.4142135623730951
 10
251.9999992759998
 20
203.9851590234605
 42
-0.4142135623730961
 10
256.9999992759999
 20
198.9851590234605
  0
LINE
  5
EF7C87C5D
330
EF7C85532
100
AcDbEntity
  8
JISSEN
100
AcDbLine
 10
252.7499992760001
 20
185.0785940915185
 30
0.0
 11
270.4999992760008
 21
185.078594091519
 31
0.0
  0
LINE
  5
EF7C87C5E
330
EF7C85532
100
AcDbEntity
  8
JISSEN
100
AcDbLine
 10
260.7380749123905
 20
197.0666697279081
 30
0.0
 11
281.2619236396108
 21
197.0666697279099
 31
0.0
  0
LINE
  5
EF7C87C5F
330
EF7C85532
100
AcDbEntity
  8
JISSEN
100
AcDbLine
 10
262.9232606914427
 20
198.3285940915184
 30
0.0
 11
279.0769047365896
 21
198.3285940915191
 31
0.0
  0
LINE
  5
EF7C87C60
330
EF7C85532
100
AcDbEntity
  8
JISSEN
100
AcDbLine
 10
255.5019525202239
 20
185.0785940915185
 30
0.0
 11
255.5019525202239
 21
167.6785940915183
 31
0.0
  0
LINE
  5
EF7C87C61
330
EF7C85532
100
AcDbEntity
  8
JISSEN
100
AcDbLine
 10
254.5019525202238
 20
185.0785940915185
 30
0.0
 11
254.5019525202238
 21
167.6785940915183
 31
0.0
  0
LINE
  5
EF7C87C62
330
EF7C85532
100
AcDbEntity
  8
JISSEN
100
AcDbLine
 10
255.5019525202239
 20
167.6785940915183
 30
0.0
 11
254.5019525202238
 21
167.6785940915183
 31
0.0
  0
LINE
  5
EF7C87C63
330
EF7C85532
100
AcDbEntity
  8
JISSEN
100
AcDbLine
 10
260.7380749123905
 20
197.0666697279081
 30
0.0
 11
260.3634288269264
 21
185.0785940915186
 31
0.0
  0
LINE
  5
EF7C87C64
330
EF7C85532
100
AcDbEntity
  8
SAISEN
100
AcDbLine
 10
261.9375607170275
 20
198.266155532545
 30
0.0
 11
261.5254288269264
 21
185.0785940915186
 31
0.0
  0
LINE
  5
EF7C87C65
330
EF7C85532
100
AcDbEntity
  8
JISSEN
100
AcDbLine
 10
252.7499992760001
 20
185.0785940915185
 30
0.0
 11
252.4999992760001
 21
184.8285940915184
 31
0.0
  0
LINE
  5
EF7C87C66
330
EF7C85532
100
AcDbEntity
  8
JISSEN
100
AcDbLine
 10
261.9999992760008
 20
198.3285940915184
 30
0.0
 11
262.9232606914427
 21
198.3285940915184
 31
0.0
  0
LINE
  5
EF7C87C67
330
EF7C85532
100
AcDbEntity
  8
JISSEN
100
AcDbLine
 10
261.9999992760008
 20
198.3285940915184
 30
0.0
 11
260.7380749123905
 21
197.0666697279081
 31
0.0
  0
LINE
  5
EF7C87C68
330
EF7C85532
100
AcDbEntity
  8
JISSEN
100
AcDbLine
 10
271.499999275999
 20
185.0785940915185
 30
0.0
 11
271.499999275999
 21
167.6785940915193
 31
0.0
  0
LINE
  5
EF7C87C69
330
EF7C85532
100
AcDbEntity
  8
JISSEN
100
AcDbLine
 10
286.4980460317761
 20
185.0785940915185
 30
0.0
 11
286.4980460317761
 21
167.6785940915183
 31
0.0
  0
LINE
  5
EF7C87C6A
330
EF7C85532
100
AcDbEntity
  8
JISSEN
100
AcDbLine
 10
287.4980460317761
 20
185.0785940915185
 30
0.0
 11
287.4980460317761
 21
167.6785940915183
 31
0.0
  0
LINE
  5
EF7C87C6B
330
EF7C85532
100
AcDbEntity
  8
JISSEN
100
AcDbLine
 10
270.4999992760008
 20
185.0785940915185
 30
0.0
 11
270.4999992760008
 21
167.6785940915193
 31
0.0
  0
LINE
  5
EF7C87C6C
330
EF7C85532
100
AcDbEntity
  8
JISSEN
100
AcDbLine
 10
271.499999275999
 20
167.6785940915193
 30
0.0
 11
270.9999992759999
 21
167.6785940915193
 31
0.0
  0
LINE
  5
EF7C87C6D
330
EF7C85532
100
AcDbEntity
  8
JISSEN
100
AcDbLine
 10
270.4999992760008
 20
167.6785940915193
 30
0.0
 11
270.9999992759999
 21
167.6785940915193
 31
0.0
  0
LINE
  5
EF7C87C6E
330
EF7C85532
100
AcDbEntity
  8
JISSEN
100
AcDbLine
 10
286.4980460317761
 20
167.6785940915183
 30
0.0
 11
287.4980460317761
 21
167.6785940915183
 31
0.0
  0
LINE
  5
EF7C87C6F
330
EF7C85532
100
AcDbEntity
  8
JISSEN
100
AcDbLine
 10
279.9999992760008
 20
198.32859409152
 30
0.0
 11
281.2619236396108
 21
197.0666697279099
 31
0.0
  0
LINE
  5
EF7C87C70
330
EF7C85532
100
AcDbEntity
  8
JISSEN
100
AcDbLine
 10
289.2499992759998
 20
185.0785940915185
 30
0.0
 11
271.499999275999
 21
185.078594091519
 31
0.0
  0
LINE
  5
EF7C87C71
330
EF7C85532
100
AcDbEntity
  8
JISSEN
100
AcDbLine
 10
279.0769047365893
 20
198.32859409152
 30
0.0
 11
279.9999992760008
 21
198.32859409152
 31
0.0
  0
LINE
  5
EF7C87C72
330
EF7C85532
100
AcDbEntity
  8
JISSEN
100
AcDbLine
 10
281.2619236396108
 20
197.0666697279099
 30
0.0
 11
281.6365697250751
 21
185.0785940915186
 31
0.0
  0
LINE
  5
EF7C87C73
330
EF7C85532
100
AcDbEntity
  8
SAISEN
100
AcDbLine
 10
280.0624378349741
 20
198.2661555325469
 30
0.0
 11
280.4745697250751
 21
185.0785940915186
 31
0.0
  0
LINE
  5
EF7C87C74
330
EF7C85532
100
AcDbEntity
  8
JISSEN
100
AcDbLine
 10
289.2499992759998
 20
185.0785940915185
 30
0.0
 11
289.4999992759998
 21
184.8285940915184
 31
0.0
  0
TEXT
  5
EF7C87C77
330
EF7C85532
100
AcDbEntity
  8
SUNPOU
100
AcDbText
 10
312.0931215229607
 20
7.849423898685245
 30
0.0
 40
3.0
  1
ZN   ガードZN   作動状態
  7
K
100
AcDbText
  0
TEXT
  5
EF7C87C7C
330
EF7C85532
100
AcDbEntity
  8
SUNPOU
100
AcDbText
 10
312.0931215229607
 20
2.849423898685245
 30
0.0
 40
3.0
  1
尺度　1/1
  7
K
100
AcDbText
  0
LINE
  5
EF7C87C83
330
EF7C85532
100
AcDbEntity
  8
JISSEN
100
AcDbLine
 10
265.880532898427
 20
143.3344225627276
 30
0.0
 11
263.5000827140156
 21
143.3344225627275
 31
0.0
  0
LINE
  5
EF7C87C84
330
EF7C85532
100
AcDbEntity
  8
JISSEN
100
AcDbLine
 10
263.5000827140156
 20
143.0344225627276
 30
0.0
 11
269.4999992759999
 21
143.0344225627276
 31
0.0
  0
LINE
  5
EF7C87C85
330
EF7C85532
100
AcDbEntity
  8
JISSEN
100
AcDbLine
 10
269.4999992759999
 20
140.9344225627276
 30
0.0
 11
261.1000827140157
 21
140.9344225627276
 31
0.0
  0
LINE
  5
EF7C87C86
330
EF7C85532
100
AcDbEntity
  8
JISSEN
100
AcDbLine
 10
261.0000827140157
 20
139.9344225627277
 30
0.0
 11
269.4999992759998
 21
139.9344225627277
 31
0.0
  0
LINE
  5
EF7C87C87
330
EF7C85532
100
AcDbEntity
  8
JISSEN
100
AcDbLine
 10
268.0250827140159
 20
139.0285940915193
 30
0.0
 11
265.2250827140159
 21
139.0285940915193
 31
0.0
  0
LINE
  5
EF7C87C88
330
EF7C85532
100
AcDbEntity
  8
JISSEN
100
AcDbLine
 10
265.125082714016
 20
139.8285940915193
 30
0.0
 11
265.125082714016
 21
139.1285940915192
 31
0.0
  0
ARC
  5
EF7C87C89
330
EF7C85532
100
AcDbEntity
  8
JISSEN
100
AcDbCircle
 10
265.2250827140159
 20
139.1285940915192
 30
0.0
 40
0.0999999999999943
100
AcDbArc
 50
179.9999999999836
 51
269.9999999999837
  0
ARC
  5
EF7C87C8A
330
EF7C85532
100
AcDbEntity
  8
JISSEN
100
AcDbCircle
 10
261.0000827140157
 20
140.9344225627275
 30
0.0
 40
1.0
100
AcDbArc
 50
180.0
 51
270.0
  0
LINE
  5
EF7C87C8B
330
EF7C85532
100
AcDbEntity
  8
JISSEN
100
AcDbLine
 10
261.0000827140157
 20
143.6344225627276
 30
0.0
 11
260.0000827140157
 21
143.6344225627276
 31
0.0
  0
LINE
  5
EF7C87C8C
330
EF7C85532
100
AcDbEntity
  8
JISSEN
100
AcDbLine
 10
261.0000827140157
 20
141.7344225627275
 30
0.0
 11
260.0000827140157
 21
141.7344225627275
 31
0.0
  0
LINE
  5
EF7C87C8D
330
EF7C85532
100
AcDbEntity
  8
JISSEN
100
AcDbLine
 10
260.0000827140157
 20
143.6344225627276
 30
0.0
 11
260.0000827140157
 21
140.9344225627275
 31
0.0
  0
LINE
  5
EF7C87C8E
330
EF7C85532
100
AcDbEntity
  8
JISSEN
100
AcDbLine
 10
261.0000827140157
 20
141.0344225627276
 30
0.0
 11
261.0000827140157
 21
143.6344225627276
 31
0.0
  0
ARC
  5
EF7C87C8F
330
EF7C85532
100
AcDbEntity
  8
JISSEN
100
AcDbCircle
 10
261.1000827140155
 20
141.0344225627276
 30
0.0
 40
0.0999999999999943
100
AcDbArc
 50
180.0000000000161
 51
270.0000000000162
  0
LINE
  5
EF7C87C90
330
EF7C85532
100
AcDbEntity
  8
JISSEN
100
AcDbLine
 10
263.5000827140156
 20
143.0344225627276
 30
0.0
 11
263.5000827140157
 21
140.9344225627276
 31
0.0
  0
LINE
  5
EF7C87C91
330
EF7C85532
100
AcDbEntity
  8
JISSEN
100
AcDbLine
 10
263.5000827140156
 20
143.3344225627275
 30
0.0
 11
263.5000827140156
 21
143.0344225627276
 31
0.0
  0
ARC
  5
EF7C87C92
330
EF7C85532
100
AcDbEntity
  8
JISSEN
100
AcDbCircle
 10
265.2250827140159
 20
139.8285940915193
 30
0.0
 40
0.0999999999999943
100
AcDbArc
 50
90.00000000001628
 51
180.0000000000161
  0
LWPOLYLINE
  5
EF7C87C93
330
EF7C85532
100
AcDbEntity
  8
JISSEN
100
AcDbPolyline
 90
        3
 70
     0
 43
0.0
 10
272.4999992759999
 20
139.0763216675374
 42
0.0405923580291723
 10
273.7499158379833
 20
139.4219329620692
 10
273.7499158379833
 20
139.9344225627277
  0
LWPOLYLINE
  5
EF7C87C94
330
EF7C85532
100
AcDbEntity
  8
JISSEN
100
AcDbPolyline
 90
        3
 70
     0
 43
0.0
 10
269.4999992759999
 20
139.0763216675374
 42
-0.0405923580292011
 10
268.2500827140157
 20
139.4219329620692
 10
268.2500827140157
 20
139.9344225627277
  0
LINE
  5
EF7C87C97
330
EF7C85532
100
AcDbEntity
  8
JISSEN
100
AcDbLine
 10
276.8749158379828
 20
139.8285940915193
 30
0.0
 11
276.8749158379828
 21
139.1285940915192
 31
0.0
  0
LINE
  5
EF7C87C98
330
EF7C85532
100
AcDbEntity
  8
JISSEN
100
AcDbLine
 10
273.874915837983
 20
139.8285940915193
 30
0.0
 11
273.874915837983
 21
139.1285940915192
 31
0.0
  0
LINE
  5
EF7C87C99
330
EF7C85532
100
AcDbEntity
  8
JISSEN
100
AcDbLine
 10
268.125082714016
 20
139.8285940915193
 30
0.0
 11
268.125082714016
 21
139.1285940915192
 31
0.0
  0
ARC
  5
EF7C87C9A
330
EF7C85532
100
AcDbEntity
  8
JISSEN
100
AcDbCircle
 10
268.0250827140159
 20
139.1285940915192
 30
0.0
 40
0.0999999999999943
100
AcDbArc
 50
270.0000000000162
 51
0.0000000000162844
  0
ARC
  5
EF7C87C9B
330
EF7C85532
100
AcDbEntity
  8
JISSEN
100
AcDbCircle
 10
267.2264093588959
 20
138.378023634331
 30
0.0
 40
0.0999999999999943
100
AcDbArc
 50
270.0000000000195
 51
0.0000000000195413
  0
ARC
  5
EF7C87C9C
330
EF7C85532
100
AcDbEntity
  8
JISSEN
100
AcDbCircle
 10
266.023756069136
 20
138.378023634331
 30
0.0
 40
0.0999999999999943
100
AcDbArc
 50
179.9999999999836
 51
269.9999999999837
  0
LINE
  5
EF7C87C9D
330
EF7C85532
100
AcDbEntity
  8
JISSEN
100
AcDbLine
 10
267.2370754742253
 20
138.2785940915193
 30
0.0
 11
266.0130899538061
 21
138.2785940915193
 31
0.0
  0
LINE
  5
EF7C87C9E
330
EF7C85532
100
AcDbEntity
  8
JISSEN
100
AcDbLine
 10
267.3250827140159
 20
139.0285940915193
 30
0.0
 11
267.3250827140159
 21
138.3801384336995
 31
0.0
  0
LINE
  5
EF7C87C9F
330
EF7C85532
100
AcDbEntity
  8
JISSEN
100
AcDbLine
 10
265.925082714016
 20
139.0285940915193
 30
0.0
 11
265.925082714016
 21
138.3801384336994
 31
0.0
  0
LINE
  5
EF7C87CAA
330
EF7C85532
100
AcDbEntity
  8
JISSEN
100
AcDbLine
 10
273.974915837983
 20
139.0285940915193
 30
0.0
 11
276.774915837983
 21
139.0285940915193
 31
0.0
  0
ARC
  5
EF7C87CAB
330
EF7C85532
100
AcDbEntity
  8
JISSEN
100
AcDbCircle
 10
273.974915837983
 20
139.1285940915192
 30
0.0
 40
0.0999999999999943
100
AcDbArc
 50
179.9999999999836
 51
269.9999999999837
  0
LINE
  5
EF7C87CAC
330
EF7C85532
100
AcDbEntity
  8
JISSEN
100
AcDbLine
 10
276.074915837983
 20
139.0285940915193
 30
0.0
 11
276.074915837983
 21
138.3801384336994
 31
0.0
  0
LINE
  5
EF7C87CAD
330
EF7C85532
100
AcDbEntity
  8
JISSEN
100
AcDbLine
 10
274.674915837983
 20
139.0285940915193
 30
0.0
 11
274.674915837983
 21
138.3801384336995
 31
0.0
  0
LINE
  5
EF7C87CAE
330
EF7C85532
100
AcDbEntity
  8
JISSEN
100
AcDbLine
 10
274.7629230777735
 20
138.2785940915193
 30
0.0
 11
275.9869085981926
 21
138.2785940915193
 31
0.0
  0
ARC
  5
EF7C87CAF
330
EF7C85532
100
AcDbEntity
  8
JISSEN
100
AcDbCircle
 10
275.976242482863
 20
138.378023634331
 30
0.0
 40
0.0999999999999943
100
AcDbArc
 50
270.0000000000162
 51
0.0000000000162915
  0
ARC
  5
EF7C87CB0
330
EF7C85532
100
AcDbEntity
  8
JISSEN
100
AcDbCircle
 10
274.7735891931029
 20
138.378023634331
 30
0.0
 40
0.0999999999999943
100
AcDbArc
 50
179.9999999999803
 51
269.9999999999803
  0
ARC
  5
EF7C87CB1
330
EF7C85532
100
AcDbEntity
  8
JISSEN
100
AcDbCircle
 10
276.774915837983
 20
139.1285940915192
 30
0.0
 40
0.0999999999999943
100
AcDbArc
 50
270.0000000000162
 51
0.0000000000162915
  0
LINE
  5
EF7C87CB2
330
EF7C85532
100
AcDbEntity
  8
JISSEN
100
AcDbLine
 10
280.9999158379833
 20
139.9344225627277
 30
0.0
 11
272.4999992759999
 21
139.9344225627277
 31
0.0
  0
LINE
  5
EF7C87CB3
330
EF7C85532
100
AcDbEntity
  8
JISSEN
100
AcDbLine
 10
272.4999992759999
 20
140.9344225627275
 30
0.0
 11
280.8999158379833
 21
140.9344225627276
 31
0.0
  0
LINE
  5
EF7C87CB6
330
EF7C85532
100
AcDbEntity
  8
JISSEN
100
AcDbLine
 10
276.074915837983
 20
143.3394474003839
 30
0.0
 11
276.0749158379829
 21
154.0785940915186
 31
0.0
  0
LINE
  5
EF7C87CB7
330
EF7C85532
100
AcDbEntity
  8
JISSEN
100
AcDbLine
 10
274.674915837983
 20
154.0785940915186
 30
0.0
 11
274.674915837983
 21
146.9147965274538
 31
0.0
  0
LINE
  5
EF7C87CB8
330
EF7C85532
100
AcDbEntity
  8
JISSEN
100
AcDbLine
 10
267.3250827140159
 20
154.0785940915186
 30
0.0
 11
267.3250827140159
 21
146.9147965274538
 31
0.0
  0
LINE
  5
EF7C87CB9
330
EF7C85532
100
AcDbEntity
  8
JISSEN
100
AcDbLine
 10
265.925082714016
 20
143.3394474003839
 30
0.0
 11
265.925082714016
 21
154.0785940915186
 31
0.0
  0
LINE
  5
EF7C87CBA
330
EF7C85532
100
AcDbEntity
  8
JISSEN
100
AcDbLine
 10
272.4999992759999
 20
146.9344225627275
 30
0.0
 11
274.4777689656088
 21
146.9344225627275
 31
0.0
  0
LINE
  5
EF7C87CBB
330
EF7C85532
100
AcDbEntity
  8
JISSEN
100
AcDbLine
 10
278.4999158379834
 20
143.0344225627276
 30
0.0
 11
272.4999992759999
 21
143.0344225627276
 31
0.0
  0
LINE
  5
EF7C87CBC
330
EF7C85532
100
AcDbEntity
  8
JISSEN
100
AcDbLine
 10
266.537421833378
 20
146.1080707403946
 30
0.0
 11
266.0483528246623
 21
143.3344225627276
 31
0.0
  0
ARC
  5
EF7C87CBD
330
EF7C85532
100
AcDbEntity
  8
JISSEN
100
AcDbCircle
 10
268.0250827140159
 20
139.8285940915193
 30
0.0
 40
0.0999999999999943
100
AcDbArc
 50
359.9999999999837
 51
89.99999999998371
  0
LINE
  5
EF7C87CBE
330
EF7C85532
100
AcDbEntity
  8
JISSEN
100
AcDbLine
 10
265.880532898427
 20
143.3344225627276
 30
0.0
 11
266.0483528246623
 21
143.3344225627276
 31
0.0
  0
LINE
  5
EF7C87CC1
330
EF7C85532
100
AcDbEntity
  8
JISSEN
100
AcDbLine
 10
269.4999992759999
 20
146.9344225627276
 30
0.0
 11
267.5222295863902
 21
146.9344225627275
 31
0.0
  0
ARC
  5
EF7C87CC2
330
EF7C85532
100
AcDbEntity
  8
JISSEN
100
AcDbCircle
 10
267.5222295863902
 20
145.9344225627276
 30
0.0
 40
0.9999999999999856
100
AcDbArc
 50
89.99999999999836
 51
169.9999999999996
  0
LINE
  5
EF7C87CC3
330
EF7C85532
100
AcDbEntity
  8
JISSEN
100
AcDbLine
 10
275.4625767186209
 20
146.1080707403946
 30
0.0
 11
275.9516457273365
 21
143.3344225627276
 31
0.0
  0
LINE
  5
EF7C87CC4
330
EF7C85532
100
AcDbEntity
  8
JISSEN
100
AcDbLine
 10
276.1194656535719
 20
143.3344225627276
 30
0.0
 11
278.4999158379834
 21
143.3344225627275
 31
0.0
  0
ARC
  5
EF7C87CC5
330
EF7C85532
100
AcDbEntity
  8
JISSEN
100
AcDbCircle
 10
273.974915837983
 20
139.8285940915193
 30
0.0
 40
0.0999999999999943
100
AcDbArc
 50
90.00000000001628
 51
180.0000000000163
  0
LINE
  5
EF7C87CC6
330
EF7C85532
100
AcDbEntity
  8
JISSEN
100
AcDbLine
 10
276.1194656535719
 20
143.3344225627276
 30
0.0
 11
275.9516457273365
 21
143.3344225627276
 31
0.0
  0
ARC
  5
EF7C87CC7
330
EF7C85532
100
AcDbEntity
  8
JISSEN
100
AcDbCircle
 10
276.774915837983
 20
139.8285940915193
 30
0.0
 40
0.0999999999999943
100
AcDbArc
 50
359.9999999999837
 51
89.99999999998371
  0
LINE
  5
EF7C87CC8
330
EF7C85532
100
AcDbEntity
  8
JISSEN
100
AcDbLine
 10
278.4999158379834
 20
143.3344225627275
 30
0.0
 11
278.4999158379834
 21
143.0344225627276
 31
0.0
  0
LINE
  5
EF7C87CC9
330
EF7C85532
100
AcDbEntity
  8
JISSEN
100
AcDbLine
 10
278.4999158379834
 20
143.0344225627276
 30
0.0
 11
278.4999158379833
 21
140.9344225627276
 31
0.0
  0
ARC
  5
EF7C87CCA
330
EF7C85532
100
AcDbEntity
  8
JISSEN
100
AcDbCircle
 10
274.4777689656088
 20
145.9344225627276
 30
0.0
 40
0.9999999999999856
100
AcDbArc
 50
10.00000000000021
 51
90.00000000000161
  0
ARC
  5
EF7C87CCB
330
EF7C85532
100
AcDbEntity
  8
JISSEN
100
AcDbCircle
 10
280.8999158379833
 20
141.0344225627276
 30
0.0
 40
0.0999999999999943
100
AcDbArc
 50
269.9999999999837
 51
359.9999999999837
  0
LINE
  5
EF7C87CCC
330
EF7C85532
100
AcDbEntity
  8
JISSEN
100
AcDbLine
 10
280.9999158379833
 20
141.0344225627276
 30
0.0
 11
280.9999158379833
 21
143.6344225627276
 31
0.0
  0
LINE
  5
EF7C87CCD
330
EF7C85532
100
AcDbEntity
  8
JISSEN
100
AcDbLine
 10
281.9999158379833
 20
143.6344225627276
 30
0.0
 11
281.9999158379833
 21
140.9344225627275
 31
0.0
  0
LINE
  5
EF7C87CCE
330
EF7C85532
100
AcDbEntity
  8
JISSEN
100
AcDbLine
 10
280.9999158379833
 20
141.7344225627275
 30
0.0
 11
281.9999158379833
 21
141.7344225627275
 31
0.0
  0
LINE
  5
EF7C87CCF
330
EF7C85532
100
AcDbEntity
  8
JISSEN
100
AcDbLine
 10
280.9999158379833
 20
143.6344225627276
 30
0.0
 11
281.9999158379833
 21
143.6344225627276
 31
0.0
  0
ARC
  5
EF7C87CD0
330
EF7C85532
100
AcDbEntity
  8
JISSEN
100
AcDbCircle
 10
280.9999158379833
 20
140.9344225627275
 30
0.0
 40
1.0
100
AcDbArc
 50
270.0
 51
0.000000000000007
  0
ARC
  5
EF7C87E14
330
EF7C85532
100
AcDbEntity
  8
JISSEN
100
AcDbCircle
 10
89.99999999999984
 20
39.48090147231011
 30
0.0
 40
16.25
100
AcDbArc
 50
83.14235158465086
 51
96.85764841535196
  0
CIRCLE
  5
EF7C87E15
330
EF7C85532
100
AcDbEntity
  8
JISSEN
100
AcDbCircle
 10
89.99999999999984
 20
39.48090147231011
 30
0.0
 40
3.0
  0
ARC
  5
EF7C87E16
330
EF7C85532
100
AcDbEntity
  8
TENSEN
100
AcDbCircle
 10
89.99999999999984
 20
39.48090147231011
 30
0.0
 40
8.5
100
AcDbArc
 50
240.4017547742365
 51
297.9588237526541
  0
ARC
  5
EF7C87E17
330
EF7C85532
100
AcDbEntity
  8
TENSEN
100
AcDbCircle
 10
89.99999999999984
 20
39.48090147231011
 30
0.0
 40
11.0
100
AcDbArc
 50
240.4017547742365
 51
297.9588237526541
  0
ARC
  5
EF7C87E18
330
EF7C85532
100
AcDbEntity
  8
JISSEN
100
AcDbCircle
 10
89.99999999999984
 20
25.48090147231011
 30
0.0
 40
2.25
100
AcDbArc
 50
206.8557628338708
 51
333.144237166129
  0
ARC
  5
EF7C87E19
330
EF7C85532
100
AcDbEntity
  8
JISSEN
100
AcDbCircle
 10
89.99999999999984
 20
39.48090147231011
 30
0.0
 40
17.5
100
AcDbArc
 50
218.2132107017384
 51
321.7867892982611
  0
ARC
  5
EF7C87E1A
330
EF7C85532
100
AcDbEntity
  8
JISSEN
100
AcDbCircle
 10
89.99999999999984
 20
39.48090147231011
 30
0.0
 40
17.0
100
AcDbArc
 50
218.4565193352709
 51
321.5434806647287
  0
CIRCLE
  5
EF7C87E1B
330
EF7C85532
100
AcDbEntity
  8
JISSEN
100
AcDbCircle
 10
89.99999999999984
 20
39.48090147231011
 30
0.0
 40
14.00000000000001
  0
CIRCLE
  5
EF7C87E1C
330
EF7C85532
100
AcDbEntity
  8
JISSEN
100
AcDbCircle
 10
89.99999999999984
 20
39.48090147231011
 30
0.0
 40
14.89999999999997
  0
CIRCLE
  5
EF7C87E1D
330
EF7C85532
100
AcDbEntity
  8
JISSEN
100
AcDbCircle
 10
89.99999999999984
 20
39.48090147231011
 30
0.0
 40
15.14999999999998
  0
LINE
  5
EF7C87E23
330
EF7C85532
100
AcDbEntity
  8
JISSEN
100
AcDbLine
 10
76.25000000000027
 20
28.65558392500474
 30
0.0
 11
76.84785172274661
 21
29.00075377806782
 31
0.0
  0
ARC
  5
EF7C87E24
330
EF7C85532
100
AcDbEntity
  8
JISSEN
100
AcDbCircle
 10
89.99999999999984
 20
39.48090147231011
 30
0.0
 40
16.25
100
AcDbArc
 50
203.1423515846493
 51
216.8576484153508
  0
ARC
  5
EF7C87E25
330
EF7C85532
100
AcDbEntity
  8
JISSEN
100
AcDbCircle
 10
77.87564434701771
 20
46.48090147231012
 30
0.0
 40
2.25
100
AcDbArc
 50
86.85576283387112
 51
213.144237166129
  0
ARC
  5
EF7C87E26
330
EF7C85532
100
AcDbEntity
  8
JISSEN
100
AcDbCircle
 10
89.99999999999984
 20
39.48090147231011
 30
0.0
 40
17.5
100
AcDbArc
 50
98.21321070173965
 51
201.7867892982625
  0
ARC
  5
EF7C87E27
330
EF7C85532
100
AcDbEntity
  8
JISSEN
100
AcDbCircle
 10
89.99999999999984
 20
39.48090147231011
 30
0.0
 40
17.0
100
AcDbArc
 50
98.45651933527186
 51
201.54348066473
  0
ARC
  5
EF7C87E29
330
EF7C85532
100
AcDbEntity
  8
JISSEN
100
AcDbCircle
 10
74.59785172274654
 20
32.89786809509777
 30
0.0
 40
0.5
100
AcDbArc
 50
23.14235158465034
 51
119.9999999999993
  0
LINE
  5
EF7C87E2A
330
EF7C85532
100
AcDbEntity
  8
JISSEN
100
AcDbLine
 10
74.34785172274654
 20
33.33088079698998
 30
0.0
 11
73.75000000000017
 21
32.98571094392687
 31
0.0
  0
TEXT
  5
EF7C87E2B
330
EF7C85532
100
AcDbEntity
  8
JISSEN
100
AcDbText
 10
82.03872905466147
 20
47.11961554418368
 30
0.0
 40
2.5
  1
J
 50
231.4503983591098
 41
0.85
  7
ROMANS
100
AcDbText
  0
ARC
  5
EF7C87E2E
330
EF7C85532
100
AcDbEntity
  8
JISSEN
100
AcDbCircle
 10
76.59785172274664
 20
29.43376647996005
 30
0.0
 40
0.5
100
AcDbArc
 50
299.9999999999993
 51
36.85764841535287
  0
TEXT
  5
EF7C87E30
330
EF7C85532
100
AcDbEntity
  8
JISSEN
100
AcDbText
 10
80.62452396766872
 20
45.29745001110121
 30
0.0
 40
2.5
  1
U
 50
243.4503983591103
 41
0.85
  7
ROMANS
100
AcDbText
  0
TEXT
  5
EF7C87E31
330
EF7C85532
100
AcDbEntity
  8
JISSEN
100
AcDbText
 10
79.4941013743865
 20
36.11075580702134
 30
0.0
 40
2.5
  1
N
 50
293.0513929912548
 41
0.85
  7
ROMANS
100
AcDbText
  0
TEXT
  5
EF7C87E32
330
EF7C85532
100
AcDbEntity
  8
JISSEN
100
AcDbText
 10
79.02298778223124
 20
38.36870072249572
 30
0.0
 40
2.5
  1
Z
 50
281.0513929912553
 41
0.85
  7
ROMANS
100
AcDbText
  0
LINE
  5
EF7C87E33
330
EF7C85532
100
AcDbEntity
  8
TENSEN
100
AcDbLine
 10
85.80172048813864
 20
32.09006598907233
 30
0.0
 11
84.56693239641477
 21
29.91629084694357
 31
0.0
  0
TEXT
  5
EF7C87E36
330
EF7C85532
100
AcDbEntity
  8
JISSEN
100
AcDbText
 10
85.83396200983372
 20
49.69735463382469
 30
0.0
 40
2.5
  1
E
 50
207.4503983591101
 41
0.85
  7
ROMANS
100
AcDbText
  0
TEXT
  5
EF7C87E37
330
EF7C85532
100
AcDbEntity
  8
JISSEN
100
AcDbText
 10
83.80087988438203
 20
48.60793261770843
 30
0.0
 40
2.5
  1
N
 50
219.4503983591096
 41
0.85
  7
ROMANS
100
AcDbText
  0
TEXT
  5
EF7C87E38
330
EF7C85532
100
AcDbEntity
  8
JISSEN
100
AcDbText
 10
88.04911998632388
 20
50.34026862280133
 30
0.0
 40
2.5
  1
S
 50
195.4503983591095
 41
0.85
  7
ROMANS
100
AcDbText
  0
LINE
  5
EF7C87E39
330
EF7C85532
100
AcDbEntity
  8
JISSEN
100
AcDbLine
 10
87.49999999999941
 20
56.80140954799882
 30
0.0
 11
87.49999999999941
 21
56.11106984187266
 31
0.0
  0
ARC
  5
EF7C87E3A
330
EF7C85532
100
AcDbEntity
  8
JISSEN
100
AcDbCircle
 10
87.9999999999994
 20
56.11106984187264
 30
0.0
 40
0.5
100
AcDbArc
 50
180.0
 51
276.8576484153523
  0
ARC
  5
EF7C87E3D
330
EF7C85532
100
AcDbEntity
  8
JISSEN
100
AcDbCircle
 10
105.402148277253
 20
32.8978680950977
 30
0.0
 40
0.5
100
AcDbArc
 50
59.99999999999985
 51
156.8576484153495
  0
ARC
  5
EF7C87E3E
330
EF7C85532
100
AcDbEntity
  8
JISSEN
100
AcDbCircle
 10
89.99999999999984
 20
39.48090147231011
 30
0.0
 40
16.25
100
AcDbArc
 50
323.1423515846482
 51
336.8576484153503
  0
ARC
  5
EF7C87E3F
330
EF7C85532
100
AcDbEntity
  8
JISSEN
100
AcDbCircle
 10
89.99999999999984
 20
39.48090147231011
 30
0.0
 40
17.5
100
AcDbArc
 50
338.2132107017373
 51
81.78678929826331
  0
ARC
  5
EF7C87E40
330
EF7C85532
100
AcDbEntity
  8
JISSEN
100
AcDbCircle
 10
89.99999999999984
 20
39.48090147231011
 30
0.0
 40
17.0
100
AcDbArc
 50
338.4565193352699
 51
81.54348066473106
  0
ARC
  5
EF7C87E41
330
EF7C85532
100
AcDbEntity
  8
JISSEN
100
AcDbCircle
 10
102.1243556529819
 20
46.48090147231012
 30
0.0
 40
2.25
100
AcDbArc
 50
326.8557628338708
 51
93.14423716612889
  0
ARC
  5
EF7C87E43
330
EF7C85532
100
AcDbEntity
  8
TENSEN
100
AcDbCircle
 10
89.99999999999984
 20
39.48090147231011
 30
0.0
 40
8.5
100
AcDbArc
 50
319.9448265292413
 51
15.3810625938287
  0
LINE
  5
EF7C87E44
330
EF7C85532
100
AcDbEntity
  8
TENSEN
100
AcDbLine
 10
96.50611343589602
 20
34.01093913612799
 30
0.0
 11
98.41967621115962
 21
32.40212668430971
 31
0.0
  0
LINE
  5
EF7C87E45
330
EF7C85532
100
AcDbEntity
  8
TENSEN
100
AcDbLine
 10
93.98511366297359
 20
31.97298104830589
 30
0.0
 11
95.15720591678942
 21
29.76476915889287
 31
0.0
  0
ARC
  5
EF7C87E46
330
EF7C85532
100
AcDbEntity
  8
TENSEN
100
AcDbCircle
 10
89.99999999999984
 20
39.48090147231011
 30
0.0
 40
11.0
100
AcDbArc
 50
319.9448265292413
 51
15.3810625938287
  0
ARC
  5
EF7C87E47
330
EF7C85532
100
AcDbEntity
  8
JISSEN
100
AcDbCircle
 10
103.402148277253
 20
29.43376647996
 30
0.0
 40
0.5
100
AcDbArc
 50
143.1423515846473
 51
239.9999999999998
  0
LINE
  5
EF7C87E48
330
EF7C85532
100
AcDbEntity
  8
JISSEN
100
AcDbLine
 10
103.7499999999992
 20
28.65558392500469
 30
0.0
 11
103.152148277253
 21
29.00075377806778
 31
0.0
  0
LINE
  5
EF7C87E4A
330
EF7C85532
100
AcDbEntity
  8
TENSEN
100
AcDbLine
 10
98.19555654723068
 20
41.73541979805981
 30
0.0
 11
100.6060143552397
 21
42.39851342328031
 31
0.0
  0
TEXT
  5
EF7C87E4B
330
EF7C85532
100
AcDbEntity
  8
JISSEN
100
AcDbText
 10
99.2467446955456
 20
45.49999611123431
 30
0.0
 40
2.5
  1
S
 50
128.3276710484725
 41
0.85
  7
ROMANS
100
AcDbText
  0
TEXT
  5
EF7C87E4C
330
EF7C85532
100
AcDbEntity
  8
JISSEN
100
AcDbText
 10
95.9991352668049
 20
48.74060793566546
 30
0.0
 40
2.5
  1
P
 50
152.3276710484728
 41
0.85
  7
ROMANS
100
AcDbText
  0
TEXT
  5
EF7C87E4D
330
EF7C85532
100
AcDbEntity
  8
JISSEN
100
AcDbText
 10
97.79324099497513
 20
47.29097077617459
 30
0.0
 40
2.5
  1
S
 50
140.327671048472
 41
0.85
  7
ROMANS
100
AcDbText
  0
ARC
  5
EF7C87E4E
330
EF7C85532
100
AcDbEntity
  8
JISSEN
100
AcDbCircle
 10
91.9999999999994
 20
56.11106984187276
 30
0.0
 40
0.5
100
AcDbArc
 50
263.1423515846508
 51
0.0
  0
LINE
  5
EF7C87E4F
330
EF7C85532
100
AcDbEntity
  8
JISSEN
100
AcDbLine
 10
92.49999999999941
 20
56.11106984187276
 30
0.0
 11
92.49999999999941
 21
56.80140954799895
 31
0.0
  0
LINE
  5
EF7C87E52
330
EF7C85532
100
AcDbEntity
  8
JISSEN
100
AcDbLine
 10
105.652148277253
 20
33.33088079698994
 30
0.0
 11
106.2499999999994
 21
32.98571094392684
 31
0.0
  0
TEXT
  5
EF7C88179
330
EF7C85532
100
AcDbEntity
  8
TEXT
100
AcDbText
 10
105.399999276
 20
266.4999999821775
 30
0.0
 40
3.0
  1
ガード ZN  
  7
K
 72
     4
 11
116.499999276
 21
267.9999999821774
 31
0.0
100
AcDbText
  0
LINE
  5
EF7C8818B
330
EF7C85532
100
AcDbEntity
  8
TEXT
100
AcDbLine
 10
111.6855077023229
 20
275.5007423895086
 30
0.0
 11
111.6855077023229
 21
272.5007423895086
 31
0.0
  0
LINE
  5
EF7C8818C
330
EF7C85532
100
AcDbEntity
  8
TEXT
100
AcDbLine
 10
111.1355077023229
 20
275.5007423895086
 30
0.0
 11
111.1355077023229
 21
272.5007423895086
 31
0.0
  0
LINE
  5
EF7C8818D
330
EF7C85532
100
AcDbEntity
  8
TEXT
100
AcDbLine
 10
112.2355077023229
 20
275.5007423895086
 30
0.0
 11
112.2355077023229
 21
272.5007423895086
 31
0.0
  0
LINE
  5
EF7C8818E
330
EF7C85532
100
AcDbEntity
  8
TEXT
100
AcDbLine
 10
138.9982213328471
 20
10.84959321373162
 30
0.0
 11
138.9982213328471
 21
7.849593213731623
 31
0.0
  0
LINE
  5
EF7C8818F
330
EF7C85532
100
AcDbEntity
  8
TEXT
100
AcDbLine
 10
138.4482213328471
 20
10.84959321373162
 30
0.0
 11
138.4482213328471
 21
7.849593213731623
 31
0.0
  0
LINE
  5
EF7C88190
330
EF7C85532
100
AcDbEntity
  8
TEXT
100
AcDbLine
 10
139.5482213328471
 20
10.84959321373162
 30
0.0
 11
139.5482213328471
 21
7.849593213731623
 31
0.0
  0
LINE
  5
EF7C88191
330
EF7C85532
100
AcDbEntity
  8
TEXT
100
AcDbLine
 10
319.9982206088471
 20
10.84959319590916
 30
0.0
 11
319.9982206088471
 21
7.849593195909164
 31
0.0
  0
LINE
  5
EF7C88192
330
EF7C85532
100
AcDbEntity
  8
TEXT
100
AcDbLine
 10
319.448220608847
 20
10.84959319590916
 30
0.0
 11
319.448220608847
 21
7.849593195909164
 31
0.0
  0
LINE
  5
EF7C88193
330
EF7C85532
100
AcDbEntity
  8
TEXT
100
AcDbLine
 10
320.548220608847
 20
10.84959319590916
 30
0.0
 11
320.548220608847
 21
7.849593195909164
 31
0.0
  0
LINE
  5
EF7C88194
330
EF7C85532
100
AcDbEntity
  8
TEXT
100
AcDbLine
 10
318.898220608847
 20
7.849593195909164
 30
0.0
 11
321.098220608847
 21
7.849593195909164
 31
0.0
  0
LINE
  5
EF7C88195
330
EF7C85532
100
AcDbEntity
  8
TEXT
100
AcDbLine
 10
318.898220608847
 20
10.84959319590916
 30
0.0
 11
321.098220608847
 21
10.84959319590916
 31
0.0
  0
LINE
  5
EF7C881E1
330
EF7C85532
100
AcDbEntity
  8
JISSEN
100
AcDbLine
 10
155.2759059556955
 20
159.0785941605559
 30
0.0
 11
24.72409404430448
 21
159.0785941605559
 31
0.0
  0
LINE
  5
EF7C881E4
330
EF7C85532
100
AcDbEntity
  8
JISSEN
100
AcDbLine
 10
122.4999999999985
 20
159.0785941605559
 30
0.0
 11
57.50016687603352
 21
159.0785941605559
 31
0.0
  0
INSERT
  5
EF7C881EC
330
EF7C85532
100
AcDbEntity
  8
SUNPOU
100
AcDbBlockReference
  2
ARROW
 10
109.4220355177927
 20
155.1038144986481
 30
0.0
 41
1.499999999999998
 42
1.5
 43
1.5
 50
116.2503179468657
  0
LINE
  5
EF7C881F1
330
EF7C85532
100
AcDbEntity
  8
SUNPOU
100
AcDbLine
 10
109.4220355177928
 20
155.1038144986477
 30
0.0
 11
125.0629162144216
 21
123.3876896622964
 31
0.0
  0
CIRCLE
  5
EF7C881FB
330
EF7C85532
100
AcDbEntity
  8
SUNPOU
100
AcDbCircle
 10
72.71667821735781
 20
118.0064679393256
 30
0.0
 40
6.0
  0
TEXT
  5
EF7C881FC
330
EF7C85532
100
AcDbEntity
  8
SUNPOU
100
AcDbText
 10
70.89524964592924
 20
115.7564679393256
 30
0.0
 40
4.5
  1
1
  7
K
 72
     4
 11
72.71667821735781
 21
118.0064679393256
 31
0.0
100
AcDbText
  0
LINE
  5
EF7C881FE
330
EF7C85532
100
AcDbEntity
  8
SUNPOU
100
AcDbLine
 10
82.77226388950307
 20
148.0419852366338
 30
0.0
 11
74.62150138157096
 21
123.6960767758869
 31
0.0
  0
INSERT
  5
EF7C881FF
330
EF7C85532
100
AcDbEntity
  8
SUNPOU
100
AcDbBlockReference
  2
ARROW
 10
82.77226388950307
 20
148.0419852366338
 30
0.0
 41
1.499999999999993
 42
1.5
 43
1.5
 50
71.48997812162861
  0
CIRCLE
  5
EF7C88200
330
EF7C85532
100
AcDbEntity
  8
SUNPOU
100
AcDbCircle
 10
127.7166782173577
 20
118.0064679393256
 30
0.0
 40
6.0
  0
TEXT
  5
EF7C88201
330
EF7C85532
100
AcDbEntity
  8
SUNPOU
100
AcDbText
 10
125.5738210745005
 20
115.7564679393256
 30
0.0
 40
4.5
  1
2
  7
K
 72
     4
 11
127.7166782173577
 21
118.0064679393256
 31
0.0
100
AcDbText
  0
LINE
  5
EF7C88218
330
EF7C85532
100
AcDbEntity
  8
JISSEN
100
AcDbLine
 10
155.2759059556955
 20
99.07859409151853
 30
0.0
 11
24.72409404430448
 21
99.07859409151853
 31
0.0
  0
LINE
  5
EF7C88275
330
EF7C85532
100
AcDbEntity
  8
JISSEN
100
AcDbLine
 10
82.87130017246372
 20
34.85146967468237
 30
0.0
 11
83.98959235991419
 21
33.47049383222445
 31
0.0
  0
LINE
  5
EF7C88276
330
EF7C85532
100
AcDbEntity
  8
JISSEN
100
AcDbLine
 10
80.92843526882131
 20
33.27816869705777
 30
0.0
 11
82.04672745627176
 21
31.89719285459984
 31
0.0
  0
LINE
  5
EF7C88277
330
EF7C85532
100
AcDbEntity
  8
JISSEN
100
AcDbLine
 10
83.43044626618896
 20
34.1609817534534
 30
0.0
 11
81.48758136254654
 21
32.58768077582881
 31
0.0
  0
LINE
  5
EF7C88278
330
EF7C85532
100
AcDbEntity
  8
JISSEN
100
AcDbLine
 10
83.08432005111155
 20
34.58841203225473
 30
0.0
 11
81.14145514746914
 21
33.01511105463014
 31
0.0
  0
LINE
  5
EF7C88279
330
EF7C85532
100
AcDbEntity
  8
JISSEN
100
AcDbLine
 10
83.77657248126636
 20
33.73355147465206
 30
0.0
 11
81.83370757762395
 21
32.16025049702747
 31
0.0
  0
LINE
  5
EF7C8827B
330
EF7C85532
100
AcDbEntity
  8
JISSEN
100
AcDbLine
 10
303.4999992759986
 20
159.0785940915184
 30
0.0
 11
238.5001661520335
 21
159.0785940915184
 31
0.0
  0
LINE
  5
EF7C8827C
330
EF7C85532
100
AcDbEntity
  8
JISSEN
100
AcDbLine
 10
336.2759052316955
 20
159.0785940915184
 30
0.0
 11
205.7240933203045
 21
159.0785940915184
 31
0.0
  0
LINE
  5
EF7C882C6
330
EF7C85532
100
AcDbEntity
  8
JISSEN
100
AcDbLine
 10
336.2759052316955
 20
99.07859409151853
 30
0.0
 11
205.7240933203045
 21
99.07859409151853
 31
0.0
  0
LINE
  5
EF7C882C7
330
EF7C85532
100
AcDbEntity
  8
JISSEN
100
AcDbLine
 10
303.4999992759986
 20
99.07859409151853
 30
0.0
 11
238.5001661520335
 21
99.07859409151853
 31
0.0
  0
LINE
  5
EF7C88855
330
EF7C85532
100
AcDbEntity
  8
TEXT
100
AcDbLine
 10
126.2734712503914
 20
269.5005518780567
 30
0.0
 11
126.2734712503914
 21
266.5005518780566
 31
0.0
  0
LINE
  5
EF7C88856
330
EF7C85532
100
AcDbEntity
  8
TEXT
100
AcDbLine
 10
124.9734712503914
 20
269.5005518780567
 30
0.0
 11
124.9734712503914
 21
266.5005518780566
 31
0.0
  0
LINE
  5
EF7C88857
330
EF7C85532
100
AcDbEntity
  8
TEXT
100
AcDbLine
 10
125.6234712503913
 20
269.5005518780567
 30
0.0
 11
125.6234712503913
 21
266.5005518780566
 31
0.0
  0
LINE
  5
EF7C88858
330
EF7C85532
100
AcDbEntity
  8
TEXT
100
AcDbLine
 10
124.6234712503913
 20
266.5005518780566
 30
0.0
 11
126.6234712503913
 21
266.5005518780566
 31
0.0
  0
LINE
  5
EF7C88859
330
EF7C85532
100
AcDbEntity
  8
TEXT
100
AcDbLine
 10
124.6234712503913
 20
269.5005518780567
 30
0.0
 11
126.6234712503913
 21
269.5005518780567
 31
0.0
  0
LINE
  5
EF7C8885A
330
EF7C85532
100
AcDbEntity
  8
TEXT
100
AcDbLine
 10
161.3211284141751
 20
10.84959321373162
 30
0.0
 11
161.3211284141751
 21
7.849593213731623
 31
0.0
  0
LINE
  5
EF7C8885B
330
EF7C85532
100
AcDbEntity
  8
TEXT
100
AcDbLine
 10
160.2211284141751
 20
10.84959321373162
 30
0.0
 11
160.2211284141751
 21
7.849593213731623
 31
0.0
  0
LINE
  5
EF7C8885C
330
EF7C85532
100
AcDbEntity
  8
TEXT
100
AcDbLine
 10
160.7711284141751
 20
10.84959321373162
 30
0.0
 11
160.7711284141751
 21
7.849593213731623
 31
0.0
  0
LINE
  5
EF7C8885D
330
EF7C85532
100
AcDbEntity
  8
TEXT
100
AcDbLine
 10
159.6711284141751
 20
7.849593213731623
 30
0.0
 11
161.8711284141751
 21
7.849593213731623
 31
0.0
  0
LINE
  5
EF7C8885E
330
EF7C85532
100
AcDbEntity
  8
TEXT
100
AcDbLine
 10
159.6711284141751
 20
10.84959321373162
 30
0.0
 11
161.8711284141751
 21
10.84959321373162
 31
0.0
  0
LINE
  5
EF7C8885F
330
EF7C85532
100
AcDbEntity
  8
TEXT
100
AcDbLine
 10
341.771127690175
 20
10.84959321373162
 30
0.0
 11
341.771127690175
 21
7.849593213731623
 31
0.0
  0
LINE
  5
EF7C88860
330
EF7C85532
100
AcDbEntity
  8
TEXT
100
AcDbLine
 10
341.2211276901749
 20
10.84959321373162
 30
0.0
 11
341.2211276901749
 21
7.849593213731623
 31
0.0
  0
LINE
  5
EF7C88861
330
EF7C85532
100
AcDbEntity
  8
TEXT
100
AcDbLine
 10
342.3211276901749
 20
10.84959321373162
 30
0.0
 11
342.3211276901749
 21
7.849593213731623
 31
0.0
  0
LINE
  5
EF7C88862
330
EF7C85532
100
AcDbEntity
  8
TEXT
100
AcDbLine
 10
340.671127690175
 20
7.849593213731623
 30
0.0
 11
342.871127690175
 21
7.849593213731623
 31
0.0
  0
LINE
  5
EF7C88863
330
EF7C85532
100
AcDbEntity
  8
TEXT
100
AcDbLine
 10
340.671127690175
 20
10.84959321373162
 30
0.0
 11
342.871127690175
 21
10.84959321373162
 31
0.0
  0
LINE
  5
EF7C88891
330
EF7C85532
100
AcDbEntity
  8
JISSEN
100
AcDbLine
 10
68.8500834380159
 20
143.0785941605593
 30
0.0
 11
68.8500834380159
 21
133.578594160497
 31
0.0
  0
LINE
  5
EF7C88892
330
EF7C85532
100
AcDbEntity
  8
JISSEN
100
AcDbLine
 10
111.1500834380162
 20
143.0785941605593
 30
0.0
 11
111.1500834380162
 21
133.578594160497
 31
0.0
  0
LINE
  5
EF7C88893
330
EF7C85532
100
AcDbEntity
  8
JISSEN
100
AcDbLine
 10
90.00008343801605
 20
159.0785941605559
 30
0.0
 11
124.0000834380165
 21
159.078594160558
 31
0.0
  0
ELLIPSE
  5
EF7C88894
330
EF7C85532
100
AcDbEntity
  8
JISSEN
100
AcDbEllipse
 10
90.00008343801566
 20
154.8819517269501
 30
0.0
 11
0.0
 21
2.673389674331701
 31
0.0
210
0.0
220
0.0
230
-1.0
 40
0.5610854318774397
 41
6.283185307179586
 42
7.853981633974482
  0
ARC
  5
EF7C88895
330
EF7C85532
100
AcDbEntity
  8
JISSEN
 48
3.0
100
AcDbCircle
 10
91.50008343801564
 20
133.5785941604961
 30
0.0
 40
1.49999999999909
100
AcDbArc
 50
90.0
 51
180.0
  0
LINE
  5
EF7C88896
330
EF7C85532
100
AcDbEntity
  8
JISSEN
 48
3.0
100
AcDbLine
 10
91.50008343801657
 20
154.8819517269496
 30
0.0
 11
91.50008343801474
 21
135.0785941604952
 31
0.0
  0
ARC
  5
EF7C88897
330
EF7C85532
100
AcDbEntity
  8
JISSEN
 48
3.0
100
AcDbCircle
 10
108.150083438018
 20
155.3819517269496
 30
0.0
 40
0.5
100
AcDbArc
 50
270.0
 51
280.2483788343932
  0
LINE
  5
EF7C88898
330
EF7C85532
100
AcDbEntity
  8
JISSEN
100
AcDbLine
 10
124.0000834380165
 20
158.5749417237164
 30
0.0
 11
124.0000834380165
 21
159.0785941605588
 31
0.0
  0
ARC
  5
EF7C88899
330
EF7C85532
100
AcDbEntity
  8
JISSEN
100
AcDbCircle
 10
123.0000834380165
 20
158.5749417237164
 30
0.0
 40
1.0
100
AcDbArc
 50
280.2483788343932
 51
0.0
  0
LINE
  5
EF7C8889A
330
EF7C85532
100
AcDbEntity
  8
JISSEN
 48
3.0
100
AcDbLine
 10
108.2390412891621
 20
154.8899288608948
 30
0.0
 11
123.1779991403049
 21
157.5908959916089
 31
0.0
  0
LINE
  5
EF7C8889B
330
EF7C85532
100
AcDbEntity
  8
JISSEN
100
AcDbLine
 10
107.6500834380143
 20
132.0785941604947
 30
0.0
 11
108.6500834380198
 21
132.0785941604974
 31
0.0
  0
ARC
  5
EF7C8889C
330
EF7C85532
100
AcDbEntity
  8
JISSEN
 62
     7
100
AcDbCircle
 10
109.650083438017
 20
133.578594160497
 30
0.0
 40
1.49999999999909
100
AcDbArc
 50
270.0000000001563
 51
0.0000000008858735
  0
ARC
  5
EF7C8889D
330
EF7C85532
100
AcDbEntity
  8
JISSEN
 48
3.0
100
AcDbCircle
 10
109.650083438017
 20
133.578594160497
 30
0.0
 40
1.49999999999909
100
AcDbArc
 50
0.0
 51
90.0
  0
LINE
  5
EF7C8889E
330
EF7C85532
100
AcDbEntity
  8
JISSEN
100
AcDbLine
 10
107.150083438018
 20
154.8819517269492
 30
0.0
 11
107.1500834380189
 21
135.0785941604947
 31
0.0
  0
ARC
  5
EF7C8889F
330
EF7C85532
100
AcDbEntity
  8
JISSEN
100
AcDbCircle
 10
126.1500834380161
 20
143.0785941605593
 30
0.0
 40
15.0
100
AcDbArc
 50
109.3883336172968
 51
180.0
  0
LINE
  5
EF7C888A0
330
EF7C85532
100
AcDbEntity
  8
JISSEN
100
AcDbLine
 10
108.150083438018
 20
154.8819517269496
 30
0.0
 11
91.50008343801657
 21
154.8819517269501
 31
0.0
  0
LINE
  5
EF7C888A1
330
EF7C85532
100
AcDbEntity
  8
JISSEN
100
AcDbLine
 10
107.1500834380161
 20
154.0785941605556
 30
0.0
 11
91.50008343801657
 21
154.0785941605556
 31
0.0
  0
LINE
  5
EF7C888A2
330
EF7C85532
100
AcDbEntity
  8
JISSEN
100
AcDbLine
 10
109.650083438017
 20
132.0785941605588
 30
0.0
 11
90.00008343801582
 21
132.0785941605588
 31
0.0
  0
LINE
  5
EF7C888A3
330
EF7C85532
100
AcDbEntity
  8
JISSEN
100
AcDbLine
 10
91.50008343801564
 20
135.0785941604952
 30
0.0
 11
109.650083438017
 21
135.0785941604952
 31
0.0
  0
LINE
  5
EF7C888A4
330
EF7C85532
100
AcDbEntity
  8
JISSEN
100
AcDbLine
 10
88.50008343801645
 20
135.0785941604952
 30
0.0
 11
70.35008343801499
 21
135.0785941604952
 31
0.0
  0
LINE
  5
EF7C888A5
330
EF7C85532
100
AcDbEntity
  8
JISSEN
100
AcDbLine
 10
70.35008343801499
 20
132.0785941605588
 30
0.0
 11
90.00008343801628
 21
132.0785941605588
 31
0.0
  0
LINE
  5
EF7C888A6
330
EF7C85532
100
AcDbEntity
  8
JISSEN
100
AcDbLine
 10
72.8500834380159
 20
154.0785941605556
 30
0.0
 11
88.50008343801553
 21
154.0785941605556
 31
0.0
  0
LINE
  5
EF7C888A7
330
EF7C85532
100
AcDbEntity
  8
JISSEN
100
AcDbLine
 10
71.85008343801408
 20
154.8819517269496
 30
0.0
 11
88.50008343801553
 21
154.8819517269501
 31
0.0
  0
ARC
  5
EF7C888A8
330
EF7C85532
100
AcDbEntity
  8
JISSEN
100
AcDbCircle
 10
53.8500834380159
 20
143.0785941605593
 30
0.0
 40
15.0
100
AcDbArc
 50
0.0
 51
70.61166638270314
  0
LINE
  5
EF7C888A9
330
EF7C85532
100
AcDbEntity
  8
JISSEN
100
AcDbLine
 10
72.85008343801408
 20
154.8819517269492
 30
0.0
 11
72.85008343801317
 21
135.0785941604947
 31
0.0
  0
ARC
  5
EF7C888AA
330
EF7C85532
100
AcDbEntity
  8
JISSEN
 48
3.0
100
AcDbCircle
 10
70.35008343801499
 20
133.578594160497
 30
0.0
 40
1.49999999999909
100
AcDbArc
 50
90.0
 51
180.0
  0
ARC
  5
EF7C888AB
330
EF7C85532
100
AcDbEntity
  8
JISSEN
 62
     7
100
AcDbCircle
 10
70.35008343801499
 20
133.578594160497
 30
0.0
 40
1.49999999999909
100
AcDbArc
 50
179.9999999991141
 51
269.9999999998436
  0
LINE
  5
EF7C888AC
330
EF7C85532
100
AcDbEntity
  8
JISSEN
100
AcDbLine
 10
72.35008343801772
 20
132.0785941604947
 30
0.0
 11
71.35008343801226
 21
132.0785941604974
 31
0.0
  0
LINE
  5
EF7C888AD
330
EF7C85532
100
AcDbEntity
  8
JISSEN
 48
3.0
100
AcDbLine
 10
71.76112558686989
 20
154.8899288608948
 30
0.0
 11
56.82216773572716
 21
157.5908959916089
 31
0.0
  0
ARC
  5
EF7C888AE
330
EF7C85532
100
AcDbEntity
  8
JISSEN
100
AcDbCircle
 10
57.00008343801553
 20
158.5749417237164
 30
0.0
 40
1.0
100
AcDbArc
 50
180.0
 51
259.7516211656067
  0
LINE
  5
EF7C888AF
330
EF7C85532
100
AcDbEntity
  8
JISSEN
100
AcDbLine
 10
56.00008343801554
 20
158.5749417237164
 30
0.0
 11
56.00008343801554
 21
159.0785941605588
 31
0.0
  0
ARC
  5
EF7C888B0
330
EF7C85532
100
AcDbEntity
  8
JISSEN
 48
3.0
100
AcDbCircle
 10
71.85008343801408
 20
155.3819517269496
 30
0.0
 40
0.5
100
AcDbArc
 50
259.7516211656067
 51
270.0
  0
LINE
  5
EF7C888B1
330
EF7C85532
100
AcDbEntity
  8
JISSEN
 48
3.0
100
AcDbLine
 10
88.50008343801553
 20
154.8819517269496
 30
0.0
 11
88.50008343801736
 21
135.0785941604952
 31
0.0
  0
ARC
  5
EF7C888B2
330
EF7C85532
100
AcDbEntity
  8
JISSEN
 48
3.0
100
AcDbCircle
 10
88.50008343801645
 20
133.5785941604961
 30
0.0
 40
1.49999999999909
100
AcDbArc
 50
0.0
 51
90.0
  0
ELLIPSE
  5
EF7C888B3
330
EF7C85532
100
AcDbEntity
  8
JISSEN
100
AcDbEllipse
 10
90.00008343801644
 20
154.8819517269501
 30
0.0
 11
0.0
 21
2.673389674331701
 31
0.0
210
0.0
220
0.0
230
1.0
 40
0.5610854318774397
 41
6.283185307179586
 42
7.853981633974482
  0
ELLIPSE
  5
EF7C888B4
330
EF7C85532
100
AcDbEntity
  8
JISSEN
100
AcDbEllipse
 10
90.00008343801651
 20
154.8819517269468
 30
0.0
 11
0.0
 21
2.673389674331701
 31
0.0
210
0.0
220
0.0
230
1.0
 40
0.5610854318774397
 41
4.712388980384689
 42
6.283185307179586
  0
ARC
  5
EF7C888B5
330
EF7C85532
100
AcDbEntity
  8
JISSEN
 48
3.0
100
AcDbCircle
 10
91.50008343801649
 20
133.5785941604928
 30
0.0
 40
1.49999999999909
100
AcDbArc
 50
90.0
 51
180.0
  0
LINE
  5
EF7C888B6
330
EF7C85532
100
AcDbEntity
  8
JISSEN
100
AcDbLine
 10
90.00008343801638
 20
132.0785941605555
 30
0.0
 11
109.6500834380179
 21
132.0785941605555
 31
0.0
  0
LINE
  5
EF7C888B7
330
EF7C85532
100
AcDbEntity
  8
JISSEN
100
AcDbLine
 10
90.00008343801605
 20
159.0785941605559
 30
0.0
 11
56.00008343801554
 21
159.078594160558
 31
0.0
  0
LWPOLYLINE
  5
EF7C888B8
330
EF7C85532
100
AcDbEntity
  8
JISSEN
100
AcDbPolyline
 90
        5
 70
     0
 43
0.0
 10
104.0000834380172
 20
154.0785941605558
 10
104.0000834380172
 20
151.4061658950717
 42
-0.3813056827265855
 10
101.3402896235843
 20
148.4255183561463
 42
-0.0206555680720094
 10
93.10318654112123
 20
147.828594160556
 10
91.50008343801593
 20
147.828594160556
  0
LWPOLYLINE
  5
EF7C888B9
330
EF7C85532
100
AcDbEntity
  8
JISSEN
100
AcDbPolyline
 90
        5
 70
     0
 43
0.0
 10
76.00008343801736
 20
154.0785941605558
 10
76.00008343801736
 20
151.4061658950717
 42
0.3813056827265855
 10
78.6598772524504
 20
148.4255183561463
 42
0.0206555680720094
 10
86.89698033491358
 20
147.828594160556
 10
88.50008343801617
 20
147.828594160556
  0
LINE
  5
EF7C888BA
330
EF7C85532
100
AcDbEntity
  8
JISSEN
100
AcDbLine
 10
111.1500834380162
 20
83.07859409152198
 30
0.0
 11
111.1500834380162
 21
73.57859409145968
 31
0.0
  0
LINE
  5
EF7C888BB
330
EF7C85532
100
AcDbEntity
  8
JISSEN
100
AcDbLine
 10
68.8500834380159
 20
83.07859409152198
 30
0.0
 11
68.8500834380159
 21
73.57859409145968
 31
0.0
  0
LINE
  5
EF7C888BC
330
EF7C85532
100
AcDbEntity
  8
JISSEN
 48
3.0
100
AcDbLine
 10
91.50008343801657
 20
94.8819516579123
 30
0.0
 11
91.50008343801474
 21
75.07859409145786
 31
0.0
  0
LINE
  5
EF7C888BD
330
EF7C85532
100
AcDbEntity
  8
JISSEN
100
AcDbLine
 10
107.150083438018
 20
94.88195165791186
 30
0.0
 11
107.1500834380189
 21
75.07859409145741
 31
0.0
  0
LINE
  5
EF7C888BE
330
EF7C85532
100
AcDbEntity
  8
JISSEN
100
AcDbLine
 10
72.85008343801408
 20
94.88195165791186
 30
0.0
 11
72.85008343801317
 21
75.07859409145741
 31
0.0
  0
LINE
  5
EF7C888BF
330
EF7C85532
100
AcDbEntity
  8
JISSEN
 48
3.0
100
AcDbLine
 10
88.50008343801553
 20
94.8819516579123
 30
0.0
 11
88.50008343801736
 21
75.07859409145786
 31
0.0
  0
LINE
  5
EF7C888C0
330
EF7C85532
100
AcDbEntity
  8
JISSEN
100
AcDbLine
 10
109.650083438017
 20
72.07859409152153
 30
0.0
 11
90.00008343801582
 21
72.07859409152153
 31
0.0
  0
LINE
  5
EF7C888C1
330
EF7C85532
100
AcDbEntity
  8
JISSEN
100
AcDbLine
 10
91.50008343801564
 20
75.07859409145786
 30
0.0
 11
109.650083438017
 21
75.07859409145786
 31
0.0
  0
LINE
  5
EF7C888C2
330
EF7C85532
100
AcDbEntity
  8
JISSEN
100
AcDbLine
 10
90.00008343801638
 20
72.07859409151822
 30
0.0
 11
109.6500834380179
 21
72.07859409151822
 31
0.0
  0
LINE
  5
EF7C888C3
330
EF7C85532
100
AcDbEntity
  8
JISSEN
100
AcDbLine
 10
88.50008343801645
 20
75.07859409145786
 30
0.0
 11
70.35008343801499
 21
75.07859409145786
 31
0.0
  0
LINE
  5
EF7C888C4
330
EF7C85532
100
AcDbEntity
  8
JISSEN
100
AcDbLine
 10
70.35008343801499
 20
72.07859409152153
 30
0.0
 11
90.00008343801628
 21
72.07859409152153
 31
0.0
  0
LINE
  5
EF7C888C5
330
EF7C85532
100
AcDbEntity
  8
JISSEN
100
AcDbLine
 10
72.35008343801772
 20
72.0785940914574
 30
0.0
 11
71.35008343801226
 21
72.07859409146013
 31
0.0
  0
ARC
  5
EF7C888C6
330
EF7C85532
100
AcDbEntity
  8
JISSEN
 48
3.0
100
AcDbCircle
 10
70.35008343801499
 20
73.57859409145968
 30
0.0
 40
1.49999999999909
100
AcDbArc
 50
90.0
 51
180.0
  0
ARC
  5
EF7C888C7
330
EF7C85532
100
AcDbEntity
  8
JISSEN
 62
     7
100
AcDbCircle
 10
70.35008343801499
 20
73.57859409145968
 30
0.0
 40
1.49999999999909
100
AcDbArc
 50
179.9999999991141
 51
269.9999999998436
  0
ARC
  5
EF7C888C8
330
EF7C85532
100
AcDbEntity
  8
JISSEN
 48
3.0
100
AcDbCircle
 10
88.50008343801645
 20
73.57859409145877
 30
0.0
 40
1.49999999999909
100
AcDbArc
 50
0.0
 51
90.0
  0
ARC
  5
EF7C888C9
330
EF7C85532
100
AcDbEntity
  8
JISSEN
 48
3.0
100
AcDbCircle
 10
91.50008343801564
 20
73.57859409145877
 30
0.0
 40
1.49999999999909
100
AcDbArc
 50
90.0
 51
180.0
  0
ARC
  5
EF7C888CA
330
EF7C85532
100
AcDbEntity
  8
JISSEN
 48
3.0
100
AcDbCircle
 10
91.50008343801649
 20
73.57859409145547
 30
0.0
 40
1.49999999999909
100
AcDbArc
 50
90.0
 51
180.0
  0
ARC
  5
EF7C888CB
330
EF7C85532
100
AcDbEntity
  8
JISSEN
 62
     7
100
AcDbCircle
 10
109.650083438017
 20
73.57859409145968
 30
0.0
 40
1.49999999999909
100
AcDbArc
 50
270.0000000001563
 51
0.0000000008858735
  0
ARC
  5
EF7C888CC
330
EF7C85532
100
AcDbEntity
  8
JISSEN
 48
3.0
100
AcDbCircle
 10
109.650083438017
 20
73.57859409145968
 30
0.0
 40
1.49999999999909
100
AcDbArc
 50
0.0
 51
90.0
  0
LINE
  5
EF7C888CD
330
EF7C85532
100
AcDbEntity
  8
JISSEN
100
AcDbLine
 10
107.6500834380143
 20
72.0785940914574
 30
0.0
 11
108.6500834380198
 21
72.07859409146013
 31
0.0
  0
LINE
  5
EF7C888CE
330
EF7C85532
100
AcDbEntity
  8
JISSEN
 48
3.0
100
AcDbLine
 10
71.76112558686989
 20
94.88992879185744
 30
0.0
 11
56.82216773572716
 21
97.59089592257161
 31
0.0
  0
LINE
  5
EF7C888CF
330
EF7C85532
100
AcDbEntity
  8
JISSEN
100
AcDbLine
 10
90.00008343801605
 20
99.07859409151853
 30
0.0
 11
56.00008343801554
 21
99.07859409152067
 31
0.0
  0
ARC
  5
EF7C888D0
330
EF7C85532
100
AcDbEntity
  8
JISSEN
100
AcDbCircle
 10
53.8500834380159
 20
83.07859409152198
 30
0.0
 40
15.0
100
AcDbArc
 50
0.0
 51
70.61166638270314
  0
LINE
  5
EF7C888D1
330
EF7C85532
100
AcDbEntity
  8
JISSEN
100
AcDbLine
 10
122.4999999999985
 20
99.07859409151853
 30
0.0
 11
57.50016687603352
 21
99.07859409151853
 31
0.0
  0
ARC
  5
EF7C888D2
330
EF7C85532
100
AcDbEntity
  8
JISSEN
100
AcDbCircle
 10
57.00008343801553
 20
98.57494165467906
 30
0.0
 40
1.0
100
AcDbArc
 50
180.0
 51
259.7516211656067
  0
LINE
  5
EF7C888D3
330
EF7C85532
100
AcDbEntity
  8
JISSEN
100
AcDbLine
 10
56.00008343801554
 20
98.57494165467906
 30
0.0
 11
56.00008343801554
 21
99.07859409152152
 31
0.0
  0
LINE
  5
EF7C888D4
330
EF7C85532
100
AcDbEntity
  8
JISSEN
100
AcDbLine
 10
108.150083438018
 20
94.8819516579123
 30
0.0
 11
91.50008343801657
 21
94.88195165791276
 31
0.0
  0
LINE
  5
EF7C888D5
330
EF7C85532
100
AcDbEntity
  8
JISSEN
100
AcDbLine
 10
107.1500834380161
 20
94.07859409151834
 30
0.0
 11
91.50008343801657
 21
94.07859409151834
 31
0.0
  0
LWPOLYLINE
  5
EF7C888D6
330
EF7C85532
100
AcDbEntity
  8
JISSEN
100
AcDbPolyline
 90
        5
 70
     0
 43
0.0
 10
104.0000834380172
 20
94.07859409151845
 10
104.0000834380172
 20
91.40616582603437
 42
-0.3813056827265855
 10
101.3402896235843
 20
88.42551828710895
 42
-0.0206555680720094
 10
93.10318654112123
 20
87.82859409151873
 10
91.50008343801593
 20
87.82859409151873
  0
LINE
  5
EF7C888D7
330
EF7C85532
100
AcDbEntity
  8
JISSEN
100
AcDbLine
 10
90.00008343801605
 20
99.07859409151853
 30
0.0
 11
124.0000834380165
 21
99.07859409152067
 31
0.0
  0
LINE
  5
EF7C888D8
330
EF7C85532
100
AcDbEntity
  8
JISSEN
100
AcDbLine
 10
72.8500834380159
 20
94.07859409151834
 30
0.0
 11
88.50008343801553
 21
94.07859409151834
 31
0.0
  0
LINE
  5
EF7C888D9
330
EF7C85532
100
AcDbEntity
  8
JISSEN
100
AcDbLine
 10
71.85008343801408
 20
94.8819516579123
 30
0.0
 11
88.50008343801553
 21
94.88195165791276
 31
0.0
  0
LWPOLYLINE
  5
EF7C888DA
330
EF7C85532
100
AcDbEntity
  8
JISSEN
100
AcDbPolyline
 90
        5
 70
     0
 43
0.0
 10
76.00008343801736
 20
94.07859409151845
 10
76.00008343801736
 20
91.40616582603437
 42
0.3813056827265855
 10
78.6598772524504
 20
88.42551828710895
 42
0.0206555680720094
 10
86.89698033491358
 20
87.82859409151873
 10
88.50008343801617
 20
87.82859409151873
  0
ARC
  5
EF7C888DC
330
EF7C85532
100
AcDbEntity
  8
JISSEN
 48
3.0
100
AcDbCircle
 10
71.85008343801408
 20
95.38195165791231
 30
0.0
 40
0.5
100
AcDbArc
 50
259.7516211656067
 51
270.0
  0
ELLIPSE
  5
EF7C888DD
330
EF7C85532
100
AcDbEntity
  8
JISSEN
100
AcDbEllipse
 10
90.00008343801644
 20
94.88195165791276
 30
0.0
 11
0.0
 21
2.673389674331701
 31
0.0
210
0.0
220
0.0
230
1.0
 40
0.5610854318774397
 41
6.283185307179586
 42
7.853981633974482
  0
ELLIPSE
  5
EF7C888DE
330
EF7C85532
100
AcDbEntity
  8
JISSEN
100
AcDbEllipse
 10
90.00008343801566
 20
94.88195165791276
 30
0.0
 11
0.0
 21
2.673389674331701
 31
0.0
210
0.0
220
0.0
230
-1.0
 40
0.5610854318774397
 41
6.283185307179586
 42
7.853981633974482
  0
ELLIPSE
  5
EF7C888DF
330
EF7C85532
100
AcDbEntity
  8
JISSEN
100
AcDbEllipse
 10
90.00008343801651
 20
94.88195165790946
 30
0.0
 11
0.0
 21
2.673389674331701
 31
0.0
210
0.0
220
0.0
230
1.0
 40
0.5610854318774397
 41
4.712388980384689
 42
6.283185307179586
  0
LINE
  5
EF7C888E1
330
EF7C85532
100
AcDbEntity
  8
JISSEN
 48
3.0
100
AcDbLine
 10
108.2390412891621
 20
94.88992879185744
 30
0.0
 11
123.1779991403049
 21
97.59089592257161
 31
0.0
  0
ARC
  5
EF7C888E2
330
EF7C85532
100
AcDbEntity
  8
JISSEN
100
AcDbCircle
 10
126.1500834380161
 20
83.07859409152198
 30
0.0
 40
15.0
100
AcDbArc
 50
109.3883336172968
 51
180.0
  0
ARC
  5
EF7C888E3
330
EF7C85532
100
AcDbEntity
  8
JISSEN
 48
3.0
100
AcDbCircle
 10
108.150083438018
 20
95.38195165791231
 30
0.0
 40
0.5
100
AcDbArc
 50
270.0
 51
280.2483788343932
  0
ARC
  5
EF7C888E4
330
EF7C85532
100
AcDbEntity
  8
JISSEN
100
AcDbCircle
 10
123.0000834380165
 20
98.57494165467906
 30
0.0
 40
1.0
100
AcDbArc
 50
280.2483788343932
 51
0.0
  0
LINE
  5
EF7C888E5
330
EF7C85532
100
AcDbEntity
  8
JISSEN
100
AcDbLine
 10
124.0000834380165
 20
98.57494165467906
 30
0.0
 11
124.0000834380165
 21
99.07859409152152
 31
0.0
  0
LINE
  5
EF7C888E6
330
EF7C85532
100
AcDbEntity
  8
JISSEN
100
AcDbLine
 10
253.8501661520302
 20
154.8819516579118
 30
0.0
 11
253.8501661520292
 21
135.0785940914573
 31
0.0
  0
LINE
  5
EF7C888E7
330
EF7C85532
100
AcDbEntity
  8
JISSEN
 48
3.0
100
AcDbLine
 10
252.761208300886
 20
154.8899287918573
 30
0.0
 11
237.8222504497432
 21
157.5908959225715
 31
0.0
  0
ARC
  5
EF7C888E8
330
EF7C85532
100
AcDbEntity
  8
JISSEN
100
AcDbCircle
 10
234.850166152032
 20
143.0785940915219
 30
0.0
 40
15.0
100
AcDbArc
 50
0.0
 51
70.61166638270314
  0
ARC
  5
EF7C888E9
330
EF7C85532
100
AcDbEntity
  8
JISSEN
100
AcDbCircle
 10
238.0001661520316
 20
158.5749416546789
 30
0.0
 40
1.0
100
AcDbArc
 50
180.0
 51
259.7516211656067
  0
LINE
  5
EF7C888EA
330
EF7C85532
100
AcDbEntity
  8
JISSEN
100
AcDbLine
 10
237.0001661520316
 20
158.5749416546789
 30
0.0
 11
237.0001661520316
 21
159.0785940915214
 31
0.0
  0
LINE
  5
EF7C888EB
330
EF7C85532
100
AcDbEntity
  8
JISSEN
100
AcDbLine
 10
253.850166152032
 20
154.0785940915182
 30
0.0
 11
269.5001661520316
 21
154.0785940915182
 31
0.0
  0
LINE
  5
EF7C888EC
330
EF7C85532
100
AcDbEntity
  8
JISSEN
100
AcDbLine
 10
252.8501661520301
 20
154.8819516579122
 30
0.0
 11
269.5001661520316
 21
154.8819516579127
 31
0.0
  0
ARC
  5
EF7C888ED
330
EF7C85532
100
AcDbEntity
  8
JISSEN
 48
3.0
100
AcDbCircle
 10
252.8501661520301
 20
155.3819516579122
 30
0.0
 40
0.5
100
AcDbArc
 50
259.7516211656067
 51
270.0
  0
LINE
  5
EF7C888EE
330
EF7C85532
100
AcDbEntity
  8
JISSEN
100
AcDbLine
 10
249.850166152032
 20
143.0785940915219
 30
0.0
 11
249.850166152032
 21
133.5785940914596
 31
0.0
  0
LINE
  5
EF7C888EF
330
EF7C85532
100
AcDbEntity
  8
JISSEN
100
AcDbLine
 10
269.5001661520325
 20
135.0785940914578
 30
0.0
 11
251.3501661520311
 21
135.0785940914578
 31
0.0
  0
LINE
  5
EF7C888F0
330
EF7C85532
100
AcDbEntity
  8
JISSEN
100
AcDbLine
 10
251.3501661520311
 20
132.0785940915214
 30
0.0
 11
271.0001661520324
 21
132.0785940915214
 31
0.0
  0
LINE
  5
EF7C888F1
330
EF7C85532
100
AcDbEntity
  8
JISSEN
100
AcDbLine
 10
253.3501661520338
 20
132.0785940914573
 30
0.0
 11
252.3501661520283
 21
132.07859409146
 31
0.0
  0
ARC
  5
EF7C888F2
330
EF7C85532
100
AcDbEntity
  8
JISSEN
 48
3.0
100
AcDbCircle
 10
251.3501661520311
 20
133.5785940914596
 30
0.0
 40
1.49999999999909
100
AcDbArc
 50
90.0
 51
180.0
  0
ARC
  5
EF7C888F3
330
EF7C85532
100
AcDbEntity
  8
JISSEN
 62
     7
100
AcDbCircle
 10
251.3501661520311
 20
133.5785940914596
 30
0.0
 40
1.49999999999909
100
AcDbArc
 50
179.9999999991141
 51
269.9999999998436
  0
LINE
  5
EF7C888F4
330
EF7C85532
100
AcDbEntity
  8
JISSEN
 48
3.0
100
AcDbLine
 10
272.5001661520326
 20
154.8819516579122
 30
0.0
 11
272.5001661520308
 21
135.0785940914578
 31
0.0
  0
LINE
  5
EF7C888F5
330
EF7C85532
100
AcDbEntity
  8
JISSEN
 48
3.0
100
AcDbLine
 10
269.5001661520316
 20
154.8819516579122
 30
0.0
 11
269.5001661520334
 21
135.0785940914578
 31
0.0
  0
LINE
  5
EF7C888F6
330
EF7C85532
100
AcDbEntity
  8
JISSEN
100
AcDbLine
 10
290.6501661520331
 20
132.0785940915214
 30
0.0
 11
271.0001661520319
 21
132.0785940915214
 31
0.0
  0
LINE
  5
EF7C888F7
330
EF7C85532
100
AcDbEntity
  8
JISSEN
100
AcDbLine
 10
272.5001661520317
 20
135.0785940914578
 30
0.0
 11
290.6501661520331
 21
135.0785940914578
 31
0.0
  0
LINE
  5
EF7C888F8
330
EF7C85532
100
AcDbEntity
  8
JISSEN
100
AcDbLine
 10
271.0001661520325
 20
132.0785940915181
 30
0.0
 11
290.6501661520341
 21
132.0785940915181
 31
0.0
  0
ARC
  5
EF7C888F9
330
EF7C85532
100
AcDbEntity
  8
JISSEN
 48
3.0
100
AcDbCircle
 10
269.5001661520325
 20
133.5785940914587
 30
0.0
 40
1.49999999999909
100
AcDbArc
 50
0.0
 51
90.0
  0
ARC
  5
EF7C888FA
330
EF7C85532
100
AcDbEntity
  8
JISSEN
 48
3.0
100
AcDbCircle
 10
272.5001661520317
 20
133.5785940914587
 30
0.0
 40
1.49999999999909
100
AcDbArc
 50
90.0
 51
180.0
  0
ARC
  5
EF7C888FB
330
EF7C85532
100
AcDbEntity
  8
JISSEN
 48
3.0
100
AcDbCircle
 10
272.5001661520326
 20
133.5785940914554
 30
0.0
 40
1.49999999999909
100
AcDbArc
 50
90.0
 51
180.0
  0
ELLIPSE
  5
EF7C888FC
330
EF7C85532
100
AcDbEntity
  8
JISSEN
100
AcDbEllipse
 10
271.0001661520325
 20
154.8819516579127
 30
0.0
 11
0.0
 21
2.673389674331701
 31
0.0
210
0.0
220
0.0
230
1.0
 40
0.5610854318774397
 41
6.283185307179586
 42
7.853981633974482
  0
ELLIPSE
  5
EF7C888FD
330
EF7C85532
100
AcDbEntity
  8
JISSEN
100
AcDbEllipse
 10
271.0001661520317
 20
154.8819516579127
 30
0.0
 11
0.0
 21
2.673389674331701
 31
0.0
210
0.0
220
0.0
230
-1.0
 40
0.5610854318774397
 41
6.283185307179586
 42
7.853981633974482
  0
ELLIPSE
  5
EF7C888FE
330
EF7C85532
100
AcDbEntity
  8
JISSEN
100
AcDbEllipse
 10
271.0001661520326
 20
154.8819516579094
 30
0.0
 11
0.0
 21
2.673389674331701
 31
0.0
210
0.0
220
0.0
230
1.0
 40
0.5610854318774397
 41
4.712388980384689
 42
6.283185307179586
  0
LINE
  5
EF7C888FF
330
EF7C85532
100
AcDbEntity
  8
JISSEN
100
AcDbLine
 10
289.150166152034
 20
154.8819516579122
 30
0.0
 11
272.5001661520326
 21
154.8819516579127
 31
0.0
  0
LINE
  5
EF7C88900
330
EF7C85532
100
AcDbEntity
  8
JISSEN
100
AcDbLine
 10
288.1501661520323
 20
154.0785940915182
 30
0.0
 11
272.5001661520326
 21
154.0785940915182
 31
0.0
  0
LINE
  5
EF7C88901
330
EF7C85532
100
AcDbEntity
  8
JISSEN
100
AcDbLine
 10
292.1501661520323
 20
143.0785940915219
 30
0.0
 11
292.1501661520323
 21
133.5785940914596
 31
0.0
  0
LINE
  5
EF7C88902
330
EF7C85532
100
AcDbEntity
  8
JISSEN
100
AcDbLine
 10
288.1501661520341
 20
154.8819516579118
 30
0.0
 11
288.150166152035
 21
135.0785940914573
 31
0.0
  0
ARC
  5
EF7C88903
330
EF7C85532
100
AcDbEntity
  8
JISSEN
 62
     7
100
AcDbCircle
 10
290.6501661520331
 20
133.5785940914596
 30
0.0
 40
1.49999999999909
100
AcDbArc
 50
270.0000000001563
 51
0.0000000008858735
  0
ARC
  5
EF7C88904
330
EF7C85532
100
AcDbEntity
  8
JISSEN
 48
3.0
100
AcDbCircle
 10
290.6501661520331
 20
133.5785940914596
 30
0.0
 40
1.49999999999909
100
AcDbArc
 50
0.0
 51
90.0
  0
LINE
  5
EF7C88905
330
EF7C85532
100
AcDbEntity
  8
JISSEN
100
AcDbLine
 10
288.6501661520304
 20
132.0785940914573
 30
0.0
 11
289.6501661520359
 21
132.07859409146
 31
0.0
  0
LINE
  5
EF7C88906
330
EF7C85532
100
AcDbEntity
  8
JISSEN
 48
3.0
100
AcDbLine
 10
289.2391240031782
 20
154.8899287918573
 30
0.0
 11
304.178081854321
 21
157.5908959225715
 31
0.0
  0
ARC
  5
EF7C88907
330
EF7C85532
100
AcDbEntity
  8
JISSEN
100
AcDbCircle
 10
307.1501661520323
 20
143.0785940915219
 30
0.0
 40
15.0
100
AcDbArc
 50
109.3883336172968
 51
180.0
  0
ARC
  5
EF7C88908
330
EF7C85532
100
AcDbEntity
  8
JISSEN
100
AcDbCircle
 10
304.0001661520326
 20
158.5749416546789
 30
0.0
 40
1.0
100
AcDbArc
 50
280.2483788343932
 51
0.0
  0
LINE
  5
EF7C88909
330
EF7C85532
100
AcDbEntity
  8
JISSEN
100
AcDbLine
 10
305.0001661520326
 20
158.5749416546789
 30
0.0
 11
305.0001661520326
 21
159.0785940915214
 31
0.0
  0
LINE
  5
EF7C8890A
330
EF7C85532
100
AcDbEntity
  8
JISSEN
100
AcDbLine
 10
288.1501661520341
 20
94.88195165791186
 30
0.0
 11
288.150166152035
 21
75.07859409145741
 31
0.0
  0
LINE
  5
EF7C8890B
330
EF7C85532
100
AcDbEntity
  8
JISSEN
100
AcDbLine
 10
292.1501661520323
 20
83.07859409152198
 30
0.0
 11
292.1501661520323
 21
73.57859409145968
 31
0.0
  0
LINE
  5
EF7C8890C
330
EF7C85532
100
AcDbEntity
  8
JISSEN
 48
3.0
100
AcDbLine
 10
269.5001661520316
 20
94.8819516579123
 30
0.0
 11
269.5001661520334
 21
75.07859409145786
 31
0.0
  0
LINE
  5
EF7C8890D
330
EF7C85532
100
AcDbEntity
  8
JISSEN
 48
3.0
100
AcDbLine
 10
272.5001661520326
 20
94.8819516579123
 30
0.0
 11
272.5001661520308
 21
75.07859409145786
 31
0.0
  0
LINE
  5
EF7C8890E
330
EF7C85532
100
AcDbEntity
  8
JISSEN
100
AcDbLine
 10
249.850166152032
 20
83.07859409152198
 30
0.0
 11
249.850166152032
 21
73.57859409145968
 31
0.0
  0
LINE
  5
EF7C8890F
330
EF7C85532
100
AcDbEntity
  8
JISSEN
100
AcDbLine
 10
253.8501661520302
 20
94.88195165791186
 30
0.0
 11
253.8501661520292
 21
75.07859409145741
 31
0.0
  0
LINE
  5
EF7C88910
330
EF7C85532
100
AcDbEntity
  8
JISSEN
100
AcDbLine
 10
281.9999158379833
 20
83.63442256272765
 30
0.0
 11
281.9999158379833
 21
80.93442256272764
 31
0.0
  0
LINE
  5
EF7C88911
330
EF7C85532
100
AcDbEntity
  8
JISSEN
100
AcDbLine
 10
280.9999158379833
 20
81.03442256272774
 30
0.0
 11
280.9999158379833
 21
83.63442256272765
 31
0.0
  0
LINE
  5
EF7C88912
330
EF7C85532
100
AcDbEntity
  8
JISSEN
100
AcDbLine
 10
278.4999158379834
 20
83.03442256272774
 30
0.0
 11
278.4999158379833
 21
80.93442256272775
 31
0.0
  0
LINE
  5
EF7C88913
330
EF7C85532
100
AcDbEntity
  8
JISSEN
100
AcDbLine
 10
263.5000827140156
 20
83.03442256272774
 30
0.0
 11
263.5000827140157
 21
80.93442256272775
 31
0.0
  0
LINE
  5
EF7C88914
330
EF7C85532
100
AcDbEntity
  8
JISSEN
100
AcDbLine
 10
261.0000827140157
 20
81.03442256272774
 30
0.0
 11
261.0000827140157
 21
83.63442256272765
 31
0.0
  0
LINE
  5
EF7C88915
330
EF7C85532
100
AcDbEntity
  8
JISSEN
100
AcDbLine
 10
260.0000827140157
 20
83.63442256272765
 30
0.0
 11
260.0000827140157
 21
80.93442256272764
 31
0.0
  0
LINE
  5
EF7C88916
330
EF7C85532
100
AcDbEntity
  8
JISSEN
100
AcDbLine
 10
251.3501661520311
 20
72.07859409152153
 30
0.0
 11
271.0001661520324
 21
72.07859409152153
 31
0.0
  0
LINE
  5
EF7C88917
330
EF7C85532
100
AcDbEntity
  8
JISSEN
100
AcDbLine
 10
269.5001661520325
 20
75.07859409145786
 30
0.0
 11
251.3501661520311
 21
75.07859409145786
 31
0.0
  0
LINE
  5
EF7C88918
330
EF7C85532
100
AcDbEntity
  8
JISSEN
100
AcDbLine
 10
268.0250827140159
 20
79.02859409151935
 30
0.0
 11
265.2250827140159
 21
79.02859409151935
 31
0.0
  0
LINE
  5
EF7C88919
330
EF7C85532
100
AcDbEntity
  8
JISSEN
100
AcDbLine
 10
261.0000827140157
 20
79.93442256272775
 30
0.0
 11
269.4999992759998
 21
79.93442256272775
 31
0.0
  0
LINE
  5
EF7C8891A
330
EF7C85532
100
AcDbEntity
  8
JISSEN
100
AcDbLine
 10
269.4999992759999
 20
80.93442256272775
 30
0.0
 11
261.1000827140157
 21
80.93442256272775
 31
0.0
  0
ARC
  5
EF7C8891B
330
EF7C85532
100
AcDbEntity
  8
JISSEN
 62
     7
100
AcDbCircle
 10
251.3501661520311
 20
73.57859409145968
 30
0.0
 40
1.49999999999909
100
AcDbArc
 50
179.9999999991141
 51
269.9999999998436
  0
ARC
  5
EF7C8891C
330
EF7C85532
100
AcDbEntity
  8
JISSEN
 48
3.0
100
AcDbCircle
 10
251.3501661520311
 20
73.57859409145968
 30
0.0
 40
1.49999999999909
100
AcDbArc
 50
90.0
 51
180.0
  0
LINE
  5
EF7C8891D
330
EF7C85532
100
AcDbEntity
  8
JISSEN
100
AcDbLine
 10
253.3501661520338
 20
72.0785940914574
 30
0.0
 11
252.3501661520283
 21
72.07859409146013
 31
0.0
  0
ARC
  5
EF7C8891E
330
EF7C85532
100
AcDbEntity
  8
JISSEN
100
AcDbCircle
 10
261.1000827140155
 20
81.03442256272774
 30
0.0
 40
0.0999999999999943
100
AcDbArc
 50
180.0000000000161
 51
270.0000000000162
  0
ARC
  5
EF7C8891F
330
EF7C85532
100
AcDbEntity
  8
JISSEN
100
AcDbCircle
 10
261.0000827140157
 20
80.93442256272764
 30
0.0
 40
1.0
100
AcDbArc
 50
180.0
 51
270.0
  0
ARC
  5
EF7C88920
330
EF7C85532
100
AcDbEntity
  8
JISSEN
100
AcDbCircle
 10
265.2250827140159
 20
79.82859409151936
 30
0.0
 40
0.0999999999999943
100
AcDbArc
 50
90.00000000001628
 51
180.0000000000161
  0
ARC
  5
EF7C88921
330
EF7C85532
100
AcDbEntity
  8
JISSEN
100
AcDbCircle
 10
265.2250827140159
 20
79.12859409151926
 30
0.0
 40
0.0999999999999943
100
AcDbArc
 50
179.9999999999836
 51
269.9999999999837
  0
LINE
  5
EF7C88922
330
EF7C85532
100
AcDbEntity
  8
JISSEN
100
AcDbLine
 10
265.125082714016
 20
79.82859409151936
 30
0.0
 11
265.125082714016
 21
79.12859409151934
 31
0.0
  0
LINE
  5
EF7C88923
330
EF7C85532
100
AcDbEntity
  8
JISSEN
100
AcDbLine
 10
271.0001661520325
 20
72.07859409151822
 30
0.0
 11
290.6501661520341
 21
72.07859409151822
 31
0.0
  0
LINE
  5
EF7C88924
330
EF7C85532
100
AcDbEntity
  8
JISSEN
100
AcDbLine
 10
272.5001661520317
 20
75.07859409145786
 30
0.0
 11
290.6501661520331
 21
75.07859409145786
 31
0.0
  0
LINE
  5
EF7C88925
330
EF7C85532
100
AcDbEntity
  8
JISSEN
100
AcDbLine
 10
290.6501661520331
 20
72.07859409152153
 30
0.0
 11
271.0001661520319
 21
72.07859409152153
 31
0.0
  0
LINE
  5
EF7C88926
330
EF7C85532
100
AcDbEntity
  8
JISSEN
100
AcDbLine
 10
272.4999992759999
 20
80.93442256272764
 30
0.0
 11
280.8999158379833
 21
80.93442256272775
 31
0.0
  0
LINE
  5
EF7C88927
330
EF7C85532
100
AcDbEntity
  8
JISSEN
100
AcDbLine
 10
280.9999158379833
 20
79.93442256272775
 30
0.0
 11
272.4999992759999
 21
79.93442256272775
 31
0.0
  0
LWPOLYLINE
  5
EF7C88928
330
EF7C85532
100
AcDbEntity
  8
JISSEN
100
AcDbPolyline
 90
        3
 70
     0
 43
0.0
 10
272.4999992759999
 20
79.07632166753754
 42
0.0405923580291723
 10
273.7499158379833
 20
79.42193296206935
 10
273.7499158379833
 20
79.93442256272775
  0
ARC
  5
EF7C88929
330
EF7C85532
100
AcDbEntity
  8
JISSEN
 48
3.0
100
AcDbCircle
 10
272.5001661520326
 20
73.57859409145547
 30
0.0
 40
1.49999999999909
100
AcDbArc
 50
90.0
 51
180.0
  0
ARC
  5
EF7C8892A
330
EF7C85532
100
AcDbEntity
  8
JISSEN
 48
3.0
100
AcDbCircle
 10
272.5001661520317
 20
73.57859409145877
 30
0.0
 40
1.49999999999909
100
AcDbArc
 50
90.0
 51
180.0
  0
ARC
  5
EF7C8892B
330
EF7C85532
100
AcDbEntity
  8
JISSEN
 48
3.0
100
AcDbCircle
 10
269.5001661520325
 20
73.57859409145877
 30
0.0
 40
1.49999999999909
100
AcDbArc
 50
0.0
 51
90.0
  0
LWPOLYLINE
  5
EF7C8892C
330
EF7C85532
100
AcDbEntity
  8
JISSEN
100
AcDbPolyline
 90
        3
 70
     0
 43
0.0
 10
269.4999992759999
 20
79.07632166753746
 42
-0.0405923580292011
 10
268.2500827140157
 20
79.42193296206935
 10
268.2500827140157
 20
79.93442256272775
  0
ARC
  5
EF7C8892D
330
EF7C85532
100
AcDbEntity
  8
JISSEN
100
AcDbCircle
 10
268.0250827140159
 20
79.82859409151936
 30
0.0
 40
0.0999999999999943
100
AcDbArc
 50
359.9999999999837
 51
89.99999999998371
  0
LINE
  5
EF7C8892E
330
EF7C85532
100
AcDbEntity
  8
JISSEN
100
AcDbLine
 10
265.925082714016
 20
79.02859409151935
 30
0.0
 11
265.925082714016
 21
78.38013843369956
 31
0.0
  0
LINE
  5
EF7C8892F
330
EF7C85532
100
AcDbEntity
  8
JISSEN
100
AcDbLine
 10
267.3250827140159
 20
79.02859409151935
 30
0.0
 11
267.3250827140159
 21
78.38013843369964
 31
0.0
  0
LINE
  5
EF7C88930
330
EF7C85532
100
AcDbEntity
  8
JISSEN
100
AcDbLine
 10
267.2370754742253
 20
78.27859409151935
 30
0.0
 11
266.0130899538061
 21
78.27859409151935
 31
0.0
  0
ARC
  5
EF7C88931
330
EF7C85532
100
AcDbEntity
  8
JISSEN
100
AcDbCircle
 10
266.023756069136
 20
78.37802363433116
 30
0.0
 40
0.0999999999999943
100
AcDbArc
 50
179.9999999999836
 51
269.9999999999837
  0
ARC
  5
EF7C88932
330
EF7C85532
100
AcDbEntity
  8
JISSEN
100
AcDbCircle
 10
267.2264093588959
 20
78.37802363433116
 30
0.0
 40
0.0999999999999943
100
AcDbArc
 50
270.0000000000195
 51
0.0000000000195413
  0
ARC
  5
EF7C88933
330
EF7C85532
100
AcDbEntity
  8
JISSEN
100
AcDbCircle
 10
268.0250827140159
 20
79.12859409151926
 30
0.0
 40
0.0999999999999943
100
AcDbArc
 50
270.0000000000162
 51
0.0000000000162844
  0
LINE
  5
EF7C88934
330
EF7C85532
100
AcDbEntity
  8
JISSEN
100
AcDbLine
 10
268.125082714016
 20
79.82859409151936
 30
0.0
 11
268.125082714016
 21
79.12859409151934
 31
0.0
  0
LINE
  5
EF7C88935
330
EF7C85532
100
AcDbEntity
  8
JISSEN
100
AcDbLine
 10
273.974915837983
 20
79.02859409151935
 30
0.0
 11
276.774915837983
 21
79.02859409151935
 31
0.0
  0
ARC
  5
EF7C88936
330
EF7C85532
100
AcDbEntity
  8
JISSEN
100
AcDbCircle
 10
273.974915837983
 20
79.82859409151936
 30
0.0
 40
0.0999999999999943
100
AcDbArc
 50
90.00000000001628
 51
180.0000000000163
  0
ARC
  5
EF7C88937
330
EF7C85532
100
AcDbEntity
  8
JISSEN
100
AcDbCircle
 10
274.7735891931029
 20
78.37802363433116
 30
0.0
 40
0.0999999999999943
100
AcDbArc
 50
179.9999999999803
 51
269.9999999999803
  0
ARC
  5
EF7C88938
330
EF7C85532
100
AcDbEntity
  8
JISSEN
100
AcDbCircle
 10
275.976242482863
 20
78.37802363433116
 30
0.0
 40
0.0999999999999943
100
AcDbArc
 50
270.0000000000162
 51
0.0000000000162915
  0
LINE
  5
EF7C88939
330
EF7C85532
100
AcDbEntity
  8
JISSEN
100
AcDbLine
 10
274.7629230777735
 20
78.27859409151935
 30
0.0
 11
275.9869085981926
 21
78.27859409151935
 31
0.0
  0
LINE
  5
EF7C8893A
330
EF7C85532
100
AcDbEntity
  8
JISSEN
100
AcDbLine
 10
274.674915837983
 20
79.02859409151935
 30
0.0
 11
274.674915837983
 21
78.38013843369964
 31
0.0
  0
LINE
  5
EF7C8893B
330
EF7C85532
100
AcDbEntity
  8
JISSEN
100
AcDbLine
 10
276.074915837983
 20
79.02859409151935
 30
0.0
 11
276.074915837983
 21
78.38013843369956
 31
0.0
  0
ARC
  5
EF7C8893C
330
EF7C85532
100
AcDbEntity
  8
JISSEN
100
AcDbCircle
 10
273.974915837983
 20
79.12859409151926
 30
0.0
 40
0.0999999999999943
100
AcDbArc
 50
179.9999999999836
 51
269.9999999999837
  0
LINE
  5
EF7C8893D
330
EF7C85532
100
AcDbEntity
  8
JISSEN
100
AcDbLine
 10
273.874915837983
 20
79.82859409151936
 30
0.0
 11
273.874915837983
 21
79.12859409151934
 31
0.0
  0
ARC
  5
EF7C8893E
330
EF7C85532
100
AcDbEntity
  8
JISSEN
100
AcDbCircle
 10
276.774915837983
 20
79.82859409151936
 30
0.0
 40
0.0999999999999943
100
AcDbArc
 50
359.9999999999837
 51
89.99999999998371
  0
ARC
  5
EF7C8893F
330
EF7C85532
100
AcDbEntity
  8
JISSEN
100
AcDbCircle
 10
276.774915837983
 20
79.12859409151926
 30
0.0
 40
0.0999999999999943
100
AcDbArc
 50
270.0000000000162
 51
0.0000000000162915
  0
LINE
  5
EF7C88940
330
EF7C85532
100
AcDbEntity
  8
JISSEN
100
AcDbLine
 10
276.8749158379828
 20
79.82859409151936
 30
0.0
 11
276.8749158379828
 21
79.12859409151934
 31
0.0
  0
ARC
  5
EF7C88941
330
EF7C85532
100
AcDbEntity
  8
JISSEN
100
AcDbCircle
 10
280.9999158379833
 20
80.93442256272764
 30
0.0
 40
1.0
100
AcDbArc
 50
270.0
 51
0.000000000000007
  0
ARC
  5
EF7C88942
330
EF7C85532
100
AcDbEntity
  8
JISSEN
100
AcDbCircle
 10
280.8999158379833
 20
81.03442256272774
 30
0.0
 40
0.0999999999999943
100
AcDbArc
 50
269.9999999999837
 51
359.9999999999837
  0
LINE
  5
EF7C88943
330
EF7C85532
100
AcDbEntity
  8
JISSEN
100
AcDbLine
 10
288.6501661520304
 20
72.0785940914574
 30
0.0
 11
289.6501661520359
 21
72.07859409146013
 31
0.0
  0
ARC
  5
EF7C88944
330
EF7C85532
100
AcDbEntity
  8
JISSEN
 48
3.0
100
AcDbCircle
 10
290.6501661520331
 20
73.57859409145968
 30
0.0
 40
1.49999999999909
100
AcDbArc
 50
0.0
 51
90.0
  0
ARC
  5
EF7C88945
330
EF7C85532
100
AcDbEntity
  8
JISSEN
 62
     7
100
AcDbCircle
 10
290.6501661520331
 20
73.57859409145968
 30
0.0
 40
1.49999999999909
100
AcDbArc
 50
270.0000000001563
 51
0.0000000008858735
  0
ARC
  5
EF7C88946
330
EF7C85532
100
AcDbEntity
  8
JISSEN
100
AcDbCircle
 10
307.1501661520323
 20
83.07859409152198
 30
0.0
 40
15.0
100
AcDbArc
 50
109.3883336172968
 51
180.0
  0
LINE
  5
EF7C88947
330
EF7C85532
100
AcDbEntity
  8
JISSEN
 48
3.0
100
AcDbLine
 10
289.2391240031782
 20
94.88992879185744
 30
0.0
 11
304.178081854321
 21
97.59089592257161
 31
0.0
  0
LINE
  5
EF7C88948
330
EF7C85532
100
AcDbEntity
  8
JISSEN
100
AcDbLine
 10
303.4999992759986
 20
99.07859409151853
 30
0.0
 11
238.5001661520335
 21
99.07859409151853
 31
0.0
  0
ARC
  5
EF7C88949
330
EF7C85532
100
AcDbEntity
  8
JISSEN
100
AcDbCircle
 10
238.0001661520316
 20
98.57494165467906
 30
0.0
 40
1.0
100
AcDbArc
 50
180.0
 51
259.7516211656067
  0
LINE
  5
EF7C8894A
330
EF7C85532
100
AcDbEntity
  8
JISSEN
100
AcDbLine
 10
237.0001661520316
 20
98.57494165467906
 30
0.0
 11
237.0001661520316
 21
99.07859409152152
 31
0.0
  0
LINE
  5
EF7C8894B
330
EF7C85532
100
AcDbEntity
  8
JISSEN
100
AcDbLine
 10
252.8501661520301
 20
94.8819516579123
 30
0.0
 11
269.5001661520316
 21
94.88195165791276
 31
0.0
  0
LINE
  5
EF7C8894C
330
EF7C85532
100
AcDbEntity
  8
JISSEN
100
AcDbLine
 10
253.850166152032
 20
94.07859409151834
 30
0.0
 11
269.5001661520316
 21
94.07859409151834
 31
0.0
  0
LINE
  5
EF7C8894D
330
EF7C85532
100
AcDbEntity
  8
JISSEN
100
AcDbLine
 10
263.5000827140156
 20
83.03442256272774
 30
0.0
 11
269.4999992759999
 21
83.03442256272774
 31
0.0
  0
LINE
  5
EF7C8894E
330
EF7C85532
100
AcDbEntity
  8
JISSEN
100
AcDbLine
 10
265.880532898427
 20
83.33442256272773
 30
0.0
 11
263.5000827140156
 21
83.33442256272764
 31
0.0
  0
ARC
  5
EF7C8894F
330
EF7C85532
100
AcDbEntity
  8
JISSEN
100
AcDbCircle
 10
234.850166152032
 20
83.07859409152198
 30
0.0
 40
15.0
100
AcDbArc
 50
0.0
 51
70.61166638270314
  0
LINE
  5
EF7C88950
330
EF7C85532
100
AcDbEntity
  8
JISSEN
 48
3.0
100
AcDbLine
 10
252.761208300886
 20
94.88992879185744
 30
0.0
 11
237.8222504497432
 21
97.59089592257161
 31
0.0
  0
LINE
  5
EF7C88951
330
EF7C85532
100
AcDbEntity
  8
JISSEN
100
AcDbLine
 10
261.0000827140157
 20
81.73442256272764
 30
0.0
 11
260.0000827140157
 21
81.73442256272764
 31
0.0
  0
LINE
  5
EF7C88952
330
EF7C85532
100
AcDbEntity
  8
JISSEN
100
AcDbLine
 10
261.0000827140157
 20
83.63442256272765
 30
0.0
 11
260.0000827140157
 21
83.63442256272765
 31
0.0
  0
LINE
  5
EF7C88953
330
EF7C85532
100
AcDbEntity
  8
JISSEN
100
AcDbLine
 10
263.5000827140156
 20
83.33442256272764
 30
0.0
 11
263.5000827140156
 21
83.03442256272774
 31
0.0
  0
ARC
  5
EF7C88954
330
EF7C85532
100
AcDbEntity
  8
JISSEN
 48
3.0
100
AcDbCircle
 10
252.8501661520301
 20
95.38195165791231
 30
0.0
 40
0.5
100
AcDbArc
 50
259.7516211656067
 51
270.0
  0
LINE
  5
EF7C88955
330
EF7C85532
100
AcDbEntity
  8
JISSEN
100
AcDbLine
 10
288.1501661520323
 20
94.07859409151834
 30
0.0
 11
272.5001661520326
 21
94.07859409151834
 31
0.0
  0
LINE
  5
EF7C88956
330
EF7C85532
100
AcDbEntity
  8
JISSEN
100
AcDbLine
 10
289.150166152034
 20
94.8819516579123
 30
0.0
 11
272.5001661520326
 21
94.88195165791276
 31
0.0
  0
LINE
  5
EF7C88957
330
EF7C85532
100
AcDbEntity
  8
JISSEN
100
AcDbLine
 10
265.925082714016
 20
83.33944740038395
 30
0.0
 11
265.925082714016
 21
94.07859409151866
 31
0.0
  0
LINE
  5
EF7C88958
330
EF7C85532
100
AcDbEntity
  8
JISSEN
100
AcDbLine
 10
267.3250827140159
 20
94.07859409151866
 30
0.0
 11
267.3250827140159
 21
86.91479652745394
 31
0.0
  0
LINE
  5
EF7C88959
330
EF7C85532
100
AcDbEntity
  8
JISSEN
100
AcDbLine
 10
274.674915837983
 20
94.07859409151866
 30
0.0
 11
274.674915837983
 21
86.91479652745394
 31
0.0
  0
LINE
  5
EF7C8895A
330
EF7C85532
100
AcDbEntity
  8
JISSEN
100
AcDbLine
 10
276.074915837983
 20
83.33944740038395
 30
0.0
 11
276.0749158379829
 21
94.07859409151866
 31
0.0
  0
LINE
  5
EF7C8895B
330
EF7C85532
100
AcDbEntity
  8
JISSEN
100
AcDbLine
 10
278.4999158379834
 20
83.03442256272774
 30
0.0
 11
272.4999992759999
 21
83.03442256272774
 31
0.0
  0
LINE
  5
EF7C8895C
330
EF7C85532
100
AcDbEntity
  8
JISSEN
100
AcDbLine
 10
272.4999992759999
 20
86.93442256272764
 30
0.0
 11
274.4777689656088
 21
86.93442256272764
 31
0.0
  0
ARC
  5
EF7C8895D
330
EF7C85532
100
AcDbEntity
  8
JISSEN
100
AcDbCircle
 10
267.5222295863902
 20
85.93442256272775
 30
0.0
 40
0.9999999999999856
100
AcDbArc
 50
89.99999999999836
 51
169.9999999999996
  0
LINE
  5
EF7C8895E
330
EF7C85532
100
AcDbEntity
  8
JISSEN
100
AcDbLine
 10
269.4999992759999
 20
86.93442256272774
 30
0.0
 11
267.5222295863902
 21
86.93442256272764
 31
0.0
  0
LINE
  5
EF7C8895F
330
EF7C85532
100
AcDbEntity
  8
JISSEN
100
AcDbLine
 10
265.880532898427
 20
83.33442256272773
 30
0.0
 11
266.0483528246623
 21
83.33442256272773
 31
0.0
  0
LINE
  5
EF7C88960
330
EF7C85532
100
AcDbEntity
  8
JISSEN
100
AcDbLine
 10
266.537421833378
 20
86.10807074039465
 30
0.0
 11
266.0483528246623
 21
83.33442256272773
 31
0.0
  0
ARC
  5
EF7C88961
330
EF7C85532
100
AcDbEntity
  8
JISSEN
100
AcDbCircle
 10
274.4777689656088
 20
85.93442256272775
 30
0.0
 40
0.9999999999999856
100
AcDbArc
 50
10.00000000000021
 51
90.00000000000161
  0
LINE
  5
EF7C88962
330
EF7C85532
100
AcDbEntity
  8
JISSEN
100
AcDbLine
 10
276.1194656535719
 20
83.33442256272773
 30
0.0
 11
278.4999158379834
 21
83.33442256272764
 31
0.0
  0
LINE
  5
EF7C88963
330
EF7C85532
100
AcDbEntity
  8
JISSEN
100
AcDbLine
 10
276.1194656535719
 20
83.33442256272773
 30
0.0
 11
275.9516457273365
 21
83.33442256272773
 31
0.0
  0
LINE
  5
EF7C88964
330
EF7C85532
100
AcDbEntity
  8
JISSEN
100
AcDbLine
 10
275.4625767186209
 20
86.10807074039465
 30
0.0
 11
275.9516457273365
 21
83.33442256272773
 31
0.0
  0
LINE
  5
EF7C88965
330
EF7C85532
100
AcDbEntity
  8
JISSEN
100
AcDbLine
 10
278.4999158379834
 20
83.33442256272764
 30
0.0
 11
278.4999158379834
 21
83.03442256272774
 31
0.0
  0
ELLIPSE
  5
EF7C88966
330
EF7C85532
100
AcDbEntity
  8
JISSEN
100
AcDbEllipse
 10
271.0001661520326
 20
94.88195165790946
 30
0.0
 11
0.0
 21
2.673389674331701
 31
0.0
210
0.0
220
0.0
230
1.0
 40
0.5610854318774397
 41
4.712388980384689
 42
6.283185307179586
  0
ELLIPSE
  5
EF7C88967
330
EF7C85532
100
AcDbEntity
  8
JISSEN
100
AcDbEllipse
 10
271.0001661520317
 20
94.88195165791276
 30
0.0
 11
0.0
 21
2.673389674331701
 31
0.0
210
0.0
220
0.0
230
-1.0
 40
0.5610854318774397
 41
6.283185307179586
 42
7.853981633974482
  0
ELLIPSE
  5
EF7C88968
330
EF7C85532
100
AcDbEntity
  8
JISSEN
100
AcDbEllipse
 10
271.0001661520325
 20
94.88195165791276
 30
0.0
 11
0.0
 21
2.673389674331701
 31
0.0
210
0.0
220
0.0
230
1.0
 40
0.5610854318774397
 41
6.283185307179586
 42
7.853981633974482
  0
LINE
  5
EF7C88969
330
EF7C85532
100
AcDbEntity
  8
JISSEN
100
AcDbLine
 10
280.9999158379833
 20
83.63442256272765
 30
0.0
 11
281.9999158379833
 21
83.63442256272765
 31
0.0
  0
LINE
  5
EF7C8896A
330
EF7C85532
100
AcDbEntity
  8
JISSEN
100
AcDbLine
 10
280.9999158379833
 20
81.73442256272764
 30
0.0
 11
281.9999158379833
 21
81.73442256272764
 31
0.0
  0
ARC
  5
EF7C8896B
330
EF7C85532
100
AcDbEntity
  8
JISSEN
100
AcDbCircle
 10
304.0001661520326
 20
98.57494165467906
 30
0.0
 40
1.0
100
AcDbArc
 50
280.2483788343932
 51
0.0
  0
LINE
  5
EF7C8896C
330
EF7C85532
100
AcDbEntity
  8
JISSEN
100
AcDbLine
 10
305.0001661520326
 20
98.57494165467906
 30
0.0
 11
305.0001661520326
 21
99.07859409152152
 31
0.0
  0
ENDSEC
  0
SECTION
  2
OBJECTS
  0
DICTIONARY
  5
EF7C85527
330
0
100
AcDbDictionary
  3
ACAD_GROUP
350
EF7C85528
  3
ACAD_LAYOUT
350
EF7C85BB7
  3
ACAD_MLINESTYLE
350
EF7C85535
  3
ACAD_PLOTSETTINGS
350
EF7C85BB8
  3
ACAD_PLOTSTYLENAME
350
EF7C85BB5
  3
ACDBHEADERROUNDTRIPXREC
350
EF7C88974
  3
ACDBVARIABLEDICTIONARY
350
EF7C85DB7
  0
DICTIONARY
  5
EF7C87ED7
330
EF7C8551D
100
AcDbDictionary
280
     1
  3
ACAD_LAYERSTATES
360
EF7C87ED8
  0
DICTIONARY
  5
EF7C85D9A
330
EF7C85532
100
AcDbDictionary
280
     1
  3
ACAD_LAYOUTSELFREF
360
EF7C88996
  0
DICTIONARY
  5
EF7C85D98
330
EF7C8552F
100
AcDbDictionary
280
     1
  3
ACAD_LAYOUTSELFREF
360
EF7C88995
  0
DICTIONARY
  5
EF7C85528
102
{ACAD_REACTORS
330
EF7C85527
102
}
330
EF7C85527
100
AcDbDictionary
  0
DICTIONARY
  5
EF7C85BB7
102
{ACAD_REACTORS
330
EF7C85527
102
}
330
EF7C85527
100
AcDbDictionary
  0
DICTIONARY
  5
EF7C85535
102
{ACAD_REACTORS
330
EF7C85527
102
}
330
EF7C85527
100
AcDbDictionary
  3
STANDARD
350
EF7C85536
  0
DICTIONARY
  5
EF7C85BB8
102
{ACAD_REACTORS
330
EF7C85527
102
}
330
EF7C85527
100
AcDbDictionary
  0
ACDBDICTIONARYWDFLT
  5
EF7C85BB5
102
{ACAD_REACTORS
330
EF7C85527
102
}
330
EF7C85527
100
AcDbDictionary
281
     1
  3
Normal
350
EF7C85BB6
100
AcDbDictionaryWithDefault
340
EF7C85BB6
  0
DICTIONARY
  5
EF7C88974
102
{ACAD_REACTORS
330
EF7C85527
102
}
330
EF7C85527
100
AcDbDictionary
  3
CEPSNTYPE
350
EF7C8897E
  3
DIMSTYLEDATA
350
EF7C88982
  3
FINGERPRINTGUID
350
EF7C8897F
  3
HYPERLINKBASE
350
EF7C88977
  3
INSUNITS
350
EF7C8897D
  3
LAYOUTDICT
350
EF7C88979
  3
LWETCUNION
350
EF7C8897C
  3
PLOTSETDICT
350
EF7C8897A
  3
PLOTSTYLNAMDICT
350
EF7C8897B
  3
PSVPSCALE
350
EF7C88981
  3
PUCSBASE
350
EF7C88985
  3
PUCSORGBACK
350
EF7C8898B
  3
PUCSORGBOTTOM
350
EF7C88987
  3
PUCSORGFRONT
350
EF7C8898A
  3
PUCSORGLEFT
350
EF7C88988
  3
PUCSORGRIGHT
350
EF7C88989
  3
PUCSORGTOP
350
EF7C88986
  3
PUCSORTHOREF
350
EF7C88983
  3
PUCSORTHOVIEW
350
EF7C88984
  3
STYLESHEET
350
EF7C88978
  3
TSTACKALIGN
350
EF7C88975
  3
TSTACKSIZE
350
EF7C88976
  3
UCSBASE
350
EF7C8898E
  3
UCSORGBACK
350
EF7C88994
  3
UCSORGBOTTOM
350
EF7C88990
  3
UCSORGFRONT
350
EF7C88993
  3
UCSORGLEFT
350
EF7C88991
  3
UCSORGRIGHT
350
EF7C88992
  3
UCSORGTOP
350
EF7C8898F
  3
UCSORTHOREF
350
EF7C8898C
  3
UCSORTHOVIEW
350
EF7C8898D
  3
VERSIONGUID
350
EF7C88980
  0
DICTIONARY
  5
EF7C85DB7
102
{ACAD_REACTORS
330
EF7C85527
102
}
330
EF7C85527
100
AcDbDictionary
  3
DIMASSOC
350
EF7C87E96
  3
SORTENTS
350
EF7C85DB8
  0
DICTIONARY
  5
EF7C87ED8
102
{ACAD_REACTORS
330
EF7C87ED7
102
}
330
EF7C87ED7
100
AcDbDictionary
  0
XRECORD
  5
EF7C88996
102
{ACAD_REACTORS
330
EF7C85D9A
102
}
330
EF7C85D9A
100
AcDbXrecord
340
EF7C85532
  0
XRECORD
  5
EF7C88995
102
{ACAD_REACTORS
330
EF7C85D98
102
}
330
EF7C85D98
100
AcDbXrecord
340
EF7C8552F
  0
MLINESTYLE
  5
EF7C85536
102
{ACAD_REACTORS
330
EF7C85535
102
}
330
EF7C85535
100
AcDbMlineStyle
  2
STANDARD
 70
     0
  3

 62
   256
 51
90.0
 52
90.0
 71
     2
 49
0.5
 62
   256
  6
BYLAYER
 49
-0.5
 62
   256
  6
BYLAYER
  0
ACDBPLACEHOLDER
  5
EF7C85BB6
102
{ACAD_REACTORS
330
EF7C85BB5
102
}
330
EF7C85BB5
100
AcDbPlaceHolder
280
     0
  0
XRECORD
  5
EF7C8897E
102
{ACAD_REACTORS
330
EF7C88974
102
}
330
EF7C88974
100
AcDbXrecord
 90
        0
  0
XRECORD
  5
EF7C88982
102
{ACAD_REACTORS
330
EF7C88974
102
}
330
EF7C88974
100
AcDbXrecord
1000
DSTYLE
1002
{
1070
   341
340
EF7C85537
1070
   342
340
EF7C85537
1070
   343
340
EF7C85543
1070
   344
340
EF7C85543
1002
}
  0
XRECORD
  5
EF7C8897F
102
{ACAD_REACTORS
330
EF7C88974
102
}
330
EF7C88974
100
AcDbXrecord
  1
{09AA4C7A-3D6F-4857-A850-771461888CEC}
  0
XRECORD
  5
EF7C88977
102
{ACAD_REACTORS
330
EF7C88974
102
}
330
EF7C88974
100
AcDbXrecord
  1

  0
XRECORD
  5
EF7C8897D
102
{ACAD_REACTORS
330
EF7C88974
102
}
330
EF7C88974
100
AcDbXrecord
 90
        0
  0
XRECORD
  5
EF7C88979
102
{ACAD_REACTORS
330
EF7C88974
102
}
330
EF7C88974
100
AcDbXrecord
340
EF7C85BB7
  0
XRECORD
  5
EF7C8897C
102
{ACAD_REACTORS
330
EF7C88974
102
}
330
EF7C88974
100
AcDbXrecord
 90
    14877
  0
XRECORD
  5
EF7C8897A
102
{ACAD_REACTORS
330
EF7C88974
102
}
330
EF7C88974
100
AcDbXrecord
340
EF7C85BB8
  0
XRECORD
  5
EF7C8897B
102
{ACAD_REACTORS
330
EF7C88974
102
}
330
EF7C88974
100
AcDbXrecord
340
EF7C85BB5
  0
XRECORD
  5
EF7C88981
102
{ACAD_REACTORS
330
EF7C88974
102
}
330
EF7C88974
100
AcDbXrecord
 40
0.0
  0
XRECORD
  5
EF7C88985
102
{ACAD_REACTORS
330
EF7C88974
102
}
330
EF7C88974
100
AcDbXrecord
340
0
  0
XRECORD
  5
EF7C8898B
102
{ACAD_REACTORS
330
EF7C88974
102
}
330
EF7C88974
100
AcDbXrecord
 10
0.0
 20
0.0
 30
0.0
  0
XRECORD
  5
EF7C88987
102
{ACAD_REACTORS
330
EF7C88974
102
}
330
EF7C88974
100
AcDbXrecord
 10
0.0
 20
0.0
 30
0.0
  0
XRECORD
  5
EF7C8898A
102
{ACAD_REACTORS
330
EF7C88974
102
}
330
EF7C88974
100
AcDbXrecord
 10
0.0
 20
0.0
 30
0.0
  0
XRECORD
  5
EF7C88988
102
{ACAD_REACTORS
330
EF7C88974
102
}
330
EF7C88974
100
AcDbXrecord
 10
0.0
 20
0.0
 30
0.0
  0
XRECORD
  5
EF7C88989
102
{ACAD_REACTORS
330
EF7C88974
102
}
330
EF7C88974
100
AcDbXrecord
 10
0.0
 20
0.0
 30
0.0
  0
XRECORD
  5
EF7C88986
102
{ACAD_REACTORS
330
EF7C88974
102
}
330
EF7C88974
100
AcDbXrecord
 10
0.0
 20
0.0
 30
0.0
  0
XRECORD
  5
EF7C88983
102
{ACAD_REACTORS
330
EF7C88974
102
}
330
EF7C88974
100
AcDbXrecord
340
0
  0
XRECORD
  5
EF7C88984
102
{ACAD_REACTORS
330
EF7C88974
102
}
330
EF7C88974
100
AcDbXrecord
 70
     0
  0
XRECORD
  5
EF7C88978
102
{ACAD_REACTORS
330
EF7C88974
102
}
330
EF7C88974
100
AcDbXrecord
  1

  0
XRECORD
  5
EF7C88975
102
{ACAD_REACTORS
330
EF7C88974
102
}
330
EF7C88974
100
AcDbXrecord
 90
        1
  0
XRECORD
  5
EF7C88976
102
{ACAD_REACTORS
330
EF7C88974
102
}
330
EF7C88974
100
AcDbXrecord
 90
       70
  0
XRECORD
  5
EF7C8898E
102
{ACAD_REACTORS
330
EF7C88974
102
}
330
EF7C88974
100
AcDbXrecord
340
0
  0
XRECORD
  5
EF7C88994
102
{ACAD_REACTORS
330
EF7C88974
102
}
330
EF7C88974
100
AcDbXrecord
 10
0.0
 20
0.0
 30
0.0
  0
XRECORD
  5
EF7C88990
102
{ACAD_REACTORS
330
EF7C88974
102
}
330
EF7C88974
100
AcDbXrecord
 10
0.0
 20
0.0
 30
0.0
  0
XRECORD
  5
EF7C88993
102
{ACAD_REACTORS
330
EF7C88974
102
}
330
EF7C88974
100
AcDbXrecord
 10
0.0
 20
0.0
 30
0.0
  0
XRECORD
  5
EF7C88991
102
{ACAD_REACTORS
330
EF7C88974
102
}
330
EF7C88974
100
AcDbXrecord
 10
0.0
 20
0.0
 30
0.0
  0
XRECORD
  5
EF7C88992
102
{ACAD_REACTORS
330
EF7C88974
102
}
330
EF7C88974
100
AcDbXrecord
 10
0.0
 20
0.0
 30
0.0
  0
XRECORD
  5
EF7C8898F
102
{ACAD_REACTORS
330
EF7C88974
102
}
330
EF7C88974
100
AcDbXrecord
 10
0.0
 20
0.0
 30
0.0
  0
XRECORD
  5
EF7C8898C
102
{ACAD_REACTORS
330
EF7C88974
102
}
330
EF7C88974
100
AcDbXrecord
340
0
  0
XRECORD
  5
EF7C8898D
102
{ACAD_REACTORS
330
EF7C88974
102
}
330
EF7C88974
100
AcDbXrecord
 70
     0
  0
XRECORD
  5
EF7C88980
102
{ACAD_REACTORS
330
EF7C88974
102
}
330
EF7C88974
100
AcDbXrecord
  1
{87B65EDC-FB1B-4DC9-A4BB-A9B141BC5D6C}
  0
DICTIONARYVAR
  5
EF7C87E96
102
{ACAD_REACTORS
330
EF7C85DB7
102
}
330
EF7C85DB7
100
DictionaryVariables
280
     0
  1
0
  0
DICTIONARYVAR
  5
EF7C85DB8
102
{ACAD_REACTORS
330
EF7C85DB7
102
}
330
EF7C85DB7
100
DictionaryVariables
280
     0
  1
96
  0
ENDSEC
  0
EOF
