  0
SECTION
  2
HEADER
  9
$ACADVER
  1
AC1014
  9
$ACADMAINTVER
 70
     9
  9
$DWGCODEPAGE
  3
ANSI_932
  9
$INSBASE
 10
0.0
 20
0.0
 30
0.0
  9
$EXTMIN
 10
-0.0110465204030561
 20
-0.0086358157087716
 30
-0.0015258207003583
  9
$EXTMAX
 10
362.0110467580966
 20
283.0086371335301
 30
0.0000000349246037
  9
$LIMMIN
 10
0.0
 20
0.0
  9
$LIMMAX
 10
181.0
 20
283.0
  9
$ORTHOMODE
 70
     1
  9
$REGENMODE
 70
     1
  9
$FILLMODE
 70
     1
  9
$QTEXTMODE
 70
     0
  9
$MIRRTEXT
 70
     0
  9
$DRAGMODE
 70
     2
  9
$LTSCALE
 40
5.0
  9
$OSMODE
 70
   167
  9
$ATTMODE
 70
     1
  9
$TEXTSIZE
 40
3.0
  9
$TRACEWID
 40
0.05
  9
$TEXTSTYLE
  7
BIGFONT
  9
$CLAYER
  8
JISSEN
  9
$CELTYPE
  6
BYLAYER
  9
$CECOLOR
 62
   256
  9
$CELTSCALE
 40
1.0
  9
$DELOBJ
 70
     1
  9
$DISPSILH
 70
     0
  9
$DIMSCALE
 40
1.0
  9
$DIMASZ
 40
1.5
  9
$DIMEXO
 40
1.0
  9
$DIMDLI
 40
6.0
  9
$DIMRND
 40
0.0
  9
$DIMDLE
 40
0.0
  9
$DIMEXE
 40
1.0
  9
$DIMTP
 40
0.0
  9
$DIMTM
 40
0.0
  9
$DIMTXT
 40
3.0
  9
$DIMCEN
 40
1.0
  9
$DIMTSZ
 40
0.0
  9
$DIMTOL
 70
     0
  9
$DIMLIM
 70
     0
  9
$DIMTIH
 70
     0
  9
$DIMTOH
 70
     0
  9
$DIMSE1
 70
     0
  9
$DIMSE2
 70
     0
  9
$DIMTAD
 70
     0
  9
$DIMZIN
 70
     8
  9
$DIMBLK
  1
ARROW
  9
$DIMASO
 70
     0
  9
$DIMSHO
 70
     0
  9
$DIMPOST
  1

  9
$DIMAPOST
  1

  9
$DIMALT
 70
     0
  9
$DIMALTD
 70
     2
  9
$DIMALTF
 40
25.4
  9
$DIMLFAC
 40
1.0
  9
$DIMTOFL
 70
     1
  9
$DIMTVP
 40
0.0
  9
$DIMTIX
 70
     0
  9
$DIMSOXD
 70
     0
  9
$DIMSAH
 70
     0
  9
$DIMBLK1
  1
ARROWANG
  9
$DIMBLK2
  1
ARROWANG
  9
$DIMSTYLE
  2
IMAO
  9
$DIMCLRD
 70
     0
  9
$DIMCLRE
 70
     0
  9
$DIMCLRT
 70
     0
  9
$DIMTFAC
 40
1.0
  9
$DIMGAP
 40
0.09
  9
$DIMJUST
 70
     0
  9
$DIMSD1
 70
     0
  9
$DIMSD2
 70
     0
  9
$DIMTOLJ
 70
     1
  9
$DIMTZIN
 70
     8
  9
$DIMALTZ
 70
     8
  9
$DIMALTTZ
 70
     8
  9
$DIMFIT
 70
     3
  9
$DIMUPT
 70
     0
  9
$DIMUNIT
 70
     2
  9
$DIMDEC
 70
     2
  9
$DIMTDEC
 70
     2
  9
$DIMALTU
 70
     2
  9
$DIMALTTD
 70
     2
  9
$DIMTXSTY
  7
BIGFONT
  9
$DIMAUNIT
 70
     0
  9
$LUNITS
 70
     2
  9
$LUPREC
 70
     2
  9
$SKETCHINC
 40
0.1
  9
$FILLETRAD
 40
0.2
  9
$AUNITS
 70
     0
  9
$AUPREC
 70
     2
  9
$MENU
  1
stdr12j
  9
$ELEVATION
 40
0.0
  9
$PELEVATION
 40
0.0
  9
$THICKNESS
 40
0.0
  9
$LIMCHECK
 70
     0
  9
$BLIPMODE
 70
     0
  9
$CHAMFERA
 40
0.0
  9
$CHAMFERB
 40
0.0
  9
$CHAMFERC
 40
0.0
  9
$CHAMFERD
 40
0.0
  9
$SKPOLY
 70
     0
  9
$TDCREATE
 40
2450617.453041203
  9
$TDUPDATE
 40
2453614.447149375
  9
$TDINDWG
 40
0.1040365046
  9
$TDUSRTIMER
 40
0.1040363889
  9
$USRTIMER
 70
     1
  9
$ANGBASE
 50
0.0
  9
$ANGDIR
 70
     0
  9
$PDMODE
 70
     0
  9
$PDSIZE
 40
0.0
  9
$PLINEWID
 40
0.0
  9
$COORDS
 70
     2
  9
$SPLFRAME
 70
     0
  9
$SPLINETYPE
 70
     6
  9
$SPLINESEGS
 70
     8
  9
$ATTDIA
 70
     0
  9
$ATTREQ
 70
     1
  9
$HANDLING
 70
 22529
  9
$HANDSEED
  5
EF7C87AB8
  9
$SURFTAB1
 70
     6
  9
$SURFTAB2
 70
     6
  9
$SURFTYPE
 70
     6
  9
$SURFU
 70
     6
  9
$SURFV
 70
     6
  9
$UCSNAME
  2

  9
$UCSORG
 10
0.0
 20
0.0
 30
0.0
  9
$UCSXDIR
 10
1.0
 20
0.0
 30
0.0
  9
$UCSYDIR
 10
0.0
 20
1.0
 30
0.0
  9
$PUCSNAME
  2

  9
$PUCSORG
 10
0.0
 20
0.0
 30
0.0
  9
$PUCSXDIR
 10
1.0
 20
0.0
 30
0.0
  9
$PUCSYDIR
 10
0.0
 20
1.0
 30
0.0
  9
$USERI1
 70
     0
  9
$USERI2
 70
     1
  9
$USERI3
 70
     1
  9
$USERI4
 70
     3
  9
$USERI5
 70
     0
  9
$USERR1
 40
1.0
  9
$USERR2
 40
3.0
  9
$USERR3
 40
3.0
  9
$USERR4
 40
1.5
  9
$USERR5
 40
8.0
  9
$WORLDVIEW
 70
     1
  9
$SHADEDGE
 70
     3
  9
$SHADEDIF
 70
    70
  9
$TILEMODE
 70
     1
  9
$MAXACTVP
 70
    16
  9
$PINSBASE
 10
0.0
 20
0.0
 30
0.0
  9
$PLIMCHECK
 70
     0
  9
$PEXTMIN
 10
1.000000000000000E+20
 20
1.000000000000000E+20
 30
1.000000000000000E+20
  9
$PEXTMAX
 10
-1.000000000000000E+20
 20
-1.000000000000000E+20
 30
-1.000000000000000E+20
  9
$PLIMMIN
 10
0.0
 20
0.0
  9
$PLIMMAX
 10
12.0
 20
9.0
  9
$UNITMODE
 70
     0
  9
$VISRETAIN
 70
     0
  9
$PLINEGEN
 70
     0
  9
$PSLTSCALE
 70
     0
  9
$TREEDEPTH
 70
  3020
  9
$PICKSTYLE
 70
     1
  9
$CMLSTYLE
  2
STANDARD
  9
$CMLJUST
 70
     0
  9
$CMLSCALE
 40
1.0
  9
$PROXYGRAPHICS
 70
     1
  9
$MEASUREMENT
 70
     0
  0
ENDSEC
  0
SECTION
  2
CLASSES
  0
CLASS
  1
LWPOLYLINE
  2
AcDbPolyline
  3
AutoCAD 2000
 90
        0
280
     0
281
     1
  0
CLASS
  1
HATCH
  2
AcDbHatch
  3
AutoCAD 2000
 90
        0
280
     0
281
     1
  0
CLASS
  1
ACDBDICTIONARYWDFLT
  2
AcDbDictionaryWithDefault
  3
AutoCAD 2000
 90
        0
280
     0
281
     0
  0
CLASS
  1
ACDBPLACEHOLDER
  2
AcDbPlaceHolder
  3
AutoCAD 2000
 90
        0
280
     0
281
     0
  0
CLASS
  1
LAYOUT
  2
AcDbLayout
  3
AutoCAD 2000
 90
        0
280
     0
281
     0
  0
CLASS
  1
LONG_TRANSACTION
  2
AcDbLongTransaction
  3
AutoCAD 2000
 90
        0
280
     0
281
     0
  0
CLASS
  1
LWPOLYLINE
  2
AcDbPolyline
  3
AutoCAD 2000
 90
        0
280
     0
281
     1
  0
CLASS
  1
HATCH
  2
AcDbHatch
  3
AutoCAD 2000
 90
        0
280
     0
281
     1
  0
CLASS
  1
XRECORD
  2
AcDbXrecord
  3
AutoCAD 2000
 90
        0
280
     0
281
     0
  0
CLASS
  1
DICTIONARYVAR
  2
AcDbDictionaryVar
  3
AutoCAD 2000
 90
        0
280
     0
281
     0
  0
CLASS
  1
LONG_TRANSACTION
  2
AcDbLongTransaction
  3
AutoCAD 2000
 90
        0
280
     0
281
     0
  0
CLASS
  1
LWPOLYLINE
  2
AcDbPolyline
  3
AutoCAD 2000
 90
        0
280
     0
281
     1
  0
CLASS
  1
HATCH
  2
AcDbHatch
  3
AutoCAD 2000
 90
        0
280
     0
281
     1
  0
CLASS
  1
XRECORD
  2
AcDbXrecord
  3
AutoCAD 2000
 90
        0
280
     0
281
     0
  0
CLASS
  1
LONG_TRANSACTION
  2
AcDbLongTransaction
  3
AutoCAD 2000
 90
        0
280
     0
281
     0
  0
CLASS
  1
LWPOLYLINE
  2
AcDbPolyline
  3
AutoCAD 2000
 90
        0
280
     0
281
     1
  0
CLASS
  1
HATCH
  2
AcDbHatch
  3
AutoCAD 2000
 90
        0
280
     0
281
     1
  0
CLASS
  1
XRECORD
  2
AcDbXrecord
  3
AutoCAD 2000
 90
        0
280
     0
281
     0
  0
CLASS
  1
LONG_TRANSACTION
  2
AcDbLongTransaction
  3
AutoCAD 2000
 90
        0
280
     0
281
     0
  0
CLASS
  1
LWPOLYLINE
  2
AcDbPolyline
  3
AutoCAD 2000
 90
        0
280
     0
281
     1
  0
CLASS
  1
HATCH
  2
AcDbHatch
  3
AutoCAD 2000
 90
        0
280
     0
281
     1
  0
CLASS
  1
XRECORD
  2
AcDbXrecord
  3
AutoCAD 2000
 90
        0
280
     0
281
     0
  0
CLASS
  1
LONG_TRANSACTION
  2
AcDbLongTransaction
  3
AutoCAD 2000
 90
        0
280
     0
281
     0
  0
CLASS
  1
LWPOLYLINE
  2
AcDbPolyline
  3
AutoCAD 2000
 90
        0
280
     0
281
     1
  0
CLASS
  1
HATCH
  2
AcDbHatch
  3
AutoCAD 2000
 90
        0
280
     0
281
     1
  0
CLASS
  1
XRECORD
  2
AcDbXrecord
  3
AutoCAD 2000
 90
        0
280
     0
281
     0
  0
CLASS
  1
LONG_TRANSACTION
  2
AcDbLongTransaction
  3
AutoCAD 2000
 90
        0
280
     0
281
     0
  0
CLASS
  1
LWPOLYLINE
  2
AcDbPolyline
  3
AutoCAD 2000
 90
        0
280
     0
281
     1
  0
CLASS
  1
HATCH
  2
AcDbHatch
  3
AutoCAD 2000
 90
        0
280
     0
281
     1
  0
CLASS
  1
XRECORD
  2
AcDbXrecord
  3
AutoCAD 2000
 90
        0
280
     0
281
     0
  0
CLASS
  1
LONG_TRANSACTION
  2
AcDbLongTransaction
  3
AutoCAD 2000
 90
        0
280
     0
281
     0
  0
CLASS
  1
LWPOLYLINE
  2
AcDbPolyline
  3
AutoCAD 2000
 90
        0
280
     0
281
     1
  0
CLASS
  1
HATCH
  2
AcDbHatch
  3
AutoCAD 2000
 90
        0
280
     0
281
     1
  0
CLASS
  1
XRECORD
  2
AcDbXrecord
  3
AutoCAD 2000
 90
        0
280
     0
281
     0
  0
CLASS
  1
LONG_TRANSACTION
  2
AcDbLongTransaction
  3
AutoCAD 2000
 90
        0
280
     0
281
     0
  0
CLASS
  1
LWPOLYLINE
  2
AcDbPolyline
  3
AutoCAD 2000
 90
        0
280
     0
281
     1
  0
CLASS
  1
HATCH
  2
AcDbHatch
  3
AutoCAD 2000
 90
        0
280
     0
281
     1
  0
CLASS
  1
XRECORD
  2
AcDbXrecord
  3
AutoCAD 2000
 90
        0
280
     0
281
     0
  0
CLASS
  1
LONG_TRANSACTION
  2
AcDbLongTransaction
  3
AutoCAD 2000
 90
        0
280
     0
281
     0
  0
CLASS
  1
LWPOLYLINE
  2
AcDbPolyline
  3
AutoCAD 2000
 90
        0
280
     0
281
     1
  0
CLASS
  1
HATCH
  2
AcDbHatch
  3
AutoCAD 2000
 90
        0
280
     0
281
     1
  0
CLASS
  1
XRECORD
  2
AcDbXrecord
  3
AutoCAD 2000
 90
        0
280
     0
281
     0
  0
CLASS
  1
LONG_TRANSACTION
  2
AcDbLongTransaction
  3
AutoCAD 2000
 90
        0
280
     0
281
     0
  0
CLASS
  1
LWPOLYLINE
  2
AcDbPolyline
  3
AutoCAD 2000
 90
        0
280
     0
281
     1
  0
CLASS
  1
HATCH
  2
AcDbHatch
  3
AutoCAD 2000
 90
        0
280
     0
281
     1
  0
CLASS
  1
XRECORD
  2
AcDbXrecord
  3
AutoCAD 2000
 90
        0
280
     0
281
     0
  0
CLASS
  1
LONG_TRANSACTION
  2
AcDbLongTransaction
  3
AutoCAD 2000
 90
        0
280
     0
281
     0
  0
CLASS
  1
LWPOLYLINE
  2
AcDbPolyline
  3
AutoCAD 2000
 90
        0
280
     0
281
     1
  0
CLASS
  1
HATCH
  2
AcDbHatch
  3
AutoCAD 2000
 90
        0
280
     0
281
     1
  0
CLASS
  1
XRECORD
  2
AcDbXrecord
  3
AutoCAD 2000
 90
        0
280
     0
281
     0
  0
CLASS
  1
LONG_TRANSACTION
  2
AcDbLongTransaction
  3
AutoCAD 2000
 90
        0
280
     0
281
     0
  0
CLASS
  1
LWPOLYLINE
  2
AcDbPolyline
  3
AutoCAD 2000
 90
        0
280
     0
281
     1
  0
CLASS
  1
HATCH
  2
AcDbHatch
  3
AutoCAD 2000
 90
        0
280
     0
281
     1
  0
CLASS
  1
XRECORD
  2
AcDbXrecord
  3
AutoCAD 2000
 90
        0
280
     0
281
     0
  0
CLASS
  1
LONG_TRANSACTION
  2
AcDbLongTransaction
  3
AutoCAD 2000
 90
        0
280
     0
281
     0
  0
CLASS
  1
LWPOLYLINE
  2
AcDbPolyline
  3
AutoCAD 2000
 90
        0
280
     0
281
     1
  0
CLASS
  1
HATCH
  2
AcDbHatch
  3
AutoCAD 2000
 90
        0
280
     0
281
     1
  0
CLASS
  1
XRECORD
  2
AcDbXrecord
  3
AutoCAD 2000
 90
        0
280
     0
281
     0
  0
CLASS
  1
LONG_TRANSACTION
  2
AcDbLongTransaction
  3
AutoCAD 2000
 90
        0
280
     0
281
     0
  0
CLASS
  1
LWPOLYLINE
  2
AcDbPolyline
  3
AutoCAD 2000
 90
        0
280
     0
281
     1
  0
CLASS
  1
HATCH
  2
AcDbHatch
  3
AutoCAD 2000
 90
        0
280
     0
281
     1
  0
CLASS
  1
XRECORD
  2
AcDbXrecord
  3
AutoCAD 2000
 90
        0
280
     0
281
     0
  0
ENDSEC
  0
SECTION
  2
TABLES
  0
TABLE
  2
VPORT
  5
EF7C85523
330
0
100
AcDbSymbolTable
 70
    11
  0
VPORT
  5
EF7C85567
330
EF7C85523
100
AcDbSymbolTableRecord
100
AcDbViewportTableRecord
  2
2
 70
     0
 10
0.5
 20
0.0
 11
1.0
 21
1.0
 12
0.9240312421264802
 22
1.052650975462765
 13
0.0
 23
0.0
 14
1.0
 24
1.0
 15
10.0
 25
10.0
 16
0.0
 26
0.0
 36
1.0
 17
0.0
 27
0.0
 37
0.0
 40
2.105301950925533
 41
0.8778135048231511
 42
50.0
 43
0.0
 44
0.0
 50
0.0
 51
0.0
 71
     0
 72
   500
 73
     1
 74
     1
 75
     0
 76
     0
 77
     0
 78
     0
  0
VPORT
  5
EF7C85568
330
EF7C85523
100
AcDbSymbolTableRecord
100
AcDbViewportTableRecord
  2
2
 70
     0
 10
0.0
 20
0.0
 11
0.5
 21
1.0
 12
0.9240312421264802
 22
1.052650975462765
 13
0.0
 23
0.0
 14
1.0
 24
1.0
 15
10.0
 25
10.0
 16
0.0
 26
0.0
 36
1.0
 17
0.0
 27
0.0
 37
0.0
 40
2.105301950925533
 41
0.8778135048231511
 42
50.0
 43
0.0
 44
0.0
 50
0.0
 51
0.0
 71
     0
 72
   500
 73
     1
 74
     1
 75
     0
 76
     0
 77
     0
 78
     0
  0
VPORT
  5
EF7C85569
330
EF7C85523
100
AcDbSymbolTableRecord
100
AcDbViewportTableRecord
  2
3
 70
     0
 10
0.0
 20
0.5
 11
1.0
 21
1.0
 12
2.832169994473273
 22
1.052650975462765
 13
0.0
 23
0.0
 14
1.0
 24
1.0
 15
10.0
 25
10.0
 16
0.0
 26
0.0
 36
1.0
 17
0.0
 27
0.0
 37
0.0
 40
2.105301950925533
 41
3.571428571428571
 42
50.0
 43
0.0
 44
0.0
 50
0.0
 51
0.0
 71
     0
 72
   500
 73
     1
 74
     1
 75
     0
 76
     0
 77
     0
 78
     0
  0
VPORT
  5
EF7C8556A
330
EF7C85523
100
AcDbSymbolTableRecord
100
AcDbViewportTableRecord
  2
3
 70
     0
 10
0.0
 20
0.0
 11
1.0
 21
0.5
 12
2.856741679241311
 22
1.052650975462765
 13
0.0
 23
0.0
 14
1.0
 24
1.0
 15
10.0
 25
10.0
 16
0.0
 26
0.0
 36
1.0
 17
0.0
 27
0.0
 37
0.0
 40
2.105301950925533
 41
3.594771241830064
 42
50.0
 43
0.0
 44
0.0
 50
0.0
 51
0.0
 71
     0
 72
   500
 73
     1
 74
     1
 75
     0
 76
     0
 77
     0
 78
     0
  0
VPORT
  5
EF7C8556B
330
EF7C85523
100
AcDbSymbolTableRecord
100
AcDbViewportTableRecord
  2
4
 70
     0
 10
0.5
 20
0.0
 11
1.0
 21
0.5
 12
2.886857516709718
 22
1.052650975462765
 13
0.0
 23
0.0
 14
1.0
 24
1.0
 15
10.0
 25
10.0
 16
0.0
 26
0.0
 36
1.0
 17
0.0
 27
0.0
 37
0.0
 40
4.275207030309069
 41
1.784313725490195
 42
50.0
 43
0.0
 44
0.0
 50
0.0
 51
0.0
 71
     0
 72
   500
 73
     1
 74
     1
 75
     0
 76
     0
 77
     0
 78
     0
  0
VPORT
  5
EF7C8556C
330
EF7C85523
100
AcDbSymbolTableRecord
100
AcDbViewportTableRecord
  2
4
 70
     0
 10
0.5
 20
0.5
 11
1.0
 21
1.0
 12
2.862090274555523
 22
1.052650975462765
 13
0.0
 23
0.0
 14
1.0
 24
1.0
 15
10.0
 25
10.0
 16
0.0
 26
0.0
 36
1.0
 17
0.0
 27
0.0
 37
0.0
 40
4.275207030309069
 41
1.772727272727271
 42
50.0
 43
0.0
 44
0.0
 50
0.0
 51
0.0
 71
     0
 72
   500
 73
     1
 74
     1
 75
     0
 76
     0
 77
     0
 78
     0
  0
VPORT
  5
EF7C8556D
330
EF7C85523
100
AcDbSymbolTableRecord
100
AcDbViewportTableRecord
  2
4
 70
     0
 10
0.0
 20
0.5
 11
0.5
 21
1.0
 12
2.862090274555523
 22
1.052650975462765
 13
0.0
 23
0.0
 14
1.0
 24
1.0
 15
10.0
 25
10.0
 16
0.0
 26
0.0
 36
1.0
 17
0.0
 27
0.0
 37
0.0
 40
4.275207030309069
 41
1.772727272727271
 42
50.0
 43
0.0
 44
0.0
 50
0.0
 51
0.0
 71
     0
 72
   500
 73
     1
 74
     1
 75
     0
 76
     0
 77
     0
 78
     0
  0
VPORT
  5
EF7C8556E
330
EF7C85523
100
AcDbSymbolTableRecord
100
AcDbViewportTableRecord
  2
4
 70
     0
 10
0.0
 20
0.0
 11
0.5
 21
0.5
 12
2.886857516709718
 22
1.052650975462765
 13
0.0
 23
0.0
 14
1.0
 24
1.0
 15
10.0
 25
10.0
 16
0.0
 26
0.0
 36
1.0
 17
0.0
 27
0.0
 37
0.0
 40
4.275207030309069
 41
1.784313725490195
 42
50.0
 43
0.0
 44
0.0
 50
0.0
 51
0.0
 71
     0
 72
   500
 73
     1
 74
     1
 75
     0
 76
     0
 77
     0
 78
     0
  0
VPORT
  5
EF7C87A94
330
EF7C85523
100
AcDbSymbolTableRecord
100
AcDbViewportTableRecord
  2
*ACTIVE
 70
     0
 10
0.0
 20
0.0
 11
1.0
 21
1.0
 12
181.0000001188468
 22
141.5000006589106
 13
0.0
 23
0.0
 14
1.0
 24
1.0
 15
10.0
 25
10.0
 16
0.0
 26
0.0
 36
1.0
 17
0.0
 27
0.0
 37
0.0
 40
286.5113133560196
 41
1.954639175257731
 42
50.0
 43
0.0
 44
0.0
 50
0.0
 51
0.0
 71
     0
 72
   500
 73
     1
 74
     0
 75
     0
 76
     0
 77
     0
 78
     0
  0
ENDTAB
  0
TABLE
  2
LTYPE
  5
EF7C85520
330
0
100
AcDbSymbolTable
 70
     3
  0
LTYPE
  5
EF7C8552C
330
EF7C85520
100
AcDbSymbolTableRecord
100
AcDbLinetypeTableRecord
  2
BYBLOCK
 70
     0
  3

 72
    65
 73
     0
 40
0.0
  0
LTYPE
  5
EF7C8552D
330
EF7C85520
100
AcDbSymbolTableRecord
100
AcDbLinetypeTableRecord
  2
BYLAYER
 70
     0
  3

 72
    65
 73
     0
 40
0.0
  0
LTYPE
  5
EF7C8552E
330
EF7C85520
100
AcDbSymbolTableRecord
100
AcDbLinetypeTableRecord
  2
CONTINUOUS
 70
     0
  3
実線
 72
    65
 73
     0
 40
0.0
  0
LTYPE
  5
EF7C85565
330
EF7C85520
100
AcDbSymbolTableRecord
100
AcDbLinetypeTableRecord
  2
PHANTOM
 70
     0
  3
_____ _ _ _____ _ _ _____ _ _ _____ _ _ ____
 72
    65
 73
     6
 40
2.5
 49
1.25
 74
     0
 49
-0.25
 74
     0
 49
0.25
 74
     0
 49
-0.25
 74
     0
 49
0.25
 74
     0
 49
-0.25
 74
     0
  0
LTYPE
  5
EF7C85566
330
EF7C85520
100
AcDbSymbolTableRecord
100
AcDbLinetypeTableRecord
  2
HIDDEN
 70
     0
  3
_ _ _ _ _ _ _ _ _ _ _ _ _ _ _ _ _ _ _ _ _ _ _
 72
    65
 73
     2
 40
0.375
 49
0.25
 74
     0
 49
-0.125
 74
     0
  0
ENDTAB
  0
TABLE
  2
LAYER
  5
EF7C8551D
102
{ACAD_XDICTIONARY
360
EF7C87912
102
}
330
0
100
AcDbSymbolTable
 70
     9
  0
LAYER
  5
EF7C85529
330
EF7C8551D
100
AcDbSymbolTableRecord
100
AcDbLayerTableRecord
  2
0
 70
     0
 62
     6
  6
CONTINUOUS
  0
LAYER
  5
EF7C85574
330
EF7C8551D
100
AcDbSymbolTableRecord
100
AcDbLayerTableRecord
  2
NITEN
 70
     0
 62
     2
  6
PHANTOM
  0
LAYER
  5
EF7C85575
330
EF7C8551D
100
AcDbSymbolTableRecord
100
AcDbLayerTableRecord
  2
HATCH
 70
     0
 62
     4
  6
CONTINUOUS
  0
LAYER
  5
EF7C85576
330
EF7C8551D
100
AcDbSymbolTableRecord
100
AcDbLayerTableRecord
  2
SUNPOU
 70
     0
 62
     3
  6
CONTINUOUS
  0
LAYER
  5
EF7C85577
330
EF7C8551D
100
AcDbSymbolTableRecord
100
AcDbLayerTableRecord
  2
TEXT
 70
     0
 62
     3
  6
CONTINUOUS
  0
LAYER
  5
EF7C85578
330
EF7C8551D
100
AcDbSymbolTableRecord
100
AcDbLayerTableRecord
  2
SAISEN
 70
     0
 62
     4
  6
CONTINUOUS
  0
LAYER
  5
EF7C85579
330
EF7C8551D
100
AcDbSymbolTableRecord
100
AcDbLayerTableRecord
  2
JISSEN
 70
     0
 62
     7
  6
CONTINUOUS
  0
LAYER
  5
EF7C8557B
330
EF7C8551D
100
AcDbSymbolTableRecord
100
AcDbLayerTableRecord
  2
TENSEN
 70
     0
 62
     2
  6
HIDDEN
  0
LAYER
  5
EF7C8557D
330
EF7C8551D
100
AcDbSymbolTableRecord
100
AcDbLayerTableRecord
  2
WAKU
 70
     0
 62
     5
  6
CONTINUOUS
  0
ENDTAB
  0
TABLE
  2
STYLE
  5
EF7C8551E
330
0
100
AcDbSymbolTable
 70
     4
  0
STYLE
  5
EF7C8552A
330
EF7C8551E
100
AcDbSymbolTableRecord
100
AcDbTextStyleTableRecord
  2
STANDARD
 70
     0
 40
0.0
 41
1.0
 50
0.0
 71
     0
 42
1.5
  3
SIMPLEX
  4

  0
STYLE
  5
EF7C85558
330
EF7C8551E
100
AcDbSymbolTableRecord
100
AcDbTextStyleTableRecord
  2
K
 70
     0
 40
0.0
 41
1.0
 50
0.0
 71
     0
 42
3.0
  3
ROMANS
  4
BIGFONT
  0
STYLE
  5
EF7C8555B
330
EF7C8551E
100
AcDbSymbolTableRecord
100
AcDbTextStyleTableRecord
  2
BIGFONT
 70
     0
 40
0.0
 41
1.0
 50
0.0
 71
     0
 42
3.0
  3
txt.shx
  4
bigfont
  0
STYLE
  5
EF7C877EB
330
EF7C8551E
100
AcDbSymbolTableRecord
100
AcDbTextStyleTableRecord
  2
ROMANS
 70
     0
 40
0.0
 41
0.8
 50
0.0
 71
     0
 42
6.0
  3
romans
  4

  0
ENDTAB
  0
TABLE
  2
VIEW
  5
EF7C85521
330
0
100
AcDbSymbolTable
 70
     0
  0
ENDTAB
  0
TABLE
  2
UCS
  5
EF7C85522
330
0
100
AcDbSymbolTable
 70
     0
  0
ENDTAB
  0
TABLE
  2
APPID
  5
EF7C85524
330
0
100
AcDbSymbolTable
 70
     1
  0
APPID
  5
EF7C8552B
330
EF7C85524
100
AcDbSymbolTableRecord
100
AcDbRegAppTableRecord
  2
ACAD
 70
     0
  0
ENDTAB
  0
TABLE
  2
DIMSTYLE
  5
EF7C85525
330
0
100
AcDbSymbolTable
 70
     1
  0
DIMSTYLE
105
EF7C85571
330
EF7C85525
100
AcDbSymbolTableRecord
100
AcDbDimStyleTableRecord
  2
IMAO
 70
     0
  3

  4

  5
ARROWANG
  6
ARROWANG
  7
ARROWANG
 40
1.0
 41
1.5
 42
1.0
 43
6.0
 44
1.0
 45
0.0
 46
0.0
 47
495.0
 48
0.0
140
3.0
141
0.0
142
0.0
143
25.4
144
1.0
145
0.0
146
1.0
147
0.09
 71
     0
 72
     0
 73
     0
 74
     0
 75
     0
 76
     0
 77
     1
 78
     8
170
     0
171
     2
172
     1
173
     0
174
     1
175
     0
176
     0
177
     0
178
     0
270
     2
271
     2
272
     2
273
     2
274
     2
340
EF7C8555B
275
     0
280
     0
281
     0
282
     0
283
     1
284
     8
285
     8
286
     8
287
     3
288
     0
  0
ENDTAB
  0
TABLE
  2
BLOCK_RECORD
  5
EF7C8551C
330
0
100
AcDbSymbolTable
 70
    14
  0
BLOCK_RECORD
  5
EF7C85532
102
{ACAD_XDICTIONARY
360
EF7C85D9A
102
}
330
EF7C8551C
100
AcDbSymbolTableRecord
100
AcDbBlockTableRecord
  2
*MODEL_SPACE
  0
BLOCK_RECORD
  5
EF7C8552F
102
{ACAD_XDICTIONARY
360
EF7C85D98
102
}
330
EF7C8551C
100
AcDbSymbolTableRecord
100
AcDbBlockTableRecord
  2
*PAPER_SPACE
  0
BLOCK_RECORD
  5
EF7C85537
330
EF7C8551C
100
AcDbSymbolTableRecord
100
AcDbBlockTableRecord
  2
ARROW
  0
BLOCK_RECORD
  5
EF7C8553B
330
EF7C8551C
100
AcDbSymbolTableRecord
100
AcDbBlockTableRecord
  2
WAKU
  0
BLOCK_RECORD
  5
EF7C8553D
330
EF7C8551C
100
AcDbSymbolTableRecord
100
AcDbBlockTableRecord
  2
*X2
  0
BLOCK_RECORD
  5
EF7C8553E
330
EF7C8551C
100
AcDbSymbolTableRecord
100
AcDbBlockTableRecord
  2
STDGX5
  0
BLOCK_RECORD
  5
EF7C8553F
330
EF7C8551C
100
AcDbSymbolTableRecord
100
AcDbBlockTableRecord
  2
*X4
  0
BLOCK_RECORD
  5
EF7C85540
330
EF7C8551C
100
AcDbSymbolTableRecord
100
AcDbBlockTableRecord
  2
*X5
  0
BLOCK_RECORD
  5
EF7C85541
330
EF7C8551C
100
AcDbSymbolTableRecord
100
AcDbBlockTableRecord
  2
*X6
  0
BLOCK_RECORD
  5
EF7C85542
330
EF7C8551C
100
AcDbSymbolTableRecord
100
AcDbBlockTableRecord
  2
*X7
  0
BLOCK_RECORD
  5
EF7C85543
330
EF7C8551C
100
AcDbSymbolTableRecord
100
AcDbBlockTableRecord
  2
ARROWANG
  0
BLOCK_RECORD
  5
EF7C85544
330
EF7C8551C
100
AcDbSymbolTableRecord
100
AcDbBlockTableRecord
  2
STDR12J
  0
BLOCK_RECORD
  5
EF7C85557
330
EF7C8551C
100
AcDbSymbolTableRecord
100
AcDbBlockTableRecord
  2
*X10
  0
BLOCK_RECORD
  5
EF7C86AEF
330
EF7C8551C
100
AcDbSymbolTableRecord
100
AcDbBlockTableRecord
  2
*X11
  0
ENDTAB
  0
ENDSEC
  0
SECTION
  2
BLOCKS
  0
BLOCK
  5
EF7C85580
330
EF7C85532
100
AcDbEntity
  8
0
100
AcDbBlockBegin
  2
*MODEL_SPACE
 70
     0
 10
0.0
 20
0.0
 30
0.0
  3
*MODEL_SPACE
  1

  0
ENDBLK
  5
EF7C85581
330
EF7C85532
100
AcDbEntity
  8
0
100
AcDbBlockEnd
  0
BLOCK
  5
EF7C8557E
330
EF7C8552F
100
AcDbEntity
 67
     1
  8
0
100
AcDbBlockBegin
  2
*PAPER_SPACE
 70
     0
 10
0.0
 20
0.0
 30
0.0
  3
*PAPER_SPACE
  1

  0
ENDBLK
  5
EF7C8557F
330
EF7C8552F
100
AcDbEntity
 67
     1
  8
0
100
AcDbBlockEnd
  0
BLOCK
  5
499
330
EF7C85537
100
AcDbEntity
  8
0
100
AcDbBlockBegin
  2
ARROW
 70
     0
 10
1.0
 20
0.5
 30
0.0
  3
ARROW
  1

  0
LINE
  5
49A
330
EF7C85537
100
AcDbEntity
  8
0
100
AcDbLine
 10
1.0
 20
0.5
 30
0.0
 11
-0.5000000000000214
 21
0.0980762113533018
 31
0.0
  0
LINE
  5
49B
330
EF7C85537
100
AcDbEntity
  8
0
100
AcDbLine
 10
0.0
 20
0.5
 30
0.0
 11
1.0
 21
0.5
 31
0.0
  0
LINE
  5
49C
330
EF7C85537
100
AcDbEntity
  8
0
100
AcDbLine
 10
1.0
 20
0.5
 30
0.0
 11
-0.4999999999999575
 21
0.9019237886467408
 31
0.0
  0
ENDBLK
  5
49D
330
EF7C85537
100
AcDbEntity
  8
0
100
AcDbBlockEnd
  0
BLOCK
  5
4A7
330
EF7C8553B
100
AcDbEntity
  8
0
100
AcDbBlockBegin
  2
WAKU
 70
     0
 10
0.0
 20
0.0
 30
0.0
  3
WAKU
  1

  0
LINE
  5
4A8
330
EF7C8553B
100
AcDbEntity
  8
WAKU
100
AcDbLine
 10
0.9999999959999998
 20
0.0
 30
0.0
 11
0.9999999959999998
 21
0.9999999999999998
 31
0.0
  0
LINE
  5
4A9
330
EF7C8553B
100
AcDbEntity
  8
WAKU
100
AcDbLine
 10
0.0
 20
0.9999999999999998
 30
0.0
 11
0.9999999959999998
 21
0.9999999999999998
 31
0.0
  0
LINE
  5
4AA
330
EF7C8553B
100
AcDbEntity
  8
WAKU
100
AcDbLine
 10
0.9999999959999998
 20
0.0
 30
0.0
 11
0.0
 21
0.0
 31
0.0
  0
LINE
  5
4AB
330
EF7C8553B
100
AcDbEntity
  8
WAKU
100
AcDbLine
 10
0.0
 20
0.0
 30
0.0
 11
0.0
 21
0.9999999999999998
 31
0.0
  0
ENDBLK
  5
4AC
330
EF7C8553B
100
AcDbEntity
  8
0
100
AcDbBlockEnd
  0
BLOCK
  5
2764
330
EF7C8553D
100
AcDbEntity
  8
0
100
AcDbBlockBegin
  2
*X2
 70
     1
 10
0.0
 20
0.0
 30
0.0
  3
*X2
  1

  0
ENDBLK
  5
2765
330
EF7C8553D
100
AcDbEntity
  8
0
100
AcDbBlockEnd
  0
BLOCK
  5
2766
330
EF7C8553E
100
AcDbEntity
  8
0
100
AcDbBlockBegin
  2
STDGX5
 70
     0
 10
0.0
 20
0.0
 30
0.0
  3
STDGX5
  1

  0
ENDBLK
  5
2767
330
EF7C8553E
100
AcDbEntity
  8
0
100
AcDbBlockEnd
  0
BLOCK
  5
2F5A
330
EF7C8553F
100
AcDbEntity
  8
0
100
AcDbBlockBegin
  2
*X4
 70
     1
 10
0.0
 20
0.0
 30
0.0
  3
*X4
  1

  0
ENDBLK
  5
2F5B
330
EF7C8553F
100
AcDbEntity
  8
0
100
AcDbBlockEnd
  0
BLOCK
  5
32BB
330
EF7C85540
100
AcDbEntity
  8
0
100
AcDbBlockBegin
  2
*X5
 70
     1
 10
0.0
 20
0.0
 30
0.0
  3
*X5
  1

  0
ENDBLK
  5
32BC
330
EF7C85540
100
AcDbEntity
  8
0
100
AcDbBlockEnd
  0
BLOCK
  5
372F
330
EF7C85541
100
AcDbEntity
  8
0
100
AcDbBlockBegin
  2
*X6
 70
     1
 10
0.0
 20
0.0
 30
0.0
  3
*X6
  1

  0
ENDBLK
  5
3730
330
EF7C85541
100
AcDbEntity
  8
0
100
AcDbBlockEnd
  0
BLOCK
  5
3A6D
330
EF7C85542
100
AcDbEntity
  8
0
100
AcDbBlockBegin
  2
*X7
 70
     1
 10
0.0
 20
0.0
 30
0.0
  3
*X7
  1

  0
ENDBLK
  5
3A6E
330
EF7C85542
100
AcDbEntity
  8
0
100
AcDbBlockEnd
  0
BLOCK
  5
4CC9
330
EF7C85543
100
AcDbEntity
  8
0
100
AcDbBlockBegin
  2
ARROWANG
 70
     0
 10
0.0
 20
0.0
 30
0.0
  3
ARROWANG
  1

  0
LINE
  5
4CCA
330
EF7C85543
100
AcDbEntity
  8
SUNPOU
100
AcDbLine
 10
0.0
 20
0.0
 30
0.0
 11
-1.499999999999956
 21
0.401923788646741
 31
0.0
  0
LINE
  5
4CCB
330
EF7C85543
100
AcDbEntity
  8
SUNPOU
100
AcDbLine
 10
0.0
 20
0.0
 30
0.0
 11
-1.500000000000027
 21
-0.4019237886467124
 31
0.0
  0
ENDBLK
  5
4CCC
330
EF7C85543
100
AcDbEntity
  8
0
100
AcDbBlockEnd
  0
BLOCK
  5
4CCD
330
EF7C85544
100
AcDbEntity
  8
0
100
AcDbBlockBegin
  2
STDR12J
 70
     0
 10
0.0
 20
0.0
 30
0.0
  3
STDR12J
  1

  0
ENDBLK
  5
4CF2
330
EF7C85544
100
AcDbEntity
  8
0
100
AcDbBlockEnd
  0
BLOCK
  5
EF7C854FB
330
EF7C85557
100
AcDbEntity
  8
0
100
AcDbBlockBegin
  2
*X10
 70
     1
 10
0.0
 20
0.0
 30
0.0
  3
*X10
  1

  0
LINE
  5
EF7C854FD
330
EF7C85557
100
AcDbEntity
  8
0
 62
     0
100
AcDbLine
 10
42.91207191918546
 20
139.0785941605559
 30
0.0
 11
47.91207191918546
 21
144.0785941605559
 31
0.0
  0
LINE
  5
EF7C854FE
330
EF7C85557
100
AcDbEntity
  8
0
 62
     0
100
AcDbLine
 10
40.08364479443928
 20
139.0785941605559
 30
0.0
 11
45.08364479443929
 21
144.0785941605559
 31
0.0
  0
LINE
  5
EF7C854FF
330
EF7C85557
100
AcDbEntity
  8
0
 62
     0
100
AcDbLine
 10
37.25521766969309
 20
139.0785941605559
 30
0.0
 11
42.25521766969309
 21
144.0785941605559
 31
0.0
  0
LINE
  5
EF7C85500
330
EF7C85557
100
AcDbEntity
  8
0
 62
     0
100
AcDbLine
 10
34.42679054494689
 20
139.0785941605559
 30
0.0
 11
39.42679054494689
 21
144.0785941605559
 31
0.0
  0
LINE
  5
EF7C85501
330
EF7C85557
100
AcDbEntity
  8
0
 62
     0
100
AcDbLine
 10
31.59836342020071
 20
139.0785941605559
 30
0.0
 11
36.59836342020072
 21
144.0785941605559
 31
0.0
  0
LINE
  5
EF7C85502
330
EF7C85557
100
AcDbEntity
  8
0
 62
     0
100
AcDbLine
 10
28.76993629545451
 20
139.0785941605559
 30
0.0
 11
33.76993629545452
 21
144.0785941605559
 31
0.0
  0
LINE
  5
EF7C85503
330
EF7C85557
100
AcDbEntity
  8
0
 62
     0
100
AcDbLine
 10
25.94150917070832
 20
139.0785941605559
 30
0.0
 11
30.94150917070832
 21
144.0785941605559
 31
0.0
  0
LINE
  5
EF7C85504
330
EF7C85557
100
AcDbEntity
  8
0
 62
     0
100
AcDbLine
 10
24.20506654826371
 20
140.1705786628574
 30
0.0
 11
28.11308204596214
 21
144.0785941605559
 31
0.0
  0
LINE
  5
EF7C85505
330
EF7C85557
100
AcDbEntity
  8
0
 62
     0
100
AcDbLine
 10
22.72841915269601
 20
141.522358392036
 30
0.0
 11
25.28465492121595
 21
144.0785941605559
 31
0.0
  0
LINE
  5
EF7C85506
330
EF7C85557
100
AcDbEntity
  8
0
 62
     0
100
AcDbLine
 10
21.47523861350567
 20
143.0976049775918
 30
0.0
 11
22.45622779646976
 21
144.0785941605559
 31
0.0
  0
LINE
  5
EF7C85507
330
EF7C85557
100
AcDbEntity
  8
0
 62
     0
100
AcDbLine
 10
45.74049904393166
 20
139.0785941605559
 30
0.0
 11
50.74049904393167
 21
144.0785941605559
 31
0.0
  0
LINE
  5
EF7C85508
330
EF7C85557
100
AcDbEntity
  8
0
 62
     0
100
AcDbLine
 10
48.56892616867785
 20
139.0785941605559
 30
0.0
 11
53.56892616867786
 21
144.0785941605559
 31
0.0
  0
LINE
  5
EF7C85509
330
EF7C85557
100
AcDbEntity
  8
0
 62
     0
100
AcDbLine
 10
51.39735329342403
 20
139.0785941605559
 30
0.0
 11
56.39735329342404
 21
144.0785941605559
 31
0.0
  0
LINE
  5
EF7C8550A
330
EF7C85557
100
AcDbEntity
  8
0
 62
     0
100
AcDbLine
 10
54.22578041817022
 20
139.0785941605559
 30
0.0
 11
59.22578041817022
 21
144.0785941605559
 31
0.0
  0
LINE
  5
EF7C8550B
330
EF7C85557
100
AcDbEntity
  8
0
 62
     0
100
AcDbLine
 10
57.0542075429164
 20
139.0785941605559
 30
0.0
 11
62.05420754291642
 21
144.0785941605559
 31
0.0
  0
LINE
  5
EF7C8550C
330
EF7C85557
100
AcDbEntity
  8
0
 62
     0
100
AcDbLine
 10
59.8826346676626
 20
139.0785941605559
 30
0.0
 11
64.88263466766261
 21
144.0785941605559
 31
0.0
  0
LINE
  5
EF7C8550D
330
EF7C85557
100
AcDbEntity
  8
0
 62
     0
100
AcDbLine
 10
62.71106179240879
 20
139.0785941605559
 30
0.0
 11
65.0
 21
141.367532368147
 31
0.0
  0
ENDBLK
  5
EF7C8550E
330
EF7C85557
100
AcDbEntity
  8
0
100
AcDbBlockEnd
  0
BLOCK
  5
EF7C86B01
330
EF7C86AEF
100
AcDbEntity
  8
0
100
AcDbBlockBegin
  2
*X11
 70
     1
 10
0.0
 20
0.0
 30
0.0
  3
*X11
  1

  0
LINE
  5
EF7C86AF0
330
EF7C86AEF
100
AcDbEntity
  8
0
 62
     0
100
AcDbLine
 10
42.91207191918546
 20
139.0785941605559
 30
0.0
 11
47.91207191918546
 21
144.0785941605559
 31
0.0
  0
LINE
  5
EF7C86AF1
330
EF7C86AEF
100
AcDbEntity
  8
0
 62
     0
100
AcDbLine
 10
40.08364479443928
 20
139.0785941605559
 30
0.0
 11
45.08364479443929
 21
144.0785941605559
 31
0.0
  0
LINE
  5
EF7C86AF2
330
EF7C86AEF
100
AcDbEntity
  8
0
 62
     0
100
AcDbLine
 10
37.25521766969309
 20
139.0785941605559
 30
0.0
 11
42.25521766969309
 21
144.0785941605559
 31
0.0
  0
LINE
  5
EF7C86AF3
330
EF7C86AEF
100
AcDbEntity
  8
0
 62
     0
100
AcDbLine
 10
34.42679054494689
 20
139.0785941605559
 30
0.0
 11
39.42679054494689
 21
144.0785941605559
 31
0.0
  0
LINE
  5
EF7C86AF4
330
EF7C86AEF
100
AcDbEntity
  8
0
 62
     0
100
AcDbLine
 10
31.59836342020071
 20
139.0785941605559
 30
0.0
 11
36.59836342020072
 21
144.0785941605559
 31
0.0
  0
LINE
  5
EF7C86AF5
330
EF7C86AEF
100
AcDbEntity
  8
0
 62
     0
100
AcDbLine
 10
28.76993629545451
 20
139.0785941605559
 30
0.0
 11
33.76993629545452
 21
144.0785941605559
 31
0.0
  0
LINE
  5
EF7C86AF6
330
EF7C86AEF
100
AcDbEntity
  8
0
 62
     0
100
AcDbLine
 10
25.94150917070832
 20
139.0785941605559
 30
0.0
 11
30.94150917070832
 21
144.0785941605559
 31
0.0
  0
LINE
  5
EF7C86AF7
330
EF7C86AEF
100
AcDbEntity
  8
0
 62
     0
100
AcDbLine
 10
24.20506654826371
 20
140.1705786628574
 30
0.0
 11
28.11308204596214
 21
144.0785941605559
 31
0.0
  0
LINE
  5
EF7C86AF8
330
EF7C86AEF
100
AcDbEntity
  8
0
 62
     0
100
AcDbLine
 10
22.72841915269601
 20
141.522358392036
 30
0.0
 11
25.28465492121595
 21
144.0785941605559
 31
0.0
  0
LINE
  5
EF7C86AF9
330
EF7C86AEF
100
AcDbEntity
  8
0
 62
     0
100
AcDbLine
 10
21.47523861350567
 20
143.0976049775918
 30
0.0
 11
22.45622779646976
 21
144.0785941605559
 31
0.0
  0
LINE
  5
EF7C86AFA
330
EF7C86AEF
100
AcDbEntity
  8
0
 62
     0
100
AcDbLine
 10
45.74049904393166
 20
139.0785941605559
 30
0.0
 11
50.74049904393167
 21
144.0785941605559
 31
0.0
  0
LINE
  5
EF7C86AFB
330
EF7C86AEF
100
AcDbEntity
  8
0
 62
     0
100
AcDbLine
 10
48.56892616867785
 20
139.0785941605559
 30
0.0
 11
53.56892616867786
 21
144.0785941605559
 31
0.0
  0
LINE
  5
EF7C86AFC
330
EF7C86AEF
100
AcDbEntity
  8
0
 62
     0
100
AcDbLine
 10
51.39735329342403
 20
139.0785941605559
 30
0.0
 11
56.39735329342404
 21
144.0785941605559
 31
0.0
  0
LINE
  5
EF7C86AFD
330
EF7C86AEF
100
AcDbEntity
  8
0
 62
     0
100
AcDbLine
 10
54.22578041817022
 20
139.0785941605559
 30
0.0
 11
59.22578041817022
 21
144.0785941605559
 31
0.0
  0
LINE
  5
EF7C86AFE
330
EF7C86AEF
100
AcDbEntity
  8
0
 62
     0
100
AcDbLine
 10
57.0542075429164
 20
139.0785941605559
 30
0.0
 11
62.05420754291642
 21
144.0785941605559
 31
0.0
  0
LINE
  5
EF7C86AFF
330
EF7C86AEF
100
AcDbEntity
  8
0
 62
     0
100
AcDbLine
 10
59.8826346676626
 20
139.0785941605559
 30
0.0
 11
64.88263466766261
 21
144.0785941605559
 31
0.0
  0
LINE
  5
EF7C86B00
330
EF7C86AEF
100
AcDbEntity
  8
0
 62
     0
100
AcDbLine
 10
62.71106179240879
 20
139.0785941605559
 30
0.0
 11
65.0
 21
141.367532368147
 31
0.0
  0
ENDBLK
  5
EF7C86B02
330
EF7C86AEF
100
AcDbEntity
  8
0
100
AcDbBlockEnd
  0
ENDSEC
  0
SECTION
  2
ENTITIES
  0
TEXT
  5
1
330
EF7C85532
100
AcDbEntity
  8
SUNPOU
100
AcDbText
 10
95.05869565217388
 20
43.7966872748706
 30
0.0
 40
1.5
  1
                          
100
AcDbText
  0
TEXT
  5
2
330
EF7C85532
100
AcDbEntity
  8
SUNPOU
100
AcDbText
 10
332.2793466870868
 20
21.8983436374353
 30
0.0
 40
0.75
  1
                          
100
AcDbText
  0
TEXT
  5
1A
330
EF7C85532
100
AcDbEntity
  8
SUNPOU
100
AcDbText
 10
289.9834441000535
 20
43.7966872748706
 30
0.0
 40
1.5
  1
                          
100
AcDbText
  0
TEXT
  5
1B
330
EF7C85532
100
AcDbEntity
  8
SUNPOU
100
AcDbText
 10
527.2040951349664
 20
21.8983436374353
 30
0.0
 40
0.75
  1
                          
100
AcDbText
  0
TEXT
  5
1C
330
EF7C85532
100
AcDbEntity
  8
SUNPOU
100
AcDbText
 10
490.6272568090836
 20
43.79668727487056
 30
0.0
 40
1.5
  1
                          
100
AcDbText
  0
TEXT
  5
1D
330
EF7C85532
100
AcDbEntity
  8
SUNPOU
100
AcDbText
 10
727.8479078439966
 20
21.89834363743526
 30
0.0
 40
0.75
  1
                          
100
AcDbText
  0
INSERT
  5
1E
330
EF7C85532
100
AcDbEntity
  8
HATCH
100
AcDbBlockReference
  2
*X2
 10
194.9247484478796
 20
0.0
 30
0.0
  0
TEXT
  5
1F
330
EF7C85532
100
AcDbEntity
  8
SUNPOU
100
AcDbText
 10
493.0101992368963
 20
43.7966872748706
 30
0.0
 40
1.5
  1
                          
100
AcDbText
  0
TEXT
  5
20
330
EF7C85532
100
AcDbEntity
  8
SUNPOU
100
AcDbText
 10
730.2308502718093
 20
21.8983436374353
 30
0.0
 40
0.75
  1
                          
100
AcDbText
  0
TEXT
  5
21
330
EF7C85532
100
AcDbEntity
  8
SUNPOU
100
AcDbText
 10
482.0486607753578
 20
43.7966872748706
 30
0.0
 40
1.5
  1
                          
100
AcDbText
  0
TEXT
  5
22
330
EF7C85532
100
AcDbEntity
  8
SUNPOU
100
AcDbText
 10
719.269311810271
 20
21.8983436374353
 30
0.0
 40
0.75
  1
                          
100
AcDbText
  0
INSERT
  5
25
330
EF7C85532
100
AcDbEntity
  8
JISSEN
100
AcDbBlockReference
  2
STDGX5
 10
0.0
 20
0.0
 30
0.0
  0
TEXT
  5
60
330
EF7C85532
100
AcDbEntity
  8
SUNPOU
100
AcDbText
 10
274.0586949361738
 20
43.7966872748706
 30
0.0
 40
1.5
  1
                          
100
AcDbText
  0
TEXT
  5
61
330
EF7C85532
100
AcDbEntity
  8
SUNPOU
100
AcDbText
 10
511.2793459710869
 20
21.8983436374353
 30
0.0
 40
0.75
  1
                          
100
AcDbText
  0
TEXT
  5
62
330
EF7C85532
100
AcDbEntity
  8
SUNPOU
100
AcDbText
 10
474.702507645204
 20
43.79668727487056
 30
0.0
 40
1.5
  1
                          
100
AcDbText
  0
TEXT
  5
63
330
EF7C85532
100
AcDbEntity
  8
SUNPOU
100
AcDbText
 10
711.923158680117
 20
21.89834363743526
 30
0.0
 40
0.75
  1
                          
100
AcDbText
  0
INSERT
  5
64
330
EF7C85532
100
AcDbEntity
  8
HATCH
100
AcDbBlockReference
  2
*X4
 10
178.999999284
 20
0.0
 30
0.0
  0
TEXT
  5
65
330
EF7C85532
100
AcDbEntity
  8
SUNPOU
100
AcDbText
 10
477.0854500730166
 20
43.7966872748706
 30
0.0
 40
1.5
  1
                          
100
AcDbText
  0
TEXT
  5
66
330
EF7C85532
100
AcDbEntity
  8
SUNPOU
100
AcDbText
 10
714.3061011079296
 20
21.8983436374353
 30
0.0
 40
0.75
  1
                          
100
AcDbText
  0
TEXT
  5
67
330
EF7C85532
100
AcDbEntity
  8
SUNPOU
100
AcDbText
 10
466.1239116114783
 20
43.7966872748706
 30
0.0
 40
1.5
  1
                          
100
AcDbText
  0
TEXT
  5
68
330
EF7C85532
100
AcDbEntity
  8
SUNPOU
100
AcDbText
 10
703.3445626463913
 20
21.8983436374353
 30
0.0
 40
0.75
  1
                          
100
AcDbText
  0
INSERT
  5
69
330
EF7C85532
100
AcDbEntity
  8
TEXT
100
AcDbBlockReference
  2
STDGX5
 10
178.999999284
 20
0.0
 30
0.0
  0
TEXT
  5
6A
330
EF7C85532
100
AcDbEntity
  8
SUNPOU
100
AcDbText
 10
453.0586949361739
 20
43.7966872748706
 30
0.0
 40
1.5
  1
                          
100
AcDbText
  0
TEXT
  5
6B
330
EF7C85532
100
AcDbEntity
  8
SUNPOU
100
AcDbText
 10
690.2793459710871
 20
21.8983436374353
 30
0.0
 40
0.75
  1
                          
100
AcDbText
  0
TEXT
  5
6C
330
EF7C85532
100
AcDbEntity
  8
SUNPOU
100
AcDbText
 10
647.9834433840535
 20
43.7966872748706
 30
0.0
 40
1.5
  1
                          
100
AcDbText
  0
TEXT
  5
6D
330
EF7C85532
100
AcDbEntity
  8
SUNPOU
100
AcDbText
 10
885.2040944189665
 20
21.8983436374353
 30
0.0
 40
0.75
  1
                          
100
AcDbText
  0
TEXT
  5
6E
330
EF7C85532
100
AcDbEntity
  8
SUNPOU
100
AcDbText
 10
848.6272560930835
 20
43.79668727487056
 30
0.0
 40
1.5
  1
                          
100
AcDbText
  0
TEXT
  5
6F
330
EF7C85532
100
AcDbEntity
  8
SUNPOU
100
AcDbText
 10
1085.847907127996
 20
21.89834363743526
 30
0.0
 40
0.75
  1
                          
100
AcDbText
  0
INSERT
  5
70
330
EF7C85532
100
AcDbEntity
  8
HATCH
100
AcDbBlockReference
  2
*X5
 10
552.9247477318796
 20
0.0
 30
0.0
  0
TEXT
  5
71
330
EF7C85532
100
AcDbEntity
  8
SUNPOU
100
AcDbText
 10
851.0101985208963
 20
43.7966872748706
 30
0.0
 40
1.5
  1
                          
100
AcDbText
  0
TEXT
  5
72
330
EF7C85532
100
AcDbEntity
  8
SUNPOU
100
AcDbText
 10
1088.230849555809
 20
21.8983436374353
 30
0.0
 40
0.75
  1
                          
100
AcDbText
  0
TEXT
  5
73
330
EF7C85532
100
AcDbEntity
  8
SUNPOU
100
AcDbText
 10
840.048660059358
 20
43.7966872748706
 30
0.0
 40
1.5
  1
                          
100
AcDbText
  0
TEXT
  5
74
330
EF7C85532
100
AcDbEntity
  8
SUNPOU
100
AcDbText
 10
1077.269311094271
 20
21.8983436374353
 30
0.0
 40
0.75
  1
                          
100
AcDbText
  0
INSERT
  5
75
330
EF7C85532
100
AcDbEntity
  8
JISSEN
100
AcDbBlockReference
  2
STDGX5
 10
357.999999284
 20
0.0
 30
0.0
  0
TEXT
  5
76
330
EF7C85532
100
AcDbEntity
  8
SUNPOU
100
AcDbText
 10
453.0586949361739
 20
43.7966872748706
 30
0.0
 40
1.5
  1
                          
100
AcDbText
  0
TEXT
  5
77
330
EF7C85532
100
AcDbEntity
  8
SUNPOU
100
AcDbText
 10
690.2793459710871
 20
21.8983436374353
 30
0.0
 40
0.75
  1
                          
100
AcDbText
  0
TEXT
  5
78
330
EF7C85532
100
AcDbEntity
  8
SUNPOU
100
AcDbText
 10
647.9834433840535
 20
43.7966872748706
 30
0.0
 40
1.5
  1
                          
100
AcDbText
  0
TEXT
  5
79
330
EF7C85532
100
AcDbEntity
  8
SUNPOU
100
AcDbText
 10
885.2040944189665
 20
21.8983436374353
 30
0.0
 40
0.75
  1
                          
100
AcDbText
  0
TEXT
  5
7A
330
EF7C85532
100
AcDbEntity
  8
SUNPOU
100
AcDbText
 10
848.6272560930835
 20
43.79668727487056
 30
0.0
 40
1.5
  1
                          
100
AcDbText
  0
TEXT
  5
7B
330
EF7C85532
100
AcDbEntity
  8
SUNPOU
100
AcDbText
 10
1085.847907127996
 20
21.89834363743526
 30
0.0
 40
0.75
  1
                          
100
AcDbText
  0
INSERT
  5
7C
330
EF7C85532
100
AcDbEntity
  8
HATCH
100
AcDbBlockReference
  2
*X6
 10
552.9247477318796
 20
0.0
 30
0.0
  0
TEXT
  5
7D
330
EF7C85532
100
AcDbEntity
  8
SUNPOU
100
AcDbText
 10
851.0101985208963
 20
43.7966872748706
 30
0.0
 40
1.5
  1
                          
100
AcDbText
  0
TEXT
  5
7E
330
EF7C85532
100
AcDbEntity
  8
SUNPOU
100
AcDbText
 10
1088.230849555809
 20
21.8983436374353
 30
0.0
 40
0.75
  1
                          
100
AcDbText
  0
TEXT
  5
7F
330
EF7C85532
100
AcDbEntity
  8
SUNPOU
100
AcDbText
 10
840.048660059358
 20
43.7966872748706
 30
0.0
 40
1.5
  1
                          
100
AcDbText
  0
TEXT
  5
80
330
EF7C85532
100
AcDbEntity
  8
SUNPOU
100
AcDbText
 10
1077.269311094271
 20
21.8983436374353
 30
0.0
 40
0.75
  1
                          
100
AcDbText
  0
INSERT
  5
81
330
EF7C85532
100
AcDbEntity
  8
JISSEN
100
AcDbBlockReference
  2
STDGX5
 10
357.999999284
 20
0.0
 30
0.0
  0
TEXT
  5
82
330
EF7C85532
100
AcDbEntity
  8
SUNPOU
100
AcDbText
 10
632.0586942201738
 20
43.7966872748706
 30
0.0
 40
1.5
  1
                          
100
AcDbText
  0
TEXT
  5
83
330
EF7C85532
100
AcDbEntity
  8
SUNPOU
100
AcDbText
 10
869.2793452550871
 20
21.8983436374353
 30
0.0
 40
0.75
  1
                          
100
AcDbText
  0
TEXT
  5
84
330
EF7C85532
100
AcDbEntity
  8
SUNPOU
100
AcDbText
 10
826.9834426680533
 20
43.7966872748706
 30
0.0
 40
1.5
  1
                          
100
AcDbText
  0
TEXT
  5
85
330
EF7C85532
100
AcDbEntity
  8
SUNPOU
100
AcDbText
 10
1064.204093702966
 20
21.8983436374353
 30
0.0
 40
0.75
  1
                          
100
AcDbText
  0
TEXT
  5
86
330
EF7C85532
100
AcDbEntity
  8
SUNPOU
100
AcDbText
 10
1027.627255377083
 20
43.79668727487056
 30
0.0
 40
1.5
  1
                          
100
AcDbText
  0
TEXT
  5
87
330
EF7C85532
100
AcDbEntity
  8
SUNPOU
100
AcDbText
 10
1264.847906411996
 20
21.89834363743526
 30
0.0
 40
0.75
  1
                          
100
AcDbText
  0
INSERT
  5
88
330
EF7C85532
100
AcDbEntity
  8
HATCH
100
AcDbBlockReference
  2
*X7
 10
731.9247470158797
 20
0.0
 30
0.0
  0
TEXT
  5
89
330
EF7C85532
100
AcDbEntity
  8
SUNPOU
100
AcDbText
 10
1030.010197804895
 20
43.7966872748706
 30
0.0
 40
1.5
  1
                          
100
AcDbText
  0
TEXT
  5
8A
330
EF7C85532
100
AcDbEntity
  8
SUNPOU
100
AcDbText
 10
1267.230848839808
 20
21.8983436374353
 30
0.0
 40
0.75
  1
                          
100
AcDbText
  0
TEXT
  5
8B
330
EF7C85532
100
AcDbEntity
  8
SUNPOU
100
AcDbText
 10
1019.048659343358
 20
43.7966872748706
 30
0.0
 40
1.5
  1
                          
100
AcDbText
  0
TEXT
  5
8C
330
EF7C85532
100
AcDbEntity
  8
SUNPOU
100
AcDbText
 10
1256.269310378271
 20
21.8983436374353
 30
0.0
 40
0.75
  1
                          
100
AcDbText
  0
INSERT
  5
8D
330
EF7C85532
100
AcDbEntity
  8
JISSEN
100
AcDbBlockReference
  2
STDGX5
 10
536.999998568
 20
0.0
 30
0.0
  0
INSERT
  5
8E
330
EF7C85532
100
AcDbEntity
  8
SUNPOU
100
AcDbBlockReference
  2
STDGX5
 10
739.0804232644236
 20
50.83533235670902
 30
0.0
 41
0.5
 42
0.5
 43
0.5
  0
INSERT
  5
8F
330
EF7C85532
100
AcDbEntity
  8
SUNPOU
100
AcDbBlockReference
  2
STDGX5
 10
726.2208210623692
 20
105.0763138619288
 30
0.0
 41
0.5
 42
0.5
 43
0.5
  0
INSERT
  5
90
330
EF7C85532
100
AcDbEntity
  8
HATCH
100
AcDbBlockReference
  2
STDGX5
 10
852.3985550581901
 20
151.7065097967401
 30
0.0
 41
0.5
 42
0.5
 43
0.5
  0
INSERT
  5
91
330
EF7C85532
100
AcDbEntity
  8
HATCH
100
AcDbBlockReference
  2
STDGX5
 10
866.6806796277283
 20
102.7017487639612
 30
0.0
 41
0.5
 42
0.5
 43
0.5
  0
INSERT
  5
92
330
EF7C85532
100
AcDbEntity
  8
TEXT
100
AcDbBlockReference
  2
STDGX5
 10
970.3434408521969
 20
102.8213468229236
 30
0.0
 41
0.5
 42
0.5
 43
0.5
  0
INSERT
  5
93
330
EF7C85532
100
AcDbEntity
  8
SUNPOU
100
AcDbBlockReference
  2
STDGX5
 10
996.1728907397867
 20
174.5475645486173
 30
0.0
 41
0.5
 42
0.5
 43
0.5
  0
INSERT
  5
94
330
EF7C85532
100
AcDbEntity
  8
TEXT
100
AcDbBlockReference
  2
STDGX5
 10
725.7513886810995
 20
124.5860190441302
 30
0.0
 41
0.5
 42
0.5
 43
0.5
  0
INSERT
  5
95
330
EF7C85532
100
AcDbEntity
  8
HATCH
100
AcDbBlockReference
  2
STDGX5
 10
777.1755722656421
 20
145.5222028932424
 30
0.0
 41
0.5
 42
0.5
 43
0.5
  0
INSERT
  5
96
330
EF7C85532
100
AcDbEntity
  8
SUNPOU
100
AcDbBlockReference
  2
STDGX5
 10
846.1963575359604
 20
112.6957974729892
 30
0.0
 41
0.5
 42
0.5
 43
0.5
  0
INSERT
  5
97
330
EF7C85532
100
AcDbEntity
  8
SUNPOU
100
AcDbBlockReference
  2
STDGX5
 10
916.6681156211122
 20
121.7330617103084
 30
0.0
 41
0.5
 42
0.5
 43
0.5
  0
INSERT
  5
98
330
EF7C85532
100
AcDbEntity
  8
TEXT
100
AcDbBlockReference
  2
STDGX5
 10
983.7969461426766
 20
84.61852224867081
 30
0.0
 41
0.5
 42
0.5
 43
0.5
  0
INSERT
  5
99
330
EF7C85532
100
AcDbEntity
  8
HATCH
100
AcDbBlockReference
  2
STDGX5
 10
974.2802715042101
 20
136.484938655923
 30
0.0
 41
0.5
 42
0.5
 43
0.5
  0
INSERT
  5
9A
330
EF7C85532
100
AcDbEntity
  8
SUNPOU
100
AcDbBlockReference
  2
STDGX5
 10
749.7834008663488
 20
95.14721172234004
 30
0.0
 41
0.5
 42
0.5
 43
0.5
  0
INSERT
  5
9B
330
EF7C85532
100
AcDbEntity
  8
SUNPOU
100
AcDbBlockReference
  2
STDGX5
 10
736.9237986642947
 20
149.3881932275598
 30
0.0
 41
0.5
 42
0.5
 43
0.5
  0
INSERT
  5
9C
330
EF7C85532
100
AcDbEntity
  8
HATCH
100
AcDbBlockReference
  2
STDGX5
 10
863.1015326601156
 20
196.0183891623711
 30
0.0
 41
0.5
 42
0.5
 43
0.5
  0
INSERT
  5
9D
330
EF7C85532
100
AcDbEntity
  8
HATCH
100
AcDbBlockReference
  2
STDGX5
 10
877.3836572296538
 20
147.0136281295922
 30
0.0
 41
0.5
 42
0.5
 43
0.5
  0
INSERT
  5
9E
330
EF7C85532
100
AcDbEntity
  8
TEXT
100
AcDbBlockReference
  2
STDGX5
 10
981.0464184541222
 20
147.1332261885546
 30
0.0
 41
0.5
 42
0.5
 43
0.5
  0
INSERT
  5
9F
330
EF7C85532
100
AcDbEntity
  8
SUNPOU
100
AcDbBlockReference
  2
STDGX5
 10
1006.875868341712
 20
218.8594439142483
 30
0.0
 41
0.5
 42
0.5
 43
0.5
  0
INSERT
  5
A0
330
EF7C85532
100
AcDbEntity
  8
TEXT
100
AcDbBlockReference
  2
STDGX5
 10
736.454366283025
 20
168.8978984097611
 30
0.0
 41
0.5
 42
0.5
 43
0.5
  0
INSERT
  5
A1
330
EF7C85532
100
AcDbEntity
  8
HATCH
100
AcDbBlockReference
  2
STDGX5
 10
787.8785498675677
 20
189.8340822588734
 30
0.0
 41
0.5
 42
0.5
 43
0.5
  0
INSERT
  5
A2
330
EF7C85532
100
AcDbEntity
  8
SUNPOU
100
AcDbBlockReference
  2
STDGX5
 10
856.899335137886
 20
157.0076768386202
 30
0.0
 41
0.5
 42
0.5
 43
0.5
  0
INSERT
  5
A3
330
EF7C85532
100
AcDbEntity
  8
SUNPOU
100
AcDbBlockReference
  2
STDGX5
 10
927.3710932230379
 20
166.0449410759395
 30
0.0
 41
0.5
 42
0.5
 43
0.5
  0
INSERT
  5
A4
330
EF7C85532
100
AcDbEntity
  8
TEXT
100
AcDbBlockReference
  2
STDGX5
 10
994.4999237446024
 20
128.9304016143017
 30
0.0
 41
0.5
 42
0.5
 43
0.5
  0
INSERT
  5
A5
330
EF7C85532
100
AcDbEntity
  8
HATCH
100
AcDbBlockReference
  2
STDGX5
 10
984.9832491061354
 20
180.7968180215541
 30
0.0
 41
0.5
 42
0.5
 43
0.5
  0
TEXT
  5
DE
330
EF7C85532
100
AcDbEntity
  8
SUNPOU
100
AcDbText
 10
274.0586949361738
 20
43.7966872748706
 30
0.0
 40
1.5
  1
                          
100
AcDbText
  0
TEXT
  5
145
330
EF7C85532
100
AcDbEntity
  8
SUNPOU
100
AcDbText
 10
511.2793459710869
 20
21.8983436374353
 30
0.0
 40
0.75
  1
                          
100
AcDbText
  0
TEXT
  5
265
330
EF7C85532
100
AcDbEntity
  8
SUNPOU
100
AcDbText
 10
474.702507645204
 20
43.79668727487056
 30
0.0
 40
1.5
  1
                          
100
AcDbText
  0
TEXT
  5
266
330
EF7C85532
100
AcDbEntity
  8
SUNPOU
100
AcDbText
 10
711.923158680117
 20
21.89834363743526
 30
0.0
 40
0.75
  1
                          
100
AcDbText
  0
INSERT
  5
2F7
330
EF7C85532
100
AcDbEntity
  8
HATCH
100
AcDbBlockReference
  2
*X4
 10
178.999999284
 20
0.0
 30
0.0
  0
TEXT
  5
31A
330
EF7C85532
100
AcDbEntity
  8
SUNPOU
100
AcDbText
 10
477.0854500730166
 20
43.7966872748706
 30
0.0
 40
1.5
  1
                          
100
AcDbText
  0
TEXT
  5
31C
330
EF7C85532
100
AcDbEntity
  8
SUNPOU
100
AcDbText
 10
714.3061011079296
 20
21.8983436374353
 30
0.0
 40
0.75
  1
                          
100
AcDbText
  0
TEXT
  5
3A6
330
EF7C85532
100
AcDbEntity
  8
TEXT
100
AcDbText
 10
100.9999992839998
 20
244.9999999999999
 30
0.0
 40
3.0
  1
 
  7
K
100
AcDbText
  0
TEXT
  5
3AB
330
EF7C85532
100
AcDbEntity
  8
SUNPOU
100
AcDbText
 10
466.1239116114783
 20
43.7966872748706
 30
0.0
 40
1.5
  1
                          
100
AcDbText
  0
TEXT
  5
3AC
330
EF7C85532
100
AcDbEntity
  8
SUNPOU
100
AcDbText
 10
703.3445626463913
 20
21.8983436374353
 30
0.0
 40
0.75
  1
                          
100
AcDbText
  0
INSERT
  5
3F6
330
EF7C85532
100
AcDbEntity
  8
TEXT
100
AcDbBlockReference
  2
STDGX5
 10
178.999999284
 20
0.0
 30
0.0
  0
TEXT
  5
3F7
330
EF7C85532
100
AcDbEntity
  8
SUNPOU
100
AcDbText
 10
453.0586949361739
 20
43.7966872748706
 30
0.0
 40
1.5
  1
                          
100
AcDbText
  0
TEXT
  5
3F8
330
EF7C85532
100
AcDbEntity
  8
SUNPOU
100
AcDbText
 10
690.2793459710871
 20
21.8983436374353
 30
0.0
 40
0.75
  1
                          
100
AcDbText
  0
TEXT
  5
3F9
330
EF7C85532
100
AcDbEntity
  8
SUNPOU
100
AcDbText
 10
647.9834433840535
 20
43.7966872748706
 30
0.0
 40
1.5
  1
                          
100
AcDbText
  0
TEXT
  5
3FA
330
EF7C85532
100
AcDbEntity
  8
SUNPOU
100
AcDbText
 10
885.2040944189665
 20
21.8983436374353
 30
0.0
 40
0.75
  1
                          
100
AcDbText
  0
TEXT
  5
3FB
330
EF7C85532
100
AcDbEntity
  8
SUNPOU
100
AcDbText
 10
848.6272560930835
 20
43.79668727487056
 30
0.0
 40
1.5
  1
                          
100
AcDbText
  0
TEXT
  5
3FC
330
EF7C85532
100
AcDbEntity
  8
SUNPOU
100
AcDbText
 10
1085.847907127996
 20
21.89834363743526
 30
0.0
 40
0.75
  1
                          
100
AcDbText
  0
INSERT
  5
3FD
330
EF7C85532
100
AcDbEntity
  8
HATCH
100
AcDbBlockReference
  2
*X5
 10
552.9247477318796
 20
0.0
 30
0.0
  0
TEXT
  5
3FE
330
EF7C85532
100
AcDbEntity
  8
SUNPOU
100
AcDbText
 10
851.0101985208963
 20
43.7966872748706
 30
0.0
 40
1.5
  1
                          
100
AcDbText
  0
TEXT
  5
3FF
330
EF7C85532
100
AcDbEntity
  8
SUNPOU
100
AcDbText
 10
1088.230849555809
 20
21.8983436374353
 30
0.0
 40
0.75
  1
                          
100
AcDbText
  0
TEXT
  5
400
330
EF7C85532
100
AcDbEntity
  8
SUNPOU
100
AcDbText
 10
840.048660059358
 20
43.7966872748706
 30
0.0
 40
1.5
  1
                          
100
AcDbText
  0
TEXT
  5
401
330
EF7C85532
100
AcDbEntity
  8
SUNPOU
100
AcDbText
 10
1077.269311094271
 20
21.8983436374353
 30
0.0
 40
0.75
  1
                          
100
AcDbText
  0
INSERT
  5
402
330
EF7C85532
100
AcDbEntity
  8
JISSEN
100
AcDbBlockReference
  2
STDGX5
 10
357.999999284
 20
0.0
 30
0.0
  0
TEXT
  5
409
330
EF7C85532
100
AcDbEntity
  8
SUNPOU
100
AcDbText
 10
453.0586949361739
 20
43.7966872748706
 30
0.0
 40
1.5
  1
                          
100
AcDbText
  0
TEXT
  5
40A
330
EF7C85532
100
AcDbEntity
  8
SUNPOU
100
AcDbText
 10
690.2793459710871
 20
21.8983436374353
 30
0.0
 40
0.75
  1
                          
100
AcDbText
  0
TEXT
  5
41B
330
EF7C85532
100
AcDbEntity
  8
SUNPOU
100
AcDbText
 10
647.9834433840535
 20
43.7966872748706
 30
0.0
 40
1.5
  1
                          
100
AcDbText
  0
TEXT
  5
41C
330
EF7C85532
100
AcDbEntity
  8
SUNPOU
100
AcDbText
 10
885.2040944189665
 20
21.8983436374353
 30
0.0
 40
0.75
  1
                          
100
AcDbText
  0
TEXT
  5
41D
330
EF7C85532
100
AcDbEntity
  8
SUNPOU
100
AcDbText
 10
848.6272560930835
 20
43.79668727487056
 30
0.0
 40
1.5
  1
                          
100
AcDbText
  0
TEXT
  5
41E
330
EF7C85532
100
AcDbEntity
  8
SUNPOU
100
AcDbText
 10
1085.847907127996
 20
21.89834363743526
 30
0.0
 40
0.75
  1
                          
100
AcDbText
  0
INSERT
  5
41F
330
EF7C85532
100
AcDbEntity
  8
HATCH
100
AcDbBlockReference
  2
*X6
 10
552.9247477318796
 20
0.0
 30
0.0
  0
TEXT
  5
420
330
EF7C85532
100
AcDbEntity
  8
SUNPOU
100
AcDbText
 10
851.0101985208963
 20
43.7966872748706
 30
0.0
 40
1.5
  1
                          
100
AcDbText
  0
TEXT
  5
421
330
EF7C85532
100
AcDbEntity
  8
SUNPOU
100
AcDbText
 10
1088.230849555809
 20
21.8983436374353
 30
0.0
 40
0.75
  1
                          
100
AcDbText
  0
TEXT
  5
422
330
EF7C85532
100
AcDbEntity
  8
SUNPOU
100
AcDbText
 10
840.048660059358
 20
43.7966872748706
 30
0.0
 40
1.5
  1
                          
100
AcDbText
  0
TEXT
  5
423
330
EF7C85532
100
AcDbEntity
  8
SUNPOU
100
AcDbText
 10
1077.269311094271
 20
21.8983436374353
 30
0.0
 40
0.75
  1
                          
100
AcDbText
  0
INSERT
  5
424
330
EF7C85532
100
AcDbEntity
  8
JISSEN
100
AcDbBlockReference
  2
STDGX5
 10
357.999999284
 20
0.0
 30
0.0
  0
TEXT
  5
425
330
EF7C85532
100
AcDbEntity
  8
SUNPOU
100
AcDbText
 10
632.0586942201738
 20
43.7966872748706
 30
0.0
 40
1.5
  1
                          
100
AcDbText
  0
TEXT
  5
426
330
EF7C85532
100
AcDbEntity
  8
SUNPOU
100
AcDbText
 10
869.2793452550871
 20
21.8983436374353
 30
0.0
 40
0.75
  1
                          
100
AcDbText
  0
TEXT
  5
427
330
EF7C85532
100
AcDbEntity
  8
SUNPOU
100
AcDbText
 10
826.9834426680533
 20
43.7966872748706
 30
0.0
 40
1.5
  1
                          
100
AcDbText
  0
TEXT
  5
428
330
EF7C85532
100
AcDbEntity
  8
SUNPOU
100
AcDbText
 10
1064.204093702966
 20
21.8983436374353
 30
0.0
 40
0.75
  1
                          
100
AcDbText
  0
TEXT
  5
429
330
EF7C85532
100
AcDbEntity
  8
SUNPOU
100
AcDbText
 10
1027.627255377083
 20
43.79668727487056
 30
0.0
 40
1.5
  1
                          
100
AcDbText
  0
TEXT
  5
42A
330
EF7C85532
100
AcDbEntity
  8
SUNPOU
100
AcDbText
 10
1264.847906411996
 20
21.89834363743526
 30
0.0
 40
0.75
  1
                          
100
AcDbText
  0
INSERT
  5
42B
330
EF7C85532
100
AcDbEntity
  8
HATCH
100
AcDbBlockReference
  2
*X7
 10
731.9247470158797
 20
0.0
 30
0.0
  0
TEXT
  5
42C
330
EF7C85532
100
AcDbEntity
  8
SUNPOU
100
AcDbText
 10
1030.010197804895
 20
43.7966872748706
 30
0.0
 40
1.5
  1
                          
100
AcDbText
  0
TEXT
  5
42D
330
EF7C85532
100
AcDbEntity
  8
SUNPOU
100
AcDbText
 10
1267.230848839808
 20
21.8983436374353
 30
0.0
 40
0.75
  1
                          
100
AcDbText
  0
TEXT
  5
42E
330
EF7C85532
100
AcDbEntity
  8
SUNPOU
100
AcDbText
 10
1019.048659343358
 20
43.7966872748706
 30
0.0
 40
1.5
  1
                          
100
AcDbText
  0
TEXT
  5
42F
330
EF7C85532
100
AcDbEntity
  8
SUNPOU
100
AcDbText
 10
1256.269310378271
 20
21.8983436374353
 30
0.0
 40
0.75
  1
                          
100
AcDbText
  0
INSERT
  5
430
330
EF7C85532
100
AcDbEntity
  8
JISSEN
100
AcDbBlockReference
  2
STDGX5
 10
536.999998568
 20
0.0
 30
0.0
  0
INSERT
  5
43B
330
EF7C85532
100
AcDbEntity
  8
SUNPOU
100
AcDbBlockReference
  2
STDGX5
 10
739.0804232644236
 20
50.83533235670902
 30
0.0
 41
0.5
 42
0.5
 43
0.5
  0
INSERT
  5
43C
330
EF7C85532
100
AcDbEntity
  8
SUNPOU
100
AcDbBlockReference
  2
STDGX5
 10
726.2208210623692
 20
105.0763138619288
 30
0.0
 41
0.5
 42
0.5
 43
0.5
  0
INSERT
  5
43D
330
EF7C85532
100
AcDbEntity
  8
HATCH
100
AcDbBlockReference
  2
STDGX5
 10
852.3985550581901
 20
151.7065097967401
 30
0.0
 41
0.5
 42
0.5
 43
0.5
  0
INSERT
  5
43E
330
EF7C85532
100
AcDbEntity
  8
HATCH
100
AcDbBlockReference
  2
STDGX5
 10
866.6806796277283
 20
102.7017487639612
 30
0.0
 41
0.5
 42
0.5
 43
0.5
  0
INSERT
  5
43F
330
EF7C85532
100
AcDbEntity
  8
TEXT
100
AcDbBlockReference
  2
STDGX5
 10
970.3434408521969
 20
102.8213468229236
 30
0.0
 41
0.5
 42
0.5
 43
0.5
  0
INSERT
  5
440
330
EF7C85532
100
AcDbEntity
  8
SUNPOU
100
AcDbBlockReference
  2
STDGX5
 10
996.1728907397867
 20
174.5475645486173
 30
0.0
 41
0.5
 42
0.5
 43
0.5
  0
INSERT
  5
441
330
EF7C85532
100
AcDbEntity
  8
TEXT
100
AcDbBlockReference
  2
STDGX5
 10
725.7513886810995
 20
124.5860190441302
 30
0.0
 41
0.5
 42
0.5
 43
0.5
  0
INSERT
  5
442
330
EF7C85532
100
AcDbEntity
  8
HATCH
100
AcDbBlockReference
  2
STDGX5
 10
777.1755722656421
 20
145.5222028932424
 30
0.0
 41
0.5
 42
0.5
 43
0.5
  0
INSERT
  5
443
330
EF7C85532
100
AcDbEntity
  8
SUNPOU
100
AcDbBlockReference
  2
STDGX5
 10
846.1963575359604
 20
112.6957974729892
 30
0.0
 41
0.5
 42
0.5
 43
0.5
  0
INSERT
  5
444
330
EF7C85532
100
AcDbEntity
  8
SUNPOU
100
AcDbBlockReference
  2
STDGX5
 10
916.6681156211122
 20
121.7330617103084
 30
0.0
 41
0.5
 42
0.5
 43
0.5
  0
INSERT
  5
445
330
EF7C85532
100
AcDbEntity
  8
TEXT
100
AcDbBlockReference
  2
STDGX5
 10
983.7969461426766
 20
84.61852224867081
 30
0.0
 41
0.5
 42
0.5
 43
0.5
  0
INSERT
  5
446
330
EF7C85532
100
AcDbEntity
  8
HATCH
100
AcDbBlockReference
  2
STDGX5
 10
974.2802715042101
 20
136.484938655923
 30
0.0
 41
0.5
 42
0.5
 43
0.5
  0
INSERT
  5
447
330
EF7C85532
100
AcDbEntity
  8
SUNPOU
100
AcDbBlockReference
  2
STDGX5
 10
749.7834008663488
 20
95.14721172234004
 30
0.0
 41
0.5
 42
0.5
 43
0.5
  0
INSERT
  5
448
330
EF7C85532
100
AcDbEntity
  8
SUNPOU
100
AcDbBlockReference
  2
STDGX5
 10
736.9237986642947
 20
149.3881932275598
 30
0.0
 41
0.5
 42
0.5
 43
0.5
  0
INSERT
  5
449
330
EF7C85532
100
AcDbEntity
  8
HATCH
100
AcDbBlockReference
  2
STDGX5
 10
863.1015326601156
 20
196.0183891623711
 30
0.0
 41
0.5
 42
0.5
 43
0.5
  0
INSERT
  5
44A
330
EF7C85532
100
AcDbEntity
  8
HATCH
100
AcDbBlockReference
  2
STDGX5
 10
877.3836572296538
 20
147.0136281295922
 30
0.0
 41
0.5
 42
0.5
 43
0.5
  0
INSERT
  5
44B
330
EF7C85532
100
AcDbEntity
  8
TEXT
100
AcDbBlockReference
  2
STDGX5
 10
981.0464184541222
 20
147.1332261885546
 30
0.0
 41
0.5
 42
0.5
 43
0.5
  0
INSERT
  5
44C
330
EF7C85532
100
AcDbEntity
  8
SUNPOU
100
AcDbBlockReference
  2
STDGX5
 10
1006.875868341712
 20
218.8594439142483
 30
0.0
 41
0.5
 42
0.5
 43
0.5
  0
INSERT
  5
44D
330
EF7C85532
100
AcDbEntity
  8
TEXT
100
AcDbBlockReference
  2
STDGX5
 10
736.454366283025
 20
168.8978984097611
 30
0.0
 41
0.5
 42
0.5
 43
0.5
  0
INSERT
  5
44E
330
EF7C85532
100
AcDbEntity
  8
HATCH
100
AcDbBlockReference
  2
STDGX5
 10
787.8785498675677
 20
189.8340822588734
 30
0.0
 41
0.5
 42
0.5
 43
0.5
  0
INSERT
  5
44F
330
EF7C85532
100
AcDbEntity
  8
SUNPOU
100
AcDbBlockReference
  2
STDGX5
 10
856.899335137886
 20
157.0076768386202
 30
0.0
 41
0.5
 42
0.5
 43
0.5
  0
INSERT
  5
450
330
EF7C85532
100
AcDbEntity
  8
SUNPOU
100
AcDbBlockReference
  2
STDGX5
 10
927.3710932230379
 20
166.0449410759395
 30
0.0
 41
0.5
 42
0.5
 43
0.5
  0
INSERT
  5
451
330
EF7C85532
100
AcDbEntity
  8
TEXT
100
AcDbBlockReference
  2
STDGX5
 10
994.4999237446024
 20
128.9304016143017
 30
0.0
 41
0.5
 42
0.5
 43
0.5
  0
INSERT
  5
452
330
EF7C85532
100
AcDbEntity
  8
HATCH
100
AcDbBlockReference
  2
STDGX5
 10
984.9832491061354
 20
180.7968180215541
 30
0.0
 41
0.5
 42
0.5
 43
0.5
  0
INSERT
  5
4CF3
330
EF7C85532
100
AcDbEntity
  8
JISSEN
100
AcDbBlockReference
  2
STDR12J
 10
0.0
 20
0.0
 30
0.0
  0
LWPOLYLINE
  5
1D277
330
EF7C85532
100
AcDbEntity
  8
NITEN
100
AcDbPolyline
 90
        2
 70
     0
 43
0.0
 10
107.0
 20
249.2768607174257
 42
0.5882352941176295
 10
89.99999999999996
 20
249.276860717426
 42
0.5882352941176295
  0
LWPOLYLINE
  5
1D27B
330
EF7C85532
100
AcDbEntity
  8
NITEN
100
AcDbPolyline
 90
        5
 70
     0
 43
0.0
 10
107.0
 20
228.4391430662799
 10
107.0
 20
249.2768607174257
 42
-0.5882352941176476
 10
90.0
 20
249.2768607174257
 42
0.5882352941176477
 10
73.0
 20
249.2768607174255
 10
73.0
 20
228.4391430662799
  0
LWPOLYLINE
  5
1D282
330
EF7C85532
100
AcDbEntity
  8
NITEN
100
AcDbPolyline
 90
       15
 70
     1
 43
0.0
 10
76.0
 20
187.9391430662799
 42
0.4142135623730927
 10
77.49999999999992
 20
186.4391430662799
 10
100.5940511709964
 20
186.4391430662799
 10
102.4999999999999
 20
186.4391430662799
 42
0.4142135623730925
 10
104.0
 20
187.9391430662799
 10
104.0
 20
198.9851590924978
 42
-0.4142135623730943
 10
108.9999999999998
 20
203.9851590924978
 42
0.4142135623730951
 10
111.0
 20
205.9851590924978
 10
110.9999999999998
 20
226.4391430662799
 42
0.4142135623730949
 10
109.0
 20
228.4391430662799
 10
71.0
 20
228.4391430662799
 42
0.4142135623730951
 10
69.0
 20
226.4391430662799
 10
69.0
 20
205.9851590924978
 42
0.4142135623730951
 10
71.0
 20
203.9851590924978
 42
-0.4142135623730961
 10
76.0
 20
198.9851590924978
  0
LINE
  5
1D2A3
330
EF7C85532
100
AcDbEntity
  8
JISSEN
100
AcDbLine
 10
81.92326141544265
 20
198.3285941605558
 30
0.0
 11
98.0769054605895
 21
198.3285941605566
 31
0.0
  0
LINE
  5
1D2AF
330
EF7C85532
100
AcDbEntity
  8
JISSEN
100
AcDbLine
 10
79.7380756363907
 20
197.0666697969454
 30
0.0
 11
100.2619243636108
 21
197.0666697969473
 31
0.0
  0
LINE
  5
1D2B6
330
EF7C85532
100
AcDbEntity
  8
SAISEN
100
AcDbLine
 10
80.93756144102746
 20
198.2661556015824
 30
0.0
 11
80.52542955092638
 21
185.0785941605558
 31
0.0
  0
LINE
  5
1D2B7
330
EF7C85532
100
AcDbEntity
  8
JISSEN
100
AcDbLine
 10
79.7380756363907
 20
197.0666697969454
 30
0.0
 11
79.36342955092641
 21
185.0785941605558
 31
0.0
  0
LINE
  5
1D2BA
330
EF7C85532
100
AcDbEntity
  8
JISSEN
100
AcDbLine
 10
71.50000000000051
 20
159.0785941605559
 30
0.0
 11
24.72409404430448
 21
159.0785941605559
 31
0.0
  0
LINE
  5
1D2D9
330
EF7C85532
100
AcDbEntity
  8
JISSEN
100
AcDbLine
 10
65.0
 20
159.0785941605559
 30
0.0
 11
65.0
 21
164.0785941605559
 31
0.0
  0
LINE
  5
1D32F
330
EF7C85532
100
AcDbEntity
  8
JISSEN
100
AcDbLine
 10
81.00000000000079
 20
198.3285941605556
 30
0.0
 11
79.7380756363907
 21
197.0666697969454
 31
0.0
  0
LINE
  5
1D330
330
EF7C85532
100
AcDbEntity
  8
JISSEN
100
AcDbLine
 10
81.00000000000079
 20
198.3285941605556
 30
0.0
 11
81.92326141544265
 21
198.3285941605558
 31
0.0
  0
LINE
  5
1D334
330
EF7C85532
100
AcDbEntity
  8
SAISEN
100
AcDbLine
 10
99.06243855897415
 20
198.2661556015842
 30
0.0
 11
99.47457044907521
 21
185.0785941605559
 31
0.0
  0
LINE
  5
1D335
330
EF7C85532
100
AcDbEntity
  8
JISSEN
100
AcDbLine
 10
100.2619243636108
 20
197.0666697969473
 30
0.0
 11
100.6365704490751
 21
185.0785941605559
 31
0.0
  0
LINE
  5
1D397
330
EF7C85532
100
AcDbEntity
  8
JISSEN
100
AcDbLine
 10
99.0000000000008
 20
198.3285941605575
 30
0.0
 11
100.2619243636108
 21
197.0666697969473
 31
0.0
  0
LINE
  5
1D398
330
EF7C85532
100
AcDbEntity
  8
JISSEN
100
AcDbLine
 10
98.07690546058942
 20
198.3285941605574
 30
0.0
 11
99.0000000000008
 21
198.3285941605575
 31
0.0
  0
LWPOLYLINE
  5
1E284
330
EF7C85532
100
AcDbEntity
  8
HATCH
100
AcDbPolyline
 90
       13
 70
     0
 43
0.0
 10
21.26633101087456
 20
164.0785941605559
 10
21.43091818912453
 20
163.2589570823238
 10
21.57282354580485
 20
162.7423391055595
 10
21.80053218295272
 20
162.3239128188716
 10
22.10841966961198
 20
161.9857957952048
 10
22.47464295859153
 20
161.6955447225546
 10
22.87735900270026
 20
161.4207162889171
 10
23.29472475474708
 20
161.1288671822881
 10
23.70489716754092
 20
160.7875540906635
 10
24.08603319389063
 20
160.364333702039
 10
24.41628978660509
 20
159.8267627044108
 10
24.69086984980787
 20
159.1631439171234
 10
24.72409404430448
 20
159.0785941605559
  0
LINE
  5
EAFFB3C99
330
EF7C85532
100
AcDbEntity
  8
JISSEN
100
AcDbLine
 10
91.49999927599994
 20
276.9999999999999
 30
0.0
 11
180.9999992759999
 21
276.9999999999999
 31
0.0
  0
LINE
  5
EAFFB3C9A
330
EF7C85532
100
AcDbEntity
  8
JISSEN
100
AcDbLine
 10
91.49999927599994
 20
270.9999999999999
 30
0.0
 11
180.9999992759999
 21
270.9999999999999
 31
0.0
  0
TEXT
  5
EAFFB3C9B
330
EF7C85532
100
AcDbEntity
  8
TEXT
100
AcDbText
 10
107.8999992759999
 20
278.4999999999999
 30
0.0
 40
3.0
  1
名      称
  7
K
 72
     4
 11
116.4999992759999
 21
279.9999999999999
 31
0.0
100
AcDbText
  0
TEXT
  5
EAFFB3C9C
330
EF7C85532
100
AcDbEntity
  8
TEXT
100
AcDbText
 10
93.29999927599999
 20
278.4999999999999
 30
0.0
 40
3.0
  1
番号
  7
K
 72
     4
 11
96.49999927599999
 21
279.9999999999999
 31
0.0
100
AcDbText
  0
LINE
  5
EAFFB3C9D
330
EF7C85532
100
AcDbEntity
  8
JISSEN
100
AcDbLine
 10
91.49999927599994
 20
264.9999999999999
 30
0.0
 11
91.49999927599994
 21
282.9999999999998
 31
0.0
  0
LINE
  5
EAFFB3C9E
330
EF7C85532
100
AcDbEntity
  8
JISSEN
100
AcDbLine
 10
101.4999992759999
 20
282.9999999999998
 30
0.0
 11
101.4999992759999
 21
264.9999999999999
 31
0.0
  0
TEXT
  5
EAFFB3C9F
330
EF7C85532
100
AcDbEntity
  8
TEXT
100
AcDbText
 10
135.1999992759998
 20
278.4999999999999
 30
0.0
 40
3.0
  1
材    質
  7
K
 72
     4
 11
141.9999992759999
 21
279.9999999999999
 31
0.0
100
AcDbText
  0
LINE
  5
EAFFB3CA0
330
EF7C85532
100
AcDbEntity
  8
JISSEN
100
AcDbLine
 10
131.4999992759998
 20
282.9999999999998
 30
0.0
 11
131.4999992759998
 21
264.9999999999999
 31
0.0
  0
LINE
  5
EAFFB3CA1
330
EF7C85532
100
AcDbEntity
  8
JISSEN
100
AcDbLine
 10
152.4999992759999
 20
264.9999999999999
 30
0.0
 11
152.4999992759999
 21
282.9999999999998
 31
0.0
  0
TEXT
  5
EAFFB3CA2
330
EF7C85532
100
AcDbEntity
  8
TEXT
100
AcDbText
 10
165.6999992759998
 20
278.4999999999999
 30
0.0
 40
3.0
  1
備    考
  7
K
 72
     4
 11
172.4999992759999
 21
279.9999999999999
 31
0.0
100
AcDbText
  0
TEXT
  5
EAFFB3CA3
330
EF7C85532
100
AcDbEntity
  8
TEXT
100
AcDbText
 10
154.7999992759999
 20
278.4999999999999
 30
0.0
 40
3.0
  1
個数
  7
K
 72
     4
 11
157.9999992759999
 21
279.9999999999999
 31
0.0
100
AcDbText
  0
LINE
  5
EAFFB3CA4
330
EF7C85532
100
AcDbEntity
  8
JISSEN
100
AcDbLine
 10
163.4999992759999
 20
282.9999999999998
 30
0.0
 11
163.4999992759999
 21
264.9999999999999
 31
0.0
  0
LINE
  5
EAFFB3CA6
330
EF7C85532
100
AcDbEntity
  8
JISSEN
100
AcDbLine
 10
91.49999927599994
 20
264.9999999999999
 30
0.0
 11
180.9999992759999
 21
264.9999999999999
 31
0.0
  0
TEXT
  5
EAFFB3CAC
330
EF7C85532
100
AcDbEntity
  8
TEXT
100
AcDbText
 10
95.28571356171429
 20
272.4999999999999
 30
0.0
 40
3.0
  1
1
  7
K
 72
     4
 11
96.49999927599999
 21
273.9999999999999
 31
0.0
100
AcDbText
  0
TEXT
  5
EAFFB3CB0
330
EF7C85532
100
AcDbEntity
  8
TEXT
100
AcDbText
 10
95.38307168153433
 20
266.4999999999999
 30
0.0
 40
3.0
  1
2
  7
K
 72
     4
 11
96.81164311010576
 21
267.9999999999999
 31
0.0
100
AcDbText
  0
TEXT
  5
EAFFB3CC2
330
EF7C85532
100
AcDbEntity
  8
TEXT
100
AcDbText
 10
136.8249992759998
 20
274.2999999999999
 30
0.0
 40
3.0
  1
%%u      
  7
K
 72
     4
 11
141.9999992759999
 21
273.9999999999999
 31
0.0
100
AcDbText
  0
TEXT
  5
EAFFB3CC3
330
EF7C85532
100
AcDbEntity
  8
TEXT
100
AcDbText
 10
137.642856418857
 20
266.4999999999999
 30
0.0
 40
3.0
  1
PBT
  7
K
 72
     4
 11
141.9999992759999
 21
267.9999999999999
 31
0.0
100
AcDbText
  0
INSERT
  5
EAFFB3CF7
330
EF7C85532
100
AcDbEntity
  8
WAKU
100
AcDbBlockReference
  2
WAKU
 10
0.0
 20
0.0
 30
0.0
 41
181.0
 42
283.0
 43
181.0
  0
LINE
  5
EF7C8547E
330
EF7C85532
100
AcDbEntity
  8
JISSEN
100
AcDbLine
 10
121.3882285676521
 20
157.1494535479599
 30
0.0
 11
109.9276253109545
 21
154.0785941605558
 31
0.0
  0
ARC
  5
EF7C85484
330
EF7C85532
100
AcDbEntity
  8
JISSEN
100
AcDbCircle
 10
120.9999999999985
 20
158.5983422873935
 30
0.0
 40
1.5
100
AcDbArc
 50
284.9999999999921
 51
359.9999999999993
  0
LINE
  5
EF7C85485
330
EF7C85532
100
AcDbEntity
  8
JISSEN
100
AcDbLine
 10
122.4999999999984
 20
159.0785941605559
 30
0.0
 11
122.4999999999985
 21
158.5983422873935
 31
0.0
  0
LINE
  5
EF7C85486
330
EF7C85532
100
AcDbEntity
  8
JISSEN
100
AcDbLine
 10
119.7673003827795
 20
159.0785941605559
 30
0.0
 11
122.4999999999984
 21
159.0785941605559
 31
0.0
  0
LINE
  5
EF7C854BC
330
EF7C85532
100
AcDbEntity
  8
TENSEN
100
AcDbLine
 10
108.4999999999984
 20
164.0785941605559
 30
0.0
 11
108.4999999999984
 21
162.0235875520867
 31
0.0
  0
LINE
  5
EF7C854C9
330
EF7C85532
100
AcDbEntity
  8
JISSEN
100
AcDbLine
 10
108.4999999999984
 20
184.8285941605559
 30
0.0
 11
108.4999999999984
 21
159.0785941605559
 31
0.0
  0
LINE
  5
EF7C854DA
330
EF7C85532
100
AcDbEntity
  8
JISSEN
100
AcDbLine
 10
21.26633101087457
 20
164.0785941605559
 30
0.0
 11
71.50000000000051
 21
164.0785941605559
 31
0.0
  0
INSERT
  5
EF7C854FC
330
EF7C85532
100
AcDbEntity
  8
HATCH
100
AcDbBlockReference
  2
*X10
 10
0.0
 20
20.0
 30
0.0
1001
ACAD
1000
HATCH
1002
{
1070
    16
1000
_U
1040
2.0
1040
0.7853981633974483
1070
     0
1002
}
  0
LINE
  5
EF7C856F1
330
EF7C85532
100
AcDbEntity
  8
JISSEN
100
AcDbLine
 10
71.50000000000142
 20
184.8285941605559
 30
0.0
 11
71.50000000000142
 21
159.0785941605559
 31
0.0
  0
LINE
  5
EF7C856FC
330
EF7C85532
100
AcDbEntity
  8
JISSEN
100
AcDbLine
 10
58.61177143234783
 20
157.1494535479599
 30
0.0
 11
70.07237468904548
 21
154.0785941605558
 31
0.0
  0
LINE
  5
EF7C856FD
330
EF7C85532
100
AcDbEntity
  8
JISSEN
100
AcDbLine
 10
71.50000000000142
 20
159.0785941605559
 30
0.0
 11
60.23269961722042
 21
159.0785941605559
 31
0.0
  0
ARC
  5
EF7C856FE
330
EF7C85532
100
AcDbEntity
  8
JISSEN
100
AcDbCircle
 10
59.00000000000137
 20
158.5983422873935
 30
0.0
 40
1.5
100
AcDbArc
 50
180.0000000000006
 51
255.0000000000077
  0
LINE
  5
EF7C856FF
330
EF7C85532
100
AcDbEntity
  8
JISSEN
100
AcDbLine
 10
60.23269961722042
 20
159.0785941605559
 30
0.0
 11
57.50000000000142
 21
159.0785941605559
 31
0.0
  0
LINE
  5
EF7C85700
330
EF7C85532
100
AcDbEntity
  8
JISSEN
100
AcDbLine
 10
57.50000000000142
 20
159.0785941605559
 30
0.0
 11
57.50000000000136
 21
158.5983422873935
 31
0.0
  0
LINE
  5
EF7C8575D
330
EF7C85532
100
AcDbEntity
  8
SUNPOU
100
AcDbLine
 10
45.14116541066004
 20
159.0785941605559
 30
0.0
 11
45.14116541066004
 21
159.0785941605559
 31
0.0
  0
TEXT
  5
EF7C85BB1
330
EF7C85532
100
AcDbEntity
  8
TEXT
100
AcDbText
 10
156.6795477624092
 20
272.4999999999999
 30
0.0
 40
3.0
  1
1
  7
K
 72
     4
 11
157.8938334766949
 21
273.9999999999999
 31
0.0
100
AcDbText
  0
TEXT
  5
EF7C85BB2
330
EF7C85532
100
AcDbEntity
  8
TEXT
100
AcDbText
 10
156.6795477624092
 20
266.580835176341
 30
0.0
 40
3.0
  1
1
  7
K
 72
     4
 11
157.8938334766949
 21
268.0808351763409
 31
0.0
100
AcDbText
  0
LINE
  5
EF7C85D32
330
EF7C85532
100
AcDbEntity
  8
JISSEN
100
AcDbLine
 10
70.07237468904538
 20
154.0785941605558
 30
0.0
 11
109.9276253109545
 21
154.0785941605558
 31
0.0
  0
LINE
  5
EF7C85D60
330
EF7C85532
100
AcDbEntity
  8
JISSEN
100
AcDbLine
 10
108.4999999999995
 20
159.0785941605559
 30
0.0
 11
155.2759059556955
 21
159.0785941605559
 31
0.0
  0
INSERT
  5
EF7C85D61
330
EF7C85532
100
AcDbEntity
  8
HATCH
100
AcDbBlockReference
  2
*X10
 10
180.0
 20
20.0
 30
0.0
 41
-1.0
1001
ACAD
1000
HATCH
1002
{
1070
    16
1000
_U
1040
2.0
1040
0.7853981633974483
1070
     0
1002
}
  0
LINE
  5
EF7C85D62
330
EF7C85532
100
AcDbEntity
  8
JISSEN
100
AcDbLine
 10
158.7336689891255
 20
164.0785941605559
 30
0.0
 11
108.4999999999995
 21
164.0785941605559
 31
0.0
  0
LWPOLYLINE
  5
EF7C85D63
330
EF7C85532
100
AcDbEntity
  8
HATCH
100
AcDbPolyline
 90
       13
 70
     0
 43
0.0
 10
158.7336689891255
 20
164.0785941605559
 10
158.5690818108755
 20
163.2589570823238
 10
158.4271764541952
 20
162.7423391055595
 10
158.1994678170473
 20
162.3239128188716
 10
157.891580330388
 20
161.9857957952048
 10
157.5253570414085
 20
161.6955447225546
 10
157.1226409972998
 20
161.4207162889171
 10
156.7052752452529
 20
161.1288671822881
 10
156.295102832459
 20
160.7875540906635
 10
155.9139668061094
 20
160.364333702039
 10
155.5837102133949
 20
159.8267627044108
 10
155.3091301501921
 20
159.1631439171234
 10
155.2759059556955
 20
159.0785941605559
  0
LINE
  5
EF7C85D64
330
EF7C85532
100
AcDbEntity
  8
JISSEN
100
AcDbLine
 10
115.0000000000001
 20
159.0785941605559
 30
0.0
 11
115.0000000000001
 21
164.0785941605559
 31
0.0
  0
TEXT
  5
EF7C85D65
330
EF7C85532
100
AcDbEntity
  8
SUNPOU
100
AcDbText
 10
121.107094279813
 20
7.849423898685245
 30
0.0
 40
3.0
  1
ZN   シーリングプレート取付状態
  7
K
100
AcDbText
  0
TEXT
  5
EF7C85D66
330
EF7C85532
100
AcDbEntity
  8
SUNPOU
100
AcDbText
 10
121.107094279813
 20
2.849423898685244
 30
0.0
 40
3.0
  1
尺度　1/1
  7
K
100
AcDbText
  0
CIRCLE
  5
EF7C85D67
330
EF7C85532
100
AcDbEntity
  8
SUNPOU
100
AcDbCircle
 10
77.71667821735923
 20
118.0064679393257
 30
0.0
 40
6.0
  0
TEXT
  5
EF7C85D68
330
EF7C85532
100
AcDbEntity
  8
SUNPOU
100
AcDbText
 10
75.89524964593066
 20
115.7564679393257
 30
0.0
 40
4.5
  1
1
  7
K
 72
     4
 11
77.71667821735923
 21
118.0064679393257
 31
0.0
100
AcDbText
  0
LINE
  5
EF7C85D6C
330
EF7C85532
100
AcDbEntity
  8
SUNPOU
100
AcDbLine
 10
91.55163498956801
 20
147.8285941605561
 30
0.0
 11
80.24168978757137
 21
123.4492904213009
 31
0.0
  0
INSERT
  5
EF7C85D6E
330
EF7C85532
100
AcDbEntity
  8
SUNPOU
100
AcDbBlockReference
  2
ARROW
 10
91.55163498956801
 20
147.8285941605561
 30
0.0
 41
1.5
 42
1.5
 43
1.5
 50
65.11266771436772
  0
LINE
  5
EF7C85D70
330
EF7C85532
100
AcDbEntity
  8
SUNPOU
100
AcDbLine
 10
109.9276253109545
 20
154.0785941605558
 30
0.0
 11
125.062916214423
 21
123.3876896622965
 31
0.0
  0
CIRCLE
  5
EF7C85D71
330
EF7C85532
100
AcDbEntity
  8
SUNPOU
100
AcDbCircle
 10
127.7166782173592
 20
118.0064679393257
 30
0.0
 40
6.0
  0
TEXT
  5
EF7C85D72
330
EF7C85532
100
AcDbEntity
  8
SUNPOU
100
AcDbText
 10
125.573821074502
 20
115.7564679393257
 30
0.0
 40
4.5
  1
2
  7
K
 72
     4
 11
127.7166782173592
 21
118.0064679393257
 31
0.0
100
AcDbText
  0
INSERT
  5
EF7C85D73
330
EF7C85532
100
AcDbEntity
  8
SUNPOU
100
AcDbBlockReference
  2
ARROW
 10
109.9276253109547
 20
154.0785941605556
 30
0.0
 41
1.5
 42
1.5
 43
1.5
 50
116.2503179468659
  0
TEXT
  5
EF7C85DB6
330
EF7C85532
100
AcDbEntity
  8
TEXT
100
AcDbText
 10
102.4899992759999
 20
266.4999999999999
 30
0.0
 40
3.0
  1
シーリングプレート ZN
 41
0.7
  7
K
 72
     4
 11
116.4999992759999
 21
267.9999999999999
 31
0.0
100
AcDbText
  0
LINE
  5
EF7C8659D
330
EF7C85532
100
AcDbEntity
  8
JISSEN
100
AcDbLine
 10
108.4999999999984
 20
159.0785941605559
 30
0.0
 11
71.50000000000051
 21
159.0785941605559
 31
0.0
  0
LINE
  5
EF7C865F1
330
EF7C85532
100
AcDbEntity
  8
JISSEN
100
AcDbLine
 10
90.49999999999769
 20
167.6785941605566
 30
0.0
 11
89.99999999999856
 21
167.6785941605566
 31
0.0
  0
LINE
  5
EF7C865F2
330
EF7C85532
100
AcDbEntity
  8
JISSEN
100
AcDbLine
 10
71.74999999999858
 20
185.0785941605559
 30
0.0
 11
89.49999999999949
 21
185.0785941605563
 31
0.0
  0
LINE
  5
EF7C865F3
330
EF7C85532
100
AcDbEntity
  8
JISSEN
100
AcDbLine
 10
74.50195324422242
 20
185.0785941605559
 30
0.0
 11
74.50195324422242
 21
167.6785941605558
 31
0.0
  0
LINE
  5
EF7C865F4
330
EF7C85532
100
AcDbEntity
  8
JISSEN
100
AcDbLine
 10
73.50195324422242
 20
185.0785941605559
 30
0.0
 11
73.50195324422242
 21
167.6785941605558
 31
0.0
  0
LINE
  5
EF7C865F5
330
EF7C85532
100
AcDbEntity
  8
JISSEN
100
AcDbLine
 10
74.50195324422242
 20
167.6785941605558
 30
0.0
 11
73.50195324422242
 21
167.6785941605558
 31
0.0
  0
LINE
  5
EF7C865F6
330
EF7C85532
100
AcDbEntity
  8
JISSEN
100
AcDbLine
 10
71.74999999999858
 20
185.0785941605559
 30
0.0
 11
71.49999999999858
 21
184.8285941605559
 31
0.0
  0
LINE
  5
EF7C865F7
330
EF7C85532
100
AcDbEntity
  8
JISSEN
100
AcDbLine
 10
89.49999999999949
 20
185.0785941605559
 30
0.0
 11
89.49999999999949
 21
167.6785941605566
 31
0.0
  0
LINE
  5
EF7C865F8
330
EF7C85532
100
AcDbEntity
  8
JISSEN
100
AcDbLine
 10
89.49999999999949
 20
167.6785941605566
 30
0.0
 11
89.99999999999856
 21
167.6785941605566
 31
0.0
  0
LINE
  5
EF7C865F9
330
EF7C85532
100
AcDbEntity
  8
JISSEN
100
AcDbLine
 10
108.2499999999984
 20
185.0785941605559
 30
0.0
 11
90.49999999999769
 21
185.0785941605563
 31
0.0
  0
LINE
  5
EF7C865FA
330
EF7C85532
100
AcDbEntity
  8
JISSEN
100
AcDbLine
 10
90.49999999999769
 20
185.0785941605559
 30
0.0
 11
90.49999999999769
 21
167.6785941605566
 31
0.0
  0
LINE
  5
EF7C865FB
330
EF7C85532
100
AcDbEntity
  8
JISSEN
100
AcDbLine
 10
105.4980467557747
 20
185.0785941605559
 30
0.0
 11
105.4980467557747
 21
167.6785941605558
 31
0.0
  0
LINE
  5
EF7C865FC
330
EF7C85532
100
AcDbEntity
  8
JISSEN
100
AcDbLine
 10
106.4980467557747
 20
185.0785941605559
 30
0.0
 11
106.4980467557747
 21
167.6785941605558
 31
0.0
  0
LINE
  5
EF7C865FD
330
EF7C85532
100
AcDbEntity
  8
JISSEN
100
AcDbLine
 10
105.4980467557747
 20
167.6785941605558
 30
0.0
 11
106.4980467557747
 21
167.6785941605558
 31
0.0
  0
LINE
  5
EF7C865FE
330
EF7C85532
100
AcDbEntity
  8
JISSEN
100
AcDbLine
 10
108.2499999999984
 20
185.0785941605559
 30
0.0
 11
108.4999999999984
 21
184.8285941605559
 31
0.0
  0
LINE
  5
EF7C86875
330
EF7C85532
100
AcDbEntity
  8
JISSEN
100
AcDbLine
 10
108.4999999999984
 20
99.07859416055591
 30
0.0
 11
71.50000000000051
 21
99.07859416055591
 31
0.0
  0
LINE
  5
EF7C86880
330
EF7C85532
100
AcDbEntity
  8
JISSEN
100
AcDbLine
 10
70.07237468904538
 20
94.07859416055595
 30
0.0
 11
109.9276253109545
 21
94.07859416055595
 31
0.0
  0
LINE
  5
EF7C86886
330
EF7C85532
100
AcDbEntity
  8
JISSEN
100
AcDbLine
 10
71.50000000000051
 20
99.07859416055591
 30
0.0
 11
24.72409404430448
 21
99.07859416055591
 31
0.0
  0
LINE
  5
EF7C86887
330
EF7C85532
100
AcDbEntity
  8
JISSEN
100
AcDbLine
 10
71.50000000000142
 20
99.07859416055591
 30
0.0
 11
60.23269961722042
 21
99.07859416055591
 31
0.0
  0
LINE
  5
EF7C86888
330
EF7C85532
100
AcDbEntity
  8
JISSEN
100
AcDbLine
 10
58.61177143234783
 20
97.14945354795993
 30
0.0
 11
70.07237468904548
 21
94.07859416055591
 31
0.0
  0
LINE
  5
EF7C86889
330
EF7C85532
100
AcDbEntity
  8
SUNPOU
100
AcDbLine
 10
45.14116541066004
 20
99.07859416055591
 30
0.0
 11
45.14116541066004
 21
99.07859416055591
 31
0.0
  0
LINE
  5
EF7C8688A
330
EF7C85532
100
AcDbEntity
  8
JISSEN
100
AcDbLine
 10
60.23269961722042
 20
99.07859416055591
 30
0.0
 11
57.50000000000142
 21
99.07859416055591
 31
0.0
  0
LINE
  5
EF7C8688B
330
EF7C85532
100
AcDbEntity
  8
JISSEN
100
AcDbLine
 10
57.50000000000142
 20
99.07859416055591
 30
0.0
 11
57.50000000000136
 21
98.59834228739357
 31
0.0
  0
ARC
  5
EF7C8688C
330
EF7C85532
100
AcDbEntity
  8
JISSEN
100
AcDbCircle
 10
59.00000000000137
 20
98.59834228739357
 30
0.0
 40
1.5
100
AcDbArc
 50
180.0000000000006
 51
255.0000000000077
  0
LINE
  5
EF7C868B5
330
EF7C85532
100
AcDbEntity
  8
JISSEN
100
AcDbLine
 10
108.4999999999995
 20
99.07859416055591
 30
0.0
 11
155.2759059556955
 21
99.07859416055591
 31
0.0
  0
LINE
  5
EF7C868B6
330
EF7C85532
100
AcDbEntity
  8
JISSEN
100
AcDbLine
 10
121.3882285676521
 20
97.14945354795993
 30
0.0
 11
109.9276253109545
 21
94.07859416055591
 31
0.0
  0
LINE
  5
EF7C868C7
330
EF7C85532
100
AcDbEntity
  8
JISSEN
100
AcDbLine
 10
119.7673003827795
 20
99.07859416055591
 30
0.0
 11
122.4999999999984
 21
99.07859416055591
 31
0.0
  0
ARC
  5
EF7C868C8
330
EF7C85532
100
AcDbEntity
  8
JISSEN
100
AcDbCircle
 10
120.9999999999985
 20
98.59834228739357
 30
0.0
 40
1.5
100
AcDbArc
 50
284.9999999999921
 51
359.9999999999993
  0
LINE
  5
EF7C868C9
330
EF7C85532
100
AcDbEntity
  8
JISSEN
100
AcDbLine
 10
122.4999999999984
 20
99.07859416055591
 30
0.0
 11
122.4999999999985
 21
98.59834228739357
 31
0.0
  0
INSERT
  5
EF7C86918
330
EF7C85532
100
AcDbEntity
  8
WAKU
100
AcDbBlockReference
  2
WAKU
 10
180.9999992759999
 20
0.0
 30
0.0
 41
181.0
 42
283.0
 43
181.0
  0
LINE
  5
EF7C86EA3
330
EF7C85532
100
AcDbEntity
  8
JISSEN
100
AcDbLine
 10
295.9999995720778
 20
159.0785946738836
 30
0.0
 11
295.9999995720778
 21
164.0785946738836
 31
0.0
  0
LWPOLYLINE
  5
EF7C86EA4
330
EF7C85532
100
AcDbEntity
  8
HATCH
100
AcDbPolyline
 90
       13
 70
     0
 43
0.0
 10
339.7336685612033
 20
164.0785946738836
 10
339.5690813829533
 20
163.2589575956515
 10
339.4271760262729
 20
162.7423396188873
 10
339.1994673891251
 20
162.3239133321995
 10
338.891579902466
 20
161.9857963085325
 10
338.5253566134863
 20
161.6955452358824
 10
338.1226405693776
 20
161.420716802245
 10
337.7052748173308
 20
161.128867695616
 10
337.295102404537
 20
160.7875546039913
 10
336.9139663781873
 20
160.3643342153669
 10
336.5837097854728
 20
159.8267632177386
 10
336.30912972227
 20
159.163144430451
 10
336.2759055277733
 20
159.0785946738836
  0
INSERT
  5
EF7C86EA5
330
EF7C85532
100
AcDbEntity
  8
HATCH
100
AcDbBlockReference
  2
*X11
 10
360.9999995720778
 20
20.00000051332779
 30
0.0
 41
-1.0
1001
ACAD
1000
HATCH
1002
{
1070
    16
1000
_U
1040
2.0
1040
0.7853981633974483
1070
     0
1002
}
  0
LINE
  5
EF7C86EA6
330
EF7C85532
100
AcDbEntity
  8
JISSEN
100
AcDbLine
 10
252.499999572079
 20
184.8285946738837
 30
0.0
 11
252.499999572079
 21
159.0785946738836
 31
0.0
  0
INSERT
  5
EF7C86EA7
330
EF7C85532
100
AcDbEntity
  8
HATCH
100
AcDbBlockReference
  2
*X11
 10
180.9999995720778
 20
20.00000051332779
 30
0.0
1001
ACAD
1000
HATCH
1002
{
1070
    16
1000
_U
1040
2.0
1040
0.7853981633974483
1070
     0
1002
}
  0
LINE
  5
EF7C86EA8
330
EF7C85532
100
AcDbEntity
  8
JISSEN
100
AcDbLine
 10
289.4999995720763
 20
184.8285946738837
 30
0.0
 11
289.4999995720763
 21
159.0785946738836
 31
0.0
  0
LWPOLYLINE
  5
EF7C86EA9
330
EF7C85532
100
AcDbEntity
  8
HATCH
100
AcDbPolyline
 90
       13
 70
     0
 43
0.0
 10
202.2663305829524
 20
164.0785946738836
 10
202.4309177612023
 20
163.2589575956515
 10
202.5728231178825
 20
162.7423396188873
 10
202.8005317550305
 20
162.3239133321995
 10
203.1084192416896
 20
161.9857963085325
 10
203.4746425306693
 20
161.6955452358824
 10
203.877358574778
 20
161.420716802245
 10
204.2947243268248
 20
161.128867695616
 10
204.7048967396186
 20
160.7875546039913
 10
205.0860327659683
 20
160.3643342153669
 10
205.4162893586828
 20
159.8267632177386
 10
205.6908694218857
 20
159.163144430451
 10
205.7240936163823
 20
159.0785946738836
  0
LINE
  5
EF7C86EAA
330
EF7C85532
100
AcDbEntity
  8
JISSEN
100
AcDbLine
 10
245.9999995720778
 20
159.0785946738836
 30
0.0
 11
245.9999995720778
 21
164.0785946738836
 31
0.0
  0
LINE
  5
EF7C86EB9
330
EF7C85532
100
AcDbEntity
  8
JISSEN
100
AcDbLine
 10
289.4999995720773
 20
159.0785946738836
 30
0.0
 11
336.2759055277733
 21
159.0785946738836
 31
0.0
  0
LINE
  5
EF7C86EBA
330
EF7C85532
100
AcDbEntity
  8
JISSEN
100
AcDbLine
 10
289.4999995720773
 20
99.07859467388369
 30
0.0
 11
336.2759055277733
 21
99.07859467388369
 31
0.0
  0
LINE
  5
EF7C86EBB
330
EF7C85532
100
AcDbEntity
  8
JISSEN
100
AcDbLine
 10
251.072374261123
 20
94.07859467388375
 30
0.0
 11
290.9276248830325
 21
94.07859467388375
 31
0.0
  0
LINE
  5
EF7C86EBC
330
EF7C85532
100
AcDbEntity
  8
JISSEN
100
AcDbLine
 10
289.4999995720773
 20
99.07859467388369
 30
0.0
 11
252.499999572079
 21
99.07859467388369
 31
0.0
  0
LINE
  5
EF7C86EBF
330
EF7C85532
100
AcDbEntity
  8
JISSEN
100
AcDbLine
 10
252.4999995720781
 20
99.07859467388369
 30
0.0
 11
205.7240936163823
 21
99.07859467388369
 31
0.0
  0
LINE
  5
EF7C86EC0
330
EF7C85532
100
AcDbEntity
  8
SUNPOU
100
AcDbLine
 10
226.1411649827378
 20
99.07859467388369
 30
0.0
 11
226.1411649827378
 21
99.07859467388369
 31
0.0
  0
LINE
  5
EF7C86EC2
330
EF7C85532
100
AcDbEntity
  8
JISSEN
100
AcDbLine
 10
239.6117710044255
 20
97.14945406128773
 30
0.0
 11
251.0723742611232
 21
94.07859467388368
 31
0.0
  0
LINE
  5
EF7C86EC3
330
EF7C85532
100
AcDbEntity
  8
JISSEN
100
AcDbLine
 10
252.499999572079
 20
99.07859467388369
 30
0.0
 11
241.2326991892981
 21
99.07859467388369
 31
0.0
  0
ARC
  5
EF7C86EC4
330
EF7C85532
100
AcDbEntity
  8
JISSEN
100
AcDbCircle
 10
239.999999572079
 20
98.59834280072135
 30
0.0
 40
1.5
100
AcDbArc
 50
180.0000000000006
 51
255.0000000000056
  0
LINE
  5
EF7C86EC5
330
EF7C85532
100
AcDbEntity
  8
JISSEN
100
AcDbLine
 10
238.4999995720792
 20
99.07859467388369
 30
0.0
 11
238.4999995720792
 21
98.59834280072135
 31
0.0
  0
ARC
  5
EF7C86F0F
330
EF7C85532
100
AcDbEntity
  8
JISSEN
100
AcDbCircle
 10
301.9999995720763
 20
98.59834280072135
 30
0.0
 40
1.5
100
AcDbArc
 50
284.9999999999942
 51
359.9999999999993
  0
LINE
  5
EF7C86F10
330
EF7C85532
100
AcDbEntity
  8
JISSEN
100
AcDbLine
 10
302.38822813973
 20
97.14945406128773
 30
0.0
 11
290.9276248830323
 21
94.07859467388368
 31
0.0
  0
LINE
  5
EF7C86F11
330
EF7C85532
100
AcDbEntity
  8
JISSEN
100
AcDbLine
 10
303.4999995720763
 20
99.07859467388369
 30
0.0
 11
303.4999995720763
 21
98.59834280072135
 31
0.0
  0
LINE
  5
EF7C86F12
330
EF7C85532
100
AcDbEntity
  8
JISSEN
100
AcDbLine
 10
289.4999995720773
 20
159.0785946738836
 30
0.0
 11
252.499999572079
 21
159.0785946738836
 31
0.0
  0
LINE
  5
EF7C86F13
330
EF7C85532
100
AcDbEntity
  8
JISSEN
100
AcDbLine
 10
251.072374261123
 20
154.0785946738836
 30
0.0
 11
290.9276248830325
 21
154.0785946738836
 31
0.0
  0
LINE
  5
EF7C86F16
330
EF7C85532
100
AcDbEntity
  8
JISSEN
100
AcDbLine
 10
252.4999995720781
 20
159.0785946738836
 30
0.0
 11
205.7240936163823
 21
159.0785946738836
 31
0.0
  0
LINE
  5
EF7C86F17
330
EF7C85532
100
AcDbEntity
  8
SUNPOU
100
AcDbLine
 10
226.1411649827378
 20
159.0785946738836
 30
0.0
 11
226.1411649827378
 21
159.0785946738836
 31
0.0
  0
LINE
  5
EF7C86F18
330
EF7C85532
100
AcDbEntity
  8
JISSEN
100
AcDbLine
 10
239.6117710044255
 20
157.1494540612876
 30
0.0
 11
251.0723742611232
 21
154.0785946738836
 31
0.0
  0
LINE
  5
EF7C86F19
330
EF7C85532
100
AcDbEntity
  8
JISSEN
100
AcDbLine
 10
252.499999572079
 20
159.0785946738836
 30
0.0
 11
241.2326991892981
 21
159.0785946738836
 31
0.0
  0
ARC
  5
EF7C86F1A
330
EF7C85532
100
AcDbEntity
  8
JISSEN
100
AcDbCircle
 10
239.999999572079
 20
158.5983428007213
 30
0.0
 40
1.5
100
AcDbArc
 50
180.0000000000006
 51
255.0000000000056
  0
LINE
  5
EF7C86F1B
330
EF7C85532
100
AcDbEntity
  8
JISSEN
100
AcDbLine
 10
238.4999995720792
 20
159.0785946738836
 30
0.0
 11
238.4999995720792
 21
158.5983428007213
 31
0.0
  0
ARC
  5
EF7C86F66
330
EF7C85532
100
AcDbEntity
  8
JISSEN
100
AcDbCircle
 10
301.9999995720763
 20
158.5983428007213
 30
0.0
 40
1.5
100
AcDbArc
 50
284.9999999999942
 51
359.9999999999993
  0
LINE
  5
EF7C86F67
330
EF7C85532
100
AcDbEntity
  8
JISSEN
100
AcDbLine
 10
302.38822813973
 20
157.1494540612876
 30
0.0
 11
290.9276248830323
 21
154.0785946738836
 31
0.0
  0
LINE
  5
EF7C86F68
330
EF7C85532
100
AcDbEntity
  8
JISSEN
100
AcDbLine
 10
303.4999995720763
 20
159.0785946738836
 30
0.0
 11
303.4999995720763
 21
158.5983428007213
 31
0.0
  0
LINE
  5
EF7C86FD1
330
EF7C85532
100
AcDbEntity
  8
JISSEN
100
AcDbLine
 10
339.7336685612033
 20
164.0785946738836
 30
0.0
 11
289.4999995720773
 21
164.0785946738836
 31
0.0
  0
LINE
  5
EF7C86FD2
330
EF7C85532
100
AcDbEntity
  8
JISSEN
100
AcDbLine
 10
202.2663305829524
 20
164.0785946738836
 30
0.0
 11
252.4999995720781
 21
164.0785946738836
 31
0.0
  0
LWPOLYLINE
  5
EF7C86FD3
330
EF7C85532
100
AcDbEntity
  8
NITEN
100
AcDbPolyline
 90
        5
 70
     0
 43
0.0
 10
287.9999995720778
 20
228.4391435796077
 10
287.9999995720778
 20
249.2768612307535
 42
-0.5882352941176476
 10
270.9999995720778
 20
249.2768612307535
 42
0.5882352941176477
 10
253.9999995720778
 20
249.2768612307533
 10
253.9999995720778
 20
228.4391435796077
  0
LWPOLYLINE
  5
EF7C86FD4
330
EF7C85532
100
AcDbEntity
  8
NITEN
100
AcDbPolyline
 90
        2
 70
     0
 43
0.0
 10
287.9999995720778
 20
249.2768612307535
 42
0.5882352941176295
 10
270.9999995720778
 20
249.2768612307539
 42
0.5882352941176295
  0
LINE
  5
EF7C86FD5
330
EF7C85532
100
AcDbEntity
  8
JISSEN
100
AcDbLine
 10
252.749999572079
 20
185.0785946738837
 30
0.0
 11
270.49999957208
 21
185.078594673884
 31
0.0
  0
LWPOLYLINE
  5
EF7C86FD6
330
EF7C85532
100
AcDbEntity
  8
NITEN
100
AcDbPolyline
 90
       15
 70
     1
 43
0.0
 10
256.9999995720778
 20
187.9391435796076
 42
0.4142135623730927
 10
258.4999995720778
 20
186.4391435796077
 10
281.5940507430743
 20
186.4391435796077
 10
283.4999995720778
 20
186.4391435796077
 42
0.4142135623730925
 10
284.9999995720778
 20
187.9391435796076
 10
284.9999995720778
 20
198.9851596058256
 42
-0.4142135623730943
 10
289.9999995720778
 20
203.9851596058257
 42
0.4142135623730951
 10
291.9999995720778
 20
205.9851596058257
 10
291.9999995720778
 20
226.4391435796077
 42
0.4142135623730949
 10
289.9999995720778
 20
228.4391435796077
 10
251.9999995720778
 20
228.4391435796077
 42
0.4142135623730951
 10
249.9999995720778
 20
226.4391435796077
 10
249.9999995720778
 20
205.9851596058257
 42
0.4142135623730951
 10
251.9999995720778
 20
203.9851596058257
 42
-0.4142135623730961
 10
256.9999995720778
 20
198.9851596058256
  0
LINE
  5
EF7C86FD7
330
EF7C85532
100
AcDbEntity
  8
JISSEN
100
AcDbLine
 10
254.5019528163029
 20
185.0785946738837
 30
0.0
 11
254.5019528163029
 21
167.6785946738835
 31
0.0
  0
LINE
  5
EF7C86FD8
330
EF7C85532
100
AcDbEntity
  8
JISSEN
100
AcDbLine
 10
255.5019528163029
 20
185.0785946738837
 30
0.0
 11
255.5019528163029
 21
167.6785946738835
 31
0.0
  0
LINE
  5
EF7C86FD9
330
EF7C85532
100
AcDbEntity
  8
JISSEN
100
AcDbLine
 10
255.5019528163029
 20
167.6785946738835
 30
0.0
 11
254.5019528163029
 21
167.6785946738835
 31
0.0
  0
LINE
  5
EF7C86FDA
330
EF7C85532
100
AcDbEntity
  8
JISSEN
100
AcDbLine
 10
252.749999572079
 20
185.0785946738837
 30
0.0
 11
252.499999572079
 21
184.8285946738837
 31
0.0
  0
LINE
  5
EF7C86FDB
330
EF7C85532
100
AcDbEntity
  8
JISSEN
100
AcDbLine
 10
289.2499995720792
 20
185.0785946738837
 30
0.0
 11
271.4999995720783
 21
185.078594673884
 31
0.0
  0
LINE
  5
EF7C86FDC
330
EF7C85532
100
AcDbEntity
  8
JISSEN
100
AcDbLine
 10
271.4999995720783
 20
185.0785946738837
 30
0.0
 11
271.4999995720783
 21
167.6785946738845
 31
0.0
  0
LINE
  5
EF7C86FDD
330
EF7C85532
100
AcDbEntity
  8
JISSEN
100
AcDbLine
 10
270.49999957208
 20
185.0785946738837
 30
0.0
 11
270.49999957208
 21
167.6785946738845
 31
0.0
  0
LINE
  5
EF7C86FDE
330
EF7C85532
100
AcDbEntity
  8
JISSEN
100
AcDbLine
 10
287.4980463278553
 20
185.0785946738837
 30
0.0
 11
287.4980463278553
 21
167.6785946738835
 31
0.0
  0
LINE
  5
EF7C86FDF
330
EF7C85532
100
AcDbEntity
  8
JISSEN
100
AcDbLine
 10
286.4980463278553
 20
185.0785946738837
 30
0.0
 11
286.4980463278553
 21
167.6785946738835
 31
0.0
  0
LINE
  5
EF7C86FE0
330
EF7C85532
100
AcDbEntity
  8
JISSEN
100
AcDbLine
 10
270.49999957208
 20
167.6785946738845
 30
0.0
 11
270.9999995720792
 21
167.6785946738845
 31
0.0
  0
LINE
  5
EF7C86FE1
330
EF7C85532
100
AcDbEntity
  8
JISSEN
100
AcDbLine
 10
271.4999995720783
 20
167.6785946738845
 30
0.0
 11
270.9999995720792
 21
167.6785946738845
 31
0.0
  0
LINE
  5
EF7C86FE2
330
EF7C85532
100
AcDbEntity
  8
JISSEN
100
AcDbLine
 10
286.4980463278553
 20
167.6785946738835
 30
0.0
 11
287.4980463278553
 21
167.6785946738835
 31
0.0
  0
LINE
  5
EF7C86FE3
330
EF7C85532
100
AcDbEntity
  8
JISSEN
100
AcDbLine
 10
260.7380752084685
 20
197.0666703102733
 30
0.0
 11
281.2619239356886
 21
197.0666703102751
 31
0.0
  0
LINE
  5
EF7C86FE4
330
EF7C85532
100
AcDbEntity
  8
JISSEN
100
AcDbLine
 10
262.9232609875205
 20
198.3285946738836
 30
0.0
 11
279.0769050326673
 21
198.3285946738843
 31
0.0
  0
LINE
  5
EF7C86FE5
330
EF7C85532
100
AcDbEntity
  8
JISSEN
100
AcDbLine
 10
260.7380752084685
 20
197.0666703102733
 30
0.0
 11
260.3634291230042
 21
185.0785946738837
 31
0.0
  0
LINE
  5
EF7C86FE6
330
EF7C85532
100
AcDbEntity
  8
SAISEN
100
AcDbLine
 10
261.9375610131053
 20
198.2661561149101
 30
0.0
 11
261.5254291230042
 21
185.0785946738836
 31
0.0
  0
LINE
  5
EF7C86FE7
330
EF7C85532
100
AcDbEntity
  8
JISSEN
100
AcDbLine
 10
261.9999995720785
 20
198.3285946738835
 30
0.0
 11
262.9232609875205
 21
198.3285946738836
 31
0.0
  0
LINE
  5
EF7C86FE8
330
EF7C85532
100
AcDbEntity
  8
JISSEN
100
AcDbLine
 10
261.9999995720785
 20
198.3285946738835
 30
0.0
 11
260.7380752084685
 21
197.0666703102733
 31
0.0
  0
LINE
  5
EF7C86FE9
330
EF7C85532
100
AcDbEntity
  8
JISSEN
100
AcDbLine
 10
281.2619239356886
 20
197.0666703102751
 30
0.0
 11
281.6365700211529
 21
185.0785946738836
 31
0.0
  0
LINE
  5
EF7C86FEA
330
EF7C85532
100
AcDbEntity
  8
SAISEN
100
AcDbLine
 10
280.0624381310519
 20
198.266156114912
 30
0.0
 11
280.474570021153
 21
185.0785946738837
 31
0.0
  0
LINE
  5
EF7C86FEB
330
EF7C85532
100
AcDbEntity
  8
JISSEN
100
AcDbLine
 10
279.9999995720785
 20
198.3285946738853
 30
0.0
 11
281.2619239356886
 21
197.0666703102751
 31
0.0
  0
LINE
  5
EF7C86FEC
330
EF7C85532
100
AcDbEntity
  8
JISSEN
100
AcDbLine
 10
279.0769050326671
 20
198.3285946738851
 30
0.0
 11
279.9999995720785
 21
198.3285946738853
 31
0.0
  0
LINE
  5
EF7C86FED
330
EF7C85532
100
AcDbEntity
  8
JISSEN
100
AcDbLine
 10
289.2499995720792
 20
185.0785946738837
 30
0.0
 11
289.4999995720792
 21
184.8285946738837
 31
0.0
  0
LWPOLYLINE
  5
EF7C873EB
330
EF7C85532
100
AcDbEntity
  8
JISSEN
100
AcDbPolyline
 90
        5
 70
     0
 43
0.0
 10
76.00008343801603
 20
154.0785941605558
 10
76.00008343801603
 20
151.4061658950718
 42
0.3813056827265855
 10
78.65987725244905
 20
148.4255183561463
 42
0.0206555680720094
 10
86.89698033491223
 20
147.8285941605561
 10
90.00008343801608
 20
147.8285941605561
  0
LWPOLYLINE
  5
EF7C873ED
330
EF7C85532
100
AcDbEntity
  8
JISSEN
100
AcDbPolyline
 90
        5
 70
     0
 43
0.0
 10
104.0000834380159
 20
154.0785941605558
 10
104.0000834380159
 20
151.4061658950718
 42
-0.3813056827265855
 10
101.3402896235829
 20
148.4255183561463
 42
-0.0206555680720094
 10
93.10318654111988
 20
147.8285941605561
 10
90.00008343801608
 20
147.8285941605561
  0
LWPOLYLINE
  5
EF7C873EE
330
EF7C85532
100
AcDbEntity
  8
JISSEN
100
AcDbPolyline
 90
        5
 70
     0
 43
0.0
 10
104.0000834380159
 20
94.07859416055595
 10
104.0000834380159
 20
91.40616589507185
 42
-0.3813056827265855
 10
101.3402896235831
 20
88.42551835614646
 42
-0.0206555680720094
 10
93.10318654111988
 20
87.82859416055627
 10
90.00008343801608
 20
87.82859416055623
  0
LWPOLYLINE
  5
EF7C873EF
330
EF7C85532
100
AcDbEntity
  8
JISSEN
100
AcDbPolyline
 90
        5
 70
     0
 43
0.0
 10
76.00008343801604
 20
94.07859416055595
 10
76.00008343801604
 20
91.40616589507185
 42
0.3813056827265855
 10
78.65987725244906
 20
88.42551835614646
 42
0.0206555680720094
 10
86.89698033491223
 20
87.82859416055627
 10
90.00008343801608
 20
87.82859416055623
  0
LINE
  5
EF7C87706
330
EF7C85532
100
AcDbEntity
  8
JISSEN
100
AcDbLine
 10
265.9250830100942
 20
143.339447982749
 30
0.0
 11
265.9250830100944
 21
154.0785946738836
 31
0.0
  0
LINE
  5
EF7C87707
330
EF7C85532
100
AcDbEntity
  8
JISSEN
100
AcDbLine
 10
267.3250830100943
 20
154.0785946738836
 30
0.0
 11
267.3250830100943
 21
146.914797109819
 31
0.0
  0
LINE
  5
EF7C87708
330
EF7C85532
100
AcDbEntity
  8
JISSEN
100
AcDbLine
 10
265.9250830100942
 20
139.0285946738844
 30
0.0
 11
265.9250830100942
 21
138.3801390160645
 31
0.0
  0
LINE
  5
EF7C87709
330
EF7C85532
100
AcDbEntity
  8
JISSEN
100
AcDbLine
 10
267.3250830100943
 20
139.0285946738844
 30
0.0
 11
267.3250830100943
 21
138.3801390160646
 31
0.0
  0
LINE
  5
EF7C8770A
330
EF7C85532
100
AcDbEntity
  8
JISSEN
100
AcDbLine
 10
267.2370757703038
 20
138.2785946738844
 30
0.0
 11
266.0130902498845
 21
138.2785946738844
 31
0.0
  0
ARC
  5
EF7C8770B
330
EF7C85532
100
AcDbEntity
  8
JISSEN
100
AcDbCircle
 10
266.0237563652143
 20
138.3780242166962
 30
0.0
 40
0.0999999999999943
100
AcDbArc
 50
179.9999999999836
 51
269.9999999999837
  0
ARC
  5
EF7C8770C
330
EF7C85532
100
AcDbEntity
  8
JISSEN
100
AcDbCircle
 10
267.2264096549744
 20
138.3780242166963
 30
0.0
 40
0.0999999999999943
100
AcDbArc
 50
270.0000000000195
 51
0.0000000000195413
  0
LINE
  5
EF7C8770D
330
EF7C85532
100
AcDbEntity
  8
JISSEN
100
AcDbLine
 10
266.5374221294563
 20
146.1080713227596
 30
0.0
 11
266.0483531207407
 21
143.3344231450928
 31
0.0
  0
LINE
  5
EF7C8770E
330
EF7C85532
100
AcDbEntity
  8
JISSEN
100
AcDbLine
 10
268.0250830100943
 20
139.0285946738844
 30
0.0
 11
265.2250830100943
 21
139.0285946738844
 31
0.0
  0
LINE
  5
EF7C8770F
330
EF7C85532
100
AcDbEntity
  8
JISSEN
100
AcDbLine
 10
261.0000830100939
 20
139.9344231450927
 30
0.0
 11
271.0000830100939
 21
139.9344231450927
 31
0.0
  0
LINE
  5
EF7C87710
330
EF7C85532
100
AcDbEntity
  8
JISSEN
100
AcDbLine
 10
270.2999995720779
 20
140.9344231450928
 30
0.0
 11
261.100083010094
 21
140.9344231450928
 31
0.0
  0
LINE
  5
EF7C87711
330
EF7C85532
100
AcDbEntity
  8
JISSEN
100
AcDbLine
 10
263.5000830100939
 20
143.0344231450928
 30
0.0
 11
270.2999995720779
 21
143.0344231450928
 31
0.0
  0
LINE
  5
EF7C87712
330
EF7C85532
100
AcDbEntity
  8
JISSEN
100
AcDbLine
 10
265.8805331945052
 20
143.3344231450928
 30
0.0
 11
266.0483531207407
 21
143.3344231450928
 31
0.0
  0
ARC
  5
EF7C87713
330
EF7C85532
100
AcDbEntity
  8
JISSEN
100
AcDbCircle
 10
265.2250830100943
 20
139.8285946738844
 30
0.0
 40
0.0999999999999943
100
AcDbArc
 50
90.00000000001628
 51
180.0000000000161
  0
ARC
  5
EF7C87714
330
EF7C85532
100
AcDbEntity
  8
JISSEN
100
AcDbCircle
 10
265.2250830100943
 20
139.1285946738844
 30
0.0
 40
0.0999999999999943
100
AcDbArc
 50
179.9999999999836
 51
269.9999999999837
  0
LINE
  5
EF7C87715
330
EF7C85532
100
AcDbEntity
  8
JISSEN
100
AcDbLine
 10
265.1250830100944
 20
139.8285946738844
 30
0.0
 11
265.1250830100944
 21
139.1285946738844
 31
0.0
  0
LINE
  5
EF7C87716
330
EF7C85532
100
AcDbEntity
  8
JISSEN
100
AcDbLine
 10
263.5000830100939
 20
143.3344231450926
 30
0.0
 11
263.5000830100939
 21
143.0344231450928
 31
0.0
  0
ARC
  5
EF7C87717
330
EF7C85532
100
AcDbEntity
  8
JISSEN
100
AcDbCircle
 10
261.1000830100938
 20
141.0344231450928
 30
0.0
 40
0.0999999999999943
100
AcDbArc
 50
180.0000000000161
 51
270.0000000000162
  0
LINE
  5
EF7C87718
330
EF7C85532
100
AcDbEntity
  8
JISSEN
100
AcDbLine
 10
261.0000830100939
 20
141.0344231450928
 30
0.0
 11
261.0000830100939
 21
143.6344231450926
 31
0.0
  0
LINE
  5
EF7C87719
330
EF7C85532
100
AcDbEntity
  8
JISSEN
100
AcDbLine
 10
263.5000830100939
 20
143.0344231450928
 30
0.0
 11
263.5000830100939
 21
140.9344231450928
 31
0.0
  0
LINE
  5
EF7C8771A
330
EF7C85532
100
AcDbEntity
  8
JISSEN
100
AcDbLine
 10
260.000083010094
 20
143.6344231450926
 30
0.0
 11
260.000083010094
 21
140.9344231450928
 31
0.0
  0
LINE
  5
EF7C8771B
330
EF7C85532
100
AcDbEntity
  8
JISSEN
100
AcDbLine
 10
261.0000830100939
 20
141.7344231450928
 30
0.0
 11
260.000083010094
 21
141.7344231450928
 31
0.0
  0
LINE
  5
EF7C8771C
330
EF7C85532
100
AcDbEntity
  8
JISSEN
100
AcDbLine
 10
261.0000830100939
 20
143.6344231450926
 30
0.0
 11
260.000083010094
 21
143.6344231450926
 31
0.0
  0
ARC
  5
EF7C8771D
330
EF7C85532
100
AcDbEntity
  8
JISSEN
100
AcDbCircle
 10
261.0000830100939
 20
140.9344231450928
 30
0.0
 40
1.0
100
AcDbArc
 50
180.0
 51
270.0
  0
LINE
  5
EF7C8771E
330
EF7C85532
100
AcDbEntity
  8
JISSEN
100
AcDbLine
 10
265.8805331945052
 20
143.3344231450928
 30
0.0
 11
263.5000830100939
 21
143.3344231450926
 31
0.0
  0
ARC
  5
EF7C8771F
330
EF7C85532
100
AcDbEntity
  8
JISSEN
100
AcDbCircle
 10
268.0250830100943
 20
139.1285946738844
 30
0.0
 40
0.0999999999999943
100
AcDbArc
 50
270.0000000000162
 51
0.0000000000162844
  0
LINE
  5
EF7C87720
330
EF7C85532
100
AcDbEntity
  8
JISSEN
100
AcDbLine
 10
268.1250830100942
 20
139.8285946738844
 30
0.0
 11
268.1250830100942
 21
139.1285946738844
 31
0.0
  0
ARC
  5
EF7C87721
330
EF7C85532
100
AcDbEntity
  8
JISSEN
100
AcDbCircle
 10
268.0250830100943
 20
139.8285946738844
 30
0.0
 40
0.0999999999999943
100
AcDbArc
 50
359.9999999999837
 51
89.99999999998371
  0
LWPOLYLINE
  5
EF7C87722
330
EF7C85532
100
AcDbEntity
  8
JISSEN
100
AcDbPolyline
 90
        2
 70
     0
 43
0.0
 10
270.2999995720779
 20
138.9651143181106
 42
-0.0164928212340712
 10
269.7762054901478
 20
139.0285946738843
  0
ARC
  5
EF7C87723
330
EF7C85532
100
AcDbEntity
  8
JISSEN
100
AcDbCircle
 10
267.5222298824684
 20
145.9344231450928
 30
0.0
 40
0.9999999999999856
100
AcDbArc
 50
89.99999999999836
 51
169.9999999999996
  0
LINE
  5
EF7C87724
330
EF7C85532
100
AcDbEntity
  8
JISSEN
100
AcDbLine
 10
270.2999995720779
 20
146.9344231450928
 30
0.0
 11
267.5222298824684
 21
146.9344231450928
 31
0.0
  0
ARC
  5
EF7C87725
330
EF7C85532
100
AcDbEntity
  8
JISSEN
100
AcDbCircle
 10
280.9999161340616
 20
140.9344231450928
 30
0.0
 40
1.0
100
AcDbArc
 50
270.0
 51
0.000000000000007
  0
LINE
  5
EF7C87727
330
EF7C85532
100
AcDbEntity
  8
JISSEN
100
AcDbLine
 10
273.8749161340613
 20
139.8285946738844
 30
0.0
 11
273.8749161340613
 21
139.1285946738844
 31
0.0
  0
LINE
  5
EF7C87728
330
EF7C85532
100
AcDbEntity
  8
JISSEN
100
AcDbLine
 10
276.8749161340613
 20
139.8285946738844
 30
0.0
 11
276.8749161340613
 21
139.1285946738844
 31
0.0
  0
LINE
  5
EF7C87729
330
EF7C85532
100
AcDbEntity
  8
JISSEN
100
AcDbLine
 10
273.9749161340613
 20
139.0285946738844
 30
0.0
 11
276.7749161340613
 21
139.0285946738844
 31
0.0
  0
ARC
  5
EF7C8772A
330
EF7C85532
100
AcDbEntity
  8
JISSEN
100
AcDbCircle
 10
274.7735894891813
 20
138.3780242166963
 30
0.0
 40
0.0999999999999943
100
AcDbArc
 50
179.9999999999803
 51
269.9999999999803
  0
ARC
  5
EF7C8772B
330
EF7C85532
100
AcDbEntity
  8
JISSEN
100
AcDbCircle
 10
276.7749161340613
 20
139.1285946738844
 30
0.0
 40
0.0999999999999943
100
AcDbArc
 50
270.0000000000162
 51
0.0000000000162915
  0
ARC
  5
EF7C8772C
330
EF7C85532
100
AcDbEntity
  8
JISSEN
100
AcDbCircle
 10
275.9762427789413
 20
138.3780242166962
 30
0.0
 40
0.0999999999999943
100
AcDbArc
 50
270.0000000000162
 51
0.0000000000162915
  0
LINE
  5
EF7C8772D
330
EF7C85532
100
AcDbEntity
  8
JISSEN
100
AcDbLine
 10
274.7629233738519
 20
138.2785946738844
 30
0.0
 11
275.9869088942711
 21
138.2785946738844
 31
0.0
  0
LINE
  5
EF7C8772E
330
EF7C85532
100
AcDbEntity
  8
JISSEN
100
AcDbLine
 10
274.6749161340614
 20
139.0285946738844
 30
0.0
 11
274.6749161340614
 21
138.3801390160646
 31
0.0
  0
LINE
  5
EF7C8772F
330
EF7C85532
100
AcDbEntity
  8
JISSEN
100
AcDbLine
 10
276.0749161340612
 20
139.0285946738844
 30
0.0
 11
276.0749161340612
 21
138.3801390160645
 31
0.0
  0
ARC
  5
EF7C87730
330
EF7C85532
100
AcDbEntity
  8
JISSEN
100
AcDbCircle
 10
273.9749161340613
 20
139.1285946738844
 30
0.0
 40
0.0999999999999943
100
AcDbArc
 50
179.9999999999836
 51
269.9999999999837
  0
LINE
  5
EF7C87731
330
EF7C85532
100
AcDbEntity
  8
JISSEN
100
AcDbLine
 10
274.6749161340614
 20
154.0785946738836
 30
0.0
 11
274.6749161340614
 21
146.914797109819
 31
0.0
  0
LINE
  5
EF7C87732
330
EF7C85532
100
AcDbEntity
  8
JISSEN
100
AcDbLine
 10
276.0749161340612
 20
143.339447982749
 30
0.0
 11
276.0749161340612
 21
154.0785946738836
 31
0.0
  0
LINE
  5
EF7C87733
330
EF7C85532
100
AcDbEntity
  8
JISSEN
100
AcDbLine
 10
275.4625770146993
 20
146.1080713227596
 30
0.0
 11
275.9516460234149
 21
143.3344231450928
 31
0.0
  0
LINE
  5
EF7C87734
330
EF7C85532
100
AcDbEntity
  8
JISSEN
100
AcDbLine
 10
278.4999161340617
 20
143.0344231450928
 30
0.0
 11
271.6999995720779
 21
143.0344231450928
 31
0.0
  0
LINE
  5
EF7C87735
330
EF7C85532
100
AcDbEntity
  8
JISSEN
100
AcDbLine
 10
271.6999995720779
 20
140.9344231450928
 30
0.0
 11
280.8999161340615
 21
140.9344231450928
 31
0.0
  0
LINE
  5
EF7C87736
330
EF7C85532
100
AcDbEntity
  8
JISSEN
100
AcDbLine
 10
280.9999161340616
 20
139.9344231450927
 30
0.0
 11
270.9999161340618
 21
139.9344231450927
 31
0.0
  0
LINE
  5
EF7C87737
330
EF7C85532
100
AcDbEntity
  8
JISSEN
100
AcDbLine
 10
276.1194659496502
 20
143.3344231450928
 30
0.0
 11
278.4999161340617
 21
143.3344231450926
 31
0.0
  0
LINE
  5
EF7C87738
330
EF7C85532
100
AcDbEntity
  8
JISSEN
100
AcDbLine
 10
280.9999161340616
 20
143.6344231450926
 30
0.0
 11
281.9999161340616
 21
143.6344231450926
 31
0.0
  0
LINE
  5
EF7C87739
330
EF7C85532
100
AcDbEntity
  8
JISSEN
100
AcDbLine
 10
280.9999161340616
 20
141.7344231450928
 30
0.0
 11
281.9999161340616
 21
141.7344231450928
 31
0.0
  0
LINE
  5
EF7C8773A
330
EF7C85532
100
AcDbEntity
  8
JISSEN
100
AcDbLine
 10
281.9999161340616
 20
143.6344231450926
 30
0.0
 11
281.9999161340616
 21
140.9344231450928
 31
0.0
  0
LINE
  5
EF7C8773B
330
EF7C85532
100
AcDbEntity
  8
JISSEN
100
AcDbLine
 10
278.4999161340617
 20
143.0344231450928
 30
0.0
 11
278.4999161340615
 21
140.9344231450928
 31
0.0
  0
LINE
  5
EF7C8773C
330
EF7C85532
100
AcDbEntity
  8
JISSEN
100
AcDbLine
 10
280.9999161340616
 20
141.0344231450928
 30
0.0
 11
280.9999161340616
 21
143.6344231450926
 31
0.0
  0
ARC
  5
EF7C8773D
330
EF7C85532
100
AcDbEntity
  8
JISSEN
100
AcDbCircle
 10
280.8999161340616
 20
141.0344231450928
 30
0.0
 40
0.0999999999999943
100
AcDbArc
 50
269.9999999999837
 51
359.9999999999837
  0
LINE
  5
EF7C8773E
330
EF7C85532
100
AcDbEntity
  8
JISSEN
100
AcDbLine
 10
278.4999161340617
 20
143.3344231450926
 30
0.0
 11
278.4999161340617
 21
143.0344231450928
 31
0.0
  0
ARC
  5
EF7C8773F
330
EF7C85532
100
AcDbEntity
  8
JISSEN
100
AcDbCircle
 10
276.7749161340613
 20
139.8285946738844
 30
0.0
 40
0.0999999999999943
100
AcDbArc
 50
359.9999999999837
 51
89.99999999998371
  0
LINE
  5
EF7C87740
330
EF7C85532
100
AcDbEntity
  8
JISSEN
100
AcDbLine
 10
276.1194659496502
 20
143.3344231450928
 30
0.0
 11
275.9516460234149
 21
143.3344231450928
 31
0.0
  0
ARC
  5
EF7C87741
330
EF7C85532
100
AcDbEntity
  8
JISSEN
100
AcDbCircle
 10
273.9749161340613
 20
139.8285946738844
 30
0.0
 40
0.0999999999999943
100
AcDbArc
 50
90.00000000001628
 51
180.0000000000163
  0
ARC
  5
EF7C87742
330
EF7C85532
100
AcDbEntity
  8
JISSEN
100
AcDbCircle
 10
274.477769261687
 20
145.9344231450928
 30
0.0
 40
0.9999999999999856
100
AcDbArc
 50
10.00000000000021
 51
90.00000000000161
  0
LINE
  5
EF7C87743
330
EF7C85532
100
AcDbEntity
  8
JISSEN
100
AcDbLine
 10
271.6999995720778
 20
146.9344231450928
 30
0.0
 11
274.477769261687
 21
146.9344231450928
 31
0.0
  0
LINE
  5
EF7C87745
330
EF7C85532
100
AcDbEntity
  8
JISSEN
100
AcDbLine
 10
271.6999995720779
 20
139.9344231450927
 30
0.0
 11
271.6999995720776
 21
154.0785946738836
 31
0.0
  0
LINE
  5
EF7C87746
330
EF7C85532
100
AcDbEntity
  8
JISSEN
100
AcDbLine
 10
270.2999995720779
 20
154.0785946738836
 30
0.0
 11
270.2999995720779
 21
139.9344231450927
 31
0.0
  0
LINE
  5
EF7C87747
330
EF7C85532
100
AcDbEntity
  8
JISSEN
100
AcDbLine
 10
272.4999995720778
 20
139.8285946738842
 30
0.0
 11
272.4999995720778
 21
139.1285946738842
 31
0.0
  0
LINE
  5
EF7C87748
330
EF7C85532
100
AcDbEntity
  8
JISSEN
100
AcDbLine
 10
269.4999995720778
 20
139.8285946738842
 30
0.0
 11
269.4999995720778
 21
139.1285946738842
 31
0.0
  0
ARC
  5
EF7C87749
330
EF7C85532
100
AcDbEntity
  8
JISSEN
100
AcDbCircle
 10
270.3986729271978
 20
138.3780242166962
 30
0.0
 40
0.0999999999999943
100
AcDbArc
 50
179.9999999999803
 51
269.9999999999803
  0
LINE
  5
EF7C8774A
330
EF7C85532
100
AcDbEntity
  8
JISSEN
100
AcDbLine
 10
269.5999995720778
 20
139.0285946738843
 30
0.0
 11
272.3999995720778
 21
139.0285946738843
 31
0.0
  0
ARC
  5
EF7C8774B
330
EF7C85532
100
AcDbEntity
  8
JISSEN
100
AcDbCircle
 10
269.5999995720778
 20
139.1285946738842
 30
0.0
 40
0.0999999999999943
100
AcDbArc
 50
179.9999999999836
 51
269.9999999999837
  0
LINE
  5
EF7C8774C
330
EF7C85532
100
AcDbEntity
  8
JISSEN
100
AcDbLine
 10
270.2999995720779
 20
139.0285946738843
 30
0.0
 11
270.2999995720779
 21
138.3801390160645
 31
0.0
  0
LINE
  5
EF7C8774D
330
EF7C85532
100
AcDbEntity
  8
JISSEN
100
AcDbLine
 10
271.6999995720779
 20
139.0285946738843
 30
0.0
 11
271.6999995720779
 21
138.3801390160645
 31
0.0
  0
LINE
  5
EF7C8774E
330
EF7C85532
100
AcDbEntity
  8
JISSEN
100
AcDbLine
 10
270.3880068118684
 20
138.2785946738843
 30
0.0
 11
271.6119923322875
 21
138.2785946738843
 31
0.0
  0
ARC
  5
EF7C8774F
330
EF7C85532
100
AcDbEntity
  8
JISSEN
100
AcDbCircle
 10
271.6013262169578
 20
138.3780242166962
 30
0.0
 40
0.0999999999999943
100
AcDbArc
 50
270.0000000000162
 51
0.0000000000162915
  0
ARC
  5
EF7C87750
330
EF7C85532
100
AcDbEntity
  8
JISSEN
100
AcDbCircle
 10
272.3999995720778
 20
139.1285946738842
 30
0.0
 40
0.0999999999999943
100
AcDbArc
 50
270.0000000000162
 51
0.0000000000162915
  0
ARC
  5
EF7C87751
330
EF7C85532
100
AcDbEntity
  8
JISSEN
100
AcDbCircle
 10
269.5999995720778
 20
139.8285946738842
 30
0.0
 40
0.0999999999999943
100
AcDbArc
 50
90.00000000001628
 51
180.0000000000163
  0
ARC
  5
EF7C87752
330
EF7C85532
100
AcDbEntity
  8
JISSEN
100
AcDbCircle
 10
272.3999995720778
 20
139.8285946738842
 30
0.0
 40
0.0999999999999943
100
AcDbArc
 50
359.9999999999837
 51
89.99999999998371
  0
LWPOLYLINE
  5
EF7C87753
330
EF7C85532
100
AcDbEntity
  8
JISSEN
100
AcDbPolyline
 90
        3
 70
     0
 43
0.0
 10
269.5167868494596
 20
139.0731361957537
 42
-0.0411272165836616
 10
268.250083010094
 20
139.4219335444344
 10
268.250083010094
 20
139.9344231450927
  0
LWPOLYLINE
  5
EF7C87754
330
EF7C85532
100
AcDbEntity
  8
JISSEN
100
AcDbPolyline
 90
        3
 70
     0
 43
0.0
 10
272.4832122946123
 20
139.073136195738
 42
0.0411272165863234
 10
273.7499161340616
 20
139.4219335444344
 10
273.7499161340616
 20
139.9344231450927
  0
LWPOLYLINE
  5
EF7C87755
330
EF7C85532
100
AcDbEntity
  8
JISSEN
100
AcDbPolyline
 90
        2
 70
     0
 43
0.0
 10
271.6999995720779
 20
138.9651143181106
 42
0.0164928212340676
 10
272.2237936540079
 20
139.0285946738843
  0
ARC
  5
EF7C87756
330
EF7C85532
100
AcDbEntity
  8
JISSEN
100
AcDbCircle
 10
261.0000830100939
 20
80.9344231450928
 30
0.0
 40
1.0
100
AcDbArc
 50
180.0
 51
270.0
  0
LWPOLYLINE
  5
EF7C87757
330
EF7C85532
100
AcDbEntity
  8
JISSEN
100
AcDbPolyline
 90
        3
 70
     0
 43
0.0
 10
272.4832122946123
 20
79.07313619573804
 42
0.0411272165863234
 10
273.7499161340616
 20
79.42193354443445
 10
273.7499161340616
 20
79.93442314509279
  0
LWPOLYLINE
  5
EF7C87758
330
EF7C85532
100
AcDbEntity
  8
JISSEN
100
AcDbPolyline
 90
        3
 70
     0
 43
0.0
 10
269.5167868494596
 20
79.07313619575382
 42
-0.0411272165836616
 10
268.250083010094
 20
79.42193354443445
 10
268.250083010094
 20
79.93442314509279
  0
LINE
  5
EF7C87759
330
EF7C85532
100
AcDbEntity
  8
JISSEN
100
AcDbLine
 10
269.4999995720778
 20
79.82859467388436
 30
0.0
 11
269.4999995720778
 21
79.12859467388438
 31
0.0
  0
LINE
  5
EF7C8775A
330
EF7C85532
100
AcDbEntity
  8
JISSEN
100
AcDbLine
 10
272.4999995720778
 20
79.82859467388436
 30
0.0
 11
272.4999995720778
 21
79.12859467388438
 31
0.0
  0
LINE
  5
EF7C8775B
330
EF7C85532
100
AcDbEntity
  8
JISSEN
100
AcDbLine
 10
276.8749161340613
 20
79.82859467388442
 30
0.0
 11
276.8749161340613
 21
79.12859467388443
 31
0.0
  0
LINE
  5
EF7C8775C
330
EF7C85532
100
AcDbEntity
  8
JISSEN
100
AcDbLine
 10
273.8749161340613
 20
79.82859467388442
 30
0.0
 11
273.8749161340613
 21
79.12859467388443
 31
0.0
  0
LINE
  5
EF7C8775D
330
EF7C85532
100
AcDbEntity
  8
JISSEN
100
AcDbLine
 10
268.1250830100942
 20
79.82859467388442
 30
0.0
 11
268.1250830100942
 21
79.12859467388443
 31
0.0
  0
LINE
  5
EF7C8775E
330
EF7C85532
100
AcDbEntity
  8
JISSEN
100
AcDbLine
 10
265.1250830100944
 20
79.82859467388442
 30
0.0
 11
265.1250830100944
 21
79.12859467388443
 31
0.0
  0
ARC
  5
EF7C8775F
330
EF7C85532
100
AcDbEntity
  8
JISSEN
100
AcDbCircle
 10
274.7735894891813
 20
78.3780242166963
 30
0.0
 40
0.0999999999999943
100
AcDbArc
 50
179.9999999999803
 51
269.9999999999803
  0
LINE
  5
EF7C87760
330
EF7C85532
100
AcDbEntity
  8
JISSEN
100
AcDbLine
 10
273.9749161340613
 20
79.02859467388442
 30
0.0
 11
276.7749161340613
 21
79.02859467388442
 31
0.0
  0
LINE
  5
EF7C87761
330
EF7C85532
100
AcDbEntity
  8
JISSEN
100
AcDbLine
 10
268.0250830100943
 20
79.02859467388442
 30
0.0
 11
265.2250830100943
 21
79.02859467388442
 31
0.0
  0
ARC
  5
EF7C87762
330
EF7C85532
100
AcDbEntity
  8
JISSEN
100
AcDbCircle
 10
267.2264096549744
 20
78.3780242166963
 30
0.0
 40
0.0999999999999943
100
AcDbArc
 50
270.0000000000195
 51
0.0000000000195413
  0
ARC
  5
EF7C87763
330
EF7C85532
100
AcDbEntity
  8
JISSEN
100
AcDbCircle
 10
265.2250830100943
 20
79.1285946738844
 30
0.0
 40
0.0999999999999943
100
AcDbArc
 50
179.9999999999836
 51
269.9999999999837
  0
ARC
  5
EF7C87764
330
EF7C85532
100
AcDbEntity
  8
JISSEN
100
AcDbCircle
 10
266.0237563652143
 20
78.37802421669628
 30
0.0
 40
0.0999999999999943
100
AcDbArc
 50
179.9999999999836
 51
269.9999999999837
  0
LINE
  5
EF7C87765
330
EF7C85532
100
AcDbEntity
  8
JISSEN
100
AcDbLine
 10
267.2370757703038
 20
78.27859467388444
 30
0.0
 11
266.0130902498845
 21
78.27859467388444
 31
0.0
  0
LINE
  5
EF7C87766
330
EF7C85532
100
AcDbEntity
  8
JISSEN
100
AcDbLine
 10
267.3250830100943
 20
79.02859467388442
 30
0.0
 11
267.3250830100943
 21
78.38013901606473
 31
0.0
  0
LINE
  5
EF7C87767
330
EF7C85532
100
AcDbEntity
  8
JISSEN
100
AcDbLine
 10
265.9250830100942
 20
79.02859467388442
 30
0.0
 11
265.9250830100942
 21
78.3801390160647
 31
0.0
  0
LWPOLYLINE
  5
EF7C87768
330
EF7C85532
100
AcDbEntity
  8
JISSEN
100
AcDbPolyline
 90
        2
 70
     0
 43
0.0
 10
270.2999995720779
 20
78.96511431811068
 42
-0.0164928212340712
 10
269.7762054901478
 20
79.02859467388434
  0
LWPOLYLINE
  5
EF7C87769
330
EF7C85532
100
AcDbEntity
  8
JISSEN
100
AcDbPolyline
 90
        2
 70
     0
 43
0.0
 10
271.6999995720779
 20
78.96511431811068
 42
0.0164928212340676
 10
272.2237936540079
 20
79.02859467388434
  0
ARC
  5
EF7C8776A
330
EF7C85532
100
AcDbEntity
  8
JISSEN
100
AcDbCircle
 10
272.3999995720778
 20
79.12859467388435
 30
0.0
 40
0.0999999999999943
100
AcDbArc
 50
270.0000000000162
 51
0.0000000000162915
  0
ARC
  5
EF7C8776B
330
EF7C85532
100
AcDbEntity
  8
JISSEN
100
AcDbCircle
 10
271.6013262169578
 20
78.3780242166962
 30
0.0
 40
0.0999999999999943
100
AcDbArc
 50
270.0000000000162
 51
0.0000000000162915
  0
LINE
  5
EF7C8776C
330
EF7C85532
100
AcDbEntity
  8
JISSEN
100
AcDbLine
 10
270.3880068118684
 20
78.27859467388439
 30
0.0
 11
271.6119923322875
 21
78.27859467388439
 31
0.0
  0
LINE
  5
EF7C8776D
330
EF7C85532
100
AcDbEntity
  8
JISSEN
100
AcDbLine
 10
271.6999995720779
 20
79.02859467388434
 30
0.0
 11
271.6999995720779
 21
78.38013901606466
 31
0.0
  0
LINE
  5
EF7C8776E
330
EF7C85532
100
AcDbEntity
  8
JISSEN
100
AcDbLine
 10
270.2999995720779
 20
79.02859467388434
 30
0.0
 11
270.2999995720779
 21
78.38013901606467
 31
0.0
  0
ARC
  5
EF7C8776F
330
EF7C85532
100
AcDbEntity
  8
JISSEN
100
AcDbCircle
 10
269.5999995720778
 20
79.12859467388435
 30
0.0
 40
0.0999999999999943
100
AcDbArc
 50
179.9999999999836
 51
269.9999999999837
  0
LINE
  5
EF7C87770
330
EF7C85532
100
AcDbEntity
  8
JISSEN
100
AcDbLine
 10
269.5999995720778
 20
79.02859467388434
 30
0.0
 11
272.3999995720778
 21
79.02859467388434
 31
0.0
  0
ARC
  5
EF7C87771
330
EF7C85532
100
AcDbEntity
  8
JISSEN
100
AcDbCircle
 10
270.3986729271978
 20
78.37802421669625
 30
0.0
 40
0.0999999999999943
100
AcDbArc
 50
179.9999999999803
 51
269.9999999999803
  0
ARC
  5
EF7C87772
330
EF7C85532
100
AcDbEntity
  8
JISSEN
100
AcDbCircle
 10
273.9749161340613
 20
79.1285946738844
 30
0.0
 40
0.0999999999999943
100
AcDbArc
 50
179.9999999999836
 51
269.9999999999837
  0
LINE
  5
EF7C87773
330
EF7C85532
100
AcDbEntity
  8
JISSEN
100
AcDbLine
 10
274.6749161340614
 20
79.02859467388442
 30
0.0
 11
274.6749161340614
 21
78.38013901606473
 31
0.0
  0
ARC
  5
EF7C87774
330
EF7C85532
100
AcDbEntity
  8
JISSEN
100
AcDbCircle
 10
268.0250830100943
 20
79.1285946738844
 30
0.0
 40
0.0999999999999943
100
AcDbArc
 50
270.0000000000162
 51
0.0000000000162844
  0
LINE
  5
EF7C87775
330
EF7C85532
100
AcDbEntity
  8
JISSEN
100
AcDbLine
 10
276.0749161340612
 20
79.02859467388442
 30
0.0
 11
276.0749161340612
 21
78.3801390160647
 31
0.0
  0
LINE
  5
EF7C87776
330
EF7C85532
100
AcDbEntity
  8
JISSEN
100
AcDbLine
 10
274.7629233738519
 20
78.27859467388444
 30
0.0
 11
275.9869088942711
 21
78.27859467388444
 31
0.0
  0
ARC
  5
EF7C87777
330
EF7C85532
100
AcDbEntity
  8
JISSEN
100
AcDbCircle
 10
275.9762427789413
 20
78.37802421669628
 30
0.0
 40
0.0999999999999943
100
AcDbArc
 50
270.0000000000162
 51
0.0000000000162915
  0
ARC
  5
EF7C87778
330
EF7C85532
100
AcDbEntity
  8
JISSEN
100
AcDbCircle
 10
276.7749161340613
 20
79.1285946738844
 30
0.0
 40
0.0999999999999943
100
AcDbArc
 50
270.0000000000162
 51
0.0000000000162915
  0
LINE
  5
EF7C87779
330
EF7C85532
100
AcDbEntity
  8
JISSEN
100
AcDbLine
 10
270.2999995720779
 20
94.07859467388375
 30
0.0
 11
270.2999995720779
 21
79.9344231450928
 31
0.0
  0
LINE
  5
EF7C8777A
330
EF7C85532
100
AcDbEntity
  8
JISSEN
100
AcDbLine
 10
271.6999995720779
 20
79.9344231450928
 30
0.0
 11
271.6999995720776
 21
94.07859467388375
 31
0.0
  0
LINE
  5
EF7C8777B
330
EF7C85532
100
AcDbEntity
  8
JISSEN
100
AcDbLine
 10
276.0749161340612
 20
83.33944798274908
 30
0.0
 11
276.0749161340612
 21
94.07859467388375
 31
0.0
  0
LINE
  5
EF7C8777C
330
EF7C85532
100
AcDbEntity
  8
JISSEN
100
AcDbLine
 10
274.6749161340614
 20
94.07859467388375
 30
0.0
 11
274.6749161340614
 21
86.91479710981907
 31
0.0
  0
LINE
  5
EF7C8777D
330
EF7C85532
100
AcDbEntity
  8
JISSEN
100
AcDbLine
 10
267.3250830100943
 20
94.07859467388375
 30
0.0
 11
267.3250830100943
 21
86.91479710981907
 31
0.0
  0
LINE
  5
EF7C8777E
330
EF7C85532
100
AcDbEntity
  8
JISSEN
100
AcDbLine
 10
265.9250830100942
 20
83.33944798274908
 30
0.0
 11
265.9250830100944
 21
94.07859467388375
 31
0.0
  0
LINE
  5
EF7C8777F
330
EF7C85532
100
AcDbEntity
  8
JISSEN
100
AcDbLine
 10
271.6999995720779
 20
80.9344231450928
 30
0.0
 11
280.8999161340615
 21
80.93442314509287
 31
0.0
  0
LINE
  5
EF7C87780
330
EF7C85532
100
AcDbEntity
  8
JISSEN
100
AcDbLine
 10
278.4999161340617
 20
83.03442314509283
 30
0.0
 11
271.6999995720779
 21
83.03442314509283
 31
0.0
  0
ARC
  5
EF7C87781
330
EF7C85532
100
AcDbEntity
  8
JISSEN
100
AcDbCircle
 10
274.477769261687
 20
85.93442314509283
 30
0.0
 40
0.9999999999999856
100
AcDbArc
 50
10.00000000000021
 51
90.00000000000161
  0
LINE
  5
EF7C87782
330
EF7C85532
100
AcDbEntity
  8
JISSEN
100
AcDbLine
 10
280.9999161340616
 20
79.93442314509279
 30
0.0
 11
270.9999161340618
 21
79.93442314509279
 31
0.0
  0
LINE
  5
EF7C87783
330
EF7C85532
100
AcDbEntity
  8
JISSEN
100
AcDbLine
 10
266.5374221294563
 20
86.10807132275978
 30
0.0
 11
266.0483531207407
 21
83.33442314509289
 31
0.0
  0
LINE
  5
EF7C87784
330
EF7C85532
100
AcDbEntity
  8
JISSEN
100
AcDbLine
 10
270.2999995720779
 20
80.9344231450928
 30
0.0
 11
261.100083010094
 21
80.93442314509287
 31
0.0
  0
LINE
  5
EF7C87785
330
EF7C85532
100
AcDbEntity
  8
JISSEN
100
AcDbLine
 10
263.5000830100939
 20
83.03442314509283
 30
0.0
 11
270.2999995720779
 21
83.03442314509283
 31
0.0
  0
LINE
  5
EF7C87786
330
EF7C85532
100
AcDbEntity
  8
JISSEN
100
AcDbLine
 10
261.0000830100939
 20
79.93442314509279
 30
0.0
 11
271.0000830100939
 21
79.93442314509279
 31
0.0
  0
LINE
  5
EF7C87787
330
EF7C85532
100
AcDbEntity
  8
JISSEN
100
AcDbLine
 10
265.8805331945052
 20
83.33442314509284
 30
0.0
 11
263.5000830100939
 21
83.33442314509278
 31
0.0
  0
LINE
  5
EF7C87788
330
EF7C85532
100
AcDbEntity
  8
JISSEN
100
AcDbLine
 10
261.0000830100939
 20
83.63442314509279
 30
0.0
 11
260.000083010094
 21
83.63442314509279
 31
0.0
  0
LINE
  5
EF7C87789
330
EF7C85532
100
AcDbEntity
  8
JISSEN
100
AcDbLine
 10
261.0000830100939
 20
81.7344231450928
 30
0.0
 11
260.000083010094
 21
81.7344231450928
 31
0.0
  0
LINE
  5
EF7C8778A
330
EF7C85532
100
AcDbEntity
  8
JISSEN
100
AcDbLine
 10
260.000083010094
 20
83.63442314509279
 30
0.0
 11
260.000083010094
 21
80.9344231450928
 31
0.0
  0
LINE
  5
EF7C8778B
330
EF7C85532
100
AcDbEntity
  8
JISSEN
100
AcDbLine
 10
263.5000830100939
 20
83.03442314509283
 30
0.0
 11
263.5000830100939
 21
80.93442314509287
 31
0.0
  0
LINE
  5
EF7C8778C
330
EF7C85532
100
AcDbEntity
  8
JISSEN
100
AcDbLine
 10
261.0000830100939
 20
81.03442314509283
 30
0.0
 11
261.0000830100939
 21
83.63442314509279
 31
0.0
  0
ARC
  5
EF7C8778D
330
EF7C85532
100
AcDbEntity
  8
JISSEN
100
AcDbCircle
 10
261.1000830100938
 20
81.03442314509289
 30
0.0
 40
0.0999999999999943
100
AcDbArc
 50
180.0000000000161
 51
270.0000000000162
  0
LINE
  5
EF7C8778E
330
EF7C85532
100
AcDbEntity
  8
JISSEN
100
AcDbLine
 10
263.5000830100939
 20
83.33442314509278
 30
0.0
 11
263.5000830100939
 21
83.03442314509283
 31
0.0
  0
ARC
  5
EF7C8778F
330
EF7C85532
100
AcDbEntity
  8
JISSEN
100
AcDbCircle
 10
265.2250830100943
 20
79.82859467388445
 30
0.0
 40
0.0999999999999943
100
AcDbArc
 50
90.00000000001628
 51
180.0000000000161
  0
LINE
  5
EF7C87790
330
EF7C85532
100
AcDbEntity
  8
JISSEN
100
AcDbLine
 10
265.8805331945052
 20
83.33442314509284
 30
0.0
 11
266.0483531207407
 21
83.33442314509284
 31
0.0
  0
ARC
  5
EF7C87791
330
EF7C85532
100
AcDbEntity
  8
JISSEN
100
AcDbCircle
 10
272.3999995720778
 20
79.82859467388441
 30
0.0
 40
0.0999999999999943
100
AcDbArc
 50
359.9999999999837
 51
89.99999999998371
  0
ARC
  5
EF7C87792
330
EF7C85532
100
AcDbEntity
  8
JISSEN
100
AcDbCircle
 10
269.5999995720778
 20
79.82859467388441
 30
0.0
 40
0.0999999999999943
100
AcDbArc
 50
90.00000000001628
 51
180.0000000000163
  0
ARC
  5
EF7C87793
330
EF7C85532
100
AcDbEntity
  8
JISSEN
100
AcDbCircle
 10
273.9749161340613
 20
79.82859467388445
 30
0.0
 40
0.0999999999999943
100
AcDbArc
 50
90.00000000001628
 51
180.0000000000163
  0
ARC
  5
EF7C87794
330
EF7C85532
100
AcDbEntity
  8
JISSEN
100
AcDbCircle
 10
268.0250830100943
 20
79.82859467388445
 30
0.0
 40
0.0999999999999943
100
AcDbArc
 50
359.9999999999837
 51
89.99999999998371
  0
ARC
  5
EF7C87795
330
EF7C85532
100
AcDbEntity
  8
JISSEN
100
AcDbCircle
 10
267.5222298824684
 20
85.93442314509283
 30
0.0
 40
0.9999999999999856
100
AcDbArc
 50
89.99999999999836
 51
169.9999999999996
  0
LINE
  5
EF7C87796
330
EF7C85532
100
AcDbEntity
  8
JISSEN
100
AcDbLine
 10
270.2999995720779
 20
86.93442314509281
 30
0.0
 11
267.5222298824684
 21
86.93442314509281
 31
0.0
  0
LINE
  5
EF7C87797
330
EF7C85532
100
AcDbEntity
  8
JISSEN
100
AcDbLine
 10
271.6999995720778
 20
86.93442314509281
 30
0.0
 11
274.477769261687
 21
86.93442314509281
 31
0.0
  0
LINE
  5
EF7C87798
330
EF7C85532
100
AcDbEntity
  8
JISSEN
100
AcDbLine
 10
275.4625770146993
 20
86.10807132275978
 30
0.0
 11
275.9516460234149
 21
83.33442314509289
 31
0.0
  0
ARC
  5
EF7C87799
330
EF7C85532
100
AcDbEntity
  8
JISSEN
100
AcDbCircle
 10
280.9999161340616
 20
80.9344231450928
 30
0.0
 40
1.0
100
AcDbArc
 50
270.0
 51
0.000000000000007
  0
LINE
  5
EF7C8779A
330
EF7C85532
100
AcDbEntity
  8
JISSEN
100
AcDbLine
 10
276.1194659496502
 20
83.33442314509284
 30
0.0
 11
275.9516460234149
 21
83.33442314509284
 31
0.0
  0
ARC
  5
EF7C8779B
330
EF7C85532
100
AcDbEntity
  8
JISSEN
100
AcDbCircle
 10
276.7749161340613
 20
79.82859467388445
 30
0.0
 40
0.0999999999999943
100
AcDbArc
 50
359.9999999999837
 51
89.99999999998371
  0
LINE
  5
EF7C8779C
330
EF7C85532
100
AcDbEntity
  8
JISSEN
100
AcDbLine
 10
278.4999161340617
 20
83.33442314509278
 30
0.0
 11
278.4999161340617
 21
83.03442314509283
 31
0.0
  0
ARC
  5
EF7C8779D
330
EF7C85532
100
AcDbEntity
  8
JISSEN
100
AcDbCircle
 10
280.8999161340616
 20
81.03442314509289
 30
0.0
 40
0.0999999999999943
100
AcDbArc
 50
269.9999999999837
 51
359.9999999999837
  0
LINE
  5
EF7C8779E
330
EF7C85532
100
AcDbEntity
  8
JISSEN
100
AcDbLine
 10
280.9999161340616
 20
81.03442314509283
 30
0.0
 11
280.9999161340616
 21
83.63442314509279
 31
0.0
  0
LINE
  5
EF7C8779F
330
EF7C85532
100
AcDbEntity
  8
JISSEN
100
AcDbLine
 10
278.4999161340617
 20
83.03442314509283
 30
0.0
 11
278.4999161340615
 21
80.93442314509287
 31
0.0
  0
LINE
  5
EF7C877A0
330
EF7C85532
100
AcDbEntity
  8
JISSEN
100
AcDbLine
 10
281.9999161340616
 20
83.63442314509279
 30
0.0
 11
281.9999161340616
 21
80.9344231450928
 31
0.0
  0
LINE
  5
EF7C877A1
330
EF7C85532
100
AcDbEntity
  8
JISSEN
100
AcDbLine
 10
280.9999161340616
 20
81.7344231450928
 30
0.0
 11
281.9999161340616
 21
81.7344231450928
 31
0.0
  0
LINE
  5
EF7C877A2
330
EF7C85532
100
AcDbEntity
  8
JISSEN
100
AcDbLine
 10
280.9999161340616
 20
83.63442314509279
 30
0.0
 11
281.9999161340616
 21
83.63442314509279
 31
0.0
  0
LINE
  5
EF7C877A3
330
EF7C85532
100
AcDbEntity
  8
JISSEN
100
AcDbLine
 10
276.1194659496502
 20
83.33442314509284
 30
0.0
 11
278.4999161340617
 21
83.33442314509278
 31
0.0
  0
TEXT
  5
EF7C877A4
330
EF7C85532
100
AcDbEntity
  8
SUNPOU
100
AcDbText
 10
302.1070935558129
 20
7.849423898685245
 30
0.0
 40
3.0
  1
ZN   シーリングプレート作動状態
  7
K
100
AcDbText
  0
TEXT
  5
EF7C877A7
330
EF7C85532
100
AcDbEntity
  8
SUNPOU
100
AcDbText
 10
302.1070935558129
 20
2.849423898685244
 30
0.0
 40
3.0
  1
尺度　1/1
  7
K
100
AcDbText
  0
ARC
  5
EF7C879E1
330
EF7C85532
100
AcDbEntity
  8
JISSEN
100
AcDbCircle
 10
90.00008343801608
 20
53.58939753381783
 30
0.0
 40
17.0
100
AcDbArc
 50
338.4565193352693
 51
81.54348066473067
  0
ARC
  5
EF7C879E2
330
EF7C85532
100
AcDbEntity
  8
JISSEN
100
AcDbCircle
 10
90.00008343801608
 20
53.58939753381783
 30
0.0
 40
17.5
100
AcDbArc
 50
338.2132107017378
 51
81.7867892982637
  0
ARC
  5
EF7C879E3
330
EF7C85532
100
AcDbEntity
  8
JISSEN
100
AcDbCircle
 10
90.00008343801608
 20
53.58939753381783
 30
0.0
 40
17.0
100
AcDbArc
 50
98.45651933527262
 51
201.5434806647305
  0
ARC
  5
EF7C879E4
330
EF7C85532
100
AcDbEntity
  8
JISSEN
100
AcDbCircle
 10
90.00008343801608
 20
53.58939753381783
 30
0.0
 40
17.5
100
AcDbArc
 50
98.2132107017396
 51
201.7867892982621
  0
CIRCLE
  5
EF7C879E5
330
EF7C85532
100
AcDbEntity
  8
JISSEN
100
AcDbCircle
 10
90.00008343801608
 20
53.58939753381783
 30
0.0
 40
15.14999999999998
  0
CIRCLE
  5
EF7C879E6
330
EF7C85532
100
AcDbEntity
  8
JISSEN
100
AcDbCircle
 10
90.00008343801608
 20
53.58939753381783
 30
0.0
 40
14.89999999999997
  0
CIRCLE
  5
EF7C879E7
330
EF7C85532
100
AcDbEntity
  8
JISSEN
100
AcDbCircle
 10
90.00008343801608
 20
53.58939753381783
 30
0.0
 40
14.00000000000001
  0
TEXT
  5
EF7C879E8
330
EF7C85532
100
AcDbEntity
  8
JISSEN
100
AcDbText
 10
97.79332443299137
 20
61.39946683768231
 30
0.0
 40
2.5
  1
S
 50
140.3276710484722
 41
0.85
  7
ROMANS
100
AcDbText
  0
ARC
  5
EF7C879E9
330
EF7C85532
100
AcDbEntity
  8
JISSEN
100
AcDbCircle
 10
90.00008343801608
 20
53.58939753381783
 30
0.0
 40
17.0
100
AcDbArc
 50
218.4565193352711
 51
321.5434806647286
  0
ARC
  5
EF7C879EA
330
EF7C85532
100
AcDbEntity
  8
JISSEN
100
AcDbCircle
 10
90.00008343801608
 20
53.58939753381783
 30
0.0
 40
17.5
100
AcDbArc
 50
218.2132107017385
 51
321.7867892982611
  0
LINE
  5
EF7C879EB
330
EF7C85532
100
AcDbEntity
  8
TENSEN
100
AcDbLine
 10
93.98519710098986
 20
46.0814771098136
 30
0.0
 11
95.15728935480565
 21
43.87326522040059
 31
0.0
  0
LINE
  5
EF7C879EC
330
EF7C85532
100
AcDbEntity
  8
TENSEN
100
AcDbLine
 10
85.80180392615488
 20
46.19856205058004
 30
0.0
 11
84.567015834431
 21
44.02478690845128
 31
0.0
  0
ARC
  5
EF7C879ED
330
EF7C85532
100
AcDbEntity
  8
JISSEN
100
AcDbCircle
 10
90.00008343801608
 20
53.58939753381783
 30
0.0
 40
16.25
100
AcDbArc
 50
203.1423515846492
 51
216.8576484153515
  0
ARC
  5
EF7C879EE
330
EF7C85532
100
AcDbEntity
  8
TENSEN
100
AcDbCircle
 10
90.00008343801608
 20
53.58939753381783
 30
0.0
 40
8.5
100
AcDbArc
 50
240.4017547742377
 51
297.9588237526551
  0
ARC
  5
EF7C879EF
330
EF7C85532
100
AcDbEntity
  8
JISSEN
100
AcDbCircle
 10
76.59793516076291
 20
43.54226254146776
 30
0.0
 40
0.5
100
AcDbArc
 50
299.9999999999998
 51
36.85764841535291
  0
LINE
  5
EF7C879F0
330
EF7C85532
100
AcDbEntity
  8
JISSEN
100
AcDbLine
 10
76.25008343801653
 20
42.76407998651245
 30
0.0
 11
76.84793516076286
 21
43.10924983957554
 31
0.0
  0
ARC
  5
EF7C879F1
330
EF7C85532
100
AcDbEntity
  8
JISSEN
100
AcDbCircle
 10
90.00008343801608
 20
39.58939753381782
 30
0.0
 40
2.25
100
AcDbArc
 50
206.8557628338706
 51
333.1442371661291
  0
ARC
  5
EF7C879F2
330
EF7C85532
100
AcDbEntity
  8
TENSEN
100
AcDbCircle
 10
90.00008343801608
 20
53.58939753381783
 30
0.0
 40
11.0
100
AcDbArc
 50
240.4017547742377
 51
297.9588237526551
  0
LINE
  5
EF7C879F3
330
EF7C85532
100
AcDbEntity
  8
JISSEN
100
AcDbLine
 10
83.77665591928263
 20
47.84204753615978
 30
0.0
 11
81.83379101564019
 21
46.26874655853518
 31
0.0
  0
LINE
  5
EF7C879F4
330
EF7C85532
100
AcDbEntity
  8
JISSEN
100
AcDbLine
 10
83.0844034891278
 20
48.69690809376245
 30
0.0
 11
81.14153858548537
 21
47.12360711613786
 31
0.0
  0
LINE
  5
EF7C879F5
330
EF7C85532
100
AcDbEntity
  8
JISSEN
100
AcDbLine
 10
83.43052970420519
 20
48.26947781496112
 30
0.0
 11
81.48766480056275
 21
46.69617683733653
 31
0.0
  0
LINE
  5
EF7C879F6
330
EF7C85532
100
AcDbEntity
  8
JISSEN
100
AcDbLine
 10
80.92851870683757
 20
47.38666475856549
 30
0.0
 11
82.04681089428801
 21
46.00568891610755
 31
0.0
  0
TEXT
  5
EF7C879F7
330
EF7C85532
100
AcDbEntity
  8
JISSEN
100
AcDbText
 10
79.49418481240275
 20
50.21925186852906
 30
0.0
 40
2.5
  1
N
 50
293.0513929912536
 41
0.85
  7
ROMANS
100
AcDbText
  0
TEXT
  5
EF7C879F8
330
EF7C85532
100
AcDbEntity
  8
JISSEN
100
AcDbText
 10
80.62460740568496
 20
59.40594607260892
 30
0.0
 40
2.5
  1
U
 50
243.4503983591117
 41
0.85
  7
ROMANS
100
AcDbText
  0
TEXT
  5
EF7C879F9
330
EF7C85532
100
AcDbEntity
  8
JISSEN
100
AcDbText
 10
82.03881249267771
 20
61.2281116056914
 30
0.0
 40
2.5
  1
J
 50
231.4503983591098
 41
0.85
  7
ROMANS
100
AcDbText
  0
ARC
  5
EF7C879FA
330
EF7C85532
100
AcDbEntity
  8
JISSEN
100
AcDbCircle
 10
74.5979351607628
 20
47.00636415660548
 30
0.0
 40
0.5
100
AcDbArc
 50
23.14235158465004
 51
119.9999999999998
  0
LINE
  5
EF7C879FB
330
EF7C85532
100
AcDbEntity
  8
JISSEN
100
AcDbLine
 10
74.3479351607628
 20
47.43937685849769
 30
0.0
 11
73.75008343801642
 21
47.09420700543459
 31
0.0
  0
TEXT
  5
EF7C879FC
330
EF7C85532
100
AcDbEntity
  8
JISSEN
100
AcDbText
 10
79.02307122024746
 20
52.47719678400343
 30
0.0
 40
2.5
  1
Z
 50
281.0513929912558
 41
0.85
  7
ROMANS
100
AcDbText
  0
ARC
  5
EF7C879FD
330
EF7C85532
100
AcDbEntity
  8
JISSEN
100
AcDbCircle
 10
77.87572778503397
 20
60.58939753381783
 30
0.0
 40
2.25
100
AcDbArc
 50
86.85576283387275
 51
213.1442371661295
  0
CIRCLE
  5
EF7C879FE
330
EF7C85532
100
AcDbEntity
  8
JISSEN
100
AcDbCircle
 10
90.00008343801608
 20
53.58939753381783
 30
0.0
 40
3.0
  0
LINE
  5
EF7C879FF
330
EF7C85532
100
AcDbEntity
  8
JISSEN
100
AcDbLine
 10
82.87138361047999
 20
48.95996573619009
 30
0.0
 11
83.98967579793042
 21
47.57898989373216
 31
0.0
  0
TEXT
  5
EF7C87A00
330
EF7C85532
100
AcDbEntity
  8
JISSEN
100
AcDbText
 10
83.80096332239828
 20
62.71642867921614
 30
0.0
 40
2.5
  1
N
 50
219.4503983591101
 41
0.85
  7
ROMANS
100
AcDbText
  0
TEXT
  5
EF7C87A01
330
EF7C85532
100
AcDbEntity
  8
JISSEN
100
AcDbText
 10
85.83404544784997
 20
63.8058506953324
 30
0.0
 40
2.5
  1
E
 50
207.4503983591097
 41
0.85
  7
ROMANS
100
AcDbText
  0
TEXT
  5
EF7C87A02
330
EF7C85532
100
AcDbEntity
  8
JISSEN
100
AcDbText
 10
88.04920342434014
 20
64.44876468430905
 30
0.0
 40
2.5
  1
S
 50
195.4503983591094
 41
0.85
  7
ROMANS
100
AcDbText
  0
TEXT
  5
EF7C87A03
330
EF7C85532
100
AcDbEntity
  8
JISSEN
100
AcDbText
 10
95.99921870482114
 20
62.84910399717318
 30
0.0
 40
2.5
  1
P
 50
152.327671048472
 41
0.85
  7
ROMANS
100
AcDbText
  0
ARC
  5
EF7C87A04
330
EF7C85532
100
AcDbEntity
  8
JISSEN
100
AcDbCircle
 10
90.00008343801608
 20
53.58939753381783
 30
0.0
 40
16.25
100
AcDbArc
 50
323.1423515846477
 51
336.8576484153504
  0
LINE
  5
EF7C87A05
330
EF7C85532
100
AcDbEntity
  8
JISSEN
100
AcDbLine
 10
103.7500834380155
 20
42.7640799865124
 30
0.0
 11
103.1522317152692
 21
43.1092498395755
 31
0.0
  0
ARC
  5
EF7C87A06
330
EF7C85532
100
AcDbEntity
  8
JISSEN
100
AcDbCircle
 10
103.4022317152692
 20
43.54226254146771
 30
0.0
 40
0.5
100
AcDbArc
 50
143.1423515846472
 51
239.9999999999999
  0
LINE
  5
EF7C87A07
330
EF7C85532
100
AcDbEntity
  8
TENSEN
100
AcDbLine
 10
98.19563998524694
 20
55.84391585956752
 30
0.0
 11
100.6060977932559
 21
56.50700948478803
 31
0.0
  0
ARC
  5
EF7C87A08
330
EF7C85532
100
AcDbEntity
  8
TENSEN
100
AcDbCircle
 10
90.00008343801608
 20
53.58939753381783
 30
0.0
 40
11.0
100
AcDbArc
 50
319.9448265292403
 51
15.38106259382903
  0
ARC
  5
EF7C87A09
330
EF7C85532
100
AcDbEntity
  8
TENSEN
100
AcDbCircle
 10
90.00008343801608
 20
53.58939753381783
 30
0.0
 40
8.5
100
AcDbArc
 50
319.9448265292403
 51
15.38106259382903
  0
LINE
  5
EF7C87A0A
330
EF7C85532
100
AcDbEntity
  8
TENSEN
100
AcDbLine
 10
96.50619687391225
 20
48.1194351976357
 30
0.0
 11
98.41975964917589
 21
46.51062274581742
 31
0.0
  0
LINE
  5
EF7C87A0B
330
EF7C85532
100
AcDbEntity
  8
JISSEN
100
AcDbLine
 10
105.6522317152693
 20
47.43937685849766
 30
0.0
 11
106.2500834380156
 21
47.09420700543455
 31
0.0
  0
ARC
  5
EF7C87A0C
330
EF7C85532
100
AcDbEntity
  8
JISSEN
100
AcDbCircle
 10
105.4022317152693
 20
47.00636415660542
 30
0.0
 40
0.5
100
AcDbArc
 50
59.99999999999997
 51
156.8576484153498
  0
ARC
  5
EF7C87A0D
330
EF7C85532
100
AcDbEntity
  8
JISSEN
100
AcDbCircle
 10
102.1244390909981
 20
60.58939753381783
 30
0.0
 40
2.25
100
AcDbArc
 50
326.8557628338703
 51
93.14423716612724
  0
TEXT
  5
EF7C87A0E
330
EF7C85532
100
AcDbEntity
  8
JISSEN
100
AcDbText
 10
99.24682813356184
 20
59.60849217274202
 30
0.0
 40
2.5
  1
S
 50
128.327671048472
 41
0.85
  7
ROMANS
100
AcDbText
  0
ARC
  5
EF7C87A1E
330
EF7C85532
100
AcDbEntity
  8
JISSEN
100
AcDbCircle
 10
90.00008343801608
 20
53.58939753381783
 30
0.0
 40
16.25
100
AcDbArc
 50
83.14235158465086
 51
96.8576484153524
  0
ARC
  5
EF7C87A1F
330
EF7C85532
100
AcDbEntity
  8
JISSEN
100
AcDbCircle
 10
88.00008343801568
 20
70.21956590338035
 30
0.0
 40
0.5
100
AcDbArc
 50
180.0
 51
276.8576484153523
  0
LINE
  5
EF7C87A20
330
EF7C85532
100
AcDbEntity
  8
JISSEN
100
AcDbLine
 10
87.50008343801567
 20
70.90990560950654
 30
0.0
 11
87.50008343801567
 21
70.21956590338037
 31
0.0
  0
LINE
  5
EF7C87A21
330
EF7C85532
100
AcDbEntity
  8
JISSEN
100
AcDbLine
 10
92.50008343801567
 20
70.21956590338047
 30
0.0
 11
92.50008343801567
 21
70.90990560950666
 31
0.0
  0
ARC
  5
EF7C87A22
330
EF7C85532
100
AcDbEntity
  8
JISSEN
100
AcDbCircle
 10
92.00008343801568
 20
70.21956590338047
 30
0.0
 40
0.5
100
AcDbArc
 50
263.1423515846508
 51
0.0
  0
TEXT
  5
EF7C87A71
330
EF7C85532
100
AcDbEntity
  8
TEXT
100
AcDbText
 10
103.9857135617142
 20
272.4999999821775
 30
0.0
 40
3.0
  1
ZN   型ヘッド
  7
K
 72
     4
 11
116.4999992759999
 21
273.9999999821774
 31
0.0
100
AcDbText
  0
LINE
  5
EF7C87A72
330
EF7C85532
100
AcDbEntity
  8
TEXT
100
AcDbLine
 10
112.2355077023229
 20
275.5007423716861
 30
0.0
 11
112.2355077023229
 21
272.5007423716861
 31
0.0
  0
LINE
  5
EF7C87A73
330
EF7C85532
100
AcDbEntity
  8
TEXT
100
AcDbLine
 10
111.1355077023229
 20
275.5007423716861
 30
0.0
 11
111.1355077023229
 21
272.5007423716861
 31
0.0
  0
LINE
  5
EF7C87A74
330
EF7C85532
100
AcDbEntity
  8
TEXT
100
AcDbLine
 10
111.6855077023229
 20
275.5007423716861
 30
0.0
 11
111.6855077023229
 21
272.5007423716861
 31
0.0
  0
LINE
  5
EF7C87A7B
330
EF7C85532
100
AcDbEntity
  8
TEXT
100
AcDbLine
 10
110.6855077023229
 20
272.5007423716861
 30
0.0
 11
112.6855077023229
 21
272.5007423716861
 31
0.0
  0
LINE
  5
EF7C87A7D
330
EF7C85532
100
AcDbEntity
  8
TEXT
100
AcDbLine
 10
110.6855077023229
 20
275.5007423716861
 30
0.0
 11
112.6855077023229
 21
275.5007423716861
 31
0.0
  0
LINE
  5
EF7C87A89
330
EF7C85532
100
AcDbEntity
  8
TEXT
100
AcDbLine
 10
128.9168652336076
 20
10.84959321373162
 30
0.0
 11
128.9168652336076
 21
7.849593213731623
 31
0.0
  0
LINE
  5
EF7C87A8A
330
EF7C85532
100
AcDbEntity
  8
TEXT
100
AcDbLine
 10
128.3668652336077
 20
10.84959321373162
 30
0.0
 11
128.3668652336077
 21
7.849593213731623
 31
0.0
  0
LINE
  5
EF7C87A8B
330
EF7C85532
100
AcDbEntity
  8
TEXT
100
AcDbLine
 10
129.4668652336077
 20
10.84959321373162
 30
0.0
 11
129.4668652336077
 21
7.849593213731623
 31
0.0
  0
LINE
  5
EF7C87A8C
330
EF7C85532
100
AcDbEntity
  8
TEXT
100
AcDbLine
 10
127.8168652336077
 20
7.849593213731623
 30
0.0
 11
130.0168652336076
 21
7.849593213731623
 31
0.0
  0
LINE
  5
EF7C87A8D
330
EF7C85532
100
AcDbEntity
  8
TEXT
100
AcDbLine
 10
127.8168652336077
 20
10.84959321373162
 30
0.0
 11
130.0168652336076
 21
10.84959321373162
 31
0.0
  0
LINE
  5
EF7C87A8E
330
EF7C85532
100
AcDbEntity
  8
TEXT
100
AcDbLine
 10
309.9168645096076
 20
10.84959319590916
 30
0.0
 11
309.9168645096076
 21
7.849593195909164
 31
0.0
  0
LINE
  5
EF7C87A8F
330
EF7C85532
100
AcDbEntity
  8
TEXT
100
AcDbLine
 10
309.3668645096077
 20
10.84959319590916
 30
0.0
 11
309.3668645096077
 21
7.849593195909164
 31
0.0
  0
LINE
  5
EF7C87A90
330
EF7C85532
100
AcDbEntity
  8
TEXT
100
AcDbLine
 10
310.4668645096077
 20
10.84959319590916
 30
0.0
 11
310.4668645096077
 21
7.849593195909164
 31
0.0
  0
LINE
  5
EF7C87A91
330
EF7C85532
100
AcDbEntity
  8
TEXT
100
AcDbLine
 10
308.8168645096077
 20
7.849593195909164
 30
0.0
 11
311.0168645096076
 21
7.849593195909164
 31
0.0
  0
LINE
  5
EF7C87A92
330
EF7C85532
100
AcDbEntity
  8
TEXT
100
AcDbLine
 10
308.8168645096077
 20
10.84959319590916
 30
0.0
 11
311.0168645096076
 21
10.84959319590916
 31
0.0
  0
ENDSEC
  0
SECTION
  2
OBJECTS
  0
DICTIONARY
  5
EF7C85527
330
0
100
AcDbDictionary
  3
ACAD_GROUP
350
EF7C85528
  3
ACAD_LAYOUT
350
EF7C85BB7
  3
ACAD_MLINESTYLE
350
EF7C85535
  3
ACAD_PLOTSETTINGS
350
EF7C85BB8
  3
ACAD_PLOTSTYLENAME
350
EF7C85BB5
  3
ACDBHEADERROUNDTRIPXREC
350
EF7C87A95
  3
ACDBVARIABLEDICTIONARY
350
EF7C85DB7
  0
DICTIONARY
  5
EF7C87912
330
EF7C8551D
100
AcDbDictionary
280
     1
  3
ACAD_LAYERSTATES
360
EF7C87913
  0
DICTIONARY
  5
EF7C85D9A
330
EF7C85532
100
AcDbDictionary
280
     1
  3
ACAD_LAYOUTSELFREF
360
EF7C87AB7
  0
DICTIONARY
  5
EF7C85D98
330
EF7C8552F
100
AcDbDictionary
280
     1
  3
ACAD_LAYOUTSELFREF
360
EF7C87AB6
  0
DICTIONARY
  5
EF7C85528
102
{ACAD_REACTORS
330
EF7C85527
102
}
330
EF7C85527
100
AcDbDictionary
  0
DICTIONARY
  5
EF7C85BB7
102
{ACAD_REACTORS
330
EF7C85527
102
}
330
EF7C85527
100
AcDbDictionary
  0
DICTIONARY
  5
EF7C85535
102
{ACAD_REACTORS
330
EF7C85527
102
}
330
EF7C85527
100
AcDbDictionary
  3
STANDARD
350
EF7C85536
  0
DICTIONARY
  5
EF7C85BB8
102
{ACAD_REACTORS
330
EF7C85527
102
}
330
EF7C85527
100
AcDbDictionary
  0
ACDBDICTIONARYWDFLT
  5
EF7C85BB5
102
{ACAD_REACTORS
330
EF7C85527
102
}
330
EF7C85527
100
AcDbDictionary
281
     1
  3
Normal
350
EF7C85BB6
100
AcDbDictionaryWithDefault
340
EF7C85BB6
  0
DICTIONARY
  5
EF7C87A95
102
{ACAD_REACTORS
330
EF7C85527
102
}
330
EF7C85527
100
AcDbDictionary
  3
CEPSNTYPE
350
EF7C87A9F
  3
DIMSTYLEDATA
350
EF7C87AA3
  3
FINGERPRINTGUID
350
EF7C87AA0
  3
HYPERLINKBASE
350
EF7C87A98
  3
INSUNITS
350
EF7C87A9E
  3
LAYOUTDICT
350
EF7C87A9A
  3
LWETCUNION
350
EF7C87A9D
  3
PLOTSETDICT
350
EF7C87A9B
  3
PLOTSTYLNAMDICT
350
EF7C87A9C
  3
PSVPSCALE
350
EF7C87AA2
  3
PUCSBASE
350
EF7C87AA6
  3
PUCSORGBACK
350
EF7C87AAC
  3
PUCSORGBOTTOM
350
EF7C87AA8
  3
PUCSORGFRONT
350
EF7C87AAB
  3
PUCSORGLEFT
350
EF7C87AA9
  3
PUCSORGRIGHT
350
EF7C87AAA
  3
PUCSORGTOP
350
EF7C87AA7
  3
PUCSORTHOREF
350
EF7C87AA4
  3
PUCSORTHOVIEW
350
EF7C87AA5
  3
STYLESHEET
350
EF7C87A99
  3
TSTACKALIGN
350
EF7C87A96
  3
TSTACKSIZE
350
EF7C87A97
  3
UCSBASE
350
EF7C87AAF
  3
UCSORGBACK
350
EF7C87AB5
  3
UCSORGBOTTOM
350
EF7C87AB1
  3
UCSORGFRONT
350
EF7C87AB4
  3
UCSORGLEFT
350
EF7C87AB2
  3
UCSORGRIGHT
350
EF7C87AB3
  3
UCSORGTOP
350
EF7C87AB0
  3
UCSORTHOREF
350
EF7C87AAD
  3
UCSORTHOVIEW
350
EF7C87AAE
  3
VERSIONGUID
350
EF7C87AA1
  0
DICTIONARY
  5
EF7C85DB7
102
{ACAD_REACTORS
330
EF7C85527
102
}
330
EF7C85527
100
AcDbDictionary
  3
DIMASSOC
350
EF7C878D1
  3
SORTENTS
350
EF7C85DB8
  0
DICTIONARY
  5
EF7C87913
102
{ACAD_REACTORS
330
EF7C87912
102
}
330
EF7C87912
100
AcDbDictionary
  0
XRECORD
  5
EF7C87AB7
102
{ACAD_REACTORS
330
EF7C85D9A
102
}
330
EF7C85D9A
100
AcDbXrecord
340
EF7C85532
  0
XRECORD
  5
EF7C87AB6
102
{ACAD_REACTORS
330
EF7C85D98
102
}
330
EF7C85D98
100
AcDbXrecord
340
EF7C8552F
  0
MLINESTYLE
  5
EF7C85536
102
{ACAD_REACTORS
330
EF7C85535
102
}
330
EF7C85535
100
AcDbMlineStyle
  2
STANDARD
 70
     0
  3

 62
   256
 51
90.0
 52
90.0
 71
     2
 49
0.5
 62
   256
  6
BYLAYER
 49
-0.5
 62
   256
  6
BYLAYER
  0
ACDBPLACEHOLDER
  5
EF7C85BB6
102
{ACAD_REACTORS
330
EF7C85BB5
102
}
330
EF7C85BB5
100
AcDbPlaceHolder
280
     0
  0
XRECORD
  5
EF7C87A9F
102
{ACAD_REACTORS
330
EF7C87A95
102
}
330
EF7C87A95
100
AcDbXrecord
 90
        0
  0
XRECORD
  5
EF7C87AA3
102
{ACAD_REACTORS
330
EF7C87A95
102
}
330
EF7C87A95
100
AcDbXrecord
1000
DSTYLE
1002
{
1070
   341
340
EF7C85537
1070
   342
340
EF7C85537
1070
   343
340
EF7C85543
1070
   344
340
EF7C85543
1002
}
  0
XRECORD
  5
EF7C87AA0
102
{ACAD_REACTORS
330
EF7C87A95
102
}
330
EF7C87A95
100
AcDbXrecord
  1
{09AA4C7A-3D6F-4857-A850-771461888CEC}
  0
XRECORD
  5
EF7C87A98
102
{ACAD_REACTORS
330
EF7C87A95
102
}
330
EF7C87A95
100
AcDbXrecord
  1

  0
XRECORD
  5
EF7C87A9E
102
{ACAD_REACTORS
330
EF7C87A95
102
}
330
EF7C87A95
100
AcDbXrecord
 90
        0
  0
XRECORD
  5
EF7C87A9A
102
{ACAD_REACTORS
330
EF7C87A95
102
}
330
EF7C87A95
100
AcDbXrecord
340
EF7C85BB7
  0
XRECORD
  5
EF7C87A9D
102
{ACAD_REACTORS
330
EF7C87A95
102
}
330
EF7C87A95
100
AcDbXrecord
 90
    14877
  0
XRECORD
  5
EF7C87A9B
102
{ACAD_REACTORS
330
EF7C87A95
102
}
330
EF7C87A95
100
AcDbXrecord
340
EF7C85BB8
  0
XRECORD
  5
EF7C87A9C
102
{ACAD_REACTORS
330
EF7C87A95
102
}
330
EF7C87A95
100
AcDbXrecord
340
EF7C85BB5
  0
XRECORD
  5
EF7C87AA2
102
{ACAD_REACTORS
330
EF7C87A95
102
}
330
EF7C87A95
100
AcDbXrecord
 40
0.0
  0
XRECORD
  5
EF7C87AA6
102
{ACAD_REACTORS
330
EF7C87A95
102
}
330
EF7C87A95
100
AcDbXrecord
340
0
  0
XRECORD
  5
EF7C87AAC
102
{ACAD_REACTORS
330
EF7C87A95
102
}
330
EF7C87A95
100
AcDbXrecord
 10
0.0
 20
0.0
 30
0.0
  0
XRECORD
  5
EF7C87AA8
102
{ACAD_REACTORS
330
EF7C87A95
102
}
330
EF7C87A95
100
AcDbXrecord
 10
0.0
 20
0.0
 30
0.0
  0
XRECORD
  5
EF7C87AAB
102
{ACAD_REACTORS
330
EF7C87A95
102
}
330
EF7C87A95
100
AcDbXrecord
 10
0.0
 20
0.0
 30
0.0
  0
XRECORD
  5
EF7C87AA9
102
{ACAD_REACTORS
330
EF7C87A95
102
}
330
EF7C87A95
100
AcDbXrecord
 10
0.0
 20
0.0
 30
0.0
  0
XRECORD
  5
EF7C87AAA
102
{ACAD_REACTORS
330
EF7C87A95
102
}
330
EF7C87A95
100
AcDbXrecord
 10
0.0
 20
0.0
 30
0.0
  0
XRECORD
  5
EF7C87AA7
102
{ACAD_REACTORS
330
EF7C87A95
102
}
330
EF7C87A95
100
AcDbXrecord
 10
0.0
 20
0.0
 30
0.0
  0
XRECORD
  5
EF7C87AA4
102
{ACAD_REACTORS
330
EF7C87A95
102
}
330
EF7C87A95
100
AcDbXrecord
340
0
  0
XRECORD
  5
EF7C87AA5
102
{ACAD_REACTORS
330
EF7C87A95
102
}
330
EF7C87A95
100
AcDbXrecord
 70
     0
  0
XRECORD
  5
EF7C87A99
102
{ACAD_REACTORS
330
EF7C87A95
102
}
330
EF7C87A95
100
AcDbXrecord
  1

  0
XRECORD
  5
EF7C87A96
102
{ACAD_REACTORS
330
EF7C87A95
102
}
330
EF7C87A95
100
AcDbXrecord
 90
        1
  0
XRECORD
  5
EF7C87A97
102
{ACAD_REACTORS
330
EF7C87A95
102
}
330
EF7C87A95
100
AcDbXrecord
 90
       70
  0
XRECORD
  5
EF7C87AAF
102
{ACAD_REACTORS
330
EF7C87A95
102
}
330
EF7C87A95
100
AcDbXrecord
340
0
  0
XRECORD
  5
EF7C87AB5
102
{ACAD_REACTORS
330
EF7C87A95
102
}
330
EF7C87A95
100
AcDbXrecord
 10
0.0
 20
0.0
 30
0.0
  0
XRECORD
  5
EF7C87AB1
102
{ACAD_REACTORS
330
EF7C87A95
102
}
330
EF7C87A95
100
AcDbXrecord
 10
0.0
 20
0.0
 30
0.0
  0
XRECORD
  5
EF7C87AB4
102
{ACAD_REACTORS
330
EF7C87A95
102
}
330
EF7C87A95
100
AcDbXrecord
 10
0.0
 20
0.0
 30
0.0
  0
XRECORD
  5
EF7C87AB2
102
{ACAD_REACTORS
330
EF7C87A95
102
}
330
EF7C87A95
100
AcDbXrecord
 10
0.0
 20
0.0
 30
0.0
  0
XRECORD
  5
EF7C87AB3
102
{ACAD_REACTORS
330
EF7C87A95
102
}
330
EF7C87A95
100
AcDbXrecord
 10
0.0
 20
0.0
 30
0.0
  0
XRECORD
  5
EF7C87AB0
102
{ACAD_REACTORS
330
EF7C87A95
102
}
330
EF7C87A95
100
AcDbXrecord
 10
0.0
 20
0.0
 30
0.0
  0
XRECORD
  5
EF7C87AAD
102
{ACAD_REACTORS
330
EF7C87A95
102
}
330
EF7C87A95
100
AcDbXrecord
340
0
  0
XRECORD
  5
EF7C87AAE
102
{ACAD_REACTORS
330
EF7C87A95
102
}
330
EF7C87A95
100
AcDbXrecord
 70
     0
  0
XRECORD
  5
EF7C87AA1
102
{ACAD_REACTORS
330
EF7C87A95
102
}
330
EF7C87A95
100
AcDbXrecord
  1
{A1754DD1-0483-4707-A711-3A41A9B9D063}
  0
DICTIONARYVAR
  5
EF7C878D1
102
{ACAD_REACTORS
330
EF7C85DB7
102
}
330
EF7C85DB7
100
DictionaryVariables
280
     0
  1
0
  0
DICTIONARYVAR
  5
EF7C85DB8
102
{ACAD_REACTORS
330
EF7C85DB7
102
}
330
EF7C85DB7
100
DictionaryVariables
280
     0
  1
96
  0
ENDSEC
  0
EOF
