  0
SECTION
  2
HEADER
  9
$ACADVER
  1
AC1015
  9
$ACADMAINTVER
 70
    10
  9
$DWGCODEPAGE
  3
ANSI_932
  9
$INSBASE
 10
0.0
 20
0.0
 30
0.0
  9
$EXTMIN
 10
-0.0000003700945399
 20
0.0000003803513664
 30
0.0
  9
$EXTMAX
 10
361.9999981819062
 20
273.0000003803513
 30
1680.364539346804
  9
$LIMMIN
 10
-0.0000003700945399
 20
0.0000003803513664
  9
$LIMMAX
 10
361.9999981819062
 20
273.0000003803513
  9
$ORTHOMODE
 70
     0
  9
$REGENMODE
 70
     1
  9
$FILLMODE
 70
     1
  9
$QTEXTMODE
 70
     0
  9
$MIRRTEXT
 70
     0
  9
$LTSCALE
 40
5.0
  9
$ATTMODE
 70
     1
  9
$TEXTSIZE
 40
6.0
  9
$TRACEWID
 40
0.05
  9
$TEXTSTYLE
  7
K
  9
$CLAYER
  8
JISSEN
  9
$CELTYPE
  6
BYLAYER
  9
$CECOLOR
 62
   256
  9
$CELTSCALE
 40
1.0
  9
$DISPSILH
 70
     0
  9
$DIMSCALE
 40
1.0
  9
$DIMASZ
 40
1.099999999999998
  9
$DIMEXO
 40
1.0
  9
$DIMDLI
 40
6.0
  9
$DIMRND
 40
0.0
  9
$DIMDLE
 40
0.0
  9
$DIMEXE
 40
1.0
  9
$DIMTP
 40
0.0
  9
$DIMTM
 40
0.0
  9
$DIMTXT
 40
3.0
  9
$DIMCEN
 40
1.0
  9
$DIMTSZ
 40
0.0
  9
$DIMTOL
 70
     0
  9
$DIMLIM
 70
     0
  9
$DIMTIH
 70
     0
  9
$DIMTOH
 70
     0
  9
$DIMSE1
 70
     0
  9
$DIMSE2
 70
     0
  9
$DIMTAD
 70
     0
  9
$DIMZIN
 70
     8
  9
$DIMBLK
  1
ARROW
  9
$DIMASO
 70
     0
  9
$DIMSHO
 70
     0
  9
$DIMPOST
  1

  9
$DIMAPOST
  1

  9
$DIMALT
 70
     0
  9
$DIMALTD
 70
     2
  9
$DIMALTF
 40
25.4
  9
$DIMLFAC
 40
1.0
  9
$DIMTOFL
 70
     1
  9
$DIMTVP
 40
1.0
  9
$DIMTIX
 70
     0
  9
$DIMSOXD
 70
     0
  9
$DIMSAH
 70
     0
  9
$DIMBLK1
  1

  9
$DIMBLK2
  1

  9
$DIMSTYLE
  2
IMAO
  9
$DIMCLRD
 70
     0
  9
$DIMCLRE
 70
     0
  9
$DIMCLRT
 70
     0
  9
$DIMTFAC
 40
1.0
  9
$DIMGAP
 40
0.09
  9
$DIMJUST
 70
     0
  9
$DIMSD1
 70
     0
  9
$DIMSD2
 70
     0
  9
$DIMTOLJ
 70
     1
  9
$DIMTZIN
 70
     0
  9
$DIMALTZ
 70
     0
  9
$DIMALTTZ
 70
     0
  9
$DIMUPT
 70
     0
  9
$DIMDEC
 70
     2
  9
$DIMTDEC
 70
     2
  9
$DIMALTU
 70
     2
  9
$DIMALTTD
 70
     2
  9
$DIMTXSTY
  7
STANDARD
  9
$DIMAUNIT
 70
     0
  9
$DIMADEC
 70
     0
  9
$DIMALTRND
 40
0.0
  9
$DIMAZIN
 70
     0
  9
$DIMDSEP
 70
    46
  9
$DIMATFIT
 70
     3
  9
$DIMFRAC
 70
     0
  9
$DIMLDRBLK
  1
ARROW
  9
$DIMLUNIT
 70
     2
  9
$DIMLWD
 70
    -2
  9
$DIMLWE
 70
    -2
  9
$DIMTMOVE
 70
     0
  9
$LUNITS
 70
     2
  9
$LUPREC
 70
     2
  9
$SKETCHINC
 40
0.1
  9
$FILLETRAD
 40
0.3
  9
$AUNITS
 70
     0
  9
$AUPREC
 70
     2
  9
$MENU
  1
stdr12j
  9
$ELEVATION
 40
0.0
  9
$PELEVATION
 40
0.0
  9
$THICKNESS
 40
0.0
  9
$LIMCHECK
 70
     0
  9
$CHAMFERA
 40
0.0
  9
$CHAMFERB
 40
0.0
  9
$CHAMFERC
 40
0.0
  9
$CHAMFERD
 40
0.0
  9
$SKPOLY
 70
     0
  9
$TDCREATE
 40
2450542.749144212
  9
$TDUCREATE
 40
2450542.374144212
  9
$TDUPDATE
 40
2457291.446227904
  9
$TDUUPDATE
 40
2457291.071227905
  9
$TDINDWG
 40
1.5301475347
  9
$TDUSRTIMER
 40
1.5301469560
  9
$USRTIMER
 70
     1
  9
$ANGBASE
 50
0.0
  9
$ANGDIR
 70
     0
  9
$PDMODE
 70
     0
  9
$PDSIZE
 40
0.0
  9
$PLINEWID
 40
0.0
  9
$SPLFRAME
 70
     0
  9
$SPLINETYPE
 70
     6
  9
$SPLINESEGS
 70
     8
  9
$HANDSEED
  5
E00EDD41
  9
$SURFTAB1
 70
     6
  9
$SURFTAB2
 70
     6
  9
$SURFTYPE
 70
     6
  9
$SURFU
 70
     6
  9
$SURFV
 70
     6
  9
$UCSBASE
  2

  9
$UCSNAME
  2

  9
$UCSORG
 10
0.0
 20
0.0
 30
0.0
  9
$UCSXDIR
 10
1.0
 20
0.0
 30
0.0
  9
$UCSYDIR
 10
0.0
 20
1.0
 30
0.0
  9
$UCSORTHOREF
  2

  9
$UCSORTHOVIEW
 70
     0
  9
$UCSORGTOP
 10
0.0
 20
0.0
 30
0.0
  9
$UCSORGBOTTOM
 10
0.0
 20
0.0
 30
0.0
  9
$UCSORGLEFT
 10
0.0
 20
0.0
 30
0.0
  9
$UCSORGRIGHT
 10
0.0
 20
0.0
 30
0.0
  9
$UCSORGFRONT
 10
0.0
 20
0.0
 30
0.0
  9
$UCSORGBACK
 10
0.0
 20
0.0
 30
0.0
  9
$PUCSBASE
  2

  9
$PUCSNAME
  2

  9
$PUCSORG
 10
0.0
 20
0.0
 30
0.0
  9
$PUCSXDIR
 10
1.0
 20
0.0
 30
0.0
  9
$PUCSYDIR
 10
0.0
 20
1.0
 30
0.0
  9
$PUCSORTHOREF
  2

  9
$PUCSORTHOVIEW
 70
     0
  9
$PUCSORGTOP
 10
0.0
 20
0.0
 30
0.0
  9
$PUCSORGBOTTOM
 10
0.0
 20
0.0
 30
0.0
  9
$PUCSORGLEFT
 10
0.0
 20
0.0
 30
0.0
  9
$PUCSORGRIGHT
 10
0.0
 20
0.0
 30
0.0
  9
$PUCSORGFRONT
 10
0.0
 20
0.0
 30
0.0
  9
$PUCSORGBACK
 10
0.0
 20
0.0
 30
0.0
  9
$USERI1
 70
     4
  9
$USERI2
 70
     1
  9
$USERI3
 70
     1
  9
$USERI4
 70
     2
  9
$USERI5
 70
     0
  9
$USERR1
 40
1.0
  9
$USERR2
 40
3.0
  9
$USERR3
 40
3.0
  9
$USERR4
 40
1.5
  9
$USERR5
 40
8.0
  9
$WORLDVIEW
 70
     1
  9
$SHADEDGE
 70
     3
  9
$SHADEDIF
 70
    70
  9
$TILEMODE
 70
     1
  9
$MAXACTVP
 70
    16
  9
$PINSBASE
 10
0.0
 20
0.0
 30
0.0
  9
$PLIMCHECK
 70
     0
  9
$PEXTMIN
 10
1.000000000000000E+20
 20
1.000000000000000E+20
 30
1.000000000000000E+20
  9
$PEXTMAX
 10
-1.000000000000000E+20
 20
-1.000000000000000E+20
 30
-1.000000000000000E+20
  9
$PLIMMIN
 10
0.0
 20
0.0
  9
$PLIMMAX
 10
12.0
 20
9.0
  9
$UNITMODE
 70
     0
  9
$VISRETAIN
 70
     0
  9
$PLINEGEN
 70
     0
  9
$PSLTSCALE
 70
     0
  9
$TREEDEPTH
 70
  3020
  9
$CMLSTYLE
  2
STANDARD
  9
$CMLJUST
 70
     0
  9
$CMLSCALE
 40
1.0
  9
$PROXYGRAPHICS
 70
     1
  9
$MEASUREMENT
 70
     0
  9
$CELWEIGHT
370
    -1
  9
$ENDCAPS
280
     0
  9
$JOINSTYLE
280
     0
  9
$LWDISPLAY
290
     0
  9
$INSUNITS
 70
     0
  9
$HYPERLINKBASE
  1

  9
$STYLESHEET
  1
aclt.ctb
  9
$XEDIT
290
     1
  9
$CEPSNTYPE
380
     0
  9
$PSTYLEMODE
290
     1
  9
$FINGERPRINTGUID
  2
{3644D75A-AD60-4D58-9D7E-D616B61E4E68}
  9
$VERSIONGUID
  2
{54172DA6-C301-45BE-AA12-6C918B90039D}
  9
$EXTNAMES
290
     1
  9
$PSVPSCALE
 40
0.0
  9
$OLESTARTUP
290
     0
  0
ENDSEC
  0
SECTION
  2
CLASSES
  0
CLASS
  1
LWPOLYLINE
  2
AcDbPolyline
  3
AutoCAD 2000
 90
    32768
280
     0
281
     1
  0
CLASS
  1
DICTIONARYVAR
  2
AcDbDictionaryVar
  3
AutoCAD 2000
 90
        0
280
     0
281
     0
  0
CLASS
  1
HATCH
  2
AcDbHatch
  3
AutoCAD 2000
 90
    32768
280
     0
281
     1
  0
CLASS
  1
ACDBDICTIONARYWDFLT
  2
AcDbDictionaryWithDefault
  3
AutoCAD 2000
 90
        0
280
     0
281
     0
  0
CLASS
  1
ACDBPLACEHOLDER
  2
AcDbPlaceHolder
  3
AutoCAD 2000
 90
        0
280
     0
281
     0
  0
CLASS
  1
LAYOUT
  2
AcDbLayout
  3
AutoCAD 2000
 90
        0
280
     0
281
     0
  0
CLASS
  1
LONG_TRANSACTION
  2
AcDbLongTransaction
  3
AutoCAD 2000
 90
    32768
280
     0
281
     0
  0
CLASS
  1
LWPOLYLINE
  2
AcDbPolyline
  3
AutoCAD 2000
 90
    32768
280
     0
281
     1
  0
CLASS
  1
HATCH
  2
AcDbHatch
  3
AutoCAD 2000
 90
    32768
280
     0
281
     1
  0
CLASS
  1
XRECORD
  2
AcDbXrecord
  3
AutoCAD 2000
 90
    32768
280
     0
281
     0
  0
ENDSEC
  0
SECTION
  2
TABLES
  0
TABLE
  2
VPORT
  5
E00DEA4D
330
0
100
AcDbSymbolTable
 70
    10
  0
VPORT
  5
E00DEA82
330
E00DEA4D
100
AcDbSymbolTableRecord
100
AcDbViewportTableRecord
  2
2
 70
     0
 10
0.5
 20
0.0
 11
1.0
 21
1.0
 12
0.9240312421264802
 22
1.052650975462765
 13
0.0
 23
0.0
 14
1.0
 24
1.0
 15
10.0
 25
10.0
 16
0.0
 26
0.0
 36
1.0
 17
0.0
 27
0.0
 37
0.0
 40
2.105301950925533
 41
0.8778135048231511
 42
50.0
 43
0.0
 44
0.0
 50
0.0
 51
0.0
 71
     0
 72
   500
 73
     1
 74
     1
 75
     0
 76
     0
 77
     0
 78
     0
281
     0
 65
     1
110
0.0
120
0.0
130
0.0
111
1.0
121
0.0
131
0.0
112
0.0
122
1.0
132
0.0
 79
     0
146
0.0
  0
VPORT
  5
E00DEA83
330
E00DEA4D
100
AcDbSymbolTableRecord
100
AcDbViewportTableRecord
  2
2
 70
     0
 10
0.0
 20
0.0
 11
0.5
 21
1.0
 12
0.9240312421264802
 22
1.052650975462765
 13
0.0
 23
0.0
 14
1.0
 24
1.0
 15
10.0
 25
10.0
 16
0.0
 26
0.0
 36
1.0
 17
0.0
 27
0.0
 37
0.0
 40
2.105301950925533
 41
0.8778135048231511
 42
50.0
 43
0.0
 44
0.0
 50
0.0
 51
0.0
 71
     0
 72
   500
 73
     1
 74
     1
 75
     0
 76
     0
 77
     0
 78
     0
281
     0
 65
     1
110
0.0
120
0.0
130
0.0
111
1.0
121
0.0
131
0.0
112
0.0
122
1.0
132
0.0
 79
     0
146
0.0
  0
VPORT
  5
E00DEA84
330
E00DEA4D
100
AcDbSymbolTableRecord
100
AcDbViewportTableRecord
  2
3
 70
     0
 10
0.0
 20
0.5
 11
1.0
 21
1.0
 12
2.832169994473273
 22
1.052650975462765
 13
0.0
 23
0.0
 14
1.0
 24
1.0
 15
10.0
 25
10.0
 16
0.0
 26
0.0
 36
1.0
 17
0.0
 27
0.0
 37
0.0
 40
2.105301950925533
 41
3.571428571428571
 42
50.0
 43
0.0
 44
0.0
 50
0.0
 51
0.0
 71
     0
 72
   500
 73
     1
 74
     1
 75
     0
 76
     0
 77
     0
 78
     0
281
     0
 65
     1
110
0.0
120
0.0
130
0.0
111
1.0
121
0.0
131
0.0
112
0.0
122
1.0
132
0.0
 79
     0
146
0.0
  0
VPORT
  5
E00DEA85
330
E00DEA4D
100
AcDbSymbolTableRecord
100
AcDbViewportTableRecord
  2
3
 70
     0
 10
0.0
 20
0.0
 11
1.0
 21
0.5
 12
2.856741679241311
 22
1.052650975462765
 13
0.0
 23
0.0
 14
1.0
 24
1.0
 15
10.0
 25
10.0
 16
0.0
 26
0.0
 36
1.0
 17
0.0
 27
0.0
 37
0.0
 40
2.105301950925533
 41
3.594771241830064
 42
50.0
 43
0.0
 44
0.0
 50
0.0
 51
0.0
 71
     0
 72
   500
 73
     1
 74
     1
 75
     0
 76
     0
 77
     0
 78
     0
281
     0
 65
     1
110
0.0
120
0.0
130
0.0
111
1.0
121
0.0
131
0.0
112
0.0
122
1.0
132
0.0
 79
     0
146
0.0
  0
VPORT
  5
E00DEA86
330
E00DEA4D
100
AcDbSymbolTableRecord
100
AcDbViewportTableRecord
  2
4
 70
     0
 10
0.5
 20
0.0
 11
1.0
 21
0.5
 12
2.886857516709718
 22
1.052650975462765
 13
0.0
 23
0.0
 14
1.0
 24
1.0
 15
10.0
 25
10.0
 16
0.0
 26
0.0
 36
1.0
 17
0.0
 27
0.0
 37
0.0
 40
4.275207030309069
 41
1.784313725490195
 42
50.0
 43
0.0
 44
0.0
 50
0.0
 51
0.0
 71
     0
 72
   500
 73
     1
 74
     1
 75
     0
 76
     0
 77
     0
 78
     0
281
     0
 65
     1
110
0.0
120
0.0
130
0.0
111
1.0
121
0.0
131
0.0
112
0.0
122
1.0
132
0.0
 79
     0
146
0.0
  0
VPORT
  5
E00DEA87
330
E00DEA4D
100
AcDbSymbolTableRecord
100
AcDbViewportTableRecord
  2
4
 70
     0
 10
0.5
 20
0.5
 11
1.0
 21
1.0
 12
2.862090274555523
 22
1.052650975462765
 13
0.0
 23
0.0
 14
1.0
 24
1.0
 15
10.0
 25
10.0
 16
0.0
 26
0.0
 36
1.0
 17
0.0
 27
0.0
 37
0.0
 40
4.275207030309069
 41
1.772727272727271
 42
50.0
 43
0.0
 44
0.0
 50
0.0
 51
0.0
 71
     0
 72
   500
 73
     1
 74
     1
 75
     0
 76
     0
 77
     0
 78
     0
281
     0
 65
     1
110
0.0
120
0.0
130
0.0
111
1.0
121
0.0
131
0.0
112
0.0
122
1.0
132
0.0
 79
     0
146
0.0
  0
VPORT
  5
E00DEA88
330
E00DEA4D
100
AcDbSymbolTableRecord
100
AcDbViewportTableRecord
  2
4
 70
     0
 10
0.0
 20
0.5
 11
0.5
 21
1.0
 12
2.862090274555523
 22
1.052650975462765
 13
0.0
 23
0.0
 14
1.0
 24
1.0
 15
10.0
 25
10.0
 16
0.0
 26
0.0
 36
1.0
 17
0.0
 27
0.0
 37
0.0
 40
4.275207030309069
 41
1.772727272727271
 42
50.0
 43
0.0
 44
0.0
 50
0.0
 51
0.0
 71
     0
 72
   500
 73
     1
 74
     1
 75
     0
 76
     0
 77
     0
 78
     0
281
     0
 65
     1
110
0.0
120
0.0
130
0.0
111
1.0
121
0.0
131
0.0
112
0.0
122
1.0
132
0.0
 79
     0
146
0.0
  0
VPORT
  5
E00DEA89
330
E00DEA4D
100
AcDbSymbolTableRecord
100
AcDbViewportTableRecord
  2
4
 70
     0
 10
0.0
 20
0.0
 11
0.5
 21
0.5
 12
2.886857516709718
 22
1.052650975462765
 13
0.0
 23
0.0
 14
1.0
 24
1.0
 15
10.0
 25
10.0
 16
0.0
 26
0.0
 36
1.0
 17
0.0
 27
0.0
 37
0.0
 40
4.275207030309069
 41
1.784313725490195
 42
50.0
 43
0.0
 44
0.0
 50
0.0
 51
0.0
 71
     0
 72
   500
 73
     1
 74
     1
 75
     0
 76
     0
 77
     0
 78
     0
281
     0
 65
     1
110
0.0
120
0.0
130
0.0
111
1.0
121
0.0
131
0.0
112
0.0
122
1.0
132
0.0
 79
     0
146
0.0
  0
VPORT
  5
E00EDD40
330
E00DEA4D
100
AcDbSymbolTableRecord
100
AcDbViewportTableRecord
  2
*Active
 70
     0
 10
0.0
 20
0.0
 11
1.0
 21
1.0
 12
190.9915054259841
 22
136.5000010159789
 13
0.0
 23
0.0
 14
1.0
 24
1.0
 15
10.0
 25
10.0
 16
0.0
 26
0.0
 36
1.0
 17
0.0
 27
0.0
 37
0.0
 40
274.9714358382318
 41
2.275779376498801
 42
50.0
 43
0.0
 44
0.0
 50
0.0
 51
0.0
 71
     0
 72
   500
 73
     1
 74
     0
 75
     0
 76
     0
 77
     0
 78
     0
281
     0
 65
     1
110
0.0
120
0.0
130
0.0
111
1.0
121
0.0
131
0.0
112
0.0
122
1.0
132
0.0
 79
     0
146
0.0
  0
ENDTAB
  0
TABLE
  2
LTYPE
  5
E00DEA4A
330
0
100
AcDbSymbolTable
 70
     5
  0
LTYPE
  5
E00DEA57
330
E00DEA4A
100
AcDbSymbolTableRecord
100
AcDbLinetypeTableRecord
  2
BYBLOCK
 70
     0
  3

 72
    65
 73
     0
 40
0.0
  0
LTYPE
  5
E00DEA58
330
E00DEA4A
100
AcDbSymbolTableRecord
100
AcDbLinetypeTableRecord
  2
BYLAYER
 70
     0
  3

 72
    65
 73
     0
 40
0.0
  0
LTYPE
  5
E00DEA59
330
E00DEA4A
100
AcDbSymbolTableRecord
100
AcDbLinetypeTableRecord
  2
CONTINUOUS
 70
     0
  3
実線
 72
    65
 73
     0
 40
0.0
  0
LTYPE
  5
E00DEA7E
330
E00DEA4A
100
AcDbSymbolTableRecord
100
AcDbLinetypeTableRecord
  2
CENTER
 70
     0
  3
____ _ ____ _ ____ _ ____ _ ____ _ ____ _ ____
 72
    65
 73
     4
 40
2.0
 49
1.25
 74
     0
 49
-0.25
 74
     0
 49
0.25
 74
     0
 49
-0.25
 74
     0
  0
LTYPE
  5
E00DEA81
330
E00DEA4A
100
AcDbSymbolTableRecord
100
AcDbLinetypeTableRecord
  2
HIDDEN
 70
     0
  3
_ _ _ _ _ _ _ _ _ _ _ _ _ _ _ _ _ _ _ _ _ _ _
 72
    65
 73
     2
 40
0.375
 49
0.25
 74
     0
 49
-0.125
 74
     0
  0
LTYPE
  5
E00E0AD4
330
E00DEA4A
100
AcDbSymbolTableRecord
100
AcDbLinetypeTableRecord
  2
PHANTOM
 70
     0
  3
Phantom ______  __  __  ______  __  __  ______
 72
    65
 73
     6
 40
2.5
 49
1.25
 74
     0
 49
-0.25
 74
     0
 49
0.25
 74
     0
 49
-0.25
 74
     0
 49
0.25
 74
     0
 49
-0.25
 74
     0
  0
LTYPE
  5
E00ECC5C
330
E00DEA4A
100
AcDbSymbolTableRecord
100
AcDbLinetypeTableRecord
  2
SLD-実線
 70
     0
  3
SolidWorks Line Style
 72
    65
 73
     0
 40
0.0
  0
ENDTAB
  0
TABLE
  2
LAYER
  5
E00DEA47
102
{ACAD_XDICTIONARY
360
E00DFB39
102
}
330
0
100
AcDbSymbolTable
 70
    13
  0
LAYER
  5
E00DEA54
330
E00DEA47
100
AcDbSymbolTableRecord
100
AcDbLayerTableRecord
  2
0
 70
     0
 62
     6
  6
CONTINUOUS
370
    -3
390
E00DFA69
  0
LAYER
  5
E00DEA8D
330
E00DEA47
100
AcDbSymbolTableRecord
100
AcDbLayerTableRecord
  2
ITTEN
 70
     0
 62
     1
  6
CENTER
370
    -3
390
E00DFA69
  0
LAYER
  5
E00DEA8F
330
E00DEA47
100
AcDbSymbolTableRecord
100
AcDbLayerTableRecord
  2
HATCH
 70
     0
 62
     4
  6
CONTINUOUS
370
    -3
390
E00DFA69
  0
LAYER
  5
E00DEA90
330
E00DEA47
100
AcDbSymbolTableRecord
100
AcDbLayerTableRecord
  2
SUNPOU
 70
     0
 62
     3
  6
CONTINUOUS
370
    -3
390
E00DFA69
  0
LAYER
  5
E00DEA91
330
E00DEA47
100
AcDbSymbolTableRecord
100
AcDbLayerTableRecord
  2
TEXT
 70
     0
 62
     3
  6
CONTINUOUS
370
    -3
390
E00DFA69
  0
LAYER
  5
E00DEA92
330
E00DEA47
100
AcDbSymbolTableRecord
100
AcDbLayerTableRecord
  2
SAISEN
 70
     0
 62
     4
  6
CONTINUOUS
370
    -3
390
E00DFA69
  0
LAYER
  5
E00DEA93
330
E00DEA47
100
AcDbSymbolTableRecord
100
AcDbLayerTableRecord
  2
JISSEN
 70
     0
 62
     7
  6
CONTINUOUS
370
    -3
390
E00DFA69
  0
LAYER
  5
E00DEA96
330
E00DEA47
100
AcDbSymbolTableRecord
100
AcDbLayerTableRecord
  2
WAKU
 70
     0
 62
     5
  6
CONTINUOUS
370
    -3
390
E00DFA69
  0
LAYER
  5
E00DEA97
330
E00DEA47
100
AcDbSymbolTableRecord
100
AcDbLayerTableRecord
  2
TENSEN
 70
     0
 62
     2
  6
HIDDEN
370
    -3
390
E00DFA69
  0
LAYER
  5
E00E0AD5
330
E00DEA47
100
AcDbSymbolTableRecord
100
AcDbLayerTableRecord
  2
SCALE
 70
     0
 62
     4
  6
CONTINUOUS
370
    -3
390
E00DFA69
  0
LAYER
  5
E00E0AD6
330
E00DEA47
100
AcDbSymbolTableRecord
100
AcDbLayerTableRecord
  2
BORDER
 70
     0
 62
     5
  6
CONTINUOUS
370
    -3
390
E00DFA69
  0
LAYER
  5
E00E0AD7
330
E00DEA47
100
AcDbSymbolTableRecord
100
AcDbLayerTableRecord
  2
NITEN
 70
     0
 62
     2
  6
PHANTOM
370
    -3
390
E00DFA69
  0
LAYER
  5
E00E5AB9
330
E00DEA47
100
AcDbSymbolTableRecord
100
AcDbLayerTableRecord
  2
DEFPOINTS
 70
     0
 62
    -7
  6
CONTINUOUS
290
     0
370
    -3
390
E00DFA69
  0
ENDTAB
  0
TABLE
  2
STYLE
  5
E00DEA48
330
0
100
AcDbSymbolTable
 70
     5
  0
STYLE
  5
E00DEA55
330
E00DEA48
100
AcDbSymbolTableRecord
100
AcDbTextStyleTableRecord
  2
STANDARD
 70
     0
 40
0.0
 41
1.0
 50
0.0
 71
     0
 42
2.5
  3
SIMPLEX
  4

  0
STYLE
  5
E00DEA7C
330
E00DEA48
100
AcDbSymbolTableRecord
100
AcDbTextStyleTableRecord
  2
K
 70
     0
 40
0.0
 41
1.0
 50
0.0
 71
     0
 42
6.0
  3
SIMPLEX
  4
bigfont.shx
  0
STYLE
  5
E00DFB37
330
E00DEA48
100
AcDbSymbolTableRecord
100
AcDbTextStyleTableRecord
  2
DIMENSION
 70
     0
 40
0.0
 41
1.0
 50
0.0
 71
     0
 42
2.5
  3
TXT
  4

  0
STYLE
  5
E00EC309
330
E00DEA48
100
AcDbSymbolTableRecord
100
AcDbTextStyleTableRecord
  2
BIGFONT
 70
     0
 40
0.0
 41
1.0
 50
0.0
 71
     0
 42
3.0
  3
txt.shx
  4
bigfont
  0
STYLE
  5
E00ECC5D
330
E00DEA48
100
AcDbSymbolTableRecord
100
AcDbTextStyleTableRecord
  2
ROMANS
 70
     0
 40
0.0
 41
0.8
 50
0.0
 71
     0
 42
6.0
  3
romans
  4

  0
ENDTAB
  0
TABLE
  2
VIEW
  5
E00DEA4B
330
0
100
AcDbSymbolTable
 70
     0
  0
ENDTAB
  0
TABLE
  2
UCS
  5
E00DEA4C
330
0
100
AcDbSymbolTable
 70
     0
  0
ENDTAB
  0
TABLE
  2
APPID
  5
E00DEA4E
330
0
100
AcDbSymbolTable
 70
     8
  0
APPID
  5
E00DEA56
330
E00DEA4E
100
AcDbSymbolTableRecord
100
AcDbRegAppTableRecord
  2
ACAD
 70
     0
  0
APPID
  5
E00E89BA
330
E00DEA4E
100
AcDbSymbolTableRecord
100
AcDbRegAppTableRecord
  2
CONTENTBLOCKICON
 70
     0
  0
APPID
  5
E00E89BB
330
E00DEA4E
100
AcDbSymbolTableRecord
100
AcDbRegAppTableRecord
  2
X_OBJNAME
 70
     0
  0
APPID
  5
E00E89BC
330
E00DEA4E
100
AcDbSymbolTableRecord
100
AcDbRegAppTableRecord
  2
X_PARAM_BALLOON
 70
     0
  0
APPID
  5
E00E89BD
330
E00DEA4E
100
AcDbSymbolTableRecord
100
AcDbRegAppTableRecord
  2
X_PARAM_TXTPATERN
 70
     0
  0
APPID
  5
E00E89BE
330
E00DEA4E
100
AcDbSymbolTableRecord
100
AcDbRegAppTableRecord
  2
X_PARAM_CTXTPATERN
 70
     0
  0
APPID
  5
E00E89BF
330
E00DEA4E
100
AcDbSymbolTableRecord
100
AcDbRegAppTableRecord
  2
X_PARAM_SYSVAL
 70
     0
  0
APPID
  5
E00E89C0
330
E00DEA4E
100
AcDbSymbolTableRecord
100
AcDbRegAppTableRecord
  2
X_DEFINELIST
 70
     0
  0
ENDTAB
  0
TABLE
  2
DIMSTYLE
  5
E00DEA4F
330
0
100
AcDbSymbolTable
 70
     2
100
AcDbDimStyleTable
 71
     1
340
E00DEA8C
  0
DIMSTYLE
105
E00DEA8C
330
E00DEA4F
100
AcDbSymbolTableRecord
100
AcDbDimStyleTableRecord
  2
IMAO
 70
     0
 41
1.5
 42
1.0
 43
6.0
 44
1.0
 47
495.0
 73
     0
 74
     0
 77
     1
 78
     8
140
3.0
141
0.0
172
     1
174
     1
271
     2
272
     2
279
     2
284
     8
285
     8
286
     8
340
E00DEA7C
341
E00DEA68
342
E00DEA68
343
E00DEA68
344
E00DEA68
  0
DIMSTYLE
105
E00DFB38
330
E00DEA4F
100
AcDbSymbolTableRecord
100
AcDbDimStyleTableRecord
  2
STANDARD
 70
     0
 40
0.5
 41
2.0
 42
0.1
 43
10.0
 44
1.5
 73
     0
 74
     0
 78
     8
140
3.0
145
1.0
147
0.1
172
     1
176
   256
177
   256
178
   256
271
     2
272
     2
284
     8
340
E00DFB37
341
E00DFB2F
342
E00DFB2F
  0
ENDTAB
  0
TABLE
  2
BLOCK_RECORD
  5
E00DEA46
330
0
100
AcDbSymbolTable
 70
     4
  0
BLOCK_RECORD
  5
E00DEA5D
102
{ACAD_XDICTIONARY
360
E00DFB13
102
}
330
E00DEA46
100
AcDbSymbolTableRecord
100
AcDbBlockTableRecord
  2
*MODEL_SPACE
340
E00DFA6C
  0
BLOCK_RECORD
  5
E00DEA5A
102
{ACAD_XDICTIONARY
360
E00DFB11
102
}
330
E00DEA46
100
AcDbSymbolTableRecord
100
AcDbBlockTableRecord
  2
*PAPER_SPACE
340
E00DFA6D
  0
BLOCK_RECORD
  5
E00DEA61
330
E00DEA46
100
AcDbSymbolTableRecord
100
AcDbBlockTableRecord
  2
ARROW
340
0
102
{BLKREFS
331
E00ED72D
331
E00ED863
102
}
  0
BLOCK_RECORD
  5
E00DEA68
330
E00DEA46
100
AcDbSymbolTableRecord
100
AcDbBlockTableRecord
  2
ARROWANG
340
0
  0
BLOCK_RECORD
  5
E00DFB2F
330
E00DEA46
100
AcDbSymbolTableRecord
100
AcDbBlockTableRecord
  2
AR_OPEN
340
0
  0
BLOCK_RECORD
  5
E00E0A21
330
E00DEA46
100
AcDbSymbolTableRecord
100
AcDbBlockTableRecord
  2
WAKU
340
0
  0
ENDTAB
  0
ENDSEC
  0
SECTION
  2
BLOCKS
  0
BLOCK
  5
E00DEA9A
330
E00DEA5D
100
AcDbEntity
  8
0
100
AcDbBlockBegin
  2
*MODEL_SPACE
 70
     0
 10
0.0
 20
0.0
 30
0.0
  3
*MODEL_SPACE
  1

  0
ENDBLK
  5
E00DEA9B
330
E00DEA5D
100
AcDbEntity
  8
0
100
AcDbBlockEnd
  0
BLOCK
  5
E00DEA98
330
E00DEA5A
100
AcDbEntity
 67
     1
  8
0
100
AcDbBlockBegin
  2
*PAPER_SPACE
 70
     0
 10
0.0
 20
0.0
 30
0.0
  3
*PAPER_SPACE
  1

  0
ENDBLK
  5
E00DEA99
330
E00DEA5A
100
AcDbEntity
 67
     1
  8
0
100
AcDbBlockEnd
  0
BLOCK
  5
41E
330
E00DEA61
100
AcDbEntity
  8
0
100
AcDbBlockBegin
  2
ARROW
 70
     0
 10
1.0
 20
0.5
 30
0.0
  3
ARROW
  1

  0
LINE
  5
41F
330
E00DEA61
100
AcDbEntity
  8
0
100
AcDbLine
 10
1.0
 20
0.5
 30
0.0
 11
-0.5000000000000214
 21
0.0980762113533018
 31
0.0
  0
LINE
  5
420
330
E00DEA61
100
AcDbEntity
  8
0
100
AcDbLine
 10
0.0
 20
0.5
 30
0.0
 11
1.0
 21
0.5
 31
0.0
  0
LINE
  5
421
330
E00DEA61
100
AcDbEntity
  8
0
100
AcDbLine
 10
1.0
 20
0.5
 30
0.0
 11
-0.4999999999999575
 21
0.9019237886467408
 31
0.0
  0
ENDBLK
  5
422
330
E00DEA61
100
AcDbEntity
  8
0
100
AcDbBlockEnd
  0
BLOCK
  5
460
330
E00DEA68
100
AcDbEntity
  8
0
100
AcDbBlockBegin
  2
ARROWANG
 70
     0
 10
0.0
 20
0.0
 30
0.0
  3
ARROWANG
  1

  0
LINE
  5
461
330
E00DEA68
100
AcDbEntity
  8
SUNPOU
100
AcDbLine
 10
0.0
 20
0.0
 30
0.0
 11
-1.499999999999956
 21
0.401923788646741
 31
0.0
  0
LINE
  5
462
330
E00DEA68
100
AcDbEntity
  8
SUNPOU
100
AcDbLine
 10
0.0
 20
0.0
 30
0.0
 11
-1.500000000000027
 21
-0.4019237886467124
 31
0.0
  0
ENDBLK
  5
463
330
E00DEA68
100
AcDbEntity
  8
0
100
AcDbBlockEnd
  0
BLOCK
  5
E00DFB33
330
E00DFB2F
100
AcDbEntity
  8
0
100
AcDbBlockBegin
  2
AR_OPEN
 70
     0
 10
0.0
 20
0.0
 30
0.0
  3
AR_OPEN
  1

  0
LINE
  5
E00DFB30
330
E00DFB2F
100
AcDbEntity
  8
0
 62
     0
100
AcDbLine
 10
-1.0
 20
0.0
 30
0.0
 11
0.0
 21
0.0
 31
0.0
  0
LINE
  5
E00DFB31
330
E00DFB2F
100
AcDbEntity
  8
0
 62
     0
100
AcDbLine
 10
0.0
 20
0.0
 30
0.0
 11
-1.0
 21
0.2679491924311037
 31
0.0
  0
LINE
  5
E00DFB32
330
E00DFB2F
100
AcDbEntity
  8
0
 62
     0
100
AcDbLine
 10
0.0
 20
0.0
 30
0.0
 11
-1.0
 21
-0.2679491924311037
 31
0.0
  0
ENDBLK
  5
E00DFB34
330
E00DFB2F
100
AcDbEntity
  8
0
100
AcDbBlockEnd
  0
BLOCK
  5
E00E0A26
330
E00E0A21
100
AcDbEntity
  8
0
100
AcDbBlockBegin
  2
WAKU
 70
     0
 10
0.0
 20
0.0
 30
0.0
  3
WAKU
  1

  0
LINE
  5
E00E0A22
330
E00E0A21
100
AcDbEntity
  8
WAKU
100
AcDbLine
 10
0.9999999959999998
 20
0.0
 30
0.0
 11
0.9999999959999998
 21
0.9999999999999998
 31
0.0
  0
LINE
  5
E00E0A23
330
E00E0A21
100
AcDbEntity
  8
WAKU
100
AcDbLine
 10
0.0
 20
0.9999999999999998
 30
0.0
 11
0.9999999959999998
 21
0.9999999999999998
 31
0.0
  0
LINE
  5
E00E0A24
330
E00E0A21
100
AcDbEntity
  8
WAKU
100
AcDbLine
 10
0.9999999959999998
 20
0.0
 30
0.0
 11
0.0
 21
0.0
 31
0.0
  0
LINE
  5
E00E0A25
330
E00E0A21
100
AcDbEntity
  8
WAKU
100
AcDbLine
 10
0.0
 20
0.0
 30
0.0
 11
0.0
 21
0.9999999999999998
 31
0.0
  0
ENDBLK
  5
E00E0A27
330
E00E0A21
100
AcDbEntity
  8
0
100
AcDbBlockEnd
  0
ENDSEC
  0
SECTION
  2
ENTITIES
  0
LWPOLYLINE
  5
E00ED717
330
E00DEA5D
100
AcDbEntity
  8
WAKU
100
AcDbPolyline
 90
        4
 70
     1
 43
0.0
 10
180.9999989059058
 20
0.0000003803513664
 10
-0.0000003700945399
 20
0.0000003803513664
 10
-0.0000003700945399
 20
273.0000003803513
 10
180.9999989059058
 20
273.0000003803513
  0
LINE
  5
E00ED718
330
E00DEA5D
100
AcDbEntity
  8
JISSEN
100
AcDbLine
 10
122.9999989059058
 20
268.0000003803513
 30
0.0
 11
180.999998543906
 21
268.0000003803513
 31
0.0
  0
LINE
  5
E00ED719
330
E00DEA5D
100
AcDbEntity
  8
JISSEN
100
AcDbLine
 10
122.9999989059058
 20
263.0000003803513
 30
0.0
 11
180.999998543906
 21
263.0000003803513
 31
0.0
  0
LINE
  5
E00ED71A
330
E00DEA5D
100
AcDbEntity
  8
JISSEN
100
AcDbLine
 10
122.9999989059058
 20
258.0000003803513
 30
0.0
 11
180.999998543906
 21
258.0000003803513
 31
0.0
  0
TEXT
  5
E00ED71B
330
E00DEA5D
100
AcDbEntity
  8
SUNPOU
100
AcDbText
 10
56.7388532011855
 20
133.8248515246666
 30
0.0
 40
3.0
  1
1
  7
K
 72
     4
 11
57.09599605832835
 21
135.3248515246666
 31
0.0
100
AcDbText
  0
CIRCLE
  5
E00ED71C
330
E00DEA5D
100
AcDbEntity
  8
SUNPOU
100
AcDbCircle
 10
57.09599605832835
 20
135.3248515246666
 30
0.0
 40
3.0
  0
LINE
  5
E00ED71D
330
E00DEA5D
100
AcDbEntity
  8
JISSEN
100
AcDbLine
 39
1680.364539346804
 10
85.83086612224974
 20
39.46864176546251
 30
0.0
 11
86.5307036283491
 21
38.76880425935769
 31
0.0
  0
LINE
  5
E00ED71E
330
E00DEA5D
100
AcDbEntity
  8
JISSEN
100
AcDbLine
 39
1680.364539346804
 10
94.28054724982235
 20
39.46864176543522
 30
0.0
 11
93.58070974371845
 21
38.76880425933404
 31
0.0
  0
LINE
  5
E00ED71F
330
E00DEA5D
100
AcDbEntity
  8
JISSEN
100
AcDbLine
 10
68.85871361816794
 20
103.083962441588
 30
0.0
 11
61.66495223310676
 21
103.083962441588
 31
0.0
  0
LINE
  5
E00ED720
330
E00DEA5D
100
AcDbEntity
  8
JISSEN
100
AcDbLine
 10
61.66495223310903
 20
100.0839624154882
 30
0.0
 11
68.85871361816794
 21
100.0839624154882
 31
0.0
  0
ARC
  5
E00ED721
330
E00DEA5D
100
AcDbEntity
  8
JISSEN
100
AcDbCircle
 10
90.05570668601762
 20
101.5839624285385
 30
0.0
 40
21.25000000000001
100
AcDbArc
 50
179.9999886858837
 51
269.9999886859358
  0
ARC
  5
E00ED722
330
E00DEA5D
100
AcDbEntity
  8
JISSEN
100
AcDbCircle
 10
90.05570668601762
 20
101.5839624285385
 30
0.0
 40
21.25000000000001
100
AcDbArc
 50
89.99998868593587
 51
179.9999886858837
  0
ARC
  5
E00ED723
330
E00DEA5D
100
AcDbEntity
  8
JISSEN
100
AcDbCircle
 10
90.05570668601762
 20
101.5839624285385
 30
0.0
 40
34.0
100
AcDbArc
 50
90.0
 51
270.0
  0
LINE
  5
E00ED724
330
E00DEA5D
100
AcDbEntity
  8
JISSEN
100
AcDbLine
 10
56.05570483826818
 20
52.21797439908505
 30
0.0
 11
90.05570668601762
 21
52.21797439908505
 31
0.0
  0
LINE
  5
E00ED725
330
E00DEA5D
100
AcDbEntity
  8
JISSEN
100
AcDbLine
 10
71.77958124815326
 20
49.22164611223661
 30
0.0
 11
60.00671174920831
 21
50.87621501846252
 31
0.0
  0
ARC
  5
E00ED726
330
E00DEA5D
100
AcDbEntity
  8
JISSEN
100
AcDbCircle
 10
53.80570668601762
 20
37.21797439908505
 30
0.0
 40
15.0
100
AcDbArc
 50
0.0
 51
65.58138155570325
  0
HATCH
  5
E00ED727
330
E00DEA5D
100
AcDbEntity
  8
SUNPOU
100
AcDbHatch
 10
0.0
 20
0.0
 30
0.0
210
0.0
220
0.0
230
1.0
  2
ANSI31
 70
     0
 71
     0
 91
        2
 92
        5
 93
        5
 72
     1
 10
90.05570668601762
 20
62.21797439908527
 11
33.0038385813898
 21
62.21797439908346
 72
     4
 94
        3
 73
     0
 74
     0
 95
       11
 96
        7
 40
0.0
 40
0.0
 40
0.0
 40
0.0
 40
3.264692203133994
 40
6.15697472568029
 40
8.955271668736928
 40
10.85738683396026
 40
10.85738683396026
 40
10.85738683396026
 40
10.85738683396026
 10
33.00383858138889
 20
62.21797439908527
 10
33.67893926967531
 20
61.216575447879
 10
34.95213062017342
 20
59.32800903816655
 10
32.686285903829
 20
56.47663800509667
 10
34.8894030703857
 20
53.85030750735655
 10
33.54704887965158
 20
52.68823153416611
 10
33.00383858138889
 20
52.21797439908527
 72
     1
 10
33.00383858138889
 20
52.21797439908527
 11
57.55570668594168
 21
52.21797439908527
 72
     1
 10
57.55570668594168
 20
52.21797439908527
 11
90.05570668601762
 21
52.21797439908527
 72
     1
 10
90.05570668601762
 20
52.21797439908346
 11
90.05570668601762
 21
62.21797439908527
 97
        0
 92
        5
 93
        5
 72
     4
 94
        3
 73
     0
 74
     0
 95
       11
 96
        7
 40
0.0
 40
0.0
 40
0.0
 40
0.0
 40
1.902115165223333
 40
4.700412108279971
 40
7.592694630826267
 40
10.85738683396026
 40
10.85738683396026
 40
10.85738683396026
 40
10.85738683396026
 10
147.1075747906463
 20
52.21797439908527
 10
146.5643644923836
 20
52.68823153416611
 10
145.2220103016495
 20
53.85030750735655
 10
147.4251274682062
 20
56.47663800509667
 10
145.1592827518618
 20
59.32800903816655
 10
146.4324741023599
 20
61.216575447879
 10
147.1075747906463
 20
62.21797439908527
 72
     1
 10
147.1075747906459
 20
62.21797439908346
 11
90.05570668601786
 21
62.21797439908709
 72
     1
 10
90.05570668601762
 20
62.21797439908527
 11
90.05570668601762
 21
52.21797439908346
 72
     1
 10
90.05570668601762
 20
52.21797439908527
 11
122.5557066860935
 21
52.21797439908527
 72
     1
 10
122.5557066860935
 20
52.21797439908527
 11
147.1075747906463
 21
52.21797439908527
 97
        0
 75
     0
 76
     1
 52
0.0
 41
10.0
 77
     0
 78
     1
 53
45.0
 43
185.0253220162142
 44
-2520.445078496028
 45
-0.8838834764831842
 46
0.8838834764831844
 79
     0
 47
0.087569455337929
 98
        2
 10
84.46519763967922
 20
59.23529772472261
 10
105.8413458503321
 20
58.97258934583419
  0
ARC
  5
E00ED728
330
E00DEA5D
100
AcDbEntity
  8
JISSEN
100
AcDbCircle
 10
57.79414640816799
 20
53.20682592103503
 30
0.0
 40
1.999999999999985
100
AcDbArc
 50
209.6318914940861
 51
262.0000000000055
  0
LINE
  5
E00ED729
330
E00DEA5D
100
AcDbEntity
  8
JISSEN
100
AcDbLine
 10
57.51579884311763
 20
51.22628978158491
 30
0.0
 11
60.00671233856815
 21
50.87621493903452
 31
0.0
  0
LINE
  5
E00ED72A
330
E00DEA5D
100
AcDbEntity
  8
SUNPOU
100
AcDbLine
 10
58.96407556257845
 20
35.97817761934539
 30
0.0
 11
66.41552579546186
 21
45.34154886031183
 31
0.0
  0
CIRCLE
  5
E00ED72B
330
E00DEA5D
100
AcDbEntity
  8
SUNPOU
100
AcDbCircle
 10
57.09599605832835
 20
33.6307792795219
 30
0.0
 40
3.0
  0
TEXT
  5
E00ED72C
330
E00DEA5D
100
AcDbEntity
  8
SUNPOU
100
AcDbText
 10
56.09599605832835
 20
32.1307792795219
 30
0.0
 40
3.0
  1
2
  7
K
 72
     4
 11
57.09599605832835
 21
33.6307792795219
 31
0.0
100
AcDbText
  0
INSERT
  5
E00ED72D
330
E00DEA5D
100
AcDbEntity
  8
SUNPOU
100
AcDbBlockReference
  2
ARROW
 10
66.40002764594163
 20
45.32574188925946
 30
0.0
 41
1.500000000000068
 42
1.5
 43
1.5
 50
51.56959793943634
  0
LINE
  5
E00ED72E
330
E00DEA5D
100
AcDbEntity
  8
SUNPOU
100
AcDbLine
 10
57.55570668594168
 20
52.21797439908527
 30
0.0
 11
33.00383858138843
 21
52.21797439908527
 31
0.0
  0
SPLINE
  5
E00ED72F
330
E00DEA5D
100
AcDbEntity
  8
JISSEN
100
AcDbSpline
210
0.0
220
0.0
230
1.0
 70
     8
 71
     3
 72
     8
 73
     4
 74
     0
 42
0.0000000001
 43
0.0000000001
 40
0.0
 40
0.0
 40
0.0
 40
0.0
 40
2.236014716865069
 40
2.236014716865111
 40
2.236014716865111
 40
2.236014716865111
 10
61.66495223310722
 20
100.0839624154896
 30
0.0
 10
60.83609162021843
 20
100.5851464556226
 30
0.0
 10
60.00723100732944
 20
101.0863304957556
 30
0.0
 10
60.00671166705888
 20
101.583962428539
 30
0.0
  0
SPLINE
  5
E00ED730
330
E00DEA5D
100
AcDbEntity
  8
JISSEN
100
AcDbSpline
210
0.0
220
0.0
230
1.0
 70
     8
 71
     3
 72
     8
 73
     4
 74
     0
 42
0.0000000001
 43
0.0000000001
 40
0.0
 40
0.0
 40
0.0
 40
0.0
 40
2.236014716865069
 40
2.236014716865111
 40
2.236014716865111
 40
2.236014716865111
 10
61.66495223310722
 20
103.0839624415884
 30
0.0
 10
60.83609162021843
 20
102.582778401455
 30
0.0
 10
60.00723100732944
 20
102.0815943613215
 30
0.0
 10
60.00671166705888
 20
101.583962428539
 30
0.0
  0
ARC
  5
E00ED731
330
E00DEA5D
100
AcDbEntity
  8
JISSEN
100
AcDbCircle
 10
126.3057066860176
 20
37.21797439908505
 30
0.0
 40
15.0
100
AcDbArc
 50
114.4186184442967
 51
180.0
  0
LINE
  5
E00ED732
330
E00DEA5D
100
AcDbEntity
  8
JISSEN
100
AcDbLine
 10
122.5956145289176
 20
51.22628978158491
 30
0.0
 11
120.1047010334671
 21
50.87621493903452
 31
0.0
  0
ARC
  5
E00ED733
330
E00DEA5D
100
AcDbEntity
  8
JISSEN
100
AcDbCircle
 10
122.3172669638672
 20
53.20682592103503
 30
0.0
 40
1.999999999999985
100
AcDbArc
 50
277.9999999999944
 51
330.3681085059137
  0
TEXT
  5
E00ED734
330
E00DEA5D
100
AcDbEntity
  8
TEXT
100
AcDbText
 10
115.7490314297776
 20
4.698249870209274
 30
0.0
 40
3.0
  1
尺度　1/1
  7
K
 72
     4
 11
124.2204600012062
 21
5.983964155923558
 31
0.0
100
AcDbText
  0
TEXT
  5
E00ED735
330
E00DEA5D
100
AcDbEntity
  8
TEXT
100
AcDbText
 10
116.2543587171976
 20
9.100734476189927
 30
0.0
 40
3.0
  1
KF　＋ガードK 取付状態
  7
K
 72
     4
 11
137.2400730029119
 21
10.60073447618992
 31
0.0
100
AcDbText
  0
LINE
  5
E00ED736
330
E00DEA5D
100
AcDbEntity
  8
JISSEN
100
AcDbLine
 39
240.0520776831561
 10
102.4557066860209
 20
48.66513111989639
 30
0.0
 11
91.55570669906706
 21
48.6651311198949
 31
0.0
  0
LINE
  5
E00ED737
330
E00DEA5D
100
AcDbEntity
  8
JISSEN
100
AcDbLine
 39
240.0520776831561
 10
77.6557066861003
 20
48.66513111997824
 30
0.0
 11
88.5557066729682
 21
48.66513111990468
 31
0.0
  0
LINE
  5
E00ED738
330
E00DEA5D
100
AcDbEntity
  8
JISSEN
370
    -2
100
AcDbLine
 10
103.3057065295245
 20
46.46864291283555
 30
0.0
 11
91.55570669906705
 21
46.46864291283532
 31
0.0
  0
LINE
  5
E00ED739
330
E00DEA5D
100
AcDbEntity
  8
JISSEN
370
    -2
100
AcDbLine
 10
96.86897206922481
 20
44.96864173563653
 30
0.0
 11
91.55570669906703
 21
44.96864173563653
 31
0.0
  0
LINE
  5
E00ED73A
330
E00DEA5D
100
AcDbEntity
  8
JISSEN
370
    -2
100
AcDbLine
 10
96.86897206922481
 20
41.96864310653609
 30
0.0
 11
91.55570669906703
 21
41.96864310653597
 31
0.0
  0
LINE
  5
E00ED73B
330
E00DEA5D
100
AcDbEntity
  8
JISSEN
370
    -2
100
AcDbLine
 10
101.3057071330242
 20
39.46864176543522
 30
0.0
 11
91.55570669906703
 21
39.46864176543522
 31
0.0
  0
LINE
  5
E00ED73C
330
E00DEA5D
100
AcDbEntity
  8
JISSEN
100
AcDbLine
 10
91.55570669906706
 20
49.22164611223661
 30
0.0
 11
108.3318321238823
 21
49.22164611223661
 31
0.0
  0
LINE
  5
E00ED73D
330
E00DEA5D
100
AcDbEntity
  8
JISSEN
100
AcDbLine
 10
109.8057075950175
 20
26.41797402653492
 30
0.0
 11
90.05570668601762
 21
26.41797402653492
 31
0.0
  0
LINE
  5
E00ED73E
330
E00DEA5D
100
AcDbEntity
  8
JISSEN
100
AcDbLine
 10
109.7486622246681
 20
29.41797451828597
 30
0.0
 11
91.55570669906706
 21
29.41797451828597
 31
0.0
  0
LINE
  5
E00ED73F
330
E00DEA5D
100
AcDbEntity
  8
JISSEN
100
AcDbLine
 10
88.5557066729682
 20
29.41797451828609
 30
0.0
 11
88.5557066729682
 21
49.22164611225605
 31
0.0
  0
LINE
  5
E00ED740
330
E00DEA5D
100
AcDbEntity
  8
JISSEN
100
AcDbLine
 10
68.8057064625184
 20
27.91797439908577
 30
0.0
 11
68.8057064625184
 21
37.21797473433571
 31
0.0
  0
LINE
  5
E00ED741
330
E00DEA5D
100
AcDbEntity
  8
JISSEN
100
AcDbLine
 10
72.80570711816768
 20
29.41797451828597
 30
0.0
 11
72.80570711816768
 21
49.21908101703547
 31
0.0
  0
LINE
  5
E00ED742
330
E00DEA5D
100
AcDbEntity
  8
JISSEN
100
AcDbLine
 10
91.55570669906699
 20
29.41797451828609
 30
0.0
 11
91.55570669906706
 21
49.22164611221695
 31
0.0
  0
LINE
  5
E00ED743
330
E00DEA5D
100
AcDbEntity
  8
JISSEN
100
AcDbLine
 10
70.36275114736714
 20
29.41797451828597
 30
0.0
 11
88.5557066729682
 21
29.41797451828597
 31
0.0
  0
LINE
  5
E00ED744
330
E00DEA5D
100
AcDbEntity
  8
JISSEN
100
AcDbLine
 10
70.30570577701769
 20
26.41797402653492
 30
0.0
 11
90.05570668601762
 21
26.41797402653492
 31
0.0
  0
SPLINE
  5
E00ED745
330
E00DEA5D
100
AcDbEntity
  8
JISSEN
100
AcDbSpline
210
0.0
220
0.0
230
1.0
 70
     8
 71
     3
 72
     9
 73
     5
 74
     0
 42
0.0000000001
 43
0.0000000001
 40
0.0
 40
0.0
 40
0.0
 40
0.0
 40
0.5
 40
1.0
 40
1.0
 40
1.0
 40
1.0
 10
70.36275109270286
 20
29.41797439906395
 30
0.0
 10
70.35326307692617
 20
29.41797439906395
 30
0.0
 10
70.33426774809345
 20
29.41779540965171
 30
0.0
 10
70.31523356620278
 20
29.41725604370322
 30
0.0
 10
70.30570668601126
 20
29.41689556183291
 30
0.0
  0
ARC
  5
E00ED746
330
E00DEA5D
100
AcDbEntity
  8
JISSEN
100
AcDbCircle
 10
70.30570668601763
 20
27.91797439908577
 30
0.0
 40
1.5
100
AcDbArc
 50
180.0
 51
270.0
  0
SPLINE
  5
E00ED747
330
E00DEA5D
100
AcDbEntity
  8
JISSEN
100
AcDbSpline
210
0.0
220
0.0
230
1.0
 70
     8
 71
     3
 72
    16
 73
    12
 74
     0
 42
0.0000000001
 43
0.0000000001
 40
0.0
 40
0.0
 40
0.0
 40
0.0
 40
0.249999999999999
 40
0.249999999999999
 40
0.3749999999999985
 40
0.3749999999999985
 40
0.4999999999999981
 40
0.4999999999999981
 40
0.7499999999999991
 40
0.7499999999999991
 40
1.0
 40
1.0
 40
1.0
 40
1.0
 10
70.30570668601126
 20
29.41689556183291
 30
0.0
 10
70.06486285329287
 20
29.40778241741964
 30
0.0
 10
69.83576684680997
 20
29.34054769463136
 30
0.0
 10
69.54496566621696
 20
29.19022316205291
 30
0.0
 10
69.45608853352246
 20
29.13170956854765
 30
0.0
 10
69.29848298434103
 20
29.00609970243886
 30
0.0
 10
69.22845148810143
 20
28.93825219175369
 30
0.0
 10
69.04189682229412
 20
28.72232357526036
 30
0.0
 10
68.95396480957356
 20
28.56930299299665
 30
0.0
 10
68.83488227996918
 20
28.24852157487066
 30
0.0
 10
68.80570668601126
 20
28.08229231048562
 30
0.0
 10
68.80570668601126
 20
27.91797439906395
 30
0.0
  0
SPLINE
  5
E00ED748
330
E00DEA5D
100
AcDbEntity
  8
JISSEN
100
AcDbSpline
210
0.0
220
0.0
230
1.0
 70
     8
 71
     3
 72
    16
 73
    12
 74
     0
 42
0.0000000001
 43
0.0000000001
 40
0.0
 40
0.0
 40
0.0
 40
0.0
 40
0.2500000000000009
 40
0.2500000000000009
 40
0.3750000000000013
 40
0.3750000000000013
 40
0.5000000000000018
 40
0.5000000000000018
 40
0.7500000000000009
 40
0.7500000000000009
 40
1.0
 40
1.0
 40
1.0
 40
1.0
 10
88.55570668601126
 20
29.41689556183291
 30
0.0
 10
88.55570668601126
 20
29.40778241741964
 30
0.0
 10
88.61491029107424
 20
29.34054769463136
 30
0.0
 10
88.75841815725767
 20
29.19022316205291
 30
0.0
 10
88.81545865118665
 20
29.13170956854765
 30
0.0
 10
88.93965713168222
 20
29.00609970243886
 30
0.0
 10
89.00753508893217
 20
28.93825219175369
 30
0.0
 10
89.22543295900437
 20
28.72232357526036
 30
0.0
 10
89.38215081805106
 20
28.56930299299665
 30
0.0
 10
89.71283765216616
 20
28.24852157487066
 30
0.0
 10
89.8852630804579
 20
28.08229231048562
 30
0.0
 10
90.05570668601126
 20
27.91797439906395
 30
0.0
  0
SPLINE
  5
E00ED749
330
E00DEA5D
100
AcDbEntity
  8
JISSEN
100
AcDbSpline
210
0.0
220
0.0
230
1.0
 70
     8
 71
     3
 72
    16
 73
    12
 74
     0
 42
0.0000000001
 43
0.0000000001
 40
0.0
 40
0.0
 40
0.0
 40
0.0
 40
0.2500000000000009
 40
0.2500000000000009
 40
0.3750000000000013
 40
0.3750000000000013
 40
0.5000000000000018
 40
0.5000000000000018
 40
0.7500000000000009
 40
0.7500000000000009
 40
1.0
 40
1.0
 40
1.0
 40
1.0
 10
91.55570668602399
 20
29.41689556183291
 30
0.0
 10
91.55570668602399
 20
29.40778241741964
 30
0.0
 10
91.49650308096102
 20
29.34054769463136
 30
0.0
 10
91.3529952147776
 20
29.19022316205291
 30
0.0
 10
91.29595472084861
 20
29.13170956854765
 30
0.0
 10
91.17175624035303
 20
29.00609970243886
 30
0.0
 10
91.10387828310308
 20
28.93825219175369
 30
0.0
 10
90.8859804130309
 20
28.72232357526036
 30
0.0
 10
90.72926255398419
 20
28.56930299299665
 30
0.0
 10
90.39857571986908
 20
28.24852157487066
 30
0.0
 10
90.22615029157737
 20
28.08229231048562
 30
0.0
 10
90.055706686024
 20
27.91797439906395
 30
0.0
  0
ARC
  5
E00ED74A
330
E00DEA5D
100
AcDbEntity
  8
JISSEN
370
    -2
100
AcDbCircle
 10
83.31948007727556
 20
43.59711280988221
 30
0.0
 40
1.373690855685324
100
AcDbArc
 50
93.21492544802367
 51
185.3662609455776
  0
ARC
  5
E00ED74B
330
E00DEA5D
100
AcDbEntity
  8
JISSEN
370
    -2
100
AcDbCircle
 10
83.35728215097402
 20
43.37269774477999
 30
0.0
 40
1.408743357584393
100
AcDbArc
 50
176.0947579959863
 51
265.3240556089229
  0
LINE
  5
E00ED74C
330
E00DEA5D
100
AcDbEntity
  8
JISSEN
370
    -2
100
AcDbLine
 10
78.80570623904782
 20
39.4686417655098
 30
0.0
 11
88.5557066729682
 21
39.46864176544511
 31
0.0
  0
LINE
  5
E00ED74D
330
E00DEA5D
100
AcDbEntity
  8
JISSEN
370
    -2
100
AcDbLine
 10
76.80570684259442
 20
46.46864291292468
 30
0.0
 11
88.55570667296818
 21
46.46864291284543
 31
0.0
  0
LINE
  5
E00ED74E
330
E00DEA5D
100
AcDbEntity
  8
JISSEN
100
AcDbLine
 10
88.55570667296815
 20
49.22164611223661
 30
0.0
 11
71.77958124815326
 21
49.22164611223661
 31
0.0
  0
ARC
  5
E00ED74F
330
E00DEA5D
100
AcDbEntity
  8
JISSEN
370
    -2
100
AcDbCircle
 10
78.80570668606083
 20
41.46864253900957
 30
0.0
 40
2.000000000000056
100
AcDbArc
 50
179.9999999995831
 51
269.9999999996091
  0
LINE
  5
E00ED750
330
E00DEA5D
100
AcDbEntity
  8
JISSEN
100
AcDbLine
 10
71.97270426771797
 20
49.21797437298619
 30
0.0
 11
71.96083921811737
 21
49.21797437298619
 31
0.0
  0
SPLINE
  5
E00ED751
330
E00DEA5D
100
AcDbEntity
  8
JISSEN
100
AcDbSpline
210
0.0
220
0.0
230
1.0
 70
     8
 71
     3
 72
     9
 73
     5
 74
     0
 42
0.0000000001
 43
0.0000000001
 40
0.0
 40
0.0
 40
0.0
 40
0.0
 40
0.5
 40
1.0
 40
1.0
 40
1.0
 40
1.0
 10
71.86745498333244
 20
49.22164621240472
 30
0.0
 10
71.88494035886311
 20
49.22042466259108
 30
0.0
 10
71.91996696480623
 20
49.21858932662281
 30
0.0
 10
71.95510572909483
 20
49.21797439906322
 30
0.0
 10
71.97270336786937
 20
49.21797439906322
 30
0.0
  0
LINE
  5
E00ED752
330
E00DEA5D
100
AcDbEntity
  8
JISSEN
370
    -2
100
AcDbLine
 10
76.80570684259442
 20
46.46864291292468
 30
0.0
 11
76.80570684258441
 21
44.96864173572567
 31
0.0
  0
LINE
  5
E00ED753
330
E00DEA5D
100
AcDbEntity
  8
JISSEN
370
    -2
100
AcDbLine
 10
76.80570684258441
 20
44.96864173572567
 30
0.0
 11
78.69164436938468
 21
44.96864173571111
 31
0.0
  0
LINE
  5
E00ED754
330
E00DEA5D
100
AcDbEntity
  8
JISSEN
370
    -2
100
AcDbLine
 10
76.80570684256441
 20
41.96864310662522
 30
0.0
 11
78.69164436936467
 21
41.96864310661067
 31
0.0
  0
LINE
  5
E00ED755
330
E00DEA5D
100
AcDbEntity
  8
JISSEN
370
    -2
100
AcDbLine
 10
76.80570684256441
 20
41.96864310662522
 30
0.0
 11
76.80570684256122
 21
41.46864209332443
 31
0.0
  0
SPLINE
  5
E00ED756
330
E00DEA5D
100
AcDbEntity
  8
JISSEN
370
    -2
100
AcDbSpline
210
0.0
220
0.0
230
1.0
 70
    12
 71
     3
 72
    12
 73
     8
 74
     0
 42
0.0000000001
 43
0.0000000001
 40
0.0
 40
0.0
 40
0.0
 40
0.0
 40
0.2270414180693609
 40
0.4545205376007232
 40
0.6714649260062801
 40
0.8806674473517201
 40
1.0
 40
1.0
 40
1.0
 40
1.0
 10
78.69164436936649
 20
44.96864173570748
 30
0.0
 41
1.0
 10
78.78739755015363
 20
44.95173208575898
 30
0.0
 41
1.0
 10
78.97908850935687
 20
44.91788018661236
 30
0.0
 41
1.0
 10
79.25302960522254
 20
44.6439900732289
 30
0.0
 41
1.0
 10
79.45889717840032
 20
44.24362115695067
 30
0.0
 41
1.0
 10
79.56006025077908
 20
43.82715338797561
 30
0.0
 41
1.0
 10
79.56947478139205
 20
43.56416624622716
 30
0.0
 41
1.0
 10
79.57289438574775
 20
43.46864242115543
 30
0.0
 41
1.0
  0
SPLINE
  5
E00ED757
330
E00DEA5D
100
AcDbEntity
  8
JISSEN
370
    -2
100
AcDbSpline
210
0.0
220
0.0
230
1.0
 70
    12
 71
     3
 72
    12
 73
     8
 74
     0
 42
0.0000000001
 43
0.0000000001
 40
0.0
 40
0.0
 40
0.0
 40
0.0
 40
0.205840282809383
 40
0.4116490113380446
 40
0.6184457918287852
 40
0.8292559119854885
 40
1.0
 40
1.0
 40
1.0
 40
1.0
 10
79.57289438574775
 20
43.46864242115543
 30
0.0
 41
1.0
 10
79.56287791289355
 20
43.30321595586929
 30
0.0
 41
1.0
 10
79.54284650266231
 20
42.97238838433395
 30
0.0
 41
1.0
 10
79.38911856070831
 20
42.53099953189985
 30
0.0
 41
1.0
 10
79.16974874720176
 20
42.19430900404359
 30
0.0
 41
1.0
 10
78.92283808692787
 20
41.99974020392573
 30
0.0
 41
1.0
 10
78.76311835493675
 20
41.97825683448127
 30
0.0
 41
1.0
 10
78.69164436934648
 20
41.96864310661431
 30
0.0
 41
1.0
  0
LINE
  5
E00ED758
330
E00DEA5D
100
AcDbEntity
  8
JISSEN
100
AcDbLine
 10
77.45570668610412
 20
49.21797439908345
 30
0.0
 11
77.45570668610139
 21
48.86513111998079
 31
0.0
  0
ARC
  5
E00ED759
330
E00DEA5D
100
AcDbEntity
  8
JISSEN
100
AcDbCircle
 10
77.65570668610121
 20
48.86513111997897
 30
0.0
 40
0.1999999999999957
100
AcDbArc
 50
179.9999999995831
 51
269.9999999996091
  0
LINE
  5
E00ED75A
330
E00DEA5D
100
AcDbEntity
  8
JISSEN
100
AcDbLine
 10
87.55570674194927
 20
38.76880425935041
 30
0.0
 11
88.55570667296818
 21
38.76880425934382
 31
0.0
  0
LINE
  5
E00ED75B
330
E00DEA5D
100
AcDbEntity
  8
JISSEN
100
AcDbLine
 10
86.53070322951021
 20
38.76880465819658
 30
0.0
 11
87.55570674194927
 21
38.76880425935041
 31
0.0
  0
LINE
  5
E00ED75C
330
E00DEA5D
100
AcDbEntity
  8
JISSEN
100
AcDbLine
 10
93.58071014255733
 20
38.76880465817293
 30
0.0
 11
92.55570663011827
 21
38.76880425933404
 31
0.0
  0
LINE
  5
E00ED75D
330
E00DEA5D
100
AcDbEntity
  8
JISSEN
100
AcDbLine
 10
92.55570663011827
 20
38.76880425933404
 30
0.0
 11
91.55570669906701
 21
38.76880425933404
 31
0.0
  0
SPLINE
  5
E00ED75E
330
E00DEA5D
100
AcDbEntity
  8
JISSEN
100
AcDbSpline
210
0.0
220
0.0
230
1.0
 70
     8
 71
     3
 72
     8
 73
     4
 74
     0
 42
0.0000000001
 43
0.0000000001
 40
0.0
 40
0.0
 40
0.0
 40
0.0
 40
2.236014716865069
 40
2.236014716865111
 40
2.236014716865111
 40
2.236014716865111
 10
88.55570667295637
 20
49.22164611223649
 30
0.0
 10
89.05689071308961
 20
50.0505067251255
 30
0.0
 10
89.55807475322286
 20
50.8793673380145
 30
0.0
 10
90.05570668600581
 20
50.87988667828483
 30
0.0
  0
LINE
  5
E00ED75F
330
E00DEA5D
100
AcDbEntity
  8
JISSEN
370
    -2
100
AcDbLine
 10
83.24244130286411
 20
41.96864310658156
 30
0.0
 11
88.55570667296818
 21
41.96864310654587
 31
0.0
  0
LINE
  5
E00ED760
330
E00DEA5D
100
AcDbEntity
  8
JISSEN
370
    -2
100
AcDbLine
 10
83.24244130288411
 20
44.96864173568201
 30
0.0
 11
88.55570667296818
 21
44.96864173564654
 31
0.0
  0
ARC
  5
E00ED761
330
E00DEA5D
100
AcDbEntity
  8
JISSEN
370
    -2
100
AcDbCircle
 10
85.65570668605573
 20
42.06864253893718
 30
0.0
 40
0.7000000000000242
100
AcDbArc
 50
90.0
 51
180.0
  0
ARC
  5
E00ED762
330
E00DEA5D
100
AcDbEntity
  8
JISSEN
370
    -2
100
AcDbCircle
 10
83.76588832517496
 20
43.55288283617801
 30
0.0
 40
1.418614261419669
100
AcDbArc
 50
93.63587483011007
 51
183.4043513649433
  0
ARC
  5
E00ED763
330
E00DEA5D
100
AcDbEntity
  8
JISSEN
370
    -2
100
AcDbCircle
 10
83.73275811587404
 20
43.35511159967746
 30
0.0
 40
1.387632780893617
100
AcDbArc
 50
175.3070321912918
 51
267.6527416120472
  0
LINE
  5
E00ED764
330
E00DEA5D
100
AcDbEntity
  8
JISSEN
370
    -2
100
AcDbLine
 10
84.9557065019951
 20
42.06864107403589
 30
0.0
 11
84.9557065019951
 21
41.96864310653609
 31
0.0
  0
LINE
  5
E00ED765
330
E00DEA5D
100
AcDbEntity
  8
JISSEN
100
AcDbLine
 10
88.5557066729682
 20
42.768802788681
 30
0.0
 11
85.65570668605573
 21
42.76880278868111
 31
0.0
  0
LINE
  5
E00ED766
330
E00DEA5D
100
AcDbEntity
  8
JISSEN
370
    -2
100
AcDbLine
 10
86.0057065809558
 20
44.96864173563653
 30
0.0
 11
86.0057065809558
 21
42.76880278868111
 31
0.0
  0
LINE
  5
E00ED767
330
E00DEA5D
100
AcDbEntity
  8
JISSEN
370
    -2
100
AcDbLine
 10
84.50570680080341
 20
48.6651311199364
 30
0.0
 11
84.5057068007884
 21
46.46497119972059
 31
0.0
  0
LINE
  5
E00ED768
330
E00DEA5D
100
AcDbEntity
  8
JISSEN
100
AcDbLine
 10
91.55570669906705
 20
42.768802788681
 30
0.0
 11
94.45570668605682
 21
42.76880278868111
 31
0.0
  0
LINE
  5
E00ED769
330
E00DEA5D
100
AcDbEntity
  8
JISSEN
370
    -2
100
AcDbLine
 10
94.10570679115677
 20
44.96864173563653
 30
0.0
 11
94.10570679115677
 21
42.76880278868111
 31
0.0
  0
LINE
  5
E00ED76A
330
E00DEA5D
100
AcDbEntity
  8
JISSEN
370
    -2
100
AcDbLine
 10
95.15570687011745
 20
42.06864107403589
 30
0.0
 11
95.15570687011745
 21
41.96864310653609
 31
0.0
  0
ARC
  5
E00ED76B
330
E00DEA5D
100
AcDbEntity
  8
JISSEN
370
    -2
100
AcDbCircle
 10
94.45570668605682
 20
42.06864253893718
 30
0.0
 40
0.7000000000000242
100
AcDbArc
 50
0.0
 51
90.0
  0
SPLINE
  5
E00ED76C
330
E00DEA5D
100
AcDbEntity
  8
JISSEN
100
AcDbSpline
210
0.0
220
0.0
230
1.0
 70
     8
 71
     3
 72
     8
 73
     4
 74
     0
 42
0.0000000001
 43
0.0000000001
 40
0.0
 40
0.0
 40
0.0
 40
0.0
 40
2.236014716865069
 40
2.236014716865111
 40
2.236014716865111
 40
2.236014716865111
 10
91.55570669905523
 20
49.22164611223649
 30
0.0
 10
91.054522658922
 20
50.0505067251255
 30
0.0
 10
90.55333861878876
 20
50.8793673380145
 30
0.0
 10
90.05570668600581
 20
50.87988667828483
 30
0.0
  0
LINE
  5
E00ED76D
330
E00DEA5D
100
AcDbEntity
  8
JISSEN
370
    -2
100
AcDbLine
 10
95.6057065713178
 20
48.66513111990002
 30
0.0
 11
95.6057065713178
 21
46.46497119968421
 31
0.0
  0
LINE
  5
E00ED76E
330
E00DEA5D
100
AcDbEntity
  8
JISSEN
100
AcDbLine
 10
111.3057069095168
 20
27.91797439908577
 30
0.0
 11
111.3057069095168
 21
37.21797473433571
 31
0.0
  0
LINE
  5
E00ED76F
330
E00DEA5D
100
AcDbEntity
  8
JISSEN
100
AcDbLine
 10
107.3057062538675
 20
29.41797451828597
 30
0.0
 11
107.3057062538675
 21
49.21908101703547
 31
0.0
  0
ARC
  5
E00ED770
330
E00DEA5D
100
AcDbEntity
  8
JISSEN
100
AcDbCircle
 10
109.8057066860176
 20
27.91797439908577
 30
0.0
 40
1.5
100
AcDbArc
 50
270.0
 51
0.0
  0
SPLINE
  5
E00ED771
330
E00DEA5D
100
AcDbEntity
  8
JISSEN
100
AcDbSpline
210
0.0
220
0.0
230
1.0
 70
     8
 71
     3
 72
    16
 73
    12
 74
     0
 42
0.0000000001
 43
0.0000000001
 40
0.0
 40
0.0
 40
0.0
 40
0.0
 40
0.249999999999999
 40
0.249999999999999
 40
0.3749999999999985
 40
0.3749999999999985
 40
0.4999999999999981
 40
0.4999999999999981
 40
0.7499999999999991
 40
0.7499999999999991
 40
1.0
 40
1.0
 40
1.0
 40
1.0
 10
109.805706686024
 20
29.41689556183291
 30
0.0
 10
110.0465505187423
 20
29.40778241741964
 30
0.0
 10
110.2756465252252
 20
29.34054769463136
 30
0.0
 10
110.5664477058182
 20
29.19022316205291
 30
0.0
 10
110.6553248385127
 20
29.13170956854765
 30
0.0
 10
110.8129303876942
 20
29.00609970243886
 30
0.0
 10
110.8829618839338
 20
28.93825219175369
 30
0.0
 10
111.0695165497411
 20
28.72232357526036
 30
0.0
 10
111.1574485624617
 20
28.56930299299665
 30
0.0
 10
111.276531092066
 20
28.24852157487066
 30
0.0
 10
111.3057066860239
 20
28.08229231048562
 30
0.0
 10
111.3057066860239
 20
27.91797439906395
 30
0.0
  0
SPLINE
  5
E00ED772
330
E00DEA5D
100
AcDbEntity
  8
JISSEN
100
AcDbSpline
210
0.0
220
0.0
230
1.0
 70
     8
 71
     3
 72
     9
 73
     5
 74
     0
 42
0.0000000001
 43
0.0000000001
 40
0.0
 40
0.0
 40
0.0
 40
0.0
 40
0.5
 40
1.0
 40
1.0
 40
1.0
 40
1.0
 10
109.7486622793323
 20
29.41797439906395
 30
0.0
 10
109.758150295109
 20
29.41797439906395
 30
0.0
 10
109.7771456239418
 20
29.41779540965171
 30
0.0
 10
109.7961798058324
 20
29.41725604370322
 30
0.0
 10
109.805706686024
 20
29.41689556183291
 30
0.0
  0
LINE
  5
E00ED773
330
E00DEA5D
100
AcDbEntity
  8
JISSEN
100
AcDbLine
 10
108.3318321238823
 20
49.22164611223661
 30
0.0
 11
120.1047016228269
 21
50.87621501846252
 31
0.0
  0
ARC
  5
E00ED774
330
E00DEA5D
100
AcDbEntity
  8
JISSEN
370
    -2
100
AcDbCircle
 10
101.3057066860248
 20
41.46864253893499
 30
0.0
 40
2.000000000000056
100
AcDbArc
 50
270.0
 51
0.0
  0
LINE
  5
E00ED775
330
E00DEA5D
100
AcDbEntity
  8
JISSEN
370
    -2
100
AcDbLine
 10
103.3057065295245
 20
44.96864173563653
 30
0.0
 11
101.4197690027242
 21
44.96864173563653
 31
0.0
  0
LINE
  5
E00ED776
330
E00DEA5D
100
AcDbEntity
  8
JISSEN
370
    -2
100
AcDbLine
 10
103.3057065295245
 20
41.96864310653609
 30
0.0
 11
101.4197690027242
 21
41.96864310653609
 31
0.0
  0
ARC
  5
E00ED777
330
E00DEA5D
100
AcDbEntity
  8
JISSEN
370
    -2
100
AcDbCircle
 10
96.34552504692443
 20
43.55288283613617
 30
0.0
 40
1.418614261419669
100
AcDbArc
 50
356.595648634639
 51
86.36412516949812
  0
ARC
  5
E00ED778
330
E00DEA5D
100
AcDbEntity
  8
JISSEN
370
    -2
100
AcDbCircle
 10
96.37865525622443
 20
43.35511159963561
 30
0.0
 40
1.387632780893617
100
AcDbArc
 50
272.3472583875872
 51
4.692967808289882
  0
ARC
  5
E00ED779
330
E00DEA5D
100
AcDbEntity
  8
JISSEN
370
    -2
100
AcDbCircle
 10
96.79193329482428
 20
43.59711280983674
 30
0.0
 40
1.373690855685324
100
AcDbArc
 50
354.6337390540037
 51
86.78507455160383
  0
ARC
  5
E00ED77A
330
E00DEA5D
100
AcDbEntity
  8
JISSEN
370
    -2
100
AcDbCircle
 10
96.75413122112445
 20
43.37269774473452
 30
0.0
 40
1.408743357584393
100
AcDbArc
 50
274.6759443907203
 51
3.905242003595849
  0
SPLINE
  5
E00ED77B
330
E00DEA5D
100
AcDbEntity
  8
JISSEN
370
    -2
100
AcDbSpline
210
0.0
220
0.0
230
1.0
 70
    12
 71
     3
 72
    12
 73
     8
 74
     0
 42
0.0000000001
 43
0.0000000001
 40
0.0
 40
0.0
 40
0.0
 40
0.0
 40
0.2270414180693609
 40
0.4545205376007232
 40
0.6714649260062801
 40
0.8806674473517201
 40
1.0
 40
1.0
 40
1.0
 40
1.0
 10
101.4197690027424
 20
44.96864173563108
 30
0.0
 41
1.0
 10
101.3240158219552
 20
44.95173208568258
 30
0.0
 41
1.0
 10
101.1323248627516
 20
44.91788018653778
 30
0.0
 41
1.0
 10
100.8583837668841
 20
44.64399007315615
 30
0.0
 41
1.0
 10
100.6525161937036
 20
44.24362115687791
 30
0.0
 41
1.0
 10
100.5513531213221
 20
43.82715338790467
 30
0.0
 41
1.0
 10
100.5419385907073
 20
43.56416624615621
 30
0.0
 41
1.0
 10
100.5385189863511
 20
43.46864242108449
 30
0.0
 41
1.0
  0
SPLINE
  5
E00ED77C
330
E00DEA5D
100
AcDbEntity
  8
JISSEN
370
    -2
100
AcDbSpline
210
0.0
220
0.0
230
1.0
 70
    12
 71
     3
 72
    12
 73
     8
 74
     0
 42
0.0000000001
 43
0.0000000001
 40
0.0
 40
0.0
 40
0.0
 40
0.0
 40
0.205840282809383
 40
0.4116490113380446
 40
0.6184457918287852
 40
0.8292559119854885
 40
1.0
 40
1.0
 40
1.0
 40
1.0
 10
100.5385189863511
 20
43.46864242108449
 30
0.0
 41
1.0
 10
100.548535459204
 20
43.30321595579834
 30
0.0
 41
1.0
 10
100.5685668694334
 20
42.97238838426301
 30
0.0
 41
1.0
 10
100.7222948113842
 20
42.53099953182709
 30
0.0
 41
1.0
 10
100.9416646248885
 20
42.19430900397083
 30
0.0
 41
1.0
 10
101.1885752851614
 20
41.99974020384934
 30
0.0
 41
1.0
 10
101.3482950171521
 20
41.97825683440487
 30
0.0
 41
1.0
 10
101.4197690027424
 20
41.96864310653791
 30
0.0
 41
1.0
  0
LINE
  5
E00ED77D
330
E00DEA5D
100
AcDbEntity
  8
JISSEN
100
AcDbLine
 10
102.6557066860207
 20
49.21797439908528
 30
0.0
 11
102.6557066860207
 21
48.86513111989711
 31
0.0
  0
ARC
  5
E00ED77E
330
E00DEA5D
100
AcDbEntity
  8
JISSEN
100
AcDbCircle
 10
102.4557066860209
 20
48.86513111989711
 30
0.0
 40
0.1999999999999957
100
AcDbArc
 50
270.0
 51
0.0
  0
LINE
  5
E00ED77F
330
E00DEA5D
100
AcDbEntity
  8
JISSEN
370
    -2
100
AcDbLine
 10
103.3057065295245
 20
46.46864291283555
 30
0.0
 11
103.3057065295245
 21
44.96864173563653
 31
0.0
  0
LINE
  5
E00ED780
330
E00DEA5D
100
AcDbEntity
  8
JISSEN
370
    -2
100
AcDbLine
 10
103.3057065295245
 20
41.96864310653609
 30
0.0
 11
103.3057065295245
 21
41.4686420932353
 31
0.0
  0
SPLINE
  5
E00ED781
330
E00DEA5D
100
AcDbEntity
  8
JISSEN
100
AcDbSpline
210
0.0
220
0.0
230
1.0
 70
     8
 71
     3
 72
     9
 73
     5
 74
     0
 42
0.0000000001
 43
0.0000000001
 40
0.0
 40
0.0
 40
0.0
 40
0.0
 40
0.5
 40
1.0
 40
1.0
 40
1.0
 40
1.0
 10
108.2439583887028
 20
49.22164621240472
 30
0.0
 10
108.2264730131721
 20
49.22042466259108
 30
0.0
 10
108.191446407229
 20
49.21858932662281
 30
0.0
 10
108.1563076429404
 20
49.21797439906322
 30
0.0
 10
108.1387100041658
 20
49.21797439906322
 30
0.0
  0
LINE
  5
E00ED782
330
E00DEA5D
100
AcDbEntity
  8
JISSEN
100
AcDbLine
 10
108.1387091043172
 20
49.21797437298619
 30
0.0
 11
108.1505741539178
 21
49.21797437298619
 31
0.0
  0
LINE
  5
E00ED783
330
E00DEA5D
100
AcDbEntity
  8
SUNPOU
100
AcDbLine
 10
122.5557066860935
 20
52.21797439908527
 30
0.0
 11
147.1075747906468
 21
52.21797439908527
 31
0.0
  0
ARC
  5
E00ED784
330
E00DEA5D
100
AcDbEntity
  8
JISSEN
100
AcDbCircle
 10
90.05570668601762
 20
101.5839624285385
 30
0.0
 40
17.25000000000002
100
AcDbArc
 50
318.0000000000252
 51
355.0114580243984
  0
ARC
  5
E00ED785
330
E00DEA5D
100
AcDbEntity
  8
JISSEN
100
AcDbCircle
 10
90.05570668601762
 20
101.5839624285385
 30
0.0
 40
18.25
100
AcDbArc
 50
274.3813846339229
 51
355.6186153660771
  0
ARC
  5
E00ED786
330
E00DEA5D
100
AcDbEntity
  8
JISSEN
100
AcDbCircle
 10
90.05570668601762
 20
101.5839624285385
 30
0.0
 40
21.25000000000001
100
AcDbArc
 50
270.0000113140641
 51
0.0000113141162293
  0
ARC
  5
E00ED787
330
E00DEA5D
100
AcDbEntity
  8
JISSEN
100
AcDbCircle
 10
90.05570668601762
 20
101.5839624285385
 30
0.0
 40
15.0
100
AcDbArc
 50
270.0
 51
90.0
  0
ARC
  5
E00ED788
330
E00DEA5D
100
AcDbEntity
  8
JISSEN
100
AcDbCircle
 10
90.05570668601762
 20
101.5839624285385
 30
0.0
 40
17.25000000000002
100
AcDbArc
 50
184.9885419756015
 51
221.9999999999747
  0
ARC
  5
E00ED789
330
E00DEA5D
100
AcDbEntity
  8
JISSEN
100
AcDbCircle
 10
90.05570668601762
 20
101.5839624285385
 30
0.0
 40
18.25
100
AcDbArc
 50
184.3813846339228
 51
265.6186153660769
  0
ARC
  5
E00ED78A
330
E00DEA5D
100
AcDbEntity
  8
JISSEN
100
AcDbCircle
 10
90.05570668601762
 20
101.5839624285385
 30
0.0
 40
15.0
100
AcDbArc
 50
90.0
 51
270.0
  0
ARC
  5
E00ED78B
330
E00DEA5D
100
AcDbEntity
  8
JISSEN
100
AcDbCircle
 10
90.05570668601762
 20
101.5839624285385
 30
0.0
 40
34.0
100
AcDbArc
 50
270.0
 51
90.0
  0
CIRCLE
  5
E00ED78C
330
E00DEA5D
100
AcDbEntity
  8
JISSEN
370
    -2
100
AcDbCircle
 10
90.05570668601762
 20
101.5765608866636
 30
0.0
 40
14.64999999999998
  0
CIRCLE
  5
E00ED78D
330
E00DEA5D
100
AcDbEntity
  8
JISSEN
 48
0.2
370
    -2
100
AcDbCircle
 10
90.05570668601762
 20
101.5765608866636
 30
0.0
 40
13.25000000000011
  0
ARC
  5
E00ED78E
330
E00DEA5D
100
AcDbEntity
  8
JISSEN
100
AcDbCircle
 10
90.05570668601762
 20
101.5839624285385
 30
0.0
 40
17.25000000000002
100
AcDbArc
 50
274.9885419756014
 51
311.9999999999953
  0
LINE
  5
E00ED78F
330
E00DEA5D
100
AcDbEntity
  8
JISSEN
100
AcDbLine
 10
124.055708533767
 20
52.21797439908505
 30
0.0
 11
90.05570668601762
 21
52.21797439908505
 31
0.0
  0
SPLINE
  5
E00ED790
330
E00DEA5D
100
AcDbEntity
  8
JISSEN
100
AcDbSpline
210
0.0
220
0.0
230
1.0
 70
     8
 71
     3
 72
     8
 73
     4
 74
     0
 42
0.0000000001
 43
0.0000000001
 40
0.0
 40
0.0
 40
0.0
 40
0.0
 40
2.236014716865069
 40
2.236014716865111
 40
2.236014716865111
 40
2.236014716865111
 10
91.55570669906706
 20
73.19320797562841
 30
0.0
 10
91.05452265893381
 20
72.36434736273986
 30
0.0
 10
90.55333861880058
 20
71.53548674985086
 30
0.0
 10
90.05570668601762
 20
71.53496740958008
 30
0.0
  0
SPLINE
  5
E00ED791
330
E00DEA5D
100
AcDbEntity
  8
JISSEN
100
AcDbSpline
210
0.0
220
0.0
230
1.0
 70
     8
 71
     3
 72
     8
 73
     4
 74
     0
 42
0.0000000001
 43
0.0000000001
 40
0.0
 40
0.0
 40
0.0
 40
0.0
 40
2.236014716865069
 40
2.236014716865111
 40
2.236014716865111
 40
2.236014716865111
 10
88.5557066729682
 20
73.19320797562841
 30
0.0
 10
89.05689071310133
 20
72.36434736273986
 30
0.0
 10
89.55807475323444
 20
71.53548674985086
 30
0.0
 10
90.05570668601762
 20
71.53496740958008
 30
0.0
  0
ARC
  5
E00ED792
330
E00DEA5D
100
AcDbEntity
  8
JISSEN
100
AcDbCircle
 10
90.05570668601762
 20
101.5839624285385
 30
0.0
 40
17.25000000000002
100
AcDbArc
 50
228.0000000000046
 51
265.0114580243985
  0
LINE
  5
E00ED793
330
E00DEA5D
100
AcDbEntity
  8
JISSEN
100
AcDbLine
 10
77.91425824041766
 20
88.09951795933784
 30
0.0
 11
78.43963872516837
 21
88.68301204138834
 31
0.0
  0
LWPOLYLINE
  5
E00ED794
330
E00DEA5D
100
AcDbEntity
  8
JISSEN
100
AcDbPolyline
 90
        9
 70
   128
 43
0.0
 10
77.84407283986843
 20
88.02156905378842
 10
77.85283472261767
 20
88.0312995120389
 10
77.86160033071905
 20
88.04103555823848
 10
77.87037059541876
 20
88.05077626103821
 10
77.87914458536874
 20
88.06051975783839
 10
77.88792043801845
 20
88.07026697988886
 10
77.89669908456676
 20
88.08001606458901
 10
77.90547773116782
 20
88.08976701193797
 10
77.91425824041766
 20
88.09951795933784
  0
LWPOLYLINE
  5
E00ED795
330
E00DEA5D
100
AcDbEntity
  8
JISSEN
100
AcDbPolyline
 90
        9
 70
   128
 43
0.0
 10
78.43963872516837
 20
88.68301204138834
 10
78.4488420548671
 20
88.69323330668839
 10
78.45804538451671
 20
88.70345457193844
 10
78.46724685156846
 20
88.71367397453878
 10
78.47644552461793
 20
88.72389058318868
 10
78.48564233506772
 20
88.73410346653827
 10
78.49483448886826
 20
88.74431262458847
 10
78.50402198606866
 20
88.75451619473869
 10
78.51320389531725
 20
88.76471417693801
  0
LWPOLYLINE
  5
E00ED796
330
E00DEA5D
100
AcDbEntity
  8
JISSEN
100
AcDbPolyline
 90
        9
 70
   128
 43
0.0
 10
77.23645843441886
 20
90.04145963783821
 10
77.22626045221772
 20
90.03227772858872
 10
77.21605688206659
 20
90.02309023138833
 10
77.20584772401821
 20
90.01389807758869
 10
77.19563484066862
 20
90.0047012671389
 10
77.18541823201781
 20
89.99550259408852
 10
77.17519882941747
 20
89.98630112703859
 10
77.16497756416834
 20
89.97709779733895
 10
77.15475629891921
 20
89.96789446768843
  0
LINE
  5
E00ED797
330
E00DEA5D
100
AcDbEntity
  8
JISSEN
100
AcDbLine
 10
77.15475629891921
 20
89.96789446768843
 30
0.0
 11
76.5712622168187
 21
89.44251398293863
 31
0.0
  0
LWPOLYLINE
  5
E00ED798
330
E00DEA5D
100
AcDbEntity
  8
JISSEN
100
AcDbPolyline
 90
        9
 70
   128
 43
0.0
 10
76.5712622168187
 20
89.44251398293863
 10
76.56151126946793
 20
89.43373347368879
 10
76.55176032211716
 20
89.42495482708864
 10
76.54201123736789
 20
89.4161761804885
 10
76.53226401531833
 20
89.4074003278879
 10
76.52252051856817
 20
89.3986263378888
 10
76.51277981571661
 20
89.3898560732382
 10
76.50304376951794
 20
89.38109046513863
 10
76.49331331126927
 20
89.37232858238848
  0
SPLINE
  5
E00ED799
330
E00DEA5D
100
AcDbEntity
  8
JISSEN
100
AcDbSpline
210
0.0
220
0.0
230
1.0
 70
     8
 71
     3
 72
    12
 73
     8
 74
     0
 42
0.0000000001
 43
0.0000000001
 40
0.0
 40
0.0
 40
0.0
 40
0.0
 40
0.2499999999999992
 40
0.2499999999999992
 40
0.4999999999999984
 40
0.4999999999999984
 40
1.0
 40
1.0
 40
1.0
 40
1.0
 10
88.661496435657
 20
83.38729576186551
 30
0.0
 10
88.661496435657
 20
83.38729576186551
 30
0.0
 10
88.67037491630913
 20
83.37291123565274
 30
0.0
 10
88.7059193007019
 20
83.31735034176153
 30
0.0
 10
88.73262970521796
 20
83.2761484888365
 30
0.0
 10
88.83782126066694
 20
83.12335067293089
 30
0.0
 10
88.94294547037976
 20
82.97940424234139
 30
0.0
 10
89.08102314171742
 20
82.83396242853314
 30
0.0
  0
SPLINE
  5
E00ED79A
330
E00DEA5D
100
AcDbEntity
  8
JISSEN
100
AcDbSpline
210
0.0
220
0.0
230
1.0
 70
     8
 71
     3
 72
    12
 73
     8
 74
     0
 42
0.0000000001
 43
0.0000000001
 40
0.0
 40
0.0
 40
0.0
 40
0.0
 40
0.2499999999999992
 40
0.2499999999999992
 40
0.4999999999999984
 40
0.4999999999999984
 40
1.0
 40
1.0
 40
1.0
 40
1.0
 10
91.44991693637825
 20
83.38729576186551
 30
0.0
 10
91.44991693637825
 20
83.38729576186551
 30
0.0
 10
91.44103845572614
 20
83.37291123565274
 30
0.0
 10
91.40549407133335
 20
83.31735034176153
 30
0.0
 10
91.3787836668173
 20
83.2761484888365
 30
0.0
 10
91.27359211136832
 20
83.12335067293089
 30
0.0
 10
91.16846790165551
 20
82.97940424234139
 30
0.0
 10
91.03039023031783
 20
82.83396242853314
 30
0.0
  0
LINE
  5
E00ED79B
330
E00DEA5D
100
AcDbEntity
  8
JISSEN
100
AcDbLine
 10
88.5557066729682
 20
80.38696936068891
 30
0.0
 11
88.5557066729682
 21
73.19320797562841
 31
0.0
  0
LINE
  5
E00ED79C
330
E00DEA5D
100
AcDbEntity
  8
JISSEN
100
AcDbLine
 10
91.55570669906706
 20
80.38696936068891
 30
0.0
 11
91.55570669906706
 21
73.19320797562841
 31
0.0
  0
SPLINE
  5
E00ED79D
330
E00DEA5D
100
AcDbEntity
  8
JISSEN
100
AcDbSpline
210
0.0
220
0.0
230
1.0
 70
     8
 71
     3
 72
    10
 73
     6
 74
     0
 42
0.0000000001
 43
0.0000000001
 40
0.0
 40
0.0
 40
0.0
 40
0.0
 40
0.5
 40
0.5
 40
1.0
 40
1.0
 40
1.0
 40
1.0
 10
89.08102314171742
 20
82.83396242853223
 30
0.0
 10
89.22638117754582
 20
82.68085196412584
 30
0.0
 10
89.38267527072207
 20
82.51811533145019
 30
0.0
 10
89.71305115874679
 20
82.17890192601817
 30
0.0
 10
89.88458531307083
 20
82.0051075347942
 30
0.0
 10
90.05570668602127
 20
81.83396242853223
 30
0.0
  0
SPLINE
  5
E00ED79E
330
E00DEA5D
100
AcDbEntity
  8
JISSEN
100
AcDbSpline
210
0.0
220
0.0
230
1.0
 70
     8
 71
     3
 72
    10
 73
     6
 74
     0
 42
0.0000000001
 43
0.0000000001
 40
0.0
 40
0.0
 40
0.0
 40
0.0
 40
0.5
 40
0.5
 40
1.0
 40
1.0
 40
1.0
 40
1.0
 10
91.03039023031783
 20
82.83396242853223
 30
0.0
 10
90.88503219448943
 20
82.68085196412584
 30
0.0
 10
90.72873810131317
 20
82.51811533145019
 30
0.0
 10
90.39836221328846
 20
82.17890192601817
 30
0.0
 10
90.22682805896442
 20
82.0051075347942
 30
0.0
 10
90.05570668601398
 20
81.83396242853223
 30
0.0
  0
ARC
  5
E00ED79F
330
E00DEA5D
100
AcDbEntity
  8
JISSEN
100
AcDbCircle
 10
90.05570668601762
 20
82.83396242853859
 30
0.0
 40
1.500000000000028
100
AcDbArc
 50
90.0
 51
158.3528915029915
  0
LINE
  5
E00ED7A0
330
E00DEA5D
100
AcDbEntity
  8
JISSEN
100
AcDbLine
 10
88.5557066729682
 20
84.28894645268838
 30
0.0
 11
88.5557066729682
 21
83.50096001023894
 31
0.0
  0
SPLINE
  5
E00ED7A1
330
E00DEA5D
100
AcDbEntity
  8
JISSEN
100
AcDbSpline
210
0.0
220
0.0
230
1.0
 70
    24
 71
     3
 72
     9
 73
     5
 74
     0
 42
0.0000000001
 43
0.0000000001
 40
0.0
 40
0.0
 40
0.0
 40
0.0
 40
0.5
 40
1.0
 40
1.0
 40
1.0
 40
1.0
 10
88.55570668602126
 20
83.50095911039034
 30
0.0
 10
88.55570668602126
 20
83.48332202336814
 30
0.0
 10
88.55570668602126
 20
83.44814443030054
 30
0.0
 10
88.55570668602126
 20
83.41315723166962
 30
0.0
 10
88.55570668602126
 20
83.39571072585341
 30
0.0
  0
SPLINE
  5
E00ED7A2
330
E00DEA5D
100
AcDbEntity
  8
JISSEN
100
AcDbSpline
210
0.0
220
0.0
230
1.0
 70
    24
 71
     3
 72
    10
 73
     6
 74
     0
 42
0.0000000001
 43
0.0000000001
 40
0.0
 40
0.0
 40
0.0
 40
0.0
 40
0.5
 40
0.5
 40
1.0
 40
1.0
 40
1.0
 40
1.0
 10
88.55570668602126
 20
84.39930357244747
 30
0.0
 10
88.55570668602126
 20
84.38098318595029
 30
0.0
 10
88.55570668602126
 20
84.36262206020591
 30
0.0
 10
88.55570668602126
 20
84.32581772689855
 30
0.0
 10
88.55570668602126
 20
84.30734735878605
 30
0.0
 10
88.55570668602126
 20
84.28894659185562
 30
0.0
  0
SPLINE
  5
E00ED7A3
330
E00DEA5D
100
AcDbEntity
  8
JISSEN
100
AcDbSpline
210
0.0
220
0.0
230
1.0
 70
    24
 71
     3
 72
    10
 73
     6
 74
     0
 42
0.0000000001
 43
0.0000000001
 40
0.0
 40
0.0
 40
0.0
 40
0.0
 40
0.5
 40
0.5
 40
1.0
 40
1.0
 40
1.0
 40
1.0
 10
91.55570668601399
 20
84.39930357244747
 30
0.0
 10
91.55570668601399
 20
84.38098318595029
 30
0.0
 10
91.55570668601399
 20
84.36262206020591
 30
0.0
 10
91.55570668601399
 20
84.32581772689855
 30
0.0
 10
91.55570668601399
 20
84.30734735878605
 30
0.0
 10
91.55570668601399
 20
84.28894659185562
 30
0.0
  0
SPLINE
  5
E00ED7A4
330
E00DEA5D
100
AcDbEntity
  8
JISSEN
100
AcDbSpline
210
0.0
220
0.0
230
1.0
 70
    24
 71
     3
 72
     9
 73
     5
 74
     0
 42
0.0000000001
 43
0.0000000001
 40
0.0
 40
0.0
 40
0.0
 40
0.0
 40
0.5
 40
1.0
 40
1.0
 40
1.0
 40
1.0
 10
91.55570668601399
 20
83.50095911039034
 30
0.0
 10
91.55570668601399
 20
83.48332202336814
 30
0.0
 10
91.55570668601399
 20
83.44814443030054
 30
0.0
 10
91.55570668601399
 20
83.41315723166962
 30
0.0
 10
91.55570668601399
 20
83.39571072585341
 30
0.0
  0
LINE
  5
E00ED7A5
330
E00DEA5D
100
AcDbEntity
  8
JISSEN
100
AcDbLine
 10
91.55570669906706
 20
84.28894645268838
 30
0.0
 11
91.55570669906706
 21
83.50096001023894
 31
0.0
  0
ARC
  5
E00ED7A6
330
E00DEA5D
100
AcDbEntity
  8
JISSEN
100
AcDbCircle
 10
90.05570668601762
 20
82.83396242853859
 30
0.0
 40
1.500000000000028
100
AcDbArc
 50
21.64710849700843
 51
90.0
  0
LINE
  5
E00ED7A7
330
E00DEA5D
100
AcDbEntity
  8
JISSEN
100
AcDbLine
 10
102.956657073116
 20
89.96789446768843
 30
0.0
 11
103.5401511552165
 21
89.44251398293863
 31
0.0
  0
LINE
  5
E00ED7A8
330
E00DEA5D
100
AcDbEntity
  8
JISSEN
100
AcDbLine
 10
102.1971551316176
 20
88.09951795933784
 30
0.0
 11
101.6717746468668
 21
88.68301204138834
 31
0.0
  0
LWPOLYLINE
  5
E00ED7A9
330
E00DEA5D
100
AcDbEntity
  8
JISSEN
100
AcDbPolyline
 90
        9
 70
   128
 43
0.0
 10
102.2673405321668
 20
88.02156905378842
 10
102.2585786494175
 20
88.0312995120389
 10
102.2498130413161
 20
88.04103555823848
 10
102.2410427766164
 20
88.05077626103821
 10
102.2322687866665
 20
88.06051975783839
 10
102.2234929340168
 20
88.07026697988886
 10
102.2147142874684
 20
88.08001606458901
 10
102.2059356408674
 20
88.08976701193797
 10
102.1971551316176
 20
88.09951795933784
  0
LWPOLYLINE
  5
E00ED7AA
330
E00DEA5D
100
AcDbEntity
  8
JISSEN
100
AcDbPolyline
 90
        9
 70
   128
 43
0.0
 10
102.8749549376164
 20
90.04145963783821
 10
102.8851529198175
 20
90.03227772858872
 10
102.8953564899686
 20
90.02309023138833
 10
102.905565648017
 20
90.01389807758869
 10
102.9157785313666
 20
90.0047012671389
 10
102.9259951400174
 20
89.99550259408852
 10
102.9362145426177
 20
89.98630112703859
 10
102.9464358078669
 20
89.97709779733895
 10
102.956657073116
 20
89.96789446768843
  0
LWPOLYLINE
  5
E00ED7AB
330
E00DEA5D
100
AcDbEntity
  8
JISSEN
100
AcDbPolyline
 90
        9
 70
   128
 43
0.0
 10
101.6717746468668
 20
88.68301204138834
 10
101.6625713171681
 20
88.69323330668839
 10
101.6533679875185
 20
88.70345457193844
 10
101.6441665204667
 20
88.71367397453878
 10
101.6349678474173
 20
88.72389058318868
 10
101.6257710369675
 20
88.73410346653827
 10
101.6165788831669
 20
88.74431262458847
 10
101.6073913859665
 20
88.75451619473869
 10
101.598209476718
 20
88.76471417693801
  0
LWPOLYLINE
  5
E00ED7AC
330
E00DEA5D
100
AcDbEntity
  8
JISSEN
100
AcDbPolyline
 90
        9
 70
   128
 43
0.0
 10
103.5401511552165
 20
89.44251398293863
 10
103.5499021025673
 20
89.43373347368879
 10
103.559653049918
 20
89.42495482708864
 10
103.5694021346673
 20
89.4161761804885
 10
103.5791493567169
 20
89.4074003278879
 10
103.588892853467
 20
89.3986263378888
 10
103.5986335563186
 20
89.3898560732382
 10
103.6083696025173
 20
89.38109046513863
 10
103.6181000607659
 20
89.37232858238848
  0
CIRCLE
  5
E00ED7AD
330
E00DEA5D
100
AcDbEntity
  8
JISSEN
100
AcDbCircle
 39
240.0520776831561
 10
90.05570668601762
 20
101.5765608866636
 30
0.0
 40
2.149999999999999
  0
ARC
  5
E00ED7AE
330
E00DEA5D
100
AcDbEntity
  8
JISSEN
100
AcDbCircle
 10
90.05570668601762
 20
101.5839624285385
 30
0.0
 40
17.24999999999999
100
AcDbArc
 50
48.00000000000467
 51
85.01145802439854
  0
ARC
  5
E00ED7AF
330
E00DEA5D
100
AcDbEntity
  8
JISSEN
100
AcDbCircle
 10
90.05570668601762
 20
101.5839624285385
 30
0.0
 40
18.25
100
AcDbArc
 50
4.381384633922886
 51
85.61861536607706
  0
ARC
  5
E00ED7B0
330
E00DEA5D
100
AcDbEntity
  8
JISSEN
100
AcDbCircle
 10
90.05570668601762
 20
101.5839624285385
 30
0.0
 40
21.25000000000001
100
AcDbArc
 50
0.0000113141162293
 51
90.00001131406412
  0
ARC
  5
E00ED7B1
330
E00DEA5D
100
AcDbEntity
  8
JISSEN
100
AcDbCircle
 10
90.05570668601762
 20
101.5839624285385
 30
0.0
 40
18.25
100
AcDbArc
 50
94.38138463392293
 51
175.6186153660771
  0
ARC
  5
E00ED7B2
330
E00DEA5D
100
AcDbEntity
  8
JISSEN
100
AcDbCircle
 10
90.05570668601762
 20
101.5839624285385
 30
0.0
 40
17.24999999999999
100
AcDbArc
 50
94.98854197560142
 51
131.9999999999953
  0
ARC
  5
E00ED7B3
330
E00DEA5D
100
AcDbEntity
  8
JISSEN
100
AcDbCircle
 10
90.05570668601762
 20
101.5839624285385
 30
0.0
 40
17.24999999999999
100
AcDbArc
 50
138.0000000000252
 51
175.0114580243984
  0
SPLINE
  5
E00ED7B4
330
E00DEA5D
100
AcDbEntity
  8
JISSEN
100
AcDbSpline
210
0.0
220
0.0
230
1.0
 70
     8
 71
     3
 72
    12
 73
     8
 74
     0
 42
0.0000000001
 43
0.0000000001
 40
0.0
 40
0.0
 40
0.0
 40
0.0
 40
0.2499999999999991
 40
0.2499999999999991
 40
0.4999999999999983
 40
0.4999999999999983
 40
1.0
 40
1.0
 40
1.0
 40
1.0
 10
71.85904001935455
 20
102.9781726788974
 30
0.0
 10
71.85904001935455
 20
102.9781726788974
 30
0.0
 10
71.84465549314268
 20
102.9692941982452
 30
0.0
 10
71.7890945992524
 20
102.9337498138525
 30
0.0
 10
71.74789274632644
 20
102.9070394093364
 30
0.0
 10
71.59509493042174
 20
102.8018478538865
 30
0.0
 10
71.45114849983042
 20
102.6967236441737
 30
0.0
 10
71.30570668602127
 20
102.5586459728369
 30
0.0
  0
SPLINE
  5
E00ED7B5
330
E00DEA5D
100
AcDbEntity
  8
JISSEN
100
AcDbSpline
210
0.0
220
0.0
230
1.0
 70
     8
 71
     3
 72
    12
 73
     8
 74
     0
 42
0.0000000001
 43
0.0000000001
 40
0.0
 40
0.0
 40
0.0
 40
0.0
 40
0.2500000000000007
 40
0.2500000000000007
 40
0.5000000000000015
 40
0.5000000000000015
 40
1.0
 40
1.0
 40
1.0
 40
1.0
 10
71.85904001935455
 20
100.189752178167
 30
0.0
 10
71.85904001935455
 20
100.189752178167
 30
0.0
 10
71.84465549314268
 20
100.1986306588191
 30
0.0
 10
71.7890945992524
 20
100.234175043211
 30
0.0
 10
71.74789274632644
 20
100.260885447728
 30
0.0
 10
71.59509493042174
 20
100.3660770031779
 30
0.0
 10
71.45114849983042
 20
100.4712012128898
 30
0.0
 10
71.30570668602127
 20
100.6092788842274
 30
0.0
  0
SPLINE
  5
E00ED7B6
330
E00DEA5D
100
AcDbEntity
  8
JISSEN
100
AcDbSpline
210
0.0
220
0.0
230
1.0
 70
     8
 71
     3
 72
    10
 73
     6
 74
     0
 42
0.0000000001
 43
0.0000000001
 40
0.0
 40
0.0
 40
0.0
 40
0.0
 40
0.5
 40
0.5
 40
1.0
 40
1.0
 40
1.0
 40
1.0
 10
71.30570668602127
 20
100.6092788842283
 30
0.0
 10
71.1525962216158
 20
100.7546369200567
 30
0.0
 10
70.98985958894013
 20
100.910931013233
 30
0.0
 10
70.65064618350993
 20
101.2413069012559
 30
0.0
 10
70.47685179228506
 20
101.4128410555808
 30
0.0
 10
70.30570668602127
 20
101.5839624285322
 30
0.0
  0
SPLINE
  5
E00ED7B7
330
E00DEA5D
100
AcDbEntity
  8
JISSEN
100
AcDbSpline
210
0.0
220
0.0
230
1.0
 70
     8
 71
     3
 72
    10
 73
     6
 74
     0
 42
0.0000000001
 43
0.0000000001
 40
0.0
 40
0.0
 40
0.0
 40
0.0
 40
0.5
 40
0.5
 40
1.0
 40
1.0
 40
1.0
 40
1.0
 10
71.30570668602127
 20
102.5586459728351
 30
0.0
 10
71.1525962216158
 20
102.4132879370067
 30
0.0
 10
70.98985958894013
 20
102.2569938438314
 30
0.0
 10
70.65064618350993
 20
101.9266179558076
 30
0.0
 10
70.47685179228506
 20
101.7550838014835
 30
0.0
 10
70.30570668602127
 20
101.5839624285322
 30
0.0
  0
LINE
  5
E00ED7B8
330
E00DEA5D
100
AcDbEntity
  8
JISSEN
100
AcDbLine
 10
72.76069071016832
 20
103.083962441588
 30
0.0
 11
71.97270426771797
 21
103.083962441588
 31
0.0
  0
SPLINE
  5
E00ED7B9
330
E00DEA5D
100
AcDbEntity
  8
JISSEN
100
AcDbSpline
210
0.0
220
0.0
230
1.0
 70
    24
 71
     3
 72
    10
 73
     6
 74
     0
 42
0.0000000001
 43
0.0000000001
 40
0.0
 40
0.0
 40
0.0
 40
0.0
 40
0.5
 40
0.5
 40
1.0
 40
1.0
 40
1.0
 40
1.0
 10
72.87104782993742
 20
103.0839624285322
 30
0.0
 10
72.85272744343934
 20
103.0839624285322
 30
0.0
 10
72.83436631769586
 20
103.0839624285322
 30
0.0
 10
72.7975619843885
 20
103.0839624285322
 30
0.0
 10
72.77909161627508
 20
103.0839624285322
 30
0.0
 10
72.76069084934466
 20
103.0839624285322
 30
0.0
  0
SPLINE
  5
E00ED7BA
330
E00DEA5D
100
AcDbEntity
  8
JISSEN
100
AcDbSpline
210
0.0
220
0.0
230
1.0
 70
    24
 71
     3
 72
     9
 73
     5
 74
     0
 42
0.0000000001
 43
0.0000000001
 40
0.0
 40
0.0
 40
0.0
 40
0.0
 40
0.5
 40
1.0
 40
1.0
 40
1.0
 40
1.0
 10
71.97270336788029
 20
103.0839624285322
 30
0.0
 10
71.955066280859
 20
103.0839624285322
 30
0.0
 10
71.91988868779048
 20
103.0839624285322
 30
0.0
 10
71.88490148916139
 20
103.0839624285322
 30
0.0
 10
71.86745498334244
 20
103.0839624285322
 30
0.0
  0
ARC
  5
E00ED7BB
330
E00DEA5D
100
AcDbEntity
  8
JISSEN
100
AcDbCircle
 10
71.30570668601762
 20
101.5839624285385
 30
0.0
 40
1.5
100
AcDbArc
 50
291.6471084970225
 51
0.0
  0
LINE
  5
E00ED7BC
330
E00DEA5D
100
AcDbEntity
  8
JISSEN
100
AcDbLine
 10
71.97270426771797
 20
100.0839624154882
 30
0.0
 11
72.76069071016832
 21
100.0839624154882
 31
0.0
  0
SPLINE
  5
E00ED7BD
330
E00DEA5D
100
AcDbEntity
  8
JISSEN
100
AcDbSpline
210
0.0
220
0.0
230
1.0
 70
    24
 71
     3
 72
    10
 73
     6
 74
     0
 42
0.0000000001
 43
0.0000000001
 40
0.0
 40
0.0
 40
0.0
 40
0.0
 40
0.5
 40
0.5
 40
1.0
 40
1.0
 40
1.0
 40
1.0
 10
72.76069084934466
 20
100.0839624285322
 30
0.0
 10
72.77913510108669
 20
100.0839624285322
 30
0.0
 10
72.79762707655686
 20
100.0839624285322
 30
0.0
 10
72.83443089419347
 20
100.0839624285322
 30
0.0
 10
72.85277021175284
 20
100.0839624285322
 30
0.0
 10
72.87104782993742
 20
100.0839624285322
 30
0.0
  0
SPLINE
  5
E00ED7BE
330
E00DEA5D
100
AcDbEntity
  8
JISSEN
100
AcDbSpline
210
0.0
220
0.0
230
1.0
 70
    24
 71
     3
 72
     9
 73
     5
 74
     0
 42
0.0000000001
 43
0.0000000001
 40
0.0
 40
0.0
 40
0.0
 40
0.0
 40
0.5
 40
1.0
 40
1.0
 40
1.0
 40
1.0
 10
71.86745498334244
 20
100.0839624285322
 30
0.0
 10
71.88494035887311
 20
100.0839624285322
 30
0.0
 10
71.91996696481623
 20
100.0839624285322
 30
0.0
 10
71.95510572910575
 20
100.0839624285322
 30
0.0
 10
71.97270336788029
 20
100.0839624285322
 30
0.0
  0
ARC
  5
E00ED7BF
330
E00DEA5D
100
AcDbEntity
  8
JISSEN
100
AcDbCircle
 10
71.30570668601762
 20
101.5839624285385
 30
0.0
 40
1.500000000000023
100
AcDbArc
 50
0.0
 51
68.35289150297744
  0
LWPOLYLINE
  5
E00ED7C0
330
E00DEA5D
100
AcDbEntity
  8
JISSEN
100
AcDbPolyline
 90
        9
 70
   128
 43
0.0
 10
78.51320389531725
 20
114.4032106801382
 10
78.50402198606866
 20
114.4134086623384
 10
78.49483448886826
 20
114.4236122324887
 10
78.48564233506772
 20
114.433821390538
 10
78.47644552461793
 20
114.4440342738885
 10
78.46724685156846
 20
114.4542508825384
 10
78.45804538451671
 20
114.4644702851387
 10
78.4488420548671
 20
114.4746915503878
 10
78.43963872516837
 20
114.4849128156388
  0
LINE
  5
E00ED7C1
330
E00DEA5D
100
AcDbEntity
  8
JISSEN
100
AcDbLine
 10
76.5712622168187
 20
113.7254108741385
 30
0.0
 11
77.15475629891921
 21
113.2000303893878
 31
0.0
  0
LWPOLYLINE
  5
E00ED7C2
330
E00DEA5D
100
AcDbEntity
  8
JISSEN
100
AcDbPolyline
 90
        9
 70
   128
 43
0.0
 10
77.15475629891921
 20
113.2000303893878
 10
77.16497756416834
 20
113.1908270596891
 10
77.17519882941747
 20
113.1816237300386
 10
77.18541823201781
 20
113.1724222629886
 10
77.19563484066862
 20
113.1632235899383
 10
77.20584772401821
 20
113.1540267794885
 10
77.21605688206659
 20
113.1448346256879
 10
77.22626045221772
 20
113.1356471284884
 10
77.23645843441886
 20
113.1264652192389
  0
LWPOLYLINE
  5
E00ED7C3
330
E00DEA5D
100
AcDbEntity
  8
JISSEN
100
AcDbPolyline
 90
        9
 70
   128
 43
0.0
 10
76.49331331126927
 20
113.7955962746887
 10
76.50304376951794
 20
113.7868343919385
 10
76.51277981571661
 20
113.7780687838389
 10
76.52252051856817
 20
113.7692985191383
 10
76.53226401531833
 20
113.7605245291883
 10
76.54201123736789
 20
113.7517486765386
 10
76.55176032211716
 20
113.7429700299885
 10
76.56151126946793
 20
113.7341913833884
 10
76.5712622168187
 20
113.7254108741385
  0
LINE
  5
E00ED7C4
330
E00DEA5D
100
AcDbEntity
  8
JISSEN
100
AcDbLine
 10
78.43963872516837
 20
114.4849128156388
 30
0.0
 11
77.91425824041766
 21
115.0684068977384
 31
0.0
  0
LWPOLYLINE
  5
E00ED7C5
330
E00DEA5D
100
AcDbEntity
  8
JISSEN
100
AcDbPolyline
 90
        9
 70
   128
 43
0.0
 10
77.91425824041766
 20
115.0684068977384
 10
77.90547773116782
 20
115.0781578450883
 10
77.89669908456676
 20
115.087908792439
 10
77.88792043801845
 20
115.0976578771883
 10
77.87914458536874
 20
115.1074050992378
 10
77.87037059541876
 20
115.117148595988
 10
77.86160033071905
 20
115.1268892988386
 10
77.85283472261767
 20
115.1366253450382
 10
77.84407283986843
 20
115.1463558032887
  0
CIRCLE
  5
E00ED7C6
330
E00DEA5D
100
AcDbEntity
  8
JISSEN
370
    -2
100
AcDbCircle
 10
90.05570668601762
 20
101.5765608866636
 30
0.0
 40
3.550000000000018
  0
CIRCLE
  5
E00ED7C7
330
E00DEA5D
100
AcDbEntity
  8
JISSEN
370
    -2
100
AcDbCircle
 10
90.05570668601762
 20
101.5765608866636
 30
0.0
 40
4.600000000000036
  0
CIRCLE
  5
E00ED7C8
330
E00DEA5D
100
AcDbEntity
  8
JISSEN
370
    -2
100
AcDbCircle
 10
90.05570668601762
 20
101.5765608866636
 30
0.0
 40
5.300000000000039
  0
CIRCLE
  5
E00ED7C9
330
E00DEA5D
100
AcDbEntity
  8
JISSEN
370
    -2
100
AcDbCircle
 10
90.05570668601762
 20
101.5765608866636
 30
0.0
 40
4.55000000000005
  0
CIRCLE
  5
E00ED7CA
330
E00DEA5D
100
AcDbEntity
  8
JISSEN
370
    -2
100
AcDbCircle
 10
90.05570668601762
 20
101.5765608866636
 30
0.0
 40
1.200000000000015
  0
CIRCLE
  5
E00ED7CB
330
E00DEA5D
100
AcDbEntity
  8
SAISEN
370
    -2
100
AcDbCircle
 10
90.05570668601762
 20
101.5765608866636
 30
0.0
 40
1.500000000000001
  0
LINE
  5
E00ED7CC
330
E00DEA5D
100
AcDbEntity
  8
JISSEN
100
AcDbLine
 10
91.55570669906706
 20
129.9747168814492
 30
0.0
 11
91.55570669906706
 21
122.7809554963882
 31
0.0
  0
LINE
  5
E00ED7CD
330
E00DEA5D
100
AcDbEntity
  8
JISSEN
100
AcDbLine
 10
88.5557066729682
 20
129.9747168814487
 30
0.0
 11
88.5557066729682
 21
122.7809554963882
 31
0.0
  0
ARC
  5
E00ED7CE
330
E00DEA5D
100
AcDbEntity
  8
JISSEN
100
AcDbCircle
 10
90.05570668601762
 20
120.3339624285385
 30
0.0
 40
1.500000000000018
100
AcDbArc
 50
201.6471084970084
 51
270.0
  0
SPLINE
  5
E00ED7CF
330
E00DEA5D
100
AcDbEntity
  8
JISSEN
100
AcDbSpline
210
0.0
220
0.0
230
1.0
 70
     8
 71
     3
 72
    12
 73
     8
 74
     0
 42
0.0000000001
 43
0.0000000001
 40
0.0
 40
0.0
 40
0.0
 40
0.0
 40
0.2499999999999976
 40
0.2499999999999976
 40
0.4999999999999952
 40
0.4999999999999952
 40
1.0
 40
1.0
 40
1.0
 40
1.0
 10
88.661496435657
 20
119.7806290951989
 30
0.0
 10
88.661496435657
 20
119.7806290951989
 30
0.0
 10
88.67037491630913
 20
119.7950136214117
 30
0.0
 10
88.7059193007019
 20
119.850574515302
 30
0.0
 10
88.73262970521796
 20
119.8917763682279
 30
0.0
 10
88.83782126066694
 20
120.0445741841326
 30
0.0
 10
88.94294547037976
 20
120.1885206147221
 30
0.0
 10
89.08102314171742
 20
120.3339624285313
 30
0.0
  0
LINE
  5
E00ED7D0
330
E00DEA5D
100
AcDbEntity
  8
JISSEN
100
AcDbLine
 10
88.5557066729682
 20
119.6669648467891
 30
0.0
 11
88.5557066729682
 21
118.8789784043879
 31
0.0
  0
SPLINE
  5
E00ED7D1
330
E00DEA5D
100
AcDbEntity
  8
JISSEN
100
AcDbSpline
210
0.0
220
0.0
230
1.0
 70
    24
 71
     3
 72
    10
 73
     6
 74
     0
 42
0.0000000001
 43
0.0000000001
 40
0.0
 40
0.0
 40
0.0
 40
0.0
 40
0.5
 40
0.5
 40
1.0
 40
1.0
 40
1.0
 40
1.0
 10
88.55570668602126
 20
118.8789782652088
 30
0.0
 10
88.55570668602126
 20
118.8605340134659
 30
0.0
 10
88.55570668602126
 20
118.8420420379966
 30
0.0
 10
88.55570668602126
 20
118.8052382203609
 30
0.0
 10
88.55570668602126
 20
118.7868989028015
 30
0.0
 10
88.55570668602126
 20
118.7686212846169
 30
0.0
  0
SPLINE
  5
E00ED7D2
330
E00DEA5D
100
AcDbEntity
  8
JISSEN
100
AcDbSpline
210
0.0
220
0.0
230
1.0
 70
    24
 71
     3
 72
     9
 73
     5
 74
     0
 42
0.0000000001
 43
0.0000000001
 40
0.0
 40
0.0
 40
0.0
 40
0.0
 40
0.5
 40
1.0
 40
1.0
 40
1.0
 40
1.0
 10
88.55570668602126
 20
119.772214131211
 30
0.0
 10
88.55570668602126
 20
119.7547007324906
 30
0.0
 10
88.55570668602126
 20
119.7196459303036
 30
0.0
 10
88.55570668602126
 20
119.6845351624965
 30
0.0
 10
88.55570668602126
 20
119.6669657466732
 30
0.0
  0
LINE
  5
E00ED7D3
330
E00DEA5D
100
AcDbEntity
  8
JISSEN
100
AcDbLine
 10
90.05570668601762
 20
121.3339633374885
 30
0.0
 11
90.05570668601762
 21
120.3339631735884
 31
0.0
  0
SPLINE
  5
E00ED7D4
330
E00DEA5D
100
AcDbEntity
  8
JISSEN
100
AcDbSpline
210
0.0
220
0.0
230
1.0
 70
     8
 71
     3
 72
    10
 73
     6
 74
     0
 42
0.0000000001
 43
0.0000000001
 40
0.0
 40
0.0
 40
0.0
 40
0.0
 40
0.5
 40
0.5
 40
1.0
 40
1.0
 40
1.0
 40
1.0
 10
89.08102314171742
 20
120.3339624285322
 30
0.0
 10
89.22638117754582
 20
120.4870728929386
 30
0.0
 10
89.38267527072207
 20
120.6498095256133
 30
0.0
 10
89.71305115874679
 20
120.9890229310453
 30
0.0
 10
89.88458531307083
 20
121.1628173222693
 30
0.0
 10
90.05570668602127
 20
121.3339624285322
 30
0.0
  0
SPLINE
  5
E00ED7D5
330
E00DEA5D
100
AcDbEntity
  8
JISSEN
100
AcDbSpline
210
0.0
220
0.0
230
1.0
 70
     8
 71
     3
 72
    10
 73
     6
 74
     0
 42
0.0000000001
 43
0.0000000001
 40
0.0
 40
0.0
 40
0.0
 40
0.0
 40
0.5
 40
0.5
 40
1.0
 40
1.0
 40
1.0
 40
1.0
 10
91.03039023031783
 20
120.3339624285322
 30
0.0
 10
90.88503219448943
 20
120.4870728929386
 30
0.0
 10
90.72873810131317
 20
120.6498095256133
 30
0.0
 10
90.39836221328846
 20
120.9890229310453
 30
0.0
 10
90.22682805896442
 20
121.1628173222693
 30
0.0
 10
90.05570668601398
 20
121.3339624285322
 30
0.0
  0
LINE
  5
E00ED7D6
330
E00DEA5D
100
AcDbEntity
  8
JISSEN
100
AcDbLine
 10
90.05570668601762
 20
121.3339633374885
 30
0.0
 11
90.05570668601762
 21
120.3339631735884
 31
0.0
  0
SPLINE
  5
E00ED7D7
330
E00DEA5D
100
AcDbEntity
  8
JISSEN
100
AcDbSpline
210
0.0
220
0.0
230
1.0
 70
    24
 71
     3
 72
     9
 73
     5
 74
     0
 42
0.0000000001
 43
0.0000000001
 40
0.0
 40
0.0
 40
0.0
 40
0.0
 40
0.5
 40
1.0
 40
1.0
 40
1.0
 40
1.0
 10
91.55570668601399
 20
119.772214131211
 30
0.0
 10
91.55570668601399
 20
119.7547007324906
 30
0.0
 10
91.55570668601399
 20
119.7196459303036
 30
0.0
 10
91.55570668601399
 20
119.6845351624965
 30
0.0
 10
91.55570668601399
 20
119.6669657466732
 30
0.0
  0
SPLINE
  5
E00ED7D8
330
E00DEA5D
100
AcDbEntity
  8
JISSEN
100
AcDbSpline
210
0.0
220
0.0
230
1.0
 70
     8
 71
     3
 72
    12
 73
     8
 74
     0
 42
0.0000000001
 43
0.0000000001
 40
0.0
 40
0.0
 40
0.0
 40
0.0
 40
0.2499999999999976
 40
0.2499999999999976
 40
0.4999999999999952
 40
0.4999999999999952
 40
1.0
 40
1.0
 40
1.0
 40
1.0
 10
91.44991693637825
 20
119.7806290951989
 30
0.0
 10
91.44991693637825
 20
119.7806290951989
 30
0.0
 10
91.44103845572614
 20
119.7950136214117
 30
0.0
 10
91.40549407133335
 20
119.850574515302
 30
0.0
 10
91.3787836668173
 20
119.8917763682279
 30
0.0
 10
91.27359211136832
 20
120.0445741841326
 30
0.0
 10
91.16846790165551
 20
120.1885206147221
 30
0.0
 10
91.03039023031783
 20
120.3339624285313
 30
0.0
  0
SPLINE
  5
E00ED7D9
330
E00DEA5D
100
AcDbEntity
  8
JISSEN
100
AcDbSpline
210
0.0
220
0.0
230
1.0
 70
    24
 71
     3
 72
    10
 73
     6
 74
     0
 42
0.0000000001
 43
0.0000000001
 40
0.0
 40
0.0
 40
0.0
 40
0.0
 40
0.5
 40
0.5
 40
1.0
 40
1.0
 40
1.0
 40
1.0
 10
91.55570668601399
 20
118.8789782652088
 30
0.0
 10
91.55570668601399
 20
118.8605340134659
 30
0.0
 10
91.55570668601399
 20
118.8420420379966
 30
0.0
 10
91.55570668601399
 20
118.8052382203609
 30
0.0
 10
91.55570668601399
 20
118.7868989028015
 30
0.0
 10
91.55570668601399
 20
118.7686212846169
 30
0.0
  0
LINE
  5
E00ED7DA
330
E00DEA5D
100
AcDbEntity
  8
JISSEN
100
AcDbLine
 10
91.55570669906706
 20
119.6669648467891
 30
0.0
 11
91.55570669906706
 21
118.8789784043879
 31
0.0
  0
ARC
  5
E00ED7DB
330
E00DEA5D
100
AcDbEntity
  8
JISSEN
100
AcDbCircle
 10
90.05570668601762
 20
120.3339624285385
 30
0.0
 40
1.500000000000018
100
AcDbArc
 50
270.0
 51
338.3528915029915
  0
SPLINE
  5
E00ED7DC
330
E00DEA5D
100
AcDbEntity
  8
JISSEN
100
AcDbSpline
210
0.0
220
0.0
230
1.0
 70
     8
 71
     3
 72
     8
 73
     4
 74
     0
 42
0.0000000001
 43
0.0000000001
 40
0.0
 40
0.0
 40
0.0
 40
0.0
 40
2.236014716865069
 40
2.236014716865111
 40
2.236014716865111
 40
2.236014716865111
 10
88.55570667296831
 20
129.9747168814492
 30
0.0
 10
89.05689071310144
 20
130.8035774943377
 30
0.0
 10
89.55807475323467
 20
131.6324381072268
 30
0.0
 10
90.05570668601775
 20
131.6329574474975
 30
0.0
  0
SPLINE
  5
E00ED7DD
330
E00DEA5D
100
AcDbEntity
  8
JISSEN
100
AcDbSpline
210
0.0
220
0.0
230
1.0
 70
     8
 71
     3
 72
     8
 73
     4
 74
     0
 42
0.0000000001
 43
0.0000000001
 40
0.0
 40
0.0
 40
0.0
 40
0.0
 40
2.236014716865069
 40
2.236014716865111
 40
2.236014716865111
 40
2.236014716865111
 10
91.55570669906717
 20
129.9747168814492
 30
0.0
 10
91.05452265893404
 20
130.8035774943377
 30
0.0
 10
90.55333861880081
 20
131.6324381072268
 30
0.0
 10
90.05570668601775
 20
131.6329574474975
 30
0.0
  0
ARC
  5
E00ED7DE
330
E00DEA5D
100
AcDbEntity
  8
JISSEN
100
AcDbCircle
 10
90.05570668601762
 20
101.5839624285385
 30
0.0
 40
17.24999999999999
100
AcDbArc
 50
4.988541975601546
 51
41.99999999997474
  0
SPLINE
  5
E00ED7DF
330
E00DEA5D
100
AcDbEntity
  8
JISSEN
100
AcDbSpline
210
0.0
220
0.0
230
1.0
 70
     8
 71
     3
 72
    10
 73
     6
 74
     0
 42
0.0000000001
 43
0.0000000001
 40
0.0
 40
0.0
 40
0.0
 40
0.0
 40
0.5
 40
0.5
 40
1.0
 40
1.0
 40
1.0
 40
1.0
 10
108.8057066860139
 20
102.5586459728351
 30
0.0
 10
108.9588171504194
 20
102.4132879370067
 30
0.0
 10
109.1215537830951
 20
102.2569938438314
 30
0.0
 10
109.4607671885253
 20
101.9266179558076
 30
0.0
 10
109.6345615797502
 20
101.7550838014835
 30
0.0
 10
109.8057066860139
 20
101.5839624285322
 30
0.0
  0
ARC
  5
E00ED7E0
330
E00DEA5D
100
AcDbEntity
  8
JISSEN
100
AcDbCircle
 10
108.8057066860176
 20
101.5839624285385
 30
0.0
 40
1.500000000000023
100
AcDbArc
 50
111.6471084970225
 51
180.0
  0
SPLINE
  5
E00ED7E1
330
E00DEA5D
100
AcDbEntity
  8
JISSEN
100
AcDbSpline
210
0.0
220
0.0
230
1.0
 70
    24
 71
     3
 72
     9
 73
     5
 74
     0
 42
0.0000000001
 43
0.0000000001
 40
0.0
 40
0.0
 40
0.0
 40
0.0
 40
0.5
 40
1.0
 40
1.0
 40
1.0
 40
1.0
 10
108.2439583886928
 20
100.0839624285322
 30
0.0
 10
108.2264730131621
 20
100.0839624285322
 30
0.0
 10
108.191446407219
 20
100.0839624285322
 30
0.0
 10
108.1563076429295
 20
100.0839624285322
 30
0.0
 10
108.1387100041549
 20
100.0839624285322
 30
0.0
  0
SPLINE
  5
E00ED7E2
330
E00DEA5D
100
AcDbEntity
  8
JISSEN
100
AcDbSpline
210
0.0
220
0.0
230
1.0
 70
    24
 71
     3
 72
    10
 73
     6
 74
     0
 42
0.0000000001
 43
0.0000000001
 40
0.0
 40
0.0
 40
0.0
 40
0.0
 40
0.5
 40
0.5
 40
1.0
 40
1.0
 40
1.0
 40
1.0
 10
107.3507225226906
 20
100.0839624285322
 30
0.0
 10
107.3322782709485
 20
100.0839624285322
 30
0.0
 10
107.3137862954783
 20
100.0839624285322
 30
0.0
 10
107.2769824778417
 20
100.0839624285322
 30
0.0
 10
107.2586431602824
 20
100.0839624285322
 30
0.0
 10
107.2403655420978
 20
100.0839624285322
 30
0.0
  0
LINE
  5
E00ED7E3
330
E00DEA5D
100
AcDbEntity
  8
JISSEN
100
AcDbLine
 10
108.1387091043172
 20
100.0839624154882
 30
0.0
 11
107.3507226618669
 21
100.0839624154882
 31
0.0
  0
SPLINE
  5
E00ED7E4
330
E00DEA5D
100
AcDbEntity
  8
JISSEN
100
AcDbSpline
210
0.0
220
0.0
230
1.0
 70
     8
 71
     3
 72
    10
 73
     6
 74
     0
 42
0.0000000001
 43
0.0000000001
 40
0.0
 40
0.0
 40
0.0
 40
0.0
 40
0.5
 40
0.5
 40
1.0
 40
1.0
 40
1.0
 40
1.0
 10
108.8057066860139
 20
100.6092788842283
 30
0.0
 10
108.9588171504194
 20
100.7546369200567
 30
0.0
 10
109.1215537830951
 20
100.910931013233
 30
0.0
 10
109.4607671885253
 20
101.2413069012559
 30
0.0
 10
109.6345615797502
 20
101.4128410555808
 30
0.0
 10
109.8057066860139
 20
101.5839624285322
 30
0.0
  0
SPLINE
  5
E00ED7E5
330
E00DEA5D
100
AcDbEntity
  8
JISSEN
100
AcDbSpline
210
0.0
220
0.0
230
1.0
 70
     8
 71
     3
 72
    12
 73
     8
 74
     0
 42
0.0000000001
 43
0.0000000001
 40
0.0
 40
0.0
 40
0.0
 40
0.0
 40
0.2500000000000007
 40
0.2500000000000007
 40
0.5000000000000015
 40
0.5000000000000015
 40
1.0
 40
1.0
 40
1.0
 40
1.0
 10
108.2523733526807
 20
100.189752178167
 30
0.0
 10
108.2523733526807
 20
100.189752178167
 30
0.0
 10
108.2667578788925
 20
100.1986306588191
 30
0.0
 10
108.3223187727828
 20
100.234175043211
 30
0.0
 10
108.3635206257088
 20
100.260885447728
 30
0.0
 10
108.5163184416135
 20
100.3660770031779
 30
0.0
 10
108.6602648722048
 20
100.4712012128898
 30
0.0
 10
108.8057066860139
 20
100.6092788842274
 30
0.0
  0
ARC
  5
E00ED7E6
330
E00DEA5D
100
AcDbEntity
  8
JISSEN
100
AcDbCircle
 10
108.8057066860176
 20
101.5839624285385
 30
0.0
 40
1.5
100
AcDbArc
 50
180.0
 51
248.3528915029774
  0
SPLINE
  5
E00ED7E7
330
E00DEA5D
100
AcDbEntity
  8
JISSEN
100
AcDbSpline
210
0.0
220
0.0
230
1.0
 70
    24
 71
     3
 72
     9
 73
     5
 74
     0
 42
0.0000000001
 43
0.0000000001
 40
0.0
 40
0.0
 40
0.0
 40
0.0
 40
0.5
 40
1.0
 40
1.0
 40
1.0
 40
1.0
 10
108.1387100041549
 20
103.0839624285322
 30
0.0
 10
108.1563470911762
 20
103.0839624285322
 30
0.0
 10
108.1915246842447
 20
103.0839624285322
 30
0.0
 10
108.2265118828738
 20
103.0839624285322
 30
0.0
 10
108.2439583886928
 20
103.0839624285322
 30
0.0
  0
SPLINE
  5
E00ED7E8
330
E00DEA5D
100
AcDbEntity
  8
JISSEN
100
AcDbSpline
210
0.0
220
0.0
230
1.0
 70
    24
 71
     3
 72
    10
 73
     6
 74
     0
 42
0.0000000001
 43
0.0000000001
 40
0.0
 40
0.0
 40
0.0
 40
0.0
 40
0.5
 40
0.5
 40
1.0
 40
1.0
 40
1.0
 40
1.0
 10
107.2403655420978
 20
103.0839624285322
 30
0.0
 10
107.2586859285959
 20
103.0839624285322
 30
0.0
 10
107.2770470543394
 20
103.0839624285322
 30
0.0
 10
107.3138513876467
 20
103.0839624285322
 30
0.0
 10
107.3323217557601
 20
103.0839624285322
 30
0.0
 10
107.3507225226906
 20
103.0839624285322
 30
0.0
  0
LINE
  5
E00ED7E9
330
E00DEA5D
100
AcDbEntity
  8
JISSEN
100
AcDbLine
 10
107.3507226618669
 20
103.083962441588
 30
0.0
 11
108.1387091043172
 21
103.083962441588
 31
0.0
  0
SPLINE
  5
E00ED7EA
330
E00DEA5D
100
AcDbEntity
  8
JISSEN
100
AcDbSpline
210
0.0
220
0.0
230
1.0
 70
     8
 71
     3
 72
    12
 73
     8
 74
     0
 42
0.0000000001
 43
0.0000000001
 40
0.0
 40
0.0
 40
0.0
 40
0.0
 40
0.2499999999999991
 40
0.2499999999999991
 40
0.4999999999999983
 40
0.4999999999999983
 40
1.0
 40
1.0
 40
1.0
 40
1.0
 10
108.2523733526807
 20
102.9781726788974
 30
0.0
 10
108.2523733526807
 20
102.9781726788974
 30
0.0
 10
108.2667578788925
 20
102.9692941982452
 30
0.0
 10
108.3223187727828
 20
102.9337498138525
 30
0.0
 10
108.3635206257088
 20
102.9070394093364
 30
0.0
 10
108.5163184416135
 20
102.8018478538865
 30
0.0
 10
108.6602648722048
 20
102.6967236441737
 30
0.0
 10
108.8057066860139
 20
102.5586459728369
 30
0.0
  0
LINE
  5
E00ED7EB
330
E00DEA5D
100
AcDbEntity
  8
JISSEN
100
AcDbLine
 10
103.5401511552165
 20
113.7254108741385
 30
0.0
 11
102.956657073116
 21
113.2000303893878
 31
0.0
  0
LWPOLYLINE
  5
E00ED7EC
330
E00DEA5D
100
AcDbEntity
  8
JISSEN
100
AcDbPolyline
 90
        9
 70
   128
 43
0.0
 10
102.956657073116
 20
113.2000303893878
 10
102.9464358078669
 20
113.1908270596891
 10
102.9362145426177
 20
113.1816237300386
 10
102.9259951400174
 20
113.1724222629886
 10
102.9157785313666
 20
113.1632235899383
 10
102.905565648017
 20
113.1540267794885
 10
102.8953564899686
 20
113.1448346256879
 10
102.8851529198175
 20
113.1356471284884
 10
102.8749549376164
 20
113.1264652192389
  0
LWPOLYLINE
  5
E00ED7ED
330
E00DEA5D
100
AcDbEntity
  8
JISSEN
100
AcDbPolyline
 90
        9
 70
   128
 43
0.0
 10
102.1971551316176
 20
115.0684068977384
 10
102.2059356408674
 20
115.0781578450883
 10
102.2147142874684
 20
115.087908792439
 10
102.2234929340168
 20
115.0976578771883
 10
102.2322687866665
 20
115.1074050992378
 10
102.2410427766164
 20
115.117148595988
 10
102.2498130413161
 20
115.1268892988386
 10
102.2585786494175
 20
115.1366253450382
 10
102.2673405321668
 20
115.1463558032887
  0
LWPOLYLINE
  5
E00ED7EE
330
E00DEA5D
100
AcDbEntity
  8
JISSEN
100
AcDbPolyline
 90
        9
 70
   128
 43
0.0
 10
101.598209476718
 20
114.4032106801382
 10
101.6073913859665
 20
114.4134086623384
 10
101.6165788831669
 20
114.4236122324887
 10
101.6257710369675
 20
114.433821390538
 10
101.6349678474173
 20
114.4440342738885
 10
101.6441665204667
 20
114.4542508825384
 10
101.6533679875185
 20
114.4644702851387
 10
101.6625713171681
 20
114.4746915503878
 10
101.6717746468668
 20
114.4849128156388
  0
LINE
  5
E00ED7EF
330
E00DEA5D
100
AcDbEntity
  8
JISSEN
100
AcDbLine
 10
101.6717746468668
 20
114.4849128156388
 30
0.0
 11
102.1971551316176
 21
115.0684068977384
 31
0.0
  0
LWPOLYLINE
  5
E00ED7F0
330
E00DEA5D
100
AcDbEntity
  8
JISSEN
100
AcDbPolyline
 90
        9
 70
   128
 43
0.0
 10
103.6181000607659
 20
113.7955962746887
 10
103.6083696025173
 20
113.7868343919385
 10
103.5986335563186
 20
113.7780687838389
 10
103.588892853467
 20
113.7692985191383
 10
103.5791493567169
 20
113.7605245291883
 10
103.5694021346673
 20
113.7517486765386
 10
103.559653049918
 20
113.7429700299885
 10
103.5499021025673
 20
113.7341913833884
 10
103.5401511552165
 20
113.7254108741385
  0
LINE
  5
E00ED7F1
330
E00DEA5D
100
AcDbEntity
  8
JISSEN
100
AcDbLine
 10
118.4464611389269
 20
100.0839624154882
 30
0.0
 11
111.2526997538673
 21
100.0839624154882
 31
0.0
  0
LINE
  5
E00ED7F2
330
E00DEA5D
100
AcDbEntity
  8
JISSEN
100
AcDbLine
 10
111.2526997538673
 20
103.083962441588
 30
0.0
 11
118.4464611389275
 21
103.083962441588
 31
0.0
  0
SPLINE
  5
E00ED7F3
330
E00DEA5D
100
AcDbEntity
  8
JISSEN
100
AcDbSpline
210
0.0
220
0.0
230
1.0
 70
     8
 71
     3
 72
     8
 73
     4
 74
     0
 42
0.0000000001
 43
0.0000000001
 40
0.0
 40
0.0
 40
0.0
 40
0.0
 40
2.236014716865069
 40
2.236014716865111
 40
2.236014716865111
 40
2.236014716865111
 10
118.446461138928
 20
103.0839624415875
 30
0.0
 10
119.2753217518168
 20
102.5827784014545
 30
0.0
 10
120.1041823647058
 20
102.0815943613215
 30
0.0
 10
120.1047017049763
 20
101.5839624285381
 30
0.0
  0
SPLINE
  5
E00ED7F4
330
E00DEA5D
100
AcDbEntity
  8
JISSEN
100
AcDbSpline
210
0.0
220
0.0
230
1.0
 70
     8
 71
     3
 72
     8
 73
     4
 74
     0
 42
0.0000000001
 43
0.0000000001
 40
0.0
 40
0.0
 40
0.0
 40
0.0
 40
2.236014716865069
 40
2.236014716865111
 40
2.236014716865111
 40
2.236014716865111
 10
118.446461138928
 20
100.0839624154887
 30
0.0
 10
119.2753217518168
 20
100.5851464556221
 30
0.0
 10
120.1041823647058
 20
101.0863304957556
 30
0.0
 10
120.1047017049763
 20
101.5839624285381
 30
0.0
  0
LINE
  5
E00ED7F5
330
E00DEA5D
100
AcDbEntity
  8
JISSEN
100
AcDbLine
 39
1680.364539346804
 10
75.40201925940471
 20
168.2688569856723
 30
0.0
 11
104.7057066860154
 21
171.2388253059359
 31
0.0
  0
LINE
  5
E00ED7F6
330
E00DEA5D
100
AcDbEntity
  8
JISSEN
100
AcDbLine
 39
1680.364539346804
 10
105.0057066860192
 20
174.2388253059195
 30
0.0
 11
105.0057066860183
 21
173.6821292343136
 31
0.0
  0
LINE
  5
E00ED7F7
330
E00DEA5D
100
AcDbEntity
  8
JISSEN
100
AcDbLine
 39
1680.364539346804
 10
105.0057066860183
 20
171.2388253059195
 30
0.0
 11
105.0057066860183
 21
170.6821292343136
 31
0.0
  0
LINE
  5
E00ED7F8
330
E00DEA5D
100
AcDbEntity
  8
JISSEN
100
AcDbLine
 39
1680.364539346804
 10
105.0057066860192
 20
177.2388253059195
 30
0.0
 11
105.0057066860183
 21
176.6821292343136
 31
0.0
  0
LINE
  5
E00ED7F9
330
E00DEA5D
100
AcDbEntity
  8
SAISEN
100
AcDbLine
 39
1680.364539346804
 10
104.2057066860181
 20
182.741668907345
 30
0.0
 11
104.7057066860181
 21
181.87564350357
 31
0.0
  0
LINE
  5
E00ED7FA
330
E00DEA5D
100
AcDbEntity
  8
JISSEN
100
AcDbLine
 39
1680.364539346804
 10
104.7057066860172
 20
165.858440548314
 30
0.0
 11
104.7057066860172
 21
166.3727999021773
 31
0.0
  0
LINE
  5
E00ED7FB
330
E00DEA5D
100
AcDbEntity
  8
JISSEN
100
AcDbLine
 39
1680.364539346804
 10
104.4057066860179
 20
164.7388253060432
 30
0.0
 11
104.7057066860172
 21
165.858440548314
 31
0.0
  0
LINE
  5
E00ED7FC
330
E00DEA5D
100
AcDbEntity
  8
JISSEN
100
AcDbLine
 39
1680.364539346804
 10
104.4057066860179
 20
164.7388253060432
 30
0.0
 11
104.7057066860172
 21
165.858440548314
 31
0.0
  0
LINE
  5
E00ED7FD
330
E00DEA5D
100
AcDbEntity
  8
JISSEN
100
AcDbLine
 39
1680.364539346804
 10
105.005706686062
 20
177.2388253059959
 30
0.0
 11
105.0057066860638
 21
176.68212923439
 31
0.0
  0
LINE
  5
E00ED7FE
330
E00DEA5D
100
AcDbEntity
  8
SAISEN
100
AcDbLine
 39
1680.364539346804
 10
75.90570668601708
 20
182.741668907345
 30
0.0
 11
75.40570668601708
 21
181.87564350357
 31
0.0
  0
LINE
  5
E00ED7FF
330
E00DEA5D
100
AcDbEntity
  8
JISSEN
100
AcDbLine
 39
1680.364539346804
 10
75.10570668601599
 20
177.2388253059195
 30
0.0
 11
75.1057066860169
 21
176.6821292343136
 31
0.0
  0
LINE
  5
E00ED800
330
E00DEA5D
100
AcDbEntity
  8
JISSEN
100
AcDbLine
 39
1680.364539346804
 10
75.1057066860169
 20
171.2388253059195
 30
0.0
 11
75.1057066860169
 21
170.6821292343136
 31
0.0
  0
LINE
  5
E00ED801
330
E00DEA5D
100
AcDbEntity
  8
JISSEN
100
AcDbLine
 39
1680.364539346804
 10
75.10570668601599
 20
174.2388253059195
 30
0.0
 11
75.1057066860169
 21
173.6821292343136
 31
0.0
  0
LINE
  5
E00ED802
330
E00DEA5D
100
AcDbEntity
  8
JISSEN
100
AcDbLine
 39
1680.364539346804
 10
75.10570668597324
 20
177.2388253059959
 30
0.0
 11
75.10570668597143
 21
176.68212923439
 31
0.0
  0
LINE
  5
E00ED803
330
E00DEA5D
100
AcDbEntity
  8
JISSEN
100
AcDbLine
 39
1680.364539346804
 10
75.70570668601726
 20
164.7388253060432
 30
0.0
 11
75.40570668601799
 21
165.858440548314
 31
0.0
  0
LINE
  5
E00ED804
330
E00DEA5D
100
AcDbEntity
  8
JISSEN
100
AcDbLine
 39
1680.364539346804
 10
75.70570668601726
 20
164.7388253060432
 30
0.0
 11
75.40570668601799
 21
165.858440548314
 31
0.0
  0
LINE
  5
E00ED805
330
E00DEA5D
100
AcDbEntity
  8
JISSEN
100
AcDbLine
 39
1680.364539346804
 10
75.40570668601799
 20
165.858440548314
 30
0.0
 11
75.40570668601799
 21
166.3727999021773
 31
0.0
  0
LINE
  5
E00ED806
330
E00DEA5D
100
AcDbEntity
  8
JISSEN
100
AcDbLine
 39
1680.364539346804
 10
75.10570668601435
 20
173.6821292343349
 30
0.0
 11
105.0057066860165
 21
176.6821292343281
 31
0.0
  0
LINE
  5
E00ED807
330
E00DEA5D
100
AcDbEntity
  8
JISSEN
100
AcDbLine
 39
1680.364539346804
 10
75.4020558067499
 20
174.2685593314311
 30
0.0
 11
105.0057066860165
 21
177.2388253059359
 31
0.0
  0
LINE
  5
E00ED808
330
E00DEA5D
100
AcDbEntity
  8
JISSEN
100
AcDbLine
 39
1680.364539346804
 10
75.10570668601696
 20
170.6821292343279
 30
0.0
 11
105.0057066860165
 21
173.6821292343281
 31
0.0
  0
LINE
  5
E00ED809
330
E00DEA5D
100
AcDbEntity
  8
JISSEN
100
AcDbLine
 39
1680.364539346804
 10
75.40205580675001
 20
171.2685593314311
 30
0.0
 11
105.0057066860165
 21
174.2388253059359
 31
0.0
  0
LINE
  5
E00ED80A
330
E00DEA5D
100
AcDbEntity
  8
JISSEN
100
AcDbLine
 39
1680.364539346804
 10
80.65411086620139
 20
168.2388253059196
 30
0.0
 11
105.0057066860165
 21
170.6821292343263
 31
0.0
  0
LINE
  5
E00ED80B
330
E00DEA5D
100
AcDbEntity
  8
JISSEN
100
AcDbLine
 39
1680.364539346804
 10
85.83086612224338
 20
154.7386642383714
 30
0.0
 11
86.53070362834274
 21
154.0388267322648
 31
0.0
  0
ARC
  5
E00ED80D
330
E00DEA5D
100
AcDbEntity
  8
JISSEN
100
AcDbCircle
 39
1680.364539346804
 10
77.90570668601708
 20
190.7416689204435
 30
0.0
 40
0.9999999999997548
100
AcDbArc
 50
270.0
 51
329.9999999999998
  0
LINE
  5
E00ED812
330
E00DEA5D
100
AcDbEntity
  8
JISSEN
100
AcDbLine
 39
1680.364539346804
 10
94.28054724981597
 20
154.7386642383423
 30
0.0
 11
93.58070974371207
 21
154.0388267322412
 31
0.0
  0
LINE
  5
E00ED816
330
E00DEA5D
100
AcDbEntity
  8
SAISEN
100
AcDbLine
 39
1680.364539346804
 10
99.55371580401539
 20
192.0416689204464
 30
0.0
 11
100.7535112314283
 21
190.8418734930344
 31
0.0
  0
LINE
  5
E00ED817
330
E00DEA5D
100
AcDbEntity
  8
JISSEN
100
AcDbLine
 39
1680.364539346804
 10
99.55371580401447
 20
192.0416689204464
 30
0.0
 11
100.7472691860241
 21
192.0416689204464
 31
0.0
  0
LINE
  5
E00ED818
330
E00DEA5D
100
AcDbEntity
  8
JISSEN
100
AcDbLine
 39
1680.364539346804
 10
90.05570668601762
 20
192.0416689204646
 30
0.0
 11
100.7472691860241
 21
192.0416689204464
 31
0.0
  0
LINE
  5
E00ED819
330
E00DEA5D
100
AcDbEntity
  8
SAISEN
100
AcDbLine
 39
1680.364539346804
 10
99.55371580401539
 20
192.04166892045
 30
0.0
 11
100.7535112314292
 21
190.841873493038
 31
0.0
  0
ARC
  5
E00ED81A
330
E00DEA5D
100
AcDbEntity
  8
JISSEN
100
AcDbCircle
 39
1680.364539346804
 10
102.2057066860181
 20
190.7416689204435
 30
0.0
 40
0.9999999999997548
100
AcDbArc
 50
210.0
 51
270.0
  0
LINE
  5
E00ED81D
330
E00DEA5D
100
AcDbEntity
  8
SAISEN
100
AcDbLine
 39
1680.364539346804
 10
80.55769756801987
 20
192.04166892045
 30
0.0
 11
79.35790214060602
 21
190.841873493038
 31
0.0
  0
LINE
  5
E00ED81E
330
E00DEA5D
100
AcDbEntity
  8
JISSEN
100
AcDbLine
 39
1680.364539346804
 10
90.05570668601762
 20
192.0416689204646
 30
0.0
 11
79.36414418601112
 21
192.0416689204464
 31
0.0
  0
LINE
  5
E00ED81F
330
E00DEA5D
100
AcDbEntity
  8
JISSEN
100
AcDbLine
 39
1680.364539346804
 10
80.55769756802078
 20
192.0416689204464
 30
0.0
 11
79.36414418601112
 21
192.0416689204464
 31
0.0
  0
LINE
  5
E00ED820
330
E00DEA5D
100
AcDbEntity
  8
SAISEN
100
AcDbLine
 39
1680.364539346804
 10
80.55769756801987
 20
192.0416689204464
 30
0.0
 11
79.35790214060694
 21
190.8418734930344
 31
0.0
  0
HATCH
  5
E00ED821
330
E00DEA5D
100
AcDbEntity
  8
HATCH
100
AcDbHatch
 10
0.0
 20
0.0
 30
0.0
210
0.0
220
0.0
230
1.0
  2
ANSI31
 70
     0
 71
     0
 91
        1
 92
        7
 72
     1
 73
     1
 93
       25
 10
60.00671174901867
 20
166.1499091822276
 42
0.0
 10
56.48557270990409
 20
166.6447730018842
 42
-0.3735722059454823
 10
56.05570483828376
 20
167.1398326795876
 42
0.0
 10
56.055706686034
 20
167.4916685851146
 42
0.0
 10
61.23754232036879
 20
167.4916685851146
 42
0.0
 10
69.66653358506801
 20
166.3070511171151
 42
0.4557262555294019
 10
70.80570668601763
 20
167.2973191858579
 42
0.0
 10
70.80570668601763
 20
167.3818845519651
 42
-0.3541185725222754
 10
71.59779499520846
 20
168.3600321526625
 42
0.0
 10
72.76361837681611
 20
168.60783556217
 42
0.3541185725362401
 10
73.55570668601763
 20
169.5859831629084
 42
0.0
 10
73.55570668601763
 20
178.9916685851146
 42
0.0
 10
74.55570668601763
 20
178.9916685851146
 42
0.0
 10
75.05570668601762
 20
178.4916685851146
 42
0.0
 10
75.05570668601762
 20
173.3861143829651
 42
0.0
 10
75.05570668601762
 20
168.8044108602641
 42
-0.0743128367426121
 10
74.99016381996921
 20
168.3658533031709
 42
0.0
 10
74.13022220741073
 20
165.5531110280387
 42
-0.3297520604192335
 10
72.69575688426039
 20
164.4916685851374
 42
0.0183434696993945
 10
72.80570668601763
 20
164.4957030635066
 42
0.0
 10
72.80570668601763
 20
143.1916685851154
 42
-0.4142135623730951
 10
71.30570668601762
 20
141.6916685851153
 42
0.0
 10
70.30570668601763
 20
141.6916685851153
 42
-0.4142135623730951
 10
68.80570668601762
 20
143.1916685851154
 42
0.0
 10
68.80570668601762
 20
152.4916685851146
 42
0.294227732135957
 97
        0
 75
     0
 76
     1
 52
0.0
 41
10.0
 77
     0
 78
     1
 53
135.0
 43
-139.6714717800575
 44
-1383.19410061969
 45
0.8838834764831842
 46
0.8838834764831844
 79
     0
 47
0.0434239996700352
 98
        1
 10
70.92820681663511
 20
161.555780966634
  0
LINE
  5
E00ED822
330
E00DEA5D
100
AcDbEntity
  8
JISSEN
100
AcDbLine
 10
61.23754232036777
 20
167.4916685851146
 30
0.0
 11
69.66653358506778
 21
166.3070511171151
 31
0.0
  0
LINE
  5
E00ED823
330
E00DEA5D
100
AcDbEntity
  8
JISSEN
100
AcDbLine
 10
61.23754232036777
 20
167.4916685851146
 30
0.0
 11
70.81175122121862
 21
167.4916685851146
 31
0.0
  0
ARC
  5
E00ED824
330
E00DEA5D
100
AcDbEntity
  8
JISSEN
100
AcDbCircle
 10
53.80570668601762
 20
152.4916685851146
 30
0.0
 40
14.99999999999999
100
AcDbArc
 50
0.0
 51
65.5813815559043
  0
LINE
  5
E00ED825
330
E00DEA5D
100
AcDbEntity
  8
SUNPOU
100
AcDbLine
 10
70.81175122119079
 20
167.4916685851437
 30
0.0
 11
33.00383858138843
 21
167.4916685851437
 31
0.0
  0
LINE
  5
E00ED826
330
E00DEA5D
100
AcDbEntity
  8
SUNPOU
100
AcDbLine
 10
73.55570668601763
 20
177.4916685851437
 30
0.0
 11
33.0038385813898
 21
177.4916685851419
 31
0.0
  0
HATCH
  5
E00ED827
330
E00DEA5D
100
AcDbEntity
  8
SUNPOU
100
AcDbHatch
 10
0.0
 20
0.0
 30
0.0
210
0.0
220
0.0
230
1.0
  2
ANSI31
 70
     0
 71
     0
 91
        2
 92
        5
 93
        5
 72
     1
 10
57.55570668594168
 20
167.4916685851437
 11
65.05570668601762
 21
167.4916685851437
 72
     1
 10
65.05570668601762
 20
167.4916685851419
 11
65.05570668601762
 21
177.4916685851437
 72
     1
 10
65.05570668601762
 20
177.4916685851437
 11
33.00383858138968
 21
177.4916685851401
 72
     4
 94
        3
 73
     0
 74
     0
 95
       11
 96
        7
 40
0.0
 40
0.0
 40
0.0
 40
0.0
 40
3.264692203133994
 40
6.15697472568029
 40
8.955271668736928
 40
10.85738683396026
 40
10.85738683396026
 40
10.85738683396026
 40
10.85738683396026
 10
33.00383858138889
 20
177.4916685851437
 10
33.67893926967531
 20
176.4902696339374
 10
34.95213062017342
 20
174.601703224225
 10
32.686285903829
 20
171.7503321911569
 10
34.8894030703857
 20
169.1240016934132
 10
33.54704887965158
 20
167.9619257202245
 10
33.00383858138889
 20
167.4916685851437
 72
     1
 10
33.00383858138843
 20
167.4916685851437
 11
57.55570668594192
 21
167.4916685851437
 97
        0
 92
        5
 93
        5
 72
     1
 10
115.0557066860176
 20
177.4916685851437
 11
115.0557066860176
 21
167.4916685851437
 72
     1
 10
115.0557066860176
 20
167.4916685851437
 11
122.5557066860935
 21
167.4916685851437
 72
     1
 10
122.5557066860935
 20
167.4916685851437
 11
147.1075747906468
 21
167.4916685851437
 72
     4
 94
        3
 73
     0
 74
     0
 95
       11
 96
        7
 40
0.0
 40
0.0
 40
0.0
 40
0.0
 40
1.902115165223333
 40
4.700412108279971
 40
7.592694630826267
 40
10.85738683396026
 40
10.85738683396026
 40
10.85738683396026
 40
10.85738683396026
 10
147.1075747906463
 20
167.4916685851437
 10
146.5643644923836
 20
167.9619257202245
 10
145.2220103016495
 20
169.1240016934132
 10
147.4251274682062
 20
171.7503321911569
 10
145.1592827518618
 20
174.601703224225
 10
146.4324741023599
 20
176.4902696339374
 10
147.1075747906463
 20
177.4916685851437
 72
     1
 10
147.107574790645
 20
177.4916685851419
 11
115.0557066860177
 21
177.4916685851437
 97
        0
 75
     0
 76
     1
 52
0.0
 41
10.0
 77
     0
 78
     1
 53
45.0
 43
185.0253220162142
 44
-2491.006975134973
 45
-0.8838834764831842
 46
0.8838834764831844
 79
     0
 47
0.1102095095325799
 98
        2
 10
57.15975285925037
 20
171.1918150015515
 10
124.8575395359823
 20
173.9470517355909
  0
LINE
  5
E00ED828
330
E00DEA5D
100
AcDbEntity
  8
SUNPOU
100
AcDbLine
 10
59.23283618437623
 20
137.4305377015959
 30
0.0
 11
77.39149312367112
 21
155.3244514495543
 31
0.0
  0
ARC
  5
E00ED829
330
E00DEA5D
100
AcDbEntity
  8
JISSEN
100
AcDbCircle
 39
240.0520776831561
 10
56.55570483827
 20
167.1398300537182
 30
0.0
 40
0.5
100
AcDbArc
 50
180.0
 51
262.0000049459389
  0
LINE
  5
E00ED82A
330
E00DEA5D
100
AcDbEntity
  8
JISSEN
100
AcDbLine
 39
240.0520776831561
 10
56.05570483827
 20
167.1398300537182
 30
0.0
 11
56.055706686034
 21
167.4916685851437
 31
0.0
  0
SPLINE
  5
E00ED82B
330
E00DEA5D
100
AcDbEntity
  8
SUNPOU
100
AcDbSpline
210
0.0
220
0.0
230
1.0
 70
     8
 71
     3
 72
    11
 73
     7
 74
     5
 42
0.0000000001
 43
0.0000000001
 44
0.0000000001
 40
0.0
 40
0.0
 40
0.0
 40
0.0
 40
3.264692203133994
 40
6.15697472568029
 40
8.955271668736928
 40
10.85738683396026
 40
10.85738683396026
 40
10.85738683396026
 40
10.85738683396026
 10
33.00383858138889
 20
177.4916685851437
 30
0.0
 10
33.67893926967527
 20
176.4902696339385
 30
0.0
 10
34.9521306201733
 20
174.6017032242249
 30
0.0
 10
32.686285903829
 20
171.7503321911556
 30
0.0
 10
34.88940307038565
 20
169.1240016934147
 30
0.0
 10
33.54704887965158
 20
167.9619257202257
 30
0.0
 10
33.00383858138889
 20
167.4916685851437
 30
0.0
 11
33.00383858138889
 21
177.4916685851437
 31
0.0
 11
34.23317895895275
 21
174.4672781643655
 31
0.0
 11
33.46099550498297
 21
171.6799800275236
 31
0.0
 11
34.19030203679108
 21
168.9783920196694
 31
0.0
 11
33.00383858138889
 21
167.4916685851437
 31
0.0
  0
LINE
  5
E00ED82C
330
E00DEA5D
100
AcDbEntity
  8
SUNPOU
100
AcDbLine
 10
65.05570668601762
 20
177.4916685851437
 30
0.0
 11
65.05570668601762
 21
167.4916685851437
 31
0.0
  0
LINE
  5
E00ED82D
330
E00DEA5D
100
AcDbEntity
  8
JISSEN
100
AcDbLine
 10
56.05570668601763
 20
167.4916685851146
 30
0.0
 11
61.23754232036777
 21
167.4916685851146
 31
0.0
  0
LINE
  5
E00ED82E
330
E00DEA5D
100
AcDbEntity
  8
JISSEN
100
AcDbLine
 10
60.00671174902095
 20
166.1499091822276
 30
0.0
 11
56.48557270919013
 21
166.6447730019842
 31
0.0
  0
LINE
  5
E00ED82F
330
E00DEA5D
100
AcDbEntity
  8
NITEN
100
AcDbLine
 10
70.55570668601763
 20
219.3019967012294
 30
0.0
 11
70.55570668601763
 21
236.5416689204428
 31
0.0
  0
LINE
  5
E00ED830
330
E00DEA5D
100
AcDbEntity
  8
NITEN
100
AcDbLine
 10
109.5557066860176
 20
219.3019967012294
 30
0.0
 11
109.555706686018
 21
236.5416689204428
 31
0.0
  0
LINE
  5
E00ED831
330
E00DEA5D
100
AcDbEntity
  8
SUNPOU
100
AcDbLine
 10
106.5557066860176
 20
177.4916685851439
 30
0.0
 11
147.1075747906454
 21
177.4916685851419
 31
0.0
  0
LINE
  5
E00ED832
330
E00DEA5D
100
AcDbEntity
  8
SUNPOU
100
AcDbLine
 10
109.2996621508444
 20
167.4916685851437
 30
0.0
 11
147.1075747906468
 21
167.4916685851437
 31
0.0
  0
LINE
  5
E00ED833
330
E00DEA5D
100
AcDbEntity
  8
JISSEN
100
AcDbLine
 10
104.7057066860181
 20
177.2388253059923
 30
0.0
 11
104.7057066860181
 21
183.741668920449
 31
0.0
  0
ARC
  5
E00ED834
330
E00DEA5D
100
AcDbEntity
  8
JISSEN
370
    -2
100
AcDbCircle
 10
96.37771174131854
 20
179.8698463921589
 30
0.0
 40
1.640694770587604
100
AcDbArc
 50
262.9064018570143
 51
355.5207093781105
  0
SPLINE
  5
E00ED835
330
E00DEA5D
100
AcDbEntity
  8
JISSEN
370
    -2
100
AcDbSpline
210
0.0
220
0.0
230
1.0
 70
    12
 71
     3
 72
    14
 73
    10
 74
     0
 42
0.0000000001
 43
0.0000000001
 40
0.0
 40
0.0
 40
0.0
 40
0.0
 40
0.1088769686984931
 40
0.2172663573285982
 40
0.3685706574444105
 40
0.4825742753969225
 40
0.5996174274824865
 40
0.7976149977365948
 40
1.0
 40
1.0
 40
1.0
 40
1.0
 10
96.16441722829245
 20
179.7417101683292
 30
0.0
 41
1.0
 10
96.15172393787657
 20
179.6154291821055
 30
0.0
 41
1.0
 10
96.12639420098208
 20
179.3634327295565
 30
0.0
 41
1.0
 10
95.9190954130238
 20
178.993546243402
 30
0.0
 41
1.0
 10
95.6182665699564
 20
178.7115015926844
 30
0.0
 41
1.0
 10
95.25632352988692
 20
178.5118631995444
 30
0.0
 41
1.0
 10
94.8198886002449
 20
178.3572166411884
 30
0.0
 41
1.0
 10
94.26397331405155
 20
178.2571573610455
 30
0.0
 41
1.0
 10
93.82038609539653
 20
178.2468965483219
 30
0.0
 41
1.0
 10
93.5961620496621
 20
178.2417099224601
 30
0.0
 41
1.0
  0
SPLINE
  5
E00ED836
330
E00DEA5D
100
AcDbEntity
  8
JISSEN
370
    -2
100
AcDbSpline
210
0.0
220
0.0
230
1.0
 70
    12
 71
     3
 72
    14
 73
    10
 74
     0
 42
0.0000000001
 43
0.0000000001
 40
0.0
 40
0.0
 40
0.0
 40
0.0
 40
0.1088769686984931
 40
0.2172663573285982
 40
0.3685706574444105
 40
0.4825742753969225
 40
0.5996174274824865
 40
0.7976149977365948
 40
1.0
 40
1.0
 40
1.0
 40
1.0
 10
83.9469961437428
 20
179.7417101683292
 30
0.0
 41
1.0
 10
83.95968943415869
 20
179.6154291821055
 30
0.0
 41
1.0
 10
83.98501917105319
 20
179.3634327295565
 30
0.0
 41
1.0
 10
84.19231795901145
 20
178.993546243402
 30
0.0
 41
1.0
 10
84.49314680207885
 20
178.7115015926844
 30
0.0
 41
1.0
 10
84.85508984214835
 20
178.5118631995444
 30
0.0
 41
1.0
 10
85.29152477179037
 20
178.3572166411884
 30
0.0
 41
1.0
 10
85.8474400579837
 20
178.2571573610455
 30
0.0
 41
1.0
 10
86.29102727663871
 20
178.2468965483219
 30
0.0
 41
1.0
 10
86.51525132237315
 20
178.2417099224601
 30
0.0
 41
1.0
  0
ARC
  5
E00ED837
330
E00DEA5D
100
AcDbEntity
  8
JISSEN
370
    -2
100
AcDbCircle
 10
83.73370163071673
 20
179.8698463921589
 30
0.0
 40
1.640694770587604
100
AcDbArc
 50
184.4792906218894
 51
277.0935981429855
  0
LINE
  5
E00ED838
330
E00DEA5D
100
AcDbEntity
  8
JISSEN
100
AcDbLine
 10
75.40570668601708
 20
177.2388253059923
 30
0.0
 11
75.40570668601708
 21
183.741668920449
 31
0.0
  0
LINE
  5
E00ED839
330
E00DEA5D
100
AcDbEntity
  8
JISSEN
100
AcDbLine
 39
240.0520776831561
 10
102.4557066860209
 20
163.9388253059566
 30
0.0
 11
90.05570668601762
 21
163.9388253059548
 31
0.0
  0
LINE
  5
E00ED83A
330
E00DEA5D
100
AcDbEntity
  8
JISSEN
100
AcDbLine
 39
240.0520776831561
 10
90.05570668601762
 20
168.2388253059196
 30
0.0
 11
104.7057066860209
 21
168.2388253059196
 31
0.0
  0
LINE
  5
E00ED83B
330
E00DEA5D
100
AcDbEntity
  8
JISSEN
100
AcDbLine
 39
240.0520776831561
 10
90.05570668601762
 20
168.2388253059196
 30
0.0
 11
104.7057066860199
 21
168.2388253059196
 31
0.0
  0
LINE
  5
E00ED83C
330
E00DEA5D
100
AcDbEntity
  8
JISSEN
100
AcDbLine
 39
240.0520776831561
 10
104.7057066860172
 20
165.858440548314
 30
0.0
 11
90.05570668601762
 21
165.8584405483613
 31
0.0
  0
LINE
  5
E00ED83D
330
E00DEA5D
100
AcDbEntity
  8
JISSEN
100
AcDbLine
 39
240.0520776831561
 10
104.7057066860636
 20
177.2388253059923
 30
0.0
 11
105.0057066860629
 21
177.2388253059959
 31
0.0
  0
LINE
  5
E00ED83E
330
E00DEA5D
100
AcDbEntity
  8
JISSEN
100
AcDbLine
 39
240.0520776831561
 10
104.7057066860627
 20
177.2388253059923
 30
0.0
 11
105.005706686062
 21
177.2388253059959
 31
0.0
  0
LINE
  5
E00ED83F
330
E00DEA5D
100
AcDbEntity
  8
JISSEN
100
AcDbLine
 39
240.0520776831561
 10
75.40570668597252
 20
177.2388253059923
 30
0.0
 11
75.10570668597324
 21
177.2388253059959
 31
0.0
  0
LINE
  5
E00ED840
330
E00DEA5D
100
AcDbEntity
  8
JISSEN
100
AcDbLine
 39
240.0520776831561
 10
75.40570668597161
 20
177.2388253059923
 30
0.0
 11
75.10570668597233
 21
177.2388253059959
 31
0.0
  0
LINE
  5
E00ED841
330
E00DEA5D
100
AcDbEntity
  8
JISSEN
100
AcDbLine
 39
240.0520776831561
 10
75.40570668601799
 20
165.858440548314
 30
0.0
 11
90.05570668601762
 21
165.8584405483613
 31
0.0
  0
LINE
  5
E00ED842
330
E00DEA5D
100
AcDbEntity
  8
JISSEN
100
AcDbLine
 39
240.0520776831561
 10
90.05570668601762
 20
168.2388253059196
 30
0.0
 11
75.40570668601526
 21
168.2388253059196
 31
0.0
  0
LINE
  5
E00ED843
330
E00DEA5D
100
AcDbEntity
  8
JISSEN
100
AcDbLine
 39
240.0520776831561
 10
90.05570668601762
 20
168.2388253059196
 30
0.0
 11
75.40570668601436
 21
168.2388253059196
 31
0.0
  0
LINE
  5
E00ED844
330
E00DEA5D
100
AcDbEntity
  8
JISSEN
100
AcDbLine
 39
240.0520776831561
 10
77.65570668601435
 20
163.9388253059566
 30
0.0
 11
90.05570668601762
 21
163.9388253059548
 31
0.0
  0
LINE
  5
E00ED845
330
E00DEA5D
100
AcDbEntity
  8
JISSEN
100
AcDbLine
 39
240.0520776831561
 10
124.0557085337652
 20
167.1398300537182
 30
0.0
 11
124.0557066860012
 21
167.4916685851437
 31
0.0
  0
ARC
  5
E00ED846
330
E00DEA5D
100
AcDbEntity
  8
JISSEN
100
AcDbCircle
 39
240.0520776831561
 10
123.5557085337652
 20
167.1398300537182
 30
0.0
 40
0.5
100
AcDbArc
 50
277.9999950540611
 51
0.0
  0
LINE
  5
E00ED847
330
E00DEA5D
100
AcDbEntity
  8
JISSEN
100
AcDbLine
 39
240.0520776831561
 10
102.4557066860209
 20
163.9388253059548
 30
0.0
 11
90.05570668601762
 21
163.9388253059551
 31
0.0
  0
LINE
  5
E00ED848
330
E00DEA5D
100
AcDbEntity
  8
JISSEN
100
AcDbLine
 39
240.0520776831561
 10
77.6557066861003
 20
163.9388253060385
 30
0.0
 11
90.05570668601762
 21
163.9388253059546
 31
0.0
  0
LINE
  5
E00ED849
330
E00DEA5D
100
AcDbEntity
  8
JISSEN
370
    -2
100
AcDbLine
 10
96.17510136081932
 20
178.2417099224601
 30
0.0
 11
90.05570668601762
 21
178.2417099224601
 31
0.0
  0
LINE
  5
E00ED84A
330
E00DEA5D
100
AcDbEntity
  8
JISSEN
100
AcDbLine
 10
104.4057066860179
 20
164.7388253060432
 30
0.0
 11
90.05570668601762
 21
164.7388253060432
 31
0.0
  0
LINE
  5
E00ED84B
330
E00DEA5D
100
AcDbEntity
  8
JISSEN
100
AcDbLine
 10
105.0057066860629
 20
177.2388253059959
 30
0.0
 11
90.05570668601762
 21
177.2388253059177
 31
0.0
  0
LINE
  5
E00ED84C
330
E00DEA5D
100
AcDbEntity
  8
JISSEN
100
AcDbLine
 10
105.005706686062
 20
177.2388253059959
 30
0.0
 11
90.05570668601762
 21
177.2388253059177
 31
0.0
  0
LINE
  5
E00ED84D
330
E00DEA5D
100
AcDbEntity
  8
JISSEN
100
AcDbLine
 10
107.3057066860176
 20
144.6916685851153
 30
0.0
 11
91.44991693636734
 21
144.6916685851153
 31
0.0
  0
LINE
  5
E00ED84E
330
E00DEA5D
100
AcDbEntity
  8
JISSEN
100
AcDbLine
 10
108.8057066860176
 20
141.6916685851153
 30
0.0
 11
90.05570668601762
 21
141.6916685851153
 31
0.0
  0
LINE
  5
E00ED84F
330
E00DEA5D
100
AcDbEntity
  8
JISSEN
370
    -2
100
AcDbLine
 10
103.3057065295181
 20
161.7386653857427
 30
0.0
 11
90.05570668601762
 21
161.7386653857424
 31
0.0
  0
LINE
  5
E00ED850
330
E00DEA5D
100
AcDbEntity
  8
JISSEN
370
    -2
100
AcDbLine
 10
101.3057071330178
 20
154.7386642383423
 30
0.0
 11
90.05570668601762
 21
154.7386642383421
 31
0.0
  0
LINE
  5
E00ED851
330
E00DEA5D
100
AcDbEntity
  8
JISSEN
370
    -2
100
AcDbLine
 10
96.86897206921845
 20
157.2386655794432
 30
0.0
 11
90.05570668601762
 21
157.2386655794432
 31
0.0
  0
LINE
  5
E00ED852
330
E00DEA5D
100
AcDbEntity
  8
JISSEN
370
    -2
100
AcDbLine
 10
96.86897206921845
 20
160.2386642085436
 30
0.0
 11
90.05570668601762
 21
160.2386642085434
 31
0.0
  0
LINE
  5
E00ED853
330
E00DEA5D
100
AcDbEntity
  8
JISSEN
100
AcDbLine
 10
72.80570668601763
 20
143.1916685851154
 30
0.0
 11
72.80570668601763
 21
164.4957030635066
 31
0.0
  0
SPLINE
  5
E00ED854
330
E00DEA5D
100
AcDbEntity
  8
JISSEN
370
    -2
100
AcDbSpline
210
0.0
220
0.0
230
1.0
 70
    12
 71
     3
 72
    12
 73
     8
 74
     0
 42
0.0000000001
 43
0.0000000001
 40
0.0
 40
0.0
 40
0.0
 40
0.0
 40
0.205840282809383
 40
0.4116490113380446
 40
0.6184457918287852
 40
0.8292559119854885
 40
1.0
 40
1.0
 40
1.0
 40
1.0
 10
79.57289438574139
 20
158.7386648940626
 30
0.0
 41
1.0
 10
79.56287791288719
 20
158.5732384287764
 30
0.0
 41
1.0
 10
79.54284650265595
 20
158.2424108572411
 30
0.0
 41
1.0
 10
79.38911856070195
 20
157.801022004807
 30
0.0
 41
1.0
 10
79.1697487471954
 20
157.4643314769525
 30
0.0
 41
1.0
 10
78.9228380869215
 20
157.2697626768329
 30
0.0
 41
1.0
 10
78.76311835493038
 20
157.2482793073884
 30
0.0
 41
1.0
 10
78.69164436934011
 20
157.2386655795232
 30
0.0
 41
1.0
  0
ARC
  5
E00ED855
330
E00DEA5D
100
AcDbEntity
  8
JISSEN
370
    -2
100
AcDbCircle
 10
94.45570668601817
 20
157.3386650118443
 30
0.0
 40
0.7000000000000242
100
AcDbArc
 50
0.0
 51
90.0
  0
ARC
  5
E00ED856
330
E00DEA5D
100
AcDbEntity
  8
JISSEN
370
    -2
100
AcDbCircle
 10
83.35728215096764
 20
158.6427202176871
 30
0.0
 40
1.408743357584393
100
AcDbArc
 50
176.0947579959863
 51
265.3240556089218
  0
ARC
  5
E00ED857
330
E00DEA5D
100
AcDbEntity
  8
JISSEN
370
    -2
100
AcDbCircle
 10
83.73275811586768
 20
158.6251340725846
 30
0.0
 40
1.387632780893617
100
AcDbArc
 50
175.3070321912918
 51
267.6527416120486
  0
ARC
  5
E00ED858
330
E00DEA5D
100
AcDbEntity
  8
JISSEN
370
    -2
100
AcDbCircle
 10
85.65570668605847
 20
157.3386650118734
 30
0.0
 40
0.7000000000000242
100
AcDbArc
 50
89.99999999960918
 51
179.9999999995831
  0
LINE
  5
E00ED859
330
E00DEA5D
100
AcDbEntity
  8
JISSEN
100
AcDbLine
 10
71.30570668601762
 20
141.6916685851153
 30
0.0
 11
90.05570668601762
 21
141.6916685851153
 31
0.0
  0
LINE
  5
E00ED85A
330
E00DEA5D
100
AcDbEntity
  8
JISSEN
100
AcDbLine
 10
72.80570668601763
 20
144.6916685851153
 30
0.0
 11
88.66149643566791
 21
144.6916685851153
 31
0.0
  0
LINE
  5
E00ED85B
330
E00DEA5D
100
AcDbEntity
  8
JISSEN
370
    -2
100
AcDbLine
 10
78.80570623904145
 20
154.7386642384187
 30
0.0
 11
90.05570668601762
 21
154.7386642383421
 31
0.0
  0
LINE
  5
E00ED85C
330
E00DEA5D
100
AcDbEntity
  8
JISSEN
100
AcDbLine
 10
68.80570668601762
 20
143.1916685851154
 30
0.0
 11
68.80570668601762
 21
152.4916685851146
 31
0.0
  0
ARC
  5
E00ED85D
330
E00DEA5D
100
AcDbEntity
  8
JISSEN
100
AcDbCircle
 10
71.30570668601762
 20
143.1916685851154
 30
0.0
 40
1.5
100
AcDbArc
 50
270.0
 51
0.0
  0
ARC
  5
E00ED85E
330
E00DEA5D
100
AcDbEntity
  8
JISSEN
100
AcDbCircle
 10
70.30570668601763
 20
143.1916685851154
 30
0.0
 40
1.5
100
AcDbArc
 50
180.0
 51
270.0
  0
LINE
  5
E00ED85F
330
E00DEA5D
100
AcDbEntity
  8
JISSEN
100
AcDbLine
 10
70.30570668601763
 20
141.6916685851153
 30
0.0
 11
71.30570668601762
 21
141.6916685851153
 31
0.0
  0
ARC
  5
E00ED860
330
E00DEA5D
100
AcDbEntity
  8
JISSEN
370
    -2
100
AcDbCircle
 10
78.80570668605447
 20
156.7386650119185
 30
0.0
 40
2.000000000000056
100
AcDbArc
 50
179.9999999995831
 51
269.9999999996091
  0
LINE
  5
E00ED861
330
E00DEA5D
100
AcDbEntity
  8
JISSEN
370
    -2
100
AcDbLine
 10
76.80570684255804
 20
157.2386655795323
 30
0.0
 11
78.6916443693583
 21
157.2386655795196
 31
0.0
  0
LINE
  5
E00ED862
330
E00DEA5D
100
AcDbEntity
  8
JISSEN
370
    -2
100
AcDbLine
 10
76.80570684255804
 20
157.2386655795323
 30
0.0
 11
76.80570684255485
 21
156.7386645662316
 31
0.0
  0
INSERT
  5
E00ED863
330
E00DEA5D
100
AcDbEntity
  8
SUNPOU
100
AcDbBlockReference
  2
ARROW
 10
77.37420637396258
 20
155.3106231721192
 30
0.0
 41
1.499999999999528
 42
1.5
 43
1.5
 50
44.6619397375731
  0
LINE
  5
E00ED864
330
E00DEA5D
100
AcDbEntity
  8
JISSEN
100
AcDbLine
 10
91.55570668601763
 20
154.0388263431316
 30
0.0
 11
91.55570668601763
 21
144.6916685851153
 31
0.0
  0
LINE
  5
E00ED865
330
E00DEA5D
100
AcDbEntity
  8
JISSEN
100
AcDbLine
 10
88.55570668601764
 20
154.0388267322509
 30
0.0
 11
88.55570668601762
 21
144.6916685851153
 31
0.0
  0
ARC
  5
E00ED866
330
E00DEA5D
100
AcDbEntity
  8
JISSEN
100
AcDbCircle
 10
90.05570668601762
 20
143.1916685851154
 30
0.0
 40
1.5
100
AcDbArc
 50
201.64710849855
 51
270.0
  0
LINE
  5
E00ED867
330
E00DEA5D
100
AcDbEntity
  8
JISSEN
100
AcDbLine
 10
88.66149643566791
 20
144.6916685851153
 30
0.0
 11
88.66149643566791
 21
142.6383352517439
 31
0.0
  0
ARC
  5
E00ED868
330
E00DEA5D
100
AcDbEntity
  8
JISSEN
100
AcDbCircle
 10
90.05570668601762
 20
143.1916685851154
 30
0.0
 40
1.5
100
AcDbArc
 50
270.0
 51
338.3528915014498
  0
LINE
  5
E00ED869
330
E00DEA5D
100
AcDbEntity
  8
JISSEN
100
AcDbLine
 10
91.44991693636734
 20
144.6916685851153
 30
0.0
 11
91.44991693636734
 21
142.6383352517439
 31
0.0
  0
LINE
  5
E00ED86A
330
E00DEA5D
100
AcDbEntity
  8
JISSEN
100
AcDbLine
 10
87.55570674194292
 20
154.0388267322575
 30
0.0
 11
90.05570668601761
 21
154.0388267322409
 31
0.0
  0
LINE
  5
E00ED86B
330
E00DEA5D
100
AcDbEntity
  8
JISSEN
370
    -2
100
AcDbLine
 10
83.24244130285775
 20
157.2386655794887
 30
0.0
 11
90.05570668601762
 21
157.2386655794432
 31
0.0
  0
LINE
  5
E00ED86C
330
E00DEA5D
100
AcDbEntity
  8
JISSEN
370
    -2
100
AcDbLine
 10
84.95570650205877
 20
157.3386635469776
 30
0.0
 11
84.95570650205833
 21
157.2386655794778
 31
0.0
  0
LINE
  5
E00ED86D
330
E00DEA5D
100
AcDbEntity
  8
JISSEN
100
AcDbLine
 10
86.53070322950384
 20
154.0388271311037
 30
0.0
 11
87.55570674194292
 21
154.0388267322575
 31
0.0
  0
LINE
  5
E00ED86E
330
E00DEA5D
100
AcDbEntity
  8
JISSEN
100
AcDbLine
 10
93.58071014255097
 20
154.0388271310801
 30
0.0
 11
90.05570668601762
 21
154.038825759467
 31
0.0
  0
LINE
  5
E00ED86F
330
E00DEA5D
100
AcDbEntity
  8
JISSEN
100
AcDbLine
 10
92.55570663011189
 20
154.0388267322412
 30
0.0
 11
91.55570669906706
 21
154.0388267322412
 31
0.0
  0
LINE
  5
E00ED870
330
E00DEA5D
100
AcDbEntity
  8
JISSEN
370
    -2
100
AcDbLine
 10
95.15570687001787
 20
157.338663546943
 30
0.0
 11
95.15570687001787
 21
157.2386655794432
 31
0.0
  0
LINE
  5
E00ED871
330
E00DEA5D
100
AcDbEntity
  8
JISSEN
100
AcDbLine
 10
75.10570668597324
 20
177.2388253059959
 30
0.0
 11
90.05570668601762
 21
177.2388253059177
 31
0.0
  0
LINE
  5
E00ED872
330
E00DEA5D
100
AcDbEntity
  8
JISSEN
100
AcDbLine
 10
75.10570668597233
 20
177.2388253059959
 30
0.0
 11
90.05570668601762
 21
177.2388253059177
 31
0.0
  0
LINE
  5
E00ED873
330
E00DEA5D
100
AcDbEntity
  8
JISSEN
100
AcDbLine
 10
75.70570668601726
 20
164.7388253060432
 30
0.0
 11
90.05570668601762
 21
164.7388253060432
 31
0.0
  0
LINE
  5
E00ED874
330
E00DEA5D
100
AcDbEntity
  8
JISSEN
370
    -2
100
AcDbLine
 10
76.80570684258805
 20
161.7386653858318
 30
0.0
 11
90.05570668601762
 21
161.7386653857427
 31
0.0
  0
ARC
  5
E00ED875
330
E00DEA5D
100
AcDbEntity
  8
JISSEN
370
    -2
100
AcDbCircle
 10
83.3194800772692
 20
158.8671352827893
 30
0.0
 40
1.373690855685324
100
AcDbArc
 50
93.21492544802474
 51
185.3662609455776
  0
LINE
  5
E00ED876
330
E00DEA5D
100
AcDbEntity
  8
JISSEN
100
AcDbLine
 10
75.40570668601617
 20
168.2388253059196
 30
0.0
 11
75.1057066860169
 21
170.6821292343136
 31
0.0
  0
ARC
  5
E00ED877
330
E00DEA5D
100
AcDbEntity
  8
JISSEN
100
AcDbCircle
 10
73.55570668601763
 20
168.8044108602641
 30
0.0
 40
1.5
100
AcDbArc
 50
343.0000000000185
 51
0.0
  0
ARC
  5
E00ED878
330
E00DEA5D
100
AcDbEntity
  8
JISSEN
100
AcDbCircle
 10
71.80570668601763
 20
167.3818845519651
 30
0.0
 40
1.00000000000004
100
AcDbArc
 50
101.9999999999637
 51
180.0
  0
LINE
  5
E00ED879
330
E00DEA5D
100
AcDbEntity
  8
JISSEN
100
AcDbLine
 10
71.59779499521869
 20
168.3600321526644
 30
0.0
 11
72.76361837681474
 21
168.60783556217
 31
0.0
  0
ARC
  5
E00ED87A
330
E00DEA5D
100
AcDbEntity
  8
JISSEN
100
AcDbCircle
 10
72.55570668601762
 20
169.5859831628165
 30
0.0
 40
1.000000000000011
100
AcDbArc
 50
282.0000000000152
 51
0.0
  0
LINE
  5
E00ED87B
330
E00DEA5D
100
AcDbEntity
  8
JISSEN
100
AcDbLine
 10
74.99016381996739
 20
168.3658533031646
 30
0.0
 11
74.13022220741845
 21
165.5531110280642
 31
0.0
  0
LINE
  5
E00ED87C
330
E00DEA5D
100
AcDbEntity
  8
JISSEN
100
AcDbLine
 10
77.45570668610416
 20
164.4953402982953
 30
0.0
 11
71.86745550356795
 21
164.4953402982953
 31
0.0
  0
ARC
  5
E00ED87D
330
E00DEA5D
100
AcDbEntity
  8
JISSEN
100
AcDbCircle
 10
69.80570668601763
 20
167.2973191858161
 30
0.0
 40
1.0
100
AcDbArc
 50
278.0000000167149
 51
0.0
  0
ARC
  5
E00ED87E
330
E00DEA5D
100
AcDbEntity
  8
JISSEN
100
AcDbCircle
 10
69.80570668601763
 20
167.2973191858161
 30
0.0
 40
1.0
100
AcDbArc
 50
261.9999999999592
 51
267.6310203909496
  0
LINE
  5
E00ED87F
330
E00DEA5D
100
AcDbEntity
  8
JISSEN
100
AcDbLine
 10
69.9448797870184
 20
166.3070511171151
 30
0.0
 11
69.66653358506778
 21
166.3070511171151
 31
0.0
  0
ARC
  5
E00ED880
330
E00DEA5D
100
AcDbEntity
  8
JISSEN
100
AcDbCircle
 10
72.6957650735178
 20
165.9916685851146
 30
0.0
 40
1.500000000000016
100
AcDbArc
 50
270.0
 51
343.0000000000185
  0
SPLINE
  5
E00ED881
330
E00DEA5D
100
AcDbEntity
  8
JISSEN
100
AcDbSpline
210
0.0
220
0.0
230
1.0
 70
     8
 71
     3
 72
     9
 73
     5
 74
     0
 42
0.0000000001
 43
0.0000000001
 40
0.0
 40
0.0
 40
0.0
 40
0.0
 40
0.5
 40
1.0
 40
1.0
 40
1.0
 40
1.0
 10
71.86745498333244
 20
164.4953403984634
 30
0.0
 10
71.88494035886311
 20
164.4941188486498
 30
0.0
 10
71.91996696480623
 20
164.4922835126815
 30
0.0
 10
71.95510572909483
 20
164.4916685851219
 30
0.0
 10
71.97270336786937
 20
164.4916685851219
 30
0.0
  0
LINE
  5
E00ED882
330
E00DEA5D
100
AcDbEntity
  8
JISSEN
100
AcDbLine
 10
71.97270426771797
 20
164.4916685590449
 30
0.0
 11
71.96083921811737
 21
164.4916685590449
 31
0.0
  0
LINE
  5
E00ED883
330
E00DEA5D
100
AcDbEntity
  8
JISSEN
370
    -2
100
AcDbLine
 10
76.80570684257805
 20
160.2386642086328
 30
0.0
 11
78.69164436937831
 21
160.2386642086201
 31
0.0
  0
LINE
  5
E00ED884
330
E00DEA5D
100
AcDbEntity
  8
JISSEN
370
    -2
100
AcDbLine
 10
76.80570684258805
 20
161.7386653858318
 30
0.0
 11
76.80570684257805
 21
160.2386642086328
 31
0.0
  0
SPLINE
  5
E00ED885
330
E00DEA5D
100
AcDbEntity
  8
JISSEN
370
    -2
100
AcDbSpline
210
0.0
220
0.0
230
1.0
 70
    12
 71
     3
 72
    12
 73
     8
 74
     0
 42
0.0000000001
 43
0.0000000001
 40
0.0
 40
0.0
 40
0.0
 40
0.0
 40
0.2270414180693609
 40
0.4545205376007232
 40
0.6714649260062801
 40
0.8806674473517201
 40
1.0
 40
1.0
 40
1.0
 40
1.0
 10
78.69164436936012
 20
160.2386642086164
 30
0.0
 41
1.0
 10
78.78739755014726
 20
160.2217545586661
 30
0.0
 41
1.0
 10
78.9790885093505
 20
160.1879026595195
 30
0.0
 41
1.0
 10
79.25302960521617
 20
159.9140125461378
 30
0.0
 41
1.0
 10
79.45889717839396
 20
159.5136436298578
 30
0.0
 41
1.0
 10
79.56006025077272
 20
159.0971758608827
 30
0.0
 41
1.0
 10
79.56947478138568
 20
158.8341887191343
 30
0.0
 41
1.0
 10
79.57289438574139
 20
158.7386648940626
 30
0.0
 41
1.0
  0
LINE
  5
E00ED886
330
E00DEA5D
100
AcDbEntity
  8
JISSEN
100
AcDbLine
 10
77.35570668601508
 20
164.7388253059523
 30
0.0
 11
77.75570668601836
 21
164.7388253059559
 31
0.0
  0
ARC
  5
E00ED887
330
E00DEA5D
100
AcDbEntity
  8
JISSEN
100
AcDbCircle
 10
77.65570668601435
 20
164.5388253059552
 30
0.0
 40
0.200000000000017
100
AcDbArc
 50
90.0
 51
180.0
  0
ARC
  5
E00ED888
330
E00DEA5D
100
AcDbEntity
  8
JISSEN
100
AcDbCircle
 10
77.65570668601435
 20
164.1388253059574
 30
0.0
 40
0.1999999999999957
100
AcDbArc
 50
180.0
 51
270.0
  0
LINE
  5
E00ED889
330
E00DEA5D
100
AcDbEntity
  8
JISSEN
100
AcDbLine
 10
77.45570668601454
 20
164.5388253059552
 30
0.0
 11
77.45570668601454
 21
164.1388253059574
 31
0.0
  0
LINE
  5
E00ED88A
330
E00DEA5D
100
AcDbEntity
  8
JISSEN
100
AcDbLine
 10
75.40570668601617
 20
165.8584405483177
 30
0.0
 11
75.40570668601526
 21
168.2388253059196
 31
0.0
  0
ARC
  5
E00ED88B
330
E00DEA5D
100
AcDbEntity
  8
JISSEN
100
AcDbCircle
 10
77.65570668610121
 20
164.1388253060392
 30
0.0
 40
0.1999999999999957
100
AcDbArc
 50
179.9999999995831
 51
269.9999999996091
  0
LINE
  5
E00ED88C
330
E00DEA5D
100
AcDbEntity
  8
JISSEN
100
AcDbLine
 10
77.45570668610416
 20
164.4953402982953
 30
0.0
 11
77.45570668610139
 21
164.1388253060392
 31
0.0
  0
LINE
  5
E00ED88D
330
E00DEA5D
100
AcDbEntity
  8
JISSEN
100
AcDbLine
 10
74.55570668601763
 20
178.9916685851146
 30
0.0
 11
75.05570668601762
 21
178.4916685851146
 31
0.0
  0
LINE
  5
E00ED88E
330
E00DEA5D
100
AcDbEntity
  8
JISSEN
100
AcDbLine
 10
75.05570668601762
 20
178.4916685851146
 30
0.0
 11
74.55570668601763
 21
178.9916685851146
 31
0.0
  0
LINE
  5
E00ED88F
330
E00DEA5D
100
AcDbEntity
  8
JISSEN
100
AcDbLine
 10
75.40570668601708
 20
178.9916685851146
 30
0.0
 11
74.55570668601763
 21
178.9916685851146
 31
0.0
  0
LINE
  5
E00ED890
330
E00DEA5D
100
AcDbEntity
  8
JISSEN
100
AcDbLine
 10
73.55570668601763
 20
178.9916685851164
 30
0.0
 11
73.55570668601763
 21
169.5859831628165
 31
0.0
  0
LINE
  5
E00ED891
330
E00DEA5D
100
AcDbEntity
  8
JISSEN
100
AcDbLine
 10
73.55570668601763
 20
178.9916685851146
 30
0.0
 11
74.55570668601763
 21
178.9916685851146
 31
0.0
  0
LINE
  5
E00ED892
330
E00DEA5D
100
AcDbEntity
  8
JISSEN
100
AcDbLine
 10
75.05570668601762
 20
178.4916685851146
 30
0.0
 11
75.05570668601762
 21
173.3861143829651
 31
0.0
  0
LINE
  5
E00ED893
330
E00DEA5D
100
AcDbEntity
  8
JISSEN
100
AcDbLine
 10
75.05570668601762
 20
168.8044108602132
 30
0.0
 11
75.05570668601762
 21
174.5819830652142
 31
0.0
  0
LINE
  5
E00ED894
330
E00DEA5D
100
AcDbEntity
  8
JISSEN
100
AcDbLine
 10
75.40570668601617
 20
171.2388253059195
 30
0.0
 11
75.1057066860169
 21
173.6821292343136
 31
0.0
  0
LINE
  5
E00ED895
330
E00DEA5D
100
AcDbEntity
  8
JISSEN
100
AcDbLine
 10
75.1057066860169
 20
171.2388253059195
 30
0.0
 11
75.40570668601617
 21
171.2388253059195
 31
0.0
  0
LINE
  5
E00ED896
330
E00DEA5D
100
AcDbEntity
  8
JISSEN
100
AcDbLine
 10
75.1057066860169
 20
170.6821292343136
 30
0.0
 11
75.1057066860169
 21
171.2388253059195
 31
0.0
  0
LINE
  5
E00ED897
330
E00DEA5D
100
AcDbEntity
  8
JISSEN
100
AcDbLine
 10
75.05570668601762
 20
171.5750018022642
 30
0.0
 11
75.05570668601762
 21
168.8044108602641
 31
0.0
  0
LINE
  5
E00ED898
330
E00DEA5D
100
AcDbEntity
  8
JISSEN
100
AcDbLine
 10
75.1057066860169
 20
174.2388253059195
 30
0.0
 11
75.40570668601617
 21
174.2388253059195
 31
0.0
  0
LINE
  5
E00ED899
330
E00DEA5D
100
AcDbEntity
  8
JISSEN
100
AcDbLine
 10
75.40570668601617
 20
174.2388253059195
 30
0.0
 11
75.1057066860169
 21
176.6821292343136
 31
0.0
  0
LINE
  5
E00ED89A
330
E00DEA5D
100
AcDbEntity
  8
JISSEN
100
AcDbLine
 10
75.1057066860169
 20
177.2388253059195
 30
0.0
 11
75.40570668601708
 21
177.2388253059195
 31
0.0
  0
LINE
  5
E00ED89B
330
E00DEA5D
100
AcDbEntity
  8
JISSEN
100
AcDbLine
 10
75.05570668601762
 20
176.3930956459132
 30
0.0
 11
75.05570668601762
 21
178.4916685851146
 31
0.0
  0
LINE
  5
E00ED89C
330
E00DEA5D
100
AcDbEntity
  8
JISSEN
100
AcDbLine
 10
90.055706686024
 20
158.0388252616151
 30
0.0
 11
85.65570668683278
 21
158.0388252616151
 31
0.0
  0
LINE
  5
E00ED89D
330
E00DEA5D
100
AcDbEntity
  8
JISSEN
370
    -2
100
AcDbLine
 10
83.24244130287775
 20
160.2386642085891
 30
0.0
 11
90.05570668601762
 21
160.2386642085432
 31
0.0
  0
LINE
  5
E00ED89E
330
E00DEA5D
100
AcDbEntity
  8
JISSEN
370
    -2
100
AcDbLine
 10
84.50570680080341
 20
163.9388253059949
 30
0.0
 11
84.5057068007884
 21
161.738665385779
 31
0.0
  0
ARC
  5
E00ED89F
330
E00DEA5D
100
AcDbEntity
  8
JISSEN
370
    -2
100
AcDbCircle
 10
83.76588832516858
 20
158.8229053090851
 30
0.0
 40
1.418614261419669
100
AcDbArc
 50
93.63587483011007
 51
183.4043513649433
  0
LINE
  5
E00ED8A0
330
E00DEA5D
100
AcDbEntity
  8
JISSEN
370
    -2
100
AcDbLine
 10
86.00570658097808
 20
160.2386642085709
 30
0.0
 11
86.00570658096307
 21
158.0388252616148
 31
0.0
  0
LINE
  5
E00ED8A1
330
E00DEA5D
100
AcDbEntity
  8
JISSEN
370
    -2
100
AcDbLine
 10
95.6057065713178
 20
163.9388253059585
 30
0.0
 11
95.6057065713178
 21
161.7386653857427
 31
0.0
  0
LINE
  5
E00ED8A2
330
E00DEA5D
100
AcDbEntity
  8
JISSEN
100
AcDbLine
 10
90.055706686024
 20
158.0388252616151
 30
0.0
 11
94.45570668683387
 21
158.0388252616151
 31
0.0
  0
LINE
  5
E00ED8A3
330
E00DEA5D
100
AcDbEntity
  8
JISSEN
370
    -2
100
AcDbLine
 10
94.10570679111811
 20
160.2386642085436
 30
0.0
 11
94.10570679111811
 21
158.0388252616153
 31
0.0
  0
LINE
  5
E00ED8A4
330
E00DEA5D
100
AcDbEntity
  8
JISSEN
370
    -2
100
AcDbLine
 10
83.93631201121593
 20
178.2417099224601
 30
0.0
 11
90.05570668601762
 21
178.2417099224601
 31
0.0
  0
LINE
  5
E00ED8A5
330
E00DEA5D
100
AcDbEntity
  8
JISSEN
100
AcDbLine
 10
107.3057066860176
 20
143.1916685851154
 30
0.0
 11
107.3057066860176
 21
164.4957030635066
 31
0.0
  0
ARC
  5
E00ED8A6
330
E00DEA5D
100
AcDbEntity
  8
JISSEN
100
AcDbCircle
 10
126.3057066860176
 20
152.4916685851146
 30
0.0
 40
14.99999999999999
100
AcDbArc
 50
114.4186184440957
 51
180.0
  0
HATCH
  5
E00ED8A7
330
E00DEA5D
100
AcDbEntity
  8
HATCH
100
AcDbHatch
 10
0.0
 20
0.0
 30
0.0
210
0.0
220
0.0
230
1.0
  2
ANSI31
 70
     0
 71
     0
 91
        1
 92
        7
 72
     1
 73
     1
 93
       25
 10
120.1047016230165
 20
166.1499091822276
 42
0.0
 10
123.6258406621311
 20
166.6447730018842
 42
0.3735722059454823
 10
124.0557085337514
 20
167.1398326795876
 42
0.0
 10
124.0557066860012
 20
167.4916685851146
 42
0.0
 10
118.8738710516664
 20
167.4916685851146
 42
0.0
 10
110.4448797869672
 20
166.3070511171151
 42
-0.4557262555294019
 10
109.3057066860176
 20
167.2973191858579
 42
0.0
 10
109.3057066860176
 20
167.3818845519651
 42
0.3541185725222754
 10
108.5136183768268
 20
168.3600321526625
 42
0.0
 10
107.3477949952191
 20
168.60783556217
 42
-0.3541185725362401
 10
106.5557066860176
 20
169.5859831629084
 42
0.0
 10
106.5557066860176
 20
178.9916685851146
 42
0.0
 10
105.5557066860176
 20
178.9916685851146
 42
0.0
 10
105.0557066860176
 20
178.4916685851146
 42
0.0
 10
105.0557066860176
 20
173.3861143829651
 42
0.0
 10
105.0557066860176
 20
168.8044108602641
 42
0.0743128367426121
 10
105.121249552066
 20
168.3658533031709
 42
0.0
 10
105.9811911646245
 20
165.5531110280387
 42
0.3297520604192335
 10
107.4156564877748
 20
164.4916685851374
 42
-0.0183434696993945
 10
107.3057066860176
 20
164.4957030635066
 42
0.0
 10
107.3057066860176
 20
143.1916685851154
 42
0.4142135623730951
 10
108.8057066860176
 20
141.6916685851153
 42
0.0
 10
109.8057066860176
 20
141.6916685851153
 42
0.4142135623730951
 10
111.3057066860176
 20
143.1916685851154
 42
0.0
 10
111.3057066860176
 20
152.4916685851146
 42
-0.294227732135957
 97
        0
 75
     0
 76
     1
 52
0.0
 41
10.0
 77
     0
 78
     1
 53
45.0
 43
319.7828851520928
 44
-1383.19410061969
 45
-0.8838834764831842
 46
0.8838834764831844
 79
     0
 47
0.0434239996700352
 98
        1
 10
109.1832065554001
 20
161.555780966634
  0
SPLINE
  5
E00ED8A8
330
E00DEA5D
100
AcDbEntity
  8
JISSEN
370
    -2
100
AcDbSpline
210
0.0
220
0.0
230
1.0
 70
    12
 71
     3
 72
    12
 73
     8
 74
     0
 42
0.0000000001
 43
0.0000000001
 40
0.0
 40
0.0
 40
0.0
 40
0.0
 40
0.205840282809383
 40
0.4116490113380446
 40
0.6184457918287852
 40
0.8292559119854885
 40
1.0
 40
1.0
 40
1.0
 40
1.0
 10
100.5385189863448
 20
158.7386648939934
 30
0.0
 41
1.0
 10
100.5485354591976
 20
158.5732384287073
 30
0.0
 41
1.0
 10
100.568566869427
 20
158.2424108571719
 30
0.0
 41
1.0
 10
100.7222948113778
 20
157.801022004736
 30
0.0
 41
1.0
 10
100.9416646248821
 20
157.4643314768798
 30
0.0
 41
1.0
 10
101.1885752851551
 20
157.2697626767583
 30
0.0
 41
1.0
 10
101.3482950171457
 20
157.2482793073138
 30
0.0
 41
1.0
 10
101.419769002736
 20
157.2386655794469
 30
0.0
 41
1.0
  0
ARC
  5
E00ED8A9
330
E00DEA5D
100
AcDbEntity
  8
JISSEN
370
    -2
100
AcDbCircle
 10
96.75413122111809
 20
158.6427202176416
 30
0.0
 40
1.408743357584393
100
AcDbArc
 50
274.6759443907207
 51
3.905242003595847
  0
ARC
  5
E00ED8AA
330
E00DEA5D
100
AcDbEntity
  8
JISSEN
370
    -2
100
AcDbCircle
 10
96.37865525621805
 20
158.6251340725427
 30
0.0
 40
1.387632780893617
100
AcDbArc
 50
272.3472583875866
 51
4.692967808289879
  0
ARC
  5
E00ED8AB
330
E00DEA5D
100
AcDbEntity
  8
JISSEN
100
AcDbCircle
 10
109.8057066860176
 20
143.1916685851154
 30
0.0
 40
1.5
100
AcDbArc
 50
270.0
 51
0.0
  0
ARC
  5
E00ED8AC
330
E00DEA5D
100
AcDbEntity
  8
JISSEN
100
AcDbCircle
 10
108.8057066860176
 20
143.1916685851154
 30
0.0
 40
1.5
100
AcDbArc
 50
180.0
 51
270.0
  0
LINE
  5
E00ED8AD
330
E00DEA5D
100
AcDbEntity
  8
JISSEN
100
AcDbLine
 10
109.8057066860176
 20
141.6916685851153
 30
0.0
 11
108.8057066860176
 21
141.6916685851153
 31
0.0
  0
ARC
  5
E00ED8AE
330
E00DEA5D
100
AcDbEntity
  8
JISSEN
370
    -2
100
AcDbCircle
 10
101.3057066860185
 20
156.7386650118421
 30
0.0
 40
2.000000000000056
100
AcDbArc
 50
270.0
 51
0.0
  0
LINE
  5
E00ED8AF
330
E00DEA5D
100
AcDbEntity
  8
JISSEN
370
    -2
100
AcDbLine
 10
103.3057065295181
 20
157.2386655794432
 30
0.0
 11
101.4197690027178
 21
157.2386655794432
 31
0.0
  0
LINE
  5
E00ED8B0
330
E00DEA5D
100
AcDbEntity
  8
JISSEN
370
    -2
100
AcDbLine
 10
103.3057065295181
 20
157.2386655794432
 30
0.0
 11
103.3057065295181
 21
156.7386645661424
 31
0.0
  0
LINE
  5
E00ED8B1
330
E00DEA5D
100
AcDbEntity
  8
JISSEN
100
AcDbLine
 10
111.3057066860176
 20
143.1916685851154
 30
0.0
 11
111.3057066860176
 21
152.4916685851146
 31
0.0
  0
LINE
  5
E00ED8B2
330
E00DEA5D
100
AcDbEntity
  8
JISSEN
100
AcDbLine
 10
110.1665335850168
 20
166.3070511171151
 30
0.0
 11
110.4448797869674
 21
166.3070511171151
 31
0.0
  0
LINE
  5
E00ED8B3
330
E00DEA5D
100
AcDbEntity
  8
JISSEN
100
AcDbLine
 10
118.8738710516674
 20
167.4916685851146
 30
0.0
 11
109.2996621508166
 21
167.4916685851146
 31
0.0
  0
LINE
  5
E00ED8B4
330
E00DEA5D
100
AcDbEntity
  8
JISSEN
100
AcDbLine
 10
104.705706686019
 20
168.2388253059196
 30
0.0
 11
105.0057066860183
 21
170.6821292343136
 31
0.0
  0
ARC
  5
E00ED8B5
330
E00DEA5D
100
AcDbEntity
  8
JISSEN
100
AcDbCircle
 10
107.5557066860176
 20
169.5859831628165
 30
0.0
 40
1.000000000000011
100
AcDbArc
 50
180.0
 51
257.9999999999847
  0
LINE
  5
E00ED8B6
330
E00DEA5D
100
AcDbEntity
  8
JISSEN
100
AcDbLine
 10
108.5136183768165
 20
168.3600321526644
 30
0.0
 11
107.3477949952205
 21
168.60783556217
 31
0.0
  0
ARC
  5
E00ED8B7
330
E00DEA5D
100
AcDbEntity
  8
JISSEN
100
AcDbCircle
 10
108.3057066860176
 20
167.3818845519651
 30
0.0
 40
1.00000000000004
100
AcDbArc
 50
0.0
 51
78.0000000000362
  0
ARC
  5
E00ED8B8
330
E00DEA5D
100
AcDbEntity
  8
JISSEN
100
AcDbCircle
 10
106.5557066860176
 20
168.8044108602641
 30
0.0
 40
1.5
100
AcDbArc
 50
180.0
 51
196.9999999999813
  0
LINE
  5
E00ED8B9
330
E00DEA5D
100
AcDbEntity
  8
JISSEN
100
AcDbLine
 10
102.6557066860207
 20
164.4953402982953
 30
0.0
 11
108.2439578684672
 21
164.4953402982953
 31
0.0
  0
LINE
  5
E00ED8BA
330
E00DEA5D
100
AcDbEntity
  8
JISSEN
370
    -2
100
AcDbLine
 10
103.3057065295181
 20
160.2386642085436
 30
0.0
 11
101.4197690027178
 21
160.2386642085436
 31
0.0
  0
ARC
  5
E00ED8BB
330
E00DEA5D
100
AcDbEntity
  8
JISSEN
370
    -2
100
AcDbCircle
 10
96.7919332948179
 20
158.8671352827438
 30
0.0
 40
1.373690855685324
100
AcDbArc
 50
354.6337390540036
 51
86.7850745516049
  0
ARC
  5
E00ED8BC
330
E00DEA5D
100
AcDbEntity
  8
JISSEN
370
    -2
100
AcDbCircle
 10
96.34552504691805
 20
158.8229053090433
 30
0.0
 40
1.418614261419669
100
AcDbArc
 50
356.595648634639
 51
86.36412516949977
  0
SPLINE
  5
E00ED8BD
330
E00DEA5D
100
AcDbEntity
  8
JISSEN
370
    -2
100
AcDbSpline
210
0.0
220
0.0
230
1.0
 70
    12
 71
     3
 72
    12
 73
     8
 74
     0
 42
0.0000000001
 43
0.0000000001
 40
0.0
 40
0.0
 40
0.0
 40
0.0
 40
0.2270414180693609
 40
0.4545205376007232
 40
0.6714649260062801
 40
0.8806674473517201
 40
1.0
 40
1.0
 40
1.0
 40
1.0
 10
101.419769002736
 20
160.23866420854
 30
0.0
 41
1.0
 10
101.3240158219489
 20
160.2217545585915
 30
0.0
 41
1.0
 10
101.1323248627452
 20
160.1879026594467
 30
0.0
 41
1.0
 10
100.8583837668777
 20
159.9140125460651
 30
0.0
 41
1.0
 10
100.6525161936972
 20
159.5136436297868
 30
0.0
 41
1.0
 10
100.5513531213157
 20
159.0971758608136
 30
0.0
 41
1.0
 10
100.5419385907009
 20
158.8341887190652
 30
0.0
 41
1.0
 10
100.5385189863448
 20
158.7386648939934
 30
0.0
 41
1.0
  0
LINE
  5
E00ED8BE
330
E00DEA5D
100
AcDbEntity
  8
JISSEN
100
AcDbLine
 10
102.7557066860201
 20
164.7388253059523
 30
0.0
 11
102.3557066860169
 21
164.7388253059559
 31
0.0
  0
LINE
  5
E00ED8BF
330
E00DEA5D
100
AcDbEntity
  8
JISSEN
100
AcDbLine
 10
102.6557066860207
 20
164.5388253059552
 30
0.0
 11
102.6557066860207
 21
164.1388253059574
 31
0.0
  0
ARC
  5
E00ED8C0
330
E00DEA5D
100
AcDbEntity
  8
JISSEN
100
AcDbCircle
 10
102.4557066860209
 20
164.1388253059574
 30
0.0
 40
0.1999999999999957
100
AcDbArc
 50
270.0
 51
0.0
  0
ARC
  5
E00ED8C1
330
E00DEA5D
100
AcDbEntity
  8
JISSEN
100
AcDbCircle
 10
102.4557066860209
 20
164.5388253059552
 30
0.0
 40
0.200000000000017
100
AcDbArc
 50
0.0
 51
90.0
  0
ARC
  5
E00ED8C2
330
E00DEA5D
100
AcDbEntity
  8
JISSEN
100
AcDbCircle
 10
102.4557066860209
 20
164.1388253059556
 30
0.0
 40
0.1999999999999957
100
AcDbArc
 50
270.0
 51
0.0
  0
LINE
  5
E00ED8C3
330
E00DEA5D
100
AcDbEntity
  8
JISSEN
100
AcDbLine
 10
102.6557066860207
 20
164.4953402982953
 30
0.0
 11
102.6557066860207
 21
164.1388253059556
 31
0.0
  0
LINE
  5
E00ED8C4
330
E00DEA5D
100
AcDbEntity
  8
JISSEN
370
    -2
100
AcDbLine
 10
103.3057065295181
 20
161.7386653857427
 30
0.0
 11
103.3057065295181
 21
160.2386642085436
 31
0.0
  0
ARC
  5
E00ED8C5
330
E00DEA5D
100
AcDbEntity
  8
JISSEN
100
AcDbCircle
 10
107.4156482985174
 20
165.9916685851146
 30
0.0
 40
1.500000000000016
100
AcDbArc
 50
196.9999999999813
 51
270.0
  0
LINE
  5
E00ED8C6
330
E00DEA5D
100
AcDbEntity
  8
JISSEN
100
AcDbLine
 10
104.705706686019
 20
165.8584405483177
 30
0.0
 11
104.7057066860199
 21
168.2388253059196
 31
0.0
  0
LINE
  5
E00ED8C7
330
E00DEA5D
100
AcDbEntity
  8
JISSEN
100
AcDbLine
 10
105.1212495520678
 20
168.3658533031646
 30
0.0
 11
105.9811911646167
 21
165.5531110280642
 31
0.0
  0
ARC
  5
E00ED8C8
330
E00DEA5D
100
AcDbEntity
  8
JISSEN
100
AcDbCircle
 10
110.3057066860176
 20
167.2973191858161
 30
0.0
 40
1.0
100
AcDbArc
 50
180.0
 51
261.999999983285
  0
LINE
  5
E00ED8C9
330
E00DEA5D
100
AcDbEntity
  8
JISSEN
100
AcDbLine
 10
108.1387091043172
 20
164.4916685590449
 30
0.0
 11
108.1505741539178
 21
164.4916685590449
 31
0.0
  0
SPLINE
  5
E00ED8CA
330
E00DEA5D
100
AcDbEntity
  8
JISSEN
100
AcDbSpline
210
0.0
220
0.0
230
1.0
 70
     8
 71
     3
 72
     9
 73
     5
 74
     0
 42
0.0000000001
 43
0.0000000001
 40
0.0
 40
0.0
 40
0.0
 40
0.0
 40
0.5
 40
1.0
 40
1.0
 40
1.0
 40
1.0
 10
108.2439583887028
 20
164.4953403984634
 30
0.0
 10
108.2264730131721
 20
164.4941188486498
 30
0.0
 10
108.191446407229
 20
164.4922835126815
 30
0.0
 10
108.1563076429404
 20
164.4916685851219
 30
0.0
 10
108.1387100041658
 20
164.4916685851219
 30
0.0
  0
LINE
  5
E00ED8CB
330
E00DEA5D
100
AcDbEntity
  8
JISSEN
100
AcDbLine
 10
106.5557066860176
 20
178.9916685851164
 30
0.0
 11
106.5557066860176
 21
169.5859831628165
 31
0.0
  0
LINE
  5
E00ED8CC
330
E00DEA5D
100
AcDbEntity
  8
JISSEN
100
AcDbLine
 10
105.0557066860176
 20
168.8044108602132
 30
0.0
 11
105.0557066860176
 21
174.5819830652142
 31
0.0
  0
LINE
  5
E00ED8CD
330
E00DEA5D
100
AcDbEntity
  8
JISSEN
100
AcDbLine
 10
105.0557066860176
 20
178.4916685851146
 30
0.0
 11
105.0557066860176
 21
173.3861143829651
 31
0.0
  0
LINE
  5
E00ED8CE
330
E00DEA5D
100
AcDbEntity
  8
JISSEN
100
AcDbLine
 10
104.705706686019
 20
171.2388253059195
 30
0.0
 11
105.0057066860183
 21
173.6821292343136
 31
0.0
  0
LINE
  5
E00ED8CF
330
E00DEA5D
100
AcDbEntity
  8
JISSEN
100
AcDbLine
 10
105.0057066860183
 20
170.6821292343136
 30
0.0
 11
105.0057066860183
 21
171.2388253059195
 31
0.0
  0
LINE
  5
E00ED8D0
330
E00DEA5D
100
AcDbEntity
  8
JISSEN
100
AcDbLine
 10
105.0057066860183
 20
171.2388253059195
 30
0.0
 11
104.705706686019
 21
171.2388253059195
 31
0.0
  0
LINE
  5
E00ED8D1
330
E00DEA5D
100
AcDbEntity
  8
JISSEN
100
AcDbLine
 10
105.0557066860176
 20
171.5750018022642
 30
0.0
 11
105.0557066860176
 21
168.8044108602641
 31
0.0
  0
LINE
  5
E00ED8D2
330
E00DEA5D
100
AcDbEntity
  8
JISSEN
100
AcDbLine
 10
104.705706686019
 20
174.2388253059195
 30
0.0
 11
105.0057066860183
 21
176.6821292343136
 31
0.0
  0
LINE
  5
E00ED8D3
330
E00DEA5D
100
AcDbEntity
  8
JISSEN
100
AcDbLine
 10
105.0057066860183
 20
174.2388253059195
 30
0.0
 11
104.705706686019
 21
174.2388253059195
 31
0.0
  0
LINE
  5
E00ED8D4
330
E00DEA5D
100
AcDbEntity
  8
JISSEN
100
AcDbLine
 10
105.0057066860183
 20
177.2388253059195
 30
0.0
 11
104.7057066860181
 21
177.2388253059195
 31
0.0
  0
LINE
  5
E00ED8D5
330
E00DEA5D
100
AcDbEntity
  8
JISSEN
100
AcDbLine
 10
104.7057066860181
 20
178.9916685851146
 30
0.0
 11
105.5557066860176
 21
178.9916685851146
 31
0.0
  0
LINE
  5
E00ED8D6
330
E00DEA5D
100
AcDbEntity
  8
JISSEN
100
AcDbLine
 10
105.0557066860176
 20
176.3930956459132
 30
0.0
 11
105.0557066860176
 21
178.4916685851146
 31
0.0
  0
LINE
  5
E00ED8D7
330
E00DEA5D
100
AcDbEntity
  8
JISSEN
100
AcDbLine
 10
105.0557066860176
 20
178.4916685851146
 30
0.0
 11
105.5557066860176
 21
178.9916685851146
 31
0.0
  0
LINE
  5
E00ED8D8
330
E00DEA5D
100
AcDbEntity
  8
JISSEN
100
AcDbLine
 10
105.5557066860176
 20
178.9916685851146
 30
0.0
 11
105.0557066860176
 21
178.4916685851146
 31
0.0
  0
LINE
  5
E00ED8D9
330
E00DEA5D
100
AcDbEntity
  8
JISSEN
100
AcDbLine
 10
106.5557066860176
 20
178.9916685851146
 30
0.0
 11
105.5557066860176
 21
178.9916685851146
 31
0.0
  0
LINE
  5
E00ED8DA
330
E00DEA5D
100
AcDbEntity
  8
SUNPOU
100
AcDbLine
 10
115.0557066860176
 20
177.4916685851437
 30
0.0
 11
115.0557066860176
 21
167.4916685851437
 31
0.0
  0
LINE
  5
E00ED8DB
330
E00DEA5D
100
AcDbEntity
  8
JISSEN
100
AcDbLine
 10
118.8738710516674
 20
167.4916685851146
 30
0.0
 11
110.4448797869674
 21
166.3070511171151
 31
0.0
  0
ARC
  5
E00ED8DC
330
E00DEA5D
100
AcDbEntity
  8
JISSEN
100
AcDbCircle
 10
110.3057066860176
 20
167.2973191858161
 30
0.0
 40
1.0
100
AcDbArc
 50
272.3689796090502
 51
278.0000000000406
  0
LINE
  5
E00ED8DD
330
E00DEA5D
100
AcDbEntity
  8
JISSEN
100
AcDbLine
 10
124.0557066860176
 20
167.4916685851146
 30
0.0
 11
118.8738710516674
 21
167.4916685851146
 31
0.0
  0
LINE
  5
E00ED8DE
330
E00DEA5D
100
AcDbEntity
  8
JISSEN
100
AcDbLine
 10
120.1047016230143
 20
166.1499091822276
 30
0.0
 11
123.6258406628451
 21
166.6447730019842
 31
0.0
  0
LINE
  5
E00ED8DF
330
E00DEA5D
100
AcDbEntity
  8
JISSEN
100
AcDbLine
 39
240.0520776831561
 10
104.2057066860181
 20
182.7416689073486
 30
0.0
 11
90.05570668601762
 21
182.741668907345
 31
0.0
  0
LINE
  5
E00ED8E0
330
E00DEA5D
100
AcDbEntity
  8
JISSEN
100
AcDbLine
 39
240.0520776831561
 10
75.90570668601708
 20
182.7416689073486
 30
0.0
 11
90.05570668601762
 21
182.741668907345
 31
0.0
  0
LINE
  5
E00ED8E1
330
E00DEA5D
100
AcDbEntity
  8
JISSEN
370
    -2
100
AcDbLine
 10
96.17510136081932
 20
181.2417104141584
 30
0.0
 11
90.05570668601762
 21
181.2417104141584
 31
0.0
  0
SPLINE
  5
E00ED8E2
330
E00DEA5D
100
AcDbEntity
  8
JISSEN
370
    -2
100
AcDbSpline
210
0.0
220
0.0
230
1.0
 70
    12
 71
     3
 72
    14
 73
    10
 74
     0
 42
0.0000000001
 43
0.0000000001
 40
0.0
 40
0.0
 40
0.0
 40
0.0
 40
0.2170493941225676
 40
0.4388311995732112
 40
0.5988137766302898
 40
0.7597871991591737
 40
0.8750649674182215
 40
0.9755548291618868
 40
1.0
 40
1.0
 40
1.0
 40
1.0
 10
93.5961620496621
 20
181.2417104141984
 30
0.0
 41
1.0
 10
93.8365245393445
 20
181.235744862626
 30
0.0
 41
1.0
 10
94.3224902344175
 20
181.2236836902682
 30
0.0
 41
1.0
 10
94.96312182161295
 20
181.0944941998257
 30
0.0
 41
1.0
 10
95.50005662030457
 20
180.8585711422872
 30
0.0
 41
1.0
 10
95.8718641971393
 20
180.5525108336494
 30
0.0
 41
1.0
 10
96.09364707431565
 20
180.1876305970379
 30
0.0
 41
1.0
 10
96.16036642962194
 20
179.9140473396453
 30
0.0
 41
1.0
 10
96.1637543394802
 20
179.7699121087332
 30
0.0
 41
1.0
 10
96.16441722829245
 20
179.7417101683292
 30
0.0
 41
1.0
  0
LINE
  5
E00ED8E3
330
E00DEA5D
100
AcDbEntity
  8
NITEN
100
AcDbLine
 10
77.55570668601762
 20
195.0416689204428
 30
0.0
 11
102.5557066860176
 21
195.0416689204428
 31
0.0
  0
LINE
  5
E00ED8E4
330
E00DEA5D
100
AcDbEntity
  8
JISSEN
100
AcDbLine
 10
99.05570668601763
 20
206.0416689204428
 30
0.0
 11
90.05570668601762
 21
206.0416689204428
 31
0.0
  0
LINE
  5
E00ED8E5
330
E00DEA5D
100
AcDbEntity
  8
JISSEN
100
AcDbLine
 10
100.317803460118
 20
204.7795721462459
 30
0.0
 11
90.05570668601762
 21
204.7795721462459
 31
0.0
  0
LINE
  5
E00ED8E6
330
E00DEA5D
100
AcDbEntity
  8
NITEN
100
AcDbLine
 10
99.05570668601763
 20
195.0416689204428
 30
0.0
 11
90.05570668601762
 21
195.0416689204428
 31
0.0
  0
LINE
  5
E00ED8E9
330
E00DEA5D
100
AcDbEntity
  8
JISSEN
100
AcDbLine
 10
101.3396812822331
 20
190.2416689204435
 30
0.0
 11
90.05570668601762
 21
190.2416689204435
 31
0.0
  0
LINE
  5
E00ED8EA
330
E00DEA5D
100
AcDbEntity
  8
SAISEN
100
AcDbLine
 10
80.55769756802078
 20
192.04166892045
 30
0.0
 11
80.99326812940057
 21
205.9792303614883
 31
0.0
  0
LINE
  5
E00ED8EB
330
E00DEA5D
100
AcDbEntity
  8
SAISEN
100
AcDbLine
 10
80.55769756802078
 20
192.0416689204464
 30
0.0
 11
80.99326812940057
 21
205.9792303614847
 31
0.0
  0
LINE
  5
E00ED8EC
330
E00DEA5D
100
AcDbEntity
  8
NITEN
100
AcDbLine
 10
77.05570668601763
 20
211.8470193341779
 30
0.0
 11
77.05570668601808
 21
195.5416689204428
 31
0.0
  0
LINE
  5
E00ED8ED
330
E00DEA5D
100
AcDbEntity
  8
JISSEN
100
AcDbLine
 10
79.7936099119172
 20
204.7795721462459
 30
0.0
 11
79.33930043606711
 21
190.2416689204435
 31
0.0
  0
ARC
  5
E00ED8EE
330
E00DEA5D
100
AcDbEntity
  8
JISSEN
370
    -2
100
AcDbCircle
 10
83.74124248741669
 20
179.604332405657
 30
0.0
 40
1.648956901138485
100
AcDbArc
 50
83.20607180967957
 51
175.2210394254883
  0
LINE
  5
E00ED8F0
330
E00DEA5D
100
AcDbEntity
  8
JISSEN
100
AcDbLine
 10
78.77173208980207
 20
190.2416689204435
 30
0.0
 11
90.05570668601762
 21
190.2416689204435
 31
0.0
  0
LINE
  5
E00ED8F9
330
E00DEA5D
100
AcDbEntity
  8
SAISEN
100
AcDbLine
 10
75.90570668601708
 20
182.7416689073486
 30
0.0
 11
75.90570668601799
 21
183.7416689204453
 31
0.0
  0
LINE
  5
E00ED8FA
330
E00DEA5D
100
AcDbEntity
  8
JISSEN
100
AcDbLine
 10
75.40570668601708
 20
182.741668907345
 30
0.0
 11
75.90570668601708
 21
182.741668907345
 31
0.0
  0
ARC
  5
E00ED8FD
330
E00DEA5D
100
AcDbEntity
  8
NITEN
100
AcDbCircle
 10
77.55570668601762
 20
195.5416689204428
 30
0.0
 40
0.5
100
AcDbArc
 50
180.0
 51
270.0
  0
LINE
  5
E00ED8FE
330
E00DEA5D
100
AcDbEntity
  8
JISSEN
370
    -2
100
AcDbLine
 10
83.93631201121593
 20
181.2417104141584
 30
0.0
 11
90.05570668601762
 21
181.2417104141584
 31
0.0
  0
SPLINE
  5
E00ED901
330
E00DEA5D
100
AcDbEntity
  8
JISSEN
370
    -2
100
AcDbSpline
210
0.0
220
0.0
230
1.0
 70
    12
 71
     3
 72
    14
 73
    10
 74
     0
 42
0.0000000001
 43
0.0000000001
 40
0.0
 40
0.0
 40
0.0
 40
0.0
 40
0.2170493941225676
 40
0.4388311995732112
 40
0.5988137766302898
 40
0.7597871991591737
 40
0.8750649674182215
 40
0.9755548291618868
 40
1.0
 40
1.0
 40
1.0
 40
1.0
 10
86.51525132237315
 20
181.2417104141984
 30
0.0
 41
1.0
 10
86.27488883269075
 20
181.235744862626
 30
0.0
 41
1.0
 10
85.78892313761775
 20
181.2236836902682
 30
0.0
 41
1.0
 10
85.1482915504223
 20
181.0944941998257
 30
0.0
 41
1.0
 10
84.61135675173068
 20
180.8585711422872
 30
0.0
 41
1.0
 10
84.23954917489595
 20
180.5525108336494
 30
0.0
 41
1.0
 10
84.01776629771962
 20
180.1876305970379
 30
0.0
 41
1.0
 10
83.9510469424133
 20
179.9140473396453
 30
0.0
 41
1.0
 10
83.94765903255507
 20
179.7699121087332
 30
0.0
 41
1.0
 10
83.9469961437428
 20
179.7417101683292
 30
0.0
 41
1.0
  0
LINE
  5
E00ED906
330
E00DEA5D
100
AcDbEntity
  8
JISSEN
100
AcDbLine
 10
79.7936099119172
 20
204.7795721462459
 30
0.0
 11
90.05570668601762
 21
204.7795721462459
 31
0.0
  0
LINE
  5
E00ED907
330
E00DEA5D
100
AcDbEntity
  8
JISSEN
100
AcDbLine
 10
81.05570668601762
 20
206.0416689204428
 30
0.0
 11
90.05570668601762
 21
206.0416689204428
 31
0.0
  0
LINE
  5
E00ED908
330
E00DEA5D
100
AcDbEntity
  8
JISSEN
100
AcDbLine
 10
81.05570668601762
 20
206.0416689204428
 30
0.0
 11
79.7936099119172
 21
204.7795721462459
 31
0.0
  0
LINE
  5
E00ED909
330
E00DEA5D
100
AcDbEntity
  8
NITEN
100
AcDbLine
 10
76.92409855818709
 20
212.1850835714464
 30
0.0
 11
70.76897551383604
 21
218.8923807409699
 31
0.0
  0
ARC
  5
E00ED90A
330
E00DEA5D
100
AcDbEntity
  8
NITEN
100
AcDbCircle
 10
71.05570668601718
 20
219.3019967012294
 30
0.0
 40
0.5
100
AcDbArc
 50
180.0
 51
235.0079798014486
  0
ARC
  5
E00ED90B
330
E00DEA5D
100
AcDbEntity
  8
NITEN
100
AcDbCircle
 10
76.55570668601717
 20
211.8470193341779
 30
0.0
 40
0.5
100
AcDbArc
 50
0.0
 51
42.5418441566224
  0
LINE
  5
E00ED90C
330
E00DEA5D
100
AcDbEntity
  8
NITEN
100
AcDbLine
 10
103.055706686018
 20
211.8470193341779
 30
0.0
 11
103.0557066860176
 21
195.5416689204428
 31
0.0
  0
LINE
  5
E00ED90D
330
E00DEA5D
100
AcDbEntity
  8
JISSEN
100
AcDbLine
 10
100.317803460118
 20
204.7795721462459
 30
0.0
 11
100.7721129359681
 21
190.2416689204435
 31
0.0
  0
LINE
  5
E00ED90E
330
E00DEA5D
100
AcDbEntity
  8
SAISEN
100
AcDbLine
 10
99.55371580401447
 20
192.0416689204464
 30
0.0
 11
99.11814524263469
 21
205.9792303614847
 31
0.0
  0
LINE
  5
E00ED90F
330
E00DEA5D
100
AcDbEntity
  8
SAISEN
100
AcDbLine
 10
99.55371580401447
 20
192.04166892045
 30
0.0
 11
99.11814524263469
 21
205.9792303614883
 31
0.0
  0
ARC
  5
E00ED911
330
E00DEA5D
100
AcDbEntity
  8
JISSEN
370
    -2
100
AcDbCircle
 10
96.37017088461858
 20
179.604332405657
 30
0.0
 40
1.648956901138485
100
AcDbArc
 50
4.778960574511654
 51
96.7939281903204
  0
LINE
  5
E00ED917
330
E00DEA5D
100
AcDbEntity
  8
SAISEN
100
AcDbLine
 10
104.2057066860181
 20
182.7416689073486
 30
0.0
 11
104.2057066860172
 21
183.7416689204453
 31
0.0
  0
LINE
  5
E00ED918
330
E00DEA5D
100
AcDbEntity
  8
JISSEN
100
AcDbLine
 10
104.7057066860181
 20
182.741668907345
 30
0.0
 11
104.2057066860181
 21
182.741668907345
 31
0.0
  0
ARC
  5
E00ED91C
330
E00DEA5D
100
AcDbEntity
  8
NITEN
100
AcDbCircle
 10
102.5557066860171
 20
195.5416689204428
 30
0.0
 40
0.5
100
AcDbArc
 50
270.0
 51
0.0
  0
LINE
  5
E00ED91D
330
E00DEA5D
100
AcDbEntity
  8
JISSEN
100
AcDbLine
 10
99.05570668601763
 20
206.0416689204428
 30
0.0
 11
100.317803460118
 21
204.7795721462459
 31
0.0
  0
LINE
  5
E00ED91E
330
E00DEA5D
100
AcDbEntity
  8
NITEN
100
AcDbLine
 10
103.1873148138481
 20
212.1850835714464
 30
0.0
 11
109.3424378581992
 21
218.8923807409699
 31
0.0
  0
ARC
  5
E00ED91F
330
E00DEA5D
100
AcDbEntity
  8
NITEN
100
AcDbCircle
 10
103.5557066860176
 20
211.8470193341779
 30
0.0
 40
0.5
100
AcDbArc
 50
137.4581558433775
 51
180.0
  0
ARC
  5
E00ED920
330
E00DEA5D
100
AcDbEntity
  8
NITEN
100
AcDbCircle
 10
109.0557066860171
 20
219.3019967012294
 30
0.0
 40
0.5
100
AcDbArc
 50
304.9920201985514
 51
0.0
  0
SPLINE
  5
E00ED921
330
E00DEA5D
100
AcDbEntity
  8
SUNPOU
100
AcDbSpline
210
0.0
220
0.0
230
1.0
 70
     8
 71
     3
 72
    11
 73
     7
 74
     5
 42
0.0000000001
 43
0.0000000001
 44
0.0000000001
 40
0.0
 40
0.0
 40
0.0
 40
0.0
 40
3.264692203133994
 40
6.15697472568029
 40
8.955271668736928
 40
10.85738683396026
 40
10.85738683396026
 40
10.85738683396026
 40
10.85738683396026
 10
147.1075747906463
 20
177.4916685851437
 30
0.0
 10
146.43247410236
 20
176.4902696339385
 30
0.0
 10
145.159282751862
 20
174.6017032242249
 30
0.0
 10
147.4251274682062
 20
171.7503321911556
 30
0.0
 10
145.2220103016496
 20
169.1240016934147
 30
0.0
 10
146.5643644923836
 20
167.9619257202257
 30
0.0
 10
147.1075747906463
 20
167.4916685851437
 30
0.0
 11
147.1075747906463
 21
177.4916685851437
 31
0.0
 11
145.8782344130825
 21
174.4672781643655
 31
0.0
 11
146.6504178670522
 21
171.6799800275236
 31
0.0
 11
145.9211113352441
 21
168.9783920196694
 31
0.0
 11
147.1075747906463
 21
167.4916685851437
 31
0.0
  0
LINE
  5
E00ED922
330
E00DEA5D
100
AcDbEntity
  8
JISSEN
100
AcDbLine
 10
122.9999989059058
 20
258.0000003803513
 30
0.0
 11
122.9999989059058
 21
273.0000003803513
 31
0.0
  0
LINE
  5
E00ED923
330
E00DEA5D
100
AcDbEntity
  8
NITEN
100
AcDbLine
 10
109.0557066860176
 20
237.0416689204428
 30
0.0
 11
71.05570668601763
 21
237.0416689204428
 31
0.0
  0
ELLIPSE
  5
E00ED924
330
E00DEA5D
100
AcDbEntity
  8
NITEN
100
AcDbEllipse
 10
98.55570668601764
 20
251.8456574448443
 30
0.0
 11
-8.499999999999985
 21
0.0
 31
0.0
210
0.0
220
0.0
230
1.0
 40
0.2352941176470057
 41
0.0
 42
6.283185307179586
  0
LINE
  5
E00ED925
330
E00DEA5D
100
AcDbEntity
  8
NITEN
100
AcDbLine
 10
73.05570668601763
 20
237.0416689204428
 30
0.0
 11
73.05570668601763
 21
251.8456574448443
 31
0.0
  0
ARC
  5
E00ED926
330
E00DEA5D
100
AcDbEntity
  8
NITEN
100
AcDbCircle
 10
71.05570668601718
 20
236.5416689204428
 30
0.0
 40
0.5
100
AcDbArc
 50
90.0
 51
180.0
  0
ELLIPSE
  5
E00ED927
330
E00DEA5D
100
AcDbEntity
  8
NITEN
100
AcDbEllipse
 10
81.55570668601763
 20
251.8456574448443
 30
0.0
 11
-8.5
 21
0.0
 31
0.0
210
0.0
220
0.0
230
1.0
 40
0.2352941176470588
 41
3.141592653589793
 42
6.283185307179586
  0
LINE
  5
E00ED928
330
E00DEA5D
100
AcDbEntity
  8
NITEN
100
AcDbLine
 10
107.0557066860176
 20
237.0416689204428
 30
0.0
 11
107.0557066860176
 21
251.8456574448443
 31
0.0
  0
ARC
  5
E00ED929
330
E00DEA5D
100
AcDbEntity
  8
NITEN
100
AcDbCircle
 10
109.0557066860171
 20
236.5416689204428
 30
0.0
 40
0.5
100
AcDbArc
 50
0.0
 51
90.0
  0
TEXT
  5
E00ED92A
330
E00DEA5D
100
AcDbEntity
  8
TEXT
100
AcDbText
 10
127.6428560487629
 20
263.9370851686751
 30
0.0
 40
3.0
  1
1
  7
K
 72
     4
 11
127.9999989059058
 21
265.4370851686751
 31
0.0
100
AcDbText
  0
TEXT
  5
E00ED92B
330
E00DEA5D
100
AcDbEntity
  8
TEXT
100
AcDbText
 10
133.9495656468477
 20
263.8900039677492
 30
0.0
 40
3.0
  1
スプリンクラーヘッド
 41
0.8
  7
K
 72
     4
 11
147.9495656468477
 21
265.4900039677493
 31
0.0
100
AcDbText
  0
LINE
  5
E00ED92C
330
E00DEA5D
100
AcDbEntity
  8
JISSEN
100
AcDbLine
 10
162.999998543906
 20
273.0000003803513
 30
0.0
 11
162.999998543906
 21
258.0000003803513
 31
0.0
  0
LINE
  5
E00ED92D
330
E00DEA5D
100
AcDbEntity
  8
JISSEN
100
AcDbLine
 10
132.999998543906
 20
273.0000003803513
 30
0.0
 11
132.999998543906
 21
258.0000003803513
 31
0.0
  0
TEXT
  5
E00ED92E
330
E00DEA5D
100
AcDbEntity
  8
TEXT
100
AcDbText
 10
126.9999989059058
 20
258.9370851686751
 30
0.0
 40
3.0
  1
2
  7
K
 72
     4
 11
127.9999989059058
 21
260.4370851686751
 31
0.0
100
AcDbText
  0
TEXT
  5
E00ED92F
330
E00DEA5D
100
AcDbEntity
  8
TEXT
100
AcDbText
 10
143.5395656468477
 20
258.8900039677493
 30
0.0
 40
3.0
  1
ガード
 41
0.9
  7
K
 72
     4
 11
147.9495656468477
 21
260.4900039677493
 31
0.0
100
AcDbText
  0
TEXT
  5
E00ED930
330
E00DEA5D
100
AcDbEntity
  8
TEXT
100
AcDbText
 10
141.3423033677472
 20
268.9321908251338
 30
0.0
 40
3.0
  1
名　　称
  7
K
 72
     4
 11
148.1423033677472
 21
270.4321908251338
 31
0.0
100
AcDbText
  0
TEXT
  5
E00ED931
330
E00DEA5D
100
AcDbEntity
  8
TEXT
100
AcDbText
 10
124.799998543906
 20
269.0382150688571
 30
0.0
 40
3.0
  1
番号
  7
K
 72
     4
 11
127.999998543906
 21
270.5382150688572
 31
0.0
100
AcDbText
  0
TEXT
  5
E00ED932
330
E00DEA5D
100
AcDbEntity
  8
TEXT
100
AcDbText
 10
167.0308921376306
 20
268.9731312291721
 30
0.0
 40
3.0
  1
備　考
  7
K
 72
     4
 11
172.0308921376306
 21
270.4731312291721
 31
0.0
100
AcDbText
  0
LWPOLYLINE
  5
E00ED933
330
E00DEA5D
100
AcDbEntity
  8
WAKU
100
AcDbPolyline
 90
        4
 70
     1
 43
0.0
 10
361.9999981819062
 20
0.0000003803513664
 10
180.9999989059058
 20
0.0000003803513664
 10
180.9999989059058
 20
273.0000003803513
 10
361.9999981819062
 20
273.0000003803513
  0
LINE
  5
E00ED934
330
E00DEA5D
100
AcDbEntity
  8
JISSEN
 48
0.1
100
AcDbLine
 39
1680.364539346804
 10
277.8057059620748
 20
41.66880278868814
 30
0.0
 11
277.8057059620757
 21
40.26880278868304
 31
0.0
  0
LINE
  5
E00ED935
330
E00DEA5D
100
AcDbEntity
  8
JISSEN
 48
0.1
100
AcDbLine
 39
1680.364539346804
 10
274.6766872929999
 20
44.80797588965072
 30
0.0
 11
275.0475988835312
 21
42.16880278870815
 31
0.0
  0
LINE
  5
E00ED936
330
E00DEA5D
100
AcDbEntity
  8
JISSEN
 48
0.1
100
AcDbLine
 39
1680.364539346804
 10
267.4347246310988
 20
44.80797588965072
 30
0.0
 11
267.0638130405675
 21
42.16880278870815
 31
0.0
  0
LINE
  5
E00ED937
330
E00DEA5D
100
AcDbEntity
  8
JISSEN
 48
0.1
100
AcDbLine
 39
1680.364539346804
 10
264.3057059620239
 20
41.66880278868814
 30
0.0
 11
264.305705962023
 21
40.26880278868304
 31
0.0
  0
LINE
  5
E00ED938
330
E00DEA5D
100
AcDbEntity
  8
JISSEN
100
AcDbLine
 39
1680.364539346804
 10
280.4307059620193
 20
38.1688027886845
 30
0.0
 11
279.1807059620184
 21
38.1688027886845
 31
0.0
  0
LINE
  5
E00ED939
330
E00DEA5D
100
AcDbEntity
  8
JISSEN
100
AcDbLine
 39
1680.364539346804
 10
262.8529836789246
 20
38.1688027886845
 30
0.0
 11
264.1029836789255
 21
38.1688027886845
 31
0.0
  0
LINE
  5
E00ED93A
330
E00DEA5D
100
AcDbEntity
  8
JISSEN
100
AcDbLine
 10
305.055707809767
 20
52.21797439908517
 30
0.0
 11
271.0557059620175
 21
52.21797439908517
 31
0.0
  0
LINE
  5
E00ED93B
330
E00DEA5D
100
AcDbEntity
  8
JISSEN
100
AcDbLine
 10
289.3318313998833
 20
49.22164611223672
 30
0.0
 11
301.1047008988268
 21
50.87621501846263
 31
0.0
  0
ARC
  5
E00ED93C
330
E00DEA5D
100
AcDbEntity
  8
JISSEN
100
AcDbCircle
 10
307.3057059620175
 20
37.21797439908516
 30
0.0
 40
15.0
100
AcDbArc
 50
114.4186184442967
 51
180.0
  0
HATCH
  5
E00ED93D
330
E00DEA5D
100
AcDbEntity
  8
SUNPOU
100
AcDbHatch
 10
0.0
 20
0.0
 30
0.0
210
0.0
220
0.0
230
1.0
  2
ANSI31
 70
     0
 71
     0
 91
        2
 92
        5
 93
        5
 72
     1
 10
271.0557059620175
 20
62.21797439908527
 11
214.0038378573899
 21
62.21797439908346
 72
     4
 94
        3
 73
     0
 74
     0
 95
       11
 96
        7
 40
0.0
 40
0.0
 40
0.0
 40
0.0
 40
3.264692203133994
 40
6.15697472568029
 40
8.955271668736928
 40
10.85738683396026
 40
10.85738683396026
 40
10.85738683396026
 40
10.85738683396026
 10
214.0038378573888
 20
62.21797439908527
 10
214.6789385456756
 20
61.216575447879
 10
215.9521298961733
 20
59.32800903816655
 10
213.6862851798293
 20
56.47663800509667
 10
215.889402346386
 20
53.85030750735655
 10
214.5470481556519
 20
52.68823153416611
 10
214.0038378573888
 20
52.21797439908527
 72
     1
 10
214.0038378573892
 20
52.21797439908527
 11
238.5557059619418
 21
52.21797439908527
 72
     1
 10
238.5557059619415
 20
52.21797439908527
 11
271.0557059620175
 21
52.21797439908527
 72
     1
 10
271.0557059620175
 20
52.21797439908527
 11
271.0557059620175
 21
62.21797439908709
 97
        0
 92
        5
 93
        5
 72
     4
 94
        3
 73
     0
 74
     0
 95
       11
 96
        7
 40
0.0
 40
0.0
 40
0.0
 40
0.0
 40
1.902115165223333
 40
4.700412108279971
 40
7.592694630826267
 40
10.85738683396026
 40
10.85738683396026
 40
10.85738683396026
 40
10.85738683396026
 10
328.1075740666462
 20
52.21797439908527
 10
327.564363768384
 20
52.68823153416611
 10
326.2220095776499
 20
53.85030750735655
 10
328.4251267442066
 20
56.47663800509667
 10
326.1592820278622
 20
59.32800903816655
 10
327.4324733783603
 20
61.216575447879
 10
328.1075740666462
 20
62.21797439908527
 72
     1
 10
328.1075740666453
 20
62.21797439908346
 11
271.055705962018
 21
62.21797439908709
 72
     1
 10
271.0557059620175
 20
62.21797439908527
 11
271.0557059620175
 21
52.21797439908346
 72
     1
 10
271.0557059620175
 20
52.21797439908527
 11
303.5557059620935
 21
52.21797439908527
 72
     1
 10
303.5557059620939
 20
52.21797439908527
 11
328.1075740666467
 21
52.21797439908527
 97
        0
 75
     0
 76
     1
 52
0.0
 41
10.0
 77
     0
 78
     1
 53
45.0
 43
185.0253220162142
 44
-2520.445078496028
 45
-0.8838834764831842
 46
0.8838834764831844
 79
     0
 47
0.0883306502300457
 98
        2
 10
256.9824989742612
 20
61.33749208703171
 10
287.1162301620754
 20
56.9209585941187
  0
ARC
  5
E00ED93E
330
E00DEA5D
100
AcDbEntity
  8
JISSEN
100
AcDbCircle
 10
238.7941456841679
 20
53.20682592103515
 30
0.0
 40
1.999999999999985
100
AcDbArc
 50
209.6318914940861
 51
262.0000000000055
  0
LINE
  5
E00ED93F
330
E00DEA5D
100
AcDbEntity
  8
JISSEN
100
AcDbLine
 10
238.5157981191175
 20
51.22628978158502
 30
0.0
 11
241.006711614568
 21
50.87621493903464
 31
0.0
  0
ARC
  5
E00ED940
330
E00DEA5D
100
AcDbEntity
  8
JISSEN
100
AcDbCircle
 10
234.8057059620175
 20
37.21797439908516
 30
0.0
 40
15.0
100
AcDbArc
 50
0.0
 51
65.58138155570325
  0
ARC
  5
E00ED941
330
E00DEA5D
100
AcDbEntity
  8
JISSEN
100
AcDbCircle
 39
240.0520776831561
 10
279.1807059620184
 20
38.36880278868523
 30
0.0
 40
0.2000000000007276
100
AcDbArc
 50
180.0
 51
270.0
  0
ARC
  5
E00ED942
330
E00DEA5D
100
AcDbEntity
  8
JISSEN
100
AcDbCircle
 39
240.0520776831561
 10
280.4307059620184
 20
38.36880278868523
 30
0.0
 40
0.2000000000007276
100
AcDbArc
 50
270.0
 51
0.0
  0
ARC
  5
E00ED943
330
E00DEA5D
100
AcDbEntity
  8
JISSEN
100
AcDbCircle
 39
240.0520776831561
 10
262.8529836789255
 20
38.36880278868523
 30
0.0
 40
0.2000000000007276
100
AcDbArc
 50
180.0
 51
270.0
  0
ARC
  5
E00ED944
330
E00DEA5D
100
AcDbEntity
  8
JISSEN
100
AcDbCircle
 39
240.0520776831561
 10
264.1029836789255
 20
38.36880278868523
 30
0.0
 40
0.2000000000007276
100
AcDbArc
 50
270.0
 51
0.0
  0
LINE
  5
E00ED945
330
E00DEA5D
100
AcDbEntity
  8
JISSEN
100
AcDbLine
 10
266.2628866919737
 20
39.06880278868595
 30
0.0
 11
265.3971179740226
 21
38.36880278868523
 31
0.0
  0
LINE
  5
E00ED946
330
E00DEA5D
100
AcDbEntity
  8
JISSEN
100
AcDbLine
 10
265.4807059620231
 20
42.16880278870632
 30
0.0
 11
269.5557059489681
 21
42.1688027887103
 31
0.0
  0
LINE
  5
E00ED947
330
E00DEA5D
100
AcDbEntity
  8
JISSEN
100
AcDbLine
 10
269.5557059489681
 20
41.66880278868814
 30
0.0
 11
264.3057059620239
 21
41.66880278868814
 31
0.0
  0
LINE
  5
E00ED948
330
E00DEA5D
100
AcDbEntity
  8
JISSEN
100
AcDbLine
 10
267.2450448633724
 20
39.06880278868595
 30
0.0
 11
263.5277318361229
 21
39.06880278868595
 31
0.0
  0
LINE
  5
E00ED949
330
E00DEA5D
100
AcDbEntity
  8
JISSEN
100
AcDbLine
 10
267.2450448633724
 20
40.26880278868486
 30
0.0
 11
263.5277318361229
 21
40.26880278868486
 31
0.0
  0
LINE
  5
E00ED94A
330
E00DEA5D
100
AcDbEntity
  8
JISSEN
100
AcDbLine
 10
269.555705948968
 20
49.22164611223672
 30
0.0
 11
252.7795805241516
 21
49.22164611223684
 31
0.0
  0
LINE
  5
E00ED94B
330
E00DEA5D
100
AcDbEntity
  8
JISSEN
100
AcDbLine
 10
251.3057050530176
 20
26.41797402653503
 30
0.0
 11
271.0557059620175
 21
26.41797402653503
 31
0.0
  0
LINE
  5
E00ED94C
330
E00DEA5D
100
AcDbEntity
  8
JISSEN
100
AcDbLine
 10
251.362750423367
 20
29.41797451828609
 30
0.0
 11
269.5557059489681
 21
29.41797451828609
 31
0.0
  0
LINE
  5
E00ED94D
330
E00DEA5D
100
AcDbEntity
  8
JISSEN
100
AcDbLine
 10
253.8057063941676
 20
29.41797451828609
 30
0.0
 11
253.8057063941676
 21
49.21908101703559
 31
0.0
  0
LINE
  5
E00ED94E
330
E00DEA5D
100
AcDbEntity
  8
JISSEN
100
AcDbLine
 10
249.8057057385183
 20
27.91797439908589
 30
0.0
 11
249.8057057385183
 21
37.21797473433582
 31
0.0
  0
SPLINE
  5
E00ED94F
330
E00DEA5D
100
AcDbEntity
  8
JISSEN
100
AcDbSpline
210
0.0
220
0.0
230
1.0
 70
     8
 71
     3
 72
     9
 73
     5
 74
     0
 42
0.0000000001
 43
0.0000000001
 40
0.0
 40
0.0
 40
0.0
 40
0.0
 40
0.5
 40
1.0
 40
1.0
 40
1.0
 40
1.0
 10
251.3627503687028
 20
29.41797439906406
 30
0.0
 10
251.3532623529261
 20
29.41797439906406
 30
0.0
 10
251.3342670240934
 20
29.41779540965183
 30
0.0
 10
251.3152328422027
 20
29.41725604370333
 30
0.0
 10
251.3057059620111
 20
29.41689556183303
 30
0.0
  0
SPLINE
  5
E00ED950
330
E00DEA5D
100
AcDbEntity
  8
JISSEN
100
AcDbSpline
210
0.0
220
0.0
230
1.0
 70
     8
 71
     3
 72
    16
 73
    12
 74
     0
 42
0.0000000001
 43
0.0000000001
 40
0.0
 40
0.0
 40
0.0
 40
0.0
 40
0.249999999999999
 40
0.249999999999999
 40
0.3749999999999985
 40
0.3749999999999985
 40
0.4999999999999981
 40
0.4999999999999981
 40
0.7499999999999991
 40
0.7499999999999991
 40
1.0
 40
1.0
 40
1.0
 40
1.0
 10
251.3057059620111
 20
29.41689556183303
 30
0.0
 10
251.0648621292927
 20
29.40778241741975
 30
0.0
 10
250.8357661228099
 20
29.34054769463148
 30
0.0
 10
250.5449649422168
 20
29.19022316205303
 30
0.0
 10
250.4560878095223
 20
29.13170956854776
 30
0.0
 10
250.2984822603409
 20
29.00609970243897
 30
0.0
 10
250.2284507641013
 20
28.9382521917538
 30
0.0
 10
250.041896098294
 20
28.72232357526047
 30
0.0
 10
249.9539640855735
 20
28.56930299299676
 30
0.0
 10
249.834881555969
 20
28.24852157487077
 30
0.0
 10
249.8057059620112
 20
28.08229231048574
 30
0.0
 10
249.8057059620112
 20
27.91797439906406
 30
0.0
  0
ARC
  5
E00ED951
330
E00DEA5D
100
AcDbEntity
  8
JISSEN
100
AcDbCircle
 10
251.3057059620175
 20
27.91797439908589
 30
0.0
 40
1.5
100
AcDbArc
 50
180.0
 51
270.0
  0
LINE
  5
E00ED952
330
E00DEA5D
100
AcDbEntity
  8
JISSEN
100
AcDbLine
 10
252.7795805241516
 20
49.22164611223684
 30
0.0
 11
241.0067110252082
 21
50.87621501846263
 31
0.0
  0
LINE
  5
E00ED953
330
E00DEA5D
100
AcDbEntity
  8
JISSEN
100
AcDbLine
 10
264.1779836789175
 20
49.21797439908164
 30
0.0
 11
264.1779836789171
 21
40.26513107553159
 31
0.0
  0
LINE
  5
E00ED954
330
E00DEA5D
100
AcDbEntity
  8
JISSEN
100
AcDbLine
 10
262.7779836789175
 20
40.26513107553159
 30
0.0
 11
262.7779836789179
 21
49.21797439908164
 31
0.0
  0
LINE
  5
E00ED955
330
E00DEA5D
100
AcDbEntity
  8
JISSEN
100
AcDbLine
 10
265.3971179740226
 20
38.36880278868523
 30
0.0
 11
262.0188525351229
 21
38.36880278868523
 31
0.0
  0
LINE
  5
E00ED956
330
E00DEA5D
100
AcDbEntity
  8
JISSEN
100
AcDbLine
 10
262.3689540603743
 20
39.06880278868595
 30
0.0
 11
262.0188525351229
 21
39.06880278868595
 31
0.0
  0
LINE
  5
E00ED957
330
E00DEA5D
100
AcDbEntity
  8
JISSEN
100
AcDbLine
 10
262.3689540603743
 20
40.26880278868486
 30
0.0
 11
262.0188525351229
 21
40.26880278868486
 31
0.0
  0
LINE
  5
E00ED958
330
E00DEA5D
100
AcDbEntity
  8
JISSEN
100
AcDbLine
 10
262.0188525351229
 20
38.36880278868523
 30
0.0
 11
262.0188525351229
 21
39.06880278868595
 31
0.0
  0
LINE
  5
E00ED959
330
E00DEA5D
100
AcDbEntity
  8
JISSEN
100
AcDbLine
 10
260.5188525351229
 20
38.36880278868523
 30
0.0
 11
260.5188525351229
 21
39.06880278868595
 31
0.0
  0
LINE
  5
E00ED95A
330
E00DEA5D
100
AcDbEntity
  8
JISSEN
100
AcDbLine
 10
262.0188525351229
 20
38.36880278868523
 30
0.0
 11
260.5188525351229
 21
38.36880278868523
 31
0.0
  0
LINE
  5
E00ED95B
330
E00DEA5D
100
AcDbEntity
  8
JISSEN
100
AcDbLine
 10
260.5188525351229
 20
40.26880278868486
 30
0.0
 11
260.5188525351229
 21
39.56880278868595
 31
0.0
  0
LINE
  5
E00ED95C
330
E00DEA5D
100
AcDbEntity
  8
JISSEN
100
AcDbLine
 10
262.0188525351229
 20
40.26880278868486
 30
0.0
 11
262.0188525351229
 21
39.56880278868595
 31
0.0
  0
LINE
  5
E00ED95D
330
E00DEA5D
100
AcDbEntity
  8
JISSEN
100
AcDbLine
 10
260.5188525351229
 20
39.56880278868595
 30
0.0
 11
262.0188525351229
 21
39.56880278868595
 31
0.0
  0
LINE
  5
E00ED95E
330
E00DEA5D
100
AcDbEntity
  8
JISSEN
100
AcDbLine
 10
262.0188525351229
 20
40.26880278868486
 30
0.0
 11
260.5188525351229
 21
40.26880278868486
 31
0.0
  0
LINE
  5
E00ED95F
330
E00DEA5D
100
AcDbEntity
  8
JISSEN
100
AcDbLine
 10
259.6912878071241
 20
40.26880278868486
 30
0.0
 11
259.6912878071241
 21
39.06880278868595
 31
0.0
  0
LINE
  5
E00ED960
330
E00DEA5D
100
AcDbEntity
  8
JISSEN
100
AcDbLine
 10
260.5188525351229
 20
39.06880278868595
 30
0.0
 11
259.6912878071241
 21
39.06880278868595
 31
0.0
  0
LINE
  5
E00ED961
330
E00DEA5D
100
AcDbEntity
  8
JISSEN
100
AcDbLine
 10
260.5188525351229
 20
40.26880278868486
 30
0.0
 11
259.6912878071241
 21
40.26880278868486
 31
0.0
  0
LINE
  5
E00ED962
330
E00DEA5D
100
AcDbEntity
  8
JISSEN
100
AcDbLine
 10
262.3689540603743
 20
39.06880278868595
 30
0.0
 11
262.3689540603743
 21
40.26880278868486
 31
0.0
  0
LINE
  5
E00ED963
330
E00DEA5D
100
AcDbEntity
  8
JISSEN
100
AcDbLine
 10
263.5277318361229
 20
40.26880278868486
 30
0.0
 11
263.5277318361229
 21
39.06880278868595
 31
0.0
  0
LINE
  5
E00ED964
330
E00DEA5D
100
AcDbEntity
  8
JISSEN
100
AcDbLine
 10
262.3689540603743
 20
39.06880278868595
 30
0.0
 11
263.5277318361229
 21
39.06880278868595
 31
0.0
  0
LINE
  5
E00ED965
330
E00DEA5D
100
AcDbEntity
  8
JISSEN
100
AcDbLine
 10
262.3689540603743
 20
40.26880278868486
 30
0.0
 11
263.5277318361229
 21
40.26880278868486
 31
0.0
  0
SPLINE
  5
E00ED966
330
E00DEA5D
100
AcDbEntity
  8
JISSEN
100
AcDbSpline
210
0.0
220
0.0
230
1.0
 70
     8
 71
     3
 72
     9
 73
     5
 74
     0
 42
0.0000000001
 43
0.0000000001
 40
0.0
 40
0.0
 40
0.0
 40
0.0
 40
0.5
 40
1.0
 40
1.0
 40
1.0
 40
1.0
 10
252.8674542593323
 20
49.22164621240483
 30
0.0
 10
252.884939634863
 20
49.2204246625912
 30
0.0
 10
252.9199662408061
 20
49.21858932662292
 30
0.0
 10
252.9551050050947
 20
49.21797439906334
 30
0.0
 10
252.9727026438692
 20
49.21797439906334
 30
0.0
  0
LINE
  5
E00ED967
330
E00DEA5D
100
AcDbEntity
  8
JISSEN
100
AcDbLine
 10
252.9727035437179
 20
49.2179743729863
 30
0.0
 11
252.9608384941173
 21
49.2179743729863
 31
0.0
  0
LINE
  5
E00ED968
330
E00DEA5D
100
AcDbEntity
  8
JISSEN
100
AcDbLine
 10
265.4807059620231
 20
42.16880278870815
 30
0.0
 11
265.4807059620231
 21
41.66880278870633
 31
0.0
  0
LINE
  5
E00ED969
330
E00DEA5D
100
AcDbEntity
  8
JISSEN
100
AcDbLine
 10
269.5557059489681
 20
29.4179745182862
 30
0.0
 11
269.5557059489681
 21
49.22164611225617
 31
0.0
  0
LINE
  5
E00ED96A
330
E00DEA5D
100
AcDbEntity
  8
JISSEN
100
AcDbLine
 10
272.5557059750669
 20
29.4179745182862
 30
0.0
 11
272.5557059750669
 21
49.22164611221706
 31
0.0
  0
LINE
  5
E00ED96B
330
E00DEA5D
100
AcDbEntity
  8
JISSEN
100
AcDbLine
 10
292.3057061855167
 20
27.91797439908589
 30
0.0
 11
292.3057061855167
 21
37.21797473433582
 31
0.0
  0
LINE
  5
E00ED96C
330
E00DEA5D
100
AcDbEntity
  8
JISSEN
100
AcDbLine
 10
288.3057055298674
 20
29.41797451828609
 30
0.0
 11
288.3057055298674
 21
49.21908101703559
 31
0.0
  0
LINE
  5
E00ED96D
330
E00DEA5D
100
AcDbEntity
  8
JISSEN
100
AcDbLine
 10
290.748661500668
 20
29.41797451828609
 30
0.0
 11
272.5557059750669
 21
29.41797451828609
 31
0.0
  0
LINE
  5
E00ED96E
330
E00DEA5D
100
AcDbEntity
  8
JISSEN
100
AcDbLine
 10
290.8057068710174
 20
26.41797402653503
 30
0.0
 11
271.0557059620175
 21
26.41797402653503
 31
0.0
  0
SPLINE
  5
E00ED96F
330
E00DEA5D
100
AcDbEntity
  8
JISSEN
100
AcDbSpline
210
0.0
220
0.0
230
1.0
 70
     8
 71
     3
 72
    16
 73
    12
 74
     0
 42
0.0000000001
 43
0.0000000001
 40
0.0
 40
0.0
 40
0.0
 40
0.0
 40
0.2500000000000009
 40
0.2500000000000009
 40
0.3750000000000013
 40
0.3750000000000013
 40
0.5000000000000018
 40
0.5000000000000018
 40
0.7500000000000009
 40
0.7500000000000009
 40
1.0
 40
1.0
 40
1.0
 40
1.0
 10
269.5557059620111
 20
29.41689556183303
 30
0.0
 10
269.5557059620111
 20
29.40778241741975
 30
0.0
 10
269.6149095670741
 20
29.34054769463148
 30
0.0
 10
269.7584174332575
 20
29.19022316205303
 30
0.0
 10
269.8154579271865
 20
29.13170956854776
 30
0.0
 10
269.9396564076821
 20
29.00609970243897
 30
0.0
 10
270.0075343649321
 20
28.9382521917538
 30
0.0
 10
270.2254322350043
 20
28.72232357526047
 30
0.0
 10
270.3821500940509
 20
28.56930299299676
 30
0.0
 10
270.7128369281661
 20
28.24852157487077
 30
0.0
 10
270.8852623564578
 20
28.08229231048574
 30
0.0
 10
271.0557059620112
 20
27.91797439906406
 30
0.0
  0
SPLINE
  5
E00ED970
330
E00DEA5D
100
AcDbEntity
  8
JISSEN
100
AcDbSpline
210
0.0
220
0.0
230
1.0
 70
     8
 71
     3
 72
    16
 73
    12
 74
     0
 42
0.0000000001
 43
0.0000000001
 40
0.0
 40
0.0
 40
0.0
 40
0.0
 40
0.2500000000000009
 40
0.2500000000000009
 40
0.3750000000000013
 40
0.3750000000000013
 40
0.5000000000000018
 40
0.5000000000000018
 40
0.7500000000000009
 40
0.7500000000000009
 40
1.0
 40
1.0
 40
1.0
 40
1.0
 10
272.5557059620239
 20
29.41689556183303
 30
0.0
 10
272.5557059620239
 20
29.40778241741975
 30
0.0
 10
272.4965023569609
 20
29.34054769463148
 30
0.0
 10
272.3529944907775
 20
29.19022316205303
 30
0.0
 10
272.2959539968485
 20
29.13170956854776
 30
0.0
 10
272.1717555163529
 20
29.00609970243897
 30
0.0
 10
272.103877559103
 20
28.9382521917538
 30
0.0
 10
271.8859796890308
 20
28.72232357526047
 30
0.0
 10
271.7292618299841
 20
28.56930299299676
 30
0.0
 10
271.398574995869
 20
28.24852157487077
 30
0.0
 10
271.2261495675773
 20
28.08229231048574
 30
0.0
 10
271.0557059620239
 20
27.91797439906406
 30
0.0
  0
SPLINE
  5
E00ED971
330
E00DEA5D
100
AcDbEntity
  8
JISSEN
100
AcDbSpline
210
0.0
220
0.0
230
1.0
 70
     8
 71
     3
 72
     9
 73
     5
 74
     0
 42
0.0000000001
 43
0.0000000001
 40
0.0
 40
0.0
 40
0.0
 40
0.0
 40
0.5
 40
1.0
 40
1.0
 40
1.0
 40
1.0
 10
290.7486615553323
 20
29.41797439906406
 30
0.0
 10
290.758149571109
 20
29.41797439906406
 30
0.0
 10
290.7771448999417
 20
29.41779540965183
 30
0.0
 10
290.7961790818323
 20
29.41725604370333
 30
0.0
 10
290.8057059620239
 20
29.41689556183303
 30
0.0
  0
SPLINE
  5
E00ED972
330
E00DEA5D
100
AcDbEntity
  8
JISSEN
100
AcDbSpline
210
0.0
220
0.0
230
1.0
 70
     8
 71
     3
 72
    16
 73
    12
 74
     0
 42
0.0000000001
 43
0.0000000001
 40
0.0
 40
0.0
 40
0.0
 40
0.0
 40
0.249999999999999
 40
0.249999999999999
 40
0.3749999999999985
 40
0.3749999999999985
 40
0.4999999999999981
 40
0.4999999999999981
 40
0.7499999999999991
 40
0.7499999999999991
 40
1.0
 40
1.0
 40
1.0
 40
1.0
 10
290.8057059620239
 20
29.41689556183303
 30
0.0
 10
291.0465497947423
 20
29.40778241741975
 30
0.0
 10
291.2756458012252
 20
29.34054769463148
 30
0.0
 10
291.5664469818182
 20
29.19022316205303
 30
0.0
 10
291.6553241145127
 20
29.13170956854776
 30
0.0
 10
291.8129296636941
 20
29.00609970243897
 30
0.0
 10
291.8829611599337
 20
28.9382521917538
 30
0.0
 10
292.069515825741
 20
28.72232357526047
 30
0.0
 10
292.1574478384616
 20
28.56930299299676
 30
0.0
 10
292.276530368066
 20
28.24852157487077
 30
0.0
 10
292.3057059620239
 20
28.08229231048574
 30
0.0
 10
292.3057059620239
 20
27.91797439906406
 30
0.0
  0
ARC
  5
E00ED973
330
E00DEA5D
100
AcDbEntity
  8
JISSEN
100
AcDbCircle
 10
290.8057059620175
 20
27.91797439908589
 30
0.0
 40
1.5
100
AcDbArc
 50
270.0
 51
0.0
  0
LINE
  5
E00ED974
330
E00DEA5D
100
AcDbEntity
  8
JISSEN
100
AcDbLine
 10
281.8183494872726
 20
39.06880278868595
 30
0.0
 11
279.7279592066741
 21
39.06880278868595
 31
0.0
  0
LINE
  5
E00ED975
330
E00DEA5D
100
AcDbEntity
  8
JISSEN
100
AcDbLine
 10
281.8183494872726
 20
40.26880278868486
 30
0.0
 11
279.7279592066741
 21
40.26880278868486
 31
0.0
  0
LINE
  5
E00ED976
330
E00DEA5D
100
AcDbEntity
  8
JISSEN
100
AcDbLine
 10
278.4557059620244
 20
38.36880278868523
 30
0.0
 11
282.3565908831231
 21
38.36880278868523
 31
0.0
  0
LINE
  5
E00ED977
330
E00DEA5D
100
AcDbEntity
  8
JISSEN
100
AcDbLine
 10
272.5557059750669
 20
49.22164611223672
 30
0.0
 11
289.3318313998833
 21
49.22164611223672
 31
0.0
  0
LINE
  5
E00ED978
330
E00DEA5D
100
AcDbEntity
  8
JISSEN
100
AcDbLine
 10
279.1057059620159
 20
40.26513107553159
 30
0.0
 11
279.1057059620163
 21
49.21797439908345
 31
0.0
  0
LINE
  5
E00ED979
330
E00DEA5D
100
AcDbEntity
  8
JISSEN
100
AcDbLine
 10
275.3557059620927
 20
37.86880278866158
 30
0.0
 11
272.5557059750669
 21
37.86880278868307
 31
0.0
  0
LINE
  5
E00ED97A
330
E00DEA5D
100
AcDbEntity
  8
JISSEN
100
AcDbLine
 10
272.5557059750669
 20
39.06880278867459
 30
0.0
 11
273.1277005733738
 21
39.06880278867015
 31
0.0
  0
LINE
  5
E00ED97B
330
E00DEA5D
100
AcDbEntity
  8
JISSEN
100
AcDbLine
 10
272.5557059750669
 20
39.01880278867338
 30
0.0
 11
275.8557059620741
 21
39.01880278864826
 31
0.0
  0
LINE
  5
E00ED97C
330
E00DEA5D
100
AcDbEntity
  8
JISSEN
100
AcDbLine
 10
273.1277005733725
 20
40.26880278868486
 30
0.0
 11
272.5557059750669
 21
40.26880278868486
 31
0.0
  0
LINE
  5
E00ED97D
330
E00DEA5D
100
AcDbEntity
  8
JISSEN
100
AcDbLine
 10
269.5557059489681
 20
40.26880278868475
 30
0.0
 11
268.9837113507244
 21
40.26880278868486
 31
0.0
  0
LINE
  5
E00ED97E
330
E00DEA5D
100
AcDbEntity
  8
JISSEN
100
AcDbLine
 10
266.7557059619973
 20
37.86880278869432
 30
0.0
 11
269.5557059489682
 21
37.86880278869444
 31
0.0
  0
LINE
  5
E00ED97F
330
E00DEA5D
100
AcDbEntity
  8
JISSEN
100
AcDbLine
 10
269.5557059489681
 20
39.06880278868595
 30
0.0
 11
268.9837113507253
 21
39.06880278868595
 31
0.0
  0
LINE
  5
E00ED980
330
E00DEA5D
100
AcDbEntity
  8
JISSEN
100
AcDbLine
 10
269.5557059489681
 20
39.01880278868486
 30
0.0
 11
266.2557059620246
 21
39.01880278868486
 31
0.0
  0
LINE
  5
E00ED981
330
E00DEA5D
100
AcDbEntity
  8
JISSEN
100
AcDbLine
 10
268.0122927395239
 20
39.06880278868595
 30
0.0
 11
268.9837113507253
 21
39.06880278868595
 31
0.0
  0
LINE
  5
E00ED982
330
E00DEA5D
100
AcDbEntity
  8
JISSEN
100
AcDbLine
 10
267.2450448633733
 20
39.06880278868595
 30
0.0
 11
268.0122927395239
 21
39.06880278868595
 31
0.0
  0
LINE
  5
E00ED983
330
E00DEA5D
100
AcDbEntity
  8
JISSEN
100
AcDbLine
 10
267.2450448633724
 20
39.06880278868595
 30
0.0
 11
267.2450448633724
 21
40.26880278868486
 31
0.0
  0
LINE
  5
E00ED984
330
E00DEA5D
100
AcDbEntity
  8
JISSEN
100
AcDbLine
 10
268.9837113507244
 20
40.26880278868486
 30
0.0
 11
268.9837113507244
 21
39.06880278868595
 31
0.0
  0
LINE
  5
E00ED985
330
E00DEA5D
100
AcDbEntity
  8
JISSEN
100
AcDbLine
 10
267.2450448633724
 20
40.26880278868486
 30
0.0
 11
268.0122927395229
 21
40.26880278868486
 31
0.0
  0
LINE
  5
E00ED986
330
E00DEA5D
100
AcDbEntity
  8
JISSEN
100
AcDbLine
 10
268.0122927395229
 20
40.26880278868486
 30
0.0
 11
268.9837113507244
 21
40.26880278868486
 31
0.0
  0
LINE
  5
E00ED987
330
E00DEA5D
100
AcDbEntity
  8
JISSEN
100
AcDbLine
 10
266.2557059619982
 20
39.01880278868668
 30
0.0
 11
266.2557059619973
 21
38.36880278869432
 31
0.0
  0
LINE
  5
E00ED988
330
E00DEA5D
100
AcDbEntity
  8
JISSEN
100
AcDbLine
 10
266.4057059620243
 20
39.01880278868486
 30
0.0
 11
266.4057059620243
 21
39.06880278868595
 31
0.0
  0
LINE
  5
E00ED989
330
E00DEA5D
100
AcDbEntity
  8
JISSEN
100
AcDbLine
 10
266.7557059619973
 20
37.86880278869432
 30
0.0
 11
266.2557059619973
 21
38.36880278869432
 31
0.0
  0
LINE
  5
E00ED98A
330
E00DEA5D
100
AcDbEntity
  8
JISSEN
100
AcDbLine
 10
278.4551670005737
 20
39.06880278868595
 30
0.0
 11
274.8663670607245
 21
39.06880278868595
 31
0.0
  0
LINE
  5
E00ED98B
330
E00DEA5D
100
AcDbEntity
  8
JISSEN
100
AcDbLine
 10
278.4551670005737
 20
40.26880278868486
 30
0.0
 11
274.8663670607245
 21
40.26880278868486
 31
0.0
  0
LINE
  5
E00ED98C
330
E00DEA5D
100
AcDbEntity
  8
JISSEN
100
AcDbLine
 10
275.8557059621005
 20
39.01880278865007
 30
0.0
 11
275.8557059620964
 21
38.36880278865772
 31
0.0
  0
LINE
  5
E00ED98D
330
E00DEA5D
100
AcDbEntity
  8
JISSEN
100
AcDbLine
 10
275.3557059620927
 20
37.86880278866158
 30
0.0
 11
275.8557059620964
 21
38.36880278865772
 31
0.0
  0
LINE
  5
E00ED98E
330
E00DEA5D
100
AcDbEntity
  8
JISSEN
100
AcDbLine
 10
275.7057059620744
 20
39.01880278864939
 30
0.0
 11
275.7057059620749
 21
39.06880278865049
 31
0.0
  0
LINE
  5
E00ED98F
330
E00DEA5D
100
AcDbEntity
  8
JISSEN
100
AcDbLine
 10
274.8663670607259
 20
39.06880278865685
 30
0.0
 11
274.0991191845753
 21
39.06880278866276
 31
0.0
  0
LINE
  5
E00ED990
330
E00DEA5D
100
AcDbEntity
  8
JISSEN
100
AcDbLine
 10
274.0991191845753
 20
39.06880278866276
 30
0.0
 11
273.1277005733738
 21
39.06880278867015
 31
0.0
  0
LINE
  5
E00ED991
330
E00DEA5D
100
AcDbEntity
  8
JISSEN
100
AcDbLine
 10
274.8663670607245
 20
40.26880278868486
 30
0.0
 11
274.8663670607245
 21
39.06880278868595
 31
0.0
  0
LINE
  5
E00ED992
330
E00DEA5D
100
AcDbEntity
  8
JISSEN
100
AcDbLine
 10
273.1277005733725
 20
39.06880278868595
 30
0.0
 11
273.1277005733725
 21
40.26880278868486
 31
0.0
  0
LINE
  5
E00ED993
330
E00DEA5D
100
AcDbEntity
  8
JISSEN
100
AcDbLine
 10
274.0991191845721
 20
40.26880278868486
 30
0.0
 11
274.8663670607245
 21
40.26880278868486
 31
0.0
  0
LINE
  5
E00ED994
330
E00DEA5D
100
AcDbEntity
  8
JISSEN
100
AcDbLine
 10
273.1277005733725
 20
40.26880278868486
 30
0.0
 11
274.0991191845721
 21
40.26880278868486
 31
0.0
  0
LINE
  5
E00ED995
330
E00DEA5D
100
AcDbEntity
  8
JISSEN
100
AcDbLine
 10
279.7279592066741
 20
40.26880278868486
 30
0.0
 11
279.7279592066741
 21
39.06880278868595
 31
0.0
  0
LINE
  5
E00ED996
330
E00DEA5D
100
AcDbEntity
  8
JISSEN
100
AcDbLine
 10
277.4560023573237
 20
39.06880278868595
 30
0.0
 11
278.4557059620244
 21
38.36880278868523
 31
0.0
  0
LINE
  5
E00ED997
330
E00DEA5D
100
AcDbEntity
  8
JISSEN
100
AcDbLine
 10
278.4551670005737
 20
39.06880278868595
 30
0.0
 11
278.4551670005737
 21
40.26880278868486
 31
0.0
  0
LINE
  5
E00ED998
330
E00DEA5D
100
AcDbEntity
  8
JISSEN
100
AcDbLine
 10
278.4551670005737
 20
39.06880278868595
 30
0.0
 11
279.7279592066741
 21
39.06880278868595
 31
0.0
  0
LINE
  5
E00ED999
330
E00DEA5D
100
AcDbEntity
  8
JISSEN
100
AcDbLine
 10
278.4551670005737
 20
40.26880278868486
 30
0.0
 11
279.7279592066741
 21
40.26880278868486
 31
0.0
  0
LINE
  5
E00ED99A
330
E00DEA5D
100
AcDbEntity
  8
JISSEN
100
AcDbLine
 10
276.6307059620755
 20
42.16880278870632
 30
0.0
 11
272.5557059750669
 21
42.16880278871042
 31
0.0
  0
LINE
  5
E00ED99B
330
E00DEA5D
100
AcDbEntity
  8
JISSEN
100
AcDbLine
 10
272.5557059750669
 20
41.66880278868814
 30
0.0
 11
277.8057059620748
 21
41.66880278868814
 31
0.0
  0
LINE
  5
E00ED99C
330
E00DEA5D
100
AcDbEntity
  8
JISSEN
100
AcDbLine
 10
273.686419224259
 20
45.66880278868995
 30
0.0
 11
272.5557059750669
 21
45.66880278868985
 31
0.0
  0
LINE
  5
E00ED99D
330
E00DEA5D
100
AcDbEntity
  8
JISSEN
100
AcDbLine
 10
268.4249926998397
 20
45.66880278868995
 30
0.0
 11
269.5557059489681
 21
45.66880278868985
 31
0.0
  0
ARC
  5
E00ED99E
330
E00DEA5D
100
AcDbEntity
  8
JISSEN
100
AcDbCircle
 10
268.4249926998397
 20
44.66880278868996
 30
0.0
 40
1.0
100
AcDbArc
 50
89.99999999998697
 51
171.9999999999597
  0
SPLINE
  5
E00ED99F
330
E00DEA5D
100
AcDbEntity
  8
JISSEN
100
AcDbSpline
210
0.0
220
0.0
230
1.0
 70
     8
 71
     3
 72
     8
 73
     4
 74
     0
 42
0.0000000001
 43
0.0000000001
 40
0.0
 40
0.0
 40
0.0
 40
0.0
 40
2.236014716865069
 40
2.236014716865111
 40
2.236014716865111
 40
2.236014716865111
 10
272.5557059750551
 20
49.22164611223661
 30
0.0
 10
272.0545219349219
 20
50.05050672512561
 30
0.0
 10
271.5533378947887
 20
50.87936733801462
 30
0.0
 10
271.0557059620057
 20
50.87988667828494
 30
0.0
  0
SPLINE
  5
E00ED9A0
330
E00DEA5D
100
AcDbEntity
  8
JISSEN
100
AcDbSpline
210
0.0
220
0.0
230
1.0
 70
     8
 71
     3
 72
     8
 73
     4
 74
     0
 42
0.0000000001
 43
0.0000000001
 40
0.0
 40
0.0
 40
0.0
 40
0.0
 40
2.236014716865069
 40
2.236014716865111
 40
2.236014716865111
 40
2.236014716865111
 10
269.5557059489563
 20
49.22164611223661
 30
0.0
 10
270.0568899890895
 20
50.05050672512561
 30
0.0
 10
270.5580740292227
 20
50.87936733801462
 30
0.0
 10
271.0557059620057
 20
50.87988667828494
 30
0.0
  0
ARC
  5
E00ED9A1
330
E00DEA5D
100
AcDbEntity
  8
JISSEN
100
AcDbCircle
 10
273.686419224259
 20
44.66880278868996
 30
0.0
 40
1.0
100
AcDbArc
 50
8.000000000040243
 51
90.00000000001302
  0
LINE
  5
E00ED9A2
330
E00DEA5D
100
AcDbEntity
  8
JISSEN
100
AcDbLine
 10
276.6307059620755
 20
42.16880278870815
 30
0.0
 11
276.6307059620755
 21
41.66880278870633
 31
0.0
  0
LINE
  5
E00ED9A3
330
E00DEA5D
100
AcDbEntity
  8
JISSEN
100
AcDbLine
 10
280.5057059620178
 20
49.21797439908345
 30
0.0
 11
280.5057059620173
 21
40.26513107553159
 31
0.0
  0
LINE
  5
E00ED9A4
330
E00DEA5D
100
AcDbEntity
  8
JISSEN
100
AcDbLine
 10
282.3565908831231
 20
38.36880278868523
 30
0.0
 11
282.3565908831231
 21
39.06880278868595
 31
0.0
  0
LINE
  5
E00ED9A5
330
E00DEA5D
100
AcDbEntity
  8
JISSEN
100
AcDbLine
 10
282.4557059620244
 20
39.56880278868595
 30
0.0
 11
282.4557059620244
 21
38.36880278868523
 31
0.0
  0
LINE
  5
E00ED9A6
330
E00DEA5D
100
AcDbEntity
  8
JISSEN
100
AcDbLine
 10
282.4557059620244
 20
38.36880278868523
 30
0.0
 11
282.3565908831231
 21
38.36880278868523
 31
0.0
  0
LINE
  5
E00ED9A7
330
E00DEA5D
100
AcDbEntity
  8
JISSEN
100
AcDbLine
 10
282.3565908831231
 20
40.26880278868486
 30
0.0
 11
282.3565908831231
 21
39.56880278868595
 31
0.0
  0
LINE
  5
E00ED9A8
330
E00DEA5D
100
AcDbEntity
  8
JISSEN
100
AcDbLine
 10
282.2561151143734
 20
40.26880278868486
 30
0.0
 11
282.2561151143734
 21
39.06880278868595
 31
0.0
  0
LINE
  5
E00ED9A9
330
E00DEA5D
100
AcDbEntity
  8
JISSEN
100
AcDbLine
 10
281.8183494872726
 20
39.06880278868595
 30
0.0
 11
281.8183494872726
 21
40.26880278868486
 31
0.0
  0
LINE
  5
E00ED9AA
330
E00DEA5D
100
AcDbEntity
  8
JISSEN
100
AcDbLine
 10
282.3565908831231
 20
39.06880278868595
 30
0.0
 11
282.2561151143734
 21
39.06880278868595
 31
0.0
  0
LINE
  5
E00ED9AB
330
E00DEA5D
100
AcDbEntity
  8
JISSEN
100
AcDbLine
 10
282.3565908831231
 20
39.56880278868595
 30
0.0
 11
282.4557059620244
 21
39.56880278868595
 31
0.0
  0
LINE
  5
E00ED9AC
330
E00DEA5D
100
AcDbEntity
  8
JISSEN
100
AcDbLine
 10
281.8183494872726
 20
39.06880278868595
 30
0.0
 11
282.2561151143734
 21
39.06880278868595
 31
0.0
  0
LINE
  5
E00ED9AD
330
E00DEA5D
100
AcDbEntity
  8
JISSEN
100
AcDbLine
 10
282.3565908831231
 20
40.26880278868486
 30
0.0
 11
282.2561151143734
 21
40.26880278868486
 31
0.0
  0
LINE
  5
E00ED9AE
330
E00DEA5D
100
AcDbEntity
  8
JISSEN
100
AcDbLine
 10
281.8183494872726
 20
40.26880278868486
 30
0.0
 11
282.2561151143734
 21
40.26880278868486
 31
0.0
  0
LINE
  5
E00ED9AF
330
E00DEA5D
100
AcDbEntity
  8
JISSEN
100
AcDbLine
 10
289.1387083803172
 20
49.2179743729863
 30
0.0
 11
289.1505734299178
 21
49.2179743729863
 31
0.0
  0
SPLINE
  5
E00ED9B0
330
E00DEA5D
100
AcDbEntity
  8
JISSEN
100
AcDbSpline
210
0.0
220
0.0
230
1.0
 70
     8
 71
     3
 72
     9
 73
     5
 74
     0
 42
0.0000000001
 43
0.0000000001
 40
0.0
 40
0.0
 40
0.0
 40
0.0
 40
0.5
 40
1.0
 40
1.0
 40
1.0
 40
1.0
 10
289.2439576647027
 20
49.22164621240483
 30
0.0
 10
289.226472289172
 20
49.2204246625912
 30
0.0
 10
289.1914456832289
 20
49.21858932662292
 30
0.0
 10
289.1563069189403
 20
49.21797439906334
 30
0.0
 10
289.1387092801658
 20
49.21797439906334
 30
0.0
  0
LINE
  5
E00ED9B1
330
E00DEA5D
100
AcDbEntity
  8
JISSEN
100
AcDbLine
 10
237.0557041142681
 20
52.21797439908517
 30
0.0
 11
271.0557059620175
 21
52.21797439908517
 31
0.0
  0
LINE
  5
E00ED9B2
330
E00DEA5D
100
AcDbEntity
  8
SUNPOU
100
AcDbLine
 10
256.4057059620155
 20
52.21797439908517
 30
0.0
 11
214.0038378573888
 21
52.21797439908517
 31
0.0
  0
LINE
  5
E00ED9B3
330
E00DEA5D
100
AcDbEntity
  8
SUNPOU
100
AcDbLine
 10
238.5557059619415
 20
52.21797439908527
 30
0.0
 11
214.0038378573888
 21
52.21797439908527
 31
0.0
  0
LINE
  5
E00ED9B4
330
E00DEA5D
100
AcDbEntity
  8
JISSEN
100
AcDbLine
 10
303.5956138049175
 20
51.22628978158502
 30
0.0
 11
301.104700309467
 21
50.87621493903464
 31
0.0
  0
ARC
  5
E00ED9B5
330
E00DEA5D
100
AcDbEntity
  8
JISSEN
100
AcDbCircle
 10
303.3172662398671
 20
53.20682592103515
 30
0.0
 40
1.999999999999985
100
AcDbArc
 50
277.9999999999944
 51
330.3681085059137
  0
TEXT
  5
E00ED9B6
330
E00DEA5D
100
AcDbEntity
  8
TEXT
100
AcDbText
 10
296.6925227424127
 20
4.698249870209274
 30
0.0
 40
3.0
  1
尺度　1/1　
  7
K
 72
     4
 11
305.1639513138413
 21
5.983964155923558
 31
0.0
100
AcDbText
  0
TEXT
  5
E00ED9B7
330
E00DEA5D
100
AcDbEntity
  8
TEXT
100
AcDbText
 10
297.0824398849995
 20
9.100734476189927
 30
0.0
 40
3.0
  1
KF　＋ガードK 作動状態
  7
K
 72
     4
 11
318.0681541707138
 21
10.60073447618992
 31
0.0
100
AcDbText
  0
LINE
  5
E00ED9B8
330
E00DEA5D
100
AcDbEntity
  8
SUNPOU
100
AcDbLine
 10
303.5557059620939
 20
52.21797439908527
 30
0.0
 11
328.1075740666467
 21
52.21797439908527
 31
0.0
  0
LINE
  5
E00ED9B9
330
E00DEA5D
100
AcDbEntity
  8
JISSEN
100
AcDbLine
 39
1680.364539346804
 10
262.8529836789246
 20
153.4424969747431
 30
0.0
 11
264.1029836789255
 21
153.4424969747431
 31
0.0
  0
LINE
  5
E00ED9BA
330
E00DEA5D
100
AcDbEntity
  8
JISSEN
100
AcDbLine
 39
1680.364539346804
 10
280.4307059620193
 20
153.4424969747431
 30
0.0
 11
279.1807059620184
 21
153.4424969747431
 31
0.0
  0
LINE
  5
E00ED9BB
330
E00DEA5D
100
AcDbEntity
  8
JISSEN
 48
0.1
100
AcDbLine
 39
1680.364539346804
 10
264.3057059620239
 20
156.9424969747467
 30
0.0
 11
264.305705962023
 21
155.5424969747416
 31
0.0
  0
LINE
  5
E00ED9BC
330
E00DEA5D
100
AcDbEntity
  8
JISSEN
 48
0.1
100
AcDbLine
 39
1680.364539346804
 10
277.8057059620748
 20
156.9424969747467
 30
0.0
 11
277.8057059620757
 21
155.5424969747416
 31
0.0
  0
LINE
  5
E00ED9BD
330
E00DEA5D
100
AcDbEntity
  8
JISSEN
 48
0.1
100
AcDbLine
 39
1680.364539346804
 10
267.4347246310988
 20
160.0816700757093
 30
0.0
 11
267.0638130405675
 21
157.4424969747667
 31
0.0
  0
LINE
  5
E00ED9BE
330
E00DEA5D
100
AcDbEntity
  8
JISSEN
 48
0.1
100
AcDbLine
 39
1680.364539346804
 10
274.6766872929999
 20
160.0816700757093
 30
0.0
 11
275.0475988835312
 21
157.4424969747667
 31
0.0
  0
LINE
  5
E00ED9BF
330
E00DEA5D
100
AcDbEntity
  8
JISSEN
100
AcDbLine
 39
1680.364539346804
 10
268.592376197337
 20
172.4916684733432
 30
0.0
 11
271.0557059620175
 21
172.7388253059196
 31
0.0
  0
LINE
  5
E00ED9C0
330
E00DEA5D
100
AcDbEntity
  8
JISSEN
100
AcDbLine
 39
1680.364539346804
 10
281.6707284333649
 20
173.8038777277868
 30
0.0
 11
285.8278221685167
 21
174.2209774336545
 31
0.0
  0
LINE
  5
E00ED9C1
330
E00DEA5D
100
AcDbEntity
  8
JISSEN
100
AcDbLine
 39
1680.364539346804
 10
281.8066050805066
 20
173.2608147645871
 30
0.0
 11
285.8214737013426
 21
173.6636443920958
 31
0.0
  0
LINE
  5
E00ED9C2
330
E00DEA5D
100
AcDbEntity
  8
JISSEN
100
AcDbLine
 39
1680.364539346804
 10
281.661701505315
 20
176.2462759443349
 30
0.0
 11
285.8278221685166
 21
176.6642813620465
 31
0.0
  0
LINE
  5
E00ED9C3
330
E00DEA5D
100
AcDbEntity
  8
JISSEN
100
AcDbLine
 39
1680.364539346804
 10
281.661701505315
 20
176.8029720159422
 30
0.0
 11
285.8278221685166
 21
177.220977433654
 31
0.0
  0
LINE
  5
E00ED9C4
330
E00DEA5D
100
AcDbEntity
  8
JISSEN
100
AcDbLine
 39
1680.364539346804
 10
256.2835897555186
 20
176.6999771065695
 30
0.0
 11
260.44971041872
 21
177.1179825242816
 31
0.0
  0
LINE
  5
E00ED9C5
330
E00DEA5D
100
AcDbEntity
  8
JISSEN
100
AcDbLine
 39
1680.364539346804
 10
256.288571553378
 20
173.7004769525121
 30
0.0
 11
260.44971041872
 21
174.1179825242852
 31
0.0
  0
LINE
  5
E00ED9C6
330
E00DEA5D
100
AcDbEntity
  8
JISSEN
100
AcDbLine
 39
1680.364539346804
 10
256.2835897555186
 20
174.2566731781782
 30
0.0
 11
260.44971041872
 21
174.6746785958903
 31
0.0
  0
LINE
  5
E00ED9C7
330
E00DEA5D
100
AcDbEntity
  8
JISSEN
100
AcDbLine
 39
1680.364539346804
 10
265.9254038011192
 20
174.6673831980983
 30
0.0
 11
276.1860081229158
 21
175.6968752705167
 31
0.0
  0
LINE
  5
E00ED9C8
330
E00DEA5D
100
AcDbEntity
  8
JISSEN
100
AcDbLine
 39
1680.364539346804
 10
265.9254038011192
 20
175.2240792697032
 30
0.0
 11
276.1860081229158
 21
176.2535713421236
 31
0.0
  0
LINE
  5
E00ED9C9
330
E00DEA5D
100
AcDbEntity
  8
JISSEN
100
AcDbLine
 39
1680.364539346804
 10
271.0557059622585
 20
172.7388253059377
 30
0.0
 11
275.9926012542059
 21
173.2341659706812
 31
0.0
  0
LINE
  5
E00ED9CA
330
E00DEA5D
100
AcDbEntity
  8
SAISEN
100
AcDbLine
 39
1680.364539346804
 10
285.2057059620181
 20
182.7416689073431
 30
0.0
 11
285.705705962018
 21
181.8756435035681
 31
0.0
  0
LINE
  5
E00ED9CB
330
E00DEA5D
100
AcDbEntity
  8
SAISEN
100
AcDbLine
 39
1680.364539346804
 10
256.905705962017
 20
182.7416689073431
 30
0.0
 11
256.405705962017
 21
181.8756435035681
 31
0.0
  0
LINE
  5
E00ED9CC
330
E00DEA5D
100
AcDbEntity
  8
SAISEN
100
AcDbLine
 39
1680.364539346804
 10
261.5576968440198
 20
192.0416689204464
 30
0.0
 11
260.3579014166068
 21
190.8418734930344
 31
0.0
  0
LINE
  5
E00ED9CD
330
E00DEA5D
100
AcDbEntity
  8
JISSEN
100
AcDbLine
 39
1680.364539346804
 10
261.5576968440207
 20
192.0416689204464
 30
0.0
 11
260.364143462011
 21
192.0416689204464
 31
0.0
  0
LINE
  5
E00ED9CE
330
E00DEA5D
100
AcDbEntity
  8
JISSEN
100
AcDbLine
 39
1680.364539346804
 10
271.0557059620175
 20
192.0416689204646
 30
0.0
 11
260.364143462011
 21
192.0416689204464
 31
0.0
  0
LINE
  5
E00ED9CF
330
E00DEA5D
100
AcDbEntity
  8
SAISEN
100
AcDbLine
 39
1680.364539346804
 10
261.5576968440198
 20
192.04166892045
 30
0.0
 11
260.3579014166059
 21
190.841873493038
 31
0.0
  0
ARC
  5
E00ED9D2
330
E00DEA5D
100
AcDbEntity
  8
JISSEN
100
AcDbCircle
 39
1680.364539346804
 10
283.2057059620181
 20
190.7416689204435
 30
0.0
 40
0.9999999999997548
100
AcDbArc
 50
210.0
 51
270.0
  0
LINE
  5
E00ED9D3
330
E00DEA5D
100
AcDbEntity
  8
SAISEN
100
AcDbLine
 39
1680.364539346804
 10
280.5537150800152
 20
192.04166892045
 30
0.0
 11
281.7535105074291
 21
190.841873493038
 31
0.0
  0
LINE
  5
E00ED9D4
330
E00DEA5D
100
AcDbEntity
  8
JISSEN
100
AcDbLine
 39
1680.364539346804
 10
271.0557059620175
 20
192.0416689204646
 30
0.0
 11
281.747268462024
 21
192.0416689204464
 31
0.0
  0
LINE
  5
E00ED9D5
330
E00DEA5D
100
AcDbEntity
  8
JISSEN
100
AcDbLine
 39
1680.364539346804
 10
280.5537150800144
 20
192.0416689204464
 30
0.0
 11
281.747268462024
 21
192.0416689204464
 31
0.0
  0
LINE
  5
E00ED9D6
330
E00DEA5D
100
AcDbEntity
  8
SAISEN
100
AcDbLine
 39
1680.364539346804
 10
280.5537150800152
 20
192.0416689204464
 30
0.0
 11
281.7535105074282
 21
190.8418734930344
 31
0.0
  0
ARC
  5
E00ED9DE
330
E00DEA5D
100
AcDbEntity
  8
JISSEN
100
AcDbCircle
 39
1680.364539346804
 10
258.905705962017
 20
190.7416689204435
 30
0.0
 40
0.9999999999997548
100
AcDbArc
 50
270.0
 51
329.9999999999998
  0
ARC
  5
E00ED9E0
330
E00DEA5D
100
AcDbEntity
  8
JISSEN
100
AcDbCircle
 10
307.3057059620175
 20
152.4916685851437
 30
0.0
 40
15.0
100
AcDbArc
 50
114.4186184442876
 51
180.0
  0
LINE
  5
E00ED9E1
330
E00DEA5D
100
AcDbEntity
  8
JISSEN
100
AcDbLine
 10
304.6252943175047
 20
166.6446960357204
 30
0.0
 11
289.3318240017086
 21
164.4953402982953
 31
0.0
  0
LINE
  5
E00ED9E2
330
E00DEA5D
100
AcDbEntity
  8
JISSEN
100
AcDbLine
 10
305.0557078097651
 20
167.4916685851437
 30
0.0
 11
271.0557059620175
 21
167.4916685851437
 31
0.0
  0
HATCH
  5
E00ED9E3
330
E00DEA5D
100
AcDbEntity
  8
SUNPOU
100
AcDbHatch
 10
0.0
 20
0.0
 30
0.0
210
0.0
220
0.0
230
1.0
  2
ANSI31
 70
     0
 71
     0
 91
        2
 92
        5
 93
        5
 72
     1
 10
238.5557059619415
 20
167.4916685851437
 11
246.0557059620177
 21
167.4916685851437
 72
     1
 10
246.0557059620175
 20
167.4916685851437
 11
246.0557059620175
 21
177.4916685851437
 72
     1
 10
246.0557059620175
 20
177.4916685851437
 11
214.00383785739
 21
177.4916685851419
 72
     4
 94
        3
 73
     0
 74
     0
 95
       11
 96
        7
 40
0.0
 40
0.0
 40
0.0
 40
0.0
 40
3.264692203133994
 40
6.15697472568029
 40
8.955271668736928
 40
10.85738683396026
 40
10.85738683396026
 40
10.85738683396026
 40
10.85738683396026
 10
214.0038378573888
 20
177.4916685851437
 10
214.6789385456752
 20
176.4902696339374
 10
215.9521298961733
 20
174.601703224225
 10
213.6862851798293
 20
171.7503321911569
 10
215.8894023463856
 20
169.1240016934132
 10
214.5470481556519
 20
167.9619257202245
 10
214.0038378573888
 20
167.4916685851437
 72
     1
 10
214.0038378573892
 20
167.4916685851437
 11
238.5557059619417
 21
167.4916685851437
 97
        0
 92
        5
 93
        5
 72
     1
 10
296.0557059620175
 20
177.4916685851437
 11
296.0557059620175
 21
167.4916685851437
 72
     1
 10
296.0557059620175
 20
167.4916685851437
 11
303.5557059620935
 21
167.4916685851437
 72
     1
 10
303.5557059620939
 20
167.4916685851437
 11
328.1075740666469
 21
167.4916685851437
 72
     4
 94
        3
 73
     0
 74
     0
 95
       11
 96
        7
 40
0.0
 40
0.0
 40
0.0
 40
0.0
 40
1.902115165223333
 40
4.700412108279971
 40
7.592694630826267
 40
10.85738683396026
 40
10.85738683396026
 40
10.85738683396026
 40
10.85738683396026
 10
328.1075740666462
 20
167.4916685851437
 10
327.5643637683836
 20
167.9619257202245
 10
326.2220095776499
 20
169.1240016934132
 10
328.4251267442066
 20
171.7503321911569
 10
326.1592820278622
 20
174.601703224225
 10
327.4324733783603
 20
176.4902696339374
 10
328.1075740666462
 20
177.4916685851437
 72
     1
 10
328.1075740666453
 20
177.4916685851419
 11
296.0557059620175
 21
177.4916685851437
 97
        0
 75
     0
 76
     1
 52
0.0
 41
10.0
 77
     0
 78
     1
 53
45.0
 43
366.0253212922141
 44
-2491.006975134973
 45
-0.8838834764831842
 46
0.8838834764831844
 79
     0
 47
0.1102095095325799
 98
        2
 10
238.1597521352503
 20
171.1918150015515
 10
305.8575388119823
 20
173.9470517355909
  0
LINE
  5
E00ED9E4
330
E00DEA5D
100
AcDbEntity
  8
SUNPOU
100
AcDbLine
 10
290.2996614268475
 20
167.4916685851437
 30
0.0
 11
328.1075740666467
 21
167.4916685851437
 31
0.0
  0
LINE
  5
E00ED9E5
330
E00DEA5D
100
AcDbEntity
  8
SUNPOU
100
AcDbLine
 10
287.555705872616
 20
177.4916685851437
 30
0.0
 11
328.1075740666453
 21
177.4916685851419
 31
0.0
  0
LINE
  5
E00ED9E6
330
E00DEA5D
100
AcDbEntity
  8
NITEN
100
AcDbLine
 10
251.5557059620175
 20
219.3019967012294
 30
0.0
 11
251.5557059620175
 21
236.5416689204428
 31
0.0
  0
LINE
  5
E00ED9E7
330
E00DEA5D
100
AcDbEntity
  8
NITEN
100
AcDbLine
 10
290.5557059620175
 20
219.3019967012294
 30
0.0
 11
290.555705962018
 21
236.5416689204428
 31
0.0
  0
LINE
  5
E00ED9E8
330
E00DEA5D
100
AcDbEntity
  8
JISSEN
100
AcDbLine
 10
237.4861176065303
 20
166.6446960357204
 30
0.0
 11
252.7795879223265
 21
164.4953402982953
 31
0.0
  0
LINE
  5
E00ED9E9
330
E00DEA5D
100
AcDbEntity
  8
JISSEN
100
AcDbLine
 10
237.0557041142699
 20
167.4916685851437
 30
0.0
 11
271.0557059620175
 21
167.4916685851437
 31
0.0
  0
LINE
  5
E00ED9EA
330
E00DEA5D
100
AcDbEntity
  8
SUNPOU
100
AcDbLine
 10
251.8117504971875
 20
167.4916685851437
 30
0.0
 11
214.0038378573888
 21
167.4916685851437
 31
0.0
  0
LINE
  5
E00ED9EB
330
E00DEA5D
100
AcDbEntity
  8
SUNPOU
100
AcDbLine
 10
254.555706051419
 20
177.4916685851435
 30
0.0
 11
214.0038378573897
 21
177.4916685851419
 31
0.0
  0
ARC
  5
E00ED9EC
330
E00DEA5D
100
AcDbEntity
  8
JISSEN
100
AcDbCircle
 39
240.0520776831561
 10
237.5557041142699
 20
167.1398300760972
 30
0.0
 40
0.5
100
AcDbArc
 50
180.0
 51
262.0000049459389
  0
LINE
  5
E00ED9ED
330
E00DEA5D
100
AcDbEntity
  8
JISSEN
100
AcDbLine
 39
240.0520776831561
 10
237.0557041142699
 20
167.4916685851437
 30
0.0
 11
237.0557041142699
 21
167.1398300760972
 31
0.0
  0
SPLINE
  5
E00ED9EE
330
E00DEA5D
100
AcDbEntity
  8
SUNPOU
100
AcDbSpline
210
0.0
220
0.0
230
1.0
 70
     8
 71
     3
 72
    11
 73
     7
 74
     5
 42
0.0000000001
 43
0.0000000001
 44
0.0000000001
 40
0.0
 40
0.0
 40
0.0
 40
0.0
 40
3.264692203133994
 40
6.15697472568029
 40
8.955271668736928
 40
10.85738683396026
 40
10.85738683396026
 40
10.85738683396026
 40
10.85738683396026
 10
214.0038378573888
 20
177.4916685851437
 30
0.0
 10
214.6789385456752
 20
176.4902696339385
 30
0.0
 10
215.9521298961732
 20
174.6017032242249
 30
0.0
 10
213.6862851798289
 20
171.7503321911556
 30
0.0
 10
215.8894023463856
 20
169.1240016934147
 30
0.0
 10
214.5470481556515
 20
167.9619257202257
 30
0.0
 10
214.0038378573888
 20
167.4916685851437
 30
0.0
 11
214.0038378573888
 21
177.4916685851437
 31
0.0
 11
215.2331782349526
 21
174.4672781643655
 31
0.0
 11
214.4609947809829
 21
171.6799800275236
 31
0.0
 11
215.190301312791
 21
168.9783920196694
 31
0.0
 11
214.0038378573888
 21
167.4916685851437
 31
0.0
  0
ARC
  5
E00ED9EF
330
E00DEA5D
100
AcDbEntity
  8
JISSEN
370
    -2
100
AcDbCircle
 10
277.3777110173184
 20
179.8698463921571
 30
0.0
 40
1.640694770587604
100
AcDbArc
 50
327.6393017569091
 51
355.5207093781105
  0
SPLINE
  5
E00ED9F0
330
E00DEA5D
100
AcDbEntity
  8
JISSEN
370
    -2
100
AcDbSpline
210
0.0
220
0.0
230
1.0
 70
    12
 71
     3
 72
    10
 73
     6
 74
     0
 42
0.0000000001
 43
0.0000000001
 40
0.0
 40
0.0
 40
0.0
 40
0.0
 40
0.1088769686984931
 40
0.2172663573285982
 40
0.2385700975410849
 40
0.2385700975410849
 40
0.2385700975410849
 40
0.2385700975410849
 10
277.1644165042923
 20
179.7417101683274
 30
0.0
 41
1.0
 10
277.1517232138764
 20
179.6154291821037
 30
0.0
 41
1.0
 10
277.126393476982
 20
179.3634327295546
 30
0.0
 41
1.0
 10
276.9922121712691
 20
179.1240109163998
 30
0.0
 41
1.0
 10
276.90355658684
 20
179.0099713864167
 30
0.0
 41
1.0
 10
276.888595442979
 20
178.9916686074427
 30
0.0
 41
1.0
  0
SPLINE
  5
E00ED9F1
330
E00DEA5D
100
AcDbEntity
  8
JISSEN
370
    -2
100
AcDbSpline
210
0.0
220
0.0
230
1.0
 70
    12
 71
     3
 72
    10
 73
     6
 74
     0
 42
0.0000000001
 43
0.0000000001
 40
0.0
 40
0.0
 40
0.0
 40
0.0
 40
0.1088769686984931
 40
0.2172663573285982
 40
0.2385700975410079
 40
0.2385700975410079
 40
0.2385700975410079
 40
0.2385700975410079
 10
264.9469954197427
 20
179.7417101683274
 30
0.0
 41
1.0
 10
264.9596887101586
 20
179.6154291821037
 30
0.0
 41
1.0
 10
264.9850184470531
 20
179.3634327295546
 30
0.0
 41
1.0
 10
265.119199752766
 20
179.1240109163998
 30
0.0
 41
1.0
 10
265.2078553371949
 20
179.0099713864167
 30
0.0
 41
1.0
 10
265.2228164810559
 20
178.9916686074427
 30
0.0
 41
1.0
  0
ARC
  5
E00ED9F2
330
E00DEA5D
100
AcDbEntity
  8
JISSEN
370
    -2
100
AcDbCircle
 10
264.7337009067166
 20
179.8698463921571
 30
0.0
 40
1.640694770587604
100
AcDbArc
 50
184.4792906218894
 51
212.3606982430909
  0
LINE
  5
E00ED9F3
330
E00DEA5D
100
AcDbEntity
  8
JISSEN
100
AcDbLine
 10
285.705705962018
 20
177.2388253059177
 30
0.0
 11
285.705705962018
 21
183.7416689204471
 31
0.0
  0
LINE
  5
E00ED9F4
330
E00DEA5D
100
AcDbEntity
  8
JISSEN
100
AcDbLine
 10
256.405705962017
 20
177.2388253059177
 30
0.0
 11
256.405705962017
 21
183.7416689204471
 31
0.0
  0
ARC
  5
E00ED9F5
330
E00DEA5D
100
AcDbEntity
  8
JISSEN
100
AcDbCircle
 39
240.0520776831561
 10
264.1029836789255
 20
153.6424969747438
 30
0.0
 40
0.2000000000007276
100
AcDbArc
 50
270.0
 51
0.0
  0
ARC
  5
E00ED9F6
330
E00DEA5D
100
AcDbEntity
  8
JISSEN
100
AcDbCircle
 39
240.0520776831561
 10
262.8529836789255
 20
153.6424969747438
 30
0.0
 40
0.2000000000007276
100
AcDbArc
 50
180.0
 51
270.0
  0
ARC
  5
E00ED9F7
330
E00DEA5D
100
AcDbEntity
  8
JISSEN
100
AcDbCircle
 39
240.0520776831561
 10
280.4307059620184
 20
153.6424969747438
 30
0.0
 40
0.2000000000007276
100
AcDbArc
 50
270.0
 51
0.0
  0
ARC
  5
E00ED9F8
330
E00DEA5D
100
AcDbEntity
  8
JISSEN
100
AcDbCircle
 39
240.0520776831561
 10
279.1807059620184
 20
153.6424969747438
 30
0.0
 40
0.2000000000007276
100
AcDbArc
 50
180.0
 51
270.0
  0
LINE
  5
E00ED9F9
330
E00DEA5D
100
AcDbEntity
  8
JISSEN
100
AcDbLine
 10
266.2628866919737
 20
154.3424969747445
 30
0.0
 11
265.3971179740226
 21
153.6424969747438
 31
0.0
  0
LINE
  5
E00ED9FA
330
E00DEA5D
100
AcDbEntity
  8
JISSEN
100
AcDbLine
 10
265.4807059620231
 20
157.4424969747649
 30
0.0
 11
269.5557059489681
 21
157.442496974769
 31
0.0
  0
LINE
  5
E00ED9FB
330
E00DEA5D
100
AcDbEntity
  8
JISSEN
100
AcDbLine
 10
267.2450448633724
 20
155.5424969747434
 30
0.0
 11
263.5277318361229
 21
155.5424969747434
 31
0.0
  0
LINE
  5
E00ED9FC
330
E00DEA5D
100
AcDbEntity
  8
JISSEN
100
AcDbLine
 10
267.2450448633724
 20
154.3424969747445
 30
0.0
 11
263.5277318361229
 21
154.3424969747445
 31
0.0
  0
LINE
  5
E00ED9FD
330
E00DEA5D
100
AcDbEntity
  8
JISSEN
100
AcDbLine
 10
269.5557059489681
 20
156.9424969747467
 30
0.0
 11
264.3057059620239
 21
156.9424969747467
 31
0.0
  0
SPLINE
  5
E00ED9FE
330
E00DEA5D
100
AcDbEntity
  8
JISSEN
100
AcDbSpline
210
0.0
220
0.0
230
1.0
 70
     8
 71
     3
 72
    18
 73
    14
 74
     0
 42
0.0000000001
 43
0.0000000001
 40
0.0
 40
0.0
 40
0.0
 40
0.0
 40
0.1250000000000003
 40
0.1250000000000003
 40
0.2500000000000006
 40
0.2500000000000006
 40
0.3750000000000009
 40
0.3750000000000009
 40
0.5000000000000013
 40
0.5000000000000013
 40
0.7500000000000006
 40
0.7500000000000006
 40
1.0
 40
1.0
 40
1.0
 40
1.0
 10
266.8452804646165
 20
172.4916685851001
 30
0.0
 10
266.749443082778
 20
172.4916685851001
 30
0.0
 10
266.6554257428713
 20
172.5013175037872
 30
0.0
 10
266.4708707362367
 20
172.5392133986367
 30
0.0
 10
266.3793791356663
 20
172.5679224243428
 30
0.0
 10
266.2053146318801
 20
172.6429580446817
 30
0.0
 10
266.1229603886074
 20
172.6889073193649
 30
0.0
 10
265.9674159840158
 20
172.797550525958
 30
0.0
 10
265.8939469547674
 20
172.8608204251156
 30
0.0
 10
265.6967764704529
 20
173.0682111321236
 30
0.0
 10
265.5911283930088
 20
173.2354866243165
 30
0.0
 10
265.4497970217832
 20
173.5964272934322
 30
0.0
 10
265.4123735971822
 20
173.7934233096564
 30
0.0
 10
265.4123735971822
 20
173.9916685851001
 30
0.0
  0
LINE
  5
E00ED9FF
330
E00DEA5D
100
AcDbEntity
  8
JISSEN
100
AcDbLine
 10
265.7543938842197
 20
178.9916686074427
 30
0.0
 11
265.9254038011192
 21
178.4916685255427
 31
0.0
  0
LINE
  5
E00EDA00
330
E00DEA5D
100
AcDbEntity
  8
JISSEN
100
AcDbLine
 10
269.5557059489681
 20
164.4953402982953
 30
0.0
 11
252.7795879223256
 21
164.4953402982953
 31
0.0
  0
LINE
  5
E00EDA01
330
E00DEA5D
100
AcDbEntity
  8
JISSEN
100
AcDbLine
 10
251.3057050530176
 20
141.6916682125936
 30
0.0
 11
271.0557059620175
 21
141.6916682125936
 31
0.0
  0
LINE
  5
E00EDA02
330
E00DEA5D
100
AcDbEntity
  8
JISSEN
100
AcDbLine
 10
251.3627504233688
 20
144.6916687043446
 30
0.0
 11
269.5557059489681
 21
144.6916687043446
 31
0.0
  0
LINE
  5
E00EDA03
330
E00DEA5D
100
AcDbEntity
  8
JISSEN
100
AcDbLine
 10
253.8057063941694
 20
144.6916687043446
 30
0.0
 11
253.8057063941694
 21
164.4927752030941
 31
0.0
  0
ARC
  5
E00EDA04
330
E00DEA5D
100
AcDbEntity
  8
JISSEN
100
AcDbCircle
 10
234.8057059620175
 20
152.4916685851437
 30
0.0
 40
15.0
100
AcDbArc
 50
0.0
 51
65.58138155571239
  0
LINE
  5
E00EDA05
330
E00DEA5D
100
AcDbEntity
  8
JISSEN
100
AcDbLine
 10
264.1779836789185
 20
164.4953402982955
 30
0.0
 11
264.177983678918
 21
155.5388252615919
 31
0.0
  0
LINE
  5
E00EDA06
330
E00DEA5D
100
AcDbEntity
  8
JISSEN
100
AcDbLine
 10
262.7779836789184
 20
155.5388252615919
 30
0.0
 11
262.7779836789188
 21
164.4953402982955
 31
0.0
  0
LINE
  5
E00EDA07
330
E00DEA5D
100
AcDbEntity
  8
JISSEN
100
AcDbLine
 10
249.8057057385183
 20
143.1916685851226
 30
0.0
 11
249.8057057385183
 21
152.4916689203944
 31
0.0
  0
ARC
  5
E00EDA08
330
E00DEA5D
100
AcDbEntity
  8
JISSEN
100
AcDbCircle
 10
251.3057059620175
 20
143.1916685851444
 30
0.0
 40
1.5
100
AcDbArc
 50
180.0
 51
270.0
  0
SPLINE
  5
E00EDA09
330
E00DEA5D
100
AcDbEntity
  8
JISSEN
100
AcDbSpline
210
0.0
220
0.0
230
1.0
 70
     8
 71
     3
 72
    16
 73
    12
 74
     0
 42
0.0000000001
 43
0.0000000001
 40
0.0
 40
0.0
 40
0.0
 40
0.0
 40
0.249999999999999
 40
0.249999999999999
 40
0.3749999999999985
 40
0.3749999999999985
 40
0.4999999999999981
 40
0.4999999999999981
 40
0.7499999999999991
 40
0.7499999999999991
 40
1.0
 40
1.0
 40
1.0
 40
1.0
 10
251.3057059620121
 20
144.6905897478916
 30
0.0
 10
251.0648621292937
 20
144.6814766034783
 30
0.0
 10
250.8357661228107
 20
144.6142418806901
 30
0.0
 10
250.5449649422178
 20
144.4639173481116
 30
0.0
 10
250.4560878095233
 20
144.4054037546063
 30
0.0
 10
250.2984822603418
 20
144.2797938884975
 30
0.0
 10
250.2284507641022
 20
144.2119463778124
 30
0.0
 10
250.0418960982949
 20
143.996017761319
 30
0.0
 10
249.9539640855743
 20
143.8429971790553
 30
0.0
 10
249.83488155597
 20
143.5222157609293
 30
0.0
 10
249.8057059620121
 20
143.3559864965443
 30
0.0
 10
249.8057059620121
 20
143.1916685851226
 30
0.0
  0
SPLINE
  5
E00EDA0A
330
E00DEA5D
100
AcDbEntity
  8
JISSEN
100
AcDbSpline
210
0.0
220
0.0
230
1.0
 70
     8
 71
     3
 72
     9
 73
     5
 74
     0
 42
0.0000000001
 43
0.0000000001
 40
0.0
 40
0.0
 40
0.0
 40
0.0
 40
0.5
 40
1.0
 40
1.0
 40
1.0
 40
1.0
 10
251.3627503687037
 20
144.6916685851226
 30
0.0
 10
251.353262352927
 20
144.6916685851226
 30
0.0
 10
251.3342670240942
 20
144.6914895957104
 30
0.0
 10
251.3152328422036
 20
144.6909502297619
 30
0.0
 10
251.3057059620121
 20
144.6905897478916
 30
0.0
  0
LINE
  5
E00EDA0B
330
E00DEA5D
100
AcDbEntity
  8
JISSEN
100
AcDbLine
 10
262.3689540603743
 20
155.5424969747434
 30
0.0
 11
262.0188525351229
 21
155.5424969747434
 31
0.0
  0
LINE
  5
E00EDA0C
330
E00DEA5D
100
AcDbEntity
  8
JISSEN
100
AcDbLine
 10
262.3689540603743
 20
154.3424969747445
 30
0.0
 11
262.0188525351229
 21
154.3424969747445
 31
0.0
  0
LINE
  5
E00EDA0D
330
E00DEA5D
100
AcDbEntity
  8
JISSEN
100
AcDbLine
 10
265.3971179740226
 20
153.6424969747438
 30
0.0
 11
262.0188525351229
 21
153.6424969747438
 31
0.0
  0
LINE
  5
E00EDA0E
330
E00DEA5D
100
AcDbEntity
  8
JISSEN
100
AcDbLine
 10
260.5188525351229
 20
155.5424969747434
 30
0.0
 11
259.6912878071241
 21
155.5424969747434
 31
0.0
  0
LINE
  5
E00EDA0F
330
E00DEA5D
100
AcDbEntity
  8
JISSEN
100
AcDbLine
 10
260.5188525351229
 20
154.3424969747445
 30
0.0
 11
259.6912878071241
 21
154.3424969747445
 31
0.0
  0
LINE
  5
E00EDA10
330
E00DEA5D
100
AcDbEntity
  8
JISSEN
100
AcDbLine
 10
259.6912878071241
 20
155.5424969747434
 30
0.0
 11
259.6912878071241
 21
154.3424969747445
 31
0.0
  0
LINE
  5
E00EDA11
330
E00DEA5D
100
AcDbEntity
  8
JISSEN
100
AcDbLine
 10
262.0188525351229
 20
155.5424969747434
 30
0.0
 11
260.5188525351229
 21
155.5424969747434
 31
0.0
  0
LINE
  5
E00EDA12
330
E00DEA5D
100
AcDbEntity
  8
JISSEN
100
AcDbLine
 10
260.5188525351229
 20
154.8424969747445
 30
0.0
 11
262.0188525351229
 21
154.8424969747445
 31
0.0
  0
LINE
  5
E00EDA13
330
E00DEA5D
100
AcDbEntity
  8
JISSEN
100
AcDbLine
 10
262.0188525351229
 20
155.5424969747434
 30
0.0
 11
262.0188525351229
 21
154.8424969747445
 31
0.0
  0
LINE
  5
E00EDA14
330
E00DEA5D
100
AcDbEntity
  8
JISSEN
100
AcDbLine
 10
260.5188525351229
 20
155.5424969747434
 30
0.0
 11
260.5188525351229
 21
154.8424969747445
 31
0.0
  0
LINE
  5
E00EDA15
330
E00DEA5D
100
AcDbEntity
  8
JISSEN
100
AcDbLine
 10
262.0188525351229
 20
153.6424969747438
 30
0.0
 11
260.5188525351229
 21
153.6424969747438
 31
0.0
  0
LINE
  5
E00EDA16
330
E00DEA5D
100
AcDbEntity
  8
JISSEN
100
AcDbLine
 10
260.5188525351229
 20
153.6424969747438
 30
0.0
 11
260.5188525351229
 21
154.3424969747445
 31
0.0
  0
LINE
  5
E00EDA17
330
E00DEA5D
100
AcDbEntity
  8
JISSEN
100
AcDbLine
 10
262.0188525351229
 20
153.6424969747438
 30
0.0
 11
262.0188525351229
 21
154.3424969747445
 31
0.0
  0
LINE
  5
E00EDA18
330
E00DEA5D
100
AcDbEntity
  8
JISSEN
100
AcDbLine
 10
265.4807059620231
 20
157.4424969747667
 30
0.0
 11
265.4807059620231
 21
156.9424969747649
 31
0.0
  0
LINE
  5
E00EDA19
330
E00DEA5D
100
AcDbEntity
  8
JISSEN
100
AcDbLine
 10
262.3689540603743
 20
155.5424969747434
 30
0.0
 11
263.5277318361229
 21
155.5424969747434
 31
0.0
  0
LINE
  5
E00EDA1A
330
E00DEA5D
100
AcDbEntity
  8
JISSEN
100
AcDbLine
 10
262.3689540603743
 20
154.3424969747445
 30
0.0
 11
263.5277318361229
 21
154.3424969747445
 31
0.0
  0
LINE
  5
E00EDA1B
330
E00DEA5D
100
AcDbEntity
  8
JISSEN
100
AcDbLine
 10
263.5277318361229
 20
155.5424969747434
 30
0.0
 11
263.5277318361229
 21
154.3424969747445
 31
0.0
  0
LINE
  5
E00EDA1C
330
E00DEA5D
100
AcDbEntity
  8
JISSEN
100
AcDbLine
 10
262.3689540603743
 20
154.3424969747445
 30
0.0
 11
262.3689540603743
 21
155.5424969747434
 31
0.0
  0
ARC
  5
E00EDA1D
330
E00DEA5D
100
AcDbEntity
  8
JISSEN
100
AcDbCircle
 10
252.8057059620175
 20
167.3818845519433
 30
0.0
 40
0.999999999999998
100
AcDbArc
 50
102.0000000000151
 51
173.6971338164191
  0
LINE
  5
E00EDA1E
330
E00DEA5D
100
AcDbEntity
  8
SUNPOU
100
AcDbLine
 10
246.0557059620175
 20
177.4916685851437
 30
0.0
 11
246.0557059620175
 21
167.4916685851437
 31
0.0
  0
ARC
  5
E00EDA1F
330
E00DEA5D
100
AcDbEntity
  8
JISSEN
100
AcDbCircle
 10
253.5557059620175
 20
169.5859831628438
 30
0.0
 40
1.000000000000007
100
AcDbArc
 50
282.0000000000152
 51
0.0
  0
LINE
  5
E00EDA20
330
E00DEA5D
100
AcDbEntity
  8
JISSEN
100
AcDbLine
 10
253.7636180644174
 20
168.6078355241422
 30
0.0
 11
252.59779405342
 21
168.3600321238425
 31
0.0
  0
LINE
  5
E00EDA21
330
E00DEA5D
100
AcDbEntity
  8
JISSEN
100
AcDbLine
 10
259.34456114222
 20
172.4916684733432
 30
0.0
 11
257.0757373472176
 21
172.4916684733432
 31
0.0
  0
LINE
  5
E00EDA22
330
E00DEA5D
100
AcDbEntity
  8
JISSEN
100
AcDbLine
 10
256.2835897555185
 20
177.2388253059932
 30
0.0
 11
260.44971041872
 21
177.2388253059716
 31
0.0
  0
LINE
  5
E00EDA23
330
E00DEA5D
100
AcDbEntity
  8
JISSEN
100
AcDbLine
 10
256.2835897555185
 20
177.238825305993
 30
0.0
 11
260.44971041872
 21
177.2388253059718
 31
0.0
  0
SPLINE
  5
E00EDA24
330
E00DEA5D
100
AcDbEntity
  8
JISSEN
100
AcDbSpline
210
0.0
220
0.0
230
1.0
 70
     8
 71
     3
 72
    18
 73
    14
 74
     0
 42
0.0000000001
 43
0.0000000001
 40
0.0
 40
0.0
 40
0.0
 40
0.0
 40
0.1250000000000001
 40
0.1250000000000001
 40
0.2500000000000002
 40
0.2500000000000002
 40
0.3750000000000002
 40
0.3750000000000002
 40
0.5000000000000004
 40
0.5000000000000004
 40
0.7500000000000001
 40
0.7500000000000001
 40
1.0
 40
1.0
 40
1.0
 40
1.0
 10
256.2835896668727
 20
173.9916685851001
 30
0.0
 10
256.2835896668727
 20
173.8925278037365
 30
0.0
 10
256.2852708235993
 20
173.7950442898416
 30
0.0
 10
256.2919646689049
 20
173.6032563438891
 30
0.0
 10
256.2970603138189
 20
173.5079575560009
 30
0.0
 10
256.3107111184451
 20
173.3262424346046
 30
0.0
 10
256.3191975837614
 20
173.2400602311934
 30
0.0
 10
256.3399219114133
 20
173.0769657047546
 30
0.0
 10
256.352282777432
 20
172.9997561751877
 30
0.0
 10
256.3943493562971
 20
172.7922224633237
 30
0.0
 10
256.4302576231382
 20
172.6805550430396
 30
0.0
 10
256.5148358452359
 20
172.5311803206857
 30
0.0
 10
256.5643234292317
 20
172.4916685851001
 30
0.0
 10
256.6181080953708
 20
172.4916685851001
 30
0.0
  0
SPLINE
  5
E00EDA25
330
E00DEA5D
100
AcDbEntity
  8
JISSEN
100
AcDbSpline
210
0.0
220
0.0
230
1.0
 70
     8
 71
     3
 72
    18
 73
    14
 74
     0
 42
0.0000000001
 43
0.0000000001
 40
0.0
 40
0.0
 40
0.0
 40
0.0
 40
0.1249999999999998
 40
0.1249999999999998
 40
0.2499999999999997
 40
0.2499999999999997
 40
0.3749999999999995
 40
0.3749999999999995
 40
0.4999999999999993
 40
0.4999999999999993
 40
0.7499999999999997
 40
0.7499999999999997
 40
1.0
 40
1.0
 40
1.0
 40
1.0
 10
255.134135594633
 20
172.4916685851001
 30
0.0
 10
255.1081211657081
 20
172.4916685851001
 30
0.0
 10
255.0834001475011
 20
172.5013175037872
 30
0.0
 10
255.036349062673
 20
172.5392133986367
 30
0.0
 10
255.0137958705979
 20
172.5679224243428
 30
0.0
 10
254.9722170133788
 20
172.6429580446817
 30
0.0
 10
254.953222548416
 20
172.6889073193649
 30
0.0
 10
254.9183834187149
 20
172.797550525958
 30
0.0
 10
254.9024912096799
 20
172.8608204251156
 30
0.0
 10
254.8609420855698
 20
173.0682111321236
 30
0.0
 10
254.8402604937607
 20
173.2354866243165
 30
0.0
 10
254.8131808559107
 20
173.5964272934322
 30
0.0
 10
254.8063780373547
 20
173.7934233096564
 30
0.0
 10
254.8063780373547
 20
173.9916685851001
 30
0.0
  0
LINE
  5
E00EDA26
330
E00DEA5D
100
AcDbEntity
  8
JISSEN
100
AcDbLine
 10
254.555706051419
 20
178.9916686074427
 30
0.0
 11
254.555706051419
 21
169.5859832515432
 31
0.0
  0
LINE
  5
E00EDA27
330
E00DEA5D
100
AcDbEntity
  8
JISSEN
100
AcDbLine
 10
256.4757374351199
 20
172.4916684733432
 30
0.0
 11
255.1341356014188
 21
172.4916684733432
 31
0.0
  0
LINE
  5
E00EDA28
330
E00DEA5D
100
AcDbEntity
  8
JISSEN
100
AcDbLine
 10
256.4757374351199
 20
172.4916684733432
 30
0.0
 11
257.0757373472176
 21
172.4916684733432
 31
0.0
  0
LINE
  5
E00EDA29
330
E00DEA5D
100
AcDbEntity
  8
JISSEN
100
AcDbLine
 10
256.4718743090186
 20
169.4916686801423
 30
0.0
 11
257.0718742211199
 21
169.4916686801423
 31
0.0
  0
SPLINE
  5
E00EDA2A
330
E00DEA5D
100
AcDbEntity
  8
JISSEN
100
AcDbSpline
210
0.0
220
0.0
230
1.0
 70
     8
 71
     3
 72
     8
 73
     4
 74
     0
 42
0.0000000001
 43
0.0000000001
 40
0.0
 40
0.0
 40
0.0
 40
0.0
 40
0.000094419996181
 40
0.000094419996181
 40
0.000094419996181
 40
0.000094419996181
 10
256.4757374746957
 20
169.5859831628874
 30
0.0
 10
256.4757374746957
 20
169.5545098308282
 30
0.0
 10
256.4744469548529
 20
169.523001438645
 30
0.0
 10
256.4718745649522
 20
169.4916685851001
 30
0.0
  0
LINE
  5
E00EDA2B
330
E00DEA5D
100
AcDbEntity
  8
JISSEN
100
AcDbLine
 10
256.4757374351199
 20
172.4916684733432
 30
0.0
 11
256.4757374351199
 21
169.5859832515432
 31
0.0
  0
SPLINE
  5
E00EDA2C
330
E00DEA5D
100
AcDbEntity
  8
JISSEN
100
AcDbSpline
210
0.0
220
0.0
230
1.0
 70
     8
 71
     3
 72
     8
 73
     4
 74
     0
 42
0.0000000001
 43
0.0000000001
 40
0.0
 40
0.0
 40
0.0
 40
0.0
 40
0.000094419996181
 40
0.000094419996181
 40
0.000094419996181
 40
0.000094419996181
 10
257.0718745649517
 20
169.4916685851001
 30
0.0
 10
257.0744469548524
 20
169.523001438645
 30
0.0
 10
257.075737474696
 20
169.5545098308282
 30
0.0
 10
257.075737474696
 20
169.5859831628874
 30
0.0
  0
LINE
  5
E00EDA2D
330
E00DEA5D
100
AcDbEntity
  8
JISSEN
100
AcDbLine
 10
257.0757373472176
 20
169.5859832515432
 30
0.0
 11
257.0757373472176
 21
172.4916684733432
 31
0.0
  0
LINE
  5
E00EDA2E
330
E00DEA5D
100
AcDbEntity
  8
JISSEN
100
AcDbLine
 10
254.8063771103177
 20
178.9916686074427
 30
0.0
 11
255.7911855404188
 21
178.9916686074427
 31
0.0
  0
LINE
  5
E00EDA2F
330
E00DEA5D
100
AcDbEntity
  8
JISSEN
100
AcDbLine
 10
254.555706051419
 20
178.9916686074427
 30
0.0
 11
254.8063771103177
 21
178.9916686074427
 31
0.0
  0
LINE
  5
E00EDA30
330
E00DEA5D
100
AcDbEntity
  8
JISSEN
100
AcDbLine
 10
254.8063771103177
 20
173.9916687192433
 30
0.0
 11
254.8063771103177
 21
178.9916686074427
 31
0.0
  0
LINE
  5
E00EDA31
330
E00DEA5D
100
AcDbEntity
  8
JISSEN
100
AcDbLine
 10
256.2835897555185
 20
178.4916685255427
 30
0.0
 11
256.2835897555186
 21
173.9904212923461
 31
0.0
  0
LINE
  5
E00EDA32
330
E00DEA5D
100
AcDbEntity
  8
JISSEN
100
AcDbLine
 10
255.7911855404188
 20
178.9916686074427
 30
0.0
 11
256.2835897555185
 21
178.4916685255427
 31
0.0
  0
SPLINE
  5
E00EDA33
330
E00DEA5D
100
AcDbEntity
  8
JISSEN
100
AcDbSpline
210
0.0
220
0.0
230
1.0
 70
     8
 71
     3
 72
    18
 73
    14
 74
     0
 42
0.0000000001
 43
0.0000000001
 40
0.0
 40
0.0
 40
0.0
 40
0.0
 40
0.1249999999999998
 40
0.1249999999999998
 40
0.2499999999999995
 40
0.2499999999999995
 40
0.3749999999999992
 40
0.3749999999999992
 40
0.499999999999999
 40
0.499999999999999
 40
0.7499999999999995
 40
0.7499999999999995
 40
1.0
 40
1.0
 40
1.0
 40
1.0
 10
260.4497104022282
 20
173.9916685851001
 30
0.0
 10
260.4497104022282
 20
173.8925452451728
 30
0.0
 10
260.4422524595718
 20
173.7950786223152
 30
0.0
 10
260.4130937965935
 20
173.6033233799933
 30
0.0
 10
260.3910398456762
 20
173.5080410512343
 30
0.0
 10
260.3336714351678
 20
173.3263509230143
 30
0.0
 10
260.2986444651612
 20
173.2401795636449
 30
0.0
 10
260.2162919956606
 20
173.0771026793843
 30
0.0
 10
260.1685371409701
 20
172.9998976923177
 30
0.0
 10
260.0130267303072
 20
172.7923623973799
 30
0.0
 10
259.8888773818005
 20
172.6806751879428
 30
0.0
 10
259.6256624529175
 20
172.5312309873167
 30
0.0
 10
259.4842114931314
 20
172.4916685851001
 30
0.0
 10
259.3445610920732
 20
172.4916685851001
 30
0.0
  0
LINE
  5
E00EDA34
330
E00DEA5D
100
AcDbEntity
  8
JISSEN
100
AcDbLine
 10
260.44971041872
 20
178.9916686074427
 30
0.0
 11
265.4123735850177
 21
178.9916686074427
 31
0.0
  0
LINE
  5
E00EDA35
330
E00DEA5D
100
AcDbEntity
  8
JISSEN
100
AcDbLine
 10
260.44971041872
 20
178.9916686074427
 30
0.0
 11
260.44971041872
 21
173.9916687192433
 31
0.0
  0
LINE
  5
E00EDA36
330
E00DEA5D
100
AcDbEntity
  8
JISSEN
100
AcDbLine
 10
265.4123735850177
 20
178.9916686074427
 30
0.0
 11
265.7543938842197
 21
178.9916686074427
 31
0.0
  0
LINE
  5
E00EDA37
330
E00DEA5D
100
AcDbEntity
  8
JISSEN
100
AcDbLine
 10
265.4123735850177
 20
173.9916687192433
 30
0.0
 11
265.4123735850177
 21
178.9916686074427
 31
0.0
  0
LINE
  5
E00EDA38
330
E00DEA5D
100
AcDbEntity
  8
JISSEN
100
AcDbLine
 10
288.3057055298656
 20
144.6916687043446
 30
0.0
 11
288.3057055298656
 21
164.4927752030941
 31
0.0
  0
LINE
  5
E00EDA39
330
E00DEA5D
100
AcDbEntity
  8
JISSEN
100
AcDbLine
 10
272.5557059750669
 20
152.4916689203944
 30
0.0
 11
272.5557059750669
 21
164.4953402982953
 31
0.0
  0
LINE
  5
E00EDA3A
330
E00DEA5D
100
AcDbEntity
  8
JISSEN
100
AcDbLine
 10
269.5557059489681
 20
152.4916689203944
 30
0.0
 11
269.5557059489681
 21
164.4953402982953
 31
0.0
  0
LINE
  5
E00EDA3B
330
E00DEA5D
100
AcDbEntity
  8
JISSEN
100
AcDbLine
 10
279.1057059620168
 20
155.5388252615919
 30
0.0
 11
279.1057059620172
 21
164.4953402982955
 31
0.0
  0
LINE
  5
E00EDA3C
330
E00DEA5D
100
AcDbEntity
  8
JISSEN
100
AcDbLine
 10
280.5057059620187
 20
164.4953402982955
 30
0.0
 11
280.5057059620182
 21
155.5388252615919
 31
0.0
  0
LINE
  5
E00EDA3D
330
E00DEA5D
100
AcDbEntity
  8
JISSEN
100
AcDbLine
 10
278.4557059620244
 20
153.6424969747438
 30
0.0
 11
282.3565908831231
 21
153.6424969747438
 31
0.0
  0
LINE
  5
E00EDA3E
330
E00DEA5D
100
AcDbEntity
  8
JISSEN
100
AcDbLine
 10
281.8183494872726
 20
155.5424969747434
 30
0.0
 11
279.7279592066741
 21
155.5424969747434
 31
0.0
  0
LINE
  5
E00EDA3F
330
E00DEA5D
100
AcDbEntity
  8
JISSEN
100
AcDbLine
 10
281.8183494872726
 20
154.3424969747445
 30
0.0
 11
279.7279592066741
 21
154.3424969747445
 31
0.0
  0
LINE
  5
E00EDA40
330
E00DEA5D
100
AcDbEntity
  8
JISSEN
100
AcDbLine
 10
290.7486615006662
 20
144.6916687043446
 30
0.0
 11
272.5557059750669
 21
144.6916687043446
 31
0.0
  0
LINE
  5
E00EDA41
330
E00DEA5D
100
AcDbEntity
  8
JISSEN
100
AcDbLine
 10
290.8057068710174
 20
141.6916682125936
 30
0.0
 11
271.0557059620175
 21
141.6916682125936
 31
0.0
  0
LINE
  5
E00EDA42
330
E00DEA5D
100
AcDbEntity
  8
JISSEN
100
AcDbLine
 10
272.5557059750669
 20
144.6916687043446
 30
0.0
 11
272.5557059750669
 21
152.4916689203944
 31
0.0
  0
LINE
  5
E00EDA43
330
E00DEA5D
100
AcDbEntity
  8
JISSEN
100
AcDbLine
 10
269.5557059489681
 20
144.6916687043446
 30
0.0
 11
269.5557059489681
 21
152.4916689203944
 31
0.0
  0
SPLINE
  5
E00EDA44
330
E00DEA5D
100
AcDbEntity
  8
JISSEN
100
AcDbSpline
210
0.0
220
0.0
230
1.0
 70
     8
 71
     3
 72
    16
 73
    12
 74
     0
 42
0.0000000001
 43
0.0000000001
 40
0.0
 40
0.0
 40
0.0
 40
0.0
 40
0.2500000000000009
 40
0.2500000000000009
 40
0.3750000000000013
 40
0.3750000000000013
 40
0.5000000000000018
 40
0.5000000000000018
 40
0.7500000000000009
 40
0.7500000000000009
 40
1.0
 40
1.0
 40
1.0
 40
1.0
 10
269.555705962012
 20
144.6905897478916
 30
0.0
 10
269.555705962012
 20
144.6814766034783
 30
0.0
 10
269.6149095670751
 20
144.6142418806901
 30
0.0
 10
269.7584174332585
 20
144.4639173481116
 30
0.0
 10
269.8154579271875
 20
144.4054037546063
 30
0.0
 10
269.939656407683
 20
144.2797938884975
 30
0.0
 10
270.007534364933
 20
144.2119463778124
 30
0.0
 10
270.2254322350051
 20
143.996017761319
 30
0.0
 10
270.3821500940518
 20
143.8429971790553
 30
0.0
 10
270.712836928167
 20
143.5222157609293
 30
0.0
 10
270.8852623564587
 20
143.3559864965443
 30
0.0
 10
271.055705962012
 20
143.1916685851226
 30
0.0
  0
SPLINE
  5
E00EDA45
330
E00DEA5D
100
AcDbEntity
  8
JISSEN
100
AcDbSpline
210
0.0
220
0.0
230
1.0
 70
     8
 71
     3
 72
    16
 73
    12
 74
     0
 42
0.0000000001
 43
0.0000000001
 40
0.0
 40
0.0
 40
0.0
 40
0.0
 40
0.2500000000000009
 40
0.2500000000000009
 40
0.3750000000000013
 40
0.3750000000000013
 40
0.5000000000000018
 40
0.5000000000000018
 40
0.7500000000000009
 40
0.7500000000000009
 40
1.0
 40
1.0
 40
1.0
 40
1.0
 10
272.555705962023
 20
144.6905897478916
 30
0.0
 10
272.555705962023
 20
144.6814766034783
 30
0.0
 10
272.49650235696
 20
144.6142418806901
 30
0.0
 10
272.3529944907766
 20
144.4639173481116
 30
0.0
 10
272.2959539968476
 20
144.4054037546063
 30
0.0
 10
272.171755516352
 20
144.2797938884975
 30
0.0
 10
272.1038775591021
 20
144.2119463778124
 30
0.0
 10
271.8859796890299
 20
143.996017761319
 30
0.0
 10
271.7292618299832
 20
143.8429971790553
 30
0.0
 10
271.3985749958681
 20
143.5222157609293
 30
0.0
 10
271.2261495675763
 20
143.3559864965443
 30
0.0
 10
271.055705962023
 20
143.1916685851226
 30
0.0
  0
LINE
  5
E00EDA46
330
E00DEA5D
100
AcDbEntity
  8
JISSEN
100
AcDbLine
 10
275.3557059620927
 20
153.1424969747201
 30
0.0
 11
272.5557059750669
 21
153.1424969747415
 31
0.0
  0
LINE
  5
E00EDA47
330
E00DEA5D
100
AcDbEntity
  8
JISSEN
100
AcDbLine
 10
272.5557059750669
 20
154.3424969747331
 30
0.0
 11
273.1277005733738
 21
154.3424969747286
 31
0.0
  0
LINE
  5
E00EDA48
330
E00DEA5D
100
AcDbEntity
  8
JISSEN
100
AcDbLine
 10
272.5557059750669
 20
154.2924969747321
 30
0.0
 11
275.8557059620741
 21
154.2924969747068
 31
0.0
  0
LINE
  5
E00EDA49
330
E00DEA5D
100
AcDbEntity
  8
JISSEN
100
AcDbLine
 10
273.1277005733725
 20
155.5424969747434
 30
0.0
 11
272.5557059750669
 21
155.5424969747434
 31
0.0
  0
LINE
  5
E00EDA4A
330
E00DEA5D
100
AcDbEntity
  8
JISSEN
100
AcDbLine
 10
276.6307059620755
 20
157.4424969747649
 30
0.0
 11
272.5557059750669
 21
157.442496974769
 31
0.0
  0
LINE
  5
E00EDA4B
330
E00DEA5D
100
AcDbEntity
  8
JISSEN
100
AcDbLine
 10
272.5557059750669
 20
156.9424969747467
 30
0.0
 11
277.8057059620748
 21
156.9424969747467
 31
0.0
  0
LINE
  5
E00EDA4C
330
E00DEA5D
100
AcDbEntity
  8
JISSEN
100
AcDbLine
 10
269.5557059489681
 20
154.3424969747445
 30
0.0
 11
268.9837113507253
 21
154.3424969747445
 31
0.0
  0
LINE
  5
E00EDA4D
330
E00DEA5D
100
AcDbEntity
  8
JISSEN
100
AcDbLine
 10
269.5557059489681
 20
154.2924969747434
 30
0.0
 11
266.2557059620246
 21
154.2924969747434
 31
0.0
  0
LINE
  5
E00EDA4E
330
E00DEA5D
100
AcDbEntity
  8
JISSEN
100
AcDbLine
 10
269.5557059489681
 20
155.5424969747434
 30
0.0
 11
268.9837113507244
 21
155.5424969747434
 31
0.0
  0
LINE
  5
E00EDA4F
330
E00DEA5D
100
AcDbEntity
  8
JISSEN
100
AcDbLine
 10
266.7557059619973
 20
153.1424969747529
 30
0.0
 11
269.5557059489682
 21
153.1424969747529
 31
0.0
  0
LINE
  5
E00EDA50
330
E00DEA5D
100
AcDbEntity
  8
JISSEN
100
AcDbLine
 10
266.7557059619973
 20
153.1424969747529
 30
0.0
 11
266.2557059619973
 21
153.6424969747529
 31
0.0
  0
LINE
  5
E00EDA51
330
E00DEA5D
100
AcDbEntity
  8
JISSEN
100
AcDbLine
 10
266.4057059620243
 20
154.2924969747434
 30
0.0
 11
266.4057059620243
 21
154.3424969747445
 31
0.0
  0
LINE
  5
E00EDA52
330
E00DEA5D
100
AcDbEntity
  8
JISSEN
100
AcDbLine
 10
266.2557059619982
 20
154.2924969747453
 30
0.0
 11
266.2557059619973
 21
153.6424969747529
 31
0.0
  0
LINE
  5
E00EDA53
330
E00DEA5D
100
AcDbEntity
  8
JISSEN
100
AcDbLine
 10
268.0122927395229
 20
155.5424969747434
 30
0.0
 11
268.9837113507244
 21
155.5424969747434
 31
0.0
  0
LINE
  5
E00EDA54
330
E00DEA5D
100
AcDbEntity
  8
JISSEN
100
AcDbLine
 10
267.2450448633724
 20
155.5424969747434
 30
0.0
 11
268.0122927395229
 21
155.5424969747434
 31
0.0
  0
LINE
  5
E00EDA55
330
E00DEA5D
100
AcDbEntity
  8
JISSEN
100
AcDbLine
 10
268.9837113507244
 20
155.5424969747434
 30
0.0
 11
268.9837113507244
 21
154.3424969747445
 31
0.0
  0
LINE
  5
E00EDA56
330
E00DEA5D
100
AcDbEntity
  8
JISSEN
100
AcDbLine
 10
267.2450448633724
 20
154.3424969747445
 30
0.0
 11
267.2450448633724
 21
155.5424969747434
 31
0.0
  0
LINE
  5
E00EDA57
330
E00DEA5D
100
AcDbEntity
  8
JISSEN
100
AcDbLine
 10
267.2450448633733
 20
154.3424969747445
 30
0.0
 11
268.0122927395239
 21
154.3424969747445
 31
0.0
  0
LINE
  5
E00EDA58
330
E00DEA5D
100
AcDbEntity
  8
JISSEN
100
AcDbLine
 10
268.0122927395239
 20
154.3424969747445
 30
0.0
 11
268.9837113507253
 21
154.3424969747445
 31
0.0
  0
LINE
  5
E00EDA59
330
E00DEA5D
100
AcDbEntity
  8
JISSEN
100
AcDbLine
 10
278.4551670005737
 20
155.5424969747434
 30
0.0
 11
274.8663670607245
 21
155.5424969747434
 31
0.0
  0
LINE
  5
E00EDA5A
330
E00DEA5D
100
AcDbEntity
  8
JISSEN
100
AcDbLine
 10
278.4551670005737
 20
154.3424969747445
 30
0.0
 11
274.8663670607245
 21
154.3424969747445
 31
0.0
  0
LINE
  5
E00EDA5B
330
E00DEA5D
100
AcDbEntity
  8
JISSEN
100
AcDbLine
 10
273.1277005733725
 20
155.5424969747434
 30
0.0
 11
274.0991191845721
 21
155.5424969747434
 31
0.0
  0
LINE
  5
E00EDA5C
330
E00DEA5D
100
AcDbEntity
  8
JISSEN
100
AcDbLine
 10
274.0991191845721
 20
155.5424969747434
 30
0.0
 11
274.8663670607245
 21
155.5424969747434
 31
0.0
  0
LINE
  5
E00EDA5D
330
E00DEA5D
100
AcDbEntity
  8
JISSEN
100
AcDbLine
 10
273.1277005733725
 20
154.3424969747445
 30
0.0
 11
273.1277005733725
 21
155.5424969747434
 31
0.0
  0
LINE
  5
E00EDA5E
330
E00DEA5D
100
AcDbEntity
  8
JISSEN
100
AcDbLine
 10
274.8663670607245
 20
155.5424969747434
 30
0.0
 11
274.8663670607245
 21
154.3424969747445
 31
0.0
  0
LINE
  5
E00EDA5F
330
E00DEA5D
100
AcDbEntity
  8
JISSEN
100
AcDbLine
 10
274.0991191845753
 20
154.3424969747213
 30
0.0
 11
273.1277005733738
 21
154.3424969747286
 31
0.0
  0
LINE
  5
E00EDA60
330
E00DEA5D
100
AcDbEntity
  8
JISSEN
100
AcDbLine
 10
274.8663670607259
 20
154.3424969747154
 30
0.0
 11
274.0991191845753
 21
154.3424969747213
 31
0.0
  0
LINE
  5
E00EDA61
330
E00DEA5D
100
AcDbEntity
  8
JISSEN
100
AcDbLine
 10
275.7057059620744
 20
154.292496974708
 30
0.0
 11
275.7057059620749
 21
154.342496974709
 31
0.0
  0
LINE
  5
E00EDA62
330
E00DEA5D
100
AcDbEntity
  8
JISSEN
100
AcDbLine
 10
275.3557059620927
 20
153.1424969747201
 30
0.0
 11
275.8557059620964
 21
153.6424969747163
 31
0.0
  0
LINE
  5
E00EDA63
330
E00DEA5D
100
AcDbEntity
  8
JISSEN
100
AcDbLine
 10
275.8557059621005
 20
154.2924969747086
 30
0.0
 11
275.8557059620964
 21
153.6424969747163
 31
0.0
  0
LINE
  5
E00EDA64
330
E00DEA5D
100
AcDbEntity
  8
JISSEN
100
AcDbLine
 10
278.4551670005737
 20
155.5424969747434
 30
0.0
 11
279.7279592066741
 21
155.5424969747434
 31
0.0
  0
LINE
  5
E00EDA65
330
E00DEA5D
100
AcDbEntity
  8
JISSEN
100
AcDbLine
 10
278.4551670005737
 20
154.3424969747445
 30
0.0
 11
279.7279592066741
 21
154.3424969747445
 31
0.0
  0
LINE
  5
E00EDA66
330
E00DEA5D
100
AcDbEntity
  8
JISSEN
100
AcDbLine
 10
278.4551670005737
 20
154.3424969747445
 30
0.0
 11
278.4551670005737
 21
155.5424969747434
 31
0.0
  0
LINE
  5
E00EDA67
330
E00DEA5D
100
AcDbEntity
  8
JISSEN
100
AcDbLine
 10
277.4560023573237
 20
154.3424969747445
 30
0.0
 11
278.4557059620244
 21
153.6424969747438
 31
0.0
  0
LINE
  5
E00EDA68
330
E00DEA5D
100
AcDbEntity
  8
JISSEN
100
AcDbLine
 10
279.7279592066741
 20
155.5424969747434
 30
0.0
 11
279.7279592066741
 21
154.3424969747445
 31
0.0
  0
LINE
  5
E00EDA69
330
E00DEA5D
100
AcDbEntity
  8
JISSEN
100
AcDbLine
 10
276.6307059620755
 20
157.4424969747667
 30
0.0
 11
276.6307059620755
 21
156.9424969747649
 31
0.0
  0
LINE
  5
E00EDA6A
330
E00DEA5D
100
AcDbEntity
  8
JISSEN
100
AcDbLine
 10
292.3057061855167
 20
143.1916685851226
 30
0.0
 11
292.3057061855167
 21
152.4916689203944
 31
0.0
  0
ARC
  5
E00EDA6B
330
E00DEA5D
100
AcDbEntity
  8
JISSEN
100
AcDbCircle
 10
290.8057059620175
 20
143.1916685851444
 30
0.0
 40
1.5
100
AcDbArc
 50
270.0
 51
0.0
  0
SPLINE
  5
E00EDA6C
330
E00DEA5D
100
AcDbEntity
  8
JISSEN
100
AcDbSpline
210
0.0
220
0.0
230
1.0
 70
     8
 71
     3
 72
     9
 73
     5
 74
     0
 42
0.0000000001
 43
0.0000000001
 40
0.0
 40
0.0
 40
0.0
 40
0.0
 40
0.5
 40
1.0
 40
1.0
 40
1.0
 40
1.0
 10
290.7486615553314
 20
144.6916685851226
 30
0.0
 10
290.7581495711081
 20
144.6916685851226
 30
0.0
 10
290.7771448999408
 20
144.6914895957104
 30
0.0
 10
290.7961790818315
 20
144.6909502297619
 30
0.0
 10
290.8057059620229
 20
144.6905897478916
 30
0.0
  0
SPLINE
  5
E00EDA6D
330
E00DEA5D
100
AcDbEntity
  8
JISSEN
100
AcDbSpline
210
0.0
220
0.0
230
1.0
 70
     8
 71
     3
 72
    16
 73
    12
 74
     0
 42
0.0000000001
 43
0.0000000001
 40
0.0
 40
0.0
 40
0.0
 40
0.0
 40
0.249999999999999
 40
0.249999999999999
 40
0.3749999999999985
 40
0.3749999999999985
 40
0.4999999999999981
 40
0.4999999999999981
 40
0.7499999999999991
 40
0.7499999999999991
 40
1.0
 40
1.0
 40
1.0
 40
1.0
 10
290.8057059620229
 20
144.6905897478916
 30
0.0
 10
291.0465497947413
 20
144.6814766034783
 30
0.0
 10
291.2756458012243
 20
144.6142418806901
 30
0.0
 10
291.5664469818173
 20
144.4639173481116
 30
0.0
 10
291.6553241145118
 20
144.4054037546063
 30
0.0
 10
291.8129296636932
 20
144.2797938884975
 30
0.0
 10
291.8829611599328
 20
144.2119463778124
 30
0.0
 10
292.0695158257401
 20
143.996017761319
 30
0.0
 10
292.1574478384607
 20
143.8429971790553
 30
0.0
 10
292.276530368065
 20
143.5222157609293
 30
0.0
 10
292.305705962023
 20
143.3559864965443
 30
0.0
 10
292.305705962023
 20
143.1916685851226
 30
0.0
  0
LINE
  5
E00EDA6E
330
E00DEA5D
100
AcDbEntity
  8
JISSEN
100
AcDbLine
 10
281.8183494872726
 20
155.5424969747434
 30
0.0
 11
282.2561151143734
 21
155.5424969747434
 31
0.0
  0
LINE
  5
E00EDA6F
330
E00DEA5D
100
AcDbEntity
  8
JISSEN
100
AcDbLine
 10
282.3565908831231
 20
155.5424969747434
 30
0.0
 11
282.2561151143734
 21
155.5424969747434
 31
0.0
  0
LINE
  5
E00EDA70
330
E00DEA5D
100
AcDbEntity
  8
JISSEN
100
AcDbLine
 10
281.8183494872726
 20
154.3424969747445
 30
0.0
 11
282.2561151143734
 21
154.3424969747445
 31
0.0
  0
LINE
  5
E00EDA71
330
E00DEA5D
100
AcDbEntity
  8
JISSEN
100
AcDbLine
 10
282.3565908831231
 20
154.8424969747445
 30
0.0
 11
282.4557059620244
 21
154.8424969747445
 31
0.0
  0
LINE
  5
E00EDA72
330
E00DEA5D
100
AcDbEntity
  8
JISSEN
100
AcDbLine
 10
282.3565908831231
 20
154.3424969747445
 30
0.0
 11
282.2561151143734
 21
154.3424969747445
 31
0.0
  0
LINE
  5
E00EDA73
330
E00DEA5D
100
AcDbEntity
  8
JISSEN
100
AcDbLine
 10
281.8183494872726
 20
154.3424969747445
 30
0.0
 11
281.8183494872726
 21
155.5424969747434
 31
0.0
  0
LINE
  5
E00EDA74
330
E00DEA5D
100
AcDbEntity
  8
JISSEN
100
AcDbLine
 10
282.2561151143734
 20
155.5424969747434
 30
0.0
 11
282.2561151143734
 21
154.3424969747445
 31
0.0
  0
LINE
  5
E00EDA75
330
E00DEA5D
100
AcDbEntity
  8
JISSEN
100
AcDbLine
 10
282.3565908831231
 20
155.5424969747434
 30
0.0
 11
282.3565908831231
 21
154.8424969747445
 31
0.0
  0
LINE
  5
E00EDA76
330
E00DEA5D
100
AcDbEntity
  8
JISSEN
100
AcDbLine
 10
282.4557059620244
 20
153.6424969747438
 30
0.0
 11
282.3565908831231
 21
153.6424969747438
 31
0.0
  0
LINE
  5
E00EDA77
330
E00DEA5D
100
AcDbEntity
  8
JISSEN
100
AcDbLine
 10
282.4557059620244
 20
154.8424969747445
 30
0.0
 11
282.4557059620244
 21
153.6424969747438
 31
0.0
  0
LINE
  5
E00EDA78
330
E00DEA5D
100
AcDbEntity
  8
JISSEN
100
AcDbLine
 10
282.3565908831231
 20
153.6424969747438
 30
0.0
 11
282.3565908831231
 21
154.3424969747445
 31
0.0
  0
LINE
  5
E00EDA79
330
E00DEA5D
100
AcDbEntity
  8
JISSEN
100
AcDbLine
 10
281.661701505315
 20
178.9916686074427
 30
0.0
 11
276.6990383390173
 21
178.9916686074427
 31
0.0
  0
LINE
  5
E00EDA7A
330
E00DEA5D
100
AcDbEntity
  8
JISSEN
100
AcDbLine
 10
272.5557059750669
 20
164.4953402982953
 30
0.0
 11
289.3318240017094
 21
164.4953402982953
 31
0.0
  0
LINE
  5
E00EDA7B
330
E00DEA5D
100
AcDbEntity
  8
JISSEN
100
AcDbLine
 10
273.686419224259
 20
160.9424969747485
 30
0.0
 11
272.5557059750669
 21
160.9424969747485
 31
0.0
  0
LINE
  5
E00EDA7C
330
E00DEA5D
100
AcDbEntity
  8
JISSEN
100
AcDbLine
 10
268.4249926998397
 20
160.9424969747485
 30
0.0
 11
269.5557059489681
 21
160.9424969747485
 31
0.0
  0
ARC
  5
E00EDA7D
330
E00DEA5D
100
AcDbEntity
  8
JISSEN
100
AcDbCircle
 10
268.4249926998397
 20
159.9424969747485
 30
0.0
 40
1.0
100
AcDbArc
 50
89.99999999998697
 51
171.9999999999597
  0
SPLINE
  5
E00EDA7E
330
E00DEA5D
100
AcDbEntity
  8
JISSEN
100
AcDbSpline
210
0.0
220
0.0
230
1.0
 70
     8
 71
     3
 72
     8
 73
     4
 74
     0
 42
0.0000000001
 43
0.0000000001
 40
0.0
 40
0.0
 40
0.0
 40
0.0
 40
2.236014716865069
 40
2.236014716865111
 40
2.236014716865111
 40
2.236014716865111
 10
269.5557059489681
 20
164.4953402982953
 30
0.0
 10
270.0568899891013
 20
165.3242009111843
 30
0.0
 10
270.5580740292345
 20
166.1530615240733
 30
0.0
 10
271.0557059620175
 20
166.1535808643436
 30
0.0
  0
SPLINE
  5
E00EDA7F
330
E00DEA5D
100
AcDbEntity
  8
JISSEN
100
AcDbSpline
210
0.0
220
0.0
230
1.0
 70
     8
 71
     3
 72
     8
 73
     4
 74
     0
 42
0.0000000001
 43
0.0000000001
 40
0.0
 40
0.0
 40
0.0
 40
0.0
 40
2.236014716865069
 40
2.236014716865111
 40
2.236014716865111
 40
2.236014716865111
 10
272.5557059750669
 20
164.4953402982953
 30
0.0
 10
272.0545219349337
 20
165.3242009111843
 30
0.0
 10
271.5533378948005
 20
166.1530615240733
 30
0.0
 10
271.0557059620175
 20
166.1535808643436
 30
0.0
  0
ARC
  5
E00EDA80
330
E00DEA5D
100
AcDbEntity
  8
JISSEN
100
AcDbCircle
 10
273.686419224259
 20
159.9424969747485
 30
0.0
 40
1.0
100
AcDbArc
 50
8.000000000040243
 51
90.00000000001302
  0
LINE
  5
E00EDA81
330
E00DEA5D
100
AcDbEntity
  8
JISSEN
100
AcDbLine
 10
276.1860081229158
 20
177.2388253059439
 30
0.0
 11
271.0557059620175
 21
177.2388253059177
 31
0.0
  0
LINE
  5
E00EDA82
330
E00DEA5D
100
AcDbEntity
  8
JISSEN
100
AcDbLine
 10
276.1860081229158
 20
177.2388253059441
 30
0.0
 11
265.9254038011193
 21
177.2388253058916
 31
0.0
  0
LINE
  5
E00EDA83
330
E00DEA5D
100
AcDbEntity
  8
JISSEN
100
AcDbLine
 10
271.655705990516
 20
172.4916684733432
 30
0.0
 11
275.2661315028151
 21
172.4916684733432
 31
0.0
  0
LINE
  5
E00EDA84
330
E00DEA5D
100
AcDbEntity
  8
JISSEN
370
    -2
100
AcDbLine
 10
276.1860081229158
 20
178.2417099224583
 30
0.0
 11
271.0557059620175
 21
178.2417099224583
 31
0.0
  0
SPLINE
  5
E00EDA85
330
E00DEA5D
100
AcDbEntity
  8
JISSEN
100
AcDbSpline
210
0.0
220
0.0
230
1.0
 70
     8
 71
     3
 72
    18
 73
    14
 74
     0
 42
0.0000000001
 43
0.0000000001
 40
0.0
 40
0.0
 40
0.0
 40
0.0
 40
0.1250000000000001
 40
0.1250000000000001
 40
0.2500000000000003
 40
0.2500000000000003
 40
0.3750000000000004
 40
0.3750000000000004
 40
0.5000000000000006
 40
0.5000000000000006
 40
0.7500000000000002
 40
0.7500000000000002
 40
1.0
 40
1.0
 40
1.0
 40
1.0
 10
265.9254038121705
 20
173.991664255838
 30
0.0
 10
265.9254040810517
 20
173.8925236571428
 30
0.0
 10
265.9345465370295
 20
173.7950403479533
 30
0.0
 10
265.9704053686752
 20
173.6032528535886
 30
0.0
 10
265.9975581666592
 20
173.5079543199806
 30
0.0
 10
266.068563053044
 20
173.3262396813586
 30
0.0
 10
266.1120595971749
 20
173.2400577277801
 30
0.0
 10
266.2150560765983
 20
173.0769637129703
 30
0.0
 10
266.2751061275091
 20
172.9997544236337
 30
0.0
 10
266.472365839151
 20
172.7922213770195
 30
0.0
 10
266.6320431792071
 20
172.6805543592015
 30
0.0
 10
266.9785137071755
 20
172.5311801731566
 30
0.0
 10
267.1684908815147
 20
172.4916685851001
 30
0.0
 10
267.360658705538
 20
172.4916685851001
 30
0.0
  0
LINE
  5
E00EDA86
330
E00DEA5D
100
AcDbEntity
  8
JISSEN
100
AcDbLine
 10
270.455705933519
 20
172.4916684733432
 30
0.0
 11
266.8452804212199
 21
172.4916684733432
 31
0.0
  0
LINE
  5
E00EDA87
330
E00DEA5D
100
AcDbEntity
  8
JISSEN
100
AcDbLine
 10
270.455705933519
 20
169.4916686801423
 30
0.0
 11
271.0557059620175
 21
169.4916686801423
 31
0.0
  0
SPLINE
  5
E00EDA88
330
E00DEA5D
100
AcDbEntity
  8
JISSEN
100
AcDbSpline
210
0.0
220
0.0
230
1.0
 70
    24
 71
     3
 72
     8
 73
     4
 74
     0
 42
0.0000000001
 43
0.0000000001
 40
0.0
 40
0.0
 40
0.0
 40
0.0
 40
0.000094419996181
 40
0.000094419996181
 40
0.000094419996181
 40
0.000094419996181
 10
270.4557059620563
 20
169.5859831628874
 30
0.0
 10
270.4557059620563
 20
169.5545098308282
 30
0.0
 10
270.4557059620563
 20
169.523001438645
 30
0.0
 10
270.4557059620563
 20
169.4916685851001
 30
0.0
  0
LINE
  5
E00EDA89
330
E00DEA5D
100
AcDbEntity
  8
JISSEN
100
AcDbLine
 10
270.455705933519
 20
172.4916684733432
 30
0.0
 11
270.455705933519
 21
169.5859832515432
 31
0.0
  0
LINE
  5
E00EDA8A
330
E00DEA5D
100
AcDbEntity
  8
JISSEN
100
AcDbLine
 10
271.655705990516
 20
172.4916684733432
 30
0.0
 11
271.655705990516
 21
169.5859832515432
 31
0.0
  0
SPLINE
  5
E00EDA8B
330
E00DEA5D
100
AcDbEntity
  8
JISSEN
100
AcDbSpline
210
0.0
220
0.0
230
1.0
 70
    24
 71
     3
 72
     8
 73
     4
 74
     0
 42
0.0000000001
 43
0.0000000001
 40
0.0
 40
0.0
 40
0.0
 40
0.0
 40
0.000094419996181
 40
0.000094419996181
 40
0.000094419996181
 40
0.000094419996181
 10
271.6557059619788
 20
169.5859831628874
 30
0.0
 10
271.6557059619788
 20
169.5545098308282
 30
0.0
 10
271.6557059619788
 20
169.523001438645
 30
0.0
 10
271.6557059619788
 20
169.4916685851001
 30
0.0
  0
LINE
  5
E00EDA8C
330
E00DEA5D
100
AcDbEntity
  8
JISSEN
100
AcDbLine
 10
271.655705990516
 20
169.4916686801423
 30
0.0
 11
271.0557059620175
 21
169.4916686801423
 31
0.0
  0
LINE
  5
E00EDA8D
330
E00DEA5D
100
AcDbEntity
  8
JISSEN
370
    -2
100
AcDbLine
 10
265.9254038011193
 20
178.2417099224585
 30
0.0
 11
271.0557059620175
 21
178.2417099224601
 31
0.0
  0
SPLINE
  5
E00EDA8E
330
E00DEA5D
100
AcDbEntity
  8
JISSEN
370
    -2
100
AcDbSpline
210
0.0
220
0.0
230
1.0
 70
    12
 71
     3
 72
    10
 73
     6
 74
     0
 42
0.0000000001
 43
0.0000000001
 40
0.5057820204622066
 40
0.5057820204622066
 40
0.5057820204622066
 40
0.5057820204622066
 40
0.5996174274824865
 40
0.7976149977365948
 40
1.0
 40
1.0
 40
1.0
 40
1.0
 10
265.924996215865
 20
178.4928602263758
 30
0.0
 41
1.0
 10
266.0183692811557
 20
178.4543266748667
 30
0.0
 41
1.0
 10
266.3164581390548
 20
178.3527287501626
 30
0.0
 41
1.0
 10
266.8474393339836
 20
178.2571573610437
 30
0.0
 41
1.0
 10
267.2910265526386
 20
178.2468965483201
 30
0.0
 41
1.0
 10
267.5152505983731
 20
178.2417099224583
 30
0.0
 41
1.0
  0
LINE
  5
E00EDA8F
330
E00DEA5D
100
AcDbEntity
  8
JISSEN
100
AcDbLine
 10
265.9254038011192
 20
174.5614681685435
 30
0.0
 11
265.9254038011192
 21
173.9916640626431
 31
0.0
  0
LINE
  5
E00EDA90
330
E00DEA5D
100
AcDbEntity
  8
JISSEN
100
AcDbLine
 10
265.9254038011192
 20
178.4916685255427
 30
0.0
 11
265.9254038011192
 21
174.5614681685435
 31
0.0
  0
SPLINE
  5
E00EDA91
330
E00DEA5D
100
AcDbEntity
  8
JISSEN
100
AcDbSpline
210
0.0
220
0.0
230
1.0
 70
     8
 71
     3
 72
    18
 73
    14
 74
     0
 42
0.0000000001
 43
0.0000000001
 40
0.0
 40
0.0
 40
0.0
 40
0.0
 40
0.1250000000000001
 40
0.1250000000000001
 40
0.2500000000000003
 40
0.2500000000000003
 40
0.3750000000000004
 40
0.3750000000000004
 40
0.5000000000000006
 40
0.5000000000000006
 40
0.7500000000000002
 40
0.7500000000000002
 40
1.0
 40
1.0
 40
1.0
 40
1.0
 10
276.1860081118645
 20
173.991664255838
 30
0.0
 10
276.1860078429833
 20
173.8925236571428
 30
0.0
 10
276.1768653870055
 20
173.7950403479533
 30
0.0
 10
276.1410065553598
 20
173.6032528535886
 30
0.0
 10
276.1138537573758
 20
173.5079543199806
 30
0.0
 10
276.042848870991
 20
173.3262396813586
 30
0.0
 10
275.9993523268601
 20
173.2400577277801
 30
0.0
 10
275.8963558474367
 20
173.0769637129703
 30
0.0
 10
275.8363057965259
 20
172.9997544236337
 30
0.0
 10
275.639046084884
 20
172.7922213770195
 30
0.0
 10
275.4793687448279
 20
172.6805543592015
 30
0.0
 10
275.1328982168595
 20
172.5311801731566
 30
0.0
 10
274.9429210425203
 20
172.4916685851001
 30
0.0
 10
274.750753218497
 20
172.4916685851001
 30
0.0
  0
SPLINE
  5
E00EDA92
330
E00DEA5D
100
AcDbEntity
  8
JISSEN
100
AcDbSpline
210
0.0
220
0.0
230
1.0
 70
     8
 71
     3
 72
    18
 73
    14
 74
     0
 42
0.0000000001
 43
0.0000000001
 40
0.0
 40
0.0
 40
0.0
 40
0.0
 40
0.1250000000000003
 40
0.1250000000000003
 40
0.2500000000000006
 40
0.2500000000000006
 40
0.3750000000000009
 40
0.3750000000000009
 40
0.5000000000000013
 40
0.5000000000000013
 40
0.7500000000000006
 40
0.7500000000000006
 40
1.0
 40
1.0
 40
1.0
 40
1.0
 10
275.2661314594186
 20
172.4916685851001
 30
0.0
 10
275.361968841257
 20
172.4916685851001
 30
0.0
 10
275.4559861811638
 20
172.5013175037872
 30
0.0
 10
275.6405411877983
 20
172.5392133986367
 30
0.0
 10
275.7320327883687
 20
172.5679224243428
 30
0.0
 10
275.9060972921549
 20
172.6429580446817
 30
0.0
 10
275.9884515354276
 20
172.6889073193649
 30
0.0
 10
276.1439959400192
 20
172.797550525958
 30
0.0
 10
276.2174649692676
 20
172.8608204251156
 30
0.0
 10
276.4146354535821
 20
173.0682111321236
 30
0.0
 10
276.5202835310262
 20
173.2354866243165
 30
0.0
 10
276.6616149022518
 20
173.5964272934322
 30
0.0
 10
276.6990383268528
 20
173.7934233096564
 30
0.0
 10
276.6990383268528
 20
173.9916685851001
 30
0.0
  0
LINE
  5
E00EDA93
330
E00DEA5D
100
AcDbEntity
  8
JISSEN
100
AcDbLine
 10
276.6990383390173
 20
178.9916686074427
 30
0.0
 11
276.3570180398153
 21
178.9916686074427
 31
0.0
  0
SPLINE
  5
E00EDA94
330
E00DEA5D
100
AcDbEntity
  8
JISSEN
370
    -2
100
AcDbSpline
210
0.0
220
0.0
230
1.0
 70
    12
 71
     3
 72
    10
 73
     6
 74
     0
 42
0.0000000001
 43
0.0000000001
 40
0.5057820204623223
 40
0.5057820204623223
 40
0.5057820204623223
 40
0.5057820204623223
 40
0.5996174274824865
 40
0.7976149977365948
 40
1.0
 40
1.0
 40
1.0
 40
1.0
 10
276.1864157081697
 20
178.4928602263755
 30
0.0
 41
1.0
 10
276.0930426428791
 20
178.4543266748664
 30
0.0
 41
1.0
 10
275.7949537849801
 20
178.3527287501626
 30
0.0
 41
1.0
 10
275.2639725900514
 20
178.2571573610437
 30
0.0
 41
1.0
 10
274.8203853713964
 20
178.2468965483201
 30
0.0
 41
1.0
 10
274.596161325662
 20
178.2417099224583
 30
0.0
 41
1.0
  0
LINE
  5
E00EDA95
330
E00DEA5D
100
AcDbEntity
  8
JISSEN
100
AcDbLine
 10
276.1860081229158
 20
178.4916685255427
 30
0.0
 11
276.1860081229158
 21
174.5614681685435
 31
0.0
  0
LINE
  5
E00EDA96
330
E00DEA5D
100
AcDbEntity
  8
JISSEN
100
AcDbLine
 10
276.1860081229158
 20
174.5614681685435
 30
0.0
 11
276.1860081229158
 21
173.9916640626431
 31
0.0
  0
LINE
  5
E00EDA97
330
E00DEA5D
100
AcDbEntity
  8
JISSEN
100
AcDbLine
 10
276.3570180398153
 20
178.9916686074427
 30
0.0
 11
276.1860081229158
 21
178.4916685255427
 31
0.0
  0
LINE
  5
E00EDA98
330
E00DEA5D
100
AcDbEntity
  8
JISSEN
100
AcDbLine
 10
276.6990383390173
 20
173.9916687192433
 30
0.0
 11
276.6990383390173
 21
178.9916686074427
 31
0.0
  0
LINE
  5
E00EDA99
330
E00DEA5D
100
AcDbEntity
  8
JISSEN
100
AcDbLine
 10
288.3477938596176
 20
168.6078355241422
 30
0.0
 11
289.513617870615
 21
168.3600321238425
 31
0.0
  0
ARC
  5
E00EDA9A
330
E00DEA5D
100
AcDbEntity
  8
JISSEN
100
AcDbCircle
 10
288.5557059620175
 20
169.5859831628438
 30
0.0
 40
1.000000000000007
100
AcDbArc
 50
180.0
 51
257.9999999999847
  0
ARC
  5
E00EDA9B
330
E00DEA5D
100
AcDbEntity
  8
JISSEN
100
AcDbCircle
 10
289.3057059620175
 20
167.3818845519433
 30
0.0
 40
0.999999999999998
100
AcDbArc
 50
6.302866183580868
 51
77.9999999999848
  0
LINE
  5
E00EDA9C
330
E00DEA5D
100
AcDbEntity
  8
JISSEN
100
AcDbLine
 10
287.3050348137173
 20
178.9916686074427
 30
0.0
 11
286.3202263836162
 21
178.9916686074427
 31
0.0
  0
SPLINE
  5
E00EDA9D
330
E00DEA5D
100
AcDbEntity
  8
JISSEN
100
AcDbSpline
210
0.0
220
0.0
230
1.0
 70
     8
 71
     3
 72
    18
 73
    14
 74
     0
 42
0.0000000001
 43
0.0000000001
 40
0.0
 40
0.0
 40
0.0
 40
0.0
 40
0.1249999999999998
 40
0.1249999999999998
 40
0.2499999999999997
 40
0.2499999999999997
 40
0.3749999999999995
 40
0.3749999999999995
 40
0.4999999999999993
 40
0.4999999999999993
 40
0.7499999999999997
 40
0.7499999999999997
 40
1.0
 40
1.0
 40
1.0
 40
1.0
 10
286.977276329402
 20
172.4916685851001
 30
0.0
 10
287.003290758327
 20
172.4916685851001
 30
0.0
 10
287.0280117765339
 20
172.5013175037872
 30
0.0
 10
287.075062861362
 20
172.5392133986367
 30
0.0
 10
287.0976160534371
 20
172.5679224243428
 30
0.0
 10
287.1391949106562
 20
172.6429580446817
 30
0.0
 10
287.158189375619
 20
172.6889073193649
 30
0.0
 10
287.1930285053201
 20
172.797550525958
 30
0.0
 10
287.2089207143551
 20
172.8608204251156
 30
0.0
 10
287.2504698384652
 20
173.0682111321236
 30
0.0
 10
287.2711514302743
 20
173.2354866243165
 30
0.0
 10
287.2982310681243
 20
173.5964272934322
 30
0.0
 10
287.3050338866803
 20
173.7934233096564
 30
0.0
 10
287.3050338866803
 20
173.9916685851001
 30
0.0
  0
SPLINE
  5
E00EDA9E
330
E00DEA5D
100
AcDbEntity
  8
JISSEN
100
AcDbSpline
210
0.0
220
0.0
230
1.0
 70
     8
 71
     3
 72
    18
 73
    14
 74
     0
 42
0.0000000001
 43
0.0000000001
 40
0.0
 40
0.0
 40
0.0
 40
0.0
 40
0.1250000000000001
 40
0.1250000000000001
 40
0.2500000000000002
 40
0.2500000000000002
 40
0.3750000000000002
 40
0.3750000000000002
 40
0.5000000000000004
 40
0.5000000000000004
 40
0.7500000000000001
 40
0.7500000000000001
 40
1.0
 40
1.0
 40
1.0
 40
1.0
 10
285.8278222571623
 20
173.9916685851001
 30
0.0
 10
285.8278222571623
 20
173.8925278037365
 30
0.0
 10
285.8261411004357
 20
173.7950442898416
 30
0.0
 10
285.8194472551301
 20
173.6032563438891
 30
0.0
 10
285.8143516102161
 20
173.5079575560009
 30
0.0
 10
285.8007008055899
 20
173.3262424346046
 30
0.0
 10
285.7922143402736
 20
173.2400602311934
 30
0.0
 10
285.7714900126218
 20
173.0769657047546
 30
0.0
 10
285.759129146603
 20
172.9997561751877
 30
0.0
 10
285.7170625677379
 20
172.7922224633237
 30
0.0
 10
285.6811543008968
 20
172.6805550430396
 30
0.0
 10
285.5965760787992
 20
172.5311803206857
 30
0.0
 10
285.5470884948033
 20
172.4916685851001
 30
0.0
 10
285.4933038286642
 20
172.4916685851001
 30
0.0
  0
SPLINE
  5
E00EDA9F
330
E00DEA5D
100
AcDbEntity
  8
JISSEN
100
AcDbSpline
210
0.0
220
0.0
230
1.0
 70
     8
 71
     3
 72
    18
 73
    14
 74
     0
 42
0.0000000001
 43
0.0000000001
 40
0.0
 40
0.0
 40
0.0
 40
0.0
 40
0.1249999999999998
 40
0.1249999999999998
 40
0.2499999999999995
 40
0.2499999999999995
 40
0.3749999999999992
 40
0.3749999999999992
 40
0.499999999999999
 40
0.499999999999999
 40
0.7499999999999995
 40
0.7499999999999995
 40
1.0
 40
1.0
 40
1.0
 40
1.0
 10
281.6617015218069
 20
173.9916685851001
 30
0.0
 10
281.6617015218069
 20
173.8925452451728
 30
0.0
 10
281.6691594644633
 20
173.7950786223152
 30
0.0
 10
281.6983181274415
 20
173.6033233799933
 30
0.0
 10
281.7203720783588
 20
173.5080410512343
 30
0.0
 10
281.7777404888672
 20
173.3263509230143
 30
0.0
 10
281.8127674588738
 20
173.2401795636449
 30
0.0
 10
281.8951199283744
 20
173.0771026793843
 30
0.0
 10
281.942874783065
 20
172.9998976923177
 30
0.0
 10
282.0983851937278
 20
172.7923623973799
 30
0.0
 10
282.2225345422345
 20
172.6806751879428
 30
0.0
 10
282.4857494711175
 20
172.5312309873167
 30
0.0
 10
282.6272004309037
 20
172.4916685851001
 30
0.0
 10
282.7668508319618
 20
172.4916685851001
 30
0.0
  0
LINE
  5
E00EDAA0
330
E00DEA5D
100
AcDbEntity
  8
JISSEN
100
AcDbLine
 10
282.766850781815
 20
172.4916684733432
 30
0.0
 11
285.0356745768174
 21
172.4916684733432
 31
0.0
  0
LINE
  5
E00EDAA1
330
E00DEA5D
100
AcDbEntity
  8
JISSEN
100
AcDbLine
 10
285.6356744889151
 20
172.4916684733432
 30
0.0
 11
286.9772763226162
 21
172.4916684733432
 31
0.0
  0
LINE
  5
E00EDAA2
330
E00DEA5D
100
AcDbEntity
  8
JISSEN
100
AcDbLine
 10
285.0356745768174
 20
169.5859832515432
 30
0.0
 11
285.0356745768174
 21
172.4916684733432
 31
0.0
  0
SPLINE
  5
E00EDAA3
330
E00DEA5D
100
AcDbEntity
  8
JISSEN
100
AcDbSpline
210
0.0
220
0.0
230
1.0
 70
     8
 71
     3
 72
     8
 73
     4
 74
     0
 42
0.0000000001
 43
0.0000000001
 40
0.0
 40
0.0
 40
0.0
 40
0.0
 40
0.000094419996181
 40
0.000094419996181
 40
0.000094419996181
 40
0.000094419996181
 10
285.0395373590833
 20
169.4916685851001
 30
0.0
 10
285.0369649691827
 20
169.523001438645
 30
0.0
 10
285.035674449339
 20
169.5545098308282
 30
0.0
 10
285.035674449339
 20
169.5859831628874
 30
0.0
  0
LINE
  5
E00EDAA4
330
E00DEA5D
100
AcDbEntity
  8
JISSEN
100
AcDbLine
 10
285.6356744889151
 20
172.4916684733432
 30
0.0
 11
285.6356744889151
 21
169.491668680142
 31
0.0
  0
LINE
  5
E00EDAA5
330
E00DEA5D
100
AcDbEntity
  8
JISSEN
100
AcDbLine
 10
285.6395376150164
 20
169.4916686801423
 30
0.0
 11
285.0395377029151
 21
169.4916686801423
 31
0.0
  0
LINE
  5
E00EDAA6
330
E00DEA5D
100
AcDbEntity
  8
JISSEN
100
AcDbLine
 10
285.6356744889151
 20
172.4916684733432
 30
0.0
 11
285.0356745768174
 21
172.4916684733432
 31
0.0
  0
LINE
  5
E00EDAA7
330
E00DEA5D
100
AcDbEntity
  8
JISSEN
100
AcDbLine
 10
285.8278221685166
 20
177.2388253059932
 30
0.0
 11
281.661701505315
 21
177.2388253059721
 31
0.0
  0
LINE
  5
E00EDAA8
330
E00DEA5D
100
AcDbEntity
  8
JISSEN
100
AcDbLine
 10
285.8278221685166
 20
177.2388253059932
 30
0.0
 11
281.661701505315
 21
177.2388253059718
 31
0.0
  0
LINE
  5
E00EDAA9
330
E00DEA5D
100
AcDbEntity
  8
JISSEN
100
AcDbLine
 10
281.661701505315
 20
178.9916686074427
 30
0.0
 11
281.661701505315
 21
173.9916687192433
 31
0.0
  0
LINE
  5
E00EDAAA
330
E00DEA5D
100
AcDbEntity
  8
JISSEN
100
AcDbLine
 10
286.3202263836162
 20
178.9916686074427
 30
0.0
 11
285.8278221685166
 21
178.4916685255427
 31
0.0
  0
LINE
  5
E00EDAAB
330
E00DEA5D
100
AcDbEntity
  8
JISSEN
100
AcDbLine
 10
285.8278221685166
 20
178.4916685255427
 30
0.0
 11
285.8278221685167
 21
173.9904212940098
 31
0.0
  0
LINE
  5
E00EDAAC
330
E00DEA5D
100
AcDbEntity
  8
JISSEN
100
AcDbLine
 10
287.555705872616
 20
178.9916686074427
 30
0.0
 11
287.555705872616
 21
169.5859832515432
 31
0.0
  0
LINE
  5
E00EDAAD
330
E00DEA5D
100
AcDbEntity
  8
JISSEN
100
AcDbLine
 10
287.3050348137173
 20
173.9916687192433
 30
0.0
 11
287.3050348137173
 21
178.9916686074427
 31
0.0
  0
LINE
  5
E00EDAAE
330
E00DEA5D
100
AcDbEntity
  8
JISSEN
100
AcDbLine
 10
287.555705872616
 20
178.9916686074427
 30
0.0
 11
287.3050348137173
 21
178.9916686074427
 31
0.0
  0
LINE
  5
E00EDAAF
330
E00DEA5D
100
AcDbEntity
  8
JISSEN
100
AcDbLine
 39
240.0520776831561
 10
285.2057059620181
 20
182.7416689073468
 30
0.0
 11
271.0557059620175
 21
182.741668907345
 31
0.0
  0
LINE
  5
E00EDAB0
330
E00DEA5D
100
AcDbEntity
  8
JISSEN
100
AcDbLine
 39
240.0520776831561
 10
256.905705962017
 20
182.7416689073468
 30
0.0
 11
271.0557059620175
 21
182.741668907345
 31
0.0
  0
SPLINE
  5
E00EDAB1
330
E00DEA5D
100
AcDbEntity
  8
JISSEN
370
    -2
100
AcDbSpline
210
0.0
220
0.0
230
1.0
 70
    12
 71
     3
 72
    14
 73
    10
 74
     0
 42
0.0000000001
 43
0.0000000001
 40
0.0
 40
0.0
 40
0.0
 40
0.0
 40
0.2170493941225676
 40
0.4388311995732112
 40
0.5988137766302898
 40
0.7597871991591737
 40
0.8750649674182215
 40
0.9755548291618868
 40
1.0
 40
1.0
 40
1.0
 40
1.0
 10
267.5152505983731
 20
181.2417104141966
 30
0.0
 41
1.0
 10
267.2748881086906
 20
181.2357448626242
 30
0.0
 41
1.0
 10
266.7889224136176
 20
181.2236836902664
 30
0.0
 41
1.0
 10
266.1482908264222
 20
181.0944941998238
 30
0.0
 41
1.0
 10
265.6113560277306
 20
180.8585711422854
 30
0.0
 41
1.0
 10
265.2395484508959
 20
180.5525108336476
 30
0.0
 41
1.0
 10
265.0177655737195
 20
180.1876305970361
 30
0.0
 41
1.0
 10
264.9510462184132
 20
179.9140473396435
 30
0.0
 41
1.0
 10
264.947658308555
 20
179.7699121087314
 30
0.0
 41
1.0
 10
264.9469954197427
 20
179.7417101683274
 30
0.0
 41
1.0
  0
LINE
  5
E00EDAB2
330
E00DEA5D
100
AcDbEntity
  8
JISSEN
370
    -2
100
AcDbLine
 10
264.9363112872158
 20
181.2417104141566
 30
0.0
 11
271.0557059620175
 21
181.2417104141566
 31
0.0
  0
LINE
  5
E00EDAB3
330
E00DEA5D
100
AcDbEntity
  8
NITEN
100
AcDbLine
 10
258.5557059620175
 20
195.0416689204428
 30
0.0
 11
283.5557059620175
 21
195.0416689204428
 31
0.0
  0
LINE
  5
E00EDAB4
330
E00DEA5D
100
AcDbEntity
  8
JISSEN
100
AcDbLine
 10
260.7936091879171
 20
204.7795721462459
 30
0.0
 11
271.0557059620175
 21
204.7795721462459
 31
0.0
  0
LINE
  5
E00EDAB5
330
E00DEA5D
100
AcDbEntity
  8
JISSEN
100
AcDbLine
 10
262.0557059620175
 20
206.0416689204428
 30
0.0
 11
271.0557059620175
 21
206.0416689204428
 31
0.0
  0
LINE
  5
E00EDAB8
330
E00DEA5D
100
AcDbEntity
  8
JISSEN
100
AcDbLine
 10
259.7717313658019
 20
190.2416689204435
 30
0.0
 11
271.0557059620175
 21
190.2416689204435
 31
0.0
  0
LINE
  5
E00EDAB9
330
E00DEA5D
100
AcDbEntity
  8
NITEN
100
AcDbLine
 10
258.0557059620175
 20
211.8470193341779
 30
0.0
 11
258.055705962018
 21
195.5416689204428
 31
0.0
  0
LINE
  5
E00EDABA
330
E00DEA5D
100
AcDbEntity
  8
SAISEN
100
AcDbLine
 10
261.5576968440207
 20
192.0416689204464
 30
0.0
 11
261.9932674054004
 21
205.9792303614847
 31
0.0
  0
LINE
  5
E00EDABB
330
E00DEA5D
100
AcDbEntity
  8
SAISEN
100
AcDbLine
 10
261.5576968440207
 20
192.04166892045
 30
0.0
 11
261.9932674054004
 21
205.9792303614883
 31
0.0
  0
LINE
  5
E00EDABC
330
E00DEA5D
100
AcDbEntity
  8
JISSEN
100
AcDbLine
 10
260.7936091879171
 20
204.7795721462459
 30
0.0
 11
260.339299712067
 21
190.2416689204435
 31
0.0
  0
LINE
  5
E00EDAC3
330
E00DEA5D
100
AcDbEntity
  8
SAISEN
100
AcDbLine
 10
256.905705962017
 20
182.7416689073468
 30
0.0
 11
256.9057059620179
 21
183.7416689204435
 31
0.0
  0
LINE
  5
E00EDAC4
330
E00DEA5D
100
AcDbEntity
  8
JISSEN
100
AcDbLine
 10
256.405705962017
 20
182.7416689073431
 30
0.0
 11
256.905705962017
 21
182.7416689073431
 31
0.0
  0
ARC
  5
E00EDAC8
330
E00DEA5D
100
AcDbEntity
  8
JISSEN
370
    -2
100
AcDbCircle
 10
264.7412417634166
 20
179.6043324056552
 30
0.0
 40
1.648956901138485
100
AcDbArc
 50
83.20607180967957
 51
175.2210394254883
  0
ARC
  5
E00EDAC9
330
E00DEA5D
100
AcDbEntity
  8
NITEN
100
AcDbCircle
 10
258.5557059620175
 20
195.5416689204428
 30
0.0
 40
0.5
100
AcDbArc
 50
180.0
 51
270.0
  0
ARC
  5
E00EDACA
330
E00DEA5D
100
AcDbEntity
  8
NITEN
100
AcDbCircle
 10
252.0557059620175
 20
219.3019967012294
 30
0.0
 40
0.5
100
AcDbArc
 50
180.0
 51
235.0079798014486
  0
LINE
  5
E00EDACB
330
E00DEA5D
100
AcDbEntity
  8
JISSEN
100
AcDbLine
 10
262.0557059620175
 20
206.0416689204428
 30
0.0
 11
260.7936091879171
 21
204.7795721462459
 31
0.0
  0
LINE
  5
E00EDACC
330
E00DEA5D
100
AcDbEntity
  8
NITEN
100
AcDbLine
 10
257.9240978341875
 20
212.1850835714464
 30
0.0
 11
251.7689747898364
 21
218.8923807409699
 31
0.0
  0
ARC
  5
E00EDACD
330
E00DEA5D
100
AcDbEntity
  8
NITEN
100
AcDbCircle
 10
257.5557059620175
 20
211.8470193341779
 30
0.0
 40
0.5
100
AcDbArc
 50
0.0
 51
42.5418441566224
  0
LINE
  5
E00EDACE
330
E00DEA5D
100
AcDbEntity
  8
NITEN
100
AcDbLine
 10
284.055705962018
 20
211.8470193341779
 30
0.0
 11
284.0557059620175
 21
195.5416689204428
 31
0.0
  0
LINE
  5
E00EDACF
330
E00DEA5D
100
AcDbEntity
  8
SAISEN
100
AcDbLine
 10
280.5537150800144
 20
192.04166892045
 30
0.0
 11
280.1181445186346
 21
205.9792303614883
 31
0.0
  0
LINE
  5
E00EDAD0
330
E00DEA5D
100
AcDbEntity
  8
SAISEN
100
AcDbLine
 10
280.5537150800144
 20
192.0416689204464
 30
0.0
 11
280.1181445186346
 21
205.9792303614847
 31
0.0
  0
LINE
  5
E00EDAD1
330
E00DEA5D
100
AcDbEntity
  8
JISSEN
100
AcDbLine
 10
281.3178027361179
 20
204.7795721462459
 30
0.0
 11
281.772112211968
 21
190.2416689204435
 31
0.0
  0
LINE
  5
E00EDAD2
330
E00DEA5D
100
AcDbEntity
  8
NITEN
100
AcDbLine
 10
280.0557059620175
 20
195.0416689204428
 30
0.0
 11
271.0557059620175
 21
195.0416689204428
 31
0.0
  0
LINE
  5
E00EDAD3
330
E00DEA5D
100
AcDbEntity
  8
JISSEN
100
AcDbLine
 10
282.3396805582331
 20
190.2416689204435
 30
0.0
 11
271.0557059620175
 21
190.2416689204435
 31
0.0
  0
LINE
  5
E00EDAD6
330
E00DEA5D
100
AcDbEntity
  8
JISSEN
370
    -2
100
AcDbLine
 10
277.1751006368192
 20
181.2417104141566
 30
0.0
 11
271.0557059620175
 21
181.2417104141566
 31
0.0
  0
SPLINE
  5
E00EDADC
330
E00DEA5D
100
AcDbEntity
  8
JISSEN
370
    -2
100
AcDbSpline
210
0.0
220
0.0
230
1.0
 70
    12
 71
     3
 72
    14
 73
    10
 74
     0
 42
0.0000000001
 43
0.0000000001
 40
0.0
 40
0.0
 40
0.0
 40
0.0
 40
0.2170493941225676
 40
0.4388311995732112
 40
0.5988137766302898
 40
0.7597871991591737
 40
0.8750649674182215
 40
0.9755548291618868
 40
1.0
 40
1.0
 40
1.0
 40
1.0
 10
274.596161325662
 20
181.2417104141966
 30
0.0
 41
1.0
 10
274.8365238153444
 20
181.2357448626242
 30
0.0
 41
1.0
 10
275.3224895104174
 20
181.2236836902664
 30
0.0
 41
1.0
 10
275.9631210976128
 20
181.0944941998238
 30
0.0
 41
1.0
 10
276.5000558963044
 20
180.8585711422854
 30
0.0
 41
1.0
 10
276.8718634731392
 20
180.5525108336476
 30
0.0
 41
1.0
 10
277.0936463503155
 20
180.1876305970361
 30
0.0
 41
1.0
 10
277.1603657056218
 20
179.9140473396435
 30
0.0
 41
1.0
 10
277.1637536154801
 20
179.7699121087314
 30
0.0
 41
1.0
 10
277.1644165042923
 20
179.7417101683274
 30
0.0
 41
1.0
  0
ARC
  5
E00EDADD
330
E00DEA5D
100
AcDbEntity
  8
JISSEN
370
    -2
100
AcDbCircle
 10
277.3701701606185
 20
179.6043324056552
 30
0.0
 40
1.648956901138485
100
AcDbArc
 50
4.778960574511653
 51
96.7939281903204
  0
LINE
  5
E00EDAE3
330
E00DEA5D
100
AcDbEntity
  8
SAISEN
100
AcDbLine
 10
285.2057059620181
 20
182.7416689073468
 30
0.0
 11
285.2057059620171
 21
183.7416689204435
 31
0.0
  0
LINE
  5
E00EDAE4
330
E00DEA5D
100
AcDbEntity
  8
JISSEN
100
AcDbLine
 10
285.705705962018
 20
182.7416689073431
 30
0.0
 11
285.2057059620181
 21
182.7416689073431
 31
0.0
  0
ARC
  5
E00EDAEA
330
E00DEA5D
100
AcDbEntity
  8
NITEN
100
AcDbCircle
 10
283.5557059620175
 20
195.5416689204428
 30
0.0
 40
0.5
100
AcDbArc
 50
270.0
 51
0.0
  0
LINE
  5
E00EDAEB
330
E00DEA5D
100
AcDbEntity
  8
JISSEN
100
AcDbLine
 10
281.3178027361179
 20
204.7795721462459
 30
0.0
 11
271.0557059620175
 21
204.7795721462459
 31
0.0
  0
LINE
  5
E00EDAEC
330
E00DEA5D
100
AcDbEntity
  8
JISSEN
100
AcDbLine
 10
280.0557059620175
 20
206.0416689204428
 30
0.0
 11
271.0557059620175
 21
206.0416689204428
 31
0.0
  0
LINE
  5
E00EDAED
330
E00DEA5D
100
AcDbEntity
  8
JISSEN
100
AcDbLine
 10
280.0557059620175
 20
206.0416689204428
 30
0.0
 11
281.3178027361179
 21
204.7795721462459
 31
0.0
  0
LINE
  5
E00EDAEE
330
E00DEA5D
100
AcDbEntity
  8
NITEN
100
AcDbLine
 10
284.1873140898485
 20
212.1850835714464
 30
0.0
 11
290.3424371341996
 21
218.8923807409699
 31
0.0
  0
ARC
  5
E00EDAEF
330
E00DEA5D
100
AcDbEntity
  8
NITEN
100
AcDbCircle
 10
284.5557059620175
 20
211.8470193341779
 30
0.0
 40
0.5
100
AcDbArc
 50
137.4581558433775
 51
180.0
  0
ARC
  5
E00EDAF0
330
E00DEA5D
100
AcDbEntity
  8
NITEN
100
AcDbCircle
 10
290.0557059620175
 20
219.3019967012294
 30
0.0
 40
0.5
100
AcDbArc
 50
304.9920201985514
 51
0.0
  0
LINE
  5
E00EDAF1
330
E00DEA5D
100
AcDbEntity
  8
NITEN
100
AcDbLine
 10
290.0557059620175
 20
237.0416689204428
 30
0.0
 11
252.0557059620175
 21
237.0416689204428
 31
0.0
  0
ELLIPSE
  5
E00EDAF2
330
E00DEA5D
100
AcDbEntity
  8
NITEN
100
AcDbEllipse
 10
262.5557059620175
 20
251.8456574448443
 30
0.0
 11
-8.5
 21
0.0
 31
0.0
210
0.0
220
0.0
230
1.0
 40
0.2352941176470588
 41
3.141592653589793
 42
6.283185307179586
  0
LINE
  5
E00EDAF3
330
E00DEA5D
100
AcDbEntity
  8
NITEN
100
AcDbLine
 10
254.0557059620175
 20
237.0416689204428
 30
0.0
 11
254.0557059620175
 21
251.8456574448443
 31
0.0
  0
ARC
  5
E00EDAF4
330
E00DEA5D
100
AcDbEntity
  8
NITEN
100
AcDbCircle
 10
252.0557059620175
 20
236.5416689204428
 30
0.0
 40
0.5
100
AcDbArc
 50
90.0
 51
180.0
  0
LINE
  5
E00EDAF5
330
E00DEA5D
100
AcDbEntity
  8
NITEN
100
AcDbLine
 10
288.0557059620175
 20
237.0416689204428
 30
0.0
 11
288.0557059620175
 21
251.8456574448443
 31
0.0
  0
ARC
  5
E00EDAF6
330
E00DEA5D
100
AcDbEntity
  8
NITEN
100
AcDbCircle
 10
290.0557059620175
 20
236.5416689204428
 30
0.0
 40
0.5
100
AcDbArc
 50
0.0
 51
90.0
  0
ELLIPSE
  5
E00EDAF7
330
E00DEA5D
100
AcDbEntity
  8
NITEN
100
AcDbEllipse
 10
279.5557059620175
 20
251.8456574448443
 30
0.0
 11
-8.499999999999985
 21
0.0
 31
0.0
210
0.0
220
0.0
230
1.0
 40
0.2352941176470057
 41
0.0
 42
6.283185307179586
  0
LINE
  5
E00EDAF8
330
E00DEA5D
100
AcDbEntity
  8
JISSEN
100
AcDbLine
 39
240.0520776831561
 10
305.0557078097651
 20
167.4916685851437
 30
0.0
 11
305.0557078097651
 21
167.1398300760972
 31
0.0
  0
ARC
  5
E00EDAF9
330
E00DEA5D
100
AcDbEntity
  8
JISSEN
100
AcDbCircle
 39
240.0520776831561
 10
304.5557078097651
 20
167.1398300760972
 30
0.0
 40
0.5
100
AcDbArc
 50
277.999995054061
 51
0.0
  0
LINE
  5
E00EDAFA
330
E00DEA5D
100
AcDbEntity
  8
SUNPOU
100
AcDbLine
 10
296.0557059620175
 20
177.4916685851437
 30
0.0
 11
296.0557059620175
 21
167.4916685851437
 31
0.0
  0
SPLINE
  5
E00EDAFB
330
E00DEA5D
100
AcDbEntity
  8
SUNPOU
100
AcDbSpline
210
0.0
220
0.0
230
1.0
 70
     8
 71
     3
 72
    11
 73
     7
 74
     5
 42
0.0000000001
 43
0.0000000001
 44
0.0000000001
 40
0.0
 40
0.0
 40
0.0
 40
0.0
 40
3.264692203133994
 40
6.15697472568029
 40
8.955271668736928
 40
10.85738683396026
 40
10.85738683396026
 40
10.85738683396026
 40
10.85738683396026
 10
328.1075740666462
 20
177.4916685851437
 30
0.0
 10
327.43247337836
 20
176.4902696339385
 30
0.0
 10
326.1592820278619
 20
174.6017032242249
 30
0.0
 10
328.4251267442062
 20
171.7503321911556
 30
0.0
 10
326.2220095776494
 20
169.1240016934147
 30
0.0
 10
327.5643637683836
 20
167.9619257202257
 30
0.0
 10
328.1075740666462
 20
167.4916685851437
 30
0.0
 11
328.1075740666462
 21
177.4916685851437
 31
0.0
 11
326.8782336890824
 21
174.4672781643655
 31
0.0
 11
327.6504171430522
 21
171.6799800275236
 31
0.0
 11
326.921110611244
 21
168.9783920196694
 31
0.0
 11
328.1075740666462
 21
167.4916685851437
 31
0.0
  0
LINE
  5
E00EDB87
330
E00DEA5D
100
AcDbEntity
  8
JISSEN
100
AcDbLine
 39
1680.364539346804
 10
107.5557066860167
 20
186.091668920453
 30
0.0
 11
106.3057066860094
 21
186.091668920453
 31
0.0
  0
LINE
  5
E00EDB88
330
E00DEA5D
100
AcDbEntity
  8
JISSEN
100
AcDbLine
 39
1680.364539346804
 10
107.5557066860167
 20
185.4916689204544
 30
0.0
 11
106.3057066860258
 21
185.4916689204526
 31
0.0
  0
LINE
  5
E00EDB89
330
E00DEA5D
100
AcDbEntity
  8
JISSEN
100
AcDbLine
 39
1680.364539346804
 10
107.5557066860167
 20
184.5916689204511
 30
0.0
 11
106.3057066860149
 21
184.5916689204511
 31
0.0
  0
LINE
  5
E00EDB8A
330
E00DEA5D
100
AcDbEntity
  8
JISSEN
100
AcDbLine
 39
1680.364539346804
 10
107.5557066860203
 20
188.4916689204544
 30
0.0
 11
106.3057066860294
 21
188.4916689204544
 31
0.0
  0
LINE
  5
E00EDB8B
330
E00DEA5D
100
AcDbEntity
  8
JISSEN
100
AcDbLine
 39
1680.364539346804
 10
107.5557066860203
 20
187.591668920453
 30
0.0
 11
106.305706686013
 21
187.591668920453
 31
0.0
  0
LINE
  5
E00EDB8C
330
E00DEA5D
100
AcDbEntity
  8
JISSEN
100
AcDbLine
 39
1680.364539346804
 10
107.5557066860167
 20
186.9916689204544
 30
0.0
 11
106.3057066860312
 21
186.9916689204544
 31
0.0
  0
LINE
  5
E00EDB8D
330
E00DEA5D
100
AcDbEntity
  8
JISSEN
100
AcDbLine
 39
1680.364539346804
 10
103.8057066860167
 20
184.5916689204511
 30
0.0
 11
92.55570668601672
 21
184.5916689204511
 31
0.0
  0
LINE
  5
E00EDB8E
330
E00DEA5D
100
AcDbEntity
  8
JISSEN
100
AcDbLine
 39
1680.364539346804
 10
103.8057066860167
 20
185.4916689204544
 30
0.0
 11
92.55570668601672
 21
185.4916689204544
 31
0.0
  0
LINE
  5
E00EDB8F
330
E00DEA5D
100
AcDbEntity
  8
JISSEN
100
AcDbLine
 39
1680.364539346804
 10
103.8057066860167
 20
186.091668920453
 30
0.0
 11
92.55570668601672
 21
186.091668920453
 31
0.0
  0
LINE
  5
E00EDB90
330
E00DEA5D
100
AcDbEntity
  8
JISSEN
100
AcDbLine
 39
1680.364539346804
 10
103.8057066860167
 20
187.5916689204548
 30
0.0
 11
92.55570668597124
 21
187.591668920453
 31
0.0
  0
LINE
  5
E00EDB91
330
E00DEA5D
100
AcDbEntity
  8
JISSEN
100
AcDbLine
 39
1680.364539346804
 10
103.8057066860167
 20
186.9916689204562
 30
0.0
 11
92.55570668601672
 21
186.9916689204544
 31
0.0
  0
LINE
  5
E00EDB92
330
E00DEA5D
100
AcDbEntity
  8
JISSEN
100
AcDbLine
 39
1680.364539346804
 10
103.8057066860167
 20
188.4916689204526
 30
0.0
 11
92.55570668597124
 21
188.4916689204508
 31
0.0
  0
LINE
  5
E00EDB93
330
E00DEA5D
100
AcDbEntity
  8
JISSEN
100
AcDbLine
 39
1680.364539346804
 10
72.55570668601672
 20
186.9916689204544
 30
0.0
 11
73.80570668600217
 21
186.9916689204544
 31
0.0
  0
LINE
  5
E00EDB94
330
E00DEA5D
100
AcDbEntity
  8
JISSEN
100
AcDbLine
 39
1680.364539346804
 10
72.55570668601308
 20
187.591668920453
 30
0.0
 11
73.80570668602036
 21
187.591668920453
 31
0.0
  0
LINE
  5
E00EDB95
330
E00DEA5D
100
AcDbEntity
  8
JISSEN
100
AcDbLine
 39
1680.364539346804
 10
72.55570668601308
 20
188.4916689204544
 30
0.0
 11
73.80570668600398
 21
188.4916689204544
 31
0.0
  0
LINE
  5
E00EDB96
330
E00DEA5D
100
AcDbEntity
  8
JISSEN
100
AcDbLine
 39
1680.364539346804
 10
72.55570668601672
 20
184.5916689204511
 30
0.0
 11
73.80570668601854
 21
184.5916689204511
 31
0.0
  0
LINE
  5
E00EDB97
330
E00DEA5D
100
AcDbEntity
  8
JISSEN
100
AcDbLine
 39
1680.364539346804
 10
72.55570668601672
 20
185.4916689204544
 30
0.0
 11
73.80570668600762
 21
185.4916689204526
 31
0.0
  0
LINE
  5
E00EDB98
330
E00DEA5D
100
AcDbEntity
  8
JISSEN
100
AcDbLine
 39
1680.364539346804
 10
72.55570668601672
 20
186.091668920453
 30
0.0
 11
73.80570668602399
 21
186.091668920453
 31
0.0
  0
LINE
  5
E00EDB99
330
E00DEA5D
100
AcDbEntity
  8
JISSEN
100
AcDbLine
 39
1680.364539346804
 10
76.30570668601672
 20
188.4916689204526
 30
0.0
 11
87.55570668606219
 21
188.4916689204508
 31
0.0
  0
LINE
  5
E00EDB9A
330
E00DEA5D
100
AcDbEntity
  8
JISSEN
100
AcDbLine
 39
1680.364539346804
 10
76.30570668601672
 20
186.9916689204562
 30
0.0
 11
87.55570668601672
 21
186.9916689204544
 31
0.0
  0
LINE
  5
E00EDB9B
330
E00DEA5D
100
AcDbEntity
  8
JISSEN
100
AcDbLine
 39
1680.364539346804
 10
76.30570668601672
 20
187.5916689204548
 30
0.0
 11
87.55570668606219
 21
187.591668920453
 31
0.0
  0
LINE
  5
E00EDB9C
330
E00DEA5D
100
AcDbEntity
  8
JISSEN
100
AcDbLine
 39
1680.364539346804
 10
76.30570668601672
 20
186.091668920453
 30
0.0
 11
87.55570668601672
 21
186.091668920453
 31
0.0
  0
LINE
  5
E00EDB9D
330
E00DEA5D
100
AcDbEntity
  8
JISSEN
100
AcDbLine
 39
1680.364539346804
 10
76.30570668601672
 20
185.4916689204544
 30
0.0
 11
87.55570668601672
 21
185.4916689204544
 31
0.0
  0
LINE
  5
E00EDB9E
330
E00DEA5D
100
AcDbEntity
  8
JISSEN
100
AcDbLine
 39
1680.364539346804
 10
76.30570668601672
 20
184.5916689204511
 30
0.0
 11
87.55570668601672
 21
184.5916689204511
 31
0.0
  0
LINE
  5
E00EDB9F
330
E00DEA5D
100
AcDbEntity
  8
JISSEN
100
AcDbLine
 10
103.8057066860167
 20
184.2450982014486
 30
0.0
 11
92.55570668601672
 21
184.2450982014504
 31
0.0
  0
LINE
  5
E00EDBA0
330
E00DEA5D
100
AcDbEntity
  8
JISSEN
100
AcDbLine
 10
76.30570668601672
 20
184.2450982014486
 30
0.0
 11
87.55570668601672
 21
184.2450982014504
 31
0.0
  0
LINE
  5
E00EDBA1
330
E00DEA5D
100
AcDbEntity
  8
JISSEN
100
AcDbLine
 10
72.55570668601672
 20
184.5916689204511
 30
0.0
 11
72.55570668601672
 21
184.2416689204489
 31
0.0
  0
LINE
  5
E00EDBA2
330
E00DEA5D
100
AcDbEntity
  8
JISSEN
100
AcDbLine
 10
73.80570668601672
 20
184.2416689204489
 30
0.0
 11
73.80570668601672
 21
184.5916689204511
 31
0.0
  0
LINE
  5
E00EDBA3
330
E00DEA5D
100
AcDbEntity
  8
JISSEN
100
AcDbLine
 10
73.80570668601672
 20
184.2416689204489
 30
0.0
 11
73.80570668601672
 21
184.5916689204511
 31
0.0
  0
LINE
  5
E00EDBA4
330
E00DEA5D
100
AcDbEntity
  8
JISSEN
100
AcDbLine
 10
72.55570668601672
 20
184.2450982014486
 30
0.0
 11
73.80570668601672
 21
184.2450982014486
 31
0.0
  0
LINE
  5
E00EDBA5
330
E00DEA5D
100
AcDbEntity
  8
JISSEN
100
AcDbLine
 10
72.55570668601672
 20
184.2416689204489
 30
0.0
 11
73.05570668601672
 21
183.741668920449
 31
0.0
  0
SPLINE
  5
E00EDBA6
330
E00DEA5D
100
AcDbEntity
  8
JISSEN
100
AcDbSpline
210
0.0
220
0.0
230
1.0
 70
     8
 71
     3
 72
     8
 73
     4
 74
     0
 42
0.0000000001
 43
0.0000000001
 40
0.0
 40
0.0
 40
0.0
 40
0.0
 40
0.0007108901684311
 40
0.0007108901684311
 40
0.0007108901684311
 40
0.0007108901684311
 10
73.80570668601672
 20
184.2450982014486
 30
0.0
 10
73.95156260497628
 20
184.0784057226371
 30
0.0
 10
74.09743999118314
 20
183.9117382845213
 30
0.0
 10
74.24334080680478
 20
183.7450982014486
 30
0.0
  0
LINE
  5
E00EDBA7
330
E00DEA5D
100
AcDbEntity
  8
JISSEN
100
AcDbLine
 10
72.55570668601672
 20
188.741668920449
 30
0.0
 11
72.55570668601672
 21
188.4916689204526
 31
0.0
  0
LINE
  5
E00EDBA8
330
E00DEA5D
100
AcDbEntity
  8
JISSEN
100
AcDbLine
 10
72.55570668601672
 20
187.591668920453
 30
0.0
 11
72.55570668601672
 21
186.9916689204508
 31
0.0
  0
LINE
  5
E00EDBA9
330
E00DEA5D
100
AcDbEntity
  8
JISSEN
100
AcDbLine
 10
72.55570668601672
 20
187.5916689204511
 30
0.0
 11
72.55570668601672
 21
186.9916689204508
 31
0.0
  0
LINE
  5
E00EDBAA
330
E00DEA5D
100
AcDbEntity
  8
JISSEN
100
AcDbLine
 10
72.55570668601672
 20
187.5916689204511
 30
0.0
 11
72.55570668601672
 21
186.9916689204508
 31
0.0
  0
LINE
  5
E00EDBAB
330
E00DEA5D
100
AcDbEntity
  8
JISSEN
100
AcDbLine
 10
72.55570668601672
 20
187.591668920453
 30
0.0
 11
72.55570668601672
 21
186.9916689204508
 31
0.0
  0
ARC
  5
E00EDBAC
330
E00DEA5D
100
AcDbEntity
  8
JISSEN
100
AcDbCircle
 10
72.3682066860149
 20
188.0416689204519
 30
0.0
 40
0.4875000000000239
100
AcDbArc
 50
292.6198649480738
 51
67.38013505192611
  0
LINE
  5
E00EDBAD
330
E00DEA5D
100
AcDbEntity
  8
JISSEN
100
AcDbLine
 10
72.55570668601672
 20
187.591668920453
 30
0.0
 11
72.55570668601672
 21
186.9916689204544
 31
0.0
  0
LINE
  5
E00EDBAE
330
E00DEA5D
100
AcDbEntity
  8
JISSEN
100
AcDbLine
 10
73.80570668601672
 20
188.4916689204526
 30
0.0
 11
73.80570668601672
 21
188.741668920449
 31
0.0
  0
ARC
  5
E00EDBAF
330
E00DEA5D
100
AcDbEntity
  8
JISSEN
100
AcDbCircle
 10
73.6182066860149
 20
188.04166892045
 30
0.0
 40
0.4875000000000239
100
AcDbArc
 50
292.6198649480738
 51
67.38013505192611
  0
LINE
  5
E00EDBB0
330
E00DEA5D
100
AcDbEntity
  8
JISSEN
100
AcDbLine
 10
73.80570668601672
 20
186.9916689204526
 30
0.0
 11
73.80570668601672
 21
187.5916689204511
 31
0.0
  0
LINE
  5
E00EDBB1
330
E00DEA5D
100
AcDbEntity
  8
JISSEN
100
AcDbLine
 10
73.80570668601672
 20
186.9916689204526
 30
0.0
 11
73.80570668601672
 21
187.5916689204511
 31
0.0
  0
LINE
  5
E00EDBB2
330
E00DEA5D
100
AcDbEntity
  8
JISSEN
100
AcDbLine
 10
72.55570668601672
 20
186.091668920453
 30
0.0
 11
72.55570668601672
 21
185.4916689204544
 31
0.0
  0
ARC
  5
E00EDBB3
330
E00DEA5D
100
AcDbEntity
  8
JISSEN
100
AcDbCircle
 10
72.3682066860149
 20
185.0416689204519
 30
0.0
 40
0.4875000000000239
100
AcDbArc
 50
292.6198649480738
 51
67.38013505192611
  0
LINE
  5
E00EDBB4
330
E00DEA5D
100
AcDbEntity
  8
JISSEN
100
AcDbLine
 10
72.55570668601672
 20
186.0916689204511
 30
0.0
 11
72.55570668601672
 21
185.4916689204508
 31
0.0
  0
LINE
  5
E00EDBB5
330
E00DEA5D
100
AcDbEntity
  8
JISSEN
100
AcDbLine
 10
72.55570668601672
 20
186.0916689204511
 30
0.0
 11
72.5557066860149
 21
185.4916689204508
 31
0.0
  0
LINE
  5
E00EDBB6
330
E00DEA5D
100
AcDbEntity
  8
JISSEN
100
AcDbLine
 10
72.55570668601672
 20
186.091668920453
 30
0.0
 11
72.55570668601672
 21
185.4916689204508
 31
0.0
  0
LINE
  5
E00EDBB7
330
E00DEA5D
100
AcDbEntity
  8
JISSEN
100
AcDbLine
 10
72.55570668601672
 20
186.0916689204511
 30
0.0
 11
72.55570668601672
 21
185.4916689204544
 31
0.0
  0
ARC
  5
E00EDBB8
330
E00DEA5D
100
AcDbEntity
  8
JISSEN
100
AcDbCircle
 10
73.6182066860149
 20
185.04166892045
 30
0.0
 40
0.4875000000000239
100
AcDbArc
 50
292.6198649480738
 51
67.38013505192611
  0
LINE
  5
E00EDBB9
330
E00DEA5D
100
AcDbEntity
  8
JISSEN
100
AcDbLine
 10
73.80570668601672
 20
185.4916689204544
 30
0.0
 11
73.80570668601672
 21
186.091668920453
 31
0.0
  0
LINE
  5
E00EDBBA
330
E00DEA5D
100
AcDbEntity
  8
JISSEN
100
AcDbLine
 10
73.80570668601672
 20
185.4916689204544
 30
0.0
 11
73.80570668601672
 21
186.091668920453
 31
0.0
  0
ARC
  5
E00EDBBB
330
E00DEA5D
100
AcDbEntity
  8
JISSEN
100
AcDbCircle
 10
72.3682066860149
 20
186.5416689204519
 30
0.0
 40
0.4875000000000239
100
AcDbArc
 50
292.6198649480738
 51
67.38013505192611
  0
ARC
  5
E00EDBBC
330
E00DEA5D
100
AcDbEntity
  8
JISSEN
100
AcDbCircle
 10
73.6182066860149
 20
186.5416689204501
 30
0.0
 40
0.4875000000000239
100
AcDbArc
 50
292.6198649480738
 51
67.38013505192611
  0
LINE
  5
E00EDBBD
330
E00DEA5D
100
AcDbEntity
  8
JISSEN
100
AcDbLine
 10
75.11949099284561
 20
183.741668920449
 30
0.0
 11
75.11949099284561
 21
189.607694324233
 31
0.0
  0
LINE
  5
E00EDBBE
330
E00DEA5D
100
AcDbEntity
  8
JISSEN
100
AcDbLine
 10
76.30570668601672
 20
184.5916689204511
 30
0.0
 11
76.30570668601672
 21
184.2416689204489
 31
0.0
  0
SPLINE
  5
E00EDBBF
330
E00DEA5D
100
AcDbEntity
  8
JISSEN
100
AcDbSpline
210
0.0
220
0.0
230
1.0
 70
     8
 71
     3
 72
     8
 73
     4
 74
     0
 42
0.0000000001
 43
0.0000000001
 40
0.0
 40
0.0
 40
0.0
 40
0.0
 40
0.0007108901684311
 40
0.0007108901684311
 40
0.0007108901684311
 40
0.0007108901684311
 10
76.74334080680478
 20
183.741668920449
 30
0.0
 10
76.59743999118314
 20
183.9083090035217
 30
0.0
 10
76.45156260497628
 20
184.0749764416375
 30
0.0
 10
76.30570668601672
 20
184.2416689204489
 30
0.0
  0
LINE
  5
E00EDBC0
330
E00DEA5D
100
AcDbEntity
  8
JISSEN
100
AcDbLine
 10
76.30570668601672
 20
188.741668920449
 30
0.0
 11
76.30570668601695
 21
188.4916689204544
 31
0.0
  0
LINE
  5
E00EDBC1
330
E00DEA5D
100
AcDbEntity
  8
JISSEN
100
AcDbLine
 10
76.30570668601672
 20
187.5916689204548
 30
0.0
 11
76.30570668601672
 21
186.9916689204581
 31
0.0
  0
ARC
  5
E00EDBC2
330
E00DEA5D
100
AcDbEntity
  8
JISSEN
100
AcDbCircle
 10
76.11820668601672
 20
188.0416689204519
 30
0.0
 40
0.4875000000000239
100
AcDbArc
 50
292.6198649480738
 51
67.38013505192611
  0
LINE
  5
E00EDBC3
330
E00DEA5D
100
AcDbEntity
  8
JISSEN
100
AcDbLine
 10
76.30570668601672
 20
186.091668920453
 30
0.0
 11
76.30570668601672
 21
185.4916689204544
 31
0.0
  0
ARC
  5
E00EDBC4
330
E00DEA5D
100
AcDbEntity
  8
JISSEN
100
AcDbCircle
 10
76.11820668601672
 20
185.0416689204519
 30
0.0
 40
0.4875000000000239
100
AcDbArc
 50
292.6198649480738
 51
67.38013505192611
  0
ARC
  5
E00EDBC5
330
E00DEA5D
100
AcDbEntity
  8
JISSEN
100
AcDbCircle
 10
76.11820668601672
 20
186.5416689204519
 30
0.0
 40
0.4875000000000239
100
AcDbArc
 50
292.6198649480738
 51
67.38013505192611
  0
LINE
  5
E00EDBC6
330
E00DEA5D
100
AcDbEntity
  8
JISSEN
100
AcDbLine
 10
87.55570668601672
 20
183.741668920449
 30
0.0
 11
87.55570668601672
 21
189.607694324233
 31
0.0
  0
LINE
  5
E00EDBC7
330
E00DEA5D
100
AcDbEntity
  8
JISSEN
100
AcDbLine
 10
92.55570668601672
 20
183.741668920449
 30
0.0
 11
92.55570668601672
 21
189.607694324233
 31
0.0
  0
LINE
  5
E00EDBC8
330
E00DEA5D
100
AcDbEntity
  8
JISSEN
100
AcDbLine
 10
103.8057066860167
 20
184.5916689204511
 30
0.0
 11
103.8057066860167
 21
184.2416689204489
 31
0.0
  0
LINE
  5
E00EDBC9
330
E00DEA5D
100
AcDbEntity
  8
JISSEN
100
AcDbLine
 10
104.9919223791878
 20
183.741668920449
 30
0.0
 11
104.9919223791878
 21
189.607694324233
 31
0.0
  0
LINE
  5
E00EDBCA
330
E00DEA5D
100
AcDbEntity
  8
JISSEN
100
AcDbLine
 10
106.3057066860167
 20
184.2416689204489
 30
0.0
 11
106.3057066860167
 21
184.5916689204511
 31
0.0
  0
LINE
  5
E00EDBCB
330
E00DEA5D
100
AcDbEntity
  8
JISSEN
100
AcDbLine
 10
106.3057066860167
 20
184.2416689204489
 30
0.0
 11
106.3057066860167
 21
184.5916689204511
 31
0.0
  0
LINE
  5
E00EDBCC
330
E00DEA5D
100
AcDbEntity
  8
JISSEN
100
AcDbLine
 10
107.5557066860167
 20
184.5916689204511
 30
0.0
 11
107.5557066860167
 21
184.2416689204489
 31
0.0
  0
LINE
  5
E00EDBCD
330
E00DEA5D
100
AcDbEntity
  8
JISSEN
100
AcDbLine
 10
107.5557066860167
 20
184.2450982014486
 30
0.0
 11
106.3057066860167
 21
184.2450982014486
 31
0.0
  0
SPLINE
  5
E00EDBCE
330
E00DEA5D
100
AcDbEntity
  8
JISSEN
100
AcDbSpline
210
0.0
220
0.0
230
1.0
 70
     8
 71
     3
 72
     8
 73
     4
 74
     0
 42
0.0000000001
 43
0.0000000001
 40
0.0
 40
0.0
 40
0.0
 40
0.0
 40
0.0007108901684311
 40
0.0007108901684311
 40
0.0007108901684311
 40
0.0007108901684311
 10
103.3680725652286
 20
183.741668920449
 30
0.0
 10
103.5139733808503
 20
183.9083090035217
 30
0.0
 10
103.6598507670571
 20
184.0749764416375
 30
0.0
 10
103.8057066860167
 20
184.2416689204489
 30
0.0
  0
SPLINE
  5
E00EDBCF
330
E00DEA5D
100
AcDbEntity
  8
JISSEN
100
AcDbSpline
210
0.0
220
0.0
230
1.0
 70
     8
 71
     3
 72
     8
 73
     4
 74
     0
 42
0.0000000001
 43
0.0000000001
 40
0.0
 40
0.0
 40
0.0
 40
0.0
 40
0.0007108901684311
 40
0.0007108901684311
 40
0.0007108901684311
 40
0.0007108901684311
 10
106.3057066860167
 20
184.2450982014486
 30
0.0
 10
106.1598507670571
 20
184.0784057226371
 30
0.0
 10
106.0139733808503
 20
183.9117382845213
 30
0.0
 10
105.8680725652286
 20
183.7450982014486
 30
0.0
  0
LINE
  5
E00EDBD0
330
E00DEA5D
100
AcDbEntity
  8
JISSEN
100
AcDbLine
 10
107.5557066860167
 20
184.2416689204489
 30
0.0
 11
107.0557066860167
 21
183.741668920449
 31
0.0
  0
ARC
  5
E00EDBD1
330
E00DEA5D
100
AcDbEntity
  8
JISSEN
100
AcDbCircle
 10
103.9932066860167
 20
185.0416689204519
 30
0.0
 40
0.4875000000000239
100
AcDbArc
 50
112.6198649480738
 51
247.3801350519261
  0
ARC
  5
E00EDBD2
330
E00DEA5D
100
AcDbEntity
  8
JISSEN
100
AcDbCircle
 10
103.9932066860167
 20
186.5416689204519
 30
0.0
 40
0.4875000000000239
100
AcDbArc
 50
112.6198649480738
 51
247.3801350519261
  0
LINE
  5
E00EDBD3
330
E00DEA5D
100
AcDbEntity
  8
JISSEN
100
AcDbLine
 10
103.8057066860167
 20
186.091668920453
 30
0.0
 11
103.8057066860167
 21
185.4916689204544
 31
0.0
  0
ARC
  5
E00EDBD4
330
E00DEA5D
100
AcDbEntity
  8
JISSEN
100
AcDbCircle
 10
103.9932066860167
 20
188.0416689204519
 30
0.0
 40
0.4875000000000239
100
AcDbArc
 50
112.6198649480738
 51
247.3801350519261
  0
LINE
  5
E00EDBD5
330
E00DEA5D
100
AcDbEntity
  8
JISSEN
100
AcDbLine
 10
103.8057066860167
 20
187.5916689204548
 30
0.0
 11
103.8057066860167
 21
186.9916689204581
 31
0.0
  0
LINE
  5
E00EDBD6
330
E00DEA5D
100
AcDbEntity
  8
JISSEN
100
AcDbLine
 10
103.8057066860167
 20
188.741668920449
 30
0.0
 11
103.8057066860164
 21
188.4916689204544
 31
0.0
  0
ARC
  5
E00EDBD7
330
E00DEA5D
100
AcDbEntity
  8
JISSEN
100
AcDbCircle
 10
106.4932066860185
 20
186.5416689204501
 30
0.0
 40
0.4875000000000239
100
AcDbArc
 50
112.6198649480738
 51
247.3801350519261
  0
LINE
  5
E00EDBD8
330
E00DEA5D
100
AcDbEntity
  8
JISSEN
100
AcDbLine
 10
106.3057066860167
 20
185.4916689204544
 30
0.0
 11
106.3057066860167
 21
186.091668920453
 31
0.0
  0
LINE
  5
E00EDBD9
330
E00DEA5D
100
AcDbEntity
  8
JISSEN
100
AcDbLine
 10
106.3057066860167
 20
185.4916689204544
 30
0.0
 11
106.3057066860167
 21
186.091668920453
 31
0.0
  0
ARC
  5
E00EDBDA
330
E00DEA5D
100
AcDbEntity
  8
JISSEN
100
AcDbCircle
 10
106.4932066860185
 20
185.04166892045
 30
0.0
 40
0.4875000000000239
100
AcDbArc
 50
112.6198649480738
 51
247.3801350519261
  0
LINE
  5
E00EDBDB
330
E00DEA5D
100
AcDbEntity
  8
JISSEN
100
AcDbLine
 10
106.3057066860167
 20
186.9916689204526
 30
0.0
 11
106.3057066860167
 21
187.5916689204511
 31
0.0
  0
LINE
  5
E00EDBDC
330
E00DEA5D
100
AcDbEntity
  8
JISSEN
100
AcDbLine
 10
106.3057066860167
 20
186.9916689204526
 30
0.0
 11
106.3057066860167
 21
187.5916689204511
 31
0.0
  0
ARC
  5
E00EDBDD
330
E00DEA5D
100
AcDbEntity
  8
JISSEN
100
AcDbCircle
 10
106.4932066860185
 20
188.04166892045
 30
0.0
 40
0.4875000000000239
100
AcDbArc
 50
112.6198649480738
 51
247.3801350519261
  0
LINE
  5
E00EDBDE
330
E00DEA5D
100
AcDbEntity
  8
JISSEN
100
AcDbLine
 10
106.3057066860167
 20
188.4916689204526
 30
0.0
 11
106.3057066860167
 21
188.741668920449
 31
0.0
  0
ARC
  5
E00EDBDF
330
E00DEA5D
100
AcDbEntity
  8
JISSEN
100
AcDbCircle
 10
107.7432066860185
 20
186.5416689204519
 30
0.0
 40
0.4875000000000239
100
AcDbArc
 50
112.6198649480738
 51
247.3801350519261
  0
LINE
  5
E00EDBE0
330
E00DEA5D
100
AcDbEntity
  8
JISSEN
100
AcDbLine
 10
107.5557066860167
 20
186.0916689204511
 30
0.0
 11
107.5557066860167
 21
185.4916689204544
 31
0.0
  0
LINE
  5
E00EDBE1
330
E00DEA5D
100
AcDbEntity
  8
JISSEN
100
AcDbLine
 10
107.5557066860167
 20
186.091668920453
 30
0.0
 11
107.5557066860167
 21
185.4916689204508
 31
0.0
  0
LINE
  5
E00EDBE2
330
E00DEA5D
100
AcDbEntity
  8
JISSEN
100
AcDbLine
 10
107.5557066860167
 20
186.0916689204511
 30
0.0
 11
107.5557066860185
 21
185.4916689204508
 31
0.0
  0
LINE
  5
E00EDBE3
330
E00DEA5D
100
AcDbEntity
  8
JISSEN
100
AcDbLine
 10
107.5557066860167
 20
186.0916689204511
 30
0.0
 11
107.5557066860167
 21
185.4916689204508
 31
0.0
  0
ARC
  5
E00EDBE4
330
E00DEA5D
100
AcDbEntity
  8
JISSEN
100
AcDbCircle
 10
107.7432066860185
 20
185.0416689204519
 30
0.0
 40
0.4875000000000239
100
AcDbArc
 50
112.6198649480738
 51
247.3801350519261
  0
LINE
  5
E00EDBE5
330
E00DEA5D
100
AcDbEntity
  8
JISSEN
100
AcDbLine
 10
107.5557066860167
 20
186.091668920453
 30
0.0
 11
107.5557066860167
 21
185.4916689204544
 31
0.0
  0
LINE
  5
E00EDBE6
330
E00DEA5D
100
AcDbEntity
  8
JISSEN
100
AcDbLine
 10
107.5557066860167
 20
187.591668920453
 30
0.0
 11
107.5557066860167
 21
186.9916689204544
 31
0.0
  0
ARC
  5
E00EDBE7
330
E00DEA5D
100
AcDbEntity
  8
JISSEN
100
AcDbCircle
 10
107.7432066860185
 20
188.0416689204519
 30
0.0
 40
0.4875000000000239
100
AcDbArc
 50
112.6198649480738
 51
247.3801350519261
  0
LINE
  5
E00EDBE8
330
E00DEA5D
100
AcDbEntity
  8
JISSEN
100
AcDbLine
 10
107.5557066860167
 20
187.591668920453
 30
0.0
 11
107.5557066860167
 21
186.9916689204508
 31
0.0
  0
LINE
  5
E00EDBE9
330
E00DEA5D
100
AcDbEntity
  8
JISSEN
100
AcDbLine
 10
107.5557066860167
 20
187.5916689204511
 30
0.0
 11
107.5557066860167
 21
186.9916689204508
 31
0.0
  0
LINE
  5
E00EDBEA
330
E00DEA5D
100
AcDbEntity
  8
JISSEN
100
AcDbLine
 10
107.5557066860167
 20
187.5916689204511
 30
0.0
 11
107.5557066860167
 21
186.9916689204508
 31
0.0
  0
LINE
  5
E00EDBEB
330
E00DEA5D
100
AcDbEntity
  8
JISSEN
100
AcDbLine
 10
107.5557066860167
 20
187.591668920453
 30
0.0
 11
107.5557066860167
 21
186.9916689204508
 31
0.0
  0
LINE
  5
E00EDBEC
330
E00DEA5D
100
AcDbEntity
  8
JISSEN
100
AcDbLine
 10
107.5557066860167
 20
188.741668920449
 30
0.0
 11
107.5557066860167
 21
188.4916689204526
 31
0.0
  0
LINE
  5
E00EDBED
330
E00DEA5D
100
AcDbEntity
  8
JISSEN
100
AcDbLine
 10
90.05570668601672
 20
183.741668920449
 30
0.0
 11
103.3680725652177
 21
183.741668920449
 31
0.0
  0
LINE
  5
E00EDBEE
330
E00DEA5D
100
AcDbEntity
  8
JISSEN
100
AcDbLine
 10
90.05570668601672
 20
183.741668920449
 30
0.0
 11
76.74334080681569
 21
183.741668920449
 31
0.0
  0
LINE
  5
E00EDBEF
330
E00DEA5D
100
AcDbEntity
  8
JISSEN
100
AcDbLine
 10
75.11949099291655
 20
183.741668920449
 30
0.0
 11
76.74334080681569
 21
183.741668920449
 31
0.0
  0
LINE
  5
E00EDBF0
330
E00DEA5D
100
AcDbEntity
  8
JISSEN
100
AcDbLine
 39
1680.364539346804
 10
72.55570668601672
 20
188.741668920449
 30
0.0
 11
73.80570668601672
 21
188.741668920449
 31
0.0
  0
LINE
  5
E00EDBF1
330
E00DEA5D
100
AcDbEntity
  8
JISSEN
100
AcDbLine
 10
74.28775749359942
 20
189.741668920449
 30
0.0
 11
90.05570668601672
 21
189.741668920449
 31
0.0
  0
SPLINE
  5
E00EDBF2
330
E00DEA5D
100
AcDbEntity
  8
JISSEN
100
AcDbSpline
210
0.0
220
0.0
230
1.0
 70
     8
 71
     3
 72
     8
 73
     4
 74
     0
 42
0.0000000001
 43
0.0000000001
 40
0.000000403112789
 40
0.000000403112789
 40
0.000000403112789
 40
0.000000403112789
 40
0.0017472208689273
 40
0.0017472208689273
 40
0.0017472208689273
 40
0.0017472208689273
 10
73.80570668601672
 20
188.741668920449
 30
0.0
 10
74.24352944810767
 20
189.0305570227935
 30
0.0
 10
74.68144770573985
 20
189.3192522991264
 30
0.0
 10
75.11949099284561
 20
189.607694324233
 30
0.0
  0
LINE
  5
E00EDBF3
330
E00DEA5D
100
AcDbEntity
  8
JISSEN
100
AcDbLine
 10
74.24334080681569
 20
183.741668920449
 30
0.0
 11
75.11949099291655
 21
183.741668920449
 31
0.0
  0
LINE
  5
E00EDBF4
330
E00DEA5D
100
AcDbEntity
  8
JISSEN
100
AcDbLine
 10
74.24334080681569
 20
183.741668920449
 30
0.0
 11
73.05570668601672
 21
183.741668920449
 31
0.0
  0
LINE
  5
E00EDBF5
330
E00DEA5D
100
AcDbEntity
  8
JISSEN
100
AcDbLine
 10
74.28775749360124
 20
189.741668920449
 30
0.0
 11
72.55570668601672
 21
188.7416689204471
 31
0.0
  0
LINE
  5
E00EDBF6
330
E00DEA5D
100
AcDbEntity
  8
JISSEN
100
AcDbLine
 10
73.80570668601672
 20
188.691668920457
 30
0.0
 11
73.80570668601672
 21
188.741668920449
 31
0.0
  0
SPLINE
  5
E00EDBF7
330
E00DEA5D
100
AcDbEntity
  8
JISSEN
100
AcDbSpline
210
0.0
220
0.0
230
1.0
 70
     8
 71
     3
 72
     8
 73
     4
 74
     0
 42
0.0000000001
 43
0.0000000001
 40
0.0000002658515791
 40
0.0000002658515791
 40
0.0000002658515791
 40
0.0000002658515791
 40
0.0017470836077175
 40
0.0017470836077175
 40
0.0017470836077175
 40
0.0017470836077175
 10
77.61949099284561
 20
189.607694324233
 30
0.0
 10
77.18144770573985
 20
189.3192522991264
 30
0.0
 10
76.74352944810767
 20
189.0305570227935
 30
0.0
 10
76.30570668601672
 20
188.741668920449
 30
0.0
  0
LINE
  5
E00EDBF8
330
E00DEA5D
100
AcDbEntity
  8
JISSEN
100
AcDbLine
 10
75.11949099284561
 20
189.607694324233
 30
0.0
 11
77.61949099284561
 21
189.607694324233
 31
0.0
  0
LINE
  5
E00EDBF9
330
E00DEA5D
100
AcDbEntity
  8
JISSEN
100
AcDbLine
 39
1680.364539346804
 10
107.5557066860167
 20
188.741668920449
 30
0.0
 11
106.3057066860167
 21
188.741668920449
 31
0.0
  0
LINE
  5
E00EDBFA
330
E00DEA5D
100
AcDbEntity
  8
JISSEN
100
AcDbLine
 39
1680.364539346804
 10
103.8057066860167
 20
188.7416689205345
 30
0.0
 11
92.55570668597124
 21
188.7416689205326
 31
0.0
  0
LINE
  5
E00EDBFB
330
E00DEA5D
100
AcDbEntity
  8
JISSEN
100
AcDbLine
 10
87.55570668601672
 20
189.607694324233
 30
0.0
 11
90.05570668601672
 21
189.607694324233
 31
0.0
  0
LINE
  5
E00EDBFC
330
E00DEA5D
100
AcDbEntity
  8
JISSEN
100
AcDbLine
 10
92.55570668601672
 20
189.607694324233
 30
0.0
 11
90.05570668601672
 21
189.607694324233
 31
0.0
  0
LINE
  5
E00EDBFD
330
E00DEA5D
100
AcDbEntity
  8
JISSEN
100
AcDbLine
 10
104.9919223791878
 20
189.607694324233
 30
0.0
 11
102.4919223791878
 21
189.607694324233
 31
0.0
  0
SPLINE
  5
E00EDBFE
330
E00DEA5D
100
AcDbEntity
  8
JISSEN
100
AcDbSpline
210
0.0
220
0.0
230
1.0
 70
     8
 71
     3
 72
     8
 73
     4
 74
     0
 42
0.0000000001
 43
0.0000000001
 40
0.0000002658515791
 40
0.0000002658515791
 40
0.0000002658515791
 40
0.0000002658515791
 40
0.0017470836077175
 40
0.0017470836077175
 40
0.0017470836077175
 40
0.0017470836077175
 10
102.4919223791878
 20
189.607694324233
 30
0.0
 10
102.9299656662935
 20
189.3192522991264
 30
0.0
 10
103.3678839239257
 20
189.0305570227935
 30
0.0
 10
103.8057066860167
 20
188.741668920449
 30
0.0
  0
LINE
  5
E00EDBFF
330
E00DEA5D
100
AcDbEntity
  8
JISSEN
100
AcDbLine
 10
105.8236558784321
 20
189.741668920449
 30
0.0
 11
107.5557066860167
 21
188.7416689204471
 31
0.0
  0
LINE
  5
E00EDC00
330
E00DEA5D
100
AcDbEntity
  8
JISSEN
100
AcDbLine
 10
106.3057066860167
 20
188.691668920457
 30
0.0
 11
106.3057066860167
 21
188.741668920449
 31
0.0
  0
SPLINE
  5
E00EDC01
330
E00DEA5D
100
AcDbEntity
  8
JISSEN
100
AcDbSpline
210
0.0
220
0.0
230
1.0
 70
     8
 71
     3
 72
     8
 73
     4
 74
     0
 42
0.0000000001
 43
0.0000000001
 40
0.000000403112789
 40
0.000000403112789
 40
0.000000403112789
 40
0.000000403112789
 40
0.0017472208689273
 40
0.0017472208689273
 40
0.0017472208689273
 40
0.0017472208689273
 10
106.3057066860167
 20
188.741668920449
 30
0.0
 10
105.8678839239257
 20
189.0305570227935
 30
0.0
 10
105.4299656662935
 20
189.3192522991264
 30
0.0
 10
104.9919223791878
 20
189.607694324233
 30
0.0
  0
LINE
  5
E00EDC02
330
E00DEA5D
100
AcDbEntity
  8
JISSEN
100
AcDbLine
 10
107.5557066860167
 20
188.741668920449
 30
0.0
 11
107.5557066860167
 21
188.6916689204497
 31
0.0
  0
LINE
  5
E00EDC03
330
E00DEA5D
100
AcDbEntity
  8
JISSEN
100
AcDbLine
 10
107.5557066860167
 20
188.741668920449
 30
0.0
 11
107.5557066860167
 21
188.6916689204497
 31
0.0
  0
LINE
  5
E00EDC04
330
E00DEA5D
100
AcDbEntity
  8
JISSEN
100
AcDbLine
 10
105.823655878434
 20
189.741668920449
 30
0.0
 11
90.05570668601672
 21
189.741668920449
 31
0.0
  0
LINE
  5
E00EDC05
330
E00DEA5D
100
AcDbEntity
  8
JISSEN
100
AcDbLine
 10
105.8680725652177
 20
183.741668920449
 30
0.0
 11
107.0557066860167
 21
183.741668920449
 31
0.0
  0
LINE
  5
E00EDC06
330
E00DEA5D
100
AcDbEntity
  8
JISSEN
100
AcDbLine
 10
105.8680725652177
 20
183.741668920449
 30
0.0
 11
104.9919223791168
 21
183.741668920449
 31
0.0
  0
LINE
  5
E00EDC07
330
E00DEA5D
100
AcDbEntity
  8
JISSEN
100
AcDbLine
 10
104.9919223791168
 20
183.741668920449
 30
0.0
 11
103.3680725652177
 21
183.741668920449
 31
0.0
  0
LINE
  5
E00EDC8D
330
E00DEA5D
100
AcDbEntity
  8
JISSEN
100
AcDbLine
 39
1680.364539346804
 10
288.5557059620166
 20
186.0916689204511
 30
0.0
 11
287.3057059620093
 21
186.0916689204511
 31
0.0
  0
LINE
  5
E00EDC8E
330
E00DEA5D
100
AcDbEntity
  8
JISSEN
100
AcDbLine
 39
1680.364539346804
 10
288.5557059620166
 20
185.4916689204526
 30
0.0
 11
287.3057059620257
 21
185.4916689204508
 31
0.0
  0
LINE
  5
E00EDC8F
330
E00DEA5D
100
AcDbEntity
  8
JISSEN
100
AcDbLine
 39
1680.364539346804
 10
288.5557059620166
 20
184.5916689204493
 30
0.0
 11
287.3057059620148
 21
184.5916689204493
 31
0.0
  0
LINE
  5
E00EDC90
330
E00DEA5D
100
AcDbEntity
  8
JISSEN
100
AcDbLine
 39
1680.364539346804
 10
288.5557059620202
 20
188.4916689204526
 30
0.0
 11
287.3057059620293
 21
188.4916689204526
 31
0.0
  0
LINE
  5
E00EDC91
330
E00DEA5D
100
AcDbEntity
  8
JISSEN
100
AcDbLine
 39
1680.364539346804
 10
288.5557059620202
 20
187.5916689204511
 30
0.0
 11
287.305705962013
 21
187.5916689204511
 31
0.0
  0
LINE
  5
E00EDC92
330
E00DEA5D
100
AcDbEntity
  8
JISSEN
100
AcDbLine
 39
1680.364539346804
 10
288.5557059620166
 20
186.9916689204526
 30
0.0
 11
287.3057059620311
 21
186.9916689204526
 31
0.0
  0
LINE
  5
E00EDC93
330
E00DEA5D
100
AcDbEntity
  8
JISSEN
100
AcDbLine
 39
1680.364539346804
 10
284.8057059620166
 20
184.5916689204493
 30
0.0
 11
273.5557059620166
 21
184.5916689204493
 31
0.0
  0
LINE
  5
E00EDC94
330
E00DEA5D
100
AcDbEntity
  8
JISSEN
100
AcDbLine
 39
1680.364539346804
 10
284.8057059620166
 20
185.4916689204526
 30
0.0
 11
273.5557059620166
 21
185.4916689204526
 31
0.0
  0
LINE
  5
E00EDC95
330
E00DEA5D
100
AcDbEntity
  8
JISSEN
100
AcDbLine
 39
1680.364539346804
 10
284.8057059620166
 20
186.0916689204511
 30
0.0
 11
273.5557059620166
 21
186.0916689204511
 31
0.0
  0
LINE
  5
E00EDC96
330
E00DEA5D
100
AcDbEntity
  8
JISSEN
100
AcDbLine
 39
1680.364539346804
 10
284.8057059620166
 20
187.591668920453
 30
0.0
 11
273.5557059619711
 21
187.5916689204511
 31
0.0
  0
LINE
  5
E00EDC97
330
E00DEA5D
100
AcDbEntity
  8
JISSEN
100
AcDbLine
 39
1680.364539346804
 10
284.8057059620166
 20
186.9916689204544
 30
0.0
 11
273.5557059620166
 21
186.9916689204526
 31
0.0
  0
LINE
  5
E00EDC98
330
E00DEA5D
100
AcDbEntity
  8
JISSEN
100
AcDbLine
 39
1680.364539346804
 10
284.8057059620166
 20
188.4916689204508
 30
0.0
 11
273.5557059619711
 21
188.4916689204489
 31
0.0
  0
LINE
  5
E00EDC99
330
E00DEA5D
100
AcDbEntity
  8
JISSEN
100
AcDbLine
 39
1680.364539346804
 10
253.5557059620166
 20
186.9916689204526
 30
0.0
 11
254.805705962002
 21
186.9916689204526
 31
0.0
  0
LINE
  5
E00EDC9A
330
E00DEA5D
100
AcDbEntity
  8
JISSEN
100
AcDbLine
 39
1680.364539346804
 10
253.555705962013
 20
187.5916689204511
 30
0.0
 11
254.8057059620203
 21
187.5916689204511
 31
0.0
  0
LINE
  5
E00EDC9B
330
E00DEA5D
100
AcDbEntity
  8
JISSEN
100
AcDbLine
 39
1680.364539346804
 10
253.555705962013
 20
188.4916689204526
 30
0.0
 11
254.8057059620039
 21
188.4916689204526
 31
0.0
  0
LINE
  5
E00EDC9C
330
E00DEA5D
100
AcDbEntity
  8
JISSEN
100
AcDbLine
 39
1680.364539346804
 10
253.5557059620166
 20
184.5916689204493
 30
0.0
 11
254.8057059620184
 21
184.5916689204493
 31
0.0
  0
LINE
  5
E00EDC9D
330
E00DEA5D
100
AcDbEntity
  8
JISSEN
100
AcDbLine
 39
1680.364539346804
 10
253.5557059620166
 20
185.4916689204526
 30
0.0
 11
254.8057059620075
 21
185.4916689204508
 31
0.0
  0
LINE
  5
E00EDC9E
330
E00DEA5D
100
AcDbEntity
  8
JISSEN
100
AcDbLine
 39
1680.364539346804
 10
253.5557059620166
 20
186.0916689204511
 30
0.0
 11
254.8057059620239
 21
186.0916689204511
 31
0.0
  0
LINE
  5
E00EDC9F
330
E00DEA5D
100
AcDbEntity
  8
JISSEN
100
AcDbLine
 39
1680.364539346804
 10
257.3057059620166
 20
188.4916689204508
 30
0.0
 11
268.5557059620621
 21
188.4916689204489
 31
0.0
  0
LINE
  5
E00EDCA0
330
E00DEA5D
100
AcDbEntity
  8
JISSEN
100
AcDbLine
 39
1680.364539346804
 10
257.3057059620166
 20
186.9916689204544
 30
0.0
 11
268.5557059620166
 21
186.9916689204526
 31
0.0
  0
LINE
  5
E00EDCA1
330
E00DEA5D
100
AcDbEntity
  8
JISSEN
100
AcDbLine
 39
1680.364539346804
 10
257.3057059620166
 20
187.591668920453
 30
0.0
 11
268.5557059620621
 21
187.5916689204511
 31
0.0
  0
LINE
  5
E00EDCA2
330
E00DEA5D
100
AcDbEntity
  8
JISSEN
100
AcDbLine
 39
1680.364539346804
 10
257.3057059620166
 20
186.0916689204511
 30
0.0
 11
268.5557059620166
 21
186.0916689204511
 31
0.0
  0
LINE
  5
E00EDCA3
330
E00DEA5D
100
AcDbEntity
  8
JISSEN
100
AcDbLine
 39
1680.364539346804
 10
257.3057059620166
 20
185.4916689204526
 30
0.0
 11
268.5557059620166
 21
185.4916689204526
 31
0.0
  0
LINE
  5
E00EDCA4
330
E00DEA5D
100
AcDbEntity
  8
JISSEN
100
AcDbLine
 39
1680.364539346804
 10
257.3057059620166
 20
184.5916689204493
 30
0.0
 11
268.5557059620166
 21
184.5916689204493
 31
0.0
  0
LINE
  5
E00EDCA5
330
E00DEA5D
100
AcDbEntity
  8
JISSEN
100
AcDbLine
 10
284.8057059620166
 20
184.2450982014468
 30
0.0
 11
273.5557059620166
 21
184.2450982014486
 31
0.0
  0
LINE
  5
E00EDCA6
330
E00DEA5D
100
AcDbEntity
  8
JISSEN
100
AcDbLine
 10
257.3057059620166
 20
184.2450982014468
 30
0.0
 11
268.5557059620166
 21
184.2450982014486
 31
0.0
  0
LINE
  5
E00EDCA7
330
E00DEA5D
100
AcDbEntity
  8
JISSEN
100
AcDbLine
 10
253.5557059620166
 20
184.5916689204493
 30
0.0
 11
253.5557059620166
 21
184.2416689204471
 31
0.0
  0
LINE
  5
E00EDCA8
330
E00DEA5D
100
AcDbEntity
  8
JISSEN
100
AcDbLine
 10
254.8057059620166
 20
184.2416689204471
 30
0.0
 11
254.8057059620166
 21
184.5916689204493
 31
0.0
  0
LINE
  5
E00EDCA9
330
E00DEA5D
100
AcDbEntity
  8
JISSEN
100
AcDbLine
 10
254.8057059620166
 20
184.2416689204471
 30
0.0
 11
254.8057059620166
 21
184.5916689204493
 31
0.0
  0
LINE
  5
E00EDCAA
330
E00DEA5D
100
AcDbEntity
  8
JISSEN
100
AcDbLine
 10
253.5557059620166
 20
184.2450982014468
 30
0.0
 11
254.8057059620166
 21
184.2450982014468
 31
0.0
  0
LINE
  5
E00EDCAB
330
E00DEA5D
100
AcDbEntity
  8
JISSEN
100
AcDbLine
 10
253.5557059620166
 20
184.2416689204471
 30
0.0
 11
254.0557059620166
 21
183.7416689204471
 31
0.0
  0
SPLINE
  5
E00EDCAC
330
E00DEA5D
100
AcDbEntity
  8
JISSEN
100
AcDbSpline
210
0.0
220
0.0
230
1.0
 70
     8
 71
     3
 72
     8
 73
     4
 74
     0
 42
0.0000000001
 43
0.0000000001
 40
0.0
 40
0.0
 40
0.0
 40
0.0
 40
0.0007108901684311
 40
0.0007108901684311
 40
0.0007108901684311
 40
0.0007108901684311
 10
254.8057059620166
 20
184.2450982014468
 30
0.0
 10
254.9515618809762
 20
184.0784057226353
 30
0.0
 10
255.097439267183
 20
183.9117382845195
 30
0.0
 10
255.2433400828046
 20
183.7450982014468
 30
0.0
  0
LINE
  5
E00EDCAD
330
E00DEA5D
100
AcDbEntity
  8
JISSEN
100
AcDbLine
 10
253.5557059620166
 20
188.7416689204471
 30
0.0
 11
253.5557059620166
 21
188.4916689204508
 31
0.0
  0
LINE
  5
E00EDCAE
330
E00DEA5D
100
AcDbEntity
  8
JISSEN
100
AcDbLine
 10
253.5557059620166
 20
187.5916689204511
 30
0.0
 11
253.5557059620166
 21
186.991668920449
 31
0.0
  0
LINE
  5
E00EDCAF
330
E00DEA5D
100
AcDbEntity
  8
JISSEN
100
AcDbLine
 10
253.5557059620166
 20
187.5916689204493
 30
0.0
 11
253.5557059620166
 21
186.991668920449
 31
0.0
  0
LINE
  5
E00EDCB0
330
E00DEA5D
100
AcDbEntity
  8
JISSEN
100
AcDbLine
 10
253.5557059620166
 20
187.5916689204493
 30
0.0
 11
253.5557059620166
 21
186.991668920449
 31
0.0
  0
LINE
  5
E00EDCB1
330
E00DEA5D
100
AcDbEntity
  8
JISSEN
100
AcDbLine
 10
253.5557059620166
 20
187.5916689204511
 30
0.0
 11
253.5557059620166
 21
186.991668920449
 31
0.0
  0
ARC
  5
E00EDCB2
330
E00DEA5D
100
AcDbEntity
  8
JISSEN
100
AcDbCircle
 10
253.3682059620148
 20
188.04166892045
 30
0.0
 40
0.4875000000000239
100
AcDbArc
 50
292.6198649480738
 51
67.38013505192611
  0
LINE
  5
E00EDCB3
330
E00DEA5D
100
AcDbEntity
  8
JISSEN
100
AcDbLine
 10
253.5557059620166
 20
187.5916689204511
 30
0.0
 11
253.5557059620166
 21
186.9916689204526
 31
0.0
  0
LINE
  5
E00EDCB4
330
E00DEA5D
100
AcDbEntity
  8
JISSEN
100
AcDbLine
 10
254.8057059620166
 20
188.4916689204508
 30
0.0
 11
254.8057059620166
 21
188.7416689204471
 31
0.0
  0
ARC
  5
E00EDCB5
330
E00DEA5D
100
AcDbEntity
  8
JISSEN
100
AcDbCircle
 10
254.6182059620148
 20
188.0416689204482
 30
0.0
 40
0.4875000000000239
100
AcDbArc
 50
292.6198649480738
 51
67.38013505192611
  0
LINE
  5
E00EDCB6
330
E00DEA5D
100
AcDbEntity
  8
JISSEN
100
AcDbLine
 10
254.8057059620166
 20
186.9916689204508
 30
0.0
 11
254.8057059620166
 21
187.5916689204493
 31
0.0
  0
LINE
  5
E00EDCB7
330
E00DEA5D
100
AcDbEntity
  8
JISSEN
100
AcDbLine
 10
254.8057059620166
 20
186.9916689204508
 30
0.0
 11
254.8057059620166
 21
187.5916689204493
 31
0.0
  0
LINE
  5
E00EDCB8
330
E00DEA5D
100
AcDbEntity
  8
JISSEN
100
AcDbLine
 10
253.5557059620166
 20
186.0916689204511
 30
0.0
 11
253.5557059620166
 21
185.4916689204526
 31
0.0
  0
ARC
  5
E00EDCB9
330
E00DEA5D
100
AcDbEntity
  8
JISSEN
100
AcDbCircle
 10
253.3682059620148
 20
185.04166892045
 30
0.0
 40
0.4875000000000239
100
AcDbArc
 50
292.6198649480738
 51
67.38013505192611
  0
LINE
  5
E00EDCBA
330
E00DEA5D
100
AcDbEntity
  8
JISSEN
100
AcDbLine
 10
253.5557059620166
 20
186.0916689204493
 30
0.0
 11
253.5557059620166
 21
185.491668920449
 31
0.0
  0
LINE
  5
E00EDCBB
330
E00DEA5D
100
AcDbEntity
  8
JISSEN
100
AcDbLine
 10
253.5557059620166
 20
186.0916689204493
 30
0.0
 11
253.5557059620148
 21
185.491668920449
 31
0.0
  0
LINE
  5
E00EDCBC
330
E00DEA5D
100
AcDbEntity
  8
JISSEN
100
AcDbLine
 10
253.5557059620166
 20
186.0916689204511
 30
0.0
 11
253.5557059620166
 21
185.491668920449
 31
0.0
  0
LINE
  5
E00EDCBD
330
E00DEA5D
100
AcDbEntity
  8
JISSEN
100
AcDbLine
 10
253.5557059620166
 20
186.0916689204493
 30
0.0
 11
253.5557059620166
 21
185.4916689204526
 31
0.0
  0
ARC
  5
E00EDCBE
330
E00DEA5D
100
AcDbEntity
  8
JISSEN
100
AcDbCircle
 10
254.6182059620148
 20
185.0416689204482
 30
0.0
 40
0.4875000000000239
100
AcDbArc
 50
292.6198649480738
 51
67.38013505192611
  0
LINE
  5
E00EDCBF
330
E00DEA5D
100
AcDbEntity
  8
JISSEN
100
AcDbLine
 10
254.8057059620166
 20
185.4916689204526
 30
0.0
 11
254.8057059620166
 21
186.0916689204511
 31
0.0
  0
LINE
  5
E00EDCC0
330
E00DEA5D
100
AcDbEntity
  8
JISSEN
100
AcDbLine
 10
254.8057059620166
 20
185.4916689204526
 30
0.0
 11
254.8057059620166
 21
186.0916689204511
 31
0.0
  0
ARC
  5
E00EDCC1
330
E00DEA5D
100
AcDbEntity
  8
JISSEN
100
AcDbCircle
 10
253.3682059620148
 20
186.5416689204501
 30
0.0
 40
0.4875000000000239
100
AcDbArc
 50
292.6198649480738
 51
67.38013505192611
  0
ARC
  5
E00EDCC2
330
E00DEA5D
100
AcDbEntity
  8
JISSEN
100
AcDbCircle
 10
254.6182059620148
 20
186.5416689204482
 30
0.0
 40
0.4875000000000239
100
AcDbArc
 50
292.6198649480738
 51
67.38013505192611
  0
LINE
  5
E00EDCC3
330
E00DEA5D
100
AcDbEntity
  8
JISSEN
100
AcDbLine
 10
256.1194902688455
 20
183.7416689204471
 30
0.0
 11
256.1194902688455
 21
189.6076943242312
 31
0.0
  0
LINE
  5
E00EDCC4
330
E00DEA5D
100
AcDbEntity
  8
JISSEN
100
AcDbLine
 10
257.3057059620166
 20
184.5916689204493
 30
0.0
 11
257.3057059620166
 21
184.2416689204471
 31
0.0
  0
SPLINE
  5
E00EDCC5
330
E00DEA5D
100
AcDbEntity
  8
JISSEN
100
AcDbSpline
210
0.0
220
0.0
230
1.0
 70
     8
 71
     3
 72
     8
 73
     4
 74
     0
 42
0.0000000001
 43
0.0000000001
 40
0.0
 40
0.0
 40
0.0
 40
0.0
 40
0.0007108901684311
 40
0.0007108901684311
 40
0.0007108901684311
 40
0.0007108901684311
 10
257.7433400828047
 20
183.7416689204471
 30
0.0
 10
257.597439267183
 20
183.9083090035198
 30
0.0
 10
257.4515618809761
 20
184.0749764416357
 30
0.0
 10
257.3057059620166
 20
184.2416689204471
 30
0.0
  0
LINE
  5
E00EDCC6
330
E00DEA5D
100
AcDbEntity
  8
JISSEN
100
AcDbLine
 10
257.3057059620166
 20
188.7416689204471
 30
0.0
 11
257.3057059620168
 21
188.4916689204526
 31
0.0
  0
LINE
  5
E00EDCC7
330
E00DEA5D
100
AcDbEntity
  8
JISSEN
100
AcDbLine
 10
257.3057059620166
 20
187.591668920453
 30
0.0
 11
257.3057059620166
 21
186.9916689204562
 31
0.0
  0
ARC
  5
E00EDCC8
330
E00DEA5D
100
AcDbEntity
  8
JISSEN
100
AcDbCircle
 10
257.1182059620166
 20
188.04166892045
 30
0.0
 40
0.4875000000000239
100
AcDbArc
 50
292.6198649480738
 51
67.38013505192611
  0
LINE
  5
E00EDCC9
330
E00DEA5D
100
AcDbEntity
  8
JISSEN
100
AcDbLine
 10
257.3057059620166
 20
186.0916689204511
 30
0.0
 11
257.3057059620166
 21
185.4916689204526
 31
0.0
  0
ARC
  5
E00EDCCA
330
E00DEA5D
100
AcDbEntity
  8
JISSEN
100
AcDbCircle
 10
257.1182059620166
 20
185.04166892045
 30
0.0
 40
0.4875000000000239
100
AcDbArc
 50
292.6198649480738
 51
67.38013505192611
  0
ARC
  5
E00EDCCB
330
E00DEA5D
100
AcDbEntity
  8
JISSEN
100
AcDbCircle
 10
257.1182059620166
 20
186.5416689204501
 30
0.0
 40
0.4875000000000239
100
AcDbArc
 50
292.6198649480738
 51
67.38013505192611
  0
LINE
  5
E00EDCCC
330
E00DEA5D
100
AcDbEntity
  8
JISSEN
100
AcDbLine
 10
268.5557059620166
 20
183.7416689204471
 30
0.0
 11
268.5557059620166
 21
189.6076943242312
 31
0.0
  0
LINE
  5
E00EDCCD
330
E00DEA5D
100
AcDbEntity
  8
JISSEN
100
AcDbLine
 10
273.5557059620166
 20
183.7416689204471
 30
0.0
 11
273.5557059620166
 21
189.6076943242312
 31
0.0
  0
LINE
  5
E00EDCCE
330
E00DEA5D
100
AcDbEntity
  8
JISSEN
100
AcDbLine
 10
284.8057059620166
 20
184.5916689204493
 30
0.0
 11
284.8057059620166
 21
184.2416689204471
 31
0.0
  0
LINE
  5
E00EDCCF
330
E00DEA5D
100
AcDbEntity
  8
JISSEN
100
AcDbLine
 10
285.9919216551877
 20
183.7416689204471
 30
0.0
 11
285.9919216551877
 21
189.6076943242312
 31
0.0
  0
LINE
  5
E00EDCD0
330
E00DEA5D
100
AcDbEntity
  8
JISSEN
100
AcDbLine
 10
287.3057059620166
 20
184.2416689204471
 30
0.0
 11
287.3057059620166
 21
184.5916689204493
 31
0.0
  0
LINE
  5
E00EDCD1
330
E00DEA5D
100
AcDbEntity
  8
JISSEN
100
AcDbLine
 10
287.3057059620166
 20
184.2416689204471
 30
0.0
 11
287.3057059620166
 21
184.5916689204493
 31
0.0
  0
LINE
  5
E00EDCD2
330
E00DEA5D
100
AcDbEntity
  8
JISSEN
100
AcDbLine
 10
288.5557059620166
 20
184.5916689204493
 30
0.0
 11
288.5557059620166
 21
184.2416689204471
 31
0.0
  0
LINE
  5
E00EDCD3
330
E00DEA5D
100
AcDbEntity
  8
JISSEN
100
AcDbLine
 10
288.5557059620166
 20
184.2450982014468
 30
0.0
 11
287.3057059620166
 21
184.2450982014468
 31
0.0
  0
SPLINE
  5
E00EDCD4
330
E00DEA5D
100
AcDbEntity
  8
JISSEN
100
AcDbSpline
210
0.0
220
0.0
230
1.0
 70
     8
 71
     3
 72
     8
 73
     4
 74
     0
 42
0.0000000001
 43
0.0000000001
 40
0.0
 40
0.0
 40
0.0
 40
0.0
 40
0.0007108901684311
 40
0.0007108901684311
 40
0.0007108901684311
 40
0.0007108901684311
 10
284.3680718412286
 20
183.7416689204471
 30
0.0
 10
284.5139726568502
 20
183.9083090035198
 30
0.0
 10
284.659850043057
 20
184.0749764416357
 30
0.0
 10
284.8057059620166
 20
184.2416689204471
 30
0.0
  0
SPLINE
  5
E00EDCD5
330
E00DEA5D
100
AcDbEntity
  8
JISSEN
100
AcDbSpline
210
0.0
220
0.0
230
1.0
 70
     8
 71
     3
 72
     8
 73
     4
 74
     0
 42
0.0000000001
 43
0.0000000001
 40
0.0
 40
0.0
 40
0.0
 40
0.0
 40
0.0007108901684311
 40
0.0007108901684311
 40
0.0007108901684311
 40
0.0007108901684311
 10
287.3057059620166
 20
184.2450982014468
 30
0.0
 10
287.159850043057
 20
184.0784057226353
 30
0.0
 10
287.0139726568502
 20
183.9117382845195
 30
0.0
 10
286.8680718412285
 20
183.7450982014468
 30
0.0
  0
LINE
  5
E00EDCD6
330
E00DEA5D
100
AcDbEntity
  8
JISSEN
100
AcDbLine
 10
288.5557059620166
 20
184.2416689204471
 30
0.0
 11
288.0557059620166
 21
183.7416689204471
 31
0.0
  0
ARC
  5
E00EDCD7
330
E00DEA5D
100
AcDbEntity
  8
JISSEN
100
AcDbCircle
 10
284.9932059620166
 20
185.04166892045
 30
0.0
 40
0.4875000000000239
100
AcDbArc
 50
112.6198649480738
 51
247.3801350519261
  0
ARC
  5
E00EDCD8
330
E00DEA5D
100
AcDbEntity
  8
JISSEN
100
AcDbCircle
 10
284.9932059620166
 20
186.5416689204501
 30
0.0
 40
0.4875000000000239
100
AcDbArc
 50
112.6198649480738
 51
247.3801350519261
  0
LINE
  5
E00EDCD9
330
E00DEA5D
100
AcDbEntity
  8
JISSEN
100
AcDbLine
 10
284.8057059620166
 20
186.0916689204511
 30
0.0
 11
284.8057059620166
 21
185.4916689204526
 31
0.0
  0
ARC
  5
E00EDCDA
330
E00DEA5D
100
AcDbEntity
  8
JISSEN
100
AcDbCircle
 10
284.9932059620166
 20
188.04166892045
 30
0.0
 40
0.4875000000000239
100
AcDbArc
 50
112.6198649480738
 51
247.3801350519261
  0
LINE
  5
E00EDCDB
330
E00DEA5D
100
AcDbEntity
  8
JISSEN
100
AcDbLine
 10
284.8057059620166
 20
187.591668920453
 30
0.0
 11
284.8057059620166
 21
186.9916689204562
 31
0.0
  0
LINE
  5
E00EDCDC
330
E00DEA5D
100
AcDbEntity
  8
JISSEN
100
AcDbLine
 10
284.8057059620166
 20
188.7416689204471
 30
0.0
 11
284.8057059620164
 21
188.4916689204526
 31
0.0
  0
ARC
  5
E00EDCDD
330
E00DEA5D
100
AcDbEntity
  8
JISSEN
100
AcDbCircle
 10
287.4932059620184
 20
186.5416689204482
 30
0.0
 40
0.4875000000000239
100
AcDbArc
 50
112.6198649480738
 51
247.3801350519261
  0
LINE
  5
E00EDCDE
330
E00DEA5D
100
AcDbEntity
  8
JISSEN
100
AcDbLine
 10
287.3057059620166
 20
185.4916689204526
 30
0.0
 11
287.3057059620166
 21
186.0916689204511
 31
0.0
  0
LINE
  5
E00EDCDF
330
E00DEA5D
100
AcDbEntity
  8
JISSEN
100
AcDbLine
 10
287.3057059620166
 20
185.4916689204526
 30
0.0
 11
287.3057059620166
 21
186.0916689204511
 31
0.0
  0
ARC
  5
E00EDCE0
330
E00DEA5D
100
AcDbEntity
  8
JISSEN
100
AcDbCircle
 10
287.4932059620184
 20
185.0416689204482
 30
0.0
 40
0.4875000000000239
100
AcDbArc
 50
112.6198649480738
 51
247.3801350519261
  0
LINE
  5
E00EDCE1
330
E00DEA5D
100
AcDbEntity
  8
JISSEN
100
AcDbLine
 10
287.3057059620166
 20
186.9916689204508
 30
0.0
 11
287.3057059620166
 21
187.5916689204493
 31
0.0
  0
LINE
  5
E00EDCE2
330
E00DEA5D
100
AcDbEntity
  8
JISSEN
100
AcDbLine
 10
287.3057059620166
 20
186.9916689204508
 30
0.0
 11
287.3057059620166
 21
187.5916689204493
 31
0.0
  0
ARC
  5
E00EDCE3
330
E00DEA5D
100
AcDbEntity
  8
JISSEN
100
AcDbCircle
 10
287.4932059620184
 20
188.0416689204482
 30
0.0
 40
0.4875000000000239
100
AcDbArc
 50
112.6198649480738
 51
247.3801350519261
  0
LINE
  5
E00EDCE4
330
E00DEA5D
100
AcDbEntity
  8
JISSEN
100
AcDbLine
 10
287.3057059620166
 20
188.4916689204508
 30
0.0
 11
287.3057059620166
 21
188.7416689204471
 31
0.0
  0
ARC
  5
E00EDCE5
330
E00DEA5D
100
AcDbEntity
  8
JISSEN
100
AcDbCircle
 10
288.7432059620184
 20
186.5416689204501
 30
0.0
 40
0.4875000000000239
100
AcDbArc
 50
112.6198649480738
 51
247.3801350519261
  0
LINE
  5
E00EDCE6
330
E00DEA5D
100
AcDbEntity
  8
JISSEN
100
AcDbLine
 10
288.5557059620166
 20
186.0916689204493
 30
0.0
 11
288.5557059620166
 21
185.4916689204526
 31
0.0
  0
LINE
  5
E00EDCE7
330
E00DEA5D
100
AcDbEntity
  8
JISSEN
100
AcDbLine
 10
288.5557059620166
 20
186.0916689204511
 30
0.0
 11
288.5557059620166
 21
185.491668920449
 31
0.0
  0
LINE
  5
E00EDCE8
330
E00DEA5D
100
AcDbEntity
  8
JISSEN
100
AcDbLine
 10
288.5557059620166
 20
186.0916689204493
 30
0.0
 11
288.5557059620184
 21
185.491668920449
 31
0.0
  0
LINE
  5
E00EDCE9
330
E00DEA5D
100
AcDbEntity
  8
JISSEN
100
AcDbLine
 10
288.5557059620166
 20
186.0916689204493
 30
0.0
 11
288.5557059620166
 21
185.491668920449
 31
0.0
  0
ARC
  5
E00EDCEA
330
E00DEA5D
100
AcDbEntity
  8
JISSEN
100
AcDbCircle
 10
288.7432059620184
 20
185.04166892045
 30
0.0
 40
0.4875000000000239
100
AcDbArc
 50
112.6198649480738
 51
247.3801350519261
  0
LINE
  5
E00EDCEB
330
E00DEA5D
100
AcDbEntity
  8
JISSEN
100
AcDbLine
 10
288.5557059620166
 20
186.0916689204511
 30
0.0
 11
288.5557059620166
 21
185.4916689204526
 31
0.0
  0
LINE
  5
E00EDCEC
330
E00DEA5D
100
AcDbEntity
  8
JISSEN
100
AcDbLine
 10
288.5557059620166
 20
187.5916689204511
 30
0.0
 11
288.5557059620166
 21
186.9916689204526
 31
0.0
  0
ARC
  5
E00EDCED
330
E00DEA5D
100
AcDbEntity
  8
JISSEN
100
AcDbCircle
 10
288.7432059620184
 20
188.04166892045
 30
0.0
 40
0.4875000000000239
100
AcDbArc
 50
112.6198649480738
 51
247.3801350519261
  0
LINE
  5
E00EDCEE
330
E00DEA5D
100
AcDbEntity
  8
JISSEN
100
AcDbLine
 10
288.5557059620166
 20
187.5916689204511
 30
0.0
 11
288.5557059620166
 21
186.991668920449
 31
0.0
  0
LINE
  5
E00EDCEF
330
E00DEA5D
100
AcDbEntity
  8
JISSEN
100
AcDbLine
 10
288.5557059620166
 20
187.5916689204493
 30
0.0
 11
288.5557059620166
 21
186.991668920449
 31
0.0
  0
LINE
  5
E00EDCF0
330
E00DEA5D
100
AcDbEntity
  8
JISSEN
100
AcDbLine
 10
288.5557059620166
 20
187.5916689204493
 30
0.0
 11
288.5557059620166
 21
186.991668920449
 31
0.0
  0
LINE
  5
E00EDCF1
330
E00DEA5D
100
AcDbEntity
  8
JISSEN
100
AcDbLine
 10
288.5557059620166
 20
187.5916689204511
 30
0.0
 11
288.5557059620166
 21
186.991668920449
 31
0.0
  0
LINE
  5
E00EDCF2
330
E00DEA5D
100
AcDbEntity
  8
JISSEN
100
AcDbLine
 10
288.5557059620166
 20
188.7416689204471
 30
0.0
 11
288.5557059620166
 21
188.4916689204508
 31
0.0
  0
LINE
  5
E00EDCF3
330
E00DEA5D
100
AcDbEntity
  8
JISSEN
100
AcDbLine
 10
271.0557059620166
 20
183.7416689204471
 30
0.0
 11
284.3680718412176
 21
183.7416689204471
 31
0.0
  0
LINE
  5
E00EDCF4
330
E00DEA5D
100
AcDbEntity
  8
JISSEN
100
AcDbLine
 10
271.0557059620166
 20
183.7416689204471
 30
0.0
 11
257.7433400828156
 21
183.7416689204471
 31
0.0
  0
LINE
  5
E00EDCF5
330
E00DEA5D
100
AcDbEntity
  8
JISSEN
100
AcDbLine
 10
256.1194902689164
 20
183.7416689204471
 30
0.0
 11
257.7433400828156
 21
183.7416689204471
 31
0.0
  0
LINE
  5
E00EDCF6
330
E00DEA5D
100
AcDbEntity
  8
JISSEN
100
AcDbLine
 39
1680.364539346804
 10
253.5557059620166
 20
188.7416689204471
 30
0.0
 11
254.8057059620166
 21
188.7416689204471
 31
0.0
  0
LINE
  5
E00EDCF7
330
E00DEA5D
100
AcDbEntity
  8
JISSEN
100
AcDbLine
 10
255.2877567695993
 20
189.7416689204471
 30
0.0
 11
271.0557059620166
 21
189.7416689204471
 31
0.0
  0
SPLINE
  5
E00EDCF8
330
E00DEA5D
100
AcDbEntity
  8
JISSEN
100
AcDbSpline
210
0.0
220
0.0
230
1.0
 70
     8
 71
     3
 72
     8
 73
     4
 74
     0
 42
0.0000000001
 43
0.0000000001
 40
0.000000403112789
 40
0.000000403112789
 40
0.000000403112789
 40
0.000000403112789
 40
0.0017472208689273
 40
0.0017472208689273
 40
0.0017472208689273
 40
0.0017472208689273
 10
254.8057059620166
 20
188.7416689204471
 30
0.0
 10
255.2435287241075
 20
189.0305570227917
 30
0.0
 10
255.6814469817398
 20
189.3192522991246
 30
0.0
 10
256.1194902688455
 20
189.6076943242312
 30
0.0
  0
LINE
  5
E00EDCF9
330
E00DEA5D
100
AcDbEntity
  8
JISSEN
100
AcDbLine
 10
255.2433400828156
 20
183.7416689204471
 30
0.0
 11
256.1194902689164
 21
183.7416689204471
 31
0.0
  0
LINE
  5
E00EDCFA
330
E00DEA5D
100
AcDbEntity
  8
JISSEN
100
AcDbLine
 10
255.2433400828156
 20
183.7416689204471
 30
0.0
 11
254.0557059620166
 21
183.7416689204471
 31
0.0
  0
LINE
  5
E00EDCFB
330
E00DEA5D
100
AcDbEntity
  8
JISSEN
100
AcDbLine
 10
255.2877567696011
 20
189.7416689204471
 30
0.0
 11
253.5557059620166
 21
188.7416689204453
 31
0.0
  0
LINE
  5
E00EDCFC
330
E00DEA5D
100
AcDbEntity
  8
JISSEN
100
AcDbLine
 10
254.8057059620166
 20
188.6916689204552
 30
0.0
 11
254.8057059620166
 21
188.7416689204471
 31
0.0
  0
SPLINE
  5
E00EDCFD
330
E00DEA5D
100
AcDbEntity
  8
JISSEN
100
AcDbSpline
210
0.0
220
0.0
230
1.0
 70
     8
 71
     3
 72
     8
 73
     4
 74
     0
 42
0.0000000001
 43
0.0000000001
 40
0.0000002658515791
 40
0.0000002658515791
 40
0.0000002658515791
 40
0.0000002658515791
 40
0.0017470836077175
 40
0.0017470836077175
 40
0.0017470836077175
 40
0.0017470836077175
 10
258.6194902688455
 20
189.6076943242312
 30
0.0
 10
258.1814469817397
 20
189.3192522991246
 30
0.0
 10
257.7435287241076
 20
189.0305570227917
 30
0.0
 10
257.3057059620166
 20
188.7416689204471
 30
0.0
  0
LINE
  5
E00EDCFE
330
E00DEA5D
100
AcDbEntity
  8
JISSEN
100
AcDbLine
 10
256.1194902688455
 20
189.6076943242312
 30
0.0
 11
258.6194902688455
 21
189.6076943242312
 31
0.0
  0
LINE
  5
E00EDCFF
330
E00DEA5D
100
AcDbEntity
  8
JISSEN
100
AcDbLine
 39
1680.364539346804
 10
288.5557059620166
 20
188.7416689204471
 30
0.0
 11
287.3057059620166
 21
188.7416689204471
 31
0.0
  0
LINE
  5
E00EDD00
330
E00DEA5D
100
AcDbEntity
  8
JISSEN
100
AcDbLine
 39
1680.364539346804
 10
284.8057059620166
 20
188.7416689205326
 30
0.0
 11
273.5557059619711
 21
188.7416689205308
 31
0.0
  0
LINE
  5
E00EDD01
330
E00DEA5D
100
AcDbEntity
  8
JISSEN
100
AcDbLine
 10
268.5557059620166
 20
189.6076943242312
 30
0.0
 11
271.0557059620166
 21
189.6076943242312
 31
0.0
  0
LINE
  5
E00EDD02
330
E00DEA5D
100
AcDbEntity
  8
JISSEN
100
AcDbLine
 10
273.5557059620166
 20
189.6076943242312
 30
0.0
 11
271.0557059620166
 21
189.6076943242312
 31
0.0
  0
LINE
  5
E00EDD03
330
E00DEA5D
100
AcDbEntity
  8
JISSEN
100
AcDbLine
 10
285.9919216551877
 20
189.6076943242312
 30
0.0
 11
283.4919216551877
 21
189.6076943242312
 31
0.0
  0
SPLINE
  5
E00EDD04
330
E00DEA5D
100
AcDbEntity
  8
JISSEN
100
AcDbSpline
210
0.0
220
0.0
230
1.0
 70
     8
 71
     3
 72
     8
 73
     4
 74
     0
 42
0.0000000001
 43
0.0000000001
 40
0.0000002658515791
 40
0.0000002658515791
 40
0.0000002658515791
 40
0.0000002658515791
 40
0.0017470836077175
 40
0.0017470836077175
 40
0.0017470836077175
 40
0.0017470836077175
 10
283.4919216551877
 20
189.6076943242312
 30
0.0
 10
283.9299649422935
 20
189.3192522991246
 30
0.0
 10
284.3678831999257
 20
189.0305570227917
 30
0.0
 10
284.8057059620166
 20
188.7416689204471
 30
0.0
  0
LINE
  5
E00EDD05
330
E00DEA5D
100
AcDbEntity
  8
JISSEN
100
AcDbLine
 10
286.8236551544321
 20
189.7416689204471
 30
0.0
 11
288.5557059620166
 21
188.7416689204453
 31
0.0
  0
LINE
  5
E00EDD06
330
E00DEA5D
100
AcDbEntity
  8
JISSEN
100
AcDbLine
 10
287.3057059620166
 20
188.6916689204552
 30
0.0
 11
287.3057059620166
 21
188.7416689204471
 31
0.0
  0
SPLINE
  5
E00EDD07
330
E00DEA5D
100
AcDbEntity
  8
JISSEN
100
AcDbSpline
210
0.0
220
0.0
230
1.0
 70
     8
 71
     3
 72
     8
 73
     4
 74
     0
 42
0.0000000001
 43
0.0000000001
 40
0.000000403112789
 40
0.000000403112789
 40
0.000000403112789
 40
0.000000403112789
 40
0.0017472208689273
 40
0.0017472208689273
 40
0.0017472208689273
 40
0.0017472208689273
 10
287.3057059620166
 20
188.7416689204471
 30
0.0
 10
286.8678831999257
 20
189.0305570227917
 30
0.0
 10
286.4299649422935
 20
189.3192522991246
 30
0.0
 10
285.9919216551877
 20
189.6076943242312
 30
0.0
  0
LINE
  5
E00EDD08
330
E00DEA5D
100
AcDbEntity
  8
JISSEN
100
AcDbLine
 10
288.5557059620166
 20
188.7416689204471
 30
0.0
 11
288.5557059620166
 21
188.6916689204479
 31
0.0
  0
LINE
  5
E00EDD09
330
E00DEA5D
100
AcDbEntity
  8
JISSEN
100
AcDbLine
 10
288.5557059620166
 20
188.7416689204471
 30
0.0
 11
288.5557059620166
 21
188.6916689204479
 31
0.0
  0
LINE
  5
E00EDD0A
330
E00DEA5D
100
AcDbEntity
  8
JISSEN
100
AcDbLine
 10
286.8236551544339
 20
189.7416689204471
 30
0.0
 11
271.0557059620166
 21
189.7416689204471
 31
0.0
  0
LINE
  5
E00EDD0B
330
E00DEA5D
100
AcDbEntity
  8
JISSEN
100
AcDbLine
 10
286.8680718412176
 20
183.7416689204471
 30
0.0
 11
288.0557059620166
 21
183.7416689204471
 31
0.0
  0
LINE
  5
E00EDD0C
330
E00DEA5D
100
AcDbEntity
  8
JISSEN
100
AcDbLine
 10
286.8680718412176
 20
183.7416689204471
 30
0.0
 11
285.9919216551168
 21
183.7416689204471
 31
0.0
  0
LINE
  5
E00EDD0D
330
E00DEA5D
100
AcDbEntity
  8
JISSEN
100
AcDbLine
 10
285.9919216551168
 20
183.7416689204471
 30
0.0
 11
284.3680718412176
 21
183.7416689204471
 31
0.0
  0
LINE
  5
E00EDD1C
330
E00DEA5D
100
AcDbEntity
  8
SUNPOU
100
AcDbLine
 10
122.0655206828565
 20
12.092452099679
 30
0.0
 11
125.0655206828565
 21
12.092452099679
 31
0.0
  0
LINE
  5
E00EDD1D
330
E00DEA5D
100
AcDbEntity
  8
SUNPOU
100
AcDbLine
 10
122.0655206828565
 20
9.092452099679007
 30
0.0
 11
125.0655206828565
 21
9.092452099679007
 31
0.0
  0
LINE
  5
E00EDD1E
330
E00DEA5D
100
AcDbEntity
  8
SUNPOU
100
AcDbLine
 10
124.3155206828565
 20
12.092452099679
 30
0.0
 11
124.3155206828565
 21
9.092452099679007
 31
0.0
  0
LINE
  5
E00EDD1F
330
E00DEA5D
100
AcDbEntity
  8
SUNPOU
100
AcDbLine
 10
122.8155206828565
 20
12.092452099679
 30
0.0
 11
122.8155206828565
 21
9.092452099679007
 31
0.0
  0
LINE
  5
E00EDD29
330
E00DEA5D
100
AcDbEntity
  8
SUNPOU
100
AcDbLine
 10
302.8947529028067
 20
12.09258685274244
 30
0.0
 11
305.8947529028067
 21
12.09258685274244
 31
0.0
  0
LINE
  5
E00EDD2A
330
E00DEA5D
100
AcDbEntity
  8
SUNPOU
100
AcDbLine
 10
302.8947529028067
 20
9.092586852742442
 30
0.0
 11
305.8947529028067
 21
9.092586852742442
 31
0.0
  0
LINE
  5
E00EDD2B
330
E00DEA5D
100
AcDbEntity
  8
SUNPOU
100
AcDbLine
 10
305.1447529028067
 20
12.09258685274244
 30
0.0
 11
305.1447529028067
 21
9.092586852742442
 31
0.0
  0
LINE
  5
E00EDD2C
330
E00DEA5D
100
AcDbEntity
  8
SUNPOU
100
AcDbLine
 10
303.6447529028067
 20
12.09258685274244
 30
0.0
 11
303.6447529028067
 21
9.092586852742442
 31
0.0
  0
ENDSEC
  0
SECTION
  2
OBJECTS
  0
DICTIONARY
  5
E00DEA51
330
0
100
AcDbDictionary
281
     1
  3
ACAD_GROUP
350
E00DEA52
  3
ACAD_LAYOUT
350
E00DFA6A
  3
ACAD_MLINESTYLE
350
E00DEA53
  3
ACAD_PLOTSETTINGS
350
E00DFA6B
  3
ACAD_PLOTSTYLENAME
350
E00DFA68
  3
AcadDim
350
E00E59A8
  3
ACDBVARIABLEDICTIONARY
350
E00DF82C
  0
DICTIONARY
  5
E00DFB39
330
E00DEA47
100
AcDbDictionary
280
     1
281
     1
  3
ACAD_LAYERFILTERS
360
E00E26A3
  3
ACAD_LAYERSTATES
360
E00DFB3A
  0
DICTIONARY
  5
E00DFB13
330
E00DEA5D
100
AcDbDictionary
280
     1
281
     1
  3
ACAD_LAYOUTSELFREF
360
E00DFB14
  0
DICTIONARY
  5
E00DFB11
330
E00DEA5A
100
AcDbDictionary
280
     1
281
     1
  3
ACAD_LAYOUTSELFREF
360
E00DFB12
  0
DICTIONARY
  5
E00DEA52
102
{ACAD_REACTORS
330
E00DEA51
102
}
330
E00DEA51
100
AcDbDictionary
281
     1
  0
DICTIONARY
  5
E00DFA6A
102
{ACAD_REACTORS
330
E00DEA51
102
}
330
E00DEA51
100
AcDbDictionary
281
     1
  3
Model
350
E00DFA6C
  3
ﾚｲｱｳﾄ1
350
E00DFA6D
  0
DICTIONARY
  5
E00DEA53
102
{ACAD_REACTORS
330
E00DEA51
102
}
330
E00DEA51
100
AcDbDictionary
281
     1
  3
STANDARD
350
E00DEA60
  0
DICTIONARY
  5
E00DFA6B
102
{ACAD_REACTORS
330
E00DEA51
102
}
330
E00DEA51
100
AcDbDictionary
281
     1
  0
ACDBDICTIONARYWDFLT
  5
E00DFA68
102
{ACAD_REACTORS
330
E00DEA51
102
}
330
E00DEA51
100
AcDbDictionary
281
     1
  3
Normal
350
E00DFA69
  3
Style_1
350
E00ECC5E
100
AcDbDictionaryWithDefault
340
E00DFA69
  0
XRECORD
  5
E00E59A8
102
{ACAD_REACTORS
330
E00DEA51
102
}
330
E00DEA51
100
AcDbXrecord
280
     1
 90
   990106
  3

 60
     0
 61
     0
 62
     1
 63
     3
 64
     0
 65
     0
 66
     0
 67
     3
 68
     1
 69
     0
 70
     0
 71
     0
 72
     0
 40
0.0
170
     0
  0
DICTIONARY
  5
E00DF82C
102
{ACAD_REACTORS
330
E00DEA51
102
}
330
E00DEA51
100
AcDbDictionary
281
     1
  3
DIMASSOC
350
E00DFB2E
  3
SORTENTS
350
E00DF82D
  0
DICTIONARY
  5
E00E26A3
102
{ACAD_REACTORS
330
E00DFB39
102
}
330
E00DFB39
100
AcDbDictionary
280
     1
281
     1
  3
0
360
E00E26A4
  3
0-0
360
E00E26A5
  3
10画層
360
E00E26A6
  3
2
360
E00E26A7
  3
3
360
E00E26A8
  3
3A
360
E00E26A9
  3
4
360
E00E26AA
  3
5画層
360
E00E26AB
  3
6画層
360
E00E26AC
  3
7
360
E00E26AD
  3
7a画層
360
E00E26AE
  3
8
360
E00E26AF
  3
ASYST
360
E00E26B0
  3
ASYST PHASE 1
360
E00E26B1
  3
ASYST PHASE 2
360
E00E26B2
  3
cap-0
360
E00E26B3
  3
dims
360
E00E26B4
  3
elec
360
E00E26B5
  3
ELECTRICAL
360
E00E26B6
  3
F
360
E00E26B7
  3
Frame
360
E00E26B8
  3
FROZEN
360
E00E26B9
  3
FROZEN ACTIVE
360
E00E26BA
  3
jiku-0
360
E00E26BB
  3
MP
360
E00E26BC
  3
MPR
360
E00E26BD
  3
p-
360
E00E26BE
  3
ST
360
E00E26BF
  3
TC
360
E00E26C0
  3
TEXT
360
E00E26C1
  3
ｹｰﾌﾞﾙ図
360
E00E26C2
  3
０画層
360
E00E26C3
  3
３A画層
360
E00E26C4
  3
３画層
360
E00E26C5
  0
DICTIONARY
  5
E00DFB3A
102
{ACAD_REACTORS
330
E00DFB39
102
}
330
E00DFB39
100
AcDbDictionary
281
     1
  0
XRECORD
  5
E00DFB14
102
{ACAD_REACTORS
330
E00DFB13
102
}
330
E00DFB13
100
AcDbXrecord
280
     1
340
E00DEA5D
  0
XRECORD
  5
E00DFB12
102
{ACAD_REACTORS
330
E00DFB11
102
}
330
E00DFB11
100
AcDbXrecord
280
     1
340
E00DEA5A
  0
LAYOUT
  5
E00DFA6C
102
{ACAD_REACTORS
330
E00DFA6A
102
}
330
E00DFA6A
100
AcDbPlotSettings
  1

  2
\\Nt_honsya\FUJITSU XL-5300-3
  4
A4
  6

 40
5.873749732971191
 41
5.704405784606932
 42
5.789077758789062
 43
5.873748779296875
 44
209.9733276367186
 45
296.9259948730469
 46
0.0
 47
0.0
 48
0.0
 49
0.0
140
0.0
141
0.0
142
1.0
143
1.0
 70
 11952
 72
     0
 73
     1
 74
     0
  7
aclt.ctb
 75
     0
147
1.0
148
1211.157904756485
149
44.79223521629618
100
AcDbLayout
  1
Model
 70
     1
 71
     0
 10
0.0
 20
0.0
 11
12.0
 21
9.0
 12
0.0
 22
0.0
 32
0.0
 14
0.0
 24
0.0
 34
0.0
 15
0.0
 25
0.0
 35
0.0
146
0.0
 13
0.0
 23
0.0
 33
0.0
 16
1.0
 26
0.0
 36
0.0
 17
0.0
 27
1.0
 37
0.0
 76
     0
330
E00DEA5D
  0
LAYOUT
  5
E00DFA6D
102
{ACAD_REACTORS
330
E00DFA6A
102
}
330
E00DFA6A
100
AcDbPlotSettings
  1

  2
\\Nt_honsya\FUJITSU XL-5300-3
  4

  6

 40
0.0
 41
0.0
 42
0.0
 43
0.0
 44
0.0
 45
0.0
 46
0.0
 47
0.0
 48
0.0
 49
0.0
140
0.0
141
0.0
142
1.0
143
1.0
 70
   688
 72
     0
 73
     0
 74
     5
  7
aclt(XL).ctb
 75
    16
147
1.0
148
0.0
149
0.0
100
AcDbLayout
  1
ﾚｲｱｳﾄ1
 70
     0
 71
     1
 10
0.0
 20
0.0
 11
12.0
 21
9.0
 12
0.0
 22
0.0
 32
0.0
 14
1.000000000000000E+20
 24
1.000000000000000E+20
 34
1.000000000000000E+20
 15
-1.000000000000000E+20
 25
-1.000000000000000E+20
 35
-1.000000000000000E+20
146
0.0
 13
0.0
 23
0.0
 33
0.0
 16
1.0
 26
0.0
 36
0.0
 17
0.0
 27
1.0
 37
0.0
 76
     0
330
E00DEA5A
  0
MLINESTYLE
  5
E00DEA60
102
{ACAD_REACTORS
330
E00DEA53
102
}
330
E00DEA53
100
AcDbMlineStyle
  2
STANDARD
 70
     0
  3

 62
     0
 51
90.0
 52
90.0
 71
     2
 49
0.5
 62
   256
  6
BYLAYER
 49
-0.5
 62
   256
  6
BYLAYER
  0
ACDBPLACEHOLDER
  5
E00DFA69
102
{ACAD_REACTORS
330
E00DFA68
102
}
330
E00DFA68
  0
ACDBPLACEHOLDER
  5
E00ECC5E
102
{ACAD_REACTORS
330
E00DFA68
102
}
330
E00DFA68
  0
DICTIONARYVAR
  5
E00DFB2E
102
{ACAD_REACTORS
330
E00DF82C
102
}
330
E00DF82C
100
DictionaryVariables
280
     0
  1
0
  0
DICTIONARYVAR
  5
E00DF82D
102
{ACAD_REACTORS
330
E00DF82C
102
}
330
E00DF82C
100
DictionaryVariables
280
     0
  1
96
  0
XRECORD
  5
E00E26A4
102
{ACAD_REACTORS
330
E00E26A3
102
}
330
E00E26A3
100
AcDbXrecord
280
     1
  1
0
  1
*-0
  1
*
  1
*
 70
     0
  1
*
  1
*
  0
XRECORD
  5
E00E26A5
102
{ACAD_REACTORS
330
E00E26A3
102
}
330
E00E26A3
100
AcDbXrecord
280
     1
  1
0-0
  1
*-0
  1
*
  1
*
 70
     0
  1
*
  1
*
  0
XRECORD
  5
E00E26A6
102
{ACAD_REACTORS
330
E00E26A3
102
}
330
E00E26A3
100
AcDbXrecord
280
     1
  1
10画層
  1
*-10
  1
*
  1
*
 70
     0
  1
*
  1
*
  0
XRECORD
  5
E00E26A7
102
{ACAD_REACTORS
330
E00E26A3
102
}
330
E00E26A3
100
AcDbXrecord
280
     1
  1
2
  1
*-2
  1
*
  1
*
 70
     0
  1
*
  1
*
  0
XRECORD
  5
E00E26A8
102
{ACAD_REACTORS
330
E00E26A3
102
}
330
E00E26A3
100
AcDbXrecord
280
     1
  1
3
  1
*-3
  1
*
  1
*
 70
     0
  1
*
  1
*
  0
XRECORD
  5
E00E26A9
102
{ACAD_REACTORS
330
E00E26A3
102
}
330
E00E26A3
100
AcDbXrecord
280
     1
  1
3A
  1
*-3A
  1
*
  1
*
 70
     0
  1
*
  1
*
  0
XRECORD
  5
E00E26AA
102
{ACAD_REACTORS
330
E00E26A3
102
}
330
E00E26A3
100
AcDbXrecord
280
     1
  1
4
  1
*-4
  1
*
  1
*
 70
     0
  1
*
  1
*
  0
XRECORD
  5
E00E26AB
102
{ACAD_REACTORS
330
E00E26A3
102
}
330
E00E26A3
100
AcDbXrecord
280
     1
  1
5画層
  1
*-5
  1
*
  1
*
 70
     0
  1
*
  1
*
  0
XRECORD
  5
E00E26AC
102
{ACAD_REACTORS
330
E00E26A3
102
}
330
E00E26A3
100
AcDbXrecord
280
     1
  1
6画層
  1
*-6
  1
*
  1
*
 70
     0
  1
*
  1
*
  0
XRECORD
  5
E00E26AD
102
{ACAD_REACTORS
330
E00E26A3
102
}
330
E00E26A3
100
AcDbXrecord
280
     1
  1
7
  1
*-7*
  1
*
  1
*
 70
     0
  1
*
  1
*
  0
XRECORD
  5
E00E26AE
102
{ACAD_REACTORS
330
E00E26A3
102
}
330
E00E26A3
100
AcDbXrecord
280
     1
  1
7a画層
  1
*-7a
  1
*
  1
*
 70
     0
  1
*
  1
*
  0
XRECORD
  5
E00E26AF
102
{ACAD_REACTORS
330
E00E26A3
102
}
330
E00E26A3
100
AcDbXrecord
280
     1
  1
8
  1
*-8,8
  1
*
  1
*
 70
     0
  1
*
  1
*
  0
XRECORD
  5
E00E26B0
102
{ACAD_REACTORS
330
E00E26A3
102
}
330
E00E26A3
100
AcDbXrecord
280
     1
  1
ASYST
  1
ASYST*
  1
*
  1
*
 70
     0
  1
*
  1
*
  0
XRECORD
  5
E00E26B1
102
{ACAD_REACTORS
330
E00E26A3
102
}
330
E00E26A3
100
AcDbXrecord
280
     1
  1
ASYST PHASE 1
  1
A1.0-8$0$ASYT*
  1
*
  1
*
 70
     0
  1
*
  1
*
  0
XRECORD
  5
E00E26B2
102
{ACAD_REACTORS
330
E00E26A3
102
}
330
E00E26A3
100
AcDbXrecord
280
     1
  1
ASYST PHASE 2
  1
A2.0-8$0$ASYT*
  1
*
  1
*
 70
     0
  1
*
  1
*
  0
XRECORD
  5
E00E26B3
102
{ACAD_REACTORS
330
E00E26A3
102
}
330
E00E26A3
100
AcDbXrecord
280
     1
  1
cap-0
  1
*
  1
*
  1
*
 70
     0
  1
*
  1
*
  0
XRECORD
  5
E00E26B4
102
{ACAD_REACTORS
330
E00E26A3
102
}
330
E00E26A3
100
AcDbXrecord
280
     1
  1
dims
  1
*di*
  1
*
  1
*
 70
     0
  1
*
  1
*
  0
XRECORD
  5
E00E26B5
102
{ACAD_REACTORS
330
E00E26A3
102
}
330
E00E26A3
100
AcDbXrecord
280
     1
  1
elec
  1
e-*
  1
*
  1
*
 70
     0
  1
*
  1
*
  0
XRECORD
  5
E00E26B6
102
{ACAD_REACTORS
330
E00E26A3
102
}
330
E00E26A3
100
AcDbXrecord
280
     1
  1
ELECTRICAL
  1
E-*
  1
*
  1
*
 70
     0
  1
*
  1
*
  0
XRECORD
  5
E00E26B7
102
{ACAD_REACTORS
330
E00E26A3
102
}
330
E00E26A3
100
AcDbXrecord
280
     1
  1
F
  1
*
  1
*
  1
*
 70
     0
  1
*
  1
*
  0
XRECORD
  5
E00E26B8
102
{ACAD_REACTORS
330
E00E26A3
102
}
330
E00E26A3
100
AcDbXrecord
280
     1
  1
Frame
  1
F*
  1
*
  1
*
 70
     0
  1
*
  1
*
  0
XRECORD
  5
E00E26B9
102
{ACAD_REACTORS
330
E00E26A3
102
}
330
E00E26A3
100
AcDbXrecord
280
     1
  1
FROZEN
  1
*
  1
*
  1
*
 70
     4
  1
*
  1
*
  0
XRECORD
  5
E00E26BA
102
{ACAD_REACTORS
330
E00E26A3
102
}
330
E00E26A3
100
AcDbXrecord
280
     1
  1
FROZEN ACTIVE
  1
*
  1
*
  1
*
 70
    16
  1
*
  1
*
  0
XRECORD
  5
E00E26BB
102
{ACAD_REACTORS
330
E00E26A3
102
}
330
E00E26A3
100
AcDbXrecord
280
     1
  1
jiku-0
  1
*
  1
*
  1
*
 70
     0
  1
*
  1
*
  0
XRECORD
  5
E00E26BC
102
{ACAD_REACTORS
330
E00E26A3
102
}
330
E00E26A3
100
AcDbXrecord
280
     1
  1
MP
  1
MP_*
  1
*
  1
*
 70
     0
  1
*
  1
*
  0
XRECORD
  5
E00E26BD
102
{ACAD_REACTORS
330
E00E26A3
102
}
330
E00E26A3
100
AcDbXrecord
280
     1
  1
MPR
  1
MPR*
  1
*
  1
*
 70
     0
  1
*
  1
*
  0
XRECORD
  5
E00E26BE
102
{ACAD_REACTORS
330
E00E26A3
102
}
330
E00E26A3
100
AcDbXrecord
280
     1
  1
p-
  1
p-*
  1
*
  1
*
 70
     0
  1
*
  1
*
  0
XRECORD
  5
E00E26BF
102
{ACAD_REACTORS
330
E00E26A3
102
}
330
E00E26A3
100
AcDbXrecord
280
     1
  1
ST
  1
ST_*
  1
*
  1
*
 70
     0
  1
*
  1
*
  0
XRECORD
  5
E00E26C0
102
{ACAD_REACTORS
330
E00E26A3
102
}
330
E00E26A3
100
AcDbXrecord
280
     1
  1
TC
  1
TC_*,0N
  1
*
  1
*
 70
     0
  1
*
  1
*
  0
XRECORD
  5
E00E26C1
102
{ACAD_REACTORS
330
E00E26A3
102
}
330
E00E26A3
100
AcDbXrecord
280
     1
  1
TEXT
  1
TEXT
  1
*
  1
*
 70
     0
  1
*
  1
*
  0
XRECORD
  5
E00E26C2
102
{ACAD_REACTORS
330
E00E26A3
102
}
330
E00E26A3
100
AcDbXrecord
280
     1
  1
ｹｰﾌﾞﾙ図
  1
*
  1
*
  1
*
 70
     0
  1
*
  1
*
  0
XRECORD
  5
E00E26C3
102
{ACAD_REACTORS
330
E00E26A3
102
}
330
E00E26A3
100
AcDbXrecord
280
     1
  1
０画層
  1
*-0
  1
*
  1
*
 70
     0
  1
*
  1
*
  0
XRECORD
  5
E00E26C4
102
{ACAD_REACTORS
330
E00E26A3
102
}
330
E00E26A3
100
AcDbXrecord
280
     1
  1
３A画層
  1
*-3A
  1
*
  1
*
 70
     0
  1
*
  1
*
  0
XRECORD
  5
E00E26C5
102
{ACAD_REACTORS
330
E00E26A3
102
}
330
E00E26A3
100
AcDbXrecord
280
     1
  1
３画層
  1
*-3
  1
*
  1
*
 70
     0
  1
*
  1
*
  0
ENDSEC
  0
EOF
