  0
SECTION
  2
HEADER
  9
$ACADVER
  1
AC1015
  9
$ACADMAINTVER
 70
    10
  9
$DWGCODEPAGE
  3
ANSI_932
  9
$INSBASE
 10
0.0
 20
0.0
 30
0.0
  9
$EXTMIN
 10
0.000000528361511
 20
0.0000002925355602
 30
0.0
  9
$EXTMAX
 10
361.9999990803622
 20
273.0000002925355
 30
1680.364539346804
  9
$LIMMIN
 10
0.000000528361511
 20
0.0000002925355602
  9
$LIMMAX
 10
361.9999990803622
 20
273.0000002925355
  9
$ORTHOMODE
 70
     0
  9
$REGENMODE
 70
     1
  9
$FILLMODE
 70
     1
  9
$QTEXTMODE
 70
     0
  9
$MIRRTEXT
 70
     0
  9
$LTSCALE
 40
5.0
  9
$ATTMODE
 70
     1
  9
$TEXTSIZE
 40
6.0
  9
$TRACEWID
 40
0.05
  9
$TEXTSTYLE
  7
K
  9
$CLAYER
  8
JISSEN
  9
$CELTYPE
  6
BYLAYER
  9
$CECOLOR
 62
   256
  9
$CELTSCALE
 40
1.0
  9
$DISPSILH
 70
     0
  9
$DIMSCALE
 40
1.0
  9
$DIMASZ
 40
1.099999999999998
  9
$DIMEXO
 40
1.0
  9
$DIMDLI
 40
6.0
  9
$DIMRND
 40
0.0
  9
$DIMDLE
 40
0.0
  9
$DIMEXE
 40
1.0
  9
$DIMTP
 40
0.0
  9
$DIMTM
 40
0.0
  9
$DIMTXT
 40
3.0
  9
$DIMCEN
 40
1.0
  9
$DIMTSZ
 40
0.0
  9
$DIMTOL
 70
     0
  9
$DIMLIM
 70
     0
  9
$DIMTIH
 70
     0
  9
$DIMTOH
 70
     0
  9
$DIMSE1
 70
     0
  9
$DIMSE2
 70
     0
  9
$DIMTAD
 70
     0
  9
$DIMZIN
 70
     8
  9
$DIMBLK
  1
ARROW
  9
$DIMASO
 70
     0
  9
$DIMSHO
 70
     0
  9
$DIMPOST
  1

  9
$DIMAPOST
  1

  9
$DIMALT
 70
     0
  9
$DIMALTD
 70
     2
  9
$DIMALTF
 40
25.4
  9
$DIMLFAC
 40
1.0
  9
$DIMTOFL
 70
     1
  9
$DIMTVP
 40
1.0
  9
$DIMTIX
 70
     0
  9
$DIMSOXD
 70
     0
  9
$DIMSAH
 70
     0
  9
$DIMBLK1
  1

  9
$DIMBLK2
  1

  9
$DIMSTYLE
  2
IMAO
  9
$DIMCLRD
 70
     0
  9
$DIMCLRE
 70
     0
  9
$DIMCLRT
 70
     0
  9
$DIMTFAC
 40
1.0
  9
$DIMGAP
 40
0.09
  9
$DIMJUST
 70
     0
  9
$DIMSD1
 70
     0
  9
$DIMSD2
 70
     0
  9
$DIMTOLJ
 70
     1
  9
$DIMTZIN
 70
     0
  9
$DIMALTZ
 70
     0
  9
$DIMALTTZ
 70
     0
  9
$DIMUPT
 70
     0
  9
$DIMDEC
 70
     2
  9
$DIMTDEC
 70
     2
  9
$DIMALTU
 70
     2
  9
$DIMALTTD
 70
     2
  9
$DIMTXSTY
  7
STANDARD
  9
$DIMAUNIT
 70
     0
  9
$DIMADEC
 70
     0
  9
$DIMALTRND
 40
0.0
  9
$DIMAZIN
 70
     0
  9
$DIMDSEP
 70
    46
  9
$DIMATFIT
 70
     3
  9
$DIMFRAC
 70
     0
  9
$DIMLDRBLK
  1
ARROW
  9
$DIMLUNIT
 70
     2
  9
$DIMLWD
 70
    -2
  9
$DIMLWE
 70
    -2
  9
$DIMTMOVE
 70
     0
  9
$LUNITS
 70
     2
  9
$LUPREC
 70
     2
  9
$SKETCHINC
 40
0.1
  9
$FILLETRAD
 40
0.3
  9
$AUNITS
 70
     0
  9
$AUPREC
 70
     2
  9
$MENU
  1
stdr12j
  9
$ELEVATION
 40
0.0
  9
$PELEVATION
 40
0.0
  9
$THICKNESS
 40
0.0
  9
$LIMCHECK
 70
     0
  9
$CHAMFERA
 40
0.0
  9
$CHAMFERB
 40
0.0
  9
$CHAMFERC
 40
0.0
  9
$CHAMFERD
 40
0.0
  9
$SKPOLY
 70
     0
  9
$TDCREATE
 40
2450542.749144212
  9
$TDUCREATE
 40
2450542.374144212
  9
$TDUPDATE
 40
2457291.446422731
  9
$TDUUPDATE
 40
2457291.071422731
  9
$TDINDWG
 40
1.5276639583
  9
$TDUSRTIMER
 40
1.5276633796
  9
$USRTIMER
 70
     1
  9
$ANGBASE
 50
0.0
  9
$ANGDIR
 70
     0
  9
$PDMODE
 70
     0
  9
$PDSIZE
 40
0.0
  9
$PLINEWID
 40
0.0
  9
$SPLFRAME
 70
     0
  9
$SPLINETYPE
 70
     6
  9
$SPLINESEGS
 70
     8
  9
$HANDSEED
  5
E00EDB95
  9
$SURFTAB1
 70
     6
  9
$SURFTAB2
 70
     6
  9
$SURFTYPE
 70
     6
  9
$SURFU
 70
     6
  9
$SURFV
 70
     6
  9
$UCSBASE
  2

  9
$UCSNAME
  2

  9
$UCSORG
 10
0.0
 20
0.0
 30
0.0
  9
$UCSXDIR
 10
1.0
 20
0.0
 30
0.0
  9
$UCSYDIR
 10
0.0
 20
1.0
 30
0.0
  9
$UCSORTHOREF
  2

  9
$UCSORTHOVIEW
 70
     0
  9
$UCSORGTOP
 10
0.0
 20
0.0
 30
0.0
  9
$UCSORGBOTTOM
 10
0.0
 20
0.0
 30
0.0
  9
$UCSORGLEFT
 10
0.0
 20
0.0
 30
0.0
  9
$UCSORGRIGHT
 10
0.0
 20
0.0
 30
0.0
  9
$UCSORGFRONT
 10
0.0
 20
0.0
 30
0.0
  9
$UCSORGBACK
 10
0.0
 20
0.0
 30
0.0
  9
$PUCSBASE
  2

  9
$PUCSNAME
  2

  9
$PUCSORG
 10
0.0
 20
0.0
 30
0.0
  9
$PUCSXDIR
 10
1.0
 20
0.0
 30
0.0
  9
$PUCSYDIR
 10
0.0
 20
1.0
 30
0.0
  9
$PUCSORTHOREF
  2

  9
$PUCSORTHOVIEW
 70
     0
  9
$PUCSORGTOP
 10
0.0
 20
0.0
 30
0.0
  9
$PUCSORGBOTTOM
 10
0.0
 20
0.0
 30
0.0
  9
$PUCSORGLEFT
 10
0.0
 20
0.0
 30
0.0
  9
$PUCSORGRIGHT
 10
0.0
 20
0.0
 30
0.0
  9
$PUCSORGFRONT
 10
0.0
 20
0.0
 30
0.0
  9
$PUCSORGBACK
 10
0.0
 20
0.0
 30
0.0
  9
$USERI1
 70
     4
  9
$USERI2
 70
     1
  9
$USERI3
 70
     1
  9
$USERI4
 70
     2
  9
$USERI5
 70
     0
  9
$USERR1
 40
1.0
  9
$USERR2
 40
3.0
  9
$USERR3
 40
3.0
  9
$USERR4
 40
1.5
  9
$USERR5
 40
8.0
  9
$WORLDVIEW
 70
     1
  9
$SHADEDGE
 70
     3
  9
$SHADEDIF
 70
    70
  9
$TILEMODE
 70
     1
  9
$MAXACTVP
 70
    16
  9
$PINSBASE
 10
0.0
 20
0.0
 30
0.0
  9
$PLIMCHECK
 70
     0
  9
$PEXTMIN
 10
1.000000000000000E+20
 20
1.000000000000000E+20
 30
1.000000000000000E+20
  9
$PEXTMAX
 10
-1.000000000000000E+20
 20
-1.000000000000000E+20
 30
-1.000000000000000E+20
  9
$PLIMMIN
 10
0.0
 20
0.0
  9
$PLIMMAX
 10
12.0
 20
9.0
  9
$UNITMODE
 70
     0
  9
$VISRETAIN
 70
     0
  9
$PLINEGEN
 70
     0
  9
$PSLTSCALE
 70
     0
  9
$TREEDEPTH
 70
  3020
  9
$CMLSTYLE
  2
STANDARD
  9
$CMLJUST
 70
     0
  9
$CMLSCALE
 40
1.0
  9
$PROXYGRAPHICS
 70
     1
  9
$MEASUREMENT
 70
     0
  9
$CELWEIGHT
370
    -1
  9
$ENDCAPS
280
     0
  9
$JOINSTYLE
280
     0
  9
$LWDISPLAY
290
     0
  9
$INSUNITS
 70
     0
  9
$HYPERLINKBASE
  1

  9
$STYLESHEET
  1
aclt.ctb
  9
$XEDIT
290
     1
  9
$CEPSNTYPE
380
     0
  9
$PSTYLEMODE
290
     1
  9
$FINGERPRINTGUID
  2
{3644D75A-AD60-4D58-9D7E-D616B61E4E68}
  9
$VERSIONGUID
  2
{5B82B400-3612-4D20-9EF6-72B8820D8CC3}
  9
$EXTNAMES
290
     1
  9
$PSVPSCALE
 40
0.0
  9
$OLESTARTUP
290
     0
  0
ENDSEC
  0
SECTION
  2
CLASSES
  0
CLASS
  1
LWPOLYLINE
  2
AcDbPolyline
  3
AutoCAD 2000
 90
    32768
280
     0
281
     1
  0
CLASS
  1
DICTIONARYVAR
  2
AcDbDictionaryVar
  3
AutoCAD 2000
 90
        0
280
     0
281
     0
  0
CLASS
  1
HATCH
  2
AcDbHatch
  3
AutoCAD 2000
 90
    32768
280
     0
281
     1
  0
CLASS
  1
ACDBDICTIONARYWDFLT
  2
AcDbDictionaryWithDefault
  3
AutoCAD 2000
 90
        0
280
     0
281
     0
  0
CLASS
  1
ACDBPLACEHOLDER
  2
AcDbPlaceHolder
  3
AutoCAD 2000
 90
        0
280
     0
281
     0
  0
CLASS
  1
LAYOUT
  2
AcDbLayout
  3
AutoCAD 2000
 90
        0
280
     0
281
     0
  0
CLASS
  1
LONG_TRANSACTION
  2
AcDbLongTransaction
  3
AutoCAD 2000
 90
    32768
280
     0
281
     0
  0
CLASS
  1
LWPOLYLINE
  2
AcDbPolyline
  3
AutoCAD 2000
 90
    32768
280
     0
281
     1
  0
CLASS
  1
HATCH
  2
AcDbHatch
  3
AutoCAD 2000
 90
    32768
280
     0
281
     1
  0
CLASS
  1
XRECORD
  2
AcDbXrecord
  3
AutoCAD 2000
 90
    32768
280
     0
281
     0
  0
ENDSEC
  0
SECTION
  2
TABLES
  0
TABLE
  2
VPORT
  5
E00DEA4D
330
0
100
AcDbSymbolTable
 70
    10
  0
VPORT
  5
E00DEA82
330
E00DEA4D
100
AcDbSymbolTableRecord
100
AcDbViewportTableRecord
  2
2
 70
     0
 10
0.5
 20
0.0
 11
1.0
 21
1.0
 12
0.9240312421264802
 22
1.052650975462765
 13
0.0
 23
0.0
 14
1.0
 24
1.0
 15
10.0
 25
10.0
 16
0.0
 26
0.0
 36
1.0
 17
0.0
 27
0.0
 37
0.0
 40
2.105301950925533
 41
0.8778135048231511
 42
50.0
 43
0.0
 44
0.0
 50
0.0
 51
0.0
 71
     0
 72
   500
 73
     1
 74
     1
 75
     0
 76
     0
 77
     0
 78
     0
281
     0
 65
     1
110
0.0
120
0.0
130
0.0
111
1.0
121
0.0
131
0.0
112
0.0
122
1.0
132
0.0
 79
     0
146
0.0
  0
VPORT
  5
E00DEA83
330
E00DEA4D
100
AcDbSymbolTableRecord
100
AcDbViewportTableRecord
  2
2
 70
     0
 10
0.0
 20
0.0
 11
0.5
 21
1.0
 12
0.9240312421264802
 22
1.052650975462765
 13
0.0
 23
0.0
 14
1.0
 24
1.0
 15
10.0
 25
10.0
 16
0.0
 26
0.0
 36
1.0
 17
0.0
 27
0.0
 37
0.0
 40
2.105301950925533
 41
0.8778135048231511
 42
50.0
 43
0.0
 44
0.0
 50
0.0
 51
0.0
 71
     0
 72
   500
 73
     1
 74
     1
 75
     0
 76
     0
 77
     0
 78
     0
281
     0
 65
     1
110
0.0
120
0.0
130
0.0
111
1.0
121
0.0
131
0.0
112
0.0
122
1.0
132
0.0
 79
     0
146
0.0
  0
VPORT
  5
E00DEA84
330
E00DEA4D
100
AcDbSymbolTableRecord
100
AcDbViewportTableRecord
  2
3
 70
     0
 10
0.0
 20
0.5
 11
1.0
 21
1.0
 12
2.832169994473273
 22
1.052650975462765
 13
0.0
 23
0.0
 14
1.0
 24
1.0
 15
10.0
 25
10.0
 16
0.0
 26
0.0
 36
1.0
 17
0.0
 27
0.0
 37
0.0
 40
2.105301950925533
 41
3.571428571428571
 42
50.0
 43
0.0
 44
0.0
 50
0.0
 51
0.0
 71
     0
 72
   500
 73
     1
 74
     1
 75
     0
 76
     0
 77
     0
 78
     0
281
     0
 65
     1
110
0.0
120
0.0
130
0.0
111
1.0
121
0.0
131
0.0
112
0.0
122
1.0
132
0.0
 79
     0
146
0.0
  0
VPORT
  5
E00DEA85
330
E00DEA4D
100
AcDbSymbolTableRecord
100
AcDbViewportTableRecord
  2
3
 70
     0
 10
0.0
 20
0.0
 11
1.0
 21
0.5
 12
2.856741679241311
 22
1.052650975462765
 13
0.0
 23
0.0
 14
1.0
 24
1.0
 15
10.0
 25
10.0
 16
0.0
 26
0.0
 36
1.0
 17
0.0
 27
0.0
 37
0.0
 40
2.105301950925533
 41
3.594771241830064
 42
50.0
 43
0.0
 44
0.0
 50
0.0
 51
0.0
 71
     0
 72
   500
 73
     1
 74
     1
 75
     0
 76
     0
 77
     0
 78
     0
281
     0
 65
     1
110
0.0
120
0.0
130
0.0
111
1.0
121
0.0
131
0.0
112
0.0
122
1.0
132
0.0
 79
     0
146
0.0
  0
VPORT
  5
E00DEA86
330
E00DEA4D
100
AcDbSymbolTableRecord
100
AcDbViewportTableRecord
  2
4
 70
     0
 10
0.5
 20
0.0
 11
1.0
 21
0.5
 12
2.886857516709718
 22
1.052650975462765
 13
0.0
 23
0.0
 14
1.0
 24
1.0
 15
10.0
 25
10.0
 16
0.0
 26
0.0
 36
1.0
 17
0.0
 27
0.0
 37
0.0
 40
4.275207030309069
 41
1.784313725490195
 42
50.0
 43
0.0
 44
0.0
 50
0.0
 51
0.0
 71
     0
 72
   500
 73
     1
 74
     1
 75
     0
 76
     0
 77
     0
 78
     0
281
     0
 65
     1
110
0.0
120
0.0
130
0.0
111
1.0
121
0.0
131
0.0
112
0.0
122
1.0
132
0.0
 79
     0
146
0.0
  0
VPORT
  5
E00DEA87
330
E00DEA4D
100
AcDbSymbolTableRecord
100
AcDbViewportTableRecord
  2
4
 70
     0
 10
0.5
 20
0.5
 11
1.0
 21
1.0
 12
2.862090274555523
 22
1.052650975462765
 13
0.0
 23
0.0
 14
1.0
 24
1.0
 15
10.0
 25
10.0
 16
0.0
 26
0.0
 36
1.0
 17
0.0
 27
0.0
 37
0.0
 40
4.275207030309069
 41
1.772727272727271
 42
50.0
 43
0.0
 44
0.0
 50
0.0
 51
0.0
 71
     0
 72
   500
 73
     1
 74
     1
 75
     0
 76
     0
 77
     0
 78
     0
281
     0
 65
     1
110
0.0
120
0.0
130
0.0
111
1.0
121
0.0
131
0.0
112
0.0
122
1.0
132
0.0
 79
     0
146
0.0
  0
VPORT
  5
E00DEA88
330
E00DEA4D
100
AcDbSymbolTableRecord
100
AcDbViewportTableRecord
  2
4
 70
     0
 10
0.0
 20
0.5
 11
0.5
 21
1.0
 12
2.862090274555523
 22
1.052650975462765
 13
0.0
 23
0.0
 14
1.0
 24
1.0
 15
10.0
 25
10.0
 16
0.0
 26
0.0
 36
1.0
 17
0.0
 27
0.0
 37
0.0
 40
4.275207030309069
 41
1.772727272727271
 42
50.0
 43
0.0
 44
0.0
 50
0.0
 51
0.0
 71
     0
 72
   500
 73
     1
 74
     1
 75
     0
 76
     0
 77
     0
 78
     0
281
     0
 65
     1
110
0.0
120
0.0
130
0.0
111
1.0
121
0.0
131
0.0
112
0.0
122
1.0
132
0.0
 79
     0
146
0.0
  0
VPORT
  5
E00DEA89
330
E00DEA4D
100
AcDbSymbolTableRecord
100
AcDbViewportTableRecord
  2
4
 70
     0
 10
0.0
 20
0.0
 11
0.5
 21
0.5
 12
2.886857516709718
 22
1.052650975462765
 13
0.0
 23
0.0
 14
1.0
 24
1.0
 15
10.0
 25
10.0
 16
0.0
 26
0.0
 36
1.0
 17
0.0
 27
0.0
 37
0.0
 40
4.275207030309069
 41
1.784313725490195
 42
50.0
 43
0.0
 44
0.0
 50
0.0
 51
0.0
 71
     0
 72
   500
 73
     1
 74
     1
 75
     0
 76
     0
 77
     0
 78
     0
281
     0
 65
     1
110
0.0
120
0.0
130
0.0
111
1.0
121
0.0
131
0.0
112
0.0
122
1.0
132
0.0
 79
     0
146
0.0
  0
VPORT
  5
E00EDB94
330
E00DEA4D
100
AcDbSymbolTableRecord
100
AcDbViewportTableRecord
  2
*Active
 70
     0
 10
0.0
 20
0.0
 11
1.0
 21
1.0
 12
190.9915063244401
 22
136.5000009281631
 13
0.0
 23
0.0
 14
1.0
 24
1.0
 15
10.0
 25
10.0
 16
0.0
 26
0.0
 36
1.0
 17
0.0
 27
0.0
 37
0.0
 40
274.9714358382318
 41
2.275779376498801
 42
50.0
 43
0.0
 44
0.0
 50
0.0
 51
0.0
 71
     0
 72
   500
 73
     1
 74
     0
 75
     0
 76
     0
 77
     0
 78
     0
281
     0
 65
     1
110
0.0
120
0.0
130
0.0
111
1.0
121
0.0
131
0.0
112
0.0
122
1.0
132
0.0
 79
     0
146
0.0
  0
ENDTAB
  0
TABLE
  2
LTYPE
  5
E00DEA4A
330
0
100
AcDbSymbolTable
 70
     5
  0
LTYPE
  5
E00DEA57
330
E00DEA4A
100
AcDbSymbolTableRecord
100
AcDbLinetypeTableRecord
  2
BYBLOCK
 70
     0
  3

 72
    65
 73
     0
 40
0.0
  0
LTYPE
  5
E00DEA58
330
E00DEA4A
100
AcDbSymbolTableRecord
100
AcDbLinetypeTableRecord
  2
BYLAYER
 70
     0
  3

 72
    65
 73
     0
 40
0.0
  0
LTYPE
  5
E00DEA59
330
E00DEA4A
100
AcDbSymbolTableRecord
100
AcDbLinetypeTableRecord
  2
CONTINUOUS
 70
     0
  3
実線
 72
    65
 73
     0
 40
0.0
  0
LTYPE
  5
E00DEA7E
330
E00DEA4A
100
AcDbSymbolTableRecord
100
AcDbLinetypeTableRecord
  2
CENTER
 70
     0
  3
____ _ ____ _ ____ _ ____ _ ____ _ ____ _ ____
 72
    65
 73
     4
 40
2.0
 49
1.25
 74
     0
 49
-0.25
 74
     0
 49
0.25
 74
     0
 49
-0.25
 74
     0
  0
LTYPE
  5
E00DEA81
330
E00DEA4A
100
AcDbSymbolTableRecord
100
AcDbLinetypeTableRecord
  2
HIDDEN
 70
     0
  3
_ _ _ _ _ _ _ _ _ _ _ _ _ _ _ _ _ _ _ _ _ _ _
 72
    65
 73
     2
 40
0.375
 49
0.25
 74
     0
 49
-0.125
 74
     0
  0
LTYPE
  5
E00E0AD4
330
E00DEA4A
100
AcDbSymbolTableRecord
100
AcDbLinetypeTableRecord
  2
PHANTOM
 70
     0
  3
Phantom ______  __  __  ______  __  __  ______
 72
    65
 73
     6
 40
2.5
 49
1.25
 74
     0
 49
-0.25
 74
     0
 49
0.25
 74
     0
 49
-0.25
 74
     0
 49
0.25
 74
     0
 49
-0.25
 74
     0
  0
LTYPE
  5
E00ECC5C
330
E00DEA4A
100
AcDbSymbolTableRecord
100
AcDbLinetypeTableRecord
  2
SLD-実線
 70
     0
  3
SolidWorks Line Style
 72
    65
 73
     0
 40
0.0
  0
ENDTAB
  0
TABLE
  2
LAYER
  5
E00DEA47
102
{ACAD_XDICTIONARY
360
E00DFB39
102
}
330
0
100
AcDbSymbolTable
 70
    13
  0
LAYER
  5
E00DEA54
330
E00DEA47
100
AcDbSymbolTableRecord
100
AcDbLayerTableRecord
  2
0
 70
     0
 62
     6
  6
CONTINUOUS
370
    -3
390
E00DFA69
  0
LAYER
  5
E00DEA8D
330
E00DEA47
100
AcDbSymbolTableRecord
100
AcDbLayerTableRecord
  2
ITTEN
 70
     0
 62
     1
  6
CENTER
370
    -3
390
E00DFA69
  0
LAYER
  5
E00DEA8F
330
E00DEA47
100
AcDbSymbolTableRecord
100
AcDbLayerTableRecord
  2
HATCH
 70
     0
 62
     4
  6
CONTINUOUS
370
    -3
390
E00DFA69
  0
LAYER
  5
E00DEA90
330
E00DEA47
100
AcDbSymbolTableRecord
100
AcDbLayerTableRecord
  2
SUNPOU
 70
     0
 62
     3
  6
CONTINUOUS
370
    -3
390
E00DFA69
  0
LAYER
  5
E00DEA91
330
E00DEA47
100
AcDbSymbolTableRecord
100
AcDbLayerTableRecord
  2
TEXT
 70
     0
 62
     3
  6
CONTINUOUS
370
    -3
390
E00DFA69
  0
LAYER
  5
E00DEA92
330
E00DEA47
100
AcDbSymbolTableRecord
100
AcDbLayerTableRecord
  2
SAISEN
 70
     0
 62
     4
  6
CONTINUOUS
370
    -3
390
E00DFA69
  0
LAYER
  5
E00DEA93
330
E00DEA47
100
AcDbSymbolTableRecord
100
AcDbLayerTableRecord
  2
JISSEN
 70
     0
 62
     7
  6
CONTINUOUS
370
    -3
390
E00DFA69
  0
LAYER
  5
E00DEA96
330
E00DEA47
100
AcDbSymbolTableRecord
100
AcDbLayerTableRecord
  2
WAKU
 70
     0
 62
     5
  6
CONTINUOUS
370
    -3
390
E00DFA69
  0
LAYER
  5
E00DEA97
330
E00DEA47
100
AcDbSymbolTableRecord
100
AcDbLayerTableRecord
  2
TENSEN
 70
     0
 62
     2
  6
HIDDEN
370
    -3
390
E00DFA69
  0
LAYER
  5
E00E0AD5
330
E00DEA47
100
AcDbSymbolTableRecord
100
AcDbLayerTableRecord
  2
SCALE
 70
     0
 62
     4
  6
CONTINUOUS
370
    -3
390
E00DFA69
  0
LAYER
  5
E00E0AD6
330
E00DEA47
100
AcDbSymbolTableRecord
100
AcDbLayerTableRecord
  2
BORDER
 70
     0
 62
     5
  6
CONTINUOUS
370
    -3
390
E00DFA69
  0
LAYER
  5
E00E0AD7
330
E00DEA47
100
AcDbSymbolTableRecord
100
AcDbLayerTableRecord
  2
NITEN
 70
     0
 62
     2
  6
PHANTOM
370
    -3
390
E00DFA69
  0
LAYER
  5
E00E5AB9
330
E00DEA47
100
AcDbSymbolTableRecord
100
AcDbLayerTableRecord
  2
DEFPOINTS
 70
     0
 62
    -7
  6
CONTINUOUS
290
     0
370
    -3
390
E00DFA69
  0
ENDTAB
  0
TABLE
  2
STYLE
  5
E00DEA48
330
0
100
AcDbSymbolTable
 70
     6
  0
STYLE
  5
E00DEA55
330
E00DEA48
100
AcDbSymbolTableRecord
100
AcDbTextStyleTableRecord
  2
STANDARD
 70
     0
 40
0.0
 41
1.0
 50
0.0
 71
     0
 42
2.5
  3
SIMPLEX
  4

  0
STYLE
  5
E00DEA7C
330
E00DEA48
100
AcDbSymbolTableRecord
100
AcDbTextStyleTableRecord
  2
K
 70
     0
 40
0.0
 41
1.0
 50
0.0
 71
     0
 42
6.0
  3
SIMPLEX
  4
bigfont.shx
  0
STYLE
  5
E00DFB37
330
E00DEA48
100
AcDbSymbolTableRecord
100
AcDbTextStyleTableRecord
  2
DIMENSION
 70
     0
 40
0.0
 41
1.0
 50
0.0
 71
     0
 42
2.5
  3
TXT
  4

  0
STYLE
  5
E00EC309
330
E00DEA48
100
AcDbSymbolTableRecord
100
AcDbTextStyleTableRecord
  2
BIGFONT
 70
     0
 40
0.0
 41
1.0
 50
0.0
 71
     0
 42
3.0
  3
txt.shx
  4
bigfont
  0
STYLE
  5
E00ECC5D
330
E00DEA48
100
AcDbSymbolTableRecord
100
AcDbTextStyleTableRecord
  2
ROMANS
 70
     0
 40
0.0
 41
0.8
 50
0.0
 71
     0
 42
6.0
  3
romans
  4

  0
STYLE
  5
E00EDB5C
330
E00DEA48
100
AcDbSymbolTableRecord
100
AcDbTextStyleTableRecord
  2
ＭＳゴシック
 70
     0
 40
0.0
 41
1.0
 50
0.0
 71
     0
 42
2.5
  3

  4

1001
ACAD
1000
ＭＳ ゴシック
1071
    32817
  0
ENDTAB
  0
TABLE
  2
VIEW
  5
E00DEA4B
330
0
100
AcDbSymbolTable
 70
     0
  0
ENDTAB
  0
TABLE
  2
UCS
  5
E00DEA4C
330
0
100
AcDbSymbolTable
 70
     0
  0
ENDTAB
  0
TABLE
  2
APPID
  5
E00DEA4E
330
0
100
AcDbSymbolTable
 70
     8
  0
APPID
  5
E00DEA56
330
E00DEA4E
100
AcDbSymbolTableRecord
100
AcDbRegAppTableRecord
  2
ACAD
 70
     0
  0
APPID
  5
E00E89BA
330
E00DEA4E
100
AcDbSymbolTableRecord
100
AcDbRegAppTableRecord
  2
CONTENTBLOCKICON
 70
     0
  0
APPID
  5
E00E89BB
330
E00DEA4E
100
AcDbSymbolTableRecord
100
AcDbRegAppTableRecord
  2
X_OBJNAME
 70
     0
  0
APPID
  5
E00E89BC
330
E00DEA4E
100
AcDbSymbolTableRecord
100
AcDbRegAppTableRecord
  2
X_PARAM_BALLOON
 70
     0
  0
APPID
  5
E00E89BD
330
E00DEA4E
100
AcDbSymbolTableRecord
100
AcDbRegAppTableRecord
  2
X_PARAM_TXTPATERN
 70
     0
  0
APPID
  5
E00E89BE
330
E00DEA4E
100
AcDbSymbolTableRecord
100
AcDbRegAppTableRecord
  2
X_PARAM_CTXTPATERN
 70
     0
  0
APPID
  5
E00E89BF
330
E00DEA4E
100
AcDbSymbolTableRecord
100
AcDbRegAppTableRecord
  2
X_PARAM_SYSVAL
 70
     0
  0
APPID
  5
E00E89C0
330
E00DEA4E
100
AcDbSymbolTableRecord
100
AcDbRegAppTableRecord
  2
X_DEFINELIST
 70
     0
  0
ENDTAB
  0
TABLE
  2
DIMSTYLE
  5
E00DEA4F
330
0
100
AcDbSymbolTable
 70
     2
100
AcDbDimStyleTable
 71
     1
340
E00DEA8C
  0
DIMSTYLE
105
E00DEA8C
330
E00DEA4F
100
AcDbSymbolTableRecord
100
AcDbDimStyleTableRecord
  2
IMAO
 70
     0
 41
1.5
 42
1.0
 43
6.0
 44
1.0
 47
495.0
 73
     0
 74
     0
 77
     1
 78
     8
140
3.0
141
0.0
172
     1
174
     1
271
     2
272
     2
279
     2
284
     8
285
     8
286
     8
340
E00DEA7C
341
E00DEA68
342
E00DEA68
343
E00DEA68
344
E00DEA68
  0
DIMSTYLE
105
E00DFB38
330
E00DEA4F
100
AcDbSymbolTableRecord
100
AcDbDimStyleTableRecord
  2
STANDARD
 70
     0
 40
0.5
 41
2.0
 42
0.1
 43
10.0
 44
1.5
 73
     0
 74
     0
 78
     8
140
3.0
145
1.0
147
0.1
172
     1
176
   256
177
   256
178
   256
271
     2
272
     2
284
     8
340
E00DFB37
341
E00DFB2F
342
E00DFB2F
  0
ENDTAB
  0
TABLE
  2
BLOCK_RECORD
  5
E00DEA46
330
0
100
AcDbSymbolTable
 70
     5
  0
BLOCK_RECORD
  5
E00DEA5D
102
{ACAD_XDICTIONARY
360
E00DFB13
102
}
330
E00DEA46
100
AcDbSymbolTableRecord
100
AcDbBlockTableRecord
  2
*MODEL_SPACE
340
E00DFA6C
  0
BLOCK_RECORD
  5
E00DEA5A
102
{ACAD_XDICTIONARY
360
E00DFB11
102
}
330
E00DEA46
100
AcDbSymbolTableRecord
100
AcDbBlockTableRecord
  2
*PAPER_SPACE
340
E00DFA6D
  0
BLOCK_RECORD
  5
E00DEA61
330
E00DEA46
100
AcDbSymbolTableRecord
100
AcDbBlockTableRecord
  2
ARROW
340
0
102
{BLKREFS
331
E00ED64D
331
E00ED6FD
102
}
  0
BLOCK_RECORD
  5
E00DEA68
330
E00DEA46
100
AcDbSymbolTableRecord
100
AcDbBlockTableRecord
  2
ARROWANG
340
0
  0
BLOCK_RECORD
  5
E00DFB2F
330
E00DEA46
100
AcDbSymbolTableRecord
100
AcDbBlockTableRecord
  2
AR_OPEN
340
0
  0
BLOCK_RECORD
  5
E00E0A21
330
E00DEA46
100
AcDbSymbolTableRecord
100
AcDbBlockTableRecord
  2
WAKU
340
0
  0
BLOCK_RECORD
  5
E00EDB5D
330
E00DEA46
100
AcDbSymbolTableRecord
100
AcDbBlockTableRecord
  2
A$C71F23AEB
340
0
  0
ENDTAB
  0
ENDSEC
  0
SECTION
  2
BLOCKS
  0
BLOCK
  5
E00DEA9A
330
E00DEA5D
100
AcDbEntity
  8
0
100
AcDbBlockBegin
  2
*MODEL_SPACE
 70
     0
 10
0.0
 20
0.0
 30
0.0
  3
*MODEL_SPACE
  1

  0
ENDBLK
  5
E00DEA9B
330
E00DEA5D
100
AcDbEntity
  8
0
100
AcDbBlockEnd
  0
BLOCK
  5
E00DEA98
330
E00DEA5A
100
AcDbEntity
 67
     1
  8
0
100
AcDbBlockBegin
  2
*PAPER_SPACE
 70
     0
 10
0.0
 20
0.0
 30
0.0
  3
*PAPER_SPACE
  1

  0
ENDBLK
  5
E00DEA99
330
E00DEA5A
100
AcDbEntity
 67
     1
  8
0
100
AcDbBlockEnd
  0
BLOCK
  5
41E
330
E00DEA61
100
AcDbEntity
  8
0
100
AcDbBlockBegin
  2
ARROW
 70
     0
 10
1.0
 20
0.5
 30
0.0
  3
ARROW
  1

  0
LINE
  5
41F
330
E00DEA61
100
AcDbEntity
  8
0
100
AcDbLine
 10
1.0
 20
0.5
 30
0.0
 11
-0.5000000000000214
 21
0.0980762113533018
 31
0.0
  0
LINE
  5
420
330
E00DEA61
100
AcDbEntity
  8
0
100
AcDbLine
 10
0.0
 20
0.5
 30
0.0
 11
1.0
 21
0.5
 31
0.0
  0
LINE
  5
421
330
E00DEA61
100
AcDbEntity
  8
0
100
AcDbLine
 10
1.0
 20
0.5
 30
0.0
 11
-0.4999999999999575
 21
0.9019237886467408
 31
0.0
  0
ENDBLK
  5
422
330
E00DEA61
100
AcDbEntity
  8
0
100
AcDbBlockEnd
  0
BLOCK
  5
460
330
E00DEA68
100
AcDbEntity
  8
0
100
AcDbBlockBegin
  2
ARROWANG
 70
     0
 10
0.0
 20
0.0
 30
0.0
  3
ARROWANG
  1

  0
LINE
  5
461
330
E00DEA68
100
AcDbEntity
  8
SUNPOU
100
AcDbLine
 10
0.0
 20
0.0
 30
0.0
 11
-1.499999999999956
 21
0.401923788646741
 31
0.0
  0
LINE
  5
462
330
E00DEA68
100
AcDbEntity
  8
SUNPOU
100
AcDbLine
 10
0.0
 20
0.0
 30
0.0
 11
-1.500000000000027
 21
-0.4019237886467124
 31
0.0
  0
ENDBLK
  5
463
330
E00DEA68
100
AcDbEntity
  8
0
100
AcDbBlockEnd
  0
BLOCK
  5
E00DFB33
330
E00DFB2F
100
AcDbEntity
  8
0
100
AcDbBlockBegin
  2
AR_OPEN
 70
     0
 10
0.0
 20
0.0
 30
0.0
  3
AR_OPEN
  1

  0
LINE
  5
E00DFB30
330
E00DFB2F
100
AcDbEntity
  8
0
 62
     0
100
AcDbLine
 10
-1.0
 20
0.0
 30
0.0
 11
0.0
 21
0.0
 31
0.0
  0
LINE
  5
E00DFB31
330
E00DFB2F
100
AcDbEntity
  8
0
 62
     0
100
AcDbLine
 10
0.0
 20
0.0
 30
0.0
 11
-1.0
 21
0.2679491924311037
 31
0.0
  0
LINE
  5
E00DFB32
330
E00DFB2F
100
AcDbEntity
  8
0
 62
     0
100
AcDbLine
 10
0.0
 20
0.0
 30
0.0
 11
-1.0
 21
-0.2679491924311037
 31
0.0
  0
ENDBLK
  5
E00DFB34
330
E00DFB2F
100
AcDbEntity
  8
0
100
AcDbBlockEnd
  0
BLOCK
  5
E00E0A26
330
E00E0A21
100
AcDbEntity
  8
0
100
AcDbBlockBegin
  2
WAKU
 70
     0
 10
0.0
 20
0.0
 30
0.0
  3
WAKU
  1

  0
LINE
  5
E00E0A22
330
E00E0A21
100
AcDbEntity
  8
WAKU
100
AcDbLine
 10
0.9999999959999998
 20
0.0
 30
0.0
 11
0.9999999959999998
 21
0.9999999999999998
 31
0.0
  0
LINE
  5
E00E0A23
330
E00E0A21
100
AcDbEntity
  8
WAKU
100
AcDbLine
 10
0.0
 20
0.9999999999999998
 30
0.0
 11
0.9999999959999998
 21
0.9999999999999998
 31
0.0
  0
LINE
  5
E00E0A24
330
E00E0A21
100
AcDbEntity
  8
WAKU
100
AcDbLine
 10
0.9999999959999998
 20
0.0
 30
0.0
 11
0.0
 21
0.0
 31
0.0
  0
LINE
  5
E00E0A25
330
E00E0A21
100
AcDbEntity
  8
WAKU
100
AcDbLine
 10
0.0
 20
0.0
 30
0.0
 11
0.0
 21
0.9999999999999998
 31
0.0
  0
ENDBLK
  5
E00E0A27
330
E00E0A21
100
AcDbEntity
  8
0
100
AcDbBlockEnd
  0
BLOCK
  5
E00EDB62
330
E00EDB5D
100
AcDbEntity
  8
0
100
AcDbBlockBegin
  2
A$C71F23AEB
 70
     0
 10
0.0
 20
0.0
 30
0.0
  3
A$C71F23AEB
  1

  0
LINE
  5
E00EDB5E
330
E00EDB5D
100
AcDbEntity
  8
SUNPOU
100
AcDbLine
 10
1.99121738143242
 20
2.98729874669948
 30
0.0
 11
1.99121738143242
 21
-0.01270125330052
 31
0.0
  0
LINE
  5
E00EDB5F
330
E00EDB5D
100
AcDbEntity
  8
SUNPOU
100
AcDbLine
 10
3.49121738143242
 20
2.98729874669948
 30
0.0
 11
3.49121738143242
 21
-0.01270125330052
 31
0.0
  0
LINE
  5
E00EDB60
330
E00EDB5D
100
AcDbEntity
  8
SUNPOU
100
AcDbLine
 10
1.24121738143242
 20
-0.01270125330052
 30
0.0
 11
4.24121738143242
 21
-0.01270125330052
 31
0.0
  0
LINE
  5
E00EDB61
330
E00EDB5D
100
AcDbEntity
  8
SUNPOU
100
AcDbLine
 10
1.24121738143242
 20
2.98729874669948
 30
0.0
 11
4.24121738143242
 21
2.98729874669948
 31
0.0
  0
ENDBLK
  5
E00EDB63
330
E00EDB5D
100
AcDbEntity
  8
0
100
AcDbBlockEnd
  0
ENDSEC
  0
SECTION
  2
ENTITIES
  0
LINE
  5
E00ED63B
330
E00DEA5D
100
AcDbEntity
  8
JISSEN
100
AcDbLine
 10
122.9999998043618
 20
258.0000002925355
 30
0.0
 11
180.999999442362
 21
258.0000002925355
 31
0.0
  0
LINE
  5
E00ED63C
330
E00DEA5D
100
AcDbEntity
  8
JISSEN
100
AcDbLine
 10
122.9999998043618
 20
263.0000002925355
 30
0.0
 11
180.999999442362
 21
263.0000002925355
 31
0.0
  0
LINE
  5
E00ED63D
330
E00DEA5D
100
AcDbEntity
  8
JISSEN
100
AcDbLine
 10
122.9999998043618
 20
268.0000002925355
 30
0.0
 11
180.999999442362
 21
268.0000002925355
 31
0.0
  0
LWPOLYLINE
  5
E00ED63E
330
E00DEA5D
100
AcDbEntity
  8
WAKU
100
AcDbPolyline
 90
        4
 70
     1
 43
0.0
 10
180.9999998043618
 20
0.0000002925355602
 10
0.000000528361511
 20
0.0000002925355602
 10
0.000000528361511
 20
273.0000002925355
 10
180.9999998043618
 20
273.0000002925355
  0
CIRCLE
  5
E00ED63F
330
E00DEA5D
100
AcDbEntity
  8
SUNPOU
100
AcDbCircle
 10
66.11098317631297
 20
137.8533136483531
 30
0.0
 40
3.0
  0
TEXT
  5
E00ED640
330
E00DEA5D
100
AcDbEntity
  8
SUNPOU
100
AcDbText
 10
65.7538403191701
 20
136.3533136483531
 30
0.0
 40
3.0
  1
1
  7
K
 72
     4
 11
66.11098317631297
 21
137.8533136483531
 31
0.0
100
AcDbText
  0
LINE
  5
E00ED641
330
E00DEA5D
100
AcDbEntity
  8
JISSEN
100
AcDbLine
 39
1680.364539346804
 10
94.28054814827204
 20
33.23954601766558
 30
0.0
 11
93.58071064216813
 21
32.53970851156441
 31
0.0
  0
LINE
  5
E00ED642
330
E00DEA5D
100
AcDbEntity
  8
JISSEN
100
AcDbLine
 39
1680.364539346804
 10
85.83086702069943
 20
33.23954601769287
 30
0.0
 11
86.53070452679878
 21
32.53970851158806
 31
0.0
  0
ARC
  5
E00ED643
330
E00DEA5D
100
AcDbEntity
  8
JISSEN
100
AcDbCircle
 10
90.05570758447367
 20
99.09047542407462
 30
0.0
 40
32.5
100
AcDbArc
 50
180.0
 51
0.0
  0
ARC
  5
E00ED644
330
E00DEA5D
100
AcDbEntity
  8
JISSEN
100
AcDbCircle
 10
90.05570758447367
 20
99.09047542407462
 30
0.0
 40
32.5
100
AcDbArc
 50
0.0
 51
180.0
  0
LINE
  5
E00ED645
330
E00DEA5D
100
AcDbEntity
  8
JISSEN
100
AcDbLine
 10
73.20183815097164
 20
43.00714826126636
 30
0.0
 11
59.01580110467114
 21
45.00086574886404
 31
0.0
  0
LINE
  5
E00ED646
330
E00DEA5D
100
AcDbEntity
  8
JISSEN
100
AcDbLine
 10
57.5557075843941
 20
45.99255036446698
 30
0.0
 11
122.5557075845496
 21
45.99255036446698
 31
0.0
  0
HATCH
  5
E00ED647
330
E00DEA5D
100
AcDbEntity
  8
SUNPOU
100
AcDbHatch
 10
0.0
 20
0.0
 30
0.0
210
0.0
220
0.0
230
1.0
  2
ANSI31
 70
     0
 71
     0
 91
        2
 92
        5
 93
        5
 72
     1
 10
90.05570758447367
 20
55.99255036446698
 11
33.00383947984585
 21
55.99255036446516
 72
     4
 94
        3
 73
     0
 74
     0
 95
       11
 96
        7
 40
0.0
 40
0.0
 40
0.0
 40
0.0
 40
3.264692203133994
 40
6.15697472568029
 40
8.955271668736928
 40
10.85738683396026
 40
10.85738683396026
 40
10.85738683396026
 40
10.85738683396026
 10
33.00383947984494
 20
55.99255036446698
 10
33.67894016813136
 20
54.99115141326069
 10
34.95213151862947
 20
53.10258500354826
 10
32.68628680228505
 20
50.25121397047837
 10
34.88940396884174
 20
47.62488347273825
 10
33.54704977810763
 20
46.4628074995478
 10
33.00383947984494
 20
45.99255036446698
 72
     1
 10
33.00383947984494
 20
45.99255036446698
 11
57.55570758439773
 21
45.99255036446698
 72
     1
 10
57.55570758439773
 20
45.99255036446698
 11
90.05570758447367
 21
45.99255036446698
 72
     1
 10
90.05570758447367
 20
45.99255036446516
 11
90.05570758447367
 21
55.99255036446698
 97
        0
 92
        5
 93
        5
 72
     4
 94
        3
 73
     0
 74
     0
 95
       11
 96
        7
 40
0.0
 40
0.0
 40
0.0
 40
0.0
 40
1.902115165223333
 40
4.700412108279971
 40
7.592694630826267
 40
10.85738683396026
 40
10.85738683396026
 40
10.85738683396026
 40
10.85738683396026
 10
147.1075756891024
 20
45.99255036446698
 10
146.5643653908397
 20
46.4628074995478
 10
145.2220112001056
 20
47.62488347273825
 10
147.4251283666623
 20
50.25121397047837
 10
145.1592836503178
 20
53.10258500354826
 10
146.4324750008159
 20
54.99115141326069
 10
147.1075756891024
 20
55.99255036446698
 72
     1
 10
147.1075756891019
 20
55.99255036446516
 11
90.0557075844739
 21
55.9925503644688
 72
     1
 10
90.05570758447367
 20
55.99255036446698
 11
90.05570758447367
 21
45.99255036446516
 72
     1
 10
90.05570758447367
 20
45.99255036446698
 11
122.5557075845496
 21
45.99255036446698
 72
     1
 10
122.5557075845496
 20
45.99255036446698
 11
147.1075756891024
 21
45.99255036446698
 97
        0
 75
     0
 76
     1
 52
0.0
 41
10.0
 77
     0
 78
     1
 53
45.0
 43
185.0253229146702
 44
-2526.670502530646
 45
-0.8838834764831842
 46
0.8838834764831844
 79
     0
 47
0.087569455337929
 98
        2
 10
84.46519853813526
 20
53.00987369010432
 10
105.8413467487881
 20
52.7471653112159
  0
LINE
  5
E00ED648
330
E00DEA5D
100
AcDbEntity
  8
SUNPOU
100
AcDbLine
 10
57.55570758439773
 20
45.99255036446698
 30
0.0
 11
33.00383947984448
 21
45.99255036446698
 31
0.0
  0
CIRCLE
  5
E00ED649
330
E00DEA5D
100
AcDbEntity
  8
SUNPOU
100
AcDbCircle
 10
56.78928989028202
 20
32.29323742427617
 30
0.0
 40
3.0
  0
LINE
  5
E00ED64A
330
E00DEA5D
100
AcDbEntity
  8
SUNPOU
100
AcDbLine
 10
58.65736939453211
 20
34.64063576409965
 30
0.0
 11
66.10881962741553
 21
44.0040070050661
 31
0.0
  0
TEXT
  5
E00ED64B
330
E00DEA5D
100
AcDbEntity
  8
SUNPOU
100
AcDbText
 10
55.78928989028202
 20
30.79323742427617
 30
0.0
 40
3.0
  1
2
  7
K
 72
     4
 11
56.78928989028202
 21
32.29323742427617
 31
0.0
100
AcDbText
  0
ARC
  5
E00ED64C
330
E00DEA5D
100
AcDbEntity
  8
JISSEN
100
AcDbCircle
 10
59.29414730656993
 20
46.98140188636421
 30
0.0
 40
1.999999999999996
100
AcDbArc
 50
209.6318914940852
 51
261.9999999999498
  0
INSERT
  5
E00ED64D
330
E00DEA5D
100
AcDbEntity
  8
SUNPOU
100
AcDbBlockReference
  2
ARROW
 10
66.0933214778953
 20
43.98820003401373
 30
0.0
 41
1.500000000000068
 42
1.5
 43
1.5
 50
51.56959793943634
  0
LINE
  5
E00ED64E
330
E00DEA5D
100
AcDbEntity
  8
SUNPOU
100
AcDbLine
 10
122.5557075845496
 20
45.99255036446698
 30
0.0
 11
147.1075756891028
 21
45.99255036446698
 31
0.0
  0
TEXT
  5
E00ED64F
330
E00DEA5D
100
AcDbEntity
  8
TEXT
100
AcDbText
 10
115.2605109146407
 20
9.100734388374121
 30
0.0
 40
3.0
  1
KF　＋シーリングプレートK 取付状態
  7
K
 72
     4
 11
147.046225200355
 21
10.60073438837412
 31
0.0
100
AcDbText
  0
TEXT
  5
E00ED650
330
E00DEA5D
100
AcDbEntity
  8
TEXT
100
AcDbText
 10
114.868479823012
 20
4.698249782393467
 30
0.0
 40
3.0
  1
尺度　1/1
  7
K
 72
     4
 11
123.3399083944406
 21
5.983964068107752
 31
0.0
100
AcDbText
  0
LINE
  5
E00ED651
330
E00DEA5D
100
AcDbEntity
  8
JISSEN
100
AcDbLine
 39
240.0520776831561
 10
77.65570758455635
 20
42.43970708535994
 30
0.0
 11
90.05570758455963
 21
42.43970708527626
 31
0.0
  0
LINE
  5
E00ED652
330
E00DEA5D
100
AcDbEntity
  8
JISSEN
100
AcDbLine
 39
240.0520776831561
 10
102.4557075844769
 20
42.43970708527808
 30
0.0
 11
90.05570758447367
 21
42.43970708527626
 31
0.0
  0
LINE
  5
E00ED653
330
E00DEA5D
100
AcDbEntity
  8
JISSEN
370
    -2
100
AcDbLine
 10
96.86897296767449
 20
35.73954735876645
 30
0.0
 11
90.05570758447367
 21
35.73954735876645
 31
0.0
  0
LINE
  5
E00ED654
330
E00DEA5D
100
AcDbEntity
  8
JISSEN
370
    -2
100
AcDbLine
 10
103.3057074279742
 20
40.23954716506591
 30
0.0
 11
90.0557075844746
 21
40.23954716506591
 31
0.0
  0
LINE
  5
E00ED655
330
E00DEA5D
100
AcDbEntity
  8
JISSEN
370
    -2
100
AcDbLine
 10
96.86897296767449
 20
38.7395459878669
 30
0.0
 11
90.05570758447367
 21
38.7395459878669
 31
0.0
  0
LINE
  5
E00ED656
330
E00DEA5D
100
AcDbEntity
  8
JISSEN
100
AcDbLine
 10
90.05570758447367
 20
42.99255036446697
 30
0.0
 11
106.6888504985746
 21
42.99255036446697
 31
0.0
  0
LINE
  5
E00ED657
330
E00DEA5D
100
AcDbEntity
  8
JISSEN
370
    -2
100
AcDbLine
 10
101.3057080314739
 20
33.23954601766558
 30
0.0
 11
90.0557075844746
 21
33.23954601766558
 31
0.0
  0
ARC
  5
E00ED658
330
E00DEA5D
100
AcDbEntity
  8
JISSEN
370
    -2
100
AcDbCircle
 10
83.35728304942369
 20
37.14360199701036
 30
0.0
 40
1.408743357584393
100
AcDbArc
 50
176.0947579959861
 51
265.3240556089233
  0
ARC
  5
E00ED659
330
E00DEA5D
100
AcDbEntity
  8
JISSEN
370
    -2
100
AcDbCircle
 10
83.31948097572524
 20
37.36801706211258
 30
0.0
 40
1.373690855685324
100
AcDbArc
 50
93.21492544802405
 51
185.3662609455778
  0
LINE
  5
E00ED65A
330
E00DEA5D
100
AcDbEntity
  8
JISSEN
370
    -2
100
AcDbLine
 10
76.8057077410441
 20
40.23954716515504
 30
0.0
 11
90.05570758454371
 21
40.23954716506591
 31
0.0
  0
LINE
  5
E00ED65B
330
E00DEA5D
100
AcDbEntity
  8
JISSEN
100
AcDbLine
 10
90.05570758447367
 20
42.99255036446516
 30
0.0
 11
73.42256467037088
 21
42.99255036446516
 31
0.0
  0
LINE
  5
E00ED65C
330
E00DEA5D
100
AcDbEntity
  8
JISSEN
370
    -2
100
AcDbLine
 10
78.80570713749751
 20
33.23954601774016
 30
0.0
 11
90.05570758449687
 21
33.23954601766558
 31
0.0
  0
ARC
  5
E00ED65D
330
E00DEA5D
100
AcDbEntity
  8
JISSEN
370
    -2
100
AcDbCircle
 10
78.80570758451051
 20
35.23954679123994
 30
0.0
 40
2.000000000000056
100
AcDbArc
 50
179.9999999995831
 51
269.9999999996091
  0
LINE
  5
E00ED65E
330
E00DEA5D
100
AcDbEntity
  8
JISSEN
370
    -2
100
AcDbLine
 10
76.80570774101409
 20
35.73954735885559
 30
0.0
 11
78.69164526781435
 21
35.73954735884103
 31
0.0
  0
LINE
  5
E00ED65F
330
E00DEA5D
100
AcDbEntity
  8
JISSEN
370
    -2
100
AcDbLine
 10
76.8057077410341
 20
38.73954598795603
 30
0.0
 11
78.69164526783436
 21
38.73954598794148
 31
0.0
  0
LINE
  5
E00ED660
330
E00DEA5D
100
AcDbEntity
  8
JISSEN
370
    -2
100
AcDbLine
 10
76.80570774101409
 20
35.73954735885559
 30
0.0
 11
76.80570774101091
 21
35.23954634555479
 31
0.0
  0
LINE
  5
E00ED661
330
E00DEA5D
100
AcDbEntity
  8
JISSEN
370
    -2
100
AcDbLine
 10
76.8057077410441
 20
40.23954716515504
 30
0.0
 11
76.8057077410341
 21
38.73954598795603
 31
0.0
  0
SPLINE
  5
E00ED662
330
E00DEA5D
100
AcDbEntity
  8
JISSEN
370
    -2
100
AcDbSpline
210
0.0
220
0.0
230
1.0
 70
    12
 71
     3
 72
    12
 73
     8
 74
     0
 42
0.0000000001
 43
0.0000000001
 40
0.0
 40
0.0
 40
0.0
 40
0.0
 40
0.205840282809383
 40
0.4116490113380446
 40
0.6184457918287852
 40
0.8292559119854885
 40
1.0
 40
1.0
 40
1.0
 40
1.0
 10
79.57289528419744
 20
37.2395466733858
 30
0.0
 41
1.0
 10
79.56287881134324
 20
37.07412020809965
 30
0.0
 41
1.0
 10
79.542847401112
 20
36.74329263656431
 30
0.0
 41
1.0
 10
79.38911945915799
 20
36.30190378413022
 30
0.0
 41
1.0
 10
79.16974964565145
 20
35.96521325627395
 30
0.0
 41
1.0
 10
78.92283898537755
 20
35.7706444561561
 30
0.0
 41
1.0
 10
78.76311925338644
 20
35.74916108671164
 30
0.0
 41
1.0
 10
78.69164526779616
 20
35.73954735884467
 30
0.0
 41
1.0
  0
SPLINE
  5
E00ED663
330
E00DEA5D
100
AcDbEntity
  8
JISSEN
370
    -2
100
AcDbSpline
210
0.0
220
0.0
230
1.0
 70
    12
 71
     3
 72
    12
 73
     8
 74
     0
 42
0.0000000001
 43
0.0000000001
 40
0.0
 40
0.0
 40
0.0
 40
0.0
 40
0.2270414180693609
 40
0.4545205376007232
 40
0.6714649260062801
 40
0.8806674473517201
 40
1.0
 40
1.0
 40
1.0
 40
1.0
 10
78.69164526781617
 20
38.73954598793784
 30
0.0
 41
1.0
 10
78.78739844860331
 20
38.72263633798934
 30
0.0
 41
1.0
 10
78.97908940780656
 20
38.68878443884273
 30
0.0
 41
1.0
 10
79.25303050367222
 20
38.41489432545927
 30
0.0
 41
1.0
 10
79.45889807685
 20
38.01452540918103
 30
0.0
 41
1.0
 10
79.56006114922877
 20
37.59805764020597
 30
0.0
 41
1.0
 10
79.56947567984173
 20
37.33507049845752
 30
0.0
 41
1.0
 10
79.57289528419744
 20
37.2395466733858
 30
0.0
 41
1.0
  0
LINE
  5
E00ED664
330
E00DEA5D
100
AcDbEntity
  8
JISSEN
100
AcDbLine
 10
73.42256467037088
 20
42.99255036446516
 30
0.0
 11
73.41059780237094
 21
42.99255036446516
 31
0.0
  0
ARC
  5
E00ED665
330
E00DEA5D
100
AcDbEntity
  8
JISSEN
100
AcDbCircle
 10
73.41059780236958
 20
44.49255036446698
 30
0.0
 40
1.5
100
AcDbArc
 50
261.9999999999498
 51
270.0
  0
ARC
  5
E00ED666
330
E00DEA5D
100
AcDbEntity
  8
JISSEN
100
AcDbCircle
 10
77.65570758455726
 20
42.63970708536066
 30
0.0
 40
0.1999999999999957
100
AcDbArc
 50
179.9999999995831
 51
269.9999999996091
  0
LINE
  5
E00ED667
330
E00DEA5D
100
AcDbEntity
  8
JISSEN
100
AcDbLine
 10
77.45570758456017
 20
42.99255036446516
 30
0.0
 11
77.45570758455745
 21
42.63970708536248
 31
0.0
  0
LINE
  5
E00ED668
330
E00DEA5D
100
AcDbEntity
  8
JISSEN
370
    -2
100
AcDbLine
 10
95.60570746977385
 20
42.43970708528173
 30
0.0
 11
95.60570746977385
 21
40.23954716506591
 31
0.0
  0
LINE
  5
E00ED669
330
E00DEA5D
100
AcDbEntity
  8
JISSEN
370
    -2
100
AcDbLine
 10
84.50570769925946
 20
42.43970708531811
 30
0.0
 11
84.50570769924445
 21
40.23954716510229
 31
0.0
  0
LINE
  5
E00ED66A
330
E00DEA5D
100
AcDbEntity
  8
JISSEN
100
AcDbLine
 10
90.05570758450597
 20
36.53970704091148
 30
0.0
 11
85.65570758450542
 21
36.53970704091148
 31
0.0
  0
LINE
  5
E00ED66B
330
E00DEA5D
100
AcDbEntity
  8
JISSEN
370
    -2
100
AcDbLine
 10
83.2424422013338
 20
38.73954598791238
 30
0.0
 11
90.05570758453462
 21
38.7395459878669
 31
0.0
  0
LINE
  5
E00ED66C
330
E00DEA5D
100
AcDbEntity
  8
JISSEN
370
    -2
100
AcDbLine
 10
83.24244220131379
 20
35.73954735881193
 30
0.0
 11
90.0557075845146
 21
35.73954735876645
 31
0.0
  0
LINE
  5
E00ED66D
330
E00DEA5D
100
AcDbEntity
  8
JISSEN
100
AcDbLine
 10
87.55570764039896
 20
32.53970851158078
 30
0.0
 11
90.05570758449961
 21
32.53970851156441
 31
0.0
  0
LINE
  5
E00ED66E
330
E00DEA5D
100
AcDbEntity
  8
JISSEN
100
AcDbLine
 10
86.53070412795988
 20
32.53970891042695
 30
0.0
 11
87.55570764039896
 21
32.53970851158078
 31
0.0
  0
ARC
  5
E00ED66F
330
E00DEA5D
100
AcDbEntity
  8
JISSEN
370
    -2
100
AcDbCircle
 10
85.65570758450542
 20
35.83954679116755
 30
0.0
 40
0.7000000000000242
100
AcDbArc
 50
90.0
 51
180.0
  0
LINE
  5
E00ED670
330
E00DEA5D
100
AcDbEntity
  8
JISSEN
370
    -2
100
AcDbLine
 10
84.95570740044479
 20
35.83954532626626
 30
0.0
 11
84.95570740044479
 21
35.73954735876645
 31
0.0
  0
ARC
  5
E00ED671
330
E00DEA5D
100
AcDbEntity
  8
JISSEN
370
    -2
100
AcDbCircle
 10
83.73275901432373
 20
37.12601585190782
 30
0.0
 40
1.387632780893617
100
AcDbArc
 50
175.3070321912916
 51
267.6527416120474
  0
ARC
  5
E00ED672
330
E00DEA5D
100
AcDbEntity
  8
JISSEN
370
    -2
100
AcDbCircle
 10
83.76588922362463
 20
37.32378708840838
 30
0.0
 40
1.418614261419669
100
AcDbArc
 50
93.63587483011
 51
183.4043513649434
  0
LINE
  5
E00ED673
330
E00DEA5D
100
AcDbEntity
  8
JISSEN
370
    -2
100
AcDbLine
 10
86.00570747940549
 20
38.7395459878669
 30
0.0
 11
86.00570747940549
 21
36.53970704091148
 31
0.0
  0
LINE
  5
E00ED674
330
E00DEA5D
100
AcDbEntity
  8
JISSEN
100
AcDbLine
 10
93.58071104100702
 20
32.5397089104033
 30
0.0
 11
92.55570752856796
 21
32.53970851156441
 31
0.0
  0
LINE
  5
E00ED675
330
E00DEA5D
100
AcDbEntity
  8
JISSEN
100
AcDbLine
 10
92.55570752856796
 20
32.53970851156441
 30
0.0
 11
90.05570758446731
 21
32.53970851156441
 31
0.0
  0
LINE
  5
E00ED676
330
E00DEA5D
100
AcDbEntity
  8
JISSEN
100
AcDbLine
 10
90.05570758450597
 20
36.53970704091148
 30
0.0
 11
94.45570758450651
 21
36.53970704091148
 31
0.0
  0
ARC
  5
E00ED677
330
E00DEA5D
100
AcDbEntity
  8
JISSEN
370
    -2
100
AcDbCircle
 10
94.45570758450651
 20
35.83954679116755
 30
0.0
 40
0.7000000000000242
100
AcDbArc
 50
0.0
 51
90.0
  0
LINE
  5
E00ED678
330
E00DEA5D
100
AcDbEntity
  8
JISSEN
370
    -2
100
AcDbLine
 10
95.15570776856714
 20
35.83954532626626
 30
0.0
 11
95.15570776856714
 21
35.73954735876645
 31
0.0
  0
LINE
  5
E00ED679
330
E00DEA5D
100
AcDbEntity
  8
JISSEN
370
    -2
100
AcDbLine
 10
94.10570768960644
 20
38.7395459878669
 30
0.0
 11
94.10570768960644
 21
36.53970704091148
 31
0.0
  0
LINE
  5
E00ED67A
330
E00DEA5D
100
AcDbEntity
  8
JISSEN
100
AcDbLine
 10
106.9095770179739
 20
43.00714826126636
 30
0.0
 11
121.0956140642739
 21
45.00086574886586
 31
0.0
  0
LINE
  5
E00ED67B
330
E00DEA5D
100
AcDbEntity
  8
JISSEN
370
    -2
100
AcDbLine
 10
103.3057074279742
 20
35.73954735876645
 30
0.0
 11
101.4197699011739
 21
35.73954735876645
 31
0.0
  0
LINE
  5
E00ED67C
330
E00DEA5D
100
AcDbEntity
  8
JISSEN
370
    -2
100
AcDbLine
 10
103.3057074279742
 20
38.7395459878669
 30
0.0
 11
101.4197699011739
 21
38.7395459878669
 31
0.0
  0
ARC
  5
E00ED67D
330
E00DEA5D
100
AcDbEntity
  8
JISSEN
370
    -2
100
AcDbCircle
 10
101.3057075844745
 20
35.23954679116537
 30
0.0
 40
2.000000000000056
100
AcDbArc
 50
270.0
 51
0.0
  0
ARC
  5
E00ED67E
330
E00DEA5D
100
AcDbEntity
  8
JISSEN
370
    -2
100
AcDbCircle
 10
96.75413211957414
 20
37.14360199696489
 30
0.0
 40
1.408743357584393
100
AcDbArc
 50
274.6759443907204
 51
3.905242003595682
  0
ARC
  5
E00ED67F
330
E00DEA5D
100
AcDbEntity
  8
JISSEN
370
    -2
100
AcDbCircle
 10
96.37865615467411
 20
37.12601585186598
 30
0.0
 40
1.387632780893617
100
AcDbArc
 50
272.3472583875874
 51
4.692967808289825
  0
ARC
  5
E00ED680
330
E00DEA5D
100
AcDbEntity
  8
JISSEN
370
    -2
100
AcDbCircle
 10
96.79193419327397
 20
37.36801706206711
 30
0.0
 40
1.373690855685324
100
AcDbArc
 50
354.6337390540033
 51
86.78507455160408
  0
ARC
  5
E00ED681
330
E00DEA5D
100
AcDbEntity
  8
JISSEN
370
    -2
100
AcDbCircle
 10
96.3455259453741
 20
37.32378708836654
 30
0.0
 40
1.418614261419669
100
AcDbArc
 50
356.5956486346391
 51
86.36412516949837
  0
SPLINE
  5
E00ED682
330
E00DEA5D
100
AcDbEntity
  8
JISSEN
370
    -2
100
AcDbSpline
210
0.0
220
0.0
230
1.0
 70
    12
 71
     3
 72
    12
 73
     8
 74
     0
 42
0.0000000001
 43
0.0000000001
 40
0.0
 40
0.0
 40
0.0
 40
0.0
 40
0.205840282809383
 40
0.4116490113380446
 40
0.6184457918287852
 40
0.8292559119854885
 40
1.0
 40
1.0
 40
1.0
 40
1.0
 10
100.5385198848008
 20
37.23954667331486
 30
0.0
 41
1.0
 10
100.5485363576536
 20
37.07412020802872
 30
0.0
 41
1.0
 10
100.5685677678831
 20
36.74329263649338
 30
0.0
 41
1.0
 10
100.7222957098339
 20
36.30190378405746
 30
0.0
 41
1.0
 10
100.9416655233382
 20
35.96521325620119
 30
0.0
 41
1.0
 10
101.1885761836111
 20
35.7706444560797
 30
0.0
 41
1.0
 10
101.3482959156018
 20
35.74916108663524
 30
0.0
 41
1.0
 10
101.4197699011921
 20
35.73954735876827
 30
0.0
 41
1.0
  0
SPLINE
  5
E00ED683
330
E00DEA5D
100
AcDbEntity
  8
JISSEN
370
    -2
100
AcDbSpline
210
0.0
220
0.0
230
1.0
 70
    12
 71
     3
 72
    12
 73
     8
 74
     0
 42
0.0000000001
 43
0.0000000001
 40
0.0
 40
0.0
 40
0.0
 40
0.0
 40
0.2270414180693609
 40
0.4545205376007232
 40
0.6714649260062801
 40
0.8806674473517201
 40
1.0
 40
1.0
 40
1.0
 40
1.0
 10
101.4197699011921
 20
38.73954598786145
 30
0.0
 41
1.0
 10
101.3240167204049
 20
38.72263633791294
 30
0.0
 41
1.0
 10
101.1323257612012
 20
38.68878443876815
 30
0.0
 41
1.0
 10
100.8583846653338
 20
38.41489432538651
 30
0.0
 41
1.0
 10
100.6525170921532
 20
38.01452540910827
 30
0.0
 41
1.0
 10
100.5513540197717
 20
37.59805764013504
 30
0.0
 41
1.0
 10
100.541939489157
 20
37.33507049838658
 30
0.0
 41
1.0
 10
100.5385198848008
 20
37.23954667331486
 30
0.0
 41
1.0
  0
LINE
  5
E00ED684
330
E00DEA5D
100
AcDbEntity
  8
JISSEN
370
    -2
100
AcDbLine
 10
103.3057074279742
 20
35.73954735876645
 30
0.0
 11
103.3057074279742
 21
35.23954634546567
 31
0.0
  0
LINE
  5
E00ED685
330
E00DEA5D
100
AcDbEntity
  8
JISSEN
370
    -2
100
AcDbLine
 10
103.3057074279742
 20
40.23954716506591
 30
0.0
 11
103.3057074279742
 21
38.7395459878669
 31
0.0
  0
ARC
  5
E00ED686
330
E00DEA5D
100
AcDbEntity
  8
JISSEN
100
AcDbCircle
 10
102.4557075844769
 20
42.63970708527881
 30
0.0
 40
0.1999999999999957
100
AcDbArc
 50
270.0
 51
0.0
  0
LINE
  5
E00ED687
330
E00DEA5D
100
AcDbEntity
  8
JISSEN
100
AcDbLine
 10
102.6557075844767
 20
42.99255036446697
 30
0.0
 11
102.6557075844767
 21
42.63970708527881
 31
0.0
  0
ARC
  5
E00ED688
330
E00DEA5D
100
AcDbEntity
  8
JISSEN
100
AcDbCircle
 10
106.7008173665755
 20
44.49255036446698
 30
0.0
 40
1.5
100
AcDbArc
 50
270.0
 51
278.0000000000501
  0
LINE
  5
E00ED689
330
E00DEA5D
100
AcDbEntity
  8
JISSEN
100
AcDbLine
 10
106.6888504985746
 20
42.99255036446697
 30
0.0
 11
106.7008173665745
 21
42.99255036446697
 31
0.0
  0
ARC
  5
E00ED68A
330
E00DEA5D
100
AcDbEntity
  8
JISSEN
100
AcDbCircle
 10
120.8172678623751
 20
46.98140188636602
 30
0.0
 40
1.999999999999996
100
AcDbArc
 50
278.0000000000501
 51
330.3681085059147
  0
CIRCLE
  5
E00ED68B
330
E00DEA5D
100
AcDbEntity
  8
JISSEN
100
AcDbCircle
 10
90.05570758447367
 20
99.09047542407462
 30
0.0
 40
14.65000000000134
  0
ARC
  5
E00ED68C
330
E00DEA5D
100
AcDbEntity
  8
JISSEN
100
AcDbCircle
 10
90.05570758447367
 20
99.09047542407462
 30
0.0
 40
15.0
100
AcDbArc
 50
180.0
 51
0.0
  0
CIRCLE
  5
E00ED68D
330
E00DEA5D
100
AcDbEntity
  8
JISSEN
370
    -2
100
AcDbCircle
 10
90.05570758447367
 20
99.09047542407462
 30
0.0
 40
5.300000000000039
  0
CIRCLE
  5
E00ED68E
330
E00DEA5D
100
AcDbEntity
  8
JISSEN
 48
0.2
370
    -2
100
AcDbCircle
 10
90.05570758447367
 20
99.09047542407462
 30
0.0
 40
13.25000000000011
  0
CIRCLE
  5
E00ED68F
330
E00DEA5D
100
AcDbEntity
  8
JISSEN
100
AcDbCircle
 39
240.0520776831561
 10
90.05570758447367
 20
99.09047542407462
 30
0.0
 40
2.149999999999999
  0
ARC
  5
E00ED690
330
E00DEA5D
100
AcDbEntity
  8
JISSEN
100
AcDbCircle
 10
90.05570758447367
 20
99.09047542407462
 30
0.0
 40
15.0
100
AcDbArc
 50
0.0
 51
180.0
  0
CIRCLE
  5
E00ED691
330
E00DEA5D
100
AcDbEntity
  8
JISSEN
370
    -2
100
AcDbCircle
 10
90.05570758447367
 20
99.09047542407462
 30
0.0
 40
4.55000000000005
  0
CIRCLE
  5
E00ED692
330
E00DEA5D
100
AcDbEntity
  8
JISSEN
370
    -2
100
AcDbCircle
 10
90.05570758447367
 20
99.09047542407462
 30
0.0
 40
4.600000000000036
  0
CIRCLE
  5
E00ED693
330
E00DEA5D
100
AcDbEntity
  8
JISSEN
370
    -2
100
AcDbCircle
 10
90.05570758447367
 20
99.09047542407462
 30
0.0
 40
3.550000000000018
  0
CIRCLE
  5
E00ED694
330
E00DEA5D
100
AcDbEntity
  8
SAISEN
370
    -2
100
AcDbCircle
 10
90.05570758447367
 20
99.09047542407462
 30
0.0
 40
1.500000000000001
  0
CIRCLE
  5
E00ED695
330
E00DEA5D
100
AcDbEntity
  8
JISSEN
370
    -2
100
AcDbCircle
 10
90.05570758447367
 20
99.09047542407462
 30
0.0
 40
1.200000000000015
  0
LINE
  5
E00ED696
330
E00DEA5D
100
AcDbEntity
  8
JISSEN
100
AcDbLine
 39
1680.364539346804
 10
75.1057075844293
 20
170.6700586140798
 30
0.0
 11
75.10570758442748
 21
170.1133625424738
 31
0.0
  0
LINE
  5
E00ED697
330
E00DEA5D
100
AcDbEntity
  8
JISSEN
100
AcDbLine
 39
1680.364539346804
 10
75.10570758447205
 20
170.6700586140034
 30
0.0
 11
75.10570758447295
 21
170.1133625423974
 31
0.0
  0
LINE
  5
E00ED698
330
E00DEA5D
100
AcDbEntity
  8
SAISEN
100
AcDbLine
 39
1680.364539346804
 10
75.90570758447313
 20
176.1729022154288
 30
0.0
 11
75.40570758447313
 21
175.3068768116538
 31
0.0
  0
LINE
  5
E00ED699
330
E00DEA5D
100
AcDbEntity
  8
JISSEN
100
AcDbLine
 39
1680.364539346804
 10
105.005707584518
 20
170.6700586140798
 30
0.0
 11
105.0057075845198
 21
170.1133625424738
 31
0.0
  0
LINE
  5
E00ED69A
330
E00DEA5D
100
AcDbEntity
  8
SAISEN
100
AcDbLine
 39
1680.364539346804
 10
104.2057075844742
 20
176.1729022154288
 30
0.0
 11
104.7057075844742
 21
175.3068768116538
 31
0.0
  0
LINE
  5
E00ED69B
330
E00DEA5D
100
AcDbEntity
  8
JISSEN
100
AcDbLine
 39
1680.364539346804
 10
105.0057075844753
 20
170.6700586140034
 30
0.0
 11
105.0057075844744
 21
170.1133625423974
 31
0.0
  0
LINE
  5
E00ED69C
330
E00DEA5D
100
AcDbEntity
  8
JISSEN
100
AcDbLine
 39
1680.364539346804
 10
75.40570758447405
 20
159.2896738563979
 30
0.0
 11
75.40570758447405
 21
159.8040332102612
 31
0.0
  0
LINE
  5
E00ED69D
330
E00DEA5D
100
AcDbEntity
  8
JISSEN
100
AcDbLine
 39
1680.364539346804
 10
75.70570758447331
 20
158.1700586141271
 30
0.0
 11
75.40570758447405
 21
159.2896738563979
 31
0.0
  0
LINE
  5
E00ED69E
330
E00DEA5D
100
AcDbEntity
  8
JISSEN
100
AcDbLine
 39
1680.364539346804
 10
75.70570758447331
 20
158.1700586141271
 30
0.0
 11
75.40570758447405
 21
159.2896738563979
 31
0.0
  0
LINE
  5
E00ED69F
330
E00DEA5D
100
AcDbEntity
  8
JISSEN
100
AcDbLine
 39
1680.364539346804
 10
75.10570758447205
 20
167.6700586140034
 30
0.0
 11
75.10570758447295
 21
167.1133625423974
 31
0.0
  0
LINE
  5
E00ED6A0
330
E00DEA5D
100
AcDbEntity
  8
JISSEN
100
AcDbLine
 39
1680.364539346804
 10
75.10570758447295
 20
164.6700586140034
 30
0.0
 11
75.10570758447295
 21
164.1133625423974
 31
0.0
  0
LINE
  5
E00ED6A1
330
E00DEA5D
100
AcDbEntity
  8
JISSEN
100
AcDbLine
 39
1680.364539346804
 10
104.405707584474
 20
158.1700586141271
 30
0.0
 11
104.7057075844733
 21
159.2896738563979
 31
0.0
  0
LINE
  5
E00ED6A2
330
E00DEA5D
100
AcDbEntity
  8
JISSEN
100
AcDbLine
 39
1680.364539346804
 10
104.405707584474
 20
158.1700586141271
 30
0.0
 11
104.7057075844733
 21
159.2896738563979
 31
0.0
  0
LINE
  5
E00ED6A3
330
E00DEA5D
100
AcDbEntity
  8
JISSEN
100
AcDbLine
 39
1680.364539346804
 10
104.7057075844733
 20
159.2896738563979
 30
0.0
 11
104.7057075844733
 21
159.8040332102612
 31
0.0
  0
LINE
  5
E00ED6A4
330
E00DEA5D
100
AcDbEntity
  8
JISSEN
100
AcDbLine
 39
1680.364539346804
 10
105.0057075844744
 20
164.6700586140034
 30
0.0
 11
105.0057075844744
 21
164.1133625423974
 31
0.0
  0
LINE
  5
E00ED6A5
330
E00DEA5D
100
AcDbEntity
  8
JISSEN
100
AcDbLine
 39
1680.364539346804
 10
105.0057075844753
 20
167.6700586140034
 30
0.0
 11
105.0057075844744
 21
167.1133625423974
 31
0.0
  0
LINE
  5
E00ED6A6
330
E00DEA5D
100
AcDbEntity
  8
JISSEN
100
AcDbLine
 39
1680.364539346804
 10
75.40202015786064
 20
161.7000902937561
 30
0.0
 11
104.7057075844715
 21
164.6700586140198
 31
0.0
  0
LINE
  5
E00ED6A7
330
E00DEA5D
100
AcDbEntity
  8
JISSEN
100
AcDbLine
 39
1680.364539346804
 10
80.65411176465739
 20
161.6700586140034
 30
0.0
 11
105.0057075844725
 21
164.1133625424101
 31
0.0
  0
LINE
  5
E00ED6A8
330
E00DEA5D
100
AcDbEntity
  8
JISSEN
100
AcDbLine
 39
1680.364539346804
 10
75.40205670520606
 20
164.6997926395148
 30
0.0
 11
105.0057075844725
 21
167.6700586140198
 31
0.0
  0
LINE
  5
E00ED6A9
330
E00DEA5D
100
AcDbEntity
  8
JISSEN
100
AcDbLine
 39
1680.364539346804
 10
75.10570758447295
 20
164.1133625424118
 30
0.0
 11
105.0057075844725
 21
167.1133625424119
 31
0.0
  0
LINE
  5
E00ED6AA
330
E00DEA5D
100
AcDbEntity
  8
JISSEN
100
AcDbLine
 39
1680.364539346804
 10
75.40205670520584
 20
167.6997926395148
 30
0.0
 11
105.0057075844725
 21
170.6700586140198
 31
0.0
  0
LINE
  5
E00ED6AB
330
E00DEA5D
100
AcDbEntity
  8
JISSEN
100
AcDbLine
 39
1680.364539346804
 10
75.10570758447045
 20
167.1133625424188
 30
0.0
 11
105.0057075844725
 21
170.113362542412
 31
0.0
  0
LINE
  5
E00ED6AC
330
E00DEA5D
100
AcDbEntity
  8
SAISEN
100
AcDbLine
 39
1680.364539346804
 10
80.55769846647592
 20
185.4729022285303
 30
0.0
 11
79.35790303906299
 21
184.2731068011182
 31
0.0
  0
LINE
  5
E00ED6AD
330
E00DEA5D
100
AcDbEntity
  8
JISSEN
100
AcDbLine
 39
1680.364539346804
 10
80.55769846647683
 20
185.4729022285303
 30
0.0
 11
79.36414508446716
 21
185.4729022285303
 31
0.0
  0
LINE
  5
E00ED6AE
330
E00DEA5D
100
AcDbEntity
  8
JISSEN
100
AcDbLine
 39
1680.364539346804
 10
90.05570758447367
 20
185.4729022285484
 30
0.0
 11
79.36414508446716
 21
185.4729022285303
 31
0.0
  0
LINE
  5
E00ED6AF
330
E00DEA5D
100
AcDbEntity
  8
SAISEN
100
AcDbLine
 39
1680.364539346804
 10
80.55769846647592
 20
185.4729022285339
 30
0.0
 11
79.35790303906208
 21
184.2731068011219
 31
0.0
  0
ARC
  5
E00ED6B2
330
E00DEA5D
100
AcDbEntity
  8
JISSEN
100
AcDbCircle
 39
1680.364539346804
 10
102.2057075844742
 20
184.1729022285274
 30
0.0
 40
0.9999999999997548
100
AcDbArc
 50
210.0000000000009
 51
270.0
  0
LINE
  5
E00ED6B3
330
E00DEA5D
100
AcDbEntity
  8
SAISEN
100
AcDbLine
 39
1680.364539346804
 10
99.55371670247144
 20
185.4729022285339
 30
0.0
 11
100.7535121298852
 21
184.2731068011219
 31
0.0
  0
LINE
  5
E00ED6B4
330
E00DEA5D
100
AcDbEntity
  8
JISSEN
100
AcDbLine
 39
1680.364539346804
 10
90.05570758447367
 20
185.4729022285484
 30
0.0
 11
100.7472700844801
 21
185.4729022285303
 31
0.0
  0
LINE
  5
E00ED6B5
330
E00DEA5D
100
AcDbEntity
  8
JISSEN
100
AcDbLine
 39
1680.364539346804
 10
99.55371670247053
 20
185.4729022285303
 30
0.0
 11
100.7472700844801
 21
185.4729022285303
 31
0.0
  0
LINE
  5
E00ED6B6
330
E00DEA5D
100
AcDbEntity
  8
SAISEN
100
AcDbLine
 39
1680.364539346804
 10
99.55371670247144
 20
185.4729022285303
 30
0.0
 11
100.7535121298843
 21
184.2731068011182
 31
0.0
  0
LINE
  5
E00ED6BA
330
E00DEA5D
100
AcDbEntity
  8
JISSEN
100
AcDbLine
 39
1680.364539346804
 10
94.28054814827204
 20
148.1698975464262
 30
0.0
 11
93.58071064216813
 21
147.470060040325
 31
0.0
  0
ARC
  5
E00ED6BF
330
E00DEA5D
100
AcDbEntity
  8
JISSEN
100
AcDbCircle
 39
1680.364539346804
 10
77.90570758447313
 20
184.1729022285274
 30
0.0
 40
0.9999999999997548
100
AcDbArc
 50
270.0
 51
329.999999999999
  0
LINE
  5
E00ED6C1
330
E00DEA5D
100
AcDbEntity
  8
JISSEN
100
AcDbLine
 39
1680.364539346804
 10
85.83086702069943
 20
148.1698975464553
 30
0.0
 11
86.53070452679878
 21
147.4700600403487
 31
0.0
  0
LINE
  5
E00ED6C2
330
E00DEA5D
100
AcDbEntity
  8
JISSEN
100
AcDbLine
 10
73.54161131047305
 20
160.9229018932276
 30
0.0
 11
62.73754321887293
 21
160.9229018932276
 31
0.0
  0
LINE
  5
E00ED6C3
330
E00DEA5D
100
AcDbEntity
  8
JISSEN
100
AcDbLine
 10
73.2454536768729
 20
157.9313700276254
 30
0.0
 11
57.98612103407333
 21
160.0759293743287
 31
0.0
  0
LINE
  5
E00ED6C4
330
E00DEA5D
100
AcDbEntity
  8
JISSEN
100
AcDbLine
 10
62.73754321887293
 20
160.9229018932276
 30
0.0
 11
71.84694793307437
 21
159.6426585510273
 31
0.0
  0
HATCH
  5
E00ED6C5
330
E00DEA5D
100
AcDbEntity
  8
HATCH
100
AcDbHatch
 10
0.0
 20
0.0
 30
0.0
210
0.0
220
0.0
230
1.0
  2
ANSI31
 70
     0
 71
     0
 91
        1
 92
        7
 72
     1
 73
     1
 93
       14
 10
75.05570758447368
 20
171.9229018932273
 42
0.0
 10
74.55570758447345
 20
172.4229018932273
 42
0.0
 10
73.55570758447368
 20
172.4229018932278
 42
0.0
 10
73.55570758447368
 20
161.1280606541258
 42
-0.4557262555289391
 10
71.84694793303231
 20
159.6426585510332
 42
0.0
 10
62.73754321887157
 20
160.9229018932276
 42
0.0
 10
57.55570758447368
 20
160.9229018932276
 42
0.0
 10
57.55570758447368
 20
160.5710634086283
 42
0.3738846794428605
 10
57.98612103400239
 20
160.0759293743387
 42
0.0
 10
73.24545367681242
 20
157.9313700276338
 42
0.0122983169365944
 10
73.31874483297963
 20
157.9229018932276
 42
0.3888787318578421
 10
74.81303688008631
 20
159.2921682791673
 42
0.0
 10
74.95570758447332
 20
160.9229018932273
 42
0.0
 10
75.05570758447368
 20
160.9229018932278
 42
0.0
 97
        0
 75
     0
 76
     1
 52
90.0
 41
5.0
 77
     0
 78
     1
 53
135.0
 43
-405.8672515703279
 44
0.0000001395203526
 45
-0.4419417382415923
 46
-0.4419417382415922
 79
     0
 47
0.0183417260654637
 98
        1
 10
74.45111666846549
 20
165.9796940967767
  0
HATCH
  5
E00ED6C6
330
E00DEA5D
100
AcDbEntity
  8
SUNPOU
100
AcDbHatch
 10
0.0
 20
0.0
 30
0.0
210
0.0
220
0.0
230
1.0
  2
ANSI31
 70
     0
 71
     0
 91
        2
 92
        5
 93
        5
 72
     1
 10
57.55570758439773
 20
160.9229018932276
 11
65.05570758447368
 21
160.9229018932276
 72
     1
 10
65.05570758447368
 20
160.9229018932258
 11
65.05570758447368
 21
170.9229018932276
 72
     1
 10
65.05570758447368
 20
170.9229018932276
 11
33.00383947984574
 21
170.9229018932239
 72
     4
 94
        3
 73
     0
 74
     0
 95
       11
 96
        7
 40
0.0
 40
0.0
 40
0.0
 40
0.0
 40
3.264692203133994
 40
6.15697472568029
 40
8.955271668736928
 40
10.85738683396026
 40
10.85738683396026
 40
10.85738683396026
 40
10.85738683396026
 10
33.00383947984494
 20
170.9229018932276
 10
33.67894016813136
 20
169.9215029420213
 10
34.95213151862947
 20
168.0329365323089
 10
32.68628680228505
 20
165.1815654992408
 10
34.88940396884174
 20
162.555235001497
 10
33.54704977810763
 20
161.3931590283084
 10
33.00383947984494
 20
160.9229018932276
 72
     1
 10
33.00383947984448
 20
160.9229018932276
 11
57.55570758439796
 21
160.9229018932276
 97
        0
 92
        5
 93
        5
 72
     1
 10
115.0557075844736
 20
170.9229018932276
 11
115.0557075844736
 21
160.9229018932276
 72
     1
 10
115.0557075844736
 20
160.9229018932276
 11
122.5557075845496
 21
160.9229018932276
 72
     1
 10
122.5557075845496
 20
160.9229018932276
 11
147.1075756891028
 21
160.9229018932276
 72
     4
 94
        3
 73
     0
 74
     0
 95
       11
 96
        7
 40
0.0
 40
0.0
 40
0.0
 40
0.0
 40
1.902115165223333
 40
4.700412108279971
 40
7.592694630826267
 40
10.85738683396026
 40
10.85738683396026
 40
10.85738683396026
 40
10.85738683396026
 10
147.1075756891024
 20
160.9229018932276
 10
146.5643653908397
 20
161.3931590283084
 10
145.2220112001056
 20
162.555235001497
 10
147.4251283666623
 20
165.1815654992408
 10
145.1592836503178
 20
168.0329365323089
 10
146.4324750008159
 20
169.9215029420213
 10
147.1075756891024
 20
170.9229018932276
 72
     1
 10
147.107575689101
 20
170.9229018932258
 11
115.0557075844737
 21
170.9229018932276
 97
        0
 75
     0
 76
     1
 52
0.0
 41
10.0
 77
     0
 78
     1
 53
45.0
 43
185.0253229146702
 44
-2497.575741826889
 45
-0.8838834764831842
 46
0.8838834764831844
 79
     0
 47
0.1102095095325799
 98
        2
 10
57.15975375770643
 20
164.6230483096353
 10
124.8575404344384
 20
167.3782850436748
  0
LINE
  5
E00ED6C7
330
E00DEA5D
100
AcDbEntity
  8
SUNPOU
100
AcDbLine
 10
73.55570758447374
 20
170.9229018932276
 30
0.0
 11
33.00383947984585
 21
170.9229018932258
 31
0.0
  0
LINE
  5
E00ED6C8
330
E00DEA5D
100
AcDbEntity
  8
SUNPOU
100
AcDbLine
 10
73.5416113104344
 20
160.9229018932276
 30
0.0
 11
33.00383947984448
 21
160.9229018932276
 31
0.0
  0
SPLINE
  5
E00ED6C9
330
E00DEA5D
100
AcDbEntity
  8
SUNPOU
100
AcDbSpline
210
0.0
220
0.0
230
1.0
 70
     8
 71
     3
 72
    11
 73
     7
 74
     5
 42
0.0000000001
 43
0.0000000001
 44
0.0000000001
 40
0.0
 40
0.0
 40
0.0
 40
0.0
 40
3.264692203133994
 40
6.15697472568029
 40
8.955271668736928
 40
10.85738683396026
 40
10.85738683396026
 40
10.85738683396026
 40
10.85738683396026
 10
33.00383947984494
 20
170.9229018932276
 30
0.0
 10
33.67894016813131
 20
169.9215029420224
 30
0.0
 10
34.95213151862936
 20
168.0329365323087
 30
0.0
 10
32.68628680228505
 20
165.1815654992395
 30
0.0
 10
34.88940396884169
 20
162.5552350014985
 30
0.0
 10
33.54704977810764
 20
161.3931590283096
 30
0.0
 10
33.00383947984494
 20
160.9229018932276
 30
0.0
 11
33.00383947984494
 21
170.9229018932276
 31
0.0
 11
34.23317985740879
 21
167.8985114724494
 31
0.0
 11
33.46099640343902
 21
165.1112133356075
 31
0.0
 11
34.19030293524713
 21
162.4096253277532
 31
0.0
 11
33.00383947984494
 21
160.9229018932276
 31
0.0
  0
LINE
  5
E00ED6CA
330
E00DEA5D
100
AcDbEntity
  8
SUNPOU
100
AcDbLine
 10
65.05570758447368
 20
170.9229018932276
 30
0.0
 11
65.05570758447368
 21
160.9229018932276
 31
0.0
  0
LINE
  5
E00ED6CB
330
E00DEA5D
100
AcDbEntity
  8
JISSEN
100
AcDbLine
 10
57.55570758447368
 20
160.9229018932276
 30
0.0
 11
62.73754321887293
 21
160.9229018932276
 31
0.0
  0
ARC
  5
E00ED6CC
330
E00DEA5D
100
AcDbEntity
  8
JISSEN
100
AcDbCircle
 10
58.05570758447277
 20
160.5710634086283
 30
0.0
 40
0.5000000000000084
100
AcDbArc
 50
180.0
 51
261.9999999999597
  0
LINE
  5
E00ED6CD
330
E00DEA5D
100
AcDbEntity
  8
JISSEN
100
AcDbLine
 10
57.55570758447368
 20
160.5710634086283
 30
0.0
 11
57.55570758447368
 21
160.9229018932276
 31
0.0
  0
LINE
  5
E00ED6CE
330
E00DEA5D
100
AcDbEntity
  8
NITEN
100
AcDbLine
 10
109.5557075844736
 20
212.7332300093132
 30
0.0
 11
109.5557075844741
 21
229.9729022285266
 31
0.0
  0
LINE
  5
E00ED6CF
330
E00DEA5D
100
AcDbEntity
  8
NITEN
100
AcDbLine
 10
70.55570758447368
 20
212.7332300093132
 30
0.0
 11
70.55570758447368
 21
229.9729022285266
 31
0.0
  0
LINE
  5
E00ED6D0
330
E00DEA5D
100
AcDbEntity
  8
SUNPOU
100
AcDbLine
 10
106.5557075844736
 20
170.9229018932275
 30
0.0
 11
147.1075756891015
 21
170.9229018932258
 31
0.0
  0
LINE
  5
E00ED6D1
330
E00DEA5D
100
AcDbEntity
  8
SUNPOU
100
AcDbLine
 10
106.5698038585129
 20
160.9229018932276
 30
0.0
 11
147.1075756891028
 21
160.9229018932276
 31
0.0
  0
LINE
  5
E00ED6DC
330
E00DEA5D
100
AcDbEntity
  8
JISSEN
100
AcDbLine
 39
240.0520776831561
 10
75.40570758442766
 20
170.6700586140762
 30
0.0
 11
75.10570758442838
 21
170.6700586140798
 31
0.0
  0
LINE
  5
E00ED6DD
330
E00DEA5D
100
AcDbEntity
  8
JISSEN
100
AcDbLine
 39
240.0520776831561
 10
75.40570758442857
 20
170.6700586140762
 30
0.0
 11
75.1057075844293
 21
170.6700586140798
 31
0.0
  0
LINE
  5
E00ED6DE
330
E00DEA5D
100
AcDbEntity
  8
JISSEN
100
AcDbLine
 39
240.0520776831561
 10
75.90570758447313
 20
176.1729022154324
 30
0.0
 11
90.05570758447367
 21
176.1729022154288
 31
0.0
  0
LINE
  5
E00ED6DF
330
E00DEA5D
100
AcDbEntity
  8
JISSEN
100
AcDbLine
 39
240.0520776831561
 10
104.7057075845188
 20
170.6700586140762
 30
0.0
 11
105.005707584518
 21
170.6700586140798
 31
0.0
  0
LINE
  5
E00ED6E0
330
E00DEA5D
100
AcDbEntity
  8
JISSEN
100
AcDbLine
 39
240.0520776831561
 10
104.7057075845196
 20
170.6700586140762
 30
0.0
 11
105.0057075845189
 21
170.6700586140798
 31
0.0
  0
LINE
  5
E00ED6E1
330
E00DEA5D
100
AcDbEntity
  8
JISSEN
100
AcDbLine
 39
240.0520776831561
 10
104.2057075844742
 20
176.1729022154324
 30
0.0
 11
90.05570758447367
 21
176.1729022154288
 31
0.0
  0
LINE
  5
E00ED6E2
330
E00DEA5D
100
AcDbEntity
  8
JISSEN
100
AcDbLine
 39
240.0520776831561
 10
75.40570758447405
 20
159.2896738563979
 30
0.0
 11
90.05570758447367
 21
159.2896738564452
 31
0.0
  0
LINE
  5
E00ED6E3
330
E00DEA5D
100
AcDbEntity
  8
JISSEN
100
AcDbLine
 39
240.0520776831561
 10
104.7057075844733
 20
159.2896738563979
 30
0.0
 11
90.05570758447367
 21
159.2896738564452
 31
0.0
  0
LINE
  5
E00ED6E4
330
E00DEA5D
100
AcDbEntity
  8
JISSEN
100
AcDbLine
 39
240.0520776831561
 10
90.05570758447367
 20
161.6700586140034
 30
0.0
 11
104.705707584476
 21
161.6700586140034
 31
0.0
  0
LINE
  5
E00ED6E5
330
E00DEA5D
100
AcDbEntity
  8
JISSEN
100
AcDbLine
 39
240.0520776831561
 10
90.05570758447367
 20
161.6700586140034
 30
0.0
 11
104.7057075844769
 21
161.6700586140034
 31
0.0
  0
LINE
  5
E00ED6E6
330
E00DEA5D
100
AcDbEntity
  8
JISSEN
100
AcDbLine
 39
240.0520776831561
 10
102.4557075844769
 20
157.3700586140405
 30
0.0
 11
90.05570758447367
 21
157.3700586140387
 31
0.0
  0
LINE
  5
E00ED6E7
330
E00DEA5D
100
AcDbEntity
  8
JISSEN
100
AcDbLine
 39
240.0520776831561
 10
77.6557075844704
 20
157.3700586140405
 30
0.0
 11
90.05570758447367
 21
157.3700586140387
 31
0.0
  0
LINE
  5
E00ED6E8
330
E00DEA5D
100
AcDbEntity
  8
JISSEN
100
AcDbLine
 39
240.0520776831561
 10
90.05570758447367
 20
161.6700586140034
 30
0.0
 11
75.4057075844704
 21
161.6700586140034
 31
0.0
  0
LINE
  5
E00ED6E9
330
E00DEA5D
100
AcDbEntity
  8
JISSEN
100
AcDbLine
 39
240.0520776831561
 10
90.05570758447367
 20
161.6700586140034
 30
0.0
 11
75.40570758447131
 21
161.6700586140034
 31
0.0
  0
LINE
  5
E00ED6EA
330
E00DEA5D
100
AcDbEntity
  8
JISSEN
370
    -2
100
AcDbLine
 10
96.17510225927539
 20
171.6729432305439
 30
0.0
 11
90.05570758447367
 21
171.6729432305439
 31
0.0
  0
LINE
  5
E00ED6EB
330
E00DEA5D
100
AcDbEntity
  8
JISSEN
370
    -2
100
AcDbLine
 10
96.17510225927539
 20
174.6729437222422
 30
0.0
 11
90.05570758447367
 21
174.6729437222422
 31
0.0
  0
SPLINE
  5
E00ED6EC
330
E00DEA5D
100
AcDbEntity
  8
JISSEN
370
    -2
100
AcDbSpline
210
0.0
220
0.0
230
1.0
 70
    12
 71
     3
 72
    14
 73
    10
 74
     0
 42
0.0000000001
 43
0.0000000001
 40
0.0
 40
0.0
 40
0.0
 40
0.0
 40
0.1088769686984931
 40
0.2172663573285982
 40
0.3685706574444105
 40
0.4825742753969225
 40
0.5996174274824865
 40
0.7976149977365948
 40
1.0
 40
1.0
 40
1.0
 40
1.0
 10
96.1644181267485
 20
173.1729434764131
 30
0.0
 41
1.0
 10
96.15172483633262
 20
173.0466624901894
 30
0.0
 41
1.0
 10
96.12639509943813
 20
172.7946660376403
 30
0.0
 41
1.0
 10
95.91909631147984
 20
172.4247795514859
 30
0.0
 41
1.0
 10
95.61826746841246
 20
172.1427349007683
 30
0.0
 41
1.0
 10
95.25632442834297
 20
171.9430965076282
 30
0.0
 41
1.0
 10
94.81988949870094
 20
171.7884499492722
 30
0.0
 41
1.0
 10
94.2639742125076
 20
171.6883906691293
 30
0.0
 41
1.0
 10
93.8203869938526
 20
171.6781298564058
 30
0.0
 41
1.0
 10
93.59616294811814
 20
171.6729432305439
 30
0.0
 41
1.0
  0
SPLINE
  5
E00ED6ED
330
E00DEA5D
100
AcDbEntity
  8
JISSEN
370
    -2
100
AcDbSpline
210
0.0
220
0.0
230
1.0
 70
    12
 71
     3
 72
    14
 73
    10
 74
     0
 42
0.0000000001
 43
0.0000000001
 40
0.0
 40
0.0
 40
0.0
 40
0.0
 40
0.2170493941225676
 40
0.4388311995732112
 40
0.5988137766302898
 40
0.7597871991591737
 40
0.8750649674182215
 40
0.9755548291618868
 40
1.0
 40
1.0
 40
1.0
 40
1.0
 10
93.59616294811814
 20
174.6729437222823
 30
0.0
 41
1.0
 10
93.83652543780057
 20
174.6669781707098
 30
0.0
 41
1.0
 10
94.32249113287355
 20
174.654916998352
 30
0.0
 41
1.0
 10
94.96312272006901
 20
174.5257275079095
 30
0.0
 41
1.0
 10
95.50005751876062
 20
174.2898044503711
 30
0.0
 41
1.0
 10
95.87186509559534
 20
173.9837441417332
 30
0.0
 41
1.0
 10
96.09364797277169
 20
173.6188639051217
 30
0.0
 41
1.0
 10
96.16036732807799
 20
173.3452806477291
 30
0.0
 41
1.0
 10
96.16375523793625
 20
173.2011454168171
 30
0.0
 41
1.0
 10
96.1644181267485
 20
173.1729434764131
 30
0.0
 41
1.0
  0
LINE
  5
E00ED6EE
330
E00DEA5D
100
AcDbEntity
  8
JISSEN
100
AcDbLine
 10
105.005707584518
 20
170.6700586140798
 30
0.0
 11
90.05570758447367
 21
170.6700586140016
 31
0.0
  0
LINE
  5
E00ED6EF
330
E00DEA5D
100
AcDbEntity
  8
JISSEN
100
AcDbLine
 10
105.0057075845189
 20
170.6700586140798
 30
0.0
 11
90.05570758447367
 21
170.6700586140016
 31
0.0
  0
LINE
  5
E00ED6F0
330
E00DEA5D
100
AcDbEntity
  8
JISSEN
100
AcDbLine
 10
104.405707584474
 20
158.1700586141271
 30
0.0
 11
90.05570758447367
 21
158.1700586141271
 31
0.0
  0
LINE
  5
E00ED6F1
330
E00DEA5D
100
AcDbEntity
  8
JISSEN
370
    -2
100
AcDbLine
 10
96.86897296767449
 20
153.6698975166275
 30
0.0
 11
90.05570758447367
 21
153.6698975166275
 31
0.0
  0
LINE
  5
E00ED6F2
330
E00DEA5D
100
AcDbEntity
  8
JISSEN
370
    -2
100
AcDbLine
 10
96.86897296767449
 20
150.6698988875271
 30
0.0
 11
90.05570758447367
 21
150.6698988875271
 31
0.0
  0
LINE
  5
E00ED6F3
330
E00DEA5D
100
AcDbEntity
  8
JISSEN
370
    -2
100
AcDbLine
 10
101.3057080314739
 20
148.1698975464262
 30
0.0
 11
90.0557075844746
 21
148.1698975464262
 31
0.0
  0
LINE
  5
E00ED6F4
330
E00DEA5D
100
AcDbEntity
  8
JISSEN
370
    -2
100
AcDbLine
 10
103.3057074279742
 20
155.1698986938265
 30
0.0
 11
90.0557075844746
 21
155.1698986938265
 31
0.0
  0
LINE
  5
E00ED6F6
330
E00DEA5D
100
AcDbEntity
  8
JISSEN
100
AcDbLine
 10
77.45570758447058
 20
157.9700586140391
 30
0.0
 11
77.45570758447058
 21
157.5700586140412
 31
0.0
  0
ARC
  5
E00ED6F7
330
E00DEA5D
100
AcDbEntity
  8
JISSEN
100
AcDbCircle
 10
73.31874483287276
 20
159.4229018932276
 30
0.0
 40
1.5
100
AcDbArc
 50
270.0
 51
354.9999999999215
  0
ARC
  5
E00ED6F8
330
E00DEA5D
100
AcDbEntity
  8
JISSEN
370
    -2
100
AcDbCircle
 10
83.35728304942369
 20
152.0739535257709
 30
0.0
 40
1.408743357584393
100
AcDbArc
 50
176.0947579959861
 51
265.3240556089233
  0
ARC
  5
E00ED6F9
330
E00DEA5D
100
AcDbEntity
  8
JISSEN
370
    -2
100
AcDbCircle
 10
83.31948097572524
 20
152.2983685908732
 30
0.0
 40
1.373690855685324
100
AcDbArc
 50
93.21492544802405
 51
185.3662609455778
  0
LINE
  5
E00ED6FA
330
E00DEA5D
100
AcDbEntity
  8
JISSEN
370
    -2
100
AcDbLine
 10
78.80570713749751
 20
148.1698975465026
 30
0.0
 11
90.05570758449687
 21
148.1698975464262
 31
0.0
  0
LINE
  5
E00ED6FB
330
E00DEA5D
100
AcDbEntity
  8
JISSEN
370
    -2
100
AcDbLine
 10
76.8057077410441
 20
155.1698986939156
 30
0.0
 11
90.05570758454371
 21
155.1698986938265
 31
0.0
  0
LINE
  5
E00ED6FC
330
E00DEA5D
100
AcDbEntity
  8
SUNPOU
100
AcDbLine
 10
68.35189819222762
 20
139.8478812434589
 30
0.0
 11
77.39149402212717
 21
148.7556847576381
 31
0.0
  0
INSERT
  5
E00ED6FD
330
E00DEA5D
100
AcDbEntity
  8
SUNPOU
100
AcDbBlockReference
  2
ARROW
 10
77.37420727241863
 20
148.741856480203
 30
0.0
 41
1.499999999999528
 42
1.5
 43
1.5
 50
44.6619397375731
  0
SPLINE
  5
E00ED6FE
330
E00DEA5D
100
AcDbEntity
  8
JISSEN
370
    -2
100
AcDbSpline
210
0.0
220
0.0
230
1.0
 70
    12
 71
     3
 72
    12
 73
     8
 74
     0
 42
0.0000000001
 43
0.0000000001
 40
0.0
 40
0.0
 40
0.0
 40
0.0
 40
0.2270414180693609
 40
0.4545205376007232
 40
0.6714649260062801
 40
0.8806674473517201
 40
1.0
 40
1.0
 40
1.0
 40
1.0
 10
78.69164526781617
 20
153.6698975167003
 30
0.0
 41
1.0
 10
78.78739844860331
 20
153.6529878667499
 30
0.0
 41
1.0
 10
78.97908940780656
 20
153.6191359676033
 30
0.0
 41
1.0
 10
79.25303050367222
 20
153.3452458542217
 30
0.0
 41
1.0
 10
79.45889807685
 20
152.9448769379416
 30
0.0
 41
1.0
 10
79.56006114922877
 20
152.5284091689666
 30
0.0
 41
1.0
 10
79.56947567984173
 20
152.2654220272181
 30
0.0
 41
1.0
 10
79.57289528419744
 20
152.1698982021464
 30
0.0
 41
1.0
  0
LINE
  5
E00ED6FF
330
E00DEA5D
100
AcDbEntity
  8
JISSEN
370
    -2
100
AcDbLine
 10
76.80570774101409
 20
150.6698988876162
 30
0.0
 11
78.69164526781435
 21
150.6698988876034
 31
0.0
  0
ARC
  5
E00ED700
330
E00DEA5D
100
AcDbEntity
  8
JISSEN
370
    -2
100
AcDbCircle
 10
78.80570758451051
 20
150.1698983200023
 30
0.0
 40
2.000000000000056
100
AcDbArc
 50
179.9999999995831
 51
269.9999999996091
  0
LINE
  5
E00ED701
330
E00DEA5D
100
AcDbEntity
  8
JISSEN
370
    -2
100
AcDbLine
 10
76.80570774101409
 20
150.6698988876162
 30
0.0
 11
76.80570774101091
 21
150.1698978743154
 31
0.0
  0
SPLINE
  5
E00ED702
330
E00DEA5D
100
AcDbEntity
  8
JISSEN
370
    -2
100
AcDbSpline
210
0.0
220
0.0
230
1.0
 70
    12
 71
     3
 72
    12
 73
     8
 74
     0
 42
0.0000000001
 43
0.0000000001
 40
0.0
 40
0.0
 40
0.0
 40
0.0
 40
0.205840282809383
 40
0.4116490113380446
 40
0.6184457918287852
 40
0.8292559119854885
 40
1.0
 40
1.0
 40
1.0
 40
1.0
 10
79.57289528419744
 20
152.1698982021464
 30
0.0
 41
1.0
 10
79.56287881134324
 20
152.0044717368602
 30
0.0
 41
1.0
 10
79.542847401112
 20
151.6736441653249
 30
0.0
 41
1.0
 10
79.38911945915799
 20
151.2322553128908
 30
0.0
 41
1.0
 10
79.16974964565145
 20
150.8955647850364
 30
0.0
 41
1.0
 10
78.92283898537755
 20
150.7009959849167
 30
0.0
 41
1.0
 10
78.76311925338644
 20
150.6795126154722
 30
0.0
 41
1.0
 10
78.69164526779616
 20
150.6698988876071
 30
0.0
 41
1.0
  0
LINE
  5
E00ED703
330
E00DEA5D
100
AcDbEntity
  8
JISSEN
370
    -2
100
AcDbLine
 10
76.8057077410341
 20
153.6698975167166
 30
0.0
 11
78.69164526783436
 21
153.6698975167039
 31
0.0
  0
ARC
  5
E00ED704
330
E00DEA5D
100
AcDbEntity
  8
JISSEN
100
AcDbCircle
 10
77.6557075844704
 20
157.5700586140412
 30
0.0
 40
0.1999999999999957
100
AcDbArc
 50
180.0
 51
270.0
  0
LINE
  5
E00ED705
330
E00DEA5D
100
AcDbEntity
  8
JISSEN
370
    -2
100
AcDbLine
 10
76.8057077410441
 20
155.1698986939156
 30
0.0
 11
76.8057077410341
 21
153.6698975167166
 31
0.0
  0
LINE
  5
E00ED706
330
E00DEA5D
100
AcDbEntity
  8
JISSEN
100
AcDbLine
 10
90.05570758447367
 20
151.4700585696721
 30
0.0
 11
85.65570758447313
 21
151.4700585696721
 31
0.0
  0
LINE
  5
E00ED707
330
E00DEA5D
100
AcDbEntity
  8
JISSEN
370
    -2
100
AcDbLine
 10
83.2424422013338
 20
153.669897516673
 30
0.0
 11
90.05570758453462
 21
153.6698975166275
 31
0.0
  0
LINE
  5
E00ED708
330
E00DEA5D
100
AcDbEntity
  8
JISSEN
370
    -2
100
AcDbLine
 10
83.24244220131379
 20
150.6698988875725
 30
0.0
 11
90.0557075845146
 21
150.6698988875271
 31
0.0
  0
LINE
  5
E00ED709
330
E00DEA5D
100
AcDbEntity
  8
JISSEN
100
AcDbLine
 10
87.55570764039896
 20
147.4700600403414
 30
0.0
 11
90.05570758449961
 21
147.470060040325
 31
0.0
  0
LINE
  5
E00ED70A
330
E00DEA5D
100
AcDbEntity
  8
JISSEN
370
    -2
100
AcDbLine
 10
86.0057074793732
 20
153.6698975166275
 30
0.0
 11
86.0057074793732
 21
151.4700585696721
 31
0.0
  0
ARC
  5
E00ED70B
330
E00DEA5D
100
AcDbEntity
  8
JISSEN
370
    -2
100
AcDbCircle
 10
83.76588922362463
 20
152.254138617169
 30
0.0
 40
1.418614261419669
100
AcDbArc
 50
93.63587483011
 51
183.4043513649434
  0
ARC
  5
E00ED70C
330
E00DEA5D
100
AcDbEntity
  8
JISSEN
370
    -2
100
AcDbCircle
 10
85.65570758447313
 20
150.7698983199281
 30
0.0
 40
0.7000000000000242
100
AcDbArc
 50
90.0
 51
180.0
  0
LINE
  5
E00ED70D
330
E00DEA5D
100
AcDbEntity
  8
JISSEN
370
    -2
100
AcDbLine
 10
84.9557074004125
 20
150.7698968550269
 30
0.0
 11
84.9557074004125
 21
150.6698988875271
 31
0.0
  0
ARC
  5
E00ED70E
330
E00DEA5D
100
AcDbEntity
  8
JISSEN
370
    -2
100
AcDbCircle
 10
83.73275901432373
 20
152.0563673806684
 30
0.0
 40
1.387632780893617
100
AcDbArc
 50
175.3070321912916
 51
267.6527416120474
  0
LINE
  5
E00ED70F
330
E00DEA5D
100
AcDbEntity
  8
JISSEN
100
AcDbLine
 10
86.53070412795988
 20
147.4700604391876
 30
0.0
 11
87.55570764039896
 21
147.4700600403414
 31
0.0
  0
LINE
  5
E00ED710
330
E00DEA5D
100
AcDbEntity
  8
JISSEN
370
    -2
100
AcDbLine
 10
84.50570769925946
 20
157.3700586140787
 30
0.0
 11
84.50570769924445
 21
155.1698986938629
 31
0.0
  0
LINE
  5
E00ED711
330
E00DEA5D
100
AcDbEntity
  8
JISSEN
370
    -2
100
AcDbLine
 10
94.10570768957416
 20
153.6698975166275
 30
0.0
 11
94.10570768957416
 21
151.4700585696721
 31
0.0
  0
LINE
  5
E00ED712
330
E00DEA5D
100
AcDbEntity
  8
JISSEN
100
AcDbLine
 10
90.05570758447367
 20
151.4700585696721
 30
0.0
 11
94.45570758447422
 21
151.4700585696721
 31
0.0
  0
LINE
  5
E00ED713
330
E00DEA5D
100
AcDbEntity
  8
JISSEN
100
AcDbLine
 10
93.58071104100702
 20
147.4700604391639
 30
0.0
 11
92.55570752856796
 21
147.470060040325
 31
0.0
  0
LINE
  5
E00ED714
330
E00DEA5D
100
AcDbEntity
  8
JISSEN
100
AcDbLine
 10
92.55570752856796
 20
147.470060040325
 30
0.0
 11
90.05570758446731
 21
147.470060040325
 31
0.0
  0
LINE
  5
E00ED715
330
E00DEA5D
100
AcDbEntity
  8
JISSEN
370
    -2
100
AcDbLine
 10
95.15570776853484
 20
150.7698968550269
 30
0.0
 11
95.15570776853484
 21
150.6698988875271
 31
0.0
  0
ARC
  5
E00ED716
330
E00DEA5D
100
AcDbEntity
  8
JISSEN
370
    -2
100
AcDbCircle
 10
94.45570758447422
 20
150.7698983199281
 30
0.0
 40
0.7000000000000242
100
AcDbArc
 50
0.0
 51
90.0
  0
LINE
  5
E00ED717
330
E00DEA5D
100
AcDbEntity
  8
JISSEN
370
    -2
100
AcDbLine
 10
95.60570746977385
 20
157.3700586140423
 30
0.0
 11
95.60570746977385
 21
155.1698986938265
 31
0.0
  0
ARC
  5
E00ED718
330
E00DEA5D
100
AcDbEntity
  8
JISSEN
370
    -2
100
AcDbCircle
 10
83.74124338587273
 20
173.0355657137408
 30
0.0
 40
1.648956901138485
100
AcDbArc
 50
83.20607180967952
 51
175.2210394254883
  0
ARC
  5
E00ED719
330
E00DEA5D
100
AcDbEntity
  8
JISSEN
370
    -2
100
AcDbCircle
 10
83.73370252917277
 20
173.3010797002427
 30
0.0
 40
1.640694770587604
100
AcDbArc
 50
184.4792906218893
 51
277.0935981429854
  0
LINE
  5
E00ED71A
330
E00DEA5D
100
AcDbEntity
  8
JISSEN
100
AcDbLine
 10
75.10570758442838
 20
170.6700586140798
 30
0.0
 11
90.05570758447367
 21
170.6700586140016
 31
0.0
  0
LINE
  5
E00ED71B
330
E00DEA5D
100
AcDbEntity
  8
JISSEN
100
AcDbLine
 10
75.1057075844293
 20
170.6700586140798
 30
0.0
 11
90.05570758447367
 21
170.6700586140016
 31
0.0
  0
LINE
  5
E00ED71C
330
E00DEA5D
100
AcDbEntity
  8
JISSEN
100
AcDbLine
 10
75.70570758447331
 20
158.1700586141271
 30
0.0
 11
90.05570758447367
 21
158.1700586141271
 31
0.0
  0
LINE
  5
E00ED71E
330
E00DEA5D
100
AcDbEntity
  8
JISSEN
100
AcDbLine
 10
75.40570758447223
 20
167.6700586140034
 30
0.0
 11
75.10570758447295
 21
170.1133625423974
 31
0.0
  0
LINE
  5
E00ED71F
330
E00DEA5D
100
AcDbEntity
  8
JISSEN
100
AcDbLine
 10
73.55570758447368
 20
161.1280606541258
 30
0.0
 11
73.55570758447368
 21
172.4229018932273
 31
0.0
  0
LINE
  5
E00ED720
330
E00DEA5D
100
AcDbEntity
  8
JISSEN
100
AcDbLine
 10
75.05570758447368
 20
171.9229018932273
 30
0.0
 11
75.05570758447368
 21
160.9229018932276
 31
0.0
  0
LINE
  5
E00ED721
330
E00DEA5D
100
AcDbEntity
  8
JISSEN
100
AcDbLine
 10
74.95570758447332
 20
160.9229018932276
 30
0.0
 11
74.81303688007404
 21
159.2921682790258
 31
0.0
  0
LINE
  5
E00ED722
330
E00DEA5D
100
AcDbEntity
  8
JISSEN
100
AcDbLine
 10
77.45570758447058
 20
157.9229018932276
 30
0.0
 11
73.31874483287368
 21
157.9229018932276
 31
0.0
  0
ARC
  5
E00ED723
330
E00DEA5D
100
AcDbEntity
  8
JISSEN
100
AcDbCircle
 10
73.45421332827311
 20
159.416772130826
 30
0.0
 40
1.499999999999995
100
AcDbArc
 50
261.9999999999597
 51
264.8184245309434
  0
ARC
  5
E00ED724
330
E00DEA5D
100
AcDbEntity
  8
JISSEN
100
AcDbCircle
 10
72.05570758447277
 20
161.1280606541258
 30
0.0
 40
1.5
100
AcDbArc
 50
261.9999999999597
 51
0.0
  0
LINE
  5
E00ED725
330
E00DEA5D
100
AcDbEntity
  8
JISSEN
100
AcDbLine
 10
75.40570758447223
 20
161.6700586140034
 30
0.0
 11
75.10570758447295
 21
164.1133625423974
 31
0.0
  0
LINE
  5
E00ED726
330
E00DEA5D
100
AcDbEntity
  8
JISSEN
100
AcDbLine
 10
75.40570758447223
 20
159.2896738564015
 30
0.0
 11
75.40570758447131
 21
161.6700586140034
 31
0.0
  0
ARC
  5
E00ED727
330
E00DEA5D
100
AcDbEntity
  8
JISSEN
100
AcDbCircle
 10
77.6557075844704
 20
157.9700586140391
 30
0.0
 40
0.200000000000017
100
AcDbArc
 50
90.0
 51
180.0
  0
LINE
  5
E00ED728
330
E00DEA5D
100
AcDbEntity
  8
JISSEN
100
AcDbLine
 10
77.35570758447114
 20
158.1700586140361
 30
0.0
 11
77.7557075844744
 21
158.1700586140398
 31
0.0
  0
LINE
  5
E00ED729
330
E00DEA5D
100
AcDbEntity
  8
JISSEN
100
AcDbLine
 10
75.05570758447368
 20
160.9229018932276
 30
0.0
 11
74.95570758447332
 21
160.9229018932276
 31
0.0
  0
LINE
  5
E00ED72A
330
E00DEA5D
100
AcDbEntity
  8
JISSEN
100
AcDbLine
 10
75.10570758447295
 20
164.1133625423974
 30
0.0
 11
75.10570758447295
 21
164.6700586140034
 31
0.0
  0
LINE
  5
E00ED72B
330
E00DEA5D
100
AcDbEntity
  8
JISSEN
100
AcDbLine
 10
75.10570758447295
 20
167.6700586140034
 30
0.0
 11
75.40570758447223
 21
167.6700586140034
 31
0.0
  0
LINE
  5
E00ED72C
330
E00DEA5D
100
AcDbEntity
  8
JISSEN
100
AcDbLine
 10
75.10570758447295
 20
164.6700586140034
 30
0.0
 11
75.40570758447223
 21
164.6700586140034
 31
0.0
  0
LINE
  5
E00ED72D
330
E00DEA5D
100
AcDbEntity
  8
JISSEN
100
AcDbLine
 10
75.40570758447223
 20
164.6700586140034
 30
0.0
 11
75.10570758447295
 21
167.1133625423974
 31
0.0
  0
LINE
  5
E00ED72E
330
E00DEA5D
100
AcDbEntity
  8
JISSEN
100
AcDbLine
 10
74.55570758447368
 20
172.4229018932273
 30
0.0
 11
75.05570758447368
 21
171.9229018932273
 31
0.0
  0
LINE
  5
E00ED72F
330
E00DEA5D
100
AcDbEntity
  8
JISSEN
100
AcDbLine
 10
73.55570758447368
 20
172.4229018932273
 30
0.0
 11
75.40570758447313
 21
172.4229018932273
 31
0.0
  0
LINE
  5
E00ED732
330
E00DEA5D
100
AcDbEntity
  8
JISSEN
100
AcDbLine
 10
75.40570758447313
 20
170.6700586140762
 30
0.0
 11
75.40570758447313
 21
177.1729022285328
 31
0.0
  0
LINE
  5
E00ED733
330
E00DEA5D
100
AcDbEntity
  8
JISSEN
100
AcDbLine
 10
75.10570758447295
 20
170.6700586140034
 30
0.0
 11
75.40570758447313
 21
170.6700586140034
 31
0.0
  0
LINE
  5
E00ED734
330
E00DEA5D
100
AcDbEntity
  8
JISSEN
100
AcDbLine
 10
75.40570758447313
 20
176.1729022154288
 30
0.0
 11
75.90570758447313
 21
176.1729022154288
 31
0.0
  0
LINE
  5
E00ED735
330
E00DEA5D
100
AcDbEntity
  8
SAISEN
100
AcDbLine
 10
75.90570758447313
 20
176.1729022154324
 30
0.0
 11
75.90570758447404
 21
177.1729022285292
 31
0.0
  0
LINE
  5
E00ED737
330
E00DEA5D
100
AcDbEntity
  8
JISSEN
370
    -2
100
AcDbLine
 10
83.93631290967197
 20
174.6729437222422
 30
0.0
 11
90.05570758447367
 21
174.6729437222422
 31
0.0
  0
LINE
  5
E00ED738
330
E00DEA5D
100
AcDbEntity
  8
JISSEN
370
    -2
100
AcDbLine
 10
83.93631290967197
 20
171.6729432305439
 30
0.0
 11
90.05570758447367
 21
171.6729432305439
 31
0.0
  0
SPLINE
  5
E00ED739
330
E00DEA5D
100
AcDbEntity
  8
JISSEN
370
    -2
100
AcDbSpline
210
0.0
220
0.0
230
1.0
 70
    12
 71
     3
 72
    14
 73
    10
 74
     0
 42
0.0000000001
 43
0.0000000001
 40
0.0
 40
0.0
 40
0.0
 40
0.0
 40
0.2170493941225676
 40
0.4388311995732112
 40
0.5988137766302898
 40
0.7597871991591737
 40
0.8750649674182215
 40
0.9755548291618868
 40
1.0
 40
1.0
 40
1.0
 40
1.0
 10
86.51525222082922
 20
174.6729437222823
 30
0.0
 41
1.0
 10
86.27488973114679
 20
174.6669781707098
 30
0.0
 41
1.0
 10
85.78892403607381
 20
174.654916998352
 30
0.0
 41
1.0
 10
85.14829244887835
 20
174.5257275079095
 30
0.0
 41
1.0
 10
84.61135765018672
 20
174.2898044503711
 30
0.0
 41
1.0
 10
84.239550073352
 20
173.9837441417332
 30
0.0
 41
1.0
 10
84.01776719617567
 20
173.6188639051217
 30
0.0
 41
1.0
 10
83.95104784086937
 20
173.3452806477291
 30
0.0
 41
1.0
 10
83.94765993101112
 20
173.2011454168171
 30
0.0
 41
1.0
 10
83.94699704219886
 20
173.1729434764131
 30
0.0
 41
1.0
  0
SPLINE
  5
E00ED73A
330
E00DEA5D
100
AcDbEntity
  8
JISSEN
370
    -2
100
AcDbSpline
210
0.0
220
0.0
230
1.0
 70
    12
 71
     3
 72
    14
 73
    10
 74
     0
 42
0.0000000001
 43
0.0000000001
 40
0.0
 40
0.0
 40
0.0
 40
0.0
 40
0.1088769686984931
 40
0.2172663573285982
 40
0.3685706574444105
 40
0.4825742753969225
 40
0.5996174274824865
 40
0.7976149977365948
 40
1.0
 40
1.0
 40
1.0
 40
1.0
 10
83.94699704219886
 20
173.1729434764131
 30
0.0
 41
1.0
 10
83.95969033261474
 20
173.0466624901894
 30
0.0
 41
1.0
 10
83.98502006950923
 20
172.7946660376403
 30
0.0
 41
1.0
 10
84.19231885746752
 20
172.4247795514859
 30
0.0
 41
1.0
 10
84.4931477005349
 20
172.1427349007683
 30
0.0
 41
1.0
 10
84.85509074060439
 20
171.9430965076282
 30
0.0
 41
1.0
 10
85.29152567024642
 20
171.7884499492722
 30
0.0
 41
1.0
 10
85.84744095643975
 20
171.6883906691293
 30
0.0
 41
1.0
 10
86.29102817509476
 20
171.6781298564058
 30
0.0
 41
1.0
 10
86.51525222082922
 20
171.6729432305439
 30
0.0
 41
1.0
  0
ARC
  5
E00ED73B
330
E00DEA5D
100
AcDbEntity
  8
JISSEN
100
AcDbCircle
 10
106.7926703360746
 20
159.4229018932276
 30
0.0
 40
1.5
100
AcDbArc
 50
185.0000000000784
 51
270.0
  0
LINE
  5
E00ED73C
330
E00DEA5D
100
AcDbEntity
  8
JISSEN
100
AcDbLine
 10
102.6557075844767
 20
157.9700586140391
 30
0.0
 11
102.6557075844767
 21
157.5700586140412
 31
0.0
  0
LINE
  5
E00ED73D
330
E00DEA5D
100
AcDbEntity
  8
JISSEN
370
    -2
100
AcDbLine
 10
103.3057074279742
 20
150.6698988875271
 30
0.0
 11
101.4197699011739
 21
150.6698988875271
 31
0.0
  0
ARC
  5
E00ED73E
330
E00DEA5D
100
AcDbEntity
  8
JISSEN
370
    -2
100
AcDbCircle
 10
101.3057075844745
 20
150.1698983199259
 30
0.0
 40
2.000000000000056
100
AcDbArc
 50
270.0
 51
0.0
  0
LINE
  5
E00ED73F
330
E00DEA5D
100
AcDbEntity
  8
JISSEN
370
    -2
100
AcDbLine
 10
103.3057074279742
 20
153.6698975166275
 30
0.0
 11
101.4197699011739
 21
153.6698975166275
 31
0.0
  0
ARC
  5
E00ED740
330
E00DEA5D
100
AcDbEntity
  8
JISSEN
370
    -2
100
AcDbCircle
 10
96.3455259453741
 20
152.2541386171271
 30
0.0
 40
1.418614261419669
100
AcDbArc
 50
356.5956486346391
 51
86.36412516949837
  0
ARC
  5
E00ED741
330
E00DEA5D
100
AcDbEntity
  8
JISSEN
370
    -2
100
AcDbCircle
 10
96.79193419327397
 20
152.2983685908277
 30
0.0
 40
1.373690855685324
100
AcDbArc
 50
354.6337390540033
 51
86.78507455160408
  0
SPLINE
  5
E00ED742
330
E00DEA5D
100
AcDbEntity
  8
JISSEN
370
    -2
100
AcDbSpline
210
0.0
220
0.0
230
1.0
 70
    12
 71
     3
 72
    12
 73
     8
 74
     0
 42
0.0000000001
 43
0.0000000001
 40
0.0
 40
0.0
 40
0.0
 40
0.0
 40
0.2270414180693609
 40
0.4545205376007232
 40
0.6714649260062801
 40
0.8806674473517201
 40
1.0
 40
1.0
 40
1.0
 40
1.0
 10
101.4197699011921
 20
153.6698975166238
 30
0.0
 41
1.0
 10
101.3240167204049
 20
153.6529878666754
 30
0.0
 41
1.0
 10
101.1323257612012
 20
153.6191359675306
 30
0.0
 41
1.0
 10
100.8583846653338
 20
153.3452458541489
 30
0.0
 41
1.0
 10
100.6525170921532
 20
152.9448769378707
 30
0.0
 41
1.0
 10
100.5513540197717
 20
152.5284091688974
 30
0.0
 41
1.0
 10
100.541939489157
 20
152.265422027149
 30
0.0
 41
1.0
 10
100.5385198848008
 20
152.1698982020773
 30
0.0
 41
1.0
  0
ARC
  5
E00ED743
330
E00DEA5D
100
AcDbEntity
  8
JISSEN
370
    -2
100
AcDbCircle
 10
96.37865615467411
 20
152.0563673806266
 30
0.0
 40
1.387632780893617
100
AcDbArc
 50
272.3472583875874
 51
4.692967808289825
  0
ARC
  5
E00ED744
330
E00DEA5D
100
AcDbEntity
  8
JISSEN
370
    -2
100
AcDbCircle
 10
96.75413211957414
 20
152.0739535257255
 30
0.0
 40
1.408743357584393
100
AcDbArc
 50
274.6759443907204
 51
3.905242003595682
  0
SPLINE
  5
E00ED745
330
E00DEA5D
100
AcDbEntity
  8
JISSEN
370
    -2
100
AcDbSpline
210
0.0
220
0.0
230
1.0
 70
    12
 71
     3
 72
    12
 73
     8
 74
     0
 42
0.0000000001
 43
0.0000000001
 40
0.0
 40
0.0
 40
0.0
 40
0.0
 40
0.205840282809383
 40
0.4116490113380446
 40
0.6184457918287852
 40
0.8292559119854885
 40
1.0
 40
1.0
 40
1.0
 40
1.0
 10
100.5385198848008
 20
152.1698982020773
 30
0.0
 41
1.0
 10
100.5485363576536
 20
152.0044717367911
 30
0.0
 41
1.0
 10
100.5685677678831
 20
151.6736441652558
 30
0.0
 41
1.0
 10
100.7222957098339
 20
151.2322553128199
 30
0.0
 41
1.0
 10
100.9416655233382
 20
150.8955647849636
 30
0.0
 41
1.0
 10
101.1885761836111
 20
150.7009959848421
 30
0.0
 41
1.0
 10
101.3482959156018
 20
150.6795126153976
 30
0.0
 41
1.0
 10
101.4197699011921
 20
150.6698988875307
 30
0.0
 41
1.0
  0
ARC
  5
E00ED746
330
E00DEA5D
100
AcDbEntity
  8
JISSEN
100
AcDbCircle
 10
102.4557075844769
 20
157.5700586140412
 30
0.0
 40
0.1999999999999957
100
AcDbArc
 50
270.0
 51
0.0
  0
LINE
  5
E00ED747
330
E00DEA5D
100
AcDbEntity
  8
JISSEN
370
    -2
100
AcDbLine
 10
103.3057074279742
 20
150.6698988875271
 30
0.0
 11
103.3057074279742
 21
150.1698978742263
 31
0.0
  0
LINE
  5
E00ED748
330
E00DEA5D
100
AcDbEntity
  8
JISSEN
370
    -2
100
AcDbLine
 10
103.3057074279742
 20
155.1698986938265
 30
0.0
 11
103.3057074279742
 21
153.6698975166275
 31
0.0
  0
LINE
  5
E00ED749
330
E00DEA5D
100
AcDbEntity
  8
JISSEN
100
AcDbLine
 10
117.3738719500744
 20
160.9229018932276
 30
0.0
 11
108.2644672358729
 21
159.6426585510273
 31
0.0
  0
LINE
  5
E00ED74A
330
E00DEA5D
100
AcDbEntity
  8
JISSEN
100
AcDbLine
 10
106.8659614920744
 20
157.9313700276254
 30
0.0
 11
122.125294134874
 21
160.0759293743287
 31
0.0
  0
LINE
  5
E00ED74B
330
E00DEA5D
100
AcDbEntity
  8
JISSEN
100
AcDbLine
 10
106.5698038584742
 20
160.9229018932276
 30
0.0
 11
117.3738719500744
 21
160.9229018932276
 31
0.0
  0
HATCH
  5
E00ED74C
330
E00DEA5D
100
AcDbEntity
  8
HATCH
100
AcDbHatch
 10
0.0
 20
0.0
 30
0.0
210
0.0
220
0.0
230
1.0
  2
ANSI31
 70
     0
 71
     0
 91
        1
 92
        7
 72
     1
 73
     1
 93
       14
 10
105.0557075844736
 20
171.9229018932273
 42
0.0
 10
105.5557075844739
 20
172.4229018932273
 42
0.0
 10
106.5557075844736
 20
172.4229018932278
 42
0.0
 10
106.5557075844736
 20
161.1280606541258
 42
0.4557262555289391
 10
108.264467235915
 20
159.6426585510332
 42
0.0
 10
117.3738719500758
 20
160.9229018932276
 42
0.0
 10
122.5557075844736
 20
160.9229018932276
 42
0.0
 10
122.5557075844736
 20
160.5710634086283
 42
-0.3738846794428605
 10
122.1252941349449
 20
160.0759293743387
 42
0.0
 10
106.8659614921349
 20
157.9313700276338
 42
-0.0122983169365944
 10
106.7926703359677
 20
157.9229018932276
 42
-0.3888787318578421
 10
105.298378288861
 20
159.2921682791673
 42
0.0
 10
105.155707584474
 20
160.9229018932273
 42
0.0
 10
105.0557075844736
 20
160.9229018932278
 42
0.0
 97
        0
 75
     0
 76
     1
 52
0.0
 41
5.0
 77
     0
 78
     1
 53
135.0
 43
61.23122346125422
 44
-1464.721825912351
 45
0.4419417382415922
 46
0.4419417382415923
 79
     0
 47
0.0183417260654637
 98
        1
 10
105.6602985004818
 20
165.9796940967767
  0
LINE
  5
E00ED74D
330
E00DEA5D
100
AcDbEntity
  8
JISSEN
100
AcDbLine
 10
104.7057075844751
 20
167.6700586140034
 30
0.0
 11
105.0057075844744
 21
170.1133625423974
 31
0.0
  0
LINE
  5
E00ED74E
330
E00DEA5D
100
AcDbEntity
  8
JISSEN
100
AcDbLine
 10
105.0557075844736
 20
171.9229018932273
 30
0.0
 11
105.0557075844736
 21
160.9229018932276
 31
0.0
  0
LINE
  5
E00ED74F
330
E00DEA5D
100
AcDbEntity
  8
JISSEN
100
AcDbLine
 10
106.5557075844736
 20
161.1280606541258
 30
0.0
 11
106.5557075844736
 21
172.4229018932273
 31
0.0
  0
LINE
  5
E00ED750
330
E00DEA5D
100
AcDbEntity
  8
JISSEN
100
AcDbLine
 10
102.6557075844767
 20
157.9229018932276
 30
0.0
 11
106.7926703360736
 21
157.9229018932276
 31
0.0
  0
LINE
  5
E00ED751
330
E00DEA5D
100
AcDbEntity
  8
JISSEN
100
AcDbLine
 10
102.7557075844762
 20
158.1700586140361
 30
0.0
 11
102.3557075844729
 21
158.1700586140398
 31
0.0
  0
ARC
  5
E00ED752
330
E00DEA5D
100
AcDbEntity
  8
JISSEN
100
AcDbCircle
 10
102.4557075844769
 20
157.9700586140391
 30
0.0
 40
0.200000000000017
100
AcDbArc
 50
0.0
 51
90.0
  0
LINE
  5
E00ED753
330
E00DEA5D
100
AcDbEntity
  8
JISSEN
100
AcDbLine
 10
104.7057075844751
 20
161.6700586140034
 30
0.0
 11
105.0057075844744
 21
164.1133625423974
 31
0.0
  0
ARC
  5
E00ED754
330
E00DEA5D
100
AcDbEntity
  8
JISSEN
100
AcDbCircle
 10
108.0557075844746
 20
161.1280606541258
 30
0.0
 40
1.5
100
AcDbArc
 50
180.0
 51
278.0000000000402
  0
LINE
  5
E00ED755
330
E00DEA5D
100
AcDbEntity
  8
JISSEN
100
AcDbLine
 10
105.0557075844736
 20
160.9229018932276
 30
0.0
 11
105.155707584474
 21
160.9229018932276
 31
0.0
  0
LINE
  5
E00ED756
330
E00DEA5D
100
AcDbEntity
  8
JISSEN
100
AcDbLine
 10
104.7057075844751
 20
159.2896738564015
 30
0.0
 11
104.705707584476
 21
161.6700586140034
 31
0.0
  0
LINE
  5
E00ED757
330
E00DEA5D
100
AcDbEntity
  8
JISSEN
100
AcDbLine
 10
105.155707584474
 20
160.9229018932276
 30
0.0
 11
105.2983782888733
 21
159.2921682790258
 31
0.0
  0
ARC
  5
E00ED758
330
E00DEA5D
100
AcDbEntity
  8
JISSEN
100
AcDbCircle
 10
106.6572018406742
 20
159.416772130826
 30
0.0
 40
1.499999999999995
100
AcDbArc
 50
275.1815754690565
 51
278.0000000000402
  0
LINE
  5
E00ED759
330
E00DEA5D
100
AcDbEntity
  8
JISSEN
100
AcDbLine
 10
105.0057075844744
 20
167.6700586140034
 30
0.0
 11
104.7057075844751
 21
167.6700586140034
 31
0.0
  0
LINE
  5
E00ED75A
330
E00DEA5D
100
AcDbEntity
  8
JISSEN
100
AcDbLine
 10
105.0057075844744
 20
164.6700586140034
 30
0.0
 11
104.7057075844751
 21
164.6700586140034
 31
0.0
  0
LINE
  5
E00ED75B
330
E00DEA5D
100
AcDbEntity
  8
JISSEN
100
AcDbLine
 10
105.0057075844744
 20
164.1133625423974
 30
0.0
 11
105.0057075844744
 21
164.6700586140034
 31
0.0
  0
LINE
  5
E00ED75C
330
E00DEA5D
100
AcDbEntity
  8
JISSEN
100
AcDbLine
 10
104.7057075844751
 20
164.6700586140034
 30
0.0
 11
105.0057075844744
 21
167.1133625423974
 31
0.0
  0
ARC
  5
E00ED75D
330
E00DEA5D
100
AcDbEntity
  8
JISSEN
370
    -2
100
AcDbCircle
 10
96.37017178307463
 20
173.0355657137408
 30
0.0
 40
1.648956901138485
100
AcDbArc
 50
4.778960574511658
 51
96.79392819032045
  0
ARC
  5
E00ED75E
330
E00DEA5D
100
AcDbEntity
  8
JISSEN
370
    -2
100
AcDbCircle
 10
96.37771263977459
 20
173.3010797002427
 30
0.0
 40
1.640694770587604
100
AcDbArc
 50
262.9064018570145
 51
355.5207093781106
  0
LINE
  5
E00ED75F
330
E00DEA5D
100
AcDbEntity
  8
JISSEN
100
AcDbLine
 10
104.7057075844742
 20
170.6700586140762
 30
0.0
 11
104.7057075844742
 21
177.1729022285328
 31
0.0
  0
LINE
  5
E00ED760
330
E00DEA5D
100
AcDbEntity
  8
JISSEN
100
AcDbLine
 10
106.5557075844736
 20
172.4229018932273
 30
0.0
 11
104.7057075844742
 21
172.4229018932273
 31
0.0
  0
LINE
  5
E00ED761
330
E00DEA5D
100
AcDbEntity
  8
JISSEN
100
AcDbLine
 10
105.5557075844736
 20
172.4229018932273
 30
0.0
 11
105.0557075844736
 21
171.9229018932273
 31
0.0
  0
LINE
  5
E00ED762
330
E00DEA5D
100
AcDbEntity
  8
JISSEN
100
AcDbLine
 10
105.0057075844744
 20
170.6700586140034
 30
0.0
 11
104.7057075844742
 21
170.6700586140034
 31
0.0
  0
LINE
  5
E00ED764
330
E00DEA5D
100
AcDbEntity
  8
JISSEN
100
AcDbLine
 10
104.7057075844742
 20
176.1729022154288
 30
0.0
 11
104.2057075844742
 21
176.1729022154288
 31
0.0
  0
LINE
  5
E00ED765
330
E00DEA5D
100
AcDbEntity
  8
SAISEN
100
AcDbLine
 10
104.2057075844742
 20
176.1729022154324
 30
0.0
 11
104.2057075844733
 21
177.1729022285292
 31
0.0
  0
LINE
  5
E00ED768
330
E00DEA5D
100
AcDbEntity
  8
SUNPOU
100
AcDbLine
 10
115.0557075844736
 20
170.9229018932276
 30
0.0
 11
115.0557075844736
 21
160.9229018932276
 31
0.0
  0
LINE
  5
E00ED769
330
E00DEA5D
100
AcDbEntity
  8
JISSEN
100
AcDbLine
 10
122.5557075844736
 20
160.9229018932276
 30
0.0
 11
117.3738719500744
 21
160.9229018932276
 31
0.0
  0
LINE
  5
E00ED76A
330
E00DEA5D
100
AcDbEntity
  8
JISSEN
100
AcDbLine
 10
122.5557075844736
 20
160.5710634086283
 30
0.0
 11
122.5557075844736
 21
160.9229018932276
 31
0.0
  0
ARC
  5
E00ED76B
330
E00DEA5D
100
AcDbEntity
  8
JISSEN
100
AcDbCircle
 10
122.0557075844745
 20
160.5710634086283
 30
0.0
 40
0.5000000000000084
100
AcDbArc
 50
278.0000000000402
 51
0.0
  0
LINE
  5
E00ED76C
330
E00DEA5D
100
AcDbEntity
  8
JISSEN
100
AcDbLine
 10
101.3396821806892
 20
183.6729022285273
 30
0.0
 11
90.05570758447367
 21
183.6729022285273
 31
0.0
  0
LINE
  5
E00ED76E
330
E00DEA5D
100
AcDbEntity
  8
NITEN
100
AcDbLine
 10
99.05570758447368
 20
188.4729022285266
 30
0.0
 11
90.05570758447367
 21
188.4729022285266
 31
0.0
  0
LINE
  5
E00ED76F
330
E00DEA5D
100
AcDbEntity
  8
JISSEN
100
AcDbLine
 10
100.3178043585741
 20
198.2108054543298
 30
0.0
 11
90.05570758447367
 21
198.2108054543298
 31
0.0
  0
LINE
  5
E00ED770
330
E00DEA5D
100
AcDbEntity
  8
JISSEN
100
AcDbLine
 10
99.05570758447368
 20
199.4729022285266
 30
0.0
 11
90.05570758447367
 21
199.4729022285266
 31
0.0
  0
LINE
  5
E00ED771
330
E00DEA5D
100
AcDbEntity
  8
NITEN
100
AcDbLine
 10
77.55570758447368
 20
188.4729022285266
 30
0.0
 11
102.5557075844736
 21
188.4729022285266
 31
0.0
  0
LINE
  5
E00ED772
330
E00DEA5D
100
AcDbEntity
  8
NITEN
100
AcDbLine
 10
77.05570758447368
 20
205.2782526422618
 30
0.0
 11
77.05570758447414
 21
188.9729022285266
 31
0.0
  0
LINE
  5
E00ED773
330
E00DEA5D
100
AcDbEntity
  8
JISSEN
100
AcDbLine
 10
81.05570758447369
 20
199.4729022285266
 30
0.0
 11
90.05570758447367
 21
199.4729022285266
 31
0.0
  0
LINE
  5
E00ED775
330
E00DEA5D
100
AcDbEntity
  8
JISSEN
100
AcDbLine
 10
78.77173298825812
 20
183.6729022285273
 30
0.0
 11
90.05570758447367
 21
183.6729022285273
 31
0.0
  0
LINE
  5
E00ED776
330
E00DEA5D
100
AcDbEntity
  8
JISSEN
100
AcDbLine
 10
79.79361081037325
 20
198.2108054543298
 30
0.0
 11
90.05570758447367
 21
198.2108054543298
 31
0.0
  0
LINE
  5
E00ED777
330
E00DEA5D
100
AcDbEntity
  8
JISSEN
100
AcDbLine
 10
79.79361081037325
 20
198.2108054543298
 30
0.0
 11
79.33930133452316
 21
183.6729022285273
 31
0.0
  0
LINE
  5
E00ED778
330
E00DEA5D
100
AcDbEntity
  8
SAISEN
100
AcDbLine
 10
80.55769846647683
 20
185.4729022285303
 30
0.0
 11
80.99326902785662
 21
199.4104636695685
 31
0.0
  0
LINE
  5
E00ED779
330
E00DEA5D
100
AcDbEntity
  8
SAISEN
100
AcDbLine
 10
80.55769846647683
 20
185.4729022285339
 30
0.0
 11
80.99326902785662
 21
199.4104636695722
 31
0.0
  0
ARC
  5
E00ED77C
330
E00DEA5D
100
AcDbEntity
  8
NITEN
100
AcDbCircle
 10
77.55570758447368
 20
188.9729022285266
 30
0.0
 40
0.5
100
AcDbArc
 50
180.0
 51
270.0
  0
LINE
  5
E00ED77D
330
E00DEA5D
100
AcDbEntity
  8
JISSEN
100
AcDbLine
 10
81.05570758447369
 20
199.4729022285266
 30
0.0
 11
79.79361081037325
 21
198.2108054543298
 31
0.0
  0
LINE
  5
E00ED782
330
E00DEA5D
100
AcDbEntity
  8
NITEN
100
AcDbLine
 10
76.92409945664315
 20
205.6163168795303
 30
0.0
 11
70.76897641229209
 21
212.3236140490537
 31
0.0
  0
ARC
  5
E00ED783
330
E00DEA5D
100
AcDbEntity
  8
NITEN
100
AcDbCircle
 10
76.55570758447322
 20
205.2782526422618
 30
0.0
 40
0.5
100
AcDbArc
 50
0.0
 51
42.54184415662172
  0
ARC
  5
E00ED784
330
E00DEA5D
100
AcDbEntity
  8
NITEN
100
AcDbCircle
 10
71.05570758447322
 20
212.7332300093132
 30
0.0
 40
0.5
100
AcDbArc
 50
180.0
 51
235.0079798014511
  0
LINE
  5
E00ED785
330
E00DEA5D
100
AcDbEntity
  8
NITEN
100
AcDbLine
 10
103.0557075844741
 20
205.2782526422618
 30
0.0
 11
103.0557075844736
 21
188.9729022285266
 31
0.0
  0
LINE
  5
E00ED786
330
E00DEA5D
100
AcDbEntity
  8
SAISEN
100
AcDbLine
 10
99.55371670247053
 20
185.4729022285339
 30
0.0
 11
99.11814614109074
 21
199.4104636695722
 31
0.0
  0
LINE
  5
E00ED787
330
E00DEA5D
100
AcDbEntity
  8
SAISEN
100
AcDbLine
 10
99.55371670247053
 20
185.4729022285303
 30
0.0
 11
99.11814614109074
 21
199.4104636695685
 31
0.0
  0
LINE
  5
E00ED788
330
E00DEA5D
100
AcDbEntity
  8
JISSEN
100
AcDbLine
 10
100.3178043585741
 20
198.2108054543298
 30
0.0
 11
100.7721138344242
 21
183.6729022285273
 31
0.0
  0
ARC
  5
E00ED78A
330
E00DEA5D
100
AcDbEntity
  8
NITEN
100
AcDbCircle
 10
102.5557075844732
 20
188.9729022285266
 30
0.0
 40
0.5
100
AcDbArc
 50
270.0
 51
0.0
  0
LINE
  5
E00ED78C
330
E00DEA5D
100
AcDbEntity
  8
JISSEN
100
AcDbLine
 10
99.05570758447368
 20
199.4729022285266
 30
0.0
 11
100.3178043585741
 21
198.2108054543298
 31
0.0
  0
LINE
  5
E00ED78D
330
E00DEA5D
100
AcDbEntity
  8
NITEN
100
AcDbLine
 10
103.1873157123042
 20
205.6163168795303
 30
0.0
 11
109.3424387566552
 21
212.3236140490537
 31
0.0
  0
ARC
  5
E00ED78E
330
E00DEA5D
100
AcDbEntity
  8
NITEN
100
AcDbCircle
 10
103.5557075844736
 20
205.2782526422618
 30
0.0
 40
0.5
100
AcDbArc
 50
137.4581558433782
 51
180.0
  0
ARC
  5
E00ED78F
330
E00DEA5D
100
AcDbEntity
  8
NITEN
100
AcDbCircle
 10
109.0557075844732
 20
212.7332300093132
 30
0.0
 40
0.5
100
AcDbArc
 50
304.9920201985488
 51
0.0
  0
SPLINE
  5
E00ED790
330
E00DEA5D
100
AcDbEntity
  8
SUNPOU
100
AcDbSpline
210
0.0
220
0.0
230
1.0
 70
     8
 71
     3
 72
    11
 73
     7
 74
     5
 42
0.0000000001
 43
0.0000000001
 44
0.0000000001
 40
0.0
 40
0.0
 40
0.0
 40
0.0
 40
3.264692203133994
 40
6.15697472568029
 40
8.955271668736928
 40
10.85738683396026
 40
10.85738683396026
 40
10.85738683396026
 40
10.85738683396026
 10
147.1075756891024
 20
170.9229018932276
 30
0.0
 10
146.432475000816
 20
169.9215029420224
 30
0.0
 10
145.159283650318
 20
168.0329365323087
 30
0.0
 10
147.4251283666623
 20
165.1815654992395
 30
0.0
 10
145.2220112001056
 20
162.5552350014985
 30
0.0
 10
146.5643653908397
 20
161.3931590283096
 30
0.0
 10
147.1075756891024
 20
160.9229018932276
 30
0.0
 11
147.1075756891024
 21
170.9229018932276
 31
0.0
 11
145.8782353115385
 21
167.8985114724494
 31
0.0
 11
146.6504187655083
 21
165.1112133356075
 31
0.0
 11
145.9211122337002
 21
162.4096253277532
 31
0.0
 11
147.1075756891024
 21
160.9229018932276
 31
0.0
  0
LINE
  5
E00ED791
330
E00DEA5D
100
AcDbEntity
  8
JISSEN
100
AcDbLine
 10
122.9999998043618
 20
258.0000002925355
 30
0.0
 11
122.9999998043618
 21
273.0000002925355
 31
0.0
  0
ELLIPSE
  5
E00ED792
330
E00DEA5D
100
AcDbEntity
  8
NITEN
100
AcDbEllipse
 10
98.55570758447369
 20
245.2768907529282
 30
0.0
 11
-8.499999999999985
 21
0.0
 31
0.0
210
0.0
220
0.0
230
1.0
 40
0.2352941176470057
 41
0.0
 42
6.283185307179586
  0
LINE
  5
E00ED793
330
E00DEA5D
100
AcDbEntity
  8
NITEN
100
AcDbLine
 10
109.0557075844736
 20
230.4729022285266
 30
0.0
 11
71.05570758447368
 21
230.4729022285266
 31
0.0
  0
LINE
  5
E00ED794
330
E00DEA5D
100
AcDbEntity
  8
NITEN
100
AcDbLine
 10
73.05570758447368
 20
230.4729022285266
 30
0.0
 11
73.05570758447368
 21
245.2768907529282
 31
0.0
  0
ARC
  5
E00ED795
330
E00DEA5D
100
AcDbEntity
  8
NITEN
100
AcDbCircle
 10
71.05570758447322
 20
229.9729022285266
 30
0.0
 40
0.5
100
AcDbArc
 50
90.0
 51
180.0
  0
ELLIPSE
  5
E00ED796
330
E00DEA5D
100
AcDbEntity
  8
NITEN
100
AcDbEllipse
 10
81.55570758447368
 20
245.2768907529282
 30
0.0
 11
-8.5
 21
0.0
 31
0.0
210
0.0
220
0.0
230
1.0
 40
0.2352941176470588
 41
3.141592653589793
 42
6.283185307179586
  0
LINE
  5
E00ED797
330
E00DEA5D
100
AcDbEntity
  8
NITEN
100
AcDbLine
 10
107.0557075844736
 20
230.4729022285266
 30
0.0
 11
107.0557075844736
 21
245.2768907529282
 31
0.0
  0
ARC
  5
E00ED798
330
E00DEA5D
100
AcDbEntity
  8
NITEN
100
AcDbCircle
 10
109.0557075844732
 20
229.9729022285266
 30
0.0
 40
0.5
100
AcDbArc
 50
0.0
 51
90.0
  0
LINE
  5
E00ED799
330
E00DEA5D
100
AcDbEntity
  8
JISSEN
100
AcDbLine
 10
132.999999442362
 20
273.0000002925355
 30
0.0
 11
132.999999442362
 21
258.0000002925355
 31
0.0
  0
LINE
  5
E00ED79A
330
E00DEA5D
100
AcDbEntity
  8
JISSEN
100
AcDbLine
 10
162.999999442362
 20
273.0000002925355
 30
0.0
 11
162.999999442362
 21
258.0000002925355
 31
0.0
  0
TEXT
  5
E00ED79B
330
E00DEA5D
100
AcDbEntity
  8
TEXT
100
AcDbText
 10
133.9495665453038
 20
263.8900038799334
 30
0.0
 40
3.0
  1
スプリンクラーヘッド
 41
0.8
  7
K
 72
     4
 11
147.9495665453038
 21
265.4900038799335
 31
0.0
100
AcDbText
  0
TEXT
  5
E00ED79C
330
E00DEA5D
100
AcDbEntity
  8
TEXT
100
AcDbText
 10
127.642856947219
 20
263.9370850808593
 30
0.0
 40
3.0
  1
1
  7
K
 72
     4
 11
127.9999998043618
 21
265.4370850808593
 31
0.0
100
AcDbText
  0
TEXT
  5
E00ED79D
330
E00DEA5D
100
AcDbEntity
  8
TEXT
100
AcDbText
 10
133.8195665453038
 20
258.8900038799335
 30
0.0
 40
3.0
  1
シーリングプレート
 41
0.9
  7
K
 72
     4
 11
147.9495665453038
 21
260.4900038799335
 31
0.0
100
AcDbText
  0
TEXT
  5
E00ED79E
330
E00DEA5D
100
AcDbEntity
  8
TEXT
100
AcDbText
 10
126.9999998043618
 20
258.9370850808593
 30
0.0
 40
3.0
  1
2
  7
K
 72
     4
 11
127.9999998043618
 21
260.4370850808593
 31
0.0
100
AcDbText
  0
TEXT
  5
E00ED79F
330
E00DEA5D
100
AcDbEntity
  8
TEXT
100
AcDbText
 10
141.3423042662032
 20
268.932190737318
 30
0.0
 40
3.0
  1
名　　称
  7
K
 72
     4
 11
148.1423042662032
 21
270.432190737318
 31
0.0
100
AcDbText
  0
TEXT
  5
E00ED7A0
330
E00DEA5D
100
AcDbEntity
  8
TEXT
100
AcDbText
 10
124.799999442362
 20
269.0382149810413
 30
0.0
 40
3.0
  1
番号
  7
K
 72
     4
 11
127.999999442362
 21
270.5382149810414
 31
0.0
100
AcDbText
  0
TEXT
  5
E00ED7A1
330
E00DEA5D
100
AcDbEntity
  8
TEXT
100
AcDbText
 10
167.0308930360866
 20
268.9731311413563
 30
0.0
 40
3.0
  1
備　考
  7
K
 72
     4
 11
172.0308930360866
 21
270.4731311413563
 31
0.0
100
AcDbText
  0
LWPOLYLINE
  5
E00ED7A2
330
E00DEA5D
100
AcDbEntity
  8
WAKU
100
AcDbPolyline
 90
        4
 70
     1
 43
0.0
 10
361.9999990803622
 20
0.0000002925355602
 10
180.9999998043618
 20
0.0000002925355602
 10
180.9999998043618
 20
273.0000002925355
 10
361.9999990803622
 20
273.0000002925355
  0
LINE
  5
E00ED7A3
330
E00DEA5D
100
AcDbEntity
  8
JISSEN
 48
0.1
100
AcDbLine
 39
1680.364539346804
 10
264.3057068604737
 20
35.43970704091657
 30
0.0
 11
264.3057068604728
 21
34.03970704091148
 31
0.0
  0
LINE
  5
E00ED7A4
330
E00DEA5D
100
AcDbEntity
  8
JISSEN
 48
0.1
100
AcDbLine
 39
1680.364539346804
 10
267.4347255295486
 20
38.57888014187915
 30
0.0
 11
267.0638139390173
 21
35.93970704093658
 31
0.0
  0
LINE
  5
E00ED7A5
330
E00DEA5D
100
AcDbEntity
  8
JISSEN
 48
0.1
100
AcDbLine
 39
1680.364539346804
 10
274.6766881914497
 20
38.57888014187915
 30
0.0
 11
275.047599781981
 21
35.93970704093658
 31
0.0
  0
LINE
  5
E00ED7A6
330
E00DEA5D
100
AcDbEntity
  8
JISSEN
 48
0.1
100
AcDbLine
 39
1680.364539346804
 10
277.8057068605246
 20
35.43970704091657
 30
0.0
 11
277.8057068605255
 21
34.03970704091148
 31
0.0
  0
LINE
  5
E00ED7A7
330
E00DEA5D
100
AcDbEntity
  8
JISSEN
100
AcDbLine
 39
1680.364539346804
 10
262.8529845773742
 20
31.93970704091294
 30
0.0
 11
264.1029845773751
 21
31.93970704091294
 31
0.0
  0
LINE
  5
E00ED7A8
330
E00DEA5D
100
AcDbEntity
  8
JISSEN
100
AcDbLine
 39
1680.364539346804
 10
280.430706860469
 20
31.93970704091294
 30
0.0
 11
279.1807068604681
 21
31.93970704091294
 31
0.0
  0
LINE
  5
E00ED7A9
330
E00DEA5D
100
AcDbEntity
  8
JISSEN
100
AcDbLine
 10
287.9095762939738
 20
43.00714826126637
 30
0.0
 11
302.0956133402738
 21
45.00086574886586
 31
0.0
  0
LINE
  5
E00ED7AA
330
E00DEA5D
100
AcDbEntity
  8
JISSEN
100
AcDbLine
 10
238.5557068603944
 20
45.99255036446698
 30
0.0
 11
303.55570686055
 21
45.99255036446698
 31
0.0
  0
HATCH
  5
E00ED7AB
330
E00DEA5D
100
AcDbEntity
  8
SUNPOU
100
AcDbHatch
 10
0.0
 20
0.0
 30
0.0
210
0.0
220
0.0
230
1.0
  2
ANSI31
 70
     0
 71
     0
 91
        2
 92
        5
 93
        5
 72
     1
 10
271.0557068604736
 20
55.99255036446699
 11
214.003838755846
 21
55.99255036446517
 72
     4
 94
        3
 73
     0
 74
     0
 95
       11
 96
        7
 40
0.0
 40
0.0
 40
0.0
 40
0.0
 40
3.264692203133994
 40
6.15697472568029
 40
8.955271668736928
 40
10.85738683396026
 40
10.85738683396026
 40
10.85738683396026
 40
10.85738683396026
 10
214.0038387558448
 20
55.99255036446699
 10
214.6789394441317
 20
54.9911514132607
 10
215.9521307946294
 20
53.10258500354827
 10
213.6862860782854
 20
50.25121397047838
 10
215.8894032448421
 20
47.62488347273825
 10
214.547049054108
 20
46.46280749954781
 10
214.0038387558448
 20
45.99255036446698
 72
     1
 10
214.0038387558453
 20
45.99255036446698
 11
238.5557068603978
 21
45.99255036446698
 72
     1
 10
238.5557068603976
 20
45.99255036446698
 11
271.0557068604736
 21
45.99255036446698
 72
     1
 10
271.0557068604736
 20
45.99255036446698
 11
271.0557068604736
 21
55.9925503644688
 97
        0
 92
        5
 93
        5
 72
     4
 94
        3
 73
     0
 74
     0
 95
       11
 96
        7
 40
0.0
 40
0.0
 40
0.0
 40
0.0
 40
1.902115165223333
 40
4.700412108279971
 40
7.592694630826267
 40
10.85738683396026
 40
10.85738683396026
 40
10.85738683396026
 40
10.85738683396026
 10
328.1075749651023
 20
45.99255036446698
 10
327.5643646668401
 20
46.46280749954781
 10
326.2220104761059
 20
47.62488347273825
 10
328.4251276426626
 20
50.25121397047838
 10
326.1592829263182
 20
53.10258500354827
 10
327.4324742768163
 20
54.9911514132607
 10
328.1075749651023
 20
55.99255036446699
 72
     1
 10
328.1075749651014
 20
55.99255036446517
 11
271.055706860474
 21
55.9925503644688
 72
     1
 10
271.0557068604736
 20
55.99255036446699
 11
271.0557068604736
 21
45.99255036446517
 72
     1
 10
271.0557068604736
 20
45.99255036446698
 11
303.5557068605495
 21
45.99255036446698
 72
     1
 10
303.55570686055
 20
45.99255036446698
 11
328.1075749651027
 21
45.99255036446698
 97
        0
 75
     0
 76
     1
 52
0.0
 41
10.0
 77
     0
 78
     1
 53
45.0
 43
185.0253229146702
 44
-2526.670502530646
 45
-0.8838834764831842
 46
0.8838834764831844
 79
     0
 47
0.0883306502300457
 98
        2
 10
256.9824998727173
 20
55.11206805241341
 10
287.1162310605315
 20
50.69553455950041
  0
LINE
  5
E00ED7AC
330
E00DEA5D
100
AcDbEntity
  8
SUNPOU
100
AcDbLine
 10
238.5557068603976
 20
45.99255036446698
 30
0.0
 11
214.0038387558448
 21
45.99255036446698
 31
0.0
  0
ARC
  5
E00ED7AD
330
E00DEA5D
100
AcDbEntity
  8
JISSEN
100
AcDbCircle
 39
240.0520776831561
 10
264.1029845773751
 20
32.13970704091367
 30
0.0
 40
0.2000000000007276
100
AcDbArc
 50
270.0
 51
0.0
  0
ARC
  5
E00ED7AE
330
E00DEA5D
100
AcDbEntity
  8
JISSEN
100
AcDbCircle
 39
240.0520776831561
 10
262.8529845773751
 20
32.13970704091367
 30
0.0
 40
0.2000000000007276
100
AcDbArc
 50
180.0
 51
270.0
  0
ARC
  5
E00ED7AF
330
E00DEA5D
100
AcDbEntity
  8
JISSEN
100
AcDbCircle
 39
240.0520776831561
 10
280.4307068604681
 20
32.13970704091367
 30
0.0
 40
0.2000000000007276
100
AcDbArc
 50
270.0
 51
0.0
  0
ARC
  5
E00ED7B0
330
E00DEA5D
100
AcDbEntity
  8
JISSEN
100
AcDbCircle
 39
240.0520776831561
 10
279.1807068604681
 20
32.13970704091367
 30
0.0
 40
0.2000000000007276
100
AcDbArc
 50
180.0
 51
270.0
  0
LINE
  5
E00ED7B1
330
E00DEA5D
100
AcDbEntity
  8
JISSEN
100
AcDbLine
 10
271.0557068604737
 20
35.43970704091657
 30
0.0
 11
264.3057068604737
 21
35.43970704091657
 31
0.0
  0
LINE
  5
E00ED7B2
330
E00DEA5D
100
AcDbEntity
  8
JISSEN
100
AcDbLine
 10
265.4807068604729
 20
35.93970704093476
 30
0.0
 11
271.0557068604737
 21
35.93970704094022
 31
0.0
  0
LINE
  5
E00ED7B3
330
E00DEA5D
100
AcDbEntity
  8
JISSEN
100
AcDbLine
 10
267.2450457618221
 20
34.0397070409133
 30
0.0
 11
263.5277327345726
 21
34.0397070409133
 31
0.0
  0
LINE
  5
E00ED7B4
330
E00DEA5D
100
AcDbEntity
  8
JISSEN
100
AcDbLine
 10
271.0557068604736
 20
42.99255036446516
 30
0.0
 11
254.4225639463708
 21
42.99255036446516
 31
0.0
  0
LINE
  5
E00ED7B5
330
E00DEA5D
100
AcDbEntity
  8
JISSEN
100
AcDbLine
 10
266.2628875904234
 20
32.83970704091439
 30
0.0
 11
265.3971188724723
 21
32.13970704091367
 31
0.0
  0
LINE
  5
E00ED7B6
330
E00DEA5D
100
AcDbEntity
  8
JISSEN
100
AcDbLine
 10
267.2450457618221
 20
32.83970704091439
 30
0.0
 11
263.5277327345726
 21
32.83970704091439
 31
0.0
  0
LINE
  5
E00ED7B7
330
E00DEA5D
100
AcDbEntity
  8
JISSEN
100
AcDbLine
 10
254.2018374269715
 20
43.00714826126637
 30
0.0
 11
240.0158003806715
 21
45.00086574886405
 31
0.0
  0
ARC
  5
E00ED7B8
330
E00DEA5D
100
AcDbEntity
  8
JISSEN
100
AcDbCircle
 10
240.2941465825703
 20
46.98140188636421
 30
0.0
 40
1.999999999999996
100
AcDbArc
 50
209.6318914940852
 51
261.9999999999498
  0
LINE
  5
E00ED7B9
330
E00DEA5D
100
AcDbEntity
  8
JISSEN
100
AcDbLine
 10
262.7779845773735
 20
34.0397070409133
 30
0.0
 11
262.777984577374
 21
42.99255036446335
 31
0.0
  0
LINE
  5
E00ED7BA
330
E00DEA5D
100
AcDbEntity
  8
JISSEN
100
AcDbLine
 10
264.1779845773736
 20
42.99255036446335
 30
0.0
 11
264.1779845773732
 21
34.0397070409133
 31
0.0
  0
LINE
  5
E00ED7BB
330
E00DEA5D
100
AcDbEntity
  8
JISSEN
100
AcDbLine
 10
262.368954958824
 20
34.0397070409133
 30
0.0
 11
262.0188534335726
 21
34.0397070409133
 31
0.0
  0
LINE
  5
E00ED7BC
330
E00DEA5D
100
AcDbEntity
  8
JISSEN
100
AcDbLine
 10
265.3971188724723
 20
32.13970704091367
 30
0.0
 11
262.0188534335726
 21
32.13970704091367
 31
0.0
  0
LINE
  5
E00ED7BD
330
E00DEA5D
100
AcDbEntity
  8
JISSEN
100
AcDbLine
 10
262.368954958824
 20
32.83970704091439
 30
0.0
 11
262.0188534335726
 21
32.83970704091439
 31
0.0
  0
LINE
  5
E00ED7BE
330
E00DEA5D
100
AcDbEntity
  8
JISSEN
100
AcDbLine
 10
262.0188534335726
 20
34.0397070409133
 30
0.0
 11
260.5188534335726
 21
34.0397070409133
 31
0.0
  0
LINE
  5
E00ED7BF
330
E00DEA5D
100
AcDbEntity
  8
JISSEN
100
AcDbLine
 10
260.5188534335726
 20
34.0397070409133
 30
0.0
 11
259.6912887055738
 21
34.0397070409133
 31
0.0
  0
LINE
  5
E00ED7C0
330
E00DEA5D
100
AcDbEntity
  8
JISSEN
100
AcDbLine
 10
260.5188534335726
 20
33.3397070409144
 30
0.0
 11
262.0188534335726
 21
33.3397070409144
 31
0.0
  0
LINE
  5
E00ED7C1
330
E00DEA5D
100
AcDbEntity
  8
JISSEN
100
AcDbLine
 10
262.0188534335726
 20
32.13970704091367
 30
0.0
 11
260.5188534335726
 21
32.13970704091367
 31
0.0
  0
LINE
  5
E00ED7C2
330
E00DEA5D
100
AcDbEntity
  8
JISSEN
100
AcDbLine
 10
260.5188534335726
 20
32.13970704091367
 30
0.0
 11
260.5188534335726
 21
32.83970704091439
 31
0.0
  0
LINE
  5
E00ED7C3
330
E00DEA5D
100
AcDbEntity
  8
JISSEN
100
AcDbLine
 10
262.0188534335726
 20
32.13970704091367
 30
0.0
 11
262.0188534335726
 21
32.83970704091439
 31
0.0
  0
LINE
  5
E00ED7C4
330
E00DEA5D
100
AcDbEntity
  8
JISSEN
100
AcDbLine
 10
260.5188534335726
 20
32.83970704091439
 30
0.0
 11
259.6912887055738
 21
32.83970704091439
 31
0.0
  0
LINE
  5
E00ED7C5
330
E00DEA5D
100
AcDbEntity
  8
JISSEN
100
AcDbLine
 10
262.0188534335726
 20
34.0397070409133
 30
0.0
 11
262.0188534335726
 21
33.3397070409144
 31
0.0
  0
LINE
  5
E00ED7C6
330
E00DEA5D
100
AcDbEntity
  8
JISSEN
100
AcDbLine
 10
260.5188534335726
 20
34.0397070409133
 30
0.0
 11
260.5188534335726
 21
33.3397070409144
 31
0.0
  0
LINE
  5
E00ED7C7
330
E00DEA5D
100
AcDbEntity
  8
JISSEN
100
AcDbLine
 10
259.6912887055738
 20
34.0397070409133
 30
0.0
 11
259.6912887055738
 21
32.83970704091439
 31
0.0
  0
LINE
  5
E00ED7C8
330
E00DEA5D
100
AcDbEntity
  8
JISSEN
100
AcDbLine
 10
262.368954958824
 20
34.0397070409133
 30
0.0
 11
263.5277327345726
 21
34.0397070409133
 31
0.0
  0
LINE
  5
E00ED7C9
330
E00DEA5D
100
AcDbEntity
  8
JISSEN
100
AcDbLine
 10
262.368954958824
 20
32.83970704091439
 30
0.0
 11
263.5277327345726
 21
32.83970704091439
 31
0.0
  0
LINE
  5
E00ED7CA
330
E00DEA5D
100
AcDbEntity
  8
JISSEN
100
AcDbLine
 10
263.5277327345726
 20
34.0397070409133
 30
0.0
 11
263.5277327345726
 21
32.83970704091439
 31
0.0
  0
LINE
  5
E00ED7CB
330
E00DEA5D
100
AcDbEntity
  8
JISSEN
100
AcDbLine
 10
262.368954958824
 20
32.83970704091439
 30
0.0
 11
262.368954958824
 21
34.0397070409133
 31
0.0
  0
LINE
  5
E00ED7CC
330
E00DEA5D
100
AcDbEntity
  8
JISSEN
100
AcDbLine
 10
265.4807068604729
 20
35.93970704093658
 30
0.0
 11
265.4807068604729
 21
35.43970704093476
 31
0.0
  0
ARC
  5
E00ED7CD
330
E00DEA5D
100
AcDbEntity
  8
JISSEN
100
AcDbCircle
 10
254.4105970783699
 20
44.49255036446698
 30
0.0
 40
1.5
100
AcDbArc
 50
261.9999999999498
 51
270.0
  0
LINE
  5
E00ED7CE
330
E00DEA5D
100
AcDbEntity
  8
JISSEN
100
AcDbLine
 10
254.4225639463708
 20
42.99255036446516
 30
0.0
 11
254.4105970783708
 21
42.99255036446516
 31
0.0
  0
LINE
  5
E00ED7CF
330
E00DEA5D
100
AcDbEntity
  8
JISSEN
100
AcDbLine
 10
281.8183503857222
 20
34.0397070409133
 30
0.0
 11
279.7279601051237
 21
34.0397070409133
 31
0.0
  0
LINE
  5
E00ED7D0
330
E00DEA5D
100
AcDbEntity
  8
JISSEN
100
AcDbLine
 10
271.0557068604736
 20
42.99255036446698
 30
0.0
 11
287.6888497745745
 21
42.99255036446698
 31
0.0
  0
LINE
  5
E00ED7D1
330
E00DEA5D
100
AcDbEntity
  8
JISSEN
100
AcDbLine
 10
278.4557068604741
 20
32.13970704091367
 30
0.0
 11
282.3565917815727
 21
32.13970704091367
 31
0.0
  0
LINE
  5
E00ED7D2
330
E00DEA5D
100
AcDbEntity
  8
JISSEN
100
AcDbLine
 10
281.8183503857222
 20
32.83970704091439
 30
0.0
 11
279.7279601051237
 21
32.83970704091439
 31
0.0
  0
LINE
  5
E00ED7D3
330
E00DEA5D
100
AcDbEntity
  8
JISSEN
100
AcDbLine
 10
279.1057068604719
 20
34.0397070409133
 30
0.0
 11
279.1057068604724
 21
42.99255036446516
 31
0.0
  0
LINE
  5
E00ED7D4
330
E00DEA5D
100
AcDbEntity
  8
JISSEN
100
AcDbLine
 10
271.0557068605246
 20
32.7897070409133
 30
0.0
 11
275.8557068605239
 21
32.78970704087672
 31
0.0
  0
LINE
  5
E00ED7D5
330
E00DEA5D
100
AcDbEntity
  8
JISSEN
100
AcDbLine
 10
271.055706860525
 20
32.83970704091439
 30
0.0
 11
273.1277014718235
 21
32.83970704089862
 31
0.0
  0
LINE
  5
E00ED7D6
330
E00DEA5D
100
AcDbEntity
  8
JISSEN
100
AcDbLine
 10
275.3557068605424
 20
31.63970704088999
 30
0.0
 11
271.0557068605422
 21
31.63970704092275
 31
0.0
  0
LINE
  5
E00ED7D7
330
E00DEA5D
100
AcDbEntity
  8
JISSEN
100
AcDbLine
 10
273.6864201227088
 20
39.43970704091839
 30
0.0
 11
271.0557068605246
 21
39.43970704091839
 31
0.0
  0
LINE
  5
E00ED7D8
330
E00DEA5D
100
AcDbEntity
  8
JISSEN
100
AcDbLine
 10
271.0557068605246
 20
35.43970704091657
 30
0.0
 11
277.8057068605246
 21
35.43970704091657
 31
0.0
  0
LINE
  5
E00ED7D9
330
E00DEA5D
100
AcDbEntity
  8
JISSEN
100
AcDbLine
 10
276.6307068605253
 20
35.93970704093476
 30
0.0
 11
271.0557068605246
 21
35.93970704094022
 31
0.0
  0
LINE
  5
E00ED7DA
330
E00DEA5D
100
AcDbEntity
  8
JISSEN
100
AcDbLine
 10
273.1277014718222
 20
34.0397070409133
 30
0.0
 11
268.9837122491741
 21
34.0397070409133
 31
0.0
  0
LINE
  5
E00ED7DB
330
E00DEA5D
100
AcDbEntity
  8
JISSEN
100
AcDbLine
 10
271.0557068604736
 20
32.83970704091439
 30
0.0
 11
268.983712249175
 21
32.83970704091439
 31
0.0
  0
LINE
  5
E00ED7DC
330
E00DEA5D
100
AcDbEntity
  8
JISSEN
100
AcDbLine
 10
271.0557068604736
 20
32.7897070409133
 30
0.0
 11
266.2557068604743
 21
32.7897070409133
 31
0.0
  0
LINE
  5
E00ED7DD
330
E00DEA5D
100
AcDbEntity
  8
JISSEN
100
AcDbLine
 10
266.755706860447
 20
31.63970704092275
 30
0.0
 11
271.0557068604472
 21
31.63970704092275
 31
0.0
  0
LINE
  5
E00ED7DE
330
E00DEA5D
100
AcDbEntity
  8
JISSEN
100
AcDbLine
 10
266.4057068604739
 20
32.7897070409133
 30
0.0
 11
266.4057068604739
 21
32.83970704091439
 31
0.0
  0
LINE
  5
E00ED7DF
330
E00DEA5D
100
AcDbEntity
  8
JISSEN
100
AcDbLine
 10
267.2450457618229
 20
32.83970704091439
 30
0.0
 11
268.0122936379735
 21
32.83970704091439
 31
0.0
  0
LINE
  5
E00ED7E0
330
E00DEA5D
100
AcDbEntity
  8
JISSEN
100
AcDbLine
 10
268.0122936379735
 20
32.83970704091439
 30
0.0
 11
268.983712249175
 21
32.83970704091439
 31
0.0
  0
LINE
  5
E00ED7E1
330
E00DEA5D
100
AcDbEntity
  8
JISSEN
100
AcDbLine
 10
266.755706860447
 20
31.63970704092275
 30
0.0
 11
266.255706860447
 21
32.13970704092275
 31
0.0
  0
LINE
  5
E00ED7E2
330
E00DEA5D
100
AcDbEntity
  8
JISSEN
100
AcDbLine
 10
266.2557068604479
 20
32.78970704091511
 30
0.0
 11
266.255706860447
 21
32.13970704092275
 31
0.0
  0
LINE
  5
E00ED7E3
330
E00DEA5D
100
AcDbEntity
  8
JISSEN
100
AcDbLine
 10
268.0122936379726
 20
34.0397070409133
 30
0.0
 11
268.9837122491741
 21
34.0397070409133
 31
0.0
  0
LINE
  5
E00ED7E4
330
E00DEA5D
100
AcDbEntity
  8
JISSEN
100
AcDbLine
 10
267.2450457618221
 20
34.0397070409133
 30
0.0
 11
268.0122936379726
 21
34.0397070409133
 31
0.0
  0
LINE
  5
E00ED7E5
330
E00DEA5D
100
AcDbEntity
  8
JISSEN
100
AcDbLine
 10
268.9837122491741
 20
34.0397070409133
 30
0.0
 11
268.9837122491741
 21
32.83970704091439
 31
0.0
  0
LINE
  5
E00ED7E6
330
E00DEA5D
100
AcDbEntity
  8
JISSEN
100
AcDbLine
 10
267.2450457618221
 20
32.83970704091439
 30
0.0
 11
267.2450457618221
 21
34.0397070409133
 31
0.0
  0
LINE
  5
E00ED7E7
330
E00DEA5D
100
AcDbEntity
  8
JISSEN
100
AcDbLine
 10
268.4249935982895
 20
39.43970704091839
 30
0.0
 11
271.0557068604737
 21
39.43970704091839
 31
0.0
  0
ARC
  5
E00ED7E8
330
E00DEA5D
100
AcDbEntity
  8
JISSEN
100
AcDbCircle
 10
268.4249935982895
 20
38.43970704091839
 30
0.0
 40
1.0
100
AcDbArc
 50
89.99999999998697
 51
171.9999999999596
  0
LINE
  5
E00ED7E9
330
E00DEA5D
100
AcDbEntity
  8
JISSEN
100
AcDbLine
 10
278.4551678990234
 20
34.0397070409133
 30
0.0
 11
274.8663679591742
 21
34.0397070409133
 31
0.0
  0
LINE
  5
E00ED7EA
330
E00DEA5D
100
AcDbEntity
  8
JISSEN
100
AcDbLine
 10
278.4551678990234
 20
32.83970704091439
 30
0.0
 11
274.8663679591742
 21
32.83970704091439
 31
0.0
  0
LINE
  5
E00ED7EB
330
E00DEA5D
100
AcDbEntity
  8
JISSEN
100
AcDbLine
 10
274.099120083025
 20
32.83970704089119
 30
0.0
 11
273.1277014718235
 21
32.83970704089862
 31
0.0
  0
LINE
  5
E00ED7EC
330
E00DEA5D
100
AcDbEntity
  8
JISSEN
100
AcDbLine
 10
274.8663679591755
 20
32.83970704088534
 30
0.0
 11
274.099120083025
 21
32.83970704089119
 31
0.0
  0
LINE
  5
E00ED7ED
330
E00DEA5D
100
AcDbEntity
  8
JISSEN
100
AcDbLine
 10
275.7057068605242
 20
32.78970704087786
 30
0.0
 11
275.7057068605246
 21
32.83970704087895
 31
0.0
  0
LINE
  5
E00ED7EE
330
E00DEA5D
100
AcDbEntity
  8
JISSEN
100
AcDbLine
 10
275.3557068605424
 20
31.63970704088999
 30
0.0
 11
275.8557068605461
 21
32.13970704088618
 31
0.0
  0
LINE
  5
E00ED7EF
330
E00DEA5D
100
AcDbEntity
  8
JISSEN
100
AcDbLine
 10
275.8557068605503
 20
32.78970704087853
 30
0.0
 11
275.8557068605461
 21
32.13970704088618
 31
0.0
  0
LINE
  5
E00ED7F0
330
E00DEA5D
100
AcDbEntity
  8
JISSEN
100
AcDbLine
 10
273.1277014718222
 20
34.0397070409133
 30
0.0
 11
274.0991200830218
 21
34.0397070409133
 31
0.0
  0
LINE
  5
E00ED7F1
330
E00DEA5D
100
AcDbEntity
  8
JISSEN
100
AcDbLine
 10
274.0991200830218
 20
34.0397070409133
 30
0.0
 11
274.8663679591742
 21
34.0397070409133
 31
0.0
  0
LINE
  5
E00ED7F2
330
E00DEA5D
100
AcDbEntity
  8
JISSEN
100
AcDbLine
 10
273.1277014718222
 20
32.83970704091439
 30
0.0
 11
273.1277014718222
 21
34.0397070409133
 31
0.0
  0
LINE
  5
E00ED7F3
330
E00DEA5D
100
AcDbEntity
  8
JISSEN
100
AcDbLine
 10
274.8663679591742
 20
34.0397070409133
 30
0.0
 11
274.8663679591742
 21
32.83970704091439
 31
0.0
  0
LINE
  5
E00ED7F4
330
E00DEA5D
100
AcDbEntity
  8
JISSEN
100
AcDbLine
 10
278.4551678990234
 20
34.0397070409133
 30
0.0
 11
279.7279601051237
 21
34.0397070409133
 31
0.0
  0
LINE
  5
E00ED7F5
330
E00DEA5D
100
AcDbEntity
  8
JISSEN
100
AcDbLine
 10
278.4551678990234
 20
32.83970704091439
 30
0.0
 11
279.7279601051237
 21
32.83970704091439
 31
0.0
  0
LINE
  5
E00ED7F6
330
E00DEA5D
100
AcDbEntity
  8
JISSEN
100
AcDbLine
 10
277.4560032557734
 20
32.83970704091439
 30
0.0
 11
278.4557068604741
 21
32.13970704091367
 31
0.0
  0
LINE
  5
E00ED7F7
330
E00DEA5D
100
AcDbEntity
  8
JISSEN
100
AcDbLine
 10
278.4551678990234
 20
32.83970704091439
 30
0.0
 11
278.4551678990234
 21
34.0397070409133
 31
0.0
  0
LINE
  5
E00ED7F8
330
E00DEA5D
100
AcDbEntity
  8
JISSEN
100
AcDbLine
 10
279.7279601051237
 20
34.0397070409133
 30
0.0
 11
279.7279601051237
 21
32.83970704091439
 31
0.0
  0
ARC
  5
E00ED7F9
330
E00DEA5D
100
AcDbEntity
  8
JISSEN
100
AcDbCircle
 10
273.6864201227088
 20
38.43970704091839
 30
0.0
 40
1.0
100
AcDbArc
 50
8.000000000040277
 51
90.00000000001302
  0
LINE
  5
E00ED7FA
330
E00DEA5D
100
AcDbEntity
  8
JISSEN
100
AcDbLine
 10
276.6307068605253
 20
35.93970704093658
 30
0.0
 11
276.6307068605253
 21
35.43970704093476
 31
0.0
  0
LINE
  5
E00ED7FB
330
E00DEA5D
100
AcDbEntity
  8
JISSEN
100
AcDbLine
 10
280.5057068604739
 20
42.99255036446516
 30
0.0
 11
280.5057068604734
 21
34.0397070409133
 31
0.0
  0
LINE
  5
E00ED7FC
330
E00DEA5D
100
AcDbEntity
  8
JISSEN
100
AcDbLine
 10
281.8183503857222
 20
34.0397070409133
 30
0.0
 11
282.256116012823
 21
34.0397070409133
 31
0.0
  0
LINE
  5
E00ED7FD
330
E00DEA5D
100
AcDbEntity
  8
JISSEN
100
AcDbLine
 10
282.3565917815727
 20
34.0397070409133
 30
0.0
 11
282.256116012823
 21
34.0397070409133
 31
0.0
  0
LINE
  5
E00ED7FE
330
E00DEA5D
100
AcDbEntity
  8
JISSEN
100
AcDbLine
 10
281.8183503857222
 20
32.83970704091439
 30
0.0
 11
282.256116012823
 21
32.83970704091439
 31
0.0
  0
LINE
  5
E00ED7FF
330
E00DEA5D
100
AcDbEntity
  8
JISSEN
100
AcDbLine
 10
282.3565917815727
 20
33.3397070409144
 30
0.0
 11
282.4557068604741
 21
33.3397070409144
 31
0.0
  0
LINE
  5
E00ED800
330
E00DEA5D
100
AcDbEntity
  8
JISSEN
100
AcDbLine
 10
282.3565917815727
 20
32.83970704091439
 30
0.0
 11
282.256116012823
 21
32.83970704091439
 31
0.0
  0
LINE
  5
E00ED801
330
E00DEA5D
100
AcDbEntity
  8
JISSEN
100
AcDbLine
 10
282.4557068604741
 20
32.13970704091367
 30
0.0
 11
282.3565917815727
 21
32.13970704091367
 31
0.0
  0
LINE
  5
E00ED802
330
E00DEA5D
100
AcDbEntity
  8
JISSEN
100
AcDbLine
 10
282.4557068604741
 20
33.3397070409144
 30
0.0
 11
282.4557068604741
 21
32.13970704091367
 31
0.0
  0
LINE
  5
E00ED803
330
E00DEA5D
100
AcDbEntity
  8
JISSEN
100
AcDbLine
 10
282.3565917815727
 20
32.13970704091367
 30
0.0
 11
282.3565917815727
 21
32.83970704091439
 31
0.0
  0
LINE
  5
E00ED804
330
E00DEA5D
100
AcDbEntity
  8
JISSEN
100
AcDbLine
 10
281.8183503857222
 20
32.83970704091439
 30
0.0
 11
281.8183503857222
 21
34.0397070409133
 31
0.0
  0
LINE
  5
E00ED805
330
E00DEA5D
100
AcDbEntity
  8
JISSEN
100
AcDbLine
 10
282.256116012823
 20
34.0397070409133
 30
0.0
 11
282.256116012823
 21
32.83970704091439
 31
0.0
  0
LINE
  5
E00ED806
330
E00DEA5D
100
AcDbEntity
  8
JISSEN
100
AcDbLine
 10
282.3565917815727
 20
34.0397070409133
 30
0.0
 11
282.3565917815727
 21
33.3397070409144
 31
0.0
  0
LINE
  5
E00ED807
330
E00DEA5D
100
AcDbEntity
  8
JISSEN
100
AcDbLine
 10
287.6888497745745
 20
42.99255036446698
 30
0.0
 11
287.7008166425745
 21
42.99255036446698
 31
0.0
  0
ARC
  5
E00ED808
330
E00DEA5D
100
AcDbEntity
  8
JISSEN
100
AcDbCircle
 10
287.7008166425754
 20
44.49255036446698
 30
0.0
 40
1.5
100
AcDbArc
 50
270.0
 51
278.0000000000501
  0
TEXT
  5
E00ED809
330
E00DEA5D
100
AcDbEntity
  8
TEXT
100
AcDbText
 10
296.2605101906406
 20
9.100734388374119
 30
0.0
 40
3.0
  1
KF　＋シーリングプレートK 作動状態
  7
K
 72
     4
 11
328.0462244763549
 21
10.60073438837412
 31
0.0
100
AcDbText
  0
TEXT
  5
E00ED80A
330
E00DEA5D
100
AcDbEntity
  8
TEXT
100
AcDbText
 10
296.0629299209204
 20
4.698249782393467
 30
0.0
 40
3.0
  1
尺度　1/1
  7
K
 72
     4
 11
304.534358492349
 21
5.983964068107752
 31
0.0
100
AcDbText
  0
LINE
  5
E00ED80B
330
E00DEA5D
100
AcDbEntity
  8
SUNPOU
100
AcDbLine
 10
303.55570686055
 20
45.99255036446698
 30
0.0
 11
328.1075749651027
 21
45.99255036446698
 31
0.0
  0
ARC
  5
E00ED80C
330
E00DEA5D
100
AcDbEntity
  8
JISSEN
100
AcDbCircle
 10
301.8172671383751
 20
46.98140188636603
 30
0.0
 40
1.999999999999996
100
AcDbArc
 50
278.0000000000501
 51
330.3681085059147
  0
LINE
  5
E00ED80D
330
E00DEA5D
100
AcDbEntity
  8
JISSEN
100
AcDbLine
 39
1680.364539346804
 10
281.7902599422887
 20
169.6904080021027
 30
0.0
 11
286.0057068607135
 21
170.113362542412
 31
0.0
  0
LINE
  5
E00ED80E
330
E00DEA5D
100
AcDbEntity
  8
JISSEN
100
AcDbLine
 39
1680.364539346804
 10
281.7902599422887
 20
170.2471040737101
 30
0.0
 11
286.0057068607135
 21
170.6700586140198
 31
0.0
  0
LINE
  5
E00ED80F
330
E00DEA5D
100
AcDbEntity
  8
JISSEN
100
AcDbLine
 39
1680.364539346804
 10
256.1057068604292
 20
170.670058614078
 30
0.0
 11
256.1057068604274
 21
170.113362542472
 31
0.0
  0
LINE
  5
E00ED810
330
E00DEA5D
100
AcDbEntity
  8
SAISEN
100
AcDbLine
 39
1680.364539346804
 10
256.905706860473
 20
176.172902215427
 30
0.0
 11
256.405706860473
 21
175.306876811652
 31
0.0
  0
LINE
  5
E00ED811
330
E00DEA5D
100
AcDbEntity
  8
JISSEN
100
AcDbLine
 39
1680.364539346804
 10
256.1057068604719
 20
170.6700586140016
 30
0.0
 11
256.1057068604728
 21
170.1133625423956
 31
0.0
  0
LINE
  5
E00ED812
330
E00DEA5D
100
AcDbEntity
  8
JISSEN
100
AcDbLine
 39
1680.364539346804
 10
256.1057068604728
 20
170.1133625423956
 30
0.0
 11
260.3211537786579
 21
170.5363170826811
 31
0.0
  0
LINE
  5
E00ED813
330
E00DEA5D
100
AcDbEntity
  8
JISSEN
100
AcDbLine
 39
1680.364539346804
 10
286.0057068604752
 20
170.6700586140016
 30
0.0
 11
286.0057068604743
 21
170.1133625423956
 31
0.0
  0
LINE
  5
E00ED814
330
E00DEA5D
100
AcDbEntity
  8
SAISEN
100
AcDbLine
 39
1680.364539346804
 10
285.2057068604741
 20
176.172902215427
 30
0.0
 11
285.7057068604741
 21
175.306876811652
 31
0.0
  0
LINE
  5
E00ED815
330
E00DEA5D
100
AcDbEntity
  8
JISSEN
100
AcDbLine
 39
1680.364539346804
 10
286.0057068605179
 20
170.670058614078
 30
0.0
 11
286.0057068605198
 21
170.113362542472
 31
0.0
  0
LINE
  5
E00ED816
330
E00DEA5D
100
AcDbEntity
  8
JISSEN
100
AcDbLine
 39
1680.364539346804
 10
265.8761374138145
 20
168.6503693718641
 30
0.0
 11
271.0557068604736
 21
169.1700586140034
 31
0.0
  0
LINE
  5
E00ED817
330
E00DEA5D
100
AcDbEntity
  8
JISSEN
100
AcDbLine
 39
1680.364539346804
 10
265.8761374138145
 20
168.0936733002584
 30
0.0
 11
271.0557068604736
 21
168.6133625423974
 31
0.0
  0
LINE
  5
E00ED818
330
E00DEA5D
100
AcDbEntity
  8
JISSEN
100
AcDbLine
 39
1680.364539346804
 10
268.5923782100723
 20
165.9229018932275
 30
0.0
 11
271.0557068604736
 21
166.1700586140034
 31
0.0
  0
LINE
  5
E00ED819
330
E00DEA5D
100
AcDbEntity
  8
JISSEN
100
AcDbLine
 39
1680.364539346804
 10
270.4327730104381
 20
165.5508608183098
 30
0.0
 11
271.0557068604736
 21
165.6133625423938
 31
0.0
  0
LINE
  5
E00ED81A
330
E00DEA5D
100
AcDbEntity
  8
JISSEN
100
AcDbLine
 39
1680.364539346804
 10
274.1407823905095
 20
165.9229018932275
 30
0.0
 11
275.5946744742126
 21
166.0687773531309
 31
0.0
  0
LINE
  5
E00ED81B
330
E00DEA5D
100
AcDbEntity
  8
JISSEN
100
AcDbLine
 39
1680.364539346804
 10
281.9613223330726
 20
166.7075714526821
 30
0.0
 11
285.9379547485977
 21
167.1065646716311
 31
0.0
  0
LINE
  5
E00ED81C
330
E00DEA5D
100
AcDbEntity
  8
JISSEN
100
AcDbLine
 39
1680.364539346804
 10
281.7998526560171
 20
167.2480665533484
 30
0.0
 11
285.9482395884295
 21
167.6642926669679
 31
0.0
  0
LINE
  5
E00ED81D
330
E00DEA5D
100
AcDbEntity
  8
JISSEN
100
AcDbLine
 39
1680.364539346804
 10
256.1729564871367
 20
167.1201099965796
 30
0.0
 11
260.3211537786579
 21
167.5363170826849
 31
0.0
  0
LINE
  5
E00ED81E
330
E00DEA5D
100
AcDbEntity
  8
JISSEN
100
AcDbLine
 39
1680.364539346804
 10
256.4020559812084
 20
167.6997926394963
 30
0.0
 11
260.3211537786581
 21
168.0930131542903
 31
0.0
  0
LINE
  5
E00ED81F
330
E00DEA5D
100
AcDbEntity
  8
JISSEN
100
AcDbLine
 39
1680.364539346804
 10
271.0557068607146
 20
168.6133625424156
 30
0.0
 11
276.235276307107
 21
169.1330517845273
 31
0.0
  0
LINE
  5
E00ED820
330
E00DEA5D
100
AcDbEntity
  8
JISSEN
100
AcDbLine
 39
1680.364539346804
 10
271.0557068607146
 20
165.613362542412
 30
0.0
 11
271.6797325550966
 21
165.6759738160958
 31
0.0
  0
LINE
  5
E00ED821
330
E00DEA5D
100
AcDbEntity
  8
JISSEN
100
AcDbLine
 39
1680.364539346804
 10
271.0557068607146
 20
166.1700586140216
 30
0.0
 11
276.0828054564323
 21
166.6744497774709
 31
0.0
  0
LINE
  5
E00ED822
330
E00DEA5D
100
AcDbEntity
  8
JISSEN
100
AcDbLine
 39
1680.364539346804
 10
271.0557068607146
 20
169.1700586140216
 30
0.0
 11
276.235276307107
 21
169.6897478561339
 31
0.0
  0
LINE
  5
E00ED823
330
E00DEA5D
100
AcDbEntity
  8
JISSEN
 48
0.1
100
AcDbLine
 39
1680.364539346804
 10
277.8057068605245
 20
150.370058569679
 30
0.0
 11
277.8057068605254
 21
148.9700585696739
 31
0.0
  0
LINE
  5
E00ED824
330
E00DEA5D
100
AcDbEntity
  8
JISSEN
 48
0.1
100
AcDbLine
 39
1680.364539346804
 10
274.6766881914496
 20
153.5092316706416
 30
0.0
 11
275.0475997819809
 21
150.870058569699
 31
0.0
  0
LINE
  5
E00ED825
330
E00DEA5D
100
AcDbEntity
  8
JISSEN
 48
0.1
100
AcDbLine
 39
1680.364539346804
 10
267.4347255295484
 20
153.5092316706416
 30
0.0
 11
267.0638139390172
 21
150.870058569699
 31
0.0
  0
LINE
  5
E00ED826
330
E00DEA5D
100
AcDbEntity
  8
JISSEN
 48
0.1
100
AcDbLine
 39
1680.364539346804
 10
264.3057068604736
 20
150.370058569679
 30
0.0
 11
264.3057068604727
 21
148.9700585696739
 31
0.0
  0
LINE
  5
E00ED827
330
E00DEA5D
100
AcDbEntity
  8
JISSEN
100
AcDbLine
 39
1680.364539346804
 10
280.4307068604699
 20
146.8700585696753
 30
0.0
 11
279.180706860469
 21
146.8700585696753
 31
0.0
  0
LINE
  5
E00ED828
330
E00DEA5D
100
AcDbEntity
  8
JISSEN
100
AcDbLine
 39
1680.364539346804
 10
262.8529845773742
 20
146.8700585696753
 30
0.0
 11
264.1029845773751
 21
146.8700585696753
 31
0.0
  0
ARC
  5
E00ED82A
330
E00DEA5D
100
AcDbEntity
  8
JISSEN
100
AcDbCircle
 39
1680.364539346804
 10
258.905706860473
 20
184.1729022285274
 30
0.0
 40
0.9999999999997548
100
AcDbArc
 50
270.0
 51
329.999999999999
  0
LINE
  5
E00ED832
330
E00DEA5D
100
AcDbEntity
  8
SAISEN
100
AcDbLine
 39
1680.364539346804
 10
280.5537159784713
 20
185.4729022285303
 30
0.0
 11
281.7535114058843
 21
184.2731068011182
 31
0.0
  0
LINE
  5
E00ED833
330
E00DEA5D
100
AcDbEntity
  8
JISSEN
100
AcDbLine
 39
1680.364539346804
 10
280.5537159784704
 20
185.4729022285303
 30
0.0
 11
281.7472693604801
 21
185.4729022285303
 31
0.0
  0
LINE
  5
E00ED834
330
E00DEA5D
100
AcDbEntity
  8
JISSEN
100
AcDbLine
 39
1680.364539346804
 10
271.0557068604736
 20
185.4729022285484
 30
0.0
 11
281.7472693604801
 21
185.4729022285303
 31
0.0
  0
LINE
  5
E00ED835
330
E00DEA5D
100
AcDbEntity
  8
SAISEN
100
AcDbLine
 39
1680.364539346804
 10
280.5537159784713
 20
185.4729022285339
 30
0.0
 11
281.7535114058852
 21
184.2731068011219
 31
0.0
  0
ARC
  5
E00ED836
330
E00DEA5D
100
AcDbEntity
  8
JISSEN
100
AcDbCircle
 39
1680.364539346804
 10
283.2057068604741
 20
184.1729022285274
 30
0.0
 40
0.9999999999997548
100
AcDbArc
 50
210.0000000000009
 51
270.0
  0
LINE
  5
E00ED839
330
E00DEA5D
100
AcDbEntity
  8
SAISEN
100
AcDbLine
 39
1680.364539346804
 10
261.5576977424758
 20
185.4729022285339
 30
0.0
 11
260.3579023150619
 21
184.2731068011219
 31
0.0
  0
LINE
  5
E00ED83A
330
E00DEA5D
100
AcDbEntity
  8
JISSEN
100
AcDbLine
 39
1680.364539346804
 10
271.0557068604736
 20
185.4729022285484
 30
0.0
 11
260.364144360467
 21
185.4729022285303
 31
0.0
  0
LINE
  5
E00ED83B
330
E00DEA5D
100
AcDbEntity
  8
JISSEN
100
AcDbLine
 39
1680.364539346804
 10
261.5576977424767
 20
185.4729022285303
 30
0.0
 11
260.364144360467
 21
185.4729022285303
 31
0.0
  0
LINE
  5
E00ED83C
330
E00DEA5D
100
AcDbEntity
  8
SAISEN
100
AcDbLine
 39
1680.364539346804
 10
261.5576977424758
 20
185.4729022285303
 30
0.0
 11
260.3579023150629
 21
184.2731068011182
 31
0.0
  0
LINE
  5
E00ED83D
330
E00DEA5D
100
AcDbEntity
  8
JISSEN
100
AcDbLine
 10
271.0557068604736
 20
160.9229018932276
 30
0.0
 11
303.5557068604735
 21
160.9229018932275
 31
0.0
  0
LINE
  5
E00ED83E
330
E00DEA5D
100
AcDbEntity
  8
JISSEN
100
AcDbLine
 10
303.125293410974
 20
160.0759293743287
 30
0.0
 11
287.8659607681726
 21
157.9313700276272
 31
0.0
  0
LINE
  5
E00ED83F
330
E00DEA5D
100
AcDbEntity
  8
SUNPOU
100
AcDbLine
 10
287.7314585483913
 20
170.9229018932275
 30
0.0
 11
328.1075749651014
 21
170.9229018932258
 31
0.0
  0
LINE
  5
E00ED840
330
E00DEA5D
100
AcDbEntity
  8
SUNPOU
100
AcDbLine
 10
287.0617841266053
 20
160.9229018932276
 30
0.0
 11
328.1075749651027
 21
160.9229018932276
 31
0.0
  0
HATCH
  5
E00ED841
330
E00DEA5D
100
AcDbEntity
  8
SUNPOU
100
AcDbHatch
 10
0.0
 20
0.0
 30
0.0
210
0.0
220
0.0
230
1.0
  2
ANSI31
 70
     0
 71
     0
 91
        2
 92
        5
 93
        5
 72
     1
 10
238.5557068603976
 20
160.9229018932276
 11
246.0557068604738
 21
160.9229018932276
 72
     1
 10
246.0557068604736
 20
160.9229018932276
 11
246.0557068604736
 21
170.9229018932276
 72
     1
 10
246.0557068604736
 20
170.9229018932276
 11
214.0038387558461
 21
170.9229018932258
 72
     4
 94
        3
 73
     0
 74
     0
 95
       11
 96
        7
 40
0.0
 40
0.0
 40
0.0
 40
0.0
 40
3.264692203133994
 40
6.15697472568029
 40
8.955271668736928
 40
10.85738683396026
 40
10.85738683396026
 40
10.85738683396026
 40
10.85738683396026
 10
214.0038387558448
 20
170.9229018932276
 10
214.6789394441313
 20
169.9215029420213
 10
215.9521307946294
 20
168.0329365323089
 10
213.6862860782854
 20
165.1815654992408
 10
215.8894032448416
 20
162.555235001497
 10
214.547049054108
 20
161.3931590283084
 10
214.0038387558448
 20
160.9229018932276
 72
     1
 10
214.0038387558453
 20
160.9229018932276
 11
238.5557068603977
 21
160.9229018932276
 97
        0
 92
        5
 93
        5
 72
     1
 10
296.0557068604736
 20
170.9229018932276
 11
296.0557068604736
 21
160.9229018932276
 72
     1
 10
296.0557068604736
 20
160.9229018932276
 11
303.5557068605495
 21
160.9229018932276
 72
     1
 10
303.55570686055
 20
160.9229018932276
 11
328.107574965103
 21
160.9229018932276
 72
     4
 94
        3
 73
     0
 74
     0
 95
       11
 96
        7
 40
0.0
 40
0.0
 40
0.0
 40
0.0
 40
1.902115165223333
 40
4.700412108279971
 40
7.592694630826267
 40
10.85738683396026
 40
10.85738683396026
 40
10.85738683396026
 40
10.85738683396026
 10
328.1075749651023
 20
160.9229018932276
 10
327.5643646668396
 20
161.3931590283084
 10
326.2220104761059
 20
162.555235001497
 10
328.4251276426626
 20
165.1815654992408
 10
326.1592829263182
 20
168.0329365323089
 10
327.4324742768163
 20
169.9215029420213
 10
328.1075749651023
 20
170.9229018932276
 72
     1
 10
328.1075749651014
 20
170.9229018932258
 11
296.0557068604736
 21
170.9229018932276
 97
        0
 75
     0
 76
     1
 52
0.0
 41
10.0
 77
     0
 78
     1
 53
45.0
 43
366.0253221906701
 44
-2497.575741826889
 45
-0.8838834764831842
 46
0.8838834764831844
 79
     0
 47
0.1102095095325799
 98
        2
 10
238.1597530337063
 20
164.6230483096353
 10
305.8575397104383
 20
167.3782850436748
  0
LINE
  5
E00ED842
330
E00DEA5D
100
AcDbEntity
  8
NITEN
100
AcDbLine
 10
290.5557068604736
 20
212.7332300093132
 30
0.0
 11
290.555706860474
 21
229.9729022285266
 31
0.0
  0
LINE
  5
E00ED843
330
E00DEA5D
100
AcDbEntity
  8
NITEN
100
AcDbLine
 10
251.5557068604735
 20
212.7332300093132
 30
0.0
 11
251.5557068604735
 21
229.9729022285266
 31
0.0
  0
LINE
  5
E00ED844
330
E00DEA5D
100
AcDbEntity
  8
SUNPOU
100
AcDbLine
 10
254.3799551725555
 20
170.9229018932276
 30
0.0
 11
214.0038387558457
 21
170.9229018932258
 31
0.0
  0
LINE
  5
E00ED845
330
E00DEA5D
100
AcDbEntity
  8
SUNPOU
100
AcDbLine
 10
255.0496295943452
 20
160.9229018932276
 30
0.0
 11
214.0038387558448
 21
160.9229018932276
 31
0.0
  0
SPLINE
  5
E00ED846
330
E00DEA5D
100
AcDbEntity
  8
SUNPOU
100
AcDbSpline
210
0.0
220
0.0
230
1.0
 70
     8
 71
     3
 72
    11
 73
     7
 74
     5
 42
0.0000000001
 43
0.0000000001
 44
0.0000000001
 40
0.0
 40
0.0
 40
0.0
 40
0.0
 40
3.264692203133994
 40
6.15697472568029
 40
8.955271668736928
 40
10.85738683396026
 40
10.85738683396026
 40
10.85738683396026
 40
10.85738683396026
 10
214.0038387558448
 20
170.9229018932276
 30
0.0
 10
214.6789394441312
 20
169.9215029420224
 30
0.0
 10
215.9521307946293
 20
168.0329365323087
 30
0.0
 10
213.686286078285
 20
165.1815654992395
 30
0.0
 10
215.8894032448416
 20
162.5552350014985
 30
0.0
 10
214.5470490541075
 20
161.3931590283096
 30
0.0
 10
214.0038387558448
 20
160.9229018932276
 30
0.0
 11
214.0038387558448
 21
170.9229018932276
 31
0.0
 11
215.2331791334087
 21
167.8985114724494
 31
0.0
 11
214.4609956794389
 21
165.1112133356075
 31
0.0
 11
215.190302211247
 21
162.4096253277532
 31
0.0
 11
214.0038387558448
 21
160.9229018932276
 31
0.0
  0
LINE
  5
E00ED851
330
E00DEA5D
100
AcDbEntity
  8
JISSEN
100
AcDbLine
 39
240.0520776831561
 10
256.905706860473
 20
176.1729022154306
 30
0.0
 11
271.0557068604736
 21
176.1729022154288
 31
0.0
  0
LINE
  5
E00ED852
330
E00DEA5D
100
AcDbEntity
  8
JISSEN
100
AcDbLine
 39
240.0520776831561
 10
256.4057068604284
 20
170.6700586140743
 30
0.0
 11
256.1057068604292
 21
170.670058614078
 31
0.0
  0
LINE
  5
E00ED853
330
E00DEA5D
100
AcDbEntity
  8
JISSEN
100
AcDbLine
 39
240.0520776831561
 10
256.4057068604276
 20
170.6700586140743
 30
0.0
 11
256.1057068604283
 21
170.670058614078
 31
0.0
  0
LINE
  5
E00ED854
330
E00DEA5D
100
AcDbEntity
  8
JISSEN
100
AcDbLine
 39
240.0520776831561
 10
285.2057068604741
 20
176.1729022154306
 30
0.0
 11
271.0557068604736
 21
176.1729022154288
 31
0.0
  0
LINE
  5
E00ED855
330
E00DEA5D
100
AcDbEntity
  8
JISSEN
100
AcDbLine
 39
240.0520776831561
 10
285.7057068605196
 20
170.6700586140743
 30
0.0
 11
286.0057068605188
 21
170.670058614078
 31
0.0
  0
LINE
  5
E00ED856
330
E00DEA5D
100
AcDbEntity
  8
JISSEN
100
AcDbLine
 39
240.0520776831561
 10
285.7057068605186
 20
170.6700586140743
 30
0.0
 11
286.0057068605179
 21
170.670058614078
 31
0.0
  0
ARC
  5
E00ED857
330
E00DEA5D
100
AcDbEntity
  8
JISSEN
100
AcDbCircle
 39
240.0520776831561
 10
262.8529845773751
 20
147.0700585696761
 30
0.0
 40
0.2000000000007276
100
AcDbArc
 50
180.0
 51
270.0
  0
ARC
  5
E00ED858
330
E00DEA5D
100
AcDbEntity
  8
JISSEN
100
AcDbCircle
 39
240.0520776831561
 10
264.1029845773751
 20
147.0700585696761
 30
0.0
 40
0.2000000000007276
100
AcDbArc
 50
270.0
 51
0.0
  0
ARC
  5
E00ED859
330
E00DEA5D
100
AcDbEntity
  8
JISSEN
100
AcDbCircle
 39
240.0520776831561
 10
279.180706860469
 20
147.0700585696761
 30
0.0
 40
0.2000000000007276
100
AcDbArc
 50
180.0
 51
270.0
  0
ARC
  5
E00ED85A
330
E00DEA5D
100
AcDbEntity
  8
JISSEN
100
AcDbCircle
 39
240.0520776831561
 10
280.430706860469
 20
147.0700585696761
 30
0.0
 40
0.2000000000007276
100
AcDbArc
 50
270.0
 51
0.0
  0
LINE
  5
E00ED85B
330
E00DEA5D
100
AcDbEntity
  8
JISSEN
100
AcDbLine
 10
265.7051273421153
 20
172.4229018932275
 30
0.0
 11
265.8761374138145
 21
171.9229018932275
 31
0.0
  0
LINE
  5
E00ED85C
330
E00DEA5D
100
AcDbEntity
  8
JISSEN
370
    -2
100
AcDbLine
 10
264.9363121856719
 20
174.6729437222404
 30
0.0
 11
271.0557068604736
 21
174.6729437222404
 31
0.0
  0
SPLINE
  5
E00ED85D
330
E00DEA5D
100
AcDbEntity
  8
JISSEN
370
    -2
100
AcDbSpline
210
0.0
220
0.0
230
1.0
 70
    12
 71
     3
 72
    14
 73
    10
 74
     0
 42
0.0000000001
 43
0.0000000001
 40
0.0
 40
0.0
 40
0.0
 40
0.0
 40
0.2170493941225676
 40
0.4388311995732112
 40
0.5988137766302898
 40
0.7597871991591737
 40
0.8750649674182215
 40
0.9755548291618868
 40
1.0
 40
1.0
 40
1.0
 40
1.0
 10
267.5152514968291
 20
174.6729437222804
 30
0.0
 41
1.0
 10
267.2748890071467
 20
174.666978170708
 30
0.0
 41
1.0
 10
266.7889233120737
 20
174.6549169983502
 30
0.0
 41
1.0
 10
266.1482917248782
 20
174.5257275079077
 30
0.0
 41
1.0
 10
265.6113569261866
 20
174.2898044503692
 30
0.0
 41
1.0
 10
265.2395493493519
 20
173.9837441417314
 30
0.0
 41
1.0
 10
265.0177664721756
 20
173.6188639051199
 30
0.0
 41
1.0
 10
264.9510471168692
 20
173.3452806477273
 30
0.0
 41
1.0
 10
264.947659207011
 20
173.2011454168152
 30
0.0
 41
1.0
 10
264.9469963181987
 20
173.1729434764113
 30
0.0
 41
1.0
  0
SPLINE
  5
E00ED85E
330
E00DEA5D
100
AcDbEntity
  8
JISSEN
100
AcDbSpline
210
0.0
220
0.0
230
1.0
 70
     8
 71
     3
 72
    18
 73
    14
 74
     0
 42
0.0000000001
 43
0.0000000001
 40
0.0
 40
0.0
 40
0.0
 40
0.0
 40
0.1249999999999997
 40
0.1249999999999997
 40
0.2499999999999994
 40
0.2499999999999994
 40
0.3749999999999992
 40
0.3749999999999992
 40
0.499999999999999
 40
0.499999999999999
 40
0.7499999999999995
 40
0.7499999999999995
 40
1.0
 40
1.0
 40
1.0
 40
1.0
 10
266.444706931809
 20
165.9229018931965
 30
0.0
 10
266.3755178615125
 20
165.9229018931965
 30
0.0
 10
266.3067737798652
 20
165.9325373893608
 30
0.0
 10
266.1702270389783
 20
165.9703994865614
 30
0.0
 10
266.1016959321228
 20
165.9990884350664
 30
0.0
 10
265.9698790885419
 20
166.0740876413566
 30
0.0
 10
265.9067797919275
 20
166.1200212654185
 30
0.0
 10
265.7864821978224
 20
166.22864574678
 30
0.0
 10
265.7290541382323
 20
166.291910930866
 30
0.0
 10
265.5737496344814
 20
166.4993008787333
 30
0.0
 10
265.4888339277482
 20
166.6665957668357
 30
0.0
 10
265.3746097229437
 20
167.0275913728656
 30
0.0
 10
265.3439704669405
 20
167.2246220179387
 30
0.0
 10
265.3439704669405
 20
167.4229018931965
 30
0.0
  0
LINE
  5
E00ED85F
330
E00DEA5D
100
AcDbEntity
  8
JISSEN
100
AcDbLine
 10
254.3187441088736
 20
157.9229018932275
 30
0.0
 11
271.0557068604726
 21
157.9229018932257
 31
0.0
  0
LINE
  5
E00ED860
330
E00DEA5D
100
AcDbEntity
  8
JISSEN
100
AcDbLine
 10
271.0557068604736
 20
160.9229018932276
 30
0.0
 11
238.5557068604736
 21
160.9229018932275
 31
0.0
  0
LINE
  5
E00ED861
330
E00DEA5D
100
AcDbEntity
  8
JISSEN
100
AcDbLine
 10
265.4807068604728
 20
150.8700585696972
 30
0.0
 11
271.0557068604736
 21
150.8700585697026
 31
0.0
  0
LINE
  5
E00ED862
330
E00DEA5D
100
AcDbEntity
  8
JISSEN
100
AcDbLine
 10
271.0557068604736
 20
150.370058569679
 30
0.0
 11
264.3057068604736
 21
150.370058569679
 31
0.0
  0
LINE
  5
E00ED863
330
E00DEA5D
100
AcDbEntity
  8
JISSEN
100
AcDbLine
 10
267.2450457618229
 20
147.7700585696768
 30
0.0
 11
263.5277327345735
 21
147.7700585696768
 31
0.0
  0
LINE
  5
E00ED864
330
E00DEA5D
100
AcDbEntity
  8
JISSEN
100
AcDbLine
 10
266.2628875904244
 20
147.7700585696768
 30
0.0
 11
265.3971188724732
 21
147.0700585696761
 31
0.0
  0
LINE
  5
E00ED865
330
E00DEA5D
100
AcDbEntity
  8
JISSEN
100
AcDbLine
 10
267.2450457618229
 20
148.9700585696757
 30
0.0
 11
263.5277327345735
 21
148.9700585696757
 31
0.0
  0
LINE
  5
E00ED867
330
E00DEA5D
100
AcDbEntity
  8
JISSEN
100
AcDbLine
 10
262.7779845773744
 20
148.9700585696757
 30
0.0
 11
262.777984577375
 21
157.9229018932266
 31
0.0
  0
LINE
  5
E00ED868
330
E00DEA5D
100
AcDbEntity
  8
JISSEN
100
AcDbLine
 10
264.1779845773746
 20
157.9229018932265
 30
0.0
 11
264.177984577374
 21
148.9700585696757
 31
0.0
  0
LINE
  5
E00ED869
330
E00DEA5D
100
AcDbEntity
  8
JISSEN
100
AcDbLine
 10
262.0188534335735
 20
147.0700585696761
 30
0.0
 11
262.0188534335735
 21
147.7700585696768
 31
0.0
  0
LINE
  5
E00ED86A
330
E00DEA5D
100
AcDbEntity
  8
JISSEN
100
AcDbLine
 10
260.5188534335735
 20
147.0700585696761
 30
0.0
 11
260.5188534335735
 21
147.7700585696768
 31
0.0
  0
LINE
  5
E00ED86B
330
E00DEA5D
100
AcDbEntity
  8
JISSEN
100
AcDbLine
 10
265.3971188724732
 20
147.0700585696761
 30
0.0
 11
262.0188534335735
 21
147.0700585696761
 31
0.0
  0
LINE
  5
E00ED86C
330
E00DEA5D
100
AcDbEntity
  8
JISSEN
100
AcDbLine
 10
262.0188534335735
 20
147.0700585696761
 30
0.0
 11
260.5188534335735
 21
147.0700585696761
 31
0.0
  0
LINE
  5
E00ED86D
330
E00DEA5D
100
AcDbEntity
  8
JISSEN
100
AcDbLine
 10
262.3689549588249
 20
147.7700585696768
 30
0.0
 11
262.0188534335735
 21
147.7700585696768
 31
0.0
  0
LINE
  5
E00ED86E
330
E00DEA5D
100
AcDbEntity
  8
JISSEN
100
AcDbLine
 10
262.3689549588249
 20
148.9700585696757
 30
0.0
 11
262.0188534335735
 21
148.9700585696757
 31
0.0
  0
LINE
  5
E00ED86F
330
E00DEA5D
100
AcDbEntity
  8
JISSEN
100
AcDbLine
 10
259.6912887055747
 20
148.9700585696757
 30
0.0
 11
259.6912887055747
 21
147.7700585696768
 31
0.0
  0
LINE
  5
E00ED870
330
E00DEA5D
100
AcDbEntity
  8
JISSEN
100
AcDbLine
 10
260.5188534335735
 20
148.9700585696757
 30
0.0
 11
260.5188534335735
 21
148.2700585696768
 31
0.0
  0
LINE
  5
E00ED871
330
E00DEA5D
100
AcDbEntity
  8
JISSEN
100
AcDbLine
 10
262.0188534335735
 20
148.9700585696757
 30
0.0
 11
262.0188534335735
 21
148.2700585696768
 31
0.0
  0
LINE
  5
E00ED872
330
E00DEA5D
100
AcDbEntity
  8
JISSEN
100
AcDbLine
 10
260.5188534335735
 20
147.7700585696768
 30
0.0
 11
259.6912887055747
 21
147.7700585696768
 31
0.0
  0
LINE
  5
E00ED873
330
E00DEA5D
100
AcDbEntity
  8
JISSEN
100
AcDbLine
 10
260.5188534335735
 20
148.2700585696768
 30
0.0
 11
262.0188534335735
 21
148.2700585696768
 31
0.0
  0
LINE
  5
E00ED874
330
E00DEA5D
100
AcDbEntity
  8
JISSEN
100
AcDbLine
 10
260.5188534335735
 20
148.9700585696757
 30
0.0
 11
259.6912887055747
 21
148.9700585696757
 31
0.0
  0
LINE
  5
E00ED875
330
E00DEA5D
100
AcDbEntity
  8
JISSEN
100
AcDbLine
 10
262.0188534335735
 20
148.9700585696757
 30
0.0
 11
260.5188534335735
 21
148.9700585696757
 31
0.0
  0
LINE
  5
E00ED876
330
E00DEA5D
100
AcDbEntity
  8
JISSEN
100
AcDbLine
 10
265.4807068604728
 20
150.870058569699
 30
0.0
 11
265.4807068604728
 21
150.3700585696972
 31
0.0
  0
LINE
  5
E00ED877
330
E00DEA5D
100
AcDbEntity
  8
JISSEN
100
AcDbLine
 10
263.5277327345735
 20
148.9700585696757
 30
0.0
 11
263.5277327345735
 21
147.7700585696768
 31
0.0
  0
LINE
  5
E00ED878
330
E00DEA5D
100
AcDbEntity
  8
JISSEN
100
AcDbLine
 10
262.3689549588249
 20
147.7700585696768
 30
0.0
 11
262.3689549588249
 21
148.9700585696757
 31
0.0
  0
LINE
  5
E00ED879
330
E00DEA5D
100
AcDbEntity
  8
JISSEN
100
AcDbLine
 10
262.3689549588249
 20
147.7700585696768
 30
0.0
 11
263.5277327345735
 21
147.7700585696768
 31
0.0
  0
LINE
  5
E00ED87A
330
E00DEA5D
100
AcDbEntity
  8
JISSEN
100
AcDbLine
 10
262.3689549588249
 20
148.9700585696757
 30
0.0
 11
263.5277327345735
 21
148.9700585696757
 31
0.0
  0
LINE
  5
E00ED87B
330
E00DEA5D
100
AcDbEntity
  8
JISSEN
100
AcDbLine
 10
238.9861203099732
 20
160.0759293743287
 30
0.0
 11
254.2454529527745
 21
157.9313700276272
 31
0.0
  0
LINE
  5
E00ED87C
330
E00DEA5D
100
AcDbEntity
  8
SUNPOU
100
AcDbLine
 10
246.0557068604736
 20
170.9229018932276
 30
0.0
 11
246.0557068604736
 21
160.9229018932276
 31
0.0
  0
LINE
  5
E00ED87D
330
E00DEA5D
100
AcDbEntity
  8
JISSEN
100
AcDbLine
 10
238.5557068604736
 20
160.9229018932275
 30
0.0
 11
238.5557068604736
 21
160.5710634086282
 31
0.0
  0
ARC
  5
E00ED87E
330
E00DEA5D
100
AcDbEntity
  8
JISSEN
100
AcDbCircle
 10
239.0557068604735
 20
160.5710634086282
 30
0.0
 40
0.5000000000000005
100
AcDbArc
 50
180.0
 51
261.9999999999597
  0
LINE
  5
E00ED87F
330
E00DEA5D
100
AcDbEntity
  8
JISSEN
 62
     0
 48
0.1
100
AcDbLine
 10
256.1675630556766
 20
167.422901893203
 30
0.0
 11
256.0856688533682
 21
171.9270830203715
 31
0.0
  0
LINE
  5
E00ED880
330
E00DEA5D
100
AcDbEntity
  8
JISSEN
 62
     0
 48
0.1
100
AcDbLine
 10
254.690245092073
 20
167.4229018931903
 30
0.0
 11
254.609417385133
 21
172.4229018932275
 31
0.0
  0
LINE
  5
E00ED881
330
E00DEA5D
100
AcDbEntity
  8
JISSEN
100
AcDbLine
 10
265.3439704669405
 20
172.4229018932275
 30
0.0
 11
265.3439704669405
 21
167.4229018931965
 31
0.0
  0
LINE
  5
E00ED882
330
E00DEA5D
100
AcDbEntity
  8
JISSEN
100
AcDbLine
 10
260.3211537786579
 20
172.4229018932276
 30
0.0
 11
260.3211537786579
 21
167.4229018931612
 31
0.0
  0
LINE
  5
E00ED883
330
E00DEA5D
100
AcDbEntity
  8
JISSEN
100
AcDbLine
 10
256.4057068604721
 20
167.6700586140016
 30
0.0
 11
256.1057068604728
 21
170.1133625423956
 31
0.0
  0
LINE
  5
E00ED884
330
E00DEA5D
100
AcDbEntity
  8
JISSEN
 62
     0
 48
0.1
100
AcDbLine
 10
254.5378620513489
 20
161.1547861831624
 30
0.0
 11
254.3557068604737
 21
172.4229018932275
 31
0.0
  0
LINE
  5
E00ED885
330
E00DEA5D
100
AcDbEntity
  8
JISSEN
100
AcDbLine
 10
258.8858988853199
 20
165.9229018932275
 30
0.0
 11
258.2169635858578
 21
165.9229018932275
 31
0.0
  0
LINE
  5
E00ED886
330
E00DEA5D
100
AcDbEntity
  8
JISSEN
100
AcDbLine
 10
256.302408839873
 20
162.9229018932276
 30
0.0
 11
256.2907146445589
 21
165.9229018932275
 31
0.0
  0
LINE
  5
E00ED887
330
E00DEA5D
100
AcDbEntity
  8
JISSEN
100
AcDbLine
 10
256.9024088398742
 20
162.9229018932275
 30
0.0
 11
256.9157146446367
 21
165.9229018931523
 31
0.0
  0
ARC
  5
E00ED888
330
E00DEA5D
100
AcDbEntity
  8
JISSEN
100
AcDbCircle
 10
254.4542126041739
 20
159.4167721308278
 30
0.0
 40
1.499999999999995
100
AcDbArc
 50
261.9999999999597
 51
264.8184245309499
  0
ARC
  5
E00ED889
330
E00DEA5D
100
AcDbEntity
  8
JISSEN
100
AcDbCircle
 10
253.0380580064881
 20
161.1305410388033
 30
0.0
 40
1.5
100
AcDbArc
 50
352.0432185063709
 51
0.9261366264909746
  0
LINE
  5
E00ED88A
330
E00DEA5D
100
AcDbEntity
  8
JISSEN
100
AcDbLine
 10
256.9024088398742
 20
162.9229018932276
 30
0.0
 11
256.302408839873
 21
162.9229018932276
 31
0.0
  0
LINE
  5
E00ED88B
330
E00DEA5D
100
AcDbEntity
  8
JISSEN
100
AcDbLine
 10
256.9157146446369
 20
165.9229018932271
 30
0.0
 11
255.0247635205702
 21
165.9229018932283
 31
0.0
  0
SPLINE
  5
E00ED88C
330
E00DEA5D
100
AcDbEntity
  8
JISSEN
100
AcDbSpline
210
0.0
220
0.0
230
1.0
 70
     8
 71
     3
 72
    18
 73
    14
 74
     0
 42
0.0000000001
 43
0.0000000001
 40
0.0
 40
0.0
 40
0.0
 40
0.0
 40
0.1250000000000001
 40
0.1250000000000001
 40
0.2500000000000002
 40
0.2500000000000002
 40
0.3750000000000002
 40
0.3750000000000002
 40
0.5000000000000004
 40
0.5000000000000004
 40
0.7500000000000001
 40
0.7500000000000001
 40
1.0
 40
1.0
 40
1.0
 40
1.0
 10
254.690245092073
 20
167.4229018931966
 30
0.0
 10
254.690245092073
 20
167.3237611118331
 30
0.0
 10
254.6919262487987
 20
167.2262775979381
 30
0.0
 10
254.6986200941042
 20
167.0344896519856
 30
0.0
 10
254.7037157390183
 20
166.9391908640974
 30
0.0
 10
254.7173665436454
 20
166.7574757427011
 30
0.0
 10
254.7258530089617
 20
166.6712935392899
 30
0.0
 10
254.7465773366126
 20
166.5081990128512
 30
0.0
 10
254.7589382026322
 20
166.4309894832842
 30
0.0
 10
254.8010047814965
 20
166.2234557714202
 30
0.0
 10
254.8369130483385
 20
166.1117883511362
 30
0.0
 10
254.9214912704352
 20
165.9624136287822
 30
0.0
 10
254.9709788544311
 20
165.9229018931966
 30
0.0
 10
255.0247635205702
 20
165.9229018931966
 30
0.0
  0
SPLINE
  5
E00ED88D
330
E00DEA5D
100
AcDbEntity
  8
JISSEN
100
AcDbSpline
210
0.0
220
0.0
230
1.0
 70
     8
 71
     3
 72
    18
 73
    14
 74
     0
 42
0.0000000001
 43
0.0000000001
 40
0.0
 40
0.0
 40
0.0
 40
0.0
 40
0.1250000000000001
 40
0.1250000000000001
 40
0.2500000000000002
 40
0.2500000000000002
 40
0.3750000000000002
 40
0.3750000000000002
 40
0.5000000000000004
 40
0.5000000000000004
 40
0.7500000000000001
 40
0.7500000000000001
 40
1.0
 40
1.0
 40
1.0
 40
1.0
 10
256.1675630556766
 20
167.4229018932029
 30
0.0
 10
256.1675630556766
 20
167.3237611118394
 30
0.0
 10
256.1692442124023
 20
167.2262775979444
 30
0.0
 10
256.1759380577078
 20
167.0344896519919
 30
0.0
 10
256.1810337026219
 20
166.9391908641038
 30
0.0
 10
256.194684507249
 20
166.7574757427074
 30
0.0
 10
256.2031709725653
 20
166.6712935392962
 30
0.0
 10
256.2238953002162
 20
166.5081990128575
 30
0.0
 10
256.2362561662358
 20
166.4309894832905
 30
0.0
 10
256.2783227451001
 20
166.2234557714265
 30
0.0
 10
256.314231011942
 20
166.1117883511425
 30
0.0
 10
256.3988092340388
 20
165.9624136287885
 30
0.0
 10
256.4482968180346
 20
165.9229018932029
 30
0.0
 10
256.5020814841738
 20
165.9229018932029
 30
0.0
  0
LINE
  5
E00ED88E
330
E00DEA5D
100
AcDbEntity
  8
JISSEN
100
AcDbLine
 10
258.2169635828719
 20
165.9229018932275
 30
0.0
 11
257.5907829794719
 21
165.9229018932275
 31
0.0
  0
LINE
  5
E00ED88F
330
E00DEA5D
100
AcDbEntity
  8
JISSEN
100
AcDbLine
 10
257.7635594517738
 20
165.9229018932275
 30
0.0
 11
256.9157146446369
 21
165.9229018932275
 31
0.0
  0
LINE
  5
E00ED890
330
E00DEA5D
100
AcDbEntity
  8
JISSEN
100
AcDbLine
 10
256.1630692971167
 20
167.6700586140016
 30
0.0
 11
256.4057068604721
 21
167.6700586140016
 31
0.0
  0
SPLINE
  5
E00ED891
330
E00DEA5D
100
AcDbEntity
  8
JISSEN
100
AcDbSpline
210
0.0
220
0.0
230
1.0
 70
     8
 71
     3
 72
    18
 73
    14
 74
     0
 42
0.0000000001
 43
0.0000000001
 40
0.0
 40
0.0
 40
0.0
 40
0.0
 40
0.1250000000000001
 40
0.1250000000000001
 40
0.2500000000000001
 40
0.2500000000000001
 40
0.5
 40
0.5
 40
0.7499999999999999
 40
0.7499999999999999
 40
0.8749999999999998
 40
0.8749999999999998
 40
1.0
 40
1.0
 40
1.0
 40
1.0
 10
260.321153778687
 20
167.4229018931657
 30
0.0
 10
260.321153778687
 20
167.324208307322
 30
0.0
 10
260.3120921799096
 20
167.2268655376485
 30
0.0
 10
260.2762434492584
 20
167.0348168513702
 30
0.0
 10
260.2489835669317
 20
166.9391948291305
 30
0.0
 10
260.142824936062
 20
166.6673721103763
 30
0.0
 10
260.0375419029429
 20
166.5005258644852
 30
0.0
 10
259.7738953448466
 20
166.2231371555446
 30
0.0
 10
259.6146557702619
 20
166.1117788898793
 30
0.0
 10
259.3539404124773
 20
165.9994811291491
 30
0.0
 10
259.2619808654386
 20
165.9705935251988
 30
0.0
 10
259.0763974555326
 20
165.9325394262143
 30
0.0
 10
258.9819869245189
 20
165.9229018931657
 30
0.0
 10
258.8858988853195
 20
165.9229018931657
 30
0.0
  0
LINE
  5
E00ED892
330
E00DEA5D
100
AcDbEntity
  8
JISSEN
100
AcDbLine
 10
256.1057068604292
 20
170.670058614078
 30
0.0
 11
260.3211537786579
 21
170.6700586140564
 31
0.0
  0
LINE
  5
E00ED893
330
E00DEA5D
100
AcDbEntity
  8
JISSEN
100
AcDbLine
 10
256.1057068604283
 20
170.670058614078
 30
0.0
 11
260.3211537786579
 21
170.6700586140564
 31
0.0
  0
LINE
  5
E00ED894
330
E00DEA5D
100
AcDbEntity
  8
JISSEN
100
AcDbLine
 10
256.405706860473
 20
170.6700586140743
 30
0.0
 11
256.405706860473
 21
177.172902228531
 31
0.0
  0
LINE
  5
E00ED895
330
E00DEA5D
100
AcDbEntity
  8
JISSEN
100
AcDbLine
 10
255.5557068604735
 20
172.4229018932275
 30
0.0
 11
254.3557068604737
 21
172.4229018932275
 31
0.0
  0
LINE
  5
E00ED896
330
E00DEA5D
100
AcDbEntity
  8
JISSEN
100
AcDbLine
 10
256.0856688533682
 20
171.9270830203715
 30
0.0
 11
255.5898499805122
 21
172.4229018932275
 31
0.0
  0
LINE
  5
E00ED897
330
E00DEA5D
100
AcDbEntity
  8
JISSEN
100
AcDbLine
 10
255.5911866887723
 20
172.4229018932275
 30
0.0
 11
255.5557068604735
 21
172.4229018932275
 31
0.0
  0
LINE
  5
E00ED898
330
E00DEA5D
100
AcDbEntity
  8
JISSEN
100
AcDbLine
 10
256.1057068604728
 20
170.6700586140016
 30
0.0
 11
256.405706860473
 21
170.6700586140016
 31
0.0
  0
LINE
  5
E00ED89A
330
E00DEA5D
100
AcDbEntity
  8
SAISEN
100
AcDbLine
 10
256.905706860473
 20
176.1729022154306
 30
0.0
 11
256.9057068604739
 21
177.1729022285273
 31
0.0
  0
LINE
  5
E00ED89B
330
E00DEA5D
100
AcDbEntity
  8
JISSEN
100
AcDbLine
 10
256.405706860473
 20
176.172902215427
 30
0.0
 11
256.905706860473
 21
176.172902215427
 31
0.0
  0
ARC
  5
E00ED89E
330
E00DEA5D
100
AcDbEntity
  8
JISSEN
370
    -2
100
AcDbCircle
 10
264.7412426618726
 20
173.035565713739
 30
0.0
 40
1.648956901138485
100
AcDbArc
 50
83.20607180967952
 51
175.2210394254883
  0
LINE
  5
E00ED89F
330
E00DEA5D
100
AcDbEntity
  8
JISSEN
100
AcDbLine
 10
265.7051273421153
 20
172.4229018932275
 30
0.0
 11
260.3211537786579
 21
172.4229018932276
 31
0.0
  0
SPLINE
  5
E00ED8A0
330
E00DEA5D
100
AcDbEntity
  8
JISSEN
370
    -2
100
AcDbSpline
210
0.0
220
0.0
230
1.0
 70
    12
 71
     3
 72
    10
 73
     6
 74
     0
 42
0.0000000001
 43
0.0000000001
 40
0.0
 40
0.0
 40
0.0
 40
0.0
 40
0.1088769686984931
 40
0.2172663573285982
 40
0.2385701061928358
 40
0.2385701061928358
 40
0.2385701061928358
 40
0.2385701061928358
 10
264.9469963181987
 20
173.1729434764113
 30
0.0
 41
1.0
 10
264.9596896086146
 20
173.0466624901876
 30
0.0
 41
1.0
 10
264.9850193455091
 20
172.7946660376385
 30
0.0
 41
1.0
 10
265.119200656088
 20
172.5552442158011
 30
0.0
 41
1.0
 10
265.2078562474795
 20
172.4412046792856
 30
0.0
 41
1.0
 10
265.2228173977399
 20
172.4229018932275
 30
0.0
 41
1.0
  0
ARC
  5
E00ED8A1
330
E00DEA5D
100
AcDbEntity
  8
JISSEN
370
    -2
100
AcDbCircle
 10
264.7337018051727
 20
173.3010797002409
 30
0.0
 40
1.640694770587604
100
AcDbArc
 50
184.4792906218893
 51
212.360699164983
  0
LINE
  5
E00ED8A2
330
E00DEA5D
100
AcDbEntity
  8
JISSEN
100
AcDbLine
 10
280.5057068604749
 20
157.9229018932267
 30
0.0
 11
280.5057068604743
 21
148.9700585696757
 31
0.0
  0
LINE
  5
E00ED8A3
330
E00DEA5D
100
AcDbEntity
  8
JISSEN
100
AcDbLine
 10
279.1057068604728
 20
148.9700585696757
 30
0.0
 11
279.1057068604734
 21
157.9229018932266
 31
0.0
  0
LINE
  5
E00ED8A4
330
E00DEA5D
100
AcDbEntity
  8
JISSEN
100
AcDbLine
 10
281.8183503857231
 20
147.7700585696768
 30
0.0
 11
279.7279601051247
 21
147.7700585696768
 31
0.0
  0
LINE
  5
E00ED8A5
330
E00DEA5D
100
AcDbEntity
  8
JISSEN
100
AcDbLine
 10
278.455706860475
 20
147.0700585696761
 30
0.0
 11
282.3565917815736
 21
147.0700585696761
 31
0.0
  0
LINE
  5
E00ED8A6
330
E00DEA5D
100
AcDbEntity
  8
JISSEN
100
AcDbLine
 10
281.8183503857231
 20
148.9700585696757
 30
0.0
 11
279.7279601051247
 21
148.9700585696757
 31
0.0
  0
LINE
  5
E00ED8A7
330
E00DEA5D
100
AcDbEntity
  8
JISSEN
100
AcDbLine
 10
275.8557068605503
 20
147.720058569641
 30
0.0
 11
275.8557068605461
 21
147.0700585696486
 31
0.0
  0
LINE
  5
E00ED8A8
330
E00DEA5D
100
AcDbEntity
  8
JISSEN
100
AcDbLine
 10
266.2557068604479
 20
147.7200585696775
 30
0.0
 11
266.255706860447
 21
147.0700585696852
 31
0.0
  0
LINE
  5
E00ED8A9
330
E00DEA5D
100
AcDbEntity
  8
JISSEN
100
AcDbLine
 10
277.4560032557743
 20
147.7700585696768
 30
0.0
 11
278.455706860475
 21
147.0700585696761
 31
0.0
  0
LINE
  5
E00ED8AA
330
E00DEA5D
100
AcDbEntity
  8
JISSEN
100
AcDbLine
 10
275.3557068605424
 20
146.5700585696524
 30
0.0
 11
271.0557068605422
 21
146.5700585696852
 31
0.0
  0
LINE
  5
E00ED8AB
330
E00DEA5D
100
AcDbEntity
  8
JISSEN
100
AcDbLine
 10
266.755706860447
 20
146.5700585696852
 30
0.0
 11
271.0557068604472
 21
146.5700585696852
 31
0.0
  0
LINE
  5
E00ED8AC
330
E00DEA5D
100
AcDbEntity
  8
JISSEN
100
AcDbLine
 10
266.755706860447
 20
146.5700585696852
 30
0.0
 11
266.255706860447
 21
147.0700585696852
 31
0.0
  0
LINE
  5
E00ED8AD
330
E00DEA5D
100
AcDbEntity
  8
JISSEN
100
AcDbLine
 10
275.3557068605424
 20
146.5700585696524
 30
0.0
 11
275.8557068605461
 21
147.0700585696486
 31
0.0
  0
LINE
  5
E00ED8AE
330
E00DEA5D
100
AcDbEntity
  8
JISSEN
100
AcDbLine
 10
271.055706860525
 20
147.7700585696768
 30
0.0
 11
273.1277014718235
 21
147.770058569661
 31
0.0
  0
LINE
  5
E00ED8AF
330
E00DEA5D
100
AcDbEntity
  8
JISSEN
100
AcDbLine
 10
271.0557068605246
 20
147.7200585696757
 30
0.0
 11
275.8557068605239
 21
147.7200585696391
 31
0.0
  0
LINE
  5
E00ED8B0
330
E00DEA5D
100
AcDbEntity
  8
JISSEN
100
AcDbLine
 10
271.0557068605245
 20
150.370058569679
 30
0.0
 11
277.8057068605245
 21
150.370058569679
 31
0.0
  0
LINE
  5
E00ED8B1
330
E00DEA5D
100
AcDbEntity
  8
JISSEN
100
AcDbLine
 10
276.6307068605252
 20
150.8700585696972
 30
0.0
 11
271.0557068605245
 21
150.8700585697026
 31
0.0
  0
LINE
  5
E00ED8B2
330
E00DEA5D
100
AcDbEntity
  8
JISSEN
100
AcDbLine
 10
273.6864201227086
 20
154.3700585696808
 30
0.0
 11
271.0557068605245
 21
154.3700585696808
 31
0.0
  0
LINE
  5
E00ED8B3
330
E00DEA5D
100
AcDbEntity
  8
JISSEN
100
AcDbLine
 10
273.1277014718231
 20
148.9700585696757
 30
0.0
 11
268.983712249175
 21
148.9700585696757
 31
0.0
  0
LINE
  5
E00ED8B4
330
E00DEA5D
100
AcDbEntity
  8
JISSEN
100
AcDbLine
 10
271.0557068604736
 20
147.7200585696757
 30
0.0
 11
266.2557068604743
 21
147.7200585696757
 31
0.0
  0
LINE
  5
E00ED8B5
330
E00DEA5D
100
AcDbEntity
  8
JISSEN
100
AcDbLine
 10
271.0557068604736
 20
147.7700585696768
 30
0.0
 11
268.983712249175
 21
147.7700585696768
 31
0.0
  0
LINE
  5
E00ED8B6
330
E00DEA5D
100
AcDbEntity
  8
JISSEN
100
AcDbLine
 10
268.0122936379735
 20
147.7700585696768
 30
0.0
 11
268.983712249175
 21
147.7700585696768
 31
0.0
  0
LINE
  5
E00ED8B7
330
E00DEA5D
100
AcDbEntity
  8
JISSEN
100
AcDbLine
 10
267.2450457618229
 20
147.7700585696768
 30
0.0
 11
268.0122936379735
 21
147.7700585696768
 31
0.0
  0
LINE
  5
E00ED8B8
330
E00DEA5D
100
AcDbEntity
  8
JISSEN
100
AcDbLine
 10
266.4057068604739
 20
147.7200585696757
 30
0.0
 11
266.4057068604739
 21
147.7700585696768
 31
0.0
  0
LINE
  5
E00ED8B9
330
E00DEA5D
100
AcDbEntity
  8
JISSEN
100
AcDbLine
 10
267.2450457618229
 20
147.7700585696768
 30
0.0
 11
267.2450457618229
 21
148.9700585696757
 31
0.0
  0
LINE
  5
E00ED8BA
330
E00DEA5D
100
AcDbEntity
  8
JISSEN
100
AcDbLine
 10
268.983712249175
 20
148.9700585696757
 30
0.0
 11
268.983712249175
 21
147.7700585696768
 31
0.0
  0
LINE
  5
E00ED8BB
330
E00DEA5D
100
AcDbEntity
  8
JISSEN
100
AcDbLine
 10
267.2450457618229
 20
148.9700585696757
 30
0.0
 11
268.0122936379735
 21
148.9700585696757
 31
0.0
  0
LINE
  5
E00ED8BC
330
E00DEA5D
100
AcDbEntity
  8
JISSEN
100
AcDbLine
 10
268.0122936379735
 20
148.9700585696757
 30
0.0
 11
268.983712249175
 21
148.9700585696757
 31
0.0
  0
LINE
  5
E00ED8BD
330
E00DEA5D
100
AcDbEntity
  8
JISSEN
100
AcDbLine
 10
268.4249935982894
 20
154.3700585696808
 30
0.0
 11
271.0557068604736
 21
154.3700585696808
 31
0.0
  0
ARC
  5
E00ED8BE
330
E00DEA5D
100
AcDbEntity
  8
JISSEN
100
AcDbCircle
 10
268.4249935982894
 20
153.3700585696808
 30
0.0
 40
1.0
100
AcDbArc
 50
89.99999999998697
 51
171.9999999999596
  0
LINE
  5
E00ED8BF
330
E00DEA5D
100
AcDbEntity
  8
JISSEN
100
AcDbLine
 10
278.4551678990243
 20
147.7700585696768
 30
0.0
 11
274.8663679591751
 21
147.7700585696768
 31
0.0
  0
LINE
  5
E00ED8C0
330
E00DEA5D
100
AcDbEntity
  8
JISSEN
100
AcDbLine
 10
278.4551678990243
 20
148.9700585696757
 30
0.0
 11
274.8663679591751
 21
148.9700585696757
 31
0.0
  0
LINE
  5
E00ED8C1
330
E00DEA5D
100
AcDbEntity
  8
JISSEN
100
AcDbLine
 10
275.7057068605242
 20
147.7200585696403
 30
0.0
 11
275.7057068605246
 21
147.7700585696414
 31
0.0
  0
LINE
  5
E00ED8C2
330
E00DEA5D
100
AcDbEntity
  8
JISSEN
100
AcDbLine
 10
274.8663679591755
 20
147.7700585696477
 30
0.0
 11
274.099120083025
 21
147.7700585696536
 31
0.0
  0
LINE
  5
E00ED8C3
330
E00DEA5D
100
AcDbEntity
  8
JISSEN
100
AcDbLine
 10
274.099120083025
 20
147.7700585696536
 30
0.0
 11
273.1277014718235
 21
147.770058569661
 31
0.0
  0
LINE
  5
E00ED8C4
330
E00DEA5D
100
AcDbEntity
  8
JISSEN
100
AcDbLine
 10
274.8663679591751
 20
148.9700585696757
 30
0.0
 11
274.8663679591751
 21
147.7700585696768
 31
0.0
  0
LINE
  5
E00ED8C5
330
E00DEA5D
100
AcDbEntity
  8
JISSEN
100
AcDbLine
 10
273.1277014718231
 20
147.7700585696768
 30
0.0
 11
273.1277014718231
 21
148.9700585696757
 31
0.0
  0
LINE
  5
E00ED8C6
330
E00DEA5D
100
AcDbEntity
  8
JISSEN
100
AcDbLine
 10
274.0991200830227
 20
148.9700585696757
 30
0.0
 11
274.8663679591751
 21
148.9700585696757
 31
0.0
  0
LINE
  5
E00ED8C7
330
E00DEA5D
100
AcDbEntity
  8
JISSEN
100
AcDbLine
 10
273.1277014718231
 20
148.9700585696757
 30
0.0
 11
274.0991200830227
 21
148.9700585696757
 31
0.0
  0
LINE
  5
E00ED8C8
330
E00DEA5D
100
AcDbEntity
  8
JISSEN
100
AcDbLine
 10
276.6307068605252
 20
150.870058569699
 30
0.0
 11
276.6307068605252
 21
150.3700585696972
 31
0.0
  0
LINE
  5
E00ED8C9
330
E00DEA5D
100
AcDbEntity
  8
JISSEN
100
AcDbLine
 10
279.7279601051247
 20
148.9700585696757
 30
0.0
 11
279.7279601051247
 21
147.7700585696768
 31
0.0
  0
LINE
  5
E00ED8CA
330
E00DEA5D
100
AcDbEntity
  8
JISSEN
100
AcDbLine
 10
278.4551678990243
 20
147.7700585696768
 30
0.0
 11
278.4551678990243
 21
148.9700585696757
 31
0.0
  0
LINE
  5
E00ED8CB
330
E00DEA5D
100
AcDbEntity
  8
JISSEN
100
AcDbLine
 10
278.4551678990243
 20
147.7700585696768
 30
0.0
 11
279.7279601051247
 21
147.7700585696768
 31
0.0
  0
LINE
  5
E00ED8CC
330
E00DEA5D
100
AcDbEntity
  8
JISSEN
100
AcDbLine
 10
278.4551678990243
 20
148.9700585696757
 30
0.0
 11
279.7279601051247
 21
148.9700585696757
 31
0.0
  0
ARC
  5
E00ED8CD
330
E00DEA5D
100
AcDbEntity
  8
JISSEN
100
AcDbCircle
 10
273.6864201227086
 20
153.3700585696808
 30
0.0
 40
1.0
100
AcDbArc
 50
8.000000000040277
 51
90.00000000001302
  0
LINE
  5
E00ED8CE
330
E00DEA5D
100
AcDbEntity
  8
JISSEN
100
AcDbLine
 10
282.3565917815736
 20
147.0700585696761
 30
0.0
 11
282.3565917815736
 21
147.7700585696768
 31
0.0
  0
LINE
  5
E00ED8CF
330
E00DEA5D
100
AcDbEntity
  8
JISSEN
100
AcDbLine
 10
282.455706860475
 20
148.2700585696768
 30
0.0
 11
282.455706860475
 21
147.0700585696761
 31
0.0
  0
LINE
  5
E00ED8D0
330
E00DEA5D
100
AcDbEntity
  8
JISSEN
100
AcDbLine
 10
282.455706860475
 20
147.0700585696761
 30
0.0
 11
282.3565917815736
 21
147.0700585696761
 31
0.0
  0
LINE
  5
E00ED8D1
330
E00DEA5D
100
AcDbEntity
  8
JISSEN
100
AcDbLine
 10
282.3565917815736
 20
148.9700585696757
 30
0.0
 11
282.3565917815736
 21
148.2700585696768
 31
0.0
  0
LINE
  5
E00ED8D2
330
E00DEA5D
100
AcDbEntity
  8
JISSEN
100
AcDbLine
 10
282.256116012824
 20
148.9700585696757
 30
0.0
 11
282.256116012824
 21
147.7700585696768
 31
0.0
  0
LINE
  5
E00ED8D3
330
E00DEA5D
100
AcDbEntity
  8
JISSEN
100
AcDbLine
 10
281.8183503857231
 20
147.7700585696768
 30
0.0
 11
281.8183503857231
 21
148.9700585696757
 31
0.0
  0
LINE
  5
E00ED8D4
330
E00DEA5D
100
AcDbEntity
  8
JISSEN
100
AcDbLine
 10
282.3565917815736
 20
147.7700585696768
 30
0.0
 11
282.256116012824
 21
147.7700585696768
 31
0.0
  0
LINE
  5
E00ED8D5
330
E00DEA5D
100
AcDbEntity
  8
JISSEN
100
AcDbLine
 10
282.3565917815736
 20
148.2700585696768
 30
0.0
 11
282.455706860475
 21
148.2700585696768
 31
0.0
  0
LINE
  5
E00ED8D6
330
E00DEA5D
100
AcDbEntity
  8
JISSEN
100
AcDbLine
 10
281.8183503857231
 20
147.7700585696768
 30
0.0
 11
282.256116012824
 21
147.7700585696768
 31
0.0
  0
LINE
  5
E00ED8D7
330
E00DEA5D
100
AcDbEntity
  8
JISSEN
100
AcDbLine
 10
282.3565917815736
 20
148.9700585696757
 30
0.0
 11
282.256116012824
 21
148.9700585696757
 31
0.0
  0
LINE
  5
E00ED8D8
330
E00DEA5D
100
AcDbEntity
  8
JISSEN
100
AcDbLine
 10
281.8183503857231
 20
148.9700585696757
 30
0.0
 11
282.256116012824
 21
148.9700585696757
 31
0.0
  0
LINE
  5
E00ED8D9
330
E00DEA5D
100
AcDbEntity
  8
JISSEN
100
AcDbLine
 10
276.4062863788318
 20
172.4229018932275
 30
0.0
 11
281.7902599422887
 21
172.4229018932276
 31
0.0
  0
LINE
  5
E00ED8DA
330
E00DEA5D
100
AcDbEntity
  8
JISSEN
100
AcDbLine
 10
287.7926696120736
 20
157.9229018932275
 30
0.0
 11
271.0557068604745
 21
157.9229018932257
 31
0.0
  0
LINE
  5
E00ED8DC
330
E00DEA5D
100
AcDbEntity
  8
JISSEN
100
AcDbLine
 10
276.7674432540067
 20
172.4229018932275
 30
0.0
 11
276.7674432540067
 21
167.4229018931965
 31
0.0
  0
LINE
  5
E00ED8DD
330
E00DEA5D
100
AcDbEntity
  8
JISSEN
100
AcDbLine
 10
276.2352763071327
 20
171.9229018932275
 30
0.0
 11
276.2352763071327
 21
167.4229018932275
 31
0.0
  0
LINE
  5
E00ED8DE
330
E00DEA5D
100
AcDbEntity
  8
JISSEN
100
AcDbLine
 10
276.2352763071072
 20
171.922901893153
 30
0.0
 11
276.2352763071072
 21
167.4229018931924
 31
0.0
  0
LINE
  5
E00ED8DF
330
E00DEA5D
100
AcDbEntity
  8
JISSEN
100
AcDbLine
 10
265.8761374138399
 20
171.922901893153
 30
0.0
 11
265.8761374138399
 21
167.4229018931924
 31
0.0
  0
LINE
  5
E00ED8E0
330
E00DEA5D
100
AcDbEntity
  8
JISSEN
100
AcDbLine
 10
265.8761374138145
 20
171.9229018932275
 30
0.0
 11
265.8761374138145
 21
167.4229018932275
 31
0.0
  0
LINE
  5
E00ED8E1
330
E00DEA5D
100
AcDbEntity
  8
JISSEN
100
AcDbLine
 10
271.6818874637734
 20
165.9229018932275
 30
0.0
 11
275.6667067891381
 21
165.9229018932275
 31
0.0
  0
LINE
  5
E00ED8E2
330
E00DEA5D
100
AcDbEntity
  8
JISSEN
100
AcDbLine
 10
271.6818874637734
 20
165.9229018932275
 30
0.0
 11
271.6557068604739
 21
162.9229018932275
 31
0.0
  0
LINE
  5
E00ED8E3
330
E00DEA5D
100
AcDbEntity
  8
JISSEN
100
AcDbLine
 10
270.4295262571737
 20
165.9229018932275
 30
0.0
 11
270.4557068604732
 21
162.9229018932275
 31
0.0
  0
LINE
  5
E00ED8E4
330
E00DEA5D
100
AcDbEntity
  8
JISSEN
100
AcDbLine
 10
270.4557068604732
 20
162.9229018932275
 30
0.0
 11
271.6557068604739
 21
162.9229018932275
 31
0.0
  0
LINE
  5
E00ED8E5
330
E00DEA5D
100
AcDbEntity
  8
JISSEN
100
AcDbLine
 10
270.4295262571737
 20
165.9229018932275
 30
0.0
 11
266.444706931809
 21
165.9229018932275
 31
0.0
  0
SPLINE
  5
E00ED8E6
330
E00DEA5D
100
AcDbEntity
  8
JISSEN
100
AcDbSpline
210
0.0
220
0.0
230
1.0
 70
     8
 71
     3
 72
    18
 73
    14
 74
     0
 42
0.0000000001
 43
0.0000000001
 40
0.0
 40
0.0
 40
0.0
 40
0.0
 40
0.1249999999999994
 40
0.1249999999999994
 40
0.2499999999999989
 40
0.2499999999999989
 40
0.3749999999999983
 40
0.3749999999999983
 40
0.4999999999999978
 40
0.4999999999999978
 40
0.749999999999999
 40
0.749999999999999
 40
1.0
 40
1.0
 40
1.0
 40
1.0
 10
265.8761374138399
 20
167.4229018931965
 30
0.0
 10
265.8761374138399
 20
167.3237785532693
 30
0.0
 10
265.8835953564963
 20
167.2263119304117
 30
0.0
 10
265.9127540194755
 20
167.0345566880897
 30
0.0
 10
265.9348079703928
 20
166.9392743593308
 30
0.0
 10
265.9921763809003
 20
166.7575842311108
 30
0.0
 10
266.0272033509069
 20
166.6714128717413
 30
0.0
 10
266.1095558204075
 20
166.5083359874808
 30
0.0
 10
266.157310675099
 20
166.4311310004142
 30
0.0
 10
266.3128210857617
 20
166.2235957054764
 30
0.0
 10
266.4369704342685
 20
166.1119084960392
 30
0.0
 10
266.7001853631505
 20
165.9624642954132
 30
0.0
 10
266.8416363229376
 20
165.9229018931965
 30
0.0
 10
266.9812867239949
 20
165.9229018931965
 30
0.0
  0
SPLINE
  5
E00ED8E7
330
E00DEA5D
100
AcDbEntity
  8
JISSEN
100
AcDbSpline
210
0.0
220
0.0
230
1.0
 70
     8
 71
     3
 72
    18
 73
    14
 74
     0
 42
0.0000000001
 43
0.0000000001
 40
0.0
 40
0.0
 40
0.0
 40
0.0
 40
0.1249999999999997
 40
0.1249999999999997
 40
0.2499999999999994
 40
0.2499999999999994
 40
0.3749999999999992
 40
0.3749999999999992
 40
0.499999999999999
 40
0.499999999999999
 40
0.7499999999999995
 40
0.7499999999999995
 40
1.0
 40
1.0
 40
1.0
 40
1.0
 10
275.6667067891379
 20
165.9229018931965
 30
0.0
 10
275.7358958594344
 20
165.9229018931965
 30
0.0
 10
275.8046399410817
 20
165.9325373893608
 30
0.0
 10
275.9411866819685
 20
165.9703994865614
 30
0.0
 10
276.0097177888241
 20
165.9990884350664
 30
0.0
 10
276.141534632405
 20
166.0740876413566
 30
0.0
 10
276.2046339290194
 20
166.1200212654185
 30
0.0
 10
276.3249315231245
 20
166.22864574678
 30
0.0
 10
276.3823595827147
 20
166.291910930866
 30
0.0
 10
276.5376640864654
 20
166.4993008787333
 30
0.0
 10
276.6225797931987
 20
166.6665957668357
 30
0.0
 10
276.7368039980032
 20
167.0275913728656
 30
0.0
 10
276.7674432540065
 20
167.2246220179387
 30
0.0
 10
276.7674432540065
 20
167.4229018931965
 30
0.0
  0
SPLINE
  5
E00ED8E8
330
E00DEA5D
100
AcDbEntity
  8
JISSEN
100
AcDbSpline
210
0.0
220
0.0
230
1.0
 70
     8
 71
     3
 72
    18
 73
    14
 74
     0
 42
0.0000000001
 43
0.0000000001
 40
0.0
 40
0.0
 40
0.0
 40
0.0
 40
0.1249999999999994
 40
0.1249999999999994
 40
0.2499999999999989
 40
0.2499999999999989
 40
0.3749999999999983
 40
0.3749999999999983
 40
0.4999999999999978
 40
0.4999999999999978
 40
0.749999999999999
 40
0.749999999999999
 40
1.0
 40
1.0
 40
1.0
 40
1.0
 10
276.2352763071072
 20
167.4229018931965
 30
0.0
 10
276.2352763071072
 20
167.3237785532693
 30
0.0
 10
276.2278183644508
 20
167.2263119304117
 30
0.0
 10
276.1986597014717
 20
167.0345566880897
 30
0.0
 10
276.1766057505543
 20
166.9392743593308
 30
0.0
 10
276.1192373400468
 20
166.7575842311108
 30
0.0
 10
276.0842103700403
 20
166.6714128717413
 30
0.0
 10
276.0018579005396
 20
166.5083359874808
 30
0.0
 10
275.9541030458482
 20
166.4311310004142
 30
0.0
 10
275.7985926351854
 20
166.2235957054764
 30
0.0
 10
275.6744432866786
 20
166.1119084960392
 30
0.0
 10
275.4112283577966
 20
165.9624642954132
 30
0.0
 10
275.2697773980095
 20
165.9229018931965
 30
0.0
 10
275.1301269969522
 20
165.9229018931965
 30
0.0
  0
LINE
  5
E00ED8E9
330
E00DEA5D
100
AcDbEntity
  8
JISSEN
370
    -2
100
AcDbLine
 10
277.1751015352752
 20
174.6729437222404
 30
0.0
 11
271.0557068604736
 21
174.6729437222404
 31
0.0
  0
LINE
  5
E00ED8EA
330
E00DEA5D
100
AcDbEntity
  8
JISSEN
370
    -2
100
AcDbLine
 10
276.2352763071072
 20
171.6729432305421
 30
0.0
 11
271.0557068604736
 21
171.6729432305421
 31
0.0
  0
LINE
  5
E00ED8EB
330
E00DEA5D
100
AcDbEntity
  8
JISSEN
100
AcDbLine
 10
276.235276307107
 20
170.670058614028
 30
0.0
 11
271.0557068604736
 21
170.6700586140016
 31
0.0
  0
LINE
  5
E00ED8EC
330
E00DEA5D
100
AcDbEntity
  8
JISSEN
100
AcDbLine
 10
276.235276307107
 20
170.670058614028
 30
0.0
 11
271.0557068604736
 21
170.6700586140016
 31
0.0
  0
LINE
  5
E00ED8ED
330
E00DEA5D
100
AcDbEntity
  8
JISSEN
370
    -2
100
AcDbLine
 10
265.8761374138145
 20
171.6729432305425
 30
0.0
 11
271.0557068604736
 21
171.6729432305439
 31
0.0
  0
LINE
  5
E00ED8EE
330
E00DEA5D
100
AcDbEntity
  8
JISSEN
100
AcDbLine
 10
265.8761374138145
 20
170.6700586140281
 30
0.0
 11
271.0557068604736
 21
170.6700586140016
 31
0.0
  0
LINE
  5
E00ED8EF
330
E00DEA5D
100
AcDbEntity
  8
JISSEN
100
AcDbLine
 10
265.8761374138145
 20
170.670058614028
 30
0.0
 11
271.0557068604736
 21
170.6700586140016
 31
0.0
  0
SPLINE
  5
E00ED8F0
330
E00DEA5D
100
AcDbEntity
  8
JISSEN
370
    -2
100
AcDbSpline
210
0.0
220
0.0
230
1.0
 70
    12
 71
     3
 72
    10
 73
     6
 74
     0
 42
0.0000000001
 43
0.0000000001
 40
0.4863364291330427
 40
0.4863364291330427
 40
0.4863364291330427
 40
0.4863364291330427
 40
0.5996174274824865
 40
0.7976149977365948
 40
1.0
 40
1.0
 40
1.0
 40
1.0
 10
265.8672742880063
 20
171.9488159394588
 30
0.0
 41
1.0
 10
265.9787139137502
 20
171.8992999734239
 30
0.0
 41
1.0
 10
266.2955669539616
 20
171.7877224276635
 30
0.0
 41
1.0
 10
266.8474402324396
 20
171.6883906691275
 30
0.0
 41
1.0
 10
267.2910274510946
 20
171.6781298564039
 30
0.0
 41
1.0
 10
267.5152514968291
 20
171.6729432305421
 30
0.0
 41
1.0
  0
SPLINE
  5
E00ED8F1
330
E00DEA5D
100
AcDbEntity
  8
JISSEN
370
    -2
100
AcDbSpline
210
0.0
220
0.0
230
1.0
 70
    12
 71
     3
 72
    14
 73
    10
 74
     0
 42
0.0000000001
 43
0.0000000001
 40
0.0
 40
0.0
 40
0.0
 40
0.0
 40
0.2170493941225676
 40
0.4388311995732112
 40
0.5988137766302898
 40
0.7597871991591737
 40
0.8750649674182215
 40
0.9755548291618868
 40
1.0
 40
1.0
 40
1.0
 40
1.0
 10
274.596162224118
 20
174.6729437222804
 30
0.0
 41
1.0
 10
274.8365247138004
 20
174.666978170708
 30
0.0
 41
1.0
 10
275.3224904088734
 20
174.6549169983502
 30
0.0
 41
1.0
 10
275.9631219960689
 20
174.5257275079077
 30
0.0
 41
1.0
 10
276.5000567947605
 20
174.2898044503692
 30
0.0
 41
1.0
 10
276.8718643715952
 20
173.9837441417314
 30
0.0
 41
1.0
 10
277.0936472487716
 20
173.6188639051199
 30
0.0
 41
1.0
 10
277.1603666040779
 20
173.3452806477273
 30
0.0
 41
1.0
 10
277.1637545139361
 20
173.2011454168152
 30
0.0
 41
1.0
 10
277.1644174027484
 20
173.1729434764113
 30
0.0
 41
1.0
  0
ARC
  5
E00ED8F2
330
E00DEA5D
100
AcDbEntity
  8
JISSEN
370
    -2
100
AcDbCircle
 10
277.3701710590745
 20
173.035565713739
 30
0.0
 40
1.648956901138485
100
AcDbArc
 50
4.778960574511658
 51
96.79392819032045
  0
SPLINE
  5
E00ED8F3
330
E00DEA5D
100
AcDbEntity
  8
JISSEN
370
    -2
100
AcDbSpline
210
0.0
220
0.0
230
1.0
 70
    12
 71
     3
 72
    10
 73
     6
 74
     0
 42
0.0000000001
 43
0.0000000001
 40
0.4863364291330975
 40
0.4863364291330975
 40
0.4863364291330975
 40
0.4863364291330975
 40
0.5996174274824865
 40
0.7976149977365948
 40
1.0
 40
1.0
 40
1.0
 40
1.0
 10
276.2441394329404
 20
171.9488159394587
 30
0.0
 41
1.0
 10
276.1326998071966
 20
171.8992999734239
 30
0.0
 41
1.0
 10
275.8158467669856
 20
171.7877224276635
 30
0.0
 41
1.0
 10
275.2639734885075
 20
171.6883906691275
 30
0.0
 41
1.0
 10
274.8203862698525
 20
171.6781298564039
 30
0.0
 41
1.0
 10
274.596162224118
 20
171.6729432305421
 30
0.0
 41
1.0
  0
LINE
  5
E00ED8F4
330
E00DEA5D
100
AcDbEntity
  8
JISSEN
100
AcDbLine
 10
276.4062863788318
 20
172.4229018932275
 30
0.0
 11
276.2352763071327
 21
171.9229018932275
 31
0.0
  0
ARC
  5
E00ED8F5
330
E00DEA5D
100
AcDbEntity
  8
JISSEN
370
    -2
100
AcDbCircle
 10
277.3777119157745
 20
173.3010797002409
 30
0.0
 40
1.640694770587604
100
AcDbArc
 50
327.6393008350169
 51
355.5207093781106
  0
SPLINE
  5
E00ED8F6
330
E00DEA5D
100
AcDbEntity
  8
JISSEN
370
    -2
100
AcDbSpline
210
0.0
220
0.0
230
1.0
 70
    12
 71
     3
 72
    10
 73
     6
 74
     0
 42
0.0000000001
 43
0.0000000001
 40
0.0
 40
0.0
 40
0.0
 40
0.0
 40
0.1088769686984931
 40
0.2172663573285982
 40
0.2385701061928065
 40
0.2385701061928065
 40
0.2385701061928065
 40
0.2385701061928065
 10
277.1644174027484
 20
173.1729434764113
 30
0.0
 41
1.0
 10
277.1517241123325
 20
173.0466624901876
 30
0.0
 41
1.0
 10
277.126394375438
 20
172.7946660376385
 30
0.0
 41
1.0
 10
276.9922130648591
 20
172.5552442158011
 30
0.0
 41
1.0
 10
276.9035574734676
 20
172.4412046792856
 30
0.0
 41
1.0
 10
276.8885963232072
 20
172.4229018932276
 30
0.0
 41
1.0
  0
LINE
  5
E00ED8F7
330
E00DEA5D
100
AcDbEntity
  8
JISSEN
 62
     0
 48
0.1
100
AcDbLine
 10
285.9438506652703
 20
167.422901893203
 30
0.0
 11
286.0257448675789
 21
171.9270830203715
 31
0.0
  0
LINE
  5
E00ED8F8
330
E00DEA5D
100
AcDbEntity
  8
JISSEN
100
AcDbLine
 10
281.790259942289
 20
172.4229018932276
 30
0.0
 11
281.7902599422887
 21
167.4229018931612
 31
0.0
  0
LINE
  5
E00ED8F9
330
E00DEA5D
100
AcDbEntity
  8
JISSEN
 62
     0
 48
0.1
100
AcDbLine
 10
287.4211686288737
 20
167.4229018931903
 30
0.0
 11
287.5019963358141
 21
172.4229018932275
 31
0.0
  0
LINE
  5
E00ED8FA
330
E00DEA5D
100
AcDbEntity
  8
JISSEN
100
AcDbLine
 10
285.705706860475
 20
167.6700586140016
 30
0.0
 11
286.0057068604743
 21
170.1133625423956
 31
0.0
  0
LINE
  5
E00ED8FB
330
E00DEA5D
100
AcDbEntity
  8
JISSEN
 62
     0
 48
0.1
100
AcDbLine
 10
287.5735516695982
 20
161.1547861831624
 30
0.0
 11
287.7557068604734
 21
172.4229018932275
 31
0.0
  0
LINE
  5
E00ED8FC
330
E00DEA5D
100
AcDbEntity
  8
JISSEN
100
AcDbLine
 10
285.1956990763097
 20
165.9229018932271
 30
0.0
 11
287.0866502003767
 21
165.9229018932283
 31
0.0
  0
LINE
  5
E00ED8FD
330
E00DEA5D
100
AcDbEntity
  8
JISSEN
100
AcDbLine
 10
285.8090048810737
 20
162.9229018932276
 30
0.0
 11
285.8206990763879
 21
165.9229018932275
 31
0.0
  0
LINE
  5
E00ED8FE
330
E00DEA5D
100
AcDbEntity
  8
JISSEN
100
AcDbLine
 10
285.2090048810729
 20
162.9229018932275
 30
0.0
 11
285.1956990763102
 21
165.9229018931523
 31
0.0
  0
LINE
  5
E00ED8FF
330
E00DEA5D
100
AcDbEntity
  8
JISSEN
100
AcDbLine
 10
285.2090048810729
 20
162.9229018932276
 30
0.0
 11
285.8090048810737
 21
162.9229018932276
 31
0.0
  0
LINE
  5
E00ED900
330
E00DEA5D
100
AcDbEntity
  8
JISSEN
100
AcDbLine
 10
283.2255148356267
 20
165.9229018932275
 30
0.0
 11
283.8944501350894
 21
165.9229018932275
 31
0.0
  0
SPLINE
  5
E00ED901
330
E00DEA5D
100
AcDbEntity
  8
JISSEN
100
AcDbSpline
210
0.0
220
0.0
230
1.0
 70
     8
 71
     3
 72
    18
 73
    14
 74
     0
 42
0.0000000001
 43
0.0000000001
 40
0.0
 40
0.0
 40
0.0
 40
0.0
 40
0.1250000000000001
 40
0.1250000000000001
 40
0.2500000000000001
 40
0.2500000000000001
 40
0.5
 40
0.5
 40
0.7499999999999999
 40
0.7499999999999999
 40
0.8749999999999998
 40
0.8749999999999998
 40
1.0
 40
1.0
 40
1.0
 40
1.0
 10
281.7902599422597
 20
167.4229018931657
 30
0.0
 10
281.7902599422597
 20
167.324208307322
 30
0.0
 10
281.7993215410371
 20
167.2268655376485
 30
0.0
 10
281.8351702716883
 20
167.0348168513702
 30
0.0
 10
281.8624301540149
 20
166.9391948291305
 30
0.0
 10
281.9685887848846
 20
166.6673721103763
 30
0.0
 10
282.0738718180038
 20
166.5005258644852
 30
0.0
 10
282.3375183761001
 20
166.2231371555446
 30
0.0
 10
282.4967579506848
 20
166.1117788898793
 30
0.0
 10
282.7574733084694
 20
165.9994811291491
 30
0.0
 10
282.849432855508
 20
165.9705935251988
 30
0.0
 10
283.0350162654141
 20
165.9325394262143
 30
0.0
 10
283.1294267964277
 20
165.9229018931657
 30
0.0
 10
283.2255148356272
 20
165.9229018931657
 30
0.0
  0
SPLINE
  5
E00ED902
330
E00DEA5D
100
AcDbEntity
  8
JISSEN
100
AcDbSpline
210
0.0
220
0.0
230
1.0
 70
     8
 71
     3
 72
    18
 73
    14
 74
     0
 42
0.0000000001
 43
0.0000000001
 40
0.0
 40
0.0
 40
0.0
 40
0.0
 40
0.1250000000000001
 40
0.1250000000000001
 40
0.2500000000000002
 40
0.2500000000000002
 40
0.3750000000000002
 40
0.3750000000000002
 40
0.5000000000000004
 40
0.5000000000000004
 40
0.7500000000000001
 40
0.7500000000000001
 40
1.0
 40
1.0
 40
1.0
 40
1.0
 10
285.9438506652701
 20
167.4229018932029
 30
0.0
 10
285.9438506652701
 20
167.3237611118394
 30
0.0
 10
285.9421695085444
 20
167.2262775979444
 30
0.0
 10
285.9354756632388
 20
167.0344896519919
 30
0.0
 10
285.9303800183248
 20
166.9391908641038
 30
0.0
 10
285.9167292136977
 20
166.7574757427074
 30
0.0
 10
285.9082427483814
 20
166.6712935392962
 30
0.0
 10
285.8875184207305
 20
166.5081990128575
 30
0.0
 10
285.8751575547108
 20
166.4309894832905
 30
0.0
 10
285.8330909758466
 20
166.2234557714265
 30
0.0
 10
285.7971827090046
 20
166.1117883511425
 30
0.0
 10
285.7126044869079
 20
165.9624136287885
 30
0.0
 10
285.663116902912
 20
165.9229018932029
 30
0.0
 10
285.6093322367729
 20
165.9229018932029
 30
0.0
  0
LINE
  5
E00ED903
330
E00DEA5D
100
AcDbEntity
  8
JISSEN
100
AcDbLine
 10
284.3478542691733
 20
165.9229018932275
 30
0.0
 11
285.1956990763097
 21
165.9229018932275
 31
0.0
  0
LINE
  5
E00ED904
330
E00DEA5D
100
AcDbEntity
  8
JISSEN
100
AcDbLine
 10
283.8944501380753
 20
165.9229018932275
 30
0.0
 11
284.5206307414752
 21
165.9229018932275
 31
0.0
  0
LINE
  5
E00ED905
330
E00DEA5D
100
AcDbEntity
  8
JISSEN
100
AcDbLine
 10
285.94834442383
 20
167.6700586140016
 30
0.0
 11
285.705706860475
 21
167.6700586140016
 31
0.0
  0
ARC
  5
E00ED906
330
E00DEA5D
100
AcDbEntity
  8
JISSEN
100
AcDbCircle
 10
287.6572011167733
 20
159.4167721308278
 30
0.0
 40
1.499999999999995
100
AcDbArc
 50
275.18157546905
 51
278.0000000000402
  0
ARC
  5
E00ED907
330
E00DEA5D
100
AcDbEntity
  8
JISSEN
100
AcDbCircle
 10
289.0733557144591
 20
161.1305410388033
 30
0.0
 40
1.5
100
AcDbArc
 50
179.073863373509
 51
187.9567814936291
  0
SPLINE
  5
E00ED908
330
E00DEA5D
100
AcDbEntity
  8
JISSEN
100
AcDbSpline
210
0.0
220
0.0
230
1.0
 70
     8
 71
     3
 72
    18
 73
    14
 74
     0
 42
0.0000000001
 43
0.0000000001
 40
0.0
 40
0.0
 40
0.0
 40
0.0
 40
0.1250000000000001
 40
0.1250000000000001
 40
0.2500000000000002
 40
0.2500000000000002
 40
0.3750000000000002
 40
0.3750000000000002
 40
0.5000000000000004
 40
0.5000000000000004
 40
0.7500000000000001
 40
0.7500000000000001
 40
1.0
 40
1.0
 40
1.0
 40
1.0
 10
287.4211686288737
 20
167.4229018931966
 30
0.0
 10
287.4211686288737
 20
167.3237611118331
 30
0.0
 10
287.419487472148
 20
167.2262775979381
 30
0.0
 10
287.4127936268424
 20
167.0344896519856
 30
0.0
 10
287.4076979819284
 20
166.9391908640974
 30
0.0
 10
287.3940471773013
 20
166.7574757427011
 30
0.0
 10
287.385560711985
 20
166.6712935392899
 30
0.0
 10
287.3648363843341
 20
166.5081990128512
 30
0.0
 10
287.3524755183144
 20
166.4309894832842
 30
0.0
 10
287.3104089394502
 20
166.2234557714202
 30
0.0
 10
287.2745006726082
 20
166.1117883511362
 30
0.0
 10
287.1899224505115
 20
165.9624136287822
 30
0.0
 10
287.1404348665156
 20
165.9229018931966
 30
0.0
 10
287.0866502003765
 20
165.9229018931966
 30
0.0
  0
LINE
  5
E00ED909
330
E00DEA5D
100
AcDbEntity
  8
JISSEN
100
AcDbLine
 10
286.5557068604736
 20
172.4229018932275
 30
0.0
 11
287.7557068604734
 21
172.4229018932275
 31
0.0
  0
LINE
  5
E00ED90B
330
E00DEA5D
100
AcDbEntity
  8
JISSEN
100
AcDbLine
 10
285.7057068604741
 20
170.6700586140743
 30
0.0
 11
285.7057068604741
 21
177.172902228531
 31
0.0
  0
LINE
  5
E00ED90C
330
E00DEA5D
100
AcDbEntity
  8
JISSEN
100
AcDbLine
 10
286.0057068605188
 20
170.670058614078
 30
0.0
 11
281.7902599422887
 21
170.6700586140564
 31
0.0
  0
LINE
  5
E00ED90D
330
E00DEA5D
100
AcDbEntity
  8
JISSEN
100
AcDbLine
 10
286.0057068605179
 20
170.670058614078
 30
0.0
 11
281.790259942289
 21
170.6700586140564
 31
0.0
  0
LINE
  5
E00ED90E
330
E00DEA5D
100
AcDbEntity
  8
JISSEN
100
AcDbLine
 10
286.0257448675789
 20
171.9270830203715
 30
0.0
 11
286.521563740435
 21
172.4229018932275
 31
0.0
  0
LINE
  5
E00ED90F
330
E00DEA5D
100
AcDbEntity
  8
JISSEN
100
AcDbLine
 10
286.5202270321748
 20
172.4229018932275
 30
0.0
 11
286.5557068604736
 21
172.4229018932275
 31
0.0
  0
LINE
  5
E00ED910
330
E00DEA5D
100
AcDbEntity
  8
JISSEN
100
AcDbLine
 10
286.0057068604743
 20
170.6700586140016
 30
0.0
 11
285.7057068604741
 21
170.6700586140016
 31
0.0
  0
LINE
  5
E00ED911
330
E00DEA5D
100
AcDbEntity
  8
SAISEN
100
AcDbLine
 10
285.2057068604741
 20
176.1729022154306
 30
0.0
 11
285.2057068604732
 21
177.1729022285273
 31
0.0
  0
LINE
  5
E00ED912
330
E00DEA5D
100
AcDbEntity
  8
JISSEN
100
AcDbLine
 10
285.7057068604741
 20
176.172902215427
 30
0.0
 11
285.2057068604741
 21
176.172902215427
 31
0.0
  0
LINE
  5
E00ED915
330
E00DEA5D
100
AcDbEntity
  8
JISSEN
100
AcDbLine
 10
259.771732264258
 20
183.6729022285273
 30
0.0
 11
271.0557068604736
 21
183.6729022285273
 31
0.0
  0
LINE
  5
E00ED917
330
E00DEA5D
100
AcDbEntity
  8
JISSEN
100
AcDbLine
 10
262.0557068604735
 20
199.4729022285266
 30
0.0
 11
271.0557068604736
 21
199.4729022285266
 31
0.0
  0
LINE
  5
E00ED918
330
E00DEA5D
100
AcDbEntity
  8
JISSEN
100
AcDbLine
 10
260.7936100863731
 20
198.2108054543298
 30
0.0
 11
271.0557068604736
 21
198.2108054543298
 31
0.0
  0
LINE
  5
E00ED919
330
E00DEA5D
100
AcDbEntity
  8
NITEN
100
AcDbLine
 10
258.5557068604736
 20
188.4729022285266
 30
0.0
 11
283.5557068604736
 21
188.4729022285266
 31
0.0
  0
LINE
  5
E00ED91A
330
E00DEA5D
100
AcDbEntity
  8
NITEN
100
AcDbLine
 10
258.0557068604736
 20
205.2782526422618
 30
0.0
 11
258.055706860474
 21
188.9729022285266
 31
0.0
  0
LINE
  5
E00ED91B
330
E00DEA5D
100
AcDbEntity
  8
JISSEN
100
AcDbLine
 10
260.7936100863731
 20
198.2108054543298
 30
0.0
 11
260.3393006105231
 21
183.6729022285273
 31
0.0
  0
LINE
  5
E00ED91C
330
E00DEA5D
100
AcDbEntity
  8
SAISEN
100
AcDbLine
 10
261.5576977424767
 20
185.4729022285339
 30
0.0
 11
261.9932683038565
 21
199.4104636695722
 31
0.0
  0
LINE
  5
E00ED91D
330
E00DEA5D
100
AcDbEntity
  8
SAISEN
100
AcDbLine
 10
261.5576977424767
 20
185.4729022285303
 30
0.0
 11
261.9932683038565
 21
199.4104636695685
 31
0.0
  0
ARC
  5
E00ED920
330
E00DEA5D
100
AcDbEntity
  8
NITEN
100
AcDbCircle
 10
258.5557068604736
 20
188.9729022285266
 30
0.0
 40
0.5
100
AcDbArc
 50
180.0
 51
270.0
  0
LINE
  5
E00ED921
330
E00DEA5D
100
AcDbEntity
  8
JISSEN
100
AcDbLine
 10
262.0557068604735
 20
199.4729022285266
 30
0.0
 11
260.7936100863731
 21
198.2108054543298
 31
0.0
  0
ARC
  5
E00ED922
330
E00DEA5D
100
AcDbEntity
  8
NITEN
100
AcDbCircle
 10
252.0557068604736
 20
212.7332300093132
 30
0.0
 40
0.5
100
AcDbArc
 50
180.0
 51
235.0079798014511
  0
LINE
  5
E00ED923
330
E00DEA5D
100
AcDbEntity
  8
NITEN
100
AcDbLine
 10
257.9240987326435
 20
205.6163168795303
 30
0.0
 11
251.7689756882924
 21
212.3236140490537
 31
0.0
  0
ARC
  5
E00ED924
330
E00DEA5D
100
AcDbEntity
  8
NITEN
100
AcDbCircle
 10
257.5557068604735
 20
205.2782526422618
 30
0.0
 40
0.5
100
AcDbArc
 50
0.0
 51
42.54184415662172
  0
LINE
  5
E00ED925
330
E00DEA5D
100
AcDbEntity
  8
NITEN
100
AcDbLine
 10
284.055706860474
 20
205.2782526422618
 30
0.0
 11
284.0557068604736
 21
188.9729022285266
 31
0.0
  0
LINE
  5
E00ED927
330
E00DEA5D
100
AcDbEntity
  8
JISSEN
100
AcDbLine
 10
282.3396814566891
 20
183.6729022285273
 30
0.0
 11
271.0557068604736
 21
183.6729022285273
 31
0.0
  0
LINE
  5
E00ED928
330
E00DEA5D
100
AcDbEntity
  8
JISSEN
100
AcDbLine
 10
280.0557068604735
 20
199.4729022285266
 30
0.0
 11
271.0557068604736
 21
199.4729022285266
 31
0.0
  0
LINE
  5
E00ED929
330
E00DEA5D
100
AcDbEntity
  8
JISSEN
100
AcDbLine
 10
281.317803634574
 20
198.2108054543298
 30
0.0
 11
271.0557068604736
 21
198.2108054543298
 31
0.0
  0
LINE
  5
E00ED92A
330
E00DEA5D
100
AcDbEntity
  8
NITEN
100
AcDbLine
 10
280.0557068604735
 20
188.4729022285266
 30
0.0
 11
271.0557068604736
 21
188.4729022285266
 31
0.0
  0
LINE
  5
E00ED92F
330
E00DEA5D
100
AcDbEntity
  8
JISSEN
100
AcDbLine
 10
281.317803634574
 20
198.2108054543298
 30
0.0
 11
281.7721131104241
 21
183.6729022285273
 31
0.0
  0
LINE
  5
E00ED930
330
E00DEA5D
100
AcDbEntity
  8
SAISEN
100
AcDbLine
 10
280.5537159784704
 20
185.4729022285303
 30
0.0
 11
280.1181454170906
 21
199.4104636695685
 31
0.0
  0
LINE
  5
E00ED931
330
E00DEA5D
100
AcDbEntity
  8
SAISEN
100
AcDbLine
 10
280.5537159784704
 20
185.4729022285339
 30
0.0
 11
280.1181454170906
 21
199.4104636695722
 31
0.0
  0
ARC
  5
E00ED933
330
E00DEA5D
100
AcDbEntity
  8
NITEN
100
AcDbCircle
 10
283.5557068604736
 20
188.9729022285266
 30
0.0
 40
0.5
100
AcDbArc
 50
270.0
 51
0.0
  0
LINE
  5
E00ED935
330
E00DEA5D
100
AcDbEntity
  8
JISSEN
100
AcDbLine
 10
280.0557068604735
 20
199.4729022285266
 30
0.0
 11
281.317803634574
 21
198.2108054543298
 31
0.0
  0
LINE
  5
E00ED936
330
E00DEA5D
100
AcDbEntity
  8
NITEN
100
AcDbLine
 10
284.1873149883046
 20
205.6163168795303
 30
0.0
 11
290.3424380326556
 21
212.3236140490537
 31
0.0
  0
ARC
  5
E00ED937
330
E00DEA5D
100
AcDbEntity
  8
NITEN
100
AcDbCircle
 10
284.5557068604735
 20
205.2782526422618
 30
0.0
 40
0.5
100
AcDbArc
 50
137.4581558433782
 51
180.0
  0
ARC
  5
E00ED938
330
E00DEA5D
100
AcDbEntity
  8
NITEN
100
AcDbCircle
 10
290.0557068604736
 20
212.7332300093132
 30
0.0
 40
0.5
100
AcDbArc
 50
304.9920201985488
 51
0.0
  0
ELLIPSE
  5
E00ED939
330
E00DEA5D
100
AcDbEntity
  8
NITEN
100
AcDbEllipse
 10
262.5557068604736
 20
245.2768907529282
 30
0.0
 11
-8.5
 21
0.0
 31
0.0
210
0.0
220
0.0
230
1.0
 40
0.2352941176470588
 41
3.141592653589793
 42
6.283185307179586
  0
LINE
  5
E00ED93A
330
E00DEA5D
100
AcDbEntity
  8
NITEN
100
AcDbLine
 10
290.0557068604736
 20
230.4729022285266
 30
0.0
 11
252.0557068604736
 21
230.4729022285266
 31
0.0
  0
LINE
  5
E00ED93B
330
E00DEA5D
100
AcDbEntity
  8
NITEN
100
AcDbLine
 10
254.0557068604736
 20
230.4729022285266
 30
0.0
 11
254.0557068604736
 21
245.2768907529282
 31
0.0
  0
ARC
  5
E00ED93C
330
E00DEA5D
100
AcDbEntity
  8
NITEN
100
AcDbCircle
 10
252.0557068604736
 20
229.9729022285266
 30
0.0
 40
0.5
100
AcDbArc
 50
90.0
 51
180.0
  0
LINE
  5
E00ED93D
330
E00DEA5D
100
AcDbEntity
  8
NITEN
100
AcDbLine
 10
288.0557068604736
 20
230.4729022285266
 30
0.0
 11
288.0557068604736
 21
245.2768907529282
 31
0.0
  0
ARC
  5
E00ED93E
330
E00DEA5D
100
AcDbEntity
  8
NITEN
100
AcDbCircle
 10
290.0557068604736
 20
229.9729022285266
 30
0.0
 40
0.5
100
AcDbArc
 50
0.0
 51
90.0
  0
ELLIPSE
  5
E00ED93F
330
E00DEA5D
100
AcDbEntity
  8
NITEN
100
AcDbEllipse
 10
279.5557068604736
 20
245.2768907529282
 30
0.0
 11
-8.499999999999985
 21
0.0
 31
0.0
210
0.0
220
0.0
230
1.0
 40
0.2352941176470057
 41
0.0
 42
6.283185307179586
  0
LINE
  5
E00ED940
330
E00DEA5D
100
AcDbEntity
  8
SUNPOU
100
AcDbLine
 10
296.0557068604736
 20
170.9229018932276
 30
0.0
 11
296.0557068604736
 21
160.9229018932276
 31
0.0
  0
LINE
  5
E00ED941
330
E00DEA5D
100
AcDbEntity
  8
JISSEN
100
AcDbLine
 10
303.5557068604735
 20
160.9229018932275
 30
0.0
 11
303.5557068604735
 21
160.5710634086282
 31
0.0
  0
ARC
  5
E00ED942
330
E00DEA5D
100
AcDbEntity
  8
JISSEN
100
AcDbCircle
 10
303.0557068604736
 20
160.5710634086282
 30
0.0
 40
0.5000000000000005
100
AcDbArc
 50
278.0000000000402
 51
0.0
  0
SPLINE
  5
E00ED943
330
E00DEA5D
100
AcDbEntity
  8
SUNPOU
100
AcDbSpline
210
0.0
220
0.0
230
1.0
 70
     8
 71
     3
 72
    11
 73
     7
 74
     5
 42
0.0000000001
 43
0.0000000001
 44
0.0000000001
 40
0.0
 40
0.0
 40
0.0
 40
0.0
 40
3.264692203133994
 40
6.15697472568029
 40
8.955271668736928
 40
10.85738683396026
 40
10.85738683396026
 40
10.85738683396026
 40
10.85738683396026
 10
328.1075749651023
 20
170.9229018932276
 30
0.0
 10
327.4324742768159
 20
169.9215029420224
 30
0.0
 10
326.1592829263179
 20
168.0329365323087
 30
0.0
 10
328.4251276426622
 20
165.1815654992395
 30
0.0
 10
326.2220104761056
 20
162.5552350014985
 30
0.0
 10
327.5643646668397
 20
161.3931590283096
 30
0.0
 10
328.1075749651023
 20
160.9229018932276
 30
0.0
 11
328.1075749651023
 21
170.9229018932276
 31
0.0
 11
326.8782345875385
 21
167.8985114724494
 31
0.0
 11
327.6504180415082
 21
165.1112133356075
 31
0.0
 11
326.9211115097001
 21
162.4096253277532
 31
0.0
 11
328.1075749651023
 21
160.9229018932276
 31
0.0
  0
LINE
  5
E00ED9CF
330
E00DEA5D
100
AcDbEntity
  8
JISSEN
100
AcDbLine
 39
1680.364539346804
 10
107.5557075844727
 20
179.5229022285368
 30
0.0
 11
106.3057075844654
 21
179.5229022285368
 31
0.0
  0
LINE
  5
E00ED9D0
330
E00DEA5D
100
AcDbEntity
  8
JISSEN
100
AcDbLine
 39
1680.364539346804
 10
107.5557075844727
 20
178.9229022285383
 30
0.0
 11
106.3057075844818
 21
178.9229022285364
 31
0.0
  0
LINE
  5
E00ED9D1
330
E00DEA5D
100
AcDbEntity
  8
JISSEN
100
AcDbLine
 39
1680.364539346804
 10
107.5557075844727
 20
178.022902228535
 30
0.0
 11
106.3057075844709
 21
178.022902228535
 31
0.0
  0
LINE
  5
E00ED9D2
330
E00DEA5D
100
AcDbEntity
  8
JISSEN
100
AcDbLine
 39
1680.364539346804
 10
107.5557075844764
 20
181.9229022285383
 30
0.0
 11
106.3057075844854
 21
181.9229022285383
 31
0.0
  0
LINE
  5
E00ED9D3
330
E00DEA5D
100
AcDbEntity
  8
JISSEN
100
AcDbLine
 39
1680.364539346804
 10
107.5557075844764
 20
181.0229022285368
 30
0.0
 11
106.3057075844691
 21
181.0229022285368
 31
0.0
  0
LINE
  5
E00ED9D4
330
E00DEA5D
100
AcDbEntity
  8
JISSEN
100
AcDbLine
 39
1680.364539346804
 10
107.5557075844727
 20
180.4229022285383
 30
0.0
 11
106.3057075844873
 21
180.4229022285383
 31
0.0
  0
LINE
  5
E00ED9D5
330
E00DEA5D
100
AcDbEntity
  8
JISSEN
100
AcDbLine
 39
1680.364539346804
 10
103.8057075844727
 20
178.022902228535
 30
0.0
 11
92.55570758447277
 21
178.022902228535
 31
0.0
  0
LINE
  5
E00ED9D6
330
E00DEA5D
100
AcDbEntity
  8
JISSEN
100
AcDbLine
 39
1680.364539346804
 10
103.8057075844727
 20
178.9229022285383
 30
0.0
 11
92.55570758447277
 21
178.9229022285383
 31
0.0
  0
LINE
  5
E00ED9D7
330
E00DEA5D
100
AcDbEntity
  8
JISSEN
100
AcDbLine
 39
1680.364539346804
 10
103.8057075844727
 20
179.5229022285368
 30
0.0
 11
92.55570758447277
 21
179.5229022285368
 31
0.0
  0
LINE
  5
E00ED9D8
330
E00DEA5D
100
AcDbEntity
  8
JISSEN
100
AcDbLine
 39
1680.364539346804
 10
103.8057075844727
 20
181.0229022285386
 30
0.0
 11
92.55570758442729
 21
181.0229022285368
 31
0.0
  0
LINE
  5
E00ED9D9
330
E00DEA5D
100
AcDbEntity
  8
JISSEN
100
AcDbLine
 39
1680.364539346804
 10
103.8057075844727
 20
180.4229022285401
 30
0.0
 11
92.55570758447277
 21
180.4229022285383
 31
0.0
  0
LINE
  5
E00ED9DA
330
E00DEA5D
100
AcDbEntity
  8
JISSEN
100
AcDbLine
 39
1680.364539346804
 10
103.8057075844727
 20
181.9229022285364
 30
0.0
 11
92.55570758442729
 21
181.9229022285346
 31
0.0
  0
LINE
  5
E00ED9DB
330
E00DEA5D
100
AcDbEntity
  8
JISSEN
100
AcDbLine
 39
1680.364539346804
 10
72.55570758447277
 20
180.4229022285383
 30
0.0
 11
73.80570758445822
 21
180.4229022285383
 31
0.0
  0
LINE
  5
E00ED9DC
330
E00DEA5D
100
AcDbEntity
  8
JISSEN
100
AcDbLine
 39
1680.364539346804
 10
72.55570758446913
 20
181.0229022285368
 30
0.0
 11
73.80570758447641
 21
181.0229022285368
 31
0.0
  0
LINE
  5
E00ED9DD
330
E00DEA5D
100
AcDbEntity
  8
JISSEN
100
AcDbLine
 39
1680.364539346804
 10
72.55570758446913
 20
181.9229022285383
 30
0.0
 11
73.80570758446004
 21
181.9229022285383
 31
0.0
  0
LINE
  5
E00ED9DE
330
E00DEA5D
100
AcDbEntity
  8
JISSEN
100
AcDbLine
 39
1680.364539346804
 10
72.55570758447277
 20
178.022902228535
 30
0.0
 11
73.80570758447459
 21
178.022902228535
 31
0.0
  0
LINE
  5
E00ED9DF
330
E00DEA5D
100
AcDbEntity
  8
JISSEN
100
AcDbLine
 39
1680.364539346804
 10
72.55570758447277
 20
178.9229022285383
 30
0.0
 11
73.80570758446367
 21
178.9229022285364
 31
0.0
  0
LINE
  5
E00ED9E0
330
E00DEA5D
100
AcDbEntity
  8
JISSEN
100
AcDbLine
 39
1680.364539346804
 10
72.55570758447277
 20
179.5229022285368
 30
0.0
 11
73.80570758448005
 21
179.5229022285368
 31
0.0
  0
LINE
  5
E00ED9E1
330
E00DEA5D
100
AcDbEntity
  8
JISSEN
100
AcDbLine
 39
1680.364539346804
 10
76.30570758447277
 20
181.9229022285364
 30
0.0
 11
87.55570758451824
 21
181.9229022285346
 31
0.0
  0
LINE
  5
E00ED9E2
330
E00DEA5D
100
AcDbEntity
  8
JISSEN
100
AcDbLine
 39
1680.364539346804
 10
76.30570758447277
 20
180.4229022285401
 30
0.0
 11
87.55570758447277
 21
180.4229022285383
 31
0.0
  0
LINE
  5
E00ED9E3
330
E00DEA5D
100
AcDbEntity
  8
JISSEN
100
AcDbLine
 39
1680.364539346804
 10
76.30570758447277
 20
181.0229022285386
 30
0.0
 11
87.55570758451824
 21
181.0229022285368
 31
0.0
  0
LINE
  5
E00ED9E4
330
E00DEA5D
100
AcDbEntity
  8
JISSEN
100
AcDbLine
 39
1680.364539346804
 10
76.30570758447277
 20
179.5229022285368
 30
0.0
 11
87.55570758447277
 21
179.5229022285368
 31
0.0
  0
LINE
  5
E00ED9E5
330
E00DEA5D
100
AcDbEntity
  8
JISSEN
100
AcDbLine
 39
1680.364539346804
 10
76.30570758447277
 20
178.9229022285383
 30
0.0
 11
87.55570758447277
 21
178.9229022285383
 31
0.0
  0
LINE
  5
E00ED9E6
330
E00DEA5D
100
AcDbEntity
  8
JISSEN
100
AcDbLine
 39
1680.364539346804
 10
76.30570758447277
 20
178.022902228535
 30
0.0
 11
87.55570758447277
 21
178.022902228535
 31
0.0
  0
LINE
  5
E00ED9E7
330
E00DEA5D
100
AcDbEntity
  8
JISSEN
100
AcDbLine
 10
103.8057075844727
 20
177.6763315095324
 30
0.0
 11
92.55570758447277
 21
177.6763315095343
 31
0.0
  0
LINE
  5
E00ED9E8
330
E00DEA5D
100
AcDbEntity
  8
JISSEN
100
AcDbLine
 10
76.30570758447277
 20
177.6763315095324
 30
0.0
 11
87.55570758447277
 21
177.6763315095343
 31
0.0
  0
LINE
  5
E00ED9E9
330
E00DEA5D
100
AcDbEntity
  8
JISSEN
100
AcDbLine
 10
72.55570758447277
 20
178.022902228535
 30
0.0
 11
72.55570758447277
 21
177.6729022285328
 31
0.0
  0
LINE
  5
E00ED9EA
330
E00DEA5D
100
AcDbEntity
  8
JISSEN
100
AcDbLine
 10
73.80570758447277
 20
177.6729022285328
 30
0.0
 11
73.80570758447277
 21
178.022902228535
 31
0.0
  0
LINE
  5
E00ED9EB
330
E00DEA5D
100
AcDbEntity
  8
JISSEN
100
AcDbLine
 10
73.80570758447277
 20
177.6729022285328
 30
0.0
 11
73.80570758447277
 21
178.022902228535
 31
0.0
  0
LINE
  5
E00ED9EC
330
E00DEA5D
100
AcDbEntity
  8
JISSEN
100
AcDbLine
 10
72.55570758447277
 20
177.6763315095324
 30
0.0
 11
73.80570758447277
 21
177.6763315095324
 31
0.0
  0
LINE
  5
E00ED9ED
330
E00DEA5D
100
AcDbEntity
  8
JISSEN
100
AcDbLine
 10
72.55570758447277
 20
177.6729022285328
 30
0.0
 11
73.05570758447277
 21
177.1729022285328
 31
0.0
  0
SPLINE
  5
E00ED9EE
330
E00DEA5D
100
AcDbEntity
  8
JISSEN
100
AcDbSpline
210
0.0
220
0.0
230
1.0
 70
     8
 71
     3
 72
     8
 73
     4
 74
     0
 42
0.0000000001
 43
0.0000000001
 40
0.0
 40
0.0
 40
0.0
 40
0.0
 40
0.0007108901684311
 40
0.0007108901684311
 40
0.0007108901684311
 40
0.0007108901684311
 10
73.80570758447277
 20
177.6763315095324
 30
0.0
 10
73.95156350343234
 20
177.509639030721
 30
0.0
 10
74.09744088963918
 20
177.3429715926051
 30
0.0
 10
74.24334170526083
 20
177.1763315095324
 30
0.0
  0
LINE
  5
E00ED9EF
330
E00DEA5D
100
AcDbEntity
  8
JISSEN
100
AcDbLine
 10
72.55570758447277
 20
182.1729022285328
 30
0.0
 11
72.55570758447277
 21
181.9229022285364
 31
0.0
  0
LINE
  5
E00ED9F0
330
E00DEA5D
100
AcDbEntity
  8
JISSEN
100
AcDbLine
 10
72.55570758447277
 20
181.0229022285368
 30
0.0
 11
72.55570758447277
 21
180.4229022285346
 31
0.0
  0
LINE
  5
E00ED9F1
330
E00DEA5D
100
AcDbEntity
  8
JISSEN
100
AcDbLine
 10
72.55570758447277
 20
181.022902228535
 30
0.0
 11
72.55570758447277
 21
180.4229022285346
 31
0.0
  0
LINE
  5
E00ED9F2
330
E00DEA5D
100
AcDbEntity
  8
JISSEN
100
AcDbLine
 10
72.55570758447277
 20
181.022902228535
 30
0.0
 11
72.55570758447277
 21
180.4229022285346
 31
0.0
  0
LINE
  5
E00ED9F3
330
E00DEA5D
100
AcDbEntity
  8
JISSEN
100
AcDbLine
 10
72.55570758447277
 20
181.0229022285368
 30
0.0
 11
72.55570758447277
 21
180.4229022285346
 31
0.0
  0
ARC
  5
E00ED9F4
330
E00DEA5D
100
AcDbEntity
  8
JISSEN
100
AcDbCircle
 10
72.36820758447095
 20
181.4729022285357
 30
0.0
 40
0.4875000000000239
100
AcDbArc
 50
292.6198649480738
 51
67.38013505192611
  0
LINE
  5
E00ED9F5
330
E00DEA5D
100
AcDbEntity
  8
JISSEN
100
AcDbLine
 10
72.55570758447277
 20
181.0229022285368
 30
0.0
 11
72.55570758447277
 21
180.4229022285383
 31
0.0
  0
LINE
  5
E00ED9F6
330
E00DEA5D
100
AcDbEntity
  8
JISSEN
100
AcDbLine
 10
73.80570758447277
 20
181.9229022285364
 30
0.0
 11
73.80570758447277
 21
182.1729022285328
 31
0.0
  0
ARC
  5
E00ED9F7
330
E00DEA5D
100
AcDbEntity
  8
JISSEN
100
AcDbCircle
 10
73.61820758447095
 20
181.4729022285339
 30
0.0
 40
0.4875000000000239
100
AcDbArc
 50
292.6198649480738
 51
67.38013505192611
  0
LINE
  5
E00ED9F8
330
E00DEA5D
100
AcDbEntity
  8
JISSEN
100
AcDbLine
 10
73.80570758447277
 20
180.4229022285364
 30
0.0
 11
73.80570758447277
 21
181.022902228535
 31
0.0
  0
LINE
  5
E00ED9F9
330
E00DEA5D
100
AcDbEntity
  8
JISSEN
100
AcDbLine
 10
73.80570758447277
 20
180.4229022285364
 30
0.0
 11
73.80570758447277
 21
181.022902228535
 31
0.0
  0
LINE
  5
E00ED9FA
330
E00DEA5D
100
AcDbEntity
  8
JISSEN
100
AcDbLine
 10
72.55570758447277
 20
179.5229022285368
 30
0.0
 11
72.55570758447277
 21
178.9229022285383
 31
0.0
  0
ARC
  5
E00ED9FB
330
E00DEA5D
100
AcDbEntity
  8
JISSEN
100
AcDbCircle
 10
72.36820758447095
 20
178.4729022285357
 30
0.0
 40
0.4875000000000239
100
AcDbArc
 50
292.6198649480738
 51
67.38013505192611
  0
LINE
  5
E00ED9FC
330
E00DEA5D
100
AcDbEntity
  8
JISSEN
100
AcDbLine
 10
72.55570758447277
 20
179.522902228535
 30
0.0
 11
72.55570758447277
 21
178.9229022285346
 31
0.0
  0
LINE
  5
E00ED9FD
330
E00DEA5D
100
AcDbEntity
  8
JISSEN
100
AcDbLine
 10
72.55570758447277
 20
179.522902228535
 30
0.0
 11
72.55570758447095
 21
178.9229022285346
 31
0.0
  0
LINE
  5
E00ED9FE
330
E00DEA5D
100
AcDbEntity
  8
JISSEN
100
AcDbLine
 10
72.55570758447277
 20
179.5229022285368
 30
0.0
 11
72.55570758447277
 21
178.9229022285346
 31
0.0
  0
LINE
  5
E00ED9FF
330
E00DEA5D
100
AcDbEntity
  8
JISSEN
100
AcDbLine
 10
72.55570758447277
 20
179.522902228535
 30
0.0
 11
72.55570758447277
 21
178.9229022285383
 31
0.0
  0
ARC
  5
E00EDA00
330
E00DEA5D
100
AcDbEntity
  8
JISSEN
100
AcDbCircle
 10
73.61820758447095
 20
178.4729022285339
 30
0.0
 40
0.4875000000000239
100
AcDbArc
 50
292.6198649480738
 51
67.38013505192611
  0
LINE
  5
E00EDA01
330
E00DEA5D
100
AcDbEntity
  8
JISSEN
100
AcDbLine
 10
73.80570758447277
 20
178.9229022285383
 30
0.0
 11
73.80570758447277
 21
179.5229022285368
 31
0.0
  0
LINE
  5
E00EDA02
330
E00DEA5D
100
AcDbEntity
  8
JISSEN
100
AcDbLine
 10
73.80570758447277
 20
178.9229022285383
 30
0.0
 11
73.80570758447277
 21
179.5229022285368
 31
0.0
  0
ARC
  5
E00EDA03
330
E00DEA5D
100
AcDbEntity
  8
JISSEN
100
AcDbCircle
 10
72.36820758447095
 20
179.9729022285357
 30
0.0
 40
0.4875000000000239
100
AcDbArc
 50
292.6198649480738
 51
67.38013505192611
  0
ARC
  5
E00EDA04
330
E00DEA5D
100
AcDbEntity
  8
JISSEN
100
AcDbCircle
 10
73.61820758447095
 20
179.9729022285339
 30
0.0
 40
0.4875000000000239
100
AcDbArc
 50
292.6198649480738
 51
67.38013505192611
  0
LINE
  5
E00EDA05
330
E00DEA5D
100
AcDbEntity
  8
JISSEN
100
AcDbLine
 10
75.11949189130167
 20
177.1729022285328
 30
0.0
 11
75.11949189130167
 21
183.0389276323169
 31
0.0
  0
LINE
  5
E00EDA06
330
E00DEA5D
100
AcDbEntity
  8
JISSEN
100
AcDbLine
 10
76.30570758447277
 20
178.022902228535
 30
0.0
 11
76.30570758447277
 21
177.6729022285328
 31
0.0
  0
SPLINE
  5
E00EDA07
330
E00DEA5D
100
AcDbEntity
  8
JISSEN
100
AcDbSpline
210
0.0
220
0.0
230
1.0
 70
     8
 71
     3
 72
     8
 73
     4
 74
     0
 42
0.0000000001
 43
0.0000000001
 40
0.0
 40
0.0
 40
0.0
 40
0.0
 40
0.0007108901684311
 40
0.0007108901684311
 40
0.0007108901684311
 40
0.0007108901684311
 10
76.74334170526083
 20
177.1729022285328
 30
0.0
 10
76.59744088963918
 20
177.3395423116055
 30
0.0
 10
76.45156350343234
 20
177.5062097497213
 30
0.0
 10
76.30570758447277
 20
177.6729022285328
 30
0.0
  0
LINE
  5
E00EDA08
330
E00DEA5D
100
AcDbEntity
  8
JISSEN
100
AcDbLine
 10
76.30570758447277
 20
182.1729022285328
 30
0.0
 11
76.305707584473
 21
181.9229022285383
 31
0.0
  0
LINE
  5
E00EDA09
330
E00DEA5D
100
AcDbEntity
  8
JISSEN
100
AcDbLine
 10
76.30570758447277
 20
181.0229022285386
 30
0.0
 11
76.30570758447277
 21
180.4229022285419
 31
0.0
  0
ARC
  5
E00EDA0A
330
E00DEA5D
100
AcDbEntity
  8
JISSEN
100
AcDbCircle
 10
76.11820758447277
 20
181.4729022285357
 30
0.0
 40
0.4875000000000239
100
AcDbArc
 50
292.6198649480738
 51
67.38013505192611
  0
LINE
  5
E00EDA0B
330
E00DEA5D
100
AcDbEntity
  8
JISSEN
100
AcDbLine
 10
76.30570758447277
 20
179.5229022285368
 30
0.0
 11
76.30570758447277
 21
178.9229022285383
 31
0.0
  0
ARC
  5
E00EDA0C
330
E00DEA5D
100
AcDbEntity
  8
JISSEN
100
AcDbCircle
 10
76.11820758447277
 20
178.4729022285357
 30
0.0
 40
0.4875000000000239
100
AcDbArc
 50
292.6198649480738
 51
67.38013505192611
  0
ARC
  5
E00EDA0D
330
E00DEA5D
100
AcDbEntity
  8
JISSEN
100
AcDbCircle
 10
76.11820758447277
 20
179.9729022285357
 30
0.0
 40
0.4875000000000239
100
AcDbArc
 50
292.6198649480738
 51
67.38013505192611
  0
LINE
  5
E00EDA0E
330
E00DEA5D
100
AcDbEntity
  8
JISSEN
100
AcDbLine
 10
87.55570758447277
 20
177.1729022285328
 30
0.0
 11
87.55570758447277
 21
183.0389276323169
 31
0.0
  0
LINE
  5
E00EDA0F
330
E00DEA5D
100
AcDbEntity
  8
JISSEN
100
AcDbLine
 10
92.55570758447277
 20
177.1729022285328
 30
0.0
 11
92.55570758447277
 21
183.0389276323169
 31
0.0
  0
LINE
  5
E00EDA10
330
E00DEA5D
100
AcDbEntity
  8
JISSEN
100
AcDbLine
 10
103.8057075844727
 20
178.022902228535
 30
0.0
 11
103.8057075844727
 21
177.6729022285328
 31
0.0
  0
LINE
  5
E00EDA11
330
E00DEA5D
100
AcDbEntity
  8
JISSEN
100
AcDbLine
 10
104.9919232776438
 20
177.1729022285328
 30
0.0
 11
104.9919232776438
 21
183.0389276323169
 31
0.0
  0
LINE
  5
E00EDA12
330
E00DEA5D
100
AcDbEntity
  8
JISSEN
100
AcDbLine
 10
106.3057075844727
 20
177.6729022285328
 30
0.0
 11
106.3057075844727
 21
178.022902228535
 31
0.0
  0
LINE
  5
E00EDA13
330
E00DEA5D
100
AcDbEntity
  8
JISSEN
100
AcDbLine
 10
106.3057075844727
 20
177.6729022285328
 30
0.0
 11
106.3057075844727
 21
178.022902228535
 31
0.0
  0
LINE
  5
E00EDA14
330
E00DEA5D
100
AcDbEntity
  8
JISSEN
100
AcDbLine
 10
107.5557075844727
 20
178.022902228535
 30
0.0
 11
107.5557075844727
 21
177.6729022285328
 31
0.0
  0
LINE
  5
E00EDA15
330
E00DEA5D
100
AcDbEntity
  8
JISSEN
100
AcDbLine
 10
107.5557075844727
 20
177.6763315095324
 30
0.0
 11
106.3057075844727
 21
177.6763315095324
 31
0.0
  0
SPLINE
  5
E00EDA16
330
E00DEA5D
100
AcDbEntity
  8
JISSEN
100
AcDbSpline
210
0.0
220
0.0
230
1.0
 70
     8
 71
     3
 72
     8
 73
     4
 74
     0
 42
0.0000000001
 43
0.0000000001
 40
0.0
 40
0.0
 40
0.0
 40
0.0
 40
0.0007108901684311
 40
0.0007108901684311
 40
0.0007108901684311
 40
0.0007108901684311
 10
103.3680734636847
 20
177.1729022285328
 30
0.0
 10
103.5139742793063
 20
177.3395423116055
 30
0.0
 10
103.6598516655132
 20
177.5062097497213
 30
0.0
 10
103.8057075844727
 20
177.6729022285328
 30
0.0
  0
SPLINE
  5
E00EDA17
330
E00DEA5D
100
AcDbEntity
  8
JISSEN
100
AcDbSpline
210
0.0
220
0.0
230
1.0
 70
     8
 71
     3
 72
     8
 73
     4
 74
     0
 42
0.0000000001
 43
0.0000000001
 40
0.0
 40
0.0
 40
0.0
 40
0.0
 40
0.0007108901684311
 40
0.0007108901684311
 40
0.0007108901684311
 40
0.0007108901684311
 10
106.3057075844727
 20
177.6763315095324
 30
0.0
 10
106.1598516655132
 20
177.509639030721
 30
0.0
 10
106.0139742793063
 20
177.3429715926051
 30
0.0
 10
105.8680734636847
 20
177.1763315095324
 30
0.0
  0
LINE
  5
E00EDA18
330
E00DEA5D
100
AcDbEntity
  8
JISSEN
100
AcDbLine
 10
107.5557075844727
 20
177.6729022285328
 30
0.0
 11
107.0557075844727
 21
177.1729022285328
 31
0.0
  0
ARC
  5
E00EDA19
330
E00DEA5D
100
AcDbEntity
  8
JISSEN
100
AcDbCircle
 10
103.9932075844727
 20
178.4729022285357
 30
0.0
 40
0.4875000000000239
100
AcDbArc
 50
112.6198649480738
 51
247.3801350519261
  0
ARC
  5
E00EDA1A
330
E00DEA5D
100
AcDbEntity
  8
JISSEN
100
AcDbCircle
 10
103.9932075844727
 20
179.9729022285357
 30
0.0
 40
0.4875000000000239
100
AcDbArc
 50
112.6198649480738
 51
247.3801350519261
  0
LINE
  5
E00EDA1B
330
E00DEA5D
100
AcDbEntity
  8
JISSEN
100
AcDbLine
 10
103.8057075844727
 20
179.5229022285368
 30
0.0
 11
103.8057075844727
 21
178.9229022285383
 31
0.0
  0
ARC
  5
E00EDA1C
330
E00DEA5D
100
AcDbEntity
  8
JISSEN
100
AcDbCircle
 10
103.9932075844727
 20
181.4729022285357
 30
0.0
 40
0.4875000000000239
100
AcDbArc
 50
112.6198649480738
 51
247.3801350519261
  0
LINE
  5
E00EDA1D
330
E00DEA5D
100
AcDbEntity
  8
JISSEN
100
AcDbLine
 10
103.8057075844727
 20
181.0229022285386
 30
0.0
 11
103.8057075844727
 21
180.4229022285419
 31
0.0
  0
LINE
  5
E00EDA1E
330
E00DEA5D
100
AcDbEntity
  8
JISSEN
100
AcDbLine
 10
103.8057075844727
 20
182.1729022285328
 30
0.0
 11
103.8057075844725
 21
181.9229022285383
 31
0.0
  0
ARC
  5
E00EDA1F
330
E00DEA5D
100
AcDbEntity
  8
JISSEN
100
AcDbCircle
 10
106.4932075844745
 20
179.9729022285339
 30
0.0
 40
0.4875000000000239
100
AcDbArc
 50
112.6198649480738
 51
247.3801350519261
  0
LINE
  5
E00EDA20
330
E00DEA5D
100
AcDbEntity
  8
JISSEN
100
AcDbLine
 10
106.3057075844727
 20
178.9229022285383
 30
0.0
 11
106.3057075844727
 21
179.5229022285368
 31
0.0
  0
LINE
  5
E00EDA21
330
E00DEA5D
100
AcDbEntity
  8
JISSEN
100
AcDbLine
 10
106.3057075844727
 20
178.9229022285383
 30
0.0
 11
106.3057075844727
 21
179.5229022285368
 31
0.0
  0
ARC
  5
E00EDA22
330
E00DEA5D
100
AcDbEntity
  8
JISSEN
100
AcDbCircle
 10
106.4932075844745
 20
178.4729022285339
 30
0.0
 40
0.4875000000000239
100
AcDbArc
 50
112.6198649480738
 51
247.3801350519261
  0
LINE
  5
E00EDA23
330
E00DEA5D
100
AcDbEntity
  8
JISSEN
100
AcDbLine
 10
106.3057075844727
 20
180.4229022285364
 30
0.0
 11
106.3057075844727
 21
181.022902228535
 31
0.0
  0
LINE
  5
E00EDA24
330
E00DEA5D
100
AcDbEntity
  8
JISSEN
100
AcDbLine
 10
106.3057075844727
 20
180.4229022285364
 30
0.0
 11
106.3057075844727
 21
181.022902228535
 31
0.0
  0
ARC
  5
E00EDA25
330
E00DEA5D
100
AcDbEntity
  8
JISSEN
100
AcDbCircle
 10
106.4932075844745
 20
181.4729022285339
 30
0.0
 40
0.4875000000000239
100
AcDbArc
 50
112.6198649480738
 51
247.3801350519261
  0
LINE
  5
E00EDA26
330
E00DEA5D
100
AcDbEntity
  8
JISSEN
100
AcDbLine
 10
106.3057075844727
 20
181.9229022285364
 30
0.0
 11
106.3057075844727
 21
182.1729022285328
 31
0.0
  0
ARC
  5
E00EDA27
330
E00DEA5D
100
AcDbEntity
  8
JISSEN
100
AcDbCircle
 10
107.7432075844745
 20
179.9729022285357
 30
0.0
 40
0.4875000000000239
100
AcDbArc
 50
112.6198649480738
 51
247.3801350519261
  0
LINE
  5
E00EDA28
330
E00DEA5D
100
AcDbEntity
  8
JISSEN
100
AcDbLine
 10
107.5557075844727
 20
179.522902228535
 30
0.0
 11
107.5557075844727
 21
178.9229022285383
 31
0.0
  0
LINE
  5
E00EDA29
330
E00DEA5D
100
AcDbEntity
  8
JISSEN
100
AcDbLine
 10
107.5557075844727
 20
179.5229022285368
 30
0.0
 11
107.5557075844727
 21
178.9229022285346
 31
0.0
  0
LINE
  5
E00EDA2A
330
E00DEA5D
100
AcDbEntity
  8
JISSEN
100
AcDbLine
 10
107.5557075844727
 20
179.522902228535
 30
0.0
 11
107.5557075844745
 21
178.9229022285346
 31
0.0
  0
LINE
  5
E00EDA2B
330
E00DEA5D
100
AcDbEntity
  8
JISSEN
100
AcDbLine
 10
107.5557075844727
 20
179.522902228535
 30
0.0
 11
107.5557075844727
 21
178.9229022285346
 31
0.0
  0
ARC
  5
E00EDA2C
330
E00DEA5D
100
AcDbEntity
  8
JISSEN
100
AcDbCircle
 10
107.7432075844745
 20
178.4729022285357
 30
0.0
 40
0.4875000000000239
100
AcDbArc
 50
112.6198649480738
 51
247.3801350519261
  0
LINE
  5
E00EDA2D
330
E00DEA5D
100
AcDbEntity
  8
JISSEN
100
AcDbLine
 10
107.5557075844727
 20
179.5229022285368
 30
0.0
 11
107.5557075844727
 21
178.9229022285383
 31
0.0
  0
LINE
  5
E00EDA2E
330
E00DEA5D
100
AcDbEntity
  8
JISSEN
100
AcDbLine
 10
107.5557075844727
 20
181.0229022285368
 30
0.0
 11
107.5557075844727
 21
180.4229022285383
 31
0.0
  0
ARC
  5
E00EDA2F
330
E00DEA5D
100
AcDbEntity
  8
JISSEN
100
AcDbCircle
 10
107.7432075844745
 20
181.4729022285357
 30
0.0
 40
0.4875000000000239
100
AcDbArc
 50
112.6198649480738
 51
247.3801350519261
  0
LINE
  5
E00EDA30
330
E00DEA5D
100
AcDbEntity
  8
JISSEN
100
AcDbLine
 10
107.5557075844727
 20
181.0229022285368
 30
0.0
 11
107.5557075844727
 21
180.4229022285346
 31
0.0
  0
LINE
  5
E00EDA31
330
E00DEA5D
100
AcDbEntity
  8
JISSEN
100
AcDbLine
 10
107.5557075844727
 20
181.022902228535
 30
0.0
 11
107.5557075844727
 21
180.4229022285346
 31
0.0
  0
LINE
  5
E00EDA32
330
E00DEA5D
100
AcDbEntity
  8
JISSEN
100
AcDbLine
 10
107.5557075844727
 20
181.022902228535
 30
0.0
 11
107.5557075844727
 21
180.4229022285346
 31
0.0
  0
LINE
  5
E00EDA33
330
E00DEA5D
100
AcDbEntity
  8
JISSEN
100
AcDbLine
 10
107.5557075844727
 20
181.0229022285368
 30
0.0
 11
107.5557075844727
 21
180.4229022285346
 31
0.0
  0
LINE
  5
E00EDA34
330
E00DEA5D
100
AcDbEntity
  8
JISSEN
100
AcDbLine
 10
107.5557075844727
 20
182.1729022285328
 30
0.0
 11
107.5557075844727
 21
181.9229022285364
 31
0.0
  0
LINE
  5
E00EDA35
330
E00DEA5D
100
AcDbEntity
  8
JISSEN
100
AcDbLine
 10
90.05570758447277
 20
177.1729022285328
 30
0.0
 11
103.3680734636738
 21
177.1729022285328
 31
0.0
  0
LINE
  5
E00EDA36
330
E00DEA5D
100
AcDbEntity
  8
JISSEN
100
AcDbLine
 10
90.05570758447277
 20
177.1729022285328
 30
0.0
 11
76.74334170527174
 21
177.1729022285328
 31
0.0
  0
LINE
  5
E00EDA37
330
E00DEA5D
100
AcDbEntity
  8
JISSEN
100
AcDbLine
 10
75.1194918913726
 20
177.1729022285328
 30
0.0
 11
76.74334170527174
 21
177.1729022285328
 31
0.0
  0
LINE
  5
E00EDA38
330
E00DEA5D
100
AcDbEntity
  8
JISSEN
100
AcDbLine
 39
1680.364539346804
 10
72.55570758447277
 20
182.1729022285328
 30
0.0
 11
73.80570758447277
 21
182.1729022285328
 31
0.0
  0
LINE
  5
E00EDA39
330
E00DEA5D
100
AcDbEntity
  8
JISSEN
100
AcDbLine
 10
74.28775839205548
 20
183.1729022285328
 30
0.0
 11
90.05570758447277
 21
183.1729022285328
 31
0.0
  0
SPLINE
  5
E00EDA3A
330
E00DEA5D
100
AcDbEntity
  8
JISSEN
100
AcDbSpline
210
0.0
220
0.0
230
1.0
 70
     8
 71
     3
 72
     8
 73
     4
 74
     0
 42
0.0000000001
 43
0.0000000001
 40
0.000000403112789
 40
0.000000403112789
 40
0.000000403112789
 40
0.000000403112789
 40
0.0017472208689273
 40
0.0017472208689273
 40
0.0017472208689273
 40
0.0017472208689273
 10
73.80570758447277
 20
182.1729022285328
 30
0.0
 10
74.24353034656371
 20
182.4617903308774
 30
0.0
 10
74.68144860419591
 20
182.7504856072103
 30
0.0
 10
75.11949189130167
 20
183.0389276323169
 30
0.0
  0
LINE
  5
E00EDA3B
330
E00DEA5D
100
AcDbEntity
  8
JISSEN
100
AcDbLine
 10
74.24334170527174
 20
177.1729022285328
 30
0.0
 11
75.1194918913726
 21
177.1729022285328
 31
0.0
  0
LINE
  5
E00EDA3C
330
E00DEA5D
100
AcDbEntity
  8
JISSEN
100
AcDbLine
 10
74.24334170527174
 20
177.1729022285328
 30
0.0
 11
73.05570758447277
 21
177.1729022285328
 31
0.0
  0
LINE
  5
E00EDA3D
330
E00DEA5D
100
AcDbEntity
  8
JISSEN
100
AcDbLine
 10
74.2877583920573
 20
183.1729022285328
 30
0.0
 11
72.55570758447277
 21
182.172902228531
 31
0.0
  0
LINE
  5
E00EDA3E
330
E00DEA5D
100
AcDbEntity
  8
JISSEN
100
AcDbLine
 10
73.80570758447277
 20
182.1229022285408
 30
0.0
 11
73.80570758447277
 21
182.1729022285328
 31
0.0
  0
SPLINE
  5
E00EDA3F
330
E00DEA5D
100
AcDbEntity
  8
JISSEN
100
AcDbSpline
210
0.0
220
0.0
230
1.0
 70
     8
 71
     3
 72
     8
 73
     4
 74
     0
 42
0.0000000001
 43
0.0000000001
 40
0.0000002658515791
 40
0.0000002658515791
 40
0.0000002658515791
 40
0.0000002658515791
 40
0.0017470836077175
 40
0.0017470836077175
 40
0.0017470836077175
 40
0.0017470836077175
 10
77.61949189130167
 20
183.0389276323169
 30
0.0
 10
77.18144860419591
 20
182.7504856072103
 30
0.0
 10
76.74353034656371
 20
182.4617903308774
 30
0.0
 10
76.30570758447277
 20
182.1729022285328
 30
0.0
  0
LINE
  5
E00EDA40
330
E00DEA5D
100
AcDbEntity
  8
JISSEN
100
AcDbLine
 10
75.11949189130167
 20
183.0389276323169
 30
0.0
 11
77.61949189130167
 21
183.0389276323169
 31
0.0
  0
LINE
  5
E00EDA41
330
E00DEA5D
100
AcDbEntity
  8
JISSEN
100
AcDbLine
 39
1680.364539346804
 10
107.5557075844727
 20
182.1729022285328
 30
0.0
 11
106.3057075844727
 21
182.1729022285328
 31
0.0
  0
LINE
  5
E00EDA42
330
E00DEA5D
100
AcDbEntity
  8
JISSEN
100
AcDbLine
 39
1680.364539346804
 10
103.8057075844727
 20
182.1729022286183
 30
0.0
 11
92.55570758442729
 21
182.1729022286165
 31
0.0
  0
LINE
  5
E00EDA43
330
E00DEA5D
100
AcDbEntity
  8
JISSEN
100
AcDbLine
 10
87.55570758447277
 20
183.0389276323169
 30
0.0
 11
90.05570758447277
 21
183.0389276323169
 31
0.0
  0
LINE
  5
E00EDA44
330
E00DEA5D
100
AcDbEntity
  8
JISSEN
100
AcDbLine
 10
92.55570758447277
 20
183.0389276323169
 30
0.0
 11
90.05570758447277
 21
183.0389276323169
 31
0.0
  0
LINE
  5
E00EDA45
330
E00DEA5D
100
AcDbEntity
  8
JISSEN
100
AcDbLine
 10
104.9919232776438
 20
183.0389276323169
 30
0.0
 11
102.4919232776438
 21
183.0389276323169
 31
0.0
  0
SPLINE
  5
E00EDA46
330
E00DEA5D
100
AcDbEntity
  8
JISSEN
100
AcDbSpline
210
0.0
220
0.0
230
1.0
 70
     8
 71
     3
 72
     8
 73
     4
 74
     0
 42
0.0000000001
 43
0.0000000001
 40
0.0000002658515791
 40
0.0000002658515791
 40
0.0000002658515791
 40
0.0000002658515791
 40
0.0017470836077175
 40
0.0017470836077175
 40
0.0017470836077175
 40
0.0017470836077175
 10
102.4919232776438
 20
183.0389276323169
 30
0.0
 10
102.9299665647496
 20
182.7504856072103
 30
0.0
 10
103.3678848223818
 20
182.4617903308774
 30
0.0
 10
103.8057075844727
 20
182.1729022285328
 30
0.0
  0
LINE
  5
E00EDA47
330
E00DEA5D
100
AcDbEntity
  8
JISSEN
100
AcDbLine
 10
105.8236567768882
 20
183.1729022285328
 30
0.0
 11
107.5557075844727
 21
182.172902228531
 31
0.0
  0
LINE
  5
E00EDA48
330
E00DEA5D
100
AcDbEntity
  8
JISSEN
100
AcDbLine
 10
106.3057075844727
 20
182.1229022285408
 30
0.0
 11
106.3057075844727
 21
182.1729022285328
 31
0.0
  0
SPLINE
  5
E00EDA49
330
E00DEA5D
100
AcDbEntity
  8
JISSEN
100
AcDbSpline
210
0.0
220
0.0
230
1.0
 70
     8
 71
     3
 72
     8
 73
     4
 74
     0
 42
0.0000000001
 43
0.0000000001
 40
0.000000403112789
 40
0.000000403112789
 40
0.000000403112789
 40
0.000000403112789
 40
0.0017472208689273
 40
0.0017472208689273
 40
0.0017472208689273
 40
0.0017472208689273
 10
106.3057075844727
 20
182.1729022285328
 30
0.0
 10
105.8678848223818
 20
182.4617903308774
 30
0.0
 10
105.4299665647496
 20
182.7504856072103
 30
0.0
 10
104.9919232776438
 20
183.0389276323169
 30
0.0
  0
LINE
  5
E00EDA4A
330
E00DEA5D
100
AcDbEntity
  8
JISSEN
100
AcDbLine
 10
107.5557075844727
 20
182.1729022285328
 30
0.0
 11
107.5557075844727
 21
182.1229022285335
 31
0.0
  0
LINE
  5
E00EDA4B
330
E00DEA5D
100
AcDbEntity
  8
JISSEN
100
AcDbLine
 10
107.5557075844727
 20
182.1729022285328
 30
0.0
 11
107.5557075844727
 21
182.1229022285335
 31
0.0
  0
LINE
  5
E00EDA4C
330
E00DEA5D
100
AcDbEntity
  8
JISSEN
100
AcDbLine
 10
105.82365677689
 20
183.1729022285328
 30
0.0
 11
90.05570758447277
 21
183.1729022285328
 31
0.0
  0
LINE
  5
E00EDA4D
330
E00DEA5D
100
AcDbEntity
  8
JISSEN
100
AcDbLine
 10
105.8680734636737
 20
177.1729022285328
 30
0.0
 11
107.0557075844727
 21
177.1729022285328
 31
0.0
  0
LINE
  5
E00EDA4E
330
E00DEA5D
100
AcDbEntity
  8
JISSEN
100
AcDbLine
 10
105.8680734636737
 20
177.1729022285328
 30
0.0
 11
104.9919232775729
 21
177.1729022285328
 31
0.0
  0
LINE
  5
E00EDA4F
330
E00DEA5D
100
AcDbEntity
  8
JISSEN
100
AcDbLine
 10
104.9919232775729
 20
177.1729022285328
 30
0.0
 11
103.3680734636738
 21
177.1729022285328
 31
0.0
  0
LINE
  5
E00EDAD5
330
E00DEA5D
100
AcDbEntity
  8
JISSEN
100
AcDbLine
 39
1680.364539346804
 10
288.5557068604727
 20
179.522902228535
 30
0.0
 11
287.3057068604654
 21
179.522902228535
 31
0.0
  0
LINE
  5
E00EDAD6
330
E00DEA5D
100
AcDbEntity
  8
JISSEN
100
AcDbLine
 39
1680.364539346804
 10
288.5557068604727
 20
178.9229022285364
 30
0.0
 11
287.3057068604818
 21
178.9229022285346
 31
0.0
  0
LINE
  5
E00EDAD7
330
E00DEA5D
100
AcDbEntity
  8
JISSEN
100
AcDbLine
 39
1680.364539346804
 10
288.5557068604727
 20
178.0229022285332
 30
0.0
 11
287.3057068604708
 21
178.0229022285332
 31
0.0
  0
LINE
  5
E00EDAD8
330
E00DEA5D
100
AcDbEntity
  8
JISSEN
100
AcDbLine
 39
1680.364539346804
 10
288.5557068604763
 20
181.9229022285364
 30
0.0
 11
287.3057068604854
 21
181.9229022285364
 31
0.0
  0
LINE
  5
E00EDAD9
330
E00DEA5D
100
AcDbEntity
  8
JISSEN
100
AcDbLine
 39
1680.364539346804
 10
288.5557068604763
 20
181.022902228535
 30
0.0
 11
287.305706860469
 21
181.022902228535
 31
0.0
  0
LINE
  5
E00EDADA
330
E00DEA5D
100
AcDbEntity
  8
JISSEN
100
AcDbLine
 39
1680.364539346804
 10
288.5557068604727
 20
180.4229022285364
 30
0.0
 11
287.3057068604872
 21
180.4229022285364
 31
0.0
  0
LINE
  5
E00EDADB
330
E00DEA5D
100
AcDbEntity
  8
JISSEN
100
AcDbLine
 39
1680.364539346804
 10
284.8057068604727
 20
178.0229022285332
 30
0.0
 11
273.5557068604726
 21
178.0229022285332
 31
0.0
  0
LINE
  5
E00EDADC
330
E00DEA5D
100
AcDbEntity
  8
JISSEN
100
AcDbLine
 39
1680.364539346804
 10
284.8057068604727
 20
178.9229022285364
 30
0.0
 11
273.5557068604726
 21
178.9229022285364
 31
0.0
  0
LINE
  5
E00EDADD
330
E00DEA5D
100
AcDbEntity
  8
JISSEN
100
AcDbLine
 39
1680.364539346804
 10
284.8057068604727
 20
179.522902228535
 30
0.0
 11
273.5557068604726
 21
179.522902228535
 31
0.0
  0
LINE
  5
E00EDADE
330
E00DEA5D
100
AcDbEntity
  8
JISSEN
100
AcDbLine
 39
1680.364539346804
 10
284.8057068604727
 20
181.0229022285368
 30
0.0
 11
273.5557068604272
 21
181.022902228535
 31
0.0
  0
LINE
  5
E00EDADF
330
E00DEA5D
100
AcDbEntity
  8
JISSEN
100
AcDbLine
 39
1680.364539346804
 10
284.8057068604727
 20
180.4229022285383
 30
0.0
 11
273.5557068604726
 21
180.4229022285364
 31
0.0
  0
LINE
  5
E00EDAE0
330
E00DEA5D
100
AcDbEntity
  8
JISSEN
100
AcDbLine
 39
1680.364539346804
 10
284.8057068604727
 20
181.9229022285346
 30
0.0
 11
273.5557068604272
 21
181.9229022285328
 31
0.0
  0
LINE
  5
E00EDAE1
330
E00DEA5D
100
AcDbEntity
  8
JISSEN
100
AcDbLine
 39
1680.364539346804
 10
253.5557068604727
 20
180.4229022285364
 30
0.0
 11
254.8057068604581
 21
180.4229022285364
 31
0.0
  0
LINE
  5
E00EDAE2
330
E00DEA5D
100
AcDbEntity
  8
JISSEN
100
AcDbLine
 39
1680.364539346804
 10
253.555706860469
 20
181.022902228535
 30
0.0
 11
254.8057068604763
 21
181.022902228535
 31
0.0
  0
LINE
  5
E00EDAE3
330
E00DEA5D
100
AcDbEntity
  8
JISSEN
100
AcDbLine
 39
1680.364539346804
 10
253.555706860469
 20
181.9229022285364
 30
0.0
 11
254.8057068604599
 21
181.9229022285364
 31
0.0
  0
LINE
  5
E00EDAE4
330
E00DEA5D
100
AcDbEntity
  8
JISSEN
100
AcDbLine
 39
1680.364539346804
 10
253.5557068604727
 20
178.0229022285332
 30
0.0
 11
254.8057068604745
 21
178.0229022285332
 31
0.0
  0
LINE
  5
E00EDAE5
330
E00DEA5D
100
AcDbEntity
  8
JISSEN
100
AcDbLine
 39
1680.364539346804
 10
253.5557068604727
 20
178.9229022285364
 30
0.0
 11
254.8057068604636
 21
178.9229022285346
 31
0.0
  0
LINE
  5
E00EDAE6
330
E00DEA5D
100
AcDbEntity
  8
JISSEN
100
AcDbLine
 39
1680.364539346804
 10
253.5557068604727
 20
179.522902228535
 30
0.0
 11
254.8057068604799
 21
179.522902228535
 31
0.0
  0
LINE
  5
E00EDAE7
330
E00DEA5D
100
AcDbEntity
  8
JISSEN
100
AcDbLine
 39
1680.364539346804
 10
257.3057068604727
 20
181.9229022285346
 30
0.0
 11
268.5557068605181
 21
181.9229022285328
 31
0.0
  0
LINE
  5
E00EDAE8
330
E00DEA5D
100
AcDbEntity
  8
JISSEN
100
AcDbLine
 39
1680.364539346804
 10
257.3057068604727
 20
180.4229022285383
 30
0.0
 11
268.5557068604726
 21
180.4229022285364
 31
0.0
  0
LINE
  5
E00EDAE9
330
E00DEA5D
100
AcDbEntity
  8
JISSEN
100
AcDbLine
 39
1680.364539346804
 10
257.3057068604727
 20
181.0229022285368
 30
0.0
 11
268.5557068605181
 21
181.022902228535
 31
0.0
  0
LINE
  5
E00EDAEA
330
E00DEA5D
100
AcDbEntity
  8
JISSEN
100
AcDbLine
 39
1680.364539346804
 10
257.3057068604727
 20
179.522902228535
 30
0.0
 11
268.5557068604726
 21
179.522902228535
 31
0.0
  0
LINE
  5
E00EDAEB
330
E00DEA5D
100
AcDbEntity
  8
JISSEN
100
AcDbLine
 39
1680.364539346804
 10
257.3057068604727
 20
178.9229022285364
 30
0.0
 11
268.5557068604726
 21
178.9229022285364
 31
0.0
  0
LINE
  5
E00EDAEC
330
E00DEA5D
100
AcDbEntity
  8
JISSEN
100
AcDbLine
 39
1680.364539346804
 10
257.3057068604727
 20
178.0229022285332
 30
0.0
 11
268.5557068604726
 21
178.0229022285332
 31
0.0
  0
LINE
  5
E00EDAED
330
E00DEA5D
100
AcDbEntity
  8
JISSEN
100
AcDbLine
 10
284.8057068604727
 20
177.6763315095306
 30
0.0
 11
273.5557068604726
 21
177.6763315095324
 31
0.0
  0
LINE
  5
E00EDAEE
330
E00DEA5D
100
AcDbEntity
  8
JISSEN
100
AcDbLine
 10
257.3057068604727
 20
177.6763315095306
 30
0.0
 11
268.5557068604726
 21
177.6763315095324
 31
0.0
  0
LINE
  5
E00EDAEF
330
E00DEA5D
100
AcDbEntity
  8
JISSEN
100
AcDbLine
 10
253.5557068604727
 20
178.0229022285332
 30
0.0
 11
253.5557068604727
 21
177.672902228531
 31
0.0
  0
LINE
  5
E00EDAF0
330
E00DEA5D
100
AcDbEntity
  8
JISSEN
100
AcDbLine
 10
254.8057068604726
 20
177.672902228531
 30
0.0
 11
254.8057068604726
 21
178.0229022285332
 31
0.0
  0
LINE
  5
E00EDAF1
330
E00DEA5D
100
AcDbEntity
  8
JISSEN
100
AcDbLine
 10
254.8057068604726
 20
177.672902228531
 30
0.0
 11
254.8057068604726
 21
178.0229022285332
 31
0.0
  0
LINE
  5
E00EDAF2
330
E00DEA5D
100
AcDbEntity
  8
JISSEN
100
AcDbLine
 10
253.5557068604727
 20
177.6763315095306
 30
0.0
 11
254.8057068604726
 21
177.6763315095306
 31
0.0
  0
LINE
  5
E00EDAF3
330
E00DEA5D
100
AcDbEntity
  8
JISSEN
100
AcDbLine
 10
253.5557068604727
 20
177.672902228531
 30
0.0
 11
254.0557068604726
 21
177.172902228531
 31
0.0
  0
SPLINE
  5
E00EDAF4
330
E00DEA5D
100
AcDbEntity
  8
JISSEN
100
AcDbSpline
210
0.0
220
0.0
230
1.0
 70
     8
 71
     3
 72
     8
 73
     4
 74
     0
 42
0.0000000001
 43
0.0000000001
 40
0.0
 40
0.0
 40
0.0
 40
0.0
 40
0.0007108901684311
 40
0.0007108901684311
 40
0.0007108901684311
 40
0.0007108901684311
 10
254.8057068604726
 20
177.6763315095306
 30
0.0
 10
254.9515627794322
 20
177.5096390307192
 30
0.0
 10
255.0974401656391
 20
177.3429715926033
 30
0.0
 10
255.2433409812607
 20
177.1763315095306
 30
0.0
  0
LINE
  5
E00EDAF5
330
E00DEA5D
100
AcDbEntity
  8
JISSEN
100
AcDbLine
 10
253.5557068604727
 20
182.172902228531
 30
0.0
 11
253.5557068604727
 21
181.9229022285346
 31
0.0
  0
LINE
  5
E00EDAF6
330
E00DEA5D
100
AcDbEntity
  8
JISSEN
100
AcDbLine
 10
253.5557068604727
 20
181.022902228535
 30
0.0
 11
253.5557068604727
 21
180.4229022285328
 31
0.0
  0
LINE
  5
E00EDAF7
330
E00DEA5D
100
AcDbEntity
  8
JISSEN
100
AcDbLine
 10
253.5557068604727
 20
181.0229022285332
 30
0.0
 11
253.5557068604727
 21
180.4229022285328
 31
0.0
  0
LINE
  5
E00EDAF8
330
E00DEA5D
100
AcDbEntity
  8
JISSEN
100
AcDbLine
 10
253.5557068604727
 20
181.0229022285332
 30
0.0
 11
253.5557068604727
 21
180.4229022285328
 31
0.0
  0
LINE
  5
E00EDAF9
330
E00DEA5D
100
AcDbEntity
  8
JISSEN
100
AcDbLine
 10
253.5557068604727
 20
181.022902228535
 30
0.0
 11
253.5557068604727
 21
180.4229022285328
 31
0.0
  0
ARC
  5
E00EDAFA
330
E00DEA5D
100
AcDbEntity
  8
JISSEN
100
AcDbCircle
 10
253.3682068604708
 20
181.4729022285339
 30
0.0
 40
0.4875000000000239
100
AcDbArc
 50
292.6198649480738
 51
67.38013505192611
  0
LINE
  5
E00EDAFB
330
E00DEA5D
100
AcDbEntity
  8
JISSEN
100
AcDbLine
 10
253.5557068604727
 20
181.022902228535
 30
0.0
 11
253.5557068604727
 21
180.4229022285364
 31
0.0
  0
LINE
  5
E00EDAFC
330
E00DEA5D
100
AcDbEntity
  8
JISSEN
100
AcDbLine
 10
254.8057068604726
 20
181.9229022285346
 30
0.0
 11
254.8057068604726
 21
182.172902228531
 31
0.0
  0
ARC
  5
E00EDAFD
330
E00DEA5D
100
AcDbEntity
  8
JISSEN
100
AcDbCircle
 10
254.6182068604708
 20
181.4729022285321
 30
0.0
 40
0.4875000000000239
100
AcDbArc
 50
292.6198649480738
 51
67.38013505192611
  0
LINE
  5
E00EDAFE
330
E00DEA5D
100
AcDbEntity
  8
JISSEN
100
AcDbLine
 10
254.8057068604726
 20
180.4229022285346
 30
0.0
 11
254.8057068604726
 21
181.0229022285332
 31
0.0
  0
LINE
  5
E00EDAFF
330
E00DEA5D
100
AcDbEntity
  8
JISSEN
100
AcDbLine
 10
254.8057068604726
 20
180.4229022285346
 30
0.0
 11
254.8057068604726
 21
181.0229022285332
 31
0.0
  0
LINE
  5
E00EDB00
330
E00DEA5D
100
AcDbEntity
  8
JISSEN
100
AcDbLine
 10
253.5557068604727
 20
179.522902228535
 30
0.0
 11
253.5557068604727
 21
178.9229022285364
 31
0.0
  0
ARC
  5
E00EDB01
330
E00DEA5D
100
AcDbEntity
  8
JISSEN
100
AcDbCircle
 10
253.3682068604708
 20
178.4729022285339
 30
0.0
 40
0.4875000000000239
100
AcDbArc
 50
292.6198649480738
 51
67.38013505192611
  0
LINE
  5
E00EDB02
330
E00DEA5D
100
AcDbEntity
  8
JISSEN
100
AcDbLine
 10
253.5557068604727
 20
179.5229022285332
 30
0.0
 11
253.5557068604727
 21
178.9229022285328
 31
0.0
  0
LINE
  5
E00EDB03
330
E00DEA5D
100
AcDbEntity
  8
JISSEN
100
AcDbLine
 10
253.5557068604727
 20
179.5229022285332
 30
0.0
 11
253.5557068604708
 21
178.9229022285328
 31
0.0
  0
LINE
  5
E00EDB04
330
E00DEA5D
100
AcDbEntity
  8
JISSEN
100
AcDbLine
 10
253.5557068604727
 20
179.522902228535
 30
0.0
 11
253.5557068604727
 21
178.9229022285328
 31
0.0
  0
LINE
  5
E00EDB05
330
E00DEA5D
100
AcDbEntity
  8
JISSEN
100
AcDbLine
 10
253.5557068604727
 20
179.5229022285332
 30
0.0
 11
253.5557068604727
 21
178.9229022285364
 31
0.0
  0
ARC
  5
E00EDB06
330
E00DEA5D
100
AcDbEntity
  8
JISSEN
100
AcDbCircle
 10
254.6182068604708
 20
178.4729022285321
 30
0.0
 40
0.4875000000000239
100
AcDbArc
 50
292.6198649480738
 51
67.38013505192611
  0
LINE
  5
E00EDB07
330
E00DEA5D
100
AcDbEntity
  8
JISSEN
100
AcDbLine
 10
254.8057068604726
 20
178.9229022285364
 30
0.0
 11
254.8057068604726
 21
179.522902228535
 31
0.0
  0
LINE
  5
E00EDB08
330
E00DEA5D
100
AcDbEntity
  8
JISSEN
100
AcDbLine
 10
254.8057068604726
 20
178.9229022285364
 30
0.0
 11
254.8057068604726
 21
179.522902228535
 31
0.0
  0
ARC
  5
E00EDB09
330
E00DEA5D
100
AcDbEntity
  8
JISSEN
100
AcDbCircle
 10
253.3682068604708
 20
179.9729022285339
 30
0.0
 40
0.4875000000000239
100
AcDbArc
 50
292.6198649480738
 51
67.38013505192611
  0
ARC
  5
E00EDB0A
330
E00DEA5D
100
AcDbEntity
  8
JISSEN
100
AcDbCircle
 10
254.6182068604708
 20
179.9729022285321
 30
0.0
 40
0.4875000000000239
100
AcDbArc
 50
292.6198649480738
 51
67.38013505192611
  0
LINE
  5
E00EDB0B
330
E00DEA5D
100
AcDbEntity
  8
JISSEN
100
AcDbLine
 10
256.1194911673016
 20
177.172902228531
 30
0.0
 11
256.1194911673016
 21
183.0389276323151
 31
0.0
  0
LINE
  5
E00EDB0C
330
E00DEA5D
100
AcDbEntity
  8
JISSEN
100
AcDbLine
 10
257.3057068604727
 20
178.0229022285332
 30
0.0
 11
257.3057068604727
 21
177.672902228531
 31
0.0
  0
SPLINE
  5
E00EDB0D
330
E00DEA5D
100
AcDbEntity
  8
JISSEN
100
AcDbSpline
210
0.0
220
0.0
230
1.0
 70
     8
 71
     3
 72
     8
 73
     4
 74
     0
 42
0.0000000001
 43
0.0000000001
 40
0.0
 40
0.0
 40
0.0
 40
0.0
 40
0.0007108901684311
 40
0.0007108901684311
 40
0.0007108901684311
 40
0.0007108901684311
 10
257.7433409812607
 20
177.172902228531
 30
0.0
 10
257.5974401656391
 20
177.3395423116037
 30
0.0
 10
257.4515627794322
 20
177.5062097497195
 30
0.0
 10
257.3057068604727
 20
177.672902228531
 30
0.0
  0
LINE
  5
E00EDB0E
330
E00DEA5D
100
AcDbEntity
  8
JISSEN
100
AcDbLine
 10
257.3057068604727
 20
182.172902228531
 30
0.0
 11
257.3057068604729
 21
181.9229022285364
 31
0.0
  0
LINE
  5
E00EDB0F
330
E00DEA5D
100
AcDbEntity
  8
JISSEN
100
AcDbLine
 10
257.3057068604727
 20
181.0229022285368
 30
0.0
 11
257.3057068604727
 21
180.4229022285401
 31
0.0
  0
ARC
  5
E00EDB10
330
E00DEA5D
100
AcDbEntity
  8
JISSEN
100
AcDbCircle
 10
257.1182068604727
 20
181.4729022285339
 30
0.0
 40
0.4875000000000239
100
AcDbArc
 50
292.6198649480738
 51
67.38013505192611
  0
LINE
  5
E00EDB11
330
E00DEA5D
100
AcDbEntity
  8
JISSEN
100
AcDbLine
 10
257.3057068604727
 20
179.522902228535
 30
0.0
 11
257.3057068604727
 21
178.9229022285364
 31
0.0
  0
ARC
  5
E00EDB12
330
E00DEA5D
100
AcDbEntity
  8
JISSEN
100
AcDbCircle
 10
257.1182068604727
 20
178.4729022285339
 30
0.0
 40
0.4875000000000239
100
AcDbArc
 50
292.6198649480738
 51
67.38013505192611
  0
ARC
  5
E00EDB13
330
E00DEA5D
100
AcDbEntity
  8
JISSEN
100
AcDbCircle
 10
257.1182068604727
 20
179.9729022285339
 30
0.0
 40
0.4875000000000239
100
AcDbArc
 50
292.6198649480738
 51
67.38013505192611
  0
LINE
  5
E00EDB14
330
E00DEA5D
100
AcDbEntity
  8
JISSEN
100
AcDbLine
 10
268.5557068604726
 20
177.172902228531
 30
0.0
 11
268.5557068604726
 21
183.0389276323151
 31
0.0
  0
LINE
  5
E00EDB15
330
E00DEA5D
100
AcDbEntity
  8
JISSEN
100
AcDbLine
 10
273.5557068604726
 20
177.172902228531
 30
0.0
 11
273.5557068604726
 21
183.0389276323151
 31
0.0
  0
LINE
  5
E00EDB16
330
E00DEA5D
100
AcDbEntity
  8
JISSEN
100
AcDbLine
 10
284.8057068604727
 20
178.0229022285332
 30
0.0
 11
284.8057068604727
 21
177.672902228531
 31
0.0
  0
LINE
  5
E00EDB17
330
E00DEA5D
100
AcDbEntity
  8
JISSEN
100
AcDbLine
 10
285.9919225536438
 20
177.172902228531
 30
0.0
 11
285.9919225536438
 21
183.0389276323151
 31
0.0
  0
LINE
  5
E00EDB18
330
E00DEA5D
100
AcDbEntity
  8
JISSEN
100
AcDbLine
 10
287.3057068604726
 20
177.672902228531
 30
0.0
 11
287.3057068604726
 21
178.0229022285332
 31
0.0
  0
LINE
  5
E00EDB19
330
E00DEA5D
100
AcDbEntity
  8
JISSEN
100
AcDbLine
 10
287.3057068604726
 20
177.672902228531
 30
0.0
 11
287.3057068604726
 21
178.0229022285332
 31
0.0
  0
LINE
  5
E00EDB1A
330
E00DEA5D
100
AcDbEntity
  8
JISSEN
100
AcDbLine
 10
288.5557068604727
 20
178.0229022285332
 30
0.0
 11
288.5557068604727
 21
177.672902228531
 31
0.0
  0
LINE
  5
E00EDB1B
330
E00DEA5D
100
AcDbEntity
  8
JISSEN
100
AcDbLine
 10
288.5557068604727
 20
177.6763315095306
 30
0.0
 11
287.3057068604726
 21
177.6763315095306
 31
0.0
  0
SPLINE
  5
E00EDB1C
330
E00DEA5D
100
AcDbEntity
  8
JISSEN
100
AcDbSpline
210
0.0
220
0.0
230
1.0
 70
     8
 71
     3
 72
     8
 73
     4
 74
     0
 42
0.0000000001
 43
0.0000000001
 40
0.0
 40
0.0
 40
0.0
 40
0.0
 40
0.0007108901684311
 40
0.0007108901684311
 40
0.0007108901684311
 40
0.0007108901684311
 10
284.3680727396846
 20
177.172902228531
 30
0.0
 10
284.5139735553063
 20
177.3395423116037
 30
0.0
 10
284.6598509415131
 20
177.5062097497195
 30
0.0
 10
284.8057068604727
 20
177.672902228531
 30
0.0
  0
SPLINE
  5
E00EDB1D
330
E00DEA5D
100
AcDbEntity
  8
JISSEN
100
AcDbSpline
210
0.0
220
0.0
230
1.0
 70
     8
 71
     3
 72
     8
 73
     4
 74
     0
 42
0.0000000001
 43
0.0000000001
 40
0.0
 40
0.0
 40
0.0
 40
0.0
 40
0.0007108901684311
 40
0.0007108901684311
 40
0.0007108901684311
 40
0.0007108901684311
 10
287.3057068604726
 20
177.6763315095306
 30
0.0
 10
287.1598509415131
 20
177.5096390307192
 30
0.0
 10
287.0139735553062
 20
177.3429715926033
 30
0.0
 10
286.8680727396846
 20
177.1763315095306
 30
0.0
  0
LINE
  5
E00EDB1E
330
E00DEA5D
100
AcDbEntity
  8
JISSEN
100
AcDbLine
 10
288.5557068604727
 20
177.672902228531
 30
0.0
 11
288.0557068604726
 21
177.172902228531
 31
0.0
  0
ARC
  5
E00EDB1F
330
E00DEA5D
100
AcDbEntity
  8
JISSEN
100
AcDbCircle
 10
284.9932068604727
 20
178.4729022285339
 30
0.0
 40
0.4875000000000239
100
AcDbArc
 50
112.6198649480738
 51
247.3801350519261
  0
ARC
  5
E00EDB20
330
E00DEA5D
100
AcDbEntity
  8
JISSEN
100
AcDbCircle
 10
284.9932068604727
 20
179.9729022285339
 30
0.0
 40
0.4875000000000239
100
AcDbArc
 50
112.6198649480738
 51
247.3801350519261
  0
LINE
  5
E00EDB21
330
E00DEA5D
100
AcDbEntity
  8
JISSEN
100
AcDbLine
 10
284.8057068604727
 20
179.522902228535
 30
0.0
 11
284.8057068604727
 21
178.9229022285364
 31
0.0
  0
ARC
  5
E00EDB22
330
E00DEA5D
100
AcDbEntity
  8
JISSEN
100
AcDbCircle
 10
284.9932068604727
 20
181.4729022285339
 30
0.0
 40
0.4875000000000239
100
AcDbArc
 50
112.6198649480738
 51
247.3801350519261
  0
LINE
  5
E00EDB23
330
E00DEA5D
100
AcDbEntity
  8
JISSEN
100
AcDbLine
 10
284.8057068604727
 20
181.0229022285368
 30
0.0
 11
284.8057068604727
 21
180.4229022285401
 31
0.0
  0
LINE
  5
E00EDB24
330
E00DEA5D
100
AcDbEntity
  8
JISSEN
100
AcDbLine
 10
284.8057068604727
 20
182.172902228531
 30
0.0
 11
284.8057068604724
 21
181.9229022285364
 31
0.0
  0
ARC
  5
E00EDB25
330
E00DEA5D
100
AcDbEntity
  8
JISSEN
100
AcDbCircle
 10
287.4932068604745
 20
179.9729022285321
 30
0.0
 40
0.4875000000000239
100
AcDbArc
 50
112.6198649480738
 51
247.3801350519261
  0
LINE
  5
E00EDB26
330
E00DEA5D
100
AcDbEntity
  8
JISSEN
100
AcDbLine
 10
287.3057068604726
 20
178.9229022285364
 30
0.0
 11
287.3057068604726
 21
179.522902228535
 31
0.0
  0
LINE
  5
E00EDB27
330
E00DEA5D
100
AcDbEntity
  8
JISSEN
100
AcDbLine
 10
287.3057068604726
 20
178.9229022285364
 30
0.0
 11
287.3057068604726
 21
179.522902228535
 31
0.0
  0
ARC
  5
E00EDB28
330
E00DEA5D
100
AcDbEntity
  8
JISSEN
100
AcDbCircle
 10
287.4932068604745
 20
178.4729022285321
 30
0.0
 40
0.4875000000000239
100
AcDbArc
 50
112.6198649480738
 51
247.3801350519261
  0
LINE
  5
E00EDB29
330
E00DEA5D
100
AcDbEntity
  8
JISSEN
100
AcDbLine
 10
287.3057068604726
 20
180.4229022285346
 30
0.0
 11
287.3057068604726
 21
181.0229022285332
 31
0.0
  0
LINE
  5
E00EDB2A
330
E00DEA5D
100
AcDbEntity
  8
JISSEN
100
AcDbLine
 10
287.3057068604726
 20
180.4229022285346
 30
0.0
 11
287.3057068604726
 21
181.0229022285332
 31
0.0
  0
ARC
  5
E00EDB2B
330
E00DEA5D
100
AcDbEntity
  8
JISSEN
100
AcDbCircle
 10
287.4932068604745
 20
181.4729022285321
 30
0.0
 40
0.4875000000000239
100
AcDbArc
 50
112.6198649480738
 51
247.3801350519261
  0
LINE
  5
E00EDB2C
330
E00DEA5D
100
AcDbEntity
  8
JISSEN
100
AcDbLine
 10
287.3057068604726
 20
181.9229022285346
 30
0.0
 11
287.3057068604726
 21
182.172902228531
 31
0.0
  0
ARC
  5
E00EDB2D
330
E00DEA5D
100
AcDbEntity
  8
JISSEN
100
AcDbCircle
 10
288.7432068604745
 20
179.9729022285339
 30
0.0
 40
0.4875000000000239
100
AcDbArc
 50
112.6198649480738
 51
247.3801350519261
  0
LINE
  5
E00EDB2E
330
E00DEA5D
100
AcDbEntity
  8
JISSEN
100
AcDbLine
 10
288.5557068604727
 20
179.5229022285332
 30
0.0
 11
288.5557068604727
 21
178.9229022285364
 31
0.0
  0
LINE
  5
E00EDB2F
330
E00DEA5D
100
AcDbEntity
  8
JISSEN
100
AcDbLine
 10
288.5557068604727
 20
179.522902228535
 30
0.0
 11
288.5557068604727
 21
178.9229022285328
 31
0.0
  0
LINE
  5
E00EDB30
330
E00DEA5D
100
AcDbEntity
  8
JISSEN
100
AcDbLine
 10
288.5557068604727
 20
179.5229022285332
 30
0.0
 11
288.5557068604745
 21
178.9229022285328
 31
0.0
  0
LINE
  5
E00EDB31
330
E00DEA5D
100
AcDbEntity
  8
JISSEN
100
AcDbLine
 10
288.5557068604727
 20
179.5229022285332
 30
0.0
 11
288.5557068604727
 21
178.9229022285328
 31
0.0
  0
ARC
  5
E00EDB32
330
E00DEA5D
100
AcDbEntity
  8
JISSEN
100
AcDbCircle
 10
288.7432068604745
 20
178.4729022285339
 30
0.0
 40
0.4875000000000239
100
AcDbArc
 50
112.6198649480738
 51
247.3801350519261
  0
LINE
  5
E00EDB33
330
E00DEA5D
100
AcDbEntity
  8
JISSEN
100
AcDbLine
 10
288.5557068604727
 20
179.522902228535
 30
0.0
 11
288.5557068604727
 21
178.9229022285364
 31
0.0
  0
LINE
  5
E00EDB34
330
E00DEA5D
100
AcDbEntity
  8
JISSEN
100
AcDbLine
 10
288.5557068604727
 20
181.022902228535
 30
0.0
 11
288.5557068604727
 21
180.4229022285364
 31
0.0
  0
ARC
  5
E00EDB35
330
E00DEA5D
100
AcDbEntity
  8
JISSEN
100
AcDbCircle
 10
288.7432068604745
 20
181.4729022285339
 30
0.0
 40
0.4875000000000239
100
AcDbArc
 50
112.6198649480738
 51
247.3801350519261
  0
LINE
  5
E00EDB36
330
E00DEA5D
100
AcDbEntity
  8
JISSEN
100
AcDbLine
 10
288.5557068604727
 20
181.022902228535
 30
0.0
 11
288.5557068604727
 21
180.4229022285328
 31
0.0
  0
LINE
  5
E00EDB37
330
E00DEA5D
100
AcDbEntity
  8
JISSEN
100
AcDbLine
 10
288.5557068604727
 20
181.0229022285332
 30
0.0
 11
288.5557068604727
 21
180.4229022285328
 31
0.0
  0
LINE
  5
E00EDB38
330
E00DEA5D
100
AcDbEntity
  8
JISSEN
100
AcDbLine
 10
288.5557068604727
 20
181.0229022285332
 30
0.0
 11
288.5557068604727
 21
180.4229022285328
 31
0.0
  0
LINE
  5
E00EDB39
330
E00DEA5D
100
AcDbEntity
  8
JISSEN
100
AcDbLine
 10
288.5557068604727
 20
181.022902228535
 30
0.0
 11
288.5557068604727
 21
180.4229022285328
 31
0.0
  0
LINE
  5
E00EDB3A
330
E00DEA5D
100
AcDbEntity
  8
JISSEN
100
AcDbLine
 10
288.5557068604727
 20
182.172902228531
 30
0.0
 11
288.5557068604727
 21
181.9229022285346
 31
0.0
  0
LINE
  5
E00EDB3B
330
E00DEA5D
100
AcDbEntity
  8
JISSEN
100
AcDbLine
 10
271.0557068604726
 20
177.172902228531
 30
0.0
 11
284.3680727396737
 21
177.172902228531
 31
0.0
  0
LINE
  5
E00EDB3C
330
E00DEA5D
100
AcDbEntity
  8
JISSEN
100
AcDbLine
 10
271.0557068604726
 20
177.172902228531
 30
0.0
 11
257.7433409812716
 21
177.172902228531
 31
0.0
  0
LINE
  5
E00EDB3D
330
E00DEA5D
100
AcDbEntity
  8
JISSEN
100
AcDbLine
 10
256.1194911673725
 20
177.172902228531
 30
0.0
 11
257.7433409812716
 21
177.172902228531
 31
0.0
  0
LINE
  5
E00EDB3E
330
E00DEA5D
100
AcDbEntity
  8
JISSEN
100
AcDbLine
 39
1680.364539346804
 10
253.5557068604727
 20
182.172902228531
 30
0.0
 11
254.8057068604726
 21
182.172902228531
 31
0.0
  0
LINE
  5
E00EDB3F
330
E00DEA5D
100
AcDbEntity
  8
JISSEN
100
AcDbLine
 10
255.2877576680554
 20
183.172902228531
 30
0.0
 11
271.0557068604726
 21
183.172902228531
 31
0.0
  0
SPLINE
  5
E00EDB40
330
E00DEA5D
100
AcDbEntity
  8
JISSEN
100
AcDbSpline
210
0.0
220
0.0
230
1.0
 70
     8
 71
     3
 72
     8
 73
     4
 74
     0
 42
0.0000000001
 43
0.0000000001
 40
0.000000403112789
 40
0.000000403112789
 40
0.000000403112789
 40
0.000000403112789
 40
0.0017472208689273
 40
0.0017472208689273
 40
0.0017472208689273
 40
0.0017472208689273
 10
254.8057068604726
 20
182.172902228531
 30
0.0
 10
255.2435296225636
 20
182.4617903308755
 30
0.0
 10
255.6814478801958
 20
182.7504856072084
 30
0.0
 10
256.1194911673016
 20
183.0389276323151
 30
0.0
  0
LINE
  5
E00EDB41
330
E00DEA5D
100
AcDbEntity
  8
JISSEN
100
AcDbLine
 10
255.2433409812716
 20
177.172902228531
 30
0.0
 11
256.1194911673725
 21
177.172902228531
 31
0.0
  0
LINE
  5
E00EDB42
330
E00DEA5D
100
AcDbEntity
  8
JISSEN
100
AcDbLine
 10
255.2433409812716
 20
177.172902228531
 30
0.0
 11
254.0557068604726
 21
177.172902228531
 31
0.0
  0
LINE
  5
E00EDB43
330
E00DEA5D
100
AcDbEntity
  8
JISSEN
100
AcDbLine
 10
255.2877576680572
 20
183.172902228531
 30
0.0
 11
253.5557068604727
 21
182.1729022285292
 31
0.0
  0
LINE
  5
E00EDB44
330
E00DEA5D
100
AcDbEntity
  8
JISSEN
100
AcDbLine
 10
254.8057068604726
 20
182.122902228539
 30
0.0
 11
254.8057068604726
 21
182.172902228531
 31
0.0
  0
SPLINE
  5
E00EDB45
330
E00DEA5D
100
AcDbEntity
  8
JISSEN
100
AcDbSpline
210
0.0
220
0.0
230
1.0
 70
     8
 71
     3
 72
     8
 73
     4
 74
     0
 42
0.0000000001
 43
0.0000000001
 40
0.0000002658515791
 40
0.0000002658515791
 40
0.0000002658515791
 40
0.0000002658515791
 40
0.0017470836077175
 40
0.0017470836077175
 40
0.0017470836077175
 40
0.0017470836077175
 10
258.6194911673016
 20
183.0389276323151
 30
0.0
 10
258.1814478801958
 20
182.7504856072084
 30
0.0
 10
257.7435296225636
 20
182.4617903308755
 30
0.0
 10
257.3057068604727
 20
182.172902228531
 30
0.0
  0
LINE
  5
E00EDB46
330
E00DEA5D
100
AcDbEntity
  8
JISSEN
100
AcDbLine
 10
256.1194911673016
 20
183.0389276323151
 30
0.0
 11
258.6194911673016
 21
183.0389276323151
 31
0.0
  0
LINE
  5
E00EDB47
330
E00DEA5D
100
AcDbEntity
  8
JISSEN
100
AcDbLine
 39
1680.364539346804
 10
288.5557068604727
 20
182.172902228531
 30
0.0
 11
287.3057068604726
 21
182.172902228531
 31
0.0
  0
LINE
  5
E00EDB48
330
E00DEA5D
100
AcDbEntity
  8
JISSEN
100
AcDbLine
 39
1680.364539346804
 10
284.8057068604727
 20
182.1729022286165
 30
0.0
 11
273.5557068604272
 21
182.1729022286147
 31
0.0
  0
LINE
  5
E00EDB49
330
E00DEA5D
100
AcDbEntity
  8
JISSEN
100
AcDbLine
 10
268.5557068604726
 20
183.0389276323151
 30
0.0
 11
271.0557068604726
 21
183.0389276323151
 31
0.0
  0
LINE
  5
E00EDB4A
330
E00DEA5D
100
AcDbEntity
  8
JISSEN
100
AcDbLine
 10
273.5557068604726
 20
183.0389276323151
 30
0.0
 11
271.0557068604726
 21
183.0389276323151
 31
0.0
  0
LINE
  5
E00EDB4B
330
E00DEA5D
100
AcDbEntity
  8
JISSEN
100
AcDbLine
 10
285.9919225536438
 20
183.0389276323151
 30
0.0
 11
283.4919225536438
 21
183.0389276323151
 31
0.0
  0
SPLINE
  5
E00EDB4C
330
E00DEA5D
100
AcDbEntity
  8
JISSEN
100
AcDbSpline
210
0.0
220
0.0
230
1.0
 70
     8
 71
     3
 72
     8
 73
     4
 74
     0
 42
0.0000000001
 43
0.0000000001
 40
0.0000002658515791
 40
0.0000002658515791
 40
0.0000002658515791
 40
0.0000002658515791
 40
0.0017470836077175
 40
0.0017470836077175
 40
0.0017470836077175
 40
0.0017470836077175
 10
283.4919225536438
 20
183.0389276323151
 30
0.0
 10
283.9299658407495
 20
182.7504856072084
 30
0.0
 10
284.3678840983817
 20
182.4617903308755
 30
0.0
 10
284.8057068604727
 20
182.172902228531
 30
0.0
  0
LINE
  5
E00EDB4D
330
E00DEA5D
100
AcDbEntity
  8
JISSEN
100
AcDbLine
 10
286.8236560528881
 20
183.172902228531
 30
0.0
 11
288.5557068604727
 21
182.1729022285292
 31
0.0
  0
LINE
  5
E00EDB4E
330
E00DEA5D
100
AcDbEntity
  8
JISSEN
100
AcDbLine
 10
287.3057068604726
 20
182.122902228539
 30
0.0
 11
287.3057068604726
 21
182.172902228531
 31
0.0
  0
SPLINE
  5
E00EDB4F
330
E00DEA5D
100
AcDbEntity
  8
JISSEN
100
AcDbSpline
210
0.0
220
0.0
230
1.0
 70
     8
 71
     3
 72
     8
 73
     4
 74
     0
 42
0.0000000001
 43
0.0000000001
 40
0.000000403112789
 40
0.000000403112789
 40
0.000000403112789
 40
0.000000403112789
 40
0.0017472208689273
 40
0.0017472208689273
 40
0.0017472208689273
 40
0.0017472208689273
 10
287.3057068604726
 20
182.172902228531
 30
0.0
 10
286.8678840983817
 20
182.4617903308755
 30
0.0
 10
286.4299658407495
 20
182.7504856072084
 30
0.0
 10
285.9919225536438
 20
183.0389276323151
 30
0.0
  0
LINE
  5
E00EDB50
330
E00DEA5D
100
AcDbEntity
  8
JISSEN
100
AcDbLine
 10
288.5557068604727
 20
182.172902228531
 30
0.0
 11
288.5557068604727
 21
182.1229022285317
 31
0.0
  0
LINE
  5
E00EDB51
330
E00DEA5D
100
AcDbEntity
  8
JISSEN
100
AcDbLine
 10
288.5557068604727
 20
182.172902228531
 30
0.0
 11
288.5557068604727
 21
182.1229022285317
 31
0.0
  0
LINE
  5
E00EDB52
330
E00DEA5D
100
AcDbEntity
  8
JISSEN
100
AcDbLine
 10
286.8236560528899
 20
183.172902228531
 30
0.0
 11
271.0557068604726
 21
183.172902228531
 31
0.0
  0
LINE
  5
E00EDB53
330
E00DEA5D
100
AcDbEntity
  8
JISSEN
100
AcDbLine
 10
286.8680727396737
 20
177.172902228531
 30
0.0
 11
288.0557068604726
 21
177.172902228531
 31
0.0
  0
LINE
  5
E00EDB54
330
E00DEA5D
100
AcDbEntity
  8
JISSEN
100
AcDbLine
 10
286.8680727396737
 20
177.172902228531
 30
0.0
 11
285.9919225535728
 21
177.172902228531
 31
0.0
  0
LINE
  5
E00EDB55
330
E00DEA5D
100
AcDbEntity
  8
JISSEN
100
AcDbLine
 10
285.9919225535728
 20
177.172902228531
 30
0.0
 11
284.3680727396737
 21
177.172902228531
 31
0.0
  0
LINE
  5
E00EDB6D
330
E00DEA5D
100
AcDbEntity
  8
SUNPOU
100
AcDbLine
 10
121.0774882577028
 20
12.08591966642427
 30
0.0
 11
124.0774882577028
 21
12.08591966642427
 31
0.0
  0
LINE
  5
E00EDB6E
330
E00DEA5D
100
AcDbEntity
  8
SUNPOU
100
AcDbLine
 10
121.0774882577028
 20
9.085919666424274
 30
0.0
 11
124.0774882577028
 21
9.085919666424274
 31
0.0
  0
LINE
  5
E00EDB6F
330
E00DEA5D
100
AcDbEntity
  8
SUNPOU
100
AcDbLine
 10
123.3274882577028
 20
12.08591966642427
 30
0.0
 11
123.3274882577028
 21
9.085919666424274
 31
0.0
  0
LINE
  5
E00EDB70
330
E00DEA5D
100
AcDbEntity
  8
SUNPOU
100
AcDbLine
 10
121.8274882577028
 20
12.08591966642427
 30
0.0
 11
121.8274882577028
 21
9.085919666424274
 31
0.0
  0
LINE
  5
E00EDB7A
330
E00DEA5D
100
AcDbEntity
  8
SUNPOU
100
AcDbLine
 10
302.0684875158177
 20
12.09344613351993
 30
0.0
 11
305.0684875158177
 21
12.09344613351993
 31
0.0
  0
LINE
  5
E00EDB7B
330
E00DEA5D
100
AcDbEntity
  8
SUNPOU
100
AcDbLine
 10
302.0684875158177
 20
9.093446133519933
 30
0.0
 11
305.0684875158177
 21
9.093446133519933
 31
0.0
  0
LINE
  5
E00EDB7C
330
E00DEA5D
100
AcDbEntity
  8
SUNPOU
100
AcDbLine
 10
304.3184875158177
 20
12.09344613351993
 30
0.0
 11
304.3184875158177
 21
9.093446133519933
 31
0.0
  0
LINE
  5
E00EDB7D
330
E00DEA5D
100
AcDbEntity
  8
SUNPOU
100
AcDbLine
 10
302.8184875158177
 20
12.09344613351993
 30
0.0
 11
302.8184875158177
 21
9.093446133519933
 31
0.0
  0
ENDSEC
  0
SECTION
  2
OBJECTS
  0
DICTIONARY
  5
E00DEA51
330
0
100
AcDbDictionary
281
     1
  3
ACAD_GROUP
350
E00DEA52
  3
ACAD_LAYOUT
350
E00DFA6A
  3
ACAD_MLINESTYLE
350
E00DEA53
  3
ACAD_PLOTSETTINGS
350
E00DFA6B
  3
ACAD_PLOTSTYLENAME
350
E00DFA68
  3
AcadDim
350
E00E59A8
  3
ACDBVARIABLEDICTIONARY
350
E00DF82C
  0
DICTIONARY
  5
E00DFB39
330
E00DEA47
100
AcDbDictionary
280
     1
281
     1
  3
ACAD_LAYERFILTERS
360
E00E26A3
  3
ACAD_LAYERSTATES
360
E00DFB3A
  0
DICTIONARY
  5
E00DFB13
330
E00DEA5D
100
AcDbDictionary
280
     1
281
     1
  3
ACAD_LAYOUTSELFREF
360
E00DFB14
  0
DICTIONARY
  5
E00DFB11
330
E00DEA5A
100
AcDbDictionary
280
     1
281
     1
  3
ACAD_LAYOUTSELFREF
360
E00DFB12
  0
DICTIONARY
  5
E00DEA52
102
{ACAD_REACTORS
330
E00DEA51
102
}
330
E00DEA51
100
AcDbDictionary
281
     1
  0
DICTIONARY
  5
E00DFA6A
102
{ACAD_REACTORS
330
E00DEA51
102
}
330
E00DEA51
100
AcDbDictionary
281
     1
  3
Model
350
E00DFA6C
  3
ﾚｲｱｳﾄ1
350
E00DFA6D
  0
DICTIONARY
  5
E00DEA53
102
{ACAD_REACTORS
330
E00DEA51
102
}
330
E00DEA51
100
AcDbDictionary
281
     1
  3
STANDARD
350
E00DEA60
  0
DICTIONARY
  5
E00DFA6B
102
{ACAD_REACTORS
330
E00DEA51
102
}
330
E00DEA51
100
AcDbDictionary
281
     1
  0
ACDBDICTIONARYWDFLT
  5
E00DFA68
102
{ACAD_REACTORS
330
E00DEA51
102
}
330
E00DEA51
100
AcDbDictionary
281
     1
  3
Normal
350
E00DFA69
  3
Style_1
350
E00ECC5E
100
AcDbDictionaryWithDefault
340
E00DFA69
  0
XRECORD
  5
E00E59A8
102
{ACAD_REACTORS
330
E00DEA51
102
}
330
E00DEA51
100
AcDbXrecord
280
     1
 90
   990106
  3

 60
     0
 61
     0
 62
     1
 63
     3
 64
     0
 65
     0
 66
     0
 67
     3
 68
     1
 69
     0
 70
     0
 71
     0
 72
     0
 40
0.0
170
     0
  0
DICTIONARY
  5
E00DF82C
102
{ACAD_REACTORS
330
E00DEA51
102
}
330
E00DEA51
100
AcDbDictionary
281
     1
  3
DIMASSOC
350
E00DFB2E
  3
SORTENTS
350
E00DF82D
  0
DICTIONARY
  5
E00E26A3
102
{ACAD_REACTORS
330
E00DFB39
102
}
330
E00DFB39
100
AcDbDictionary
280
     1
281
     1
  3
0
360
E00E26A4
  3
0-0
360
E00E26A5
  3
10画層
360
E00E26A6
  3
2
360
E00E26A7
  3
3
360
E00E26A8
  3
3A
360
E00E26A9
  3
4
360
E00E26AA
  3
5画層
360
E00E26AB
  3
6画層
360
E00E26AC
  3
7
360
E00E26AD
  3
7a画層
360
E00E26AE
  3
8
360
E00E26AF
  3
ASYST
360
E00E26B0
  3
ASYST PHASE 1
360
E00E26B1
  3
ASYST PHASE 2
360
E00E26B2
  3
cap-0
360
E00E26B3
  3
dims
360
E00E26B4
  3
elec
360
E00E26B5
  3
ELECTRICAL
360
E00E26B6
  3
F
360
E00E26B7
  3
Frame
360
E00E26B8
  3
FROZEN
360
E00E26B9
  3
FROZEN ACTIVE
360
E00E26BA
  3
jiku-0
360
E00E26BB
  3
MP
360
E00E26BC
  3
MPR
360
E00E26BD
  3
p-
360
E00E26BE
  3
ST
360
E00E26BF
  3
TC
360
E00E26C0
  3
TEXT
360
E00E26C1
  3
ｹｰﾌﾞﾙ図
360
E00E26C2
  3
０画層
360
E00E26C3
  3
３A画層
360
E00E26C4
  3
３画層
360
E00E26C5
  0
DICTIONARY
  5
E00DFB3A
102
{ACAD_REACTORS
330
E00DFB39
102
}
330
E00DFB39
100
AcDbDictionary
281
     1
  0
XRECORD
  5
E00DFB14
102
{ACAD_REACTORS
330
E00DFB13
102
}
330
E00DFB13
100
AcDbXrecord
280
     1
340
E00DEA5D
  0
XRECORD
  5
E00DFB12
102
{ACAD_REACTORS
330
E00DFB11
102
}
330
E00DFB11
100
AcDbXrecord
280
     1
340
E00DEA5A
  0
LAYOUT
  5
E00DFA6C
102
{ACAD_REACTORS
330
E00DFA6A
102
}
330
E00DFA6A
100
AcDbPlotSettings
  1

  2
\\Nt_honsya\FUJITSU XL-5300-3
  4
A4
  6

 40
5.873749732971191
 41
5.704405784606932
 42
5.789077758789062
 43
5.873748779296875
 44
209.9733276367186
 45
296.9259948730469
 46
0.0
 47
0.0
 48
0.0
 49
0.0
140
0.0
141
0.0
142
1.0
143
1.0
 70
 11952
 72
     0
 73
     1
 74
     0
  7
aclt.ctb
 75
     0
147
1.0
148
1211.157904756485
149
44.79223521629618
100
AcDbLayout
  1
Model
 70
     1
 71
     0
 10
0.0
 20
0.0
 11
12.0
 21
9.0
 12
0.0
 22
0.0
 32
0.0
 14
0.0
 24
0.0
 34
0.0
 15
0.0
 25
0.0
 35
0.0
146
0.0
 13
0.0
 23
0.0
 33
0.0
 16
1.0
 26
0.0
 36
0.0
 17
0.0
 27
1.0
 37
0.0
 76
     0
330
E00DEA5D
  0
LAYOUT
  5
E00DFA6D
102
{ACAD_REACTORS
330
E00DFA6A
102
}
330
E00DFA6A
100
AcDbPlotSettings
  1

  2
\\Nt_honsya\FUJITSU XL-5300-3
  4

  6

 40
0.0
 41
0.0
 42
0.0
 43
0.0
 44
0.0
 45
0.0
 46
0.0
 47
0.0
 48
0.0
 49
0.0
140
0.0
141
0.0
142
1.0
143
1.0
 70
   688
 72
     0
 73
     0
 74
     5
  7
aclt(XL).ctb
 75
    16
147
1.0
148
0.0
149
0.0
100
AcDbLayout
  1
ﾚｲｱｳﾄ1
 70
     0
 71
     1
 10
0.0
 20
0.0
 11
12.0
 21
9.0
 12
0.0
 22
0.0
 32
0.0
 14
1.000000000000000E+20
 24
1.000000000000000E+20
 34
1.000000000000000E+20
 15
-1.000000000000000E+20
 25
-1.000000000000000E+20
 35
-1.000000000000000E+20
146
0.0
 13
0.0
 23
0.0
 33
0.0
 16
1.0
 26
0.0
 36
0.0
 17
0.0
 27
1.0
 37
0.0
 76
     0
330
E00DEA5A
  0
MLINESTYLE
  5
E00DEA60
102
{ACAD_REACTORS
330
E00DEA53
102
}
330
E00DEA53
100
AcDbMlineStyle
  2
STANDARD
 70
     0
  3

 62
     0
 51
90.0
 52
90.0
 71
     2
 49
0.5
 62
   256
  6
BYLAYER
 49
-0.5
 62
   256
  6
BYLAYER
  0
ACDBPLACEHOLDER
  5
E00DFA69
102
{ACAD_REACTORS
330
E00DFA68
102
}
330
E00DFA68
  0
ACDBPLACEHOLDER
  5
E00ECC5E
102
{ACAD_REACTORS
330
E00DFA68
102
}
330
E00DFA68
  0
DICTIONARYVAR
  5
E00DFB2E
102
{ACAD_REACTORS
330
E00DF82C
102
}
330
E00DF82C
100
DictionaryVariables
280
     0
  1
0
  0
DICTIONARYVAR
  5
E00DF82D
102
{ACAD_REACTORS
330
E00DF82C
102
}
330
E00DF82C
100
DictionaryVariables
280
     0
  1
96
  0
XRECORD
  5
E00E26A4
102
{ACAD_REACTORS
330
E00E26A3
102
}
330
E00E26A3
100
AcDbXrecord
280
     1
  1
0
  1
*-0
  1
*
  1
*
 70
     0
  1
*
  1
*
  0
XRECORD
  5
E00E26A5
102
{ACAD_REACTORS
330
E00E26A3
102
}
330
E00E26A3
100
AcDbXrecord
280
     1
  1
0-0
  1
*-0
  1
*
  1
*
 70
     0
  1
*
  1
*
  0
XRECORD
  5
E00E26A6
102
{ACAD_REACTORS
330
E00E26A3
102
}
330
E00E26A3
100
AcDbXrecord
280
     1
  1
10画層
  1
*-10
  1
*
  1
*
 70
     0
  1
*
  1
*
  0
XRECORD
  5
E00E26A7
102
{ACAD_REACTORS
330
E00E26A3
102
}
330
E00E26A3
100
AcDbXrecord
280
     1
  1
2
  1
*-2
  1
*
  1
*
 70
     0
  1
*
  1
*
  0
XRECORD
  5
E00E26A8
102
{ACAD_REACTORS
330
E00E26A3
102
}
330
E00E26A3
100
AcDbXrecord
280
     1
  1
3
  1
*-3
  1
*
  1
*
 70
     0
  1
*
  1
*
  0
XRECORD
  5
E00E26A9
102
{ACAD_REACTORS
330
E00E26A3
102
}
330
E00E26A3
100
AcDbXrecord
280
     1
  1
3A
  1
*-3A
  1
*
  1
*
 70
     0
  1
*
  1
*
  0
XRECORD
  5
E00E26AA
102
{ACAD_REACTORS
330
E00E26A3
102
}
330
E00E26A3
100
AcDbXrecord
280
     1
  1
4
  1
*-4
  1
*
  1
*
 70
     0
  1
*
  1
*
  0
XRECORD
  5
E00E26AB
102
{ACAD_REACTORS
330
E00E26A3
102
}
330
E00E26A3
100
AcDbXrecord
280
     1
  1
5画層
  1
*-5
  1
*
  1
*
 70
     0
  1
*
  1
*
  0
XRECORD
  5
E00E26AC
102
{ACAD_REACTORS
330
E00E26A3
102
}
330
E00E26A3
100
AcDbXrecord
280
     1
  1
6画層
  1
*-6
  1
*
  1
*
 70
     0
  1
*
  1
*
  0
XRECORD
  5
E00E26AD
102
{ACAD_REACTORS
330
E00E26A3
102
}
330
E00E26A3
100
AcDbXrecord
280
     1
  1
7
  1
*-7*
  1
*
  1
*
 70
     0
  1
*
  1
*
  0
XRECORD
  5
E00E26AE
102
{ACAD_REACTORS
330
E00E26A3
102
}
330
E00E26A3
100
AcDbXrecord
280
     1
  1
7a画層
  1
*-7a
  1
*
  1
*
 70
     0
  1
*
  1
*
  0
XRECORD
  5
E00E26AF
102
{ACAD_REACTORS
330
E00E26A3
102
}
330
E00E26A3
100
AcDbXrecord
280
     1
  1
8
  1
*-8,8
  1
*
  1
*
 70
     0
  1
*
  1
*
  0
XRECORD
  5
E00E26B0
102
{ACAD_REACTORS
330
E00E26A3
102
}
330
E00E26A3
100
AcDbXrecord
280
     1
  1
ASYST
  1
ASYST*
  1
*
  1
*
 70
     0
  1
*
  1
*
  0
XRECORD
  5
E00E26B1
102
{ACAD_REACTORS
330
E00E26A3
102
}
330
E00E26A3
100
AcDbXrecord
280
     1
  1
ASYST PHASE 1
  1
A1.0-8$0$ASYT*
  1
*
  1
*
 70
     0
  1
*
  1
*
  0
XRECORD
  5
E00E26B2
102
{ACAD_REACTORS
330
E00E26A3
102
}
330
E00E26A3
100
AcDbXrecord
280
     1
  1
ASYST PHASE 2
  1
A2.0-8$0$ASYT*
  1
*
  1
*
 70
     0
  1
*
  1
*
  0
XRECORD
  5
E00E26B3
102
{ACAD_REACTORS
330
E00E26A3
102
}
330
E00E26A3
100
AcDbXrecord
280
     1
  1
cap-0
  1
*
  1
*
  1
*
 70
     0
  1
*
  1
*
  0
XRECORD
  5
E00E26B4
102
{ACAD_REACTORS
330
E00E26A3
102
}
330
E00E26A3
100
AcDbXrecord
280
     1
  1
dims
  1
*di*
  1
*
  1
*
 70
     0
  1
*
  1
*
  0
XRECORD
  5
E00E26B5
102
{ACAD_REACTORS
330
E00E26A3
102
}
330
E00E26A3
100
AcDbXrecord
280
     1
  1
elec
  1
e-*
  1
*
  1
*
 70
     0
  1
*
  1
*
  0
XRECORD
  5
E00E26B6
102
{ACAD_REACTORS
330
E00E26A3
102
}
330
E00E26A3
100
AcDbXrecord
280
     1
  1
ELECTRICAL
  1
E-*
  1
*
  1
*
 70
     0
  1
*
  1
*
  0
XRECORD
  5
E00E26B7
102
{ACAD_REACTORS
330
E00E26A3
102
}
330
E00E26A3
100
AcDbXrecord
280
     1
  1
F
  1
*
  1
*
  1
*
 70
     0
  1
*
  1
*
  0
XRECORD
  5
E00E26B8
102
{ACAD_REACTORS
330
E00E26A3
102
}
330
E00E26A3
100
AcDbXrecord
280
     1
  1
Frame
  1
F*
  1
*
  1
*
 70
     0
  1
*
  1
*
  0
XRECORD
  5
E00E26B9
102
{ACAD_REACTORS
330
E00E26A3
102
}
330
E00E26A3
100
AcDbXrecord
280
     1
  1
FROZEN
  1
*
  1
*
  1
*
 70
     4
  1
*
  1
*
  0
XRECORD
  5
E00E26BA
102
{ACAD_REACTORS
330
E00E26A3
102
}
330
E00E26A3
100
AcDbXrecord
280
     1
  1
FROZEN ACTIVE
  1
*
  1
*
  1
*
 70
    16
  1
*
  1
*
  0
XRECORD
  5
E00E26BB
102
{ACAD_REACTORS
330
E00E26A3
102
}
330
E00E26A3
100
AcDbXrecord
280
     1
  1
jiku-0
  1
*
  1
*
  1
*
 70
     0
  1
*
  1
*
  0
XRECORD
  5
E00E26BC
102
{ACAD_REACTORS
330
E00E26A3
102
}
330
E00E26A3
100
AcDbXrecord
280
     1
  1
MP
  1
MP_*
  1
*
  1
*
 70
     0
  1
*
  1
*
  0
XRECORD
  5
E00E26BD
102
{ACAD_REACTORS
330
E00E26A3
102
}
330
E00E26A3
100
AcDbXrecord
280
     1
  1
MPR
  1
MPR*
  1
*
  1
*
 70
     0
  1
*
  1
*
  0
XRECORD
  5
E00E26BE
102
{ACAD_REACTORS
330
E00E26A3
102
}
330
E00E26A3
100
AcDbXrecord
280
     1
  1
p-
  1
p-*
  1
*
  1
*
 70
     0
  1
*
  1
*
  0
XRECORD
  5
E00E26BF
102
{ACAD_REACTORS
330
E00E26A3
102
}
330
E00E26A3
100
AcDbXrecord
280
     1
  1
ST
  1
ST_*
  1
*
  1
*
 70
     0
  1
*
  1
*
  0
XRECORD
  5
E00E26C0
102
{ACAD_REACTORS
330
E00E26A3
102
}
330
E00E26A3
100
AcDbXrecord
280
     1
  1
TC
  1
TC_*,0N
  1
*
  1
*
 70
     0
  1
*
  1
*
  0
XRECORD
  5
E00E26C1
102
{ACAD_REACTORS
330
E00E26A3
102
}
330
E00E26A3
100
AcDbXrecord
280
     1
  1
TEXT
  1
TEXT
  1
*
  1
*
 70
     0
  1
*
  1
*
  0
XRECORD
  5
E00E26C2
102
{ACAD_REACTORS
330
E00E26A3
102
}
330
E00E26A3
100
AcDbXrecord
280
     1
  1
ｹｰﾌﾞﾙ図
  1
*
  1
*
  1
*
 70
     0
  1
*
  1
*
  0
XRECORD
  5
E00E26C3
102
{ACAD_REACTORS
330
E00E26A3
102
}
330
E00E26A3
100
AcDbXrecord
280
     1
  1
０画層
  1
*-0
  1
*
  1
*
 70
     0
  1
*
  1
*
  0
XRECORD
  5
E00E26C4
102
{ACAD_REACTORS
330
E00E26A3
102
}
330
E00E26A3
100
AcDbXrecord
280
     1
  1
３A画層
  1
*-3A
  1
*
  1
*
 70
     0
  1
*
  1
*
  0
XRECORD
  5
E00E26C5
102
{ACAD_REACTORS
330
E00E26A3
102
}
330
E00E26A3
100
AcDbXrecord
280
     1
  1
３画層
  1
*-3
  1
*
  1
*
 70
     0
  1
*
  1
*
  0
ENDSEC
  0
EOF
