  0
SECTION
  2
HEADER
  9
$ACADVER
  1
AC1014
  9
$ACADMAINTVER
 70
     9
  9
$DWGCODEPAGE
  3
ANSI_932
  9
$INSBASE
 10
0.0
 20
0.0
 30
0.0
  9
$EXTMIN
 10
0.0
 20
0.0
 30
0.0
  9
$EXTMAX
 10
361.999998552
 20
282.9999999999999
 30
0.0
  9
$LIMMIN
 10
0.0
 20
0.0
  9
$LIMMAX
 10
181.0
 20
283.0
  9
$ORTHOMODE
 70
     1
  9
$REGENMODE
 70
     1
  9
$FILLMODE
 70
     1
  9
$QTEXTMODE
 70
     0
  9
$MIRRTEXT
 70
     0
  9
$DRAGMODE
 70
     2
  9
$LTSCALE
 40
5.0
  9
$OSMODE
 70
   167
  9
$ATTMODE
 70
     1
  9
$TEXTSIZE
 40
3.0
  9
$TRACEWID
 40
0.05
  9
$TEXTSTYLE
  7
BIGFONT
  9
$CLAYER
  8
JISSEN
  9
$CELTYPE
  6
BYLAYER
  9
$CECOLOR
 62
   256
  9
$CELTSCALE
 40
1.0
  9
$DELOBJ
 70
     1
  9
$DISPSILH
 70
     0
  9
$DIMSCALE
 40
1.0
  9
$DIMASZ
 40
1.5
  9
$DIMEXO
 40
1.0
  9
$DIMDLI
 40
6.0
  9
$DIMRND
 40
0.0
  9
$DIMDLE
 40
0.0
  9
$DIMEXE
 40
1.0
  9
$DIMTP
 40
0.0
  9
$DIMTM
 40
0.0
  9
$DIMTXT
 40
3.0
  9
$DIMCEN
 40
1.0
  9
$DIMTSZ
 40
0.0
  9
$DIMTOL
 70
     0
  9
$DIMLIM
 70
     0
  9
$DIMTIH
 70
     0
  9
$DIMTOH
 70
     0
  9
$DIMSE1
 70
     0
  9
$DIMSE2
 70
     0
  9
$DIMTAD
 70
     0
  9
$DIMZIN
 70
     8
  9
$DIMBLK
  1
ARROW
  9
$DIMASO
 70
     0
  9
$DIMSHO
 70
     0
  9
$DIMPOST
  1

  9
$DIMAPOST
  1

  9
$DIMALT
 70
     0
  9
$DIMALTD
 70
     2
  9
$DIMALTF
 40
25.4
  9
$DIMLFAC
 40
1.0
  9
$DIMTOFL
 70
     1
  9
$DIMTVP
 40
0.0
  9
$DIMTIX
 70
     0
  9
$DIMSOXD
 70
     0
  9
$DIMSAH
 70
     0
  9
$DIMBLK1
  1
ARROWANG
  9
$DIMBLK2
  1
ARROWANG
  9
$DIMSTYLE
  2
IMAO
  9
$DIMCLRD
 70
     0
  9
$DIMCLRE
 70
     0
  9
$DIMCLRT
 70
     0
  9
$DIMTFAC
 40
1.0
  9
$DIMGAP
 40
0.09
  9
$DIMJUST
 70
     0
  9
$DIMSD1
 70
     0
  9
$DIMSD2
 70
     0
  9
$DIMTOLJ
 70
     1
  9
$DIMTZIN
 70
     8
  9
$DIMALTZ
 70
     8
  9
$DIMALTTZ
 70
     8
  9
$DIMFIT
 70
     5
  9
$DIMUPT
 70
     0
  9
$DIMUNIT
 70
     2
  9
$DIMDEC
 70
     2
  9
$DIMTDEC
 70
     2
  9
$DIMALTU
 70
     2
  9
$DIMALTTD
 70
     2
  9
$DIMTXSTY
  7
BIGFONT
  9
$DIMAUNIT
 70
     0
  9
$LUNITS
 70
     2
  9
$LUPREC
 70
     2
  9
$SKETCHINC
 40
0.1
  9
$FILLETRAD
 40
0.2
  9
$AUNITS
 70
     0
  9
$AUPREC
 70
     2
  9
$MENU
  1
stdr12j
  9
$ELEVATION
 40
0.0
  9
$PELEVATION
 40
0.0
  9
$THICKNESS
 40
0.0
  9
$LIMCHECK
 70
     0
  9
$BLIPMODE
 70
     0
  9
$CHAMFERA
 40
0.0
  9
$CHAMFERB
 40
0.0
  9
$CHAMFERC
 40
0.0
  9
$CHAMFERD
 40
0.0
  9
$SKPOLY
 70
     0
  9
$TDCREATE
 40
2450617.453041203
  9
$TDUPDATE
 40
2453334.773085023
  9
$TDINDWG
 40
0.1823997801
  9
$TDUSRTIMER
 40
0.1823997801
  9
$USRTIMER
 70
     1
  9
$ANGBASE
 50
0.0
  9
$ANGDIR
 70
     0
  9
$PDMODE
 70
     0
  9
$PDSIZE
 40
0.0
  9
$PLINEWID
 40
0.0
  9
$COORDS
 70
     2
  9
$SPLFRAME
 70
     0
  9
$SPLINETYPE
 70
     6
  9
$SPLINESEGS
 70
     8
  9
$ATTDIA
 70
     0
  9
$ATTREQ
 70
     1
  9
$HANDLING
 70
 22529
  9
$HANDSEED
  5
EF7C89C1D
  9
$SURFTAB1
 70
     6
  9
$SURFTAB2
 70
     6
  9
$SURFTYPE
 70
     6
  9
$SURFU
 70
     6
  9
$SURFV
 70
     6
  9
$UCSNAME
  2

  9
$UCSORG
 10
0.0
 20
0.0
 30
0.0
  9
$UCSXDIR
 10
1.0
 20
0.0
 30
0.0
  9
$UCSYDIR
 10
0.0
 20
1.0
 30
0.0
  9
$PUCSNAME
  2

  9
$PUCSORG
 10
0.0
 20
0.0
 30
0.0
  9
$PUCSXDIR
 10
1.0
 20
0.0
 30
0.0
  9
$PUCSYDIR
 10
0.0
 20
1.0
 30
0.0
  9
$USERI1
 70
     0
  9
$USERI2
 70
     1
  9
$USERI3
 70
     1
  9
$USERI4
 70
     3
  9
$USERI5
 70
     0
  9
$USERR1
 40
1.0
  9
$USERR2
 40
3.0
  9
$USERR3
 40
3.0
  9
$USERR4
 40
1.5
  9
$USERR5
 40
8.0
  9
$WORLDVIEW
 70
     1
  9
$SHADEDGE
 70
     3
  9
$SHADEDIF
 70
    70
  9
$TILEMODE
 70
     1
  9
$MAXACTVP
 70
    16
  9
$PINSBASE
 10
0.0
 20
0.0
 30
0.0
  9
$PLIMCHECK
 70
     0
  9
$PEXTMIN
 10
1.000000000000000E+20
 20
1.000000000000000E+20
 30
1.000000000000000E+20
  9
$PEXTMAX
 10
-1.000000000000000E+20
 20
-1.000000000000000E+20
 30
-1.000000000000000E+20
  9
$PLIMMIN
 10
0.0
 20
0.0
  9
$PLIMMAX
 10
12.0
 20
9.0
  9
$UNITMODE
 70
     0
  9
$VISRETAIN
 70
     0
  9
$PLINEGEN
 70
     0
  9
$PSLTSCALE
 70
     0
  9
$TREEDEPTH
 70
  3020
  9
$PICKSTYLE
 70
     1
  9
$CMLSTYLE
  2
STANDARD
  9
$CMLJUST
 70
     0
  9
$CMLSCALE
 40
1.0
  9
$PROXYGRAPHICS
 70
     1
  9
$MEASUREMENT
 70
     0
  0
ENDSEC
  0
SECTION
  2
CLASSES
  0
CLASS
  1
LWPOLYLINE
  2
AcDbPolyline
  3
AutoCAD 2000
 90
        0
280
     0
281
     1
  0
CLASS
  1
HATCH
  2
AcDbHatch
  3
AutoCAD 2000
 90
        0
280
     0
281
     1
  0
CLASS
  1
ACDBDICTIONARYWDFLT
  2
AcDbDictionaryWithDefault
  3
AutoCAD 2000
 90
        0
280
     0
281
     0
  0
CLASS
  1
ACDBPLACEHOLDER
  2
AcDbPlaceHolder
  3
AutoCAD 2000
 90
        0
280
     0
281
     0
  0
CLASS
  1
LAYOUT
  2
AcDbLayout
  3
AutoCAD 2000
 90
        0
280
     0
281
     0
  0
CLASS
  1
LONG_TRANSACTION
  2
AcDbLongTransaction
  3
AutoCAD 2000
 90
        0
280
     0
281
     0
  0
CLASS
  1
LWPOLYLINE
  2
AcDbPolyline
  3
AutoCAD 2000
 90
        0
280
     0
281
     1
  0
CLASS
  1
HATCH
  2
AcDbHatch
  3
AutoCAD 2000
 90
        0
280
     0
281
     1
  0
CLASS
  1
XRECORD
  2
AcDbXrecord
  3
AutoCAD 2000
 90
        0
280
     0
281
     0
  0
CLASS
  1
DICTIONARYVAR
  2
AcDbDictionaryVar
  3
AutoCAD 2000
 90
        0
280
     0
281
     0
  0
CLASS
  1
LONG_TRANSACTION
  2
AcDbLongTransaction
  3
AutoCAD 2000
 90
        0
280
     0
281
     0
  0
CLASS
  1
LWPOLYLINE
  2
AcDbPolyline
  3
AutoCAD 2000
 90
        0
280
     0
281
     1
  0
CLASS
  1
HATCH
  2
AcDbHatch
  3
AutoCAD 2000
 90
        0
280
     0
281
     1
  0
CLASS
  1
XRECORD
  2
AcDbXrecord
  3
AutoCAD 2000
 90
        0
280
     0
281
     0
  0
CLASS
  1
LONG_TRANSACTION
  2
AcDbLongTransaction
  3
AutoCAD 2000
 90
        0
280
     0
281
     0
  0
CLASS
  1
LWPOLYLINE
  2
AcDbPolyline
  3
AutoCAD 2000
 90
        0
280
     0
281
     1
  0
CLASS
  1
HATCH
  2
AcDbHatch
  3
AutoCAD 2000
 90
        0
280
     0
281
     1
  0
CLASS
  1
XRECORD
  2
AcDbXrecord
  3
AutoCAD 2000
 90
        0
280
     0
281
     0
  0
CLASS
  1
LONG_TRANSACTION
  2
AcDbLongTransaction
  3
AutoCAD 2000
 90
        0
280
     0
281
     0
  0
CLASS
  1
LWPOLYLINE
  2
AcDbPolyline
  3
AutoCAD 2000
 90
        0
280
     0
281
     1
  0
CLASS
  1
HATCH
  2
AcDbHatch
  3
AutoCAD 2000
 90
        0
280
     0
281
     1
  0
CLASS
  1
XRECORD
  2
AcDbXrecord
  3
AutoCAD 2000
 90
        0
280
     0
281
     0
  0
CLASS
  1
LONG_TRANSACTION
  2
AcDbLongTransaction
  3
AutoCAD 2000
 90
        0
280
     0
281
     0
  0
CLASS
  1
LWPOLYLINE
  2
AcDbPolyline
  3
AutoCAD 2000
 90
        0
280
     0
281
     1
  0
CLASS
  1
HATCH
  2
AcDbHatch
  3
AutoCAD 2000
 90
        0
280
     0
281
     1
  0
CLASS
  1
XRECORD
  2
AcDbXrecord
  3
AutoCAD 2000
 90
        0
280
     0
281
     0
  0
CLASS
  1
LONG_TRANSACTION
  2
AcDbLongTransaction
  3
AutoCAD 2000
 90
        0
280
     0
281
     0
  0
CLASS
  1
LWPOLYLINE
  2
AcDbPolyline
  3
AutoCAD 2000
 90
        0
280
     0
281
     1
  0
CLASS
  1
HATCH
  2
AcDbHatch
  3
AutoCAD 2000
 90
        0
280
     0
281
     1
  0
CLASS
  1
XRECORD
  2
AcDbXrecord
  3
AutoCAD 2000
 90
        0
280
     0
281
     0
  0
CLASS
  1
LONG_TRANSACTION
  2
AcDbLongTransaction
  3
AutoCAD 2000
 90
        0
280
     0
281
     0
  0
CLASS
  1
LWPOLYLINE
  2
AcDbPolyline
  3
AutoCAD 2000
 90
        0
280
     0
281
     1
  0
CLASS
  1
HATCH
  2
AcDbHatch
  3
AutoCAD 2000
 90
        0
280
     0
281
     1
  0
CLASS
  1
XRECORD
  2
AcDbXrecord
  3
AutoCAD 2000
 90
        0
280
     0
281
     0
  0
CLASS
  1
LONG_TRANSACTION
  2
AcDbLongTransaction
  3
AutoCAD 2000
 90
        0
280
     0
281
     0
  0
CLASS
  1
LWPOLYLINE
  2
AcDbPolyline
  3
AutoCAD 2000
 90
        0
280
     0
281
     1
  0
CLASS
  1
HATCH
  2
AcDbHatch
  3
AutoCAD 2000
 90
        0
280
     0
281
     1
  0
CLASS
  1
XRECORD
  2
AcDbXrecord
  3
AutoCAD 2000
 90
        0
280
     0
281
     0
  0
CLASS
  1
LONG_TRANSACTION
  2
AcDbLongTransaction
  3
AutoCAD 2000
 90
        0
280
     0
281
     0
  0
CLASS
  1
LWPOLYLINE
  2
AcDbPolyline
  3
AutoCAD 2000
 90
        0
280
     0
281
     1
  0
CLASS
  1
HATCH
  2
AcDbHatch
  3
AutoCAD 2000
 90
        0
280
     0
281
     1
  0
CLASS
  1
XRECORD
  2
AcDbXrecord
  3
AutoCAD 2000
 90
        0
280
     0
281
     0
  0
CLASS
  1
LONG_TRANSACTION
  2
AcDbLongTransaction
  3
AutoCAD 2000
 90
        0
280
     0
281
     0
  0
CLASS
  1
LWPOLYLINE
  2
AcDbPolyline
  3
AutoCAD 2000
 90
        0
280
     0
281
     1
  0
CLASS
  1
HATCH
  2
AcDbHatch
  3
AutoCAD 2000
 90
        0
280
     0
281
     1
  0
CLASS
  1
XRECORD
  2
AcDbXrecord
  3
AutoCAD 2000
 90
        0
280
     0
281
     0
  0
CLASS
  1
LONG_TRANSACTION
  2
AcDbLongTransaction
  3
AutoCAD 2000
 90
        0
280
     0
281
     0
  0
CLASS
  1
LWPOLYLINE
  2
AcDbPolyline
  3
AutoCAD 2000
 90
        0
280
     0
281
     1
  0
CLASS
  1
HATCH
  2
AcDbHatch
  3
AutoCAD 2000
 90
        0
280
     0
281
     1
  0
CLASS
  1
XRECORD
  2
AcDbXrecord
  3
AutoCAD 2000
 90
        0
280
     0
281
     0
  0
CLASS
  1
LONG_TRANSACTION
  2
AcDbLongTransaction
  3
AutoCAD 2000
 90
        0
280
     0
281
     0
  0
CLASS
  1
LWPOLYLINE
  2
AcDbPolyline
  3
AutoCAD 2000
 90
        0
280
     0
281
     1
  0
CLASS
  1
HATCH
  2
AcDbHatch
  3
AutoCAD 2000
 90
        0
280
     0
281
     1
  0
CLASS
  1
XRECORD
  2
AcDbXrecord
  3
AutoCAD 2000
 90
        0
280
     0
281
     0
  0
CLASS
  1
LONG_TRANSACTION
  2
AcDbLongTransaction
  3
AutoCAD 2000
 90
        0
280
     0
281
     0
  0
CLASS
  1
LWPOLYLINE
  2
AcDbPolyline
  3
AutoCAD 2000
 90
        0
280
     0
281
     1
  0
CLASS
  1
HATCH
  2
AcDbHatch
  3
AutoCAD 2000
 90
        0
280
     0
281
     1
  0
CLASS
  1
XRECORD
  2
AcDbXrecord
  3
AutoCAD 2000
 90
        0
280
     0
281
     0
  0
CLASS
  1
LONG_TRANSACTION
  2
AcDbLongTransaction
  3
AutoCAD 2000
 90
        0
280
     0
281
     0
  0
CLASS
  1
LWPOLYLINE
  2
AcDbPolyline
  3
AutoCAD 2000
 90
        0
280
     0
281
     1
  0
CLASS
  1
HATCH
  2
AcDbHatch
  3
AutoCAD 2000
 90
        0
280
     0
281
     1
  0
CLASS
  1
XRECORD
  2
AcDbXrecord
  3
AutoCAD 2000
 90
        0
280
     0
281
     0
  0
CLASS
  1
LONG_TRANSACTION
  2
AcDbLongTransaction
  3
AutoCAD 2000
 90
        0
280
     0
281
     0
  0
CLASS
  1
LWPOLYLINE
  2
AcDbPolyline
  3
AutoCAD 2000
 90
        0
280
     0
281
     1
  0
CLASS
  1
HATCH
  2
AcDbHatch
  3
AutoCAD 2000
 90
        0
280
     0
281
     1
  0
CLASS
  1
XRECORD
  2
AcDbXrecord
  3
AutoCAD 2000
 90
        0
280
     0
281
     0
  0
CLASS
  1
LONG_TRANSACTION
  2
AcDbLongTransaction
  3
AutoCAD 2000
 90
        0
280
     0
281
     0
  0
CLASS
  1
LWPOLYLINE
  2
AcDbPolyline
  3
AutoCAD 2000
 90
        0
280
     0
281
     1
  0
CLASS
  1
HATCH
  2
AcDbHatch
  3
AutoCAD 2000
 90
        0
280
     0
281
     1
  0
CLASS
  1
XRECORD
  2
AcDbXrecord
  3
AutoCAD 2000
 90
        0
280
     0
281
     0
  0
CLASS
  1
LONG_TRANSACTION
  2
AcDbLongTransaction
  3
AutoCAD 2000
 90
        0
280
     0
281
     0
  0
CLASS
  1
LWPOLYLINE
  2
AcDbPolyline
  3
AutoCAD 2000
 90
        0
280
     0
281
     1
  0
CLASS
  1
HATCH
  2
AcDbHatch
  3
AutoCAD 2000
 90
        0
280
     0
281
     1
  0
CLASS
  1
XRECORD
  2
AcDbXrecord
  3
AutoCAD 2000
 90
        0
280
     0
281
     0
  0
CLASS
  1
LONG_TRANSACTION
  2
AcDbLongTransaction
  3
AutoCAD 2000
 90
        0
280
     0
281
     0
  0
CLASS
  1
LWPOLYLINE
  2
AcDbPolyline
  3
AutoCAD 2000
 90
        0
280
     0
281
     1
  0
CLASS
  1
HATCH
  2
AcDbHatch
  3
AutoCAD 2000
 90
        0
280
     0
281
     1
  0
CLASS
  1
XRECORD
  2
AcDbXrecord
  3
AutoCAD 2000
 90
        0
280
     0
281
     0
  0
ENDSEC
  0
SECTION
  2
TABLES
  0
TABLE
  2
VPORT
  5
EF7C85523
330
0
100
AcDbSymbolTable
 70
    10
  0
VPORT
  5
EF7C85567
330
EF7C85523
100
AcDbSymbolTableRecord
100
AcDbViewportTableRecord
  2
2
 70
     0
 10
0.5
 20
0.0
 11
1.0
 21
1.0
 12
0.9240312421264802
 22
1.052650975462766
 13
0.0
 23
0.0
 14
1.0
 24
1.0
 15
10.0
 25
10.0
 16
0.0
 26
0.0
 36
1.0
 17
0.0
 27
0.0
 37
0.0
 40
2.105301950925533
 41
0.8778135048231511
 42
50.0
 43
0.0
 44
0.0
 50
0.0
 51
0.0
 71
     0
 72
   500
 73
     1
 74
     1
 75
     0
 76
     0
 77
     0
 78
     0
  0
VPORT
  5
EF7C85568
330
EF7C85523
100
AcDbSymbolTableRecord
100
AcDbViewportTableRecord
  2
2
 70
     0
 10
0.0
 20
0.0
 11
0.5
 21
1.0
 12
0.9240312421264802
 22
1.052650975462766
 13
0.0
 23
0.0
 14
1.0
 24
1.0
 15
10.0
 25
10.0
 16
0.0
 26
0.0
 36
1.0
 17
0.0
 27
0.0
 37
0.0
 40
2.105301950925533
 41
0.8778135048231511
 42
50.0
 43
0.0
 44
0.0
 50
0.0
 51
0.0
 71
     0
 72
   500
 73
     1
 74
     1
 75
     0
 76
     0
 77
     0
 78
     0
  0
VPORT
  5
EF7C85569
330
EF7C85523
100
AcDbSymbolTableRecord
100
AcDbViewportTableRecord
  2
3
 70
     0
 10
0.0
 20
0.5
 11
1.0
 21
1.0
 12
2.832169994473273
 22
1.052650975462766
 13
0.0
 23
0.0
 14
1.0
 24
1.0
 15
10.0
 25
10.0
 16
0.0
 26
0.0
 36
1.0
 17
0.0
 27
0.0
 37
0.0
 40
2.105301950925533
 41
3.571428571428571
 42
50.0
 43
0.0
 44
0.0
 50
0.0
 51
0.0
 71
     0
 72
   500
 73
     1
 74
     1
 75
     0
 76
     0
 77
     0
 78
     0
  0
VPORT
  5
EF7C8556A
330
EF7C85523
100
AcDbSymbolTableRecord
100
AcDbViewportTableRecord
  2
3
 70
     0
 10
0.0
 20
0.0
 11
1.0
 21
0.5
 12
2.856741679241311
 22
1.052650975462766
 13
0.0
 23
0.0
 14
1.0
 24
1.0
 15
10.0
 25
10.0
 16
0.0
 26
0.0
 36
1.0
 17
0.0
 27
0.0
 37
0.0
 40
2.105301950925533
 41
3.594771241830065
 42
50.0
 43
0.0
 44
0.0
 50
0.0
 51
0.0
 71
     0
 72
   500
 73
     1
 74
     1
 75
     0
 76
     0
 77
     0
 78
     0
  0
VPORT
  5
EF7C8556B
330
EF7C85523
100
AcDbSymbolTableRecord
100
AcDbViewportTableRecord
  2
4
 70
     0
 10
0.5
 20
0.0
 11
1.0
 21
0.5
 12
2.886857516709719
 22
1.052650975462766
 13
0.0
 23
0.0
 14
1.0
 24
1.0
 15
10.0
 25
10.0
 16
0.0
 26
0.0
 36
1.0
 17
0.0
 27
0.0
 37
0.0
 40
4.27520703030907
 41
1.784313725490195
 42
50.0
 43
0.0
 44
0.0
 50
0.0
 51
0.0
 71
     0
 72
   500
 73
     1
 74
     1
 75
     0
 76
     0
 77
     0
 78
     0
  0
VPORT
  5
EF7C8556C
330
EF7C85523
100
AcDbSymbolTableRecord
100
AcDbViewportTableRecord
  2
4
 70
     0
 10
0.5
 20
0.5
 11
1.0
 21
1.0
 12
2.862090274555523
 22
1.052650975462766
 13
0.0
 23
0.0
 14
1.0
 24
1.0
 15
10.0
 25
10.0
 16
0.0
 26
0.0
 36
1.0
 17
0.0
 27
0.0
 37
0.0
 40
4.27520703030907
 41
1.772727272727272
 42
50.0
 43
0.0
 44
0.0
 50
0.0
 51
0.0
 71
     0
 72
   500
 73
     1
 74
     1
 75
     0
 76
     0
 77
     0
 78
     0
  0
VPORT
  5
EF7C8556D
330
EF7C85523
100
AcDbSymbolTableRecord
100
AcDbViewportTableRecord
  2
4
 70
     0
 10
0.0
 20
0.5
 11
0.5
 21
1.0
 12
2.862090274555523
 22
1.052650975462766
 13
0.0
 23
0.0
 14
1.0
 24
1.0
 15
10.0
 25
10.0
 16
0.0
 26
0.0
 36
1.0
 17
0.0
 27
0.0
 37
0.0
 40
4.27520703030907
 41
1.772727272727272
 42
50.0
 43
0.0
 44
0.0
 50
0.0
 51
0.0
 71
     0
 72
   500
 73
     1
 74
     1
 75
     0
 76
     0
 77
     0
 78
     0
  0
VPORT
  5
EF7C8556E
330
EF7C85523
100
AcDbSymbolTableRecord
100
AcDbViewportTableRecord
  2
4
 70
     0
 10
0.0
 20
0.0
 11
0.5
 21
0.5
 12
2.886857516709719
 22
1.052650975462766
 13
0.0
 23
0.0
 14
1.0
 24
1.0
 15
10.0
 25
10.0
 16
0.0
 26
0.0
 36
1.0
 17
0.0
 27
0.0
 37
0.0
 40
4.27520703030907
 41
1.784313725490195
 42
50.0
 43
0.0
 44
0.0
 50
0.0
 51
0.0
 71
     0
 72
   500
 73
     1
 74
     1
 75
     0
 76
     0
 77
     0
 78
     0
  0
VPORT
  5
EF7C89BF9
330
EF7C85523
100
AcDbSymbolTableRecord
100
AcDbViewportTableRecord
  2
*ACTIVE
 70
     0
 10
0.0
 20
0.0
 11
1.0
 21
1.0
 12
262.860603878972
 22
141.5036035315359
 13
0.0
 23
0.0
 14
1.0
 24
1.0
 15
10.0
 25
10.0
 16
0.0
 26
0.0
 36
1.0
 17
0.0
 27
0.0
 37
0.0
 40
286.2638397352773
 41
1.771962616822429
 42
50.0
 43
0.0
 44
0.0
 50
0.0
 51
0.0
 71
     0
 72
   500
 73
     1
 74
     0
 75
     0
 76
     0
 77
     0
 78
     0
  0
ENDTAB
  0
TABLE
  2
LTYPE
  5
EF7C85520
330
0
100
AcDbSymbolTable
 70
     2
  0
LTYPE
  5
EF7C8552C
330
EF7C85520
100
AcDbSymbolTableRecord
100
AcDbLinetypeTableRecord
  2
BYBLOCK
 70
     0
  3

 72
    65
 73
     0
 40
0.0
  0
LTYPE
  5
EF7C8552D
330
EF7C85520
100
AcDbSymbolTableRecord
100
AcDbLinetypeTableRecord
  2
BYLAYER
 70
     0
  3

 72
    65
 73
     0
 40
0.0
  0
LTYPE
  5
EF7C8552E
330
EF7C85520
100
AcDbSymbolTableRecord
100
AcDbLinetypeTableRecord
  2
CONTINUOUS
 70
     0
  3
実線
 72
    65
 73
     0
 40
0.0
  0
LTYPE
  5
EF7C85565
330
EF7C85520
100
AcDbSymbolTableRecord
100
AcDbLinetypeTableRecord
  2
PHANTOM
 70
     0
  3
_____ _ _ _____ _ _ _____ _ _ _____ _ _ ____
 72
    65
 73
     6
 40
2.5
 49
1.25
 74
     0
 49
-0.25
 74
     0
 49
0.25
 74
     0
 49
-0.25
 74
     0
 49
0.25
 74
     0
 49
-0.25
 74
     0
  0
ENDTAB
  0
TABLE
  2
LAYER
  5
EF7C8551D
330
0
100
AcDbSymbolTable
 70
     8
  0
LAYER
  5
EF7C85529
330
EF7C8551D
100
AcDbSymbolTableRecord
100
AcDbLayerTableRecord
  2
0
 70
     0
 62
     6
  6
CONTINUOUS
  0
LAYER
  5
EF7C85574
330
EF7C8551D
100
AcDbSymbolTableRecord
100
AcDbLayerTableRecord
  2
NITEN
 70
     0
 62
     2
  6
PHANTOM
  0
LAYER
  5
EF7C85575
330
EF7C8551D
100
AcDbSymbolTableRecord
100
AcDbLayerTableRecord
  2
HATCH
 70
     0
 62
     4
  6
CONTINUOUS
  0
LAYER
  5
EF7C85576
330
EF7C8551D
100
AcDbSymbolTableRecord
100
AcDbLayerTableRecord
  2
SUNPOU
 70
     0
 62
     3
  6
CONTINUOUS
  0
LAYER
  5
EF7C85577
330
EF7C8551D
100
AcDbSymbolTableRecord
100
AcDbLayerTableRecord
  2
TEXT
 70
     0
 62
     3
  6
CONTINUOUS
  0
LAYER
  5
EF7C85578
330
EF7C8551D
100
AcDbSymbolTableRecord
100
AcDbLayerTableRecord
  2
SAISEN
 70
     0
 62
     4
  6
CONTINUOUS
  0
LAYER
  5
EF7C85579
330
EF7C8551D
100
AcDbSymbolTableRecord
100
AcDbLayerTableRecord
  2
JISSEN
 70
     0
 62
     7
  6
CONTINUOUS
  0
LAYER
  5
EF7C8557D
330
EF7C8551D
100
AcDbSymbolTableRecord
100
AcDbLayerTableRecord
  2
WAKU
 70
     0
 62
     5
  6
CONTINUOUS
  0
ENDTAB
  0
TABLE
  2
STYLE
  5
EF7C8551E
330
0
100
AcDbSymbolTable
 70
     3
  0
STYLE
  5
EF7C8552A
330
EF7C8551E
100
AcDbSymbolTableRecord
100
AcDbTextStyleTableRecord
  2
STANDARD
 70
     0
 40
0.0
 41
1.0
 50
0.0
 71
     0
 42
1.5
  3
SIMPLEX
  4

  0
STYLE
  5
EF7C85558
330
EF7C8551E
100
AcDbSymbolTableRecord
100
AcDbTextStyleTableRecord
  2
K
 70
     0
 40
0.0
 41
1.0
 50
0.0
 71
     0
 42
3.0
  3
ROMANS
  4
BIGFONT
  0
STYLE
  5
EF7C8555B
330
EF7C8551E
100
AcDbSymbolTableRecord
100
AcDbTextStyleTableRecord
  2
BIGFONT
 70
     0
 40
0.0
 41
1.0
 50
0.0
 71
     0
 42
3.0
  3
txt.shx
  4
bigfont
  0
ENDTAB
  0
TABLE
  2
VIEW
  5
EF7C85521
330
0
100
AcDbSymbolTable
 70
     0
  0
ENDTAB
  0
TABLE
  2
UCS
  5
EF7C85522
330
0
100
AcDbSymbolTable
 70
     0
  0
ENDTAB
  0
TABLE
  2
APPID
  5
EF7C85524
330
0
100
AcDbSymbolTable
 70
     1
  0
APPID
  5
EF7C8552B
330
EF7C85524
100
AcDbSymbolTableRecord
100
AcDbRegAppTableRecord
  2
ACAD
 70
     0
  0
ENDTAB
  0
TABLE
  2
DIMSTYLE
  5
EF7C85525
330
0
100
AcDbSymbolTable
 70
     1
  0
DIMSTYLE
105
EF7C85571
330
EF7C85525
100
AcDbSymbolTableRecord
100
AcDbDimStyleTableRecord
  2
IMAO
 70
     0
  3

  4

  5
ARROWANG
  6
ARROWANG
  7
ARROWANG
 40
1.0
 41
1.5
 42
1.0
 43
6.0
 44
1.0
 45
0.0
 46
0.0
 47
495.0
 48
0.0
140
3.0
141
0.0
142
0.0
143
25.4
144
1.0
145
0.0
146
1.0
147
0.09
 71
     0
 72
     0
 73
     0
 74
     0
 75
     0
 76
     0
 77
     1
 78
     8
170
     0
171
     2
172
     1
173
     0
174
     1
175
     0
176
     0
177
     0
178
     0
270
     2
271
     2
272
     2
273
     2
274
     2
340
EF7C8555B
275
     0
280
     0
281
     0
282
     0
283
     1
284
     8
285
     8
286
     8
287
     5
288
     0
  0
ENDTAB
  0
TABLE
  2
BLOCK_RECORD
  5
EF7C8551C
330
0
100
AcDbSymbolTable
 70
    10
  0
BLOCK_RECORD
  5
EF7C85532
102
{ACAD_XDICTIONARY
360
EF7C85D9A
102
}
330
EF7C8551C
100
AcDbSymbolTableRecord
100
AcDbBlockTableRecord
  2
*MODEL_SPACE
  0
BLOCK_RECORD
  5
EF7C8552F
102
{ACAD_XDICTIONARY
360
EF7C85D98
102
}
330
EF7C8551C
100
AcDbSymbolTableRecord
100
AcDbBlockTableRecord
  2
*PAPER_SPACE
  0
BLOCK_RECORD
  5
EF7C85537
330
EF7C8551C
100
AcDbSymbolTableRecord
100
AcDbBlockTableRecord
  2
ARROW
  0
BLOCK_RECORD
  5
EF7C8553B
330
EF7C8551C
100
AcDbSymbolTableRecord
100
AcDbBlockTableRecord
  2
WAKU
  0
BLOCK_RECORD
  5
EF7C8553D
330
EF7C8551C
100
AcDbSymbolTableRecord
100
AcDbBlockTableRecord
  2
*X2
  0
BLOCK_RECORD
  5
EF7C8553E
330
EF7C8551C
100
AcDbSymbolTableRecord
100
AcDbBlockTableRecord
  2
STDGX5
  0
BLOCK_RECORD
  5
EF7C8553F
330
EF7C8551C
100
AcDbSymbolTableRecord
100
AcDbBlockTableRecord
  2
*X4
  0
BLOCK_RECORD
  5
EF7C85540
330
EF7C8551C
100
AcDbSymbolTableRecord
100
AcDbBlockTableRecord
  2
*X5
  0
BLOCK_RECORD
  5
EF7C85541
330
EF7C8551C
100
AcDbSymbolTableRecord
100
AcDbBlockTableRecord
  2
*X6
  0
BLOCK_RECORD
  5
EF7C85542
330
EF7C8551C
100
AcDbSymbolTableRecord
100
AcDbBlockTableRecord
  2
*X7
  0
BLOCK_RECORD
  5
EF7C85543
330
EF7C8551C
100
AcDbSymbolTableRecord
100
AcDbBlockTableRecord
  2
ARROWANG
  0
BLOCK_RECORD
  5
EF7C85544
330
EF7C8551C
100
AcDbSymbolTableRecord
100
AcDbBlockTableRecord
  2
STDR12J
  0
ENDTAB
  0
ENDSEC
  0
SECTION
  2
BLOCKS
  0
BLOCK
  5
EF7C85580
330
EF7C85532
100
AcDbEntity
  8
0
100
AcDbBlockBegin
  2
*MODEL_SPACE
 70
     0
 10
0.0
 20
0.0
 30
0.0
  3
*MODEL_SPACE
  1

  0
ENDBLK
  5
EF7C85581
330
EF7C85532
100
AcDbEntity
  8
0
100
AcDbBlockEnd
  0
BLOCK
  5
EF7C8557E
330
EF7C8552F
100
AcDbEntity
 67
     1
  8
0
100
AcDbBlockBegin
  2
*PAPER_SPACE
 70
     0
 10
0.0
 20
0.0
 30
0.0
  3
*PAPER_SPACE
  1

  0
ENDBLK
  5
EF7C8557F
330
EF7C8552F
100
AcDbEntity
 67
     1
  8
0
100
AcDbBlockEnd
  0
BLOCK
  5
499
330
EF7C85537
100
AcDbEntity
  8
0
100
AcDbBlockBegin
  2
ARROW
 70
     0
 10
1.0
 20
0.5
 30
0.0
  3
ARROW
  1

  0
LINE
  5
49A
330
EF7C85537
100
AcDbEntity
  8
0
100
AcDbLine
 10
1.0
 20
0.5
 30
0.0
 11
-0.5000000000000214
 21
0.0980762113533018
 31
0.0
  0
LINE
  5
49B
330
EF7C85537
100
AcDbEntity
  8
0
100
AcDbLine
 10
0.0
 20
0.5
 30
0.0
 11
1.0
 21
0.5
 31
0.0
  0
LINE
  5
49C
330
EF7C85537
100
AcDbEntity
  8
0
100
AcDbLine
 10
1.0
 20
0.5
 30
0.0
 11
-0.4999999999999574
 21
0.9019237886467408
 31
0.0
  0
ENDBLK
  5
49D
330
EF7C85537
100
AcDbEntity
  8
0
100
AcDbBlockEnd
  0
BLOCK
  5
4A7
330
EF7C8553B
100
AcDbEntity
  8
0
100
AcDbBlockBegin
  2
WAKU
 70
     0
 10
0.0
 20
0.0
 30
0.0
  3
WAKU
  1

  0
LINE
  5
4A8
330
EF7C8553B
100
AcDbEntity
  8
WAKU
100
AcDbLine
 10
0.999999996
 20
0.0
 30
0.0
 11
0.999999996
 21
0.9999999999999998
 31
0.0
  0
LINE
  5
4A9
330
EF7C8553B
100
AcDbEntity
  8
WAKU
100
AcDbLine
 10
0.0
 20
0.9999999999999998
 30
0.0
 11
0.999999996
 21
0.9999999999999998
 31
0.0
  0
LINE
  5
4AA
330
EF7C8553B
100
AcDbEntity
  8
WAKU
100
AcDbLine
 10
0.999999996
 20
0.0
 30
0.0
 11
0.0
 21
0.0
 31
0.0
  0
LINE
  5
4AB
330
EF7C8553B
100
AcDbEntity
  8
WAKU
100
AcDbLine
 10
0.0
 20
0.0
 30
0.0
 11
0.0
 21
0.9999999999999998
 31
0.0
  0
ENDBLK
  5
4AC
330
EF7C8553B
100
AcDbEntity
  8
0
100
AcDbBlockEnd
  0
BLOCK
  5
2764
330
EF7C8553D
100
AcDbEntity
  8
0
100
AcDbBlockBegin
  2
*X2
 70
     1
 10
0.0
 20
0.0
 30
0.0
  3
*X2
  1

  0
ENDBLK
  5
2765
330
EF7C8553D
100
AcDbEntity
  8
0
100
AcDbBlockEnd
  0
BLOCK
  5
2766
330
EF7C8553E
100
AcDbEntity
  8
0
100
AcDbBlockBegin
  2
STDGX5
 70
     0
 10
0.0
 20
0.0
 30
0.0
  3
STDGX5
  1

  0
ENDBLK
  5
2767
330
EF7C8553E
100
AcDbEntity
  8
0
100
AcDbBlockEnd
  0
BLOCK
  5
2F5A
330
EF7C8553F
100
AcDbEntity
  8
0
100
AcDbBlockBegin
  2
*X4
 70
     1
 10
0.0
 20
0.0
 30
0.0
  3
*X4
  1

  0
ENDBLK
  5
2F5B
330
EF7C8553F
100
AcDbEntity
  8
0
100
AcDbBlockEnd
  0
BLOCK
  5
32BB
330
EF7C85540
100
AcDbEntity
  8
0
100
AcDbBlockBegin
  2
*X5
 70
     1
 10
0.0
 20
0.0
 30
0.0
  3
*X5
  1

  0
ENDBLK
  5
32BC
330
EF7C85540
100
AcDbEntity
  8
0
100
AcDbBlockEnd
  0
BLOCK
  5
372F
330
EF7C85541
100
AcDbEntity
  8
0
100
AcDbBlockBegin
  2
*X6
 70
     1
 10
0.0
 20
0.0
 30
0.0
  3
*X6
  1

  0
ENDBLK
  5
3730
330
EF7C85541
100
AcDbEntity
  8
0
100
AcDbBlockEnd
  0
BLOCK
  5
3A6D
330
EF7C85542
100
AcDbEntity
  8
0
100
AcDbBlockBegin
  2
*X7
 70
     1
 10
0.0
 20
0.0
 30
0.0
  3
*X7
  1

  0
ENDBLK
  5
3A6E
330
EF7C85542
100
AcDbEntity
  8
0
100
AcDbBlockEnd
  0
BLOCK
  5
4CC9
330
EF7C85543
100
AcDbEntity
  8
0
100
AcDbBlockBegin
  2
ARROWANG
 70
     0
 10
0.0
 20
0.0
 30
0.0
  3
ARROWANG
  1

  0
LINE
  5
4CCA
330
EF7C85543
100
AcDbEntity
  8
SUNPOU
100
AcDbLine
 10
0.0
 20
0.0
 30
0.0
 11
-1.499999999999957
 21
0.4019237886467409
 31
0.0
  0
LINE
  5
4CCB
330
EF7C85543
100
AcDbEntity
  8
SUNPOU
100
AcDbLine
 10
0.0
 20
0.0
 30
0.0
 11
-1.500000000000028
 21
-0.4019237886467124
 31
0.0
  0
ENDBLK
  5
4CCC
330
EF7C85543
100
AcDbEntity
  8
0
100
AcDbBlockEnd
  0
BLOCK
  5
4CCD
330
EF7C85544
100
AcDbEntity
  8
0
100
AcDbBlockBegin
  2
STDR12J
 70
     0
 10
0.0
 20
0.0
 30
0.0
  3
STDR12J
  1

  0
ENDBLK
  5
4CF2
330
EF7C85544
100
AcDbEntity
  8
0
100
AcDbBlockEnd
  0
ENDSEC
  0
SECTION
  2
ENTITIES
  0
TEXT
  5
1
330
EF7C85532
100
AcDbEntity
  8
SUNPOU
100
AcDbText
 10
95.05869565217389
 20
43.7966872748706
 30
0.0
 40
1.5
  1
                          
100
AcDbText
  0
TEXT
  5
2
330
EF7C85532
100
AcDbEntity
  8
SUNPOU
100
AcDbText
 10
332.2793466870868
 20
21.8983436374353
 30
0.0
 40
0.75
  1
                          
100
AcDbText
  0
TEXT
  5
1A
330
EF7C85532
100
AcDbEntity
  8
SUNPOU
100
AcDbText
 10
289.9834441000535
 20
43.7966872748706
 30
0.0
 40
1.5
  1
                          
100
AcDbText
  0
TEXT
  5
1B
330
EF7C85532
100
AcDbEntity
  8
SUNPOU
100
AcDbText
 10
527.2040951349665
 20
21.8983436374353
 30
0.0
 40
0.75
  1
                          
100
AcDbText
  0
TEXT
  5
1C
330
EF7C85532
100
AcDbEntity
  8
SUNPOU
100
AcDbText
 10
490.6272568090836
 20
43.79668727487057
 30
0.0
 40
1.5
  1
                          
100
AcDbText
  0
TEXT
  5
1D
330
EF7C85532
100
AcDbEntity
  8
SUNPOU
100
AcDbText
 10
727.8479078439966
 20
21.89834363743527
 30
0.0
 40
0.75
  1
                          
100
AcDbText
  0
INSERT
  5
1E
330
EF7C85532
100
AcDbEntity
  8
HATCH
100
AcDbBlockReference
  2
*X2
 10
194.9247484478796
 20
0.0
 30
0.0
  0
TEXT
  5
1F
330
EF7C85532
100
AcDbEntity
  8
SUNPOU
100
AcDbText
 10
493.0101992368964
 20
43.7966872748706
 30
0.0
 40
1.5
  1
                          
100
AcDbText
  0
TEXT
  5
20
330
EF7C85532
100
AcDbEntity
  8
SUNPOU
100
AcDbText
 10
730.2308502718094
 20
21.8983436374353
 30
0.0
 40
0.75
  1
                          
100
AcDbText
  0
TEXT
  5
21
330
EF7C85532
100
AcDbEntity
  8
SUNPOU
100
AcDbText
 10
482.0486607753579
 20
43.7966872748706
 30
0.0
 40
1.5
  1
                          
100
AcDbText
  0
TEXT
  5
22
330
EF7C85532
100
AcDbEntity
  8
SUNPOU
100
AcDbText
 10
719.269311810271
 20
21.8983436374353
 30
0.0
 40
0.75
  1
                          
100
AcDbText
  0
INSERT
  5
25
330
EF7C85532
100
AcDbEntity
  8
JISSEN
100
AcDbBlockReference
  2
STDGX5
 10
0.0
 20
0.0
 30
0.0
  0
TEXT
  5
60
330
EF7C85532
100
AcDbEntity
  8
SUNPOU
100
AcDbText
 10
274.0586949361738
 20
43.7966872748706
 30
0.0
 40
1.5
  1
                          
100
AcDbText
  0
TEXT
  5
61
330
EF7C85532
100
AcDbEntity
  8
SUNPOU
100
AcDbText
 10
511.2793459710869
 20
21.8983436374353
 30
0.0
 40
0.75
  1
                          
100
AcDbText
  0
TEXT
  5
62
330
EF7C85532
100
AcDbEntity
  8
SUNPOU
100
AcDbText
 10
474.702507645204
 20
43.79668727487057
 30
0.0
 40
1.5
  1
                          
100
AcDbText
  0
TEXT
  5
63
330
EF7C85532
100
AcDbEntity
  8
SUNPOU
100
AcDbText
 10
711.923158680117
 20
21.89834363743527
 30
0.0
 40
0.75
  1
                          
100
AcDbText
  0
INSERT
  5
64
330
EF7C85532
100
AcDbEntity
  8
HATCH
100
AcDbBlockReference
  2
*X4
 10
178.999999284
 20
0.0
 30
0.0
  0
TEXT
  5
65
330
EF7C85532
100
AcDbEntity
  8
SUNPOU
100
AcDbText
 10
477.0854500730167
 20
43.7966872748706
 30
0.0
 40
1.5
  1
                          
100
AcDbText
  0
TEXT
  5
66
330
EF7C85532
100
AcDbEntity
  8
SUNPOU
100
AcDbText
 10
714.3061011079298
 20
21.8983436374353
 30
0.0
 40
0.75
  1
                          
100
AcDbText
  0
TEXT
  5
67
330
EF7C85532
100
AcDbEntity
  8
SUNPOU
100
AcDbText
 10
466.1239116114783
 20
43.7966872748706
 30
0.0
 40
1.5
  1
                          
100
AcDbText
  0
TEXT
  5
68
330
EF7C85532
100
AcDbEntity
  8
SUNPOU
100
AcDbText
 10
703.3445626463913
 20
21.8983436374353
 30
0.0
 40
0.75
  1
                          
100
AcDbText
  0
INSERT
  5
69
330
EF7C85532
100
AcDbEntity
  8
TEXT
100
AcDbBlockReference
  2
STDGX5
 10
178.999999284
 20
0.0
 30
0.0
  0
TEXT
  5
6A
330
EF7C85532
100
AcDbEntity
  8
SUNPOU
100
AcDbText
 10
453.0586949361739
 20
43.7966872748706
 30
0.0
 40
1.5
  1
                          
100
AcDbText
  0
TEXT
  5
6B
330
EF7C85532
100
AcDbEntity
  8
SUNPOU
100
AcDbText
 10
690.279345971087
 20
21.8983436374353
 30
0.0
 40
0.75
  1
                          
100
AcDbText
  0
TEXT
  5
6C
330
EF7C85532
100
AcDbEntity
  8
SUNPOU
100
AcDbText
 10
647.9834433840535
 20
43.7966872748706
 30
0.0
 40
1.5
  1
                          
100
AcDbText
  0
TEXT
  5
6D
330
EF7C85532
100
AcDbEntity
  8
SUNPOU
100
AcDbText
 10
885.2040944189665
 20
21.8983436374353
 30
0.0
 40
0.75
  1
                          
100
AcDbText
  0
TEXT
  5
6E
330
EF7C85532
100
AcDbEntity
  8
SUNPOU
100
AcDbText
 10
848.6272560930835
 20
43.79668727487057
 30
0.0
 40
1.5
  1
                          
100
AcDbText
  0
TEXT
  5
6F
330
EF7C85532
100
AcDbEntity
  8
SUNPOU
100
AcDbText
 10
1085.847907127996
 20
21.89834363743527
 30
0.0
 40
0.75
  1
                          
100
AcDbText
  0
INSERT
  5
70
330
EF7C85532
100
AcDbEntity
  8
HATCH
100
AcDbBlockReference
  2
*X5
 10
552.9247477318797
 20
0.0
 30
0.0
  0
TEXT
  5
71
330
EF7C85532
100
AcDbEntity
  8
SUNPOU
100
AcDbText
 10
851.0101985208963
 20
43.7966872748706
 30
0.0
 40
1.5
  1
                          
100
AcDbText
  0
TEXT
  5
72
330
EF7C85532
100
AcDbEntity
  8
SUNPOU
100
AcDbText
 10
1088.230849555809
 20
21.8983436374353
 30
0.0
 40
0.75
  1
                          
100
AcDbText
  0
TEXT
  5
73
330
EF7C85532
100
AcDbEntity
  8
SUNPOU
100
AcDbText
 10
840.048660059358
 20
43.7966872748706
 30
0.0
 40
1.5
  1
                          
100
AcDbText
  0
TEXT
  5
74
330
EF7C85532
100
AcDbEntity
  8
SUNPOU
100
AcDbText
 10
1077.269311094271
 20
21.8983436374353
 30
0.0
 40
0.75
  1
                          
100
AcDbText
  0
INSERT
  5
75
330
EF7C85532
100
AcDbEntity
  8
JISSEN
100
AcDbBlockReference
  2
STDGX5
 10
357.999999284
 20
0.0
 30
0.0
  0
TEXT
  5
76
330
EF7C85532
100
AcDbEntity
  8
SUNPOU
100
AcDbText
 10
453.0586949361739
 20
43.7966872748706
 30
0.0
 40
1.5
  1
                          
100
AcDbText
  0
TEXT
  5
77
330
EF7C85532
100
AcDbEntity
  8
SUNPOU
100
AcDbText
 10
690.279345971087
 20
21.8983436374353
 30
0.0
 40
0.75
  1
                          
100
AcDbText
  0
TEXT
  5
78
330
EF7C85532
100
AcDbEntity
  8
SUNPOU
100
AcDbText
 10
647.9834433840535
 20
43.7966872748706
 30
0.0
 40
1.5
  1
                          
100
AcDbText
  0
TEXT
  5
79
330
EF7C85532
100
AcDbEntity
  8
SUNPOU
100
AcDbText
 10
885.2040944189665
 20
21.8983436374353
 30
0.0
 40
0.75
  1
                          
100
AcDbText
  0
TEXT
  5
7A
330
EF7C85532
100
AcDbEntity
  8
SUNPOU
100
AcDbText
 10
848.6272560930835
 20
43.79668727487057
 30
0.0
 40
1.5
  1
                          
100
AcDbText
  0
TEXT
  5
7B
330
EF7C85532
100
AcDbEntity
  8
SUNPOU
100
AcDbText
 10
1085.847907127996
 20
21.89834363743527
 30
0.0
 40
0.75
  1
                          
100
AcDbText
  0
INSERT
  5
7C
330
EF7C85532
100
AcDbEntity
  8
HATCH
100
AcDbBlockReference
  2
*X6
 10
552.9247477318797
 20
0.0
 30
0.0
  0
TEXT
  5
7D
330
EF7C85532
100
AcDbEntity
  8
SUNPOU
100
AcDbText
 10
851.0101985208963
 20
43.7966872748706
 30
0.0
 40
1.5
  1
                          
100
AcDbText
  0
TEXT
  5
7E
330
EF7C85532
100
AcDbEntity
  8
SUNPOU
100
AcDbText
 10
1088.230849555809
 20
21.8983436374353
 30
0.0
 40
0.75
  1
                          
100
AcDbText
  0
TEXT
  5
7F
330
EF7C85532
100
AcDbEntity
  8
SUNPOU
100
AcDbText
 10
840.048660059358
 20
43.7966872748706
 30
0.0
 40
1.5
  1
                          
100
AcDbText
  0
TEXT
  5
80
330
EF7C85532
100
AcDbEntity
  8
SUNPOU
100
AcDbText
 10
1077.269311094271
 20
21.8983436374353
 30
0.0
 40
0.75
  1
                          
100
AcDbText
  0
INSERT
  5
81
330
EF7C85532
100
AcDbEntity
  8
JISSEN
100
AcDbBlockReference
  2
STDGX5
 10
357.999999284
 20
0.0
 30
0.0
  0
TEXT
  5
82
330
EF7C85532
100
AcDbEntity
  8
SUNPOU
100
AcDbText
 10
632.0586942201739
 20
43.7966872748706
 30
0.0
 40
1.5
  1
                          
100
AcDbText
  0
TEXT
  5
83
330
EF7C85532
100
AcDbEntity
  8
SUNPOU
100
AcDbText
 10
869.2793452550871
 20
21.8983436374353
 30
0.0
 40
0.75
  1
                          
100
AcDbText
  0
TEXT
  5
84
330
EF7C85532
100
AcDbEntity
  8
SUNPOU
100
AcDbText
 10
826.9834426680535
 20
43.7966872748706
 30
0.0
 40
1.5
  1
                          
100
AcDbText
  0
TEXT
  5
85
330
EF7C85532
100
AcDbEntity
  8
SUNPOU
100
AcDbText
 10
1064.204093702966
 20
21.8983436374353
 30
0.0
 40
0.75
  1
                          
100
AcDbText
  0
TEXT
  5
86
330
EF7C85532
100
AcDbEntity
  8
SUNPOU
100
AcDbText
 10
1027.627255377083
 20
43.79668727487057
 30
0.0
 40
1.5
  1
                          
100
AcDbText
  0
TEXT
  5
87
330
EF7C85532
100
AcDbEntity
  8
SUNPOU
100
AcDbText
 10
1264.847906411996
 20
21.89834363743527
 30
0.0
 40
0.75
  1
                          
100
AcDbText
  0
INSERT
  5
88
330
EF7C85532
100
AcDbEntity
  8
HATCH
100
AcDbBlockReference
  2
*X7
 10
731.9247470158797
 20
0.0
 30
0.0
  0
TEXT
  5
89
330
EF7C85532
100
AcDbEntity
  8
SUNPOU
100
AcDbText
 10
1030.010197804896
 20
43.7966872748706
 30
0.0
 40
1.5
  1
                          
100
AcDbText
  0
TEXT
  5
8A
330
EF7C85532
100
AcDbEntity
  8
SUNPOU
100
AcDbText
 10
1267.230848839809
 20
21.8983436374353
 30
0.0
 40
0.75
  1
                          
100
AcDbText
  0
TEXT
  5
8B
330
EF7C85532
100
AcDbEntity
  8
SUNPOU
100
AcDbText
 10
1019.048659343358
 20
43.7966872748706
 30
0.0
 40
1.5
  1
                          
100
AcDbText
  0
TEXT
  5
8C
330
EF7C85532
100
AcDbEntity
  8
SUNPOU
100
AcDbText
 10
1256.269310378271
 20
21.8983436374353
 30
0.0
 40
0.75
  1
                          
100
AcDbText
  0
INSERT
  5
8D
330
EF7C85532
100
AcDbEntity
  8
JISSEN
100
AcDbBlockReference
  2
STDGX5
 10
536.999998568
 20
0.0
 30
0.0
  0
INSERT
  5
8E
330
EF7C85532
100
AcDbEntity
  8
SUNPOU
100
AcDbBlockReference
  2
STDGX5
 10
739.0804232644236
 20
50.83533235670902
 30
0.0
 41
0.5
 42
0.5
 43
0.5
  0
INSERT
  5
8F
330
EF7C85532
100
AcDbEntity
  8
SUNPOU
100
AcDbBlockReference
  2
STDGX5
 10
726.2208210623692
 20
105.0763138619288
 30
0.0
 41
0.5
 42
0.5
 43
0.5
  0
INSERT
  5
90
330
EF7C85532
100
AcDbEntity
  8
HATCH
100
AcDbBlockReference
  2
STDGX5
 10
852.3985550581901
 20
151.7065097967401
 30
0.0
 41
0.5
 42
0.5
 43
0.5
  0
INSERT
  5
91
330
EF7C85532
100
AcDbEntity
  8
HATCH
100
AcDbBlockReference
  2
STDGX5
 10
866.6806796277285
 20
102.7017487639613
 30
0.0
 41
0.5
 42
0.5
 43
0.5
  0
INSERT
  5
92
330
EF7C85532
100
AcDbEntity
  8
TEXT
100
AcDbBlockReference
  2
STDGX5
 10
970.3434408521969
 20
102.8213468229236
 30
0.0
 41
0.5
 42
0.5
 43
0.5
  0
INSERT
  5
93
330
EF7C85532
100
AcDbEntity
  8
SUNPOU
100
AcDbBlockReference
  2
STDGX5
 10
996.1728907397869
 20
174.5475645486174
 30
0.0
 41
0.5
 42
0.5
 43
0.5
  0
INSERT
  5
94
330
EF7C85532
100
AcDbEntity
  8
TEXT
100
AcDbBlockReference
  2
STDGX5
 10
725.7513886810995
 20
124.5860190441302
 30
0.0
 41
0.5
 42
0.5
 43
0.5
  0
INSERT
  5
95
330
EF7C85532
100
AcDbEntity
  8
HATCH
100
AcDbBlockReference
  2
STDGX5
 10
777.1755722656421
 20
145.5222028932424
 30
0.0
 41
0.5
 42
0.5
 43
0.5
  0
INSERT
  5
96
330
EF7C85532
100
AcDbEntity
  8
SUNPOU
100
AcDbBlockReference
  2
STDGX5
 10
846.1963575359604
 20
112.6957974729892
 30
0.0
 41
0.5
 42
0.5
 43
0.5
  0
INSERT
  5
97
330
EF7C85532
100
AcDbEntity
  8
SUNPOU
100
AcDbBlockReference
  2
STDGX5
 10
916.6681156211122
 20
121.7330617103085
 30
0.0
 41
0.5
 42
0.5
 43
0.5
  0
INSERT
  5
98
330
EF7C85532
100
AcDbEntity
  8
TEXT
100
AcDbBlockReference
  2
STDGX5
 10
983.7969461426769
 20
84.61852224867081
 30
0.0
 41
0.5
 42
0.5
 43
0.5
  0
INSERT
  5
99
330
EF7C85532
100
AcDbEntity
  8
HATCH
100
AcDbBlockReference
  2
STDGX5
 10
974.2802715042099
 20
136.4849386559231
 30
0.0
 41
0.5
 42
0.5
 43
0.5
  0
INSERT
  5
9A
330
EF7C85532
100
AcDbEntity
  8
SUNPOU
100
AcDbBlockReference
  2
STDGX5
 10
749.7834008663489
 20
95.14721172234004
 30
0.0
 41
0.5
 42
0.5
 43
0.5
  0
INSERT
  5
9B
330
EF7C85532
100
AcDbEntity
  8
SUNPOU
100
AcDbBlockReference
  2
STDGX5
 10
736.9237986642947
 20
149.3881932275598
 30
0.0
 41
0.5
 42
0.5
 43
0.5
  0
INSERT
  5
9C
330
EF7C85532
100
AcDbEntity
  8
HATCH
100
AcDbBlockReference
  2
STDGX5
 10
863.1015326601156
 20
196.0183891623711
 30
0.0
 41
0.5
 42
0.5
 43
0.5
  0
INSERT
  5
9D
330
EF7C85532
100
AcDbEntity
  8
HATCH
100
AcDbBlockReference
  2
STDGX5
 10
877.3836572296538
 20
147.0136281295923
 30
0.0
 41
0.5
 42
0.5
 43
0.5
  0
INSERT
  5
9E
330
EF7C85532
100
AcDbEntity
  8
TEXT
100
AcDbBlockReference
  2
STDGX5
 10
981.0464184541224
 20
147.1332261885546
 30
0.0
 41
0.5
 42
0.5
 43
0.5
  0
INSERT
  5
9F
330
EF7C85532
100
AcDbEntity
  8
SUNPOU
100
AcDbBlockReference
  2
STDGX5
 10
1006.875868341712
 20
218.8594439142484
 30
0.0
 41
0.5
 42
0.5
 43
0.5
  0
INSERT
  5
A0
330
EF7C85532
100
AcDbEntity
  8
TEXT
100
AcDbBlockReference
  2
STDGX5
 10
736.4543662830251
 20
168.8978984097612
 30
0.0
 41
0.5
 42
0.5
 43
0.5
  0
INSERT
  5
A1
330
EF7C85532
100
AcDbEntity
  8
HATCH
100
AcDbBlockReference
  2
STDGX5
 10
787.8785498675677
 20
189.8340822588735
 30
0.0
 41
0.5
 42
0.5
 43
0.5
  0
INSERT
  5
A2
330
EF7C85532
100
AcDbEntity
  8
SUNPOU
100
AcDbBlockReference
  2
STDGX5
 10
856.899335137886
 20
157.0076768386202
 30
0.0
 41
0.5
 42
0.5
 43
0.5
  0
INSERT
  5
A3
330
EF7C85532
100
AcDbEntity
  8
SUNPOU
100
AcDbBlockReference
  2
STDGX5
 10
927.3710932230379
 20
166.0449410759395
 30
0.0
 41
0.5
 42
0.5
 43
0.5
  0
INSERT
  5
A4
330
EF7C85532
100
AcDbEntity
  8
TEXT
100
AcDbBlockReference
  2
STDGX5
 10
994.4999237446024
 20
128.9304016143018
 30
0.0
 41
0.5
 42
0.5
 43
0.5
  0
INSERT
  5
A5
330
EF7C85532
100
AcDbEntity
  8
HATCH
100
AcDbBlockReference
  2
STDGX5
 10
984.9832491061354
 20
180.7968180215541
 30
0.0
 41
0.5
 42
0.5
 43
0.5
  0
TEXT
  5
DE
330
EF7C85532
100
AcDbEntity
  8
SUNPOU
100
AcDbText
 10
274.0586949361738
 20
43.7966872748706
 30
0.0
 40
1.5
  1
                          
100
AcDbText
  0
TEXT
  5
145
330
EF7C85532
100
AcDbEntity
  8
SUNPOU
100
AcDbText
 10
511.2793459710869
 20
21.8983436374353
 30
0.0
 40
0.75
  1
                          
100
AcDbText
  0
TEXT
  5
265
330
EF7C85532
100
AcDbEntity
  8
SUNPOU
100
AcDbText
 10
474.702507645204
 20
43.79668727487057
 30
0.0
 40
1.5
  1
                          
100
AcDbText
  0
TEXT
  5
266
330
EF7C85532
100
AcDbEntity
  8
SUNPOU
100
AcDbText
 10
711.923158680117
 20
21.89834363743527
 30
0.0
 40
0.75
  1
                          
100
AcDbText
  0
INSERT
  5
2F7
330
EF7C85532
100
AcDbEntity
  8
HATCH
100
AcDbBlockReference
  2
*X4
 10
178.999999284
 20
0.0
 30
0.0
  0
TEXT
  5
31A
330
EF7C85532
100
AcDbEntity
  8
SUNPOU
100
AcDbText
 10
477.0854500730167
 20
43.7966872748706
 30
0.0
 40
1.5
  1
                          
100
AcDbText
  0
TEXT
  5
31C
330
EF7C85532
100
AcDbEntity
  8
SUNPOU
100
AcDbText
 10
714.3061011079298
 20
21.8983436374353
 30
0.0
 40
0.75
  1
                          
100
AcDbText
  0
TEXT
  5
3A6
330
EF7C85532
100
AcDbEntity
  8
TEXT
100
AcDbText
 10
100.9999992839998
 20
244.9999999999999
 30
0.0
 40
3.0
  1
 
  7
K
100
AcDbText
  0
TEXT
  5
3AB
330
EF7C85532
100
AcDbEntity
  8
SUNPOU
100
AcDbText
 10
466.1239116114783
 20
43.7966872748706
 30
0.0
 40
1.5
  1
                          
100
AcDbText
  0
TEXT
  5
3AC
330
EF7C85532
100
AcDbEntity
  8
SUNPOU
100
AcDbText
 10
703.3445626463913
 20
21.8983436374353
 30
0.0
 40
0.75
  1
                          
100
AcDbText
  0
INSERT
  5
3F6
330
EF7C85532
100
AcDbEntity
  8
TEXT
100
AcDbBlockReference
  2
STDGX5
 10
178.999999284
 20
0.0
 30
0.0
  0
TEXT
  5
3F7
330
EF7C85532
100
AcDbEntity
  8
SUNPOU
100
AcDbText
 10
453.0586949361739
 20
43.7966872748706
 30
0.0
 40
1.5
  1
                          
100
AcDbText
  0
TEXT
  5
3F8
330
EF7C85532
100
AcDbEntity
  8
SUNPOU
100
AcDbText
 10
690.279345971087
 20
21.8983436374353
 30
0.0
 40
0.75
  1
                          
100
AcDbText
  0
TEXT
  5
3F9
330
EF7C85532
100
AcDbEntity
  8
SUNPOU
100
AcDbText
 10
647.9834433840535
 20
43.7966872748706
 30
0.0
 40
1.5
  1
                          
100
AcDbText
  0
TEXT
  5
3FA
330
EF7C85532
100
AcDbEntity
  8
SUNPOU
100
AcDbText
 10
885.2040944189665
 20
21.8983436374353
 30
0.0
 40
0.75
  1
                          
100
AcDbText
  0
TEXT
  5
3FB
330
EF7C85532
100
AcDbEntity
  8
SUNPOU
100
AcDbText
 10
848.6272560930835
 20
43.79668727487057
 30
0.0
 40
1.5
  1
                          
100
AcDbText
  0
TEXT
  5
3FC
330
EF7C85532
100
AcDbEntity
  8
SUNPOU
100
AcDbText
 10
1085.847907127996
 20
21.89834363743527
 30
0.0
 40
0.75
  1
                          
100
AcDbText
  0
INSERT
  5
3FD
330
EF7C85532
100
AcDbEntity
  8
HATCH
100
AcDbBlockReference
  2
*X5
 10
552.9247477318797
 20
0.0
 30
0.0
  0
TEXT
  5
3FE
330
EF7C85532
100
AcDbEntity
  8
SUNPOU
100
AcDbText
 10
851.0101985208963
 20
43.7966872748706
 30
0.0
 40
1.5
  1
                          
100
AcDbText
  0
TEXT
  5
3FF
330
EF7C85532
100
AcDbEntity
  8
SUNPOU
100
AcDbText
 10
1088.230849555809
 20
21.8983436374353
 30
0.0
 40
0.75
  1
                          
100
AcDbText
  0
TEXT
  5
400
330
EF7C85532
100
AcDbEntity
  8
SUNPOU
100
AcDbText
 10
840.048660059358
 20
43.7966872748706
 30
0.0
 40
1.5
  1
                          
100
AcDbText
  0
TEXT
  5
401
330
EF7C85532
100
AcDbEntity
  8
SUNPOU
100
AcDbText
 10
1077.269311094271
 20
21.8983436374353
 30
0.0
 40
0.75
  1
                          
100
AcDbText
  0
INSERT
  5
402
330
EF7C85532
100
AcDbEntity
  8
JISSEN
100
AcDbBlockReference
  2
STDGX5
 10
357.999999284
 20
0.0
 30
0.0
  0
TEXT
  5
409
330
EF7C85532
100
AcDbEntity
  8
SUNPOU
100
AcDbText
 10
453.0586949361739
 20
43.7966872748706
 30
0.0
 40
1.5
  1
                          
100
AcDbText
  0
TEXT
  5
40A
330
EF7C85532
100
AcDbEntity
  8
SUNPOU
100
AcDbText
 10
690.279345971087
 20
21.8983436374353
 30
0.0
 40
0.75
  1
                          
100
AcDbText
  0
TEXT
  5
41B
330
EF7C85532
100
AcDbEntity
  8
SUNPOU
100
AcDbText
 10
647.9834433840535
 20
43.7966872748706
 30
0.0
 40
1.5
  1
                          
100
AcDbText
  0
TEXT
  5
41C
330
EF7C85532
100
AcDbEntity
  8
SUNPOU
100
AcDbText
 10
885.2040944189665
 20
21.8983436374353
 30
0.0
 40
0.75
  1
                          
100
AcDbText
  0
TEXT
  5
41D
330
EF7C85532
100
AcDbEntity
  8
SUNPOU
100
AcDbText
 10
848.6272560930835
 20
43.79668727487057
 30
0.0
 40
1.5
  1
                          
100
AcDbText
  0
TEXT
  5
41E
330
EF7C85532
100
AcDbEntity
  8
SUNPOU
100
AcDbText
 10
1085.847907127996
 20
21.89834363743527
 30
0.0
 40
0.75
  1
                          
100
AcDbText
  0
INSERT
  5
41F
330
EF7C85532
100
AcDbEntity
  8
HATCH
100
AcDbBlockReference
  2
*X6
 10
552.9247477318797
 20
0.0
 30
0.0
  0
TEXT
  5
420
330
EF7C85532
100
AcDbEntity
  8
SUNPOU
100
AcDbText
 10
851.0101985208963
 20
43.7966872748706
 30
0.0
 40
1.5
  1
                          
100
AcDbText
  0
TEXT
  5
421
330
EF7C85532
100
AcDbEntity
  8
SUNPOU
100
AcDbText
 10
1088.230849555809
 20
21.8983436374353
 30
0.0
 40
0.75
  1
                          
100
AcDbText
  0
TEXT
  5
422
330
EF7C85532
100
AcDbEntity
  8
SUNPOU
100
AcDbText
 10
840.048660059358
 20
43.7966872748706
 30
0.0
 40
1.5
  1
                          
100
AcDbText
  0
TEXT
  5
423
330
EF7C85532
100
AcDbEntity
  8
SUNPOU
100
AcDbText
 10
1077.269311094271
 20
21.8983436374353
 30
0.0
 40
0.75
  1
                          
100
AcDbText
  0
INSERT
  5
424
330
EF7C85532
100
AcDbEntity
  8
JISSEN
100
AcDbBlockReference
  2
STDGX5
 10
357.999999284
 20
0.0
 30
0.0
  0
TEXT
  5
425
330
EF7C85532
100
AcDbEntity
  8
SUNPOU
100
AcDbText
 10
632.0586942201739
 20
43.7966872748706
 30
0.0
 40
1.5
  1
                          
100
AcDbText
  0
TEXT
  5
426
330
EF7C85532
100
AcDbEntity
  8
SUNPOU
100
AcDbText
 10
869.2793452550871
 20
21.8983436374353
 30
0.0
 40
0.75
  1
                          
100
AcDbText
  0
TEXT
  5
427
330
EF7C85532
100
AcDbEntity
  8
SUNPOU
100
AcDbText
 10
826.9834426680535
 20
43.7966872748706
 30
0.0
 40
1.5
  1
                          
100
AcDbText
  0
TEXT
  5
428
330
EF7C85532
100
AcDbEntity
  8
SUNPOU
100
AcDbText
 10
1064.204093702966
 20
21.8983436374353
 30
0.0
 40
0.75
  1
                          
100
AcDbText
  0
TEXT
  5
429
330
EF7C85532
100
AcDbEntity
  8
SUNPOU
100
AcDbText
 10
1027.627255377083
 20
43.79668727487057
 30
0.0
 40
1.5
  1
                          
100
AcDbText
  0
TEXT
  5
42A
330
EF7C85532
100
AcDbEntity
  8
SUNPOU
100
AcDbText
 10
1264.847906411996
 20
21.89834363743527
 30
0.0
 40
0.75
  1
                          
100
AcDbText
  0
INSERT
  5
42B
330
EF7C85532
100
AcDbEntity
  8
HATCH
100
AcDbBlockReference
  2
*X7
 10
731.9247470158797
 20
0.0
 30
0.0
  0
TEXT
  5
42C
330
EF7C85532
100
AcDbEntity
  8
SUNPOU
100
AcDbText
 10
1030.010197804896
 20
43.7966872748706
 30
0.0
 40
1.5
  1
                          
100
AcDbText
  0
TEXT
  5
42D
330
EF7C85532
100
AcDbEntity
  8
SUNPOU
100
AcDbText
 10
1267.230848839809
 20
21.8983436374353
 30
0.0
 40
0.75
  1
                          
100
AcDbText
  0
TEXT
  5
42E
330
EF7C85532
100
AcDbEntity
  8
SUNPOU
100
AcDbText
 10
1019.048659343358
 20
43.7966872748706
 30
0.0
 40
1.5
  1
                          
100
AcDbText
  0
TEXT
  5
42F
330
EF7C85532
100
AcDbEntity
  8
SUNPOU
100
AcDbText
 10
1256.269310378271
 20
21.8983436374353
 30
0.0
 40
0.75
  1
                          
100
AcDbText
  0
INSERT
  5
430
330
EF7C85532
100
AcDbEntity
  8
JISSEN
100
AcDbBlockReference
  2
STDGX5
 10
536.999998568
 20
0.0
 30
0.0
  0
INSERT
  5
43B
330
EF7C85532
100
AcDbEntity
  8
SUNPOU
100
AcDbBlockReference
  2
STDGX5
 10
739.0804232644236
 20
50.83533235670902
 30
0.0
 41
0.5
 42
0.5
 43
0.5
  0
INSERT
  5
43C
330
EF7C85532
100
AcDbEntity
  8
SUNPOU
100
AcDbBlockReference
  2
STDGX5
 10
726.2208210623692
 20
105.0763138619288
 30
0.0
 41
0.5
 42
0.5
 43
0.5
  0
INSERT
  5
43D
330
EF7C85532
100
AcDbEntity
  8
HATCH
100
AcDbBlockReference
  2
STDGX5
 10
852.3985550581901
 20
151.7065097967401
 30
0.0
 41
0.5
 42
0.5
 43
0.5
  0
INSERT
  5
43E
330
EF7C85532
100
AcDbEntity
  8
HATCH
100
AcDbBlockReference
  2
STDGX5
 10
866.6806796277285
 20
102.7017487639613
 30
0.0
 41
0.5
 42
0.5
 43
0.5
  0
INSERT
  5
43F
330
EF7C85532
100
AcDbEntity
  8
TEXT
100
AcDbBlockReference
  2
STDGX5
 10
970.3434408521969
 20
102.8213468229236
 30
0.0
 41
0.5
 42
0.5
 43
0.5
  0
INSERT
  5
440
330
EF7C85532
100
AcDbEntity
  8
SUNPOU
100
AcDbBlockReference
  2
STDGX5
 10
996.1728907397869
 20
174.5475645486174
 30
0.0
 41
0.5
 42
0.5
 43
0.5
  0
INSERT
  5
441
330
EF7C85532
100
AcDbEntity
  8
TEXT
100
AcDbBlockReference
  2
STDGX5
 10
725.7513886810995
 20
124.5860190441302
 30
0.0
 41
0.5
 42
0.5
 43
0.5
  0
INSERT
  5
442
330
EF7C85532
100
AcDbEntity
  8
HATCH
100
AcDbBlockReference
  2
STDGX5
 10
777.1755722656421
 20
145.5222028932424
 30
0.0
 41
0.5
 42
0.5
 43
0.5
  0
INSERT
  5
443
330
EF7C85532
100
AcDbEntity
  8
SUNPOU
100
AcDbBlockReference
  2
STDGX5
 10
846.1963575359604
 20
112.6957974729892
 30
0.0
 41
0.5
 42
0.5
 43
0.5
  0
INSERT
  5
444
330
EF7C85532
100
AcDbEntity
  8
SUNPOU
100
AcDbBlockReference
  2
STDGX5
 10
916.6681156211122
 20
121.7330617103085
 30
0.0
 41
0.5
 42
0.5
 43
0.5
  0
INSERT
  5
445
330
EF7C85532
100
AcDbEntity
  8
TEXT
100
AcDbBlockReference
  2
STDGX5
 10
983.7969461426769
 20
84.61852224867081
 30
0.0
 41
0.5
 42
0.5
 43
0.5
  0
INSERT
  5
446
330
EF7C85532
100
AcDbEntity
  8
HATCH
100
AcDbBlockReference
  2
STDGX5
 10
974.2802715042099
 20
136.4849386559231
 30
0.0
 41
0.5
 42
0.5
 43
0.5
  0
INSERT
  5
447
330
EF7C85532
100
AcDbEntity
  8
SUNPOU
100
AcDbBlockReference
  2
STDGX5
 10
749.7834008663489
 20
95.14721172234004
 30
0.0
 41
0.5
 42
0.5
 43
0.5
  0
INSERT
  5
448
330
EF7C85532
100
AcDbEntity
  8
SUNPOU
100
AcDbBlockReference
  2
STDGX5
 10
736.9237986642947
 20
149.3881932275598
 30
0.0
 41
0.5
 42
0.5
 43
0.5
  0
INSERT
  5
449
330
EF7C85532
100
AcDbEntity
  8
HATCH
100
AcDbBlockReference
  2
STDGX5
 10
863.1015326601156
 20
196.0183891623711
 30
0.0
 41
0.5
 42
0.5
 43
0.5
  0
INSERT
  5
44A
330
EF7C85532
100
AcDbEntity
  8
HATCH
100
AcDbBlockReference
  2
STDGX5
 10
877.3836572296538
 20
147.0136281295923
 30
0.0
 41
0.5
 42
0.5
 43
0.5
  0
INSERT
  5
44B
330
EF7C85532
100
AcDbEntity
  8
TEXT
100
AcDbBlockReference
  2
STDGX5
 10
981.0464184541224
 20
147.1332261885546
 30
0.0
 41
0.5
 42
0.5
 43
0.5
  0
INSERT
  5
44C
330
EF7C85532
100
AcDbEntity
  8
SUNPOU
100
AcDbBlockReference
  2
STDGX5
 10
1006.875868341712
 20
218.8594439142484
 30
0.0
 41
0.5
 42
0.5
 43
0.5
  0
INSERT
  5
44D
330
EF7C85532
100
AcDbEntity
  8
TEXT
100
AcDbBlockReference
  2
STDGX5
 10
736.4543662830251
 20
168.8978984097612
 30
0.0
 41
0.5
 42
0.5
 43
0.5
  0
INSERT
  5
44E
330
EF7C85532
100
AcDbEntity
  8
HATCH
100
AcDbBlockReference
  2
STDGX5
 10
787.8785498675677
 20
189.8340822588735
 30
0.0
 41
0.5
 42
0.5
 43
0.5
  0
INSERT
  5
44F
330
EF7C85532
100
AcDbEntity
  8
SUNPOU
100
AcDbBlockReference
  2
STDGX5
 10
856.899335137886
 20
157.0076768386202
 30
0.0
 41
0.5
 42
0.5
 43
0.5
  0
INSERT
  5
450
330
EF7C85532
100
AcDbEntity
  8
SUNPOU
100
AcDbBlockReference
  2
STDGX5
 10
927.3710932230379
 20
166.0449410759395
 30
0.0
 41
0.5
 42
0.5
 43
0.5
  0
INSERT
  5
451
330
EF7C85532
100
AcDbEntity
  8
TEXT
100
AcDbBlockReference
  2
STDGX5
 10
994.4999237446024
 20
128.9304016143018
 30
0.0
 41
0.5
 42
0.5
 43
0.5
  0
INSERT
  5
452
330
EF7C85532
100
AcDbEntity
  8
HATCH
100
AcDbBlockReference
  2
STDGX5
 10
984.9832491061354
 20
180.7968180215541
 30
0.0
 41
0.5
 42
0.5
 43
0.5
  0
INSERT
  5
4CF3
330
EF7C85532
100
AcDbEntity
  8
JISSEN
100
AcDbBlockReference
  2
STDR12J
 10
0.0
 20
0.0
 30
0.0
  0
INSERT
  5
EF7C890BF
330
EF7C85532
100
AcDbEntity
  8
WAKU
100
AcDbBlockReference
  2
WAKU
 10
0.0
 20
0.0
 30
0.0
 41
181.0
 42
283.0
 43
181.0
  0
TEXT
  5
EF7C891D4
330
EF7C85532
100
AcDbEntity
  8
SUNPOU
100
AcDbText
 10
134.3535706910011
 20
7.849423898685245
 30
0.0
 40
3.0
  1
EPQR 被水防止板取付状態
  7
K
100
AcDbText
  0
TEXT
  5
EF7C891D5
330
EF7C85532
100
AcDbEntity
  8
SUNPOU
100
AcDbText
 10
134.3535706910011
 20
2.849423898685245
 30
0.0
 40
3.0
  1
尺度　1/1
  7
K
100
AcDbText
  0
LINE
  5
EF7C891D6
330
EF7C85532
100
AcDbEntity
  8
JISSEN
100
AcDbLine
 10
91.49999927599997
 20
264.9999999999999
 30
0.0
 11
180.9999992759999
 21
264.9999999999999
 31
0.0
  0
LINE
  5
EF7C891D7
330
EF7C85532
100
AcDbEntity
  8
JISSEN
100
AcDbLine
 10
91.49999927599997
 20
276.9999999999999
 30
0.0
 11
180.9999992759999
 21
276.9999999999999
 31
0.0
  0
LINE
  5
EF7C891D8
330
EF7C85532
100
AcDbEntity
  8
JISSEN
100
AcDbLine
 10
91.49999927599997
 20
270.9999999999999
 30
0.0
 11
180.9999992759999
 21
270.9999999999999
 31
0.0
  0
TEXT
  5
EF7C891D9
330
EF7C85532
100
AcDbEntity
  8
TEXT
100
AcDbText
 10
135.1999992759999
 20
278.4999999999999
 30
0.0
 40
3.0
  1
材    質
  7
K
 72
     4
 11
141.9999992759999
 21
279.9999999999999
 31
0.0
100
AcDbText
  0
TEXT
  5
EF7C891EF
330
EF7C85532
100
AcDbEntity
  8
TEXT
100
AcDbText
 10
102.3599992759999
 20
266.4999999999999
 30
0.0
 40
3.0
  1
被水防止版 ラック倉庫用
 41
0.7
  7
K
 72
     4
 11
116.4999992759999
 21
267.9999999999999
 31
0.0
100
AcDbText
  0
TEXT
  5
EF7C891F0
330
EF7C85532
100
AcDbEntity
  8
TEXT
100
AcDbText
 10
102.7857135617142
 20
272.642857142857
 30
0.0
 40
3.0
  1
EPQR 型ヘッド
  7
K
 72
     4
 11
116.4999992759999
 21
273.9999999999999
 31
0.0
100
AcDbText
  0
LINE
  5
EF7C891F1
330
EF7C85532
100
AcDbEntity
  8
JISSEN
100
AcDbLine
 10
91.49999927599997
 20
264.9999999999999
 30
0.0
 11
91.49999927599997
 21
282.9999999999999
 31
0.0
  0
LINE
  5
EF7C891F2
330
EF7C85532
100
AcDbEntity
  8
JISSEN
100
AcDbLine
 10
101.4999992759999
 20
282.9999999999999
 30
0.0
 11
101.4999992759999
 21
264.9999999999999
 31
0.0
  0
TEXT
  5
EF7C891F3
330
EF7C85532
100
AcDbEntity
  8
TEXT
100
AcDbText
 10
95.28571356171427
 20
272.4999999999999
 30
0.0
 40
3.0
  1
1
  7
K
 72
     4
 11
96.49999927599999
 21
273.9999999999999
 31
0.0
100
AcDbText
  0
TEXT
  5
EF7C891F4
330
EF7C85532
100
AcDbEntity
  8
TEXT
100
AcDbText
 10
95.07142784742855
 20
266.4999999999999
 30
0.0
 40
3.0
  1
2
  7
K
 72
     4
 11
96.49999927599999
 21
267.9999999999999
 31
0.0
100
AcDbText
  0
TEXT
  5
EF7C891F5
330
EF7C85532
100
AcDbEntity
  8
TEXT
100
AcDbText
 10
93.29999927599997
 20
278.4999999999999
 30
0.0
 40
3.0
  1
番号
  7
K
 72
     4
 11
96.49999927599999
 21
279.9999999999999
 31
0.0
100
AcDbText
  0
LINE
  5
EF7C891F6
330
EF7C85532
100
AcDbEntity
  8
JISSEN
100
AcDbLine
 10
131.4999992759999
 20
282.9999999999999
 30
0.0
 11
131.4999992759999
 21
264.9999999999999
 31
0.0
  0
TEXT
  5
EF7C891F7
330
EF7C85532
100
AcDbEntity
  8
TEXT
100
AcDbText
 10
107.8999992759999
 20
278.4999999999999
 30
0.0
 40
3.0
  1
名      称
  7
K
 72
     4
 11
116.4999992759999
 21
279.9999999999999
 31
0.0
100
AcDbText
  0
LINE
  5
EF7C891F8
330
EF7C85532
100
AcDbEntity
  8
JISSEN
100
AcDbLine
 10
152.4999992759999
 20
264.9999999999999
 30
0.0
 11
152.4999992759999
 21
282.9999999999999
 31
0.0
  0
LINE
  5
EF7C891F9
330
EF7C85532
100
AcDbEntity
  8
JISSEN
100
AcDbLine
 10
163.4999992759999
 20
282.9999999999999
 30
0.0
 11
163.4999992759999
 21
264.9999999999999
 31
0.0
  0
TEXT
  5
EF7C891FA
330
EF7C85532
100
AcDbEntity
  8
TEXT
100
AcDbText
 10
156.6795477624092
 20
272.4999999999999
 30
0.0
 40
3.0
  1
1
  7
K
 72
     4
 11
157.8938334766949
 21
273.9999999999999
 31
0.0
100
AcDbText
  0
TEXT
  5
EF7C891FB
330
EF7C85532
100
AcDbEntity
  8
TEXT
100
AcDbText
 10
136.8249992759999
 20
268.2999999999999
 30
0.0
 40
3.0
  1
%%u      
  7
K
 72
     4
 11
141.9999992759999
 21
267.9999999999999
 31
0.0
100
AcDbText
  0
TEXT
  5
EF7C891FC
330
EF7C85532
100
AcDbEntity
  8
TEXT
100
AcDbText
 10
136.8249992759999
 20
274.2999999999999
 30
0.0
 40
3.0
  1
%%u      
  7
K
 72
     4
 11
141.9999992759999
 21
273.9999999999999
 31
0.0
100
AcDbText
  0
TEXT
  5
EF7C891FD
330
EF7C85532
100
AcDbEntity
  8
TEXT
100
AcDbText
 10
156.6795477624092
 20
266.4999999999999
 30
0.0
 40
3.0
  1
1
  7
K
 72
     4
 11
157.8938334766949
 21
267.9999999999999
 31
0.0
100
AcDbText
  0
TEXT
  5
EF7C891FE
330
EF7C85532
100
AcDbEntity
  8
TEXT
100
AcDbText
 10
154.7999992759999
 20
278.4999999999999
 30
0.0
 40
3.0
  1
個数
  7
K
 72
     4
 11
157.9999992759999
 21
279.9999999999999
 31
0.0
100
AcDbText
  0
TEXT
  5
EF7C891FF
330
EF7C85532
100
AcDbEntity
  8
TEXT
100
AcDbText
 10
165.6999992759999
 20
278.4999999999999
 30
0.0
 40
3.0
  1
備    考
  7
K
 72
     4
 11
172.4999992759999
 21
279.9999999999999
 31
0.0
100
AcDbText
  0
LINE
  5
EF7C8928B
330
EF7C85532
100
AcDbEntity
  8
JISSEN
100
AcDbLine
 10
43.23101275274717
 20
117.6811013381442
 30
0.0
 11
41.53360296132961
 21
116.7011013381442
 31
0.0
  0
LINE
  5
EF7C8928C
330
EF7C85532
100
AcDbEntity
  8
JISSEN
100
AcDbLine
 10
41.53360296132961
 20
116.7011013381442
 30
0.0
 11
41.79619316991216
 21
115.7211013381442
 31
0.0
  0
LINE
  5
EF7C8929D
330
EF7C85532
100
AcDbEntity
  8
JISSEN
100
AcDbLine
 10
80.34914421282463
 20
131.4257899039447
 30
0.0
 11
80.34914421282463
 21
117.6811013381442
 31
0.0
  0
LINE
  5
EF7C8929E
330
EF7C85532
100
AcDbEntity
  8
JISSEN
100
AcDbLine
 10
90.53360296132963
 20
132.3811013381442
 30
0.0
 11
71.86209525573719
 21
132.3811013381442
 31
0.0
  0
LINE
  5
EF7C892A2
330
EF7C85532
100
AcDbEntity
  8
JISSEN
100
AcDbLine
 10
74.03021788480526
 20
135.0352369003282
 30
0.0
 11
90.53360296132963
 21
135.0352369003282
 31
0.0
  0
LINE
  5
EF7C892A3
330
EF7C85532
100
AcDbEntity
  8
SAISEN
100
AcDbLine
 10
73.94727200351258
 20
132.3811013381442
 30
0.0
 11
75.47963788480524
 21
135.0352369003282
 31
0.0
  0
LINE
  5
EF7C892A7
330
EF7C85532
100
AcDbEntity
  8
JISSEN
100
AcDbLine
 10
76.02980261291333
 20
151.9811013381442
 30
0.0
 11
74.51388523457194
 21
150.5118186579338
 31
0.0
  0
LINE
  5
EF7C892AA
330
EF7C85532
100
AcDbEntity
  8
SAISEN
100
AcDbLine
 10
76.00857976961657
 20
151.9605313806212
 30
0.0
 11
75.47963788480524
 21
135.0352369003282
 31
0.0
  0
LINE
  5
EF7C892AB
330
EF7C85532
100
AcDbEntity
  8
JISSEN
100
AcDbLine
 10
74.51388523457194
 20
150.5118186579338
 30
0.0
 11
73.94727200351258
 21
132.3811013381442
 31
0.0
  0
LINE
  5
EF7C892AC
330
EF7C85532
100
AcDbEntity
  8
JISSEN
100
AcDbLine
 10
70.16468546431963
 20
131.4011013381442
 30
0.0
 11
70.16468546431963
 21
117.6811013381442
 31
0.0
  0
LINE
  5
EF7C892AF
330
EF7C85532
100
AcDbEntity
  8
JISSEN
100
AcDbLine
 10
43.23101275274717
 20
117.6811013381442
 30
0.0
 11
90.53360296132963
 21
117.6811013381443
 31
0.0
  0
LINE
  5
EF7C892B3
330
EF7C85532
100
AcDbEntity
  8
JISSEN
100
AcDbLine
 10
70.16468546431963
 20
131.4011013381442
 30
0.0
 11
71.86209525573713
 21
132.3811013381442
 31
0.0
  0
ARC
  5
EF7C892B5
330
EF7C85532
100
AcDbEntity
  8
JISSEN
100
AcDbCircle
 10
78.35129432905387
 20
129.8197428471985
 30
0.0
 40
2.563355477994762
100
AcDbArc
 50
38.79537524422289
 51
89.74691060552169
  0
ARC
  5
EF7C892B6
330
EF7C85532
100
AcDbEntity
  8
JISSEN
100
AcDbCircle
 10
82.39022895932789
 20
129.8197428471985
 30
0.0
 40
2.563355477994762
100
AcDbArc
 50
88.38914679131711
 51
142.7739595790623
  0
LINE
  5
EF7C892B7
330
EF7C85532
100
AcDbEntity
  8
JISSEN
100
AcDbLine
 10
41.56564447669421
 20
116.7574182178666
 30
0.0
 11
90.53360296132963
 21
116.7574182178666
 31
0.0
  0
LINE
  5
EF7C892C2
330
EF7C85532
100
AcDbEntity
  8
JISSEN
100
AcDbLine
 10
74.51388523457194
 20
150.5118186579338
 30
0.0
 11
90.53360296132963
 21
150.4858171340655
 31
0.0
  0
LINE
  5
EF7C892F3
330
EF7C85532
100
AcDbEntity
  8
NITEN
100
AcDbLine
 10
116.999999638
 20
182.0916502438679
 30
0.0
 11
63.99999963800002
 21
182.0916502438679
 31
0.0
  0
LINE
  5
EF7C892F4
330
EF7C85532
100
AcDbEntity
  8
NITEN
100
AcDbLine
 10
70.49999963799996
 20
140.0916502438678
 30
0.0
 11
110.499999638
 21
140.0916502438679
 31
0.0
  0
ARC
  5
EF7C892F5
330
EF7C85532
100
AcDbEntity
  8
NITEN
100
AcDbCircle
 10
78.24999963800024
 20
191.2676381808667
 30
0.0
 40
16.91326224966125
100
AcDbArc
 50
43.59070809830677
 51
136.4092919016947
  0
LINE
  5
EF7C892F6
330
EF7C85532
100
AcDbEntity
  8
JISSEN
100
AcDbLine
 10
109.3172062846591
 20
56.19537064711278
 30
0.0
 11
71.8172062846591
 21
56.19537064711268
 31
0.0
  0
LINE
  5
EF7C892F7
330
EF7C85532
100
AcDbEntity
  8
JISSEN
100
AcDbLine
 10
79.06720628465916
 20
111.1105524324205
 30
0.0
 11
102.0672062846591
 21
111.1105524324205
 31
0.0
  0
LINE
  5
EF7C892F8
330
EF7C85532
100
AcDbEntity
  8
JISSEN
100
AcDbLine
 10
103.9706850172565
 20
112.2095263910823
 30
0.0
 11
77.1637275520618
 21
112.2095263910823
 31
0.0
  0
LINE
  5
EF7C892F9
330
EF7C85532
100
AcDbEntity
  8
JISSEN
100
AcDbLine
 10
109.0081892902842
 20
55.2443141308176
 30
0.0
 11
72.12622327903403
 21
55.2443141308175
 31
0.0
  0
LINE
  5
EF7C892FA
330
EF7C85532
100
AcDbEntity
  8
JISSEN
100
AcDbLine
 10
87.73760905211554
 20
69.73996167864517
 30
0.0
 11
90.53360296132963
 21
69.73996167864517
 31
0.0
  0
LINE
  5
EF7C892FB
330
EF7C85532
100
AcDbEntity
  8
JISSEN
100
AcDbLine
 10
93.80652875295885
 20
69.73996167864517
 30
0.0
 11
87.26067716970034
 21
69.73996167864517
 31
0.0
  0
LINE
  5
EF7C892FC
330
EF7C85532
100
AcDbEntity
  8
JISSEN
100
AcDbLine
 10
94.53360296132961
 20
71.35036476847377
 30
0.0
 11
86.53360296132962
 21
71.35036476847377
 31
0.0
  0
LINE
  5
EF7C892FD
330
EF7C85532
100
AcDbEntity
  8
JISSEN
100
AcDbLine
 10
88.31280157191201
 20
58.57719742766978
 30
0.0
 11
92.82161099740624
 21
58.57719742766969
 31
0.0
  0
LINE
  5
EF7C892FE
330
EF7C85532
100
AcDbEntity
  8
JISSEN
100
AcDbLine
 10
95.52364318082386
 20
95.50707344927579
 30
0.0
 11
85.6107693884943
 21
95.50707344927579
 31
0.0
  0
LINE
  5
EF7C892FF
330
EF7C85532
100
AcDbEntity
  8
JISSEN
100
AcDbLine
 10
82.06720628465916
 20
96.58181438611332
 30
0.0
 11
99.06720628465917
 21
96.58181438611332
 31
0.0
  0
ARC
  5
EF7C89300
330
EF7C85532
100
AcDbEntity
  8
JISSEN
100
AcDbCircle
 10
90.53360296132963
 20
106.7379469569561
 30
0.0
 40
10.93848722979607
100
AcDbArc
 50
255.6397940472943
 51
284.3602059527056
  0
LINE
  5
EF7C89301
330
EF7C85532
100
AcDbEntity
  8
JISSEN
100
AcDbLine
 10
88.78360296132962
 20
93.06886582802174
 30
0.0
 11
92.28360296132962
 21
93.06886582802174
 31
0.0
  0
LINE
  5
EF7C89302
330
EF7C85532
100
AcDbEntity
  8
JISSEN
100
AcDbLine
 10
92.28360296132962
 20
91.33966646658977
 30
0.0
 11
88.78360296132962
 21
91.33966646658977
 31
0.0
  0
LINE
  5
EF7C89303
330
EF7C85532
100
AcDbEntity
  8
JISSEN
100
AcDbLine
 10
92.28360296132962
 20
90.55649532642572
 30
0.0
 11
88.78360296132962
 21
90.55649532642572
 31
0.0
  0
LINE
  5
EF7C89304
330
EF7C85532
100
AcDbEntity
  8
JISSEN
100
AcDbLine
 10
87.86720628465918
 20
106.0850054621213
 30
0.0
 11
93.26720628465915
 21
106.0850054621213
 31
0.0
  0
LINE
  5
EF7C89305
330
EF7C85532
100
AcDbEntity
  8
JISSEN
100
AcDbLine
 10
82.06720628465916
 20
98.88181438611331
 30
0.0
 11
90.56720628465916
 21
98.88181438611331
 31
0.0
  0
LINE
  5
EF7C89309
330
EF7C85532
100
AcDbEntity
  8
SAISEN
100
AcDbLine
 10
78.31299127459113
 20
111.5459986715101
 30
0.0
 11
78.44346975319843
 21
115.7211013381442
 31
0.0
  0
LINE
  5
EF7C8930A
330
EF7C85532
100
AcDbEntity
  8
JISSEN
100
AcDbLine
 10
77.1637275520618
 20
112.2095263910823
 30
0.0
 11
77.27346975319858
 21
115.7211013381442
 31
0.0
  0
LINE
  5
EF7C8930C
330
EF7C85532
100
AcDbEntity
  8
JISSEN
100
AcDbLine
 10
86.53360296132962
 20
71.35036476847377
 30
0.0
 11
86.53360296132962
 21
73.72543370086479
 31
0.0
  0
ARC
  5
EF7C8930D
330
EF7C85532
100
AcDbEntity
  8
JISSEN
100
AcDbCircle
 10
98.53360296132962
 20
90.2412256302246
 30
0.0
 40
30.0
100
AcDbArc
 50
180.0
 51
220.2190987445551
  0
ARC
  5
EF7C8930E
330
EF7C85532
100
AcDbEntity
  8
JISSEN
100
AcDbCircle
 10
98.53360296132962
 20
90.2412256302246
 30
0.0
 40
24.0
100
AcDbArc
 50
178.4782525524656
 51
239.9999999999998
  0
LINE
  5
EF7C8930F
330
EF7C85532
100
AcDbEntity
  8
JISSEN
100
AcDbLine
 10
75.62617800322368
 20
70.86985805359891
 30
0.0
 11
85.28360296132957
 21
59.44956278320765
 31
0.0
  0
LINE
  5
EF7C89310
330
EF7C85532
100
AcDbEntity
  8
JISSEN
100
AcDbLine
 10
76.06720628465888
 20
56.93996167864497
 30
0.0
 11
78.05532590504737
 21
58.33205802370348
 31
0.0
  0
LINE
  5
EF7C89311
330
EF7C85532
100
AcDbEntity
  8
JISSEN
100
AcDbLine
 10
74.10882184433461
 20
56.93996167864504
 30
0.0
 11
71.8172062846591
 21
56.19537064711268
 31
0.0
1001
ACAD
1000
ASC_BOUNDS
1002
{
1070
    19
1002
}
  0
LINE
  5
EF7C89312
330
EF7C85532
100
AcDbEntity
  8
JISSEN
100
AcDbLine
 10
71.8172062846591
 20
56.19537064711268
 30
0.0
 11
72.12622327903403
 21
55.2443141308175
 31
0.0
1001
ACAD
1000
ASC_BOUNDS
1002
{
1070
    19
1002
}
  0
LINE
  5
EF7C89313
330
EF7C85532
100
AcDbEntity
  8
JISSEN
100
AcDbLine
 10
76.06720628465911
 20
56.93996167864516
 30
0.0
 11
74.10882184433489
 21
56.93996167864516
 31
0.0
  0
LINE
  5
EF7C89314
330
EF7C85532
100
AcDbEntity
  8
JISSEN
100
AcDbLine
 10
87.1536905803652
 20
58.57719742766969
 30
0.0
 11
83.24894707706448
 21
58.57719742766971
 31
0.0
  0
LINE
  5
EF7C89315
330
EF7C85532
100
AcDbEntity
  8
JISSEN
100
AcDbLine
 10
79.37762479394473
 20
58.57719742766969
 30
0.0
 11
81.63202950669187
 21
58.57719742766969
 31
0.0
  0
LINE
  5
EF7C89316
330
EF7C85532
100
AcDbEntity
  8
JISSEN
100
AcDbLine
 10
79.51086904284068
 20
56.19537064711268
 30
0.0
 11
80.79960084909135
 21
58.13132965918564
 31
0.0
  0
LINE
  5
EF7C89317
330
EF7C85532
100
AcDbEntity
  8
JISSEN
100
AcDbLine
 10
76.76826312800073
 20
56.19537064711268
 30
0.0
 11
79.37762479394473
 21
58.57719742766969
 31
0.0
  0
ARC
  5
EF7C89318
330
EF7C85532
100
AcDbEntity
  8
JISSEN
100
AcDbCircle
 10
78.83280876452113
 20
57.22169742766969
 30
0.0
 40
1.355499999999999
100
AcDbArc
 50
70.26879749382176
 51
124.9999999999968
  0
LINE
  5
EF7C89319
330
EF7C85532
100
AcDbEntity
  8
JISSEN
100
AcDbLine
 10
80.8323036065795
 20
56.1953706471127
 30
0.0
 11
81.54804680013269
 21
57.27057456399329
 31
0.0
  0
LINE
  5
EF7C8931A
330
EF7C85532
100
AcDbEntity
  8
JISSEN
100
AcDbLine
 10
81.60120707541683
 20
56.19537064711268
 30
0.0
 11
83.24894707706448
 21
58.57719742766969
 31
0.0
  0
ARC
  5
EF7C8931B
330
EF7C85532
100
AcDbEntity
  8
JISSEN
100
AcDbCircle
 10
81.63202950669182
 20
57.57719742766925
 30
0.0
 40
1.0
100
AcDbArc
 50
47.91894748809009
 51
146.3490341753993
  0
ARC
  5
EF7C8931C
330
EF7C85532
100
AcDbEntity
  8
JISSEN
100
AcDbCircle
 10
81.88101826317291
 20
57.04892167138673
 30
0.0
 40
0.4
100
AcDbArc
 50
30.00000000000125
 51
146.3490341753977
  0
LINE
  5
EF7C8931D
330
EF7C85532
100
AcDbEntity
  8
JISSEN
100
AcDbLine
 10
82.30221072051483
 20
58.31939493550577
 30
0.0
 11
82.65176033360125
 21
57.71395724587399
 31
0.0
  0
LINE
  5
EF7C8931E
330
EF7C85532
100
AcDbEntity
  8
JISSEN
100
AcDbLine
 10
82.22742842468665
 20
57.24892167138673
 30
0.0
 11
82.27411232485627
 21
57.16806278439749
 31
0.0
  0
ARC
  5
EF7C8931F
330
EF7C85532
100
AcDbEntity
  8
JISSEN
100
AcDbCircle
 10
73.78360296132962
 20
64.24122563022461
 30
0.0
 40
12.49999999999999
100
AcDbArc
 50
343.7397952916881
 51
16.26020470831189
  0
LINE
  5
EF7C89320
330
EF7C85532
100
AcDbEntity
  8
JISSEN
100
AcDbLine
 10
86.94301059156055
 20
56.19537064711271
 30
0.0
 11
87.25715629394342
 21
57.30563305938943
 31
0.0
  0
ARC
  5
EF7C89321
330
EF7C85532
100
AcDbEntity
  8
JISSEN
100
AcDbCircle
 10
87.1536905803652
 20
58.07719742766879
 30
0.0
 40
0.5
100
AcDbArc
 50
13.29012998990278
 51
164.2012849264975
  0
LINE
  5
EF7C89322
330
EF7C85532
100
AcDbEntity
  8
JISSEN
100
AcDbLine
 10
86.10160338637246
 20
56.19537064711271
 30
0.0
 11
86.67257853061613
 21
58.2133267617092
 31
0.0
  0
LINE
  5
EF7C89323
330
EF7C85532
100
AcDbEntity
  8
JISSEN
100
AcDbLine
 10
85.28360296132957
 20
58.53250783028648
 30
0.0
 11
85.28360296132957
 21
59.58714762820093
 31
0.0
  0
LINE
  5
EF7C89324
330
EF7C85532
100
AcDbEntity
  8
JISSEN
100
AcDbLine
 10
87.71195255853792
 20
56.19537064711271
 30
0.0
 11
87.45070055265978
 21
57.3013954015735
 31
0.0
  0
LINE
  5
EF7C89325
330
EF7C85532
100
AcDbEntity
  8
JISSEN
100
AcDbLine
 10
88.08145390822085
 20
56.32448836284088
 30
0.0
 11
87.64029982419776
 21
58.19213847262952
 31
0.0
  0
LINE
  5
EF7C89326
330
EF7C85532
100
AcDbEntity
  8
JISSEN
100
AcDbLine
 10
88.06819383733943
 20
56.19537064711271
 30
0.0
 11
88.31280157191201
 21
58.57719742766969
 31
0.0
  0
ARC
  5
EF7C89327
330
EF7C85532
100
AcDbEntity
  8
JISSEN
100
AcDbCircle
 10
87.35337870389328
 20
57.27840719258136
 30
0.0
 40
0.1
100
AcDbArc
 50
13.2901299899087
 51
164.2012849264931
  0
ARC
  5
EF7C89328
330
EF7C85532
100
AcDbEntity
  8
JISSEN
100
AcDbCircle
 10
86.78360296132963
 20
69.88962864129028
 30
0.0
 40
0.5
100
AcDbArc
 50
239.9999999999998
 51
342.5823984650904
  0
LINE
  5
EF7C89329
330
EF7C85532
100
AcDbEntity
  8
JISSEN
100
AcDbLine
 10
88.08919147630673
 20
69.73996167864517
 30
0.0
 11
89.01872234484534
 21
70.66949254718391
 31
0.0
  0
ARC
  5
EF7C8932A
330
EF7C85532
100
AcDbEntity
  8
JISSEN
100
AcDbCircle
 10
90.5328184058372
 20
70.18115843265717
 30
0.0
 40
1.6
100
AcDbArc
 50
133.0503615394668
 51
162.7537116970571
  0
ARC
  5
EF7C8932B
330
EF7C85532
100
AcDbEntity
  8
JISSEN
100
AcDbCircle
 10
85.53330419798511
 20
90.43958838567998
 30
0.0
 40
11.0
100
AcDbArc
 50
111.4923353073529
 51
177.7128202082922
  0
ARC
  5
EF7C8932C
330
EF7C85532
100
AcDbEntity
  8
JISSEN
100
AcDbCircle
 10
83.3248098719808
 20
91.20121417394393
 30
0.0
 40
10.80551655320168
100
AcDbArc
 50
94.20951776956371
 51
169.5833810006728
  0
ARC
  5
EF7C8932D
330
EF7C85532
100
AcDbEntity
  8
JISSEN
100
AcDbCircle
 10
85.48686119209538
 20
91.54862567633312
 30
0.0
 40
17.0
100
AcDbArc
 50
114.4511428072319
 51
184.7012200115904
  0
ARC
  5
EF7C8932E
330
EF7C85532
100
AcDbEntity
  8
JISSEN
100
AcDbCircle
 10
85.53360296132963
 20
90.2412256302246
 30
0.0
 40
15.0
100
AcDbArc
 50
126.6829888003599
 51
180.0
  0
ARC
  5
EF7C8932F
330
EF7C85532
100
AcDbEntity
  8
JISSEN
100
AcDbCircle
 10
98.53360296132962
 20
90.2412256302246
 30
0.0
 40
26.0
100
AcDbArc
 50
173.5656684449006
 51
203.8188413934569
  0
ARC
  5
EF7C89330
330
EF7C85532
100
AcDbEntity
  8
JISSEN
100
AcDbCircle
 10
98.53360296132962
 20
90.2412256302246
 30
0.0
 40
28.0
100
AcDbArc
 50
180.0
 51
202.024312837042
  0
ARC
  5
EF7C89331
330
EF7C85532
100
AcDbEntity
  8
JISSEN
100
AcDbCircle
 10
96.53360296132952
 20
87.57881216539139
 30
0.0
 40
13.5
100
AcDbArc
 50
138.1725878762896
 51
180.0
  0
LINE
  5
EF7C89332
330
EF7C85532
100
AcDbEntity
  8
JISSEN
100
AcDbLine
 10
83.75092603767399
 20
78.23678836704066
 30
0.0
 11
80.12075870407727
 21
77.91918987864882
 31
0.0
  0
ARC
  5
EF7C89333
330
EF7C85532
100
AcDbEntity
  8
JISSEN
100
AcDbCircle
 10
96.53360296132952
 20
82.57881216539137
 30
0.0
 40
13.5
100
AcDbArc
 50
180.0
 51
222.2054464037328
  0
ARC
  5
EF7C89334
330
EF7C85532
100
AcDbEntity
  8
JISSEN
100
AcDbCircle
 10
83.03360296132963
 20
82.37150901686728
 30
0.0
 40
4.0
100
AcDbArc
 50
94.99999999999982
 51
180.0
  0
LINE
  5
EF7C89335
330
EF7C85532
100
AcDbEntity
  8
JISSEN
100
AcDbLine
 10
83.0336029613295
 20
82.57881216539139
 30
0.0
 11
83.0336029613295
 21
87.57881216539139
 31
0.0
  0
ARC
  5
EF7C89336
330
EF7C85532
100
AcDbEntity
  8
JISSEN
100
AcDbCircle
 10
80.03360296132962
 20
78.91538457674055
 30
0.0
 40
1.0
100
AcDbArc
 50
180.0
 51
274.9999999999997
  0
LINE
  5
EF7C89337
330
EF7C85532
100
AcDbEntity
  8
JISSEN
100
AcDbLine
 10
79.03360296132962
 20
82.38678836704066
 30
0.0
 11
79.03360296132962
 21
82.38678836704066
 31
0.0
  0
LINE
  5
EF7C89338
330
EF7C85532
100
AcDbEntity
  8
JISSEN
100
AcDbLine
 10
79.03360296132962
 20
78.91538457674055
 30
0.0
 11
79.03360296132962
 21
82.37150901686728
 31
0.0
  0
LINE
  5
EF7C89339
330
EF7C85532
100
AcDbEntity
  8
JISSEN
100
AcDbLine
 10
83.0336029613295
 20
86.38678836704066
 30
0.0
 11
82.68497999033895
 21
86.35628780923424
 31
0.0
  0
LINE
  5
EF7C8933A
330
EF7C85532
100
AcDbEntity
  8
JISSEN
100
AcDbLine
 10
86.03360296132951
 20
83.82881216539139
 30
0.0
 11
86.03360296132951
 21
87.57881216539139
 31
0.0
  0
LINE
  5
EF7C8933B
330
EF7C85532
100
AcDbEntity
  8
JISSEN
100
AcDbLine
 10
88.03360296132963
 20
82.71808114437176
 30
0.0
 11
88.03360296132963
 21
86.38678836704066
 31
0.0
  0
LINE
  5
EF7C8933C
330
EF7C85532
100
AcDbEntity
  8
JISSEN
100
AcDbLine
 10
88.99296450601253
 20
90.55649532642572
 30
0.0
 11
88.03360296132956
 21
77.1254337008648
 31
0.0
  0
ARC
  5
EF7C8933D
330
EF7C85532
100
AcDbEntity
  8
JISSEN
100
AcDbCircle
 10
86.53360296132962
 20
77.1254337008648
 30
0.0
 40
1.5
100
AcDbArc
 50
284.2500326978051
 51
0.0
  0
ARC
  5
EF7C8933E
330
EF7C85532
100
AcDbEntity
  8
JISSEN
100
AcDbCircle
 10
87.53360296132951
 20
83.82881216539139
 30
0.0
 40
1.5
100
AcDbArc
 50
180.0
 51
270.0
  0
LINE
  5
EF7C8933F
330
EF7C85532
100
AcDbEntity
  8
JISSEN
100
AcDbLine
 10
86.53360296132957
 20
73.16572534444275
 30
0.0
 11
84.94552143727196
 21
73.30615178517878
 31
0.0
  0
LINE
  5
EF7C89340
330
EF7C85532
100
AcDbEntity
  8
JISSEN
100
AcDbLine
 10
84.03360296132962
 20
76.73678836704066
 30
0.0
 11
83.88360296132958
 21
76.73678836704066
 31
0.0
  0
LINE
  5
EF7C89341
330
EF7C85532
100
AcDbEntity
  8
JISSEN
100
AcDbLine
 10
84.03360296132962
 20
73.76842382793895
 30
0.0
 11
83.88360296132958
 21
73.76842382793892
 31
0.0
  0
LINE
  5
EF7C89342
330
EF7C85532
100
AcDbEntity
  8
JISSEN
100
AcDbLine
 10
84.03360296132962
 20
77.4797926517984
 30
0.0
 11
84.03360296132962
 21
73.76842382793892
 31
0.0
  0
LINE
  5
EF7C89343
330
EF7C85532
100
AcDbEntity
  8
JISSEN
100
AcDbLine
 10
83.88360296132963
 20
76.73678836704066
 30
0.0
 11
83.88360296132958
 21
73.76842382793892
 31
0.0
  0
ARC
  5
EF7C89344
330
EF7C85532
100
AcDbEntity
  8
JISSEN
100
AcDbCircle
 10
85.03360296132962
 20
74.30226505440053
 30
0.0
 40
1.0
100
AcDbArc
 50
180.0
 51
264.9467518487444
  0
LINE
  5
EF7C89345
330
EF7C85532
100
AcDbEntity
  8
JISSEN
100
AcDbLine
 10
85.46286934148094
 20
74.85295576507216
 30
0.0
 11
86.84293384407647
 21
74.85295576507216
 31
0.0
  0
ARC
  5
EF7C89346
330
EF7C85532
100
AcDbEntity
  8
JISSEN
100
AcDbCircle
 10
86.30383842320179
 20
74.15446870811216
 30
0.0
 40
0.4866855046380603
100
AcDbArc
 50
298.1707402297524
 51
355.8150838748825
  0
LINE
  5
EF7C89347
330
EF7C85532
100
AcDbEntity
  8
JISSEN
100
AcDbLine
 10
86.78922628976057
 20
74.11895252275418
 30
0.0
 11
86.90283373056036
 21
75.67158754701871
 31
0.0
  0
LINE
  5
EF7C89348
330
EF7C85532
100
AcDbEntity
  8
JISSEN
100
AcDbLine
 10
87.90860296132951
 20
82.32881216539142
 30
0.0
 11
87.90860296132951
 21
77.8288121653914
 31
0.0
  0
ARC
  5
EF7C89349
330
EF7C85532
100
AcDbEntity
  8
JISSEN
100
AcDbCircle
 10
89.76167028850738
 20
106.82419992248
 30
0.0
 40
24.90306398983314
100
AcDbArc
 50
265.7326069421984
 51
266.8169451117992
  0
ARC
  5
EF7C8934A
330
EF7C85532
100
AcDbEntity
  8
JISSEN
100
AcDbCircle
 10
87.90860296132951
 20
82.62881216539138
 30
0.0
 40
1.199999999999999
100
AcDbArc
 50
270.0
 51
291.4232972478955
  0
LINE
  5
EF7C8934B
330
EF7C85532
100
AcDbEntity
  8
JISSEN
100
AcDbLine
 10
87.53360296132951
 20
82.32881216539142
 30
0.0
 11
87.90860296132951
 21
82.32881216539142
 31
0.0
  0
ARC
  5
EF7C8934C
330
EF7C85532
100
AcDbEntity
  8
JISSEN
100
AcDbCircle
 10
90.53360296132963
 20
63.53188909442796
 30
0.0
 40
19.34838405080195
100
AcDbArc
 50
96.22224717316008
 51
97.42392958962717
  0
ARC
  5
EF7C8934D
330
EF7C85532
100
AcDbEntity
  8
JISSEN
100
AcDbCircle
 10
90.5336029613295
 20
101.9042731943155
 30
0.0
 40
19.34838405080195
100
AcDbArc
 50
262.5760704103728
 51
263.7573957713741
  0
LINE
  5
EF7C8934E
330
EF7C85532
100
AcDbEntity
  8
JISSEN
100
AcDbLine
 10
86.03360296132951
 20
86.56210006612012
 30
0.0
 11
88.7244986120109
 21
86.79797281040334
 31
0.0
  0
LINE
  5
EF7C8934F
330
EF7C85532
100
AcDbEntity
  8
JISSEN
100
AcDbLine
 10
86.03360296132951
 20
86.66248350837824
 30
0.0
 11
88.73171403460053
 21
86.89898872665834
 31
0.0
  0
LINE
  5
EF7C89350
330
EF7C85532
100
AcDbEntity
  8
JISSEN
100
AcDbLine
 10
86.03360296132951
 20
86.21147666796124
 30
0.0
 11
88.03360296132963
 21
86.03616496888177
 31
0.0
  0
ARC
  5
EF7C89351
330
EF7C85532
100
AcDbEntity
  8
JISSEN
100
AcDbCircle
 10
87.80663326962093
 20
89.77881216539142
 30
0.0
 40
1.5
100
AcDbArc
 50
90.0
 51
165.8509954910654
  0
ARC
  5
EF7C89352
330
EF7C85532
100
AcDbEntity
  8
JISSEN
100
AcDbCircle
 10
96.53360296132952
 20
87.57881216539139
 30
0.0
 40
10.5
100
AcDbArc
 50
165.8509954910654
 51
180.0
  0
LINE
  5
EF7C89353
330
EF7C85532
100
AcDbEntity
  8
JISSEN
100
AcDbLine
 10
87.53360296132962
 20
89.75192360669256
 30
0.0
 11
87.53360296132962
 21
86.7939672826878
 31
0.0
  0
ARC
  5
EF7C89354
330
EF7C85532
100
AcDbEntity
  8
JISSEN
100
AcDbCircle
 10
90.53360296132963
 20
67.20059631709687
 30
0.0
 40
19.34838405080195
100
AcDbArc
 50
95.43647494168643
 51
97.42392958962717
  0
ARC
  5
EF7C89355
330
EF7C85532
100
AcDbEntity
  8
JISSEN
100
AcDbCircle
 10
88.83360296132952
 20
92.49634538285489
 30
0.0
 40
0.3
100
AcDbArc
 50
99.59406822683844
 51
180.0
  0
ARC
  5
EF7C89356
330
EF7C85532
100
AcDbEntity
  8
JISSEN
100
AcDbCircle
 10
90.53360296132963
 20
70.63753202921022
 30
0.0
 40
19.34838405080195
100
AcDbArc
 50
94.70198339894666
 51
98.91979517632346
  0
ARC
  5
EF7C89357
330
EF7C85532
100
AcDbEntity
  8
JISSEN
100
AcDbCircle
 10
89.95751282041998
 20
81.06631690839767
 30
0.0
 40
9.665948963623771
100
AcDbArc
 50
96.97567628298614
 51
98.562612181495
  0
LINE
  5
EF7C89358
330
EF7C85532
100
AcDbEntity
  8
JISSEN
100
AcDbLine
 10
87.80663326962093
 20
91.27881216539142
 30
0.0
 11
88.33360296132951
 21
91.27881216539142
 31
0.0
  0
LINE
  5
EF7C89359
330
EF7C85532
100
AcDbEntity
  8
JISSEN
100
AcDbLine
 10
87.27164695321091
 20
91.18016495511064
 30
0.0
 11
88.03360296132984
 21
90.74024944871252
 31
0.0
  0
ARC
  5
EF7C8935A
330
EF7C85532
100
AcDbEntity
  8
JISSEN
100
AcDbCircle
 10
88.33360296132951
 20
91.4788121653914
 30
0.0
 40
0.2
100
AcDbArc
 50
270.0
 51
0.0
  0
LINE
  5
EF7C8935B
330
EF7C85532
100
AcDbEntity
  8
JISSEN
100
AcDbLine
 10
88.53360296132951
 20
91.4788121653914
 30
0.0
 11
88.53360296132951
 21
94.2921493720093
 31
0.0
  0
ARC
  5
EF7C8935C
330
EF7C85532
100
AcDbEntity
  8
JISSEN
100
AcDbCircle
 10
88.3277340316402
 20
89.93130609509826
 30
0.0
 40
0.6441310703106079
100
AcDbArc
 50
103.6591051852966
 51
180.0
  0
LINE
  5
EF7C8935D
330
EF7C85532
100
AcDbEntity
  8
JISSEN
100
AcDbLine
 10
87.68360296132959
 20
89.77486374962849
 30
0.0
 11
87.68360296132959
 21
89.93130609509826
 31
0.0
  0
ARC
  5
EF7C8935E
330
EF7C85532
100
AcDbEntity
  8
JISSEN
100
AcDbCircle
 10
89.10316660894057
 20
86.74045782208482
 30
0.0
 40
3.927849752434779
100
AcDbArc
 50
98.56261218149995
 51
103.6591051852998
  0
ARC
  5
EF7C8935F
330
EF7C85532
100
AcDbEntity
  8
JISSEN
100
AcDbCircle
 10
90.53360296132984
 20
95.07037646763469
 30
0.0
 40
5.0
100
AcDbArc
 50
239.9999999999998
 51
243.6791901783917
  0
LINE
  5
EF7C89360
330
EF7C85532
100
AcDbEntity
  8
JISSEN
100
AcDbLine
 10
88.78360296132962
 20
90.55649532642572
 30
0.0
 11
88.78360296132962
 21
93.06886582802174
 31
0.0
  0
LINE
  5
EF7C89361
330
EF7C85532
100
AcDbEntity
  8
JISSEN
100
AcDbLine
 10
79.06720628465916
 20
109.1105524324205
 30
0.0
 11
88.15860296132962
 21
109.1105524324205
 31
0.0
  0
LINE
  5
EF7C89362
330
EF7C85532
100
AcDbEntity
  8
JISSEN
100
AcDbLine
 10
89.10322093677832
 20
99.79165214867432
 30
0.0
 11
82.21720628465915
 21
99.79165214867428
 31
0.0
  0
LINE
  5
EF7C89363
330
EF7C85532
100
AcDbEntity
  8
JISSEN
100
AcDbLine
 10
81.26720628465916
 20
103.1105524324205
 30
0.0
 11
89.06720628465917
 21
103.1105524324205
 31
0.0
  0
LINE
  5
EF7C89364
330
EF7C85532
100
AcDbEntity
  8
JISSEN
100
AcDbLine
 10
82.56720628465917
 20
101.5105524324205
 30
0.0
 11
89.31720628465916
 21
101.5105524324205
 31
0.0
  0
TEXT
  5
EF7C89365
330
EF7C85532
100
AcDbEntity
  8
JISSEN
100
AcDbText
 10
85.4526385798826
 20
107.4358878680754
 30
0.0
 40
3.0
  1
E
 50
180.0
  7
K
 72
     4
 11
83.95263857988259
 21
105.9358878680753
 31
0.0
100
AcDbText
  0
LINE
  5
EF7C89366
330
EF7C85532
100
AcDbEntity
  8
JISSEN
100
AcDbLine
 10
84.56720628465864
 20
99.18181438611332
 30
0.0
 11
82.06720628465916
 21
99.18181438611332
 31
0.0
  0
LINE
  5
EF7C89367
330
EF7C85532
100
AcDbEntity
  8
JISSEN
100
AcDbLine
 10
81.26720628465916
 20
109.1105524324205
 30
0.0
 11
81.26720628465916
 21
103.1105524324205
 31
0.0
  0
ARC
  5
EF7C89368
330
EF7C85532
100
AcDbEntity
  8
JISSEN
100
AcDbCircle
 10
76.64585442966131
 20
109.3843429586009
 30
0.0
 40
6.498907295833106
100
AcDbArc
 50
284.6790800521976
 51
314.9044140176817
  0
ARC
  5
EF7C89369
330
EF7C85532
100
AcDbEntity
  8
JISSEN
100
AcDbCircle
 10
79.55973223840487
 20
98.26075607693924
 30
0.0
 40
5.0
100
AcDbArc
 50
104.6790800521975
 51
126.6829888003599
  0
ARC
  5
EF7C8936A
330
EF7C85532
100
AcDbEntity
  8
JISSEN
100
AcDbCircle
 10
81.71720628465914
 20
100.2084159232069
 30
0.0
 40
0.5
100
AcDbArc
 50
0.0
 51
111.1546302653318
  0
LINE
  5
EF7C8936B
330
EF7C85532
100
AcDbEntity
  8
JISSEN
100
AcDbLine
 10
82.21720628465915
 20
99.79165214867435
 30
0.0
 11
83.27347627378946
 21
99.18181438611332
 31
0.0
  0
LINE
  5
EF7C8936C
330
EF7C85532
100
AcDbEntity
  8
JISSEN
100
AcDbLine
 10
82.21720628465915
 20
99.79165214867435
 30
0.0
 11
82.21720628465915
 21
100.2084159232069
 31
0.0
  0
LINE
  5
EF7C8936D
330
EF7C85532
100
AcDbEntity
  8
JISSEN
100
AcDbLine
 10
82.06720628465916
 20
99.18181438611332
 30
0.0
 11
82.06720628465916
 21
96.58181438611332
 31
0.0
  0
LINE
  5
EF7C8936E
330
EF7C85532
100
AcDbEntity
  8
JISSEN
100
AcDbLine
 10
82.56720628465917
 20
103.1105524324205
 30
0.0
 11
82.56720628465917
 21
101.5105524324205
 31
0.0
  0
LINE
  5
EF7C8936F
330
EF7C85532
100
AcDbEntity
  8
JISSEN
100
AcDbLine
 10
79.06720628465916
 20
111.1105524324205
 30
0.0
 11
77.1637275520618
 21
112.2095263910823
 31
0.0
  0
LINE
  5
EF7C89370
330
EF7C85532
100
AcDbEntity
  8
JISSEN
100
AcDbLine
 10
79.06720628465916
 20
107.9330324841408
 30
0.0
 11
79.06720628465916
 21
111.1105524324205
 31
0.0
  0
ARC
  5
EF7C89371
330
EF7C85532
100
AcDbEntity
  8
JISSEN
100
AcDbCircle
 10
78.06720628465916
 20
107.9330324841408
 30
0.0
 40
1.0
100
AcDbArc
 50
294.6243183521636
 51
0.0
  0
ARC
  5
EF7C89372
330
EF7C85532
100
AcDbEntity
  8
JISSEN
100
AcDbCircle
 10
87.86720628465918
 20
105.7850054621213
 30
0.0
 40
0.3
100
AcDbArc
 50
90.0
 51
180.0
  0
LINE
  5
EF7C89373
330
EF7C85532
100
AcDbEntity
  8
JISSEN
100
AcDbLine
 10
86.56720628465917
 20
109.1105524324205
 30
0.0
 11
86.56720628465917
 21
103.1105524324205
 31
0.0
  0
LINE
  5
EF7C89374
330
EF7C85532
100
AcDbEntity
  8
JISSEN
100
AcDbLine
 10
88.87846227989985
 20
99.18181438611332
 30
0.0
 11
83.46720628465915
 21
99.18181438611314
 31
0.0
  0
ARC
  5
EF7C89375
330
EF7C85532
100
AcDbEntity
  8
JISSEN
100
AcDbCircle
 10
82.31720628465911
 20
101.6210601229996
 30
0.0
 40
7.0
100
AcDbArc
 50
336.9632903547655
 51
0.0
  0
LINE
  5
EF7C89376
330
EF7C85532
100
AcDbEntity
  8
JISSEN
100
AcDbLine
 10
89.31720628465916
 20
104.0850054621213
 30
0.0
 11
87.86720628465918
 21
104.0850054621213
 31
0.0
  0
ARC
  5
EF7C89377
330
EF7C85532
100
AcDbEntity
  8
JISSEN
100
AcDbCircle
 10
87.86720628465918
 20
104.3850054621213
 30
0.0
 40
0.3
100
AcDbArc
 50
180.0
 51
270.0
  0
LINE
  5
EF7C89378
330
EF7C85532
100
AcDbEntity
  8
JISSEN
100
AcDbLine
 10
87.56720628465917
 20
104.3850054621213
 30
0.0
 11
87.56720628465917
 21
105.7850054621213
 31
0.0
  0
LINE
  5
EF7C89379
330
EF7C85532
100
AcDbEntity
  8
JISSEN
100
AcDbLine
 10
89.06720628465917
 20
103.1105524324205
 30
0.0
 11
89.06720628465917
 21
101.5105524324205
 31
0.0
  0
LINE
  5
EF7C8937A
330
EF7C85532
100
AcDbEntity
  8
JISSEN
100
AcDbLine
 10
89.31720628465916
 20
104.0850054621213
 30
0.0
 11
89.31720628465916
 21
101.6210601229996
 31
0.0
  0
LINE
  5
EF7C8937B
330
EF7C85532
100
AcDbEntity
  8
JISSEN
100
AcDbLine
 10
88.15860296132962
 20
109.1105524324205
 30
0.0
 11
88.15860296132962
 21
111.1105524324205
 31
0.0
  0
LINE
  5
EF7C8937C
330
EF7C85532
100
AcDbEntity
  8
NITEN
100
AcDbLine
 10
65.99999963800008
 20
202.9293678950135
 30
0.0
 11
65.99999963800008
 21
182.0916502438679
 31
0.0
  0
ARC
  5
EF7C89383
330
EF7C85532
100
AcDbEntity
  8
NITEN
100
AcDbCircle
 10
110.499999638
 20
141.5916502438679
 30
0.0
 40
1.5
100
AcDbArc
 50
270.0
 51
0.0
  0
LINE
  5
EF7C89384
330
EF7C85532
100
AcDbEntity
  8
SAISEN
100
AcDbLine
 10
102.8214212947271
 20
111.5459986715101
 30
0.0
 11
102.6909428161197
 21
115.7211013381442
 31
0.0
  0
LINE
  5
EF7C89385
330
EF7C85532
100
AcDbEntity
  8
JISSEN
100
AcDbLine
 10
103.9706850172565
 20
112.2095263910823
 30
0.0
 11
103.8609428161197
 21
115.7211013381442
 31
0.0
  0
TEXT
  5
EF7C89386
330
EF7C85532
100
AcDbEntity
  8
SUNPOU
100
AcDbText
 10
101.0290994958714
 20
27.72931372021973
 30
0.0
 40
4.5
  1
1
  7
K
 72
     4
 11
102.8505280672999
 21
29.97931372021973
 31
0.0
100
AcDbText
  0
CIRCLE
  5
EF7C89387
330
EF7C85532
100
AcDbEntity
  8
SUNPOU
100
AcDbCircle
 10
102.8505280672999
 20
29.97931372021973
 30
0.0
 40
6.0
  0
ARC
  5
EF7C89388
330
EF7C85532
100
AcDbEntity
  8
JISSEN
100
AcDbCircle
 10
82.53360296132962
 20
90.2412256302246
 30
0.0
 40
30.0
100
AcDbArc
 50
319.7809012554437
 51
0.0
  0
LINE
  5
EF7C89389
330
EF7C85532
100
AcDbEntity
  8
JISSEN
100
AcDbLine
 10
94.53360296132961
 20
73.72543370086479
 30
0.0
 11
94.53360296132961
 21
71.35036476847377
 31
0.0
  0
ARC
  5
EF7C8938A
330
EF7C85532
100
AcDbEntity
  8
JISSEN
100
AcDbCircle
 10
82.53360296132962
 20
90.2412256302246
 30
0.0
 40
24.0
100
AcDbArc
 50
300.0000000000001
 51
0.0
  0
LINE
  5
EF7C8938B
330
EF7C85532
100
AcDbEntity
  8
JISSEN
100
AcDbLine
 10
105.4410279194354
 20
70.86985805359891
 30
0.0
 11
95.78360296132961
 21
59.44956278320758
 31
0.0
  0
LINE
  5
EF7C8938C
330
EF7C85532
100
AcDbEntity
  8
JISSEN
100
AcDbLine
 10
105.0672062846593
 20
56.93996167864496
 30
0.0
 11
103.0790866642708
 21
58.33205802370347
 31
0.0
  0
LINE
  5
EF7C8938D
330
EF7C85532
100
AcDbEntity
  8
SUNPOU
100
AcDbLine
 10
90.56720628465933
 20
55.24431413081718
 30
0.0
 11
100.227073936912
 21
35.37537602765748
 31
0.0
  0
LINE
  5
EF7C8938E
330
EF7C85532
100
AcDbEntity
  8
JISSEN
100
AcDbLine
 10
93.98072198895311
 20
58.57719742766969
 30
0.0
 11
97.8854654922538
 21
58.57719742766971
 31
0.0
  0
ARC
  5
EF7C8938F
330
EF7C85532
100
AcDbEntity
  8
JISSEN
100
AcDbCircle
 10
107.2836029613295
 20
64.24122563022461
 30
0.0
 40
12.49999999999999
100
AcDbArc
 50
163.739795291688
 51
196.2602047083119
  0
LINE
  5
EF7C89390
330
EF7C85532
100
AcDbEntity
  8
JISSEN
100
AcDbLine
 10
94.19140197775789
 20
56.19537064711273
 30
0.0
 11
93.87725627537486
 21
57.30563305938943
 31
0.0
  0
ARC
  5
EF7C89391
330
EF7C85532
100
AcDbEntity
  8
JISSEN
100
AcDbCircle
 10
93.98072198895311
 20
58.07719742766879
 30
0.0
 40
0.5
100
AcDbArc
 50
15.79871507350246
 51
166.7098700100972
  0
LINE
  5
EF7C89392
330
EF7C85532
100
AcDbEntity
  8
JISSEN
100
AcDbLine
 10
93.42246001078036
 20
56.19537064711273
 30
0.0
 11
93.6837120166585
 21
57.3013954015735
 31
0.0
  0
LINE
  5
EF7C89393
330
EF7C85532
100
AcDbEntity
  8
JISSEN
100
AcDbLine
 10
92.82161099740624
 20
58.57719742766969
 30
0.0
 11
93.06621873197917
 21
56.19537064711273
 31
0.0
  0
LINE
  5
EF7C89394
330
EF7C85532
100
AcDbEntity
  8
JISSEN
100
AcDbLine
 10
93.05295866109759
 20
56.32448836284197
 30
0.0
 11
93.4941127451205
 21
58.19213847262952
 31
0.0
  0
INSERT
  5
EF7C89395
330
EF7C85532
100
AcDbEntity
  8
SUNPOU
100
AcDbBlockReference
  2
ARROW
 10
90.56720628465923
 20
55.24431413081721
 30
0.0
 41
-1.500000000000002
 42
1.5
 43
1.5
 50
295.9280644736466
  0
ARC
  5
EF7C89396
330
EF7C85532
100
AcDbEntity
  8
JISSEN
100
AcDbCircle
 10
93.78103386542505
 20
57.27840719258136
 30
0.0
 40
0.1
100
AcDbArc
 50
15.79871507350682
 51
166.7098700100912
  0
LINE
  5
EF7C89397
330
EF7C85532
100
AcDbEntity
  8
JISSEN
100
AcDbLine
 10
95.03280918294581
 20
56.19537064711273
 30
0.0
 11
94.46183403870213
 21
58.2133267617092
 31
0.0
  0
LINE
  5
EF7C89398
330
EF7C85532
100
AcDbEntity
  8
JISSEN
100
AcDbLine
 10
95.78360296132961
 20
58.53250783028653
 30
0.0
 11
95.78360296132961
 21
59.58714762820092
 31
0.0
  0
ARC
  5
EF7C89399
330
EF7C85532
100
AcDbEntity
  8
JISSEN
100
AcDbCircle
 10
94.28360296132963
 20
69.88962864129028
 30
0.0
 40
0.5
100
AcDbArc
 50
197.4176015349094
 51
300.0000000000001
  0
LINE
  5
EF7C8939A
330
EF7C85532
100
AcDbEntity
  8
JISSEN
100
AcDbLine
 10
92.97801444635245
 20
69.73996167864517
 30
0.0
 11
92.04848357704259
 21
70.66949254795519
 31
0.0
  0
ARC
  5
EF7C8939B
330
EF7C85532
100
AcDbEntity
  8
JISSEN
100
AcDbCircle
 10
90.5328184058372
 20
70.18115843265717
 30
0.0
 40
1.6
100
AcDbArc
 50
17.33173146614729
 51
46.94963846053318
  0
ARC
  5
EF7C8939C
330
EF7C85532
100
AcDbEntity
  8
JISSEN
100
AcDbCircle
 10
90.5328184058372
 20
70.18115843265717
 30
0.0
 40
1.6
100
AcDbArc
 50
17.33173146614213
 51
46.94963846053318
  0
LINE
  5
EF7C8939D
330
EF7C85532
100
AcDbEntity
  8
JISSEN
100
AcDbLine
 10
101.6235435264775
 20
56.19537064711277
 30
0.0
 11
100.3348117202269
 21
58.13132965918564
 31
0.0
  0
LINE
  5
EF7C8939E
330
EF7C85532
100
AcDbEntity
  8
JISSEN
100
AcDbLine
 10
101.7567877753734
 20
58.57719742766969
 30
0.0
 11
99.5023830626264
 21
58.57719742766969
 31
0.0
  0
LINE
  5
EF7C8939F
330
EF7C85532
100
AcDbEntity
  8
JISSEN
100
AcDbLine
 10
100.3021089627386
 20
56.19537064711275
 30
0.0
 11
99.58636576918559
 21
57.27057456399329
 31
0.0
  0
LINE
  5
EF7C893A0
330
EF7C85532
100
AcDbEntity
  8
JISSEN
100
AcDbLine
 10
99.53320549390134
 20
56.19537064711273
 30
0.0
 11
97.8854654922538
 21
58.57719742766969
 31
0.0
  0
ARC
  5
EF7C893A1
330
EF7C85532
100
AcDbEntity
  8
JISSEN
100
AcDbCircle
 10
99.50238306262633
 20
57.57719742766925
 30
0.0
 40
1.0
100
AcDbArc
 50
33.65096582460064
 51
132.0810525119099
  0
ARC
  5
EF7C893A2
330
EF7C85532
100
AcDbEntity
  8
JISSEN
100
AcDbCircle
 10
99.25339430614531
 20
57.04892167138673
 30
0.0
 40
0.4
100
AcDbArc
 50
33.65096582460222
 51
149.9999999999987
  0
LINE
  5
EF7C893A3
330
EF7C85532
100
AcDbEntity
  8
JISSEN
100
AcDbLine
 10
98.83220184880338
 20
58.31939493550577
 30
0.0
 11
98.48265223571695
 21
57.71395724587399
 31
0.0
  0
LINE
  5
EF7C893A4
330
EF7C85532
100
AcDbEntity
  8
JISSEN
100
AcDbLine
 10
98.90698414463157
 20
57.24892167138673
 30
0.0
 11
98.86030024446194
 21
57.16806278439749
 31
0.0
  0
LINE
  5
EF7C893A5
330
EF7C85532
100
AcDbEntity
  8
JISSEN
100
AcDbLine
 10
104.3661494413173
 20
56.19537064711277
 30
0.0
 11
101.7567877753734
 21
58.57719742766969
 31
0.0
  0
ARC
  5
EF7C893A6
330
EF7C85532
100
AcDbEntity
  8
JISSEN
100
AcDbCircle
 10
102.301603804797
 20
57.22169742766969
 30
0.0
 40
1.355499999999999
100
AcDbArc
 50
55.00000000000309
 51
109.7312025061782
  0
LINE
  5
EF7C893A7
330
EF7C85532
100
AcDbEntity
  8
JISSEN
100
AcDbLine
 10
107.0255907249836
 20
56.93996167864515
 30
0.0
 11
109.3172062846591
 21
56.19537064711278
 31
0.0
1001
ACAD
1000
ASC_BOUNDS
1002
{
1070
    19
1002
}
  0
LINE
  5
EF7C893A8
330
EF7C85532
100
AcDbEntity
  8
JISSEN
100
AcDbLine
 10
105.0672062846591
 20
56.93996167864515
 30
0.0
 11
107.0255907249836
 21
56.93996167864515
 31
0.0
1001
ACAD
1000
ASC_BOUNDS
1002
{
1070
    19
1002
}
  0
LINE
  5
EF7C893A9
330
EF7C85532
100
AcDbEntity
  8
JISSEN
100
AcDbLine
 10
109.3172062846591
 20
56.19537064711278
 30
0.0
 11
109.0081892902842
 21
55.2443141308176
 31
0.0
1001
ACAD
1000
ASC_BOUNDS
1002
{
1070
    19
1002
}
  0
ARC
  5
EF7C893AA
330
EF7C85532
100
AcDbEntity
  8
JISSEN
100
AcDbCircle
 10
95.53360296132963
 20
90.2412256302246
 30
0.0
 40
15.0
100
AcDbArc
 50
0.0
 51
53.31701119964003
  0
ARC
  5
EF7C893AB
330
EF7C85532
100
AcDbEntity
  8
JISSEN
100
AcDbCircle
 10
95.5803447305638
 20
91.54862567633312
 30
0.0
 40
17.0
100
AcDbArc
 50
355.2987799884095
 51
65.54885719276805
  0
ARC
  5
EF7C893AC
330
EF7C85532
100
AcDbEntity
  8
JISSEN
100
AcDbCircle
 10
97.7423960506784
 20
91.20121417394393
 30
0.0
 40
10.80551655320168
100
AcDbArc
 50
356.8068888039075
 51
85.79048223043628
  0
ARC
  5
EF7C893AD
330
EF7C85532
100
AcDbEntity
  8
JISSEN
100
AcDbCircle
 10
95.53390172467407
 20
90.43958838567998
 30
0.0
 40
11.0
100
AcDbArc
 50
357.0418232214464
 51
68.50766469264707
  0
ARC
  5
EF7C893AE
330
EF7C85532
100
AcDbEntity
  8
JISSEN
100
AcDbCircle
 10
84.53360296132951
 20
87.57881216539139
 30
0.0
 40
13.5
100
AcDbArc
 50
0.0
 51
41.82741212371037
  0
LINE
  5
EF7C893AF
330
EF7C85532
100
AcDbEntity
  8
JISSEN
100
AcDbLine
 10
97.31627988498519
 20
78.23678836704066
 30
0.0
 11
100.9464472185819
 21
77.91918987864882
 31
0.0
  0
ARC
  5
EF7C893B0
330
EF7C85532
100
AcDbEntity
  8
JISSEN
100
AcDbCircle
 10
84.53360296132951
 20
82.57881216539137
 30
0.0
 40
13.5
100
AcDbArc
 50
317.7945535962677
 51
0.0
  0
LINE
  5
EF7C893B1
330
EF7C85532
100
AcDbEntity
  8
JISSEN
100
AcDbLine
 10
95.03360296132951
 20
83.82881216539139
 30
0.0
 11
95.03360296132951
 21
87.57881216539139
 31
0.0
  0
LINE
  5
EF7C893B2
330
EF7C85532
100
AcDbEntity
  8
JISSEN
100
AcDbLine
 10
93.03360296132963
 20
82.71808114437176
 30
0.0
 11
93.03360296132963
 21
86.38678836704066
 31
0.0
  0
LINE
  5
EF7C893B3
330
EF7C85532
100
AcDbEntity
  8
JISSEN
100
AcDbLine
 10
93.03360296132963
 20
77.1254337008648
 30
0.0
 11
92.07424141664672
 21
90.55649532642572
 31
0.0
  0
ARC
  5
EF7C893B4
330
EF7C85532
100
AcDbEntity
  8
JISSEN
100
AcDbCircle
 10
93.53360296132951
 20
83.82881216539139
 30
0.0
 40
1.5
100
AcDbArc
 50
270.0
 51
0.0
  0
ARC
  5
EF7C893B5
330
EF7C85532
100
AcDbEntity
  8
JISSEN
100
AcDbCircle
 10
94.53360296132956
 20
77.1254337008648
 30
0.0
 40
1.5
100
AcDbArc
 50
180.0
 51
255.7499673021981
  0
LINE
  5
EF7C893B6
330
EF7C85532
100
AcDbEntity
  8
JISSEN
100
AcDbLine
 10
93.15860296132951
 20
82.32881216539142
 30
0.0
 11
93.15860296132951
 21
77.8288121653914
 31
0.0
  0
LINE
  5
EF7C893B7
330
EF7C85532
100
AcDbEntity
  8
JISSEN
100
AcDbLine
 10
93.53360296132951
 20
82.32881216539142
 30
0.0
 11
93.15860296132951
 21
82.32881216539142
 31
0.0
  0
ARC
  5
EF7C893B8
330
EF7C85532
100
AcDbEntity
  8
JISSEN
100
AcDbCircle
 10
90.53360296132963
 20
63.53188909442796
 30
0.0
 40
19.34838405080195
100
AcDbArc
 50
82.5760704103728
 51
83.77775282683991
  0
ARC
  5
EF7C893B9
330
EF7C85532
100
AcDbEntity
  8
JISSEN
100
AcDbCircle
 10
90.5336029613295
 20
101.9042731943155
 30
0.0
 40
19.34838405080195
100
AcDbArc
 50
276.2426042286258
 51
277.4239295896272
  0
ARC
  5
EF7C893BA
330
EF7C85532
100
AcDbEntity
  8
JISSEN
100
AcDbCircle
 10
91.30553563415366
 20
106.824199922474
 30
0.0
 40
24.90306398982701
100
AcDbArc
 50
273.1830548881973
 51
274.2673930577983
  0
ARC
  5
EF7C893BB
330
EF7C85532
100
AcDbEntity
  8
JISSEN
100
AcDbCircle
 10
93.15860296132951
 20
82.62881216539138
 30
0.0
 40
1.199999999999999
100
AcDbArc
 50
248.576702752115
 51
270.0
  0
LINE
  5
EF7C893BC
330
EF7C85532
100
AcDbEntity
  8
JISSEN
100
AcDbLine
 10
94.53360296132961
 20
73.16572534444278
 30
0.0
 11
96.12168448538717
 21
73.30615178517878
 31
0.0
  0
LINE
  5
EF7C893BD
330
EF7C85532
100
AcDbEntity
  8
JISSEN
100
AcDbLine
 10
94.22427207858271
 20
74.85295576507216
 30
0.0
 11
95.60433658117819
 21
74.85295576507216
 31
0.0
  0
ARC
  5
EF7C893BE
330
EF7C85532
100
AcDbEntity
  8
JISSEN
100
AcDbCircle
 10
94.76336749945739
 20
74.15446870811216
 30
0.0
 40
0.4866855046380603
100
AcDbArc
 50
184.1849161251174
 51
241.8292597702475
  0
LINE
  5
EF7C893BF
330
EF7C85532
100
AcDbEntity
  8
JISSEN
100
AcDbLine
 10
94.16437219209882
 20
75.67158754701869
 30
0.0
 11
94.27797963289867
 21
74.11895252275418
 31
0.0
  0
LINE
  5
EF7C893C0
330
EF7C85532
100
AcDbEntity
  8
JISSEN
100
AcDbLine
 10
97.03360296132956
 20
76.73678836704066
 30
0.0
 11
97.1836029613296
 21
76.73678836704066
 31
0.0
  0
LINE
  5
EF7C893C1
330
EF7C85532
100
AcDbEntity
  8
JISSEN
100
AcDbLine
 10
97.18360296132955
 20
73.76842382793892
 30
0.0
 11
97.03360296132956
 21
73.76842382793892
 31
0.0
  0
LINE
  5
EF7C893C2
330
EF7C85532
100
AcDbEntity
  8
JISSEN
100
AcDbLine
 10
97.18360296132955
 20
76.73678836704066
 30
0.0
 11
97.18360296132955
 21
73.76842382793892
 31
0.0
  0
ARC
  5
EF7C893C3
330
EF7C85532
100
AcDbEntity
  8
JISSEN
100
AcDbCircle
 10
96.03360296132956
 20
74.30226505440053
 30
0.0
 40
1.0
100
AcDbArc
 50
275.0532481512555
 51
0.0
  0
LINE
  5
EF7C893C4
330
EF7C85532
100
AcDbEntity
  8
JISSEN
100
AcDbLine
 10
97.03360296132956
 20
77.4797926517984
 30
0.0
 11
97.03360296132956
 21
73.76842382793892
 31
0.0
  0
ARC
  5
EF7C893C5
330
EF7C85532
100
AcDbEntity
  8
JISSEN
100
AcDbCircle
 10
93.26057265303807
 20
89.77881216539142
 30
0.0
 40
1.5
100
AcDbArc
 50
14.14900450893456
 51
90.0
  0
LINE
  5
EF7C893C6
330
EF7C85532
100
AcDbEntity
  8
JISSEN
100
AcDbLine
 10
95.03360296132967
 20
86.66248350837824
 30
0.0
 11
92.33549188805865
 21
86.89898872665834
 31
0.0
  0
LINE
  5
EF7C893C7
330
EF7C85532
100
AcDbEntity
  8
JISSEN
100
AcDbLine
 10
95.03360296132967
 20
86.56210006612012
 30
0.0
 11
92.34270731064828
 21
86.79797281040334
 31
0.0
  0
LINE
  5
EF7C893C8
330
EF7C85532
100
AcDbEntity
  8
JISSEN
100
AcDbLine
 10
95.03360296132967
 20
86.21147666796124
 30
0.0
 11
93.03360296132963
 21
86.03616496888177
 31
0.0
  0
LINE
  5
EF7C893C9
330
EF7C85532
100
AcDbEntity
  8
JISSEN
100
AcDbLine
 10
93.53360296132962
 20
89.75192360669252
 30
0.0
 11
93.53360296132962
 21
86.79396728268782
 31
0.0
  0
ARC
  5
EF7C893CA
330
EF7C85532
100
AcDbEntity
  8
JISSEN
100
AcDbCircle
 10
90.53360296132963
 20
67.20059631709687
 30
0.0
 40
19.34838405080195
100
AcDbArc
 50
82.5760704103728
 51
84.56352505831359
  0
ARC
  5
EF7C893CB
330
EF7C85532
100
AcDbEntity
  8
JISSEN
100
AcDbCircle
 10
92.23360296132955
 20
92.49634538285489
 30
0.0
 40
0.3
100
AcDbArc
 50
0.0
 51
80.40593177313507
  0
ARC
  5
EF7C893CC
330
EF7C85532
100
AcDbEntity
  8
JISSEN
100
AcDbCircle
 10
90.53360296132963
 20
70.63753202921022
 30
0.0
 40
19.34838405080195
100
AcDbArc
 50
81.08020482367653
 51
85.29801660105334
  0
ARC
  5
EF7C893CD
330
EF7C85532
100
AcDbEntity
  8
JISSEN
100
AcDbCircle
 10
91.10969310223902
 20
81.06631690839812
 30
0.0
 40
9.665948963623351
100
AcDbArc
 50
81.43738781850339
 51
83.02432371701213
  0
LINE
  5
EF7C893CE
330
EF7C85532
100
AcDbEntity
  8
JISSEN
100
AcDbLine
 10
92.28360296132962
 20
93.06886582802174
 30
0.0
 11
92.28360296132962
 21
90.55649532642572
 31
0.0
  0
LINE
  5
EF7C893CF
330
EF7C85532
100
AcDbEntity
  8
JISSEN
100
AcDbLine
 10
93.79555896944868
 20
91.18016495511055
 30
0.0
 11
93.03360296132984
 21
90.74024944871251
 31
0.0
  0
ARC
  5
EF7C893D0
330
EF7C85532
100
AcDbEntity
  8
JISSEN
100
AcDbCircle
 10
92.73360296132949
 20
91.4788121653914
 30
0.0
 40
0.2
100
AcDbArc
 50
180.0
 51
270.0
  0
LINE
  5
EF7C893D1
330
EF7C85532
100
AcDbEntity
  8
JISSEN
100
AcDbLine
 10
93.26057265303807
 20
91.27881216539142
 30
0.0
 11
92.73360296132954
 21
91.27881216539142
 31
0.0
  0
LINE
  5
EF7C893D2
330
EF7C85532
100
AcDbEntity
  8
JISSEN
100
AcDbLine
 10
92.53360296132951
 20
91.4788121653914
 30
0.0
 11
92.53360296132951
 21
94.2921493720093
 31
0.0
  0
ARC
  5
EF7C893D3
330
EF7C85532
100
AcDbEntity
  8
JISSEN
100
AcDbCircle
 10
92.73947189101898
 20
89.93130609509826
 30
0.0
 40
0.6441310703106079
100
AcDbArc
 50
0.0
 51
76.34089481470336
  0
ARC
  5
EF7C893D4
330
EF7C85532
100
AcDbEntity
  8
JISSEN
100
AcDbCircle
 10
91.96403931371879
 20
86.740457822084
 30
0.0
 40
3.927849752435577
100
AcDbArc
 50
76.34089481470514
 51
81.43738781850499
  0
LINE
  5
EF7C893D5
330
EF7C85532
100
AcDbEntity
  8
JISSEN
100
AcDbLine
 10
93.38360296132959
 20
89.93130609509826
 30
0.0
 11
93.38360296132959
 21
89.77486374962849
 31
0.0
  0
ARC
  5
EF7C893D6
330
EF7C85532
100
AcDbEntity
  8
JISSEN
100
AcDbCircle
 10
90.53360296132984
 20
95.07037646763469
 30
0.0
 40
5.0
100
AcDbArc
 50
296.3208098216078
 51
300.0000000000001
  0
ARC
  5
EF7C893D7
330
EF7C85532
100
AcDbEntity
  8
JISSEN
100
AcDbCircle
 10
84.53360296132951
 20
87.57881216539139
 30
0.0
 40
10.5
100
AcDbArc
 50
0.0
 51
14.14900450893456
  0
ARC
  5
EF7C893D8
330
EF7C85532
100
AcDbEntity
  8
JISSEN
100
AcDbCircle
 10
98.03360296132963
 20
82.37150901686728
 30
0.0
 40
4.0
100
AcDbArc
 50
0.0
 51
85.00000000000019
  0
LINE
  5
EF7C893D9
330
EF7C85532
100
AcDbEntity
  8
JISSEN
100
AcDbLine
 10
98.0336029613295
 20
82.57881216539139
 30
0.0
 11
98.0336029613295
 21
87.57881216539139
 31
0.0
  0
ARC
  5
EF7C893DA
330
EF7C85532
100
AcDbEntity
  8
JISSEN
100
AcDbCircle
 10
101.0336029613296
 20
78.91538457674058
 30
0.0
 40
1.0
100
AcDbArc
 50
265.0000000000002
 51
0.0
  0
LINE
  5
EF7C893DB
330
EF7C85532
100
AcDbEntity
  8
JISSEN
100
AcDbLine
 10
102.0336029613295
 20
82.38678836704066
 30
0.0
 11
102.0336029613295
 21
82.38678836704066
 31
0.0
  0
LINE
  5
EF7C893DC
330
EF7C85532
100
AcDbEntity
  8
JISSEN
100
AcDbLine
 10
102.0336029613296
 20
78.91538457674058
 30
0.0
 11
102.0336029613296
 21
82.37150901686728
 31
0.0
  0
LINE
  5
EF7C893DD
330
EF7C85532
100
AcDbEntity
  8
JISSEN
100
AcDbLine
 10
98.03360296132963
 20
86.38678836704066
 30
0.0
 11
98.38222593232025
 21
86.35628780923427
 31
0.0
  0
LINE
  5
EF7C893DE
330
EF7C85532
100
AcDbEntity
  8
JISSEN
100
AcDbLine
 10
99.06720628465917
 20
98.88181438611331
 30
0.0
 11
90.56720628465916
 21
98.88181438611331
 31
0.0
  0
LINE
  5
EF7C893DF
330
EF7C85532
100
AcDbEntity
  8
JISSEN
100
AcDbLine
 10
92.90860296132962
 20
109.1105524324205
 30
0.0
 11
102.0672062846591
 21
109.1105524324205
 31
0.0
  0
LINE
  5
EF7C893E0
330
EF7C85532
100
AcDbEntity
  8
JISSEN
100
AcDbLine
 10
92.06720628465916
 20
103.1105524324205
 30
0.0
 11
99.86720628465917
 21
103.1105524324205
 31
0.0
  0
LINE
  5
EF7C893E1
330
EF7C85532
100
AcDbEntity
  8
JISSEN
100
AcDbLine
 10
97.66720628465879
 20
99.18181438611355
 30
0.0
 11
92.25595028941837
 21
99.18181438611341
 31
0.0
  0
LINE
  5
EF7C893E2
330
EF7C85532
100
AcDbEntity
  8
JISSEN
100
AcDbLine
 10
98.91720628465902
 20
99.79165214867428
 30
0.0
 11
92.03119163253996
 21
99.79165214867432
 31
0.0
  0
LINE
  5
EF7C893E3
330
EF7C85532
100
AcDbEntity
  8
JISSEN
100
AcDbLine
 10
91.81720628465916
 20
101.5105524324205
 30
0.0
 11
98.56720628465916
 21
101.5105524324205
 31
0.0
  0
LINE
  5
EF7C893E4
330
EF7C85532
100
AcDbEntity
  8
JISSEN
100
AcDbLine
 10
96.56720628465961
 20
99.18181438611332
 30
0.0
 11
99.06720628465917
 21
99.18181438611332
 31
0.0
  0
ARC
  5
EF7C893E5
330
EF7C85532
100
AcDbEntity
  8
JISSEN
100
AcDbCircle
 10
93.26720628465915
 20
105.7850054621213
 30
0.0
 40
0.3
100
AcDbArc
 50
0.0
 51
90.0
  0
LINE
  5
EF7C893E6
330
EF7C85532
100
AcDbEntity
  8
JISSEN
100
AcDbLine
 10
94.56720628465916
 20
109.1105524324205
 30
0.0
 11
94.56720628465916
 21
103.1105524324205
 31
0.0
  0
ARC
  5
EF7C893E7
330
EF7C85532
100
AcDbEntity
  8
JISSEN
100
AcDbCircle
 10
98.81720628465911
 20
101.6210601229996
 30
0.0
 40
7.0
100
AcDbArc
 50
180.0
 51
203.0367096452344
  0
LINE
  5
EF7C893E8
330
EF7C85532
100
AcDbEntity
  8
JISSEN
100
AcDbLine
 10
93.26720628465915
 20
104.0850054621213
 30
0.0
 11
91.81720628465916
 21
104.0850054621213
 31
0.0
  0
LINE
  5
EF7C893E9
330
EF7C85532
100
AcDbEntity
  8
JISSEN
100
AcDbLine
 10
92.06720628465916
 20
103.1105524324205
 30
0.0
 11
92.06720628465916
 21
101.5105524324205
 31
0.0
  0
LINE
  5
EF7C893EA
330
EF7C85532
100
AcDbEntity
  8
JISSEN
100
AcDbLine
 10
91.81720628465916
 20
104.0850054621213
 30
0.0
 11
91.81720628465916
 21
101.6210601229996
 31
0.0
  0
ARC
  5
EF7C893EB
330
EF7C85532
100
AcDbEntity
  8
JISSEN
100
AcDbCircle
 10
93.26720628465915
 20
104.3850054621213
 30
0.0
 40
0.3
100
AcDbArc
 50
270.0
 51
0.0
  0
LINE
  5
EF7C893EC
330
EF7C85532
100
AcDbEntity
  8
JISSEN
100
AcDbLine
 10
93.56720628465916
 20
105.7850054621213
 30
0.0
 11
93.56720628465916
 21
104.3850054621213
 31
0.0
  0
LINE
  5
EF7C893ED
330
EF7C85532
100
AcDbEntity
  8
JISSEN
100
AcDbLine
 10
92.90860296132962
 20
109.1105524324205
 30
0.0
 11
92.90860296132962
 21
111.1105524324205
 31
0.0
  0
LINE
  5
EF7C893EE
330
EF7C85532
100
AcDbEntity
  8
JISSEN
100
AcDbLine
 10
99.86720628465912
 20
109.1105524324205
 30
0.0
 11
99.86720628465917
 21
103.1105524324205
 31
0.0
  0
ARC
  5
EF7C893EF
330
EF7C85532
100
AcDbEntity
  8
JISSEN
100
AcDbCircle
 10
104.4213514929979
 20
109.3843429586008
 30
0.0
 40
6.498907295833106
100
AcDbArc
 50
225.0955859823182
 51
255.3209199478024
  0
ARC
  5
EF7C893F0
330
EF7C85532
100
AcDbEntity
  8
JISSEN
100
AcDbCircle
 10
99.41720628465914
 20
100.2084159232069
 30
0.0
 40
0.5
100
AcDbArc
 50
68.84536973466818
 51
180.0
  0
LINE
  5
EF7C893F1
330
EF7C85532
100
AcDbEntity
  8
JISSEN
100
AcDbLine
 10
98.91720628465913
 20
99.79165214867435
 30
0.0
 11
97.8609362955288
 21
99.18181438611332
 31
0.0
  0
LINE
  5
EF7C893F2
330
EF7C85532
100
AcDbEntity
  8
JISSEN
100
AcDbLine
 10
98.91720628465913
 20
99.79165214867435
 30
0.0
 11
98.91720628465913
 21
100.2084159232069
 31
0.0
  0
LINE
  5
EF7C893F3
330
EF7C85532
100
AcDbEntity
  8
JISSEN
100
AcDbLine
 10
99.06720628465917
 20
99.18181438611332
 30
0.0
 11
99.06720628465917
 21
96.58181438611332
 31
0.0
  0
LINE
  5
EF7C893F4
330
EF7C85532
100
AcDbEntity
  8
JISSEN
100
AcDbLine
 10
98.56720628465916
 20
103.1105524324205
 30
0.0
 11
98.56720628465916
 21
101.5105524324205
 31
0.0
  0
ARC
  5
EF7C893F5
330
EF7C85532
100
AcDbEntity
  8
JISSEN
100
AcDbCircle
 10
101.5074736842542
 20
98.26075607693924
 30
0.0
 40
5.0
100
AcDbArc
 50
53.31701119964003
 51
75.32091994780239
  0
LINE
  5
EF7C893F6
330
EF7C85532
100
AcDbEntity
  8
NITEN
100
AcDbLine
 10
101.0940508089966
 20
140.0916502438679
 30
0.0
 11
102.999999638
 21
140.0916502438679
 31
0.0
  0
LINE
  5
EF7C893F7
330
EF7C85532
100
AcDbEntity
  8
JISSEN
100
AcDbLine
 10
102.0672062846591
 20
111.1105524324205
 30
0.0
 11
103.9706850172565
 21
112.2095263910823
 31
0.0
  0
LINE
  5
EF7C893F8
330
EF7C85532
100
AcDbEntity
  8
JISSEN
100
AcDbLine
 10
102.0672062846591
 20
107.9330324841408
 30
0.0
 11
102.0672062846591
 21
111.1105524324205
 31
0.0
  0
ARC
  5
EF7C893F9
330
EF7C85532
100
AcDbEntity
  8
JISSEN
100
AcDbCircle
 10
103.0672062846591
 20
107.9330324841408
 30
0.0
 40
1.0
100
AcDbArc
 50
180.0
 51
245.3756816478349
  0
ARC
  5
EF7C893FA
330
EF7C85532
100
AcDbEntity
  8
JISSEN
100
AcDbCircle
 10
82.53360296132962
 20
90.2412256302246
 30
0.0
 40
28.0
100
AcDbArc
 50
337.9756871629579
 51
0.0
  0
ARC
  5
EF7C893FB
330
EF7C85532
100
AcDbEntity
  8
JISSEN
100
AcDbCircle
 10
82.53360296132962
 20
90.2412256302246
 30
0.0
 40
26.0
100
AcDbArc
 50
336.181158606543
 51
0.7891762481350204
  0
LINE
  5
EF7C893FC
330
EF7C85532
100
AcDbEntity
  8
NITEN
100
AcDbLine
 10
114.999999638
 20
182.0916502438679
 30
0.0
 11
114.999999638
 21
202.9293678950137
 31
0.0
  0
LINE
  5
EF7C893FE
330
EF7C85532
100
AcDbEntity
  8
NITEN
100
AcDbLine
 10
118.999999638
 20
159.6376662700859
 30
0.0
 11
118.999999638
 21
180.0916502438679
 31
0.0
  0
ARC
  5
EF7C893FF
330
EF7C85532
100
AcDbEntity
  8
NITEN
100
AcDbCircle
 10
116.999999638
 20
152.6376662700859
 30
0.0
 40
5.0
100
AcDbArc
 50
90.0
 51
180.0
  0
LINE
  5
EF7C89400
330
EF7C85532
100
AcDbEntity
  8
NITEN
100
AcDbLine
 10
111.999999638
 20
141.5916502438679
 30
0.0
 11
111.999999638
 21
152.6376662700859
 31
0.0
  0
ARC
  5
EF7C89401
330
EF7C85532
100
AcDbEntity
  8
NITEN
100
AcDbCircle
 10
116.999999638
 20
159.6376662700859
 30
0.0
 40
2.0
100
AcDbArc
 50
270.0
 51
0.0
  0
ARC
  5
EF7C89402
330
EF7C85532
100
AcDbEntity
  8
NITEN
100
AcDbCircle
 10
116.999999638
 20
180.0916502438679
 30
0.0
 40
1.999999999999971
100
AcDbArc
 50
359.9999999999992
 51
89.9999999999992
  0
ARC
  5
EF7C89403
330
EF7C85532
100
AcDbEntity
  8
NITEN
100
AcDbCircle
 10
102.7499996380002
 20
214.5910976091603
 30
0.0
 40
16.91326224966099
100
AcDbArc
 50
223.5907080983044
 51
316.4092919016946
  0
LWPOLYLINE
  5
EF7C89404
330
EF7C85532
100
AcDbEntity
  8
NITEN
100
AcDbPolyline
 90
        2
 70
     0
 43
0.0
 10
114.999999638
 20
202.9293678950138
 42
0.4286965335113593
 10
90.49999963800008
 20
202.9293678950139
 42
0.5882352941176294
  0
LINE
  5
EF7C894CF
330
EF7C85532
100
AcDbEntity
  8
JISSEN
100
AcDbLine
 10
139.501561445965
 20
116.7574182178666
 30
0.0
 11
90.53360296132963
 21
116.7574182178666
 31
0.0
  0
LINE
  5
EF7C894D0
330
EF7C85532
100
AcDbEntity
  8
JISSEN
100
AcDbLine
 10
137.836193169912
 20
117.6811013381442
 30
0.0
 11
90.53360296132963
 21
117.6811013381443
 31
0.0
  0
LINE
  5
EF7C894D1
330
EF7C85532
100
AcDbEntity
  8
JISSEN
100
AcDbLine
 10
137.836193169912
 20
117.6811013381442
 30
0.0
 11
139.5336029613296
 21
116.7011013381442
 31
0.0
  0
LINE
  5
EF7C894D2
330
EF7C85532
100
AcDbEntity
  8
JISSEN
100
AcDbLine
 10
139.5336029613296
 20
116.7011013381442
 30
0.0
 11
139.271012752747
 21
115.7211013381442
 31
0.0
  0
LINE
  5
EF7C894D3
330
EF7C85532
100
AcDbEntity
  8
JISSEN
100
AcDbLine
 10
106.5533206880872
 20
150.5118186579338
 30
0.0
 11
90.53360296132963
 21
150.4858171340655
 31
0.0
  0
LINE
  5
EF7C894D4
330
EF7C85532
100
AcDbEntity
  8
JISSEN
100
AcDbLine
 10
107.0369880378539
 20
135.0352369003282
 30
0.0
 11
90.53360296132963
 21
135.0352369003282
 31
0.0
  0
LINE
  5
EF7C894D5
330
EF7C85532
100
AcDbEntity
  8
JISSEN
100
AcDbLine
 10
90.53360296132963
 20
132.3811013381442
 30
0.0
 11
109.205110666922
 21
132.3811013381442
 31
0.0
  0
LINE
  5
EF7C894D6
330
EF7C85532
100
AcDbEntity
  8
JISSEN
100
AcDbLine
 10
110.9025204583396
 20
131.4011013381442
 30
0.0
 11
109.2051106669221
 21
132.3811013381442
 31
0.0
  0
LINE
  5
EF7C894D7
330
EF7C85532
100
AcDbEntity
  8
JISSEN
100
AcDbLine
 10
110.9025204583396
 20
131.4011013381442
 30
0.0
 11
110.9025204583396
 21
117.6811013381442
 31
0.0
  0
LINE
  5
EF7C894D8
330
EF7C85532
100
AcDbEntity
  8
JISSEN
100
AcDbLine
 10
106.5533206880872
 20
150.5118186579338
 30
0.0
 11
107.1199339191466
 21
132.3811013381442
 31
0.0
  0
LINE
  5
EF7C894D9
330
EF7C85532
100
AcDbEntity
  8
SAISEN
100
AcDbLine
 10
107.1199339191466
 20
132.3811013381442
 30
0.0
 11
105.587568037854
 21
135.0352369003282
 31
0.0
  0
LINE
  5
EF7C894DA
330
EF7C85532
100
AcDbEntity
  8
JISSEN
100
AcDbLine
 10
100.7180617098346
 20
131.4257899039447
 30
0.0
 11
100.7180617098346
 21
117.6811013381442
 31
0.0
  0
ARC
  5
EF7C894DB
330
EF7C85532
100
AcDbEntity
  8
JISSEN
100
AcDbCircle
 10
98.67697696333136
 20
129.8197428471985
 30
0.0
 40
2.563355477994762
100
AcDbArc
 50
37.22604042093768
 51
91.61085320868286
  0
ARC
  5
EF7C894DC
330
EF7C85532
100
AcDbEntity
  8
JISSEN
100
AcDbCircle
 10
102.7159115936053
 20
129.8197428471985
 30
0.0
 40
2.563355477994762
100
AcDbArc
 50
90.2530893944783
 51
141.2046247557771
  0
LINE
  5
EF7C894DD
330
EF7C85532
100
AcDbEntity
  8
SAISEN
100
AcDbLine
 10
105.0586261530426
 20
151.9605313806212
 30
0.0
 11
105.587568037854
 21
135.0352369003282
 31
0.0
  0
LINE
  5
EF7C894DE
330
EF7C85532
100
AcDbEntity
  8
JISSEN
100
AcDbLine
 10
105.0374033097459
 20
151.9811013381442
 30
0.0
 11
106.5533206880872
 21
150.5118186579338
 31
0.0
  0
LINE
  5
EF7C894DF
330
EF7C85532
100
AcDbEntity
  8
JISSEN
100
AcDbLine
 10
105.0374033097459
 20
151.9811013381442
 30
0.0
 11
76.02980261291333
 21
151.9811013381442
 31
0.0
  0
LINE
  5
EF7C894E0
330
EF7C85532
100
AcDbEntity
  8
JISSEN
100
AcDbLine
 10
139.271012752747
 20
115.7211013381442
 30
0.0
 11
41.79619316991209
 21
115.7211013381442
 31
0.0
  0
LINE
  5
EF7C8967C
330
EF7C85532
100
AcDbEntity
  8
NITEN
100
AcDbLine
 10
61.99999963799996
 20
159.6376662700859
 30
0.0
 11
61.99999963800002
 21
180.0916502438679
 31
0.0
  0
ARC
  5
EF7C8967D
330
EF7C85532
100
AcDbEntity
  8
NITEN
100
AcDbCircle
 10
63.99999963799996
 20
159.6376662700859
 30
0.0
 40
2.0
100
AcDbArc
 50
180.0
 51
270.0
  0
ARC
  5
EF7C8967E
330
EF7C85532
100
AcDbEntity
  8
NITEN
100
AcDbCircle
 10
63.99999963799996
 20
152.6376662700859
 30
0.0
 40
5.0
100
AcDbArc
 50
0.000000000000007
 51
90.0
  0
ARC
  5
EF7C8967F
330
EF7C85532
100
AcDbEntity
  8
NITEN
100
AcDbCircle
 10
63.99999963800002
 20
180.0916502438679
 30
0.0
 40
1.999999999999971
100
AcDbArc
 50
90.00000000000079
 51
180.0000000000008
  0
ARC
  5
EF7C89680
330
EF7C85532
100
AcDbEntity
  8
NITEN
100
AcDbCircle
 10
70.49999963799996
 20
141.5916502438679
 30
0.0
 40
1.5
100
AcDbArc
 50
180.0
 51
270.0
  0
LINE
  5
EF7C89681
330
EF7C85532
100
AcDbEntity
  8
NITEN
100
AcDbLine
 10
68.99999963799996
 20
141.5916502438679
 30
0.0
 11
68.99999963799996
 21
152.6376662700859
 31
0.0
  0
INSERT
  5
EF7C89855
330
EF7C85532
100
AcDbEntity
  8
SUNPOU
100
AcDbBlockReference
  2
ARROW
 10
112.9045053739389
 20
115.721101338144
 30
0.0
 41
-1.500000000000002
 42
1.5
 43
1.5
 50
295.9280644736466
  0
LINE
  5
EF7C89856
330
EF7C85532
100
AcDbEntity
  8
SUNPOU
100
AcDbLine
 10
112.9045053739389
 20
115.7211013381442
 30
0.0
 11
125.227073936912
 21
90.37537602765748
 31
0.0
  0
CIRCLE
  5
EF7C89857
330
EF7C85532
100
AcDbEntity
  8
SUNPOU
100
AcDbCircle
 10
127.8505280672999
 20
84.97931372021973
 30
0.0
 40
6.0
  0
TEXT
  5
EF7C89858
330
EF7C85532
100
AcDbEntity
  8
SUNPOU
100
AcDbText
 10
125.7076709244428
 20
82.72931372021973
 30
0.0
 40
4.5
  1
2
  7
K
 72
     4
 11
127.8505280672999
 21
84.97931372021973
 31
0.0
100
AcDbText
  0
ARC
  5
EF7C899E3
330
EF7C85532
100
AcDbEntity
  8
NITEN
100
AcDbCircle
 10
251.4999989139999
 20
141.5916502438679
 30
0.0
 40
1.5
100
AcDbArc
 50
180.0
 51
270.0
  0
LINE
  5
EF7C899E4
330
EF7C85532
100
AcDbEntity
  8
SAISEN
100
AcDbLine
 10
286.0586254290426
 20
151.9605313806212
 30
0.0
 11
286.587567313854
 21
135.0352369003282
 31
0.0
  0
LINE
  5
EF7C899E5
330
EF7C85532
100
AcDbEntity
  8
JISSEN
100
AcDbLine
 10
287.5533199640873
 20
150.5118186579338
 30
0.0
 11
288.1199331951467
 21
132.3811013381442
 31
0.0
  0
ARC
  5
EF7C899E6
330
EF7C85532
100
AcDbEntity
  8
NITEN
100
AcDbCircle
 10
291.4999989140001
 20
141.5916502438679
 30
0.0
 40
1.5
100
AcDbArc
 50
270.0
 51
0.0
  0
LINE
  5
EF7C899E7
330
EF7C85532
100
AcDbEntity
  8
JISSEN
100
AcDbLine
 10
255.5138845105719
 20
150.5118186579338
 30
0.0
 11
254.9472712795125
 21
132.3811013381442
 31
0.0
  0
LINE
  5
EF7C899E8
330
EF7C85532
100
AcDbEntity
  8
SAISEN
100
AcDbLine
 10
257.0085790456166
 20
151.9605313806212
 30
0.0
 11
256.4796371608053
 21
135.0352369003282
 31
0.0
  0
INSERT
  5
EF7C899E9
330
EF7C85532
100
AcDbEntity
  8
WAKU
100
AcDbBlockReference
  2
WAKU
 10
180.999999276
 20
0.0
 30
0.0
 41
181.0
 42
283.0
 43
181.0
  0
TEXT
  5
EF7C899EE
330
EF7C85532
100
AcDbEntity
  8
SUNPOU
100
AcDbText
 10
315.3535699670012
 20
7.849423898685245
 30
0.0
 40
3.0
  1
EPQR 被水防止板作動状態
  7
K
100
AcDbText
  0
TEXT
  5
EF7C899EF
330
EF7C85532
100
AcDbEntity
  8
SUNPOU
100
AcDbText
 10
315.3535699670012
 20
2.849423898685245
 30
0.0
 40
3.0
  1
尺度　1/1
  7
K
100
AcDbText
  0
LINE
  5
EF7C899F2
330
EF7C85532
100
AcDbEntity
  8
JISSEN
100
AcDbLine
 10
320.2710120287471
 20
115.7211013381442
 30
0.0
 11
222.796192445912
 21
115.7211013381442
 31
0.0
  0
LINE
  5
EF7C899F3
330
EF7C85532
100
AcDbEntity
  8
JISSEN
100
AcDbLine
 10
318.836192445912
 20
117.6811013381442
 30
0.0
 11
271.5336022373296
 21
117.6811013381443
 31
0.0
  0
LINE
  5
EF7C899F4
330
EF7C85532
100
AcDbEntity
  8
JISSEN
100
AcDbLine
 10
320.5015607219651
 20
116.7574182178666
 30
0.0
 11
271.5336022373296
 21
116.7574182178666
 31
0.0
  0
ARC
  5
EF7C899F5
330
EF7C85532
100
AcDbEntity
  8
JISSEN
100
AcDbCircle
 10
276.5803440065638
 20
91.54862567633314
 30
0.0
 40
17.0
100
AcDbArc
 50
355.2987799884095
 51
65.54885719276805
  0
ARC
  5
EF7C899F6
330
EF7C85532
100
AcDbEntity
  8
JISSEN
100
AcDbCircle
 10
263.5336022373296
 20
90.24122563022462
 30
0.0
 40
30.0
100
AcDbArc
 50
319.7809012554437
 51
0.0
  0
ARC
  5
EF7C899F8
330
EF7C85532
100
AcDbEntity
  8
JISSEN
100
AcDbCircle
 10
276.5339010006741
 20
90.43958838568
 30
0.0
 40
11.0
100
AcDbArc
 50
357.0418232214464
 51
68.50766469264707
  0
ARC
  5
EF7C899F9
330
EF7C85532
100
AcDbEntity
  8
JISSEN
100
AcDbCircle
 10
278.7423953266784
 20
91.20121417394392
 30
0.0
 40
10.80551655320168
100
AcDbArc
 50
356.8068888039075
 51
85.79048223043628
  0
ARC
  5
EF7C899FA
330
EF7C85532
100
AcDbEntity
  8
JISSEN
100
AcDbCircle
 10
276.5336022373296
 20
90.24122563022462
 30
0.0
 40
15.0
100
AcDbArc
 50
0.0
 51
53.31701119964003
  0
ARC
  5
EF7C899FC
330
EF7C85532
100
AcDbEntity
  8
JISSEN
100
AcDbCircle
 10
266.5336022373296
 20
90.24122563022462
 30
0.0
 40
15.0
100
AcDbArc
 50
126.6829888003599
 51
180.0
  0
ARC
  5
EF7C899FD
330
EF7C85532
100
AcDbEntity
  8
JISSEN
100
AcDbCircle
 10
266.4868604680953
 20
91.54862567633314
 30
0.0
 40
17.0
100
AcDbArc
 50
114.4511428072319
 51
184.7012200115904
  0
ARC
  5
EF7C899FE
330
EF7C85532
100
AcDbEntity
  8
JISSEN
100
AcDbCircle
 10
264.3248091479808
 20
91.20121417394392
 30
0.0
 40
10.80551655320168
100
AcDbArc
 50
94.20951776956371
 51
169.5833810006728
  0
ARC
  5
EF7C899FF
330
EF7C85532
100
AcDbEntity
  8
JISSEN
100
AcDbCircle
 10
266.5333034739851
 20
90.43958838568
 30
0.0
 40
11.0
100
AcDbArc
 50
111.4923353073529
 51
177.7128202082922
  0
ARC
  5
EF7C89A04
330
EF7C85532
100
AcDbEntity
  8
JISSEN
100
AcDbCircle
 10
263.5336022373296
 20
90.24122563022462
 30
0.0
 40
24.0
100
AcDbArc
 50
300.0000000000001
 51
0.0
  0
ARC
  5
EF7C89A09
330
EF7C85532
100
AcDbEntity
  8
JISSEN
100
AcDbCircle
 10
279.5336022373296
 20
90.24122563022462
 30
0.0
 40
24.0
100
AcDbArc
 50
178.4782525524656
 51
239.9999999999998
  0
ARC
  5
EF7C89A0A
330
EF7C85532
100
AcDbEntity
  8
JISSEN
100
AcDbCircle
 10
279.5336022373296
 20
90.24122563022462
 30
0.0
 40
30.0
100
AcDbArc
 50
180.0
 51
220.2190987445551
  0
LINE
  5
EF7C89A0C
330
EF7C85532
100
AcDbEntity
  8
JISSEN
100
AcDbLine
 10
268.1536898563651
 20
58.57719742766969
 30
0.0
 11
264.2489463530645
 21
58.57719742766971
 31
0.0
  0
LINE
  5
EF7C89A0D
330
EF7C85532
100
AcDbEntity
  8
JISSEN
100
AcDbLine
 10
256.6261772792237
 20
70.86985805359893
 30
0.0
 11
266.2836022373296
 21
59.44956278320765
 31
0.0
  0
LINE
  5
EF7C89A0E
330
EF7C85532
100
AcDbEntity
  8
JISSEN
100
AcDbLine
 10
290.0081885662842
 20
55.2443141308176
 30
0.0
 11
253.126222555034
 21
55.24431413081749
 31
0.0
  0
LINE
  5
EF7C89A0F
330
EF7C85532
100
AcDbEntity
  8
JISSEN
100
AcDbLine
 10
290.3172055606592
 20
56.19537064711278
 30
0.0
 11
252.8172055606591
 21
56.19537064711266
 31
0.0
  0
ARC
  5
EF7C89A10
330
EF7C85532
100
AcDbEntity
  8
JISSEN
100
AcDbCircle
 10
262.6320287826918
 20
57.57719742766926
 30
0.0
 40
1.0
100
AcDbArc
 50
47.91894748809009
 51
146.3490341753993
  0
LINE
  5
EF7C89A11
330
EF7C85532
100
AcDbEntity
  8
JISSEN
100
AcDbLine
 10
262.6012063514168
 20
56.19537064711266
 30
0.0
 11
264.2489463530645
 21
58.57719742766969
 31
0.0
  0
ARC
  5
EF7C89A12
330
EF7C85532
100
AcDbEntity
  8
JISSEN
100
AcDbCircle
 10
259.8328080405211
 20
57.22169742766971
 30
0.0
 40
1.355499999999999
100
AcDbArc
 50
70.26879749382176
 51
124.9999999999968
  0
LINE
  5
EF7C89A13
330
EF7C85532
100
AcDbEntity
  8
JISSEN
100
AcDbLine
 10
257.7682624040007
 20
56.19537064711266
 30
0.0
 11
260.3776240699447
 21
58.57719742766969
 31
0.0
  0
LINE
  5
EF7C89A14
330
EF7C85532
100
AcDbEntity
  8
JISSEN
100
AcDbLine
 10
257.0672055606589
 20
56.93996167864497
 30
0.0
 11
259.0553251810474
 21
58.3320580237035
 31
0.0
  0
LINE
  5
EF7C89A15
330
EF7C85532
100
AcDbEntity
  8
JISSEN
100
AcDbLine
 10
257.0672055606592
 20
56.93996167864515
 30
0.0
 11
255.1088211203349
 21
56.93996167864515
 31
0.0
  0
LINE
  5
EF7C89A16
330
EF7C85532
100
AcDbEntity
  8
JISSEN
100
AcDbLine
 10
252.8172055606591
 20
56.19537064711266
 30
0.0
 11
253.126222555034
 21
55.24431413081749
 31
0.0
1001
ACAD
1000
ASC_BOUNDS
1002
{
1070
    19
1002
}
  0
LINE
  5
EF7C89A17
330
EF7C85532
100
AcDbEntity
  8
JISSEN
100
AcDbLine
 10
255.1088211203345
 20
56.93996167864503
 30
0.0
 11
252.8172055606591
 21
56.19537064711266
 31
0.0
1001
ACAD
1000
ASC_BOUNDS
1002
{
1070
    19
1002
}
  0
LINE
  5
EF7C89A18
330
EF7C85532
100
AcDbEntity
  8
JISSEN
100
AcDbLine
 10
263.2274277006867
 20
57.24892167138671
 30
0.0
 11
263.2741116008562
 21
57.16806278439747
 31
0.0
  0
LINE
  5
EF7C89A19
330
EF7C85532
100
AcDbEntity
  8
JISSEN
100
AcDbLine
 10
263.3022099965149
 20
58.31939493550578
 30
0.0
 11
263.6517596096012
 21
57.71395724587399
 31
0.0
  0
ARC
  5
EF7C89A1A
330
EF7C85532
100
AcDbEntity
  8
JISSEN
100
AcDbCircle
 10
262.8810175391729
 20
57.04892167138672
 30
0.0
 40
0.4
100
AcDbArc
 50
30.00000000000125
 51
146.3490341753977
  0
LINE
  5
EF7C89A1B
330
EF7C85532
100
AcDbEntity
  8
JISSEN
100
AcDbLine
 10
261.8323028825796
 20
56.1953706471127
 30
0.0
 11
262.5480460761327
 21
57.27057456399331
 31
0.0
  0
LINE
  5
EF7C89A1C
330
EF7C85532
100
AcDbEntity
  8
JISSEN
100
AcDbLine
 10
260.5108683188407
 20
56.19537064711266
 30
0.0
 11
261.7996001250913
 21
58.13132965918564
 31
0.0
  0
LINE
  5
EF7C89A1D
330
EF7C85532
100
AcDbEntity
  8
JISSEN
100
AcDbLine
 10
260.3776240699447
 20
58.57719742766969
 30
0.0
 11
262.6320287826919
 21
58.57719742766969
 31
0.0
  0
ARC
  5
EF7C89A1F
330
EF7C85532
100
AcDbEntity
  8
JISSEN
100
AcDbCircle
 10
288.2836022373295
 20
64.24122563022462
 30
0.0
 40
12.49999999999999
100
AcDbArc
 50
163.739795291688
 51
196.2602047083119
  0
LINE
  5
EF7C89A20
330
EF7C85532
100
AcDbEntity
  8
JISSEN
100
AcDbLine
 10
286.4410271954355
 20
70.86985805359893
 30
0.0
 11
276.7836022373296
 21
59.44956278320757
 31
0.0
  0
ARC
  5
EF7C89A21
330
EF7C85532
100
AcDbEntity
  8
JISSEN
100
AcDbCircle
 10
254.7836022373296
 20
64.24122563022462
 30
0.0
 40
12.49999999999999
100
AcDbArc
 50
343.7397952916881
 51
16.26020470831189
  0
ARC
  5
EF7C89A22
330
EF7C85532
100
AcDbEntity
  8
JISSEN
100
AcDbCircle
 10
280.2533935821453
 20
57.04892167138672
 30
0.0
 40
0.4
100
AcDbArc
 50
33.65096582460222
 51
149.9999999999987
  0
ARC
  5
EF7C89A23
330
EF7C85532
100
AcDbEntity
  8
JISSEN
100
AcDbCircle
 10
280.5023823386263
 20
57.57719742766926
 30
0.0
 40
1.0
100
AcDbArc
 50
33.65096582460064
 51
132.0810525119099
  0
LINE
  5
EF7C89A24
330
EF7C85532
100
AcDbEntity
  8
JISSEN
100
AcDbLine
 10
280.5332047699014
 20
56.19537064711273
 30
0.0
 11
278.8854647682537
 21
58.57719742766969
 31
0.0
  0
LINE
  5
EF7C89A25
330
EF7C85532
100
AcDbEntity
  8
JISSEN
100
AcDbLine
 10
276.7836022373296
 20
58.53250783028653
 30
0.0
 11
276.7836022373296
 21
59.58714762820091
 31
0.0
  0
LINE
  5
EF7C89A26
330
EF7C85532
100
AcDbEntity
  8
JISSEN
100
AcDbLine
 10
273.8216102734063
 20
58.57719742766969
 30
0.0
 11
274.0662180079791
 21
56.19537064711273
 31
0.0
  0
ARC
  5
EF7C89A27
330
EF7C85532
100
AcDbEntity
  8
JISSEN
100
AcDbCircle
 10
274.9807212649532
 20
58.07719742766881
 30
0.0
 40
0.5
100
AcDbArc
 50
15.79871507350246
 51
166.7098700100972
  0
LINE
  5
EF7C89A28
330
EF7C85532
100
AcDbEntity
  8
JISSEN
100
AcDbLine
 10
269.0681931133394
 20
56.19537064711273
 30
0.0
 11
269.312800847912
 21
58.57719742766969
 31
0.0
  0
LINE
  5
EF7C89A29
330
EF7C85532
100
AcDbEntity
  8
JISSEN
100
AcDbLine
 10
266.2836022373296
 20
58.53250783028648
 30
0.0
 11
266.2836022373296
 21
59.58714762820093
 31
0.0
  0
ARC
  5
EF7C89A2A
330
EF7C85532
100
AcDbEntity
  8
JISSEN
100
AcDbCircle
 10
268.1536898563651
 20
58.07719742766881
 30
0.0
 40
0.5
100
AcDbArc
 50
13.29012998990278
 51
164.2012849264975
  0
ARC
  5
EF7C89A2B
330
EF7C85532
100
AcDbEntity
  8
JISSEN
100
AcDbCircle
 10
268.3533779798933
 20
57.27840719258137
 30
0.0
 40
0.1
100
AcDbArc
 50
13.2901299899087
 51
164.2012849264931
  0
LINE
  5
EF7C89A2C
330
EF7C85532
100
AcDbEntity
  8
JISSEN
100
AcDbLine
 10
269.0814531842208
 20
56.3244883628409
 30
0.0
 11
268.6402991001977
 21
58.19213847262952
 31
0.0
  0
LINE
  5
EF7C89A2D
330
EF7C85532
100
AcDbEntity
  8
JISSEN
100
AcDbLine
 10
268.7119518345379
 20
56.19537064711273
 30
0.0
 11
268.4506998286598
 21
57.3013954015735
 31
0.0
  0
LINE
  5
EF7C89A2E
330
EF7C85532
100
AcDbEntity
  8
JISSEN
100
AcDbLine
 10
267.1016026623724
 20
56.19537064711273
 30
0.0
 11
267.6725778066161
 21
58.2133267617092
 31
0.0
  0
LINE
  5
EF7C89A2F
330
EF7C85532
100
AcDbEntity
  8
JISSEN
100
AcDbLine
 10
267.9430098675605
 20
56.19537064711273
 30
0.0
 11
268.2571555699435
 21
57.30563305938943
 31
0.0
  0
LINE
  5
EF7C89A30
330
EF7C85532
100
AcDbEntity
  8
JISSEN
100
AcDbLine
 10
279.9069834206316
 20
57.24892167138671
 30
0.0
 11
279.8602995204619
 21
57.16806278439747
 31
0.0
  0
LINE
  5
EF7C89A31
330
EF7C85532
100
AcDbEntity
  8
JISSEN
100
AcDbLine
 10
279.8322011248034
 20
58.31939493550578
 30
0.0
 11
279.4826515117169
 21
57.71395724587399
 31
0.0
  0
LINE
  5
EF7C89A32
330
EF7C85532
100
AcDbEntity
  8
JISSEN
100
AcDbLine
 10
276.0328084589458
 20
56.19537064711273
 30
0.0
 11
275.4618333147021
 21
58.2133267617092
 31
0.0
  0
ARC
  5
EF7C89A33
330
EF7C85532
100
AcDbEntity
  8
JISSEN
100
AcDbCircle
 10
274.781033141425
 20
57.27840719258137
 30
0.0
 40
0.1
100
AcDbArc
 50
15.79871507350682
 51
166.7098700100912
  0
LINE
  5
EF7C89A34
330
EF7C85532
100
AcDbEntity
  8
JISSEN
100
AcDbLine
 10
274.0529579370976
 20
56.32448836284197
 30
0.0
 11
274.4941120211206
 21
58.19213847262952
 31
0.0
  0
LINE
  5
EF7C89A35
330
EF7C85532
100
AcDbEntity
  8
JISSEN
100
AcDbLine
 10
274.4224592867804
 20
56.19537064711273
 30
0.0
 11
274.6837112926584
 21
57.3013954015735
 31
0.0
  0
LINE
  5
EF7C89A36
330
EF7C85532
100
AcDbEntity
  8
JISSEN
100
AcDbLine
 10
275.1914012537579
 20
56.19537064711273
 30
0.0
 11
274.8772555513748
 21
57.30563305938943
 31
0.0
  0
LINE
  5
EF7C89A37
330
EF7C85532
100
AcDbEntity
  8
JISSEN
100
AcDbLine
 10
269.312800847912
 20
58.57719742766978
 30
0.0
 11
273.8216102734063
 21
58.57719742766969
 31
0.0
  0
LINE
  5
EF7C89A38
330
EF7C85532
100
AcDbEntity
  8
JISSEN
100
AcDbLine
 10
274.9807212649532
 20
58.57719742766969
 30
0.0
 11
278.8854647682537
 21
58.57719742766971
 31
0.0
  0
ARC
  5
EF7C89A39
330
EF7C85532
100
AcDbEntity
  8
JISSEN
100
AcDbCircle
 10
283.3016030807971
 20
57.22169742766971
 30
0.0
 40
1.355499999999999
100
AcDbArc
 50
55.00000000000309
 51
109.7312025061782
  0
LINE
  5
EF7C89A3A
330
EF7C85532
100
AcDbEntity
  8
JISSEN
100
AcDbLine
 10
285.3661487173173
 20
56.19537064711278
 30
0.0
 11
282.7567870513735
 21
58.57719742766969
 31
0.0
  0
LINE
  5
EF7C89A3B
330
EF7C85532
100
AcDbEntity
  8
JISSEN
100
AcDbLine
 10
286.0672055606591
 20
56.93996167864515
 30
0.0
 11
288.0255900009836
 21
56.93996167864515
 31
0.0
1001
ACAD
1000
ASC_BOUNDS
1002
{
1070
    19
1002
}
  0
LINE
  5
EF7C89A3C
330
EF7C85532
100
AcDbEntity
  8
JISSEN
100
AcDbLine
 10
281.3021082387387
 20
56.19537064711275
 30
0.0
 11
280.5863650451856
 21
57.27057456399331
 31
0.0
  0
LINE
  5
EF7C89A3D
330
EF7C85532
100
AcDbEntity
  8
JISSEN
100
AcDbLine
 10
282.6235428024775
 20
56.19537064711278
 30
0.0
 11
281.3348109962269
 21
58.13132965918564
 31
0.0
  0
LINE
  5
EF7C89A3E
330
EF7C85532
100
AcDbEntity
  8
JISSEN
100
AcDbLine
 10
286.0672055606594
 20
56.93996167864497
 30
0.0
 11
284.0790859402709
 21
58.33205802370347
 31
0.0
  0
LINE
  5
EF7C89A3F
330
EF7C85532
100
AcDbEntity
  8
JISSEN
100
AcDbLine
 10
290.3172055606592
 20
56.19537064711278
 30
0.0
 11
290.0081885662842
 21
55.2443141308176
 31
0.0
1001
ACAD
1000
ASC_BOUNDS
1002
{
1070
    19
1002
}
  0
LINE
  5
EF7C89A40
330
EF7C85532
100
AcDbEntity
  8
JISSEN
100
AcDbLine
 10
288.0255900009836
 20
56.93996167864515
 30
0.0
 11
290.3172055606592
 21
56.19537064711278
 31
0.0
1001
ACAD
1000
ASC_BOUNDS
1002
{
1070
    19
1002
}
  0
LINE
  5
EF7C89A41
330
EF7C85532
100
AcDbEntity
  8
JISSEN
100
AcDbLine
 10
282.7567870513735
 20
58.57719742766969
 30
0.0
 11
280.5023823386263
 21
58.57719742766969
 31
0.0
  0
ARC
  5
EF7C89A42
330
EF7C85532
100
AcDbEntity
  8
JISSEN
100
AcDbCircle
 10
275.2836022373296
 20
69.8896286412903
 30
0.0
 40
0.5
100
AcDbArc
 50
197.4176015349094
 51
300.0000000000001
  0
ARC
  5
EF7C89A43
330
EF7C85532
100
AcDbEntity
  8
JISSEN
100
AcDbCircle
 10
267.7836022373296
 20
69.8896286412903
 30
0.0
 40
0.5
100
AcDbArc
 50
239.9999999999998
 51
342.5823984650904
  0
LINE
  5
EF7C89A47
330
EF7C85532
100
AcDbEntity
  8
JISSEN
100
AcDbLine
 10
274.8065280289588
 20
69.73996167864516
 30
0.0
 11
268.2606764457003
 21
69.73996167864516
 31
0.0
  0
ARC
  5
EF7C89A4B
330
EF7C85532
100
AcDbEntity
  8
JISSEN
100
AcDbCircle
 10
271.5328176818372
 20
70.18115843265718
 30
0.0
 40
1.6
100
AcDbArc
 50
17.33173146619461
 51
162.7537116970571
  0
LINE
  5
EF7C89A4C
330
EF7C85532
100
AcDbEntity
  8
JISSEN
100
AcDbLine
 10
269.0891907523067
 20
69.73996167864516
 30
0.0
 11
270.0047550373376
 21
70.65552596367601
 31
0.0
  0
LINE
  5
EF7C89A4E
330
EF7C85532
100
AcDbEntity
  8
JISSEN
100
AcDbLine
 10
268.7376083281155
 20
69.73996167864516
 30
0.0
 11
271.5336022373296
 21
69.73996167864516
 31
0.0
  0
LINE
  5
EF7C89A54
330
EF7C85532
100
AcDbEntity
  8
JISSEN
100
AcDbLine
 10
273.9780137223524
 20
69.73996167864516
 30
0.0
 11
273.060171220024
 21
70.65780418097381
 31
0.0
  0
ARC
  5
EF7C89A5A
330
EF7C85532
100
AcDbEntity
  8
JISSEN
100
AcDbCircle
 10
279.5336022373296
 20
90.24122563022462
 30
0.0
 40
28.0
100
AcDbArc
 50
180.0
 51
202.024312837042
  0
ARC
  5
EF7C89A5B
330
EF7C85532
100
AcDbEntity
  8
JISSEN
100
AcDbCircle
 10
279.5336022373296
 20
90.24122563022462
 30
0.0
 40
26.0
100
AcDbArc
 50
173.5656684449006
 51
203.8188413934569
  0
ARC
  5
EF7C89A62
330
EF7C85532
100
AcDbEntity
  8
JISSEN
100
AcDbCircle
 10
263.5336022373296
 20
90.24122563022462
 30
0.0
 40
26.0
100
AcDbArc
 50
336.181158606543
 51
0.7891762481350204
  0
ARC
  5
EF7C89A63
330
EF7C85532
100
AcDbEntity
  8
JISSEN
100
AcDbCircle
 10
263.5336022373296
 20
90.24122563022462
 30
0.0
 40
28.0
100
AcDbArc
 50
337.9756871629579
 51
0.0
  0
LINE
  5
EF7C89AAE
330
EF7C85532
100
AcDbEntity
  8
JISSEN
100
AcDbLine
 10
222.5656437526942
 20
116.7574182178666
 30
0.0
 11
271.5336022373296
 21
116.7574182178666
 31
0.0
  0
LINE
  5
EF7C89AAF
330
EF7C85532
100
AcDbEntity
  8
JISSEN
100
AcDbLine
 10
224.2310120287472
 20
117.6811013381442
 30
0.0
 11
271.5336022373296
 21
117.6811013381443
 31
0.0
  0
LINE
  5
EF7C89AB0
330
EF7C85532
100
AcDbEntity
  8
JISSEN
100
AcDbLine
 10
224.2310120287472
 20
117.6811013381442
 30
0.0
 11
222.5336022373296
 21
116.7011013381442
 31
0.0
  0
LINE
  5
EF7C89AB1
330
EF7C85532
100
AcDbEntity
  8
JISSEN
100
AcDbLine
 10
222.5336022373296
 20
116.7011013381442
 30
0.0
 11
222.7961924459121
 21
115.7211013381442
 31
0.0
  0
LINE
  5
EF7C89AB2
330
EF7C85532
100
AcDbEntity
  8
JISSEN
100
AcDbLine
 10
281.7180609858346
 20
131.4257899039447
 30
0.0
 11
281.7180609858346
 21
117.6811013381442
 31
0.0
  0
LINE
  5
EF7C89AB3
330
EF7C85532
100
AcDbEntity
  8
JISSEN
100
AcDbLine
 10
291.9025197343396
 20
131.4011013381442
 30
0.0
 11
291.9025197343396
 21
117.6811013381442
 31
0.0
  0
LINE
  5
EF7C89AB4
330
EF7C85532
100
AcDbEntity
  8
JISSEN
100
AcDbLine
 10
251.1646847403196
 20
131.4011013381442
 30
0.0
 11
251.1646847403196
 21
117.6811013381442
 31
0.0
  0
LINE
  5
EF7C89AB5
330
EF7C85532
100
AcDbEntity
  8
JISSEN
100
AcDbLine
 10
261.3491434888246
 20
131.4257899039447
 30
0.0
 11
261.3491434888246
 21
117.6811013381442
 31
0.0
  0
LINE
  5
EF7C89AB6
330
EF7C85532
100
AcDbEntity
  8
JISSEN
100
AcDbLine
 10
278.8609355715293
 20
99.18181438611368
 30
0.0
 11
264.2734755497897
 21
99.18181438611313
 31
0.0
  0
TEXT
  5
EF7C89AB7
330
EF7C85532
100
AcDbEntity
  8
JISSEN
100
AcDbText
 10
266.4526378558826
 20
107.4358878680753
 30
0.0
 40
3.0
  1
E
 50
180.0
  7
K
 72
     4
 11
264.9526378558825
 21
105.9358878680753
 31
0.0
100
AcDbText
  0
LINE
  5
EF7C89AB8
330
EF7C85532
100
AcDbEntity
  8
JISSEN
100
AcDbLine
 10
263.5672055606592
 20
101.5105524324205
 30
0.0
 11
279.5672055606591
 21
101.5105524324205
 31
0.0
  0
LINE
  5
EF7C89AB9
330
EF7C85532
100
AcDbEntity
  8
JISSEN
100
AcDbLine
 10
262.2672055606592
 20
103.1105524324204
 30
0.0
 11
270.0672055606592
 21
103.1105524324204
 31
0.0
  0
LINE
  5
EF7C89ABA
330
EF7C85532
100
AcDbEntity
  8
JISSEN
100
AcDbLine
 10
279.9172055606591
 20
99.7916521486743
 30
0.0
 11
263.2172055606591
 21
99.7916521486743
 31
0.0
  0
LINE
  5
EF7C89ABB
330
EF7C85532
100
AcDbEntity
  8
JISSEN
100
AcDbLine
 10
260.0672055606592
 20
109.1105524324204
 30
0.0
 11
269.1586022373296
 21
109.1105524324204
 31
0.0
  0
LINE
  5
EF7C89ABD
330
EF7C85532
100
AcDbEntity
  8
JISSEN
100
AcDbLine
 10
284.9706842932565
 20
112.2095263910823
 30
0.0
 11
258.1637268280618
 21
112.2095263910823
 31
0.0
  0
LINE
  5
EF7C89ABE
330
EF7C85532
100
AcDbEntity
  8
JISSEN
100
AcDbLine
 10
260.0672055606592
 20
111.1105524324204
 30
0.0
 11
283.0672055606592
 21
111.1105524324204
 31
0.0
  0
LINE
  5
EF7C89ABF
330
EF7C85532
100
AcDbEntity
  8
JISSEN
100
AcDbLine
 10
260.0672055606592
 20
107.9330324841408
 30
0.0
 11
260.0672055606592
 21
111.1105524324204
 31
0.0
  0
LINE
  5
EF7C89AC0
330
EF7C85532
100
AcDbEntity
  8
JISSEN
100
AcDbLine
 10
262.2672055606592
 20
109.1105524324204
 30
0.0
 11
262.2672055606592
 21
103.1105524324204
 31
0.0
  0
LINE
  5
EF7C89AC1
330
EF7C85532
100
AcDbEntity
  8
JISSEN
100
AcDbLine
 10
263.5672055606592
 20
103.1105524324204
 30
0.0
 11
263.5672055606592
 21
101.5105524324205
 31
0.0
  0
ARC
  5
EF7C89AC2
330
EF7C85532
100
AcDbEntity
  8
JISSEN
100
AcDbCircle
 10
260.5597315144049
 20
98.26075607693923
 30
0.0
 40
5.0
100
AcDbArc
 50
104.6790800521975
 51
126.6829888003599
  0
LINE
  5
EF7C89AC3
330
EF7C85532
100
AcDbEntity
  8
JISSEN
100
AcDbLine
 10
263.2172055606591
 20
99.79165214867435
 30
0.0
 11
263.2172055606591
 21
100.2084159232069
 31
0.0
  0
LINE
  5
EF7C89AC4
330
EF7C85532
100
AcDbEntity
  8
JISSEN
100
AcDbLine
 10
263.2172055606591
 20
99.79165214867435
 30
0.0
 11
264.2734755497895
 21
99.18181438611334
 31
0.0
  0
ARC
  5
EF7C89AC5
330
EF7C85532
100
AcDbEntity
  8
JISSEN
100
AcDbCircle
 10
262.7172055606592
 20
100.2084159232069
 30
0.0
 40
0.5
100
AcDbArc
 50
0.0
 51
111.1546302653318
  0
ARC
  5
EF7C89AC7
330
EF7C85532
100
AcDbEntity
  8
JISSEN
100
AcDbCircle
 10
259.0672055606592
 20
107.9330324841408
 30
0.0
 40
1.0
100
AcDbArc
 50
294.6243183521636
 51
0.0
  0
ARC
  5
EF7C89AC8
330
EF7C85532
100
AcDbEntity
  8
JISSEN
100
AcDbCircle
 10
257.6458537056613
 20
109.3843429586009
 30
0.0
 40
6.498907295833106
100
AcDbArc
 50
284.6790800521976
 51
314.9044140176817
  0
LINE
  5
EF7C89AC9
330
EF7C85532
100
AcDbEntity
  8
JISSEN
100
AcDbLine
 10
258.1637268280618
 20
112.2095263910823
 30
0.0
 11
258.2734690291986
 21
115.7211013381442
 31
0.0
  0
LINE
  5
EF7C89ACA
330
EF7C85532
100
AcDbEntity
  8
SAISEN
100
AcDbLine
 10
259.3129905505911
 20
111.5459986715101
 30
0.0
 11
259.4434690291984
 21
115.7211013381442
 31
0.0
  0
LINE
  5
EF7C89ACB
330
EF7C85532
100
AcDbEntity
  8
JISSEN
100
AcDbLine
 10
260.0672055606592
 20
111.1105524324204
 30
0.0
 11
258.1637268280618
 21
112.2095263910823
 31
0.0
  0
LINE
  5
EF7C89ACC
330
EF7C85532
100
AcDbEntity
  8
JISSEN
100
AcDbLine
 10
283.0672055606592
 20
107.9330324841408
 30
0.0
 11
283.0672055606592
 21
111.1105524324204
 31
0.0
  0
LINE
  5
EF7C89ACD
330
EF7C85532
100
AcDbEntity
  8
JISSEN
100
AcDbLine
 10
280.8672055606591
 20
109.1105524324204
 30
0.0
 11
280.8672055606591
 21
103.1105524324204
 31
0.0
  0
LINE
  5
EF7C89ACE
330
EF7C85532
100
AcDbEntity
  8
JISSEN
100
AcDbLine
 10
275.5672055606591
 20
109.1105524324204
 30
0.0
 11
275.5672055606591
 21
103.1105524324204
 31
0.0
  0
LINE
  5
EF7C89ACF
330
EF7C85532
100
AcDbEntity
  8
JISSEN
100
AcDbLine
 10
267.5672055606592
 20
109.1105524324204
 30
0.0
 11
267.5672055606592
 21
103.1105524324204
 31
0.0
  0
ARC
  5
EF7C89AD0
330
EF7C85532
100
AcDbEntity
  8
JISSEN
100
AcDbCircle
 10
280.4172055606591
 20
100.2084159232069
 30
0.0
 40
0.5
100
AcDbArc
 50
68.84536973466818
 51
180.0
  0
LINE
  5
EF7C89AD2
330
EF7C85532
100
AcDbEntity
  8
JISSEN
100
AcDbLine
 10
273.0672055606591
 20
103.1105524324204
 30
0.0
 11
280.8672055606591
 21
103.1105524324204
 31
0.0
  0
LINE
  5
EF7C89AD4
330
EF7C85532
100
AcDbEntity
  8
JISSEN
100
AcDbLine
 10
279.5672055606591
 20
103.1105524324204
 30
0.0
 11
279.5672055606591
 21
101.5105524324205
 31
0.0
  0
LINE
  5
EF7C89AD6
330
EF7C85532
100
AcDbEntity
  8
JISSEN
100
AcDbLine
 10
273.0672055606591
 20
103.1105524324204
 30
0.0
 11
273.0672055606591
 21
101.5105524324205
 31
0.0
  0
LINE
  5
EF7C89AD8
330
EF7C85532
100
AcDbEntity
  8
JISSEN
100
AcDbLine
 10
270.0672055606592
 20
103.1105524324204
 30
0.0
 11
270.0672055606592
 21
101.5105524324205
 31
0.0
  0
LINE
  5
EF7C89ADC
330
EF7C85532
100
AcDbEntity
  8
JISSEN
100
AcDbLine
 10
279.9172055606591
 20
99.79165214867435
 30
0.0
 11
279.9172055606591
 21
100.2084159232069
 31
0.0
  0
LINE
  5
EF7C89ADD
330
EF7C85532
100
AcDbEntity
  8
JISSEN
100
AcDbLine
 10
279.9172055606591
 20
99.79165214867435
 30
0.0
 11
278.8609355715288
 21
99.18181438611334
 31
0.0
  0
ARC
  5
EF7C89AE9
330
EF7C85532
100
AcDbEntity
  8
JISSEN
100
AcDbCircle
 10
282.5074729602543
 20
98.26075607693923
 30
0.0
 40
5.0
100
AcDbArc
 50
53.31701119964003
 51
75.32091994780239
  0
ARC
  5
EF7C89AEA
330
EF7C85532
100
AcDbEntity
  8
JISSEN
100
AcDbCircle
 10
284.0672055606592
 20
107.9330324841408
 30
0.0
 40
1.0
100
AcDbArc
 50
180.0
 51
245.3756816478349
  0
ARC
  5
EF7C89AEB
330
EF7C85532
100
AcDbEntity
  8
JISSEN
100
AcDbCircle
 10
285.421350768998
 20
109.3843429586008
 30
0.0
 40
6.498907295833106
100
AcDbArc
 50
225.0955859823182
 51
255.3209199478024
  0
LINE
  5
EF7C89AEC
330
EF7C85532
100
AcDbEntity
  8
JISSEN
100
AcDbLine
 10
273.9086022373296
 20
109.1105524324204
 30
0.0
 11
283.0672055606592
 21
109.1105524324204
 31
0.0
  0
LINE
  5
EF7C89AED
330
EF7C85532
100
AcDbEntity
  8
JISSEN
100
AcDbLine
 10
269.1586022373296
 20
109.1105524324204
 30
0.0
 11
269.1586022373296
 21
111.1105524324204
 31
0.0
  0
LINE
  5
EF7C89AEE
330
EF7C85532
100
AcDbEntity
  8
JISSEN
100
AcDbLine
 10
273.9086022373296
 20
109.1105524324204
 30
0.0
 11
273.9086022373296
 21
111.1105524324204
 31
0.0
  0
LINE
  5
EF7C89AEF
330
EF7C85532
100
AcDbEntity
  8
JISSEN
100
AcDbLine
 10
284.9706842932565
 20
112.2095263910823
 30
0.0
 11
284.8609420921198
 21
115.7211013381442
 31
0.0
  0
LINE
  5
EF7C89AF0
330
EF7C85532
100
AcDbEntity
  8
SAISEN
100
AcDbLine
 10
283.8214205707272
 20
111.5459986715101
 30
0.0
 11
283.6909420921197
 21
115.7211013381442
 31
0.0
  0
LINE
  5
EF7C89AF1
330
EF7C85532
100
AcDbEntity
  8
JISSEN
100
AcDbLine
 10
283.0672055606592
 20
111.1105524324204
 30
0.0
 11
284.9706842932565
 21
112.2095263910823
 31
0.0
  0
LINE
  5
EF7C89AF2
330
EF7C85532
100
AcDbEntity
  8
NITEN
100
AcDbLine
 10
251.4999989139999
 20
140.0916502438678
 30
0.0
 11
291.4999989140001
 21
140.0916502438679
 31
0.0
  0
LINE
  5
EF7C89AF3
330
EF7C85532
100
AcDbEntity
  8
JISSEN
100
AcDbLine
 10
255.0302171608052
 20
135.0352369003282
 30
0.0
 11
271.5336022373296
 21
135.0352369003282
 31
0.0
  0
LINE
  5
EF7C89AF4
330
EF7C85532
100
AcDbEntity
  8
JISSEN
100
AcDbLine
 10
271.5336022373296
 20
132.3811013381442
 30
0.0
 11
252.8620945317372
 21
132.3811013381442
 31
0.0
  0
LINE
  5
EF7C89AF5
330
EF7C85532
100
AcDbEntity
  8
JISSEN
100
AcDbLine
 10
251.1646847403196
 20
131.4011013381442
 30
0.0
 11
252.8620945317371
 21
132.3811013381442
 31
0.0
  0
LINE
  5
EF7C89AF6
330
EF7C85532
100
AcDbEntity
  8
SAISEN
100
AcDbLine
 10
254.9472712795125
 20
132.3811013381442
 30
0.0
 11
256.4796371608053
 21
135.0352369003282
 31
0.0
  0
ARC
  5
EF7C89AF7
330
EF7C85532
100
AcDbEntity
  8
JISSEN
100
AcDbCircle
 10
263.3902282353278
 20
129.8197428471985
 30
0.0
 40
2.563355477994762
100
AcDbArc
 50
88.38914679131711
 51
142.7739595790623
  0
ARC
  5
EF7C89AF8
330
EF7C85532
100
AcDbEntity
  8
JISSEN
100
AcDbCircle
 10
259.3512936050539
 20
129.8197428471985
 30
0.0
 40
2.563355477994762
100
AcDbArc
 50
38.79537524422289
 51
89.74691060552169
  0
ARC
  5
EF7C89AF9
330
EF7C85532
100
AcDbEntity
  8
JISSEN
100
AcDbCircle
 10
279.6769762393314
 20
129.8197428471985
 30
0.0
 40
2.563355477994762
100
AcDbArc
 50
37.22604042093768
 51
91.61085320868286
  0
LINE
  5
EF7C89AFA
330
EF7C85532
100
AcDbEntity
  8
JISSEN
100
AcDbLine
 10
271.5336022373296
 20
132.3811013381442
 30
0.0
 11
290.205109942922
 21
132.3811013381442
 31
0.0
  0
LINE
  5
EF7C89AFB
330
EF7C85532
100
AcDbEntity
  8
JISSEN
100
AcDbLine
 10
288.036987313854
 20
135.0352369003282
 30
0.0
 11
271.5336022373296
 21
135.0352369003282
 31
0.0
  0
LINE
  5
EF7C89AFC
330
EF7C85532
100
AcDbEntity
  8
SAISEN
100
AcDbLine
 10
288.1199331951467
 20
132.3811013381442
 30
0.0
 11
286.587567313854
 21
135.0352369003282
 31
0.0
  0
ARC
  5
EF7C89AFD
330
EF7C85532
100
AcDbEntity
  8
JISSEN
100
AcDbCircle
 10
283.7159108696054
 20
129.8197428471985
 30
0.0
 40
2.563355477994762
100
AcDbArc
 50
90.2530893944783
 51
141.2046247557771
  0
LINE
  5
EF7C89AFE
330
EF7C85532
100
AcDbEntity
  8
JISSEN
100
AcDbLine
 10
291.9025197343396
 20
131.4011013381442
 30
0.0
 11
290.2051099429221
 21
132.3811013381442
 31
0.0
  0
LINE
  5
EF7C89AFF
330
EF7C85532
100
AcDbEntity
  8
NITEN
100
AcDbLine
 10
282.0940500849966
 20
140.0916502438679
 30
0.0
 11
283.9999989140001
 21
140.0916502438679
 31
0.0
  0
LINE
  5
EF7C89B02
330
EF7C85532
100
AcDbEntity
  8
JISSEN
100
AcDbLine
 10
320.5336022373296
 20
116.7011013381442
 30
0.0
 11
320.2710120287471
 21
115.7211013381442
 31
0.0
  0
LINE
  5
EF7C89B03
330
EF7C85532
100
AcDbEntity
  8
JISSEN
100
AcDbLine
 10
318.836192445912
 20
117.6811013381442
 30
0.0
 11
320.5336022373296
 21
116.7011013381442
 31
0.0
  0
LWPOLYLINE
  5
EF7C89B04
330
EF7C85532
100
AcDbEntity
  8
NITEN
100
AcDbPolyline
 90
        2
 70
     0
 43
0.0
 10
295.9999989140001
 20
202.9293678950138
 42
0.4286965335113593
 10
271.4999989140001
 20
202.9293678950139
 42
0.5882352941176294
  0
ARC
  5
EF7C89B05
330
EF7C85532
100
AcDbEntity
  8
NITEN
100
AcDbCircle
 10
283.7499989140002
 20
214.5910976091603
 30
0.0
 40
16.91326224966099
100
AcDbArc
 50
223.5907080983044
 51
316.4092919016946
  0
ARC
  5
EF7C89B06
330
EF7C85532
100
AcDbEntity
  8
NITEN
100
AcDbCircle
 10
297.9999989140001
 20
152.6376662700859
 30
0.0
 40
5.0
100
AcDbArc
 50
90.0
 51
180.0
  0
LINE
  5
EF7C89B07
330
EF7C85532
100
AcDbEntity
  8
NITEN
100
AcDbLine
 10
297.9999989140001
 20
182.0916502438679
 30
0.0
 11
244.9999989140001
 21
182.0916502438679
 31
0.0
  0
LINE
  5
EF7C89B08
330
EF7C85532
100
AcDbEntity
  8
NITEN
100
AcDbLine
 10
246.9999989140001
 20
202.9293678950135
 30
0.0
 11
246.9999989140001
 21
182.0916502438679
 31
0.0
  0
LINE
  5
EF7C89B09
330
EF7C85532
100
AcDbEntity
  8
NITEN
100
AcDbLine
 10
242.9999989139999
 20
159.6376662700859
 30
0.0
 11
242.9999989140001
 21
180.0916502438679
 31
0.0
  0
LINE
  5
EF7C89B0A
330
EF7C85532
100
AcDbEntity
  8
JISSEN
100
AcDbLine
 10
286.0374025857458
 20
151.9811013381442
 30
0.0
 11
257.0298018889134
 21
151.9811013381442
 31
0.0
  0
LINE
  5
EF7C89B0B
330
EF7C85532
100
AcDbEntity
  8
JISSEN
100
AcDbLine
 10
255.5138845105719
 20
150.5118186579338
 30
0.0
 11
271.5336022373296
 21
150.4858171340655
 31
0.0
  0
LINE
  5
EF7C89B0C
330
EF7C85532
100
AcDbEntity
  8
NITEN
100
AcDbLine
 10
249.9999989139999
 20
141.5916502438679
 30
0.0
 11
249.9999989139999
 21
152.6376662700859
 31
0.0
  0
LINE
  5
EF7C89B0D
330
EF7C85532
100
AcDbEntity
  8
JISSEN
100
AcDbLine
 10
257.0298018889134
 20
151.9811013381442
 30
0.0
 11
255.5138845105719
 21
150.5118186579338
 31
0.0
  0
ARC
  5
EF7C89B0E
330
EF7C85532
100
AcDbEntity
  8
NITEN
100
AcDbCircle
 10
244.9999989139999
 20
152.6376662700859
 30
0.0
 40
5.0
100
AcDbArc
 50
0.000000000000007
 51
90.0
  0
ARC
  5
EF7C89B0F
330
EF7C85532
100
AcDbEntity
  8
NITEN
100
AcDbCircle
 10
244.9999989139999
 20
159.6376662700859
 30
0.0
 40
2.0
100
AcDbArc
 50
180.0
 51
270.0
  0
LINE
  5
EF7C89B10
330
EF7C85532
100
AcDbEntity
  8
NITEN
100
AcDbLine
 10
292.999998914
 20
141.5916502438679
 30
0.0
 11
292.999998914
 21
152.6376662700859
 31
0.0
  0
LINE
  5
EF7C89B11
330
EF7C85532
100
AcDbEntity
  8
JISSEN
100
AcDbLine
 10
287.5533199640873
 20
150.5118186579338
 30
0.0
 11
271.5336022373296
 21
150.4858171340655
 31
0.0
  0
LINE
  5
EF7C89B12
330
EF7C85532
100
AcDbEntity
  8
JISSEN
100
AcDbLine
 10
286.0374025857458
 20
151.9811013381442
 30
0.0
 11
287.5533199640873
 21
150.5118186579338
 31
0.0
  0
ARC
  5
EF7C89B13
330
EF7C85532
100
AcDbEntity
  8
NITEN
100
AcDbCircle
 10
244.9999989140001
 20
180.0916502438679
 30
0.0
 40
1.999999999999971
100
AcDbArc
 50
90.00000000000079
 51
180.0000000000008
  0
ARC
  5
EF7C89B14
330
EF7C85532
100
AcDbEntity
  8
NITEN
100
AcDbCircle
 10
259.2499989140003
 20
191.2676381808667
 30
0.0
 40
16.91326224966125
100
AcDbArc
 50
43.59070809830677
 51
136.4092919016947
  0
LINE
  5
EF7C89B15
330
EF7C85532
100
AcDbEntity
  8
NITEN
100
AcDbLine
 10
295.9999989140001
 20
182.0916502438679
 30
0.0
 11
295.9999989140001
 21
202.9293678950137
 31
0.0
  0
LINE
  5
EF7C89B16
330
EF7C85532
100
AcDbEntity
  8
NITEN
100
AcDbLine
 10
299.9999989140001
 20
159.6376662700859
 30
0.0
 11
299.9999989140001
 21
180.0916502438679
 31
0.0
  0
ARC
  5
EF7C89B17
330
EF7C85532
100
AcDbEntity
  8
NITEN
100
AcDbCircle
 10
297.9999989140001
 20
159.6376662700859
 30
0.0
 40
2.0
100
AcDbArc
 50
270.0
 51
0.0
  0
ARC
  5
EF7C89B18
330
EF7C85532
100
AcDbEntity
  8
NITEN
100
AcDbCircle
 10
297.9999989140001
 20
180.0916502438679
 30
0.0
 40
1.999999999999971
100
AcDbArc
 50
359.9999999999992
 51
89.9999999999992
  0
ENDSEC
  0
SECTION
  2
OBJECTS
  0
DICTIONARY
  5
EF7C85527
330
0
100
AcDbDictionary
  3
ACAD_GROUP
350
EF7C85528
  3
ACAD_LAYOUT
350
EF7C85BB7
  3
ACAD_MLINESTYLE
350
EF7C85535
  3
ACAD_PLOTSETTINGS
350
EF7C85BB8
  3
ACAD_PLOTSTYLENAME
350
EF7C85BB5
  3
ACDBHEADERROUNDTRIPXREC
350
EF7C89BFA
  3
ACDBVARIABLEDICTIONARY
350
EF7C85DB7
  0
DICTIONARY
  5
EF7C85D9A
330
EF7C85532
100
AcDbDictionary
280
     1
  3
ACAD_LAYOUTSELFREF
360
EF7C89C1C
  0
DICTIONARY
  5
EF7C85D98
330
EF7C8552F
100
AcDbDictionary
280
     1
  3
ACAD_LAYOUTSELFREF
360
EF7C89C1B
  0
DICTIONARY
  5
EF7C85528
102
{ACAD_REACTORS
330
EF7C85527
102
}
330
EF7C85527
100
AcDbDictionary
  0
DICTIONARY
  5
EF7C85BB7
102
{ACAD_REACTORS
330
EF7C85527
102
}
330
EF7C85527
100
AcDbDictionary
  0
DICTIONARY
  5
EF7C85535
102
{ACAD_REACTORS
330
EF7C85527
102
}
330
EF7C85527
100
AcDbDictionary
  3
STANDARD
350
EF7C85536
  0
DICTIONARY
  5
EF7C85BB8
102
{ACAD_REACTORS
330
EF7C85527
102
}
330
EF7C85527
100
AcDbDictionary
  0
ACDBDICTIONARYWDFLT
  5
EF7C85BB5
102
{ACAD_REACTORS
330
EF7C85527
102
}
330
EF7C85527
100
AcDbDictionary
281
     1
  3
Normal
350
EF7C85BB6
100
AcDbDictionaryWithDefault
340
EF7C85BB6
  0
DICTIONARY
  5
EF7C89BFA
102
{ACAD_REACTORS
330
EF7C85527
102
}
330
EF7C85527
100
AcDbDictionary
  3
CEPSNTYPE
350
EF7C89C04
  3
DIMSTYLEDATA
350
EF7C89C08
  3
FINGERPRINTGUID
350
EF7C89C05
  3
HYPERLINKBASE
350
EF7C89BFD
  3
INSUNITS
350
EF7C89C03
  3
LAYOUTDICT
350
EF7C89BFF
  3
LWETCUNION
350
EF7C89C02
  3
PLOTSETDICT
350
EF7C89C00
  3
PLOTSTYLNAMDICT
350
EF7C89C01
  3
PSVPSCALE
350
EF7C89C07
  3
PUCSBASE
350
EF7C89C0B
  3
PUCSORGBACK
350
EF7C89C11
  3
PUCSORGBOTTOM
350
EF7C89C0D
  3
PUCSORGFRONT
350
EF7C89C10
  3
PUCSORGLEFT
350
EF7C89C0E
  3
PUCSORGRIGHT
350
EF7C89C0F
  3
PUCSORGTOP
350
EF7C89C0C
  3
PUCSORTHOREF
350
EF7C89C09
  3
PUCSORTHOVIEW
350
EF7C89C0A
  3
STYLESHEET
350
EF7C89BFE
  3
TSTACKALIGN
350
EF7C89BFB
  3
TSTACKSIZE
350
EF7C89BFC
  3
UCSBASE
350
EF7C89C14
  3
UCSORGBACK
350
EF7C89C1A
  3
UCSORGBOTTOM
350
EF7C89C16
  3
UCSORGFRONT
350
EF7C89C19
  3
UCSORGLEFT
350
EF7C89C17
  3
UCSORGRIGHT
350
EF7C89C18
  3
UCSORGTOP
350
EF7C89C15
  3
UCSORTHOREF
350
EF7C89C12
  3
UCSORTHOVIEW
350
EF7C89C13
  3
VERSIONGUID
350
EF7C89C06
  0
DICTIONARY
  5
EF7C85DB7
102
{ACAD_REACTORS
330
EF7C85527
102
}
330
EF7C85527
100
AcDbDictionary
  3
DIMASSOC
350
EF7C89BF8
  3
SORTENTS
350
EF7C85DB8
  0
XRECORD
  5
EF7C89C1C
102
{ACAD_REACTORS
330
EF7C85D9A
102
}
330
EF7C85D9A
100
AcDbXrecord
340
EF7C85532
  0
XRECORD
  5
EF7C89C1B
102
{ACAD_REACTORS
330
EF7C85D98
102
}
330
EF7C85D98
100
AcDbXrecord
340
EF7C8552F
  0
MLINESTYLE
  5
EF7C85536
102
{ACAD_REACTORS
330
EF7C85535
102
}
330
EF7C85535
100
AcDbMlineStyle
  2
STANDARD
 70
     0
  3

 62
   256
 51
90.0
 52
90.0
 71
     2
 49
0.5
 62
   256
  6
BYLAYER
 49
-0.5
 62
   256
  6
BYLAYER
  0
ACDBPLACEHOLDER
  5
EF7C85BB6
102
{ACAD_REACTORS
330
EF7C85BB5
102
}
330
EF7C85BB5
100
AcDbPlaceHolder
280
     0
  0
XRECORD
  5
EF7C89C04
102
{ACAD_REACTORS
330
EF7C89BFA
102
}
330
EF7C89BFA
100
AcDbXrecord
 90
        0
  0
XRECORD
  5
EF7C89C08
102
{ACAD_REACTORS
330
EF7C89BFA
102
}
330
EF7C89BFA
100
AcDbXrecord
1000
DSTYLE
1002
{
1070
   279
 70
     2
1070
   341
340
EF7C85537
1070
   342
340
EF7C85537
1070
   343
340
EF7C85543
1070
   344
340
EF7C85543
1002
}
  0
XRECORD
  5
EF7C89C05
102
{ACAD_REACTORS
330
EF7C89BFA
102
}
330
EF7C89BFA
100
AcDbXrecord
  1
{09AA4C7A-3D6F-4857-A850-771461888CEC}
  0
XRECORD
  5
EF7C89BFD
102
{ACAD_REACTORS
330
EF7C89BFA
102
}
330
EF7C89BFA
100
AcDbXrecord
  1

  0
XRECORD
  5
EF7C89C03
102
{ACAD_REACTORS
330
EF7C89BFA
102
}
330
EF7C89BFA
100
AcDbXrecord
 90
        0
  0
XRECORD
  5
EF7C89BFF
102
{ACAD_REACTORS
330
EF7C89BFA
102
}
330
EF7C89BFA
100
AcDbXrecord
340
EF7C85BB7
  0
XRECORD
  5
EF7C89C02
102
{ACAD_REACTORS
330
EF7C89BFA
102
}
330
EF7C89BFA
100
AcDbXrecord
 90
    14877
  0
XRECORD
  5
EF7C89C00
102
{ACAD_REACTORS
330
EF7C89BFA
102
}
330
EF7C89BFA
100
AcDbXrecord
340
EF7C85BB8
  0
XRECORD
  5
EF7C89C01
102
{ACAD_REACTORS
330
EF7C89BFA
102
}
330
EF7C89BFA
100
AcDbXrecord
340
EF7C85BB5
  0
XRECORD
  5
EF7C89C07
102
{ACAD_REACTORS
330
EF7C89BFA
102
}
330
EF7C89BFA
100
AcDbXrecord
 40
0.0
  0
XRECORD
  5
EF7C89C0B
102
{ACAD_REACTORS
330
EF7C89BFA
102
}
330
EF7C89BFA
100
AcDbXrecord
340
0
  0
XRECORD
  5
EF7C89C11
102
{ACAD_REACTORS
330
EF7C89BFA
102
}
330
EF7C89BFA
100
AcDbXrecord
 10
0.0
 20
0.0
 30
0.0
  0
XRECORD
  5
EF7C89C0D
102
{ACAD_REACTORS
330
EF7C89BFA
102
}
330
EF7C89BFA
100
AcDbXrecord
 10
0.0
 20
0.0
 30
0.0
  0
XRECORD
  5
EF7C89C10
102
{ACAD_REACTORS
330
EF7C89BFA
102
}
330
EF7C89BFA
100
AcDbXrecord
 10
0.0
 20
0.0
 30
0.0
  0
XRECORD
  5
EF7C89C0E
102
{ACAD_REACTORS
330
EF7C89BFA
102
}
330
EF7C89BFA
100
AcDbXrecord
 10
0.0
 20
0.0
 30
0.0
  0
XRECORD
  5
EF7C89C0F
102
{ACAD_REACTORS
330
EF7C89BFA
102
}
330
EF7C89BFA
100
AcDbXrecord
 10
0.0
 20
0.0
 30
0.0
  0
XRECORD
  5
EF7C89C0C
102
{ACAD_REACTORS
330
EF7C89BFA
102
}
330
EF7C89BFA
100
AcDbXrecord
 10
0.0
 20
0.0
 30
0.0
  0
XRECORD
  5
EF7C89C09
102
{ACAD_REACTORS
330
EF7C89BFA
102
}
330
EF7C89BFA
100
AcDbXrecord
340
0
  0
XRECORD
  5
EF7C89C0A
102
{ACAD_REACTORS
330
EF7C89BFA
102
}
330
EF7C89BFA
100
AcDbXrecord
 70
     0
  0
XRECORD
  5
EF7C89BFE
102
{ACAD_REACTORS
330
EF7C89BFA
102
}
330
EF7C89BFA
100
AcDbXrecord
  1

  0
XRECORD
  5
EF7C89BFB
102
{ACAD_REACTORS
330
EF7C89BFA
102
}
330
EF7C89BFA
100
AcDbXrecord
 90
        1
  0
XRECORD
  5
EF7C89BFC
102
{ACAD_REACTORS
330
EF7C89BFA
102
}
330
EF7C89BFA
100
AcDbXrecord
 90
       70
  0
XRECORD
  5
EF7C89C14
102
{ACAD_REACTORS
330
EF7C89BFA
102
}
330
EF7C89BFA
100
AcDbXrecord
340
0
  0
XRECORD
  5
EF7C89C1A
102
{ACAD_REACTORS
330
EF7C89BFA
102
}
330
EF7C89BFA
100
AcDbXrecord
 10
0.0
 20
0.0
 30
0.0
  0
XRECORD
  5
EF7C89C16
102
{ACAD_REACTORS
330
EF7C89BFA
102
}
330
EF7C89BFA
100
AcDbXrecord
 10
0.0
 20
0.0
 30
0.0
  0
XRECORD
  5
EF7C89C19
102
{ACAD_REACTORS
330
EF7C89BFA
102
}
330
EF7C89BFA
100
AcDbXrecord
 10
0.0
 20
0.0
 30
0.0
  0
XRECORD
  5
EF7C89C17
102
{ACAD_REACTORS
330
EF7C89BFA
102
}
330
EF7C89BFA
100
AcDbXrecord
 10
0.0
 20
0.0
 30
0.0
  0
XRECORD
  5
EF7C89C18
102
{ACAD_REACTORS
330
EF7C89BFA
102
}
330
EF7C89BFA
100
AcDbXrecord
 10
0.0
 20
0.0
 30
0.0
  0
XRECORD
  5
EF7C89C15
102
{ACAD_REACTORS
330
EF7C89BFA
102
}
330
EF7C89BFA
100
AcDbXrecord
 10
0.0
 20
0.0
 30
0.0
  0
XRECORD
  5
EF7C89C12
102
{ACAD_REACTORS
330
EF7C89BFA
102
}
330
EF7C89BFA
100
AcDbXrecord
340
0
  0
XRECORD
  5
EF7C89C13
102
{ACAD_REACTORS
330
EF7C89BFA
102
}
330
EF7C89BFA
100
AcDbXrecord
 70
     0
  0
XRECORD
  5
EF7C89C06
102
{ACAD_REACTORS
330
EF7C89BFA
102
}
330
EF7C89BFA
100
AcDbXrecord
  1
{CB8101F3-2D84-4112-B0B0-F16015B93BB4}
  0
DICTIONARYVAR
  5
EF7C89BF8
102
{ACAD_REACTORS
330
EF7C85DB7
102
}
330
EF7C85DB7
100
DictionaryVariables
280
     0
  1
0
  0
DICTIONARYVAR
  5
EF7C85DB8
102
{ACAD_REACTORS
330
EF7C85DB7
102
}
330
EF7C85DB7
100
DictionaryVariables
280
     0
  1
96
  0
ENDSEC
  0
EOF
