  0
SECTION
  2
HEADER
  9
$ACADVER
  1
AC1014
  9
$ACADMAINTVER
 70
     9
  9
$DWGCODEPAGE
  3
ANSI_932
  9
$INSBASE
 10
0.0
 20
0.0
 30
0.0
  9
$EXTMIN
 10
0.0
 20
0.0
 30
0.0
  9
$EXTMAX
 10
361.999998552
 20
282.9999999999999
 30
0.0
  9
$LIMMIN
 10
0.0
 20
0.0
  9
$LIMMAX
 10
181.0
 20
283.0
  9
$ORTHOMODE
 70
     1
  9
$REGENMODE
 70
     1
  9
$FILLMODE
 70
     1
  9
$QTEXTMODE
 70
     0
  9
$MIRRTEXT
 70
     0
  9
$DRAGMODE
 70
     2
  9
$LTSCALE
 40
5.0
  9
$OSMODE
 70
   167
  9
$ATTMODE
 70
     1
  9
$TEXTSIZE
 40
3.0
  9
$TRACEWID
 40
0.05
  9
$TEXTSTYLE
  7
BIGFONT
  9
$CLAYER
  8
JISSEN
  9
$CELTYPE
  6
BYLAYER
  9
$CECOLOR
 62
   256
  9
$CELTSCALE
 40
1.0
  9
$DELOBJ
 70
     1
  9
$DISPSILH
 70
     0
  9
$DIMSCALE
 40
1.0
  9
$DIMASZ
 40
1.5
  9
$DIMEXO
 40
1.0
  9
$DIMDLI
 40
6.0
  9
$DIMRND
 40
0.0
  9
$DIMDLE
 40
0.0
  9
$DIMEXE
 40
1.0
  9
$DIMTP
 40
0.0
  9
$DIMTM
 40
0.0
  9
$DIMTXT
 40
3.0
  9
$DIMCEN
 40
1.0
  9
$DIMTSZ
 40
0.0
  9
$DIMTOL
 70
     0
  9
$DIMLIM
 70
     0
  9
$DIMTIH
 70
     0
  9
$DIMTOH
 70
     0
  9
$DIMSE1
 70
     0
  9
$DIMSE2
 70
     0
  9
$DIMTAD
 70
     0
  9
$DIMZIN
 70
     8
  9
$DIMBLK
  1
ARROW
  9
$DIMASO
 70
     0
  9
$DIMSHO
 70
     0
  9
$DIMPOST
  1

  9
$DIMAPOST
  1

  9
$DIMALT
 70
     0
  9
$DIMALTD
 70
     2
  9
$DIMALTF
 40
25.4
  9
$DIMLFAC
 40
1.0
  9
$DIMTOFL
 70
     1
  9
$DIMTVP
 40
0.0
  9
$DIMTIX
 70
     0
  9
$DIMSOXD
 70
     0
  9
$DIMSAH
 70
     0
  9
$DIMBLK1
  1
ARROWANG
  9
$DIMBLK2
  1
ARROWANG
  9
$DIMSTYLE
  2
IMAO
  9
$DIMCLRD
 70
     0
  9
$DIMCLRE
 70
     0
  9
$DIMCLRT
 70
     0
  9
$DIMTFAC
 40
1.0
  9
$DIMGAP
 40
0.09
  9
$DIMJUST
 70
     0
  9
$DIMSD1
 70
     0
  9
$DIMSD2
 70
     0
  9
$DIMTOLJ
 70
     1
  9
$DIMTZIN
 70
     8
  9
$DIMALTZ
 70
     8
  9
$DIMALTTZ
 70
     8
  9
$DIMFIT
 70
     5
  9
$DIMUPT
 70
     0
  9
$DIMUNIT
 70
     2
  9
$DIMDEC
 70
     2
  9
$DIMTDEC
 70
     2
  9
$DIMALTU
 70
     2
  9
$DIMALTTD
 70
     2
  9
$DIMTXSTY
  7
BIGFONT
  9
$DIMAUNIT
 70
     0
  9
$LUNITS
 70
     2
  9
$LUPREC
 70
     2
  9
$SKETCHINC
 40
0.1
  9
$FILLETRAD
 40
0.2
  9
$AUNITS
 70
     0
  9
$AUPREC
 70
     2
  9
$MENU
  1
stdr12j
  9
$ELEVATION
 40
0.0
  9
$PELEVATION
 40
0.0
  9
$THICKNESS
 40
0.0
  9
$LIMCHECK
 70
     0
  9
$BLIPMODE
 70
     0
  9
$CHAMFERA
 40
0.0
  9
$CHAMFERB
 40
0.0
  9
$CHAMFERC
 40
0.0
  9
$CHAMFERD
 40
0.0
  9
$SKPOLY
 70
     0
  9
$TDCREATE
 40
2450617.453041203
  9
$TDUPDATE
 40
2453334.772960891
  9
$TDINDWG
 40
0.1829525579
  9
$TDUSRTIMER
 40
0.1829525579
  9
$USRTIMER
 70
     1
  9
$ANGBASE
 50
0.0
  9
$ANGDIR
 70
     0
  9
$PDMODE
 70
     0
  9
$PDSIZE
 40
0.0
  9
$PLINEWID
 40
0.0
  9
$COORDS
 70
     2
  9
$SPLFRAME
 70
     0
  9
$SPLINETYPE
 70
     6
  9
$SPLINESEGS
 70
     8
  9
$ATTDIA
 70
     0
  9
$ATTREQ
 70
     1
  9
$HANDLING
 70
 22529
  9
$HANDSEED
  5
EF7C89C5A
  9
$SURFTAB1
 70
     6
  9
$SURFTAB2
 70
     6
  9
$SURFTYPE
 70
     6
  9
$SURFU
 70
     6
  9
$SURFV
 70
     6
  9
$UCSNAME
  2

  9
$UCSORG
 10
0.0
 20
0.0
 30
0.0
  9
$UCSXDIR
 10
1.0
 20
0.0
 30
0.0
  9
$UCSYDIR
 10
0.0
 20
1.0
 30
0.0
  9
$PUCSNAME
  2

  9
$PUCSORG
 10
0.0
 20
0.0
 30
0.0
  9
$PUCSXDIR
 10
1.0
 20
0.0
 30
0.0
  9
$PUCSYDIR
 10
0.0
 20
1.0
 30
0.0
  9
$USERI1
 70
     0
  9
$USERI2
 70
     1
  9
$USERI3
 70
     1
  9
$USERI4
 70
     3
  9
$USERI5
 70
     0
  9
$USERR1
 40
1.0
  9
$USERR2
 40
3.0
  9
$USERR3
 40
3.0
  9
$USERR4
 40
1.5
  9
$USERR5
 40
8.0
  9
$WORLDVIEW
 70
     1
  9
$SHADEDGE
 70
     3
  9
$SHADEDIF
 70
    70
  9
$TILEMODE
 70
     1
  9
$MAXACTVP
 70
    16
  9
$PINSBASE
 10
0.0
 20
0.0
 30
0.0
  9
$PLIMCHECK
 70
     0
  9
$PEXTMIN
 10
1.000000000000000E+20
 20
1.000000000000000E+20
 30
1.000000000000000E+20
  9
$PEXTMAX
 10
-1.000000000000000E+20
 20
-1.000000000000000E+20
 30
-1.000000000000000E+20
  9
$PLIMMIN
 10
0.0
 20
0.0
  9
$PLIMMAX
 10
12.0
 20
9.0
  9
$UNITMODE
 70
     0
  9
$VISRETAIN
 70
     0
  9
$PLINEGEN
 70
     0
  9
$PSLTSCALE
 70
     0
  9
$TREEDEPTH
 70
  3020
  9
$PICKSTYLE
 70
     1
  9
$CMLSTYLE
  2
STANDARD
  9
$CMLJUST
 70
     0
  9
$CMLSCALE
 40
1.0
  9
$PROXYGRAPHICS
 70
     1
  9
$MEASUREMENT
 70
     0
  0
ENDSEC
  0
SECTION
  2
CLASSES
  0
CLASS
  1
LWPOLYLINE
  2
AcDbPolyline
  3
AutoCAD 2000
 90
        0
280
     0
281
     1
  0
CLASS
  1
HATCH
  2
AcDbHatch
  3
AutoCAD 2000
 90
        0
280
     0
281
     1
  0
CLASS
  1
ACDBDICTIONARYWDFLT
  2
AcDbDictionaryWithDefault
  3
AutoCAD 2000
 90
        0
280
     0
281
     0
  0
CLASS
  1
ACDBPLACEHOLDER
  2
AcDbPlaceHolder
  3
AutoCAD 2000
 90
        0
280
     0
281
     0
  0
CLASS
  1
LAYOUT
  2
AcDbLayout
  3
AutoCAD 2000
 90
        0
280
     0
281
     0
  0
CLASS
  1
LONG_TRANSACTION
  2
AcDbLongTransaction
  3
AutoCAD 2000
 90
        0
280
     0
281
     0
  0
CLASS
  1
LWPOLYLINE
  2
AcDbPolyline
  3
AutoCAD 2000
 90
        0
280
     0
281
     1
  0
CLASS
  1
HATCH
  2
AcDbHatch
  3
AutoCAD 2000
 90
        0
280
     0
281
     1
  0
CLASS
  1
XRECORD
  2
AcDbXrecord
  3
AutoCAD 2000
 90
        0
280
     0
281
     0
  0
CLASS
  1
DICTIONARYVAR
  2
AcDbDictionaryVar
  3
AutoCAD 2000
 90
        0
280
     0
281
     0
  0
CLASS
  1
LONG_TRANSACTION
  2
AcDbLongTransaction
  3
AutoCAD 2000
 90
        0
280
     0
281
     0
  0
CLASS
  1
LWPOLYLINE
  2
AcDbPolyline
  3
AutoCAD 2000
 90
        0
280
     0
281
     1
  0
CLASS
  1
HATCH
  2
AcDbHatch
  3
AutoCAD 2000
 90
        0
280
     0
281
     1
  0
CLASS
  1
XRECORD
  2
AcDbXrecord
  3
AutoCAD 2000
 90
        0
280
     0
281
     0
  0
CLASS
  1
LONG_TRANSACTION
  2
AcDbLongTransaction
  3
AutoCAD 2000
 90
        0
280
     0
281
     0
  0
CLASS
  1
LWPOLYLINE
  2
AcDbPolyline
  3
AutoCAD 2000
 90
        0
280
     0
281
     1
  0
CLASS
  1
HATCH
  2
AcDbHatch
  3
AutoCAD 2000
 90
        0
280
     0
281
     1
  0
CLASS
  1
XRECORD
  2
AcDbXrecord
  3
AutoCAD 2000
 90
        0
280
     0
281
     0
  0
CLASS
  1
LONG_TRANSACTION
  2
AcDbLongTransaction
  3
AutoCAD 2000
 90
        0
280
     0
281
     0
  0
CLASS
  1
LWPOLYLINE
  2
AcDbPolyline
  3
AutoCAD 2000
 90
        0
280
     0
281
     1
  0
CLASS
  1
HATCH
  2
AcDbHatch
  3
AutoCAD 2000
 90
        0
280
     0
281
     1
  0
CLASS
  1
XRECORD
  2
AcDbXrecord
  3
AutoCAD 2000
 90
        0
280
     0
281
     0
  0
CLASS
  1
LONG_TRANSACTION
  2
AcDbLongTransaction
  3
AutoCAD 2000
 90
        0
280
     0
281
     0
  0
CLASS
  1
LWPOLYLINE
  2
AcDbPolyline
  3
AutoCAD 2000
 90
        0
280
     0
281
     1
  0
CLASS
  1
HATCH
  2
AcDbHatch
  3
AutoCAD 2000
 90
        0
280
     0
281
     1
  0
CLASS
  1
XRECORD
  2
AcDbXrecord
  3
AutoCAD 2000
 90
        0
280
     0
281
     0
  0
CLASS
  1
LONG_TRANSACTION
  2
AcDbLongTransaction
  3
AutoCAD 2000
 90
        0
280
     0
281
     0
  0
CLASS
  1
LWPOLYLINE
  2
AcDbPolyline
  3
AutoCAD 2000
 90
        0
280
     0
281
     1
  0
CLASS
  1
HATCH
  2
AcDbHatch
  3
AutoCAD 2000
 90
        0
280
     0
281
     1
  0
CLASS
  1
XRECORD
  2
AcDbXrecord
  3
AutoCAD 2000
 90
        0
280
     0
281
     0
  0
CLASS
  1
LONG_TRANSACTION
  2
AcDbLongTransaction
  3
AutoCAD 2000
 90
        0
280
     0
281
     0
  0
CLASS
  1
LWPOLYLINE
  2
AcDbPolyline
  3
AutoCAD 2000
 90
        0
280
     0
281
     1
  0
CLASS
  1
HATCH
  2
AcDbHatch
  3
AutoCAD 2000
 90
        0
280
     0
281
     1
  0
CLASS
  1
XRECORD
  2
AcDbXrecord
  3
AutoCAD 2000
 90
        0
280
     0
281
     0
  0
CLASS
  1
LONG_TRANSACTION
  2
AcDbLongTransaction
  3
AutoCAD 2000
 90
        0
280
     0
281
     0
  0
CLASS
  1
LWPOLYLINE
  2
AcDbPolyline
  3
AutoCAD 2000
 90
        0
280
     0
281
     1
  0
CLASS
  1
HATCH
  2
AcDbHatch
  3
AutoCAD 2000
 90
        0
280
     0
281
     1
  0
CLASS
  1
XRECORD
  2
AcDbXrecord
  3
AutoCAD 2000
 90
        0
280
     0
281
     0
  0
CLASS
  1
LONG_TRANSACTION
  2
AcDbLongTransaction
  3
AutoCAD 2000
 90
        0
280
     0
281
     0
  0
CLASS
  1
LWPOLYLINE
  2
AcDbPolyline
  3
AutoCAD 2000
 90
        0
280
     0
281
     1
  0
CLASS
  1
HATCH
  2
AcDbHatch
  3
AutoCAD 2000
 90
        0
280
     0
281
     1
  0
CLASS
  1
XRECORD
  2
AcDbXrecord
  3
AutoCAD 2000
 90
        0
280
     0
281
     0
  0
CLASS
  1
LONG_TRANSACTION
  2
AcDbLongTransaction
  3
AutoCAD 2000
 90
        0
280
     0
281
     0
  0
CLASS
  1
LWPOLYLINE
  2
AcDbPolyline
  3
AutoCAD 2000
 90
        0
280
     0
281
     1
  0
CLASS
  1
HATCH
  2
AcDbHatch
  3
AutoCAD 2000
 90
        0
280
     0
281
     1
  0
CLASS
  1
XRECORD
  2
AcDbXrecord
  3
AutoCAD 2000
 90
        0
280
     0
281
     0
  0
CLASS
  1
LONG_TRANSACTION
  2
AcDbLongTransaction
  3
AutoCAD 2000
 90
        0
280
     0
281
     0
  0
CLASS
  1
LWPOLYLINE
  2
AcDbPolyline
  3
AutoCAD 2000
 90
        0
280
     0
281
     1
  0
CLASS
  1
HATCH
  2
AcDbHatch
  3
AutoCAD 2000
 90
        0
280
     0
281
     1
  0
CLASS
  1
XRECORD
  2
AcDbXrecord
  3
AutoCAD 2000
 90
        0
280
     0
281
     0
  0
CLASS
  1
LONG_TRANSACTION
  2
AcDbLongTransaction
  3
AutoCAD 2000
 90
        0
280
     0
281
     0
  0
CLASS
  1
LWPOLYLINE
  2
AcDbPolyline
  3
AutoCAD 2000
 90
        0
280
     0
281
     1
  0
CLASS
  1
HATCH
  2
AcDbHatch
  3
AutoCAD 2000
 90
        0
280
     0
281
     1
  0
CLASS
  1
XRECORD
  2
AcDbXrecord
  3
AutoCAD 2000
 90
        0
280
     0
281
     0
  0
CLASS
  1
LONG_TRANSACTION
  2
AcDbLongTransaction
  3
AutoCAD 2000
 90
        0
280
     0
281
     0
  0
CLASS
  1
LWPOLYLINE
  2
AcDbPolyline
  3
AutoCAD 2000
 90
        0
280
     0
281
     1
  0
CLASS
  1
HATCH
  2
AcDbHatch
  3
AutoCAD 2000
 90
        0
280
     0
281
     1
  0
CLASS
  1
XRECORD
  2
AcDbXrecord
  3
AutoCAD 2000
 90
        0
280
     0
281
     0
  0
CLASS
  1
LONG_TRANSACTION
  2
AcDbLongTransaction
  3
AutoCAD 2000
 90
        0
280
     0
281
     0
  0
CLASS
  1
LWPOLYLINE
  2
AcDbPolyline
  3
AutoCAD 2000
 90
        0
280
     0
281
     1
  0
CLASS
  1
HATCH
  2
AcDbHatch
  3
AutoCAD 2000
 90
        0
280
     0
281
     1
  0
CLASS
  1
XRECORD
  2
AcDbXrecord
  3
AutoCAD 2000
 90
        0
280
     0
281
     0
  0
CLASS
  1
LONG_TRANSACTION
  2
AcDbLongTransaction
  3
AutoCAD 2000
 90
        0
280
     0
281
     0
  0
CLASS
  1
LWPOLYLINE
  2
AcDbPolyline
  3
AutoCAD 2000
 90
        0
280
     0
281
     1
  0
CLASS
  1
HATCH
  2
AcDbHatch
  3
AutoCAD 2000
 90
        0
280
     0
281
     1
  0
CLASS
  1
XRECORD
  2
AcDbXrecord
  3
AutoCAD 2000
 90
        0
280
     0
281
     0
  0
CLASS
  1
LONG_TRANSACTION
  2
AcDbLongTransaction
  3
AutoCAD 2000
 90
        0
280
     0
281
     0
  0
CLASS
  1
LWPOLYLINE
  2
AcDbPolyline
  3
AutoCAD 2000
 90
        0
280
     0
281
     1
  0
CLASS
  1
HATCH
  2
AcDbHatch
  3
AutoCAD 2000
 90
        0
280
     0
281
     1
  0
CLASS
  1
XRECORD
  2
AcDbXrecord
  3
AutoCAD 2000
 90
        0
280
     0
281
     0
  0
CLASS
  1
LONG_TRANSACTION
  2
AcDbLongTransaction
  3
AutoCAD 2000
 90
        0
280
     0
281
     0
  0
CLASS
  1
LWPOLYLINE
  2
AcDbPolyline
  3
AutoCAD 2000
 90
        0
280
     0
281
     1
  0
CLASS
  1
HATCH
  2
AcDbHatch
  3
AutoCAD 2000
 90
        0
280
     0
281
     1
  0
CLASS
  1
XRECORD
  2
AcDbXrecord
  3
AutoCAD 2000
 90
        0
280
     0
281
     0
  0
CLASS
  1
LONG_TRANSACTION
  2
AcDbLongTransaction
  3
AutoCAD 2000
 90
        0
280
     0
281
     0
  0
CLASS
  1
LWPOLYLINE
  2
AcDbPolyline
  3
AutoCAD 2000
 90
        0
280
     0
281
     1
  0
CLASS
  1
HATCH
  2
AcDbHatch
  3
AutoCAD 2000
 90
        0
280
     0
281
     1
  0
CLASS
  1
XRECORD
  2
AcDbXrecord
  3
AutoCAD 2000
 90
        0
280
     0
281
     0
  0
ENDSEC
  0
SECTION
  2
TABLES
  0
TABLE
  2
VPORT
  5
EF7C85523
330
0
100
AcDbSymbolTable
 70
    10
  0
VPORT
  5
EF7C85567
330
EF7C85523
100
AcDbSymbolTableRecord
100
AcDbViewportTableRecord
  2
2
 70
     0
 10
0.5
 20
0.0
 11
1.0
 21
1.0
 12
0.9240312421264802
 22
1.052650975462766
 13
0.0
 23
0.0
 14
1.0
 24
1.0
 15
10.0
 25
10.0
 16
0.0
 26
0.0
 36
1.0
 17
0.0
 27
0.0
 37
0.0
 40
2.105301950925533
 41
0.8778135048231511
 42
50.0
 43
0.0
 44
0.0
 50
0.0
 51
0.0
 71
     0
 72
   500
 73
     1
 74
     1
 75
     0
 76
     0
 77
     0
 78
     0
  0
VPORT
  5
EF7C85568
330
EF7C85523
100
AcDbSymbolTableRecord
100
AcDbViewportTableRecord
  2
2
 70
     0
 10
0.0
 20
0.0
 11
0.5
 21
1.0
 12
0.9240312421264802
 22
1.052650975462766
 13
0.0
 23
0.0
 14
1.0
 24
1.0
 15
10.0
 25
10.0
 16
0.0
 26
0.0
 36
1.0
 17
0.0
 27
0.0
 37
0.0
 40
2.105301950925533
 41
0.8778135048231511
 42
50.0
 43
0.0
 44
0.0
 50
0.0
 51
0.0
 71
     0
 72
   500
 73
     1
 74
     1
 75
     0
 76
     0
 77
     0
 78
     0
  0
VPORT
  5
EF7C85569
330
EF7C85523
100
AcDbSymbolTableRecord
100
AcDbViewportTableRecord
  2
3
 70
     0
 10
0.0
 20
0.5
 11
1.0
 21
1.0
 12
2.832169994473273
 22
1.052650975462766
 13
0.0
 23
0.0
 14
1.0
 24
1.0
 15
10.0
 25
10.0
 16
0.0
 26
0.0
 36
1.0
 17
0.0
 27
0.0
 37
0.0
 40
2.105301950925533
 41
3.571428571428571
 42
50.0
 43
0.0
 44
0.0
 50
0.0
 51
0.0
 71
     0
 72
   500
 73
     1
 74
     1
 75
     0
 76
     0
 77
     0
 78
     0
  0
VPORT
  5
EF7C8556A
330
EF7C85523
100
AcDbSymbolTableRecord
100
AcDbViewportTableRecord
  2
3
 70
     0
 10
0.0
 20
0.0
 11
1.0
 21
0.5
 12
2.856741679241311
 22
1.052650975462766
 13
0.0
 23
0.0
 14
1.0
 24
1.0
 15
10.0
 25
10.0
 16
0.0
 26
0.0
 36
1.0
 17
0.0
 27
0.0
 37
0.0
 40
2.105301950925533
 41
3.594771241830065
 42
50.0
 43
0.0
 44
0.0
 50
0.0
 51
0.0
 71
     0
 72
   500
 73
     1
 74
     1
 75
     0
 76
     0
 77
     0
 78
     0
  0
VPORT
  5
EF7C8556B
330
EF7C85523
100
AcDbSymbolTableRecord
100
AcDbViewportTableRecord
  2
4
 70
     0
 10
0.5
 20
0.0
 11
1.0
 21
0.5
 12
2.886857516709719
 22
1.052650975462766
 13
0.0
 23
0.0
 14
1.0
 24
1.0
 15
10.0
 25
10.0
 16
0.0
 26
0.0
 36
1.0
 17
0.0
 27
0.0
 37
0.0
 40
4.27520703030907
 41
1.784313725490195
 42
50.0
 43
0.0
 44
0.0
 50
0.0
 51
0.0
 71
     0
 72
   500
 73
     1
 74
     1
 75
     0
 76
     0
 77
     0
 78
     0
  0
VPORT
  5
EF7C8556C
330
EF7C85523
100
AcDbSymbolTableRecord
100
AcDbViewportTableRecord
  2
4
 70
     0
 10
0.5
 20
0.5
 11
1.0
 21
1.0
 12
2.862090274555523
 22
1.052650975462766
 13
0.0
 23
0.0
 14
1.0
 24
1.0
 15
10.0
 25
10.0
 16
0.0
 26
0.0
 36
1.0
 17
0.0
 27
0.0
 37
0.0
 40
4.27520703030907
 41
1.772727272727272
 42
50.0
 43
0.0
 44
0.0
 50
0.0
 51
0.0
 71
     0
 72
   500
 73
     1
 74
     1
 75
     0
 76
     0
 77
     0
 78
     0
  0
VPORT
  5
EF7C8556D
330
EF7C85523
100
AcDbSymbolTableRecord
100
AcDbViewportTableRecord
  2
4
 70
     0
 10
0.0
 20
0.5
 11
0.5
 21
1.0
 12
2.862090274555523
 22
1.052650975462766
 13
0.0
 23
0.0
 14
1.0
 24
1.0
 15
10.0
 25
10.0
 16
0.0
 26
0.0
 36
1.0
 17
0.0
 27
0.0
 37
0.0
 40
4.27520703030907
 41
1.772727272727272
 42
50.0
 43
0.0
 44
0.0
 50
0.0
 51
0.0
 71
     0
 72
   500
 73
     1
 74
     1
 75
     0
 76
     0
 77
     0
 78
     0
  0
VPORT
  5
EF7C8556E
330
EF7C85523
100
AcDbSymbolTableRecord
100
AcDbViewportTableRecord
  2
4
 70
     0
 10
0.0
 20
0.0
 11
0.5
 21
0.5
 12
2.886857516709719
 22
1.052650975462766
 13
0.0
 23
0.0
 14
1.0
 24
1.0
 15
10.0
 25
10.0
 16
0.0
 26
0.0
 36
1.0
 17
0.0
 27
0.0
 37
0.0
 40
4.27520703030907
 41
1.784313725490195
 42
50.0
 43
0.0
 44
0.0
 50
0.0
 51
0.0
 71
     0
 72
   500
 73
     1
 74
     1
 75
     0
 76
     0
 77
     0
 78
     0
  0
VPORT
  5
EF7C89C36
330
EF7C85523
100
AcDbSymbolTableRecord
100
AcDbViewportTableRecord
  2
*ACTIVE
 70
     0
 10
0.0
 20
0.0
 11
1.0
 21
1.0
 12
262.8523170145464
 22
141.5036035315359
 13
0.0
 23
0.0
 14
1.0
 24
1.0
 15
10.0
 25
10.0
 16
0.0
 26
0.0
 36
1.0
 17
0.0
 27
0.0
 37
0.0
 40
286.2638397352773
 41
1.771962616822429
 42
50.0
 43
0.0
 44
0.0
 50
0.0
 51
0.0
 71
     0
 72
   500
 73
     1
 74
     0
 75
     0
 76
     0
 77
     0
 78
     0
  0
ENDTAB
  0
TABLE
  2
LTYPE
  5
EF7C85520
330
0
100
AcDbSymbolTable
 70
     2
  0
LTYPE
  5
EF7C8552C
330
EF7C85520
100
AcDbSymbolTableRecord
100
AcDbLinetypeTableRecord
  2
BYBLOCK
 70
     0
  3

 72
    65
 73
     0
 40
0.0
  0
LTYPE
  5
EF7C8552D
330
EF7C85520
100
AcDbSymbolTableRecord
100
AcDbLinetypeTableRecord
  2
BYLAYER
 70
     0
  3

 72
    65
 73
     0
 40
0.0
  0
LTYPE
  5
EF7C8552E
330
EF7C85520
100
AcDbSymbolTableRecord
100
AcDbLinetypeTableRecord
  2
CONTINUOUS
 70
     0
  3
実線
 72
    65
 73
     0
 40
0.0
  0
LTYPE
  5
EF7C85565
330
EF7C85520
100
AcDbSymbolTableRecord
100
AcDbLinetypeTableRecord
  2
PHANTOM
 70
     0
  3
_____ _ _ _____ _ _ _____ _ _ _____ _ _ ____
 72
    65
 73
     6
 40
2.5
 49
1.25
 74
     0
 49
-0.25
 74
     0
 49
0.25
 74
     0
 49
-0.25
 74
     0
 49
0.25
 74
     0
 49
-0.25
 74
     0
  0
ENDTAB
  0
TABLE
  2
LAYER
  5
EF7C8551D
330
0
100
AcDbSymbolTable
 70
     8
  0
LAYER
  5
EF7C85529
330
EF7C8551D
100
AcDbSymbolTableRecord
100
AcDbLayerTableRecord
  2
0
 70
     0
 62
     6
  6
CONTINUOUS
  0
LAYER
  5
EF7C85574
330
EF7C8551D
100
AcDbSymbolTableRecord
100
AcDbLayerTableRecord
  2
NITEN
 70
     0
 62
     2
  6
PHANTOM
  0
LAYER
  5
EF7C85575
330
EF7C8551D
100
AcDbSymbolTableRecord
100
AcDbLayerTableRecord
  2
HATCH
 70
     0
 62
     4
  6
CONTINUOUS
  0
LAYER
  5
EF7C85576
330
EF7C8551D
100
AcDbSymbolTableRecord
100
AcDbLayerTableRecord
  2
SUNPOU
 70
     0
 62
     3
  6
CONTINUOUS
  0
LAYER
  5
EF7C85577
330
EF7C8551D
100
AcDbSymbolTableRecord
100
AcDbLayerTableRecord
  2
TEXT
 70
     0
 62
     3
  6
CONTINUOUS
  0
LAYER
  5
EF7C85578
330
EF7C8551D
100
AcDbSymbolTableRecord
100
AcDbLayerTableRecord
  2
SAISEN
 70
     0
 62
     4
  6
CONTINUOUS
  0
LAYER
  5
EF7C85579
330
EF7C8551D
100
AcDbSymbolTableRecord
100
AcDbLayerTableRecord
  2
JISSEN
 70
     0
 62
     7
  6
CONTINUOUS
  0
LAYER
  5
EF7C8557D
330
EF7C8551D
100
AcDbSymbolTableRecord
100
AcDbLayerTableRecord
  2
WAKU
 70
     0
 62
     5
  6
CONTINUOUS
  0
ENDTAB
  0
TABLE
  2
STYLE
  5
EF7C8551E
330
0
100
AcDbSymbolTable
 70
     3
  0
STYLE
  5
EF7C8552A
330
EF7C8551E
100
AcDbSymbolTableRecord
100
AcDbTextStyleTableRecord
  2
STANDARD
 70
     0
 40
0.0
 41
1.0
 50
0.0
 71
     0
 42
1.5
  3
SIMPLEX
  4

  0
STYLE
  5
EF7C85558
330
EF7C8551E
100
AcDbSymbolTableRecord
100
AcDbTextStyleTableRecord
  2
K
 70
     0
 40
0.0
 41
1.0
 50
0.0
 71
     0
 42
3.0
  3
ROMANS
  4
BIGFONT
  0
STYLE
  5
EF7C8555B
330
EF7C8551E
100
AcDbSymbolTableRecord
100
AcDbTextStyleTableRecord
  2
BIGFONT
 70
     0
 40
0.0
 41
1.0
 50
0.0
 71
     0
 42
3.0
  3
txt.shx
  4
bigfont
  0
ENDTAB
  0
TABLE
  2
VIEW
  5
EF7C85521
330
0
100
AcDbSymbolTable
 70
     0
  0
ENDTAB
  0
TABLE
  2
UCS
  5
EF7C85522
330
0
100
AcDbSymbolTable
 70
     0
  0
ENDTAB
  0
TABLE
  2
APPID
  5
EF7C85524
330
0
100
AcDbSymbolTable
 70
     1
  0
APPID
  5
EF7C8552B
330
EF7C85524
100
AcDbSymbolTableRecord
100
AcDbRegAppTableRecord
  2
ACAD
 70
     0
  0
ENDTAB
  0
TABLE
  2
DIMSTYLE
  5
EF7C85525
330
0
100
AcDbSymbolTable
 70
     1
  0
DIMSTYLE
105
EF7C85571
330
EF7C85525
100
AcDbSymbolTableRecord
100
AcDbDimStyleTableRecord
  2
IMAO
 70
     0
  3

  4

  5
ARROWANG
  6
ARROWANG
  7
ARROWANG
 40
1.0
 41
1.5
 42
1.0
 43
6.0
 44
1.0
 45
0.0
 46
0.0
 47
495.0
 48
0.0
140
3.0
141
0.0
142
0.0
143
25.4
144
1.0
145
0.0
146
1.0
147
0.09
 71
     0
 72
     0
 73
     0
 74
     0
 75
     0
 76
     0
 77
     1
 78
     8
170
     0
171
     2
172
     1
173
     0
174
     1
175
     0
176
     0
177
     0
178
     0
270
     2
271
     2
272
     2
273
     2
274
     2
340
EF7C8555B
275
     0
280
     0
281
     0
282
     0
283
     1
284
     8
285
     8
286
     8
287
     5
288
     0
  0
ENDTAB
  0
TABLE
  2
BLOCK_RECORD
  5
EF7C8551C
330
0
100
AcDbSymbolTable
 70
    10
  0
BLOCK_RECORD
  5
EF7C85532
102
{ACAD_XDICTIONARY
360
EF7C85D9A
102
}
330
EF7C8551C
100
AcDbSymbolTableRecord
100
AcDbBlockTableRecord
  2
*MODEL_SPACE
  0
BLOCK_RECORD
  5
EF7C8552F
102
{ACAD_XDICTIONARY
360
EF7C85D98
102
}
330
EF7C8551C
100
AcDbSymbolTableRecord
100
AcDbBlockTableRecord
  2
*PAPER_SPACE
  0
BLOCK_RECORD
  5
EF7C85537
330
EF7C8551C
100
AcDbSymbolTableRecord
100
AcDbBlockTableRecord
  2
ARROW
  0
BLOCK_RECORD
  5
EF7C8553B
330
EF7C8551C
100
AcDbSymbolTableRecord
100
AcDbBlockTableRecord
  2
WAKU
  0
BLOCK_RECORD
  5
EF7C8553D
330
EF7C8551C
100
AcDbSymbolTableRecord
100
AcDbBlockTableRecord
  2
*X2
  0
BLOCK_RECORD
  5
EF7C8553E
330
EF7C8551C
100
AcDbSymbolTableRecord
100
AcDbBlockTableRecord
  2
STDGX5
  0
BLOCK_RECORD
  5
EF7C8553F
330
EF7C8551C
100
AcDbSymbolTableRecord
100
AcDbBlockTableRecord
  2
*X4
  0
BLOCK_RECORD
  5
EF7C85540
330
EF7C8551C
100
AcDbSymbolTableRecord
100
AcDbBlockTableRecord
  2
*X5
  0
BLOCK_RECORD
  5
EF7C85541
330
EF7C8551C
100
AcDbSymbolTableRecord
100
AcDbBlockTableRecord
  2
*X6
  0
BLOCK_RECORD
  5
EF7C85542
330
EF7C8551C
100
AcDbSymbolTableRecord
100
AcDbBlockTableRecord
  2
*X7
  0
BLOCK_RECORD
  5
EF7C85543
330
EF7C8551C
100
AcDbSymbolTableRecord
100
AcDbBlockTableRecord
  2
ARROWANG
  0
BLOCK_RECORD
  5
EF7C85544
330
EF7C8551C
100
AcDbSymbolTableRecord
100
AcDbBlockTableRecord
  2
STDR12J
  0
ENDTAB
  0
ENDSEC
  0
SECTION
  2
BLOCKS
  0
BLOCK
  5
EF7C85580
330
EF7C85532
100
AcDbEntity
  8
0
100
AcDbBlockBegin
  2
*MODEL_SPACE
 70
     0
 10
0.0
 20
0.0
 30
0.0
  3
*MODEL_SPACE
  1

  0
ENDBLK
  5
EF7C85581
330
EF7C85532
100
AcDbEntity
  8
0
100
AcDbBlockEnd
  0
BLOCK
  5
EF7C8557E
330
EF7C8552F
100
AcDbEntity
 67
     1
  8
0
100
AcDbBlockBegin
  2
*PAPER_SPACE
 70
     0
 10
0.0
 20
0.0
 30
0.0
  3
*PAPER_SPACE
  1

  0
ENDBLK
  5
EF7C8557F
330
EF7C8552F
100
AcDbEntity
 67
     1
  8
0
100
AcDbBlockEnd
  0
BLOCK
  5
499
330
EF7C85537
100
AcDbEntity
  8
0
100
AcDbBlockBegin
  2
ARROW
 70
     0
 10
1.0
 20
0.5
 30
0.0
  3
ARROW
  1

  0
LINE
  5
49A
330
EF7C85537
100
AcDbEntity
  8
0
100
AcDbLine
 10
1.0
 20
0.5
 30
0.0
 11
-0.5000000000000214
 21
0.0980762113533018
 31
0.0
  0
LINE
  5
49B
330
EF7C85537
100
AcDbEntity
  8
0
100
AcDbLine
 10
0.0
 20
0.5
 30
0.0
 11
1.0
 21
0.5
 31
0.0
  0
LINE
  5
49C
330
EF7C85537
100
AcDbEntity
  8
0
100
AcDbLine
 10
1.0
 20
0.5
 30
0.0
 11
-0.4999999999999574
 21
0.9019237886467408
 31
0.0
  0
ENDBLK
  5
49D
330
EF7C85537
100
AcDbEntity
  8
0
100
AcDbBlockEnd
  0
BLOCK
  5
4A7
330
EF7C8553B
100
AcDbEntity
  8
0
100
AcDbBlockBegin
  2
WAKU
 70
     0
 10
0.0
 20
0.0
 30
0.0
  3
WAKU
  1

  0
LINE
  5
4A8
330
EF7C8553B
100
AcDbEntity
  8
WAKU
100
AcDbLine
 10
0.999999996
 20
0.0
 30
0.0
 11
0.999999996
 21
0.9999999999999998
 31
0.0
  0
LINE
  5
4A9
330
EF7C8553B
100
AcDbEntity
  8
WAKU
100
AcDbLine
 10
0.0
 20
0.9999999999999998
 30
0.0
 11
0.999999996
 21
0.9999999999999998
 31
0.0
  0
LINE
  5
4AA
330
EF7C8553B
100
AcDbEntity
  8
WAKU
100
AcDbLine
 10
0.999999996
 20
0.0
 30
0.0
 11
0.0
 21
0.0
 31
0.0
  0
LINE
  5
4AB
330
EF7C8553B
100
AcDbEntity
  8
WAKU
100
AcDbLine
 10
0.0
 20
0.0
 30
0.0
 11
0.0
 21
0.9999999999999998
 31
0.0
  0
ENDBLK
  5
4AC
330
EF7C8553B
100
AcDbEntity
  8
0
100
AcDbBlockEnd
  0
BLOCK
  5
2764
330
EF7C8553D
100
AcDbEntity
  8
0
100
AcDbBlockBegin
  2
*X2
 70
     1
 10
0.0
 20
0.0
 30
0.0
  3
*X2
  1

  0
ENDBLK
  5
2765
330
EF7C8553D
100
AcDbEntity
  8
0
100
AcDbBlockEnd
  0
BLOCK
  5
2766
330
EF7C8553E
100
AcDbEntity
  8
0
100
AcDbBlockBegin
  2
STDGX5
 70
     0
 10
0.0
 20
0.0
 30
0.0
  3
STDGX5
  1

  0
ENDBLK
  5
2767
330
EF7C8553E
100
AcDbEntity
  8
0
100
AcDbBlockEnd
  0
BLOCK
  5
2F5A
330
EF7C8553F
100
AcDbEntity
  8
0
100
AcDbBlockBegin
  2
*X4
 70
     1
 10
0.0
 20
0.0
 30
0.0
  3
*X4
  1

  0
ENDBLK
  5
2F5B
330
EF7C8553F
100
AcDbEntity
  8
0
100
AcDbBlockEnd
  0
BLOCK
  5
32BB
330
EF7C85540
100
AcDbEntity
  8
0
100
AcDbBlockBegin
  2
*X5
 70
     1
 10
0.0
 20
0.0
 30
0.0
  3
*X5
  1

  0
ENDBLK
  5
32BC
330
EF7C85540
100
AcDbEntity
  8
0
100
AcDbBlockEnd
  0
BLOCK
  5
372F
330
EF7C85541
100
AcDbEntity
  8
0
100
AcDbBlockBegin
  2
*X6
 70
     1
 10
0.0
 20
0.0
 30
0.0
  3
*X6
  1

  0
ENDBLK
  5
3730
330
EF7C85541
100
AcDbEntity
  8
0
100
AcDbBlockEnd
  0
BLOCK
  5
3A6D
330
EF7C85542
100
AcDbEntity
  8
0
100
AcDbBlockBegin
  2
*X7
 70
     1
 10
0.0
 20
0.0
 30
0.0
  3
*X7
  1

  0
ENDBLK
  5
3A6E
330
EF7C85542
100
AcDbEntity
  8
0
100
AcDbBlockEnd
  0
BLOCK
  5
4CC9
330
EF7C85543
100
AcDbEntity
  8
0
100
AcDbBlockBegin
  2
ARROWANG
 70
     0
 10
0.0
 20
0.0
 30
0.0
  3
ARROWANG
  1

  0
LINE
  5
4CCA
330
EF7C85543
100
AcDbEntity
  8
SUNPOU
100
AcDbLine
 10
0.0
 20
0.0
 30
0.0
 11
-1.499999999999957
 21
0.4019237886467409
 31
0.0
  0
LINE
  5
4CCB
330
EF7C85543
100
AcDbEntity
  8
SUNPOU
100
AcDbLine
 10
0.0
 20
0.0
 30
0.0
 11
-1.500000000000028
 21
-0.4019237886467124
 31
0.0
  0
ENDBLK
  5
4CCC
330
EF7C85543
100
AcDbEntity
  8
0
100
AcDbBlockEnd
  0
BLOCK
  5
4CCD
330
EF7C85544
100
AcDbEntity
  8
0
100
AcDbBlockBegin
  2
STDR12J
 70
     0
 10
0.0
 20
0.0
 30
0.0
  3
STDR12J
  1

  0
ENDBLK
  5
4CF2
330
EF7C85544
100
AcDbEntity
  8
0
100
AcDbBlockEnd
  0
ENDSEC
  0
SECTION
  2
ENTITIES
  0
TEXT
  5
1
330
EF7C85532
100
AcDbEntity
  8
SUNPOU
100
AcDbText
 10
95.05869565217389
 20
43.7966872748706
 30
0.0
 40
1.5
  1
                          
100
AcDbText
  0
TEXT
  5
2
330
EF7C85532
100
AcDbEntity
  8
SUNPOU
100
AcDbText
 10
332.2793466870868
 20
21.8983436374353
 30
0.0
 40
0.75
  1
                          
100
AcDbText
  0
TEXT
  5
1A
330
EF7C85532
100
AcDbEntity
  8
SUNPOU
100
AcDbText
 10
289.9834441000535
 20
43.7966872748706
 30
0.0
 40
1.5
  1
                          
100
AcDbText
  0
TEXT
  5
1B
330
EF7C85532
100
AcDbEntity
  8
SUNPOU
100
AcDbText
 10
527.2040951349665
 20
21.8983436374353
 30
0.0
 40
0.75
  1
                          
100
AcDbText
  0
TEXT
  5
1C
330
EF7C85532
100
AcDbEntity
  8
SUNPOU
100
AcDbText
 10
490.6272568090836
 20
43.79668727487057
 30
0.0
 40
1.5
  1
                          
100
AcDbText
  0
TEXT
  5
1D
330
EF7C85532
100
AcDbEntity
  8
SUNPOU
100
AcDbText
 10
727.8479078439966
 20
21.89834363743527
 30
0.0
 40
0.75
  1
                          
100
AcDbText
  0
INSERT
  5
1E
330
EF7C85532
100
AcDbEntity
  8
HATCH
100
AcDbBlockReference
  2
*X2
 10
194.9247484478796
 20
0.0
 30
0.0
  0
TEXT
  5
1F
330
EF7C85532
100
AcDbEntity
  8
SUNPOU
100
AcDbText
 10
493.0101992368964
 20
43.7966872748706
 30
0.0
 40
1.5
  1
                          
100
AcDbText
  0
TEXT
  5
20
330
EF7C85532
100
AcDbEntity
  8
SUNPOU
100
AcDbText
 10
730.2308502718094
 20
21.8983436374353
 30
0.0
 40
0.75
  1
                          
100
AcDbText
  0
TEXT
  5
21
330
EF7C85532
100
AcDbEntity
  8
SUNPOU
100
AcDbText
 10
482.0486607753579
 20
43.7966872748706
 30
0.0
 40
1.5
  1
                          
100
AcDbText
  0
TEXT
  5
22
330
EF7C85532
100
AcDbEntity
  8
SUNPOU
100
AcDbText
 10
719.269311810271
 20
21.8983436374353
 30
0.0
 40
0.75
  1
                          
100
AcDbText
  0
INSERT
  5
25
330
EF7C85532
100
AcDbEntity
  8
JISSEN
100
AcDbBlockReference
  2
STDGX5
 10
0.0
 20
0.0
 30
0.0
  0
TEXT
  5
60
330
EF7C85532
100
AcDbEntity
  8
SUNPOU
100
AcDbText
 10
274.0586949361738
 20
43.7966872748706
 30
0.0
 40
1.5
  1
                          
100
AcDbText
  0
TEXT
  5
61
330
EF7C85532
100
AcDbEntity
  8
SUNPOU
100
AcDbText
 10
511.2793459710869
 20
21.8983436374353
 30
0.0
 40
0.75
  1
                          
100
AcDbText
  0
TEXT
  5
62
330
EF7C85532
100
AcDbEntity
  8
SUNPOU
100
AcDbText
 10
474.702507645204
 20
43.79668727487057
 30
0.0
 40
1.5
  1
                          
100
AcDbText
  0
TEXT
  5
63
330
EF7C85532
100
AcDbEntity
  8
SUNPOU
100
AcDbText
 10
711.923158680117
 20
21.89834363743527
 30
0.0
 40
0.75
  1
                          
100
AcDbText
  0
INSERT
  5
64
330
EF7C85532
100
AcDbEntity
  8
HATCH
100
AcDbBlockReference
  2
*X4
 10
178.999999284
 20
0.0
 30
0.0
  0
TEXT
  5
65
330
EF7C85532
100
AcDbEntity
  8
SUNPOU
100
AcDbText
 10
477.0854500730167
 20
43.7966872748706
 30
0.0
 40
1.5
  1
                          
100
AcDbText
  0
TEXT
  5
66
330
EF7C85532
100
AcDbEntity
  8
SUNPOU
100
AcDbText
 10
714.3061011079298
 20
21.8983436374353
 30
0.0
 40
0.75
  1
                          
100
AcDbText
  0
TEXT
  5
67
330
EF7C85532
100
AcDbEntity
  8
SUNPOU
100
AcDbText
 10
466.1239116114783
 20
43.7966872748706
 30
0.0
 40
1.5
  1
                          
100
AcDbText
  0
TEXT
  5
68
330
EF7C85532
100
AcDbEntity
  8
SUNPOU
100
AcDbText
 10
703.3445626463913
 20
21.8983436374353
 30
0.0
 40
0.75
  1
                          
100
AcDbText
  0
INSERT
  5
69
330
EF7C85532
100
AcDbEntity
  8
TEXT
100
AcDbBlockReference
  2
STDGX5
 10
178.999999284
 20
0.0
 30
0.0
  0
TEXT
  5
6A
330
EF7C85532
100
AcDbEntity
  8
SUNPOU
100
AcDbText
 10
453.0586949361739
 20
43.7966872748706
 30
0.0
 40
1.5
  1
                          
100
AcDbText
  0
TEXT
  5
6B
330
EF7C85532
100
AcDbEntity
  8
SUNPOU
100
AcDbText
 10
690.279345971087
 20
21.8983436374353
 30
0.0
 40
0.75
  1
                          
100
AcDbText
  0
TEXT
  5
6C
330
EF7C85532
100
AcDbEntity
  8
SUNPOU
100
AcDbText
 10
647.9834433840535
 20
43.7966872748706
 30
0.0
 40
1.5
  1
                          
100
AcDbText
  0
TEXT
  5
6D
330
EF7C85532
100
AcDbEntity
  8
SUNPOU
100
AcDbText
 10
885.2040944189665
 20
21.8983436374353
 30
0.0
 40
0.75
  1
                          
100
AcDbText
  0
TEXT
  5
6E
330
EF7C85532
100
AcDbEntity
  8
SUNPOU
100
AcDbText
 10
848.6272560930835
 20
43.79668727487057
 30
0.0
 40
1.5
  1
                          
100
AcDbText
  0
TEXT
  5
6F
330
EF7C85532
100
AcDbEntity
  8
SUNPOU
100
AcDbText
 10
1085.847907127996
 20
21.89834363743527
 30
0.0
 40
0.75
  1
                          
100
AcDbText
  0
INSERT
  5
70
330
EF7C85532
100
AcDbEntity
  8
HATCH
100
AcDbBlockReference
  2
*X5
 10
552.9247477318797
 20
0.0
 30
0.0
  0
TEXT
  5
71
330
EF7C85532
100
AcDbEntity
  8
SUNPOU
100
AcDbText
 10
851.0101985208963
 20
43.7966872748706
 30
0.0
 40
1.5
  1
                          
100
AcDbText
  0
TEXT
  5
72
330
EF7C85532
100
AcDbEntity
  8
SUNPOU
100
AcDbText
 10
1088.230849555809
 20
21.8983436374353
 30
0.0
 40
0.75
  1
                          
100
AcDbText
  0
TEXT
  5
73
330
EF7C85532
100
AcDbEntity
  8
SUNPOU
100
AcDbText
 10
840.048660059358
 20
43.7966872748706
 30
0.0
 40
1.5
  1
                          
100
AcDbText
  0
TEXT
  5
74
330
EF7C85532
100
AcDbEntity
  8
SUNPOU
100
AcDbText
 10
1077.269311094271
 20
21.8983436374353
 30
0.0
 40
0.75
  1
                          
100
AcDbText
  0
INSERT
  5
75
330
EF7C85532
100
AcDbEntity
  8
JISSEN
100
AcDbBlockReference
  2
STDGX5
 10
357.999999284
 20
0.0
 30
0.0
  0
TEXT
  5
76
330
EF7C85532
100
AcDbEntity
  8
SUNPOU
100
AcDbText
 10
453.0586949361739
 20
43.7966872748706
 30
0.0
 40
1.5
  1
                          
100
AcDbText
  0
TEXT
  5
77
330
EF7C85532
100
AcDbEntity
  8
SUNPOU
100
AcDbText
 10
690.279345971087
 20
21.8983436374353
 30
0.0
 40
0.75
  1
                          
100
AcDbText
  0
TEXT
  5
78
330
EF7C85532
100
AcDbEntity
  8
SUNPOU
100
AcDbText
 10
647.9834433840535
 20
43.7966872748706
 30
0.0
 40
1.5
  1
                          
100
AcDbText
  0
TEXT
  5
79
330
EF7C85532
100
AcDbEntity
  8
SUNPOU
100
AcDbText
 10
885.2040944189665
 20
21.8983436374353
 30
0.0
 40
0.75
  1
                          
100
AcDbText
  0
TEXT
  5
7A
330
EF7C85532
100
AcDbEntity
  8
SUNPOU
100
AcDbText
 10
848.6272560930835
 20
43.79668727487057
 30
0.0
 40
1.5
  1
                          
100
AcDbText
  0
TEXT
  5
7B
330
EF7C85532
100
AcDbEntity
  8
SUNPOU
100
AcDbText
 10
1085.847907127996
 20
21.89834363743527
 30
0.0
 40
0.75
  1
                          
100
AcDbText
  0
INSERT
  5
7C
330
EF7C85532
100
AcDbEntity
  8
HATCH
100
AcDbBlockReference
  2
*X6
 10
552.9247477318797
 20
0.0
 30
0.0
  0
TEXT
  5
7D
330
EF7C85532
100
AcDbEntity
  8
SUNPOU
100
AcDbText
 10
851.0101985208963
 20
43.7966872748706
 30
0.0
 40
1.5
  1
                          
100
AcDbText
  0
TEXT
  5
7E
330
EF7C85532
100
AcDbEntity
  8
SUNPOU
100
AcDbText
 10
1088.230849555809
 20
21.8983436374353
 30
0.0
 40
0.75
  1
                          
100
AcDbText
  0
TEXT
  5
7F
330
EF7C85532
100
AcDbEntity
  8
SUNPOU
100
AcDbText
 10
840.048660059358
 20
43.7966872748706
 30
0.0
 40
1.5
  1
                          
100
AcDbText
  0
TEXT
  5
80
330
EF7C85532
100
AcDbEntity
  8
SUNPOU
100
AcDbText
 10
1077.269311094271
 20
21.8983436374353
 30
0.0
 40
0.75
  1
                          
100
AcDbText
  0
INSERT
  5
81
330
EF7C85532
100
AcDbEntity
  8
JISSEN
100
AcDbBlockReference
  2
STDGX5
 10
357.999999284
 20
0.0
 30
0.0
  0
TEXT
  5
82
330
EF7C85532
100
AcDbEntity
  8
SUNPOU
100
AcDbText
 10
632.0586942201739
 20
43.7966872748706
 30
0.0
 40
1.5
  1
                          
100
AcDbText
  0
TEXT
  5
83
330
EF7C85532
100
AcDbEntity
  8
SUNPOU
100
AcDbText
 10
869.2793452550871
 20
21.8983436374353
 30
0.0
 40
0.75
  1
                          
100
AcDbText
  0
TEXT
  5
84
330
EF7C85532
100
AcDbEntity
  8
SUNPOU
100
AcDbText
 10
826.9834426680535
 20
43.7966872748706
 30
0.0
 40
1.5
  1
                          
100
AcDbText
  0
TEXT
  5
85
330
EF7C85532
100
AcDbEntity
  8
SUNPOU
100
AcDbText
 10
1064.204093702966
 20
21.8983436374353
 30
0.0
 40
0.75
  1
                          
100
AcDbText
  0
TEXT
  5
86
330
EF7C85532
100
AcDbEntity
  8
SUNPOU
100
AcDbText
 10
1027.627255377083
 20
43.79668727487057
 30
0.0
 40
1.5
  1
                          
100
AcDbText
  0
TEXT
  5
87
330
EF7C85532
100
AcDbEntity
  8
SUNPOU
100
AcDbText
 10
1264.847906411996
 20
21.89834363743527
 30
0.0
 40
0.75
  1
                          
100
AcDbText
  0
INSERT
  5
88
330
EF7C85532
100
AcDbEntity
  8
HATCH
100
AcDbBlockReference
  2
*X7
 10
731.9247470158797
 20
0.0
 30
0.0
  0
TEXT
  5
89
330
EF7C85532
100
AcDbEntity
  8
SUNPOU
100
AcDbText
 10
1030.010197804896
 20
43.7966872748706
 30
0.0
 40
1.5
  1
                          
100
AcDbText
  0
TEXT
  5
8A
330
EF7C85532
100
AcDbEntity
  8
SUNPOU
100
AcDbText
 10
1267.230848839809
 20
21.8983436374353
 30
0.0
 40
0.75
  1
                          
100
AcDbText
  0
TEXT
  5
8B
330
EF7C85532
100
AcDbEntity
  8
SUNPOU
100
AcDbText
 10
1019.048659343358
 20
43.7966872748706
 30
0.0
 40
1.5
  1
                          
100
AcDbText
  0
TEXT
  5
8C
330
EF7C85532
100
AcDbEntity
  8
SUNPOU
100
AcDbText
 10
1256.269310378271
 20
21.8983436374353
 30
0.0
 40
0.75
  1
                          
100
AcDbText
  0
INSERT
  5
8D
330
EF7C85532
100
AcDbEntity
  8
JISSEN
100
AcDbBlockReference
  2
STDGX5
 10
536.999998568
 20
0.0
 30
0.0
  0
INSERT
  5
8E
330
EF7C85532
100
AcDbEntity
  8
SUNPOU
100
AcDbBlockReference
  2
STDGX5
 10
739.0804232644236
 20
50.83533235670902
 30
0.0
 41
0.5
 42
0.5
 43
0.5
  0
INSERT
  5
8F
330
EF7C85532
100
AcDbEntity
  8
SUNPOU
100
AcDbBlockReference
  2
STDGX5
 10
726.2208210623692
 20
105.0763138619288
 30
0.0
 41
0.5
 42
0.5
 43
0.5
  0
INSERT
  5
90
330
EF7C85532
100
AcDbEntity
  8
HATCH
100
AcDbBlockReference
  2
STDGX5
 10
852.3985550581901
 20
151.7065097967401
 30
0.0
 41
0.5
 42
0.5
 43
0.5
  0
INSERT
  5
91
330
EF7C85532
100
AcDbEntity
  8
HATCH
100
AcDbBlockReference
  2
STDGX5
 10
866.6806796277285
 20
102.7017487639613
 30
0.0
 41
0.5
 42
0.5
 43
0.5
  0
INSERT
  5
92
330
EF7C85532
100
AcDbEntity
  8
TEXT
100
AcDbBlockReference
  2
STDGX5
 10
970.3434408521969
 20
102.8213468229236
 30
0.0
 41
0.5
 42
0.5
 43
0.5
  0
INSERT
  5
93
330
EF7C85532
100
AcDbEntity
  8
SUNPOU
100
AcDbBlockReference
  2
STDGX5
 10
996.1728907397869
 20
174.5475645486174
 30
0.0
 41
0.5
 42
0.5
 43
0.5
  0
INSERT
  5
94
330
EF7C85532
100
AcDbEntity
  8
TEXT
100
AcDbBlockReference
  2
STDGX5
 10
725.7513886810995
 20
124.5860190441302
 30
0.0
 41
0.5
 42
0.5
 43
0.5
  0
INSERT
  5
95
330
EF7C85532
100
AcDbEntity
  8
HATCH
100
AcDbBlockReference
  2
STDGX5
 10
777.1755722656421
 20
145.5222028932424
 30
0.0
 41
0.5
 42
0.5
 43
0.5
  0
INSERT
  5
96
330
EF7C85532
100
AcDbEntity
  8
SUNPOU
100
AcDbBlockReference
  2
STDGX5
 10
846.1963575359604
 20
112.6957974729892
 30
0.0
 41
0.5
 42
0.5
 43
0.5
  0
INSERT
  5
97
330
EF7C85532
100
AcDbEntity
  8
SUNPOU
100
AcDbBlockReference
  2
STDGX5
 10
916.6681156211122
 20
121.7330617103085
 30
0.0
 41
0.5
 42
0.5
 43
0.5
  0
INSERT
  5
98
330
EF7C85532
100
AcDbEntity
  8
TEXT
100
AcDbBlockReference
  2
STDGX5
 10
983.7969461426769
 20
84.61852224867081
 30
0.0
 41
0.5
 42
0.5
 43
0.5
  0
INSERT
  5
99
330
EF7C85532
100
AcDbEntity
  8
HATCH
100
AcDbBlockReference
  2
STDGX5
 10
974.2802715042099
 20
136.4849386559231
 30
0.0
 41
0.5
 42
0.5
 43
0.5
  0
INSERT
  5
9A
330
EF7C85532
100
AcDbEntity
  8
SUNPOU
100
AcDbBlockReference
  2
STDGX5
 10
749.7834008663489
 20
95.14721172234004
 30
0.0
 41
0.5
 42
0.5
 43
0.5
  0
INSERT
  5
9B
330
EF7C85532
100
AcDbEntity
  8
SUNPOU
100
AcDbBlockReference
  2
STDGX5
 10
736.9237986642947
 20
149.3881932275598
 30
0.0
 41
0.5
 42
0.5
 43
0.5
  0
INSERT
  5
9C
330
EF7C85532
100
AcDbEntity
  8
HATCH
100
AcDbBlockReference
  2
STDGX5
 10
863.1015326601156
 20
196.0183891623711
 30
0.0
 41
0.5
 42
0.5
 43
0.5
  0
INSERT
  5
9D
330
EF7C85532
100
AcDbEntity
  8
HATCH
100
AcDbBlockReference
  2
STDGX5
 10
877.3836572296538
 20
147.0136281295923
 30
0.0
 41
0.5
 42
0.5
 43
0.5
  0
INSERT
  5
9E
330
EF7C85532
100
AcDbEntity
  8
TEXT
100
AcDbBlockReference
  2
STDGX5
 10
981.0464184541224
 20
147.1332261885546
 30
0.0
 41
0.5
 42
0.5
 43
0.5
  0
INSERT
  5
9F
330
EF7C85532
100
AcDbEntity
  8
SUNPOU
100
AcDbBlockReference
  2
STDGX5
 10
1006.875868341712
 20
218.8594439142484
 30
0.0
 41
0.5
 42
0.5
 43
0.5
  0
INSERT
  5
A0
330
EF7C85532
100
AcDbEntity
  8
TEXT
100
AcDbBlockReference
  2
STDGX5
 10
736.4543662830251
 20
168.8978984097612
 30
0.0
 41
0.5
 42
0.5
 43
0.5
  0
INSERT
  5
A1
330
EF7C85532
100
AcDbEntity
  8
HATCH
100
AcDbBlockReference
  2
STDGX5
 10
787.8785498675677
 20
189.8340822588735
 30
0.0
 41
0.5
 42
0.5
 43
0.5
  0
INSERT
  5
A2
330
EF7C85532
100
AcDbEntity
  8
SUNPOU
100
AcDbBlockReference
  2
STDGX5
 10
856.899335137886
 20
157.0076768386202
 30
0.0
 41
0.5
 42
0.5
 43
0.5
  0
INSERT
  5
A3
330
EF7C85532
100
AcDbEntity
  8
SUNPOU
100
AcDbBlockReference
  2
STDGX5
 10
927.3710932230379
 20
166.0449410759395
 30
0.0
 41
0.5
 42
0.5
 43
0.5
  0
INSERT
  5
A4
330
EF7C85532
100
AcDbEntity
  8
TEXT
100
AcDbBlockReference
  2
STDGX5
 10
994.4999237446024
 20
128.9304016143018
 30
0.0
 41
0.5
 42
0.5
 43
0.5
  0
INSERT
  5
A5
330
EF7C85532
100
AcDbEntity
  8
HATCH
100
AcDbBlockReference
  2
STDGX5
 10
984.9832491061354
 20
180.7968180215541
 30
0.0
 41
0.5
 42
0.5
 43
0.5
  0
TEXT
  5
DE
330
EF7C85532
100
AcDbEntity
  8
SUNPOU
100
AcDbText
 10
274.0586949361738
 20
43.7966872748706
 30
0.0
 40
1.5
  1
                          
100
AcDbText
  0
TEXT
  5
145
330
EF7C85532
100
AcDbEntity
  8
SUNPOU
100
AcDbText
 10
511.2793459710869
 20
21.8983436374353
 30
0.0
 40
0.75
  1
                          
100
AcDbText
  0
TEXT
  5
265
330
EF7C85532
100
AcDbEntity
  8
SUNPOU
100
AcDbText
 10
474.702507645204
 20
43.79668727487057
 30
0.0
 40
1.5
  1
                          
100
AcDbText
  0
TEXT
  5
266
330
EF7C85532
100
AcDbEntity
  8
SUNPOU
100
AcDbText
 10
711.923158680117
 20
21.89834363743527
 30
0.0
 40
0.75
  1
                          
100
AcDbText
  0
INSERT
  5
2F7
330
EF7C85532
100
AcDbEntity
  8
HATCH
100
AcDbBlockReference
  2
*X4
 10
178.999999284
 20
0.0
 30
0.0
  0
TEXT
  5
31A
330
EF7C85532
100
AcDbEntity
  8
SUNPOU
100
AcDbText
 10
477.0854500730167
 20
43.7966872748706
 30
0.0
 40
1.5
  1
                          
100
AcDbText
  0
TEXT
  5
31C
330
EF7C85532
100
AcDbEntity
  8
SUNPOU
100
AcDbText
 10
714.3061011079298
 20
21.8983436374353
 30
0.0
 40
0.75
  1
                          
100
AcDbText
  0
TEXT
  5
3A6
330
EF7C85532
100
AcDbEntity
  8
TEXT
100
AcDbText
 10
100.9999992839998
 20
244.9999999999999
 30
0.0
 40
3.0
  1
 
  7
K
100
AcDbText
  0
TEXT
  5
3AB
330
EF7C85532
100
AcDbEntity
  8
SUNPOU
100
AcDbText
 10
466.1239116114783
 20
43.7966872748706
 30
0.0
 40
1.5
  1
                          
100
AcDbText
  0
TEXT
  5
3AC
330
EF7C85532
100
AcDbEntity
  8
SUNPOU
100
AcDbText
 10
703.3445626463913
 20
21.8983436374353
 30
0.0
 40
0.75
  1
                          
100
AcDbText
  0
INSERT
  5
3F6
330
EF7C85532
100
AcDbEntity
  8
TEXT
100
AcDbBlockReference
  2
STDGX5
 10
178.999999284
 20
0.0
 30
0.0
  0
TEXT
  5
3F7
330
EF7C85532
100
AcDbEntity
  8
SUNPOU
100
AcDbText
 10
453.0586949361739
 20
43.7966872748706
 30
0.0
 40
1.5
  1
                          
100
AcDbText
  0
TEXT
  5
3F8
330
EF7C85532
100
AcDbEntity
  8
SUNPOU
100
AcDbText
 10
690.279345971087
 20
21.8983436374353
 30
0.0
 40
0.75
  1
                          
100
AcDbText
  0
TEXT
  5
3F9
330
EF7C85532
100
AcDbEntity
  8
SUNPOU
100
AcDbText
 10
647.9834433840535
 20
43.7966872748706
 30
0.0
 40
1.5
  1
                          
100
AcDbText
  0
TEXT
  5
3FA
330
EF7C85532
100
AcDbEntity
  8
SUNPOU
100
AcDbText
 10
885.2040944189665
 20
21.8983436374353
 30
0.0
 40
0.75
  1
                          
100
AcDbText
  0
TEXT
  5
3FB
330
EF7C85532
100
AcDbEntity
  8
SUNPOU
100
AcDbText
 10
848.6272560930835
 20
43.79668727487057
 30
0.0
 40
1.5
  1
                          
100
AcDbText
  0
TEXT
  5
3FC
330
EF7C85532
100
AcDbEntity
  8
SUNPOU
100
AcDbText
 10
1085.847907127996
 20
21.89834363743527
 30
0.0
 40
0.75
  1
                          
100
AcDbText
  0
INSERT
  5
3FD
330
EF7C85532
100
AcDbEntity
  8
HATCH
100
AcDbBlockReference
  2
*X5
 10
552.9247477318797
 20
0.0
 30
0.0
  0
TEXT
  5
3FE
330
EF7C85532
100
AcDbEntity
  8
SUNPOU
100
AcDbText
 10
851.0101985208963
 20
43.7966872748706
 30
0.0
 40
1.5
  1
                          
100
AcDbText
  0
TEXT
  5
3FF
330
EF7C85532
100
AcDbEntity
  8
SUNPOU
100
AcDbText
 10
1088.230849555809
 20
21.8983436374353
 30
0.0
 40
0.75
  1
                          
100
AcDbText
  0
TEXT
  5
400
330
EF7C85532
100
AcDbEntity
  8
SUNPOU
100
AcDbText
 10
840.048660059358
 20
43.7966872748706
 30
0.0
 40
1.5
  1
                          
100
AcDbText
  0
TEXT
  5
401
330
EF7C85532
100
AcDbEntity
  8
SUNPOU
100
AcDbText
 10
1077.269311094271
 20
21.8983436374353
 30
0.0
 40
0.75
  1
                          
100
AcDbText
  0
INSERT
  5
402
330
EF7C85532
100
AcDbEntity
  8
JISSEN
100
AcDbBlockReference
  2
STDGX5
 10
357.999999284
 20
0.0
 30
0.0
  0
TEXT
  5
409
330
EF7C85532
100
AcDbEntity
  8
SUNPOU
100
AcDbText
 10
453.0586949361739
 20
43.7966872748706
 30
0.0
 40
1.5
  1
                          
100
AcDbText
  0
TEXT
  5
40A
330
EF7C85532
100
AcDbEntity
  8
SUNPOU
100
AcDbText
 10
690.279345971087
 20
21.8983436374353
 30
0.0
 40
0.75
  1
                          
100
AcDbText
  0
TEXT
  5
41B
330
EF7C85532
100
AcDbEntity
  8
SUNPOU
100
AcDbText
 10
647.9834433840535
 20
43.7966872748706
 30
0.0
 40
1.5
  1
                          
100
AcDbText
  0
TEXT
  5
41C
330
EF7C85532
100
AcDbEntity
  8
SUNPOU
100
AcDbText
 10
885.2040944189665
 20
21.8983436374353
 30
0.0
 40
0.75
  1
                          
100
AcDbText
  0
TEXT
  5
41D
330
EF7C85532
100
AcDbEntity
  8
SUNPOU
100
AcDbText
 10
848.6272560930835
 20
43.79668727487057
 30
0.0
 40
1.5
  1
                          
100
AcDbText
  0
TEXT
  5
41E
330
EF7C85532
100
AcDbEntity
  8
SUNPOU
100
AcDbText
 10
1085.847907127996
 20
21.89834363743527
 30
0.0
 40
0.75
  1
                          
100
AcDbText
  0
INSERT
  5
41F
330
EF7C85532
100
AcDbEntity
  8
HATCH
100
AcDbBlockReference
  2
*X6
 10
552.9247477318797
 20
0.0
 30
0.0
  0
TEXT
  5
420
330
EF7C85532
100
AcDbEntity
  8
SUNPOU
100
AcDbText
 10
851.0101985208963
 20
43.7966872748706
 30
0.0
 40
1.5
  1
                          
100
AcDbText
  0
TEXT
  5
421
330
EF7C85532
100
AcDbEntity
  8
SUNPOU
100
AcDbText
 10
1088.230849555809
 20
21.8983436374353
 30
0.0
 40
0.75
  1
                          
100
AcDbText
  0
TEXT
  5
422
330
EF7C85532
100
AcDbEntity
  8
SUNPOU
100
AcDbText
 10
840.048660059358
 20
43.7966872748706
 30
0.0
 40
1.5
  1
                          
100
AcDbText
  0
TEXT
  5
423
330
EF7C85532
100
AcDbEntity
  8
SUNPOU
100
AcDbText
 10
1077.269311094271
 20
21.8983436374353
 30
0.0
 40
0.75
  1
                          
100
AcDbText
  0
INSERT
  5
424
330
EF7C85532
100
AcDbEntity
  8
JISSEN
100
AcDbBlockReference
  2
STDGX5
 10
357.999999284
 20
0.0
 30
0.0
  0
TEXT
  5
425
330
EF7C85532
100
AcDbEntity
  8
SUNPOU
100
AcDbText
 10
632.0586942201739
 20
43.7966872748706
 30
0.0
 40
1.5
  1
                          
100
AcDbText
  0
TEXT
  5
426
330
EF7C85532
100
AcDbEntity
  8
SUNPOU
100
AcDbText
 10
869.2793452550871
 20
21.8983436374353
 30
0.0
 40
0.75
  1
                          
100
AcDbText
  0
TEXT
  5
427
330
EF7C85532
100
AcDbEntity
  8
SUNPOU
100
AcDbText
 10
826.9834426680535
 20
43.7966872748706
 30
0.0
 40
1.5
  1
                          
100
AcDbText
  0
TEXT
  5
428
330
EF7C85532
100
AcDbEntity
  8
SUNPOU
100
AcDbText
 10
1064.204093702966
 20
21.8983436374353
 30
0.0
 40
0.75
  1
                          
100
AcDbText
  0
TEXT
  5
429
330
EF7C85532
100
AcDbEntity
  8
SUNPOU
100
AcDbText
 10
1027.627255377083
 20
43.79668727487057
 30
0.0
 40
1.5
  1
                          
100
AcDbText
  0
TEXT
  5
42A
330
EF7C85532
100
AcDbEntity
  8
SUNPOU
100
AcDbText
 10
1264.847906411996
 20
21.89834363743527
 30
0.0
 40
0.75
  1
                          
100
AcDbText
  0
INSERT
  5
42B
330
EF7C85532
100
AcDbEntity
  8
HATCH
100
AcDbBlockReference
  2
*X7
 10
731.9247470158797
 20
0.0
 30
0.0
  0
TEXT
  5
42C
330
EF7C85532
100
AcDbEntity
  8
SUNPOU
100
AcDbText
 10
1030.010197804896
 20
43.7966872748706
 30
0.0
 40
1.5
  1
                          
100
AcDbText
  0
TEXT
  5
42D
330
EF7C85532
100
AcDbEntity
  8
SUNPOU
100
AcDbText
 10
1267.230848839809
 20
21.8983436374353
 30
0.0
 40
0.75
  1
                          
100
AcDbText
  0
TEXT
  5
42E
330
EF7C85532
100
AcDbEntity
  8
SUNPOU
100
AcDbText
 10
1019.048659343358
 20
43.7966872748706
 30
0.0
 40
1.5
  1
                          
100
AcDbText
  0
TEXT
  5
42F
330
EF7C85532
100
AcDbEntity
  8
SUNPOU
100
AcDbText
 10
1256.269310378271
 20
21.8983436374353
 30
0.0
 40
0.75
  1
                          
100
AcDbText
  0
INSERT
  5
430
330
EF7C85532
100
AcDbEntity
  8
JISSEN
100
AcDbBlockReference
  2
STDGX5
 10
536.999998568
 20
0.0
 30
0.0
  0
INSERT
  5
43B
330
EF7C85532
100
AcDbEntity
  8
SUNPOU
100
AcDbBlockReference
  2
STDGX5
 10
739.0804232644236
 20
50.83533235670902
 30
0.0
 41
0.5
 42
0.5
 43
0.5
  0
INSERT
  5
43C
330
EF7C85532
100
AcDbEntity
  8
SUNPOU
100
AcDbBlockReference
  2
STDGX5
 10
726.2208210623692
 20
105.0763138619288
 30
0.0
 41
0.5
 42
0.5
 43
0.5
  0
INSERT
  5
43D
330
EF7C85532
100
AcDbEntity
  8
HATCH
100
AcDbBlockReference
  2
STDGX5
 10
852.3985550581901
 20
151.7065097967401
 30
0.0
 41
0.5
 42
0.5
 43
0.5
  0
INSERT
  5
43E
330
EF7C85532
100
AcDbEntity
  8
HATCH
100
AcDbBlockReference
  2
STDGX5
 10
866.6806796277285
 20
102.7017487639613
 30
0.0
 41
0.5
 42
0.5
 43
0.5
  0
INSERT
  5
43F
330
EF7C85532
100
AcDbEntity
  8
TEXT
100
AcDbBlockReference
  2
STDGX5
 10
970.3434408521969
 20
102.8213468229236
 30
0.0
 41
0.5
 42
0.5
 43
0.5
  0
INSERT
  5
440
330
EF7C85532
100
AcDbEntity
  8
SUNPOU
100
AcDbBlockReference
  2
STDGX5
 10
996.1728907397869
 20
174.5475645486174
 30
0.0
 41
0.5
 42
0.5
 43
0.5
  0
INSERT
  5
441
330
EF7C85532
100
AcDbEntity
  8
TEXT
100
AcDbBlockReference
  2
STDGX5
 10
725.7513886810995
 20
124.5860190441302
 30
0.0
 41
0.5
 42
0.5
 43
0.5
  0
INSERT
  5
442
330
EF7C85532
100
AcDbEntity
  8
HATCH
100
AcDbBlockReference
  2
STDGX5
 10
777.1755722656421
 20
145.5222028932424
 30
0.0
 41
0.5
 42
0.5
 43
0.5
  0
INSERT
  5
443
330
EF7C85532
100
AcDbEntity
  8
SUNPOU
100
AcDbBlockReference
  2
STDGX5
 10
846.1963575359604
 20
112.6957974729892
 30
0.0
 41
0.5
 42
0.5
 43
0.5
  0
INSERT
  5
444
330
EF7C85532
100
AcDbEntity
  8
SUNPOU
100
AcDbBlockReference
  2
STDGX5
 10
916.6681156211122
 20
121.7330617103085
 30
0.0
 41
0.5
 42
0.5
 43
0.5
  0
INSERT
  5
445
330
EF7C85532
100
AcDbEntity
  8
TEXT
100
AcDbBlockReference
  2
STDGX5
 10
983.7969461426769
 20
84.61852224867081
 30
0.0
 41
0.5
 42
0.5
 43
0.5
  0
INSERT
  5
446
330
EF7C85532
100
AcDbEntity
  8
HATCH
100
AcDbBlockReference
  2
STDGX5
 10
974.2802715042099
 20
136.4849386559231
 30
0.0
 41
0.5
 42
0.5
 43
0.5
  0
INSERT
  5
447
330
EF7C85532
100
AcDbEntity
  8
SUNPOU
100
AcDbBlockReference
  2
STDGX5
 10
749.7834008663489
 20
95.14721172234004
 30
0.0
 41
0.5
 42
0.5
 43
0.5
  0
INSERT
  5
448
330
EF7C85532
100
AcDbEntity
  8
SUNPOU
100
AcDbBlockReference
  2
STDGX5
 10
736.9237986642947
 20
149.3881932275598
 30
0.0
 41
0.5
 42
0.5
 43
0.5
  0
INSERT
  5
449
330
EF7C85532
100
AcDbEntity
  8
HATCH
100
AcDbBlockReference
  2
STDGX5
 10
863.1015326601156
 20
196.0183891623711
 30
0.0
 41
0.5
 42
0.5
 43
0.5
  0
INSERT
  5
44A
330
EF7C85532
100
AcDbEntity
  8
HATCH
100
AcDbBlockReference
  2
STDGX5
 10
877.3836572296538
 20
147.0136281295923
 30
0.0
 41
0.5
 42
0.5
 43
0.5
  0
INSERT
  5
44B
330
EF7C85532
100
AcDbEntity
  8
TEXT
100
AcDbBlockReference
  2
STDGX5
 10
981.0464184541224
 20
147.1332261885546
 30
0.0
 41
0.5
 42
0.5
 43
0.5
  0
INSERT
  5
44C
330
EF7C85532
100
AcDbEntity
  8
SUNPOU
100
AcDbBlockReference
  2
STDGX5
 10
1006.875868341712
 20
218.8594439142484
 30
0.0
 41
0.5
 42
0.5
 43
0.5
  0
INSERT
  5
44D
330
EF7C85532
100
AcDbEntity
  8
TEXT
100
AcDbBlockReference
  2
STDGX5
 10
736.4543662830251
 20
168.8978984097612
 30
0.0
 41
0.5
 42
0.5
 43
0.5
  0
INSERT
  5
44E
330
EF7C85532
100
AcDbEntity
  8
HATCH
100
AcDbBlockReference
  2
STDGX5
 10
787.8785498675677
 20
189.8340822588735
 30
0.0
 41
0.5
 42
0.5
 43
0.5
  0
INSERT
  5
44F
330
EF7C85532
100
AcDbEntity
  8
SUNPOU
100
AcDbBlockReference
  2
STDGX5
 10
856.899335137886
 20
157.0076768386202
 30
0.0
 41
0.5
 42
0.5
 43
0.5
  0
INSERT
  5
450
330
EF7C85532
100
AcDbEntity
  8
SUNPOU
100
AcDbBlockReference
  2
STDGX5
 10
927.3710932230379
 20
166.0449410759395
 30
0.0
 41
0.5
 42
0.5
 43
0.5
  0
INSERT
  5
451
330
EF7C85532
100
AcDbEntity
  8
TEXT
100
AcDbBlockReference
  2
STDGX5
 10
994.4999237446024
 20
128.9304016143018
 30
0.0
 41
0.5
 42
0.5
 43
0.5
  0
INSERT
  5
452
330
EF7C85532
100
AcDbEntity
  8
HATCH
100
AcDbBlockReference
  2
STDGX5
 10
984.9832491061354
 20
180.7968180215541
 30
0.0
 41
0.5
 42
0.5
 43
0.5
  0
INSERT
  5
4CF3
330
EF7C85532
100
AcDbEntity
  8
JISSEN
100
AcDbBlockReference
  2
STDR12J
 10
0.0
 20
0.0
 30
0.0
  0
LINE
  5
EF7C88CF7
330
EF7C85532
100
AcDbEntity
  8
NITEN
100
AcDbLine
 10
111.999999638
 20
182.0916502438679
 30
0.0
 11
68.99999963800008
 21
182.0916502438679
 31
0.0
  0
LINE
  5
EF7C88CF8
330
EF7C85532
100
AcDbEntity
  8
NITEN
100
AcDbLine
 10
75.49999963799999
 20
140.0916502438679
 30
0.0
 11
105.499999638
 21
140.0916502438679
 31
0.0
  0
ARC
  5
EF7C88CF9
330
EF7C85532
100
AcDbEntity
  8
NITEN
100
AcDbCircle
 10
80.74999963800022
 20
196.0793678950136
 30
0.0
 40
11.91574588517225
100
AcDbArc
 50
35.09050030012443
 51
144.9094996998772
  0
INSERT
  5
EF7C88D0D
330
EF7C85532
100
AcDbEntity
  8
WAKU
100
AcDbBlockReference
  2
WAKU
 10
0.0
 20
0.0
 30
0.0
 41
181.0
 42
283.0
 43
181.0
  0
ARC
  5
EF7C88D10
330
EF7C85532
100
AcDbEntity
  8
NITEN
100
AcDbCircle
 10
75.49999963799999
 20
141.5916502438679
 30
0.0
 40
1.499999999999943
100
AcDbArc
 50
179.9999999999989
 51
270.0
  0
LINE
  5
EF7C88D81
330
EF7C85532
100
AcDbEntity
  8
NITEN
100
AcDbLine
 10
70.99999963800008
 20
202.9293678950135
 30
0.0
 11
70.99999963800008
 21
182.0916502438679
 31
0.0
  0
LINE
  5
EF7C88D82
330
EF7C85532
100
AcDbEntity
  8
NITEN
100
AcDbLine
 10
66.99999963800007
 20
180.0916502438679
 30
0.0
 11
66.99999963800007
 21
159.6376662700859
 31
0.0
  0
ARC
  5
EF7C88D83
330
EF7C85532
100
AcDbEntity
  8
NITEN
100
AcDbCircle
 10
68.99999963800008
 20
152.6376662700859
 30
0.0
 40
5.0
100
AcDbArc
 50
0.0
 51
90.0
  0
ARC
  5
EF7C88D84
330
EF7C85532
100
AcDbEntity
  8
NITEN
100
AcDbCircle
 10
68.99999963800008
 20
159.6376662700859
 30
0.0
 40
2.0
100
AcDbArc
 50
180.0
 51
270.0
  0
LINE
  5
EF7C88D85
330
EF7C85532
100
AcDbEntity
  8
NITEN
100
AcDbLine
 10
73.99999963800008
 20
152.6376662700859
 30
0.0
 11
73.99999963800008
 21
141.5916502438679
 31
0.0
  0
ARC
  5
EF7C88D86
330
EF7C85532
100
AcDbEntity
  8
NITEN
100
AcDbCircle
 10
68.99999963800008
 20
180.0916502438679
 30
0.0
 40
2.0
100
AcDbArc
 50
90.0
 51
180.0
  0
ARC
  5
EF7C88D88
330
EF7C85532
100
AcDbEntity
  8
NITEN
100
AcDbCircle
 10
105.499999638
 20
141.5916502438679
 30
0.0
 40
1.5
100
AcDbArc
 50
270.0
 51
0.0
  0
TEXT
  5
EF7C88D8B
330
EF7C85532
100
AcDbEntity
  8
SUNPOU
100
AcDbText
 10
100.9954961725418
 20
42.09986262594341
 30
0.0
 40
4.5
  1
1
  7
K
 72
     4
 11
102.8169247439704
 21
44.34986262594342
 31
0.0
100
AcDbText
  0
CIRCLE
  5
EF7C88D8C
330
EF7C85532
100
AcDbEntity
  8
SUNPOU
100
AcDbCircle
 10
102.8169247439704
 20
44.34986262594342
 30
0.0
 40
6.0
  0
LINE
  5
EF7C88D92
330
EF7C85532
100
AcDbEntity
  8
SUNPOU
100
AcDbLine
 10
90.53360296132964
 20
79.45890131606359
 30
0.0
 11
100.835517994852
 21
50.01325624589853
 31
0.0
  0
INSERT
  5
EF7C88D9A
330
EF7C85532
100
AcDbEntity
  8
SUNPOU
100
AcDbBlockReference
  2
ARROW
 10
90.53360296132977
 20
79.45890131606306
 30
0.0
 41
-1.500000000000002
 42
1.5
 43
1.5
 50
289.2830067619235
  0
TEXT
  5
EF7C88E01
330
EF7C85532
100
AcDbEntity
  8
SUNPOU
100
AcDbText
 10
140.8454758465405
 20
7.849423898685245
 30
0.0
 40
3.0
  1
EPQR ガード取付状態
  7
K
100
AcDbText
  0
TEXT
  5
EF7C88E02
330
EF7C85532
100
AcDbEntity
  8
SUNPOU
100
AcDbText
 10
140.8454758465405
 20
2.849423898685245
 30
0.0
 40
3.0
  1
尺度　1/1
  7
K
100
AcDbText
  0
TEXT
  5
EF7C88E03
330
EF7C85532
100
AcDbEntity
  8
TEXT
100
AcDbText
 10
136.8249992759999
 20
274.2999999999999
 30
0.0
 40
3.0
  1
%%u      
  7
K
 72
     4
 11
141.9999992759999
 21
273.9999999999999
 31
0.0
100
AcDbText
  0
TEXT
  5
EF7C88E04
330
EF7C85532
100
AcDbEntity
  8
TEXT
100
AcDbText
 10
135.1999992759999
 20
278.4999999999999
 30
0.0
 40
3.0
  1
材    質
  7
K
 72
     4
 11
141.9999992759999
 21
279.9999999999999
 31
0.0
100
AcDbText
  0
LINE
  5
EF7C88E05
330
EF7C85532
100
AcDbEntity
  8
JISSEN
100
AcDbLine
 10
91.49999927599996
 20
270.9999999999999
 30
0.0
 11
180.999999276
 21
270.9999999999999
 31
0.0
  0
LINE
  5
EF7C88E06
330
EF7C85532
100
AcDbEntity
  8
JISSEN
100
AcDbLine
 10
91.49999927599996
 20
276.9999999999999
 30
0.0
 11
180.999999276
 21
276.9999999999999
 31
0.0
  0
LINE
  5
EF7C88E07
330
EF7C85532
100
AcDbEntity
  8
NITEN
100
AcDbLine
 10
109.9999996380001
 20
182.0916502438679
 30
0.0
 11
109.9999996380001
 21
202.9293678950137
 31
0.0
  0
LINE
  5
EF7C88E09
330
EF7C85532
100
AcDbEntity
  8
NITEN
100
AcDbLine
 10
113.9999996380001
 20
159.6376662700859
 30
0.0
 11
113.999999638
 21
180.0916502438679
 31
0.0
  0
ARC
  5
EF7C88E0A
330
EF7C85532
100
AcDbEntity
  8
NITEN
100
AcDbCircle
 10
111.9999996380001
 20
152.6376662700859
 30
0.0
 40
5.0
100
AcDbArc
 50
90.0
 51
180.0
  0
LINE
  5
EF7C88E0B
330
EF7C85532
100
AcDbEntity
  8
NITEN
100
AcDbLine
 10
106.9999996380001
 20
141.5916502438679
 30
0.0
 11
106.9999996380001
 21
152.6376662700859
 31
0.0
  0
ARC
  5
EF7C88E0C
330
EF7C85532
100
AcDbEntity
  8
NITEN
100
AcDbCircle
 10
111.9999996380001
 20
159.6376662700859
 30
0.0
 40
2.0
100
AcDbArc
 50
270.0
 51
0.0
  0
ARC
  5
EF7C88E0D
330
EF7C85532
100
AcDbEntity
  8
NITEN
100
AcDbCircle
 10
111.999999638
 20
180.0916502438679
 30
0.0
 40
1.999999999999971
100
AcDbArc
 50
359.9999999999992
 51
89.9999999999992
  0
ARC
  5
EF7C88E0E
330
EF7C85532
100
AcDbEntity
  8
NITEN
100
AcDbCircle
 10
100.249999638
 20
209.7793678950138
 30
0.0
 40
11.91574588517228
100
AcDbArc
 50
215.0905003001236
 51
324.9094996998763
  0
LWPOLYLINE
  5
EF7C88E0F
330
EF7C85532
100
AcDbEntity
  8
NITEN
100
AcDbPolyline
 90
        2
 70
     0
 43
0.0
 10
109.9999996380001
 20
202.9293678950138
 42
0.5195636805304642
 10
90.4999996380001
 20
202.9293678950139
 42
0.5882352941176294
  0
TEXT
  5
EF7C88E10
330
EF7C85532
100
AcDbEntity
  8
TEXT
100
AcDbText
 10
102.7857135617142
 20
272.642857142857
 30
0.0
 40
3.0
  1
EPQR 型ヘッド
  7
K
 72
     4
 11
116.4999992759999
 21
273.9999999999999
 31
0.0
100
AcDbText
  0
TEXT
  5
EF7C88E11
330
EF7C85532
100
AcDbEntity
  8
TEXT
100
AcDbText
 10
107.8999992759999
 20
278.4999999999999
 30
0.0
 40
3.0
  1
名      称
  7
K
 72
     4
 11
116.4999992759999
 21
279.9999999999999
 31
0.0
100
AcDbText
  0
TEXT
  5
EF7C88E12
330
EF7C85532
100
AcDbEntity
  8
TEXT
100
AcDbText
 10
95.28571356171424
 20
272.4999999999999
 30
0.0
 40
3.0
  1
1
  7
K
 72
     4
 11
96.49999927599996
 21
273.9999999999999
 31
0.0
100
AcDbText
  0
LINE
  5
EF7C88E13
330
EF7C85532
100
AcDbEntity
  8
JISSEN
100
AcDbLine
 10
101.4999992759999
 20
282.9999999999999
 30
0.0
 11
101.4999992759999
 21
264.9999999999999
 31
0.0
  0
LINE
  5
EF7C88E14
330
EF7C85532
100
AcDbEntity
  8
JISSEN
100
AcDbLine
 10
91.49999927599996
 20
264.9999999999999
 30
0.0
 11
91.49999927599996
 21
282.9999999999999
 31
0.0
  0
TEXT
  5
EF7C88E15
330
EF7C85532
100
AcDbEntity
  8
TEXT
100
AcDbText
 10
93.29999927599995
 20
278.4999999999999
 30
0.0
 40
3.0
  1
番号
  7
K
 72
     4
 11
96.49999927599996
 21
279.9999999999999
 31
0.0
100
AcDbText
  0
LINE
  5
EF7C88E16
330
EF7C85532
100
AcDbEntity
  8
JISSEN
100
AcDbLine
 10
131.4999992759999
 20
282.9999999999999
 30
0.0
 11
131.4999992759999
 21
264.9999999999999
 31
0.0
  0
TEXT
  5
EF7C88E17
330
EF7C85532
100
AcDbEntity
  8
TEXT
100
AcDbText
 10
165.6999992759999
 20
278.4999999999999
 30
0.0
 40
3.0
  1
備    考
  7
K
 72
     4
 11
172.4999992759999
 21
279.9999999999999
 31
0.0
100
AcDbText
  0
TEXT
  5
EF7C88E18
330
EF7C85532
100
AcDbEntity
  8
TEXT
100
AcDbText
 10
156.6795477624092
 20
272.4999999999999
 30
0.0
 40
3.0
  1
1
  7
K
 72
     4
 11
157.8938334766949
 21
273.9999999999999
 31
0.0
100
AcDbText
  0
LINE
  5
EF7C88E19
330
EF7C85532
100
AcDbEntity
  8
JISSEN
100
AcDbLine
 10
163.4999992759999
 20
282.9999999999999
 30
0.0
 11
163.4999992759999
 21
264.9999999999999
 31
0.0
  0
LINE
  5
EF7C88E1A
330
EF7C85532
100
AcDbEntity
  8
JISSEN
100
AcDbLine
 10
152.4999992759999
 20
264.9999999999999
 30
0.0
 11
152.4999992759999
 21
282.9999999999999
 31
0.0
  0
TEXT
  5
EF7C88E1B
330
EF7C85532
100
AcDbEntity
  8
TEXT
100
AcDbText
 10
154.7999992759999
 20
278.4999999999999
 30
0.0
 40
3.0
  1
個数
  7
K
 72
     4
 11
157.9999992759999
 21
279.9999999999999
 31
0.0
100
AcDbText
  0
LINE
  5
EF7C88E1C
330
EF7C85532
100
AcDbEntity
  8
JISSEN
100
AcDbLine
 10
91.49999927599996
 20
264.9999999999999
 30
0.0
 11
180.999999276
 21
264.9999999999999
 31
0.0
  0
TEXT
  5
EF7C88E1D
330
EF7C85532
100
AcDbEntity
  8
TEXT
100
AcDbText
 10
107.4571421331428
 20
266.4999999999999
 30
0.0
 40
3.0
  1
ガード EP
  7
K
 72
     4
 11
116.4999992759999
 21
267.9999999999999
 31
0.0
100
AcDbText
  0
TEXT
  5
EF7C88E1E
330
EF7C85532
100
AcDbEntity
  8
TEXT
100
AcDbText
 10
95.07142784742852
 20
266.4999999999999
 30
0.0
 40
3.0
  1
2
  7
K
 72
     4
 11
96.49999927599996
 21
267.9999999999999
 31
0.0
100
AcDbText
  0
TEXT
  5
EF7C88E1F
330
EF7C85532
100
AcDbEntity
  8
TEXT
100
AcDbText
 10
156.6795477624092
 20
266.4999999999999
 30
0.0
 40
3.0
  1
1
  7
K
 72
     4
 11
157.8938334766949
 21
267.9999999999999
 31
0.0
100
AcDbText
  0
LINE
  5
EF7C88F7B
330
EF7C85532
100
AcDbEntity
  8
JISSEN
100
AcDbLine
 10
103.5462323511084
 20
149.977769041939
 30
0.0
 11
101.4793147434121
 21
151.9811013381442
 31
0.0
  0
LINE
  5
EF7C88F7C
330
EF7C85532
100
AcDbEntity
  8
JISSEN
100
AcDbLine
 10
99.85364606477791
 20
133.441230648489
 30
0.0
 11
99.85364606477791
 21
133.1405840967649
 31
0.0
  0
LINE
  5
EF7C88F7D
330
EF7C85532
100
AcDbEntity
  8
JISSEN
100
AcDbLine
 10
102.0583874440882
 20
133.1405840967648
 30
0.0
 11
102.0583874440883
 21
135.4455409933166
 31
0.0
  0
LINE
  5
EF7C88F7E
330
EF7C85532
100
AcDbEntity
  8
JISSEN
100
AcDbLine
 10
102.0583874440883
 20
135.4455409933166
 30
0.0
 11
103.9659685015404
 21
136.5468834303376
 31
0.0
  0
LINE
  5
EF7C88F7F
330
EF7C85532
100
AcDbEntity
  8
JISSEN
100
AcDbLine
 10
103.9659685015404
 20
136.5468834303376
 30
0.0
 11
103.5462323511084
 21
149.977769041939
 31
0.0
  0
LINE
  5
EF7C88F80
330
EF7C85532
100
AcDbEntity
  8
JISSEN
100
AcDbLine
 10
77.52097357155097
 20
149.977769041939
 30
0.0
 11
79.58789117924723
 21
151.9811013381442
 31
0.0
  0
LINE
  5
EF7C88F81
330
EF7C85532
100
AcDbEntity
  8
JISSEN
100
AcDbLine
 10
86.52498227167454
 20
133.441230648489
 30
0.0
 11
86.52498227167454
 21
133.1405840967649
 31
0.0
  0
LINE
  5
EF7C88F82
330
EF7C85532
100
AcDbEntity
  8
JISSEN
100
AcDbLine
 10
94.54222365098488
 20
133.441230648489
 30
0.0
 11
94.54222365098488
 21
133.1405840967649
 31
0.0
  0
LINE
  5
EF7C88F83
330
EF7C85532
100
AcDbEntity
  8
JISSEN
100
AcDbLine
 10
88.11980868256197
 20
133.441230648489
 30
0.0
 11
88.11980868256197
 21
135.4455409933166
 31
0.0
  0
LINE
  5
EF7C88F84
330
EF7C85532
100
AcDbEntity
  8
JISSEN
100
AcDbLine
 10
92.88004575152749
 20
133.441230648489
 30
0.0
 11
92.88004575152749
 21
135.4455409933166
 31
0.0
  0
LINE
  5
EF7C88F85
330
EF7C85532
100
AcDbEntity
  8
JISSEN
100
AcDbLine
 10
81.21355985788145
 20
133.441230648489
 30
0.0
 11
81.21355985788145
 21
133.1405840967649
 31
0.0
  0
LINE
  5
EF7C88F86
330
EF7C85532
100
AcDbEntity
  8
JISSEN
100
AcDbLine
 10
79.00881847857104
 20
133.1405840967648
 30
0.0
 11
79.0088184785711
 21
135.4455409933166
 31
0.0
  0
LINE
  5
EF7C88F87
330
EF7C85532
100
AcDbEntity
  8
JISSEN
100
AcDbLine
 10
79.0088184785711
 20
135.4455409933166
 30
0.0
 11
77.10123742111901
 21
136.5468834303376
 31
0.0
  0
LINE
  5
EF7C88F88
330
EF7C85532
100
AcDbEntity
  8
JISSEN
100
AcDbLine
 10
79.0088184785711
 20
133.441230648489
 30
0.0
 11
88.11980868256197
 21
133.441230648489
 31
0.0
  0
LINE
  5
EF7C88F89
330
EF7C85532
100
AcDbEntity
  8
JISSEN
100
AcDbLine
 10
77.10123742111901
 20
136.5468834303376
 30
0.0
 11
77.52097357155097
 21
149.977769041939
 31
0.0
  0
LINE
  5
EF7C88F8A
330
EF7C85532
100
AcDbEntity
  8
JISSEN
100
AcDbLine
 10
111.5788615820193
 20
133.1405840967649
 30
0.0
 11
69.48834434064
 21
133.1405840967649
 31
0.0
  0
LINE
  5
EF7C88F8B
330
EF7C85532
100
AcDbEntity
  8
JISSEN
100
AcDbLine
 10
103.5462323511084
 20
149.977769041939
 30
0.0
 11
77.52097357155097
 21
149.977769041939
 31
0.0
  0
LINE
  5
EF7C88F8C
330
EF7C85532
100
AcDbEntity
  8
JISSEN
100
AcDbLine
 10
101.4793147434121
 20
151.9811013381442
 30
0.0
 11
79.58789117924729
 21
151.9811013381442
 31
0.0
  0
LINE
  5
EF7C88F8D
330
EF7C85532
100
AcDbEntity
  8
JISSEN
100
AcDbLine
 10
79.58789117924723
 20
151.9811013381442
 30
0.0
 11
101.4793147434121
 21
151.9811013381442
 31
0.0
  0
LINE
  5
EF7C88F8E
330
EF7C85532
100
AcDbEntity
  8
JISSEN
100
AcDbLine
 10
92.88004575152749
 20
133.441230648489
 30
0.0
 11
102.0583874440883
 21
133.441230648489
 31
0.0
  0
LINE
  5
EF7C88F8F
330
EF7C85532
100
AcDbEntity
  8
JISSEN
100
AcDbLine
 10
79.0088184785711
 20
135.4455409933166
 30
0.0
 11
102.0583874440883
 21
135.4455409933166
 31
0.0
  0
LINE
  5
EF7C88F90
330
EF7C85532
100
AcDbEntity
  8
JISSEN
100
AcDbLine
 10
103.9659685015404
 20
136.5468834303376
 30
0.0
 11
77.10123742111901
 21
136.5468834303376
 31
0.0
  0
ARC
  5
EF7C88F91
330
EF7C85532
100
AcDbEntity
  8
JISSEN
100
AcDbCircle
 10
114.5853270992607
 20
125.6244203036615
 30
0.0
 40
2.505387931034484
100
AcDbArc
 50
270.0
 51
30.00000000000054
  0
ARC
  5
EF7C88F92
330
EF7C85532
100
AcDbEntity
  8
JISSEN
100
AcDbCircle
 10
120.1973960647779
 20
121.1147220277994
 30
0.0
 40
5.411637931034486
100
AcDbArc
 50
157.380135051959
 51
125.0511367474436
  0
CIRCLE
  5
EF7C88F93
330
EF7C85532
100
AcDbEntity
  8
JISSEN
100
AcDbCircle
 10
120.1973960647779
 20
121.1147220277994
 30
0.0
 40
4.008620689655175
  0
LWPOLYLINE
  5
EF7C88F94
330
EF7C85532
100
AcDbEntity
  8
JISSEN
100
AcDbPolyline
 90
        6
 70
     1
 43
0.0
 10
122.1877613462342
 20
117.6673082346959
 10
124.1781266276904
 20
121.1147220277994
 10
122.1877613462342
 20
124.5621358209028
 10
118.2070307833214
 20
124.5621358209028
 10
116.2166655018653
 20
121.1147220277994
 10
118.2070307833214
 20
117.6673082346959
  0
LINE
  5
EF7C88F95
330
EF7C85532
100
AcDbEntity
  8
JISSEN
100
AcDbLine
 10
116.7550566938715
 20
126.8771142691787
 30
0.0
 11
114.0698515698775
 21
131.5280259726806
 31
0.0
  0
CIRCLE
  5
EF7C88F96
330
EF7C85532
100
AcDbEntity
  8
JISSEN
100
AcDbCircle
 10
120.1973960647779
 20
121.1147220277994
 30
0.0
 40
2.254849137931036
  0
LINE
  5
EF7C88F97
330
EF7C85532
100
AcDbEntity
  8
JISSEN
100
AcDbLine
 10
106.5680857199503
 20
123.119032372627
 30
0.0
 11
105.0648529613296
 21
125.4527024721289
 31
0.0
  0
LINE
  5
EF7C88F98
330
EF7C85532
100
AcDbEntity
  8
JISSEN
100
AcDbLine
 10
104.0626977889158
 20
125.4527024721289
 30
0.0
 11
102.5594650302952
 21
123.119032372627
 31
0.0
  0
LINE
  5
EF7C88F99
330
EF7C85532
100
AcDbEntity
  8
JISSEN
100
AcDbLine
 10
105.0648529613296
 20
125.4527024721289
 30
0.0
 11
104.0626977889158
 21
125.4527024721289
 31
0.0
  0
LINE
  5
EF7C88F9B
330
EF7C85532
100
AcDbEntity
  8
JISSEN
100
AcDbLine
 10
99.05192192684697
 20
123.119032372627
 30
0.0
 11
99.05192192684697
 21
120.8854910115647
 31
0.0
  0
LINE
  5
EF7C88FA0
330
EF7C85532
100
AcDbEntity
  8
JISSEN
100
AcDbLine
 10
102.0247116998033
 20
103.1809870000166
 30
0.0
 11
102.0247116998033
 21
106.6445599841953
 31
0.0
  0
ARC
  5
EF7C88FA1
330
EF7C85532
100
AcDbEntity
  8
JISSEN
100
AcDbCircle
 10
82.48268583773436
 20
114.5312371937021
 30
0.0
 40
28.06034482758622
100
AcDbArc
 50
337.9756871629579
 51
0.0
  0
ARC
  5
EF7C88FA2
330
EF7C85532
100
AcDbEntity
  8
JISSEN
100
AcDbCircle
 10
82.48268583773436
 20
114.5312371937021
 30
0.0
 40
26.05603448275864
100
AcDbArc
 50
337.573450975803
 51
0.7891762481349981
  0
LINE
  5
EF7C88FA3
330
EF7C85532
100
AcDbEntity
  8
JISSEN
100
AcDbLine
 10
102.0247116998032
 20
106.6598722640027
 30
0.0
 11
102.0247116998032
 21
106.6598722640027
 31
0.0
  0
ARC
  5
EF7C88FA4
330
EF7C85532
100
AcDbEntity
  8
JISSEN
100
AcDbCircle
 10
101.0225565273895
 20
103.1809870000166
 30
0.0
 40
1.002155172413793
100
AcDbArc
 50
265.0000000000002
 51
0.0
  0
ARC
  5
EF7C88FA6
330
EF7C85532
100
AcDbEntity
  8
JISSEN
100
AcDbCircle
 10
95.51070307911372
 20
114.5312371937021
 30
0.0
 40
15.0323275862069
100
AcDbArc
 50
0.0
 51
34.84012248887491
  0
ARC
  5
EF7C88FA7
330
EF7C85532
100
AcDbEntity
  8
JISSEN
100
AcDbCircle
 10
95.55754558491949
 20
115.8414549123238
 30
0.0
 40
17.03663793103449
100
AcDbArc
 50
355.2987799884097
 51
25.28823184642064
  0
ARC
  5
EF7C88FA8
330
EF7C85532
100
AcDbEntity
  8
JISSEN
100
AcDbCircle
 10
97.7242564983964
 20
115.4932946782485
 30
0.0
 40
10.82880430439393
100
AcDbArc
 50
356.8068888039075
 51
35.24470412043449
  0
LINE
  5
EF7C88FA9
330
EF7C85532
100
AcDbEntity
  8
JISSEN
100
AcDbLine
 10
88.49561687221708
 20
115.7714909412292
 30
0.0
 11
88.49561687221708
 21
118.5908913745855
 31
0.0
  0
LINE
  5
EF7C88FAA
330
EF7C85532
100
AcDbEntity
  8
JISSEN
100
AcDbLine
 10
92.5042375618722
 20
115.7714909412292
 30
0.0
 11
92.5042375618722
 21
118.5908913745855
 31
0.0
  0
LINE
  5
EF7C88FAF
330
EF7C85532
100
AcDbEntity
  8
JISSEN
100
AcDbLine
 10
95.50072183356375
 20
119.8084338227082
 30
0.0
 11
85.56648408909556
 21
119.8084338227082
 31
0.0
  0
ARC
  5
EF7C88FB8
330
EF7C85532
100
AcDbEntity
  8
JISSEN
100
AcDbCircle
 10
88.79626342394121
 20
116.7912171182131
 30
0.0
 40
0.3006465517241381
100
AcDbArc
 50
99.59406822683844
 51
180.0
  0
ARC
  5
EF7C88FB9
330
EF7C85532
100
AcDbEntity
  8
JISSEN
100
AcDbCircle
 10
92.20359101014812
 20
116.7912171182131
 30
0.0
 40
0.3006465517241381
100
AcDbArc
 50
0.0
 51
80.40593177313512
  0
LINE
  5
EF7C88FBA
330
EF7C85532
100
AcDbEntity
  8
JISSEN
100
AcDbLine
 10
88.74615566532057
 20
117.3649714436497
 30
0.0
 11
92.25369876876882
 21
117.3649714436497
 31
0.0
  0
ARC
  5
EF7C88FBB
330
EF7C85532
100
AcDbEntity
  8
JISSEN
100
AcDbCircle
 10
90.49992721704475
 20
131.0635117991552
 30
0.0
 40
10.96206155572236
100
AcDbArc
 50
255.6397940472943
 51
284.3602059527056
  0
LINE
  5
EF7C88FBC
330
EF7C85532
100
AcDbEntity
  8
JISSEN
100
AcDbLine
 10
87.76708043548316
 20
115.5710599067465
 30
0.0
 11
88.29518583773429
 21
115.5710599067465
 31
0.0
  0
ARC
  5
EF7C88FBD
330
EF7C85532
100
AcDbEntity
  8
JISSEN
100
AcDbCircle
 10
88.29518583773429
 20
115.7714909412292
 30
0.0
 40
0.2004310344827588
100
AcDbArc
 50
270.0
 51
0.0
  0
LINE
  5
EF7C88FBE
330
EF7C85532
100
AcDbEntity
  8
JISSEN
100
AcDbLine
 10
87.23094113132233
 20
115.4722000947194
 30
0.0
 11
87.99453928601044
 21
115.0313364945575
 31
0.0
  0
LINE
  5
EF7C88FBF
330
EF7C85532
100
AcDbEntity
  8
JISSEN
100
AcDbLine
 10
93.232773998606
 20
115.5710599067465
 30
0.0
 11
92.70466859635499
 21
115.5710599067465
 31
0.0
  0
ARC
  5
EF7C88FC0
330
EF7C85532
100
AcDbEntity
  8
JISSEN
100
AcDbCircle
 10
92.70466859635494
 20
115.7714909412292
 30
0.0
 40
0.2004310344827588
100
AcDbArc
 50
180.0
 51
270.0
  0
LINE
  5
EF7C88FC1
330
EF7C85532
100
AcDbEntity
  8
JISSEN
100
AcDbLine
 10
93.76891330276752
 20
115.4722000947193
 30
0.0
 11
93.00531514807941
 21
115.0313364945575
 31
0.0
  0
LINE
  5
EF7C88FC2
330
EF7C85532
100
AcDbEntity
  8
JISSEN
100
AcDbLine
 10
92.25369876876882
 20
115.632045359456
 30
0.0
 11
88.74615566532057
 21
115.632045359456
 31
0.0
  0
LINE
  5
EF7C88FC7
330
EF7C85532
100
AcDbEntity
  8
JISSEN
100
AcDbLine
 10
77.00450813374343
 20
125.4527024721289
 30
0.0
 11
78.50774089236418
 21
123.119032372627
 31
0.0
  0
LINE
  5
EF7C88FC8
330
EF7C85532
100
AcDbEntity
  8
JISSEN
100
AcDbLine
 10
74.49912020270895
 20
123.119032372627
 30
0.0
 11
76.00235296132964
 21
125.4527024721289
 31
0.0
  0
LINE
  5
EF7C88FC9
330
EF7C85532
100
AcDbEntity
  8
JISSEN
100
AcDbLine
 10
76.00235296132964
 20
125.4527024721289
 30
0.0
 11
77.00450813374343
 21
125.4527024721289
 31
0.0
  0
LINE
  5
EF7C88FCC
330
EF7C85532
100
AcDbEntity
  8
JISSEN
100
AcDbLine
 10
82.01528399581254
 20
123.119032372627
 30
0.0
 11
82.01528399581244
 21
120.8854910115648
 31
0.0
  0
ARC
  5
EF7C88FCF
330
EF7C85532
100
AcDbEntity
  8
JISSEN
100
AcDbCircle
 10
83.27559793569301
 20
115.4932946782485
 30
0.0
 40
10.82880430439393
100
AcDbArc
 50
144.142389354838
 51
169.5833810006728
  0
LINE
  5
EF7C88FD5
330
EF7C85532
100
AcDbEntity
  8
JISSEN
100
AcDbLine
 10
87.52713744408842
 20
123.119032372627
 30
0.0
 11
78.50774089236418
 21
123.119032372627
 31
0.0
  0
LINE
  5
EF7C88FD6
330
EF7C85532
100
AcDbEntity
  8
JISSEN
100
AcDbLine
 10
87.86926988945841
 20
106.601771113643
 30
0.0
 11
87.86926988945841
 21
102.0920728377809
 31
0.0
  0
LINE
  5
EF7C88FD7
330
EF7C85532
100
AcDbEntity
  8
JISSEN
100
AcDbLine
 10
88.95596842022909
 20
114.8471863504554
 30
0.0
 11
87.99453928601016
 21
101.3871784713912
 31
0.0
  0
LINE
  5
EF7C88FD8
330
EF7C85532
100
AcDbEntity
  8
JISSEN
100
AcDbLine
 10
93.1305845446308
 20
106.601771113643
 30
0.0
 11
93.1305845446308
 21
102.0920728377809
 31
0.0
  0
LINE
  5
EF7C88FD9
330
EF7C85532
100
AcDbEntity
  8
JISSEN
100
AcDbLine
 10
93.00531514807923
 20
101.3871784713912
 30
0.0
 11
92.04388601386037
 21
114.8471863504554
 31
0.0
  0
LINE
  5
EF7C88FDA
330
EF7C85532
100
AcDbEntity
  8
JISSEN
100
AcDbLine
 10
95.00962549290685
 20
110.4928034276407
 30
0.0
 11
93.00531514807923
 21
110.3171139016237
 31
0.0
  0
ARC
  5
EF7C88FDB
330
EF7C85532
100
AcDbEntity
  8
JISSEN
100
AcDbCircle
 10
93.50639273428603
 20
108.1050038722636
 30
0.0
 40
1.50323275862069
100
AcDbArc
 50
270.0
 51
0.0
  0
LINE
  5
EF7C88FDC
330
EF7C85532
100
AcDbEntity
  8
JISSEN
100
AcDbLine
 10
95.00962549290685
 20
110.9447822655586
 30
0.0
 11
92.30569952508133
 21
111.1817971933609
 31
0.0
  0
LINE
  5
EF7C88FDD
330
EF7C85532
100
AcDbEntity
  8
JISSEN
100
AcDbLine
 10
95.00962549290685
 20
110.8441824796751
 30
0.0
 11
92.31293049815073
 21
111.0805635703899
 31
0.0
  0
ARC
  5
EF7C88FDE
330
EF7C85532
100
AcDbEntity
  8
JISSEN
100
AcDbCircle
 10
84.48699618256185
 20
111.8630857688154
 30
0.0
 40
10.52262931034483
100
AcDbArc
 50
0.0
 51
14.14900450893456
  0
LINE
  5
EF7C88FDF
330
EF7C85532
100
AcDbEntity
  8
JISSEN
100
AcDbLine
 10
95.00962549290667
 20
108.1050038722636
 30
0.0
 11
95.00962549290667
 21
111.8630857688154
 31
0.0
  0
LINE
  5
EF7C88FE0
330
EF7C85532
100
AcDbEntity
  8
JISSEN
100
AcDbLine
 10
98.01609101014802
 20
106.8523099067464
 30
0.0
 11
98.01609101014802
 21
111.8630857688154
 31
0.0
  0
LINE
  5
EF7C88FE1
330
EF7C85532
100
AcDbEntity
  8
JISSEN
100
AcDbLine
 10
98.01609101014818
 20
110.6684929536579
 30
0.0
 11
98.36546532374867
 21
110.6379266618907
 31
0.0
  0
LINE
  5
EF7C88FE2
330
EF7C85532
100
AcDbEntity
  8
JISSEN
100
AcDbLine
 10
85.99022894118254
 20
108.1050038722636
 30
0.0
 11
85.99022894118254
 21
111.8630857688154
 31
0.0
  0
LINE
  5
EF7C88FE3
330
EF7C85532
100
AcDbEntity
  8
JISSEN
100
AcDbLine
 10
87.99453928601023
 20
106.9918790343884
 30
0.0
 11
87.99453928601023
 21
110.6684929536579
 31
0.0
  0
LINE
  5
EF7C88FE4
330
EF7C85532
100
AcDbEntity
  8
JISSEN
100
AcDbLine
 10
93.00531514807923
 20
106.9918790343884
 30
0.0
 11
93.00531514807923
 21
110.6684929536579
 31
0.0
  0
LINE
  5
EF7C88FE5
330
EF7C85532
100
AcDbEntity
  8
JISSEN
100
AcDbLine
 10
85.99022894118254
 20
110.4928034276407
 30
0.0
 11
87.99453928601023
 21
110.3171139016237
 31
0.0
  0
LINE
  5
EF7C88FE6
330
EF7C85532
100
AcDbEntity
  8
JISSEN
100
AcDbLine
 10
87.64378497566539
 20
114.0638702228461
 30
0.0
 11
87.64378497566539
 21
114.2206497285431
 31
0.0
  0
ARC
  5
EF7C88FE7
330
EF7C85532
100
AcDbEntity
  8
JISSEN
100
AcDbCircle
 10
96.51285825152738
 20
111.8630857688154
 30
0.0
 40
10.52262931034483
100
AcDbArc
 50
165.8509954910654
 51
180.0
  0
LINE
  5
EF7C88FE8
330
EF7C85532
100
AcDbEntity
  8
JISSEN
100
AcDbLine
 10
87.49346169980331
 20
114.040880639947
 30
0.0
 11
87.49346169980331
 21
111.0765494100715
 31
0.0
  0
ARC
  5
EF7C88FE9
330
EF7C85532
100
AcDbEntity
  8
JISSEN
100
AcDbCircle
 10
90.49992721704475
 20
91.44095135188235
 30
0.0
 40
19.39008315435972
100
AcDbArc
 50
95.43647494168643
 51
97.42392958962563
  0
LWPOLYLINE
  5
EF7C88FEA
330
EF7C85532
100
AcDbEntity
  8
JISSEN
100
AcDbPolyline
 90
        3
 70
     0
 43
0.0
 10
88.74615566532046
 20
114.951632216276
 42
0.0069244247785686
 10
88.48032967013201
 20
114.9153644164665
 42
0.0222413121313502
 10
88.13686833838657
 20
114.8479123814617
 42
0.3154119100223803
  0
LINE
  5
EF7C88FEB
330
EF7C85532
100
AcDbEntity
  8
JISSEN
100
AcDbLine
 10
85.99022894118254
 20
110.8441824796751
 30
0.0
 11
88.68692393593866
 21
111.0805635703899
 31
0.0
  0
LINE
  5
EF7C88FEC
330
EF7C85532
100
AcDbEntity
  8
JISSEN
100
AcDbLine
 10
85.99022894118254
 20
110.9447822655586
 30
0.0
 11
88.69415490900806
 21
111.1817971933609
 31
0.0
  0
ARC
  5
EF7C88FED
330
EF7C85532
100
AcDbEntity
  8
JISSEN
100
AcDbCircle
 10
88.28930425948957
 20
114.2206497285431
 30
0.0
 40
0.6455192838242088
100
AcDbArc
 50
103.6591051852965
 51
180.0
  0
ARC
  5
EF7C88FEE
330
EF7C85532
100
AcDbEntity
  8
JISSEN
100
AcDbCircle
 10
90.49992721704475
 20
94.88529425303047
 30
0.0
 40
19.39008315435972
100
AcDbArc
 50
94.7019833989483
 51
98.91979517632508
  0
ARC
  5
EF7C88FEF
330
EF7C85532
100
AcDbEntity
  8
JISSEN
100
AcDbCircle
 10
90.49992721704475
 20
91.44095135188235
 30
0.0
 40
19.39008315435972
100
AcDbArc
 50
82.57607041037436
 51
84.56352505831359
  0
LWPOLYLINE
  5
EF7C88FF0
330
EF7C85532
100
AcDbEntity
  8
JISSEN
100
AcDbPolyline
 90
        3
 70
     0
 43
0.0
 10
92.86298609570284
 20
114.8479123814618
 42
0.0222413121313491
 10
92.51952476395732
 20
114.9153644164665
 42
0.0069244247785704
 10
92.25369876876877
 20
114.951632216276
 42
0.0155729562488785
  0
LINE
  5
EF7C88FF1
330
EF7C85532
100
AcDbEntity
  8
JISSEN
100
AcDbLine
 10
93.356069458424
 20
114.2206497285431
 30
0.0
 11
93.356069458424
 21
114.0638702228461
 31
0.0
  0
ARC
  5
EF7C88FF2
330
EF7C85532
100
AcDbEntity
  8
JISSEN
100
AcDbCircle
 10
92.71055017459977
 20
114.2206497285431
 30
0.0
 40
0.6455192838242088
100
AcDbArc
 50
0.0
 51
76.34089481470344
  0
ARC
  5
EF7C88FF3
330
EF7C85532
100
AcDbEntity
  8
JISSEN
100
AcDbCircle
 10
90.49992721704475
 20
94.88529425303047
 30
0.0
 40
19.39008315435972
100
AcDbArc
 50
81.08020482367491
 51
85.29801660105169
  0
LINE
  5
EF7C88FF4
330
EF7C85532
100
AcDbEntity
  8
JISSEN
100
AcDbLine
 10
93.5063927342861
 20
114.0408806399469
 30
0.0
 11
93.5063927342861
 21
111.0765494100716
 31
0.0
  0
LINE
  5
EF7C88FF5
330
EF7C85532
100
AcDbEntity
  8
JISSEN
100
AcDbLine
 10
92.25369876876882
 20
114.8471863504554
 30
0.0
 11
88.74615566532057
 21
114.8471863504554
 31
0.0
  0
ARC
  5
EF7C88FF6
330
EF7C85532
100
AcDbEntity
  8
JISSEN
100
AcDbCircle
 10
87.49346169980325
 20
108.1050038722636
 30
0.0
 40
1.50323275862069
100
AcDbArc
 50
180.0
 51
270.0
  0
LWPOLYLINE
  5
EF7C88FF7
330
EF7C85532
100
AcDbEntity
  8
JISSEN
100
AcDbPolyline
 90
        2
 70
     0
 43
0.0
 10
88.34057787941484
 20
106.2317187790564
 42
-0.0047313531205596
 10
87.86926988945836
 20
106.2624052624945
 42
-0.0263064786181953
  0
ARC
  5
EF7C88FF8
330
EF7C85532
100
AcDbEntity
  8
JISSEN
100
AcDbCircle
 10
87.86926988945841
 20
106.9024176653672
 30
0.0
 40
1.202586206896552
100
AcDbArc
 50
270.0
 51
291.4232972478953
  0
ARC
  5
EF7C88FF9
330
EF7C85532
100
AcDbEntity
  8
JISSEN
100
AcDbCircle
 10
90.49992721704475
 20
87.76433743261288
 30
0.0
 40
19.39008315435972
100
AcDbArc
 50
96.22224717316003
 51
97.42392958962563
  0
ARC
  5
EF7C88FFA
330
EF7C85532
100
AcDbEntity
  8
JISSEN
100
AcDbCircle
 10
90.49992721704459
 20
126.2194206361641
 30
0.0
 40
19.39008315435972
100
AcDbArc
 50
262.5760704103743
 51
263.7573957713725
  0
LINE
  5
EF7C88FFB
330
EF7C85532
100
AcDbEntity
  8
JISSEN
100
AcDbLine
 10
87.49346169980325
 20
106.601771113643
 30
0.0
 11
87.86926988945841
 21
106.601771113643
 31
0.0
  0
LWPOLYLINE
  5
EF7C88FFC
330
EF7C85532
100
AcDbEntity
  8
JISSEN
100
AcDbPolyline
 90
        2
 70
     0
 43
0.0
 10
93.13058454463075
 20
106.2624052624945
 42
-0.0047313531205585
 10
92.65927655467455
 20
106.2317187790564
 42
-0.0078363086204064
  0
ARC
  5
EF7C88FFD
330
EF7C85532
100
AcDbEntity
  8
JISSEN
100
AcDbCircle
 10
93.1305845446308
 20
106.9024176653672
 30
0.0
 40
1.202586206896552
100
AcDbArc
 50
248.576702752115
 51
270.0
  0
ARC
  5
EF7C88FFE
330
EF7C85532
100
AcDbEntity
  8
JISSEN
100
AcDbCircle
 10
90.49992721704475
 20
87.76433743261288
 30
0.0
 40
19.39008315435972
100
AcDbArc
 50
82.57607041037436
 51
83.77775282683996
  0
ARC
  5
EF7C88FFF
330
EF7C85532
100
AcDbEntity
  8
JISSEN
100
AcDbCircle
 10
90.49992721704459
 20
126.2194206361641
 30
0.0
 40
19.39008315435972
100
AcDbArc
 50
276.2426042286274
 51
277.4239295896288
  0
LINE
  5
EF7C89000
330
EF7C85532
100
AcDbEntity
  8
JISSEN
100
AcDbLine
 10
93.50639273428603
 20
106.601771113643
 30
0.0
 11
93.1305845446308
 21
106.601771113643
 31
0.0
  0
LINE
  5
EF7C89001
330
EF7C85532
100
AcDbEntity
  8
JISSEN
100
AcDbLine
 10
94.19855036256771
 20
99.10980295384035
 30
0.0
 11
95.58158914210853
 21
99.10980295384035
 31
0.0
  0
LINE
  5
EF7C89002
330
EF7C85532
100
AcDbEntity
  8
JISSEN
100
AcDbLine
 10
97.0139358377343
 20
101.7423011269604
 30
0.0
 11
97.0139358377343
 21
98.02293366339434
 31
0.0
  0
LINE
  5
EF7C89003
330
EF7C85532
100
AcDbEntity
  8
JISSEN
100
AcDbLine
 10
97.16425911359639
 20
100.9976955398648
 30
0.0
 11
97.16425911359639
 21
98.02293366339434
 31
0.0
  0
LINE
  5
EF7C89004
330
EF7C85532
100
AcDbEntity
  8
JISSEN
100
AcDbLine
 10
97.0139358377343
 20
100.9976955398648
 30
0.0
 11
97.16425911359644
 21
100.9976955398648
 31
0.0
  0
LINE
  5
EF7C89005
330
EF7C85532
100
AcDbEntity
  8
JISSEN
100
AcDbLine
 10
97.16425911359639
 20
98.02293366339434
 30
0.0
 11
97.0139358377343
 21
98.02293366339434
 31
0.0
  0
LINE
  5
EF7C89006
330
EF7C85532
100
AcDbEntity
  8
JISSEN
100
AcDbLine
 10
83.9859185963551
 20
101.7423011269604
 30
0.0
 11
83.9859185963551
 21
98.02293366339434
 31
0.0
  0
LINE
  5
EF7C89007
330
EF7C85532
100
AcDbEntity
  8
JISSEN
100
AcDbLine
 10
83.83559532049302
 20
100.9976955398648
 30
0.0
 11
83.83559532049295
 21
98.02293366339434
 31
0.0
  0
LINE
  5
EF7C89008
330
EF7C85532
100
AcDbEntity
  8
JISSEN
100
AcDbLine
 10
86.7474807681663
 20
98.3742178079829
 30
0.0
 11
86.86133305258849
 21
99.93019902842046
 31
0.0
  0
LINE
  5
EF7C89009
330
EF7C85532
100
AcDbEntity
  8
JISSEN
100
AcDbLine
 10
94.1385213815009
 20
99.93019902842046
 30
0.0
 11
94.25237366592321
 21
98.3742178079829
 31
0.0
  0
LINE
  5
EF7C8900A
330
EF7C85532
100
AcDbEntity
  8
JISSEN
100
AcDbLine
 10
85.41826529198081
 20
99.10980295384035
 30
0.0
 11
86.80130407152162
 21
99.10980295384035
 31
0.0
  0
ARC
  5
EF7C8900B
330
EF7C85532
100
AcDbEntity
  8
JISSEN
100
AcDbCircle
 10
86.49130652738959
 20
101.3871784713912
 30
0.0
 40
1.50323275862069
100
AcDbArc
 50
284.2500326978036
 51
0.0
  0
ARC
  5
EF7C8900C
330
EF7C85532
100
AcDbEntity
  8
JISSEN
100
AcDbCircle
 10
94.50854790669982
 20
101.3871784713912
 30
0.0
 40
1.50323275862069
100
AcDbArc
 50
180.0
 51
255.7499673021965
  0
LINE
  5
EF7C8900D
330
EF7C85532
100
AcDbEntity
  8
JISSEN
100
AcDbLine
 10
83.9859185963551
 20
100.9976955398648
 30
0.0
 11
83.83559532049295
 21
100.9976955398648
 31
0.0
  0
ARC
  5
EF7C8900E
330
EF7C85532
100
AcDbEntity
  8
JISSEN
100
AcDbCircle
 10
86.26104680706745
 20
98.40981053684386
 30
0.0
 40
0.4877343958118496
100
AcDbArc
 50
298.1707402297524
 51
355.8150838748825
  0
ARC
  5
EF7C8900F
330
EF7C85532
100
AcDbEntity
  8
JISSEN
100
AcDbCircle
 10
94.73880762702188
 20
98.40981053684386
 30
0.0
 40
0.4877343958118496
100
AcDbArc
 50
184.1849161251174
 51
241.8292597702475
  0
LINE
  5
EF7C89010
330
EF7C85532
100
AcDbEntity
  8
JISSEN
100
AcDbLine
 10
83.9859185963551
 20
98.02293366339434
 30
0.0
 11
83.83559532049295
 21
98.02293366339434
 31
0.0
  0
LINE
  5
EF7C89011
330
EF7C85532
100
AcDbEntity
  8
JISSEN
100
AcDbLine
 10
78.97514273428615
 20
103.1809870000166
 30
0.0
 11
78.97514273428615
 21
106.6445599841953
 31
0.0
  0
LINE
  5
EF7C89012
330
EF7C85532
100
AcDbEntity
  8
JISSEN
100
AcDbLine
 10
82.98376342394115
 20
106.8523099067464
 30
0.0
 11
82.98376342394115
 21
111.8630857688154
 31
0.0
  0
ARC
  5
EF7C89013
330
EF7C85532
100
AcDbEntity
  8
JISSEN
100
AcDbCircle
 10
82.98376342394126
 20
106.6445599841953
 30
0.0
 40
4.008620689655175
100
AcDbArc
 50
94.99999999999976
 51
180.0
  0
LINE
  5
EF7C89014
330
EF7C85532
100
AcDbEntity
  8
JISSEN
100
AcDbLine
 10
82.98376342394115
 20
110.6684929536579
 30
0.0
 11
82.63438911034072
 21
110.6379266618907
 31
0.0
  0
LINE
  5
EF7C89015
330
EF7C85532
100
AcDbEntity
  8
JISSEN
100
AcDbLine
 10
78.97514273428615
 20
106.6598722640027
 30
0.0
 11
78.97514273428615
 21
106.6598722640027
 31
0.0
  0
ARC
  5
EF7C89016
330
EF7C85532
100
AcDbEntity
  8
JISSEN
100
AcDbCircle
 10
79.97729790669987
 20
103.1809870000166
 30
0.0
 40
1.002155172413793
100
AcDbArc
 50
180.0
 51
274.9999999999997
  0
LINE
  5
EF7C89017
330
EF7C85532
100
AcDbEntity
  8
JISSEN
100
AcDbLine
 10
83.70263245519154
 20
102.5009282984855
 30
0.0
 11
80.0646414851
 21
102.1826453305928
 31
0.0
  0
ARC
  5
EF7C89018
330
EF7C85532
100
AcDbEntity
  8
JISSEN
100
AcDbCircle
 10
98.51716859635505
 20
114.5312371937021
 30
0.0
 40
28.06034482758622
100
AcDbArc
 50
180.0
 51
202.024312837042
  0
ARC
  5
EF7C89019
330
EF7C85532
100
AcDbEntity
  8
JISSEN
100
AcDbCircle
 10
98.51716859635505
 20
114.5312371937021
 30
0.0
 40
26.05603448275864
100
AcDbArc
 50
173.5656684449006
 51
202.8116279939228
  0
ARC
  5
EF7C8901A
330
EF7C85532
100
AcDbEntity
  8
JISSEN
100
AcDbCircle
 10
87.76708043548316
 20
114.0678271481258
 30
0.0
 40
1.50323275862069
100
AcDbArc
 50
90.0
 51
165.8509954910654
  0
LINE
  5
EF7C8901B
330
EF7C85532
100
AcDbEntity
  8
JISSEN
100
AcDbLine
 10
88.74615566532057
 20
114.8471863504554
 30
0.0
 11
88.74615566532057
 21
117.3649714436497
 31
0.0
  0
ARC
  5
EF7C8901C
330
EF7C85532
100
AcDbEntity
  8
JISSEN
100
AcDbCircle
 10
96.51285825152738
 20
111.8630857688154
 30
0.0
 40
13.52909482758621
100
AcDbArc
 50
138.1725878762896
 51
180.0
  0
ARC
  5
EF7C8901D
330
EF7C85532
100
AcDbEntity
  8
JISSEN
100
AcDbCircle
 10
93.232773998606
 20
114.0678271481258
 30
0.0
 40
1.50323275862069
100
AcDbArc
 50
14.14900450893456
 51
90.0
  0
LINE
  5
EF7C8901E
330
EF7C85532
100
AcDbEntity
  8
JISSEN
100
AcDbLine
 10
92.25369876876882
 20
117.3649714436497
 30
0.0
 11
92.25369876876882
 21
114.8471863504554
 31
0.0
  0
ARC
  5
EF7C8901F
330
EF7C85532
100
AcDbEntity
  8
JISSEN
100
AcDbCircle
 10
85.4891513549758
 20
114.5312371937021
 30
0.0
 40
15.0323275862069
100
AcDbArc
 50
145.159877511125
 51
180.0
  0
ARC
  5
EF7C89021
330
EF7C85532
100
AcDbEntity
  8
JISSEN
100
AcDbCircle
 10
90.49992721704498
 20
119.3707956837791
 30
0.0
 40
5.010775862068968
100
AcDbArc
 50
239.9999999999998
 51
243.6791901783917
  0
ARC
  5
EF7C89022
330
EF7C85532
100
AcDbEntity
  8
JISSEN
100
AcDbCircle
 10
90.49992721704498
 20
119.3707956837791
 30
0.0
 40
5.010775862068968
100
AcDbArc
 50
296.3208098216078
 51
299.9999999999999
  0
ARC
  5
EF7C89024
330
EF7C85532
100
AcDbEntity
  8
JISSEN
100
AcDbCircle
 10
84.48699618256185
 20
111.8630857688154
 30
0.0
 40
13.52909482758621
100
AcDbArc
 50
0.0
 51
41.82741212371037
  0
LINE
  5
EF7C89026
330
EF7C85532
100
AcDbEntity
  8
JISSEN
100
AcDbLine
 10
82.01528399581244
 20
120.8854910115648
 30
0.0
 11
99.05192192684697
 21
120.8854910115647
 31
0.0
  0
ARC
  5
EF7C89028
330
EF7C85532
100
AcDbEntity
  8
JISSEN
100
AcDbCircle
 10
98.01609101014818
 20
106.6445599841953
 30
0.0
 40
4.008620689655175
100
AcDbArc
 50
0.0
 51
85.00000000000019
  0
LINE
  5
EF7C89029
330
EF7C85532
100
AcDbEntity
  8
JISSEN
100
AcDbLine
 10
97.29722197889785
 20
102.5009282984855
 30
0.0
 11
100.9352129489893
 21
102.1826453305928
 31
0.0
  0
LINE
  5
EF7C8902E
330
EF7C85532
100
AcDbEntity
  8
JISSEN
100
AcDbLine
 10
111.5788615820193
 20
133.1405840967649
 30
0.0
 11
123.1382278653965
 21
125.6575552205416
 31
0.0
  0
LINE
  5
EF7C8902F
330
EF7C85532
100
AcDbEntity
  8
JISSEN
100
AcDbLine
 10
106.0670081337434
 20
123.8969224057942
 30
0.0
 11
106.0670081337434
 21
133.1405840967649
 31
0.0
  0
LINE
  5
EF7C89030
330
EF7C85532
100
AcDbEntity
  8
JISSEN
100
AcDbLine
 10
75.00019778891587
 20
123.8969224057942
 30
0.0
 11
75.00019778891587
 21
133.1405840967649
 31
0.0
  0
LWPOLYLINE
  5
EF7C89031
330
EF7C85532
100
AcDbEntity
  8
JISSEN
100
AcDbPolyline
 90
        6
 70
     1
 43
0.0
 10
58.87944457642507
 20
117.6673082346959
 10
56.88907929496863
 20
121.1147220277994
 10
58.87944457642507
 20
124.5621358209028
 10
62.8601751393376
 20
124.5621358209028
 10
64.85054042079392
 20
121.1147220277994
 10
62.8601751393376
 20
117.6673082346959
  0
CIRCLE
  5
EF7C89032
330
EF7C85532
100
AcDbEntity
  8
JISSEN
100
AcDbCircle
 10
60.86980985788151
 20
121.1147220277994
 30
0.0
 40
4.008620689655175
  0
ARC
  5
EF7C89033
330
EF7C85532
100
AcDbEntity
  8
JISSEN
100
AcDbCircle
 10
60.86980985788151
 20
121.1147220277994
 30
0.0
 40
5.411637931034486
100
AcDbArc
 50
54.94886325255635
 51
22.61986494804092
  0
ARC
  5
EF7C89034
330
EF7C85532
100
AcDbEntity
  8
JISSEN
100
AcDbCircle
 10
66.4818788233986
 20
125.6244203036615
 30
0.0
 40
2.505387931034484
100
AcDbArc
 50
149.9999999999994
 51
270.0
  0
LINE
  5
EF7C89035
330
EF7C85532
100
AcDbEntity
  8
JISSEN
100
AcDbLine
 10
64.31214922878777
 20
126.8771142691787
 30
0.0
 11
66.9973543527818
 21
131.5280259726806
 31
0.0
  0
CIRCLE
  5
EF7C89036
330
EF7C85532
100
AcDbEntity
  8
JISSEN
100
AcDbCircle
 10
60.86980985788151
 20
121.1147220277994
 30
0.0
 40
2.254849137931036
  0
LINE
  5
EF7C89039
330
EF7C85532
100
AcDbEntity
  8
JISSEN
100
AcDbLine
 10
69.48834434064
 20
133.1405840967649
 30
0.0
 11
57.92897805726275
 21
125.6575552205416
 31
0.0
  0
ARC
  5
EF7C8903B
330
EF7C85532
100
AcDbEntity
  8
JISSEN
100
AcDbCircle
 10
85.4423088491699
 20
115.8414549123238
 30
0.0
 40
17.03663793103449
100
AcDbArc
 50
154.7117681535793
 51
184.7012200115903
  0
LINE
  5
EF7C8903D
330
EF7C85532
100
AcDbEntity
  8
JISSEN
100
AcDbLine
 10
125.5909765397229
 20
95.5376044312864
 30
0.0
 11
121.6004133061573
 21
97.06299788986838
 31
0.0
  0
LINE
  5
EF7C8903E
330
EF7C85532
100
AcDbEntity
  8
JISSEN
100
AcDbLine
 10
125.5445799650428
 20
94.57943141749519
 30
0.0
 11
121.5842453059237
 21
93.05437720021314
 31
0.0
  0
LINE
  5
EF7C8903F
330
EF7C85532
100
AcDbEntity
  8
JISSEN
100
AcDbLine
 10
104.0626977889158
 20
95.5597651312477
 30
0.0
 11
102.5594650302952
 21
97.06299788986838
 31
0.0
  0
LINE
  5
EF7C89040
330
EF7C85532
100
AcDbEntity
  8
JISSEN
100
AcDbLine
 10
105.0648529613296
 20
95.5597651312477
 30
0.0
 11
106.5680857199503
 21
97.06299788986838
 31
0.0
  0
LINE
  5
EF7C89041
330
EF7C85532
100
AcDbEntity
  8
JISSEN
100
AcDbLine
 10
106.5680857199503
 20
93.05437720021322
 30
0.0
 11
105.0648529613296
 21
94.55760995883389
 31
0.0
  0
LINE
  5
EF7C89042
330
EF7C85532
100
AcDbEntity
  8
JISSEN
100
AcDbLine
 10
104.0626977889158
 20
94.55760995883389
 30
0.0
 11
102.5594650302952
 21
93.05437720021322
 31
0.0
  0
LINE
  5
EF7C89043
330
EF7C85532
100
AcDbEntity
  8
JISSEN
100
AcDbLine
 10
109.3240124440882
 20
80.41200752312674
 30
0.0
 11
106.5680857199503
 21
80.41200752312674
 31
0.0
  0
LINE
  5
EF7C89044
330
EF7C85532
100
AcDbEntity
  8
JISSEN
100
AcDbLine
 10
101.6137685161692
 20
80.41200752312674
 30
0.0
 11
100.322259270681
 21
82.35213886065668
 31
0.0
  0
LINE
  5
EF7C89045
330
EF7C85532
100
AcDbEntity
  8
JISSEN
100
AcDbLine
 10
102.5594650302952
 20
82.05762279505425
 30
0.0
 11
101.7472999293947
 21
82.79896755105557
 31
0.0
  0
LINE
  5
EF7C89046
330
EF7C85532
100
AcDbEntity
  8
JISSEN
100
AcDbLine
 10
101.7472999293947
 20
82.79896755105557
 30
0.0
 11
99.48803658580121
 21
82.79896755105557
 31
0.0
  0
ARC
  5
EF7C89047
330
EF7C85532
100
AcDbEntity
  8
JISSEN
100
AcDbCircle
 10
102.2932901312955
 20
81.44054621484873
 30
0.0
 40
1.358421336206897
100
AcDbArc
 50
78.70010856603477
 51
109.7312025061782
  0
ARC
  5
EF7C89048
330
EF7C85532
100
AcDbEntity
  8
JISSEN
100
AcDbCircle
 10
99.48803658580121
 20
81.79681237864134
 30
0.0
 40
1.002155172413793
100
AcDbArc
 50
33.65096582460155
 51
132.0810525119087
  0
LINE
  5
EF7C89049
330
EF7C85532
100
AcDbEntity
  8
JISSEN
100
AcDbLine
 10
107.0274580577755
 20
81.15820327670977
 30
0.0
 11
109.3240124440882
 21
80.41200752312674
 31
0.0
1001
ACAD
1000
ASC_BOUNDS
1002
{
1070
    19
1002
}
  0
LINE
  5
EF7C8904A
330
EF7C85532
100
AcDbEntity
  8
JISSEN
100
AcDbLine
 10
106.5680857199503
 20
81.15820327670984
 30
0.0
 11
107.0274580577755
 21
81.15820327670977
 31
0.0
1001
ACAD
1000
ASC_BOUNDS
1002
{
1070
    19
1002
}
  0
LINE
  5
EF7C8904B
330
EF7C85532
100
AcDbEntity
  8
JISSEN
100
AcDbLine
 10
98.8913544804831
 20
81.46782913150474
 30
0.0
 11
98.84456996845964
 21
81.38679597967287
 31
0.0
  0
LINE
  5
EF7C8904C
330
EF7C85532
100
AcDbEntity
  8
JISSEN
100
AcDbLine
 10
100.289486033112
 20
80.41200752312674
 30
0.0
 11
99.57220028957275
 21
81.48952868982808
 31
0.0
  0
ARC
  5
EF7C8904D
330
EF7C85532
100
AcDbEntity
  8
JISSEN
100
AcDbCircle
 10
99.23851121562083
 20
81.26739809702195
 30
0.0
 40
0.4008620689655177
100
AcDbArc
 50
33.65096582460222
 51
149.9999999999987
  0
LINE
  5
EF7C8904E
330
EF7C85532
100
AcDbEntity
  8
JISSEN
100
AcDbLine
 10
121.5842453059237
 20
93.05437720021314
 30
0.0
 11
106.5680857199503
 21
93.05437720021322
 31
0.0
  0
LINE
  5
EF7C8904F
330
EF7C85532
100
AcDbEntity
  8
JISSEN
100
AcDbLine
 10
121.6004133061573
 20
97.06299788986838
 30
0.0
 11
106.5680857199503
 21
97.06299788986838
 31
0.0
  0
LINE
  5
EF7C89050
330
EF7C85532
100
AcDbEntity
  8
JISSEN
100
AcDbLine
 10
109.0143294648117
 20
79.45890131606363
 30
0.0
 11
106.5680857199502
 21
79.45890131606363
 31
0.0
  0
LINE
  5
EF7C89051
330
EF7C85532
100
AcDbEntity
  8
JISSEN
100
AcDbLine
 10
102.5594650302952
 20
65.41171876702453
 30
0.0
 11
102.5594650302952
 21
93.05437720021322
 31
0.0
  0
LINE
  5
EF7C89052
330
EF7C85532
100
AcDbEntity
  8
JISSEN
100
AcDbLine
 10
106.5680857199503
 20
67.44747249323651
 30
0.0
 11
106.5680857199503
 21
93.05437720021314
 31
0.0
  0
ARC
  5
EF7C89053
330
EF7C85532
100
AcDbEntity
  8
JISSEN
100
AcDbCircle
 10
90.53360296132964
 20
94.05653237262702
 30
0.0
 40
31.06681034482761
100
AcDbArc
 50
301.0729509721523
 51
358.1514283547715
  0
LINE
  5
EF7C89054
330
EF7C85532
100
AcDbEntity
  8
JISSEN
100
AcDbLine
 10
109.3240124440882
 20
80.41200752312674
 30
0.0
 11
109.0143294648117
 21
79.45890131606363
 31
0.0
1001
ACAD
1000
ASC_BOUNDS
1002
{
1070
    19
1002
}
  0
LINE
  5
EF7C89055
330
EF7C85532
100
AcDbEntity
  8
JISSEN
100
AcDbLine
 10
94.50854790669987
 20
97.41893626075276
 30
0.0
 11
96.10005202024897
 21
97.5596653446799
 31
0.0
  0
LINE
  5
EF7C89056
330
EF7C85532
100
AcDbEntity
  8
JISSEN
100
AcDbLine
 10
86.49130652738952
 20
97.41893626075276
 30
0.0
 11
84.89980241384037
 21
97.5596653446799
 31
0.0
  0
LINE
  5
EF7C89057
330
EF7C85532
100
AcDbEntity
  8
JISSEN
100
AcDbLine
 10
86.05837591886567
 20
80.41200752312667
 30
0.0
 11
86.63058161298918
 21
82.43431268107356
 31
0.0
  0
LINE
  5
EF7C89058
330
EF7C85532
100
AcDbEntity
  8
JISSEN
100
AcDbLine
 10
88.02920471132186
 20
80.41200752312667
 30
0.0
 11
88.27433961773611
 21
82.79896755105557
 31
0.0
  0
LINE
  5
EF7C89059
330
EF7C85532
100
AcDbEntity
  8
JISSEN
100
AcDbLine
 10
88.04249335994226
 20
80.54140350979391
 30
0.0
 11
87.60038851280697
 21
82.41307872757781
 31
0.0
  0
LINE
  5
EF7C8905A
330
EF7C85532
100
AcDbEntity
  8
JISSEN
100
AcDbLine
 10
93.02471256271743
 20
80.54140350979507
 30
0.0
 11
93.46681740985237
 21
82.41307872757781
 31
0.0
  0
LINE
  5
EF7C8905B
330
EF7C85532
100
AcDbEntity
  8
JISSEN
100
AcDbLine
 10
92.79286630492325
 20
82.79896755105557
 30
0.0
 11
93.03800121133795
 21
80.41200752312674
 31
0.0
  0
LINE
  5
EF7C8905C
330
EF7C85532
100
AcDbEntity
  8
JISSEN
100
AcDbLine
 10
95.00883000379374
 20
80.41200752312674
 30
0.0
 11
94.43662430967018
 21
82.43431268107356
 31
0.0
  0
LINE
  5
EF7C8905D
330
EF7C85532
100
AcDbEntity
  8
JISSEN
100
AcDbLine
 10
93.95447538050362
 20
82.79896755105557
 30
0.0
 11
97.86763427928557
 21
82.79896755105557
 31
0.0
  0
ARC
  5
EF7C8905E
330
EF7C85532
100
AcDbEntity
  8
JISSEN
100
AcDbCircle
 10
107.2860263549756
 20
88.47520271094357
 30
0.0
 40
12.52693965517241
100
AcDbArc
 50
163.7397952916876
 51
196.2602047083123
  0
LINE
  5
EF7C8905F
330
EF7C85532
100
AcDbEntity
  8
JISSEN
100
AcDbLine
 10
95.76124187221713
 20
82.75418163988492
 30
0.0
 11
95.76124187221713
 21
83.81109436839826
 31
0.0
  0
ARC
  5
EF7C89060
330
EF7C85532
100
AcDbEntity
  8
JISSEN
100
AcDbCircle
 10
73.71382807911365
 20
88.47520271094357
 30
0.0
 40
12.52693965517241
100
AcDbArc
 50
343.7397952916877
 51
16.26020470831234
  0
ARC
  5
EF7C89061
330
EF7C85532
100
AcDbEntity
  8
JISSEN
100
AcDbCircle
 10
87.11273054215579
 20
82.29788996484776
 30
0.0
 40
0.5010775862068969
100
AcDbArc
 50
13.29012998990315
 51
164.2012849264971
  0
ARC
  5
EF7C89062
330
EF7C85532
100
AcDbEntity
  8
JISSEN
100
AcDbCircle
 10
93.95447538050362
 20
82.29788996484776
 30
0.0
 40
0.5010775862068969
100
AcDbArc
 50
15.7987150735029
 51
166.7098700100968
  0
LINE
  5
EF7C89063
330
EF7C85532
100
AcDbEntity
  8
JISSEN
100
AcDbLine
 10
88.27433961773611
 20
82.79896755105557
 30
0.0
 11
92.79286630492325
 21
82.79896755105557
 31
0.0
  0
LINE
  5
EF7C89064
330
EF7C85532
100
AcDbEntity
  8
JISSEN
100
AcDbLine
 10
85.23861256187226
 20
82.75418163988492
 30
0.0
 11
85.23861256187226
 21
83.81109436839826
 31
0.0
  0
ARC
  5
EF7C89065
330
EF7C85532
100
AcDbEntity
  8
JISSEN
100
AcDbCircle
 10
87.31284902801908
 20
81.49737819908125
 30
0.0
 40
0.1002155172413794
100
AcDbArc
 50
13.2901299899087
 51
164.2012849264931
  0
LINE
  5
EF7C89066
330
EF7C85532
100
AcDbEntity
  8
JISSEN
100
AcDbLine
 10
86.90159650165114
 20
80.41200752312667
 30
0.0
 11
87.21641924218571
 21
81.52466274232638
 31
0.0
  0
LINE
  5
EF7C89067
330
EF7C85532
100
AcDbEntity
  8
JISSEN
100
AcDbLine
 10
87.67219567114356
 20
80.41200752312667
 30
0.0
 11
87.41038062214929
 21
81.52041595162726
 31
0.0
  0
ARC
  5
EF7C89068
330
EF7C85532
100
AcDbEntity
  8
JISSEN
100
AcDbCircle
 10
93.75435689464032
 20
81.49737819908125
 30
0.0
 40
0.1002155172413794
100
AcDbArc
 50
15.79871507350682
 51
166.7098700100912
  0
LINE
  5
EF7C89069
330
EF7C85532
100
AcDbEntity
  8
JISSEN
100
AcDbLine
 10
94.16560942100844
 20
80.41200752312674
 30
0.0
 11
93.85078668047365
 21
81.52466274232638
 31
0.0
  0
LINE
  5
EF7C8906A
330
EF7C85532
100
AcDbEntity
  8
JISSEN
100
AcDbLine
 10
93.39501025151591
 20
80.41200752312674
 30
0.0
 11
93.65682530051007
 21
81.52041595162726
 31
0.0
  0
LINE
  5
EF7C8906B
330
EF7C85532
100
AcDbEntity
  8
JISSEN
100
AcDbLine
 10
76.00235296132964
 20
95.5597651312477
 30
0.0
 11
74.49912020270895
 21
97.06299788986838
 31
0.0
  0
LINE
  5
EF7C8906C
330
EF7C85532
100
AcDbEntity
  8
JISSEN
100
AcDbLine
 10
77.00450813374343
 20
95.5597651312477
 30
0.0
 11
78.50774089236418
 21
97.06299788986838
 31
0.0
  0
LINE
  5
EF7C8906D
330
EF7C85532
100
AcDbEntity
  8
JISSEN
100
AcDbLine
 10
77.00450813374343
 20
94.55760995883389
 30
0.0
 11
78.50774089236418
 21
93.05437720021322
 31
0.0
  0
LINE
  5
EF7C8906E
330
EF7C85532
100
AcDbEntity
  8
JISSEN
100
AcDbLine
 10
74.49912020270895
 20
93.05437720021322
 30
0.0
 11
76.00235296132964
 21
94.55760995883389
 31
0.0
  0
LINE
  5
EF7C8906F
330
EF7C85532
100
AcDbEntity
  8
JISSEN
100
AcDbLine
 10
78.50774089236418
 20
82.05762279505425
 30
0.0
 11
79.31990599326465
 21
82.79896755105557
 31
0.0
  0
LINE
  5
EF7C89070
330
EF7C85532
100
AcDbEntity
  8
JISSEN
100
AcDbLine
 10
82.25079490674543
 20
82.54060945007237
 30
0.0
 11
82.60109785951526
 21
81.93386693783361
 31
0.0
  0
LINE
  5
EF7C89071
330
EF7C85532
100
AcDbEntity
  8
JISSEN
100
AcDbLine
 10
81.54828047792959
 20
80.41200752312667
 30
0.0
 11
83.19957164337385
 21
82.79896755105557
 31
0.0
  0
LINE
  5
EF7C89072
330
EF7C85532
100
AcDbEntity
  8
JISSEN
100
AcDbLine
 10
79.45343740649005
 20
80.41200752312667
 30
0.0
 11
80.74494665197827
 21
82.35213886065668
 31
0.0
  0
ARC
  5
EF7C89073
330
EF7C85532
100
AcDbEntity
  8
JISSEN
100
AcDbCircle
 10
78.77391579136386
 20
81.44054621484873
 30
0.0
 40
1.358421336206897
100
AcDbArc
 50
70.26879749382176
 51
101.2998914339686
  0
ARC
  5
EF7C89074
330
EF7C85532
100
AcDbEntity
  8
JISSEN
100
AcDbCircle
 10
81.57916933685809
 20
81.79681237864134
 30
0.0
 40
1.002155172413793
100
AcDbArc
 50
47.9189474880913
 51
146.3490341753984
  0
LINE
  5
EF7C89075
330
EF7C85532
100
AcDbEntity
  8
JISSEN
100
AcDbLine
 10
79.31990599326465
 20
82.79896755105557
 30
0.0
 11
81.57916933685809
 21
82.79896755105557
 31
0.0
  0
LINE
  5
EF7C89076
330
EF7C85532
100
AcDbEntity
  8
JISSEN
100
AcDbLine
 10
82.17585144217625
 20
81.46782913150474
 30
0.0
 11
82.22263595419965
 21
81.38679597967287
 31
0.0
  0
ARC
  5
EF7C89077
330
EF7C85532
100
AcDbEntity
  8
JISSEN
100
AcDbCircle
 10
81.82869470703852
 20
81.26739809702195
 30
0.0
 40
0.4008620689655177
100
AcDbArc
 50
30.00000000000125
 51
146.3490341753977
  0
LINE
  5
EF7C89078
330
EF7C85532
100
AcDbEntity
  8
JISSEN
100
AcDbLine
 10
80.77771988954728
 20
80.41200752312667
 30
0.0
 11
81.49500563308661
 21
81.48952868982808
 31
0.0
  0
LINE
  5
EF7C89079
330
EF7C85532
100
AcDbEntity
  8
JISSEN
100
AcDbLine
 10
74.49912020270895
 20
81.15820327670977
 30
0.0
 11
74.03974786488404
 21
81.15820327670977
 31
0.0
  0
LINE
  5
EF7C8907A
330
EF7C85532
100
AcDbEntity
  8
JISSEN
100
AcDbLine
 10
74.03974786488376
 20
81.1582032767097
 30
0.0
 11
71.74319347857104
 21
80.41200752312667
 31
0.0
1001
ACAD
1000
ASC_BOUNDS
1002
{
1070
    19
1002
}
  0
LINE
  5
EF7C8907B
330
EF7C85532
100
AcDbEntity
  8
JISSEN
100
AcDbLine
 10
74.499120202709
 20
80.41200752312667
 30
0.0
 11
71.74319347857104
 21
80.41200752312667
 31
0.0
  0
LINE
  5
EF7C8907C
330
EF7C85532
100
AcDbEntity
  8
JISSEN
100
AcDbLine
 10
78.50774089236418
 20
91.63274074867912
 30
0.0
 11
85.23861256187226
 21
83.6732130043425
 31
0.0
  0
LINE
  5
EF7C8907D
330
EF7C85532
100
AcDbEntity
  8
JISSEN
100
AcDbLine
 10
87.11273054215579
 20
82.79896755105557
 30
0.0
 11
83.19957164337385
 21
82.79896755105557
 31
0.0
  0
LINE
  5
EF7C8907E
330
EF7C85532
100
AcDbEntity
  8
JISSEN
100
AcDbLine
 10
74.49912020270895
 20
79.45890131606363
 30
0.0
 11
72.05287645784759
 21
79.45890131606356
 31
0.0
  0
LINE
  5
EF7C8907F
330
EF7C85532
100
AcDbEntity
  8
JISSEN
100
AcDbLine
 10
74.49912020270895
 20
67.44747249323651
 30
0.0
 11
74.49912020270895
 21
93.05437720021314
 31
0.0
  0
LINE
  5
EF7C89080
330
EF7C85532
100
AcDbEntity
  8
JISSEN
100
AcDbLine
 10
78.50774089236418
 20
65.41171876702453
 30
0.0
 11
78.50774089236418
 21
93.05437720021322
 31
0.0
  0
LINE
  5
EF7C89081
330
EF7C85532
100
AcDbEntity
  8
JISSEN
100
AcDbLine
 10
71.74319347857104
 20
80.41200752312667
 30
0.0
 11
72.05287645784759
 21
79.45890131606356
 31
0.0
1001
ACAD
1000
ASC_BOUNDS
1002
{
1070
    19
1002
}
  0
LINE
  5
EF7C89082
330
EF7C85532
100
AcDbEntity
  8
JISSEN
100
AcDbLine
 10
102.5594650302952
 20
93.05437720021322
 30
0.0
 11
78.50774089236418
 21
93.05437720021322
 31
0.0
  0
LINE
  5
EF7C89083
330
EF7C85532
100
AcDbEntity
  8
JISSEN
100
AcDbLine
 10
102.5594650302952
 20
97.06299788986838
 30
0.0
 11
78.50774089236418
 21
97.06299788986838
 31
0.0
  0
ARC
  5
EF7C89084
330
EF7C85532
100
AcDbEntity
  8
JISSEN
100
AcDbCircle
 10
90.53360296132964
 20
94.05653237262702
 30
0.0
 40
31.06681034482761
100
AcDbArc
 50
247.2260275993408
 51
292.7739724006591
  0
LINE
  5
EF7C89085
330
EF7C85532
100
AcDbEntity
  8
JISSEN
100
AcDbLine
 10
102.5594650302952
 20
91.71238660559309
 30
0.0
 11
95.76124187221713
 21
83.67321300434243
 31
0.0
  0
LINE
  5
EF7C89086
330
EF7C85532
100
AcDbEntity
  8
JISSEN
100
AcDbLine
 10
98.81641101591393
 20
82.54060945007237
 30
0.0
 11
98.46610806314416
 21
81.93386693783361
 31
0.0
  0
LINE
  5
EF7C89087
330
EF7C85532
100
AcDbEntity
  8
JISSEN
100
AcDbLine
 10
99.51892544472972
 20
80.41200752312674
 30
0.0
 11
97.86763427928557
 21
82.79896755105557
 31
0.0
  0
LINE
  5
EF7C89088
330
EF7C85532
100
AcDbEntity
  8
JISSEN
100
AcDbLine
 10
102.5594650302952
 20
79.45890131606363
 30
0.0
 11
78.50774089236418
 21
79.45890131606356
 31
0.0
  0
LINE
  5
EF7C89089
330
EF7C85532
100
AcDbEntity
  8
JISSEN
100
AcDbLine
 10
102.5594650302951
 20
80.41200752312674
 30
0.0
 11
78.50774089236418
 21
80.41200752312667
 31
0.0
  0
LINE
  5
EF7C8908A
330
EF7C85532
100
AcDbEntity
  8
JISSEN
100
AcDbLine
 10
104.0626977889158
 20
61.69529853643126
 30
0.0
 11
105.0648529613296
 21
61.69529853643126
 31
0.0
  0
LINE
  5
EF7C8908B
330
EF7C85532
100
AcDbEntity
  8
JISSEN
100
AcDbLine
 10
77.00450813374343
 20
61.69529853643126
 30
0.0
 11
76.00235296132964
 21
61.69529853643126
 31
0.0
  0
ARC
  5
EF7C8908C
330
EF7C85532
100
AcDbEntity
  8
JISSEN
100
AcDbCircle
 10
90.53360296132964
 20
94.05653237262702
 30
0.0
 40
35.07543103448278
100
AcDbArc
 50
247.3119088491316
 51
292.6880911508683
  0
LINE
  5
EF7C8908D
330
EF7C85532
100
AcDbEntity
  8
JISSEN
100
AcDbLine
 10
105.0648529613296
 20
61.69529853643126
 30
0.0
 11
105.0648529613296
 21
94.55760995883389
 31
0.0
  0
LINE
  5
EF7C8908E
330
EF7C85532
100
AcDbEntity
  8
JISSEN
100
AcDbLine
 10
104.0626977889158
 20
61.69529853643126
 30
0.0
 11
104.0626977889158
 21
94.55760995883389
 31
0.0
  0
LINE
  5
EF7C8908F
330
EF7C85532
100
AcDbEntity
  8
JISSEN
100
AcDbLine
 10
105.0648529613296
 20
61.69529853643126
 30
0.0
 11
106.5680857199503
 21
67.44747249323665
 31
0.0
  0
LINE
  5
EF7C89090
330
EF7C85532
100
AcDbEntity
  8
JISSEN
100
AcDbLine
 10
104.0626977889158
 20
61.69529853643126
 30
0.0
 11
102.5594650302952
 21
65.41171876702453
 31
0.0
  0
LINE
  5
EF7C89091
330
EF7C85532
100
AcDbEntity
  8
JISSEN
100
AcDbLine
 10
77.00450813374343
 20
61.69529853643126
 30
0.0
 11
77.00450813374343
 21
94.55760995883389
 31
0.0
  0
LINE
  5
EF7C89092
330
EF7C85532
100
AcDbEntity
  8
JISSEN
100
AcDbLine
 10
76.00235296132964
 20
61.69529853643126
 30
0.0
 11
76.00235296132964
 21
94.55760995883389
 31
0.0
  0
LINE
  5
EF7C89093
330
EF7C85532
100
AcDbEntity
  8
JISSEN
100
AcDbLine
 10
76.00235296132964
 20
61.69529853643126
 30
0.0
 11
74.49912020270895
 21
67.44747249323665
 31
0.0
  0
LINE
  5
EF7C89094
330
EF7C85532
100
AcDbEntity
  8
JISSEN
100
AcDbLine
 10
77.00450813374343
 20
61.69529853643126
 30
0.0
 11
78.50774089236418
 21
65.41171876702453
 31
0.0
  0
LINE
  5
EF7C89095
330
EF7C85532
100
AcDbEntity
  8
JISSEN
100
AcDbLine
 10
55.47622938293639
 20
95.5376044312864
 30
0.0
 11
59.46679261650203
 21
97.06299788986838
 31
0.0
  0
LINE
  5
EF7C89096
330
EF7C85532
100
AcDbEntity
  8
JISSEN
100
AcDbLine
 10
55.52262595761638
 20
94.57943141749519
 30
0.0
 11
59.48296061673559
 21
93.05437720021314
 31
0.0
  0
LINE
  5
EF7C89097
330
EF7C85532
100
AcDbEntity
  8
JISSEN
100
AcDbLine
 10
125.5947145704209
 20
94.55760995883389
 30
0.0
 11
55.47249135223828
 21
94.55760995883389
 31
0.0
  0
LINE
  5
EF7C89098
330
EF7C85532
100
AcDbEntity
  8
JISSEN
100
AcDbLine
 10
125.5947145704209
 20
95.5597651312477
 30
0.0
 11
55.47249135223828
 21
95.5597651312477
 31
0.0
  0
ARC
  5
EF7C89099
330
EF7C85532
100
AcDbEntity
  8
JISSEN
100
AcDbCircle
 10
90.53360296132964
 20
94.05653237262702
 30
0.0
 40
35.07543103448278
100
AcDbArc
 50
180.0
 51
245.2923958900036
  0
ARC
  5
EF7C8909A
330
EF7C85532
100
AcDbEntity
  8
JISSEN
100
AcDbCircle
 10
90.53360296132964
 20
94.05653237262702
 30
0.0
 40
31.06681034482761
100
AcDbArc
 50
181.8485716452284
 51
238.9270490278476
  0
LINE
  5
EF7C8909B
330
EF7C85532
100
AcDbEntity
  8
JISSEN
100
AcDbLine
 10
74.49912020270895
 20
97.06299788986838
 30
0.0
 11
59.46679261650203
 21
97.06299788986832
 31
0.0
  0
LINE
  5
EF7C8909C
330
EF7C85532
100
AcDbEntity
  8
JISSEN
100
AcDbLine
 10
74.49912020270895
 20
93.05437720021322
 30
0.0
 11
59.48296061673559
 21
93.05437720021322
 31
0.0
  0
ARC
  5
EF7C8909D
330
EF7C85532
100
AcDbEntity
  8
JISSEN
100
AcDbCircle
 10
90.53360296132964
 20
94.05653237262702
 30
0.0
 40
35.07543103448278
100
AcDbArc
 50
294.7076041099964
 51
0.0
  0
LINE
  5
EF7C8909E
330
EF7C85532
100
AcDbEntity
  8
JISSEN
100
AcDbLine
 10
55.45817192684686
 20
94.05653237262702
 30
0.0
 11
55.45817192684686
 21
121.1147220277994
 31
0.0
  0
LINE
  5
EF7C8909F
330
EF7C85532
100
AcDbEntity
  8
JISSEN
100
AcDbLine
 10
125.6090339958124
 20
94.05653237262702
 30
0.0
 11
125.6090339958124
 21
121.1147220277994
 31
0.0
  0
LINE
  5
EF7C890A0
330
EF7C85532
100
AcDbEntity
  8
JISSEN
100
AcDbLine
 10
59.46679261650203
 20
97.06299788986838
 30
0.0
 11
59.46679261650203
 21
115.8881200994903
 31
0.0
  0
LINE
  5
EF7C890A1
330
EF7C85532
100
AcDbEntity
  8
JISSEN
100
AcDbLine
 10
121.6004133061573
 20
97.06299788986838
 30
0.0
 11
121.6004133061573
 21
115.8881200994903
 31
0.0
  0
LINE
  5
EF7C890A2
330
EF7C85532
100
AcDbEntity
  8
JISSEN
100
AcDbLine
 10
102.5594650302952
 20
97.06299788986838
 30
0.0
 11
102.5594650302952
 21
123.119032372627
 31
0.0
  0
LINE
  5
EF7C890A3
330
EF7C85532
100
AcDbEntity
  8
JISSEN
100
AcDbLine
 10
106.5680857199503
 20
97.06299788986838
 30
0.0
 11
106.5680857199503
 21
123.119032372627
 31
0.0
  0
LINE
  5
EF7C890A4
330
EF7C85532
100
AcDbEntity
  8
JISSEN
100
AcDbLine
 10
104.0626977889158
 20
95.5597651312477
 30
0.0
 11
104.0626977889158
 21
125.4527024721289
 31
0.0
  0
LINE
  5
EF7C890A5
330
EF7C85532
100
AcDbEntity
  8
JISSEN
100
AcDbLine
 10
105.0648529613296
 20
95.5597651312477
 30
0.0
 11
105.0648529613296
 21
125.4527024721289
 31
0.0
  0
LINE
  5
EF7C890A6
330
EF7C85532
100
AcDbEntity
  8
JISSEN
100
AcDbLine
 10
76.00235296132964
 20
95.5597651312477
 30
0.0
 11
76.00235296132964
 21
125.4527024721289
 31
0.0
  0
LINE
  5
EF7C890A7
330
EF7C85532
100
AcDbEntity
  8
JISSEN
100
AcDbLine
 10
77.00450813374343
 20
95.5597651312477
 30
0.0
 11
77.00450813374343
 21
125.4527024721289
 31
0.0
  0
LINE
  5
EF7C890A8
330
EF7C85532
100
AcDbEntity
  8
JISSEN
100
AcDbLine
 10
74.49912020270895
 20
97.06299788986838
 30
0.0
 11
74.49912020270895
 21
123.119032372627
 31
0.0
  0
LINE
  5
EF7C890A9
330
EF7C85532
100
AcDbEntity
  8
JISSEN
100
AcDbLine
 10
78.50774089236418
 20
97.06299788986838
 30
0.0
 11
78.50774089236418
 21
123.119032372627
 31
0.0
  0
ARC
  5
EF7C890AA
330
EF7C85532
100
AcDbEntity
  8
JISSEN
100
AcDbCircle
 10
82.48268583773436
 20
114.5312371937021
 30
0.0
 40
30.06465517241381
100
AcDbArc
 50
324.4775122081192
 51
0.0
  0
ARC
  5
EF7C890AB
330
EF7C85532
100
AcDbEntity
  8
JISSEN
100
AcDbCircle
 10
82.48268583773436
 20
114.5312371937021
 30
0.0
 40
24.05172413793105
100
AcDbArc
 50
313.4247293943355
 51
326.5880956500691
  0
ARC
  5
EF7C890AC
330
EF7C85532
100
AcDbEntity
  8
JISSEN
100
AcDbCircle
 10
84.48699618256185
 20
106.8523099067464
 30
0.0
 40
13.52909482758621
100
AcDbArc
 50
317.7945535962688
 51
0.0
  0
ARC
  5
EF7C890AD
330
EF7C85532
100
AcDbEntity
  8
JISSEN
100
AcDbCircle
 10
96.51285825152738
 20
106.8523099067464
 30
0.0
 40
13.52909482758621
100
AcDbArc
 50
180.0
 51
222.2054464037317
  0
ARC
  5
EF7C890AE
330
EF7C85532
100
AcDbEntity
  8
JISSEN
100
AcDbCircle
 10
96.01178066532051
 20
98.55792540974061
 30
0.0
 40
1.002155172413793
100
AcDbArc
 50
275.0532481512539
 51
0.0
  0
LINE
  5
EF7C890AF
330
EF7C85532
100
AcDbEntity
  8
JISSEN
100
AcDbLine
 10
86.49130652738959
 20
97.06299788986838
 30
0.0
 11
86.49130652738959
 21
97.97985088518428
 31
0.0
  0
LINE
  5
EF7C890B0
330
EF7C85532
100
AcDbEntity
  8
JISSEN
100
AcDbLine
 10
94.50854790669987
 20
97.97985088518428
 30
0.0
 11
94.50854790669998
 21
97.06299788986838
 31
0.0
  0
ARC
  5
EF7C890B1
330
EF7C85532
100
AcDbEntity
  8
JISSEN
100
AcDbCircle
 10
84.98807376876882
 20
98.55792540974061
 30
0.0
 40
1.002155172413793
100
AcDbArc
 50
180.0
 51
264.946751848746
  0
ARC
  5
EF7C890B2
330
EF7C85532
100
AcDbEntity
  8
JISSEN
100
AcDbCircle
 10
98.51716859635505
 20
114.5312371937021
 30
0.0
 40
30.06465517241381
100
AcDbArc
 50
180.0
 51
215.5224877918807
  0
ARC
  5
EF7C890B3
330
EF7C85532
100
AcDbEntity
  8
JISSEN
100
AcDbCircle
 10
98.51716859635505
 20
114.5312371937021
 30
0.0
 40
24.05172413793105
100
AcDbArc
 50
213.7021609846639
 51
226.5752706056644
  0
LINE
  5
EF7C890B4
330
EF7C85532
100
AcDbEntity
  8
JISSEN
100
AcDbLine
 10
114.5853270992607
 20
123.119032372627
 30
0.0
 11
106.5680857199502
 21
123.119032372627
 31
0.0
  0
LINE
  5
EF7C890B5
330
EF7C85532
100
AcDbEntity
  8
JISSEN
100
AcDbLine
 10
102.5594650302952
 20
123.119032372627
 30
0.0
 11
78.50774089236418
 21
123.119032372627
 31
0.0
  0
LINE
  5
EF7C890B6
330
EF7C85532
100
AcDbEntity
  8
JISSEN
100
AcDbLine
 10
74.49912020270895
 20
123.119032372627
 30
0.0
 11
66.4818788233986
 21
123.119032372627
 31
0.0
  0
LINE
  5
EF7C890B8
330
EF7C85532
100
AcDbEntity
  8
SUNPOU
100
AcDbLine
 10
118.0406535737055
 20
72.29307610155309
 30
0.0
 11
125.835517994852
 21
50.01325624589853
 31
0.0
  0
INSERT
  5
EF7C890B9
330
EF7C85532
100
AcDbEntity
  8
SUNPOU
100
AcDbBlockReference
  2
ARROW
 10
118.0406535737056
 20
72.29307610155257
 30
0.0
 41
-1.500000000000002
 42
1.5
 43
1.5
 50
289.2830067619235
  0
CIRCLE
  5
EF7C890BA
330
EF7C85532
100
AcDbEntity
  8
SUNPOU
100
AcDbCircle
 10
127.8169247439704
 20
44.34986262594342
 30
0.0
 40
6.0
  0
TEXT
  5
EF7C890BB
330
EF7C85532
100
AcDbEntity
  8
SUNPOU
100
AcDbText
 10
125.6740676011132
 20
42.09986262594341
 30
0.0
 40
4.5
  1
2
  7
K
 72
     4
 11
127.8169247439704
 21
44.34986262594342
 31
0.0
100
AcDbText
  0
INSERT
  5
EF7C898A2
330
EF7C85532
100
AcDbEntity
  8
WAKU
100
AcDbBlockReference
  2
WAKU
 10
180.999999276
 20
0.0
 30
0.0
 41
181.0
 42
283.0
 43
181.0
  0
LINE
  5
EF7C898A3
330
EF7C85532
100
AcDbEntity
  8
JISSEN
100
AcDbLine
 10
258.101236697119
 20
136.5468834303376
 30
0.0
 11
258.520972847551
 21
149.977769041939
 31
0.0
  0
LINE
  5
EF7C898A4
330
EF7C85532
100
AcDbEntity
  8
JISSEN
100
AcDbLine
 10
284.9659677775404
 20
136.5468834303376
 30
0.0
 11
284.5462316271084
 21
149.977769041939
 31
0.0
  0
ARC
  5
EF7C898A5
330
EF7C85532
100
AcDbEntity
  8
NITEN
100
AcDbCircle
 10
286.4999989140001
 20
141.5916502438679
 30
0.0
 40
1.5
100
AcDbArc
 50
270.0
 51
0.0
  0
ARC
  5
EF7C898A6
330
EF7C85532
100
AcDbEntity
  8
NITEN
100
AcDbCircle
 10
256.4999989139999
 20
141.5916502438679
 30
0.0
 40
1.499999999999943
100
AcDbArc
 50
179.9999999999989
 51
270.0
  0
TEXT
  5
EF7C898A9
330
EF7C85532
100
AcDbEntity
  8
SUNPOU
100
AcDbText
 10
321.8454751225404
 20
7.849423898685245
 30
0.0
 40
3.0
  1
EPQR ガード作動状態
  7
K
100
AcDbText
  0
TEXT
  5
EF7C898AA
330
EF7C85532
100
AcDbEntity
  8
SUNPOU
100
AcDbText
 10
321.8454751225404
 20
2.849423898685245
 30
0.0
 40
3.0
  1
尺度　1/1
  7
K
100
AcDbText
  0
LINE
  5
EF7C898AF
330
EF7C85532
100
AcDbEntity
  8
JISSEN
100
AcDbLine
 10
255.4991194787089
 20
123.119032372627
 30
0.0
 11
247.4818780993986
 21
123.119032372627
 31
0.0
  0
ARC
  5
EF7C898B0
330
EF7C85532
100
AcDbEntity
  8
JISSEN
100
AcDbCircle
 10
279.517167872355
 20
114.5312371937021
 30
0.0
 40
30.06465517241381
100
AcDbArc
 50
180.0
 51
215.5224877918807
  0
LINE
  5
EF7C898B1
330
EF7C85532
100
AcDbEntity
  8
JISSEN
100
AcDbLine
 10
255.4991194787089
 20
93.05437720021322
 30
0.0
 11
240.4829598927356
 21
93.05437720021322
 31
0.0
  0
LINE
  5
EF7C898B2
330
EF7C85532
100
AcDbEntity
  8
JISSEN
100
AcDbLine
 10
255.4991194787089
 20
97.06299788986838
 30
0.0
 11
240.466791892502
 21
97.06299788986832
 31
0.0
  0
ARC
  5
EF7C898B3
330
EF7C85532
100
AcDbEntity
  8
JISSEN
100
AcDbCircle
 10
271.5336022373296
 20
94.05653237262702
 30
0.0
 40
31.06681034482761
100
AcDbArc
 50
181.8485716452284
 51
238.9270490278476
  0
ARC
  5
EF7C898B4
330
EF7C85532
100
AcDbEntity
  8
JISSEN
100
AcDbCircle
 10
271.5336022373296
 20
94.05653237262702
 30
0.0
 40
35.07543103448278
100
AcDbArc
 50
180.0
 51
245.2923958900036
  0
LINE
  5
EF7C898B5
330
EF7C85532
100
AcDbEntity
  8
JISSEN
100
AcDbLine
 10
306.5947138464209
 20
95.5597651312477
 30
0.0
 11
236.4724906282382
 21
95.5597651312477
 31
0.0
  0
LINE
  5
EF7C898B6
330
EF7C85532
100
AcDbEntity
  8
JISSEN
100
AcDbLine
 10
306.5947138464209
 20
94.55760995883389
 30
0.0
 11
236.4724906282382
 21
94.55760995883389
 31
0.0
  0
LINE
  5
EF7C898B7
330
EF7C85532
100
AcDbEntity
  8
JISSEN
100
AcDbLine
 10
250.48834361664
 20
133.1405840967649
 30
0.0
 11
238.9289773332627
 21
125.6575552205416
 31
0.0
  0
LINE
  5
EF7C898B8
330
EF7C85532
100
AcDbEntity
  8
JISSEN
100
AcDbLine
 10
240.466791892502
 20
97.06299788986838
 30
0.0
 11
240.466791892502
 21
115.8881200994903
 31
0.0
  0
LINE
  5
EF7C898B9
330
EF7C85532
100
AcDbEntity
  8
JISSEN
100
AcDbLine
 10
236.4581712028468
 20
94.05653237262702
 30
0.0
 11
236.4581712028468
 21
121.1147220277994
 31
0.0
  0
LINE
  5
EF7C898BA
330
EF7C85532
100
AcDbEntity
  8
JISSEN
100
AcDbLine
 10
236.5226252336164
 20
94.57943141749519
 30
0.0
 11
240.4829598927356
 21
93.05437720021314
 31
0.0
  0
LINE
  5
EF7C898BB
330
EF7C85532
100
AcDbEntity
  8
JISSEN
100
AcDbLine
 10
236.4762286589364
 20
95.53760443128641
 30
0.0
 11
240.466791892502
 21
97.06299788986838
 31
0.0
  0
CIRCLE
  5
EF7C898BC
330
EF7C85532
100
AcDbEntity
  8
JISSEN
100
AcDbCircle
 10
241.8698091338815
 20
121.1147220277994
 30
0.0
 40
2.254849137931036
  0
ARC
  5
EF7C898BD
330
EF7C85532
100
AcDbEntity
  8
JISSEN
100
AcDbCircle
 10
241.8698091338815
 20
121.1147220277994
 30
0.0
 40
5.411637931034486
100
AcDbArc
 50
54.94886325255635
 51
22.61986494804092
  0
CIRCLE
  5
EF7C898BE
330
EF7C85532
100
AcDbEntity
  8
JISSEN
100
AcDbCircle
 10
241.8698091338815
 20
121.1147220277994
 30
0.0
 40
4.008620689655175
  0
LWPOLYLINE
  5
EF7C898BF
330
EF7C85532
100
AcDbEntity
  8
JISSEN
100
AcDbPolyline
 90
        6
 70
     1
 43
0.0
 10
239.8794438524251
 20
117.6673082346959
 10
237.8890785709686
 20
121.1147220277994
 10
239.8794438524251
 20
124.5621358209028
 10
243.8601744153376
 20
124.5621358209028
 10
245.8505396967939
 20
121.1147220277994
 10
243.8601744153376
 20
117.6673082346959
  0
LINE
  5
EF7C898C0
330
EF7C85532
100
AcDbEntity
  8
JISSEN
100
AcDbLine
 10
245.3121485047877
 20
126.8771142691787
 30
0.0
 11
247.9973536287817
 21
131.5280259726806
 31
0.0
  0
ARC
  5
EF7C898C1
330
EF7C85532
100
AcDbEntity
  8
JISSEN
100
AcDbCircle
 10
247.4818780993986
 20
125.6244203036615
 30
0.0
 40
2.505387931034484
100
AcDbArc
 50
149.9999999999994
 51
270.0
  0
ARC
  5
EF7C898C2
330
EF7C85532
100
AcDbEntity
  8
JISSEN
100
AcDbCircle
 10
279.517167872355
 20
114.5312371937021
 30
0.0
 40
24.05172413793105
100
AcDbArc
 50
213.7021609846639
 51
226.5752706056644
  0
ARC
  5
EF7C898C5
330
EF7C85532
100
AcDbEntity
  8
JISSEN
100
AcDbCircle
 10
263.4826851137343
 20
114.5312371937021
 30
0.0
 40
24.05172413793105
100
AcDbArc
 50
313.4247293943355
 51
326.5880956500691
  0
ARC
  5
EF7C898C6
330
EF7C85532
100
AcDbEntity
  8
JISSEN
100
AcDbCircle
 10
263.4826851137343
 20
114.5312371937021
 30
0.0
 40
30.06465517241381
100
AcDbArc
 50
324.4775122081192
 51
0.0
  0
LINE
  5
EF7C898C7
330
EF7C85532
100
AcDbEntity
  8
JISSEN
100
AcDbLine
 10
259.5077401683642
 20
97.06299788986838
 30
0.0
 11
259.5077401683642
 21
123.119032372627
 31
0.0
  0
LINE
  5
EF7C898C8
330
EF7C85532
100
AcDbEntity
  8
JISSEN
100
AcDbLine
 10
255.4991194787089
 20
97.06299788986838
 30
0.0
 11
255.4991194787089
 21
123.119032372627
 31
0.0
  0
LINE
  5
EF7C898C9
330
EF7C85532
100
AcDbEntity
  8
JISSEN
100
AcDbLine
 10
258.0045074097433
 20
95.5597651312477
 30
0.0
 11
258.0045074097433
 21
125.4527024721289
 31
0.0
  0
LINE
  5
EF7C898CA
330
EF7C85532
100
AcDbEntity
  8
JISSEN
100
AcDbLine
 10
257.0023522373296
 20
95.5597651312477
 30
0.0
 11
257.0023522373296
 21
125.4527024721289
 31
0.0
  0
LINE
  5
EF7C898CB
330
EF7C85532
100
AcDbEntity
  8
JISSEN
100
AcDbLine
 10
286.0648522373296
 20
95.5597651312477
 30
0.0
 11
286.0648522373296
 21
125.4527024721289
 31
0.0
  0
LINE
  5
EF7C898CC
330
EF7C85532
100
AcDbEntity
  8
JISSEN
100
AcDbLine
 10
285.0626970649158
 20
95.5597651312477
 30
0.0
 11
285.0626970649158
 21
125.4527024721289
 31
0.0
  0
LINE
  5
EF7C898CD
330
EF7C85532
100
AcDbEntity
  8
JISSEN
100
AcDbLine
 10
287.5680849959503
 20
97.06299788986838
 30
0.0
 11
287.5680849959503
 21
123.119032372627
 31
0.0
  0
LINE
  5
EF7C898CE
330
EF7C85532
100
AcDbEntity
  8
JISSEN
100
AcDbLine
 10
283.5594643062952
 20
97.06299788986838
 30
0.0
 11
283.5594643062952
 21
123.119032372627
 31
0.0
  0
LINE
  5
EF7C898CF
330
EF7C85532
100
AcDbEntity
  8
JISSEN
100
AcDbLine
 10
302.6004125821573
 20
97.06299788986838
 30
0.0
 11
302.6004125821573
 21
115.8881200994903
 31
0.0
  0
LINE
  5
EF7C898D0
330
EF7C85532
100
AcDbEntity
  8
JISSEN
100
AcDbLine
 10
306.6090332718124
 20
94.05653237262702
 30
0.0
 11
306.6090332718124
 21
121.1147220277994
 31
0.0
  0
ARC
  5
EF7C898D1
330
EF7C85532
100
AcDbEntity
  8
JISSEN
100
AcDbCircle
 10
271.5336022373296
 20
94.05653237262702
 30
0.0
 40
35.07543103448278
100
AcDbArc
 50
294.7076041099964
 51
0.0
  0
ARC
  5
EF7C898D2
330
EF7C85532
100
AcDbEntity
  8
JISSEN
100
AcDbCircle
 10
271.5336022373296
 20
94.05653237262702
 30
0.0
 40
31.06681034482761
100
AcDbArc
 50
301.0729509721523
 51
358.1514283547715
  0
LINE
  5
EF7C898D3
330
EF7C85532
100
AcDbEntity
  8
JISSEN
100
AcDbLine
 10
306.5445792410428
 20
94.57943141749519
 30
0.0
 11
302.5842445819237
 21
93.05437720021314
 31
0.0
  0
LINE
  5
EF7C898D4
330
EF7C85532
100
AcDbEntity
  8
JISSEN
100
AcDbLine
 10
306.5909758157228
 20
95.53760443128641
 30
0.0
 11
302.6004125821573
 21
97.06299788986838
 31
0.0
  0
LINE
  5
EF7C898D5
330
EF7C85532
100
AcDbEntity
  8
JISSEN
100
AcDbLine
 10
257.0023522373296
 20
61.69529853643126
 30
0.0
 11
257.0023522373296
 21
94.55760995883389
 31
0.0
  0
LINE
  5
EF7C898D6
330
EF7C85532
100
AcDbEntity
  8
JISSEN
100
AcDbLine
 10
258.0045074097433
 20
61.69529853643126
 30
0.0
 11
258.0045074097433
 21
94.55760995883389
 31
0.0
  0
LINE
  5
EF7C898D7
330
EF7C85532
100
AcDbEntity
  8
JISSEN
100
AcDbLine
 10
285.0626970649158
 20
61.69529853643126
 30
0.0
 11
285.0626970649158
 21
94.55760995883389
 31
0.0
  0
LINE
  5
EF7C898D8
330
EF7C85532
100
AcDbEntity
  8
JISSEN
100
AcDbLine
 10
286.0648522373296
 20
61.69529853643126
 30
0.0
 11
286.0648522373296
 21
94.55760995883389
 31
0.0
  0
LINE
  5
EF7C898D9
330
EF7C85532
100
AcDbEntity
  8
JISSEN
100
AcDbLine
 10
259.5077401683642
 20
65.41171876702453
 30
0.0
 11
259.5077401683642
 21
93.05437720021322
 31
0.0
  0
LINE
  5
EF7C898DA
330
EF7C85532
100
AcDbEntity
  8
JISSEN
100
AcDbLine
 10
255.4991194787089
 20
67.44747249323651
 30
0.0
 11
255.4991194787089
 21
93.05437720021314
 31
0.0
  0
LINE
  5
EF7C898DB
330
EF7C85532
100
AcDbEntity
  8
JISSEN
100
AcDbLine
 10
287.5680849959503
 20
67.44747249323651
 30
0.0
 11
287.5680849959503
 21
93.05437720021314
 31
0.0
  0
LINE
  5
EF7C898DC
330
EF7C85532
100
AcDbEntity
  8
JISSEN
100
AcDbLine
 10
283.5594643062952
 20
65.41171876702453
 30
0.0
 11
283.5594643062952
 21
93.05437720021322
 31
0.0
  0
ARC
  5
EF7C898DD
330
EF7C85532
100
AcDbEntity
  8
JISSEN
100
AcDbCircle
 10
271.5336022373296
 20
94.05653237262702
 30
0.0
 40
35.07543103448278
100
AcDbArc
 50
247.3119088491316
 51
292.6880911508683
  0
ARC
  5
EF7C898DE
330
EF7C85532
100
AcDbEntity
  8
JISSEN
100
AcDbCircle
 10
271.5336022373296
 20
94.05653237262702
 30
0.0
 40
31.06681034482761
100
AcDbArc
 50
247.2260275993408
 51
292.7739724006591
  0
LINE
  5
EF7C898DF
330
EF7C85532
100
AcDbEntity
  8
JISSEN
100
AcDbLine
 10
258.0045074097433
 20
61.69529853643126
 30
0.0
 11
259.5077401683642
 21
65.41171876702453
 31
0.0
  0
LINE
  5
EF7C898E0
330
EF7C85532
100
AcDbEntity
  8
JISSEN
100
AcDbLine
 10
257.0023522373296
 20
61.69529853643126
 30
0.0
 11
255.4991194787089
 21
67.44747249323665
 31
0.0
  0
LINE
  5
EF7C898E1
330
EF7C85532
100
AcDbEntity
  8
JISSEN
100
AcDbLine
 10
258.0045074097433
 20
61.69529853643126
 30
0.0
 11
257.0023522373296
 21
61.69529853643126
 31
0.0
  0
LINE
  5
EF7C898E2
330
EF7C85532
100
AcDbEntity
  8
JISSEN
100
AcDbLine
 10
285.0626970649158
 20
61.69529853643126
 30
0.0
 11
283.5594643062952
 21
65.41171876702453
 31
0.0
  0
LINE
  5
EF7C898E3
330
EF7C85532
100
AcDbEntity
  8
JISSEN
100
AcDbLine
 10
286.0648522373296
 20
61.69529853643126
 30
0.0
 11
287.5680849959503
 21
67.44747249323665
 31
0.0
  0
LINE
  5
EF7C898E4
330
EF7C85532
100
AcDbEntity
  8
JISSEN
100
AcDbLine
 10
285.0626970649158
 20
61.69529853643126
 30
0.0
 11
286.0648522373296
 21
61.69529853643126
 31
0.0
  0
LINE
  5
EF7C898E6
330
EF7C85532
100
AcDbEntity
  8
JISSEN
100
AcDbLine
 10
283.5594643062951
 20
80.41200752312676
 30
0.0
 11
259.5077401683642
 21
80.41200752312667
 31
0.0
  0
LINE
  5
EF7C898E7
330
EF7C85532
100
AcDbEntity
  8
JISSEN
100
AcDbLine
 10
283.5594643062952
 20
79.45890131606365
 30
0.0
 11
259.5077401683642
 21
79.45890131606356
 31
0.0
  0
LINE
  5
EF7C898E8
330
EF7C85532
100
AcDbEntity
  8
JISSEN
100
AcDbLine
 10
283.5594643062952
 20
91.71238660559309
 30
0.0
 11
276.7612411482171
 21
83.67321300434241
 31
0.0
  0
LINE
  5
EF7C898E9
330
EF7C85532
100
AcDbEntity
  8
JISSEN
100
AcDbLine
 10
283.5594643062952
 20
97.06299788986838
 30
0.0
 11
259.5077401683642
 21
97.06299788986838
 31
0.0
  0
LINE
  5
EF7C898EA
330
EF7C85532
100
AcDbEntity
  8
JISSEN
100
AcDbLine
 10
283.5594643062952
 20
93.05437720021322
 30
0.0
 11
259.5077401683642
 21
93.05437720021322
 31
0.0
  0
LINE
  5
EF7C898EB
330
EF7C85532
100
AcDbEntity
  8
JISSEN
100
AcDbLine
 10
274.9544746565036
 20
82.79896755105557
 30
0.0
 11
278.8676335552855
 21
82.79896755105557
 31
0.0
  0
LINE
  5
EF7C898EC
330
EF7C85532
100
AcDbEntity
  8
JISSEN
100
AcDbLine
 10
259.5077401683642
 20
91.63274074867912
 30
0.0
 11
266.2386118378722
 21
83.6732130043425
 31
0.0
  0
ARC
  5
EF7C898ED
330
EF7C85532
100
AcDbEntity
  8
JISSEN
100
AcDbCircle
 10
254.7138273551136
 20
88.47520271094357
 30
0.0
 40
12.52693965517241
100
AcDbArc
 50
343.7397952916877
 51
16.26020470831234
  0
ARC
  5
EF7C898EE
330
EF7C85532
100
AcDbEntity
  8
JISSEN
100
AcDbCircle
 10
288.2860256309756
 20
88.47520271094357
 30
0.0
 40
12.52693965517241
100
AcDbArc
 50
163.7397952916876
 51
196.2602047083123
  0
ARC
  5
EF7C898EF
330
EF7C85532
100
AcDbEntity
  8
JISSEN
100
AcDbCircle
 10
262.8286939830385
 20
81.26739809702195
 30
0.0
 40
0.4008620689655177
100
AcDbArc
 50
30.00000000000125
 51
146.3490341753977
  0
ARC
  5
EF7C898F0
330
EF7C85532
100
AcDbEntity
  8
JISSEN
100
AcDbCircle
 10
262.5791686128581
 20
81.79681237864134
 30
0.0
 40
1.002155172413793
100
AcDbArc
 50
47.9189474880913
 51
146.3490341753984
  0
LINE
  5
EF7C898F1
330
EF7C85532
100
AcDbEntity
  8
JISSEN
100
AcDbLine
 10
262.5482797539295
 20
80.41200752312667
 30
0.0
 11
264.1995709193738
 21
82.79896755105557
 31
0.0
  0
LINE
  5
EF7C898F2
330
EF7C85532
100
AcDbEntity
  8
JISSEN
100
AcDbLine
 10
255.0397471408837
 20
81.15820327670968
 30
0.0
 11
252.743192754571
 21
80.41200752312667
 31
0.0
1001
ACAD
1000
ASC_BOUNDS
1002
{
1070
    19
1002
}
  0
LINE
  5
EF7C898F3
330
EF7C85532
100
AcDbEntity
  8
JISSEN
100
AcDbLine
 10
261.7777191655473
 20
80.41200752312667
 30
0.0
 11
262.4950049090865
 21
81.48952868982808
 31
0.0
  0
LINE
  5
EF7C898F4
330
EF7C85532
100
AcDbEntity
  8
JISSEN
100
AcDbLine
 10
260.45343668249
 20
80.41200752312667
 30
0.0
 11
261.7449459279782
 21
82.35213886065668
 31
0.0
  0
LINE
  5
EF7C898F5
330
EF7C85532
100
AcDbEntity
  8
JISSEN
100
AcDbLine
 10
252.743192754571
 20
80.41200752312667
 30
0.0
 11
253.0528757338476
 21
79.45890131606356
 31
0.0
1001
ACAD
1000
ASC_BOUNDS
1002
{
1070
    19
1002
}
  0
LINE
  5
EF7C898F6
330
EF7C85532
100
AcDbEntity
  8
JISSEN
100
AcDbLine
 10
255.4991194787089
 20
79.45890131606365
 30
0.0
 11
253.0528757338476
 21
79.45890131606356
 31
0.0
  0
LINE
  5
EF7C898F7
330
EF7C85532
100
AcDbEntity
  8
JISSEN
100
AcDbLine
 10
255.4991194787089
 20
80.41200752312667
 30
0.0
 11
252.743192754571
 21
80.41200752312667
 31
0.0
  0
LINE
  5
EF7C898F8
330
EF7C85532
100
AcDbEntity
  8
JISSEN
100
AcDbLine
 10
255.4991194787089
 20
81.15820327670977
 30
0.0
 11
255.0397471408841
 21
81.15820327670977
 31
0.0
  0
LINE
  5
EF7C898F9
330
EF7C85532
100
AcDbEntity
  8
JISSEN
100
AcDbLine
 10
260.3199052692646
 20
82.79896755105557
 30
0.0
 11
262.5791686128581
 21
82.79896755105557
 31
0.0
  0
ARC
  5
EF7C898FA
330
EF7C85532
100
AcDbEntity
  8
JISSEN
100
AcDbCircle
 10
259.7739150673638
 20
81.44054621484873
 30
0.0
 40
1.358421336206897
100
AcDbArc
 50
70.26879749382176
 51
101.2998914339686
  0
LINE
  5
EF7C898FB
330
EF7C85532
100
AcDbEntity
  8
JISSEN
100
AcDbLine
 10
259.5077401683642
 20
82.05762279505425
 30
0.0
 11
260.3199052692646
 21
82.79896755105557
 31
0.0
  0
LINE
  5
EF7C898FC
330
EF7C85532
100
AcDbEntity
  8
JISSEN
100
AcDbLine
 10
274.3950095275158
 20
80.41200752312676
 30
0.0
 11
274.65682457651
 21
81.52041595162726
 31
0.0
  0
LINE
  5
EF7C898FD
330
EF7C85532
100
AcDbEntity
  8
JISSEN
100
AcDbLine
 10
275.1656086970084
 20
80.41200752312676
 30
0.0
 11
274.8507859564735
 21
81.52466274232637
 31
0.0
  0
LINE
  5
EF7C898FE
330
EF7C85532
100
AcDbEntity
  8
JISSEN
100
AcDbLine
 10
268.6721949471435
 20
80.41200752312667
 30
0.0
 11
268.4103798981492
 21
81.52041595162726
 31
0.0
  0
LINE
  5
EF7C898FF
330
EF7C85532
100
AcDbEntity
  8
JISSEN
100
AcDbLine
 10
267.9015957776511
 20
80.41200752312667
 30
0.0
 11
268.2164185181857
 21
81.52466274232637
 31
0.0
  0
LINE
  5
EF7C89900
330
EF7C85532
100
AcDbEntity
  8
JISSEN
100
AcDbLine
 10
276.0088292797937
 20
80.41200752312676
 30
0.0
 11
275.4366235856701
 21
82.43431268107356
 31
0.0
  0
LINE
  5
EF7C89901
330
EF7C85532
100
AcDbEntity
  8
JISSEN
100
AcDbLine
 10
273.7928655809232
 20
82.79896755105557
 30
0.0
 11
274.0380004873379
 21
80.41200752312676
 31
0.0
  0
LINE
  5
EF7C89902
330
EF7C85532
100
AcDbEntity
  8
JISSEN
100
AcDbLine
 10
274.0247118387173
 20
80.54140350979507
 30
0.0
 11
274.4668166858523
 21
82.41307872757781
 31
0.0
  0
LINE
  5
EF7C89903
330
EF7C85532
100
AcDbEntity
  8
JISSEN
100
AcDbLine
 10
269.0424926359422
 20
80.54140350979389
 30
0.0
 11
268.6003877888069
 21
82.41307872757781
 31
0.0
  0
LINE
  5
EF7C89904
330
EF7C85532
100
AcDbEntity
  8
JISSEN
100
AcDbLine
 10
269.0292039873217
 20
80.41200752312667
 30
0.0
 11
269.274338893736
 21
82.79896755105557
 31
0.0
  0
LINE
  5
EF7C89905
330
EF7C85532
100
AcDbEntity
  8
JISSEN
100
AcDbLine
 10
267.0583751948656
 20
80.41200752312667
 30
0.0
 11
267.6305808889891
 21
82.43431268107356
 31
0.0
  0
LINE
  5
EF7C89907
330
EF7C85532
100
AcDbEntity
  8
JISSEN
100
AcDbLine
 10
269.274338893736
 20
82.79896755105557
 30
0.0
 11
273.7928655809232
 21
82.79896755105557
 31
0.0
  0
LINE
  5
EF7C89908
330
EF7C85532
100
AcDbEntity
  8
JISSEN
100
AcDbLine
 10
268.1127298181558
 20
82.79896755105557
 30
0.0
 11
264.1995709193738
 21
82.79896755105557
 31
0.0
  0
LINE
  5
EF7C89909
330
EF7C85532
100
AcDbEntity
  8
JISSEN
100
AcDbLine
 10
263.1758507181761
 20
81.46782913150474
 30
0.0
 11
263.2226352301996
 21
81.38679597967286
 31
0.0
  0
LINE
  5
EF7C8990A
330
EF7C85532
100
AcDbEntity
  8
JISSEN
100
AcDbLine
 10
263.2507941827453
 20
82.54060945007237
 30
0.0
 11
263.6010971355152
 21
81.93386693783361
 31
0.0
  0
ARC
  5
EF7C8990B
330
EF7C85532
100
AcDbEntity
  8
JISSEN
100
AcDbCircle
 10
268.312848304019
 20
81.49737819908125
 30
0.0
 40
0.1002155172413794
100
AcDbArc
 50
13.2901299899087
 51
164.2012849264931
  0
LINE
  5
EF7C8990C
330
EF7C85532
100
AcDbEntity
  8
JISSEN
100
AcDbLine
 10
266.2386118378722
 20
82.7541816398849
 30
0.0
 11
266.2386118378722
 21
83.81109436839825
 31
0.0
  0
ARC
  5
EF7C8990D
330
EF7C85532
100
AcDbEntity
  8
JISSEN
100
AcDbCircle
 10
268.1127298181558
 20
82.29788996484776
 30
0.0
 40
0.5010775862068969
100
AcDbArc
 50
13.29012998990315
 51
164.2012849264971
  0
ARC
  5
EF7C8990E
330
EF7C85532
100
AcDbEntity
  8
JISSEN
100
AcDbCircle
 10
274.7543561706403
 20
81.49737819908125
 30
0.0
 40
0.1002155172413794
100
AcDbArc
 50
15.79871507350682
 51
166.7098700100912
  0
ARC
  5
EF7C8990F
330
EF7C85532
100
AcDbEntity
  8
JISSEN
100
AcDbCircle
 10
274.9544746565036
 20
82.29788996484776
 30
0.0
 40
0.5010775862068969
100
AcDbArc
 50
15.7987150735029
 51
166.7098700100968
  0
LINE
  5
EF7C89910
330
EF7C85532
100
AcDbEntity
  8
JISSEN
100
AcDbLine
 10
276.7612411482171
 20
82.7541816398849
 30
0.0
 11
276.7612411482171
 21
83.81109436839825
 31
0.0
  0
LINE
  5
EF7C89911
330
EF7C85532
100
AcDbEntity
  8
JISSEN
100
AcDbLine
 10
255.4991194787089
 20
93.05437720021322
 30
0.0
 11
257.0023522373296
 21
94.55760995883389
 31
0.0
  0
LINE
  5
EF7C89912
330
EF7C85532
100
AcDbEntity
  8
JISSEN
100
AcDbLine
 10
257.0023522373296
 20
95.5597651312477
 30
0.0
 11
255.4991194787089
 21
97.06299788986838
 31
0.0
  0
LINE
  5
EF7C89913
330
EF7C85532
100
AcDbEntity
  8
JISSEN
100
AcDbLine
 10
258.0045074097433
 20
94.55760995883389
 30
0.0
 11
259.5077401683642
 21
93.05437720021322
 31
0.0
  0
LINE
  5
EF7C89914
330
EF7C85532
100
AcDbEntity
  8
JISSEN
100
AcDbLine
 10
258.0045074097433
 20
95.5597651312477
 30
0.0
 11
259.5077401683642
 21
97.06299788986838
 31
0.0
  0
LINE
  5
EF7C89915
330
EF7C85532
100
AcDbEntity
  8
JISSEN
100
AcDbLine
 10
280.5189247207297
 20
80.41200752312676
 30
0.0
 11
278.8676335552855
 21
82.79896755105557
 31
0.0
  0
LINE
  5
EF7C89916
330
EF7C85532
100
AcDbEntity
  8
JISSEN
100
AcDbLine
 10
281.289485309112
 20
80.41200752312676
 30
0.0
 11
280.5721995655727
 21
81.48952868982808
 31
0.0
  0
LINE
  5
EF7C89917
330
EF7C85532
100
AcDbEntity
  8
JISSEN
100
AcDbLine
 10
288.0274573337755
 20
81.15820327670977
 30
0.0
 11
290.3240117200882
 21
80.41200752312676
 31
0.0
1001
ACAD
1000
ASC_BOUNDS
1002
{
1070
    19
1002
}
  0
LINE
  5
EF7C89918
330
EF7C85532
100
AcDbEntity
  8
JISSEN
100
AcDbLine
 10
282.6137677921692
 20
80.41200752312676
 30
0.0
 11
281.322258546681
 21
82.35213886065668
 31
0.0
  0
LINE
  5
EF7C89919
330
EF7C85532
100
AcDbEntity
  8
JISSEN
100
AcDbLine
 10
290.3240117200882
 20
80.41200752312676
 30
0.0
 11
290.0143287408117
 21
79.45890131606365
 31
0.0
1001
ACAD
1000
ASC_BOUNDS
1002
{
1070
    19
1002
}
  0
LINE
  5
EF7C8991A
330
EF7C85532
100
AcDbEntity
  8
JISSEN
100
AcDbLine
 10
290.0143287408117
 20
79.45890131606365
 30
0.0
 11
287.5680849959502
 21
79.45890131606365
 31
0.0
  0
LINE
  5
EF7C8991B
330
EF7C85532
100
AcDbEntity
  8
JISSEN
100
AcDbLine
 10
290.3240117200882
 20
80.41200752312676
 30
0.0
 11
287.5680849959503
 21
80.41200752312676
 31
0.0
  0
LINE
  5
EF7C8991C
330
EF7C85532
100
AcDbEntity
  8
JISSEN
100
AcDbLine
 10
279.8164102919139
 20
82.54060945007237
 30
0.0
 11
279.4661073391441
 21
81.93386693783361
 31
0.0
  0
ARC
  5
EF7C8991D
330
EF7C85532
100
AcDbEntity
  8
JISSEN
100
AcDbCircle
 10
280.2385104916207
 20
81.26739809702195
 30
0.0
 40
0.4008620689655177
100
AcDbArc
 50
33.65096582460222
 51
149.9999999999987
  0
LINE
  5
EF7C8991E
330
EF7C85532
100
AcDbEntity
  8
JISSEN
100
AcDbLine
 10
279.8913537564831
 20
81.46782913150474
 30
0.0
 11
279.8445692444596
 21
81.38679597967286
 31
0.0
  0
ARC
  5
EF7C8991F
330
EF7C85532
100
AcDbEntity
  8
JISSEN
100
AcDbCircle
 10
280.4880358618012
 20
81.79681237864134
 30
0.0
 40
1.002155172413793
100
AcDbArc
 50
33.65096582460155
 51
132.0810525119087
  0
ARC
  5
EF7C89920
330
EF7C85532
100
AcDbEntity
  8
JISSEN
100
AcDbCircle
 10
283.2932894072955
 20
81.44054621484873
 30
0.0
 40
1.358421336206897
100
AcDbArc
 50
78.70010856603477
 51
109.7312025061782
  0
LINE
  5
EF7C89921
330
EF7C85532
100
AcDbEntity
  8
JISSEN
100
AcDbLine
 10
282.7472992053947
 20
82.79896755105557
 30
0.0
 11
280.4880358618012
 21
82.79896755105557
 31
0.0
  0
LINE
  5
EF7C89922
330
EF7C85532
100
AcDbEntity
  8
JISSEN
100
AcDbLine
 10
283.5594643062952
 20
82.05762279505425
 30
0.0
 11
282.7472992053947
 21
82.79896755105557
 31
0.0
  0
LINE
  5
EF7C89923
330
EF7C85532
100
AcDbEntity
  8
JISSEN
100
AcDbLine
 10
287.5680849959503
 20
81.15820327670986
 30
0.0
 11
288.0274573337755
 21
81.15820327670977
 31
0.0
1001
ACAD
1000
ASC_BOUNDS
1002
{
1070
    19
1002
}
  0
LINE
  5
EF7C89924
330
EF7C85532
100
AcDbEntity
  8
JISSEN
100
AcDbLine
 10
302.6004125821573
 20
97.06299788986838
 30
0.0
 11
287.5680849959503
 21
97.06299788986838
 31
0.0
  0
LINE
  5
EF7C89925
330
EF7C85532
100
AcDbEntity
  8
JISSEN
100
AcDbLine
 10
302.5842445819237
 20
93.05437720021314
 30
0.0
 11
287.5680849959503
 21
93.05437720021322
 31
0.0
  0
LINE
  5
EF7C89926
330
EF7C85532
100
AcDbEntity
  8
JISSEN
100
AcDbLine
 10
285.0626970649158
 20
94.55760995883389
 30
0.0
 11
283.5594643062952
 21
93.05437720021322
 31
0.0
  0
LINE
  5
EF7C89927
330
EF7C85532
100
AcDbEntity
  8
JISSEN
100
AcDbLine
 10
285.0626970649158
 20
95.5597651312477
 30
0.0
 11
283.5594643062952
 21
97.06299788986838
 31
0.0
  0
LINE
  5
EF7C89928
330
EF7C85532
100
AcDbEntity
  8
JISSEN
100
AcDbLine
 10
287.5680849959503
 20
93.05437720021322
 30
0.0
 11
286.0648522373296
 21
94.55760995883389
 31
0.0
  0
LINE
  5
EF7C89929
330
EF7C85532
100
AcDbEntity
  8
JISSEN
100
AcDbLine
 10
286.0648522373296
 20
95.5597651312477
 30
0.0
 11
287.5680849959503
 21
97.06299788986838
 31
0.0
  0
ARC
  5
EF7C8992A
330
EF7C85532
100
AcDbEntity
  8
JISSEN
100
AcDbCircle
 10
301.1973953407779
 20
121.1147220277994
 30
0.0
 40
5.411637931034486
100
AcDbArc
 50
157.380135051959
 51
125.0511367474436
  0
ARC
  5
EF7C8992B
330
EF7C85532
100
AcDbEntity
  8
JISSEN
100
AcDbCircle
 10
266.4423081251699
 20
115.8414549123238
 30
0.0
 40
17.03663793103449
100
AcDbArc
 50
154.7117681535793
 51
184.7012200115903
  0
ARC
  5
EF7C8992D
330
EF7C85532
100
AcDbEntity
  8
JISSEN
100
AcDbCircle
 10
266.4891506309758
 20
114.5312371937021
 30
0.0
 40
15.0323275862069
100
AcDbArc
 50
145.159877511125
 51
180.0
  0
ARC
  5
EF7C8992F
330
EF7C85532
100
AcDbEntity
  8
JISSEN
100
AcDbCircle
 10
264.275597211693
 20
115.4932946782485
 30
0.0
 40
10.82880430439393
100
AcDbArc
 50
144.142389354838
 51
169.5833810006728
  0
ARC
  5
EF7C89930
330
EF7C85532
100
AcDbEntity
  8
JISSEN
100
AcDbCircle
 10
278.7242557743963
 20
115.4932946782485
 30
0.0
 40
10.82880430439393
100
AcDbArc
 50
356.8068888039075
 51
35.24470412043449
  0
ARC
  5
EF7C89931
330
EF7C85532
100
AcDbEntity
  8
JISSEN
100
AcDbCircle
 10
276.5575448609195
 20
115.8414549123238
 30
0.0
 40
17.03663793103449
100
AcDbArc
 50
355.2987799884097
 51
25.28823184642064
  0
ARC
  5
EF7C89932
330
EF7C85532
100
AcDbEntity
  8
JISSEN
100
AcDbCircle
 10
276.5107023551137
 20
114.5312371937021
 30
0.0
 40
15.0323275862069
100
AcDbArc
 50
0.0
 51
34.84012248887491
  0
CIRCLE
  5
EF7C89933
330
EF7C85532
100
AcDbEntity
  8
JISSEN
100
AcDbCircle
 10
301.1973953407779
 20
121.1147220277994
 30
0.0
 40
2.254849137931036
  0
LWPOLYLINE
  5
EF7C89934
330
EF7C85532
100
AcDbEntity
  8
JISSEN
100
AcDbPolyline
 90
        6
 70
     1
 43
0.0
 10
303.1877606222342
 20
117.6673082346959
 10
305.1781259036904
 20
121.1147220277994
 10
303.1877606222342
 20
124.5621358209028
 10
299.2070300593214
 20
124.5621358209028
 10
297.2166647778653
 20
121.1147220277994
 10
299.2070300593214
 20
117.6673082346959
  0
CIRCLE
  5
EF7C89935
330
EF7C85532
100
AcDbEntity
  8
JISSEN
100
AcDbCircle
 10
301.1973953407779
 20
121.1147220277994
 30
0.0
 40
4.008620689655175
  0
ARC
  5
EF7C89938
330
EF7C85532
100
AcDbEntity
  8
JISSEN
100
AcDbCircle
 10
279.517167872355
 20
114.5312371937021
 30
0.0
 40
26.05603448275864
100
AcDbArc
 50
173.5656684449006
 51
202.8116279939228
  0
ARC
  5
EF7C89939
330
EF7C85532
100
AcDbEntity
  8
JISSEN
100
AcDbCircle
 10
279.517167872355
 20
114.5312371937021
 30
0.0
 40
28.06034482758622
100
AcDbArc
 50
180.0
 51
202.024312837042
  0
ARC
  5
EF7C8998E
330
EF7C85532
100
AcDbEntity
  8
JISSEN
100
AcDbCircle
 10
263.4826851137343
 20
114.5312371937021
 30
0.0
 40
26.05603448275864
100
AcDbArc
 50
337.573450975803
 51
0.7891762481349981
  0
ARC
  5
EF7C8998F
330
EF7C85532
100
AcDbEntity
  8
JISSEN
100
AcDbCircle
 10
263.4826851137343
 20
114.5312371937021
 30
0.0
 40
28.06034482758622
100
AcDbArc
 50
337.9756871629579
 51
0.0
  0
LINE
  5
EF7C89999
330
EF7C85532
100
AcDbEntity
  8
JISSEN
100
AcDbLine
 10
283.5594643062952
 20
123.119032372627
 30
0.0
 11
259.5077401683642
 21
123.119032372627
 31
0.0
  0
LINE
  5
EF7C8999B
330
EF7C85532
100
AcDbEntity
  8
JISSEN
100
AcDbLine
 10
284.9659677775404
 20
136.5468834303376
 30
0.0
 11
258.101236697119
 21
136.5468834303376
 31
0.0
  0
LINE
  5
EF7C8999C
330
EF7C85532
100
AcDbEntity
  8
JISSEN
100
AcDbLine
 10
260.008817754571
 20
135.4455409933166
 30
0.0
 11
283.0583867200883
 21
135.4455409933166
 31
0.0
  0
LINE
  5
EF7C8999D
330
EF7C85532
100
AcDbEntity
  8
JISSEN
100
AcDbLine
 10
273.8800450275274
 20
133.441230648489
 30
0.0
 11
283.0583867200883
 21
133.441230648489
 31
0.0
  0
LINE
  5
EF7C8999E
330
EF7C85532
100
AcDbEntity
  8
JISSEN
100
AcDbLine
 10
292.5788608580193
 20
133.1405840967649
 30
0.0
 11
250.48834361664
 21
133.1405840967649
 31
0.0
  0
LINE
  5
EF7C8999F
330
EF7C85532
100
AcDbEntity
  8
NITEN
100
AcDbLine
 10
256.4999989139999
 20
140.0916502438679
 30
0.0
 11
286.4999989140001
 21
140.0916502438679
 31
0.0
  0
LINE
  5
EF7C899A0
330
EF7C85532
100
AcDbEntity
  8
JISSEN
100
AcDbLine
 10
256.0001970649158
 20
123.8969224057942
 30
0.0
 11
256.0001970649158
 21
133.1405840967649
 31
0.0
  0
LINE
  5
EF7C899A1
330
EF7C85532
100
AcDbEntity
  8
JISSEN
100
AcDbLine
 10
268.5271367200883
 20
123.119032372627
 30
0.0
 11
259.5077401683642
 21
123.119032372627
 31
0.0
  0
LINE
  5
EF7C899A2
330
EF7C85532
100
AcDbEntity
  8
JISSEN
100
AcDbLine
 10
255.4991194787089
 20
123.119032372627
 30
0.0
 11
257.0023522373296
 21
125.4527024721289
 31
0.0
  0
LINE
  5
EF7C899A3
330
EF7C85532
100
AcDbEntity
  8
JISSEN
100
AcDbLine
 10
258.0045074097433
 20
125.4527024721289
 30
0.0
 11
259.5077401683642
 21
123.119032372627
 31
0.0
  0
LINE
  5
EF7C899A4
330
EF7C85532
100
AcDbEntity
  8
JISSEN
100
AcDbLine
 10
257.0023522373296
 20
125.4527024721289
 30
0.0
 11
258.0045074097433
 21
125.4527024721289
 31
0.0
  0
LINE
  5
EF7C899A8
330
EF7C85532
100
AcDbEntity
  8
JISSEN
100
AcDbLine
 10
260.008817754571
 20
133.441230648489
 30
0.0
 11
269.1198079585619
 21
133.441230648489
 31
0.0
  0
LINE
  5
EF7C899A9
330
EF7C85532
100
AcDbEntity
  8
JISSEN
100
AcDbLine
 10
260.008817754571
 20
135.4455409933166
 30
0.0
 11
258.101236697119
 21
136.5468834303376
 31
0.0
  0
LINE
  5
EF7C899AA
330
EF7C85532
100
AcDbEntity
  8
JISSEN
100
AcDbLine
 10
260.008817754571
 20
133.1405840967648
 30
0.0
 11
260.008817754571
 21
135.4455409933166
 31
0.0
  0
LINE
  5
EF7C899AB
330
EF7C85532
100
AcDbEntity
  8
JISSEN
100
AcDbLine
 10
262.2135591338814
 20
133.441230648489
 30
0.0
 11
262.2135591338814
 21
133.1405840967649
 31
0.0
  0
LINE
  5
EF7C899AC
330
EF7C85532
100
AcDbEntity
  8
JISSEN
100
AcDbLine
 10
269.1198079585619
 20
133.441230648489
 30
0.0
 11
269.1198079585619
 21
135.4455409933166
 31
0.0
  0
LINE
  5
EF7C899AD
330
EF7C85532
100
AcDbEntity
  8
JISSEN
100
AcDbLine
 10
267.5249815476745
 20
133.441230648489
 30
0.0
 11
267.5249815476745
 21
133.1405840967649
 31
0.0
  0
LINE
  5
EF7C899AE
330
EF7C85532
100
AcDbEntity
  8
JISSEN
100
AcDbLine
 10
273.8800450275274
 20
133.441230648489
 30
0.0
 11
273.8800450275274
 21
135.4455409933166
 31
0.0
  0
LINE
  5
EF7C899AF
330
EF7C85532
100
AcDbEntity
  8
JISSEN
100
AcDbLine
 10
275.5422229269849
 20
133.441230648489
 30
0.0
 11
275.5422229269849
 21
133.1405840967649
 31
0.0
  0
LINE
  5
EF7C899B0
330
EF7C85532
100
AcDbEntity
  8
JISSEN
100
AcDbLine
 10
287.0670074097434
 20
123.8969224057942
 30
0.0
 11
287.0670074097434
 21
133.1405840967649
 31
0.0
  0
LINE
  5
EF7C899B1
330
EF7C85532
100
AcDbEntity
  8
JISSEN
100
AcDbLine
 10
292.5788608580193
 20
133.1405840967649
 30
0.0
 11
304.1382271413965
 21
125.6575552205416
 31
0.0
  0
LINE
  5
EF7C899B2
330
EF7C85532
100
AcDbEntity
  8
JISSEN
100
AcDbLine
 10
297.7550559698714
 20
126.8771142691787
 30
0.0
 11
295.0698508458774
 21
131.5280259726806
 31
0.0
  0
LINE
  5
EF7C899B3
330
EF7C85532
100
AcDbEntity
  8
JISSEN
100
AcDbLine
 10
295.5853263752607
 20
123.119032372627
 30
0.0
 11
287.5680849959502
 21
123.119032372627
 31
0.0
  0
LINE
  5
EF7C899B4
330
EF7C85532
100
AcDbEntity
  8
JISSEN
100
AcDbLine
 10
285.0626970649158
 20
125.4527024721289
 30
0.0
 11
283.5594643062952
 21
123.119032372627
 31
0.0
  0
LINE
  5
EF7C899B5
330
EF7C85532
100
AcDbEntity
  8
JISSEN
100
AcDbLine
 10
287.5680849959503
 20
123.119032372627
 30
0.0
 11
286.0648522373296
 21
125.4527024721289
 31
0.0
  0
LINE
  5
EF7C899B7
330
EF7C85532
100
AcDbEntity
  8
JISSEN
100
AcDbLine
 10
286.0648522373296
 20
125.4527024721289
 30
0.0
 11
285.0626970649158
 21
125.4527024721289
 31
0.0
  0
ARC
  5
EF7C899B8
330
EF7C85532
100
AcDbEntity
  8
JISSEN
100
AcDbCircle
 10
295.5853263752607
 20
125.6244203036615
 30
0.0
 40
2.505387931034484
100
AcDbArc
 50
270.0
 51
30.00000000000054
  0
LINE
  5
EF7C899B9
330
EF7C85532
100
AcDbEntity
  8
JISSEN
100
AcDbLine
 10
283.0583867200883
 20
135.4455409933166
 30
0.0
 11
284.9659677775404
 21
136.5468834303376
 31
0.0
  0
LINE
  5
EF7C899BA
330
EF7C85532
100
AcDbEntity
  8
JISSEN
100
AcDbLine
 10
283.0583867200882
 20
133.1405840967648
 30
0.0
 11
283.0583867200883
 21
135.4455409933166
 31
0.0
  0
LINE
  5
EF7C899BB
330
EF7C85532
100
AcDbEntity
  8
JISSEN
100
AcDbLine
 10
280.8536453407779
 20
133.441230648489
 30
0.0
 11
280.8536453407779
 21
133.1405840967649
 31
0.0
  0
ARC
  5
EF7C899BC
330
EF7C85532
100
AcDbEntity
  8
NITEN
100
AcDbCircle
 10
249.999998914
 20
180.0916502438679
 30
0.0
 40
2.0
100
AcDbArc
 50
90.0
 51
180.0
  0
ARC
  5
EF7C899BD
330
EF7C85532
100
AcDbEntity
  8
NITEN
100
AcDbCircle
 10
249.999998914
 20
159.6376662700859
 30
0.0
 40
2.0
100
AcDbArc
 50
180.0
 51
270.0
  0
LINE
  5
EF7C899BE
330
EF7C85532
100
AcDbEntity
  8
NITEN
100
AcDbLine
 10
247.999998914
 20
180.0916502438679
 30
0.0
 11
247.999998914
 21
159.6376662700859
 31
0.0
  0
LINE
  5
EF7C899BF
330
EF7C85532
100
AcDbEntity
  8
NITEN
100
AcDbLine
 10
290.9999989140001
 20
182.0916502438679
 30
0.0
 11
290.9999989140001
 21
202.9293678950137
 31
0.0
  0
LINE
  5
EF7C899C0
330
EF7C85532
100
AcDbEntity
  8
NITEN
100
AcDbLine
 10
251.999998914
 20
202.9293678950135
 30
0.0
 11
251.999998914
 21
182.0916502438679
 31
0.0
  0
LINE
  5
EF7C899C1
330
EF7C85532
100
AcDbEntity
  8
NITEN
100
AcDbLine
 10
294.9999989140001
 20
159.6376662700859
 30
0.0
 11
294.999998914
 21
180.0916502438679
 31
0.0
  0
LINE
  5
EF7C899C2
330
EF7C85532
100
AcDbEntity
  8
JISSEN
100
AcDbLine
 10
260.5878904552472
 20
151.9811013381442
 30
0.0
 11
282.479314019412
 21
151.9811013381442
 31
0.0
  0
LINE
  5
EF7C899C3
330
EF7C85532
100
AcDbEntity
  8
JISSEN
100
AcDbLine
 10
282.479314019412
 20
151.9811013381442
 30
0.0
 11
260.5878904552472
 21
151.9811013381442
 31
0.0
  0
LINE
  5
EF7C899C4
330
EF7C85532
100
AcDbEntity
  8
JISSEN
100
AcDbLine
 10
284.5462316271084
 20
149.977769041939
 30
0.0
 11
258.520972847551
 21
149.977769041939
 31
0.0
  0
LINE
  5
EF7C899C5
330
EF7C85532
100
AcDbEntity
  8
NITEN
100
AcDbLine
 10
254.9999989140001
 20
152.6376662700859
 30
0.0
 11
254.9999989140001
 21
141.5916502438679
 31
0.0
  0
LINE
  5
EF7C899C6
330
EF7C85532
100
AcDbEntity
  8
JISSEN
100
AcDbLine
 10
258.520972847551
 20
149.977769041939
 30
0.0
 11
260.5878904552472
 21
151.9811013381442
 31
0.0
  0
ARC
  5
EF7C899C7
330
EF7C85532
100
AcDbEntity
  8
NITEN
100
AcDbCircle
 10
249.999998914
 20
152.6376662700859
 30
0.0
 40
5.0
100
AcDbArc
 50
0.0
 51
90.0
  0
LINE
  5
EF7C899C8
330
EF7C85532
100
AcDbEntity
  8
NITEN
100
AcDbLine
 10
287.9999989140001
 20
141.5916502438679
 30
0.0
 11
287.9999989140001
 21
152.6376662700859
 31
0.0
  0
LINE
  5
EF7C899C9
330
EF7C85532
100
AcDbEntity
  8
JISSEN
100
AcDbLine
 10
284.5462316271084
 20
149.977769041939
 30
0.0
 11
282.479314019412
 21
151.9811013381442
 31
0.0
  0
ARC
  5
EF7C899CA
330
EF7C85532
100
AcDbEntity
  8
NITEN
100
AcDbCircle
 10
292.999998914
 20
152.6376662700859
 30
0.0
 40
5.0
100
AcDbArc
 50
90.0
 51
180.0
  0
ARC
  5
EF7C899CB
330
EF7C85532
100
AcDbEntity
  8
NITEN
100
AcDbCircle
 10
292.999998914
 20
159.6376662700859
 30
0.0
 40
2.0
100
AcDbArc
 50
270.0
 51
0.0
  0
LINE
  5
EF7C899CC
330
EF7C85532
100
AcDbEntity
  8
NITEN
100
AcDbLine
 10
292.999998914
 20
182.0916502438679
 30
0.0
 11
249.999998914
 21
182.0916502438679
 31
0.0
  0
ARC
  5
EF7C899CD
330
EF7C85532
100
AcDbEntity
  8
NITEN
100
AcDbCircle
 10
292.999998914
 20
180.0916502438679
 30
0.0
 40
1.999999999999971
100
AcDbArc
 50
359.9999999999992
 51
89.9999999999992
  0
LWPOLYLINE
  5
EF7C899CE
330
EF7C85532
100
AcDbEntity
  8
NITEN
100
AcDbPolyline
 90
        2
 70
     0
 43
0.0
 10
290.9999989140001
 20
202.9293678950138
 42
0.5195636805304642
 10
271.4999989140001
 20
202.9293678950139
 42
0.5882352941176294
  0
ARC
  5
EF7C899CF
330
EF7C85532
100
AcDbEntity
  8
NITEN
100
AcDbCircle
 10
261.7499989140002
 20
196.0793678950136
 30
0.0
 40
11.91574588517225
100
AcDbArc
 50
35.09050030012443
 51
144.9094996998772
  0
ARC
  5
EF7C899D0
330
EF7C85532
100
AcDbEntity
  8
NITEN
100
AcDbCircle
 10
281.2499989140001
 20
209.7793678950138
 30
0.0
 40
11.91574588517228
100
AcDbArc
 50
215.0905003001236
 51
324.9094996998763
  0
TEXT
  5
EF7C89BF3
330
EF7C85532
100
AcDbEntity
  8
TEXT
100
AcDbText
 10
137.5714278474285
 20
266.4999999999999
 30
0.0
 40
3.0
  1
ZDC
  7
K
 72
     4
 11
141.9999992759999
 21
267.9999999999999
 31
0.0
100
AcDbText
  0
ENDSEC
  0
SECTION
  2
OBJECTS
  0
DICTIONARY
  5
EF7C85527
330
0
100
AcDbDictionary
  3
ACAD_GROUP
350
EF7C85528
  3
ACAD_LAYOUT
350
EF7C85BB7
  3
ACAD_MLINESTYLE
350
EF7C85535
  3
ACAD_PLOTSETTINGS
350
EF7C85BB8
  3
ACAD_PLOTSTYLENAME
350
EF7C85BB5
  3
ACDBHEADERROUNDTRIPXREC
350
EF7C89C37
  3
ACDBVARIABLEDICTIONARY
350
EF7C85DB7
  0
DICTIONARY
  5
EF7C85D9A
330
EF7C85532
100
AcDbDictionary
280
     1
  3
ACAD_LAYOUTSELFREF
360
EF7C89C59
  0
DICTIONARY
  5
EF7C85D98
330
EF7C8552F
100
AcDbDictionary
280
     1
  3
ACAD_LAYOUTSELFREF
360
EF7C89C58
  0
DICTIONARY
  5
EF7C85528
102
{ACAD_REACTORS
330
EF7C85527
102
}
330
EF7C85527
100
AcDbDictionary
  0
DICTIONARY
  5
EF7C85BB7
102
{ACAD_REACTORS
330
EF7C85527
102
}
330
EF7C85527
100
AcDbDictionary
  0
DICTIONARY
  5
EF7C85535
102
{ACAD_REACTORS
330
EF7C85527
102
}
330
EF7C85527
100
AcDbDictionary
  3
STANDARD
350
EF7C85536
  0
DICTIONARY
  5
EF7C85BB8
102
{ACAD_REACTORS
330
EF7C85527
102
}
330
EF7C85527
100
AcDbDictionary
  0
ACDBDICTIONARYWDFLT
  5
EF7C85BB5
102
{ACAD_REACTORS
330
EF7C85527
102
}
330
EF7C85527
100
AcDbDictionary
281
     1
  3
Normal
350
EF7C85BB6
100
AcDbDictionaryWithDefault
340
EF7C85BB6
  0
DICTIONARY
  5
EF7C89C37
102
{ACAD_REACTORS
330
EF7C85527
102
}
330
EF7C85527
100
AcDbDictionary
  3
CEPSNTYPE
350
EF7C89C41
  3
DIMSTYLEDATA
350
EF7C89C45
  3
FINGERPRINTGUID
350
EF7C89C42
  3
HYPERLINKBASE
350
EF7C89C3A
  3
INSUNITS
350
EF7C89C40
  3
LAYOUTDICT
350
EF7C89C3C
  3
LWETCUNION
350
EF7C89C3F
  3
PLOTSETDICT
350
EF7C89C3D
  3
PLOTSTYLNAMDICT
350
EF7C89C3E
  3
PSVPSCALE
350
EF7C89C44
  3
PUCSBASE
350
EF7C89C48
  3
PUCSORGBACK
350
EF7C89C4E
  3
PUCSORGBOTTOM
350
EF7C89C4A
  3
PUCSORGFRONT
350
EF7C89C4D
  3
PUCSORGLEFT
350
EF7C89C4B
  3
PUCSORGRIGHT
350
EF7C89C4C
  3
PUCSORGTOP
350
EF7C89C49
  3
PUCSORTHOREF
350
EF7C89C46
  3
PUCSORTHOVIEW
350
EF7C89C47
  3
STYLESHEET
350
EF7C89C3B
  3
TSTACKALIGN
350
EF7C89C38
  3
TSTACKSIZE
350
EF7C89C39
  3
UCSBASE
350
EF7C89C51
  3
UCSORGBACK
350
EF7C89C57
  3
UCSORGBOTTOM
350
EF7C89C53
  3
UCSORGFRONT
350
EF7C89C56
  3
UCSORGLEFT
350
EF7C89C54
  3
UCSORGRIGHT
350
EF7C89C55
  3
UCSORGTOP
350
EF7C89C52
  3
UCSORTHOREF
350
EF7C89C4F
  3
UCSORTHOVIEW
350
EF7C89C50
  3
VERSIONGUID
350
EF7C89C43
  0
DICTIONARY
  5
EF7C85DB7
102
{ACAD_REACTORS
330
EF7C85527
102
}
330
EF7C85527
100
AcDbDictionary
  3
DIMASSOC
350
EF7C89C35
  3
SORTENTS
350
EF7C85DB8
  0
XRECORD
  5
EF7C89C59
102
{ACAD_REACTORS
330
EF7C85D9A
102
}
330
EF7C85D9A
100
AcDbXrecord
340
EF7C85532
  0
XRECORD
  5
EF7C89C58
102
{ACAD_REACTORS
330
EF7C85D98
102
}
330
EF7C85D98
100
AcDbXrecord
340
EF7C8552F
  0
MLINESTYLE
  5
EF7C85536
102
{ACAD_REACTORS
330
EF7C85535
102
}
330
EF7C85535
100
AcDbMlineStyle
  2
STANDARD
 70
     0
  3

 62
   256
 51
90.0
 52
90.0
 71
     2
 49
0.5
 62
   256
  6
BYLAYER
 49
-0.5
 62
   256
  6
BYLAYER
  0
ACDBPLACEHOLDER
  5
EF7C85BB6
102
{ACAD_REACTORS
330
EF7C85BB5
102
}
330
EF7C85BB5
100
AcDbPlaceHolder
280
     0
  0
XRECORD
  5
EF7C89C41
102
{ACAD_REACTORS
330
EF7C89C37
102
}
330
EF7C89C37
100
AcDbXrecord
 90
        0
  0
XRECORD
  5
EF7C89C45
102
{ACAD_REACTORS
330
EF7C89C37
102
}
330
EF7C89C37
100
AcDbXrecord
1000
DSTYLE
1002
{
1070
   279
 70
     2
1070
   341
340
EF7C85537
1070
   342
340
EF7C85537
1070
   343
340
EF7C85543
1070
   344
340
EF7C85543
1002
}
  0
XRECORD
  5
EF7C89C42
102
{ACAD_REACTORS
330
EF7C89C37
102
}
330
EF7C89C37
100
AcDbXrecord
  1
{09AA4C7A-3D6F-4857-A850-771461888CEC}
  0
XRECORD
  5
EF7C89C3A
102
{ACAD_REACTORS
330
EF7C89C37
102
}
330
EF7C89C37
100
AcDbXrecord
  1

  0
XRECORD
  5
EF7C89C40
102
{ACAD_REACTORS
330
EF7C89C37
102
}
330
EF7C89C37
100
AcDbXrecord
 90
        0
  0
XRECORD
  5
EF7C89C3C
102
{ACAD_REACTORS
330
EF7C89C37
102
}
330
EF7C89C37
100
AcDbXrecord
340
EF7C85BB7
  0
XRECORD
  5
EF7C89C3F
102
{ACAD_REACTORS
330
EF7C89C37
102
}
330
EF7C89C37
100
AcDbXrecord
 90
    14877
  0
XRECORD
  5
EF7C89C3D
102
{ACAD_REACTORS
330
EF7C89C37
102
}
330
EF7C89C37
100
AcDbXrecord
340
EF7C85BB8
  0
XRECORD
  5
EF7C89C3E
102
{ACAD_REACTORS
330
EF7C89C37
102
}
330
EF7C89C37
100
AcDbXrecord
340
EF7C85BB5
  0
XRECORD
  5
EF7C89C44
102
{ACAD_REACTORS
330
EF7C89C37
102
}
330
EF7C89C37
100
AcDbXrecord
 40
0.0
  0
XRECORD
  5
EF7C89C48
102
{ACAD_REACTORS
330
EF7C89C37
102
}
330
EF7C89C37
100
AcDbXrecord
340
0
  0
XRECORD
  5
EF7C89C4E
102
{ACAD_REACTORS
330
EF7C89C37
102
}
330
EF7C89C37
100
AcDbXrecord
 10
0.0
 20
0.0
 30
0.0
  0
XRECORD
  5
EF7C89C4A
102
{ACAD_REACTORS
330
EF7C89C37
102
}
330
EF7C89C37
100
AcDbXrecord
 10
0.0
 20
0.0
 30
0.0
  0
XRECORD
  5
EF7C89C4D
102
{ACAD_REACTORS
330
EF7C89C37
102
}
330
EF7C89C37
100
AcDbXrecord
 10
0.0
 20
0.0
 30
0.0
  0
XRECORD
  5
EF7C89C4B
102
{ACAD_REACTORS
330
EF7C89C37
102
}
330
EF7C89C37
100
AcDbXrecord
 10
0.0
 20
0.0
 30
0.0
  0
XRECORD
  5
EF7C89C4C
102
{ACAD_REACTORS
330
EF7C89C37
102
}
330
EF7C89C37
100
AcDbXrecord
 10
0.0
 20
0.0
 30
0.0
  0
XRECORD
  5
EF7C89C49
102
{ACAD_REACTORS
330
EF7C89C37
102
}
330
EF7C89C37
100
AcDbXrecord
 10
0.0
 20
0.0
 30
0.0
  0
XRECORD
  5
EF7C89C46
102
{ACAD_REACTORS
330
EF7C89C37
102
}
330
EF7C89C37
100
AcDbXrecord
340
0
  0
XRECORD
  5
EF7C89C47
102
{ACAD_REACTORS
330
EF7C89C37
102
}
330
EF7C89C37
100
AcDbXrecord
 70
     0
  0
XRECORD
  5
EF7C89C3B
102
{ACAD_REACTORS
330
EF7C89C37
102
}
330
EF7C89C37
100
AcDbXrecord
  1

  0
XRECORD
  5
EF7C89C38
102
{ACAD_REACTORS
330
EF7C89C37
102
}
330
EF7C89C37
100
AcDbXrecord
 90
        1
  0
XRECORD
  5
EF7C89C39
102
{ACAD_REACTORS
330
EF7C89C37
102
}
330
EF7C89C37
100
AcDbXrecord
 90
       70
  0
XRECORD
  5
EF7C89C51
102
{ACAD_REACTORS
330
EF7C89C37
102
}
330
EF7C89C37
100
AcDbXrecord
340
0
  0
XRECORD
  5
EF7C89C57
102
{ACAD_REACTORS
330
EF7C89C37
102
}
330
EF7C89C37
100
AcDbXrecord
 10
0.0
 20
0.0
 30
0.0
  0
XRECORD
  5
EF7C89C53
102
{ACAD_REACTORS
330
EF7C89C37
102
}
330
EF7C89C37
100
AcDbXrecord
 10
0.0
 20
0.0
 30
0.0
  0
XRECORD
  5
EF7C89C56
102
{ACAD_REACTORS
330
EF7C89C37
102
}
330
EF7C89C37
100
AcDbXrecord
 10
0.0
 20
0.0
 30
0.0
  0
XRECORD
  5
EF7C89C54
102
{ACAD_REACTORS
330
EF7C89C37
102
}
330
EF7C89C37
100
AcDbXrecord
 10
0.0
 20
0.0
 30
0.0
  0
XRECORD
  5
EF7C89C55
102
{ACAD_REACTORS
330
EF7C89C37
102
}
330
EF7C89C37
100
AcDbXrecord
 10
0.0
 20
0.0
 30
0.0
  0
XRECORD
  5
EF7C89C52
102
{ACAD_REACTORS
330
EF7C89C37
102
}
330
EF7C89C37
100
AcDbXrecord
 10
0.0
 20
0.0
 30
0.0
  0
XRECORD
  5
EF7C89C4F
102
{ACAD_REACTORS
330
EF7C89C37
102
}
330
EF7C89C37
100
AcDbXrecord
340
0
  0
XRECORD
  5
EF7C89C50
102
{ACAD_REACTORS
330
EF7C89C37
102
}
330
EF7C89C37
100
AcDbXrecord
 70
     0
  0
XRECORD
  5
EF7C89C43
102
{ACAD_REACTORS
330
EF7C89C37
102
}
330
EF7C89C37
100
AcDbXrecord
  1
{6AF3B0EA-97FF-497E-869F-9C8DF1533E3A}
  0
DICTIONARYVAR
  5
EF7C89C35
102
{ACAD_REACTORS
330
EF7C85DB7
102
}
330
EF7C85DB7
100
DictionaryVariables
280
     0
  1
0
  0
DICTIONARYVAR
  5
EF7C85DB8
102
{ACAD_REACTORS
330
EF7C85DB7
102
}
330
EF7C85DB7
100
DictionaryVariables
280
     0
  1
96
  0
ENDSEC
  0
EOF
