  0
SECTION
  2
HEADER
  9
$ACADVER
  1
AC1014
  9
$ACADMAINTVER
 70
     9
  9
$DWGCODEPAGE
  3
ANSI_932
  9
$INSBASE
 10
0.0
 20
0.0
 30
0.0
  9
$EXTMIN
 10
0.0
 20
0.0
 30
0.0
  9
$EXTMAX
 10
361.999998552
 20
282.9999999999999
 30
0.0
  9
$LIMMIN
 10
0.0
 20
0.0
  9
$LIMMAX
 10
181.0
 20
283.0
  9
$ORTHOMODE
 70
     1
  9
$REGENMODE
 70
     1
  9
$FILLMODE
 70
     1
  9
$QTEXTMODE
 70
     0
  9
$MIRRTEXT
 70
     0
  9
$DRAGMODE
 70
     2
  9
$LTSCALE
 40
5.0
  9
$OSMODE
 70
   167
  9
$ATTMODE
 70
     1
  9
$TEXTSIZE
 40
3.0
  9
$TRACEWID
 40
0.05
  9
$TEXTSTYLE
  7
BIGFONT
  9
$CLAYER
  8
JISSEN
  9
$CELTYPE
  6
BYLAYER
  9
$CECOLOR
 62
   256
  9
$CELTSCALE
 40
1.0
  9
$DELOBJ
 70
     1
  9
$DISPSILH
 70
     0
  9
$DIMSCALE
 40
1.0
  9
$DIMASZ
 40
1.5
  9
$DIMEXO
 40
1.0
  9
$DIMDLI
 40
6.0
  9
$DIMRND
 40
0.0
  9
$DIMDLE
 40
0.0
  9
$DIMEXE
 40
1.0
  9
$DIMTP
 40
0.0
  9
$DIMTM
 40
0.0
  9
$DIMTXT
 40
3.0
  9
$DIMCEN
 40
1.0
  9
$DIMTSZ
 40
0.0
  9
$DIMTOL
 70
     0
  9
$DIMLIM
 70
     0
  9
$DIMTIH
 70
     0
  9
$DIMTOH
 70
     0
  9
$DIMSE1
 70
     0
  9
$DIMSE2
 70
     0
  9
$DIMTAD
 70
     0
  9
$DIMZIN
 70
     8
  9
$DIMBLK
  1
ARROW
  9
$DIMASO
 70
     0
  9
$DIMSHO
 70
     0
  9
$DIMPOST
  1

  9
$DIMAPOST
  1

  9
$DIMALT
 70
     0
  9
$DIMALTD
 70
     2
  9
$DIMALTF
 40
25.4
  9
$DIMLFAC
 40
1.0
  9
$DIMTOFL
 70
     1
  9
$DIMTVP
 40
0.0
  9
$DIMTIX
 70
     0
  9
$DIMSOXD
 70
     0
  9
$DIMSAH
 70
     0
  9
$DIMBLK1
  1
ARROWANG
  9
$DIMBLK2
  1
ARROWANG
  9
$DIMSTYLE
  2
IMAO
  9
$DIMCLRD
 70
     0
  9
$DIMCLRE
 70
     0
  9
$DIMCLRT
 70
     0
  9
$DIMTFAC
 40
1.0
  9
$DIMGAP
 40
0.09
  9
$DIMJUST
 70
     0
  9
$DIMSD1
 70
     0
  9
$DIMSD2
 70
     0
  9
$DIMTOLJ
 70
     1
  9
$DIMTZIN
 70
     8
  9
$DIMALTZ
 70
     8
  9
$DIMALTTZ
 70
     8
  9
$DIMFIT
 70
     5
  9
$DIMUPT
 70
     0
  9
$DIMUNIT
 70
     2
  9
$DIMDEC
 70
     2
  9
$DIMTDEC
 70
     2
  9
$DIMALTU
 70
     2
  9
$DIMALTTD
 70
     2
  9
$DIMTXSTY
  7
BIGFONT
  9
$DIMAUNIT
 70
     0
  9
$LUNITS
 70
     2
  9
$LUPREC
 70
     2
  9
$SKETCHINC
 40
0.1
  9
$FILLETRAD
 40
0.2
  9
$AUNITS
 70
     0
  9
$AUPREC
 70
     2
  9
$MENU
  1
stdr12j
  9
$ELEVATION
 40
0.0
  9
$PELEVATION
 40
0.0
  9
$THICKNESS
 40
0.0
  9
$LIMCHECK
 70
     0
  9
$BLIPMODE
 70
     0
  9
$CHAMFERA
 40
0.0
  9
$CHAMFERB
 40
0.0
  9
$CHAMFERC
 40
0.0
  9
$CHAMFERD
 40
0.0
  9
$SKPOLY
 70
     0
  9
$TDCREATE
 40
2450617.453041203
  9
$TDUPDATE
 40
2453334.772849965
  9
$TDINDWG
 40
0.1840838426
  9
$TDUSRTIMER
 40
0.1840838426
  9
$USRTIMER
 70
     1
  9
$ANGBASE
 50
0.0
  9
$ANGDIR
 70
     0
  9
$PDMODE
 70
     0
  9
$PDSIZE
 40
0.0
  9
$PLINEWID
 40
0.0
  9
$COORDS
 70
     2
  9
$SPLFRAME
 70
     0
  9
$SPLINETYPE
 70
     6
  9
$SPLINESEGS
 70
     8
  9
$ATTDIA
 70
     0
  9
$ATTREQ
 70
     1
  9
$HANDLING
 70
 22529
  9
$HANDSEED
  5
EF7C89E42
  9
$SURFTAB1
 70
     6
  9
$SURFTAB2
 70
     6
  9
$SURFTYPE
 70
     6
  9
$SURFU
 70
     6
  9
$SURFV
 70
     6
  9
$UCSNAME
  2

  9
$UCSORG
 10
0.0
 20
0.0
 30
0.0
  9
$UCSXDIR
 10
1.0
 20
0.0
 30
0.0
  9
$UCSYDIR
 10
0.0
 20
1.0
 30
0.0
  9
$PUCSNAME
  2

  9
$PUCSORG
 10
0.0
 20
0.0
 30
0.0
  9
$PUCSXDIR
 10
1.0
 20
0.0
 30
0.0
  9
$PUCSYDIR
 10
0.0
 20
1.0
 30
0.0
  9
$USERI1
 70
     0
  9
$USERI2
 70
     1
  9
$USERI3
 70
     1
  9
$USERI4
 70
     3
  9
$USERI5
 70
     0
  9
$USERR1
 40
1.0
  9
$USERR2
 40
3.0
  9
$USERR3
 40
3.0
  9
$USERR4
 40
1.5
  9
$USERR5
 40
8.0
  9
$WORLDVIEW
 70
     1
  9
$SHADEDGE
 70
     3
  9
$SHADEDIF
 70
    70
  9
$TILEMODE
 70
     1
  9
$MAXACTVP
 70
    16
  9
$PINSBASE
 10
0.0
 20
0.0
 30
0.0
  9
$PLIMCHECK
 70
     0
  9
$PEXTMIN
 10
1.000000000000000E+20
 20
1.000000000000000E+20
 30
1.000000000000000E+20
  9
$PEXTMAX
 10
-1.000000000000000E+20
 20
-1.000000000000000E+20
 30
-1.000000000000000E+20
  9
$PLIMMIN
 10
0.0
 20
0.0
  9
$PLIMMAX
 10
12.0
 20
9.0
  9
$UNITMODE
 70
     0
  9
$VISRETAIN
 70
     0
  9
$PLINEGEN
 70
     0
  9
$PSLTSCALE
 70
     0
  9
$TREEDEPTH
 70
  3020
  9
$PICKSTYLE
 70
     1
  9
$CMLSTYLE
  2
STANDARD
  9
$CMLJUST
 70
     0
  9
$CMLSCALE
 40
1.0
  9
$PROXYGRAPHICS
 70
     1
  9
$MEASUREMENT
 70
     0
  0
ENDSEC
  0
SECTION
  2
CLASSES
  0
CLASS
  1
LWPOLYLINE
  2
AcDbPolyline
  3
AutoCAD 2000
 90
        0
280
     0
281
     1
  0
CLASS
  1
HATCH
  2
AcDbHatch
  3
AutoCAD 2000
 90
        0
280
     0
281
     1
  0
CLASS
  1
ACDBDICTIONARYWDFLT
  2
AcDbDictionaryWithDefault
  3
AutoCAD 2000
 90
        0
280
     0
281
     0
  0
CLASS
  1
ACDBPLACEHOLDER
  2
AcDbPlaceHolder
  3
AutoCAD 2000
 90
        0
280
     0
281
     0
  0
CLASS
  1
LAYOUT
  2
AcDbLayout
  3
AutoCAD 2000
 90
        0
280
     0
281
     0
  0
CLASS
  1
LONG_TRANSACTION
  2
AcDbLongTransaction
  3
AutoCAD 2000
 90
        0
280
     0
281
     0
  0
CLASS
  1
LWPOLYLINE
  2
AcDbPolyline
  3
AutoCAD 2000
 90
        0
280
     0
281
     1
  0
CLASS
  1
HATCH
  2
AcDbHatch
  3
AutoCAD 2000
 90
        0
280
     0
281
     1
  0
CLASS
  1
XRECORD
  2
AcDbXrecord
  3
AutoCAD 2000
 90
        0
280
     0
281
     0
  0
CLASS
  1
DICTIONARYVAR
  2
AcDbDictionaryVar
  3
AutoCAD 2000
 90
        0
280
     0
281
     0
  0
CLASS
  1
LONG_TRANSACTION
  2
AcDbLongTransaction
  3
AutoCAD 2000
 90
        0
280
     0
281
     0
  0
CLASS
  1
LWPOLYLINE
  2
AcDbPolyline
  3
AutoCAD 2000
 90
        0
280
     0
281
     1
  0
CLASS
  1
HATCH
  2
AcDbHatch
  3
AutoCAD 2000
 90
        0
280
     0
281
     1
  0
CLASS
  1
XRECORD
  2
AcDbXrecord
  3
AutoCAD 2000
 90
        0
280
     0
281
     0
  0
CLASS
  1
LONG_TRANSACTION
  2
AcDbLongTransaction
  3
AutoCAD 2000
 90
        0
280
     0
281
     0
  0
CLASS
  1
LWPOLYLINE
  2
AcDbPolyline
  3
AutoCAD 2000
 90
        0
280
     0
281
     1
  0
CLASS
  1
HATCH
  2
AcDbHatch
  3
AutoCAD 2000
 90
        0
280
     0
281
     1
  0
CLASS
  1
XRECORD
  2
AcDbXrecord
  3
AutoCAD 2000
 90
        0
280
     0
281
     0
  0
CLASS
  1
LONG_TRANSACTION
  2
AcDbLongTransaction
  3
AutoCAD 2000
 90
        0
280
     0
281
     0
  0
CLASS
  1
LWPOLYLINE
  2
AcDbPolyline
  3
AutoCAD 2000
 90
        0
280
     0
281
     1
  0
CLASS
  1
HATCH
  2
AcDbHatch
  3
AutoCAD 2000
 90
        0
280
     0
281
     1
  0
CLASS
  1
XRECORD
  2
AcDbXrecord
  3
AutoCAD 2000
 90
        0
280
     0
281
     0
  0
CLASS
  1
LONG_TRANSACTION
  2
AcDbLongTransaction
  3
AutoCAD 2000
 90
        0
280
     0
281
     0
  0
CLASS
  1
LWPOLYLINE
  2
AcDbPolyline
  3
AutoCAD 2000
 90
        0
280
     0
281
     1
  0
CLASS
  1
HATCH
  2
AcDbHatch
  3
AutoCAD 2000
 90
        0
280
     0
281
     1
  0
CLASS
  1
XRECORD
  2
AcDbXrecord
  3
AutoCAD 2000
 90
        0
280
     0
281
     0
  0
CLASS
  1
LONG_TRANSACTION
  2
AcDbLongTransaction
  3
AutoCAD 2000
 90
        0
280
     0
281
     0
  0
CLASS
  1
LWPOLYLINE
  2
AcDbPolyline
  3
AutoCAD 2000
 90
        0
280
     0
281
     1
  0
CLASS
  1
HATCH
  2
AcDbHatch
  3
AutoCAD 2000
 90
        0
280
     0
281
     1
  0
CLASS
  1
XRECORD
  2
AcDbXrecord
  3
AutoCAD 2000
 90
        0
280
     0
281
     0
  0
CLASS
  1
LONG_TRANSACTION
  2
AcDbLongTransaction
  3
AutoCAD 2000
 90
        0
280
     0
281
     0
  0
CLASS
  1
LWPOLYLINE
  2
AcDbPolyline
  3
AutoCAD 2000
 90
        0
280
     0
281
     1
  0
CLASS
  1
HATCH
  2
AcDbHatch
  3
AutoCAD 2000
 90
        0
280
     0
281
     1
  0
CLASS
  1
XRECORD
  2
AcDbXrecord
  3
AutoCAD 2000
 90
        0
280
     0
281
     0
  0
CLASS
  1
LONG_TRANSACTION
  2
AcDbLongTransaction
  3
AutoCAD 2000
 90
        0
280
     0
281
     0
  0
CLASS
  1
LWPOLYLINE
  2
AcDbPolyline
  3
AutoCAD 2000
 90
        0
280
     0
281
     1
  0
CLASS
  1
HATCH
  2
AcDbHatch
  3
AutoCAD 2000
 90
        0
280
     0
281
     1
  0
CLASS
  1
XRECORD
  2
AcDbXrecord
  3
AutoCAD 2000
 90
        0
280
     0
281
     0
  0
CLASS
  1
LONG_TRANSACTION
  2
AcDbLongTransaction
  3
AutoCAD 2000
 90
        0
280
     0
281
     0
  0
CLASS
  1
LWPOLYLINE
  2
AcDbPolyline
  3
AutoCAD 2000
 90
        0
280
     0
281
     1
  0
CLASS
  1
HATCH
  2
AcDbHatch
  3
AutoCAD 2000
 90
        0
280
     0
281
     1
  0
CLASS
  1
XRECORD
  2
AcDbXrecord
  3
AutoCAD 2000
 90
        0
280
     0
281
     0
  0
CLASS
  1
LONG_TRANSACTION
  2
AcDbLongTransaction
  3
AutoCAD 2000
 90
        0
280
     0
281
     0
  0
CLASS
  1
LWPOLYLINE
  2
AcDbPolyline
  3
AutoCAD 2000
 90
        0
280
     0
281
     1
  0
CLASS
  1
HATCH
  2
AcDbHatch
  3
AutoCAD 2000
 90
        0
280
     0
281
     1
  0
CLASS
  1
XRECORD
  2
AcDbXrecord
  3
AutoCAD 2000
 90
        0
280
     0
281
     0
  0
CLASS
  1
LONG_TRANSACTION
  2
AcDbLongTransaction
  3
AutoCAD 2000
 90
        0
280
     0
281
     0
  0
CLASS
  1
LWPOLYLINE
  2
AcDbPolyline
  3
AutoCAD 2000
 90
        0
280
     0
281
     1
  0
CLASS
  1
HATCH
  2
AcDbHatch
  3
AutoCAD 2000
 90
        0
280
     0
281
     1
  0
CLASS
  1
XRECORD
  2
AcDbXrecord
  3
AutoCAD 2000
 90
        0
280
     0
281
     0
  0
CLASS
  1
LONG_TRANSACTION
  2
AcDbLongTransaction
  3
AutoCAD 2000
 90
        0
280
     0
281
     0
  0
CLASS
  1
LWPOLYLINE
  2
AcDbPolyline
  3
AutoCAD 2000
 90
        0
280
     0
281
     1
  0
CLASS
  1
HATCH
  2
AcDbHatch
  3
AutoCAD 2000
 90
        0
280
     0
281
     1
  0
CLASS
  1
XRECORD
  2
AcDbXrecord
  3
AutoCAD 2000
 90
        0
280
     0
281
     0
  0
CLASS
  1
LONG_TRANSACTION
  2
AcDbLongTransaction
  3
AutoCAD 2000
 90
        0
280
     0
281
     0
  0
CLASS
  1
LWPOLYLINE
  2
AcDbPolyline
  3
AutoCAD 2000
 90
        0
280
     0
281
     1
  0
CLASS
  1
HATCH
  2
AcDbHatch
  3
AutoCAD 2000
 90
        0
280
     0
281
     1
  0
CLASS
  1
XRECORD
  2
AcDbXrecord
  3
AutoCAD 2000
 90
        0
280
     0
281
     0
  0
CLASS
  1
LONG_TRANSACTION
  2
AcDbLongTransaction
  3
AutoCAD 2000
 90
        0
280
     0
281
     0
  0
CLASS
  1
LWPOLYLINE
  2
AcDbPolyline
  3
AutoCAD 2000
 90
        0
280
     0
281
     1
  0
CLASS
  1
HATCH
  2
AcDbHatch
  3
AutoCAD 2000
 90
        0
280
     0
281
     1
  0
CLASS
  1
XRECORD
  2
AcDbXrecord
  3
AutoCAD 2000
 90
        0
280
     0
281
     0
  0
CLASS
  1
LONG_TRANSACTION
  2
AcDbLongTransaction
  3
AutoCAD 2000
 90
        0
280
     0
281
     0
  0
CLASS
  1
LWPOLYLINE
  2
AcDbPolyline
  3
AutoCAD 2000
 90
        0
280
     0
281
     1
  0
CLASS
  1
HATCH
  2
AcDbHatch
  3
AutoCAD 2000
 90
        0
280
     0
281
     1
  0
CLASS
  1
XRECORD
  2
AcDbXrecord
  3
AutoCAD 2000
 90
        0
280
     0
281
     0
  0
CLASS
  1
LONG_TRANSACTION
  2
AcDbLongTransaction
  3
AutoCAD 2000
 90
        0
280
     0
281
     0
  0
CLASS
  1
LWPOLYLINE
  2
AcDbPolyline
  3
AutoCAD 2000
 90
        0
280
     0
281
     1
  0
CLASS
  1
HATCH
  2
AcDbHatch
  3
AutoCAD 2000
 90
        0
280
     0
281
     1
  0
CLASS
  1
XRECORD
  2
AcDbXrecord
  3
AutoCAD 2000
 90
        0
280
     0
281
     0
  0
CLASS
  1
LONG_TRANSACTION
  2
AcDbLongTransaction
  3
AutoCAD 2000
 90
        0
280
     0
281
     0
  0
CLASS
  1
LWPOLYLINE
  2
AcDbPolyline
  3
AutoCAD 2000
 90
        0
280
     0
281
     1
  0
CLASS
  1
HATCH
  2
AcDbHatch
  3
AutoCAD 2000
 90
        0
280
     0
281
     1
  0
CLASS
  1
XRECORD
  2
AcDbXrecord
  3
AutoCAD 2000
 90
        0
280
     0
281
     0
  0
ENDSEC
  0
SECTION
  2
TABLES
  0
TABLE
  2
VPORT
  5
EF7C85523
330
0
100
AcDbSymbolTable
 70
    10
  0
VPORT
  5
EF7C85567
330
EF7C85523
100
AcDbSymbolTableRecord
100
AcDbViewportTableRecord
  2
2
 70
     0
 10
0.5
 20
0.0
 11
1.0
 21
1.0
 12
0.9240312421264802
 22
1.052650975462766
 13
0.0
 23
0.0
 14
1.0
 24
1.0
 15
10.0
 25
10.0
 16
0.0
 26
0.0
 36
1.0
 17
0.0
 27
0.0
 37
0.0
 40
2.105301950925533
 41
0.8778135048231511
 42
50.0
 43
0.0
 44
0.0
 50
0.0
 51
0.0
 71
     0
 72
   500
 73
     1
 74
     1
 75
     0
 76
     0
 77
     0
 78
     0
  0
VPORT
  5
EF7C85568
330
EF7C85523
100
AcDbSymbolTableRecord
100
AcDbViewportTableRecord
  2
2
 70
     0
 10
0.0
 20
0.0
 11
0.5
 21
1.0
 12
0.9240312421264802
 22
1.052650975462766
 13
0.0
 23
0.0
 14
1.0
 24
1.0
 15
10.0
 25
10.0
 16
0.0
 26
0.0
 36
1.0
 17
0.0
 27
0.0
 37
0.0
 40
2.105301950925533
 41
0.8778135048231511
 42
50.0
 43
0.0
 44
0.0
 50
0.0
 51
0.0
 71
     0
 72
   500
 73
     1
 74
     1
 75
     0
 76
     0
 77
     0
 78
     0
  0
VPORT
  5
EF7C85569
330
EF7C85523
100
AcDbSymbolTableRecord
100
AcDbViewportTableRecord
  2
3
 70
     0
 10
0.0
 20
0.5
 11
1.0
 21
1.0
 12
2.832169994473273
 22
1.052650975462766
 13
0.0
 23
0.0
 14
1.0
 24
1.0
 15
10.0
 25
10.0
 16
0.0
 26
0.0
 36
1.0
 17
0.0
 27
0.0
 37
0.0
 40
2.105301950925533
 41
3.571428571428571
 42
50.0
 43
0.0
 44
0.0
 50
0.0
 51
0.0
 71
     0
 72
   500
 73
     1
 74
     1
 75
     0
 76
     0
 77
     0
 78
     0
  0
VPORT
  5
EF7C8556A
330
EF7C85523
100
AcDbSymbolTableRecord
100
AcDbViewportTableRecord
  2
3
 70
     0
 10
0.0
 20
0.0
 11
1.0
 21
0.5
 12
2.856741679241311
 22
1.052650975462766
 13
0.0
 23
0.0
 14
1.0
 24
1.0
 15
10.0
 25
10.0
 16
0.0
 26
0.0
 36
1.0
 17
0.0
 27
0.0
 37
0.0
 40
2.105301950925533
 41
3.594771241830065
 42
50.0
 43
0.0
 44
0.0
 50
0.0
 51
0.0
 71
     0
 72
   500
 73
     1
 74
     1
 75
     0
 76
     0
 77
     0
 78
     0
  0
VPORT
  5
EF7C8556B
330
EF7C85523
100
AcDbSymbolTableRecord
100
AcDbViewportTableRecord
  2
4
 70
     0
 10
0.5
 20
0.0
 11
1.0
 21
0.5
 12
2.886857516709719
 22
1.052650975462766
 13
0.0
 23
0.0
 14
1.0
 24
1.0
 15
10.0
 25
10.0
 16
0.0
 26
0.0
 36
1.0
 17
0.0
 27
0.0
 37
0.0
 40
4.27520703030907
 41
1.784313725490195
 42
50.0
 43
0.0
 44
0.0
 50
0.0
 51
0.0
 71
     0
 72
   500
 73
     1
 74
     1
 75
     0
 76
     0
 77
     0
 78
     0
  0
VPORT
  5
EF7C8556C
330
EF7C85523
100
AcDbSymbolTableRecord
100
AcDbViewportTableRecord
  2
4
 70
     0
 10
0.5
 20
0.5
 11
1.0
 21
1.0
 12
2.862090274555523
 22
1.052650975462766
 13
0.0
 23
0.0
 14
1.0
 24
1.0
 15
10.0
 25
10.0
 16
0.0
 26
0.0
 36
1.0
 17
0.0
 27
0.0
 37
0.0
 40
4.27520703030907
 41
1.772727272727272
 42
50.0
 43
0.0
 44
0.0
 50
0.0
 51
0.0
 71
     0
 72
   500
 73
     1
 74
     1
 75
     0
 76
     0
 77
     0
 78
     0
  0
VPORT
  5
EF7C8556D
330
EF7C85523
100
AcDbSymbolTableRecord
100
AcDbViewportTableRecord
  2
4
 70
     0
 10
0.0
 20
0.5
 11
0.5
 21
1.0
 12
2.862090274555523
 22
1.052650975462766
 13
0.0
 23
0.0
 14
1.0
 24
1.0
 15
10.0
 25
10.0
 16
0.0
 26
0.0
 36
1.0
 17
0.0
 27
0.0
 37
0.0
 40
4.27520703030907
 41
1.772727272727272
 42
50.0
 43
0.0
 44
0.0
 50
0.0
 51
0.0
 71
     0
 72
   500
 73
     1
 74
     1
 75
     0
 76
     0
 77
     0
 78
     0
  0
VPORT
  5
EF7C8556E
330
EF7C85523
100
AcDbSymbolTableRecord
100
AcDbViewportTableRecord
  2
4
 70
     0
 10
0.0
 20
0.0
 11
0.5
 21
0.5
 12
2.886857516709719
 22
1.052650975462766
 13
0.0
 23
0.0
 14
1.0
 24
1.0
 15
10.0
 25
10.0
 16
0.0
 26
0.0
 36
1.0
 17
0.0
 27
0.0
 37
0.0
 40
4.27520703030907
 41
1.784313725490195
 42
50.0
 43
0.0
 44
0.0
 50
0.0
 51
0.0
 71
     0
 72
   500
 73
     1
 74
     1
 75
     0
 76
     0
 77
     0
 78
     0
  0
VPORT
  5
EF7C89E1E
330
EF7C85523
100
AcDbSymbolTableRecord
100
AcDbViewportTableRecord
  2
*ACTIVE
 70
     0
 10
0.0
 20
0.0
 11
1.0
 21
1.0
 12
262.852245219144
 22
141.49280462467
 13
0.0
 23
0.0
 14
1.0
 24
1.0
 15
10.0
 25
10.0
 16
0.0
 26
0.0
 36
1.0
 17
0.0
 27
0.0
 37
0.0
 40
286.3118962364715
 41
1.771962616822429
 42
50.0
 43
0.0
 44
0.0
 50
0.0
 51
0.0
 71
     0
 72
   500
 73
     1
 74
     0
 75
     0
 76
     0
 77
     0
 78
     0
  0
ENDTAB
  0
TABLE
  2
LTYPE
  5
EF7C85520
330
0
100
AcDbSymbolTable
 70
     2
  0
LTYPE
  5
EF7C8552C
330
EF7C85520
100
AcDbSymbolTableRecord
100
AcDbLinetypeTableRecord
  2
BYBLOCK
 70
     0
  3

 72
    65
 73
     0
 40
0.0
  0
LTYPE
  5
EF7C8552D
330
EF7C85520
100
AcDbSymbolTableRecord
100
AcDbLinetypeTableRecord
  2
BYLAYER
 70
     0
  3

 72
    65
 73
     0
 40
0.0
  0
LTYPE
  5
EF7C8552E
330
EF7C85520
100
AcDbSymbolTableRecord
100
AcDbLinetypeTableRecord
  2
CONTINUOUS
 70
     0
  3
実線
 72
    65
 73
     0
 40
0.0
  0
LTYPE
  5
EF7C85565
330
EF7C85520
100
AcDbSymbolTableRecord
100
AcDbLinetypeTableRecord
  2
PHANTOM
 70
     0
  3
_____ _ _ _____ _ _ _____ _ _ _____ _ _ ____
 72
    65
 73
     6
 40
2.5
 49
1.25
 74
     0
 49
-0.25
 74
     0
 49
0.25
 74
     0
 49
-0.25
 74
     0
 49
0.25
 74
     0
 49
-0.25
 74
     0
  0
ENDTAB
  0
TABLE
  2
LAYER
  5
EF7C8551D
330
0
100
AcDbSymbolTable
 70
     8
  0
LAYER
  5
EF7C85529
330
EF7C8551D
100
AcDbSymbolTableRecord
100
AcDbLayerTableRecord
  2
0
 70
     0
 62
     6
  6
CONTINUOUS
  0
LAYER
  5
EF7C85574
330
EF7C8551D
100
AcDbSymbolTableRecord
100
AcDbLayerTableRecord
  2
NITEN
 70
     0
 62
     2
  6
PHANTOM
  0
LAYER
  5
EF7C85575
330
EF7C8551D
100
AcDbSymbolTableRecord
100
AcDbLayerTableRecord
  2
HATCH
 70
     0
 62
     4
  6
CONTINUOUS
  0
LAYER
  5
EF7C85576
330
EF7C8551D
100
AcDbSymbolTableRecord
100
AcDbLayerTableRecord
  2
SUNPOU
 70
     0
 62
     3
  6
CONTINUOUS
  0
LAYER
  5
EF7C85577
330
EF7C8551D
100
AcDbSymbolTableRecord
100
AcDbLayerTableRecord
  2
TEXT
 70
     0
 62
     3
  6
CONTINUOUS
  0
LAYER
  5
EF7C85578
330
EF7C8551D
100
AcDbSymbolTableRecord
100
AcDbLayerTableRecord
  2
SAISEN
 70
     0
 62
     4
  6
CONTINUOUS
  0
LAYER
  5
EF7C85579
330
EF7C8551D
100
AcDbSymbolTableRecord
100
AcDbLayerTableRecord
  2
JISSEN
 70
     0
 62
     7
  6
CONTINUOUS
  0
LAYER
  5
EF7C8557D
330
EF7C8551D
100
AcDbSymbolTableRecord
100
AcDbLayerTableRecord
  2
WAKU
 70
     0
 62
     5
  6
CONTINUOUS
  0
ENDTAB
  0
TABLE
  2
STYLE
  5
EF7C8551E
330
0
100
AcDbSymbolTable
 70
     3
  0
STYLE
  5
EF7C8552A
330
EF7C8551E
100
AcDbSymbolTableRecord
100
AcDbTextStyleTableRecord
  2
STANDARD
 70
     0
 40
0.0
 41
1.0
 50
0.0
 71
     0
 42
1.5
  3
SIMPLEX
  4

  0
STYLE
  5
EF7C85558
330
EF7C8551E
100
AcDbSymbolTableRecord
100
AcDbTextStyleTableRecord
  2
K
 70
     0
 40
0.0
 41
1.0
 50
0.0
 71
     0
 42
3.0
  3
ROMANS
  4
BIGFONT
  0
STYLE
  5
EF7C8555B
330
EF7C8551E
100
AcDbSymbolTableRecord
100
AcDbTextStyleTableRecord
  2
BIGFONT
 70
     0
 40
0.0
 41
1.0
 50
0.0
 71
     0
 42
3.0
  3
txt.shx
  4
bigfont
  0
ENDTAB
  0
TABLE
  2
VIEW
  5
EF7C85521
330
0
100
AcDbSymbolTable
 70
     0
  0
ENDTAB
  0
TABLE
  2
UCS
  5
EF7C85522
330
0
100
AcDbSymbolTable
 70
     0
  0
ENDTAB
  0
TABLE
  2
APPID
  5
EF7C85524
330
0
100
AcDbSymbolTable
 70
     1
  0
APPID
  5
EF7C8552B
330
EF7C85524
100
AcDbSymbolTableRecord
100
AcDbRegAppTableRecord
  2
ACAD
 70
     0
  0
ENDTAB
  0
TABLE
  2
DIMSTYLE
  5
EF7C85525
330
0
100
AcDbSymbolTable
 70
     1
  0
DIMSTYLE
105
EF7C85571
330
EF7C85525
100
AcDbSymbolTableRecord
100
AcDbDimStyleTableRecord
  2
IMAO
 70
     0
  3

  4

  5
ARROWANG
  6
ARROWANG
  7
ARROWANG
 40
1.0
 41
1.5
 42
1.0
 43
6.0
 44
1.0
 45
0.0
 46
0.0
 47
495.0
 48
0.0
140
3.0
141
0.0
142
0.0
143
25.4
144
1.0
145
0.0
146
1.0
147
0.09
 71
     0
 72
     0
 73
     0
 74
     0
 75
     0
 76
     0
 77
     1
 78
     8
170
     0
171
     2
172
     1
173
     0
174
     1
175
     0
176
     0
177
     0
178
     0
270
     2
271
     2
272
     2
273
     2
274
     2
340
EF7C8555B
275
     0
280
     0
281
     0
282
     0
283
     1
284
     8
285
     8
286
     8
287
     5
288
     0
  0
ENDTAB
  0
TABLE
  2
BLOCK_RECORD
  5
EF7C8551C
330
0
100
AcDbSymbolTable
 70
    10
  0
BLOCK_RECORD
  5
EF7C85532
102
{ACAD_XDICTIONARY
360
EF7C85D9A
102
}
330
EF7C8551C
100
AcDbSymbolTableRecord
100
AcDbBlockTableRecord
  2
*MODEL_SPACE
  0
BLOCK_RECORD
  5
EF7C8552F
102
{ACAD_XDICTIONARY
360
EF7C85D98
102
}
330
EF7C8551C
100
AcDbSymbolTableRecord
100
AcDbBlockTableRecord
  2
*PAPER_SPACE
  0
BLOCK_RECORD
  5
EF7C85537
330
EF7C8551C
100
AcDbSymbolTableRecord
100
AcDbBlockTableRecord
  2
ARROW
  0
BLOCK_RECORD
  5
EF7C8553B
330
EF7C8551C
100
AcDbSymbolTableRecord
100
AcDbBlockTableRecord
  2
WAKU
  0
BLOCK_RECORD
  5
EF7C8553D
330
EF7C8551C
100
AcDbSymbolTableRecord
100
AcDbBlockTableRecord
  2
*X2
  0
BLOCK_RECORD
  5
EF7C8553E
330
EF7C8551C
100
AcDbSymbolTableRecord
100
AcDbBlockTableRecord
  2
STDGX5
  0
BLOCK_RECORD
  5
EF7C8553F
330
EF7C8551C
100
AcDbSymbolTableRecord
100
AcDbBlockTableRecord
  2
*X4
  0
BLOCK_RECORD
  5
EF7C85540
330
EF7C8551C
100
AcDbSymbolTableRecord
100
AcDbBlockTableRecord
  2
*X5
  0
BLOCK_RECORD
  5
EF7C85541
330
EF7C8551C
100
AcDbSymbolTableRecord
100
AcDbBlockTableRecord
  2
*X6
  0
BLOCK_RECORD
  5
EF7C85542
330
EF7C8551C
100
AcDbSymbolTableRecord
100
AcDbBlockTableRecord
  2
*X7
  0
BLOCK_RECORD
  5
EF7C85543
330
EF7C8551C
100
AcDbSymbolTableRecord
100
AcDbBlockTableRecord
  2
ARROWANG
  0
BLOCK_RECORD
  5
EF7C85544
330
EF7C8551C
100
AcDbSymbolTableRecord
100
AcDbBlockTableRecord
  2
STDR12J
  0
ENDTAB
  0
ENDSEC
  0
SECTION
  2
BLOCKS
  0
BLOCK
  5
EF7C85580
330
EF7C85532
100
AcDbEntity
  8
0
100
AcDbBlockBegin
  2
*MODEL_SPACE
 70
     0
 10
0.0
 20
0.0
 30
0.0
  3
*MODEL_SPACE
  1

  0
ENDBLK
  5
EF7C85581
330
EF7C85532
100
AcDbEntity
  8
0
100
AcDbBlockEnd
  0
BLOCK
  5
EF7C8557E
330
EF7C8552F
100
AcDbEntity
 67
     1
  8
0
100
AcDbBlockBegin
  2
*PAPER_SPACE
 70
     0
 10
0.0
 20
0.0
 30
0.0
  3
*PAPER_SPACE
  1

  0
ENDBLK
  5
EF7C8557F
330
EF7C8552F
100
AcDbEntity
 67
     1
  8
0
100
AcDbBlockEnd
  0
BLOCK
  5
499
330
EF7C85537
100
AcDbEntity
  8
0
100
AcDbBlockBegin
  2
ARROW
 70
     0
 10
1.0
 20
0.5
 30
0.0
  3
ARROW
  1

  0
LINE
  5
49A
330
EF7C85537
100
AcDbEntity
  8
0
100
AcDbLine
 10
1.0
 20
0.5
 30
0.0
 11
-0.5000000000000214
 21
0.0980762113533018
 31
0.0
  0
LINE
  5
49B
330
EF7C85537
100
AcDbEntity
  8
0
100
AcDbLine
 10
0.0
 20
0.5
 30
0.0
 11
1.0
 21
0.5
 31
0.0
  0
LINE
  5
49C
330
EF7C85537
100
AcDbEntity
  8
0
100
AcDbLine
 10
1.0
 20
0.5
 30
0.0
 11
-0.4999999999999574
 21
0.9019237886467408
 31
0.0
  0
ENDBLK
  5
49D
330
EF7C85537
100
AcDbEntity
  8
0
100
AcDbBlockEnd
  0
BLOCK
  5
4A7
330
EF7C8553B
100
AcDbEntity
  8
0
100
AcDbBlockBegin
  2
WAKU
 70
     0
 10
0.0
 20
0.0
 30
0.0
  3
WAKU
  1

  0
LINE
  5
4A8
330
EF7C8553B
100
AcDbEntity
  8
WAKU
100
AcDbLine
 10
0.999999996
 20
0.0
 30
0.0
 11
0.999999996
 21
0.9999999999999998
 31
0.0
  0
LINE
  5
4A9
330
EF7C8553B
100
AcDbEntity
  8
WAKU
100
AcDbLine
 10
0.0
 20
0.9999999999999998
 30
0.0
 11
0.999999996
 21
0.9999999999999998
 31
0.0
  0
LINE
  5
4AA
330
EF7C8553B
100
AcDbEntity
  8
WAKU
100
AcDbLine
 10
0.999999996
 20
0.0
 30
0.0
 11
0.0
 21
0.0
 31
0.0
  0
LINE
  5
4AB
330
EF7C8553B
100
AcDbEntity
  8
WAKU
100
AcDbLine
 10
0.0
 20
0.0
 30
0.0
 11
0.0
 21
0.9999999999999998
 31
0.0
  0
ENDBLK
  5
4AC
330
EF7C8553B
100
AcDbEntity
  8
0
100
AcDbBlockEnd
  0
BLOCK
  5
2764
330
EF7C8553D
100
AcDbEntity
  8
0
100
AcDbBlockBegin
  2
*X2
 70
     1
 10
0.0
 20
0.0
 30
0.0
  3
*X2
  1

  0
ENDBLK
  5
2765
330
EF7C8553D
100
AcDbEntity
  8
0
100
AcDbBlockEnd
  0
BLOCK
  5
2766
330
EF7C8553E
100
AcDbEntity
  8
0
100
AcDbBlockBegin
  2
STDGX5
 70
     0
 10
0.0
 20
0.0
 30
0.0
  3
STDGX5
  1

  0
ENDBLK
  5
2767
330
EF7C8553E
100
AcDbEntity
  8
0
100
AcDbBlockEnd
  0
BLOCK
  5
2F5A
330
EF7C8553F
100
AcDbEntity
  8
0
100
AcDbBlockBegin
  2
*X4
 70
     1
 10
0.0
 20
0.0
 30
0.0
  3
*X4
  1

  0
ENDBLK
  5
2F5B
330
EF7C8553F
100
AcDbEntity
  8
0
100
AcDbBlockEnd
  0
BLOCK
  5
32BB
330
EF7C85540
100
AcDbEntity
  8
0
100
AcDbBlockBegin
  2
*X5
 70
     1
 10
0.0
 20
0.0
 30
0.0
  3
*X5
  1

  0
ENDBLK
  5
32BC
330
EF7C85540
100
AcDbEntity
  8
0
100
AcDbBlockEnd
  0
BLOCK
  5
372F
330
EF7C85541
100
AcDbEntity
  8
0
100
AcDbBlockBegin
  2
*X6
 70
     1
 10
0.0
 20
0.0
 30
0.0
  3
*X6
  1

  0
ENDBLK
  5
3730
330
EF7C85541
100
AcDbEntity
  8
0
100
AcDbBlockEnd
  0
BLOCK
  5
3A6D
330
EF7C85542
100
AcDbEntity
  8
0
100
AcDbBlockBegin
  2
*X7
 70
     1
 10
0.0
 20
0.0
 30
0.0
  3
*X7
  1

  0
ENDBLK
  5
3A6E
330
EF7C85542
100
AcDbEntity
  8
0
100
AcDbBlockEnd
  0
BLOCK
  5
4CC9
330
EF7C85543
100
AcDbEntity
  8
0
100
AcDbBlockBegin
  2
ARROWANG
 70
     0
 10
0.0
 20
0.0
 30
0.0
  3
ARROWANG
  1

  0
LINE
  5
4CCA
330
EF7C85543
100
AcDbEntity
  8
SUNPOU
100
AcDbLine
 10
0.0
 20
0.0
 30
0.0
 11
-1.499999999999957
 21
0.4019237886467409
 31
0.0
  0
LINE
  5
4CCB
330
EF7C85543
100
AcDbEntity
  8
SUNPOU
100
AcDbLine
 10
0.0
 20
0.0
 30
0.0
 11
-1.500000000000028
 21
-0.4019237886467124
 31
0.0
  0
ENDBLK
  5
4CCC
330
EF7C85543
100
AcDbEntity
  8
0
100
AcDbBlockEnd
  0
BLOCK
  5
4CCD
330
EF7C85544
100
AcDbEntity
  8
0
100
AcDbBlockBegin
  2
STDR12J
 70
     0
 10
0.0
 20
0.0
 30
0.0
  3
STDR12J
  1

  0
ENDBLK
  5
4CF2
330
EF7C85544
100
AcDbEntity
  8
0
100
AcDbBlockEnd
  0
ENDSEC
  0
SECTION
  2
ENTITIES
  0
TEXT
  5
1
330
EF7C85532
100
AcDbEntity
  8
SUNPOU
100
AcDbText
 10
95.05869565217389
 20
43.7966872748706
 30
0.0
 40
1.5
  1
                          
100
AcDbText
  0
TEXT
  5
2
330
EF7C85532
100
AcDbEntity
  8
SUNPOU
100
AcDbText
 10
332.2793466870868
 20
21.8983436374353
 30
0.0
 40
0.75
  1
                          
100
AcDbText
  0
TEXT
  5
1A
330
EF7C85532
100
AcDbEntity
  8
SUNPOU
100
AcDbText
 10
289.9834441000535
 20
43.7966872748706
 30
0.0
 40
1.5
  1
                          
100
AcDbText
  0
TEXT
  5
1B
330
EF7C85532
100
AcDbEntity
  8
SUNPOU
100
AcDbText
 10
527.2040951349665
 20
21.8983436374353
 30
0.0
 40
0.75
  1
                          
100
AcDbText
  0
TEXT
  5
1C
330
EF7C85532
100
AcDbEntity
  8
SUNPOU
100
AcDbText
 10
490.6272568090836
 20
43.79668727487057
 30
0.0
 40
1.5
  1
                          
100
AcDbText
  0
TEXT
  5
1D
330
EF7C85532
100
AcDbEntity
  8
SUNPOU
100
AcDbText
 10
727.8479078439966
 20
21.89834363743527
 30
0.0
 40
0.75
  1
                          
100
AcDbText
  0
INSERT
  5
1E
330
EF7C85532
100
AcDbEntity
  8
HATCH
100
AcDbBlockReference
  2
*X2
 10
194.9247484478796
 20
0.0
 30
0.0
  0
TEXT
  5
1F
330
EF7C85532
100
AcDbEntity
  8
SUNPOU
100
AcDbText
 10
493.0101992368964
 20
43.7966872748706
 30
0.0
 40
1.5
  1
                          
100
AcDbText
  0
TEXT
  5
20
330
EF7C85532
100
AcDbEntity
  8
SUNPOU
100
AcDbText
 10
730.2308502718094
 20
21.8983436374353
 30
0.0
 40
0.75
  1
                          
100
AcDbText
  0
TEXT
  5
21
330
EF7C85532
100
AcDbEntity
  8
SUNPOU
100
AcDbText
 10
482.0486607753579
 20
43.7966872748706
 30
0.0
 40
1.5
  1
                          
100
AcDbText
  0
TEXT
  5
22
330
EF7C85532
100
AcDbEntity
  8
SUNPOU
100
AcDbText
 10
719.269311810271
 20
21.8983436374353
 30
0.0
 40
0.75
  1
                          
100
AcDbText
  0
INSERT
  5
25
330
EF7C85532
100
AcDbEntity
  8
JISSEN
100
AcDbBlockReference
  2
STDGX5
 10
0.0
 20
0.0
 30
0.0
  0
TEXT
  5
60
330
EF7C85532
100
AcDbEntity
  8
SUNPOU
100
AcDbText
 10
274.0586949361738
 20
43.7966872748706
 30
0.0
 40
1.5
  1
                          
100
AcDbText
  0
TEXT
  5
61
330
EF7C85532
100
AcDbEntity
  8
SUNPOU
100
AcDbText
 10
511.2793459710869
 20
21.8983436374353
 30
0.0
 40
0.75
  1
                          
100
AcDbText
  0
TEXT
  5
62
330
EF7C85532
100
AcDbEntity
  8
SUNPOU
100
AcDbText
 10
474.702507645204
 20
43.79668727487057
 30
0.0
 40
1.5
  1
                          
100
AcDbText
  0
TEXT
  5
63
330
EF7C85532
100
AcDbEntity
  8
SUNPOU
100
AcDbText
 10
711.923158680117
 20
21.89834363743527
 30
0.0
 40
0.75
  1
                          
100
AcDbText
  0
INSERT
  5
64
330
EF7C85532
100
AcDbEntity
  8
HATCH
100
AcDbBlockReference
  2
*X4
 10
178.999999284
 20
0.0
 30
0.0
  0
TEXT
  5
65
330
EF7C85532
100
AcDbEntity
  8
SUNPOU
100
AcDbText
 10
477.0854500730167
 20
43.7966872748706
 30
0.0
 40
1.5
  1
                          
100
AcDbText
  0
TEXT
  5
66
330
EF7C85532
100
AcDbEntity
  8
SUNPOU
100
AcDbText
 10
714.3061011079298
 20
21.8983436374353
 30
0.0
 40
0.75
  1
                          
100
AcDbText
  0
TEXT
  5
67
330
EF7C85532
100
AcDbEntity
  8
SUNPOU
100
AcDbText
 10
466.1239116114783
 20
43.7966872748706
 30
0.0
 40
1.5
  1
                          
100
AcDbText
  0
TEXT
  5
68
330
EF7C85532
100
AcDbEntity
  8
SUNPOU
100
AcDbText
 10
703.3445626463913
 20
21.8983436374353
 30
0.0
 40
0.75
  1
                          
100
AcDbText
  0
INSERT
  5
69
330
EF7C85532
100
AcDbEntity
  8
TEXT
100
AcDbBlockReference
  2
STDGX5
 10
178.999999284
 20
0.0
 30
0.0
  0
TEXT
  5
6A
330
EF7C85532
100
AcDbEntity
  8
SUNPOU
100
AcDbText
 10
453.0586949361739
 20
43.7966872748706
 30
0.0
 40
1.5
  1
                          
100
AcDbText
  0
TEXT
  5
6B
330
EF7C85532
100
AcDbEntity
  8
SUNPOU
100
AcDbText
 10
690.279345971087
 20
21.8983436374353
 30
0.0
 40
0.75
  1
                          
100
AcDbText
  0
TEXT
  5
6C
330
EF7C85532
100
AcDbEntity
  8
SUNPOU
100
AcDbText
 10
647.9834433840535
 20
43.7966872748706
 30
0.0
 40
1.5
  1
                          
100
AcDbText
  0
TEXT
  5
6D
330
EF7C85532
100
AcDbEntity
  8
SUNPOU
100
AcDbText
 10
885.2040944189665
 20
21.8983436374353
 30
0.0
 40
0.75
  1
                          
100
AcDbText
  0
TEXT
  5
6E
330
EF7C85532
100
AcDbEntity
  8
SUNPOU
100
AcDbText
 10
848.6272560930835
 20
43.79668727487057
 30
0.0
 40
1.5
  1
                          
100
AcDbText
  0
TEXT
  5
6F
330
EF7C85532
100
AcDbEntity
  8
SUNPOU
100
AcDbText
 10
1085.847907127996
 20
21.89834363743527
 30
0.0
 40
0.75
  1
                          
100
AcDbText
  0
INSERT
  5
70
330
EF7C85532
100
AcDbEntity
  8
HATCH
100
AcDbBlockReference
  2
*X5
 10
552.9247477318797
 20
0.0
 30
0.0
  0
TEXT
  5
71
330
EF7C85532
100
AcDbEntity
  8
SUNPOU
100
AcDbText
 10
851.0101985208963
 20
43.7966872748706
 30
0.0
 40
1.5
  1
                          
100
AcDbText
  0
TEXT
  5
72
330
EF7C85532
100
AcDbEntity
  8
SUNPOU
100
AcDbText
 10
1088.230849555809
 20
21.8983436374353
 30
0.0
 40
0.75
  1
                          
100
AcDbText
  0
TEXT
  5
73
330
EF7C85532
100
AcDbEntity
  8
SUNPOU
100
AcDbText
 10
840.048660059358
 20
43.7966872748706
 30
0.0
 40
1.5
  1
                          
100
AcDbText
  0
TEXT
  5
74
330
EF7C85532
100
AcDbEntity
  8
SUNPOU
100
AcDbText
 10
1077.269311094271
 20
21.8983436374353
 30
0.0
 40
0.75
  1
                          
100
AcDbText
  0
INSERT
  5
75
330
EF7C85532
100
AcDbEntity
  8
JISSEN
100
AcDbBlockReference
  2
STDGX5
 10
357.999999284
 20
0.0
 30
0.0
  0
TEXT
  5
76
330
EF7C85532
100
AcDbEntity
  8
SUNPOU
100
AcDbText
 10
453.0586949361739
 20
43.7966872748706
 30
0.0
 40
1.5
  1
                          
100
AcDbText
  0
TEXT
  5
77
330
EF7C85532
100
AcDbEntity
  8
SUNPOU
100
AcDbText
 10
690.279345971087
 20
21.8983436374353
 30
0.0
 40
0.75
  1
                          
100
AcDbText
  0
TEXT
  5
78
330
EF7C85532
100
AcDbEntity
  8
SUNPOU
100
AcDbText
 10
647.9834433840535
 20
43.7966872748706
 30
0.0
 40
1.5
  1
                          
100
AcDbText
  0
TEXT
  5
79
330
EF7C85532
100
AcDbEntity
  8
SUNPOU
100
AcDbText
 10
885.2040944189665
 20
21.8983436374353
 30
0.0
 40
0.75
  1
                          
100
AcDbText
  0
TEXT
  5
7A
330
EF7C85532
100
AcDbEntity
  8
SUNPOU
100
AcDbText
 10
848.6272560930835
 20
43.79668727487057
 30
0.0
 40
1.5
  1
                          
100
AcDbText
  0
TEXT
  5
7B
330
EF7C85532
100
AcDbEntity
  8
SUNPOU
100
AcDbText
 10
1085.847907127996
 20
21.89834363743527
 30
0.0
 40
0.75
  1
                          
100
AcDbText
  0
INSERT
  5
7C
330
EF7C85532
100
AcDbEntity
  8
HATCH
100
AcDbBlockReference
  2
*X6
 10
552.9247477318797
 20
0.0
 30
0.0
  0
TEXT
  5
7D
330
EF7C85532
100
AcDbEntity
  8
SUNPOU
100
AcDbText
 10
851.0101985208963
 20
43.7966872748706
 30
0.0
 40
1.5
  1
                          
100
AcDbText
  0
TEXT
  5
7E
330
EF7C85532
100
AcDbEntity
  8
SUNPOU
100
AcDbText
 10
1088.230849555809
 20
21.8983436374353
 30
0.0
 40
0.75
  1
                          
100
AcDbText
  0
TEXT
  5
7F
330
EF7C85532
100
AcDbEntity
  8
SUNPOU
100
AcDbText
 10
840.048660059358
 20
43.7966872748706
 30
0.0
 40
1.5
  1
                          
100
AcDbText
  0
TEXT
  5
80
330
EF7C85532
100
AcDbEntity
  8
SUNPOU
100
AcDbText
 10
1077.269311094271
 20
21.8983436374353
 30
0.0
 40
0.75
  1
                          
100
AcDbText
  0
INSERT
  5
81
330
EF7C85532
100
AcDbEntity
  8
JISSEN
100
AcDbBlockReference
  2
STDGX5
 10
357.999999284
 20
0.0
 30
0.0
  0
TEXT
  5
82
330
EF7C85532
100
AcDbEntity
  8
SUNPOU
100
AcDbText
 10
632.0586942201739
 20
43.7966872748706
 30
0.0
 40
1.5
  1
                          
100
AcDbText
  0
TEXT
  5
83
330
EF7C85532
100
AcDbEntity
  8
SUNPOU
100
AcDbText
 10
869.2793452550871
 20
21.8983436374353
 30
0.0
 40
0.75
  1
                          
100
AcDbText
  0
TEXT
  5
84
330
EF7C85532
100
AcDbEntity
  8
SUNPOU
100
AcDbText
 10
826.9834426680535
 20
43.7966872748706
 30
0.0
 40
1.5
  1
                          
100
AcDbText
  0
TEXT
  5
85
330
EF7C85532
100
AcDbEntity
  8
SUNPOU
100
AcDbText
 10
1064.204093702966
 20
21.8983436374353
 30
0.0
 40
0.75
  1
                          
100
AcDbText
  0
TEXT
  5
86
330
EF7C85532
100
AcDbEntity
  8
SUNPOU
100
AcDbText
 10
1027.627255377083
 20
43.79668727487057
 30
0.0
 40
1.5
  1
                          
100
AcDbText
  0
TEXT
  5
87
330
EF7C85532
100
AcDbEntity
  8
SUNPOU
100
AcDbText
 10
1264.847906411996
 20
21.89834363743527
 30
0.0
 40
0.75
  1
                          
100
AcDbText
  0
INSERT
  5
88
330
EF7C85532
100
AcDbEntity
  8
HATCH
100
AcDbBlockReference
  2
*X7
 10
731.9247470158797
 20
0.0
 30
0.0
  0
TEXT
  5
89
330
EF7C85532
100
AcDbEntity
  8
SUNPOU
100
AcDbText
 10
1030.010197804896
 20
43.7966872748706
 30
0.0
 40
1.5
  1
                          
100
AcDbText
  0
TEXT
  5
8A
330
EF7C85532
100
AcDbEntity
  8
SUNPOU
100
AcDbText
 10
1267.230848839809
 20
21.8983436374353
 30
0.0
 40
0.75
  1
                          
100
AcDbText
  0
TEXT
  5
8B
330
EF7C85532
100
AcDbEntity
  8
SUNPOU
100
AcDbText
 10
1019.048659343358
 20
43.7966872748706
 30
0.0
 40
1.5
  1
                          
100
AcDbText
  0
TEXT
  5
8C
330
EF7C85532
100
AcDbEntity
  8
SUNPOU
100
AcDbText
 10
1256.269310378271
 20
21.8983436374353
 30
0.0
 40
0.75
  1
                          
100
AcDbText
  0
INSERT
  5
8D
330
EF7C85532
100
AcDbEntity
  8
JISSEN
100
AcDbBlockReference
  2
STDGX5
 10
536.999998568
 20
0.0
 30
0.0
  0
INSERT
  5
8E
330
EF7C85532
100
AcDbEntity
  8
SUNPOU
100
AcDbBlockReference
  2
STDGX5
 10
739.0804232644236
 20
50.83533235670902
 30
0.0
 41
0.5
 42
0.5
 43
0.5
  0
INSERT
  5
8F
330
EF7C85532
100
AcDbEntity
  8
SUNPOU
100
AcDbBlockReference
  2
STDGX5
 10
726.2208210623692
 20
105.0763138619288
 30
0.0
 41
0.5
 42
0.5
 43
0.5
  0
INSERT
  5
90
330
EF7C85532
100
AcDbEntity
  8
HATCH
100
AcDbBlockReference
  2
STDGX5
 10
852.3985550581901
 20
151.7065097967401
 30
0.0
 41
0.5
 42
0.5
 43
0.5
  0
INSERT
  5
91
330
EF7C85532
100
AcDbEntity
  8
HATCH
100
AcDbBlockReference
  2
STDGX5
 10
866.6806796277285
 20
102.7017487639613
 30
0.0
 41
0.5
 42
0.5
 43
0.5
  0
INSERT
  5
92
330
EF7C85532
100
AcDbEntity
  8
TEXT
100
AcDbBlockReference
  2
STDGX5
 10
970.3434408521969
 20
102.8213468229236
 30
0.0
 41
0.5
 42
0.5
 43
0.5
  0
INSERT
  5
93
330
EF7C85532
100
AcDbEntity
  8
SUNPOU
100
AcDbBlockReference
  2
STDGX5
 10
996.1728907397869
 20
174.5475645486174
 30
0.0
 41
0.5
 42
0.5
 43
0.5
  0
INSERT
  5
94
330
EF7C85532
100
AcDbEntity
  8
TEXT
100
AcDbBlockReference
  2
STDGX5
 10
725.7513886810995
 20
124.5860190441302
 30
0.0
 41
0.5
 42
0.5
 43
0.5
  0
INSERT
  5
95
330
EF7C85532
100
AcDbEntity
  8
HATCH
100
AcDbBlockReference
  2
STDGX5
 10
777.1755722656421
 20
145.5222028932424
 30
0.0
 41
0.5
 42
0.5
 43
0.5
  0
INSERT
  5
96
330
EF7C85532
100
AcDbEntity
  8
SUNPOU
100
AcDbBlockReference
  2
STDGX5
 10
846.1963575359604
 20
112.6957974729892
 30
0.0
 41
0.5
 42
0.5
 43
0.5
  0
INSERT
  5
97
330
EF7C85532
100
AcDbEntity
  8
SUNPOU
100
AcDbBlockReference
  2
STDGX5
 10
916.6681156211122
 20
121.7330617103085
 30
0.0
 41
0.5
 42
0.5
 43
0.5
  0
INSERT
  5
98
330
EF7C85532
100
AcDbEntity
  8
TEXT
100
AcDbBlockReference
  2
STDGX5
 10
983.7969461426769
 20
84.61852224867081
 30
0.0
 41
0.5
 42
0.5
 43
0.5
  0
INSERT
  5
99
330
EF7C85532
100
AcDbEntity
  8
HATCH
100
AcDbBlockReference
  2
STDGX5
 10
974.2802715042099
 20
136.4849386559231
 30
0.0
 41
0.5
 42
0.5
 43
0.5
  0
INSERT
  5
9A
330
EF7C85532
100
AcDbEntity
  8
SUNPOU
100
AcDbBlockReference
  2
STDGX5
 10
749.7834008663489
 20
95.14721172234004
 30
0.0
 41
0.5
 42
0.5
 43
0.5
  0
INSERT
  5
9B
330
EF7C85532
100
AcDbEntity
  8
SUNPOU
100
AcDbBlockReference
  2
STDGX5
 10
736.9237986642947
 20
149.3881932275598
 30
0.0
 41
0.5
 42
0.5
 43
0.5
  0
INSERT
  5
9C
330
EF7C85532
100
AcDbEntity
  8
HATCH
100
AcDbBlockReference
  2
STDGX5
 10
863.1015326601156
 20
196.0183891623711
 30
0.0
 41
0.5
 42
0.5
 43
0.5
  0
INSERT
  5
9D
330
EF7C85532
100
AcDbEntity
  8
HATCH
100
AcDbBlockReference
  2
STDGX5
 10
877.3836572296538
 20
147.0136281295923
 30
0.0
 41
0.5
 42
0.5
 43
0.5
  0
INSERT
  5
9E
330
EF7C85532
100
AcDbEntity
  8
TEXT
100
AcDbBlockReference
  2
STDGX5
 10
981.0464184541224
 20
147.1332261885546
 30
0.0
 41
0.5
 42
0.5
 43
0.5
  0
INSERT
  5
9F
330
EF7C85532
100
AcDbEntity
  8
SUNPOU
100
AcDbBlockReference
  2
STDGX5
 10
1006.875868341712
 20
218.8594439142484
 30
0.0
 41
0.5
 42
0.5
 43
0.5
  0
INSERT
  5
A0
330
EF7C85532
100
AcDbEntity
  8
TEXT
100
AcDbBlockReference
  2
STDGX5
 10
736.4543662830251
 20
168.8978984097612
 30
0.0
 41
0.5
 42
0.5
 43
0.5
  0
INSERT
  5
A1
330
EF7C85532
100
AcDbEntity
  8
HATCH
100
AcDbBlockReference
  2
STDGX5
 10
787.8785498675677
 20
189.8340822588735
 30
0.0
 41
0.5
 42
0.5
 43
0.5
  0
INSERT
  5
A2
330
EF7C85532
100
AcDbEntity
  8
SUNPOU
100
AcDbBlockReference
  2
STDGX5
 10
856.899335137886
 20
157.0076768386202
 30
0.0
 41
0.5
 42
0.5
 43
0.5
  0
INSERT
  5
A3
330
EF7C85532
100
AcDbEntity
  8
SUNPOU
100
AcDbBlockReference
  2
STDGX5
 10
927.3710932230379
 20
166.0449410759395
 30
0.0
 41
0.5
 42
0.5
 43
0.5
  0
INSERT
  5
A4
330
EF7C85532
100
AcDbEntity
  8
TEXT
100
AcDbBlockReference
  2
STDGX5
 10
994.4999237446024
 20
128.9304016143018
 30
0.0
 41
0.5
 42
0.5
 43
0.5
  0
INSERT
  5
A5
330
EF7C85532
100
AcDbEntity
  8
HATCH
100
AcDbBlockReference
  2
STDGX5
 10
984.9832491061354
 20
180.7968180215541
 30
0.0
 41
0.5
 42
0.5
 43
0.5
  0
TEXT
  5
DE
330
EF7C85532
100
AcDbEntity
  8
SUNPOU
100
AcDbText
 10
274.0586949361738
 20
43.7966872748706
 30
0.0
 40
1.5
  1
                          
100
AcDbText
  0
TEXT
  5
145
330
EF7C85532
100
AcDbEntity
  8
SUNPOU
100
AcDbText
 10
511.2793459710869
 20
21.8983436374353
 30
0.0
 40
0.75
  1
                          
100
AcDbText
  0
TEXT
  5
265
330
EF7C85532
100
AcDbEntity
  8
SUNPOU
100
AcDbText
 10
474.702507645204
 20
43.79668727487057
 30
0.0
 40
1.5
  1
                          
100
AcDbText
  0
TEXT
  5
266
330
EF7C85532
100
AcDbEntity
  8
SUNPOU
100
AcDbText
 10
711.923158680117
 20
21.89834363743527
 30
0.0
 40
0.75
  1
                          
100
AcDbText
  0
INSERT
  5
2F7
330
EF7C85532
100
AcDbEntity
  8
HATCH
100
AcDbBlockReference
  2
*X4
 10
178.999999284
 20
0.0
 30
0.0
  0
TEXT
  5
31A
330
EF7C85532
100
AcDbEntity
  8
SUNPOU
100
AcDbText
 10
477.0854500730167
 20
43.7966872748706
 30
0.0
 40
1.5
  1
                          
100
AcDbText
  0
TEXT
  5
31C
330
EF7C85532
100
AcDbEntity
  8
SUNPOU
100
AcDbText
 10
714.3061011079298
 20
21.8983436374353
 30
0.0
 40
0.75
  1
                          
100
AcDbText
  0
TEXT
  5
3A6
330
EF7C85532
100
AcDbEntity
  8
TEXT
100
AcDbText
 10
100.9999992839998
 20
244.9999999999999
 30
0.0
 40
3.0
  1
 
  7
K
100
AcDbText
  0
TEXT
  5
3AB
330
EF7C85532
100
AcDbEntity
  8
SUNPOU
100
AcDbText
 10
466.1239116114783
 20
43.7966872748706
 30
0.0
 40
1.5
  1
                          
100
AcDbText
  0
TEXT
  5
3AC
330
EF7C85532
100
AcDbEntity
  8
SUNPOU
100
AcDbText
 10
703.3445626463913
 20
21.8983436374353
 30
0.0
 40
0.75
  1
                          
100
AcDbText
  0
INSERT
  5
3F6
330
EF7C85532
100
AcDbEntity
  8
TEXT
100
AcDbBlockReference
  2
STDGX5
 10
178.999999284
 20
0.0
 30
0.0
  0
TEXT
  5
3F7
330
EF7C85532
100
AcDbEntity
  8
SUNPOU
100
AcDbText
 10
453.0586949361739
 20
43.7966872748706
 30
0.0
 40
1.5
  1
                          
100
AcDbText
  0
TEXT
  5
3F8
330
EF7C85532
100
AcDbEntity
  8
SUNPOU
100
AcDbText
 10
690.279345971087
 20
21.8983436374353
 30
0.0
 40
0.75
  1
                          
100
AcDbText
  0
TEXT
  5
3F9
330
EF7C85532
100
AcDbEntity
  8
SUNPOU
100
AcDbText
 10
647.9834433840535
 20
43.7966872748706
 30
0.0
 40
1.5
  1
                          
100
AcDbText
  0
TEXT
  5
3FA
330
EF7C85532
100
AcDbEntity
  8
SUNPOU
100
AcDbText
 10
885.2040944189665
 20
21.8983436374353
 30
0.0
 40
0.75
  1
                          
100
AcDbText
  0
TEXT
  5
3FB
330
EF7C85532
100
AcDbEntity
  8
SUNPOU
100
AcDbText
 10
848.6272560930835
 20
43.79668727487057
 30
0.0
 40
1.5
  1
                          
100
AcDbText
  0
TEXT
  5
3FC
330
EF7C85532
100
AcDbEntity
  8
SUNPOU
100
AcDbText
 10
1085.847907127996
 20
21.89834363743527
 30
0.0
 40
0.75
  1
                          
100
AcDbText
  0
INSERT
  5
3FD
330
EF7C85532
100
AcDbEntity
  8
HATCH
100
AcDbBlockReference
  2
*X5
 10
552.9247477318797
 20
0.0
 30
0.0
  0
TEXT
  5
3FE
330
EF7C85532
100
AcDbEntity
  8
SUNPOU
100
AcDbText
 10
851.0101985208963
 20
43.7966872748706
 30
0.0
 40
1.5
  1
                          
100
AcDbText
  0
TEXT
  5
3FF
330
EF7C85532
100
AcDbEntity
  8
SUNPOU
100
AcDbText
 10
1088.230849555809
 20
21.8983436374353
 30
0.0
 40
0.75
  1
                          
100
AcDbText
  0
TEXT
  5
400
330
EF7C85532
100
AcDbEntity
  8
SUNPOU
100
AcDbText
 10
840.048660059358
 20
43.7966872748706
 30
0.0
 40
1.5
  1
                          
100
AcDbText
  0
TEXT
  5
401
330
EF7C85532
100
AcDbEntity
  8
SUNPOU
100
AcDbText
 10
1077.269311094271
 20
21.8983436374353
 30
0.0
 40
0.75
  1
                          
100
AcDbText
  0
INSERT
  5
402
330
EF7C85532
100
AcDbEntity
  8
JISSEN
100
AcDbBlockReference
  2
STDGX5
 10
357.999999284
 20
0.0
 30
0.0
  0
TEXT
  5
409
330
EF7C85532
100
AcDbEntity
  8
SUNPOU
100
AcDbText
 10
453.0586949361739
 20
43.7966872748706
 30
0.0
 40
1.5
  1
                          
100
AcDbText
  0
TEXT
  5
40A
330
EF7C85532
100
AcDbEntity
  8
SUNPOU
100
AcDbText
 10
690.279345971087
 20
21.8983436374353
 30
0.0
 40
0.75
  1
                          
100
AcDbText
  0
TEXT
  5
41B
330
EF7C85532
100
AcDbEntity
  8
SUNPOU
100
AcDbText
 10
647.9834433840535
 20
43.7966872748706
 30
0.0
 40
1.5
  1
                          
100
AcDbText
  0
TEXT
  5
41C
330
EF7C85532
100
AcDbEntity
  8
SUNPOU
100
AcDbText
 10
885.2040944189665
 20
21.8983436374353
 30
0.0
 40
0.75
  1
                          
100
AcDbText
  0
TEXT
  5
41D
330
EF7C85532
100
AcDbEntity
  8
SUNPOU
100
AcDbText
 10
848.6272560930835
 20
43.79668727487057
 30
0.0
 40
1.5
  1
                          
100
AcDbText
  0
TEXT
  5
41E
330
EF7C85532
100
AcDbEntity
  8
SUNPOU
100
AcDbText
 10
1085.847907127996
 20
21.89834363743527
 30
0.0
 40
0.75
  1
                          
100
AcDbText
  0
INSERT
  5
41F
330
EF7C85532
100
AcDbEntity
  8
HATCH
100
AcDbBlockReference
  2
*X6
 10
552.9247477318797
 20
0.0
 30
0.0
  0
TEXT
  5
420
330
EF7C85532
100
AcDbEntity
  8
SUNPOU
100
AcDbText
 10
851.0101985208963
 20
43.7966872748706
 30
0.0
 40
1.5
  1
                          
100
AcDbText
  0
TEXT
  5
421
330
EF7C85532
100
AcDbEntity
  8
SUNPOU
100
AcDbText
 10
1088.230849555809
 20
21.8983436374353
 30
0.0
 40
0.75
  1
                          
100
AcDbText
  0
TEXT
  5
422
330
EF7C85532
100
AcDbEntity
  8
SUNPOU
100
AcDbText
 10
840.048660059358
 20
43.7966872748706
 30
0.0
 40
1.5
  1
                          
100
AcDbText
  0
TEXT
  5
423
330
EF7C85532
100
AcDbEntity
  8
SUNPOU
100
AcDbText
 10
1077.269311094271
 20
21.8983436374353
 30
0.0
 40
0.75
  1
                          
100
AcDbText
  0
INSERT
  5
424
330
EF7C85532
100
AcDbEntity
  8
JISSEN
100
AcDbBlockReference
  2
STDGX5
 10
357.999999284
 20
0.0
 30
0.0
  0
TEXT
  5
425
330
EF7C85532
100
AcDbEntity
  8
SUNPOU
100
AcDbText
 10
632.0586942201739
 20
43.7966872748706
 30
0.0
 40
1.5
  1
                          
100
AcDbText
  0
TEXT
  5
426
330
EF7C85532
100
AcDbEntity
  8
SUNPOU
100
AcDbText
 10
869.2793452550871
 20
21.8983436374353
 30
0.0
 40
0.75
  1
                          
100
AcDbText
  0
TEXT
  5
427
330
EF7C85532
100
AcDbEntity
  8
SUNPOU
100
AcDbText
 10
826.9834426680535
 20
43.7966872748706
 30
0.0
 40
1.5
  1
                          
100
AcDbText
  0
TEXT
  5
428
330
EF7C85532
100
AcDbEntity
  8
SUNPOU
100
AcDbText
 10
1064.204093702966
 20
21.8983436374353
 30
0.0
 40
0.75
  1
                          
100
AcDbText
  0
TEXT
  5
429
330
EF7C85532
100
AcDbEntity
  8
SUNPOU
100
AcDbText
 10
1027.627255377083
 20
43.79668727487057
 30
0.0
 40
1.5
  1
                          
100
AcDbText
  0
TEXT
  5
42A
330
EF7C85532
100
AcDbEntity
  8
SUNPOU
100
AcDbText
 10
1264.847906411996
 20
21.89834363743527
 30
0.0
 40
0.75
  1
                          
100
AcDbText
  0
INSERT
  5
42B
330
EF7C85532
100
AcDbEntity
  8
HATCH
100
AcDbBlockReference
  2
*X7
 10
731.9247470158797
 20
0.0
 30
0.0
  0
TEXT
  5
42C
330
EF7C85532
100
AcDbEntity
  8
SUNPOU
100
AcDbText
 10
1030.010197804896
 20
43.7966872748706
 30
0.0
 40
1.5
  1
                          
100
AcDbText
  0
TEXT
  5
42D
330
EF7C85532
100
AcDbEntity
  8
SUNPOU
100
AcDbText
 10
1267.230848839809
 20
21.8983436374353
 30
0.0
 40
0.75
  1
                          
100
AcDbText
  0
TEXT
  5
42E
330
EF7C85532
100
AcDbEntity
  8
SUNPOU
100
AcDbText
 10
1019.048659343358
 20
43.7966872748706
 30
0.0
 40
1.5
  1
                          
100
AcDbText
  0
TEXT
  5
42F
330
EF7C85532
100
AcDbEntity
  8
SUNPOU
100
AcDbText
 10
1256.269310378271
 20
21.8983436374353
 30
0.0
 40
0.75
  1
                          
100
AcDbText
  0
INSERT
  5
430
330
EF7C85532
100
AcDbEntity
  8
JISSEN
100
AcDbBlockReference
  2
STDGX5
 10
536.999998568
 20
0.0
 30
0.0
  0
INSERT
  5
43B
330
EF7C85532
100
AcDbEntity
  8
SUNPOU
100
AcDbBlockReference
  2
STDGX5
 10
739.0804232644236
 20
50.83533235670902
 30
0.0
 41
0.5
 42
0.5
 43
0.5
  0
INSERT
  5
43C
330
EF7C85532
100
AcDbEntity
  8
SUNPOU
100
AcDbBlockReference
  2
STDGX5
 10
726.2208210623692
 20
105.0763138619288
 30
0.0
 41
0.5
 42
0.5
 43
0.5
  0
INSERT
  5
43D
330
EF7C85532
100
AcDbEntity
  8
HATCH
100
AcDbBlockReference
  2
STDGX5
 10
852.3985550581901
 20
151.7065097967401
 30
0.0
 41
0.5
 42
0.5
 43
0.5
  0
INSERT
  5
43E
330
EF7C85532
100
AcDbEntity
  8
HATCH
100
AcDbBlockReference
  2
STDGX5
 10
866.6806796277285
 20
102.7017487639613
 30
0.0
 41
0.5
 42
0.5
 43
0.5
  0
INSERT
  5
43F
330
EF7C85532
100
AcDbEntity
  8
TEXT
100
AcDbBlockReference
  2
STDGX5
 10
970.3434408521969
 20
102.8213468229236
 30
0.0
 41
0.5
 42
0.5
 43
0.5
  0
INSERT
  5
440
330
EF7C85532
100
AcDbEntity
  8
SUNPOU
100
AcDbBlockReference
  2
STDGX5
 10
996.1728907397869
 20
174.5475645486174
 30
0.0
 41
0.5
 42
0.5
 43
0.5
  0
INSERT
  5
441
330
EF7C85532
100
AcDbEntity
  8
TEXT
100
AcDbBlockReference
  2
STDGX5
 10
725.7513886810995
 20
124.5860190441302
 30
0.0
 41
0.5
 42
0.5
 43
0.5
  0
INSERT
  5
442
330
EF7C85532
100
AcDbEntity
  8
HATCH
100
AcDbBlockReference
  2
STDGX5
 10
777.1755722656421
 20
145.5222028932424
 30
0.0
 41
0.5
 42
0.5
 43
0.5
  0
INSERT
  5
443
330
EF7C85532
100
AcDbEntity
  8
SUNPOU
100
AcDbBlockReference
  2
STDGX5
 10
846.1963575359604
 20
112.6957974729892
 30
0.0
 41
0.5
 42
0.5
 43
0.5
  0
INSERT
  5
444
330
EF7C85532
100
AcDbEntity
  8
SUNPOU
100
AcDbBlockReference
  2
STDGX5
 10
916.6681156211122
 20
121.7330617103085
 30
0.0
 41
0.5
 42
0.5
 43
0.5
  0
INSERT
  5
445
330
EF7C85532
100
AcDbEntity
  8
TEXT
100
AcDbBlockReference
  2
STDGX5
 10
983.7969461426769
 20
84.61852224867081
 30
0.0
 41
0.5
 42
0.5
 43
0.5
  0
INSERT
  5
446
330
EF7C85532
100
AcDbEntity
  8
HATCH
100
AcDbBlockReference
  2
STDGX5
 10
974.2802715042099
 20
136.4849386559231
 30
0.0
 41
0.5
 42
0.5
 43
0.5
  0
INSERT
  5
447
330
EF7C85532
100
AcDbEntity
  8
SUNPOU
100
AcDbBlockReference
  2
STDGX5
 10
749.7834008663489
 20
95.14721172234004
 30
0.0
 41
0.5
 42
0.5
 43
0.5
  0
INSERT
  5
448
330
EF7C85532
100
AcDbEntity
  8
SUNPOU
100
AcDbBlockReference
  2
STDGX5
 10
736.9237986642947
 20
149.3881932275598
 30
0.0
 41
0.5
 42
0.5
 43
0.5
  0
INSERT
  5
449
330
EF7C85532
100
AcDbEntity
  8
HATCH
100
AcDbBlockReference
  2
STDGX5
 10
863.1015326601156
 20
196.0183891623711
 30
0.0
 41
0.5
 42
0.5
 43
0.5
  0
INSERT
  5
44A
330
EF7C85532
100
AcDbEntity
  8
HATCH
100
AcDbBlockReference
  2
STDGX5
 10
877.3836572296538
 20
147.0136281295923
 30
0.0
 41
0.5
 42
0.5
 43
0.5
  0
INSERT
  5
44B
330
EF7C85532
100
AcDbEntity
  8
TEXT
100
AcDbBlockReference
  2
STDGX5
 10
981.0464184541224
 20
147.1332261885546
 30
0.0
 41
0.5
 42
0.5
 43
0.5
  0
INSERT
  5
44C
330
EF7C85532
100
AcDbEntity
  8
SUNPOU
100
AcDbBlockReference
  2
STDGX5
 10
1006.875868341712
 20
218.8594439142484
 30
0.0
 41
0.5
 42
0.5
 43
0.5
  0
INSERT
  5
44D
330
EF7C85532
100
AcDbEntity
  8
TEXT
100
AcDbBlockReference
  2
STDGX5
 10
736.4543662830251
 20
168.8978984097612
 30
0.0
 41
0.5
 42
0.5
 43
0.5
  0
INSERT
  5
44E
330
EF7C85532
100
AcDbEntity
  8
HATCH
100
AcDbBlockReference
  2
STDGX5
 10
787.8785498675677
 20
189.8340822588735
 30
0.0
 41
0.5
 42
0.5
 43
0.5
  0
INSERT
  5
44F
330
EF7C85532
100
AcDbEntity
  8
SUNPOU
100
AcDbBlockReference
  2
STDGX5
 10
856.899335137886
 20
157.0076768386202
 30
0.0
 41
0.5
 42
0.5
 43
0.5
  0
INSERT
  5
450
330
EF7C85532
100
AcDbEntity
  8
SUNPOU
100
AcDbBlockReference
  2
STDGX5
 10
927.3710932230379
 20
166.0449410759395
 30
0.0
 41
0.5
 42
0.5
 43
0.5
  0
INSERT
  5
451
330
EF7C85532
100
AcDbEntity
  8
TEXT
100
AcDbBlockReference
  2
STDGX5
 10
994.4999237446024
 20
128.9304016143018
 30
0.0
 41
0.5
 42
0.5
 43
0.5
  0
INSERT
  5
452
330
EF7C85532
100
AcDbEntity
  8
HATCH
100
AcDbBlockReference
  2
STDGX5
 10
984.9832491061354
 20
180.7968180215541
 30
0.0
 41
0.5
 42
0.5
 43
0.5
  0
INSERT
  5
4CF3
330
EF7C85532
100
AcDbEntity
  8
JISSEN
100
AcDbBlockReference
  2
STDR12J
 10
0.0
 20
0.0
 30
0.0
  0
LINE
  5
EAFFB3C99
330
EF7C85532
100
AcDbEntity
  8
JISSEN
100
AcDbLine
 10
91.49999927599997
 20
276.9999999999999
 30
0.0
 11
180.999999276
 21
276.9999999999999
 31
0.0
  0
LINE
  5
EAFFB3C9A
330
EF7C85532
100
AcDbEntity
  8
JISSEN
100
AcDbLine
 10
91.49999927599997
 20
270.9999999999999
 30
0.0
 11
180.999999276
 21
270.9999999999999
 31
0.0
  0
TEXT
  5
EAFFB3C9B
330
EF7C85532
100
AcDbEntity
  8
TEXT
100
AcDbText
 10
107.8999992759999
 20
278.4999999999999
 30
0.0
 40
3.0
  1
名      称
  7
K
 72
     4
 11
116.4999992759999
 21
279.9999999999999
 31
0.0
100
AcDbText
  0
TEXT
  5
EAFFB3C9C
330
EF7C85532
100
AcDbEntity
  8
TEXT
100
AcDbText
 10
93.29999927599997
 20
278.4999999999999
 30
0.0
 40
3.0
  1
番号
  7
K
 72
     4
 11
96.49999927599999
 21
279.9999999999999
 31
0.0
100
AcDbText
  0
LINE
  5
EAFFB3C9D
330
EF7C85532
100
AcDbEntity
  8
JISSEN
100
AcDbLine
 10
91.49999927599997
 20
270.9999999999999
 30
0.0
 11
91.49999927599997
 21
282.9999999999999
 31
0.0
  0
LINE
  5
EAFFB3C9E
330
EF7C85532
100
AcDbEntity
  8
JISSEN
100
AcDbLine
 10
101.4999992759999
 20
282.9999999999999
 30
0.0
 11
101.4999992759999
 21
270.9999999999999
 31
0.0
  0
TEXT
  5
EAFFB3C9F
330
EF7C85532
100
AcDbEntity
  8
TEXT
100
AcDbText
 10
135.1999992759999
 20
278.4999999999999
 30
0.0
 40
3.0
  1
材    質
  7
K
 72
     4
 11
141.9999992759999
 21
279.9999999999999
 31
0.0
100
AcDbText
  0
LINE
  5
EAFFB3CA0
330
EF7C85532
100
AcDbEntity
  8
JISSEN
100
AcDbLine
 10
131.4999992759999
 20
282.9999999999999
 30
0.0
 11
131.4999992759999
 21
270.9999999999999
 31
0.0
  0
LINE
  5
EAFFB3CA1
330
EF7C85532
100
AcDbEntity
  8
JISSEN
100
AcDbLine
 10
152.4999992759999
 20
270.9999999999999
 30
0.0
 11
152.4999992759999
 21
282.9999999999999
 31
0.0
  0
TEXT
  5
EAFFB3CA2
330
EF7C85532
100
AcDbEntity
  8
TEXT
100
AcDbText
 10
165.6999992759999
 20
278.4999999999999
 30
0.0
 40
3.0
  1
備    考
  7
K
 72
     4
 11
172.4999992759999
 21
279.9999999999999
 31
0.0
100
AcDbText
  0
TEXT
  5
EAFFB3CA3
330
EF7C85532
100
AcDbEntity
  8
TEXT
100
AcDbText
 10
154.7999992759999
 20
278.4999999999999
 30
0.0
 40
3.0
  1
個数
  7
K
 72
     4
 11
157.9999992759999
 21
279.9999999999999
 31
0.0
100
AcDbText
  0
LINE
  5
EAFFB3CA4
330
EF7C85532
100
AcDbEntity
  8
JISSEN
100
AcDbLine
 10
163.4999992759999
 20
282.9999999999999
 30
0.0
 11
163.4999992759999
 21
270.9999999999999
 31
0.0
  0
TEXT
  5
EAFFB3CAC
330
EF7C85532
100
AcDbEntity
  8
TEXT
100
AcDbText
 10
95.28571356171427
 20
272.4999999999999
 30
0.0
 40
3.0
  1
1
  7
K
 72
     4
 11
96.49999927599999
 21
273.9999999999999
 31
0.0
100
AcDbText
  0
TEXT
  5
EAFFB3CC2
330
EF7C85532
100
AcDbEntity
  8
TEXT
100
AcDbText
 10
136.8249992759999
 20
274.2999999999999
 30
0.0
 40
3.0
  1
%%u      
  7
K
 72
     4
 11
141.9999992759999
 21
273.9999999999999
 31
0.0
100
AcDbText
  0
INSERT
  5
EAFFB3CF7
330
EF7C85532
100
AcDbEntity
  8
WAKU
100
AcDbBlockReference
  2
WAKU
 10
0.0
 20
0.0
 30
0.0
 41
181.0
 42
283.0
 43
181.0
  0
TEXT
  5
EF7C85BB1
330
EF7C85532
100
AcDbEntity
  8
TEXT
100
AcDbText
 10
156.6795477624092
 20
272.4999999999999
 30
0.0
 40
3.0
  1
1
  7
K
 72
     4
 11
157.8938334766949
 21
273.9999999999999
 31
0.0
100
AcDbText
  0
TEXT
  5
EF7C85D65
330
EF7C85532
100
AcDbEntity
  8
SUNPOU
100
AcDbText
 10
151.0437954454985
 20
7.849423898685245
 30
0.0
 40
3.0
  1
EPQR 取付状態
  7
K
100
AcDbText
  0
TEXT
  5
EF7C85D66
330
EF7C85532
100
AcDbEntity
  8
SUNPOU
100
AcDbText
 10
151.0437954454985
 20
2.849423898685245
 30
0.0
 40
3.0
  1
尺度　1/1
  7
K
100
AcDbText
  0
TEXT
  5
EF7C85DB5
330
EF7C85532
100
AcDbEntity
  8
TEXT
100
AcDbText
 10
102.7857135617142
 20
272.642857142857
 30
0.0
 40
3.0
  1
EPQR 型ヘッド
  7
K
 72
     4
 11
116.4999992759999
 21
273.9999999999999
 31
0.0
100
AcDbText
  0
ARC
  5
EF7C88992
330
EF7C85532
100
AcDbEntity
  8
NITEN
100
AcDbCircle
 10
75.49999963800002
 20
141.5916502438679
 30
0.0
 40
1.499999999999943
100
AcDbArc
 50
179.9999999999989
 51
270.0
  0
LINE
  5
EF7C88993
330
EF7C85532
100
AcDbEntity
  8
NITEN
100
AcDbLine
 10
75.49999963800002
 20
140.0916502438679
 30
0.0
 11
105.499999638
 21
140.0916502438679
 31
0.0
  0
LINE
  5
EF7C88994
330
EF7C85532
100
AcDbEntity
  8
NITEN
100
AcDbLine
 10
101.0940508089966
 20
140.0916502438679
 30
0.0
 11
102.999999638
 21
140.0916502438679
 31
0.0
  0
ARC
  5
EF7C88995
330
EF7C85532
100
AcDbEntity
  8
NITEN
100
AcDbCircle
 10
105.499999638
 20
141.5916502438679
 30
0.0
 40
1.5
100
AcDbArc
 50
270.0
 51
0.0
  0
LINE
  5
EF7C88996
330
EF7C85532
100
AcDbEntity
  8
NITEN
100
AcDbLine
 10
106.999999638
 20
141.5916502438679
 30
0.0
 11
106.999999638
 21
152.6376662700859
 31
0.0
  0
ARC
  5
EF7C88997
330
EF7C85532
100
AcDbEntity
  8
NITEN
100
AcDbCircle
 10
111.999999638
 20
152.6376662700859
 30
0.0
 40
5.0
100
AcDbArc
 50
90.0
 51
180.0
  0
ARC
  5
EF7C88998
330
EF7C85532
100
AcDbEntity
  8
NITEN
100
AcDbCircle
 10
111.999999638
 20
159.6376662700859
 30
0.0
 40
2.0
100
AcDbArc
 50
270.0
 51
0.0
  0
LINE
  5
EF7C88999
330
EF7C85532
100
AcDbEntity
  8
NITEN
100
AcDbLine
 10
113.999999638
 20
159.6376662700859
 30
0.0
 11
113.999999638
 21
180.0916502438679
 31
0.0
  0
ARC
  5
EF7C8899A
330
EF7C85532
100
AcDbEntity
  8
NITEN
100
AcDbCircle
 10
111.999999638
 20
180.0916502438679
 30
0.0
 40
1.999999999999971
100
AcDbArc
 50
359.9999999999992
 51
89.9999999999992
  0
LINE
  5
EF7C8899B
330
EF7C85532
100
AcDbEntity
  8
NITEN
100
AcDbLine
 10
111.999999638
 20
182.0916502438679
 30
0.0
 11
68.99999963800008
 21
182.0916502438679
 31
0.0
  0
ARC
  5
EF7C8899C
330
EF7C85532
100
AcDbEntity
  8
NITEN
100
AcDbCircle
 10
68.99999963800008
 20
180.0916502438679
 30
0.0
 40
2.0
100
AcDbArc
 50
90.0
 51
180.0
  0
LINE
  5
EF7C8899D
330
EF7C85532
100
AcDbEntity
  8
NITEN
100
AcDbLine
 10
66.99999963800007
 20
180.0916502438679
 30
0.0
 11
66.99999963800007
 21
159.6376662700859
 31
0.0
  0
ARC
  5
EF7C8899E
330
EF7C85532
100
AcDbEntity
  8
NITEN
100
AcDbCircle
 10
68.99999963800008
 20
159.6376662700859
 30
0.0
 40
2.0
100
AcDbArc
 50
180.0
 51
270.0
  0
ARC
  5
EF7C8899F
330
EF7C85532
100
AcDbEntity
  8
NITEN
100
AcDbCircle
 10
68.99999963800008
 20
152.6376662700859
 30
0.0
 40
5.0
100
AcDbArc
 50
0.0
 51
90.0
  0
LINE
  5
EF7C889A0
330
EF7C85532
100
AcDbEntity
  8
NITEN
100
AcDbLine
 10
73.99999963800008
 20
152.6376662700859
 30
0.0
 11
73.99999963800008
 21
141.5916502438679
 31
0.0
  0
LWPOLYLINE
  5
EF7C889A1
330
EF7C85532
100
AcDbEntity
  8
NITEN
100
AcDbPolyline
 90
        2
 70
     0
 43
0.0
 10
109.9999996380001
 20
202.9293678950138
 42
0.5195636805304642
 10
90.49999963800008
 20
202.9293678950139
 42
0.5882352941176294
  0
LINE
  5
EF7C889A3
330
EF7C85532
100
AcDbEntity
  8
NITEN
100
AcDbLine
 10
109.999999638
 20
182.0916502438679
 30
0.0
 11
109.999999638
 21
202.9293678950137
 31
0.0
  0
ARC
  5
EF7C889A4
330
EF7C85532
100
AcDbEntity
  8
NITEN
100
AcDbCircle
 10
100.249999638
 20
209.7793678950138
 30
0.0
 40
11.91574588517228
100
AcDbArc
 50
215.0905003001236
 51
324.9094996998763
  0
ARC
  5
EF7C889A5
330
EF7C85532
100
AcDbEntity
  8
NITEN
100
AcDbCircle
 10
80.74999963800019
 20
196.0793678950136
 30
0.0
 40
11.91574588517225
100
AcDbArc
 50
35.09050030012443
 51
144.9094996998772
  0
LINE
  5
EF7C889A6
330
EF7C85532
100
AcDbEntity
  8
NITEN
100
AcDbLine
 10
70.99999963800008
 20
202.9293678950135
 30
0.0
 11
70.99999963800008
 21
182.0916502438679
 31
0.0
  0
ARC
  5
EF7C88B31
330
EF7C85532
100
AcDbEntity
  8
JISSEN
100
AcDbCircle
 10
98.49999963800009
 20
114.6117745359482
 30
0.0
 40
28.0
100
AcDbArc
 50
180.0
 51
202.024312837042
  0
ARC
  5
EF7C88B32
330
EF7C85532
100
AcDbEntity
  8
JISSEN
100
AcDbCircle
 10
98.49999963800009
 20
114.6117745359482
 30
0.0
 40
26.0
100
AcDbArc
 50
173.5656684449006
 51
203.8188413934569
  0
ARC
  5
EF7C88B33
330
EF7C85532
100
AcDbEntity
  8
JISSEN
100
AcDbCircle
 10
87.49999963799997
 20
108.199361071115
 30
0.0
 40
1.5
100
AcDbArc
 50
180.0
 51
270.0
  0
LINE
  5
EF7C88B34
330
EF7C85532
100
AcDbEntity
  8
JISSEN
100
AcDbLine
 10
88.95936118268298
 20
114.9270442321494
 30
0.0
 11
87.99999963800003
 21
101.4959826065884
 31
0.0
  0
ARC
  5
EF7C88B35
330
EF7C85532
100
AcDbEntity
  8
JISSEN
100
AcDbCircle
 10
82.99999963800008
 20
106.7420579225909
 30
0.0
 40
4.0
100
AcDbArc
 50
94.99999999999982
 51
180.0
  0
ARC
  5
EF7C88B36
330
EF7C85532
100
AcDbEntity
  8
JISSEN
100
AcDbCircle
 10
93.49999963799996
 20
108.199361071115
 30
0.0
 40
1.5
100
AcDbArc
 50
270.0
 51
0.0
  0
ARC
  5
EF7C88B37
330
EF7C85532
100
AcDbEntity
  8
JISSEN
100
AcDbCircle
 10
97.99999963800008
 20
106.7420579225909
 30
0.0
 40
4.0
100
AcDbArc
 50
0.0
 51
85.00000000000019
  0
LINE
  5
EF7C88B38
330
EF7C85532
100
AcDbEntity
  8
JISSEN
100
AcDbLine
 10
92.99999963800008
 20
101.4959826065884
 30
0.0
 11
92.04063809331717
 21
114.9270442321494
 31
0.0
  0
ARC
  5
EF7C88B39
330
EF7C85532
100
AcDbEntity
  8
JISSEN
100
AcDbCircle
 10
82.49999963800007
 20
114.6117745359482
 30
0.0
 40
28.0
100
AcDbArc
 50
337.9756871629579
 51
0.0
  0
ARC
  5
EF7C88B3A
330
EF7C85532
100
AcDbEntity
  8
JISSEN
100
AcDbCircle
 10
82.49999963800007
 20
114.6117745359482
 30
0.0
 40
26.0
100
AcDbArc
 50
336.181158606543
 51
0.7891762481350204
  0
ARC
  5
EF7C88B3B
330
EF7C85532
100
AcDbEntity
  8
JISSEN
100
AcDbCircle
 10
98.49999963800009
 20
114.6117745359482
 30
0.0
 40
30.0
100
AcDbArc
 50
180.0
 51
220.2190987445551
  0
ARC
  5
EF7C88B3C
330
EF7C85532
100
AcDbEntity
  8
JISSEN
100
AcDbCircle
 10
82.49999963800007
 20
114.6117745359482
 30
0.0
 40
24.0
100
AcDbArc
 50
300.0000000000001
 51
0.0
  0
ARC
  5
EF7C88B3D
330
EF7C85532
100
AcDbEntity
  8
JISSEN
100
AcDbCircle
 10
82.49999963800007
 20
114.6117745359482
 30
0.0
 40
30.0
100
AcDbArc
 50
319.7809012554437
 51
0.0
  0
ARC
  5
EF7C88B3E
330
EF7C85532
100
AcDbEntity
  8
JISSEN
100
AcDbCircle
 10
98.49999963800009
 20
114.6117745359482
 30
0.0
 40
24.0
100
AcDbArc
 50
178.4782525524656
 51
239.9999999999998
  0
ARC
  5
EF7C88B3F
330
EF7C85532
100
AcDbEntity
  8
JISSEN
100
AcDbCircle
 10
96.49999963799997
 20
106.949361071115
 30
0.0
 40
13.5
100
AcDbArc
 50
180.0
 51
222.2054464037328
  0
ARC
  5
EF7C88B40
330
EF7C85532
100
AcDbEntity
  8
JISSEN
100
AcDbCircle
 10
84.49999963799996
 20
106.949361071115
 30
0.0
 40
13.5
100
AcDbArc
 50
317.7945535962677
 51
0.0
  0
LINE
  5
EF7C88B45
330
EF7C85532
100
AcDbEntity
  8
JISSEN
100
AcDbLine
 10
94.99920585961627
 20
80.56591955283641
 30
0.0
 11
94.4282307153726
 21
82.58387566743287
 31
0.0
  0
LINE
  5
EF7C88B46
330
EF7C85532
100
AcDbEntity
  8
JISSEN
100
AcDbLine
 10
93.94711866562358
 20
82.94774633339336
 30
0.0
 11
97.85186216892425
 21
82.9477463333934
 31
0.0
  0
ARC
  5
EF7C88B47
330
EF7C85532
100
AcDbEntity
  8
JISSEN
100
AcDbCircle
 10
94.24999963800008
 20
94.26017754701396
 30
0.0
 40
0.5
100
AcDbArc
 50
197.4176015349094
 51
300.0000000000001
  0
ARC
  5
EF7C88B48
330
EF7C85532
100
AcDbEntity
  8
JISSEN
100
AcDbCircle
 10
94.72976417612784
 20
98.52501761383585
 30
0.0
 40
0.4866855046380603
100
AcDbArc
 50
184.1849161251174
 51
241.8292597702475
  0
LINE
  5
EF7C88B49
330
EF7C85532
100
AcDbEntity
  8
JISSEN
100
AcDbLine
 10
94.19066875525317
 20
99.22350467079585
 30
0.0
 11
95.57073325784864
 21
99.22350467079585
 31
0.0
  0
LINE
  5
EF7C88B4A
330
EF7C85532
100
AcDbEntity
  8
JISSEN
100
AcDbLine
 10
94.49999963800008
 20
95.72091367419744
 30
0.0
 11
86.49999963800008
 21
95.72091367419744
 31
0.0
  0
LINE
  5
EF7C88B4B
330
EF7C85532
100
AcDbEntity
  8
JISSEN
100
AcDbLine
 10
108.9745859669546
 20
79.61486303654128
 30
0.0
 11
72.09261995570449
 21
79.61486303654118
 31
0.0
  0
LINE
  5
EF7C88B4C
330
EF7C85532
100
AcDbEntity
  8
JISSEN
100
AcDbLine
 10
109.2836029613296
 20
80.56591955283646
 30
0.0
 11
71.78360296132956
 21
80.56591955283636
 31
0.0
  0
LINE
  5
EF7C88B4D
330
EF7C85532
100
AcDbEntity
  8
JISSEN
100
AcDbLine
 10
79.47726571951114
 20
80.56591955283636
 30
0.0
 11
80.7659975257618
 21
82.50187856490931
 31
0.0
  0
LINE
  5
EF7C88B4E
330
EF7C85532
100
AcDbEntity
  8
JISSEN
100
AcDbLine
 10
79.34402147061518
 20
82.94774633339336
 30
0.0
 11
81.59842618336233
 21
82.94774633339336
 31
0.0
  0
LINE
  5
EF7C88B4F
330
EF7C85532
100
AcDbEntity
  8
JISSEN
100
AcDbLine
 10
75.59257467989414
 20
95.2404069593226
 30
0.0
 11
85.24999963800002
 21
83.82011168893134
 31
0.0
  0
LINE
  5
EF7C88B50
330
EF7C85532
100
AcDbEntity
  8
JISSEN
100
AcDbLine
 10
83.71732271434444
 20
102.6073372727643
 30
0.0
 11
80.08715538074772
 21
102.2897387843725
 31
0.0
  0
LINE
  5
EF7C88B51
330
EF7C85532
100
AcDbEntity
  8
JISSEN
100
AcDbLine
 10
74.07521852100507
 20
81.31051058436872
 30
0.0
 11
71.78360296132956
 21
80.56591955283636
 31
0.0
1001
ACAD
1000
ASC_BOUNDS
1002
{
1070
    19
1002
}
  0
LINE
  5
EF7C88B52
330
EF7C85532
100
AcDbEntity
  8
JISSEN
100
AcDbLine
 10
71.78360296132956
 20
80.56591955283636
 30
0.0
 11
72.09261995570449
 21
79.61486303654118
 31
0.0
1001
ACAD
1000
ASC_BOUNDS
1002
{
1070
    19
1002
}
  0
LINE
  5
EF7C88B53
330
EF7C85532
100
AcDbEntity
  8
JISSEN
100
AcDbLine
 10
76.7346598046712
 20
80.56591955283636
 30
0.0
 11
79.34402147061518
 21
82.94774633339336
 31
0.0
  0
LINE
  5
EF7C88B54
330
EF7C85532
100
AcDbEntity
  8
JISSEN
100
AcDbLine
 10
76.0336029613293
 20
81.31051058436865
 30
0.0
 11
78.02172258171785
 21
82.70260692942716
 31
0.0
  0
LINE
  5
EF7C88B55
330
EF7C85532
100
AcDbEntity
  8
JISSEN
100
AcDbLine
 10
76.03360296132959
 20
81.31051058436884
 30
0.0
 11
74.07521852100535
 21
81.31051058436884
 31
0.0
  0
ARC
  5
EF7C88B56
330
EF7C85532
100
AcDbEntity
  8
JISSEN
100
AcDbCircle
 10
78.79920544119158
 20
81.59224633339338
 30
0.0
 40
1.355499999999999
100
AcDbArc
 50
70.26879749382176
 51
124.9999999999968
  0
ARC
  5
EF7C88B57
330
EF7C85532
100
AcDbEntity
  8
JISSEN
100
AcDbCircle
 10
79.99999963800007
 20
103.2859334824642
 30
0.0
 40
1.0
100
AcDbArc
 50
180.0
 51
274.9999999999997
  0
LINE
  5
EF7C88B58
330
EF7C85532
100
AcDbEntity
  8
JISSEN
100
AcDbLine
 10
78.99999963800008
 20
106.7573372727643
 30
0.0
 11
78.99999963800008
 21
106.7573372727643
 31
0.0
  0
LINE
  5
EF7C88B59
330
EF7C85532
100
AcDbEntity
  8
JISSEN
100
AcDbLine
 10
78.99999963800008
 20
103.2859334824642
 30
0.0
 11
78.99999963800008
 21
106.7420579225909
 31
0.0
  0
ARC
  5
EF7C88B5A
330
EF7C85532
100
AcDbEntity
  8
JISSEN
100
AcDbCircle
 10
73.74999963800007
 20
88.61177453594828
 30
0.0
 40
12.49999999999999
100
AcDbArc
 50
343.7397952916881
 51
16.26020470831189
  0
ARC
  5
EF7C88B5B
330
EF7C85532
100
AcDbEntity
  8
JISSEN
100
AcDbCircle
 10
87.12008725703567
 20
82.44774633339247
 30
0.0
 40
0.5
100
AcDbArc
 50
13.29012998990278
 51
164.2012849264975
  0
ARC
  5
EF7C88B5C
330
EF7C85532
100
AcDbEntity
  8
JISSEN
100
AcDbCircle
 10
87.31977538056373
 20
81.64895609830503
 30
0.0
 40
0.1
100
AcDbArc
 50
13.2901299899087
 51
164.2012849264931
  0
LINE
  5
EF7C88B5D
330
EF7C85532
100
AcDbEntity
  8
JISSEN
100
AcDbLine
 10
87.12008725703567
 20
82.94774633339336
 30
0.0
 11
83.21534375373493
 21
82.9477463333934
 31
0.0
  0
ARC
  5
EF7C88B5E
330
EF7C85532
100
AcDbEntity
  8
JISSEN
100
AcDbCircle
 10
81.59842618336227
 20
81.94774633339292
 30
0.0
 40
1.0
100
AcDbArc
 50
47.91894748809009
 51
146.3490341753993
  0
ARC
  5
EF7C88B5F
330
EF7C85532
100
AcDbEntity
  8
JISSEN
100
AcDbCircle
 10
81.84741493984336
 20
81.41947057711041
 30
0.0
 40
0.4
100
AcDbArc
 50
30.00000000000125
 51
146.3490341753977
  0
LINE
  5
EF7C88B60
330
EF7C85532
100
AcDbEntity
  8
JISSEN
100
AcDbLine
 10
81.56760375208728
 20
80.56591955283636
 30
0.0
 11
83.21534375373493
 21
82.94774633339336
 31
0.0
  0
LINE
  5
EF7C88B61
330
EF7C85532
100
AcDbEntity
  8
JISSEN
100
AcDbLine
 10
80.79870028324995
 20
80.56591955283638
 30
0.0
 11
81.51444347680314
 21
81.64112346971696
 31
0.0
  0
LINE
  5
EF7C88B62
330
EF7C85532
100
AcDbEntity
  8
JISSEN
100
AcDbLine
 10
82.2686073971853
 20
82.68994384122946
 30
0.0
 11
82.61815701027172
 21
82.08450615159767
 31
0.0
  0
LINE
  5
EF7C88B63
330
EF7C85532
100
AcDbEntity
  8
JISSEN
100
AcDbLine
 10
82.1938251013571
 20
81.6194705771104
 30
0.0
 11
82.24050900152674
 21
81.53861169012117
 31
0.0
  0
LINE
  5
EF7C88B64
330
EF7C85532
100
AcDbEntity
  8
JISSEN
100
AcDbLine
 10
85.24999963800002
 20
82.90305673601016
 30
0.0
 11
85.24999963800002
 21
83.95769653392461
 31
0.0
  0
LINE
  5
EF7C88B65
330
EF7C85532
100
AcDbEntity
  8
JISSEN
100
AcDbLine
 10
86.06800006304291
 20
80.56591955283639
 30
0.0
 11
86.63897520728658
 21
82.58387566743287
 31
0.0
  0
LINE
  5
EF7C88B66
330
EF7C85532
100
AcDbEntity
  8
JISSEN
100
AcDbLine
 10
86.909407268231
 20
80.56591955283639
 30
0.0
 11
87.22355297061387
 21
81.67618196511311
 31
0.0
  0
LINE
  5
EF7C88B67
330
EF7C85532
100
AcDbEntity
  8
JISSEN
100
AcDbLine
 10
88.27919824858247
 20
82.94774633339345
 30
0.0
 11
92.78800767407672
 21
82.94774633339336
 31
0.0
  0
LINE
  5
EF7C88B68
330
EF7C85532
100
AcDbEntity
  8
JISSEN
100
AcDbLine
 10
87.67834923520837
 20
80.56591955283639
 30
0.0
 11
87.41709722933023
 21
81.67194430729718
 31
0.0
  0
LINE
  5
EF7C88B69
330
EF7C85532
100
AcDbEntity
  8
JISSEN
100
AcDbLine
 10
88.0345905140099
 20
80.56591955283639
 30
0.0
 11
88.27919824858247
 21
82.94774633339336
 31
0.0
  0
LINE
  5
EF7C88B6A
330
EF7C85532
100
AcDbEntity
  8
JISSEN
100
AcDbLine
 10
88.0478505848913
 20
80.69503726856456
 30
0.0
 11
87.60669650086823
 21
82.5626873783532
 31
0.0
  0
LINE
  5
EF7C88B6B
330
EF7C85532
100
AcDbEntity
  8
JISSEN
100
AcDbLine
 10
93.01935533776804
 20
80.69503726856565
 30
0.0
 11
93.46050942179095
 21
82.5626873783532
 31
0.0
  0
ARC
  5
EF7C88B6C
330
EF7C85532
100
AcDbEntity
  8
JISSEN
100
AcDbCircle
 10
93.74743054209551
 20
81.64895609830503
 30
0.0
 40
0.1
100
AcDbArc
 50
15.79871507350682
 51
166.7098700100912
  0
ARC
  5
EF7C88B6D
330
EF7C85532
100
AcDbEntity
  8
JISSEN
100
AcDbCircle
 10
93.94711866562358
 20
82.44774633339247
 30
0.0
 40
0.5
100
AcDbArc
 50
15.79871507350246
 51
166.7098700100972
  0
LINE
  5
EF7C88B6E
330
EF7C85532
100
AcDbEntity
  8
JISSEN
100
AcDbLine
 10
92.78800767407672
 20
82.94774633339336
 30
0.0
 11
93.03261540864964
 21
80.56591955283641
 31
0.0
  0
LINE
  5
EF7C88B6F
330
EF7C85532
100
AcDbEntity
  8
JISSEN
100
AcDbLine
 10
93.38885668745081
 20
80.56591955283641
 30
0.0
 11
93.65010869332895
 21
81.67194430729718
 31
0.0
  0
LINE
  5
EF7C88B70
330
EF7C85532
100
AcDbEntity
  8
JISSEN
100
AcDbLine
 10
94.15779865442834
 20
80.56591955283641
 30
0.0
 11
93.84365295204531
 21
81.67618196511311
 31
0.0
  0
LINE
  5
EF7C88B71
330
EF7C85532
100
AcDbEntity
  8
JISSEN
100
AcDbLine
 10
93.77292542962932
 20
94.11051058436886
 30
0.0
 11
87.22707384637079
 21
94.11051058436886
 31
0.0
  0
ARC
  5
EF7C88B72
330
EF7C85532
100
AcDbEntity
  8
JISSEN
100
AcDbCircle
 10
86.49999963800008
 20
101.4959826065884
 30
0.0
 40
1.5
100
AcDbArc
 50
284.2500326978051
 51
0.0
  0
LINE
  5
EF7C88B73
330
EF7C85532
100
AcDbEntity
  8
JISSEN
100
AcDbLine
 10
86.49999963800008
 20
95.72091367419744
 30
0.0
 11
86.49999963800008
 21
98.09598260658848
 31
0.0
  0
ARC
  5
EF7C88B74
330
EF7C85532
100
AcDbEntity
  8
JISSEN
100
AcDbCircle
 10
86.74999963800008
 20
94.26017754701396
 30
0.0
 40
0.5
100
AcDbArc
 50
239.9999999999998
 51
342.5823984650904
  0
LINE
  5
EF7C88B75
330
EF7C85532
100
AcDbEntity
  8
JISSEN
100
AcDbLine
 10
83.99999963800008
 20
98.13897273366263
 30
0.0
 11
83.84999963800003
 21
98.1389727336626
 31
0.0
  0
ARC
  5
EF7C88B76
330
EF7C85532
100
AcDbEntity
  8
JISSEN
100
AcDbCircle
 10
84.99999963800007
 20
98.67281396012423
 30
0.0
 40
1.0
100
AcDbArc
 50
180.0
 51
264.9467518487444
  0
LINE
  5
EF7C88B77
330
EF7C85532
100
AcDbEntity
  8
JISSEN
100
AcDbLine
 10
83.99999963800008
 20
101.1073372727643
 30
0.0
 11
83.84999963800003
 21
101.1073372727643
 31
0.0
  0
LINE
  5
EF7C88B78
330
EF7C85532
100
AcDbEntity
  8
JISSEN
100
AcDbLine
 10
83.84999963800011
 20
101.1073372727643
 30
0.0
 11
83.84999963800003
 21
98.1389727336626
 31
0.0
  0
LINE
  5
EF7C88B7B
330
EF7C85532
100
AcDbEntity
  8
JISSEN
100
AcDbLine
 10
83.99999963800008
 20
101.850341557522
 30
0.0
 11
83.99999963800008
 21
98.1389727336626
 31
0.0
  0
LINE
  5
EF7C88B7C
330
EF7C85532
100
AcDbEntity
  8
JISSEN
100
AcDbLine
 10
86.49999963800002
 20
97.53627425016643
 30
0.0
 11
84.91191811394243
 21
97.67670069090247
 31
0.0
  0
LINE
  5
EF7C88B7D
330
EF7C85532
100
AcDbEntity
  8
JISSEN
100
AcDbLine
 10
85.42926601815139
 20
99.22350467079585
 30
0.0
 11
86.80933052074692
 21
99.22350467079585
 31
0.0
  0
ARC
  5
EF7C88B7E
330
EF7C85532
100
AcDbEntity
  8
JISSEN
100
AcDbCircle
 10
86.27023509987225
 20
98.52501761383585
 30
0.0
 40
0.4866855046380603
100
AcDbArc
 50
298.1707402297524
 51
355.8150838748825
  0
LINE
  5
EF7C88B7F
330
EF7C85532
100
AcDbEntity
  8
JISSEN
100
AcDbLine
 10
86.75562296643102
 20
98.48950142847787
 30
0.0
 11
86.86923040723081
 21
100.0421364527424
 31
0.0
  0
LINE
  5
EF7C88B80
330
EF7C85532
100
AcDbEntity
  8
JISSEN
100
AcDbLine
 10
87.704005728786
 20
94.11051058436886
 30
0.0
 11
90.49999963800008
 21
94.11051058436886
 31
0.0
  0
ARC
  5
EF7C88B81
330
EF7C85532
100
AcDbEntity
  8
JISSEN
100
AcDbCircle
 10
90.49921508250765
 20
94.55170733838086
 30
0.0
 40
1.6
100
AcDbArc
 50
133.0503615394668
 51
162.7537116970571
  0
LINE
  5
EF7C88B82
330
EF7C85532
100
AcDbEntity
  8
JISSEN
100
AcDbLine
 10
88.05558815297718
 20
94.11051058436886
 30
0.0
 11
88.98511902151581
 21
95.04004145290759
 31
0.0
  0
LINE
  5
EF7C88B83
330
EF7C85532
100
AcDbEntity
  8
JISSEN
100
AcDbLine
 10
92.94441112302292
 20
94.11051058436886
 30
0.0
 11
92.01488025371304
 21
95.04004145367886
 31
0.0
  0
ARC
  5
EF7C88B84
330
EF7C85532
100
AcDbEntity
  8
JISSEN
100
AcDbCircle
 10
90.49921508250765
 20
94.55170733838086
 30
0.0
 40
1.6
100
AcDbArc
 50
17.33173146614213
 51
46.94963846053318
  0
ARC
  5
EF7C88B85
330
EF7C85532
100
AcDbEntity
  8
JISSEN
100
AcDbCircle
 10
90.49921508250765
 20
94.55170733838086
 30
0.0
 40
1.6
100
AcDbArc
 50
17.33173146614729
 51
46.94963846053318
  0
ARC
  5
EF7C88B86
330
EF7C85532
100
AcDbEntity
  8
JISSEN
100
AcDbCircle
 10
87.87499963799996
 20
106.999361071115
 30
0.0
 40
1.199999999999999
100
AcDbArc
 50
270.0
 51
291.4232972478955
  0
ARC
  5
EF7C88B87
330
EF7C85532
100
AcDbEntity
  8
JISSEN
100
AcDbCircle
 10
89.72806696517784
 20
131.1947488282036
 30
0.0
 40
24.90306398983314
100
AcDbArc
 50
265.7326069421984
 51
266.8169451117992
  0
LINE
  5
EF7C88B88
330
EF7C85532
100
AcDbEntity
  8
JISSEN
100
AcDbLine
 10
87.49999963799997
 20
106.6993610711151
 30
0.0
 11
87.87499963799996
 21
106.6993610711151
 31
0.0
  0
LINE
  5
EF7C88B89
330
EF7C85532
100
AcDbEntity
  8
JISSEN
100
AcDbLine
 10
87.87499963799996
 20
106.6993610711151
 30
0.0
 11
87.87499963799996
 21
102.199361071115
 31
0.0
  0
ARC
  5
EF7C88B8A
330
EF7C85532
100
AcDbEntity
  8
JISSEN
100
AcDbCircle
 10
94.49999963800001
 20
101.4959826065884
 30
0.0
 40
1.5
100
AcDbArc
 50
180.0
 51
255.7499673021981
  0
LINE
  5
EF7C88B8B
330
EF7C85532
100
AcDbEntity
  8
JISSEN
100
AcDbLine
 10
94.13076886876927
 20
100.0421364527423
 30
0.0
 11
94.24437630956914
 21
98.48950142847787
 31
0.0
  0
ARC
  5
EF7C88B8C
330
EF7C85532
100
AcDbEntity
  8
JISSEN
100
AcDbCircle
 10
93.12499963799997
 20
106.999361071115
 30
0.0
 40
1.199999999999999
100
AcDbArc
 50
248.576702752115
 51
270.0
  0
ARC
  5
EF7C88B8D
330
EF7C85532
100
AcDbEntity
  8
JISSEN
100
AcDbCircle
 10
91.27193231082413
 20
131.1947488281976
 30
0.0
 40
24.90306398982701
100
AcDbArc
 50
273.1830548881973
 51
274.2673930577983
  0
LINE
  5
EF7C88B8E
330
EF7C85532
100
AcDbEntity
  8
JISSEN
100
AcDbLine
 10
93.49999963799996
 20
106.6993610711151
 30
0.0
 11
93.12499963799997
 21
106.6993610711151
 31
0.0
  0
LINE
  5
EF7C88B8F
330
EF7C85532
100
AcDbEntity
  8
JISSEN
100
AcDbLine
 10
93.12499963799997
 20
106.6993610711151
 30
0.0
 11
93.12499963799997
 21
102.199361071115
 31
0.0
  0
LINE
  5
EF7C88B90
330
EF7C85532
100
AcDbEntity
  8
JISSEN
100
AcDbLine
 10
106.9919874016541
 20
81.31051058436883
 30
0.0
 11
109.2836029613296
 21
80.56591955283646
 31
0.0
1001
ACAD
1000
ASC_BOUNDS
1002
{
1070
    19
1002
}
  0
ARC
  5
EF7C88B91
330
EF7C85532
100
AcDbEntity
  8
JISSEN
100
AcDbCircle
 10
107.2499996379999
 20
88.61177453594828
 30
0.0
 40
12.49999999999999
100
AcDbArc
 50
163.739795291688
 51
196.2602047083119
  0
LINE
  5
EF7C88B92
330
EF7C85532
100
AcDbEntity
  8
JISSEN
100
AcDbLine
 10
105.4074245961059
 20
95.2404069593226
 30
0.0
 11
95.74999963800008
 21
83.82011168893127
 31
0.0
  0
LINE
  5
EF7C88B93
330
EF7C85532
100
AcDbEntity
  8
JISSEN
100
AcDbLine
 10
101.7231844520439
 20
82.94774633339336
 30
0.0
 11
99.46877973929685
 21
82.94774633339336
 31
0.0
  0
LINE
  5
EF7C88B94
330
EF7C85532
100
AcDbEntity
  8
JISSEN
100
AcDbLine
 10
101.5899402031479
 20
80.56591955283645
 30
0.0
 11
100.3012083968973
 21
82.50187856490931
 31
0.0
  0
LINE
  5
EF7C88B95
330
EF7C85532
100
AcDbEntity
  8
JISSEN
100
AcDbLine
 10
99.4996021705718
 20
80.56591955283641
 30
0.0
 11
97.85186216892425
 21
82.94774633339336
 31
0.0
  0
LINE
  5
EF7C88B96
330
EF7C85532
100
AcDbEntity
  8
JISSEN
100
AcDbLine
 10
95.74999963800008
 20
82.90305673601022
 30
0.0
 11
95.74999963800008
 21
83.95769653392461
 31
0.0
  0
LINE
  5
EF7C88B97
330
EF7C85532
100
AcDbEntity
  8
JISSEN
100
AcDbLine
 10
100.2685056394091
 20
80.56591955283643
 30
0.0
 11
99.55276244585604
 21
81.64112346971696
 31
0.0
  0
ARC
  5
EF7C88B98
330
EF7C85532
100
AcDbEntity
  8
JISSEN
100
AcDbCircle
 10
99.4687797392968
 20
81.94774633339292
 30
0.0
 40
1.0
100
AcDbArc
 50
33.65096582460064
 51
132.0810525119099
  0
LINE
  5
EF7C88B99
330
EF7C85532
100
AcDbEntity
  8
JISSEN
100
AcDbLine
 10
98.87338082130202
 20
81.6194705771104
 30
0.0
 11
98.82669692113239
 21
81.53861169012117
 31
0.0
  0
LINE
  5
EF7C88B9A
330
EF7C85532
100
AcDbEntity
  8
JISSEN
100
AcDbLine
 10
98.79859852547383
 20
82.68994384122946
 30
0.0
 11
98.44904891238741
 21
82.08450615159767
 31
0.0
  0
ARC
  5
EF7C88B9B
330
EF7C85532
100
AcDbEntity
  8
JISSEN
100
AcDbCircle
 10
99.21979098281576
 20
81.41947057711041
 30
0.0
 40
0.4
100
AcDbArc
 50
33.65096582460222
 51
149.9999999999987
  0
LINE
  5
EF7C88B9C
330
EF7C85532
100
AcDbEntity
  8
JISSEN
100
AcDbLine
 10
105.0336029613296
 20
81.31051058436883
 30
0.0
 11
106.9919874016541
 21
81.31051058436883
 31
0.0
1001
ACAD
1000
ASC_BOUNDS
1002
{
1070
    19
1002
}
  0
LINE
  5
EF7C88B9D
330
EF7C85532
100
AcDbEntity
  8
JISSEN
100
AcDbLine
 10
105.0336029613298
 20
81.31051058436865
 30
0.0
 11
103.0454833409413
 21
82.70260692942715
 31
0.0
  0
LINE
  5
EF7C88B9E
330
EF7C85532
100
AcDbEntity
  8
JISSEN
100
AcDbLine
 10
104.3325461179878
 20
80.56591955283645
 30
0.0
 11
101.7231844520439
 21
82.94774633339336
 31
0.0
  0
ARC
  5
EF7C88B9F
330
EF7C85532
100
AcDbEntity
  8
JISSEN
100
AcDbCircle
 10
102.2680004814675
 20
81.59224633339338
 30
0.0
 40
1.355499999999999
100
AcDbArc
 50
55.00000000000309
 51
109.7312025061782
  0
ARC
  5
EF7C88BA0
330
EF7C85532
100
AcDbEntity
  8
JISSEN
100
AcDbCircle
 10
100.999999638
 20
103.2859334824642
 30
0.0
 40
1.0
100
AcDbArc
 50
265.0000000000002
 51
0.0
  0
LINE
  5
EF7C88BA1
330
EF7C85532
100
AcDbEntity
  8
JISSEN
100
AcDbLine
 10
94.49999963800008
 20
98.09598260658848
 30
0.0
 11
94.49999963800008
 21
95.72091367419744
 31
0.0
  0
LINE
  5
EF7C88BA2
330
EF7C85532
100
AcDbEntity
  8
JISSEN
100
AcDbLine
 10
97.28267656165565
 20
102.6073372727643
 30
0.0
 11
100.9128438952524
 21
102.2897387843725
 31
0.0
  0
LINE
  5
EF7C88BA3
330
EF7C85532
100
AcDbEntity
  8
JISSEN
100
AcDbLine
 10
96.99999963800003
 20
101.850341557522
 30
0.0
 11
96.99999963800003
 21
98.1389727336626
 31
0.0
  0
ARC
  5
EF7C88BA4
330
EF7C85532
100
AcDbEntity
  8
JISSEN
100
AcDbCircle
 10
95.99999963800001
 20
98.67281396012423
 30
0.0
 40
1.0
100
AcDbArc
 50
275.0532481512555
 51
0.0
  0
LINE
  5
EF7C88BA5
330
EF7C85532
100
AcDbEntity
  8
JISSEN
100
AcDbLine
 10
94.49999963800008
 20
97.53627425016645
 30
0.0
 11
96.08808116205763
 21
97.67670069090247
 31
0.0
  0
LINE
  5
EF7C88BA6
330
EF7C85532
100
AcDbEntity
  8
JISSEN
100
AcDbLine
 10
97.149999638
 20
98.1389727336626
 30
0.0
 11
96.99999963800003
 21
98.1389727336626
 31
0.0
  0
LINE
  5
EF7C88BA7
330
EF7C85532
100
AcDbEntity
  8
JISSEN
100
AcDbLine
 10
96.99999963800003
 20
101.1073372727643
 30
0.0
 11
97.14999963800005
 21
101.1073372727643
 31
0.0
  0
LINE
  5
EF7C88BA8
330
EF7C85532
100
AcDbEntity
  8
JISSEN
100
AcDbLine
 10
97.149999638
 20
101.1073372727643
 30
0.0
 11
97.149999638
 21
98.1389727336626
 31
0.0
  0
LINE
  5
EF7C88BA9
330
EF7C85532
100
AcDbEntity
  8
JISSEN
100
AcDbLine
 10
101.999999638
 20
106.7573372727643
 30
0.0
 11
101.999999638
 21
106.7573372727643
 31
0.0
  0
LINE
  5
EF7C88BAA
330
EF7C85532
100
AcDbEntity
  8
JISSEN
100
AcDbLine
 10
101.999999638
 20
103.2859334824642
 30
0.0
 11
101.999999638
 21
106.7420579225909
 31
0.0
  0
LINE
  5
EF7C88BAB
330
EF7C85532
100
AcDbEntity
  8
JISSEN
100
AcDbLine
 10
109.2836029613296
 20
80.56591955283646
 30
0.0
 11
108.9745859669546
 21
79.61486303654128
 31
0.0
1001
ACAD
1000
ASC_BOUNDS
1002
{
1070
    19
1002
}
  0
ARC
  5
EF7C88BAC
330
EF7C85532
100
AcDbEntity
  8
JISSEN
100
AcDbCircle
 10
85.45325786876583
 20
115.9191745820568
 30
0.0
 40
17.0
100
AcDbArc
 50
114.4511428072319
 51
184.7012200115904
  0
LINE
  5
EF7C88BAD
330
EF7C85532
100
AcDbEntity
  8
JISSEN
100
AcDbLine
 10
94.99999963800012
 20
110.5820255736849
 30
0.0
 11
92.99999963800008
 21
110.4067138746054
 31
0.0
  0
LINE
  5
EF7C88BAE
330
EF7C85532
100
AcDbEntity
  8
JISSEN
100
AcDbLine
 10
94.99999963800012
 20
110.9326489718438
 30
0.0
 11
92.30910398731873
 21
111.168521716127
 31
0.0
  0
LINE
  5
EF7C88BAF
330
EF7C85532
100
AcDbEntity
  8
JISSEN
100
AcDbLine
 10
94.99999963800012
 20
111.0330324141019
 30
0.0
 11
92.3018885647291
 21
111.269537632382
 31
0.0
  0
ARC
  5
EF7C88BB0
330
EF7C85532
100
AcDbEntity
  8
JISSEN
100
AcDbCircle
 10
93.22696932970854
 20
114.1493610711151
 30
0.0
 40
1.5
100
AcDbArc
 50
14.14900450893456
 51
90.0
  0
LINE
  5
EF7C88BB1
330
EF7C85532
100
AcDbEntity
  8
JISSEN
100
AcDbLine
 10
82.03360296132961
 20
120.952363291837
 30
0.0
 11
99.03360296132962
 21
120.952363291837
 31
0.0
  0
LINE
  5
EF7C88BB2
330
EF7C85532
100
AcDbEntity
  8
JISSEN
100
AcDbLine
 10
95.49003985749431
 20
119.8776223549994
 30
0.0
 11
85.57716606516477
 21
119.8776223549994
 31
0.0
  0
LINE
  5
EF7C88BB3
330
EF7C85532
100
AcDbEntity
  8
JISSEN
100
AcDbLine
 10
91.78360296132963
 20
125.8811013381441
 30
0.0
 11
98.53360296132962
 21
125.8811013381441
 31
0.0
  0
LINE
  5
EF7C88BB4
330
EF7C85532
100
AcDbEntity
  8
JISSEN
100
AcDbLine
 10
98.88360296132947
 20
124.1622010543979
 30
0.0
 11
91.99758830921041
 21
124.1622010543979
 31
0.0
  0
LINE
  5
EF7C88BB5
330
EF7C85532
100
AcDbEntity
  8
JISSEN
100
AcDbLine
 10
97.63360296132924
 20
123.5523632918372
 30
0.0
 11
92.22234696608882
 21
123.552363291837
 31
0.0
  0
LINE
  5
EF7C88BB6
330
EF7C85532
100
AcDbEntity
  8
JISSEN
100
AcDbLine
 10
92.03360296132961
 20
127.4811013381441
 30
0.0
 11
99.83360296132964
 21
127.4811013381441
 31
0.0
  0
LINE
  5
EF7C88BB7
330
EF7C85532
100
AcDbEntity
  8
JISSEN
100
AcDbLine
 10
92.87499963800007
 20
133.4811013381441
 30
0.0
 11
102.0336029613296
 21
133.4811013381441
 31
0.0
  0
LINE
  5
EF7C88BB8
330
EF7C85532
100
AcDbEntity
  8
JISSEN
100
AcDbLine
 10
103.9370816939269
 20
136.580075296806
 30
0.0
 11
77.13012422873226
 21
136.580075296806
 31
0.0
  0
LINE
  5
EF7C88BB9
330
EF7C85532
100
AcDbEntity
  8
JISSEN
100
AcDbLine
 10
79.03360296132962
 20
135.4811013381441
 30
0.0
 11
102.0336029613296
 21
135.4811013381441
 31
0.0
  0
LINE
  5
EF7C88BBA
330
EF7C85532
100
AcDbEntity
  8
JISSEN
100
AcDbLine
 10
99.03360296132962
 20
123.2523632918369
 30
0.0
 11
90.53360296132963
 21
123.2523632918369
 31
0.0
  0
LINE
  5
EF7C88BBB
330
EF7C85532
100
AcDbEntity
  8
JISSEN
100
AcDbLine
 10
79.61143034436992
 20
151.9811013381442
 30
0.0
 11
101.4557755782892
 21
151.9811013381442
 31
0.0
  0
LINE
  5
EF7C88BBC
330
EF7C85532
100
AcDbEntity
  8
JISSEN
100
AcDbLine
 10
101.4557755782892
 20
151.9811013381442
 30
0.0
 11
79.61143034436998
 21
151.9811013381442
 31
0.0
  0
LINE
  5
EF7C88BBD
330
EF7C85532
100
AcDbEntity
  8
JISSEN
100
AcDbLine
 10
103.518248201883
 20
149.9820772834362
 30
0.0
 11
77.54895772077623
 21
149.9820772834362
 31
0.0
  0
LINE
  5
EF7C88BBE
330
EF7C85532
100
AcDbEntity
  8
JISSEN
100
AcDbLine
 10
77.13012422873226
 20
136.580075296806
 30
0.0
 11
77.54895772077623
 21
149.9820772834362
 31
0.0
  0
LINE
  5
EF7C88BBF
330
EF7C85532
100
AcDbEntity
  8
SAISEN
100
AcDbLine
 10
78.27938795126158
 20
135.9165475772338
 30
0.0
 11
78.7555042055784
 21
151.1515063554402
 31
0.0
  0
ARC
  5
EF7C88BC0
330
EF7C85532
100
AcDbEntity
  8
JISSEN
100
AcDbCircle
 10
76.61225110633177
 20
133.7548918643246
 30
0.0
 40
6.498907295833106
100
AcDbArc
 50
284.6790800521976
 51
314.9044140176817
  0
LINE
  5
EF7C88BC1
330
EF7C85532
100
AcDbEntity
  8
JISSEN
100
AcDbLine
 10
79.03360296132962
 20
133.4811013381441
 30
0.0
 11
88.12499963800007
 21
133.4811013381441
 31
0.0
  0
ARC
  5
EF7C88BC2
330
EF7C85532
100
AcDbEntity
  8
JISSEN
100
AcDbCircle
 10
83.29120654865125
 20
115.5717630796676
 30
0.0
 40
10.80551655320168
100
AcDbArc
 50
94.20951776956371
 51
169.5833810006728
  0
ARC
  5
EF7C88BC3
330
EF7C85532
100
AcDbEntity
  8
JISSEN
100
AcDbCircle
 10
85.49970087465556
 20
114.8101372914036
 30
0.0
 40
11.0
100
AcDbArc
 50
111.4923353073529
 51
177.7128202082922
  0
ARC
  5
EF7C88BC4
330
EF7C85532
100
AcDbEntity
  8
JISSEN
100
AcDbCircle
 10
85.49999963800008
 20
114.6117745359482
 30
0.0
 40
15.0
100
AcDbArc
 50
126.6829888003599
 51
180.0
  0
ARC
  5
EF7C88BC8
330
EF7C85532
100
AcDbEntity
  8
JISSEN
100
AcDbCircle
 10
79.52612891507533
 20
122.6313049826629
 30
0.0
 40
5.0
100
AcDbArc
 50
104.6790800521975
 51
126.6829888003599
  0
LINE
  5
EF7C88BC9
330
EF7C85532
100
AcDbEntity
  8
JISSEN
100
AcDbLine
 10
79.03360296132962
 20
132.3035813898644
 30
0.0
 11
79.03360296132962
 21
135.4811013381441
 31
0.0
  0
ARC
  5
EF7C88BCA
330
EF7C85532
100
AcDbEntity
  8
JISSEN
100
AcDbCircle
 10
78.03360296132962
 20
132.3035813898644
 30
0.0
 40
1.0
100
AcDbArc
 50
294.6243183521636
 51
0.0
  0
LINE
  5
EF7C88BCB
330
EF7C85532
100
AcDbEntity
  8
JISSEN
100
AcDbLine
 10
79.03360296132962
 20
135.4811013381441
 30
0.0
 11
77.13012422873226
 21
136.580075296806
 31
0.0
  0
LINE
  5
EF7C88BCE
330
EF7C85532
100
AcDbEntity
  8
JISSEN
100
AcDbLine
 10
89.28360296132963
 20
128.455554367845
 30
0.0
 11
89.28360296132963
 21
125.9916090287232
 31
0.0
  0
LINE
  5
EF7C88BCF
330
EF7C85532
100
AcDbEntity
  8
JISSEN
100
AcDbLine
 10
86.53360296132962
 20
133.4811013381441
 30
0.0
 11
86.53360296132962
 21
127.4811013381441
 31
0.0
  0
LINE
  5
EF7C88BD0
330
EF7C85532
100
AcDbEntity
  8
JISSEN
100
AcDbLine
 10
81.23360296132961
 20
133.4811013381441
 30
0.0
 11
81.23360296132961
 21
127.4811013381441
 31
0.0
  0
LINE
  5
EF7C88BD1
330
EF7C85532
100
AcDbEntity
  8
JISSEN
100
AcDbLine
 10
91.78360296132963
 20
128.455554367845
 30
0.0
 11
91.78360296132963
 21
125.9916090287232
 31
0.0
  0
LINE
  5
EF7C88BD2
330
EF7C85532
100
AcDbEntity
  8
JISSEN
100
AcDbLine
 10
85.99999963799996
 20
110.5820255736849
 30
0.0
 11
87.99999963800008
 21
110.4067138746054
 31
0.0
  0
ARC
  5
EF7C88BD3
330
EF7C85532
100
AcDbEntity
  8
JISSEN
100
AcDbCircle
 10
87.77302994629138
 20
114.1493610711151
 30
0.0
 40
1.5
100
AcDbArc
 50
90.0
 51
165.8509954910654
  0
LINE
  5
EF7C88BD4
330
EF7C85532
100
AcDbEntity
  8
JISSEN
100
AcDbLine
 10
87.23804362988136
 20
115.5507138608343
 30
0.0
 11
87.99999963800031
 21
115.1107983544362
 31
0.0
  0
LINE
  5
EF7C88BD5
330
EF7C85532
100
AcDbEntity
  8
JISSEN
100
AcDbLine
 10
85.99999963799996
 20
111.0330324141019
 30
0.0
 11
88.698110711271
 21
111.269537632382
 31
0.0
  0
LINE
  5
EF7C88BD6
330
EF7C85532
100
AcDbEntity
  8
JISSEN
100
AcDbLine
 10
85.99999963799996
 20
110.9326489718438
 30
0.0
 11
88.69089528868135
 21
111.168521716127
 31
0.0
  0
LINE
  5
EF7C88BD7
330
EF7C85532
100
AcDbEntity
  8
JISSEN
100
AcDbLine
 10
82.53360296132962
 20
125.8811013381441
 30
0.0
 11
89.28360296132963
 21
125.8811013381441
 31
0.0
  0
LINE
  5
EF7C88BD8
330
EF7C85532
100
AcDbEntity
  8
JISSEN
100
AcDbLine
 10
81.23360296132961
 20
127.4811013381441
 30
0.0
 11
89.03360296132962
 21
127.4811013381441
 31
0.0
  0
LINE
  5
EF7C88BD9
330
EF7C85532
100
AcDbEntity
  8
JISSEN
100
AcDbLine
 10
88.8448589565703
 20
123.552363291837
 30
0.0
 11
83.4336029613296
 21
123.5523632918368
 31
0.0
  0
LINE
  5
EF7C88BDA
330
EF7C85532
100
AcDbEntity
  8
JISSEN
100
AcDbLine
 10
89.06961761344877
 20
124.1622010543979
 30
0.0
 11
82.1836029613296
 21
124.1622010543979
 31
0.0
  0
LINE
  5
EF7C88BDB
330
EF7C85532
100
AcDbEntity
  8
JISSEN
100
AcDbLine
 10
82.03360296132961
 20
123.2523632918369
 30
0.0
 11
90.53360296132963
 21
123.2523632918369
 31
0.0
  0
ARC
  5
EF7C88BDC
330
EF7C85532
100
AcDbEntity
  8
JISSEN
100
AcDbCircle
 10
96.49999963799997
 20
111.949361071115
 30
0.0
 40
13.5
100
AcDbArc
 50
138.1725878762896
 51
180.0
  0
LINE
  5
EF7C88BDE
330
EF7C85532
100
AcDbEntity
  8
JISSEN
100
AcDbLine
 10
82.99999963799995
 20
110.7573372727643
 30
0.0
 11
82.6513766670094
 21
110.7268367149579
 31
0.0
  0
LINE
  5
EF7C88BDF
330
EF7C85532
100
AcDbEntity
  8
JISSEN
100
AcDbLine
 10
82.99999963799995
 20
106.949361071115
 30
0.0
 11
82.99999963799995
 21
111.949361071115
 31
0.0
  0
ARC
  5
EF7C88BE0
330
EF7C85532
100
AcDbEntity
  8
JISSEN
100
AcDbCircle
 10
96.49999963799997
 20
111.949361071115
 30
0.0
 40
10.5
100
AcDbArc
 50
165.8509954910654
 51
180.0
  0
LINE
  5
EF7C88BE1
330
EF7C85532
100
AcDbEntity
  8
JISSEN
100
AcDbLine
 10
85.99999963799996
 20
108.199361071115
 30
0.0
 11
85.99999963799996
 21
111.949361071115
 31
0.0
  0
LINE
  5
EF7C88BE2
330
EF7C85532
100
AcDbEntity
  8
JISSEN
100
AcDbLine
 10
84.53360296132911
 20
123.552363291837
 30
0.0
 11
82.03360296132961
 21
123.552363291837
 31
0.0
  0
LINE
  5
EF7C88BE3
330
EF7C85532
100
AcDbEntity
  8
JISSEN
100
AcDbLine
 10
82.03360296132961
 20
123.552363291837
 30
0.0
 11
82.03360296132961
 21
120.952363291837
 31
0.0
  0
ARC
  5
EF7C88BE4
330
EF7C85532
100
AcDbEntity
  8
JISSEN
100
AcDbCircle
 10
81.68360296132959
 20
124.5789648289306
 30
0.0
 40
0.5
100
AcDbArc
 50
0.0
 51
111.1546302653318
  0
LINE
  5
EF7C88BE5
330
EF7C85532
100
AcDbEntity
  8
JISSEN
100
AcDbLine
 10
82.1836029613296
 20
124.162201054398
 30
0.0
 11
83.23987295045993
 21
123.552363291837
 31
0.0
  0
LINE
  5
EF7C88BE6
330
EF7C85532
100
AcDbEntity
  8
JISSEN
100
AcDbLine
 10
82.1836029613296
 20
124.162201054398
 30
0.0
 11
82.1836029613296
 21
124.5789648289306
 31
0.0
  0
LINE
  5
EF7C88BE7
330
EF7C85532
100
AcDbEntity
  8
JISSEN
100
AcDbLine
 10
82.53360296132962
 20
127.4811013381441
 30
0.0
 11
82.53360296132962
 21
125.8811013381441
 31
0.0
  0
LINE
  5
EF7C88BE8
330
EF7C85532
100
AcDbEntity
  8
JISSEN
100
AcDbLine
 10
88.49999963799996
 20
115.849361071115
 30
0.0
 11
88.49999963799996
 21
118.6626982777329
 31
0.0
  0
LINE
  5
EF7C88BE9
330
EF7C85532
100
AcDbEntity
  8
JISSEN
100
AcDbLine
 10
88.74999963800007
 20
114.9270442321494
 30
0.0
 11
88.74999963800007
 21
117.4394147337454
 31
0.0
  0
LINE
  5
EF7C88BEA
330
EF7C85532
100
AcDbEntity
  8
JISSEN
100
AcDbLine
 10
92.49999963799997
 20
115.849361071115
 30
0.0
 11
92.49999963799997
 21
118.6626982777329
 31
0.0
  0
LINE
  5
EF7C88BEB
330
EF7C85532
100
AcDbEntity
  8
JISSEN
100
AcDbLine
 10
92.24999963800007
 20
117.4394147337454
 30
0.0
 11
92.24999963800007
 21
114.9270442321494
 31
0.0
  0
LINE
  5
EF7C88BEC
330
EF7C85532
100
AcDbEntity
  8
JISSEN
100
AcDbLine
 10
92.24999963800007
 20
114.9270442321494
 30
0.0
 11
88.74999963800007
 21
114.9270442321494
 31
0.0
  0
LINE
  5
EF7C88BED
330
EF7C85532
100
AcDbEntity
  8
JISSEN
100
AcDbLine
 10
92.24999963800007
 20
115.7102153723134
 30
0.0
 11
88.74999963800007
 21
115.7102153723134
 31
0.0
  0
LINE
  5
EF7C88BEE
330
EF7C85532
100
AcDbEntity
  8
JISSEN
100
AcDbLine
 10
87.49999963800007
 20
114.1224725124162
 30
0.0
 11
87.49999963800007
 21
111.1645161884114
 31
0.0
  0
ARC
  5
EF7C88BEF
330
EF7C85532
100
AcDbEntity
  8
JISSEN
100
AcDbCircle
 10
90.49999963799995
 20
126.2748221000392
 30
0.0
 40
19.34838405080195
100
AcDbArc
 50
262.5760704103728
 51
263.7573957713741
  0
ARC
  5
EF7C88BF0
330
EF7C85532
100
AcDbEntity
  8
JISSEN
100
AcDbCircle
 10
90.49999963800008
 20
87.90243800015163
 30
0.0
 40
19.34838405080195
100
AcDbArc
 50
96.22224717316008
 51
97.42392958962717
  0
ARC
  5
EF7C88BF1
330
EF7C85532
100
AcDbEntity
  8
JISSEN
100
AcDbCircle
 10
90.49999963800008
 20
91.57114522282055
 30
0.0
 40
19.34838405080195
100
AcDbArc
 50
95.43647494168643
 51
97.42392958962717
  0
LINE
  5
EF7C88BF2
330
EF7C85532
100
AcDbEntity
  8
JISSEN
100
AcDbLine
 10
87.99999963800008
 20
107.0886300500954
 30
0.0
 11
87.99999963800008
 21
110.7573372727643
 31
0.0
  0
LINE
  5
EF7C88BF3
330
EF7C85532
100
AcDbEntity
  8
JISSEN
100
AcDbLine
 10
87.64999963800006
 20
114.1454126553521
 30
0.0
 11
87.64999963800006
 21
114.3018550008219
 31
0.0
  0
ARC
  5
EF7C88BF4
330
EF7C85532
100
AcDbEntity
  8
JISSEN
100
AcDbCircle
 10
88.29999963799997
 20
115.849361071115
 30
0.0
 40
0.2
100
AcDbArc
 50
270.0
 51
0.0
  0
LINE
  5
EF7C88BF5
330
EF7C85532
100
AcDbEntity
  8
JISSEN
100
AcDbLine
 10
87.77302994629138
 20
115.649361071115
 30
0.0
 11
88.29999963799997
 21
115.649361071115
 31
0.0
  0
ARC
  5
EF7C88BF6
330
EF7C85532
100
AcDbEntity
  8
JISSEN
100
AcDbCircle
 10
90.49999963800031
 20
119.4409253733583
 30
0.0
 40
5.0
100
AcDbArc
 50
239.9999999999998
 51
243.6791901783917
  0
ARC
  5
EF7C88BF7
330
EF7C85532
100
AcDbEntity
  8
JISSEN
100
AcDbCircle
 10
89.92390949709045
 20
105.4368658141213
 30
0.0
 40
9.665948963623771
100
AcDbArc
 50
96.97567628298614
 51
98.562612181495
  0
ARC
  5
EF7C88BF8
330
EF7C85532
100
AcDbEntity
  8
JISSEN
100
AcDbCircle
 10
89.06956328561102
 20
111.1110067278085
 30
0.0
 40
3.927849752434779
100
AcDbArc
 50
98.56261218149995
 51
103.6591051852998
  0
ARC
  5
EF7C88BF9
330
EF7C85532
100
AcDbEntity
  8
JISSEN
100
AcDbCircle
 10
90.49999963800008
 20
95.0080809349339
 30
0.0
 40
19.34838405080195
100
AcDbArc
 50
94.70198339894666
 51
98.91979517632346
  0
ARC
  5
EF7C88BFA
330
EF7C85532
100
AcDbEntity
  8
JISSEN
100
AcDbCircle
 10
88.29413070831066
 20
114.3018550008219
 30
0.0
 40
0.6441310703106079
100
AcDbArc
 50
103.6591051852966
 51
180.0
  0
ARC
  5
EF7C88BFB
330
EF7C85532
100
AcDbEntity
  8
JISSEN
100
AcDbCircle
 10
88.79999963799997
 20
116.8668942885785
 30
0.0
 40
0.3
100
AcDbArc
 50
99.59406822683844
 51
180.0
  0
LINE
  5
EF7C88BFC
330
EF7C85532
100
AcDbEntity
  8
JISSEN
100
AcDbLine
 10
93.49999963800007
 20
114.1224725124162
 30
0.0
 11
93.49999963800007
 21
111.1645161884115
 31
0.0
  0
ARC
  5
EF7C88BFD
330
EF7C85532
100
AcDbEntity
  8
JISSEN
100
AcDbCircle
 10
90.49999963799995
 20
126.2748221000392
 30
0.0
 40
19.34838405080195
100
AcDbArc
 50
276.2426042286258
 51
277.4239295896272
  0
ARC
  5
EF7C88BFE
330
EF7C85532
100
AcDbEntity
  8
JISSEN
100
AcDbCircle
 10
90.49999963800008
 20
87.90243800015163
 30
0.0
 40
19.34838405080195
100
AcDbArc
 50
82.5760704103728
 51
83.77775282683991
  0
ARC
  5
EF7C88BFF
330
EF7C85532
100
AcDbEntity
  8
JISSEN
100
AcDbCircle
 10
90.49999963800008
 20
91.57114522282055
 30
0.0
 40
19.34838405080195
100
AcDbArc
 50
82.5760704103728
 51
84.56352505831359
  0
LINE
  5
EF7C88C00
330
EF7C85532
100
AcDbEntity
  8
JISSEN
100
AcDbLine
 10
92.99999963800008
 20
107.0886300500954
 30
0.0
 11
92.99999963800008
 21
110.7573372727643
 31
0.0
  0
LINE
  5
EF7C88C01
330
EF7C85532
100
AcDbEntity
  8
JISSEN
100
AcDbLine
 10
93.22696932970854
 20
115.649361071115
 30
0.0
 11
92.69999963800001
 21
115.649361071115
 31
0.0
  0
ARC
  5
EF7C88C02
330
EF7C85532
100
AcDbEntity
  8
JISSEN
100
AcDbCircle
 10
91.93043599038924
 20
111.1110067278076
 30
0.0
 40
3.927849752435577
100
AcDbArc
 50
76.34089481470514
 51
81.43738781850499
  0
ARC
  5
EF7C88C03
330
EF7C85532
100
AcDbEntity
  8
JISSEN
100
AcDbCircle
 10
90.49999963800008
 20
95.0080809349339
 30
0.0
 40
19.34838405080195
100
AcDbArc
 50
81.08020482367653
 51
85.29801660105334
  0
ARC
  5
EF7C88C04
330
EF7C85532
100
AcDbEntity
  8
JISSEN
100
AcDbCircle
 10
92.69999963799994
 20
115.849361071115
 30
0.0
 40
0.2
100
AcDbArc
 50
180.0
 51
270.0
  0
ARC
  5
EF7C88C05
330
EF7C85532
100
AcDbEntity
  8
JISSEN
100
AcDbCircle
 10
91.07608977890947
 20
105.4368658141217
 30
0.0
 40
9.665948963623351
100
AcDbArc
 50
81.43738781850339
 51
83.02432371701213
  0
ARC
  5
EF7C88C06
330
EF7C85532
100
AcDbEntity
  8
JISSEN
100
AcDbCircle
 10
92.19999963800001
 20
116.8668942885785
 30
0.0
 40
0.3
100
AcDbArc
 50
0.0
 51
80.40593177313507
  0
ARC
  5
EF7C88C07
330
EF7C85532
100
AcDbEntity
  8
JISSEN
100
AcDbCircle
 10
92.70586856768943
 20
114.3018550008219
 30
0.0
 40
0.6441310703106079
100
AcDbArc
 50
0.0
 51
76.34089481470336
  0
LINE
  5
EF7C88C08
330
EF7C85532
100
AcDbEntity
  8
JISSEN
100
AcDbLine
 10
93.34999963800004
 20
114.3018550008219
 30
0.0
 11
93.34999963800004
 21
114.1454126553521
 31
0.0
  0
ARC
  5
EF7C88C09
330
EF7C85532
100
AcDbEntity
  8
JISSEN
100
AcDbCircle
 10
90.49999963800031
 20
119.4409253733583
 30
0.0
 40
5.0
100
AcDbArc
 50
296.3208098216078
 51
300.0000000000001
  0
LINE
  5
EF7C88C0A
330
EF7C85532
100
AcDbEntity
  8
JISSEN
100
AcDbLine
 10
93.76195564611913
 20
115.5507138608342
 30
0.0
 11
92.99999963800031
 21
115.1107983544361
 31
0.0
  0
ARC
  5
EF7C88C0B
330
EF7C85532
100
AcDbEntity
  8
JISSEN
100
AcDbCircle
 10
90.49999963800008
 20
131.1084958626798
 30
0.0
 40
10.93848722979607
100
AcDbArc
 50
255.6397940472943
 51
284.3602059527056
  0
LINE
  5
EF7C88C0C
330
EF7C85532
100
AcDbEntity
  8
JISSEN
100
AcDbLine
 10
88.74999963800007
 20
117.4394147337454
 30
0.0
 11
92.24999963800007
 21
117.4394147337454
 31
0.0
  0
ARC
  5
EF7C88C0D
330
EF7C85532
100
AcDbEntity
  8
JISSEN
100
AcDbCircle
 10
82.28360296132956
 20
125.9916090287232
 30
0.0
 40
7.0
100
AcDbArc
 50
336.9632903547655
 51
0.0
  0
LINE
  5
EF7C88C0E
330
EF7C85532
100
AcDbEntity
  8
JISSEN
100
AcDbLine
 10
89.03360296132962
 20
127.4811013381441
 30
0.0
 11
89.03360296132962
 21
125.8811013381441
 31
0.0
  0
ARC
  5
EF7C88C0F
330
EF7C85532
100
AcDbEntity
  8
JISSEN
100
AcDbCircle
 10
98.78360296132957
 20
125.9916090287232
 30
0.0
 40
7.0
100
AcDbArc
 50
180.0
 51
203.0367096452344
  0
LINE
  5
EF7C88C10
330
EF7C85532
100
AcDbEntity
  8
JISSEN
100
AcDbLine
 10
92.03360296132961
 20
127.4811013381441
 30
0.0
 11
92.03360296132961
 21
125.8811013381441
 31
0.0
  0
TEXT
  5
EF7C88C11
330
EF7C85532
100
AcDbEntity
  8
JISSEN
100
AcDbText
 10
85.41903525655305
 20
131.806436773799
 30
0.0
 40
3.0
  1
E
 50
180.0
  7
K
 72
     4
 11
83.91903525655306
 21
130.306436773799
 31
0.0
100
AcDbText
  0
LINE
  5
EF7C88C12
330
EF7C85532
100
AcDbEntity
  8
JISSEN
100
AcDbLine
 10
87.83360296132963
 20
130.455554367845
 30
0.0
 11
93.2336029613296
 21
130.455554367845
 31
0.0
  0
LINE
  5
EF7C88C13
330
EF7C85532
100
AcDbEntity
  8
JISSEN
100
AcDbLine
 10
89.28360296132963
 20
128.455554367845
 30
0.0
 11
87.83360296132963
 21
128.455554367845
 31
0.0
  0
LINE
  5
EF7C88C14
330
EF7C85532
100
AcDbEntity
  8
JISSEN
100
AcDbLine
 10
87.53360296132962
 20
128.755554367845
 30
0.0
 11
87.53360296132962
 21
130.155554367845
 31
0.0
  0
ARC
  5
EF7C88C15
330
EF7C85532
100
AcDbEntity
  8
JISSEN
100
AcDbCircle
 10
87.83360296132963
 20
130.155554367845
 30
0.0
 40
0.3
100
AcDbArc
 50
90.0
 51
180.0
  0
ARC
  5
EF7C88C16
330
EF7C85532
100
AcDbEntity
  8
JISSEN
100
AcDbCircle
 10
87.83360296132963
 20
128.755554367845
 30
0.0
 40
0.3
100
AcDbArc
 50
180.0
 51
270.0
  0
LINE
  5
EF7C88C17
330
EF7C85532
100
AcDbEntity
  8
JISSEN
100
AcDbLine
 10
88.12499963800007
 20
133.4811013381441
 30
0.0
 11
88.12499963800007
 21
135.4811013381441
 31
0.0
  0
LINE
  5
EF7C88C18
330
EF7C85532
100
AcDbEntity
  8
JISSEN
100
AcDbLine
 10
93.2336029613296
 20
128.455554367845
 30
0.0
 11
91.78360296132963
 21
128.455554367845
 31
0.0
  0
ARC
  5
EF7C88C19
330
EF7C85532
100
AcDbEntity
  8
JISSEN
100
AcDbCircle
 10
93.2336029613296
 20
128.755554367845
 30
0.0
 40
0.3
100
AcDbArc
 50
270.0
 51
0.0
  0
ARC
  5
EF7C88C1A
330
EF7C85532
100
AcDbEntity
  8
JISSEN
100
AcDbCircle
 10
93.2336029613296
 20
130.155554367845
 30
0.0
 40
0.3
100
AcDbArc
 50
0.0
 51
90.0
  0
LINE
  5
EF7C88C1B
330
EF7C85532
100
AcDbEntity
  8
JISSEN
100
AcDbLine
 10
93.53360296132962
 20
130.155554367845
 30
0.0
 11
93.53360296132962
 21
128.755554367845
 31
0.0
  0
LINE
  5
EF7C88C1C
330
EF7C85532
100
AcDbEntity
  8
JISSEN
100
AcDbLine
 10
92.87499963800007
 20
133.4811013381441
 30
0.0
 11
92.87499963800007
 21
135.4811013381441
 31
0.0
  0
LINE
  5
EF7C88C1D
330
EF7C85532
100
AcDbEntity
  8
JISSEN
100
AcDbLine
 10
77.54895772077623
 20
149.9820772834362
 30
0.0
 11
79.61143034436992
 21
151.9811013381442
 31
0.0
  0
LINE
  5
EF7C88C1E
330
EF7C85532
100
AcDbEntity
  8
JISSEN
100
AcDbLine
 10
103.9370816939269
 20
136.580075296806
 30
0.0
 11
103.518248201883
 21
149.9820772834362
 31
0.0
  0
LINE
  5
EF7C88C1F
330
EF7C85532
100
AcDbEntity
  8
SAISEN
100
AcDbLine
 10
102.7878179713976
 20
135.9165475772338
 30
0.0
 11
102.3117017170807
 21
151.1515063554402
 31
0.0
  0
ARC
  5
EF7C88C20
330
EF7C85532
100
AcDbEntity
  8
JISSEN
100
AcDbCircle
 10
97.70879272734886
 20
115.5717630796676
 30
0.0
 40
10.80551655320168
100
AcDbArc
 50
356.8068888039075
 51
85.79048223043628
  0
ARC
  5
EF7C88C21
330
EF7C85532
100
AcDbEntity
  8
JISSEN
100
AcDbCircle
 10
95.54674140723426
 20
115.9191745820568
 30
0.0
 40
17.0
100
AcDbArc
 50
355.2987799884095
 51
65.54885719276805
  0
ARC
  5
EF7C88C22
330
EF7C85532
100
AcDbEntity
  8
JISSEN
100
AcDbCircle
 10
95.49999963800008
 20
114.6117745359482
 30
0.0
 40
15.0
100
AcDbArc
 50
0.0
 51
53.31701119964003
  0
ARC
  5
EF7C88C23
330
EF7C85532
100
AcDbEntity
  8
JISSEN
100
AcDbCircle
 10
104.3877481696683
 20
133.7548918643245
 30
0.0
 40
6.498907295833106
100
AcDbArc
 50
225.0955859823182
 51
255.3209199478024
  0
LINE
  5
EF7C88C24
330
EF7C85532
100
AcDbEntity
  8
JISSEN
100
AcDbLine
 10
99.83360296132957
 20
133.4811013381441
 30
0.0
 11
99.83360296132964
 21
127.4811013381441
 31
0.0
  0
LINE
  5
EF7C88C25
330
EF7C85532
100
AcDbEntity
  8
JISSEN
100
AcDbLine
 10
94.53360296132961
 20
133.4811013381441
 30
0.0
 11
94.53360296132961
 21
127.4811013381441
 31
0.0
  0
ARC
  5
EF7C88C26
330
EF7C85532
100
AcDbEntity
  8
JISSEN
100
AcDbCircle
 10
95.50029840134454
 20
114.8101372914036
 30
0.0
 40
11.0
100
AcDbArc
 50
357.0418232214464
 51
68.50766469264707
  0
ARC
  5
EF7C88C27
330
EF7C85532
100
AcDbEntity
  8
JISSEN
100
AcDbCircle
 10
84.49999963799996
 20
111.949361071115
 30
0.0
 40
13.5
100
AcDbArc
 50
0.0
 51
41.82741212371037
  0
LINE
  5
EF7C88C28
330
EF7C85532
100
AcDbEntity
  8
JISSEN
100
AcDbLine
 10
97.99999963800008
 20
110.7573372727643
 30
0.0
 11
98.3486226089907
 21
110.7268367149579
 31
0.0
  0
ARC
  5
EF7C88C29
330
EF7C85532
100
AcDbEntity
  8
JISSEN
100
AcDbCircle
 10
84.49999963799996
 20
111.949361071115
 30
0.0
 40
10.5
100
AcDbArc
 50
0.0
 51
14.14900450893456
  0
LINE
  5
EF7C88C2A
330
EF7C85532
100
AcDbEntity
  8
JISSEN
100
AcDbLine
 10
94.99999963799997
 20
108.199361071115
 30
0.0
 11
94.99999963799997
 21
111.949361071115
 31
0.0
  0
LINE
  5
EF7C88C2B
330
EF7C85532
100
AcDbEntity
  8
JISSEN
100
AcDbLine
 10
97.99999963799997
 20
106.949361071115
 30
0.0
 11
97.99999963799997
 21
111.949361071115
 31
0.0
  0
LINE
  5
EF7C88C2C
330
EF7C85532
100
AcDbEntity
  8
JISSEN
100
AcDbLine
 10
98.88360296132958
 20
124.162201054398
 30
0.0
 11
97.82733297219927
 21
123.552363291837
 31
0.0
  0
LINE
  5
EF7C88C2D
330
EF7C85532
100
AcDbEntity
  8
JISSEN
100
AcDbLine
 10
96.53360296133008
 20
123.552363291837
 30
0.0
 11
99.03360296132962
 21
123.552363291837
 31
0.0
  0
LINE
  5
EF7C88C2E
330
EF7C85532
100
AcDbEntity
  8
JISSEN
100
AcDbLine
 10
99.03360296132962
 20
123.552363291837
 30
0.0
 11
99.03360296132962
 21
120.952363291837
 31
0.0
  0
LINE
  5
EF7C88C2F
330
EF7C85532
100
AcDbEntity
  8
JISSEN
100
AcDbLine
 10
98.88360296132958
 20
124.162201054398
 30
0.0
 11
98.88360296132958
 21
124.5789648289306
 31
0.0
  0
LINE
  5
EF7C88C30
330
EF7C85532
100
AcDbEntity
  8
JISSEN
100
AcDbLine
 10
98.53360296132962
 20
127.4811013381441
 30
0.0
 11
98.53360296132962
 21
125.8811013381441
 31
0.0
  0
ARC
  5
EF7C88C31
330
EF7C85532
100
AcDbEntity
  8
JISSEN
100
AcDbCircle
 10
99.38360296132959
 20
124.5789648289306
 30
0.0
 40
0.5
100
AcDbArc
 50
68.84536973466818
 51
180.0
  0
ARC
  5
EF7C88C32
330
EF7C85532
100
AcDbEntity
  8
JISSEN
100
AcDbCircle
 10
101.4738703609247
 20
122.6313049826629
 30
0.0
 40
5.0
100
AcDbArc
 50
53.31701119964003
 51
75.32091994780239
  0
LINE
  5
EF7C88C33
330
EF7C85532
100
AcDbEntity
  8
JISSEN
100
AcDbLine
 10
102.0336029613296
 20
132.3035813898644
 30
0.0
 11
102.0336029613296
 21
135.4811013381441
 31
0.0
  0
ARC
  5
EF7C88C34
330
EF7C85532
100
AcDbEntity
  8
JISSEN
100
AcDbCircle
 10
103.0336029613296
 20
132.3035813898644
 30
0.0
 40
1.0
100
AcDbArc
 50
180.0
 51
245.3756816478349
  0
LINE
  5
EF7C88C35
330
EF7C85532
100
AcDbEntity
  8
JISSEN
100
AcDbLine
 10
102.0336029613296
 20
135.4811013381441
 30
0.0
 11
103.9370816939269
 21
136.580075296806
 31
0.0
  0
LINE
  5
EF7C88C36
330
EF7C85532
100
AcDbEntity
  8
JISSEN
100
AcDbLine
 10
103.518248201883
 20
149.9820772834362
 30
0.0
 11
101.4557755782892
 21
151.9811013381442
 31
0.0
  0
CIRCLE
  5
EF7C88C39
330
EF7C85532
100
AcDbEntity
  8
SUNPOU
100
AcDbCircle
 10
102.8169247439704
 20
54.34986262594342
 30
0.0
 40
6.0
  0
TEXT
  5
EF7C88C3A
330
EF7C85532
100
AcDbEntity
  8
SUNPOU
100
AcDbText
 10
100.9954961725418
 20
52.09986262594341
 30
0.0
 40
4.5
  1
1
  7
K
 72
     4
 11
102.8169247439704
 21
54.34986262594342
 31
0.0
100
AcDbText
  0
LINE
  5
EF7C88CF5
330
EF7C85532
100
AcDbEntity
  8
SUNPOU
100
AcDbLine
 10
90.53360296132977
 20
79.61486303654087
 30
0.0
 11
100.1934706135825
 21
59.74592493338116
 31
0.0
  0
INSERT
  5
EF7C88CF6
330
EF7C85532
100
AcDbEntity
  8
SUNPOU
100
AcDbBlockReference
  2
ARROW
 10
90.53360296132964
 20
79.6148630365409
 30
0.0
 41
-1.500000000000002
 42
1.5
 43
1.5
 50
295.9280644736466
  0
INSERT
  5
EF7C899E9
330
EF7C85532
100
AcDbEntity
  8
WAKU
100
AcDbBlockReference
  2
WAKU
 10
180.999999276
 20
0.0
 30
0.0
 41
181.0
 42
283.0
 43
181.0
  0
ARC
  5
EF7C899F5
330
EF7C85532
100
AcDbEntity
  8
JISSEN
100
AcDbCircle
 10
276.5467406832342
 20
115.9191745820568
 30
0.0
 40
17.0
100
AcDbArc
 50
355.2987799884095
 51
65.54885719276805
  0
ARC
  5
EF7C899F6
330
EF7C85532
100
AcDbEntity
  8
JISSEN
100
AcDbCircle
 10
263.4999989140001
 20
114.6117745359482
 30
0.0
 40
30.0
100
AcDbArc
 50
319.7809012554437
 51
0.0
  0
ARC
  5
EF7C899F8
330
EF7C85532
100
AcDbEntity
  8
JISSEN
100
AcDbCircle
 10
276.5002976773445
 20
114.8101372914036
 30
0.0
 40
11.0
100
AcDbArc
 50
357.0418232214464
 51
68.50766469264707
  0
ARC
  5
EF7C899F9
330
EF7C85532
100
AcDbEntity
  8
JISSEN
100
AcDbCircle
 10
278.7087920033489
 20
115.5717630796675
 30
0.0
 40
10.80551655320168
100
AcDbArc
 50
356.8068888039075
 51
85.79048223043628
  0
ARC
  5
EF7C899FA
330
EF7C85532
100
AcDbEntity
  8
JISSEN
100
AcDbCircle
 10
276.4999989140001
 20
114.6117745359482
 30
0.0
 40
15.0
100
AcDbArc
 50
0.0
 51
53.31701119964003
  0
ARC
  5
EF7C899FC
330
EF7C85532
100
AcDbEntity
  8
JISSEN
100
AcDbCircle
 10
266.4999989140001
 20
114.6117745359482
 30
0.0
 40
15.0
100
AcDbArc
 50
126.6829888003599
 51
180.0
  0
ARC
  5
EF7C899FD
330
EF7C85532
100
AcDbEntity
  8
JISSEN
100
AcDbCircle
 10
266.4532571447658
 20
115.9191745820568
 30
0.0
 40
17.0
100
AcDbArc
 50
114.4511428072319
 51
184.7012200115904
  0
ARC
  5
EF7C899FE
330
EF7C85532
100
AcDbEntity
  8
JISSEN
100
AcDbCircle
 10
264.2912058246512
 20
115.5717630796675
 30
0.0
 40
10.80551655320168
100
AcDbArc
 50
94.20951776956371
 51
169.5833810006728
  0
ARC
  5
EF7C899FF
330
EF7C85532
100
AcDbEntity
  8
JISSEN
100
AcDbCircle
 10
266.4997001506555
 20
114.8101372914036
 30
0.0
 40
11.0
100
AcDbArc
 50
111.4923353073529
 51
177.7128202082922
  0
ARC
  5
EF7C89A04
330
EF7C85532
100
AcDbEntity
  8
JISSEN
100
AcDbCircle
 10
263.4999989140001
 20
114.6117745359482
 30
0.0
 40
24.0
100
AcDbArc
 50
300.0000000000001
 51
0.0
  0
ARC
  5
EF7C89A09
330
EF7C85532
100
AcDbEntity
  8
JISSEN
100
AcDbCircle
 10
279.4999989140001
 20
114.6117745359482
 30
0.0
 40
24.0
100
AcDbArc
 50
178.4782525524656
 51
239.9999999999998
  0
ARC
  5
EF7C89A0A
330
EF7C85532
100
AcDbEntity
  8
JISSEN
100
AcDbCircle
 10
279.4999989140001
 20
114.6117745359482
 30
0.0
 40
30.0
100
AcDbArc
 50
180.0
 51
220.2190987445551
  0
LINE
  5
EF7C89A0C
330
EF7C85532
100
AcDbEntity
  8
JISSEN
100
AcDbLine
 10
268.1200865330356
 20
82.94774633339335
 30
0.0
 11
264.2153430297349
 21
82.94774633339338
 31
0.0
  0
LINE
  5
EF7C89A0D
330
EF7C85532
100
AcDbEntity
  8
JISSEN
100
AcDbLine
 10
256.5925739558941
 20
95.2404069593226
 30
0.0
 11
266.249998914
 21
83.82011168893132
 31
0.0
  0
LINE
  5
EF7C89A0E
330
EF7C85532
100
AcDbEntity
  8
JISSEN
100
AcDbLine
 10
289.9745852429547
 20
79.61486303654126
 30
0.0
 11
253.0926192317044
 21
79.61486303654115
 31
0.0
  0
LINE
  5
EF7C89A0F
330
EF7C85532
100
AcDbEntity
  8
JISSEN
100
AcDbLine
 10
290.2836022373296
 20
80.56591955283645
 30
0.0
 11
252.7836022373295
 21
80.56591955283634
 31
0.0
  0
ARC
  5
EF7C89A10
330
EF7C85532
100
AcDbEntity
  8
JISSEN
100
AcDbCircle
 10
262.5984254593622
 20
81.94774633339292
 30
0.0
 40
1.0
100
AcDbArc
 50
47.91894748809009
 51
146.3490341753993
  0
LINE
  5
EF7C89A11
330
EF7C85532
100
AcDbEntity
  8
JISSEN
100
AcDbLine
 10
262.5676030280873
 20
80.56591955283634
 30
0.0
 11
264.2153430297349
 21
82.94774633339335
 31
0.0
  0
ARC
  5
EF7C89A12
330
EF7C85532
100
AcDbEntity
  8
JISSEN
100
AcDbCircle
 10
259.7992047171916
 20
81.59224633339338
 30
0.0
 40
1.355499999999999
100
AcDbArc
 50
70.26879749382176
 51
124.9999999999968
  0
LINE
  5
EF7C89A13
330
EF7C85532
100
AcDbEntity
  8
JISSEN
100
AcDbLine
 10
257.7346590806712
 20
80.56591955283634
 30
0.0
 11
260.3440207466152
 21
82.94774633339335
 31
0.0
  0
LINE
  5
EF7C89A14
330
EF7C85532
100
AcDbEntity
  8
JISSEN
100
AcDbLine
 10
257.0336022373293
 20
81.31051058436865
 30
0.0
 11
259.0217218577178
 21
82.70260692942716
 31
0.0
  0
LINE
  5
EF7C89A15
330
EF7C85532
100
AcDbEntity
  8
JISSEN
100
AcDbLine
 10
257.0336022373295
 20
81.31051058436881
 30
0.0
 11
255.0752177970053
 21
81.31051058436881
 31
0.0
  0
LINE
  5
EF7C89A16
330
EF7C85532
100
AcDbEntity
  8
JISSEN
100
AcDbLine
 10
252.7836022373295
 20
80.56591955283634
 30
0.0
 11
253.0926192317044
 21
79.61486303654115
 31
0.0
1001
ACAD
1000
ASC_BOUNDS
1002
{
1070
    19
1002
}
  0
LINE
  5
EF7C89A17
330
EF7C85532
100
AcDbEntity
  8
JISSEN
100
AcDbLine
 10
255.075217797005
 20
81.3105105843687
 30
0.0
 11
252.7836022373295
 21
80.56591955283634
 31
0.0
1001
ACAD
1000
ASC_BOUNDS
1002
{
1070
    19
1002
}
  0
LINE
  5
EF7C89A18
330
EF7C85532
100
AcDbEntity
  8
JISSEN
100
AcDbLine
 10
263.1938243773571
 20
81.61947057711037
 30
0.0
 11
263.2405082775267
 21
81.53861169012115
 31
0.0
  0
LINE
  5
EF7C89A19
330
EF7C85532
100
AcDbEntity
  8
JISSEN
100
AcDbLine
 10
263.2686066731853
 20
82.68994384122946
 30
0.0
 11
263.6181562862717
 21
82.08450615159765
 31
0.0
  0
ARC
  5
EF7C89A1A
330
EF7C85532
100
AcDbEntity
  8
JISSEN
100
AcDbCircle
 10
262.8474142158434
 20
81.41947057711039
 30
0.0
 40
0.4
100
AcDbArc
 50
30.00000000000125
 51
146.3490341753977
  0
LINE
  5
EF7C89A1B
330
EF7C85532
100
AcDbEntity
  8
JISSEN
100
AcDbLine
 10
261.7986995592499
 20
80.56591955283636
 30
0.0
 11
262.5144427528031
 21
81.64112346971696
 31
0.0
  0
LINE
  5
EF7C89A1C
330
EF7C85532
100
AcDbEntity
  8
JISSEN
100
AcDbLine
 10
260.4772649955112
 20
80.56591955283634
 30
0.0
 11
261.7659968017618
 21
82.5018785649093
 31
0.0
  0
LINE
  5
EF7C89A1D
330
EF7C85532
100
AcDbEntity
  8
JISSEN
100
AcDbLine
 10
260.3440207466152
 20
82.94774633339335
 30
0.0
 11
262.5984254593623
 21
82.94774633339335
 31
0.0
  0
ARC
  5
EF7C89A1F
330
EF7C85532
100
AcDbEntity
  8
JISSEN
100
AcDbCircle
 10
288.249998914
 20
88.61177453594828
 30
0.0
 40
12.49999999999999
100
AcDbArc
 50
163.739795291688
 51
196.2602047083119
  0
LINE
  5
EF7C89A20
330
EF7C85532
100
AcDbEntity
  8
JISSEN
100
AcDbLine
 10
286.4074238721059
 20
95.2404069593226
 30
0.0
 11
276.7499989140001
 21
83.82011168893123
 31
0.0
  0
ARC
  5
EF7C89A21
330
EF7C85532
100
AcDbEntity
  8
JISSEN
100
AcDbCircle
 10
254.749998914
 20
88.61177453594828
 30
0.0
 40
12.49999999999999
100
AcDbArc
 50
343.7397952916881
 51
16.26020470831189
  0
ARC
  5
EF7C89A22
330
EF7C85532
100
AcDbEntity
  8
JISSEN
100
AcDbCircle
 10
280.2197902588158
 20
81.41947057711039
 30
0.0
 40
0.4
100
AcDbArc
 50
33.65096582460222
 51
149.9999999999987
  0
ARC
  5
EF7C89A23
330
EF7C85532
100
AcDbEntity
  8
JISSEN
100
AcDbCircle
 10
280.4687790152968
 20
81.94774633339292
 30
0.0
 40
1.0
100
AcDbArc
 50
33.65096582460064
 51
132.0810525119099
  0
LINE
  5
EF7C89A24
330
EF7C85532
100
AcDbEntity
  8
JISSEN
100
AcDbLine
 10
280.4996014465718
 20
80.56591955283639
 30
0.0
 11
278.8518614449242
 21
82.94774633339335
 31
0.0
  0
LINE
  5
EF7C89A25
330
EF7C85532
100
AcDbEntity
  8
JISSEN
100
AcDbLine
 10
276.7499989140001
 20
82.9030567360102
 30
0.0
 11
276.7499989140001
 21
83.95769653392457
 31
0.0
  0
LINE
  5
EF7C89A26
330
EF7C85532
100
AcDbEntity
  8
JISSEN
100
AcDbLine
 10
273.7880069500767
 20
82.94774633339335
 30
0.0
 11
274.0326146846496
 21
80.56591955283639
 31
0.0
  0
ARC
  5
EF7C89A27
330
EF7C85532
100
AcDbEntity
  8
JISSEN
100
AcDbCircle
 10
274.9471179416235
 20
82.44774633339247
 30
0.0
 40
0.5
100
AcDbArc
 50
15.79871507350246
 51
166.7098700100972
  0
LINE
  5
EF7C89A28
330
EF7C85532
100
AcDbEntity
  8
JISSEN
100
AcDbLine
 10
269.0345897900099
 20
80.56591955283639
 30
0.0
 11
269.2791975245825
 21
82.94774633339335
 31
0.0
  0
LINE
  5
EF7C89A29
330
EF7C85532
100
AcDbEntity
  8
JISSEN
100
AcDbLine
 10
266.249998914
 20
82.90305673601015
 30
0.0
 11
266.249998914
 21
83.95769653392461
 31
0.0
  0
ARC
  5
EF7C89A2A
330
EF7C85532
100
AcDbEntity
  8
JISSEN
100
AcDbCircle
 10
268.1200865330356
 20
82.44774633339247
 30
0.0
 40
0.5
100
AcDbArc
 50
13.29012998990278
 51
164.2012849264975
  0
ARC
  5
EF7C89A2B
330
EF7C85532
100
AcDbEntity
  8
JISSEN
100
AcDbCircle
 10
268.3197746565637
 20
81.64895609830503
 30
0.0
 40
0.1
100
AcDbArc
 50
13.2901299899087
 51
164.2012849264931
  0
LINE
  5
EF7C89A2C
330
EF7C85532
100
AcDbEntity
  8
JISSEN
100
AcDbLine
 10
269.0478498608913
 20
80.69503726856456
 30
0.0
 11
268.6066957768682
 21
82.56268737835318
 31
0.0
  0
LINE
  5
EF7C89A2D
330
EF7C85532
100
AcDbEntity
  8
JISSEN
100
AcDbLine
 10
268.6783485112083
 20
80.56591955283639
 30
0.0
 11
268.4170965053302
 21
81.67194430729717
 31
0.0
  0
LINE
  5
EF7C89A2E
330
EF7C85532
100
AcDbEntity
  8
JISSEN
100
AcDbLine
 10
267.0679993390428
 20
80.56591955283639
 30
0.0
 11
267.6389744832865
 21
82.58387566743286
 31
0.0
  0
LINE
  5
EF7C89A2F
330
EF7C85532
100
AcDbEntity
  8
JISSEN
100
AcDbLine
 10
267.909406544231
 20
80.56591955283639
 30
0.0
 11
268.2235522466138
 21
81.67618196511311
 31
0.0
  0
LINE
  5
EF7C89A30
330
EF7C85532
100
AcDbEntity
  8
JISSEN
100
AcDbLine
 10
279.873380097302
 20
81.61947057711037
 30
0.0
 11
279.8266961971323
 21
81.53861169012115
 31
0.0
  0
LINE
  5
EF7C89A31
330
EF7C85532
100
AcDbEntity
  8
JISSEN
100
AcDbLine
 10
279.7985978014738
 20
82.68994384122946
 30
0.0
 11
279.4490481883874
 21
82.08450615159765
 31
0.0
  0
LINE
  5
EF7C89A32
330
EF7C85532
100
AcDbEntity
  8
JISSEN
100
AcDbLine
 10
275.9992051356163
 20
80.56591955283639
 30
0.0
 11
275.4282299913726
 21
82.58387566743286
 31
0.0
  0
ARC
  5
EF7C89A33
330
EF7C85532
100
AcDbEntity
  8
JISSEN
100
AcDbCircle
 10
274.7474298180955
 20
81.64895609830503
 30
0.0
 40
0.1
100
AcDbArc
 50
15.79871507350682
 51
166.7098700100912
  0
LINE
  5
EF7C89A34
330
EF7C85532
100
AcDbEntity
  8
JISSEN
100
AcDbLine
 10
274.019354613768
 20
80.69503726856565
 30
0.0
 11
274.4605086977909
 21
82.56268737835318
 31
0.0
  0
LINE
  5
EF7C89A35
330
EF7C85532
100
AcDbEntity
  8
JISSEN
100
AcDbLine
 10
274.3888559634508
 20
80.56591955283639
 30
0.0
 11
274.6501079693289
 21
81.67194430729717
 31
0.0
  0
LINE
  5
EF7C89A36
330
EF7C85532
100
AcDbEntity
  8
JISSEN
100
AcDbLine
 10
275.1577979304284
 20
80.56591955283639
 30
0.0
 11
274.8436522280453
 21
81.67618196511311
 31
0.0
  0
LINE
  5
EF7C89A37
330
EF7C85532
100
AcDbEntity
  8
JISSEN
100
AcDbLine
 10
269.2791975245825
 20
82.94774633339343
 30
0.0
 11
273.7880069500767
 21
82.94774633339335
 31
0.0
  0
LINE
  5
EF7C89A38
330
EF7C85532
100
AcDbEntity
  8
JISSEN
100
AcDbLine
 10
274.9471179416235
 20
82.94774633339335
 30
0.0
 11
278.8518614449242
 21
82.94774633339338
 31
0.0
  0
ARC
  5
EF7C89A39
330
EF7C85532
100
AcDbEntity
  8
JISSEN
100
AcDbCircle
 10
283.2679997574675
 20
81.59224633339338
 30
0.0
 40
1.355499999999999
100
AcDbArc
 50
55.00000000000309
 51
109.7312025061782
  0
LINE
  5
EF7C89A3A
330
EF7C85532
100
AcDbEntity
  8
JISSEN
100
AcDbLine
 10
285.3325453939878
 20
80.56591955283645
 30
0.0
 11
282.7231837280439
 21
82.94774633339335
 31
0.0
  0
LINE
  5
EF7C89A3B
330
EF7C85532
100
AcDbEntity
  8
JISSEN
100
AcDbLine
 10
286.0336022373296
 20
81.31051058436881
 30
0.0
 11
287.9919866776541
 21
81.31051058436881
 31
0.0
1001
ACAD
1000
ASC_BOUNDS
1002
{
1070
    19
1002
}
  0
LINE
  5
EF7C89A3C
330
EF7C85532
100
AcDbEntity
  8
JISSEN
100
AcDbLine
 10
281.2685049154091
 20
80.56591955283641
 30
0.0
 11
280.552761721856
 21
81.64112346971696
 31
0.0
  0
LINE
  5
EF7C89A3D
330
EF7C85532
100
AcDbEntity
  8
JISSEN
100
AcDbLine
 10
282.589939479148
 20
80.56591955283645
 30
0.0
 11
281.3012076728973
 21
82.5018785649093
 31
0.0
  0
LINE
  5
EF7C89A3E
330
EF7C85532
100
AcDbEntity
  8
JISSEN
100
AcDbLine
 10
286.0336022373298
 20
81.31051058436865
 30
0.0
 11
284.0454826169412
 21
82.70260692942713
 31
0.0
  0
LINE
  5
EF7C89A3F
330
EF7C85532
100
AcDbEntity
  8
JISSEN
100
AcDbLine
 10
290.2836022373296
 20
80.56591955283645
 30
0.0
 11
289.9745852429547
 21
79.61486303654126
 31
0.0
1001
ACAD
1000
ASC_BOUNDS
1002
{
1070
    19
1002
}
  0
LINE
  5
EF7C89A40
330
EF7C85532
100
AcDbEntity
  8
JISSEN
100
AcDbLine
 10
287.9919866776541
 20
81.31051058436881
 30
0.0
 11
290.2836022373296
 21
80.56591955283645
 31
0.0
1001
ACAD
1000
ASC_BOUNDS
1002
{
1070
    19
1002
}
  0
LINE
  5
EF7C89A41
330
EF7C85532
100
AcDbEntity
  8
JISSEN
100
AcDbLine
 10
282.7231837280439
 20
82.94774633339335
 30
0.0
 11
280.4687790152968
 21
82.94774633339335
 31
0.0
  0
ARC
  5
EF7C89A42
330
EF7C85532
100
AcDbEntity
  8
JISSEN
100
AcDbCircle
 10
275.2499989140001
 20
94.26017754701396
 30
0.0
 40
0.5
100
AcDbArc
 50
197.4176015349094
 51
300.0000000000001
  0
ARC
  5
EF7C89A43
330
EF7C85532
100
AcDbEntity
  8
JISSEN
100
AcDbCircle
 10
267.7499989140001
 20
94.26017754701396
 30
0.0
 40
0.5
100
AcDbArc
 50
239.9999999999998
 51
342.5823984650904
  0
LINE
  5
EF7C89A47
330
EF7C85532
100
AcDbEntity
  8
JISSEN
100
AcDbLine
 10
274.7729247056292
 20
94.11051058436882
 30
0.0
 11
268.2270731223708
 21
94.11051058436882
 31
0.0
  0
ARC
  5
EF7C89A4B
330
EF7C85532
100
AcDbEntity
  8
JISSEN
100
AcDbCircle
 10
271.4992143585076
 20
94.55170733838086
 30
0.0
 40
1.6
100
AcDbArc
 50
17.33173146619461
 51
162.7537116970571
  0
LINE
  5
EF7C89A4C
330
EF7C85532
100
AcDbEntity
  8
JISSEN
100
AcDbLine
 10
269.0555874289772
 20
94.11051058436882
 30
0.0
 11
269.9711517140081
 21
95.02607486939968
 31
0.0
  0
LINE
  5
EF7C89A4E
330
EF7C85532
100
AcDbEntity
  8
JISSEN
100
AcDbLine
 10
268.704005004786
 20
94.11051058436882
 30
0.0
 11
271.4999989140001
 21
94.11051058436882
 31
0.0
  0
LINE
  5
EF7C89A54
330
EF7C85532
100
AcDbEntity
  8
JISSEN
100
AcDbLine
 10
273.9444103990229
 20
94.11051058436882
 30
0.0
 11
273.0265678966944
 21
95.02835308669748
 31
0.0
  0
ARC
  5
EF7C89A5A
330
EF7C85532
100
AcDbEntity
  8
JISSEN
100
AcDbCircle
 10
279.4999989140001
 20
114.6117745359482
 30
0.0
 40
28.0
100
AcDbArc
 50
180.0
 51
202.024312837042
  0
ARC
  5
EF7C89A5B
330
EF7C85532
100
AcDbEntity
  8
JISSEN
100
AcDbCircle
 10
279.4999989140001
 20
114.6117745359482
 30
0.0
 40
26.0
100
AcDbArc
 50
173.5656684449006
 51
203.8188413934569
  0
ARC
  5
EF7C89A62
330
EF7C85532
100
AcDbEntity
  8
JISSEN
100
AcDbCircle
 10
263.4999989140001
 20
114.6117745359482
 30
0.0
 40
26.0
100
AcDbArc
 50
336.181158606543
 51
0.7891762481350204
  0
ARC
  5
EF7C89A63
330
EF7C85532
100
AcDbEntity
  8
JISSEN
100
AcDbCircle
 10
263.4999989140001
 20
114.6117745359482
 30
0.0
 40
28.0
100
AcDbArc
 50
337.9756871629579
 51
0.0
  0
LINE
  5
EF7C89AB6
330
EF7C85532
100
AcDbEntity
  8
JISSEN
100
AcDbLine
 10
278.8273322481998
 20
123.5523632918373
 30
0.0
 11
264.2398722264601
 21
123.5523632918368
 31
0.0
  0
TEXT
  5
EF7C89AB7
330
EF7C85532
100
AcDbEntity
  8
JISSEN
100
AcDbText
 10
266.419034532553
 20
131.806436773799
 30
0.0
 40
3.0
  1
E
 50
180.0
  7
K
 72
     4
 11
264.919034532553
 21
130.306436773799
 31
0.0
100
AcDbText
  0
LINE
  5
EF7C89AB8
330
EF7C85532
100
AcDbEntity
  8
JISSEN
100
AcDbLine
 10
263.5336022373296
 20
125.8811013381441
 30
0.0
 11
279.5336022373296
 21
125.8811013381441
 31
0.0
  0
LINE
  5
EF7C89AB9
330
EF7C85532
100
AcDbEntity
  8
JISSEN
100
AcDbLine
 10
262.2336022373295
 20
127.4811013381441
 30
0.0
 11
270.0336022373296
 21
127.4811013381441
 31
0.0
  0
LINE
  5
EF7C89ABA
330
EF7C85532
100
AcDbEntity
  8
JISSEN
100
AcDbLine
 10
279.8836022373295
 20
124.1622010543979
 30
0.0
 11
263.1836022373296
 21
124.1622010543979
 31
0.0
  0
LINE
  5
EF7C89ABB
330
EF7C85532
100
AcDbEntity
  8
JISSEN
100
AcDbLine
 10
260.0336022373296
 20
133.4811013381441
 30
0.0
 11
269.1249989140001
 21
133.4811013381441
 31
0.0
  0
LINE
  5
EF7C89ABD
330
EF7C85532
100
AcDbEntity
  8
JISSEN
100
AcDbLine
 10
284.937080969927
 20
136.580075296806
 30
0.0
 11
258.1301235047323
 21
136.5800752968059
 31
0.0
  0
LINE
  5
EF7C89ABE
330
EF7C85532
100
AcDbEntity
  8
JISSEN
100
AcDbLine
 10
260.0336022373296
 20
135.4811013381441
 30
0.0
 11
283.0336022373296
 21
135.4811013381441
 31
0.0
  0
LINE
  5
EF7C89ABF
330
EF7C85532
100
AcDbEntity
  8
JISSEN
100
AcDbLine
 10
260.0336022373296
 20
132.3035813898644
 30
0.0
 11
260.0336022373296
 21
135.4811013381441
 31
0.0
  0
LINE
  5
EF7C89AC0
330
EF7C85532
100
AcDbEntity
  8
JISSEN
100
AcDbLine
 10
262.2336022373295
 20
133.4811013381441
 30
0.0
 11
262.2336022373295
 21
127.4811013381441
 31
0.0
  0
LINE
  5
EF7C89AC1
330
EF7C85532
100
AcDbEntity
  8
JISSEN
100
AcDbLine
 10
263.5336022373296
 20
127.4811013381441
 30
0.0
 11
263.5336022373296
 21
125.8811013381441
 31
0.0
  0
ARC
  5
EF7C89AC2
330
EF7C85532
100
AcDbEntity
  8
JISSEN
100
AcDbCircle
 10
260.5261281910753
 20
122.6313049826629
 30
0.0
 40
5.0
100
AcDbArc
 50
104.6790800521975
 51
126.6829888003599
  0
LINE
  5
EF7C89AC3
330
EF7C85532
100
AcDbEntity
  8
JISSEN
100
AcDbLine
 10
263.1836022373296
 20
124.162201054398
 30
0.0
 11
263.1836022373296
 21
124.5789648289306
 31
0.0
  0
LINE
  5
EF7C89AC4
330
EF7C85532
100
AcDbEntity
  8
JISSEN
100
AcDbLine
 10
263.1836022373296
 20
124.162201054398
 30
0.0
 11
264.2398722264599
 21
123.552363291837
 31
0.0
  0
ARC
  5
EF7C89AC5
330
EF7C85532
100
AcDbEntity
  8
JISSEN
100
AcDbCircle
 10
262.6836022373296
 20
124.5789648289306
 30
0.0
 40
0.5
100
AcDbArc
 50
0.0
 51
111.1546302653318
  0
ARC
  5
EF7C89AC7
330
EF7C85532
100
AcDbEntity
  8
JISSEN
100
AcDbCircle
 10
259.0336022373296
 20
132.3035813898644
 30
0.0
 40
1.0
100
AcDbArc
 50
294.6243183521636
 51
0.0
  0
ARC
  5
EF7C89AC8
330
EF7C85532
100
AcDbEntity
  8
JISSEN
100
AcDbCircle
 10
257.6122503823317
 20
133.7548918643246
 30
0.0
 40
6.498907295833106
100
AcDbArc
 50
284.6790800521976
 51
314.9044140176817
  0
LINE
  5
EF7C89ACB
330
EF7C85532
100
AcDbEntity
  8
JISSEN
100
AcDbLine
 10
260.0336022373296
 20
135.4811013381441
 30
0.0
 11
258.1301235047323
 21
136.5800752968059
 31
0.0
  0
LINE
  5
EF7C89ACC
330
EF7C85532
100
AcDbEntity
  8
JISSEN
100
AcDbLine
 10
283.0336022373296
 20
132.3035813898644
 30
0.0
 11
283.0336022373296
 21
135.4811013381441
 31
0.0
  0
LINE
  5
EF7C89ACD
330
EF7C85532
100
AcDbEntity
  8
JISSEN
100
AcDbLine
 10
280.8336022373296
 20
133.4811013381441
 30
0.0
 11
280.8336022373296
 21
127.4811013381441
 31
0.0
  0
LINE
  5
EF7C89ACE
330
EF7C85532
100
AcDbEntity
  8
JISSEN
100
AcDbLine
 10
275.5336022373296
 20
133.4811013381441
 30
0.0
 11
275.5336022373296
 21
127.4811013381441
 31
0.0
  0
LINE
  5
EF7C89ACF
330
EF7C85532
100
AcDbEntity
  8
JISSEN
100
AcDbLine
 10
267.5336022373296
 20
133.4811013381441
 30
0.0
 11
267.5336022373296
 21
127.4811013381441
 31
0.0
  0
ARC
  5
EF7C89AD0
330
EF7C85532
100
AcDbEntity
  8
JISSEN
100
AcDbCircle
 10
280.3836022373295
 20
124.5789648289306
 30
0.0
 40
0.5
100
AcDbArc
 50
68.84536973466818
 51
180.0
  0
LINE
  5
EF7C89AD2
330
EF7C85532
100
AcDbEntity
  8
JISSEN
100
AcDbLine
 10
273.0336022373296
 20
127.4811013381441
 30
0.0
 11
280.8336022373296
 21
127.4811013381441
 31
0.0
  0
LINE
  5
EF7C89AD4
330
EF7C85532
100
AcDbEntity
  8
JISSEN
100
AcDbLine
 10
279.5336022373296
 20
127.4811013381441
 30
0.0
 11
279.5336022373296
 21
125.8811013381441
 31
0.0
  0
LINE
  5
EF7C89AD6
330
EF7C85532
100
AcDbEntity
  8
JISSEN
100
AcDbLine
 10
273.0336022373296
 20
127.4811013381441
 30
0.0
 11
273.0336022373296
 21
125.8811013381441
 31
0.0
  0
LINE
  5
EF7C89AD8
330
EF7C85532
100
AcDbEntity
  8
JISSEN
100
AcDbLine
 10
270.0336022373296
 20
127.4811013381441
 30
0.0
 11
270.0336022373296
 21
125.8811013381441
 31
0.0
  0
LINE
  5
EF7C89ADC
330
EF7C85532
100
AcDbEntity
  8
JISSEN
100
AcDbLine
 10
279.8836022373295
 20
124.162201054398
 30
0.0
 11
279.8836022373295
 21
124.5789648289306
 31
0.0
  0
LINE
  5
EF7C89ADD
330
EF7C85532
100
AcDbEntity
  8
JISSEN
100
AcDbLine
 10
279.8836022373295
 20
124.162201054398
 30
0.0
 11
278.8273322481992
 21
123.552363291837
 31
0.0
  0
ARC
  5
EF7C89AE9
330
EF7C85532
100
AcDbEntity
  8
JISSEN
100
AcDbCircle
 10
282.4738696369247
 20
122.6313049826629
 30
0.0
 40
5.0
100
AcDbArc
 50
53.31701119964003
 51
75.32091994780239
  0
ARC
  5
EF7C89AEA
330
EF7C85532
100
AcDbEntity
  8
JISSEN
100
AcDbCircle
 10
284.0336022373296
 20
132.3035813898644
 30
0.0
 40
1.0
100
AcDbArc
 50
180.0
 51
245.3756816478349
  0
ARC
  5
EF7C89AEB
330
EF7C85532
100
AcDbEntity
  8
JISSEN
100
AcDbCircle
 10
285.3877474456684
 20
133.7548918643245
 30
0.0
 40
6.498907295833106
100
AcDbArc
 50
225.0955859823182
 51
255.3209199478024
  0
LINE
  5
EF7C89AEC
330
EF7C85532
100
AcDbEntity
  8
JISSEN
100
AcDbLine
 10
273.8749989140001
 20
133.4811013381441
 30
0.0
 11
283.0336022373296
 21
133.4811013381441
 31
0.0
  0
LINE
  5
EF7C89AED
330
EF7C85532
100
AcDbEntity
  8
JISSEN
100
AcDbLine
 10
269.1249989140001
 20
133.4811013381441
 30
0.0
 11
269.1249989140001
 21
135.4811013381441
 31
0.0
  0
LINE
  5
EF7C89AEE
330
EF7C85532
100
AcDbEntity
  8
JISSEN
100
AcDbLine
 10
273.8749989140001
 20
133.4811013381441
 30
0.0
 11
273.8749989140001
 21
135.4811013381441
 31
0.0
  0
LINE
  5
EF7C89AF1
330
EF7C85532
100
AcDbEntity
  8
JISSEN
100
AcDbLine
 10
283.0336022373296
 20
135.4811013381441
 30
0.0
 11
284.937080969927
 21
136.580075296806
 31
0.0
  0
TEXT
  5
EF7C89CC6
330
EF7C85532
100
AcDbEntity
  8
SUNPOU
100
AcDbText
 10
332.0437947214985
 20
2.849423898685245
 30
0.0
 40
3.0
  1
尺度　1/1
  7
K
100
AcDbText
  0
TEXT
  5
EF7C89CC7
330
EF7C85532
100
AcDbEntity
  8
SUNPOU
100
AcDbText
 10
332.0437947214985
 20
7.849423898685245
 30
0.0
 40
3.0
  1
EPQR 作動状態
  7
K
100
AcDbText
  0
LINE
  5
EF7C89CC8
330
EF7C85532
100
AcDbEntity
  8
NITEN
100
AcDbLine
 10
247.999998914
 20
180.0916502438679
 30
0.0
 11
247.999998914
 21
159.6376662700859
 31
0.0
  0
LINE
  5
EF7C89CC9
330
EF7C85532
100
AcDbEntity
  8
NITEN
100
AcDbLine
 10
294.9999989140001
 20
159.6376662700859
 30
0.0
 11
294.999998914
 21
180.0916502438679
 31
0.0
  0
LINE
  5
EF7C89D03
330
EF7C85532
100
AcDbEntity
  8
JISSEN
100
AcDbLine
 10
258.5489569967762
 20
149.9820772834362
 30
0.0
 11
260.6114296203699
 21
151.9811013381442
 31
0.0
  0
LINE
  5
EF7C89D08
330
EF7C85532
100
AcDbEntity
  8
JISSEN
100
AcDbLine
 10
284.518247477883
 20
149.9820772834362
 30
0.0
 11
258.5489569967762
 21
149.9820772834362
 31
0.0
  0
LINE
  5
EF7C89D0A
330
EF7C85532
100
AcDbEntity
  8
JISSEN
100
AcDbLine
 10
284.937080969927
 20
136.580075296806
 30
0.0
 11
258.1301235047323
 21
136.580075296806
 31
0.0
  0
LINE
  5
EF7C89D0E
330
EF7C85532
100
AcDbEntity
  8
NITEN
100
AcDbLine
 10
256.4999989139999
 20
140.0916502438679
 30
0.0
 11
286.4999989140001
 21
140.0916502438679
 31
0.0
  0
ARC
  5
EF7C89D19
330
EF7C85532
100
AcDbEntity
  8
NITEN
100
AcDbCircle
 10
249.999998914
 20
152.6376662700859
 30
0.0
 40
5.0
100
AcDbArc
 50
0.0
 51
90.0
  0
LINE
  5
EF7C89D1A
330
EF7C85532
100
AcDbEntity
  8
SAISEN
100
AcDbLine
 10
259.2793872272616
 20
135.9165475772338
 30
0.0
 11
259.7555034815784
 21
151.1515063554402
 31
0.0
  0
LINE
  5
EF7C89D1B
330
EF7C85532
100
AcDbEntity
  8
JISSEN
100
AcDbLine
 10
258.1301235047323
 20
136.580075296806
 30
0.0
 11
258.5489569967762
 21
149.9820772834362
 31
0.0
  0
LINE
  5
EF7C89D1C
330
EF7C85532
100
AcDbEntity
  8
NITEN
100
AcDbLine
 10
254.9999989140001
 20
152.6376662700859
 30
0.0
 11
254.9999989140001
 21
141.5916502438679
 31
0.0
  0
ARC
  5
EF7C89D1E
330
EF7C85532
100
AcDbEntity
  8
NITEN
100
AcDbCircle
 10
256.4999989139999
 20
141.5916502438679
 30
0.0
 40
1.499999999999943
100
AcDbArc
 50
179.9999999999989
 51
270.0
  0
ARC
  5
EF7C89D1F
330
EF7C85532
100
AcDbEntity
  8
NITEN
100
AcDbCircle
 10
249.999998914
 20
159.6376662700859
 30
0.0
 40
2.0
100
AcDbArc
 50
180.0
 51
270.0
  0
ARC
  5
EF7C89DC4
330
EF7C85532
100
AcDbEntity
  8
NITEN
100
AcDbCircle
 10
292.999998914
 20
152.6376662700859
 30
0.0
 40
5.0
100
AcDbArc
 50
90.0
 51
180.0
  0
LINE
  5
EF7C89DC5
330
EF7C85532
100
AcDbEntity
  8
JISSEN
100
AcDbLine
 10
282.4557748542892
 20
151.9811013381442
 30
0.0
 11
260.61142962037
 21
151.9811013381442
 31
0.0
  0
LINE
  5
EF7C89DC6
330
EF7C85532
100
AcDbEntity
  8
JISSEN
100
AcDbLine
 10
260.6114296203699
 20
151.9811013381442
 30
0.0
 11
282.4557748542892
 21
151.9811013381442
 31
0.0
  0
LINE
  5
EF7C89DCA
330
EF7C85532
100
AcDbEntity
  8
SAISEN
100
AcDbLine
 10
283.7878172473977
 20
135.9165475772338
 30
0.0
 11
283.3117009930807
 21
151.1515063554402
 31
0.0
  0
LINE
  5
EF7C89DCB
330
EF7C85532
100
AcDbEntity
  8
JISSEN
100
AcDbLine
 10
284.937080969927
 20
136.580075296806
 30
0.0
 11
284.518247477883
 21
149.9820772834362
 31
0.0
  0
LINE
  5
EF7C89DCC
330
EF7C85532
100
AcDbEntity
  8
NITEN
100
AcDbLine
 10
287.9999989140001
 20
141.5916502438679
 30
0.0
 11
287.9999989140001
 21
152.6376662700859
 31
0.0
  0
ARC
  5
EF7C89DCE
330
EF7C85532
100
AcDbEntity
  8
NITEN
100
AcDbCircle
 10
286.4999989140001
 20
141.5916502438679
 30
0.0
 40
1.5
100
AcDbArc
 50
270.0
 51
0.0
  0
LINE
  5
EF7C89DCF
330
EF7C85532
100
AcDbEntity
  8
NITEN
100
AcDbLine
 10
282.0940500849966
 20
140.0916502438679
 30
0.0
 11
283.9999989140001
 21
140.0916502438679
 31
0.0
  0
LINE
  5
EF7C89DD0
330
EF7C85532
100
AcDbEntity
  8
JISSEN
100
AcDbLine
 10
284.518247477883
 20
149.9820772834362
 30
0.0
 11
282.4557748542892
 21
151.9811013381442
 31
0.0
  0
ARC
  5
EF7C89DD1
330
EF7C85532
100
AcDbEntity
  8
NITEN
100
AcDbCircle
 10
292.999998914
 20
159.6376662700859
 30
0.0
 40
2.0
100
AcDbArc
 50
270.0
 51
0.0
  0
ARC
  5
EF7C89DD2
330
EF7C85532
100
AcDbEntity
  8
NITEN
100
AcDbCircle
 10
261.7499989140002
 20
196.0793678950136
 30
0.0
 40
11.91574588517225
100
AcDbArc
 50
35.09050030012443
 51
144.9094996998772
  0
LINE
  5
EF7C89DD3
330
EF7C85532
100
AcDbEntity
  8
NITEN
100
AcDbLine
 10
292.999998914
 20
182.0916502438679
 30
0.0
 11
249.999998914
 21
182.0916502438679
 31
0.0
  0
LINE
  5
EF7C89DD4
330
EF7C85532
100
AcDbEntity
  8
NITEN
100
AcDbLine
 10
251.999998914
 20
202.9293678950135
 30
0.0
 11
251.999998914
 21
182.0916502438679
 31
0.0
  0
ARC
  5
EF7C89DD5
330
EF7C85532
100
AcDbEntity
  8
NITEN
100
AcDbCircle
 10
249.999998914
 20
180.0916502438679
 30
0.0
 40
2.0
100
AcDbArc
 50
90.0
 51
180.0
  0
ARC
  5
EF7C89DD6
330
EF7C85532
100
AcDbEntity
  8
NITEN
100
AcDbCircle
 10
281.2499989140001
 20
209.7793678950138
 30
0.0
 40
11.91574588517228
100
AcDbArc
 50
215.0905003001236
 51
324.9094996998763
  0
LWPOLYLINE
  5
EF7C89DD7
330
EF7C85532
100
AcDbEntity
  8
NITEN
100
AcDbPolyline
 90
        2
 70
     0
 43
0.0
 10
290.9999989140001
 20
202.9293678950138
 42
0.5195636805304642
 10
271.4999989140001
 20
202.9293678950139
 42
0.5882352941176294
  0
LINE
  5
EF7C89DD8
330
EF7C85532
100
AcDbEntity
  8
NITEN
100
AcDbLine
 10
290.9999989140001
 20
182.0916502438679
 30
0.0
 11
290.9999989140001
 21
202.9293678950137
 31
0.0
  0
ARC
  5
EF7C89DD9
330
EF7C85532
100
AcDbEntity
  8
NITEN
100
AcDbCircle
 10
292.999998914
 20
180.0916502438679
 30
0.0
 40
1.999999999999971
100
AcDbArc
 50
359.9999999999992
 51
89.9999999999992
  0
ENDSEC
  0
SECTION
  2
OBJECTS
  0
DICTIONARY
  5
EF7C85527
330
0
100
AcDbDictionary
  3
ACAD_GROUP
350
EF7C85528
  3
ACAD_LAYOUT
350
EF7C85BB7
  3
ACAD_MLINESTYLE
350
EF7C85535
  3
ACAD_PLOTSETTINGS
350
EF7C85BB8
  3
ACAD_PLOTSTYLENAME
350
EF7C85BB5
  3
ACDBHEADERROUNDTRIPXREC
350
EF7C89E1F
  3
ACDBVARIABLEDICTIONARY
350
EF7C85DB7
  0
DICTIONARY
  5
EF7C85D9A
330
EF7C85532
100
AcDbDictionary
280
     1
  3
ACAD_LAYOUTSELFREF
360
EF7C89E41
  0
DICTIONARY
  5
EF7C85D98
330
EF7C8552F
100
AcDbDictionary
280
     1
  3
ACAD_LAYOUTSELFREF
360
EF7C89E40
  0
DICTIONARY
  5
EF7C85528
102
{ACAD_REACTORS
330
EF7C85527
102
}
330
EF7C85527
100
AcDbDictionary
  0
DICTIONARY
  5
EF7C85BB7
102
{ACAD_REACTORS
330
EF7C85527
102
}
330
EF7C85527
100
AcDbDictionary
  0
DICTIONARY
  5
EF7C85535
102
{ACAD_REACTORS
330
EF7C85527
102
}
330
EF7C85527
100
AcDbDictionary
  3
STANDARD
350
EF7C85536
  0
DICTIONARY
  5
EF7C85BB8
102
{ACAD_REACTORS
330
EF7C85527
102
}
330
EF7C85527
100
AcDbDictionary
  0
ACDBDICTIONARYWDFLT
  5
EF7C85BB5
102
{ACAD_REACTORS
330
EF7C85527
102
}
330
EF7C85527
100
AcDbDictionary
281
     1
  3
Normal
350
EF7C85BB6
100
AcDbDictionaryWithDefault
340
EF7C85BB6
  0
DICTIONARY
  5
EF7C89E1F
102
{ACAD_REACTORS
330
EF7C85527
102
}
330
EF7C85527
100
AcDbDictionary
  3
CEPSNTYPE
350
EF7C89E29
  3
DIMSTYLEDATA
350
EF7C89E2D
  3
FINGERPRINTGUID
350
EF7C89E2A
  3
HYPERLINKBASE
350
EF7C89E22
  3
INSUNITS
350
EF7C89E28
  3
LAYOUTDICT
350
EF7C89E24
  3
LWETCUNION
350
EF7C89E27
  3
PLOTSETDICT
350
EF7C89E25
  3
PLOTSTYLNAMDICT
350
EF7C89E26
  3
PSVPSCALE
350
EF7C89E2C
  3
PUCSBASE
350
EF7C89E30
  3
PUCSORGBACK
350
EF7C89E36
  3
PUCSORGBOTTOM
350
EF7C89E32
  3
PUCSORGFRONT
350
EF7C89E35
  3
PUCSORGLEFT
350
EF7C89E33
  3
PUCSORGRIGHT
350
EF7C89E34
  3
PUCSORGTOP
350
EF7C89E31
  3
PUCSORTHOREF
350
EF7C89E2E
  3
PUCSORTHOVIEW
350
EF7C89E2F
  3
STYLESHEET
350
EF7C89E23
  3
TSTACKALIGN
350
EF7C89E20
  3
TSTACKSIZE
350
EF7C89E21
  3
UCSBASE
350
EF7C89E39
  3
UCSORGBACK
350
EF7C89E3F
  3
UCSORGBOTTOM
350
EF7C89E3B
  3
UCSORGFRONT
350
EF7C89E3E
  3
UCSORGLEFT
350
EF7C89E3C
  3
UCSORGRIGHT
350
EF7C89E3D
  3
UCSORGTOP
350
EF7C89E3A
  3
UCSORTHOREF
350
EF7C89E37
  3
UCSORTHOVIEW
350
EF7C89E38
  3
VERSIONGUID
350
EF7C89E2B
  0
DICTIONARY
  5
EF7C85DB7
102
{ACAD_REACTORS
330
EF7C85527
102
}
330
EF7C85527
100
AcDbDictionary
  3
DIMASSOC
350
EF7C89E1D
  3
SORTENTS
350
EF7C85DB8
  0
XRECORD
  5
EF7C89E41
102
{ACAD_REACTORS
330
EF7C85D9A
102
}
330
EF7C85D9A
100
AcDbXrecord
340
EF7C85532
  0
XRECORD
  5
EF7C89E40
102
{ACAD_REACTORS
330
EF7C85D98
102
}
330
EF7C85D98
100
AcDbXrecord
340
EF7C8552F
  0
MLINESTYLE
  5
EF7C85536
102
{ACAD_REACTORS
330
EF7C85535
102
}
330
EF7C85535
100
AcDbMlineStyle
  2
STANDARD
 70
     0
  3

 62
   256
 51
90.0
 52
90.0
 71
     2
 49
0.5
 62
   256
  6
BYLAYER
 49
-0.5
 62
   256
  6
BYLAYER
  0
ACDBPLACEHOLDER
  5
EF7C85BB6
102
{ACAD_REACTORS
330
EF7C85BB5
102
}
330
EF7C85BB5
100
AcDbPlaceHolder
280
     0
  0
XRECORD
  5
EF7C89E29
102
{ACAD_REACTORS
330
EF7C89E1F
102
}
330
EF7C89E1F
100
AcDbXrecord
 90
        0
  0
XRECORD
  5
EF7C89E2D
102
{ACAD_REACTORS
330
EF7C89E1F
102
}
330
EF7C89E1F
100
AcDbXrecord
1000
DSTYLE
1002
{
1070
   279
 70
     2
1070
   341
340
EF7C85537
1070
   342
340
EF7C85537
1070
   343
340
EF7C85543
1070
   344
340
EF7C85543
1002
}
  0
XRECORD
  5
EF7C89E2A
102
{ACAD_REACTORS
330
EF7C89E1F
102
}
330
EF7C89E1F
100
AcDbXrecord
  1
{09AA4C7A-3D6F-4857-A850-771461888CEC}
  0
XRECORD
  5
EF7C89E22
102
{ACAD_REACTORS
330
EF7C89E1F
102
}
330
EF7C89E1F
100
AcDbXrecord
  1

  0
XRECORD
  5
EF7C89E28
102
{ACAD_REACTORS
330
EF7C89E1F
102
}
330
EF7C89E1F
100
AcDbXrecord
 90
        0
  0
XRECORD
  5
EF7C89E24
102
{ACAD_REACTORS
330
EF7C89E1F
102
}
330
EF7C89E1F
100
AcDbXrecord
340
EF7C85BB7
  0
XRECORD
  5
EF7C89E27
102
{ACAD_REACTORS
330
EF7C89E1F
102
}
330
EF7C89E1F
100
AcDbXrecord
 90
    14877
  0
XRECORD
  5
EF7C89E25
102
{ACAD_REACTORS
330
EF7C89E1F
102
}
330
EF7C89E1F
100
AcDbXrecord
340
EF7C85BB8
  0
XRECORD
  5
EF7C89E26
102
{ACAD_REACTORS
330
EF7C89E1F
102
}
330
EF7C89E1F
100
AcDbXrecord
340
EF7C85BB5
  0
XRECORD
  5
EF7C89E2C
102
{ACAD_REACTORS
330
EF7C89E1F
102
}
330
EF7C89E1F
100
AcDbXrecord
 40
0.0
  0
XRECORD
  5
EF7C89E30
102
{ACAD_REACTORS
330
EF7C89E1F
102
}
330
EF7C89E1F
100
AcDbXrecord
340
0
  0
XRECORD
  5
EF7C89E36
102
{ACAD_REACTORS
330
EF7C89E1F
102
}
330
EF7C89E1F
100
AcDbXrecord
 10
0.0
 20
0.0
 30
0.0
  0
XRECORD
  5
EF7C89E32
102
{ACAD_REACTORS
330
EF7C89E1F
102
}
330
EF7C89E1F
100
AcDbXrecord
 10
0.0
 20
0.0
 30
0.0
  0
XRECORD
  5
EF7C89E35
102
{ACAD_REACTORS
330
EF7C89E1F
102
}
330
EF7C89E1F
100
AcDbXrecord
 10
0.0
 20
0.0
 30
0.0
  0
XRECORD
  5
EF7C89E33
102
{ACAD_REACTORS
330
EF7C89E1F
102
}
330
EF7C89E1F
100
AcDbXrecord
 10
0.0
 20
0.0
 30
0.0
  0
XRECORD
  5
EF7C89E34
102
{ACAD_REACTORS
330
EF7C89E1F
102
}
330
EF7C89E1F
100
AcDbXrecord
 10
0.0
 20
0.0
 30
0.0
  0
XRECORD
  5
EF7C89E31
102
{ACAD_REACTORS
330
EF7C89E1F
102
}
330
EF7C89E1F
100
AcDbXrecord
 10
0.0
 20
0.0
 30
0.0
  0
XRECORD
  5
EF7C89E2E
102
{ACAD_REACTORS
330
EF7C89E1F
102
}
330
EF7C89E1F
100
AcDbXrecord
340
0
  0
XRECORD
  5
EF7C89E2F
102
{ACAD_REACTORS
330
EF7C89E1F
102
}
330
EF7C89E1F
100
AcDbXrecord
 70
     0
  0
XRECORD
  5
EF7C89E23
102
{ACAD_REACTORS
330
EF7C89E1F
102
}
330
EF7C89E1F
100
AcDbXrecord
  1

  0
XRECORD
  5
EF7C89E20
102
{ACAD_REACTORS
330
EF7C89E1F
102
}
330
EF7C89E1F
100
AcDbXrecord
 90
        1
  0
XRECORD
  5
EF7C89E21
102
{ACAD_REACTORS
330
EF7C89E1F
102
}
330
EF7C89E1F
100
AcDbXrecord
 90
       70
  0
XRECORD
  5
EF7C89E39
102
{ACAD_REACTORS
330
EF7C89E1F
102
}
330
EF7C89E1F
100
AcDbXrecord
340
0
  0
XRECORD
  5
EF7C89E3F
102
{ACAD_REACTORS
330
EF7C89E1F
102
}
330
EF7C89E1F
100
AcDbXrecord
 10
0.0
 20
0.0
 30
0.0
  0
XRECORD
  5
EF7C89E3B
102
{ACAD_REACTORS
330
EF7C89E1F
102
}
330
EF7C89E1F
100
AcDbXrecord
 10
0.0
 20
0.0
 30
0.0
  0
XRECORD
  5
EF7C89E3E
102
{ACAD_REACTORS
330
EF7C89E1F
102
}
330
EF7C89E1F
100
AcDbXrecord
 10
0.0
 20
0.0
 30
0.0
  0
XRECORD
  5
EF7C89E3C
102
{ACAD_REACTORS
330
EF7C89E1F
102
}
330
EF7C89E1F
100
AcDbXrecord
 10
0.0
 20
0.0
 30
0.0
  0
XRECORD
  5
EF7C89E3D
102
{ACAD_REACTORS
330
EF7C89E1F
102
}
330
EF7C89E1F
100
AcDbXrecord
 10
0.0
 20
0.0
 30
0.0
  0
XRECORD
  5
EF7C89E3A
102
{ACAD_REACTORS
330
EF7C89E1F
102
}
330
EF7C89E1F
100
AcDbXrecord
 10
0.0
 20
0.0
 30
0.0
  0
XRECORD
  5
EF7C89E37
102
{ACAD_REACTORS
330
EF7C89E1F
102
}
330
EF7C89E1F
100
AcDbXrecord
340
0
  0
XRECORD
  5
EF7C89E38
102
{ACAD_REACTORS
330
EF7C89E1F
102
}
330
EF7C89E1F
100
AcDbXrecord
 70
     0
  0
XRECORD
  5
EF7C89E2B
102
{ACAD_REACTORS
330
EF7C89E1F
102
}
330
EF7C89E1F
100
AcDbXrecord
  1
{6B73D733-BF54-40A7-87EE-368977472B0E}
  0
DICTIONARYVAR
  5
EF7C89E1D
102
{ACAD_REACTORS
330
EF7C85DB7
102
}
330
EF7C85DB7
100
DictionaryVariables
280
     0
  1
0
  0
DICTIONARYVAR
  5
EF7C85DB8
102
{ACAD_REACTORS
330
EF7C85DB7
102
}
330
EF7C85DB7
100
DictionaryVariables
280
     0
  1
96
  0
ENDSEC
  0
EOF
