  0
SECTION
  2
HEADER
  9
$ACADVER
  1
AC1014
  9
$ACADMAINTVER
 70
     9
  9
$DWGCODEPAGE
  3
ANSI_932
  9
$INSBASE
 10
0.0
 20
0.0
 30
0.0
  9
$EXTMIN
 10
0.0
 20
0.0
 30
0.0
  9
$EXTMAX
 10
361.999998552
 20
282.9999999999999
 30
0.0
  9
$LIMMIN
 10
0.0
 20
0.0
  9
$LIMMAX
 10
181.0
 20
283.0
  9
$ORTHOMODE
 70
     1
  9
$REGENMODE
 70
     1
  9
$FILLMODE
 70
     1
  9
$QTEXTMODE
 70
     0
  9
$MIRRTEXT
 70
     0
  9
$DRAGMODE
 70
     2
  9
$LTSCALE
 40
5.0
  9
$OSMODE
 70
   167
  9
$ATTMODE
 70
     1
  9
$TEXTSIZE
 40
3.0
  9
$TRACEWID
 40
0.05
  9
$TEXTSTYLE
  7
BIGFONT
  9
$CLAYER
  8
JISSEN
  9
$CELTYPE
  6
BYLAYER
  9
$CECOLOR
 62
   256
  9
$CELTSCALE
 40
1.0
  9
$DELOBJ
 70
     1
  9
$DISPSILH
 70
     0
  9
$DIMSCALE
 40
1.0
  9
$DIMASZ
 40
1.5
  9
$DIMEXO
 40
1.0
  9
$DIMDLI
 40
6.0
  9
$DIMRND
 40
0.0
  9
$DIMDLE
 40
0.0
  9
$DIMEXE
 40
1.0
  9
$DIMTP
 40
0.0
  9
$DIMTM
 40
0.0
  9
$DIMTXT
 40
3.0
  9
$DIMCEN
 40
1.0
  9
$DIMTSZ
 40
0.0
  9
$DIMTOL
 70
     0
  9
$DIMLIM
 70
     0
  9
$DIMTIH
 70
     0
  9
$DIMTOH
 70
     0
  9
$DIMSE1
 70
     0
  9
$DIMSE2
 70
     0
  9
$DIMTAD
 70
     0
  9
$DIMZIN
 70
     8
  9
$DIMBLK
  1
ARROW
  9
$DIMASO
 70
     0
  9
$DIMSHO
 70
     0
  9
$DIMPOST
  1

  9
$DIMAPOST
  1

  9
$DIMALT
 70
     0
  9
$DIMALTD
 70
     2
  9
$DIMALTF
 40
25.4
  9
$DIMLFAC
 40
1.0
  9
$DIMTOFL
 70
     1
  9
$DIMTVP
 40
0.0
  9
$DIMTIX
 70
     0
  9
$DIMSOXD
 70
     0
  9
$DIMSAH
 70
     0
  9
$DIMBLK1
  1
ARROWANG
  9
$DIMBLK2
  1
ARROWANG
  9
$DIMSTYLE
  2
IMAO
  9
$DIMCLRD
 70
     0
  9
$DIMCLRE
 70
     0
  9
$DIMCLRT
 70
     0
  9
$DIMTFAC
 40
1.0
  9
$DIMGAP
 40
0.09
  9
$DIMJUST
 70
     0
  9
$DIMSD1
 70
     0
  9
$DIMSD2
 70
     0
  9
$DIMTOLJ
 70
     1
  9
$DIMTZIN
 70
     8
  9
$DIMALTZ
 70
     8
  9
$DIMALTTZ
 70
     8
  9
$DIMFIT
 70
     5
  9
$DIMUPT
 70
     0
  9
$DIMUNIT
 70
     2
  9
$DIMDEC
 70
     2
  9
$DIMTDEC
 70
     2
  9
$DIMALTU
 70
     2
  9
$DIMALTTD
 70
     2
  9
$DIMTXSTY
  7
BIGFONT
  9
$DIMAUNIT
 70
     0
  9
$LUNITS
 70
     2
  9
$LUPREC
 70
     2
  9
$SKETCHINC
 40
0.1
  9
$FILLETRAD
 40
0.2
  9
$AUNITS
 70
     0
  9
$AUPREC
 70
     2
  9
$MENU
  1
stdr12j
  9
$ELEVATION
 40
0.0
  9
$PELEVATION
 40
0.0
  9
$THICKNESS
 40
0.0
  9
$LIMCHECK
 70
     0
  9
$BLIPMODE
 70
     0
  9
$CHAMFERA
 40
0.0
  9
$CHAMFERB
 40
0.0
  9
$CHAMFERC
 40
0.0
  9
$CHAMFERD
 40
0.0
  9
$SKPOLY
 70
     0
  9
$TDCREATE
 40
2450617.453041203
  9
$TDUPDATE
 40
2453334.773542511
  9
$TDINDWG
 40
0.1536081597
  9
$TDUSRTIMER
 40
0.1536081597
  9
$USRTIMER
 70
     1
  9
$ANGBASE
 50
0.0
  9
$ANGDIR
 70
     0
  9
$PDMODE
 70
     0
  9
$PDSIZE
 40
0.0
  9
$PLINEWID
 40
0.0
  9
$COORDS
 70
     2
  9
$SPLFRAME
 70
     0
  9
$SPLINETYPE
 70
     6
  9
$SPLINESEGS
 70
     8
  9
$ATTDIA
 70
     0
  9
$ATTREQ
 70
     1
  9
$HANDLING
 70
 22529
  9
$HANDSEED
  5
EF7C88D00
  9
$SURFTAB1
 70
     6
  9
$SURFTAB2
 70
     6
  9
$SURFTYPE
 70
     6
  9
$SURFU
 70
     6
  9
$SURFV
 70
     6
  9
$UCSNAME
  2

  9
$UCSORG
 10
0.0
 20
0.0
 30
0.0
  9
$UCSXDIR
 10
1.0
 20
0.0
 30
0.0
  9
$UCSYDIR
 10
0.0
 20
1.0
 30
0.0
  9
$PUCSNAME
  2

  9
$PUCSORG
 10
0.0
 20
0.0
 30
0.0
  9
$PUCSXDIR
 10
1.0
 20
0.0
 30
0.0
  9
$PUCSYDIR
 10
0.0
 20
1.0
 30
0.0
  9
$USERI1
 70
     0
  9
$USERI2
 70
     1
  9
$USERI3
 70
     1
  9
$USERI4
 70
     3
  9
$USERI5
 70
     0
  9
$USERR1
 40
1.0
  9
$USERR2
 40
3.0
  9
$USERR3
 40
3.0
  9
$USERR4
 40
1.5
  9
$USERR5
 40
8.0
  9
$WORLDVIEW
 70
     1
  9
$SHADEDGE
 70
     3
  9
$SHADEDIF
 70
    70
  9
$TILEMODE
 70
     1
  9
$MAXACTVP
 70
    16
  9
$PINSBASE
 10
0.0
 20
0.0
 30
0.0
  9
$PLIMCHECK
 70
     0
  9
$PEXTMIN
 10
1.000000000000000E+20
 20
1.000000000000000E+20
 30
1.000000000000000E+20
  9
$PEXTMAX
 10
-1.000000000000000E+20
 20
-1.000000000000000E+20
 30
-1.000000000000000E+20
  9
$PLIMMIN
 10
0.0
 20
0.0
  9
$PLIMMAX
 10
12.0
 20
9.0
  9
$UNITMODE
 70
     0
  9
$VISRETAIN
 70
     0
  9
$PLINEGEN
 70
     0
  9
$PSLTSCALE
 70
     0
  9
$TREEDEPTH
 70
  3020
  9
$PICKSTYLE
 70
     1
  9
$CMLSTYLE
  2
STANDARD
  9
$CMLJUST
 70
     0
  9
$CMLSCALE
 40
1.0
  9
$PROXYGRAPHICS
 70
     1
  9
$MEASUREMENT
 70
     0
  0
ENDSEC
  0
SECTION
  2
CLASSES
  0
CLASS
  1
LWPOLYLINE
  2
AcDbPolyline
  3
AutoCAD 2000
 90
        0
280
     0
281
     1
  0
CLASS
  1
HATCH
  2
AcDbHatch
  3
AutoCAD 2000
 90
        0
280
     0
281
     1
  0
CLASS
  1
ACDBDICTIONARYWDFLT
  2
AcDbDictionaryWithDefault
  3
AutoCAD 2000
 90
        0
280
     0
281
     0
  0
CLASS
  1
ACDBPLACEHOLDER
  2
AcDbPlaceHolder
  3
AutoCAD 2000
 90
        0
280
     0
281
     0
  0
CLASS
  1
LAYOUT
  2
AcDbLayout
  3
AutoCAD 2000
 90
        0
280
     0
281
     0
  0
CLASS
  1
LONG_TRANSACTION
  2
AcDbLongTransaction
  3
AutoCAD 2000
 90
        0
280
     0
281
     0
  0
CLASS
  1
LWPOLYLINE
  2
AcDbPolyline
  3
AutoCAD 2000
 90
        0
280
     0
281
     1
  0
CLASS
  1
HATCH
  2
AcDbHatch
  3
AutoCAD 2000
 90
        0
280
     0
281
     1
  0
CLASS
  1
XRECORD
  2
AcDbXrecord
  3
AutoCAD 2000
 90
        0
280
     0
281
     0
  0
CLASS
  1
DICTIONARYVAR
  2
AcDbDictionaryVar
  3
AutoCAD 2000
 90
        0
280
     0
281
     0
  0
CLASS
  1
LONG_TRANSACTION
  2
AcDbLongTransaction
  3
AutoCAD 2000
 90
        0
280
     0
281
     0
  0
CLASS
  1
LWPOLYLINE
  2
AcDbPolyline
  3
AutoCAD 2000
 90
        0
280
     0
281
     1
  0
CLASS
  1
HATCH
  2
AcDbHatch
  3
AutoCAD 2000
 90
        0
280
     0
281
     1
  0
CLASS
  1
XRECORD
  2
AcDbXrecord
  3
AutoCAD 2000
 90
        0
280
     0
281
     0
  0
CLASS
  1
LONG_TRANSACTION
  2
AcDbLongTransaction
  3
AutoCAD 2000
 90
        0
280
     0
281
     0
  0
CLASS
  1
LWPOLYLINE
  2
AcDbPolyline
  3
AutoCAD 2000
 90
        0
280
     0
281
     1
  0
CLASS
  1
HATCH
  2
AcDbHatch
  3
AutoCAD 2000
 90
        0
280
     0
281
     1
  0
CLASS
  1
XRECORD
  2
AcDbXrecord
  3
AutoCAD 2000
 90
        0
280
     0
281
     0
  0
CLASS
  1
LONG_TRANSACTION
  2
AcDbLongTransaction
  3
AutoCAD 2000
 90
        0
280
     0
281
     0
  0
CLASS
  1
LWPOLYLINE
  2
AcDbPolyline
  3
AutoCAD 2000
 90
        0
280
     0
281
     1
  0
CLASS
  1
HATCH
  2
AcDbHatch
  3
AutoCAD 2000
 90
        0
280
     0
281
     1
  0
CLASS
  1
XRECORD
  2
AcDbXrecord
  3
AutoCAD 2000
 90
        0
280
     0
281
     0
  0
CLASS
  1
LONG_TRANSACTION
  2
AcDbLongTransaction
  3
AutoCAD 2000
 90
        0
280
     0
281
     0
  0
CLASS
  1
LWPOLYLINE
  2
AcDbPolyline
  3
AutoCAD 2000
 90
        0
280
     0
281
     1
  0
CLASS
  1
HATCH
  2
AcDbHatch
  3
AutoCAD 2000
 90
        0
280
     0
281
     1
  0
CLASS
  1
XRECORD
  2
AcDbXrecord
  3
AutoCAD 2000
 90
        0
280
     0
281
     0
  0
CLASS
  1
LONG_TRANSACTION
  2
AcDbLongTransaction
  3
AutoCAD 2000
 90
        0
280
     0
281
     0
  0
CLASS
  1
LWPOLYLINE
  2
AcDbPolyline
  3
AutoCAD 2000
 90
        0
280
     0
281
     1
  0
CLASS
  1
HATCH
  2
AcDbHatch
  3
AutoCAD 2000
 90
        0
280
     0
281
     1
  0
CLASS
  1
XRECORD
  2
AcDbXrecord
  3
AutoCAD 2000
 90
        0
280
     0
281
     0
  0
CLASS
  1
LONG_TRANSACTION
  2
AcDbLongTransaction
  3
AutoCAD 2000
 90
        0
280
     0
281
     0
  0
CLASS
  1
LWPOLYLINE
  2
AcDbPolyline
  3
AutoCAD 2000
 90
        0
280
     0
281
     1
  0
CLASS
  1
HATCH
  2
AcDbHatch
  3
AutoCAD 2000
 90
        0
280
     0
281
     1
  0
CLASS
  1
XRECORD
  2
AcDbXrecord
  3
AutoCAD 2000
 90
        0
280
     0
281
     0
  0
CLASS
  1
LONG_TRANSACTION
  2
AcDbLongTransaction
  3
AutoCAD 2000
 90
        0
280
     0
281
     0
  0
CLASS
  1
LWPOLYLINE
  2
AcDbPolyline
  3
AutoCAD 2000
 90
        0
280
     0
281
     1
  0
CLASS
  1
HATCH
  2
AcDbHatch
  3
AutoCAD 2000
 90
        0
280
     0
281
     1
  0
CLASS
  1
XRECORD
  2
AcDbXrecord
  3
AutoCAD 2000
 90
        0
280
     0
281
     0
  0
CLASS
  1
LONG_TRANSACTION
  2
AcDbLongTransaction
  3
AutoCAD 2000
 90
        0
280
     0
281
     0
  0
CLASS
  1
LWPOLYLINE
  2
AcDbPolyline
  3
AutoCAD 2000
 90
        0
280
     0
281
     1
  0
CLASS
  1
HATCH
  2
AcDbHatch
  3
AutoCAD 2000
 90
        0
280
     0
281
     1
  0
CLASS
  1
XRECORD
  2
AcDbXrecord
  3
AutoCAD 2000
 90
        0
280
     0
281
     0
  0
CLASS
  1
LONG_TRANSACTION
  2
AcDbLongTransaction
  3
AutoCAD 2000
 90
        0
280
     0
281
     0
  0
CLASS
  1
LWPOLYLINE
  2
AcDbPolyline
  3
AutoCAD 2000
 90
        0
280
     0
281
     1
  0
CLASS
  1
HATCH
  2
AcDbHatch
  3
AutoCAD 2000
 90
        0
280
     0
281
     1
  0
CLASS
  1
XRECORD
  2
AcDbXrecord
  3
AutoCAD 2000
 90
        0
280
     0
281
     0
  0
CLASS
  1
LONG_TRANSACTION
  2
AcDbLongTransaction
  3
AutoCAD 2000
 90
        0
280
     0
281
     0
  0
CLASS
  1
LWPOLYLINE
  2
AcDbPolyline
  3
AutoCAD 2000
 90
        0
280
     0
281
     1
  0
CLASS
  1
HATCH
  2
AcDbHatch
  3
AutoCAD 2000
 90
        0
280
     0
281
     1
  0
CLASS
  1
XRECORD
  2
AcDbXrecord
  3
AutoCAD 2000
 90
        0
280
     0
281
     0
  0
CLASS
  1
LONG_TRANSACTION
  2
AcDbLongTransaction
  3
AutoCAD 2000
 90
        0
280
     0
281
     0
  0
CLASS
  1
LWPOLYLINE
  2
AcDbPolyline
  3
AutoCAD 2000
 90
        0
280
     0
281
     1
  0
CLASS
  1
HATCH
  2
AcDbHatch
  3
AutoCAD 2000
 90
        0
280
     0
281
     1
  0
CLASS
  1
XRECORD
  2
AcDbXrecord
  3
AutoCAD 2000
 90
        0
280
     0
281
     0
  0
CLASS
  1
LONG_TRANSACTION
  2
AcDbLongTransaction
  3
AutoCAD 2000
 90
        0
280
     0
281
     0
  0
CLASS
  1
LWPOLYLINE
  2
AcDbPolyline
  3
AutoCAD 2000
 90
        0
280
     0
281
     1
  0
CLASS
  1
HATCH
  2
AcDbHatch
  3
AutoCAD 2000
 90
        0
280
     0
281
     1
  0
CLASS
  1
XRECORD
  2
AcDbXrecord
  3
AutoCAD 2000
 90
        0
280
     0
281
     0
  0
CLASS
  1
LONG_TRANSACTION
  2
AcDbLongTransaction
  3
AutoCAD 2000
 90
        0
280
     0
281
     0
  0
CLASS
  1
LWPOLYLINE
  2
AcDbPolyline
  3
AutoCAD 2000
 90
        0
280
     0
281
     1
  0
CLASS
  1
HATCH
  2
AcDbHatch
  3
AutoCAD 2000
 90
        0
280
     0
281
     1
  0
CLASS
  1
XRECORD
  2
AcDbXrecord
  3
AutoCAD 2000
 90
        0
280
     0
281
     0
  0
CLASS
  1
LONG_TRANSACTION
  2
AcDbLongTransaction
  3
AutoCAD 2000
 90
        0
280
     0
281
     0
  0
CLASS
  1
LWPOLYLINE
  2
AcDbPolyline
  3
AutoCAD 2000
 90
        0
280
     0
281
     1
  0
CLASS
  1
HATCH
  2
AcDbHatch
  3
AutoCAD 2000
 90
        0
280
     0
281
     1
  0
CLASS
  1
XRECORD
  2
AcDbXrecord
  3
AutoCAD 2000
 90
        0
280
     0
281
     0
  0
ENDSEC
  0
SECTION
  2
TABLES
  0
TABLE
  2
VPORT
  5
EF7C85523
330
0
100
AcDbSymbolTable
 70
    10
  0
VPORT
  5
EF7C85567
330
EF7C85523
100
AcDbSymbolTableRecord
100
AcDbViewportTableRecord
  2
2
 70
     0
 10
0.5
 20
0.0
 11
1.0
 21
1.0
 12
0.9240312421264802
 22
1.052650975462766
 13
0.0
 23
0.0
 14
1.0
 24
1.0
 15
10.0
 25
10.0
 16
0.0
 26
0.0
 36
1.0
 17
0.0
 27
0.0
 37
0.0
 40
2.105301950925533
 41
0.8778135048231511
 42
50.0
 43
0.0
 44
0.0
 50
0.0
 51
0.0
 71
     0
 72
   500
 73
     1
 74
     1
 75
     0
 76
     0
 77
     0
 78
     0
  0
VPORT
  5
EF7C85568
330
EF7C85523
100
AcDbSymbolTableRecord
100
AcDbViewportTableRecord
  2
2
 70
     0
 10
0.0
 20
0.0
 11
0.5
 21
1.0
 12
0.9240312421264802
 22
1.052650975462766
 13
0.0
 23
0.0
 14
1.0
 24
1.0
 15
10.0
 25
10.0
 16
0.0
 26
0.0
 36
1.0
 17
0.0
 27
0.0
 37
0.0
 40
2.105301950925533
 41
0.8778135048231511
 42
50.0
 43
0.0
 44
0.0
 50
0.0
 51
0.0
 71
     0
 72
   500
 73
     1
 74
     1
 75
     0
 76
     0
 77
     0
 78
     0
  0
VPORT
  5
EF7C85569
330
EF7C85523
100
AcDbSymbolTableRecord
100
AcDbViewportTableRecord
  2
3
 70
     0
 10
0.0
 20
0.5
 11
1.0
 21
1.0
 12
2.832169994473273
 22
1.052650975462766
 13
0.0
 23
0.0
 14
1.0
 24
1.0
 15
10.0
 25
10.0
 16
0.0
 26
0.0
 36
1.0
 17
0.0
 27
0.0
 37
0.0
 40
2.105301950925533
 41
3.571428571428571
 42
50.0
 43
0.0
 44
0.0
 50
0.0
 51
0.0
 71
     0
 72
   500
 73
     1
 74
     1
 75
     0
 76
     0
 77
     0
 78
     0
  0
VPORT
  5
EF7C8556A
330
EF7C85523
100
AcDbSymbolTableRecord
100
AcDbViewportTableRecord
  2
3
 70
     0
 10
0.0
 20
0.0
 11
1.0
 21
0.5
 12
2.856741679241311
 22
1.052650975462766
 13
0.0
 23
0.0
 14
1.0
 24
1.0
 15
10.0
 25
10.0
 16
0.0
 26
0.0
 36
1.0
 17
0.0
 27
0.0
 37
0.0
 40
2.105301950925533
 41
3.594771241830065
 42
50.0
 43
0.0
 44
0.0
 50
0.0
 51
0.0
 71
     0
 72
   500
 73
     1
 74
     1
 75
     0
 76
     0
 77
     0
 78
     0
  0
VPORT
  5
EF7C8556B
330
EF7C85523
100
AcDbSymbolTableRecord
100
AcDbViewportTableRecord
  2
4
 70
     0
 10
0.5
 20
0.0
 11
1.0
 21
0.5
 12
2.886857516709719
 22
1.052650975462766
 13
0.0
 23
0.0
 14
1.0
 24
1.0
 15
10.0
 25
10.0
 16
0.0
 26
0.0
 36
1.0
 17
0.0
 27
0.0
 37
0.0
 40
4.27520703030907
 41
1.784313725490195
 42
50.0
 43
0.0
 44
0.0
 50
0.0
 51
0.0
 71
     0
 72
   500
 73
     1
 74
     1
 75
     0
 76
     0
 77
     0
 78
     0
  0
VPORT
  5
EF7C8556C
330
EF7C85523
100
AcDbSymbolTableRecord
100
AcDbViewportTableRecord
  2
4
 70
     0
 10
0.5
 20
0.5
 11
1.0
 21
1.0
 12
2.862090274555523
 22
1.052650975462766
 13
0.0
 23
0.0
 14
1.0
 24
1.0
 15
10.0
 25
10.0
 16
0.0
 26
0.0
 36
1.0
 17
0.0
 27
0.0
 37
0.0
 40
4.27520703030907
 41
1.772727272727272
 42
50.0
 43
0.0
 44
0.0
 50
0.0
 51
0.0
 71
     0
 72
   500
 73
     1
 74
     1
 75
     0
 76
     0
 77
     0
 78
     0
  0
VPORT
  5
EF7C8556D
330
EF7C85523
100
AcDbSymbolTableRecord
100
AcDbViewportTableRecord
  2
4
 70
     0
 10
0.0
 20
0.5
 11
0.5
 21
1.0
 12
2.862090274555523
 22
1.052650975462766
 13
0.0
 23
0.0
 14
1.0
 24
1.0
 15
10.0
 25
10.0
 16
0.0
 26
0.0
 36
1.0
 17
0.0
 27
0.0
 37
0.0
 40
4.27520703030907
 41
1.772727272727272
 42
50.0
 43
0.0
 44
0.0
 50
0.0
 51
0.0
 71
     0
 72
   500
 73
     1
 74
     1
 75
     0
 76
     0
 77
     0
 78
     0
  0
VPORT
  5
EF7C8556E
330
EF7C85523
100
AcDbSymbolTableRecord
100
AcDbViewportTableRecord
  2
4
 70
     0
 10
0.0
 20
0.0
 11
0.5
 21
0.5
 12
2.886857516709719
 22
1.052650975462766
 13
0.0
 23
0.0
 14
1.0
 24
1.0
 15
10.0
 25
10.0
 16
0.0
 26
0.0
 36
1.0
 17
0.0
 27
0.0
 37
0.0
 40
4.27520703030907
 41
1.784313725490195
 42
50.0
 43
0.0
 44
0.0
 50
0.0
 51
0.0
 71
     0
 72
   500
 73
     1
 74
     1
 75
     0
 76
     0
 77
     0
 78
     0
  0
VPORT
  5
EF7C88CDC
330
EF7C85523
100
AcDbSymbolTableRecord
100
AcDbViewportTableRecord
  2
*ACTIVE
 70
     0
 10
0.0
 20
0.0
 11
1.0
 21
1.0
 12
262.8457561321196
 22
141.5028203951366
 13
0.0
 23
0.0
 14
1.0
 24
1.0
 15
10.0
 25
10.0
 16
0.0
 26
0.0
 36
1.0
 17
0.0
 27
0.0
 37
0.0
 40
286.2727286106247
 41
1.771962616822429
 42
50.0
 43
0.0
 44
0.0
 50
0.0
 51
0.0
 71
     0
 72
   500
 73
     1
 74
     0
 75
     0
 76
     0
 77
     0
 78
     0
  0
ENDTAB
  0
TABLE
  2
LTYPE
  5
EF7C85520
330
0
100
AcDbSymbolTable
 70
     4
  0
LTYPE
  5
EF7C8552C
330
EF7C85520
100
AcDbSymbolTableRecord
100
AcDbLinetypeTableRecord
  2
BYBLOCK
 70
     0
  3

 72
    65
 73
     0
 40
0.0
  0
LTYPE
  5
EF7C8552D
330
EF7C85520
100
AcDbSymbolTableRecord
100
AcDbLinetypeTableRecord
  2
BYLAYER
 70
     0
  3

 72
    65
 73
     0
 40
0.0
  0
LTYPE
  5
EF7C8552E
330
EF7C85520
100
AcDbSymbolTableRecord
100
AcDbLinetypeTableRecord
  2
CONTINUOUS
 70
     0
  3
実線
 72
    65
 73
     0
 40
0.0
  0
LTYPE
  5
EF7C85565
330
EF7C85520
100
AcDbSymbolTableRecord
100
AcDbLinetypeTableRecord
  2
PHANTOM
 70
     0
  3
_____ _ _ _____ _ _ _____ _ _ _____ _ _ ____
 72
    65
 73
     6
 40
2.5
 49
1.25
 74
     0
 49
-0.25
 74
     0
 49
0.25
 74
     0
 49
-0.25
 74
     0
 49
0.25
 74
     0
 49
-0.25
 74
     0
  0
LTYPE
  5
EF7C8711F
330
EF7C85520
100
AcDbSymbolTableRecord
100
AcDbLinetypeTableRecord
  2
CENTER
 70
     0
  3
____ _ ____ _ ____ _ ____ _ ____ _ ____ _ ____
 72
    65
 73
     4
 40
2.0
 49
1.25
 74
     0
 49
-0.25
 74
     0
 49
0.25
 74
     0
 49
-0.25
 74
     0
  0
LTYPE
  5
EF7C87AC6
330
EF7C85520
100
AcDbSymbolTableRecord
100
AcDbLinetypeTableRecord
  2
HIDDEN
 70
     0
  3
_ _ _ _ _ _ _ _ _ _ _ _ _ _ _ _ _ _ _ _ _ _ _
 72
    65
 73
     2
 40
0.375
 49
0.25
 74
     0
 49
-0.125
 74
     0
  0
ENDTAB
  0
TABLE
  2
LAYER
  5
EF7C8551D
330
0
100
AcDbSymbolTable
 70
    11
  0
LAYER
  5
EF7C85529
330
EF7C8551D
100
AcDbSymbolTableRecord
100
AcDbLayerTableRecord
  2
0
 70
     0
 62
     6
  6
CONTINUOUS
  0
LAYER
  5
EF7C85574
330
EF7C8551D
100
AcDbSymbolTableRecord
100
AcDbLayerTableRecord
  2
NITEN
 70
     0
 62
     2
  6
PHANTOM
  0
LAYER
  5
EF7C85575
330
EF7C8551D
100
AcDbSymbolTableRecord
100
AcDbLayerTableRecord
  2
HATCH
 70
     0
 62
     4
  6
CONTINUOUS
  0
LAYER
  5
EF7C85576
330
EF7C8551D
100
AcDbSymbolTableRecord
100
AcDbLayerTableRecord
  2
SUNPOU
 70
     0
 62
     3
  6
CONTINUOUS
  0
LAYER
  5
EF7C85577
330
EF7C8551D
100
AcDbSymbolTableRecord
100
AcDbLayerTableRecord
  2
TEXT
 70
     0
 62
     3
  6
CONTINUOUS
  0
LAYER
  5
EF7C85578
330
EF7C8551D
100
AcDbSymbolTableRecord
100
AcDbLayerTableRecord
  2
SAISEN
 70
     0
 62
     4
  6
CONTINUOUS
  0
LAYER
  5
EF7C85579
330
EF7C8551D
100
AcDbSymbolTableRecord
100
AcDbLayerTableRecord
  2
JISSEN
 70
     0
 62
     7
  6
CONTINUOUS
  0
LAYER
  5
EF7C8557D
330
EF7C8551D
100
AcDbSymbolTableRecord
100
AcDbLayerTableRecord
  2
WAKU
 70
     0
 62
     5
  6
CONTINUOUS
  0
LAYER
  5
EF7C87120
330
EF7C8551D
100
AcDbSymbolTableRecord
100
AcDbLayerTableRecord
  2
ITTEN
 70
     0
 62
     1
  6
CENTER
  0
LAYER
  5
EF7C87AC7
330
EF7C8551D
100
AcDbSymbolTableRecord
100
AcDbLayerTableRecord
  2
TENSEN
 70
     0
 62
     2
  6
HIDDEN
  0
LAYER
  5
EF7C886FF
330
EF7C8551D
100
AcDbSymbolTableRecord
100
AcDbLayerTableRecord
  2
SCALE
 70
     0
 62
     7
  6
CONTINUOUS
  0
ENDTAB
  0
TABLE
  2
STYLE
  5
EF7C8551E
330
0
100
AcDbSymbolTable
 70
     3
  0
STYLE
  5
EF7C8552A
330
EF7C8551E
100
AcDbSymbolTableRecord
100
AcDbTextStyleTableRecord
  2
STANDARD
 70
     0
 40
0.0
 41
1.0
 50
0.0
 71
     0
 42
1.5
  3
SIMPLEX
  4

  0
STYLE
  5
EF7C85558
330
EF7C8551E
100
AcDbSymbolTableRecord
100
AcDbTextStyleTableRecord
  2
K
 70
     0
 40
0.0
 41
1.0
 50
0.0
 71
     0
 42
3.0
  3
ROMANS
  4
BIGFONT
  0
STYLE
  5
EF7C8555B
330
EF7C8551E
100
AcDbSymbolTableRecord
100
AcDbTextStyleTableRecord
  2
BIGFONT
 70
     0
 40
0.0
 41
1.0
 50
0.0
 71
     0
 42
3.0
  3
txt.shx
  4
bigfont
  0
ENDTAB
  0
TABLE
  2
VIEW
  5
EF7C85521
330
0
100
AcDbSymbolTable
 70
     0
  0
ENDTAB
  0
TABLE
  2
UCS
  5
EF7C85522
330
0
100
AcDbSymbolTable
 70
     0
  0
ENDTAB
  0
TABLE
  2
APPID
  5
EF7C85524
330
0
100
AcDbSymbolTable
 70
     1
  0
APPID
  5
EF7C8552B
330
EF7C85524
100
AcDbSymbolTableRecord
100
AcDbRegAppTableRecord
  2
ACAD
 70
     0
  0
ENDTAB
  0
TABLE
  2
DIMSTYLE
  5
EF7C85525
330
0
100
AcDbSymbolTable
 70
     1
  0
DIMSTYLE
105
EF7C85571
330
EF7C85525
100
AcDbSymbolTableRecord
100
AcDbDimStyleTableRecord
  2
IMAO
 70
     0
  3

  4

  5
ARROWANG
  6
ARROWANG
  7
ARROWANG
 40
1.0
 41
1.5
 42
1.0
 43
6.0
 44
1.0
 45
0.0
 46
0.0
 47
495.0
 48
0.0
140
3.0
141
0.0
142
0.0
143
25.4
144
1.0
145
0.0
146
1.0
147
0.09
 71
     0
 72
     0
 73
     0
 74
     0
 75
     0
 76
     0
 77
     1
 78
     8
170
     0
171
     2
172
     1
173
     0
174
     1
175
     0
176
     0
177
     0
178
     0
270
     2
271
     2
272
     2
273
     2
274
     2
340
EF7C8555B
275
     0
280
     0
281
     0
282
     0
283
     1
284
     8
285
     8
286
     8
287
     5
288
     0
  0
ENDTAB
  0
TABLE
  2
BLOCK_RECORD
  5
EF7C8551C
330
0
100
AcDbSymbolTable
 70
    11
  0
BLOCK_RECORD
  5
EF7C85532
102
{ACAD_XDICTIONARY
360
EF7C85D9A
102
}
330
EF7C8551C
100
AcDbSymbolTableRecord
100
AcDbBlockTableRecord
  2
*MODEL_SPACE
  0
BLOCK_RECORD
  5
EF7C8552F
102
{ACAD_XDICTIONARY
360
EF7C85D98
102
}
330
EF7C8551C
100
AcDbSymbolTableRecord
100
AcDbBlockTableRecord
  2
*PAPER_SPACE
  0
BLOCK_RECORD
  5
EF7C85537
330
EF7C8551C
100
AcDbSymbolTableRecord
100
AcDbBlockTableRecord
  2
ARROW
  0
BLOCK_RECORD
  5
EF7C8553B
330
EF7C8551C
100
AcDbSymbolTableRecord
100
AcDbBlockTableRecord
  2
WAKU
  0
BLOCK_RECORD
  5
EF7C8553D
330
EF7C8551C
100
AcDbSymbolTableRecord
100
AcDbBlockTableRecord
  2
*X2
  0
BLOCK_RECORD
  5
EF7C8553E
330
EF7C8551C
100
AcDbSymbolTableRecord
100
AcDbBlockTableRecord
  2
STDGX5
  0
BLOCK_RECORD
  5
EF7C8553F
330
EF7C8551C
100
AcDbSymbolTableRecord
100
AcDbBlockTableRecord
  2
*X4
  0
BLOCK_RECORD
  5
EF7C85540
330
EF7C8551C
100
AcDbSymbolTableRecord
100
AcDbBlockTableRecord
  2
*X5
  0
BLOCK_RECORD
  5
EF7C85541
330
EF7C8551C
100
AcDbSymbolTableRecord
100
AcDbBlockTableRecord
  2
*X6
  0
BLOCK_RECORD
  5
EF7C85542
330
EF7C8551C
100
AcDbSymbolTableRecord
100
AcDbBlockTableRecord
  2
*X7
  0
BLOCK_RECORD
  5
EF7C85543
330
EF7C8551C
100
AcDbSymbolTableRecord
100
AcDbBlockTableRecord
  2
ARROWANG
  0
BLOCK_RECORD
  5
EF7C85544
330
EF7C8551C
100
AcDbSymbolTableRecord
100
AcDbBlockTableRecord
  2
STDR12J
  0
BLOCK_RECORD
  5
EF7C886FB
330
EF7C8551C
100
AcDbSymbolTableRecord
100
AcDbBlockTableRecord
  2
A$CB243
  0
ENDTAB
  0
ENDSEC
  0
SECTION
  2
BLOCKS
  0
BLOCK
  5
EF7C85580
330
EF7C85532
100
AcDbEntity
  8
0
100
AcDbBlockBegin
  2
*MODEL_SPACE
 70
     0
 10
0.0
 20
0.0
 30
0.0
  3
*MODEL_SPACE
  1

  0
ENDBLK
  5
EF7C85581
330
EF7C85532
100
AcDbEntity
  8
0
100
AcDbBlockEnd
  0
BLOCK
  5
EF7C8557E
330
EF7C8552F
100
AcDbEntity
 67
     1
  8
0
100
AcDbBlockBegin
  2
*PAPER_SPACE
 70
     0
 10
0.0
 20
0.0
 30
0.0
  3
*PAPER_SPACE
  1

  0
ENDBLK
  5
EF7C8557F
330
EF7C8552F
100
AcDbEntity
 67
     1
  8
0
100
AcDbBlockEnd
  0
BLOCK
  5
499
330
EF7C85537
100
AcDbEntity
  8
0
100
AcDbBlockBegin
  2
ARROW
 70
     0
 10
1.0
 20
0.5
 30
0.0
  3
ARROW
  1

  0
LINE
  5
49A
330
EF7C85537
100
AcDbEntity
  8
0
100
AcDbLine
 10
1.0
 20
0.5
 30
0.0
 11
-0.5000000000000214
 21
0.0980762113533018
 31
0.0
  0
LINE
  5
49B
330
EF7C85537
100
AcDbEntity
  8
0
100
AcDbLine
 10
0.0
 20
0.5
 30
0.0
 11
1.0
 21
0.5
 31
0.0
  0
LINE
  5
49C
330
EF7C85537
100
AcDbEntity
  8
0
100
AcDbLine
 10
1.0
 20
0.5
 30
0.0
 11
-0.4999999999999574
 21
0.9019237886467408
 31
0.0
  0
ENDBLK
  5
49D
330
EF7C85537
100
AcDbEntity
  8
0
100
AcDbBlockEnd
  0
BLOCK
  5
4A7
330
EF7C8553B
100
AcDbEntity
  8
0
100
AcDbBlockBegin
  2
WAKU
 70
     0
 10
0.0
 20
0.0
 30
0.0
  3
WAKU
  1

  0
LINE
  5
4A8
330
EF7C8553B
100
AcDbEntity
  8
WAKU
100
AcDbLine
 10
0.999999996
 20
0.0
 30
0.0
 11
0.999999996
 21
0.9999999999999998
 31
0.0
  0
LINE
  5
4A9
330
EF7C8553B
100
AcDbEntity
  8
WAKU
100
AcDbLine
 10
0.0
 20
0.9999999999999998
 30
0.0
 11
0.999999996
 21
0.9999999999999998
 31
0.0
  0
LINE
  5
4AA
330
EF7C8553B
100
AcDbEntity
  8
WAKU
100
AcDbLine
 10
0.999999996
 20
0.0
 30
0.0
 11
0.0
 21
0.0
 31
0.0
  0
LINE
  5
4AB
330
EF7C8553B
100
AcDbEntity
  8
WAKU
100
AcDbLine
 10
0.0
 20
0.0
 30
0.0
 11
0.0
 21
0.9999999999999998
 31
0.0
  0
ENDBLK
  5
4AC
330
EF7C8553B
100
AcDbEntity
  8
0
100
AcDbBlockEnd
  0
BLOCK
  5
2764
330
EF7C8553D
100
AcDbEntity
  8
0
100
AcDbBlockBegin
  2
*X2
 70
     1
 10
0.0
 20
0.0
 30
0.0
  3
*X2
  1

  0
ENDBLK
  5
2765
330
EF7C8553D
100
AcDbEntity
  8
0
100
AcDbBlockEnd
  0
BLOCK
  5
2766
330
EF7C8553E
100
AcDbEntity
  8
0
100
AcDbBlockBegin
  2
STDGX5
 70
     0
 10
0.0
 20
0.0
 30
0.0
  3
STDGX5
  1

  0
ENDBLK
  5
2767
330
EF7C8553E
100
AcDbEntity
  8
0
100
AcDbBlockEnd
  0
BLOCK
  5
2F5A
330
EF7C8553F
100
AcDbEntity
  8
0
100
AcDbBlockBegin
  2
*X4
 70
     1
 10
0.0
 20
0.0
 30
0.0
  3
*X4
  1

  0
ENDBLK
  5
2F5B
330
EF7C8553F
100
AcDbEntity
  8
0
100
AcDbBlockEnd
  0
BLOCK
  5
32BB
330
EF7C85540
100
AcDbEntity
  8
0
100
AcDbBlockBegin
  2
*X5
 70
     1
 10
0.0
 20
0.0
 30
0.0
  3
*X5
  1

  0
ENDBLK
  5
32BC
330
EF7C85540
100
AcDbEntity
  8
0
100
AcDbBlockEnd
  0
BLOCK
  5
372F
330
EF7C85541
100
AcDbEntity
  8
0
100
AcDbBlockBegin
  2
*X6
 70
     1
 10
0.0
 20
0.0
 30
0.0
  3
*X6
  1

  0
ENDBLK
  5
3730
330
EF7C85541
100
AcDbEntity
  8
0
100
AcDbBlockEnd
  0
BLOCK
  5
3A6D
330
EF7C85542
100
AcDbEntity
  8
0
100
AcDbBlockBegin
  2
*X7
 70
     1
 10
0.0
 20
0.0
 30
0.0
  3
*X7
  1

  0
ENDBLK
  5
3A6E
330
EF7C85542
100
AcDbEntity
  8
0
100
AcDbBlockEnd
  0
BLOCK
  5
4CC9
330
EF7C85543
100
AcDbEntity
  8
0
100
AcDbBlockBegin
  2
ARROWANG
 70
     0
 10
0.0
 20
0.0
 30
0.0
  3
ARROWANG
  1

  0
LINE
  5
4CCA
330
EF7C85543
100
AcDbEntity
  8
SUNPOU
100
AcDbLine
 10
0.0
 20
0.0
 30
0.0
 11
-1.499999999999957
 21
0.4019237886467409
 31
0.0
  0
LINE
  5
4CCB
330
EF7C85543
100
AcDbEntity
  8
SUNPOU
100
AcDbLine
 10
0.0
 20
0.0
 30
0.0
 11
-1.500000000000028
 21
-0.4019237886467124
 31
0.0
  0
ENDBLK
  5
4CCC
330
EF7C85543
100
AcDbEntity
  8
0
100
AcDbBlockEnd
  0
BLOCK
  5
4CCD
330
EF7C85544
100
AcDbEntity
  8
0
100
AcDbBlockBegin
  2
STDR12J
 70
     0
 10
0.0
 20
0.0
 30
0.0
  3
STDR12J
  1

  0
ENDBLK
  5
4CF2
330
EF7C85544
100
AcDbEntity
  8
0
100
AcDbBlockEnd
  0
BLOCK
  5
EF7C886FD
330
EF7C886FB
100
AcDbEntity
  8
0
100
AcDbBlockBegin
  2
A$CB243
 70
     0
 10
0.0
 20
0.0
 30
0.0
  3
A$CB243
  1

  0
TEXT
  5
EF7C886FC
330
EF7C886FB
100
AcDbEntity
  8
JISSEN
100
AcDbText
 10
-0.5522164272435931
 20
0.0127586869241796
 30
0.0
 40
3.0
  1
E
  7
K
 72
     4
 11
0.947783572756407
 21
1.512758686924179
 31
0.0
100
AcDbText
  0
ENDBLK
  5
EF7C886FE
330
EF7C886FB
100
AcDbEntity
  8
0
100
AcDbBlockEnd
  0
ENDSEC
  0
SECTION
  2
ENTITIES
  0
TEXT
  5
1
330
EF7C85532
100
AcDbEntity
  8
SUNPOU
100
AcDbText
 10
95.05869565217389
 20
43.7966872748706
 30
0.0
 40
1.5
  1
                          
100
AcDbText
  0
TEXT
  5
2
330
EF7C85532
100
AcDbEntity
  8
SUNPOU
100
AcDbText
 10
332.2793466870868
 20
21.8983436374353
 30
0.0
 40
0.75
  1
                          
100
AcDbText
  0
TEXT
  5
1A
330
EF7C85532
100
AcDbEntity
  8
SUNPOU
100
AcDbText
 10
289.9834441000535
 20
43.7966872748706
 30
0.0
 40
1.5
  1
                          
100
AcDbText
  0
TEXT
  5
1B
330
EF7C85532
100
AcDbEntity
  8
SUNPOU
100
AcDbText
 10
527.2040951349665
 20
21.8983436374353
 30
0.0
 40
0.75
  1
                          
100
AcDbText
  0
TEXT
  5
1C
330
EF7C85532
100
AcDbEntity
  8
SUNPOU
100
AcDbText
 10
490.6272568090836
 20
43.79668727487057
 30
0.0
 40
1.5
  1
                          
100
AcDbText
  0
TEXT
  5
1D
330
EF7C85532
100
AcDbEntity
  8
SUNPOU
100
AcDbText
 10
727.8479078439966
 20
21.89834363743527
 30
0.0
 40
0.75
  1
                          
100
AcDbText
  0
INSERT
  5
1E
330
EF7C85532
100
AcDbEntity
  8
HATCH
100
AcDbBlockReference
  2
*X2
 10
194.9247484478796
 20
0.0
 30
0.0
  0
TEXT
  5
1F
330
EF7C85532
100
AcDbEntity
  8
SUNPOU
100
AcDbText
 10
493.0101992368964
 20
43.7966872748706
 30
0.0
 40
1.5
  1
                          
100
AcDbText
  0
TEXT
  5
20
330
EF7C85532
100
AcDbEntity
  8
SUNPOU
100
AcDbText
 10
730.2308502718094
 20
21.8983436374353
 30
0.0
 40
0.75
  1
                          
100
AcDbText
  0
TEXT
  5
21
330
EF7C85532
100
AcDbEntity
  8
SUNPOU
100
AcDbText
 10
482.0486607753579
 20
43.7966872748706
 30
0.0
 40
1.5
  1
                          
100
AcDbText
  0
TEXT
  5
22
330
EF7C85532
100
AcDbEntity
  8
SUNPOU
100
AcDbText
 10
719.269311810271
 20
21.8983436374353
 30
0.0
 40
0.75
  1
                          
100
AcDbText
  0
INSERT
  5
25
330
EF7C85532
100
AcDbEntity
  8
JISSEN
100
AcDbBlockReference
  2
STDGX5
 10
0.0
 20
0.0
 30
0.0
  0
TEXT
  5
60
330
EF7C85532
100
AcDbEntity
  8
SUNPOU
100
AcDbText
 10
274.0586949361738
 20
43.7966872748706
 30
0.0
 40
1.5
  1
                          
100
AcDbText
  0
TEXT
  5
61
330
EF7C85532
100
AcDbEntity
  8
SUNPOU
100
AcDbText
 10
511.2793459710869
 20
21.8983436374353
 30
0.0
 40
0.75
  1
                          
100
AcDbText
  0
TEXT
  5
62
330
EF7C85532
100
AcDbEntity
  8
SUNPOU
100
AcDbText
 10
474.702507645204
 20
43.79668727487057
 30
0.0
 40
1.5
  1
                          
100
AcDbText
  0
TEXT
  5
63
330
EF7C85532
100
AcDbEntity
  8
SUNPOU
100
AcDbText
 10
711.923158680117
 20
21.89834363743527
 30
0.0
 40
0.75
  1
                          
100
AcDbText
  0
INSERT
  5
64
330
EF7C85532
100
AcDbEntity
  8
HATCH
100
AcDbBlockReference
  2
*X4
 10
178.999999284
 20
0.0
 30
0.0
  0
TEXT
  5
65
330
EF7C85532
100
AcDbEntity
  8
SUNPOU
100
AcDbText
 10
477.0854500730167
 20
43.7966872748706
 30
0.0
 40
1.5
  1
                          
100
AcDbText
  0
TEXT
  5
66
330
EF7C85532
100
AcDbEntity
  8
SUNPOU
100
AcDbText
 10
714.3061011079298
 20
21.8983436374353
 30
0.0
 40
0.75
  1
                          
100
AcDbText
  0
TEXT
  5
67
330
EF7C85532
100
AcDbEntity
  8
SUNPOU
100
AcDbText
 10
466.1239116114783
 20
43.7966872748706
 30
0.0
 40
1.5
  1
                          
100
AcDbText
  0
TEXT
  5
68
330
EF7C85532
100
AcDbEntity
  8
SUNPOU
100
AcDbText
 10
703.3445626463913
 20
21.8983436374353
 30
0.0
 40
0.75
  1
                          
100
AcDbText
  0
INSERT
  5
69
330
EF7C85532
100
AcDbEntity
  8
TEXT
100
AcDbBlockReference
  2
STDGX5
 10
178.999999284
 20
0.0
 30
0.0
  0
TEXT
  5
6A
330
EF7C85532
100
AcDbEntity
  8
SUNPOU
100
AcDbText
 10
453.0586949361739
 20
43.7966872748706
 30
0.0
 40
1.5
  1
                          
100
AcDbText
  0
TEXT
  5
6B
330
EF7C85532
100
AcDbEntity
  8
SUNPOU
100
AcDbText
 10
690.279345971087
 20
21.8983436374353
 30
0.0
 40
0.75
  1
                          
100
AcDbText
  0
TEXT
  5
6C
330
EF7C85532
100
AcDbEntity
  8
SUNPOU
100
AcDbText
 10
647.9834433840535
 20
43.7966872748706
 30
0.0
 40
1.5
  1
                          
100
AcDbText
  0
TEXT
  5
6D
330
EF7C85532
100
AcDbEntity
  8
SUNPOU
100
AcDbText
 10
885.2040944189665
 20
21.8983436374353
 30
0.0
 40
0.75
  1
                          
100
AcDbText
  0
TEXT
  5
6E
330
EF7C85532
100
AcDbEntity
  8
SUNPOU
100
AcDbText
 10
848.6272560930835
 20
43.79668727487057
 30
0.0
 40
1.5
  1
                          
100
AcDbText
  0
TEXT
  5
6F
330
EF7C85532
100
AcDbEntity
  8
SUNPOU
100
AcDbText
 10
1085.847907127996
 20
21.89834363743527
 30
0.0
 40
0.75
  1
                          
100
AcDbText
  0
INSERT
  5
70
330
EF7C85532
100
AcDbEntity
  8
HATCH
100
AcDbBlockReference
  2
*X5
 10
552.9247477318797
 20
0.0
 30
0.0
  0
TEXT
  5
71
330
EF7C85532
100
AcDbEntity
  8
SUNPOU
100
AcDbText
 10
851.0101985208963
 20
43.7966872748706
 30
0.0
 40
1.5
  1
                          
100
AcDbText
  0
TEXT
  5
72
330
EF7C85532
100
AcDbEntity
  8
SUNPOU
100
AcDbText
 10
1088.230849555809
 20
21.8983436374353
 30
0.0
 40
0.75
  1
                          
100
AcDbText
  0
TEXT
  5
73
330
EF7C85532
100
AcDbEntity
  8
SUNPOU
100
AcDbText
 10
840.048660059358
 20
43.7966872748706
 30
0.0
 40
1.5
  1
                          
100
AcDbText
  0
TEXT
  5
74
330
EF7C85532
100
AcDbEntity
  8
SUNPOU
100
AcDbText
 10
1077.269311094271
 20
21.8983436374353
 30
0.0
 40
0.75
  1
                          
100
AcDbText
  0
INSERT
  5
75
330
EF7C85532
100
AcDbEntity
  8
JISSEN
100
AcDbBlockReference
  2
STDGX5
 10
357.999999284
 20
0.0
 30
0.0
  0
TEXT
  5
76
330
EF7C85532
100
AcDbEntity
  8
SUNPOU
100
AcDbText
 10
453.0586949361739
 20
43.7966872748706
 30
0.0
 40
1.5
  1
                          
100
AcDbText
  0
TEXT
  5
77
330
EF7C85532
100
AcDbEntity
  8
SUNPOU
100
AcDbText
 10
690.279345971087
 20
21.8983436374353
 30
0.0
 40
0.75
  1
                          
100
AcDbText
  0
TEXT
  5
78
330
EF7C85532
100
AcDbEntity
  8
SUNPOU
100
AcDbText
 10
647.9834433840535
 20
43.7966872748706
 30
0.0
 40
1.5
  1
                          
100
AcDbText
  0
TEXT
  5
79
330
EF7C85532
100
AcDbEntity
  8
SUNPOU
100
AcDbText
 10
885.2040944189665
 20
21.8983436374353
 30
0.0
 40
0.75
  1
                          
100
AcDbText
  0
TEXT
  5
7A
330
EF7C85532
100
AcDbEntity
  8
SUNPOU
100
AcDbText
 10
848.6272560930835
 20
43.79668727487057
 30
0.0
 40
1.5
  1
                          
100
AcDbText
  0
TEXT
  5
7B
330
EF7C85532
100
AcDbEntity
  8
SUNPOU
100
AcDbText
 10
1085.847907127996
 20
21.89834363743527
 30
0.0
 40
0.75
  1
                          
100
AcDbText
  0
INSERT
  5
7C
330
EF7C85532
100
AcDbEntity
  8
HATCH
100
AcDbBlockReference
  2
*X6
 10
552.9247477318797
 20
0.0
 30
0.0
  0
TEXT
  5
7D
330
EF7C85532
100
AcDbEntity
  8
SUNPOU
100
AcDbText
 10
851.0101985208963
 20
43.7966872748706
 30
0.0
 40
1.5
  1
                          
100
AcDbText
  0
TEXT
  5
7E
330
EF7C85532
100
AcDbEntity
  8
SUNPOU
100
AcDbText
 10
1088.230849555809
 20
21.8983436374353
 30
0.0
 40
0.75
  1
                          
100
AcDbText
  0
TEXT
  5
7F
330
EF7C85532
100
AcDbEntity
  8
SUNPOU
100
AcDbText
 10
840.048660059358
 20
43.7966872748706
 30
0.0
 40
1.5
  1
                          
100
AcDbText
  0
TEXT
  5
80
330
EF7C85532
100
AcDbEntity
  8
SUNPOU
100
AcDbText
 10
1077.269311094271
 20
21.8983436374353
 30
0.0
 40
0.75
  1
                          
100
AcDbText
  0
INSERT
  5
81
330
EF7C85532
100
AcDbEntity
  8
JISSEN
100
AcDbBlockReference
  2
STDGX5
 10
357.999999284
 20
0.0
 30
0.0
  0
TEXT
  5
82
330
EF7C85532
100
AcDbEntity
  8
SUNPOU
100
AcDbText
 10
632.0586942201739
 20
43.7966872748706
 30
0.0
 40
1.5
  1
                          
100
AcDbText
  0
TEXT
  5
83
330
EF7C85532
100
AcDbEntity
  8
SUNPOU
100
AcDbText
 10
869.2793452550871
 20
21.8983436374353
 30
0.0
 40
0.75
  1
                          
100
AcDbText
  0
TEXT
  5
84
330
EF7C85532
100
AcDbEntity
  8
SUNPOU
100
AcDbText
 10
826.9834426680535
 20
43.7966872748706
 30
0.0
 40
1.5
  1
                          
100
AcDbText
  0
TEXT
  5
85
330
EF7C85532
100
AcDbEntity
  8
SUNPOU
100
AcDbText
 10
1064.204093702966
 20
21.8983436374353
 30
0.0
 40
0.75
  1
                          
100
AcDbText
  0
TEXT
  5
86
330
EF7C85532
100
AcDbEntity
  8
SUNPOU
100
AcDbText
 10
1027.627255377083
 20
43.79668727487057
 30
0.0
 40
1.5
  1
                          
100
AcDbText
  0
TEXT
  5
87
330
EF7C85532
100
AcDbEntity
  8
SUNPOU
100
AcDbText
 10
1264.847906411996
 20
21.89834363743527
 30
0.0
 40
0.75
  1
                          
100
AcDbText
  0
INSERT
  5
88
330
EF7C85532
100
AcDbEntity
  8
HATCH
100
AcDbBlockReference
  2
*X7
 10
731.9247470158797
 20
0.0
 30
0.0
  0
TEXT
  5
89
330
EF7C85532
100
AcDbEntity
  8
SUNPOU
100
AcDbText
 10
1030.010197804896
 20
43.7966872748706
 30
0.0
 40
1.5
  1
                          
100
AcDbText
  0
TEXT
  5
8A
330
EF7C85532
100
AcDbEntity
  8
SUNPOU
100
AcDbText
 10
1267.230848839809
 20
21.8983436374353
 30
0.0
 40
0.75
  1
                          
100
AcDbText
  0
TEXT
  5
8B
330
EF7C85532
100
AcDbEntity
  8
SUNPOU
100
AcDbText
 10
1019.048659343358
 20
43.7966872748706
 30
0.0
 40
1.5
  1
                          
100
AcDbText
  0
TEXT
  5
8C
330
EF7C85532
100
AcDbEntity
  8
SUNPOU
100
AcDbText
 10
1256.269310378271
 20
21.8983436374353
 30
0.0
 40
0.75
  1
                          
100
AcDbText
  0
INSERT
  5
8D
330
EF7C85532
100
AcDbEntity
  8
JISSEN
100
AcDbBlockReference
  2
STDGX5
 10
536.999998568
 20
0.0
 30
0.0
  0
INSERT
  5
8E
330
EF7C85532
100
AcDbEntity
  8
SUNPOU
100
AcDbBlockReference
  2
STDGX5
 10
739.0804232644236
 20
50.83533235670902
 30
0.0
 41
0.5
 42
0.5
 43
0.5
  0
INSERT
  5
8F
330
EF7C85532
100
AcDbEntity
  8
SUNPOU
100
AcDbBlockReference
  2
STDGX5
 10
726.2208210623692
 20
105.0763138619288
 30
0.0
 41
0.5
 42
0.5
 43
0.5
  0
INSERT
  5
90
330
EF7C85532
100
AcDbEntity
  8
HATCH
100
AcDbBlockReference
  2
STDGX5
 10
852.3985550581901
 20
151.7065097967401
 30
0.0
 41
0.5
 42
0.5
 43
0.5
  0
INSERT
  5
91
330
EF7C85532
100
AcDbEntity
  8
HATCH
100
AcDbBlockReference
  2
STDGX5
 10
866.6806796277285
 20
102.7017487639613
 30
0.0
 41
0.5
 42
0.5
 43
0.5
  0
INSERT
  5
92
330
EF7C85532
100
AcDbEntity
  8
TEXT
100
AcDbBlockReference
  2
STDGX5
 10
970.3434408521969
 20
102.8213468229236
 30
0.0
 41
0.5
 42
0.5
 43
0.5
  0
INSERT
  5
93
330
EF7C85532
100
AcDbEntity
  8
SUNPOU
100
AcDbBlockReference
  2
STDGX5
 10
996.1728907397869
 20
174.5475645486174
 30
0.0
 41
0.5
 42
0.5
 43
0.5
  0
INSERT
  5
94
330
EF7C85532
100
AcDbEntity
  8
TEXT
100
AcDbBlockReference
  2
STDGX5
 10
725.7513886810995
 20
124.5860190441302
 30
0.0
 41
0.5
 42
0.5
 43
0.5
  0
INSERT
  5
95
330
EF7C85532
100
AcDbEntity
  8
HATCH
100
AcDbBlockReference
  2
STDGX5
 10
777.1755722656421
 20
145.5222028932424
 30
0.0
 41
0.5
 42
0.5
 43
0.5
  0
INSERT
  5
96
330
EF7C85532
100
AcDbEntity
  8
SUNPOU
100
AcDbBlockReference
  2
STDGX5
 10
846.1963575359604
 20
112.6957974729892
 30
0.0
 41
0.5
 42
0.5
 43
0.5
  0
INSERT
  5
97
330
EF7C85532
100
AcDbEntity
  8
SUNPOU
100
AcDbBlockReference
  2
STDGX5
 10
916.6681156211122
 20
121.7330617103085
 30
0.0
 41
0.5
 42
0.5
 43
0.5
  0
INSERT
  5
98
330
EF7C85532
100
AcDbEntity
  8
TEXT
100
AcDbBlockReference
  2
STDGX5
 10
983.7969461426769
 20
84.61852224867081
 30
0.0
 41
0.5
 42
0.5
 43
0.5
  0
INSERT
  5
99
330
EF7C85532
100
AcDbEntity
  8
HATCH
100
AcDbBlockReference
  2
STDGX5
 10
974.2802715042099
 20
136.4849386559231
 30
0.0
 41
0.5
 42
0.5
 43
0.5
  0
INSERT
  5
9A
330
EF7C85532
100
AcDbEntity
  8
SUNPOU
100
AcDbBlockReference
  2
STDGX5
 10
749.7834008663489
 20
95.14721172234004
 30
0.0
 41
0.5
 42
0.5
 43
0.5
  0
INSERT
  5
9B
330
EF7C85532
100
AcDbEntity
  8
SUNPOU
100
AcDbBlockReference
  2
STDGX5
 10
736.9237986642947
 20
149.3881932275598
 30
0.0
 41
0.5
 42
0.5
 43
0.5
  0
INSERT
  5
9C
330
EF7C85532
100
AcDbEntity
  8
HATCH
100
AcDbBlockReference
  2
STDGX5
 10
863.1015326601156
 20
196.0183891623711
 30
0.0
 41
0.5
 42
0.5
 43
0.5
  0
INSERT
  5
9D
330
EF7C85532
100
AcDbEntity
  8
HATCH
100
AcDbBlockReference
  2
STDGX5
 10
877.3836572296538
 20
147.0136281295923
 30
0.0
 41
0.5
 42
0.5
 43
0.5
  0
INSERT
  5
9E
330
EF7C85532
100
AcDbEntity
  8
TEXT
100
AcDbBlockReference
  2
STDGX5
 10
981.0464184541224
 20
147.1332261885546
 30
0.0
 41
0.5
 42
0.5
 43
0.5
  0
INSERT
  5
9F
330
EF7C85532
100
AcDbEntity
  8
SUNPOU
100
AcDbBlockReference
  2
STDGX5
 10
1006.875868341712
 20
218.8594439142484
 30
0.0
 41
0.5
 42
0.5
 43
0.5
  0
INSERT
  5
A0
330
EF7C85532
100
AcDbEntity
  8
TEXT
100
AcDbBlockReference
  2
STDGX5
 10
736.4543662830251
 20
168.8978984097612
 30
0.0
 41
0.5
 42
0.5
 43
0.5
  0
INSERT
  5
A1
330
EF7C85532
100
AcDbEntity
  8
HATCH
100
AcDbBlockReference
  2
STDGX5
 10
787.8785498675677
 20
189.8340822588735
 30
0.0
 41
0.5
 42
0.5
 43
0.5
  0
INSERT
  5
A2
330
EF7C85532
100
AcDbEntity
  8
SUNPOU
100
AcDbBlockReference
  2
STDGX5
 10
856.899335137886
 20
157.0076768386202
 30
0.0
 41
0.5
 42
0.5
 43
0.5
  0
INSERT
  5
A3
330
EF7C85532
100
AcDbEntity
  8
SUNPOU
100
AcDbBlockReference
  2
STDGX5
 10
927.3710932230379
 20
166.0449410759395
 30
0.0
 41
0.5
 42
0.5
 43
0.5
  0
INSERT
  5
A4
330
EF7C85532
100
AcDbEntity
  8
TEXT
100
AcDbBlockReference
  2
STDGX5
 10
994.4999237446024
 20
128.9304016143018
 30
0.0
 41
0.5
 42
0.5
 43
0.5
  0
INSERT
  5
A5
330
EF7C85532
100
AcDbEntity
  8
HATCH
100
AcDbBlockReference
  2
STDGX5
 10
984.9832491061354
 20
180.7968180215541
 30
0.0
 41
0.5
 42
0.5
 43
0.5
  0
TEXT
  5
DE
330
EF7C85532
100
AcDbEntity
  8
SUNPOU
100
AcDbText
 10
274.0586949361738
 20
43.7966872748706
 30
0.0
 40
1.5
  1
                          
100
AcDbText
  0
TEXT
  5
145
330
EF7C85532
100
AcDbEntity
  8
SUNPOU
100
AcDbText
 10
511.2793459710869
 20
21.8983436374353
 30
0.0
 40
0.75
  1
                          
100
AcDbText
  0
TEXT
  5
265
330
EF7C85532
100
AcDbEntity
  8
SUNPOU
100
AcDbText
 10
474.702507645204
 20
43.79668727487057
 30
0.0
 40
1.5
  1
                          
100
AcDbText
  0
TEXT
  5
266
330
EF7C85532
100
AcDbEntity
  8
SUNPOU
100
AcDbText
 10
711.923158680117
 20
21.89834363743527
 30
0.0
 40
0.75
  1
                          
100
AcDbText
  0
INSERT
  5
2F7
330
EF7C85532
100
AcDbEntity
  8
HATCH
100
AcDbBlockReference
  2
*X4
 10
178.999999284
 20
0.0
 30
0.0
  0
TEXT
  5
31A
330
EF7C85532
100
AcDbEntity
  8
SUNPOU
100
AcDbText
 10
477.0854500730167
 20
43.7966872748706
 30
0.0
 40
1.5
  1
                          
100
AcDbText
  0
TEXT
  5
31C
330
EF7C85532
100
AcDbEntity
  8
SUNPOU
100
AcDbText
 10
714.3061011079298
 20
21.8983436374353
 30
0.0
 40
0.75
  1
                          
100
AcDbText
  0
TEXT
  5
3A6
330
EF7C85532
100
AcDbEntity
  8
TEXT
100
AcDbText
 10
100.9999992839998
 20
244.9999999999999
 30
0.0
 40
3.0
  1
 
  7
K
100
AcDbText
  0
TEXT
  5
3AB
330
EF7C85532
100
AcDbEntity
  8
SUNPOU
100
AcDbText
 10
466.1239116114783
 20
43.7966872748706
 30
0.0
 40
1.5
  1
                          
100
AcDbText
  0
TEXT
  5
3AC
330
EF7C85532
100
AcDbEntity
  8
SUNPOU
100
AcDbText
 10
703.3445626463913
 20
21.8983436374353
 30
0.0
 40
0.75
  1
                          
100
AcDbText
  0
INSERT
  5
3F6
330
EF7C85532
100
AcDbEntity
  8
TEXT
100
AcDbBlockReference
  2
STDGX5
 10
178.999999284
 20
0.0
 30
0.0
  0
TEXT
  5
3F7
330
EF7C85532
100
AcDbEntity
  8
SUNPOU
100
AcDbText
 10
453.0586949361739
 20
43.7966872748706
 30
0.0
 40
1.5
  1
                          
100
AcDbText
  0
TEXT
  5
3F8
330
EF7C85532
100
AcDbEntity
  8
SUNPOU
100
AcDbText
 10
690.279345971087
 20
21.8983436374353
 30
0.0
 40
0.75
  1
                          
100
AcDbText
  0
TEXT
  5
3F9
330
EF7C85532
100
AcDbEntity
  8
SUNPOU
100
AcDbText
 10
647.9834433840535
 20
43.7966872748706
 30
0.0
 40
1.5
  1
                          
100
AcDbText
  0
TEXT
  5
3FA
330
EF7C85532
100
AcDbEntity
  8
SUNPOU
100
AcDbText
 10
885.2040944189665
 20
21.8983436374353
 30
0.0
 40
0.75
  1
                          
100
AcDbText
  0
TEXT
  5
3FB
330
EF7C85532
100
AcDbEntity
  8
SUNPOU
100
AcDbText
 10
848.6272560930835
 20
43.79668727487057
 30
0.0
 40
1.5
  1
                          
100
AcDbText
  0
TEXT
  5
3FC
330
EF7C85532
100
AcDbEntity
  8
SUNPOU
100
AcDbText
 10
1085.847907127996
 20
21.89834363743527
 30
0.0
 40
0.75
  1
                          
100
AcDbText
  0
INSERT
  5
3FD
330
EF7C85532
100
AcDbEntity
  8
HATCH
100
AcDbBlockReference
  2
*X5
 10
552.9247477318797
 20
0.0
 30
0.0
  0
TEXT
  5
3FE
330
EF7C85532
100
AcDbEntity
  8
SUNPOU
100
AcDbText
 10
851.0101985208963
 20
43.7966872748706
 30
0.0
 40
1.5
  1
                          
100
AcDbText
  0
TEXT
  5
3FF
330
EF7C85532
100
AcDbEntity
  8
SUNPOU
100
AcDbText
 10
1088.230849555809
 20
21.8983436374353
 30
0.0
 40
0.75
  1
                          
100
AcDbText
  0
TEXT
  5
400
330
EF7C85532
100
AcDbEntity
  8
SUNPOU
100
AcDbText
 10
840.048660059358
 20
43.7966872748706
 30
0.0
 40
1.5
  1
                          
100
AcDbText
  0
TEXT
  5
401
330
EF7C85532
100
AcDbEntity
  8
SUNPOU
100
AcDbText
 10
1077.269311094271
 20
21.8983436374353
 30
0.0
 40
0.75
  1
                          
100
AcDbText
  0
INSERT
  5
402
330
EF7C85532
100
AcDbEntity
  8
JISSEN
100
AcDbBlockReference
  2
STDGX5
 10
357.999999284
 20
0.0
 30
0.0
  0
TEXT
  5
409
330
EF7C85532
100
AcDbEntity
  8
SUNPOU
100
AcDbText
 10
453.0586949361739
 20
43.7966872748706
 30
0.0
 40
1.5
  1
                          
100
AcDbText
  0
TEXT
  5
40A
330
EF7C85532
100
AcDbEntity
  8
SUNPOU
100
AcDbText
 10
690.279345971087
 20
21.8983436374353
 30
0.0
 40
0.75
  1
                          
100
AcDbText
  0
TEXT
  5
41B
330
EF7C85532
100
AcDbEntity
  8
SUNPOU
100
AcDbText
 10
647.9834433840535
 20
43.7966872748706
 30
0.0
 40
1.5
  1
                          
100
AcDbText
  0
TEXT
  5
41C
330
EF7C85532
100
AcDbEntity
  8
SUNPOU
100
AcDbText
 10
885.2040944189665
 20
21.8983436374353
 30
0.0
 40
0.75
  1
                          
100
AcDbText
  0
TEXT
  5
41D
330
EF7C85532
100
AcDbEntity
  8
SUNPOU
100
AcDbText
 10
848.6272560930835
 20
43.79668727487057
 30
0.0
 40
1.5
  1
                          
100
AcDbText
  0
TEXT
  5
41E
330
EF7C85532
100
AcDbEntity
  8
SUNPOU
100
AcDbText
 10
1085.847907127996
 20
21.89834363743527
 30
0.0
 40
0.75
  1
                          
100
AcDbText
  0
INSERT
  5
41F
330
EF7C85532
100
AcDbEntity
  8
HATCH
100
AcDbBlockReference
  2
*X6
 10
552.9247477318797
 20
0.0
 30
0.0
  0
TEXT
  5
420
330
EF7C85532
100
AcDbEntity
  8
SUNPOU
100
AcDbText
 10
851.0101985208963
 20
43.7966872748706
 30
0.0
 40
1.5
  1
                          
100
AcDbText
  0
TEXT
  5
421
330
EF7C85532
100
AcDbEntity
  8
SUNPOU
100
AcDbText
 10
1088.230849555809
 20
21.8983436374353
 30
0.0
 40
0.75
  1
                          
100
AcDbText
  0
TEXT
  5
422
330
EF7C85532
100
AcDbEntity
  8
SUNPOU
100
AcDbText
 10
840.048660059358
 20
43.7966872748706
 30
0.0
 40
1.5
  1
                          
100
AcDbText
  0
TEXT
  5
423
330
EF7C85532
100
AcDbEntity
  8
SUNPOU
100
AcDbText
 10
1077.269311094271
 20
21.8983436374353
 30
0.0
 40
0.75
  1
                          
100
AcDbText
  0
INSERT
  5
424
330
EF7C85532
100
AcDbEntity
  8
JISSEN
100
AcDbBlockReference
  2
STDGX5
 10
357.999999284
 20
0.0
 30
0.0
  0
TEXT
  5
425
330
EF7C85532
100
AcDbEntity
  8
SUNPOU
100
AcDbText
 10
632.0586942201739
 20
43.7966872748706
 30
0.0
 40
1.5
  1
                          
100
AcDbText
  0
TEXT
  5
426
330
EF7C85532
100
AcDbEntity
  8
SUNPOU
100
AcDbText
 10
869.2793452550871
 20
21.8983436374353
 30
0.0
 40
0.75
  1
                          
100
AcDbText
  0
TEXT
  5
427
330
EF7C85532
100
AcDbEntity
  8
SUNPOU
100
AcDbText
 10
826.9834426680535
 20
43.7966872748706
 30
0.0
 40
1.5
  1
                          
100
AcDbText
  0
TEXT
  5
428
330
EF7C85532
100
AcDbEntity
  8
SUNPOU
100
AcDbText
 10
1064.204093702966
 20
21.8983436374353
 30
0.0
 40
0.75
  1
                          
100
AcDbText
  0
TEXT
  5
429
330
EF7C85532
100
AcDbEntity
  8
SUNPOU
100
AcDbText
 10
1027.627255377083
 20
43.79668727487057
 30
0.0
 40
1.5
  1
                          
100
AcDbText
  0
TEXT
  5
42A
330
EF7C85532
100
AcDbEntity
  8
SUNPOU
100
AcDbText
 10
1264.847906411996
 20
21.89834363743527
 30
0.0
 40
0.75
  1
                          
100
AcDbText
  0
INSERT
  5
42B
330
EF7C85532
100
AcDbEntity
  8
HATCH
100
AcDbBlockReference
  2
*X7
 10
731.9247470158797
 20
0.0
 30
0.0
  0
TEXT
  5
42C
330
EF7C85532
100
AcDbEntity
  8
SUNPOU
100
AcDbText
 10
1030.010197804896
 20
43.7966872748706
 30
0.0
 40
1.5
  1
                          
100
AcDbText
  0
TEXT
  5
42D
330
EF7C85532
100
AcDbEntity
  8
SUNPOU
100
AcDbText
 10
1267.230848839809
 20
21.8983436374353
 30
0.0
 40
0.75
  1
                          
100
AcDbText
  0
TEXT
  5
42E
330
EF7C85532
100
AcDbEntity
  8
SUNPOU
100
AcDbText
 10
1019.048659343358
 20
43.7966872748706
 30
0.0
 40
1.5
  1
                          
100
AcDbText
  0
TEXT
  5
42F
330
EF7C85532
100
AcDbEntity
  8
SUNPOU
100
AcDbText
 10
1256.269310378271
 20
21.8983436374353
 30
0.0
 40
0.75
  1
                          
100
AcDbText
  0
INSERT
  5
430
330
EF7C85532
100
AcDbEntity
  8
JISSEN
100
AcDbBlockReference
  2
STDGX5
 10
536.999998568
 20
0.0
 30
0.0
  0
INSERT
  5
43B
330
EF7C85532
100
AcDbEntity
  8
SUNPOU
100
AcDbBlockReference
  2
STDGX5
 10
739.0804232644236
 20
50.83533235670902
 30
0.0
 41
0.5
 42
0.5
 43
0.5
  0
INSERT
  5
43C
330
EF7C85532
100
AcDbEntity
  8
SUNPOU
100
AcDbBlockReference
  2
STDGX5
 10
726.2208210623692
 20
105.0763138619288
 30
0.0
 41
0.5
 42
0.5
 43
0.5
  0
INSERT
  5
43D
330
EF7C85532
100
AcDbEntity
  8
HATCH
100
AcDbBlockReference
  2
STDGX5
 10
852.3985550581901
 20
151.7065097967401
 30
0.0
 41
0.5
 42
0.5
 43
0.5
  0
INSERT
  5
43E
330
EF7C85532
100
AcDbEntity
  8
HATCH
100
AcDbBlockReference
  2
STDGX5
 10
866.6806796277285
 20
102.7017487639613
 30
0.0
 41
0.5
 42
0.5
 43
0.5
  0
INSERT
  5
43F
330
EF7C85532
100
AcDbEntity
  8
TEXT
100
AcDbBlockReference
  2
STDGX5
 10
970.3434408521969
 20
102.8213468229236
 30
0.0
 41
0.5
 42
0.5
 43
0.5
  0
INSERT
  5
440
330
EF7C85532
100
AcDbEntity
  8
SUNPOU
100
AcDbBlockReference
  2
STDGX5
 10
996.1728907397869
 20
174.5475645486174
 30
0.0
 41
0.5
 42
0.5
 43
0.5
  0
INSERT
  5
441
330
EF7C85532
100
AcDbEntity
  8
TEXT
100
AcDbBlockReference
  2
STDGX5
 10
725.7513886810995
 20
124.5860190441302
 30
0.0
 41
0.5
 42
0.5
 43
0.5
  0
INSERT
  5
442
330
EF7C85532
100
AcDbEntity
  8
HATCH
100
AcDbBlockReference
  2
STDGX5
 10
777.1755722656421
 20
145.5222028932424
 30
0.0
 41
0.5
 42
0.5
 43
0.5
  0
INSERT
  5
443
330
EF7C85532
100
AcDbEntity
  8
SUNPOU
100
AcDbBlockReference
  2
STDGX5
 10
846.1963575359604
 20
112.6957974729892
 30
0.0
 41
0.5
 42
0.5
 43
0.5
  0
INSERT
  5
444
330
EF7C85532
100
AcDbEntity
  8
SUNPOU
100
AcDbBlockReference
  2
STDGX5
 10
916.6681156211122
 20
121.7330617103085
 30
0.0
 41
0.5
 42
0.5
 43
0.5
  0
INSERT
  5
445
330
EF7C85532
100
AcDbEntity
  8
TEXT
100
AcDbBlockReference
  2
STDGX5
 10
983.7969461426769
 20
84.61852224867081
 30
0.0
 41
0.5
 42
0.5
 43
0.5
  0
INSERT
  5
446
330
EF7C85532
100
AcDbEntity
  8
HATCH
100
AcDbBlockReference
  2
STDGX5
 10
974.2802715042099
 20
136.4849386559231
 30
0.0
 41
0.5
 42
0.5
 43
0.5
  0
INSERT
  5
447
330
EF7C85532
100
AcDbEntity
  8
SUNPOU
100
AcDbBlockReference
  2
STDGX5
 10
749.7834008663489
 20
95.14721172234004
 30
0.0
 41
0.5
 42
0.5
 43
0.5
  0
INSERT
  5
448
330
EF7C85532
100
AcDbEntity
  8
SUNPOU
100
AcDbBlockReference
  2
STDGX5
 10
736.9237986642947
 20
149.3881932275598
 30
0.0
 41
0.5
 42
0.5
 43
0.5
  0
INSERT
  5
449
330
EF7C85532
100
AcDbEntity
  8
HATCH
100
AcDbBlockReference
  2
STDGX5
 10
863.1015326601156
 20
196.0183891623711
 30
0.0
 41
0.5
 42
0.5
 43
0.5
  0
INSERT
  5
44A
330
EF7C85532
100
AcDbEntity
  8
HATCH
100
AcDbBlockReference
  2
STDGX5
 10
877.3836572296538
 20
147.0136281295923
 30
0.0
 41
0.5
 42
0.5
 43
0.5
  0
INSERT
  5
44B
330
EF7C85532
100
AcDbEntity
  8
TEXT
100
AcDbBlockReference
  2
STDGX5
 10
981.0464184541224
 20
147.1332261885546
 30
0.0
 41
0.5
 42
0.5
 43
0.5
  0
INSERT
  5
44C
330
EF7C85532
100
AcDbEntity
  8
SUNPOU
100
AcDbBlockReference
  2
STDGX5
 10
1006.875868341712
 20
218.8594439142484
 30
0.0
 41
0.5
 42
0.5
 43
0.5
  0
INSERT
  5
44D
330
EF7C85532
100
AcDbEntity
  8
TEXT
100
AcDbBlockReference
  2
STDGX5
 10
736.4543662830251
 20
168.8978984097612
 30
0.0
 41
0.5
 42
0.5
 43
0.5
  0
INSERT
  5
44E
330
EF7C85532
100
AcDbEntity
  8
HATCH
100
AcDbBlockReference
  2
STDGX5
 10
787.8785498675677
 20
189.8340822588735
 30
0.0
 41
0.5
 42
0.5
 43
0.5
  0
INSERT
  5
44F
330
EF7C85532
100
AcDbEntity
  8
SUNPOU
100
AcDbBlockReference
  2
STDGX5
 10
856.899335137886
 20
157.0076768386202
 30
0.0
 41
0.5
 42
0.5
 43
0.5
  0
INSERT
  5
450
330
EF7C85532
100
AcDbEntity
  8
SUNPOU
100
AcDbBlockReference
  2
STDGX5
 10
927.3710932230379
 20
166.0449410759395
 30
0.0
 41
0.5
 42
0.5
 43
0.5
  0
INSERT
  5
451
330
EF7C85532
100
AcDbEntity
  8
TEXT
100
AcDbBlockReference
  2
STDGX5
 10
994.4999237446024
 20
128.9304016143018
 30
0.0
 41
0.5
 42
0.5
 43
0.5
  0
INSERT
  5
452
330
EF7C85532
100
AcDbEntity
  8
HATCH
100
AcDbBlockReference
  2
STDGX5
 10
984.9832491061354
 20
180.7968180215541
 30
0.0
 41
0.5
 42
0.5
 43
0.5
  0
INSERT
  5
4CF3
330
EF7C85532
100
AcDbEntity
  8
JISSEN
100
AcDbBlockReference
  2
STDR12J
 10
0.0
 20
0.0
 30
0.0
  0
LINE
  5
EAFFB3C99
330
EF7C85532
100
AcDbEntity
  8
JISSEN
100
AcDbLine
 10
91.49999927599997
 20
276.9999999999999
 30
0.0
 11
180.999999276
 21
276.9999999999999
 31
0.0
  0
LINE
  5
EAFFB3C9A
330
EF7C85532
100
AcDbEntity
  8
JISSEN
100
AcDbLine
 10
91.49999927599997
 20
270.9999999999999
 30
0.0
 11
180.999999276
 21
270.9999999999999
 31
0.0
  0
TEXT
  5
EAFFB3C9B
330
EF7C85532
100
AcDbEntity
  8
TEXT
100
AcDbText
 10
107.8999992759999
 20
278.4999999999999
 30
0.0
 40
3.0
  1
名      称
  7
K
 72
     4
 11
116.4999992759999
 21
279.9999999999999
 31
0.0
100
AcDbText
  0
TEXT
  5
EAFFB3C9C
330
EF7C85532
100
AcDbEntity
  8
TEXT
100
AcDbText
 10
93.29999927599997
 20
278.4999999999999
 30
0.0
 40
3.0
  1
番号
  7
K
 72
     4
 11
96.49999927599999
 21
279.9999999999999
 31
0.0
100
AcDbText
  0
LINE
  5
EAFFB3C9D
330
EF7C85532
100
AcDbEntity
  8
JISSEN
100
AcDbLine
 10
91.49999927599997
 20
270.9999999999999
 30
0.0
 11
91.49999927599997
 21
282.9999999999999
 31
0.0
  0
LINE
  5
EAFFB3C9E
330
EF7C85532
100
AcDbEntity
  8
JISSEN
100
AcDbLine
 10
101.4999992759999
 20
282.9999999999999
 30
0.0
 11
101.4999992759999
 21
270.9999999999999
 31
0.0
  0
TEXT
  5
EAFFB3C9F
330
EF7C85532
100
AcDbEntity
  8
TEXT
100
AcDbText
 10
135.1999992759999
 20
278.4999999999999
 30
0.0
 40
3.0
  1
材    質
  7
K
 72
     4
 11
141.9999992759999
 21
279.9999999999999
 31
0.0
100
AcDbText
  0
LINE
  5
EAFFB3CA0
330
EF7C85532
100
AcDbEntity
  8
JISSEN
100
AcDbLine
 10
131.4999992759999
 20
282.9999999999999
 30
0.0
 11
131.4999992759999
 21
270.9999999999999
 31
0.0
  0
LINE
  5
EAFFB3CA1
330
EF7C85532
100
AcDbEntity
  8
JISSEN
100
AcDbLine
 10
152.4999992759999
 20
270.9999999999999
 30
0.0
 11
152.4999992759999
 21
282.9999999999999
 31
0.0
  0
TEXT
  5
EAFFB3CA2
330
EF7C85532
100
AcDbEntity
  8
TEXT
100
AcDbText
 10
165.6999992759999
 20
278.4999999999999
 30
0.0
 40
3.0
  1
備    考
  7
K
 72
     4
 11
172.4999992759999
 21
279.9999999999999
 31
0.0
100
AcDbText
  0
TEXT
  5
EAFFB3CA3
330
EF7C85532
100
AcDbEntity
  8
TEXT
100
AcDbText
 10
154.7999992759999
 20
278.4999999999999
 30
0.0
 40
3.0
  1
個数
  7
K
 72
     4
 11
157.9999992759999
 21
279.9999999999999
 31
0.0
100
AcDbText
  0
LINE
  5
EAFFB3CA4
330
EF7C85532
100
AcDbEntity
  8
JISSEN
100
AcDbLine
 10
163.4999992759999
 20
282.9999999999999
 30
0.0
 11
163.4999992759999
 21
270.9999999999999
 31
0.0
  0
TEXT
  5
EAFFB3CAC
330
EF7C85532
100
AcDbEntity
  8
TEXT
100
AcDbText
 10
95.28571356171427
 20
272.4999999999999
 30
0.0
 40
3.0
  1
1
  7
K
 72
     4
 11
96.49999927599999
 21
273.9999999999999
 31
0.0
100
AcDbText
  0
TEXT
  5
EAFFB3CC2
330
EF7C85532
100
AcDbEntity
  8
TEXT
100
AcDbText
 10
136.8249992759999
 20
274.2999999999999
 30
0.0
 40
3.0
  1
%%u      
  7
K
 72
     4
 11
141.9999992759999
 21
273.9999999999999
 31
0.0
100
AcDbText
  0
INSERT
  5
EAFFB3CF7
330
EF7C85532
100
AcDbEntity
  8
WAKU
100
AcDbBlockReference
  2
WAKU
 10
0.0
 20
0.0
 30
0.0
 41
181.0
 42
283.0
 43
181.0
  0
TEXT
  5
EF7C85BB1
330
EF7C85532
100
AcDbEntity
  8
TEXT
100
AcDbText
 10
156.6795477624092
 20
272.4999999999999
 30
0.0
 40
3.0
  1
1
  7
K
 72
     4
 11
157.8938334766949
 21
273.9999999999999
 31
0.0
100
AcDbText
  0
TEXT
  5
EF7C85D65
330
EF7C85532
100
AcDbEntity
  8
SUNPOU
100
AcDbText
 10
151.0437954454985
 20
7.849423898685245
 30
0.0
 40
3.0
  1
EUQR 取付状態
  7
K
100
AcDbText
  0
TEXT
  5
EF7C85D66
330
EF7C85532
100
AcDbEntity
  8
SUNPOU
100
AcDbText
 10
151.0437954454985
 20
2.849423898685245
 30
0.0
 40
3.0
  1
尺度　1/1
  7
K
100
AcDbText
  0
TEXT
  5
EF7C85DB5
330
EF7C85532
100
AcDbEntity
  8
TEXT
100
AcDbText
 10
104.0928564188571
 20
272.642857142857
 30
0.0
 40
3.0
  1
EUQR 型ヘッド
 41
0.9
  7
K
 72
     4
 11
116.4999992759999
 21
273.9999999999999
 31
0.0
100
AcDbText
  0
CIRCLE
  5
EF7C87CDD
330
EF7C85532
100
AcDbEntity
  8
SUNPOU
100
AcDbCircle
 10
102.7833214206408
 20
203.3069430298021
 30
0.0
 40
6.0
  0
TEXT
  5
EF7C87CE0
330
EF7C85532
100
AcDbEntity
  8
SUNPOU
100
AcDbText
 10
100.9618928492122
 20
201.0569430298021
 30
0.0
 40
4.5
  1
1
  7
K
 72
     4
 11
102.7833214206408
 21
203.3069430298021
 31
0.0
100
AcDbText
  0
LINE
  5
EF7C8884C
330
EF7C85532
100
AcDbEntity
  8
JISSEN
100
AcDbLine
 10
40.49999963800007
 20
176.5419426192046
 30
0.0
 11
140.499999638
 21
176.5419426192046
 31
0.0
  0
LINE
  5
EF7C8884D
330
EF7C85532
100
AcDbEntity
  8
JISSEN
100
AcDbLine
 10
42.20983610112074
 20
177.5419426192046
 30
0.0
 11
138.7901631748794
 21
177.5419426192046
 31
0.0
  0
LINE
  5
EF7C8884E
330
EF7C85532
100
AcDbEntity
  8
JISSEN
100
AcDbLine
 10
40.8010508308231
 20
175.5419426192046
 30
0.0
 11
140.2320504455689
 21
175.5419426192046
 31
0.0
  0
ARC
  5
EF7C88851
330
EF7C85532
100
AcDbEntity
  8
JISSEN
100
AcDbCircle
 10
98.49999963800009
 20
142.2406786676251
 30
0.0
 40
28.0
100
AcDbArc
 50
157.9756871629579
 51
180.0
  0
ARC
  5
EF7C88853
330
EF7C85532
100
AcDbEntity
  8
JISSEN
100
AcDbCircle
 10
85.49999963800008
 20
142.2406786676251
 30
0.0
 40
15.0
100
AcDbArc
 50
180.0
 51
233.31701119964
  0
ARC
  5
EF7C88854
330
EF7C85532
100
AcDbEntity
  8
JISSEN
100
AcDbCircle
 10
85.45325786876583
 20
140.9332786215166
 30
0.0
 40
17.0
100
AcDbArc
 50
175.2987799884095
 51
245.5488571927666
  0
ARC
  5
EF7C88855
330
EF7C85532
100
AcDbEntity
  8
JISSEN
100
AcDbCircle
 10
83.29120654865125
 20
141.2806901239058
 30
0.0
 40
10.80551655320168
100
AcDbArc
 50
176.8068888039075
 51
265.7904822304362
  0
ARC
  5
EF7C88856
330
EF7C85532
100
AcDbEntity
  8
JISSEN
100
AcDbCircle
 10
98.49999963800009
 20
142.2406786676251
 30
0.0
 40
30.0
100
AcDbArc
 50
139.7809012554448
 51
180.0
  0
LINE
  5
EF7C8885B
330
EF7C85532
100
AcDbEntity
  8
JISSEN
100
AcDbLine
 10
40.48665892644061
 20
176.5470658135416
 30
0.0
 11
42.20983610112074
 21
177.5419426192046
 31
0.0
  0
LINE
  5
EF7C8885C
330
EF7C85532
100
AcDbEntity
  8
JISSEN
100
AcDbLine
 10
40.5173479053862
 20
176.555035105899
 30
0.0
 11
40.8010508308231
 21
175.5419426192046
 31
0.0
  0
LINE
  5
EF7C88860
330
EF7C85532
100
AcDbEntity
  8
JISSEN
100
AcDbLine
 10
77.06291758207306
 20
120.2723779067674
 30
0.0
 11
77.48175107411708
 21
106.8703759201372
 31
0.0
  0
LWPOLYLINE
  5
EF7C88861
330
EF7C85532
100
AcDbEntity
  8
SAISEN
100
AcDbPolyline
 90
        2
 70
     0
 43
0.0
 10
78.21218130460244
 20
120.9359056263396
 10
78.68829755891932
 20
105.7009468481331
  0
LINE
  5
EF7C88862
330
EF7C85532
100
AcDbEntity
  8
JISSEN
100
AcDbLine
 10
103.8698750472679
 20
120.2723779067674
 30
0.0
 11
103.4510415552238
 21
106.8703759201372
 31
0.0
  0
LWPOLYLINE
  5
EF7C88863
330
EF7C85532
100
AcDbEntity
  8
SAISEN
100
AcDbPolyline
 90
        2
 70
     0
 43
0.0
 10
102.7206113247384
 20
120.9359056263396
 10
102.2444950704217
 20
105.7009468481331
  0
LINE
  5
EF7C88864
330
EF7C85532
100
AcDbEntity
  8
JISSEN
100
AcDbLine
 10
79.54422369771084
 20
104.8713518654292
 30
0.0
 11
101.3885689316301
 21
104.8713518654292
 31
0.0
  0
LINE
  5
EF7C88865
330
EF7C85532
100
AcDbEntity
  8
JISSEN
100
AcDbLine
 10
101.3885689316301
 20
104.8713518654292
 30
0.0
 11
79.54422369771084
 21
104.8713518654292
 31
0.0
  0
LINE
  5
EF7C88866
330
EF7C85532
100
AcDbEntity
  8
JISSEN
100
AcDbLine
 10
77.48175107411708
 20
106.8703759201372
 30
0.0
 11
103.4510415552238
 21
106.8703759201372
 31
0.0
  0
LINE
  5
EF7C88867
330
EF7C85532
100
AcDbEntity
  8
JISSEN
100
AcDbLine
 10
77.48175107411708
 20
106.8703759201372
 30
0.0
 11
79.54422369771084
 21
104.8713518654292
 31
0.0
  0
LINE
  5
EF7C8886A
330
EF7C85532
100
AcDbEntity
  8
JISSEN
100
AcDbLine
 10
103.4510415552238
 20
106.8703759201372
 30
0.0
 11
101.3885689316301
 21
104.8713518654292
 31
0.0
  0
LINE
  5
EF7C8886B
330
EF7C85532
100
AcDbEntity
  8
JISSEN
100
AcDbLine
 10
98.31789089182656
 20
174.666487139589
 30
0.0
 11
102.0550340838545
 21
174.666487139589
 31
0.0
  0
LINE
  5
EF7C8886C
330
EF7C85532
100
AcDbEntity
  8
JISSEN
100
AcDbLine
 10
98.31789089182656
 20
173.9493964675633
 30
0.0
 11
100.485786075627
 21
173.9493964675633
 31
0.0
  0
LINE
  5
EF7C8886D
330
EF7C85532
100
AcDbEntity
  8
JISSEN
100
AcDbLine
 10
105.4074245961059
 20
161.6120462442508
 30
0.0
 11
97.43315471536664
 21
171.0419426192046
 31
0.0
  0
LINE
  5
EF7C8886E
330
EF7C85532
100
AcDbEntity
  8
JISSEN
100
AcDbLine
 10
97.28267656165565
 20
154.2451159308091
 30
0.0
 11
100.9128438952524
 21
154.5627144192009
 31
0.0
  0
ARC
  5
EF7C8886F
330
EF7C85532
100
AcDbEntity
  8
JISSEN
100
AcDbCircle
 10
97.99999963800008
 20
150.1103952809825
 30
0.0
 40
4.0
100
AcDbArc
 50
274.9999999999997
 51
0.0
  0
LINE
  5
EF7C88872
330
EF7C85532
100
AcDbEntity
  8
JISSEN
100
AcDbLine
 10
101.9663963146705
 20
121.3713518654292
 30
0.0
 11
78.96639631467053
 21
121.3713518654292
 31
0.0
  0
LINE
  5
EF7C88873
330
EF7C85532
100
AcDbEntity
  8
JISSEN
100
AcDbLine
 10
101.9663963146704
 20
123.3713518654292
 30
0.0
 11
92.87499963800007
 21
123.3713518654292
 31
0.0
  0
LINE
  5
EF7C88874
330
EF7C85532
100
AcDbEntity
  8
JISSEN
100
AcDbLine
 10
99.76639631467049
 20
129.3713518654292
 30
0.0
 11
91.99999963800008
 21
129.3713518654292
 31
0.0
  0
LINE
  5
EF7C88876
330
EF7C85532
100
AcDbEntity
  8
JISSEN
100
AcDbLine
 10
77.06291758207306
 20
120.2723779067674
 30
0.0
 11
103.8698750472679
 21
120.2723779067674
 31
0.0
  0
ARC
  5
EF7C88877
330
EF7C85532
100
AcDbEntity
  8
JISSEN
100
AcDbCircle
 10
82.49999963800007
 20
142.2406786676251
 30
0.0
 40
24.0
100
AcDbArc
 50
358.4782525524656
 51
59.99999999999986
  0
ARC
  5
EF7C88878
330
EF7C85532
100
AcDbEntity
  8
JISSEN
100
AcDbCircle
 10
95.50029840134454
 20
142.0423159121697
 30
0.0
 40
11.0
100
AcDbArc
 50
291.4923353073529
 51
357.7128202082913
  0
ARC
  5
EF7C88879
330
EF7C85532
100
AcDbEntity
  8
JISSEN
100
AcDbCircle
 10
97.70879272734886
 20
141.2806901239058
 30
0.0
 40
10.80551655320168
100
AcDbArc
 50
274.2095177695637
 51
349.5833810006727
  0
ARC
  5
EF7C8887A
330
EF7C85532
100
AcDbEntity
  8
JISSEN
100
AcDbCircle
 10
94.72976417612784
 20
158.3274355897376
 30
0.0
 40
0.4866855046380603
100
AcDbArc
 50
118.1707402297524
 51
175.8150838748817
  0
ARC
  5
EF7C8887B
330
EF7C85532
100
AcDbEntity
  8
JISSEN
100
AcDbCircle
 10
95.99999963800001
 20
158.1796392434492
 30
0.0
 40
1.0
100
AcDbArc
 50
0.0
 51
84.94675184874443
  0
LINE
  5
EF7C8887C
330
EF7C85532
100
AcDbEntity
  8
JISSEN
100
AcDbLine
 10
96.99999963800003
 20
155.0021116460513
 30
0.0
 11
96.99999963800003
 21
158.7134804699108
 31
0.0
  0
LINE
  5
EF7C8887D
330
EF7C85532
100
AcDbEntity
  8
JISSEN
100
AcDbLine
 10
97.14999963800005
 20
155.7451159308091
 30
0.0
 11
97.14999963800005
 21
158.7134804699108
 31
0.0
  0
ARC
  5
EF7C8887E
330
EF7C85532
100
AcDbEntity
  8
JISSEN
100
AcDbCircle
 10
84.49999963800014
 20
149.9030921324583
 30
0.0
 40
13.5
100
AcDbArc
 50
0.0
 51
42.20544640373288
  0
ARC
  5
EF7C8887F
330
EF7C85532
100
AcDbEntity
  8
JISSEN
100
AcDbCircle
 10
86.27023509987225
 20
158.3274355897376
 30
0.0
 40
0.4866855046380603
100
AcDbArc
 50
4.184916125117464
 51
61.82925977024754
  0
ARC
  5
EF7C88880
330
EF7C85532
100
AcDbEntity
  8
JISSEN
100
AcDbCircle
 10
84.99999963800007
 20
158.1796392434492
 30
0.0
 40
1.0
100
AcDbArc
 50
95.05324815125558
 51
180.0
  0
LINE
  5
EF7C88881
330
EF7C85532
100
AcDbEntity
  8
JISSEN
100
AcDbLine
 10
83.99999963800008
 20
155.0021116460513
 30
0.0
 11
83.99999963800008
 21
158.7134804699108
 31
0.0
  0
LINE
  5
EF7C88882
330
EF7C85532
100
AcDbEntity
  8
JISSEN
100
AcDbLine
 10
83.84999963800011
 20
155.7451159308091
 30
0.0
 11
83.84999963800011
 21
158.7134804699108
 31
0.0
  0
ARC
  5
EF7C88883
330
EF7C85532
100
AcDbEntity
  8
JISSEN
100
AcDbCircle
 10
96.49999963800013
 20
149.9030921324583
 30
0.0
 40
13.5
100
AcDbArc
 50
137.7945535962677
 51
180.0
  0
ARC
  5
EF7C88884
330
EF7C85532
100
AcDbEntity
  8
JISSEN
100
AcDbCircle
 10
98.49999963800009
 20
142.2406786676251
 30
0.0
 40
24.0
100
AcDbArc
 50
120.0000000000001
 51
180.0
  0
LINE
  5
EF7C88885
330
EF7C85532
100
AcDbEntity
  8
JISSEN
100
AcDbLine
 10
83.36639631467084
 20
133.3000899117362
 30
0.0
 11
88.81125563324085
 21
133.3000899117363
 31
0.0
  0
LINE
  5
EF7C88886
330
EF7C85532
100
AcDbEntity
  8
JISSEN
100
AcDbLine
 10
81.96639631467048
 20
133.6000899117364
 30
0.0
 11
90.46639631467048
 21
133.6000899117364
 31
0.0
  0
LINE
  5
EF7C88887
330
EF7C85532
100
AcDbEntity
  8
JISSEN
100
AcDbLine
 10
82.14999963800023
 20
132.6902521491755
 30
0.0
 11
89.00671973457617
 21
132.6902521491755
 31
0.0
  0
LINE
  5
EF7C88888
330
EF7C85532
100
AcDbEntity
  8
JISSEN
100
AcDbLine
 10
88.99999963800009
 20
129.3713518654292
 30
0.0
 11
81.16639631467046
 21
129.3713518654292
 31
0.0
  0
LINE
  5
EF7C88889
330
EF7C85532
100
AcDbEntity
  8
JISSEN
100
AcDbLine
 10
89.2499996380001
 20
130.9713518654292
 30
0.0
 11
82.49999963800009
 21
130.9713518654292
 31
0.0
  0
LINE
  5
EF7C8888A
330
EF7C85532
100
AcDbEntity
  8
JISSEN
100
AcDbLine
 10
88.12499963800007
 20
123.3713518654292
 30
0.0
 11
78.96639631467047
 21
123.3713518654292
 31
0.0
  0
LINE
  5
EF7C8888B
330
EF7C85532
100
AcDbEntity
  8
JISSEN
100
AcDbLine
 10
98.96639631467047
 20
135.9000899117364
 30
0.0
 11
81.96639631467048
 21
135.9000899117364
 31
0.0
  0
ARC
  5
EF7C8888C
330
EF7C85532
100
AcDbEntity
  8
JISSEN
100
AcDbCircle
 10
96.49999963800013
 20
144.9030921324583
 30
0.0
 40
13.5
100
AcDbArc
 50
180.0
 51
221.8274121237103
  0
ARC
  5
EF7C8888D
330
EF7C85532
100
AcDbEntity
  8
JISSEN
100
AcDbCircle
 10
85.49970087465556
 20
142.0423159121697
 30
0.0
 40
11.0
100
AcDbArc
 50
177.0418232214464
 51
248.507664692647
  0
LINE
  5
EF7C8888E
330
EF7C85532
100
AcDbEntity
  8
JISSEN
100
AcDbLine
 10
78.96639631467047
 20
121.3713518654292
 30
0.0
 11
77.06291758207306
 21
120.2723779067674
 31
0.0
  0
ARC
  5
EF7C8888F
330
EF7C85532
100
AcDbEntity
  8
JISSEN
100
AcDbCircle
 10
76.61225110633177
 20
123.0975613392488
 30
0.0
 40
6.498907295833106
100
AcDbArc
 50
45.51234847333532
 51
75.32091994780239
  0
ARC
  5
EF7C88890
330
EF7C85532
100
AcDbEntity
  8
JISSEN
100
AcDbCircle
 10
79.52612891507533
 20
134.2211482209105
 30
0.0
 40
5.0
100
AcDbArc
 50
233.31701119964
 51
255.3209199478024
  0
LINE
  5
EF7C88891
330
EF7C85532
100
AcDbEntity
  8
JISSEN
100
AcDbLine
 10
81.16639631467046
 20
123.3713518654292
 30
0.0
 11
81.16639631467046
 21
129.3713518654292
 31
0.0
  0
ARC
  5
EF7C88892
330
EF7C85532
100
AcDbEntity
  8
JISSEN
100
AcDbCircle
 10
77.96639631467048
 20
124.5488718137089
 30
0.0
 40
1.0
100
AcDbArc
 50
0.0
 51
65.3756816478364
  0
LINE
  5
EF7C88893
330
EF7C85532
100
AcDbEntity
  8
JISSEN
100
AcDbLine
 10
78.96639631467047
 20
124.5488718137089
 30
0.0
 11
78.96639631467047
 21
121.3713518654292
 31
0.0
  0
ARC
  5
EF7C88894
330
EF7C85532
100
AcDbEntity
  8
JISSEN
100
AcDbCircle
 10
81.64999963800012
 20
132.2734883746428
 30
0.0
 40
0.5
100
AcDbArc
 50
248.8453697346681
 51
0.0
  0
LINE
  5
EF7C88895
330
EF7C85532
100
AcDbEntity
  8
JISSEN
100
AcDbLine
 10
82.49999963800009
 20
129.3713518654292
 30
0.0
 11
82.49999963800009
 21
130.9713518654292
 31
0.0
  0
LINE
  5
EF7C88896
330
EF7C85532
100
AcDbEntity
  8
JISSEN
100
AcDbLine
 10
84.46639631466997
 20
133.3000899117364
 30
0.0
 11
81.96639631467048
 21
133.3000899117364
 31
0.0
  0
LINE
  5
EF7C88897
330
EF7C85532
100
AcDbEntity
  8
JISSEN
100
AcDbLine
 10
82.14999963800012
 20
132.6902521491754
 30
0.0
 11
82.14999963800012
 21
132.2734883746428
 31
0.0
  0
LINE
  5
EF7C88898
330
EF7C85532
100
AcDbEntity
  8
JISSEN
100
AcDbLine
 10
82.14999963800012
 20
132.6902521491754
 30
0.0
 11
83.20626962713046
 21
133.3000899117364
 31
0.0
  0
LINE
  5
EF7C88899
330
EF7C85532
100
AcDbEntity
  8
JISSEN
100
AcDbLine
 10
81.96639631467048
 20
133.3000899117364
 30
0.0
 11
81.96639631467048
 21
135.9000899117364
 31
0.0
  0
ARC
  5
EF7C8889A
330
EF7C85532
100
AcDbEntity
  8
JISSEN
100
AcDbCircle
 10
82.99999963800008
 20
150.1103952809824
 30
0.0
 40
4.0
100
AcDbArc
 50
180.0
 51
265.0000000000002
  0
ARC
  5
EF7C8889B
330
EF7C85532
100
AcDbEntity
  8
JISSEN
100
AcDbCircle
 10
98.49999963800009
 20
142.2406786676251
 30
0.0
 40
26.0
100
AcDbArc
 50
156.1811586065437
 51
180.789176248135
  0
LINE
  5
EF7C8889C
330
EF7C85532
100
AcDbEntity
  8
JISSEN
100
AcDbLine
 10
82.99999963800013
 20
149.9030921324583
 30
0.0
 11
82.99999963800013
 21
144.9030921324583
 31
0.0
  0
LINE
  5
EF7C8889D
330
EF7C85532
100
AcDbEntity
  8
JISSEN
100
AcDbLine
 10
82.99999963799995
 20
146.0951159308091
 30
0.0
 11
82.6513766670094
 21
146.1256164886154
 31
0.0
  0
LINE
  5
EF7C8889E
330
EF7C85532
100
AcDbEntity
  8
JISSEN
100
AcDbLine
 10
83.71732271434444
 20
154.2451159308091
 30
0.0
 11
80.08715538074772
 21
154.5627144192009
 31
0.0
  0
LINE
  5
EF7C8889F
330
EF7C85532
100
AcDbEntity
  8
JISSEN
100
AcDbLine
 10
78.99999963800008
 20
153.5665197211092
 30
0.0
 11
78.99999963800008
 21
150.1103952809824
 31
0.0
  0
LINE
  5
EF7C888A0
330
EF7C85532
100
AcDbEntity
  8
JISSEN
100
AcDbLine
 10
78.99999963800008
 20
150.0951159308091
 30
0.0
 11
78.99999963800008
 21
150.0951159308091
 31
0.0
  0
ARC
  5
EF7C888A1
330
EF7C85532
100
AcDbEntity
  8
JISSEN
100
AcDbCircle
 10
79.99999963800007
 20
153.5665197211092
 30
0.0
 40
1.0
100
AcDbArc
 50
85.00000000000019
 51
180.0
  0
LINE
  5
EF7C888A2
330
EF7C85532
100
AcDbEntity
  8
JISSEN
100
AcDbLine
 10
83.99999963800008
 20
155.7451159308091
 30
0.0
 11
83.84999963800011
 21
155.7451159308091
 31
0.0
  0
ARC
  5
EF7C888A3
330
EF7C85532
100
AcDbEntity
  8
JISSEN
100
AcDbCircle
 10
84.49999963800014
 20
144.9030921324583
 30
0.0
 40
13.5
100
AcDbArc
 50
318.1725878762896
 51
0.0
  0
LINE
  5
EF7C888A4
330
EF7C85532
100
AcDbEntity
  8
JISSEN
100
AcDbLine
 10
91.74999963800004
 20
128.3968988357284
 30
0.0
 11
93.19999963800004
 21
128.3968988357284
 31
0.0
  0
LINE
  5
EF7C888A5
330
EF7C85532
100
AcDbEntity
  8
JISSEN
100
AcDbLine
 10
98.96639631467047
 20
133.6000899117364
 30
0.0
 11
90.46639631467048
 21
133.6000899117364
 31
0.0
  0
LINE
  5
EF7C888A6
330
EF7C85532
100
AcDbEntity
  8
JISSEN
100
AcDbLine
 10
91.99327954142404
 20
132.6902521491755
 30
0.0
 11
98.84999963800012
 21
132.6902521491755
 31
0.0
  0
LINE
  5
EF7C888A7
330
EF7C85532
100
AcDbEntity
  8
JISSEN
100
AcDbLine
 10
92.1887436427594
 20
133.3000899117364
 30
0.0
 11
97.5663963146705
 21
133.3000899117366
 31
0.0
  0
LINE
  5
EF7C888A8
330
EF7C85532
100
AcDbEntity
  8
JISSEN
100
AcDbLine
 10
98.49999963800009
 20
130.9713518654292
 30
0.0
 11
91.7499996380001
 21
130.9713518654292
 31
0.0
  0
LINE
  5
EF7C888A9
330
EF7C85532
100
AcDbEntity
  8
JISSEN
100
AcDbLine
 10
93.19999963800004
 20
126.3968988357283
 30
0.0
 11
87.79999963800007
 21
126.3968988357283
 31
0.0
  0
ARC
  5
EF7C888AA
330
EF7C85532
100
AcDbEntity
  8
JISSEN
100
AcDbCircle
 10
90.49999963800008
 20
125.7439573408935
 30
0.0
 40
10.93848722979607
100
AcDbArc
 50
75.63979404729434
 51
104.3602059527056
  0
LINE
  5
EF7C888AB
330
EF7C85532
100
AcDbEntity
  8
JISSEN
100
AcDbLine
 10
85.50995941850578
 20
136.9748308485739
 30
0.0
 11
95.42283321083528
 21
136.9748308485739
 31
0.0
  0
ARC
  5
EF7C888AC
330
EF7C85532
100
AcDbEntity
  8
JISSEN
100
AcDbCircle
 10
87.79999963800007
 20
126.6968988357284
 30
0.0
 40
0.3
100
AcDbArc
 50
180.0
 51
270.0
  0
LINE
  5
EF7C888AD
330
EF7C85532
100
AcDbEntity
  8
JISSEN
100
AcDbLine
 10
86.46639631467047
 20
123.3713518654292
 30
0.0
 11
86.46639631467047
 21
129.3713518654292
 31
0.0
  0
LINE
  5
EF7C888AE
330
EF7C85532
100
AcDbEntity
  8
JISSEN
100
AcDbLine
 10
88.12499963800007
 20
123.3713518654292
 30
0.0
 11
88.12499963800007
 21
121.3713518654292
 31
0.0
  0
LINE
  5
EF7C888AF
330
EF7C85532
100
AcDbEntity
  8
JISSEN
100
AcDbLine
 10
87.79999963800007
 20
128.3968988357284
 30
0.0
 11
89.24999963800004
 21
128.3968988357284
 31
0.0
  0
ARC
  5
EF7C888B0
330
EF7C85532
100
AcDbEntity
  8
JISSEN
100
AcDbCircle
 10
82.2499996380001
 20
130.8608441748501
 30
0.0
 40
7.0
100
AcDbArc
 50
0.0
 51
23.03670964523445
  0
LINE
  5
EF7C888B1
330
EF7C85532
100
AcDbEntity
  8
JISSEN
100
AcDbLine
 10
87.49999963800005
 20
126.6968988357284
 30
0.0
 11
87.49999963800005
 21
128.0968988357284
 31
0.0
  0
ARC
  5
EF7C888B2
330
EF7C85532
100
AcDbEntity
  8
JISSEN
100
AcDbCircle
 10
87.79999963800007
 20
128.0968988357284
 30
0.0
 40
0.3
100
AcDbArc
 50
90.0
 51
180.0
  0
ARC
  5
EF7C888B3
330
EF7C85532
100
AcDbEntity
  8
JISSEN
100
AcDbCircle
 10
98.74999963800011
 20
130.8608441748501
 30
0.0
 40
7.0
100
AcDbArc
 50
156.9632903547655
 51
180.0
  0
LINE
  5
EF7C888B4
330
EF7C85532
100
AcDbEntity
  8
JISSEN
100
AcDbLine
 10
89.24999963800004
 20
128.3968988357284
 30
0.0
 11
89.24999963800004
 21
130.8608441748501
 31
0.0
  0
LINE
  5
EF7C888B5
330
EF7C85532
100
AcDbEntity
  8
JISSEN
100
AcDbLine
 10
88.99999963800009
 20
129.3713518654292
 30
0.0
 11
88.99999963800009
 21
130.9713518654292
 31
0.0
  0
LINE
  5
EF7C888B6
330
EF7C85532
100
AcDbEntity
  8
JISSEN
100
AcDbLine
 10
91.74999963800004
 20
128.3968988357284
 30
0.0
 11
91.74999963800004
 21
130.8608441748501
 31
0.0
  0
LINE
  5
EF7C888B7
330
EF7C85532
100
AcDbEntity
  8
JISSEN
100
AcDbLine
 10
91.99999963800008
 20
129.3713518654292
 30
0.0
 11
91.99999963800015
 21
130.9713518654292
 31
0.0
  0
ARC
  5
EF7C888B8
330
EF7C85532
100
AcDbEntity
  8
JISSEN
100
AcDbCircle
 10
93.19999963800004
 20
126.6968988357284
 30
0.0
 40
0.3
100
AcDbArc
 50
270.0
 51
0.0
  0
INSERT
  5
EF7C888B9
330
EF7C85532
100
AcDbEntity
  8
SUNPOU
100
AcDbBlockReference
  2
A$CB243
 10
96.13318044669064
 20
125.0332577428501
 30
0.0
  0
LINE
  5
EF7C888BA
330
EF7C85532
100
AcDbEntity
  8
JISSEN
100
AcDbLine
 10
94.46639631467048
 20
123.3713518654292
 30
0.0
 11
94.46639631467048
 21
129.3713518654292
 31
0.0
  0
LINE
  5
EF7C888BB
330
EF7C85532
100
AcDbEntity
  8
JISSEN
100
AcDbLine
 10
92.87499963800007
 20
123.3713518654292
 30
0.0
 11
92.87499963800007
 21
121.3713518654292
 31
0.0
  0
LINE
  5
EF7C888BC
330
EF7C85532
100
AcDbEntity
  8
JISSEN
100
AcDbLine
 10
93.49999963800005
 20
128.0968988357284
 30
0.0
 11
93.49999963800005
 21
126.6968988357284
 31
0.0
  0
ARC
  5
EF7C888BD
330
EF7C85532
100
AcDbEntity
  8
JISSEN
100
AcDbCircle
 10
93.19999963800004
 20
128.0968988357284
 30
0.0
 40
0.3
100
AcDbArc
 50
359.9999999999992
 51
90.0
  0
ARC
  5
EF7C888BE
330
EF7C85532
100
AcDbEntity
  8
JISSEN
100
AcDbCircle
 10
99.34999963800011
 20
132.2734883746428
 30
0.0
 40
0.5
100
AcDbArc
 50
180.0
 51
291.1546302653318
  0
LINE
  5
EF7C888BF
330
EF7C85532
100
AcDbEntity
  8
JISSEN
100
AcDbLine
 10
98.49999963800009
 20
129.3713518654292
 30
0.0
 11
98.49999963800009
 21
130.9713518654292
 31
0.0
  0
LINE
  5
EF7C888C0
330
EF7C85532
100
AcDbEntity
  8
JISSEN
100
AcDbLine
 10
98.84999963800012
 20
132.6902521491754
 30
0.0
 11
97.79372964886979
 21
133.3000899117364
 31
0.0
  0
LINE
  5
EF7C888C1
330
EF7C85532
100
AcDbEntity
  8
JISSEN
100
AcDbLine
 10
96.46639631467099
 20
133.3000899117364
 30
0.0
 11
98.96639631467047
 21
133.3000899117364
 31
0.0
  0
LINE
  5
EF7C888C2
330
EF7C85532
100
AcDbEntity
  8
JISSEN
100
AcDbLine
 10
98.84999963800012
 20
132.6902521491754
 30
0.0
 11
98.84999963800012
 21
132.2734883746428
 31
0.0
  0
LINE
  5
EF7C888C3
330
EF7C85532
100
AcDbEntity
  8
JISSEN
100
AcDbLine
 10
98.96639631467047
 20
133.3000899117364
 30
0.0
 11
98.96639631467047
 21
135.9000899117364
 31
0.0
  0
ARC
  5
EF7C888C4
330
EF7C85532
100
AcDbEntity
  8
JISSEN
100
AcDbCircle
 10
90.49999963800008
 20
165.2813079807529
 30
0.0
 40
19.34838405080195
100
AcDbArc
 50
275.4364749416864
 51
277.4239295896271
  0
LWPOLYLINE
  5
EF7C888C5
330
EF7C85532
100
AcDbEntity
  8
JISSEN
100
AcDbPolyline
 90
        3
 70
     0
 43
0.0
 10
92.24999963800007
 20
141.8211877203685
 42
0.0069244247785686
 10
92.51525396438172
 20
141.8573775249097
 42
0.0222413121313502
 10
92.8579766696073
 20
141.9246845017747
 42
0.3154119100223803
  0
ARC
  5
EF7C888C6
330
EF7C85532
100
AcDbEntity
  8
JISSEN
100
AcDbCircle
 10
92.69999963800012
 20
141.0030921324583
 30
0.0
 40
0.2
100
AcDbArc
 50
90.0
 51
180.0
  0
ARC
  5
EF7C888C7
330
EF7C85532
100
AcDbEntity
  8
JISSEN
100
AcDbCircle
 10
92.19999963800011
 20
139.9855589149948
 30
0.0
 40
0.3
100
AcDbArc
 50
279.5940682268368
 51
0.0
  0
LINE
  5
EF7C888C8
330
EF7C85532
100
AcDbEntity
  8
JISSEN
100
AcDbLine
 10
92.04063809331717
 20
141.925408971424
 30
0.0
 11
92.99999963800008
 21
155.3564705969849
 31
0.0
  0
LINE
  5
EF7C888C9
330
EF7C85532
100
AcDbEntity
  8
JISSEN
100
AcDbLine
 10
94.99999963800012
 20
145.9198042317296
 30
0.0
 11
92.30910398731873
 21
145.6839314874464
 31
0.0
  0
LINE
  5
EF7C888CA
330
EF7C85532
100
AcDbEntity
  8
JISSEN
100
AcDbLine
 10
94.99999963800012
 20
145.8194207894715
 30
0.0
 11
92.3018885647291
 21
145.5829155711914
 31
0.0
  0
ARC
  5
EF7C888CB
330
EF7C85532
100
AcDbEntity
  8
JISSEN
100
AcDbCircle
 10
90.49999963800008
 20
161.8443722686395
 30
0.0
 40
19.34838405080195
100
AcDbArc
 50
274.7019833989466
 51
278.9197951763234
  0
LINE
  5
EF7C888CC
330
EF7C85532
100
AcDbEntity
  8
JISSEN
100
AcDbLine
 10
87.99999963800008
 20
149.763823153478
 30
0.0
 11
87.99999963800008
 21
146.0951159308091
 31
0.0
  0
LINE
  5
EF7C888CD
330
EF7C85532
100
AcDbEntity
  8
JISSEN
100
AcDbLine
 10
85.99999963800014
 20
148.6530921324583
 30
0.0
 11
85.99999963800014
 21
144.9030921324583
 31
0.0
  0
LINE
  5
EF7C888CE
330
EF7C85532
100
AcDbEntity
  8
JISSEN
100
AcDbLine
 10
87.99999963800003
 20
155.3564705969849
 30
0.0
 11
88.95936118268293
 21
141.925408971424
 31
0.0
  0
LINE
  5
EF7C888CF
330
EF7C85532
100
AcDbEntity
  8
JISSEN
100
AcDbLine
 10
88.74999963800007
 20
141.925408971424
 30
0.0
 11
92.24999963800007
 21
141.925408971424
 31
0.0
  0
LINE
  5
EF7C888D0
330
EF7C85532
100
AcDbEntity
  8
JISSEN
100
AcDbLine
 10
88.74999963800007
 20
141.1422378312599
 30
0.0
 11
92.24999963800007
 21
141.1422378312599
 31
0.0
  0
LINE
  5
EF7C888D1
330
EF7C85532
100
AcDbEntity
  8
JISSEN
100
AcDbLine
 10
92.24999963800007
 20
139.413038469828
 30
0.0
 11
88.74999963800007
 21
139.413038469828
 31
0.0
  0
ARC
  5
EF7C888D2
330
EF7C85532
100
AcDbEntity
  8
JISSEN
100
AcDbCircle
 10
96.49999963800013
 20
144.9030921324583
 30
0.0
 40
10.5
100
AcDbArc
 50
180.0
 51
194.1490045089345
  0
ARC
  5
EF7C888D3
330
EF7C85532
100
AcDbEntity
  8
JISSEN
100
AcDbCircle
 10
90.49999963800008
 20
161.8443722686395
 30
0.0
 40
19.34838405080195
100
AcDbArc
 50
261.0802048236765
 51
265.2980166010533
  0
LINE
  5
EF7C888D4
330
EF7C85532
100
AcDbEntity
  8
JISSEN
100
AcDbLine
 10
87.64999963800006
 20
142.5505982027515
 30
0.0
 11
87.64999963800006
 21
142.7070405482212
 31
0.0
  0
ARC
  5
EF7C888D5
330
EF7C85532
100
AcDbEntity
  8
JISSEN
100
AcDbCircle
 10
87.77302994629156
 20
142.7030921324583
 30
0.0
 40
1.5
100
AcDbArc
 50
194.1490045089345
 51
270.0
  0
ARC
  5
EF7C888D6
330
EF7C85532
100
AcDbEntity
  8
JISSEN
100
AcDbCircle
 10
88.79999963800008
 20
139.9855589149948
 30
0.0
 40
0.3
100
AcDbArc
 50
180.0
 51
260.405931773135
  0
LWPOLYLINE
  5
EF7C888D7
330
EF7C85532
100
AcDbEntity
  8
JISSEN
100
AcDbPolyline
 90
        3
 70
     0
 43
0.0
 10
88.1420226063928
 20
141.9246845017747
 42
0.0222413121313491
 10
88.48474531161839
 20
141.8573775249097
 42
0.0069244247785704
 10
88.74999963800007
 20
141.8211877203685
 42
0.0155729562488785
  0
ARC
  5
EF7C888D8
330
EF7C85532
100
AcDbEntity
  8
JISSEN
100
AcDbCircle
 10
88.29413070831066
 20
142.5505982027515
 30
0.0
 40
0.6441310703106079
100
AcDbArc
 50
180.0
 51
256.3408948147033
  0
ARC
  5
EF7C888D9
330
EF7C85532
100
AcDbEntity
  8
JISSEN
100
AcDbCircle
 10
90.49999963799979
 20
137.411527830215
 30
0.0
 40
5.0
100
AcDbArc
 50
116.3208098216078
 51
120.0000000000001
  0
LINE
  5
EF7C888DA
330
EF7C85532
100
AcDbEntity
  8
JISSEN
100
AcDbLine
 10
87.23804362988095
 20
141.3017393427392
 30
0.0
 11
87.99999963799979
 21
141.7416548491372
 31
0.0
  0
LINE
  5
EF7C888DB
330
EF7C85532
100
AcDbEntity
  8
JISSEN
100
AcDbLine
 10
87.77302994629156
 20
141.2030921324583
 30
0.0
 11
88.29999963800009
 21
141.2030921324583
 31
0.0
  0
ARC
  5
EF7C888DC
330
EF7C85532
100
AcDbEntity
  8
JISSEN
100
AcDbCircle
 10
88.29999963800014
 20
141.0030921324583
 30
0.0
 40
0.2
100
AcDbArc
 50
0.0
 51
90.0
  0
LINE
  5
EF7C888DD
330
EF7C85532
100
AcDbEntity
  8
JISSEN
100
AcDbLine
 10
88.49999963800014
 20
141.0030921324583
 30
0.0
 11
88.49999963800014
 21
138.1897549258404
 31
0.0
  0
LINE
  5
EF7C888DE
330
EF7C85532
100
AcDbEntity
  8
JISSEN
100
AcDbLine
 10
88.74999963800007
 20
139.413038469828
 30
0.0
 11
88.74999963800007
 21
141.925408971424
 31
0.0
  0
LINE
  5
EF7C888DF
330
EF7C85532
100
AcDbEntity
  8
JISSEN
100
AcDbLine
 10
85.99999963799996
 20
145.8194207894715
 30
0.0
 11
88.698110711271
 21
145.5829155711914
 31
0.0
  0
LINE
  5
EF7C888E0
330
EF7C85532
100
AcDbEntity
  8
JISSEN
100
AcDbLine
 10
85.99999963799996
 20
145.9198042317296
 30
0.0
 11
88.69089528868135
 21
145.6839314874464
 31
0.0
  0
LINE
  5
EF7C888E1
330
EF7C85532
100
AcDbEntity
  8
JISSEN
100
AcDbLine
 10
85.99999963799996
 20
146.2704276298885
 30
0.0
 11
87.99999963800008
 21
146.4457393289679
 31
0.0
  0
ARC
  5
EF7C888E2
330
EF7C85532
100
AcDbEntity
  8
JISSEN
100
AcDbCircle
 10
90.49999963800008
 20
165.2813079807529
 30
0.0
 40
19.34838405080195
100
AcDbArc
 50
262.5760704103728
 51
264.5635250583135
  0
LINE
  5
EF7C888E3
330
EF7C85532
100
AcDbEntity
  8
JISSEN
100
AcDbLine
 10
87.49999963800007
 20
142.7299806911572
 30
0.0
 11
87.49999963800007
 21
145.6879370151619
 31
0.0
  0
LINE
  5
EF7C888E4
330
EF7C85532
100
AcDbEntity
  8
JISSEN
100
AcDbLine
 10
92.24999963800007
 20
141.925408971424
 30
0.0
 11
92.24999963800007
 21
139.413038469828
 31
0.0
  0
LINE
  5
EF7C888E5
330
EF7C85532
100
AcDbEntity
  8
JISSEN
100
AcDbLine
 10
87.87499963800014
 20
150.1530921324583
 30
0.0
 11
87.87499963800014
 21
154.6530921324583
 31
0.0
  0
ARC
  5
EF7C888E6
330
EF7C85532
100
AcDbEntity
  8
JISSEN
100
AcDbCircle
 10
87.49999963800012
 20
148.6530921324583
 30
0.0
 40
1.5
100
AcDbArc
 50
90.0
 51
180.0
  0
ARC
  5
EF7C888E7
330
EF7C85532
100
AcDbEntity
  8
JISSEN
100
AcDbCircle
 10
87.87499963800014
 20
149.8530921324583
 30
0.0
 40
1.199999999999999
100
AcDbArc
 50
68.57670275211505
 51
90.0
  0
ARC
  5
EF7C888E8
330
EF7C85532
100
AcDbEntity
  8
JISSEN
100
AcDbCircle
 10
90.49999963800019
 20
130.5776311035341
 30
0.0
 40
19.34838405080195
100
AcDbArc
 50
96.24260422862583
 51
97.42392958962732
  0
ARC
  5
EF7C888E9
330
EF7C85532
100
AcDbEntity
  8
JISSEN
100
AcDbCircle
 10
90.49999963800008
 20
168.9500152034218
 30
0.0
 40
19.34838405080195
100
AcDbArc
 50
262.5760704103728
 51
263.7777528268399
  0
LINE
  5
EF7C888EA
330
EF7C85532
100
AcDbEntity
  8
JISSEN
100
AcDbLine
 10
87.49999963800012
 20
150.1530921324583
 30
0.0
 11
87.87499963800014
 21
150.1530921324583
 31
0.0
  0
LWPOLYLINE
  5
EF7C888EB
330
EF7C85532
100
AcDbEntity
  8
JISSEN
100
AcDbPolyline
 90
        2
 70
     0
 43
0.0
 10
87.87499963800014
 20
150.4917281645721
 42
-0.0047313531205585
 10
88.34529406238663
 20
150.5223486555727
 42
-0.0078363086204064
  0
ARC
  5
EF7C888EC
330
EF7C85532
100
AcDbEntity
  8
JISSEN
100
AcDbCircle
 10
86.49999963800008
 20
155.3564705969849
 30
0.0
 40
1.5
100
AcDbArc
 50
0.0
 51
75.74996730219813
  0
LINE
  5
EF7C888ED
330
EF7C85532
100
AcDbEntity
  8
JISSEN
100
AcDbLine
 10
86.86923040723081
 20
156.810316750831
 30
0.0
 11
86.75562296643096
 21
158.3629517750955
 31
0.0
  0
LINE
  5
EF7C888EE
330
EF7C85532
100
AcDbEntity
  8
JISSEN
100
AcDbLine
 10
86.80933052074692
 20
157.6289485327776
 30
0.0
 11
85.42926601815144
 21
157.6289485327776
 31
0.0
  0
LINE
  5
EF7C888EF
330
EF7C85532
100
AcDbEntity
  8
JISSEN
100
AcDbLine
 10
97.99999963800013
 20
149.9030921324583
 30
0.0
 11
97.99999963800013
 21
144.9030921324583
 31
0.0
  0
LINE
  5
EF7C888F0
330
EF7C85532
100
AcDbEntity
  8
JISSEN
100
AcDbLine
 10
94.99999963800012
 20
148.6530921324583
 30
0.0
 11
94.99999963800012
 21
144.9030921324583
 31
0.0
  0
LINE
  5
EF7C888F1
330
EF7C85532
100
AcDbEntity
  8
JISSEN
100
AcDbLine
 10
92.99999963800008
 20
149.763823153478
 30
0.0
 11
92.99999963800008
 21
146.0951159308091
 31
0.0
  0
ARC
  5
EF7C888F3
330
EF7C85532
100
AcDbEntity
  8
JISSEN
100
AcDbCircle
 10
84.49999963800014
 20
144.9030921324583
 30
0.0
 40
10.5
100
AcDbArc
 50
345.8509954910654
 51
0.0
  0
LINE
  5
EF7C888F4
330
EF7C85532
100
AcDbEntity
  8
JISSEN
100
AcDbLine
 10
93.34999963800004
 20
142.7070405482212
 30
0.0
 11
93.34999963800004
 21
142.5505982027515
 31
0.0
  0
ARC
  5
EF7C888F5
330
EF7C85532
100
AcDbEntity
  8
JISSEN
100
AcDbCircle
 10
93.2269693297087
 20
142.7030921324583
 30
0.0
 40
1.5
100
AcDbArc
 50
270.0
 51
345.8509954910646
  0
ARC
  5
EF7C888F6
330
EF7C85532
100
AcDbEntity
  8
JISSEN
100
AcDbCircle
 10
90.49999963799979
 20
137.411527830215
 30
0.0
 40
5.0
100
AcDbArc
 50
59.99999999999986
 51
63.67919017839033
  0
ARC
  5
EF7C888F7
330
EF7C85532
100
AcDbEntity
  8
JISSEN
100
AcDbCircle
 10
92.70586856768943
 20
142.5505982027515
 30
0.0
 40
0.6441310703106079
100
AcDbArc
 50
283.6591051852966
 51
0.0
  0
LINE
  5
EF7C888F8
330
EF7C85532
100
AcDbEntity
  8
JISSEN
100
AcDbLine
 10
93.2269693297087
 20
141.2030921324583
 30
0.0
 11
92.69999963800012
 21
141.2030921324583
 31
0.0
  0
LINE
  5
EF7C888F9
330
EF7C85532
100
AcDbEntity
  8
JISSEN
100
AcDbLine
 10
93.76195564611874
 20
141.3017393427391
 30
0.0
 11
92.99999963799979
 21
141.7416548491372
 31
0.0
  0
LINE
  5
EF7C888FA
330
EF7C85532
100
AcDbEntity
  8
JISSEN
100
AcDbLine
 10
92.49999963800012
 20
141.0030921324583
 30
0.0
 11
92.49999963800012
 21
138.1897549258404
 31
0.0
  0
LINE
  5
EF7C888FB
330
EF7C85532
100
AcDbEntity
  8
JISSEN
100
AcDbLine
 10
94.99999963800012
 20
146.2704276298885
 30
0.0
 11
92.99999963800008
 21
146.4457393289679
 31
0.0
  0
LINE
  5
EF7C888FC
330
EF7C85532
100
AcDbEntity
  8
JISSEN
100
AcDbLine
 10
93.49999963800001
 20
142.7299806911572
 30
0.0
 11
93.49999963800001
 21
145.6879370151619
 31
0.0
  0
LINE
  5
EF7C888FD
330
EF7C85532
100
AcDbEntity
  8
JISSEN
100
AcDbLine
 10
97.99999963800013
 20
146.0951159308091
 30
0.0
 11
98.3486226089907
 21
146.1256164886155
 31
0.0
  0
LINE
  5
EF7C888FE
330
EF7C85532
100
AcDbEntity
  8
JISSEN
100
AcDbLine
 10
93.12499963800012
 20
150.1530921324583
 30
0.0
 11
93.12499963800012
 21
154.6530921324583
 31
0.0
  0
ARC
  5
EF7C888FF
330
EF7C85532
100
AcDbEntity
  8
JISSEN
100
AcDbCircle
 10
93.49999963800014
 20
148.6530921324583
 30
0.0
 40
1.5
100
AcDbArc
 50
0.0
 51
90.0
  0
LINE
  5
EF7C88900
330
EF7C85532
100
AcDbEntity
  8
JISSEN
100
AcDbLine
 10
93.49999963800014
 20
150.1530921324583
 30
0.0
 11
93.12499963800012
 21
150.1530921324583
 31
0.0
  0
ARC
  5
EF7C88901
330
EF7C85532
100
AcDbEntity
  8
JISSEN
100
AcDbCircle
 10
90.49999963800019
 20
130.5776311035341
 30
0.0
 40
19.34838405080195
100
AcDbArc
 50
82.5760704103728
 51
83.75739577137416
  0
ARC
  5
EF7C88902
330
EF7C85532
100
AcDbEntity
  8
JISSEN
100
AcDbCircle
 10
90.49999963800008
 20
168.9500152034218
 30
0.0
 40
19.34838405080195
100
AcDbArc
 50
276.22224717316
 51
277.4239295896271
  0
LWPOLYLINE
  5
EF7C88903
330
EF7C85532
100
AcDbEntity
  8
JISSEN
100
AcDbPolyline
 90
        2
 70
     0
 43
0.0
 10
92.65470521361351
 20
150.5223486555727
 42
-0.0047313531205596
 10
93.12499963800012
 20
150.4917281645721
 42
-0.0263064786181953
  0
ARC
  5
EF7C88904
330
EF7C85532
100
AcDbEntity
  8
JISSEN
100
AcDbCircle
 10
93.12499963800012
 20
149.8530921324583
 30
0.0
 40
1.199999999999999
100
AcDbArc
 50
90.0
 51
111.4232972478955
  0
LINE
  5
EF7C88905
330
EF7C85532
100
AcDbEntity
  8
JISSEN
100
AcDbLine
 10
95.5707332578487
 20
157.6289485327776
 30
0.0
 11
94.19066875525317
 21
157.6289485327776
 31
0.0
  0
LINE
  5
EF7C88906
330
EF7C85532
100
AcDbEntity
  8
JISSEN
100
AcDbLine
 10
94.24437630956914
 20
158.3629517750955
 30
0.0
 11
94.13076886876927
 21
156.810316750831
 31
0.0
  0
ARC
  5
EF7C88907
330
EF7C85532
100
AcDbEntity
  8
JISSEN
100
AcDbCircle
 10
94.49999963800008
 20
155.3564705969849
 30
0.0
 40
1.5
100
AcDbArc
 50
104.2500326978052
 51
180.0
  0
LINE
  5
EF7C88908
330
EF7C85532
100
AcDbEntity
  8
JISSEN
100
AcDbLine
 10
96.99999963800008
 20
155.7451159308091
 30
0.0
 11
97.14999963800005
 21
155.7451159308091
 31
0.0
  0
ELLIPSE
  5
EF7C88909
330
EF7C85532
100
AcDbEntity
  8
JISSEN
100
AcDbEllipse
 10
86.24999963800007
 20
177.5419426192046
 30
0.0
 11
-1.0
 21
0.0
 31
0.0
210
0.0
220
0.0
230
1.0
 40
0.4999999999999858
 41
-1.570796326794896
 42
0.0
1001
ACAD
1000
ASC_BOUNDS
1002
{
1070
    19
1002
}
  0
LINE
  5
EF7C8890A
330
EF7C85532
100
AcDbEntity
  8
JISSEN
100
AcDbLine
 10
84.33210838417346
 20
173.9493964675632
 30
0.0
 11
89.04999963800003
 21
173.9493964675632
 31
0.0
  0
LINE
  5
EF7C8890B
330
EF7C85532
100
AcDbEntity
  8
JISSEN
100
AcDbLine
 10
84.83210838417347
 20
174.666487139589
 30
0.0
 11
88.54999963800009
 21
174.666487139589
 31
0.0
  0
LINE
  5
EF7C8890C
330
EF7C85532
100
AcDbEntity
  8
JISSEN
100
AcDbLine
 10
86.49999963800002
 20
159.316178953407
 30
0.0
 11
84.91191811394248
 21
159.175752512671
 31
0.0
  0
ARC
  5
EF7C8890D
330
EF7C85532
100
AcDbEntity
  8
JISSEN
100
AcDbCircle
 10
78.94496519214545
 20
174.166487139589
 30
0.0
 40
0.5
100
AcDbArc
 50
90.0
 51
179.9999999999991
  0
LINE
  5
EF7C8890E
330
EF7C85532
100
AcDbEntity
  8
JISSEN
100
AcDbLine
 10
75.5925746798942
 20
161.6120462442508
 30
0.0
 11
83.56684456063339
 21
171.0419426192046
 31
0.0
  0
ARC
  5
EF7C8890F
330
EF7C85532
100
AcDbEntity
  8
JISSEN
100
AcDbCircle
 10
78.24496519214545
 20
171.2419426192045
 30
0.0
 40
0.2
100
AcDbArc
 50
269.9999999999983
 51
0.0
  0
ARC
  5
EF7C88910
330
EF7C85532
100
AcDbEntity
  8
JISSEN
100
AcDbCircle
 10
75.30651060283469
 20
174.166487139589
 30
0.0
 40
0.5
100
AcDbArc
 50
90.0
 51
179.9999999999991
  0
ARC
  5
EF7C88911
330
EF7C85532
100
AcDbEntity
  8
JISSEN
100
AcDbCircle
 10
74.60651060283471
 20
171.2419426192046
 30
0.0
 40
0.2
100
AcDbArc
 50
270.0000000000016
 51
0.0
  0
LINE
  5
EF7C88912
330
EF7C85532
100
AcDbEntity
  8
JISSEN
100
AcDbLine
 10
74.05651060283469
 20
175.166487139589
 30
0.0
 11
74.05651060283469
 21
171.2419426192045
 31
0.0
  0
LINE
  5
EF7C88913
330
EF7C85532
100
AcDbEntity
  8
JISSEN
100
AcDbLine
 10
73.65651060283472
 20
175.466487139589
 30
0.0
 11
73.65651060283472
 21
171.2419426192045
 31
0.0
  0
LINE
  5
EF7C88914
330
EF7C85532
100
AcDbEntity
  8
JISSEN
100
AcDbLine
 10
72.99999963800008
 20
175.1740832630829
 30
0.0
 11
72.99999963800008
 21
171.2419426192045
 31
0.0
  0
ARC
  5
EF7C88915
330
EF7C85532
100
AcDbEntity
  8
JISSEN
100
AcDbCircle
 10
73.19999963800007
 20
171.2419426192045
 30
0.0
 40
0.2
100
AcDbArc
 50
180.0
 51
270.0000000000032
  0
LINE
  5
EF7C88916
330
EF7C85532
100
AcDbEntity
  8
JISSEN
100
AcDbLine
 10
73.8565106028347
 20
171.0419426192045
 30
0.0
 11
73.8565106028347
 21
171.0419426192045
 31
0.0
  0
LINE
  5
EF7C88917
330
EF7C85532
100
AcDbEntity
  8
JISSEN
100
AcDbLine
 10
74.60651060283471
 20
171.0419426192046
 30
0.0
 11
73.19999963800007
 21
171.0419426192045
 31
0.0
  0
ARC
  5
EF7C88918
330
EF7C85532
100
AcDbEntity
  8
JISSEN
100
AcDbCircle
 10
73.8565106028347
 20
171.2419426192045
 30
0.0
 40
0.2
100
AcDbArc
 50
270.0
 51
0.0
  0
ARC
  5
EF7C88919
330
EF7C85532
100
AcDbEntity
  8
JISSEN
100
AcDbCircle
 10
73.8565106028347
 20
171.2419426192045
 30
0.0
 40
0.2
100
AcDbArc
 50
179.9999999999991
 51
270.0
  0
LINE
  5
EF7C8891A
330
EF7C85532
100
AcDbEntity
  8
JISSEN
100
AcDbLine
 10
74.80651060283469
 20
174.166487139589
 30
0.0
 11
74.80651060283469
 21
171.2419426192046
 31
0.0
  0
ARC
  5
EF7C8891B
330
EF7C85532
100
AcDbEntity
  8
JISSEN
100
AcDbCircle
 10
73.49999963800008
 20
175.1740832630829
 30
0.0
 40
0.5
100
AcDbArc
 50
132.632018715482
 51
180.0
  0
ARC
  5
EF7C8891C
330
EF7C85532
100
AcDbEntity
  8
JISSEN
100
AcDbCircle
 10
74.55651060283469
 20
175.166487139589
 30
0.0
 40
0.5
100
AcDbArc
 50
131.3306502819574
 51
180.0
  0
ARC
  5
EF7C8891D
330
EF7C85532
100
AcDbEntity
  8
JISSEN
100
AcDbCircle
 10
73.45651060283472
 20
175.466487139589
 30
0.0
 40
0.2
100
AcDbArc
 50
359.9999999999992
 51
22.16514006096896
  0
LINE
  5
EF7C8891E
330
EF7C85532
100
AcDbEntity
  8
JISSEN
100
AcDbLine
 10
77.94496519214544
 20
171.2419426192046
 30
0.0
 11
77.94496519214544
 21
175.166487139589
 31
0.0
  0
LINE
  5
EF7C8891F
330
EF7C85532
100
AcDbEntity
  8
JISSEN
100
AcDbLine
 10
77.04496519214547
 20
171.2419426192046
 30
0.0
 11
77.04496519214558
 21
175.166487139589
 31
0.0
  0
LINE
  5
EF7C88920
330
EF7C85532
100
AcDbEntity
  8
JISSEN
100
AcDbLine
 10
78.24496519214545
 20
171.0419426192045
 30
0.0
 11
77.24496519214551
 21
171.0419426192046
 31
0.0
  0
ARC
  5
EF7C88921
330
EF7C85532
100
AcDbEntity
  8
JISSEN
100
AcDbCircle
 10
77.24496519214551
 20
171.2419426192046
 30
0.0
 40
0.2
100
AcDbArc
 50
179.9999999999991
 51
269.9999999999983
  0
ARC
  5
EF7C88922
330
EF7C85532
100
AcDbEntity
  8
JISSEN
100
AcDbCircle
 10
77.74496519214546
 20
171.2419426192046
 30
0.0
 40
0.2
100
AcDbArc
 50
269.9999999999967
 51
0.0
  0
LINE
  5
EF7C88923
330
EF7C85532
100
AcDbEntity
  8
JISSEN
100
AcDbLine
 10
75.30651060283469
 20
174.666487139589
 30
0.0
 11
77.04496519214547
 21
174.666487139589
 31
0.0
  0
ARC
  5
EF7C88924
330
EF7C85532
100
AcDbEntity
  8
JISSEN
100
AcDbCircle
 10
78.44496519214544
 20
175.166487139589
 30
0.0
 40
0.5
100
AcDbArc
 50
131.3306502819574
 51
179.9999999999991
  0
ARC
  5
EF7C88925
330
EF7C85532
100
AcDbEntity
  8
JISSEN
100
AcDbCircle
 10
76.54496519214558
 20
175.166487139589
 30
0.0
 40
0.5
100
AcDbArc
 50
359.9999999999992
 51
48.66934971804258
  0
LINE
  5
EF7C88926
330
EF7C85532
100
AcDbEntity
  8
JISSEN
100
AcDbLine
 10
83.84999963800011
 20
158.7134804699108
 30
0.0
 11
83.99999963800008
 21
158.7134804699108
 31
0.0
  0
LINE
  5
EF7C88927
330
EF7C85532
100
AcDbEntity
  8
JISSEN
100
AcDbLine
 10
80.5142132003732
 20
173.9493964675632
 30
0.0
 11
82.68210838417349
 21
173.9493964675632
 31
0.0
  0
LINE
  5
EF7C88928
330
EF7C85532
100
AcDbEntity
  8
JISSEN
100
AcDbLine
 10
78.94496519214545
 20
174.666487139589
 30
0.0
 11
82.68210838417349
 21
174.666487139589
 31
0.0
  0
LINE
  5
EF7C88929
330
EF7C85532
100
AcDbEntity
  8
JISSEN
100
AcDbLine
 10
79.38290896597436
 20
174.666487139589
 30
0.0
 11
79.80710641918665
 21
174.2422896863766
 31
0.0
  0
ARC
  5
EF7C8892A
330
EF7C85532
100
AcDbEntity
  8
JISSEN
100
AcDbCircle
 10
80.5142132003732
 20
174.9493964675632
 30
0.0
 40
1.0
100
AcDbArc
 50
225.0
 51
270.0
  0
LINE
  5
EF7C8892B
330
EF7C85532
100
AcDbEntity
  8
JISSEN
100
AcDbLine
 10
78.44496519214544
 20
171.2419426192045
 30
0.0
 11
78.44496519214544
 21
174.166487139589
 31
0.0
  0
ARC
  5
EF7C8892C
330
EF7C85532
100
AcDbEntity
  8
JISSEN
100
AcDbCircle
 10
84.83210838417347
 20
174.166487139589
 30
0.0
 40
0.5
100
AcDbArc
 50
90.0
 51
180.0
  0
LINE
  5
EF7C8892D
330
EF7C85532
100
AcDbEntity
  8
JISSEN
100
AcDbLine
 10
84.08210838417346
 20
171.2419426192045
 30
0.0
 11
84.08210838417346
 21
175.166487139589
 31
0.0
  0
LINE
  5
EF7C8892E
330
EF7C85532
100
AcDbEntity
  8
JISSEN
100
AcDbLine
 10
82.68210838417354
 20
171.2419426192046
 30
0.0
 11
82.68210838417349
 21
175.1664871395889
 31
0.0
  0
LINE
  5
EF7C8892F
330
EF7C85532
100
AcDbEntity
  8
JISSEN
100
AcDbLine
 10
84.13210838417347
 20
171.0419426192045
 30
0.0
 11
82.88210838417354
 21
171.0419426192046
 31
0.0
  0
ARC
  5
EF7C88930
330
EF7C85532
100
AcDbEntity
  8
JISSEN
100
AcDbCircle
 10
82.88210838417354
 20
171.2419426192046
 30
0.0
 40
0.2
100
AcDbArc
 50
180.0000000000007
 51
270.0
  0
LINE
  5
EF7C88931
330
EF7C85532
100
AcDbEntity
  8
JISSEN
100
AcDbLine
 10
85.24999963800002
 20
173.9493964675632
 30
0.0
 11
85.24999963800008
 21
172.8947566696488
 31
0.0
  0
ARC
  5
EF7C88932
330
EF7C85532
100
AcDbEntity
  8
JISSEN
100
AcDbCircle
 10
84.13210838417347
 20
171.2419426192045
 30
0.0
 40
0.2
100
AcDbArc
 50
270.0
 51
0.0
  0
ARC
  5
EF7C88933
330
EF7C85532
100
AcDbEntity
  8
JISSEN
100
AcDbCircle
 10
83.88210838417348
 20
171.2419426192045
 30
0.0
 40
0.2
100
AcDbArc
 50
270.0
 51
0.0
  0
LINE
  5
EF7C88934
330
EF7C85532
100
AcDbEntity
  8
JISSEN
100
AcDbLine
 10
84.33210838417346
 20
171.8093131699289
 30
0.0
 11
85.24999963800008
 21
172.8947566696488
 31
0.0
  0
LINE
  5
EF7C88935
330
EF7C85532
100
AcDbEntity
  8
JISSEN
100
AcDbLine
 10
84.33210838417346
 20
171.2419426192045
 30
0.0
 11
84.33210838417346
 21
174.166487139589
 31
0.0
  0
ARC
  5
EF7C88936
330
EF7C85532
100
AcDbEntity
  8
JISSEN
100
AcDbCircle
 10
82.18210838417348
 20
175.1664871395889
 30
0.0
 40
0.5
100
AcDbArc
 50
0.0000000000016284
 51
48.66934971804894
  0
ARC
  5
EF7C88937
330
EF7C85532
100
AcDbEntity
  8
JISSEN
100
AcDbCircle
 10
84.58210838417347
 20
175.166487139589
 30
0.0
 40
0.5
100
AcDbArc
 50
131.3306502819574
 51
180.0
  0
LINE
  5
EF7C88938
330
EF7C85532
100
AcDbEntity
  8
JISSEN
100
AcDbLine
 10
92.94441112302292
 20
162.7419426192046
 30
0.0
 11
92.0148802544843
 21
161.8124117506658
 31
0.0
  0
LINE
  5
EF7C88939
330
EF7C85532
100
AcDbEntity
  8
JISSEN
100
AcDbLine
 10
93.29599354721414
 20
162.7419426192046
 30
0.0
 11
90.49999963800008
 21
162.7419426192046
 31
0.0
  0
LINE
  5
EF7C8893A
330
EF7C85532
100
AcDbEntity
  8
JISSEN
100
AcDbLine
 10
87.22707384637079
 20
162.7419426192046
 30
0.0
 11
93.77292542962925
 21
162.7419426192046
 31
0.0
  0
LINE
  5
EF7C8893B
330
EF7C85532
100
AcDbEntity
  8
JISSEN
100
AcDbLine
 10
91.949999638
 20
173.9493964675632
 30
0.0
 11
96.66789089182657
 21
173.9493964675633
 31
0.0
  0
LINE
  5
EF7C8893C
330
EF7C85532
100
AcDbEntity
  8
JISSEN
100
AcDbLine
 10
92.44999963800001
 20
174.666487139589
 30
0.0
 11
96.16789089182658
 21
174.666487139589
 31
0.0
  0
LINE
  5
EF7C8893D
330
EF7C85532
100
AcDbEntity
  8
JISSEN
100
AcDbLine
 10
86.24999963800007
 20
178.0419426192046
 30
0.0
 11
94.74999963800007
 21
178.0419426192046
 31
0.0
  0
LINE
  5
EF7C8893E
330
EF7C85532
100
AcDbEntity
  8
JISSEN
100
AcDbLine
 10
86.49999963800002
 20
161.131539529376
 30
0.0
 11
94.49999963800008
 21
161.131539529376
 31
0.0
  0
ARC
  5
EF7C8893F
330
EF7C85532
100
AcDbEntity
  8
JISSEN
100
AcDbCircle
 10
73.74999963800007
 20
168.2406786676251
 30
0.0
 40
12.49999999999999
100
AcDbArc
 50
343.7397952916881
 51
16.26020470831189
  0
LINE
  5
EF7C88941
330
EF7C85532
100
AcDbEntity
  8
JISSEN
100
AcDbLine
 10
88.05558815297718
 20
162.7419426192046
 30
0.0
 11
88.9851190222871
 21
161.8124117498945
 31
0.0
  0
ARC
  5
EF7C88942
330
EF7C85532
100
AcDbEntity
  8
JISSEN
100
AcDbCircle
 10
90.50078419349246
 20
162.3007458651926
 30
0.0
 40
1.6
100
AcDbArc
 50
197.3317314661472
 51
226.9496384605331
  0
ARC
  5
EF7C88943
330
EF7C85532
100
AcDbEntity
  8
JISSEN
100
AcDbCircle
 10
90.50078419349246
 20
162.3007458651926
 30
0.0
 40
1.6
100
AcDbArc
 50
197.3317314661421
 51
226.9496384605331
  0
ARC
  5
EF7C88944
330
EF7C85532
100
AcDbEntity
  8
JISSEN
100
AcDbCircle
 10
86.74999963800008
 20
162.5922756565594
 30
0.0
 40
0.5
100
AcDbArc
 50
17.41760153490949
 51
120.0000000000001
  0
LINE
  5
EF7C88945
330
EF7C85532
100
AcDbEntity
  8
JISSEN
100
AcDbLine
 10
86.49999963800002
 20
158.7564705969849
 30
0.0
 11
86.49999963800002
 21
161.131539529376
 31
0.0
  0
ARC
  5
EF7C88946
330
EF7C85532
100
AcDbEntity
  8
JISSEN
100
AcDbCircle
 10
90.50078419349246
 20
162.3007458651926
 30
0.0
 40
1.6
100
AcDbArc
 50
313.0503615394668
 51
342.7537116970571
  0
ARC
  5
EF7C88947
330
EF7C85532
100
AcDbEntity
  8
JISSEN
100
AcDbCircle
 10
88.54999963800009
 20
174.166487139589
 30
0.0
 40
0.5
100
AcDbArc
 50
0.0
 51
90.0
  0
ARC
  5
EF7C88948
330
EF7C85532
100
AcDbEntity
  8
JISSEN
100
AcDbCircle
 10
88.54999963800002
 20
175.166487139589
 30
0.0
 40
0.5
100
AcDbArc
 50
0.0
 51
48.66934971803908
  0
ARC
  5
EF7C88949
330
EF7C85532
100
AcDbEntity
  8
JISSEN
100
AcDbCircle
 10
92.44999963800001
 20
174.166487139589
 30
0.0
 40
0.5
100
AcDbArc
 50
90.0
 51
180.0000000000007
  0
LINE
  5
EF7C8894A
330
EF7C85532
100
AcDbEntity
  8
JISSEN
100
AcDbLine
 10
91.949999638
 20
175.166487139589
 30
0.0
 11
91.949999638
 21
171.2419426192046
 31
0.0
  0
LINE
  5
EF7C8894B
330
EF7C85532
100
AcDbEntity
  8
JISSEN
100
AcDbLine
 10
89.04999963800014
 20
175.166487139589
 30
0.0
 11
89.04999963800003
 21
171.2419426192046
 31
0.0
  0
LINE
  5
EF7C8894C
330
EF7C85532
100
AcDbEntity
  8
JISSEN
100
AcDbLine
 10
91.74999963800003
 20
171.0419426192046
 30
0.0
 11
89.24999963800008
 21
171.0419426192046
 31
0.0
  0
ARC
  5
EF7C8894D
330
EF7C85532
100
AcDbEntity
  8
JISSEN
100
AcDbCircle
 10
89.24999963800008
 20
171.2419426192046
 30
0.0
 40
0.2
100
AcDbArc
 50
179.9999999999991
 51
270.0
  0
ARC
  5
EF7C8894E
330
EF7C85532
100
AcDbEntity
  8
JISSEN
100
AcDbCircle
 10
91.74999963800003
 20
171.2419426192046
 30
0.0
 40
0.2
100
AcDbArc
 50
270.0
 51
0.0
  0
ARC
  5
EF7C8894F
330
EF7C85532
100
AcDbEntity
  8
JISSEN
100
AcDbCircle
 10
92.44999963799996
 20
175.166487139589
 30
0.0
 40
0.5
100
AcDbArc
 50
131.3306502819609
 51
180.0000000000007
  0
ARC
  5
EF7C88950
330
EF7C85532
100
AcDbEntity
  8
JISSEN
100
AcDbCircle
 10
107.2499996379999
 20
168.2406786676251
 30
0.0
 40
12.49999999999999
100
AcDbArc
 50
163.739795291688
 51
196.2602047083119
  0
LINE
  5
EF7C88951
330
EF7C85532
100
AcDbEntity
  8
JISSEN
100
AcDbLine
 10
94.49999963800008
 20
159.316178953407
 30
0.0
 11
96.08808116205763
 21
159.175752512671
 31
0.0
  0
ARC
  5
EF7C88952
330
EF7C85532
100
AcDbEntity
  8
JISSEN
100
AcDbCircle
 10
94.24999963800008
 20
162.5922756565594
 30
0.0
 40
0.5
100
AcDbArc
 50
59.99999999999986
 51
162.5823984650905
  0
LINE
  5
EF7C88953
330
EF7C85532
100
AcDbEntity
  8
JISSEN
100
AcDbLine
 10
94.49999963800008
 20
161.131539529376
 30
0.0
 11
94.49999963800008
 21
158.7564705969849
 31
0.0
  0
LINE
  5
EF7C88954
330
EF7C85532
100
AcDbEntity
  8
JISSEN
100
AcDbLine
 10
96.99999963800003
 20
158.7134804699108
 30
0.0
 11
97.14999963800005
 21
158.7134804699108
 31
0.0
  0
LINE
  5
EF7C88955
330
EF7C85532
100
AcDbEntity
  8
JISSEN
100
AcDbLine
 10
96.66789089182657
 20
171.809313169929
 30
0.0
 11
95.74999963800008
 21
172.8947566696488
 31
0.0
  0
LINE
  5
EF7C88956
330
EF7C85532
100
AcDbEntity
  8
JISSEN
100
AcDbLine
 10
95.74999963800008
 20
173.9493964675633
 30
0.0
 11
95.74999963800008
 21
172.8947566696488
 31
0.0
  0
ELLIPSE
  5
EF7C88957
330
EF7C85532
100
AcDbEntity
  8
JISSEN
100
AcDbEllipse
 10
94.74999963800007
 20
177.5419426192046
 30
0.0
 11
1.0
 21
0.0
 31
0.0
210
0.0
220
0.0
230
-1.0
 40
0.4999999999999858
 41
-1.570796326794896
 42
0.0
1001
ACAD
1000
ASC_BOUNDS
1002
{
1070
    19
1002
}
  0
ARC
  5
EF7C88958
330
EF7C85532
100
AcDbEntity
  8
JISSEN
100
AcDbCircle
 10
96.16789089182658
 20
174.166487139589
 30
0.0
 40
0.5
100
AcDbArc
 50
0.0
 51
90.0
  0
LINE
  5
EF7C88959
330
EF7C85532
100
AcDbEntity
  8
JISSEN
100
AcDbLine
 10
98.31789089182656
 20
171.2419426192046
 30
0.0
 11
98.31789089182656
 21
175.166487139589
 31
0.0
  0
LINE
  5
EF7C8895A
330
EF7C85532
100
AcDbEntity
  8
JISSEN
100
AcDbLine
 10
96.91789089182657
 20
171.2419426192046
 30
0.0
 11
96.91789089182657
 21
175.1664871395889
 31
0.0
  0
LINE
  5
EF7C8895B
330
EF7C85532
100
AcDbEntity
  8
JISSEN
100
AcDbLine
 10
98.11789089182651
 20
171.0419426192046
 30
0.0
 11
96.86789089182651
 21
171.0419426192046
 31
0.0
  0
ARC
  5
EF7C8895C
330
EF7C85532
100
AcDbEntity
  8
JISSEN
100
AcDbCircle
 10
97.11789089182657
 20
171.2419426192046
 30
0.0
 40
0.2
100
AcDbArc
 50
180.0
 51
270.0
  0
ARC
  5
EF7C8895D
330
EF7C85532
100
AcDbEntity
  8
JISSEN
100
AcDbCircle
 10
96.86789089182651
 20
171.2419426192046
 30
0.0
 40
0.2
100
AcDbArc
 50
180.0
 51
270.0
  0
LINE
  5
EF7C8895E
330
EF7C85532
100
AcDbEntity
  8
JISSEN
100
AcDbLine
 10
96.66789089182657
 20
171.2419426192046
 30
0.0
 11
96.66789089182657
 21
174.166487139589
 31
0.0
  0
ARC
  5
EF7C8895F
330
EF7C85532
100
AcDbEntity
  8
JISSEN
100
AcDbCircle
 10
98.11789089182651
 20
171.2419426192046
 30
0.0
 40
0.2
100
AcDbArc
 50
270.0
 51
0.0
  0
ARC
  5
EF7C88960
330
EF7C85532
100
AcDbEntity
  8
JISSEN
100
AcDbCircle
 10
96.41789089182658
 20
175.1664871395889
 30
0.0
 40
0.5
100
AcDbArc
 50
0.0
 51
48.6693497180472
  0
ARC
  5
EF7C88961
330
EF7C85532
100
AcDbEntity
  8
JISSEN
100
AcDbCircle
 10
98.81789089182655
 20
175.166487139589
 30
0.0
 40
0.5
100
AcDbArc
 50
131.3306502819655
 51
180.0
  0
ARC
  5
EF7C88963
330
EF7C85532
100
AcDbEntity
  8
JISSEN
100
AcDbCircle
 10
82.49999963800007
 20
142.2406786676251
 30
0.0
 40
30.0
100
AcDbArc
 50
0.0
 51
40.21909874455518
  0
ARC
  5
EF7C88964
330
EF7C85532
100
AcDbEntity
  8
JISSEN
100
AcDbCircle
 10
95.54674140723426
 20
140.9332786215166
 30
0.0
 40
17.0
100
AcDbArc
 50
294.4511428072333
 51
4.70122001158964
  0
ARC
  5
EF7C88965
330
EF7C85532
100
AcDbEntity
  8
JISSEN
100
AcDbCircle
 10
95.49999963800008
 20
142.2406786676251
 30
0.0
 40
15.0
100
AcDbArc
 50
306.6829888003599
 51
0.0
  0
LINE
  5
EF7C88966
330
EF7C85532
100
AcDbEntity
  8
JISSEN
100
AcDbLine
 10
99.76639631467049
 20
123.3713518654292
 30
0.0
 11
99.76639631467049
 21
129.3713518654292
 31
0.0
  0
LINE
  5
EF7C88967
330
EF7C85532
100
AcDbEntity
  8
JISSEN
100
AcDbLine
 10
101.9663963146704
 20
121.3713518654292
 30
0.0
 11
103.8698750472679
 21
120.2723779067674
 31
0.0
  0
ARC
  5
EF7C88968
330
EF7C85532
100
AcDbEntity
  8
JISSEN
100
AcDbCircle
 10
102.9663963146704
 20
124.5488718137089
 30
0.0
 40
1.0
100
AcDbArc
 50
114.6243183521636
 51
180.0
  0
LINE
  5
EF7C88969
330
EF7C85532
100
AcDbEntity
  8
JISSEN
100
AcDbLine
 10
101.9663963146704
 20
124.5488718137089
 30
0.0
 11
101.9663963146704
 21
121.3713518654292
 31
0.0
  0
ARC
  5
EF7C8896A
330
EF7C85532
100
AcDbEntity
  8
JISSEN
100
AcDbCircle
 10
101.4738703609247
 20
134.2211482209105
 30
0.0
 40
5.0
100
AcDbArc
 50
284.6790800521976
 51
306.6829888003599
  0
ARC
  5
EF7C8896B
330
EF7C85532
100
AcDbEntity
  8
JISSEN
100
AcDbCircle
 10
104.3877481696683
 20
123.0975613392488
 30
0.0
 40
6.498907295833106
100
AcDbArc
 50
104.6790800521975
 51
135.3242201032838
  0
ARC
  5
EF7C8896C
330
EF7C85532
100
AcDbEntity
  8
JISSEN
100
AcDbCircle
 10
82.49999963800007
 20
142.2406786676251
 30
0.0
 40
26.0
100
AcDbArc
 50
353.5656684448997
 51
23.81884139345626
  0
LINE
  5
EF7C8896E
330
EF7C85532
100
AcDbEntity
  8
JISSEN
100
AcDbLine
 10
101.999999638
 20
153.5665197211092
 30
0.0
 11
101.999999638
 21
150.1103952809825
 31
0.0
  0
LINE
  5
EF7C8896F
330
EF7C85532
100
AcDbEntity
  8
JISSEN
100
AcDbLine
 10
101.999999638
 20
150.0951159308091
 30
0.0
 11
101.999999638
 21
150.0951159308091
 31
0.0
  0
ARC
  5
EF7C88970
330
EF7C85532
100
AcDbEntity
  8
JISSEN
100
AcDbCircle
 10
100.999999638
 20
153.5665197211092
 30
0.0
 40
1.0
100
AcDbArc
 50
0.0
 51
94.99999999999982
  0
ARC
  5
EF7C88971
330
EF7C85532
100
AcDbEntity
  8
JISSEN
100
AcDbCircle
 10
82.49999963800007
 20
142.2406786676251
 30
0.0
 40
28.0
100
AcDbArc
 50
0.0
 51
22.02431283704207
  0
LINE
  5
EF7C88972
330
EF7C85532
100
AcDbEntity
  8
JISSEN
100
AcDbLine
 10
107.1434886731652
 20
171.0419426192046
 30
0.0
 11
106.3934886731652
 21
171.0419426192046
 31
0.0
  0
ARC
  5
EF7C88973
330
EF7C85532
100
AcDbEntity
  8
JISSEN
100
AcDbCircle
 10
103.2550340838545
 20
171.2419426192046
 30
0.0
 40
0.2
100
AcDbArc
 50
179.9999999999991
 51
270.0
  0
LINE
  5
EF7C88974
330
EF7C85532
100
AcDbEntity
  8
JISSEN
100
AcDbLine
 10
103.7550340838544
 20
171.0419426192046
 30
0.0
 11
102.7550340838545
 21
171.0419426192046
 31
0.0
  0
LINE
  5
EF7C88975
330
EF7C85532
100
AcDbEntity
  8
JISSEN
100
AcDbLine
 10
101.6170903100259
 20
174.666487139589
 30
0.0
 11
101.1928928568136
 21
174.2422896863767
 31
0.0
  0
ARC
  5
EF7C88976
330
EF7C85532
100
AcDbEntity
  8
JISSEN
100
AcDbCircle
 10
102.0550340838545
 20
174.166487139589
 30
0.0
 40
0.5
100
AcDbArc
 50
359.9999999999992
 51
90.0
  0
LINE
  5
EF7C88977
330
EF7C85532
100
AcDbEntity
  8
JISSEN
100
AcDbLine
 10
103.0550340838544
 20
171.2419426192046
 30
0.0
 11
103.0550340838545
 21
175.166487139589
 31
0.0
  0
ARC
  5
EF7C88978
330
EF7C85532
100
AcDbEntity
  8
JISSEN
100
AcDbCircle
 10
100.485786075627
 20
174.9493964675633
 30
0.0
 40
1.0
100
AcDbArc
 50
270.0
 51
315.0000000000005
  0
ARC
  5
EF7C88979
330
EF7C85532
100
AcDbEntity
  8
JISSEN
100
AcDbCircle
 10
102.7550340838545
 20
171.2419426192046
 30
0.0
 40
0.2
100
AcDbArc
 50
179.9999999999975
 51
270.0
  0
LINE
  5
EF7C8897A
330
EF7C85532
100
AcDbEntity
  8
JISSEN
100
AcDbLine
 10
102.5550340838544
 20
171.2419426192046
 30
0.0
 11
102.5550340838546
 21
174.166487139589
 31
0.0
  0
ARC
  5
EF7C8897B
330
EF7C85532
100
AcDbEntity
  8
JISSEN
100
AcDbCircle
 10
102.499999638
 20
175.5493964675632
 30
0.0
 40
1.0
100
AcDbArc
 50
83.00000000000057
 51
97.85397646494905
  0
ARC
  5
EF7C8897C
330
EF7C85532
100
AcDbEntity
  8
JISSEN
100
AcDbCircle
 10
102.5550340838546
 20
175.166487139589
 30
0.0
 40
0.5
100
AcDbArc
 50
359.9999999999992
 51
48.66934971803908
  0
ARC
  5
EF7C8897D
330
EF7C85532
100
AcDbEntity
  8
JISSEN
100
AcDbCircle
 10
105.6934886731653
 20
174.1664871395889
 30
0.0
 40
0.5
100
AcDbArc
 50
359.9999999999992
 51
90.0
  0
LINE
  5
EF7C8897E
330
EF7C85532
100
AcDbEntity
  8
JISSEN
100
AcDbLine
 10
103.9550340838544
 20
171.2419426192046
 30
0.0
 11
103.9550340838544
 21
175.166487139589
 31
0.0
  0
ARC
  5
EF7C8897F
330
EF7C85532
100
AcDbEntity
  8
JISSEN
100
AcDbCircle
 10
103.7550340838544
 20
171.2419426192046
 30
0.0
 40
0.2
100
AcDbArc
 50
270.0
 51
0.0
  0
ARC
  5
EF7C88980
330
EF7C85532
100
AcDbEntity
  8
JISSEN
100
AcDbCircle
 10
106.3934886731652
 20
171.2419426192046
 30
0.0
 40
0.2
100
AcDbArc
 50
179.9999999999975
 51
269.9999999999983
  0
LINE
  5
EF7C88981
330
EF7C85532
100
AcDbEntity
  8
JISSEN
100
AcDbLine
 10
106.1934886731653
 20
174.1664871395889
 30
0.0
 11
106.1934886731652
 21
171.2419426192046
 31
0.0
  0
LINE
  5
EF7C88982
330
EF7C85532
100
AcDbEntity
  8
JISSEN
100
AcDbLine
 10
103.9550340838544
 20
174.666487139589
 30
0.0
 11
105.6934886731653
 21
174.666487139589
 31
0.0
  0
ARC
  5
EF7C88983
330
EF7C85532
100
AcDbEntity
  8
JISSEN
100
AcDbCircle
 10
104.4550340838544
 20
175.166487139589
 30
0.0
 40
0.5
100
AcDbArc
 50
131.3306502819678
 51
180.0
  0
LINE
  5
EF7C88984
330
EF7C85532
100
AcDbEntity
  8
JISSEN
100
AcDbLine
 10
107.999999638
 20
175.1740832630829
 30
0.0
 11
107.999999638
 21
171.2419426192046
 31
0.0
  0
LINE
  5
EF7C88985
330
EF7C85532
100
AcDbEntity
  8
JISSEN
100
AcDbLine
 10
107.3434886731652
 20
175.4664871395889
 30
0.0
 11
107.3434886731652
 21
171.2419426192046
 31
0.0
  0
LINE
  5
EF7C88986
330
EF7C85532
100
AcDbEntity
  8
JISSEN
100
AcDbLine
 10
106.943488673165
 20
175.166487139589
 30
0.0
 11
106.9434886731652
 21
171.2419426192045
 31
0.0
  0
ARC
  5
EF7C88987
330
EF7C85532
100
AcDbEntity
  8
JISSEN
100
AcDbCircle
 10
107.799999638
 20
171.2419426192046
 30
0.0
 40
0.2
100
AcDbArc
 50
270.0000000000065
 51
0.0
  0
ARC
  5
EF7C88988
330
EF7C85532
100
AcDbEntity
  8
JISSEN
100
AcDbCircle
 10
107.1434886731652
 20
171.2419426192046
 30
0.0
 40
0.2
100
AcDbArc
 50
270.0
 51
0.0
  0
ARC
  5
EF7C88989
330
EF7C85532
100
AcDbEntity
  8
JISSEN
100
AcDbCircle
 10
107.1434886731652
 20
171.2419426192046
 30
0.0
 40
0.2
100
AcDbArc
 50
180.0000000000032
 51
270.0000000000049
  0
LINE
  5
EF7C8898A
330
EF7C85532
100
AcDbEntity
  8
JISSEN
100
AcDbLine
 10
107.799999638
 20
171.0419426192046
 30
0.0
 11
107.1434886731652
 21
171.0419426192046
 31
0.0
  0
ARC
  5
EF7C8898B
330
EF7C85532
100
AcDbEntity
  8
JISSEN
100
AcDbCircle
 10
107.499999638
 20
175.1740832630829
 30
0.0
 40
0.5
100
AcDbArc
 50
0.0
 51
47.36798128451741
  0
ARC
  5
EF7C8898C
330
EF7C85532
100
AcDbEntity
  8
JISSEN
100
AcDbCircle
 10
106.4434886731649
 20
175.166487139589
 30
0.0
 40
0.5
100
AcDbArc
 50
0.0000000000016284
 51
48.66934971803908
  0
ARC
  5
EF7C8898D
330
EF7C85532
100
AcDbEntity
  8
JISSEN
100
AcDbCircle
 10
107.5434886731652
 20
175.4664871395889
 30
0.0
 40
0.2
100
AcDbArc
 50
157.8348599390266
 51
180.0
  0
LINE
  5
EF7C8898E
330
EF7C85532
100
AcDbEntity
  8
JISSEN
100
AcDbLine
 10
140.499999638
 20
176.5547680769516
 30
0.0
 11
140.2320504455689
 21
175.5419426192046
 31
0.0
  0
LINE
  5
EF7C8898F
330
EF7C85532
100
AcDbEntity
  8
JISSEN
100
AcDbLine
 10
140.5133403495594
 20
176.5470658135416
 30
0.0
 11
138.7901631748793
 21
177.5419426192046
 31
0.0
  0
ARC
  5
EF7C88992
330
EF7C85532
100
AcDbEntity
  8
NITEN
100
AcDbCircle
 10
105.499999638
 20
115.2608029597055
 30
0.0
 40
1.499999999999943
100
AcDbArc
 50
359.9999999999989
 51
90.0
  0
LINE
  5
EF7C88993
330
EF7C85532
100
AcDbEntity
  8
NITEN
100
AcDbLine
 10
105.499999638
 20
116.7608029597054
 30
0.0
 11
75.49999963800002
 21
116.7608029597054
 31
0.0
  0
LINE
  5
EF7C88994
330
EF7C85532
100
AcDbEntity
  8
NITEN
100
AcDbLine
 10
79.9059484670035
 20
116.7608029597054
 30
0.0
 11
77.99999963800002
 21
116.7608029597054
 31
0.0
  0
ARC
  5
EF7C88995
330
EF7C85532
100
AcDbEntity
  8
NITEN
100
AcDbCircle
 10
75.49999963800002
 20
115.2608029597054
 30
0.0
 40
1.5
100
AcDbArc
 50
90.0
 51
180.0
  0
LINE
  5
EF7C88996
330
EF7C85532
100
AcDbEntity
  8
NITEN
100
AcDbLine
 10
73.99999963800002
 20
115.2608029597054
 30
0.0
 11
73.99999963800002
 21
104.2147869334875
 31
0.0
  0
ARC
  5
EF7C88997
330
EF7C85532
100
AcDbEntity
  8
NITEN
100
AcDbCircle
 10
68.99999963800002
 20
104.2147869334875
 30
0.0
 40
5.0
100
AcDbArc
 50
270.0
 51
0.0
  0
ARC
  5
EF7C88998
330
EF7C85532
100
AcDbEntity
  8
NITEN
100
AcDbCircle
 10
68.99999963800002
 20
97.21478693348752
 30
0.0
 40
2.0
100
AcDbArc
 50
90.0
 51
180.0
  0
LINE
  5
EF7C88999
330
EF7C85532
100
AcDbEntity
  8
NITEN
100
AcDbLine
 10
66.99999963800002
 20
97.21478693348752
 30
0.0
 11
66.99999963800007
 21
76.76080295970547
 31
0.0
  0
ARC
  5
EF7C8899A
330
EF7C85532
100
AcDbEntity
  8
NITEN
100
AcDbCircle
 10
68.99999963800008
 20
76.76080295970544
 30
0.0
 40
1.999999999999971
100
AcDbArc
 50
179.9999999999991
 51
269.9999999999992
  0
LINE
  5
EF7C8899B
330
EF7C85532
100
AcDbEntity
  8
NITEN
100
AcDbLine
 10
68.99999963800008
 20
74.76080295970547
 30
0.0
 11
111.999999638
 21
74.76080295970547
 31
0.0
  0
ARC
  5
EF7C8899C
330
EF7C85532
100
AcDbEntity
  8
NITEN
100
AcDbCircle
 10
111.999999638
 20
76.76080295970547
 30
0.0
 40
2.0
100
AcDbArc
 50
270.0
 51
0.0
  0
LINE
  5
EF7C8899D
330
EF7C85532
100
AcDbEntity
  8
NITEN
100
AcDbLine
 10
113.999999638
 20
76.76080295970547
 30
0.0
 11
113.999999638
 21
97.21478693348752
 31
0.0
  0
ARC
  5
EF7C8899E
330
EF7C85532
100
AcDbEntity
  8
NITEN
100
AcDbCircle
 10
111.999999638
 20
97.21478693348752
 30
0.0
 40
2.0
100
AcDbArc
 50
0.0
 51
90.0
  0
ARC
  5
EF7C8899F
330
EF7C85532
100
AcDbEntity
  8
NITEN
100
AcDbCircle
 10
111.999999638
 20
104.2147869334875
 30
0.0
 40
5.0
100
AcDbArc
 50
180.0
 51
270.0
  0
LINE
  5
EF7C889A0
330
EF7C85532
100
AcDbEntity
  8
NITEN
100
AcDbLine
 10
106.999999638
 20
104.2147869334875
 30
0.0
 11
106.999999638
 21
115.2608029597054
 31
0.0
  0
LWPOLYLINE
  5
EF7C889A1
330
EF7C85532
100
AcDbEntity
  8
NITEN
100
AcDbPolyline
 90
        2
 70
     0
 43
0.0
 10
70.99999963799999
 20
53.92308530855959
 42
0.5195636805304642
 10
90.49999963800003
 20
53.92308530855945
 42
0.5882352941176294
  0
LINE
  5
EF7C889A3
330
EF7C85532
100
AcDbEntity
  8
NITEN
100
AcDbLine
 10
70.99999963800001
 20
74.76080295970547
 30
0.0
 11
70.99999963800001
 21
53.92308530855962
 31
0.0
  0
ARC
  5
EF7C889A4
330
EF7C85532
100
AcDbEntity
  8
NITEN
100
AcDbCircle
 10
80.74999963800001
 20
47.0730853085596
 30
0.0
 40
11.91574588517228
100
AcDbArc
 50
35.09050030012364
 51
144.9094996998763
  0
ARC
  5
EF7C889A5
330
EF7C85532
100
AcDbEntity
  8
NITEN
100
AcDbCircle
 10
100.2499996379998
 20
60.77308530855976
 30
0.0
 40
11.91574588517225
100
AcDbArc
 50
215.0905003001244
 51
324.9094996998772
  0
LINE
  5
EF7C889A6
330
EF7C85532
100
AcDbEntity
  8
NITEN
100
AcDbLine
 10
109.999999638
 20
53.92308530855991
 30
0.0
 11
109.999999638
 21
74.76080295970547
 31
0.0
  0
INSERT
  5
EF7C889A7
330
EF7C85532
100
AcDbEntity
  8
SUNPOU
100
AcDbBlockReference
  2
ARROW
 10
90.49999963800008
 20
178.0419426192046
 30
0.0
 41
1.500000000000002
 42
1.5
 43
1.5
 50
244.0719355263533
  0
LINE
  5
EF7C889A8
330
EF7C85532
100
AcDbEntity
  8
SUNPOU
100
AcDbLine
 10
90.49999963800019
 20
178.0419426192046
 30
0.0
 11
100.1598672902529
 21
197.9108807223643
 31
0.0
  0
INSERT
  5
EF7C88B1B
330
EF7C85532
100
AcDbEntity
  8
WAKU
100
AcDbBlockReference
  2
WAKU
 10
180.999999276
 20
0.0
 30
0.0
 41
181.0
 42
283.0
 43
181.0
  0
TEXT
  5
EF7C88B2C
330
EF7C85532
100
AcDbEntity
  8
SUNPOU
100
AcDbText
 10
332.0437947214985
 20
7.849423898685245
 30
0.0
 40
3.0
  1
EUQR 作動状態
  7
K
100
AcDbText
  0
TEXT
  5
EF7C88B2D
330
EF7C85532
100
AcDbEntity
  8
SUNPOU
100
AcDbText
 10
332.0437947214985
 20
2.849423898685245
 30
0.0
 40
3.0
  1
尺度　1/1
  7
K
100
AcDbText
  0
ARC
  5
EF7C88B37
330
EF7C85532
100
AcDbEntity
  8
NITEN
100
AcDbCircle
 10
261.749998914
 20
47.0730853085596
 30
0.0
 40
11.91574588517228
100
AcDbArc
 50
35.09050030012364
 51
144.9094996998763
  0
LWPOLYLINE
  5
EF7C88B38
330
EF7C85532
100
AcDbEntity
  8
NITEN
100
AcDbPolyline
 90
        2
 70
     0
 43
0.0
 10
251.999998914
 20
53.92308530855959
 42
0.5195636805304642
 10
271.499998914
 20
53.92308530855945
 42
0.5882352941176294
  0
LINE
  5
EF7C88B39
330
EF7C85532
100
AcDbEntity
  8
NITEN
100
AcDbLine
 10
249.999998914
 20
74.76080295970547
 30
0.0
 11
292.999998914
 21
74.76080295970547
 31
0.0
  0
LINE
  5
EF7C88B3A
330
EF7C85532
100
AcDbEntity
  8
NITEN
100
AcDbLine
 10
286.4999989140001
 20
116.7608029597054
 30
0.0
 11
256.4999989139999
 21
116.7608029597054
 31
0.0
  0
LINE
  5
EF7C88B3B
330
EF7C85532
100
AcDbEntity
  8
JISSEN
100
AcDbLine
 10
272.749998914
 20
171.0419426192046
 30
0.0
 11
270.2499989140001
 21
171.0419426192046
 31
0.0
  0
LINE
  5
EF7C88B3C
330
EF7C85532
100
AcDbEntity
  8
JISSEN
100
AcDbLine
 10
267.2499989140001
 20
178.0419426192046
 30
0.0
 11
275.7499989140001
 21
178.0419426192046
 31
0.0
  0
LINE
  5
EF7C88B3D
330
EF7C85532
100
AcDbEntity
  8
JISSEN
100
AcDbLine
 10
268.2270731223708
 20
162.7419426192046
 30
0.0
 11
274.7729247056292
 21
162.7419426192046
 31
0.0
  0
LINE
  5
EF7C88B3E
330
EF7C85532
100
AcDbEntity
  8
JISSEN
100
AcDbLine
 10
258.0629168580731
 20
120.2723779067674
 30
0.0
 11
284.8698743232679
 21
120.2723779067674
 31
0.0
  0
LINE
  5
EF7C88B3F
330
EF7C85532
100
AcDbEntity
  8
JISSEN
100
AcDbLine
 10
282.9663955906705
 20
121.3713518654292
 30
0.0
 11
259.9663955906705
 21
121.3713518654292
 31
0.0
  0
LINE
  5
EF7C88B40
330
EF7C85532
100
AcDbEntity
  8
JISSEN
100
AcDbLine
 10
258.481750350117
 20
106.8703759201372
 30
0.0
 11
284.4510408312238
 21
106.8703759201372
 31
0.0
  0
LINE
  5
EF7C88B41
330
EF7C85532
100
AcDbEntity
  8
JISSEN
100
AcDbLine
 10
282.3885682076302
 20
104.8713518654292
 30
0.0
 11
260.5442229737108
 21
104.8713518654292
 31
0.0
  0
LINE
  5
EF7C88B42
330
EF7C85532
100
AcDbEntity
  8
JISSEN
100
AcDbLine
 10
260.5442229737108
 20
104.8713518654292
 30
0.0
 11
282.38856820763
 21
104.8713518654292
 31
0.0
  0
LINE
  5
EF7C88B43
330
EF7C85532
100
AcDbEntity
  8
JISSEN
100
AcDbLine
 10
221.8010501068231
 20
175.5419426192046
 30
0.0
 11
321.2320497215689
 21
175.5419426192046
 31
0.0
  0
LINE
  5
EF7C88B44
330
EF7C85532
100
AcDbEntity
  8
JISSEN
100
AcDbLine
 10
223.2098353771207
 20
177.5419426192046
 30
0.0
 11
319.7901624508795
 21
177.5419426192046
 31
0.0
  0
LINE
  5
EF7C88B45
330
EF7C85532
100
AcDbEntity
  8
JISSEN
100
AcDbLine
 10
221.499998914
 20
176.5419426192046
 30
0.0
 11
321.4999989140001
 21
176.5419426192046
 31
0.0
  0
ARC
  5
EF7C88B4A
330
EF7C85532
100
AcDbEntity
  8
JISSEN
100
AcDbCircle
 10
266.4997001506555
 20
142.0423159121697
 30
0.0
 40
11.0
100
AcDbArc
 50
177.0418232214464
 51
248.507664692647
  0
ARC
  5
EF7C88B4B
330
EF7C85532
100
AcDbEntity
  8
JISSEN
100
AcDbCircle
 10
264.2912058246512
 20
141.2806901239058
 30
0.0
 40
10.80551655320168
100
AcDbArc
 50
176.8068888039075
 51
265.7904822304362
  0
ARC
  5
EF7C88B4C
330
EF7C85532
100
AcDbEntity
  8
JISSEN
100
AcDbCircle
 10
266.4532571447658
 20
140.9332786215166
 30
0.0
 40
17.0
100
AcDbArc
 50
175.2987799884095
 51
245.5488571927666
  0
ARC
  5
EF7C88B4D
330
EF7C85532
100
AcDbEntity
  8
JISSEN
100
AcDbCircle
 10
266.4999989140001
 20
142.2406786676251
 30
0.0
 40
15.0
100
AcDbArc
 50
180.0
 51
233.31701119964
  0
ARC
  5
EF7C88B4E
330
EF7C85532
100
AcDbEntity
  8
NITEN
100
AcDbCircle
 10
249.999998914
 20
97.21478693348752
 30
0.0
 40
2.0
100
AcDbArc
 50
90.0
 51
180.0
  0
ARC
  5
EF7C88B4F
330
EF7C85532
100
AcDbEntity
  8
NITEN
100
AcDbCircle
 10
249.999998914
 20
76.76080295970544
 30
0.0
 40
1.999999999999971
100
AcDbArc
 50
179.9999999999991
 51
269.9999999999992
  0
LINE
  5
EF7C88B50
330
EF7C85532
100
AcDbEntity
  8
NITEN
100
AcDbLine
 10
251.999998914
 20
74.76080295970547
 30
0.0
 11
251.999998914
 21
53.92308530855962
 31
0.0
  0
LINE
  5
EF7C88B51
330
EF7C85532
100
AcDbEntity
  8
NITEN
100
AcDbLine
 10
247.999998914
 20
97.21478693348752
 30
0.0
 11
247.999998914
 21
76.76080295970547
 31
0.0
  0
ARC
  5
EF7C88B52
330
EF7C85532
100
AcDbEntity
  8
NITEN
100
AcDbCircle
 10
249.999998914
 20
104.2147869334875
 30
0.0
 40
5.0
100
AcDbArc
 50
270.0
 51
0.0
  0
LINE
  5
EF7C88B53
330
EF7C85532
100
AcDbEntity
  8
NITEN
100
AcDbLine
 10
254.999998914
 20
115.2608029597054
 30
0.0
 11
254.999998914
 21
104.2147869334875
 31
0.0
  0
ARC
  5
EF7C88B54
330
EF7C85532
100
AcDbEntity
  8
NITEN
100
AcDbCircle
 10
256.4999989139999
 20
115.2608029597054
 30
0.0
 40
1.5
100
AcDbArc
 50
90.0
 51
180.0
  0
LWPOLYLINE
  5
EF7C88B55
330
EF7C85532
100
AcDbEntity
  8
SAISEN
100
AcDbPolyline
 90
        2
 70
     0
 43
0.0
 10
259.2121805806024
 20
120.9359056263396
 10
259.6882968349193
 20
105.7009468481331
  0
LINE
  5
EF7C88B56
330
EF7C85532
100
AcDbEntity
  8
JISSEN
100
AcDbLine
 10
258.0629168580731
 20
120.2723779067674
 30
0.0
 11
258.481750350117
 21
106.8703759201372
 31
0.0
  0
LINE
  5
EF7C88B57
330
EF7C85532
100
AcDbEntity
  8
JISSEN
100
AcDbLine
 10
258.481750350117
 20
106.8703759201372
 30
0.0
 11
260.5442229737108
 21
104.8713518654292
 31
0.0
  0
LINE
  5
EF7C88B58
330
EF7C85532
100
AcDbEntity
  8
NITEN
100
AcDbLine
 10
260.9059477430034
 20
116.7608029597054
 30
0.0
 11
258.999998914
 21
116.7608029597054
 31
0.0
  0
LINE
  5
EF7C88B5F
330
EF7C85532
100
AcDbEntity
  8
JISSEN
100
AcDbLine
 10
269.1249989140001
 20
123.3713518654292
 30
0.0
 11
259.9663955906704
 21
123.3713518654292
 31
0.0
  0
ARC
  5
EF7C88B61
330
EF7C85532
100
AcDbEntity
  8
JISSEN
100
AcDbCircle
 10
257.6122503823317
 20
123.0975613392488
 30
0.0
 40
6.498907295833106
100
AcDbArc
 50
45.09558598231825
 51
75.32091994780239
  0
ARC
  5
EF7C88B62
330
EF7C85532
100
AcDbEntity
  8
JISSEN
100
AcDbCircle
 10
258.9663955906704
 20
124.5488718137089
 30
0.0
 40
1.0
100
AcDbArc
 50
0.0
 51
65.3756816478364
  0
LINE
  5
EF7C88B63
330
EF7C85532
100
AcDbEntity
  8
JISSEN
100
AcDbLine
 10
259.9663955906704
 20
121.3713518654292
 30
0.0
 11
258.0629168580731
 21
120.2723779067674
 31
0.0
  0
LINE
  5
EF7C88B64
330
EF7C85532
100
AcDbEntity
  8
JISSEN
100
AcDbLine
 10
259.9663955906704
 20
124.5488718137089
 30
0.0
 11
259.9663955906704
 21
121.3713518654292
 31
0.0
  0
ARC
  5
EF7C88B65
330
EF7C85532
100
AcDbEntity
  8
JISSEN
100
AcDbCircle
 10
260.5261281910753
 20
134.2211482209105
 30
0.0
 40
5.0
100
AcDbArc
 50
233.31701119964
 51
255.3209199478024
  0
LINE
  5
EF7C88B66
330
EF7C85532
100
AcDbEntity
  8
JISSEN
100
AcDbLine
 10
262.1663955906705
 20
123.3713518654292
 30
0.0
 11
262.1663955906705
 21
129.3713518654292
 31
0.0
  0
LINE
  5
EF7C88B6D
330
EF7C85532
100
AcDbEntity
  8
JISSEN
100
AcDbLine
 10
267.4663955906704
 20
123.3713518654292
 30
0.0
 11
267.4663955906704
 21
129.3713518654292
 31
0.0
  0
LINE
  5
EF7C88B6E
330
EF7C85532
100
AcDbEntity
  8
JISSEN
100
AcDbLine
 10
269.1249989140001
 20
123.3713518654292
 30
0.0
 11
269.1249989140001
 21
121.3713518654292
 31
0.0
  0
LINE
  5
EF7C88B78
330
EF7C85532
100
AcDbEntity
  8
JISSEN
100
AcDbLine
 10
221.4866582024406
 20
176.5470658135416
 30
0.0
 11
223.2098353771207
 21
177.5419426192046
 31
0.0
  0
LINE
  5
EF7C88B79
330
EF7C85532
100
AcDbEntity
  8
JISSEN
100
AcDbLine
 10
221.5173471813862
 20
176.555035105899
 30
0.0
 11
221.8010501068231
 21
175.5419426192046
 31
0.0
  0
LINE
  5
EF7C88B7A
330
EF7C85532
100
AcDbEntity
  8
JISSEN
100
AcDbLine
 10
256.3065098788347
 20
174.666487139589
 30
0.0
 11
258.0449644681455
 21
174.666487139589
 31
0.0
  0
LINE
  5
EF7C88B7B
330
EF7C85532
100
AcDbEntity
  8
JISSEN
100
AcDbLine
 10
256.5925739558941
 20
161.6120462442508
 30
0.0
 11
264.5668438366334
 21
171.0419426192046
 31
0.0
  0
ARC
  5
EF7C88B7C
330
EF7C85532
100
AcDbEntity
  8
JISSEN
100
AcDbCircle
 10
279.4999989140001
 20
142.2406786676251
 30
0.0
 40
24.0
100
AcDbArc
 50
120.0000000000001
 51
180.0
  0
ARC
  5
EF7C88B7D
330
EF7C85532
100
AcDbEntity
  8
JISSEN
100
AcDbCircle
 10
279.4999989140001
 20
142.2406786676251
 30
0.0
 40
30.0
100
AcDbArc
 50
139.7809012554448
 51
180.0
  0
ARC
  5
EF7C88B7E
330
EF7C85532
100
AcDbEntity
  8
JISSEN
100
AcDbCircle
 10
279.4999989140001
 20
142.2406786676251
 30
0.0
 40
26.0
100
AcDbArc
 50
156.1811586065437
 51
180.789176248135
  0
ARC
  5
EF7C88B7F
330
EF7C85532
100
AcDbEntity
  8
JISSEN
100
AcDbCircle
 10
279.4999989140001
 20
142.2406786676251
 30
0.0
 40
28.0
100
AcDbArc
 50
157.9756871629579
 51
180.0
  0
LINE
  5
EF7C88B80
330
EF7C85532
100
AcDbEntity
  8
JISSEN
100
AcDbLine
 10
253.999998914
 20
175.1740832630829
 30
0.0
 11
253.999998914
 21
171.2419426192045
 31
0.0
  0
LINE
  5
EF7C88B81
330
EF7C85532
100
AcDbEntity
  8
JISSEN
100
AcDbLine
 10
254.6565098788347
 20
175.466487139589
 30
0.0
 11
254.6565098788347
 21
171.2419426192045
 31
0.0
  0
LINE
  5
EF7C88B82
330
EF7C85532
100
AcDbEntity
  8
JISSEN
100
AcDbLine
 10
255.0565098788347
 20
175.166487139589
 30
0.0
 11
255.0565098788347
 21
171.2419426192045
 31
0.0
  0
ARC
  5
EF7C88B83
330
EF7C85532
100
AcDbEntity
  8
JISSEN
100
AcDbCircle
 10
256.3065098788347
 20
174.166487139589
 30
0.0
 40
0.5
100
AcDbArc
 50
90.0
 51
179.9999999999991
  0
LINE
  5
EF7C88B84
330
EF7C85532
100
AcDbEntity
  8
JISSEN
100
AcDbLine
 10
255.6065098788347
 20
171.0419426192046
 30
0.0
 11
254.199998914
 21
171.0419426192045
 31
0.0
  0
ARC
  5
EF7C88B85
330
EF7C85532
100
AcDbEntity
  8
JISSEN
100
AcDbCircle
 10
254.8565098788347
 20
171.2419426192045
 30
0.0
 40
0.2
100
AcDbArc
 50
179.9999999999991
 51
270.0
  0
ARC
  5
EF7C88B86
330
EF7C85532
100
AcDbEntity
  8
JISSEN
100
AcDbCircle
 10
254.8565098788347
 20
171.2419426192045
 30
0.0
 40
0.2
100
AcDbArc
 50
270.0
 51
0.0
  0
LINE
  5
EF7C88B87
330
EF7C85532
100
AcDbEntity
  8
JISSEN
100
AcDbLine
 10
254.8565098788347
 20
171.0419426192045
 30
0.0
 11
254.8565098788347
 21
171.0419426192045
 31
0.0
  0
ARC
  5
EF7C88B88
330
EF7C85532
100
AcDbEntity
  8
JISSEN
100
AcDbCircle
 10
254.199998914
 20
171.2419426192045
 30
0.0
 40
0.2
100
AcDbArc
 50
180.0
 51
270.0000000000032
  0
LINE
  5
EF7C88B89
330
EF7C85532
100
AcDbEntity
  8
JISSEN
100
AcDbLine
 10
255.8065098788346
 20
174.166487139589
 30
0.0
 11
255.8065098788346
 21
171.2419426192046
 31
0.0
  0
ARC
  5
EF7C88B8A
330
EF7C85532
100
AcDbEntity
  8
JISSEN
100
AcDbCircle
 10
255.6065098788347
 20
171.2419426192046
 30
0.0
 40
0.2
100
AcDbArc
 50
270.0000000000016
 51
0.0
  0
ARC
  5
EF7C88B8B
330
EF7C85532
100
AcDbEntity
  8
JISSEN
100
AcDbCircle
 10
254.4565098788347
 20
175.466487139589
 30
0.0
 40
0.2
100
AcDbArc
 50
359.9999999999992
 51
22.16514006096896
  0
ARC
  5
EF7C88B8C
330
EF7C85532
100
AcDbEntity
  8
JISSEN
100
AcDbCircle
 10
255.5565098788346
 20
175.166487139589
 30
0.0
 40
0.5
100
AcDbArc
 50
131.3306502819574
 51
180.0
  0
ARC
  5
EF7C88B8D
330
EF7C85532
100
AcDbEntity
  8
JISSEN
100
AcDbCircle
 10
254.499998914
 20
175.1740832630829
 30
0.0
 40
0.5
100
AcDbArc
 50
132.632018715482
 51
180.0
  0
ARC
  5
EF7C88BAC
330
EF7C85532
100
AcDbEntity
  8
JISSEN
100
AcDbCircle
 10
267.7499989140001
 20
162.5922756565594
 30
0.0
 40
0.5
100
AcDbArc
 50
17.41760153490949
 51
120.0000000000001
  0
LINE
  5
EF7C88BBA
330
EF7C85532
100
AcDbEntity
  8
JISSEN
100
AcDbLine
 10
265.1321076601734
 20
171.0419426192045
 30
0.0
 11
263.8821076601735
 21
171.0419426192046
 31
0.0
  0
LINE
  5
EF7C88BBB
330
EF7C85532
100
AcDbEntity
  8
JISSEN
100
AcDbLine
 10
263.6821076601735
 20
171.2419426192046
 30
0.0
 11
263.6821076601735
 21
175.1664871395889
 31
0.0
  0
LINE
  5
EF7C88BBC
330
EF7C85532
100
AcDbEntity
  8
JISSEN
100
AcDbLine
 10
258.0449644681455
 20
171.2419426192046
 30
0.0
 11
258.0449644681456
 21
175.166487139589
 31
0.0
  0
LINE
  5
EF7C88BBD
330
EF7C85532
100
AcDbEntity
  8
JISSEN
100
AcDbLine
 10
258.9449644681454
 20
171.2419426192046
 30
0.0
 11
258.9449644681454
 21
175.166487139589
 31
0.0
  0
ARC
  5
EF7C88BBE
330
EF7C85532
100
AcDbEntity
  8
JISSEN
100
AcDbCircle
 10
259.9449644681454
 20
174.166487139589
 30
0.0
 40
0.5
100
AcDbArc
 50
90.0
 51
179.9999999999991
  0
ARC
  5
EF7C88BBF
330
EF7C85532
100
AcDbEntity
  8
JISSEN
100
AcDbCircle
 10
261.5142124763732
 20
174.9493964675632
 30
0.0
 40
1.0
100
AcDbArc
 50
225.0
 51
270.0
  0
LINE
  5
EF7C88BC0
330
EF7C85532
100
AcDbEntity
  8
JISSEN
100
AcDbLine
 10
259.9449644681454
 20
174.666487139589
 30
0.0
 11
263.6821076601735
 21
174.666487139589
 31
0.0
  0
LINE
  5
EF7C88BC1
330
EF7C85532
100
AcDbEntity
  8
JISSEN
100
AcDbLine
 10
259.2449644681454
 20
171.0419426192045
 30
0.0
 11
258.2449644681455
 21
171.0419426192046
 31
0.0
  0
ARC
  5
EF7C88BC2
330
EF7C85532
100
AcDbEntity
  8
JISSEN
100
AcDbCircle
 10
258.7449644681454
 20
171.2419426192046
 30
0.0
 40
0.2
100
AcDbArc
 50
269.9999999999967
 51
0.0
  0
ARC
  5
EF7C88BC3
330
EF7C85532
100
AcDbEntity
  8
JISSEN
100
AcDbCircle
 10
258.2449644681455
 20
171.2419426192046
 30
0.0
 40
0.2
100
AcDbArc
 50
179.9999999999991
 51
269.9999999999983
  0
LINE
  5
EF7C88BC4
330
EF7C85532
100
AcDbEntity
  8
JISSEN
100
AcDbLine
 10
259.4449644681454
 20
171.2419426192045
 30
0.0
 11
259.4449644681454
 21
174.166487139589
 31
0.0
  0
LINE
  5
EF7C88BC5
330
EF7C85532
100
AcDbEntity
  8
JISSEN
100
AcDbLine
 10
260.3829082419744
 20
174.666487139589
 30
0.0
 11
260.8071056951867
 21
174.2422896863766
 31
0.0
  0
ARC
  5
EF7C88BC6
330
EF7C85532
100
AcDbEntity
  8
JISSEN
100
AcDbCircle
 10
259.2449644681454
 20
171.2419426192045
 30
0.0
 40
0.2
100
AcDbArc
 50
269.9999999999983
 51
0.0
  0
LINE
  5
EF7C88BC7
330
EF7C85532
100
AcDbEntity
  8
JISSEN
100
AcDbLine
 10
261.5142124763732
 20
173.9493964675632
 30
0.0
 11
263.6821076601735
 21
173.9493964675632
 31
0.0
  0
ARC
  5
EF7C88BC8
330
EF7C85532
100
AcDbEntity
  8
JISSEN
100
AcDbCircle
 10
263.8821076601735
 20
171.2419426192046
 30
0.0
 40
0.2
100
AcDbArc
 50
180.0000000000007
 51
270.0
  0
ARC
  5
EF7C88BC9
330
EF7C85532
100
AcDbEntity
  8
JISSEN
100
AcDbCircle
 10
257.5449644681456
 20
175.166487139589
 30
0.0
 40
0.5
100
AcDbArc
 50
359.9999999999992
 51
48.66934971804258
  0
ARC
  5
EF7C88BCA
330
EF7C85532
100
AcDbEntity
  8
JISSEN
100
AcDbCircle
 10
259.4449644681454
 20
175.166487139589
 30
0.0
 40
0.5
100
AcDbArc
 50
131.3306502819574
 51
179.9999999999991
  0
ARC
  5
EF7C88BCB
330
EF7C85532
100
AcDbEntity
  8
JISSEN
100
AcDbCircle
 10
263.1821076601735
 20
175.1664871395889
 30
0.0
 40
0.5
100
AcDbArc
 50
0.0000000000016284
 51
48.66934971804894
  0
LINE
  5
EF7C88BCC
330
EF7C85532
100
AcDbEntity
  8
JISSEN
100
AcDbLine
 10
270.0499989140002
 20
175.166487139589
 30
0.0
 11
270.049998914
 21
171.2419426192046
 31
0.0
  0
ARC
  5
EF7C88BCD
330
EF7C85532
100
AcDbEntity
  8
JISSEN
100
AcDbCircle
 10
269.549998914
 20
174.166487139589
 30
0.0
 40
0.5
100
AcDbArc
 50
0.0
 51
90.0
  0
LINE
  5
EF7C88BCE
330
EF7C85532
100
AcDbEntity
  8
JISSEN
100
AcDbLine
 10
265.0821076601735
 20
171.2419426192045
 30
0.0
 11
265.0821076601735
 21
175.166487139589
 31
0.0
  0
ARC
  5
EF7C88BCF
330
EF7C85532
100
AcDbEntity
  8
JISSEN
100
AcDbCircle
 10
265.8321076601735
 20
174.166487139589
 30
0.0
 40
0.5
100
AcDbArc
 50
90.0
 51
180.0
  0
LINE
  5
EF7C88BD0
330
EF7C85532
100
AcDbEntity
  8
JISSEN
100
AcDbLine
 10
265.8321076601735
 20
174.666487139589
 30
0.0
 11
269.549998914
 21
174.666487139589
 31
0.0
  0
LINE
  5
EF7C88BD1
330
EF7C85532
100
AcDbEntity
  8
JISSEN
100
AcDbLine
 10
265.3321076601735
 20
173.9493964675632
 30
0.0
 11
270.049998914
 21
173.9493964675632
 31
0.0
  0
ARC
  5
EF7C88BD2
330
EF7C85532
100
AcDbEntity
  8
JISSEN
100
AcDbCircle
 10
254.749998914
 20
168.2406786676251
 30
0.0
 40
12.49999999999999
100
AcDbArc
 50
343.7397952916881
 51
16.26020470831189
  0
LINE
  5
EF7C88BD3
330
EF7C85532
100
AcDbEntity
  8
JISSEN
100
AcDbLine
 10
265.3321076601735
 20
171.8093131699289
 30
0.0
 11
266.2499989140001
 21
172.8947566696488
 31
0.0
  0
LINE
  5
EF7C88BD4
330
EF7C85532
100
AcDbEntity
  8
JISSEN
100
AcDbLine
 10
265.3321076601735
 20
171.2419426192045
 30
0.0
 11
265.3321076601735
 21
174.166487139589
 31
0.0
  0
ARC
  5
EF7C88BD5
330
EF7C85532
100
AcDbEntity
  8
JISSEN
100
AcDbCircle
 10
264.8821076601734
 20
171.2419426192045
 30
0.0
 40
0.2
100
AcDbArc
 50
270.0
 51
0.0
  0
ARC
  5
EF7C88BD6
330
EF7C85532
100
AcDbEntity
  8
JISSEN
100
AcDbCircle
 10
265.1321076601734
 20
171.2419426192045
 30
0.0
 40
0.2
100
AcDbArc
 50
270.0
 51
0.0
  0
LINE
  5
EF7C88BD7
330
EF7C85532
100
AcDbEntity
  8
JISSEN
100
AcDbLine
 10
266.249998914
 20
173.9493964675632
 30
0.0
 11
266.2499989140001
 21
172.8947566696488
 31
0.0
  0
ARC
  5
EF7C88BD8
330
EF7C85532
100
AcDbEntity
  8
JISSEN
100
AcDbCircle
 10
270.2499989140001
 20
171.2419426192046
 30
0.0
 40
0.2
100
AcDbArc
 50
179.9999999999991
 51
270.0
  0
ARC
  5
EF7C88BD9
330
EF7C85532
100
AcDbEntity
  8
JISSEN
100
AcDbCircle
 10
265.5821076601735
 20
175.166487139589
 30
0.0
 40
0.5
100
AcDbArc
 50
131.3306502819574
 51
180.0
  0
ELLIPSE
  5
EF7C88BDA
330
EF7C85532
100
AcDbEntity
  8
JISSEN
100
AcDbEllipse
 10
267.2499989140001
 20
177.5419426192046
 30
0.0
 11
-1.0
 21
0.0
 31
0.0
210
0.0
220
0.0
230
1.0
 40
0.4999999999999858
 41
-1.570796326794896
 42
0.0
1001
ACAD
1000
ASC_BOUNDS
1002
{
1070
    19
1002
}
  0
ARC
  5
EF7C88BDB
330
EF7C85532
100
AcDbEntity
  8
JISSEN
100
AcDbCircle
 10
269.549998914
 20
175.166487139589
 30
0.0
 40
0.5
100
AcDbArc
 50
0.0
 51
48.66934971803908
  0
ARC
  5
EF7C88BE0
330
EF7C85532
100
AcDbEntity
  8
JISSEN
100
AcDbCircle
 10
263.4999989140001
 20
142.2406786676251
 30
0.0
 40
26.0
100
AcDbArc
 50
353.5656684448997
 51
23.81884139345626
  0
ARC
  5
EF7C88BE1
330
EF7C85532
100
AcDbEntity
  8
JISSEN
100
AcDbCircle
 10
276.4999989140001
 20
142.2406786676251
 30
0.0
 40
15.0
100
AcDbArc
 50
306.6829888003599
 51
0.0
  0
ARC
  5
EF7C88BE2
330
EF7C85532
100
AcDbEntity
  8
JISSEN
100
AcDbCircle
 10
276.5467406832342
 20
140.9332786215166
 30
0.0
 40
17.0
100
AcDbArc
 50
294.4511428072333
 51
4.70122001158964
  0
ARC
  5
EF7C88BE3
330
EF7C85532
100
AcDbEntity
  8
JISSEN
100
AcDbCircle
 10
276.5002976773445
 20
142.0423159121697
 30
0.0
 40
11.0
100
AcDbArc
 50
291.4923353073529
 51
357.7128202082913
  0
ARC
  5
EF7C88BE4
330
EF7C85532
100
AcDbEntity
  8
NITEN
100
AcDbCircle
 10
281.2499989139999
 20
60.77308530855976
 30
0.0
 40
11.91574588517225
100
AcDbArc
 50
215.0905003001244
 51
324.9094996998772
  0
ARC
  5
EF7C88BE5
330
EF7C85532
100
AcDbEntity
  8
NITEN
100
AcDbCircle
 10
292.999998914
 20
97.21478693348752
 30
0.0
 40
2.0
100
AcDbArc
 50
0.0
 51
90.0
  0
ARC
  5
EF7C88BE6
330
EF7C85532
100
AcDbEntity
  8
NITEN
100
AcDbCircle
 10
292.999998914
 20
76.76080295970547
 30
0.0
 40
2.0
100
AcDbArc
 50
270.0
 51
0.0
  0
LINE
  5
EF7C88BE7
330
EF7C85532
100
AcDbEntity
  8
NITEN
100
AcDbLine
 10
290.999998914
 20
53.92308530855991
 30
0.0
 11
290.999998914
 21
74.76080295970547
 31
0.0
  0
LINE
  5
EF7C88BE8
330
EF7C85532
100
AcDbEntity
  8
NITEN
100
AcDbLine
 10
294.999998914
 20
76.76080295970547
 30
0.0
 11
294.999998914
 21
97.21478693348752
 31
0.0
  0
ARC
  5
EF7C88BE9
330
EF7C85532
100
AcDbEntity
  8
JISSEN
100
AcDbCircle
 10
278.7087920033489
 20
141.2806901239058
 30
0.0
 40
10.80551655320168
100
AcDbArc
 50
274.2095177695637
 51
349.5833810006727
  0
LWPOLYLINE
  5
EF7C88BEA
330
EF7C85532
100
AcDbEntity
  8
SAISEN
100
AcDbPolyline
 90
        2
 70
     0
 43
0.0
 10
283.7206106007385
 20
120.9359056263396
 10
283.2444943464216
 20
105.7009468481331
  0
LINE
  5
EF7C88BEB
330
EF7C85532
100
AcDbEntity
  8
JISSEN
100
AcDbLine
 10
284.8698743232679
 20
120.2723779067674
 30
0.0
 11
284.4510408312238
 21
106.8703759201372
 31
0.0
  0
LINE
  5
EF7C88BEC
330
EF7C85532
100
AcDbEntity
  8
JISSEN
100
AcDbLine
 10
284.4510408312238
 20
106.8703759201372
 30
0.0
 11
282.3885682076302
 21
104.8713518654292
 31
0.0
  0
INSERT
  5
EF7C88BF1
330
EF7C85532
100
AcDbEntity
  8
SUNPOU
100
AcDbBlockReference
  2
A$CB243
 10
277.1331797226906
 20
125.0332577428501
 30
0.0
  0
LINE
  5
EF7C88BF2
330
EF7C85532
100
AcDbEntity
  8
JISSEN
100
AcDbLine
 10
282.9663955906704
 20
123.3713518654292
 30
0.0
 11
273.8749989140001
 21
123.3713518654292
 31
0.0
  0
LINE
  5
EF7C88BF5
330
EF7C85532
100
AcDbEntity
  8
JISSEN
100
AcDbLine
 10
273.8749989140001
 20
123.3713518654292
 30
0.0
 11
273.8749989140001
 21
121.3713518654292
 31
0.0
  0
LINE
  5
EF7C88BFA
330
EF7C85532
100
AcDbEntity
  8
JISSEN
100
AcDbLine
 10
275.4663955906704
 20
123.3713518654292
 30
0.0
 11
275.4663955906704
 21
129.3713518654292
 31
0.0
  0
ARC
  5
EF7C88C02
330
EF7C85532
100
AcDbEntity
  8
JISSEN
100
AcDbCircle
 10
285.3877474456684
 20
123.0975613392488
 30
0.0
 40
6.498907295833106
100
AcDbArc
 50
104.6790800521975
 51
134.9044140176817
  0
LINE
  5
EF7C88C03
330
EF7C85532
100
AcDbEntity
  8
JISSEN
100
AcDbLine
 10
280.7663955906705
 20
123.3713518654292
 30
0.0
 11
280.7663955906705
 21
129.3713518654292
 31
0.0
  0
ARC
  5
EF7C88C04
330
EF7C85532
100
AcDbEntity
  8
JISSEN
100
AcDbCircle
 10
283.9663955906704
 20
124.5488718137089
 30
0.0
 40
1.0
100
AcDbArc
 50
114.6243183521636
 51
180.0
  0
LINE
  5
EF7C88C05
330
EF7C85532
100
AcDbEntity
  8
JISSEN
100
AcDbLine
 10
282.9663955906704
 20
121.3713518654292
 30
0.0
 11
284.8698743232679
 21
120.2723779067674
 31
0.0
  0
LINE
  5
EF7C88C06
330
EF7C85532
100
AcDbEntity
  8
JISSEN
100
AcDbLine
 10
282.9663955906704
 20
124.5488718137089
 30
0.0
 11
282.9663955906704
 21
121.3713518654292
 31
0.0
  0
ARC
  5
EF7C88C07
330
EF7C85532
100
AcDbEntity
  8
JISSEN
100
AcDbCircle
 10
282.4738696369247
 20
134.2211482209105
 30
0.0
 40
5.0
100
AcDbArc
 50
284.6790800521976
 51
306.6829888003599
  0
ARC
  5
EF7C88C0C
330
EF7C85532
100
AcDbEntity
  8
NITEN
100
AcDbCircle
 10
292.999998914
 20
104.2147869334875
 30
0.0
 40
5.0
100
AcDbArc
 50
180.0
 51
270.0
  0
LINE
  5
EF7C88C0D
330
EF7C85532
100
AcDbEntity
  8
NITEN
100
AcDbLine
 10
287.9999989139999
 20
104.2147869334875
 30
0.0
 11
287.9999989139999
 21
115.2608029597054
 31
0.0
  0
ARC
  5
EF7C88C0E
330
EF7C85532
100
AcDbEntity
  8
NITEN
100
AcDbCircle
 10
286.4999989140001
 20
115.2608029597055
 30
0.0
 40
1.499999999999943
100
AcDbArc
 50
359.9999999999989
 51
90.0
  0
LINE
  5
EF7C88C10
330
EF7C85532
100
AcDbEntity
  8
JISSEN
100
AcDbLine
 10
284.9550333598545
 20
174.666487139589
 30
0.0
 11
286.6934879491653
 21
174.666487139589
 31
0.0
  0
ARC
  5
EF7C88C11
330
EF7C85532
100
AcDbEntity
  8
JISSEN
100
AcDbCircle
 10
263.4999989140001
 20
142.2406786676251
 30
0.0
 40
24.0
100
AcDbArc
 50
358.4782525524656
 51
59.99999999999986
  0
LINE
  5
EF7C88C12
330
EF7C85532
100
AcDbEntity
  8
JISSEN
100
AcDbLine
 10
286.4074238721059
 20
161.6120462442508
 30
0.0
 11
278.4331539913666
 21
171.0419426192046
 31
0.0
  0
ARC
  5
EF7C88C2B
330
EF7C85532
100
AcDbEntity
  8
JISSEN
100
AcDbCircle
 10
275.2499989140001
 20
162.5922756565594
 30
0.0
 40
0.5
100
AcDbArc
 50
59.99999999999986
 51
162.5823984650905
  0
LINE
  5
EF7C88C2D
330
EF7C85532
100
AcDbEntity
  8
JISSEN
100
AcDbLine
 10
274.2959928232142
 20
162.7419426192046
 30
0.0
 11
271.4999989140001
 21
162.7419426192046
 31
0.0
  0
LINE
  5
EF7C88C3F
330
EF7C85532
100
AcDbEntity
  8
JISSEN
100
AcDbLine
 10
279.1178901678265
 20
171.0419426192046
 30
0.0
 11
277.8678901678265
 21
171.0419426192046
 31
0.0
  0
LINE
  5
EF7C88C40
330
EF7C85532
100
AcDbEntity
  8
JISSEN
100
AcDbLine
 10
277.9178901678266
 20
171.2419426192046
 30
0.0
 11
277.9178901678266
 21
175.1664871395889
 31
0.0
  0
ARC
  5
EF7C88C41
330
EF7C85532
100
AcDbEntity
  8
JISSEN
100
AcDbCircle
 10
277.1678901678266
 20
174.166487139589
 30
0.0
 40
0.5
100
AcDbArc
 50
0.0
 51
90.0
  0
LINE
  5
EF7C88C42
330
EF7C85532
100
AcDbEntity
  8
JISSEN
100
AcDbLine
 10
272.949998914
 20
175.166487139589
 30
0.0
 11
272.949998914
 21
171.2419426192046
 31
0.0
  0
ARC
  5
EF7C88C43
330
EF7C85532
100
AcDbEntity
  8
JISSEN
100
AcDbCircle
 10
273.449998914
 20
174.166487139589
 30
0.0
 40
0.5
100
AcDbArc
 50
90.0
 51
180.0000000000007
  0
LINE
  5
EF7C88C44
330
EF7C85532
100
AcDbEntity
  8
JISSEN
100
AcDbLine
 10
273.449998914
 20
174.666487139589
 30
0.0
 11
277.1678901678266
 21
174.666487139589
 31
0.0
  0
LINE
  5
EF7C88C45
330
EF7C85532
100
AcDbEntity
  8
JISSEN
100
AcDbLine
 10
272.949998914
 20
173.9493964675632
 30
0.0
 11
277.6678901678266
 21
173.9493964675633
 31
0.0
  0
ARC
  5
EF7C88C46
330
EF7C85532
100
AcDbEntity
  8
JISSEN
100
AcDbCircle
 10
272.749998914
 20
171.2419426192046
 30
0.0
 40
0.2
100
AcDbArc
 50
270.0
 51
0.0
  0
ARC
  5
EF7C88C47
330
EF7C85532
100
AcDbEntity
  8
JISSEN
100
AcDbCircle
 10
288.249998914
 20
168.2406786676251
 30
0.0
 40
12.49999999999999
100
AcDbArc
 50
163.739795291688
 51
196.2602047083119
  0
LINE
  5
EF7C88C48
330
EF7C85532
100
AcDbEntity
  8
JISSEN
100
AcDbLine
 10
277.6678901678266
 20
171.809313169929
 30
0.0
 11
276.7499989140001
 21
172.8947566696488
 31
0.0
  0
LINE
  5
EF7C88C49
330
EF7C85532
100
AcDbEntity
  8
JISSEN
100
AcDbLine
 10
276.7499989140001
 20
173.9493964675633
 30
0.0
 11
276.7499989140001
 21
172.8947566696488
 31
0.0
  0
LINE
  5
EF7C88C4A
330
EF7C85532
100
AcDbEntity
  8
JISSEN
100
AcDbLine
 10
277.6678901678266
 20
171.2419426192046
 30
0.0
 11
277.6678901678266
 21
174.166487139589
 31
0.0
  0
ARC
  5
EF7C88C4B
330
EF7C85532
100
AcDbEntity
  8
JISSEN
100
AcDbCircle
 10
277.8678901678265
 20
171.2419426192046
 30
0.0
 40
0.2
100
AcDbArc
 50
180.0
 51
270.0
  0
ARC
  5
EF7C88C4C
330
EF7C85532
100
AcDbEntity
  8
JISSEN
100
AcDbCircle
 10
278.1178901678265
 20
171.2419426192046
 30
0.0
 40
0.2
100
AcDbArc
 50
180.0
 51
270.0
  0
ARC
  5
EF7C88C4E
330
EF7C85532
100
AcDbEntity
  8
JISSEN
100
AcDbCircle
 10
273.4499989139999
 20
175.166487139589
 30
0.0
 40
0.5
100
AcDbArc
 50
131.3306502819609
 51
180.0000000000007
  0
ELLIPSE
  5
EF7C88C4F
330
EF7C85532
100
AcDbEntity
  8
JISSEN
100
AcDbEllipse
 10
275.7499989140001
 20
177.5419426192046
 30
0.0
 11
1.0
 21
0.0
 31
0.0
210
0.0
220
0.0
230
-1.0
 40
0.4999999999999858
 41
-1.570796326794896
 42
0.0
1001
ACAD
1000
ASC_BOUNDS
1002
{
1070
    19
1002
}
  0
ARC
  5
EF7C88C50
330
EF7C85532
100
AcDbEntity
  8
JISSEN
100
AcDbCircle
 10
277.4178901678266
 20
175.1664871395889
 30
0.0
 40
0.5
100
AcDbArc
 50
0.0
 51
48.6693497180472
  0
LINE
  5
EF7C88C51
330
EF7C85532
100
AcDbEntity
  8
JISSEN
100
AcDbLine
 10
284.9550333598545
 20
171.2419426192046
 30
0.0
 11
284.9550333598545
 21
175.166487139589
 31
0.0
  0
LINE
  5
EF7C88C52
330
EF7C85532
100
AcDbEntity
  8
JISSEN
100
AcDbLine
 10
284.0550333598545
 20
171.2419426192046
 30
0.0
 11
284.0550333598546
 21
175.166487139589
 31
0.0
  0
ARC
  5
EF7C88C53
330
EF7C85532
100
AcDbEntity
  8
JISSEN
100
AcDbCircle
 10
283.0550333598546
 20
174.166487139589
 30
0.0
 40
0.5
100
AcDbArc
 50
359.9999999999992
 51
90.0
  0
LINE
  5
EF7C88C54
330
EF7C85532
100
AcDbEntity
  8
JISSEN
100
AcDbLine
 10
279.3178901678265
 20
171.2419426192046
 30
0.0
 11
279.3178901678265
 21
175.166487139589
 31
0.0
  0
ARC
  5
EF7C88C55
330
EF7C85532
100
AcDbEntity
  8
JISSEN
100
AcDbCircle
 10
281.485785351627
 20
174.9493964675633
 30
0.0
 40
1.0
100
AcDbArc
 50
270.0
 51
315.0000000000005
  0
LINE
  5
EF7C88C56
330
EF7C85532
100
AcDbEntity
  8
JISSEN
100
AcDbLine
 10
279.3178901678265
 20
174.666487139589
 30
0.0
 11
283.0550333598546
 21
174.666487139589
 31
0.0
  0
LINE
  5
EF7C88C57
330
EF7C85532
100
AcDbEntity
  8
JISSEN
100
AcDbLine
 10
279.3178901678265
 20
173.9493964675633
 30
0.0
 11
281.485785351627
 21
173.9493964675633
 31
0.0
  0
ARC
  5
EF7C88C58
330
EF7C85532
100
AcDbEntity
  8
JISSEN
100
AcDbCircle
 10
279.1178901678265
 20
171.2419426192046
 30
0.0
 40
0.2
100
AcDbArc
 50
270.0
 51
0.0
  0
LINE
  5
EF7C88C59
330
EF7C85532
100
AcDbEntity
  8
JISSEN
100
AcDbLine
 10
284.7550333598544
 20
171.0419426192046
 30
0.0
 11
283.7550333598546
 21
171.0419426192046
 31
0.0
  0
LINE
  5
EF7C88C5A
330
EF7C85532
100
AcDbEntity
  8
JISSEN
100
AcDbLine
 10
283.5550333598545
 20
171.2419426192046
 30
0.0
 11
283.5550333598546
 21
174.166487139589
 31
0.0
  0
ARC
  5
EF7C88C5B
330
EF7C85532
100
AcDbEntity
  8
JISSEN
100
AcDbCircle
 10
283.7550333598546
 20
171.2419426192046
 30
0.0
 40
0.2
100
AcDbArc
 50
179.9999999999975
 51
270.0
  0
LINE
  5
EF7C88C5C
330
EF7C85532
100
AcDbEntity
  8
JISSEN
100
AcDbLine
 10
282.6170895860259
 20
174.666487139589
 30
0.0
 11
282.1928921328136
 21
174.2422896863767
 31
0.0
  0
ARC
  5
EF7C88C5D
330
EF7C85532
100
AcDbEntity
  8
JISSEN
100
AcDbCircle
 10
284.7550333598544
 20
171.2419426192046
 30
0.0
 40
0.2
100
AcDbArc
 50
270.0
 51
0.0
  0
ARC
  5
EF7C88C5E
330
EF7C85532
100
AcDbEntity
  8
JISSEN
100
AcDbCircle
 10
284.2550333598545
 20
171.2419426192046
 30
0.0
 40
0.2
100
AcDbArc
 50
179.9999999999991
 51
270.0
  0
ARC
  5
EF7C88C5F
330
EF7C85532
100
AcDbEntity
  8
JISSEN
100
AcDbCircle
 10
279.8178901678265
 20
175.166487139589
 30
0.0
 40
0.5
100
AcDbArc
 50
131.3306502819655
 51
180.0
  0
ARC
  5
EF7C88C60
330
EF7C85532
100
AcDbEntity
  8
JISSEN
100
AcDbCircle
 10
283.4999989140001
 20
175.5493964675632
 30
0.0
 40
1.0
100
AcDbArc
 50
83.00000000000057
 51
97.85397646494905
  0
ARC
  5
EF7C88C61
330
EF7C85532
100
AcDbEntity
  8
JISSEN
100
AcDbCircle
 10
285.4550333598544
 20
175.166487139589
 30
0.0
 40
0.5
100
AcDbArc
 50
131.3306502819678
 51
180.0
  0
ARC
  5
EF7C88C62
330
EF7C85532
100
AcDbEntity
  8
JISSEN
100
AcDbCircle
 10
283.5550333598546
 20
175.166487139589
 30
0.0
 40
0.5
100
AcDbArc
 50
359.9999999999992
 51
48.66934971803908
  0
ARC
  5
EF7C88C63
330
EF7C85532
100
AcDbEntity
  8
JISSEN
100
AcDbCircle
 10
263.4999989140001
 20
142.2406786676251
 30
0.0
 40
30.0
100
AcDbArc
 50
0.0
 51
40.21909874455518
  0
ARC
  5
EF7C88C64
330
EF7C85532
100
AcDbEntity
  8
JISSEN
100
AcDbCircle
 10
263.4999989140001
 20
142.2406786676251
 30
0.0
 40
28.0
100
AcDbArc
 50
0.0
 51
22.02431283704207
  0
LINE
  5
EF7C88C65
330
EF7C85532
100
AcDbEntity
  8
JISSEN
100
AcDbLine
 10
287.943487949165
 20
175.166487139589
 30
0.0
 11
287.9434879491652
 21
171.2419426192045
 31
0.0
  0
LINE
  5
EF7C88C66
330
EF7C85532
100
AcDbEntity
  8
JISSEN
100
AcDbLine
 10
288.3434879491652
 20
175.4664871395889
 30
0.0
 11
288.3434879491652
 21
171.2419426192046
 31
0.0
  0
LINE
  5
EF7C88C67
330
EF7C85532
100
AcDbEntity
  8
JISSEN
100
AcDbLine
 10
288.9999989140001
 20
175.1740832630829
 30
0.0
 11
288.9999989140001
 21
171.2419426192046
 31
0.0
  0
ARC
  5
EF7C88C68
330
EF7C85532
100
AcDbEntity
  8
JISSEN
100
AcDbCircle
 10
286.6934879491653
 20
174.1664871395889
 30
0.0
 40
0.5
100
AcDbArc
 50
359.9999999999992
 51
90.0
  0
LINE
  5
EF7C88C69
330
EF7C85532
100
AcDbEntity
  8
JISSEN
100
AcDbLine
 10
288.1434879491653
 20
171.0419426192046
 30
0.0
 11
287.3934879491653
 21
171.0419426192046
 31
0.0
  0
LINE
  5
EF7C88C6A
330
EF7C85532
100
AcDbEntity
  8
JISSEN
100
AcDbLine
 10
287.1934879491653
 20
174.1664871395889
 30
0.0
 11
287.1934879491652
 21
171.2419426192046
 31
0.0
  0
ARC
  5
EF7C88C6B
330
EF7C85532
100
AcDbEntity
  8
JISSEN
100
AcDbCircle
 10
287.3934879491653
 20
171.2419426192046
 30
0.0
 40
0.2
100
AcDbArc
 50
179.9999999999975
 51
269.9999999999983
  0
LINE
  5
EF7C88C6C
330
EF7C85532
100
AcDbEntity
  8
JISSEN
100
AcDbLine
 10
288.799998914
 20
171.0419426192046
 30
0.0
 11
288.1434879491653
 21
171.0419426192046
 31
0.0
  0
ARC
  5
EF7C88C6D
330
EF7C85532
100
AcDbEntity
  8
JISSEN
100
AcDbCircle
 10
288.1434879491653
 20
171.2419426192046
 30
0.0
 40
0.2
100
AcDbArc
 50
180.0000000000032
 51
270.0000000000049
  0
ARC
  5
EF7C88C6E
330
EF7C85532
100
AcDbEntity
  8
JISSEN
100
AcDbCircle
 10
288.1434879491651
 20
171.2419426192046
 30
0.0
 40
0.2
100
AcDbArc
 50
270.0
 51
0.0
  0
ARC
  5
EF7C88C6F
330
EF7C85532
100
AcDbEntity
  8
JISSEN
100
AcDbCircle
 10
288.799998914
 20
171.2419426192046
 30
0.0
 40
0.2
100
AcDbArc
 50
270.0000000000065
 51
0.0
  0
ARC
  5
EF7C88C70
330
EF7C85532
100
AcDbEntity
  8
JISSEN
100
AcDbCircle
 10
288.5434879491652
 20
175.4664871395889
 30
0.0
 40
0.2
100
AcDbArc
 50
157.8348599390266
 51
180.0
  0
ARC
  5
EF7C88C71
330
EF7C85532
100
AcDbEntity
  8
JISSEN
100
AcDbCircle
 10
287.443487949165
 20
175.166487139589
 30
0.0
 40
0.5
100
AcDbArc
 50
0.0000000000016284
 51
48.66934971803908
  0
ARC
  5
EF7C88C72
330
EF7C85532
100
AcDbEntity
  8
JISSEN
100
AcDbCircle
 10
288.4999989140001
 20
175.1740832630829
 30
0.0
 40
0.5
100
AcDbArc
 50
0.0
 51
47.36798128451741
  0
LINE
  5
EF7C88C75
330
EF7C85532
100
AcDbEntity
  8
JISSEN
100
AcDbLine
 10
321.5133396255595
 20
176.5470658135416
 30
0.0
 11
319.7901624508793
 21
177.5419426192046
 31
0.0
  0
LINE
  5
EF7C88C76
330
EF7C85532
100
AcDbEntity
  8
JISSEN
100
AcDbLine
 10
321.4999989140001
 20
176.5547680769516
 30
0.0
 11
321.2320497215689
 21
175.5419426192046
 31
0.0
  0
LINE
  5
EF7C88C87
330
EF7C85532
100
AcDbEntity
  8
JISSEN
100
AcDbLine
 10
93.49999963800005
 20
127.3968988357284
 30
0.0
 11
87.49999963800005
 21
127.3968988357284
 31
0.0
  0
LINE
  5
EF7C88C88
330
EF7C85532
100
AcDbEntity
  8
JISSEN
100
AcDbLine
 10
280.7663955906685
 20
129.3713518654285
 30
0.0
 11
272.9999989139981
 21
129.3713518654285
 31
0.0
  0
LINE
  5
EF7C88C89
330
EF7C85532
100
AcDbEntity
  8
JISSEN
100
AcDbLine
 10
263.1499989139981
 20
132.6902521491747
 30
0.0
 11
279.8499989139981
 21
132.6902521491747
 31
0.0
  0
LINE
  5
EF7C88C8A
330
EF7C85532
100
AcDbEntity
  8
JISSEN
100
AcDbLine
 10
279.8499989139981
 20
132.6902521491746
 30
0.0
 11
278.7937289248678
 21
133.3000899117357
 31
0.0
  0
ARC
  5
EF7C88C8B
330
EF7C85532
100
AcDbEntity
  8
JISSEN
100
AcDbCircle
 10
280.349998913998
 20
132.2734883746421
 30
0.0
 40
0.5
100
AcDbArc
 50
180.0
 51
291.1546302653318
  0
LINE
  5
EF7C88C8C
330
EF7C85532
100
AcDbEntity
  8
JISSEN
100
AcDbLine
 10
269.9999989139981
 20
129.3713518654285
 30
0.0
 11
262.1663955906685
 21
129.3713518654285
 31
0.0
  0
LINE
  5
EF7C88C8D
330
EF7C85532
100
AcDbEntity
  8
JISSEN
100
AcDbLine
 10
264.2062689031279
 20
133.3000899117353
 30
0.0
 11
278.7937289248675
 21
133.3000899117359
 31
0.0
  0
LINE
  5
EF7C88C8E
330
EF7C85532
100
AcDbEntity
  8
JISSEN
100
AcDbLine
 10
279.4999989139981
 20
130.9713518654285
 30
0.0
 11
263.4999989139981
 21
130.9713518654285
 31
0.0
  0
LINE
  5
EF7C88C8F
330
EF7C85532
100
AcDbEntity
  8
JISSEN
100
AcDbLine
 10
263.1499989139981
 20
132.6902521491746
 30
0.0
 11
264.2062689031285
 21
133.3000899117357
 31
0.0
  0
LINE
  5
EF7C88C90
330
EF7C85532
100
AcDbEntity
  8
JISSEN
100
AcDbLine
 10
263.4999989139981
 20
129.3713518654285
 30
0.0
 11
263.4999989139981
 21
130.9713518654285
 31
0.0
  0
LINE
  5
EF7C88C91
330
EF7C85532
100
AcDbEntity
  8
JISSEN
100
AcDbLine
 10
263.1499989139981
 20
132.6902521491746
 30
0.0
 11
263.1499989139981
 21
132.2734883746421
 31
0.0
  0
ARC
  5
EF7C88C92
330
EF7C85532
100
AcDbEntity
  8
JISSEN
100
AcDbCircle
 10
262.6499989139981
 20
132.2734883746421
 30
0.0
 40
0.5
100
AcDbArc
 50
248.8453697346681
 51
0.0
  0
LINE
  5
EF7C88C93
330
EF7C85532
100
AcDbEntity
  8
JISSEN
100
AcDbLine
 10
269.9999989139981
 20
129.3713518654285
 30
0.0
 11
269.9999989139981
 21
130.9713518654285
 31
0.0
  0
LINE
  5
EF7C88C94
330
EF7C85532
100
AcDbEntity
  8
JISSEN
100
AcDbLine
 10
272.9999989139981
 20
129.3713518654285
 30
0.0
 11
272.9999989139981
 21
130.9713518654285
 31
0.0
  0
LINE
  5
EF7C88C95
330
EF7C85532
100
AcDbEntity
  8
JISSEN
100
AcDbLine
 10
279.4999989139981
 20
129.3713518654285
 30
0.0
 11
279.4999989139981
 21
130.9713518654285
 31
0.0
  0
LINE
  5
EF7C88C96
330
EF7C85532
100
AcDbEntity
  8
JISSEN
100
AcDbLine
 10
279.8499989139981
 20
132.6902521491746
 30
0.0
 11
279.8499989139981
 21
132.2734883746421
 31
0.0
  0
ARC
  5
EF7C88C97
330
EF7C85532
100
AcDbEntity
  8
JISSEN
100
AcDbCircle
 10
271.5007834694924
 20
162.3007458651925
 30
0.0
 40
1.6
100
AcDbArc
 50
197.3317314661952
 51
342.7537116970576
  0
LINE
  5
EF7C88C98
330
EF7C85532
100
AcDbEntity
  8
JISSEN
100
AcDbLine
 10
273.9444103990229
 20
162.7419426192046
 30
0.0
 11
273.028846113992
 21
161.8263783341737
 31
0.0
  0
LINE
  5
EF7C88C99
330
EF7C85532
100
AcDbEntity
  8
JISSEN
100
AcDbLine
 10
269.0555874289771
 20
162.7419426192046
 30
0.0
 11
269.9734299313056
 21
161.8241001168759
 31
0.0
  0
ENDSEC
  0
SECTION
  2
OBJECTS
  0
DICTIONARY
  5
EF7C85527
330
0
100
AcDbDictionary
  3
ACAD_GROUP
350
EF7C85528
  3
ACAD_LAYOUT
350
EF7C85BB7
  3
ACAD_MLINESTYLE
350
EF7C85535
  3
ACAD_PLOTSETTINGS
350
EF7C85BB8
  3
ACAD_PLOTSTYLENAME
350
EF7C85BB5
  3
ACDBHEADERROUNDTRIPXREC
350
EF7C88CDD
  3
ACDBVARIABLEDICTIONARY
350
EF7C85DB7
  0
DICTIONARY
  5
EF7C85D9A
330
EF7C85532
100
AcDbDictionary
280
     1
  3
ACAD_LAYOUTSELFREF
360
EF7C88CFF
  0
DICTIONARY
  5
EF7C85D98
330
EF7C8552F
100
AcDbDictionary
280
     1
  3
ACAD_LAYOUTSELFREF
360
EF7C88CFE
  0
DICTIONARY
  5
EF7C85528
102
{ACAD_REACTORS
330
EF7C85527
102
}
330
EF7C85527
100
AcDbDictionary
  0
DICTIONARY
  5
EF7C85BB7
102
{ACAD_REACTORS
330
EF7C85527
102
}
330
EF7C85527
100
AcDbDictionary
  0
DICTIONARY
  5
EF7C85535
102
{ACAD_REACTORS
330
EF7C85527
102
}
330
EF7C85527
100
AcDbDictionary
  3
STANDARD
350
EF7C85536
  0
DICTIONARY
  5
EF7C85BB8
102
{ACAD_REACTORS
330
EF7C85527
102
}
330
EF7C85527
100
AcDbDictionary
  0
ACDBDICTIONARYWDFLT
  5
EF7C85BB5
102
{ACAD_REACTORS
330
EF7C85527
102
}
330
EF7C85527
100
AcDbDictionary
281
     1
  3
Normal
350
EF7C85BB6
100
AcDbDictionaryWithDefault
340
EF7C85BB6
  0
DICTIONARY
  5
EF7C88CDD
102
{ACAD_REACTORS
330
EF7C85527
102
}
330
EF7C85527
100
AcDbDictionary
  3
CEPSNTYPE
350
EF7C88CE7
  3
DIMSTYLEDATA
350
EF7C88CEB
  3
FINGERPRINTGUID
350
EF7C88CE8
  3
HYPERLINKBASE
350
EF7C88CE0
  3
INSUNITS
350
EF7C88CE6
  3
LAYOUTDICT
350
EF7C88CE2
  3
LWETCUNION
350
EF7C88CE5
  3
PLOTSETDICT
350
EF7C88CE3
  3
PLOTSTYLNAMDICT
350
EF7C88CE4
  3
PSVPSCALE
350
EF7C88CEA
  3
PUCSBASE
350
EF7C88CEE
  3
PUCSORGBACK
350
EF7C88CF4
  3
PUCSORGBOTTOM
350
EF7C88CF0
  3
PUCSORGFRONT
350
EF7C88CF3
  3
PUCSORGLEFT
350
EF7C88CF1
  3
PUCSORGRIGHT
350
EF7C88CF2
  3
PUCSORGTOP
350
EF7C88CEF
  3
PUCSORTHOREF
350
EF7C88CEC
  3
PUCSORTHOVIEW
350
EF7C88CED
  3
STYLESHEET
350
EF7C88CE1
  3
TSTACKALIGN
350
EF7C88CDE
  3
TSTACKSIZE
350
EF7C88CDF
  3
UCSBASE
350
EF7C88CF7
  3
UCSORGBACK
350
EF7C88CFD
  3
UCSORGBOTTOM
350
EF7C88CF9
  3
UCSORGFRONT
350
EF7C88CFC
  3
UCSORGLEFT
350
EF7C88CFA
  3
UCSORGRIGHT
350
EF7C88CFB
  3
UCSORGTOP
350
EF7C88CF8
  3
UCSORTHOREF
350
EF7C88CF5
  3
UCSORTHOVIEW
350
EF7C88CF6
  3
VERSIONGUID
350
EF7C88CE9
  0
DICTIONARY
  5
EF7C85DB7
102
{ACAD_REACTORS
330
EF7C85527
102
}
330
EF7C85527
100
AcDbDictionary
  3
DIMASSOC
350
EF7C88CDB
  3
SORTENTS
350
EF7C85DB8
  0
XRECORD
  5
EF7C88CFF
102
{ACAD_REACTORS
330
EF7C85D9A
102
}
330
EF7C85D9A
100
AcDbXrecord
340
EF7C85532
  0
XRECORD
  5
EF7C88CFE
102
{ACAD_REACTORS
330
EF7C85D98
102
}
330
EF7C85D98
100
AcDbXrecord
340
EF7C8552F
  0
MLINESTYLE
  5
EF7C85536
102
{ACAD_REACTORS
330
EF7C85535
102
}
330
EF7C85535
100
AcDbMlineStyle
  2
STANDARD
 70
     0
  3

 62
   256
 51
90.0
 52
90.0
 71
     2
 49
0.5
 62
   256
  6
BYLAYER
 49
-0.5
 62
   256
  6
BYLAYER
  0
ACDBPLACEHOLDER
  5
EF7C85BB6
102
{ACAD_REACTORS
330
EF7C85BB5
102
}
330
EF7C85BB5
100
AcDbPlaceHolder
280
     0
  0
XRECORD
  5
EF7C88CE7
102
{ACAD_REACTORS
330
EF7C88CDD
102
}
330
EF7C88CDD
100
AcDbXrecord
 90
        0
  0
XRECORD
  5
EF7C88CEB
102
{ACAD_REACTORS
330
EF7C88CDD
102
}
330
EF7C88CDD
100
AcDbXrecord
1000
DSTYLE
1002
{
1070
   279
 70
     2
1070
   341
340
EF7C85537
1070
   342
340
EF7C85537
1070
   343
340
EF7C85543
1070
   344
340
EF7C85543
1002
}
  0
XRECORD
  5
EF7C88CE8
102
{ACAD_REACTORS
330
EF7C88CDD
102
}
330
EF7C88CDD
100
AcDbXrecord
  1
{09AA4C7A-3D6F-4857-A850-771461888CEC}
  0
XRECORD
  5
EF7C88CE0
102
{ACAD_REACTORS
330
EF7C88CDD
102
}
330
EF7C88CDD
100
AcDbXrecord
  1

  0
XRECORD
  5
EF7C88CE6
102
{ACAD_REACTORS
330
EF7C88CDD
102
}
330
EF7C88CDD
100
AcDbXrecord
 90
        0
  0
XRECORD
  5
EF7C88CE2
102
{ACAD_REACTORS
330
EF7C88CDD
102
}
330
EF7C88CDD
100
AcDbXrecord
340
EF7C85BB7
  0
XRECORD
  5
EF7C88CE5
102
{ACAD_REACTORS
330
EF7C88CDD
102
}
330
EF7C88CDD
100
AcDbXrecord
 90
    14877
  0
XRECORD
  5
EF7C88CE3
102
{ACAD_REACTORS
330
EF7C88CDD
102
}
330
EF7C88CDD
100
AcDbXrecord
340
EF7C85BB8
  0
XRECORD
  5
EF7C88CE4
102
{ACAD_REACTORS
330
EF7C88CDD
102
}
330
EF7C88CDD
100
AcDbXrecord
340
EF7C85BB5
  0
XRECORD
  5
EF7C88CEA
102
{ACAD_REACTORS
330
EF7C88CDD
102
}
330
EF7C88CDD
100
AcDbXrecord
 40
0.0
  0
XRECORD
  5
EF7C88CEE
102
{ACAD_REACTORS
330
EF7C88CDD
102
}
330
EF7C88CDD
100
AcDbXrecord
340
0
  0
XRECORD
  5
EF7C88CF4
102
{ACAD_REACTORS
330
EF7C88CDD
102
}
330
EF7C88CDD
100
AcDbXrecord
 10
0.0
 20
0.0
 30
0.0
  0
XRECORD
  5
EF7C88CF0
102
{ACAD_REACTORS
330
EF7C88CDD
102
}
330
EF7C88CDD
100
AcDbXrecord
 10
0.0
 20
0.0
 30
0.0
  0
XRECORD
  5
EF7C88CF3
102
{ACAD_REACTORS
330
EF7C88CDD
102
}
330
EF7C88CDD
100
AcDbXrecord
 10
0.0
 20
0.0
 30
0.0
  0
XRECORD
  5
EF7C88CF1
102
{ACAD_REACTORS
330
EF7C88CDD
102
}
330
EF7C88CDD
100
AcDbXrecord
 10
0.0
 20
0.0
 30
0.0
  0
XRECORD
  5
EF7C88CF2
102
{ACAD_REACTORS
330
EF7C88CDD
102
}
330
EF7C88CDD
100
AcDbXrecord
 10
0.0
 20
0.0
 30
0.0
  0
XRECORD
  5
EF7C88CEF
102
{ACAD_REACTORS
330
EF7C88CDD
102
}
330
EF7C88CDD
100
AcDbXrecord
 10
0.0
 20
0.0
 30
0.0
  0
XRECORD
  5
EF7C88CEC
102
{ACAD_REACTORS
330
EF7C88CDD
102
}
330
EF7C88CDD
100
AcDbXrecord
340
0
  0
XRECORD
  5
EF7C88CED
102
{ACAD_REACTORS
330
EF7C88CDD
102
}
330
EF7C88CDD
100
AcDbXrecord
 70
     0
  0
XRECORD
  5
EF7C88CE1
102
{ACAD_REACTORS
330
EF7C88CDD
102
}
330
EF7C88CDD
100
AcDbXrecord
  1

  0
XRECORD
  5
EF7C88CDE
102
{ACAD_REACTORS
330
EF7C88CDD
102
}
330
EF7C88CDD
100
AcDbXrecord
 90
        1
  0
XRECORD
  5
EF7C88CDF
102
{ACAD_REACTORS
330
EF7C88CDD
102
}
330
EF7C88CDD
100
AcDbXrecord
 90
       70
  0
XRECORD
  5
EF7C88CF7
102
{ACAD_REACTORS
330
EF7C88CDD
102
}
330
EF7C88CDD
100
AcDbXrecord
340
0
  0
XRECORD
  5
EF7C88CFD
102
{ACAD_REACTORS
330
EF7C88CDD
102
}
330
EF7C88CDD
100
AcDbXrecord
 10
0.0
 20
0.0
 30
0.0
  0
XRECORD
  5
EF7C88CF9
102
{ACAD_REACTORS
330
EF7C88CDD
102
}
330
EF7C88CDD
100
AcDbXrecord
 10
0.0
 20
0.0
 30
0.0
  0
XRECORD
  5
EF7C88CFC
102
{ACAD_REACTORS
330
EF7C88CDD
102
}
330
EF7C88CDD
100
AcDbXrecord
 10
0.0
 20
0.0
 30
0.0
  0
XRECORD
  5
EF7C88CFA
102
{ACAD_REACTORS
330
EF7C88CDD
102
}
330
EF7C88CDD
100
AcDbXrecord
 10
0.0
 20
0.0
 30
0.0
  0
XRECORD
  5
EF7C88CFB
102
{ACAD_REACTORS
330
EF7C88CDD
102
}
330
EF7C88CDD
100
AcDbXrecord
 10
0.0
 20
0.0
 30
0.0
  0
XRECORD
  5
EF7C88CF8
102
{ACAD_REACTORS
330
EF7C88CDD
102
}
330
EF7C88CDD
100
AcDbXrecord
 10
0.0
 20
0.0
 30
0.0
  0
XRECORD
  5
EF7C88CF5
102
{ACAD_REACTORS
330
EF7C88CDD
102
}
330
EF7C88CDD
100
AcDbXrecord
340
0
  0
XRECORD
  5
EF7C88CF6
102
{ACAD_REACTORS
330
EF7C88CDD
102
}
330
EF7C88CDD
100
AcDbXrecord
 70
     0
  0
XRECORD
  5
EF7C88CE9
102
{ACAD_REACTORS
330
EF7C88CDD
102
}
330
EF7C88CDD
100
AcDbXrecord
  1
{A1B6FF7F-36F1-4026-B002-D55AAF9CF4CD}
  0
DICTIONARYVAR
  5
EF7C88CDB
102
{ACAD_REACTORS
330
EF7C85DB7
102
}
330
EF7C85DB7
100
DictionaryVariables
280
     0
  1
0
  0
DICTIONARYVAR
  5
EF7C85DB8
102
{ACAD_REACTORS
330
EF7C85DB7
102
}
330
EF7C85DB7
100
DictionaryVariables
280
     0
  1
96
  0
ENDSEC
  0
EOF
