  0
SECTION
  2
HEADER
  9
$ACADVER
  1
AC1014
  9
$ACADMAINTVER
 70
     9
  9
$DWGCODEPAGE
  3
ANSI_932
  9
$INSBASE
 10
0.0
 20
0.0
 30
0.0
  9
$EXTMIN
 10
0.0
 20
0.0
 30
0.0
  9
$EXTMAX
 10
361.9999985519999
 20
282.9999999999999
 30
0.0
  9
$LIMMIN
 10
0.0
 20
0.0
  9
$LIMMAX
 10
181.0
 20
283.0
  9
$ORTHOMODE
 70
     1
  9
$REGENMODE
 70
     1
  9
$FILLMODE
 70
     1
  9
$QTEXTMODE
 70
     0
  9
$MIRRTEXT
 70
     0
  9
$DRAGMODE
 70
     2
  9
$LTSCALE
 40
5.0
  9
$OSMODE
 70
   167
  9
$ATTMODE
 70
     1
  9
$TEXTSIZE
 40
3.0
  9
$TRACEWID
 40
0.05
  9
$TEXTSTYLE
  7
BIGFONT
  9
$CLAYER
  8
JISSEN
  9
$CELTYPE
  6
BYLAYER
  9
$CECOLOR
 62
   256
  9
$CELTSCALE
 40
1.0
  9
$DELOBJ
 70
     1
  9
$DISPSILH
 70
     0
  9
$DIMSCALE
 40
1.0
  9
$DIMASZ
 40
1.5
  9
$DIMEXO
 40
1.0
  9
$DIMDLI
 40
6.0
  9
$DIMRND
 40
0.0
  9
$DIMDLE
 40
0.0
  9
$DIMEXE
 40
1.0
  9
$DIMTP
 40
0.0
  9
$DIMTM
 40
0.0
  9
$DIMTXT
 40
3.0
  9
$DIMCEN
 40
1.0
  9
$DIMTSZ
 40
0.0
  9
$DIMTOL
 70
     0
  9
$DIMLIM
 70
     0
  9
$DIMTIH
 70
     0
  9
$DIMTOH
 70
     0
  9
$DIMSE1
 70
     0
  9
$DIMSE2
 70
     0
  9
$DIMTAD
 70
     0
  9
$DIMZIN
 70
     8
  9
$DIMBLK
  1
ARROW
  9
$DIMASO
 70
     0
  9
$DIMSHO
 70
     0
  9
$DIMPOST
  1

  9
$DIMAPOST
  1

  9
$DIMALT
 70
     0
  9
$DIMALTD
 70
     2
  9
$DIMALTF
 40
25.4
  9
$DIMLFAC
 40
1.0
  9
$DIMTOFL
 70
     1
  9
$DIMTVP
 40
0.0
  9
$DIMTIX
 70
     0
  9
$DIMSOXD
 70
     0
  9
$DIMSAH
 70
     0
  9
$DIMBLK1
  1
ARROWANG
  9
$DIMBLK2
  1
ARROWANG
  9
$DIMSTYLE
  2
IMAO
  9
$DIMCLRD
 70
     0
  9
$DIMCLRE
 70
     0
  9
$DIMCLRT
 70
     0
  9
$DIMTFAC
 40
1.0
  9
$DIMGAP
 40
0.09
  9
$DIMJUST
 70
     0
  9
$DIMSD1
 70
     0
  9
$DIMSD2
 70
     0
  9
$DIMTOLJ
 70
     1
  9
$DIMTZIN
 70
     8
  9
$DIMALTZ
 70
     8
  9
$DIMALTTZ
 70
     8
  9
$DIMFIT
 70
     5
  9
$DIMUPT
 70
     0
  9
$DIMUNIT
 70
     2
  9
$DIMDEC
 70
     2
  9
$DIMTDEC
 70
     2
  9
$DIMALTU
 70
     2
  9
$DIMALTTD
 70
     2
  9
$DIMTXSTY
  7
BIGFONT
  9
$DIMAUNIT
 70
     0
  9
$LUNITS
 70
     2
  9
$LUPREC
 70
     2
  9
$SKETCHINC
 40
0.1
  9
$FILLETRAD
 40
0.2
  9
$AUNITS
 70
     0
  9
$AUPREC
 70
     2
  9
$MENU
  1
stdr12j
  9
$ELEVATION
 40
0.0
  9
$PELEVATION
 40
0.0
  9
$THICKNESS
 40
0.0
  9
$LIMCHECK
 70
     0
  9
$BLIPMODE
 70
     0
  9
$CHAMFERA
 40
0.0
  9
$CHAMFERB
 40
0.0
  9
$CHAMFERC
 40
0.0
  9
$CHAMFERD
 40
0.0
  9
$SKPOLY
 70
     0
  9
$TDCREATE
 40
2450617.453041203
  9
$TDUPDATE
 40
2453334.771085833
  9
$TDINDWG
 40
0.1484144444
  9
$TDUSRTIMER
 40
0.1484144444
  9
$USRTIMER
 70
     1
  9
$ANGBASE
 50
0.0
  9
$ANGDIR
 70
     0
  9
$PDMODE
 70
     0
  9
$PDSIZE
 40
0.0
  9
$PLINEWID
 40
0.0
  9
$COORDS
 70
     2
  9
$SPLFRAME
 70
     0
  9
$SPLINETYPE
 70
     6
  9
$SPLINESEGS
 70
     8
  9
$ATTDIA
 70
     0
  9
$ATTREQ
 70
     1
  9
$HANDLING
 70
 22529
  9
$HANDSEED
  5
EF7C88C5A
  9
$SURFTAB1
 70
     6
  9
$SURFTAB2
 70
     6
  9
$SURFTYPE
 70
     6
  9
$SURFU
 70
     6
  9
$SURFV
 70
     6
  9
$UCSNAME
  2

  9
$UCSORG
 10
0.0
 20
0.0
 30
0.0
  9
$UCSXDIR
 10
1.0
 20
0.0
 30
0.0
  9
$UCSYDIR
 10
0.0
 20
1.0
 30
0.0
  9
$PUCSNAME
  2

  9
$PUCSORG
 10
0.0
 20
0.0
 30
0.0
  9
$PUCSXDIR
 10
1.0
 20
0.0
 30
0.0
  9
$PUCSYDIR
 10
0.0
 20
1.0
 30
0.0
  9
$USERI1
 70
     0
  9
$USERI2
 70
     1
  9
$USERI3
 70
     1
  9
$USERI4
 70
     3
  9
$USERI5
 70
     0
  9
$USERR1
 40
1.0
  9
$USERR2
 40
3.0
  9
$USERR3
 40
3.0
  9
$USERR4
 40
1.5
  9
$USERR5
 40
8.0
  9
$WORLDVIEW
 70
     1
  9
$SHADEDGE
 70
     3
  9
$SHADEDIF
 70
    70
  9
$TILEMODE
 70
     1
  9
$MAXACTVP
 70
    16
  9
$PINSBASE
 10
0.0
 20
0.0
 30
0.0
  9
$PLIMCHECK
 70
     0
  9
$PEXTMIN
 10
1.000000000000000E+20
 20
1.000000000000000E+20
 30
1.000000000000000E+20
  9
$PEXTMAX
 10
-1.000000000000000E+20
 20
-1.000000000000000E+20
 30
-1.000000000000000E+20
  9
$PLIMMIN
 10
0.0
 20
0.0
  9
$PLIMMAX
 10
12.0
 20
9.0
  9
$UNITMODE
 70
     0
  9
$VISRETAIN
 70
     0
  9
$PLINEGEN
 70
     0
  9
$PSLTSCALE
 70
     0
  9
$TREEDEPTH
 70
  3020
  9
$PICKSTYLE
 70
     1
  9
$CMLSTYLE
  2
STANDARD
  9
$CMLJUST
 70
     0
  9
$CMLSCALE
 40
1.0
  9
$PROXYGRAPHICS
 70
     1
  9
$MEASUREMENT
 70
     0
  0
ENDSEC
  0
SECTION
  2
CLASSES
  0
CLASS
  1
LWPOLYLINE
  2
AcDbPolyline
  3
AutoCAD 2000
 90
        0
280
     0
281
     1
  0
CLASS
  1
HATCH
  2
AcDbHatch
  3
AutoCAD 2000
 90
        0
280
     0
281
     1
  0
CLASS
  1
ACDBDICTIONARYWDFLT
  2
AcDbDictionaryWithDefault
  3
AutoCAD 2000
 90
        0
280
     0
281
     0
  0
CLASS
  1
ACDBPLACEHOLDER
  2
AcDbPlaceHolder
  3
AutoCAD 2000
 90
        0
280
     0
281
     0
  0
CLASS
  1
LAYOUT
  2
AcDbLayout
  3
AutoCAD 2000
 90
        0
280
     0
281
     0
  0
CLASS
  1
LONG_TRANSACTION
  2
AcDbLongTransaction
  3
AutoCAD 2000
 90
        0
280
     0
281
     0
  0
CLASS
  1
LWPOLYLINE
  2
AcDbPolyline
  3
AutoCAD 2000
 90
        0
280
     0
281
     1
  0
CLASS
  1
HATCH
  2
AcDbHatch
  3
AutoCAD 2000
 90
        0
280
     0
281
     1
  0
CLASS
  1
XRECORD
  2
AcDbXrecord
  3
AutoCAD 2000
 90
        0
280
     0
281
     0
  0
CLASS
  1
DICTIONARYVAR
  2
AcDbDictionaryVar
  3
AutoCAD 2000
 90
        0
280
     0
281
     0
  0
CLASS
  1
LONG_TRANSACTION
  2
AcDbLongTransaction
  3
AutoCAD 2000
 90
        0
280
     0
281
     0
  0
CLASS
  1
LWPOLYLINE
  2
AcDbPolyline
  3
AutoCAD 2000
 90
        0
280
     0
281
     1
  0
CLASS
  1
HATCH
  2
AcDbHatch
  3
AutoCAD 2000
 90
        0
280
     0
281
     1
  0
CLASS
  1
XRECORD
  2
AcDbXrecord
  3
AutoCAD 2000
 90
        0
280
     0
281
     0
  0
CLASS
  1
LONG_TRANSACTION
  2
AcDbLongTransaction
  3
AutoCAD 2000
 90
        0
280
     0
281
     0
  0
CLASS
  1
LWPOLYLINE
  2
AcDbPolyline
  3
AutoCAD 2000
 90
        0
280
     0
281
     1
  0
CLASS
  1
HATCH
  2
AcDbHatch
  3
AutoCAD 2000
 90
        0
280
     0
281
     1
  0
CLASS
  1
XRECORD
  2
AcDbXrecord
  3
AutoCAD 2000
 90
        0
280
     0
281
     0
  0
CLASS
  1
LONG_TRANSACTION
  2
AcDbLongTransaction
  3
AutoCAD 2000
 90
        0
280
     0
281
     0
  0
CLASS
  1
LWPOLYLINE
  2
AcDbPolyline
  3
AutoCAD 2000
 90
        0
280
     0
281
     1
  0
CLASS
  1
HATCH
  2
AcDbHatch
  3
AutoCAD 2000
 90
        0
280
     0
281
     1
  0
CLASS
  1
XRECORD
  2
AcDbXrecord
  3
AutoCAD 2000
 90
        0
280
     0
281
     0
  0
CLASS
  1
LONG_TRANSACTION
  2
AcDbLongTransaction
  3
AutoCAD 2000
 90
        0
280
     0
281
     0
  0
CLASS
  1
LWPOLYLINE
  2
AcDbPolyline
  3
AutoCAD 2000
 90
        0
280
     0
281
     1
  0
CLASS
  1
HATCH
  2
AcDbHatch
  3
AutoCAD 2000
 90
        0
280
     0
281
     1
  0
CLASS
  1
XRECORD
  2
AcDbXrecord
  3
AutoCAD 2000
 90
        0
280
     0
281
     0
  0
CLASS
  1
LONG_TRANSACTION
  2
AcDbLongTransaction
  3
AutoCAD 2000
 90
        0
280
     0
281
     0
  0
CLASS
  1
LWPOLYLINE
  2
AcDbPolyline
  3
AutoCAD 2000
 90
        0
280
     0
281
     1
  0
CLASS
  1
HATCH
  2
AcDbHatch
  3
AutoCAD 2000
 90
        0
280
     0
281
     1
  0
CLASS
  1
XRECORD
  2
AcDbXrecord
  3
AutoCAD 2000
 90
        0
280
     0
281
     0
  0
CLASS
  1
LONG_TRANSACTION
  2
AcDbLongTransaction
  3
AutoCAD 2000
 90
        0
280
     0
281
     0
  0
CLASS
  1
LWPOLYLINE
  2
AcDbPolyline
  3
AutoCAD 2000
 90
        0
280
     0
281
     1
  0
CLASS
  1
HATCH
  2
AcDbHatch
  3
AutoCAD 2000
 90
        0
280
     0
281
     1
  0
CLASS
  1
XRECORD
  2
AcDbXrecord
  3
AutoCAD 2000
 90
        0
280
     0
281
     0
  0
CLASS
  1
LONG_TRANSACTION
  2
AcDbLongTransaction
  3
AutoCAD 2000
 90
        0
280
     0
281
     0
  0
CLASS
  1
LWPOLYLINE
  2
AcDbPolyline
  3
AutoCAD 2000
 90
        0
280
     0
281
     1
  0
CLASS
  1
HATCH
  2
AcDbHatch
  3
AutoCAD 2000
 90
        0
280
     0
281
     1
  0
CLASS
  1
XRECORD
  2
AcDbXrecord
  3
AutoCAD 2000
 90
        0
280
     0
281
     0
  0
CLASS
  1
LONG_TRANSACTION
  2
AcDbLongTransaction
  3
AutoCAD 2000
 90
        0
280
     0
281
     0
  0
CLASS
  1
LWPOLYLINE
  2
AcDbPolyline
  3
AutoCAD 2000
 90
        0
280
     0
281
     1
  0
CLASS
  1
HATCH
  2
AcDbHatch
  3
AutoCAD 2000
 90
        0
280
     0
281
     1
  0
CLASS
  1
XRECORD
  2
AcDbXrecord
  3
AutoCAD 2000
 90
        0
280
     0
281
     0
  0
CLASS
  1
LONG_TRANSACTION
  2
AcDbLongTransaction
  3
AutoCAD 2000
 90
        0
280
     0
281
     0
  0
CLASS
  1
LWPOLYLINE
  2
AcDbPolyline
  3
AutoCAD 2000
 90
        0
280
     0
281
     1
  0
CLASS
  1
HATCH
  2
AcDbHatch
  3
AutoCAD 2000
 90
        0
280
     0
281
     1
  0
CLASS
  1
XRECORD
  2
AcDbXrecord
  3
AutoCAD 2000
 90
        0
280
     0
281
     0
  0
CLASS
  1
LONG_TRANSACTION
  2
AcDbLongTransaction
  3
AutoCAD 2000
 90
        0
280
     0
281
     0
  0
CLASS
  1
LWPOLYLINE
  2
AcDbPolyline
  3
AutoCAD 2000
 90
        0
280
     0
281
     1
  0
CLASS
  1
HATCH
  2
AcDbHatch
  3
AutoCAD 2000
 90
        0
280
     0
281
     1
  0
CLASS
  1
XRECORD
  2
AcDbXrecord
  3
AutoCAD 2000
 90
        0
280
     0
281
     0
  0
CLASS
  1
LONG_TRANSACTION
  2
AcDbLongTransaction
  3
AutoCAD 2000
 90
        0
280
     0
281
     0
  0
CLASS
  1
LWPOLYLINE
  2
AcDbPolyline
  3
AutoCAD 2000
 90
        0
280
     0
281
     1
  0
CLASS
  1
HATCH
  2
AcDbHatch
  3
AutoCAD 2000
 90
        0
280
     0
281
     1
  0
CLASS
  1
XRECORD
  2
AcDbXrecord
  3
AutoCAD 2000
 90
        0
280
     0
281
     0
  0
CLASS
  1
LONG_TRANSACTION
  2
AcDbLongTransaction
  3
AutoCAD 2000
 90
        0
280
     0
281
     0
  0
CLASS
  1
LWPOLYLINE
  2
AcDbPolyline
  3
AutoCAD 2000
 90
        0
280
     0
281
     1
  0
CLASS
  1
HATCH
  2
AcDbHatch
  3
AutoCAD 2000
 90
        0
280
     0
281
     1
  0
CLASS
  1
XRECORD
  2
AcDbXrecord
  3
AutoCAD 2000
 90
        0
280
     0
281
     0
  0
CLASS
  1
LONG_TRANSACTION
  2
AcDbLongTransaction
  3
AutoCAD 2000
 90
        0
280
     0
281
     0
  0
CLASS
  1
LWPOLYLINE
  2
AcDbPolyline
  3
AutoCAD 2000
 90
        0
280
     0
281
     1
  0
CLASS
  1
HATCH
  2
AcDbHatch
  3
AutoCAD 2000
 90
        0
280
     0
281
     1
  0
CLASS
  1
XRECORD
  2
AcDbXrecord
  3
AutoCAD 2000
 90
        0
280
     0
281
     0
  0
CLASS
  1
LONG_TRANSACTION
  2
AcDbLongTransaction
  3
AutoCAD 2000
 90
        0
280
     0
281
     0
  0
CLASS
  1
LWPOLYLINE
  2
AcDbPolyline
  3
AutoCAD 2000
 90
        0
280
     0
281
     1
  0
CLASS
  1
HATCH
  2
AcDbHatch
  3
AutoCAD 2000
 90
        0
280
     0
281
     1
  0
CLASS
  1
XRECORD
  2
AcDbXrecord
  3
AutoCAD 2000
 90
        0
280
     0
281
     0
  0
ENDSEC
  0
SECTION
  2
TABLES
  0
TABLE
  2
VPORT
  5
EF7C85523
330
0
100
AcDbSymbolTable
 70
    10
  0
VPORT
  5
EF7C85567
330
EF7C85523
100
AcDbSymbolTableRecord
100
AcDbViewportTableRecord
  2
2
 70
     0
 10
0.5
 20
0.0
 11
1.0
 21
1.0
 12
0.9240312421264802
 22
1.052650975462766
 13
0.0
 23
0.0
 14
1.0
 24
1.0
 15
10.0
 25
10.0
 16
0.0
 26
0.0
 36
1.0
 17
0.0
 27
0.0
 37
0.0
 40
2.105301950925533
 41
0.8778135048231511
 42
50.0
 43
0.0
 44
0.0
 50
0.0
 51
0.0
 71
     0
 72
   500
 73
     1
 74
     1
 75
     0
 76
     0
 77
     0
 78
     0
  0
VPORT
  5
EF7C85568
330
EF7C85523
100
AcDbSymbolTableRecord
100
AcDbViewportTableRecord
  2
2
 70
     0
 10
0.0
 20
0.0
 11
0.5
 21
1.0
 12
0.9240312421264802
 22
1.052650975462766
 13
0.0
 23
0.0
 14
1.0
 24
1.0
 15
10.0
 25
10.0
 16
0.0
 26
0.0
 36
1.0
 17
0.0
 27
0.0
 37
0.0
 40
2.105301950925533
 41
0.8778135048231511
 42
50.0
 43
0.0
 44
0.0
 50
0.0
 51
0.0
 71
     0
 72
   500
 73
     1
 74
     1
 75
     0
 76
     0
 77
     0
 78
     0
  0
VPORT
  5
EF7C85569
330
EF7C85523
100
AcDbSymbolTableRecord
100
AcDbViewportTableRecord
  2
3
 70
     0
 10
0.0
 20
0.5
 11
1.0
 21
1.0
 12
2.832169994473273
 22
1.052650975462766
 13
0.0
 23
0.0
 14
1.0
 24
1.0
 15
10.0
 25
10.0
 16
0.0
 26
0.0
 36
1.0
 17
0.0
 27
0.0
 37
0.0
 40
2.105301950925533
 41
3.571428571428571
 42
50.0
 43
0.0
 44
0.0
 50
0.0
 51
0.0
 71
     0
 72
   500
 73
     1
 74
     1
 75
     0
 76
     0
 77
     0
 78
     0
  0
VPORT
  5
EF7C8556A
330
EF7C85523
100
AcDbSymbolTableRecord
100
AcDbViewportTableRecord
  2
3
 70
     0
 10
0.0
 20
0.0
 11
1.0
 21
0.5
 12
2.856741679241311
 22
1.052650975462766
 13
0.0
 23
0.0
 14
1.0
 24
1.0
 15
10.0
 25
10.0
 16
0.0
 26
0.0
 36
1.0
 17
0.0
 27
0.0
 37
0.0
 40
2.105301950925533
 41
3.594771241830065
 42
50.0
 43
0.0
 44
0.0
 50
0.0
 51
0.0
 71
     0
 72
   500
 73
     1
 74
     1
 75
     0
 76
     0
 77
     0
 78
     0
  0
VPORT
  5
EF7C8556B
330
EF7C85523
100
AcDbSymbolTableRecord
100
AcDbViewportTableRecord
  2
4
 70
     0
 10
0.5
 20
0.0
 11
1.0
 21
0.5
 12
2.886857516709719
 22
1.052650975462766
 13
0.0
 23
0.0
 14
1.0
 24
1.0
 15
10.0
 25
10.0
 16
0.0
 26
0.0
 36
1.0
 17
0.0
 27
0.0
 37
0.0
 40
4.27520703030907
 41
1.784313725490195
 42
50.0
 43
0.0
 44
0.0
 50
0.0
 51
0.0
 71
     0
 72
   500
 73
     1
 74
     1
 75
     0
 76
     0
 77
     0
 78
     0
  0
VPORT
  5
EF7C8556C
330
EF7C85523
100
AcDbSymbolTableRecord
100
AcDbViewportTableRecord
  2
4
 70
     0
 10
0.5
 20
0.5
 11
1.0
 21
1.0
 12
2.862090274555523
 22
1.052650975462766
 13
0.0
 23
0.0
 14
1.0
 24
1.0
 15
10.0
 25
10.0
 16
0.0
 26
0.0
 36
1.0
 17
0.0
 27
0.0
 37
0.0
 40
4.27520703030907
 41
1.772727272727272
 42
50.0
 43
0.0
 44
0.0
 50
0.0
 51
0.0
 71
     0
 72
   500
 73
     1
 74
     1
 75
     0
 76
     0
 77
     0
 78
     0
  0
VPORT
  5
EF7C8556D
330
EF7C85523
100
AcDbSymbolTableRecord
100
AcDbViewportTableRecord
  2
4
 70
     0
 10
0.0
 20
0.5
 11
0.5
 21
1.0
 12
2.862090274555523
 22
1.052650975462766
 13
0.0
 23
0.0
 14
1.0
 24
1.0
 15
10.0
 25
10.0
 16
0.0
 26
0.0
 36
1.0
 17
0.0
 27
0.0
 37
0.0
 40
4.27520703030907
 41
1.772727272727272
 42
50.0
 43
0.0
 44
0.0
 50
0.0
 51
0.0
 71
     0
 72
   500
 73
     1
 74
     1
 75
     0
 76
     0
 77
     0
 78
     0
  0
VPORT
  5
EF7C8556E
330
EF7C85523
100
AcDbSymbolTableRecord
100
AcDbViewportTableRecord
  2
4
 70
     0
 10
0.0
 20
0.0
 11
0.5
 21
0.5
 12
2.886857516709719
 22
1.052650975462766
 13
0.0
 23
0.0
 14
1.0
 24
1.0
 15
10.0
 25
10.0
 16
0.0
 26
0.0
 36
1.0
 17
0.0
 27
0.0
 37
0.0
 40
4.27520703030907
 41
1.784313725490195
 42
50.0
 43
0.0
 44
0.0
 50
0.0
 51
0.0
 71
     0
 72
   500
 73
     1
 74
     1
 75
     0
 76
     0
 77
     0
 78
     0
  0
VPORT
  5
EF7C88C36
330
EF7C85523
100
AcDbSymbolTableRecord
100
AcDbViewportTableRecord
  2
*ACTIVE
 70
     0
 10
0.0
 20
0.0
 11
1.0
 21
1.0
 12
262.8457629592145
 22
141.5028203951366
 13
0.0
 23
0.0
 14
1.0
 24
1.0
 15
10.0
 25
10.0
 16
0.0
 26
0.0
 36
1.0
 17
0.0
 27
0.0
 37
0.0
 40
286.2727286106247
 41
1.771962616822429
 42
50.0
 43
0.0
 44
0.0
 50
0.0
 51
0.0
 71
     0
 72
   500
 73
     1
 74
     0
 75
     0
 76
     0
 77
     0
 78
     0
  0
ENDTAB
  0
TABLE
  2
LTYPE
  5
EF7C85520
330
0
100
AcDbSymbolTable
 70
     4
  0
LTYPE
  5
EF7C8552C
330
EF7C85520
100
AcDbSymbolTableRecord
100
AcDbLinetypeTableRecord
  2
BYBLOCK
 70
     0
  3

 72
    65
 73
     0
 40
0.0
  0
LTYPE
  5
EF7C8552D
330
EF7C85520
100
AcDbSymbolTableRecord
100
AcDbLinetypeTableRecord
  2
BYLAYER
 70
     0
  3

 72
    65
 73
     0
 40
0.0
  0
LTYPE
  5
EF7C8552E
330
EF7C85520
100
AcDbSymbolTableRecord
100
AcDbLinetypeTableRecord
  2
CONTINUOUS
 70
     0
  3
実線
 72
    65
 73
     0
 40
0.0
  0
LTYPE
  5
EF7C85565
330
EF7C85520
100
AcDbSymbolTableRecord
100
AcDbLinetypeTableRecord
  2
PHANTOM
 70
     0
  3
_____ _ _ _____ _ _ _____ _ _ _____ _ _ ____
 72
    65
 73
     6
 40
2.5
 49
1.25
 74
     0
 49
-0.25
 74
     0
 49
0.25
 74
     0
 49
-0.25
 74
     0
 49
0.25
 74
     0
 49
-0.25
 74
     0
  0
LTYPE
  5
EF7C8711F
330
EF7C85520
100
AcDbSymbolTableRecord
100
AcDbLinetypeTableRecord
  2
CENTER
 70
     0
  3
____ _ ____ _ ____ _ ____ _ ____ _ ____ _ ____
 72
    65
 73
     4
 40
2.0
 49
1.25
 74
     0
 49
-0.25
 74
     0
 49
0.25
 74
     0
 49
-0.25
 74
     0
  0
LTYPE
  5
EF7C87AC6
330
EF7C85520
100
AcDbSymbolTableRecord
100
AcDbLinetypeTableRecord
  2
HIDDEN
 70
     0
  3
_ _ _ _ _ _ _ _ _ _ _ _ _ _ _ _ _ _ _ _ _ _ _
 72
    65
 73
     2
 40
0.375
 49
0.25
 74
     0
 49
-0.125
 74
     0
  0
ENDTAB
  0
TABLE
  2
LAYER
  5
EF7C8551D
330
0
100
AcDbSymbolTable
 70
    10
  0
LAYER
  5
EF7C85529
330
EF7C8551D
100
AcDbSymbolTableRecord
100
AcDbLayerTableRecord
  2
0
 70
     0
 62
     6
  6
CONTINUOUS
  0
LAYER
  5
EF7C85574
330
EF7C8551D
100
AcDbSymbolTableRecord
100
AcDbLayerTableRecord
  2
NITEN
 70
     0
 62
     2
  6
PHANTOM
  0
LAYER
  5
EF7C85575
330
EF7C8551D
100
AcDbSymbolTableRecord
100
AcDbLayerTableRecord
  2
HATCH
 70
     0
 62
     4
  6
CONTINUOUS
  0
LAYER
  5
EF7C85576
330
EF7C8551D
100
AcDbSymbolTableRecord
100
AcDbLayerTableRecord
  2
SUNPOU
 70
     0
 62
     3
  6
CONTINUOUS
  0
LAYER
  5
EF7C85577
330
EF7C8551D
100
AcDbSymbolTableRecord
100
AcDbLayerTableRecord
  2
TEXT
 70
     0
 62
     3
  6
CONTINUOUS
  0
LAYER
  5
EF7C85578
330
EF7C8551D
100
AcDbSymbolTableRecord
100
AcDbLayerTableRecord
  2
SAISEN
 70
     0
 62
     4
  6
CONTINUOUS
  0
LAYER
  5
EF7C85579
330
EF7C8551D
100
AcDbSymbolTableRecord
100
AcDbLayerTableRecord
  2
JISSEN
 70
     0
 62
     7
  6
CONTINUOUS
  0
LAYER
  5
EF7C8557D
330
EF7C8551D
100
AcDbSymbolTableRecord
100
AcDbLayerTableRecord
  2
WAKU
 70
     0
 62
     5
  6
CONTINUOUS
  0
LAYER
  5
EF7C87120
330
EF7C8551D
100
AcDbSymbolTableRecord
100
AcDbLayerTableRecord
  2
ITTEN
 70
     0
 62
     1
  6
CENTER
  0
LAYER
  5
EF7C87AC7
330
EF7C8551D
100
AcDbSymbolTableRecord
100
AcDbLayerTableRecord
  2
TENSEN
 70
     0
 62
     2
  6
HIDDEN
  0
ENDTAB
  0
TABLE
  2
STYLE
  5
EF7C8551E
330
0
100
AcDbSymbolTable
 70
     3
  0
STYLE
  5
EF7C8552A
330
EF7C8551E
100
AcDbSymbolTableRecord
100
AcDbTextStyleTableRecord
  2
STANDARD
 70
     0
 40
0.0
 41
1.0
 50
0.0
 71
     0
 42
1.5
  3
SIMPLEX
  4

  0
STYLE
  5
EF7C85558
330
EF7C8551E
100
AcDbSymbolTableRecord
100
AcDbTextStyleTableRecord
  2
K
 70
     0
 40
0.0
 41
1.0
 50
0.0
 71
     0
 42
3.0
  3
ROMANS
  4
BIGFONT
  0
STYLE
  5
EF7C8555B
330
EF7C8551E
100
AcDbSymbolTableRecord
100
AcDbTextStyleTableRecord
  2
BIGFONT
 70
     0
 40
0.0
 41
1.0
 50
0.0
 71
     0
 42
3.0
  3
txt.shx
  4
bigfont
  0
ENDTAB
  0
TABLE
  2
VIEW
  5
EF7C85521
330
0
100
AcDbSymbolTable
 70
     0
  0
ENDTAB
  0
TABLE
  2
UCS
  5
EF7C85522
330
0
100
AcDbSymbolTable
 70
     0
  0
ENDTAB
  0
TABLE
  2
APPID
  5
EF7C85524
330
0
100
AcDbSymbolTable
 70
     1
  0
APPID
  5
EF7C8552B
330
EF7C85524
100
AcDbSymbolTableRecord
100
AcDbRegAppTableRecord
  2
ACAD
 70
     0
  0
ENDTAB
  0
TABLE
  2
DIMSTYLE
  5
EF7C85525
330
0
100
AcDbSymbolTable
 70
     1
  0
DIMSTYLE
105
EF7C85571
330
EF7C85525
100
AcDbSymbolTableRecord
100
AcDbDimStyleTableRecord
  2
IMAO
 70
     0
  3

  4

  5
ARROWANG
  6
ARROWANG
  7
ARROWANG
 40
1.0
 41
1.5
 42
1.0
 43
6.0
 44
1.0
 45
0.0
 46
0.0
 47
495.0
 48
0.0
140
3.0
141
0.0
142
0.0
143
25.4
144
1.0
145
0.0
146
1.0
147
0.09
 71
     0
 72
     0
 73
     0
 74
     0
 75
     0
 76
     0
 77
     1
 78
     8
170
     0
171
     2
172
     1
173
     0
174
     1
175
     0
176
     0
177
     0
178
     0
270
     2
271
     2
272
     2
273
     2
274
     2
340
EF7C8555B
275
     0
280
     0
281
     0
282
     0
283
     1
284
     8
285
     8
286
     8
287
     5
288
     0
  0
ENDTAB
  0
TABLE
  2
BLOCK_RECORD
  5
EF7C8551C
330
0
100
AcDbSymbolTable
 70
    10
  0
BLOCK_RECORD
  5
EF7C85532
102
{ACAD_XDICTIONARY
360
EF7C85D9A
102
}
330
EF7C8551C
100
AcDbSymbolTableRecord
100
AcDbBlockTableRecord
  2
*MODEL_SPACE
  0
BLOCK_RECORD
  5
EF7C8552F
102
{ACAD_XDICTIONARY
360
EF7C85D98
102
}
330
EF7C8551C
100
AcDbSymbolTableRecord
100
AcDbBlockTableRecord
  2
*PAPER_SPACE
  0
BLOCK_RECORD
  5
EF7C85537
330
EF7C8551C
100
AcDbSymbolTableRecord
100
AcDbBlockTableRecord
  2
ARROW
  0
BLOCK_RECORD
  5
EF7C8553B
330
EF7C8551C
100
AcDbSymbolTableRecord
100
AcDbBlockTableRecord
  2
WAKU
  0
BLOCK_RECORD
  5
EF7C8553D
330
EF7C8551C
100
AcDbSymbolTableRecord
100
AcDbBlockTableRecord
  2
*X2
  0
BLOCK_RECORD
  5
EF7C8553E
330
EF7C8551C
100
AcDbSymbolTableRecord
100
AcDbBlockTableRecord
  2
STDGX5
  0
BLOCK_RECORD
  5
EF7C8553F
330
EF7C8551C
100
AcDbSymbolTableRecord
100
AcDbBlockTableRecord
  2
*X4
  0
BLOCK_RECORD
  5
EF7C85540
330
EF7C8551C
100
AcDbSymbolTableRecord
100
AcDbBlockTableRecord
  2
*X5
  0
BLOCK_RECORD
  5
EF7C85541
330
EF7C8551C
100
AcDbSymbolTableRecord
100
AcDbBlockTableRecord
  2
*X6
  0
BLOCK_RECORD
  5
EF7C85542
330
EF7C8551C
100
AcDbSymbolTableRecord
100
AcDbBlockTableRecord
  2
*X7
  0
BLOCK_RECORD
  5
EF7C85543
330
EF7C8551C
100
AcDbSymbolTableRecord
100
AcDbBlockTableRecord
  2
ARROWANG
  0
BLOCK_RECORD
  5
EF7C85544
330
EF7C8551C
100
AcDbSymbolTableRecord
100
AcDbBlockTableRecord
  2
STDR12J
  0
ENDTAB
  0
ENDSEC
  0
SECTION
  2
BLOCKS
  0
BLOCK
  5
EF7C85580
330
EF7C85532
100
AcDbEntity
  8
0
100
AcDbBlockBegin
  2
*MODEL_SPACE
 70
     0
 10
0.0
 20
0.0
 30
0.0
  3
*MODEL_SPACE
  1

  0
ENDBLK
  5
EF7C85581
330
EF7C85532
100
AcDbEntity
  8
0
100
AcDbBlockEnd
  0
BLOCK
  5
EF7C8557E
330
EF7C8552F
100
AcDbEntity
 67
     1
  8
0
100
AcDbBlockBegin
  2
*PAPER_SPACE
 70
     0
 10
0.0
 20
0.0
 30
0.0
  3
*PAPER_SPACE
  1

  0
ENDBLK
  5
EF7C8557F
330
EF7C8552F
100
AcDbEntity
 67
     1
  8
0
100
AcDbBlockEnd
  0
BLOCK
  5
499
330
EF7C85537
100
AcDbEntity
  8
0
100
AcDbBlockBegin
  2
ARROW
 70
     0
 10
1.0
 20
0.5
 30
0.0
  3
ARROW
  1

  0
LINE
  5
49A
330
EF7C85537
100
AcDbEntity
  8
0
100
AcDbLine
 10
1.0
 20
0.5
 30
0.0
 11
-0.5000000000000214
 21
0.0980762113533018
 31
0.0
  0
LINE
  5
49B
330
EF7C85537
100
AcDbEntity
  8
0
100
AcDbLine
 10
0.0
 20
0.5
 30
0.0
 11
1.0
 21
0.5
 31
0.0
  0
LINE
  5
49C
330
EF7C85537
100
AcDbEntity
  8
0
100
AcDbLine
 10
1.0
 20
0.5
 30
0.0
 11
-0.4999999999999574
 21
0.9019237886467408
 31
0.0
  0
ENDBLK
  5
49D
330
EF7C85537
100
AcDbEntity
  8
0
100
AcDbBlockEnd
  0
BLOCK
  5
4A7
330
EF7C8553B
100
AcDbEntity
  8
0
100
AcDbBlockBegin
  2
WAKU
 70
     0
 10
0.0
 20
0.0
 30
0.0
  3
WAKU
  1

  0
LINE
  5
4A8
330
EF7C8553B
100
AcDbEntity
  8
WAKU
100
AcDbLine
 10
0.999999996
 20
0.0
 30
0.0
 11
0.999999996
 21
0.9999999999999998
 31
0.0
  0
LINE
  5
4A9
330
EF7C8553B
100
AcDbEntity
  8
WAKU
100
AcDbLine
 10
0.0
 20
0.9999999999999998
 30
0.0
 11
0.999999996
 21
0.9999999999999998
 31
0.0
  0
LINE
  5
4AA
330
EF7C8553B
100
AcDbEntity
  8
WAKU
100
AcDbLine
 10
0.999999996
 20
0.0
 30
0.0
 11
0.0
 21
0.0
 31
0.0
  0
LINE
  5
4AB
330
EF7C8553B
100
AcDbEntity
  8
WAKU
100
AcDbLine
 10
0.0
 20
0.0
 30
0.0
 11
0.0
 21
0.9999999999999998
 31
0.0
  0
ENDBLK
  5
4AC
330
EF7C8553B
100
AcDbEntity
  8
0
100
AcDbBlockEnd
  0
BLOCK
  5
2764
330
EF7C8553D
100
AcDbEntity
  8
0
100
AcDbBlockBegin
  2
*X2
 70
     1
 10
0.0
 20
0.0
 30
0.0
  3
*X2
  1

  0
ENDBLK
  5
2765
330
EF7C8553D
100
AcDbEntity
  8
0
100
AcDbBlockEnd
  0
BLOCK
  5
2766
330
EF7C8553E
100
AcDbEntity
  8
0
100
AcDbBlockBegin
  2
STDGX5
 70
     0
 10
0.0
 20
0.0
 30
0.0
  3
STDGX5
  1

  0
ENDBLK
  5
2767
330
EF7C8553E
100
AcDbEntity
  8
0
100
AcDbBlockEnd
  0
BLOCK
  5
2F5A
330
EF7C8553F
100
AcDbEntity
  8
0
100
AcDbBlockBegin
  2
*X4
 70
     1
 10
0.0
 20
0.0
 30
0.0
  3
*X4
  1

  0
ENDBLK
  5
2F5B
330
EF7C8553F
100
AcDbEntity
  8
0
100
AcDbBlockEnd
  0
BLOCK
  5
32BB
330
EF7C85540
100
AcDbEntity
  8
0
100
AcDbBlockBegin
  2
*X5
 70
     1
 10
0.0
 20
0.0
 30
0.0
  3
*X5
  1

  0
ENDBLK
  5
32BC
330
EF7C85540
100
AcDbEntity
  8
0
100
AcDbBlockEnd
  0
BLOCK
  5
372F
330
EF7C85541
100
AcDbEntity
  8
0
100
AcDbBlockBegin
  2
*X6
 70
     1
 10
0.0
 20
0.0
 30
0.0
  3
*X6
  1

  0
ENDBLK
  5
3730
330
EF7C85541
100
AcDbEntity
  8
0
100
AcDbBlockEnd
  0
BLOCK
  5
3A6D
330
EF7C85542
100
AcDbEntity
  8
0
100
AcDbBlockBegin
  2
*X7
 70
     1
 10
0.0
 20
0.0
 30
0.0
  3
*X7
  1

  0
ENDBLK
  5
3A6E
330
EF7C85542
100
AcDbEntity
  8
0
100
AcDbBlockEnd
  0
BLOCK
  5
4CC9
330
EF7C85543
100
AcDbEntity
  8
0
100
AcDbBlockBegin
  2
ARROWANG
 70
     0
 10
0.0
 20
0.0
 30
0.0
  3
ARROWANG
  1

  0
LINE
  5
4CCA
330
EF7C85543
100
AcDbEntity
  8
SUNPOU
100
AcDbLine
 10
0.0
 20
0.0
 30
0.0
 11
-1.499999999999957
 21
0.4019237886467409
 31
0.0
  0
LINE
  5
4CCB
330
EF7C85543
100
AcDbEntity
  8
SUNPOU
100
AcDbLine
 10
0.0
 20
0.0
 30
0.0
 11
-1.500000000000028
 21
-0.4019237886467124
 31
0.0
  0
ENDBLK
  5
4CCC
330
EF7C85543
100
AcDbEntity
  8
0
100
AcDbBlockEnd
  0
BLOCK
  5
4CCD
330
EF7C85544
100
AcDbEntity
  8
0
100
AcDbBlockBegin
  2
STDR12J
 70
     0
 10
0.0
 20
0.0
 30
0.0
  3
STDR12J
  1

  0
ENDBLK
  5
4CF2
330
EF7C85544
100
AcDbEntity
  8
0
100
AcDbBlockEnd
  0
ENDSEC
  0
SECTION
  2
ENTITIES
  0
TEXT
  5
1
330
EF7C85532
100
AcDbEntity
  8
SUNPOU
100
AcDbText
 10
95.05869565217389
 20
43.7966872748706
 30
0.0
 40
1.5
  1
                          
100
AcDbText
  0
TEXT
  5
2
330
EF7C85532
100
AcDbEntity
  8
SUNPOU
100
AcDbText
 10
332.2793466870868
 20
21.8983436374353
 30
0.0
 40
0.75
  1
                          
100
AcDbText
  0
TEXT
  5
1A
330
EF7C85532
100
AcDbEntity
  8
SUNPOU
100
AcDbText
 10
289.9834441000535
 20
43.7966872748706
 30
0.0
 40
1.5
  1
                          
100
AcDbText
  0
TEXT
  5
1B
330
EF7C85532
100
AcDbEntity
  8
SUNPOU
100
AcDbText
 10
527.2040951349665
 20
21.8983436374353
 30
0.0
 40
0.75
  1
                          
100
AcDbText
  0
TEXT
  5
1C
330
EF7C85532
100
AcDbEntity
  8
SUNPOU
100
AcDbText
 10
490.6272568090836
 20
43.79668727487057
 30
0.0
 40
1.5
  1
                          
100
AcDbText
  0
TEXT
  5
1D
330
EF7C85532
100
AcDbEntity
  8
SUNPOU
100
AcDbText
 10
727.8479078439966
 20
21.89834363743527
 30
0.0
 40
0.75
  1
                          
100
AcDbText
  0
INSERT
  5
1E
330
EF7C85532
100
AcDbEntity
  8
HATCH
100
AcDbBlockReference
  2
*X2
 10
194.9247484478796
 20
0.0
 30
0.0
  0
TEXT
  5
1F
330
EF7C85532
100
AcDbEntity
  8
SUNPOU
100
AcDbText
 10
493.0101992368964
 20
43.7966872748706
 30
0.0
 40
1.5
  1
                          
100
AcDbText
  0
TEXT
  5
20
330
EF7C85532
100
AcDbEntity
  8
SUNPOU
100
AcDbText
 10
730.2308502718094
 20
21.8983436374353
 30
0.0
 40
0.75
  1
                          
100
AcDbText
  0
TEXT
  5
21
330
EF7C85532
100
AcDbEntity
  8
SUNPOU
100
AcDbText
 10
482.0486607753579
 20
43.7966872748706
 30
0.0
 40
1.5
  1
                          
100
AcDbText
  0
TEXT
  5
22
330
EF7C85532
100
AcDbEntity
  8
SUNPOU
100
AcDbText
 10
719.269311810271
 20
21.8983436374353
 30
0.0
 40
0.75
  1
                          
100
AcDbText
  0
INSERT
  5
25
330
EF7C85532
100
AcDbEntity
  8
JISSEN
100
AcDbBlockReference
  2
STDGX5
 10
0.0
 20
0.0
 30
0.0
  0
TEXT
  5
60
330
EF7C85532
100
AcDbEntity
  8
SUNPOU
100
AcDbText
 10
274.0586949361738
 20
43.7966872748706
 30
0.0
 40
1.5
  1
                          
100
AcDbText
  0
TEXT
  5
61
330
EF7C85532
100
AcDbEntity
  8
SUNPOU
100
AcDbText
 10
511.2793459710869
 20
21.8983436374353
 30
0.0
 40
0.75
  1
                          
100
AcDbText
  0
TEXT
  5
62
330
EF7C85532
100
AcDbEntity
  8
SUNPOU
100
AcDbText
 10
474.702507645204
 20
43.79668727487057
 30
0.0
 40
1.5
  1
                          
100
AcDbText
  0
TEXT
  5
63
330
EF7C85532
100
AcDbEntity
  8
SUNPOU
100
AcDbText
 10
711.923158680117
 20
21.89834363743527
 30
0.0
 40
0.75
  1
                          
100
AcDbText
  0
INSERT
  5
64
330
EF7C85532
100
AcDbEntity
  8
HATCH
100
AcDbBlockReference
  2
*X4
 10
178.999999284
 20
0.0
 30
0.0
  0
TEXT
  5
65
330
EF7C85532
100
AcDbEntity
  8
SUNPOU
100
AcDbText
 10
477.0854500730167
 20
43.7966872748706
 30
0.0
 40
1.5
  1
                          
100
AcDbText
  0
TEXT
  5
66
330
EF7C85532
100
AcDbEntity
  8
SUNPOU
100
AcDbText
 10
714.3061011079298
 20
21.8983436374353
 30
0.0
 40
0.75
  1
                          
100
AcDbText
  0
TEXT
  5
67
330
EF7C85532
100
AcDbEntity
  8
SUNPOU
100
AcDbText
 10
466.1239116114783
 20
43.7966872748706
 30
0.0
 40
1.5
  1
                          
100
AcDbText
  0
TEXT
  5
68
330
EF7C85532
100
AcDbEntity
  8
SUNPOU
100
AcDbText
 10
703.3445626463913
 20
21.8983436374353
 30
0.0
 40
0.75
  1
                          
100
AcDbText
  0
INSERT
  5
69
330
EF7C85532
100
AcDbEntity
  8
TEXT
100
AcDbBlockReference
  2
STDGX5
 10
178.999999284
 20
0.0
 30
0.0
  0
TEXT
  5
6A
330
EF7C85532
100
AcDbEntity
  8
SUNPOU
100
AcDbText
 10
453.0586949361739
 20
43.7966872748706
 30
0.0
 40
1.5
  1
                          
100
AcDbText
  0
TEXT
  5
6B
330
EF7C85532
100
AcDbEntity
  8
SUNPOU
100
AcDbText
 10
690.279345971087
 20
21.8983436374353
 30
0.0
 40
0.75
  1
                          
100
AcDbText
  0
TEXT
  5
6C
330
EF7C85532
100
AcDbEntity
  8
SUNPOU
100
AcDbText
 10
647.9834433840535
 20
43.7966872748706
 30
0.0
 40
1.5
  1
                          
100
AcDbText
  0
TEXT
  5
6D
330
EF7C85532
100
AcDbEntity
  8
SUNPOU
100
AcDbText
 10
885.2040944189665
 20
21.8983436374353
 30
0.0
 40
0.75
  1
                          
100
AcDbText
  0
TEXT
  5
6E
330
EF7C85532
100
AcDbEntity
  8
SUNPOU
100
AcDbText
 10
848.6272560930835
 20
43.79668727487057
 30
0.0
 40
1.5
  1
                          
100
AcDbText
  0
TEXT
  5
6F
330
EF7C85532
100
AcDbEntity
  8
SUNPOU
100
AcDbText
 10
1085.847907127996
 20
21.89834363743527
 30
0.0
 40
0.75
  1
                          
100
AcDbText
  0
INSERT
  5
70
330
EF7C85532
100
AcDbEntity
  8
HATCH
100
AcDbBlockReference
  2
*X5
 10
552.9247477318797
 20
0.0
 30
0.0
  0
TEXT
  5
71
330
EF7C85532
100
AcDbEntity
  8
SUNPOU
100
AcDbText
 10
851.0101985208963
 20
43.7966872748706
 30
0.0
 40
1.5
  1
                          
100
AcDbText
  0
TEXT
  5
72
330
EF7C85532
100
AcDbEntity
  8
SUNPOU
100
AcDbText
 10
1088.230849555809
 20
21.8983436374353
 30
0.0
 40
0.75
  1
                          
100
AcDbText
  0
TEXT
  5
73
330
EF7C85532
100
AcDbEntity
  8
SUNPOU
100
AcDbText
 10
840.048660059358
 20
43.7966872748706
 30
0.0
 40
1.5
  1
                          
100
AcDbText
  0
TEXT
  5
74
330
EF7C85532
100
AcDbEntity
  8
SUNPOU
100
AcDbText
 10
1077.269311094271
 20
21.8983436374353
 30
0.0
 40
0.75
  1
                          
100
AcDbText
  0
INSERT
  5
75
330
EF7C85532
100
AcDbEntity
  8
JISSEN
100
AcDbBlockReference
  2
STDGX5
 10
357.999999284
 20
0.0
 30
0.0
  0
TEXT
  5
76
330
EF7C85532
100
AcDbEntity
  8
SUNPOU
100
AcDbText
 10
453.0586949361739
 20
43.7966872748706
 30
0.0
 40
1.5
  1
                          
100
AcDbText
  0
TEXT
  5
77
330
EF7C85532
100
AcDbEntity
  8
SUNPOU
100
AcDbText
 10
690.279345971087
 20
21.8983436374353
 30
0.0
 40
0.75
  1
                          
100
AcDbText
  0
TEXT
  5
78
330
EF7C85532
100
AcDbEntity
  8
SUNPOU
100
AcDbText
 10
647.9834433840535
 20
43.7966872748706
 30
0.0
 40
1.5
  1
                          
100
AcDbText
  0
TEXT
  5
79
330
EF7C85532
100
AcDbEntity
  8
SUNPOU
100
AcDbText
 10
885.2040944189665
 20
21.8983436374353
 30
0.0
 40
0.75
  1
                          
100
AcDbText
  0
TEXT
  5
7A
330
EF7C85532
100
AcDbEntity
  8
SUNPOU
100
AcDbText
 10
848.6272560930835
 20
43.79668727487057
 30
0.0
 40
1.5
  1
                          
100
AcDbText
  0
TEXT
  5
7B
330
EF7C85532
100
AcDbEntity
  8
SUNPOU
100
AcDbText
 10
1085.847907127996
 20
21.89834363743527
 30
0.0
 40
0.75
  1
                          
100
AcDbText
  0
INSERT
  5
7C
330
EF7C85532
100
AcDbEntity
  8
HATCH
100
AcDbBlockReference
  2
*X6
 10
552.9247477318797
 20
0.0
 30
0.0
  0
TEXT
  5
7D
330
EF7C85532
100
AcDbEntity
  8
SUNPOU
100
AcDbText
 10
851.0101985208963
 20
43.7966872748706
 30
0.0
 40
1.5
  1
                          
100
AcDbText
  0
TEXT
  5
7E
330
EF7C85532
100
AcDbEntity
  8
SUNPOU
100
AcDbText
 10
1088.230849555809
 20
21.8983436374353
 30
0.0
 40
0.75
  1
                          
100
AcDbText
  0
TEXT
  5
7F
330
EF7C85532
100
AcDbEntity
  8
SUNPOU
100
AcDbText
 10
840.048660059358
 20
43.7966872748706
 30
0.0
 40
1.5
  1
                          
100
AcDbText
  0
TEXT
  5
80
330
EF7C85532
100
AcDbEntity
  8
SUNPOU
100
AcDbText
 10
1077.269311094271
 20
21.8983436374353
 30
0.0
 40
0.75
  1
                          
100
AcDbText
  0
INSERT
  5
81
330
EF7C85532
100
AcDbEntity
  8
JISSEN
100
AcDbBlockReference
  2
STDGX5
 10
357.999999284
 20
0.0
 30
0.0
  0
TEXT
  5
82
330
EF7C85532
100
AcDbEntity
  8
SUNPOU
100
AcDbText
 10
632.0586942201739
 20
43.7966872748706
 30
0.0
 40
1.5
  1
                          
100
AcDbText
  0
TEXT
  5
83
330
EF7C85532
100
AcDbEntity
  8
SUNPOU
100
AcDbText
 10
869.2793452550871
 20
21.8983436374353
 30
0.0
 40
0.75
  1
                          
100
AcDbText
  0
TEXT
  5
84
330
EF7C85532
100
AcDbEntity
  8
SUNPOU
100
AcDbText
 10
826.9834426680535
 20
43.7966872748706
 30
0.0
 40
1.5
  1
                          
100
AcDbText
  0
TEXT
  5
85
330
EF7C85532
100
AcDbEntity
  8
SUNPOU
100
AcDbText
 10
1064.204093702966
 20
21.8983436374353
 30
0.0
 40
0.75
  1
                          
100
AcDbText
  0
TEXT
  5
86
330
EF7C85532
100
AcDbEntity
  8
SUNPOU
100
AcDbText
 10
1027.627255377083
 20
43.79668727487057
 30
0.0
 40
1.5
  1
                          
100
AcDbText
  0
TEXT
  5
87
330
EF7C85532
100
AcDbEntity
  8
SUNPOU
100
AcDbText
 10
1264.847906411996
 20
21.89834363743527
 30
0.0
 40
0.75
  1
                          
100
AcDbText
  0
INSERT
  5
88
330
EF7C85532
100
AcDbEntity
  8
HATCH
100
AcDbBlockReference
  2
*X7
 10
731.9247470158797
 20
0.0
 30
0.0
  0
TEXT
  5
89
330
EF7C85532
100
AcDbEntity
  8
SUNPOU
100
AcDbText
 10
1030.010197804896
 20
43.7966872748706
 30
0.0
 40
1.5
  1
                          
100
AcDbText
  0
TEXT
  5
8A
330
EF7C85532
100
AcDbEntity
  8
SUNPOU
100
AcDbText
 10
1267.230848839809
 20
21.8983436374353
 30
0.0
 40
0.75
  1
                          
100
AcDbText
  0
TEXT
  5
8B
330
EF7C85532
100
AcDbEntity
  8
SUNPOU
100
AcDbText
 10
1019.048659343358
 20
43.7966872748706
 30
0.0
 40
1.5
  1
                          
100
AcDbText
  0
TEXT
  5
8C
330
EF7C85532
100
AcDbEntity
  8
SUNPOU
100
AcDbText
 10
1256.269310378271
 20
21.8983436374353
 30
0.0
 40
0.75
  1
                          
100
AcDbText
  0
INSERT
  5
8D
330
EF7C85532
100
AcDbEntity
  8
JISSEN
100
AcDbBlockReference
  2
STDGX5
 10
536.999998568
 20
0.0
 30
0.0
  0
INSERT
  5
8E
330
EF7C85532
100
AcDbEntity
  8
SUNPOU
100
AcDbBlockReference
  2
STDGX5
 10
739.0804232644236
 20
50.83533235670902
 30
0.0
 41
0.5
 42
0.5
 43
0.5
  0
INSERT
  5
8F
330
EF7C85532
100
AcDbEntity
  8
SUNPOU
100
AcDbBlockReference
  2
STDGX5
 10
726.2208210623692
 20
105.0763138619288
 30
0.0
 41
0.5
 42
0.5
 43
0.5
  0
INSERT
  5
90
330
EF7C85532
100
AcDbEntity
  8
HATCH
100
AcDbBlockReference
  2
STDGX5
 10
852.3985550581901
 20
151.7065097967401
 30
0.0
 41
0.5
 42
0.5
 43
0.5
  0
INSERT
  5
91
330
EF7C85532
100
AcDbEntity
  8
HATCH
100
AcDbBlockReference
  2
STDGX5
 10
866.6806796277285
 20
102.7017487639613
 30
0.0
 41
0.5
 42
0.5
 43
0.5
  0
INSERT
  5
92
330
EF7C85532
100
AcDbEntity
  8
TEXT
100
AcDbBlockReference
  2
STDGX5
 10
970.3434408521969
 20
102.8213468229236
 30
0.0
 41
0.5
 42
0.5
 43
0.5
  0
INSERT
  5
93
330
EF7C85532
100
AcDbEntity
  8
SUNPOU
100
AcDbBlockReference
  2
STDGX5
 10
996.1728907397869
 20
174.5475645486174
 30
0.0
 41
0.5
 42
0.5
 43
0.5
  0
INSERT
  5
94
330
EF7C85532
100
AcDbEntity
  8
TEXT
100
AcDbBlockReference
  2
STDGX5
 10
725.7513886810995
 20
124.5860190441302
 30
0.0
 41
0.5
 42
0.5
 43
0.5
  0
INSERT
  5
95
330
EF7C85532
100
AcDbEntity
  8
HATCH
100
AcDbBlockReference
  2
STDGX5
 10
777.1755722656421
 20
145.5222028932424
 30
0.0
 41
0.5
 42
0.5
 43
0.5
  0
INSERT
  5
96
330
EF7C85532
100
AcDbEntity
  8
SUNPOU
100
AcDbBlockReference
  2
STDGX5
 10
846.1963575359604
 20
112.6957974729892
 30
0.0
 41
0.5
 42
0.5
 43
0.5
  0
INSERT
  5
97
330
EF7C85532
100
AcDbEntity
  8
SUNPOU
100
AcDbBlockReference
  2
STDGX5
 10
916.6681156211122
 20
121.7330617103085
 30
0.0
 41
0.5
 42
0.5
 43
0.5
  0
INSERT
  5
98
330
EF7C85532
100
AcDbEntity
  8
TEXT
100
AcDbBlockReference
  2
STDGX5
 10
983.7969461426769
 20
84.61852224867081
 30
0.0
 41
0.5
 42
0.5
 43
0.5
  0
INSERT
  5
99
330
EF7C85532
100
AcDbEntity
  8
HATCH
100
AcDbBlockReference
  2
STDGX5
 10
974.2802715042099
 20
136.4849386559231
 30
0.0
 41
0.5
 42
0.5
 43
0.5
  0
INSERT
  5
9A
330
EF7C85532
100
AcDbEntity
  8
SUNPOU
100
AcDbBlockReference
  2
STDGX5
 10
749.7834008663489
 20
95.14721172234004
 30
0.0
 41
0.5
 42
0.5
 43
0.5
  0
INSERT
  5
9B
330
EF7C85532
100
AcDbEntity
  8
SUNPOU
100
AcDbBlockReference
  2
STDGX5
 10
736.9237986642947
 20
149.3881932275598
 30
0.0
 41
0.5
 42
0.5
 43
0.5
  0
INSERT
  5
9C
330
EF7C85532
100
AcDbEntity
  8
HATCH
100
AcDbBlockReference
  2
STDGX5
 10
863.1015326601156
 20
196.0183891623711
 30
0.0
 41
0.5
 42
0.5
 43
0.5
  0
INSERT
  5
9D
330
EF7C85532
100
AcDbEntity
  8
HATCH
100
AcDbBlockReference
  2
STDGX5
 10
877.3836572296538
 20
147.0136281295923
 30
0.0
 41
0.5
 42
0.5
 43
0.5
  0
INSERT
  5
9E
330
EF7C85532
100
AcDbEntity
  8
TEXT
100
AcDbBlockReference
  2
STDGX5
 10
981.0464184541224
 20
147.1332261885546
 30
0.0
 41
0.5
 42
0.5
 43
0.5
  0
INSERT
  5
9F
330
EF7C85532
100
AcDbEntity
  8
SUNPOU
100
AcDbBlockReference
  2
STDGX5
 10
1006.875868341712
 20
218.8594439142484
 30
0.0
 41
0.5
 42
0.5
 43
0.5
  0
INSERT
  5
A0
330
EF7C85532
100
AcDbEntity
  8
TEXT
100
AcDbBlockReference
  2
STDGX5
 10
736.4543662830251
 20
168.8978984097612
 30
0.0
 41
0.5
 42
0.5
 43
0.5
  0
INSERT
  5
A1
330
EF7C85532
100
AcDbEntity
  8
HATCH
100
AcDbBlockReference
  2
STDGX5
 10
787.8785498675677
 20
189.8340822588735
 30
0.0
 41
0.5
 42
0.5
 43
0.5
  0
INSERT
  5
A2
330
EF7C85532
100
AcDbEntity
  8
SUNPOU
100
AcDbBlockReference
  2
STDGX5
 10
856.899335137886
 20
157.0076768386202
 30
0.0
 41
0.5
 42
0.5
 43
0.5
  0
INSERT
  5
A3
330
EF7C85532
100
AcDbEntity
  8
SUNPOU
100
AcDbBlockReference
  2
STDGX5
 10
927.3710932230379
 20
166.0449410759395
 30
0.0
 41
0.5
 42
0.5
 43
0.5
  0
INSERT
  5
A4
330
EF7C85532
100
AcDbEntity
  8
TEXT
100
AcDbBlockReference
  2
STDGX5
 10
994.4999237446024
 20
128.9304016143018
 30
0.0
 41
0.5
 42
0.5
 43
0.5
  0
INSERT
  5
A5
330
EF7C85532
100
AcDbEntity
  8
HATCH
100
AcDbBlockReference
  2
STDGX5
 10
984.9832491061354
 20
180.7968180215541
 30
0.0
 41
0.5
 42
0.5
 43
0.5
  0
TEXT
  5
DE
330
EF7C85532
100
AcDbEntity
  8
SUNPOU
100
AcDbText
 10
274.0586949361738
 20
43.7966872748706
 30
0.0
 40
1.5
  1
                          
100
AcDbText
  0
TEXT
  5
145
330
EF7C85532
100
AcDbEntity
  8
SUNPOU
100
AcDbText
 10
511.2793459710869
 20
21.8983436374353
 30
0.0
 40
0.75
  1
                          
100
AcDbText
  0
TEXT
  5
265
330
EF7C85532
100
AcDbEntity
  8
SUNPOU
100
AcDbText
 10
474.702507645204
 20
43.79668727487057
 30
0.0
 40
1.5
  1
                          
100
AcDbText
  0
TEXT
  5
266
330
EF7C85532
100
AcDbEntity
  8
SUNPOU
100
AcDbText
 10
711.923158680117
 20
21.89834363743527
 30
0.0
 40
0.75
  1
                          
100
AcDbText
  0
INSERT
  5
2F7
330
EF7C85532
100
AcDbEntity
  8
HATCH
100
AcDbBlockReference
  2
*X4
 10
178.999999284
 20
0.0
 30
0.0
  0
TEXT
  5
31A
330
EF7C85532
100
AcDbEntity
  8
SUNPOU
100
AcDbText
 10
477.0854500730167
 20
43.7966872748706
 30
0.0
 40
1.5
  1
                          
100
AcDbText
  0
TEXT
  5
31C
330
EF7C85532
100
AcDbEntity
  8
SUNPOU
100
AcDbText
 10
714.3061011079298
 20
21.8983436374353
 30
0.0
 40
0.75
  1
                          
100
AcDbText
  0
TEXT
  5
3A6
330
EF7C85532
100
AcDbEntity
  8
TEXT
100
AcDbText
 10
100.9999992839998
 20
244.9999999999999
 30
0.0
 40
3.0
  1
 
  7
K
100
AcDbText
  0
TEXT
  5
3AB
330
EF7C85532
100
AcDbEntity
  8
SUNPOU
100
AcDbText
 10
466.1239116114783
 20
43.7966872748706
 30
0.0
 40
1.5
  1
                          
100
AcDbText
  0
TEXT
  5
3AC
330
EF7C85532
100
AcDbEntity
  8
SUNPOU
100
AcDbText
 10
703.3445626463913
 20
21.8983436374353
 30
0.0
 40
0.75
  1
                          
100
AcDbText
  0
INSERT
  5
3F6
330
EF7C85532
100
AcDbEntity
  8
TEXT
100
AcDbBlockReference
  2
STDGX5
 10
178.999999284
 20
0.0
 30
0.0
  0
TEXT
  5
3F7
330
EF7C85532
100
AcDbEntity
  8
SUNPOU
100
AcDbText
 10
453.0586949361739
 20
43.7966872748706
 30
0.0
 40
1.5
  1
                          
100
AcDbText
  0
TEXT
  5
3F8
330
EF7C85532
100
AcDbEntity
  8
SUNPOU
100
AcDbText
 10
690.279345971087
 20
21.8983436374353
 30
0.0
 40
0.75
  1
                          
100
AcDbText
  0
TEXT
  5
3F9
330
EF7C85532
100
AcDbEntity
  8
SUNPOU
100
AcDbText
 10
647.9834433840535
 20
43.7966872748706
 30
0.0
 40
1.5
  1
                          
100
AcDbText
  0
TEXT
  5
3FA
330
EF7C85532
100
AcDbEntity
  8
SUNPOU
100
AcDbText
 10
885.2040944189665
 20
21.8983436374353
 30
0.0
 40
0.75
  1
                          
100
AcDbText
  0
TEXT
  5
3FB
330
EF7C85532
100
AcDbEntity
  8
SUNPOU
100
AcDbText
 10
848.6272560930835
 20
43.79668727487057
 30
0.0
 40
1.5
  1
                          
100
AcDbText
  0
TEXT
  5
3FC
330
EF7C85532
100
AcDbEntity
  8
SUNPOU
100
AcDbText
 10
1085.847907127996
 20
21.89834363743527
 30
0.0
 40
0.75
  1
                          
100
AcDbText
  0
INSERT
  5
3FD
330
EF7C85532
100
AcDbEntity
  8
HATCH
100
AcDbBlockReference
  2
*X5
 10
552.9247477318797
 20
0.0
 30
0.0
  0
TEXT
  5
3FE
330
EF7C85532
100
AcDbEntity
  8
SUNPOU
100
AcDbText
 10
851.0101985208963
 20
43.7966872748706
 30
0.0
 40
1.5
  1
                          
100
AcDbText
  0
TEXT
  5
3FF
330
EF7C85532
100
AcDbEntity
  8
SUNPOU
100
AcDbText
 10
1088.230849555809
 20
21.8983436374353
 30
0.0
 40
0.75
  1
                          
100
AcDbText
  0
TEXT
  5
400
330
EF7C85532
100
AcDbEntity
  8
SUNPOU
100
AcDbText
 10
840.048660059358
 20
43.7966872748706
 30
0.0
 40
1.5
  1
                          
100
AcDbText
  0
TEXT
  5
401
330
EF7C85532
100
AcDbEntity
  8
SUNPOU
100
AcDbText
 10
1077.269311094271
 20
21.8983436374353
 30
0.0
 40
0.75
  1
                          
100
AcDbText
  0
INSERT
  5
402
330
EF7C85532
100
AcDbEntity
  8
JISSEN
100
AcDbBlockReference
  2
STDGX5
 10
357.999999284
 20
0.0
 30
0.0
  0
TEXT
  5
409
330
EF7C85532
100
AcDbEntity
  8
SUNPOU
100
AcDbText
 10
453.0586949361739
 20
43.7966872748706
 30
0.0
 40
1.5
  1
                          
100
AcDbText
  0
TEXT
  5
40A
330
EF7C85532
100
AcDbEntity
  8
SUNPOU
100
AcDbText
 10
690.279345971087
 20
21.8983436374353
 30
0.0
 40
0.75
  1
                          
100
AcDbText
  0
TEXT
  5
41B
330
EF7C85532
100
AcDbEntity
  8
SUNPOU
100
AcDbText
 10
647.9834433840535
 20
43.7966872748706
 30
0.0
 40
1.5
  1
                          
100
AcDbText
  0
TEXT
  5
41C
330
EF7C85532
100
AcDbEntity
  8
SUNPOU
100
AcDbText
 10
885.2040944189665
 20
21.8983436374353
 30
0.0
 40
0.75
  1
                          
100
AcDbText
  0
TEXT
  5
41D
330
EF7C85532
100
AcDbEntity
  8
SUNPOU
100
AcDbText
 10
848.6272560930835
 20
43.79668727487057
 30
0.0
 40
1.5
  1
                          
100
AcDbText
  0
TEXT
  5
41E
330
EF7C85532
100
AcDbEntity
  8
SUNPOU
100
AcDbText
 10
1085.847907127996
 20
21.89834363743527
 30
0.0
 40
0.75
  1
                          
100
AcDbText
  0
INSERT
  5
41F
330
EF7C85532
100
AcDbEntity
  8
HATCH
100
AcDbBlockReference
  2
*X6
 10
552.9247477318797
 20
0.0
 30
0.0
  0
TEXT
  5
420
330
EF7C85532
100
AcDbEntity
  8
SUNPOU
100
AcDbText
 10
851.0101985208963
 20
43.7966872748706
 30
0.0
 40
1.5
  1
                          
100
AcDbText
  0
TEXT
  5
421
330
EF7C85532
100
AcDbEntity
  8
SUNPOU
100
AcDbText
 10
1088.230849555809
 20
21.8983436374353
 30
0.0
 40
0.75
  1
                          
100
AcDbText
  0
TEXT
  5
422
330
EF7C85532
100
AcDbEntity
  8
SUNPOU
100
AcDbText
 10
840.048660059358
 20
43.7966872748706
 30
0.0
 40
1.5
  1
                          
100
AcDbText
  0
TEXT
  5
423
330
EF7C85532
100
AcDbEntity
  8
SUNPOU
100
AcDbText
 10
1077.269311094271
 20
21.8983436374353
 30
0.0
 40
0.75
  1
                          
100
AcDbText
  0
INSERT
  5
424
330
EF7C85532
100
AcDbEntity
  8
JISSEN
100
AcDbBlockReference
  2
STDGX5
 10
357.999999284
 20
0.0
 30
0.0
  0
TEXT
  5
425
330
EF7C85532
100
AcDbEntity
  8
SUNPOU
100
AcDbText
 10
632.0586942201739
 20
43.7966872748706
 30
0.0
 40
1.5
  1
                          
100
AcDbText
  0
TEXT
  5
426
330
EF7C85532
100
AcDbEntity
  8
SUNPOU
100
AcDbText
 10
869.2793452550871
 20
21.8983436374353
 30
0.0
 40
0.75
  1
                          
100
AcDbText
  0
TEXT
  5
427
330
EF7C85532
100
AcDbEntity
  8
SUNPOU
100
AcDbText
 10
826.9834426680535
 20
43.7966872748706
 30
0.0
 40
1.5
  1
                          
100
AcDbText
  0
TEXT
  5
428
330
EF7C85532
100
AcDbEntity
  8
SUNPOU
100
AcDbText
 10
1064.204093702966
 20
21.8983436374353
 30
0.0
 40
0.75
  1
                          
100
AcDbText
  0
TEXT
  5
429
330
EF7C85532
100
AcDbEntity
  8
SUNPOU
100
AcDbText
 10
1027.627255377083
 20
43.79668727487057
 30
0.0
 40
1.5
  1
                          
100
AcDbText
  0
TEXT
  5
42A
330
EF7C85532
100
AcDbEntity
  8
SUNPOU
100
AcDbText
 10
1264.847906411996
 20
21.89834363743527
 30
0.0
 40
0.75
  1
                          
100
AcDbText
  0
INSERT
  5
42B
330
EF7C85532
100
AcDbEntity
  8
HATCH
100
AcDbBlockReference
  2
*X7
 10
731.9247470158797
 20
0.0
 30
0.0
  0
TEXT
  5
42C
330
EF7C85532
100
AcDbEntity
  8
SUNPOU
100
AcDbText
 10
1030.010197804896
 20
43.7966872748706
 30
0.0
 40
1.5
  1
                          
100
AcDbText
  0
TEXT
  5
42D
330
EF7C85532
100
AcDbEntity
  8
SUNPOU
100
AcDbText
 10
1267.230848839809
 20
21.8983436374353
 30
0.0
 40
0.75
  1
                          
100
AcDbText
  0
TEXT
  5
42E
330
EF7C85532
100
AcDbEntity
  8
SUNPOU
100
AcDbText
 10
1019.048659343358
 20
43.7966872748706
 30
0.0
 40
1.5
  1
                          
100
AcDbText
  0
TEXT
  5
42F
330
EF7C85532
100
AcDbEntity
  8
SUNPOU
100
AcDbText
 10
1256.269310378271
 20
21.8983436374353
 30
0.0
 40
0.75
  1
                          
100
AcDbText
  0
INSERT
  5
430
330
EF7C85532
100
AcDbEntity
  8
JISSEN
100
AcDbBlockReference
  2
STDGX5
 10
536.999998568
 20
0.0
 30
0.0
  0
INSERT
  5
43B
330
EF7C85532
100
AcDbEntity
  8
SUNPOU
100
AcDbBlockReference
  2
STDGX5
 10
739.0804232644236
 20
50.83533235670902
 30
0.0
 41
0.5
 42
0.5
 43
0.5
  0
INSERT
  5
43C
330
EF7C85532
100
AcDbEntity
  8
SUNPOU
100
AcDbBlockReference
  2
STDGX5
 10
726.2208210623692
 20
105.0763138619288
 30
0.0
 41
0.5
 42
0.5
 43
0.5
  0
INSERT
  5
43D
330
EF7C85532
100
AcDbEntity
  8
HATCH
100
AcDbBlockReference
  2
STDGX5
 10
852.3985550581901
 20
151.7065097967401
 30
0.0
 41
0.5
 42
0.5
 43
0.5
  0
INSERT
  5
43E
330
EF7C85532
100
AcDbEntity
  8
HATCH
100
AcDbBlockReference
  2
STDGX5
 10
866.6806796277285
 20
102.7017487639613
 30
0.0
 41
0.5
 42
0.5
 43
0.5
  0
INSERT
  5
43F
330
EF7C85532
100
AcDbEntity
  8
TEXT
100
AcDbBlockReference
  2
STDGX5
 10
970.3434408521969
 20
102.8213468229236
 30
0.0
 41
0.5
 42
0.5
 43
0.5
  0
INSERT
  5
440
330
EF7C85532
100
AcDbEntity
  8
SUNPOU
100
AcDbBlockReference
  2
STDGX5
 10
996.1728907397869
 20
174.5475645486174
 30
0.0
 41
0.5
 42
0.5
 43
0.5
  0
INSERT
  5
441
330
EF7C85532
100
AcDbEntity
  8
TEXT
100
AcDbBlockReference
  2
STDGX5
 10
725.7513886810995
 20
124.5860190441302
 30
0.0
 41
0.5
 42
0.5
 43
0.5
  0
INSERT
  5
442
330
EF7C85532
100
AcDbEntity
  8
HATCH
100
AcDbBlockReference
  2
STDGX5
 10
777.1755722656421
 20
145.5222028932424
 30
0.0
 41
0.5
 42
0.5
 43
0.5
  0
INSERT
  5
443
330
EF7C85532
100
AcDbEntity
  8
SUNPOU
100
AcDbBlockReference
  2
STDGX5
 10
846.1963575359604
 20
112.6957974729892
 30
0.0
 41
0.5
 42
0.5
 43
0.5
  0
INSERT
  5
444
330
EF7C85532
100
AcDbEntity
  8
SUNPOU
100
AcDbBlockReference
  2
STDGX5
 10
916.6681156211122
 20
121.7330617103085
 30
0.0
 41
0.5
 42
0.5
 43
0.5
  0
INSERT
  5
445
330
EF7C85532
100
AcDbEntity
  8
TEXT
100
AcDbBlockReference
  2
STDGX5
 10
983.7969461426769
 20
84.61852224867081
 30
0.0
 41
0.5
 42
0.5
 43
0.5
  0
INSERT
  5
446
330
EF7C85532
100
AcDbEntity
  8
HATCH
100
AcDbBlockReference
  2
STDGX5
 10
974.2802715042099
 20
136.4849386559231
 30
0.0
 41
0.5
 42
0.5
 43
0.5
  0
INSERT
  5
447
330
EF7C85532
100
AcDbEntity
  8
SUNPOU
100
AcDbBlockReference
  2
STDGX5
 10
749.7834008663489
 20
95.14721172234004
 30
0.0
 41
0.5
 42
0.5
 43
0.5
  0
INSERT
  5
448
330
EF7C85532
100
AcDbEntity
  8
SUNPOU
100
AcDbBlockReference
  2
STDGX5
 10
736.9237986642947
 20
149.3881932275598
 30
0.0
 41
0.5
 42
0.5
 43
0.5
  0
INSERT
  5
449
330
EF7C85532
100
AcDbEntity
  8
HATCH
100
AcDbBlockReference
  2
STDGX5
 10
863.1015326601156
 20
196.0183891623711
 30
0.0
 41
0.5
 42
0.5
 43
0.5
  0
INSERT
  5
44A
330
EF7C85532
100
AcDbEntity
  8
HATCH
100
AcDbBlockReference
  2
STDGX5
 10
877.3836572296538
 20
147.0136281295923
 30
0.0
 41
0.5
 42
0.5
 43
0.5
  0
INSERT
  5
44B
330
EF7C85532
100
AcDbEntity
  8
TEXT
100
AcDbBlockReference
  2
STDGX5
 10
981.0464184541224
 20
147.1332261885546
 30
0.0
 41
0.5
 42
0.5
 43
0.5
  0
INSERT
  5
44C
330
EF7C85532
100
AcDbEntity
  8
SUNPOU
100
AcDbBlockReference
  2
STDGX5
 10
1006.875868341712
 20
218.8594439142484
 30
0.0
 41
0.5
 42
0.5
 43
0.5
  0
INSERT
  5
44D
330
EF7C85532
100
AcDbEntity
  8
TEXT
100
AcDbBlockReference
  2
STDGX5
 10
736.4543662830251
 20
168.8978984097612
 30
0.0
 41
0.5
 42
0.5
 43
0.5
  0
INSERT
  5
44E
330
EF7C85532
100
AcDbEntity
  8
HATCH
100
AcDbBlockReference
  2
STDGX5
 10
787.8785498675677
 20
189.8340822588735
 30
0.0
 41
0.5
 42
0.5
 43
0.5
  0
INSERT
  5
44F
330
EF7C85532
100
AcDbEntity
  8
SUNPOU
100
AcDbBlockReference
  2
STDGX5
 10
856.899335137886
 20
157.0076768386202
 30
0.0
 41
0.5
 42
0.5
 43
0.5
  0
INSERT
  5
450
330
EF7C85532
100
AcDbEntity
  8
SUNPOU
100
AcDbBlockReference
  2
STDGX5
 10
927.3710932230379
 20
166.0449410759395
 30
0.0
 41
0.5
 42
0.5
 43
0.5
  0
INSERT
  5
451
330
EF7C85532
100
AcDbEntity
  8
TEXT
100
AcDbBlockReference
  2
STDGX5
 10
994.4999237446024
 20
128.9304016143018
 30
0.0
 41
0.5
 42
0.5
 43
0.5
  0
INSERT
  5
452
330
EF7C85532
100
AcDbEntity
  8
HATCH
100
AcDbBlockReference
  2
STDGX5
 10
984.9832491061354
 20
180.7968180215541
 30
0.0
 41
0.5
 42
0.5
 43
0.5
  0
INSERT
  5
4CF3
330
EF7C85532
100
AcDbEntity
  8
JISSEN
100
AcDbBlockReference
  2
STDR12J
 10
0.0
 20
0.0
 30
0.0
  0
LINE
  5
EF7C87E6A
330
EF7C85532
100
AcDbEntity
  8
JISSEN
100
AcDbLine
 10
102.5695466213454
 20
168.3885921218126
 30
0.0
 11
102.1840864949318
 21
180.7226997757916
 31
0.0
  0
LINE
  5
EF7C87E6B
330
EF7C85532
100
AcDbEntity
  8
SAISEN
100
AcDbLine
 10
100.9846006902939
 20
181.9221855804295
 30
0.0
 11
101.4195265952795
 21
168.0052521131239
 31
0.0
  0
LINE
  5
EF7C87E6C
330
EF7C85532
100
AcDbEntity
  8
JISSEN
100
AcDbLine
 10
81.24251791269371
 20
168.3885921218126
 30
0.0
 11
81.6279780391074
 21
180.7226997757916
 31
0.0
  0
LINE
  5
EF7C87E6D
330
EF7C85532
100
AcDbEntity
  8
SAISEN
100
AcDbLine
 10
82.82746384374519
 20
181.9221855804295
 30
0.0
 11
82.39253793875951
 21
168.0052521131239
 31
0.0
  0
LWPOLYLINE
  5
EF7C87E6E
330
EF7C85532
100
AcDbEntity
  8
NITEN
100
AcDbPolyline
 90
       15
 70
     1
 43
0.0
 10
77.90603226701961
 20
172.1113029094276
 42
0.4142135623730927
 10
79.40603226701961
 20
170.6113029094276
 10
102.5000834380161
 20
170.6113029094276
 10
104.4060322670196
 20
170.6113029094276
 42
0.4142135623730925
 10
105.9060322670196
 20
172.1113029094276
 10
105.9060322670196
 20
183.1573189356456
 42
-0.4142135623730943
 10
110.9060322670196
 20
188.1573189356456
 42
0.4142135623730951
 10
112.9060322670196
 20
190.1573189356455
 10
112.9060322670196
 20
210.6113029094276
 42
0.4142135623730948
 10
110.9060322670196
 20
212.6113029094276
 10
72.90603226701961
 20
212.6113029094276
 42
0.4142135623730951
 10
70.90603226701961
 20
210.6113029094276
 10
70.90603226701961
 20
190.1573189356455
 42
0.4142135623730951
 10
72.90603226701961
 20
188.1573189356456
 42
-0.4142135623730961
 10
77.90603226701961
 20
183.1573189356456
  0
INSERT
  5
EF7C87E6F
330
EF7C85532
100
AcDbEntity
  8
WAKU
100
AcDbBlockReference
  2
WAKU
 10
0.0
 20
0.0
 30
0.0
 41
181.0
 42
283.0
 43
181.0
  0
ARC
  5
EF7C87E70
330
EF7C85532
100
AcDbEntity
  8
JISSEN
100
AcDbCircle
 10
91.90603226701961
 20
128.0007540037038
 30
0.0
 40
35.0
100
AcDbArc
 50
180.0
 51
0.0
  0
LWPOLYLINE
  5
EF7C87E71
330
EF7C85532
100
AcDbEntity
  8
JISSEN
100
AcDbPolyline
 90
        4
 70
     0
 43
0.0
 10
108.4060322670196
 20
132.0007540037039
 10
121.9060322670196
 20
132.0007540037039
 10
126.9060322670196
 20
130.5007540037038
 10
56.90603226701961
 20
130.5007540037038
  0
LWPOLYLINE
  5
EF7C87E72
330
EF7C85532
100
AcDbEntity
  8
JISSEN
100
AcDbPolyline
 90
        4
 70
     0
 43
0.0
 10
108.4060322670196
 20
128.0007540037038
 10
121.9060322670196
 20
128.0007540037038
 10
126.9060322670196
 20
129.5007540037038
 10
56.90603226701961
 20
129.5007540037038
  0
LWPOLYLINE
  5
EF7C87E73
330
EF7C85532
100
AcDbEntity
  8
JISSEN
100
AcDbPolyline
 90
       15
 70
     0
 43
0.0
 10
108.6560322670196
 20
158.0007540037039
 10
117.4749868780699
 20
158.0007540037039
 42
0.493145426031304
 10
118.9238756175035
 20
159.8889825713576
 10
117.4413092393443
 20
165.4219956202412
 42
0.1651006681921958
 10
117.2627270407041
 20
165.6892627678355
 10
114.3849865980932
 20
167.8974306738495
 42
0.1651006681921981
 10
114.0806058835888
 20
168.0007540037038
 10
91.90603226701961
 20
168.0007540037038
 10
69.73145865045029
 20
168.0007540037038
 42
0.1651006681921981
 10
69.42707793594587
 20
167.8974306738495
 10
66.54933749333491
 20
165.6892627678355
 42
0.1651006681921958
 10
66.37075529469479
 20
165.4219956202412
 10
64.88818891653551
 20
159.8889825713576
 42
0.493145426031304
 10
66.33707765596915
 20
158.0007540037039
 10
75.15603226701961
 20
158.0007540037039
  0
ARC
  5
EF7C87E74
330
EF7C85532
100
AcDbEntity
  8
JISSEN
100
AcDbCircle
 10
91.90603226701961
 20
128.0007540037038
 30
0.0
 40
30.0
100
AcDbArc
 50
304.3409085529157
 51
0.0
  0
ARC
  5
EF7C87E75
330
EF7C85532
100
AcDbEntity
  8
JISSEN
100
AcDbCircle
 10
96.90603226701961
 20
150.5007540037038
 30
0.0
 40
17.0
100
AcDbArc
 50
0.0
 51
26.17896870401264
  0
ARC
  5
EF7C87E76
330
EF7C85532
100
AcDbEntity
  8
JISSEN
100
AcDbCircle
 10
83.9060322670196
 20
150.5007540037038
 30
0.0
 40
30.0
100
AcDbArc
 50
324.7907943550741
 51
0.0
  0
CIRCLE
  5
EF7C87E77
330
EF7C85532
100
AcDbEntity
  8
SUNPOU
100
AcDbCircle
 10
112.2834052206567
 20
81.43575359310636
 30
0.0
 40
6.0
  0
LINE
  5
EF7C87E78
330
EF7C85532
100
AcDbEntity
  8
SUNPOU
100
AcDbLine
 10
95.13828981719013
 20
116.7007540037037
 30
0.0
 11
109.6599510902687
 21
86.83181590054408
 31
0.0
  0
TEXT
  5
EF7C87E79
330
EF7C85532
100
AcDbEntity
  8
SUNPOU
100
AcDbText
 10
110.4619766492282
 20
79.18575359310636
 30
0.0
 40
4.5
  1
1
  7
K
 72
     4
 11
112.2834052206567
 21
81.43575359310636
 31
0.0
100
AcDbText
  0
ARC
  5
EF7C87E7A
330
EF7C85532
100
AcDbEntity
  8
JISSEN
100
AcDbCircle
 10
83.9060322670196
 20
150.5007540037038
 30
0.0
 40
24.0
100
AcDbArc
 50
309.5712194572307
 51
328.6677932927668
  0
LINE
  5
EF7C87E7B
330
EF7C85532
100
AcDbEntity
  8
JISSEN
100
AcDbLine
 10
95.90603226701961
 20
133.984962074344
 30
0.0
 11
95.90603226701961
 21
132.0007540037039
 31
0.0
  0
LINE
  5
EF7C87E7C
330
EF7C85532
100
AcDbEntity
  8
JISSEN
100
AcDbLine
 10
87.90603226701961
 20
132.0007540037038
 30
0.0
 11
87.90603226701961
 21
133.984962074344
 31
0.0
  0
ARC
  5
EF7C87E7D
330
EF7C85532
100
AcDbEntity
  8
JISSEN
100
AcDbCircle
 10
99.90603226701962
 20
150.5007540037038
 30
0.0
 40
24.0
100
AcDbArc
 50
211.3322067072331
 51
230.4287805427692
  0
LINE
  5
EF7C87E7E
330
EF7C85532
100
AcDbEntity
  8
JISSEN
100
AcDbLine
 10
61.90603226701961
 20
149.5064387597449
 30
0.0
 11
61.90603226701961
 21
132.0007540037039
 31
0.0
  0
LINE
  5
EF7C87E7F
330
EF7C85532
100
AcDbEntity
  8
JISSEN
100
AcDbLine
 10
56.90603226701961
 20
153.3613943726284
 30
0.0
 11
56.90603226701961
 21
128.0007540037038
 31
0.0
  0
LWPOLYLINE
  5
EF7C87E80
330
EF7C85532
100
AcDbEntity
  8
JISSEN
100
AcDbPolyline
 90
        4
 70
     1
 43
0.0
 10
79.40603226701961
 20
132.0007540037039
 10
77.90603226701961
 20
130.5007540037038
 10
77.90603226701961
 20
161.0007540037039
 10
79.40603226701961
 20
158.0007540037039
  0
LWPOLYLINE
  5
EF7C87E81
330
EF7C85532
100
AcDbEntity
  8
JISSEN
100
AcDbPolyline
 90
        4
 70
     1
 43
0.0
 10
76.90603226701961
 20
130.5007540037038
 10
76.90603226701961
 20
161.0007540037039
 10
75.15603226701961
 20
158.0007540037039
 10
75.40603226701961
 20
132.0007540037039
  0
LWPOLYLINE
  5
EF7C87E82
330
EF7C85532
100
AcDbEntity
  8
JISSEN
100
AcDbPolyline
 90
        4
 70
     1
 43
0.0
 10
106.9060322670196
 20
130.5007540037038
 10
106.9060322670196
 20
161.0007540037039
 10
108.6560322670196
 20
158.0007540037039
 10
108.4060322670196
 20
132.0007540037039
  0
LWPOLYLINE
  5
EF7C87E83
330
EF7C85532
100
AcDbEntity
  8
JISSEN
100
AcDbPolyline
 90
        4
 70
     1
 43
0.0
 10
104.4060322670196
 20
132.0007540037039
 10
105.9060322670196
 20
130.5007540037038
 10
105.9060322670196
 20
161.0007540037039
 10
104.4060322670196
 20
158.0007540037039
  0
LINE
  5
EF7C87E84
330
EF7C85532
100
AcDbEntity
  8
JISSEN
100
AcDbLine
 10
82.38546521646782
 20
116.7007540037038
 30
0.0
 11
91.90603226701961
 21
116.7007540037038
 31
0.0
  0
LINE
  5
EF7C87E85
330
EF7C85532
100
AcDbEntity
  8
JISSEN
100
AcDbLine
 10
88.4925165627256
 20
119.5007624031977
 30
0.0
 11
84.58777305942493
 21
119.5007624031977
 31
0.0
  0
LWPOLYLINE
  5
EF7C87E86
330
EF7C85532
100
AcDbEntity
  8
JISSEN
100
AcDbPolyline
 90
        2
 70
     0
 43
0.0
 10
79.65603226701961
 20
128.0007540037038
 10
104.1560322670195
 20
128.0007540037038
  0
LWPOLYLINE
  5
EF7C87E87
330
EF7C85532
100
AcDbEntity
  8
JISSEN
100
AcDbPolyline
 90
        2
 70
     0
 43
0.0
 10
79.40603226701961
 20
132.0007540037038
 10
104.4060322670196
 20
132.0007540037039
  0
LINE
  5
EF7C87E88
330
EF7C85532
100
AcDbEntity
  8
JISSEN
100
AcDbLine
 10
79.65615885062067
 20
127.9867243371073
 30
0.0
 11
86.83220278238747
 21
119.5007624031977
 31
0.0
  0
LINE
  5
EF7C87E89
330
EF7C85532
100
AcDbEntity
  8
JISSEN
100
AcDbLine
 10
79.74749607584209
 20
117.8635266541729
 30
0.0
 11
104.064568458197
 21
117.863526654173
 31
0.0
  0
LINE
  5
EF7C87E8A
330
EF7C85532
100
AcDbEntity
  8
JISSEN
100
AcDbLine
 10
104.0556829646648
 20
116.8787189011607
 30
0.0
 11
79.75638156937435
 21
116.8787189011607
 31
0.0
  0
ARC
  5
EF7C87E8B
330
EF7C85532
100
AcDbEntity
  8
JISSEN
100
AcDbCircle
 10
91.90603226701961
 20
128.0007540037038
 30
0.0
 40
30.0
100
AcDbArc
 50
246.417803785703
 51
293.582196214297
  0
LWPOLYLINE
  5
EF7C87E8C
330
EF7C85532
100
AcDbEntity
  8
JISSEN
100
AcDbPolyline
 90
        4
 70
     1
 43
0.0
 10
77.90603226701961
 20
95.92272413901302
 10
79.90410424039868
 20
100.5061413742484
 10
79.65603226701961
 20
128.0007540037038
 10
77.90603226701961
 20
129.5007540037038
  0
LWPOLYLINE
  5
EF7C87E8D
330
EF7C85532
100
AcDbEntity
  8
JISSEN
100
AcDbPolyline
 90
        5
 70
     1
 43
0.0
 10
75.40603226701961
 20
128.0007540037038
 10
75.15603226701961
 20
117.0476318649005
 10
74.98256035812841
 20
103.229882025734
 10
76.90603226701961
 20
96.3779774020201
 10
76.90603226701961
 20
129.5007540037038
  0
ARC
  5
EF7C87E8E
330
EF7C85532
100
AcDbEntity
  8
JISSEN
100
AcDbCircle
 10
91.90603226701961
 20
128.0007540037038
 30
0.0
 40
30.0
100
AcDbArc
 50
180.0
 51
235.6590914470843
  0
LWPOLYLINE
  5
EF7C87E8F
330
EF7C85532
100
AcDbEntity
  8
JISSEN
100
AcDbPolyline
 90
        3
 70
     0
 43
0.0
 10
56.90603226701961
 20
129.5007540037038
 10
61.90603226701961
 20
128.0007540037038
 10
75.40603226701961
 20
128.0007540037038
  0
LWPOLYLINE
  5
EF7C87E90
330
EF7C85532
100
AcDbEntity
  8
JISSEN
100
AcDbPolyline
 90
        3
 70
     0
 43
0.0
 10
56.90603226701961
 20
130.5007540037038
 10
61.90603226701961
 20
132.0007540037039
 10
75.40603226701961
 20
132.0007540037039
  0
LINE
  5
EF7C87E91
330
EF7C85532
100
AcDbEntity
  8
JISSEN
100
AcDbLine
 10
73.90603226701916
 20
118.0398536348811
 30
0.0
 11
74.81854360349342
 21
118.2007540037038
 31
0.0
  0
LINE
  5
EF7C87E92
330
EF7C85532
100
AcDbEntity
  8
JISSEN
100
AcDbLine
 10
72.90603226701961
 20
117.8635266541729
 30
0.0
 11
75.17465469218137
 21
117.8635266541729
 31
0.0
  0
LINE
  5
EF7C87E93
330
EF7C85532
100
AcDbEntity
  8
JISSEN
100
AcDbLine
 10
75.15391168627394
 20
116.8787189011607
 30
0.0
 11
73.07968044468651
 21
116.8787189011607
 31
0.0
  0
LINE
  5
EF7C87E94
330
EF7C85532
100
AcDbEntity
  8
JISSEN
100
AcDbLine
 10
72.90603226701961
 20
117.8635266541729
 30
0.0
 11
73.90603226701916
 21
118.0398536348811
 31
0.0
  0
LINE
  5
EF7C87E95
330
EF7C85532
100
AcDbEntity
  8
JISSEN
100
AcDbLine
 10
73.07968044468651
 20
116.8787189011604
 30
0.0
 11
72.90603226701961
 21
117.8635266541729
 31
0.0
  0
LINE
  5
EF7C87E96
330
EF7C85532
100
AcDbEntity
  8
JISSEN
100
AcDbLine
 10
74.81854360349365
 20
118.2007540037038
 30
0.0
 11
75.18235175209856
 21
118.2007540037038
 31
0.0
  0
ARC
  5
EF7C87E97
330
EF7C85532
100
AcDbEntity
  8
JISSEN
100
AcDbCircle
 10
80.94002417983034
 20
118.1452624031976
 30
0.0
 40
1.355499999999999
100
AcDbArc
 50
70.26879749382101
 51
124.9999999999968
  0
LINE
  5
EF7C87E98
330
EF7C85532
100
AcDbEntity
  8
JISSEN
100
AcDbLine
 10
79.74703621997782
 20
117.9144939548493
 30
0.0
 11
81.48484020925383
 21
119.5007624031977
 31
0.0
  0
LINE
  5
EF7C87E99
330
EF7C85532
100
AcDbEntity
  8
JISSEN
100
AcDbLine
 10
79.73762030425707
 20
118.9580901006149
 30
0.0
 11
80.16254132035653
 21
119.2556229992314
 31
0.0
  0
LINE
  5
EF7C87E9A
330
EF7C85532
100
AcDbEntity
  8
JISSEN
100
AcDbLine
 10
83.45513870590384
 20
117.863526654173
 30
0.0
 11
84.58777305942493
 21
119.5007624031977
 31
0.0
  0
ARC
  5
EF7C87E9B
330
EF7C85532
100
AcDbEntity
  8
JISSEN
100
AcDbCircle
 10
83.73924492200098
 20
118.5007624031972
 30
0.0
 40
1.0
100
AcDbArc
 50
47.91894748809069
 51
146.3490341753988
  0
LINE
  5
EF7C87E9C
330
EF7C85532
100
AcDbEntity
  8
JISSEN
100
AcDbLine
 10
82.1137448202756
 20
117.863526654173
 30
0.0
 11
82.90681626440045
 21
119.0548946347136
 31
0.0
  0
LINE
  5
EF7C87E9D
330
EF7C85532
100
AcDbEntity
  8
JISSEN
100
AcDbLine
 10
81.48484020925383
 20
119.5007624031977
 30
0.0
 11
83.73924492200098
 21
119.5007624031977
 31
0.0
  0
LINE
  5
EF7C87E9E
330
EF7C85532
100
AcDbEntity
  8
JISSEN
100
AcDbLine
 10
82.38546521646782
 20
116.7007540037038
 30
0.0
 11
82.26085285373182
 21
116.8787189011607
 31
0.0
  0
LWPOLYLINE
  5
EF7C87E9F
330
EF7C85532
100
AcDbEntity
  8
JISSEN
100
AcDbPolyline
 90
        4
 70
     1
 43
0.0
 10
105.9060322670196
 20
95.92272413901302
 10
103.9079602936404
 20
100.5061413742484
 10
104.1560322670196
 20
128.0007540037038
 10
105.9060322670196
 20
129.5007540037038
  0
LWPOLYLINE
  5
EF7C87EA0
330
EF7C85532
100
AcDbEntity
  8
JISSEN
100
AcDbPolyline
 90
        5
 70
     1
 43
0.0
 10
108.4060322670196
 20
128.0007540037038
 10
108.6560322670196
 20
117.0476318649005
 10
108.8295041759107
 20
103.229882025734
 10
106.9060322670196
 20
96.3779774020201
 10
106.9060322670194
 20
129.5007540037038
  0
LINE
  5
EF7C87EA1
330
EF7C85532
100
AcDbEntity
  8
JISSEN
100
AcDbLine
 10
101.4265993175714
 20
116.7007540037038
 30
0.0
 11
91.90603226701961
 21
116.7007540037038
 31
0.0
  0
LINE
  5
EF7C87EA2
330
EF7C85532
100
AcDbEntity
  8
JISSEN
100
AcDbLine
 10
95.31954797131351
 20
119.5007624031976
 30
0.0
 11
99.22429147461429
 21
119.5007624031977
 31
0.0
  0
LINE
  5
EF7C87EA3
330
EF7C85532
100
AcDbEntity
  8
JISSEN
100
AcDbLine
 10
104.1559056834184
 20
127.9867243371074
 30
0.0
 11
96.97986175165176
 21
119.5007624031976
 31
0.0
  0
ARC
  5
EF7C87EA4
330
EF7C85532
100
AcDbEntity
  8
JISSEN
100
AcDbCircle
 10
75.15603226701961
 20
124.5007540037038
 30
0.0
 40
12.49999999999999
100
AcDbArc
 50
343.7397952916878
 51
16.26020470831211
  0
ARC
  5
EF7C87EA5
330
EF7C85532
100
AcDbEntity
  8
JISSEN
100
AcDbCircle
 10
108.6560322670194
 20
124.5007540037038
 30
0.0
 40
12.49999999999999
100
AcDbArc
 50
163.7397952916878
 51
196.2602047083121
  0
LINE
  5
EF7C87EA6
330
EF7C85532
100
AcDbEntity
  8
JISSEN
100
AcDbLine
 10
89.65162755427247
 20
119.5007624031977
 30
0.0
 11
94.16043697976675
 21
119.5007624031977
 31
0.0
  0
ARC
  5
EF7C87EA7
330
EF7C85532
100
AcDbEntity
  8
JISSEN
100
AcDbCircle
 10
88.4925165627256
 20
119.0007624031967
 30
0.0
 40
0.5
100
AcDbArc
 50
13.29012998990297
 51
164.2012849264975
  0
LINE
  5
EF7C87EA8
330
EF7C85532
100
AcDbEntity
  8
JISSEN
100
AcDbLine
 10
87.65110935753767
 20
117.863526654173
 30
0.0
 11
88.01140451297664
 21
119.1368917372372
 31
0.0
  0
ARC
  5
EF7C87EA9
330
EF7C85532
100
AcDbEntity
  8
JISSEN
100
AcDbCircle
 10
85.90603226701961
 20
119.0473190215647
 30
0.0
 40
1.0
100
AcDbArc
 50
26.96482331253057
 51
40.21909874455571
  0
LINE
  5
EF7C87EAA
330
EF7C85532
100
AcDbEntity
  8
JISSEN
100
AcDbLine
 10
89.48348748178721
 20
117.863526654173
 30
0.0
 11
89.65162755427247
 21
119.5007624031977
 31
0.0
  0
LINE
  5
EF7C87EAB
330
EF7C85532
100
AcDbEntity
  8
JISSEN
100
AcDbLine
 10
89.27490010801335
 20
117.863526654173
 30
0.0
 11
88.97912580655821
 21
119.1157034481575
 31
0.0
  0
LINE
  5
EF7C87EAC
330
EF7C85532
100
AcDbEntity
  8
JISSEN
100
AcDbLine
 10
88.4925165627256
 20
117.863526654173
 30
0.0
 11
88.59598227630391
 21
118.2291980349174
 31
0.0
  0
LINE
  5
EF7C87EAD
330
EF7C85532
100
AcDbEntity
  8
JISSEN
100
AcDbLine
 10
88.87490010801327
 20
117.863526654173
 30
0.0
 11
88.78952653502024
 21
118.2249603771015
 31
0.0
  0
ARC
  5
EF7C87EAE
330
EF7C85532
100
AcDbEntity
  8
JISSEN
100
AcDbCircle
 10
88.69220468625366
 20
118.2019721681093
 30
0.0
 40
0.1
100
AcDbArc
 50
13.29012998990889
 51
164.2012849264934
  0
INSERT
  5
EF7C87EAF
330
EF7C85532
100
AcDbEntity
  8
SUNPOU
100
AcDbBlockReference
  2
ARROW
 10
95.13828981719013
 20
116.7007540037036
 30
0.0
 41
-1.500000000000002
 42
1.5
 43
1.5
 50
295.9280644736465
  0
ARC
  5
EF7C87EB0
330
EF7C85532
100
AcDbEntity
  8
JISSEN
100
AcDbCircle
 10
95.31954797131351
 20
119.0007624031967
 30
0.0
 40
0.5
100
AcDbArc
 50
15.79871507350246
 51
166.709870010097
  0
LINE
  5
EF7C87EB1
330
EF7C85532
100
AcDbEntity
  8
JISSEN
100
AcDbLine
 10
94.16043697976675
 20
119.5007624031977
 30
0.0
 11
94.32857705225222
 21
117.863526654173
 31
0.0
  0
LINE
  5
EF7C87EB2
330
EF7C85532
100
AcDbEntity
  8
JISSEN
100
AcDbLine
 10
94.53716442602587
 20
117.863526654173
 30
0.0
 11
94.83293872748101
 21
119.1157034481575
 31
0.0
  0
LINE
  5
EF7C87EB3
330
EF7C85532
100
AcDbEntity
  8
JISSEN
100
AcDbLine
 10
94.93716442602595
 20
117.863526654173
 30
0.0
 11
95.02253799901899
 21
118.2249603771015
 31
0.0
  0
LINE
  5
EF7C87EB4
330
EF7C85532
100
AcDbEntity
  8
JISSEN
100
AcDbLine
 10
95.31954797131351
 20
117.863526654173
 30
0.0
 11
95.21608225773531
 21
118.2291980349174
 31
0.0
  0
ARC
  5
EF7C87EB5
330
EF7C85532
100
AcDbEntity
  8
JISSEN
100
AcDbCircle
 10
95.11985984778545
 20
118.2019721681093
 30
0.0
 40
0.1
100
AcDbArc
 50
15.79871507350659
 51
166.7098700100911
  0
LINE
  5
EF7C87EB6
330
EF7C85532
100
AcDbEntity
  8
JISSEN
100
AcDbLine
 10
96.16095517650155
 20
117.863526654173
 30
0.0
 11
95.80066002106258
 21
119.1368917372372
 31
0.0
  0
ARC
  5
EF7C87EB7
330
EF7C85532
100
AcDbEntity
  8
JISSEN
100
AcDbCircle
 10
97.90603226701961
 20
119.0473190215647
 30
0.0
 40
1.0
100
AcDbArc
 50
139.7809012554442
 51
153.0351766874621
  0
ARC
  5
EF7C87EB8
330
EF7C85532
100
AcDbEntity
  8
JISSEN
100
AcDbCircle
 10
102.8720403542088
 20
118.1452624031976
 30
0.0
 40
1.355499999999999
100
AcDbArc
 50
55.00000000000309
 51
109.7312025061702
  0
LINE
  5
EF7C87EB9
330
EF7C85532
100
AcDbEntity
  8
JISSEN
100
AcDbLine
 10
104.0650283140614
 20
117.9144939548493
 30
0.0
 11
102.3272243247852
 21
119.5007624031976
 31
0.0
  0
LINE
  5
EF7C87EBA
330
EF7C85532
100
AcDbEntity
  8
JISSEN
100
AcDbLine
 10
100.3569258281353
 20
117.863526654173
 30
0.0
 11
99.22429147461429
 21
119.5007624031976
 31
0.0
  0
ARC
  5
EF7C87EBB
330
EF7C85532
100
AcDbEntity
  8
JISSEN
100
AcDbCircle
 10
100.0728196120382
 20
118.5007624031972
 30
0.0
 40
1.0
100
AcDbArc
 50
33.65096582460109
 51
132.0810525119092
  0
LINE
  5
EF7C87EBC
330
EF7C85532
100
AcDbEntity
  8
JISSEN
100
AcDbLine
 10
101.6983197137636
 20
117.863526654173
 30
0.0
 11
100.9052482696387
 21
119.0548946347136
 31
0.0
  0
LINE
  5
EF7C87EBD
330
EF7C85532
100
AcDbEntity
  8
JISSEN
100
AcDbLine
 10
102.3272243247852
 20
119.5007624031976
 30
0.0
 11
100.0728196120382
 21
119.5007624031976
 31
0.0
  0
LINE
  5
EF7C87EBE
330
EF7C85532
100
AcDbEntity
  8
JISSEN
100
AcDbLine
 10
101.4265993175714
 20
116.7007540037038
 30
0.0
 11
101.5512116803074
 21
116.8787189011607
 31
0.0
  0
LINE
  5
EF7C87EBF
330
EF7C85532
100
AcDbEntity
  8
JISSEN
100
AcDbLine
 10
104.074444229782
 20
118.9580901006149
 30
0.0
 11
103.6495232136825
 21
119.2556229992314
 31
0.0
  0
LINE
  5
EF7C87EC0
330
EF7C85532
100
AcDbEntity
  8
JISSEN
100
AcDbLine
 10
110.9060322670196
 20
117.8635266541731
 30
0.0
 11
108.9935209305456
 21
118.2007540037041
 31
0.0
  0
LINE
  5
EF7C87EC1
330
EF7C85532
100
AcDbEntity
  8
JISSEN
100
AcDbLine
 10
110.7323840893525
 20
116.8787189011607
 30
0.0
 11
108.6581528477651
 21
116.8787189011607
 31
0.0
  0
LINE
  5
EF7C87EC2
330
EF7C85532
100
AcDbEntity
  8
JISSEN
100
AcDbLine
 10
108.6374098418577
 20
117.8635266541731
 30
0.0
 11
110.9060322670196
 21
117.8635266541731
 31
0.0
  0
LINE
  5
EF7C87EC3
330
EF7C85532
100
AcDbEntity
  8
JISSEN
100
AcDbLine
 10
108.6297127819405
 20
118.2007540037038
 30
0.0
 11
108.9935209305469
 21
118.2007540037038
 31
0.0
  0
LINE
  5
EF7C87EC4
330
EF7C85532
100
AcDbEntity
  8
JISSEN
100
AcDbLine
 10
110.7323840893525
 20
116.8787189011607
 30
0.0
 11
110.9060322670196
 21
117.8635266541731
 31
0.0
  0
LINE
  5
EF7C87EC5
330
EF7C85532
100
AcDbEntity
  8
JISSEN
100
AcDbLine
 10
84.40603226701961
 20
156.6883405388715
 30
0.0
 11
99.40603226701961
 21
156.6883405388715
 31
0.0
  0
LINE
  5
EF7C87EC6
330
EF7C85532
100
AcDbEntity
  8
JISSEN
100
AcDbLine
 10
81.24251791269371
 20
168.3885921218126
 30
0.0
 11
91.90603226701961
 21
168.3885921218126
 31
0.0
  0
LINE
  5
EF7C87EC7
330
EF7C85532
100
AcDbEntity
  8
JISSEN
100
AcDbLine
 10
82.40603226701962
 20
168.0007540037038
 30
0.0
 11
91.90603226701961
 21
168.0007540037038
 31
0.0
  0
LWPOLYLINE
  5
EF7C87EC8
330
EF7C85532
100
AcDbEntity
  8
JISSEN
100
AcDbPolyline
 90
        2
 70
     0
 43
0.0
 10
79.40603226701961
 20
158.0007540037039
 10
91.90603226701961
 20
158.0007540037039
  0
LINE
  5
EF7C87EC9
330
EF7C85532
100
AcDbEntity
  8
JISSEN
100
AcDbLine
 10
85.11730094465741
 20
138.5141815264805
 30
0.0
 11
81.43055284414089
 21
138.5141815264805
 31
0.0
  0
ARC
  5
EF7C87ECA
330
EF7C85532
100
AcDbEntity
  8
JISSEN
100
AcDbCircle
 10
97.9060322670195
 20
142.8383405388706
 30
0.0
 40
13.5
100
AcDbArc
 50
180.0
 51
222.2054464037328
  0
ARC
  5
EF7C87ECB
330
EF7C85532
100
AcDbEntity
  8
JISSEN
100
AcDbCircle
 10
97.9060322670195
 20
147.8383405388706
 30
0.0
 40
13.5
100
AcDbArc
 50
139.0382114476465
 51
180.0
  0
ARC
  5
EF7C87ECC
330
EF7C85532
100
AcDbEntity
  8
JISSEN
100
AcDbCircle
 10
84.69478548349725
 20
149.8990962808592
 30
0.0
 40
10.80551655320168
100
AcDbArc
 50
151.6571464165099
 51
176.8080854238748
  0
ARC
  5
EF7C87ECD
330
EF7C85532
100
AcDbEntity
  8
JISSEN
100
AcDbCircle
 10
86.90603226701961
 20
150.5007540037038
 30
0.0
 40
15.0
100
AcDbArc
 50
149.9999999999996
 51
180.0
  0
CIRCLE
  5
EF7C87ECE
330
EF7C85532
100
AcDbEntity
  8
JISSEN
100
AcDbCircle
 10
62.15603226701961
 20
155.0007540037038
 30
0.0
 40
2.0
  0
LWPOLYLINE
  5
EF7C87ECF
330
EF7C85532
100
AcDbEntity
  8
JISSEN
100
AcDbPolyline
 90
        6
 70
     1
 43
0.0
 10
63.98282718626268
 20
151.8366523885661
 10
65.80962210550587
 20
155.0007540037038
 10
63.98282718626268
 20
158.1648556188417
 10
60.32923734777643
 20
158.1648556188417
 10
58.50244242853335
 20
155.0007540037038
 10
60.32923734777654
 20
151.8366523885661
  0
LWPOLYLINE
  5
EF7C87ED0
330
EF7C85532
100
AcDbEntity
  8
JISSEN
100
AcDbPolyline
 90
        6
 70
     1
 43
0.0
 10
64.15603226701961
 20
151.5366523885661
 10
66.15603226701961
 20
155.0007540037038
 10
64.15603226701961
 20
158.4648556188416
 10
60.15603226701961
 20
158.4648556188416
 10
58.15603226701961
 20
155.0007540037038
 10
60.15603226701961
 20
151.5366523885661
  0
ARC
  5
EF7C87ED1
330
EF7C85532
100
AcDbEntity
  8
JISSEN
100
AcDbCircle
 10
86.90603226701961
 20
150.5007540037038
 30
0.0
 40
17.0
100
AcDbArc
 50
153.8210312959871
 51
180.0
  0
ARC
  5
EF7C87ED2
330
EF7C85532
100
AcDbEntity
  8
JISSEN
100
AcDbCircle
 10
62.15603226701961
 20
155.0007540037038
 30
0.0
 40
5.5
100
AcDbArc
 50
60.49547610270324
 51
33.05573115085367
  0
ARC
  5
EF7C87ED3
330
EF7C85532
100
AcDbEntity
  8
JISSEN
100
AcDbCircle
 10
99.90603226701962
 20
150.5007540037038
 30
0.0
 40
30.0
100
AcDbArc
 50
180.0
 51
215.2092056449259
  0
ARC
  5
EF7C87ED4
330
EF7C85532
100
AcDbEntity
  8
JISSEN
100
AcDbCircle
 10
84.40603226701961
 20
142.4332846408401
 30
0.0
 40
4.0
100
AcDbArc
 50
90.0
 51
180.0
  0
LINE
  5
EF7C87ED5
330
EF7C85532
100
AcDbEntity
  8
JISSEN
100
AcDbLine
 10
84.4060322670195
 20
142.8383405388706
 30
0.0
 11
84.4060322670195
 21
147.8383405388706
 31
0.0
  0
ARC
  5
EF7C87ED6
330
EF7C85532
100
AcDbEntity
  8
JISSEN
100
AcDbCircle
 10
99.90603226701962
 20
150.5007540037038
 30
0.0
 40
28.0
100
AcDbArc
 50
180.0
 51
202.024312837042
  0
ARC
  5
EF7C87ED7
330
EF7C85532
100
AcDbEntity
  8
JISSEN
100
AcDbCircle
 10
99.90603226701962
 20
150.5007540037038
 30
0.0
 40
26.0
100
AcDbArc
 50
180.0
 51
198.9091960083248
  0
ARC
  5
EF7C87ED8
330
EF7C85532
100
AcDbEntity
  8
JISSEN
100
AcDbCircle
 10
81.43055284414089
 20
138.7141815264805
 30
0.0
 40
0.2
100
AcDbArc
 50
205.0004483594498
 51
270.0
  0
LINE
  5
EF7C87ED9
330
EF7C85532
100
AcDbEntity
  8
ITTEN
100
AcDbLine
 10
80.40603226701961
 20
142.6463167405199
 30
0.0
 11
80.40603226701961
 21
142.6463167405199
 31
0.0
  0
ARC
  5
EF7C87EDA
330
EF7C85532
100
AcDbEntity
  8
JISSEN
100
AcDbCircle
 10
89.40603226701961
 20
142.4332846408401
 30
0.0
 40
9.0
100
AcDbArc
 50
180.0
 51
205.0004483595911
  0
LINE
  5
EF7C87EDB
330
EF7C85532
100
AcDbEntity
  8
JISSEN
100
AcDbLine
 10
59.02562523174907
 20
159.5229826349794
 30
0.0
 11
66.10280610226363
 21
164.4219956202412
 31
0.0
  0
LINE
  5
EF7C87EDC
330
EF7C85532
100
AcDbEntity
  8
JISSEN
100
AcDbLine
 10
76.40603226701961
 20
168.0007540037039
 30
0.0
 11
76.40603226701961
 21
160.143611146561
 31
0.0
  0
ARC
  5
EF7C87EDD
330
EF7C85532
100
AcDbEntity
  8
JISSEN
100
AcDbCircle
 10
86.84533731469542
 20
149.3468020662754
 30
0.0
 40
11.0
100
AcDbArc
 50
128.1196922672755
 51
132.5552199034004
  0
LINE
  5
EF7C87EDE
330
EF7C85532
100
AcDbEntity
  8
JISSEN
100
AcDbLine
 10
84.40603226701961
 20
158.0007540037039
 30
0.0
 11
84.40603226701961
 21
156.6883405388715
 31
0.0
  0
LINE
  5
EF7C87EDF
330
EF7C85532
100
AcDbEntity
  8
JISSEN
100
AcDbLine
 10
81.24251791269371
 20
168.3885921218126
 30
0.0
 11
82.40603226701962
 21
168.0007540037038
 31
0.0
  0
ARC
  5
EF7C87EE0
330
EF7C85532
100
AcDbEntity
  8
JISSEN
100
AcDbCircle
 10
99.11727905054199
 20
149.8990962808592
 30
0.0
 40
10.80551655320168
100
AcDbArc
 50
3.191914576125952
 51
28.34285358349005
  0
ARC
  5
EF7C87EE1
330
EF7C85532
100
AcDbEntity
  8
JISSEN
100
AcDbCircle
 10
96.90603226701961
 20
150.5007540037038
 30
0.0
 40
15.0
100
AcDbArc
 50
0.0
 51
30.00000000000005
  0
LINE
  5
EF7C87EE2
330
EF7C85532
100
AcDbEntity
  8
JISSEN
100
AcDbLine
 10
93.9060322670195
 20
151.7383405388707
 30
0.0
 11
93.9060322670195
 21
154.5516777454885
 31
0.0
  0
LINE
  5
EF7C87EE3
330
EF7C85532
100
AcDbEntity
  8
JISSEN
100
AcDbLine
 10
89.90603226701949
 20
151.7383405388707
 30
0.0
 11
89.90603226701949
 21
154.5516777454885
 31
0.0
  0
ARC
  5
EF7C87EE4
330
EF7C85532
100
AcDbEntity
  8
JISSEN
100
AcDbCircle
 10
85.90603226701949
 20
147.8383405388706
 30
0.0
 40
13.5
100
AcDbArc
 50
0.0
 51
40.9617885523535
  0
ARC
  5
EF7C87EE5
330
EF7C85532
100
AcDbEntity
  8
JISSEN
100
AcDbCircle
 10
85.90603226701949
 20
142.8383405388706
 30
0.0
 40
13.5
100
AcDbArc
 50
317.7945535962682
 51
0.0
  0
LINE
  5
EF7C87EE6
330
EF7C85532
100
AcDbEntity
  8
JISSEN
100
AcDbLine
 10
98.75066567634082
 20
138.5141815264805
 30
0.0
 11
102.4374137768573
 21
138.5141815264805
 31
0.0
  0
ARC
  5
EF7C87EE7
330
EF7C85532
100
AcDbEntity
  8
JISSEN
100
AcDbCircle
 10
94.90603226701949
 20
144.0883405388706
 30
0.0
 40
1.5
100
AcDbArc
 50
270.0
 51
0.0
  0
LINE
  5
EF7C87EE8
330
EF7C85532
100
AcDbEntity
  8
JISSEN
100
AcDbLine
 10
94.40603226701961
 20
142.977609517851
 30
0.0
 11
94.40603226701961
 21
146.6463167405199
 31
0.0
  0
ARC
  5
EF7C87EE9
330
EF7C85532
100
AcDbEntity
  8
JISSEN
100
AcDbCircle
 10
88.9060322670195
 20
144.0883405388706
 30
0.0
 40
1.5
100
AcDbArc
 50
180.0
 51
270.0
  0
LINE
  5
EF7C87EEA
330
EF7C85532
100
AcDbEntity
  8
JISSEN
100
AcDbLine
 10
89.40603226701961
 20
142.977609517851
 30
0.0
 11
89.40603226701961
 21
146.6463167405199
 31
0.0
  0
LINE
  5
EF7C87EEB
330
EF7C85532
100
AcDbEntity
  8
JISSEN
100
AcDbLine
 10
94.40603226701961
 20
137.3849620743441
 30
0.0
 11
93.4466707223367
 21
150.816023699905
 31
0.0
  0
LINE
  5
EF7C87EEC
330
EF7C85532
100
AcDbEntity
  8
JISSEN
100
AcDbLine
 10
90.36539381170252
 20
150.816023699905
 30
0.0
 11
89.40603226701961
 21
137.3849620743441
 31
0.0
  0
ARC
  5
EF7C87EED
330
EF7C85532
100
AcDbEntity
  8
JISSEN
100
AcDbCircle
 10
87.90603226701961
 20
137.3849620743441
 30
0.0
 40
1.5
100
AcDbArc
 50
284.2500326978044
 51
0.0
  0
LINE
  5
EF7C87EEE
330
EF7C85532
100
AcDbEntity
  8
JISSEN
100
AcDbLine
 10
85.25603226701964
 20
137.1141815264806
 30
0.0
 11
85.25603226701964
 21
133.8710268925415
 31
0.0
  0
LINE
  5
EF7C87EEF
330
EF7C85532
100
AcDbEntity
  8
JISSEN
100
AcDbLine
 10
85.40603226701961
 20
136.9905490133787
 30
0.0
 11
85.40603226701961
 21
133.8710268925415
 31
0.0
  0
LINE
  5
EF7C87EF0
330
EF7C85532
100
AcDbEntity
  8
JISSEN
100
AcDbLine
 10
85.40603226701961
 20
137.5262889255979
 30
0.0
 11
85.40603226701961
 21
133.8710268925415
 31
0.0
  0
LINE
  5
EF7C87EF1
330
EF7C85532
100
AcDbEntity
  8
JISSEN
100
AcDbLine
 10
85.40603226701961
 20
137.7393210252777
 30
0.0
 11
85.40603226701961
 21
134.5840589922214
 31
0.0
  0
LINE
  5
EF7C87EF2
330
EF7C85532
100
AcDbEntity
  8
JISSEN
100
AcDbLine
 10
88.16165559545055
 20
134.3784808962334
 30
0.0
 11
88.27526303625035
 21
135.931115920498
 31
0.0
  0
ARC
  5
EF7C87EF3
330
EF7C85532
100
AcDbEntity
  8
JISSEN
100
AcDbCircle
 10
89.40603226701961
 20
142.6463167405199
 30
0.0
 40
9.0
100
AcDbArc
 50
243.6122000387569
 51
260.4059317731392
  0
LINE
  5
EF7C87EF4
330
EF7C85532
100
AcDbEntity
  8
JISSEN
100
AcDbLine
 10
85.40603226701961
 20
133.8710268925415
 30
0.0
 11
85.25603226701964
 21
133.8710268925415
 31
0.0
  0
LINE
  5
EF7C87EF5
330
EF7C85532
100
AcDbEntity
  8
JISSEN
100
AcDbLine
 10
86.83529864717087
 20
135.1124841385514
 30
0.0
 11
88.21536314976645
 21
135.1124841385514
 31
0.0
  0
ARC
  5
EF7C87EF6
330
EF7C85532
100
AcDbEntity
  8
JISSEN
100
AcDbCircle
 10
87.67626772889178
 20
134.4139970815914
 30
0.0
 40
0.4866855046380603
100
AcDbArc
 50
298.1707402297517
 51
355.8150838748825
  0
LINE
  5
EF7C87EF7
330
EF7C85532
100
AcDbEntity
  8
JISSEN
100
AcDbLine
 10
85.40603226701961
 20
137.1141815264806
 30
0.0
 11
85.25603226701964
 21
137.1141815264806
 31
0.0
  0
LINE
  5
EF7C87EF8
330
EF7C85532
100
AcDbEntity
  8
JISSEN
100
AcDbLine
 10
88.9060322670195
 20
142.5883405388707
 30
0.0
 11
89.28103226701949
 21
142.5883405388707
 31
0.0
  0
ARC
  5
EF7C87EF9
330
EF7C85532
100
AcDbEntity
  8
JISSEN
100
AcDbCircle
 10
91.13409959419806
 20
167.0837282959563
 30
0.0
 40
24.90306398983018
100
AcDbArc
 50
265.7326069421959
 51
266.8169451117968
  0
ARC
  5
EF7C87EFA
330
EF7C85532
100
AcDbEntity
  8
JISSEN
100
AcDbCircle
 10
89.28103226701949
 20
142.8883405388706
 30
0.0
 40
1.199999999999999
100
AcDbArc
 50
270.0
 51
291.4232972478955
  0
ARC
  5
EF7C87EFB
330
EF7C85532
100
AcDbEntity
  8
JISSEN
100
AcDbCircle
 10
91.90603226701961
 20
123.7914174679072
 30
0.0
 40
19.34838405080195
100
AcDbArc
 50
96.22224717316008
 51
97.42392958962639
  0
ARC
  5
EF7C87EFC
330
EF7C85532
100
AcDbEntity
  8
JISSEN
100
AcDbCircle
 10
91.9060322670195
 20
162.1638015677948
 30
0.0
 40
19.34838405080195
100
AcDbArc
 50
262.5760704103736
 51
263.7573957713741
  0
LINE
  5
EF7C87EFD
330
EF7C85532
100
AcDbEntity
  8
JISSEN
100
AcDbLine
 10
89.28103226701949
 20
142.5883405388707
 30
0.0
 11
89.28103226701949
 21
138.0883405388706
 31
0.0
  0
LINE
  5
EF7C87EFE
330
EF7C85532
100
AcDbEntity
  8
JISSEN
100
AcDbLine
 10
98.46193435397863
 20
137.8785701023791
 30
0.0
 11
98.46193435397863
 21
133.8710268925415
 31
0.0
  0
ARC
  5
EF7C87EFF
330
EF7C85532
100
AcDbEntity
  8
JISSEN
100
AcDbCircle
 10
95.90603226701961
 20
137.3849620743441
 30
0.0
 40
1.5
100
AcDbArc
 50
180.0
 51
255.7499673021973
  0
LINE
  5
EF7C87F00
330
EF7C85532
100
AcDbEntity
  8
JISSEN
100
AcDbLine
 10
95.53680149778887
 20
135.9311159204979
 30
0.0
 11
95.65040893858867
 21
134.3784808962334
 31
0.0
  0
LINE
  5
EF7C87F01
330
EF7C85532
100
AcDbEntity
  8
JISSEN
100
AcDbLine
 10
98.46193435397863
 20
136.9905490133787
 30
0.0
 11
98.46193435397863
 21
133.8710268925415
 31
0.0
  0
LINE
  5
EF7C87F02
330
EF7C85532
100
AcDbEntity
  8
JISSEN
100
AcDbLine
 10
98.61193435397872
 20
137.1141815264806
 30
0.0
 11
98.61193435397872
 21
133.8710268925415
 31
0.0
  0
ARC
  5
EF7C87F03
330
EF7C85532
100
AcDbEntity
  8
JISSEN
100
AcDbCircle
 10
94.40603226701961
 20
142.6463167405199
 30
0.0
 40
9.0
100
AcDbArc
 50
279.5940682268607
 51
296.7857663789681
  0
LINE
  5
EF7C87F04
330
EF7C85532
100
AcDbEntity
  8
JISSEN
100
AcDbLine
 10
95.59670138427277
 20
135.1124841385514
 30
0.0
 11
96.97676588686825
 21
135.1124841385514
 31
0.0
  0
ARC
  5
EF7C87F05
330
EF7C85532
100
AcDbEntity
  8
JISSEN
100
AcDbCircle
 10
96.13579680514744
 20
134.4139970815914
 30
0.0
 40
0.4866855046380603
100
AcDbArc
 50
184.1849161251174
 51
241.8292597702482
  0
LINE
  5
EF7C87F06
330
EF7C85532
100
AcDbEntity
  8
JISSEN
100
AcDbLine
 10
98.46193435397863
 20
133.8710268925415
 30
0.0
 11
98.61193435397872
 21
133.8710268925415
 31
0.0
  0
LINE
  5
EF7C87F07
330
EF7C85532
100
AcDbEntity
  8
JISSEN
100
AcDbLine
 10
98.46193435397863
 20
137.1141815264806
 30
0.0
 11
98.61193435397872
 21
137.1141815264806
 31
0.0
  0
ARC
  5
EF7C87F08
330
EF7C85532
100
AcDbEntity
  8
JISSEN
100
AcDbCircle
 10
92.67796493984354
 20
167.0837282959559
 30
0.0
 40
24.90306398982964
100
AcDbArc
 50
273.1830548881965
 51
274.2673930577975
  0
ARC
  5
EF7C87F09
330
EF7C85532
100
AcDbEntity
  8
JISSEN
100
AcDbCircle
 10
94.5310322670195
 20
142.8883405388706
 30
0.0
 40
1.199999999999999
100
AcDbArc
 50
248.576702752115
 51
270.0
  0
ARC
  5
EF7C87F0A
330
EF7C85532
100
AcDbEntity
  8
JISSEN
100
AcDbCircle
 10
91.90603226701961
 20
123.7914174679072
 30
0.0
 40
19.34838405080195
100
AcDbArc
 50
82.5760704103736
 51
83.77775282683991
  0
ARC
  5
EF7C87F0B
330
EF7C85532
100
AcDbEntity
  8
JISSEN
100
AcDbCircle
 10
91.9060322670195
 20
162.1638015677948
 30
0.0
 40
19.34838405080195
100
AcDbArc
 50
276.2426042286266
 51
277.4239295896272
  0
LINE
  5
EF7C87F0C
330
EF7C85532
100
AcDbEntity
  8
JISSEN
100
AcDbLine
 10
94.90603226701949
 20
142.5883405388707
 30
0.0
 11
94.5310322670195
 21
142.5883405388707
 31
0.0
  0
LINE
  5
EF7C87F0D
330
EF7C85532
100
AcDbEntity
  8
JISSEN
100
AcDbLine
 10
94.5310322670195
 20
142.5883405388707
 30
0.0
 11
94.5310322670195
 21
138.0883405388706
 31
0.0
  0
LINE
  5
EF7C87F0E
330
EF7C85532
100
AcDbEntity
  8
JISSEN
100
AcDbLine
 10
93.65603226701962
 20
151.599194840069
 30
0.0
 11
90.1560322670196
 21
151.599194840069
 31
0.0
  0
LINE
  5
EF7C87F0F
330
EF7C85532
100
AcDbEntity
  8
JISSEN
100
AcDbLine
 10
93.65603226701962
 20
150.816023699905
 30
0.0
 11
90.1560322670196
 21
150.816023699905
 31
0.0
  0
LINE
  5
EF7C87F10
330
EF7C85532
100
AcDbEntity
  8
JISSEN
100
AcDbLine
 10
90.1560322670196
 20
153.328394201501
 30
0.0
 11
93.65603226701962
 21
153.328394201501
 31
0.0
  0
ARC
  5
EF7C87F11
330
EF7C85532
100
AcDbEntity
  8
JISSEN
100
AcDbCircle
 10
97.9060322670195
 20
147.8383405388706
 30
0.0
 40
10.5
100
AcDbArc
 50
165.8509954910656
 51
180.0
  0
LINE
  5
EF7C87F12
330
EF7C85532
100
AcDbEntity
  8
JISSEN
100
AcDbLine
 10
88.9060322670196
 20
150.0114519801718
 30
0.0
 11
88.9060322670196
 21
147.0534956561671
 31
0.0
  0
LINE
  5
EF7C87F13
330
EF7C85532
100
AcDbEntity
  8
JISSEN
100
AcDbLine
 10
87.40603226701949
 20
146.8216284395994
 30
0.0
 11
90.09692791770095
 21
147.0575011838826
 31
0.0
  0
LINE
  5
EF7C87F14
330
EF7C85532
100
AcDbEntity
  8
JISSEN
100
AcDbLine
 10
87.40603226701949
 20
146.4710050414405
 30
0.0
 11
89.40603226701961
 21
146.295693342361
 31
0.0
  0
LINE
  5
EF7C87F15
330
EF7C85532
100
AcDbEntity
  8
JISSEN
100
AcDbLine
 10
87.40603226701949
 20
146.9220118818575
 30
0.0
 11
90.10414334029059
 21
147.1585171001376
 31
0.0
  0
LINE
  5
EF7C87F16
330
EF7C85532
100
AcDbEntity
  8
JISSEN
100
AcDbLine
 10
87.40603226701949
 20
144.0883405388706
 30
0.0
 11
87.40603226701949
 21
147.8383405388706
 31
0.0
  0
ARC
  5
EF7C87F17
330
EF7C85532
100
AcDbEntity
  8
JISSEN
100
AcDbCircle
 10
91.90603226701961
 20
127.4601246905761
 30
0.0
 40
19.34838405080195
100
AcDbArc
 50
95.43647494168721
 51
97.42392958962639
  0
ARC
  5
EF7C87F18
330
EF7C85532
100
AcDbEntity
  8
JISSEN
100
AcDbCircle
 10
89.17906257531099
 20
150.0383405388706
 30
0.0
 40
1.5
100
AcDbArc
 50
90.0
 51
165.8509954910656
  0
LINE
  5
EF7C87F19
330
EF7C85532
100
AcDbEntity
  8
JISSEN
100
AcDbLine
 10
90.1560322670196
 20
150.816023699905
 30
0.0
 11
90.1560322670196
 21
153.328394201501
 31
0.0
  0
LINE
  5
EF7C87F1A
330
EF7C85532
100
AcDbEntity
  8
JISSEN
100
AcDbLine
 10
88.64407625890095
 20
151.4396933285899
 30
0.0
 11
89.40603226701984
 21
150.9997778221918
 31
0.0
  0
ARC
  5
EF7C87F1B
330
EF7C85532
100
AcDbEntity
  8
JISSEN
100
AcDbCircle
 10
89.70016333733026
 20
150.1908344685775
 30
0.0
 40
0.6441310703106079
100
AcDbArc
 50
103.6591051852966
 51
180.0
  0
ARC
  5
EF7C87F1C
330
EF7C85532
100
AcDbEntity
  8
JISSEN
100
AcDbCircle
 10
91.90603226701961
 20
130.8970604026894
 30
0.0
 40
19.34838405080195
100
AcDbArc
 50
94.70198339894666
 51
98.91979517632428
  0
LINE
  5
EF7C87F1D
330
EF7C85532
100
AcDbEntity
  8
JISSEN
100
AcDbLine
 10
89.05603226701959
 20
150.0343921231078
 30
0.0
 11
89.05603226701959
 21
150.1908344685775
 31
0.0
  0
ARC
  5
EF7C87F1E
330
EF7C85532
100
AcDbEntity
  8
JISSEN
100
AcDbCircle
 10
90.47559591463068
 20
146.9999861955635
 30
0.0
 40
3.927849752435431
100
AcDbArc
 50
98.56261218149995
 51
103.6591051852999
  0
ARC
  5
EF7C87F1F
330
EF7C85532
100
AcDbEntity
  8
JISSEN
100
AcDbCircle
 10
91.32994212610839
 20
141.3258452818769
 30
0.0
 40
9.665948963623556
100
AcDbArc
 50
96.97567628297717
 51
98.5626121814851
  0
ARC
  5
EF7C87F20
330
EF7C85532
100
AcDbEntity
  8
JISSEN
100
AcDbCircle
 10
91.90603226701984
 20
155.3299048411139
 30
0.0
 40
5.0
100
AcDbArc
 50
239.9999999999998
 51
243.679190178391
  0
LINE
  5
EF7C87F21
330
EF7C85532
100
AcDbEntity
  8
JISSEN
100
AcDbLine
 10
89.17906257531099
 20
151.5383405388707
 30
0.0
 11
89.70603226701957
 21
151.5383405388707
 31
0.0
  0
ARC
  5
EF7C87F22
330
EF7C85532
100
AcDbEntity
  8
JISSEN
100
AcDbCircle
 10
89.70603226701957
 20
151.7383405388706
 30
0.0
 40
0.2
100
AcDbArc
 50
270.0
 51
0.0
  0
ARC
  5
EF7C87F23
330
EF7C85532
100
AcDbEntity
  8
JISSEN
100
AcDbCircle
 10
90.20603226701956
 20
152.7558737563342
 30
0.0
 40
0.3
100
AcDbArc
 50
99.59406822683764
 51
180.0
  0
LINE
  5
EF7C87F24
330
EF7C85532
100
AcDbEntity
  8
JISSEN
100
AcDbLine
 10
94.90603226701962
 20
150.0114519801718
 30
0.0
 11
94.90603226701962
 21
147.0534956561671
 31
0.0
  0
ARC
  5
EF7C87F25
330
EF7C85532
100
AcDbEntity
  8
JISSEN
100
AcDbCircle
 10
85.90603226701949
 20
147.8383405388706
 30
0.0
 40
10.5
100
AcDbArc
 50
0.0
 51
14.14900450893436
  0
LINE
  5
EF7C87F26
330
EF7C85532
100
AcDbEntity
  8
JISSEN
100
AcDbLine
 10
96.40603226701973
 20
146.8216284395994
 30
0.0
 11
93.71513661633827
 21
147.0575011838826
 31
0.0
  0
LINE
  5
EF7C87F27
330
EF7C85532
100
AcDbEntity
  8
JISSEN
100
AcDbLine
 10
96.40603226701973
 20
146.4710050414405
 30
0.0
 11
94.40603226701961
 21
146.295693342361
 31
0.0
  0
LINE
  5
EF7C87F28
330
EF7C85532
100
AcDbEntity
  8
JISSEN
100
AcDbLine
 10
96.40603226701973
 20
146.9220118818575
 30
0.0
 11
93.70792119374863
 21
147.1585171001376
 31
0.0
  0
ARC
  5
EF7C87F29
330
EF7C85532
100
AcDbEntity
  8
JISSEN
100
AcDbCircle
 10
91.90603226701961
 20
127.4601246905761
 30
0.0
 40
19.34838405080195
100
AcDbArc
 50
82.5760704103736
 51
84.56352505831278
  0
LINE
  5
EF7C87F2A
330
EF7C85532
100
AcDbEntity
  8
JISSEN
100
AcDbLine
 10
96.4060322670195
 20
144.0883405388706
 30
0.0
 11
96.4060322670195
 21
147.8383405388706
 31
0.0
  0
ARC
  5
EF7C87F2B
330
EF7C85532
100
AcDbEntity
  8
JISSEN
100
AcDbCircle
 10
94.63300195872813
 20
150.0383405388706
 30
0.0
 40
1.5
100
AcDbArc
 50
14.14900450893436
 51
90.0
  0
LINE
  5
EF7C87F2C
330
EF7C85532
100
AcDbEntity
  8
JISSEN
100
AcDbLine
 10
93.65603226701962
 20
153.328394201501
 30
0.0
 11
93.65603226701962
 21
150.816023699905
 31
0.0
  0
LINE
  5
EF7C87F2D
330
EF7C85532
100
AcDbEntity
  8
JISSEN
100
AcDbLine
 10
94.63300195872813
 20
151.5383405388707
 30
0.0
 11
94.10603226701955
 21
151.5383405388707
 31
0.0
  0
LINE
  5
EF7C87F2E
330
EF7C85532
100
AcDbEntity
  8
JISSEN
100
AcDbLine
 10
95.16798827513872
 20
151.4396933285898
 30
0.0
 11
94.40603226701984
 21
150.9997778221917
 31
0.0
  0
ARC
  5
EF7C87F2F
330
EF7C85532
100
AcDbEntity
  8
JISSEN
100
AcDbCircle
 10
93.33646861940854
 20
146.9999861955632
 30
0.0
 40
3.92784975243566
100
AcDbArc
 50
76.34089481470098
 51
81.43738781850005
  0
ARC
  5
EF7C87F30
330
EF7C85532
100
AcDbEntity
  8
JISSEN
100
AcDbCircle
 10
91.90603226701984
 20
155.3299048411139
 30
0.0
 40
5.0
100
AcDbArc
 50
296.3208098216071
 51
300.0000000000001
  0
ARC
  5
EF7C87F31
330
EF7C85532
100
AcDbEntity
  8
JISSEN
100
AcDbCircle
 10
92.482122407929
 20
141.3258452818774
 30
0.0
 40
9.665948963623366
100
AcDbArc
 50
81.43738781850421
 51
83.02432371701295
  0
ARC
  5
EF7C87F32
330
EF7C85532
100
AcDbEntity
  8
JISSEN
100
AcDbCircle
 10
94.10603226701955
 20
151.7383405388706
 30
0.0
 40
0.2
100
AcDbArc
 50
180.0
 51
270.0
  0
ARC
  5
EF7C87F33
330
EF7C85532
100
AcDbEntity
  8
JISSEN
100
AcDbCircle
 10
91.90603226701961
 20
130.8970604026894
 30
0.0
 40
19.34838405080195
100
AcDbArc
 50
81.08020482367573
 51
85.29801660105254
  0
LINE
  5
EF7C87F34
330
EF7C85532
100
AcDbEntity
  8
JISSEN
100
AcDbLine
 10
94.75603226701963
 20
150.1908344685775
 30
0.0
 11
94.75603226701963
 21
150.0343921231078
 31
0.0
  0
ARC
  5
EF7C87F35
330
EF7C85532
100
AcDbEntity
  8
JISSEN
100
AcDbCircle
 10
94.11190119670896
 20
150.1908344685775
 30
0.0
 40
0.6441310703106079
100
AcDbArc
 50
0.0
 51
76.34089481470336
  0
ARC
  5
EF7C87F36
330
EF7C85532
100
AcDbEntity
  8
JISSEN
100
AcDbCircle
 10
93.60603226701954
 20
152.7558737563342
 30
0.0
 40
0.3
100
AcDbArc
 50
0.0
 51
80.40593177313425
  0
LINE
  5
EF7C87F37
330
EF7C85532
100
AcDbEntity
  8
JISSEN
100
AcDbLine
 10
99.4060322670195
 20
142.8383405388706
 30
0.0
 11
99.4060322670195
 21
147.8383405388706
 31
0.0
  0
ARC
  5
EF7C87F38
330
EF7C85532
100
AcDbEntity
  8
JISSEN
100
AcDbCircle
 10
99.46193435397862
 20
142.4332846408401
 30
0.0
 40
4.0
100
AcDbArc
 50
0.0
 51
90.0
  0
ARC
  5
EF7C87F39
330
EF7C85532
100
AcDbEntity
  8
JISSEN
100
AcDbCircle
 10
83.9060322670196
 20
150.5007540037038
 30
0.0
 40
28.0
100
AcDbArc
 50
337.9756871629579
 51
0.0
  0
ARC
  5
EF7C87F3A
330
EF7C85532
100
AcDbEntity
  8
JISSEN
100
AcDbCircle
 10
83.9060322670196
 20
150.5007540037038
 30
0.0
 40
26.0
100
AcDbArc
 50
341.0908039916751
 51
0.0
  0
ARC
  5
EF7C87F3B
330
EF7C85532
100
AcDbEntity
  8
JISSEN
100
AcDbCircle
 10
102.4374137768573
 20
138.7141815264805
 30
0.0
 40
0.2
100
AcDbArc
 50
270.0
 51
334.9995516405538
  0
ARC
  5
EF7C87F3C
330
EF7C85532
100
AcDbEntity
  8
JISSEN
100
AcDbCircle
 10
94.46193435397862
 20
142.4332846408401
 30
0.0
 40
9.0
100
AcDbArc
 50
334.9995516404125
 51
0.0
  0
LINE
  5
EF7C87F3D
330
EF7C85532
100
AcDbEntity
  8
JISSEN
100
AcDbLine
 10
101.4060322670196
 20
168.0007540037038
 30
0.0
 11
91.90603226701961
 21
168.0007540037038
 31
0.0
  0
LINE
  5
EF7C87F3E
330
EF7C85532
100
AcDbEntity
  8
JISSEN
100
AcDbLine
 10
102.5695466213454
 20
168.3885921218126
 30
0.0
 11
91.90603226701961
 21
168.3885921218126
 31
0.0
  0
LWPOLYLINE
  5
EF7C87F3F
330
EF7C85532
100
AcDbEntity
  8
JISSEN
100
AcDbPolyline
 90
        2
 70
     0
 43
0.0
 10
91.90603226701961
 20
158.0007540037039
 10
104.4060322670196
 20
158.0007540037039
 42
0.493145426031304
  0
LINE
  5
EF7C87F40
330
EF7C85532
100
AcDbEntity
  8
JISSEN
100
AcDbLine
 10
96.86246916318436
 20
155.72544967596
 30
0.0
 11
86.94959537085475
 21
155.72544967596
 31
0.0
  0
ARC
  5
EF7C87F41
330
EF7C85532
100
AcDbEntity
  8
JISSEN
100
AcDbCircle
 10
91.90603226701961
 20
166.9974753304354
 30
0.0
 40
10.93848722979607
100
AcDbArc
 50
255.6397940472943
 51
284.3602059527056
  0
LINE
  5
EF7C87F42
330
EF7C85532
100
AcDbEntity
  8
JISSEN
100
AcDbLine
 10
107.4060322670196
 20
168.0007540037038
 30
0.0
 11
107.4060322670195
 21
160.143611146561
 31
0.0
  0
LINE
  5
EF7C87F43
330
EF7C85532
100
AcDbEntity
  8
JISSEN
100
AcDbLine
 10
99.40603226701961
 20
158.0007540037039
 30
0.0
 11
99.40603226701961
 21
156.6883405388715
 31
0.0
  0
ARC
  5
EF7C87F44
330
EF7C85532
100
AcDbEntity
  8
JISSEN
100
AcDbCircle
 10
96.9667272193438
 20
149.3468020662754
 30
0.0
 40
11.0
100
AcDbArc
 50
47.44478009659957
 51
51.88030773272442
  0
LINE
  5
EF7C87F45
330
EF7C85532
100
AcDbEntity
  8
JISSEN
100
AcDbLine
 10
102.5695466213454
 20
168.3885921218126
 30
0.0
 11
101.4060322670196
 21
168.0007540037038
 31
0.0
  0
LINE
  5
EF7C87F46
330
EF7C85532
100
AcDbEntity
  8
SUNPOU
100
AcDbLine
 10
119.8745839330394
 20
106.9588881713881
 30
0.0
 11
129.6599510902687
 21
86.83181590054408
 31
0.0
  0
TEXT
  5
EF7C87F47
330
EF7C85532
100
AcDbEntity
  8
SUNPOU
100
AcDbText
 10
139.3407316657997
 20
7.849423898685245
 30
0.0
 40
3.0
  1
DQP   ガード取付状態
  7
K
100
AcDbText
  0
LINE
  5
EF7C87F48
330
EF7C85532
100
AcDbEntity
  8
TEXT
100
AcDbLine
 10
150.3615612077748
 20
10.84292501940535
 30
0.0
 11
150.3615612077748
 21
7.842925019405356
 31
0.0
  0
LINE
  5
EF7C87F49
330
EF7C85532
100
AcDbEntity
  8
TEXT
100
AcDbLine
 10
149.4615612077747
 20
10.84292501940535
 30
0.0
 11
149.4615612077747
 21
7.842925019405356
 31
0.0
  0
TEXT
  5
EF7C87F4A
330
EF7C85532
100
AcDbEntity
  8
SUNPOU
100
AcDbText
 10
139.3407316657997
 20
2.849423898685245
 30
0.0
 40
3.0
  1
尺度　1/1
  7
K
100
AcDbText
  0
LINE
  5
EF7C87F4B
330
EF7C85532
100
AcDbEntity
  8
TEXT
100
AcDbLine
 10
149.0115612077748
 20
7.842925019405356
 30
0.0
 11
150.8115612077747
 21
7.842925019405356
 31
0.0
  0
CIRCLE
  5
EF7C87F4C
330
EF7C85532
100
AcDbEntity
  8
SUNPOU
100
AcDbCircle
 10
132.2834052206568
 20
81.43575359310636
 30
0.0
 40
6.0
  0
TEXT
  5
EF7C87F4D
330
EF7C85532
100
AcDbEntity
  8
SUNPOU
100
AcDbText
 10
130.1405480777996
 20
79.18575359310636
 30
0.0
 40
4.5
  1
2
  7
K
 72
     4
 11
132.2834052206568
 21
81.43575359310636
 31
0.0
100
AcDbText
  0
LINE
  5
EF7C87F4E
330
EF7C85532
100
AcDbEntity
  8
TEXT
100
AcDbLine
 10
149.0115612077748
 20
10.84292501940535
 30
0.0
 11
150.8115612077747
 21
10.84292501940535
 31
0.0
  0
LINE
  5
EF7C87F4F
330
EF7C85532
100
AcDbEntity
  8
JISSEN
100
AcDbLine
 10
121.9060322670196
 20
149.5064387597449
 30
0.0
 11
121.9060322670196
 21
132.0007540037039
 31
0.0
  0
LINE
  5
EF7C87F50
330
EF7C85532
100
AcDbEntity
  8
JISSEN
100
AcDbLine
 10
126.9060322670196
 20
153.3613943726285
 30
0.0
 11
126.9060322670196
 21
128.0007540037038
 31
0.0
  0
INSERT
  5
EF7C87F51
330
EF7C85532
100
AcDbEntity
  8
SUNPOU
100
AcDbBlockReference
  2
ARROW
 10
119.8745839330395
 20
106.9588881713879
 30
0.0
 41
-1.500000000000002
 42
1.5
 43
1.5
 50
295.9280644736465
  0
LWPOLYLINE
  5
EF7C87F52
330
EF7C85532
100
AcDbEntity
  8
JISSEN
100
AcDbPolyline
 90
        6
 70
     1
 43
0.0
 10
119.8292373477764
 20
151.8366523885661
 10
118.0024424285332
 20
155.0007540037038
 10
119.8292373477764
 20
158.1648556188416
 10
123.4828271862625
 20
158.1648556188417
 10
125.3096221055057
 20
155.0007540037038
 10
123.4828271862625
 20
151.8366523885661
  0
LWPOLYLINE
  5
EF7C87F53
330
EF7C85532
100
AcDbEntity
  8
JISSEN
100
AcDbPolyline
 90
        6
 70
     1
 43
0.0
 10
119.6560322670195
 20
151.5366523885661
 10
117.6560322670195
 20
155.0007540037038
 10
119.6560322670195
 20
158.4648556188416
 10
123.6560322670195
 20
158.4648556188416
 10
125.6560322670194
 20
155.0007540037038
 10
123.6560322670195
 20
151.5366523885661
  0
CIRCLE
  5
EF7C87F54
330
EF7C85532
100
AcDbEntity
  8
JISSEN
100
AcDbCircle
 10
121.6560322670195
 20
155.0007540037038
 30
0.0
 40
2.0
  0
ARC
  5
EF7C87F55
330
EF7C85532
100
AcDbEntity
  8
JISSEN
100
AcDbCircle
 10
121.6560322670195
 20
155.0007540037038
 30
0.0
 40
5.5
100
AcDbArc
 50
146.9442688491449
 51
119.5045238972967
  0
LINE
  5
EF7C87F56
330
EF7C85532
100
AcDbEntity
  8
JISSEN
100
AcDbLine
 10
124.7864393022901
 20
159.5229826349794
 30
0.0
 11
117.7092584317754
 21
164.4219956202412
 31
0.0
  0
TEXT
  5
EF7C87F57
330
EF7C85532
100
AcDbEntity
  8
TEXT
100
AcDbText
 10
103.7585707045714
 20
272.642857142857
 30
0.0
 40
3.0
  1
DQP   型ヘッド
 41
0.9
  7
K
 72
     4
 11
116.4999992759999
 21
273.9999999999999
 31
0.0
100
AcDbText
  0
LINE
  5
EF7C87F58
330
EF7C85532
100
AcDbEntity
  8
TEXT
100
AcDbLine
 10
112.9166790277616
 20
275.6422245102613
 30
0.0
 11
114.7166790277615
 21
275.6422245102613
 31
0.0
  0
LINE
  5
EF7C87F59
330
EF7C85532
100
AcDbEntity
  8
TEXT
100
AcDbLine
 10
112.9166790277616
 20
272.6422245102613
 30
0.0
 11
114.7166790277615
 21
272.6422245102613
 31
0.0
  0
TEXT
  5
EF7C87F5A
330
EF7C85532
100
AcDbEntity
  8
TEXT
100
AcDbText
 10
107.8999992759999
 20
278.4999999999999
 30
0.0
 40
3.0
  1
名      称
  7
K
 72
     4
 11
116.4999992759999
 21
279.9999999999999
 31
0.0
100
AcDbText
  0
TEXT
  5
EF7C87F5B
330
EF7C85532
100
AcDbEntity
  8
TEXT
100
AcDbText
 10
106.6714278474285
 20
266.7857142857142
 30
0.0
 40
3.0
  1
ガード S,D
  7
K
 72
     4
 11
116.4999992759999
 21
267.9999999999999
 31
0.0
100
AcDbText
  0
LINE
  5
EF7C87F5C
330
EF7C85532
100
AcDbEntity
  8
JISSEN
100
AcDbLine
 10
91.49999927599997
 20
276.9999999999999
 30
0.0
 11
180.9999992759999
 21
276.9999999999999
 31
0.0
  0
LINE
  5
EF7C87F5D
330
EF7C85532
100
AcDbEntity
  8
JISSEN
100
AcDbLine
 10
91.49999927599997
 20
270.9999999999999
 30
0.0
 11
180.9999992759999
 21
270.9999999999999
 31
0.0
  0
LINE
  5
EF7C87F5E
330
EF7C85532
100
AcDbEntity
  8
JISSEN
100
AcDbLine
 10
91.49999927599997
 20
264.9999999999999
 30
0.0
 11
180.9999992759999
 21
264.9999999999999
 31
0.0
  0
LWPOLYLINE
  5
EF7C87F5F
330
EF7C85532
100
AcDbEntity
  8
NITEN
100
AcDbPolyline
 90
        5
 70
     0
 43
0.0
 10
108.9060322670196
 20
212.6113029094276
 10
108.9060322670196
 20
233.4490205605735
 42
-0.5882352941176475
 10
91.90603226701961
 20
233.4490205605735
 42
0.5882352941176476
 10
74.90603226701961
 20
233.4490205605732
 10
74.90603226701961
 20
212.6113029094276
  0
LINE
  5
EF7C87F60
330
EF7C85532
100
AcDbEntity
  8
JISSEN
100
AcDbLine
 10
102.1840864949318
 20
180.7226997757916
 30
0.0
 11
81.6279780391074
 21
180.7226997757916
 31
0.0
  0
LINE
  5
EF7C87F61
330
EF7C85532
100
AcDbEntity
  8
JISSEN
100
AcDbLine
 10
83.40603226701961
 20
182.5007540037038
 30
0.0
 11
91.90603226701961
 21
182.5007540037038
 31
0.0
  0
LINE
  5
EF7C87F62
330
EF7C85532
100
AcDbEntity
  8
JISSEN
100
AcDbLine
 10
83.40603226701961
 20
182.5007540037038
 30
0.0
 11
81.6279780391074
 21
180.7226997757916
 31
0.0
  0
LINE
  5
EF7C87F63
330
EF7C85532
100
AcDbEntity
  8
JISSEN
100
AcDbLine
 10
100.4060322670196
 20
182.5007540037038
 30
0.0
 11
91.90603226701961
 21
182.5007540037038
 31
0.0
  0
LINE
  5
EF7C87F64
330
EF7C85532
100
AcDbEntity
  8
JISSEN
100
AcDbLine
 10
100.4060322670196
 20
182.5007540037038
 30
0.0
 11
102.1840864949318
 21
180.7226997757916
 31
0.0
  0
LWPOLYLINE
  5
EF7C87F65
330
EF7C85532
100
AcDbEntity
  8
NITEN
100
AcDbPolyline
 90
        2
 70
     0
 43
0.0
 10
108.9060322670197
 20
233.4490205605735
 42
0.5882352941176294
 10
91.90603226701961
 20
233.4490205605737
 42
0.5882352941176294
  0
TEXT
  5
EF7C87F66
330
EF7C85532
100
AcDbEntity
  8
TEXT
100
AcDbText
 10
95.28571356171427
 20
272.4999999999999
 30
0.0
 40
3.0
  1
1
  7
K
 72
     4
 11
96.49999927599999
 21
273.9999999999999
 31
0.0
100
AcDbText
  0
LINE
  5
EF7C87F67
330
EF7C85532
100
AcDbEntity
  8
JISSEN
100
AcDbLine
 10
91.49999927599997
 20
264.9999999999999
 30
0.0
 11
91.49999927599997
 21
282.9999999999999
 31
0.0
  0
LINE
  5
EF7C87F68
330
EF7C85532
100
AcDbEntity
  8
JISSEN
100
AcDbLine
 10
101.4999992759999
 20
282.9999999999999
 30
0.0
 11
101.4999992759999
 21
264.9999999999999
 31
0.0
  0
TEXT
  5
EF7C87F69
330
EF7C85532
100
AcDbEntity
  8
TEXT
100
AcDbText
 10
95.38307168153433
 20
266.4999999999999
 30
0.0
 40
3.0
  1
2
  7
K
 72
     4
 11
96.81164311010576
 21
267.9999999999999
 31
0.0
100
AcDbText
  0
TEXT
  5
EF7C87F6A
330
EF7C85532
100
AcDbEntity
  8
TEXT
100
AcDbText
 10
93.29999927599997
 20
278.4999999999999
 30
0.0
 40
3.0
  1
番号
  7
K
 72
     4
 11
96.49999927599999
 21
279.9999999999999
 31
0.0
100
AcDbText
  0
TEXT
  5
EF7C87F6B
330
EF7C85532
100
AcDbEntity
  8
TEXT
100
AcDbText
 10
165.6999992759999
 20
278.4999999999999
 30
0.0
 40
3.0
  1
備    考
  7
K
 72
     4
 11
172.4999992759999
 21
279.9999999999999
 31
0.0
100
AcDbText
  0
TEXT
  5
EF7C87F6C
330
EF7C85532
100
AcDbEntity
  8
TEXT
100
AcDbText
 10
156.6795477624092
 20
272.4999999999999
 30
0.0
 40
3.0
  1
1
  7
K
 72
     4
 11
157.8938334766949
 21
273.9999999999999
 31
0.0
100
AcDbText
  0
LINE
  5
EF7C87F6D
330
EF7C85532
100
AcDbEntity
  8
JISSEN
100
AcDbLine
 10
152.4999992759999
 20
264.9999999999999
 30
0.0
 11
152.4999992759999
 21
282.9999999999999
 31
0.0
  0
LINE
  5
EF7C87F6E
330
EF7C85532
100
AcDbEntity
  8
JISSEN
100
AcDbLine
 10
163.4999992759999
 20
282.9999999999999
 30
0.0
 11
163.4999992759999
 21
264.9999999999999
 31
0.0
  0
LINE
  5
EF7C87F6F
330
EF7C85532
100
AcDbEntity
  8
TEXT
100
AcDbLine
 10
113.3666790277615
 20
275.6422245102613
 30
0.0
 11
113.3666790277615
 21
272.6422245102613
 31
0.0
  0
LINE
  5
EF7C87F70
330
EF7C85532
100
AcDbEntity
  8
TEXT
100
AcDbLine
 10
114.2666790277615
 20
275.6422245102613
 30
0.0
 11
114.2666790277615
 21
272.6422245102613
 31
0.0
  0
LINE
  5
EF7C87F71
330
EF7C85532
100
AcDbEntity
  8
JISSEN
100
AcDbLine
 10
131.4999992759999
 20
282.9999999999999
 30
0.0
 11
131.4999992759999
 21
264.9999999999999
 31
0.0
  0
TEXT
  5
EF7C87F72
330
EF7C85532
100
AcDbEntity
  8
TEXT
100
AcDbText
 10
136.8249992759999
 20
274.2999999999999
 30
0.0
 40
3.0
  1
%%u      
  7
K
 72
     4
 11
141.9999992759999
 21
273.9999999999999
 31
0.0
100
AcDbText
  0
TEXT
  5
EF7C87F73
330
EF7C85532
100
AcDbEntity
  8
TEXT
100
AcDbText
 10
137.5714278474285
 20
266.4999999999999
 30
0.0
 40
3.0
  1
ZDC
  7
K
 72
     4
 11
141.9999992759999
 21
267.9999999999999
 31
0.0
100
AcDbText
  0
TEXT
  5
EF7C87F74
330
EF7C85532
100
AcDbEntity
  8
TEXT
100
AcDbText
 10
156.6795477624092
 20
266.580835176341
 30
0.0
 40
3.0
  1
1
  7
K
 72
     4
 11
157.8938334766949
 21
268.080835176341
 31
0.0
100
AcDbText
  0
TEXT
  5
EF7C87F75
330
EF7C85532
100
AcDbEntity
  8
TEXT
100
AcDbText
 10
135.1999992759999
 20
278.4999999999999
 30
0.0
 40
3.0
  1
材    質
  7
K
 72
     4
 11
141.9999992759999
 21
279.9999999999999
 31
0.0
100
AcDbText
  0
TEXT
  5
EF7C87F76
330
EF7C85532
100
AcDbEntity
  8
TEXT
100
AcDbText
 10
154.7999992759999
 20
278.4999999999999
 30
0.0
 40
3.0
  1
個数
  7
K
 72
     4
 11
157.9999992759999
 21
279.9999999999999
 31
0.0
100
AcDbText
  0
LINE
  5
EF7C8880B
330
EF7C85532
100
AcDbEntity
  8
JISSEN
100
AcDbLine
 10
307.9060315430196
 20
153.3613943726285
 30
0.0
 11
307.9060315430196
 21
128.0007540037038
 31
0.0
  0
LINE
  5
EF7C8880C
330
EF7C85532
100
AcDbEntity
  8
JISSEN
100
AcDbLine
 10
302.9060315430196
 20
149.5064387597449
 30
0.0
 11
302.9060315430196
 21
132.0007540037039
 31
0.0
  0
ARC
  5
EF7C8880E
330
EF7C85532
100
AcDbEntity
  8
JISSEN
100
AcDbCircle
 10
264.9060315430196
 20
150.5007540037038
 30
0.0
 40
28.0
100
AcDbArc
 50
337.9756871629579
 51
0.0
  0
ARC
  5
EF7C88815
330
EF7C85532
100
AcDbEntity
  8
JISSEN
100
AcDbCircle
 10
280.9060315430196
 20
150.5007540037038
 30
0.0
 40
28.0
100
AcDbArc
 50
180.0
 51
202.024312837042
  0
ARC
  5
EF7C88816
330
EF7C85532
100
AcDbEntity
  8
JISSEN
100
AcDbCircle
 10
280.9060315430196
 20
150.5007540037038
 30
0.0
 40
30.0
100
AcDbArc
 50
180.0
 51
215.2092056449259
  0
LWPOLYLINE
  5
EF7C88818
330
EF7C85532
100
AcDbEntity
  8
JISSEN
100
AcDbPolyline
 90
        4
 70
     1
 43
0.0
 10
285.4060315430196
 20
132.0007540037039
 10
286.9060315430196
 20
130.5007540037038
 10
286.9060315430196
 20
161.0007540037039
 10
285.4060315430196
 20
158.0007540037039
  0
LWPOLYLINE
  5
EF7C88819
330
EF7C85532
100
AcDbEntity
  8
JISSEN
100
AcDbPolyline
 90
        4
 70
     1
 43
0.0
 10
287.9060315430196
 20
130.5007540037038
 10
287.9060315430196
 20
161.0007540037039
 10
289.6560315430196
 20
158.0007540037039
 10
289.4060315430196
 20
132.0007540037039
  0
LWPOLYLINE
  5
EF7C8881A
330
EF7C85532
100
AcDbEntity
  8
JISSEN
100
AcDbPolyline
 90
        4
 70
     1
 43
0.0
 10
257.9060315430196
 20
130.5007540037038
 10
257.9060315430196
 20
161.0007540037039
 10
256.1560315430196
 20
158.0007540037039
 10
256.4060315430196
 20
132.0007540037039
  0
LWPOLYLINE
  5
EF7C8881B
330
EF7C85532
100
AcDbEntity
  8
JISSEN
100
AcDbPolyline
 90
        4
 70
     1
 43
0.0
 10
260.4060315430196
 20
132.0007540037039
 10
258.9060315430196
 20
130.5007540037038
 10
258.9060315430196
 20
161.0007540037039
 10
260.4060315430196
 20
158.0007540037039
  0
LINE
  5
EF7C8881C
330
EF7C85532
100
AcDbEntity
  8
JISSEN
100
AcDbLine
 10
237.9060315430196
 20
153.3613943726284
 30
0.0
 11
237.9060315430196
 21
128.0007540037038
 31
0.0
  0
LINE
  5
EF7C8881D
330
EF7C85532
100
AcDbEntity
  8
JISSEN
100
AcDbLine
 10
242.9060315430196
 20
149.5064387597449
 30
0.0
 11
242.9060315430196
 21
132.0007540037039
 31
0.0
  0
ARC
  5
EF7C8881E
330
EF7C85532
100
AcDbEntity
  8
JISSEN
100
AcDbCircle
 10
264.9060315430196
 20
150.5007540037038
 30
0.0
 40
30.0
100
AcDbArc
 50
324.7907943550741
 51
0.0
  0
INSERT
  5
EF7C8881F
330
EF7C85532
100
AcDbEntity
  8
WAKU
100
AcDbBlockReference
  2
WAKU
 10
180.9999992759999
 20
0.0
 30
0.0
 41
181.0
 42
283.0
 43
181.0
  0
LWPOLYLINE
  5
EF7C88820
330
EF7C85532
100
AcDbEntity
  8
JISSEN
100
AcDbPolyline
 90
        4
 70
     1
 43
0.0
 10
258.9060315430196
 20
95.92272413901302
 10
260.9041035163987
 20
100.5061413742484
 10
260.6560315430196
 20
128.0007540037038
 10
258.9060315430196
 20
129.5007540037038
  0
ARC
  5
EF7C88821
330
EF7C85532
100
AcDbEntity
  8
JISSEN
100
AcDbCircle
 10
280.9060315430196
 20
150.5007540037038
 30
0.0
 40
24.0
100
AcDbArc
 50
211.3322067072331
 51
230.4287805427692
  0
LWPOLYLINE
  5
EF7C88822
330
EF7C85532
100
AcDbEntity
  8
JISSEN
100
AcDbPolyline
 90
        4
 70
     0
 43
0.0
 10
289.4060315430196
 20
128.0007540037038
 10
302.9060315430196
 20
128.0007540037038
 10
307.9060315430196
 20
129.5007540037038
 10
237.9060315430196
 20
129.5007540037038
  0
LWPOLYLINE
  5
EF7C88823
330
EF7C85532
100
AcDbEntity
  8
JISSEN
100
AcDbPolyline
 90
        4
 70
     0
 43
0.0
 10
289.4060315430196
 20
132.0007540037039
 10
302.9060315430196
 20
132.0007540037039
 10
307.9060315430196
 20
130.5007540037038
 10
237.9060315430196
 20
130.5007540037038
  0
ARC
  5
EF7C88824
330
EF7C85532
100
AcDbEntity
  8
JISSEN
100
AcDbCircle
 10
272.9060315430196
 20
128.0007540037038
 30
0.0
 40
35.0
100
AcDbArc
 50
180.0
 51
0.0
  0
LWPOLYLINE
  5
EF7C888C6
330
EF7C85532
100
AcDbEntity
  8
JISSEN
100
AcDbPolyline
 90
        5
 70
     1
 43
0.0
 10
256.4060315430196
 20
128.0007540037038
 10
256.1560315430196
 20
117.0476318649005
 10
255.9825596341284
 20
103.229882025734
 10
257.9060315430196
 20
96.3779774020201
 10
257.9060315430196
 20
129.5007540037038
  0
ARC
  5
EF7C888C7
330
EF7C85532
100
AcDbEntity
  8
JISSEN
100
AcDbCircle
 10
272.9060315430196
 20
128.0007540037038
 30
0.0
 40
30.0
100
AcDbArc
 50
180.0
 51
235.6590914470843
  0
LINE
  5
EF7C888C8
330
EF7C85532
100
AcDbEntity
  8
JISSEN
100
AcDbLine
 10
253.9060315430196
 20
117.8635266541729
 30
0.0
 11
254.9060315430192
 21
118.0398536348811
 31
0.0
  0
LINE
  5
EF7C888C9
330
EF7C85532
100
AcDbEntity
  8
JISSEN
100
AcDbLine
 10
256.153910962274
 20
116.8787189011607
 30
0.0
 11
254.0796797206865
 21
116.8787189011607
 31
0.0
  0
LINE
  5
EF7C888CA
330
EF7C85532
100
AcDbEntity
  8
JISSEN
100
AcDbLine
 10
253.9060315430196
 20
117.8635266541729
 30
0.0
 11
256.1746539681814
 21
117.8635266541729
 31
0.0
  0
LINE
  5
EF7C888CB
330
EF7C85532
100
AcDbEntity
  8
JISSEN
100
AcDbLine
 10
254.0796797206865
 20
116.8787189011604
 30
0.0
 11
253.9060315430196
 21
117.8635266541729
 31
0.0
  0
LINE
  5
EF7C888CC
330
EF7C85532
100
AcDbEntity
  8
JISSEN
100
AcDbLine
 10
255.8185428794936
 20
118.2007540037038
 30
0.0
 11
256.1823510280985
 21
118.2007540037038
 31
0.0
  0
LINE
  5
EF7C888CD
330
EF7C85532
100
AcDbEntity
  8
JISSEN
100
AcDbLine
 10
254.9060315430192
 20
118.0398536348811
 30
0.0
 11
255.8185428794934
 21
118.2007540037038
 31
0.0
  0
LWPOLYLINE
  5
EF7C888CE
330
EF7C85532
100
AcDbEntity
  8
JISSEN
100
AcDbPolyline
 90
        3
 70
     0
 43
0.0
 10
237.9060315430196
 20
130.5007540037038
 10
242.9060315430196
 20
132.0007540037039
 10
256.4060315430196
 20
132.0007540037039
  0
LWPOLYLINE
  5
EF7C888CF
330
EF7C85532
100
AcDbEntity
  8
JISSEN
100
AcDbPolyline
 90
        3
 70
     0
 43
0.0
 10
237.9060315430196
 20
129.5007540037038
 10
242.9060315430196
 20
128.0007540037038
 10
256.4060315430196
 20
128.0007540037038
  0
TEXT
  5
EF7C888D0
330
EF7C85532
100
AcDbEntity
  8
SUNPOU
100
AcDbText
 10
320.3407309417997
 20
7.849423898685245
 30
0.0
 40
3.0
  1
DQP   ガード作動状態
  7
K
100
AcDbText
  0
LINE
  5
EF7C888D1
330
EF7C85532
100
AcDbEntity
  8
TEXT
100
AcDbLine
 10
330.4615604837747
 20
10.84292501940535
 30
0.0
 11
330.4615604837747
 21
7.842925019405356
 31
0.0
  0
LINE
  5
EF7C888D2
330
EF7C85532
100
AcDbEntity
  8
TEXT
100
AcDbLine
 10
331.3615604837749
 20
10.84292501940535
 30
0.0
 11
331.3615604837749
 21
7.842925019405356
 31
0.0
  0
TEXT
  5
EF7C888D3
330
EF7C85532
100
AcDbEntity
  8
SUNPOU
100
AcDbText
 10
320.3407309417997
 20
2.849423898685245
 30
0.0
 40
3.0
  1
尺度　1/1
  7
K
100
AcDbText
  0
LINE
  5
EF7C888D4
330
EF7C85532
100
AcDbEntity
  8
TEXT
100
AcDbLine
 10
330.0115604837748
 20
7.842925019405356
 30
0.0
 11
331.8115604837748
 21
7.842925019405356
 31
0.0
  0
LINE
  5
EF7C888D5
330
EF7C85532
100
AcDbEntity
  8
TEXT
100
AcDbLine
 10
330.0115604837748
 20
10.84292501940535
 30
0.0
 11
331.8115604837748
 21
10.84292501940535
 31
0.0
  0
LWPOLYLINE
  5
EF7C888D7
330
EF7C85532
100
AcDbEntity
  8
JISSEN
100
AcDbPolyline
 90
        5
 70
     1
 43
0.0
 10
289.4060315430196
 20
128.0007540037038
 10
289.6560315430196
 20
117.0476318649005
 10
289.8295034519107
 20
103.229882025734
 10
287.9060315430196
 20
96.3779774020201
 10
287.9060315430195
 20
129.5007540037038
  0
LWPOLYLINE
  5
EF7C888D8
330
EF7C85532
100
AcDbEntity
  8
JISSEN
100
AcDbPolyline
 90
        4
 70
     1
 43
0.0
 10
286.9060315430196
 20
95.92272413901302
 10
284.9079595696404
 20
100.5061413742484
 10
285.1560315430196
 20
128.0007540037038
 10
286.9060315430196
 20
129.5007540037038
  0
ARC
  5
EF7C888DE
330
EF7C85532
100
AcDbEntity
  8
JISSEN
100
AcDbCircle
 10
272.9060315430196
 20
128.0007540037038
 30
0.0
 40
30.0
100
AcDbArc
 50
304.3409085529157
 51
0.0
  0
ARC
  5
EF7C888DF
330
EF7C85532
100
AcDbEntity
  8
JISSEN
100
AcDbCircle
 10
281.0728188880382
 20
118.5007624031972
 30
0.0
 40
1.0
100
AcDbArc
 50
33.65096582460109
 51
132.0810525119092
  0
LINE
  5
EF7C888E0
330
EF7C85532
100
AcDbEntity
  8
JISSEN
100
AcDbLine
 10
281.3569251041354
 20
117.863526654173
 30
0.0
 11
280.2242907506143
 21
119.5007624031976
 31
0.0
  0
LINE
  5
EF7C888E1
330
EF7C85532
100
AcDbEntity
  8
JISSEN
100
AcDbLine
 10
285.0650275900614
 20
117.9144939548493
 30
0.0
 11
283.3272236007853
 21
119.5007624031976
 31
0.0
  0
ARC
  5
EF7C888E2
330
EF7C85532
100
AcDbEntity
  8
JISSEN
100
AcDbCircle
 10
283.8720396302089
 20
118.1452624031976
 30
0.0
 40
1.355499999999999
100
AcDbArc
 50
55.00000000000309
 51
109.7312025061702
  0
LINE
  5
EF7C888E3
330
EF7C85532
100
AcDbEntity
  8
JISSEN
100
AcDbLine
 10
275.1604362557667
 20
119.5007624031977
 30
0.0
 11
275.3285763282522
 21
117.863526654173
 31
0.0
  0
ARC
  5
EF7C888E4
330
EF7C85532
100
AcDbEntity
  8
JISSEN
100
AcDbCircle
 10
276.3195472473135
 20
119.0007624031967
 30
0.0
 40
0.5
100
AcDbArc
 50
15.79871507350246
 51
166.709870010097
  0
LINE
  5
EF7C888E5
330
EF7C85532
100
AcDbEntity
  8
JISSEN
100
AcDbLine
 10
270.4834867577872
 20
117.863526654173
 30
0.0
 11
270.6516268302725
 21
119.5007624031977
 31
0.0
  0
ARC
  5
EF7C888E6
330
EF7C85532
100
AcDbEntity
  8
JISSEN
100
AcDbCircle
 10
269.4925158387256
 20
119.0007624031967
 30
0.0
 40
0.5
100
AcDbArc
 50
13.29012998990297
 51
164.2012849264975
  0
ARC
  5
EF7C888E7
330
EF7C85532
100
AcDbEntity
  8
JISSEN
100
AcDbCircle
 10
264.739244198001
 20
118.5007624031972
 30
0.0
 40
1.0
100
AcDbArc
 50
47.91894748809069
 51
146.3490341753988
  0
LINE
  5
EF7C888E8
330
EF7C85532
100
AcDbEntity
  8
JISSEN
100
AcDbLine
 10
264.4551379819038
 20
117.863526654173
 30
0.0
 11
265.5877723354249
 21
119.5007624031977
 31
0.0
  0
LINE
  5
EF7C888E9
330
EF7C85532
100
AcDbEntity
  8
JISSEN
100
AcDbLine
 10
260.7470354959778
 20
117.9144939548493
 30
0.0
 11
262.4848394852538
 21
119.5007624031977
 31
0.0
  0
ARC
  5
EF7C888EA
330
EF7C85532
100
AcDbEntity
  8
JISSEN
100
AcDbCircle
 10
261.9400234558304
 20
118.1452624031976
 30
0.0
 40
1.355499999999999
100
AcDbArc
 50
70.26879749382101
 51
124.9999999999968
  0
LINE
  5
EF7C888EB
330
EF7C85532
100
AcDbEntity
  8
JISSEN
100
AcDbLine
 10
282.4265985935714
 20
116.7007540037038
 30
0.0
 11
272.9060315430196
 21
116.7007540037038
 31
0.0
  0
ARC
  5
EF7C888EC
330
EF7C85532
100
AcDbEntity
  8
JISSEN
100
AcDbCircle
 10
272.9060315430196
 20
128.0007540037038
 30
0.0
 40
30.0
100
AcDbArc
 50
246.417803785703
 51
293.582196214297
  0
LINE
  5
EF7C888ED
330
EF7C85532
100
AcDbEntity
  8
JISSEN
100
AcDbLine
 10
285.0556822406649
 20
116.8787189011607
 30
0.0
 11
260.7563808453743
 21
116.8787189011607
 31
0.0
  0
LINE
  5
EF7C888EE
330
EF7C85532
100
AcDbEntity
  8
JISSEN
100
AcDbLine
 10
260.7474953518421
 20
117.8635266541729
 30
0.0
 11
285.064567734197
 21
117.863526654173
 31
0.0
  0
LINE
  5
EF7C888EF
330
EF7C85532
100
AcDbEntity
  8
JISSEN
100
AcDbLine
 10
263.3854644924678
 20
116.7007540037038
 30
0.0
 11
272.9060315430196
 21
116.7007540037038
 31
0.0
  0
LINE
  5
EF7C888F0
330
EF7C85532
100
AcDbEntity
  8
JISSEN
100
AcDbLine
 10
263.3854644924678
 20
116.7007540037038
 30
0.0
 11
263.2608521297318
 21
116.8787189011607
 31
0.0
  0
LINE
  5
EF7C888F1
330
EF7C85532
100
AcDbEntity
  8
JISSEN
100
AcDbLine
 10
263.1137440962756
 20
117.863526654173
 30
0.0
 11
263.9068155404004
 21
119.0548946347136
 31
0.0
  0
LINE
  5
EF7C888F2
330
EF7C85532
100
AcDbEntity
  8
JISSEN
100
AcDbLine
 10
260.737619580257
 20
118.9580901006149
 30
0.0
 11
261.1625405963565
 21
119.2556229992314
 31
0.0
  0
ARC
  5
EF7C888F3
330
EF7C85532
100
AcDbEntity
  8
JISSEN
100
AcDbCircle
 10
269.6922039622537
 20
118.2019721681093
 30
0.0
 40
0.1
100
AcDbArc
 50
13.29012998990889
 51
164.2012849264934
  0
LINE
  5
EF7C888F4
330
EF7C85532
100
AcDbEntity
  8
JISSEN
100
AcDbLine
 10
269.8748993840133
 20
117.863526654173
 30
0.0
 11
269.7895258110202
 21
118.2249603771015
 31
0.0
  0
LINE
  5
EF7C888F5
330
EF7C85532
100
AcDbEntity
  8
JISSEN
100
AcDbLine
 10
269.4925158387256
 20
117.863526654173
 30
0.0
 11
269.5959815523039
 21
118.2291980349174
 31
0.0
  0
LINE
  5
EF7C888F6
330
EF7C85532
100
AcDbEntity
  8
JISSEN
100
AcDbLine
 10
270.2748993840133
 20
117.863526654173
 30
0.0
 11
269.9791250825582
 21
119.1157034481575
 31
0.0
  0
LINE
  5
EF7C888F7
330
EF7C85532
100
AcDbEntity
  8
JISSEN
100
AcDbLine
 10
268.6511086335377
 20
117.863526654173
 30
0.0
 11
269.0114037889766
 21
119.1368917372372
 31
0.0
  0
ARC
  5
EF7C888F8
330
EF7C85532
100
AcDbEntity
  8
JISSEN
100
AcDbCircle
 10
276.1198591237854
 20
118.2019721681093
 30
0.0
 40
0.1
100
AcDbArc
 50
15.79871507350659
 51
166.7098700100911
  0
LINE
  5
EF7C888F9
330
EF7C85532
100
AcDbEntity
  8
JISSEN
100
AcDbLine
 10
275.9371637020259
 20
117.863526654173
 30
0.0
 11
276.022537275019
 21
118.2249603771015
 31
0.0
  0
LINE
  5
EF7C888FA
330
EF7C85532
100
AcDbEntity
  8
JISSEN
100
AcDbLine
 10
275.5371637020259
 20
117.863526654173
 30
0.0
 11
275.832938003481
 21
119.1157034481575
 31
0.0
  0
LINE
  5
EF7C888FB
330
EF7C85532
100
AcDbEntity
  8
JISSEN
100
AcDbLine
 10
277.1609544525015
 20
117.863526654173
 30
0.0
 11
276.8006592970626
 21
119.1368917372372
 31
0.0
  0
LINE
  5
EF7C888FC
330
EF7C85532
100
AcDbEntity
  8
JISSEN
100
AcDbLine
 10
276.3195472473135
 20
117.863526654173
 30
0.0
 11
276.2160815337353
 21
118.2291980349174
 31
0.0
  0
LINE
  5
EF7C888FF
330
EF7C85532
100
AcDbEntity
  8
JISSEN
100
AcDbLine
 10
285.0744435057821
 20
118.9580901006149
 30
0.0
 11
284.6495224896826
 21
119.2556229992314
 31
0.0
  0
LINE
  5
EF7C88900
330
EF7C85532
100
AcDbEntity
  8
JISSEN
100
AcDbLine
 10
282.4265985935714
 20
116.7007540037038
 30
0.0
 11
282.5512109563074
 21
116.8787189011607
 31
0.0
  0
LINE
  5
EF7C88901
330
EF7C85532
100
AcDbEntity
  8
JISSEN
100
AcDbLine
 10
282.6983189897636
 20
117.863526654173
 30
0.0
 11
281.9052475456388
 21
119.0548946347136
 31
0.0
  0
LINE
  5
EF7C88902
330
EF7C85532
100
AcDbEntity
  8
JISSEN
100
AcDbLine
 10
291.7323833653526
 20
116.8787189011607
 30
0.0
 11
291.9060315430196
 21
117.8635266541731
 31
0.0
  0
LINE
  5
EF7C88903
330
EF7C85532
100
AcDbEntity
  8
JISSEN
100
AcDbLine
 10
289.6297120579406
 20
118.2007540037038
 30
0.0
 11
289.9935202065469
 21
118.2007540037038
 31
0.0
  0
LINE
  5
EF7C88904
330
EF7C85532
100
AcDbEntity
  8
JISSEN
100
AcDbLine
 10
289.6374091178577
 20
117.8635266541731
 30
0.0
 11
291.9060315430196
 21
117.8635266541731
 31
0.0
  0
LINE
  5
EF7C88905
330
EF7C85532
100
AcDbEntity
  8
JISSEN
100
AcDbLine
 10
291.7323833653526
 20
116.8787189011607
 30
0.0
 11
289.6581521237651
 21
116.8787189011607
 31
0.0
  0
LINE
  5
EF7C88906
330
EF7C85532
100
AcDbEntity
  8
JISSEN
100
AcDbLine
 10
291.9060315430196
 20
117.8635266541731
 30
0.0
 11
289.9935202065457
 21
118.2007540037041
 31
0.0
  0
LINE
  5
EF7C88908
330
EF7C85532
100
AcDbEntity
  8
JISSEN
100
AcDbLine
 10
283.3272236007853
 20
119.5007624031976
 30
0.0
 11
281.0728188880382
 21
119.5007624031976
 31
0.0
  0
LINE
  5
EF7C88909
330
EF7C85532
100
AcDbEntity
  8
JISSEN
100
AcDbLine
 10
285.1559049594184
 20
127.9867243371074
 30
0.0
 11
277.9798610276518
 21
119.5007624031976
 31
0.0
  0
LWPOLYLINE
  5
EF7C8890A
330
EF7C85532
100
AcDbEntity
  8
JISSEN
100
AcDbPolyline
 90
        2
 70
     0
 43
0.0
 10
260.4060315430196
 20
132.0007540037038
 10
285.4060315430196
 20
132.0007540037039
  0
LWPOLYLINE
  5
EF7C8890B
330
EF7C85532
100
AcDbEntity
  8
JISSEN
100
AcDbPolyline
 90
        2
 70
     0
 43
0.0
 10
260.6560315430196
 20
128.0007540037038
 10
285.1560315430195
 20
128.0007540037038
  0
ARC
  5
EF7C8890C
330
EF7C85532
100
AcDbEntity
  8
JISSEN
100
AcDbCircle
 10
264.9060315430196
 20
150.5007540037038
 30
0.0
 40
24.0
100
AcDbArc
 50
309.5712194572307
 51
328.6677932927668
  0
LINE
  5
EF7C8890D
330
EF7C85532
100
AcDbEntity
  8
JISSEN
100
AcDbLine
 10
270.6516268302725
 20
119.5007624031977
 30
0.0
 11
275.1604362557667
 21
119.5007624031977
 31
0.0
  0
ARC
  5
EF7C8890E
330
EF7C85532
100
AcDbEntity
  8
JISSEN
100
AcDbCircle
 10
256.1560315430196
 20
124.5007540037038
 30
0.0
 40
12.49999999999999
100
AcDbArc
 50
343.7397952916878
 51
16.26020470831211
  0
LINE
  5
EF7C8890F
330
EF7C85532
100
AcDbEntity
  8
JISSEN
100
AcDbLine
 10
260.6561581266207
 20
127.9867243371073
 30
0.0
 11
267.8322020583875
 21
119.5007624031977
 31
0.0
  0
LINE
  5
EF7C88910
330
EF7C85532
100
AcDbEntity
  8
JISSEN
100
AcDbLine
 10
262.4848394852538
 20
119.5007624031977
 30
0.0
 11
264.739244198001
 21
119.5007624031977
 31
0.0
  0
ARC
  5
EF7C88911
330
EF7C85532
100
AcDbEntity
  8
JISSEN
100
AcDbCircle
 10
266.9060315430196
 20
119.0473190215647
 30
0.0
 40
1.0
100
AcDbArc
 50
26.96482331253057
 51
40.21909874455571
  0
LINE
  5
EF7C88912
330
EF7C85532
100
AcDbEntity
  8
JISSEN
100
AcDbLine
 10
269.4925158387256
 20
119.5007624031977
 30
0.0
 11
265.5877723354249
 21
119.5007624031977
 31
0.0
  0
ARC
  5
EF7C88913
330
EF7C85532
100
AcDbEntity
  8
JISSEN
100
AcDbCircle
 10
289.6560315430195
 20
124.5007540037038
 30
0.0
 40
12.49999999999999
100
AcDbArc
 50
163.7397952916878
 51
196.2602047083121
  0
ARC
  5
EF7C88914
330
EF7C85532
100
AcDbEntity
  8
JISSEN
100
AcDbCircle
 10
278.9060315430196
 20
119.0473190215647
 30
0.0
 40
1.0
100
AcDbArc
 50
139.7809012554442
 51
153.0351766874621
  0
LINE
  5
EF7C88915
330
EF7C85532
100
AcDbEntity
  8
JISSEN
100
AcDbLine
 10
276.3195472473135
 20
119.5007624031976
 30
0.0
 11
280.2242907506143
 21
119.5007624031977
 31
0.0
  0
LWPOLYLINE
  5
EF7C88930
330
EF7C85532
100
AcDbEntity
  8
NITEN
100
AcDbPolyline
 90
        5
 70
     0
 43
0.0
 10
289.9060315430196
 20
212.6113029094276
 10
289.9060315430196
 20
233.4490205605735
 42
-0.5882352941176475
 10
272.9060315430196
 20
233.4490205605735
 42
0.5882352941176476
 10
255.9060315430196
 20
233.4490205605732
 10
255.9060315430196
 20
212.6113029094276
  0
LWPOLYLINE
  5
EF7C88931
330
EF7C85532
100
AcDbEntity
  8
JISSEN
100
AcDbPolyline
 90
       15
 70
     0
 43
0.0
 10
289.6560315430196
 20
158.0007540037039
 10
298.4749861540699
 20
158.0007540037039
 42
0.493145426031304
 10
299.9238748935036
 20
159.8889825713576
 10
298.4413085153443
 20
165.4219956202412
 42
0.1651006681921958
 10
298.2627263167042
 20
165.6892627678355
 10
295.3849858740932
 20
167.8974306738495
 42
0.1651006681921981
 10
295.0806051595888
 20
168.0007540037038
 10
272.9060315430196
 20
168.0007540037038
 10
250.7314579264503
 20
168.0007540037038
 42
0.1651006681921981
 10
250.4270772119459
 20
167.8974306738495
 10
247.5493367693349
 20
165.6892627678355
 42
0.1651006681921958
 10
247.3707545706948
 20
165.4219956202412
 10
245.8881881925355
 20
159.8889825713576
 42
0.493145426031304
 10
247.3370769319692
 20
158.0007540037039
 10
256.1560315430196
 20
158.0007540037039
  0
LWPOLYLINE
  5
EF7C88932
330
EF7C85532
100
AcDbEntity
  8
NITEN
100
AcDbPolyline
 90
       15
 70
     1
 43
0.0
 10
258.9060315430196
 20
172.1113029094276
 42
0.4142135623730927
 10
260.4060315430196
 20
170.6113029094276
 10
283.5000827140161
 20
170.6113029094276
 10
285.4060315430196
 20
170.6113029094276
 42
0.4142135623730925
 10
286.9060315430196
 20
172.1113029094276
 10
286.9060315430196
 20
183.1573189356456
 42
-0.4142135623730943
 10
291.9060315430196
 20
188.1573189356456
 42
0.4142135623730951
 10
293.9060315430196
 20
190.1573189356455
 10
293.9060315430196
 20
210.6113029094276
 42
0.4142135623730948
 10
291.9060315430196
 20
212.6113029094276
 10
253.9060315430196
 20
212.6113029094276
 42
0.4142135623730951
 10
251.9060315430196
 20
210.6113029094276
 10
251.9060315430196
 20
190.1573189356455
 42
0.4142135623730951
 10
253.9060315430196
 20
188.1573189356456
 42
-0.4142135623730961
 10
258.9060315430196
 20
183.1573189356456
  0
LINE
  5
EF7C889B8
330
EF7C85532
100
AcDbEntity
  8
JISSEN
100
AcDbLine
 10
257.4060315430196
 20
168.0007540037039
 30
0.0
 11
257.4060315430196
 21
160.143611146561
 31
0.0
  0
LINE
  5
EF7C889B9
330
EF7C85532
100
AcDbEntity
  8
JISSEN
100
AcDbLine
 10
240.0256245077491
 20
159.5229826349794
 30
0.0
 11
247.1028053782636
 21
164.4219956202412
 31
0.0
  0
ARC
  5
EF7C889BA
330
EF7C85532
100
AcDbEntity
  8
JISSEN
100
AcDbCircle
 10
243.1560315430196
 20
155.0007540037038
 30
0.0
 40
5.5
100
AcDbArc
 50
60.49547610270324
 51
33.05573115085367
  0
ARC
  5
EF7C889BB
330
EF7C85532
100
AcDbEntity
  8
JISSEN
100
AcDbCircle
 10
267.9060315430196
 20
150.5007540037038
 30
0.0
 40
17.0
100
AcDbArc
 50
153.8210312959871
 51
180.0
  0
LWPOLYLINE
  5
EF7C889BC
330
EF7C85532
100
AcDbEntity
  8
JISSEN
100
AcDbPolyline
 90
        6
 70
     1
 43
0.0
 10
245.1560315430196
 20
151.5366523885661
 10
247.1560315430196
 20
155.0007540037038
 10
245.1560315430196
 20
158.4648556188416
 10
241.1560315430196
 20
158.4648556188416
 10
239.1560315430196
 20
155.0007540037038
 10
241.1560315430196
 20
151.5366523885661
  0
LWPOLYLINE
  5
EF7C889BD
330
EF7C85532
100
AcDbEntity
  8
JISSEN
100
AcDbPolyline
 90
        6
 70
     1
 43
0.0
 10
244.9828264622627
 20
151.8366523885661
 10
246.8096213815059
 20
155.0007540037038
 10
244.9828264622627
 20
158.1648556188417
 10
241.3292366237764
 20
158.1648556188417
 10
239.5024417045334
 20
155.0007540037038
 10
241.3292366237765
 20
151.8366523885661
  0
ARC
  5
EF7C889BE
330
EF7C85532
100
AcDbEntity
  8
JISSEN
100
AcDbCircle
 10
267.9060315430196
 20
150.5007540037038
 30
0.0
 40
15.0
100
AcDbArc
 50
149.9999999999996
 51
180.0
  0
ARC
  5
EF7C889BF
330
EF7C85532
100
AcDbEntity
  8
JISSEN
100
AcDbCircle
 10
265.6947847594973
 20
149.8990962808592
 30
0.0
 40
10.80551655320168
100
AcDbArc
 50
151.6571464165099
 51
176.8080854238748
  0
ARC
  5
EF7C889C0
330
EF7C85532
100
AcDbEntity
  8
JISSEN
100
AcDbCircle
 10
280.9060315430196
 20
150.5007540037038
 30
0.0
 40
26.0
100
AcDbArc
 50
180.0
 51
198.9091960083248
  0
CIRCLE
  5
EF7C889C1
330
EF7C85532
100
AcDbEntity
  8
JISSEN
100
AcDbCircle
 10
243.1560315430196
 20
155.0007540037038
 30
0.0
 40
2.0
  0
LINE
  5
EF7C889DD
330
EF7C85532
100
AcDbEntity
  8
JISSEN
100
AcDbLine
 10
305.7864385782901
 20
159.5229826349794
 30
0.0
 11
298.7092577077755
 21
164.4219956202412
 31
0.0
  0
ARC
  5
EF7C889DE
330
EF7C85532
100
AcDbEntity
  8
JISSEN
100
AcDbCircle
 10
302.6560315430195
 20
155.0007540037038
 30
0.0
 40
5.5
100
AcDbArc
 50
146.9442688491449
 51
119.5045238972967
  0
CIRCLE
  5
EF7C889DF
330
EF7C85532
100
AcDbEntity
  8
JISSEN
100
AcDbCircle
 10
302.6560315430195
 20
155.0007540037038
 30
0.0
 40
2.0
  0
LWPOLYLINE
  5
EF7C889E0
330
EF7C85532
100
AcDbEntity
  8
JISSEN
100
AcDbPolyline
 90
        6
 70
     1
 43
0.0
 10
300.6560315430195
 20
151.5366523885661
 10
298.6560315430195
 20
155.0007540037038
 10
300.6560315430195
 20
158.4648556188416
 10
304.6560315430195
 20
158.4648556188416
 10
306.6560315430195
 20
155.0007540037038
 10
304.6560315430195
 20
151.5366523885661
  0
LWPOLYLINE
  5
EF7C889E1
330
EF7C85532
100
AcDbEntity
  8
JISSEN
100
AcDbPolyline
 90
        6
 70
     1
 43
0.0
 10
300.8292366237764
 20
151.8366523885661
 10
299.0024417045333
 20
155.0007540037038
 10
300.8292366237764
 20
158.1648556188416
 10
304.4828264622626
 20
158.1648556188417
 10
306.3096213815057
 20
155.0007540037038
 10
304.4828264622626
 20
151.8366523885661
  0
LINE
  5
EF7C889E2
330
EF7C85532
100
AcDbEntity
  8
JISSEN
100
AcDbLine
 10
288.4060315430196
 20
168.0007540037038
 30
0.0
 11
288.4060315430195
 21
160.143611146561
 31
0.0
  0
LWPOLYLINE
  5
EF7C889E3
330
EF7C85532
100
AcDbEntity
  8
JISSEN
100
AcDbPolyline
 90
        2
 70
     0
 43
0.0
 10
272.9060315430196
 20
158.0007540037039
 10
285.4060315430196
 20
158.0007540037039
 42
0.493145426031304
  0
LWPOLYLINE
  5
EF7C88A23
330
EF7C85532
100
AcDbEntity
  8
JISSEN
100
AcDbPolyline
 90
        2
 70
     0
 43
0.0
 10
260.4060315430196
 20
158.0007540037039
 10
272.9060315430196
 20
158.0007540037039
  0
ARC
  5
EF7C88A26
330
EF7C85532
100
AcDbEntity
  8
JISSEN
100
AcDbCircle
 10
267.8453365906954
 20
149.3468020662754
 30
0.0
 40
11.0
100
AcDbArc
 50
128.1196922672755
 51
132.5552199034004
  0
ARC
  5
EF7C88A2B
330
EF7C85532
100
AcDbEntity
  8
JISSEN
100
AcDbCircle
 10
277.9060315430196
 20
150.5007540037038
 30
0.0
 40
15.0
100
AcDbArc
 50
0.0
 51
30.00000000000005
  0
ARC
  5
EF7C88A2C
330
EF7C85532
100
AcDbEntity
  8
JISSEN
100
AcDbCircle
 10
280.117278326542
 20
149.8990962808592
 30
0.0
 40
10.80551655320168
100
AcDbArc
 50
3.191914576125952
 51
28.34285358349005
  0
ARC
  5
EF7C88A2D
330
EF7C85532
100
AcDbEntity
  8
JISSEN
100
AcDbCircle
 10
277.9060315430196
 20
150.5007540037038
 30
0.0
 40
17.0
100
AcDbArc
 50
0.0
 51
26.17896870401264
  0
ARC
  5
EF7C88A2E
330
EF7C85532
100
AcDbEntity
  8
JISSEN
100
AcDbCircle
 10
264.9060315430196
 20
150.5007540037038
 30
0.0
 40
26.0
100
AcDbArc
 50
341.0908039916751
 51
0.0
  0
ARC
  5
EF7C88A2F
330
EF7C85532
100
AcDbEntity
  8
JISSEN
100
AcDbCircle
 10
277.9667264953438
 20
149.3468020662754
 30
0.0
 40
11.0
100
AcDbArc
 50
47.44478009659957
 51
51.88030773272442
  0
LINE
  5
EF7C88A30
330
EF7C85532
100
AcDbEntity
  8
JISSEN
100
AcDbLine
 10
281.4060315430196
 20
182.5007540037038
 30
0.0
 11
272.9060315430196
 21
182.5007540037038
 31
0.0
  0
LINE
  5
EF7C88A31
330
EF7C85532
100
AcDbEntity
  8
JISSEN
100
AcDbLine
 10
283.1840857709318
 20
180.7226997757916
 30
0.0
 11
262.6279773151074
 21
180.7226997757916
 31
0.0
  0
LINE
  5
EF7C88A32
330
EF7C85532
100
AcDbEntity
  8
JISSEN
100
AcDbLine
 10
283.5695458973454
 20
168.3885921218126
 30
0.0
 11
272.9060315430196
 21
168.3885921218126
 31
0.0
  0
LINE
  5
EF7C88A33
330
EF7C85532
100
AcDbEntity
  8
JISSEN
100
AcDbLine
 10
282.4060315430196
 20
168.0007540037038
 30
0.0
 11
272.9060315430196
 21
168.0007540037038
 31
0.0
  0
LINE
  5
EF7C88A34
330
EF7C85532
100
AcDbEntity
  8
SAISEN
100
AcDbLine
 10
263.8274631197452
 20
181.9221855804295
 30
0.0
 11
263.3925372147595
 21
168.0052521131239
 31
0.0
  0
LINE
  5
EF7C88A35
330
EF7C85532
100
AcDbEntity
  8
JISSEN
100
AcDbLine
 10
262.2425171886937
 20
168.3885921218126
 30
0.0
 11
262.6279773151074
 21
180.7226997757916
 31
0.0
  0
LINE
  5
EF7C88A36
330
EF7C85532
100
AcDbEntity
  8
JISSEN
100
AcDbLine
 10
263.4060315430196
 20
168.0007540037038
 30
0.0
 11
272.9060315430196
 21
168.0007540037038
 31
0.0
  0
LINE
  5
EF7C88A37
330
EF7C85532
100
AcDbEntity
  8
JISSEN
100
AcDbLine
 10
262.2425171886937
 20
168.3885921218126
 30
0.0
 11
272.9060315430196
 21
168.3885921218126
 31
0.0
  0
LINE
  5
EF7C88A38
330
EF7C85532
100
AcDbEntity
  8
JISSEN
100
AcDbLine
 10
262.2425171886937
 20
168.3885921218126
 30
0.0
 11
263.4060315430196
 21
168.0007540037038
 31
0.0
  0
LINE
  5
EF7C88A39
330
EF7C85532
100
AcDbEntity
  8
JISSEN
100
AcDbLine
 10
264.4060315430196
 20
182.5007540037038
 30
0.0
 11
272.9060315430196
 21
182.5007540037038
 31
0.0
  0
LINE
  5
EF7C88A3A
330
EF7C85532
100
AcDbEntity
  8
JISSEN
100
AcDbLine
 10
264.4060315430196
 20
182.5007540037038
 30
0.0
 11
262.6279773151074
 21
180.7226997757916
 31
0.0
  0
LINE
  5
EF7C88A3B
330
EF7C85532
100
AcDbEntity
  8
SAISEN
100
AcDbLine
 10
281.9845999662939
 20
181.9221855804295
 30
0.0
 11
282.4195258712796
 21
168.0052521131239
 31
0.0
  0
LINE
  5
EF7C88A3C
330
EF7C85532
100
AcDbEntity
  8
JISSEN
100
AcDbLine
 10
283.5695458973454
 20
168.3885921218126
 30
0.0
 11
283.1840857709318
 21
180.7226997757916
 31
0.0
  0
LINE
  5
EF7C88A3D
330
EF7C85532
100
AcDbEntity
  8
JISSEN
100
AcDbLine
 10
283.5695458973454
 20
168.3885921218126
 30
0.0
 11
282.4060315430196
 21
168.0007540037038
 31
0.0
  0
LINE
  5
EF7C88A3E
330
EF7C85532
100
AcDbEntity
  8
JISSEN
100
AcDbLine
 10
281.4060315430196
 20
182.5007540037038
 30
0.0
 11
283.1840857709318
 21
180.7226997757916
 31
0.0
  0
LWPOLYLINE
  5
EF7C88A4D
330
EF7C85532
100
AcDbEntity
  8
NITEN
100
AcDbPolyline
 90
        2
 70
     0
 43
0.0
 10
289.9060315430197
 20
233.4490205605735
 42
0.5882352941176294
 10
272.9060315430196
 20
233.4490205605737
 42
0.5882352941176294
  0
LINE
  5
EF7C88B71
330
EF7C85532
100
AcDbEntity
  8
JISSEN
100
AcDbLine
 10
278.9060315430196
 20
157.7007540037038
 30
0.0
 11
266.9060315430196
 21
157.7007540037038
 31
0.0
  0
LINE
  5
EF7C88B72
330
EF7C85532
100
AcDbEntity
  8
JISSEN
100
AcDbLine
 10
266.9060315430196
 20
157.7007540037038
 30
0.0
 11
266.3864163007488
 21
158.0007540037039
 31
0.0
  0
LINE
  5
EF7C88B74
330
EF7C85532
100
AcDbEntity
  8
JISSEN
100
AcDbLine
 10
278.9060315430196
 20
157.7007540037038
 30
0.0
 11
279.4256467852904
 21
158.0007540037039
 31
0.0
  0
ARC
  5
EF7C88B75
330
EF7C85532
100
AcDbEntity
  8
JISSEN
100
AcDbCircle
 10
272.9052469875272
 20
130.4406868061364
 30
0.0
 40
1.6
100
AcDbArc
 50
77.17226570980736
 51
102.8277342901926
  0
ENDSEC
  0
SECTION
  2
OBJECTS
  0
DICTIONARY
  5
EF7C85527
330
0
100
AcDbDictionary
  3
ACAD_GROUP
350
EF7C85528
  3
ACAD_LAYOUT
350
EF7C85BB7
  3
ACAD_MLINESTYLE
350
EF7C85535
  3
ACAD_PLOTSETTINGS
350
EF7C85BB8
  3
ACAD_PLOTSTYLENAME
350
EF7C85BB5
  3
ACDBHEADERROUNDTRIPXREC
350
EF7C88C37
  3
ACDBVARIABLEDICTIONARY
350
EF7C85DB7
  0
DICTIONARY
  5
EF7C85D9A
330
EF7C85532
100
AcDbDictionary
280
     1
  3
ACAD_LAYOUTSELFREF
360
EF7C88C59
  0
DICTIONARY
  5
EF7C85D98
330
EF7C8552F
100
AcDbDictionary
280
     1
  3
ACAD_LAYOUTSELFREF
360
EF7C88C58
  0
DICTIONARY
  5
EF7C85528
102
{ACAD_REACTORS
330
EF7C85527
102
}
330
EF7C85527
100
AcDbDictionary
  0
DICTIONARY
  5
EF7C85BB7
102
{ACAD_REACTORS
330
EF7C85527
102
}
330
EF7C85527
100
AcDbDictionary
  0
DICTIONARY
  5
EF7C85535
102
{ACAD_REACTORS
330
EF7C85527
102
}
330
EF7C85527
100
AcDbDictionary
  3
STANDARD
350
EF7C85536
  0
DICTIONARY
  5
EF7C85BB8
102
{ACAD_REACTORS
330
EF7C85527
102
}
330
EF7C85527
100
AcDbDictionary
  0
ACDBDICTIONARYWDFLT
  5
EF7C85BB5
102
{ACAD_REACTORS
330
EF7C85527
102
}
330
EF7C85527
100
AcDbDictionary
281
     1
  3
Normal
350
EF7C85BB6
100
AcDbDictionaryWithDefault
340
EF7C85BB6
  0
DICTIONARY
  5
EF7C88C37
102
{ACAD_REACTORS
330
EF7C85527
102
}
330
EF7C85527
100
AcDbDictionary
  3
CEPSNTYPE
350
EF7C88C41
  3
DIMSTYLEDATA
350
EF7C88C45
  3
FINGERPRINTGUID
350
EF7C88C42
  3
HYPERLINKBASE
350
EF7C88C3A
  3
INSUNITS
350
EF7C88C40
  3
LAYOUTDICT
350
EF7C88C3C
  3
LWETCUNION
350
EF7C88C3F
  3
PLOTSETDICT
350
EF7C88C3D
  3
PLOTSTYLNAMDICT
350
EF7C88C3E
  3
PSVPSCALE
350
EF7C88C44
  3
PUCSBASE
350
EF7C88C48
  3
PUCSORGBACK
350
EF7C88C4E
  3
PUCSORGBOTTOM
350
EF7C88C4A
  3
PUCSORGFRONT
350
EF7C88C4D
  3
PUCSORGLEFT
350
EF7C88C4B
  3
PUCSORGRIGHT
350
EF7C88C4C
  3
PUCSORGTOP
350
EF7C88C49
  3
PUCSORTHOREF
350
EF7C88C46
  3
PUCSORTHOVIEW
350
EF7C88C47
  3
STYLESHEET
350
EF7C88C3B
  3
TSTACKALIGN
350
EF7C88C38
  3
TSTACKSIZE
350
EF7C88C39
  3
UCSBASE
350
EF7C88C51
  3
UCSORGBACK
350
EF7C88C57
  3
UCSORGBOTTOM
350
EF7C88C53
  3
UCSORGFRONT
350
EF7C88C56
  3
UCSORGLEFT
350
EF7C88C54
  3
UCSORGRIGHT
350
EF7C88C55
  3
UCSORGTOP
350
EF7C88C52
  3
UCSORTHOREF
350
EF7C88C4F
  3
UCSORTHOVIEW
350
EF7C88C50
  3
VERSIONGUID
350
EF7C88C43
  0
DICTIONARY
  5
EF7C85DB7
102
{ACAD_REACTORS
330
EF7C85527
102
}
330
EF7C85527
100
AcDbDictionary
  3
DIMASSOC
350
EF7C88C35
  3
SORTENTS
350
EF7C85DB8
  0
XRECORD
  5
EF7C88C59
102
{ACAD_REACTORS
330
EF7C85D9A
102
}
330
EF7C85D9A
100
AcDbXrecord
340
EF7C85532
  0
XRECORD
  5
EF7C88C58
102
{ACAD_REACTORS
330
EF7C85D98
102
}
330
EF7C85D98
100
AcDbXrecord
340
EF7C8552F
  0
MLINESTYLE
  5
EF7C85536
102
{ACAD_REACTORS
330
EF7C85535
102
}
330
EF7C85535
100
AcDbMlineStyle
  2
STANDARD
 70
     0
  3

 62
   256
 51
90.0
 52
90.0
 71
     2
 49
0.5
 62
   256
  6
BYLAYER
 49
-0.5
 62
   256
  6
BYLAYER
  0
ACDBPLACEHOLDER
  5
EF7C85BB6
102
{ACAD_REACTORS
330
EF7C85BB5
102
}
330
EF7C85BB5
100
AcDbPlaceHolder
280
     0
  0
XRECORD
  5
EF7C88C41
102
{ACAD_REACTORS
330
EF7C88C37
102
}
330
EF7C88C37
100
AcDbXrecord
 90
        0
  0
XRECORD
  5
EF7C88C45
102
{ACAD_REACTORS
330
EF7C88C37
102
}
330
EF7C88C37
100
AcDbXrecord
1000
DSTYLE
1002
{
1070
   279
 70
     2
1070
   341
340
EF7C85537
1070
   342
340
EF7C85537
1070
   343
340
EF7C85543
1070
   344
340
EF7C85543
1002
}
  0
XRECORD
  5
EF7C88C42
102
{ACAD_REACTORS
330
EF7C88C37
102
}
330
EF7C88C37
100
AcDbXrecord
  1
{09AA4C7A-3D6F-4857-A850-771461888CEC}
  0
XRECORD
  5
EF7C88C3A
102
{ACAD_REACTORS
330
EF7C88C37
102
}
330
EF7C88C37
100
AcDbXrecord
  1

  0
XRECORD
  5
EF7C88C40
102
{ACAD_REACTORS
330
EF7C88C37
102
}
330
EF7C88C37
100
AcDbXrecord
 90
        0
  0
XRECORD
  5
EF7C88C3C
102
{ACAD_REACTORS
330
EF7C88C37
102
}
330
EF7C88C37
100
AcDbXrecord
340
EF7C85BB7
  0
XRECORD
  5
EF7C88C3F
102
{ACAD_REACTORS
330
EF7C88C37
102
}
330
EF7C88C37
100
AcDbXrecord
 90
    14877
  0
XRECORD
  5
EF7C88C3D
102
{ACAD_REACTORS
330
EF7C88C37
102
}
330
EF7C88C37
100
AcDbXrecord
340
EF7C85BB8
  0
XRECORD
  5
EF7C88C3E
102
{ACAD_REACTORS
330
EF7C88C37
102
}
330
EF7C88C37
100
AcDbXrecord
340
EF7C85BB5
  0
XRECORD
  5
EF7C88C44
102
{ACAD_REACTORS
330
EF7C88C37
102
}
330
EF7C88C37
100
AcDbXrecord
 40
0.0
  0
XRECORD
  5
EF7C88C48
102
{ACAD_REACTORS
330
EF7C88C37
102
}
330
EF7C88C37
100
AcDbXrecord
340
0
  0
XRECORD
  5
EF7C88C4E
102
{ACAD_REACTORS
330
EF7C88C37
102
}
330
EF7C88C37
100
AcDbXrecord
 10
0.0
 20
0.0
 30
0.0
  0
XRECORD
  5
EF7C88C4A
102
{ACAD_REACTORS
330
EF7C88C37
102
}
330
EF7C88C37
100
AcDbXrecord
 10
0.0
 20
0.0
 30
0.0
  0
XRECORD
  5
EF7C88C4D
102
{ACAD_REACTORS
330
EF7C88C37
102
}
330
EF7C88C37
100
AcDbXrecord
 10
0.0
 20
0.0
 30
0.0
  0
XRECORD
  5
EF7C88C4B
102
{ACAD_REACTORS
330
EF7C88C37
102
}
330
EF7C88C37
100
AcDbXrecord
 10
0.0
 20
0.0
 30
0.0
  0
XRECORD
  5
EF7C88C4C
102
{ACAD_REACTORS
330
EF7C88C37
102
}
330
EF7C88C37
100
AcDbXrecord
 10
0.0
 20
0.0
 30
0.0
  0
XRECORD
  5
EF7C88C49
102
{ACAD_REACTORS
330
EF7C88C37
102
}
330
EF7C88C37
100
AcDbXrecord
 10
0.0
 20
0.0
 30
0.0
  0
XRECORD
  5
EF7C88C46
102
{ACAD_REACTORS
330
EF7C88C37
102
}
330
EF7C88C37
100
AcDbXrecord
340
0
  0
XRECORD
  5
EF7C88C47
102
{ACAD_REACTORS
330
EF7C88C37
102
}
330
EF7C88C37
100
AcDbXrecord
 70
     0
  0
XRECORD
  5
EF7C88C3B
102
{ACAD_REACTORS
330
EF7C88C37
102
}
330
EF7C88C37
100
AcDbXrecord
  1

  0
XRECORD
  5
EF7C88C38
102
{ACAD_REACTORS
330
EF7C88C37
102
}
330
EF7C88C37
100
AcDbXrecord
 90
        1
  0
XRECORD
  5
EF7C88C39
102
{ACAD_REACTORS
330
EF7C88C37
102
}
330
EF7C88C37
100
AcDbXrecord
 90
       70
  0
XRECORD
  5
EF7C88C51
102
{ACAD_REACTORS
330
EF7C88C37
102
}
330
EF7C88C37
100
AcDbXrecord
340
0
  0
XRECORD
  5
EF7C88C57
102
{ACAD_REACTORS
330
EF7C88C37
102
}
330
EF7C88C37
100
AcDbXrecord
 10
0.0
 20
0.0
 30
0.0
  0
XRECORD
  5
EF7C88C53
102
{ACAD_REACTORS
330
EF7C88C37
102
}
330
EF7C88C37
100
AcDbXrecord
 10
0.0
 20
0.0
 30
0.0
  0
XRECORD
  5
EF7C88C56
102
{ACAD_REACTORS
330
EF7C88C37
102
}
330
EF7C88C37
100
AcDbXrecord
 10
0.0
 20
0.0
 30
0.0
  0
XRECORD
  5
EF7C88C54
102
{ACAD_REACTORS
330
EF7C88C37
102
}
330
EF7C88C37
100
AcDbXrecord
 10
0.0
 20
0.0
 30
0.0
  0
XRECORD
  5
EF7C88C55
102
{ACAD_REACTORS
330
EF7C88C37
102
}
330
EF7C88C37
100
AcDbXrecord
 10
0.0
 20
0.0
 30
0.0
  0
XRECORD
  5
EF7C88C52
102
{ACAD_REACTORS
330
EF7C88C37
102
}
330
EF7C88C37
100
AcDbXrecord
 10
0.0
 20
0.0
 30
0.0
  0
XRECORD
  5
EF7C88C4F
102
{ACAD_REACTORS
330
EF7C88C37
102
}
330
EF7C88C37
100
AcDbXrecord
340
0
  0
XRECORD
  5
EF7C88C50
102
{ACAD_REACTORS
330
EF7C88C37
102
}
330
EF7C88C37
100
AcDbXrecord
 70
     0
  0
XRECORD
  5
EF7C88C43
102
{ACAD_REACTORS
330
EF7C88C37
102
}
330
EF7C88C37
100
AcDbXrecord
  1
{D149A369-A4A1-47B9-9CAE-39B0D0202B83}
  0
DICTIONARYVAR
  5
EF7C88C35
102
{ACAD_REACTORS
330
EF7C85DB7
102
}
330
EF7C85DB7
100
DictionaryVariables
280
     0
  1
0
  0
DICTIONARYVAR
  5
EF7C85DB8
102
{ACAD_REACTORS
330
EF7C85DB7
102
}
330
EF7C85DB7
100
DictionaryVariables
280
     0
  1
96
  0
ENDSEC
  0
EOF
