  0
SECTION
  2
HEADER
  9
$ACADVER
  1
AC1014
  9
$ACADMAINTVER
 70
     9
  9
$DWGCODEPAGE
  3
ANSI_932
  9
$INSBASE
 10
0.0
 20
0.0
 30
0.0
  9
$EXTMIN
 10
0.0
 20
0.0
 30
0.0
  9
$EXTMAX
 10
361.999998552
 20
282.9999999999999
 30
0.0
  9
$LIMMIN
 10
0.0
 20
0.0
  9
$LIMMAX
 10
181.0
 20
283.0
  9
$ORTHOMODE
 70
     1
  9
$REGENMODE
 70
     1
  9
$FILLMODE
 70
     1
  9
$QTEXTMODE
 70
     0
  9
$MIRRTEXT
 70
     0
  9
$DRAGMODE
 70
     2
  9
$LTSCALE
 40
5.0
  9
$OSMODE
 70
   167
  9
$ATTMODE
 70
     1
  9
$TEXTSIZE
 40
3.0
  9
$TRACEWID
 40
0.05
  9
$TEXTSTYLE
  7
BIGFONT
  9
$CLAYER
  8
JISSEN
  9
$CELTYPE
  6
BYLAYER
  9
$CECOLOR
 62
   256
  9
$CELTSCALE
 40
1.0
  9
$DELOBJ
 70
     1
  9
$DISPSILH
 70
     0
  9
$DIMSCALE
 40
1.0
  9
$DIMASZ
 40
1.5
  9
$DIMEXO
 40
1.0
  9
$DIMDLI
 40
6.0
  9
$DIMRND
 40
0.0
  9
$DIMDLE
 40
0.0
  9
$DIMEXE
 40
1.0
  9
$DIMTP
 40
0.0
  9
$DIMTM
 40
0.0
  9
$DIMTXT
 40
3.0
  9
$DIMCEN
 40
1.0
  9
$DIMTSZ
 40
0.0
  9
$DIMTOL
 70
     0
  9
$DIMLIM
 70
     0
  9
$DIMTIH
 70
     0
  9
$DIMTOH
 70
     0
  9
$DIMSE1
 70
     0
  9
$DIMSE2
 70
     0
  9
$DIMTAD
 70
     0
  9
$DIMZIN
 70
     8
  9
$DIMBLK
  1
ARROW
  9
$DIMASO
 70
     0
  9
$DIMSHO
 70
     0
  9
$DIMPOST
  1

  9
$DIMAPOST
  1

  9
$DIMALT
 70
     0
  9
$DIMALTD
 70
     2
  9
$DIMALTF
 40
25.4
  9
$DIMLFAC
 40
1.0
  9
$DIMTOFL
 70
     1
  9
$DIMTVP
 40
0.0
  9
$DIMTIX
 70
     0
  9
$DIMSOXD
 70
     0
  9
$DIMSAH
 70
     0
  9
$DIMBLK1
  1
ARROWANG
  9
$DIMBLK2
  1
ARROWANG
  9
$DIMSTYLE
  2
IMAO
  9
$DIMCLRD
 70
     0
  9
$DIMCLRE
 70
     0
  9
$DIMCLRT
 70
     0
  9
$DIMTFAC
 40
1.0
  9
$DIMGAP
 40
0.09
  9
$DIMJUST
 70
     0
  9
$DIMSD1
 70
     0
  9
$DIMSD2
 70
     0
  9
$DIMTOLJ
 70
     1
  9
$DIMTZIN
 70
     8
  9
$DIMALTZ
 70
     8
  9
$DIMALTTZ
 70
     8
  9
$DIMFIT
 70
     5
  9
$DIMUPT
 70
     0
  9
$DIMUNIT
 70
     2
  9
$DIMDEC
 70
     2
  9
$DIMTDEC
 70
     2
  9
$DIMALTU
 70
     2
  9
$DIMALTTD
 70
     2
  9
$DIMTXSTY
  7
BIGFONT
  9
$DIMAUNIT
 70
     0
  9
$LUNITS
 70
     2
  9
$LUPREC
 70
     2
  9
$SKETCHINC
 40
0.1
  9
$FILLETRAD
 40
0.2
  9
$AUNITS
 70
     0
  9
$AUPREC
 70
     2
  9
$MENU
  1
stdr12j
  9
$ELEVATION
 40
0.0
  9
$PELEVATION
 40
0.0
  9
$THICKNESS
 40
0.0
  9
$LIMCHECK
 70
     0
  9
$BLIPMODE
 70
     0
  9
$CHAMFERA
 40
0.0
  9
$CHAMFERB
 40
0.0
  9
$CHAMFERC
 40
0.0
  9
$CHAMFERD
 40
0.0
  9
$SKPOLY
 70
     0
  9
$TDCREATE
 40
2450617.453041203
  9
$TDUPDATE
 40
2453334.771202789
  9
$TDINDWG
 40
0.1477176042
  9
$TDUSRTIMER
 40
0.1477176042
  9
$USRTIMER
 70
     1
  9
$ANGBASE
 50
0.0
  9
$ANGDIR
 70
     0
  9
$PDMODE
 70
     0
  9
$PDSIZE
 40
0.0
  9
$PLINEWID
 40
0.0
  9
$COORDS
 70
     2
  9
$SPLFRAME
 70
     0
  9
$SPLINETYPE
 70
     6
  9
$SPLINESEGS
 70
     8
  9
$ATTDIA
 70
     0
  9
$ATTREQ
 70
     1
  9
$HANDLING
 70
 22529
  9
$HANDSEED
  5
EF7C88C5A
  9
$SURFTAB1
 70
     6
  9
$SURFTAB2
 70
     6
  9
$SURFTYPE
 70
     6
  9
$SURFU
 70
     6
  9
$SURFV
 70
     6
  9
$UCSNAME
  2

  9
$UCSORG
 10
0.0
 20
0.0
 30
0.0
  9
$UCSXDIR
 10
1.0
 20
0.0
 30
0.0
  9
$UCSYDIR
 10
0.0
 20
1.0
 30
0.0
  9
$PUCSNAME
  2

  9
$PUCSORG
 10
0.0
 20
0.0
 30
0.0
  9
$PUCSXDIR
 10
1.0
 20
0.0
 30
0.0
  9
$PUCSYDIR
 10
0.0
 20
1.0
 30
0.0
  9
$USERI1
 70
     0
  9
$USERI2
 70
     1
  9
$USERI3
 70
     1
  9
$USERI4
 70
     3
  9
$USERI5
 70
     0
  9
$USERR1
 40
1.0
  9
$USERR2
 40
3.0
  9
$USERR3
 40
3.0
  9
$USERR4
 40
1.5
  9
$USERR5
 40
8.0
  9
$WORLDVIEW
 70
     1
  9
$SHADEDGE
 70
     3
  9
$SHADEDIF
 70
    70
  9
$TILEMODE
 70
     1
  9
$MAXACTVP
 70
    16
  9
$PINSBASE
 10
0.0
 20
0.0
 30
0.0
  9
$PLIMCHECK
 70
     0
  9
$PEXTMIN
 10
1.000000000000000E+20
 20
1.000000000000000E+20
 30
1.000000000000000E+20
  9
$PEXTMAX
 10
-1.000000000000000E+20
 20
-1.000000000000000E+20
 30
-1.000000000000000E+20
  9
$PLIMMIN
 10
0.0
 20
0.0
  9
$PLIMMAX
 10
12.0
 20
9.0
  9
$UNITMODE
 70
     0
  9
$VISRETAIN
 70
     0
  9
$PLINEGEN
 70
     0
  9
$PSLTSCALE
 70
     0
  9
$TREEDEPTH
 70
  3020
  9
$PICKSTYLE
 70
     1
  9
$CMLSTYLE
  2
STANDARD
  9
$CMLJUST
 70
     0
  9
$CMLSCALE
 40
1.0
  9
$PROXYGRAPHICS
 70
     1
  9
$MEASUREMENT
 70
     0
  0
ENDSEC
  0
SECTION
  2
CLASSES
  0
CLASS
  1
LWPOLYLINE
  2
AcDbPolyline
  3
AutoCAD 2000
 90
        0
280
     0
281
     1
  0
CLASS
  1
HATCH
  2
AcDbHatch
  3
AutoCAD 2000
 90
        0
280
     0
281
     1
  0
CLASS
  1
ACDBDICTIONARYWDFLT
  2
AcDbDictionaryWithDefault
  3
AutoCAD 2000
 90
        0
280
     0
281
     0
  0
CLASS
  1
ACDBPLACEHOLDER
  2
AcDbPlaceHolder
  3
AutoCAD 2000
 90
        0
280
     0
281
     0
  0
CLASS
  1
LAYOUT
  2
AcDbLayout
  3
AutoCAD 2000
 90
        0
280
     0
281
     0
  0
CLASS
  1
LONG_TRANSACTION
  2
AcDbLongTransaction
  3
AutoCAD 2000
 90
        0
280
     0
281
     0
  0
CLASS
  1
LWPOLYLINE
  2
AcDbPolyline
  3
AutoCAD 2000
 90
        0
280
     0
281
     1
  0
CLASS
  1
HATCH
  2
AcDbHatch
  3
AutoCAD 2000
 90
        0
280
     0
281
     1
  0
CLASS
  1
XRECORD
  2
AcDbXrecord
  3
AutoCAD 2000
 90
        0
280
     0
281
     0
  0
CLASS
  1
DICTIONARYVAR
  2
AcDbDictionaryVar
  3
AutoCAD 2000
 90
        0
280
     0
281
     0
  0
CLASS
  1
LONG_TRANSACTION
  2
AcDbLongTransaction
  3
AutoCAD 2000
 90
        0
280
     0
281
     0
  0
CLASS
  1
LWPOLYLINE
  2
AcDbPolyline
  3
AutoCAD 2000
 90
        0
280
     0
281
     1
  0
CLASS
  1
HATCH
  2
AcDbHatch
  3
AutoCAD 2000
 90
        0
280
     0
281
     1
  0
CLASS
  1
XRECORD
  2
AcDbXrecord
  3
AutoCAD 2000
 90
        0
280
     0
281
     0
  0
CLASS
  1
LONG_TRANSACTION
  2
AcDbLongTransaction
  3
AutoCAD 2000
 90
        0
280
     0
281
     0
  0
CLASS
  1
LWPOLYLINE
  2
AcDbPolyline
  3
AutoCAD 2000
 90
        0
280
     0
281
     1
  0
CLASS
  1
HATCH
  2
AcDbHatch
  3
AutoCAD 2000
 90
        0
280
     0
281
     1
  0
CLASS
  1
XRECORD
  2
AcDbXrecord
  3
AutoCAD 2000
 90
        0
280
     0
281
     0
  0
CLASS
  1
LONG_TRANSACTION
  2
AcDbLongTransaction
  3
AutoCAD 2000
 90
        0
280
     0
281
     0
  0
CLASS
  1
LWPOLYLINE
  2
AcDbPolyline
  3
AutoCAD 2000
 90
        0
280
     0
281
     1
  0
CLASS
  1
HATCH
  2
AcDbHatch
  3
AutoCAD 2000
 90
        0
280
     0
281
     1
  0
CLASS
  1
XRECORD
  2
AcDbXrecord
  3
AutoCAD 2000
 90
        0
280
     0
281
     0
  0
CLASS
  1
LONG_TRANSACTION
  2
AcDbLongTransaction
  3
AutoCAD 2000
 90
        0
280
     0
281
     0
  0
CLASS
  1
LWPOLYLINE
  2
AcDbPolyline
  3
AutoCAD 2000
 90
        0
280
     0
281
     1
  0
CLASS
  1
HATCH
  2
AcDbHatch
  3
AutoCAD 2000
 90
        0
280
     0
281
     1
  0
CLASS
  1
XRECORD
  2
AcDbXrecord
  3
AutoCAD 2000
 90
        0
280
     0
281
     0
  0
CLASS
  1
LONG_TRANSACTION
  2
AcDbLongTransaction
  3
AutoCAD 2000
 90
        0
280
     0
281
     0
  0
CLASS
  1
LWPOLYLINE
  2
AcDbPolyline
  3
AutoCAD 2000
 90
        0
280
     0
281
     1
  0
CLASS
  1
HATCH
  2
AcDbHatch
  3
AutoCAD 2000
 90
        0
280
     0
281
     1
  0
CLASS
  1
XRECORD
  2
AcDbXrecord
  3
AutoCAD 2000
 90
        0
280
     0
281
     0
  0
CLASS
  1
LONG_TRANSACTION
  2
AcDbLongTransaction
  3
AutoCAD 2000
 90
        0
280
     0
281
     0
  0
CLASS
  1
LWPOLYLINE
  2
AcDbPolyline
  3
AutoCAD 2000
 90
        0
280
     0
281
     1
  0
CLASS
  1
HATCH
  2
AcDbHatch
  3
AutoCAD 2000
 90
        0
280
     0
281
     1
  0
CLASS
  1
XRECORD
  2
AcDbXrecord
  3
AutoCAD 2000
 90
        0
280
     0
281
     0
  0
CLASS
  1
LONG_TRANSACTION
  2
AcDbLongTransaction
  3
AutoCAD 2000
 90
        0
280
     0
281
     0
  0
CLASS
  1
LWPOLYLINE
  2
AcDbPolyline
  3
AutoCAD 2000
 90
        0
280
     0
281
     1
  0
CLASS
  1
HATCH
  2
AcDbHatch
  3
AutoCAD 2000
 90
        0
280
     0
281
     1
  0
CLASS
  1
XRECORD
  2
AcDbXrecord
  3
AutoCAD 2000
 90
        0
280
     0
281
     0
  0
CLASS
  1
LONG_TRANSACTION
  2
AcDbLongTransaction
  3
AutoCAD 2000
 90
        0
280
     0
281
     0
  0
CLASS
  1
LWPOLYLINE
  2
AcDbPolyline
  3
AutoCAD 2000
 90
        0
280
     0
281
     1
  0
CLASS
  1
HATCH
  2
AcDbHatch
  3
AutoCAD 2000
 90
        0
280
     0
281
     1
  0
CLASS
  1
XRECORD
  2
AcDbXrecord
  3
AutoCAD 2000
 90
        0
280
     0
281
     0
  0
CLASS
  1
LONG_TRANSACTION
  2
AcDbLongTransaction
  3
AutoCAD 2000
 90
        0
280
     0
281
     0
  0
CLASS
  1
LWPOLYLINE
  2
AcDbPolyline
  3
AutoCAD 2000
 90
        0
280
     0
281
     1
  0
CLASS
  1
HATCH
  2
AcDbHatch
  3
AutoCAD 2000
 90
        0
280
     0
281
     1
  0
CLASS
  1
XRECORD
  2
AcDbXrecord
  3
AutoCAD 2000
 90
        0
280
     0
281
     0
  0
CLASS
  1
LONG_TRANSACTION
  2
AcDbLongTransaction
  3
AutoCAD 2000
 90
        0
280
     0
281
     0
  0
CLASS
  1
LWPOLYLINE
  2
AcDbPolyline
  3
AutoCAD 2000
 90
        0
280
     0
281
     1
  0
CLASS
  1
HATCH
  2
AcDbHatch
  3
AutoCAD 2000
 90
        0
280
     0
281
     1
  0
CLASS
  1
XRECORD
  2
AcDbXrecord
  3
AutoCAD 2000
 90
        0
280
     0
281
     0
  0
CLASS
  1
LONG_TRANSACTION
  2
AcDbLongTransaction
  3
AutoCAD 2000
 90
        0
280
     0
281
     0
  0
CLASS
  1
LWPOLYLINE
  2
AcDbPolyline
  3
AutoCAD 2000
 90
        0
280
     0
281
     1
  0
CLASS
  1
HATCH
  2
AcDbHatch
  3
AutoCAD 2000
 90
        0
280
     0
281
     1
  0
CLASS
  1
XRECORD
  2
AcDbXrecord
  3
AutoCAD 2000
 90
        0
280
     0
281
     0
  0
CLASS
  1
LONG_TRANSACTION
  2
AcDbLongTransaction
  3
AutoCAD 2000
 90
        0
280
     0
281
     0
  0
CLASS
  1
LWPOLYLINE
  2
AcDbPolyline
  3
AutoCAD 2000
 90
        0
280
     0
281
     1
  0
CLASS
  1
HATCH
  2
AcDbHatch
  3
AutoCAD 2000
 90
        0
280
     0
281
     1
  0
CLASS
  1
XRECORD
  2
AcDbXrecord
  3
AutoCAD 2000
 90
        0
280
     0
281
     0
  0
CLASS
  1
LONG_TRANSACTION
  2
AcDbLongTransaction
  3
AutoCAD 2000
 90
        0
280
     0
281
     0
  0
CLASS
  1
LWPOLYLINE
  2
AcDbPolyline
  3
AutoCAD 2000
 90
        0
280
     0
281
     1
  0
CLASS
  1
HATCH
  2
AcDbHatch
  3
AutoCAD 2000
 90
        0
280
     0
281
     1
  0
CLASS
  1
XRECORD
  2
AcDbXrecord
  3
AutoCAD 2000
 90
        0
280
     0
281
     0
  0
CLASS
  1
LONG_TRANSACTION
  2
AcDbLongTransaction
  3
AutoCAD 2000
 90
        0
280
     0
281
     0
  0
CLASS
  1
LWPOLYLINE
  2
AcDbPolyline
  3
AutoCAD 2000
 90
        0
280
     0
281
     1
  0
CLASS
  1
HATCH
  2
AcDbHatch
  3
AutoCAD 2000
 90
        0
280
     0
281
     1
  0
CLASS
  1
XRECORD
  2
AcDbXrecord
  3
AutoCAD 2000
 90
        0
280
     0
281
     0
  0
ENDSEC
  0
SECTION
  2
TABLES
  0
TABLE
  2
VPORT
  5
EF7C85523
330
0
100
AcDbSymbolTable
 70
    10
  0
VPORT
  5
EF7C85567
330
EF7C85523
100
AcDbSymbolTableRecord
100
AcDbViewportTableRecord
  2
2
 70
     0
 10
0.5
 20
0.0
 11
1.0
 21
1.0
 12
0.9240312421264802
 22
1.052650975462766
 13
0.0
 23
0.0
 14
1.0
 24
1.0
 15
10.0
 25
10.0
 16
0.0
 26
0.0
 36
1.0
 17
0.0
 27
0.0
 37
0.0
 40
2.105301950925533
 41
0.8778135048231511
 42
50.0
 43
0.0
 44
0.0
 50
0.0
 51
0.0
 71
     0
 72
   500
 73
     1
 74
     1
 75
     0
 76
     0
 77
     0
 78
     0
  0
VPORT
  5
EF7C85568
330
EF7C85523
100
AcDbSymbolTableRecord
100
AcDbViewportTableRecord
  2
2
 70
     0
 10
0.0
 20
0.0
 11
0.5
 21
1.0
 12
0.9240312421264802
 22
1.052650975462766
 13
0.0
 23
0.0
 14
1.0
 24
1.0
 15
10.0
 25
10.0
 16
0.0
 26
0.0
 36
1.0
 17
0.0
 27
0.0
 37
0.0
 40
2.105301950925533
 41
0.8778135048231511
 42
50.0
 43
0.0
 44
0.0
 50
0.0
 51
0.0
 71
     0
 72
   500
 73
     1
 74
     1
 75
     0
 76
     0
 77
     0
 78
     0
  0
VPORT
  5
EF7C85569
330
EF7C85523
100
AcDbSymbolTableRecord
100
AcDbViewportTableRecord
  2
3
 70
     0
 10
0.0
 20
0.5
 11
1.0
 21
1.0
 12
2.832169994473273
 22
1.052650975462766
 13
0.0
 23
0.0
 14
1.0
 24
1.0
 15
10.0
 25
10.0
 16
0.0
 26
0.0
 36
1.0
 17
0.0
 27
0.0
 37
0.0
 40
2.105301950925533
 41
3.571428571428571
 42
50.0
 43
0.0
 44
0.0
 50
0.0
 51
0.0
 71
     0
 72
   500
 73
     1
 74
     1
 75
     0
 76
     0
 77
     0
 78
     0
  0
VPORT
  5
EF7C8556A
330
EF7C85523
100
AcDbSymbolTableRecord
100
AcDbViewportTableRecord
  2
3
 70
     0
 10
0.0
 20
0.0
 11
1.0
 21
0.5
 12
2.856741679241311
 22
1.052650975462766
 13
0.0
 23
0.0
 14
1.0
 24
1.0
 15
10.0
 25
10.0
 16
0.0
 26
0.0
 36
1.0
 17
0.0
 27
0.0
 37
0.0
 40
2.105301950925533
 41
3.594771241830065
 42
50.0
 43
0.0
 44
0.0
 50
0.0
 51
0.0
 71
     0
 72
   500
 73
     1
 74
     1
 75
     0
 76
     0
 77
     0
 78
     0
  0
VPORT
  5
EF7C8556B
330
EF7C85523
100
AcDbSymbolTableRecord
100
AcDbViewportTableRecord
  2
4
 70
     0
 10
0.5
 20
0.0
 11
1.0
 21
0.5
 12
2.886857516709719
 22
1.052650975462766
 13
0.0
 23
0.0
 14
1.0
 24
1.0
 15
10.0
 25
10.0
 16
0.0
 26
0.0
 36
1.0
 17
0.0
 27
0.0
 37
0.0
 40
4.27520703030907
 41
1.784313725490195
 42
50.0
 43
0.0
 44
0.0
 50
0.0
 51
0.0
 71
     0
 72
   500
 73
     1
 74
     1
 75
     0
 76
     0
 77
     0
 78
     0
  0
VPORT
  5
EF7C8556C
330
EF7C85523
100
AcDbSymbolTableRecord
100
AcDbViewportTableRecord
  2
4
 70
     0
 10
0.5
 20
0.5
 11
1.0
 21
1.0
 12
2.862090274555523
 22
1.052650975462766
 13
0.0
 23
0.0
 14
1.0
 24
1.0
 15
10.0
 25
10.0
 16
0.0
 26
0.0
 36
1.0
 17
0.0
 27
0.0
 37
0.0
 40
4.27520703030907
 41
1.772727272727272
 42
50.0
 43
0.0
 44
0.0
 50
0.0
 51
0.0
 71
     0
 72
   500
 73
     1
 74
     1
 75
     0
 76
     0
 77
     0
 78
     0
  0
VPORT
  5
EF7C8556D
330
EF7C85523
100
AcDbSymbolTableRecord
100
AcDbViewportTableRecord
  2
4
 70
     0
 10
0.0
 20
0.5
 11
0.5
 21
1.0
 12
2.862090274555523
 22
1.052650975462766
 13
0.0
 23
0.0
 14
1.0
 24
1.0
 15
10.0
 25
10.0
 16
0.0
 26
0.0
 36
1.0
 17
0.0
 27
0.0
 37
0.0
 40
4.27520703030907
 41
1.772727272727272
 42
50.0
 43
0.0
 44
0.0
 50
0.0
 51
0.0
 71
     0
 72
   500
 73
     1
 74
     1
 75
     0
 76
     0
 77
     0
 78
     0
  0
VPORT
  5
EF7C8556E
330
EF7C85523
100
AcDbSymbolTableRecord
100
AcDbViewportTableRecord
  2
4
 70
     0
 10
0.0
 20
0.0
 11
0.5
 21
0.5
 12
2.886857516709719
 22
1.052650975462766
 13
0.0
 23
0.0
 14
1.0
 24
1.0
 15
10.0
 25
10.0
 16
0.0
 26
0.0
 36
1.0
 17
0.0
 27
0.0
 37
0.0
 40
4.27520703030907
 41
1.784313725490195
 42
50.0
 43
0.0
 44
0.0
 50
0.0
 51
0.0
 71
     0
 72
   500
 73
     1
 74
     1
 75
     0
 76
     0
 77
     0
 78
     0
  0
VPORT
  5
EF7C88C36
330
EF7C85523
100
AcDbSymbolTableRecord
100
AcDbViewportTableRecord
  2
*ACTIVE
 70
     0
 10
0.0
 20
0.0
 11
1.0
 21
1.0
 12
262.8457629592145
 22
141.5028203951366
 13
0.0
 23
0.0
 14
1.0
 24
1.0
 15
10.0
 25
10.0
 16
0.0
 26
0.0
 36
1.0
 17
0.0
 27
0.0
 37
0.0
 40
286.2727286106247
 41
1.771962616822429
 42
50.0
 43
0.0
 44
0.0
 50
0.0
 51
0.0
 71
     0
 72
   500
 73
     1
 74
     0
 75
     0
 76
     0
 77
     0
 78
     0
  0
ENDTAB
  0
TABLE
  2
LTYPE
  5
EF7C85520
330
0
100
AcDbSymbolTable
 70
     4
  0
LTYPE
  5
EF7C8552C
330
EF7C85520
100
AcDbSymbolTableRecord
100
AcDbLinetypeTableRecord
  2
BYBLOCK
 70
     0
  3

 72
    65
 73
     0
 40
0.0
  0
LTYPE
  5
EF7C8552D
330
EF7C85520
100
AcDbSymbolTableRecord
100
AcDbLinetypeTableRecord
  2
BYLAYER
 70
     0
  3

 72
    65
 73
     0
 40
0.0
  0
LTYPE
  5
EF7C8552E
330
EF7C85520
100
AcDbSymbolTableRecord
100
AcDbLinetypeTableRecord
  2
CONTINUOUS
 70
     0
  3
実線
 72
    65
 73
     0
 40
0.0
  0
LTYPE
  5
EF7C85565
330
EF7C85520
100
AcDbSymbolTableRecord
100
AcDbLinetypeTableRecord
  2
PHANTOM
 70
     0
  3
_____ _ _ _____ _ _ _____ _ _ _____ _ _ ____
 72
    65
 73
     6
 40
2.5
 49
1.25
 74
     0
 49
-0.25
 74
     0
 49
0.25
 74
     0
 49
-0.25
 74
     0
 49
0.25
 74
     0
 49
-0.25
 74
     0
  0
LTYPE
  5
EF7C8711F
330
EF7C85520
100
AcDbSymbolTableRecord
100
AcDbLinetypeTableRecord
  2
CENTER
 70
     0
  3
____ _ ____ _ ____ _ ____ _ ____ _ ____ _ ____
 72
    65
 73
     4
 40
2.0
 49
1.25
 74
     0
 49
-0.25
 74
     0
 49
0.25
 74
     0
 49
-0.25
 74
     0
  0
LTYPE
  5
EF7C87AC6
330
EF7C85520
100
AcDbSymbolTableRecord
100
AcDbLinetypeTableRecord
  2
HIDDEN
 70
     0
  3
_ _ _ _ _ _ _ _ _ _ _ _ _ _ _ _ _ _ _ _ _ _ _
 72
    65
 73
     2
 40
0.375
 49
0.25
 74
     0
 49
-0.125
 74
     0
  0
ENDTAB
  0
TABLE
  2
LAYER
  5
EF7C8551D
330
0
100
AcDbSymbolTable
 70
    10
  0
LAYER
  5
EF7C85529
330
EF7C8551D
100
AcDbSymbolTableRecord
100
AcDbLayerTableRecord
  2
0
 70
     0
 62
     6
  6
CONTINUOUS
  0
LAYER
  5
EF7C85574
330
EF7C8551D
100
AcDbSymbolTableRecord
100
AcDbLayerTableRecord
  2
NITEN
 70
     0
 62
     2
  6
PHANTOM
  0
LAYER
  5
EF7C85575
330
EF7C8551D
100
AcDbSymbolTableRecord
100
AcDbLayerTableRecord
  2
HATCH
 70
     0
 62
     4
  6
CONTINUOUS
  0
LAYER
  5
EF7C85576
330
EF7C8551D
100
AcDbSymbolTableRecord
100
AcDbLayerTableRecord
  2
SUNPOU
 70
     0
 62
     3
  6
CONTINUOUS
  0
LAYER
  5
EF7C85577
330
EF7C8551D
100
AcDbSymbolTableRecord
100
AcDbLayerTableRecord
  2
TEXT
 70
     0
 62
     3
  6
CONTINUOUS
  0
LAYER
  5
EF7C85578
330
EF7C8551D
100
AcDbSymbolTableRecord
100
AcDbLayerTableRecord
  2
SAISEN
 70
     0
 62
     4
  6
CONTINUOUS
  0
LAYER
  5
EF7C85579
330
EF7C8551D
100
AcDbSymbolTableRecord
100
AcDbLayerTableRecord
  2
JISSEN
 70
     0
 62
     7
  6
CONTINUOUS
  0
LAYER
  5
EF7C8557D
330
EF7C8551D
100
AcDbSymbolTableRecord
100
AcDbLayerTableRecord
  2
WAKU
 70
     0
 62
     5
  6
CONTINUOUS
  0
LAYER
  5
EF7C87120
330
EF7C8551D
100
AcDbSymbolTableRecord
100
AcDbLayerTableRecord
  2
ITTEN
 70
     0
 62
     1
  6
CENTER
  0
LAYER
  5
EF7C87AC7
330
EF7C8551D
100
AcDbSymbolTableRecord
100
AcDbLayerTableRecord
  2
TENSEN
 70
     0
 62
     2
  6
HIDDEN
  0
ENDTAB
  0
TABLE
  2
STYLE
  5
EF7C8551E
330
0
100
AcDbSymbolTable
 70
     3
  0
STYLE
  5
EF7C8552A
330
EF7C8551E
100
AcDbSymbolTableRecord
100
AcDbTextStyleTableRecord
  2
STANDARD
 70
     0
 40
0.0
 41
1.0
 50
0.0
 71
     0
 42
1.5
  3
SIMPLEX
  4

  0
STYLE
  5
EF7C85558
330
EF7C8551E
100
AcDbSymbolTableRecord
100
AcDbTextStyleTableRecord
  2
K
 70
     0
 40
0.0
 41
1.0
 50
0.0
 71
     0
 42
3.0
  3
ROMANS
  4
BIGFONT
  0
STYLE
  5
EF7C8555B
330
EF7C8551E
100
AcDbSymbolTableRecord
100
AcDbTextStyleTableRecord
  2
BIGFONT
 70
     0
 40
0.0
 41
1.0
 50
0.0
 71
     0
 42
3.0
  3
txt.shx
  4
bigfont
  0
ENDTAB
  0
TABLE
  2
VIEW
  5
EF7C85521
330
0
100
AcDbSymbolTable
 70
     0
  0
ENDTAB
  0
TABLE
  2
UCS
  5
EF7C85522
330
0
100
AcDbSymbolTable
 70
     0
  0
ENDTAB
  0
TABLE
  2
APPID
  5
EF7C85524
330
0
100
AcDbSymbolTable
 70
     1
  0
APPID
  5
EF7C8552B
330
EF7C85524
100
AcDbSymbolTableRecord
100
AcDbRegAppTableRecord
  2
ACAD
 70
     0
  0
ENDTAB
  0
TABLE
  2
DIMSTYLE
  5
EF7C85525
330
0
100
AcDbSymbolTable
 70
     1
  0
DIMSTYLE
105
EF7C85571
330
EF7C85525
100
AcDbSymbolTableRecord
100
AcDbDimStyleTableRecord
  2
IMAO
 70
     0
  3

  4

  5
ARROWANG
  6
ARROWANG
  7
ARROWANG
 40
1.0
 41
1.5
 42
1.0
 43
6.0
 44
1.0
 45
0.0
 46
0.0
 47
495.0
 48
0.0
140
3.0
141
0.0
142
0.0
143
25.4
144
1.0
145
0.0
146
1.0
147
0.09
 71
     0
 72
     0
 73
     0
 74
     0
 75
     0
 76
     0
 77
     1
 78
     8
170
     0
171
     2
172
     1
173
     0
174
     1
175
     0
176
     0
177
     0
178
     0
270
     2
271
     2
272
     2
273
     2
274
     2
340
EF7C8555B
275
     0
280
     0
281
     0
282
     0
283
     1
284
     8
285
     8
286
     8
287
     5
288
     0
  0
ENDTAB
  0
TABLE
  2
BLOCK_RECORD
  5
EF7C8551C
330
0
100
AcDbSymbolTable
 70
    10
  0
BLOCK_RECORD
  5
EF7C85532
102
{ACAD_XDICTIONARY
360
EF7C85D9A
102
}
330
EF7C8551C
100
AcDbSymbolTableRecord
100
AcDbBlockTableRecord
  2
*MODEL_SPACE
  0
BLOCK_RECORD
  5
EF7C8552F
102
{ACAD_XDICTIONARY
360
EF7C85D98
102
}
330
EF7C8551C
100
AcDbSymbolTableRecord
100
AcDbBlockTableRecord
  2
*PAPER_SPACE
  0
BLOCK_RECORD
  5
EF7C85537
330
EF7C8551C
100
AcDbSymbolTableRecord
100
AcDbBlockTableRecord
  2
ARROW
  0
BLOCK_RECORD
  5
EF7C8553B
330
EF7C8551C
100
AcDbSymbolTableRecord
100
AcDbBlockTableRecord
  2
WAKU
  0
BLOCK_RECORD
  5
EF7C8553D
330
EF7C8551C
100
AcDbSymbolTableRecord
100
AcDbBlockTableRecord
  2
*X2
  0
BLOCK_RECORD
  5
EF7C8553E
330
EF7C8551C
100
AcDbSymbolTableRecord
100
AcDbBlockTableRecord
  2
STDGX5
  0
BLOCK_RECORD
  5
EF7C8553F
330
EF7C8551C
100
AcDbSymbolTableRecord
100
AcDbBlockTableRecord
  2
*X4
  0
BLOCK_RECORD
  5
EF7C85540
330
EF7C8551C
100
AcDbSymbolTableRecord
100
AcDbBlockTableRecord
  2
*X5
  0
BLOCK_RECORD
  5
EF7C85541
330
EF7C8551C
100
AcDbSymbolTableRecord
100
AcDbBlockTableRecord
  2
*X6
  0
BLOCK_RECORD
  5
EF7C85542
330
EF7C8551C
100
AcDbSymbolTableRecord
100
AcDbBlockTableRecord
  2
*X7
  0
BLOCK_RECORD
  5
EF7C85543
330
EF7C8551C
100
AcDbSymbolTableRecord
100
AcDbBlockTableRecord
  2
ARROWANG
  0
BLOCK_RECORD
  5
EF7C85544
330
EF7C8551C
100
AcDbSymbolTableRecord
100
AcDbBlockTableRecord
  2
STDR12J
  0
ENDTAB
  0
ENDSEC
  0
SECTION
  2
BLOCKS
  0
BLOCK
  5
EF7C85580
330
EF7C85532
100
AcDbEntity
  8
0
100
AcDbBlockBegin
  2
*MODEL_SPACE
 70
     0
 10
0.0
 20
0.0
 30
0.0
  3
*MODEL_SPACE
  1

  0
ENDBLK
  5
EF7C85581
330
EF7C85532
100
AcDbEntity
  8
0
100
AcDbBlockEnd
  0
BLOCK
  5
EF7C8557E
330
EF7C8552F
100
AcDbEntity
 67
     1
  8
0
100
AcDbBlockBegin
  2
*PAPER_SPACE
 70
     0
 10
0.0
 20
0.0
 30
0.0
  3
*PAPER_SPACE
  1

  0
ENDBLK
  5
EF7C8557F
330
EF7C8552F
100
AcDbEntity
 67
     1
  8
0
100
AcDbBlockEnd
  0
BLOCK
  5
499
330
EF7C85537
100
AcDbEntity
  8
0
100
AcDbBlockBegin
  2
ARROW
 70
     0
 10
1.0
 20
0.5
 30
0.0
  3
ARROW
  1

  0
LINE
  5
49A
330
EF7C85537
100
AcDbEntity
  8
0
100
AcDbLine
 10
1.0
 20
0.5
 30
0.0
 11
-0.5000000000000214
 21
0.0980762113533018
 31
0.0
  0
LINE
  5
49B
330
EF7C85537
100
AcDbEntity
  8
0
100
AcDbLine
 10
0.0
 20
0.5
 30
0.0
 11
1.0
 21
0.5
 31
0.0
  0
LINE
  5
49C
330
EF7C85537
100
AcDbEntity
  8
0
100
AcDbLine
 10
1.0
 20
0.5
 30
0.0
 11
-0.4999999999999574
 21
0.9019237886467408
 31
0.0
  0
ENDBLK
  5
49D
330
EF7C85537
100
AcDbEntity
  8
0
100
AcDbBlockEnd
  0
BLOCK
  5
4A7
330
EF7C8553B
100
AcDbEntity
  8
0
100
AcDbBlockBegin
  2
WAKU
 70
     0
 10
0.0
 20
0.0
 30
0.0
  3
WAKU
  1

  0
LINE
  5
4A8
330
EF7C8553B
100
AcDbEntity
  8
WAKU
100
AcDbLine
 10
0.999999996
 20
0.0
 30
0.0
 11
0.999999996
 21
0.9999999999999998
 31
0.0
  0
LINE
  5
4A9
330
EF7C8553B
100
AcDbEntity
  8
WAKU
100
AcDbLine
 10
0.0
 20
0.9999999999999998
 30
0.0
 11
0.999999996
 21
0.9999999999999998
 31
0.0
  0
LINE
  5
4AA
330
EF7C8553B
100
AcDbEntity
  8
WAKU
100
AcDbLine
 10
0.999999996
 20
0.0
 30
0.0
 11
0.0
 21
0.0
 31
0.0
  0
LINE
  5
4AB
330
EF7C8553B
100
AcDbEntity
  8
WAKU
100
AcDbLine
 10
0.0
 20
0.0
 30
0.0
 11
0.0
 21
0.9999999999999998
 31
0.0
  0
ENDBLK
  5
4AC
330
EF7C8553B
100
AcDbEntity
  8
0
100
AcDbBlockEnd
  0
BLOCK
  5
2764
330
EF7C8553D
100
AcDbEntity
  8
0
100
AcDbBlockBegin
  2
*X2
 70
     1
 10
0.0
 20
0.0
 30
0.0
  3
*X2
  1

  0
ENDBLK
  5
2765
330
EF7C8553D
100
AcDbEntity
  8
0
100
AcDbBlockEnd
  0
BLOCK
  5
2766
330
EF7C8553E
100
AcDbEntity
  8
0
100
AcDbBlockBegin
  2
STDGX5
 70
     0
 10
0.0
 20
0.0
 30
0.0
  3
STDGX5
  1

  0
ENDBLK
  5
2767
330
EF7C8553E
100
AcDbEntity
  8
0
100
AcDbBlockEnd
  0
BLOCK
  5
2F5A
330
EF7C8553F
100
AcDbEntity
  8
0
100
AcDbBlockBegin
  2
*X4
 70
     1
 10
0.0
 20
0.0
 30
0.0
  3
*X4
  1

  0
ENDBLK
  5
2F5B
330
EF7C8553F
100
AcDbEntity
  8
0
100
AcDbBlockEnd
  0
BLOCK
  5
32BB
330
EF7C85540
100
AcDbEntity
  8
0
100
AcDbBlockBegin
  2
*X5
 70
     1
 10
0.0
 20
0.0
 30
0.0
  3
*X5
  1

  0
ENDBLK
  5
32BC
330
EF7C85540
100
AcDbEntity
  8
0
100
AcDbBlockEnd
  0
BLOCK
  5
372F
330
EF7C85541
100
AcDbEntity
  8
0
100
AcDbBlockBegin
  2
*X6
 70
     1
 10
0.0
 20
0.0
 30
0.0
  3
*X6
  1

  0
ENDBLK
  5
3730
330
EF7C85541
100
AcDbEntity
  8
0
100
AcDbBlockEnd
  0
BLOCK
  5
3A6D
330
EF7C85542
100
AcDbEntity
  8
0
100
AcDbBlockBegin
  2
*X7
 70
     1
 10
0.0
 20
0.0
 30
0.0
  3
*X7
  1

  0
ENDBLK
  5
3A6E
330
EF7C85542
100
AcDbEntity
  8
0
100
AcDbBlockEnd
  0
BLOCK
  5
4CC9
330
EF7C85543
100
AcDbEntity
  8
0
100
AcDbBlockBegin
  2
ARROWANG
 70
     0
 10
0.0
 20
0.0
 30
0.0
  3
ARROWANG
  1

  0
LINE
  5
4CCA
330
EF7C85543
100
AcDbEntity
  8
SUNPOU
100
AcDbLine
 10
0.0
 20
0.0
 30
0.0
 11
-1.499999999999957
 21
0.4019237886467409
 31
0.0
  0
LINE
  5
4CCB
330
EF7C85543
100
AcDbEntity
  8
SUNPOU
100
AcDbLine
 10
0.0
 20
0.0
 30
0.0
 11
-1.500000000000028
 21
-0.4019237886467124
 31
0.0
  0
ENDBLK
  5
4CCC
330
EF7C85543
100
AcDbEntity
  8
0
100
AcDbBlockEnd
  0
BLOCK
  5
4CCD
330
EF7C85544
100
AcDbEntity
  8
0
100
AcDbBlockBegin
  2
STDR12J
 70
     0
 10
0.0
 20
0.0
 30
0.0
  3
STDR12J
  1

  0
ENDBLK
  5
4CF2
330
EF7C85544
100
AcDbEntity
  8
0
100
AcDbBlockEnd
  0
ENDSEC
  0
SECTION
  2
ENTITIES
  0
TEXT
  5
1
330
EF7C85532
100
AcDbEntity
  8
SUNPOU
100
AcDbText
 10
95.05869565217389
 20
43.7966872748706
 30
0.0
 40
1.5
  1
                          
100
AcDbText
  0
TEXT
  5
2
330
EF7C85532
100
AcDbEntity
  8
SUNPOU
100
AcDbText
 10
332.2793466870868
 20
21.8983436374353
 30
0.0
 40
0.75
  1
                          
100
AcDbText
  0
TEXT
  5
1A
330
EF7C85532
100
AcDbEntity
  8
SUNPOU
100
AcDbText
 10
289.9834441000535
 20
43.7966872748706
 30
0.0
 40
1.5
  1
                          
100
AcDbText
  0
TEXT
  5
1B
330
EF7C85532
100
AcDbEntity
  8
SUNPOU
100
AcDbText
 10
527.2040951349665
 20
21.8983436374353
 30
0.0
 40
0.75
  1
                          
100
AcDbText
  0
TEXT
  5
1C
330
EF7C85532
100
AcDbEntity
  8
SUNPOU
100
AcDbText
 10
490.6272568090836
 20
43.79668727487057
 30
0.0
 40
1.5
  1
                          
100
AcDbText
  0
TEXT
  5
1D
330
EF7C85532
100
AcDbEntity
  8
SUNPOU
100
AcDbText
 10
727.8479078439966
 20
21.89834363743527
 30
0.0
 40
0.75
  1
                          
100
AcDbText
  0
INSERT
  5
1E
330
EF7C85532
100
AcDbEntity
  8
HATCH
100
AcDbBlockReference
  2
*X2
 10
194.9247484478796
 20
0.0
 30
0.0
  0
TEXT
  5
1F
330
EF7C85532
100
AcDbEntity
  8
SUNPOU
100
AcDbText
 10
493.0101992368964
 20
43.7966872748706
 30
0.0
 40
1.5
  1
                          
100
AcDbText
  0
TEXT
  5
20
330
EF7C85532
100
AcDbEntity
  8
SUNPOU
100
AcDbText
 10
730.2308502718094
 20
21.8983436374353
 30
0.0
 40
0.75
  1
                          
100
AcDbText
  0
TEXT
  5
21
330
EF7C85532
100
AcDbEntity
  8
SUNPOU
100
AcDbText
 10
482.0486607753579
 20
43.7966872748706
 30
0.0
 40
1.5
  1
                          
100
AcDbText
  0
TEXT
  5
22
330
EF7C85532
100
AcDbEntity
  8
SUNPOU
100
AcDbText
 10
719.269311810271
 20
21.8983436374353
 30
0.0
 40
0.75
  1
                          
100
AcDbText
  0
INSERT
  5
25
330
EF7C85532
100
AcDbEntity
  8
JISSEN
100
AcDbBlockReference
  2
STDGX5
 10
0.0
 20
0.0
 30
0.0
  0
TEXT
  5
60
330
EF7C85532
100
AcDbEntity
  8
SUNPOU
100
AcDbText
 10
274.0586949361738
 20
43.7966872748706
 30
0.0
 40
1.5
  1
                          
100
AcDbText
  0
TEXT
  5
61
330
EF7C85532
100
AcDbEntity
  8
SUNPOU
100
AcDbText
 10
511.2793459710869
 20
21.8983436374353
 30
0.0
 40
0.75
  1
                          
100
AcDbText
  0
TEXT
  5
62
330
EF7C85532
100
AcDbEntity
  8
SUNPOU
100
AcDbText
 10
474.702507645204
 20
43.79668727487057
 30
0.0
 40
1.5
  1
                          
100
AcDbText
  0
TEXT
  5
63
330
EF7C85532
100
AcDbEntity
  8
SUNPOU
100
AcDbText
 10
711.923158680117
 20
21.89834363743527
 30
0.0
 40
0.75
  1
                          
100
AcDbText
  0
INSERT
  5
64
330
EF7C85532
100
AcDbEntity
  8
HATCH
100
AcDbBlockReference
  2
*X4
 10
178.999999284
 20
0.0
 30
0.0
  0
TEXT
  5
65
330
EF7C85532
100
AcDbEntity
  8
SUNPOU
100
AcDbText
 10
477.0854500730167
 20
43.7966872748706
 30
0.0
 40
1.5
  1
                          
100
AcDbText
  0
TEXT
  5
66
330
EF7C85532
100
AcDbEntity
  8
SUNPOU
100
AcDbText
 10
714.3061011079298
 20
21.8983436374353
 30
0.0
 40
0.75
  1
                          
100
AcDbText
  0
TEXT
  5
67
330
EF7C85532
100
AcDbEntity
  8
SUNPOU
100
AcDbText
 10
466.1239116114783
 20
43.7966872748706
 30
0.0
 40
1.5
  1
                          
100
AcDbText
  0
TEXT
  5
68
330
EF7C85532
100
AcDbEntity
  8
SUNPOU
100
AcDbText
 10
703.3445626463913
 20
21.8983436374353
 30
0.0
 40
0.75
  1
                          
100
AcDbText
  0
INSERT
  5
69
330
EF7C85532
100
AcDbEntity
  8
TEXT
100
AcDbBlockReference
  2
STDGX5
 10
178.999999284
 20
0.0
 30
0.0
  0
TEXT
  5
6A
330
EF7C85532
100
AcDbEntity
  8
SUNPOU
100
AcDbText
 10
453.0586949361739
 20
43.7966872748706
 30
0.0
 40
1.5
  1
                          
100
AcDbText
  0
TEXT
  5
6B
330
EF7C85532
100
AcDbEntity
  8
SUNPOU
100
AcDbText
 10
690.279345971087
 20
21.8983436374353
 30
0.0
 40
0.75
  1
                          
100
AcDbText
  0
TEXT
  5
6C
330
EF7C85532
100
AcDbEntity
  8
SUNPOU
100
AcDbText
 10
647.9834433840535
 20
43.7966872748706
 30
0.0
 40
1.5
  1
                          
100
AcDbText
  0
TEXT
  5
6D
330
EF7C85532
100
AcDbEntity
  8
SUNPOU
100
AcDbText
 10
885.2040944189665
 20
21.8983436374353
 30
0.0
 40
0.75
  1
                          
100
AcDbText
  0
TEXT
  5
6E
330
EF7C85532
100
AcDbEntity
  8
SUNPOU
100
AcDbText
 10
848.6272560930835
 20
43.79668727487057
 30
0.0
 40
1.5
  1
                          
100
AcDbText
  0
TEXT
  5
6F
330
EF7C85532
100
AcDbEntity
  8
SUNPOU
100
AcDbText
 10
1085.847907127996
 20
21.89834363743527
 30
0.0
 40
0.75
  1
                          
100
AcDbText
  0
INSERT
  5
70
330
EF7C85532
100
AcDbEntity
  8
HATCH
100
AcDbBlockReference
  2
*X5
 10
552.9247477318797
 20
0.0
 30
0.0
  0
TEXT
  5
71
330
EF7C85532
100
AcDbEntity
  8
SUNPOU
100
AcDbText
 10
851.0101985208963
 20
43.7966872748706
 30
0.0
 40
1.5
  1
                          
100
AcDbText
  0
TEXT
  5
72
330
EF7C85532
100
AcDbEntity
  8
SUNPOU
100
AcDbText
 10
1088.230849555809
 20
21.8983436374353
 30
0.0
 40
0.75
  1
                          
100
AcDbText
  0
TEXT
  5
73
330
EF7C85532
100
AcDbEntity
  8
SUNPOU
100
AcDbText
 10
840.048660059358
 20
43.7966872748706
 30
0.0
 40
1.5
  1
                          
100
AcDbText
  0
TEXT
  5
74
330
EF7C85532
100
AcDbEntity
  8
SUNPOU
100
AcDbText
 10
1077.269311094271
 20
21.8983436374353
 30
0.0
 40
0.75
  1
                          
100
AcDbText
  0
INSERT
  5
75
330
EF7C85532
100
AcDbEntity
  8
JISSEN
100
AcDbBlockReference
  2
STDGX5
 10
357.999999284
 20
0.0
 30
0.0
  0
TEXT
  5
76
330
EF7C85532
100
AcDbEntity
  8
SUNPOU
100
AcDbText
 10
453.0586949361739
 20
43.7966872748706
 30
0.0
 40
1.5
  1
                          
100
AcDbText
  0
TEXT
  5
77
330
EF7C85532
100
AcDbEntity
  8
SUNPOU
100
AcDbText
 10
690.279345971087
 20
21.8983436374353
 30
0.0
 40
0.75
  1
                          
100
AcDbText
  0
TEXT
  5
78
330
EF7C85532
100
AcDbEntity
  8
SUNPOU
100
AcDbText
 10
647.9834433840535
 20
43.7966872748706
 30
0.0
 40
1.5
  1
                          
100
AcDbText
  0
TEXT
  5
79
330
EF7C85532
100
AcDbEntity
  8
SUNPOU
100
AcDbText
 10
885.2040944189665
 20
21.8983436374353
 30
0.0
 40
0.75
  1
                          
100
AcDbText
  0
TEXT
  5
7A
330
EF7C85532
100
AcDbEntity
  8
SUNPOU
100
AcDbText
 10
848.6272560930835
 20
43.79668727487057
 30
0.0
 40
1.5
  1
                          
100
AcDbText
  0
TEXT
  5
7B
330
EF7C85532
100
AcDbEntity
  8
SUNPOU
100
AcDbText
 10
1085.847907127996
 20
21.89834363743527
 30
0.0
 40
0.75
  1
                          
100
AcDbText
  0
INSERT
  5
7C
330
EF7C85532
100
AcDbEntity
  8
HATCH
100
AcDbBlockReference
  2
*X6
 10
552.9247477318797
 20
0.0
 30
0.0
  0
TEXT
  5
7D
330
EF7C85532
100
AcDbEntity
  8
SUNPOU
100
AcDbText
 10
851.0101985208963
 20
43.7966872748706
 30
0.0
 40
1.5
  1
                          
100
AcDbText
  0
TEXT
  5
7E
330
EF7C85532
100
AcDbEntity
  8
SUNPOU
100
AcDbText
 10
1088.230849555809
 20
21.8983436374353
 30
0.0
 40
0.75
  1
                          
100
AcDbText
  0
TEXT
  5
7F
330
EF7C85532
100
AcDbEntity
  8
SUNPOU
100
AcDbText
 10
840.048660059358
 20
43.7966872748706
 30
0.0
 40
1.5
  1
                          
100
AcDbText
  0
TEXT
  5
80
330
EF7C85532
100
AcDbEntity
  8
SUNPOU
100
AcDbText
 10
1077.269311094271
 20
21.8983436374353
 30
0.0
 40
0.75
  1
                          
100
AcDbText
  0
INSERT
  5
81
330
EF7C85532
100
AcDbEntity
  8
JISSEN
100
AcDbBlockReference
  2
STDGX5
 10
357.999999284
 20
0.0
 30
0.0
  0
TEXT
  5
82
330
EF7C85532
100
AcDbEntity
  8
SUNPOU
100
AcDbText
 10
632.0586942201739
 20
43.7966872748706
 30
0.0
 40
1.5
  1
                          
100
AcDbText
  0
TEXT
  5
83
330
EF7C85532
100
AcDbEntity
  8
SUNPOU
100
AcDbText
 10
869.2793452550871
 20
21.8983436374353
 30
0.0
 40
0.75
  1
                          
100
AcDbText
  0
TEXT
  5
84
330
EF7C85532
100
AcDbEntity
  8
SUNPOU
100
AcDbText
 10
826.9834426680535
 20
43.7966872748706
 30
0.0
 40
1.5
  1
                          
100
AcDbText
  0
TEXT
  5
85
330
EF7C85532
100
AcDbEntity
  8
SUNPOU
100
AcDbText
 10
1064.204093702966
 20
21.8983436374353
 30
0.0
 40
0.75
  1
                          
100
AcDbText
  0
TEXT
  5
86
330
EF7C85532
100
AcDbEntity
  8
SUNPOU
100
AcDbText
 10
1027.627255377083
 20
43.79668727487057
 30
0.0
 40
1.5
  1
                          
100
AcDbText
  0
TEXT
  5
87
330
EF7C85532
100
AcDbEntity
  8
SUNPOU
100
AcDbText
 10
1264.847906411996
 20
21.89834363743527
 30
0.0
 40
0.75
  1
                          
100
AcDbText
  0
INSERT
  5
88
330
EF7C85532
100
AcDbEntity
  8
HATCH
100
AcDbBlockReference
  2
*X7
 10
731.9247470158797
 20
0.0
 30
0.0
  0
TEXT
  5
89
330
EF7C85532
100
AcDbEntity
  8
SUNPOU
100
AcDbText
 10
1030.010197804896
 20
43.7966872748706
 30
0.0
 40
1.5
  1
                          
100
AcDbText
  0
TEXT
  5
8A
330
EF7C85532
100
AcDbEntity
  8
SUNPOU
100
AcDbText
 10
1267.230848839809
 20
21.8983436374353
 30
0.0
 40
0.75
  1
                          
100
AcDbText
  0
TEXT
  5
8B
330
EF7C85532
100
AcDbEntity
  8
SUNPOU
100
AcDbText
 10
1019.048659343358
 20
43.7966872748706
 30
0.0
 40
1.5
  1
                          
100
AcDbText
  0
TEXT
  5
8C
330
EF7C85532
100
AcDbEntity
  8
SUNPOU
100
AcDbText
 10
1256.269310378271
 20
21.8983436374353
 30
0.0
 40
0.75
  1
                          
100
AcDbText
  0
INSERT
  5
8D
330
EF7C85532
100
AcDbEntity
  8
JISSEN
100
AcDbBlockReference
  2
STDGX5
 10
536.999998568
 20
0.0
 30
0.0
  0
INSERT
  5
8E
330
EF7C85532
100
AcDbEntity
  8
SUNPOU
100
AcDbBlockReference
  2
STDGX5
 10
739.0804232644236
 20
50.83533235670902
 30
0.0
 41
0.5
 42
0.5
 43
0.5
  0
INSERT
  5
8F
330
EF7C85532
100
AcDbEntity
  8
SUNPOU
100
AcDbBlockReference
  2
STDGX5
 10
726.2208210623692
 20
105.0763138619288
 30
0.0
 41
0.5
 42
0.5
 43
0.5
  0
INSERT
  5
90
330
EF7C85532
100
AcDbEntity
  8
HATCH
100
AcDbBlockReference
  2
STDGX5
 10
852.3985550581901
 20
151.7065097967401
 30
0.0
 41
0.5
 42
0.5
 43
0.5
  0
INSERT
  5
91
330
EF7C85532
100
AcDbEntity
  8
HATCH
100
AcDbBlockReference
  2
STDGX5
 10
866.6806796277285
 20
102.7017487639613
 30
0.0
 41
0.5
 42
0.5
 43
0.5
  0
INSERT
  5
92
330
EF7C85532
100
AcDbEntity
  8
TEXT
100
AcDbBlockReference
  2
STDGX5
 10
970.3434408521969
 20
102.8213468229236
 30
0.0
 41
0.5
 42
0.5
 43
0.5
  0
INSERT
  5
93
330
EF7C85532
100
AcDbEntity
  8
SUNPOU
100
AcDbBlockReference
  2
STDGX5
 10
996.1728907397869
 20
174.5475645486174
 30
0.0
 41
0.5
 42
0.5
 43
0.5
  0
INSERT
  5
94
330
EF7C85532
100
AcDbEntity
  8
TEXT
100
AcDbBlockReference
  2
STDGX5
 10
725.7513886810995
 20
124.5860190441302
 30
0.0
 41
0.5
 42
0.5
 43
0.5
  0
INSERT
  5
95
330
EF7C85532
100
AcDbEntity
  8
HATCH
100
AcDbBlockReference
  2
STDGX5
 10
777.1755722656421
 20
145.5222028932424
 30
0.0
 41
0.5
 42
0.5
 43
0.5
  0
INSERT
  5
96
330
EF7C85532
100
AcDbEntity
  8
SUNPOU
100
AcDbBlockReference
  2
STDGX5
 10
846.1963575359604
 20
112.6957974729892
 30
0.0
 41
0.5
 42
0.5
 43
0.5
  0
INSERT
  5
97
330
EF7C85532
100
AcDbEntity
  8
SUNPOU
100
AcDbBlockReference
  2
STDGX5
 10
916.6681156211122
 20
121.7330617103085
 30
0.0
 41
0.5
 42
0.5
 43
0.5
  0
INSERT
  5
98
330
EF7C85532
100
AcDbEntity
  8
TEXT
100
AcDbBlockReference
  2
STDGX5
 10
983.7969461426769
 20
84.61852224867081
 30
0.0
 41
0.5
 42
0.5
 43
0.5
  0
INSERT
  5
99
330
EF7C85532
100
AcDbEntity
  8
HATCH
100
AcDbBlockReference
  2
STDGX5
 10
974.2802715042099
 20
136.4849386559231
 30
0.0
 41
0.5
 42
0.5
 43
0.5
  0
INSERT
  5
9A
330
EF7C85532
100
AcDbEntity
  8
SUNPOU
100
AcDbBlockReference
  2
STDGX5
 10
749.7834008663489
 20
95.14721172234004
 30
0.0
 41
0.5
 42
0.5
 43
0.5
  0
INSERT
  5
9B
330
EF7C85532
100
AcDbEntity
  8
SUNPOU
100
AcDbBlockReference
  2
STDGX5
 10
736.9237986642947
 20
149.3881932275598
 30
0.0
 41
0.5
 42
0.5
 43
0.5
  0
INSERT
  5
9C
330
EF7C85532
100
AcDbEntity
  8
HATCH
100
AcDbBlockReference
  2
STDGX5
 10
863.1015326601156
 20
196.0183891623711
 30
0.0
 41
0.5
 42
0.5
 43
0.5
  0
INSERT
  5
9D
330
EF7C85532
100
AcDbEntity
  8
HATCH
100
AcDbBlockReference
  2
STDGX5
 10
877.3836572296538
 20
147.0136281295923
 30
0.0
 41
0.5
 42
0.5
 43
0.5
  0
INSERT
  5
9E
330
EF7C85532
100
AcDbEntity
  8
TEXT
100
AcDbBlockReference
  2
STDGX5
 10
981.0464184541224
 20
147.1332261885546
 30
0.0
 41
0.5
 42
0.5
 43
0.5
  0
INSERT
  5
9F
330
EF7C85532
100
AcDbEntity
  8
SUNPOU
100
AcDbBlockReference
  2
STDGX5
 10
1006.875868341712
 20
218.8594439142484
 30
0.0
 41
0.5
 42
0.5
 43
0.5
  0
INSERT
  5
A0
330
EF7C85532
100
AcDbEntity
  8
TEXT
100
AcDbBlockReference
  2
STDGX5
 10
736.4543662830251
 20
168.8978984097612
 30
0.0
 41
0.5
 42
0.5
 43
0.5
  0
INSERT
  5
A1
330
EF7C85532
100
AcDbEntity
  8
HATCH
100
AcDbBlockReference
  2
STDGX5
 10
787.8785498675677
 20
189.8340822588735
 30
0.0
 41
0.5
 42
0.5
 43
0.5
  0
INSERT
  5
A2
330
EF7C85532
100
AcDbEntity
  8
SUNPOU
100
AcDbBlockReference
  2
STDGX5
 10
856.899335137886
 20
157.0076768386202
 30
0.0
 41
0.5
 42
0.5
 43
0.5
  0
INSERT
  5
A3
330
EF7C85532
100
AcDbEntity
  8
SUNPOU
100
AcDbBlockReference
  2
STDGX5
 10
927.3710932230379
 20
166.0449410759395
 30
0.0
 41
0.5
 42
0.5
 43
0.5
  0
INSERT
  5
A4
330
EF7C85532
100
AcDbEntity
  8
TEXT
100
AcDbBlockReference
  2
STDGX5
 10
994.4999237446024
 20
128.9304016143018
 30
0.0
 41
0.5
 42
0.5
 43
0.5
  0
INSERT
  5
A5
330
EF7C85532
100
AcDbEntity
  8
HATCH
100
AcDbBlockReference
  2
STDGX5
 10
984.9832491061354
 20
180.7968180215541
 30
0.0
 41
0.5
 42
0.5
 43
0.5
  0
TEXT
  5
DE
330
EF7C85532
100
AcDbEntity
  8
SUNPOU
100
AcDbText
 10
274.0586949361738
 20
43.7966872748706
 30
0.0
 40
1.5
  1
                          
100
AcDbText
  0
TEXT
  5
145
330
EF7C85532
100
AcDbEntity
  8
SUNPOU
100
AcDbText
 10
511.2793459710869
 20
21.8983436374353
 30
0.0
 40
0.75
  1
                          
100
AcDbText
  0
TEXT
  5
265
330
EF7C85532
100
AcDbEntity
  8
SUNPOU
100
AcDbText
 10
474.702507645204
 20
43.79668727487057
 30
0.0
 40
1.5
  1
                          
100
AcDbText
  0
TEXT
  5
266
330
EF7C85532
100
AcDbEntity
  8
SUNPOU
100
AcDbText
 10
711.923158680117
 20
21.89834363743527
 30
0.0
 40
0.75
  1
                          
100
AcDbText
  0
INSERT
  5
2F7
330
EF7C85532
100
AcDbEntity
  8
HATCH
100
AcDbBlockReference
  2
*X4
 10
178.999999284
 20
0.0
 30
0.0
  0
TEXT
  5
31A
330
EF7C85532
100
AcDbEntity
  8
SUNPOU
100
AcDbText
 10
477.0854500730167
 20
43.7966872748706
 30
0.0
 40
1.5
  1
                          
100
AcDbText
  0
TEXT
  5
31C
330
EF7C85532
100
AcDbEntity
  8
SUNPOU
100
AcDbText
 10
714.3061011079298
 20
21.8983436374353
 30
0.0
 40
0.75
  1
                          
100
AcDbText
  0
TEXT
  5
3A6
330
EF7C85532
100
AcDbEntity
  8
TEXT
100
AcDbText
 10
100.9999992839998
 20
244.9999999999999
 30
0.0
 40
3.0
  1
 
  7
K
100
AcDbText
  0
TEXT
  5
3AB
330
EF7C85532
100
AcDbEntity
  8
SUNPOU
100
AcDbText
 10
466.1239116114783
 20
43.7966872748706
 30
0.0
 40
1.5
  1
                          
100
AcDbText
  0
TEXT
  5
3AC
330
EF7C85532
100
AcDbEntity
  8
SUNPOU
100
AcDbText
 10
703.3445626463913
 20
21.8983436374353
 30
0.0
 40
0.75
  1
                          
100
AcDbText
  0
INSERT
  5
3F6
330
EF7C85532
100
AcDbEntity
  8
TEXT
100
AcDbBlockReference
  2
STDGX5
 10
178.999999284
 20
0.0
 30
0.0
  0
TEXT
  5
3F7
330
EF7C85532
100
AcDbEntity
  8
SUNPOU
100
AcDbText
 10
453.0586949361739
 20
43.7966872748706
 30
0.0
 40
1.5
  1
                          
100
AcDbText
  0
TEXT
  5
3F8
330
EF7C85532
100
AcDbEntity
  8
SUNPOU
100
AcDbText
 10
690.279345971087
 20
21.8983436374353
 30
0.0
 40
0.75
  1
                          
100
AcDbText
  0
TEXT
  5
3F9
330
EF7C85532
100
AcDbEntity
  8
SUNPOU
100
AcDbText
 10
647.9834433840535
 20
43.7966872748706
 30
0.0
 40
1.5
  1
                          
100
AcDbText
  0
TEXT
  5
3FA
330
EF7C85532
100
AcDbEntity
  8
SUNPOU
100
AcDbText
 10
885.2040944189665
 20
21.8983436374353
 30
0.0
 40
0.75
  1
                          
100
AcDbText
  0
TEXT
  5
3FB
330
EF7C85532
100
AcDbEntity
  8
SUNPOU
100
AcDbText
 10
848.6272560930835
 20
43.79668727487057
 30
0.0
 40
1.5
  1
                          
100
AcDbText
  0
TEXT
  5
3FC
330
EF7C85532
100
AcDbEntity
  8
SUNPOU
100
AcDbText
 10
1085.847907127996
 20
21.89834363743527
 30
0.0
 40
0.75
  1
                          
100
AcDbText
  0
INSERT
  5
3FD
330
EF7C85532
100
AcDbEntity
  8
HATCH
100
AcDbBlockReference
  2
*X5
 10
552.9247477318797
 20
0.0
 30
0.0
  0
TEXT
  5
3FE
330
EF7C85532
100
AcDbEntity
  8
SUNPOU
100
AcDbText
 10
851.0101985208963
 20
43.7966872748706
 30
0.0
 40
1.5
  1
                          
100
AcDbText
  0
TEXT
  5
3FF
330
EF7C85532
100
AcDbEntity
  8
SUNPOU
100
AcDbText
 10
1088.230849555809
 20
21.8983436374353
 30
0.0
 40
0.75
  1
                          
100
AcDbText
  0
TEXT
  5
400
330
EF7C85532
100
AcDbEntity
  8
SUNPOU
100
AcDbText
 10
840.048660059358
 20
43.7966872748706
 30
0.0
 40
1.5
  1
                          
100
AcDbText
  0
TEXT
  5
401
330
EF7C85532
100
AcDbEntity
  8
SUNPOU
100
AcDbText
 10
1077.269311094271
 20
21.8983436374353
 30
0.0
 40
0.75
  1
                          
100
AcDbText
  0
INSERT
  5
402
330
EF7C85532
100
AcDbEntity
  8
JISSEN
100
AcDbBlockReference
  2
STDGX5
 10
357.999999284
 20
0.0
 30
0.0
  0
TEXT
  5
409
330
EF7C85532
100
AcDbEntity
  8
SUNPOU
100
AcDbText
 10
453.0586949361739
 20
43.7966872748706
 30
0.0
 40
1.5
  1
                          
100
AcDbText
  0
TEXT
  5
40A
330
EF7C85532
100
AcDbEntity
  8
SUNPOU
100
AcDbText
 10
690.279345971087
 20
21.8983436374353
 30
0.0
 40
0.75
  1
                          
100
AcDbText
  0
TEXT
  5
41B
330
EF7C85532
100
AcDbEntity
  8
SUNPOU
100
AcDbText
 10
647.9834433840535
 20
43.7966872748706
 30
0.0
 40
1.5
  1
                          
100
AcDbText
  0
TEXT
  5
41C
330
EF7C85532
100
AcDbEntity
  8
SUNPOU
100
AcDbText
 10
885.2040944189665
 20
21.8983436374353
 30
0.0
 40
0.75
  1
                          
100
AcDbText
  0
TEXT
  5
41D
330
EF7C85532
100
AcDbEntity
  8
SUNPOU
100
AcDbText
 10
848.6272560930835
 20
43.79668727487057
 30
0.0
 40
1.5
  1
                          
100
AcDbText
  0
TEXT
  5
41E
330
EF7C85532
100
AcDbEntity
  8
SUNPOU
100
AcDbText
 10
1085.847907127996
 20
21.89834363743527
 30
0.0
 40
0.75
  1
                          
100
AcDbText
  0
INSERT
  5
41F
330
EF7C85532
100
AcDbEntity
  8
HATCH
100
AcDbBlockReference
  2
*X6
 10
552.9247477318797
 20
0.0
 30
0.0
  0
TEXT
  5
420
330
EF7C85532
100
AcDbEntity
  8
SUNPOU
100
AcDbText
 10
851.0101985208963
 20
43.7966872748706
 30
0.0
 40
1.5
  1
                          
100
AcDbText
  0
TEXT
  5
421
330
EF7C85532
100
AcDbEntity
  8
SUNPOU
100
AcDbText
 10
1088.230849555809
 20
21.8983436374353
 30
0.0
 40
0.75
  1
                          
100
AcDbText
  0
TEXT
  5
422
330
EF7C85532
100
AcDbEntity
  8
SUNPOU
100
AcDbText
 10
840.048660059358
 20
43.7966872748706
 30
0.0
 40
1.5
  1
                          
100
AcDbText
  0
TEXT
  5
423
330
EF7C85532
100
AcDbEntity
  8
SUNPOU
100
AcDbText
 10
1077.269311094271
 20
21.8983436374353
 30
0.0
 40
0.75
  1
                          
100
AcDbText
  0
INSERT
  5
424
330
EF7C85532
100
AcDbEntity
  8
JISSEN
100
AcDbBlockReference
  2
STDGX5
 10
357.999999284
 20
0.0
 30
0.0
  0
TEXT
  5
425
330
EF7C85532
100
AcDbEntity
  8
SUNPOU
100
AcDbText
 10
632.0586942201739
 20
43.7966872748706
 30
0.0
 40
1.5
  1
                          
100
AcDbText
  0
TEXT
  5
426
330
EF7C85532
100
AcDbEntity
  8
SUNPOU
100
AcDbText
 10
869.2793452550871
 20
21.8983436374353
 30
0.0
 40
0.75
  1
                          
100
AcDbText
  0
TEXT
  5
427
330
EF7C85532
100
AcDbEntity
  8
SUNPOU
100
AcDbText
 10
826.9834426680535
 20
43.7966872748706
 30
0.0
 40
1.5
  1
                          
100
AcDbText
  0
TEXT
  5
428
330
EF7C85532
100
AcDbEntity
  8
SUNPOU
100
AcDbText
 10
1064.204093702966
 20
21.8983436374353
 30
0.0
 40
0.75
  1
                          
100
AcDbText
  0
TEXT
  5
429
330
EF7C85532
100
AcDbEntity
  8
SUNPOU
100
AcDbText
 10
1027.627255377083
 20
43.79668727487057
 30
0.0
 40
1.5
  1
                          
100
AcDbText
  0
TEXT
  5
42A
330
EF7C85532
100
AcDbEntity
  8
SUNPOU
100
AcDbText
 10
1264.847906411996
 20
21.89834363743527
 30
0.0
 40
0.75
  1
                          
100
AcDbText
  0
INSERT
  5
42B
330
EF7C85532
100
AcDbEntity
  8
HATCH
100
AcDbBlockReference
  2
*X7
 10
731.9247470158797
 20
0.0
 30
0.0
  0
TEXT
  5
42C
330
EF7C85532
100
AcDbEntity
  8
SUNPOU
100
AcDbText
 10
1030.010197804896
 20
43.7966872748706
 30
0.0
 40
1.5
  1
                          
100
AcDbText
  0
TEXT
  5
42D
330
EF7C85532
100
AcDbEntity
  8
SUNPOU
100
AcDbText
 10
1267.230848839809
 20
21.8983436374353
 30
0.0
 40
0.75
  1
                          
100
AcDbText
  0
TEXT
  5
42E
330
EF7C85532
100
AcDbEntity
  8
SUNPOU
100
AcDbText
 10
1019.048659343358
 20
43.7966872748706
 30
0.0
 40
1.5
  1
                          
100
AcDbText
  0
TEXT
  5
42F
330
EF7C85532
100
AcDbEntity
  8
SUNPOU
100
AcDbText
 10
1256.269310378271
 20
21.8983436374353
 30
0.0
 40
0.75
  1
                          
100
AcDbText
  0
INSERT
  5
430
330
EF7C85532
100
AcDbEntity
  8
JISSEN
100
AcDbBlockReference
  2
STDGX5
 10
536.999998568
 20
0.0
 30
0.0
  0
INSERT
  5
43B
330
EF7C85532
100
AcDbEntity
  8
SUNPOU
100
AcDbBlockReference
  2
STDGX5
 10
739.0804232644236
 20
50.83533235670902
 30
0.0
 41
0.5
 42
0.5
 43
0.5
  0
INSERT
  5
43C
330
EF7C85532
100
AcDbEntity
  8
SUNPOU
100
AcDbBlockReference
  2
STDGX5
 10
726.2208210623692
 20
105.0763138619288
 30
0.0
 41
0.5
 42
0.5
 43
0.5
  0
INSERT
  5
43D
330
EF7C85532
100
AcDbEntity
  8
HATCH
100
AcDbBlockReference
  2
STDGX5
 10
852.3985550581901
 20
151.7065097967401
 30
0.0
 41
0.5
 42
0.5
 43
0.5
  0
INSERT
  5
43E
330
EF7C85532
100
AcDbEntity
  8
HATCH
100
AcDbBlockReference
  2
STDGX5
 10
866.6806796277285
 20
102.7017487639613
 30
0.0
 41
0.5
 42
0.5
 43
0.5
  0
INSERT
  5
43F
330
EF7C85532
100
AcDbEntity
  8
TEXT
100
AcDbBlockReference
  2
STDGX5
 10
970.3434408521969
 20
102.8213468229236
 30
0.0
 41
0.5
 42
0.5
 43
0.5
  0
INSERT
  5
440
330
EF7C85532
100
AcDbEntity
  8
SUNPOU
100
AcDbBlockReference
  2
STDGX5
 10
996.1728907397869
 20
174.5475645486174
 30
0.0
 41
0.5
 42
0.5
 43
0.5
  0
INSERT
  5
441
330
EF7C85532
100
AcDbEntity
  8
TEXT
100
AcDbBlockReference
  2
STDGX5
 10
725.7513886810995
 20
124.5860190441302
 30
0.0
 41
0.5
 42
0.5
 43
0.5
  0
INSERT
  5
442
330
EF7C85532
100
AcDbEntity
  8
HATCH
100
AcDbBlockReference
  2
STDGX5
 10
777.1755722656421
 20
145.5222028932424
 30
0.0
 41
0.5
 42
0.5
 43
0.5
  0
INSERT
  5
443
330
EF7C85532
100
AcDbEntity
  8
SUNPOU
100
AcDbBlockReference
  2
STDGX5
 10
846.1963575359604
 20
112.6957974729892
 30
0.0
 41
0.5
 42
0.5
 43
0.5
  0
INSERT
  5
444
330
EF7C85532
100
AcDbEntity
  8
SUNPOU
100
AcDbBlockReference
  2
STDGX5
 10
916.6681156211122
 20
121.7330617103085
 30
0.0
 41
0.5
 42
0.5
 43
0.5
  0
INSERT
  5
445
330
EF7C85532
100
AcDbEntity
  8
TEXT
100
AcDbBlockReference
  2
STDGX5
 10
983.7969461426769
 20
84.61852224867081
 30
0.0
 41
0.5
 42
0.5
 43
0.5
  0
INSERT
  5
446
330
EF7C85532
100
AcDbEntity
  8
HATCH
100
AcDbBlockReference
  2
STDGX5
 10
974.2802715042099
 20
136.4849386559231
 30
0.0
 41
0.5
 42
0.5
 43
0.5
  0
INSERT
  5
447
330
EF7C85532
100
AcDbEntity
  8
SUNPOU
100
AcDbBlockReference
  2
STDGX5
 10
749.7834008663489
 20
95.14721172234004
 30
0.0
 41
0.5
 42
0.5
 43
0.5
  0
INSERT
  5
448
330
EF7C85532
100
AcDbEntity
  8
SUNPOU
100
AcDbBlockReference
  2
STDGX5
 10
736.9237986642947
 20
149.3881932275598
 30
0.0
 41
0.5
 42
0.5
 43
0.5
  0
INSERT
  5
449
330
EF7C85532
100
AcDbEntity
  8
HATCH
100
AcDbBlockReference
  2
STDGX5
 10
863.1015326601156
 20
196.0183891623711
 30
0.0
 41
0.5
 42
0.5
 43
0.5
  0
INSERT
  5
44A
330
EF7C85532
100
AcDbEntity
  8
HATCH
100
AcDbBlockReference
  2
STDGX5
 10
877.3836572296538
 20
147.0136281295923
 30
0.0
 41
0.5
 42
0.5
 43
0.5
  0
INSERT
  5
44B
330
EF7C85532
100
AcDbEntity
  8
TEXT
100
AcDbBlockReference
  2
STDGX5
 10
981.0464184541224
 20
147.1332261885546
 30
0.0
 41
0.5
 42
0.5
 43
0.5
  0
INSERT
  5
44C
330
EF7C85532
100
AcDbEntity
  8
SUNPOU
100
AcDbBlockReference
  2
STDGX5
 10
1006.875868341712
 20
218.8594439142484
 30
0.0
 41
0.5
 42
0.5
 43
0.5
  0
INSERT
  5
44D
330
EF7C85532
100
AcDbEntity
  8
TEXT
100
AcDbBlockReference
  2
STDGX5
 10
736.4543662830251
 20
168.8978984097612
 30
0.0
 41
0.5
 42
0.5
 43
0.5
  0
INSERT
  5
44E
330
EF7C85532
100
AcDbEntity
  8
HATCH
100
AcDbBlockReference
  2
STDGX5
 10
787.8785498675677
 20
189.8340822588735
 30
0.0
 41
0.5
 42
0.5
 43
0.5
  0
INSERT
  5
44F
330
EF7C85532
100
AcDbEntity
  8
SUNPOU
100
AcDbBlockReference
  2
STDGX5
 10
856.899335137886
 20
157.0076768386202
 30
0.0
 41
0.5
 42
0.5
 43
0.5
  0
INSERT
  5
450
330
EF7C85532
100
AcDbEntity
  8
SUNPOU
100
AcDbBlockReference
  2
STDGX5
 10
927.3710932230379
 20
166.0449410759395
 30
0.0
 41
0.5
 42
0.5
 43
0.5
  0
INSERT
  5
451
330
EF7C85532
100
AcDbEntity
  8
TEXT
100
AcDbBlockReference
  2
STDGX5
 10
994.4999237446024
 20
128.9304016143018
 30
0.0
 41
0.5
 42
0.5
 43
0.5
  0
INSERT
  5
452
330
EF7C85532
100
AcDbEntity
  8
HATCH
100
AcDbBlockReference
  2
STDGX5
 10
984.9832491061354
 20
180.7968180215541
 30
0.0
 41
0.5
 42
0.5
 43
0.5
  0
INSERT
  5
4CF3
330
EF7C85532
100
AcDbEntity
  8
JISSEN
100
AcDbBlockReference
  2
STDR12J
 10
0.0
 20
0.0
 30
0.0
  0
INSERT
  5
EF7C87442
330
EF7C85532
100
AcDbEntity
  8
WAKU
100
AcDbBlockReference
  2
WAKU
 10
0.0
 20
0.0
 30
0.0
 41
181.0
 42
283.0
 43
181.0
  0
TEXT
  5
EF7C87443
330
EF7C85532
100
AcDbEntity
  8
SUNPOU
100
AcDbText
 10
118.423998513643
 20
7.849423898685245
 30
0.0
 40
3.0
  1
DQP   シーリングプレート取付状態
  7
K
100
AcDbText
  0
TEXT
  5
EF7C87444
330
EF7C85532
100
AcDbEntity
  8
SUNPOU
100
AcDbText
 10
118.423998513643
 20
2.849423898685245
 30
0.0
 40
3.0
  1
尺度　1/1
  7
K
100
AcDbText
  0
LINE
  5
EF7C87445
330
EF7C85532
100
AcDbEntity
  8
TEXT
100
AcDbLine
 10
128.5448280556181
 20
10.84292501940535
 30
0.0
 11
128.5448280556181
 21
7.842925019405356
 31
0.0
  0
LINE
  5
EF7C87446
330
EF7C85532
100
AcDbEntity
  8
TEXT
100
AcDbLine
 10
129.4448280556181
 20
10.84292501940535
 30
0.0
 11
129.4448280556181
 21
7.842925019405356
 31
0.0
  0
LINE
  5
EF7C87447
330
EF7C85532
100
AcDbEntity
  8
TEXT
100
AcDbLine
 10
128.0948280556181
 20
7.842925019405356
 30
0.0
 11
129.894828055618
 21
7.842925019405356
 31
0.0
  0
LINE
  5
EF7C87448
330
EF7C85532
100
AcDbEntity
  8
TEXT
100
AcDbLine
 10
128.0948280556181
 20
10.84292501940535
 30
0.0
 11
129.894828055618
 21
10.84292501940535
 31
0.0
  0
LINE
  5
EF7C87449
330
EF7C85532
100
AcDbEntity
  8
JISSEN
100
AcDbLine
 10
91.49999927599996
 20
264.9999999999999
 30
0.0
 11
180.999999276
 21
264.9999999999999
 31
0.0
  0
TEXT
  5
EF7C8744A
330
EF7C85532
100
AcDbEntity
  8
TEXT
100
AcDbText
 10
135.1999992759999
 20
278.4999999999999
 30
0.0
 40
3.0
  1
材    質
  7
K
 72
     4
 11
141.9999992759999
 21
279.9999999999999
 31
0.0
100
AcDbText
  0
LINE
  5
EF7C8744B
330
EF7C85532
100
AcDbEntity
  8
JISSEN
100
AcDbLine
 10
91.49999927599996
 20
270.9999999999999
 30
0.0
 11
180.999999276
 21
270.9999999999999
 31
0.0
  0
LINE
  5
EF7C8744C
330
EF7C85532
100
AcDbEntity
  8
JISSEN
100
AcDbLine
 10
91.49999927599996
 20
276.9999999999999
 30
0.0
 11
180.999999276
 21
276.9999999999999
 31
0.0
  0
TEXT
  5
EF7C874EA
330
EF7C85532
100
AcDbEntity
  8
TEXT
100
AcDbText
 10
102.6142849902856
 20
266.4999999999999
 30
0.0
 40
3.0
  1
シーリングプレート S
 41
0.75
  7
K
 72
     4
 11
116.4999992759999
 21
267.9999999999999
 31
0.0
100
AcDbText
  0
TEXT
  5
EF7C874EB
330
EF7C85532
100
AcDbEntity
  8
TEXT
100
AcDbText
 10
95.3830716815343
 20
266.4999999999999
 30
0.0
 40
3.0
  1
2
  7
K
 72
     4
 11
96.81164311010574
 21
267.9999999999999
 31
0.0
100
AcDbText
  0
LINE
  5
EF7C874EC
330
EF7C85532
100
AcDbEntity
  8
JISSEN
100
AcDbLine
 10
131.4999992759999
 20
282.9999999999999
 30
0.0
 11
131.4999992759999
 21
264.9999999999999
 31
0.0
  0
LINE
  5
EF7C874ED
330
EF7C85532
100
AcDbEntity
  8
JISSEN
100
AcDbLine
 10
101.4999992759999
 20
282.9999999999999
 30
0.0
 11
101.4999992759999
 21
264.9999999999999
 31
0.0
  0
LINE
  5
EF7C874EE
330
EF7C85532
100
AcDbEntity
  8
JISSEN
100
AcDbLine
 10
91.49999927599996
 20
264.9999999999999
 30
0.0
 11
91.49999927599996
 21
282.9999999999999
 31
0.0
  0
TEXT
  5
EF7C875A5
330
EF7C85532
100
AcDbEntity
  8
TEXT
100
AcDbText
 10
103.7585707045713
 20
272.642857142857
 30
0.0
 40
3.0
  1
DQP   型ヘッド
 41
0.9
  7
K
 72
     4
 11
116.4999992759999
 21
273.9999999999999
 31
0.0
100
AcDbText
  0
TEXT
  5
EF7C875A6
330
EF7C85532
100
AcDbEntity
  8
TEXT
100
AcDbText
 10
93.29999927599995
 20
278.4999999999999
 30
0.0
 40
3.0
  1
番号
  7
K
 72
     4
 11
96.49999927599996
 21
279.9999999999999
 31
0.0
100
AcDbText
  0
TEXT
  5
EF7C875A7
330
EF7C85532
100
AcDbEntity
  8
TEXT
100
AcDbText
 10
95.28571356171424
 20
272.4999999999999
 30
0.0
 40
3.0
  1
1
  7
K
 72
     4
 11
96.49999927599996
 21
273.9999999999999
 31
0.0
100
AcDbText
  0
TEXT
  5
EF7C875A8
330
EF7C85532
100
AcDbEntity
  8
TEXT
100
AcDbText
 10
107.8999992759999
 20
278.4999999999999
 30
0.0
 40
3.0
  1
名      称
  7
K
 72
     4
 11
116.4999992759999
 21
279.9999999999999
 31
0.0
100
AcDbText
  0
LINE
  5
EF7C875A9
330
EF7C85532
100
AcDbEntity
  8
TEXT
100
AcDbLine
 10
112.9166790277616
 20
272.6422245102613
 30
0.0
 11
114.7166790277615
 21
272.6422245102613
 31
0.0
  0
LINE
  5
EF7C875AA
330
EF7C85532
100
AcDbEntity
  8
TEXT
100
AcDbLine
 10
112.9166790277616
 20
275.6422245102613
 30
0.0
 11
114.7166790277615
 21
275.6422245102613
 31
0.0
  0
LINE
  5
EF7C875AB
330
EF7C85532
100
AcDbEntity
  8
TEXT
100
AcDbLine
 10
114.2666790277615
 20
275.6422245102613
 30
0.0
 11
114.2666790277615
 21
272.6422245102613
 31
0.0
  0
LINE
  5
EF7C875AC
330
EF7C85532
100
AcDbEntity
  8
TEXT
100
AcDbLine
 10
113.3666790277615
 20
275.6422245102613
 30
0.0
 11
113.3666790277615
 21
272.6422245102613
 31
0.0
  0
TEXT
  5
EF7C875AD
330
EF7C85532
100
AcDbEntity
  8
TEXT
100
AcDbText
 10
156.6795477624092
 20
266.580835176341
 30
0.0
 40
3.0
  1
1
  7
K
 72
     4
 11
157.8938334766949
 21
268.080835176341
 31
0.0
100
AcDbText
  0
TEXT
  5
EF7C875AE
330
EF7C85532
100
AcDbEntity
  8
TEXT
100
AcDbText
 10
135.2142849902856
 20
266.4999999999999
 30
0.0
 40
3.0
  1
C2801
  7
K
 72
     4
 11
141.9999992759999
 21
267.9999999999999
 31
0.0
100
AcDbText
  0
LINE
  5
EF7C875AF
330
EF7C85532
100
AcDbEntity
  8
JISSEN
100
AcDbLine
 10
163.4999992759999
 20
282.9999999999999
 30
0.0
 11
163.4999992759999
 21
264.9999999999999
 31
0.0
  0
LINE
  5
EF7C875B0
330
EF7C85532
100
AcDbEntity
  8
JISSEN
100
AcDbLine
 10
152.4999992759999
 20
264.9999999999999
 30
0.0
 11
152.4999992759999
 21
282.9999999999999
 31
0.0
  0
TEXT
  5
EF7C875B1
330
EF7C85532
100
AcDbEntity
  8
TEXT
100
AcDbText
 10
136.8249992759999
 20
274.2999999999999
 30
0.0
 40
3.0
  1
%%u      
  7
K
 72
     4
 11
141.9999992759999
 21
273.9999999999999
 31
0.0
100
AcDbText
  0
TEXT
  5
EF7C875B2
330
EF7C85532
100
AcDbEntity
  8
TEXT
100
AcDbText
 10
156.6795477624092
 20
272.4999999999999
 30
0.0
 40
3.0
  1
1
  7
K
 72
     4
 11
157.8938334766949
 21
273.9999999999999
 31
0.0
100
AcDbText
  0
TEXT
  5
EF7C875B3
330
EF7C85532
100
AcDbEntity
  8
TEXT
100
AcDbText
 10
154.7999992759999
 20
278.4999999999999
 30
0.0
 40
3.0
  1
個数
  7
K
 72
     4
 11
157.9999992759999
 21
279.9999999999999
 31
0.0
100
AcDbText
  0
TEXT
  5
EF7C875B4
330
EF7C85532
100
AcDbEntity
  8
TEXT
100
AcDbText
 10
165.6999992759999
 20
278.4999999999999
 30
0.0
 40
3.0
  1
備    考
  7
K
 72
     4
 11
172.4999992759999
 21
279.9999999999999
 31
0.0
100
AcDbText
  0
LWPOLYLINE
  5
EF7C87F77
330
EF7C85532
100
AcDbEntity
  8
NITEN
100
AcDbPolyline
 90
       15
 70
     1
 43
0.0
 10
77.90603226701958
 20
172.1113029094276
 42
0.4142135623730927
 10
79.40603226701958
 20
170.6113029094276
 10
102.5000834380161
 20
170.6113029094276
 10
104.4060322670195
 20
170.6113029094276
 42
0.4142135623730925
 10
105.9060322670195
 20
172.1113029094276
 10
105.9060322670195
 20
183.1573189356456
 42
-0.4142135623730943
 10
110.9060322670195
 20
188.1573189356456
 42
0.4142135623730951
 10
112.9060322670195
 20
190.1573189356455
 10
112.9060322670195
 20
210.6113029094276
 42
0.4142135623730948
 10
110.9060322670195
 20
212.6113029094276
 10
72.90603226701961
 20
212.6113029094276
 42
0.4142135623730951
 10
70.90603226701961
 20
210.6113029094276
 10
70.90603226701961
 20
190.1573189356455
 42
0.4142135623730951
 10
72.90603226701961
 20
188.1573189356456
 42
-0.4142135623730961
 10
77.90603226701958
 20
183.1573189356456
  0
LINE
  5
EF7C87F78
330
EF7C85532
100
AcDbEntity
  8
JISSEN
100
AcDbLine
 10
81.24251791269367
 20
168.3885921218126
 30
0.0
 11
81.62797803910738
 21
180.7226997757916
 31
0.0
  0
LINE
  5
EF7C87F79
330
EF7C85532
100
AcDbEntity
  8
SAISEN
100
AcDbLine
 10
82.82746384374517
 20
181.9221855804295
 30
0.0
 11
82.39253793875949
 21
168.0052521131239
 31
0.0
  0
LINE
  5
EF7C87F7A
330
EF7C85532
100
AcDbEntity
  8
JISSEN
100
AcDbLine
 10
102.5695466213453
 20
168.3885921218126
 30
0.0
 11
102.1840864949318
 21
180.7226997757916
 31
0.0
  0
LINE
  5
EF7C87F7B
330
EF7C85532
100
AcDbEntity
  8
SAISEN
100
AcDbLine
 10
100.9846006902938
 20
181.9221855804295
 30
0.0
 11
101.4195265952795
 21
168.0052521131239
 31
0.0
  0
ARC
  5
EF7C87F7C
330
EF7C85532
100
AcDbEntity
  8
JISSEN
100
AcDbCircle
 10
86.90603226701957
 20
150.5007540037038
 30
0.0
 40
17.0
100
AcDbArc
 50
109.7499227956426
 51
180.0
  0
CIRCLE
  5
EF7C87F7D
330
EF7C85532
100
AcDbEntity
  8
SUNPOU
100
AcDbCircle
 10
112.2834052206567
 20
103.4357535931063
 30
0.0
 40
6.0
  0
ARC
  5
EF7C87F7E
330
EF7C85532
100
AcDbEntity
  8
JISSEN
100
AcDbCircle
 10
83.90603226701959
 20
150.5007540037038
 30
0.0
 40
30.0
100
AcDbArc
 50
319.7809012554443
 51
0.0
  0
ARC
  5
EF7C87F7F
330
EF7C85532
100
AcDbEntity
  8
JISSEN
100
AcDbCircle
 10
83.90603226701959
 20
150.5007540037038
 30
0.0
 40
24.0
100
AcDbArc
 50
302.1818839204035
 51
0.0
  0
LINE
  5
EF7C87F80
330
EF7C85532
100
AcDbEntity
  8
JISSEN
100
AcDbLine
 10
95.90603226701958
 20
133.984962074344
 30
0.0
 11
95.90603226701958
 21
131.609893141953
 31
0.0
  0
LINE
  5
EF7C87F81
330
EF7C85532
100
AcDbEntity
  8
JISSEN
100
AcDbLine
 10
87.90603226701959
 20
131.609893141953
 30
0.0
 11
87.90603226701959
 21
133.984962074344
 31
0.0
  0
ARC
  5
EF7C87F82
330
EF7C85532
100
AcDbEntity
  8
JISSEN
100
AcDbCircle
 10
99.90603226701958
 20
150.5007540037038
 30
0.0
 40
24.0
100
AcDbArc
 50
180.0
 51
237.8181160795964
  0
ARC
  5
EF7C87F83
330
EF7C85532
100
AcDbEntity
  8
JISSEN
100
AcDbCircle
 10
99.90603226701958
 20
150.5007540037038
 30
0.0
 40
30.0
100
AcDbArc
 50
180.0
 51
220.2190987445557
  0
ARC
  5
EF7C87F84
330
EF7C85532
100
AcDbEntity
  8
JISSEN
100
AcDbCircle
 10
96.15603226701958
 20
131.0344369406331
 30
0.0
 40
1.0
100
AcDbArc
 50
234.4366714240494
 51
302.1818839204035
  0
LINE
  5
EF7C87F85
330
EF7C85532
100
AcDbEntity
  8
JISSEN
100
AcDbLine
 10
72.90603226701958
 20
117.8635266541729
 30
0.0
 11
110.9060322670195
 21
117.8635266541731
 31
0.0
  0
LINE
  5
EF7C87F86
330
EF7C85532
100
AcDbEntity
  8
JISSEN
100
AcDbLine
 10
110.7323840893525
 20
116.8787189011607
 30
0.0
 11
73.07968044468649
 21
116.8787189011607
 31
0.0
  0
LINE
  5
EF7C87F87
330
EF7C85532
100
AcDbEntity
  8
JISSEN
100
AcDbLine
 10
101.4265993175713
 20
116.7007540037038
 30
0.0
 11
91.90603226701957
 21
116.7007540037038
 31
0.0
  0
LINE
  5
EF7C87F88
330
EF7C85532
100
AcDbEntity
  8
JISSEN
100
AcDbLine
 10
95.31954797131348
 20
119.5007624031976
 30
0.0
 11
99.22429147461427
 21
119.5007624031977
 31
0.0
  0
LINE
  5
EF7C87F89
330
EF7C85532
100
AcDbEntity
  8
JISSEN
100
AcDbLine
 10
96.16095517650151
 20
117.863526654173
 30
0.0
 11
95.80066002106255
 21
119.1368917372372
 31
0.0
  0
LINE
  5
EF7C87F8A
330
EF7C85532
100
AcDbEntity
  8
JISSEN
100
AcDbLine
 10
81.4848402092538
 20
119.5007624031977
 30
0.0
 11
83.73924492200094
 21
119.5007624031977
 31
0.0
  0
LINE
  5
EF7C87F8B
330
EF7C85532
100
AcDbEntity
  8
JISSEN
100
AcDbLine
 10
76.99860730891365
 20
131.1293864270782
 30
0.0
 11
86.83220278238744
 21
119.5007624031977
 31
0.0
  0
LINE
  5
EF7C87F8C
330
EF7C85532
100
AcDbEntity
  8
JISSEN
100
AcDbLine
 10
74.81854360349363
 20
118.2007540037038
 30
0.0
 11
78.65603226701958
 21
118.2007540037038
 31
0.0
  0
LINE
  5
EF7C87F8D
330
EF7C85532
100
AcDbEntity
  8
JISSEN
100
AcDbLine
 10
72.90603226701958
 20
117.8635266541729
 30
0.0
 11
73.90603226701912
 21
118.0398536348811
 31
0.0
  0
LINE
  5
EF7C87F8E
330
EF7C85532
100
AcDbEntity
  8
JISSEN
100
AcDbLine
 10
73.90603226701912
 20
118.0398536348811
 30
0.0
 11
74.81854360349339
 21
118.2007540037038
 31
0.0
  0
LINE
  5
EF7C87F8F
330
EF7C85532
100
AcDbEntity
  8
JISSEN
100
AcDbLine
 10
73.07968044468649
 20
116.8787189011604
 30
0.0
 11
72.90603226701958
 21
117.8635266541729
 31
0.0
  0
LINE
  5
EF7C87F90
330
EF7C85532
100
AcDbEntity
  8
JISSEN
100
AcDbLine
 10
79.69120003504307
 20
117.8635266541729
 30
0.0
 11
81.4848402092538
 21
119.5007624031977
 31
0.0
  0
ARC
  5
EF7C87F91
330
EF7C85532
100
AcDbEntity
  8
JISSEN
100
AcDbCircle
 10
80.94002417983032
 20
118.1452624031976
 30
0.0
 40
1.355499999999999
100
AcDbArc
 50
70.26879749382101
 51
124.9999999999968
  0
LINE
  5
EF7C87F92
330
EF7C85532
100
AcDbEntity
  8
JISSEN
100
AcDbLine
 10
78.65603226701958
 20
118.2007540037038
 30
0.0
 11
80.16254132035649
 21
119.2556229992314
 31
0.0
  0
ARC
  5
EF7C87F93
330
EF7C85532
100
AcDbEntity
  8
JISSEN
100
AcDbCircle
 10
75.15603226701959
 20
124.5007540037038
 30
0.0
 40
12.49999999999999
100
AcDbArc
 50
343.7397952916878
 51
16.26020470831211
  0
LINE
  5
EF7C87F94
330
EF7C85532
100
AcDbEntity
  8
JISSEN
100
AcDbLine
 10
82.3854652164678
 20
116.7007540037038
 30
0.0
 11
91.90603226701957
 21
116.7007540037038
 31
0.0
  0
LINE
  5
EF7C87F95
330
EF7C85532
100
AcDbEntity
  8
JISSEN
100
AcDbLine
 10
89.27490010801333
 20
117.863526654173
 30
0.0
 11
88.97912580655818
 21
119.1157034481575
 31
0.0
  0
LINE
  5
EF7C87F96
330
EF7C85532
100
AcDbEntity
  8
JISSEN
100
AcDbLine
 10
88.49251656272556
 20
119.5007624031977
 30
0.0
 11
84.5877730594249
 21
119.5007624031977
 31
0.0
  0
LINE
  5
EF7C87F97
330
EF7C85532
100
AcDbEntity
  8
JISSEN
100
AcDbLine
 10
83.4551387059038
 20
117.863526654173
 30
0.0
 11
84.5877730594249
 21
119.5007624031977
 31
0.0
  0
ARC
  5
EF7C87F98
330
EF7C85532
100
AcDbEntity
  8
JISSEN
100
AcDbCircle
 10
83.73924492200094
 20
118.5007624031972
 30
0.0
 40
1.0
100
AcDbArc
 50
47.91894748809069
 51
146.3490341753988
  0
LINE
  5
EF7C87F99
330
EF7C85532
100
AcDbEntity
  8
JISSEN
100
AcDbLine
 10
82.11374482027556
 20
117.863526654173
 30
0.0
 11
82.90681626440042
 21
119.0548946347136
 31
0.0
  0
LINE
  5
EF7C87F9A
330
EF7C85532
100
AcDbEntity
  8
JISSEN
100
AcDbLine
 10
82.3854652164678
 20
116.7007540037038
 30
0.0
 11
82.26085285373178
 21
116.8787189011607
 31
0.0
  0
ARC
  5
EF7C87F9B
330
EF7C85532
100
AcDbEntity
  8
JISSEN
100
AcDbCircle
 10
88.49251656272556
 20
119.0007624031967
 30
0.0
 40
0.5
100
AcDbArc
 50
13.29012998990297
 51
164.2012849264975
  0
LINE
  5
EF7C87F9C
330
EF7C85532
100
AcDbEntity
  8
JISSEN
100
AcDbLine
 10
88.49251656272556
 20
117.863526654173
 30
0.0
 11
88.59598227630389
 21
118.2291980349174
 31
0.0
  0
LINE
  5
EF7C87F9D
330
EF7C85532
100
AcDbEntity
  8
JISSEN
100
AcDbLine
 10
88.87490010801323
 20
117.863526654173
 30
0.0
 11
88.7895265350202
 21
118.2249603771015
 31
0.0
  0
ARC
  5
EF7C87F9E
330
EF7C85532
100
AcDbEntity
  8
JISSEN
100
AcDbCircle
 10
88.69220468625362
 20
118.2019721681093
 30
0.0
 40
0.1
100
AcDbArc
 50
13.29012998990889
 51
164.2012849264934
  0
LINE
  5
EF7C87F9F
330
EF7C85532
100
AcDbEntity
  8
JISSEN
100
AcDbLine
 10
87.65110935753765
 20
117.863526654173
 30
0.0
 11
88.0114045129766
 21
119.1368917372372
 31
0.0
  0
ARC
  5
EF7C87FA0
330
EF7C85532
100
AcDbEntity
  8
JISSEN
100
AcDbCircle
 10
85.90603226701958
 20
119.0473190215647
 30
0.0
 40
1.0
100
AcDbArc
 50
26.96482331253057
 51
40.21909874455571
  0
LINE
  5
EF7C87FA1
330
EF7C85532
100
AcDbEntity
  8
JISSEN
100
AcDbLine
 10
89.65162755427243
 20
119.5007624031977
 30
0.0
 11
94.16043697976673
 21
119.5007624031977
 31
0.0
  0
LINE
  5
EF7C87FA2
330
EF7C85532
100
AcDbEntity
  8
JISSEN
100
AcDbLine
 10
89.4834874817872
 20
117.863526654173
 30
0.0
 11
89.65162755427243
 21
119.5007624031977
 31
0.0
  0
LINE
  5
EF7C87FA3
330
EF7C85532
100
AcDbEntity
  8
JISSEN
100
AcDbLine
 10
94.16043697976673
 20
119.5007624031977
 30
0.0
 11
94.3285770522522
 21
117.863526654173
 31
0.0
  0
ARC
  5
EF7C87FA4
330
EF7C85532
100
AcDbEntity
  8
JISSEN
100
AcDbCircle
 10
95.31954797131348
 20
119.0007624031967
 30
0.0
 40
0.5
100
AcDbArc
 50
15.79871507350246
 51
166.709870010097
  0
LINE
  5
EF7C87FA5
330
EF7C85532
100
AcDbEntity
  8
JISSEN
100
AcDbLine
 10
94.53716442602583
 20
117.863526654173
 30
0.0
 11
94.83293872748097
 21
119.1157034481575
 31
0.0
  0
LINE
  5
EF7C87FA6
330
EF7C85532
100
AcDbEntity
  8
JISSEN
100
AcDbLine
 10
94.93716442602593
 20
117.863526654173
 30
0.0
 11
95.02253799901897
 21
118.2249603771015
 31
0.0
  0
LINE
  5
EF7C87FA7
330
EF7C85532
100
AcDbEntity
  8
JISSEN
100
AcDbLine
 10
95.31954797131348
 20
117.863526654173
 30
0.0
 11
95.21608225773528
 21
118.2291980349174
 31
0.0
  0
ARC
  5
EF7C87FA8
330
EF7C85532
100
AcDbEntity
  8
JISSEN
100
AcDbCircle
 10
95.11985984778542
 20
118.2019721681093
 30
0.0
 40
0.1
100
AcDbArc
 50
15.79871507350659
 51
166.7098700100911
  0
ARC
  5
EF7C87FA9
330
EF7C85532
100
AcDbEntity
  8
JISSEN
100
AcDbCircle
 10
89.11003835780551
 20
129.0007540037038
 30
0.0
 40
1.5
100
AcDbArc
 50
90.0
 51
125.5633285759494
  0
LINE
  5
EF7C87FAA
330
EF7C85532
100
AcDbEntity
  8
JISSEN
100
AcDbLine
 10
95.90603226701958
 20
131.609893141953
 30
0.0
 11
87.90603226701959
 21
131.609893141953
 31
0.0
  0
ARC
  5
EF7C87FAB
330
EF7C85532
100
AcDbEntity
  8
JISSEN
100
AcDbCircle
 10
87.65603226701959
 20
131.0344369406331
 30
0.0
 40
1.0
100
AcDbArc
 50
237.8181160795964
 51
305.5633285759505
  0
LINE
  5
EF7C87FAC
330
EF7C85532
100
AcDbEntity
  8
JISSEN
100
AcDbLine
 10
94.70202617623366
 20
130.5007540037038
 30
0.0
 11
91.90603226701957
 21
130.5007540037038
 31
0.0
  0
LINE
  5
EF7C87FAD
330
EF7C85532
100
AcDbEntity
  8
JISSEN
100
AcDbLine
 10
89.96288473357608
 20
130.5007540037038
 30
0.0
 11
90.39115165053535
 21
130.9290209206632
 31
0.0
  0
LINE
  5
EF7C87FAE
330
EF7C85532
100
AcDbEntity
  8
JISSEN
100
AcDbLine
 10
89.11003835780551
 20
130.5007540037038
 30
0.0
 11
91.90603226701957
 21
130.5007540037038
 31
0.0
  0
ARC
  5
EF7C87FAF
330
EF7C85532
100
AcDbEntity
  8
JISSEN
100
AcDbCircle
 10
91.90524771152722
 20
130.4406868061364
 30
0.0
 40
1.6
100
AcDbArc
 50
133.0503615394674
 51
162.7537116970574
  0
LINE
  5
EF7C87FB0
330
EF7C85532
100
AcDbEntity
  8
JISSEN
100
AcDbLine
 10
93.84917980046308
 20
130.5007540037038
 30
0.0
 11
93.42091288273255
 21
130.9290209214344
 31
0.0
  0
ARC
  5
EF7C87FB1
330
EF7C85532
100
AcDbEntity
  8
JISSEN
100
AcDbCircle
 10
94.70202617623366
 20
129.0007540037038
 30
0.0
 40
1.5
100
AcDbArc
 50
54.43667142405059
 51
90.0
  0
ARC
  5
EF7C87FB2
330
EF7C85532
100
AcDbEntity
  8
JISSEN
100
AcDbCircle
 10
91.90524771152722
 20
130.4406868061364
 30
0.0
 40
1.6
100
AcDbArc
 50
17.33173146614729
 51
46.94963846053258
  0
ARC
  5
EF7C87FB3
330
EF7C85532
100
AcDbEntity
  8
JISSEN
100
AcDbCircle
 10
91.90524771152722
 20
130.4406868061364
 30
0.0
 40
1.6
100
AcDbArc
 50
17.33173146614213
 51
46.94963846053258
  0
LINE
  5
EF7C87FB4
330
EF7C85532
100
AcDbEntity
  8
SUNPOU
100
AcDbLine
 10
91.90603226701941
 20
116.7007540037038
 30
0.0
 11
107.2549669112654
 21
106.709101751895
 31
0.0
  0
TEXT
  5
EF7C87FB5
330
EF7C85532
100
AcDbEntity
  8
SUNPOU
100
AcDbText
 10
110.4619766492281
 20
101.1857535931063
 30
0.0
 40
4.5
  1
1
  7
K
 72
     4
 11
112.2834052206567
 21
103.4357535931063
 31
0.0
100
AcDbText
  0
LINE
  5
EF7C87FB6
330
EF7C85532
100
AcDbEntity
  8
JISSEN
100
AcDbLine
 10
110.9060322670195
 20
117.8635266541731
 30
0.0
 11
108.9935209305456
 21
118.2007540037041
 31
0.0
  0
LINE
  5
EF7C87FB7
330
EF7C85532
100
AcDbEntity
  8
JISSEN
100
AcDbLine
 10
106.8134572251254
 20
131.1293864270782
 30
0.0
 11
96.97986175165173
 21
119.5007624031976
 31
0.0
  0
ARC
  5
EF7C87FB8
330
EF7C85532
100
AcDbEntity
  8
JISSEN
100
AcDbCircle
 10
108.6560322670194
 20
124.5007540037038
 30
0.0
 40
12.49999999999999
100
AcDbArc
 50
163.7397952916878
 51
196.2602047083121
  0
ARC
  5
EF7C87FB9
330
EF7C85532
100
AcDbEntity
  8
JISSEN
100
AcDbCircle
 10
102.8720403542088
 20
118.1452624031976
 30
0.0
 40
1.355499999999999
100
AcDbArc
 50
55.00000000000309
 51
109.7312025061702
  0
LINE
  5
EF7C87FBA
330
EF7C85532
100
AcDbEntity
  8
JISSEN
100
AcDbLine
 10
104.120864498996
 20
117.8635266541729
 30
0.0
 11
102.3272243247852
 21
119.5007624031976
 31
0.0
  0
INSERT
  5
EF7C87FBB
330
EF7C85532
100
AcDbEntity
  8
SUNPOU
100
AcDbBlockReference
  2
ARROW
 10
91.9060322670197
 20
116.7007540037037
 30
0.0
 41
-1.500000000000002
 42
1.5
 43
1.5
 50
326.9371945411395
  0
LINE
  5
EF7C87FBC
330
EF7C85532
100
AcDbEntity
  8
JISSEN
100
AcDbLine
 10
100.3569258281353
 20
117.863526654173
 30
0.0
 11
99.22429147461427
 21
119.5007624031976
 31
0.0
  0
ARC
  5
EF7C87FBD
330
EF7C85532
100
AcDbEntity
  8
JISSEN
100
AcDbCircle
 10
100.0728196120382
 20
118.5007624031972
 30
0.0
 40
1.0
100
AcDbArc
 50
33.65096582460109
 51
132.0810525119092
  0
ARC
  5
EF7C87FBE
330
EF7C85532
100
AcDbEntity
  8
JISSEN
100
AcDbCircle
 10
97.90603226701959
 20
119.0473190215647
 30
0.0
 40
1.0
100
AcDbArc
 50
139.7809012554442
 51
153.0351766874621
  0
LINE
  5
EF7C87FBF
330
EF7C85532
100
AcDbEntity
  8
JISSEN
100
AcDbLine
 10
101.6983197137635
 20
117.863526654173
 30
0.0
 11
100.9052482696387
 21
119.0548946347136
 31
0.0
  0
LINE
  5
EF7C87FC0
330
EF7C85532
100
AcDbEntity
  8
JISSEN
100
AcDbLine
 10
101.4265993175713
 20
116.7007540037038
 30
0.0
 11
101.5512116803073
 21
116.8787189011607
 31
0.0
  0
LINE
  5
EF7C87FC1
330
EF7C85532
100
AcDbEntity
  8
JISSEN
100
AcDbLine
 10
102.3272243247852
 20
119.5007624031976
 30
0.0
 11
100.0728196120382
 21
119.5007624031976
 31
0.0
  0
LINE
  5
EF7C87FC2
330
EF7C85532
100
AcDbEntity
  8
JISSEN
100
AcDbLine
 10
105.1560322670195
 20
118.2007540037038
 30
0.0
 11
108.9935209305469
 21
118.2007540037038
 31
0.0
  0
LINE
  5
EF7C87FC3
330
EF7C85532
100
AcDbEntity
  8
JISSEN
100
AcDbLine
 10
105.1560322670195
 20
118.2007540037038
 30
0.0
 11
103.6495232136825
 21
119.2556229992314
 31
0.0
  0
LINE
  5
EF7C87FC4
330
EF7C85532
100
AcDbEntity
  8
JISSEN
100
AcDbLine
 10
110.7323840893525
 20
116.8787189011607
 30
0.0
 11
110.9060322670195
 21
117.8635266541731
 31
0.0
  0
ARC
  5
EF7C87FC5
330
EF7C85532
100
AcDbEntity
  8
JISSEN
100
AcDbCircle
 10
85.90603226701947
 20
142.8383405388706
 30
0.0
 40
13.5
100
AcDbArc
 50
317.7945535962682
 51
0.0
  0
ARC
  5
EF7C87FC6
330
EF7C85532
100
AcDbEntity
  8
JISSEN
100
AcDbCircle
 10
94.40603226701957
 20
142.6463167405199
 30
0.0
 40
9.0
100
AcDbArc
 50
279.5940682268607
 51
296.7857663789681
  0
LINE
  5
EF7C87FC7
330
EF7C85532
100
AcDbEntity
  8
JISSEN
100
AcDbLine
 10
95.59670138427273
 20
135.1124841385514
 30
0.0
 11
96.97676588686821
 21
135.1124841385514
 31
0.0
  0
LINE
  5
EF7C87FC8
330
EF7C85532
100
AcDbEntity
  8
JISSEN
100
AcDbLine
 10
101.4060322670195
 20
168.0007540037038
 30
0.0
 11
91.90603226701957
 21
168.0007540037038
 31
0.0
  0
LINE
  5
EF7C87FC9
330
EF7C85532
100
AcDbEntity
  8
JISSEN
100
AcDbLine
 10
102.5695466213453
 20
168.3885921218126
 30
0.0
 11
91.90603226701957
 21
168.3885921218126
 31
0.0
  0
ARC
  5
EF7C87FCA
330
EF7C85532
100
AcDbEntity
  8
JISSEN
100
AcDbCircle
 10
85.90603226701947
 20
147.8383405388706
 30
0.0
 40
13.5
100
AcDbArc
 50
0.0
 51
40.9617885523535
  0
LINE
  5
EF7C87FCB
330
EF7C85532
100
AcDbEntity
  8
JISSEN
100
AcDbLine
 10
96.40603226701969
 20
146.9220118818575
 30
0.0
 11
93.7079211937486
 21
147.1585171001376
 31
0.0
  0
LINE
  5
EF7C87FCC
330
EF7C85532
100
AcDbEntity
  8
JISSEN
100
AcDbLine
 10
96.40603226701969
 20
146.8216284395994
 30
0.0
 11
93.71513661633825
 21
147.0575011838826
 31
0.0
  0
LINE
  5
EF7C87FCD
330
EF7C85532
100
AcDbEntity
  8
JISSEN
100
AcDbLine
 10
96.40603226701969
 20
146.4710050414405
 30
0.0
 11
94.40603226701957
 21
146.295693342361
 31
0.0
  0
ARC
  5
EF7C87FCE
330
EF7C85532
100
AcDbEntity
  8
JISSEN
100
AcDbCircle
 10
94.90603226701948
 20
144.0883405388706
 30
0.0
 40
1.5
100
AcDbArc
 50
270.0
 51
0.0
  0
ARC
  5
EF7C87FCF
330
EF7C85532
100
AcDbEntity
  8
JISSEN
100
AcDbCircle
 10
94.63300195872809
 20
150.0383405388706
 30
0.0
 40
1.5
100
AcDbArc
 50
14.14900450893436
 51
90.0
  0
ARC
  5
EF7C87FD0
330
EF7C85532
100
AcDbEntity
  8
JISSEN
100
AcDbCircle
 10
85.90603226701947
 20
147.8383405388706
 30
0.0
 40
10.5
100
AcDbArc
 50
0.0
 51
14.14900450893436
  0
LINE
  5
EF7C87FD1
330
EF7C85532
100
AcDbEntity
  8
JISSEN
100
AcDbLine
 10
99.40603226701959
 20
158.9883405388714
 30
0.0
 11
91.90603226701957
 21
158.9883405388714
 31
0.0
  0
LINE
  5
EF7C87FD2
330
EF7C85532
100
AcDbEntity
  8
JISSEN
100
AcDbLine
 10
84.40603226701957
 20
156.6883405388715
 30
0.0
 11
99.40603226701959
 21
156.6883405388715
 31
0.0
  0
LINE
  5
EF7C87FD3
330
EF7C85532
100
AcDbEntity
  8
JISSEN
100
AcDbLine
 10
100.1054937542523
 20
162.5007540037038
 30
0.0
 11
93.40603226701958
 21
162.5007540037038
 31
0.0
  0
LINE
  5
EF7C87FD4
330
EF7C85532
100
AcDbEntity
  8
JISSEN
100
AcDbLine
 10
99.40603226701959
 20
160.7007540037038
 30
0.0
 11
93.40603226701958
 21
160.7007540037038
 31
0.0
  0
LINE
  5
EF7C87FD5
330
EF7C85532
100
AcDbEntity
  8
JISSEN
100
AcDbLine
 10
99.15603226701959
 20
159.7224418401909
 30
0.0
 11
93.44936425730603
 21
159.7224418401909
 31
0.0
  0
LINE
  5
EF7C87FD6
330
EF7C85532
100
AcDbEntity
  8
JISSEN
100
AcDbLine
 10
102.6505949135576
 20
166.5007540037039
 30
0.0
 11
94.90603226701958
 21
166.5007540037039
 31
0.0
  0
LINE
  5
EF7C87FD7
330
EF7C85532
100
AcDbEntity
  8
JISSEN
100
AcDbLine
 10
96.86246916318433
 20
155.72544967596
 30
0.0
 11
86.94959537085471
 21
155.72544967596
 31
0.0
  0
LINE
  5
EF7C87FD8
330
EF7C85532
100
AcDbEntity
  8
JISSEN
100
AcDbLine
 10
97.90603226702003
 20
159.2883405388716
 30
0.0
 11
93.59477627177879
 21
159.2883405388715
 31
0.0
  0
LINE
  5
EF7C87FD9
330
EF7C85532
100
AcDbEntity
  8
JISSEN
100
AcDbLine
 10
93.90603226701946
 20
151.7383405388707
 30
0.0
 11
93.90603226701946
 21
154.5516777454885
 31
0.0
  0
LINE
  5
EF7C87FDA
330
EF7C85532
100
AcDbEntity
  8
JISSEN
100
AcDbLine
 10
89.90603226701948
 20
151.7383405388707
 30
0.0
 11
89.90603226701948
 21
154.5516777454885
 31
0.0
  0
ARC
  5
EF7C87FDB
330
EF7C85532
100
AcDbEntity
  8
JISSEN
100
AcDbCircle
 10
86.90603226701957
 20
150.5007540037038
 30
0.0
 40
15.0
100
AcDbArc
 50
126.6829888003599
 51
180.0
  0
ARC
  5
EF7C87FDC
330
EF7C85532
100
AcDbEntity
  8
JISSEN
100
AcDbCircle
 10
84.69478548349721
 20
149.8990962808592
 30
0.0
 40
10.80551655320168
100
AcDbArc
 50
91.53128360361854
 51
176.8080854238748
  0
ARC
  5
EF7C87FDD
330
EF7C85532
100
AcDbEntity
  8
JISSEN
100
AcDbCircle
 10
86.8453373146954
 20
149.3468020662754
 30
0.0
 40
11.0
100
AcDbArc
 50
104.8402148385189
 51
173.978322807366
  0
ARC
  5
EF7C87FDE
330
EF7C85532
100
AcDbEntity
  8
JISSEN
100
AcDbCircle
 10
97.90603226701946
 20
147.8383405388706
 30
0.0
 40
13.5
100
AcDbArc
 50
139.0382114476465
 51
180.0
  0
LINE
  5
EF7C87FDF
330
EF7C85532
100
AcDbEntity
  8
JISSEN
100
AcDbLine
 10
85.11730094465738
 20
138.5141815264805
 30
0.0
 11
81.43055284414087
 21
138.5141815264805
 31
0.0
  0
ARC
  5
EF7C87FE0
330
EF7C85532
100
AcDbEntity
  8
JISSEN
100
AcDbCircle
 10
84.40603226701957
 20
142.4332846408401
 30
0.0
 40
4.0
100
AcDbArc
 50
90.0
 51
180.0
  0
ARC
  5
EF7C87FE1
330
EF7C85532
100
AcDbEntity
  8
JISSEN
100
AcDbCircle
 10
99.90603226701958
 20
150.5007540037038
 30
0.0
 40
28.0
100
AcDbArc
 50
180.0
 51
202.024312837042
  0
ARC
  5
EF7C87FE2
330
EF7C85532
100
AcDbEntity
  8
JISSEN
100
AcDbCircle
 10
99.90603226701958
 20
150.5007540037038
 30
0.0
 40
26.0
100
AcDbArc
 50
180.0
 51
203.8188413934565
  0
ARC
  5
EF7C87FE3
330
EF7C85532
100
AcDbEntity
  8
JISSEN
100
AcDbCircle
 10
89.40603226701957
 20
142.4332846408401
 30
0.0
 40
9.0
100
AcDbArc
 50
180.0
 51
205.0004483595911
  0
ARC
  5
EF7C87FE4
330
EF7C85532
100
AcDbEntity
  8
JISSEN
100
AcDbCircle
 10
81.43055284414087
 20
138.7141815264805
 30
0.0
 40
0.2
100
AcDbArc
 50
205.0004483594498
 51
270.0
  0
LINE
  5
EF7C87FE5
330
EF7C85532
100
AcDbEntity
  8
ITTEN
100
AcDbLine
 10
80.40603226701959
 20
142.6463167405199
 30
0.0
 11
80.40603226701959
 21
142.6463167405199
 31
0.0
  0
LINE
  5
EF7C87FE6
330
EF7C85532
100
AcDbEntity
  8
JISSEN
100
AcDbLine
 10
89.40603226701957
 20
142.977609517851
 30
0.0
 11
89.40603226701957
 21
146.6463167405199
 31
0.0
  0
LINE
  5
EF7C87FE7
330
EF7C85532
100
AcDbEntity
  8
JISSEN
100
AcDbLine
 10
94.40603226701957
 20
142.977609517851
 30
0.0
 11
94.40603226701957
 21
146.6463167405199
 31
0.0
  0
LINE
  5
EF7C87FE8
330
EF7C85532
100
AcDbEntity
  8
JISSEN
100
AcDbLine
 10
84.40603226701947
 20
142.8383405388706
 30
0.0
 11
84.40603226701947
 21
147.8383405388706
 31
0.0
  0
ARC
  5
EF7C87FE9
330
EF7C85532
100
AcDbEntity
  8
JISSEN
100
AcDbCircle
 10
88.90603226701946
 20
144.0883405388706
 30
0.0
 40
1.5
100
AcDbArc
 50
180.0
 51
270.0
  0
LINE
  5
EF7C87FEA
330
EF7C85532
100
AcDbEntity
  8
JISSEN
100
AcDbLine
 10
94.40603226701957
 20
137.3849620743441
 30
0.0
 11
93.44667072233667
 21
150.816023699905
 31
0.0
  0
LINE
  5
EF7C87FEB
330
EF7C85532
100
AcDbEntity
  8
JISSEN
100
AcDbLine
 10
90.36539381170248
 20
150.816023699905
 30
0.0
 11
89.40603226701957
 21
137.3849620743441
 31
0.0
  0
LINE
  5
EF7C87FEC
330
EF7C85532
100
AcDbEntity
  8
JISSEN
100
AcDbLine
 10
88.90603226701946
 20
142.5883405388707
 30
0.0
 11
89.28103226701948
 21
142.5883405388707
 31
0.0
  0
ARC
  5
EF7C87FED
330
EF7C85532
100
AcDbEntity
  8
JISSEN
100
AcDbCircle
 10
87.90603226701959
 20
137.3849620743441
 30
0.0
 40
1.5
100
AcDbArc
 50
284.2500326978044
 51
0.0
  0
ARC
  5
EF7C87FEE
330
EF7C85532
100
AcDbEntity
  8
JISSEN
100
AcDbCircle
 10
97.90603226701946
 20
142.8383405388706
 30
0.0
 40
13.5
100
AcDbArc
 50
180.0
 51
222.2054464037328
  0
ARC
  5
EF7C87FEF
330
EF7C85532
100
AcDbEntity
  8
JISSEN
100
AcDbCircle
 10
89.40603226701957
 20
142.6463167405199
 30
0.0
 40
9.0
100
AcDbArc
 50
243.6122000387569
 51
260.4059317731392
  0
LINE
  5
EF7C87FF0
330
EF7C85532
100
AcDbEntity
  8
JISSEN
100
AcDbLine
 10
85.2560322670196
 20
137.1141815264806
 30
0.0
 11
85.2560322670196
 21
133.8710268925415
 31
0.0
  0
LINE
  5
EF7C87FF1
330
EF7C85532
100
AcDbEntity
  8
JISSEN
100
AcDbLine
 10
85.40603226701959
 20
136.9905490133787
 30
0.0
 11
85.40603226701959
 21
133.8710268925415
 31
0.0
  0
LINE
  5
EF7C87FF2
330
EF7C85532
100
AcDbEntity
  8
JISSEN
100
AcDbLine
 10
85.40603226701959
 20
137.5262889255979
 30
0.0
 11
85.40603226701959
 21
133.8710268925415
 31
0.0
  0
LINE
  5
EF7C87FF3
330
EF7C85532
100
AcDbEntity
  8
JISSEN
100
AcDbLine
 10
85.40603226701959
 20
133.8710268925415
 30
0.0
 11
85.2560322670196
 21
133.8710268925415
 31
0.0
  0
LINE
  5
EF7C87FF4
330
EF7C85532
100
AcDbEntity
  8
JISSEN
100
AcDbLine
 10
85.40603226701959
 20
137.1141815264806
 30
0.0
 11
85.2560322670196
 21
137.1141815264806
 31
0.0
  0
LINE
  5
EF7C87FF5
330
EF7C85532
100
AcDbEntity
  8
JISSEN
100
AcDbLine
 10
85.40603226701959
 20
137.7393210252777
 30
0.0
 11
85.40603226701959
 21
134.5840589922214
 31
0.0
  0
LINE
  5
EF7C87FF6
330
EF7C85532
100
AcDbEntity
  8
JISSEN
100
AcDbLine
 10
86.83529864717085
 20
135.1124841385514
 30
0.0
 11
88.21536314976643
 21
135.1124841385514
 31
0.0
  0
ARC
  5
EF7C87FF7
330
EF7C85532
100
AcDbEntity
  8
JISSEN
100
AcDbCircle
 10
87.67626772889176
 20
134.4139970815914
 30
0.0
 40
0.4866855046380603
100
AcDbArc
 50
298.1707402297517
 51
355.8150838748825
  0
LINE
  5
EF7C87FF8
330
EF7C85532
100
AcDbEntity
  8
JISSEN
100
AcDbLine
 10
88.16165559545053
 20
134.3784808962334
 30
0.0
 11
88.27526303625033
 21
135.931115920498
 31
0.0
  0
ARC
  5
EF7C87FF9
330
EF7C85532
100
AcDbEntity
  8
JISSEN
100
AcDbCircle
 10
95.90603226701958
 20
137.3849620743441
 30
0.0
 40
1.5
100
AcDbArc
 50
180.0
 51
255.7499673021973
  0
ARC
  5
EF7C87FFA
330
EF7C85532
100
AcDbEntity
  8
JISSEN
100
AcDbCircle
 10
96.13579680514741
 20
134.4139970815914
 30
0.0
 40
0.4866855046380603
100
AcDbArc
 50
184.1849161251174
 51
241.8292597702482
  0
LINE
  5
EF7C87FFB
330
EF7C85532
100
AcDbEntity
  8
JISSEN
100
AcDbLine
 10
95.53680149778884
 20
135.9311159204979
 30
0.0
 11
95.65040893858864
 21
134.3784808962334
 31
0.0
  0
LINE
  5
EF7C87FFC
330
EF7C85532
100
AcDbEntity
  8
JISSEN
100
AcDbLine
 10
89.28103226701948
 20
142.5883405388707
 30
0.0
 11
89.28103226701948
 21
138.0883405388706
 31
0.0
  0
ARC
  5
EF7C87FFD
330
EF7C85532
100
AcDbEntity
  8
JISSEN
100
AcDbCircle
 10
91.13409959419803
 20
167.0837282959563
 30
0.0
 40
24.90306398983018
100
AcDbArc
 50
265.7326069421959
 51
266.8169451117968
  0
ARC
  5
EF7C87FFE
330
EF7C85532
100
AcDbEntity
  8
JISSEN
100
AcDbCircle
 10
89.28103226701948
 20
142.8883405388706
 30
0.0
 40
1.199999999999999
100
AcDbArc
 50
270.0
 51
291.4232972478955
  0
ARC
  5
EF7C87FFF
330
EF7C85532
100
AcDbEntity
  8
JISSEN
100
AcDbCircle
 10
91.90603226701957
 20
123.7914174679072
 30
0.0
 40
19.34838405080195
100
AcDbArc
 50
96.22224717316008
 51
97.42392958962639
  0
ARC
  5
EF7C88000
330
EF7C85532
100
AcDbEntity
  8
JISSEN
100
AcDbCircle
 10
91.90603226701947
 20
162.1638015677948
 30
0.0
 40
19.34838405080195
100
AcDbArc
 50
262.5760704103736
 51
263.7573957713741
  0
LINE
  5
EF7C88001
330
EF7C85532
100
AcDbEntity
  8
JISSEN
100
AcDbLine
 10
94.53103226701946
 20
142.5883405388707
 30
0.0
 11
94.53103226701946
 21
138.0883405388706
 31
0.0
  0
ARC
  5
EF7C88002
330
EF7C85532
100
AcDbEntity
  8
JISSEN
100
AcDbCircle
 10
92.67796493984352
 20
167.0837282959559
 30
0.0
 40
24.90306398982964
100
AcDbArc
 50
273.1830548881965
 51
274.2673930577975
  0
ARC
  5
EF7C88003
330
EF7C85532
100
AcDbEntity
  8
JISSEN
100
AcDbCircle
 10
94.53103226701946
 20
142.8883405388706
 30
0.0
 40
1.199999999999999
100
AcDbArc
 50
248.576702752115
 51
270.0
  0
ARC
  5
EF7C88004
330
EF7C85532
100
AcDbEntity
  8
JISSEN
100
AcDbCircle
 10
91.90603226701957
 20
123.7914174679072
 30
0.0
 40
19.34838405080195
100
AcDbArc
 50
82.5760704103736
 51
83.77775282683991
  0
ARC
  5
EF7C88005
330
EF7C85532
100
AcDbEntity
  8
JISSEN
100
AcDbCircle
 10
91.90603226701947
 20
162.1638015677948
 30
0.0
 40
19.34838405080195
100
AcDbArc
 50
276.2426042286266
 51
277.4239295896272
  0
LINE
  5
EF7C88006
330
EF7C85532
100
AcDbEntity
  8
JISSEN
100
AcDbLine
 10
94.90603226701948
 20
142.5883405388707
 30
0.0
 11
94.53103226701946
 21
142.5883405388707
 31
0.0
  0
ARC
  5
EF7C88007
330
EF7C85532
100
AcDbEntity
  8
JISSEN
100
AcDbCircle
 10
89.17906257531095
 20
150.0383405388706
 30
0.0
 40
1.5
100
AcDbArc
 50
90.0
 51
165.8509954910656
  0
LINE
  5
EF7C88008
330
EF7C85532
100
AcDbEntity
  8
JISSEN
100
AcDbLine
 10
88.64407625890093
 20
151.4396933285899
 30
0.0
 11
89.40603226701981
 21
150.9997778221918
 31
0.0
  0
ARC
  5
EF7C88009
330
EF7C85532
100
AcDbEntity
  8
JISSEN
100
AcDbCircle
 10
89.70016333733022
 20
150.1908344685775
 30
0.0
 40
0.6441310703106079
100
AcDbArc
 50
103.6591051852966
 51
180.0
  0
ARC
  5
EF7C8800A
330
EF7C85532
100
AcDbEntity
  8
JISSEN
100
AcDbCircle
 10
91.90603226701957
 20
130.8970604026894
 30
0.0
 40
19.34838405080195
100
AcDbArc
 50
94.70198339894666
 51
98.91979517632428
  0
LINE
  5
EF7C8800B
330
EF7C85532
100
AcDbEntity
  8
JISSEN
100
AcDbLine
 10
87.40603226701948
 20
146.4710050414405
 30
0.0
 11
89.40603226701957
 21
146.295693342361
 31
0.0
  0
LINE
  5
EF7C8800C
330
EF7C85532
100
AcDbEntity
  8
JISSEN
100
AcDbLine
 10
87.40603226701948
 20
146.8216284395994
 30
0.0
 11
90.09692791770092
 21
147.0575011838826
 31
0.0
  0
LINE
  5
EF7C8800D
330
EF7C85532
100
AcDbEntity
  8
JISSEN
100
AcDbLine
 10
87.40603226701948
 20
146.9220118818575
 30
0.0
 11
90.10414334029055
 21
147.1585171001376
 31
0.0
  0
LINE
  5
EF7C8800E
330
EF7C85532
100
AcDbEntity
  8
JISSEN
100
AcDbLine
 10
88.90603226701959
 20
150.0114519801718
 30
0.0
 11
88.90603226701959
 21
147.0534956561671
 31
0.0
  0
ARC
  5
EF7C8800F
330
EF7C85532
100
AcDbEntity
  8
JISSEN
100
AcDbCircle
 10
97.90603226701946
 20
147.8383405388706
 30
0.0
 40
10.5
100
AcDbArc
 50
165.8509954910656
 51
180.0
  0
LINE
  5
EF7C88010
330
EF7C85532
100
AcDbEntity
  8
JISSEN
100
AcDbLine
 10
87.40603226701948
 20
144.0883405388706
 30
0.0
 11
87.40603226701948
 21
147.8383405388706
 31
0.0
  0
LINE
  5
EF7C88011
330
EF7C85532
100
AcDbEntity
  8
JISSEN
100
AcDbLine
 10
89.05603226701956
 20
150.0343921231078
 30
0.0
 11
89.05603226701956
 21
150.1908344685775
 31
0.0
  0
LINE
  5
EF7C88012
330
EF7C85532
100
AcDbEntity
  8
JISSEN
100
AcDbLine
 10
94.90603226701958
 20
150.0114519801718
 30
0.0
 11
94.90603226701958
 21
147.0534956561671
 31
0.0
  0
ARC
  5
EF7C88013
330
EF7C85532
100
AcDbEntity
  8
JISSEN
100
AcDbCircle
 10
91.90603226701957
 20
127.4601246905761
 30
0.0
 40
19.34838405080195
100
AcDbArc
 50
95.43647494168721
 51
97.42392958962639
  0
ARC
  5
EF7C88014
330
EF7C85532
100
AcDbEntity
  8
JISSEN
100
AcDbCircle
 10
91.90603226701957
 20
127.4601246905761
 30
0.0
 40
19.34838405080195
100
AcDbArc
 50
82.5760704103736
 51
84.56352505831278
  0
LINE
  5
EF7C88015
330
EF7C85532
100
AcDbEntity
  8
JISSEN
100
AcDbLine
 10
93.65603226701958
 20
151.599194840069
 30
0.0
 11
90.15603226701959
 21
151.599194840069
 31
0.0
  0
LINE
  5
EF7C88016
330
EF7C85532
100
AcDbEntity
  8
JISSEN
100
AcDbLine
 10
93.65603226701958
 20
150.816023699905
 30
0.0
 11
90.15603226701959
 21
150.816023699905
 31
0.0
  0
LINE
  5
EF7C88017
330
EF7C85532
100
AcDbEntity
  8
JISSEN
100
AcDbLine
 10
90.15603226701959
 20
153.328394201501
 30
0.0
 11
93.65603226701958
 21
153.328394201501
 31
0.0
  0
LINE
  5
EF7C88018
330
EF7C85532
100
AcDbEntity
  8
JISSEN
100
AcDbLine
 10
90.15603226701959
 20
150.816023699905
 30
0.0
 11
90.15603226701959
 21
153.328394201501
 31
0.0
  0
ARC
  5
EF7C88019
330
EF7C85532
100
AcDbEntity
  8
JISSEN
100
AcDbCircle
 10
90.47559591463064
 20
146.9999861955635
 30
0.0
 40
3.927849752435431
100
AcDbArc
 50
98.56261218149995
 51
103.6591051852999
  0
ARC
  5
EF7C8801A
330
EF7C85532
100
AcDbEntity
  8
JISSEN
100
AcDbCircle
 10
91.32994212610837
 20
141.3258452818769
 30
0.0
 40
9.665948963623556
100
AcDbArc
 50
96.97567628297717
 51
98.5626121814851
  0
ARC
  5
EF7C8801B
330
EF7C85532
100
AcDbEntity
  8
JISSEN
100
AcDbCircle
 10
91.90603226701981
 20
155.3299048411139
 30
0.0
 40
5.0
100
AcDbArc
 50
239.9999999999998
 51
243.679190178391
  0
LINE
  5
EF7C8801C
330
EF7C85532
100
AcDbEntity
  8
JISSEN
100
AcDbLine
 10
89.17906257531095
 20
151.5383405388707
 30
0.0
 11
89.70603226701953
 21
151.5383405388707
 31
0.0
  0
ARC
  5
EF7C8801D
330
EF7C85532
100
AcDbEntity
  8
JISSEN
100
AcDbCircle
 10
89.70603226701953
 20
151.7383405388706
 30
0.0
 40
0.2
100
AcDbArc
 50
270.0
 51
0.0
  0
ARC
  5
EF7C8801E
330
EF7C85532
100
AcDbEntity
  8
JISSEN
100
AcDbCircle
 10
90.20603226701954
 20
152.7558737563342
 30
0.0
 40
0.3
100
AcDbArc
 50
99.59406822683764
 51
180.0
  0
LINE
  5
EF7C8801F
330
EF7C85532
100
AcDbEntity
  8
JISSEN
100
AcDbLine
 10
93.65603226701958
 20
153.328394201501
 30
0.0
 11
93.65603226701958
 21
150.816023699905
 31
0.0
  0
LINE
  5
EF7C88020
330
EF7C85532
100
AcDbEntity
  8
JISSEN
100
AcDbLine
 10
94.63300195872809
 20
151.5383405388707
 30
0.0
 11
94.10603226701951
 21
151.5383405388707
 31
0.0
  0
LINE
  5
EF7C88021
330
EF7C85532
100
AcDbEntity
  8
JISSEN
100
AcDbLine
 10
95.1679882751387
 20
151.4396933285898
 30
0.0
 11
94.40603226701981
 21
150.9997778221917
 31
0.0
  0
ARC
  5
EF7C88022
330
EF7C85532
100
AcDbEntity
  8
JISSEN
100
AcDbCircle
 10
93.33646861940852
 20
146.9999861955632
 30
0.0
 40
3.92784975243566
100
AcDbArc
 50
76.34089481470098
 51
81.43738781850005
  0
ARC
  5
EF7C88023
330
EF7C85532
100
AcDbEntity
  8
JISSEN
100
AcDbCircle
 10
91.90603226701981
 20
155.3299048411139
 30
0.0
 40
5.0
100
AcDbArc
 50
296.3208098216071
 51
300.0000000000001
  0
ARC
  5
EF7C88024
330
EF7C85532
100
AcDbEntity
  8
JISSEN
100
AcDbCircle
 10
92.48212240792899
 20
141.3258452818774
 30
0.0
 40
9.665948963623366
100
AcDbArc
 50
81.43738781850421
 51
83.02432371701295
  0
ARC
  5
EF7C88025
330
EF7C85532
100
AcDbEntity
  8
JISSEN
100
AcDbCircle
 10
94.10603226701951
 20
151.7383405388706
 30
0.0
 40
0.2
100
AcDbArc
 50
180.0
 51
270.0
  0
ARC
  5
EF7C88026
330
EF7C85532
100
AcDbEntity
  8
JISSEN
100
AcDbCircle
 10
91.90603226701957
 20
130.8970604026894
 30
0.0
 40
19.34838405080195
100
AcDbArc
 50
81.08020482367573
 51
85.29801660105254
  0
LINE
  5
EF7C88027
330
EF7C85532
100
AcDbEntity
  8
JISSEN
100
AcDbLine
 10
94.75603226701961
 20
150.1908344685775
 30
0.0
 11
94.75603226701961
 21
150.0343921231078
 31
0.0
  0
ARC
  5
EF7C88028
330
EF7C85532
100
AcDbEntity
  8
JISSEN
100
AcDbCircle
 10
94.11190119670894
 20
150.1908344685775
 30
0.0
 40
0.6441310703106079
100
AcDbArc
 50
0.0
 51
76.34089481470336
  0
ARC
  5
EF7C88029
330
EF7C85532
100
AcDbEntity
  8
JISSEN
100
AcDbCircle
 10
93.60603226701952
 20
152.7558737563342
 30
0.0
 40
0.3
100
AcDbArc
 50
0.0
 51
80.40593177313425
  0
ARC
  5
EF7C8802A
330
EF7C85532
100
AcDbEntity
  8
JISSEN
100
AcDbCircle
 10
78.01828373535127
 20
169.6438713320802
 30
0.0
 40
6.498907295833106
100
AcDbArc
 50
284.6790800521976
 51
320.8990391255044
  0
LINE
  5
EF7C8802B
330
EF7C85532
100
AcDbEntity
  8
JISSEN
100
AcDbLine
 10
81.24251791269367
 20
168.3885921218126
 30
0.0
 11
91.90603226701957
 21
168.3885921218126
 31
0.0
  0
LINE
  5
EF7C8802C
330
EF7C85532
100
AcDbEntity
  8
JISSEN
100
AcDbLine
 10
81.24251791269367
 20
168.3885921218126
 30
0.0
 11
82.40603226701958
 21
168.0007540037038
 31
0.0
  0
LINE
  5
EF7C8802D
330
EF7C85532
100
AcDbEntity
  8
JISSEN
100
AcDbLine
 10
81.16146962048143
 20
166.5007540037039
 30
0.0
 11
88.90603226701959
 21
166.5007540037039
 31
0.0
  0
ARC
  5
EF7C8802E
330
EF7C85532
100
AcDbEntity
  8
JISSEN
100
AcDbCircle
 10
80.93216154409484
 20
158.5202844504185
 30
0.0
 40
5.0
100
AcDbArc
 50
104.6790800521975
 51
126.6829888003599
  0
LINE
  5
EF7C8802F
330
EF7C85532
100
AcDbEntity
  8
JISSEN
100
AcDbLine
 10
95.90603226701958
 20
162.5007540037038
 30
0.0
 11
95.90603226701958
 21
166.5007540037039
 31
0.0
  0
ARC
  5
EF7C88030
330
EF7C85532
100
AcDbEntity
  8
JISSEN
100
AcDbCircle
 10
94.60603226701952
 20
165.2100283753507
 30
0.0
 40
0.3
100
AcDbArc
 50
0.0
 51
90.0
  0
LINE
  5
EF7C88031
330
EF7C85532
100
AcDbEntity
  8
JISSEN
100
AcDbLine
 10
87.90603226701959
 20
162.5007540037038
 30
0.0
 11
87.90603226701959
 21
166.5007540037039
 31
0.0
  0
LINE
  5
EF7C88032
330
EF7C85532
100
AcDbEntity
  8
JISSEN
100
AcDbLine
 10
83.70657077978686
 20
166.5007540037039
 30
0.0
 11
83.70657077978686
 21
162.5007540037038
 31
0.0
  0
TEXT
  5
EF7C88033
330
EF7C85532
100
AcDbEntity
  8
JISSEN
100
AcDbText
 10
87.42381664368467
 20
165.9594225373321
 30
0.0
 40
3.0
  1
D
 50
180.0
  7
K
 72
     4
 11
85.85238807225611
 21
164.4594225373321
 31
0.0
100
AcDbText
  0
ARC
  5
EF7C88034
330
EF7C85532
100
AcDbEntity
  8
JISSEN
100
AcDbCircle
 10
89.20603226701954
 20
165.2100283753507
 30
0.0
 40
0.3
100
AcDbArc
 50
90.0
 51
180.0
  0
ARC
  5
EF7C88035
330
EF7C85532
100
AcDbEntity
  8
JISSEN
100
AcDbCircle
 10
89.20603226701954
 20
163.8100283753507
 30
0.0
 40
0.3
100
AcDbArc
 50
180.0
 51
270.0
  0
LINE
  5
EF7C88036
330
EF7C85532
100
AcDbEntity
  8
JISSEN
100
AcDbLine
 10
83.70657077978686
 20
162.5007540037038
 30
0.0
 11
90.40603226701959
 21
162.5007540037038
 31
0.0
  0
LINE
  5
EF7C88037
330
EF7C85532
100
AcDbEntity
  8
JISSEN
100
AcDbLine
 10
84.40603226701957
 20
160.7007540037038
 30
0.0
 11
90.40603226701959
 21
160.7007540037038
 31
0.0
  0
LINE
  5
EF7C88038
330
EF7C85532
100
AcDbEntity
  8
JISSEN
100
AcDbLine
 10
84.40603226701957
 20
158.9883405388714
 30
0.0
 11
91.90603226701957
 21
158.9883405388714
 31
0.0
  0
LINE
  5
EF7C88039
330
EF7C85532
100
AcDbEntity
  8
JISSEN
100
AcDbLine
 10
84.65603226701958
 20
159.7224418401909
 30
0.0
 11
90.36270027673314
 21
159.7224418401909
 31
0.0
  0
LINE
  5
EF7C8803A
330
EF7C85532
100
AcDbEntity
  8
JISSEN
100
AcDbLine
 10
85.90603226701913
 20
159.2883405388716
 30
0.0
 11
90.21728826226027
 21
159.2883405388715
 31
0.0
  0
ARC
  5
EF7C8803B
330
EF7C85532
100
AcDbEntity
  8
JISSEN
100
AcDbCircle
 10
84.15603226701959
 20
159.4965625738217
 30
0.0
 40
0.5
100
AcDbArc
 50
33.02876887191162
 51
104.8402148385181
  0
LINE
  5
EF7C8803C
330
EF7C85532
100
AcDbEntity
  8
JISSEN
100
AcDbLine
 10
85.90603226701913
 20
159.2883405388714
 30
0.0
 11
84.40603226701957
 21
159.2883405388714
 31
0.0
  0
LINE
  5
EF7C8803D
330
EF7C85532
100
AcDbEntity
  8
JISSEN
100
AcDbLine
 10
84.40603226701957
 20
159.2883405388714
 30
0.0
 11
84.40603226701957
 21
156.6883405388715
 31
0.0
  0
LINE
  5
EF7C8803E
330
EF7C85532
100
AcDbEntity
  8
JISSEN
100
AcDbLine
 10
85.40791777653637
 20
159.2883405388714
 30
0.0
 11
84.57523076336682
 21
159.7690926100758
 31
0.0
  0
LINE
  5
EF7C8803F
330
EF7C85532
100
AcDbEntity
  8
JISSEN
100
AcDbLine
 10
84.40603226701957
 20
162.5007540037038
 30
0.0
 11
84.40603226701957
 21
160.7007540037038
 31
0.0
  0
LINE
  5
EF7C88040
330
EF7C85532
100
AcDbEntity
  8
JISSEN
100
AcDbLine
 10
88.90603226701959
 20
163.8100283753507
 30
0.0
 11
88.90603226701959
 21
165.2100283753507
 31
0.0
  0
ARC
  5
EF7C88041
330
EF7C85532
100
AcDbEntity
  8
JISSEN
100
AcDbCircle
 10
83.65603226701958
 20
161.7275862757577
 30
0.0
 40
7.0
100
AcDbArc
 50
336.9632903547651
 51
0.0
  0
ARC
  5
EF7C88042
330
EF7C85532
100
AcDbEntity
  8
JISSEN
100
AcDbCircle
 10
100.1560322670195
 20
161.7275862757577
 30
0.0
 40
7.0
100
AcDbArc
 50
180.0
 51
205.5361001505872
  0
ARC
  5
EF7C88043
330
EF7C85532
100
AcDbEntity
  8
JISSEN
100
AcDbCircle
 10
91.90603226701957
 20
166.9974753304354
 30
0.0
 40
10.93848722979607
100
AcDbArc
 50
255.6397940472943
 51
284.3602059527056
  0
LINE
  5
EF7C88044
330
EF7C85532
100
AcDbEntity
  8
JISSEN
100
AcDbLine
 10
90.65603226701957
 20
163.5100283753507
 30
0.0
 11
90.65603226701957
 21
161.7275862757577
 31
0.0
  0
LINE
  5
EF7C88045
330
EF7C85532
100
AcDbEntity
  8
JISSEN
100
AcDbLine
 10
90.65603226701957
 20
163.5100283753507
 30
0.0
 11
89.20603226701954
 21
163.5100283753507
 31
0.0
  0
LINE
  5
EF7C88046
330
EF7C85532
100
AcDbEntity
  8
JISSEN
100
AcDbLine
 10
90.40603226701959
 20
160.7007540037038
 30
0.0
 11
90.40603226701959
 21
162.5007540037038
 31
0.0
  0
ARC
  5
EF7C88047
330
EF7C85532
100
AcDbEntity
  8
JISSEN
100
AcDbCircle
 10
94.60603226701952
 20
163.8100283753507
 30
0.0
 40
0.3
100
AcDbArc
 50
270.0
 51
0.0
  0
LINE
  5
EF7C88048
330
EF7C85532
100
AcDbEntity
  8
JISSEN
100
AcDbLine
 10
94.60603226701952
 20
163.5100283753507
 30
0.0
 11
93.15603226701957
 21
163.5100283753507
 31
0.0
  0
LINE
  5
EF7C88049
330
EF7C85532
100
AcDbEntity
  8
JISSEN
100
AcDbLine
 10
93.15603226701957
 20
163.5100283753507
 30
0.0
 11
93.15603226701957
 21
161.7275862757577
 31
0.0
  0
LINE
  5
EF7C8804A
330
EF7C85532
100
AcDbEntity
  8
JISSEN
100
AcDbLine
 10
93.40603226701958
 20
162.5007540037038
 30
0.0
 11
93.40603226701958
 21
160.7007540037038
 31
0.0
  0
LINE
  5
EF7C8804B
330
EF7C85532
100
AcDbEntity
  8
JISSEN
100
AcDbLine
 10
94.90603226701958
 20
165.2100283753507
 30
0.0
 11
94.90603226701958
 21
163.8100283753507
 31
0.0
  0
LINE
  5
EF7C8804C
330
EF7C85532
100
AcDbEntity
  8
JISSEN
100
AcDbLine
 10
82.40603226701958
 20
168.0007540037038
 30
0.0
 11
91.90603226701957
 21
168.0007540037038
 31
0.0
  0
LINE
  5
EF7C8804D
330
EF7C85532
100
AcDbEntity
  8
JISSEN
100
AcDbLine
 10
82.40603226701958
 20
166.5007540037039
 30
0.0
 11
82.40603226701958
 21
168.0007540037038
 31
0.0
  0
LINE
  5
EF7C8804E
330
EF7C85532
100
AcDbEntity
  8
JISSEN
100
AcDbLine
 10
88.90603226701959
 20
166.5007540037039
 30
0.0
 11
88.90603226701959
 21
168.0007540037038
 31
0.0
  0
LINE
  5
EF7C8804F
330
EF7C85532
100
AcDbEntity
  8
JISSEN
100
AcDbLine
 10
89.20603226701954
 20
165.5100283753507
 30
0.0
 11
94.60603226701952
 21
165.5100283753507
 31
0.0
  0
LINE
  5
EF7C88050
330
EF7C85532
100
AcDbEntity
  8
JISSEN
100
AcDbLine
 10
94.90603226701958
 20
168.0007540037038
 30
0.0
 11
94.90603226701958
 21
166.5007540037039
 31
0.0
  0
ARC
  5
EF7C88051
330
EF7C85532
100
AcDbEntity
  8
JISSEN
100
AcDbCircle
 10
96.96672721934376
 20
149.3468020662754
 30
0.0
 40
11.0
100
AcDbArc
 50
6.021677192633947
 51
75.15978516148108
  0
ARC
  5
EF7C88052
330
EF7C85532
100
AcDbEntity
  8
JISSEN
100
AcDbCircle
 10
96.90603226701959
 20
150.5007540037038
 30
0.0
 40
17.0
100
AcDbArc
 50
0.0
 51
70.25007720435732
  0
ARC
  5
EF7C88053
330
EF7C85532
100
AcDbEntity
  8
JISSEN
100
AcDbCircle
 10
96.90603226701959
 20
150.5007540037038
 30
0.0
 40
15.0
100
AcDbArc
 50
0.0
 51
53.31701119964003
  0
ARC
  5
EF7C88054
330
EF7C85532
100
AcDbEntity
  8
JISSEN
100
AcDbCircle
 10
99.11727905054195
 20
149.8990962808592
 30
0.0
 40
10.80551655320168
100
AcDbArc
 50
3.191914576125952
 51
88.46871639638145
  0
ARC
  5
EF7C88055
330
EF7C85532
100
AcDbEntity
  8
JISSEN
100
AcDbCircle
 10
83.90603226701959
 20
150.5007540037038
 30
0.0
 40
28.0
100
AcDbArc
 50
337.9756871629579
 51
0.0
  0
ARC
  5
EF7C88056
330
EF7C85532
100
AcDbEntity
  8
JISSEN
100
AcDbCircle
 10
83.90603226701959
 20
150.5007540037038
 30
0.0
 40
26.0
100
AcDbArc
 50
336.1811586065433
 51
0.0
  0
LINE
  5
EF7C88057
330
EF7C85532
100
AcDbEntity
  8
JISSEN
100
AcDbLine
 10
99.40603226701947
 20
142.8383405388706
 30
0.0
 11
99.40603226701947
 21
147.8383405388706
 31
0.0
  0
ARC
  5
EF7C88058
330
EF7C85532
100
AcDbEntity
  8
JISSEN
100
AcDbCircle
 10
99.46193435397859
 20
142.4332846408401
 30
0.0
 40
4.0
100
AcDbArc
 50
0.0
 51
90.0
  0
ARC
  5
EF7C88059
330
EF7C85532
100
AcDbEntity
  8
JISSEN
100
AcDbCircle
 10
94.46193435397859
 20
142.4332846408401
 30
0.0
 40
9.0
100
AcDbArc
 50
334.9995516404125
 51
0.0
  0
LINE
  5
EF7C8805A
330
EF7C85532
100
AcDbEntity
  8
JISSEN
100
AcDbLine
 10
98.46193435397859
 20
137.8785701023791
 30
0.0
 11
98.46193435397859
 21
133.8710268925415
 31
0.0
  0
LINE
  5
EF7C8805B
330
EF7C85532
100
AcDbEntity
  8
JISSEN
100
AcDbLine
 10
98.46193435397859
 20
136.9905490133787
 30
0.0
 11
98.46193435397859
 21
133.8710268925415
 31
0.0
  0
LINE
  5
EF7C8805C
330
EF7C85532
100
AcDbEntity
  8
JISSEN
100
AcDbLine
 10
98.61193435397868
 20
137.1141815264806
 30
0.0
 11
98.61193435397868
 21
133.8710268925415
 31
0.0
  0
LINE
  5
EF7C8805D
330
EF7C85532
100
AcDbEntity
  8
JISSEN
100
AcDbLine
 10
98.46193435397859
 20
133.8710268925415
 30
0.0
 11
98.61193435397868
 21
133.8710268925415
 31
0.0
  0
LINE
  5
EF7C8805E
330
EF7C85532
100
AcDbEntity
  8
JISSEN
100
AcDbLine
 10
98.46193435397859
 20
137.1141815264806
 30
0.0
 11
98.61193435397868
 21
137.1141815264806
 31
0.0
  0
LINE
  5
EF7C8805F
330
EF7C85532
100
AcDbEntity
  8
JISSEN
100
AcDbLine
 10
98.75066567634078
 20
138.5141815264805
 30
0.0
 11
102.4374137768573
 21
138.5141815264805
 31
0.0
  0
ARC
  5
EF7C88060
330
EF7C85532
100
AcDbEntity
  8
JISSEN
100
AcDbCircle
 10
102.4374137768573
 20
138.7141815264805
 30
0.0
 40
0.2
100
AcDbArc
 50
270.0
 51
334.9995516405538
  0
LINE
  5
EF7C88061
330
EF7C85532
100
AcDbEntity
  8
JISSEN
100
AcDbLine
 10
96.40603226701948
 20
144.0883405388706
 30
0.0
 11
96.40603226701948
 21
147.8383405388706
 31
0.0
  0
LINE
  5
EF7C88062
330
EF7C85532
100
AcDbEntity
  8
JISSEN
100
AcDbLine
 10
100.1054937542523
 20
166.5007540037039
 30
0.0
 11
100.1054937542523
 21
162.5007540037038
 31
0.0
  0
ARC
  5
EF7C88063
330
EF7C85532
100
AcDbEntity
  8
JISSEN
100
AcDbCircle
 10
105.7937807986878
 20
169.6438713320802
 30
0.0
 40
6.498907295833106
100
AcDbArc
 50
219.1009608744955
 51
255.3209199478016
  0
ARC
  5
EF7C88064
330
EF7C85532
100
AcDbEntity
  8
JISSEN
100
AcDbCircle
 10
99.65603226701958
 20
159.4965625738217
 30
0.0
 40
0.5
100
AcDbArc
 50
75.15978516148187
 51
146.9712311280872
  0
LINE
  5
EF7C88065
330
EF7C85532
100
AcDbEntity
  8
JISSEN
100
AcDbLine
 10
99.40603226701959
 20
159.2883405388714
 30
0.0
 11
99.40603226701959
 21
156.6883405388715
 31
0.0
  0
LINE
  5
EF7C88066
330
EF7C85532
100
AcDbEntity
  8
JISSEN
100
AcDbLine
 10
97.90603226702003
 20
159.2883405388714
 30
0.0
 11
99.40603226701959
 21
159.2883405388714
 31
0.0
  0
LINE
  5
EF7C88067
330
EF7C85532
100
AcDbEntity
  8
JISSEN
100
AcDbLine
 10
98.40414675750279
 20
159.2883405388714
 30
0.0
 11
99.23683377067327
 21
159.7690926100763
 31
0.0
  0
LINE
  5
EF7C88068
330
EF7C85532
100
AcDbEntity
  8
JISSEN
100
AcDbLine
 10
99.40603226701959
 20
162.5007540037038
 30
0.0
 11
99.40603226701959
 21
160.7007540037038
 31
0.0
  0
ARC
  5
EF7C88069
330
EF7C85532
100
AcDbEntity
  8
JISSEN
100
AcDbCircle
 10
102.8799029899442
 20
158.5202844504185
 30
0.0
 40
5.0
100
AcDbArc
 50
53.31701119964003
 51
75.32091994780239
  0
LINE
  5
EF7C8806A
330
EF7C85532
100
AcDbEntity
  8
JISSEN
100
AcDbLine
 10
102.5695466213453
 20
168.3885921218126
 30
0.0
 11
101.4060322670195
 21
168.0007540037038
 31
0.0
  0
LINE
  5
EF7C8806B
330
EF7C85532
100
AcDbEntity
  8
JISSEN
100
AcDbLine
 10
101.4060322670195
 20
166.5007540037039
 30
0.0
 11
101.4060322670195
 21
168.0007540037038
 31
0.0
  0
LWPOLYLINE
  5
EF7C8806C
330
EF7C85532
100
AcDbEntity
  8
NITEN
100
AcDbPolyline
 90
        5
 70
     0
 43
0.0
 10
108.9060322670195
 20
212.6113029094276
 10
108.9060322670195
 20
233.4490205605735
 42
-0.5882352941176475
 10
91.90603226701957
 20
233.4490205605735
 42
0.5882352941176476
 10
74.90603226701961
 20
233.4490205605732
 10
74.90603226701961
 20
212.6113029094276
  0
LINE
  5
EF7C8806D
330
EF7C85532
100
AcDbEntity
  8
JISSEN
100
AcDbLine
 10
102.1840864949318
 20
180.7226997757916
 30
0.0
 11
81.62797803910738
 21
180.7226997757916
 31
0.0
  0
LINE
  5
EF7C8806E
330
EF7C85532
100
AcDbEntity
  8
JISSEN
100
AcDbLine
 10
100.4060322670195
 20
182.5007540037038
 30
0.0
 11
91.90603226701957
 21
182.5007540037038
 31
0.0
  0
LINE
  5
EF7C8806F
330
EF7C85532
100
AcDbEntity
  8
JISSEN
100
AcDbLine
 10
83.40603226701958
 20
182.5007540037038
 30
0.0
 11
81.62797803910738
 21
180.7226997757916
 31
0.0
  0
LINE
  5
EF7C88070
330
EF7C85532
100
AcDbEntity
  8
JISSEN
100
AcDbLine
 10
83.40603226701958
 20
182.5007540037038
 30
0.0
 11
91.90603226701957
 21
182.5007540037038
 31
0.0
  0
LINE
  5
EF7C88071
330
EF7C85532
100
AcDbEntity
  8
JISSEN
100
AcDbLine
 10
100.4060322670195
 20
182.5007540037038
 30
0.0
 11
102.1840864949318
 21
180.7226997757916
 31
0.0
  0
LWPOLYLINE
  5
EF7C88072
330
EF7C85532
100
AcDbEntity
  8
NITEN
100
AcDbPolyline
 90
        2
 70
     0
 43
0.0
 10
108.9060322670196
 20
233.4490205605735
 42
0.5882352941176294
 10
91.90603226701957
 20
233.4490205605737
 42
0.5882352941176294
  0
LWPOLYLINE
  5
EF7C8840B
330
EF7C85532
100
AcDbEntity
  8
JISSEN
100
AcDbPolyline
 90
        7
 70
     0
 43
0.0
 10
120.1368851706025
 20
172.0577396729234
 42
-0.1557399217223865
 10
107.4445639359049
 20
168.6020656929761
 42
0.3050742458420765
 10
105.3494693821101
 20
167.3203318706221
 42
-0.2933139429534918
 10
104.9403504316368
 20
167.0577396729234
 10
104.6382835352031
 20
167.0577396729234
 42
-0.4142135623730951
 10
103.6382835352031
 20
168.0577396729234
 10
103.6382835352031
 20
169.0577396729235
  0
LWPOLYLINE
  5
EF7C8840C
330
EF7C85532
100
AcDbEntity
  8
JISSEN
100
AcDbPolyline
 90
        7
 70
     0
 43
0.0
 10
121.8882835352031
 20
172.0577396729234
 42
-0.1724294177368876
 10
107.4014014529091
 20
167.602997627196
 42
0.3050742458420749
 10
106.2586226053848
 20
166.9038700877301
 42
-0.2933139429534979
 10
104.9403504316368
 20
166.0577396729235
 10
104.6382835352031
 20
166.0577396729235
 42
-0.4142135623730951
 10
102.6382835352031
 20
168.0577396729234
 10
102.6382835352031
 20
169.0577396729235
  0
LINE
  5
EF7C8840D
330
EF7C85532
100
AcDbEntity
  8
JISSEN
100
AcDbLine
 10
102.6382835352031
 20
169.0577396729235
 30
0.0
 11
103.6382835352031
 21
169.0577396729235
 31
0.0
  0
HATCH
  5
EF7C8840E
330
EF7C85532
100
AcDbEntity
  8
JISSEN
 62
     0
100
AcDbHatch
 10
0.0
 20
0.0
 30
0.0
210
0.0
220
0.0
230
1.0
  2
ANSI31
 70
     0
 71
     0
 91
        2
 92
        7
 72
     0
 73
     1
 93
       50
 10
130.7692038690433
 20
175.594926901706
 10
130.6471654434894
 20
175.6610012999502
 10
130.4854762479981
 20
175.7246132872863
 10
130.310354495391
 20
175.7877327850159
 10
130.1480183984869
 20
175.8523297144437
 10
130.0246861701046
 20
175.9203739968726
 10
129.9665760230634
 20
175.9938355536062
 10
129.989122459698
 20
176.0747718044514
 10
130.0646251404037
 20
176.1655901632341
 10
130.1546000150834
 20
176.2687855422764
 10
130.2205630336512
 20
176.3868528539121
 10
130.2240301460134
 20
176.5222870104673
 10
130.1265173020786
 20
176.6775829242694
 10
129.889540451755
 20
176.8552355076464
 10
129.4746155449514
 20
177.0577396729262
 10
111.9746155449509
 20
177.0577396729263
 10
111.9746155449509
 20
172.0577396729262
 10
129.4746155449507
 20
172.0577396729264
 10
129.8696734803972
 20
172.2166672314149
 10
130.0711019489524
 20
172.3558642264994
 10
130.11797032751
 20
172.4788880322009
 10
130.0493479929641
 20
172.5892960225406
 10
129.9043043222086
 20
172.6906455715387
 10
129.7219086921394
 20
172.7864940532219
 10
129.5412304796436
 20
172.8803988415956
 10
129.4013390616222
 20
172.9759173106957
 10
129.3031363584761
 20
173.1168130114535
 10
129.3575290844702
 20
173.2871495087726
 10
129.415798628914
 20
173.3964955428489
 10
129.4794905110934
 20
173.5069496533
 10
129.5299962725988
 20
173.6174960955287
 10
129.5487074550233
 20
173.7271191249433
 10
129.517015599959
 20
173.8348029969518
 10
129.4232031288693
 20
173.9398141185668
 10
129.2831159827024
 20
174.0425475032245
 10
129.1194909822769
 20
174.1436803159649
 10
128.9550649484161
 20
174.2438897218331
 10
128.8125747019356
 20
174.3438528858663
 10
128.7147570636566
 20
174.4442469731083
 10
128.6843488543986
 20
174.5457491485997
 10
128.7440868949811
 20
174.6490365773822
 10
128.9081021094405
 20
174.7544478429665
 10
129.1561018346783
 20
174.8609672027393
 10
129.4591875108118
 20
174.9672403325563
 10
129.7884605779636
 20
175.0719129082759
 10
130.1150224762412
 20
175.1736306057495
 10
130.4099746457745
 20
175.2710391008379
 10
130.6444185266755
 20
175.3627840693952
 10
130.789455559064
 20
175.4475111872777
 10
130.8253733118412
 20
175.5244201712494
 97
        0
 92
        7
 72
     0
 73
     1
 93
       50
 10
71.97461554495098
 20
177.0577396729265
 10
54.47461554495101
 20
177.0577396729264
 10
54.05969063814689
 20
176.8552355076463
 10
53.82271378782329
 20
176.6775829242693
 10
53.72520094388841
 20
176.5222870104672
 10
53.72866805625074
 20
176.3868528539122
 10
53.79463107481848
 20
176.2687855422764
 10
53.88460594950081
 20
176.165590163231
 10
53.96010863020396
 20
176.0747718044514
 10
53.9826550668385
 20
175.9938355536062
 10
53.92454491979748
 20
175.9203739968728
 10
53.8012126914148
 20
175.8523297144439
 10
53.63887659451012
 20
175.787732785016
 10
53.46375484190284
 20
175.7246132872858
 10
53.30206564641267
 20
175.6610012999503
 10
53.18002722085868
 20
175.594926901706
 10
53.12385777806068
 20
175.5244201712495
 10
53.15977553083794
 20
175.4475111872777
 10
53.30481256322639
 20
175.3627840693953
 10
53.53925644412837
 20
175.2710391008377
 10
53.83420861365753
 20
175.1736306057502
 10
54.16077051194111
 20
175.0719129082758
 10
54.49004357908967
 20
174.9672403325563
 10
54.79312925522364
 20
174.8609672027391
 10
55.04112898046173
 20
174.7544478429665
 10
55.20514419492062
 20
174.6490365773823
 10
55.26488223550334
 20
174.5457491485996
 10
55.2344740262453
 20
174.4442469731083
 10
55.13665638796658
 20
174.3438528858667
 10
54.99416614148632
 20
174.2438897218332
 10
54.82974010762044
 20
174.143680315964
 10
54.66611510719949
 20
174.0425475032245
 10
54.52602796103267
 20
173.9398141185668
 10
54.43221548994285
 20
173.8348029969518
 10
54.40052363487859
 20
173.7271191249432
 10
54.41923481730308
 20
173.6174960955285
 10
54.46974057880857
 20
173.5069496532996
 10
54.53343246098723
 20
173.3964955428503
 10
54.59170200543195
 20
173.2871495087725
 10
54.64609473142579
 20
173.1168130114535
 10
54.54789202827973
 20
172.9759173106958
 10
54.40800061025814
 20
172.8803988415957
 10
54.22732239776681
 20
172.786494053218
 10
54.04492676769328
 20
172.6906455715389
 10
53.89988309693785
 20
172.5892960225407
 10
53.83126076239193
 20
172.478888032201
 10
53.87812914094954
 20
172.3558642264994
 10
54.07955760950471
 20
172.216667231415
 10
54.47461554495124
 20
172.0577396729264
 10
71.97461554495098
 20
172.0577396729264
 97
        0
 75
     0
 76
     1
 52
0.0
 41
20.0
 77
     0
 78
     1
 53
45.0
 43
33.6151107815061
 44
-534.296717527619
 45
-1.767766952966368
 46
1.767766952966368
 79
     0
 47
0.1350417537953048
 98
        2
 10
198.5383570654297
 20
174.2419035301762
 10
142.4437654253127
 20
175.7273629303139
  0
LINE
  5
EF7C8840F
330
EF7C85532
100
AcDbEntity
  8
JISSEN
100
AcDbLine
 10
102.4548800302502
 20
172.0577396729261
 30
0.0
 11
129.4746155449506
 21
172.0577396729264
 31
0.0
  0
LINE
  5
EF7C88410
330
EF7C85532
100
AcDbEntity
  8
JISSEN
100
AcDbLine
 10
102.2986222217296
 20
177.0577396729263
 30
0.0
 11
129.4746155449513
 21
177.0577396729262
 31
0.0
  0
LINE
  5
EF7C88411
330
EF7C85532
100
AcDbEntity
  8
JISSEN
100
AcDbLine
 10
111.9746155449509
 20
177.0577396729264
 30
0.0
 11
111.9746155449509
 21
172.0577396729265
 31
0.0
  0
POLYLINE
  5
EF7C88412
330
EF7C85532
100
AcDbEntity
  8
JISSEN
 62
     0
100
AcDb2dPolyline
 66
     1
 10
0.0
 20
0.0
 30
0.0
 70
     4
 75
     6
  0
VERTEX
  5
EF7C88413
330
EF7C88412
100
AcDbEntity
  8
JISSEN
 62
     0
100
AcDbVertex
100
AcDb2dVertex
 10
129.4746155449509
 20
177.0577396729264
 30
0.0
 70
    16
  0
VERTEX
  5
EF7C88414
330
EF7C88412
100
AcDbEntity
  8
JISSEN
 62
     0
100
AcDbVertex
100
AcDb2dVertex
 10
129.4746155449509
 20
177.0577396729264
 30
0.0
 70
     8
  0
VERTEX
  5
EF7C88415
330
EF7C88412
100
AcDbEntity
  8
JISSEN
 62
     0
100
AcDbVertex
100
AcDb2dVertex
 10
129.8895404517549
 20
176.8552355076463
 30
0.0
 70
     8
  0
VERTEX
  5
EF7C88416
330
EF7C88412
100
AcDbEntity
  8
JISSEN
 62
     0
100
AcDbVertex
100
AcDb2dVertex
 10
130.1265173020786
 20
176.6775829242693
 30
0.0
 70
     8
  0
VERTEX
  5
EF7C88417
330
EF7C88412
100
AcDbEntity
  8
JISSEN
 62
     0
100
AcDbVertex
100
AcDb2dVertex
 10
130.2240301460135
 20
176.5222870104672
 30
0.0
 70
     8
  0
VERTEX
  5
EF7C88418
330
EF7C88412
100
AcDbEntity
  8
JISSEN
 62
     0
100
AcDbVertex
100
AcDb2dVertex
 10
130.2205630336512
 20
176.3868528539121
 30
0.0
 70
     8
  0
VERTEX
  5
EF7C88419
330
EF7C88412
100
AcDbEntity
  8
JISSEN
 62
     0
100
AcDbVertex
100
AcDb2dVertex
 10
130.1546000150835
 20
176.2687855422765
 30
0.0
 70
     8
  0
VERTEX
  5
EF7C8841A
330
EF7C88412
100
AcDbEntity
  8
JISSEN
 62
     0
100
AcDbVertex
100
AcDb2dVertex
 10
130.0646251404019
 20
176.1655901632321
 30
0.0
 70
     8
  0
VERTEX
  5
EF7C8841B
330
EF7C88412
100
AcDbEntity
  8
JISSEN
 62
     0
100
AcDbVertex
100
AcDb2dVertex
 10
129.989122459698
 20
176.0747718044514
 30
0.0
 70
     8
  0
VERTEX
  5
EF7C8841C
330
EF7C88412
100
AcDbEntity
  8
JISSEN
 62
     0
100
AcDbVertex
100
AcDb2dVertex
 10
129.9665760230634
 20
175.9938355536062
 30
0.0
 70
     8
  0
VERTEX
  5
EF7C8841D
330
EF7C88412
100
AcDbEntity
  8
JISSEN
 62
     0
100
AcDbVertex
100
AcDb2dVertex
 10
130.0246861701045
 20
175.9203739968727
 30
0.0
 70
     8
  0
VERTEX
  5
EF7C8841E
330
EF7C88412
100
AcDbEntity
  8
JISSEN
 62
     0
100
AcDbVertex
100
AcDb2dVertex
 10
130.1480183984872
 20
175.8523297144438
 30
0.0
 70
     8
  0
VERTEX
  5
EF7C8841F
330
EF7C88412
100
AcDbEntity
  8
JISSEN
 62
     0
100
AcDbVertex
100
AcDb2dVertex
 10
130.3103544953918
 20
175.787732785016
 30
0.0
 70
     8
  0
VERTEX
  5
EF7C88420
330
EF7C88412
100
AcDbEntity
  8
JISSEN
 62
     0
100
AcDbVertex
100
AcDb2dVertex
 10
130.4854762479989
 20
175.7246132872858
 30
0.0
 70
     8
  0
VERTEX
  5
EF7C88421
330
EF7C88412
100
AcDbEntity
  8
JISSEN
 62
     0
100
AcDbVertex
100
AcDb2dVertex
 10
130.6471654434893
 20
175.6610012999503
 30
0.0
 70
     8
  0
VERTEX
  5
EF7C88422
330
EF7C88412
100
AcDbEntity
  8
JISSEN
 62
     0
100
AcDbVertex
100
AcDb2dVertex
 10
130.7692038690432
 20
175.594926901706
 30
0.0
 70
     8
  0
VERTEX
  5
EF7C88423
330
EF7C88412
100
AcDbEntity
  8
JISSEN
 62
     0
100
AcDbVertex
100
AcDb2dVertex
 10
130.8253733118412
 20
175.5244201712495
 30
0.0
 70
     8
  0
VERTEX
  5
EF7C88424
330
EF7C88412
100
AcDbEntity
  8
JISSEN
 62
     0
100
AcDbVertex
100
AcDb2dVertex
 10
130.789455559064
 20
175.4475111872777
 30
0.0
 70
     8
  0
VERTEX
  5
EF7C88425
330
EF7C88412
100
AcDbEntity
  8
JISSEN
 62
     0
100
AcDbVertex
100
AcDb2dVertex
 10
130.6444185266757
 20
175.3627840693952
 30
0.0
 70
     8
  0
VERTEX
  5
EF7C88426
330
EF7C88412
100
AcDbEntity
  8
JISSEN
 62
     0
100
AcDbVertex
100
AcDb2dVertex
 10
130.4099746457744
 20
175.2710391008379
 30
0.0
 70
     8
  0
VERTEX
  5
EF7C88427
330
EF7C88412
100
AcDbEntity
  8
JISSEN
 62
     0
100
AcDbVertex
100
AcDb2dVertex
 10
130.1150224762421
 20
175.1736306057498
 30
0.0
 70
     8
  0
VERTEX
  5
EF7C88428
330
EF7C88412
100
AcDbEntity
  8
JISSEN
 62
     0
100
AcDbVertex
100
AcDb2dVertex
 10
129.7884605779607
 20
175.0719129082747
 30
0.0
 70
     8
  0
VERTEX
  5
EF7C88429
330
EF7C88412
100
AcDbEntity
  8
JISSEN
 62
     0
100
AcDbVertex
100
AcDb2dVertex
 10
129.4591875108121
 20
174.9672403325564
 30
0.0
 70
     8
  0
VERTEX
  5
EF7C8842A
330
EF7C88412
100
AcDbEntity
  8
JISSEN
 62
     0
100
AcDbVertex
100
AcDb2dVertex
 10
129.1561018346779
 20
174.8609672027391
 30
0.0
 70
     8
  0
VERTEX
  5
EF7C8842B
330
EF7C88412
100
AcDbEntity
  8
JISSEN
 62
     0
100
AcDbVertex
100
AcDb2dVertex
 10
128.9081021094404
 20
174.7544478429664
 30
0.0
 70
     8
  0
VERTEX
  5
EF7C8842C
330
EF7C88412
100
AcDbEntity
  8
JISSEN
 62
     0
100
AcDbVertex
100
AcDb2dVertex
 10
128.7440868949812
 20
174.6490365773822
 30
0.0
 70
     8
  0
VERTEX
  5
EF7C8842D
330
EF7C88412
100
AcDbEntity
  8
JISSEN
 62
     0
100
AcDbVertex
100
AcDb2dVertex
 10
128.6843488543986
 20
174.5457491485997
 30
0.0
 70
     8
  0
VERTEX
  5
EF7C8842E
330
EF7C88412
100
AcDbEntity
  8
JISSEN
 62
     0
100
AcDbVertex
100
AcDb2dVertex
 10
128.7147570636566
 20
174.4442469731084
 30
0.0
 70
     8
  0
VERTEX
  5
EF7C8842F
330
EF7C88412
100
AcDbEntity
  8
JISSEN
 62
     0
100
AcDbVertex
100
AcDb2dVertex
 10
128.8125747019355
 20
174.3438528858665
 30
0.0
 70
     8
  0
VERTEX
  5
EF7C88430
330
EF7C88412
100
AcDbEntity
  8
JISSEN
 62
     0
100
AcDbVertex
100
AcDb2dVertex
 10
128.9550649484159
 20
174.243889721833
 30
0.0
 70
     8
  0
VERTEX
  5
EF7C88431
330
EF7C88412
100
AcDbEntity
  8
JISSEN
 62
     0
100
AcDbVertex
100
AcDb2dVertex
 10
129.119490982278
 20
174.143680315966
 30
0.0
 70
     8
  0
VERTEX
  5
EF7C88432
330
EF7C88412
100
AcDbEntity
  8
JISSEN
 62
     0
100
AcDbVertex
100
AcDb2dVertex
 10
129.2831159827023
 20
174.0425475032245
 30
0.0
 70
     8
  0
VERTEX
  5
EF7C88433
330
EF7C88412
100
AcDbEntity
  8
JISSEN
 62
     0
100
AcDbVertex
100
AcDb2dVertex
 10
129.4232031288693
 20
173.9398141185668
 30
0.0
 70
     8
  0
VERTEX
  5
EF7C88434
330
EF7C88412
100
AcDbEntity
  8
JISSEN
 62
     0
100
AcDbVertex
100
AcDb2dVertex
 10
129.517015599959
 20
173.8348029969517
 30
0.0
 70
     8
  0
VERTEX
  5
EF7C88435
330
EF7C88412
100
AcDbEntity
  8
JISSEN
 62
     0
100
AcDbVertex
100
AcDb2dVertex
 10
129.5487074550233
 20
173.7271191249433
 30
0.0
 70
     8
  0
VERTEX
  5
EF7C88436
330
EF7C88412
100
AcDbEntity
  8
JISSEN
 62
     0
100
AcDbVertex
100
AcDb2dVertex
 10
129.5299962725988
 20
173.6174960955283
 30
0.0
 70
     8
  0
VERTEX
  5
EF7C88437
330
EF7C88412
100
AcDbEntity
  8
JISSEN
 62
     0
100
AcDbVertex
100
AcDb2dVertex
 10
129.4794905110933
 20
173.5069496532998
 30
0.0
 70
     8
  0
VERTEX
  5
EF7C88438
330
EF7C88412
100
AcDbEntity
  8
JISSEN
 62
     0
100
AcDbVertex
100
AcDb2dVertex
 10
129.4157986289144
 20
173.3964955428505
 30
0.0
 70
     8
  0
VERTEX
  5
EF7C88439
330
EF7C88412
100
AcDbEntity
  8
JISSEN
 62
     0
100
AcDbVertex
100
AcDb2dVertex
 10
129.35752908447
 20
173.2871495087727
 30
0.0
 70
     8
  0
VERTEX
  5
EF7C8843A
330
EF7C88412
100
AcDbEntity
  8
JISSEN
 62
     0
100
AcDbVertex
100
AcDb2dVertex
 10
129.3232903361681
 20
173.1799272956592
 30
0.0
 70
     8
  0
VERTEX
  5
EF7C8843B
330
EF7C88412
100
AcDbEntity
  8
JISSEN
 62
     0
100
AcDbVertex
100
AcDb2dVertex
 10
129.3316908424162
 20
173.0758446481028
 30
0.0
 70
     8
  0
VERTEX
  5
EF7C8843C
330
EF7C88412
100
AcDbEntity
  8
JISSEN
 62
     0
100
AcDbVertex
100
AcDb2dVertex
 10
129.4013390616222
 20
172.9759173106958
 30
0.0
 70
     8
  0
VERTEX
  5
EF7C8843D
330
EF7C88412
100
AcDbEntity
  8
JISSEN
 62
     0
100
AcDbVertex
100
AcDb2dVertex
 10
129.5412304796437
 20
172.8803988415957
 30
0.0
 70
     8
  0
VERTEX
  5
EF7C8843E
330
EF7C88412
100
AcDbEntity
  8
JISSEN
 62
     0
100
AcDbVertex
100
AcDb2dVertex
 10
129.7219086921371
 20
172.7864940532169
 30
0.0
 70
     8
  0
VERTEX
  5
EF7C8843F
330
EF7C88412
100
AcDbEntity
  8
JISSEN
 62
     0
100
AcDbVertex
100
AcDb2dVertex
 10
129.9043043222086
 20
172.6906455715389
 30
0.0
 70
     8
  0
VERTEX
  5
EF7C88440
330
EF7C88412
100
AcDbEntity
  8
JISSEN
 62
     0
100
AcDbVertex
100
AcDb2dVertex
 10
130.0493479929641
 20
172.5892960225406
 30
0.0
 70
     8
  0
VERTEX
  5
EF7C88441
330
EF7C88412
100
AcDbEntity
  8
JISSEN
 62
     0
100
AcDbVertex
100
AcDb2dVertex
 10
130.11797032751
 20
172.4788880322009
 30
0.0
 70
     8
  0
VERTEX
  5
EF7C88442
330
EF7C88412
100
AcDbEntity
  8
JISSEN
 62
     0
100
AcDbVertex
100
AcDb2dVertex
 10
130.0711019489524
 20
172.3558642264994
 30
0.0
 70
     8
  0
VERTEX
  5
EF7C88443
330
EF7C88412
100
AcDbEntity
  8
JISSEN
 62
     0
100
AcDbVertex
100
AcDb2dVertex
 10
129.8696734803972
 20
172.2166672314149
 30
0.0
 70
     8
  0
VERTEX
  5
EF7C88444
330
EF7C88412
100
AcDbEntity
  8
JISSEN
 62
     0
100
AcDbVertex
100
AcDb2dVertex
 10
129.4746155449509
 20
172.0577396729265
 30
0.0
 70
     8
  0
VERTEX
  5
EF7C88445
330
EF7C88412
100
AcDbEntity
  8
JISSEN
 62
     0
100
AcDbVertex
100
AcDb2dVertex
 10
130.8525540829279
 20
176.4823754231289
 30
0.0
 70
    16
  0
VERTEX
  5
EF7C88446
330
EF7C88412
100
AcDbEntity
  8
JISSEN
 62
     0
100
AcDbVertex
100
AcDb2dVertex
 10
128.9912128853468
 20
175.9150388004574
 30
0.0
 70
    16
  0
VERTEX
  5
EF7C88447
330
EF7C88412
100
AcDbEntity
  8
JISSEN
 62
     0
100
AcDbVertex
100
AcDb2dVertex
 10
132.0513799152747
 20
175.5368143853435
 30
0.0
 70
    16
  0
VERTEX
  5
EF7C88448
330
EF7C88412
100
AcDbEntity
  8
JISSEN
 62
     0
100
AcDbVertex
100
AcDb2dVertex
 10
127.5400008079388
 20
174.6227707818358
 30
0.0
 70
    16
  0
VERTEX
  5
EF7C88449
330
EF7C88412
100
AcDbEntity
  8
JISSEN
 62
     0
100
AcDbVertex
100
AcDb2dVertex
 10
130.2531382228569
 20
173.8663219516075
 30
0.0
 70
    16
  0
VERTEX
  5
EF7C8844A
330
EF7C88412
100
AcDbEntity
  8
JISSEN
 62
     0
100
AcDbVertex
100
AcDb2dVertex
 10
128.5495399003877
 20
172.9207593934444
 30
0.0
 70
    16
  0
VERTEX
  5
EF7C8844B
330
EF7C88412
100
AcDbEntity
  8
JISSEN
 62
     0
100
AcDbVertex
100
AcDb2dVertex
 10
130.8210043303463
 20
172.5110160236746
 30
0.0
 70
    16
  0
VERTEX
  5
EF7C8844C
330
EF7C88412
100
AcDbEntity
  8
JISSEN
 62
     0
100
AcDbVertex
100
AcDb2dVertex
 10
129.4746155449509
 20
172.0577396729264
 30
0.0
 70
    16
  0
SEQEND
  5
EF7C8844D
330
EF7C88412
100
AcDbEntity
  8
JISSEN
 62
     0
  0
LWPOLYLINE
  5
EF7C8844E
330
EF7C85532
100
AcDbEntity
  8
JISSEN
100
AcDbPolyline
 90
        7
 70
     0
 43
0.0
 10
63.63968189980377
 20
172.0577396729234
 42
0.1557399217223865
 10
76.33200313450138
 20
168.6020656929761
 42
-0.3050742458420765
 10
78.4270976882959
 20
167.3203318706221
 42
0.2933139429534918
 10
78.83621663876951
 20
167.0577396729234
 10
79.13828353520315
 20
167.0577396729234
 42
0.4142135623730951
 10
80.13828353520315
 20
168.0577396729234
 10
80.13828353520315
 20
169.0577396729235
  0
LWPOLYLINE
  5
EF7C8844F
330
EF7C85532
100
AcDbEntity
  8
JISSEN
100
AcDbPolyline
 90
        7
 70
     0
 43
0.0
 10
61.88828353520316
 20
172.0577396729234
 42
0.1724294177368876
 10
76.37516561749712
 20
167.602997627196
 42
-0.3050742458420749
 10
77.51794446502149
 20
166.9038700877301
 42
0.2933139429534979
 10
78.83621663876951
 20
166.0577396729235
 10
79.13828353520315
 20
166.0577396729235
 42
0.4142135623730951
 10
81.13828353520316
 20
168.0577396729234
 10
81.13828353520316
 20
169.0577396729235
  0
LINE
  5
EF7C88450
330
EF7C85532
100
AcDbEntity
  8
JISSEN
100
AcDbLine
 10
80.13828353520315
 20
169.0577396729235
 30
0.0
 11
81.13828353520316
 21
169.0577396729235
 31
0.0
  0
LINE
  5
EF7C88451
330
EF7C85532
100
AcDbEntity
  8
JISSEN
 62
     0
100
AcDbLine
 10
80.13828353520315
 20
169.0577396729235
 30
0.0
 11
81.13828353520316
 21
169.0577396729235
 31
0.0
  0
LINE
  5
EF7C88452
330
EF7C85532
100
AcDbEntity
  8
JISSEN
100
AcDbLine
 10
54.47461554495132
 20
172.0577396729264
 30
0.0
 11
81.35718450378888
 21
172.0577396729264
 31
0.0
  0
LINE
  5
EF7C88453
330
EF7C85532
100
AcDbEntity
  8
JISSEN
100
AcDbLine
 10
81.51344231230954
 20
177.0577396729265
 30
0.0
 11
54.47461554495109
 21
177.0577396729264
 31
0.0
  0
LINE
  5
EF7C88454
330
EF7C85532
100
AcDbEntity
  8
JISSEN
100
AcDbLine
 10
71.97461554495098
 20
172.0577396729264
 30
0.0
 11
71.97461554495098
 21
177.0577396729264
 31
0.0
  0
POLYLINE
  5
EF7C88455
330
EF7C85532
100
AcDbEntity
  8
JISSEN
 62
     0
100
AcDb2dPolyline
 66
     1
 10
0.0
 20
0.0
 30
0.0
 70
     4
 75
     6
  0
VERTEX
  5
EF7C88456
330
EF7C88455
100
AcDbEntity
  8
JISSEN
 62
     0
100
AcDbVertex
100
AcDb2dVertex
 10
54.47461554495098
 20
177.0577396729264
 30
0.0
 70
    16
  0
VERTEX
  5
EF7C88457
330
EF7C88455
100
AcDbEntity
  8
JISSEN
 62
     0
100
AcDbVertex
100
AcDb2dVertex
 10
54.47461554495098
 20
177.0577396729264
 30
0.0
 70
     8
  0
VERTEX
  5
EF7C88458
330
EF7C88455
100
AcDbEntity
  8
JISSEN
 62
     0
100
AcDbVertex
100
AcDb2dVertex
 10
54.05969063814698
 20
176.8552355076463
 30
0.0
 70
     8
  0
VERTEX
  5
EF7C88459
330
EF7C88455
100
AcDbEntity
  8
JISSEN
 62
     0
100
AcDbVertex
100
AcDb2dVertex
 10
53.82271378782329
 20
176.6775829242693
 30
0.0
 70
     8
  0
VERTEX
  5
EF7C8845A
330
EF7C88455
100
AcDbEntity
  8
JISSEN
 62
     0
100
AcDbVertex
100
AcDb2dVertex
 10
53.72520094388844
 20
176.5222870104672
 30
0.0
 70
     8
  0
VERTEX
  5
EF7C8845B
330
EF7C88455
100
AcDbEntity
  8
JISSEN
 62
     0
100
AcDbVertex
100
AcDb2dVertex
 10
53.72866805625071
 20
176.3868528539121
 30
0.0
 70
     8
  0
VERTEX
  5
EF7C8845C
330
EF7C88455
100
AcDbEntity
  8
JISSEN
 62
     0
100
AcDbVertex
100
AcDb2dVertex
 10
53.79463107481839
 20
176.2687855422765
 30
0.0
 70
     8
  0
VERTEX
  5
EF7C8845D
330
EF7C88455
100
AcDbEntity
  8
JISSEN
 62
     0
100
AcDbVertex
100
AcDb2dVertex
 10
53.88460594950001
 20
176.1655901632321
 30
0.0
 70
     8
  0
VERTEX
  5
EF7C8845E
330
EF7C88455
100
AcDbEntity
  8
JISSEN
 62
     0
100
AcDbVertex
100
AcDb2dVertex
 10
53.96010863020396
 20
176.0747718044514
 30
0.0
 70
     8
  0
VERTEX
  5
EF7C8845F
330
EF7C88455
100
AcDbEntity
  8
JISSEN
 62
     0
100
AcDbVertex
100
AcDb2dVertex
 10
53.98265506683853
 20
175.9938355536062
 30
0.0
 70
     8
  0
VERTEX
  5
EF7C88460
330
EF7C88455
100
AcDbEntity
  8
JISSEN
 62
     0
100
AcDbVertex
100
AcDb2dVertex
 10
53.9245449197974
 20
175.9203739968727
 30
0.0
 70
     8
  0
VERTEX
  5
EF7C88461
330
EF7C88455
100
AcDbEntity
  8
JISSEN
 62
     0
100
AcDbVertex
100
AcDb2dVertex
 10
53.80121269141475
 20
175.8523297144438
 30
0.0
 70
     8
  0
VERTEX
  5
EF7C88462
330
EF7C88455
100
AcDbEntity
  8
JISSEN
 62
     0
100
AcDbVertex
100
AcDb2dVertex
 10
53.63887659451015
 20
175.787732785016
 30
0.0
 70
     8
  0
VERTEX
  5
EF7C88463
330
EF7C88455
100
AcDbEntity
  8
JISSEN
 62
     0
100
AcDbVertex
100
AcDb2dVertex
 10
53.46375484190295
 20
175.7246132872858
 30
0.0
 70
     8
  0
VERTEX
  5
EF7C88464
330
EF7C88455
100
AcDbEntity
  8
JISSEN
 62
     0
100
AcDbVertex
100
AcDb2dVertex
 10
53.30206564641262
 20
175.6610012999503
 30
0.0
 70
     8
  0
VERTEX
  5
EF7C88465
330
EF7C88455
100
AcDbEntity
  8
JISSEN
 62
     0
100
AcDbVertex
100
AcDb2dVertex
 10
53.1800272208587
 20
175.594926901706
 30
0.0
 70
     8
  0
VERTEX
  5
EF7C88466
330
EF7C88455
100
AcDbEntity
  8
JISSEN
 62
     0
100
AcDbVertex
100
AcDb2dVertex
 10
53.12385777806068
 20
175.5244201712495
 30
0.0
 70
     8
  0
VERTEX
  5
EF7C88467
330
EF7C88455
100
AcDbEntity
  8
JISSEN
 62
     0
100
AcDbVertex
100
AcDb2dVertex
 10
53.15977553083789
 20
175.4475111872777
 30
0.0
 70
     8
  0
VERTEX
  5
EF7C88468
330
EF7C88455
100
AcDbEntity
  8
JISSEN
 62
     0
100
AcDbVertex
100
AcDb2dVertex
 10
53.30481256322625
 20
175.3627840693952
 30
0.0
 70
     8
  0
VERTEX
  5
EF7C88469
330
EF7C88455
100
AcDbEntity
  8
JISSEN
 62
     0
100
AcDbVertex
100
AcDb2dVertex
 10
53.53925644412751
 20
175.2710391008379
 30
0.0
 70
     8
  0
VERTEX
  5
EF7C8846A
330
EF7C88455
100
AcDbEntity
  8
JISSEN
 62
     0
100
AcDbVertex
100
AcDb2dVertex
 10
53.8342086136598
 20
175.1736306057498
 30
0.0
 70
     8
  0
VERTEX
  5
EF7C8846B
330
EF7C88455
100
AcDbEntity
  8
JISSEN
 62
     0
100
AcDbVertex
100
AcDb2dVertex
 10
54.16077051194119
 20
175.0719129082747
 30
0.0
 70
     8
  0
VERTEX
  5
EF7C8846C
330
EF7C88455
100
AcDbEntity
  8
JISSEN
 62
     0
100
AcDbVertex
100
AcDb2dVertex
 10
54.49004357908981
 20
174.9672403325564
 30
0.0
 70
     8
  0
VERTEX
  5
EF7C8846D
330
EF7C88455
100
AcDbEntity
  8
JISSEN
 62
     0
100
AcDbVertex
100
AcDb2dVertex
 10
54.79312925522399
 20
174.8609672027391
 30
0.0
 70
     8
  0
VERTEX
  5
EF7C8846E
330
EF7C88455
100
AcDbEntity
  8
JISSEN
 62
     0
100
AcDbVertex
100
AcDb2dVertex
 10
55.04112898046148
 20
174.7544478429664
 30
0.0
 70
     8
  0
VERTEX
  5
EF7C8846F
330
EF7C88455
100
AcDbEntity
  8
JISSEN
 62
     0
100
AcDbVertex
100
AcDb2dVertex
 10
55.20514419492073
 20
174.6490365773822
 30
0.0
 70
     8
  0
VERTEX
  5
EF7C88470
330
EF7C88455
100
AcDbEntity
  8
JISSEN
 62
     0
100
AcDbVertex
100
AcDb2dVertex
 10
55.26488223550334
 20
174.5457491485997
 30
0.0
 70
     8
  0
VERTEX
  5
EF7C88471
330
EF7C88455
100
AcDbEntity
  8
JISSEN
 62
     0
100
AcDbVertex
100
AcDb2dVertex
 10
55.23447402624535
 20
174.4442469731084
 30
0.0
 70
     8
  0
VERTEX
  5
EF7C88472
330
EF7C88455
100
AcDbEntity
  8
JISSEN
 62
     0
100
AcDbVertex
100
AcDb2dVertex
 10
55.13665638796644
 20
174.3438528858665
 30
0.0
 70
     8
  0
VERTEX
  5
EF7C88473
330
EF7C88455
100
AcDbEntity
  8
JISSEN
 62
     0
100
AcDbVertex
100
AcDb2dVertex
 10
54.99416614148604
 20
174.243889721833
 30
0.0
 70
     8
  0
VERTEX
  5
EF7C88474
330
EF7C88455
100
AcDbEntity
  8
JISSEN
 62
     0
100
AcDbVertex
100
AcDb2dVertex
 10
54.8297401076239
 20
174.143680315966
 30
0.0
 70
     8
  0
VERTEX
  5
EF7C88475
330
EF7C88455
100
AcDbEntity
  8
JISSEN
 62
     0
100
AcDbVertex
100
AcDb2dVertex
 10
54.6661151071996
 20
174.0425475032245
 30
0.0
 70
     8
  0
VERTEX
  5
EF7C88476
330
EF7C88455
100
AcDbEntity
  8
JISSEN
 62
     0
100
AcDbVertex
100
AcDb2dVertex
 10
54.52602796103267
 20
173.9398141185668
 30
0.0
 70
     8
  0
VERTEX
  5
EF7C88477
330
EF7C88455
100
AcDbEntity
  8
JISSEN
 62
     0
100
AcDbVertex
100
AcDb2dVertex
 10
54.43221548994287
 20
173.8348029969517
 30
0.0
 70
     8
  0
VERTEX
  5
EF7C88478
330
EF7C88455
100
AcDbEntity
  8
JISSEN
 62
     0
100
AcDbVertex
100
AcDb2dVertex
 10
54.40052363487857
 20
173.7271191249433
 30
0.0
 70
     8
  0
VERTEX
  5
EF7C88479
330
EF7C88455
100
AcDbEntity
  8
JISSEN
 62
     0
100
AcDbVertex
100
AcDb2dVertex
 10
54.41923481730313
 20
173.6174960955283
 30
0.0
 70
     8
  0
VERTEX
  5
EF7C8847A
330
EF7C88455
100
AcDbEntity
  8
JISSEN
 62
     0
100
AcDbVertex
100
AcDb2dVertex
 10
54.46974057880865
 20
173.5069496532998
 30
0.0
 70
     8
  0
VERTEX
  5
EF7C8847B
330
EF7C88455
100
AcDbEntity
  8
JISSEN
 62
     0
100
AcDbVertex
100
AcDb2dVertex
 10
54.53343246098754
 20
173.3964955428505
 30
0.0
 70
     8
  0
VERTEX
  5
EF7C8847C
330
EF7C88455
100
AcDbEntity
  8
JISSEN
 62
     0
100
AcDbVertex
100
AcDb2dVertex
 10
54.59170200543187
 20
173.2871495087727
 30
0.0
 70
     8
  0
VERTEX
  5
EF7C8847D
330
EF7C88455
100
AcDbEntity
  8
JISSEN
 62
     0
100
AcDbVertex
100
AcDb2dVertex
 10
54.62594075373383
 20
173.1799272956592
 30
0.0
 70
     8
  0
VERTEX
  5
EF7C8847E
330
EF7C88455
100
AcDbEntity
  8
JISSEN
 62
     0
100
AcDbVertex
100
AcDb2dVertex
 10
54.61754024748572
 20
173.0758446481028
 30
0.0
 70
     8
  0
VERTEX
  5
EF7C8847F
330
EF7C88455
100
AcDbEntity
  8
JISSEN
 62
     0
100
AcDbVertex
100
AcDb2dVertex
 10
54.54789202827973
 20
172.9759173106958
 30
0.0
 70
     8
  0
VERTEX
  5
EF7C88480
330
EF7C88455
100
AcDbEntity
  8
JISSEN
 62
     0
100
AcDbVertex
100
AcDb2dVertex
 10
54.4080006102582
 20
172.8803988415957
 30
0.0
 70
     8
  0
VERTEX
  5
EF7C88481
330
EF7C88455
100
AcDbEntity
  8
JISSEN
 62
     0
100
AcDbVertex
100
AcDb2dVertex
 10
54.22732239776482
 20
172.7864940532169
 30
0.0
 70
     8
  0
VERTEX
  5
EF7C88482
330
EF7C88455
100
AcDbEntity
  8
JISSEN
 62
     0
100
AcDbVertex
100
AcDb2dVertex
 10
54.04492676769334
 20
172.6906455715389
 30
0.0
 70
     8
  0
VERTEX
  5
EF7C88483
330
EF7C88455
100
AcDbEntity
  8
JISSEN
 62
     0
100
AcDbVertex
100
AcDb2dVertex
 10
53.89988309693783
 20
172.5892960225406
 30
0.0
 70
     8
  0
VERTEX
  5
EF7C88484
330
EF7C88455
100
AcDbEntity
  8
JISSEN
 62
     0
100
AcDbVertex
100
AcDb2dVertex
 10
53.8312607623919
 20
172.4788880322009
 30
0.0
 70
     8
  0
VERTEX
  5
EF7C88485
330
EF7C88455
100
AcDbEntity
  8
JISSEN
 62
     0
100
AcDbVertex
100
AcDb2dVertex
 10
53.87812914094954
 20
172.3558642264994
 30
0.0
 70
     8
  0
VERTEX
  5
EF7C88486
330
EF7C88455
100
AcDbEntity
  8
JISSEN
 62
     0
100
AcDbVertex
100
AcDb2dVertex
 10
54.07955760950469
 20
172.2166672314149
 30
0.0
 70
     8
  0
VERTEX
  5
EF7C88487
330
EF7C88455
100
AcDbEntity
  8
JISSEN
 62
     0
100
AcDbVertex
100
AcDb2dVertex
 10
54.47461554495098
 20
172.0577396729265
 30
0.0
 70
     8
  0
VERTEX
  5
EF7C88488
330
EF7C88455
100
AcDbEntity
  8
JISSEN
 62
     0
100
AcDbVertex
100
AcDb2dVertex
 10
53.09667700697398
 20
176.4823754231289
 30
0.0
 70
    16
  0
VERTEX
  5
EF7C88489
330
EF7C88455
100
AcDbEntity
  8
JISSEN
 62
     0
100
AcDbVertex
100
AcDb2dVertex
 10
54.95801820455515
 20
175.9150388004574
 30
0.0
 70
    16
  0
VERTEX
  5
EF7C8848A
330
EF7C88455
100
AcDbEntity
  8
JISSEN
 62
     0
100
AcDbVertex
100
AcDb2dVertex
 10
51.89785117462722
 20
175.5368143853435
 30
0.0
 70
    16
  0
VERTEX
  5
EF7C8848B
330
EF7C88455
100
AcDbEntity
  8
JISSEN
 62
     0
100
AcDbVertex
100
AcDb2dVertex
 10
56.40923028196309
 20
174.6227707818358
 30
0.0
 70
    16
  0
VERTEX
  5
EF7C8848C
330
EF7C88455
100
AcDbEntity
  8
JISSEN
 62
     0
100
AcDbVertex
100
AcDb2dVertex
 10
53.69609286704505
 20
173.8663219516075
 30
0.0
 70
    16
  0
VERTEX
  5
EF7C8848D
330
EF7C88455
100
AcDbEntity
  8
JISSEN
 62
     0
100
AcDbVertex
100
AcDb2dVertex
 10
55.39969118951418
 20
172.9207593934444
 30
0.0
 70
    16
  0
VERTEX
  5
EF7C8848E
330
EF7C88455
100
AcDbEntity
  8
JISSEN
 62
     0
100
AcDbVertex
100
AcDb2dVertex
 10
53.12822675955565
 20
172.5110160236746
 30
0.0
 70
    16
  0
VERTEX
  5
EF7C8848F
330
EF7C88455
100
AcDbEntity
  8
JISSEN
 62
     0
100
AcDbVertex
100
AcDb2dVertex
 10
54.47461554495098
 20
172.0577396729264
 30
0.0
 70
    16
  0
SEQEND
  5
EF7C88490
330
EF7C88455
100
AcDbEntity
  8
JISSEN
 62
     0
  0
CIRCLE
  5
EF7C88491
330
EF7C85532
100
AcDbEntity
  8
SUNPOU
100
AcDbCircle
 10
137.2834052206567
 20
103.4357535931063
 30
0.0
 40
6.0
  0
TEXT
  5
EF7C88493
330
EF7C85532
100
AcDbEntity
  8
SUNPOU
100
AcDbText
 10
135.1405480777996
 20
101.1857535931063
 30
0.0
 40
4.5
  1
2
  7
K
 72
     4
 11
137.2834052206567
 21
103.4357535931063
 31
0.0
100
AcDbText
  0
INSERT
  5
EF7C88494
330
EF7C85532
100
AcDbEntity
  8
SUNPOU
100
AcDbBlockReference
  2
ARROW
 10
115.0289067826125
 20
168.5813863289231
 30
0.0
 41
-1.500000000000002
 42
1.5
 43
1.5
 50
288.8607579839983
  0
LINE
  5
EF7C88495
330
EF7C85532
100
AcDbEntity
  8
SUNPOU
100
AcDbLine
 10
115.0289067826125
 20
168.5813863289233
 30
0.0
 11
135.3437890237128
 21
109.1135955254388
 31
0.0
  0
ARC
  5
EF7C88497
330
EF7C85532
100
AcDbEntity
  8
JISSEN
100
AcDbCircle
 10
94.46193435397859
 20
42.43328464084011
 30
0.0
 40
9.0
100
AcDbArc
 50
334.9995516404125
 51
0.0
  0
ARC
  5
EF7C88498
330
EF7C85532
100
AcDbEntity
  8
JISSEN
100
AcDbCircle
 10
83.90603226701959
 20
50.5007540037039
 30
0.0
 40
28.0
100
AcDbArc
 50
337.9756871629579
 51
0.0
  0
ARC
  5
EF7C88499
330
EF7C85532
100
AcDbEntity
  8
JISSEN
100
AcDbCircle
 10
83.90603226701959
 20
50.5007540037039
 30
0.0
 40
26.0
100
AcDbArc
 50
336.1811586065433
 51
0.0
  0
LINE
  5
EF7C8849A
330
EF7C85532
100
AcDbEntity
  8
JISSEN
100
AcDbLine
 10
94.53103226701946
 20
42.58834053887075
 30
0.0
 11
94.53103226701946
 21
38.08834053887069
 31
0.0
  0
LINE
  5
EF7C8849B
330
EF7C85532
100
AcDbEntity
  8
JISSEN
100
AcDbLine
 10
89.28103226701948
 20
42.58834053887075
 30
0.0
 11
89.28103226701948
 21
38.08834053887069
 31
0.0
  0
LINE
  5
EF7C8849C
330
EF7C85532
100
AcDbEntity
  8
JISSEN
100
AcDbLine
 10
94.40603226701957
 20
37.38496207434413
 30
0.0
 11
93.44667072233667
 21
50.81602369990505
 31
0.0
  0
LINE
  5
EF7C8849D
330
EF7C85532
100
AcDbEntity
  8
JISSEN
100
AcDbLine
 10
90.36539381170248
 20
50.81602369990505
 30
0.0
 11
89.40603226701957
 21
37.38496207434413
 31
0.0
  0
ARC
  5
EF7C8849E
330
EF7C85532
100
AcDbEntity
  8
JISSEN
100
AcDbCircle
 10
85.90603226701947
 20
42.83834053887069
 30
0.0
 40
13.5
100
AcDbArc
 50
317.7945535962682
 51
0.0
  0
ARC
  5
EF7C8849F
330
EF7C85532
100
AcDbEntity
  8
JISSEN
100
AcDbCircle
 10
89.40603226701957
 20
42.43328464084011
 30
0.0
 40
9.0
100
AcDbArc
 50
180.0
 51
205.0004483595911
  0
ARC
  5
EF7C884A0
330
EF7C85532
100
AcDbEntity
  8
JISSEN
100
AcDbCircle
 10
99.90603226701958
 20
50.5007540037039
 30
0.0
 40
28.0
100
AcDbArc
 50
180.0
 51
202.024312837042
  0
ARC
  5
EF7C884A1
330
EF7C85532
100
AcDbEntity
  8
JISSEN
100
AcDbCircle
 10
99.90603226701958
 20
50.5007540037039
 30
0.0
 40
26.0
100
AcDbArc
 50
180.0
 51
203.8188413934565
  0
ARC
  5
EF7C884A2
330
EF7C85532
100
AcDbEntity
  8
JISSEN
100
AcDbCircle
 10
97.90603226701946
 20
42.83834053887069
 30
0.0
 40
13.5
100
AcDbArc
 50
180.0
 51
222.2054464037328
  0
ARC
  5
EF7C884A3
330
EF7C85532
100
AcDbEntity
  8
JISSEN
100
AcDbCircle
 10
83.90603226701959
 20
50.5007540037039
 30
0.0
 40
24.0
100
AcDbArc
 50
302.1818839204035
 51
0.0
  0
ARC
  5
EF7C884A4
330
EF7C85532
100
AcDbEntity
  8
JISSEN
100
AcDbCircle
 10
99.90603226701958
 20
50.5007540037039
 30
0.0
 40
24.0
100
AcDbArc
 50
180.0
 51
237.8181160795964
  0
ARC
  5
EF7C884A5
330
EF7C85532
100
AcDbEntity
  8
JISSEN
100
AcDbCircle
 10
99.90603226701958
 20
50.5007540037039
 30
0.0
 40
30.0
100
AcDbArc
 50
180.0
 51
220.2190987445557
  0
ARC
  5
EF7C884A6
330
EF7C85532
100
AcDbEntity
  8
JISSEN
100
AcDbCircle
 10
83.90603226701959
 20
50.5007540037039
 30
0.0
 40
30.0
100
AcDbArc
 50
319.7809012554443
 51
0.0
  0
LINE
  5
EF7C884A8
330
EF7C85532
100
AcDbEntity
  8
JISSEN
100
AcDbLine
 10
85.11730094465738
 20
38.51418152648058
 30
0.0
 11
81.43055284414087
 21
38.51418152648058
 31
0.0
  0
LINE
  5
EF7C884A9
330
EF7C85532
100
AcDbEntity
  8
JISSEN
100
AcDbLine
 10
72.90603226701958
 20
17.86352665417292
 30
0.0
 11
110.9060322670195
 21
17.86352665417315
 31
0.0
  0
LINE
  5
EF7C884AA
330
EF7C85532
100
AcDbEntity
  8
JISSEN
100
AcDbLine
 10
110.7323840893525
 20
16.87871890116072
 30
0.0
 11
73.07968044468649
 21
16.87871890116072
 31
0.0
  0
LINE
  5
EF7C884AB
330
EF7C85532
100
AcDbEntity
  8
JISSEN
100
AcDbLine
 10
76.99860730891365
 20
31.12938642707821
 30
0.0
 11
86.83220278238744
 21
19.50076240319772
 31
0.0
  0
LINE
  5
EF7C884AC
330
EF7C85532
100
AcDbEntity
  8
JISSEN
100
AcDbLine
 10
82.3854652164678
 20
16.70075400370389
 30
0.0
 11
91.90603226701957
 21
16.70075400370389
 31
0.0
  0
LINE
  5
EF7C884AD
330
EF7C85532
100
AcDbEntity
  8
JISSEN
100
AcDbLine
 10
88.49251656272556
 20
19.50076240319772
 30
0.0
 11
84.5877730594249
 21
19.50076240319772
 31
0.0
  0
LINE
  5
EF7C884AE
330
EF7C85532
100
AcDbEntity
  8
JISSEN
100
AcDbLine
 10
83.4551387059038
 20
17.86352665417304
 30
0.0
 11
84.5877730594249
 21
19.50076240319772
 31
0.0
  0
ARC
  5
EF7C884AF
330
EF7C85532
100
AcDbEntity
  8
JISSEN
100
AcDbCircle
 10
83.73924492200094
 20
18.50076240319721
 30
0.0
 40
1.0
100
AcDbArc
 50
47.91894748809069
 51
146.3490341753988
  0
LINE
  5
EF7C884B0
330
EF7C85532
100
AcDbEntity
  8
JISSEN
100
AcDbLine
 10
79.69120003504307
 20
17.86352665417298
 30
0.0
 11
81.4848402092538
 21
19.50076240319772
 31
0.0
  0
ARC
  5
EF7C884B1
330
EF7C85532
100
AcDbEntity
  8
JISSEN
100
AcDbCircle
 10
80.94002417983032
 20
18.14526240319766
 30
0.0
 40
1.355499999999999
100
AcDbArc
 50
70.26879749382101
 51
124.9999999999968
  0
LINE
  5
EF7C884B2
330
EF7C85532
100
AcDbEntity
  8
JISSEN
100
AcDbLine
 10
74.81854360349363
 20
18.20075400370389
 30
0.0
 11
78.65603226701958
 21
18.20075400370389
 31
0.0
  0
LINE
  5
EF7C884B3
330
EF7C85532
100
AcDbEntity
  8
JISSEN
100
AcDbLine
 10
73.90603226701912
 20
18.03985363488119
 30
0.0
 11
74.81854360349339
 21
18.20075400370389
 31
0.0
  0
LINE
  5
EF7C884B4
330
EF7C85532
100
AcDbEntity
  8
JISSEN
100
AcDbLine
 10
72.90603226701958
 20
17.86352665417292
 30
0.0
 11
73.90603226701912
 21
18.03985363488119
 31
0.0
  0
LINE
  5
EF7C884B5
330
EF7C85532
100
AcDbEntity
  8
JISSEN
100
AcDbLine
 10
73.07968044468649
 20
16.87871890116049
 30
0.0
 11
72.90603226701958
 21
17.86352665417292
 31
0.0
  0
LINE
  5
EF7C884B6
330
EF7C85532
100
AcDbEntity
  8
JISSEN
100
AcDbLine
 10
78.65603226701958
 20
18.20075400370389
 30
0.0
 11
80.16254132035649
 21
19.2556229992315
 31
0.0
  0
LINE
  5
EF7C884B7
330
EF7C85532
100
AcDbEntity
  8
JISSEN
100
AcDbLine
 10
82.11374482027556
 20
17.86352665417304
 30
0.0
 11
82.90681626440042
 21
19.05489463471367
 31
0.0
  0
LINE
  5
EF7C884B8
330
EF7C85532
100
AcDbEntity
  8
JISSEN
100
AcDbLine
 10
82.3854652164678
 20
16.70075400370389
 30
0.0
 11
82.26085285373178
 21
16.87871890116072
 31
0.0
  0
LINE
  5
EF7C884B9
330
EF7C85532
100
AcDbEntity
  8
JISSEN
100
AcDbLine
 10
81.4848402092538
 20
19.50076240319772
 30
0.0
 11
83.73924492200094
 21
19.50076240319772
 31
0.0
  0
ARC
  5
EF7C884BA
330
EF7C85532
100
AcDbEntity
  8
JISSEN
100
AcDbCircle
 10
81.43055284414087
 20
38.71418152648057
 30
0.0
 40
0.2
100
AcDbArc
 50
205.0004483594498
 51
270.0
  0
LINE
  5
EF7C884BB
330
EF7C85532
100
AcDbEntity
  8
JISSEN
100
AcDbLine
 10
100.3569258281353
 20
17.86352665417304
 30
0.0
 11
99.22429147461427
 21
19.50076240319766
 31
0.0
  0
ARC
  5
EF7C884BC
330
EF7C85532
100
AcDbEntity
  8
JISSEN
100
AcDbCircle
 10
100.0728196120382
 20
18.50076240319721
 30
0.0
 40
1.0
100
AcDbArc
 50
33.65096582460109
 51
132.0810525119092
  0
ARC
  5
EF7C884BD
330
EF7C85532
100
AcDbEntity
  8
JISSEN
100
AcDbCircle
 10
102.8720403542088
 20
18.14526240319766
 30
0.0
 40
1.355499999999999
100
AcDbArc
 50
55.00000000000309
 51
109.7312025061702
  0
LINE
  5
EF7C884BE
330
EF7C85532
100
AcDbEntity
  8
JISSEN
100
AcDbLine
 10
104.120864498996
 20
17.86352665417298
 30
0.0
 11
102.3272243247852
 21
19.50076240319766
 31
0.0
  0
LINE
  5
EF7C884BF
330
EF7C85532
100
AcDbEntity
  8
JISSEN
100
AcDbLine
 10
94.16043697976673
 20
19.50076240319772
 30
0.0
 11
94.3285770522522
 21
17.86352665417304
 31
0.0
  0
ARC
  5
EF7C884C0
330
EF7C85532
100
AcDbEntity
  8
JISSEN
100
AcDbCircle
 10
95.31954797131348
 20
19.00076240319675
 30
0.0
 40
0.5
100
AcDbArc
 50
15.79871507350246
 51
166.709870010097
  0
LINE
  5
EF7C884C1
330
EF7C85532
100
AcDbEntity
  8
JISSEN
100
AcDbLine
 10
89.4834874817872
 20
17.86352665417304
 30
0.0
 11
89.65162755427243
 21
19.50076240319772
 31
0.0
  0
ARC
  5
EF7C884C2
330
EF7C85532
100
AcDbEntity
  8
JISSEN
100
AcDbCircle
 10
88.49251656272556
 20
19.00076240319675
 30
0.0
 40
0.5
100
AcDbArc
 50
13.29012998990297
 51
164.2012849264975
  0
LINE
  5
EF7C884C3
330
EF7C85532
100
AcDbEntity
  8
JISSEN
100
AcDbLine
 10
101.4265993175713
 20
16.70075400370389
 30
0.0
 11
91.90603226701957
 21
16.70075400370389
 31
0.0
  0
LINE
  5
EF7C884C6
330
EF7C85532
100
AcDbEntity
  8
JISSEN
100
AcDbLine
 10
87.65110935753765
 20
17.86352665417304
 30
0.0
 11
88.0114045129766
 21
19.1368917372372
 31
0.0
  0
LINE
  5
EF7C884C7
330
EF7C85532
100
AcDbEntity
  8
JISSEN
100
AcDbLine
 10
89.27490010801333
 20
17.86352665417304
 30
0.0
 11
88.97912580655818
 21
19.11570344815756
 31
0.0
  0
LINE
  5
EF7C884C8
330
EF7C85532
100
AcDbEntity
  8
JISSEN
100
AcDbLine
 10
88.49251656272556
 20
17.86352665417304
 30
0.0
 11
88.59598227630389
 21
18.22919803491744
 31
0.0
  0
LINE
  5
EF7C884C9
330
EF7C85532
100
AcDbEntity
  8
JISSEN
100
AcDbLine
 10
88.87490010801323
 20
17.86352665417304
 30
0.0
 11
88.7895265350202
 21
18.22496037710154
 31
0.0
  0
ARC
  5
EF7C884CA
330
EF7C85532
100
AcDbEntity
  8
JISSEN
100
AcDbCircle
 10
88.69220468625362
 20
18.20197216810932
 30
0.0
 40
0.1
100
AcDbArc
 50
13.29012998990889
 51
164.2012849264934
  0
LINE
  5
EF7C884CB
330
EF7C85532
100
AcDbEntity
  8
JISSEN
100
AcDbLine
 10
94.53716442602583
 20
17.86352665417304
 30
0.0
 11
94.83293872748097
 21
19.11570344815756
 31
0.0
  0
LINE
  5
EF7C884CC
330
EF7C85532
100
AcDbEntity
  8
JISSEN
100
AcDbLine
 10
94.93716442602593
 20
17.86352665417304
 30
0.0
 11
95.02253799901897
 21
18.22496037710154
 31
0.0
  0
LINE
  5
EF7C884CD
330
EF7C85532
100
AcDbEntity
  8
JISSEN
100
AcDbLine
 10
95.31954797131348
 20
17.86352665417304
 30
0.0
 11
95.21608225773528
 21
18.22919803491744
 31
0.0
  0
ARC
  5
EF7C884CE
330
EF7C85532
100
AcDbEntity
  8
JISSEN
100
AcDbCircle
 10
95.11985984778542
 20
18.20197216810932
 30
0.0
 40
0.1
100
AcDbArc
 50
15.79871507350659
 51
166.7098700100911
  0
LINE
  5
EF7C884CF
330
EF7C85532
100
AcDbEntity
  8
JISSEN
100
AcDbLine
 10
96.16095517650151
 20
17.86352665417304
 30
0.0
 11
95.80066002106255
 21
19.1368917372372
 31
0.0
  0
LINE
  5
EF7C884D1
330
EF7C85532
100
AcDbEntity
  8
JISSEN
100
AcDbLine
 10
105.1560322670195
 20
18.20075400370389
 30
0.0
 11
108.9935209305469
 21
18.20075400370389
 31
0.0
  0
LINE
  5
EF7C884D2
330
EF7C85532
100
AcDbEntity
  8
JISSEN
100
AcDbLine
 10
101.4265993175713
 20
16.70075400370389
 30
0.0
 11
101.5512116803073
 21
16.87871890116072
 31
0.0
  0
LINE
  5
EF7C884D3
330
EF7C85532
100
AcDbEntity
  8
JISSEN
100
AcDbLine
 10
101.6983197137635
 20
17.86352665417304
 30
0.0
 11
100.9052482696387
 21
19.05489463471361
 31
0.0
  0
LINE
  5
EF7C884D4
330
EF7C85532
100
AcDbEntity
  8
JISSEN
100
AcDbLine
 10
105.1560322670195
 20
18.20075400370389
 30
0.0
 11
103.6495232136825
 21
19.2556229992315
 31
0.0
  0
LINE
  5
EF7C884D5
330
EF7C85532
100
AcDbEntity
  8
JISSEN
100
AcDbLine
 10
110.9060322670195
 20
17.86352665417315
 30
0.0
 11
108.9935209305456
 21
18.20075400370411
 31
0.0
  0
LINE
  5
EF7C884D6
330
EF7C85532
100
AcDbEntity
  8
JISSEN
100
AcDbLine
 10
110.7323840893525
 20
16.87871890116072
 30
0.0
 11
110.9060322670195
 21
17.86352665417315
 31
0.0
  0
LINE
  5
EF7C884D7
330
EF7C85532
100
AcDbEntity
  8
JISSEN
100
AcDbLine
 10
98.75066567634078
 20
38.51418152648058
 30
0.0
 11
102.4374137768573
 21
38.51418152648058
 31
0.0
  0
LINE
  5
EF7C884D8
330
EF7C85532
100
AcDbEntity
  8
JISSEN
100
AcDbLine
 10
95.31954797131348
 20
19.50076240319766
 30
0.0
 11
99.22429147461427
 21
19.50076240319772
 31
0.0
  0
LINE
  5
EF7C884D9
330
EF7C85532
100
AcDbEntity
  8
JISSEN
100
AcDbLine
 10
106.8134572251254
 20
31.12938642707821
 30
0.0
 11
96.97986175165173
 21
19.50076240319766
 31
0.0
  0
ARC
  5
EF7C884DA
330
EF7C85532
100
AcDbEntity
  8
JISSEN
100
AcDbCircle
 10
94.70202617623366
 20
29.0007540037039
 30
0.0
 40
1.5
100
AcDbArc
 50
54.43667142405059
 51
90.0
  0
ARC
  5
EF7C884DB
330
EF7C85532
100
AcDbEntity
  8
JISSEN
100
AcDbCircle
 10
89.11003835780551
 20
29.0007540037039
 30
0.0
 40
1.5
100
AcDbArc
 50
90.0
 51
125.5633285759494
  0
LINE
  5
EF7C884DC
330
EF7C85532
100
AcDbEntity
  8
JISSEN
100
AcDbLine
 10
89.65162755427243
 20
19.50076240319778
 30
0.0
 11
94.16043697976673
 21
19.50076240319772
 31
0.0
  0
ARC
  5
EF7C884DD
330
EF7C85532
100
AcDbEntity
  8
JISSEN
100
AcDbCircle
 10
75.15603226701959
 20
24.5007540037039
 30
0.0
 40
12.49999999999999
100
AcDbArc
 50
343.7397952916878
 51
16.26020470831211
  0
ARC
  5
EF7C884DE
330
EF7C85532
100
AcDbEntity
  8
JISSEN
100
AcDbCircle
 10
85.90603226701958
 20
19.04731902156471
 30
0.0
 40
1.0
100
AcDbArc
 50
26.96482331253057
 51
40.21909874455571
  0
ARC
  5
EF7C884DF
330
EF7C85532
100
AcDbEntity
  8
JISSEN
100
AcDbCircle
 10
87.65603226701959
 20
31.03443694063317
 30
0.0
 40
1.0
100
AcDbArc
 50
237.8181160795964
 51
305.5633285759505
  0
ARC
  5
EF7C884E0
330
EF7C85532
100
AcDbEntity
  8
JISSEN
100
AcDbCircle
 10
108.6560322670194
 20
24.5007540037039
 30
0.0
 40
12.49999999999999
100
AcDbArc
 50
163.7397952916878
 51
196.2602047083121
  0
ARC
  5
EF7C884E1
330
EF7C85532
100
AcDbEntity
  8
JISSEN
100
AcDbCircle
 10
97.90603226701959
 20
19.04731902156471
 30
0.0
 40
1.0
100
AcDbArc
 50
139.7809012554442
 51
153.0351766874621
  0
ARC
  5
EF7C884E2
330
EF7C85532
100
AcDbEntity
  8
JISSEN
100
AcDbCircle
 10
96.15603226701958
 20
31.03443694063317
 30
0.0
 40
1.0
100
AcDbArc
 50
234.4366714240494
 51
302.1818839204035
  0
LINE
  5
EF7C884E3
330
EF7C85532
100
AcDbEntity
  8
JISSEN
100
AcDbLine
 10
95.90603226701958
 20
31.60989314195309
 30
0.0
 11
87.90603226701959
 21
31.60989314195309
 31
0.0
  0
LINE
  5
EF7C884E4
330
EF7C85532
100
AcDbEntity
  8
JISSEN
100
AcDbLine
 10
94.70202617623366
 20
30.5007540037039
 30
0.0
 11
91.90603226701957
 21
30.5007540037039
 31
0.0
  0
LINE
  5
EF7C884E5
330
EF7C85532
100
AcDbEntity
  8
JISSEN
100
AcDbLine
 10
85.2560322670196
 20
37.1141815264806
 30
0.0
 11
85.2560322670196
 21
33.87102689254159
 31
0.0
  0
LINE
  5
EF7C884E6
330
EF7C85532
100
AcDbEntity
  8
JISSEN
100
AcDbLine
 10
85.40603226701959
 20
36.99054901337878
 30
0.0
 11
85.40603226701959
 21
33.87102689254159
 31
0.0
  0
LINE
  5
EF7C884E7
330
EF7C85532
100
AcDbEntity
  8
JISSEN
100
AcDbLine
 10
85.40603226701959
 20
37.52628892559791
 30
0.0
 11
85.40603226701959
 21
33.87102689254159
 31
0.0
  0
LINE
  5
EF7C884E8
330
EF7C85532
100
AcDbEntity
  8
JISSEN
100
AcDbLine
 10
85.40603226701959
 20
37.73932102527773
 30
0.0
 11
85.40603226701959
 21
34.58405899222141
 31
0.0
  0
ARC
  5
EF7C884E9
330
EF7C85532
100
AcDbEntity
  8
JISSEN
100
AcDbCircle
 10
87.90603226701959
 20
37.38496207434413
 30
0.0
 40
1.5
100
AcDbArc
 50
284.2500326978044
 51
0.0
  0
ARC
  5
EF7C884EA
330
EF7C85532
100
AcDbEntity
  8
JISSEN
100
AcDbCircle
 10
89.40603226701957
 20
42.64631674051999
 30
0.0
 40
9.0
100
AcDbArc
 50
243.6122000387569
 51
260.4059317731392
  0
LINE
  5
EF7C884EB
330
EF7C85532
100
AcDbEntity
  8
JISSEN
100
AcDbLine
 10
85.40603226701959
 20
33.87102689254159
 30
0.0
 11
85.2560322670196
 21
33.87102689254159
 31
0.0
  0
LINE
  5
EF7C884EC
330
EF7C85532
100
AcDbEntity
  8
JISSEN
100
AcDbLine
 10
86.83529864717085
 20
35.11248413855146
 30
0.0
 11
88.21536314976643
 21
35.11248413855146
 31
0.0
  0
ARC
  5
EF7C884ED
330
EF7C85532
100
AcDbEntity
  8
JISSEN
100
AcDbCircle
 10
87.67626772889176
 20
34.41399708159146
 30
0.0
 40
0.4866855046380603
100
AcDbArc
 50
298.1707402297517
 51
355.8150838748825
  0
LINE
  5
EF7C884EE
330
EF7C85532
100
AcDbEntity
  8
JISSEN
100
AcDbLine
 10
88.16165559545053
 20
34.37848089623351
 30
0.0
 11
88.27526303625033
 21
35.93111592049804
 31
0.0
  0
LINE
  5
EF7C884EF
330
EF7C85532
100
AcDbEntity
  8
JISSEN
100
AcDbLine
 10
87.90603226701959
 20
31.60989314195309
 30
0.0
 11
87.90603226701959
 21
33.98496207434409
 31
0.0
  0
LINE
  5
EF7C884F0
330
EF7C85532
100
AcDbEntity
  8
JISSEN
100
AcDbLine
 10
89.96288473357608
 20
30.5007540037039
 30
0.0
 11
90.39115165053535
 21
30.92902092066323
 31
0.0
  0
LINE
  5
EF7C884F1
330
EF7C85532
100
AcDbEntity
  8
JISSEN
100
AcDbLine
 10
89.11003835780551
 20
30.5007540037039
 30
0.0
 11
91.90603226701957
 21
30.5007540037039
 31
0.0
  0
ARC
  5
EF7C884F2
330
EF7C85532
100
AcDbEntity
  8
JISSEN
100
AcDbCircle
 10
91.90524771152722
 20
30.44068680613646
 30
0.0
 40
1.6
100
AcDbArc
 50
133.0503615394674
 51
162.7537116970574
  0
LINE
  5
EF7C884F3
330
EF7C85532
100
AcDbEntity
  8
JISSEN
100
AcDbLine
 10
85.40603226701959
 20
37.1141815264806
 30
0.0
 11
85.2560322670196
 21
37.1141815264806
 31
0.0
  0
LINE
  5
EF7C884F4
330
EF7C85532
100
AcDbEntity
  8
JISSEN
100
AcDbLine
 10
98.46193435397859
 20
36.99054901337878
 30
0.0
 11
98.46193435397859
 21
33.87102689254159
 31
0.0
  0
LINE
  5
EF7C884F5
330
EF7C85532
100
AcDbEntity
  8
JISSEN
100
AcDbLine
 10
98.61193435397868
 20
37.1141815264806
 30
0.0
 11
98.61193435397868
 21
33.87102689254159
 31
0.0
  0
ARC
  5
EF7C884F6
330
EF7C85532
100
AcDbEntity
  8
JISSEN
100
AcDbCircle
 10
95.90603226701958
 20
37.38496207434413
 30
0.0
 40
1.5
100
AcDbArc
 50
180.0
 51
255.7499673021973
  0
LINE
  5
EF7C884F7
330
EF7C85532
100
AcDbEntity
  8
JISSEN
100
AcDbLine
 10
98.46193435397859
 20
37.87857010237918
 30
0.0
 11
98.46193435397859
 21
33.87102689254159
 31
0.0
  0
LINE
  5
EF7C884F8
330
EF7C85532
100
AcDbEntity
  8
JISSEN
100
AcDbLine
 10
93.84917980046308
 20
30.5007540037039
 30
0.0
 11
93.42091288273255
 21
30.92902092143448
 31
0.0
  0
ARC
  5
EF7C884F9
330
EF7C85532
100
AcDbEntity
  8
JISSEN
100
AcDbCircle
 10
91.90524771152722
 20
30.44068680613646
 30
0.0
 40
1.6
100
AcDbArc
 50
17.33173146614729
 51
46.94963846053258
  0
ARC
  5
EF7C884FA
330
EF7C85532
100
AcDbEntity
  8
JISSEN
100
AcDbCircle
 10
91.90524771152722
 20
30.44068680613646
 30
0.0
 40
1.6
100
AcDbArc
 50
17.33173146614213
 51
46.94963846053258
  0
ARC
  5
EF7C884FB
330
EF7C85532
100
AcDbEntity
  8
JISSEN
100
AcDbCircle
 10
94.40603226701957
 20
42.64631674051999
 30
0.0
 40
9.0
100
AcDbArc
 50
279.5940682268607
 51
296.7857663789681
  0
LINE
  5
EF7C884FC
330
EF7C85532
100
AcDbEntity
  8
JISSEN
100
AcDbLine
 10
95.59670138427273
 20
35.11248413855146
 30
0.0
 11
96.97676588686821
 21
35.11248413855146
 31
0.0
  0
ARC
  5
EF7C884FD
330
EF7C85532
100
AcDbEntity
  8
JISSEN
100
AcDbCircle
 10
96.13579680514741
 20
34.41399708159146
 30
0.0
 40
0.4866855046380603
100
AcDbArc
 50
184.1849161251174
 51
241.8292597702482
  0
LINE
  5
EF7C884FE
330
EF7C85532
100
AcDbEntity
  8
JISSEN
100
AcDbLine
 10
95.53680149778884
 20
35.93111592049798
 30
0.0
 11
95.65040893858864
 21
34.37848089623351
 31
0.0
  0
LINE
  5
EF7C884FF
330
EF7C85532
100
AcDbEntity
  8
JISSEN
100
AcDbLine
 10
98.46193435397859
 20
33.87102689254159
 30
0.0
 11
98.61193435397868
 21
33.87102689254159
 31
0.0
  0
LINE
  5
EF7C88500
330
EF7C85532
100
AcDbEntity
  8
JISSEN
100
AcDbLine
 10
95.90603226701958
 20
33.98496207434409
 30
0.0
 11
95.90603226701958
 21
31.60989314195309
 31
0.0
  0
LINE
  5
EF7C88501
330
EF7C85532
100
AcDbEntity
  8
JISSEN
100
AcDbLine
 10
98.46193435397859
 20
37.1141815264806
 30
0.0
 11
98.61193435397868
 21
37.1141815264806
 31
0.0
  0
LINE
  5
EF7C88502
330
EF7C85532
100
AcDbEntity
  8
JISSEN
100
AcDbLine
 10
102.3272243247852
 20
19.50076240319766
 30
0.0
 11
100.0728196120382
 21
19.50076240319766
 31
0.0
  0
ARC
  5
EF7C88503
330
EF7C85532
100
AcDbEntity
  8
JISSEN
100
AcDbCircle
 10
102.4374137768573
 20
38.71418152648057
 30
0.0
 40
0.2
100
AcDbArc
 50
270.0
 51
334.9995516405538
  0
ARC
  5
EF7C88508
330
EF7C85532
100
AcDbEntity
  8
JISSEN
100
AcDbCircle
 10
96.90603226701959
 20
50.5007540037039
 30
0.0
 40
17.0
100
AcDbArc
 50
0.0
 51
66.22232022148394
  0
ARC
  5
EF7C88509
330
EF7C85532
100
AcDbEntity
  8
JISSEN
100
AcDbCircle
 10
96.90603226701959
 20
50.5007540037039
 30
0.0
 40
15.0
100
AcDbArc
 50
0.0
 51
53.31701119964003
  0
LWPOLYLINE
  5
EF7C8850B
330
EF7C85532
100
AcDbEntity
  8
JISSEN
100
AcDbPolyline
 90
        5
 70
     0
 43
0.0
 10
121.8882835352031
 20
72.05773967292351
 42
-0.1724294177368876
 10
107.4014014529091
 20
67.60299762719604
 42
0.3050742458420749
 10
106.2586226053848
 20
66.90387008773019
 42
-0.2933139429534979
 10
104.9403504316368
 20
66.05773967292352
 10
104.6382835352031
 20
66.05773967292352
  0
LINE
  5
EF7C8850E
330
EF7C85532
100
AcDbEntity
  8
JISSEN
100
AcDbLine
 10
54.47461554495132
 20
72.05773967292647
 30
0.0
 11
129.4746155449506
 21
72.05773967292642
 31
0.0
  0
LINE
  5
EF7C8854D
330
EF7C85532
100
AcDbEntity
  8
JISSEN
100
AcDbLine
 10
84.40603226701957
 20
56.68834053887152
 30
0.0
 11
99.40603226701959
 21
56.68834053887152
 31
0.0
  0
ARC
  5
EF7C8854E
330
EF7C85532
100
AcDbEntity
  8
JISSEN
100
AcDbCircle
 10
97.90603226701946
 20
47.83834053887069
 30
0.0
 40
13.5
100
AcDbArc
 50
139.0382114476465
 51
180.0
  0
LINE
  5
EF7C88551
330
EF7C85532
100
AcDbEntity
  8
JISSEN
100
AcDbLine
 10
83.70657077978686
 20
62.5007540037039
 30
0.0
 11
90.40603226701959
 21
62.5007540037039
 31
0.0
  0
LINE
  5
EF7C88552
330
EF7C85532
100
AcDbEntity
  8
JISSEN
100
AcDbLine
 10
84.40603226701957
 20
60.70075400370384
 30
0.0
 11
90.40603226701959
 21
60.70075400370384
 31
0.0
  0
LINE
  5
EF7C88553
330
EF7C85532
100
AcDbEntity
  8
JISSEN
100
AcDbLine
 10
84.40603226701957
 20
58.98834053887147
 30
0.0
 11
91.90603226701957
 21
58.98834053887147
 31
0.0
  0
LINE
  5
EF7C88554
330
EF7C85532
100
AcDbEntity
  8
JISSEN
100
AcDbLine
 10
84.65603226701958
 20
59.72244184019094
 30
0.0
 11
90.36270027673314
 21
59.72244184019094
 31
0.0
  0
LINE
  5
EF7C88555
330
EF7C85532
100
AcDbEntity
  8
JISSEN
100
AcDbLine
 10
85.90603226701913
 20
59.28834053887148
 30
0.0
 11
84.40603226701957
 21
59.28834053887148
 31
0.0
  0
LINE
  5
EF7C88556
330
EF7C85532
100
AcDbEntity
  8
JISSEN
100
AcDbLine
 10
85.40791777653637
 20
59.28834053887148
 30
0.0
 11
84.57523076336682
 21
59.76909261007581
 31
0.0
  0
ARC
  5
EF7C88558
330
EF7C85532
100
AcDbEntity
  8
JISSEN
100
AcDbCircle
 10
78.01828373535127
 20
69.64387133208022
 30
0.0
 40
6.498907295833106
100
AcDbArc
 50
284.6790800521976
 51
320.8990391255044
  0
LINE
  5
EF7C88559
330
EF7C85532
100
AcDbEntity
  8
JISSEN
100
AcDbLine
 10
83.70657077978686
 20
66.05773967292624
 30
0.0
 11
83.70657077978686
 21
62.5007540037039
 31
0.0
  0
ARC
  5
EF7C8855A
330
EF7C85532
100
AcDbEntity
  8
JISSEN
100
AcDbCircle
 10
86.90603226701957
 20
50.5007540037039
 30
0.0
 40
17.0
100
AcDbArc
 50
113.7776797785187
 51
180.0
  0
ARC
  5
EF7C8855B
330
EF7C85532
100
AcDbEntity
  8
JISSEN
100
AcDbCircle
 10
86.90603226701957
 20
50.5007540037039
 30
0.0
 40
15.0
100
AcDbArc
 50
126.6829888003599
 51
180.0
  0
ARC
  5
EF7C8855C
330
EF7C85532
100
AcDbEntity
  8
JISSEN
100
AcDbCircle
 10
84.69478548349721
 20
49.89909628085924
 30
0.0
 40
10.80551655320168
100
AcDbArc
 50
91.53128360361854
 51
176.8080854238748
  0
ARC
  5
EF7C8855D
330
EF7C85532
100
AcDbEntity
  8
JISSEN
100
AcDbCircle
 10
86.8453373146954
 20
49.34680206627549
 30
0.0
 40
11.0
100
AcDbArc
 50
104.8402148385189
 51
173.978322807366
  0
ARC
  5
EF7C8855E
330
EF7C85532
100
AcDbEntity
  8
JISSEN
100
AcDbCircle
 10
84.40603226701957
 20
42.43328464084011
 30
0.0
 40
4.0
100
AcDbArc
 50
90.0
 51
180.0
  0
LINE
  5
EF7C8855F
330
EF7C85532
100
AcDbEntity
  8
JISSEN
100
AcDbLine
 10
84.40603226701947
 20
42.83834053887069
 30
0.0
 11
84.40603226701947
 21
47.83834053887069
 31
0.0
  0
LINE
  5
EF7C88560
330
EF7C85532
100
AcDbEntity
  8
ITTEN
100
AcDbLine
 10
80.40603226701959
 20
42.64631674051999
 30
0.0
 11
80.40603226701959
 21
42.64631674051999
 31
0.0
  0
LINE
  5
EF7C88561
330
EF7C85532
100
AcDbEntity
  8
JISSEN
100
AcDbLine
 10
84.40603226701957
 20
59.28834053887148
 30
0.0
 11
84.40603226701957
 21
56.68834053887152
 31
0.0
  0
ARC
  5
EF7C88562
330
EF7C85532
100
AcDbEntity
  8
JISSEN
100
AcDbCircle
 10
80.93216154409484
 20
58.52028445041857
 30
0.0
 40
5.0
100
AcDbArc
 50
104.6790800521975
 51
126.6829888003599
  0
LINE
  5
EF7C88563
330
EF7C85532
100
AcDbEntity
  8
JISSEN
100
AcDbLine
 10
84.40603226701957
 20
62.5007540037039
 30
0.0
 11
84.40603226701957
 21
60.70075400370384
 31
0.0
  0
ARC
  5
EF7C88564
330
EF7C85532
100
AcDbEntity
  8
JISSEN
100
AcDbCircle
 10
84.15603226701959
 20
59.49656257382175
 30
0.0
 40
0.5
100
AcDbArc
 50
33.02876887191162
 51
104.8402148385181
  0
LWPOLYLINE
  5
EF7C88566
330
EF7C85532
100
AcDbEntity
  8
JISSEN
100
AcDbPolyline
 90
        5
 70
     0
 43
0.0
 10
61.88828353520316
 20
72.05773967292351
 42
0.1724294177368876
 10
76.37516561749712
 20
67.60299762719604
 42
-0.3050742458420749
 10
77.51794446502149
 20
66.90387008773019
 42
0.2933139429534979
 10
78.83621663876951
 20
66.05773967292352
 10
79.13828353520315
 20
66.05773967292352
  0
LINE
  5
EF7C8856F
330
EF7C85532
100
AcDbEntity
  8
JISSEN
100
AcDbLine
 10
100.1054937542523
 20
66.05773967292647
 30
0.0
 11
100.1054937542523
 21
62.5007540037039
 31
0.0
  0
ARC
  5
EF7C88570
330
EF7C85532
100
AcDbEntity
  8
JISSEN
100
AcDbCircle
 10
105.7937807986878
 20
69.64387133208022
 30
0.0
 40
6.498907295833106
100
AcDbArc
 50
219.1009608744955
 51
255.3209199478016
  0
ARC
  5
EF7C88571
330
EF7C85532
100
AcDbEntity
  8
JISSEN
100
AcDbCircle
 10
94.60603226701952
 20
63.81002837535074
 30
0.0
 40
0.3
100
AcDbArc
 50
270.0
 51
0.0
  0
ARC
  5
EF7C88572
330
EF7C85532
100
AcDbEntity
  8
JISSEN
100
AcDbCircle
 10
89.20603226701954
 20
63.81002837535074
 30
0.0
 40
0.3
100
AcDbArc
 50
180.0
 51
270.0
  0
LINE
  5
EF7C88573
330
EF7C85532
100
AcDbEntity
  8
JISSEN
100
AcDbLine
 10
95.90603226701958
 20
62.5007540037039
 30
0.0
 11
95.90603226701958
 21
66.05773967292641
 31
0.0
  0
LINE
  5
EF7C88574
330
EF7C85532
100
AcDbEntity
  8
JISSEN
100
AcDbLine
 10
87.90603226701959
 20
62.5007540037039
 30
0.0
 11
87.90603226701959
 21
66.0577396729263
 31
0.0
  0
TEXT
  5
EF7C88575
330
EF7C85532
100
AcDbEntity
  8
JISSEN
100
AcDbText
 10
87.42381664368467
 20
65.95942253733217
 30
0.0
 40
3.0
  1
D
 50
180.0
  7
K
 72
     4
 11
85.85238807225611
 21
64.45942253733218
 31
0.0
100
AcDbText
  0
LINE
  5
EF7C88576
330
EF7C85532
100
AcDbEntity
  8
JISSEN
100
AcDbLine
 10
99.40603226701959
 20
58.98834053887147
 30
0.0
 11
91.90603226701957
 21
58.98834053887147
 31
0.0
  0
LINE
  5
EF7C88577
330
EF7C85532
100
AcDbEntity
  8
JISSEN
100
AcDbLine
 10
100.1054937542523
 20
62.5007540037039
 30
0.0
 11
93.40603226701958
 21
62.5007540037039
 31
0.0
  0
LINE
  5
EF7C88578
330
EF7C85532
100
AcDbEntity
  8
JISSEN
100
AcDbLine
 10
99.40603226701959
 20
60.70075400370384
 30
0.0
 11
93.40603226701958
 21
60.70075400370384
 31
0.0
  0
LINE
  5
EF7C88579
330
EF7C85532
100
AcDbEntity
  8
JISSEN
100
AcDbLine
 10
99.15603226701959
 20
59.72244184019094
 30
0.0
 11
93.44936425730603
 21
59.72244184019094
 31
0.0
  0
LINE
  5
EF7C8857A
330
EF7C85532
100
AcDbEntity
  8
JISSEN
100
AcDbLine
 10
97.90603226702003
 20
59.28834053887148
 30
0.0
 11
99.40603226701959
 21
59.28834053887148
 31
0.0
  0
LINE
  5
EF7C8857B
330
EF7C85532
100
AcDbEntity
  8
JISSEN
100
AcDbLine
 10
98.40414675750279
 20
59.28834053887148
 30
0.0
 11
99.23683377067327
 21
59.76909261007638
 31
0.0
  0
ARC
  5
EF7C8857C
330
EF7C85532
100
AcDbEntity
  8
JISSEN
100
AcDbCircle
 10
85.90603226701947
 20
47.83834053887069
 30
0.0
 40
13.5
100
AcDbArc
 50
0.0
 51
40.9617885523535
  0
LINE
  5
EF7C8857D
330
EF7C85532
100
AcDbEntity
  8
JISSEN
100
AcDbLine
 10
93.65603226701958
 20
53.32839420150107
 30
0.0
 11
93.65603226701958
 21
50.81602369990505
 31
0.0
  0
LINE
  5
EF7C8857E
330
EF7C85532
100
AcDbEntity
  8
JISSEN
100
AcDbLine
 10
90.15603226701959
 20
50.81602369990505
 30
0.0
 11
90.15603226701959
 21
53.32839420150107
 31
0.0
  0
LINE
  5
EF7C8857F
330
EF7C85532
100
AcDbEntity
  8
JISSEN
100
AcDbLine
 10
93.90603226701946
 20
51.73834053887073
 30
0.0
 11
93.90603226701946
 21
54.55167774548859
 31
0.0
  0
LINE
  5
EF7C88580
330
EF7C85532
100
AcDbEntity
  8
JISSEN
100
AcDbLine
 10
89.90603226701948
 20
51.73834053887073
 30
0.0
 11
89.90603226701948
 21
54.55167774548859
 31
0.0
  0
LINE
  5
EF7C88581
330
EF7C85532
100
AcDbEntity
  8
JISSEN
100
AcDbLine
 10
93.65603226701958
 20
51.59919484006907
 30
0.0
 11
90.15603226701959
 21
51.59919484006907
 31
0.0
  0
LINE
  5
EF7C88582
330
EF7C85532
100
AcDbEntity
  8
JISSEN
100
AcDbLine
 10
93.65603226701958
 20
50.81602369990505
 30
0.0
 11
90.15603226701959
 21
50.81602369990505
 31
0.0
  0
LINE
  5
EF7C88583
330
EF7C85532
100
AcDbEntity
  8
JISSEN
100
AcDbLine
 10
87.40603226701948
 20
44.08834053887069
 30
0.0
 11
87.40603226701948
 21
47.83834053887069
 31
0.0
  0
LINE
  5
EF7C88584
330
EF7C85532
100
AcDbEntity
  8
JISSEN
100
AcDbLine
 10
87.40603226701948
 20
46.82162843959942
 30
0.0
 11
90.09692791770092
 21
47.05750118388268
 31
0.0
  0
LINE
  5
EF7C88585
330
EF7C85532
100
AcDbEntity
  8
JISSEN
100
AcDbLine
 10
87.40603226701948
 20
46.92201188185755
 30
0.0
 11
90.10414334029055
 21
47.15851710013767
 31
0.0
  0
LINE
  5
EF7C88586
330
EF7C85532
100
AcDbEntity
  8
JISSEN
100
AcDbLine
 10
87.40603226701948
 20
46.47100504144056
 30
0.0
 11
89.40603226701957
 21
46.29569334236108
 31
0.0
  0
ARC
  5
EF7C88587
330
EF7C85532
100
AcDbEntity
  8
JISSEN
100
AcDbCircle
 10
88.90603226701946
 20
44.08834053887069
 30
0.0
 40
1.5
100
AcDbArc
 50
180.0
 51
270.0
  0
ARC
  5
EF7C88588
330
EF7C85532
100
AcDbEntity
  8
JISSEN
100
AcDbCircle
 10
91.90603226701957
 20
27.46012469057616
 30
0.0
 40
19.34838405080195
100
AcDbArc
 50
95.43647494168721
 51
97.42392958962639
  0
LINE
  5
EF7C88589
330
EF7C85532
100
AcDbEntity
  8
JISSEN
100
AcDbLine
 10
88.90603226701946
 20
42.58834053887075
 30
0.0
 11
89.28103226701948
 21
42.58834053887075
 31
0.0
  0
ARC
  5
EF7C8858A
330
EF7C85532
100
AcDbEntity
  8
JISSEN
100
AcDbCircle
 10
91.13409959419803
 20
67.08372829595631
 30
0.0
 40
24.90306398983018
100
AcDbArc
 50
265.7326069421959
 51
266.8169451117968
  0
ARC
  5
EF7C8858B
330
EF7C85532
100
AcDbEntity
  8
JISSEN
100
AcDbCircle
 10
89.28103226701948
 20
42.88834053887071
 30
0.0
 40
1.199999999999999
100
AcDbArc
 50
270.0
 51
291.4232972478955
  0
ARC
  5
EF7C8858C
330
EF7C85532
100
AcDbEntity
  8
JISSEN
100
AcDbCircle
 10
91.90603226701957
 20
23.79141746790726
 30
0.0
 40
19.34838405080195
100
AcDbArc
 50
96.22224717316008
 51
97.42392958962639
  0
ARC
  5
EF7C8858D
330
EF7C85532
100
AcDbEntity
  8
JISSEN
100
AcDbCircle
 10
91.90603226701947
 20
62.16380156779486
 30
0.0
 40
19.34838405080195
100
AcDbArc
 50
262.5760704103736
 51
263.7573957713741
  0
LINE
  5
EF7C8858E
330
EF7C85532
100
AcDbEntity
  8
JISSEN
100
AcDbLine
 10
89.40603226701957
 20
42.97760951785109
 30
0.0
 11
89.40603226701957
 21
46.64631674051999
 31
0.0
  0
ARC
  5
EF7C8858F
330
EF7C85532
100
AcDbEntity
  8
JISSEN
100
AcDbCircle
 10
89.17906257531095
 20
50.03834053887068
 30
0.0
 40
1.5
100
AcDbArc
 50
90.0
 51
165.8509954910656
  0
ARC
  5
EF7C88590
330
EF7C85532
100
AcDbEntity
  8
JISSEN
100
AcDbCircle
 10
97.90603226701946
 20
47.83834053887069
 30
0.0
 40
10.5
100
AcDbArc
 50
165.8509954910656
 51
180.0
  0
LINE
  5
EF7C88591
330
EF7C85532
100
AcDbEntity
  8
JISSEN
100
AcDbLine
 10
88.64407625890093
 20
51.43969332858997
 30
0.0
 11
89.40603226701981
 21
50.99977782219186
 31
0.0
  0
ARC
  5
EF7C88592
330
EF7C85532
100
AcDbEntity
  8
JISSEN
100
AcDbCircle
 10
89.70016333733022
 20
50.19083446857753
 30
0.0
 40
0.6441310703106079
100
AcDbArc
 50
103.6591051852966
 51
180.0
  0
ARC
  5
EF7C88593
330
EF7C85532
100
AcDbEntity
  8
JISSEN
100
AcDbCircle
 10
91.90603226701957
 20
30.89706040268949
 30
0.0
 40
19.34838405080195
100
AcDbArc
 50
94.70198339894666
 51
98.91979517632428
  0
LINE
  5
EF7C88594
330
EF7C85532
100
AcDbEntity
  8
JISSEN
100
AcDbLine
 10
89.05603226701956
 20
50.03439212310782
 30
0.0
 11
89.05603226701956
 21
50.19083446857759
 31
0.0
  0
ARC
  5
EF7C88595
330
EF7C85532
100
AcDbEntity
  8
JISSEN
100
AcDbCircle
 10
90.47559591463064
 20
46.99998619556352
 30
0.0
 40
3.927849752435431
100
AcDbArc
 50
98.56261218149995
 51
103.6591051852999
  0
ARC
  5
EF7C88596
330
EF7C85532
100
AcDbEntity
  8
JISSEN
100
AcDbCircle
 10
91.32994212610837
 20
41.32584528187699
 30
0.0
 40
9.665948963623556
100
AcDbArc
 50
96.97567628297717
 51
98.5626121814851
  0
ARC
  5
EF7C88597
330
EF7C85532
100
AcDbEntity
  8
JISSEN
100
AcDbCircle
 10
91.90603226701981
 20
55.32990484111401
 30
0.0
 40
5.0
100
AcDbArc
 50
239.9999999999998
 51
243.679190178391
  0
LINE
  5
EF7C88598
330
EF7C85532
100
AcDbEntity
  8
JISSEN
100
AcDbLine
 10
89.17906257531095
 20
51.53834053887074
 30
0.0
 11
89.70603226701953
 21
51.53834053887074
 31
0.0
  0
ARC
  5
EF7C88599
330
EF7C85532
100
AcDbEntity
  8
JISSEN
100
AcDbCircle
 10
89.70603226701953
 20
51.73834053887067
 30
0.0
 40
0.2
100
AcDbArc
 50
270.0
 51
0.0
  0
LINE
  5
EF7C8859A
330
EF7C85532
100
AcDbEntity
  8
JISSEN
100
AcDbLine
 10
88.90603226701959
 20
50.01145198017185
 30
0.0
 11
88.90603226701959
 21
47.05349565616713
 31
0.0
  0
LINE
  5
EF7C8859B
330
EF7C85532
100
AcDbEntity
  8
JISSEN
100
AcDbLine
 10
96.40603226701948
 20
44.08834053887069
 30
0.0
 11
96.40603226701948
 21
47.83834053887069
 31
0.0
  0
LINE
  5
EF7C8859C
330
EF7C85532
100
AcDbEntity
  8
JISSEN
100
AcDbLine
 10
96.40603226701969
 20
46.92201188185755
 30
0.0
 11
93.7079211937486
 21
47.15851710013767
 31
0.0
  0
LINE
  5
EF7C8859D
330
EF7C85532
100
AcDbEntity
  8
JISSEN
100
AcDbLine
 10
96.40603226701969
 20
46.82162843959942
 30
0.0
 11
93.71513661633825
 21
47.05750118388268
 31
0.0
  0
LINE
  5
EF7C8859E
330
EF7C85532
100
AcDbEntity
  8
JISSEN
100
AcDbLine
 10
96.40603226701969
 20
46.47100504144056
 30
0.0
 11
94.40603226701957
 21
46.29569334236108
 31
0.0
  0
ARC
  5
EF7C8859F
330
EF7C85532
100
AcDbEntity
  8
JISSEN
100
AcDbCircle
 10
94.90603226701948
 20
44.08834053887069
 30
0.0
 40
1.5
100
AcDbArc
 50
270.0
 51
0.0
  0
ARC
  5
EF7C885A0
330
EF7C85532
100
AcDbEntity
  8
JISSEN
100
AcDbCircle
 10
91.90603226701957
 20
27.46012469057616
 30
0.0
 40
19.34838405080195
100
AcDbArc
 50
82.5760704103736
 51
84.56352505831278
  0
ARC
  5
EF7C885A1
330
EF7C85532
100
AcDbEntity
  8
JISSEN
100
AcDbCircle
 10
92.67796493984352
 20
67.08372829595596
 30
0.0
 40
24.90306398982964
100
AcDbArc
 50
273.1830548881965
 51
274.2673930577975
  0
ARC
  5
EF7C885A2
330
EF7C85532
100
AcDbEntity
  8
JISSEN
100
AcDbCircle
 10
94.53103226701946
 20
42.88834053887071
 30
0.0
 40
1.199999999999999
100
AcDbArc
 50
248.576702752115
 51
270.0
  0
ARC
  5
EF7C885A3
330
EF7C85532
100
AcDbEntity
  8
JISSEN
100
AcDbCircle
 10
91.90603226701957
 20
23.79141746790726
 30
0.0
 40
19.34838405080195
100
AcDbArc
 50
82.5760704103736
 51
83.77775282683991
  0
ARC
  5
EF7C885A4
330
EF7C85532
100
AcDbEntity
  8
JISSEN
100
AcDbCircle
 10
91.90603226701947
 20
62.16380156779486
 30
0.0
 40
19.34838405080195
100
AcDbArc
 50
276.2426042286266
 51
277.4239295896272
  0
LINE
  5
EF7C885A5
330
EF7C85532
100
AcDbEntity
  8
JISSEN
100
AcDbLine
 10
94.90603226701948
 20
42.58834053887075
 30
0.0
 11
94.53103226701946
 21
42.58834053887075
 31
0.0
  0
LINE
  5
EF7C885A6
330
EF7C85532
100
AcDbEntity
  8
JISSEN
100
AcDbLine
 10
94.40603226701957
 20
42.97760951785109
 30
0.0
 11
94.40603226701957
 21
46.64631674051999
 31
0.0
  0
ARC
  5
EF7C885A7
330
EF7C85532
100
AcDbEntity
  8
JISSEN
100
AcDbCircle
 10
94.63300195872809
 20
50.03834053887068
 30
0.0
 40
1.5
100
AcDbArc
 50
14.14900450893436
 51
90.0
  0
LINE
  5
EF7C885A8
330
EF7C85532
100
AcDbEntity
  8
JISSEN
100
AcDbLine
 10
94.63300195872809
 20
51.53834053887074
 30
0.0
 11
94.10603226701951
 21
51.53834053887074
 31
0.0
  0
LINE
  5
EF7C885A9
330
EF7C85532
100
AcDbEntity
  8
JISSEN
100
AcDbLine
 10
95.1679882751387
 20
51.43969332858985
 30
0.0
 11
94.40603226701981
 21
50.9997778221918
 31
0.0
  0
ARC
  5
EF7C885AA
330
EF7C85532
100
AcDbEntity
  8
JISSEN
100
AcDbCircle
 10
93.33646861940852
 20
46.99998619556329
 30
0.0
 40
3.92784975243566
100
AcDbArc
 50
76.34089481470098
 51
81.43738781850005
  0
ARC
  5
EF7C885AB
330
EF7C85532
100
AcDbEntity
  8
JISSEN
100
AcDbCircle
 10
91.90603226701981
 20
55.32990484111401
 30
0.0
 40
5.0
100
AcDbArc
 50
296.3208098216071
 51
300.0000000000001
  0
ARC
  5
EF7C885AC
330
EF7C85532
100
AcDbEntity
  8
JISSEN
100
AcDbCircle
 10
92.48212240792899
 20
41.32584528187744
 30
0.0
 40
9.665948963623366
100
AcDbArc
 50
81.43738781850421
 51
83.02432371701295
  0
ARC
  5
EF7C885AD
330
EF7C85532
100
AcDbEntity
  8
JISSEN
100
AcDbCircle
 10
94.10603226701951
 20
51.73834053887067
 30
0.0
 40
0.2
100
AcDbArc
 50
180.0
 51
270.0
  0
ARC
  5
EF7C885AE
330
EF7C85532
100
AcDbEntity
  8
JISSEN
100
AcDbCircle
 10
91.90603226701957
 20
30.89706040268949
 30
0.0
 40
19.34838405080195
100
AcDbArc
 50
81.08020482367573
 51
85.29801660105254
  0
LINE
  5
EF7C885AF
330
EF7C85532
100
AcDbEntity
  8
JISSEN
100
AcDbLine
 10
94.75603226701961
 20
50.19083446857759
 30
0.0
 11
94.75603226701961
 21
50.03439212310782
 31
0.0
  0
ARC
  5
EF7C885B0
330
EF7C85532
100
AcDbEntity
  8
JISSEN
100
AcDbCircle
 10
94.11190119670894
 20
50.19083446857753
 30
0.0
 40
0.6441310703106079
100
AcDbArc
 50
0.0
 51
76.34089481470336
  0
LINE
  5
EF7C885B1
330
EF7C85532
100
AcDbEntity
  8
JISSEN
100
AcDbLine
 10
94.90603226701958
 20
50.01145198017185
 30
0.0
 11
94.90603226701958
 21
47.05349565616713
 31
0.0
  0
ARC
  5
EF7C885B2
330
EF7C85532
100
AcDbEntity
  8
JISSEN
100
AcDbCircle
 10
85.90603226701947
 20
47.83834053887069
 30
0.0
 40
10.5
100
AcDbArc
 50
0.0
 51
14.14900450893436
  0
LINE
  5
EF7C885B3
330
EF7C85532
100
AcDbEntity
  8
JISSEN
100
AcDbLine
 10
96.86246916318433
 20
55.72544967596009
 30
0.0
 11
86.94959537085471
 21
55.72544967596009
 31
0.0
  0
ARC
  5
EF7C885B4
330
EF7C85532
100
AcDbEntity
  8
JISSEN
100
AcDbCircle
 10
91.90603226701957
 20
66.99747533043548
 30
0.0
 40
10.93848722979607
100
AcDbArc
 50
255.6397940472943
 51
284.3602059527056
  0
LINE
  5
EF7C885B5
330
EF7C85532
100
AcDbEntity
  8
JISSEN
100
AcDbLine
 10
90.15603226701959
 20
53.32839420150107
 30
0.0
 11
93.65603226701958
 21
53.32839420150107
 31
0.0
  0
ARC
  5
EF7C885B6
330
EF7C85532
100
AcDbEntity
  8
JISSEN
100
AcDbCircle
 10
90.20603226701954
 20
52.75587375633422
 30
0.0
 40
0.3
100
AcDbArc
 50
99.59406822683764
 51
180.0
  0
LINE
  5
EF7C885B7
330
EF7C85532
100
AcDbEntity
  8
JISSEN
100
AcDbLine
 10
85.90603226701913
 20
59.28834053887165
 30
0.0
 11
90.21728826226027
 21
59.28834053887154
 31
0.0
  0
LINE
  5
EF7C885B8
330
EF7C85532
100
AcDbEntity
  8
JISSEN
100
AcDbLine
 10
90.65603226701957
 20
63.51002837535078
 30
0.0
 11
90.65603226701957
 21
61.72758627575776
 31
0.0
  0
LINE
  5
EF7C885B9
330
EF7C85532
100
AcDbEntity
  8
JISSEN
100
AcDbLine
 10
90.65603226701957
 20
63.51002837535078
 30
0.0
 11
89.20603226701954
 21
63.51002837535078
 31
0.0
  0
LINE
  5
EF7C885BA
330
EF7C85532
100
AcDbEntity
  8
JISSEN
100
AcDbLine
 10
90.40603226701959
 20
60.70075400370384
 30
0.0
 11
90.40603226701959
 21
62.5007540037039
 31
0.0
  0
ARC
  5
EF7C885BB
330
EF7C85532
100
AcDbEntity
  8
JISSEN
100
AcDbCircle
 10
83.65603226701958
 20
61.72758627575776
 30
0.0
 40
7.0
100
AcDbArc
 50
336.9632903547651
 51
0.0
  0
ARC
  5
EF7C885BC
330
EF7C85532
100
AcDbEntity
  8
JISSEN
100
AcDbCircle
 10
93.60603226701952
 20
52.75587375633422
 30
0.0
 40
0.3
100
AcDbArc
 50
0.0
 51
80.40593177313425
  0
LINE
  5
EF7C885BD
330
EF7C85532
100
AcDbEntity
  8
JISSEN
100
AcDbLine
 10
97.90603226702003
 20
59.28834053887165
 30
0.0
 11
93.59477627177879
 21
59.28834053887154
 31
0.0
  0
LINE
  5
EF7C885BE
330
EF7C85532
100
AcDbEntity
  8
JISSEN
100
AcDbLine
 10
94.60603226701952
 20
63.51002837535078
 30
0.0
 11
93.15603226701957
 21
63.51002837535078
 31
0.0
  0
LINE
  5
EF7C885BF
330
EF7C85532
100
AcDbEntity
  8
JISSEN
100
AcDbLine
 10
93.15603226701957
 20
63.51002837535078
 30
0.0
 11
93.15603226701957
 21
61.72758627575776
 31
0.0
  0
LINE
  5
EF7C885C0
330
EF7C85532
100
AcDbEntity
  8
JISSEN
100
AcDbLine
 10
93.40603226701958
 20
62.5007540037039
 30
0.0
 11
93.40603226701958
 21
60.70075400370384
 31
0.0
  0
ARC
  5
EF7C885C1
330
EF7C85532
100
AcDbEntity
  8
JISSEN
100
AcDbCircle
 10
100.1560322670195
 20
61.72758627575776
 30
0.0
 40
7.0
100
AcDbArc
 50
180.0
 51
205.5361001505872
  0
ARC
  5
EF7C885C2
330
EF7C85532
100
AcDbEntity
  8
JISSEN
100
AcDbCircle
 10
96.96672721934376
 20
49.34680206627549
 30
0.0
 40
11.0
100
AcDbArc
 50
6.021677192633947
 51
75.15978516148108
  0
ARC
  5
EF7C885C3
330
EF7C85532
100
AcDbEntity
  8
JISSEN
100
AcDbCircle
 10
99.11727905054195
 20
49.89909628085924
 30
0.0
 40
10.80551655320168
100
AcDbArc
 50
3.191914576125952
 51
88.46871639638145
  0
LINE
  5
EF7C885C4
330
EF7C85532
100
AcDbEntity
  8
JISSEN
100
AcDbLine
 10
99.40603226701947
 20
42.83834053887069
 30
0.0
 11
99.40603226701947
 21
47.83834053887069
 31
0.0
  0
ARC
  5
EF7C885C5
330
EF7C85532
100
AcDbEntity
  8
JISSEN
100
AcDbCircle
 10
99.46193435397859
 20
42.43328464084011
 30
0.0
 40
4.0
100
AcDbArc
 50
0.0
 51
90.0
  0
LINE
  5
EF7C885C6
330
EF7C85532
100
AcDbEntity
  8
JISSEN
100
AcDbLine
 10
99.40603226701959
 20
59.28834053887148
 30
0.0
 11
99.40603226701959
 21
56.68834053887152
 31
0.0
  0
LINE
  5
EF7C885C7
330
EF7C85532
100
AcDbEntity
  8
JISSEN
100
AcDbLine
 10
99.40603226701959
 20
62.5007540037039
 30
0.0
 11
99.40603226701959
 21
60.70075400370384
 31
0.0
  0
ARC
  5
EF7C885C8
330
EF7C85532
100
AcDbEntity
  8
JISSEN
100
AcDbCircle
 10
99.65603226701958
 20
59.49656257382175
 30
0.0
 40
0.5
100
AcDbArc
 50
75.15978516148187
 51
146.9712311280872
  0
ARC
  5
EF7C885C9
330
EF7C85532
100
AcDbEntity
  8
JISSEN
100
AcDbCircle
 10
102.8799029899442
 20
58.52028445041857
 30
0.0
 40
5.0
100
AcDbArc
 50
53.31701119964003
 51
75.32091994780239
  0
LINE
  5
EF7C885CE
330
EF7C85532
100
AcDbEntity
  8
JISSEN
100
AcDbLine
 10
89.20603226701954
 20
65.51002837535079
 30
0.0
 11
94.60603226701952
 21
65.51002837535079
 31
0.0
  0
LINE
  5
EF7C885D0
330
EF7C85532
100
AcDbEntity
  8
JISSEN
100
AcDbLine
 10
88.90603226701959
 20
63.8100283753508
 30
0.0
 11
88.90603226701959
 21
65.21002837535077
 31
0.0
  0
ARC
  5
EF7C885D1
330
EF7C85532
100
AcDbEntity
  8
JISSEN
100
AcDbCircle
 10
89.20603226701954
 20
65.21002837535077
 30
0.0
 40
0.3
100
AcDbArc
 50
90.0
 51
180.0
  0
LINE
  5
EF7C885D3
330
EF7C85532
100
AcDbEntity
  8
JISSEN
100
AcDbLine
 10
94.90603226701958
 20
65.21002837535077
 30
0.0
 11
94.90603226701958
 21
63.8100283753508
 31
0.0
  0
ARC
  5
EF7C885D4
330
EF7C85532
100
AcDbEntity
  8
JISSEN
100
AcDbCircle
 10
94.60603226701952
 20
65.21002837535077
 30
0.0
 40
0.3
100
AcDbArc
 50
0.0
 51
90.0
  0
LINE
  5
EF7C88619
330
EF7C85532
100
AcDbEntity
  8
JISSEN
100
AcDbLine
 10
78.83621663876951
 20
66.05773967292619
 30
0.0
 11
104.6382835352031
 21
66.05773967292653
 31
0.0
  0
LINE
  5
EF7C88621
330
EF7C85532
100
AcDbEntity
  8
JISSEN
100
AcDbLine
 10
78.83621663876951
 20
67.55773967292618
 30
0.0
 11
104.6382835352031
 21
67.55773967292653
 31
0.0
  0
HATCH
  5
EF7C88640
330
EF7C85532
100
AcDbEntity
  8
HATCH
100
AcDbHatch
 10
0.0
 20
0.0
 30
0.0
210
0.0
220
0.0
230
1.0
  2
ANSI31
 70
     0
 71
     0
 91
        2
 92
        7
 72
     1
 73
     1
 93
       13
 10
121.8882835352069
 20
172.0577396729263
 42
0.0
 10
120.1368851706069
 20
172.0577396729263
 42
-0.1557399217224488
 10
107.4445639359048
 20
168.6020656929761
 42
0.3050742458420811
 10
105.3494693821101
 20
167.320331870622
 42
-0.2933139429535041
 10
104.9403504316366
 20
167.0577396729234
 42
0.0
 10
104.6382835352031
 20
167.0577396729234
 42
-0.4142135623730951
 10
103.6382835352031
 20
168.0577396729234
 42
0.0
 10
103.6382835352031
 20
169.0577396729235
 42
0.0
 10
102.6382835352031
 20
169.0577396729235
 42
0.0
 10
102.6382835352031
 20
168.0577396729234
 42
0.438343819183208
 10
104.8014571272975
 20
166.0644071921659
 42
0.3195508479178618
 10
106.2586226053848
 20
166.9038700877301
 42
-0.3050742458420883
 10
107.4014014529092
 20
167.602997627196
 42
0.172429417736941
 97
        0
 92
        7
 72
     1
 73
     1
 93
       13
 10
79.13828353520315
 20
167.0577396729234
 42
0.0
 10
78.83621663876946
 20
167.0577396729234
 42
-0.2933139429534796
 10
78.4270976882959
 20
167.3203318706221
 42
0.3050742458420794
 10
76.33200313450132
 20
168.6020656929761
 42
-0.15573992172245
 10
63.63968189979923
 20
172.0577396729264
 42
0.0
 10
61.88828353519918
 20
172.0577396729264
 42
0.1724294177369433
 10
76.37516561749706
 20
167.602997627196
 42
-0.3050742458420882
 10
77.51794446502149
 20
166.9038700877301
 42
0.3195508479178619
 10
78.97510994310877
 20
166.0644071921659
 42
0.438343819183208
 10
81.13828353520316
 20
168.0577396729234
 42
0.0
 10
81.13828353520316
 20
169.0577396729235
 42
0.0
 10
80.13828353520315
 20
169.0577396729235
 42
0.0
 10
80.13828353520315
 20
168.0577396729234
 42
-0.4142135623730951
 97
        0
 75
     0
 76
     1
 52
90.0
 41
10.0
 77
     0
 78
     1
 53
135.0
 43
-180.999999276
 44
0.0
 45
-0.8838834764831844
 46
-0.8838834764831842
 79
     0
 47
0.0763726391003648
 98
        2
 10
109.0565473306036
 20
168.0696771182665
 10
79.01768702452537
 20
166.6949655852258
  0
TEXT
  5
EF7C88641
330
EF7C85532
100
AcDbEntity
  8
TEXT
100
AcDbText
 10
164.9571421331428
 20
266.4999999999999
 30
0.0
 40
3.0
  1
Crメッキ
  7
K
 72
     4
 11
172.4999992759999
 21
267.9999999999999
 31
0.0
100
AcDbText
  0
HATCH
  5
EF7C886BF
330
EF7C85532
100
AcDbEntity
  8
HATCH
100
AcDbHatch
 10
0.0
 20
0.0
 30
0.0
210
0.0
220
0.0
230
1.0
  2
ANSI31
 70
     0
 71
     0
 91
        2
 92
        7
 72
     1
 73
     1
 93
       13
 10
302.8882828112069
 20
172.0577396729263
 42
0.0
 10
301.1368844466069
 20
172.0577396729263
 42
-0.1557399217224488
 10
288.4445632119049
 20
168.6020656929761
 42
0.3050742458420811
 10
286.3494686581101
 20
167.320331870622
 42
-0.2933139429535041
 10
285.9403497076367
 20
167.0577396729234
 42
0.0
 10
285.6382828112031
 20
167.0577396729234
 42
-0.4142135623730951
 10
284.6382828112031
 20
168.0577396729234
 42
0.0
 10
284.6382828112031
 20
169.0577396729235
 42
0.0
 10
283.6382828112031
 20
169.0577396729235
 42
0.0
 10
283.6382828112031
 20
168.0577396729234
 42
0.438343819183208
 10
285.8014564032974
 20
166.0644071921659
 42
0.3195508479178618
 10
287.2586218813848
 20
166.9038700877301
 42
-0.3050742458420883
 10
288.4014007289092
 20
167.602997627196
 42
0.172429417736941
 97
        0
 92
        7
 72
     1
 73
     1
 93
       13
 10
260.1382828112031
 20
167.0577396729234
 42
0.0
 10
259.8362159147694
 20
167.0577396729234
 42
-0.2933139429534796
 10
259.4270969642958
 20
167.3203318706221
 42
0.3050742458420794
 10
257.3320024105013
 20
168.6020656929761
 42
-0.15573992172245
 10
244.6396811757991
 20
172.0577396729264
 42
0.0
 10
242.8882828111992
 20
172.0577396729264
 42
0.1724294177369433
 10
257.375164893497
 20
167.602997627196
 42
-0.3050742458420882
 10
258.5179437410214
 20
166.9038700877301
 42
0.3195508479178619
 10
259.9751092191087
 20
166.0644071921659
 42
0.438343819183208
 10
262.1382828112031
 20
168.0577396729234
 42
0.0
 10
262.1382828112031
 20
169.0577396729235
 42
0.0
 10
261.1382828112031
 20
169.0577396729235
 42
0.0
 10
261.1382828112031
 20
168.0577396729234
 42
-0.4142135623730951
 97
        0
 75
     0
 76
     1
 52
90.0
 41
10.0
 77
     0
 78
     1
 53
135.0
 43
-0.0000000000000284
 44
0.0
 45
-0.8838834764831844
 46
-0.8838834764831842
 79
     0
 47
0.0763726391003648
 98
        2
 10
290.0565466066036
 20
168.0696771182665
 10
260.0176863005253
 20
166.6949655852258
  0
HATCH
  5
EF7C886D4
330
EF7C85532
100
AcDbEntity
  8
JISSEN
 62
     0
100
AcDbHatch
 10
0.0
 20
0.0
 30
0.0
210
0.0
220
0.0
230
1.0
  2
ANSI31
 70
     0
 71
     0
 91
        2
 92
        7
 72
     0
 73
     1
 93
       50
 10
311.7692031450433
 20
175.594926901706
 10
311.6471647194895
 20
175.6610012999502
 10
311.4854755239981
 20
175.7246132872863
 10
311.310353771391
 20
175.7877327850159
 10
311.1480176744869
 20
175.8523297144437
 10
311.0246854461046
 20
175.9203739968726
 10
310.9665752990634
 20
175.9938355536062
 10
310.9891217356979
 20
176.0747718044514
 10
311.0646244164037
 20
176.1655901632341
 10
311.1545992910834
 20
176.2687855422764
 10
311.2205623096512
 20
176.3868528539121
 10
311.2240294220134
 20
176.5222870104673
 10
311.1265165780786
 20
176.6775829242694
 10
310.889539727755
 20
176.8552355076464
 10
310.4746148209514
 20
177.0577396729262
 10
292.9746148209509
 20
177.0577396729263
 10
292.9746148209509
 20
172.0577396729262
 10
310.4746148209507
 20
172.0577396729264
 10
310.8696727563973
 20
172.2166672314149
 10
311.0711012249524
 20
172.3558642264994
 10
311.11796960351
 20
172.4788880322009
 10
311.0493472689642
 20
172.5892960225406
 10
310.9043035982086
 20
172.6906455715387
 10
310.7219079681394
 20
172.7864940532219
 10
310.5412297556437
 20
172.8803988415956
 10
310.4013383376222
 20
172.9759173106957
 10
310.3031356344761
 20
173.1168130114535
 10
310.3575283604701
 20
173.2871495087726
 10
310.415797904914
 20
173.3964955428489
 10
310.4794897870934
 20
173.5069496533
 10
310.5299955485989
 20
173.6174960955287
 10
310.5487067310233
 20
173.7271191249433
 10
310.517014875959
 20
173.8348029969518
 10
310.4232024048693
 20
173.9398141185668
 10
310.2831152587024
 20
174.0425475032245
 10
310.1194902582768
 20
174.1436803159649
 10
309.9550642244161
 20
174.2438897218331
 10
309.8125739779356
 20
174.3438528858663
 10
309.7147563396566
 20
174.4442469731083
 10
309.6843481303987
 20
174.5457491485997
 10
309.7440861709811
 20
174.6490365773822
 10
309.9081013854405
 20
174.7544478429665
 10
310.1561011106783
 20
174.8609672027393
 10
310.4591867868118
 20
174.9672403325563
 10
310.7884598539636
 20
175.0719129082759
 10
311.1150217522411
 20
175.1736306057495
 10
311.4099739217746
 20
175.2710391008379
 10
311.6444178026755
 20
175.3627840693952
 10
311.789454835064
 20
175.4475111872777
 10
311.8253725878413
 20
175.5244201712494
 97
        0
 92
        7
 72
     0
 73
     1
 93
       50
 10
252.9746148209508
 20
177.0577396729265
 10
235.474614820951
 20
177.0577396729264
 10
235.0596899141469
 20
176.8552355076463
 10
234.8227130638232
 20
176.6775829242693
 10
234.7252002198883
 20
176.5222870104672
 10
234.7286673322507
 20
176.3868528539122
 10
234.7946303508184
 20
176.2687855422764
 10
234.8846052255008
 20
176.165590163231
 10
234.9601079062038
 20
176.0747718044514
 10
234.9826543428384
 20
175.9938355536062
 10
234.9245441957974
 20
175.9203739968728
 10
234.8012119674148
 20
175.8523297144439
 10
234.63887587051
 20
175.787732785016
 10
234.4637541179027
 20
175.7246132872858
 10
234.3020649224126
 20
175.6610012999503
 10
234.1800264968586
 20
175.594926901706
 10
234.1238570540607
 20
175.5244201712495
 10
234.1597748068379
 20
175.4475111872777
 10
234.3048118392264
 20
175.3627840693953
 10
234.5392557201283
 20
175.2710391008377
 10
234.8342078896574
 20
175.1736306057502
 10
235.1607697879411
 20
175.0719129082758
 10
235.4900428550896
 20
174.9672403325563
 10
235.7931285312236
 20
174.8609672027391
 10
236.0411282564617
 20
174.7544478429665
 10
236.2051434709206
 20
174.6490365773823
 10
236.2648815115033
 20
174.5457491485996
 10
236.2344733022452
 20
174.4442469731083
 10
236.1366556639665
 20
174.3438528858667
 10
235.9941654174863
 20
174.2438897218332
 10
235.8297393836204
 20
174.143680315964
 10
235.6661143831994
 20
174.0425475032245
 10
235.5260272370327
 20
173.9398141185668
 10
235.4322147659428
 20
173.8348029969518
 10
235.4005229108786
 20
173.7271191249432
 10
235.419234093303
 20
173.6174960955285
 10
235.4697398548085
 20
173.5069496532996
 10
235.5334317369872
 20
173.3964955428503
 10
235.5917012814319
 20
173.2871495087725
 10
235.6460940074258
 20
173.1168130114535
 10
235.5478913042796
 20
172.9759173106958
 10
235.4079998862581
 20
172.8803988415957
 10
235.2273216737668
 20
172.786494053218
 10
235.0449260436932
 20
172.6906455715389
 10
234.8998823729378
 20
172.5892960225407
 10
234.8312600383919
 20
172.478888032201
 10
234.8781284169495
 20
172.3558642264994
 10
235.0795568855047
 20
172.216667231415
 10
235.4746148209512
 20
172.0577396729264
 10
252.9746148209508
 20
172.0577396729264
 97
        0
 75
     0
 76
     1
 52
0.0
 41
20.0
 77
     0
 78
     1
 53
45.0
 43
214.615110057506
 44
-534.296717527619
 45
-1.767766952966368
 46
1.767766952966368
 79
     0
 47
0.1350417537953048
 98
        2
 10
379.5383563414296
 20
174.2419035301762
 10
323.4437647013127
 20
175.7273629303139
  0
LINE
  5
EF7C886D5
330
EF7C85532
100
AcDbEntity
  8
JISSEN
100
AcDbLine
 10
264.4060315430195
 20
182.5007540037038
 30
0.0
 11
272.9060315430195
 21
182.5007540037038
 31
0.0
  0
LINE
  5
EF7C886D6
330
EF7C85532
100
AcDbEntity
  8
JISSEN
100
AcDbLine
 10
283.1840857709318
 20
180.7226997757916
 30
0.0
 11
262.6279773151074
 21
180.7226997757916
 31
0.0
  0
LWPOLYLINE
  5
EF7C886D7
330
EF7C85532
100
AcDbEntity
  8
NITEN
100
AcDbPolyline
 90
        5
 70
     0
 43
0.0
 10
289.9060315430196
 20
212.6113029094276
 10
289.9060315430196
 20
233.4490205605735
 42
-0.5882352941176475
 10
272.9060315430195
 20
233.4490205605735
 42
0.5882352941176476
 10
255.9060315430195
 20
233.4490205605732
 10
255.9060315430195
 20
212.6113029094276
  0
LINE
  5
EF7C886D9
330
EF7C85532
100
AcDbEntity
  8
JISSEN
100
AcDbLine
 10
263.4060315430196
 20
168.0007540037038
 30
0.0
 11
272.9060315430195
 21
168.0007540037038
 31
0.0
  0
LINE
  5
EF7C886DE
330
EF7C85532
100
AcDbEntity
  8
JISSEN
100
AcDbLine
 10
262.2425171886936
 20
168.3885921218126
 30
0.0
 11
272.9060315430195
 21
168.3885921218126
 31
0.0
  0
LINE
  5
EF7C886E5
330
EF7C85532
100
AcDbEntity
  8
JISSEN
100
AcDbLine
 10
270.1100376338055
 20
130.5007540037038
 30
0.0
 11
272.9060315430195
 21
130.5007540037038
 31
0.0
  0
LINE
  5
EF7C886E7
330
EF7C85532
100
AcDbEntity
  8
JISSEN
100
AcDbLine
 10
270.6516268302724
 20
119.5007624031977
 30
0.0
 11
275.1604362557667
 21
119.5007624031977
 31
0.0
  0
LINE
  5
EF7C886E8
330
EF7C85532
100
AcDbEntity
  8
JISSEN
100
AcDbLine
 10
263.3854644924678
 20
116.7007540037038
 30
0.0
 11
272.9060315430195
 21
116.7007540037038
 31
0.0
  0
LINE
  5
EF7C886E9
330
EF7C85532
100
AcDbEntity
  8
JISSEN
100
AcDbLine
 10
291.7323833653525
 20
116.8787189011607
 30
0.0
 11
254.0796797206864
 21
116.8787189011607
 31
0.0
  0
LINE
  5
EF7C886EA
330
EF7C85532
100
AcDbEntity
  8
JISSEN
100
AcDbLine
 10
253.9060315430195
 20
117.8635266541729
 30
0.0
 11
291.9060315430196
 21
117.8635266541731
 31
0.0
  0
LWPOLYLINE
  5
EF7C886EB
330
EF7C85532
100
AcDbEntity
  8
NITEN
100
AcDbPolyline
 90
       15
 70
     1
 43
0.0
 10
258.9060315430196
 20
172.1113029094276
 42
0.4142135623730927
 10
260.4060315430195
 20
170.6113029094276
 10
283.5000827140161
 20
170.6113029094276
 10
285.4060315430195
 20
170.6113029094276
 42
0.4142135623730925
 10
286.9060315430195
 20
172.1113029094276
 10
286.9060315430195
 20
183.1573189356456
 42
-0.4142135623730943
 10
291.9060315430196
 20
188.1573189356456
 42
0.4142135623730951
 10
293.9060315430196
 20
190.1573189356455
 10
293.9060315430196
 20
210.6113029094276
 42
0.4142135623730948
 10
291.9060315430196
 20
212.6113029094276
 10
253.9060315430195
 20
212.6113029094276
 42
0.4142135623730951
 10
251.9060315430195
 20
210.6113029094276
 10
251.9060315430195
 20
190.1573189356455
 42
0.4142135623730951
 10
253.9060315430195
 20
188.1573189356456
 42
-0.4142135623730961
 10
258.9060315430196
 20
183.1573189356456
  0
INSERT
  5
EF7C886EC
330
EF7C85532
100
AcDbEntity
  8
WAKU
100
AcDbBlockReference
  2
WAKU
 10
180.999999276
 20
0.0
 30
0.0
 41
181.0
 42
283.0
 43
181.0
  0
ARC
  5
EF7C886F1
330
EF7C85532
100
AcDbEntity
  8
JISSEN
100
AcDbCircle
 10
280.9060315430195
 20
150.5007540037038
 30
0.0
 40
26.0
100
AcDbArc
 50
180.0
 51
203.8188413934565
  0
ARC
  5
EF7C886F2
330
EF7C85532
100
AcDbEntity
  8
JISSEN
100
AcDbCircle
 10
280.9060315430195
 20
150.5007540037038
 30
0.0
 40
28.0
100
AcDbArc
 50
180.0
 51
202.024312837042
  0
ARC
  5
EF7C886F3
330
EF7C85532
100
AcDbEntity
  8
JISSEN
100
AcDbCircle
 10
280.9060315430195
 20
150.5007540037038
 30
0.0
 40
30.0
100
AcDbArc
 50
180.0
 51
220.2190987445557
  0
ARC
  5
EF7C886F4
330
EF7C85532
100
AcDbEntity
  8
JISSEN
100
AcDbCircle
 10
280.9060315430195
 20
150.5007540037038
 30
0.0
 40
24.0
100
AcDbArc
 50
180.0
 51
237.8181160795964
  0
LINE
  5
EF7C8875B
330
EF7C85532
100
AcDbEntity
  8
JISSEN
100
AcDbLine
 10
270.4834867577872
 20
117.863526654173
 30
0.0
 11
270.6516268302724
 21
119.5007624031977
 31
0.0
  0
ARC
  5
EF7C8875C
330
EF7C85532
100
AcDbEntity
  8
JISSEN
100
AcDbCircle
 10
269.4925158387255
 20
119.0007624031967
 30
0.0
 40
0.5
100
AcDbArc
 50
13.29012998990297
 51
164.2012849264975
  0
ARC
  5
EF7C8875D
330
EF7C85532
100
AcDbEntity
  8
JISSEN
100
AcDbCircle
 10
264.7392441980009
 20
118.5007624031972
 30
0.0
 40
1.0
100
AcDbArc
 50
47.91894748809069
 51
146.3490341753988
  0
LINE
  5
EF7C8875E
330
EF7C85532
100
AcDbEntity
  8
JISSEN
100
AcDbLine
 10
264.4551379819038
 20
117.863526654173
 30
0.0
 11
265.5877723354249
 21
119.5007624031977
 31
0.0
  0
ARC
  5
EF7C8875F
330
EF7C85532
100
AcDbEntity
  8
JISSEN
100
AcDbCircle
 10
261.9400234558303
 20
118.1452624031976
 30
0.0
 40
1.355499999999999
100
AcDbArc
 50
70.26879749382101
 51
124.9999999999968
  0
LINE
  5
EF7C88760
330
EF7C85532
100
AcDbEntity
  8
JISSEN
100
AcDbLine
 10
260.691199311043
 20
117.8635266541729
 30
0.0
 11
262.4848394852538
 21
119.5007624031977
 31
0.0
  0
LINE
  5
EF7C88761
330
EF7C85532
100
AcDbEntity
  8
JISSEN
100
AcDbLine
 10
259.6560315430195
 20
118.2007540037038
 30
0.0
 11
261.1625405963565
 21
119.2556229992314
 31
0.0
  0
LINE
  5
EF7C88762
330
EF7C85532
100
AcDbEntity
  8
JISSEN
100
AcDbLine
 10
254.9060315430191
 20
118.0398536348811
 30
0.0
 11
255.8185428794933
 21
118.2007540037038
 31
0.0
  0
LINE
  5
EF7C88763
330
EF7C85532
100
AcDbEntity
  8
JISSEN
100
AcDbLine
 10
254.0796797206864
 20
116.8787189011604
 30
0.0
 11
253.9060315430195
 21
117.8635266541729
 31
0.0
  0
LINE
  5
EF7C88764
330
EF7C85532
100
AcDbEntity
  8
JISSEN
100
AcDbLine
 10
253.9060315430195
 20
117.8635266541729
 30
0.0
 11
254.9060315430191
 21
118.0398536348811
 31
0.0
  0
LINE
  5
EF7C88765
330
EF7C85532
100
AcDbEntity
  8
JISSEN
100
AcDbLine
 10
255.8185428794935
 20
118.2007540037038
 30
0.0
 11
259.6560315430195
 21
118.2007540037038
 31
0.0
  0
LINE
  5
EF7C88766
330
EF7C85532
100
AcDbEntity
  8
JISSEN
100
AcDbLine
 10
263.3854644924678
 20
116.7007540037038
 30
0.0
 11
263.2608521297318
 21
116.8787189011607
 31
0.0
  0
LINE
  5
EF7C88767
330
EF7C85532
100
AcDbEntity
  8
JISSEN
100
AcDbLine
 10
263.1137440962755
 20
117.863526654173
 30
0.0
 11
263.9068155404004
 21
119.0548946347136
 31
0.0
  0
LINE
  5
EF7C88768
330
EF7C85532
100
AcDbEntity
  8
JISSEN
100
AcDbLine
 10
268.6511086335376
 20
117.863526654173
 30
0.0
 11
269.0114037889766
 21
119.1368917372372
 31
0.0
  0
ARC
  5
EF7C88769
330
EF7C85532
100
AcDbEntity
  8
JISSEN
100
AcDbCircle
 10
269.6922039622536
 20
118.2019721681093
 30
0.0
 40
0.1
100
AcDbArc
 50
13.29012998990889
 51
164.2012849264934
  0
LINE
  5
EF7C8876A
330
EF7C85532
100
AcDbEntity
  8
JISSEN
100
AcDbLine
 10
269.8748993840132
 20
117.863526654173
 30
0.0
 11
269.7895258110202
 21
118.2249603771015
 31
0.0
  0
LINE
  5
EF7C8876B
330
EF7C85532
100
AcDbEntity
  8
JISSEN
100
AcDbLine
 10
269.4925158387255
 20
117.863526654173
 30
0.0
 11
269.5959815523039
 21
118.2291980349174
 31
0.0
  0
LINE
  5
EF7C8876C
330
EF7C85532
100
AcDbEntity
  8
JISSEN
100
AcDbLine
 10
270.2748993840133
 20
117.863526654173
 30
0.0
 11
269.9791250825581
 21
119.1157034481575
 31
0.0
  0
ARC
  5
EF7C8876D
330
EF7C85532
100
AcDbEntity
  8
JISSEN
100
AcDbCircle
 10
270.1100376338055
 20
129.0007540037038
 30
0.0
 40
1.5
100
AcDbArc
 50
90.0
 51
125.5633285759494
  0
LINE
  5
EF7C8876E
330
EF7C85532
100
AcDbEntity
  8
JISSEN
100
AcDbLine
 10
257.9986065849136
 20
131.1293864270782
 30
0.0
 11
267.8322020583874
 21
119.5007624031977
 31
0.0
  0
ARC
  5
EF7C8876F
330
EF7C85532
100
AcDbEntity
  8
JISSEN
100
AcDbCircle
 10
256.1560315430195
 20
124.5007540037038
 30
0.0
 40
12.49999999999999
100
AcDbArc
 50
343.7397952916878
 51
16.26020470831211
  0
LINE
  5
EF7C88770
330
EF7C85532
100
AcDbEntity
  8
JISSEN
100
AcDbLine
 10
269.4925158387255
 20
119.5007624031977
 30
0.0
 11
265.5877723354249
 21
119.5007624031977
 31
0.0
  0
LINE
  5
EF7C88771
330
EF7C85532
100
AcDbEntity
  8
JISSEN
100
AcDbLine
 10
262.4848394852538
 20
119.5007624031977
 30
0.0
 11
264.7392441980009
 21
119.5007624031977
 31
0.0
  0
ARC
  5
EF7C88772
330
EF7C85532
100
AcDbEntity
  8
JISSEN
100
AcDbCircle
 10
266.9060315430196
 20
119.0473190215647
 30
0.0
 40
1.0
100
AcDbArc
 50
26.96482331253057
 51
40.21909874455571
  0
ARC
  5
EF7C88773
330
EF7C85532
100
AcDbEntity
  8
JISSEN
100
AcDbCircle
 10
268.6560315430195
 20
131.0344369406331
 30
0.0
 40
1.0
100
AcDbArc
 50
237.8181160795964
 51
305.5633285759505
  0
LINE
  5
EF7C8877E
330
EF7C85532
100
AcDbEntity
  8
JISSEN
100
AcDbLine
 10
270.962884009576
 20
130.5007540037038
 30
0.0
 11
271.3771843430277
 21
130.9150543371554
 31
0.0
  0
TEXT
  5
EF7C88784
330
EF7C85532
100
AcDbEntity
  8
JISSEN
100
AcDbText
 10
268.4238159196846
 20
165.9594225373321
 30
0.0
 40
3.0
  1
D
 50
180.0
  7
K
 72
     4
 11
266.8523873482561
 21
164.4594225373321
 31
0.0
100
AcDbText
  0
LINE
  5
EF7C88785
330
EF7C85532
100
AcDbEntity
  8
JISSEN
100
AcDbLine
 10
264.7065700557868
 20
166.5007540037039
 30
0.0
 11
264.7065700557868
 21
162.5007540037038
 31
0.0
  0
LINE
  5
EF7C88786
330
EF7C85532
100
AcDbEntity
  8
JISSEN
100
AcDbLine
 10
268.9060315430196
 20
162.5007540037038
 30
0.0
 11
268.9060315430196
 21
166.5007540037039
 31
0.0
  0
ARC
  5
EF7C88787
330
EF7C85532
100
AcDbEntity
  8
JISSEN
100
AcDbCircle
 10
259.0182830113513
 20
169.6438713320802
 30
0.0
 40
6.498907295833106
100
AcDbArc
 50
284.6790800521976
 51
320.8990391255044
  0
ARC
  5
EF7C88788
330
EF7C85532
100
AcDbEntity
  8
JISSEN
100
AcDbCircle
 10
267.9060315430195
 20
150.5007540037038
 30
0.0
 40
17.0
100
AcDbArc
 50
109.7499227956426
 51
180.0
  0
ARC
  5
EF7C8878B
330
EF7C85532
100
AcDbEntity
  8
JISSEN
100
AcDbCircle
 10
267.8453365906954
 20
149.3468020662754
 30
0.0
 40
11.0
100
AcDbArc
 50
104.8402148385189
 51
173.978322807366
  0
ARC
  5
EF7C8878C
330
EF7C85532
100
AcDbEntity
  8
JISSEN
100
AcDbCircle
 10
265.6947847594972
 20
149.8990962808592
 30
0.0
 40
10.80551655320168
100
AcDbArc
 50
91.53128360361854
 51
176.8080854238748
  0
ARC
  5
EF7C8878D
330
EF7C85532
100
AcDbEntity
  8
JISSEN
100
AcDbCircle
 10
267.9060315430195
 20
150.5007540037038
 30
0.0
 40
15.0
100
AcDbArc
 50
126.6829888003599
 51
180.0
  0
ARC
  5
EF7C887AA
330
EF7C85532
100
AcDbEntity
  8
JISSEN
100
AcDbCircle
 10
261.9321608200948
 20
158.5202844504185
 30
0.0
 40
5.0
100
AcDbArc
 50
104.6790800521975
 51
126.6829888003599
  0
LINE
  5
EF7C887B0
330
EF7C85532
100
AcDbEntity
  8
JISSEN
100
AcDbLine
 10
265.4060315430196
 20
160.7007540037038
 30
0.0
 11
271.4060315430196
 21
160.7007540037038
 31
0.0
  0
LINE
  5
EF7C887B1
330
EF7C85532
100
AcDbEntity
  8
JISSEN
100
AcDbLine
 10
264.7065700557868
 20
162.5007540037038
 30
0.0
 11
271.4060315430196
 21
162.5007540037038
 31
0.0
  0
LINE
  5
EF7C887B2
330
EF7C85532
100
AcDbEntity
  8
JISSEN
100
AcDbLine
 10
265.4060315430196
 20
162.5007540037038
 30
0.0
 11
265.4060315430196
 21
160.7007540037038
 31
0.0
  0
LINE
  5
EF7C887B4
330
EF7C85532
100
AcDbEntity
  8
JISSEN
100
AcDbLine
 10
271.4060315430196
 20
160.7007540037038
 30
0.0
 11
271.4060315430196
 21
162.5007540037038
 31
0.0
  0
LINE
  5
EF7C887B6
330
EF7C85532
100
AcDbEntity
  8
JISSEN
100
AcDbLine
 10
262.5134415883095
 20
177.0577396729265
 30
0.0
 11
235.4746148209511
 21
177.0577396729264
 31
0.0
  0
LINE
  5
EF7C887B7
330
EF7C85532
100
AcDbEntity
  8
JISSEN
100
AcDbLine
 10
235.4746148209513
 20
172.0577396729264
 30
0.0
 11
262.3571837797888
 21
172.0577396729264
 31
0.0
  0
LWPOLYLINE
  5
EF7C887B8
330
EF7C85532
100
AcDbEntity
  8
JISSEN
100
AcDbPolyline
 90
        7
 70
     0
 43
0.0
 10
242.888282811203
 20
172.0577396729234
 42
0.1724294177368876
 10
257.375164893497
 20
167.602997627196
 42
-0.3050742458420749
 10
258.5179437410214
 20
166.9038700877301
 42
0.2933139429534979
 10
259.8362159147694
 20
166.0577396729235
 10
260.1382828112031
 20
166.0577396729235
 42
0.4142135623730951
 10
262.1382828112031
 20
168.0577396729234
 10
262.1382828112031
 20
169.0577396729235
  0
LWPOLYLINE
  5
EF7C887B9
330
EF7C85532
100
AcDbEntity
  8
JISSEN
100
AcDbPolyline
 90
        7
 70
     0
 43
0.0
 10
244.6396811758037
 20
172.0577396729234
 42
0.1557399217223865
 10
257.3320024105013
 20
168.6020656929761
 42
-0.3050742458420765
 10
259.4270969642958
 20
167.3203318706221
 42
0.2933139429534918
 10
259.8362159147694
 20
167.0577396729234
 10
260.1382828112031
 20
167.0577396729234
 42
0.4142135623730951
 10
261.1382828112031
 20
168.0577396729234
 10
261.1382828112031
 20
169.0577396729235
  0
POLYLINE
  5
EF7C887BA
330
EF7C85532
100
AcDbEntity
  8
JISSEN
 62
     0
100
AcDb2dPolyline
 66
     1
 10
0.0
 20
0.0
 30
0.0
 70
     4
 75
     6
  0
VERTEX
  5
EF7C887BB
330
EF7C887BA
100
AcDbEntity
  8
JISSEN
 62
     0
100
AcDbVertex
100
AcDb2dVertex
 10
235.4746148209509
 20
177.0577396729264
 30
0.0
 70
    16
  0
VERTEX
  5
EF7C887BC
330
EF7C887BA
100
AcDbEntity
  8
JISSEN
 62
     0
100
AcDbVertex
100
AcDb2dVertex
 10
235.4746148209509
 20
177.0577396729264
 30
0.0
 70
     8
  0
VERTEX
  5
EF7C887BD
330
EF7C887BA
100
AcDbEntity
  8
JISSEN
 62
     0
100
AcDbVertex
100
AcDb2dVertex
 10
235.059689914147
 20
176.8552355076463
 30
0.0
 70
     8
  0
VERTEX
  5
EF7C887BE
330
EF7C887BA
100
AcDbEntity
  8
JISSEN
 62
     0
100
AcDbVertex
100
AcDb2dVertex
 10
234.8227130638232
 20
176.6775829242693
 30
0.0
 70
     8
  0
VERTEX
  5
EF7C887BF
330
EF7C887BA
100
AcDbEntity
  8
JISSEN
 62
     0
100
AcDbVertex
100
AcDb2dVertex
 10
234.7252002198884
 20
176.5222870104672
 30
0.0
 70
     8
  0
VERTEX
  5
EF7C887C0
330
EF7C887BA
100
AcDbEntity
  8
JISSEN
 62
     0
100
AcDbVertex
100
AcDb2dVertex
 10
234.7286673322506
 20
176.3868528539121
 30
0.0
 70
     8
  0
VERTEX
  5
EF7C887C1
330
EF7C887BA
100
AcDbEntity
  8
JISSEN
 62
     0
100
AcDbVertex
100
AcDb2dVertex
 10
234.7946303508184
 20
176.2687855422765
 30
0.0
 70
     8
  0
VERTEX
  5
EF7C887C2
330
EF7C887BA
100
AcDbEntity
  8
JISSEN
 62
     0
100
AcDbVertex
100
AcDb2dVertex
 10
234.8846052254999
 20
176.1655901632321
 30
0.0
 70
     8
  0
VERTEX
  5
EF7C887C3
330
EF7C887BA
100
AcDbEntity
  8
JISSEN
 62
     0
100
AcDbVertex
100
AcDb2dVertex
 10
234.9601079062038
 20
176.0747718044514
 30
0.0
 70
     8
  0
VERTEX
  5
EF7C887C4
330
EF7C887BA
100
AcDbEntity
  8
JISSEN
 62
     0
100
AcDbVertex
100
AcDb2dVertex
 10
234.9826543428385
 20
175.9938355536062
 30
0.0
 70
     8
  0
VERTEX
  5
EF7C887C5
330
EF7C887BA
100
AcDbEntity
  8
JISSEN
 62
     0
100
AcDbVertex
100
AcDb2dVertex
 10
234.9245441957974
 20
175.9203739968727
 30
0.0
 70
     8
  0
VERTEX
  5
EF7C887C6
330
EF7C887BA
100
AcDbEntity
  8
JISSEN
 62
     0
100
AcDbVertex
100
AcDb2dVertex
 10
234.8012119674148
 20
175.8523297144438
 30
0.0
 70
     8
  0
VERTEX
  5
EF7C887C7
330
EF7C887BA
100
AcDbEntity
  8
JISSEN
 62
     0
100
AcDbVertex
100
AcDb2dVertex
 10
234.63887587051
 20
175.787732785016
 30
0.0
 70
     8
  0
VERTEX
  5
EF7C887C8
330
EF7C887BA
100
AcDbEntity
  8
JISSEN
 62
     0
100
AcDbVertex
100
AcDb2dVertex
 10
234.463754117903
 20
175.7246132872858
 30
0.0
 70
     8
  0
VERTEX
  5
EF7C887C9
330
EF7C887BA
100
AcDbEntity
  8
JISSEN
 62
     0
100
AcDbVertex
100
AcDb2dVertex
 10
234.3020649224125
 20
175.6610012999503
 30
0.0
 70
     8
  0
VERTEX
  5
EF7C887CA
330
EF7C887BA
100
AcDbEntity
  8
JISSEN
 62
     0
100
AcDbVertex
100
AcDb2dVertex
 10
234.1800264968586
 20
175.594926901706
 30
0.0
 70
     8
  0
VERTEX
  5
EF7C887CB
330
EF7C887BA
100
AcDbEntity
  8
JISSEN
 62
     0
100
AcDbVertex
100
AcDb2dVertex
 10
234.1238570540607
 20
175.5244201712495
 30
0.0
 70
     8
  0
VERTEX
  5
EF7C887CC
330
EF7C887BA
100
AcDbEntity
  8
JISSEN
 62
     0
100
AcDbVertex
100
AcDb2dVertex
 10
234.1597748068378
 20
175.4475111872777
 30
0.0
 70
     8
  0
VERTEX
  5
EF7C887CD
330
EF7C887BA
100
AcDbEntity
  8
JISSEN
 62
     0
100
AcDbVertex
100
AcDb2dVertex
 10
234.3048118392263
 20
175.3627840693952
 30
0.0
 70
     8
  0
VERTEX
  5
EF7C887CE
330
EF7C887BA
100
AcDbEntity
  8
JISSEN
 62
     0
100
AcDbVertex
100
AcDb2dVertex
 10
234.5392557201274
 20
175.2710391008379
 30
0.0
 70
     8
  0
VERTEX
  5
EF7C887CF
330
EF7C887BA
100
AcDbEntity
  8
JISSEN
 62
     0
100
AcDbVertex
100
AcDb2dVertex
 10
234.8342078896597
 20
175.1736306057498
 30
0.0
 70
     8
  0
VERTEX
  5
EF7C887D0
330
EF7C887BA
100
AcDbEntity
  8
JISSEN
 62
     0
100
AcDbVertex
100
AcDb2dVertex
 10
235.1607697879411
 20
175.0719129082747
 30
0.0
 70
     8
  0
VERTEX
  5
EF7C887D1
330
EF7C887BA
100
AcDbEntity
  8
JISSEN
 62
     0
100
AcDbVertex
100
AcDb2dVertex
 10
235.4900428550898
 20
174.9672403325564
 30
0.0
 70
     8
  0
VERTEX
  5
EF7C887D2
330
EF7C887BA
100
AcDbEntity
  8
JISSEN
 62
     0
100
AcDbVertex
100
AcDb2dVertex
 10
235.7931285312239
 20
174.8609672027391
 30
0.0
 70
     8
  0
VERTEX
  5
EF7C887D3
330
EF7C887BA
100
AcDbEntity
  8
JISSEN
 62
     0
100
AcDbVertex
100
AcDb2dVertex
 10
236.0411282564615
 20
174.7544478429664
 30
0.0
 70
     8
  0
VERTEX
  5
EF7C887D4
330
EF7C887BA
100
AcDbEntity
  8
JISSEN
 62
     0
100
AcDbVertex
100
AcDb2dVertex
 10
236.2051434709206
 20
174.6490365773822
 30
0.0
 70
     8
  0
VERTEX
  5
EF7C887D5
330
EF7C887BA
100
AcDbEntity
  8
JISSEN
 62
     0
100
AcDbVertex
100
AcDb2dVertex
 10
236.2648815115033
 20
174.5457491485997
 30
0.0
 70
     8
  0
VERTEX
  5
EF7C887D6
330
EF7C887BA
100
AcDbEntity
  8
JISSEN
 62
     0
100
AcDbVertex
100
AcDb2dVertex
 10
236.2344733022454
 20
174.4442469731084
 30
0.0
 70
     8
  0
VERTEX
  5
EF7C887D7
330
EF7C887BA
100
AcDbEntity
  8
JISSEN
 62
     0
100
AcDbVertex
100
AcDb2dVertex
 10
236.1366556639664
 20
174.3438528858665
 30
0.0
 70
     8
  0
VERTEX
  5
EF7C887D8
330
EF7C887BA
100
AcDbEntity
  8
JISSEN
 62
     0
100
AcDbVertex
100
AcDb2dVertex
 10
235.9941654174859
 20
174.243889721833
 30
0.0
 70
     8
  0
VERTEX
  5
EF7C887D9
330
EF7C887BA
100
AcDbEntity
  8
JISSEN
 62
     0
100
AcDbVertex
100
AcDb2dVertex
 10
235.8297393836238
 20
174.143680315966
 30
0.0
 70
     8
  0
VERTEX
  5
EF7C887DA
330
EF7C887BA
100
AcDbEntity
  8
JISSEN
 62
     0
100
AcDbVertex
100
AcDb2dVertex
 10
235.6661143831996
 20
174.0425475032245
 30
0.0
 70
     8
  0
VERTEX
  5
EF7C887DB
330
EF7C887BA
100
AcDbEntity
  8
JISSEN
 62
     0
100
AcDbVertex
100
AcDb2dVertex
 10
235.5260272370327
 20
173.9398141185668
 30
0.0
 70
     8
  0
VERTEX
  5
EF7C887DC
330
EF7C887BA
100
AcDbEntity
  8
JISSEN
 62
     0
100
AcDbVertex
100
AcDb2dVertex
 10
235.4322147659428
 20
173.8348029969517
 30
0.0
 70
     8
  0
VERTEX
  5
EF7C887DD
330
EF7C887BA
100
AcDbEntity
  8
JISSEN
 62
     0
100
AcDbVertex
100
AcDb2dVertex
 10
235.4005229108785
 20
173.7271191249433
 30
0.0
 70
     8
  0
VERTEX
  5
EF7C887DE
330
EF7C887BA
100
AcDbEntity
  8
JISSEN
 62
     0
100
AcDbVertex
100
AcDb2dVertex
 10
235.419234093303
 20
173.6174960955283
 30
0.0
 70
     8
  0
VERTEX
  5
EF7C887DF
330
EF7C887BA
100
AcDbEntity
  8
JISSEN
 62
     0
100
AcDbVertex
100
AcDb2dVertex
 10
235.4697398548085
 20
173.5069496532998
 30
0.0
 70
     8
  0
VERTEX
  5
EF7C887E0
330
EF7C887BA
100
AcDbEntity
  8
JISSEN
 62
     0
100
AcDbVertex
100
AcDb2dVertex
 10
235.5334317369875
 20
173.3964955428505
 30
0.0
 70
     8
  0
VERTEX
  5
EF7C887E1
330
EF7C887BA
100
AcDbEntity
  8
JISSEN
 62
     0
100
AcDbVertex
100
AcDb2dVertex
 10
235.5917012814319
 20
173.2871495087727
 30
0.0
 70
     8
  0
VERTEX
  5
EF7C887E2
330
EF7C887BA
100
AcDbEntity
  8
JISSEN
 62
     0
100
AcDbVertex
100
AcDb2dVertex
 10
235.6259400297338
 20
173.1799272956592
 30
0.0
 70
     8
  0
VERTEX
  5
EF7C887E3
330
EF7C887BA
100
AcDbEntity
  8
JISSEN
 62
     0
100
AcDbVertex
100
AcDb2dVertex
 10
235.6175395234857
 20
173.0758446481028
 30
0.0
 70
     8
  0
VERTEX
  5
EF7C887E4
330
EF7C887BA
100
AcDbEntity
  8
JISSEN
 62
     0
100
AcDbVertex
100
AcDb2dVertex
 10
235.5478913042796
 20
172.9759173106958
 30
0.0
 70
     8
  0
VERTEX
  5
EF7C887E5
330
EF7C887BA
100
AcDbEntity
  8
JISSEN
 62
     0
100
AcDbVertex
100
AcDb2dVertex
 10
235.4079998862581
 20
172.8803988415957
 30
0.0
 70
     8
  0
VERTEX
  5
EF7C887E6
330
EF7C887BA
100
AcDbEntity
  8
JISSEN
 62
     0
100
AcDbVertex
100
AcDb2dVertex
 10
235.2273216737647
 20
172.7864940532169
 30
0.0
 70
     8
  0
VERTEX
  5
EF7C887E7
330
EF7C887BA
100
AcDbEntity
  8
JISSEN
 62
     0
100
AcDbVertex
100
AcDb2dVertex
 10
235.0449260436934
 20
172.6906455715389
 30
0.0
 70
     8
  0
VERTEX
  5
EF7C887E8
330
EF7C887BA
100
AcDbEntity
  8
JISSEN
 62
     0
100
AcDbVertex
100
AcDb2dVertex
 10
234.8998823729378
 20
172.5892960225406
 30
0.0
 70
     8
  0
VERTEX
  5
EF7C887E9
330
EF7C887BA
100
AcDbEntity
  8
JISSEN
 62
     0
100
AcDbVertex
100
AcDb2dVertex
 10
234.8312600383918
 20
172.4788880322009
 30
0.0
 70
     8
  0
VERTEX
  5
EF7C887EA
330
EF7C887BA
100
AcDbEntity
  8
JISSEN
 62
     0
100
AcDbVertex
100
AcDb2dVertex
 10
234.8781284169495
 20
172.3558642264994
 30
0.0
 70
     8
  0
VERTEX
  5
EF7C887EB
330
EF7C887BA
100
AcDbEntity
  8
JISSEN
 62
     0
100
AcDbVertex
100
AcDb2dVertex
 10
235.0795568855047
 20
172.2166672314149
 30
0.0
 70
     8
  0
VERTEX
  5
EF7C887EC
330
EF7C887BA
100
AcDbEntity
  8
JISSEN
 62
     0
100
AcDbVertex
100
AcDb2dVertex
 10
235.4746148209509
 20
172.0577396729265
 30
0.0
 70
     8
  0
VERTEX
  5
EF7C887ED
330
EF7C887BA
100
AcDbEntity
  8
JISSEN
 62
     0
100
AcDbVertex
100
AcDb2dVertex
 10
234.096676282974
 20
176.4823754231289
 30
0.0
 70
    16
  0
VERTEX
  5
EF7C887EE
330
EF7C887BA
100
AcDbEntity
  8
JISSEN
 62
     0
100
AcDbVertex
100
AcDb2dVertex
 10
235.9580174805552
 20
175.9150388004574
 30
0.0
 70
    16
  0
VERTEX
  5
EF7C887EF
330
EF7C887BA
100
AcDbEntity
  8
JISSEN
 62
     0
100
AcDbVertex
100
AcDb2dVertex
 10
232.8978504506272
 20
175.5368143853435
 30
0.0
 70
    16
  0
VERTEX
  5
EF7C887F0
330
EF7C887BA
100
AcDbEntity
  8
JISSEN
 62
     0
100
AcDbVertex
100
AcDb2dVertex
 10
237.4092295579631
 20
174.6227707818358
 30
0.0
 70
    16
  0
VERTEX
  5
EF7C887F1
330
EF7C887BA
100
AcDbEntity
  8
JISSEN
 62
     0
100
AcDbVertex
100
AcDb2dVertex
 10
234.696092143045
 20
173.8663219516075
 30
0.0
 70
    16
  0
VERTEX
  5
EF7C887F2
330
EF7C887BA
100
AcDbEntity
  8
JISSEN
 62
     0
100
AcDbVertex
100
AcDb2dVertex
 10
236.3996904655142
 20
172.9207593934444
 30
0.0
 70
    16
  0
VERTEX
  5
EF7C887F3
330
EF7C887BA
100
AcDbEntity
  8
JISSEN
 62
     0
100
AcDbVertex
100
AcDb2dVertex
 10
234.1282260355556
 20
172.5110160236746
 30
0.0
 70
    16
  0
VERTEX
  5
EF7C887F4
330
EF7C887BA
100
AcDbEntity
  8
JISSEN
 62
     0
100
AcDbVertex
100
AcDb2dVertex
 10
235.4746148209509
 20
172.0577396729264
 30
0.0
 70
    16
  0
SEQEND
  5
EF7C887F5
330
EF7C887BA
100
AcDbEntity
  8
JISSEN
 62
     0
  0
LINE
  5
EF7C887F6
330
EF7C85532
100
AcDbEntity
  8
JISSEN
100
AcDbLine
 10
252.9746148209508
 20
172.0577396729264
 30
0.0
 11
252.9746148209508
 21
177.0577396729264
 31
0.0
  0
LINE
  5
EF7C887F7
330
EF7C85532
100
AcDbEntity
  8
SAISEN
100
AcDbLine
 10
263.8274631197451
 20
181.9221855804295
 30
0.0
 11
263.3925372147595
 21
168.0052521131239
 31
0.0
  0
LINE
  5
EF7C887F8
330
EF7C85532
100
AcDbEntity
  8
JISSEN
100
AcDbLine
 10
262.2425171886936
 20
168.3885921218126
 30
0.0
 11
262.6279773151074
 21
180.7226997757916
 31
0.0
  0
LINE
  5
EF7C887F9
330
EF7C85532
100
AcDbEntity
  8
JISSEN
100
AcDbLine
 10
262.1614688964814
 20
166.5007540037039
 30
0.0
 11
269.9060315430195
 21
166.5007540037039
 31
0.0
  0
LINE
  5
EF7C887FA
330
EF7C85532
100
AcDbEntity
  8
JISSEN
 62
     0
100
AcDbLine
 10
261.1382828112031
 20
169.0577396729235
 30
0.0
 11
262.1382828112031
 21
169.0577396729235
 31
0.0
  0
LINE
  5
EF7C887FB
330
EF7C85532
100
AcDbEntity
  8
JISSEN
100
AcDbLine
 10
261.1382828112031
 20
169.0577396729235
 30
0.0
 11
262.1382828112031
 21
169.0577396729235
 31
0.0
  0
LINE
  5
EF7C887FC
330
EF7C85532
100
AcDbEntity
  8
JISSEN
100
AcDbLine
 10
263.4060315430196
 20
166.5007540037039
 30
0.0
 11
263.4060315430196
 21
168.0007540037038
 31
0.0
  0
LINE
  5
EF7C887FD
330
EF7C85532
100
AcDbEntity
  8
JISSEN
100
AcDbLine
 10
262.2425171886936
 20
168.3885921218126
 30
0.0
 11
263.4060315430196
 21
168.0007540037038
 31
0.0
  0
LINE
  5
EF7C887FE
330
EF7C85532
100
AcDbEntity
  8
JISSEN
100
AcDbLine
 10
269.9060315430195
 20
166.5007540037039
 30
0.0
 11
269.9060315430195
 21
168.0007540037038
 31
0.0
  0
LINE
  5
EF7C88801
330
EF7C85532
100
AcDbEntity
  8
JISSEN
100
AcDbLine
 10
264.4060315430195
 20
182.5007540037038
 30
0.0
 11
262.6279773151074
 21
180.7226997757916
 31
0.0
  0
ARC
  5
EF7C88804
330
EF7C85532
100
AcDbEntity
  8
JISSEN
100
AcDbCircle
 10
264.9060315430196
 20
150.5007540037038
 30
0.0
 40
26.0
100
AcDbArc
 50
336.1811586065433
 51
0.0
  0
ARC
  5
EF7C88805
330
EF7C85532
100
AcDbEntity
  8
JISSEN
100
AcDbCircle
 10
264.9060315430196
 20
150.5007540037038
 30
0.0
 40
28.0
100
AcDbArc
 50
337.9756871629579
 51
0.0
  0
ARC
  5
EF7C88809
330
EF7C85532
100
AcDbEntity
  8
JISSEN
100
AcDbCircle
 10
264.9060315430196
 20
150.5007540037038
 30
0.0
 40
24.0
100
AcDbArc
 50
302.1818839204035
 51
0.0
  0
ARC
  5
EF7C8880A
330
EF7C85532
100
AcDbEntity
  8
JISSEN
100
AcDbCircle
 10
264.9060315430196
 20
150.5007540037038
 30
0.0
 40
30.0
100
AcDbArc
 50
319.7809012554443
 51
0.0
  0
TEXT
  5
EF7C8882A
330
EF7C85532
100
AcDbEntity
  8
SUNPOU
100
AcDbText
 10
299.423997789643
 20
7.849423898685245
 30
0.0
 40
3.0
  1
DQP   シーリングプレート作動状態
  7
K
100
AcDbText
  0
LINE
  5
EF7C8882B
330
EF7C85532
100
AcDbEntity
  8
TEXT
100
AcDbLine
 10
310.4448273316181
 20
10.84292501940535
 30
0.0
 11
310.4448273316181
 21
7.842925019405356
 31
0.0
  0
LINE
  5
EF7C8882C
330
EF7C85532
100
AcDbEntity
  8
TEXT
100
AcDbLine
 10
309.5448273316181
 20
10.84292501940535
 30
0.0
 11
309.5448273316181
 21
7.842925019405356
 31
0.0
  0
TEXT
  5
EF7C8882D
330
EF7C85532
100
AcDbEntity
  8
SUNPOU
100
AcDbText
 10
299.423997789643
 20
2.849423898685245
 30
0.0
 40
3.0
  1
尺度　1/1
  7
K
100
AcDbText
  0
LINE
  5
EF7C8882E
330
EF7C85532
100
AcDbEntity
  8
TEXT
100
AcDbLine
 10
309.0948273316181
 20
7.842925019405356
 30
0.0
 11
310.8948273316181
 21
7.842925019405356
 31
0.0
  0
LINE
  5
EF7C8884F
330
EF7C85532
100
AcDbEntity
  8
TEXT
100
AcDbLine
 10
309.0948273316181
 20
10.84292501940535
 30
0.0
 11
310.8948273316181
 21
10.84292501940535
 31
0.0
  0
ARC
  5
EF7C88897
330
EF7C85532
100
AcDbEntity
  8
JISSEN
100
AcDbCircle
 10
281.0728188880382
 20
118.5007624031972
 30
0.0
 40
1.0
100
AcDbArc
 50
33.65096582460109
 51
132.0810525119092
  0
LINE
  5
EF7C88898
330
EF7C85532
100
AcDbEntity
  8
JISSEN
100
AcDbLine
 10
281.3569251041353
 20
117.863526654173
 30
0.0
 11
280.2242907506142
 21
119.5007624031976
 31
0.0
  0
LINE
  5
EF7C88899
330
EF7C85532
100
AcDbEntity
  8
JISSEN
100
AcDbLine
 10
285.1208637749961
 20
117.8635266541729
 30
0.0
 11
283.3272236007852
 21
119.5007624031976
 31
0.0
  0
ARC
  5
EF7C8889A
330
EF7C85532
100
AcDbEntity
  8
JISSEN
100
AcDbCircle
 10
283.8720396302088
 20
118.1452624031976
 30
0.0
 40
1.355499999999999
100
AcDbArc
 50
55.00000000000309
 51
109.7312025061702
  0
ARC
  5
EF7C8889B
330
EF7C85532
100
AcDbEntity
  8
JISSEN
100
AcDbCircle
 10
276.3195472473134
 20
119.0007624031967
 30
0.0
 40
0.5
100
AcDbArc
 50
15.79871507350246
 51
166.709870010097
  0
LINE
  5
EF7C8889C
330
EF7C85532
100
AcDbEntity
  8
JISSEN
100
AcDbLine
 10
275.1604362557667
 20
119.5007624031977
 30
0.0
 11
275.3285763282522
 21
117.863526654173
 31
0.0
  0
LINE
  5
EF7C8889F
330
EF7C85532
100
AcDbEntity
  8
JISSEN
100
AcDbLine
 10
282.6983189897635
 20
117.863526654173
 30
0.0
 11
281.9052475456387
 21
119.0548946347136
 31
0.0
  0
LINE
  5
EF7C888A0
330
EF7C85532
100
AcDbEntity
  8
JISSEN
100
AcDbLine
 10
282.4265985935713
 20
116.7007540037038
 30
0.0
 11
272.9060315430195
 21
116.7007540037038
 31
0.0
  0
LINE
  5
EF7C888A1
330
EF7C85532
100
AcDbEntity
  8
JISSEN
100
AcDbLine
 10
277.1609544525015
 20
117.863526654173
 30
0.0
 11
276.8006592970625
 21
119.1368917372372
 31
0.0
  0
ARC
  5
EF7C888A3
330
EF7C85532
100
AcDbEntity
  8
JISSEN
100
AcDbCircle
 10
276.1198591237854
 20
118.2019721681093
 30
0.0
 40
0.1
100
AcDbArc
 50
15.79871507350659
 51
166.7098700100911
  0
LINE
  5
EF7C888A4
330
EF7C85532
100
AcDbEntity
  8
JISSEN
100
AcDbLine
 10
276.3195472473134
 20
117.863526654173
 30
0.0
 11
276.2160815337352
 21
118.2291980349174
 31
0.0
  0
LINE
  5
EF7C888A5
330
EF7C85532
100
AcDbEntity
  8
JISSEN
100
AcDbLine
 10
275.9371637020259
 20
117.863526654173
 30
0.0
 11
276.0225372750189
 21
118.2249603771015
 31
0.0
  0
LINE
  5
EF7C888A6
330
EF7C85532
100
AcDbEntity
  8
JISSEN
100
AcDbLine
 10
275.5371637020258
 20
117.863526654173
 30
0.0
 11
275.832938003481
 21
119.1157034481575
 31
0.0
  0
LINE
  5
EF7C888A7
330
EF7C85532
100
AcDbEntity
  8
JISSEN
100
AcDbLine
 10
286.1560315430196
 20
118.2007540037038
 30
0.0
 11
289.9935202065469
 21
118.2007540037038
 31
0.0
  0
LINE
  5
EF7C888A8
330
EF7C85532
100
AcDbEntity
  8
JISSEN
100
AcDbLine
 10
286.1560315430196
 20
118.2007540037038
 30
0.0
 11
284.6495224896825
 21
119.2556229992314
 31
0.0
  0
LINE
  5
EF7C888A9
330
EF7C85532
100
AcDbEntity
  8
JISSEN
100
AcDbLine
 10
282.4265985935713
 20
116.7007540037038
 30
0.0
 11
282.5512109563073
 21
116.8787189011607
 31
0.0
  0
LINE
  5
EF7C888AA
330
EF7C85532
100
AcDbEntity
  8
JISSEN
100
AcDbLine
 10
291.7323833653525
 20
116.8787189011607
 30
0.0
 11
291.9060315430196
 21
117.8635266541731
 31
0.0
  0
LINE
  5
EF7C888AB
330
EF7C85532
100
AcDbEntity
  8
JISSEN
100
AcDbLine
 10
291.9060315430196
 20
117.8635266541731
 30
0.0
 11
289.9935202065456
 21
118.2007540037041
 31
0.0
  0
LINE
  5
EF7C888AD
330
EF7C85532
100
AcDbEntity
  8
JISSEN
100
AcDbLine
 10
287.8134565011254
 20
131.1293864270782
 30
0.0
 11
277.9798610276517
 21
119.5007624031976
 31
0.0
  0
ARC
  5
EF7C888AE
330
EF7C85532
100
AcDbEntity
  8
JISSEN
100
AcDbCircle
 10
275.7020254522336
 20
129.0007540037038
 30
0.0
 40
1.5
100
AcDbArc
 50
54.43667142405059
 51
90.0
  0
LINE
  5
EF7C888AF
330
EF7C85532
100
AcDbEntity
  8
JISSEN
100
AcDbLine
 10
283.3272236007852
 20
119.5007624031976
 30
0.0
 11
281.0728188880382
 21
119.5007624031976
 31
0.0
  0
ARC
  5
EF7C888B0
330
EF7C85532
100
AcDbEntity
  8
JISSEN
100
AcDbCircle
 10
289.6560315430194
 20
124.5007540037038
 30
0.0
 40
12.49999999999999
100
AcDbArc
 50
163.7397952916878
 51
196.2602047083121
  0
LINE
  5
EF7C888B1
330
EF7C85532
100
AcDbEntity
  8
JISSEN
100
AcDbLine
 10
276.3195472473134
 20
119.5007624031976
 30
0.0
 11
280.2242907506142
 21
119.5007624031977
 31
0.0
  0
ARC
  5
EF7C888B2
330
EF7C85532
100
AcDbEntity
  8
JISSEN
100
AcDbCircle
 10
278.9060315430195
 20
119.0473190215647
 30
0.0
 40
1.0
100
AcDbArc
 50
139.7809012554442
 51
153.0351766874621
  0
ARC
  5
EF7C888B3
330
EF7C85532
100
AcDbEntity
  8
JISSEN
100
AcDbCircle
 10
277.1560315430196
 20
131.0344369406331
 30
0.0
 40
1.0
100
AcDbArc
 50
234.4366714240494
 51
302.1818839204035
  0
ARC
  5
EF7C888BD
330
EF7C85532
100
AcDbEntity
  8
JISSEN
100
AcDbCircle
 10
272.9052469875272
 20
130.4406868061364
 30
0.0
 40
1.6
100
AcDbArc
 50
17.33173146614729
 51
162.7537116970127
  0
LINE
  5
EF7C888BE
330
EF7C85532
100
AcDbEntity
  8
JISSEN
100
AcDbLine
 10
274.8491790764631
 20
130.5007540037038
 30
0.0
 11
274.4326005257139
 21
130.9173325544531
 31
0.0
  0
LINE
  5
EF7C888BF
330
EF7C85532
100
AcDbEntity
  8
JISSEN
100
AcDbLine
 10
275.7020254522336
 20
130.5007540037038
 30
0.0
 11
272.9060315430195
 21
130.5007540037038
 31
0.0
  0
ARC
  5
EF7C88933
330
EF7C85532
100
AcDbEntity
  8
JISSEN
100
AcDbCircle
 10
286.7937800746878
 20
169.6438713320802
 30
0.0
 40
6.498907295833106
100
AcDbArc
 50
219.1009608744955
 51
255.3209199478016
  0
LINE
  5
EF7C88934
330
EF7C85532
100
AcDbEntity
  8
JISSEN
100
AcDbLine
 10
281.1054930302523
 20
166.5007540037039
 30
0.0
 11
281.1054930302523
 21
162.5007540037038
 31
0.0
  0
ARC
  5
EF7C88935
330
EF7C85532
100
AcDbEntity
  8
JISSEN
100
AcDbCircle
 10
277.9060315430196
 20
150.5007540037038
 30
0.0
 40
17.0
100
AcDbArc
 50
0.0
 51
70.25007720435732
  0
LINE
  5
EF7C88937
330
EF7C85532
100
AcDbEntity
  8
JISSEN
100
AcDbLine
 10
276.9060315430195
 20
162.5007540037038
 30
0.0
 11
276.9060315430195
 21
166.5007540037039
 31
0.0
  0
ARC
  5
EF7C88938
330
EF7C85532
100
AcDbEntity
  8
JISSEN
100
AcDbCircle
 10
280.1172783265419
 20
149.8990962808592
 30
0.0
 40
10.80551655320168
100
AcDbArc
 50
3.191914576125952
 51
88.46871639638145
  0
ARC
  5
EF7C88939
330
EF7C85532
100
AcDbEntity
  8
JISSEN
100
AcDbCircle
 10
277.9060315430196
 20
150.5007540037038
 30
0.0
 40
15.0
100
AcDbArc
 50
0.0
 51
53.31701119964003
  0
ARC
  5
EF7C8893A
330
EF7C85532
100
AcDbEntity
  8
JISSEN
100
AcDbCircle
 10
277.9667264953437
 20
149.3468020662754
 30
0.0
 40
11.0
100
AcDbArc
 50
6.021677192633947
 51
75.15978516148108
  0
LINE
  5
EF7C8895C
330
EF7C85532
100
AcDbEntity
  8
JISSEN
100
AcDbLine
 10
280.4060315430195
 20
160.7007540037038
 30
0.0
 11
274.4060315430195
 21
160.7007540037038
 31
0.0
  0
LINE
  5
EF7C8895D
330
EF7C85532
100
AcDbEntity
  8
JISSEN
100
AcDbLine
 10
281.1054930302523
 20
162.5007540037038
 30
0.0
 11
274.4060315430195
 21
162.5007540037038
 31
0.0
  0
LINE
  5
EF7C8895F
330
EF7C85532
100
AcDbEntity
  8
JISSEN
100
AcDbLine
 10
274.4060315430195
 20
162.5007540037038
 30
0.0
 11
274.4060315430195
 21
160.7007540037038
 31
0.0
  0
LINE
  5
EF7C88964
330
EF7C85532
100
AcDbEntity
  8
JISSEN
100
AcDbLine
 10
280.4060315430195
 20
162.5007540037038
 30
0.0
 11
280.4060315430195
 21
160.7007540037038
 31
0.0
  0
LINE
  5
EF7C88965
330
EF7C85532
100
AcDbEntity
  8
JISSEN
100
AcDbLine
 10
280.1560315430194
 20
159.7224418401908
 30
0.0
 11
280.2368330466732
 21
159.7690926100763
 31
0.0
  0
ARC
  5
EF7C88967
330
EF7C85532
100
AcDbEntity
  8
JISSEN
100
AcDbCircle
 10
280.6560315430195
 20
159.4965625738217
 30
0.0
 40
0.5
100
AcDbArc
 50
75.15978516148187
 51
146.9712311280872
  0
ARC
  5
EF7C88968
330
EF7C85532
100
AcDbEntity
  8
JISSEN
100
AcDbCircle
 10
283.8799022659442
 20
158.5202844504185
 30
0.0
 40
5.0
100
AcDbArc
 50
53.31701119964003
 51
75.32091994780239
  0
LINE
  5
EF7C88969
330
EF7C85532
100
AcDbEntity
  8
JISSEN
100
AcDbLine
 10
283.2986214977296
 20
177.0577396729263
 30
0.0
 11
310.4746148209514
 21
177.0577396729262
 31
0.0
  0
LINE
  5
EF7C8896A
330
EF7C85532
100
AcDbEntity
  8
JISSEN
100
AcDbLine
 10
283.4548793062502
 20
172.0577396729261
 30
0.0
 11
310.4746148209507
 21
172.0577396729264
 31
0.0
  0
LWPOLYLINE
  5
EF7C8896B
330
EF7C85532
100
AcDbEntity
  8
JISSEN
100
AcDbPolyline
 90
        7
 70
     0
 43
0.0
 10
302.8882828112031
 20
172.0577396729234
 42
-0.1724294177368876
 10
288.4014007289091
 20
167.602997627196
 42
0.3050742458420749
 10
287.2586218813848
 20
166.9038700877301
 42
-0.2933139429534979
 10
285.9403497076367
 20
166.0577396729235
 10
285.6382828112031
 20
166.0577396729235
 42
-0.4142135623730951
 10
283.6382828112031
 20
168.0577396729234
 10
283.6382828112031
 20
169.0577396729235
  0
LWPOLYLINE
  5
EF7C8896C
330
EF7C85532
100
AcDbEntity
  8
JISSEN
100
AcDbPolyline
 90
        7
 70
     0
 43
0.0
 10
301.1368844466025
 20
172.0577396729234
 42
-0.1557399217223865
 10
288.4445632119049
 20
168.6020656929761
 42
0.3050742458420765
 10
286.3494686581101
 20
167.3203318706221
 42
-0.2933139429534918
 10
285.9403497076367
 20
167.0577396729234
 10
285.6382828112031
 20
167.0577396729234
 42
-0.4142135623730951
 10
284.6382828112031
 20
168.0577396729234
 10
284.6382828112031
 20
169.0577396729235
  0
LINE
  5
EF7C8896D
330
EF7C85532
100
AcDbEntity
  8
SAISEN
100
AcDbLine
 10
281.9845999662939
 20
181.9221855804295
 30
0.0
 11
282.4195258712795
 21
168.0052521131239
 31
0.0
  0
LINE
  5
EF7C8896E
330
EF7C85532
100
AcDbEntity
  8
JISSEN
100
AcDbLine
 10
283.5695458973453
 20
168.3885921218126
 30
0.0
 11
283.1840857709318
 21
180.7226997757916
 31
0.0
  0
LINE
  5
EF7C8896F
330
EF7C85532
100
AcDbEntity
  8
JISSEN
100
AcDbLine
 10
283.6505941895576
 20
166.5007540037039
 30
0.0
 11
275.9060315430196
 21
166.5007540037039
 31
0.0
  0
LINE
  5
EF7C88970
330
EF7C85532
100
AcDbEntity
  8
JISSEN
100
AcDbLine
 10
283.5695458973453
 20
168.3885921218126
 30
0.0
 11
272.9060315430195
 21
168.3885921218126
 31
0.0
  0
LINE
  5
EF7C88971
330
EF7C85532
100
AcDbEntity
  8
JISSEN
100
AcDbLine
 10
282.4060315430195
 20
168.0007540037038
 30
0.0
 11
272.9060315430195
 21
168.0007540037038
 31
0.0
  0
LINE
  5
EF7C88972
330
EF7C85532
100
AcDbEntity
  8
JISSEN
100
AcDbLine
 10
275.9060315430196
 20
168.0007540037038
 30
0.0
 11
275.9060315430196
 21
166.5007540037039
 31
0.0
  0
LINE
  5
EF7C88975
330
EF7C85532
100
AcDbEntity
  8
JISSEN
100
AcDbLine
 10
283.6382828112031
 20
169.0577396729235
 30
0.0
 11
284.6382828112031
 21
169.0577396729235
 31
0.0
  0
LINE
  5
EF7C88976
330
EF7C85532
100
AcDbEntity
  8
JISSEN
100
AcDbLine
 10
282.4060315430195
 20
166.5007540037039
 30
0.0
 11
282.4060315430195
 21
168.0007540037038
 31
0.0
  0
LINE
  5
EF7C88977
330
EF7C85532
100
AcDbEntity
  8
JISSEN
100
AcDbLine
 10
283.5695458973453
 20
168.3885921218126
 30
0.0
 11
282.4060315430195
 21
168.0007540037038
 31
0.0
  0
LINE
  5
EF7C88978
330
EF7C85532
100
AcDbEntity
  8
JISSEN
100
AcDbLine
 10
281.4060315430196
 20
182.5007540037038
 30
0.0
 11
283.1840857709318
 21
180.7226997757916
 31
0.0
  0
LINE
  5
EF7C88979
330
EF7C85532
100
AcDbEntity
  8
JISSEN
100
AcDbLine
 10
281.4060315430196
 20
182.5007540037038
 30
0.0
 11
272.9060315430195
 21
182.5007540037038
 31
0.0
  0
POLYLINE
  5
EF7C8897A
330
EF7C85532
100
AcDbEntity
  8
JISSEN
 62
     0
100
AcDb2dPolyline
 66
     1
 10
0.0
 20
0.0
 30
0.0
 70
     4
 75
     6
  0
VERTEX
  5
EF7C8897B
330
EF7C8897A
100
AcDbEntity
  8
JISSEN
 62
     0
100
AcDbVertex
100
AcDb2dVertex
 10
310.4746148209509
 20
177.0577396729264
 30
0.0
 70
    16
  0
VERTEX
  5
EF7C8897C
330
EF7C8897A
100
AcDbEntity
  8
JISSEN
 62
     0
100
AcDbVertex
100
AcDb2dVertex
 10
310.4746148209509
 20
177.0577396729264
 30
0.0
 70
     8
  0
VERTEX
  5
EF7C8897D
330
EF7C8897A
100
AcDbEntity
  8
JISSEN
 62
     0
100
AcDbVertex
100
AcDb2dVertex
 10
310.889539727755
 20
176.8552355076463
 30
0.0
 70
     8
  0
VERTEX
  5
EF7C8897E
330
EF7C8897A
100
AcDbEntity
  8
JISSEN
 62
     0
100
AcDbVertex
100
AcDb2dVertex
 10
311.1265165780786
 20
176.6775829242693
 30
0.0
 70
     8
  0
VERTEX
  5
EF7C8897F
330
EF7C8897A
100
AcDbEntity
  8
JISSEN
 62
     0
100
AcDbVertex
100
AcDb2dVertex
 10
311.2240294220136
 20
176.5222870104672
 30
0.0
 70
     8
  0
VERTEX
  5
EF7C88980
330
EF7C8897A
100
AcDbEntity
  8
JISSEN
 62
     0
100
AcDbVertex
100
AcDb2dVertex
 10
311.2205623096512
 20
176.3868528539121
 30
0.0
 70
     8
  0
VERTEX
  5
EF7C88981
330
EF7C8897A
100
AcDbEntity
  8
JISSEN
 62
     0
100
AcDbVertex
100
AcDb2dVertex
 10
311.1545992910836
 20
176.2687855422765
 30
0.0
 70
     8
  0
VERTEX
  5
EF7C88982
330
EF7C8897A
100
AcDbEntity
  8
JISSEN
 62
     0
100
AcDbVertex
100
AcDb2dVertex
 10
311.0646244164019
 20
176.1655901632321
 30
0.0
 70
     8
  0
VERTEX
  5
EF7C88983
330
EF7C8897A
100
AcDbEntity
  8
JISSEN
 62
     0
100
AcDbVertex
100
AcDb2dVertex
 10
310.9891217356979
 20
176.0747718044514
 30
0.0
 70
     8
  0
VERTEX
  5
EF7C88984
330
EF7C8897A
100
AcDbEntity
  8
JISSEN
 62
     0
100
AcDbVertex
100
AcDb2dVertex
 10
310.9665752990634
 20
175.9938355536062
 30
0.0
 70
     8
  0
VERTEX
  5
EF7C88985
330
EF7C8897A
100
AcDbEntity
  8
JISSEN
 62
     0
100
AcDbVertex
100
AcDb2dVertex
 10
311.0246854461046
 20
175.9203739968727
 30
0.0
 70
     8
  0
VERTEX
  5
EF7C88986
330
EF7C8897A
100
AcDbEntity
  8
JISSEN
 62
     0
100
AcDbVertex
100
AcDb2dVertex
 10
311.1480176744872
 20
175.8523297144438
 30
0.0
 70
     8
  0
VERTEX
  5
EF7C88987
330
EF7C8897A
100
AcDbEntity
  8
JISSEN
 62
     0
100
AcDbVertex
100
AcDb2dVertex
 10
311.3103537713917
 20
175.787732785016
 30
0.0
 70
     8
  0
VERTEX
  5
EF7C88988
330
EF7C8897A
100
AcDbEntity
  8
JISSEN
 62
     0
100
AcDbVertex
100
AcDb2dVertex
 10
311.485475523999
 20
175.7246132872858
 30
0.0
 70
     8
  0
VERTEX
  5
EF7C88989
330
EF7C8897A
100
AcDbEntity
  8
JISSEN
 62
     0
100
AcDbVertex
100
AcDb2dVertex
 10
311.6471647194893
 20
175.6610012999503
 30
0.0
 70
     8
  0
VERTEX
  5
EF7C8898A
330
EF7C8897A
100
AcDbEntity
  8
JISSEN
 62
     0
100
AcDbVertex
100
AcDb2dVertex
 10
311.7692031450431
 20
175.594926901706
 30
0.0
 70
     8
  0
VERTEX
  5
EF7C8898B
330
EF7C8897A
100
AcDbEntity
  8
JISSEN
 62
     0
100
AcDbVertex
100
AcDb2dVertex
 10
311.8253725878413
 20
175.5244201712495
 30
0.0
 70
     8
  0
VERTEX
  5
EF7C8898C
330
EF7C8897A
100
AcDbEntity
  8
JISSEN
 62
     0
100
AcDbVertex
100
AcDb2dVertex
 10
311.789454835064
 20
175.4475111872777
 30
0.0
 70
     8
  0
VERTEX
  5
EF7C8898D
330
EF7C8897A
100
AcDbEntity
  8
JISSEN
 62
     0
100
AcDbVertex
100
AcDb2dVertex
 10
311.6444178026757
 20
175.3627840693952
 30
0.0
 70
     8
  0
VERTEX
  5
EF7C8898E
330
EF7C8897A
100
AcDbEntity
  8
JISSEN
 62
     0
100
AcDbVertex
100
AcDb2dVertex
 10
311.4099739217743
 20
175.2710391008379
 30
0.0
 70
     8
  0
VERTEX
  5
EF7C8898F
330
EF7C8897A
100
AcDbEntity
  8
JISSEN
 62
     0
100
AcDbVertex
100
AcDb2dVertex
 10
311.1150217522421
 20
175.1736306057498
 30
0.0
 70
     8
  0
VERTEX
  5
EF7C88990
330
EF7C8897A
100
AcDbEntity
  8
JISSEN
 62
     0
100
AcDbVertex
100
AcDb2dVertex
 10
310.7884598539607
 20
175.0719129082747
 30
0.0
 70
     8
  0
VERTEX
  5
EF7C88991
330
EF7C8897A
100
AcDbEntity
  8
JISSEN
 62
     0
100
AcDbVertex
100
AcDb2dVertex
 10
310.4591867868122
 20
174.9672403325564
 30
0.0
 70
     8
  0
VERTEX
  5
EF7C88992
330
EF7C8897A
100
AcDbEntity
  8
JISSEN
 62
     0
100
AcDbVertex
100
AcDb2dVertex
 10
310.1561011106779
 20
174.8609672027391
 30
0.0
 70
     8
  0
VERTEX
  5
EF7C88993
330
EF7C8897A
100
AcDbEntity
  8
JISSEN
 62
     0
100
AcDbVertex
100
AcDb2dVertex
 10
309.9081013854405
 20
174.7544478429664
 30
0.0
 70
     8
  0
VERTEX
  5
EF7C88994
330
EF7C8897A
100
AcDbEntity
  8
JISSEN
 62
     0
100
AcDbVertex
100
AcDb2dVertex
 10
309.7440861709811
 20
174.6490365773822
 30
0.0
 70
     8
  0
VERTEX
  5
EF7C88995
330
EF7C8897A
100
AcDbEntity
  8
JISSEN
 62
     0
100
AcDbVertex
100
AcDb2dVertex
 10
309.6843481303987
 20
174.5457491485997
 30
0.0
 70
     8
  0
VERTEX
  5
EF7C88996
330
EF7C8897A
100
AcDbEntity
  8
JISSEN
 62
     0
100
AcDbVertex
100
AcDb2dVertex
 10
309.7147563396566
 20
174.4442469731084
 30
0.0
 70
     8
  0
VERTEX
  5
EF7C88997
330
EF7C8897A
100
AcDbEntity
  8
JISSEN
 62
     0
100
AcDbVertex
100
AcDb2dVertex
 10
309.8125739779356
 20
174.3438528858665
 30
0.0
 70
     8
  0
VERTEX
  5
EF7C88998
330
EF7C8897A
100
AcDbEntity
  8
JISSEN
 62
     0
100
AcDbVertex
100
AcDb2dVertex
 10
309.9550642244158
 20
174.243889721833
 30
0.0
 70
     8
  0
VERTEX
  5
EF7C88999
330
EF7C8897A
100
AcDbEntity
  8
JISSEN
 62
     0
100
AcDbVertex
100
AcDb2dVertex
 10
310.119490258278
 20
174.143680315966
 30
0.0
 70
     8
  0
VERTEX
  5
EF7C8899A
330
EF7C8897A
100
AcDbEntity
  8
JISSEN
 62
     0
100
AcDbVertex
100
AcDb2dVertex
 10
310.2831152587024
 20
174.0425475032245
 30
0.0
 70
     8
  0
VERTEX
  5
EF7C8899B
330
EF7C8897A
100
AcDbEntity
  8
JISSEN
 62
     0
100
AcDbVertex
100
AcDb2dVertex
 10
310.4232024048693
 20
173.9398141185668
 30
0.0
 70
     8
  0
VERTEX
  5
EF7C8899C
330
EF7C8897A
100
AcDbEntity
  8
JISSEN
 62
     0
100
AcDbVertex
100
AcDb2dVertex
 10
310.517014875959
 20
173.8348029969517
 30
0.0
 70
     8
  0
VERTEX
  5
EF7C8899D
330
EF7C8897A
100
AcDbEntity
  8
JISSEN
 62
     0
100
AcDbVertex
100
AcDb2dVertex
 10
310.5487067310233
 20
173.7271191249433
 30
0.0
 70
     8
  0
VERTEX
  5
EF7C8899E
330
EF7C8897A
100
AcDbEntity
  8
JISSEN
 62
     0
100
AcDbVertex
100
AcDb2dVertex
 10
310.5299955485987
 20
173.6174960955283
 30
0.0
 70
     8
  0
VERTEX
  5
EF7C8899F
330
EF7C8897A
100
AcDbEntity
  8
JISSEN
 62
     0
100
AcDbVertex
100
AcDb2dVertex
 10
310.4794897870932
 20
173.5069496532998
 30
0.0
 70
     8
  0
VERTEX
  5
EF7C889A0
330
EF7C8897A
100
AcDbEntity
  8
JISSEN
 62
     0
100
AcDbVertex
100
AcDb2dVertex
 10
310.4157979049144
 20
173.3964955428505
 30
0.0
 70
     8
  0
VERTEX
  5
EF7C889A1
330
EF7C8897A
100
AcDbEntity
  8
JISSEN
 62
     0
100
AcDbVertex
100
AcDb2dVertex
 10
310.3575283604701
 20
173.2871495087727
 30
0.0
 70
     8
  0
VERTEX
  5
EF7C889A2
330
EF7C8897A
100
AcDbEntity
  8
JISSEN
 62
     0
100
AcDbVertex
100
AcDb2dVertex
 10
310.3232896121681
 20
173.1799272956592
 30
0.0
 70
     8
  0
VERTEX
  5
EF7C889A3
330
EF7C8897A
100
AcDbEntity
  8
JISSEN
 62
     0
100
AcDbVertex
100
AcDb2dVertex
 10
310.3316901184163
 20
173.0758446481028
 30
0.0
 70
     8
  0
VERTEX
  5
EF7C889A4
330
EF7C8897A
100
AcDbEntity
  8
JISSEN
 62
     0
100
AcDbVertex
100
AcDb2dVertex
 10
310.4013383376222
 20
172.9759173106958
 30
0.0
 70
     8
  0
VERTEX
  5
EF7C889A5
330
EF7C8897A
100
AcDbEntity
  8
JISSEN
 62
     0
100
AcDbVertex
100
AcDb2dVertex
 10
310.5412297556437
 20
172.8803988415957
 30
0.0
 70
     8
  0
VERTEX
  5
EF7C889A6
330
EF7C8897A
100
AcDbEntity
  8
JISSEN
 62
     0
100
AcDbVertex
100
AcDb2dVertex
 10
310.7219079681371
 20
172.7864940532169
 30
0.0
 70
     8
  0
VERTEX
  5
EF7C889A7
330
EF7C8897A
100
AcDbEntity
  8
JISSEN
 62
     0
100
AcDbVertex
100
AcDb2dVertex
 10
310.9043035982086
 20
172.6906455715389
 30
0.0
 70
     8
  0
VERTEX
  5
EF7C889A8
330
EF7C8897A
100
AcDbEntity
  8
JISSEN
 62
     0
100
AcDbVertex
100
AcDb2dVertex
 10
311.0493472689642
 20
172.5892960225406
 30
0.0
 70
     8
  0
VERTEX
  5
EF7C889A9
330
EF7C8897A
100
AcDbEntity
  8
JISSEN
 62
     0
100
AcDbVertex
100
AcDb2dVertex
 10
311.11796960351
 20
172.4788880322009
 30
0.0
 70
     8
  0
VERTEX
  5
EF7C889AA
330
EF7C8897A
100
AcDbEntity
  8
JISSEN
 62
     0
100
AcDbVertex
100
AcDb2dVertex
 10
311.0711012249524
 20
172.3558642264994
 30
0.0
 70
     8
  0
VERTEX
  5
EF7C889AB
330
EF7C8897A
100
AcDbEntity
  8
JISSEN
 62
     0
100
AcDbVertex
100
AcDb2dVertex
 10
310.8696727563973
 20
172.2166672314149
 30
0.0
 70
     8
  0
VERTEX
  5
EF7C889AC
330
EF7C8897A
100
AcDbEntity
  8
JISSEN
 62
     0
100
AcDbVertex
100
AcDb2dVertex
 10
310.4746148209509
 20
172.0577396729265
 30
0.0
 70
     8
  0
VERTEX
  5
EF7C889AD
330
EF7C8897A
100
AcDbEntity
  8
JISSEN
 62
     0
100
AcDbVertex
100
AcDb2dVertex
 10
311.852553358928
 20
176.4823754231289
 30
0.0
 70
    16
  0
VERTEX
  5
EF7C889AE
330
EF7C8897A
100
AcDbEntity
  8
JISSEN
 62
     0
100
AcDbVertex
100
AcDb2dVertex
 10
309.9912121613468
 20
175.9150388004574
 30
0.0
 70
    16
  0
VERTEX
  5
EF7C889AF
330
EF7C8897A
100
AcDbEntity
  8
JISSEN
 62
     0
100
AcDbVertex
100
AcDb2dVertex
 10
313.0513791912747
 20
175.5368143853435
 30
0.0
 70
    16
  0
VERTEX
  5
EF7C889B0
330
EF7C8897A
100
AcDbEntity
  8
JISSEN
 62
     0
100
AcDbVertex
100
AcDb2dVertex
 10
308.5400000839389
 20
174.6227707818358
 30
0.0
 70
    16
  0
VERTEX
  5
EF7C889B1
330
EF7C8897A
100
AcDbEntity
  8
JISSEN
 62
     0
100
AcDbVertex
100
AcDb2dVertex
 10
311.2531374988569
 20
173.8663219516075
 30
0.0
 70
    16
  0
VERTEX
  5
EF7C889B2
330
EF7C8897A
100
AcDbEntity
  8
JISSEN
 62
     0
100
AcDbVertex
100
AcDb2dVertex
 10
309.5495391763878
 20
172.9207593934444
 30
0.0
 70
    16
  0
VERTEX
  5
EF7C889B3
330
EF7C8897A
100
AcDbEntity
  8
JISSEN
 62
     0
100
AcDbVertex
100
AcDb2dVertex
 10
311.8210036063463
 20
172.5110160236746
 30
0.0
 70
    16
  0
VERTEX
  5
EF7C889B4
330
EF7C8897A
100
AcDbEntity
  8
JISSEN
 62
     0
100
AcDbVertex
100
AcDb2dVertex
 10
310.4746148209509
 20
172.0577396729264
 30
0.0
 70
    16
  0
SEQEND
  5
EF7C889B5
330
EF7C8897A
100
AcDbEntity
  8
JISSEN
 62
     0
  0
LINE
  5
EF7C889B6
330
EF7C85532
100
AcDbEntity
  8
JISSEN
100
AcDbLine
 10
292.9746148209509
 20
177.0577396729264
 30
0.0
 11
292.9746148209509
 21
172.0577396729265
 31
0.0
  0
LWPOLYLINE
  5
EF7C889D1
330
EF7C85532
100
AcDbEntity
  8
NITEN
100
AcDbPolyline
 90
        2
 70
     0
 43
0.0
 10
289.9060315430197
 20
233.4490205605735
 42
0.5882352941176294
 10
272.9060315430195
 20
233.4490205605737
 42
0.5882352941176294
  0
LINE
  5
EF7C88A5D
330
EF7C85532
100
AcDbEntity
  8
JISSEN
100
AcDbLine
 10
278.9060315430195
 20
157.7007540037038
 30
0.0
 11
280.1560315430196
 21
158.4224418401909
 31
0.0
  0
LINE
  5
EF7C88A5F
330
EF7C85532
100
AcDbEntity
  8
JISSEN
100
AcDbLine
 10
280.1560315430196
 20
158.4224418401909
 30
0.0
 11
280.1560315430194
 21
159.7224418401909
 31
0.0
  0
ARC
  5
EF7C88A60
330
EF7C85532
100
AcDbEntity
  8
JISSEN
100
AcDbCircle
 10
265.1560315430196
 20
159.4965625738217
 30
0.0
 40
0.5
100
AcDbArc
 50
33.02876887191276
 51
104.8402148385181
  0
LINE
  5
EF7C88A61
330
EF7C85532
100
AcDbEntity
  8
JISSEN
100
AcDbLine
 10
266.9060315430196
 20
157.7007540037038
 30
0.0
 11
265.6560315430195
 21
158.4224418401909
 31
0.0
  0
LINE
  5
EF7C88A62
330
EF7C85532
100
AcDbEntity
  8
JISSEN
100
AcDbLine
 10
265.6560315430197
 20
159.7224418401908
 30
0.0
 11
265.5752300393659
 21
159.7690926100763
 31
0.0
  0
LINE
  5
EF7C88A63
330
EF7C85532
100
AcDbEntity
  8
JISSEN
100
AcDbLine
 10
265.6560315430195
 20
158.4224418401909
 30
0.0
 11
265.6560315430197
 21
159.7224418401909
 31
0.0
  0
LINE
  5
EF7C88A65
330
EF7C85532
100
AcDbEntity
  8
JISSEN
100
AcDbLine
 10
278.9060315430195
 20
157.7007540037038
 30
0.0
 11
266.9060315430196
 21
157.7007540037038
 31
0.0
  0
LINE
  5
EF7C88A66
330
EF7C85532
100
AcDbEntity
  8
JISSEN
100
AcDbLine
 10
280.1560315430194
 20
159.7224418401908
 30
0.0
 11
265.6560315430197
 21
159.7224418401908
 31
0.0
  0
ARC
  5
EF7C88A67
330
EF7C85532
100
AcDbEntity
  8
JISSEN
100
AcDbCircle
 10
264.9060315430196
 20
50.5007540037039
 30
0.0
 40
30.0
100
AcDbArc
 50
319.7809012554443
 51
0.0
  0
ARC
  5
EF7C88A68
330
EF7C85532
100
AcDbEntity
  8
JISSEN
100
AcDbCircle
 10
264.9060315430196
 20
50.5007540037039
 30
0.0
 40
24.0
100
AcDbArc
 50
302.1818839204035
 51
0.0
  0
ARC
  5
EF7C88A69
330
EF7C85532
100
AcDbEntity
  8
JISSEN
100
AcDbCircle
 10
264.9060315430196
 20
50.5007540037039
 30
0.0
 40
28.0
100
AcDbArc
 50
337.9756871629579
 51
0.0
  0
ARC
  5
EF7C88A6A
330
EF7C85532
100
AcDbEntity
  8
JISSEN
100
AcDbCircle
 10
264.9060315430196
 20
50.5007540037039
 30
0.0
 40
26.0
100
AcDbArc
 50
336.1811586065433
 51
0.0
  0
ARC
  5
EF7C88A6B
330
EF7C85532
100
AcDbEntity
  8
JISSEN
100
AcDbCircle
 10
280.9060315430195
 20
50.5007540037039
 30
0.0
 40
24.0
100
AcDbArc
 50
180.0
 51
237.8181160795964
  0
ARC
  5
EF7C88A6C
330
EF7C85532
100
AcDbEntity
  8
JISSEN
100
AcDbCircle
 10
280.9060315430195
 20
50.5007540037039
 30
0.0
 40
30.0
100
AcDbArc
 50
180.0
 51
220.2190987445557
  0
ARC
  5
EF7C88A6D
330
EF7C85532
100
AcDbEntity
  8
JISSEN
100
AcDbCircle
 10
280.9060315430195
 20
50.5007540037039
 30
0.0
 40
28.0
100
AcDbArc
 50
180.0
 51
202.024312837042
  0
ARC
  5
EF7C88A6E
330
EF7C85532
100
AcDbEntity
  8
JISSEN
100
AcDbCircle
 10
280.9060315430195
 20
50.5007540037039
 30
0.0
 40
26.0
100
AcDbArc
 50
180.0
 51
203.8188413934565
  0
LINE
  5
EF7C88A6F
330
EF7C85532
100
AcDbEntity
  8
JISSEN
100
AcDbLine
 10
253.9060315430195
 20
17.86352665417292
 30
0.0
 11
291.9060315430196
 21
17.86352665417315
 31
0.0
  0
LINE
  5
EF7C88A70
330
EF7C85532
100
AcDbEntity
  8
JISSEN
100
AcDbLine
 10
291.7323833653525
 20
16.87871890116072
 30
0.0
 11
254.0796797206864
 21
16.87871890116072
 31
0.0
  0
LINE
  5
EF7C88A71
330
EF7C85532
100
AcDbEntity
  8
JISSEN
100
AcDbLine
 10
291.9060315430196
 20
17.86352665417315
 30
0.0
 11
289.9935202065456
 21
18.20075400370411
 31
0.0
  0
LINE
  5
EF7C88A72
330
EF7C85532
100
AcDbEntity
  8
JISSEN
100
AcDbLine
 10
260.691199311043
 20
17.86352665417298
 30
0.0
 11
262.4848394852538
 21
19.50076240319772
 31
0.0
  0
ARC
  5
EF7C88A73
330
EF7C85532
100
AcDbEntity
  8
JISSEN
100
AcDbCircle
 10
261.9400234558303
 20
18.14526240319766
 30
0.0
 40
1.355499999999999
100
AcDbArc
 50
70.26879749382101
 51
124.9999999999968
  0
LINE
  5
EF7C88A74
330
EF7C85532
100
AcDbEntity
  8
JISSEN
100
AcDbLine
 10
264.4551379819038
 20
17.86352665417304
 30
0.0
 11
265.5877723354249
 21
19.50076240319772
 31
0.0
  0
ARC
  5
EF7C88A75
330
EF7C85532
100
AcDbEntity
  8
JISSEN
100
AcDbCircle
 10
264.7392441980009
 20
18.50076240319721
 30
0.0
 40
1.0
100
AcDbArc
 50
47.91894748809069
 51
146.3490341753988
  0
ARC
  5
EF7C88A76
330
EF7C85532
100
AcDbEntity
  8
JISSEN
100
AcDbCircle
 10
269.4925158387255
 20
19.00076240319675
 30
0.0
 40
0.5
100
AcDbArc
 50
13.29012998990297
 51
164.2012849264975
  0
LINE
  5
EF7C88A77
330
EF7C85532
100
AcDbEntity
  8
JISSEN
100
AcDbLine
 10
270.4834867577872
 20
17.86352665417304
 30
0.0
 11
270.6516268302724
 21
19.50076240319772
 31
0.0
  0
LINE
  5
EF7C88A78
330
EF7C85532
100
AcDbEntity
  8
JISSEN
100
AcDbLine
 10
275.1604362557667
 20
19.50076240319772
 30
0.0
 11
275.3285763282522
 21
17.86352665417304
 31
0.0
  0
ARC
  5
EF7C88A79
330
EF7C85532
100
AcDbEntity
  8
JISSEN
100
AcDbCircle
 10
276.3195472473134
 20
19.00076240319675
 30
0.0
 40
0.5
100
AcDbArc
 50
15.79871507350246
 51
166.709870010097
  0
ARC
  5
EF7C88A7A
330
EF7C85532
100
AcDbEntity
  8
JISSEN
100
AcDbCircle
 10
283.8720396302088
 20
18.14526240319766
 30
0.0
 40
1.355499999999999
100
AcDbArc
 50
55.00000000000309
 51
109.7312025061702
  0
LINE
  5
EF7C88A7B
330
EF7C85532
100
AcDbEntity
  8
JISSEN
100
AcDbLine
 10
285.1208637749961
 20
17.86352665417298
 30
0.0
 11
283.3272236007852
 21
19.50076240319766
 31
0.0
  0
LINE
  5
EF7C88A7C
330
EF7C85532
100
AcDbEntity
  8
JISSEN
100
AcDbLine
 10
281.3569251041353
 20
17.86352665417304
 30
0.0
 11
280.2242907506142
 21
19.50076240319766
 31
0.0
  0
ARC
  5
EF7C88A7D
330
EF7C85532
100
AcDbEntity
  8
JISSEN
100
AcDbCircle
 10
281.0728188880382
 20
18.50076240319721
 30
0.0
 40
1.0
100
AcDbArc
 50
33.65096582460109
 51
132.0810525119092
  0
LINE
  5
EF7C88A7E
330
EF7C85532
100
AcDbEntity
  8
JISSEN
100
AcDbLine
 10
270.2748993840133
 20
17.86352665417304
 30
0.0
 11
269.9791250825581
 21
19.11570344815756
 31
0.0
  0
LINE
  5
EF7C88A7F
330
EF7C85532
100
AcDbEntity
  8
JISSEN
100
AcDbLine
 10
263.3854644924678
 20
16.70075400370389
 30
0.0
 11
272.9060315430195
 21
16.70075400370389
 31
0.0
  0
LINE
  5
EF7C88A80
330
EF7C85532
100
AcDbEntity
  8
JISSEN
100
AcDbLine
 10
255.8185428794935
 20
18.20075400370389
 30
0.0
 11
259.6560315430195
 21
18.20075400370389
 31
0.0
  0
LINE
  5
EF7C88A81
330
EF7C85532
100
AcDbEntity
  8
JISSEN
100
AcDbLine
 10
253.9060315430195
 20
17.86352665417292
 30
0.0
 11
254.9060315430191
 21
18.03985363488119
 31
0.0
  0
LINE
  5
EF7C88A82
330
EF7C85532
100
AcDbEntity
  8
JISSEN
100
AcDbLine
 10
254.0796797206864
 20
16.87871890116049
 30
0.0
 11
253.9060315430195
 21
17.86352665417292
 31
0.0
  0
LINE
  5
EF7C88A83
330
EF7C85532
100
AcDbEntity
  8
JISSEN
100
AcDbLine
 10
254.9060315430191
 20
18.03985363488119
 30
0.0
 11
255.8185428794933
 21
18.20075400370389
 31
0.0
  0
LINE
  5
EF7C88A84
330
EF7C85532
100
AcDbEntity
  8
JISSEN
100
AcDbLine
 10
263.1137440962755
 20
17.86352665417304
 30
0.0
 11
263.9068155404004
 21
19.05489463471367
 31
0.0
  0
LINE
  5
EF7C88A85
330
EF7C85532
100
AcDbEntity
  8
JISSEN
100
AcDbLine
 10
263.3854644924678
 20
16.70075400370389
 30
0.0
 11
263.2608521297318
 21
16.87871890116072
 31
0.0
  0
LINE
  5
EF7C88A86
330
EF7C85532
100
AcDbEntity
  8
JISSEN
100
AcDbLine
 10
259.6560315430195
 20
18.20075400370389
 30
0.0
 11
261.1625405963565
 21
19.2556229992315
 31
0.0
  0
LINE
  5
EF7C88A87
330
EF7C85532
100
AcDbEntity
  8
JISSEN
100
AcDbLine
 10
269.4925158387255
 20
17.86352665417304
 30
0.0
 11
269.5959815523039
 21
18.22919803491744
 31
0.0
  0
LINE
  5
EF7C88A88
330
EF7C85532
100
AcDbEntity
  8
JISSEN
100
AcDbLine
 10
269.8748993840132
 20
17.86352665417304
 30
0.0
 11
269.7895258110202
 21
18.22496037710154
 31
0.0
  0
ARC
  5
EF7C88A89
330
EF7C85532
100
AcDbEntity
  8
JISSEN
100
AcDbCircle
 10
269.6922039622536
 20
18.20197216810932
 30
0.0
 40
0.1
100
AcDbArc
 50
13.29012998990889
 51
164.2012849264934
  0
LINE
  5
EF7C88A8A
330
EF7C85532
100
AcDbEntity
  8
JISSEN
100
AcDbLine
 10
268.6511086335376
 20
17.86352665417304
 30
0.0
 11
269.0114037889766
 21
19.1368917372372
 31
0.0
  0
LINE
  5
EF7C88A8B
330
EF7C85532
100
AcDbEntity
  8
JISSEN
100
AcDbLine
 10
282.4265985935713
 20
16.70075400370389
 30
0.0
 11
272.9060315430195
 21
16.70075400370389
 31
0.0
  0
LINE
  5
EF7C88A8C
330
EF7C85532
100
AcDbEntity
  8
JISSEN
100
AcDbLine
 10
275.5371637020258
 20
17.86352665417304
 30
0.0
 11
275.832938003481
 21
19.11570344815756
 31
0.0
  0
LINE
  5
EF7C88A8D
330
EF7C85532
100
AcDbEntity
  8
JISSEN
100
AcDbLine
 10
275.9371637020259
 20
17.86352665417304
 30
0.0
 11
276.0225372750189
 21
18.22496037710154
 31
0.0
  0
LINE
  5
EF7C88A8E
330
EF7C85532
100
AcDbEntity
  8
JISSEN
100
AcDbLine
 10
276.3195472473134
 20
17.86352665417304
 30
0.0
 11
276.2160815337352
 21
18.22919803491744
 31
0.0
  0
ARC
  5
EF7C88A8F
330
EF7C85532
100
AcDbEntity
  8
JISSEN
100
AcDbCircle
 10
276.1198591237854
 20
18.20197216810932
 30
0.0
 40
0.1
100
AcDbArc
 50
15.79871507350659
 51
166.7098700100911
  0
LINE
  5
EF7C88A90
330
EF7C85532
100
AcDbEntity
  8
JISSEN
100
AcDbLine
 10
277.1609544525015
 20
17.86352665417304
 30
0.0
 11
276.8006592970625
 21
19.1368917372372
 31
0.0
  0
LINE
  5
EF7C88A91
330
EF7C85532
100
AcDbEntity
  8
JISSEN
100
AcDbLine
 10
286.1560315430196
 20
18.20075400370389
 30
0.0
 11
284.6495224896825
 21
19.2556229992315
 31
0.0
  0
LINE
  5
EF7C88A92
330
EF7C85532
100
AcDbEntity
  8
JISSEN
100
AcDbLine
 10
282.4265985935713
 20
16.70075400370389
 30
0.0
 11
282.5512109563073
 21
16.87871890116072
 31
0.0
  0
LINE
  5
EF7C88A93
330
EF7C85532
100
AcDbEntity
  8
JISSEN
100
AcDbLine
 10
282.6983189897635
 20
17.86352665417304
 30
0.0
 11
281.9052475456387
 21
19.05489463471361
 31
0.0
  0
LINE
  5
EF7C88A94
330
EF7C85532
100
AcDbEntity
  8
JISSEN
100
AcDbLine
 10
286.1560315430196
 20
18.20075400370389
 30
0.0
 11
289.9935202065469
 21
18.20075400370389
 31
0.0
  0
ARC
  5
EF7C88A95
330
EF7C85532
100
AcDbEntity
  8
JISSEN
100
AcDbCircle
 10
270.1100376338055
 20
29.0007540037039
 30
0.0
 40
1.5
100
AcDbArc
 50
90.0
 51
125.5633285759494
  0
LINE
  5
EF7C88A96
330
EF7C85532
100
AcDbEntity
  8
JISSEN
100
AcDbLine
 10
257.9986065849136
 20
31.12938642707821
 30
0.0
 11
267.8322020583874
 21
19.50076240319772
 31
0.0
  0
ARC
  5
EF7C88A97
330
EF7C85532
100
AcDbEntity
  8
JISSEN
100
AcDbCircle
 10
256.1560315430195
 20
24.5007540037039
 30
0.0
 40
12.49999999999999
100
AcDbArc
 50
343.7397952916878
 51
16.26020470831211
  0
LINE
  5
EF7C88A98
330
EF7C85532
100
AcDbEntity
  8
JISSEN
100
AcDbLine
 10
262.4848394852538
 20
19.50076240319772
 30
0.0
 11
264.7392441980009
 21
19.50076240319772
 31
0.0
  0
ARC
  5
EF7C88A99
330
EF7C85532
100
AcDbEntity
  8
JISSEN
100
AcDbCircle
 10
266.9060315430196
 20
19.04731902156471
 30
0.0
 40
1.0
100
AcDbArc
 50
26.96482331253057
 51
40.21909874455571
  0
LINE
  5
EF7C88A9A
330
EF7C85532
100
AcDbEntity
  8
JISSEN
100
AcDbLine
 10
269.4925158387255
 20
19.50076240319772
 30
0.0
 11
265.5877723354249
 21
19.50076240319772
 31
0.0
  0
ARC
  5
EF7C88A9B
330
EF7C85532
100
AcDbEntity
  8
JISSEN
100
AcDbCircle
 10
268.6560315430195
 20
31.03443694063317
 30
0.0
 40
1.0
100
AcDbArc
 50
237.8181160795964
 51
305.5633285759505
  0
ARC
  5
EF7C88A9C
330
EF7C85532
100
AcDbEntity
  8
JISSEN
100
AcDbCircle
 10
275.7020254522336
 20
29.0007540037039
 30
0.0
 40
1.5
100
AcDbArc
 50
54.43667142405059
 51
90.0
  0
LINE
  5
EF7C88A9D
330
EF7C85532
100
AcDbEntity
  8
JISSEN
100
AcDbLine
 10
287.8134565011254
 20
31.12938642707821
 30
0.0
 11
277.9798610276517
 21
19.50076240319766
 31
0.0
  0
ARC
  5
EF7C88A9E
330
EF7C85532
100
AcDbEntity
  8
JISSEN
100
AcDbCircle
 10
289.6560315430194
 20
24.5007540037039
 30
0.0
 40
12.49999999999999
100
AcDbArc
 50
163.7397952916878
 51
196.2602047083121
  0
LINE
  5
EF7C88A9F
330
EF7C85532
100
AcDbEntity
  8
JISSEN
100
AcDbLine
 10
270.6516268302724
 20
19.50076240319778
 30
0.0
 11
275.1604362557667
 21
19.50076240319772
 31
0.0
  0
ARC
  5
EF7C88AA0
330
EF7C85532
100
AcDbEntity
  8
JISSEN
100
AcDbCircle
 10
278.9060315430195
 20
19.04731902156471
 30
0.0
 40
1.0
100
AcDbArc
 50
139.7809012554442
 51
153.0351766874621
  0
LINE
  5
EF7C88AA1
330
EF7C85532
100
AcDbEntity
  8
JISSEN
100
AcDbLine
 10
276.3195472473134
 20
19.50076240319766
 30
0.0
 11
280.2242907506142
 21
19.50076240319772
 31
0.0
  0
ARC
  5
EF7C88AA2
330
EF7C85532
100
AcDbEntity
  8
JISSEN
100
AcDbCircle
 10
277.1560315430196
 20
31.03443694063317
 30
0.0
 40
1.0
100
AcDbArc
 50
234.4366714240494
 51
302.1818839204035
  0
LINE
  5
EF7C88AA3
330
EF7C85532
100
AcDbEntity
  8
JISSEN
100
AcDbLine
 10
283.3272236007852
 20
19.50076240319766
 30
0.0
 11
281.0728188880382
 21
19.50076240319766
 31
0.0
  0
LINE
  5
EF7C88AA4
330
EF7C85532
100
AcDbEntity
  8
JISSEN
100
AcDbLine
 10
275.7020254522336
 20
30.5007540037039
 30
0.0
 11
272.9060315430195
 21
30.5007540037039
 31
0.0
  0
LINE
  5
EF7C88AA5
330
EF7C85532
100
AcDbEntity
  8
JISSEN
100
AcDbLine
 10
270.962884009576
 20
30.5007540037039
 30
0.0
 11
271.3771843430277
 21
30.91505433715541
 31
0.0
  0
LINE
  5
EF7C88AA6
330
EF7C85532
100
AcDbEntity
  8
JISSEN
100
AcDbLine
 10
274.8491790764631
 20
30.5007540037039
 30
0.0
 11
274.4326005257139
 21
30.91733255445312
 31
0.0
  0
ARC
  5
EF7C88AA7
330
EF7C85532
100
AcDbEntity
  8
JISSEN
100
AcDbCircle
 10
272.9052469875272
 20
30.44068680613646
 30
0.0
 40
1.6
100
AcDbArc
 50
17.33173146614729
 51
162.7537116970127
  0
LINE
  5
EF7C88AA8
330
EF7C85532
100
AcDbEntity
  8
JISSEN
100
AcDbLine
 10
270.1100376338055
 20
30.5007540037039
 30
0.0
 11
272.9060315430195
 21
30.5007540037039
 31
0.0
  0
LINE
  5
EF7C88AA9
330
EF7C85532
100
AcDbEntity
  8
JISSEN
100
AcDbLine
 10
291.7323833653525
 20
16.87871890116072
 30
0.0
 11
291.9060315430196
 21
17.86352665417315
 31
0.0
  0
LWPOLYLINE
  5
EF7C88AAB
330
EF7C85532
100
AcDbEntity
  8
JISSEN
100
AcDbPolyline
 90
        5
 70
     0
 43
0.0
 10
242.888282811203
 20
72.05773967292351
 42
0.1724294177368879
 10
257.375164893497
 20
67.60299762719604
 42
-0.3050742458420749
 10
258.5179437410214
 20
66.90387008773019
 42
0.2933139429534979
 10
259.8362159147694
 20
66.05773967292352
 10
260.1382828112031
 20
66.05773967292352
  0
LINE
  5
EF7C88AAC
330
EF7C85532
100
AcDbEntity
  8
JISSEN
100
AcDbLine
 10
235.4746148209513
 20
72.05773967292647
 30
0.0
 11
310.4746148209508
 21
72.0577396729264
 31
0.0
  0
ARC
  5
EF7C88AAE
330
EF7C85532
100
AcDbEntity
  8
JISSEN
100
AcDbCircle
 10
267.9060315430195
 20
50.5007540037039
 30
0.0
 40
17.0
100
AcDbArc
 50
113.7776797785166
 51
180.0
  0
LWPOLYLINE
  5
EF7C88AEE
330
EF7C85532
100
AcDbEntity
  8
JISSEN
100
AcDbPolyline
 90
        5
 70
     0
 43
0.0
 10
302.8882828112031
 20
72.05773967292351
 42
-0.1724294177368879
 10
288.4014007289091
 20
67.60299762719604
 42
0.3050742458420749
 10
287.2586218813848
 20
66.90387008773019
 42
-0.2933139429534979
 10
285.9403497076367
 20
66.05773967292352
 10
285.6382828112031
 20
66.05773967292352
  0
ARC
  5
EF7C88AF1
330
EF7C85532
100
AcDbEntity
  8
JISSEN
100
AcDbCircle
 10
277.9060315430196
 20
50.5007540037039
 30
0.0
 40
15.0
100
AcDbArc
 50
0.0
 51
53.31701119964003
  0
ARC
  5
EF7C88AF2
330
EF7C85532
100
AcDbEntity
  8
JISSEN
100
AcDbCircle
 10
280.1172783265419
 20
49.89909628085924
 30
0.0
 40
10.80551655320168
100
AcDbArc
 50
3.191914576125952
 51
88.46871639638145
  0
ARC
  5
EF7C88AF3
330
EF7C85532
100
AcDbEntity
  8
JISSEN
100
AcDbCircle
 10
277.9060315430196
 20
50.5007540037039
 30
0.0
 40
17.0
100
AcDbArc
 50
0.0
 51
66.22232022148328
  0
ARC
  5
EF7C88AF4
330
EF7C85532
100
AcDbEntity
  8
JISSEN
100
AcDbCircle
 10
259.0182830113513
 20
69.64387133208022
 30
0.0
 40
6.498907295833106
100
AcDbArc
 50
284.6790800521976
 51
320.8990391255044
  0
LINE
  5
EF7C88AF5
330
EF7C85532
100
AcDbEntity
  8
JISSEN
100
AcDbLine
 10
268.9060315430196
 20
62.5007540037039
 30
0.0
 11
268.9060315430196
 21
66.05773967292646
 31
0.0
  0
LINE
  5
EF7C88AF6
330
EF7C85532
100
AcDbEntity
  8
JISSEN
100
AcDbLine
 10
264.7065700557868
 20
66.05773967292647
 30
0.0
 11
264.7065700557868
 21
62.5007540037039
 31
0.0
  0
TEXT
  5
EF7C88AF7
330
EF7C85532
100
AcDbEntity
  8
JISSEN
100
AcDbText
 10
268.4238159196846
 20
65.95942253733217
 30
0.0
 40
3.0
  1
D
 50
180.0
  7
K
 72
     4
 11
266.8523873482561
 21
64.45942253733218
 31
0.0
100
AcDbText
  0
LINE
  5
EF7C88AF8
330
EF7C85532
100
AcDbEntity
  8
JISSEN
100
AcDbLine
 10
276.9060315430195
 20
62.5007540037039
 30
0.0
 11
276.9060315430195
 21
66.05773967292646
 31
0.0
  0
LINE
  5
EF7C88AF9
330
EF7C85532
100
AcDbEntity
  8
JISSEN
100
AcDbLine
 10
281.1054930302523
 20
66.05773967292646
 30
0.0
 11
281.1054930302523
 21
62.5007540037039
 31
0.0
  0
ARC
  5
EF7C88AFA
330
EF7C85532
100
AcDbEntity
  8
JISSEN
100
AcDbCircle
 10
286.7937800746878
 20
69.64387133208022
 30
0.0
 40
6.498907295833106
100
AcDbArc
 50
219.1009608744955
 51
255.3209199478016
  0
LINE
  5
EF7C88AFB
330
EF7C85532
100
AcDbEntity
  8
JISSEN
100
AcDbLine
 10
280.1560315430194
 20
59.72244184019088
 30
0.0
 11
265.6560315430197
 21
59.72244184019088
 31
0.0
  0
LINE
  5
EF7C88AFC
330
EF7C85532
100
AcDbEntity
  8
JISSEN
100
AcDbLine
 10
278.9060315430195
 20
57.70075400370389
 30
0.0
 11
266.9060315430196
 21
57.70075400370389
 31
0.0
  0
LINE
  5
EF7C88AFD
330
EF7C85532
100
AcDbEntity
  8
JISSEN
100
AcDbLine
 10
264.7065700557868
 20
62.5007540037039
 30
0.0
 11
271.4060315430196
 21
62.5007540037039
 31
0.0
  0
LINE
  5
EF7C88AFE
330
EF7C85532
100
AcDbEntity
  8
JISSEN
100
AcDbLine
 10
265.4060315430196
 20
60.70075400370384
 30
0.0
 11
271.4060315430196
 21
60.70075400370384
 31
0.0
  0
ARC
  5
EF7C88AFF
330
EF7C85532
100
AcDbEntity
  8
JISSEN
100
AcDbCircle
 10
267.9060315430195
 20
50.5007540037039
 30
0.0
 40
15.0
100
AcDbArc
 50
126.6829888003599
 51
180.0
  0
ARC
  5
EF7C88B00
330
EF7C85532
100
AcDbEntity
  8
JISSEN
100
AcDbCircle
 10
265.6947847594972
 20
49.89909628085924
 30
0.0
 40
10.80551655320168
100
AcDbArc
 50
91.53128360361854
 51
176.8080854238748
  0
ARC
  5
EF7C88B01
330
EF7C85532
100
AcDbEntity
  8
JISSEN
100
AcDbCircle
 10
267.8453365906954
 20
49.34680206627549
 30
0.0
 40
11.0
100
AcDbArc
 50
104.8402148385189
 51
173.978322807366
  0
ARC
  5
EF7C88B02
330
EF7C85532
100
AcDbEntity
  8
JISSEN
100
AcDbCircle
 10
261.9321608200948
 20
58.52028445041857
 30
0.0
 40
5.0
100
AcDbArc
 50
104.6790800521975
 51
126.6829888003599
  0
LINE
  5
EF7C88B03
330
EF7C85532
100
AcDbEntity
  8
JISSEN
100
AcDbLine
 10
266.9060315430196
 20
57.70075400370389
 30
0.0
 11
265.6560315430195
 21
58.42244184019093
 31
0.0
  0
LINE
  5
EF7C88B04
330
EF7C85532
100
AcDbEntity
  8
JISSEN
100
AcDbLine
 10
265.6560315430195
 20
58.42244184019093
 30
0.0
 11
265.6560315430197
 21
59.72244184019094
 31
0.0
  0
LINE
  5
EF7C88B05
330
EF7C85532
100
AcDbEntity
  8
JISSEN
100
AcDbLine
 10
265.6560315430197
 20
59.72244184019088
 30
0.0
 11
265.5752300393659
 21
59.76909261007638
 31
0.0
  0
ARC
  5
EF7C88B06
330
EF7C85532
100
AcDbEntity
  8
JISSEN
100
AcDbCircle
 10
265.1560315430196
 20
59.49656257382175
 30
0.0
 40
0.5
100
AcDbArc
 50
33.02876887191276
 51
104.8402148385181
  0
LINE
  5
EF7C88B07
330
EF7C85532
100
AcDbEntity
  8
JISSEN
100
AcDbLine
 10
265.4060315430196
 20
62.5007540037039
 30
0.0
 11
265.4060315430196
 21
60.70075400370384
 31
0.0
  0
ARC
  5
EF7C88B08
330
EF7C85532
100
AcDbEntity
  8
JISSEN
100
AcDbCircle
 10
277.9667264953437
 20
49.34680206627549
 30
0.0
 40
11.0
100
AcDbArc
 50
6.021677192633947
 51
75.15978516148108
  0
ARC
  5
EF7C88B09
330
EF7C85532
100
AcDbEntity
  8
JISSEN
100
AcDbCircle
 10
280.6560315430195
 20
59.49656257382175
 30
0.0
 40
0.5
100
AcDbArc
 50
75.15978516148187
 51
146.9712311280872
  0
LINE
  5
EF7C88B0A
330
EF7C85532
100
AcDbEntity
  8
JISSEN
100
AcDbLine
 10
281.1054930302523
 20
62.5007540037039
 30
0.0
 11
274.4060315430195
 21
62.5007540037039
 31
0.0
  0
LINE
  5
EF7C88B0B
330
EF7C85532
100
AcDbEntity
  8
JISSEN
100
AcDbLine
 10
278.9060315430195
 20
57.70075400370389
 30
0.0
 11
280.1560315430196
 21
58.42244184019093
 31
0.0
  0
LINE
  5
EF7C88B0C
330
EF7C85532
100
AcDbEntity
  8
JISSEN
100
AcDbLine
 10
280.4060315430195
 20
60.70075400370384
 30
0.0
 11
274.4060315430195
 21
60.70075400370384
 31
0.0
  0
LINE
  5
EF7C88B0D
330
EF7C85532
100
AcDbEntity
  8
JISSEN
100
AcDbLine
 10
271.4060315430196
 20
60.70075400370384
 30
0.0
 11
271.4060315430196
 21
62.5007540037039
 31
0.0
  0
LINE
  5
EF7C88B0E
330
EF7C85532
100
AcDbEntity
  8
JISSEN
100
AcDbLine
 10
274.4060315430195
 20
62.5007540037039
 30
0.0
 11
274.4060315430195
 21
60.70075400370384
 31
0.0
  0
LINE
  5
EF7C88B0F
330
EF7C85532
100
AcDbEntity
  8
JISSEN
100
AcDbLine
 10
280.1560315430194
 20
59.72244184019088
 30
0.0
 11
280.2368330466732
 21
59.76909261007638
 31
0.0
  0
LINE
  5
EF7C88B10
330
EF7C85532
100
AcDbEntity
  8
JISSEN
100
AcDbLine
 10
280.1560315430196
 20
58.42244184019093
 30
0.0
 11
280.1560315430194
 21
59.72244184019094
 31
0.0
  0
LINE
  5
EF7C88B11
330
EF7C85532
100
AcDbEntity
  8
JISSEN
100
AcDbLine
 10
280.4060315430195
 20
62.5007540037039
 30
0.0
 11
280.4060315430195
 21
60.70075400370384
 31
0.0
  0
ARC
  5
EF7C88B12
330
EF7C85532
100
AcDbEntity
  8
JISSEN
100
AcDbCircle
 10
283.8799022659442
 20
58.52028445041857
 30
0.0
 40
5.0
100
AcDbArc
 50
53.31701119964003
 51
75.32091994780239
  0
LINE
  5
EF7C88B6B
330
EF7C85532
100
AcDbEntity
  8
JISSEN
100
AcDbLine
 10
260.1382828112031
 20
66.05773967292647
 30
0.0
 11
285.9403497076367
 21
66.05773967292645
 31
0.0
  0
LINE
  5
EF7C88B6F
330
EF7C85532
100
AcDbEntity
  8
JISSEN
100
AcDbLine
 10
260.0049980948027
 20
67.55773967292618
 30
0.0
 11
285.8070649912363
 21
67.55773967292651
 31
0.0
  0
ENDSEC
  0
SECTION
  2
OBJECTS
  0
DICTIONARY
  5
EF7C85527
330
0
100
AcDbDictionary
  3
ACAD_GROUP
350
EF7C85528
  3
ACAD_LAYOUT
350
EF7C85BB7
  3
ACAD_MLINESTYLE
350
EF7C85535
  3
ACAD_PLOTSETTINGS
350
EF7C85BB8
  3
ACAD_PLOTSTYLENAME
350
EF7C85BB5
  3
ACDBHEADERROUNDTRIPXREC
350
EF7C88C37
  3
ACDBVARIABLEDICTIONARY
350
EF7C85DB7
  0
DICTIONARY
  5
EF7C85D9A
330
EF7C85532
100
AcDbDictionary
280
     1
  3
ACAD_LAYOUTSELFREF
360
EF7C88C59
  0
DICTIONARY
  5
EF7C85D98
330
EF7C8552F
100
AcDbDictionary
280
     1
  3
ACAD_LAYOUTSELFREF
360
EF7C88C58
  0
DICTIONARY
  5
EF7C85528
102
{ACAD_REACTORS
330
EF7C85527
102
}
330
EF7C85527
100
AcDbDictionary
  0
DICTIONARY
  5
EF7C85BB7
102
{ACAD_REACTORS
330
EF7C85527
102
}
330
EF7C85527
100
AcDbDictionary
  0
DICTIONARY
  5
EF7C85535
102
{ACAD_REACTORS
330
EF7C85527
102
}
330
EF7C85527
100
AcDbDictionary
  3
STANDARD
350
EF7C85536
  0
DICTIONARY
  5
EF7C85BB8
102
{ACAD_REACTORS
330
EF7C85527
102
}
330
EF7C85527
100
AcDbDictionary
  0
ACDBDICTIONARYWDFLT
  5
EF7C85BB5
102
{ACAD_REACTORS
330
EF7C85527
102
}
330
EF7C85527
100
AcDbDictionary
281
     1
  3
Normal
350
EF7C85BB6
100
AcDbDictionaryWithDefault
340
EF7C85BB6
  0
DICTIONARY
  5
EF7C88C37
102
{ACAD_REACTORS
330
EF7C85527
102
}
330
EF7C85527
100
AcDbDictionary
  3
CEPSNTYPE
350
EF7C88C41
  3
DIMSTYLEDATA
350
EF7C88C45
  3
FINGERPRINTGUID
350
EF7C88C42
  3
HYPERLINKBASE
350
EF7C88C3A
  3
INSUNITS
350
EF7C88C40
  3
LAYOUTDICT
350
EF7C88C3C
  3
LWETCUNION
350
EF7C88C3F
  3
PLOTSETDICT
350
EF7C88C3D
  3
PLOTSTYLNAMDICT
350
EF7C88C3E
  3
PSVPSCALE
350
EF7C88C44
  3
PUCSBASE
350
EF7C88C48
  3
PUCSORGBACK
350
EF7C88C4E
  3
PUCSORGBOTTOM
350
EF7C88C4A
  3
PUCSORGFRONT
350
EF7C88C4D
  3
PUCSORGLEFT
350
EF7C88C4B
  3
PUCSORGRIGHT
350
EF7C88C4C
  3
PUCSORGTOP
350
EF7C88C49
  3
PUCSORTHOREF
350
EF7C88C46
  3
PUCSORTHOVIEW
350
EF7C88C47
  3
STYLESHEET
350
EF7C88C3B
  3
TSTACKALIGN
350
EF7C88C38
  3
TSTACKSIZE
350
EF7C88C39
  3
UCSBASE
350
EF7C88C51
  3
UCSORGBACK
350
EF7C88C57
  3
UCSORGBOTTOM
350
EF7C88C53
  3
UCSORGFRONT
350
EF7C88C56
  3
UCSORGLEFT
350
EF7C88C54
  3
UCSORGRIGHT
350
EF7C88C55
  3
UCSORGTOP
350
EF7C88C52
  3
UCSORTHOREF
350
EF7C88C4F
  3
UCSORTHOVIEW
350
EF7C88C50
  3
VERSIONGUID
350
EF7C88C43
  0
DICTIONARY
  5
EF7C85DB7
102
{ACAD_REACTORS
330
EF7C85527
102
}
330
EF7C85527
100
AcDbDictionary
  3
DIMASSOC
350
EF7C88C35
  3
SORTENTS
350
EF7C85DB8
  0
XRECORD
  5
EF7C88C59
102
{ACAD_REACTORS
330
EF7C85D9A
102
}
330
EF7C85D9A
100
AcDbXrecord
340
EF7C85532
  0
XRECORD
  5
EF7C88C58
102
{ACAD_REACTORS
330
EF7C85D98
102
}
330
EF7C85D98
100
AcDbXrecord
340
EF7C8552F
  0
MLINESTYLE
  5
EF7C85536
102
{ACAD_REACTORS
330
EF7C85535
102
}
330
EF7C85535
100
AcDbMlineStyle
  2
STANDARD
 70
     0
  3

 62
   256
 51
90.0
 52
90.0
 71
     2
 49
0.5
 62
   256
  6
BYLAYER
 49
-0.5
 62
   256
  6
BYLAYER
  0
ACDBPLACEHOLDER
  5
EF7C85BB6
102
{ACAD_REACTORS
330
EF7C85BB5
102
}
330
EF7C85BB5
100
AcDbPlaceHolder
280
     0
  0
XRECORD
  5
EF7C88C41
102
{ACAD_REACTORS
330
EF7C88C37
102
}
330
EF7C88C37
100
AcDbXrecord
 90
        0
  0
XRECORD
  5
EF7C88C45
102
{ACAD_REACTORS
330
EF7C88C37
102
}
330
EF7C88C37
100
AcDbXrecord
1000
DSTYLE
1002
{
1070
   279
 70
     2
1070
   341
340
EF7C85537
1070
   342
340
EF7C85537
1070
   343
340
EF7C85543
1070
   344
340
EF7C85543
1002
}
  0
XRECORD
  5
EF7C88C42
102
{ACAD_REACTORS
330
EF7C88C37
102
}
330
EF7C88C37
100
AcDbXrecord
  1
{09AA4C7A-3D6F-4857-A850-771461888CEC}
  0
XRECORD
  5
EF7C88C3A
102
{ACAD_REACTORS
330
EF7C88C37
102
}
330
EF7C88C37
100
AcDbXrecord
  1

  0
XRECORD
  5
EF7C88C40
102
{ACAD_REACTORS
330
EF7C88C37
102
}
330
EF7C88C37
100
AcDbXrecord
 90
        0
  0
XRECORD
  5
EF7C88C3C
102
{ACAD_REACTORS
330
EF7C88C37
102
}
330
EF7C88C37
100
AcDbXrecord
340
EF7C85BB7
  0
XRECORD
  5
EF7C88C3F
102
{ACAD_REACTORS
330
EF7C88C37
102
}
330
EF7C88C37
100
AcDbXrecord
 90
    14877
  0
XRECORD
  5
EF7C88C3D
102
{ACAD_REACTORS
330
EF7C88C37
102
}
330
EF7C88C37
100
AcDbXrecord
340
EF7C85BB8
  0
XRECORD
  5
EF7C88C3E
102
{ACAD_REACTORS
330
EF7C88C37
102
}
330
EF7C88C37
100
AcDbXrecord
340
EF7C85BB5
  0
XRECORD
  5
EF7C88C44
102
{ACAD_REACTORS
330
EF7C88C37
102
}
330
EF7C88C37
100
AcDbXrecord
 40
0.0
  0
XRECORD
  5
EF7C88C48
102
{ACAD_REACTORS
330
EF7C88C37
102
}
330
EF7C88C37
100
AcDbXrecord
340
0
  0
XRECORD
  5
EF7C88C4E
102
{ACAD_REACTORS
330
EF7C88C37
102
}
330
EF7C88C37
100
AcDbXrecord
 10
0.0
 20
0.0
 30
0.0
  0
XRECORD
  5
EF7C88C4A
102
{ACAD_REACTORS
330
EF7C88C37
102
}
330
EF7C88C37
100
AcDbXrecord
 10
0.0
 20
0.0
 30
0.0
  0
XRECORD
  5
EF7C88C4D
102
{ACAD_REACTORS
330
EF7C88C37
102
}
330
EF7C88C37
100
AcDbXrecord
 10
0.0
 20
0.0
 30
0.0
  0
XRECORD
  5
EF7C88C4B
102
{ACAD_REACTORS
330
EF7C88C37
102
}
330
EF7C88C37
100
AcDbXrecord
 10
0.0
 20
0.0
 30
0.0
  0
XRECORD
  5
EF7C88C4C
102
{ACAD_REACTORS
330
EF7C88C37
102
}
330
EF7C88C37
100
AcDbXrecord
 10
0.0
 20
0.0
 30
0.0
  0
XRECORD
  5
EF7C88C49
102
{ACAD_REACTORS
330
EF7C88C37
102
}
330
EF7C88C37
100
AcDbXrecord
 10
0.0
 20
0.0
 30
0.0
  0
XRECORD
  5
EF7C88C46
102
{ACAD_REACTORS
330
EF7C88C37
102
}
330
EF7C88C37
100
AcDbXrecord
340
0
  0
XRECORD
  5
EF7C88C47
102
{ACAD_REACTORS
330
EF7C88C37
102
}
330
EF7C88C37
100
AcDbXrecord
 70
     0
  0
XRECORD
  5
EF7C88C3B
102
{ACAD_REACTORS
330
EF7C88C37
102
}
330
EF7C88C37
100
AcDbXrecord
  1

  0
XRECORD
  5
EF7C88C38
102
{ACAD_REACTORS
330
EF7C88C37
102
}
330
EF7C88C37
100
AcDbXrecord
 90
        1
  0
XRECORD
  5
EF7C88C39
102
{ACAD_REACTORS
330
EF7C88C37
102
}
330
EF7C88C37
100
AcDbXrecord
 90
       70
  0
XRECORD
  5
EF7C88C51
102
{ACAD_REACTORS
330
EF7C88C37
102
}
330
EF7C88C37
100
AcDbXrecord
340
0
  0
XRECORD
  5
EF7C88C57
102
{ACAD_REACTORS
330
EF7C88C37
102
}
330
EF7C88C37
100
AcDbXrecord
 10
0.0
 20
0.0
 30
0.0
  0
XRECORD
  5
EF7C88C53
102
{ACAD_REACTORS
330
EF7C88C37
102
}
330
EF7C88C37
100
AcDbXrecord
 10
0.0
 20
0.0
 30
0.0
  0
XRECORD
  5
EF7C88C56
102
{ACAD_REACTORS
330
EF7C88C37
102
}
330
EF7C88C37
100
AcDbXrecord
 10
0.0
 20
0.0
 30
0.0
  0
XRECORD
  5
EF7C88C54
102
{ACAD_REACTORS
330
EF7C88C37
102
}
330
EF7C88C37
100
AcDbXrecord
 10
0.0
 20
0.0
 30
0.0
  0
XRECORD
  5
EF7C88C55
102
{ACAD_REACTORS
330
EF7C88C37
102
}
330
EF7C88C37
100
AcDbXrecord
 10
0.0
 20
0.0
 30
0.0
  0
XRECORD
  5
EF7C88C52
102
{ACAD_REACTORS
330
EF7C88C37
102
}
330
EF7C88C37
100
AcDbXrecord
 10
0.0
 20
0.0
 30
0.0
  0
XRECORD
  5
EF7C88C4F
102
{ACAD_REACTORS
330
EF7C88C37
102
}
330
EF7C88C37
100
AcDbXrecord
340
0
  0
XRECORD
  5
EF7C88C50
102
{ACAD_REACTORS
330
EF7C88C37
102
}
330
EF7C88C37
100
AcDbXrecord
 70
     0
  0
XRECORD
  5
EF7C88C43
102
{ACAD_REACTORS
330
EF7C88C37
102
}
330
EF7C88C37
100
AcDbXrecord
  1
{2B9BA3F5-131D-441F-B41E-DC4DCFB894B1}
  0
DICTIONARYVAR
  5
EF7C88C35
102
{ACAD_REACTORS
330
EF7C85DB7
102
}
330
EF7C85DB7
100
DictionaryVariables
280
     0
  1
0
  0
DICTIONARYVAR
  5
EF7C85DB8
102
{ACAD_REACTORS
330
EF7C85DB7
102
}
330
EF7C85DB7
100
DictionaryVariables
280
     0
  1
96
  0
ENDSEC
  0
EOF
