  0
SECTION
  2
HEADER
  9
$ACADVER
  1
AC1015
  9
$ACADMAINTVER
 70
    10
  9
$DWGCODEPAGE
  3
ANSI_932
  9
$INSBASE
 10
0.0
 20
0.0
 30
0.0
  9
$EXTMIN
 10
0.0
 20
0.0
 30
0.0
  9
$EXTMAX
 10
361.9999985519999
 20
282.9999999999999
 30
0.0
  9
$LIMMIN
 10
0.0
 20
0.0
  9
$LIMMAX
 10
361.9999985519999
 20
282.9999999999999
  9
$ORTHOMODE
 70
     0
  9
$REGENMODE
 70
     1
  9
$FILLMODE
 70
     1
  9
$QTEXTMODE
 70
     0
  9
$MIRRTEXT
 70
     0
  9
$LTSCALE
 40
5.0
  9
$ATTMODE
 70
     1
  9
$TEXTSIZE
 40
3.0
  9
$TRACEWID
 40
0.05
  9
$TEXTSTYLE
  7
BIGFONT
  9
$CLAYER
  8
JISSEN
  9
$CELTYPE
  6
BYLAYER
  9
$CECOLOR
 62
   256
  9
$CELTSCALE
 40
1.0
  9
$DISPSILH
 70
     0
  9
$DIMSCALE
 40
1.0
  9
$DIMASZ
 40
1.5
  9
$DIMEXO
 40
1.0
  9
$DIMDLI
 40
6.0
  9
$DIMRND
 40
0.0
  9
$DIMDLE
 40
0.0
  9
$DIMEXE
 40
1.0
  9
$DIMTP
 40
0.0
  9
$DIMTM
 40
0.0
  9
$DIMTXT
 40
3.0
  9
$DIMCEN
 40
1.0
  9
$DIMTSZ
 40
0.0
  9
$DIMTOL
 70
     0
  9
$DIMLIM
 70
     0
  9
$DIMTIH
 70
     0
  9
$DIMTOH
 70
     0
  9
$DIMSE1
 70
     0
  9
$DIMSE2
 70
     0
  9
$DIMTAD
 70
     0
  9
$DIMZIN
 70
     8
  9
$DIMBLK
  1
ARROW
  9
$DIMASO
 70
     0
  9
$DIMSHO
 70
     0
  9
$DIMPOST
  1

  9
$DIMAPOST
  1

  9
$DIMALT
 70
     0
  9
$DIMALTD
 70
     2
  9
$DIMALTF
 40
25.4
  9
$DIMLFAC
 40
1.0
  9
$DIMTOFL
 70
     1
  9
$DIMTVP
 40
0.0
  9
$DIMTIX
 70
     0
  9
$DIMSOXD
 70
     0
  9
$DIMSAH
 70
     0
  9
$DIMBLK1
  1
ARROWANG
  9
$DIMBLK2
  1
ARROWANG
  9
$DIMSTYLE
  2
IMAO
  9
$DIMCLRD
 70
     0
  9
$DIMCLRE
 70
     0
  9
$DIMCLRT
 70
     0
  9
$DIMTFAC
 40
1.0
  9
$DIMGAP
 40
0.09
  9
$DIMJUST
 70
     0
  9
$DIMSD1
 70
     0
  9
$DIMSD2
 70
     0
  9
$DIMTOLJ
 70
     1
  9
$DIMTZIN
 70
     8
  9
$DIMALTZ
 70
     8
  9
$DIMALTTZ
 70
     8
  9
$DIMUPT
 70
     0
  9
$DIMDEC
 70
     2
  9
$DIMTDEC
 70
     2
  9
$DIMALTU
 70
     2
  9
$DIMALTTD
 70
     2
  9
$DIMTXSTY
  7
BIGFONT
  9
$DIMAUNIT
 70
     0
  9
$DIMADEC
 70
     0
  9
$DIMALTRND
 40
0.0
  9
$DIMAZIN
 70
     0
  9
$DIMDSEP
 70
    46
  9
$DIMATFIT
 70
     3
  9
$DIMFRAC
 70
     0
  9
$DIMLDRBLK
  1
ARROW
  9
$DIMLUNIT
 70
     2
  9
$DIMLWD
 70
    -2
  9
$DIMLWE
 70
    -2
  9
$DIMTMOVE
 70
     0
  9
$LUNITS
 70
     2
  9
$LUPREC
 70
     2
  9
$SKETCHINC
 40
0.1
  9
$FILLETRAD
 40
0.2
  9
$AUNITS
 70
     0
  9
$AUPREC
 70
     2
  9
$MENU
  1
stdr12j
  9
$ELEVATION
 40
0.0
  9
$PELEVATION
 40
0.0
  9
$THICKNESS
 40
0.0
  9
$LIMCHECK
 70
     0
  9
$CHAMFERA
 40
0.0
  9
$CHAMFERB
 40
0.0
  9
$CHAMFERC
 40
0.0
  9
$CHAMFERD
 40
0.0
  9
$SKPOLY
 70
     0
  9
$TDCREATE
 40
2450617.453041203
  9
$TDUCREATE
 40
2450617.078041203
  9
$TDUPDATE
 40
2457485.438305926
  9
$TDUUPDATE
 40
2457485.063305926
  9
$TDINDWG
 40
0.1411429051
  9
$TDUSRTIMER
 40
0.1411421875
  9
$USRTIMER
 70
     1
  9
$ANGBASE
 50
0.0
  9
$ANGDIR
 70
     0
  9
$PDMODE
 70
     0
  9
$PDSIZE
 40
0.0
  9
$PLINEWID
 40
0.0
  9
$SPLFRAME
 70
     0
  9
$SPLINETYPE
 70
     6
  9
$SPLINESEGS
 70
     8
  9
$HANDSEED
  5
EF7C88AFC
  9
$SURFTAB1
 70
     6
  9
$SURFTAB2
 70
     6
  9
$SURFTYPE
 70
     6
  9
$SURFU
 70
     6
  9
$SURFV
 70
     6
  9
$UCSBASE
  2

  9
$UCSNAME
  2

  9
$UCSORG
 10
0.0
 20
0.0
 30
0.0
  9
$UCSXDIR
 10
1.0
 20
0.0
 30
0.0
  9
$UCSYDIR
 10
0.0
 20
1.0
 30
0.0
  9
$UCSORTHOREF
  2

  9
$UCSORTHOVIEW
 70
     0
  9
$UCSORGTOP
 10
0.0
 20
0.0
 30
0.0
  9
$UCSORGBOTTOM
 10
0.0
 20
0.0
 30
0.0
  9
$UCSORGLEFT
 10
0.0
 20
0.0
 30
0.0
  9
$UCSORGRIGHT
 10
0.0
 20
0.0
 30
0.0
  9
$UCSORGFRONT
 10
0.0
 20
0.0
 30
0.0
  9
$UCSORGBACK
 10
0.0
 20
0.0
 30
0.0
  9
$PUCSBASE
  2

  9
$PUCSNAME
  2

  9
$PUCSORG
 10
0.0
 20
0.0
 30
0.0
  9
$PUCSXDIR
 10
1.0
 20
0.0
 30
0.0
  9
$PUCSYDIR
 10
0.0
 20
1.0
 30
0.0
  9
$PUCSORTHOREF
  2

  9
$PUCSORTHOVIEW
 70
     0
  9
$PUCSORGTOP
 10
0.0
 20
0.0
 30
0.0
  9
$PUCSORGBOTTOM
 10
0.0
 20
0.0
 30
0.0
  9
$PUCSORGLEFT
 10
0.0
 20
0.0
 30
0.0
  9
$PUCSORGRIGHT
 10
0.0
 20
0.0
 30
0.0
  9
$PUCSORGFRONT
 10
0.0
 20
0.0
 30
0.0
  9
$PUCSORGBACK
 10
0.0
 20
0.0
 30
0.0
  9
$USERI1
 70
     0
  9
$USERI2
 70
     1
  9
$USERI3
 70
     1
  9
$USERI4
 70
     3
  9
$USERI5
 70
     0
  9
$USERR1
 40
1.0
  9
$USERR2
 40
3.0
  9
$USERR3
 40
3.0
  9
$USERR4
 40
1.5
  9
$USERR5
 40
8.0
  9
$WORLDVIEW
 70
     1
  9
$SHADEDGE
 70
     3
  9
$SHADEDIF
 70
    70
  9
$TILEMODE
 70
     1
  9
$MAXACTVP
 70
    16
  9
$PINSBASE
 10
0.0
 20
0.0
 30
0.0
  9
$PLIMCHECK
 70
     0
  9
$PEXTMIN
 10
1.000000000000000E+20
 20
1.000000000000000E+20
 30
1.000000000000000E+20
  9
$PEXTMAX
 10
-1.000000000000000E+20
 20
-1.000000000000000E+20
 30
-1.000000000000000E+20
  9
$PLIMMIN
 10
0.0
 20
0.0
  9
$PLIMMAX
 10
12.0
 20
9.0
  9
$UNITMODE
 70
     0
  9
$VISRETAIN
 70
     0
  9
$PLINEGEN
 70
     0
  9
$PSLTSCALE
 70
     0
  9
$TREEDEPTH
 70
  3020
  9
$CMLSTYLE
  2
STANDARD
  9
$CMLJUST
 70
     0
  9
$CMLSCALE
 40
1.0
  9
$PROXYGRAPHICS
 70
     1
  9
$MEASUREMENT
 70
     0
  9
$CELWEIGHT
370
    -1
  9
$ENDCAPS
280
     0
  9
$JOINSTYLE
280
     0
  9
$LWDISPLAY
290
     0
  9
$INSUNITS
 70
     0
  9
$HYPERLINKBASE
  1

  9
$STYLESHEET
  1
aclt.ctb
  9
$XEDIT
290
     1
  9
$CEPSNTYPE
380
     0
  9
$PSTYLEMODE
290
     1
  9
$FINGERPRINTGUID
  2
{09AA4C7A-3D6F-4857-A850-771461888CEC}
  9
$VERSIONGUID
  2
{9368AB6F-CDB5-456C-978D-CD549AD12720}
  9
$EXTNAMES
290
     1
  9
$PSVPSCALE
 40
0.0
  9
$OLESTARTUP
290
     0
  0
ENDSEC
  0
SECTION
  2
CLASSES
  0
CLASS
  1
LWPOLYLINE
  2
AcDbPolyline
  3
AutoCAD 2000
 90
    32768
280
     0
281
     1
  0
CLASS
  1
HATCH
  2
AcDbHatch
  3
AutoCAD 2000
 90
    32768
280
     0
281
     1
  0
CLASS
  1
ACDBDICTIONARYWDFLT
  2
AcDbDictionaryWithDefault
  3
AutoCAD 2000
 90
        0
280
     0
281
     0
  0
CLASS
  1
ACDBPLACEHOLDER
  2
AcDbPlaceHolder
  3
AutoCAD 2000
 90
        0
280
     0
281
     0
  0
CLASS
  1
LAYOUT
  2
AcDbLayout
  3
AutoCAD 2000
 90
        0
280
     0
281
     0
  0
CLASS
  1
LONG_TRANSACTION
  2
AcDbLongTransaction
  3
AutoCAD 2000
 90
    32768
280
     0
281
     0
  0
CLASS
  1
LWPOLYLINE
  2
AcDbPolyline
  3
AutoCAD 2000
 90
    32768
280
     0
281
     1
  0
CLASS
  1
HATCH
  2
AcDbHatch
  3
AutoCAD 2000
 90
    32768
280
     0
281
     1
  0
CLASS
  1
XRECORD
  2
AcDbXrecord
  3
AutoCAD 2000
 90
    32768
280
     0
281
     0
  0
CLASS
  1
DICTIONARYVAR
  2
AcDbDictionaryVar
  3
AutoCAD 2000
 90
        0
280
     0
281
     0
  0
CLASS
  1
LONG_TRANSACTION
  2
AcDbLongTransaction
  3
AutoCAD 2000
 90
    32768
280
     0
281
     0
  0
CLASS
  1
LWPOLYLINE
  2
AcDbPolyline
  3
AutoCAD 2000
 90
    32768
280
     0
281
     1
  0
CLASS
  1
HATCH
  2
AcDbHatch
  3
AutoCAD 2000
 90
    32768
280
     0
281
     1
  0
CLASS
  1
XRECORD
  2
AcDbXrecord
  3
AutoCAD 2000
 90
    32768
280
     0
281
     0
  0
CLASS
  1
LONG_TRANSACTION
  2
AcDbLongTransaction
  3
AutoCAD 2000
 90
    32768
280
     0
281
     0
  0
CLASS
  1
LWPOLYLINE
  2
AcDbPolyline
  3
AutoCAD 2000
 90
    32768
280
     0
281
     1
  0
CLASS
  1
HATCH
  2
AcDbHatch
  3
AutoCAD 2000
 90
    32768
280
     0
281
     1
  0
CLASS
  1
XRECORD
  2
AcDbXrecord
  3
AutoCAD 2000
 90
    32768
280
     0
281
     0
  0
CLASS
  1
LONG_TRANSACTION
  2
AcDbLongTransaction
  3
AutoCAD 2000
 90
    32768
280
     0
281
     0
  0
CLASS
  1
LWPOLYLINE
  2
AcDbPolyline
  3
AutoCAD 2000
 90
    32768
280
     0
281
     1
  0
CLASS
  1
HATCH
  2
AcDbHatch
  3
AutoCAD 2000
 90
    32768
280
     0
281
     1
  0
CLASS
  1
XRECORD
  2
AcDbXrecord
  3
AutoCAD 2000
 90
    32768
280
     0
281
     0
  0
CLASS
  1
LONG_TRANSACTION
  2
AcDbLongTransaction
  3
AutoCAD 2000
 90
    32768
280
     0
281
     0
  0
CLASS
  1
LWPOLYLINE
  2
AcDbPolyline
  3
AutoCAD 2000
 90
    32768
280
     0
281
     1
  0
CLASS
  1
HATCH
  2
AcDbHatch
  3
AutoCAD 2000
 90
    32768
280
     0
281
     1
  0
CLASS
  1
XRECORD
  2
AcDbXrecord
  3
AutoCAD 2000
 90
    32768
280
     0
281
     0
  0
CLASS
  1
LONG_TRANSACTION
  2
AcDbLongTransaction
  3
AutoCAD 2000
 90
    32768
280
     0
281
     0
  0
CLASS
  1
LWPOLYLINE
  2
AcDbPolyline
  3
AutoCAD 2000
 90
    32768
280
     0
281
     1
  0
CLASS
  1
HATCH
  2
AcDbHatch
  3
AutoCAD 2000
 90
    32768
280
     0
281
     1
  0
CLASS
  1
XRECORD
  2
AcDbXrecord
  3
AutoCAD 2000
 90
    32768
280
     0
281
     0
  0
CLASS
  1
LONG_TRANSACTION
  2
AcDbLongTransaction
  3
AutoCAD 2000
 90
    32768
280
     0
281
     0
  0
CLASS
  1
LWPOLYLINE
  2
AcDbPolyline
  3
AutoCAD 2000
 90
    32768
280
     0
281
     1
  0
CLASS
  1
HATCH
  2
AcDbHatch
  3
AutoCAD 2000
 90
    32768
280
     0
281
     1
  0
CLASS
  1
XRECORD
  2
AcDbXrecord
  3
AutoCAD 2000
 90
    32768
280
     0
281
     0
  0
CLASS
  1
LONG_TRANSACTION
  2
AcDbLongTransaction
  3
AutoCAD 2000
 90
    32768
280
     0
281
     0
  0
CLASS
  1
LWPOLYLINE
  2
AcDbPolyline
  3
AutoCAD 2000
 90
    32768
280
     0
281
     1
  0
CLASS
  1
HATCH
  2
AcDbHatch
  3
AutoCAD 2000
 90
    32768
280
     0
281
     1
  0
CLASS
  1
XRECORD
  2
AcDbXrecord
  3
AutoCAD 2000
 90
    32768
280
     0
281
     0
  0
CLASS
  1
LONG_TRANSACTION
  2
AcDbLongTransaction
  3
AutoCAD 2000
 90
    32768
280
     0
281
     0
  0
CLASS
  1
LWPOLYLINE
  2
AcDbPolyline
  3
AutoCAD 2000
 90
    32768
280
     0
281
     1
  0
CLASS
  1
HATCH
  2
AcDbHatch
  3
AutoCAD 2000
 90
    32768
280
     0
281
     1
  0
CLASS
  1
XRECORD
  2
AcDbXrecord
  3
AutoCAD 2000
 90
    32768
280
     0
281
     0
  0
CLASS
  1
LONG_TRANSACTION
  2
AcDbLongTransaction
  3
AutoCAD 2000
 90
    32768
280
     0
281
     0
  0
CLASS
  1
LWPOLYLINE
  2
AcDbPolyline
  3
AutoCAD 2000
 90
    32768
280
     0
281
     1
  0
CLASS
  1
HATCH
  2
AcDbHatch
  3
AutoCAD 2000
 90
    32768
280
     0
281
     1
  0
CLASS
  1
XRECORD
  2
AcDbXrecord
  3
AutoCAD 2000
 90
    32768
280
     0
281
     0
  0
CLASS
  1
LONG_TRANSACTION
  2
AcDbLongTransaction
  3
AutoCAD 2000
 90
    32768
280
     0
281
     0
  0
CLASS
  1
LWPOLYLINE
  2
AcDbPolyline
  3
AutoCAD 2000
 90
    32768
280
     0
281
     1
  0
CLASS
  1
HATCH
  2
AcDbHatch
  3
AutoCAD 2000
 90
    32768
280
     0
281
     1
  0
CLASS
  1
XRECORD
  2
AcDbXrecord
  3
AutoCAD 2000
 90
    32768
280
     0
281
     0
  0
CLASS
  1
LONG_TRANSACTION
  2
AcDbLongTransaction
  3
AutoCAD 2000
 90
    32768
280
     0
281
     0
  0
CLASS
  1
LWPOLYLINE
  2
AcDbPolyline
  3
AutoCAD 2000
 90
    32768
280
     0
281
     1
  0
CLASS
  1
HATCH
  2
AcDbHatch
  3
AutoCAD 2000
 90
    32768
280
     0
281
     1
  0
CLASS
  1
XRECORD
  2
AcDbXrecord
  3
AutoCAD 2000
 90
    32768
280
     0
281
     0
  0
CLASS
  1
LONG_TRANSACTION
  2
AcDbLongTransaction
  3
AutoCAD 2000
 90
    32768
280
     0
281
     0
  0
CLASS
  1
LWPOLYLINE
  2
AcDbPolyline
  3
AutoCAD 2000
 90
    32768
280
     0
281
     1
  0
CLASS
  1
HATCH
  2
AcDbHatch
  3
AutoCAD 2000
 90
    32768
280
     0
281
     1
  0
CLASS
  1
XRECORD
  2
AcDbXrecord
  3
AutoCAD 2000
 90
    32768
280
     0
281
     0
  0
CLASS
  1
LONG_TRANSACTION
  2
AcDbLongTransaction
  3
AutoCAD 2000
 90
    32768
280
     0
281
     0
  0
CLASS
  1
LWPOLYLINE
  2
AcDbPolyline
  3
AutoCAD 2000
 90
    32768
280
     0
281
     1
  0
CLASS
  1
HATCH
  2
AcDbHatch
  3
AutoCAD 2000
 90
    32768
280
     0
281
     1
  0
CLASS
  1
XRECORD
  2
AcDbXrecord
  3
AutoCAD 2000
 90
    32768
280
     0
281
     0
  0
ENDSEC
  0
SECTION
  2
TABLES
  0
TABLE
  2
VPORT
  5
EF7C85523
330
0
100
AcDbSymbolTable
 70
    10
  0
VPORT
  5
EF7C85567
330
EF7C85523
100
AcDbSymbolTableRecord
100
AcDbViewportTableRecord
  2
2
 70
     0
 10
0.5
 20
0.0
 11
1.0
 21
1.0
 12
0.9240312421264802
 22
1.052650975462765
 13
0.0
 23
0.0
 14
1.0
 24
1.0
 15
10.0
 25
10.0
 16
0.0
 26
0.0
 36
1.0
 17
0.0
 27
0.0
 37
0.0
 40
2.105301950925533
 41
0.8778135048231511
 42
50.0
 43
0.0
 44
0.0
 50
0.0
 51
0.0
 71
     0
 72
   500
 73
     1
 74
     1
 75
     0
 76
     0
 77
     0
 78
     0
281
     0
 65
     1
110
0.0
120
0.0
130
0.0
111
1.0
121
0.0
131
0.0
112
0.0
122
1.0
132
0.0
 79
     0
146
0.0
  0
VPORT
  5
EF7C85568
330
EF7C85523
100
AcDbSymbolTableRecord
100
AcDbViewportTableRecord
  2
2
 70
     0
 10
0.0
 20
0.0
 11
0.5
 21
1.0
 12
0.9240312421264802
 22
1.052650975462765
 13
0.0
 23
0.0
 14
1.0
 24
1.0
 15
10.0
 25
10.0
 16
0.0
 26
0.0
 36
1.0
 17
0.0
 27
0.0
 37
0.0
 40
2.105301950925533
 41
0.8778135048231511
 42
50.0
 43
0.0
 44
0.0
 50
0.0
 51
0.0
 71
     0
 72
   500
 73
     1
 74
     1
 75
     0
 76
     0
 77
     0
 78
     0
281
     0
 65
     1
110
0.0
120
0.0
130
0.0
111
1.0
121
0.0
131
0.0
112
0.0
122
1.0
132
0.0
 79
     0
146
0.0
  0
VPORT
  5
EF7C85569
330
EF7C85523
100
AcDbSymbolTableRecord
100
AcDbViewportTableRecord
  2
3
 70
     0
 10
0.0
 20
0.5
 11
1.0
 21
1.0
 12
2.832169994473273
 22
1.052650975462765
 13
0.0
 23
0.0
 14
1.0
 24
1.0
 15
10.0
 25
10.0
 16
0.0
 26
0.0
 36
1.0
 17
0.0
 27
0.0
 37
0.0
 40
2.105301950925533
 41
3.571428571428571
 42
50.0
 43
0.0
 44
0.0
 50
0.0
 51
0.0
 71
     0
 72
   500
 73
     1
 74
     1
 75
     0
 76
     0
 77
     0
 78
     0
281
     0
 65
     1
110
0.0
120
0.0
130
0.0
111
1.0
121
0.0
131
0.0
112
0.0
122
1.0
132
0.0
 79
     0
146
0.0
  0
VPORT
  5
EF7C8556A
330
EF7C85523
100
AcDbSymbolTableRecord
100
AcDbViewportTableRecord
  2
3
 70
     0
 10
0.0
 20
0.0
 11
1.0
 21
0.5
 12
2.856741679241311
 22
1.052650975462765
 13
0.0
 23
0.0
 14
1.0
 24
1.0
 15
10.0
 25
10.0
 16
0.0
 26
0.0
 36
1.0
 17
0.0
 27
0.0
 37
0.0
 40
2.105301950925533
 41
3.594771241830064
 42
50.0
 43
0.0
 44
0.0
 50
0.0
 51
0.0
 71
     0
 72
   500
 73
     1
 74
     1
 75
     0
 76
     0
 77
     0
 78
     0
281
     0
 65
     1
110
0.0
120
0.0
130
0.0
111
1.0
121
0.0
131
0.0
112
0.0
122
1.0
132
0.0
 79
     0
146
0.0
  0
VPORT
  5
EF7C8556B
330
EF7C85523
100
AcDbSymbolTableRecord
100
AcDbViewportTableRecord
  2
4
 70
     0
 10
0.5
 20
0.0
 11
1.0
 21
0.5
 12
2.886857516709718
 22
1.052650975462765
 13
0.0
 23
0.0
 14
1.0
 24
1.0
 15
10.0
 25
10.0
 16
0.0
 26
0.0
 36
1.0
 17
0.0
 27
0.0
 37
0.0
 40
4.275207030309069
 41
1.784313725490195
 42
50.0
 43
0.0
 44
0.0
 50
0.0
 51
0.0
 71
     0
 72
   500
 73
     1
 74
     1
 75
     0
 76
     0
 77
     0
 78
     0
281
     0
 65
     1
110
0.0
120
0.0
130
0.0
111
1.0
121
0.0
131
0.0
112
0.0
122
1.0
132
0.0
 79
     0
146
0.0
  0
VPORT
  5
EF7C8556C
330
EF7C85523
100
AcDbSymbolTableRecord
100
AcDbViewportTableRecord
  2
4
 70
     0
 10
0.5
 20
0.5
 11
1.0
 21
1.0
 12
2.862090274555523
 22
1.052650975462765
 13
0.0
 23
0.0
 14
1.0
 24
1.0
 15
10.0
 25
10.0
 16
0.0
 26
0.0
 36
1.0
 17
0.0
 27
0.0
 37
0.0
 40
4.275207030309069
 41
1.772727272727271
 42
50.0
 43
0.0
 44
0.0
 50
0.0
 51
0.0
 71
     0
 72
   500
 73
     1
 74
     1
 75
     0
 76
     0
 77
     0
 78
     0
281
     0
 65
     1
110
0.0
120
0.0
130
0.0
111
1.0
121
0.0
131
0.0
112
0.0
122
1.0
132
0.0
 79
     0
146
0.0
  0
VPORT
  5
EF7C8556D
330
EF7C85523
100
AcDbSymbolTableRecord
100
AcDbViewportTableRecord
  2
4
 70
     0
 10
0.0
 20
0.5
 11
0.5
 21
1.0
 12
2.862090274555523
 22
1.052650975462765
 13
0.0
 23
0.0
 14
1.0
 24
1.0
 15
10.0
 25
10.0
 16
0.0
 26
0.0
 36
1.0
 17
0.0
 27
0.0
 37
0.0
 40
4.275207030309069
 41
1.772727272727271
 42
50.0
 43
0.0
 44
0.0
 50
0.0
 51
0.0
 71
     0
 72
   500
 73
     1
 74
     1
 75
     0
 76
     0
 77
     0
 78
     0
281
     0
 65
     1
110
0.0
120
0.0
130
0.0
111
1.0
121
0.0
131
0.0
112
0.0
122
1.0
132
0.0
 79
     0
146
0.0
  0
VPORT
  5
EF7C8556E
330
EF7C85523
100
AcDbSymbolTableRecord
100
AcDbViewportTableRecord
  2
4
 70
     0
 10
0.0
 20
0.0
 11
0.5
 21
0.5
 12
2.886857516709718
 22
1.052650975462765
 13
0.0
 23
0.0
 14
1.0
 24
1.0
 15
10.0
 25
10.0
 16
0.0
 26
0.0
 36
1.0
 17
0.0
 27
0.0
 37
0.0
 40
4.275207030309069
 41
1.784313725490195
 42
50.0
 43
0.0
 44
0.0
 50
0.0
 51
0.0
 71
     0
 72
   500
 73
     1
 74
     1
 75
     0
 76
     0
 77
     0
 78
     0
281
     0
 65
     1
110
0.0
120
0.0
130
0.0
111
1.0
121
0.0
131
0.0
112
0.0
122
1.0
132
0.0
 79
     0
146
0.0
  0
VPORT
  5
EF7C88AFB
330
EF7C85523
100
AcDbSymbolTableRecord
100
AcDbViewportTableRecord
  2
*Active
 70
     0
 10
0.0
 20
0.0
 11
1.0
 21
1.0
 12
210.5262966000264
 22
141.5000013178616
 13
0.0
 23
0.0
 14
1.0
 24
1.0
 15
10.0
 25
10.0
 16
0.0
 26
0.0
 36
1.0
 17
0.0
 27
0.0
 37
0.0
 40
6056.733005759864
 41
2.20310633213859
 42
50.0
 43
0.0
 44
0.0
 50
0.0
 51
0.0
 71
     0
 72
   500
 73
     1
 74
     0
 75
     0
 76
     0
 77
     0
 78
     0
281
     0
 65
     1
110
0.0
120
0.0
130
0.0
111
1.0
121
0.0
131
0.0
112
0.0
122
1.0
132
0.0
 79
     0
146
0.0
  0
ENDTAB
  0
TABLE
  2
LTYPE
  5
EF7C85520
330
0
100
AcDbSymbolTable
 70
     4
  0
LTYPE
  5
EF7C8552C
330
EF7C85520
100
AcDbSymbolTableRecord
100
AcDbLinetypeTableRecord
  2
BYBLOCK
 70
     0
  3

 72
    65
 73
     0
 40
0.0
  0
LTYPE
  5
EF7C8552D
330
EF7C85520
100
AcDbSymbolTableRecord
100
AcDbLinetypeTableRecord
  2
BYLAYER
 70
     0
  3

 72
    65
 73
     0
 40
0.0
  0
LTYPE
  5
EF7C8552E
330
EF7C85520
100
AcDbSymbolTableRecord
100
AcDbLinetypeTableRecord
  2
CONTINUOUS
 70
     0
  3
実線
 72
    65
 73
     0
 40
0.0
  0
LTYPE
  5
EF7C85565
330
EF7C85520
100
AcDbSymbolTableRecord
100
AcDbLinetypeTableRecord
  2
PHANTOM
 70
     0
  3
_____ _ _ _____ _ _ _____ _ _ _____ _ _ ____
 72
    65
 73
     6
 40
2.5
 49
1.25
 74
     0
 49
-0.25
 74
     0
 49
0.25
 74
     0
 49
-0.25
 74
     0
 49
0.25
 74
     0
 49
-0.25
 74
     0
  0
LTYPE
  5
EF7C8711F
330
EF7C85520
100
AcDbSymbolTableRecord
100
AcDbLinetypeTableRecord
  2
CENTER
 70
     0
  3
____ _ ____ _ ____ _ ____ _ ____ _ ____ _ ____
 72
    65
 73
     4
 40
2.0
 49
1.25
 74
     0
 49
-0.25
 74
     0
 49
0.25
 74
     0
 49
-0.25
 74
     0
  0
LTYPE
  5
EF7C8806D
330
EF7C85520
100
AcDbSymbolTableRecord
100
AcDbLinetypeTableRecord
  2
HIDDEN
 70
     0
  3
_ _ _ _ _ _ _ _ _ _ _ _ _ _ _ _ _ _ _ _ _ _ _
 72
    65
 73
     2
 40
0.375
 49
0.25
 74
     0
 49
-0.125
 74
     0
  0
ENDTAB
  0
TABLE
  2
LAYER
  5
EF7C8551D
102
{ACAD_XDICTIONARY
360
EF7C88049
102
}
330
0
100
AcDbSymbolTable
 70
    11
  0
LAYER
  5
EF7C85529
330
EF7C8551D
100
AcDbSymbolTableRecord
100
AcDbLayerTableRecord
  2
0
 70
     0
 62
     6
  6
CONTINUOUS
370
    -3
390
EF7C85BB6
  0
LAYER
  5
EF7C85574
330
EF7C8551D
100
AcDbSymbolTableRecord
100
AcDbLayerTableRecord
  2
NITEN
 70
     0
 62
     2
  6
PHANTOM
370
    -3
390
EF7C85BB6
  0
LAYER
  5
EF7C85575
330
EF7C8551D
100
AcDbSymbolTableRecord
100
AcDbLayerTableRecord
  2
HATCH
 70
     0
 62
     4
  6
CONTINUOUS
370
    -3
390
EF7C85BB6
  0
LAYER
  5
EF7C85576
330
EF7C8551D
100
AcDbSymbolTableRecord
100
AcDbLayerTableRecord
  2
SUNPOU
 70
     0
 62
     3
  6
CONTINUOUS
370
    -3
390
EF7C85BB6
  0
LAYER
  5
EF7C85577
330
EF7C8551D
100
AcDbSymbolTableRecord
100
AcDbLayerTableRecord
  2
TEXT
 70
     0
 62
     3
  6
CONTINUOUS
370
    -3
390
EF7C85BB6
  0
LAYER
  5
EF7C85578
330
EF7C8551D
100
AcDbSymbolTableRecord
100
AcDbLayerTableRecord
  2
SAISEN
 70
     0
 62
     4
  6
CONTINUOUS
370
    -3
390
EF7C85BB6
  0
LAYER
  5
EF7C85579
330
EF7C8551D
100
AcDbSymbolTableRecord
100
AcDbLayerTableRecord
  2
JISSEN
 70
     0
 62
     7
  6
CONTINUOUS
370
    -3
390
EF7C85BB6
  0
LAYER
  5
EF7C8557D
330
EF7C8551D
100
AcDbSymbolTableRecord
100
AcDbLayerTableRecord
  2
WAKU
 70
     0
 62
     5
  6
CONTINUOUS
370
    -3
390
EF7C85BB6
  0
LAYER
  5
EF7C87120
330
EF7C8551D
100
AcDbSymbolTableRecord
100
AcDbLayerTableRecord
  2
ITTEN
 70
     0
 62
     1
  6
CENTER
370
    -3
390
EF7C85BB6
  0
LAYER
  5
EF7C8806E
330
EF7C8551D
100
AcDbSymbolTableRecord
100
AcDbLayerTableRecord
  2
TENSEN
 70
     0
 62
     2
  6
HIDDEN
370
    -3
390
EF7C85BB6
  0
LAYER
  5
EF7C8806F
330
EF7C8551D
100
AcDbSymbolTableRecord
100
AcDbLayerTableRecord
  2
HOJYO
 70
     0
 62
     7
  6
CONTINUOUS
370
    -3
390
EF7C85BB6
  0
ENDTAB
  0
TABLE
  2
STYLE
  5
EF7C8551E
330
0
100
AcDbSymbolTable
 70
     4
  0
STYLE
  5
EF7C8552A
330
EF7C8551E
100
AcDbSymbolTableRecord
100
AcDbTextStyleTableRecord
  2
STANDARD
 70
     0
 40
0.0
 41
1.0
 50
0.0
 71
     0
 42
1.5
  3
SIMPLEX
  4

  0
STYLE
  5
EF7C85558
330
EF7C8551E
100
AcDbSymbolTableRecord
100
AcDbTextStyleTableRecord
  2
K
 70
     0
 40
0.0
 41
1.0
 50
0.0
 71
     0
 42
3.0
  3
ROMANS
  4
BIGFONT
  0
STYLE
  5
EF7C8555B
330
EF7C8551E
100
AcDbSymbolTableRecord
100
AcDbTextStyleTableRecord
  2
BIGFONT
 70
     0
 40
0.0
 41
1.0
 50
0.0
 71
     0
 42
3.0
  3
txt.shx
  4
bigfont
  0
STYLE
  5
EF7C88070
330
EF7C8551E
100
AcDbSymbolTableRecord
100
AcDbTextStyleTableRecord
  2
ROMANS
 70
     0
 40
0.0
 41
0.8
 50
0.0
 71
     0
 42
6.0
  3
romans
  4

  0
ENDTAB
  0
TABLE
  2
VIEW
  5
EF7C85521
330
0
100
AcDbSymbolTable
 70
     0
  0
ENDTAB
  0
TABLE
  2
UCS
  5
EF7C85522
330
0
100
AcDbSymbolTable
 70
     0
  0
ENDTAB
  0
TABLE
  2
APPID
  5
EF7C85524
330
0
100
AcDbSymbolTable
 70
     1
  0
APPID
  5
EF7C8552B
330
EF7C85524
100
AcDbSymbolTableRecord
100
AcDbRegAppTableRecord
  2
ACAD
 70
     0
  0
ENDTAB
  0
TABLE
  2
DIMSTYLE
  5
EF7C85525
330
0
100
AcDbSymbolTable
 70
     1
100
AcDbDimStyleTable
 71
     1
340
EF7C85571
  0
DIMSTYLE
105
EF7C85571
330
EF7C85525
100
AcDbSymbolTableRecord
100
AcDbDimStyleTableRecord
  2
IMAO
 70
     0
 41
1.5
 42
1.0
 43
6.0
 44
1.0
 47
495.0
 73
     0
 74
     0
 77
     1
 78
     8
140
3.0
141
0.0
172
     1
174
     1
271
     2
272
     2
284
     8
285
     8
286
     8
340
EF7C8555B
341
EF7C85543
342
EF7C85543
343
EF7C85543
344
EF7C85543
  0
ENDTAB
  0
TABLE
  2
BLOCK_RECORD
  5
EF7C8551C
330
0
100
AcDbSymbolTable
 70
    10
  0
BLOCK_RECORD
  5
EF7C85532
102
{ACAD_XDICTIONARY
360
EF7C85D9A
102
}
330
EF7C8551C
100
AcDbSymbolTableRecord
100
AcDbBlockTableRecord
  2
*MODEL_SPACE
340
EF7C88046
  0
BLOCK_RECORD
  5
EF7C8552F
102
{ACAD_XDICTIONARY
360
EF7C85D98
102
}
330
EF7C8551C
100
AcDbSymbolTableRecord
100
AcDbBlockTableRecord
  2
*PAPER_SPACE
340
EF7C88047
  0
BLOCK_RECORD
  5
EF7C85537
330
EF7C8551C
100
AcDbSymbolTableRecord
100
AcDbBlockTableRecord
  2
ARROW
340
0
102
{BLKREFS
331
EF7C87A03
102
}
  0
BLOCK_RECORD
  5
EF7C8553B
330
EF7C8551C
100
AcDbSymbolTableRecord
100
AcDbBlockTableRecord
  2
WAKU
340
0
102
{BLKREFS
331
EAFFB3CF7
331
EF7C87C98
102
}
  0
BLOCK_RECORD
  5
EF7C8553D
330
EF7C8551C
100
AcDbSymbolTableRecord
100
AcDbBlockTableRecord
  2
*X2
340
0
102
{BLKREFS
331
1E
102
}
  0
BLOCK_RECORD
  5
EF7C8553E
330
EF7C8551C
100
AcDbSymbolTableRecord
100
AcDbBlockTableRecord
  2
STDGX5
340
0
102
{BLKREFS
331
25
331
69
331
75
331
81
331
8D
331
8E
331
8F
331
90
331
91
331
92
331
93
331
94
331
95
331
96
331
97
331
98
331
99
331
9A
331
9B
331
9C
331
9D
331
9E
331
9F
331
A0
331
A1
331
A2
331
A3
331
A4
331
A5
331
3F6
331
402
331
424
331
430
331
43B
331
43C
331
43D
331
43E
331
43F
331
440
331
441
331
442
331
443
331
444
331
445
331
446
331
447
331
448
331
449
331
44A
331
44B
331
44C
331
44D
331
44E
331
44F
331
450
331
451
331
452
102
}
  0
BLOCK_RECORD
  5
EF7C8553F
330
EF7C8551C
100
AcDbSymbolTableRecord
100
AcDbBlockTableRecord
  2
*X4
340
0
102
{BLKREFS
331
64
331
2F7
102
}
  0
BLOCK_RECORD
  5
EF7C85540
330
EF7C8551C
100
AcDbSymbolTableRecord
100
AcDbBlockTableRecord
  2
*X5
340
0
102
{BLKREFS
331
70
331
3FD
102
}
  0
BLOCK_RECORD
  5
EF7C85541
330
EF7C8551C
100
AcDbSymbolTableRecord
100
AcDbBlockTableRecord
  2
*X6
340
0
102
{BLKREFS
331
7C
331
41F
102
}
  0
BLOCK_RECORD
  5
EF7C85542
330
EF7C8551C
100
AcDbSymbolTableRecord
100
AcDbBlockTableRecord
  2
*X7
340
0
102
{BLKREFS
331
88
331
42B
102
}
  0
BLOCK_RECORD
  5
EF7C85543
330
EF7C8551C
100
AcDbSymbolTableRecord
100
AcDbBlockTableRecord
  2
ARROWANG
340
0
  0
BLOCK_RECORD
  5
EF7C85544
330
EF7C8551C
100
AcDbSymbolTableRecord
100
AcDbBlockTableRecord
  2
STDR12J
340
0
102
{BLKREFS
331
4CF3
102
}
  0
ENDTAB
  0
ENDSEC
  0
SECTION
  2
BLOCKS
  0
BLOCK
  5
EF7C85580
330
EF7C85532
100
AcDbEntity
  8
0
100
AcDbBlockBegin
  2
*MODEL_SPACE
 70
     0
 10
0.0
 20
0.0
 30
0.0
  3
*MODEL_SPACE
  1

  0
ENDBLK
  5
EF7C85581
330
EF7C85532
100
AcDbEntity
  8
0
100
AcDbBlockEnd
  0
BLOCK
  5
EF7C8557E
330
EF7C8552F
100
AcDbEntity
 67
     1
  8
0
100
AcDbBlockBegin
  2
*PAPER_SPACE
 70
     0
 10
0.0
 20
0.0
 30
0.0
  3
*PAPER_SPACE
  1

  0
ENDBLK
  5
EF7C8557F
330
EF7C8552F
100
AcDbEntity
 67
     1
  8
0
100
AcDbBlockEnd
  0
BLOCK
  5
499
330
EF7C85537
100
AcDbEntity
  8
0
100
AcDbBlockBegin
  2
ARROW
 70
     0
 10
1.0
 20
0.5
 30
0.0
  3
ARROW
  1

  0
LINE
  5
49A
330
EF7C85537
100
AcDbEntity
  8
0
100
AcDbLine
 10
1.0
 20
0.5
 30
0.0
 11
-0.5000000000000214
 21
0.0980762113533018
 31
0.0
  0
LINE
  5
49B
330
EF7C85537
100
AcDbEntity
  8
0
100
AcDbLine
 10
0.0
 20
0.5
 30
0.0
 11
1.0
 21
0.5
 31
0.0
  0
LINE
  5
49C
330
EF7C85537
100
AcDbEntity
  8
0
100
AcDbLine
 10
1.0
 20
0.5
 30
0.0
 11
-0.4999999999999575
 21
0.9019237886467408
 31
0.0
  0
ENDBLK
  5
49D
330
EF7C85537
100
AcDbEntity
  8
0
100
AcDbBlockEnd
  0
BLOCK
  5
4A7
330
EF7C8553B
100
AcDbEntity
  8
0
100
AcDbBlockBegin
  2
WAKU
 70
     0
 10
0.0
 20
0.0
 30
0.0
  3
WAKU
  1

  0
LINE
  5
4A8
330
EF7C8553B
100
AcDbEntity
  8
WAKU
100
AcDbLine
 10
0.9999999959999998
 20
0.0
 30
0.0
 11
0.9999999959999998
 21
0.9999999999999998
 31
0.0
  0
LINE
  5
4A9
330
EF7C8553B
100
AcDbEntity
  8
WAKU
100
AcDbLine
 10
0.0
 20
0.9999999999999998
 30
0.0
 11
0.9999999959999998
 21
0.9999999999999998
 31
0.0
  0
LINE
  5
4AA
330
EF7C8553B
100
AcDbEntity
  8
WAKU
100
AcDbLine
 10
0.9999999959999998
 20
0.0
 30
0.0
 11
0.0
 21
0.0
 31
0.0
  0
LINE
  5
4AB
330
EF7C8553B
100
AcDbEntity
  8
WAKU
100
AcDbLine
 10
0.0
 20
0.0
 30
0.0
 11
0.0
 21
0.9999999999999998
 31
0.0
  0
ENDBLK
  5
4AC
330
EF7C8553B
100
AcDbEntity
  8
0
100
AcDbBlockEnd
  0
BLOCK
  5
2764
330
EF7C8553D
100
AcDbEntity
  8
0
100
AcDbBlockBegin
  2
*X2
 70
     1
 10
0.0
 20
0.0
 30
0.0
  3
*X2
  1

  0
ENDBLK
  5
2765
330
EF7C8553D
100
AcDbEntity
  8
0
100
AcDbBlockEnd
  0
BLOCK
  5
2766
330
EF7C8553E
100
AcDbEntity
  8
0
100
AcDbBlockBegin
  2
STDGX5
 70
     0
 10
0.0
 20
0.0
 30
0.0
  3
STDGX5
  1

  0
ENDBLK
  5
2767
330
EF7C8553E
100
AcDbEntity
  8
0
100
AcDbBlockEnd
  0
BLOCK
  5
2F5A
330
EF7C8553F
100
AcDbEntity
  8
0
100
AcDbBlockBegin
  2
*X4
 70
     1
 10
0.0
 20
0.0
 30
0.0
  3
*X4
  1

  0
ENDBLK
  5
2F5B
330
EF7C8553F
100
AcDbEntity
  8
0
100
AcDbBlockEnd
  0
BLOCK
  5
32BB
330
EF7C85540
100
AcDbEntity
  8
0
100
AcDbBlockBegin
  2
*X5
 70
     1
 10
0.0
 20
0.0
 30
0.0
  3
*X5
  1

  0
ENDBLK
  5
32BC
330
EF7C85540
100
AcDbEntity
  8
0
100
AcDbBlockEnd
  0
BLOCK
  5
372F
330
EF7C85541
100
AcDbEntity
  8
0
100
AcDbBlockBegin
  2
*X6
 70
     1
 10
0.0
 20
0.0
 30
0.0
  3
*X6
  1

  0
ENDBLK
  5
3730
330
EF7C85541
100
AcDbEntity
  8
0
100
AcDbBlockEnd
  0
BLOCK
  5
3A6D
330
EF7C85542
100
AcDbEntity
  8
0
100
AcDbBlockBegin
  2
*X7
 70
     1
 10
0.0
 20
0.0
 30
0.0
  3
*X7
  1

  0
ENDBLK
  5
3A6E
330
EF7C85542
100
AcDbEntity
  8
0
100
AcDbBlockEnd
  0
BLOCK
  5
4CC9
330
EF7C85543
100
AcDbEntity
  8
0
100
AcDbBlockBegin
  2
ARROWANG
 70
     0
 10
0.0
 20
0.0
 30
0.0
  3
ARROWANG
  1

  0
LINE
  5
4CCA
330
EF7C85543
100
AcDbEntity
  8
SUNPOU
100
AcDbLine
 10
0.0
 20
0.0
 30
0.0
 11
-1.499999999999956
 21
0.401923788646741
 31
0.0
  0
LINE
  5
4CCB
330
EF7C85543
100
AcDbEntity
  8
SUNPOU
100
AcDbLine
 10
0.0
 20
0.0
 30
0.0
 11
-1.500000000000027
 21
-0.4019237886467124
 31
0.0
  0
ENDBLK
  5
4CCC
330
EF7C85543
100
AcDbEntity
  8
0
100
AcDbBlockEnd
  0
BLOCK
  5
4CCD
330
EF7C85544
100
AcDbEntity
  8
0
100
AcDbBlockBegin
  2
STDR12J
 70
     0
 10
0.0
 20
0.0
 30
0.0
  3
STDR12J
  1

  0
ENDBLK
  5
4CF2
330
EF7C85544
100
AcDbEntity
  8
0
100
AcDbBlockEnd
  0
ENDSEC
  0
SECTION
  2
ENTITIES
  0
TEXT
  5
1
330
EF7C85532
100
AcDbEntity
  8
SUNPOU
100
AcDbText
 10
95.05869565217388
 20
43.7966872748706
 30
0.0
 40
1.5
  1
                          
100
AcDbText
  0
TEXT
  5
2
330
EF7C85532
100
AcDbEntity
  8
SUNPOU
100
AcDbText
 10
332.2793466870868
 20
21.8983436374353
 30
0.0
 40
0.75
  1
                          
100
AcDbText
  0
TEXT
  5
1A
330
EF7C85532
100
AcDbEntity
  8
SUNPOU
100
AcDbText
 10
289.9834441000535
 20
43.7966872748706
 30
0.0
 40
1.5
  1
                          
100
AcDbText
  0
TEXT
  5
1B
330
EF7C85532
100
AcDbEntity
  8
SUNPOU
100
AcDbText
 10
527.2040951349664
 20
21.8983436374353
 30
0.0
 40
0.75
  1
                          
100
AcDbText
  0
TEXT
  5
1C
330
EF7C85532
100
AcDbEntity
  8
SUNPOU
100
AcDbText
 10
490.6272568090836
 20
43.79668727487056
 30
0.0
 40
1.5
  1
                          
100
AcDbText
  0
TEXT
  5
1D
330
EF7C85532
100
AcDbEntity
  8
SUNPOU
100
AcDbText
 10
727.8479078439966
 20
21.89834363743526
 30
0.0
 40
0.75
  1
                          
100
AcDbText
  0
INSERT
  5
1E
330
EF7C85532
100
AcDbEntity
  8
HATCH
100
AcDbBlockReference
  2
*X2
 10
194.9247484478796
 20
0.0
 30
0.0
  0
TEXT
  5
1F
330
EF7C85532
100
AcDbEntity
  8
SUNPOU
100
AcDbText
 10
493.0101992368963
 20
43.7966872748706
 30
0.0
 40
1.5
  1
                          
100
AcDbText
  0
TEXT
  5
20
330
EF7C85532
100
AcDbEntity
  8
SUNPOU
100
AcDbText
 10
730.2308502718093
 20
21.8983436374353
 30
0.0
 40
0.75
  1
                          
100
AcDbText
  0
TEXT
  5
21
330
EF7C85532
100
AcDbEntity
  8
SUNPOU
100
AcDbText
 10
482.0486607753578
 20
43.7966872748706
 30
0.0
 40
1.5
  1
                          
100
AcDbText
  0
TEXT
  5
22
330
EF7C85532
100
AcDbEntity
  8
SUNPOU
100
AcDbText
 10
719.269311810271
 20
21.8983436374353
 30
0.0
 40
0.75
  1
                          
100
AcDbText
  0
INSERT
  5
25
330
EF7C85532
100
AcDbEntity
  8
JISSEN
100
AcDbBlockReference
  2
STDGX5
 10
0.0
 20
0.0
 30
0.0
  0
TEXT
  5
60
330
EF7C85532
100
AcDbEntity
  8
SUNPOU
100
AcDbText
 10
274.0586949361738
 20
43.7966872748706
 30
0.0
 40
1.5
  1
                          
100
AcDbText
  0
TEXT
  5
61
330
EF7C85532
100
AcDbEntity
  8
SUNPOU
100
AcDbText
 10
511.2793459710869
 20
21.8983436374353
 30
0.0
 40
0.75
  1
                          
100
AcDbText
  0
TEXT
  5
62
330
EF7C85532
100
AcDbEntity
  8
SUNPOU
100
AcDbText
 10
474.702507645204
 20
43.79668727487056
 30
0.0
 40
1.5
  1
                          
100
AcDbText
  0
TEXT
  5
63
330
EF7C85532
100
AcDbEntity
  8
SUNPOU
100
AcDbText
 10
711.923158680117
 20
21.89834363743526
 30
0.0
 40
0.75
  1
                          
100
AcDbText
  0
INSERT
  5
64
330
EF7C85532
100
AcDbEntity
  8
HATCH
100
AcDbBlockReference
  2
*X4
 10
178.999999284
 20
0.0
 30
0.0
  0
TEXT
  5
65
330
EF7C85532
100
AcDbEntity
  8
SUNPOU
100
AcDbText
 10
477.0854500730166
 20
43.7966872748706
 30
0.0
 40
1.5
  1
                          
100
AcDbText
  0
TEXT
  5
66
330
EF7C85532
100
AcDbEntity
  8
SUNPOU
100
AcDbText
 10
714.3061011079296
 20
21.8983436374353
 30
0.0
 40
0.75
  1
                          
100
AcDbText
  0
TEXT
  5
67
330
EF7C85532
100
AcDbEntity
  8
SUNPOU
100
AcDbText
 10
466.1239116114783
 20
43.7966872748706
 30
0.0
 40
1.5
  1
                          
100
AcDbText
  0
TEXT
  5
68
330
EF7C85532
100
AcDbEntity
  8
SUNPOU
100
AcDbText
 10
703.3445626463913
 20
21.8983436374353
 30
0.0
 40
0.75
  1
                          
100
AcDbText
  0
INSERT
  5
69
330
EF7C85532
100
AcDbEntity
  8
TEXT
100
AcDbBlockReference
  2
STDGX5
 10
178.999999284
 20
0.0
 30
0.0
  0
TEXT
  5
6A
330
EF7C85532
100
AcDbEntity
  8
SUNPOU
100
AcDbText
 10
453.0586949361739
 20
43.7966872748706
 30
0.0
 40
1.5
  1
                          
100
AcDbText
  0
TEXT
  5
6B
330
EF7C85532
100
AcDbEntity
  8
SUNPOU
100
AcDbText
 10
690.2793459710871
 20
21.8983436374353
 30
0.0
 40
0.75
  1
                          
100
AcDbText
  0
TEXT
  5
6C
330
EF7C85532
100
AcDbEntity
  8
SUNPOU
100
AcDbText
 10
647.9834433840535
 20
43.7966872748706
 30
0.0
 40
1.5
  1
                          
100
AcDbText
  0
TEXT
  5
6D
330
EF7C85532
100
AcDbEntity
  8
SUNPOU
100
AcDbText
 10
885.2040944189665
 20
21.8983436374353
 30
0.0
 40
0.75
  1
                          
100
AcDbText
  0
TEXT
  5
6E
330
EF7C85532
100
AcDbEntity
  8
SUNPOU
100
AcDbText
 10
848.6272560930835
 20
43.79668727487056
 30
0.0
 40
1.5
  1
                          
100
AcDbText
  0
TEXT
  5
6F
330
EF7C85532
100
AcDbEntity
  8
SUNPOU
100
AcDbText
 10
1085.847907127996
 20
21.89834363743526
 30
0.0
 40
0.75
  1
                          
100
AcDbText
  0
INSERT
  5
70
330
EF7C85532
100
AcDbEntity
  8
HATCH
100
AcDbBlockReference
  2
*X5
 10
552.9247477318796
 20
0.0
 30
0.0
  0
TEXT
  5
71
330
EF7C85532
100
AcDbEntity
  8
SUNPOU
100
AcDbText
 10
851.0101985208963
 20
43.7966872748706
 30
0.0
 40
1.5
  1
                          
100
AcDbText
  0
TEXT
  5
72
330
EF7C85532
100
AcDbEntity
  8
SUNPOU
100
AcDbText
 10
1088.230849555809
 20
21.8983436374353
 30
0.0
 40
0.75
  1
                          
100
AcDbText
  0
TEXT
  5
73
330
EF7C85532
100
AcDbEntity
  8
SUNPOU
100
AcDbText
 10
840.048660059358
 20
43.7966872748706
 30
0.0
 40
1.5
  1
                          
100
AcDbText
  0
TEXT
  5
74
330
EF7C85532
100
AcDbEntity
  8
SUNPOU
100
AcDbText
 10
1077.269311094271
 20
21.8983436374353
 30
0.0
 40
0.75
  1
                          
100
AcDbText
  0
INSERT
  5
75
330
EF7C85532
100
AcDbEntity
  8
JISSEN
100
AcDbBlockReference
  2
STDGX5
 10
357.999999284
 20
0.0
 30
0.0
  0
TEXT
  5
76
330
EF7C85532
100
AcDbEntity
  8
SUNPOU
100
AcDbText
 10
453.0586949361739
 20
43.7966872748706
 30
0.0
 40
1.5
  1
                          
100
AcDbText
  0
TEXT
  5
77
330
EF7C85532
100
AcDbEntity
  8
SUNPOU
100
AcDbText
 10
690.2793459710871
 20
21.8983436374353
 30
0.0
 40
0.75
  1
                          
100
AcDbText
  0
TEXT
  5
78
330
EF7C85532
100
AcDbEntity
  8
SUNPOU
100
AcDbText
 10
647.9834433840535
 20
43.7966872748706
 30
0.0
 40
1.5
  1
                          
100
AcDbText
  0
TEXT
  5
79
330
EF7C85532
100
AcDbEntity
  8
SUNPOU
100
AcDbText
 10
885.2040944189665
 20
21.8983436374353
 30
0.0
 40
0.75
  1
                          
100
AcDbText
  0
TEXT
  5
7A
330
EF7C85532
100
AcDbEntity
  8
SUNPOU
100
AcDbText
 10
848.6272560930835
 20
43.79668727487056
 30
0.0
 40
1.5
  1
                          
100
AcDbText
  0
TEXT
  5
7B
330
EF7C85532
100
AcDbEntity
  8
SUNPOU
100
AcDbText
 10
1085.847907127996
 20
21.89834363743526
 30
0.0
 40
0.75
  1
                          
100
AcDbText
  0
INSERT
  5
7C
330
EF7C85532
100
AcDbEntity
  8
HATCH
100
AcDbBlockReference
  2
*X6
 10
552.9247477318796
 20
0.0
 30
0.0
  0
TEXT
  5
7D
330
EF7C85532
100
AcDbEntity
  8
SUNPOU
100
AcDbText
 10
851.0101985208963
 20
43.7966872748706
 30
0.0
 40
1.5
  1
                          
100
AcDbText
  0
TEXT
  5
7E
330
EF7C85532
100
AcDbEntity
  8
SUNPOU
100
AcDbText
 10
1088.230849555809
 20
21.8983436374353
 30
0.0
 40
0.75
  1
                          
100
AcDbText
  0
TEXT
  5
7F
330
EF7C85532
100
AcDbEntity
  8
SUNPOU
100
AcDbText
 10
840.048660059358
 20
43.7966872748706
 30
0.0
 40
1.5
  1
                          
100
AcDbText
  0
TEXT
  5
80
330
EF7C85532
100
AcDbEntity
  8
SUNPOU
100
AcDbText
 10
1077.269311094271
 20
21.8983436374353
 30
0.0
 40
0.75
  1
                          
100
AcDbText
  0
INSERT
  5
81
330
EF7C85532
100
AcDbEntity
  8
JISSEN
100
AcDbBlockReference
  2
STDGX5
 10
357.999999284
 20
0.0
 30
0.0
  0
TEXT
  5
82
330
EF7C85532
100
AcDbEntity
  8
SUNPOU
100
AcDbText
 10
632.0586942201738
 20
43.7966872748706
 30
0.0
 40
1.5
  1
                          
100
AcDbText
  0
TEXT
  5
83
330
EF7C85532
100
AcDbEntity
  8
SUNPOU
100
AcDbText
 10
869.2793452550871
 20
21.8983436374353
 30
0.0
 40
0.75
  1
                          
100
AcDbText
  0
TEXT
  5
84
330
EF7C85532
100
AcDbEntity
  8
SUNPOU
100
AcDbText
 10
826.9834426680533
 20
43.7966872748706
 30
0.0
 40
1.5
  1
                          
100
AcDbText
  0
TEXT
  5
85
330
EF7C85532
100
AcDbEntity
  8
SUNPOU
100
AcDbText
 10
1064.204093702966
 20
21.8983436374353
 30
0.0
 40
0.75
  1
                          
100
AcDbText
  0
TEXT
  5
86
330
EF7C85532
100
AcDbEntity
  8
SUNPOU
100
AcDbText
 10
1027.627255377083
 20
43.79668727487056
 30
0.0
 40
1.5
  1
                          
100
AcDbText
  0
TEXT
  5
87
330
EF7C85532
100
AcDbEntity
  8
SUNPOU
100
AcDbText
 10
1264.847906411996
 20
21.89834363743526
 30
0.0
 40
0.75
  1
                          
100
AcDbText
  0
INSERT
  5
88
330
EF7C85532
100
AcDbEntity
  8
HATCH
100
AcDbBlockReference
  2
*X7
 10
731.9247470158797
 20
0.0
 30
0.0
  0
TEXT
  5
89
330
EF7C85532
100
AcDbEntity
  8
SUNPOU
100
AcDbText
 10
1030.010197804895
 20
43.7966872748706
 30
0.0
 40
1.5
  1
                          
100
AcDbText
  0
TEXT
  5
8A
330
EF7C85532
100
AcDbEntity
  8
SUNPOU
100
AcDbText
 10
1267.230848839808
 20
21.8983436374353
 30
0.0
 40
0.75
  1
                          
100
AcDbText
  0
TEXT
  5
8B
330
EF7C85532
100
AcDbEntity
  8
SUNPOU
100
AcDbText
 10
1019.048659343358
 20
43.7966872748706
 30
0.0
 40
1.5
  1
                          
100
AcDbText
  0
TEXT
  5
8C
330
EF7C85532
100
AcDbEntity
  8
SUNPOU
100
AcDbText
 10
1256.269310378271
 20
21.8983436374353
 30
0.0
 40
0.75
  1
                          
100
AcDbText
  0
INSERT
  5
8D
330
EF7C85532
100
AcDbEntity
  8
JISSEN
100
AcDbBlockReference
  2
STDGX5
 10
536.999998568
 20
0.0
 30
0.0
  0
INSERT
  5
8E
330
EF7C85532
100
AcDbEntity
  8
SUNPOU
100
AcDbBlockReference
  2
STDGX5
 10
739.0804232644236
 20
50.83533235670902
 30
0.0
 41
0.5
 42
0.5
 43
0.5
  0
INSERT
  5
8F
330
EF7C85532
100
AcDbEntity
  8
SUNPOU
100
AcDbBlockReference
  2
STDGX5
 10
726.2208210623692
 20
105.0763138619288
 30
0.0
 41
0.5
 42
0.5
 43
0.5
  0
INSERT
  5
90
330
EF7C85532
100
AcDbEntity
  8
HATCH
100
AcDbBlockReference
  2
STDGX5
 10
852.3985550581901
 20
151.7065097967401
 30
0.0
 41
0.5
 42
0.5
 43
0.5
  0
INSERT
  5
91
330
EF7C85532
100
AcDbEntity
  8
HATCH
100
AcDbBlockReference
  2
STDGX5
 10
866.6806796277283
 20
102.7017487639612
 30
0.0
 41
0.5
 42
0.5
 43
0.5
  0
INSERT
  5
92
330
EF7C85532
100
AcDbEntity
  8
TEXT
100
AcDbBlockReference
  2
STDGX5
 10
970.3434408521969
 20
102.8213468229236
 30
0.0
 41
0.5
 42
0.5
 43
0.5
  0
INSERT
  5
93
330
EF7C85532
100
AcDbEntity
  8
SUNPOU
100
AcDbBlockReference
  2
STDGX5
 10
996.1728907397867
 20
174.5475645486173
 30
0.0
 41
0.5
 42
0.5
 43
0.5
  0
INSERT
  5
94
330
EF7C85532
100
AcDbEntity
  8
TEXT
100
AcDbBlockReference
  2
STDGX5
 10
725.7513886810995
 20
124.5860190441302
 30
0.0
 41
0.5
 42
0.5
 43
0.5
  0
INSERT
  5
95
330
EF7C85532
100
AcDbEntity
  8
HATCH
100
AcDbBlockReference
  2
STDGX5
 10
777.1755722656421
 20
145.5222028932424
 30
0.0
 41
0.5
 42
0.5
 43
0.5
  0
INSERT
  5
96
330
EF7C85532
100
AcDbEntity
  8
SUNPOU
100
AcDbBlockReference
  2
STDGX5
 10
846.1963575359604
 20
112.6957974729892
 30
0.0
 41
0.5
 42
0.5
 43
0.5
  0
INSERT
  5
97
330
EF7C85532
100
AcDbEntity
  8
SUNPOU
100
AcDbBlockReference
  2
STDGX5
 10
916.6681156211122
 20
121.7330617103084
 30
0.0
 41
0.5
 42
0.5
 43
0.5
  0
INSERT
  5
98
330
EF7C85532
100
AcDbEntity
  8
TEXT
100
AcDbBlockReference
  2
STDGX5
 10
983.7969461426766
 20
84.61852224867081
 30
0.0
 41
0.5
 42
0.5
 43
0.5
  0
INSERT
  5
99
330
EF7C85532
100
AcDbEntity
  8
HATCH
100
AcDbBlockReference
  2
STDGX5
 10
974.2802715042101
 20
136.484938655923
 30
0.0
 41
0.5
 42
0.5
 43
0.5
  0
INSERT
  5
9A
330
EF7C85532
100
AcDbEntity
  8
SUNPOU
100
AcDbBlockReference
  2
STDGX5
 10
749.7834008663488
 20
95.14721172234004
 30
0.0
 41
0.5
 42
0.5
 43
0.5
  0
INSERT
  5
9B
330
EF7C85532
100
AcDbEntity
  8
SUNPOU
100
AcDbBlockReference
  2
STDGX5
 10
736.9237986642947
 20
149.3881932275598
 30
0.0
 41
0.5
 42
0.5
 43
0.5
  0
INSERT
  5
9C
330
EF7C85532
100
AcDbEntity
  8
HATCH
100
AcDbBlockReference
  2
STDGX5
 10
863.1015326601156
 20
196.0183891623711
 30
0.0
 41
0.5
 42
0.5
 43
0.5
  0
INSERT
  5
9D
330
EF7C85532
100
AcDbEntity
  8
HATCH
100
AcDbBlockReference
  2
STDGX5
 10
877.3836572296538
 20
147.0136281295922
 30
0.0
 41
0.5
 42
0.5
 43
0.5
  0
INSERT
  5
9E
330
EF7C85532
100
AcDbEntity
  8
TEXT
100
AcDbBlockReference
  2
STDGX5
 10
981.0464184541222
 20
147.1332261885546
 30
0.0
 41
0.5
 42
0.5
 43
0.5
  0
INSERT
  5
9F
330
EF7C85532
100
AcDbEntity
  8
SUNPOU
100
AcDbBlockReference
  2
STDGX5
 10
1006.875868341712
 20
218.8594439142483
 30
0.0
 41
0.5
 42
0.5
 43
0.5
  0
INSERT
  5
A0
330
EF7C85532
100
AcDbEntity
  8
TEXT
100
AcDbBlockReference
  2
STDGX5
 10
736.454366283025
 20
168.8978984097611
 30
0.0
 41
0.5
 42
0.5
 43
0.5
  0
INSERT
  5
A1
330
EF7C85532
100
AcDbEntity
  8
HATCH
100
AcDbBlockReference
  2
STDGX5
 10
787.8785498675677
 20
189.8340822588734
 30
0.0
 41
0.5
 42
0.5
 43
0.5
  0
INSERT
  5
A2
330
EF7C85532
100
AcDbEntity
  8
SUNPOU
100
AcDbBlockReference
  2
STDGX5
 10
856.899335137886
 20
157.0076768386202
 30
0.0
 41
0.5
 42
0.5
 43
0.5
  0
INSERT
  5
A3
330
EF7C85532
100
AcDbEntity
  8
SUNPOU
100
AcDbBlockReference
  2
STDGX5
 10
927.3710932230379
 20
166.0449410759395
 30
0.0
 41
0.5
 42
0.5
 43
0.5
  0
INSERT
  5
A4
330
EF7C85532
100
AcDbEntity
  8
TEXT
100
AcDbBlockReference
  2
STDGX5
 10
994.4999237446024
 20
128.9304016143017
 30
0.0
 41
0.5
 42
0.5
 43
0.5
  0
INSERT
  5
A5
330
EF7C85532
100
AcDbEntity
  8
HATCH
100
AcDbBlockReference
  2
STDGX5
 10
984.9832491061354
 20
180.7968180215541
 30
0.0
 41
0.5
 42
0.5
 43
0.5
  0
TEXT
  5
DE
330
EF7C85532
100
AcDbEntity
  8
SUNPOU
100
AcDbText
 10
274.0586949361738
 20
43.7966872748706
 30
0.0
 40
1.5
  1
                          
100
AcDbText
  0
TEXT
  5
145
330
EF7C85532
100
AcDbEntity
  8
SUNPOU
100
AcDbText
 10
511.2793459710869
 20
21.8983436374353
 30
0.0
 40
0.75
  1
                          
100
AcDbText
  0
TEXT
  5
265
330
EF7C85532
100
AcDbEntity
  8
SUNPOU
100
AcDbText
 10
474.702507645204
 20
43.79668727487056
 30
0.0
 40
1.5
  1
                          
100
AcDbText
  0
TEXT
  5
266
330
EF7C85532
100
AcDbEntity
  8
SUNPOU
100
AcDbText
 10
711.923158680117
 20
21.89834363743526
 30
0.0
 40
0.75
  1
                          
100
AcDbText
  0
INSERT
  5
2F7
330
EF7C85532
100
AcDbEntity
  8
HATCH
100
AcDbBlockReference
  2
*X4
 10
178.999999284
 20
0.0
 30
0.0
  0
TEXT
  5
31A
330
EF7C85532
100
AcDbEntity
  8
SUNPOU
100
AcDbText
 10
477.0854500730166
 20
43.7966872748706
 30
0.0
 40
1.5
  1
                          
100
AcDbText
  0
TEXT
  5
31C
330
EF7C85532
100
AcDbEntity
  8
SUNPOU
100
AcDbText
 10
714.3061011079296
 20
21.8983436374353
 30
0.0
 40
0.75
  1
                          
100
AcDbText
  0
TEXT
  5
3A6
330
EF7C85532
100
AcDbEntity
  8
TEXT
100
AcDbText
 10
100.9999992839998
 20
244.9999999999999
 30
0.0
 40
3.0
  1
 
  7
K
100
AcDbText
  0
TEXT
  5
3AB
330
EF7C85532
100
AcDbEntity
  8
SUNPOU
100
AcDbText
 10
466.1239116114783
 20
43.7966872748706
 30
0.0
 40
1.5
  1
                          
100
AcDbText
  0
TEXT
  5
3AC
330
EF7C85532
100
AcDbEntity
  8
SUNPOU
100
AcDbText
 10
703.3445626463913
 20
21.8983436374353
 30
0.0
 40
0.75
  1
                          
100
AcDbText
  0
INSERT
  5
3F6
330
EF7C85532
100
AcDbEntity
  8
TEXT
100
AcDbBlockReference
  2
STDGX5
 10
178.999999284
 20
0.0
 30
0.0
  0
TEXT
  5
3F7
330
EF7C85532
100
AcDbEntity
  8
SUNPOU
100
AcDbText
 10
453.0586949361739
 20
43.7966872748706
 30
0.0
 40
1.5
  1
                          
100
AcDbText
  0
TEXT
  5
3F8
330
EF7C85532
100
AcDbEntity
  8
SUNPOU
100
AcDbText
 10
690.2793459710871
 20
21.8983436374353
 30
0.0
 40
0.75
  1
                          
100
AcDbText
  0
TEXT
  5
3F9
330
EF7C85532
100
AcDbEntity
  8
SUNPOU
100
AcDbText
 10
647.9834433840535
 20
43.7966872748706
 30
0.0
 40
1.5
  1
                          
100
AcDbText
  0
TEXT
  5
3FA
330
EF7C85532
100
AcDbEntity
  8
SUNPOU
100
AcDbText
 10
885.2040944189665
 20
21.8983436374353
 30
0.0
 40
0.75
  1
                          
100
AcDbText
  0
TEXT
  5
3FB
330
EF7C85532
100
AcDbEntity
  8
SUNPOU
100
AcDbText
 10
848.6272560930835
 20
43.79668727487056
 30
0.0
 40
1.5
  1
                          
100
AcDbText
  0
TEXT
  5
3FC
330
EF7C85532
100
AcDbEntity
  8
SUNPOU
100
AcDbText
 10
1085.847907127996
 20
21.89834363743526
 30
0.0
 40
0.75
  1
                          
100
AcDbText
  0
INSERT
  5
3FD
330
EF7C85532
100
AcDbEntity
  8
HATCH
100
AcDbBlockReference
  2
*X5
 10
552.9247477318796
 20
0.0
 30
0.0
  0
TEXT
  5
3FE
330
EF7C85532
100
AcDbEntity
  8
SUNPOU
100
AcDbText
 10
851.0101985208963
 20
43.7966872748706
 30
0.0
 40
1.5
  1
                          
100
AcDbText
  0
TEXT
  5
3FF
330
EF7C85532
100
AcDbEntity
  8
SUNPOU
100
AcDbText
 10
1088.230849555809
 20
21.8983436374353
 30
0.0
 40
0.75
  1
                          
100
AcDbText
  0
TEXT
  5
400
330
EF7C85532
100
AcDbEntity
  8
SUNPOU
100
AcDbText
 10
840.048660059358
 20
43.7966872748706
 30
0.0
 40
1.5
  1
                          
100
AcDbText
  0
TEXT
  5
401
330
EF7C85532
100
AcDbEntity
  8
SUNPOU
100
AcDbText
 10
1077.269311094271
 20
21.8983436374353
 30
0.0
 40
0.75
  1
                          
100
AcDbText
  0
INSERT
  5
402
330
EF7C85532
100
AcDbEntity
  8
JISSEN
100
AcDbBlockReference
  2
STDGX5
 10
357.999999284
 20
0.0
 30
0.0
  0
TEXT
  5
409
330
EF7C85532
100
AcDbEntity
  8
SUNPOU
100
AcDbText
 10
453.0586949361739
 20
43.7966872748706
 30
0.0
 40
1.5
  1
                          
100
AcDbText
  0
TEXT
  5
40A
330
EF7C85532
100
AcDbEntity
  8
SUNPOU
100
AcDbText
 10
690.2793459710871
 20
21.8983436374353
 30
0.0
 40
0.75
  1
                          
100
AcDbText
  0
TEXT
  5
41B
330
EF7C85532
100
AcDbEntity
  8
SUNPOU
100
AcDbText
 10
647.9834433840535
 20
43.7966872748706
 30
0.0
 40
1.5
  1
                          
100
AcDbText
  0
TEXT
  5
41C
330
EF7C85532
100
AcDbEntity
  8
SUNPOU
100
AcDbText
 10
885.2040944189665
 20
21.8983436374353
 30
0.0
 40
0.75
  1
                          
100
AcDbText
  0
TEXT
  5
41D
330
EF7C85532
100
AcDbEntity
  8
SUNPOU
100
AcDbText
 10
848.6272560930835
 20
43.79668727487056
 30
0.0
 40
1.5
  1
                          
100
AcDbText
  0
TEXT
  5
41E
330
EF7C85532
100
AcDbEntity
  8
SUNPOU
100
AcDbText
 10
1085.847907127996
 20
21.89834363743526
 30
0.0
 40
0.75
  1
                          
100
AcDbText
  0
INSERT
  5
41F
330
EF7C85532
100
AcDbEntity
  8
HATCH
100
AcDbBlockReference
  2
*X6
 10
552.9247477318796
 20
0.0
 30
0.0
  0
TEXT
  5
420
330
EF7C85532
100
AcDbEntity
  8
SUNPOU
100
AcDbText
 10
851.0101985208963
 20
43.7966872748706
 30
0.0
 40
1.5
  1
                          
100
AcDbText
  0
TEXT
  5
421
330
EF7C85532
100
AcDbEntity
  8
SUNPOU
100
AcDbText
 10
1088.230849555809
 20
21.8983436374353
 30
0.0
 40
0.75
  1
                          
100
AcDbText
  0
TEXT
  5
422
330
EF7C85532
100
AcDbEntity
  8
SUNPOU
100
AcDbText
 10
840.048660059358
 20
43.7966872748706
 30
0.0
 40
1.5
  1
                          
100
AcDbText
  0
TEXT
  5
423
330
EF7C85532
100
AcDbEntity
  8
SUNPOU
100
AcDbText
 10
1077.269311094271
 20
21.8983436374353
 30
0.0
 40
0.75
  1
                          
100
AcDbText
  0
INSERT
  5
424
330
EF7C85532
100
AcDbEntity
  8
JISSEN
100
AcDbBlockReference
  2
STDGX5
 10
357.999999284
 20
0.0
 30
0.0
  0
TEXT
  5
425
330
EF7C85532
100
AcDbEntity
  8
SUNPOU
100
AcDbText
 10
632.0586942201738
 20
43.7966872748706
 30
0.0
 40
1.5
  1
                          
100
AcDbText
  0
TEXT
  5
426
330
EF7C85532
100
AcDbEntity
  8
SUNPOU
100
AcDbText
 10
869.2793452550871
 20
21.8983436374353
 30
0.0
 40
0.75
  1
                          
100
AcDbText
  0
TEXT
  5
427
330
EF7C85532
100
AcDbEntity
  8
SUNPOU
100
AcDbText
 10
826.9834426680533
 20
43.7966872748706
 30
0.0
 40
1.5
  1
                          
100
AcDbText
  0
TEXT
  5
428
330
EF7C85532
100
AcDbEntity
  8
SUNPOU
100
AcDbText
 10
1064.204093702966
 20
21.8983436374353
 30
0.0
 40
0.75
  1
                          
100
AcDbText
  0
TEXT
  5
429
330
EF7C85532
100
AcDbEntity
  8
SUNPOU
100
AcDbText
 10
1027.627255377083
 20
43.79668727487056
 30
0.0
 40
1.5
  1
                          
100
AcDbText
  0
TEXT
  5
42A
330
EF7C85532
100
AcDbEntity
  8
SUNPOU
100
AcDbText
 10
1264.847906411996
 20
21.89834363743526
 30
0.0
 40
0.75
  1
                          
100
AcDbText
  0
INSERT
  5
42B
330
EF7C85532
100
AcDbEntity
  8
HATCH
100
AcDbBlockReference
  2
*X7
 10
731.9247470158797
 20
0.0
 30
0.0
  0
TEXT
  5
42C
330
EF7C85532
100
AcDbEntity
  8
SUNPOU
100
AcDbText
 10
1030.010197804895
 20
43.7966872748706
 30
0.0
 40
1.5
  1
                          
100
AcDbText
  0
TEXT
  5
42D
330
EF7C85532
100
AcDbEntity
  8
SUNPOU
100
AcDbText
 10
1267.230848839808
 20
21.8983436374353
 30
0.0
 40
0.75
  1
                          
100
AcDbText
  0
TEXT
  5
42E
330
EF7C85532
100
AcDbEntity
  8
SUNPOU
100
AcDbText
 10
1019.048659343358
 20
43.7966872748706
 30
0.0
 40
1.5
  1
                          
100
AcDbText
  0
TEXT
  5
42F
330
EF7C85532
100
AcDbEntity
  8
SUNPOU
100
AcDbText
 10
1256.269310378271
 20
21.8983436374353
 30
0.0
 40
0.75
  1
                          
100
AcDbText
  0
INSERT
  5
430
330
EF7C85532
100
AcDbEntity
  8
JISSEN
100
AcDbBlockReference
  2
STDGX5
 10
536.999998568
 20
0.0
 30
0.0
  0
INSERT
  5
43B
330
EF7C85532
100
AcDbEntity
  8
SUNPOU
100
AcDbBlockReference
  2
STDGX5
 10
739.0804232644236
 20
50.83533235670902
 30
0.0
 41
0.5
 42
0.5
 43
0.5
  0
INSERT
  5
43C
330
EF7C85532
100
AcDbEntity
  8
SUNPOU
100
AcDbBlockReference
  2
STDGX5
 10
726.2208210623692
 20
105.0763138619288
 30
0.0
 41
0.5
 42
0.5
 43
0.5
  0
INSERT
  5
43D
330
EF7C85532
100
AcDbEntity
  8
HATCH
100
AcDbBlockReference
  2
STDGX5
 10
852.3985550581901
 20
151.7065097967401
 30
0.0
 41
0.5
 42
0.5
 43
0.5
  0
INSERT
  5
43E
330
EF7C85532
100
AcDbEntity
  8
HATCH
100
AcDbBlockReference
  2
STDGX5
 10
866.6806796277283
 20
102.7017487639612
 30
0.0
 41
0.5
 42
0.5
 43
0.5
  0
INSERT
  5
43F
330
EF7C85532
100
AcDbEntity
  8
TEXT
100
AcDbBlockReference
  2
STDGX5
 10
970.3434408521969
 20
102.8213468229236
 30
0.0
 41
0.5
 42
0.5
 43
0.5
  0
INSERT
  5
440
330
EF7C85532
100
AcDbEntity
  8
SUNPOU
100
AcDbBlockReference
  2
STDGX5
 10
996.1728907397867
 20
174.5475645486173
 30
0.0
 41
0.5
 42
0.5
 43
0.5
  0
INSERT
  5
441
330
EF7C85532
100
AcDbEntity
  8
TEXT
100
AcDbBlockReference
  2
STDGX5
 10
725.7513886810995
 20
124.5860190441302
 30
0.0
 41
0.5
 42
0.5
 43
0.5
  0
INSERT
  5
442
330
EF7C85532
100
AcDbEntity
  8
HATCH
100
AcDbBlockReference
  2
STDGX5
 10
777.1755722656421
 20
145.5222028932424
 30
0.0
 41
0.5
 42
0.5
 43
0.5
  0
INSERT
  5
443
330
EF7C85532
100
AcDbEntity
  8
SUNPOU
100
AcDbBlockReference
  2
STDGX5
 10
846.1963575359604
 20
112.6957974729892
 30
0.0
 41
0.5
 42
0.5
 43
0.5
  0
INSERT
  5
444
330
EF7C85532
100
AcDbEntity
  8
SUNPOU
100
AcDbBlockReference
  2
STDGX5
 10
916.6681156211122
 20
121.7330617103084
 30
0.0
 41
0.5
 42
0.5
 43
0.5
  0
INSERT
  5
445
330
EF7C85532
100
AcDbEntity
  8
TEXT
100
AcDbBlockReference
  2
STDGX5
 10
983.7969461426766
 20
84.61852224867081
 30
0.0
 41
0.5
 42
0.5
 43
0.5
  0
INSERT
  5
446
330
EF7C85532
100
AcDbEntity
  8
HATCH
100
AcDbBlockReference
  2
STDGX5
 10
974.2802715042101
 20
136.484938655923
 30
0.0
 41
0.5
 42
0.5
 43
0.5
  0
INSERT
  5
447
330
EF7C85532
100
AcDbEntity
  8
SUNPOU
100
AcDbBlockReference
  2
STDGX5
 10
749.7834008663488
 20
95.14721172234004
 30
0.0
 41
0.5
 42
0.5
 43
0.5
  0
INSERT
  5
448
330
EF7C85532
100
AcDbEntity
  8
SUNPOU
100
AcDbBlockReference
  2
STDGX5
 10
736.9237986642947
 20
149.3881932275598
 30
0.0
 41
0.5
 42
0.5
 43
0.5
  0
INSERT
  5
449
330
EF7C85532
100
AcDbEntity
  8
HATCH
100
AcDbBlockReference
  2
STDGX5
 10
863.1015326601156
 20
196.0183891623711
 30
0.0
 41
0.5
 42
0.5
 43
0.5
  0
INSERT
  5
44A
330
EF7C85532
100
AcDbEntity
  8
HATCH
100
AcDbBlockReference
  2
STDGX5
 10
877.3836572296538
 20
147.0136281295922
 30
0.0
 41
0.5
 42
0.5
 43
0.5
  0
INSERT
  5
44B
330
EF7C85532
100
AcDbEntity
  8
TEXT
100
AcDbBlockReference
  2
STDGX5
 10
981.0464184541222
 20
147.1332261885546
 30
0.0
 41
0.5
 42
0.5
 43
0.5
  0
INSERT
  5
44C
330
EF7C85532
100
AcDbEntity
  8
SUNPOU
100
AcDbBlockReference
  2
STDGX5
 10
1006.875868341712
 20
218.8594439142483
 30
0.0
 41
0.5
 42
0.5
 43
0.5
  0
INSERT
  5
44D
330
EF7C85532
100
AcDbEntity
  8
TEXT
100
AcDbBlockReference
  2
STDGX5
 10
736.454366283025
 20
168.8978984097611
 30
0.0
 41
0.5
 42
0.5
 43
0.5
  0
INSERT
  5
44E
330
EF7C85532
100
AcDbEntity
  8
HATCH
100
AcDbBlockReference
  2
STDGX5
 10
787.8785498675677
 20
189.8340822588734
 30
0.0
 41
0.5
 42
0.5
 43
0.5
  0
INSERT
  5
44F
330
EF7C85532
100
AcDbEntity
  8
SUNPOU
100
AcDbBlockReference
  2
STDGX5
 10
856.899335137886
 20
157.0076768386202
 30
0.0
 41
0.5
 42
0.5
 43
0.5
  0
INSERT
  5
450
330
EF7C85532
100
AcDbEntity
  8
SUNPOU
100
AcDbBlockReference
  2
STDGX5
 10
927.3710932230379
 20
166.0449410759395
 30
0.0
 41
0.5
 42
0.5
 43
0.5
  0
INSERT
  5
451
330
EF7C85532
100
AcDbEntity
  8
TEXT
100
AcDbBlockReference
  2
STDGX5
 10
994.4999237446024
 20
128.9304016143017
 30
0.0
 41
0.5
 42
0.5
 43
0.5
  0
INSERT
  5
452
330
EF7C85532
100
AcDbEntity
  8
HATCH
100
AcDbBlockReference
  2
STDGX5
 10
984.9832491061354
 20
180.7968180215541
 30
0.0
 41
0.5
 42
0.5
 43
0.5
  0
INSERT
  5
4CF3
330
EF7C85532
100
AcDbEntity
  8
JISSEN
100
AcDbBlockReference
  2
STDR12J
 10
0.0
 20
0.0
 30
0.0
  0
LINE
  5
EAFFB3C99
330
EF7C85532
100
AcDbEntity
  8
JISSEN
100
AcDbLine
 10
91.49999927599994
 20
276.9999999999999
 30
0.0
 11
180.9999992759999
 21
276.9999999999999
 31
0.0
  0
LINE
  5
EAFFB3C9A
330
EF7C85532
100
AcDbEntity
  8
JISSEN
100
AcDbLine
 10
91.49999927599994
 20
270.9999999999999
 30
0.0
 11
180.9999992759999
 21
270.9999999999999
 31
0.0
  0
TEXT
  5
EAFFB3C9B
330
EF7C85532
100
AcDbEntity
  8
TEXT
100
AcDbText
 10
107.8999992759999
 20
278.4999999999999
 30
0.0
 40
3.0
  1
名      称
  7
K
 72
     4
 11
116.4999992759999
 21
279.9999999999999
 31
0.0
100
AcDbText
  0
TEXT
  5
EAFFB3C9C
330
EF7C85532
100
AcDbEntity
  8
TEXT
100
AcDbText
 10
93.29999927599999
 20
278.4999999999999
 30
0.0
 40
3.0
  1
番号
  7
K
 72
     4
 11
96.49999927599999
 21
279.9999999999999
 31
0.0
100
AcDbText
  0
LINE
  5
EAFFB3C9D
330
EF7C85532
100
AcDbEntity
  8
JISSEN
100
AcDbLine
 10
91.49999927599994
 20
270.9999999999999
 30
0.0
 11
91.49999927599994
 21
282.9999999999998
 31
0.0
  0
LINE
  5
EAFFB3C9E
330
EF7C85532
100
AcDbEntity
  8
JISSEN
100
AcDbLine
 10
101.4999992759999
 20
282.9999999999998
 30
0.0
 11
101.4999992759999
 21
270.9999999999999
 31
0.0
  0
TEXT
  5
EAFFB3C9F
330
EF7C85532
100
AcDbEntity
  8
TEXT
100
AcDbText
 10
135.1999992759998
 20
278.4999999999999
 30
0.0
 40
3.0
  1
材    質
  7
K
 72
     4
 11
141.9999992759999
 21
279.9999999999999
 31
0.0
100
AcDbText
  0
LINE
  5
EAFFB3CA0
330
EF7C85532
100
AcDbEntity
  8
JISSEN
100
AcDbLine
 10
131.4999992759998
 20
282.9999999999998
 30
0.0
 11
131.4999992759998
 21
270.9999999999999
 31
0.0
  0
LINE
  5
EAFFB3CA1
330
EF7C85532
100
AcDbEntity
  8
JISSEN
100
AcDbLine
 10
152.4999992759999
 20
270.9999999999999
 30
0.0
 11
152.4999992759999
 21
282.9999999999998
 31
0.0
  0
TEXT
  5
EAFFB3CA2
330
EF7C85532
100
AcDbEntity
  8
TEXT
100
AcDbText
 10
165.6999992759998
 20
278.4999999999999
 30
0.0
 40
3.0
  1
備    考
  7
K
 72
     4
 11
172.4999992759999
 21
279.9999999999999
 31
0.0
100
AcDbText
  0
TEXT
  5
EAFFB3CA3
330
EF7C85532
100
AcDbEntity
  8
TEXT
100
AcDbText
 10
154.7999992759999
 20
278.4999999999999
 30
0.0
 40
3.0
  1
個数
  7
K
 72
     4
 11
157.9999992759999
 21
279.9999999999999
 31
0.0
100
AcDbText
  0
LINE
  5
EAFFB3CA4
330
EF7C85532
100
AcDbEntity
  8
JISSEN
100
AcDbLine
 10
163.4999992759999
 20
282.9999999999998
 30
0.0
 11
163.4999992759999
 21
270.9999999999999
 31
0.0
  0
TEXT
  5
EAFFB3CAC
330
EF7C85532
100
AcDbEntity
  8
TEXT
100
AcDbText
 10
95.28571356171429
 20
272.4999999999999
 30
0.0
 40
3.0
  1
1
  7
K
 72
     4
 11
96.49999927599999
 21
273.9999999999999
 31
0.0
100
AcDbText
  0
TEXT
  5
EAFFB3CC2
330
EF7C85532
100
AcDbEntity
  8
TEXT
100
AcDbText
 10
136.8249992759998
 20
274.2999999999999
 30
0.0
 40
3.0
  1
%%u      
  7
K
 72
     4
 11
141.9999992759999
 21
273.9999999999999
 31
0.0
100
AcDbText
  0
INSERT
  5
EAFFB3CF7
330
EF7C85532
100
AcDbEntity
  8
WAKU
100
AcDbBlockReference
  2
WAKU
 10
0.0
 20
0.0
 30
0.0
 41
181.0
 42
283.0
 43
181.0
  0
TEXT
  5
EF7C85BB1
330
EF7C85532
100
AcDbEntity
  8
TEXT
100
AcDbText
 10
156.6795477624092
 20
272.4999999999999
 30
0.0
 40
3.0
  1
1
  7
K
 72
     4
 11
157.8938334766949
 21
273.9999999999999
 31
0.0
100
AcDbText
  0
TEXT
  5
EF7C85D65
330
EF7C85532
100
AcDbEntity
  8
SUNPOU
100
AcDbText
 10
151.0437954454985
 20
7.849423898685245
 30
0.0
 40
3.0
  1
SDQU 取付状態
  7
K
100
AcDbText
  0
TEXT
  5
EF7C85D66
330
EF7C85532
100
AcDbEntity
  8
SUNPOU
100
AcDbText
 10
151.0437954454985
 20
2.849423898685244
 30
0.0
 40
3.0
  1
尺度　1/1
  7
K
100
AcDbText
  0
TEXT
  5
EF7C85DB5
330
EF7C85532
100
AcDbEntity
  8
TEXT
100
AcDbText
 10
104.902856418857
 20
272.642857142857
 30
0.0
 40
3.0
  1
SDQU型ヘッド
 41
0.9
  7
K
 72
     4
 11
116.4999992759999
 21
273.9999999999999
 31
0.0
100
AcDbText
  0
LWPOLYLINE
  5
EF7C873F5
330
EF7C85532
100
AcDbEntity
  8
NITEN
100
AcDbPolyline
 90
        5
 70
     0
 43
0.0
 10
73.00008343801606
 20
105.3886970905724
 10
73.00008343801606
 20
84.55097943942654
 42
-0.5882352941176476
 10
90.00008343801608
 20
84.55097943942654
 42
0.5882352941176477
 10
107.0000834380159
 20
84.55097943942684
 10
107.0000834380159
 20
105.3886970905724
  0
LWPOLYLINE
  5
EF7C873F6
330
EF7C85532
100
AcDbEntity
  8
NITEN
100
AcDbPolyline
 90
        2
 70
     0
 43
0.0
 10
73.00008343801597
 20
84.55097943942654
 42
0.5882352941176295
 10
90.00008343801608
 20
84.55097943942627
 42
0.5882352941176295
  0
LWPOLYLINE
  5
EF7C873FD
330
EF7C85532
100
AcDbEntity
  8
NITEN
100
AcDbPolyline
 90
       15
 70
     1
 43
0.0
 10
104.0000834380159
 20
145.8886970905723
 42
0.4142135623730927
 10
102.500083438016
 20
147.3886970905723
 10
79.40603226701956
 20
147.3886970905723
 10
77.50008343801606
 20
147.3886970905723
 42
0.4142135623730925
 10
76.00008343801606
 20
145.8886970905723
 10
76.00008343801606
 20
134.8426810643543
 42
-0.4142135623730943
 10
71.00008343801606
 20
129.8426810643543
 42
0.4142135623730951
 10
69.00008343801606
 20
127.8426810643543
 10
69.00008343801612
 20
107.3886970905724
 42
0.4142135623730949
 10
71.00008343801606
 20
105.3886970905724
 10
109.0000834380159
 20
105.3886970905724
 42
0.4142135623730951
 10
111.0000834380159
 20
107.3886970905724
 10
111.0000834380159
 20
127.8426810643543
 42
0.4142135623730951
 10
109.0000834380159
 20
129.8426810643543
 42
-0.4142135623730961
 10
104.0000834380159
 20
134.8426810643543
  0
TEXT
  5
EF7C879FF
330
EF7C85532
100
AcDbEntity
  8
SUNPOU
100
AcDbText
 10
111.7594063496401
 20
226.98286996766
 30
0.0
 40
4.5
  1
1
  7
K
 72
     4
 11
113.5808349210687
 21
229.23286996766
 31
0.0
100
AcDbText
  0
CIRCLE
  5
EF7C87A00
330
EF7C85532
100
AcDbEntity
  8
SUNPOU
100
AcDbCircle
 10
113.5808349210687
 20
229.23286996766
 30
0.0
 40
6.0
  0
LINE
  5
EF7C87A02
330
EF7C85532
100
AcDbEntity
  8
SUNPOU
100
AcDbLine
 10
101.297513138428
 20
203.9678695570626
 30
0.0
 11
110.9573807906807
 21
223.8368076602223
 31
0.0
  0
INSERT
  5
EF7C87A03
330
EF7C85532
100
AcDbEntity
  8
SUNPOU
100
AcDbBlockReference
  2
ARROW
 10
101.297513138428
 20
203.9678695570626
 30
0.0
 41
1.500000000000001
 42
1.5
 43
1.5
 50
244.0719355263534
  0
INSERT
  5
EF7C87C98
330
EF7C85532
100
AcDbEntity
  8
WAKU
100
AcDbBlockReference
  2
WAKU
 10
180.9999992759999
 20
0.0
 30
0.0
 41
181.0
 42
283.0
 43
181.0
  0
LWPOLYLINE
  5
EF7C87C9B
330
EF7C85532
100
AcDbEntity
  8
NITEN
100
AcDbPolyline
 90
       15
 70
     1
 43
0.0
 10
285.0000827140161
 20
145.8886970905723
 42
0.4142135623730927
 10
283.5000827140161
 20
147.3886970905723
 10
260.4060315430194
 20
147.3886970905723
 10
258.500082714016
 20
147.3886970905723
 42
0.4142135623730925
 10
257.000082714016
 20
145.8886970905723
 10
257.000082714016
 20
134.8426810643543
 42
-0.4142135623730943
 10
252.0000827140159
 20
129.8426810643543
 42
0.4142135623730951
 10
250.0000827140159
 20
127.8426810643543
 10
250.000082714016
 20
107.3886970905724
 42
0.4142135623730949
 10
252.0000827140159
 20
105.3886970905724
 10
290.0000827140161
 20
105.3886970905724
 42
0.4142135623730951
 10
292.0000827140161
 20
107.3886970905724
 10
292.0000827140161
 20
127.8426810643543
 42
0.4142135623730951
 10
290.0000827140161
 20
129.8426810643543
 42
-0.4142135623730961
 10
285.0000827140161
 20
134.8426810643543
  0
TEXT
  5
EF7C87CA2
330
EF7C85532
100
AcDbEntity
  8
SUNPOU
100
AcDbText
 10
332.0437947214985
 20
7.849423898685245
 30
0.0
 40
3.0
  1
SDQU 作動状態
  7
K
100
AcDbText
  0
TEXT
  5
EF7C87CA3
330
EF7C85532
100
AcDbEntity
  8
SUNPOU
100
AcDbText
 10
332.0437947214985
 20
2.849423898685244
 30
0.0
 40
3.0
  1
尺度　1/1
  7
K
100
AcDbText
  0
LWPOLYLINE
  5
EF7C87CA6
330
EF7C85532
100
AcDbEntity
  8
NITEN
100
AcDbPolyline
 90
        5
 70
     0
 43
0.0
 10
254.0000827140159
 20
105.3886970905724
 10
254.0000827140159
 20
84.55097943942654
 42
-0.5882352941176476
 10
271.000082714016
 20
84.55097943942654
 42
0.5882352941176477
 10
288.0000827140161
 20
84.55097943942684
 10
288.0000827140161
 20
105.3886970905724
  0
LWPOLYLINE
  5
EF7C87CA7
330
EF7C85532
100
AcDbEntity
  8
NITEN
100
AcDbPolyline
 90
        2
 70
     0
 43
0.0
 10
254.0000827140159
 20
84.55097943942654
 42
0.5882352941176295
 10
271.000082714016
 20
84.55097943942627
 42
0.5882352941176295
  0
LINE
  5
EF7C88532
330
EF7C85532
100
AcDbEntity
  8
SAISEN
100
AcDbLine
 10
80.92151501474196
 20
136.9672655138465
 30
0.0
 11
80.48658910975607
 21
150.8841989811521
 31
0.0
  0
LINE
  5
EF7C88533
330
EF7C85532
100
AcDbEntity
  8
JISSEN
100
AcDbLine
 10
79.33656908369036
 20
150.5008589724634
 30
0.0
 11
79.72202921010396
 21
138.1667513184847
 31
0.0
  0
LINE
  5
EF7C88534
330
EF7C85532
100
AcDbEntity
  8
SAISEN
100
AcDbLine
 10
99.07865186129058
 20
136.9672655138469
 30
0.0
 11
99.51357776627625
 21
150.8841989811521
 31
0.0
  0
LINE
  5
EF7C88535
330
EF7C85532
100
AcDbEntity
  8
JISSEN
100
AcDbLine
 10
100.2781376659285
 20
138.1667513184847
 30
0.0
 11
100.6635977923419
 21
150.5008589724634
 31
0.0
  0
LINE
  5
EF7C88536
330
EF7C85532
100
AcDbEntity
  8
JISSEN
100
AcDbLine
 10
81.50008343801616
 20
136.3886970905723
 30
0.0
 11
98.50008343801617
 21
136.3886970905723
 31
0.0
  0
LINE
  5
EF7C88537
330
EF7C85532
100
AcDbEntity
  8
JISSEN
100
AcDbLine
 10
79.72202921010396
 20
138.1667513184847
 30
0.0
 11
100.2781376659285
 21
138.1667513184847
 31
0.0
  0
LINE
  5
EF7C88539
330
EF7C85532
100
AcDbEntity
  8
JISSEN
100
AcDbLine
 10
81.50008343801616
 20
136.3886970905723
 30
0.0
 11
79.72202921010396
 21
138.1667513184847
 31
0.0
  0
LINE
  5
EF7C8853A
330
EF7C85532
100
AcDbEntity
  8
JISSEN
100
AcDbLine
 10
98.50008343801617
 20
136.3886970905723
 30
0.0
 11
100.2781376659285
 21
138.1667513184847
 31
0.0
  0
LINE
  5
EF7C8853B
330
EF7C85532
100
AcDbEntity
  8
JISSEN
100
AcDbLine
 10
90.00008343801615
 20
203.9678695570628
 30
0.0
 11
102.0612460581679
 21
203.9678695570625
 31
0.0
  0
LINE
  5
EF7C8853C
330
EF7C85532
100
AcDbEntity
  8
JISSEN
100
AcDbLine
 10
86.00008343801617
 20
188.7493191747025
 30
0.0
 11
94.00008343801616
 21
188.7493191747025
 31
0.0
  0
LINE
  5
EF7C8853D
330
EF7C85532
100
AcDbEntity
  8
JISSEN
100
AcDbLine
 10
84.44953051197373
 20
161.2178695570628
 30
0.0
 11
95.32035090522365
 21
161.2178695570628
 31
0.0
  0
LINE
  5
EF7C8853E
330
EF7C85532
100
AcDbEntity
  8
JISSEN
100
AcDbLine
 10
84.4495305119735
 20
163.517869557063
 30
0.0
 11
95.54953051197523
 21
163.517869557063
 31
0.0
  0
LINE
  5
EF7C8853F
330
EF7C85532
100
AcDbEntity
  8
JISSEN
100
AcDbLine
 10
90.00008343801615
 20
161.2178695570628
 30
0.0
 11
95.32035090522365
 21
161.2178695570628
 31
0.0
  0
LINE
  5
EF7C88540
330
EF7C85532
100
AcDbEntity
  8
JISSEN
100
AcDbLine
 10
79.33656908369036
 20
150.5008589724634
 30
0.0
 11
100.6635977923419
 21
150.5008589724634
 31
0.0
  0
LINE
  5
EF7C88541
330
EF7C85532
100
AcDbEntity
  8
JISSEN
100
AcDbLine
 10
80.50008343801616
 20
150.8886970905723
 30
0.0
 11
99.50008343801616
 21
150.8886970905723
 31
0.0
  0
LINE
  5
EF7C88542
330
EF7C85532
100
AcDbEntity
  8
JISSEN
100
AcDbLine
 10
92.70008343801643
 20
153.1178695570629
 30
0.0
 11
87.30008343801634
 21
153.1178695570629
 31
0.0
  0
LINE
  5
EF7C88543
330
EF7C85532
100
AcDbEntity
  8
JISSEN
100
AcDbLine
 10
88.25008343801616
 20
168.7600174765866
 30
0.0
 11
91.75008343801616
 21
168.7600174765866
 31
0.0
  0
LINE
  5
EF7C88544
330
EF7C85532
100
AcDbEntity
  8
JISSEN
100
AcDbLine
 10
91.75008343801616
 20
167.0308181151544
 30
0.0
 11
88.25008343801616
 21
167.0308181151544
 31
0.0
  0
ARC
  5
EF7C88545
330
EF7C85532
100
AcDbEntity
  8
JISSEN
100
AcDbCircle
 10
90.00008343801615
 20
154.5178695570629
 30
0.0
 40
9.4
100
AcDbArc
 50
73.22525573591699
 51
106.7747442640943
  0
LINE
  5
EF7C88546
330
EF7C85532
100
AcDbEntity
  8
JISSEN
100
AcDbLine
 10
88.25008343801616
 20
169.5431886167507
 30
0.0
 11
91.75008343801616
 21
169.5431886167507
 31
0.0
  0
LINE
  5
EF7C88547
330
EF7C85532
100
AcDbEntity
  8
JISSEN
100
AcDbLine
 10
92.79607734723047
 20
190.167869557063
 30
0.0
 11
90.00008343801615
 21
190.167869557063
 31
0.0
  0
LINE
  5
EF7C88548
330
EF7C85532
100
AcDbEntity
  8
JISSEN
100
AcDbLine
 10
90.32221571230818
 20
203.167869557063
 30
0.0
 11
89.67795116372437
 21
203.167869557063
 31
0.0
  0
LINE
  5
EF7C88549
330
EF7C85532
100
AcDbEntity
  8
JISSEN
100
AcDbLine
 10
90.43241461676686
 20
202.167869557063
 30
0.0
 11
90.00008343801615
 21
202.167869557063
 31
0.0
  0
LINE
  5
EF7C8854A
330
EF7C85532
100
AcDbEntity
  8
JISSEN
100
AcDbLine
 10
86.00008343801617
 20
186.3742502423114
 30
0.0
 11
86.00008343801617
 21
188.7493191747025
 31
0.0
  0
ARC
  5
EF7C8854B
330
EF7C85532
100
AcDbEntity
  8
JISSEN
100
AcDbCircle
 10
98.00008343801616
 20
170.1294227189255
 30
0.0
 40
30.0
100
AcDbArc
 50
139.7809012554455
 51
180.0
  0
ARC
  5
EF7C8854C
330
EF7C85532
100
AcDbEntity
  8
JISSEN
100
AcDbCircle
 10
98.00008343801616
 20
170.1294227189255
 30
0.0
 40
24.0
100
AcDbArc
 50
122.0970060036987
 51
180.0
  0
LINE
  5
EF7C8854F
330
EF7C85532
100
AcDbEntity
  8
JISSEN
100
AcDbLine
 10
88.00008343801639
 20
168.6208717777849
 30
0.0
 11
88.00008343801639
 21
165.8075345711672
 31
0.0
  0
ARC
  5
EF7C88550
330
EF7C85532
100
AcDbEntity
  8
JISSEN
100
AcDbCircle
 10
82.7332316935867
 20
168.9650011443008
 30
0.0
 40
10.74860911180585
100
AcDbArc
 50
183.0734796207522
 51
269.0499776435753
  0
ARC
  5
EF7C88551
330
EF7C85532
100
AcDbEntity
  8
JISSEN
100
AcDbCircle
 10
84.9393884856922
 20
169.5426490280005
 30
0.0
 40
11.0
100
AcDbArc
 50
186.0216771926274
 51
245.4807912689775
  0
ARC
  5
EF7C88552
330
EF7C85532
100
AcDbEntity
  8
JISSEN
100
AcDbCircle
 10
85.00008343801615
 20
168.3886970905723
 30
0.0
 40
17.0
100
AcDbArc
 50
180.0
 51
250.2500772043588
  0
ARC
  5
EF7C88553
330
EF7C85532
100
AcDbEntity
  8
JISSEN
100
AcDbCircle
 10
85.00008343801615
 20
168.3886970905723
 30
0.0
 40
15.0
100
AcDbArc
 50
180.0
 51
233.3170111996457
  0
ARC
  5
EF7C88554
330
EF7C85532
100
AcDbEntity
  8
JISSEN
100
AcDbCircle
 10
96.0000834380164
 20
172.520871777785
 30
0.0
 40
13.5
100
AcDbArc
 50
180.0
 51
221.8274121237065
  0
LINE
  5
EF7C88555
330
EF7C85532
100
AcDbEntity
  8
HOJYO
100
AcDbLine
 10
88.75008343801615
 20
155.2178695570628
 30
0.0
 11
88.75008343801615
 21
158.543629539351
 31
0.0
  0
ARC
  5
EF7C88556
330
EF7C85532
100
AcDbEntity
  8
JISSEN
100
AcDbCircle
 10
76.11233490634774
 20
149.245579762196
 30
0.0
 40
6.498907295833106
100
AcDbArc
 50
39.10096087449982
 51
75.32091994779984
  0
LINE
  5
EF7C88557
330
EF7C85532
100
AcDbEntity
  8
JISSEN
100
AcDbLine
 10
81.66903242735973
 20
152.3886970905723
 30
0.0
 11
81.66903242735973
 21
156.417869557063
 31
0.0
  0
LINE
  5
EF7C88558
330
EF7C85532
100
AcDbEntity
  8
JISSEN
100
AcDbLine
 10
85.43914553863848
 20
152.3886970905723
 30
0.0
 11
85.43914553863826
 21
156.3886970905723
 31
0.0
  0
LINE
  5
EF7C88559
330
EF7C85532
100
AcDbEntity
  8
JISSEN
100
AcDbLine
 10
79.25552079147812
 20
152.3886970905723
 30
0.0
 11
85.43914553863848
 21
152.3886970905723
 31
0.0
  0
LINE
  5
EF7C8855A
330
EF7C85532
100
AcDbEntity
  8
JISSEN
100
AcDbLine
 10
79.33656908369036
 20
150.5008589724634
 30
0.0
 11
80.50008343801616
 21
150.8886970905723
 31
0.0
  0
LINE
  5
EF7C8855B
330
EF7C85532
100
AcDbEntity
  8
JISSEN
100
AcDbLine
 10
80.50008343801616
 20
152.3886970905723
 30
0.0
 11
80.50008343801616
 21
150.8886970905723
 31
0.0
  0
LINE
  5
EF7C8855C
330
EF7C85532
100
AcDbEntity
  8
JISSEN
100
AcDbLine
 10
85.43914553863848
 20
152.3886970905723
 30
0.0
 11
85.43914553863848
 21
150.8886970905723
 31
0.0
  0
LINE
  5
EF7C8855D
330
EF7C85532
100
AcDbEntity
  8
JISSEN
100
AcDbLine
 10
87.30008343801634
 20
155.1178695570628
 30
0.0
 11
88.65008343801624
 21
155.1178695570628
 31
0.0
  0
ARC
  5
EF7C8855E
330
EF7C85532
100
AcDbEntity
  8
JISSEN
100
AcDbCircle
 10
87.30008343801634
 20
154.8178695570631
 30
0.0
 40
0.3
100
AcDbArc
 50
90.0
 51
180.0
  0
ARC
  5
EF7C8855F
330
EF7C85532
100
AcDbEntity
  8
JISSEN
100
AcDbCircle
 10
88.65008343801624
 20
155.2178695570628
 30
0.0
 40
0.1
100
AcDbArc
 50
270.0
 51
0.0
  0
ARC
  5
EF7C88560
330
EF7C85532
100
AcDbEntity
  8
JISSEN
100
AcDbCircle
 10
87.30008343801634
 20
153.417869557063
 30
0.0
 40
0.3
100
AcDbArc
 50
180.0
 51
270.0
  0
LINE
  5
EF7C88561
330
EF7C85532
100
AcDbEntity
  8
JISSEN
100
AcDbLine
 10
87.00008343801616
 20
153.417869557063
 30
0.0
 11
87.00008343801616
 21
154.8178695570631
 31
0.0
  0
LINE
  5
EF7C88562
330
EF7C85532
100
AcDbEntity
  8
JISSEN
100
AcDbLine
 10
81.66903242735973
 20
156.417869557063
 30
0.0
 11
88.50008343801617
 21
156.417869557063
 31
0.0
  0
LINE
  5
EF7C88563
330
EF7C85532
100
AcDbEntity
  8
JISSEN
100
AcDbLine
 10
82.55501697785437
 20
158.2178695570587
 30
0.0
 11
88.75008343801615
 21
158.2178695570614
 31
0.0
  0
LINE
  5
EF7C88564
330
EF7C85532
100
AcDbEntity
  8
JISSEN
100
AcDbLine
 10
82.50008343801615
 20
158.2178695570587
 30
0.0
 11
88.50008343801617
 21
158.2178695570587
 31
0.0
  0
LINE
  5
EF7C88565
330
EF7C85532
100
AcDbEntity
  8
JISSEN
100
AcDbLine
 10
81.00008343801617
 20
161.2178695570628
 30
0.0
 11
83.54953051197478
 21
161.2178695570628
 31
0.0
  0
LINE
  5
EF7C88566
330
EF7C85532
100
AcDbEntity
  8
JISSEN
100
AcDbLine
 10
81.00008343801617
 20
163.517869557063
 30
0.0
 11
83.54953051197478
 21
163.517869557063
 31
0.0
  0
LINE
  5
EF7C88567
330
EF7C85532
100
AcDbEntity
  8
JISSEN
100
AcDbLine
 10
83.54953051197478
 20
160.917869557063
 30
0.0
 11
82.50008343801615
 21
160.917869557063
 31
0.0
  0
LINE
  5
EF7C88568
330
EF7C85532
100
AcDbEntity
  8
JISSEN
100
AcDbLine
 10
82.46571186463231
 20
160.0323189481318
 30
0.0
 11
83.57831043577945
 21
160.0323189481318
 31
0.0
  0
LINE
  5
EF7C88569
330
EF7C85532
100
AcDbEntity
  8
JISSEN
100
AcDbLine
 10
83.54953051197478
 20
160.6580619359278
 30
0.0
 11
82.46571186463231
 21
160.0323189481318
 31
0.0
  0
ARC
  5
EF7C8856A
330
EF7C85532
100
AcDbEntity
  8
JISSEN
100
AcDbCircle
 10
79.02621271509153
 20
160.3691666438576
 30
0.0
 40
5.0
100
AcDbArc
 50
233.3170111996457
 51
255.3209199478057
  0
ARC
  5
EF7C8856B
330
EF7C85532
100
AcDbEntity
  8
JISSEN
100
AcDbCircle
 10
81.69953051197442
 20
160.2624626746146
 30
0.0
 40
0.8
100
AcDbArc
 50
270.0
 51
343.2809085822678
  0
ELLIPSE
  5
EF7C8856C
330
EF7C85532
100
AcDbEntity
  8
JISSEN
100
AcDbEllipse
 10
81.79953051197433
 20
159.9349263078706
 30
0.0
 11
-0.4500000000000454
 21
0.0
 31
0.0
210
0.0
220
0.0
230
-1.0
 40
0.9925461516411621
 41
3.141592653589793
 42
6.283185307179586
  0
LINE
  5
EF7C8856D
330
EF7C85532
100
AcDbEntity
  8
JISSEN
100
AcDbLine
 10
82.24953051197415
 20
159.9721955496638
 30
0.0
 11
82.24953051197415
 21
159.6815151726832
 31
0.0
  0
LINE
  5
EF7C8856E
330
EF7C85532
100
AcDbEntity
  8
JISSEN
100
AcDbLine
 10
81.34953051197404
 20
159.9721955496638
 30
0.0
 11
81.34953051197404
 21
159.4624626746144
 31
0.0
  0
ARC
  5
EF7C8856F
330
EF7C85532
100
AcDbEntity
  8
JISSEN
100
AcDbCircle
 10
80.70640593831418
 20
160.2624626746146
 30
0.0
 40
0.8
100
AcDbArc
 50
245.4807912689775
 51
269.9999999999934
  0
LINE
  5
EF7C88570
330
EF7C85532
100
AcDbEntity
  8
JISSEN
100
AcDbLine
 10
80.70640593831418
 20
159.4624626746144
 30
0.0
 11
81.69953051197442
 21
159.4624626746144
 31
0.0
  0
ELLIPSE
  5
EF7C88571
330
EF7C85532
100
AcDbEntity
  8
JISSEN
100
AcDbEllipse
 10
81.79953051197433
 20
159.9349263078706
 30
0.0
 11
-0.4500000000000454
 21
0.0
 31
0.0
210
0.0
220
0.0
230
1.0
 40
0.9925461516411621
 41
3.141592653589793
 42
6.283185307179586
  0
ARC
  5
EF7C88572
330
EF7C85532
100
AcDbEntity
  8
JISSEN
100
AcDbCircle
 10
81.79953051197433
 20
159.9721955496638
 30
0.0
 40
0.45
100
AcDbArc
 50
0.0
 51
180.0
  0
LINE
  5
EF7C88573
330
EF7C85532
100
AcDbEntity
  8
JISSEN
100
AcDbLine
 10
82.55501697785437
 20
156.3886970905723
 30
0.0
 11
82.55501697785437
 21
158.2178695570587
 31
0.0
  0
LINE
  5
EF7C88574
330
EF7C85532
100
AcDbEntity
  8
JISSEN
100
AcDbLine
 10
82.50008343801615
 20
161.2178695570628
 30
0.0
 11
82.50008343801615
 21
160.917869557063
 31
0.0
  0
LINE
  5
EF7C88575
330
EF7C85532
100
AcDbEntity
  8
JISSEN
100
AcDbLine
 10
81.00008343801617
 20
163.517869557063
 30
0.0
 11
81.00008343801617
 21
161.2178695570628
 31
0.0
  0
LINE
  5
EF7C88576
330
EF7C85532
100
AcDbEntity
  8
JISSEN
100
AcDbLine
 10
84.4495305119735
 20
164.1678695570639
 30
0.0
 11
84.44953051197373
 21
160.3529112775545
 31
0.0
  0
LINE
  5
EF7C88577
330
EF7C85532
100
AcDbEntity
  8
JISSEN
100
AcDbLine
 10
83.54953051197478
 20
164.1678695570639
 30
0.0
 11
83.54953051197478
 21
160.3529112775545
 31
0.0
  0
ARC
  5
EF7C88578
330
EF7C85532
100
AcDbEntity
  8
JISSEN
100
AcDbCircle
 10
81.75008343801616
 20
158.543629539351
 30
0.0
 40
7.0
100
AcDbArc
 50
0.0
 51
22.45974820374022
  0
LINE
  5
EF7C88579
330
EF7C85532
100
AcDbEntity
  8
JISSEN
100
AcDbLine
 10
85.34953051197428
 20
159.4529112775544
 30
0.0
 11
88.69077553034911
 21
159.4529112775544
 31
0.0
  0
LINE
  5
EF7C8857A
330
EF7C85532
100
AcDbEntity
  8
JISSEN
100
AcDbLine
 10
84.50856644715619
 20
160.0323189481318
 30
0.0
 11
88.58995213881618
 21
160.0323189481318
 31
0.0
  0
LINE
  5
EF7C8857B
330
EF7C85532
100
AcDbEntity
  8
JISSEN
100
AcDbLine
 10
85.34953051197451
 20
158.5529112775543
 30
0.0
 11
88.75007728439456
 21
158.5529112775543
 31
0.0
  0
ARC
  5
EF7C8857C
330
EF7C85532
100
AcDbEntity
  8
JISSEN
100
AcDbCircle
 10
85.34953051197428
 20
160.3529112775545
 30
0.0
 40
0.9000000000000001
100
AcDbArc
 50
180.0
 51
270.0
  0
ARC
  5
EF7C8857D
330
EF7C85532
100
AcDbEntity
  8
JISSEN
100
AcDbCircle
 10
85.34953051197428
 20
160.3529112775545
 30
0.0
 40
1.8
100
AcDbArc
 50
180.0
 51
270.0
  0
LINE
  5
EF7C8857E
330
EF7C85532
100
AcDbEntity
  8
JISSEN
100
AcDbLine
 10
88.50008343801617
 20
156.417869557063
 30
0.0
 11
88.50008343801617
 21
158.1886970905725
 31
0.0
  0
LINE
  5
EF7C8857F
330
EF7C85532
100
AcDbEntity
  8
JISSEN
100
AcDbLine
 10
88.3351410944301
 20
160.917869557063
 30
0.0
 11
84.44953051197373
 21
160.917869557063
 31
0.0
  0
ARC
  5
EF7C88580
330
EF7C85532
100
AcDbEntity
  8
JISSEN
100
AcDbCircle
 10
83.99953051197414
 20
164.1678695570639
 30
0.0
 40
0.45
100
AcDbArc
 50
0.0
 51
180.0
  0
ARC
  5
EF7C88581
330
EF7C85532
100
AcDbEntity
  8
JISSEN
100
AcDbCircle
 10
98.00008343801616
 20
170.1294227189255
 30
0.0
 40
28.0
100
AcDbArc
 50
157.9756871629577
 51
180.0
  0
ARC
  5
EF7C88582
330
EF7C85532
100
AcDbEntity
  8
JISSEN
100
AcDbCircle
 10
98.00008343801616
 20
170.1294227189255
 30
0.0
 40
26.0
100
AcDbArc
 50
156.1811586065416
 51
180.0
  0
LINE
  5
EF7C88583
330
EF7C85532
100
AcDbEntity
  8
JISSEN
100
AcDbLine
 10
68.00008343801616
 20
168.3886970905723
 30
0.0
 11
68.00008343801616
 21
170.1294227189255
 31
0.0
  0
LINE
  5
EF7C88584
330
EF7C85532
100
AcDbEntity
  8
JISSEN
100
AcDbLine
 10
70.00008343801616
 20
168.3886970905723
 30
0.0
 11
70.00008343801616
 21
170.1294227189255
 31
0.0
  0
LINE
  5
EF7C88585
330
EF7C85532
100
AcDbEntity
  8
JISSEN
100
AcDbLine
 10
72.00008343801616
 20
168.3886970905723
 30
0.0
 11
72.00008343801616
 21
170.1294227189255
 31
0.0
  0
LINE
  5
EF7C88586
330
EF7C85532
100
AcDbEntity
  8
JISSEN
100
AcDbLine
 10
74.00008343801616
 20
168.3886970905727
 30
0.0
 11
74.00008343801616
 21
170.1294227189255
 31
0.0
  0
ARC
  5
EF7C88587
330
EF7C85532
100
AcDbEntity
  8
JISSEN
100
AcDbCircle
 10
90.00008343801615
 20
196.5677948487481
 30
0.0
 40
19.34838405080195
100
AcDbArc
 50
262.5760704103728
 51
263.7777528268407
  0
ARC
  5
EF7C88588
330
EF7C85532
100
AcDbEntity
  8
JISSEN
100
AcDbCircle
 10
87.0000834380164
 20
176.2708717777849
 30
0.0
 40
1.5
100
AcDbArc
 50
90.0
 51
180.0
  0
LINE
  5
EF7C88589
330
EF7C85532
100
AcDbEntity
  8
JISSEN
100
AcDbLine
 10
87.50008343801615
 20
177.3816027988045
 30
0.0
 11
87.50008343801615
 21
173.7128955761354
 31
0.0
  0
ARC
  5
EF7C8858A
330
EF7C85532
100
AcDbEntity
  8
JISSEN
100
AcDbCircle
 10
82.50008343801615
 20
177.7281749263088
 30
0.0
 40
4.0
100
AcDbArc
 50
180.0
 51
265.0000000000011
  0
LINE
  5
EF7C8858B
330
EF7C85532
100
AcDbEntity
  8
JISSEN
100
AcDbLine
 10
82.50008343801638
 20
177.520871777785
 30
0.0
 11
82.50008343801638
 21
172.520871777785
 31
0.0
  0
LINE
  5
EF7C8858C
330
EF7C85532
100
AcDbEntity
  8
JISSEN
100
AcDbLine
 10
87.50008343801615
 20
182.9742502423114
 30
0.0
 11
88.45944498269906
 21
169.5431886167507
 31
0.0
  0
LINE
  5
EF7C8858D
330
EF7C85532
100
AcDbEntity
  8
JISSEN
100
AcDbLine
 10
82.50008343801615
 20
173.7128955761354
 30
0.0
 11
82.15146046702555
 21
173.743396133942
 31
0.0
  0
LINE
  5
EF7C8858E
330
EF7C85532
100
AcDbEntity
  8
JISSEN
100
AcDbLine
 10
87.00008343801616
 20
170.3477603364835
 30
0.0
 11
87.00008343801616
 21
173.3057166604885
 31
0.0
  0
ARC
  5
EF7C8858F
330
EF7C85532
100
AcDbEntity
  8
JISSEN
100
AcDbCircle
 10
96.0000834380164
 20
172.520871777785
 30
0.0
 40
10.5
100
AcDbArc
 50
180.0
 51
194.1490045089394
  0
ARC
  5
EF7C88590
330
EF7C85532
100
AcDbEntity
  8
JISSEN
100
AcDbCircle
 10
87.27311374630787
 20
170.3208717777847
 30
0.0
 40
1.5
100
AcDbArc
 50
194.1490045089394
 51
270.0
  0
ARC
  5
EF7C88591
330
EF7C85532
100
AcDbEntity
  8
JISSEN
100
AcDbCircle
 10
90.00008343801615
 20
189.4621519139659
 30
0.0
 40
19.34838405080195
100
AcDbArc
 50
261.0802048236749
 51
265.298016601055
  0
LINE
  5
EF7C88592
330
EF7C85532
100
AcDbEntity
  8
JISSEN
100
AcDbLine
 10
87.15008343801626
 20
170.1683778480778
 30
0.0
 11
87.15008343801626
 21
170.324820193548
 31
0.0
  0
ARC
  5
EF7C88593
330
EF7C85532
100
AcDbEntity
  8
JISSEN
100
AcDbCircle
 10
87.80008343801634
 20
168.6208717777849
 30
0.0
 40
0.2
100
AcDbArc
 50
0.0
 51
90.0
  0
ARC
  5
EF7C88594
330
EF7C85532
100
AcDbEntity
  8
JISSEN
100
AcDbCircle
 10
88.30008343801635
 20
167.6033385603213
 30
0.0
 40
0.3
100
AcDbArc
 50
180.0
 51
260.4059317731351
  0
LINE
  5
EF7C88595
330
EF7C85532
100
AcDbEntity
  8
JISSEN
100
AcDbLine
 10
87.27311374630787
 20
168.8208717777847
 30
0.0
 11
87.80008343801634
 21
168.8208717777847
 31
0.0
  0
LWPOLYLINE
  5
EF7C88596
330
EF7C85532
100
AcDbEntity
  8
JISSEN
100
AcDbPolyline
 90
        3
 70
     0
 43
0.0
 10
87.64210640640905
 20
169.5424641471013
 42
0.0222413121313491
 10
87.98482911163452
 20
169.4751571702363
 42
0.0069244247785704
 10
88.25008343801616
 20
169.438967365695
 42
0.0155729562488785
  0
LINE
  5
EF7C88597
330
EF7C85532
100
AcDbEntity
  8
JISSEN
100
AcDbLine
 10
86.73812742989728
 20
168.9195189880656
 30
0.0
 11
87.50008343801615
 21
169.3594344944635
 31
0.0
  0
ARC
  5
EF7C88598
330
EF7C85532
100
AcDbEntity
  8
JISSEN
100
AcDbCircle
 10
90.00008343801615
 20
165.0293074755418
 30
0.0
 40
5.0
100
AcDbArc
 50
116.3208098216018
 51
119.9999999999952
  0
LINE
  5
EF7C88599
330
EF7C85532
100
AcDbEntity
  8
JISSEN
100
AcDbLine
 10
88.25008343801616
 20
167.0308181151544
 30
0.0
 11
88.25008343801616
 21
169.5431886167507
 31
0.0
  0
ARC
  5
EF7C8859A
330
EF7C85532
100
AcDbEntity
  8
JISSEN
100
AcDbCircle
 10
87.79421450832703
 20
170.1683778480778
 30
0.0
 40
0.6441310703106079
100
AcDbArc
 50
180.0
 51
256.3408948147066
  0
LINE
  5
EF7C8859B
330
EF7C85532
100
AcDbEntity
  8
JISSEN
100
AcDbLine
 10
85.50008343801616
 20
173.537583877056
 30
0.0
 11
88.1909790886975
 21
173.301711132773
 31
0.0
  0
LINE
  5
EF7C8859C
330
EF7C85532
100
AcDbEntity
  8
JISSEN
100
AcDbLine
 10
85.50008343801616
 20
173.4372004347978
 30
0.0
 11
88.19819451128726
 21
173.2006952165179
 31
0.0
  0
LINE
  5
EF7C8859D
330
EF7C85532
100
AcDbEntity
  8
JISSEN
100
AcDbLine
 10
85.50008343801616
 20
173.8882072752148
 30
0.0
 11
87.50008343801615
 21
174.0635189742947
 31
0.0
  0
LINE
  5
EF7C8859E
330
EF7C85532
100
AcDbEntity
  8
JISSEN
100
AcDbLine
 10
85.50008343801639
 20
176.2708717777849
 30
0.0
 11
85.50008343801639
 21
172.520871777785
 31
0.0
  0
ARC
  5
EF7C8859F
330
EF7C85532
100
AcDbEntity
  8
JISSEN
100
AcDbCircle
 10
90.00008343801615
 20
192.8990876260795
 30
0.0
 40
19.34838405080195
100
AcDbArc
 50
262.5760704103728
 51
264.5635250583101
  0
LINE
  5
EF7C885A0
330
EF7C85532
100
AcDbEntity
  8
JISSEN
100
AcDbLine
 10
83.21740651436082
 20
181.8628955761355
 30
0.0
 11
79.58723918076382
 21
182.1804940645274
 31
0.0
  0
ARC
  5
EF7C885A1
330
EF7C85532
100
AcDbEntity
  8
JISSEN
100
AcDbCircle
 10
96.0000834380164
 20
177.520871777785
 30
0.0
 40
13.5
100
AcDbArc
 50
137.7945535962733
 51
180.0
  0
ARC
  5
EF7C885A2
330
EF7C85532
100
AcDbEntity
  8
JISSEN
100
AcDbCircle
 10
79.50008343801616
 20
181.1842993664358
 30
0.0
 40
1.0
100
AcDbArc
 50
85.00000000000108
 51
180.0
  0
LINE
  5
EF7C885A3
330
EF7C85532
100
AcDbEntity
  8
JISSEN
100
AcDbLine
 10
78.50008343801616
 20
177.7128955761354
 30
0.0
 11
78.50008343801616
 21
177.7128955761354
 31
0.0
  0
LINE
  5
EF7C885A4
330
EF7C85532
100
AcDbEntity
  8
JISSEN
100
AcDbLine
 10
78.50008343801616
 20
181.1842993664358
 30
0.0
 11
78.50008343801616
 21
177.7281749263088
 31
0.0
  0
LINE
  5
EF7C885A5
330
EF7C85532
100
AcDbEntity
  8
JISSEN
100
AcDbLine
 10
83.50008343801617
 20
182.6198912913778
 30
0.0
 11
83.50008343801617
 21
186.3312601152374
 31
0.0
  0
ARC
  5
EF7C885A6
330
EF7C85532
100
AcDbEntity
  8
JISSEN
100
AcDbCircle
 10
87.37508343801639
 20
177.4708717777848
 30
0.0
 40
1.199999999999999
100
AcDbArc
 50
68.57670275210742
 51
90.0
  0
ARC
  5
EF7C885A7
330
EF7C85532
100
AcDbEntity
  8
JISSEN
100
AcDbCircle
 10
90.00008343801638
 20
158.1954107488608
 30
0.0
 40
19.34838405080195
100
AcDbArc
 50
96.24260422862736
 51
97.42392958962717
  0
LINE
  5
EF7C885A8
330
EF7C85532
100
AcDbEntity
  8
JISSEN
100
AcDbLine
 10
87.0000834380164
 20
177.770871777785
 30
0.0
 11
87.37508343801639
 21
177.770871777785
 31
0.0
  0
LWPOLYLINE
  5
EF7C885A9
330
EF7C85532
100
AcDbEntity
  8
JISSEN
100
AcDbPolyline
 90
        2
 70
     0
 43
0.0
 10
87.37508343801639
 20
178.1095078098987
 42
-0.0047313531205585
 10
87.84537786240296
 20
178.140128300899
 42
-0.0078363086204064
  0
LINE
  5
EF7C885AA
330
EF7C85532
100
AcDbEntity
  8
JISSEN
100
AcDbLine
 10
87.37508343801639
 20
177.770871777785
 30
0.0
 11
87.37508343801639
 21
182.270871777785
 31
0.0
  0
ARC
  5
EF7C885AB
330
EF7C85532
100
AcDbEntity
  8
JISSEN
100
AcDbCircle
 10
86.00008343801617
 20
182.9742502423114
 30
0.0
 40
1.5
100
AcDbArc
 50
0.0
 51
75.74996730219933
  0
LINE
  5
EF7C885AC
330
EF7C85532
100
AcDbEntity
  8
JISSEN
100
AcDbLine
 10
86.00008343801617
 20
186.9339585987336
 30
0.0
 11
84.41200191395862
 21
186.7935321579975
 31
0.0
  0
ARC
  5
EF7C885AD
330
EF7C85532
100
AcDbEntity
  8
JISSEN
100
AcDbCircle
 10
85.77031889988845
 20
185.945215235064
 30
0.0
 40
0.4866855046380603
100
AcDbArc
 50
4.184916125120728
 51
61.82925977025243
  0
LINE
  5
EF7C885AE
330
EF7C85532
100
AcDbEntity
  8
JISSEN
100
AcDbLine
 10
83.3500834380163
 20
186.3312601152374
 30
0.0
 11
83.50008343801617
 21
186.3312601152374
 31
0.0
  0
LINE
  5
EF7C885AF
330
EF7C85532
100
AcDbEntity
  8
JISSEN
100
AcDbLine
 10
86.36931420724701
 20
184.4280963961577
 30
0.0
 11
86.25570676644722
 21
185.9807314204221
 31
0.0
  0
LINE
  5
EF7C885B0
330
EF7C85532
100
AcDbEntity
  8
JISSEN
100
AcDbLine
 10
83.50008343801617
 20
183.3628955761355
 30
0.0
 11
83.3500834380163
 21
183.3628955761355
 31
0.0
  0
LINE
  5
EF7C885B1
330
EF7C85532
100
AcDbEntity
  8
JISSEN
100
AcDbLine
 10
83.3500834380163
 20
183.3628955761355
 30
0.0
 11
83.3500834380163
 21
186.3312601152374
 31
0.0
  0
ARC
  5
EF7C885B2
330
EF7C85532
100
AcDbEntity
  8
JISSEN
100
AcDbCircle
 10
84.50008343801616
 20
185.7974188887755
 30
0.0
 40
1.0
100
AcDbArc
 50
95.05324815125772
 51
180.0
  0
LINE
  5
EF7C885B3
330
EF7C85532
100
AcDbEntity
  8
JISSEN
100
AcDbLine
 10
75.09265847991034
 20
189.5007902955512
 30
0.0
 11
84.76366426995307
 21
200.9371454485103
 31
0.0
  0
LINE
  5
EF7C885B4
330
EF7C85532
100
AcDbEntity
  8
JISSEN
100
AcDbLine
 10
76.11354588447236
 20
201.7005707392808
 30
0.0
 11
75.81894064609875
 21
200.4015189659543
 31
0.0
  0
LINE
  5
EF7C885B5
330
EF7C85532
100
AcDbEntity
  8
JISSEN
100
AcDbLine
 10
71.43914876631376
 20
203.1697978997444
 30
0.0
 11
77.9389208178641
 21
203.9678695570628
 31
0.0
  0
ARC
  5
EF7C885B6
330
EF7C85532
100
AcDbEntity
  8
JISSEN
100
AcDbCircle
 10
76.76050169945412
 20
201.8678695570629
 30
0.0
 40
1.3
100
AcDbArc
 50
90.0
 51
171.2564626852173
  0
ARC
  5
EF7C885B7
330
EF7C85532
100
AcDbEntity
  8
JISSEN
100
AcDbCircle
 10
72.44637232030251
 20
200.3678695570628
 30
0.0
 40
0.2
100
AcDbArc
 50
183.9176963714414
 51
354.842786525177
  0
ARC
  5
EF7C885B8
330
EF7C85532
100
AcDbEntity
  8
JISSEN
100
AcDbCircle
 10
72.59377272850994
 20
201.8678695570629
 30
0.0
 40
1.3
100
AcDbArc
 50
90.0
 51
178.8942957104823
  0
ARC
  5
EF7C885B9
330
EF7C85532
100
AcDbEntity
  8
JISSEN
100
AcDbCircle
 10
73.36904940636052
 20
202.1816618051274
 30
0.0
 40
1.244540968917422
100
AcDbArc
 50
127.587108253763
 51
184.6273535933162
  0
LINE
  5
EF7C885BA
330
EF7C85532
100
AcDbEntity
  8
JISSEN
100
AcDbLine
 10
71.26261245150359
 20
200.2659398588007
 30
0.0
 11
71.29401479384566
 21
201.892955634431
 31
0.0
  0
LINE
  5
EF7C885BB
330
EF7C85532
100
AcDbEntity
  8
JISSEN
100
AcDbLine
 10
72.12856504726275
 20
202.0812587267496
 30
0.0
 11
72.24683967549251
 21
200.3542048706367
 31
0.0
  0
LINE
  5
EF7C885BC
330
EF7C85532
100
AcDbEntity
  8
JISSEN
100
AcDbLine
 10
72.26296007036623
 20
200.2881202838802
 30
0.0
 11
72.26261884028324
 21
200.266305531325
 31
0.0
  0
LINE
  5
EF7C885BD
330
EF7C85532
100
AcDbEntity
  8
JISSEN
100
AcDbLine
 10
72.16263107191386
 20
200.167869557063
 30
0.0
 11
71.00008343801616
 21
200.167869557063
 31
0.0
  0
LINE
  5
EF7C885BE
330
EF7C85532
100
AcDbEntity
  8
JISSEN
100
AcDbLine
 10
71.00008343801616
 20
200.167869557063
 30
0.0
 11
71.00008343801616
 21
202.6735248239237
 31
0.0
  0
ARC
  5
EF7C885BF
330
EF7C85532
100
AcDbEntity
  8
JISSEN
100
AcDbCircle
 10
71.16263107191386
 20
200.2678695570593
 30
0.0
 40
0.1
100
AcDbArc
 50
270.0
 51
358.8942957104823
  0
ARC
  5
EF7C885C0
330
EF7C85532
100
AcDbEntity
  8
JISSEN
100
AcDbCircle
 10
72.16263107191386
 20
200.2678695570639
 30
0.0
 40
0.1
100
AcDbArc
 50
270.0
 51
359.1038427224347
  0
ARC
  5
EF7C885C1
330
EF7C85532
100
AcDbEntity
  8
JISSEN
100
AcDbCircle
 10
71.50008343801616
 20
202.6735248239237
 30
0.0
 40
0.5
100
AcDbArc
 50
96.99999999999871
 51
180.0
  0
LINE
  5
EF7C885C2
330
EF7C85532
100
AcDbEntity
  8
JISSEN
100
AcDbLine
 10
74.4070321155775
 20
202.0812587267486
 30
0.0
 11
74.62903859033255
 21
200.427944011505
 31
0.0
  0
LINE
  5
EF7C885C3
330
EF7C85532
100
AcDbEntity
  8
JISSEN
100
AcDbLine
 10
75.22288357137128
 20
200.4222659862075
 30
0.0
 11
75.47560943760842
 21
202.0654850307705
 31
0.0
  0
LINE
  5
EF7C885C4
330
EF7C85532
100
AcDbEntity
  8
JISSEN
100
AcDbLine
 10
73.58091069684675
 20
201.8049178194573
 30
0.0
 11
73.4455126139737
 21
200.3493454258659
 31
0.0
  0
LINE
  5
EF7C885C5
330
EF7C85532
100
AcDbEntity
  8
JISSEN
100
AcDbLine
 10
72.64556268074918
 20
200.3498917845335
 30
0.0
 11
72.79311330024867
 21
201.9847250785032
 31
0.0
  0
ARC
  5
EF7C885C6
330
EF7C85532
100
AcDbEntity
  8
JISSEN
100
AcDbCircle
 10
74.92636997248379
 20
200.4678695570632
 30
0.0
 40
0.3
100
AcDbArc
 50
186.0956014599872
 51
187.6479080428996
  0
LINE
  5
EF7C885C7
330
EF7C85532
100
AcDbEntity
  8
JISSEN
100
AcDbLine
 10
74.08785064315222
 20
203.167869557063
 30
0.0
 11
74.84463887180069
 21
203.167869557063
 31
0.0
  0
ARC
  5
EF7C885C8
330
EF7C85532
100
AcDbEntity
  8
JISSEN
100
AcDbCircle
 10
73.979191284189
 20
201.767869557063
 30
0.0
 40
0.4
100
AcDbArc
 50
90.0
 51
174.6856104413418
  0
LINE
  5
EF7C885C9
330
EF7C85532
100
AcDbEntity
  8
JISSEN
100
AcDbLine
 10
73.979191284189
 20
202.167869557063
 30
0.0
 11
74.40401215182871
 21
202.167869557063
 31
0.0
  0
LINE
  5
EF7C885CA
330
EF7C85532
100
AcDbEntity
  8
JISSEN
100
AcDbLine
 10
73.24637232030269
 20
200.167869557063
 30
0.0
 11
72.44637232030251
 21
200.167869557063
 31
0.0
  0
LINE
  5
EF7C885CB
330
EF7C85532
100
AcDbEntity
  8
JISSEN
100
AcDbLine
 10
75.52636997248393
 20
200.167869557063
 30
0.0
 11
74.92636997248379
 21
200.167869557063
 31
0.0
  0
ARC
  5
EF7C885CC
330
EF7C85532
100
AcDbEntity
  8
JISSEN
100
AcDbCircle
 10
74.92636997248379
 20
200.4678695570632
 30
0.0
 40
0.3
100
AcDbArc
 50
187.6479080428996
 51
351.2564626852173
  0
ARC
  5
EF7C885CD
330
EF7C85532
100
AcDbEntity
  8
JISSEN
100
AcDbCircle
 10
73.24637232030269
 20
200.3678695570628
 30
0.0
 40
0.2
100
AcDbArc
 50
270.0
 51
354.6856104413418
  0
ARC
  5
EF7C885CE
330
EF7C85532
100
AcDbEntity
  8
JISSEN
100
AcDbCircle
 10
75.52636997248393
 20
200.4678695570632
 30
0.0
 40
0.3
100
AcDbArc
 50
270.0
 51
347.2223180644411
  0
ARC
  5
EF7C885CF
330
EF7C85532
100
AcDbEntity
  8
JISSEN
100
AcDbCircle
 10
75.75089093404582
 20
202.1714747302316
 30
0.0
 40
1.346883607168649
100
AcDbArc
 50
132.2874941588456
 51
183.8406207871255
  0
ARC
  5
EF7C885D0
330
EF7C85532
100
AcDbEntity
  8
JISSEN
100
AcDbCircle
 10
74.08785064315222
 20
201.8678695570629
 30
0.0
 40
1.3
100
AcDbArc
 50
90.0
 51
174.842786525177
  0
ARC
  5
EF7C885D1
330
EF7C85532
100
AcDbEntity
  8
JISSEN
100
AcDbCircle
 10
73.25008343801616
 20
196.1294227189254
 30
0.0
 40
12.49999999999999
100
AcDbArc
 50
343.7397952916896
 51
16.26020470831033
  0
ARC
  5
EF7C885D2
330
EF7C85532
100
AcDbEntity
  8
JISSEN
100
AcDbCircle
 10
87.20408952880209
 20
191.6678695570631
 30
0.0
 40
1.5
100
AcDbArc
 50
235.2454430135181
 51
270.0
  0
ARC
  5
EF7C885D3
330
EF7C85532
100
AcDbEntity
  8
JISSEN
100
AcDbCircle
 10
85.77893425379121
 20
189.613865554606
 30
0.0
 40
1.0
100
AcDbArc
 50
55.24544301351824
 51
122.0970060036987
  0
LINE
  5
EF7C885D4
330
EF7C85532
100
AcDbEntity
  8
JISSEN
100
AcDbLine
 10
87.20408952880209
 20
190.167869557063
 30
0.0
 11
90.00008343801615
 21
190.167869557063
 31
0.0
  0
LINE
  5
EF7C885D5
330
EF7C85532
100
AcDbEntity
  8
JISSEN
100
AcDbLine
 10
87.56162206461656
 20
190.167869557063
 30
0.0
 11
88.48520282153183
 21
189.2442888001473
 31
0.0
  0
ARC
  5
EF7C885D6
330
EF7C85532
100
AcDbEntity
  8
JISSEN
100
AcDbCircle
 10
90.00086799350853
 20
189.7655232897977
 30
0.0
 40
1.6
100
AcDbArc
 50
197.3317314661404
 51
219.4294468810402
  0
ARC
  5
EF7C885D7
330
EF7C85532
100
AcDbEntity
  8
JISSEN
100
AcDbCircle
 10
90.00086799350853
 20
189.7655232897977
 30
0.0
 40
1.6
100
AcDbArc
 50
197.3317314661404
 51
219.4294468810402
  0
LINE
  5
EF7C885D8
330
EF7C85532
100
AcDbEntity
  8
JISSEN
100
AcDbLine
 10
82.25008343801617
 20
203.9678695570628
 30
0.0
 11
90.00008343801615
 21
203.9678695570628
 31
0.0
  0
ARC
  5
EF7C885D9
330
EF7C85532
100
AcDbEntity
  8
JISSEN
100
AcDbCircle
 10
82.72909822308063
 20
200.667869557063
 30
0.0
 40
0.5
100
AcDbArc
 50
191.7577571472617
 51
347.6791678141228
  0
ARC
  5
EF7C885DA
330
EF7C85532
100
AcDbEntity
  8
JISSEN
100
AcDbCircle
 10
82.92909822308045
 20
200.667869557063
 30
0.0
 40
0.5
100
AcDbArc
 50
270.0
 51
339.9682734747135
  0
LINE
  5
EF7C885DB
330
EF7C85532
100
AcDbEntity
  8
JISSEN
100
AcDbLine
 10
82.25008343801617
 20
203.9678695570628
 30
0.0
 11
77.9389208178641
 21
203.9678695570628
 31
0.0
  0
LINE
  5
EF7C885DC
330
EF7C85532
100
AcDbEntity
  8
JISSEN
100
AcDbLine
 10
79.59580702661057
 20
201.6157465779219
 30
0.0
 11
79.21393095345317
 21
200.4439310466331
 31
0.0
  0
ARC
  5
EF7C885DD
330
EF7C85532
100
AcDbEntity
  8
JISSEN
100
AcDbCircle
 10
80.42695752737651
 20
201.8678695570629
 30
0.0
 40
1.3
100
AcDbArc
 50
90.0
 51
168.7010440842413
  0
LINE
  5
EF7C885DE
330
EF7C85532
100
AcDbEntity
  8
JISSEN
100
AcDbLine
 10
78.04023342589923
 20
200.4954131928888
 30
0.0
 11
77.74813986278101
 21
202.0812587267505
 31
0.0
  0
LINE
  5
EF7C885DF
330
EF7C85532
100
AcDbEntity
  8
JISSEN
100
AcDbLine
 10
76.69868723170222
 20
202.167869557063
 30
0.0
 11
77.73292248289838
 21
202.167869557063
 31
0.0
  0
ARC
  5
EF7C885E0
330
EF7C85532
100
AcDbEntity
  8
JISSEN
100
AcDbCircle
 10
76.69868723170222
 20
201.5678695570631
 30
0.0
 40
0.6
100
AcDbArc
 50
90.0
 51
167.2223180644411
  0
ARC
  5
EF7C885E1
330
EF7C85532
100
AcDbEntity
  8
JISSEN
100
AcDbCircle
 10
85.76889719053358
 20
203.5351347955693
 30
0.0
 40
8.151460220977577
100
AcDbArc
 50
182.5823439498893
 51
190.2741177283862
  0
LINE
  5
EF7C885E2
330
EF7C85532
100
AcDbEntity
  8
JISSEN
100
AcDbLine
 10
76.76050169945412
 20
203.167869557063
 30
0.0
 11
77.62571476725677
 21
203.167869557063
 31
0.0
  0
LINE
  5
EF7C885E3
330
EF7C85532
100
AcDbEntity
  8
JISSEN
100
AcDbLine
 10
78.82586357847273
 20
200.4894982471605
 30
0.0
 11
79.15215382960738
 21
202.1225763142451
 31
0.0
  0
LINE
  5
EF7C885E4
330
EF7C85532
100
AcDbEntity
  8
JISSEN
100
AcDbLine
 10
78.83361628685131
 20
200.167869557063
 30
0.0
 11
78.43361628685122
 21
200.167869557063
 31
0.0
  0
ARC
  5
EF7C885E5
330
EF7C85532
100
AcDbEntity
  8
JISSEN
100
AcDbCircle
 10
78.43361628685122
 20
200.5678695570627
 30
0.0
 40
0.4
100
AcDbArc
 50
190.4362216586977
 51
348.7010440842414
  0
ARC
  5
EF7C885E6
330
EF7C85532
100
AcDbEntity
  8
JISSEN
100
AcDbCircle
 10
78.83361628685131
 20
200.5678695570627
 30
0.0
 40
0.4
100
AcDbArc
 50
270.0
 51
341.9500333794175
  0
LINE
  5
EF7C885E7
330
EF7C85532
100
AcDbEntity
  8
JISSEN
100
AcDbLine
 10
82.23958927662531
 20
200.5659824070394
 30
0.0
 11
81.9134744016919
 21
202.1327761471243
 31
0.0
  0
LINE
  5
EF7C885E8
330
EF7C85532
100
AcDbEntity
  8
JISSEN
100
AcDbLine
 10
80.42695752737651
 20
203.167869557063
 30
0.0
 11
80.64075114090744
 21
203.167869557063
 31
0.0
  0
LINE
  5
EF7C885E9
330
EF7C85532
100
AcDbEntity
  8
JISSEN
100
AcDbLine
 10
80.35643635981452
 20
202.167869557063
 30
0.0
 11
81.90566220497473
 21
202.167869557063
 31
0.0
  0
ARC
  5
EF7C885EA
330
EF7C85532
100
AcDbEntity
  8
JISSEN
100
AcDbCircle
 10
80.35643635981452
 20
201.3678695570629
 30
0.0
 40
0.8
100
AcDbArc
 50
90.0
 51
161.9500333794175
  0
LINE
  5
EF7C885EB
330
EF7C85532
100
AcDbEntity
  8
JISSEN
100
AcDbLine
 10
82.92909822308045
 20
200.167869557063
 30
0.0
 11
82.72909822308063
 21
200.167869557063
 31
0.0
  0
ARC
  5
EF7C885EC
330
EF7C85532
100
AcDbEntity
  8
JISSEN
100
AcDbCircle
 10
80.64075114090744
 20
201.8678695570629
 30
0.0
 40
1.3
100
AcDbArc
 50
11.75775714726178
 51
90.0
  0
LINE
  5
EF7C885ED
330
EF7C85532
100
AcDbEntity
  8
JISSEN
100
AcDbLine
 10
84.70798563055515
 20
202.167869557063
 30
0.0
 11
86.63259698519366
 21
202.167869557063
 31
0.0
  0
ARC
  5
EF7C885EE
330
EF7C85532
100
AcDbEntity
  8
JISSEN
100
AcDbCircle
 10
85.36768592112592
 20
201.8678695570629
 30
0.0
 40
1.3
100
AcDbArc
 50
11.11380719249775
 51
90.0
  0
LINE
  5
EF7C885EF
330
EF7C85532
100
AcDbEntity
  8
JISSEN
100
AcDbLine
 10
83.21758225012443
 20
200.5611767488553
 30
0.0
 11
83.56357401168812
 21
202.1452708584024
 31
0.0
  0
LINE
  5
EF7C885F0
330
EF7C85532
100
AcDbEntity
  8
JISSEN
100
AcDbLine
 10
83.39884976764139
 20
200.4965993425403
 30
0.0
 11
83.76848254143325
 21
201.5104099861082
 31
0.0
  0
ARC
  5
EF7C885F1
330
EF7C85532
100
AcDbEntity
  8
JISSEN
100
AcDbCircle
 10
84.70798563055515
 20
201.167869557063
 30
0.0
 40
1.0
100
AcDbArc
 50
90.0
 51
159.9682734747134
  0
LINE
  5
EF7C885F2
330
EF7C85532
100
AcDbEntity
  8
JISSEN
100
AcDbLine
 10
85.36768592112592
 20
203.167869557063
 30
0.0
 11
84.83363248200154
 21
203.167869557063
 31
0.0
  0
ARC
  5
EF7C885F3
330
EF7C85532
100
AcDbEntity
  8
JISSEN
100
AcDbCircle
 10
84.00008343801616
 20
201.5828577010647
 30
0.0
 40
1.0
100
AcDbArc
 50
319.7809012554456
 51
0.0
  0
LINE
  5
EF7C885F4
330
EF7C85532
100
AcDbEntity
  8
JISSEN
100
AcDbLine
 10
85.00008343801615
 20
201.5828577010647
 30
0.0
 11
85.00008343801615
 21
202.167869557063
 31
0.0
  0
ARC
  5
EF7C885F5
330
EF7C85532
100
AcDbEntity
  8
JISSEN
100
AcDbCircle
 10
84.83363248200154
 20
201.8678695570629
 30
0.0
 40
1.3
100
AcDbArc
 50
90.0
 51
167.6791678141228
  0
LINE
  5
EF7C885F6
330
EF7C85532
100
AcDbEntity
  8
JISSEN
100
AcDbLine
 10
86.64330603490677
 20
202.1184555209915
 30
0.0
 11
86.93133804101259
 21
200.6522144967889
 31
0.0
  0
LINE
  5
EF7C885F7
330
EF7C85532
100
AcDbEntity
  8
JISSEN
100
AcDbLine
 10
88.10841590343622
 20
200.650108473841
 30
0.0
 11
88.40323590891873
 21
202.1230185707122
 31
0.0
  0
LINE
  5
EF7C885F8
330
EF7C85532
100
AcDbEntity
  8
JISSEN
100
AcDbLine
 10
88.19292358569052
 20
200.5893846695916
 30
0.0
 11
88.42207665955331
 21
201.3248393320067
 31
0.0
  0
LINE
  5
EF7C885F9
330
EF7C85532
100
AcDbEntity
  8
JISSEN
100
AcDbLine
 10
89.56775225926591
 20
202.167869557063
 30
0.0
 11
90.00008343801615
 21
202.167869557063
 31
0.0
  0
ARC
  5
EF7C885FA
330
EF7C85532
100
AcDbEntity
  8
JISSEN
100
AcDbCircle
 10
89.56775225926591
 20
200.9678695570628
 30
0.0
 40
1.199999999999999
100
AcDbArc
 50
90.0
 51
162.6940025391923
  0
LINE
  5
EF7C885FB
330
EF7C85532
100
AcDbEntity
  8
JISSEN
100
AcDbLine
 10
87.62008578583433
 20
200.167869557063
 30
0.0
 11
87.52008578583442
 21
200.167869557063
 31
0.0
  0
ARC
  5
EF7C885FC
330
EF7C85532
100
AcDbEntity
  8
JISSEN
100
AcDbCircle
 10
87.52008578583442
 20
200.7678695570634
 30
0.0
 40
0.6
100
AcDbArc
 50
191.1138071924977
 51
348.6811662726129
  0
ARC
  5
EF7C885FD
330
EF7C85532
100
AcDbEntity
  8
JISSEN
100
AcDbCircle
 10
87.62008578583433
 20
200.7678695570634
 30
0.0
 40
0.6
100
AcDbArc
 50
270.0
 51
342.6940025391924
  0
ARC
  5
EF7C885FE
330
EF7C85532
100
AcDbEntity
  8
JISSEN
100
AcDbCircle
 10
89.67795116372437
 20
201.8678695570629
 30
0.0
 40
1.3
100
AcDbArc
 50
90.0
 51
168.6811662726129
  0
LINE
  5
EF7C885FF
330
EF7C85532
100
AcDbEntity
  8
JISSEN
100
AcDbLine
 10
94.00008343801616
 20
188.7493191747025
 30
0.0
 11
94.00008343801616
 21
186.3742502423114
 31
0.0
  0
ARC
  5
EF7C88600
330
EF7C85532
100
AcDbEntity
  8
JISSEN
100
AcDbCircle
 10
82.00008343801616
 20
170.1294227189255
 30
0.0
 40
30.0
100
AcDbArc
 50
0.0
 51
40.21909874455442
  0
ARC
  5
EF7C88601
330
EF7C85532
100
AcDbEntity
  8
JISSEN
100
AcDbCircle
 10
82.00008343801616
 20
170.1294227189255
 30
0.0
 40
24.0
100
AcDbArc
 50
0.0
 51
57.90299399630111
  0
LINE
  5
EF7C88602
330
EF7C85532
100
AcDbEntity
  8
JISSEN
100
AcDbLine
 10
92.0000834380164
 20
168.6208717777849
 30
0.0
 11
92.0000834380164
 21
165.8075345711672
 31
0.0
  0
ARC
  5
EF7C88603
330
EF7C85532
100
AcDbEntity
  8
JISSEN
100
AcDbCircle
 10
97.26693518244609
 20
168.9650011443008
 30
0.0
 40
10.74860911180585
100
AcDbArc
 50
270.950022356418
 51
356.9265203792477
  0
ARC
  5
EF7C88604
330
EF7C85532
100
AcDbEntity
  8
JISSEN
100
AcDbCircle
 10
95.00008343801615
 20
168.3886970905723
 30
0.0
 40
15.0
100
AcDbArc
 50
306.6829888003701
 51
0.0
  0
ARC
  5
EF7C88605
330
EF7C85532
100
AcDbEntity
  8
JISSEN
100
AcDbCircle
 10
95.00008343801615
 20
168.3886970905723
 30
0.0
 40
17.0
100
AcDbArc
 50
289.7499227956402
 51
0.0
  0
ARC
  5
EF7C88606
330
EF7C85532
100
AcDbEntity
  8
JISSEN
100
AcDbCircle
 10
95.06077839034057
 20
169.5426490280005
 30
0.0
 40
11.0
100
AcDbArc
 50
294.5192087310176
 51
353.9783228073726
  0
ARC
  5
EF7C88607
330
EF7C85532
100
AcDbEntity
  8
JISSEN
100
AcDbCircle
 10
84.00008343801639
 20
172.520871777785
 30
0.0
 40
13.5
100
AcDbArc
 50
318.1725878762935
 51
0.0
  0
LINE
  5
EF7C88608
330
EF7C85532
100
AcDbEntity
  8
HOJYO
100
AcDbLine
 10
91.25008343801615
 20
155.2178695570628
 30
0.0
 11
91.25008343801615
 21
158.543629539351
 31
0.0
  0
ARC
  5
EF7C88609
330
EF7C85532
100
AcDbEntity
  8
JISSEN
100
AcDbCircle
 10
103.8878319696845
 20
149.245579762196
 30
0.0
 40
6.498907295833106
100
AcDbArc
 50
104.6790800522001
 51
140.8990391255001
  0
LINE
  5
EF7C8860A
330
EF7C85532
100
AcDbEntity
  8
JISSEN
100
AcDbLine
 10
94.56102133739429
 20
152.3886970905723
 30
0.0
 11
94.56102133739429
 21
156.3886970905723
 31
0.0
  0
LINE
  5
EF7C8860B
330
EF7C85532
100
AcDbEntity
  8
JISSEN
100
AcDbLine
 10
98.33113444867283
 20
152.3886970905723
 30
0.0
 11
98.33113444867283
 21
156.417869557063
 31
0.0
  0
LINE
  5
EF7C8860C
330
EF7C85532
100
AcDbEntity
  8
JISSEN
100
AcDbLine
 10
100.7446460845544
 20
152.3886970905723
 30
0.0
 11
94.56102133739429
 21
152.3886970905723
 31
0.0
  0
LINE
  5
EF7C8860D
330
EF7C85532
100
AcDbEntity
  8
JISSEN
100
AcDbLine
 10
92.70008343801643
 20
155.1178695570628
 30
0.0
 11
91.35008343801606
 21
155.1178695570628
 31
0.0
  0
ARC
  5
EF7C8860E
330
EF7C85532
100
AcDbEntity
  8
JISSEN
100
AcDbCircle
 10
91.35008343801606
 20
155.2178695570628
 30
0.0
 40
0.1
100
AcDbArc
 50
180.0
 51
270.0
  0
ARC
  5
EF7C8860F
330
EF7C85532
100
AcDbEntity
  8
JISSEN
100
AcDbCircle
 10
92.70008343801643
 20
154.8178695570631
 30
0.0
 40
0.3
100
AcDbArc
 50
0.0
 51
90.0
  0
ARC
  5
EF7C88610
330
EF7C85532
100
AcDbEntity
  8
JISSEN
100
AcDbCircle
 10
92.70008343801643
 20
153.417869557063
 30
0.0
 40
0.3
100
AcDbArc
 50
270.0
 51
0.0
  0
LINE
  5
EF7C88611
330
EF7C85532
100
AcDbEntity
  8
JISSEN
100
AcDbLine
 10
93.00008343801616
 20
153.417869557063
 30
0.0
 11
93.00008343801616
 21
154.8178695570631
 31
0.0
  0
LINE
  5
EF7C88612
330
EF7C85532
100
AcDbEntity
  8
JISSEN
100
AcDbLine
 10
94.56102133739429
 20
152.3886970905723
 30
0.0
 11
94.56102133739429
 21
150.8886970905723
 31
0.0
  0
LINE
  5
EF7C88613
330
EF7C85532
100
AcDbEntity
  8
JISSEN
100
AcDbLine
 10
100.6635977923419
 20
150.5008589724634
 30
0.0
 11
99.50008343801616
 21
150.8886970905723
 31
0.0
  0
LINE
  5
EF7C88614
330
EF7C85532
100
AcDbEntity
  8
JISSEN
100
AcDbLine
 10
99.50008343801616
 20
152.3886970905723
 30
0.0
 11
99.50008343801616
 21
150.8886970905723
 31
0.0
  0
LINE
  5
EF7C88615
330
EF7C85532
100
AcDbEntity
  8
JISSEN
100
AcDbLine
 10
97.44514989817842
 20
158.2178695570587
 30
0.0
 11
91.25008343801615
 21
158.2178695570614
 31
0.0
  0
LINE
  5
EF7C88616
330
EF7C85532
100
AcDbEntity
  8
JISSEN
100
AcDbLine
 10
98.33113444867283
 20
156.417869557063
 30
0.0
 11
91.50008343801616
 21
156.417869557063
 31
0.0
  0
SPLINE
  5
EF7C88617
330
EF7C85532
100
AcDbEntity
  8
JISSEN
100
AcDbSpline
210
0.0
220
0.0
230
1.0
 70
     8
 71
     3
 72
    10
 73
     6
 74
     4
 42
0.0000000001
 43
0.0000000001
 44
0.0000000001
 40
0.0
 40
0.0
 40
0.0
 40
0.0
 40
0.2698141329857228
 40
0.9395749056582978
 40
2.053275262982664
 40
2.053275262982664
 40
2.053275262982664
 40
2.053275262982664
 10
98.64953051197469
 20
159.1674348911514
 30
0.0
 10
98.63074925153808
 20
159.0751459834776
 30
0.0
 10
98.56534718824514
 20
158.7537679268082
 30
0.0
 10
97.77198201151946
 20
158.5672243797709
 30
0.0
 10
97.20413089208902
 20
158.5584133895774
 30
0.0
 10
96.84953051197428
 20
158.5529112775538
 30
0.0
 11
98.64953051197469
 21
159.1674348911514
 31
0.0
 11
98.56864199379831
 21
158.9100310955577
 31
0.0
 11
97.96061725979733
 21
158.6291656198331
 31
0.0
 11
96.84953051197428
 21
158.5529112775538
 31
0.0
  0
ELLIPSE
  5
EF7C88618
330
EF7C85532
100
AcDbEntity
  8
JISSEN
100
AcDbEllipse
 10
96.84953051197405
 20
159.6174348911512
 30
0.0
 11
-1.35000000000025
 21
0.0
 31
0.0
210
0.0
220
0.0
230
-1.0
 40
0.121869343405077
 41
3.141592653589793
 42
4.712388980384689
  0
LINE
  5
EF7C88619
330
EF7C85532
100
AcDbEntity
  8
JISSEN
100
AcDbLine
 10
96.34658678682193
 20
161.2178695570628
 30
0.0
 11
99.00008343801616
 21
161.2178695570628
 31
0.0
  0
LINE
  5
EF7C8861A
330
EF7C85532
100
AcDbEntity
  8
JISSEN
100
AcDbLine
 10
96.44953051197397
 20
163.517869557063
 30
0.0
 11
99.00008343801616
 21
163.517869557063
 31
0.0
  0
LINE
  5
EF7C8861B
330
EF7C85532
100
AcDbEntity
  8
JISSEN
100
AcDbLine
 10
96.20837623878603
 20
160.917869557063
 30
0.0
 11
97.50008343801617
 21
160.917869557063
 31
0.0
  0
LINE
  5
EF7C8861C
330
EF7C85532
100
AcDbEntity
  8
JISSEN
100
AcDbLine
 10
96.34658678682193
 20
161.2178695570628
 30
0.0
 11
97.50008343801617
 21
161.2178695570628
 31
0.0
  0
LINE
  5
EF7C8861D
330
EF7C85532
100
AcDbEntity
  8
JISSEN
100
AcDbLine
 10
94.877146466913
 20
160.0323189481323
 30
0.0
 11
97.53334915931644
 21
160.0323189481323
 31
0.0
  0
LINE
  5
EF7C8861E
330
EF7C85532
100
AcDbEntity
  8
JISSEN
100
AcDbLine
 10
97.53334915931644
 20
160.0323189481323
 30
0.0
 11
96.15353946929005
 21
160.8289524440988
 31
0.0
  0
ARC
  5
EF7C8861F
330
EF7C85532
100
AcDbEntity
  8
JISSEN
100
AcDbCircle
 10
94.64953051197468
 20
161.817869557064
 30
0.0
 40
1.8
100
AcDbArc
 50
270.0
 51
0.0
  0
ARC
  5
EF7C88620
330
EF7C85532
100
AcDbEntity
  8
JISSEN
100
AcDbCircle
 10
94.64953051197468
 20
161.817869557064
 30
0.0
 40
0.9000000000000001
100
AcDbArc
 50
270.0
 51
0.0
  0
ARC
  5
EF7C88621
330
EF7C85532
100
AcDbEntity
  8
JISSEN
100
AcDbCircle
 10
98.25008343801616
 20
158.543629539351
 30
0.0
 40
7.0
100
AcDbArc
 50
157.5402517962597
 51
180.0
  0
LINE
  5
EF7C88622
330
EF7C85532
100
AcDbEntity
  8
JISSEN
100
AcDbLine
 10
91.30939134568368
 20
159.4529112775544
 30
0.0
 11
96.84953051197428
 21
159.4529112775544
 31
0.0
  0
LINE
  5
EF7C88623
330
EF7C85532
100
AcDbEntity
  8
JISSEN
100
AcDbLine
 10
94.64953051197468
 20
160.0178695570648
 30
0.0
 11
91.40708582219232
 21
160.0178695570643
 31
0.0
  0
LINE
  5
EF7C88624
330
EF7C85532
100
AcDbEntity
  8
JISSEN
100
AcDbLine
 10
91.25008959163777
 20
158.5529112775543
 30
0.0
 11
96.84953051197451
 21
158.5529112775543
 31
0.0
  0
LINE
  5
EF7C88625
330
EF7C85532
100
AcDbEntity
  8
JISSEN
100
AcDbLine
 10
91.50008343801616
 20
156.417869557063
 30
0.0
 11
91.50008343801616
 21
158.1886970905725
 31
0.0
  0
LINE
  5
EF7C88626
330
EF7C85532
100
AcDbEntity
  8
JISSEN
100
AcDbLine
 10
94.64953051197468
 20
160.917869557064
 30
0.0
 11
91.66502578160267
 21
160.9178695570635
 31
0.0
  0
LINE
  5
EF7C88627
330
EF7C85532
100
AcDbEntity
  8
JISSEN
100
AcDbLine
 10
95.54953051197523
 20
164.1678695570639
 30
0.0
 11
95.54953051197523
 21
161.817869557064
 31
0.0
  0
LINE
  5
EF7C88628
330
EF7C85532
100
AcDbEntity
  8
JISSEN
100
AcDbLine
 10
96.44953051197397
 20
164.1678695570639
 30
0.0
 11
96.44953051197397
 21
161.817869557064
 31
0.0
  0
ARC
  5
EF7C88629
330
EF7C85532
100
AcDbEntity
  8
JISSEN
100
AcDbCircle
 10
95.99953051197459
 20
164.1678695570639
 30
0.0
 40
0.45
100
AcDbArc
 50
0.0
 51
180.0
  0
LINE
  5
EF7C8862A
330
EF7C85532
100
AcDbEntity
  8
JISSEN
100
AcDbLine
 10
97.7495305119746
 20
159.9721955496638
 30
0.0
 11
97.7495305119746
 21
159.4948062298489
 31
0.0
  0
LINE
  5
EF7C8862B
330
EF7C85532
100
AcDbEntity
  8
JISSEN
100
AcDbLine
 10
98.64953051197469
 20
159.9721955496638
 30
0.0
 11
98.64953051197469
 21
159.1674348911514
 31
0.0
  0
ARC
  5
EF7C8862C
330
EF7C85532
100
AcDbEntity
  8
JISSEN
100
AcDbCircle
 10
98.29953051197433
 20
160.2624626746146
 30
0.0
 40
0.8
100
AcDbArc
 50
196.7190914177049
 51
226.5674634422401
  0
LINE
  5
EF7C8862D
330
EF7C85532
100
AcDbEntity
  8
JISSEN
100
AcDbLine
 10
99.29376093771836
 20
159.4624626746144
 30
0.0
 11
98.64953051197446
 21
159.4624626746144
 31
0.0
  0
ARC
  5
EF7C8862E
330
EF7C85532
100
AcDbEntity
  8
JISSEN
100
AcDbCircle
 10
99.29376093771814
 20
160.2624626746146
 30
0.0
 40
0.8
100
AcDbArc
 50
270.0000000000065
 51
294.5192087310222
  0
ARC
  5
EF7C8862F
330
EF7C85532
100
AcDbEntity
  8
JISSEN
100
AcDbCircle
 10
98.19953051197442
 20
159.9721955496638
 30
0.0
 40
0.45
100
AcDbArc
 50
0.0
 51
180.0
  0
LINE
  5
EF7C88630
330
EF7C85532
100
AcDbEntity
  8
JISSEN
100
AcDbLine
 10
97.44514989817842
 20
156.3886970905723
 30
0.0
 11
97.44514989817842
 21
158.2178695570587
 31
0.0
  0
ARC
  5
EF7C88631
330
EF7C85532
100
AcDbEntity
  8
JISSEN
100
AcDbCircle
 10
100.973954160941
 20
160.3691666438576
 30
0.0
 40
5.0
100
AcDbArc
 50
284.6790800522001
 51
306.6829888003701
  0
LINE
  5
EF7C88632
330
EF7C85532
100
AcDbEntity
  8
JISSEN
100
AcDbLine
 10
97.50008343801617
 20
161.2178695570628
 30
0.0
 11
97.50008343801617
 21
160.917869557063
 31
0.0
  0
LINE
  5
EF7C88633
330
EF7C85532
100
AcDbEntity
  8
JISSEN
100
AcDbLine
 10
99.00008343801616
 20
163.517869557063
 30
0.0
 11
99.00008343801616
 21
161.2178695570628
 31
0.0
  0
ARC
  5
EF7C88634
330
EF7C85532
100
AcDbEntity
  8
JISSEN
100
AcDbCircle
 10
90.00008343801615
 20
196.5677948487481
 30
0.0
 40
19.34838405080195
100
AcDbArc
 50
276.2222471731591
 51
277.4239295896273
  0
ARC
  5
EF7C88635
330
EF7C85532
100
AcDbEntity
  8
JISSEN
100
AcDbCircle
 10
93.00008343801639
 20
176.2708717777849
 30
0.0
 40
1.5
100
AcDbArc
 50
0.0
 51
90.0
  0
ARC
  5
EF7C88636
330
EF7C85532
100
AcDbEntity
  8
JISSEN
100
AcDbCircle
 10
97.50008343801617
 20
177.7281749263088
 30
0.0
 40
4.0
100
AcDbArc
 50
274.9999999999989
 51
0.0
  0
LINE
  5
EF7C88637
330
EF7C85532
100
AcDbEntity
  8
JISSEN
100
AcDbLine
 10
97.50008343801638
 20
177.520871777785
 30
0.0
 11
97.50008343801638
 21
172.520871777785
 31
0.0
  0
LINE
  5
EF7C88638
330
EF7C85532
100
AcDbEntity
  8
JISSEN
100
AcDbLine
 10
92.50008343801615
 20
177.3816027988045
 30
0.0
 11
92.50008343801615
 21
173.7128955761354
 31
0.0
  0
LINE
  5
EF7C88639
330
EF7C85532
100
AcDbEntity
  8
JISSEN
100
AcDbLine
 10
91.54072189333325
 20
169.5431886167507
 30
0.0
 11
92.50008343801615
 21
182.9742502423114
 31
0.0
  0
LINE
  5
EF7C8863A
330
EF7C85532
100
AcDbEntity
  8
JISSEN
100
AcDbLine
 10
93.00008343801616
 20
170.3477603364835
 30
0.0
 11
93.00008343801616
 21
173.3057166604885
 31
0.0
  0
ARC
  5
EF7C8863B
330
EF7C85532
100
AcDbEntity
  8
JISSEN
100
AcDbCircle
 10
84.00008343801639
 20
172.520871777785
 30
0.0
 40
10.5
100
AcDbArc
 50
345.8509954910605
 51
0.0
  0
ARC
  5
EF7C8863C
330
EF7C85532
100
AcDbEntity
  8
JISSEN
100
AcDbCircle
 10
92.7270531297249
 20
170.3208717777847
 30
0.0
 40
1.5
100
AcDbArc
 50
270.0
 51
345.8509954910605
  0
ARC
  5
EF7C8863D
330
EF7C85532
100
AcDbEntity
  8
JISSEN
100
AcDbCircle
 10
90.00008343801615
 20
189.4621519139659
 30
0.0
 40
19.34838405080195
100
AcDbArc
 50
274.701983398945
 51
278.919795176325
  0
LINE
  5
EF7C8863E
330
EF7C85532
100
AcDbEntity
  8
JISSEN
100
AcDbLine
 10
92.8500834380163
 20
170.324820193548
 30
0.0
 11
92.8500834380163
 21
170.1683778480778
 31
0.0
  0
ARC
  5
EF7C8863F
330
EF7C85532
100
AcDbEntity
  8
JISSEN
100
AcDbCircle
 10
91.70008343801644
 20
167.6033385603213
 30
0.0
 40
0.3
100
AcDbArc
 50
279.5940682268399
 51
0.0
  0
ARC
  5
EF7C88640
330
EF7C85532
100
AcDbEntity
  8
JISSEN
100
AcDbCircle
 10
92.20008343801643
 20
168.6208717777849
 30
0.0
 40
0.2
100
AcDbArc
 50
90.0
 51
180.0
  0
LINE
  5
EF7C88641
330
EF7C85532
100
AcDbEntity
  8
JISSEN
100
AcDbLine
 10
92.7270531297249
 20
168.8208717777847
 30
0.0
 11
92.20008343801643
 21
168.8208717777847
 31
0.0
  0
LWPOLYLINE
  5
EF7C88642
330
EF7C85532
100
AcDbEntity
  8
JISSEN
100
AcDbPolyline
 90
        3
 70
     0
 43
0.0
 10
91.75008343801616
 20
169.438967365695
 42
0.0069244247785686
 10
92.01533776439779
 20
169.4751571702363
 42
0.0222413121313502
 10
92.3580604696235
 20
169.5424641471013
 42
0.3154119100223803
  0
LINE
  5
EF7C88643
330
EF7C85532
100
AcDbEntity
  8
JISSEN
100
AcDbLine
 10
93.26203944613505
 20
168.9195189880656
 30
0.0
 11
92.50008343801615
 21
169.3594344944635
 31
0.0
  0
ARC
  5
EF7C88644
330
EF7C85532
100
AcDbEntity
  8
JISSEN
100
AcDbCircle
 10
90.00008343801615
 20
165.0293074755418
 30
0.0
 40
5.0
100
AcDbArc
 50
60.00000000000479
 51
63.67919017839361
  0
LINE
  5
EF7C88645
330
EF7C85532
100
AcDbEntity
  8
JISSEN
100
AcDbLine
 10
91.75008343801616
 20
169.5431886167507
 30
0.0
 11
91.75008343801616
 21
167.0308181151544
 31
0.0
  0
ARC
  5
EF7C88646
330
EF7C85532
100
AcDbEntity
  8
JISSEN
100
AcDbCircle
 10
92.20595236770575
 20
170.1683778480778
 30
0.0
 40
0.6441310703106079
100
AcDbArc
 50
283.6591051852993
 51
0.0
  0
LINE
  5
EF7C88647
330
EF7C85532
100
AcDbEntity
  8
JISSEN
100
AcDbLine
 10
94.5000834380164
 20
173.4372004347978
 30
0.0
 11
91.8019723647453
 21
173.2006952165179
 31
0.0
  0
LINE
  5
EF7C88648
330
EF7C85532
100
AcDbEntity
  8
JISSEN
100
AcDbLine
 10
94.5000834380164
 20
173.537583877056
 30
0.0
 11
91.80918778733483
 21
173.301711132773
 31
0.0
  0
LINE
  5
EF7C88649
330
EF7C85532
100
AcDbEntity
  8
JISSEN
100
AcDbLine
 10
94.5000834380164
 20
173.8882072752148
 30
0.0
 11
92.50008343801615
 21
174.0635189742947
 31
0.0
  0
ARC
  5
EF7C8864A
330
EF7C85532
100
AcDbEntity
  8
JISSEN
100
AcDbCircle
 10
90.00008343801615
 20
192.8990876260795
 30
0.0
 40
19.34838405080195
100
AcDbArc
 50
275.4364749416896
 51
277.4239295896273
  0
LINE
  5
EF7C8864B
330
EF7C85532
100
AcDbEntity
  8
JISSEN
100
AcDbLine
 10
94.5000834380164
 20
176.2708717777849
 30
0.0
 11
94.5000834380164
 21
172.520871777785
 31
0.0
  0
LINE
  5
EF7C8864C
330
EF7C85532
100
AcDbEntity
  8
JISSEN
100
AcDbLine
 10
97.50008343801638
 20
173.7128955761354
 30
0.0
 11
97.84870640900678
 21
173.743396133942
 31
0.0
  0
LINE
  5
EF7C8864D
330
EF7C85532
100
AcDbEntity
  8
JISSEN
100
AcDbLine
 10
96.78276036167197
 20
181.8628955761355
 30
0.0
 11
100.4129276952685
 21
182.1804940645274
 31
0.0
  0
ARC
  5
EF7C8864E
330
EF7C85532
100
AcDbEntity
  8
JISSEN
100
AcDbCircle
 10
84.00008343801639
 20
177.520871777785
 30
0.0
 40
13.5
100
AcDbArc
 50
0.0
 51
42.20544640372667
  0
LINE
  5
EF7C8864F
330
EF7C85532
100
AcDbEntity
  8
JISSEN
100
AcDbLine
 10
96.50008343801616
 20
182.6198912913778
 30
0.0
 11
96.50008343801616
 21
186.3312601152374
 31
0.0
  0
ARC
  5
EF7C88650
330
EF7C85532
100
AcDbEntity
  8
JISSEN
100
AcDbCircle
 10
92.6250834380164
 20
177.4708717777848
 30
0.0
 40
1.199999999999999
100
AcDbArc
 50
90.0
 51
111.4232972478973
  0
ARC
  5
EF7C88651
330
EF7C85532
100
AcDbEntity
  8
JISSEN
100
AcDbCircle
 10
90.00008343801638
 20
158.1954107488608
 30
0.0
 40
19.34838405080195
100
AcDbArc
 50
82.5760704103726
 51
83.75739577137263
  0
LINE
  5
EF7C88652
330
EF7C85532
100
AcDbEntity
  8
JISSEN
100
AcDbLine
 10
93.00008343801639
 20
177.770871777785
 30
0.0
 11
92.6250834380164
 21
177.770871777785
 31
0.0
  0
LWPOLYLINE
  5
EF7C88653
330
EF7C85532
100
AcDbEntity
  8
JISSEN
100
AcDbPolyline
 90
        2
 70
     0
 43
0.0
 10
92.15478901362983
 20
178.1401283008994
 42
-0.0047313531205596
 10
92.6250834380164
 20
178.1095078098987
 42
-0.0263064786181953
  0
LINE
  5
EF7C88654
330
EF7C85532
100
AcDbEntity
  8
JISSEN
100
AcDbLine
 10
92.6250834380164
 20
177.770871777785
 30
0.0
 11
92.6250834380164
 21
182.270871777785
 31
0.0
  0
ARC
  5
EF7C88655
330
EF7C85532
100
AcDbEntity
  8
JISSEN
100
AcDbCircle
 10
94.00008343801616
 20
182.9742502423114
 30
0.0
 40
1.5
100
AcDbArc
 50
104.2500326978067
 51
180.0
  0
LINE
  5
EF7C88656
330
EF7C85532
100
AcDbEntity
  8
JISSEN
100
AcDbLine
 10
94.00008343801616
 20
186.9339585987336
 30
0.0
 11
95.5881649620737
 21
186.7935321579975
 31
0.0
  0
LINE
  5
EF7C88657
330
EF7C85532
100
AcDbEntity
  8
JISSEN
100
AcDbLine
 10
93.74446010958534
 20
185.9807314204221
 30
0.0
 11
93.63085266878554
 21
184.4280963961577
 31
0.0
  0
ARC
  5
EF7C88658
330
EF7C85532
100
AcDbEntity
  8
JISSEN
100
AcDbCircle
 10
94.22984797614409
 20
185.945215235064
 30
0.0
 40
0.4866855046380603
100
AcDbArc
 50
118.1707402297475
 51
175.8150838748792
  0
LINE
  5
EF7C88659
330
EF7C85532
100
AcDbEntity
  8
JISSEN
100
AcDbLine
 10
96.65008343801625
 20
186.3312601152374
 30
0.0
 11
96.50008343801616
 21
186.3312601152374
 31
0.0
  0
LINE
  5
EF7C8865A
330
EF7C85532
100
AcDbEntity
  8
JISSEN
100
AcDbLine
 10
96.50008343801616
 20
183.3628955761355
 30
0.0
 11
96.65008343801625
 21
183.3628955761355
 31
0.0
  0
LINE
  5
EF7C8865B
330
EF7C85532
100
AcDbEntity
  8
JISSEN
100
AcDbLine
 10
96.65008343801625
 20
183.3628955761355
 30
0.0
 11
96.65008343801625
 21
186.3312601152374
 31
0.0
  0
ARC
  5
EF7C8865C
330
EF7C85532
100
AcDbEntity
  8
JISSEN
100
AcDbCircle
 10
95.50008343801616
 20
185.7974188887755
 30
0.0
 40
1.0
100
AcDbArc
 50
0.0
 51
84.94675184874227
  0
ARC
  5
EF7C8865D
330
EF7C85532
100
AcDbEntity
  8
JISSEN
100
AcDbCircle
 10
100.5000834380161
 20
181.1842993664358
 30
0.0
 40
1.0
100
AcDbArc
 50
0.0
 51
94.99999999999891
  0
LINE
  5
EF7C8865E
330
EF7C85532
100
AcDbEntity
  8
ITTEN
100
AcDbLine
 10
101.5000834380161
 20
177.5598933554146
 30
0.0
 11
101.5000834380161
 21
177.5598933554146
 31
0.0
  0
LINE
  5
EF7C8865F
330
EF7C85532
100
AcDbEntity
  8
JISSEN
100
AcDbLine
 10
101.5000834380161
 20
177.7128955761354
 30
0.0
 11
101.5000834380161
 21
177.7128955761354
 31
0.0
  0
LINE
  5
EF7C88660
330
EF7C85532
100
AcDbEntity
  8
JISSEN
100
AcDbLine
 10
101.5000834380161
 20
181.1842993664358
 30
0.0
 11
101.5000834380161
 21
177.7281749263088
 31
0.0
  0
ARC
  5
EF7C88661
330
EF7C85532
100
AcDbEntity
  8
JISSEN
100
AcDbCircle
 10
82.00008343801616
 20
170.1294227189255
 30
0.0
 40
28.0
100
AcDbArc
 50
0.0
 51
22.02431283704222
  0
ARC
  5
EF7C88662
330
EF7C85532
100
AcDbEntity
  8
JISSEN
100
AcDbCircle
 10
82.00008343801616
 20
170.1294227189255
 30
0.0
 40
26.0
100
AcDbArc
 50
0.0
 51
23.8188413934584
  0
LINE
  5
EF7C88663
330
EF7C85532
100
AcDbEntity
  8
JISSEN
100
AcDbLine
 10
106.0000834380161
 20
168.3886970905727
 30
0.0
 11
106.0000834380161
 21
170.1294227189255
 31
0.0
  0
LINE
  5
EF7C88664
330
EF7C85532
100
AcDbEntity
  8
JISSEN
100
AcDbLine
 10
108.0000834380161
 20
168.3886970905723
 30
0.0
 11
108.0000834380161
 21
170.1294227189255
 31
0.0
  0
LINE
  5
EF7C88665
330
EF7C85532
100
AcDbEntity
  8
JISSEN
100
AcDbLine
 10
110.0000834380161
 20
168.3886970905723
 30
0.0
 11
110.0000834380161
 21
170.1294227189255
 31
0.0
  0
LINE
  5
EF7C88666
330
EF7C85532
100
AcDbEntity
  8
JISSEN
100
AcDbLine
 10
112.0000834380161
 20
168.3886970905723
 30
0.0
 11
112.0000834380161
 21
170.1294227189255
 31
0.0
  0
LINE
  5
EF7C88667
330
EF7C85532
100
AcDbEntity
  8
JISSEN
100
AcDbLine
 10
104.9075083961219
 20
189.5007902955512
 30
0.0
 11
95.23650260607926
 21
200.9371454485103
 31
0.0
  0
ARC
  5
EF7C88668
330
EF7C85532
100
AcDbEntity
  8
JISSEN
100
AcDbCircle
 10
104.4737969035486
 20
200.4678695570632
 30
0.0
 40
0.3
100
AcDbArc
 50
192.7776819355588
 51
270.0
  0
LINE
  5
EF7C88669
330
EF7C85532
100
AcDbEntity
  8
JISSEN
100
AcDbLine
 10
108.5610181097187
 20
203.1697978997444
 30
0.0
 11
102.0612460581679
 21
203.9678695570625
 31
0.0
  0
ARC
  5
EF7C8866A
330
EF7C85532
100
AcDbEntity
  8
JISSEN
100
AcDbCircle
 10
103.2396651765784
 20
201.8678695570629
 30
0.0
 40
1.3
100
AcDbArc
 50
8.743537314782674
 51
90.0
  0
ARC
  5
EF7C8866B
330
EF7C85532
100
AcDbEntity
  8
JISSEN
100
AcDbCircle
 10
106.7500834380161
 20
196.1294227189254
 30
0.0
 40
12.49999999999999
100
AcDbArc
 50
163.7397952916896
 51
196.2602047083103
  0
ARC
  5
EF7C8866C
330
EF7C85532
100
AcDbEntity
  8
JISSEN
100
AcDbCircle
 10
92.79607734723047
 20
191.6678695570631
 30
0.0
 40
1.5
100
AcDbArc
 50
270.0
 51
304.7545569864816
  0
LINE
  5
EF7C8866D
330
EF7C85532
100
AcDbEntity
  8
JISSEN
100
AcDbLine
 10
92.43854481141577
 20
190.167869557063
 30
0.0
 11
91.51496405372924
 21
189.2442887993761
 31
0.0
  0
ARC
  5
EF7C8866E
330
EF7C85532
100
AcDbEntity
  8
JISSEN
100
AcDbCircle
 10
90.00086799350853
 20
189.7655232897977
 30
0.0
 40
1.6
100
AcDbArc
 50
320.5705531189598
 51
342.7537116970591
  0
ARC
  5
EF7C8866F
330
EF7C85532
100
AcDbEntity
  8
JISSEN
100
AcDbCircle
 10
94.22123262224156
 20
189.6138655546064
 30
0.0
 40
1.0
100
AcDbArc
 50
57.90299399630111
 51
124.7545569864817
  0
LINE
  5
EF7C88670
330
EF7C85532
100
AcDbEntity
  8
JISSEN
100
AcDbLine
 10
97.07106865295234
 20
200.167869557063
 30
0.0
 11
97.27106865295215
 21
200.167869557063
 31
0.0
  0
ARC
  5
EF7C88671
330
EF7C85532
100
AcDbEntity
  8
JISSEN
100
AcDbCircle
 10
97.27106865295215
 20
200.667869557063
 30
0.0
 40
0.5
100
AcDbArc
 50
192.3208321858771
 51
348.2422428527382
  0
LINE
  5
EF7C88672
330
EF7C85532
100
AcDbEntity
  8
JISSEN
100
AcDbLine
 10
95.29218124547739
 20
202.167869557063
 30
0.0
 11
93.36756989083957
 21
202.167869557063
 31
0.0
  0
ARC
  5
EF7C88673
330
EF7C85532
100
AcDbEntity
  8
JISSEN
100
AcDbCircle
 10
94.63248095490687
 20
201.8678695570629
 30
0.0
 40
1.3
100
AcDbArc
 50
90.0
 51
168.8861928075022
  0
LINE
  5
EF7C88674
330
EF7C85532
100
AcDbEntity
  8
JISSEN
100
AcDbLine
 10
91.89175097259633
 20
200.650108473841
 30
0.0
 11
91.59693096711359
 21
202.1230185707122
 31
0.0
  0
LINE
  5
EF7C88675
330
EF7C85532
100
AcDbEntity
  8
JISSEN
100
AcDbLine
 10
91.8072432903418
 20
200.5893846695916
 30
0.0
 11
91.57809021647924
 21
201.3248393320067
 31
0.0
  0
LINE
  5
EF7C88676
330
EF7C85532
100
AcDbEntity
  8
JISSEN
100
AcDbLine
 10
93.356860841126
 20
202.1184555209915
 30
0.0
 11
93.06882883502018
 21
200.6522144967889
 31
0.0
  0
ARC
  5
EF7C88677
330
EF7C85532
100
AcDbEntity
  8
JISSEN
100
AcDbCircle
 10
90.43241461676686
 20
200.9678695570628
 30
0.0
 40
1.199999999999999
100
AcDbArc
 50
17.3059974608076
 51
90.0
  0
LINE
  5
EF7C88678
330
EF7C85532
100
AcDbEntity
  8
JISSEN
100
AcDbLine
 10
92.48008109019835
 20
200.167869557063
 30
0.0
 11
92.38008109019821
 21
200.167869557063
 31
0.0
  0
ARC
  5
EF7C88679
330
EF7C85532
100
AcDbEntity
  8
JISSEN
100
AcDbCircle
 10
92.38008109019821
 20
200.7678695570634
 30
0.0
 40
0.6
100
AcDbArc
 50
197.3059974608076
 51
270.0
  0
ARC
  5
EF7C8867A
330
EF7C85532
100
AcDbEntity
  8
JISSEN
100
AcDbCircle
 10
92.48008109019835
 20
200.7678695570634
 30
0.0
 40
0.6
100
AcDbArc
 50
191.318833727387
 51
348.8861928075022
  0
ARC
  5
EF7C8867B
330
EF7C85532
100
AcDbEntity
  8
JISSEN
100
AcDbCircle
 10
90.32221571230818
 20
201.8678695570629
 30
0.0
 40
1.3
100
AcDbArc
 50
11.31883372738706
 51
90.0
  0
LINE
  5
EF7C8867C
330
EF7C85532
100
AcDbEntity
  8
JISSEN
100
AcDbLine
 10
96.60131710839138
 20
200.4965993425403
 30
0.0
 11
96.2316843345993
 21
201.5104099861082
 31
0.0
  0
LINE
  5
EF7C8867D
330
EF7C85532
100
AcDbEntity
  8
JISSEN
100
AcDbLine
 10
96.78258462590836
 20
200.5611767488553
 30
0.0
 11
96.43659286434465
 21
202.1452708584024
 31
0.0
  0
ARC
  5
EF7C8867E
330
EF7C85532
100
AcDbEntity
  8
JISSEN
100
AcDbCircle
 10
95.29218124547739
 20
201.167869557063
 30
0.0
 40
1.0
100
AcDbArc
 50
20.03172652528651
 51
90.0
  0
LINE
  5
EF7C8867F
330
EF7C85532
100
AcDbEntity
  8
JISSEN
100
AcDbLine
 10
94.63248095490687
 20
203.167869557063
 30
0.0
 11
95.16653439403077
 21
203.167869557063
 31
0.0
  0
ARC
  5
EF7C88680
330
EF7C85532
100
AcDbEntity
  8
JISSEN
100
AcDbCircle
 10
96.00008343801617
 20
201.5828577010647
 30
0.0
 40
1.0
100
AcDbArc
 50
180.0
 51
220.2190987445544
  0
LINE
  5
EF7C88681
330
EF7C85532
100
AcDbEntity
  8
JISSEN
100
AcDbLine
 10
95.00008343801615
 20
201.5828577010647
 30
0.0
 11
95.00008343801615
 21
202.167869557063
 31
0.0
  0
ARC
  5
EF7C88682
330
EF7C85532
100
AcDbEntity
  8
JISSEN
100
AcDbCircle
 10
97.07106865295234
 20
200.667869557063
 30
0.0
 40
0.5
100
AcDbArc
 50
200.0317265252864
 51
270.0
  0
ARC
  5
EF7C88683
330
EF7C85532
100
AcDbEntity
  8
JISSEN
100
AcDbCircle
 10
95.16653439403077
 20
201.8678695570629
 30
0.0
 40
1.3
100
AcDbArc
 50
12.3208321858772
 51
90.0
  0
LINE
  5
EF7C88684
330
EF7C85532
100
AcDbEntity
  8
JISSEN
100
AcDbLine
 10
100.4043598494217
 20
201.6157465779219
 30
0.0
 11
100.7862359225796
 21
200.4439310466331
 31
0.0
  0
ARC
  5
EF7C88685
330
EF7C85532
100
AcDbEntity
  8
JISSEN
100
AcDbCircle
 10
99.57320934865627
 20
201.8678695570629
 30
0.0
 40
1.3
100
AcDbArc
 50
11.2989559157586
 51
90.0
  0
LINE
  5
EF7C88686
330
EF7C85532
100
AcDbEntity
  8
JISSEN
100
AcDbLine
 10
97.76057759940748
 20
200.5659824070394
 30
0.0
 11
98.08669247434043
 21
202.1327761471243
 31
0.0
  0
LINE
  5
EF7C88687
330
EF7C85532
100
AcDbEntity
  8
JISSEN
100
AcDbLine
 10
99.64373051621803
 20
202.167869557063
 30
0.0
 11
98.09450467105804
 21
202.167869557063
 31
0.0
  0
ARC
  5
EF7C88688
330
EF7C85532
100
AcDbEntity
  8
JISSEN
100
AcDbCircle
 10
99.64373051621803
 20
201.3678695570629
 30
0.0
 40
0.8
100
AcDbArc
 50
18.04996662058242
 51
90.0
  0
LINE
  5
EF7C88689
330
EF7C85532
100
AcDbEntity
  8
JISSEN
100
AcDbLine
 10
99.57320934865627
 20
203.167869557063
 30
0.0
 11
99.35941573512534
 21
203.167869557063
 31
0.0
  0
ARC
  5
EF7C8868A
330
EF7C85532
100
AcDbEntity
  8
JISSEN
100
AcDbCircle
 10
99.35941573512534
 20
201.8678695570629
 30
0.0
 40
1.3
100
AcDbArc
 50
90.0
 51
168.2422428527382
  0
LINE
  5
EF7C8868B
330
EF7C85532
100
AcDbEntity
  8
JISSEN
100
AcDbLine
 10
101.17430329756
 20
200.4894982471605
 30
0.0
 11
100.8480130464253
 21
202.1225763142451
 31
0.0
  0
LINE
  5
EF7C8868C
330
EF7C85532
100
AcDbEntity
  8
JISSEN
100
AcDbLine
 10
101.9599334501335
 20
200.4954131928888
 30
0.0
 11
102.2520270132517
 21
202.0812587267505
 31
0.0
  0
LINE
  5
EF7C8868D
330
EF7C85532
100
AcDbEntity
  8
JISSEN
100
AcDbLine
 10
103.8866209915604
 20
201.7005707392808
 30
0.0
 11
104.1812262299335
 21
200.4015189659543
 31
0.0
  0
LINE
  5
EF7C8868E
330
EF7C85532
100
AcDbEntity
  8
JISSEN
100
AcDbLine
 10
103.3014796443303
 20
202.167869557063
 30
0.0
 11
102.2672443931341
 21
202.167869557063
 31
0.0
  0
LINE
  5
EF7C8868F
330
EF7C85532
100
AcDbEntity
  8
JISSEN
100
AcDbLine
 10
103.2396651765784
 20
203.167869557063
 30
0.0
 11
102.374452108776
 21
203.167869557063
 31
0.0
  0
ARC
  5
EF7C88690
330
EF7C85532
100
AcDbEntity
  8
JISSEN
100
AcDbCircle
 10
94.23126968549921
 20
203.5351347955693
 30
0.0
 40
8.151460220977577
100
AcDbArc
 50
349.7258822716137
 51
357.4176560501106
  0
ARC
  5
EF7C88691
330
EF7C85532
100
AcDbEntity
  8
JISSEN
100
AcDbCircle
 10
103.3014796443303
 20
201.5678695570631
 30
0.0
 40
0.6
100
AcDbArc
 50
12.77768193555888
 51
90.0
  0
LINE
  5
EF7C88692
330
EF7C85532
100
AcDbEntity
  8
JISSEN
100
AcDbLine
 10
101.1665505891814
 20
200.167869557063
 30
0.0
 11
101.5665505891813
 21
200.167869557063
 31
0.0
  0
ARC
  5
EF7C88693
330
EF7C85532
100
AcDbEntity
  8
JISSEN
100
AcDbCircle
 10
101.1665505891814
 20
200.5678695570627
 30
0.0
 40
0.4
100
AcDbArc
 50
198.0499666205824
 51
270.0
  0
ARC
  5
EF7C88694
330
EF7C85532
100
AcDbEntity
  8
JISSEN
100
AcDbCircle
 10
101.5665505891813
 20
200.5678695570627
 30
0.0
 40
0.4
100
AcDbArc
 50
191.2989559157586
 51
349.5637783413022
  0
ARC
  5
EF7C88695
330
EF7C85532
100
AcDbEntity
  8
JISSEN
100
AcDbCircle
 10
107.8375358041184
 20
200.2678695570639
 30
0.0
 40
0.1
100
AcDbArc
 50
180.8961572775653
 51
270.0
  0
ARC
  5
EF7C88696
330
EF7C85532
100
AcDbEntity
  8
JISSEN
100
AcDbCircle
 10
107.5537945557298
 20
200.3678695570628
 30
0.0
 40
0.2
100
AcDbArc
 50
185.1572134748229
 51
356.0823036285585
  0
ARC
  5
EF7C88697
330
EF7C85532
100
AcDbEntity
  8
JISSEN
100
AcDbCircle
 10
107.4063941475228
 20
201.8678695570629
 30
0.0
 40
1.3
100
AcDbArc
 50
1.105704289517634
 51
90.0
  0
ARC
  5
EF7C88698
330
EF7C85532
100
AcDbEntity
  8
JISSEN
100
AcDbCircle
 10
106.631117469672
 20
202.1816618051274
 30
0.0
 40
1.244540968917422
100
AcDbArc
 50
355.3726464066837
 51
52.41289174619478
  0
LINE
  5
EF7C88699
330
EF7C85532
100
AcDbEntity
  8
JISSEN
100
AcDbLine
 10
106.4192561791855
 20
201.8049178194573
 30
0.0
 11
106.554654262059
 21
200.3493454258659
 31
0.0
  0
LINE
  5
EF7C8869A
330
EF7C85532
100
AcDbEntity
  8
JISSEN
100
AcDbLine
 10
104.7772833046612
 20
200.4222659862075
 30
0.0
 11
104.5245574384243
 21
202.0654850307705
 31
0.0
  0
LINE
  5
EF7C8869B
330
EF7C85532
100
AcDbEntity
  8
JISSEN
100
AcDbLine
 10
105.593134760455
 20
202.0812587267486
 30
0.0
 11
105.3711282856999
 21
200.427944011505
 31
0.0
  0
LINE
  5
EF7C8869C
330
EF7C85532
100
AcDbEntity
  8
JISSEN
100
AcDbLine
 10
107.3546041952831
 20
200.3498917845335
 30
0.0
 11
107.2070535757838
 21
201.9847250785032
 31
0.0
  0
ARC
  5
EF7C8869D
330
EF7C85532
100
AcDbEntity
  8
JISSEN
100
AcDbCircle
 10
105.0737969035485
 20
200.4678695570632
 30
0.0
 40
0.3
100
AcDbArc
 50
352.3520919571002
 51
353.9043985400127
  0
LINE
  5
EF7C8869E
330
EF7C85532
100
AcDbEntity
  8
JISSEN
100
AcDbLine
 10
107.7372068056663
 20
200.2881202838802
 30
0.0
 11
107.737548035749
 21
200.266305531325
 31
0.0
  0
LINE
  5
EF7C8869F
330
EF7C85532
100
AcDbEntity
  8
JISSEN
100
AcDbLine
 10
106.0209755918435
 20
202.167869557063
 30
0.0
 11
105.5961547242036
 21
202.167869557063
 31
0.0
  0
ARC
  5
EF7C886A0
330
EF7C85532
100
AcDbEntity
  8
JISSEN
100
AcDbCircle
 10
106.0209755918435
 20
201.767869557063
 30
0.0
 40
0.4
100
AcDbArc
 50
5.314389558658173
 51
90.0
  0
LINE
  5
EF7C886A1
330
EF7C85532
100
AcDbEntity
  8
JISSEN
100
AcDbLine
 10
105.9123162328803
 20
203.167869557063
 30
0.0
 11
105.155528004232
 21
203.167869557063
 31
0.0
  0
LINE
  5
EF7C886A2
330
EF7C85532
100
AcDbEntity
  8
JISSEN
100
AcDbLine
 10
104.4737969035486
 20
200.167869557063
 30
0.0
 11
105.0737969035485
 21
200.167869557063
 31
0.0
  0
LINE
  5
EF7C886A3
330
EF7C85532
100
AcDbEntity
  8
JISSEN
100
AcDbLine
 10
106.75379455573
 20
200.167869557063
 30
0.0
 11
107.5537945557298
 21
200.167869557063
 31
0.0
  0
ARC
  5
EF7C886A4
330
EF7C85532
100
AcDbEntity
  8
JISSEN
100
AcDbCircle
 10
105.0737969035485
 20
200.4678695570632
 30
0.0
 40
0.3
100
AcDbArc
 50
188.7435373147826
 51
352.3520919571002
  0
ARC
  5
EF7C886A5
330
EF7C85532
100
AcDbEntity
  8
JISSEN
100
AcDbCircle
 10
106.75379455573
 20
200.3678695570628
 30
0.0
 40
0.2
100
AcDbArc
 50
185.3143895586581
 51
270.0
  0
ARC
  5
EF7C886A6
330
EF7C85532
100
AcDbEntity
  8
JISSEN
100
AcDbCircle
 10
105.9123162328803
 20
201.8678695570629
 30
0.0
 40
1.3
100
AcDbArc
 50
5.157213474822994
 51
90.0
  0
ARC
  5
EF7C886A7
330
EF7C85532
100
AcDbEntity
  8
JISSEN
100
AcDbCircle
 10
104.2492759419869
 20
202.1714747302316
 30
0.0
 40
1.346883607168649
100
AcDbArc
 50
356.1593792128744
 51
47.71250584115438
  0
LINE
  5
EF7C886A8
330
EF7C85532
100
AcDbEntity
  8
JISSEN
100
AcDbLine
 10
107.87160182877
 20
202.0812587267496
 30
0.0
 11
107.75332720054
 21
200.3542048706367
 31
0.0
  0
LINE
  5
EF7C886A9
330
EF7C85532
100
AcDbEntity
  8
JISSEN
100
AcDbLine
 10
108.7375544245287
 20
200.2659398588007
 30
0.0
 11
108.7061520821866
 21
201.892955634431
 31
0.0
  0
LINE
  5
EF7C886AA
330
EF7C85532
100
AcDbEntity
  8
JISSEN
100
AcDbLine
 10
107.8375358041184
 20
200.167869557063
 30
0.0
 11
109.0000834380161
 21
200.167869557063
 31
0.0
  0
LINE
  5
EF7C886AB
330
EF7C85532
100
AcDbEntity
  8
JISSEN
100
AcDbLine
 10
109.0000834380161
 20
200.167869557063
 30
0.0
 11
109.0000834380161
 21
202.6735248239237
 31
0.0
  0
ARC
  5
EF7C886AC
330
EF7C85532
100
AcDbEntity
  8
JISSEN
100
AcDbCircle
 10
108.8375358041186
 20
200.2678695570593
 30
0.0
 40
0.1
100
AcDbArc
 50
181.1057042895176
 51
270.0
  0
ARC
  5
EF7C886AD
330
EF7C85532
100
AcDbEntity
  8
JISSEN
100
AcDbCircle
 10
108.5000834380161
 20
202.6735248239237
 30
0.0
 40
0.5
100
AcDbArc
 50
0.0
 51
83.00000000000128
  0
LINE
  5
EF7C886BF
330
EF7C85532
100
AcDbEntity
  8
JISSEN
100
AcDbLine
 10
260.722028486104
 20
138.1667513184847
 30
0.0
 11
281.2781369419287
 21
138.1667513184847
 31
0.0
  0
LINE
  5
EF7C886C0
330
EF7C85532
100
AcDbEntity
  8
JISSEN
100
AcDbLine
 10
262.5000827140163
 20
136.3886970905723
 30
0.0
 11
279.5000827140162
 21
136.3886970905723
 31
0.0
  0
LINE
  5
EF7C886C1
330
EF7C85532
100
AcDbEntity
  8
JISSEN
100
AcDbLine
 10
262.5000827140163
 20
136.3886970905723
 30
0.0
 11
260.722028486104
 21
138.1667513184847
 31
0.0
  0
LINE
  5
EF7C886C2
330
EF7C85532
100
AcDbEntity
  8
JISSEN
100
AcDbLine
 10
279.5000827140162
 20
136.3886970905723
 30
0.0
 11
281.2781369419287
 21
138.1667513184847
 31
0.0
  0
LINE
  5
EF7C88831
330
EF7C85532
100
AcDbEntity
  8
JISSEN
100
AcDbLine
 10
281.2781369419287
 20
138.1667513184847
 30
0.0
 11
281.6635970683421
 21
150.5008589724634
 31
0.0
  0
LINE
  5
EF7C88832
330
EF7C85532
100
AcDbEntity
  8
SAISEN
100
AcDbLine
 10
280.0786511372907
 20
136.9672655138469
 30
0.0
 11
280.5135770422763
 21
150.8841989811521
 31
0.0
  0
LINE
  5
EF7C88833
330
EF7C85532
100
AcDbEntity
  8
JISSEN
100
AcDbLine
 10
260.3365683596905
 20
150.5008589724634
 30
0.0
 11
260.722028486104
 21
138.1667513184847
 31
0.0
  0
LINE
  5
EF7C88834
330
EF7C85532
100
AcDbEntity
  8
SAISEN
100
AcDbLine
 10
261.9215142907421
 20
136.9672655138465
 30
0.0
 11
261.4865883857561
 21
150.8841989811521
 31
0.0
  0
ARC
  5
EF7C88835
330
EF7C85532
100
AcDbEntity
  8
JISSEN
100
AcDbCircle
 10
266.0000827140162
 20
168.3886970905723
 30
0.0
 40
17.0
100
AcDbArc
 50
180.0
 51
250.2500772043588
  0
ARC
  5
EF7C88836
330
EF7C85532
100
AcDbEntity
  8
JISSEN
100
AcDbCircle
 10
279.0000827140163
 20
170.1294227189255
 30
0.0
 40
30.0
100
AcDbArc
 50
139.7809012554455
 51
180.0
  0
ARC
  5
EF7C88839
330
EF7C85532
100
AcDbEntity
  8
JISSEN
100
AcDbCircle
 10
279.0000827140163
 20
170.1294227189255
 30
0.0
 40
24.0
100
AcDbArc
 50
122.0970060036987
 51
180.0
  0
ARC
  5
EF7C8883E
330
EF7C85532
100
AcDbEntity
  8
JISSEN
100
AcDbCircle
 10
263.0000827140162
 20
170.1294227189255
 30
0.0
 40
24.0
100
AcDbArc
 50
0.0
 51
57.90299399630111
  0
ARC
  5
EF7C8883F
330
EF7C85532
100
AcDbEntity
  8
JISSEN
100
AcDbCircle
 10
263.0000827140162
 20
170.1294227189255
 30
0.0
 40
30.0
100
AcDbArc
 50
0.0
 51
40.21909874455442
  0
LINE
  5
EF7C88844
330
EF7C85532
100
AcDbEntity
  8
JISSEN
100
AcDbLine
 10
261.5000827140162
 20
150.8886970905723
 30
0.0
 11
280.5000827140162
 21
150.8886970905723
 31
0.0
  0
LINE
  5
EF7C88845
330
EF7C85532
100
AcDbEntity
  8
JISSEN
100
AcDbLine
 10
260.3365683596905
 20
150.5008589724634
 30
0.0
 11
281.6635970683421
 21
150.5008589724634
 31
0.0
  0
LINE
  5
EF7C8884A
330
EF7C85532
100
AcDbEntity
  8
JISSEN
100
AcDbLine
 10
278.5333484353165
 20
160.0323189481323
 30
0.0
 11
276.9995297879717
 21
160.9178695570641
 31
0.0
  0
LINE
  5
EF7C8884C
330
EF7C85532
100
AcDbEntity
  8
JISSEN
100
AcDbLine
 10
279.3311337246729
 20
156.417869557063
 30
0.0
 11
272.5000827140163
 21
156.417869557063
 31
0.0
  0
LINE
  5
EF7C8884D
330
EF7C85532
100
AcDbEntity
  8
JISSEN
100
AcDbLine
 10
278.4451491741785
 20
158.2178695570587
 30
0.0
 11
271.0000827140162
 21
158.217869557062
 31
0.0
  0
LINE
  5
EF7C8884E
330
EF7C85532
100
AcDbEntity
  8
JISSEN
100
AcDbLine
 10
281.7446453605545
 20
152.3886970905723
 30
0.0
 11
275.5610206133944
 21
152.3886970905723
 31
0.0
  0
ARC
  5
EF7C88853
330
EF7C85532
100
AcDbEntity
  8
JISSEN
100
AcDbCircle
 10
266.0000827140162
 20
168.3886970905723
 30
0.0
 40
15.0
100
AcDbArc
 50
180.0
 51
233.3170111996457
  0
ARC
  5
EF7C88854
330
EF7C85532
100
AcDbEntity
  8
JISSEN
100
AcDbCircle
 10
265.9393877616923
 20
169.5426490280005
 30
0.0
 40
11.0
100
AcDbArc
 50
186.0216771926274
 51
245.4807912689775
  0
ARC
  5
EF7C88855
330
EF7C85532
100
AcDbEntity
  8
JISSEN
100
AcDbCircle
 10
263.7332309695868
 20
168.9650011443008
 30
0.0
 40
10.74860911180585
100
AcDbArc
 50
183.0734796207522
 51
269.0499776435753
  0
ARC
  5
EF7C8885B
330
EF7C85532
100
AcDbEntity
  8
JISSEN
100
AcDbCircle
 10
262.6995297879745
 20
160.2624626746146
 30
0.0
 40
0.8
100
AcDbArc
 50
270.0
 51
343.2809085822678
  0
LINE
  5
EF7C8885E
330
EF7C85532
100
AcDbEntity
  8
JISSEN
100
AcDbLine
 10
262.6690317033598
 20
156.417869557063
 30
0.0
 11
269.5000827140162
 21
156.417869557063
 31
0.0
  0
LINE
  5
EF7C8885F
330
EF7C85532
100
AcDbEntity
  8
JISSEN
100
AcDbLine
 10
260.2555200674782
 20
152.3886970905723
 30
0.0
 11
266.4391448146385
 21
152.3886970905723
 31
0.0
  0
LINE
  5
EF7C88860
330
EF7C85532
100
AcDbEntity
  8
JISSEN
100
AcDbLine
 10
262.6690317033598
 20
152.3886970905723
 30
0.0
 11
262.6690317033598
 21
156.417869557063
 31
0.0
  0
LINE
  5
EF7C88861
330
EF7C85532
100
AcDbEntity
  8
JISSEN
100
AcDbLine
 10
261.5000827140162
 20
152.3886970905723
 30
0.0
 11
261.5000827140162
 21
150.8886970905723
 31
0.0
  0
LINE
  5
EF7C88862
330
EF7C85532
100
AcDbEntity
  8
JISSEN
100
AcDbLine
 10
260.3365683596905
 20
150.5008589724634
 30
0.0
 11
261.5000827140162
 21
150.8886970905723
 31
0.0
  0
ARC
  5
EF7C88863
330
EF7C85532
100
AcDbEntity
  8
JISSEN
100
AcDbCircle
 10
257.1123341823478
 20
149.245579762196
 30
0.0
 40
6.498907295833106
100
AcDbArc
 50
39.10096087449982
 51
75.32091994779984
  0
ARC
  5
EF7C88864
330
EF7C85532
100
AcDbEntity
  8
JISSEN
100
AcDbCircle
 10
260.0262119910916
 20
160.3691666438576
 30
0.0
 40
5.0
100
AcDbArc
 50
233.3170111996457
 51
255.3209199478057
  0
LINE
  5
EF7C88866
330
EF7C85532
100
AcDbEntity
  8
JISSEN
100
AcDbLine
 10
261.7064052143143
 20
159.4624626746144
 30
0.0
 11
262.6995297879745
 21
159.4624626746144
 31
0.0
  0
ARC
  5
EF7C88867
330
EF7C85532
100
AcDbEntity
  8
JISSEN
100
AcDbCircle
 10
261.7064052143143
 20
160.2624626746146
 30
0.0
 40
0.8
100
AcDbArc
 50
245.4807912689775
 51
269.9999999999934
  0
LINE
  5
EF7C88869
330
EF7C85532
100
AcDbEntity
  8
JISSEN
100
AcDbLine
 10
266.4391448146385
 20
152.3886970905723
 30
0.0
 11
266.4391448146383
 21
156.3886970905723
 31
0.0
  0
LINE
  5
EF7C8886A
330
EF7C85532
100
AcDbEntity
  8
JISSEN
100
AcDbLine
 10
275.5610206133944
 20
152.3886970905723
 30
0.0
 11
275.5610206133944
 21
156.3886970905723
 31
0.0
  0
LINE
  5
EF7C8886B
330
EF7C85532
100
AcDbEntity
  8
JISSEN
100
AcDbLine
 10
266.4391448146385
 20
152.3886970905723
 30
0.0
 11
266.4391448146385
 21
150.8886970905723
 31
0.0
  0
LINE
  5
EF7C8886C
330
EF7C85532
100
AcDbEntity
  8
JISSEN
100
AcDbLine
 10
275.5610206133944
 20
152.3886970905723
 30
0.0
 11
275.5610206133944
 21
150.8886970905723
 31
0.0
  0
LINE
  5
EF7C88870
330
EF7C85532
100
AcDbEntity
  8
JISSEN
100
AcDbLine
 10
269.5000827140162
 20
156.417869557063
 30
0.0
 11
269.5000827140162
 21
158.1886970905725
 31
0.0
  0
LINE
  5
EF7C88871
330
EF7C85532
100
AcDbEntity
  8
JISSEN
100
AcDbLine
 10
263.5550162538545
 20
156.3886970905723
 30
0.0
 11
263.5550162538545
 21
158.2178695570587
 31
0.0
  0
LINE
  5
EF7C88878
330
EF7C85532
100
AcDbEntity
  8
JISSEN
100
AcDbLine
 10
271.0000827140162
 20
160.917869557063
 30
0.0
 11
264.9995297879746
 21
160.917869557063
 31
0.0
  0
LINE
  5
EF7C8887C
330
EF7C85532
100
AcDbEntity
  8
JISSEN
100
AcDbLine
 10
263.5000827140162
 20
158.2178695570587
 30
0.0
 11
269.5000827140162
 21
158.2178695570587
 31
0.0
  0
LINE
  5
EF7C8887D
330
EF7C85532
100
AcDbEntity
  8
JISSEN
100
AcDbLine
 10
263.5550162538545
 20
158.2178695570587
 30
0.0
 11
271.0000827140162
 21
158.2178695570619
 31
0.0
  0
LINE
  5
EF7C88882
330
EF7C85532
100
AcDbEntity
  8
JISSEN
100
AcDbLine
 10
264.9995297879746
 20
160.917869557063
 30
0.0
 11
263.4657111406324
 21
160.0323189481318
 31
0.0
  0
LINE
  5
EF7C88883
330
EF7C85532
100
AcDbEntity
  8
JISSEN
100
AcDbLine
 10
263.4657111406324
 20
160.0323189481318
 30
0.0
 11
278.5333484353173
 21
160.0323189481318
 31
0.0
  0
LINE
  5
EF7C88886
330
EF7C85532
100
AcDbEntity
  8
JISSEN
100
AcDbLine
 10
272.5000827140163
 20
156.417869557063
 30
0.0
 11
272.5000827140163
 21
158.1886970905725
 31
0.0
  0
LINE
  5
EF7C8888E
330
EF7C85532
100
AcDbEntity
  8
JISSEN
100
AcDbLine
 10
276.9995297879717
 20
160.9178695570641
 30
0.0
 11
271.0000827140162
 21
160.9178695570633
 31
0.0
  0
ARC
  5
EF7C88894
330
EF7C85532
100
AcDbEntity
  8
JISSEN
100
AcDbCircle
 10
279.0000827140163
 20
170.1294227189255
 30
0.0
 40
26.0
100
AcDbArc
 50
156.1811586065416
 51
180.0
  0
ARC
  5
EF7C88895
330
EF7C85532
100
AcDbEntity
  8
JISSEN
100
AcDbCircle
 10
279.0000827140163
 20
170.1294227189255
 30
0.0
 40
28.0
100
AcDbArc
 50
157.9756871629577
 51
180.0
  0
LINE
  5
EF7C88896
330
EF7C85532
100
AcDbEntity
  8
JISSEN
100
AcDbLine
 10
255.0000827140162
 20
168.3886970905727
 30
0.0
 11
255.0000827140162
 21
170.1294227189255
 31
0.0
  0
LINE
  5
EF7C88897
330
EF7C85532
100
AcDbEntity
  8
JISSEN
100
AcDbLine
 10
253.0000827140162
 20
168.3886970905723
 30
0.0
 11
253.0000827140162
 21
170.1294227189255
 31
0.0
  0
LINE
  5
EF7C88898
330
EF7C85532
100
AcDbEntity
  8
JISSEN
100
AcDbLine
 10
251.0000827140162
 20
168.3886970905723
 30
0.0
 11
251.0000827140162
 21
170.1294227189255
 31
0.0
  0
LINE
  5
EF7C88899
330
EF7C85532
100
AcDbEntity
  8
JISSEN
100
AcDbLine
 10
249.0000827140162
 20
168.3886970905723
 30
0.0
 11
249.0000827140162
 21
170.1294227189255
 31
0.0
  0
ARC
  5
EF7C888DF
330
EF7C85532
100
AcDbEntity
  8
JISSEN
100
AcDbCircle
 10
276.0607776663407
 20
169.5426490280005
 30
0.0
 40
11.0
100
AcDbArc
 50
294.5192087310176
 51
353.9783228073726
  0
ARC
  5
EF7C888E0
330
EF7C85532
100
AcDbEntity
  8
JISSEN
100
AcDbCircle
 10
276.0000827140162
 20
168.3886970905723
 30
0.0
 40
17.0
100
AcDbArc
 50
289.7499227956402
 51
0.0
  0
ARC
  5
EF7C888E1
330
EF7C85532
100
AcDbEntity
  8
JISSEN
100
AcDbCircle
 10
276.0000827140162
 20
168.3886970905723
 30
0.0
 40
15.0
100
AcDbArc
 50
306.6829888003701
 51
0.0
  0
ARC
  5
EF7C888E2
330
EF7C85532
100
AcDbEntity
  8
JISSEN
100
AcDbCircle
 10
278.2669344584462
 20
168.9650011443008
 30
0.0
 40
10.74860911180585
100
AcDbArc
 50
270.950022356418
 51
356.9265203792477
  0
LINE
  5
EF7C888E3
330
EF7C85532
100
AcDbEntity
  8
JISSEN
100
AcDbLine
 10
279.3311337246729
 20
152.3886970905723
 30
0.0
 11
279.3311337246729
 21
156.417869557063
 31
0.0
  0
LINE
  5
EF7C888E4
330
EF7C85532
100
AcDbEntity
  8
JISSEN
100
AcDbLine
 10
281.6635970683421
 20
150.5008589724634
 30
0.0
 11
280.5000827140162
 21
150.8886970905723
 31
0.0
  0
LINE
  5
EF7C888E5
330
EF7C85532
100
AcDbEntity
  8
JISSEN
100
AcDbLine
 10
280.5000827140162
 20
152.3886970905723
 30
0.0
 11
280.5000827140162
 21
150.8886970905723
 31
0.0
  0
ARC
  5
EF7C888E6
330
EF7C85532
100
AcDbEntity
  8
JISSEN
100
AcDbCircle
 10
281.9739534369411
 20
160.3691666438576
 30
0.0
 40
5.0
100
AcDbArc
 50
284.6790800522001
 51
306.6829888003701
  0
LINE
  5
EF7C888E7
330
EF7C85532
100
AcDbEntity
  8
JISSEN
100
AcDbLine
 10
278.4451491741785
 20
156.3886970905723
 30
0.0
 11
278.4451491741785
 21
158.2178695570587
 31
0.0
  0
ARC
  5
EF7C888E8
330
EF7C85532
100
AcDbEntity
  8
JISSEN
100
AcDbCircle
 10
284.8878312456847
 20
149.245579762196
 30
0.0
 40
6.498907295833106
100
AcDbArc
 50
104.6790800522001
 51
140.8990391255001
  0
ARC
  5
EF7C888EC
330
EF7C85532
100
AcDbEntity
  8
JISSEN
100
AcDbCircle
 10
280.2937602137182
 20
160.2624626746146
 30
0.0
 40
0.8
100
AcDbArc
 50
270.0000000000065
 51
294.5192087310222
  0
LINE
  5
EF7C888ED
330
EF7C85532
100
AcDbEntity
  8
JISSEN
100
AcDbLine
 10
280.2937602137184
 20
159.4624626746144
 30
0.0
 11
279.6495297879745
 21
159.4624626746144
 31
0.0
  0
ARC
  5
EF7C888F7
330
EF7C85532
100
AcDbEntity
  8
JISSEN
100
AcDbCircle
 10
263.0000827140162
 20
170.1294227189255
 30
0.0
 40
28.0
100
AcDbArc
 50
0.0
 51
22.02431283704222
  0
ARC
  5
EF7C888F8
330
EF7C85532
100
AcDbEntity
  8
JISSEN
100
AcDbCircle
 10
263.0000827140162
 20
170.1294227189255
 30
0.0
 40
26.0
100
AcDbArc
 50
0.0
 51
23.8188413934584
  0
LINE
  5
EF7C888FC
330
EF7C85532
100
AcDbEntity
  8
JISSEN
100
AcDbLine
 10
291.0000827140162
 20
168.3886970905723
 30
0.0
 11
291.0000827140162
 21
170.1294227189255
 31
0.0
  0
LINE
  5
EF7C888FD
330
EF7C85532
100
AcDbEntity
  8
JISSEN
100
AcDbLine
 10
289.0000827140162
 20
168.3886970905723
 30
0.0
 11
289.0000827140162
 21
170.1294227189255
 31
0.0
  0
LINE
  5
EF7C888FE
330
EF7C85532
100
AcDbEntity
  8
JISSEN
100
AcDbLine
 10
287.0000827140163
 20
168.3886970905727
 30
0.0
 11
287.0000827140163
 21
170.1294227189255
 31
0.0
  0
LINE
  5
EF7C88905
330
EF7C85532
100
AcDbEntity
  8
JISSEN
100
AcDbLine
 10
293.0000827140162
 20
168.3886970905723
 30
0.0
 11
293.0000827140162
 21
170.1294227189255
 31
0.0
  0
LINE
  5
EF7C88906
330
EF7C85532
100
AcDbEntity
  8
JISSEN
100
AcDbLine
 10
271.0000827140162
 20
203.9678695570628
 30
0.0
 11
283.061245334168
 21
203.9678695570625
 31
0.0
  0
ARC
  5
EF7C88907
330
EF7C85532
100
AcDbEntity
  8
JISSEN
100
AcDbCircle
 10
276.1665336700309
 20
201.8678695570629
 30
0.0
 40
1.3
100
AcDbArc
 50
12.3208321858772
 51
90.0
  0
ARC
  5
EF7C88908
330
EF7C85532
100
AcDbEntity
  8
JISSEN
100
AcDbCircle
 10
276.2921805214775
 20
201.167869557063
 30
0.0
 40
1.0
100
AcDbArc
 50
20.03172652528651
 51
90.0
  0
LINE
  5
EF7C88909
330
EF7C85532
100
AcDbEntity
  8
JISSEN
100
AcDbLine
 10
285.9075076721221
 20
189.5007902955512
 30
0.0
 11
276.2365018820793
 21
200.9371454485103
 31
0.0
  0
ARC
  5
EF7C8890B
330
EF7C85532
100
AcDbEntity
  8
JISSEN
100
AcDbCircle
 10
261.6407504169075
 20
201.8678695570629
 30
0.0
 40
1.3
100
AcDbArc
 50
11.75775714726178
 51
90.0
  0
LINE
  5
EF7C8890C
330
EF7C85532
100
AcDbEntity
  8
JISSEN
100
AcDbLine
 10
263.2395885526254
 20
200.5659824070394
 30
0.0
 11
262.913473677692
 21
202.1327761471243
 31
0.0
  0
LINE
  5
EF7C8890D
330
EF7C85532
100
AcDbEntity
  8
JISSEN
100
AcDbLine
 10
263.2500827140162
 20
203.9678695570628
 30
0.0
 11
258.9389200938642
 21
203.9678695570628
 31
0.0
  0
LINE
  5
EF7C8890E
330
EF7C85532
100
AcDbEntity
  8
JISSEN
100
AcDbLine
 10
256.0926577559104
 20
189.5007902955512
 30
0.0
 11
265.7636635459531
 21
200.9371454485103
 31
0.0
  0
ARC
  5
EF7C8890F
330
EF7C85532
100
AcDbEntity
  8
JISSEN
100
AcDbCircle
 10
255.9263692484839
 20
200.4678695570632
 30
0.0
 40
0.3
100
AcDbArc
 50
187.6479080428996
 51
351.2564626852173
  0
LINE
  5
EF7C88910
330
EF7C85532
100
AcDbEntity
  8
JISSEN
100
AcDbLine
 10
256.526369248484
 20
200.167869557063
 30
0.0
 11
255.9263692484839
 21
200.167869557063
 31
0.0
  0
LINE
  5
EF7C88911
330
EF7C85532
100
AcDbEntity
  8
JISSEN
100
AcDbLine
 10
252.4391480423139
 20
203.1697978997444
 30
0.0
 11
258.9389200938642
 21
203.9678695570628
 31
0.0
  0
ARC
  5
EF7C88912
330
EF7C85532
100
AcDbEntity
  8
JISSEN
100
AcDbCircle
 10
255.0878499191523
 20
201.8678695570629
 30
0.0
 40
1.3
100
AcDbArc
 50
90.0
 51
174.842786525177
  0
ARC
  5
EF7C88913
330
EF7C85532
100
AcDbEntity
  8
JISSEN
100
AcDbCircle
 10
256.7508902100459
 20
202.1714747302316
 30
0.0
 40
1.346883607168649
100
AcDbArc
 50
132.2874941588456
 51
183.8406207871255
  0
LINE
  5
EF7C88914
330
EF7C85532
100
AcDbEntity
  8
JISSEN
100
AcDbLine
 10
252.0000827140163
 20
200.167869557063
 30
0.0
 11
252.0000827140163
 21
202.6735248239237
 31
0.0
  0
ARC
  5
EF7C88915
330
EF7C85532
100
AcDbEntity
  8
JISSEN
100
AcDbCircle
 10
254.3690486823606
 20
202.1816618051274
 30
0.0
 40
1.244540968917422
100
AcDbArc
 50
127.587108253763
 51
184.6273535933162
  0
ARC
  5
EF7C88916
330
EF7C85532
100
AcDbEntity
  8
JISSEN
100
AcDbCircle
 10
253.59377200451
 20
201.8678695570629
 30
0.0
 40
1.3
100
AcDbArc
 50
90.0
 51
178.8942957104823
  0
LINE
  5
EF7C88917
330
EF7C85532
100
AcDbEntity
  8
JISSEN
100
AcDbLine
 10
253.1626303479139
 20
200.167869557063
 30
0.0
 11
252.0000827140163
 21
200.167869557063
 31
0.0
  0
ARC
  5
EF7C88918
330
EF7C85532
100
AcDbEntity
  8
JISSEN
100
AcDbCircle
 10
252.1626303479139
 20
200.2678695570593
 30
0.0
 40
0.1
100
AcDbArc
 50
270.0
 51
358.8942957104823
  0
LINE
  5
EF7C88919
330
EF7C85532
100
AcDbEntity
  8
JISSEN
100
AcDbLine
 10
252.2626117275037
 20
200.2659398588007
 30
0.0
 11
252.2940140698457
 21
201.892955634431
 31
0.0
  0
ARC
  5
EF7C8891A
330
EF7C85532
100
AcDbEntity
  8
JISSEN
100
AcDbCircle
 10
254.2463715963028
 20
200.3678695570628
 30
0.0
 40
0.2
100
AcDbArc
 50
270.0
 51
354.6856104413418
  0
LINE
  5
EF7C8891B
330
EF7C85532
100
AcDbEntity
  8
JISSEN
100
AcDbLine
 10
254.2463715963028
 20
200.167869557063
 30
0.0
 11
253.4463715963026
 21
200.167869557063
 31
0.0
  0
LINE
  5
EF7C8891C
330
EF7C85532
100
AcDbEntity
  8
JISSEN
100
AcDbLine
 10
254.9791905601891
 20
202.167869557063
 30
0.0
 11
255.4040114278288
 21
202.167869557063
 31
0.0
  0
ARC
  5
EF7C8891D
330
EF7C85532
100
AcDbEntity
  8
JISSEN
100
AcDbCircle
 10
254.9791905601891
 20
201.767869557063
 30
0.0
 40
0.4
100
AcDbArc
 50
90.0
 51
174.6856104413418
  0
ARC
  5
EF7C8891E
330
EF7C85532
100
AcDbEntity
  8
JISSEN
100
AcDbCircle
 10
255.9263692484839
 20
200.4678695570632
 30
0.0
 40
0.3
100
AcDbArc
 50
186.0956014599872
 51
187.6479080428996
  0
LINE
  5
EF7C8891F
330
EF7C85532
100
AcDbEntity
  8
JISSEN
100
AcDbLine
 10
253.6455619567492
 20
200.3498917845335
 30
0.0
 11
253.7931125762487
 21
201.9847250785032
 31
0.0
  0
LINE
  5
EF7C88920
330
EF7C85532
100
AcDbEntity
  8
JISSEN
100
AcDbLine
 10
254.5809099728468
 20
201.8049178194573
 30
0.0
 11
254.4455118899738
 21
200.3493454258659
 31
0.0
  0
LINE
  5
EF7C88921
330
EF7C85532
100
AcDbEntity
  8
JISSEN
100
AcDbLine
 10
255.4070313915776
 20
202.0812587267486
 30
0.0
 11
255.6290378663326
 21
200.427944011505
 31
0.0
  0
ARC
  5
EF7C88922
330
EF7C85532
100
AcDbEntity
  8
JISSEN
100
AcDbCircle
 10
253.1626303479139
 20
200.2678695570639
 30
0.0
 40
0.1
100
AcDbArc
 50
270.0
 51
359.1038427224347
  0
LINE
  5
EF7C88923
330
EF7C85532
100
AcDbEntity
  8
JISSEN
100
AcDbLine
 10
253.2629593463663
 20
200.2881202838802
 30
0.0
 11
253.2626181162833
 21
200.266305531325
 31
0.0
  0
LINE
  5
EF7C88924
330
EF7C85532
100
AcDbEntity
  8
JISSEN
100
AcDbLine
 10
253.1285643232628
 20
202.0812587267496
 30
0.0
 11
253.2468389514926
 21
200.3542048706367
 31
0.0
  0
ARC
  5
EF7C88925
330
EF7C85532
100
AcDbEntity
  8
JISSEN
100
AcDbCircle
 10
253.4463715963026
 20
200.3678695570628
 30
0.0
 40
0.2
100
AcDbArc
 50
183.9176963714414
 51
354.842786525177
  0
ARC
  5
EF7C88926
330
EF7C85532
100
AcDbEntity
  8
JISSEN
100
AcDbCircle
 10
252.5000827140162
 20
202.6735248239237
 30
0.0
 40
0.5
100
AcDbArc
 50
96.99999999999871
 51
180.0
  0
LINE
  5
EF7C88927
330
EF7C85532
100
AcDbEntity
  8
JISSEN
100
AcDbLine
 10
255.0878499191523
 20
203.167869557063
 30
0.0
 11
255.8446381478008
 21
203.167869557063
 31
0.0
  0
ARC
  5
EF7C88928
330
EF7C85532
100
AcDbEntity
  8
JISSEN
100
AcDbCircle
 10
266.7688964665337
 20
203.5351347955693
 30
0.0
 40
8.151460220977577
100
AcDbArc
 50
182.5823439498893
 51
190.2741177283862
  0
ARC
  5
EF7C88929
330
EF7C85532
100
AcDbEntity
  8
JISSEN
100
AcDbCircle
 10
261.4269568033766
 20
201.8678695570629
 30
0.0
 40
1.3
100
AcDbArc
 50
90.0
 51
168.7010440842413
  0
ARC
  5
EF7C8892A
330
EF7C85532
100
AcDbEntity
  8
JISSEN
100
AcDbCircle
 10
257.7605009754542
 20
201.8678695570629
 30
0.0
 40
1.3
100
AcDbArc
 50
90.0
 51
171.2564626852173
  0
ARC
  5
EF7C8892B
330
EF7C85532
100
AcDbEntity
  8
JISSEN
100
AcDbCircle
 10
259.4336155628513
 20
200.5678695570627
 30
0.0
 40
0.4
100
AcDbArc
 50
190.4362216586977
 51
348.7010440842414
  0
LINE
  5
EF7C8892C
330
EF7C85532
100
AcDbEntity
  8
JISSEN
100
AcDbLine
 10
259.8336155628514
 20
200.167869557063
 30
0.0
 11
259.4336155628513
 21
200.167869557063
 31
0.0
  0
ARC
  5
EF7C8892D
330
EF7C85532
100
AcDbEntity
  8
JISSEN
100
AcDbCircle
 10
257.6986865077023
 20
201.5678695570631
 30
0.0
 40
0.6
100
AcDbArc
 50
90.0
 51
167.2223180644411
  0
LINE
  5
EF7C8892E
330
EF7C85532
100
AcDbEntity
  8
JISSEN
100
AcDbLine
 10
257.6986865077023
 20
202.167869557063
 30
0.0
 11
258.7329217588985
 21
202.167869557063
 31
0.0
  0
LINE
  5
EF7C8892F
330
EF7C85532
100
AcDbEntity
  8
JISSEN
100
AcDbLine
 10
259.0402327018993
 20
200.4954131928888
 30
0.0
 11
258.7481391387811
 21
202.0812587267505
 31
0.0
  0
ARC
  5
EF7C88930
330
EF7C85532
100
AcDbEntity
  8
JISSEN
100
AcDbCircle
 10
256.526369248484
 20
200.4678695570632
 30
0.0
 40
0.3
100
AcDbArc
 50
270.0
 51
347.2223180644411
  0
LINE
  5
EF7C88931
330
EF7C85532
100
AcDbEntity
  8
JISSEN
100
AcDbLine
 10
256.2228828473714
 20
200.4222659862075
 30
0.0
 11
256.4756087136085
 21
202.0654850307705
 31
0.0
  0
LINE
  5
EF7C88932
330
EF7C85532
100
AcDbEntity
  8
JISSEN
100
AcDbLine
 10
257.1135451604724
 20
201.7005707392808
 30
0.0
 11
256.8189399220988
 21
200.4015189659543
 31
0.0
  0
ARC
  5
EF7C88933
330
EF7C85532
100
AcDbEntity
  8
JISSEN
100
AcDbCircle
 10
261.3564356358146
 20
201.3678695570629
 30
0.0
 40
0.8
100
AcDbArc
 50
90.0
 51
161.9500333794175
  0
LINE
  5
EF7C88934
330
EF7C85532
100
AcDbEntity
  8
JISSEN
100
AcDbLine
 10
261.3564356358146
 20
202.167869557063
 30
0.0
 11
262.9056614809748
 21
202.167869557063
 31
0.0
  0
ARC
  5
EF7C88935
330
EF7C85532
100
AcDbEntity
  8
JISSEN
100
AcDbCircle
 10
259.8336155628514
 20
200.5678695570627
 30
0.0
 40
0.4
100
AcDbArc
 50
270.0
 51
341.9500333794175
  0
LINE
  5
EF7C88936
330
EF7C85532
100
AcDbEntity
  8
JISSEN
100
AcDbLine
 10
259.8258628544728
 20
200.4894982471605
 30
0.0
 11
260.1521531056075
 21
202.1225763142451
 31
0.0
  0
LINE
  5
EF7C88937
330
EF7C85532
100
AcDbEntity
  8
JISSEN
100
AcDbLine
 10
260.5958063026107
 20
201.6157465779219
 30
0.0
 11
260.2139302294533
 21
200.4439310466331
 31
0.0
  0
LINE
  5
EF7C88938
330
EF7C85532
100
AcDbEntity
  8
JISSEN
100
AcDbLine
 10
257.7605009754542
 20
203.167869557063
 30
0.0
 11
258.6257140432568
 21
203.167869557063
 31
0.0
  0
LINE
  5
EF7C88939
330
EF7C85532
100
AcDbEntity
  8
JISSEN
100
AcDbLine
 10
261.4269568033766
 20
203.167869557063
 30
0.0
 11
261.6407504169075
 21
203.167869557063
 31
0.0
  0
ARC
  5
EF7C8893A
330
EF7C85532
100
AcDbEntity
  8
JISSEN
100
AcDbCircle
 10
287.7500827140162
 20
196.1294227189254
 30
0.0
 40
12.49999999999999
100
AcDbArc
 50
163.7397952916896
 51
196.2602047083103
  0
ARC
  5
EF7C8893B
330
EF7C85532
100
AcDbEntity
  8
JISSEN
100
AcDbCircle
 10
254.2500827140163
 20
196.1294227189254
 30
0.0
 40
12.49999999999999
100
AcDbArc
 50
343.7397952916896
 51
16.26020470831033
  0
LINE
  5
EF7C8893D
330
EF7C85532
100
AcDbEntity
  8
JISSEN
100
AcDbLine
 10
268.2040888048021
 20
190.167869557063
 30
0.0
 11
271.0000827140162
 21
190.167869557063
 31
0.0
  0
ARC
  5
EF7C8893E
330
EF7C85532
100
AcDbEntity
  8
JISSEN
100
AcDbCircle
 10
266.7789335297913
 20
189.613865554606
 30
0.0
 40
1.0
100
AcDbArc
 50
55.24544301351824
 51
122.0970060036987
  0
ARC
  5
EF7C88943
330
EF7C85532
100
AcDbEntity
  8
JISSEN
100
AcDbCircle
 10
271.0008672695086
 20
189.7655232897977
 30
0.0
 40
1.6
100
AcDbArc
 50
197.3317314661404
 51
219.4294468810402
  0
ARC
  5
EF7C88944
330
EF7C85532
100
AcDbEntity
  8
JISSEN
100
AcDbCircle
 10
271.0008672695086
 20
189.7655232897977
 30
0.0
 40
1.6
100
AcDbArc
 50
197.3317314661404
 51
269.9719051748073
  0
LINE
  5
EF7C88945
330
EF7C85532
100
AcDbEntity
  8
JISSEN
100
AcDbLine
 10
268.5616213406166
 20
190.167869557063
 30
0.0
 11
269.4852020975319
 21
189.2442888001473
 31
0.0
  0
ARC
  5
EF7C88946
330
EF7C85532
100
AcDbEntity
  8
JISSEN
100
AcDbCircle
 10
268.2040888048021
 20
191.6678695570631
 30
0.0
 40
1.5
100
AcDbArc
 50
235.2454430135181
 51
270.0
  0
LINE
  5
EF7C88948
330
EF7C85532
100
AcDbEntity
  8
JISSEN
100
AcDbLine
 10
273.7960766232305
 20
190.167869557063
 30
0.0
 11
271.0000827140162
 21
190.167869557063
 31
0.0
  0
ARC
  5
EF7C88949
330
EF7C85532
100
AcDbEntity
  8
JISSEN
100
AcDbCircle
 10
271.0008672695086
 20
189.7655232897977
 30
0.0
 40
1.6
100
AcDbArc
 50
269.9719051748073
 51
342.7537116970591
  0
LINE
  5
EF7C8894A
330
EF7C85532
100
AcDbEntity
  8
JISSEN
100
AcDbLine
 10
273.4385440874159
 20
190.167869557063
 30
0.0
 11
272.5149633297293
 21
189.2442887993761
 31
0.0
  0
ARC
  5
EF7C8894B
330
EF7C85532
100
AcDbEntity
  8
JISSEN
100
AcDbCircle
 10
275.2212318982417
 20
189.6138655546064
 30
0.0
 40
1.0
100
AcDbArc
 50
57.90299399630111
 51
124.7545569864817
  0
ARC
  5
EF7C8894C
330
EF7C85532
100
AcDbEntity
  8
JISSEN
100
AcDbCircle
 10
273.7960766232305
 20
191.6678695570631
 30
0.0
 40
1.5
100
AcDbArc
 50
270.0
 51
304.7545569864816
  0
ARC
  5
EF7C88950
330
EF7C85532
100
AcDbEntity
  8
JISSEN
100
AcDbCircle
 10
270.6779504397244
 20
201.8678695570629
 30
0.0
 40
1.3
100
AcDbArc
 50
90.0
 51
168.6811662726129
  0
ARC
  5
EF7C88951
330
EF7C85532
100
AcDbEntity
  8
JISSEN
100
AcDbCircle
 10
270.567751535266
 20
200.9678695570628
 30
0.0
 40
1.199999999999999
100
AcDbArc
 50
90.0
 51
162.6940025391923
  0
LINE
  5
EF7C88952
330
EF7C85532
100
AcDbEntity
  8
JISSEN
100
AcDbLine
 10
263.2500827140162
 20
203.9678695570628
 30
0.0
 11
271.0000827140162
 21
203.9678695570628
 31
0.0
  0
ARC
  5
EF7C88953
330
EF7C85532
100
AcDbEntity
  8
JISSEN
100
AcDbCircle
 10
265.8336317580016
 20
201.8678695570629
 30
0.0
 40
1.3
100
AcDbArc
 50
90.0
 51
167.6791678141228
  0
ARC
  5
EF7C88954
330
EF7C85532
100
AcDbEntity
  8
JISSEN
100
AcDbCircle
 10
265.7079849065552
 20
201.167869557063
 30
0.0
 40
1.0
100
AcDbArc
 50
90.0
 51
159.9682734747134
  0
ARC
  5
EF7C88955
330
EF7C85532
100
AcDbEntity
  8
JISSEN
100
AcDbCircle
 10
266.367685197126
 20
201.8678695570629
 30
0.0
 40
1.3
100
AcDbArc
 50
11.11380719249775
 51
90.0
  0
LINE
  5
EF7C88956
330
EF7C85532
100
AcDbEntity
  8
JISSEN
100
AcDbLine
 10
265.7079849065552
 20
202.167869557063
 30
0.0
 11
267.6325962611938
 21
202.167869557063
 31
0.0
  0
LINE
  5
EF7C88957
330
EF7C85532
100
AcDbEntity
  8
JISSEN
100
AcDbLine
 10
266.0000827140162
 20
201.5828577010647
 30
0.0
 11
266.0000827140162
 21
202.167869557063
 31
0.0
  0
ARC
  5
EF7C88958
330
EF7C85532
100
AcDbEntity
  8
JISSEN
100
AcDbCircle
 10
265.0000827140162
 20
201.5828577010647
 30
0.0
 40
1.0
100
AcDbArc
 50
319.7809012554456
 51
0.0
  0
LINE
  5
EF7C88959
330
EF7C85532
100
AcDbEntity
  8
JISSEN
100
AcDbLine
 10
264.3988490436415
 20
200.4965993425403
 30
0.0
 11
264.7684818174333
 21
201.5104099861082
 31
0.0
  0
LINE
  5
EF7C8895A
330
EF7C85532
100
AcDbEntity
  8
JISSEN
100
AcDbLine
 10
264.2175815261245
 20
200.5611767488553
 30
0.0
 11
264.5635732876882
 21
202.1452708584024
 31
0.0
  0
LINE
  5
EF7C8895B
330
EF7C85532
100
AcDbEntity
  8
JISSEN
100
AcDbLine
 10
263.9290974990805
 20
200.167869557063
 30
0.0
 11
263.7290974990807
 21
200.167869557063
 31
0.0
  0
ARC
  5
EF7C8895C
330
EF7C85532
100
AcDbEntity
  8
JISSEN
100
AcDbCircle
 10
263.9290974990805
 20
200.667869557063
 30
0.0
 40
0.5
100
AcDbArc
 50
270.0
 51
339.9682734747135
  0
ARC
  5
EF7C8895D
330
EF7C85532
100
AcDbEntity
  8
JISSEN
100
AcDbCircle
 10
263.7290974990807
 20
200.667869557063
 30
0.0
 40
0.5
100
AcDbArc
 50
191.7577571472617
 51
347.6791678141228
  0
ARC
  5
EF7C8895E
330
EF7C85532
100
AcDbEntity
  8
JISSEN
100
AcDbCircle
 10
268.6200850618344
 20
200.7678695570634
 30
0.0
 40
0.6
100
AcDbArc
 50
270.0
 51
342.6940025391924
  0
ARC
  5
EF7C8895F
330
EF7C85532
100
AcDbEntity
  8
JISSEN
100
AcDbCircle
 10
268.5200850618345
 20
200.7678695570634
 30
0.0
 40
0.6
100
AcDbArc
 50
191.1138071924977
 51
348.6811662726129
  0
LINE
  5
EF7C88960
330
EF7C85532
100
AcDbEntity
  8
JISSEN
100
AcDbLine
 10
268.6200850618344
 20
200.167869557063
 30
0.0
 11
268.5200850618345
 21
200.167869557063
 31
0.0
  0
LINE
  5
EF7C88961
330
EF7C85532
100
AcDbEntity
  8
JISSEN
100
AcDbLine
 10
269.1929228616906
 20
200.5893846695916
 30
0.0
 11
269.4220759355534
 21
201.3248393320067
 31
0.0
  0
LINE
  5
EF7C88962
330
EF7C85532
100
AcDbEntity
  8
JISSEN
100
AcDbLine
 10
269.1084151794363
 20
200.650108473841
 30
0.0
 11
269.4032351849188
 21
202.1230185707122
 31
0.0
  0
LINE
  5
EF7C88963
330
EF7C85532
100
AcDbEntity
  8
JISSEN
100
AcDbLine
 10
267.6433053109068
 20
202.1184555209915
 30
0.0
 11
267.9313373170127
 21
200.6522144967889
 31
0.0
  0
LINE
  5
EF7C88964
330
EF7C85532
100
AcDbEntity
  8
JISSEN
100
AcDbLine
 10
266.367685197126
 20
203.167869557063
 30
0.0
 11
265.8336317580016
 21
203.167869557063
 31
0.0
  0
ARC
  5
EF7C88965
330
EF7C85532
100
AcDbEntity
  8
JISSEN
100
AcDbCircle
 10
271.3222149883083
 20
201.8678695570629
 30
0.0
 40
1.3
100
AcDbArc
 50
11.31883372738706
 51
90.0
  0
ARC
  5
EF7C88966
330
EF7C85532
100
AcDbEntity
  8
JISSEN
100
AcDbCircle
 10
271.4324138927669
 20
200.9678695570628
 30
0.0
 40
1.199999999999999
100
AcDbArc
 50
17.3059974608076
 51
90.0
  0
ARC
  5
EF7C88967
330
EF7C85532
100
AcDbEntity
  8
JISSEN
100
AcDbCircle
 10
275.632480230907
 20
201.8678695570629
 30
0.0
 40
1.3
100
AcDbArc
 50
90.0
 51
168.8861928075022
  0
ARC
  5
EF7C88968
330
EF7C85532
100
AcDbEntity
  8
JISSEN
100
AcDbCircle
 10
273.4800803661984
 20
200.7678695570634
 30
0.0
 40
0.6
100
AcDbArc
 50
191.318833727387
 51
348.8861928075022
  0
LINE
  5
EF7C88969
330
EF7C85532
100
AcDbEntity
  8
JISSEN
100
AcDbLine
 10
271.4324138927669
 20
202.167869557063
 30
0.0
 11
271.0000827140162
 21
202.167869557063
 31
0.0
  0
ARC
  5
EF7C8896A
330
EF7C85532
100
AcDbEntity
  8
JISSEN
100
AcDbCircle
 10
273.3800803661983
 20
200.7678695570634
 30
0.0
 40
0.6
100
AcDbArc
 50
197.3059974608076
 51
270.0
  0
LINE
  5
EF7C8896B
330
EF7C85532
100
AcDbEntity
  8
JISSEN
100
AcDbLine
 10
273.4800803661984
 20
200.167869557063
 30
0.0
 11
273.3800803661983
 21
200.167869557063
 31
0.0
  0
LINE
  5
EF7C8896C
330
EF7C85532
100
AcDbEntity
  8
JISSEN
100
AcDbLine
 10
272.8072425663419
 20
200.5893846695916
 30
0.0
 11
272.5780894924793
 21
201.3248393320067
 31
0.0
  0
LINE
  5
EF7C8896D
330
EF7C85532
100
AcDbEntity
  8
JISSEN
100
AcDbLine
 10
272.8917502485964
 20
200.650108473841
 30
0.0
 11
272.5969302431137
 21
202.1230185707122
 31
0.0
  0
LINE
  5
EF7C8896E
330
EF7C85532
100
AcDbEntity
  8
JISSEN
100
AcDbLine
 10
270.567751535266
 20
202.167869557063
 30
0.0
 11
271.0000827140162
 21
202.167869557063
 31
0.0
  0
LINE
  5
EF7C8896F
330
EF7C85532
100
AcDbEntity
  8
JISSEN
100
AcDbLine
 10
276.0000827140162
 20
201.5828577010647
 30
0.0
 11
276.0000827140162
 21
202.167869557063
 31
0.0
  0
ARC
  5
EF7C88970
330
EF7C85532
100
AcDbEntity
  8
JISSEN
100
AcDbCircle
 10
277.0000827140163
 20
201.5828577010647
 30
0.0
 40
1.0
100
AcDbArc
 50
180.0
 51
220.2190987445544
  0
LINE
  5
EF7C88971
330
EF7C85532
100
AcDbEntity
  8
JISSEN
100
AcDbLine
 10
274.3568601171261
 20
202.1184555209915
 30
0.0
 11
274.0688281110203
 21
200.6522144967889
 31
0.0
  0
LINE
  5
EF7C88972
330
EF7C85532
100
AcDbEntity
  8
JISSEN
100
AcDbLine
 10
276.2921805214775
 20
202.167869557063
 30
0.0
 11
274.3675691668396
 21
202.167869557063
 31
0.0
  0
LINE
  5
EF7C88973
330
EF7C85532
100
AcDbEntity
  8
JISSEN
100
AcDbLine
 10
271.3222149883083
 20
203.167869557063
 30
0.0
 11
270.6779504397244
 21
203.167869557063
 31
0.0
  0
LINE
  5
EF7C88974
330
EF7C85532
100
AcDbEntity
  8
JISSEN
100
AcDbLine
 10
275.632480230907
 20
203.167869557063
 30
0.0
 11
276.1665336700309
 21
203.167869557063
 31
0.0
  0
LINE
  5
EF7C88977
330
EF7C85532
100
AcDbEntity
  8
JISSEN
100
AcDbLine
 10
284.2396644525785
 20
203.167869557063
 30
0.0
 11
283.3744513847761
 21
203.167869557063
 31
0.0
  0
LINE
  5
EF7C88978
330
EF7C85532
100
AcDbEntity
  8
JISSEN
100
AcDbLine
 10
284.3014789203304
 20
202.167869557063
 30
0.0
 11
283.2672436691343
 21
202.167869557063
 31
0.0
  0
LINE
  5
EF7C88979
330
EF7C85532
100
AcDbEntity
  8
JISSEN
100
AcDbLine
 10
289.5610173857189
 20
203.1697978997444
 30
0.0
 11
283.061245334168
 21
203.9678695570625
 31
0.0
  0
ARC
  5
EF7C8897A
330
EF7C85532
100
AcDbEntity
  8
JISSEN
100
AcDbCircle
 10
275.2312689614993
 20
203.5351347955693
 30
0.0
 40
8.151460220977577
100
AcDbArc
 50
349.7258822716137
 51
357.4176560501106
  0
ARC
  5
EF7C8897B
330
EF7C85532
100
AcDbEntity
  8
JISSEN
100
AcDbCircle
 10
280.3594150111254
 20
201.8678695570629
 30
0.0
 40
1.3
100
AcDbArc
 50
90.0
 51
168.2422428527382
  0
ARC
  5
EF7C8897C
330
EF7C85532
100
AcDbEntity
  8
JISSEN
100
AcDbCircle
 10
280.5732086246564
 20
201.8678695570629
 30
0.0
 40
1.3
100
AcDbArc
 50
11.2989559157586
 51
90.0
  0
ARC
  5
EF7C8897D
330
EF7C85532
100
AcDbEntity
  8
JISSEN
100
AcDbCircle
 10
280.6437297922181
 20
201.3678695570629
 30
0.0
 40
0.8
100
AcDbArc
 50
18.04996662058242
 51
90.0
  0
LINE
  5
EF7C8897E
330
EF7C85532
100
AcDbEntity
  8
JISSEN
100
AcDbLine
 10
280.6437297922181
 20
202.167869557063
 30
0.0
 11
279.0945039470581
 21
202.167869557063
 31
0.0
  0
LINE
  5
EF7C8897F
330
EF7C85532
100
AcDbEntity
  8
JISSEN
100
AcDbLine
 10
278.7605768754076
 20
200.5659824070394
 30
0.0
 11
279.0866917503405
 21
202.1327761471243
 31
0.0
  0
ARC
  5
EF7C88980
330
EF7C85532
100
AcDbEntity
  8
JISSEN
100
AcDbCircle
 10
278.0710679289524
 20
200.667869557063
 30
0.0
 40
0.5
100
AcDbArc
 50
200.0317265252864
 51
270.0
  0
LINE
  5
EF7C88981
330
EF7C85532
100
AcDbEntity
  8
JISSEN
100
AcDbLine
 10
277.7825839019084
 20
200.5611767488553
 30
0.0
 11
277.4365921403447
 21
202.1452708584024
 31
0.0
  0
LINE
  5
EF7C88982
330
EF7C85532
100
AcDbEntity
  8
JISSEN
100
AcDbLine
 10
277.6013163843915
 20
200.4965993425403
 30
0.0
 11
277.2316836105994
 21
201.5104099861082
 31
0.0
  0
ARC
  5
EF7C88983
330
EF7C85532
100
AcDbEntity
  8
JISSEN
100
AcDbCircle
 10
278.2710679289522
 20
200.667869557063
 30
0.0
 40
0.5
100
AcDbArc
 50
192.3208321858771
 51
348.2422428527382
  0
LINE
  5
EF7C88984
330
EF7C85532
100
AcDbEntity
  8
JISSEN
100
AcDbLine
 10
278.0710679289524
 20
200.167869557063
 30
0.0
 11
278.2710679289522
 21
200.167869557063
 31
0.0
  0
ARC
  5
EF7C88985
330
EF7C85532
100
AcDbEntity
  8
JISSEN
100
AcDbCircle
 10
282.5665498651814
 20
200.5678695570627
 30
0.0
 40
0.4
100
AcDbArc
 50
191.2989559157586
 51
349.5637783413022
  0
ARC
  5
EF7C88986
330
EF7C85532
100
AcDbEntity
  8
JISSEN
100
AcDbCircle
 10
282.1665498651816
 20
200.5678695570627
 30
0.0
 40
0.4
100
AcDbArc
 50
198.0499666205824
 51
270.0
  0
LINE
  5
EF7C88987
330
EF7C85532
100
AcDbEntity
  8
JISSEN
100
AcDbLine
 10
282.1665498651816
 20
200.167869557063
 30
0.0
 11
282.5665498651814
 21
200.167869557063
 31
0.0
  0
LINE
  5
EF7C88988
330
EF7C85532
100
AcDbEntity
  8
JISSEN
100
AcDbLine
 10
282.9599327261336
 20
200.4954131928888
 30
0.0
 11
283.2520262892519
 21
202.0812587267505
 31
0.0
  0
LINE
  5
EF7C88989
330
EF7C85532
100
AcDbEntity
  8
JISSEN
100
AcDbLine
 10
282.1743025735601
 20
200.4894982471605
 30
0.0
 11
281.8480123224255
 21
202.1225763142451
 31
0.0
  0
LINE
  5
EF7C8898A
330
EF7C85532
100
AcDbEntity
  8
JISSEN
100
AcDbLine
 10
281.4043591254218
 20
201.6157465779219
 30
0.0
 11
281.7862351985797
 21
200.4439310466331
 31
0.0
  0
LINE
  5
EF7C8898B
330
EF7C85532
100
AcDbEntity
  8
JISSEN
100
AcDbLine
 10
280.5732086246564
 20
203.167869557063
 30
0.0
 11
280.3594150111254
 21
203.167869557063
 31
0.0
  0
LINE
  5
EF7C8898D
330
EF7C85532
100
AcDbEntity
  8
JISSEN
100
AcDbLine
 10
290.0000827140162
 20
200.167869557063
 30
0.0
 11
290.0000827140162
 21
202.6735248239237
 31
0.0
  0
ARC
  5
EF7C8898E
330
EF7C85532
100
AcDbEntity
  8
JISSEN
100
AcDbCircle
 10
285.249275217987
 20
202.1714747302316
 30
0.0
 40
1.346883607168649
100
AcDbArc
 50
356.1593792128744
 51
47.71250584115438
  0
ARC
  5
EF7C8898F
330
EF7C85532
100
AcDbEntity
  8
JISSEN
100
AcDbCircle
 10
286.9123155088804
 20
201.8678695570629
 30
0.0
 40
1.3
100
AcDbArc
 50
5.157213474822994
 51
90.0
  0
ARC
  5
EF7C88990
330
EF7C85532
100
AcDbEntity
  8
JISSEN
100
AcDbCircle
 10
287.6311167456721
 20
202.1816618051274
 30
0.0
 40
1.244540968917422
100
AcDbArc
 50
355.3726464066837
 51
52.41289174619478
  0
ARC
  5
EF7C88991
330
EF7C85532
100
AcDbEntity
  8
JISSEN
100
AcDbCircle
 10
288.4063934235229
 20
201.8678695570629
 30
0.0
 40
1.3
100
AcDbArc
 50
1.105704289517634
 51
90.0
  0
ARC
  5
EF7C88992
330
EF7C85532
100
AcDbEntity
  8
JISSEN
100
AcDbCircle
 10
284.2396644525785
 20
201.8678695570629
 30
0.0
 40
1.3
100
AcDbArc
 50
8.743537314782674
 51
90.0
  0
LINE
  5
EF7C88993
330
EF7C85532
100
AcDbEntity
  8
JISSEN
100
AcDbLine
 10
287.7537938317302
 20
200.167869557063
 30
0.0
 11
288.5537938317299
 21
200.167869557063
 31
0.0
  0
ARC
  5
EF7C88994
330
EF7C85532
100
AcDbEntity
  8
JISSEN
100
AcDbCircle
 10
287.7537938317302
 20
200.3678695570628
 30
0.0
 40
0.2
100
AcDbArc
 50
185.3143895586581
 51
270.0
  0
ARC
  5
EF7C88995
330
EF7C85532
100
AcDbEntity
  8
JISSEN
100
AcDbCircle
 10
286.0737961795486
 20
200.4678695570632
 30
0.0
 40
0.3
100
AcDbArc
 50
188.7435373147826
 51
352.3520919571002
  0
LINE
  5
EF7C88996
330
EF7C85532
100
AcDbEntity
  8
JISSEN
100
AcDbLine
 10
285.4737961795487
 20
200.167869557063
 30
0.0
 11
286.0737961795486
 21
200.167869557063
 31
0.0
  0
ARC
  5
EF7C88997
330
EF7C85532
100
AcDbEntity
  8
JISSEN
100
AcDbCircle
 10
287.0209748678437
 20
201.767869557063
 30
0.0
 40
0.4
100
AcDbArc
 50
5.314389558658173
 51
90.0
  0
LINE
  5
EF7C88998
330
EF7C85532
100
AcDbEntity
  8
JISSEN
100
AcDbLine
 10
287.0209748678437
 20
202.167869557063
 30
0.0
 11
286.5961540002037
 21
202.167869557063
 31
0.0
  0
ARC
  5
EF7C88999
330
EF7C85532
100
AcDbEntity
  8
JISSEN
100
AcDbCircle
 10
286.0737961795486
 20
200.4678695570632
 30
0.0
 40
0.3
100
AcDbArc
 50
352.3520919571002
 51
353.9043985400127
  0
LINE
  5
EF7C8899A
330
EF7C85532
100
AcDbEntity
  8
JISSEN
100
AcDbLine
 10
286.5931340364551
 20
202.0812587267486
 30
0.0
 11
286.3711275617001
 21
200.427944011505
 31
0.0
  0
LINE
  5
EF7C8899B
330
EF7C85532
100
AcDbEntity
  8
JISSEN
100
AcDbLine
 10
285.7772825806613
 20
200.4222659862075
 30
0.0
 11
285.5245567144244
 21
202.0654850307705
 31
0.0
  0
LINE
  5
EF7C8899C
330
EF7C85532
100
AcDbEntity
  8
JISSEN
100
AcDbLine
 10
287.4192554551857
 20
201.8049178194573
 30
0.0
 11
287.5546535380592
 21
200.3493454258659
 31
0.0
  0
ARC
  5
EF7C8899D
330
EF7C85532
100
AcDbEntity
  8
JISSEN
100
AcDbCircle
 10
284.3014789203304
 20
201.5678695570631
 30
0.0
 40
0.6
100
AcDbArc
 50
12.77768193555888
 51
90.0
  0
LINE
  5
EF7C8899E
330
EF7C85532
100
AcDbEntity
  8
JISSEN
100
AcDbLine
 10
284.8866202675605
 20
201.7005707392808
 30
0.0
 11
285.1812255059336
 21
200.4015189659543
 31
0.0
  0
ARC
  5
EF7C8899F
330
EF7C85532
100
AcDbEntity
  8
JISSEN
100
AcDbCircle
 10
285.4737961795487
 20
200.4678695570632
 30
0.0
 40
0.3
100
AcDbArc
 50
192.7776819355588
 51
270.0
  0
ARC
  5
EF7C889A0
330
EF7C85532
100
AcDbEntity
  8
JISSEN
100
AcDbCircle
 10
289.8375350801188
 20
200.2678695570593
 30
0.0
 40
0.1
100
AcDbArc
 50
181.1057042895176
 51
270.0
  0
LINE
  5
EF7C889A1
330
EF7C85532
100
AcDbEntity
  8
JISSEN
100
AcDbLine
 10
288.8375350801185
 20
200.167869557063
 30
0.0
 11
290.0000827140162
 21
200.167869557063
 31
0.0
  0
LINE
  5
EF7C889A2
330
EF7C85532
100
AcDbEntity
  8
JISSEN
100
AcDbLine
 10
289.7375537005288
 20
200.2659398588007
 30
0.0
 11
289.7061513581867
 21
201.892955634431
 31
0.0
  0
LINE
  5
EF7C889A3
330
EF7C85532
100
AcDbEntity
  8
JISSEN
100
AcDbLine
 10
288.8716011047701
 20
202.0812587267496
 30
0.0
 11
288.7533264765401
 21
200.3542048706367
 31
0.0
  0
LINE
  5
EF7C889A4
330
EF7C85532
100
AcDbEntity
  8
JISSEN
100
AcDbLine
 10
288.7372060816664
 20
200.2881202838802
 30
0.0
 11
288.7375473117492
 21
200.266305531325
 31
0.0
  0
LINE
  5
EF7C889A5
330
EF7C85532
100
AcDbEntity
  8
JISSEN
100
AcDbLine
 10
288.3546034712832
 20
200.3498917845335
 30
0.0
 11
288.2070528517839
 21
201.9847250785032
 31
0.0
  0
ARC
  5
EF7C889A6
330
EF7C85532
100
AcDbEntity
  8
JISSEN
100
AcDbCircle
 10
288.5537938317299
 20
200.3678695570628
 30
0.0
 40
0.2
100
AcDbArc
 50
185.1572134748229
 51
356.0823036285585
  0
ARC
  5
EF7C889A7
330
EF7C85532
100
AcDbEntity
  8
JISSEN
100
AcDbCircle
 10
288.8375350801185
 20
200.2678695570639
 30
0.0
 40
0.1
100
AcDbArc
 50
180.8961572775653
 51
270.0
  0
LINE
  5
EF7C889A8
330
EF7C85532
100
AcDbEntity
  8
JISSEN
100
AcDbLine
 10
286.9123155088804
 20
203.167869557063
 30
0.0
 11
286.1555272802322
 21
203.167869557063
 31
0.0
  0
ARC
  5
EF7C889A9
330
EF7C85532
100
AcDbEntity
  8
JISSEN
100
AcDbCircle
 10
289.5000827140163
 20
202.6735248239237
 30
0.0
 40
0.5
100
AcDbArc
 50
0.0
 51
83.00000000000128
  0
LINE
  5
EF7C889AB
330
EF7C85532
100
AcDbEntity
  8
JISSEN
100
AcDbLine
 10
280.2937602137182
 20
159.4624626746144
 30
0.0
 11
279.300635640058
 21
159.4624626746144
 31
0.0
  0
ARC
  5
EF7C889AC
330
EF7C85532
100
AcDbEntity
  8
JISSEN
100
AcDbCircle
 10
279.300635640058
 20
160.2624626746146
 30
0.0
 40
0.8
100
AcDbArc
 50
196.7190914177322
 51
270.0
  0
ENDSEC
  0
SECTION
  2
OBJECTS
  0
DICTIONARY
  5
EF7C85527
330
0
100
AcDbDictionary
281
     1
  3
ACAD_GROUP
350
EF7C85528
  3
ACAD_LAYOUT
350
EF7C85BB7
  3
ACAD_MLINESTYLE
350
EF7C85535
  3
ACAD_PLOTSETTINGS
350
EF7C85BB8
  3
ACAD_PLOTSTYLENAME
350
EF7C85BB5
  3
ACDBVARIABLEDICTIONARY
350
EF7C85DB7
  0
DICTIONARY
  5
EF7C88049
330
EF7C8551D
100
AcDbDictionary
280
     1
281
     1
  3
ACAD_LAYERFILTERS
360
EF7C8804A
  3
ACAD_LAYERSTATES
360
EF7C88071
  0
DICTIONARY
  5
EF7C85D9A
330
EF7C85532
100
AcDbDictionary
280
     1
281
     1
  3
ACAD_LAYOUTSELFREF
360
EF7C88040
  0
DICTIONARY
  5
EF7C85D98
330
EF7C8552F
100
AcDbDictionary
280
     1
281
     1
  3
ACAD_LAYOUTSELFREF
360
EF7C8803F
  0
DICTIONARY
  5
EF7C85528
102
{ACAD_REACTORS
330
EF7C85527
102
}
330
EF7C85527
100
AcDbDictionary
281
     1
  0
DICTIONARY
  5
EF7C85BB7
102
{ACAD_REACTORS
330
EF7C85527
102
}
330
EF7C85527
100
AcDbDictionary
281
     1
  3
Model
350
EF7C88046
  3
ﾚｲｱｳﾄ1
350
EF7C88047
  0
DICTIONARY
  5
EF7C85535
102
{ACAD_REACTORS
330
EF7C85527
102
}
330
EF7C85527
100
AcDbDictionary
281
     1
  3
STANDARD
350
EF7C85536
  0
DICTIONARY
  5
EF7C85BB8
102
{ACAD_REACTORS
330
EF7C85527
102
}
330
EF7C85527
100
AcDbDictionary
281
     1
  0
ACDBDICTIONARYWDFLT
  5
EF7C85BB5
102
{ACAD_REACTORS
330
EF7C85527
102
}
330
EF7C85527
100
AcDbDictionary
281
     1
  3
Normal
350
EF7C85BB6
100
AcDbDictionaryWithDefault
340
EF7C85BB6
  0
DICTIONARY
  5
EF7C85DB7
102
{ACAD_REACTORS
330
EF7C85527
102
}
330
EF7C85527
100
AcDbDictionary
281
     1
  3
DIMASSOC
350
EF7C8801C
  3
SORTENTS
350
EF7C85DB8
  0
DICTIONARY
  5
EF7C8804A
102
{ACAD_REACTORS
330
EF7C88049
102
}
330
EF7C88049
100
AcDbDictionary
280
     1
281
     1
  3
0
360
EF7C8804B
  3
0-0
360
EF7C8804C
  3
10画層
360
EF7C8804D
  3
2
360
EF7C8804E
  3
3
360
EF7C8804F
  3
3A
360
EF7C88050
  3
4
360
EF7C88051
  3
5画層
360
EF7C88052
  3
6画層
360
EF7C88053
  3
7
360
EF7C88054
  3
7a画層
360
EF7C88055
  3
8
360
EF7C88056
  3
ASYST
360
EF7C88057
  3
ASYST PHASE 1
360
EF7C88058
  3
ASYST PHASE 2
360
EF7C88059
  3
cap-0
360
EF7C8805A
  3
dims
360
EF7C8805B
  3
elec
360
EF7C8805C
  3
ELECTRICAL
360
EF7C8805D
  3
F
360
EF7C8805E
  3
Frame
360
EF7C8805F
  3
FROZEN
360
EF7C88060
  3
FROZEN ACTIVE
360
EF7C88061
  3
jiku-0
360
EF7C88062
  3
MP
360
EF7C88063
  3
MPR
360
EF7C88064
  3
p-
360
EF7C88065
  3
ST
360
EF7C88066
  3
TC
360
EF7C88067
  3
TEXT
360
EF7C88068
  3
ｹｰﾌﾞﾙ図
360
EF7C88069
  3
０画層
360
EF7C8806A
  3
３A画層
360
EF7C8806B
  3
３画層
360
EF7C8806C
  0
DICTIONARY
  5
EF7C88071
102
{ACAD_REACTORS
330
EF7C88049
102
}
330
EF7C88049
100
AcDbDictionary
281
     1
  0
XRECORD
  5
EF7C88040
102
{ACAD_REACTORS
330
EF7C85D9A
102
}
330
EF7C85D9A
100
AcDbXrecord
280
     1
340
EF7C85532
  0
XRECORD
  5
EF7C8803F
102
{ACAD_REACTORS
330
EF7C85D98
102
}
330
EF7C85D98
100
AcDbXrecord
280
     1
340
EF7C8552F
  0
LAYOUT
  5
EF7C88046
102
{ACAD_REACTORS
330
EF7C85BB7
102
}
330
EF7C85BB7
100
AcDbPlotSettings
  1

  2
Kyocera LS-6970DN KX(五十嵐)
  4
A4
  6

 40
4.984749794006347
 41
5.154074668884277
 42
5.11175537109375
 43
4.9847412109375
 44
210.0156707763671
 45
297.0106506347656
 46
0.0
 47
15.57
 48
0.0
 49
0.0
140
0.0
141
0.0
142
1.0
143
1.415572134541014
 70
 11956
 72
     1
 73
     1
 74
     2
  7
aclt.ctb
 75
     0
147
0.7064281470362797
148
0.0
149
0.0
100
AcDbLayout
  1
Model
 70
     1
 71
     0
 10
0.0
 20
0.0
 11
12.0
 21
9.0
 12
0.0
 22
0.0
 32
0.0
 14
0.0
 24
0.0
 34
0.0
 15
0.0
 25
0.0
 35
0.0
146
0.0
 13
0.0
 23
0.0
 33
0.0
 16
1.0
 26
0.0
 36
0.0
 17
0.0
 27
1.0
 37
0.0
 76
     0
330
EF7C85532
  0
LAYOUT
  5
EF7C88047
102
{ACAD_REACTORS
330
EF7C85BB7
102
}
330
EF7C85BB7
100
AcDbPlotSettings
  1

  2
\\172.16.1.5\FX DocuCentre-IV C3370
  4

  6

 40
0.0
 41
0.0
 42
0.0
 43
0.0
 44
0.0
 45
0.0
 46
0.0
 47
0.0
 48
0.0
 49
0.0
140
0.0
141
0.0
142
1.0
143
1.0
 70
   688
 72
     0
 73
     0
 74
     5
  7
aclt.ctb
 75
    16
147
1.0
148
0.0
149
0.0
100
AcDbLayout
  1
ﾚｲｱｳﾄ1
 70
     0
 71
     1
 10
0.0
 20
0.0
 11
12.0
 21
9.0
 12
0.0
 22
0.0
 32
0.0
 14
1.000000000000000E+20
 24
1.000000000000000E+20
 34
1.000000000000000E+20
 15
-1.000000000000000E+20
 25
-1.000000000000000E+20
 35
-1.000000000000000E+20
146
0.0
 13
0.0
 23
0.0
 33
0.0
 16
1.0
 26
0.0
 36
0.0
 17
0.0
 27
1.0
 37
0.0
 76
     0
330
EF7C8552F
  0
MLINESTYLE
  5
EF7C85536
102
{ACAD_REACTORS
330
EF7C85535
102
}
330
EF7C85535
100
AcDbMlineStyle
  2
STANDARD
 70
     0
  3

 62
   256
 51
90.0
 52
90.0
 71
     2
 49
0.5
 62
   256
  6
BYLAYER
 49
-0.5
 62
   256
  6
BYLAYER
  0
ACDBPLACEHOLDER
  5
EF7C85BB6
102
{ACAD_REACTORS
330
EF7C85BB5
102
}
330
EF7C85BB5
  0
DICTIONARYVAR
  5
EF7C8801C
102
{ACAD_REACTORS
330
EF7C85DB7
102
}
330
EF7C85DB7
100
DictionaryVariables
280
     0
  1
0
  0
DICTIONARYVAR
  5
EF7C85DB8
102
{ACAD_REACTORS
330
EF7C85DB7
102
}
330
EF7C85DB7
100
DictionaryVariables
280
     0
  1
96
  0
XRECORD
  5
EF7C8804B
102
{ACAD_REACTORS
330
EF7C8804A
102
}
330
EF7C8804A
100
AcDbXrecord
280
     1
  1
0
  1
*-0
  1
*
  1
*
 70
     0
  1
*
  1
*
  0
XRECORD
  5
EF7C8804C
102
{ACAD_REACTORS
330
EF7C8804A
102
}
330
EF7C8804A
100
AcDbXrecord
280
     1
  1
0-0
  1
*-0
  1
*
  1
*
 70
     0
  1
*
  1
*
  0
XRECORD
  5
EF7C8804D
102
{ACAD_REACTORS
330
EF7C8804A
102
}
330
EF7C8804A
100
AcDbXrecord
280
     1
  1
10画層
  1
*-10
  1
*
  1
*
 70
     0
  1
*
  1
*
  0
XRECORD
  5
EF7C8804E
102
{ACAD_REACTORS
330
EF7C8804A
102
}
330
EF7C8804A
100
AcDbXrecord
280
     1
  1
2
  1
*-2
  1
*
  1
*
 70
     0
  1
*
  1
*
  0
XRECORD
  5
EF7C8804F
102
{ACAD_REACTORS
330
EF7C8804A
102
}
330
EF7C8804A
100
AcDbXrecord
280
     1
  1
3
  1
*-3
  1
*
  1
*
 70
     0
  1
*
  1
*
  0
XRECORD
  5
EF7C88050
102
{ACAD_REACTORS
330
EF7C8804A
102
}
330
EF7C8804A
100
AcDbXrecord
280
     1
  1
3A
  1
*-3A
  1
*
  1
*
 70
     0
  1
*
  1
*
  0
XRECORD
  5
EF7C88051
102
{ACAD_REACTORS
330
EF7C8804A
102
}
330
EF7C8804A
100
AcDbXrecord
280
     1
  1
4
  1
*-4
  1
*
  1
*
 70
     0
  1
*
  1
*
  0
XRECORD
  5
EF7C88052
102
{ACAD_REACTORS
330
EF7C8804A
102
}
330
EF7C8804A
100
AcDbXrecord
280
     1
  1
5画層
  1
*-5
  1
*
  1
*
 70
     0
  1
*
  1
*
  0
XRECORD
  5
EF7C88053
102
{ACAD_REACTORS
330
EF7C8804A
102
}
330
EF7C8804A
100
AcDbXrecord
280
     1
  1
6画層
  1
*-6
  1
*
  1
*
 70
     0
  1
*
  1
*
  0
XRECORD
  5
EF7C88054
102
{ACAD_REACTORS
330
EF7C8804A
102
}
330
EF7C8804A
100
AcDbXrecord
280
     1
  1
7
  1
*-7*
  1
*
  1
*
 70
     0
  1
*
  1
*
  0
XRECORD
  5
EF7C88055
102
{ACAD_REACTORS
330
EF7C8804A
102
}
330
EF7C8804A
100
AcDbXrecord
280
     1
  1
7a画層
  1
*-7a
  1
*
  1
*
 70
     0
  1
*
  1
*
  0
XRECORD
  5
EF7C88056
102
{ACAD_REACTORS
330
EF7C8804A
102
}
330
EF7C8804A
100
AcDbXrecord
280
     1
  1
8
  1
*-8,8
  1
*
  1
*
 70
     0
  1
*
  1
*
  0
XRECORD
  5
EF7C88057
102
{ACAD_REACTORS
330
EF7C8804A
102
}
330
EF7C8804A
100
AcDbXrecord
280
     1
  1
ASYST
  1
ASYST*
  1
*
  1
*
 70
     0
  1
*
  1
*
  0
XRECORD
  5
EF7C88058
102
{ACAD_REACTORS
330
EF7C8804A
102
}
330
EF7C8804A
100
AcDbXrecord
280
     1
  1
ASYST PHASE 1
  1
A1.0-8$0$ASYT*
  1
*
  1
*
 70
     0
  1
*
  1
*
  0
XRECORD
  5
EF7C88059
102
{ACAD_REACTORS
330
EF7C8804A
102
}
330
EF7C8804A
100
AcDbXrecord
280
     1
  1
ASYST PHASE 2
  1
A2.0-8$0$ASYT*
  1
*
  1
*
 70
     0
  1
*
  1
*
  0
XRECORD
  5
EF7C8805A
102
{ACAD_REACTORS
330
EF7C8804A
102
}
330
EF7C8804A
100
AcDbXrecord
280
     1
  1
cap-0
  1
*
  1
*
  1
*
 70
     0
  1
*
  1
*
  0
XRECORD
  5
EF7C8805B
102
{ACAD_REACTORS
330
EF7C8804A
102
}
330
EF7C8804A
100
AcDbXrecord
280
     1
  1
dims
  1
*di*
  1
*
  1
*
 70
     0
  1
*
  1
*
  0
XRECORD
  5
EF7C8805C
102
{ACAD_REACTORS
330
EF7C8804A
102
}
330
EF7C8804A
100
AcDbXrecord
280
     1
  1
elec
  1
e-*
  1
*
  1
*
 70
     0
  1
*
  1
*
  0
XRECORD
  5
EF7C8805D
102
{ACAD_REACTORS
330
EF7C8804A
102
}
330
EF7C8804A
100
AcDbXrecord
280
     1
  1
ELECTRICAL
  1
E-*
  1
*
  1
*
 70
     0
  1
*
  1
*
  0
XRECORD
  5
EF7C8805E
102
{ACAD_REACTORS
330
EF7C8804A
102
}
330
EF7C8804A
100
AcDbXrecord
280
     1
  1
F
  1
*
  1
*
  1
*
 70
     0
  1
*
  1
*
  0
XRECORD
  5
EF7C8805F
102
{ACAD_REACTORS
330
EF7C8804A
102
}
330
EF7C8804A
100
AcDbXrecord
280
     1
  1
Frame
  1
F*
  1
*
  1
*
 70
     0
  1
*
  1
*
  0
XRECORD
  5
EF7C88060
102
{ACAD_REACTORS
330
EF7C8804A
102
}
330
EF7C8804A
100
AcDbXrecord
280
     1
  1
FROZEN
  1
*
  1
*
  1
*
 70
     4
  1
*
  1
*
  0
XRECORD
  5
EF7C88061
102
{ACAD_REACTORS
330
EF7C8804A
102
}
330
EF7C8804A
100
AcDbXrecord
280
     1
  1
FROZEN ACTIVE
  1
*
  1
*
  1
*
 70
    16
  1
*
  1
*
  0
XRECORD
  5
EF7C88062
102
{ACAD_REACTORS
330
EF7C8804A
102
}
330
EF7C8804A
100
AcDbXrecord
280
     1
  1
jiku-0
  1
*
  1
*
  1
*
 70
     0
  1
*
  1
*
  0
XRECORD
  5
EF7C88063
102
{ACAD_REACTORS
330
EF7C8804A
102
}
330
EF7C8804A
100
AcDbXrecord
280
     1
  1
MP
  1
MP_*
  1
*
  1
*
 70
     0
  1
*
  1
*
  0
XRECORD
  5
EF7C88064
102
{ACAD_REACTORS
330
EF7C8804A
102
}
330
EF7C8804A
100
AcDbXrecord
280
     1
  1
MPR
  1
MPR*
  1
*
  1
*
 70
     0
  1
*
  1
*
  0
XRECORD
  5
EF7C88065
102
{ACAD_REACTORS
330
EF7C8804A
102
}
330
EF7C8804A
100
AcDbXrecord
280
     1
  1
p-
  1
p-*
  1
*
  1
*
 70
     0
  1
*
  1
*
  0
XRECORD
  5
EF7C88066
102
{ACAD_REACTORS
330
EF7C8804A
102
}
330
EF7C8804A
100
AcDbXrecord
280
     1
  1
ST
  1
ST_*
  1
*
  1
*
 70
     0
  1
*
  1
*
  0
XRECORD
  5
EF7C88067
102
{ACAD_REACTORS
330
EF7C8804A
102
}
330
EF7C8804A
100
AcDbXrecord
280
     1
  1
TC
  1
TC_*,0N
  1
*
  1
*
 70
     0
  1
*
  1
*
  0
XRECORD
  5
EF7C88068
102
{ACAD_REACTORS
330
EF7C8804A
102
}
330
EF7C8804A
100
AcDbXrecord
280
     1
  1
TEXT
  1
TEXT
  1
*
  1
*
 70
     0
  1
*
  1
*
  0
XRECORD
  5
EF7C88069
102
{ACAD_REACTORS
330
EF7C8804A
102
}
330
EF7C8804A
100
AcDbXrecord
280
     1
  1
ｹｰﾌﾞﾙ図
  1
*
  1
*
  1
*
 70
     0
  1
*
  1
*
  0
XRECORD
  5
EF7C8806A
102
{ACAD_REACTORS
330
EF7C8804A
102
}
330
EF7C8804A
100
AcDbXrecord
280
     1
  1
０画層
  1
*-0
  1
*
  1
*
 70
     0
  1
*
  1
*
  0
XRECORD
  5
EF7C8806B
102
{ACAD_REACTORS
330
EF7C8804A
102
}
330
EF7C8804A
100
AcDbXrecord
280
     1
  1
３A画層
  1
*-3A
  1
*
  1
*
 70
     0
  1
*
  1
*
  0
XRECORD
  5
EF7C8806C
102
{ACAD_REACTORS
330
EF7C8804A
102
}
330
EF7C8804A
100
AcDbXrecord
280
     1
  1
３画層
  1
*-3
  1
*
  1
*
 70
     0
  1
*
  1
*
  0
ENDSEC
  0
EOF
