  0
SECTION
  2
HEADER
  9
$ACADVER
  1
AC1014
  9
$ACADMAINTVER
 70
     9
  9
$DWGCODEPAGE
  3
ANSI_932
  9
$INSBASE
 10
0.0
 20
0.0
 30
0.0
  9
$EXTMIN
 10
-0.0165697806189655
 20
-0.0086358157087716
 30
-0.0015258207003583
  9
$EXTMAX
 10
543.0165706080581
 20
283.0086371335301
 30
0.0000000349246037
  9
$LIMMIN
 10
0.0
 20
0.0
  9
$LIMMAX
 10
181.0
 20
283.0
  9
$ORTHOMODE
 70
     1
  9
$REGENMODE
 70
     1
  9
$FILLMODE
 70
     1
  9
$QTEXTMODE
 70
     0
  9
$MIRRTEXT
 70
     0
  9
$DRAGMODE
 70
     2
  9
$LTSCALE
 40
5.0
  9
$OSMODE
 70
   167
  9
$ATTMODE
 70
     1
  9
$TEXTSIZE
 40
3.0
  9
$TRACEWID
 40
0.05
  9
$TEXTSTYLE
  7
BIGFONT
  9
$CLAYER
  8
JISSEN
  9
$CELTYPE
  6
BYLAYER
  9
$CECOLOR
 62
   256
  9
$CELTSCALE
 40
1.0
  9
$DELOBJ
 70
     1
  9
$DISPSILH
 70
     0
  9
$DIMSCALE
 40
1.0
  9
$DIMASZ
 40
1.5
  9
$DIMEXO
 40
1.0
  9
$DIMDLI
 40
6.0
  9
$DIMRND
 40
0.0
  9
$DIMDLE
 40
0.0
  9
$DIMEXE
 40
1.0
  9
$DIMTP
 40
0.0
  9
$DIMTM
 40
0.0
  9
$DIMTXT
 40
3.0
  9
$DIMCEN
 40
1.0
  9
$DIMTSZ
 40
0.0
  9
$DIMTOL
 70
     0
  9
$DIMLIM
 70
     0
  9
$DIMTIH
 70
     0
  9
$DIMTOH
 70
     0
  9
$DIMSE1
 70
     0
  9
$DIMSE2
 70
     0
  9
$DIMTAD
 70
     0
  9
$DIMZIN
 70
     8
  9
$DIMBLK
  1
ARROW
  9
$DIMASO
 70
     0
  9
$DIMSHO
 70
     0
  9
$DIMPOST
  1

  9
$DIMAPOST
  1

  9
$DIMALT
 70
     0
  9
$DIMALTD
 70
     2
  9
$DIMALTF
 40
25.4
  9
$DIMLFAC
 40
1.0
  9
$DIMTOFL
 70
     1
  9
$DIMTVP
 40
0.0
  9
$DIMTIX
 70
     0
  9
$DIMSOXD
 70
     0
  9
$DIMSAH
 70
     0
  9
$DIMBLK1
  1
ARROWANG
  9
$DIMBLK2
  1
ARROWANG
  9
$DIMSTYLE
  2
IMAO
  9
$DIMCLRD
 70
     0
  9
$DIMCLRE
 70
     0
  9
$DIMCLRT
 70
     0
  9
$DIMTFAC
 40
1.0
  9
$DIMGAP
 40
0.09
  9
$DIMJUST
 70
     0
  9
$DIMSD1
 70
     0
  9
$DIMSD2
 70
     0
  9
$DIMTOLJ
 70
     1
  9
$DIMTZIN
 70
     8
  9
$DIMALTZ
 70
     8
  9
$DIMALTTZ
 70
     8
  9
$DIMFIT
 70
     3
  9
$DIMUPT
 70
     0
  9
$DIMUNIT
 70
     2
  9
$DIMDEC
 70
     2
  9
$DIMTDEC
 70
     2
  9
$DIMALTU
 70
     2
  9
$DIMALTTD
 70
     2
  9
$DIMTXSTY
  7
BIGFONT
  9
$DIMAUNIT
 70
     0
  9
$LUNITS
 70
     2
  9
$LUPREC
 70
     2
  9
$SKETCHINC
 40
0.1
  9
$FILLETRAD
 40
1.5
  9
$AUNITS
 70
     0
  9
$AUPREC
 70
     2
  9
$MENU
  1
stdr12j
  9
$ELEVATION
 40
0.0
  9
$PELEVATION
 40
0.0
  9
$THICKNESS
 40
0.0
  9
$LIMCHECK
 70
     0
  9
$BLIPMODE
 70
     0
  9
$CHAMFERA
 40
0.0
  9
$CHAMFERB
 40
0.0
  9
$CHAMFERC
 40
0.0
  9
$CHAMFERD
 40
0.0
  9
$SKPOLY
 70
     0
  9
$TDCREATE
 40
2450617.453041203
  9
$TDUPDATE
 40
2453614.482912940
  9
$TDINDWG
 40
0.1828271528
  9
$TDUSRTIMER
 40
0.1828270370
  9
$USRTIMER
 70
     1
  9
$ANGBASE
 50
0.0
  9
$ANGDIR
 70
     0
  9
$PDMODE
 70
     0
  9
$PDSIZE
 40
0.0
  9
$PLINEWID
 40
0.0
  9
$COORDS
 70
     2
  9
$SPLFRAME
 70
     0
  9
$SPLINETYPE
 70
     6
  9
$SPLINESEGS
 70
     8
  9
$ATTDIA
 70
     0
  9
$ATTREQ
 70
     1
  9
$HANDLING
 70
 22529
  9
$HANDSEED
  5
EF7C8968D
  9
$SURFTAB1
 70
     6
  9
$SURFTAB2
 70
     6
  9
$SURFTYPE
 70
     6
  9
$SURFU
 70
     6
  9
$SURFV
 70
     6
  9
$UCSNAME
  2

  9
$UCSORG
 10
0.0
 20
0.0
 30
0.0
  9
$UCSXDIR
 10
1.0
 20
0.0
 30
0.0
  9
$UCSYDIR
 10
0.0
 20
1.0
 30
0.0
  9
$PUCSNAME
  2

  9
$PUCSORG
 10
0.0
 20
0.0
 30
0.0
  9
$PUCSXDIR
 10
1.0
 20
0.0
 30
0.0
  9
$PUCSYDIR
 10
0.0
 20
1.0
 30
0.0
  9
$USERI1
 70
     0
  9
$USERI2
 70
     1
  9
$USERI3
 70
     1
  9
$USERI4
 70
     3
  9
$USERI5
 70
     0
  9
$USERR1
 40
1.0
  9
$USERR2
 40
3.0
  9
$USERR3
 40
3.0
  9
$USERR4
 40
1.5
  9
$USERR5
 40
8.0
  9
$WORLDVIEW
 70
     1
  9
$SHADEDGE
 70
     3
  9
$SHADEDIF
 70
    70
  9
$TILEMODE
 70
     1
  9
$MAXACTVP
 70
    16
  9
$PINSBASE
 10
0.0
 20
0.0
 30
0.0
  9
$PLIMCHECK
 70
     0
  9
$PEXTMIN
 10
1.000000000000000E+20
 20
1.000000000000000E+20
 30
1.000000000000000E+20
  9
$PEXTMAX
 10
-1.000000000000000E+20
 20
-1.000000000000000E+20
 30
-1.000000000000000E+20
  9
$PLIMMIN
 10
0.0
 20
0.0
  9
$PLIMMAX
 10
12.0
 20
9.0
  9
$UNITMODE
 70
     0
  9
$VISRETAIN
 70
     0
  9
$PLINEGEN
 70
     0
  9
$PSLTSCALE
 70
     0
  9
$TREEDEPTH
 70
  3020
  9
$PICKSTYLE
 70
     1
  9
$CMLSTYLE
  2
STANDARD
  9
$CMLJUST
 70
     0
  9
$CMLSCALE
 40
1.0
  9
$PROXYGRAPHICS
 70
     1
  9
$MEASUREMENT
 70
     0
  0
ENDSEC
  0
SECTION
  2
CLASSES
  0
CLASS
  1
LWPOLYLINE
  2
AcDbPolyline
  3
AutoCAD 2000
 90
        0
280
     0
281
     1
  0
CLASS
  1
HATCH
  2
AcDbHatch
  3
AutoCAD 2000
 90
        0
280
     0
281
     1
  0
CLASS
  1
ACDBDICTIONARYWDFLT
  2
AcDbDictionaryWithDefault
  3
AutoCAD 2000
 90
        0
280
     0
281
     0
  0
CLASS
  1
ACDBPLACEHOLDER
  2
AcDbPlaceHolder
  3
AutoCAD 2000
 90
        0
280
     0
281
     0
  0
CLASS
  1
LAYOUT
  2
AcDbLayout
  3
AutoCAD 2000
 90
        0
280
     0
281
     0
  0
CLASS
  1
LONG_TRANSACTION
  2
AcDbLongTransaction
  3
AutoCAD 2000
 90
        0
280
     0
281
     0
  0
CLASS
  1
LWPOLYLINE
  2
AcDbPolyline
  3
AutoCAD 2000
 90
        0
280
     0
281
     1
  0
CLASS
  1
HATCH
  2
AcDbHatch
  3
AutoCAD 2000
 90
        0
280
     0
281
     1
  0
CLASS
  1
XRECORD
  2
AcDbXrecord
  3
AutoCAD 2000
 90
        0
280
     0
281
     0
  0
CLASS
  1
DICTIONARYVAR
  2
AcDbDictionaryVar
  3
AutoCAD 2000
 90
        0
280
     0
281
     0
  0
CLASS
  1
LONG_TRANSACTION
  2
AcDbLongTransaction
  3
AutoCAD 2000
 90
        0
280
     0
281
     0
  0
CLASS
  1
LWPOLYLINE
  2
AcDbPolyline
  3
AutoCAD 2000
 90
        0
280
     0
281
     1
  0
CLASS
  1
HATCH
  2
AcDbHatch
  3
AutoCAD 2000
 90
        0
280
     0
281
     1
  0
CLASS
  1
XRECORD
  2
AcDbXrecord
  3
AutoCAD 2000
 90
        0
280
     0
281
     0
  0
CLASS
  1
LONG_TRANSACTION
  2
AcDbLongTransaction
  3
AutoCAD 2000
 90
        0
280
     0
281
     0
  0
CLASS
  1
LWPOLYLINE
  2
AcDbPolyline
  3
AutoCAD 2000
 90
        0
280
     0
281
     1
  0
CLASS
  1
HATCH
  2
AcDbHatch
  3
AutoCAD 2000
 90
        0
280
     0
281
     1
  0
CLASS
  1
XRECORD
  2
AcDbXrecord
  3
AutoCAD 2000
 90
        0
280
     0
281
     0
  0
CLASS
  1
LONG_TRANSACTION
  2
AcDbLongTransaction
  3
AutoCAD 2000
 90
        0
280
     0
281
     0
  0
CLASS
  1
LWPOLYLINE
  2
AcDbPolyline
  3
AutoCAD 2000
 90
        0
280
     0
281
     1
  0
CLASS
  1
HATCH
  2
AcDbHatch
  3
AutoCAD 2000
 90
        0
280
     0
281
     1
  0
CLASS
  1
XRECORD
  2
AcDbXrecord
  3
AutoCAD 2000
 90
        0
280
     0
281
     0
  0
CLASS
  1
LONG_TRANSACTION
  2
AcDbLongTransaction
  3
AutoCAD 2000
 90
        0
280
     0
281
     0
  0
CLASS
  1
LWPOLYLINE
  2
AcDbPolyline
  3
AutoCAD 2000
 90
        0
280
     0
281
     1
  0
CLASS
  1
HATCH
  2
AcDbHatch
  3
AutoCAD 2000
 90
        0
280
     0
281
     1
  0
CLASS
  1
XRECORD
  2
AcDbXrecord
  3
AutoCAD 2000
 90
        0
280
     0
281
     0
  0
CLASS
  1
LONG_TRANSACTION
  2
AcDbLongTransaction
  3
AutoCAD 2000
 90
        0
280
     0
281
     0
  0
CLASS
  1
LWPOLYLINE
  2
AcDbPolyline
  3
AutoCAD 2000
 90
        0
280
     0
281
     1
  0
CLASS
  1
HATCH
  2
AcDbHatch
  3
AutoCAD 2000
 90
        0
280
     0
281
     1
  0
CLASS
  1
XRECORD
  2
AcDbXrecord
  3
AutoCAD 2000
 90
        0
280
     0
281
     0
  0
CLASS
  1
LONG_TRANSACTION
  2
AcDbLongTransaction
  3
AutoCAD 2000
 90
        0
280
     0
281
     0
  0
CLASS
  1
LWPOLYLINE
  2
AcDbPolyline
  3
AutoCAD 2000
 90
        0
280
     0
281
     1
  0
CLASS
  1
HATCH
  2
AcDbHatch
  3
AutoCAD 2000
 90
        0
280
     0
281
     1
  0
CLASS
  1
XRECORD
  2
AcDbXrecord
  3
AutoCAD 2000
 90
        0
280
     0
281
     0
  0
CLASS
  1
LONG_TRANSACTION
  2
AcDbLongTransaction
  3
AutoCAD 2000
 90
        0
280
     0
281
     0
  0
CLASS
  1
LWPOLYLINE
  2
AcDbPolyline
  3
AutoCAD 2000
 90
        0
280
     0
281
     1
  0
CLASS
  1
HATCH
  2
AcDbHatch
  3
AutoCAD 2000
 90
        0
280
     0
281
     1
  0
CLASS
  1
XRECORD
  2
AcDbXrecord
  3
AutoCAD 2000
 90
        0
280
     0
281
     0
  0
CLASS
  1
LONG_TRANSACTION
  2
AcDbLongTransaction
  3
AutoCAD 2000
 90
        0
280
     0
281
     0
  0
CLASS
  1
LWPOLYLINE
  2
AcDbPolyline
  3
AutoCAD 2000
 90
        0
280
     0
281
     1
  0
CLASS
  1
HATCH
  2
AcDbHatch
  3
AutoCAD 2000
 90
        0
280
     0
281
     1
  0
CLASS
  1
XRECORD
  2
AcDbXrecord
  3
AutoCAD 2000
 90
        0
280
     0
281
     0
  0
CLASS
  1
LONG_TRANSACTION
  2
AcDbLongTransaction
  3
AutoCAD 2000
 90
        0
280
     0
281
     0
  0
CLASS
  1
LWPOLYLINE
  2
AcDbPolyline
  3
AutoCAD 2000
 90
        0
280
     0
281
     1
  0
CLASS
  1
HATCH
  2
AcDbHatch
  3
AutoCAD 2000
 90
        0
280
     0
281
     1
  0
CLASS
  1
XRECORD
  2
AcDbXrecord
  3
AutoCAD 2000
 90
        0
280
     0
281
     0
  0
CLASS
  1
LONG_TRANSACTION
  2
AcDbLongTransaction
  3
AutoCAD 2000
 90
        0
280
     0
281
     0
  0
CLASS
  1
LWPOLYLINE
  2
AcDbPolyline
  3
AutoCAD 2000
 90
        0
280
     0
281
     1
  0
CLASS
  1
HATCH
  2
AcDbHatch
  3
AutoCAD 2000
 90
        0
280
     0
281
     1
  0
CLASS
  1
XRECORD
  2
AcDbXrecord
  3
AutoCAD 2000
 90
        0
280
     0
281
     0
  0
CLASS
  1
LONG_TRANSACTION
  2
AcDbLongTransaction
  3
AutoCAD 2000
 90
        0
280
     0
281
     0
  0
CLASS
  1
LWPOLYLINE
  2
AcDbPolyline
  3
AutoCAD 2000
 90
        0
280
     0
281
     1
  0
CLASS
  1
HATCH
  2
AcDbHatch
  3
AutoCAD 2000
 90
        0
280
     0
281
     1
  0
CLASS
  1
XRECORD
  2
AcDbXrecord
  3
AutoCAD 2000
 90
        0
280
     0
281
     0
  0
CLASS
  1
LONG_TRANSACTION
  2
AcDbLongTransaction
  3
AutoCAD 2000
 90
        0
280
     0
281
     0
  0
CLASS
  1
LWPOLYLINE
  2
AcDbPolyline
  3
AutoCAD 2000
 90
        0
280
     0
281
     1
  0
CLASS
  1
HATCH
  2
AcDbHatch
  3
AutoCAD 2000
 90
        0
280
     0
281
     1
  0
CLASS
  1
XRECORD
  2
AcDbXrecord
  3
AutoCAD 2000
 90
        0
280
     0
281
     0
  0
CLASS
  1
LONG_TRANSACTION
  2
AcDbLongTransaction
  3
AutoCAD 2000
 90
        0
280
     0
281
     0
  0
CLASS
  1
LWPOLYLINE
  2
AcDbPolyline
  3
AutoCAD 2000
 90
        0
280
     0
281
     1
  0
CLASS
  1
HATCH
  2
AcDbHatch
  3
AutoCAD 2000
 90
        0
280
     0
281
     1
  0
CLASS
  1
XRECORD
  2
AcDbXrecord
  3
AutoCAD 2000
 90
        0
280
     0
281
     0
  0
CLASS
  1
LONG_TRANSACTION
  2
AcDbLongTransaction
  3
AutoCAD 2000
 90
        0
280
     0
281
     0
  0
CLASS
  1
LWPOLYLINE
  2
AcDbPolyline
  3
AutoCAD 2000
 90
        0
280
     0
281
     1
  0
CLASS
  1
HATCH
  2
AcDbHatch
  3
AutoCAD 2000
 90
        0
280
     0
281
     1
  0
CLASS
  1
XRECORD
  2
AcDbXrecord
  3
AutoCAD 2000
 90
        0
280
     0
281
     0
  0
ENDSEC
  0
SECTION
  2
TABLES
  0
TABLE
  2
VPORT
  5
EF7C85523
330
0
100
AcDbSymbolTable
 70
    12
  0
VPORT
  5
EF7C85567
330
EF7C85523
100
AcDbSymbolTableRecord
100
AcDbViewportTableRecord
  2
2
 70
     0
 10
0.5
 20
0.0
 11
1.0
 21
1.0
 12
0.9240312421264802
 22
1.052650975462765
 13
0.0
 23
0.0
 14
1.0
 24
1.0
 15
10.0
 25
10.0
 16
0.0
 26
0.0
 36
1.0
 17
0.0
 27
0.0
 37
0.0
 40
2.105301950925533
 41
0.8778135048231511
 42
50.0
 43
0.0
 44
0.0
 50
0.0
 51
0.0
 71
     0
 72
   500
 73
     1
 74
     1
 75
     0
 76
     0
 77
     0
 78
     0
  0
VPORT
  5
EF7C85568
330
EF7C85523
100
AcDbSymbolTableRecord
100
AcDbViewportTableRecord
  2
2
 70
     0
 10
0.0
 20
0.0
 11
0.5
 21
1.0
 12
0.9240312421264802
 22
1.052650975462765
 13
0.0
 23
0.0
 14
1.0
 24
1.0
 15
10.0
 25
10.0
 16
0.0
 26
0.0
 36
1.0
 17
0.0
 27
0.0
 37
0.0
 40
2.105301950925533
 41
0.8778135048231511
 42
50.0
 43
0.0
 44
0.0
 50
0.0
 51
0.0
 71
     0
 72
   500
 73
     1
 74
     1
 75
     0
 76
     0
 77
     0
 78
     0
  0
VPORT
  5
EF7C85569
330
EF7C85523
100
AcDbSymbolTableRecord
100
AcDbViewportTableRecord
  2
3
 70
     0
 10
0.0
 20
0.5
 11
1.0
 21
1.0
 12
2.832169994473273
 22
1.052650975462765
 13
0.0
 23
0.0
 14
1.0
 24
1.0
 15
10.0
 25
10.0
 16
0.0
 26
0.0
 36
1.0
 17
0.0
 27
0.0
 37
0.0
 40
2.105301950925533
 41
3.571428571428571
 42
50.0
 43
0.0
 44
0.0
 50
0.0
 51
0.0
 71
     0
 72
   500
 73
     1
 74
     1
 75
     0
 76
     0
 77
     0
 78
     0
  0
VPORT
  5
EF7C8556A
330
EF7C85523
100
AcDbSymbolTableRecord
100
AcDbViewportTableRecord
  2
3
 70
     0
 10
0.0
 20
0.0
 11
1.0
 21
0.5
 12
2.856741679241311
 22
1.052650975462765
 13
0.0
 23
0.0
 14
1.0
 24
1.0
 15
10.0
 25
10.0
 16
0.0
 26
0.0
 36
1.0
 17
0.0
 27
0.0
 37
0.0
 40
2.105301950925533
 41
3.594771241830064
 42
50.0
 43
0.0
 44
0.0
 50
0.0
 51
0.0
 71
     0
 72
   500
 73
     1
 74
     1
 75
     0
 76
     0
 77
     0
 78
     0
  0
VPORT
  5
EF7C8556B
330
EF7C85523
100
AcDbSymbolTableRecord
100
AcDbViewportTableRecord
  2
4
 70
     0
 10
0.5
 20
0.0
 11
1.0
 21
0.5
 12
2.886857516709718
 22
1.052650975462765
 13
0.0
 23
0.0
 14
1.0
 24
1.0
 15
10.0
 25
10.0
 16
0.0
 26
0.0
 36
1.0
 17
0.0
 27
0.0
 37
0.0
 40
4.275207030309069
 41
1.784313725490195
 42
50.0
 43
0.0
 44
0.0
 50
0.0
 51
0.0
 71
     0
 72
   500
 73
     1
 74
     1
 75
     0
 76
     0
 77
     0
 78
     0
  0
VPORT
  5
EF7C8556C
330
EF7C85523
100
AcDbSymbolTableRecord
100
AcDbViewportTableRecord
  2
4
 70
     0
 10
0.5
 20
0.5
 11
1.0
 21
1.0
 12
2.862090274555523
 22
1.052650975462765
 13
0.0
 23
0.0
 14
1.0
 24
1.0
 15
10.0
 25
10.0
 16
0.0
 26
0.0
 36
1.0
 17
0.0
 27
0.0
 37
0.0
 40
4.275207030309069
 41
1.772727272727271
 42
50.0
 43
0.0
 44
0.0
 50
0.0
 51
0.0
 71
     0
 72
   500
 73
     1
 74
     1
 75
     0
 76
     0
 77
     0
 78
     0
  0
VPORT
  5
EF7C8556D
330
EF7C85523
100
AcDbSymbolTableRecord
100
AcDbViewportTableRecord
  2
4
 70
     0
 10
0.0
 20
0.5
 11
0.5
 21
1.0
 12
2.862090274555523
 22
1.052650975462765
 13
0.0
 23
0.0
 14
1.0
 24
1.0
 15
10.0
 25
10.0
 16
0.0
 26
0.0
 36
1.0
 17
0.0
 27
0.0
 37
0.0
 40
4.275207030309069
 41
1.772727272727271
 42
50.0
 43
0.0
 44
0.0
 50
0.0
 51
0.0
 71
     0
 72
   500
 73
     1
 74
     1
 75
     0
 76
     0
 77
     0
 78
     0
  0
VPORT
  5
EF7C8556E
330
EF7C85523
100
AcDbSymbolTableRecord
100
AcDbViewportTableRecord
  2
4
 70
     0
 10
0.0
 20
0.0
 11
0.5
 21
0.5
 12
2.886857516709718
 22
1.052650975462765
 13
0.0
 23
0.0
 14
1.0
 24
1.0
 15
10.0
 25
10.0
 16
0.0
 26
0.0
 36
1.0
 17
0.0
 27
0.0
 37
0.0
 40
4.275207030309069
 41
1.784313725490195
 42
50.0
 43
0.0
 44
0.0
 50
0.0
 51
0.0
 71
     0
 72
   500
 73
     1
 74
     1
 75
     0
 76
     0
 77
     0
 78
     0
  0
VPORT
  5
EF7C89669
330
EF7C85523
100
AcDbSymbolTableRecord
100
AcDbViewportTableRecord
  2
*ACTIVE
 70
     0
 10
0.0
 20
0.0
 11
1.0
 21
1.0
 12
271.5000004137194
 22
141.5000006589106
 13
0.0
 23
0.0
 14
1.0
 24
1.0
 15
10.0
 25
10.0
 16
0.0
 26
0.0
 36
1.0
 17
0.0
 27
0.0
 37
0.0
 40
286.5113133560196
 41
1.954639175257731
 42
50.0
 43
0.0
 44
0.0
 50
0.0
 51
0.0
 71
     0
 72
   500
 73
     1
 74
     0
 75
     0
 76
     0
 77
     0
 78
     0
  0
ENDTAB
  0
TABLE
  2
LTYPE
  5
EF7C85520
330
0
100
AcDbSymbolTable
 70
     3
  0
LTYPE
  5
EF7C8552C
330
EF7C85520
100
AcDbSymbolTableRecord
100
AcDbLinetypeTableRecord
  2
BYBLOCK
 70
     0
  3

 72
    65
 73
     0
 40
0.0
  0
LTYPE
  5
EF7C8552D
330
EF7C85520
100
AcDbSymbolTableRecord
100
AcDbLinetypeTableRecord
  2
BYLAYER
 70
     0
  3

 72
    65
 73
     0
 40
0.0
  0
LTYPE
  5
EF7C8552E
330
EF7C85520
100
AcDbSymbolTableRecord
100
AcDbLinetypeTableRecord
  2
CONTINUOUS
 70
     0
  3
実線
 72
    65
 73
     0
 40
0.0
  0
LTYPE
  5
EF7C85565
330
EF7C85520
100
AcDbSymbolTableRecord
100
AcDbLinetypeTableRecord
  2
PHANTOM
 70
     0
  3
_____ _ _ _____ _ _ _____ _ _ _____ _ _ ____
 72
    65
 73
     6
 40
2.5
 49
1.25
 74
     0
 49
-0.25
 74
     0
 49
0.25
 74
     0
 49
-0.25
 74
     0
 49
0.25
 74
     0
 49
-0.25
 74
     0
  0
LTYPE
  5
EF7C887D0
330
EF7C85520
100
AcDbSymbolTableRecord
100
AcDbLinetypeTableRecord
  2
HIDDEN
 70
     0
  3
_ _ _ _ _ _ _ _ _ _ _ _ _ _ _ _ _ _ _ _ _ _ _
 72
    65
 73
     2
 40
0.375
 49
0.25
 74
     0
 49
-0.125
 74
     0
  0
ENDTAB
  0
TABLE
  2
LAYER
  5
EF7C8551D
102
{ACAD_XDICTIONARY
360
EF7C88ACB
102
}
330
0
100
AcDbSymbolTable
 70
     9
  0
LAYER
  5
EF7C85529
330
EF7C8551D
100
AcDbSymbolTableRecord
100
AcDbLayerTableRecord
  2
0
 70
     0
 62
     6
  6
CONTINUOUS
  0
LAYER
  5
EF7C85574
330
EF7C8551D
100
AcDbSymbolTableRecord
100
AcDbLayerTableRecord
  2
NITEN
 70
     0
 62
     2
  6
PHANTOM
  0
LAYER
  5
EF7C85575
330
EF7C8551D
100
AcDbSymbolTableRecord
100
AcDbLayerTableRecord
  2
HATCH
 70
     0
 62
     4
  6
CONTINUOUS
  0
LAYER
  5
EF7C85576
330
EF7C8551D
100
AcDbSymbolTableRecord
100
AcDbLayerTableRecord
  2
SUNPOU
 70
     0
 62
     3
  6
CONTINUOUS
  0
LAYER
  5
EF7C85577
330
EF7C8551D
100
AcDbSymbolTableRecord
100
AcDbLayerTableRecord
  2
TEXT
 70
     0
 62
     3
  6
CONTINUOUS
  0
LAYER
  5
EF7C85578
330
EF7C8551D
100
AcDbSymbolTableRecord
100
AcDbLayerTableRecord
  2
SAISEN
 70
     0
 62
     4
  6
CONTINUOUS
  0
LAYER
  5
EF7C85579
330
EF7C8551D
100
AcDbSymbolTableRecord
100
AcDbLayerTableRecord
  2
JISSEN
 70
     0
 62
     7
  6
CONTINUOUS
  0
LAYER
  5
EF7C8557D
330
EF7C8551D
100
AcDbSymbolTableRecord
100
AcDbLayerTableRecord
  2
WAKU
 70
     0
 62
     5
  6
CONTINUOUS
  0
LAYER
  5
EF7C887D2
330
EF7C8551D
100
AcDbSymbolTableRecord
100
AcDbLayerTableRecord
  2
TENSEN
 70
     0
 62
     2
  6
HIDDEN
  0
ENDTAB
  0
TABLE
  2
STYLE
  5
EF7C8551E
330
0
100
AcDbSymbolTable
 70
     3
  0
STYLE
  5
EF7C8552A
330
EF7C8551E
100
AcDbSymbolTableRecord
100
AcDbTextStyleTableRecord
  2
STANDARD
 70
     0
 40
0.0
 41
1.0
 50
0.0
 71
     0
 42
1.5
  3
SIMPLEX
  4

  0
STYLE
  5
EF7C85558
330
EF7C8551E
100
AcDbSymbolTableRecord
100
AcDbTextStyleTableRecord
  2
K
 70
     0
 40
0.0
 41
1.0
 50
0.0
 71
     0
 42
3.0
  3
ROMANS
  4
BIGFONT
  0
STYLE
  5
EF7C8555B
330
EF7C8551E
100
AcDbSymbolTableRecord
100
AcDbTextStyleTableRecord
  2
BIGFONT
 70
     0
 40
0.0
 41
1.0
 50
0.0
 71
     0
 42
3.0
  3
txt.shx
  4
bigfont
  0
ENDTAB
  0
TABLE
  2
VIEW
  5
EF7C85521
330
0
100
AcDbSymbolTable
 70
     0
  0
ENDTAB
  0
TABLE
  2
UCS
  5
EF7C85522
330
0
100
AcDbSymbolTable
 70
     0
  0
ENDTAB
  0
TABLE
  2
APPID
  5
EF7C85524
330
0
100
AcDbSymbolTable
 70
     1
  0
APPID
  5
EF7C8552B
330
EF7C85524
100
AcDbSymbolTableRecord
100
AcDbRegAppTableRecord
  2
ACAD
 70
     0
  0
ENDTAB
  0
TABLE
  2
DIMSTYLE
  5
EF7C85525
330
0
100
AcDbSymbolTable
 70
     2
  0
DIMSTYLE
105
EF7C85571
330
EF7C85525
100
AcDbSymbolTableRecord
100
AcDbDimStyleTableRecord
  2
IMAO
 70
     0
  3

  4

  5
ARROWANG
  6
ARROWANG
  7
ARROWANG
 40
1.0
 41
1.5
 42
1.0
 43
6.0
 44
1.0
 45
0.0
 46
0.0
 47
495.0
 48
0.0
140
3.0
141
0.0
142
0.0
143
25.4
144
1.0
145
0.0
146
1.0
147
0.09
 71
     0
 72
     0
 73
     0
 74
     0
 75
     0
 76
     0
 77
     1
 78
     8
170
     0
171
     2
172
     1
173
     0
174
     1
175
     0
176
     0
177
     0
178
     0
270
     2
271
     2
272
     2
273
     2
274
     2
340
EF7C8555B
275
     0
280
     0
281
     0
282
     0
283
     1
284
     8
285
     8
286
     8
287
     3
288
     0
  0
DIMSTYLE
105
EF7C87CA1
330
EF7C85525
100
AcDbSymbolTableRecord
100
AcDbDimStyleTableRecord
  2
STANDARD
 70
     0
  3

  4

  5

  6

  7

 40
1.0
 41
0.18
 42
0.0625
 43
0.38
 44
0.18
 45
0.0
 46
0.0
 47
0.0
 48
0.0
140
0.18
141
0.09
142
0.0
143
25.4
144
1.0
145
0.0
146
1.0
147
0.09
 71
     0
 72
     0
 73
     1
 74
     1
 75
     0
 76
     0
 77
     0
 78
     0
170
     0
171
     2
172
     0
173
     0
174
     0
175
     0
176
     0
177
     0
178
     0
270
     2
271
     4
272
     4
273
     2
274
     2
340
EF7C8552A
275
     0
280
     0
281
     0
282
     0
283
     1
284
     0
285
     0
286
     0
287
     3
288
     0
  0
ENDTAB
  0
TABLE
  2
BLOCK_RECORD
  5
EF7C8551C
330
0
100
AcDbSymbolTable
 70
    13
  0
BLOCK_RECORD
  5
EF7C85532
102
{ACAD_XDICTIONARY
360
EF7C85D9A
102
}
330
EF7C8551C
100
AcDbSymbolTableRecord
100
AcDbBlockTableRecord
  2
*MODEL_SPACE
  0
BLOCK_RECORD
  5
EF7C8552F
102
{ACAD_XDICTIONARY
360
EF7C85D98
102
}
330
EF7C8551C
100
AcDbSymbolTableRecord
100
AcDbBlockTableRecord
  2
*PAPER_SPACE
  0
BLOCK_RECORD
  5
EF7C85537
330
EF7C8551C
100
AcDbSymbolTableRecord
100
AcDbBlockTableRecord
  2
ARROW
  0
BLOCK_RECORD
  5
EF7C8553B
330
EF7C8551C
100
AcDbSymbolTableRecord
100
AcDbBlockTableRecord
  2
WAKU
  0
BLOCK_RECORD
  5
EF7C8553D
330
EF7C8551C
100
AcDbSymbolTableRecord
100
AcDbBlockTableRecord
  2
*X2
  0
BLOCK_RECORD
  5
EF7C8553E
330
EF7C8551C
100
AcDbSymbolTableRecord
100
AcDbBlockTableRecord
  2
STDGX5
  0
BLOCK_RECORD
  5
EF7C8553F
330
EF7C8551C
100
AcDbSymbolTableRecord
100
AcDbBlockTableRecord
  2
*X4
  0
BLOCK_RECORD
  5
EF7C85540
330
EF7C8551C
100
AcDbSymbolTableRecord
100
AcDbBlockTableRecord
  2
*X5
  0
BLOCK_RECORD
  5
EF7C85541
330
EF7C8551C
100
AcDbSymbolTableRecord
100
AcDbBlockTableRecord
  2
*X6
  0
BLOCK_RECORD
  5
EF7C85542
330
EF7C8551C
100
AcDbSymbolTableRecord
100
AcDbBlockTableRecord
  2
*X7
  0
BLOCK_RECORD
  5
EF7C85543
330
EF7C8551C
100
AcDbSymbolTableRecord
100
AcDbBlockTableRecord
  2
ARROWANG
  0
BLOCK_RECORD
  5
EF7C85544
330
EF7C8551C
100
AcDbSymbolTableRecord
100
AcDbBlockTableRecord
  2
STDR12J
  0
ENDTAB
  0
ENDSEC
  0
SECTION
  2
BLOCKS
  0
BLOCK
  5
EF7C85580
330
EF7C85532
100
AcDbEntity
  8
0
100
AcDbBlockBegin
  2
*MODEL_SPACE
 70
     0
 10
0.0
 20
0.0
 30
0.0
  3
*MODEL_SPACE
  1

  0
ENDBLK
  5
EF7C85581
330
EF7C85532
100
AcDbEntity
  8
0
100
AcDbBlockEnd
  0
BLOCK
  5
EF7C8557E
330
EF7C8552F
100
AcDbEntity
 67
     1
  8
0
100
AcDbBlockBegin
  2
*PAPER_SPACE
 70
     0
 10
0.0
 20
0.0
 30
0.0
  3
*PAPER_SPACE
  1

  0
ENDBLK
  5
EF7C8557F
330
EF7C8552F
100
AcDbEntity
 67
     1
  8
0
100
AcDbBlockEnd
  0
BLOCK
  5
499
330
EF7C85537
100
AcDbEntity
  8
0
100
AcDbBlockBegin
  2
ARROW
 70
     0
 10
1.0
 20
0.5
 30
0.0
  3
ARROW
  1

  0
LINE
  5
49A
330
EF7C85537
100
AcDbEntity
  8
0
100
AcDbLine
 10
1.0
 20
0.5
 30
0.0
 11
-0.5000000000000214
 21
0.0980762113533018
 31
0.0
  0
LINE
  5
49B
330
EF7C85537
100
AcDbEntity
  8
0
100
AcDbLine
 10
0.0
 20
0.5
 30
0.0
 11
1.0
 21
0.5
 31
0.0
  0
LINE
  5
49C
330
EF7C85537
100
AcDbEntity
  8
0
100
AcDbLine
 10
1.0
 20
0.5
 30
0.0
 11
-0.4999999999999575
 21
0.9019237886467408
 31
0.0
  0
ENDBLK
  5
49D
330
EF7C85537
100
AcDbEntity
  8
0
100
AcDbBlockEnd
  0
BLOCK
  5
4A7
330
EF7C8553B
100
AcDbEntity
  8
0
100
AcDbBlockBegin
  2
WAKU
 70
     0
 10
0.0
 20
0.0
 30
0.0
  3
WAKU
  1

  0
LINE
  5
4A8
330
EF7C8553B
100
AcDbEntity
  8
WAKU
100
AcDbLine
 10
0.9999999959999998
 20
0.0
 30
0.0
 11
0.9999999959999998
 21
0.9999999999999998
 31
0.0
  0
LINE
  5
4A9
330
EF7C8553B
100
AcDbEntity
  8
WAKU
100
AcDbLine
 10
0.0
 20
0.9999999999999998
 30
0.0
 11
0.9999999959999998
 21
0.9999999999999998
 31
0.0
  0
LINE
  5
4AA
330
EF7C8553B
100
AcDbEntity
  8
WAKU
100
AcDbLine
 10
0.9999999959999998
 20
0.0
 30
0.0
 11
0.0
 21
0.0
 31
0.0
  0
LINE
  5
4AB
330
EF7C8553B
100
AcDbEntity
  8
WAKU
100
AcDbLine
 10
0.0
 20
0.0
 30
0.0
 11
0.0
 21
0.9999999999999998
 31
0.0
  0
ENDBLK
  5
4AC
330
EF7C8553B
100
AcDbEntity
  8
0
100
AcDbBlockEnd
  0
BLOCK
  5
2764
330
EF7C8553D
100
AcDbEntity
  8
0
100
AcDbBlockBegin
  2
*X2
 70
     1
 10
0.0
 20
0.0
 30
0.0
  3
*X2
  1

  0
ENDBLK
  5
2765
330
EF7C8553D
100
AcDbEntity
  8
0
100
AcDbBlockEnd
  0
BLOCK
  5
2766
330
EF7C8553E
100
AcDbEntity
  8
0
100
AcDbBlockBegin
  2
STDGX5
 70
     0
 10
0.0
 20
0.0
 30
0.0
  3
STDGX5
  1

  0
ENDBLK
  5
2767
330
EF7C8553E
100
AcDbEntity
  8
0
100
AcDbBlockEnd
  0
BLOCK
  5
2F5A
330
EF7C8553F
100
AcDbEntity
  8
0
100
AcDbBlockBegin
  2
*X4
 70
     1
 10
0.0
 20
0.0
 30
0.0
  3
*X4
  1

  0
ENDBLK
  5
2F5B
330
EF7C8553F
100
AcDbEntity
  8
0
100
AcDbBlockEnd
  0
BLOCK
  5
32BB
330
EF7C85540
100
AcDbEntity
  8
0
100
AcDbBlockBegin
  2
*X5
 70
     1
 10
0.0
 20
0.0
 30
0.0
  3
*X5
  1

  0
ENDBLK
  5
32BC
330
EF7C85540
100
AcDbEntity
  8
0
100
AcDbBlockEnd
  0
BLOCK
  5
372F
330
EF7C85541
100
AcDbEntity
  8
0
100
AcDbBlockBegin
  2
*X6
 70
     1
 10
0.0
 20
0.0
 30
0.0
  3
*X6
  1

  0
ENDBLK
  5
3730
330
EF7C85541
100
AcDbEntity
  8
0
100
AcDbBlockEnd
  0
BLOCK
  5
3A6D
330
EF7C85542
100
AcDbEntity
  8
0
100
AcDbBlockBegin
  2
*X7
 70
     1
 10
0.0
 20
0.0
 30
0.0
  3
*X7
  1

  0
ENDBLK
  5
3A6E
330
EF7C85542
100
AcDbEntity
  8
0
100
AcDbBlockEnd
  0
BLOCK
  5
4CC9
330
EF7C85543
100
AcDbEntity
  8
0
100
AcDbBlockBegin
  2
ARROWANG
 70
     0
 10
0.0
 20
0.0
 30
0.0
  3
ARROWANG
  1

  0
LINE
  5
4CCA
330
EF7C85543
100
AcDbEntity
  8
SUNPOU
100
AcDbLine
 10
0.0
 20
0.0
 30
0.0
 11
-1.499999999999956
 21
0.401923788646741
 31
0.0
  0
LINE
  5
4CCB
330
EF7C85543
100
AcDbEntity
  8
SUNPOU
100
AcDbLine
 10
0.0
 20
0.0
 30
0.0
 11
-1.500000000000027
 21
-0.4019237886467124
 31
0.0
  0
ENDBLK
  5
4CCC
330
EF7C85543
100
AcDbEntity
  8
0
100
AcDbBlockEnd
  0
BLOCK
  5
4CCD
330
EF7C85544
100
AcDbEntity
  8
0
100
AcDbBlockBegin
  2
STDR12J
 70
     0
 10
0.0
 20
0.0
 30
0.0
  3
STDR12J
  1

  0
ENDBLK
  5
4CF2
330
EF7C85544
100
AcDbEntity
  8
0
100
AcDbBlockEnd
  0
ENDSEC
  0
SECTION
  2
ENTITIES
  0
TEXT
  5
1
330
EF7C85532
100
AcDbEntity
  8
SUNPOU
100
AcDbText
 10
95.05869565217388
 20
43.7966872748706
 30
0.0
 40
1.5
  1
                          
100
AcDbText
  0
TEXT
  5
2
330
EF7C85532
100
AcDbEntity
  8
SUNPOU
100
AcDbText
 10
332.2793466870868
 20
21.8983436374353
 30
0.0
 40
0.75
  1
                          
100
AcDbText
  0
TEXT
  5
1A
330
EF7C85532
100
AcDbEntity
  8
SUNPOU
100
AcDbText
 10
289.9834441000535
 20
43.7966872748706
 30
0.0
 40
1.5
  1
                          
100
AcDbText
  0
TEXT
  5
1B
330
EF7C85532
100
AcDbEntity
  8
SUNPOU
100
AcDbText
 10
527.2040951349664
 20
21.8983436374353
 30
0.0
 40
0.75
  1
                          
100
AcDbText
  0
TEXT
  5
1C
330
EF7C85532
100
AcDbEntity
  8
SUNPOU
100
AcDbText
 10
490.6272568090836
 20
43.79668727487056
 30
0.0
 40
1.5
  1
                          
100
AcDbText
  0
TEXT
  5
1D
330
EF7C85532
100
AcDbEntity
  8
SUNPOU
100
AcDbText
 10
727.8479078439966
 20
21.89834363743526
 30
0.0
 40
0.75
  1
                          
100
AcDbText
  0
INSERT
  5
1E
330
EF7C85532
100
AcDbEntity
  8
HATCH
100
AcDbBlockReference
  2
*X2
 10
194.9247484478796
 20
0.0
 30
0.0
  0
TEXT
  5
1F
330
EF7C85532
100
AcDbEntity
  8
SUNPOU
100
AcDbText
 10
493.0101992368963
 20
43.7966872748706
 30
0.0
 40
1.5
  1
                          
100
AcDbText
  0
TEXT
  5
20
330
EF7C85532
100
AcDbEntity
  8
SUNPOU
100
AcDbText
 10
730.2308502718093
 20
21.8983436374353
 30
0.0
 40
0.75
  1
                          
100
AcDbText
  0
TEXT
  5
21
330
EF7C85532
100
AcDbEntity
  8
SUNPOU
100
AcDbText
 10
482.0486607753578
 20
43.7966872748706
 30
0.0
 40
1.5
  1
                          
100
AcDbText
  0
TEXT
  5
22
330
EF7C85532
100
AcDbEntity
  8
SUNPOU
100
AcDbText
 10
719.269311810271
 20
21.8983436374353
 30
0.0
 40
0.75
  1
                          
100
AcDbText
  0
INSERT
  5
25
330
EF7C85532
100
AcDbEntity
  8
JISSEN
100
AcDbBlockReference
  2
STDGX5
 10
0.0
 20
0.0
 30
0.0
  0
TEXT
  5
60
330
EF7C85532
100
AcDbEntity
  8
SUNPOU
100
AcDbText
 10
274.0586949361738
 20
43.7966872748706
 30
0.0
 40
1.5
  1
                          
100
AcDbText
  0
TEXT
  5
61
330
EF7C85532
100
AcDbEntity
  8
SUNPOU
100
AcDbText
 10
511.2793459710869
 20
21.8983436374353
 30
0.0
 40
0.75
  1
                          
100
AcDbText
  0
TEXT
  5
62
330
EF7C85532
100
AcDbEntity
  8
SUNPOU
100
AcDbText
 10
474.702507645204
 20
43.79668727487056
 30
0.0
 40
1.5
  1
                          
100
AcDbText
  0
TEXT
  5
63
330
EF7C85532
100
AcDbEntity
  8
SUNPOU
100
AcDbText
 10
711.923158680117
 20
21.89834363743526
 30
0.0
 40
0.75
  1
                          
100
AcDbText
  0
INSERT
  5
64
330
EF7C85532
100
AcDbEntity
  8
HATCH
100
AcDbBlockReference
  2
*X4
 10
178.999999284
 20
0.0
 30
0.0
  0
TEXT
  5
65
330
EF7C85532
100
AcDbEntity
  8
SUNPOU
100
AcDbText
 10
477.0854500730166
 20
43.7966872748706
 30
0.0
 40
1.5
  1
                          
100
AcDbText
  0
TEXT
  5
66
330
EF7C85532
100
AcDbEntity
  8
SUNPOU
100
AcDbText
 10
714.3061011079296
 20
21.8983436374353
 30
0.0
 40
0.75
  1
                          
100
AcDbText
  0
TEXT
  5
67
330
EF7C85532
100
AcDbEntity
  8
SUNPOU
100
AcDbText
 10
466.1239116114783
 20
43.7966872748706
 30
0.0
 40
1.5
  1
                          
100
AcDbText
  0
TEXT
  5
68
330
EF7C85532
100
AcDbEntity
  8
SUNPOU
100
AcDbText
 10
703.3445626463913
 20
21.8983436374353
 30
0.0
 40
0.75
  1
                          
100
AcDbText
  0
INSERT
  5
69
330
EF7C85532
100
AcDbEntity
  8
TEXT
100
AcDbBlockReference
  2
STDGX5
 10
178.999999284
 20
0.0
 30
0.0
  0
TEXT
  5
6A
330
EF7C85532
100
AcDbEntity
  8
SUNPOU
100
AcDbText
 10
453.0586949361739
 20
43.7966872748706
 30
0.0
 40
1.5
  1
                          
100
AcDbText
  0
TEXT
  5
6B
330
EF7C85532
100
AcDbEntity
  8
SUNPOU
100
AcDbText
 10
690.2793459710871
 20
21.8983436374353
 30
0.0
 40
0.75
  1
                          
100
AcDbText
  0
TEXT
  5
6C
330
EF7C85532
100
AcDbEntity
  8
SUNPOU
100
AcDbText
 10
647.9834433840535
 20
43.7966872748706
 30
0.0
 40
1.5
  1
                          
100
AcDbText
  0
TEXT
  5
6D
330
EF7C85532
100
AcDbEntity
  8
SUNPOU
100
AcDbText
 10
885.2040944189665
 20
21.8983436374353
 30
0.0
 40
0.75
  1
                          
100
AcDbText
  0
TEXT
  5
6E
330
EF7C85532
100
AcDbEntity
  8
SUNPOU
100
AcDbText
 10
848.6272560930835
 20
43.79668727487056
 30
0.0
 40
1.5
  1
                          
100
AcDbText
  0
TEXT
  5
6F
330
EF7C85532
100
AcDbEntity
  8
SUNPOU
100
AcDbText
 10
1085.847907127996
 20
21.89834363743526
 30
0.0
 40
0.75
  1
                          
100
AcDbText
  0
INSERT
  5
70
330
EF7C85532
100
AcDbEntity
  8
HATCH
100
AcDbBlockReference
  2
*X5
 10
552.9247477318796
 20
0.0
 30
0.0
  0
TEXT
  5
71
330
EF7C85532
100
AcDbEntity
  8
SUNPOU
100
AcDbText
 10
851.0101985208963
 20
43.7966872748706
 30
0.0
 40
1.5
  1
                          
100
AcDbText
  0
TEXT
  5
72
330
EF7C85532
100
AcDbEntity
  8
SUNPOU
100
AcDbText
 10
1088.230849555809
 20
21.8983436374353
 30
0.0
 40
0.75
  1
                          
100
AcDbText
  0
TEXT
  5
73
330
EF7C85532
100
AcDbEntity
  8
SUNPOU
100
AcDbText
 10
840.048660059358
 20
43.7966872748706
 30
0.0
 40
1.5
  1
                          
100
AcDbText
  0
TEXT
  5
74
330
EF7C85532
100
AcDbEntity
  8
SUNPOU
100
AcDbText
 10
1077.269311094271
 20
21.8983436374353
 30
0.0
 40
0.75
  1
                          
100
AcDbText
  0
INSERT
  5
75
330
EF7C85532
100
AcDbEntity
  8
JISSEN
100
AcDbBlockReference
  2
STDGX5
 10
357.999999284
 20
0.0
 30
0.0
  0
TEXT
  5
76
330
EF7C85532
100
AcDbEntity
  8
SUNPOU
100
AcDbText
 10
453.0586949361739
 20
43.7966872748706
 30
0.0
 40
1.5
  1
                          
100
AcDbText
  0
TEXT
  5
77
330
EF7C85532
100
AcDbEntity
  8
SUNPOU
100
AcDbText
 10
690.2793459710871
 20
21.8983436374353
 30
0.0
 40
0.75
  1
                          
100
AcDbText
  0
TEXT
  5
78
330
EF7C85532
100
AcDbEntity
  8
SUNPOU
100
AcDbText
 10
647.9834433840535
 20
43.7966872748706
 30
0.0
 40
1.5
  1
                          
100
AcDbText
  0
TEXT
  5
79
330
EF7C85532
100
AcDbEntity
  8
SUNPOU
100
AcDbText
 10
885.2040944189665
 20
21.8983436374353
 30
0.0
 40
0.75
  1
                          
100
AcDbText
  0
TEXT
  5
7A
330
EF7C85532
100
AcDbEntity
  8
SUNPOU
100
AcDbText
 10
848.6272560930835
 20
43.79668727487056
 30
0.0
 40
1.5
  1
                          
100
AcDbText
  0
TEXT
  5
7B
330
EF7C85532
100
AcDbEntity
  8
SUNPOU
100
AcDbText
 10
1085.847907127996
 20
21.89834363743526
 30
0.0
 40
0.75
  1
                          
100
AcDbText
  0
INSERT
  5
7C
330
EF7C85532
100
AcDbEntity
  8
HATCH
100
AcDbBlockReference
  2
*X6
 10
552.9247477318796
 20
0.0
 30
0.0
  0
TEXT
  5
7D
330
EF7C85532
100
AcDbEntity
  8
SUNPOU
100
AcDbText
 10
851.0101985208963
 20
43.7966872748706
 30
0.0
 40
1.5
  1
                          
100
AcDbText
  0
TEXT
  5
7E
330
EF7C85532
100
AcDbEntity
  8
SUNPOU
100
AcDbText
 10
1088.230849555809
 20
21.8983436374353
 30
0.0
 40
0.75
  1
                          
100
AcDbText
  0
TEXT
  5
7F
330
EF7C85532
100
AcDbEntity
  8
SUNPOU
100
AcDbText
 10
840.048660059358
 20
43.7966872748706
 30
0.0
 40
1.5
  1
                          
100
AcDbText
  0
TEXT
  5
80
330
EF7C85532
100
AcDbEntity
  8
SUNPOU
100
AcDbText
 10
1077.269311094271
 20
21.8983436374353
 30
0.0
 40
0.75
  1
                          
100
AcDbText
  0
INSERT
  5
81
330
EF7C85532
100
AcDbEntity
  8
JISSEN
100
AcDbBlockReference
  2
STDGX5
 10
357.999999284
 20
0.0
 30
0.0
  0
TEXT
  5
82
330
EF7C85532
100
AcDbEntity
  8
SUNPOU
100
AcDbText
 10
632.0586942201738
 20
43.7966872748706
 30
0.0
 40
1.5
  1
                          
100
AcDbText
  0
TEXT
  5
83
330
EF7C85532
100
AcDbEntity
  8
SUNPOU
100
AcDbText
 10
869.2793452550871
 20
21.8983436374353
 30
0.0
 40
0.75
  1
                          
100
AcDbText
  0
TEXT
  5
84
330
EF7C85532
100
AcDbEntity
  8
SUNPOU
100
AcDbText
 10
826.9834426680533
 20
43.7966872748706
 30
0.0
 40
1.5
  1
                          
100
AcDbText
  0
TEXT
  5
85
330
EF7C85532
100
AcDbEntity
  8
SUNPOU
100
AcDbText
 10
1064.204093702966
 20
21.8983436374353
 30
0.0
 40
0.75
  1
                          
100
AcDbText
  0
TEXT
  5
86
330
EF7C85532
100
AcDbEntity
  8
SUNPOU
100
AcDbText
 10
1027.627255377083
 20
43.79668727487056
 30
0.0
 40
1.5
  1
                          
100
AcDbText
  0
TEXT
  5
87
330
EF7C85532
100
AcDbEntity
  8
SUNPOU
100
AcDbText
 10
1264.847906411996
 20
21.89834363743526
 30
0.0
 40
0.75
  1
                          
100
AcDbText
  0
INSERT
  5
88
330
EF7C85532
100
AcDbEntity
  8
HATCH
100
AcDbBlockReference
  2
*X7
 10
731.9247470158797
 20
0.0
 30
0.0
  0
TEXT
  5
89
330
EF7C85532
100
AcDbEntity
  8
SUNPOU
100
AcDbText
 10
1030.010197804895
 20
43.7966872748706
 30
0.0
 40
1.5
  1
                          
100
AcDbText
  0
TEXT
  5
8A
330
EF7C85532
100
AcDbEntity
  8
SUNPOU
100
AcDbText
 10
1267.230848839808
 20
21.8983436374353
 30
0.0
 40
0.75
  1
                          
100
AcDbText
  0
TEXT
  5
8B
330
EF7C85532
100
AcDbEntity
  8
SUNPOU
100
AcDbText
 10
1019.048659343358
 20
43.7966872748706
 30
0.0
 40
1.5
  1
                          
100
AcDbText
  0
TEXT
  5
8C
330
EF7C85532
100
AcDbEntity
  8
SUNPOU
100
AcDbText
 10
1256.269310378271
 20
21.8983436374353
 30
0.0
 40
0.75
  1
                          
100
AcDbText
  0
INSERT
  5
8D
330
EF7C85532
100
AcDbEntity
  8
JISSEN
100
AcDbBlockReference
  2
STDGX5
 10
536.999998568
 20
0.0
 30
0.0
  0
INSERT
  5
8E
330
EF7C85532
100
AcDbEntity
  8
SUNPOU
100
AcDbBlockReference
  2
STDGX5
 10
739.0804232644236
 20
50.83533235670902
 30
0.0
 41
0.5
 42
0.5
 43
0.5
  0
INSERT
  5
8F
330
EF7C85532
100
AcDbEntity
  8
SUNPOU
100
AcDbBlockReference
  2
STDGX5
 10
726.2208210623692
 20
105.0763138619288
 30
0.0
 41
0.5
 42
0.5
 43
0.5
  0
INSERT
  5
90
330
EF7C85532
100
AcDbEntity
  8
HATCH
100
AcDbBlockReference
  2
STDGX5
 10
852.3985550581901
 20
151.7065097967401
 30
0.0
 41
0.5
 42
0.5
 43
0.5
  0
INSERT
  5
91
330
EF7C85532
100
AcDbEntity
  8
HATCH
100
AcDbBlockReference
  2
STDGX5
 10
866.6806796277283
 20
102.7017487639612
 30
0.0
 41
0.5
 42
0.5
 43
0.5
  0
INSERT
  5
92
330
EF7C85532
100
AcDbEntity
  8
TEXT
100
AcDbBlockReference
  2
STDGX5
 10
970.3434408521969
 20
102.8213468229236
 30
0.0
 41
0.5
 42
0.5
 43
0.5
  0
INSERT
  5
93
330
EF7C85532
100
AcDbEntity
  8
SUNPOU
100
AcDbBlockReference
  2
STDGX5
 10
996.1728907397867
 20
174.5475645486173
 30
0.0
 41
0.5
 42
0.5
 43
0.5
  0
INSERT
  5
94
330
EF7C85532
100
AcDbEntity
  8
TEXT
100
AcDbBlockReference
  2
STDGX5
 10
725.7513886810995
 20
124.5860190441302
 30
0.0
 41
0.5
 42
0.5
 43
0.5
  0
INSERT
  5
95
330
EF7C85532
100
AcDbEntity
  8
HATCH
100
AcDbBlockReference
  2
STDGX5
 10
777.1755722656421
 20
145.5222028932424
 30
0.0
 41
0.5
 42
0.5
 43
0.5
  0
INSERT
  5
96
330
EF7C85532
100
AcDbEntity
  8
SUNPOU
100
AcDbBlockReference
  2
STDGX5
 10
846.1963575359604
 20
112.6957974729892
 30
0.0
 41
0.5
 42
0.5
 43
0.5
  0
INSERT
  5
97
330
EF7C85532
100
AcDbEntity
  8
SUNPOU
100
AcDbBlockReference
  2
STDGX5
 10
916.6681156211122
 20
121.7330617103084
 30
0.0
 41
0.5
 42
0.5
 43
0.5
  0
INSERT
  5
98
330
EF7C85532
100
AcDbEntity
  8
TEXT
100
AcDbBlockReference
  2
STDGX5
 10
983.7969461426766
 20
84.61852224867081
 30
0.0
 41
0.5
 42
0.5
 43
0.5
  0
INSERT
  5
99
330
EF7C85532
100
AcDbEntity
  8
HATCH
100
AcDbBlockReference
  2
STDGX5
 10
974.2802715042101
 20
136.484938655923
 30
0.0
 41
0.5
 42
0.5
 43
0.5
  0
INSERT
  5
9A
330
EF7C85532
100
AcDbEntity
  8
SUNPOU
100
AcDbBlockReference
  2
STDGX5
 10
749.7834008663488
 20
95.14721172234004
 30
0.0
 41
0.5
 42
0.5
 43
0.5
  0
INSERT
  5
9B
330
EF7C85532
100
AcDbEntity
  8
SUNPOU
100
AcDbBlockReference
  2
STDGX5
 10
736.9237986642947
 20
149.3881932275598
 30
0.0
 41
0.5
 42
0.5
 43
0.5
  0
INSERT
  5
9C
330
EF7C85532
100
AcDbEntity
  8
HATCH
100
AcDbBlockReference
  2
STDGX5
 10
863.1015326601156
 20
196.0183891623711
 30
0.0
 41
0.5
 42
0.5
 43
0.5
  0
INSERT
  5
9D
330
EF7C85532
100
AcDbEntity
  8
HATCH
100
AcDbBlockReference
  2
STDGX5
 10
877.3836572296538
 20
147.0136281295922
 30
0.0
 41
0.5
 42
0.5
 43
0.5
  0
INSERT
  5
9E
330
EF7C85532
100
AcDbEntity
  8
TEXT
100
AcDbBlockReference
  2
STDGX5
 10
981.0464184541222
 20
147.1332261885546
 30
0.0
 41
0.5
 42
0.5
 43
0.5
  0
INSERT
  5
9F
330
EF7C85532
100
AcDbEntity
  8
SUNPOU
100
AcDbBlockReference
  2
STDGX5
 10
1006.875868341712
 20
218.8594439142483
 30
0.0
 41
0.5
 42
0.5
 43
0.5
  0
INSERT
  5
A0
330
EF7C85532
100
AcDbEntity
  8
TEXT
100
AcDbBlockReference
  2
STDGX5
 10
736.454366283025
 20
168.8978984097611
 30
0.0
 41
0.5
 42
0.5
 43
0.5
  0
INSERT
  5
A1
330
EF7C85532
100
AcDbEntity
  8
HATCH
100
AcDbBlockReference
  2
STDGX5
 10
787.8785498675677
 20
189.8340822588734
 30
0.0
 41
0.5
 42
0.5
 43
0.5
  0
INSERT
  5
A2
330
EF7C85532
100
AcDbEntity
  8
SUNPOU
100
AcDbBlockReference
  2
STDGX5
 10
856.899335137886
 20
157.0076768386202
 30
0.0
 41
0.5
 42
0.5
 43
0.5
  0
INSERT
  5
A3
330
EF7C85532
100
AcDbEntity
  8
SUNPOU
100
AcDbBlockReference
  2
STDGX5
 10
927.3710932230379
 20
166.0449410759395
 30
0.0
 41
0.5
 42
0.5
 43
0.5
  0
INSERT
  5
A4
330
EF7C85532
100
AcDbEntity
  8
TEXT
100
AcDbBlockReference
  2
STDGX5
 10
994.4999237446024
 20
128.9304016143017
 30
0.0
 41
0.5
 42
0.5
 43
0.5
  0
INSERT
  5
A5
330
EF7C85532
100
AcDbEntity
  8
HATCH
100
AcDbBlockReference
  2
STDGX5
 10
984.9832491061354
 20
180.7968180215541
 30
0.0
 41
0.5
 42
0.5
 43
0.5
  0
TEXT
  5
DE
330
EF7C85532
100
AcDbEntity
  8
SUNPOU
100
AcDbText
 10
274.0586949361738
 20
43.7966872748706
 30
0.0
 40
1.5
  1
                          
100
AcDbText
  0
TEXT
  5
145
330
EF7C85532
100
AcDbEntity
  8
SUNPOU
100
AcDbText
 10
511.2793459710869
 20
21.8983436374353
 30
0.0
 40
0.75
  1
                          
100
AcDbText
  0
TEXT
  5
265
330
EF7C85532
100
AcDbEntity
  8
SUNPOU
100
AcDbText
 10
474.702507645204
 20
43.79668727487056
 30
0.0
 40
1.5
  1
                          
100
AcDbText
  0
TEXT
  5
266
330
EF7C85532
100
AcDbEntity
  8
SUNPOU
100
AcDbText
 10
711.923158680117
 20
21.89834363743526
 30
0.0
 40
0.75
  1
                          
100
AcDbText
  0
INSERT
  5
2F7
330
EF7C85532
100
AcDbEntity
  8
HATCH
100
AcDbBlockReference
  2
*X4
 10
178.999999284
 20
0.0
 30
0.0
  0
TEXT
  5
31A
330
EF7C85532
100
AcDbEntity
  8
SUNPOU
100
AcDbText
 10
477.0854500730166
 20
43.7966872748706
 30
0.0
 40
1.5
  1
                          
100
AcDbText
  0
TEXT
  5
31C
330
EF7C85532
100
AcDbEntity
  8
SUNPOU
100
AcDbText
 10
714.3061011079296
 20
21.8983436374353
 30
0.0
 40
0.75
  1
                          
100
AcDbText
  0
TEXT
  5
3A6
330
EF7C85532
100
AcDbEntity
  8
TEXT
100
AcDbText
 10
100.9999992839998
 20
244.9999999999999
 30
0.0
 40
3.0
  1
 
  7
K
100
AcDbText
  0
TEXT
  5
3AB
330
EF7C85532
100
AcDbEntity
  8
SUNPOU
100
AcDbText
 10
466.1239116114783
 20
43.7966872748706
 30
0.0
 40
1.5
  1
                          
100
AcDbText
  0
TEXT
  5
3AC
330
EF7C85532
100
AcDbEntity
  8
SUNPOU
100
AcDbText
 10
703.3445626463913
 20
21.8983436374353
 30
0.0
 40
0.75
  1
                          
100
AcDbText
  0
INSERT
  5
3F6
330
EF7C85532
100
AcDbEntity
  8
TEXT
100
AcDbBlockReference
  2
STDGX5
 10
178.999999284
 20
0.0
 30
0.0
  0
TEXT
  5
3F7
330
EF7C85532
100
AcDbEntity
  8
SUNPOU
100
AcDbText
 10
453.0586949361739
 20
43.7966872748706
 30
0.0
 40
1.5
  1
                          
100
AcDbText
  0
TEXT
  5
3F8
330
EF7C85532
100
AcDbEntity
  8
SUNPOU
100
AcDbText
 10
690.2793459710871
 20
21.8983436374353
 30
0.0
 40
0.75
  1
                          
100
AcDbText
  0
TEXT
  5
3F9
330
EF7C85532
100
AcDbEntity
  8
SUNPOU
100
AcDbText
 10
647.9834433840535
 20
43.7966872748706
 30
0.0
 40
1.5
  1
                          
100
AcDbText
  0
TEXT
  5
3FA
330
EF7C85532
100
AcDbEntity
  8
SUNPOU
100
AcDbText
 10
885.2040944189665
 20
21.8983436374353
 30
0.0
 40
0.75
  1
                          
100
AcDbText
  0
TEXT
  5
3FB
330
EF7C85532
100
AcDbEntity
  8
SUNPOU
100
AcDbText
 10
848.6272560930835
 20
43.79668727487056
 30
0.0
 40
1.5
  1
                          
100
AcDbText
  0
TEXT
  5
3FC
330
EF7C85532
100
AcDbEntity
  8
SUNPOU
100
AcDbText
 10
1085.847907127996
 20
21.89834363743526
 30
0.0
 40
0.75
  1
                          
100
AcDbText
  0
INSERT
  5
3FD
330
EF7C85532
100
AcDbEntity
  8
HATCH
100
AcDbBlockReference
  2
*X5
 10
552.9247477318796
 20
0.0
 30
0.0
  0
TEXT
  5
3FE
330
EF7C85532
100
AcDbEntity
  8
SUNPOU
100
AcDbText
 10
851.0101985208963
 20
43.7966872748706
 30
0.0
 40
1.5
  1
                          
100
AcDbText
  0
TEXT
  5
3FF
330
EF7C85532
100
AcDbEntity
  8
SUNPOU
100
AcDbText
 10
1088.230849555809
 20
21.8983436374353
 30
0.0
 40
0.75
  1
                          
100
AcDbText
  0
TEXT
  5
400
330
EF7C85532
100
AcDbEntity
  8
SUNPOU
100
AcDbText
 10
840.048660059358
 20
43.7966872748706
 30
0.0
 40
1.5
  1
                          
100
AcDbText
  0
TEXT
  5
401
330
EF7C85532
100
AcDbEntity
  8
SUNPOU
100
AcDbText
 10
1077.269311094271
 20
21.8983436374353
 30
0.0
 40
0.75
  1
                          
100
AcDbText
  0
INSERT
  5
402
330
EF7C85532
100
AcDbEntity
  8
JISSEN
100
AcDbBlockReference
  2
STDGX5
 10
357.999999284
 20
0.0
 30
0.0
  0
TEXT
  5
409
330
EF7C85532
100
AcDbEntity
  8
SUNPOU
100
AcDbText
 10
453.0586949361739
 20
43.7966872748706
 30
0.0
 40
1.5
  1
                          
100
AcDbText
  0
TEXT
  5
40A
330
EF7C85532
100
AcDbEntity
  8
SUNPOU
100
AcDbText
 10
690.2793459710871
 20
21.8983436374353
 30
0.0
 40
0.75
  1
                          
100
AcDbText
  0
TEXT
  5
41B
330
EF7C85532
100
AcDbEntity
  8
SUNPOU
100
AcDbText
 10
647.9834433840535
 20
43.7966872748706
 30
0.0
 40
1.5
  1
                          
100
AcDbText
  0
TEXT
  5
41C
330
EF7C85532
100
AcDbEntity
  8
SUNPOU
100
AcDbText
 10
885.2040944189665
 20
21.8983436374353
 30
0.0
 40
0.75
  1
                          
100
AcDbText
  0
TEXT
  5
41D
330
EF7C85532
100
AcDbEntity
  8
SUNPOU
100
AcDbText
 10
848.6272560930835
 20
43.79668727487056
 30
0.0
 40
1.5
  1
                          
100
AcDbText
  0
TEXT
  5
41E
330
EF7C85532
100
AcDbEntity
  8
SUNPOU
100
AcDbText
 10
1085.847907127996
 20
21.89834363743526
 30
0.0
 40
0.75
  1
                          
100
AcDbText
  0
INSERT
  5
41F
330
EF7C85532
100
AcDbEntity
  8
HATCH
100
AcDbBlockReference
  2
*X6
 10
552.9247477318796
 20
0.0
 30
0.0
  0
TEXT
  5
420
330
EF7C85532
100
AcDbEntity
  8
SUNPOU
100
AcDbText
 10
851.0101985208963
 20
43.7966872748706
 30
0.0
 40
1.5
  1
                          
100
AcDbText
  0
TEXT
  5
421
330
EF7C85532
100
AcDbEntity
  8
SUNPOU
100
AcDbText
 10
1088.230849555809
 20
21.8983436374353
 30
0.0
 40
0.75
  1
                          
100
AcDbText
  0
TEXT
  5
422
330
EF7C85532
100
AcDbEntity
  8
SUNPOU
100
AcDbText
 10
840.048660059358
 20
43.7966872748706
 30
0.0
 40
1.5
  1
                          
100
AcDbText
  0
TEXT
  5
423
330
EF7C85532
100
AcDbEntity
  8
SUNPOU
100
AcDbText
 10
1077.269311094271
 20
21.8983436374353
 30
0.0
 40
0.75
  1
                          
100
AcDbText
  0
INSERT
  5
424
330
EF7C85532
100
AcDbEntity
  8
JISSEN
100
AcDbBlockReference
  2
STDGX5
 10
357.999999284
 20
0.0
 30
0.0
  0
TEXT
  5
425
330
EF7C85532
100
AcDbEntity
  8
SUNPOU
100
AcDbText
 10
632.0586942201738
 20
43.7966872748706
 30
0.0
 40
1.5
  1
                          
100
AcDbText
  0
TEXT
  5
426
330
EF7C85532
100
AcDbEntity
  8
SUNPOU
100
AcDbText
 10
869.2793452550871
 20
21.8983436374353
 30
0.0
 40
0.75
  1
                          
100
AcDbText
  0
TEXT
  5
427
330
EF7C85532
100
AcDbEntity
  8
SUNPOU
100
AcDbText
 10
826.9834426680533
 20
43.7966872748706
 30
0.0
 40
1.5
  1
                          
100
AcDbText
  0
TEXT
  5
428
330
EF7C85532
100
AcDbEntity
  8
SUNPOU
100
AcDbText
 10
1064.204093702966
 20
21.8983436374353
 30
0.0
 40
0.75
  1
                          
100
AcDbText
  0
TEXT
  5
429
330
EF7C85532
100
AcDbEntity
  8
SUNPOU
100
AcDbText
 10
1027.627255377083
 20
43.79668727487056
 30
0.0
 40
1.5
  1
                          
100
AcDbText
  0
TEXT
  5
42A
330
EF7C85532
100
AcDbEntity
  8
SUNPOU
100
AcDbText
 10
1264.847906411996
 20
21.89834363743526
 30
0.0
 40
0.75
  1
                          
100
AcDbText
  0
INSERT
  5
42B
330
EF7C85532
100
AcDbEntity
  8
HATCH
100
AcDbBlockReference
  2
*X7
 10
731.9247470158797
 20
0.0
 30
0.0
  0
TEXT
  5
42C
330
EF7C85532
100
AcDbEntity
  8
SUNPOU
100
AcDbText
 10
1030.010197804895
 20
43.7966872748706
 30
0.0
 40
1.5
  1
                          
100
AcDbText
  0
TEXT
  5
42D
330
EF7C85532
100
AcDbEntity
  8
SUNPOU
100
AcDbText
 10
1267.230848839808
 20
21.8983436374353
 30
0.0
 40
0.75
  1
                          
100
AcDbText
  0
TEXT
  5
42E
330
EF7C85532
100
AcDbEntity
  8
SUNPOU
100
AcDbText
 10
1019.048659343358
 20
43.7966872748706
 30
0.0
 40
1.5
  1
                          
100
AcDbText
  0
TEXT
  5
42F
330
EF7C85532
100
AcDbEntity
  8
SUNPOU
100
AcDbText
 10
1256.269310378271
 20
21.8983436374353
 30
0.0
 40
0.75
  1
                          
100
AcDbText
  0
INSERT
  5
430
330
EF7C85532
100
AcDbEntity
  8
JISSEN
100
AcDbBlockReference
  2
STDGX5
 10
536.999998568
 20
0.0
 30
0.0
  0
INSERT
  5
43B
330
EF7C85532
100
AcDbEntity
  8
SUNPOU
100
AcDbBlockReference
  2
STDGX5
 10
739.0804232644236
 20
50.83533235670902
 30
0.0
 41
0.5
 42
0.5
 43
0.5
  0
INSERT
  5
43C
330
EF7C85532
100
AcDbEntity
  8
SUNPOU
100
AcDbBlockReference
  2
STDGX5
 10
726.2208210623692
 20
105.0763138619288
 30
0.0
 41
0.5
 42
0.5
 43
0.5
  0
INSERT
  5
43D
330
EF7C85532
100
AcDbEntity
  8
HATCH
100
AcDbBlockReference
  2
STDGX5
 10
852.3985550581901
 20
151.7065097967401
 30
0.0
 41
0.5
 42
0.5
 43
0.5
  0
INSERT
  5
43E
330
EF7C85532
100
AcDbEntity
  8
HATCH
100
AcDbBlockReference
  2
STDGX5
 10
866.6806796277283
 20
102.7017487639612
 30
0.0
 41
0.5
 42
0.5
 43
0.5
  0
INSERT
  5
43F
330
EF7C85532
100
AcDbEntity
  8
TEXT
100
AcDbBlockReference
  2
STDGX5
 10
970.3434408521969
 20
102.8213468229236
 30
0.0
 41
0.5
 42
0.5
 43
0.5
  0
INSERT
  5
440
330
EF7C85532
100
AcDbEntity
  8
SUNPOU
100
AcDbBlockReference
  2
STDGX5
 10
996.1728907397867
 20
174.5475645486173
 30
0.0
 41
0.5
 42
0.5
 43
0.5
  0
INSERT
  5
441
330
EF7C85532
100
AcDbEntity
  8
TEXT
100
AcDbBlockReference
  2
STDGX5
 10
725.7513886810995
 20
124.5860190441302
 30
0.0
 41
0.5
 42
0.5
 43
0.5
  0
INSERT
  5
442
330
EF7C85532
100
AcDbEntity
  8
HATCH
100
AcDbBlockReference
  2
STDGX5
 10
777.1755722656421
 20
145.5222028932424
 30
0.0
 41
0.5
 42
0.5
 43
0.5
  0
INSERT
  5
443
330
EF7C85532
100
AcDbEntity
  8
SUNPOU
100
AcDbBlockReference
  2
STDGX5
 10
846.1963575359604
 20
112.6957974729892
 30
0.0
 41
0.5
 42
0.5
 43
0.5
  0
INSERT
  5
444
330
EF7C85532
100
AcDbEntity
  8
SUNPOU
100
AcDbBlockReference
  2
STDGX5
 10
916.6681156211122
 20
121.7330617103084
 30
0.0
 41
0.5
 42
0.5
 43
0.5
  0
INSERT
  5
445
330
EF7C85532
100
AcDbEntity
  8
TEXT
100
AcDbBlockReference
  2
STDGX5
 10
983.7969461426766
 20
84.61852224867081
 30
0.0
 41
0.5
 42
0.5
 43
0.5
  0
INSERT
  5
446
330
EF7C85532
100
AcDbEntity
  8
HATCH
100
AcDbBlockReference
  2
STDGX5
 10
974.2802715042101
 20
136.484938655923
 30
0.0
 41
0.5
 42
0.5
 43
0.5
  0
INSERT
  5
447
330
EF7C85532
100
AcDbEntity
  8
SUNPOU
100
AcDbBlockReference
  2
STDGX5
 10
749.7834008663488
 20
95.14721172234004
 30
0.0
 41
0.5
 42
0.5
 43
0.5
  0
INSERT
  5
448
330
EF7C85532
100
AcDbEntity
  8
SUNPOU
100
AcDbBlockReference
  2
STDGX5
 10
736.9237986642947
 20
149.3881932275598
 30
0.0
 41
0.5
 42
0.5
 43
0.5
  0
INSERT
  5
449
330
EF7C85532
100
AcDbEntity
  8
HATCH
100
AcDbBlockReference
  2
STDGX5
 10
863.1015326601156
 20
196.0183891623711
 30
0.0
 41
0.5
 42
0.5
 43
0.5
  0
INSERT
  5
44A
330
EF7C85532
100
AcDbEntity
  8
HATCH
100
AcDbBlockReference
  2
STDGX5
 10
877.3836572296538
 20
147.0136281295922
 30
0.0
 41
0.5
 42
0.5
 43
0.5
  0
INSERT
  5
44B
330
EF7C85532
100
AcDbEntity
  8
TEXT
100
AcDbBlockReference
  2
STDGX5
 10
981.0464184541222
 20
147.1332261885546
 30
0.0
 41
0.5
 42
0.5
 43
0.5
  0
INSERT
  5
44C
330
EF7C85532
100
AcDbEntity
  8
SUNPOU
100
AcDbBlockReference
  2
STDGX5
 10
1006.875868341712
 20
218.8594439142483
 30
0.0
 41
0.5
 42
0.5
 43
0.5
  0
INSERT
  5
44D
330
EF7C85532
100
AcDbEntity
  8
TEXT
100
AcDbBlockReference
  2
STDGX5
 10
736.454366283025
 20
168.8978984097611
 30
0.0
 41
0.5
 42
0.5
 43
0.5
  0
INSERT
  5
44E
330
EF7C85532
100
AcDbEntity
  8
HATCH
100
AcDbBlockReference
  2
STDGX5
 10
787.8785498675677
 20
189.8340822588734
 30
0.0
 41
0.5
 42
0.5
 43
0.5
  0
INSERT
  5
44F
330
EF7C85532
100
AcDbEntity
  8
SUNPOU
100
AcDbBlockReference
  2
STDGX5
 10
856.899335137886
 20
157.0076768386202
 30
0.0
 41
0.5
 42
0.5
 43
0.5
  0
INSERT
  5
450
330
EF7C85532
100
AcDbEntity
  8
SUNPOU
100
AcDbBlockReference
  2
STDGX5
 10
927.3710932230379
 20
166.0449410759395
 30
0.0
 41
0.5
 42
0.5
 43
0.5
  0
INSERT
  5
451
330
EF7C85532
100
AcDbEntity
  8
TEXT
100
AcDbBlockReference
  2
STDGX5
 10
994.4999237446024
 20
128.9304016143017
 30
0.0
 41
0.5
 42
0.5
 43
0.5
  0
INSERT
  5
452
330
EF7C85532
100
AcDbEntity
  8
HATCH
100
AcDbBlockReference
  2
STDGX5
 10
984.9832491061354
 20
180.7968180215541
 30
0.0
 41
0.5
 42
0.5
 43
0.5
  0
INSERT
  5
4CF3
330
EF7C85532
100
AcDbEntity
  8
JISSEN
100
AcDbBlockReference
  2
STDR12J
 10
0.0
 20
0.0
 30
0.0
  0
LWPOLYLINE
  5
1D277
330
EF7C85532
100
AcDbEntity
  8
NITEN
100
AcDbPolyline
 90
        2
 70
     0
 43
0.0
 10
287.9999992760001
 20
252.2768605177684
 42
0.5882352941176295
 10
270.9999992759999
 20
252.2768605177686
 42
0.5882352941176295
  0
LWPOLYLINE
  5
1D27B
330
EF7C85532
100
AcDbEntity
  8
NITEN
100
AcDbPolyline
 90
        5
 70
     0
 43
0.0
 10
287.9999992759999
 20
231.4391428666225
 10
287.9999992759999
 20
252.2768605177684
 42
-0.5882352941176476
 10
270.9999992759999
 20
252.2768605177684
 42
0.5882352941176477
 10
253.9999992759999
 20
252.276860517768
 10
253.9999992759999
 20
231.4391428666225
  0
LWPOLYLINE
  5
1D282
330
EF7C85532
100
AcDbEntity
  8
NITEN
100
AcDbPolyline
 90
       15
 70
     1
 43
0.0
 10
256.9999992759999
 20
190.9391428666225
 42
0.4142135623730927
 10
258.4999992759999
 20
189.4391428666225
 10
281.5940504469965
 20
189.4391428666225
 10
283.4999992759999
 20
189.4391428666225
 42
0.4142135623730925
 10
284.9999992759999
 20
190.9391428666225
 10
284.9999992759999
 20
201.9851588928405
 42
-0.4142135623730943
 10
289.9999992759999
 20
206.9851588928405
 42
0.4142135623730951
 10
291.9999992759999
 20
208.9851588928405
 10
291.9999992759998
 20
229.4391428666225
 42
0.4142135623730949
 10
289.9999992759999
 20
231.4391428666225
 10
251.9999992759999
 20
231.4391428666225
 42
0.4142135623730951
 10
249.9999992759999
 20
229.4391428666225
 10
249.9999992759999
 20
208.9851588928405
 42
0.4142135623730951
 10
251.9999992759999
 20
206.9851588928405
 42
-0.4142135623730961
 10
256.9999992759999
 20
201.9851588928405
  0
LINE
  5
1D2BA
102
{ACAD_REACTORS
330
EF7C87630
102
}
330
EF7C85532
100
AcDbEntity
  8
JISSEN
100
AcDbLine
 10
260.4025767970671
 20
183.328593960895
 30
0.0
 11
205.7240933203044
 21
183.328593960895
 31
0.0
  0
LWPOLYLINE
  5
1E284
102
{ACAD_REACTORS
330
EF7C87630
102
}
330
EF7C85532
100
AcDbEntity
  8
HATCH
100
AcDbPolyline
 90
       13
 70
     0
 43
0.0
 10
202.2663302868745
 20
188.3285939608951
 10
202.4309174651246
 20
187.508956882663
 10
202.5728228218049
 20
186.9923389058988
 10
202.8005314589526
 20
186.573912619211
 10
203.108418945612
 20
186.235795595544
 10
203.4746422345914
 20
185.9455445228938
 10
203.8773582787003
 20
185.6707160892563
 10
204.2947240307471
 20
185.3788669826274
 10
204.7048964435409
 20
185.0375538910027
 10
205.0860324698907
 20
184.6143335023783
 10
205.416289062605
 20
184.0767625047499
 10
205.6908691258079
 20
183.4131437174626
 10
205.7240933203044
 20
183.328593960895
  0
LINE
  5
EF7C854DA
102
{ACAD_REACTORS
330
EF7C87630
102
}
330
EF7C85532
100
AcDbEntity
  8
JISSEN
100
AcDbLine
 10
202.2663302868745
 20
188.3285939608951
 30
0.0
 11
260.3713252070987
 21
188.3285939608951
 31
0.0
  0
LINE
  5
EF7C85D60
102
{ACAD_REACTORS
330
EF7C87630
102
}
330
EF7C85532
100
AcDbEntity
  8
JISSEN
100
AcDbLine
 10
281.5975886309648
 20
183.328593960895
 30
0.0
 11
336.2759052316956
 21
183.328593960895
 31
0.0
  0
LINE
  5
EF7C85D62
102
{ACAD_REACTORS
330
EF7C87630
102
}
330
EF7C85532
100
AcDbEntity
  8
JISSEN
100
AcDbLine
 10
339.7336682651255
 20
188.3285939608951
 30
0.0
 11
281.6288402209334
 21
188.3285939608951
 31
0.0
  0
LWPOLYLINE
  5
EF7C85D63
102
{ACAD_REACTORS
330
EF7C87630
102
}
330
EF7C85532
100
AcDbEntity
  8
HATCH
100
AcDbPolyline
 90
       13
 70
     0
 43
0.0
 10
339.7336682651255
 20
188.3285939608951
 10
339.5690810868756
 20
187.508956882663
 10
339.4271757301952
 20
186.9923389058988
 10
339.1994670930472
 20
186.573912619211
 10
338.8915796063881
 20
186.235795595544
 10
338.5253563174086
 20
185.9455445228938
 10
338.1226402732998
 20
185.6707160892565
 10
337.7052745212529
 20
185.3788669826275
 10
337.2951021084592
 20
185.0375538910027
 10
336.9139660821093
 20
184.6143335023784
 10
336.5837094893949
 20
184.07676250475
 10
336.3091294261921
 20
183.4131437174626
 10
336.2759052316956
 20
183.328593960895
  0
INSERT
  5
EF7C86777
330
EF7C85532
100
AcDbEntity
  8
WAKU
100
AcDbBlockReference
  2
WAKU
 10
180.9999992759999
 20
0.0
 30
0.0
 41
181.0
 42
283.0
 43
181.0
  0
LINE
  5
EF7C87513
330
EF7C85532
100
AcDbEntity
  8
JISSEN
100
AcDbLine
 10
272.500082714016
 20
172.828593960895
 30
0.0
 11
272.500082714016
 21
166.0317149608951
 31
0.0
  0
LINE
  5
EF7C87514
330
EF7C85532
100
AcDbEntity
  8
JISSEN
100
AcDbLine
 10
277.741935714016
 20
166.729317960895
 30
0.0
 11
277.981387714016
 21
173.136063960895
 31
0.0
  0
LINE
  5
EF7C87515
330
EF7C85532
100
AcDbEntity
  8
JISSEN
100
AcDbLine
 10
285.6211037140159
 20
173.142607960895
 30
0.0
 11
285.177296714016
 21
166.8243419608951
 31
0.0
  0
LINE
  5
EF7C87516
330
EF7C85532
100
AcDbEntity
  8
JISSEN
100
AcDbLine
 10
280.3702877140159
 20
173.069892960895
 30
0.0
 11
280.156309714016
 21
166.9250529608951
 31
0.0
  0
LINE
  5
EF7C87517
330
EF7C85532
100
AcDbEntity
  8
JISSEN
100
AcDbLine
 10
280.796029714016
 20
173.017388960895
 30
0.0
 11
280.569195714016
 21
166.9482409608952
 31
0.0
  0
LINE
  5
EF7C87518
330
EF7C85532
100
AcDbEntity
  8
JISSEN
100
AcDbLine
 10
287.106322714016
 20
173.0090019608951
 30
0.0
 11
286.713679714016
 21
167.009370960895
 31
0.0
  0
LINE
  5
EF7C87519
330
EF7C85532
100
AcDbEntity
  8
JISSEN
100
AcDbLine
 10
287.5019597140159
 20
167.202038960895
 30
0.0
 11
287.9059937140159
 21
172.954068960895
 31
0.0
  0
LINE
  5
EF7C8751A
330
EF7C85532
100
AcDbEntity
  8
JISSEN
100
AcDbLine
 10
290.9058917140161
 20
166.906143960895
 30
0.0
 11
291.4739997140159
 21
173.146725960895
 31
0.0
  0
LINE
  5
EF7C8751B
330
EF7C85532
100
AcDbEntity
  8
JISSEN
100
AcDbLine
 10
292.9732447140161
 20
172.890906960895
 30
0.0
 11
292.4475427140161
 21
167.3359609608951
 31
0.0
  0
LINE
  5
EF7C8751C
330
EF7C85532
100
AcDbEntity
  8
JISSEN
100
AcDbLine
 10
291.9108237140159
 20
173.111026960895
 30
0.0
 11
291.3800697140159
 21
167.0915769608951
 31
0.0
  0
LINE
  5
EF7C8751D
330
EF7C85532
100
AcDbEntity
  8
JISSEN
100
AcDbLine
 10
295.468849714016
 20
173.3285939608951
 30
0.0
 11
294.948495714016
 21
167.3809169608951
 31
0.0
  0
LINE
  5
EF7C8751E
330
EF7C85532
100
AcDbEntity
  8
JISSEN
100
AcDbLine
 10
295.238406714016
 20
172.908029960895
 30
0.0
 11
294.6505767140159
 21
167.445780960895
 31
0.0
  0
LINE
  5
EF7C8751F
330
EF7C85532
100
AcDbEntity
  8
JISSEN
100
AcDbLine
 10
294.123573714016
 20
167.389491960895
 30
0.0
 11
294.755504714016
 21
173.261529960895
 31
0.0
  0
LINE
  5
EF7C87520
330
EF7C85532
100
AcDbEntity
  8
JISSEN
100
AcDbLine
 10
247.8765917140159
 20
167.389491960895
 30
0.0
 11
247.244660714016
 21
173.261529960895
 31
0.0
  0
LINE
  5
EF7C87521
330
EF7C85532
100
AcDbEntity
  8
JISSEN
100
AcDbLine
 10
246.761758714016
 20
172.908029960895
 30
0.0
 11
247.349588714016
 21
167.445780960895
 31
0.0
  0
LINE
  5
EF7C87522
330
EF7C85532
100
AcDbEntity
  8
JISSEN
100
AcDbLine
 10
246.531315714016
 20
173.3285939608951
 30
0.0
 11
247.051669714016
 21
167.3809169608951
 31
0.0
  0
LINE
  5
EF7C87523
330
EF7C85532
100
AcDbEntity
  8
JISSEN
100
AcDbLine
 10
250.0893417140162
 20
173.111026960895
 30
0.0
 11
250.6200957140161
 21
167.0915769608951
 31
0.0
  0
LINE
  5
EF7C87524
330
EF7C85532
100
AcDbEntity
  8
JISSEN
100
AcDbLine
 10
249.0269207140161
 20
172.890906960895
 30
0.0
 11
249.552622714016
 21
167.3359609608951
 31
0.0
  0
LINE
  5
EF7C87525
330
EF7C85532
100
AcDbEntity
  8
JISSEN
100
AcDbLine
 10
251.094273714016
 20
166.906143960895
 30
0.0
 11
250.526165714016
 21
173.146725960895
 31
0.0
  0
LINE
  5
EF7C87526
330
EF7C85532
100
AcDbEntity
  8
JISSEN
100
AcDbLine
 10
254.4982057140162
 20
167.202038960895
 30
0.0
 11
254.094171714016
 21
172.954068960895
 31
0.0
  0
LINE
  5
EF7C87527
330
EF7C85532
100
AcDbEntity
  8
JISSEN
100
AcDbLine
 10
254.893842714016
 20
173.0090019608951
 30
0.0
 11
255.286485714016
 21
167.009370960895
 31
0.0
  0
LINE
  5
EF7C87528
330
EF7C85532
100
AcDbEntity
  8
JISSEN
100
AcDbLine
 10
261.204135714016
 20
173.017388960895
 30
0.0
 11
261.4309697140161
 21
166.9482409608952
 31
0.0
  0
LINE
  5
EF7C87529
330
EF7C85532
100
AcDbEntity
  8
JISSEN
100
AcDbLine
 10
261.629877714016
 20
173.069892960895
 30
0.0
 11
261.843855714016
 21
166.9250529608951
 31
0.0
  0
LINE
  5
EF7C8752A
330
EF7C85532
100
AcDbEntity
  8
JISSEN
100
AcDbLine
 10
256.379061714016
 20
173.142607960895
 30
0.0
 11
256.822868714016
 21
166.8243419608951
 31
0.0
  0
LINE
  5
EF7C8752B
330
EF7C85532
100
AcDbEntity
  8
JISSEN
100
AcDbLine
 10
264.258229714016
 20
166.729317960895
 30
0.0
 11
264.0187777140161
 21
173.136063960895
 31
0.0
  0
LINE
  5
EF7C8752C
330
EF7C85532
100
AcDbEntity
  8
JISSEN
100
AcDbLine
 10
269.500082714016
 20
172.828593960895
 30
0.0
 11
269.500082714016
 21
166.0317149608951
 31
0.0
  0
LINE
  5
EF7C8752D
330
EF7C85532
100
AcDbEntity
  8
JISSEN
100
AcDbLine
 10
256.4708796974144
 20
161.9927116385555
 30
0.0
 11
247.9454770881766
 21
166.001207580266
 31
0.0
1001
ACAD
1000
ASC_BOUNDS
1002
{
1070
    19
1002
}
  0
ARC
  5
EF7C8752E
330
EF7C85532
100
AcDbEntity
  8
JISSEN
100
AcDbCircle
 10
251.1181637140162
 20
167.1354929608952
 30
0.0
 40
0.5
100
AcDbArc
 50
185.0389269999999
 51
279.3495549999998
  0
LINE
  5
EF7C8752F
330
EF7C85532
100
AcDbEntity
  8
JISSEN
100
AcDbLine
 10
250.241606714016
 20
166.307922960895
 30
0.0
 11
251.629705714016
 21
165.5777099608951
 31
0.0
  0
ARC
  5
EF7C87530
330
EF7C85532
100
AcDbEntity
  8
JISSEN
100
AcDbCircle
 10
248.5459620435533
 20
167.3757685350316
 30
0.0
 40
1.5
100
AcDbArc
 50
184.9999999999998
 51
249.9999999999999
  0
ARC
  5
EF7C87531
330
EF7C85532
100
AcDbEntity
  8
JISSEN
100
AcDbCircle
 10
249.169127714016
 20
167.528590960895
 30
0.0
 40
1.3
100
AcDbArc
 50
186.1423570000001
 51
245.1745949999998
  0
LINE
  5
EF7C87532
330
EF7C85532
100
AcDbEntity
  8
JISSEN
100
AcDbLine
 10
248.153755714016
 20
166.3249519608951
 30
0.0
 11
249.620653714016
 21
165.646359960895
 31
0.0
  0
ARC
  5
EF7C87533
330
EF7C85532
100
AcDbEntity
  8
JISSEN
100
AcDbCircle
 10
248.741551714016
 20
167.595579960895
 30
0.0
 40
1.399999999999999
100
AcDbArc
 50
186.1423570000001
 51
245.1745949999998
  0
LINE
  5
EF7C87534
330
EF7C85532
100
AcDbEntity
  8
JISSEN
100
AcDbLine
 10
250.1351757140161
 20
165.6493309608951
 30
0.0
 11
248.623316714016
 21
166.348721960895
 31
0.0
  0
ARC
  5
EF7C87535
330
EF7C85532
100
AcDbEntity
  8
JISSEN
100
AcDbCircle
 10
250.114183714016
 20
165.6039519608951
 30
0.0
 40
0.05
100
AcDbArc
 50
270.0
 51
65.17459499999985
  0
LINE
  5
EF7C87536
330
EF7C85532
100
AcDbEntity
  8
JISSEN
100
AcDbLine
 10
250.0405087140161
 20
165.553951960895
 30
0.0
 11
250.114183714016
 21
165.553951960895
 31
0.0
  0
ARC
  5
EF7C87537
330
EF7C85532
100
AcDbEntity
  8
JISSEN
100
AcDbCircle
 10
250.0405087140161
 20
166.553951960895
 30
0.0
 40
1.0
100
AcDbArc
 50
245.1745949999998
 51
270.0
  0
ARC
  5
EF7C87538
330
EF7C85532
100
AcDbEntity
  8
JISSEN
100
AcDbCircle
 10
250.846839714016
 20
167.458441960895
 30
0.0
 40
1.3
100
AcDbArc
 50
185.4061850000002
 51
242.253262
  0
LINE
  5
EF7C87539
330
EF7C85532
100
AcDbEntity
  8
JISSEN
100
AcDbLine
 10
279.856491714016
 20
166.635492960895
 30
0.0
 11
277.723158714016
 21
166.635492960895
 31
0.0
  0
LINE
  5
EF7C8753A
330
EF7C85532
100
AcDbEntity
  8
JISSEN
100
AcDbLine
 10
279.578941714016
 20
165.5317149608951
 30
0.0
 11
277.310012714016
 21
165.5317149608951
 31
0.0
  0
LINE
  5
EF7C8753B
330
EF7C85532
100
AcDbEntity
  8
JISSEN
100
AcDbLine
 10
271.000082714016
 20
161.9927116385558
 30
0.0
 11
285.5292857306178
 21
161.9927116385555
 31
0.0
1001
ACAD
1000
ASC_BOUNDS
1002
{
1070
    19
1002
}
  0
LINE
  5
EF7C8753C
330
EF7C85532
100
AcDbEntity
  8
JISSEN
100
AcDbLine
 10
284.2500827140161
 20
158.7204943949478
 30
0.0
 11
271.000082714016
 21
158.7204943949476
 31
0.0
1001
ACAD
1000
ASC_BOUNDS
1002
{
1070
    19
1002
}
  0
LINE
  5
EF7C8753D
330
EF7C85532
100
AcDbEntity
  8
JISSEN
100
AcDbLine
 10
271.000082714016
 20
160.2427116385555
 30
0.0
 11
283.550082714016
 21
160.2427116385561
 31
0.0
1001
ACAD
1000
ASC_BOUNDS
1002
{
1070
    19
1002
}
  0
ARC
  5
EF7C8753E
330
EF7C85532
100
AcDbEntity
  8
SAISEN
100
AcDbCircle
 10
278.518008714016
 20
150.6114063949478
 30
0.0
 40
0.75
100
AcDbArc
 50
261.0715290000005
 51
323.1301020000003
  0
LINE
  5
EF7C8753F
330
EF7C85532
100
AcDbEntity
  8
SAISEN
100
AcDbLine
 10
271.000082714016
 20
152.4757363949477
 30
0.0
 11
280.268008714016
 21
152.4757363949477
 31
0.0
  0
LINE
  5
EF7C87540
330
EF7C85532
100
AcDbEntity
  8
SAISEN
100
AcDbLine
 10
271.000082714016
 20
150.4838353949478
 30
0.0
 11
280.268008714016
 21
150.4838353949478
 31
0.0
  0
LINE
  5
EF7C87541
330
EF7C85532
100
AcDbEntity
  8
SAISEN
100
AcDbLine
 10
275.528111714016
 20
152.1436173949478
 30
0.0
 11
280.268008714016
 21
152.1436173949478
 31
0.0
  0
LINE
  5
EF7C87542
330
EF7C85532
100
AcDbEntity
  8
SAISEN
100
AcDbLine
 10
280.268008714016
 20
150.1614063949478
 30
0.0
 11
271.000082714016
 21
150.1614063949476
 31
0.0
  0
LINE
  5
EF7C87543
330
EF7C85532
100
AcDbEntity
  8
JISSEN
100
AcDbLine
 10
284.2500827140161
 20
156.4585961929254
 30
0.0
 11
271.000082714016
 21
156.4585961929254
 31
0.0
  0
LINE
  5
EF7C87544
330
EF7C85532
100
AcDbEntity
  8
JISSEN
100
AcDbLine
 10
280.250082714016
 20
154.4204943949478
 30
0.0
 11
271.000082714016
 21
154.4204943949478
 31
0.0
1001
ACAD
1000
ASC_BOUNDS
1002
{
1070
    19
1002
}
  0
LINE
  5
EF7C87545
330
EF7C85532
100
AcDbEntity
  8
JISSEN
100
AcDbLine
 10
257.750082714016
 20
158.7204943949478
 30
0.0
 11
257.750082714016
 21
156.4585961929254
 31
0.0
1001
ACAD
1000
ASC_BOUNDS
1002
{
1070
    19
1002
}
  0
LINE
  5
EF7C87546
330
EF7C85532
100
AcDbEntity
  8
JISSEN
100
AcDbLine
 10
261.750082714016
 20
154.4204943949478
 30
0.0
 11
271.000082714016
 21
154.4204943949478
 31
0.0
1001
ACAD
1000
ASC_BOUNDS
1002
{
1070
    19
1002
}
  0
LINE
  5
EF7C87547
330
EF7C85532
100
AcDbEntity
  8
JISSEN
100
AcDbLine
 10
257.750082714016
 20
156.4585961929254
 30
0.0
 11
271.000082714016
 21
156.4585961929254
 31
0.0
  0
LINE
  5
EF7C87548
330
EF7C85532
100
AcDbEntity
  8
SAISEN
100
AcDbLine
 10
271.000082714016
 20
149.8704943949478
 30
0.0
 11
263.365755714016
 21
149.8704943949478
 31
0.0
  0
LINE
  5
EF7C87549
330
EF7C85532
100
AcDbEntity
  8
SAISEN
100
AcDbLine
 10
261.732156714016
 20
150.1614063949478
 30
0.0
 11
271.000082714016
 21
150.1614063949476
 31
0.0
  0
LINE
  5
EF7C8754A
330
EF7C85532
100
AcDbEntity
  8
SAISEN
100
AcDbLine
 10
266.4720537140159
 20
152.1436173949478
 30
0.0
 11
261.732156714016
 21
152.1436173949478
 31
0.0
  0
LINE
  5
EF7C8754B
330
EF7C85532
100
AcDbEntity
  8
SAISEN
100
AcDbLine
 10
271.000082714016
 20
150.4838353949478
 30
0.0
 11
261.732156714016
 21
150.4838353949478
 31
0.0
  0
LINE
  5
EF7C8754C
330
EF7C85532
100
AcDbEntity
  8
SAISEN
100
AcDbLine
 10
271.000082714016
 20
152.4757363949477
 30
0.0
 11
261.732156714016
 21
152.4757363949477
 31
0.0
  0
LINE
  5
EF7C8754D
330
EF7C85532
100
AcDbEntity
  8
SAISEN
100
AcDbLine
 10
261.732156714016
 20
150.4838353949478
 30
0.0
 11
261.732156714016
 21
150.1614063949478
 31
0.0
  0
LINE
  5
EF7C8754E
330
EF7C85532
100
AcDbEntity
  8
SAISEN
100
AcDbLine
 10
261.732156714016
 20
152.1436173949478
 30
0.0
 11
261.732156714016
 21
152.4757363949477
 31
0.0
  0
ARC
  5
EF7C8754F
330
EF7C85532
100
AcDbEntity
  8
SAISEN
100
AcDbCircle
 10
263.482156714016
 20
150.6114063949478
 30
0.0
 40
0.75
100
AcDbArc
 50
216.8698979999995
 51
278.9284709999993
  0
LINE
  5
EF7C87550
330
EF7C85532
100
AcDbEntity
  8
JISSEN
100
AcDbLine
 10
261.750082714016
 20
154.4204943949478
 30
0.0
 11
257.750082714016
 21
156.4585961929254
 31
0.0
1001
ACAD
1000
ASC_BOUNDS
1002
{
1070
    19
1002
}
  0
LINE
  5
EF7C87552
330
EF7C85532
100
AcDbEntity
  8
JISSEN
100
AcDbLine
 10
274.018008714016
 20
154.4204943949478
 30
0.0
 11
274.018008714016
 21
152.7569713949478
 31
0.0
  0
LINE
  5
EF7C87553
330
EF7C85532
100
AcDbEntity
  8
JISSEN
100
AcDbLine
 10
267.982156714016
 20
154.4204943949478
 30
0.0
 11
267.982156714016
 21
152.7569713949478
 31
0.0
  0
LINE
  5
EF7C87554
330
EF7C85532
100
AcDbEntity
  8
SAISEN
100
AcDbLine
 10
275.528111714016
 20
152.1436173949478
 30
0.0
 11
271.000082714016
 21
152.1436173949478
 31
0.0
  0
LINE
  5
EF7C87555
330
EF7C85532
100
AcDbEntity
  8
SAISEN
100
AcDbLine
 10
271.000082714016
 20
152.7569713949478
 30
0.0
 11
276.018008714016
 21
152.7569713949478
 31
0.0
  0
LINE
  5
EF7C87556
330
EF7C85532
100
AcDbEntity
  8
SAISEN
100
AcDbLine
 10
271.000082714016
 20
149.8704943949478
 30
0.0
 11
278.634409714016
 21
149.8704943949478
 31
0.0
  0
LINE
  5
EF7C87557
330
EF7C85532
100
AcDbEntity
  8
SAISEN
100
AcDbLine
 10
271.000082714016
 20
152.7569713949478
 30
0.0
 11
265.982156714016
 21
152.7569713949478
 31
0.0
  0
LINE
  5
EF7C87558
330
EF7C85532
100
AcDbEntity
  8
SAISEN
100
AcDbLine
 10
266.4720537140159
 20
152.1436173949478
 30
0.0
 11
271.000082714016
 21
152.1436173949478
 31
0.0
  0
ARC
  5
EF7C87559
330
EF7C85532
100
AcDbEntity
  8
SAISEN
100
AcDbCircle
 10
265.982156714016
 20
152.0069713949478
 30
0.0
 40
0.75
100
AcDbArc
 50
90.0
 51
141.3164109999995
  0
ARC
  5
EF7C8755A
330
EF7C85532
100
AcDbEntity
  8
JISSEN
100
AcDbCircle
 10
267.182156714016
 20
150.7838353949478
 30
0.0
 40
0.3
100
AcDbArc
 50
270.0
 51
0.0
  0
LINE
  5
EF7C8755B
330
EF7C85532
100
AcDbEntity
  8
JISSEN
100
AcDbLine
 10
267.482156714016
 20
151.6436173949478
 30
0.0
 11
267.482156714016
 21
150.7838353949478
 31
0.0
  0
ARC
  5
EF7C8755C
330
EF7C85532
100
AcDbEntity
  8
JISSEN
100
AcDbCircle
 10
267.982156714016
 20
151.6436173949478
 30
0.0
 40
0.5
100
AcDbArc
 50
90.0
 51
180.0
  0
ARC
  5
EF7C8755D
330
EF7C85532
100
AcDbEntity
  8
JISSEN
100
AcDbCircle
 10
274.018008714016
 20
151.6436173949478
 30
0.0
 40
0.5
100
AcDbArc
 50
0.000000000000007
 51
90.0
  0
LINE
  5
EF7C8755E
330
EF7C85532
100
AcDbEntity
  8
JISSEN
100
AcDbLine
 10
274.518008714016
 20
151.6436173949478
 30
0.0
 11
274.518008714016
 21
150.7838353949478
 31
0.0
  0
ARC
  5
EF7C8755F
330
EF7C85532
100
AcDbEntity
  8
JISSEN
100
AcDbCircle
 10
274.818008714016
 20
150.7838353949478
 30
0.0
 40
0.3
100
AcDbArc
 50
180.0
 51
270.0
  0
ARC
  5
EF7C87560
330
EF7C85532
100
AcDbEntity
  8
SAISEN
100
AcDbCircle
 10
276.018008714016
 20
152.0069713949478
 30
0.0
 40
0.75
100
AcDbArc
 50
38.68358900000032
 51
90.0
  0
LINE
  5
EF7C87561
330
EF7C85532
100
AcDbEntity
  8
JISSEN
100
AcDbLine
 10
271.000082714016
 20
160.2427116385555
 30
0.0
 11
258.450082714016
 21
160.2427116385561
 31
0.0
1001
ACAD
1000
ASC_BOUNDS
1002
{
1070
    19
1002
}
  0
LINE
  5
EF7C87562
330
EF7C85532
100
AcDbEntity
  8
JISSEN
100
AcDbLine
 10
257.750082714016
 20
158.7204943949478
 30
0.0
 11
271.000082714016
 21
158.7204943949476
 31
0.0
1001
ACAD
1000
ASC_BOUNDS
1002
{
1070
    19
1002
}
  0
LINE
  5
EF7C87563
330
EF7C85532
100
AcDbEntity
  8
JISSEN
100
AcDbLine
 10
271.000082714016
 20
161.9927116385558
 30
0.0
 11
256.4708796974144
 21
161.9927116385555
 31
0.0
1001
ACAD
1000
ASC_BOUNDS
1002
{
1070
    19
1002
}
  0
LINE
  5
EF7C87564
330
EF7C85532
100
AcDbEntity
  8
JISSEN
100
AcDbLine
 10
264.850095714016
 20
165.8517919608951
 30
0.0
 11
264.318105714016
 21
166.5604079608951
 31
0.0
  0
ARC
  5
EF7C87565
330
EF7C85532
100
AcDbEntity
  8
JISSEN
100
AcDbCircle
 10
264.690152714016
 20
165.731714960895
 30
0.0
 40
0.2
100
AcDbArc
 50
270.0
 51
36.89716199999973
  0
LINE
  5
EF7C87568
330
EF7C85532
100
AcDbEntity
  8
JISSEN
100
AcDbLine
 10
261.7299121217989
 20
158.7204943949478
 30
0.0
 11
262.3649974179075
 21
159.8204943949478
 31
0.0
1001
ACAD
1000
ASC_BOUNDS
1002
{
1070
    19
1002
}
  0
ARC
  5
EF7C87569
330
EF7C85532
100
AcDbEntity
  8
JISSEN
100
AcDbCircle
 10
263.0578177409351
 20
159.4204943949478
 30
0.0
 40
0.8
100
AcDbArc
 50
113.5979379883457
 51
149.9999999999998
1001
ACAD
1000
ASC_BOUNDS
1002
{
1070
    19
1002
}
  0
ARC
  5
EF7C8756A
330
EF7C85532
100
AcDbEntity
  8
JISSEN
100
AcDbCircle
 10
258.450082714016
 20
160.4427116385559
 30
0.0
 40
0.2
100
AcDbArc
 50
180.0000000000006
 51
269.9999999999982
1001
ACAD
1000
ASC_BOUNDS
1002
{
1070
    19
1002
}
  0
LINE
  5
EF7C8756B
330
EF7C85532
100
AcDbEntity
  8
JISSEN
100
AcDbLine
 10
258.250082714016
 20
161.9927116385555
 30
0.0
 11
258.250082714016
 21
160.4427116385548
 31
0.0
1001
ACAD
1000
ASC_BOUNDS
1002
{
1070
    19
1002
}
  0
LINE
  5
EF7C8756C
330
EF7C85532
100
AcDbEntity
  8
JISSEN
100
AcDbLine
 10
264.610082714016
 20
158.7204943949478
 30
0.0
 11
264.610082714016
 21
160.2427116385559
 31
0.0
1001
ACAD
1000
ASC_BOUNDS
1002
{
1070
    19
1002
}
  0
LINE
  5
EF7C8756D
330
EF7C85532
100
AcDbEntity
  8
JISSEN
100
AcDbLine
 10
262.7375648982007
 20
160.242711638556
 30
0.0
 11
262.7375648982007
 21
158.7204943949478
 31
0.0
1001
ACAD
1000
ASC_BOUNDS
1002
{
1070
    19
1002
}
  0
LINE
  5
EF7C8756E
330
EF7C85532
100
AcDbEntity
  8
JISSEN
100
AcDbLine
 10
257.922447714016
 20
165.5317149608951
 30
0.0
 11
256.206814714016
 21
165.5317149608951
 31
0.0
  0
LINE
  5
EF7C8756F
330
EF7C85532
100
AcDbEntity
  8
JISSEN
100
AcDbLine
 10
256.9905887140161
 20
166.526023960895
 30
0.0
 11
258.0091837140161
 21
165.8040949608951
 31
0.0
  0
LINE
  5
EF7C87570
330
EF7C85532
100
AcDbEntity
  8
JISSEN
100
AcDbLine
 10
256.004429714016
 20
165.5961629608951
 30
0.0
 11
255.001363714016
 21
166.3070849608951
 31
0.0
  0
ARC
  5
EF7C87571
330
EF7C85532
100
AcDbEntity
  8
JISSEN
100
AcDbCircle
 10
255.685631714016
 20
167.0354929608951
 30
0.0
 40
0.4
100
AcDbArc
 50
183.7443620000003
 51
270.0
  0
LINE
  5
EF7C87572
330
EF7C85532
100
AcDbEntity
  8
JISSEN
100
AcDbLine
 10
252.858807714016
 20
165.720216960895
 30
0.0
 11
251.359432714016
 21
166.508966960895
 31
0.0
  0
LINE
  5
EF7C87573
330
EF7C85532
100
AcDbEntity
  8
JISSEN
100
AcDbLine
 10
251.815931714016
 20
165.5317149608951
 30
0.0
 11
252.812250714016
 21
165.5317149608951
 31
0.0
  0
ARC
  5
EF7C87574
330
EF7C85532
100
AcDbEntity
  8
JISSEN
100
AcDbCircle
 10
251.592214714016
 20
166.9514739608951
 30
0.0
 40
0.5
100
AcDbArc
 50
185.2015590000002
 51
242.253262
  0
ARC
  5
EF7C87575
330
EF7C85532
100
AcDbEntity
  8
JISSEN
100
AcDbCircle
 10
251.815931714016
 20
165.9317149608951
 30
0.0
 40
0.4
100
AcDbArc
 50
242.253262
 51
270.0
  0
ARC
  5
EF7C87576
330
EF7C85532
100
AcDbEntity
  8
JISSEN
100
AcDbCircle
 10
252.812250714016
 20
165.6317149608951
 30
0.0
 40
0.1
100
AcDbArc
 50
270.0
 51
62.25326200000021
  0
ARC
  5
EF7C87577
330
EF7C85532
100
AcDbEntity
  8
JISSEN
100
AcDbCircle
 10
255.695255714016
 20
167.286121960895
 30
0.0
 40
1.199999999999999
100
AcDbArc
 50
184.0179690000003
 51
234.6729319999998
  0
ARC
  5
EF7C87578
330
EF7C85532
100
AcDbEntity
  8
JISSEN
100
AcDbCircle
 10
256.206814714016
 20
165.881714960895
 30
0.0
 40
0.35
100
AcDbArc
 50
234.6729319999998
 51
270.0
  0
ARC
  5
EF7C87579
330
EF7C85532
100
AcDbEntity
  8
JISSEN
100
AcDbCircle
 10
257.221885714016
 20
166.852369960895
 30
0.0
 40
0.4
100
AcDbArc
 50
184.0179690000003
 51
234.6729319999998
  0
LINE
  5
EF7C8757A
330
EF7C85532
100
AcDbEntity
  8
JISSEN
100
AcDbLine
 10
255.685631714016
 20
166.635492960895
 30
0.0
 11
256.8857837140161
 21
166.635492960895
 31
0.0
  0
LINE
  5
EF7C8757B
330
EF7C85532
100
AcDbEntity
  8
JISSEN
100
AcDbLine
 10
262.421223714016
 20
165.5317149608951
 30
0.0
 11
264.690152714016
 21
165.5317149608951
 31
0.0
  0
LINE
  5
EF7C8757C
330
EF7C85532
100
AcDbEntity
  8
JISSEN
100
AcDbLine
 10
262.1436737140161
 20
166.635492960895
 30
0.0
 11
264.277006714016
 21
166.635492960895
 31
0.0
  0
ARC
  5
EF7C8757D
330
EF7C85532
100
AcDbEntity
  8
JISSEN
100
AcDbCircle
 10
257.922447714016
 20
165.6817149608951
 30
0.0
 40
0.15
100
AcDbArc
 50
270.0
 51
54.67293199999994
  0
ARC
  5
EF7C8757E
330
EF7C85532
100
AcDbEntity
  8
JISSEN
100
AcDbCircle
 10
262.4302717140161
 20
166.9855899608951
 30
0.0
 40
1.0
100
AcDbArc
 50
182.1404319999997
 51
216.8971619999997
  0
ARC
  5
EF7C8757F
330
EF7C85532
100
AcDbEntity
  8
JISSEN
100
AcDbCircle
 10
262.421223714016
 20
165.8317149608951
 30
0.0
 40
0.3
100
AcDbArc
 50
216.8971619999997
 51
270.0
  0
LINE
  5
EF7C87580
330
EF7C85532
100
AcDbEntity
  8
JISSEN
100
AcDbLine
 10
261.630557714016
 20
166.3852089608951
 30
0.0
 11
262.181308714016
 21
165.6516009608951
 31
0.0
  0
ARC
  5
EF7C87581
330
EF7C85532
100
AcDbEntity
  8
JISSEN
100
AcDbCircle
 10
262.1436737140161
 20
166.935492960895
 30
0.0
 40
0.3
100
AcDbArc
 50
181.994368
 51
270.0
  0
ARC
  5
EF7C87582
330
EF7C85532
100
AcDbEntity
  8
JISSEN
100
AcDbCircle
 10
264.558020714016
 20
166.7405219608951
 30
0.0
 40
0.3
100
AcDbArc
 50
182.1404319999997
 51
216.8971619999997
  0
LINE
  5
EF7C87583
330
EF7C85532
100
AcDbEntity
  8
JISSEN
100
AcDbLine
 10
277.3900827140161
 20
158.7204943949478
 30
0.0
 11
277.3900827140161
 21
160.2427116385559
 31
0.0
1001
ACAD
1000
ASC_BOUNDS
1002
{
1070
    19
1002
}
  0
LINE
  5
EF7C87586
330
EF7C85532
100
AcDbEntity
  8
JISSEN
100
AcDbLine
 10
272.000082714016
 20
166.635492960895
 30
0.0
 11
271.000082714016
 21
166.635492960895
 31
0.0
  0
LINE
  5
EF7C87587
330
EF7C85532
100
AcDbEntity
  8
JISSEN
100
AcDbLine
 10
271.000082714016
 20
165.5317149608951
 30
0.0
 11
272.000082714016
 21
165.5317149608951
 31
0.0
  0
ARC
  5
EF7C87588
330
EF7C85532
100
AcDbEntity
  8
JISSEN
100
AcDbCircle
 10
270.000082714016
 20
167.1354929608952
 30
0.0
 40
0.5
100
AcDbArc
 50
180.0
 51
270.0
  0
ARC
  5
EF7C87589
330
EF7C85532
100
AcDbEntity
  8
JISSEN
100
AcDbCircle
 10
270.000082714016
 20
166.0317149608951
 30
0.0
 40
0.5
100
AcDbArc
 50
180.0
 51
270.0
  0
LINE
  5
EF7C8758A
330
EF7C85532
100
AcDbEntity
  8
JISSEN
100
AcDbLine
 10
271.000082714016
 20
165.5317149608951
 30
0.0
 11
270.000082714016
 21
165.5317149608951
 31
0.0
  0
LINE
  5
EF7C8758B
330
EF7C85532
100
AcDbEntity
  8
JISSEN
100
AcDbLine
 10
270.000082714016
 20
166.635492960895
 30
0.0
 11
271.000082714016
 21
166.635492960895
 31
0.0
  0
ARC
  5
EF7C8758C
330
EF7C85532
100
AcDbEntity
  8
JISSEN
100
AcDbCircle
 10
272.000082714016
 20
166.0317149608951
 30
0.0
 40
0.5
100
AcDbArc
 50
270.0
 51
0.000000000000007
  0
ARC
  5
EF7C8758D
330
EF7C85532
100
AcDbEntity
  8
JISSEN
100
AcDbCircle
 10
272.000082714016
 20
167.1354929608952
 30
0.0
 40
0.5
100
AcDbArc
 50
270.0
 51
0.000000000000007
  0
ARC
  5
EF7C8758E
330
EF7C85532
100
AcDbEntity
  8
JISSEN
100
AcDbCircle
 10
277.442144714016
 20
166.7405219608951
 30
0.0
 40
0.3
100
AcDbArc
 50
323.1028380000003
 51
357.8595680000001
  0
ARC
  5
EF7C8758F
330
EF7C85532
100
AcDbEntity
  8
JISSEN
100
AcDbCircle
 10
277.310012714016
 20
165.731714960895
 30
0.0
 40
0.2
100
AcDbArc
 50
143.1028380000001
 51
270.0
  0
LINE
  5
EF7C87590
330
EF7C85532
100
AcDbEntity
  8
JISSEN
100
AcDbLine
 10
277.150069714016
 20
165.8517919608951
 30
0.0
 11
277.682059714016
 21
166.5604079608951
 31
0.0
  0
LINE
  5
EF7C87591
330
EF7C85532
100
AcDbEntity
  8
JISSEN
100
AcDbLine
 10
284.2500827140161
 20
158.7204943949478
 30
0.0
 11
284.2500827140161
 21
156.4585961929254
 31
0.0
1001
ACAD
1000
ASC_BOUNDS
1002
{
1070
    19
1002
}
  0
LINE
  5
EF7C87592
330
EF7C85532
100
AcDbEntity
  8
SAISEN
100
AcDbLine
 10
280.268008714016
 20
152.1436173949478
 30
0.0
 11
280.268008714016
 21
152.4757363949477
 31
0.0
  0
LINE
  5
EF7C87593
330
EF7C85532
100
AcDbEntity
  8
SAISEN
100
AcDbLine
 10
280.268008714016
 20
150.4838353949478
 30
0.0
 11
280.268008714016
 21
150.1614063949478
 31
0.0
  0
LINE
  5
EF7C87595
330
EF7C85532
100
AcDbEntity
  8
JISSEN
100
AcDbLine
 10
280.250082714016
 20
154.4204943949478
 30
0.0
 11
284.2500827140161
 21
156.4585961929254
 31
0.0
1001
ACAD
1000
ASC_BOUNDS
1002
{
1070
    19
1002
}
  0
LINE
  5
EF7C87596
330
EF7C85532
100
AcDbEntity
  8
JISSEN
100
AcDbLine
 10
291.864989714016
 20
165.6493309608951
 30
0.0
 11
293.3768487140159
 21
166.348721960895
 31
0.0
  0
LINE
  5
EF7C87597
330
EF7C85532
100
AcDbEntity
  8
JISSEN
100
AcDbLine
 10
293.8464097140159
 20
166.3249519608951
 30
0.0
 11
292.379511714016
 21
165.646359960895
 31
0.0
  0
LINE
  5
EF7C87598
330
EF7C85532
100
AcDbEntity
  8
JISSEN
100
AcDbLine
 10
285.5292857306178
 20
161.9927116385555
 30
0.0
 11
294.0546883398555
 21
166.001207580266
 31
0.0
1001
ACAD
1000
ASC_BOUNDS
1002
{
1070
    19
1002
}
  0
LINE
  5
EF7C87599
330
EF7C85532
100
AcDbEntity
  8
JISSEN
100
AcDbLine
 10
279.2626005298314
 20
160.242711638556
 30
0.0
 11
279.2626005298314
 21
158.7204943949478
 31
0.0
1001
ACAD
1000
ASC_BOUNDS
1002
{
1070
    19
1002
}
  0
LINE
  5
EF7C8759A
330
EF7C85532
100
AcDbEntity
  8
JISSEN
100
AcDbLine
 10
283.7500827140161
 20
161.9927116385555
 30
0.0
 11
283.7500827140161
 21
160.4427116385548
 31
0.0
1001
ACAD
1000
ASC_BOUNDS
1002
{
1070
    19
1002
}
  0
ARC
  5
EF7C8759B
330
EF7C85532
100
AcDbEntity
  8
JISSEN
100
AcDbCircle
 10
283.550082714016
 20
160.4427116385559
 30
0.0
 40
0.2
100
AcDbArc
 50
270.0000000000016
 51
359.9999999999991
1001
ACAD
1000
ASC_BOUNDS
1002
{
1070
    19
1002
}
  0
ARC
  5
EF7C8759C
330
EF7C85532
100
AcDbEntity
  8
JISSEN
100
AcDbCircle
 10
278.942347687097
 20
159.4204943949478
 30
0.0
 40
0.8
100
AcDbArc
 50
30.00000000000015
 51
66.40206201165418
1001
ACAD
1000
ASC_BOUNDS
1002
{
1070
    19
1002
}
  0
LINE
  5
EF7C8759D
330
EF7C85532
100
AcDbEntity
  8
JISSEN
100
AcDbLine
 10
280.2702533062332
 20
158.7204943949478
 30
0.0
 11
279.6351680101245
 21
159.8204943949478
 31
0.0
1001
ACAD
1000
ASC_BOUNDS
1002
{
1070
    19
1002
}
  0
LINE
  5
EF7C8759E
330
EF7C85532
100
AcDbEntity
  8
JISSEN
100
AcDbLine
 10
286.314533714016
 20
166.635492960895
 30
0.0
 11
285.114381714016
 21
166.635492960895
 31
0.0
  0
LINE
  5
EF7C8759F
330
EF7C85532
100
AcDbEntity
  8
JISSEN
100
AcDbLine
 10
285.995735714016
 20
165.5961629608951
 30
0.0
 11
286.998801714016
 21
166.3070849608951
 31
0.0
  0
ARC
  5
EF7C875A0
330
EF7C85532
100
AcDbEntity
  8
JISSEN
100
AcDbCircle
 10
279.856491714016
 20
166.935492960895
 30
0.0
 40
0.3
100
AcDbArc
 50
270.0
 51
358.0056319999998
  0
LINE
  5
EF7C875A1
330
EF7C85532
100
AcDbEntity
  8
JISSEN
100
AcDbLine
 10
280.3696077140159
 20
166.3852089608951
 30
0.0
 11
279.818856714016
 21
165.6516009608951
 31
0.0
  0
ARC
  5
EF7C875A2
330
EF7C85532
100
AcDbEntity
  8
JISSEN
100
AcDbCircle
 10
279.578941714016
 20
165.8317149608951
 30
0.0
 40
0.3
100
AcDbArc
 50
270.0
 51
323.1028380000003
  0
ARC
  5
EF7C875A3
330
EF7C85532
100
AcDbEntity
  8
JISSEN
100
AcDbCircle
 10
279.569893714016
 20
166.9855899608951
 30
0.0
 40
1.0
100
AcDbArc
 50
323.1028380000003
 51
357.8595680000001
  0
ARC
  5
EF7C875A4
330
EF7C85532
100
AcDbEntity
  8
JISSEN
100
AcDbCircle
 10
284.0777177140159
 20
165.6817149608951
 30
0.0
 40
0.15
100
AcDbArc
 50
125.3270679999999
 51
270.0
  0
ARC
  5
EF7C875A5
330
EF7C85532
100
AcDbEntity
  8
JISSEN
100
AcDbCircle
 10
284.7782797140159
 20
166.852369960895
 30
0.0
 40
0.4
100
AcDbArc
 50
305.327068
 51
355.9820309999997
  0
ARC
  5
EF7C875A6
330
EF7C85532
100
AcDbEntity
  8
JISSEN
100
AcDbCircle
 10
285.7933507140161
 20
165.881714960895
 30
0.0
 40
0.35
100
AcDbArc
 50
270.0
 51
305.327068
  0
LINE
  5
EF7C875A7
330
EF7C85532
100
AcDbEntity
  8
JISSEN
100
AcDbLine
 10
285.009576714016
 20
166.526023960895
 30
0.0
 11
283.9909817140161
 21
165.8040949608951
 31
0.0
  0
LINE
  5
EF7C875A8
330
EF7C85532
100
AcDbEntity
  8
JISSEN
100
AcDbLine
 10
284.0777177140159
 20
165.5317149608951
 30
0.0
 11
285.7933507140161
 21
165.5317149608951
 31
0.0
  0
ARC
  5
EF7C875A9
330
EF7C85532
100
AcDbEntity
  8
JISSEN
100
AcDbCircle
 10
286.304909714016
 20
167.286121960895
 30
0.0
 40
1.199999999999999
100
AcDbArc
 50
305.327068
 51
355.9820309999997
  0
ARC
  5
EF7C875AA
330
EF7C85532
100
AcDbEntity
  8
JISSEN
100
AcDbCircle
 10
289.187914714016
 20
165.6317149608951
 30
0.0
 40
0.1
100
AcDbArc
 50
117.7467379999998
 51
270.0
  0
ARC
  5
EF7C875AB
330
EF7C85532
100
AcDbEntity
  8
JISSEN
100
AcDbCircle
 10
290.1842337140159
 20
165.9317149608951
 30
0.0
 40
0.4
100
AcDbArc
 50
270.0
 51
297.7467379999998
  0
ARC
  5
EF7C875AC
330
EF7C85532
100
AcDbEntity
  8
JISSEN
100
AcDbCircle
 10
290.4079507140161
 20
166.9514739608951
 30
0.0
 40
0.5
100
AcDbArc
 50
297.7467379999998
 51
354.7984409999998
  0
LINE
  5
EF7C875AD
330
EF7C85532
100
AcDbEntity
  8
JISSEN
100
AcDbLine
 10
290.1842337140159
 20
165.5317149608951
 30
0.0
 11
289.187914714016
 21
165.5317149608951
 31
0.0
  0
LINE
  5
EF7C875AE
330
EF7C85532
100
AcDbEntity
  8
JISSEN
100
AcDbLine
 10
289.141357714016
 20
165.720216960895
 30
0.0
 11
290.640732714016
 21
166.508966960895
 31
0.0
  0
ARC
  5
EF7C875AF
330
EF7C85532
100
AcDbEntity
  8
JISSEN
100
AcDbCircle
 10
286.314533714016
 20
167.0354929608951
 30
0.0
 40
0.4
100
AcDbArc
 50
270.0
 51
356.2556379999997
  0
ARC
  5
EF7C875B0
330
EF7C85532
100
AcDbEntity
  8
JISSEN
100
AcDbCircle
 10
291.1533257140161
 20
167.458441960895
 30
0.0
 40
1.3
100
AcDbArc
 50
297.7467379999998
 51
354.5938149999996
  0
ARC
  5
EF7C875B1
330
EF7C85532
100
AcDbEntity
  8
JISSEN
100
AcDbCircle
 10
291.959656714016
 20
166.553951960895
 30
0.0
 40
1.0
100
AcDbArc
 50
270.0
 51
294.825405
  0
LINE
  5
EF7C875B2
330
EF7C85532
100
AcDbEntity
  8
JISSEN
100
AcDbLine
 10
291.959656714016
 20
165.553951960895
 30
0.0
 11
291.8859817140161
 21
165.553951960895
 31
0.0
  0
ARC
  5
EF7C875B3
330
EF7C85532
100
AcDbEntity
  8
JISSEN
100
AcDbCircle
 10
291.8859817140161
 20
165.6039519608951
 30
0.0
 40
0.05
100
AcDbArc
 50
114.825405
 51
270.0
  0
LINE
  5
EF7C875B4
330
EF7C85532
100
AcDbEntity
  8
JISSEN
100
AcDbLine
 10
291.7585587140159
 20
166.307922960895
 30
0.0
 11
290.370459714016
 21
165.5777099608951
 31
0.0
  0
ARC
  5
EF7C875B5
330
EF7C85532
100
AcDbEntity
  8
JISSEN
100
AcDbCircle
 10
290.8820017140159
 20
167.1354929608952
 30
0.0
 40
0.5
100
AcDbArc
 50
260.650445
 51
354.9610729999998
  0
ARC
  5
EF7C875B6
330
EF7C85532
100
AcDbEntity
  8
JISSEN
100
AcDbCircle
 10
293.258613714016
 20
167.595579960895
 30
0.0
 40
1.399999999999999
100
AcDbArc
 50
294.825405
 51
353.8576429999998
  0
ARC
  5
EF7C875B7
330
EF7C85532
100
AcDbEntity
  8
JISSEN
100
AcDbCircle
 10
292.8310377140161
 20
167.528590960895
 30
0.0
 40
1.3
100
AcDbArc
 50
294.825405
 51
353.8576429999998
  0
ARC
  5
EF7C875B8
330
EF7C85532
100
AcDbEntity
  8
JISSEN
100
AcDbCircle
 10
293.4542033844787
 20
167.3757685350316
 30
0.0
 40
1.5
100
AcDbArc
 50
290.0
 51
355.0000000000001
  0
LINE
  5
EF7C875B9
330
EF7C85532
100
AcDbEntity
  8
JISSEN
100
AcDbLine
 10
270.000082714016
 20
182.828593960895
 30
0.0
 11
244.5000827140161
 21
182.828593960895
 31
0.0
  0
LINE
  5
EF7C875BA
330
EF7C85532
100
AcDbEntity
  8
JISSEN
100
AcDbLine
 10
244.5000827140161
 20
175.828593960895
 30
0.0
 11
270.000082714016
 21
175.828593960895
 31
0.0
  0
LINE
  5
EF7C875BB
330
EF7C85532
100
AcDbEntity
  8
JISSEN
100
AcDbLine
 10
245.500082714016
 20
174.828593960895
 30
0.0
 11
271.000082714016
 21
174.828593960895
 31
0.0
  0
LINE
  5
EF7C875BC
330
EF7C85532
100
AcDbEntity
  8
JISSEN
100
AcDbLine
 10
244.6500827140162
 20
183.328593960895
 30
0.0
 11
271.000082714016
 21
183.328593960895
 31
0.0
  0
LINE
  5
EF7C875C1
330
EF7C85532
100
AcDbEntity
  8
JISSEN
100
AcDbLine
 10
244.5000827140161
 20
183.178593960895
 30
0.0
 11
244.5000827140161
 21
175.828593960895
 31
0.0
  0
LINE
  5
EF7C875C2
330
EF7C85532
100
AcDbEntity
  8
JISSEN
100
AcDbLine
 10
244.5000827140161
 20
175.828593960895
 30
0.0
 11
245.500082714016
 21
174.828593960895
 31
0.0
  0
LINE
  5
EF7C875C3
330
EF7C85532
100
AcDbEntity
  8
JISSEN
100
AcDbLine
 10
246.4000827140161
 20
174.828593960895
 30
0.0
 11
246.531315714016
 21
173.3285939608951
 31
0.0
  0
ARC
  5
EF7C875C4
330
EF7C85532
100
AcDbEntity
  8
JISSEN
100
AcDbCircle
 10
247.1594617140159
 20
172.950829960895
 30
0.0
 40
0.4
100
AcDbArc
 50
91.35885499999986
 51
186.1423570000001
  0
ARC
  5
EF7C875C5
330
EF7C85532
100
AcDbEntity
  8
JISSEN
100
AcDbCircle
 10
247.145234714016
 20
173.250829960895
 30
0.0
 40
0.1
100
AcDbArc
 50
6.142357000000093
 51
87.28209800000021
  0
ARC
  5
EF7C875C6
330
EF7C85532
100
AcDbEntity
  8
JISSEN
100
AcDbCircle
 10
250.288568714016
 20
173.128593960895
 30
0.0
 40
0.2
100
AcDbArc
 50
90.0
 51
185.0389269999999
  0
ARC
  5
EF7C875C7
330
EF7C85532
100
AcDbEntity
  8
JISSEN
100
AcDbCircle
 10
249.425141714016
 20
172.928593960895
 30
0.0
 40
0.4
100
AcDbArc
 50
90.0
 51
185.4061850000002
  0
LINE
  5
EF7C875C8
330
EF7C85532
100
AcDbEntity
  8
JISSEN
100
AcDbLine
 10
250.326988714016
 20
173.3285939608951
 30
0.0
 11
249.425141714016
 21
173.3285939608951
 31
0.0
  0
ARC
  5
EF7C875C9
330
EF7C85532
100
AcDbEntity
  8
JISSEN
100
AcDbCircle
 10
250.326988714016
 20
173.128593960895
 30
0.0
 40
0.2
100
AcDbArc
 50
5.201559000000191
 51
90.0
  0
LINE
  5
EF7C875CA
330
EF7C85532
100
AcDbEntity
  8
JISSEN
100
AcDbLine
 10
245.500082714016
 20
174.828593960895
 30
0.0
 11
246.4000827140161
 21
174.828593960895
 31
0.0
  0
LINE
  5
EF7C875CB
330
EF7C85532
100
AcDbEntity
  8
JISSEN
100
AcDbLine
 10
244.5000827140161
 20
183.178593960895
 30
0.0
 11
244.6500827140162
 21
183.328593960895
 31
0.0
  0
LINE
  5
EF7C875CC
330
EF7C85532
100
AcDbEntity
  8
SAISEN
100
AcDbLine
 10
280.459315714016
 20
185.569360960895
 30
0.0
 11
279.9668158672826
 21
201.3285939608986
 31
0.0
  0
LINE
  5
EF7C875CD
330
EF7C85532
100
AcDbEntity
  8
JISSEN
100
AcDbLine
 10
281.262006714016
 20
200.0666689608987
 30
0.0
 11
281.7555809926511
 21
184.2730956055681
 31
0.0
  0
LINE
  5
EF7C875CE
330
EF7C85532
100
AcDbEntity
  8
JISSEN
100
AcDbLine
 10
260.7381587140161
 20
200.0666689608987
 30
0.0
 11
260.2445844353808
 21
184.2730956055681
 31
0.0
  0
LINE
  5
EF7C875CF
330
EF7C85532
100
AcDbEntity
  8
SAISEN
100
AcDbLine
 10
261.540849714016
 20
185.569360960895
 30
0.0
 11
262.0333495607493
 21
201.3285939608986
 31
0.0
  0
LINE
  5
EF7C875D0
330
EF7C85532
100
AcDbEntity
  8
JISSEN
100
AcDbLine
 10
271.000082714016
 20
185.569360960895
 30
0.0
 11
281.7150706392763
 21
185.569360960895
 31
0.0
  0
LINE
  5
EF7C875D1
330
EF7C85532
100
AcDbEntity
  8
JISSEN
100
AcDbLine
 10
278.1812487140161
 20
173.3285939608951
 30
0.0
 11
280.496239714016
 21
173.3285939608951
 31
0.0
  0
LINE
  5
EF7C875D2
102
{ACAD_REACTORS
330
EF7C87630
102
}
330
EF7C85532
100
AcDbEntity
  8
JISSEN
100
AcDbLine
 10
297.350082714016
 20
183.328593960895
 30
0.0
 11
271.000082714016
 21
183.328593960895
 31
0.0
  0
LINE
  5
EF7C875D3
330
EF7C85532
100
AcDbEntity
  8
JISSEN
100
AcDbLine
 10
296.5000827140161
 20
174.828593960895
 30
0.0
 11
271.000082714016
 21
174.828593960895
 31
0.0
  0
LINE
  5
EF7C875D4
330
EF7C85532
100
AcDbEntity
  8
JISSEN
100
AcDbLine
 10
297.5000827140161
 20
175.828593960895
 30
0.0
 11
272.000082714016
 21
175.828593960895
 31
0.0
  0
LINE
  5
EF7C875D5
330
EF7C85532
100
AcDbEntity
  8
JISSEN
100
AcDbLine
 10
272.000082714016
 20
182.828593960895
 30
0.0
 11
297.5000827140161
 21
182.828593960895
 31
0.0
  0
LINE
  5
EF7C875D6
330
EF7C85532
100
AcDbEntity
  8
JISSEN
100
AcDbLine
 10
272.000082714016
 20
182.828593960895
 30
0.0
 11
272.000082714016
 21
175.828593960895
 31
0.0
  0
LINE
  5
EF7C875D7
330
EF7C85532
100
AcDbEntity
  8
JISSEN
100
AcDbLine
 10
270.000082714016
 20
182.828593960895
 30
0.0
 11
270.000082714016
 21
175.828593960895
 31
0.0
  0
LINE
  5
EF7C875D8
330
EF7C85532
100
AcDbEntity
  8
JISSEN
100
AcDbLine
 10
255.193201714016
 20
173.3285939608951
 30
0.0
 11
256.179552714016
 21
173.3285939608951
 31
0.0
  0
LINE
  5
EF7C875D9
330
EF7C85532
100
AcDbEntity
  8
JISSEN
100
AcDbLine
 10
254.4433107140161
 20
173.3285939608951
 30
0.0
 11
255.193201714016
 21
173.3285939608951
 31
0.0
  0
ARC
  5
EF7C875DA
330
EF7C85532
100
AcDbEntity
  8
JISSEN
100
AcDbCircle
 10
254.4433107140161
 20
172.978593960895
 30
0.0
 40
0.35
100
AcDbArc
 50
90.0
 51
184.0179690000003
  0
ARC
  5
EF7C875DB
330
EF7C85532
100
AcDbEntity
  8
JISSEN
100
AcDbCircle
 10
255.193201714016
 20
173.028593960895
 30
0.0
 40
0.3
100
AcDbArc
 50
90.0
 51
183.7443620000003
  0
ARC
  5
EF7C875DC
330
EF7C85532
100
AcDbEntity
  8
JISSEN
100
AcDbCircle
 10
256.179552714016
 20
173.128593960895
 30
0.0
 40
0.2
100
AcDbArc
 50
4.017969000000318
 51
90.0
  0
LINE
  5
EF7C875DD
330
EF7C85532
100
AcDbEntity
  8
JISSEN
100
AcDbLine
 10
263.818916714016
 20
173.3285939608951
 30
0.0
 11
261.503925714016
 21
173.3285939608951
 31
0.0
  0
ARC
  5
EF7C875DE
330
EF7C85532
100
AcDbEntity
  8
JISSEN
100
AcDbCircle
 10
261.503925714016
 20
173.028593960895
 30
0.0
 40
0.3
100
AcDbArc
 50
90.0
 51
182.1404319999997
  0
ARC
  5
EF7C875DF
330
EF7C85532
100
AcDbEntity
  8
JISSEN
100
AcDbCircle
 10
261.879725714016
 20
173.078593960895
 30
0.0
 40
0.25
100
AcDbArc
 50
90.0
 51
181.994368
  0
ARC
  5
EF7C875E0
330
EF7C85532
100
AcDbEntity
  8
JISSEN
100
AcDbCircle
 10
263.818916714016
 20
173.128593960895
 30
0.0
 40
0.2
100
AcDbArc
 50
2.140431999999735
 51
90.0
  0
ARC
  5
EF7C875E1
330
EF7C85532
100
AcDbEntity
  8
JISSEN
100
AcDbCircle
 10
271.000082714016
 20
175.828593960895
 30
0.0
 40
1.0
100
AcDbArc
 50
270.0
 51
0.000000000000007
  0
ARC
  5
EF7C875E2
330
EF7C85532
100
AcDbEntity
  8
JISSEN
100
AcDbCircle
 10
271.000082714016
 20
175.828593960895
 30
0.0
 40
1.0
100
AcDbArc
 50
180.0
 51
270.0
  0
LINE
  5
EF7C875E3
330
EF7C85532
100
AcDbEntity
  8
JISSEN
100
AcDbLine
 10
271.000082714016
 20
173.3285939608951
 30
0.0
 11
272.000082714016
 21
173.3285939608951
 31
0.0
  0
ARC
  5
EF7C875E4
330
EF7C85532
100
AcDbEntity
  8
JISSEN
100
AcDbCircle
 10
270.000082714016
 20
172.828593960895
 30
0.0
 40
0.5
100
AcDbArc
 50
90.0
 51
180.0
  0
LINE
  5
EF7C875E5
330
EF7C85532
100
AcDbEntity
  8
JISSEN
100
AcDbLine
 10
271.000082714016
 20
173.3285939608951
 30
0.0
 11
270.000082714016
 21
173.3285939608951
 31
0.0
  0
ARC
  5
EF7C875E6
330
EF7C85532
100
AcDbEntity
  8
JISSEN
100
AcDbCircle
 10
272.000082714016
 20
172.828593960895
 30
0.0
 40
0.5
100
AcDbArc
 50
0.000000000000007
 51
90.0
  0
ARC
  5
EF7C875E7
330
EF7C85532
100
AcDbEntity
  8
JISSEN
100
AcDbCircle
 10
278.1812487140161
 20
173.128593960895
 30
0.0
 40
0.2
100
AcDbArc
 50
90.0
 51
177.8595680000002
  0
LINE
  5
EF7C875E8
330
EF7C85532
100
AcDbEntity
  8
JISSEN
100
AcDbLine
 10
271.000082714016
 20
185.569360960895
 30
0.0
 11
260.2850947887556
 21
185.569360960895
 31
0.0
  0
LINE
  5
EF7C875E9
330
EF7C85532
100
AcDbEntity
  8
SAISEN
100
AcDbLine
 10
260.3413637140159
 20
184.369874960895
 30
0.0
 11
261.540849714016
 21
185.569360960895
 31
0.0
  0
LINE
  5
EF7C875EA
330
EF7C85532
100
AcDbEntity
  8
JISSEN
100
AcDbLine
 10
259.300082714016
 20
183.328593960895
 30
0.0
 11
260.3413637140159
 21
184.369874960895
 31
0.0
  0
ARC
  5
EF7C875EB
330
EF7C85532
100
AcDbEntity
  8
JISSEN
100
AcDbCircle
 10
271.000082714016
 20
182.0785939608951
 30
0.0
 40
1.25
100
AcDbArc
 50
36.86989799999964
 51
90.0
  0
ARC
  5
EF7C875EC
330
EF7C85532
100
AcDbEntity
  8
JISSEN
100
AcDbCircle
 10
271.000082714016
 20
182.0785939608951
 30
0.0
 40
1.25
100
AcDbArc
 50
90.0
 51
143.1301020000003
  0
LINE
  5
EF7C875ED
330
EF7C85532
100
AcDbEntity
  8
JISSEN
100
AcDbLine
 10
297.5000827140161
 20
183.178593960895
 30
0.0
 11
297.5000827140161
 21
175.828593960895
 31
0.0
  0
LINE
  5
EF7C875EE
330
EF7C85532
100
AcDbEntity
  8
JISSEN
100
AcDbLine
 10
286.8069637140159
 20
173.3285939608951
 30
0.0
 11
285.820612714016
 21
173.3285939608951
 31
0.0
  0
ARC
  5
EF7C875EF
330
EF7C85532
100
AcDbEntity
  8
JISSEN
100
AcDbCircle
 10
280.120439714016
 20
173.078593960895
 30
0.0
 40
0.25
100
AcDbArc
 50
358.0056319999998
 51
90.0
  0
ARC
  5
EF7C875F0
330
EF7C85532
100
AcDbEntity
  8
JISSEN
100
AcDbCircle
 10
280.496239714016
 20
173.028593960895
 30
0.0
 40
0.3
100
AcDbArc
 50
357.8595680000001
 51
90.0
  0
ARC
  5
EF7C875F1
330
EF7C85532
100
AcDbEntity
  8
JISSEN
100
AcDbCircle
 10
285.820612714016
 20
173.128593960895
 30
0.0
 40
0.2
100
AcDbArc
 50
90.0
 51
175.9820309999995
  0
ARC
  5
EF7C875F2
330
EF7C85532
100
AcDbEntity
  8
JISSEN
100
AcDbCircle
 10
286.8069637140159
 20
173.028593960895
 30
0.0
 40
0.3
100
AcDbArc
 50
356.2556379999997
 51
90.0
  0
ARC
  5
EF7C875F3
330
EF7C85532
100
AcDbEntity
  8
JISSEN
100
AcDbCircle
 10
287.556854714016
 20
172.978593960895
 30
0.0
 40
0.35
100
AcDbArc
 50
355.9820309999997
 51
90.0
  0
LINE
  5
EF7C875F4
330
EF7C85532
100
AcDbEntity
  8
JISSEN
100
AcDbLine
 10
287.556854714016
 20
173.3285939608951
 30
0.0
 11
286.8069637140159
 21
173.3285939608951
 31
0.0
  0
ARC
  5
EF7C875F5
330
EF7C85532
100
AcDbEntity
  8
JISSEN
100
AcDbCircle
 10
291.6731767140161
 20
173.128593960895
 30
0.0
 40
0.2
100
AcDbArc
 50
90.0
 51
174.7984409999996
  0
LINE
  5
EF7C875F6
330
EF7C85532
100
AcDbEntity
  8
JISSEN
100
AcDbLine
 10
291.6731767140161
 20
173.3285939608951
 30
0.0
 11
292.575023714016
 21
173.3285939608951
 31
0.0
  0
ARC
  5
EF7C875F7
330
EF7C85532
100
AcDbEntity
  8
JISSEN
100
AcDbCircle
 10
292.575023714016
 20
172.928593960895
 30
0.0
 40
0.4
100
AcDbArc
 50
354.5938149999996
 51
90.0
  0
ARC
  5
EF7C875F8
330
EF7C85532
100
AcDbEntity
  8
JISSEN
100
AcDbCircle
 10
291.711596714016
 20
173.128593960895
 30
0.0
 40
0.2
100
AcDbArc
 50
354.9610729999998
 51
90.0
  0
LINE
  5
EF7C875F9
330
EF7C85532
100
AcDbEntity
  8
JISSEN
100
AcDbLine
 10
297.5000827140161
 20
175.828593960895
 30
0.0
 11
296.5000827140161
 21
174.828593960895
 31
0.0
  0
LINE
  5
EF7C875FA
330
EF7C85532
100
AcDbEntity
  8
JISSEN
100
AcDbLine
 10
296.5000827140161
 20
174.828593960895
 30
0.0
 11
295.600082714016
 21
174.828593960895
 31
0.0
  0
ARC
  5
EF7C875FB
330
EF7C85532
100
AcDbEntity
  8
JISSEN
100
AcDbCircle
 10
294.854930714016
 20
173.250829960895
 30
0.0
 40
0.1
100
AcDbArc
 50
92.7179019999998
 51
173.8576429999999
  0
ARC
  5
EF7C875FC
330
EF7C85532
100
AcDbEntity
  8
JISSEN
100
AcDbCircle
 10
294.840703714016
 20
172.950829960895
 30
0.0
 40
0.4
100
AcDbArc
 50
353.8576429999998
 51
88.64114500000017
  0
LINE
  5
EF7C875FD
330
EF7C85532
100
AcDbEntity
  8
JISSEN
100
AcDbLine
 10
295.600082714016
 20
174.828593960895
 30
0.0
 11
295.468849714016
 21
173.3285939608951
 31
0.0
  0
LINE
  5
EF7C875FE
330
EF7C85532
100
AcDbEntity
  8
JISSEN
100
AcDbLine
 10
282.7000827140159
 20
183.328593960895
 30
0.0
 11
281.658801714016
 21
184.369874960895
 31
0.0
  0
LINE
  5
EF7C875FF
330
EF7C85532
100
AcDbEntity
  8
SAISEN
100
AcDbLine
 10
281.658801714016
 20
184.369874960895
 30
0.0
 11
280.459315714016
 21
185.569360960895
 31
0.0
  0
LINE
  5
EF7C87600
330
EF7C85532
100
AcDbEntity
  8
JISSEN
100
AcDbLine
 10
297.5000827140161
 20
183.178593960895
 30
0.0
 11
297.350082714016
 21
183.328593960895
 31
0.0
  0
LINE
  5
EF7C87601
330
EF7C85532
100
AcDbEntity
  8
JISSEN
100
AcDbLine
 10
281.262006714016
 20
200.0666689608987
 30
0.0
 11
271.000082714016
 21
200.0666689608987
 31
0.0
  0
LINE
  5
EF7C87602
330
EF7C85532
100
AcDbEntity
  8
JISSEN
100
AcDbLine
 10
280.000082714016
 20
201.3285939608988
 30
0.0
 11
271.000082714016
 21
201.3285939608986
 31
0.0
  0
LINE
  5
EF7C87603
330
EF7C85532
100
AcDbEntity
  8
JISSEN
100
AcDbLine
 10
262.000082714016
 20
201.3285939608988
 30
0.0
 11
271.000082714016
 21
201.3285939608986
 31
0.0
  0
LINE
  5
EF7C87604
330
EF7C85532
100
AcDbEntity
  8
JISSEN
100
AcDbLine
 10
260.7381587140161
 20
200.0666689608987
 30
0.0
 11
271.000082714016
 21
200.0666689608987
 31
0.0
  0
LINE
  5
EF7C87605
330
EF7C85532
100
AcDbEntity
  8
JISSEN
100
AcDbLine
 10
260.7381587140161
 20
200.0666689608987
 30
0.0
 11
262.000082714016
 21
201.3285939608988
 31
0.0
  0
LINE
  5
EF7C87606
330
EF7C85532
100
AcDbEntity
  8
JISSEN
100
AcDbLine
 10
281.262006714016
 20
200.0666689608987
 30
0.0
 11
280.000082714016
 21
201.3285939608988
 31
0.0
  0
LINE
  5
EF7C87609
102
{ACAD_REACTORS
330
EF7C87630
102
}
330
EF7C85532
100
AcDbEntity
  8
JISSEN
100
AcDbLine
 10
288.500082714016
 20
188.3285939608951
 30
0.0
 11
288.500082714016
 21
183.328593960895
 31
0.0
  0
LINE
  5
EF7C8760A
102
{ACAD_REACTORS
330
EF7C87630
102
}
330
EF7C85532
100
AcDbEntity
  8
JISSEN
100
AcDbLine
 10
253.500082714016
 20
188.3285939608951
 30
0.0
 11
253.500082714016
 21
183.328593960895
 31
0.0
  0
HATCH
  5
EF7C87630
330
EF7C85532
100
AcDbEntity
  8
HATCH
100
AcDbHatch
 10
0.0
 20
0.0
 30
0.0
210
0.0
220
0.0
230
1.0
  2
_U
 70
     0
 71
     1
 91
        2
 92
        7
 72
     0
 73
     1
 93
       16
 10
288.500082714016
 20
188.3285939608951
 10
288.500082714016
 20
183.3285939608951
 10
297.350082714016
 20
183.328593960895
 10
336.2759052316956
 20
183.328593960895
 10
336.3091294261919
 20
183.4131437174618
 10
336.5837094893949
 20
184.07676250475
 10
336.9139660821092
 20
184.6143335023782
 10
337.2951021084591
 20
185.0375538910027
 10
337.7052745212527
 20
185.3788669826274
 10
338.1226402732985
 20
185.6707160892558
 10
338.5253563174085
 20
185.9455445228938
 10
338.8915796063881
 20
186.235795595544
 10
339.1994670930474
 20
186.573912619211
 10
339.4271757301952
 20
186.9923389058988
 10
339.5690810868756
 20
187.5089568826633
 10
339.7336682651254
 20
188.3285939608951
 97
        5
330
EF7C85D63
330
EF7C85D62
330
EF7C87609
330
EF7C875D2
330
EF7C85D60
 92
        7
 72
     0
 73
     1
 93
       15
 10
202.2663302868744
 20
188.328593960895
 10
202.4309174651246
 20
187.5089568826631
 10
202.5728228218049
 20
186.9923389058987
 10
202.8005314589526
 20
186.573912619211
 10
203.1084189456118
 20
186.235795595544
 10
203.474642234591
 20
185.9455445228938
 10
203.8773582787007
 20
185.670716089257
 10
204.2947240307472
 20
185.3788669826272
 10
204.7048964435408
 20
185.0375538910026
 10
205.0860324698908
 20
184.6143335023784
 10
205.4162890626052
 20
184.0767625047497
 10
205.6908691258084
 20
183.4131437174626
 10
205.7240933203044
 20
183.3285939608951
 10
253.500082714016
 20
183.3285939608951
 10
253.500082714016
 20
188.3285939608951
 97
        4
330
EF7C854DA
330
1E284
330
1D2BA
330
EF7C8760A
 75
     0
 76
     0
 52
45.0
 41
2.0
 77
     0
 78
     1
 53
45.0
 43
180.9999992759999
 44
2.999999800342606
 45
-1.414213562373094
 46
1.414213562373094
 79
     0
 47
0.2346837798524018
 98
        2
 10
298.2263867658445
 20
186.1842257965506
 10
247.2585814721885
 20
186.8882768503218
  0
TEXT
  5
EF7C87631
330
EF7C85532
100
AcDbEntity
  8
SUNPOU
100
AcDbText
 10
325.2551966600238
 20
149.3494236990277
 30
0.0
 40
3.0
  1
MFQR   取付状態
  7
K
100
AcDbText
  0
TEXT
  5
EF7C87634
330
EF7C85532
100
AcDbEntity
  8
SUNPOU
100
AcDbText
 10
325.2551966600238
 20
144.3494236990277
 30
0.0
 40
3.0
  1
尺度　1/1
  7
K
100
AcDbText
  0
LINE
  5
EF7C87828
330
EF7C85532
100
AcDbEntity
  8
WAKU
100
AcDbLine
 10
361.9999987874493
 20
141.4999999999999
 30
0.0
 11
180.9999992759999
 21
141.4999999999999
 31
0.0
  0
LINE
  5
EF7C8782F
330
EF7C85532
100
AcDbEntity
  8
SUNPOU
100
AcDbLine
 10
289.7919870352367
 20
163.9969596094108
 30
0.0
 11
304.0530171911068
 21
154.3883433359233
 31
0.0
  0
TEXT
  5
EF7C87830
330
EF7C85532
100
AcDbEntity
  8
SUNPOU
100
AcDbText
 10
307.2075231711619
 20
148.7857211771719
 30
0.0
 40
4.5
  1
1
  7
K
 72
     4
 11
309.0289517425905
 21
151.0357211771719
 31
0.0
100
AcDbText
  0
CIRCLE
  5
EF7C87831
330
EF7C85532
100
AcDbEntity
  8
SUNPOU
100
AcDbCircle
 10
309.0289517425905
 20
151.0357211771719
 30
0.0
 40
6.0
  0
INSERT
  5
EF7C87832
330
EF7C85532
100
AcDbEntity
  8
SUNPOU
100
AcDbBlockReference
  2
ARROW
 10
289.7919870352366
 20
163.9969596094108
 30
0.0
 41
1.499999999999995
 42
1.5
 43
1.5
 50
146.0291974830132
  0
TEXT
  5
EF7C87A6A
330
EF7C85532
100
AcDbEntity
  8
SUNPOU
100
AcDbText
 10
317.7214353518591
 20
6.665259596075087
 30
0.0
 40
3.0
  1
MFQR   ガード取付状態
  7
K
100
AcDbText
  0
TEXT
  5
EF7C87A7B
330
EF7C85532
100
AcDbEntity
  8
SUNPOU
100
AcDbText
 10
317.7214353518591
 20
1.665259596075087
 30
0.0
 40
3.0
  1
尺度　1/1
  7
K
100
AcDbText
  0
LINE
  5
EF7C87B81
102
{ACAD_REACTORS
330
EF7C87B82
102
}
330
EF7C85532
100
AcDbEntity
  8
JISSEN
100
AcDbLine
 10
339.7336682651255
 20
58.82859396089518
 30
0.0
 11
281.6288402209334
 21
58.82859396089514
 31
0.0
  0
HATCH
  5
EF7C87B82
330
EF7C85532
100
AcDbEntity
  8
HATCH
100
AcDbHatch
 10
0.0
 20
0.0
 30
0.0
210
0.0
220
0.0
230
1.0
  2
_U
 70
     0
 71
     1
 91
        2
 92
        7
 72
     0
 73
     1
 93
       16
 10
288.5000827140159
 20
58.82859396089514
 10
288.500082714016
 20
53.82859396089518
 10
297.350082714016
 20
53.82859396089518
 10
336.2759052316956
 20
53.82859396089518
 10
336.3091294261921
 20
53.91314371746286
 10
336.5837094893948
 20
54.57676250475021
 10
336.9139660821092
 20
55.11433350237831
 10
337.2951021084589
 20
55.53755389100267
 10
337.7052745212532
 20
55.87886698262748
 10
338.122640273301
 20
56.17071608925773
 10
338.5253563174086
 20
56.44554452289414
 10
338.8915796063883
 20
56.73579559554427
 10
339.1994670930472
 20
57.07391261921107
 10
339.4271757301952
 20
57.49233890589874
 10
339.5690810868757
 20
58.00895688266415
 10
339.7336682651254
 20
58.82859396089518
 97
        5
330
EF7C87C97
330
EF7C87B81
330
EF7C87C7B
330
EF7C87C3C
330
EF7C87B83
 92
        7
 72
     0
 73
     1
 93
       15
 10
202.2663302868744
 20
58.82859396089517
 10
202.4309174651246
 20
58.00895688266301
 10
202.5728228218049
 20
57.49233890589869
 10
202.8005314589527
 20
57.07391261921106
 10
203.108418945612
 20
56.73579559554408
 10
203.4746422345916
 20
56.44554452289405
 10
203.8773582787018
 20
56.17071608925402
 10
204.2947240307471
 20
55.87886698262748
 10
204.7048964435408
 20
55.53755389100274
 10
205.0860324698907
 20
55.11433350237837
 10
205.416289062605
 20
54.57676250475024
 10
205.6908691258077
 20
53.91314371746455
 10
205.7240933203045
 20
53.82859396089518
 10
253.5000827140161
 20
53.82859396089518
 10
253.5000827140161
 20
58.82859396089521
 97
        4
330
EF7C87B89
330
EF7C87B8A
330
EF7C87B90
330
EF7C87BD0
 75
     0
 76
     0
 52
45.0
 41
2.0
 77
     0
 78
     1
 53
45.0
 43
180.9999992759999
 44
-126.5000001996573
 45
-1.414213562373094
 46
1.414213562373094
 79
     0
 47
0.2346837798524018
 98
        2
 10
298.2263867658445
 20
56.6842257965508
 10
247.2585814721885
 20
57.38827685032188
  0
LINE
  5
EF7C87B83
102
{ACAD_REACTORS
330
EF7C87B82
102
}
330
EF7C85532
100
AcDbEntity
  8
JISSEN
100
AcDbLine
 10
281.5975886309648
 20
53.82859396089521
 30
0.0
 11
336.2759052316956
 21
53.82859396089518
 31
0.0
  0
LINE
  5
EF7C87B84
330
EF7C85532
100
AcDbEntity
  8
JISSEN
100
AcDbLine
 10
272.4999985519999
 20
264.9999999999999
 30
0.0
 11
361.9999985519999
 21
264.9999999999999
 31
0.0
  0
TEXT
  5
EF7C87B85
330
EF7C85532
100
AcDbEntity
  8
TEXT
100
AcDbText
 10
316.1999985519999
 20
278.4999999999999
 30
0.0
 40
3.0
  1
材    質
  7
K
 72
     4
 11
322.9999985519999
 21
279.9999999999999
 31
0.0
100
AcDbText
  0
LINE
  5
EF7C87B86
330
EF7C85532
100
AcDbEntity
  8
JISSEN
100
AcDbLine
 10
272.4999985519999
 20
270.9999999999999
 30
0.0
 11
361.9999985519999
 21
270.9999999999999
 31
0.0
  0
LINE
  5
EF7C87B87
330
EF7C85532
100
AcDbEntity
  8
JISSEN
100
AcDbLine
 10
272.4999985519999
 20
276.9999999999999
 30
0.0
 11
361.9999985519999
 21
276.9999999999999
 31
0.0
  0
LWPOLYLINE
  5
EF7C87B88
330
EF7C85532
100
AcDbEntity
  8
NITEN
100
AcDbPolyline
 90
        5
 70
     0
 43
0.0
 10
287.9999992759999
 20
101.9391428666226
 10
287.9999992759999
 20
122.7768605177683
 42
-0.5882352941176476
 10
270.9999992759999
 20
122.7768605177683
 42
0.5882352941176477
 10
253.9999992759999
 20
122.7768605177681
 10
253.9999992759999
 20
101.9391428666226
  0
LINE
  5
EF7C87B89
102
{ACAD_REACTORS
330
EF7C87B82
102
}
330
EF7C85532
100
AcDbEntity
  8
JISSEN
100
AcDbLine
 10
202.2663302868745
 20
58.82859396089518
 30
0.0
 11
260.3713252070987
 21
58.82859396089522
 31
0.0
  0
LWPOLYLINE
  5
EF7C87B8A
102
{ACAD_REACTORS
330
EF7C87B82
102
}
330
EF7C85532
100
AcDbEntity
  8
HATCH
100
AcDbPolyline
 90
       13
 70
     0
 43
0.0
 10
202.2663302868745
 20
58.82859396089518
 10
202.4309174651246
 20
58.00895688266312
 10
202.5728228218049
 20
57.49233890589882
 10
202.8005314589526
 20
57.07391261921102
 10
203.108418945612
 20
56.73579559554409
 10
203.4746422345914
 20
56.44554452289398
 10
203.8773582787003
 20
56.17071608925649
 10
204.2947240307471
 20
55.87886698262749
 10
204.7048964435409
 20
55.53755389100277
 10
205.0860324698907
 20
55.1143335023784
 10
205.416289062605
 20
54.57676250475012
 10
205.6908691258079
 20
53.91314371746265
 10
205.7240933203044
 20
53.82859396089518
  0
LINE
  5
EF7C87B90
102
{ACAD_REACTORS
330
EF7C87B82
102
}
330
EF7C85532
100
AcDbEntity
  8
JISSEN
100
AcDbLine
 10
260.4025767970671
 20
53.82859396089518
 30
0.0
 11
205.7240933203044
 21
53.82859396089518
 31
0.0
  0
LINE
  5
EF7C87B92
330
EF7C85532
100
AcDbEntity
  8
JISSEN
100
AcDbLine
 10
244.5000827140161
 20
46.32859396089517
 30
0.0
 11
246.093817224834
 21
46.32859396089517
 31
0.0
  0
LINE
  5
EF7C87B93
330
EF7C85532
100
AcDbEntity
  8
JISSEN
100
AcDbLine
 10
245.500082714016
 20
45.32859396089517
 30
0.0
 11
246.093817224834
 21
45.32859396089515
 31
0.0
  0
LINE
  5
EF7C87B94
330
EF7C85532
100
AcDbEntity
  8
JISSEN
100
AcDbLine
 10
244.6500827140162
 20
53.82859396089518
 30
0.0
 11
271.000082714016
 21
53.82859396089518
 31
0.0
  0
LINE
  5
EF7C87B95
330
EF7C85532
100
AcDbEntity
  8
JISSEN
100
AcDbLine
 10
261.750082714016
 20
24.92049439494783
 30
0.0
 11
257.750082714016
 21
26.95859619292554
 31
0.0
1001
ACAD
1000
ASC_BOUNDS
1002
{
1070
    19
1002
}
  0
LINE
  5
EF7C87B96
330
EF7C85532
100
AcDbEntity
  8
JISSEN
100
AcDbLine
 10
271.000082714016
 20
30.74271163855565
 30
0.0
 11
258.450082714016
 21
30.74271163855623
 31
0.0
1001
ACAD
1000
ASC_BOUNDS
1002
{
1070
    19
1002
}
  0
LINE
  5
EF7C87B97
330
EF7C85532
100
AcDbEntity
  8
JISSEN
100
AcDbLine
 10
257.750082714016
 20
29.22049439494784
 30
0.0
 11
271.000082714016
 21
29.22049439494782
 31
0.0
1001
ACAD
1000
ASC_BOUNDS
1002
{
1070
    19
1002
}
  0
LINE
  5
EF7C87B98
330
EF7C85532
100
AcDbEntity
  8
JISSEN
100
AcDbLine
 10
271.000082714016
 20
32.49271163855589
 30
0.0
 11
256.4708796974144
 21
32.49271163855567
 31
0.0
1001
ACAD
1000
ASC_BOUNDS
1002
{
1070
    19
1002
}
  0
LINE
  5
EF7C87B99
330
EF7C85532
100
AcDbEntity
  8
JISSEN
100
AcDbLine
 10
257.750082714016
 20
26.95859619292554
 30
0.0
 11
271.000082714016
 21
26.95859619292557
 31
0.0
  0
ARC
  5
EF7C87B9A
330
EF7C85532
100
AcDbEntity
  8
JISSEN
100
AcDbCircle
 10
255.685631714016
 20
37.5354929608952
 30
0.0
 40
0.4
100
AcDbArc
 50
183.7443620000003
 51
270.0
  0
ARC
  5
EF7C87B9B
330
EF7C85532
100
AcDbEntity
  8
JISSEN
100
AcDbCircle
 10
251.592214714016
 20
37.45147396089517
 30
0.0
 40
0.5
100
AcDbArc
 50
185.2015590000002
 51
242.253262
  0
ARC
  5
EF7C87B9C
330
EF7C85532
100
AcDbEntity
  8
JISSEN
100
AcDbCircle
 10
255.695255714016
 20
37.7861219608952
 30
0.0
 40
1.199999999999999
100
AcDbArc
 50
184.0179690000003
 51
234.6729319999998
  0
ARC
  5
EF7C87B9D
330
EF7C85532
100
AcDbEntity
  8
JISSEN
100
AcDbCircle
 10
257.221885714016
 20
37.35236996089517
 30
0.0
 40
0.4
100
AcDbArc
 50
184.0179690000003
 51
234.6729319999998
  0
ARC
  5
EF7C87BA1
330
EF7C85532
100
AcDbEntity
  8
JISSEN
100
AcDbCircle
 10
250.846839714016
 20
37.9584419608952
 30
0.0
 40
1.3
100
AcDbArc
 50
195.4499661289538
 51
242.253262
  0
ARC
  5
EF7C87BA2
330
EF7C85532
100
AcDbEntity
  8
JISSEN
100
AcDbCircle
 10
251.1181637140162
 20
37.63549296089522
 30
0.0
 40
0.5
100
AcDbArc
 50
185.0389269999999
 51
279.3495549999998
  0
LINE
  5
EF7C87BA3
330
EF7C85532
100
AcDbEntity
  8
JISSEN
100
AcDbLine
 10
258.250082714016
 20
32.49271163855569
 30
0.0
 11
258.250082714016
 21
30.94271163855486
 31
0.0
1001
ACAD
1000
ASC_BOUNDS
1002
{
1070
    19
1002
}
  0
ARC
  5
EF7C87BA4
330
EF7C85532
100
AcDbEntity
  8
JISSEN
100
AcDbCircle
 10
258.450082714016
 20
30.942711638556
 30
0.0
 40
0.2
100
AcDbArc
 50
180.0000000000006
 51
269.9999999999982
1001
ACAD
1000
ASC_BOUNDS
1002
{
1070
    19
1002
}
  0
LINE
  5
EF7C87BA5
330
EF7C85532
100
AcDbEntity
  8
JISSEN
100
AcDbLine
 10
257.750082714016
 20
29.22049439494784
 30
0.0
 11
257.750082714016
 21
26.95859619292554
 31
0.0
1001
ACAD
1000
ASC_BOUNDS
1002
{
1070
    19
1002
}
  0
LINE
  5
EF7C87BA6
330
EF7C85532
100
AcDbEntity
  8
JISSEN
100
AcDbLine
 10
256.4708796974144
 20
32.49271163855567
 30
0.0
 11
249.5938172248341
 21
35.72618673360369
 31
0.0
1001
ACAD
1000
ASC_BOUNDS
1002
{
1070
    19
1002
}
  0
LINE
  5
EF7C87BA7
330
EF7C85532
100
AcDbEntity
  8
JISSEN
100
AcDbLine
 10
252.858807714016
 20
36.2202169608952
 30
0.0
 11
251.359432714016
 21
37.0089669608952
 31
0.0
  0
LINE
  5
EF7C87BA8
330
EF7C85532
100
AcDbEntity
  8
JISSEN
100
AcDbLine
 10
251.815931714016
 20
36.03171496089518
 30
0.0
 11
252.812250714016
 21
36.03171496089518
 31
0.0
  0
ARC
  5
EF7C87BA9
330
EF7C85532
100
AcDbEntity
  8
JISSEN
100
AcDbCircle
 10
251.815931714016
 20
36.43171496089515
 30
0.0
 40
0.4
100
AcDbArc
 50
242.253262
 51
270.0
  0
ARC
  5
EF7C87BAA
330
EF7C85532
100
AcDbEntity
  8
JISSEN
100
AcDbCircle
 10
252.812250714016
 20
36.1317149608952
 30
0.0
 40
0.1
100
AcDbArc
 50
270.0
 51
62.25326200000021
  0
LINE
  5
EF7C87BAB
330
EF7C85532
100
AcDbEntity
  8
JISSEN
100
AcDbLine
 10
249.5938172248341
 20
36.1587746119936
 30
0.0
 11
249.620653714016
 21
36.14635996089518
 31
0.0
  0
LINE
  5
EF7C87BAC
330
EF7C85532
100
AcDbEntity
  8
JISSEN
100
AcDbLine
 10
250.1351757140161
 20
36.14933096089517
 30
0.0
 11
249.5938172248341
 21
36.39976519788918
 31
0.0
  0
ARC
  5
EF7C87BAD
330
EF7C85532
100
AcDbEntity
  8
JISSEN
100
AcDbCircle
 10
250.114183714016
 20
36.10395196089516
 30
0.0
 40
0.05
100
AcDbArc
 50
270.0
 51
65.17459499999985
  0
LINE
  5
EF7C87BAE
330
EF7C85532
100
AcDbEntity
  8
JISSEN
100
AcDbLine
 10
250.0405087140161
 20
36.0539519608952
 30
0.0
 11
250.114183714016
 21
36.0539519608952
 31
0.0
  0
ARC
  5
EF7C87BAF
330
EF7C85532
100
AcDbEntity
  8
JISSEN
100
AcDbCircle
 10
250.0405087140161
 20
37.0539519608952
 30
0.0
 40
1.0
100
AcDbArc
 50
245.1745949999998
 51
270.0
  0
LINE
  5
EF7C87BB0
330
EF7C85532
100
AcDbEntity
  8
JISSEN
100
AcDbLine
 10
250.241606714016
 20
36.80792296089518
 30
0.0
 11
251.629705714016
 21
36.07770996089518
 31
0.0
  0
ARC
  5
EF7C87BB1
330
EF7C85532
100
AcDbEntity
  8
JISSEN
100
AcDbCircle
 10
257.922447714016
 20
36.18171496089515
 30
0.0
 40
0.15
100
AcDbArc
 50
270.0
 51
54.67293199999994
  0
LINE
  5
EF7C87BB2
330
EF7C85532
100
AcDbEntity
  8
JISSEN
100
AcDbLine
 10
256.004429714016
 20
36.0961629608952
 30
0.0
 11
255.001363714016
 21
36.80708496089518
 31
0.0
  0
ARC
  5
EF7C87BB3
330
EF7C85532
100
AcDbEntity
  8
JISSEN
100
AcDbCircle
 10
256.206814714016
 20
36.38171496089521
 30
0.0
 40
0.35
100
AcDbArc
 50
234.6729319999998
 51
270.0
  0
LINE
  5
EF7C87BB4
330
EF7C85532
100
AcDbEntity
  8
JISSEN
100
AcDbLine
 10
257.922447714016
 20
36.03171496089518
 30
0.0
 11
256.206814714016
 21
36.03171496089518
 31
0.0
  0
LINE
  5
EF7C87BB5
330
EF7C85532
100
AcDbEntity
  8
JISSEN
100
AcDbLine
 10
256.9905887140161
 20
37.02602396089517
 30
0.0
 11
258.0091837140161
 21
36.30409496089518
 31
0.0
  0
LINE
  5
EF7C87BB7
330
EF7C85532
100
AcDbEntity
  8
JISSEN
100
AcDbLine
 10
245.500082714016
 20
45.32859396089517
 30
0.0
 11
246.093817224834
 21
45.3285939608952
 31
0.0
  0
LINE
  5
EF7C87BB8
330
EF7C85532
100
AcDbEntity
  8
JISSEN
100
AcDbLine
 10
244.5000827140161
 20
46.32859396089517
 30
0.0
 11
245.500082714016
 21
45.32859396089517
 31
0.0
  0
LINE
  5
EF7C87BB9
330
EF7C85532
100
AcDbEntity
  8
JISSEN
100
AcDbLine
 10
254.4982057140162
 20
37.70203896089518
 30
0.0
 11
254.094171714016
 21
43.45406896089516
 31
0.0
  0
LINE
  5
EF7C87BBA
330
EF7C85532
100
AcDbEntity
  8
JISSEN
100
AcDbLine
 10
254.893842714016
 20
43.50900196089518
 30
0.0
 11
255.286485714016
 21
37.50937096089514
 31
0.0
  0
LINE
  5
EF7C87BBB
330
EF7C85532
100
AcDbEntity
  8
JISSEN
100
AcDbLine
 10
256.379061714016
 20
43.64260796089515
 30
0.0
 11
256.822868714016
 21
37.32434196089517
 31
0.0
  0
LINE
  5
EF7C87BBF
330
EF7C85532
100
AcDbEntity
  8
JISSEN
100
AcDbLine
 10
250.0893417140162
 20
43.6110269608952
 30
0.0
 11
250.6200957140161
 21
37.59157696089518
 31
0.0
  0
LINE
  5
EF7C87BC1
330
EF7C85532
100
AcDbEntity
  8
JISSEN
100
AcDbLine
 10
251.094273714016
 20
37.40614396089515
 30
0.0
 11
250.526165714016
 21
43.64672596089515
 31
0.0
  0
LINE
  5
EF7C87BC2
330
EF7C85532
100
AcDbEntity
  8
JISSEN
100
AcDbLine
 10
255.685631714016
 20
37.13549296089522
 30
0.0
 11
256.8857837140161
 21
37.13549296089522
 31
0.0
  0
ARC
  5
EF7C87BC6
330
EF7C85532
100
AcDbEntity
  8
JISSEN
100
AcDbCircle
 10
250.288568714016
 20
43.62859396089517
 30
0.0
 40
0.2
100
AcDbArc
 50
90.0
 51
185.0389269999999
  0
LINE
  5
EF7C87BC8
330
EF7C85532
100
AcDbEntity
  8
JISSEN
100
AcDbLine
 10
250.326988714016
 20
43.82859396089517
 30
0.0
 11
249.593817224834
 21
43.82859396089517
 31
0.0
  0
ARC
  5
EF7C87BC9
330
EF7C85532
100
AcDbEntity
  8
JISSEN
100
AcDbCircle
 10
250.326988714016
 20
43.62859396089517
 30
0.0
 40
0.2
100
AcDbArc
 50
5.201559000000191
 51
90.0
  0
LINE
  5
EF7C87BCA
330
EF7C85532
100
AcDbEntity
  8
JISSEN
100
AcDbLine
 10
255.193201714016
 20
43.82859396089517
 30
0.0
 11
256.179552714016
 21
43.82859396089517
 31
0.0
  0
LINE
  5
EF7C87BCB
330
EF7C85532
100
AcDbEntity
  8
JISSEN
100
AcDbLine
 10
254.4433107140161
 20
43.82859396089517
 30
0.0
 11
255.193201714016
 21
43.82859396089517
 31
0.0
  0
ARC
  5
EF7C87BCC
330
EF7C85532
100
AcDbEntity
  8
JISSEN
100
AcDbCircle
 10
254.4433107140161
 20
43.47859396089514
 30
0.0
 40
0.35
100
AcDbArc
 50
90.0
 51
184.0179690000003
  0
ARC
  5
EF7C87BCD
330
EF7C85532
100
AcDbEntity
  8
JISSEN
100
AcDbCircle
 10
255.193201714016
 20
43.52859396089516
 30
0.0
 40
0.3
100
AcDbArc
 50
90.0
 51
183.7443620000003
  0
ARC
  5
EF7C87BCE
330
EF7C85532
100
AcDbEntity
  8
JISSEN
100
AcDbCircle
 10
256.179552714016
 20
43.62859396089517
 30
0.0
 40
0.2
100
AcDbArc
 50
4.017969000000318
 51
90.0
  0
LINE
  5
EF7C87BD0
102
{ACAD_REACTORS
330
EF7C87B82
102
}
330
EF7C85532
100
AcDbEntity
  8
JISSEN
100
AcDbLine
 10
253.500082714016
 20
58.82859396089521
 30
0.0
 11
253.500082714016
 21
53.82859396089518
 31
0.0
  0
ARC
  5
EF7C87BD1
330
EF7C85532
100
AcDbEntity
  8
JISSEN
100
AcDbCircle
 10
293.258613714016
 20
38.0955799608952
 30
0.0
 40
1.399999999999999
100
AcDbArc
 50
294.825405
 51
353.8576429999998
  0
ARC
  5
EF7C87BD2
330
EF7C85532
100
AcDbEntity
  8
JISSEN
100
AcDbCircle
 10
292.8310377140161
 20
38.02859096089517
 30
0.0
 40
1.3
100
AcDbArc
 50
294.825405
 51
353.8576429999998
  0
ARC
  5
EF7C87BD3
330
EF7C85532
100
AcDbEntity
  8
JISSEN
100
AcDbCircle
 10
293.4542033844787
 20
37.87576853503177
 30
0.0
 40
1.5
100
AcDbArc
 50
290.0
 51
355.0000000000001
  0
ARC
  5
EF7C87BD4
330
EF7C85532
100
AcDbEntity
  8
JISSEN
100
AcDbCircle
 10
286.304909714016
 20
37.7861219608952
 30
0.0
 40
1.199999999999999
100
AcDbArc
 50
305.327068
 51
355.9820309999997
  0
ARC
  5
EF7C87BD5
330
EF7C85532
100
AcDbEntity
  8
JISSEN
100
AcDbCircle
 10
290.4079507140161
 20
37.45147396089517
 30
0.0
 40
0.5
100
AcDbArc
 50
297.7467379999998
 51
354.7984409999998
  0
ARC
  5
EF7C87BD6
330
EF7C85532
100
AcDbEntity
  8
JISSEN
100
AcDbCircle
 10
286.314533714016
 20
37.5354929608952
 30
0.0
 40
0.4
100
AcDbArc
 50
270.0
 51
356.2556379999997
  0
ARC
  5
EF7C87BD7
330
EF7C85532
100
AcDbEntity
  8
JISSEN
100
AcDbCircle
 10
291.1533257140161
 20
37.9584419608952
 30
0.0
 40
1.3
100
AcDbArc
 50
297.7467379999998
 51
354.5938149999996
  0
ARC
  5
EF7C87BD8
330
EF7C85532
100
AcDbEntity
  8
JISSEN
100
AcDbCircle
 10
290.8820017140159
 20
37.63549296089522
 30
0.0
 40
0.5
100
AcDbArc
 50
260.650445
 51
354.9610729999998
  0
ARC
  5
EF7C87BDB
330
EF7C85532
100
AcDbEntity
  8
JISSEN
100
AcDbCircle
 10
284.7782797140159
 20
37.35236996089517
 30
0.0
 40
0.4
100
AcDbArc
 50
305.327068
 51
355.9820309999997
  0
ARC
  5
EF7C87BDC
330
EF7C85532
100
AcDbEntity
  8
JISSEN
100
AcDbCircle
 10
272.000082714016
 20
37.63549296089522
 30
0.0
 40
0.5
100
AcDbArc
 50
270.0
 51
0.000000000000007
  0
ARC
  5
EF7C87BDD
330
EF7C85532
100
AcDbEntity
  8
JISSEN
100
AcDbCircle
 10
277.442144714016
 20
37.24052196089516
 30
0.0
 40
0.3
100
AcDbArc
 50
323.1028380000003
 51
357.8595680000001
  0
ARC
  5
EF7C87BDE
330
EF7C85532
100
AcDbEntity
  8
JISSEN
100
AcDbCircle
 10
270.000082714016
 20
37.63549296089522
 30
0.0
 40
0.5
100
AcDbArc
 50
180.0
 51
270.0
  0
LINE
  5
EF7C87BDF
330
EF7C85532
100
AcDbEntity
  8
JISSEN
100
AcDbLine
 10
272.500082714016
 20
43.32859396089517
 30
0.0
 11
272.500082714016
 21
36.53171496089518
 31
0.0
  0
LINE
  5
EF7C87BE0
330
EF7C85532
100
AcDbEntity
  8
JISSEN
100
AcDbLine
 10
269.500082714016
 20
43.32859396089517
 30
0.0
 11
269.500082714016
 21
36.53171496089518
 31
0.0
  0
ARC
  5
EF7C87BE1
330
EF7C85532
100
AcDbEntity
  8
JISSEN
100
AcDbCircle
 10
262.4302717140161
 20
37.48558996089517
 30
0.0
 40
1.0
100
AcDbArc
 50
182.1404319999997
 51
216.8971619999997
  0
ARC
  5
EF7C87BE2
330
EF7C85532
100
AcDbEntity
  8
JISSEN
100
AcDbCircle
 10
262.1436737140161
 20
37.43549296089517
 30
0.0
 40
0.3
100
AcDbArc
 50
181.994368
 51
270.0
  0
ARC
  5
EF7C87BE3
330
EF7C85532
100
AcDbEntity
  8
JISSEN
100
AcDbCircle
 10
264.558020714016
 20
37.24052196089516
 30
0.0
 40
0.3
100
AcDbArc
 50
182.1404319999997
 51
216.8971619999997
  0
LINE
  5
EF7C87BE4
330
EF7C85532
100
AcDbEntity
  8
JISSEN
100
AcDbLine
 10
285.5292857306178
 20
32.49271163855567
 30
0.0
 11
294.0546883398555
 21
36.50120758026614
 31
0.0
1001
ACAD
1000
ASC_BOUNDS
1002
{
1070
    19
1002
}
  0
LINE
  5
EF7C87BE5
330
EF7C85532
100
AcDbEntity
  8
JISSEN
100
AcDbLine
 10
280.250082714016
 20
24.92049439494783
 30
0.0
 11
284.2500827140161
 21
26.95859619292554
 31
0.0
1001
ACAD
1000
ASC_BOUNDS
1002
{
1070
    19
1002
}
  0
ARC
  5
EF7C87BE6
330
EF7C85532
100
AcDbEntity
  8
JISSEN
100
AcDbCircle
 10
274.018008714016
 20
22.14361739494785
 30
0.0
 40
0.5
100
AcDbArc
 50
0.000000000000007
 51
90.0
  0
LINE
  5
EF7C87BE7
330
EF7C85532
100
AcDbEntity
  8
SAISEN
100
AcDbLine
 10
275.095101769014
 20
22.64361739494785
 30
0.0
 11
271.000082714016
 21
22.64361739494785
 31
0.0
  0
LINE
  5
EF7C87BE8
330
EF7C85532
100
AcDbEntity
  8
SAISEN
100
AcDbLine
 10
271.000082714016
 20
23.25697139494785
 30
0.0
 11
275.330546310359
 21
23.25697139494785
 31
0.0
  0
LINE
  5
EF7C87BEA
330
EF7C85532
100
AcDbEntity
  8
SAISEN
100
AcDbLine
 10
271.000082714016
 20
22.97573639494785
 30
0.0
 11
275.222590308466
 21
22.97573639494785
 31
0.0
  0
LINE
  5
EF7C87BED
330
EF7C85532
100
AcDbEntity
  8
JISSEN
100
AcDbLine
 10
280.250082714016
 20
24.92049439494783
 30
0.0
 11
278.6469754456059
 21
24.92049439494783
 31
0.0
1001
ACAD
1000
ASC_BOUNDS
1002
{
1070
    19
1002
}
  0
LINE
  5
EF7C87BF0
330
EF7C85532
100
AcDbEntity
  8
JISSEN
100
AcDbLine
 10
261.750082714016
 20
24.92049439494783
 30
0.0
 11
271.000082714016
 21
24.92049439494783
 31
0.0
1001
ACAD
1000
ASC_BOUNDS
1002
{
1070
    19
1002
}
  0
LINE
  5
EF7C87BF1
330
EF7C85532
100
AcDbEntity
  8
SAISEN
100
AcDbLine
 10
271.000082714016
 20
23.25697139494785
 30
0.0
 11
265.982156714016
 21
23.25697139494785
 31
0.0
  0
LINE
  5
EF7C87BF2
330
EF7C85532
100
AcDbEntity
  8
SAISEN
100
AcDbLine
 10
266.4720537140159
 20
22.64361739494785
 30
0.0
 11
271.000082714016
 21
22.64361739494785
 31
0.0
  0
LINE
  5
EF7C87BF6
330
EF7C85532
100
AcDbEntity
  8
SAISEN
100
AcDbLine
 10
271.000082714016
 20
22.97573639494785
 30
0.0
 11
261.732156714016
 21
22.97573639494785
 31
0.0
  0
LINE
  5
EF7C87BF9
330
EF7C85532
100
AcDbEntity
  8
SAISEN
100
AcDbLine
 10
261.732156714016
 20
22.64361739494785
 30
0.0
 11
261.732156714016
 21
22.97573639494785
 31
0.0
  0
LINE
  5
EF7C87BFA
330
EF7C85532
100
AcDbEntity
  8
SAISEN
100
AcDbLine
 10
266.4720537140159
 20
22.64361739494785
 30
0.0
 11
261.732156714016
 21
22.64361739494785
 31
0.0
  0
ARC
  5
EF7C87BFB
330
EF7C85532
100
AcDbEntity
  8
SAISEN
100
AcDbCircle
 10
265.982156714016
 20
22.50697139494787
 30
0.0
 40
0.75
100
AcDbArc
 50
90.0
 51
141.3164109999995
  0
LINE
  5
EF7C87BFC
330
EF7C85532
100
AcDbEntity
  8
JISSEN
100
AcDbLine
 10
267.482156714016
 20
22.14361739494785
 30
0.0
 11
267.482156714016
 21
21.32859396089564
 31
0.0
  0
ARC
  5
EF7C87BFD
330
EF7C85532
100
AcDbEntity
  8
JISSEN
100
AcDbCircle
 10
267.982156714016
 20
22.14361739494785
 30
0.0
 40
0.5
100
AcDbArc
 50
90.0
 51
180.0
  0
LINE
  5
EF7C87BFE
330
EF7C85532
100
AcDbEntity
  8
JISSEN
100
AcDbLine
 10
274.018008714016
 20
24.92049439494783
 30
0.0
 11
274.018008714016
 21
23.25697139494785
 31
0.0
  0
LINE
  5
EF7C87BFF
330
EF7C85532
100
AcDbEntity
  8
JISSEN
100
AcDbLine
 10
267.982156714016
 20
24.92049439494783
 30
0.0
 11
267.982156714016
 21
23.25697139494785
 31
0.0
  0
LINE
  5
EF7C87C02
330
EF7C85532
100
AcDbEntity
  8
SAISEN
100
AcDbLine
 10
280.268008714016
 20
22.64361739494785
 30
0.0
 11
280.268008714016
 21
22.97573639494785
 31
0.0
  0
LINE
  5
EF7C87C05
330
EF7C85532
100
AcDbEntity
  8
JISSEN
100
AcDbLine
 10
274.518008714016
 20
22.14361739494785
 30
0.0
 11
274.518008714016
 21
21.32859396089548
 31
0.0
  0
LINE
  5
EF7C87C07
330
EF7C85532
100
AcDbEntity
  8
SAISEN
100
AcDbLine
 10
277.7729642531066
 20
22.64361739494785
 30
0.0
 11
280.268008714016
 21
22.64361739494785
 31
0.0
  0
LINE
  5
EF7C87C08
330
EF7C85532
100
AcDbEntity
  8
JISSEN
100
AcDbLine
 10
271.000082714016
 20
32.49271163855589
 30
0.0
 11
278.093485642005
 21
32.49271163855579
 31
0.0
1001
ACAD
1000
ASC_BOUNDS
1002
{
1070
    19
1002
}
  0
LINE
  5
EF7C87C09
330
EF7C85532
100
AcDbEntity
  8
JISSEN
100
AcDbLine
 10
284.2500827140161
 20
29.22049439494784
 30
0.0
 11
280.2702533062332
 21
29.22049439494784
 31
0.0
1001
ACAD
1000
ASC_BOUNDS
1002
{
1070
    19
1002
}
  0
LINE
  5
EF7C87C0A
330
EF7C85532
100
AcDbEntity
  8
JISSEN
100
AcDbLine
 10
271.000082714016
 20
30.74271163855565
 30
0.0
 11
277.9371426859631
 21
30.74271163855596
 31
0.0
1001
ACAD
1000
ASC_BOUNDS
1002
{
1070
    19
1002
}
  0
LINE
  5
EF7C87C0B
330
EF7C85532
100
AcDbEntity
  8
JISSEN
100
AcDbLine
 10
284.2500827140161
 20
26.95859619292554
 30
0.0
 11
279.4293294255906
 21
26.95859619292557
 31
0.0
  0
LINE
  5
EF7C87C0C
330
EF7C85532
100
AcDbEntity
  8
JISSEN
100
AcDbLine
 10
263.1656217682623
 20
29.22859396089521
 30
0.0
 11
263.2115566893665
 21
29.22049439494784
 31
0.0
1001
ACAD
1000
ASC_BOUNDS
1002
{
1070
    19
1002
}
  0
ARC
  5
EF7C87C0D
330
EF7C85532
100
AcDbEntity
  8
JISSEN
100
AcDbCircle
 10
263.1696262208498
 20
28.92859396089519
 30
0.0
 40
0.3
100
AcDbArc
 50
90.0
 51
103.3441175406789
1001
ACAD
1000
ASC_BOUNDS
1002
{
1070
    19
1002
}
  0
LINE
  5
EF7C87C0E
330
EF7C85532
100
AcDbEntity
  8
JISSEN
100
AcDbLine
 10
261.7299121217989
 20
29.22049439494784
 30
0.0
 11
262.3649974179075
 21
30.32049439494784
 31
0.0
1001
ACAD
1000
ASC_BOUNDS
1002
{
1070
    19
1002
}
  0
ARC
  5
EF7C87C0F
330
EF7C85532
100
AcDbEntity
  8
JISSEN
100
AcDbCircle
 10
263.0578177409351
 20
29.92049439494783
 30
0.0
 40
0.8
100
AcDbArc
 50
113.5979379883457
 51
149.9999999999998
1001
ACAD
1000
ASC_BOUNDS
1002
{
1070
    19
1002
}
  0
LINE
  5
EF7C87C10
330
EF7C85532
100
AcDbEntity
  8
JISSEN
100
AcDbLine
 10
264.610082714016
 20
29.22049439494784
 30
0.0
 11
264.610082714016
 21
30.74271163855593
 31
0.0
1001
ACAD
1000
ASC_BOUNDS
1002
{
1070
    19
1002
}
  0
LINE
  5
EF7C87C11
330
EF7C85532
100
AcDbEntity
  8
JISSEN
100
AcDbLine
 10
262.7375648982007
 20
30.74271163855607
 30
0.0
 11
262.7375648982007
 21
29.22049439494784
 31
0.0
1001
ACAD
1000
ASC_BOUNDS
1002
{
1070
    19
1002
}
  0
LINE
  5
EF7C87C12
330
EF7C85532
100
AcDbEntity
  8
JISSEN
100
AcDbLine
 10
262.421223714016
 20
36.03171496089518
 30
0.0
 11
264.690152714016
 21
36.03171496089518
 31
0.0
  0
ARC
  5
EF7C87C13
330
EF7C85532
100
AcDbEntity
  8
JISSEN
100
AcDbCircle
 10
262.421223714016
 20
36.3317149608952
 30
0.0
 40
0.3
100
AcDbArc
 50
216.8971619999997
 51
270.0
  0
LINE
  5
EF7C87C14
330
EF7C85532
100
AcDbEntity
  8
JISSEN
100
AcDbLine
 10
261.630557714016
 20
36.88520896089518
 30
0.0
 11
262.181308714016
 21
36.15160096089518
 31
0.0
  0
LINE
  5
EF7C87C15
330
EF7C85532
100
AcDbEntity
  8
JISSEN
100
AcDbLine
 10
264.850095714016
 20
36.35179196089521
 30
0.0
 11
264.318105714016
 21
37.06040796089515
 31
0.0
  0
ARC
  5
EF7C87C16
330
EF7C85532
100
AcDbEntity
  8
JISSEN
100
AcDbCircle
 10
264.690152714016
 20
36.23171496089517
 30
0.0
 40
0.2
100
AcDbArc
 50
270.0
 51
36.89716199999973
  0
ARC
  5
EF7C87C17
330
EF7C85532
100
AcDbEntity
  8
JISSEN
100
AcDbCircle
 10
272.000082714016
 20
36.53171496089518
 30
0.0
 40
0.5
100
AcDbArc
 50
270.0
 51
0.000000000000007
  0
ARC
  5
EF7C87C18
330
EF7C85532
100
AcDbEntity
  8
JISSEN
100
AcDbCircle
 10
270.000082714016
 20
36.53171496089518
 30
0.0
 40
0.5
100
AcDbArc
 50
180.0
 51
270.0
  0
LINE
  5
EF7C87C19
330
EF7C85532
100
AcDbEntity
  8
JISSEN
100
AcDbLine
 10
271.000082714016
 20
36.03171496089518
 30
0.0
 11
270.000082714016
 21
36.03171496089518
 31
0.0
  0
LINE
  5
EF7C87C1A
330
EF7C85532
100
AcDbEntity
  8
JISSEN
100
AcDbLine
 10
271.000082714016
 20
36.03171496089518
 30
0.0
 11
272.000082714016
 21
36.03171496089518
 31
0.0
  0
LINE
  5
EF7C87C1B
330
EF7C85532
100
AcDbEntity
  8
JISSEN
100
AcDbLine
 10
283.7500827140161
 20
32.49271163855569
 30
0.0
 11
283.7500827140161
 21
30.94271163855486
 31
0.0
1001
ACAD
1000
ASC_BOUNDS
1002
{
1070
    19
1002
}
  0
LINE
  5
EF7C87C1F
330
EF7C85532
100
AcDbEntity
  8
JISSEN
100
AcDbLine
 10
277.3900827140161
 20
29.22049439494784
 30
0.0
 11
277.3900827140161
 21
30.74271163855593
 31
0.0
1001
ACAD
1000
ASC_BOUNDS
1002
{
1070
    19
1002
}
  0
ARC
  5
EF7C87C22
330
EF7C85532
100
AcDbEntity
  8
JISSEN
100
AcDbCircle
 10
283.550082714016
 20
30.942711638556
 30
0.0
 40
0.2
100
AcDbArc
 50
270.0000000000016
 51
359.9999999999991
1001
ACAD
1000
ASC_BOUNDS
1002
{
1070
    19
1002
}
  0
LINE
  5
EF7C87C23
330
EF7C85532
100
AcDbEntity
  8
JISSEN
100
AcDbLine
 10
284.2500827140161
 20
29.22049439494784
 30
0.0
 11
284.2500827140161
 21
26.95859619292554
 31
0.0
1001
ACAD
1000
ASC_BOUNDS
1002
{
1070
    19
1002
}
  0
ARC
  5
EF7C87C26
330
EF7C85532
100
AcDbEntity
  8
JISSEN
100
AcDbCircle
 10
277.310012714016
 20
36.23171496089517
 30
0.0
 40
0.2
100
AcDbArc
 50
143.1028380000001
 51
270.0
  0
LINE
  5
EF7C87C27
330
EF7C85532
100
AcDbEntity
  8
JISSEN
100
AcDbLine
 10
277.150069714016
 20
36.35179196089521
 30
0.0
 11
277.682059714016
 21
37.06040796089515
 31
0.0
  0
LINE
  5
EF7C87C28
330
EF7C85532
100
AcDbEntity
  8
JISSEN
100
AcDbLine
 10
278.0949890783726
 20
36.03171496089514
 30
0.0
 11
277.310012714016
 21
36.03171496089518
 31
0.0
  0
ARC
  5
EF7C87C29
330
EF7C85532
100
AcDbEntity
  8
JISSEN
100
AcDbCircle
 10
284.0777177140159
 20
36.18171496089515
 30
0.0
 40
0.15
100
AcDbArc
 50
125.3270679999999
 51
270.0
  0
ARC
  5
EF7C87C2A
330
EF7C85532
100
AcDbEntity
  8
JISSEN
100
AcDbCircle
 10
285.7933507140161
 20
36.38171496089521
 30
0.0
 40
0.35
100
AcDbArc
 50
270.0
 51
305.327068
  0
LINE
  5
EF7C87C2B
330
EF7C85532
100
AcDbEntity
  8
JISSEN
100
AcDbLine
 10
285.009576714016
 20
37.02602396089517
 30
0.0
 11
283.9909817140161
 21
36.30409496089518
 31
0.0
  0
LINE
  5
EF7C87C2C
330
EF7C85532
100
AcDbEntity
  8
JISSEN
100
AcDbLine
 10
284.0777177140159
 20
36.03171496089518
 30
0.0
 11
285.7933507140161
 21
36.03171496089518
 31
0.0
  0
LINE
  5
EF7C87C2D
330
EF7C85532
100
AcDbEntity
  8
JISSEN
100
AcDbLine
 10
285.995735714016
 20
36.0961629608952
 30
0.0
 11
286.998801714016
 21
36.80708496089518
 31
0.0
  0
ARC
  5
EF7C87C32
330
EF7C85532
100
AcDbEntity
  8
JISSEN
100
AcDbCircle
 10
289.187914714016
 20
36.1317149608952
 30
0.0
 40
0.1
100
AcDbArc
 50
117.7467379999998
 51
270.0
  0
ARC
  5
EF7C87C33
330
EF7C85532
100
AcDbEntity
  8
JISSEN
100
AcDbCircle
 10
290.1842337140159
 20
36.43171496089515
 30
0.0
 40
0.4
100
AcDbArc
 50
270.0
 51
297.7467379999998
  0
LINE
  5
EF7C87C34
330
EF7C85532
100
AcDbEntity
  8
JISSEN
100
AcDbLine
 10
290.1842337140159
 20
36.03171496089518
 30
0.0
 11
289.187914714016
 21
36.03171496089518
 31
0.0
  0
LINE
  5
EF7C87C35
330
EF7C85532
100
AcDbEntity
  8
JISSEN
100
AcDbLine
 10
289.141357714016
 20
36.2202169608952
 30
0.0
 11
290.640732714016
 21
37.0089669608952
 31
0.0
  0
ARC
  5
EF7C87C36
330
EF7C85532
100
AcDbEntity
  8
JISSEN
100
AcDbCircle
 10
291.959656714016
 20
37.0539519608952
 30
0.0
 40
1.0
100
AcDbArc
 50
270.0
 51
294.825405
  0
LINE
  5
EF7C87C37
330
EF7C85532
100
AcDbEntity
  8
JISSEN
100
AcDbLine
 10
291.959656714016
 20
36.0539519608952
 30
0.0
 11
291.8859817140161
 21
36.0539519608952
 31
0.0
  0
ARC
  5
EF7C87C38
330
EF7C85532
100
AcDbEntity
  8
JISSEN
100
AcDbCircle
 10
291.8859817140161
 20
36.10395196089516
 30
0.0
 40
0.05
100
AcDbArc
 50
114.825405
 51
270.0
  0
LINE
  5
EF7C87C39
330
EF7C85532
100
AcDbEntity
  8
JISSEN
100
AcDbLine
 10
291.7585587140159
 20
36.80792296089518
 30
0.0
 11
290.370459714016
 21
36.07770996089518
 31
0.0
  0
LINE
  5
EF7C87C3A
330
EF7C85532
100
AcDbEntity
  8
JISSEN
100
AcDbLine
 10
291.864989714016
 20
36.14933096089517
 30
0.0
 11
293.3768487140159
 21
36.84872196089516
 31
0.0
  0
LINE
  5
EF7C87C3B
330
EF7C85532
100
AcDbEntity
  8
JISSEN
100
AcDbLine
 10
293.8464097140159
 20
36.82495196089515
 30
0.0
 11
292.379511714016
 21
36.14635996089518
 31
0.0
  0
LINE
  5
EF7C87C3C
102
{ACAD_REACTORS
330
EF7C87B82
102
}
330
EF7C85532
100
AcDbEntity
  8
JISSEN
100
AcDbLine
 10
297.350082714016
 20
53.82859396089518
 30
0.0
 11
271.000082714016
 21
53.82859396089518
 31
0.0
  0
LINE
  5
EF7C87C3D
330
EF7C85532
100
AcDbEntity
  8
JISSEN
100
AcDbLine
 10
296.1500827140162
 20
45.32859396089517
 30
0.0
 11
281.5949890783725
 21
45.32859396089517
 31
0.0
  0
LINE
  5
EF7C87C3E
330
EF7C85532
100
AcDbEntity
  8
JISSEN
100
AcDbLine
 10
296.1500827140162
 20
46.32859396089517
 30
0.0
 11
281.5949890783725
 21
46.32859396089513
 31
0.0
  0
LINE
  5
EF7C87C40
330
EF7C85532
100
AcDbEntity
  8
JISSEN
100
AcDbLine
 10
272.000082714016
 20
47.3285939608952
 30
0.0
 11
272.000082714016
 21
46.32859396089517
 31
0.0
  0
LINE
  5
EF7C87C41
330
EF7C85532
100
AcDbEntity
  8
JISSEN
100
AcDbLine
 10
270.000082714016
 20
47.3285939608952
 30
0.0
 11
270.000082714016
 21
46.32859396089517
 31
0.0
  0
LINE
  5
EF7C87C42
330
EF7C85532
100
AcDbEntity
  8
JISSEN
100
AcDbLine
 10
261.204135714016
 20
43.5173889608952
 30
0.0
 11
261.4309697140161
 21
37.44824096089522
 31
0.0
  0
LINE
  5
EF7C87C43
330
EF7C85532
100
AcDbEntity
  8
JISSEN
100
AcDbLine
 10
261.629877714016
 20
43.5698929608952
 30
0.0
 11
261.843855714016
 21
37.42505296089514
 31
0.0
  0
LINE
  5
EF7C87C44
330
EF7C85532
100
AcDbEntity
  8
JISSEN
100
AcDbLine
 10
264.258229714016
 20
37.2293179608952
 30
0.0
 11
264.0187777140161
 21
43.63606396089521
 31
0.0
  0
LINE
  5
EF7C87C45
330
EF7C85532
100
AcDbEntity
  8
JISSEN
100
AcDbLine
 10
262.1436737140161
 20
37.13549296089522
 30
0.0
 11
264.277006714016
 21
37.13549296089522
 31
0.0
  0
LINE
  5
EF7C87C46
330
EF7C85532
100
AcDbEntity
  8
JISSEN
100
AcDbLine
 10
270.000082714016
 20
37.13549296089522
 30
0.0
 11
271.000082714016
 21
37.13549296089522
 31
0.0
  0
LINE
  5
EF7C87C47
330
EF7C85532
100
AcDbEntity
  8
JISSEN
100
AcDbLine
 10
272.000082714016
 20
37.13549296089522
 30
0.0
 11
271.000082714016
 21
37.13549296089522
 31
0.0
  0
LINE
  5
EF7C87C48
330
EF7C85532
100
AcDbEntity
  8
JISSEN
100
AcDbLine
 10
263.818916714016
 20
43.82859396089517
 30
0.0
 11
261.503925714016
 21
43.82859396089517
 31
0.0
  0
ARC
  5
EF7C87C49
330
EF7C85532
100
AcDbEntity
  8
JISSEN
100
AcDbCircle
 10
261.503925714016
 20
43.52859396089516
 30
0.0
 40
0.3
100
AcDbArc
 50
90.0
 51
182.1404319999997
  0
ARC
  5
EF7C87C4A
330
EF7C85532
100
AcDbEntity
  8
JISSEN
100
AcDbCircle
 10
261.879725714016
 20
43.57859396089518
 30
0.0
 40
0.25
100
AcDbArc
 50
90.0
 51
181.994368
  0
ARC
  5
EF7C87C4B
330
EF7C85532
100
AcDbEntity
  8
JISSEN
100
AcDbCircle
 10
263.818916714016
 20
43.62859396089517
 30
0.0
 40
0.2
100
AcDbArc
 50
2.140431999999735
 51
90.0
  0
ARC
  5
EF7C87C4C
330
EF7C85532
100
AcDbEntity
  8
JISSEN
100
AcDbCircle
 10
272.000082714016
 20
43.32859396089517
 30
0.0
 40
0.5
100
AcDbArc
 50
0.000000000000007
 51
90.0
  0
ARC
  5
EF7C87C4D
330
EF7C85532
100
AcDbEntity
  8
JISSEN
100
AcDbCircle
 10
270.000082714016
 20
43.32859396089517
 30
0.0
 40
0.5
100
AcDbArc
 50
90.0
 51
180.0
  0
LINE
  5
EF7C87C4E
330
EF7C85532
100
AcDbEntity
  8
JISSEN
100
AcDbLine
 10
271.000082714016
 20
43.82859396089517
 30
0.0
 11
270.000082714016
 21
43.82859396089517
 31
0.0
  0
LINE
  5
EF7C87C4F
330
EF7C85532
100
AcDbEntity
  8
JISSEN
100
AcDbLine
 10
271.000082714016
 20
43.82859396089517
 30
0.0
 11
272.000082714016
 21
43.82859396089517
 31
0.0
  0
ARC
  5
EF7C87C50
330
EF7C85532
100
AcDbEntity
  8
JISSEN
100
AcDbCircle
 10
271.000082714016
 20
46.32859396089517
 30
0.0
 40
1.0
100
AcDbArc
 50
270.0
 51
0.000000000000007
  0
ARC
  5
EF7C87C51
330
EF7C85532
100
AcDbEntity
  8
JISSEN
100
AcDbCircle
 10
271.000082714016
 20
46.32859396089517
 30
0.0
 40
1.0
100
AcDbArc
 50
180.0
 51
270.0
  0
LINE
  5
EF7C87C52
330
EF7C85532
100
AcDbEntity
  8
JISSEN
100
AcDbLine
 10
285.6211037140159
 20
43.64260796089515
 30
0.0
 11
285.177296714016
 21
37.32434196089517
 31
0.0
  0
LINE
  5
EF7C87C55
330
EF7C85532
100
AcDbEntity
  8
JISSEN
100
AcDbLine
 10
287.106322714016
 20
43.50900196089518
 30
0.0
 11
286.713679714016
 21
37.50937096089514
 31
0.0
  0
LINE
  5
EF7C87C56
330
EF7C85532
100
AcDbEntity
  8
JISSEN
100
AcDbLine
 10
287.5019597140159
 20
37.70203896089518
 30
0.0
 11
287.9059937140159
 21
43.45406896089516
 31
0.0
  0
LINE
  5
EF7C87C57
330
EF7C85532
100
AcDbEntity
  8
JISSEN
100
AcDbLine
 10
277.741935714016
 20
37.2293179608952
 30
0.0
 11
277.981387714016
 21
43.63606396089521
 31
0.0
  0
LINE
  5
EF7C87C58
330
EF7C85532
100
AcDbEntity
  8
JISSEN
100
AcDbLine
 10
278.0949890783726
 20
37.13549296089524
 30
0.0
 11
277.723158714016
 21
37.13549296089522
 31
0.0
  0
LINE
  5
EF7C87C59
330
EF7C85532
100
AcDbEntity
  8
JISSEN
100
AcDbLine
 10
286.314533714016
 20
37.13549296089522
 30
0.0
 11
285.114381714016
 21
37.13549296089522
 31
0.0
  0
ARC
  5
EF7C87C5C
330
EF7C85532
100
AcDbEntity
  8
JISSEN
100
AcDbCircle
 10
278.1812487140161
 20
43.62859396089517
 30
0.0
 40
0.2
100
AcDbArc
 50
115.5499740378471
 51
177.8595680000002
  0
ARC
  5
EF7C87C5E
330
EF7C85532
100
AcDbEntity
  8
JISSEN
100
AcDbCircle
 10
286.8069637140159
 20
43.52859396089516
 30
0.0
 40
0.3
100
AcDbArc
 50
356.2556379999997
 51
90.0
  0
ARC
  5
EF7C87C5F
330
EF7C85532
100
AcDbEntity
  8
JISSEN
100
AcDbCircle
 10
287.556854714016
 20
43.47859396089514
 30
0.0
 40
0.35
100
AcDbArc
 50
355.9820309999997
 51
90.0
  0
LINE
  5
EF7C87C60
330
EF7C85532
100
AcDbEntity
  8
JISSEN
100
AcDbLine
 10
287.556854714016
 20
43.82859396089517
 30
0.0
 11
286.8069637140159
 21
43.82859396089517
 31
0.0
  0
ARC
  5
EF7C87C61
330
EF7C85532
100
AcDbEntity
  8
JISSEN
100
AcDbCircle
 10
285.820612714016
 20
43.62859396089517
 30
0.0
 40
0.2
100
AcDbArc
 50
90.0
 51
175.9820309999995
  0
LINE
  5
EF7C87C62
330
EF7C85532
100
AcDbEntity
  8
JISSEN
100
AcDbLine
 10
286.8069637140159
 20
43.82859396089517
 30
0.0
 11
285.820612714016
 21
43.82859396089517
 31
0.0
  0
LINE
  5
EF7C87C6B
330
EF7C85532
100
AcDbEntity
  8
JISSEN
100
AcDbLine
 10
295.468849714016
 20
43.82859396089517
 30
0.0
 11
294.948495714016
 21
37.88091696089518
 31
0.0
  0
LINE
  5
EF7C87C6C
330
EF7C85532
100
AcDbEntity
  8
JISSEN
100
AcDbLine
 10
295.238406714016
 20
43.40802996089515
 30
0.0
 11
294.6505767140159
 21
37.94578096089518
 31
0.0
  0
LINE
  5
EF7C87C6D
330
EF7C85532
100
AcDbEntity
  8
JISSEN
100
AcDbLine
 10
294.123573714016
 20
37.88949196089518
 30
0.0
 11
294.755504714016
 21
43.76152996089516
 31
0.0
  0
LINE
  5
EF7C87C6E
330
EF7C85532
100
AcDbEntity
  8
JISSEN
100
AcDbLine
 10
290.9058917140161
 20
37.40614396089515
 30
0.0
 11
291.4739997140159
 21
43.64672596089515
 31
0.0
  0
LINE
  5
EF7C87C6F
330
EF7C85532
100
AcDbEntity
  8
JISSEN
100
AcDbLine
 10
292.9732447140161
 20
43.39090696089519
 30
0.0
 11
292.4475427140161
 21
37.83596096089516
 31
0.0
  0
LINE
  5
EF7C87C70
330
EF7C85532
100
AcDbEntity
  8
JISSEN
100
AcDbLine
 10
291.9108237140159
 20
43.6110269608952
 30
0.0
 11
291.3800697140159
 21
37.59157696089518
 31
0.0
  0
LINE
  5
EF7C87C71
330
EF7C85532
100
AcDbEntity
  8
JISSEN
100
AcDbLine
 10
295.600082714016
 20
45.32859396089517
 30
0.0
 11
295.468849714016
 21
43.82859396089517
 31
0.0
  0
ARC
  5
EF7C87C72
330
EF7C85532
100
AcDbEntity
  8
JISSEN
100
AcDbCircle
 10
294.854930714016
 20
43.75082996089517
 30
0.0
 40
0.1
100
AcDbArc
 50
92.7179019999998
 51
173.8576429999999
  0
ARC
  5
EF7C87C73
330
EF7C85532
100
AcDbEntity
  8
JISSEN
100
AcDbCircle
 10
294.840703714016
 20
43.45082996089515
 30
0.0
 40
0.4
100
AcDbArc
 50
353.8576429999998
 51
88.64114500000017
  0
ARC
  5
EF7C87C74
330
EF7C85532
100
AcDbEntity
  8
JISSEN
100
AcDbCircle
 10
291.6731767140161
 20
43.62859396089517
 30
0.0
 40
0.2
100
AcDbArc
 50
90.0
 51
174.7984409999996
  0
LINE
  5
EF7C87C75
330
EF7C85532
100
AcDbEntity
  8
JISSEN
100
AcDbLine
 10
291.6731767140161
 20
43.82859396089517
 30
0.0
 11
292.575023714016
 21
43.82859396089517
 31
0.0
  0
ARC
  5
EF7C87C76
330
EF7C85532
100
AcDbEntity
  8
JISSEN
100
AcDbCircle
 10
292.575023714016
 20
43.4285939608952
 30
0.0
 40
0.4
100
AcDbArc
 50
354.5938149999996
 51
90.0
  0
ARC
  5
EF7C87C77
330
EF7C85532
100
AcDbEntity
  8
JISSEN
100
AcDbCircle
 10
291.711596714016
 20
43.62859396089517
 30
0.0
 40
0.2
100
AcDbArc
 50
354.9610729999998
 51
90.0
  0
LINE
  5
EF7C87C78
330
EF7C85532
100
AcDbEntity
  8
JISSEN
100
AcDbLine
 10
296.1500827140162
 20
45.32859396089517
 30
0.0
 11
295.600082714016
 21
45.32859396089517
 31
0.0
  0
LINE
  5
EF7C87C7B
102
{ACAD_REACTORS
330
EF7C87B82
102
}
330
EF7C85532
100
AcDbEntity
  8
JISSEN
100
AcDbLine
 10
288.500082714016
 20
58.82859396089518
 30
0.0
 11
288.500082714016
 21
53.82859396089521
 31
0.0
  0
LWPOLYLINE
  5
EF7C87C7C
330
EF7C85532
100
AcDbEntity
  8
NITEN
100
AcDbPolyline
 90
       15
 70
     1
 43
0.0
 10
256.9999992759999
 20
61.4391428666226
 42
0.4142135623730927
 10
258.4999992759999
 20
59.9391428666226
 10
281.5940504469965
 20
59.9391428666226
 10
283.4999992759999
 20
59.9391428666226
 42
0.4142135623730925
 10
284.9999992759999
 20
61.4391428666226
 10
284.9999992759999
 20
72.48515889284057
 42
-0.4142135623730943
 10
289.9999992759999
 20
77.48515889284057
 42
0.4142135623730951
 10
291.9999992759999
 20
79.48515889284057
 10
291.9999992759998
 20
99.9391428666226
 42
0.4142135623730949
 10
289.9999992759999
 20
101.9391428666226
 10
251.9999992759999
 20
101.9391428666226
 42
0.4142135623730951
 10
249.9999992759999
 20
99.9391428666226
 10
249.9999992759999
 20
79.48515889284057
 42
0.4142135623730951
 10
251.9999992759999
 20
77.48515889284057
 42
-0.4142135623730961
 10
256.9999992759999
 20
72.48515889284057
  0
TEXT
  5
EF7C87C85
330
EF7C85532
100
AcDbEntity
  8
TEXT
100
AcDbText
 10
283.4085699805713
 20
272.642857142857
 30
0.0
 40
3.0
  1
MFQR   型ヘッド
 41
0.9
  7
K
 72
     4
 11
297.4999985519999
 21
273.9999999999999
 31
0.0
100
AcDbText
  0
TEXT
  5
EF7C87C86
330
EF7C85532
100
AcDbEntity
  8
TEXT
100
AcDbText
 10
276.2857128377141
 20
272.4999999999999
 30
0.0
 40
3.0
  1
1
  7
K
 72
     4
 11
277.4999985519999
 21
273.9999999999999
 31
0.0
100
AcDbText
  0
LINE
  5
EF7C87C87
330
EF7C85532
100
AcDbEntity
  8
JISSEN
100
AcDbLine
 10
312.4999985519999
 20
282.9999999999998
 30
0.0
 11
312.4999985519999
 21
264.9999999999999
 31
0.0
  0
LINE
  5
EF7C87C88
330
EF7C85532
100
AcDbEntity
  8
JISSEN
100
AcDbLine
 10
282.4999985519998
 20
282.9999999999998
 30
0.0
 11
282.4999985519998
 21
264.9999999999999
 31
0.0
  0
LINE
  5
EF7C87C89
330
EF7C85532
100
AcDbEntity
  8
JISSEN
100
AcDbLine
 10
272.4999985519999
 20
264.9999999999999
 30
0.0
 11
272.4999985519999
 21
282.9999999999998
 31
0.0
  0
LWPOLYLINE
  5
EF7C87C8A
330
EF7C85532
100
AcDbEntity
  8
NITEN
100
AcDbPolyline
 90
        2
 70
     0
 43
0.0
 10
287.9999992760001
 20
122.7768605177683
 42
0.5882352941176295
 10
270.9999992759999
 20
122.7768605177687
 42
0.5882352941176295
  0
TEXT
  5
EF7C87C8B
330
EF7C85532
100
AcDbEntity
  8
TEXT
100
AcDbText
 10
285.6714271234285
 20
266.4999999999999
 30
0.0
 40
3.0
  1
ガード MFJ   
 41
0.9
  7
K
 72
     4
 11
297.4999985519999
 21
267.9999999999999
 31
0.0
100
AcDbText
  0
TEXT
  5
EF7C87C8C
330
EF7C85532
100
AcDbEntity
  8
TEXT
100
AcDbText
 10
276.3830709575342
 20
266.4999999999999
 30
0.0
 40
3.0
  1
2
  7
K
 72
     4
 11
277.8116423861056
 21
267.9999999999999
 31
0.0
100
AcDbText
  0
LINE
  5
EF7C87C8D
330
EF7C85532
100
AcDbEntity
  8
TEXT
100
AcDbLine
 10
295.0188292871211
 20
272.6422245102613
 30
0.0
 11
296.8188292871209
 21
272.6422245102613
 31
0.0
  0
TEXT
  5
EF7C87C8E
330
EF7C85532
100
AcDbEntity
  8
TEXT
100
AcDbText
 10
274.2999985519999
 20
278.4999999999999
 30
0.0
 40
3.0
  1
番号
  7
K
 72
     4
 11
277.4999985519999
 21
279.9999999999999
 31
0.0
100
AcDbText
  0
TEXT
  5
EF7C87C8F
330
EF7C85532
100
AcDbEntity
  8
TEXT
100
AcDbText
 10
288.8999985519999
 20
278.4999999999999
 30
0.0
 40
3.0
  1
名      称
  7
K
 72
     4
 11
297.4999985519999
 21
279.9999999999999
 31
0.0
100
AcDbText
  0
LINE
  5
EF7C87C90
330
EF7C85532
100
AcDbEntity
  8
TEXT
100
AcDbLine
 10
295.0188292871211
 20
275.6422245102613
 30
0.0
 11
296.8188292871209
 21
275.6422245102613
 31
0.0
  0
LWPOLYLINE
  5
EF7C87C97
102
{ACAD_REACTORS
330
EF7C87B82
102
}
330
EF7C85532
100
AcDbEntity
  8
HATCH
100
AcDbPolyline
 90
       13
 70
     0
 43
0.0
 10
339.7336682651255
 20
58.82859396089521
 10
339.5690810868756
 20
58.00895688266314
 10
339.4271757301952
 20
57.49233890589885
 10
339.1994670930472
 20
57.07391261921106
 10
338.8915796063881
 20
56.73579559554411
 10
338.5253563174086
 20
56.44554452289401
 10
338.1226402732998
 20
56.17071608925654
 10
337.7052745212529
 20
55.87886698262753
 10
337.2951021084592
 20
55.5375538910028
 10
336.9139660821093
 20
55.11433350237843
 10
336.5837094893949
 20
54.57676250475015
 10
336.3091294261921
 20
53.91314371746267
 10
336.2759052316956
 20
53.82859396089521
  0
TEXT
  5
EF7C87C98
330
EF7C85532
100
AcDbEntity
  8
TEXT
100
AcDbText
 10
337.6795470384091
 20
272.4999999999999
 30
0.0
 40
3.0
  1
1
  7
K
 72
     4
 11
338.8938327526949
 21
273.9999999999999
 31
0.0
100
AcDbText
  0
LINE
  5
EF7C87C99
330
EF7C85532
100
AcDbEntity
  8
JISSEN
100
AcDbLine
 10
344.4999985519999
 20
282.9999999999998
 30
0.0
 11
344.4999985519999
 21
264.9999999999999
 31
0.0
  0
LINE
  5
EF7C87C9A
330
EF7C85532
100
AcDbEntity
  8
JISSEN
100
AcDbLine
 10
333.4999985519999
 20
264.9999999999999
 30
0.0
 11
333.4999985519999
 21
282.9999999999998
 31
0.0
  0
TEXT
  5
EF7C87C9B
330
EF7C85532
100
AcDbEntity
  8
TEXT
100
AcDbText
 10
318.8571414091427
 20
266.4999999999999
 30
0.0
 40
3.0
  1
ADC
  7
K
 72
     4
 11
322.9999985519999
 21
267.9999999999999
 31
0.0
100
AcDbText
  0
TEXT
  5
EF7C87C9C
330
EF7C85532
100
AcDbEntity
  8
TEXT
100
AcDbText
 10
317.8249985519999
 20
274.2999999999999
 30
0.0
 40
3.0
  1
%%u      
  7
K
 72
     4
 11
322.9999985519999
 21
273.9999999999999
 31
0.0
100
AcDbText
  0
TEXT
  5
EF7C87C9D
330
EF7C85532
100
AcDbEntity
  8
TEXT
100
AcDbText
 10
337.6795470384091
 20
266.580835176341
 30
0.0
 40
3.0
  1
1
  7
K
 72
     4
 11
338.8938327526949
 21
268.0808351763409
 31
0.0
100
AcDbText
  0
TEXT
  5
EF7C87C9E
330
EF7C85532
100
AcDbEntity
  8
TEXT
100
AcDbText
 10
335.7999985519999
 20
278.4999999999999
 30
0.0
 40
3.0
  1
個数
  7
K
 72
     4
 11
338.9999985519999
 21
279.9999999999999
 31
0.0
100
AcDbText
  0
TEXT
  5
EF7C87C9F
330
EF7C85532
100
AcDbEntity
  8
TEXT
100
AcDbText
 10
346.6999985519998
 20
278.4999999999999
 30
0.0
 40
3.0
  1
備    考
  7
K
 72
     4
 11
353.4999985519998
 21
279.9999999999999
 31
0.0
100
AcDbText
  0
LINE
  5
EF7C87CFB
330
EF7C85532
100
AcDbEntity
  8
JISSEN
100
AcDbLine
 10
294.7506351697666
 20
30.38003001505348
 30
0.0
 11
286.8661992375333
 21
20.96247743737774
 31
0.0
  0
LINE
  5
EF7C87CFC
330
EF7C85532
100
AcDbEntity
  8
JISSEN
100
AcDbLine
 10
297.9594915378151
 20
30.04850454993155
 30
0.0
 11
288.6339661904994
 21
19.19471048441201
 31
0.0
  0
LINE
  5
EF7C87CFF
330
EF7C85532
100
AcDbEntity
  8
JISSEN
100
AcDbLine
 10
239.3500827140162
 20
47.3285939608952
 30
0.0
 11
296.1500827140162
 21
47.32859396089522
 31
0.0
  0
LINE
  5
EF7C87D00
330
EF7C85532
100
AcDbEntity
  8
JISSEN
100
AcDbLine
 10
299.6500827140162
 20
53.82859396089521
 30
0.0
 11
239.3500827140162
 21
53.82859396089521
 31
0.0
  0
LINE
  5
EF7C87D09
330
EF7C85532
100
AcDbEntity
  8
JISSEN
100
AcDbLine
 10
257.7642157024513
 20
21.32859396089588
 30
0.0
 11
251.6139260091083
 21
29.66838083413333
 31
0.0
  0
LINE
  5
EF7C87D0A
330
EF7C85532
100
AcDbEntity
  8
JISSEN
100
AcDbLine
 10
255.129231182618
 20
20.12082664848966
 30
0.0
 11
248.4025129782903
 21
29.36193967673364
 31
0.0
  0
LINE
  5
EF7C87D0B
330
EF7C85532
100
AcDbEntity
  8
JISSEN
100
AcDbLine
 10
287.7500827140161
 20
18.8285939608952
 30
0.0
 11
254.2500827140162
 21
18.8285939608952
 31
0.0
  0
ARC
  5
EF7C87D0C
330
EF7C85532
100
AcDbEntity
  8
JISSEN
100
AcDbCircle
 10
254.2500827140162
 20
20.0785939608952
 30
0.0
 40
1.25
100
AcDbArc
 50
90.0
 51
270.0
  0
LINE
  5
EF7C87D0F
330
EF7C85532
100
AcDbEntity
  8
SAISEN
100
AcDbLine
 10
236.907817740933
 20
48.97859396089521
 30
0.0
 11
239.3500827140162
 21
48.97859396089518
 31
0.0
  0
LINE
  5
EF7C87D10
330
EF7C85532
100
AcDbEntity
  8
SAISEN
100
AcDbLine
 10
239.3500827140162
 20
52.1785939608952
 30
0.0
 11
236.9078177409346
 21
52.1785939608952
 31
0.0
  0
LINE
  5
EF7C87D15
330
EF7C85532
100
AcDbEntity
  8
JISSEN
100
AcDbLine
 10
236.8500827140162
 20
49.07859396089161
 30
0.0
 11
237.1387578486089
 21
48.5785939608952
 31
0.0
  0
LINE
  5
EF7C87D16
330
EF7C85532
100
AcDbEntity
  8
JISSEN
100
AcDbLine
 10
236.8500827140162
 20
52.07859396089521
 30
0.0
 11
237.1387578486089
 21
52.57859396089521
 31
0.0
  0
LINE
  5
EF7C87D19
330
EF7C85532
100
AcDbEntity
  8
JISSEN
100
AcDbLine
 10
236.8500827140162
 20
52.07859396089521
 30
0.0
 11
236.8500827140162
 21
49.0785939608952
 31
0.0
  0
LINE
  5
EF7C87D1A
330
EF7C85532
100
AcDbEntity
  8
JISSEN
100
AcDbLine
 10
242.6100827140162
 20
53.82859396089521
 30
0.0
 11
242.6100827140162
 21
47.3285939608952
 31
0.0
  0
LINE
  5
EF7C87D1B
330
EF7C85532
100
AcDbEntity
  8
JISSEN
100
AcDbLine
 10
237.1387578486089
 20
52.57859396089521
 30
0.0
 11
237.1387578486089
 21
48.5785939608952
 31
0.0
  0
LINE
  5
EF7C87D1E
330
EF7C85532
100
AcDbEntity
  8
JISSEN
100
AcDbLine
 10
239.3500827140162
 20
53.82859396089521
 30
0.0
 11
239.3500827140162
 21
47.3285939608952
 31
0.0
  0
ARC
  5
EF7C87D20
330
EF7C85532
100
AcDbEntity
  8
JISSEN
100
AcDbCircle
 10
254.0938172248341
 20
34.98413284072865
 30
0.0
 40
8.0
100
AcDbArc
 50
180.0
 51
224.6499999999993
  0
LINE
  5
EF7C87D22
330
EF7C85532
100
AcDbEntity
  8
JISSEN
100
AcDbLine
 10
237.1387578486089
 20
48.5785939608952
 30
0.0
 11
239.3500827140162
 21
48.5785939608952
 31
0.0
  0
LINE
  5
EF7C87D23
330
EF7C85532
100
AcDbEntity
  8
JISSEN
100
AcDbLine
 10
249.5938172248341
 20
47.3285939608952
 30
0.0
 11
249.5938172248341
 21
34.58779985262896
 31
0.0
  0
LINE
  5
EF7C87D24
330
EF7C85532
100
AcDbEntity
  8
JISSEN
100
AcDbLine
 10
246.093817224834
 20
47.3285939608952
 30
0.0
 11
246.093817224834
 21
34.98413284072865
 31
0.0
  0
ARC
  5
EF7C87D25
330
EF7C85532
100
AcDbEntity
  8
JISSEN
100
AcDbCircle
 10
256.593817224834
 20
34.58779985262896
 30
0.0
 40
7.0
100
AcDbArc
 50
180.0
 51
224.6499999999993
  0
LINE
  5
EF7C87D2A
330
EF7C85532
100
AcDbEntity
  8
JISSEN
100
AcDbLine
 10
244.3500827140161
 20
53.82859396089521
 30
0.0
 11
239.3500827140162
 21
53.82859396089521
 31
0.0
  0
LINE
  5
EF7C87D2B
330
EF7C85532
100
AcDbEntity
  8
JISSEN
100
AcDbLine
 10
239.3500827140162
 20
52.57859396089521
 30
0.0
 11
237.1387578486089
 21
52.57859396089521
 31
0.0
  0
LINE
  5
EF7C87D2E
330
EF7C85532
100
AcDbEntity
  8
JISSEN
100
AcDbLine
 10
274.5903115674523
 20
21.32859396089514
 30
0.0
 11
277.297954196339
 21
28.38224416450628
 31
0.0
  0
LINE
  5
EF7C87D2F
330
EF7C85532
100
AcDbEntity
  8
JISSEN
100
AcDbLine
 10
280.9307933433446
 20
30.87004342609878
 30
0.0
 11
277.2681740515449
 21
21.32859396089514
 31
0.0
  0
LINE
  5
EF7C87D30
330
EF7C85532
100
AcDbEntity
  8
JISSEN
100
AcDbLine
 10
287.1727143591211
 20
21.3285939608952
 30
0.0
 11
257.7642157024513
 21
21.32859396089585
 31
0.0
  0
ARC
  5
EF7C87D32
330
EF7C85532
100
AcDbEntity
  8
JISSEN
100
AcDbCircle
 10
256.4093774713214
 20
20.80618796600564
 30
0.0
 40
1.452065651418106
100
AcDbArc
 50
208.1635875388365
 51
21.08591664036369
  0
LINE
  5
EF7C87D39
330
EF7C85532
100
AcDbEntity
  8
JISSEN
100
AcDbLine
 10
277.2681740515449
 20
21.32859396089514
 30
0.0
 11
274.5903115674523
 21
21.32859396089514
 31
0.0
  0
ARC
  5
EF7C87D3A
330
EF7C85532
100
AcDbEntity
  8
JISSEN
100
AcDbCircle
 10
287.7500827140161
 20
20.0785939608952
 30
0.0
 40
1.25
100
AcDbArc
 50
135.0000000000046
 51
315.0
  0
LINE
  5
EF7C87D3D
330
EF7C85532
100
AcDbEntity
  8
JISSEN
100
AcDbLine
 10
278.0949890783726
 20
32.68265955904991
 30
0.0
 11
278.0949890783726
 21
47.3285939608952
 31
0.0
  0
ARC
  5
EF7C87D3E
330
EF7C85532
100
AcDbEntity
  8
JISSEN
100
AcDbCircle
 10
266.0949890783725
 20
32.68265955904991
 30
0.0
 40
12.0
100
AcDbArc
 50
338.9999999999993
 51
0.0
  0
LINE
  5
EF7C87D3F
330
EF7C85532
100
AcDbEntity
  8
JISSEN
100
AcDbLine
 10
281.5949890783725
 20
47.3285939608952
 30
0.0
 11
281.5949890783725
 21
34.45372292155179
 31
0.0
  0
ARC
  5
EF7C87D40
330
EF7C85532
100
AcDbEntity
  8
JISSEN
100
AcDbCircle
 10
271.5949890783725
 20
34.45372292155179
 30
0.0
 40
10.0
100
AcDbArc
 50
338.9999999999993
 51
0.0
  0
LINE
  5
EF7C87D46
330
EF7C85532
100
AcDbEntity
  8
JISSEN
100
AcDbLine
 10
299.6500827140162
 20
53.82859396089521
 30
0.0
 11
299.6500827140162
 21
34.61032194454139
 31
0.0
  0
ARC
  5
EF7C87D47
330
EF7C85532
100
AcDbEntity
  8
JISSEN
100
AcDbCircle
 10
292.6500827140161
 20
34.61032194454139
 30
0.0
 40
7.0
100
AcDbArc
 50
315.0
 51
0.0
  0
LINE
  5
EF7C87D48
330
EF7C85532
100
AcDbEntity
  8
JISSEN
100
AcDbLine
 10
296.1500827140162
 20
34.23164228810071
 30
0.0
 11
296.1500827140162
 21
53.82859396089518
 31
0.0
  0
ARC
  5
EF7C87D49
330
EF7C85532
100
AcDbEntity
  8
JISSEN
100
AcDbCircle
 10
290.1500827140162
 20
34.23164228810071
 30
0.0
 40
6.0
100
AcDbArc
 50
315.0000000000046
 51
0.0
  0
LINE
  5
EF7C87DE1
330
EF7C85532
100
AcDbEntity
  8
JISSEN
100
AcDbLine
 10
244.5000827140161
 20
47.32859396089518
 30
0.0
 11
244.5000827140161
 21
46.32859396089517
 31
0.0
  0
LINE
  5
EF7C87DE2
330
EF7C85532
100
AcDbEntity
  8
JISSEN
100
AcDbLine
 10
278.0949890783726
 20
46.32859396089517
 30
0.0
 11
272.000082714016
 21
46.32859396089517
 31
0.0
  0
LINE
  5
EF7C87DE3
330
EF7C85532
100
AcDbEntity
  8
JISSEN
100
AcDbLine
 10
278.0949890783726
 20
45.32859396089517
 30
0.0
 11
271.000082714016
 21
45.32859396089517
 31
0.0
  0
LINE
  5
EF7C87DE4
330
EF7C85532
100
AcDbEntity
  8
JISSEN
100
AcDbLine
 10
281.4008258477645
 20
32.49271163855573
 30
0.0
 11
285.5292857306178
 21
32.49271163855567
 31
0.0
1001
ACAD
1000
ASC_BOUNDS
1002
{
1070
    19
1002
}
  0
LINE
  5
EF7C87DE5
330
EF7C85532
100
AcDbEntity
  8
JISSEN
100
AcDbLine
 10
280.8819152495901
 20
30.74271163855613
 30
0.0
 11
283.550082714016
 21
30.74271163855623
 31
0.0
1001
ACAD
1000
ASC_BOUNDS
1002
{
1070
    19
1002
}
  0
LINE
  5
EF7C87DE7
330
EF7C85532
100
AcDbEntity
  8
JISSEN
100
AcDbLine
 10
277.5846980553865
 20
29.22049439494784
 30
0.0
 11
271.000082714016
 21
29.22049439494782
 31
0.0
1001
ACAD
1000
ASC_BOUNDS
1002
{
1070
    19
1002
}
  0
LINE
  5
EF7C87DE8
330
EF7C85532
100
AcDbEntity
  8
JISSEN
100
AcDbLine
 10
276.751466941498
 20
26.95859619292557
 30
0.0
 11
271.000082714016
 21
26.95859619292557
 31
0.0
  0
LINE
  5
EF7C87DE9
330
EF7C85532
100
AcDbEntity
  8
JISSEN
100
AcDbLine
 10
275.9691129615132
 20
24.92049439494783
 30
0.0
 11
271.000082714016
 21
24.92049439494783
 31
0.0
1001
ACAD
1000
ASC_BOUNDS
1002
{
1070
    19
1002
}
  0
LINE
  5
EF7C87DEA
330
EF7C85532
100
AcDbEntity
  8
SAISEN
100
AcDbLine
 10
277.9004527925583
 20
22.97573639494783
 30
0.0
 11
280.268008714016
 21
22.97573639494785
 31
0.0
  0
LINE
  5
EF7C87DEB
330
EF7C85532
100
AcDbEntity
  8
JISSEN
100
AcDbLine
 10
249.5938172248341
 20
46.32859396089517
 30
0.0
 11
270.000082714016
 21
46.32859396089517
 31
0.0
  0
LINE
  5
EF7C87DEC
330
EF7C85532
100
AcDbEntity
  8
JISSEN
100
AcDbLine
 10
249.5938172248341
 20
45.32859396089517
 30
0.0
 11
271.000082714016
 21
45.32859396089517
 31
0.0
  0
LINE
  5
EF7C87DED
330
EF7C85532
100
AcDbEntity
  8
SUNPOU
100
AcDbLine
 10
299.6500827140162
 20
44.21945795271832
 30
0.0
 11
324.2798251640987
 21
25.20257224334071
 31
0.0
  0
LINE
  5
EF7C87DEE
330
EF7C85532
100
AcDbEntity
  8
SUNPOU
100
AcDbLine
 10
289.7919870352367
 20
34.49695960941089
 30
0.0
 11
304.0530171911068
 21
24.88834333592348
 31
0.0
  0
TEXT
  5
EF7C87DEF
330
EF7C85532
100
AcDbEntity
  8
SUNPOU
100
AcDbText
 10
307.2075231711619
 20
19.28572117717192
 30
0.0
 40
4.5
  1
1
  7
K
 72
     4
 11
309.0289517425905
 21
21.53572117717192
 31
0.0
100
AcDbText
  0
CIRCLE
  5
EF7C87DF0
330
EF7C85532
100
AcDbEntity
  8
SUNPOU
100
AcDbCircle
 10
309.0289517425905
 20
21.53572117717192
 30
0.0
 40
6.0
  0
INSERT
  5
EF7C87DF1
330
EF7C85532
100
AcDbEntity
  8
SUNPOU
100
AcDbBlockReference
  2
ARROW
 10
289.7919870352367
 20
34.49695960941089
 30
0.0
 41
1.499999999999995
 42
1.5
 43
1.5
 50
146.0291974830132
  0
TEXT
  5
EF7C87DF2
330
EF7C85532
100
AcDbEntity
  8
SUNPOU
100
AcDbText
 10
326.8860945997332
 20
19.28572117717192
 30
0.0
 40
4.5
  1
2
  7
K
 72
     4
 11
329.0289517425903
 21
21.53572117717192
 31
0.0
100
AcDbText
  0
CIRCLE
  5
EF7C87DF3
330
EF7C85532
100
AcDbEntity
  8
SUNPOU
100
AcDbCircle
 10
329.0289517425903
 20
21.53572117717192
 30
0.0
 40
6.0
  0
INSERT
  5
EF7C87DF4
330
EF7C85532
100
AcDbEntity
  8
SUNPOU
100
AcDbBlockReference
  2
ARROW
 10
299.6500827140162
 20
44.21945795271829
 30
0.0
 41
1.499999999999995
 42
1.5
 43
1.5
 50
142.3278883834794
  0
LINE
  5
EF7C8823A
330
EF7C85532
100
AcDbEntity
  8
WAKU
100
AcDbLine
 10
542.9999982988986
 20
141.4999999999999
 30
0.0
 11
361.9999987874493
 21
141.4999999999999
 31
0.0
  0
HATCH
  5
EF7C8834E
330
EF7C85532
100
AcDbEntity
  8
HATCH
100
AcDbHatch
 10
0.0
 20
0.0
 30
0.0
210
0.0
220
0.0
230
1.0
  2
_U
 70
     0
 71
     1
 91
        2
 92
        7
 72
     0
 73
     1
 93
       16
 10
469.5000822254653
 20
188.3285939608951
 10
469.5000822254654
 20
183.3285939608951
 10
478.3500822254652
 20
183.328593960895
 10
517.2759047431449
 20
183.328593960895
 10
517.3091289376408
 20
183.4131437174614
 10
517.5837090008443
 20
184.0767625047498
 10
517.9139655935586
 20
184.6143335023783
 10
518.2951016199086
 20
185.0375538910028
 10
518.7052740327017
 20
185.3788669826272
 10
519.1226397847487
 20
185.6707160892558
 10
519.5253558288583
 20
185.945544522894
 10
519.8915791178371
 20
186.2357955955438
 10
520.199466604497
 20
186.573912619211
 10
520.4271752416445
 20
186.9923389058991
 10
520.5690805983251
 20
187.5089568826624
 10
520.7336677765747
 20
188.3285939608951
 97
        5
330
EF7C8844A
330
EF7C88368
330
EF7C8836B
330
EF7C88373
330
EF7C88369
 92
        7
 72
     0
 73
     1
 93
       15
 10
383.2663297983238
 20
188.328593960895
 10
383.4309169765741
 20
187.5089568826628
 10
383.5728223332541
 20
186.9923389058989
 10
383.800530970402
 20
186.5739126192107
 10
384.1084184570611
 20
186.2357955955442
 10
384.4746417460405
 20
185.945544522894
 10
384.8773577901452
 20
185.6707160892602
 10
385.2947235421958
 20
185.3788669826272
 10
385.7048959549901
 20
185.0375538910025
 10
386.0860319813399
 20
184.6143335023782
 10
386.4162885740543
 20
184.0767625047497
 10
386.6908686372586
 20
183.4131437174628
 10
386.7240928317538
 20
183.328593960895
 10
434.5000822254653
 20
183.328593960895
 10
434.5000822254653
 20
188.3285939608951
 97
        4
330
EF7C88356
330
EF7C88358
330
EF7C88357
330
EF7C8836A
 75
     0
 76
     0
 52
45.0
 41
2.0
 77
     0
 78
     1
 53
45.0
 43
361.9999987874493
 44
2.999999800342606
 45
-1.414213562373094
 46
1.414213562373094
 79
     0
 47
0.2346837798524018
 98
        2
 10
479.2263862772937
 20
186.1842257965506
 10
428.258580983638
 20
186.8882768503218
  0
LINE
  5
EF7C8834F
330
EF7C85532
100
AcDbEntity
  8
JISSEN
100
AcDbLine
 10
425.6500822254653
 20
183.328593960895
 30
0.0
 11
452.0000822254655
 21
183.328593960895
 31
0.0
  0
LINE
  5
EF7C88350
330
EF7C85532
100
AcDbEntity
  8
JISSEN
100
AcDbLine
 10
426.5000822254654
 20
174.828593960895
 30
0.0
 11
452.0000822254655
 21
174.828593960895
 31
0.0
  0
LINE
  5
EF7C88351
330
EF7C85532
100
AcDbEntity
  8
JISSEN
100
AcDbLine
 10
425.5000822254654
 20
175.828593960895
 30
0.0
 11
451.0000822254654
 21
175.828593960895
 31
0.0
  0
LINE
  5
EF7C88352
330
EF7C85532
100
AcDbEntity
  8
JISSEN
100
AcDbLine
 10
451.0000822254654
 20
182.828593960895
 30
0.0
 11
425.5000822254654
 21
182.828593960895
 31
0.0
  0
LINE
  5
EF7C88353
330
EF7C85532
100
AcDbEntity
  8
JISSEN
100
AcDbLine
 10
431.1351752254654
 20
165.6493309608951
 30
0.0
 11
429.6233162254655
 21
166.348721960895
 31
0.0
  0
LINE
  5
EF7C88354
330
EF7C85532
100
AcDbEntity
  8
JISSEN
100
AcDbLine
 10
429.1537552254655
 20
166.3249519608951
 30
0.0
 11
430.6206532254654
 21
165.646359960895
 31
0.0
  0
LINE
  5
EF7C88355
330
EF7C85532
100
AcDbEntity
  8
JISSEN
100
AcDbLine
 10
437.4708792088636
 20
161.9927116385555
 30
0.0
 11
428.9454765996261
 21
166.001207580266
 31
0.0
1001
ACAD
1000
ASC_BOUNDS
1002
{
1070
    19
1002
}
  0
LINE
  5
EF7C88356
102
{ACAD_REACTORS
330
EF7C8834E
102
}
330
EF7C85532
100
AcDbEntity
  8
JISSEN
100
AcDbLine
 10
383.2663297983239
 20
188.3285939608951
 30
0.0
 11
441.371324718548
 21
188.3285939608951
 31
0.0
  0
LINE
  5
EF7C88357
102
{ACAD_REACTORS
330
EF7C8834E
102
}
330
EF7C85532
100
AcDbEntity
  8
JISSEN
100
AcDbLine
 10
441.4025763085166
 20
183.328593960895
 30
0.0
 11
386.7240928317538
 21
183.328593960895
 31
0.0
  0
LWPOLYLINE
  5
EF7C88358
102
{ACAD_REACTORS
330
EF7C8834E
102
}
330
EF7C85532
100
AcDbEntity
  8
HATCH
100
AcDbPolyline
 90
       13
 70
     0
 43
0.0
 10
383.2663297983239
 20
188.3285939608951
 10
383.4309169765738
 20
187.508956882663
 10
383.5728223332543
 20
186.9923389058988
 10
383.800530970402
 20
186.573912619211
 10
384.1084184570613
 20
186.235795595544
 10
384.4746417460409
 20
185.9455445228938
 10
384.8773577901496
 20
185.6707160892563
 10
385.2947235421963
 20
185.3788669826274
 10
385.7048959549903
 20
185.0375538910027
 10
386.0860319813399
 20
184.6143335023783
 10
386.4162885740544
 20
184.0767625047499
 10
386.6908686372571
 20
183.4131437174626
 10
386.7240928317538
 20
183.328593960895
  0
LINE
  5
EF7C88359
330
EF7C85532
100
AcDbEntity
  8
JISSEN
100
AcDbLine
 10
427.4000822254653
 20
174.828593960895
 30
0.0
 11
427.5313152254653
 21
173.3285939608951
 31
0.0
  0
LINE
  5
EF7C8835A
330
EF7C85532
100
AcDbEntity
  8
JISSEN
100
AcDbLine
 10
427.5313152254653
 20
173.3285939608951
 30
0.0
 11
428.0516692254654
 21
167.3809169608951
 31
0.0
  0
LINE
  5
EF7C8835B
330
EF7C85532
100
AcDbEntity
  8
JISSEN
100
AcDbLine
 10
427.7617582254653
 20
172.908029960895
 30
0.0
 11
428.3495882254653
 21
167.445780960895
 31
0.0
  0
LINE
  5
EF7C8835C
330
EF7C85532
100
AcDbEntity
  8
JISSEN
100
AcDbLine
 10
428.8765912254652
 20
167.389491960895
 30
0.0
 11
428.2446602254654
 21
173.261529960895
 31
0.0
  0
ARC
  5
EF7C8835D
330
EF7C85532
100
AcDbEntity
  8
JISSEN
100
AcDbCircle
 10
429.7415512254653
 20
167.595579960895
 30
0.0
 40
1.399999999999999
100
AcDbArc
 50
186.1423570000001
 51
245.1745949999998
  0
ARC
  5
EF7C8835E
330
EF7C85532
100
AcDbEntity
  8
JISSEN
100
AcDbCircle
 10
430.1691272254654
 20
167.528590960895
 30
0.0
 40
1.3
100
AcDbArc
 50
186.1423570000001
 51
245.1745949999998
  0
ARC
  5
EF7C8835F
330
EF7C85532
100
AcDbEntity
  8
JISSEN
100
AcDbCircle
 10
429.5459615550027
 20
167.3757685350316
 30
0.0
 40
1.5
100
AcDbArc
 50
184.9999999999998
 51
249.9999999999999
  0
ARC
  5
EF7C88360
330
EF7C85532
100
AcDbEntity
  8
JISSEN
100
AcDbCircle
 10
428.1452342254653
 20
173.250829960895
 30
0.0
 40
0.1
100
AcDbArc
 50
6.142357000000093
 51
87.28209800000021
  0
ARC
  5
EF7C88361
330
EF7C85532
100
AcDbEntity
  8
JISSEN
100
AcDbCircle
 10
428.1594612254654
 20
172.950829960895
 30
0.0
 40
0.4
100
AcDbArc
 50
91.35885499999986
 51
186.1423570000001
  0
LINE
  5
EF7C88362
330
EF7C85532
100
AcDbEntity
  8
JISSEN
100
AcDbLine
 10
425.5000822254654
 20
183.178593960895
 30
0.0
 11
425.5000822254654
 21
175.828593960895
 31
0.0
  0
LINE
  5
EF7C88363
330
EF7C85532
100
AcDbEntity
  8
JISSEN
100
AcDbLine
 10
425.5000822254654
 20
175.828593960895
 30
0.0
 11
426.5000822254654
 21
174.828593960895
 31
0.0
  0
LINE
  5
EF7C88364
330
EF7C85532
100
AcDbEntity
  8
JISSEN
100
AcDbLine
 10
426.5000822254654
 20
174.828593960895
 30
0.0
 11
427.4000822254653
 21
174.828593960895
 31
0.0
  0
LINE
  5
EF7C88365
330
EF7C85532
100
AcDbEntity
  8
JISSEN
100
AcDbLine
 10
425.5000822254654
 20
183.178593960895
 30
0.0
 11
425.6500822254653
 21
183.328593960895
 31
0.0
  0
LWPOLYLINE
  5
EF7C88366
330
EF7C85532
100
AcDbEntity
  8
NITEN
100
AcDbPolyline
 90
       15
 70
     1
 43
0.0
 10
437.9999987874493
 20
190.9391428666225
 42
0.4142135623730927
 10
439.4999987874491
 20
189.4391428666225
 10
462.5940499584459
 20
189.4391428666225
 10
464.4999987874493
 20
189.4391428666225
 42
0.4142135623730925
 10
465.9999987874493
 20
190.9391428666225
 10
465.9999987874493
 20
201.9851588928405
 42
-0.4142135623730943
 10
470.9999987874493
 20
206.9851588928405
 42
0.4142135623730951
 10
472.9999987874493
 20
208.9851588928405
 10
472.9999987874491
 20
229.4391428666225
 42
0.4142135623730949
 10
470.9999987874493
 20
231.4391428666225
 10
432.9999987874493
 20
231.4391428666225
 42
0.4142135623730951
 10
430.9999987874493
 20
229.4391428666225
 10
430.9999987874493
 20
208.9851588928405
 42
0.4142135623730951
 10
432.9999987874493
 20
206.9851588928405
 42
-0.4142135623730961
 10
437.9999987874493
 20
201.9851588928405
  0
CIRCLE
  5
EF7C88367
330
EF7C85532
100
AcDbEntity
  8
SUNPOU
100
AcDbCircle
 10
490.0289512540398
 20
151.0357211771719
 30
0.0
 40
6.0
  0
LINE
  5
EF7C88368
102
{ACAD_REACTORS
330
EF7C8834E
102
}
330
EF7C85532
100
AcDbEntity
  8
JISSEN
100
AcDbLine
 10
520.7336677765749
 20
188.3285939608951
 30
0.0
 11
462.6288397323827
 21
188.3285939608951
 31
0.0
  0
LINE
  5
EF7C88369
102
{ACAD_REACTORS
330
EF7C8834E
102
}
330
EF7C85532
100
AcDbEntity
  8
JISSEN
100
AcDbLine
 10
462.5975881424143
 20
183.328593960895
 30
0.0
 11
517.2759047431449
 21
183.328593960895
 31
0.0
  0
LINE
  5
EF7C8836A
102
{ACAD_REACTORS
330
EF7C8834E
102
}
330
EF7C85532
100
AcDbEntity
  8
JISSEN
100
AcDbLine
 10
434.5000822254654
 20
188.3285939608951
 30
0.0
 11
434.5000822254654
 21
183.328593960895
 31
0.0
  0
LINE
  5
EF7C8836B
102
{ACAD_REACTORS
330
EF7C8834E
102
}
330
EF7C85532
100
AcDbEntity
  8
JISSEN
100
AcDbLine
 10
469.5000822254653
 20
188.3285939608951
 30
0.0
 11
469.5000822254653
 21
183.328593960895
 31
0.0
  0
LINE
  5
EF7C88370
330
EF7C85532
100
AcDbEntity
  8
JISSEN
100
AcDbLine
 10
453.0000822254653
 20
182.828593960895
 30
0.0
 11
478.5000822254653
 21
182.828593960895
 31
0.0
  0
LINE
  5
EF7C88371
330
EF7C85532
100
AcDbEntity
  8
JISSEN
100
AcDbLine
 10
478.5000822254653
 20
175.828593960895
 30
0.0
 11
453.0000822254653
 21
175.828593960895
 31
0.0
  0
LINE
  5
EF7C88372
330
EF7C85532
100
AcDbEntity
  8
JISSEN
100
AcDbLine
 10
477.5000822254654
 20
174.828593960895
 30
0.0
 11
452.0000822254655
 21
174.828593960895
 31
0.0
  0
LINE
  5
EF7C88373
102
{ACAD_REACTORS
330
EF7C8834E
102
}
330
EF7C85532
100
AcDbEntity
  8
JISSEN
100
AcDbLine
 10
478.3500822254652
 20
183.328593960895
 30
0.0
 11
452.0000822254655
 21
183.328593960895
 31
0.0
  0
ARC
  5
EF7C88375
330
EF7C85532
100
AcDbEntity
  8
JISSEN
100
AcDbCircle
 10
458.3100122254655
 20
165.731714960895
 30
0.0
 40
0.2
100
AcDbArc
 50
143.1028380000001
 51
270.0
  0
LINE
  5
EF7C8837F
330
EF7C85532
100
AcDbEntity
  8
JISSEN
100
AcDbLine
 10
452.0000822254655
 20
161.9927116385558
 30
0.0
 11
466.529285242067
 21
161.9927116385555
 31
0.0
1001
ACAD
1000
ASC_BOUNDS
1002
{
1070
    19
1002
}
  0
LINE
  5
EF7C88380
330
EF7C85532
100
AcDbEntity
  8
JISSEN
100
AcDbLine
 10
452.0000822254655
 20
161.9927116385558
 30
0.0
 11
437.4708792088636
 21
161.9927116385555
 31
0.0
1001
ACAD
1000
ASC_BOUNDS
1002
{
1070
    19
1002
}
  0
LINE
  5
EF7C883A7
330
EF7C85532
100
AcDbEntity
  8
JISSEN
100
AcDbLine
 10
444.8189162254654
 20
173.3285939608951
 30
0.0
 11
442.5039252254653
 21
173.3285939608951
 31
0.0
  0
LINE
  5
EF7C883A8
330
EF7C85532
100
AcDbEntity
  8
JISSEN
100
AcDbLine
 10
443.1436732254653
 20
166.635492960895
 30
0.0
 11
445.2770062254653
 21
166.635492960895
 31
0.0
  0
LINE
  5
EF7C883A9
330
EF7C85532
100
AcDbEntity
  8
JISSEN
100
AcDbLine
 10
443.4212232254655
 20
165.5317149608951
 30
0.0
 11
445.6901522254653
 21
165.5317149608951
 31
0.0
  0
LINE
  5
EF7C883AA
330
EF7C85532
100
AcDbEntity
  8
JISSEN
100
AcDbLine
 10
436.1932012254653
 20
173.3285939608951
 30
0.0
 11
437.1795522254654
 21
173.3285939608951
 31
0.0
  0
LINE
  5
EF7C883AB
330
EF7C85532
100
AcDbEntity
  8
JISSEN
100
AcDbLine
 10
436.6856312254654
 20
166.635492960895
 30
0.0
 11
437.8857832254654
 21
166.635492960895
 31
0.0
  0
LINE
  5
EF7C883AC
330
EF7C85532
100
AcDbEntity
  8
JISSEN
100
AcDbLine
 10
437.0044292254654
 20
165.5961629608951
 30
0.0
 11
436.0013632254654
 21
166.3070849608951
 31
0.0
  0
LINE
  5
EF7C883AD
330
EF7C85532
100
AcDbEntity
  8
JISSEN
100
AcDbLine
 10
435.8938422254654
 20
173.0090019608951
 30
0.0
 11
436.2864852254654
 21
167.009370960895
 31
0.0
  0
LINE
  5
EF7C883AE
330
EF7C85532
100
AcDbEntity
  8
JISSEN
100
AcDbLine
 10
435.4982052254653
 20
167.202038960895
 30
0.0
 11
435.0941712254654
 21
172.954068960895
 31
0.0
  0
LINE
  5
EF7C883AF
330
EF7C85532
100
AcDbEntity
  8
JISSEN
100
AcDbLine
 10
432.0942732254653
 20
166.906143960895
 30
0.0
 11
431.5261652254654
 21
173.146725960895
 31
0.0
  0
LINE
  5
EF7C883B0
330
EF7C85532
100
AcDbEntity
  8
JISSEN
100
AcDbLine
 10
430.0269202254654
 20
172.890906960895
 30
0.0
 11
430.5526222254655
 21
167.3359609608951
 31
0.0
  0
LINE
  5
EF7C883B1
330
EF7C85532
100
AcDbEntity
  8
JISSEN
100
AcDbLine
 10
431.0893412254653
 20
173.111026960895
 30
0.0
 11
431.6200952254654
 21
167.0915769608951
 31
0.0
  0
LINE
  5
EF7C883B2
330
EF7C85532
100
AcDbEntity
  8
JISSEN
100
AcDbLine
 10
432.8159312254654
 20
165.5317149608951
 30
0.0
 11
433.8122502254655
 21
165.5317149608951
 31
0.0
  0
LINE
  5
EF7C883B3
330
EF7C85532
100
AcDbEntity
  8
JISSEN
100
AcDbLine
 10
433.8588072254654
 20
165.720216960895
 30
0.0
 11
432.3594322254654
 21
166.508966960895
 31
0.0
  0
ARC
  5
EF7C883B4
330
EF7C85532
100
AcDbEntity
  8
JISSEN
100
AcDbCircle
 10
432.8159312254654
 20
165.9317149608951
 30
0.0
 40
0.4
100
AcDbArc
 50
242.253262
 51
270.0
  0
ARC
  5
EF7C883B5
330
EF7C85532
100
AcDbEntity
  8
JISSEN
100
AcDbCircle
 10
432.5922142254653
 20
166.9514739608951
 30
0.0
 40
0.5
100
AcDbArc
 50
185.2015590000002
 51
242.253262
  0
ARC
  5
EF7C883B6
330
EF7C85532
100
AcDbEntity
  8
JISSEN
100
AcDbCircle
 10
431.8468392254653
 20
167.458441960895
 30
0.0
 40
1.3
100
AcDbArc
 50
185.4061850000002
 51
242.253262
  0
ARC
  5
EF7C883B7
330
EF7C85532
100
AcDbEntity
  8
JISSEN
100
AcDbCircle
 10
431.0405082254654
 20
166.553951960895
 30
0.0
 40
1.0
100
AcDbArc
 50
245.1745949999998
 51
270.0
  0
LINE
  5
EF7C883B8
330
EF7C85532
100
AcDbEntity
  8
JISSEN
100
AcDbLine
 10
431.0405082254654
 20
165.553951960895
 30
0.0
 11
431.1141832254654
 21
165.553951960895
 31
0.0
  0
ARC
  5
EF7C883B9
330
EF7C85532
100
AcDbEntity
  8
JISSEN
100
AcDbCircle
 10
431.1141832254654
 20
165.6039519608951
 30
0.0
 40
0.05
100
AcDbArc
 50
270.0
 51
65.17459499999985
  0
LINE
  5
EF7C883BA
330
EF7C85532
100
AcDbEntity
  8
JISSEN
100
AcDbLine
 10
431.2416062254653
 20
166.307922960895
 30
0.0
 11
432.6297052254654
 21
165.5777099608951
 31
0.0
  0
ARC
  5
EF7C883BB
330
EF7C85532
100
AcDbEntity
  8
JISSEN
100
AcDbCircle
 10
432.1181632254654
 20
167.1354929608952
 30
0.0
 40
0.5
100
AcDbArc
 50
185.0389269999999
 51
279.3495549999998
  0
ARC
  5
EF7C883BC
330
EF7C85532
100
AcDbEntity
  8
JISSEN
100
AcDbCircle
 10
436.6952552254653
 20
167.286121960895
 30
0.0
 40
1.199999999999999
100
AcDbArc
 50
184.0179690000003
 51
234.6729319999998
  0
ARC
  5
EF7C883BD
330
EF7C85532
100
AcDbEntity
  8
JISSEN
100
AcDbCircle
 10
433.8122502254655
 20
165.6317149608951
 30
0.0
 40
0.1
100
AcDbArc
 50
270.0
 51
62.25326200000021
  0
ARC
  5
EF7C883BE
330
EF7C85532
100
AcDbEntity
  8
JISSEN
100
AcDbCircle
 10
436.6856312254654
 20
167.0354929608951
 30
0.0
 40
0.4
100
AcDbArc
 50
183.7443620000003
 51
270.0
  0
ARC
  5
EF7C883BF
330
EF7C85532
100
AcDbEntity
  8
JISSEN
100
AcDbCircle
 10
431.3269882254655
 20
173.128593960895
 30
0.0
 40
0.2
100
AcDbArc
 50
5.201559000000191
 51
90.0
  0
LINE
  5
EF7C883C0
330
EF7C85532
100
AcDbEntity
  8
JISSEN
100
AcDbLine
 10
431.3269882254655
 20
173.3285939608951
 30
0.0
 11
430.4251412254655
 21
173.3285939608951
 31
0.0
  0
ARC
  5
EF7C883C1
330
EF7C85532
100
AcDbEntity
  8
JISSEN
100
AcDbCircle
 10
430.4251412254655
 20
172.928593960895
 30
0.0
 40
0.4
100
AcDbArc
 50
90.0
 51
185.4061850000002
  0
ARC
  5
EF7C883C2
330
EF7C85532
100
AcDbEntity
  8
JISSEN
100
AcDbCircle
 10
431.2885682254655
 20
173.128593960895
 30
0.0
 40
0.2
100
AcDbArc
 50
90.0
 51
185.0389269999999
  0
ARC
  5
EF7C883C3
330
EF7C85532
100
AcDbEntity
  8
JISSEN
100
AcDbCircle
 10
436.1932012254653
 20
173.028593960895
 30
0.0
 40
0.3
100
AcDbArc
 50
90.0
 51
183.7443620000003
  0
ARC
  5
EF7C883C4
330
EF7C85532
100
AcDbEntity
  8
JISSEN
100
AcDbCircle
 10
435.4433102254653
 20
172.978593960895
 30
0.0
 40
0.35
100
AcDbArc
 50
90.0
 51
184.0179690000003
  0
LINE
  5
EF7C883C5
330
EF7C85532
100
AcDbEntity
  8
JISSEN
100
AcDbLine
 10
435.4433102254653
 20
173.3285939608951
 30
0.0
 11
436.1932012254653
 21
173.3285939608951
 31
0.0
  0
LINE
  5
EF7C883C6
330
EF7C85532
100
AcDbEntity
  8
JISSEN
100
AcDbLine
 10
437.3790612254654
 20
173.142607960895
 30
0.0
 11
437.8228682254654
 21
166.8243419608951
 31
0.0
  0
LINE
  5
EF7C883C7
330
EF7C85532
100
AcDbEntity
  8
JISSEN
100
AcDbLine
 10
442.6298772254654
 20
173.069892960895
 30
0.0
 11
442.8438552254654
 21
166.9250529608951
 31
0.0
  0
LINE
  5
EF7C883C8
330
EF7C85532
100
AcDbEntity
  8
JISSEN
100
AcDbLine
 10
442.2041352254654
 20
173.017388960895
 30
0.0
 11
442.4309692254653
 21
166.9482409608952
 31
0.0
  0
ARC
  5
EF7C883C9
330
EF7C85532
100
AcDbEntity
  8
JISSEN
100
AcDbCircle
 10
438.9224472254654
 20
165.6817149608951
 30
0.0
 40
0.15
100
AcDbArc
 50
270.0
 51
54.67293199999994
  0
ARC
  5
EF7C883CA
330
EF7C85532
100
AcDbEntity
  8
JISSEN
100
AcDbCircle
 10
438.2218852254655
 20
166.852369960895
 30
0.0
 40
0.4
100
AcDbArc
 50
184.0179690000003
 51
234.6729319999998
  0
ARC
  5
EF7C883CB
330
EF7C85532
100
AcDbEntity
  8
JISSEN
100
AcDbCircle
 10
437.2068142254653
 20
165.881714960895
 30
0.0
 40
0.35
100
AcDbArc
 50
234.6729319999998
 51
270.0
  0
LINE
  5
EF7C883CC
330
EF7C85532
100
AcDbEntity
  8
JISSEN
100
AcDbLine
 10
437.9905882254654
 20
166.526023960895
 30
0.0
 11
439.0091832254653
 21
165.8040949608951
 31
0.0
  0
LINE
  5
EF7C883CD
330
EF7C85532
100
AcDbEntity
  8
JISSEN
100
AcDbLine
 10
438.9224472254654
 20
165.5317149608951
 30
0.0
 11
437.2068142254653
 21
165.5317149608951
 31
0.0
  0
ARC
  5
EF7C883CE
330
EF7C85532
100
AcDbEntity
  8
JISSEN
100
AcDbCircle
 10
443.1436732254653
 20
166.935492960895
 30
0.0
 40
0.3
100
AcDbArc
 50
181.994368
 51
270.0
  0
LINE
  5
EF7C883CF
330
EF7C85532
100
AcDbEntity
  8
JISSEN
100
AcDbLine
 10
442.6305572254654
 20
166.3852089608951
 30
0.0
 11
443.1813082254654
 21
165.6516009608951
 31
0.0
  0
ARC
  5
EF7C883D0
330
EF7C85532
100
AcDbEntity
  8
JISSEN
100
AcDbCircle
 10
443.4212232254655
 20
165.8317149608951
 30
0.0
 40
0.3
100
AcDbArc
 50
216.8971619999997
 51
270.0
  0
ARC
  5
EF7C883D1
330
EF7C85532
100
AcDbEntity
  8
JISSEN
100
AcDbCircle
 10
443.4302712254654
 20
166.9855899608951
 30
0.0
 40
1.0
100
AcDbArc
 50
182.1404319999997
 51
216.8971619999997
  0
ARC
  5
EF7C883D2
330
EF7C85532
100
AcDbEntity
  8
JISSEN
100
AcDbCircle
 10
437.1795522254654
 20
173.128593960895
 30
0.0
 40
0.2
100
AcDbArc
 50
4.017969000000318
 51
90.0
  0
ARC
  5
EF7C883D3
330
EF7C85532
100
AcDbEntity
  8
JISSEN
100
AcDbCircle
 10
442.8797252254653
 20
173.078593960895
 30
0.0
 40
0.25
100
AcDbArc
 50
90.0
 51
181.994368
  0
ARC
  5
EF7C883D4
330
EF7C85532
100
AcDbEntity
  8
JISSEN
100
AcDbCircle
 10
442.5039252254653
 20
173.028593960895
 30
0.0
 40
0.3
100
AcDbArc
 50
90.0
 51
182.1404319999997
  0
ARC
  5
EF7C883D7
330
EF7C85532
100
AcDbEntity
  8
JISSEN
100
AcDbCircle
 10
452.0000822254655
 20
175.828593960895
 30
0.0
 40
1.0
100
AcDbArc
 50
180.0
 51
270.0
  0
ARC
  5
EF7C883D8
330
EF7C85532
100
AcDbEntity
  8
JISSEN
100
AcDbCircle
 10
452.0000822254655
 20
175.828593960895
 30
0.0
 40
1.0
100
AcDbArc
 50
270.0
 51
0.000000000000007
  0
LINE
  5
EF7C883D9
330
EF7C85532
100
AcDbEntity
  8
JISSEN
100
AcDbLine
 10
452.0000822254655
 20
173.3285939608951
 30
0.0
 11
451.0000822254654
 21
173.3285939608951
 31
0.0
  0
LINE
  5
EF7C883DA
330
EF7C85532
100
AcDbEntity
  8
JISSEN
100
AcDbLine
 10
451.0000822254654
 20
166.635492960895
 30
0.0
 11
452.0000822254655
 21
166.635492960895
 31
0.0
  0
LINE
  5
EF7C883DB
330
EF7C85532
100
AcDbEntity
  8
JISSEN
100
AcDbLine
 10
452.0000822254655
 20
165.5317149608951
 30
0.0
 11
451.0000822254654
 21
165.5317149608951
 31
0.0
  0
LINE
  5
EF7C883DC
330
EF7C85532
100
AcDbEntity
  8
JISSEN
100
AcDbLine
 10
450.5000822254654
 20
172.828593960895
 30
0.0
 11
450.5000822254654
 21
166.0317149608951
 31
0.0
  0
LINE
  5
EF7C883DD
330
EF7C85532
100
AcDbEntity
  8
JISSEN
100
AcDbLine
 10
445.2582292254653
 20
166.729317960895
 30
0.0
 11
445.0187772254653
 21
173.136063960895
 31
0.0
  0
ARC
  5
EF7C883DE
330
EF7C85532
100
AcDbEntity
  8
JISSEN
100
AcDbCircle
 10
445.5580202254654
 20
166.7405219608951
 30
0.0
 40
0.3
100
AcDbArc
 50
182.1404319999997
 51
216.8971619999997
  0
ARC
  5
EF7C883DF
330
EF7C85532
100
AcDbEntity
  8
JISSEN
100
AcDbCircle
 10
445.6901522254653
 20
165.731714960895
 30
0.0
 40
0.2
100
AcDbArc
 50
270.0
 51
36.89716199999973
  0
LINE
  5
EF7C883E0
330
EF7C85532
100
AcDbEntity
  8
JISSEN
100
AcDbLine
 10
445.8500952254653
 20
165.8517919608951
 30
0.0
 11
445.3181052254654
 21
166.5604079608951
 31
0.0
  0
ARC
  5
EF7C883E1
330
EF7C85532
100
AcDbEntity
  8
JISSEN
100
AcDbCircle
 10
451.0000822254654
 20
166.0317149608951
 30
0.0
 40
0.5
100
AcDbArc
 50
180.0
 51
270.0
  0
ARC
  5
EF7C883E2
330
EF7C85532
100
AcDbEntity
  8
JISSEN
100
AcDbCircle
 10
451.0000822254654
 20
167.1354929608952
 30
0.0
 40
0.5
100
AcDbArc
 50
180.0
 51
270.0
  0
ARC
  5
EF7C883E3
330
EF7C85532
100
AcDbEntity
  8
JISSEN
100
AcDbCircle
 10
444.8189162254654
 20
173.128593960895
 30
0.0
 40
0.2
100
AcDbArc
 50
2.140431999999735
 51
90.0
  0
ARC
  5
EF7C883E4
330
EF7C85532
100
AcDbEntity
  8
JISSEN
100
AcDbCircle
 10
451.0000822254654
 20
172.828593960895
 30
0.0
 40
0.5
100
AcDbArc
 50
90.0
 51
180.0
  0
LINE
  5
EF7C883E5
330
EF7C85532
100
AcDbEntity
  8
JISSEN
100
AcDbLine
 10
453.5000822254653
 20
172.828593960895
 30
0.0
 11
453.5000822254653
 21
166.0317149608951
 31
0.0
  0
ARC
  5
EF7C883E6
330
EF7C85532
100
AcDbEntity
  8
JISSEN
100
AcDbCircle
 10
453.0000822254653
 20
167.1354929608952
 30
0.0
 40
0.5
100
AcDbArc
 50
270.0
 51
0.000000000000007
  0
ARC
  5
EF7C883E7
330
EF7C85532
100
AcDbEntity
  8
JISSEN
100
AcDbCircle
 10
453.0000822254653
 20
166.0317149608951
 30
0.0
 40
0.5
100
AcDbArc
 50
270.0
 51
0.000000000000007
  0
LINE
  5
EF7C883E8
330
EF7C85532
100
AcDbEntity
  8
JISSEN
100
AcDbLine
 10
452.0000822254655
 20
165.5317149608951
 30
0.0
 11
453.0000822254653
 21
165.5317149608951
 31
0.0
  0
LINE
  5
EF7C883E9
330
EF7C85532
100
AcDbEntity
  8
JISSEN
100
AcDbLine
 10
453.0000822254653
 20
166.635492960895
 30
0.0
 11
452.0000822254655
 21
166.635492960895
 31
0.0
  0
ARC
  5
EF7C883EA
330
EF7C85532
100
AcDbEntity
  8
JISSEN
100
AcDbCircle
 10
453.0000822254653
 20
172.828593960895
 30
0.0
 40
0.5
100
AcDbArc
 50
0.000000000000007
 51
90.0
  0
LINE
  5
EF7C883EB
330
EF7C85532
100
AcDbEntity
  8
JISSEN
100
AcDbLine
 10
452.0000822254655
 20
173.3285939608951
 30
0.0
 11
453.0000822254653
 21
173.3285939608951
 31
0.0
  0
ARC
  5
EF7C883EC
330
EF7C85532
100
AcDbEntity
  8
JISSEN
100
AcDbCircle
 10
452.0000822254655
 20
182.0785939608951
 30
0.0
 40
1.25
100
AcDbArc
 50
90.0
 51
143.1301020000003
  0
LINE
  5
EF7C883ED
330
EF7C85532
100
AcDbEntity
  8
JISSEN
100
AcDbLine
 10
451.0000822254654
 20
182.828593960895
 30
0.0
 11
451.0000822254654
 21
175.828593960895
 31
0.0
  0
LINE
  5
EF7C883EE
330
EF7C85532
100
AcDbEntity
  8
JISSEN
100
AcDbLine
 10
453.0000822254653
 20
182.828593960895
 30
0.0
 11
453.0000822254653
 21
175.828593960895
 31
0.0
  0
ARC
  5
EF7C883EF
330
EF7C85532
100
AcDbEntity
  8
JISSEN
100
AcDbCircle
 10
452.0000822254655
 20
182.0785939608951
 30
0.0
 40
1.25
100
AcDbArc
 50
36.86989799999964
 51
90.0
  0
INSERT
  5
EF7C883F0
330
EF7C85532
100
AcDbEntity
  8
SUNPOU
100
AcDbBlockReference
  2
ARROW
 10
470.7919865466858
 20
163.9969596094108
 30
0.0
 41
1.499999999999995
 42
1.5
 43
1.5
 50
146.0291974830132
  0
LINE
  5
EF7C883F1
330
EF7C85532
100
AcDbEntity
  8
SUNPOU
100
AcDbLine
 10
470.7919865466861
 20
163.9969596094108
 30
0.0
 11
485.0530167025561
 21
154.3883433359233
 31
0.0
  0
LINE
  5
EF7C883F2
330
EF7C85532
100
AcDbEntity
  8
JISSEN
100
AcDbLine
 10
466.529285242067
 20
161.9927116385555
 30
0.0
 11
475.0546878513048
 21
166.001207580266
 31
0.0
1001
ACAD
1000
ASC_BOUNDS
1002
{
1070
    19
1002
}
  0
ARC
  5
EF7C88401
330
EF7C85532
100
AcDbEntity
  8
JISSEN
100
AcDbCircle
 10
471.8820012254654
 20
167.1354929608952
 30
0.0
 40
0.5
100
AcDbArc
 50
260.650445
 51
354.9610729999998
  0
LINE
  5
EF7C88402
330
EF7C85532
100
AcDbEntity
  8
JISSEN
100
AcDbLine
 10
472.7585582254653
 20
166.307922960895
 30
0.0
 11
471.3704592254654
 21
165.5777099608951
 31
0.0
  0
LINE
  5
EF7C88403
330
EF7C85532
100
AcDbEntity
  8
JISSEN
100
AcDbLine
 10
471.9058912254653
 20
166.906143960895
 30
0.0
 11
472.4739992254654
 21
173.146725960895
 31
0.0
  0
LINE
  5
EF7C88404
330
EF7C85532
100
AcDbEntity
  8
JISSEN
100
AcDbLine
 10
465.0777172254653
 20
165.5317149608951
 30
0.0
 11
466.7933502254654
 21
165.5317149608951
 31
0.0
  0
LINE
  5
EF7C88405
330
EF7C85532
100
AcDbEntity
  8
JISSEN
100
AcDbLine
 10
466.0095762254654
 20
166.526023960895
 30
0.0
 11
464.9909812254654
 21
165.8040949608951
 31
0.0
  0
LINE
  5
EF7C88406
330
EF7C85532
100
AcDbEntity
  8
JISSEN
100
AcDbLine
 10
461.7960292254654
 20
173.017388960895
 30
0.0
 11
461.5691952254654
 21
166.9482409608952
 31
0.0
  0
LINE
  5
EF7C88407
330
EF7C85532
100
AcDbEntity
  8
JISSEN
100
AcDbLine
 10
461.3702872254654
 20
173.069892960895
 30
0.0
 11
461.1563092254653
 21
166.9250529608951
 31
0.0
  0
LINE
  5
EF7C88408
330
EF7C85532
100
AcDbEntity
  8
JISSEN
100
AcDbLine
 10
458.7419352254654
 20
166.729317960895
 30
0.0
 11
458.9813872254653
 21
173.136063960895
 31
0.0
  0
ARC
  5
EF7C88409
330
EF7C85532
100
AcDbEntity
  8
JISSEN
100
AcDbCircle
 10
460.5698932254654
 20
166.9855899608951
 30
0.0
 40
1.0
100
AcDbArc
 50
323.1028380000003
 51
357.8595680000001
  0
ARC
  5
EF7C8840A
330
EF7C85532
100
AcDbEntity
  8
JISSEN
100
AcDbCircle
 10
460.5789412254654
 20
165.8317149608951
 30
0.0
 40
0.3
100
AcDbArc
 50
270.0
 51
323.1028380000003
  0
LINE
  5
EF7C8840B
330
EF7C85532
100
AcDbEntity
  8
JISSEN
100
AcDbLine
 10
461.3696072254652
 20
166.3852089608951
 30
0.0
 11
460.8188562254653
 21
165.6516009608951
 31
0.0
  0
ARC
  5
EF7C8840C
330
EF7C85532
100
AcDbEntity
  8
JISSEN
100
AcDbCircle
 10
460.8564912254654
 20
166.935492960895
 30
0.0
 40
0.3
100
AcDbArc
 50
270.0
 51
358.0056319999998
  0
LINE
  5
EF7C8840D
330
EF7C85532
100
AcDbEntity
  8
JISSEN
100
AcDbLine
 10
458.1500692254654
 20
165.8517919608951
 30
0.0
 11
458.6820592254653
 21
166.5604079608951
 31
0.0
  0
ARC
  5
EF7C8840E
330
EF7C85532
100
AcDbEntity
  8
JISSEN
100
AcDbCircle
 10
458.4421442254654
 20
166.7405219608951
 30
0.0
 40
0.3
100
AcDbArc
 50
323.1028380000003
 51
357.8595680000001
  0
LINE
  5
EF7C8840F
330
EF7C85532
100
AcDbEntity
  8
JISSEN
100
AcDbLine
 10
460.5789412254654
 20
165.5317149608951
 30
0.0
 11
458.3100122254655
 21
165.5317149608951
 31
0.0
  0
LINE
  5
EF7C88410
330
EF7C85532
100
AcDbEntity
  8
JISSEN
100
AcDbLine
 10
460.8564912254654
 20
166.635492960895
 30
0.0
 11
458.7231582254654
 21
166.635492960895
 31
0.0
  0
ARC
  5
EF7C88411
330
EF7C85532
100
AcDbEntity
  8
JISSEN
100
AcDbCircle
 10
465.0777172254653
 20
165.6817149608951
 30
0.0
 40
0.15
100
AcDbArc
 50
125.3270679999999
 51
270.0
  0
ARC
  5
EF7C88412
330
EF7C85532
100
AcDbEntity
  8
JISSEN
100
AcDbCircle
 10
461.4962392254652
 20
173.028593960895
 30
0.0
 40
0.3
100
AcDbArc
 50
357.8595680000001
 51
90.0
  0
ARC
  5
EF7C88413
330
EF7C85532
100
AcDbEntity
  8
JISSEN
100
AcDbCircle
 10
461.1204392254655
 20
173.078593960895
 30
0.0
 40
0.25
100
AcDbArc
 50
358.0056319999998
 51
90.0
  0
ARC
  5
EF7C88414
330
EF7C85532
100
AcDbEntity
  8
JISSEN
100
AcDbCircle
 10
459.1812482254653
 20
173.128593960895
 30
0.0
 40
0.2
100
AcDbArc
 50
90.0
 51
177.8595680000002
  0
LINE
  5
EF7C88415
330
EF7C85532
100
AcDbEntity
  8
JISSEN
100
AcDbLine
 10
459.1812482254653
 20
173.3285939608951
 30
0.0
 11
461.4962392254652
 21
173.3285939608951
 31
0.0
  0
LINE
  5
EF7C88416
330
EF7C85532
100
AcDbEntity
  8
JISSEN
100
AcDbLine
 10
468.5019592254653
 20
167.202038960895
 30
0.0
 11
468.9059932254654
 21
172.954068960895
 31
0.0
  0
LINE
  5
EF7C88417
330
EF7C85532
100
AcDbEntity
  8
JISSEN
100
AcDbLine
 10
468.1063222254654
 20
173.0090019608951
 30
0.0
 11
467.7136792254653
 21
167.009370960895
 31
0.0
  0
LINE
  5
EF7C88418
330
EF7C85532
100
AcDbEntity
  8
JISSEN
100
AcDbLine
 10
466.6211032254653
 20
173.142607960895
 30
0.0
 11
466.1772962254653
 21
166.8243419608951
 31
0.0
  0
ARC
  5
EF7C88419
330
EF7C85532
100
AcDbEntity
  8
JISSEN
100
AcDbCircle
 10
467.3145332254653
 20
167.0354929608951
 30
0.0
 40
0.4
100
AcDbArc
 50
270.0
 51
356.2556379999997
  0
ARC
  5
EF7C8841A
330
EF7C85532
100
AcDbEntity
  8
JISSEN
100
AcDbCircle
 10
467.3049092254654
 20
167.286121960895
 30
0.0
 40
1.199999999999999
100
AcDbArc
 50
305.327068
 51
355.9820309999997
  0
ARC
  5
EF7C8841B
330
EF7C85532
100
AcDbEntity
  8
JISSEN
100
AcDbCircle
 10
466.7933502254654
 20
165.881714960895
 30
0.0
 40
0.35
100
AcDbArc
 50
270.0
 51
305.327068
  0
ARC
  5
EF7C8841C
330
EF7C85532
100
AcDbEntity
  8
JISSEN
100
AcDbCircle
 10
465.7782792254653
 20
166.852369960895
 30
0.0
 40
0.4
100
AcDbArc
 50
305.327068
 51
355.9820309999997
  0
LINE
  5
EF7C8841D
330
EF7C85532
100
AcDbEntity
  8
JISSEN
100
AcDbLine
 10
466.9957352254654
 20
165.5961629608951
 30
0.0
 11
467.9988012254653
 21
166.3070849608951
 31
0.0
  0
LINE
  5
EF7C8841E
330
EF7C85532
100
AcDbEntity
  8
JISSEN
100
AcDbLine
 10
467.3145332254653
 20
166.635492960895
 30
0.0
 11
466.1143812254653
 21
166.635492960895
 31
0.0
  0
LINE
  5
EF7C8841F
330
EF7C85532
100
AcDbEntity
  8
JISSEN
100
AcDbLine
 10
470.1413572254653
 20
165.720216960895
 30
0.0
 11
471.6407322254654
 21
166.508966960895
 31
0.0
  0
LINE
  5
EF7C88420
330
EF7C85532
100
AcDbEntity
  8
JISSEN
100
AcDbLine
 10
471.1842332254653
 20
165.5317149608951
 30
0.0
 11
470.1879142254654
 21
165.5317149608951
 31
0.0
  0
ARC
  5
EF7C88421
330
EF7C85532
100
AcDbEntity
  8
JISSEN
100
AcDbCircle
 10
471.4079502254654
 20
166.9514739608951
 30
0.0
 40
0.5
100
AcDbArc
 50
297.7467379999998
 51
354.7984409999998
  0
ARC
  5
EF7C88422
330
EF7C85532
100
AcDbEntity
  8
JISSEN
100
AcDbCircle
 10
471.1842332254653
 20
165.9317149608951
 30
0.0
 40
0.4
100
AcDbArc
 50
270.0
 51
297.7467379999998
  0
ARC
  5
EF7C88423
330
EF7C85532
100
AcDbEntity
  8
JISSEN
100
AcDbCircle
 10
470.1879142254654
 20
165.6317149608951
 30
0.0
 40
0.1
100
AcDbArc
 50
117.7467379999998
 51
270.0
  0
ARC
  5
EF7C88424
330
EF7C85532
100
AcDbEntity
  8
JISSEN
100
AcDbCircle
 10
468.5568542254653
 20
172.978593960895
 30
0.0
 40
0.35
100
AcDbArc
 50
355.9820309999997
 51
90.0
  0
LINE
  5
EF7C88425
330
EF7C85532
100
AcDbEntity
  8
JISSEN
100
AcDbLine
 10
468.5568542254653
 20
173.3285939608951
 30
0.0
 11
467.8069632254653
 21
173.3285939608951
 31
0.0
  0
ARC
  5
EF7C88426
330
EF7C85532
100
AcDbEntity
  8
JISSEN
100
AcDbCircle
 10
467.8069632254653
 20
173.028593960895
 30
0.0
 40
0.3
100
AcDbArc
 50
356.2556379999997
 51
90.0
  0
ARC
  5
EF7C88427
330
EF7C85532
100
AcDbEntity
  8
JISSEN
100
AcDbCircle
 10
466.8206122254654
 20
173.128593960895
 30
0.0
 40
0.2
100
AcDbArc
 50
90.0
 51
175.9820309999995
  0
LINE
  5
EF7C88428
330
EF7C85532
100
AcDbEntity
  8
JISSEN
100
AcDbLine
 10
467.8069632254653
 20
173.3285939608951
 30
0.0
 11
466.8206122254654
 21
173.3285939608951
 31
0.0
  0
LINE
  5
EF7C8842B
330
EF7C85532
100
AcDbEntity
  8
JISSEN
100
AcDbLine
 10
476.6000822254652
 20
174.828593960895
 30
0.0
 11
476.4688492254654
 21
173.3285939608951
 31
0.0
  0
LINE
  5
EF7C8842C
330
EF7C85532
100
AcDbEntity
  8
JISSEN
100
AcDbLine
 10
475.1235732254654
 20
167.389491960895
 30
0.0
 11
475.7555042254653
 21
173.261529960895
 31
0.0
  0
LINE
  5
EF7C8842D
330
EF7C85532
100
AcDbEntity
  8
JISSEN
100
AcDbLine
 10
476.2384062254652
 20
172.908029960895
 30
0.0
 11
475.6505762254653
 21
167.445780960895
 31
0.0
  0
LINE
  5
EF7C8842E
330
EF7C85532
100
AcDbEntity
  8
JISSEN
100
AcDbLine
 10
476.4688492254654
 20
173.3285939608951
 30
0.0
 11
475.9484952254653
 21
167.3809169608951
 31
0.0
  0
LINE
  5
EF7C8842F
330
EF7C85532
100
AcDbEntity
  8
JISSEN
100
AcDbLine
 10
472.9108232254652
 20
173.111026960895
 30
0.0
 11
472.3800692254654
 21
167.0915769608951
 31
0.0
  0
LINE
  5
EF7C88430
330
EF7C85532
100
AcDbEntity
  8
JISSEN
100
AcDbLine
 10
473.9732442254655
 20
172.890906960895
 30
0.0
 11
473.4475422254654
 21
167.3359609608951
 31
0.0
  0
ARC
  5
EF7C88431
330
EF7C85532
100
AcDbEntity
  8
JISSEN
100
AcDbCircle
 10
474.4542028959282
 20
167.3757685350316
 30
0.0
 40
1.5
100
AcDbArc
 50
290.0
 51
355.0000000000001
  0
ARC
  5
EF7C88432
330
EF7C85532
100
AcDbEntity
  8
JISSEN
100
AcDbCircle
 10
473.8310372254654
 20
167.528590960895
 30
0.0
 40
1.3
100
AcDbArc
 50
294.825405
 51
353.8576429999998
  0
ARC
  5
EF7C88433
330
EF7C85532
100
AcDbEntity
  8
JISSEN
100
AcDbCircle
 10
474.2586132254654
 20
167.595579960895
 30
0.0
 40
1.399999999999999
100
AcDbArc
 50
294.825405
 51
353.8576429999998
  0
ARC
  5
EF7C88434
330
EF7C85532
100
AcDbEntity
  8
JISSEN
100
AcDbCircle
 10
472.8859812254653
 20
165.6039519608951
 30
0.0
 40
0.05
100
AcDbArc
 50
114.825405
 51
270.0
  0
LINE
  5
EF7C88435
330
EF7C85532
100
AcDbEntity
  8
JISSEN
100
AcDbLine
 10
472.9596562254654
 20
165.553951960895
 30
0.0
 11
472.8859812254653
 21
165.553951960895
 31
0.0
  0
ARC
  5
EF7C88436
330
EF7C85532
100
AcDbEntity
  8
JISSEN
100
AcDbCircle
 10
472.9596562254654
 20
166.553951960895
 30
0.0
 40
1.0
100
AcDbArc
 50
270.0
 51
294.825405
  0
ARC
  5
EF7C88437
330
EF7C85532
100
AcDbEntity
  8
JISSEN
100
AcDbCircle
 10
472.1533252254653
 20
167.458441960895
 30
0.0
 40
1.3
100
AcDbArc
 50
297.7467379999998
 51
354.5938149999996
  0
LINE
  5
EF7C88438
330
EF7C85532
100
AcDbEntity
  8
JISSEN
100
AcDbLine
 10
474.8464092254653
 20
166.3249519608951
 30
0.0
 11
473.3795112254654
 21
165.646359960895
 31
0.0
  0
LINE
  5
EF7C88439
330
EF7C85532
100
AcDbEntity
  8
JISSEN
100
AcDbLine
 10
472.8649892254654
 20
165.6493309608951
 30
0.0
 11
474.3768482254654
 21
166.348721960895
 31
0.0
  0
ARC
  5
EF7C8843A
330
EF7C85532
100
AcDbEntity
  8
JISSEN
100
AcDbCircle
 10
475.8549302254654
 20
173.250829960895
 30
0.0
 40
0.1
100
AcDbArc
 50
92.7179019999998
 51
173.8576429999999
  0
ARC
  5
EF7C8843B
330
EF7C85532
100
AcDbEntity
  8
JISSEN
100
AcDbCircle
 10
472.7115962254654
 20
173.128593960895
 30
0.0
 40
0.2
100
AcDbArc
 50
354.9610729999998
 51
90.0
  0
ARC
  5
EF7C8843C
330
EF7C85532
100
AcDbEntity
  8
JISSEN
100
AcDbCircle
 10
473.5750232254654
 20
172.928593960895
 30
0.0
 40
0.4
100
AcDbArc
 50
354.5938149999996
 51
90.0
  0
LINE
  5
EF7C8843D
330
EF7C85532
100
AcDbEntity
  8
JISSEN
100
AcDbLine
 10
472.6731762254654
 20
173.3285939608951
 30
0.0
 11
473.5750232254654
 21
173.3285939608951
 31
0.0
  0
ARC
  5
EF7C8843E
330
EF7C85532
100
AcDbEntity
  8
JISSEN
100
AcDbCircle
 10
472.6731762254654
 20
173.128593960895
 30
0.0
 40
0.2
100
AcDbArc
 50
90.0
 51
174.7984409999996
  0
ARC
  5
EF7C8843F
330
EF7C85532
100
AcDbEntity
  8
JISSEN
100
AcDbCircle
 10
475.8407032254654
 20
172.950829960895
 30
0.0
 40
0.4
100
AcDbArc
 50
353.8576429999998
 51
88.64114500000017
  0
LINE
  5
EF7C88440
330
EF7C85532
100
AcDbEntity
  8
JISSEN
100
AcDbLine
 10
478.5000822254653
 20
183.178593960895
 30
0.0
 11
478.5000822254653
 21
175.828593960895
 31
0.0
  0
LINE
  5
EF7C88441
330
EF7C85532
100
AcDbEntity
  8
JISSEN
100
AcDbLine
 10
477.5000822254654
 20
174.828593960895
 30
0.0
 11
476.6000822254652
 21
174.828593960895
 31
0.0
  0
LINE
  5
EF7C88442
330
EF7C85532
100
AcDbEntity
  8
JISSEN
100
AcDbLine
 10
478.5000822254653
 20
175.828593960895
 30
0.0
 11
477.5000822254654
 21
174.828593960895
 31
0.0
  0
LINE
  5
EF7C88443
330
EF7C85532
100
AcDbEntity
  8
JISSEN
100
AcDbLine
 10
478.5000822254653
 20
183.178593960895
 30
0.0
 11
478.3500822254652
 21
183.328593960895
 31
0.0
  0
LWPOLYLINE
  5
EF7C8844A
102
{ACAD_REACTORS
330
EF7C8834E
102
}
330
EF7C85532
100
AcDbEntity
  8
HATCH
100
AcDbPolyline
 90
       13
 70
     0
 43
0.0
 10
520.7336677765749
 20
188.3285939608951
 10
520.5690805983249
 20
187.508956882663
 10
520.4271752416445
 20
186.9923389058988
 10
520.1994666044968
 20
186.573912619211
 10
519.8915791178372
 20
186.235795595544
 10
519.5253558288579
 20
185.9455445228938
 10
519.1226397847493
 20
185.6707160892565
 10
518.7052740327024
 20
185.3788669826275
 10
518.2951016199085
 20
185.0375538910027
 10
517.9139655935588
 20
184.6143335023784
 10
517.5837090008443
 20
184.07676250475
 10
517.3091289376416
 20
183.4131437174626
 10
517.2759047431449
 20
183.328593960895
  0
TEXT
  5
EF7C8844B
330
EF7C85532
100
AcDbEntity
  8
SUNPOU
100
AcDbText
 10
506.2551961714731
 20
144.3494236990277
 30
0.0
 40
3.0
  1
尺度　1/1
  7
K
100
AcDbText
  0
TEXT
  5
EF7C8844C
330
EF7C85532
100
AcDbEntity
  8
SUNPOU
100
AcDbText
 10
506.2551961714731
 20
149.3494236990277
 30
0.0
 40
3.0
  1
MFQR   作動状態
  7
K
100
AcDbText
  0
TEXT
  5
EF7C8844D
330
EF7C85532
100
AcDbEntity
  8
SUNPOU
100
AcDbText
 10
488.2075226826112
 20
148.7857211771719
 30
0.0
 40
4.5
  1
1
  7
K
 72
     4
 11
490.0289512540398
 21
151.0357211771719
 31
0.0
100
AcDbText
  0
LWPOLYLINE
  5
EF7C8845B
330
EF7C85532
100
AcDbEntity
  8
NITEN
100
AcDbPolyline
 90
        5
 70
     0
 43
0.0
 10
468.9999987874493
 20
231.4391428666225
 10
468.9999987874493
 20
252.2768605177684
 42
-0.5882352941176476
 10
451.9999987874493
 20
252.2768605177684
 42
0.5882352941176477
 10
434.9999987874493
 20
252.276860517768
 10
434.9999987874493
 20
231.4391428666225
  0
LWPOLYLINE
  5
EF7C8845C
330
EF7C85532
100
AcDbEntity
  8
NITEN
100
AcDbPolyline
 90
        2
 70
     0
 43
0.0
 10
468.9999987874493
 20
252.2768605177684
 42
0.5882352941176295
 10
451.9999987874491
 20
252.2768605177686
 42
0.5882352941176295
  0
LINE
  5
EF7C8846A
330
EF7C85532
100
AcDbEntity
  8
SUNPOU
100
AcDbLine
 10
480.6500822254655
 20
44.21945795271832
 30
0.0
 11
505.2798246755478
 21
25.20257224334071
 31
0.0
  0
LINE
  5
EF7C8846B
330
EF7C85532
100
AcDbEntity
  8
JISSEN
100
AcDbLine
 10
477.1500822254655
 20
34.23164228810071
 30
0.0
 11
477.1500822254655
 21
53.82859396089518
 31
0.0
  0
LINE
  5
EF7C8846C
330
EF7C85532
100
AcDbEntity
  8
JISSEN
100
AcDbLine
 10
480.6500822254655
 20
53.82859396089521
 30
0.0
 11
480.6500822254655
 21
34.61032194454139
 31
0.0
  0
LINE
  5
EF7C8846D
330
EF7C85532
100
AcDbEntity
  8
JISSEN
100
AcDbLine
 10
462.5949885898217
 20
47.3285939608952
 30
0.0
 11
462.5949885898217
 21
34.45372292155179
 31
0.0
  0
LINE
  5
EF7C8846E
330
EF7C85532
100
AcDbEntity
  8
JISSEN
100
AcDbLine
 10
459.0949885898218
 20
32.68265955904991
 30
0.0
 11
459.0949885898218
 21
47.3285939608952
 31
0.0
  0
LINE
  5
EF7C8846F
330
EF7C85532
100
AcDbEntity
  8
JISSEN
100
AcDbLine
 10
427.0938167362833
 20
47.3285939608952
 30
0.0
 11
427.0938167362833
 21
34.98413284072865
 31
0.0
  0
LINE
  5
EF7C88470
330
EF7C85532
100
AcDbEntity
  8
JISSEN
100
AcDbLine
 10
430.5938167362833
 20
47.3285939608952
 30
0.0
 11
430.5938167362833
 21
34.58779985262896
 31
0.0
  0
LINE
  5
EF7C88471
330
EF7C85532
100
AcDbEntity
  8
JISSEN
100
AcDbLine
 10
466.529285242067
 20
32.49271163855567
 30
0.0
 11
475.0546878513048
 21
36.50120758026614
 31
0.0
1001
ACAD
1000
ASC_BOUNDS
1002
{
1070
    19
1002
}
  0
LINE
  5
EF7C88472
330
EF7C85532
100
AcDbEntity
  8
JISSEN
100
AcDbLine
 10
437.4708792088636
 20
32.49271163855567
 30
0.0
 11
430.5938167362833
 21
35.72618673360369
 31
0.0
1001
ACAD
1000
ASC_BOUNDS
1002
{
1070
    19
1002
}
  0
INSERT
  5
EF7C88473
330
EF7C85532
100
AcDbEntity
  8
WAKU
100
AcDbBlockReference
  2
WAKU
 10
361.9999987874493
 20
0.0
 30
0.0
 41
181.0
 42
283.0
 43
181.0
  0
LINE
  5
EF7C88474
330
EF7C85532
100
AcDbEntity
  8
SUNPOU
100
AcDbLine
 10
470.7919865466861
 20
34.49695960941089
 30
0.0
 11
485.0530167025561
 21
24.88834333592348
 31
0.0
  0
LINE
  5
EF7C88475
330
EF7C85532
100
AcDbEntity
  8
JISSEN
100
AcDbLine
 10
478.9594910492644
 20
30.04850454993155
 30
0.0
 11
469.6339657019486
 21
19.19471048441201
 31
0.0
  0
LINE
  5
EF7C88476
330
EF7C85532
100
AcDbEntity
  8
JISSEN
100
AcDbLine
 10
475.7506346812159
 20
30.38003001505348
 30
0.0
 11
467.8661987489828
 21
20.96247743737774
 31
0.0
  0
LINE
  5
EF7C88477
330
EF7C85532
100
AcDbEntity
  8
JISSEN
100
AcDbLine
 10
468.1727138705705
 20
21.3285939608952
 30
0.0
 11
438.7642152139006
 21
21.32859396089585
 31
0.0
  0
LINE
  5
EF7C88478
330
EF7C85532
100
AcDbEntity
  8
JISSEN
100
AcDbLine
 10
468.7500822254654
 20
18.8285939608952
 30
0.0
 11
435.2500822254653
 21
18.8285939608952
 31
0.0
  0
LINE
  5
EF7C8847E
330
EF7C85532
100
AcDbEntity
  8
JISSEN
100
AcDbLine
 10
452.0000822254655
 20
32.49271163855589
 30
0.0
 11
437.4708792088636
 21
32.49271163855567
 31
0.0
1001
ACAD
1000
ASC_BOUNDS
1002
{
1070
    19
1002
}
  0
LINE
  5
EF7C88481
330
EF7C85532
100
AcDbEntity
  8
JISSEN
100
AcDbLine
 10
436.1292306940673
 20
20.12082664848966
 30
0.0
 11
429.4025124897395
 21
29.36193967673364
 31
0.0
  0
LINE
  5
EF7C88482
330
EF7C85532
100
AcDbEntity
  8
JISSEN
100
AcDbLine
 10
438.7642152139006
 20
21.32859396089588
 30
0.0
 11
432.6139255205577
 21
29.66838083413333
 31
0.0
  0
ARC
  5
EF7C88483
330
EF7C85532
100
AcDbEntity
  8
JISSEN
100
AcDbCircle
 10
437.5938167362833
 20
34.58779985262896
 30
0.0
 40
7.0
100
AcDbArc
 50
180.0
 51
224.6499999999993
  0
ARC
  5
EF7C88484
330
EF7C85532
100
AcDbEntity
  8
JISSEN
100
AcDbCircle
 10
435.0938167362833
 20
34.98413284072865
 30
0.0
 40
8.0
100
AcDbArc
 50
180.0
 51
224.6499999999993
  0
ARC
  5
EF7C88485
330
EF7C85532
100
AcDbEntity
  8
JISSEN
100
AcDbCircle
 10
437.4093769827708
 20
20.80618796600564
 30
0.0
 40
1.452065651418106
100
AcDbArc
 50
208.1635875388365
 51
21.08591664036369
  0
ARC
  5
EF7C88486
330
EF7C85532
100
AcDbEntity
  8
JISSEN
100
AcDbCircle
 10
435.2500822254653
 20
20.0785939608952
 30
0.0
 40
1.25
100
AcDbArc
 50
90.0
 51
270.0
  0
LINE
  5
EF7C88493
330
EF7C85532
100
AcDbEntity
  8
JISSEN
100
AcDbLine
 10
461.9307928547938
 20
30.87004342609878
 30
0.0
 11
458.2681735629943
 21
21.32859396089514
 31
0.0
  0
LINE
  5
EF7C88497
330
EF7C85532
100
AcDbEntity
  8
JISSEN
100
AcDbLine
 10
455.5903110789015
 20
21.32859396089514
 30
0.0
 11
458.2979537077881
 21
28.38224416450628
 31
0.0
  0
LINE
  5
EF7C884A1
330
EF7C85532
100
AcDbEntity
  8
JISSEN
100
AcDbLine
 10
458.2681735629943
 20
21.32859396089514
 30
0.0
 11
455.5903110789015
 21
21.32859396089514
 31
0.0
  0
LINE
  5
EF7C884A8
330
EF7C85532
100
AcDbEntity
  8
JISSEN
100
AcDbLine
 10
452.0000822254655
 20
32.49271163855589
 30
0.0
 11
459.0934851534542
 21
32.49271163855579
 31
0.0
1001
ACAD
1000
ASC_BOUNDS
1002
{
1070
    19
1002
}
  0
ARC
  5
EF7C884A9
330
EF7C85532
100
AcDbEntity
  8
JISSEN
100
AcDbCircle
 10
447.0949885898217
 20
32.68265955904991
 30
0.0
 40
12.0
100
AcDbArc
 50
338.9999999999993
 51
0.0
  0
ARC
  5
EF7C884AB
330
EF7C85532
100
AcDbEntity
  8
JISSEN
100
AcDbCircle
 10
468.7500822254654
 20
20.0785939608952
 30
0.0
 40
1.25
100
AcDbArc
 50
135.0000000000046
 51
315.0
  0
LINE
  5
EF7C884B1
330
EF7C85532
100
AcDbEntity
  8
JISSEN
100
AcDbLine
 10
462.400825359214
 20
32.49271163855573
 30
0.0
 11
466.529285242067
 21
32.49271163855567
 31
0.0
1001
ACAD
1000
ASC_BOUNDS
1002
{
1070
    19
1002
}
  0
ARC
  5
EF7C884B2
330
EF7C85532
100
AcDbEntity
  8
JISSEN
100
AcDbCircle
 10
452.5949885898217
 20
34.45372292155179
 30
0.0
 40
10.0
100
AcDbArc
 50
338.9999999999993
 51
0.0
  0
INSERT
  5
EF7C884B5
330
EF7C85532
100
AcDbEntity
  8
SUNPOU
100
AcDbBlockReference
  2
ARROW
 10
470.7919865466858
 20
34.49695960941089
 30
0.0
 41
1.499999999999995
 42
1.5
 43
1.5
 50
146.0291974830132
  0
TEXT
  5
EF7C884B6
330
EF7C85532
100
AcDbEntity
  8
SUNPOU
100
AcDbText
 10
498.7214348633084
 20
6.665259596075087
 30
0.0
 40
3.0
  1
MFQR   ガード作動状態
  7
K
100
AcDbText
  0
TEXT
  5
EF7C884B9
330
EF7C85532
100
AcDbEntity
  8
SUNPOU
100
AcDbText
 10
498.7214348633084
 20
1.665259596075087
 30
0.0
 40
3.0
  1
尺度　1/1
  7
K
100
AcDbText
  0
CIRCLE
  5
EF7C884BC
330
EF7C85532
100
AcDbEntity
  8
SUNPOU
100
AcDbCircle
 10
490.0289512540398
 20
21.53572117717192
 30
0.0
 40
6.0
  0
ARC
  5
EF7C884BD
330
EF7C85532
100
AcDbEntity
  8
JISSEN
100
AcDbCircle
 10
473.6500822254654
 20
34.61032194454139
 30
0.0
 40
7.0
100
AcDbArc
 50
315.0
 51
0.0
  0
ARC
  5
EF7C884BE
330
EF7C85532
100
AcDbEntity
  8
JISSEN
100
AcDbCircle
 10
471.1500822254655
 20
34.23164228810071
 30
0.0
 40
6.0
100
AcDbArc
 50
315.0000000000046
 51
0.0
  0
TEXT
  5
EF7C884BF
330
EF7C85532
100
AcDbEntity
  8
SUNPOU
100
AcDbText
 10
488.2075226826112
 20
19.28572117717192
 30
0.0
 40
4.5
  1
1
  7
K
 72
     4
 11
490.0289512540398
 21
21.53572117717192
 31
0.0
100
AcDbText
  0
CIRCLE
  5
EF7C884C0
330
EF7C85532
100
AcDbEntity
  8
SUNPOU
100
AcDbCircle
 10
510.0289512540398
 20
21.53572117717192
 30
0.0
 40
6.0
  0
TEXT
  5
EF7C884C1
330
EF7C85532
100
AcDbEntity
  8
SUNPOU
100
AcDbText
 10
507.8860941111826
 20
19.28572117717192
 30
0.0
 40
4.5
  1
2
  7
K
 72
     4
 11
510.0289512540398
 21
21.53572117717192
 31
0.0
100
AcDbText
  0
LINE
  5
EF7C884C2
330
EF7C85532
100
AcDbEntity
  8
JISSEN
100
AcDbLine
 10
480.6500822254655
 20
53.82859396089521
 30
0.0
 11
420.3500822254656
 21
53.82859396089521
 31
0.0
  0
LINE
  5
EF7C884C3
330
EF7C85532
100
AcDbEntity
  8
JISSEN
100
AcDbLine
 10
420.3500822254656
 20
47.3285939608952
 30
0.0
 11
477.1500822254655
 21
47.32859396089522
 31
0.0
  0
TEXT
  5
EF7C884C4
330
EF7C85532
100
AcDbEntity
  8
TEXT
100
AcDbText
 10
469.8999980634493
 20
278.4999999999999
 30
0.0
 40
3.0
  1
名      称
  7
K
 72
     4
 11
478.4999980634493
 21
279.9999999999999
 31
0.0
100
AcDbText
  0
TEXT
  5
EF7C884C6
330
EF7C85532
100
AcDbEntity
  8
TEXT
100
AcDbText
 10
464.4085694920207
 20
272.642857142857
 30
0.0
 40
3.0
  1
MFQR   型ヘッド
 41
0.9
  7
K
 72
     4
 11
478.4999980634493
 21
273.9999999999999
 31
0.0
100
AcDbText
  0
LINE
  5
EF7C884C7
330
EF7C85532
100
AcDbEntity
  8
JISSEN
100
AcDbLine
 10
477.1500822254655
 20
46.32859396089517
 30
0.0
 11
462.5949885898217
 21
46.32859396089513
 31
0.0
  0
LINE
  5
EF7C884C8
330
EF7C85532
100
AcDbEntity
  8
JISSEN
100
AcDbLine
 10
477.1500822254655
 20
45.32859396089517
 30
0.0
 11
462.5949885898217
 21
45.32859396089517
 31
0.0
  0
LINE
  5
EF7C884C9
102
{ACAD_REACTORS
330
EF7C884D1
102
}
330
EF7C85532
100
AcDbEntity
  8
JISSEN
100
AcDbLine
 10
478.3500822254652
 20
53.82859396089518
 30
0.0
 11
452.0000822254655
 21
53.82859396089518
 31
0.0
  0
ARC
  5
EF7C884CA
330
EF7C85532
100
AcDbEntity
  8
JISSEN
100
AcDbCircle
 10
474.4542028959282
 20
37.87576853503177
 30
0.0
 40
1.5
100
AcDbArc
 50
290.0
 51
355.0000000000001
  0
ARC
  5
EF7C884CB
330
EF7C85532
100
AcDbEntity
  8
JISSEN
100
AcDbCircle
 10
473.8310372254654
 20
38.02859096089517
 30
0.0
 40
1.3
100
AcDbArc
 50
294.825405
 51
353.8576429999998
  0
ARC
  5
EF7C884CC
330
EF7C85532
100
AcDbEntity
  8
JISSEN
100
AcDbCircle
 10
474.2586132254654
 20
38.0955799608952
 30
0.0
 40
1.399999999999999
100
AcDbArc
 50
294.825405
 51
353.8576429999998
  0
LINE
  5
EF7C884CD
330
EF7C85532
100
AcDbEntity
  8
JISSEN
100
AcDbLine
 10
453.4999980634493
 20
276.9999999999999
 30
0.0
 11
542.9999980634493
 21
276.9999999999999
 31
0.0
  0
LINE
  5
EF7C884CE
330
EF7C85532
100
AcDbEntity
  8
JISSEN
100
AcDbLine
 10
453.4999980634493
 20
270.9999999999999
 30
0.0
 11
542.9999980634493
 21
270.9999999999999
 31
0.0
  0
LINE
  5
EF7C884CF
330
EF7C85532
100
AcDbEntity
  8
JISSEN
100
AcDbLine
 10
453.4999980634493
 20
264.9999999999999
 30
0.0
 11
542.9999980634493
 21
264.9999999999999
 31
0.0
  0
LINE
  5
EF7C884D0
102
{ACAD_REACTORS
330
EF7C884D1
102
}
330
EF7C85532
100
AcDbEntity
  8
JISSEN
100
AcDbLine
 10
462.5975881424143
 20
53.82859396089521
 30
0.0
 11
517.2759047431449
 21
53.82859396089518
 31
0.0
  0
HATCH
  5
EF7C884D1
330
EF7C85532
100
AcDbEntity
  8
HATCH
100
AcDbHatch
 10
0.0
 20
0.0
 30
0.0
210
0.0
220
0.0
230
1.0
  2
_U
 70
     0
 71
     1
 91
        2
 92
        7
 72
     0
 73
     1
 93
       16
 10
469.5000822254653
 20
58.82859396089514
 10
469.5000822254653
 20
53.82859396089518
 10
478.3500822254652
 20
53.82859396089518
 10
517.2759047431449
 20
53.82859396089518
 10
517.3091289376428
 20
53.91314371746187
 10
517.5837090008442
 20
54.57676250474968
 10
517.9139655935588
 20
55.11433350237851
 10
518.2951016199084
 20
55.53755389100263
 10
518.7052740327027
 20
55.87886698262783
 10
519.1226397847497
 20
56.17071608925641
 10
519.5253558288574
 20
56.44554452289412
 10
519.8915791178373
 20
56.73579559554422
 10
520.1994666044968
 20
57.0739126192112
 10
520.4271752416445
 20
57.49233890589893
 10
520.569080598325
 20
58.00895688266414
 10
520.7336677765747
 20
58.82859396089518
 97
        5
330
EF7C8857E
330
EF7C884D2
330
EF7C88528
330
EF7C884C9
330
EF7C884D0
 92
        7
 72
     0
 73
     1
 93
       15
 10
383.2663297983238
 20
58.82859396089517
 10
383.4309169765738
 20
58.00895688266344
 10
383.5728223332542
 20
57.49233890589902
 10
383.800530970402
 20
57.07391261921099
 10
384.1084184570614
 20
56.73579559554403
 10
384.4746417460405
 20
56.44554452289427
 10
384.8773577901504
 20
56.17071608925357
 10
385.2947235421965
 20
55.87886698262759
 10
385.7048959549901
 20
55.53755389100274
 10
386.0860319813401
 20
55.11433350237833
 10
386.4162885740546
 20
54.57676250474998
 10
386.6908686372576
 20
53.91314371746087
 10
386.7240928317539
 20
53.82859396089518
 10
434.5000822254654
 20
53.82859396089518
 10
434.5000822254653
 20
58.82859396089521
 97
        4
330
EF7C884DA
330
EF7C884DB
330
EF7C884D9
330
EF7C884E7
 75
     0
 76
     0
 52
45.0
 41
2.0
 77
     0
 78
     1
 53
45.0
 43
361.9999987874493
 44
-126.5000001996573
 45
-1.414213562373094
 46
1.414213562373094
 79
     0
 47
0.2346837798524018
 98
        2
 10
479.2263862772937
 20
56.6842257965508
 10
428.258580983638
 20
57.38827685032188
  0
LINE
  5
EF7C884D2
102
{ACAD_REACTORS
330
EF7C884D1
102
}
330
EF7C85532
100
AcDbEntity
  8
JISSEN
100
AcDbLine
 10
520.7336677765747
 20
58.82859396089518
 30
0.0
 11
462.6288397323826
 21
58.82859396089514
 31
0.0
  0
LWPOLYLINE
  5
EF7C884D3
330
EF7C85532
100
AcDbEntity
  8
NITEN
100
AcDbPolyline
 90
        2
 70
     0
 43
0.0
 10
468.9999987874495
 20
122.7768605177683
 42
0.5882352941176295
 10
451.9999987874491
 20
122.7768605177687
 42
0.5882352941176295
  0
LWPOLYLINE
  5
EF7C884D4
330
EF7C85532
100
AcDbEntity
  8
NITEN
100
AcDbPolyline
 90
        5
 70
     0
 43
0.0
 10
468.9999987874493
 20
101.9391428666226
 10
468.9999987874493
 20
122.7768605177683
 42
-0.5882352941176476
 10
451.9999987874493
 20
122.7768605177683
 42
0.5882352941176477
 10
434.9999987874493
 20
122.7768605177681
 10
434.9999987874493
 20
101.9391428666226
  0
LINE
  5
EF7C884D5
330
EF7C85532
100
AcDbEntity
  8
JISSEN
100
AcDbLine
 10
420.3500822254656
 20
52.57859396089521
 30
0.0
 11
418.1387573600582
 21
52.57859396089521
 31
0.0
  0
LINE
  5
EF7C884D6
330
EF7C85532
100
AcDbEntity
  8
JISSEN
100
AcDbLine
 10
418.1387573600582
 20
48.5785939608952
 30
0.0
 11
420.3500822254656
 21
48.5785939608952
 31
0.0
  0
LINE
  5
EF7C884D7
330
EF7C85532
100
AcDbEntity
  8
SAISEN
100
AcDbLine
 10
420.3500822254656
 20
52.1785939608952
 30
0.0
 11
417.907817252384
 21
52.1785939608952
 31
0.0
  0
LINE
  5
EF7C884D8
330
EF7C85532
100
AcDbEntity
  8
SAISEN
100
AcDbLine
 10
417.9078172523823
 20
48.97859396089521
 30
0.0
 11
420.3500822254656
 21
48.97859396089518
 31
0.0
  0
LINE
  5
EF7C884D9
102
{ACAD_REACTORS
330
EF7C884D1
102
}
330
EF7C85532
100
AcDbEntity
  8
JISSEN
100
AcDbLine
 10
441.4025763085166
 20
53.82859396089518
 30
0.0
 11
386.7240928317538
 21
53.82859396089518
 31
0.0
  0
LINE
  5
EF7C884DA
102
{ACAD_REACTORS
330
EF7C884D1
102
}
330
EF7C85532
100
AcDbEntity
  8
JISSEN
100
AcDbLine
 10
383.2663297983239
 20
58.82859396089518
 30
0.0
 11
441.371324718548
 21
58.82859396089521
 31
0.0
  0
LWPOLYLINE
  5
EF7C884DB
102
{ACAD_REACTORS
330
EF7C884D1
102
}
330
EF7C85532
100
AcDbEntity
  8
HATCH
100
AcDbPolyline
 90
       13
 70
     0
 43
0.0
 10
383.2663297983239
 20
58.82859396089518
 10
383.4309169765738
 20
58.00895688266312
 10
383.5728223332543
 20
57.49233890589882
 10
383.800530970402
 20
57.07391261921102
 10
384.1084184570613
 20
56.73579559554409
 10
384.4746417460409
 20
56.44554452289398
 10
384.8773577901496
 20
56.17071608925649
 10
385.2947235421963
 20
55.87886698262749
 10
385.7048959549903
 20
55.53755389100277
 10
386.0860319813399
 20
55.1143335023784
 10
386.4162885740544
 20
54.57676250475012
 10
386.6908686372571
 20
53.91314371746265
 10
386.7240928317538
 20
53.82859396089518
  0
LINE
  5
EF7C884DC
330
EF7C85532
100
AcDbEntity
  8
JISSEN
100
AcDbLine
 10
418.1387573600582
 20
52.57859396089521
 30
0.0
 11
418.1387573600582
 21
48.5785939608952
 31
0.0
  0
LINE
  5
EF7C884DD
330
EF7C85532
100
AcDbEntity
  8
JISSEN
100
AcDbLine
 10
417.8500822254656
 20
52.07859396089521
 30
0.0
 11
417.8500822254656
 21
49.0785939608952
 31
0.0
  0
LINE
  5
EF7C884DE
330
EF7C85532
100
AcDbEntity
  8
JISSEN
100
AcDbLine
 10
417.8500822254656
 20
49.07859396089161
 30
0.0
 11
418.1387573600582
 21
48.5785939608952
 31
0.0
  0
LINE
  5
EF7C884DF
330
EF7C85532
100
AcDbEntity
  8
JISSEN
100
AcDbLine
 10
417.8500822254656
 20
52.07859396089521
 30
0.0
 11
418.1387573600582
 21
52.57859396089521
 31
0.0
  0
LWPOLYLINE
  5
EF7C884E0
330
EF7C85532
100
AcDbEntity
  8
NITEN
100
AcDbPolyline
 90
       15
 70
     1
 43
0.0
 10
437.9999987874493
 20
61.4391428666226
 42
0.4142135623730927
 10
439.4999987874491
 20
59.9391428666226
 10
462.5940499584459
 20
59.9391428666226
 10
464.4999987874493
 20
59.9391428666226
 42
0.4142135623730925
 10
465.9999987874493
 20
61.4391428666226
 10
465.9999987874493
 20
72.48515889284057
 42
-0.4142135623730943
 10
470.9999987874493
 20
77.48515889284057
 42
0.4142135623730951
 10
472.9999987874493
 20
79.48515889284057
 10
472.9999987874491
 20
99.9391428666226
 42
0.4142135623730949
 10
470.9999987874493
 20
101.9391428666226
 10
432.9999987874493
 20
101.9391428666226
 42
0.4142135623730951
 10
430.9999987874493
 20
99.9391428666226
 10
430.9999987874493
 20
79.48515889284057
 42
0.4142135623730951
 10
432.9999987874493
 20
77.48515889284057
 42
-0.4142135623730961
 10
437.9999987874493
 20
72.48515889284057
  0
LINE
  5
EF7C884E1
330
EF7C85532
100
AcDbEntity
  8
JISSEN
100
AcDbLine
 10
430.5938167362833
 20
45.32859396089517
 30
0.0
 11
452.0000822254655
 21
45.32859396089517
 31
0.0
  0
LINE
  5
EF7C884E2
330
EF7C85532
100
AcDbEntity
  8
JISSEN
100
AcDbLine
 10
430.5938167362833
 20
46.32859396089517
 30
0.0
 11
451.0000822254654
 21
46.32859396089517
 31
0.0
  0
LINE
  5
EF7C884E6
330
EF7C85532
100
AcDbEntity
  8
JISSEN
100
AcDbLine
 10
425.6500822254653
 20
53.82859396089518
 30
0.0
 11
452.0000822254655
 21
53.82859396089518
 31
0.0
  0
LINE
  5
EF7C884E7
102
{ACAD_REACTORS
330
EF7C884D1
102
}
330
EF7C85532
100
AcDbEntity
  8
JISSEN
100
AcDbLine
 10
434.5000822254654
 20
58.82859396089521
 30
0.0
 11
434.5000822254654
 21
53.82859396089518
 31
0.0
  0
ARC
  5
EF7C884EA
330
EF7C85532
100
AcDbEntity
  8
JISSEN
100
AcDbCircle
 10
432.8159312254654
 20
36.43171496089515
 30
0.0
 40
0.4
100
AcDbArc
 50
242.253262
 51
270.0
  0
LINE
  5
EF7C884EB
330
EF7C85532
100
AcDbEntity
  8
JISSEN
100
AcDbLine
 10
433.8588072254654
 20
36.2202169608952
 30
0.0
 11
432.3594322254654
 21
37.0089669608952
 31
0.0
  0
LINE
  5
EF7C884EC
330
EF7C85532
100
AcDbEntity
  8
JISSEN
100
AcDbLine
 10
425.5000822254654
 20
46.32859396089517
 30
0.0
 11
426.5000822254654
 21
45.32859396089517
 31
0.0
  0
LINE
  5
EF7C884ED
330
EF7C85532
100
AcDbEntity
  8
JISSEN
100
AcDbLine
 10
432.0942732254653
 20
37.40614396089515
 30
0.0
 11
431.5261652254654
 21
43.64672596089515
 31
0.0
  0
LINE
  5
EF7C884EE
330
EF7C85532
100
AcDbEntity
  8
JISSEN
100
AcDbLine
 10
431.0893412254653
 20
43.6110269608952
 30
0.0
 11
431.6200952254654
 21
37.59157696089518
 31
0.0
  0
LINE
  5
EF7C884EF
330
EF7C85532
100
AcDbEntity
  8
JISSEN
100
AcDbLine
 10
431.2416062254653
 20
36.80792296089518
 30
0.0
 11
432.6297052254654
 21
36.07770996089518
 31
0.0
  0
ARC
  5
EF7C884F0
330
EF7C85532
100
AcDbEntity
  8
JISSEN
100
AcDbCircle
 10
431.0405082254654
 20
37.0539519608952
 30
0.0
 40
1.0
100
AcDbArc
 50
245.1745949999998
 51
270.0
  0
LINE
  5
EF7C884F1
330
EF7C85532
100
AcDbEntity
  8
JISSEN
100
AcDbLine
 10
431.0405082254654
 20
36.0539519608952
 30
0.0
 11
431.1141832254654
 21
36.0539519608952
 31
0.0
  0
ARC
  5
EF7C884F2
330
EF7C85532
100
AcDbEntity
  8
JISSEN
100
AcDbCircle
 10
431.1141832254654
 20
36.10395196089516
 30
0.0
 40
0.05
100
AcDbArc
 50
270.0
 51
65.17459499999985
  0
LINE
  5
EF7C884F3
330
EF7C85532
100
AcDbEntity
  8
JISSEN
100
AcDbLine
 10
431.1351752254654
 20
36.14933096089517
 30
0.0
 11
430.5938167362834
 21
36.39976519788918
 31
0.0
  0
LINE
  5
EF7C884F4
330
EF7C85532
100
AcDbEntity
  8
JISSEN
100
AcDbLine
 10
430.5938167362834
 20
36.1587746119936
 30
0.0
 11
430.6206532254654
 21
36.14635996089518
 31
0.0
  0
ARC
  5
EF7C884F5
330
EF7C85532
100
AcDbEntity
  8
JISSEN
100
AcDbCircle
 10
432.1181632254654
 20
37.63549296089522
 30
0.0
 40
0.5
100
AcDbArc
 50
185.0389269999999
 51
279.3495549999998
  0
ARC
  5
EF7C884F6
330
EF7C85532
100
AcDbEntity
  8
JISSEN
100
AcDbCircle
 10
431.8468392254653
 20
37.9584419608952
 30
0.0
 40
1.3
100
AcDbArc
 50
195.4499661289538
 51
242.253262
  0
ARC
  5
EF7C884F7
330
EF7C85532
100
AcDbEntity
  8
JISSEN
100
AcDbCircle
 10
432.5922142254653
 20
37.45147396089517
 30
0.0
 40
0.5
100
AcDbArc
 50
185.2015590000002
 51
242.253262
  0
LINE
  5
EF7C884F8
330
EF7C85532
100
AcDbEntity
  8
JISSEN
100
AcDbLine
 10
426.5000822254654
 20
45.32859396089517
 30
0.0
 11
427.0938167362833
 21
45.3285939608952
 31
0.0
  0
LINE
  5
EF7C884F9
330
EF7C85532
100
AcDbEntity
  8
JISSEN
100
AcDbLine
 10
426.5000822254654
 20
45.32859396089517
 30
0.0
 11
427.0938167362833
 21
45.32859396089515
 31
0.0
  0
ARC
  5
EF7C884FA
330
EF7C85532
100
AcDbEntity
  8
JISSEN
100
AcDbCircle
 10
431.3269882254655
 20
43.62859396089517
 30
0.0
 40
0.2
100
AcDbArc
 50
5.201559000000191
 51
90.0
  0
LINE
  5
EF7C884FB
330
EF7C85532
100
AcDbEntity
  8
JISSEN
100
AcDbLine
 10
431.3269882254655
 20
43.82859396089517
 30
0.0
 11
430.5938167362833
 21
43.82859396089517
 31
0.0
  0
ARC
  5
EF7C884FC
330
EF7C85532
100
AcDbEntity
  8
JISSEN
100
AcDbCircle
 10
431.2885682254654
 20
43.62859396089517
 30
0.0
 40
0.2
100
AcDbArc
 50
90.0
 51
185.0389269999999
  0
LINE
  5
EF7C884FD
330
EF7C85532
100
AcDbEntity
  8
JISSEN
100
AcDbLine
 10
425.5000822254654
 20
46.32859396089517
 30
0.0
 11
427.0938167362834
 21
46.32859396089517
 31
0.0
  0
LINE
  5
EF7C884FE
330
EF7C85532
100
AcDbEntity
  8
JISSEN
100
AcDbLine
 10
420.3500822254656
 20
53.82859396089521
 30
0.0
 11
420.3500822254656
 21
47.3285939608952
 31
0.0
  0
LINE
  5
EF7C884FF
330
EF7C85532
100
AcDbEntity
  8
JISSEN
100
AcDbLine
 10
423.6100822254655
 20
53.82859396089521
 30
0.0
 11
423.6100822254655
 21
47.3285939608952
 31
0.0
  0
LINE
  5
EF7C88500
330
EF7C85532
100
AcDbEntity
  8
JISSEN
100
AcDbLine
 10
425.5000822254654
 20
47.32859396089518
 30
0.0
 11
425.5000822254654
 21
46.32859396089517
 31
0.0
  0
LINE
  5
EF7C88501
330
EF7C85532
100
AcDbEntity
  8
JISSEN
100
AcDbLine
 10
425.3500822254656
 20
53.82859396089521
 30
0.0
 11
420.3500822254656
 21
53.82859396089521
 31
0.0
  0
LINE
  5
EF7C88502
330
EF7C85532
100
AcDbEntity
  8
JISSEN
100
AcDbLine
 10
437.3790612254654
 20
43.64260796089515
 30
0.0
 11
437.8228682254654
 21
37.32434196089517
 31
0.0
  0
LINE
  5
EF7C88503
330
EF7C85532
100
AcDbEntity
  8
JISSEN
100
AcDbLine
 10
435.8938422254653
 20
43.50900196089518
 30
0.0
 11
436.2864852254654
 21
37.50937096089514
 31
0.0
  0
LINE
  5
EF7C88504
330
EF7C85532
100
AcDbEntity
  8
JISSEN
100
AcDbLine
 10
435.4982052254653
 20
37.70203896089518
 30
0.0
 11
435.0941712254654
 21
43.45406896089516
 31
0.0
  0
LINE
  5
EF7C88505
330
EF7C85532
100
AcDbEntity
  8
JISSEN
100
AcDbLine
 10
437.0044292254654
 20
36.0961629608952
 30
0.0
 11
436.0013632254654
 21
36.80708496089518
 31
0.0
  0
ARC
  5
EF7C88506
330
EF7C85532
100
AcDbEntity
  8
JISSEN
100
AcDbCircle
 10
436.6856312254654
 20
37.5354929608952
 30
0.0
 40
0.4
100
AcDbArc
 50
183.7443620000003
 51
270.0
  0
ARC
  5
EF7C88507
330
EF7C85532
100
AcDbEntity
  8
JISSEN
100
AcDbCircle
 10
433.8122502254654
 20
36.1317149608952
 30
0.0
 40
0.1
100
AcDbArc
 50
270.0
 51
62.25326200000021
  0
LINE
  5
EF7C88508
330
EF7C85532
100
AcDbEntity
  8
JISSEN
100
AcDbLine
 10
432.8159312254654
 20
36.03171496089518
 30
0.0
 11
433.8122502254654
 21
36.03171496089518
 31
0.0
  0
ARC
  5
EF7C88509
330
EF7C85532
100
AcDbEntity
  8
JISSEN
100
AcDbCircle
 10
436.6952552254653
 20
37.7861219608952
 30
0.0
 40
1.199999999999999
100
AcDbArc
 50
184.0179690000003
 51
234.6729319999998
  0
LINE
  5
EF7C8850A
330
EF7C85532
100
AcDbEntity
  8
JISSEN
100
AcDbLine
 10
436.6856312254654
 20
37.13549296089522
 30
0.0
 11
437.8857832254653
 21
37.13549296089522
 31
0.0
  0
LINE
  5
EF7C8850B
330
EF7C85532
100
AcDbEntity
  8
JISSEN
100
AcDbLine
 10
437.9905882254654
 20
37.02602396089517
 30
0.0
 11
439.0091832254653
 21
36.30409496089518
 31
0.0
  0
LINE
  5
EF7C8850C
330
EF7C85532
100
AcDbEntity
  8
JISSEN
100
AcDbLine
 10
438.9224472254654
 20
36.03171496089518
 30
0.0
 11
437.2068142254653
 21
36.03171496089518
 31
0.0
  0
ARC
  5
EF7C8850D
330
EF7C85532
100
AcDbEntity
  8
JISSEN
100
AcDbCircle
 10
437.2068142254653
 20
36.38171496089521
 30
0.0
 40
0.35
100
AcDbArc
 50
234.6729319999998
 51
270.0
  0
ARC
  5
EF7C8850E
330
EF7C85532
100
AcDbEntity
  8
JISSEN
100
AcDbCircle
 10
438.9224472254654
 20
36.18171496089515
 30
0.0
 40
0.15
100
AcDbArc
 50
270.0
 51
54.67293199999994
  0
ARC
  5
EF7C8850F
330
EF7C85532
100
AcDbEntity
  8
JISSEN
100
AcDbCircle
 10
438.2218852254655
 20
37.35236996089517
 30
0.0
 40
0.4
100
AcDbArc
 50
184.0179690000003
 51
234.6729319999998
  0
LINE
  5
EF7C88510
330
EF7C85532
100
AcDbEntity
  8
JISSEN
100
AcDbLine
 10
436.1932012254653
 20
43.82859396089517
 30
0.0
 11
437.1795522254654
 21
43.82859396089517
 31
0.0
  0
ARC
  5
EF7C88511
330
EF7C85532
100
AcDbEntity
  8
JISSEN
100
AcDbCircle
 10
436.1932012254653
 20
43.52859396089516
 30
0.0
 40
0.3
100
AcDbArc
 50
90.0
 51
183.7443620000003
  0
ARC
  5
EF7C88512
330
EF7C85532
100
AcDbEntity
  8
JISSEN
100
AcDbCircle
 10
435.4433102254653
 20
43.47859396089514
 30
0.0
 40
0.35
100
AcDbArc
 50
90.0
 51
184.0179690000003
  0
LINE
  5
EF7C88513
330
EF7C85532
100
AcDbEntity
  8
JISSEN
100
AcDbLine
 10
435.4433102254653
 20
43.82859396089517
 30
0.0
 11
436.1932012254653
 21
43.82859396089517
 31
0.0
  0
ARC
  5
EF7C88514
330
EF7C85532
100
AcDbEntity
  8
JISSEN
100
AcDbCircle
 10
437.1795522254654
 20
43.62859396089517
 30
0.0
 40
0.2
100
AcDbArc
 50
4.017969000000318
 51
90.0
  0
LINE
  5
EF7C88515
330
EF7C85532
100
AcDbEntity
  8
JISSEN
100
AcDbLine
 10
445.2582292254653
 20
37.2293179608952
 30
0.0
 11
445.0187772254653
 21
43.63606396089521
 31
0.0
  0
LINE
  5
EF7C88516
330
EF7C85532
100
AcDbEntity
  8
JISSEN
100
AcDbLine
 10
442.6298772254654
 20
43.5698929608952
 30
0.0
 11
442.8438552254654
 21
37.42505296089514
 31
0.0
  0
LINE
  5
EF7C88517
330
EF7C85532
100
AcDbEntity
  8
JISSEN
100
AcDbLine
 10
442.2041352254654
 20
43.5173889608952
 30
0.0
 11
442.4309692254653
 21
37.44824096089522
 31
0.0
  0
LINE
  5
EF7C88518
330
EF7C85532
100
AcDbEntity
  8
JISSEN
100
AcDbLine
 10
443.1436732254653
 20
37.13549296089522
 30
0.0
 11
445.2770062254653
 21
37.13549296089522
 31
0.0
  0
ARC
  5
EF7C88519
330
EF7C85532
100
AcDbEntity
  8
JISSEN
100
AcDbCircle
 10
443.4212232254655
 20
36.3317149608952
 30
0.0
 40
0.3
100
AcDbArc
 50
216.8971619999997
 51
270.0
  0
LINE
  5
EF7C8851A
330
EF7C85532
100
AcDbEntity
  8
JISSEN
100
AcDbLine
 10
442.6305572254654
 20
36.88520896089518
 30
0.0
 11
443.1813082254653
 21
36.15160096089518
 31
0.0
  0
ARC
  5
EF7C8851B
330
EF7C85532
100
AcDbEntity
  8
JISSEN
100
AcDbCircle
 10
443.1436732254653
 20
37.43549296089517
 30
0.0
 40
0.3
100
AcDbArc
 50
181.994368
 51
270.0
  0
ARC
  5
EF7C8851C
330
EF7C85532
100
AcDbEntity
  8
JISSEN
100
AcDbCircle
 10
443.4302712254654
 20
37.48558996089517
 30
0.0
 40
1.0
100
AcDbArc
 50
182.1404319999997
 51
216.8971619999997
  0
ARC
  5
EF7C8851D
330
EF7C85532
100
AcDbEntity
  8
JISSEN
100
AcDbCircle
 10
445.6901522254653
 20
36.23171496089517
 30
0.0
 40
0.2
100
AcDbArc
 50
270.0
 51
36.89716199999973
  0
LINE
  5
EF7C8851E
330
EF7C85532
100
AcDbEntity
  8
JISSEN
100
AcDbLine
 10
445.8500952254653
 20
36.35179196089521
 30
0.0
 11
445.3181052254654
 21
37.06040796089515
 31
0.0
  0
LINE
  5
EF7C8851F
330
EF7C85532
100
AcDbEntity
  8
JISSEN
100
AcDbLine
 10
443.4212232254655
 20
36.03171496089518
 30
0.0
 11
445.6901522254653
 21
36.03171496089518
 31
0.0
  0
ARC
  5
EF7C88520
330
EF7C85532
100
AcDbEntity
  8
JISSEN
100
AcDbCircle
 10
445.5580202254654
 20
37.24052196089516
 30
0.0
 40
0.3
100
AcDbArc
 50
182.1404319999997
 51
216.8971619999997
  0
LINE
  5
EF7C88521
330
EF7C85532
100
AcDbEntity
  8
JISSEN
100
AcDbLine
 10
444.8189162254654
 20
43.82859396089517
 30
0.0
 11
442.5039252254653
 21
43.82859396089517
 31
0.0
  0
ARC
  5
EF7C88522
330
EF7C85532
100
AcDbEntity
  8
JISSEN
100
AcDbCircle
 10
442.8797252254653
 20
43.57859396089518
 30
0.0
 40
0.25
100
AcDbArc
 50
90.0
 51
181.994368
  0
ARC
  5
EF7C88523
330
EF7C85532
100
AcDbEntity
  8
JISSEN
100
AcDbCircle
 10
442.5039252254653
 20
43.52859396089516
 30
0.0
 40
0.3
100
AcDbArc
 50
90.0
 51
182.1404319999997
  0
ARC
  5
EF7C88524
330
EF7C85532
100
AcDbEntity
  8
JISSEN
100
AcDbCircle
 10
444.8189162254654
 20
43.62859396089517
 30
0.0
 40
0.2
100
AcDbArc
 50
2.140431999999735
 51
90.0
  0
LINE
  5
EF7C88528
102
{ACAD_REACTORS
330
EF7C884D1
102
}
330
EF7C85532
100
AcDbEntity
  8
JISSEN
100
AcDbLine
 10
469.5000822254653
 20
58.82859396089518
 30
0.0
 11
469.5000822254653
 21
53.82859396089521
 31
0.0
  0
ARC
  5
EF7C8852C
330
EF7C85532
100
AcDbEntity
  8
JISSEN
100
AcDbCircle
 10
452.0000822254655
 20
46.32859396089517
 30
0.0
 40
1.0
100
AcDbArc
 50
180.0
 51
270.0
  0
ARC
  5
EF7C8852D
330
EF7C85532
100
AcDbEntity
  8
JISSEN
100
AcDbCircle
 10
452.0000822254655
 20
46.32859396089517
 30
0.0
 40
1.0
100
AcDbArc
 50
270.0
 51
0.000000000000007
  0
LINE
  5
EF7C8852E
330
EF7C85532
100
AcDbEntity
  8
JISSEN
100
AcDbLine
 10
459.0949885898218
 20
45.32859396089517
 30
0.0
 11
452.0000822254655
 21
45.32859396089517
 31
0.0
  0
LINE
  5
EF7C8852F
330
EF7C85532
100
AcDbEntity
  8
JISSEN
100
AcDbLine
 10
450.5000822254654
 20
43.32859396089517
 30
0.0
 11
450.5000822254654
 21
36.53171496089518
 31
0.0
  0
LINE
  5
EF7C88530
330
EF7C85532
100
AcDbEntity
  8
JISSEN
100
AcDbLine
 10
453.5000822254653
 20
43.32859396089517
 30
0.0
 11
453.5000822254653
 21
36.53171496089518
 31
0.0
  0
LINE
  5
EF7C88531
330
EF7C85532
100
AcDbEntity
  8
JISSEN
100
AcDbLine
 10
453.0000822254653
 20
37.13549296089522
 30
0.0
 11
452.0000822254655
 21
37.13549296089522
 31
0.0
  0
LINE
  5
EF7C88532
330
EF7C85532
100
AcDbEntity
  8
JISSEN
100
AcDbLine
 10
451.0000822254654
 20
37.13549296089522
 30
0.0
 11
452.0000822254655
 21
37.13549296089522
 31
0.0
  0
LINE
  5
EF7C88533
330
EF7C85532
100
AcDbEntity
  8
JISSEN
100
AcDbLine
 10
452.0000822254655
 20
36.03171496089518
 30
0.0
 11
453.0000822254653
 21
36.03171496089518
 31
0.0
  0
LINE
  5
EF7C88534
330
EF7C85532
100
AcDbEntity
  8
JISSEN
100
AcDbLine
 10
452.0000822254655
 20
36.03171496089518
 30
0.0
 11
451.0000822254654
 21
36.03171496089518
 31
0.0
  0
ARC
  5
EF7C88535
330
EF7C85532
100
AcDbEntity
  8
JISSEN
100
AcDbCircle
 10
451.0000822254654
 20
36.53171496089518
 30
0.0
 40
0.5
100
AcDbArc
 50
180.0
 51
270.0
  0
ARC
  5
EF7C88536
330
EF7C85532
100
AcDbEntity
  8
JISSEN
100
AcDbCircle
 10
453.0000822254653
 20
36.53171496089518
 30
0.0
 40
0.5
100
AcDbArc
 50
270.0
 51
0.000000000000007
  0
ARC
  5
EF7C88537
330
EF7C85532
100
AcDbEntity
  8
JISSEN
100
AcDbCircle
 10
451.0000822254654
 20
37.63549296089522
 30
0.0
 40
0.5
100
AcDbArc
 50
180.0
 51
270.0
  0
ARC
  5
EF7C88538
330
EF7C85532
100
AcDbEntity
  8
JISSEN
100
AcDbCircle
 10
453.0000822254653
 20
37.63549296089522
 30
0.0
 40
0.5
100
AcDbArc
 50
270.0
 51
0.000000000000007
  0
LINE
  5
EF7C88539
330
EF7C85532
100
AcDbEntity
  8
JISSEN
100
AcDbLine
 10
452.0000822254655
 20
43.82859396089517
 30
0.0
 11
453.0000822254653
 21
43.82859396089517
 31
0.0
  0
LINE
  5
EF7C8853A
330
EF7C85532
100
AcDbEntity
  8
JISSEN
100
AcDbLine
 10
452.0000822254655
 20
43.82859396089517
 30
0.0
 11
451.0000822254654
 21
43.82859396089517
 31
0.0
  0
ARC
  5
EF7C8853B
330
EF7C85532
100
AcDbEntity
  8
JISSEN
100
AcDbCircle
 10
451.0000822254654
 20
43.32859396089517
 30
0.0
 40
0.5
100
AcDbArc
 50
90.0
 51
180.0
  0
ARC
  5
EF7C8853C
330
EF7C85532
100
AcDbEntity
  8
JISSEN
100
AcDbCircle
 10
453.0000822254653
 20
43.32859396089517
 30
0.0
 40
0.5
100
AcDbArc
 50
0.000000000000007
 51
90.0
  0
LINE
  5
EF7C8853D
330
EF7C85532
100
AcDbEntity
  8
JISSEN
100
AcDbLine
 10
458.7419352254654
 20
37.2293179608952
 30
0.0
 11
458.9813872254653
 21
43.63606396089521
 31
0.0
  0
LINE
  5
EF7C8853E
330
EF7C85532
100
AcDbEntity
  8
JISSEN
100
AcDbLine
 10
459.0949885898218
 20
37.13549296089524
 30
0.0
 11
458.7231582254654
 21
37.13549296089522
 31
0.0
  0
LINE
  5
EF7C8853F
330
EF7C85532
100
AcDbEntity
  8
JISSEN
100
AcDbLine
 10
459.0949885898218
 20
36.03171496089514
 30
0.0
 11
458.3100122254655
 21
36.03171496089518
 31
0.0
  0
LINE
  5
EF7C88540
330
EF7C85532
100
AcDbEntity
  8
JISSEN
100
AcDbLine
 10
458.1500692254654
 20
36.35179196089521
 30
0.0
 11
458.6820592254653
 21
37.06040796089515
 31
0.0
  0
ARC
  5
EF7C88541
330
EF7C85532
100
AcDbEntity
  8
JISSEN
100
AcDbCircle
 10
458.3100122254655
 20
36.23171496089517
 30
0.0
 40
0.2
100
AcDbArc
 50
143.1028380000001
 51
270.0
  0
ARC
  5
EF7C88542
330
EF7C85532
100
AcDbEntity
  8
JISSEN
100
AcDbCircle
 10
458.4421442254654
 20
37.24052196089516
 30
0.0
 40
0.3
100
AcDbArc
 50
323.1028380000003
 51
357.8595680000001
  0
ARC
  5
EF7C88543
330
EF7C85532
100
AcDbEntity
  8
JISSEN
100
AcDbCircle
 10
459.1812482254653
 20
43.62859396089517
 30
0.0
 40
0.2
100
AcDbArc
 50
115.5499740378471
 51
177.8595680000002
  0
LINE
  5
EF7C88544
330
EF7C85532
100
AcDbEntity
  8
JISSEN
100
AcDbLine
 10
459.0949885898218
 20
46.32859396089517
 30
0.0
 11
453.0000822254653
 21
46.32859396089517
 31
0.0
  0
LINE
  5
EF7C88545
330
EF7C85532
100
AcDbEntity
  8
JISSEN
100
AcDbLine
 10
451.0000822254654
 20
47.3285939608952
 30
0.0
 11
451.0000822254654
 21
46.32859396089517
 31
0.0
  0
LINE
  5
EF7C88546
330
EF7C85532
100
AcDbEntity
  8
JISSEN
100
AcDbLine
 10
453.0000822254653
 20
47.3285939608952
 30
0.0
 11
453.0000822254653
 21
46.32859396089517
 31
0.0
  0
LINE
  5
EF7C88547
330
EF7C85532
100
AcDbEntity
  8
JISSEN
100
AcDbLine
 10
468.5568542254653
 20
43.82859396089517
 30
0.0
 11
467.8069632254653
 21
43.82859396089517
 31
0.0
  0
ARC
  5
EF7C88548
330
EF7C85532
100
AcDbEntity
  8
JISSEN
100
AcDbCircle
 10
467.8069632254653
 20
43.52859396089516
 30
0.0
 40
0.3
100
AcDbArc
 50
356.2556379999997
 51
90.0
  0
LINE
  5
EF7C88549
330
EF7C85532
100
AcDbEntity
  8
JISSEN
100
AcDbLine
 10
468.1063222254654
 20
43.50900196089518
 30
0.0
 11
467.7136792254653
 21
37.50937096089514
 31
0.0
  0
ARC
  5
EF7C8854A
330
EF7C85532
100
AcDbEntity
  8
JISSEN
100
AcDbCircle
 10
467.3049092254654
 20
37.7861219608952
 30
0.0
 40
1.199999999999999
100
AcDbArc
 50
305.327068
 51
355.9820309999997
  0
LINE
  5
EF7C8854B
330
EF7C85532
100
AcDbEntity
  8
JISSEN
100
AcDbLine
 10
466.6211032254653
 20
43.64260796089515
 30
0.0
 11
466.1772962254653
 21
37.32434196089517
 31
0.0
  0
LINE
  5
EF7C8854C
330
EF7C85532
100
AcDbEntity
  8
JISSEN
100
AcDbLine
 10
467.3145332254653
 20
37.13549296089522
 30
0.0
 11
466.1143812254653
 21
37.13549296089522
 31
0.0
  0
LINE
  5
EF7C8854D
330
EF7C85532
100
AcDbEntity
  8
JISSEN
100
AcDbLine
 10
466.9957352254654
 20
36.0961629608952
 30
0.0
 11
467.9988012254653
 21
36.80708496089518
 31
0.0
  0
LINE
  5
EF7C8854E
330
EF7C85532
100
AcDbEntity
  8
JISSEN
100
AcDbLine
 10
465.0777172254653
 20
36.03171496089518
 30
0.0
 11
466.7933502254654
 21
36.03171496089518
 31
0.0
  0
LINE
  5
EF7C8854F
330
EF7C85532
100
AcDbEntity
  8
JISSEN
100
AcDbLine
 10
466.0095762254654
 20
37.02602396089517
 30
0.0
 11
464.9909812254652
 21
36.30409496089518
 31
0.0
  0
ARC
  5
EF7C88550
330
EF7C85532
100
AcDbEntity
  8
JISSEN
100
AcDbCircle
 10
466.7933502254654
 20
36.38171496089521
 30
0.0
 40
0.35
100
AcDbArc
 50
270.0
 51
305.327068
  0
ARC
  5
EF7C88551
330
EF7C85532
100
AcDbEntity
  8
JISSEN
100
AcDbCircle
 10
465.0777172254653
 20
36.18171496089515
 30
0.0
 40
0.15
100
AcDbArc
 50
125.3270679999999
 51
270.0
  0
ARC
  5
EF7C88552
330
EF7C85532
100
AcDbEntity
  8
JISSEN
100
AcDbCircle
 10
465.7782792254653
 20
37.35236996089517
 30
0.0
 40
0.4
100
AcDbArc
 50
305.327068
 51
355.9820309999997
  0
ARC
  5
EF7C88553
330
EF7C85532
100
AcDbEntity
  8
JISSEN
100
AcDbCircle
 10
467.3145332254653
 20
37.5354929608952
 30
0.0
 40
0.4
100
AcDbArc
 50
270.0
 51
356.2556379999997
  0
LINE
  5
EF7C88554
330
EF7C85532
100
AcDbEntity
  8
JISSEN
100
AcDbLine
 10
467.8069632254653
 20
43.82859396089517
 30
0.0
 11
466.8206122254654
 21
43.82859396089517
 31
0.0
  0
ARC
  5
EF7C88555
330
EF7C85532
100
AcDbEntity
  8
JISSEN
100
AcDbCircle
 10
466.8206122254654
 20
43.62859396089517
 30
0.0
 40
0.2
100
AcDbArc
 50
90.0
 51
175.9820309999995
  0
LINE
  5
EF7C88556
330
EF7C85532
100
AcDbEntity
  8
JISSEN
100
AcDbLine
 10
472.9108232254652
 20
43.6110269608952
 30
0.0
 11
472.3800692254654
 21
37.59157696089518
 31
0.0
  0
LINE
  5
EF7C88557
330
EF7C85532
100
AcDbEntity
  8
JISSEN
100
AcDbLine
 10
473.9732442254655
 20
43.39090696089519
 30
0.0
 11
473.4475422254654
 21
37.83596096089516
 31
0.0
  0
LINE
  5
EF7C88558
330
EF7C85532
100
AcDbEntity
  8
JISSEN
100
AcDbLine
 10
471.9058912254653
 20
37.40614396089515
 30
0.0
 11
472.4739992254654
 21
43.64672596089515
 31
0.0
  0
LINE
  5
EF7C88559
330
EF7C85532
100
AcDbEntity
  8
JISSEN
100
AcDbLine
 10
468.5019592254653
 20
37.70203896089518
 30
0.0
 11
468.9059932254654
 21
43.45406896089516
 31
0.0
  0
LINE
  5
EF7C8855A
330
EF7C85532
100
AcDbEntity
  8
JISSEN
100
AcDbLine
 10
472.7585582254653
 20
36.80792296089518
 30
0.0
 11
471.3704592254654
 21
36.07770996089518
 31
0.0
  0
LINE
  5
EF7C8855B
330
EF7C85532
100
AcDbEntity
  8
JISSEN
100
AcDbLine
 10
470.1413572254653
 20
36.2202169608952
 30
0.0
 11
471.6407322254654
 21
37.0089669608952
 31
0.0
  0
LINE
  5
EF7C8855C
330
EF7C85532
100
AcDbEntity
  8
JISSEN
100
AcDbLine
 10
471.1842332254653
 20
36.03171496089518
 30
0.0
 11
470.1879142254654
 21
36.03171496089518
 31
0.0
  0
ARC
  5
EF7C8855D
330
EF7C85532
100
AcDbEntity
  8
JISSEN
100
AcDbCircle
 10
471.1842332254653
 20
36.43171496089515
 30
0.0
 40
0.4
100
AcDbArc
 50
270.0
 51
297.7467379999998
  0
ARC
  5
EF7C8855E
330
EF7C85532
100
AcDbEntity
  8
JISSEN
100
AcDbCircle
 10
470.1879142254654
 20
36.1317149608952
 30
0.0
 40
0.1
100
AcDbArc
 50
117.7467379999998
 51
270.0
  0
LINE
  5
EF7C8855F
330
EF7C85532
100
AcDbEntity
  8
JISSEN
100
AcDbLine
 10
474.8464092254653
 20
36.82495196089515
 30
0.0
 11
473.3795112254654
 21
36.14635996089518
 31
0.0
  0
LINE
  5
EF7C88560
330
EF7C85532
100
AcDbEntity
  8
JISSEN
100
AcDbLine
 10
472.8649892254654
 20
36.14933096089517
 30
0.0
 11
474.3768482254654
 21
36.84872196089516
 31
0.0
  0
ARC
  5
EF7C88561
330
EF7C85532
100
AcDbEntity
  8
JISSEN
100
AcDbCircle
 10
472.8859812254653
 20
36.10395196089516
 30
0.0
 40
0.05
100
AcDbArc
 50
114.825405
 51
270.0
  0
LINE
  5
EF7C88562
330
EF7C85532
100
AcDbEntity
  8
JISSEN
100
AcDbLine
 10
472.9596562254654
 20
36.0539519608952
 30
0.0
 11
472.8859812254653
 21
36.0539519608952
 31
0.0
  0
ARC
  5
EF7C88563
330
EF7C85532
100
AcDbEntity
  8
JISSEN
100
AcDbCircle
 10
472.9596562254654
 20
37.0539519608952
 30
0.0
 40
1.0
100
AcDbArc
 50
270.0
 51
294.825405
  0
ARC
  5
EF7C88564
330
EF7C85532
100
AcDbEntity
  8
JISSEN
100
AcDbCircle
 10
471.8820012254654
 20
37.63549296089522
 30
0.0
 40
0.5
100
AcDbArc
 50
260.650445
 51
354.9610729999998
  0
ARC
  5
EF7C88565
330
EF7C85532
100
AcDbEntity
  8
JISSEN
100
AcDbCircle
 10
472.1533252254653
 20
37.9584419608952
 30
0.0
 40
1.3
100
AcDbArc
 50
297.7467379999998
 51
354.5938149999996
  0
ARC
  5
EF7C88566
330
EF7C85532
100
AcDbEntity
  8
JISSEN
100
AcDbCircle
 10
471.4079502254654
 20
37.45147396089517
 30
0.0
 40
0.5
100
AcDbArc
 50
297.7467379999998
 51
354.7984409999998
  0
ARC
  5
EF7C88567
330
EF7C85532
100
AcDbEntity
  8
JISSEN
100
AcDbCircle
 10
468.5568542254653
 20
43.47859396089514
 30
0.0
 40
0.35
100
AcDbArc
 50
355.9820309999997
 51
90.0
  0
ARC
  5
EF7C88568
330
EF7C85532
100
AcDbEntity
  8
JISSEN
100
AcDbCircle
 10
472.7115962254654
 20
43.62859396089517
 30
0.0
 40
0.2
100
AcDbArc
 50
354.9610729999998
 51
90.0
  0
ARC
  5
EF7C88569
330
EF7C85532
100
AcDbEntity
  8
JISSEN
100
AcDbCircle
 10
473.5750232254654
 20
43.4285939608952
 30
0.0
 40
0.4
100
AcDbArc
 50
354.5938149999996
 51
90.0
  0
LINE
  5
EF7C8856A
330
EF7C85532
100
AcDbEntity
  8
JISSEN
100
AcDbLine
 10
472.6731762254654
 20
43.82859396089517
 30
0.0
 11
473.5750232254654
 21
43.82859396089517
 31
0.0
  0
ARC
  5
EF7C8856B
330
EF7C85532
100
AcDbEntity
  8
JISSEN
100
AcDbCircle
 10
472.6731762254654
 20
43.62859396089517
 30
0.0
 40
0.2
100
AcDbArc
 50
90.0
 51
174.7984409999996
  0
LINE
  5
EF7C88571
330
EF7C85532
100
AcDbEntity
  8
JISSEN
100
AcDbLine
 10
453.4999980634493
 20
264.9999999999999
 30
0.0
 11
453.4999980634493
 21
282.9999999999998
 31
0.0
  0
LINE
  5
EF7C88572
330
EF7C85532
100
AcDbEntity
  8
JISSEN
100
AcDbLine
 10
463.4999980634493
 20
282.9999999999998
 30
0.0
 11
463.4999980634493
 21
264.9999999999999
 31
0.0
  0
TEXT
  5
EF7C88573
330
EF7C85532
100
AcDbEntity
  8
TEXT
100
AcDbText
 10
457.2857123491636
 20
272.4999999999999
 30
0.0
 40
3.0
  1
1
  7
K
 72
     4
 11
458.4999980634493
 21
273.9999999999999
 31
0.0
100
AcDbText
  0
TEXT
  5
EF7C88574
330
EF7C85532
100
AcDbEntity
  8
TEXT
100
AcDbText
 10
457.3830704689837
 20
266.4999999999999
 30
0.0
 40
3.0
  1
2
  7
K
 72
     4
 11
458.8116418975551
 21
267.9999999999999
 31
0.0
100
AcDbText
  0
TEXT
  5
EF7C88575
330
EF7C85532
100
AcDbEntity
  8
TEXT
100
AcDbText
 10
455.2999980634493
 20
278.4999999999999
 30
0.0
 40
3.0
  1
番号
  7
K
 72
     4
 11
458.4999980634493
 21
279.9999999999999
 31
0.0
100
AcDbText
  0
INSERT
  5
EF7C88576
330
EF7C85532
100
AcDbEntity
  8
SUNPOU
100
AcDbBlockReference
  2
ARROW
 10
480.6500822254655
 20
44.21945795271829
 30
0.0
 41
1.499999999999995
 42
1.5
 43
1.5
 50
142.3278883834794
  0
LINE
  5
EF7C88577
330
EF7C85532
100
AcDbEntity
  8
JISSEN
100
AcDbLine
 10
475.1235732254654
 20
37.88949196089518
 30
0.0
 11
475.7555042254653
 21
43.76152996089516
 31
0.0
  0
LINE
  5
EF7C88578
330
EF7C85532
100
AcDbEntity
  8
JISSEN
100
AcDbLine
 10
476.2384062254652
 20
43.40802996089515
 30
0.0
 11
475.6505762254653
 21
37.94578096089518
 31
0.0
  0
LINE
  5
EF7C88579
330
EF7C85532
100
AcDbEntity
  8
JISSEN
100
AcDbLine
 10
476.4688492254654
 20
43.82859396089517
 30
0.0
 11
475.9484952254653
 21
37.88091696089518
 31
0.0
  0
LINE
  5
EF7C8857A
330
EF7C85532
100
AcDbEntity
  8
JISSEN
100
AcDbLine
 10
477.1500822254655
 20
45.32859396089517
 30
0.0
 11
476.6000822254652
 21
45.32859396089517
 31
0.0
  0
ARC
  5
EF7C8857B
330
EF7C85532
100
AcDbEntity
  8
JISSEN
100
AcDbCircle
 10
475.8407032254654
 20
43.45082996089515
 30
0.0
 40
0.4
100
AcDbArc
 50
353.8576429999998
 51
88.64114500000017
  0
ARC
  5
EF7C8857C
330
EF7C85532
100
AcDbEntity
  8
JISSEN
100
AcDbCircle
 10
475.8549302254654
 20
43.75082996089517
 30
0.0
 40
0.1
100
AcDbArc
 50
92.7179019999998
 51
173.8576429999999
  0
LINE
  5
EF7C8857D
330
EF7C85532
100
AcDbEntity
  8
JISSEN
100
AcDbLine
 10
476.6000822254652
 20
45.32859396089517
 30
0.0
 11
476.4688492254654
 21
43.82859396089517
 31
0.0
  0
LWPOLYLINE
  5
EF7C8857E
102
{ACAD_REACTORS
330
EF7C884D1
102
}
330
EF7C85532
100
AcDbEntity
  8
HATCH
100
AcDbPolyline
 90
       13
 70
     0
 43
0.0
 10
520.7336677765747
 20
58.82859396089521
 10
520.5690805983249
 20
58.00895688266314
 10
520.4271752416445
 20
57.49233890589885
 10
520.1994666044965
 20
57.07391261921106
 10
519.8915791178372
 20
56.73579559554411
 10
519.5253558288579
 20
56.44554452289401
 10
519.1226397847493
 20
56.17071608925654
 10
518.7052740327024
 20
55.87886698262753
 10
518.2951016199085
 20
55.5375538910028
 10
517.9139655935586
 20
55.11433350237843
 10
517.5837090008442
 20
54.57676250475015
 10
517.3091289376416
 20
53.91314371746267
 10
517.2759047431449
 20
53.82859396089521
  0
TEXT
  5
EF7C8857F
330
EF7C85532
100
AcDbEntity
  8
TEXT
100
AcDbText
 10
527.6999980634493
 20
278.4999999999999
 30
0.0
 40
3.0
  1
備    考
  7
K
 72
     4
 11
534.4999980634493
 21
279.9999999999999
 31
0.0
100
AcDbText
  0
LINE
  5
EF7C88580
330
EF7C85532
100
AcDbEntity
  8
JISSEN
100
AcDbLine
 10
514.4999980634493
 20
264.9999999999999
 30
0.0
 11
514.4999980634493
 21
282.9999999999998
 31
0.0
  0
LINE
  5
EF7C88581
330
EF7C85532
100
AcDbEntity
  8
JISSEN
100
AcDbLine
 10
525.4999980634493
 20
282.9999999999998
 30
0.0
 11
525.4999980634493
 21
264.9999999999999
 31
0.0
  0
TEXT
  5
EF7C88582
330
EF7C85532
100
AcDbEntity
  8
TEXT
100
AcDbText
 10
518.6795465498586
 20
272.4999999999999
 30
0.0
 40
3.0
  1
1
  7
K
 72
     4
 11
519.8938322641443
 21
273.9999999999999
 31
0.0
100
AcDbText
  0
LINE
  5
EF7C88583
330
EF7C85532
100
AcDbEntity
  8
JISSEN
100
AcDbLine
 10
493.4999980634493
 20
282.9999999999998
 30
0.0
 11
493.4999980634493
 21
264.9999999999999
 31
0.0
  0
TEXT
  5
EF7C88586
330
EF7C85532
100
AcDbEntity
  8
TEXT
100
AcDbText
 10
498.8249980634493
 20
274.2999999999999
 30
0.0
 40
3.0
  1
%%u      
  7
K
 72
     4
 11
503.9999980634493
 21
273.9999999999999
 31
0.0
100
AcDbText
  0
TEXT
  5
EF7C88587
330
EF7C85532
100
AcDbEntity
  8
TEXT
100
AcDbText
 10
499.8571409205921
 20
266.4999999999999
 30
0.0
 40
3.0
  1
ADC
  7
K
 72
     4
 11
503.9999980634493
 21
267.9999999999999
 31
0.0
100
AcDbText
  0
TEXT
  5
EF7C88589
330
EF7C85532
100
AcDbEntity
  8
TEXT
100
AcDbText
 10
518.6795465498586
 20
266.580835176341
 30
0.0
 40
3.0
  1
1
  7
K
 72
     4
 11
519.8938322641443
 21
268.0808351763409
 31
0.0
100
AcDbText
  0
TEXT
  5
EF7C8858A
330
EF7C85532
100
AcDbEntity
  8
TEXT
100
AcDbText
 10
497.1999980634492
 20
278.4999999999999
 30
0.0
 40
3.0
  1
材    質
  7
K
 72
     4
 11
503.9999980634493
 21
279.9999999999999
 31
0.0
100
AcDbText
  0
TEXT
  5
EF7C8858C
330
EF7C85532
100
AcDbEntity
  8
TEXT
100
AcDbText
 10
516.7999980634492
 20
278.4999999999999
 30
0.0
 40
3.0
  1
個数
  7
K
 72
     4
 11
519.9999980634493
 21
279.9999999999999
 31
0.0
100
AcDbText
  0
LINE
  5
EF7C88699
330
EF7C85532
100
AcDbEntity
  8
JISSEN
100
AcDbLine
 10
452.0000822254685
 20
160.2427116385555
 30
0.0
 11
464.5500822254684
 21
160.2427116385561
 31
0.0
1001
ACAD
1000
ASC_BOUNDS
1002
{
1070
    19
1002
}
  0
LINE
  5
EF7C8869A
330
EF7C85532
100
AcDbEntity
  8
JISSEN
100
AcDbLine
 10
452.0000822254685
 20
160.2427116385555
 30
0.0
 11
439.4500822254685
 21
160.2427116385561
 31
0.0
1001
ACAD
1000
ASC_BOUNDS
1002
{
1070
    19
1002
}
  0
LINE
  5
EF7C8869B
330
EF7C85532
100
AcDbEntity
  8
JISSEN
100
AcDbLine
 10
440.3250822254673
 20
160.2427116385561
 30
0.0
 11
440.3250822254674
 21
151.2427116385561
 31
0.0
  0
LINE
  5
EF7C8869C
330
EF7C85532
100
AcDbEntity
  8
JISSEN
100
AcDbLine
 10
445.5385437639288
 20
160.2427116385559
 30
0.0
 11
444.5000822254674
 21
151.2427116385561
 31
0.0
  0
LINE
  5
EF7C8869D
330
EF7C85532
100
AcDbEntity
  8
JISSEN
100
AcDbLine
 10
440.3250822254673
 20
151.2427116385561
 30
0.0
 11
444.5000822254674
 21
151.2427116385561
 31
0.0
  0
LINE
  5
EF7C8869E
330
EF7C85532
100
AcDbEntity
  8
JISSEN
100
AcDbLine
 10
439.2500822254685
 20
161.9927116385555
 30
0.0
 11
439.2500822254685
 21
160.4427116385548
 31
0.0
1001
ACAD
1000
ASC_BOUNDS
1002
{
1070
    19
1002
}
  0
ARC
  5
EF7C8869F
330
EF7C85532
100
AcDbEntity
  8
JISSEN
100
AcDbCircle
 10
439.4500822254685
 20
160.4427116385559
 30
0.0
 40
0.2
100
AcDbArc
 50
180.0000000000006
 51
269.9999999999982
1001
ACAD
1000
ASC_BOUNDS
1002
{
1070
    19
1002
}
  0
LINE
  5
EF7C886A0
330
EF7C85532
100
AcDbEntity
  8
JISSEN
100
AcDbLine
 10
458.4616206870058
 20
160.2427116385559
 30
0.0
 11
459.5000822254673
 21
151.2427116385561
 31
0.0
  0
LINE
  5
EF7C886A1
330
EF7C85532
100
AcDbEntity
  8
JISSEN
100
AcDbLine
 10
463.6750822254675
 20
160.2427116385561
 30
0.0
 11
463.6750822254675
 21
151.2427116385561
 31
0.0
  0
LINE
  5
EF7C886A2
330
EF7C85532
100
AcDbEntity
  8
JISSEN
100
AcDbLine
 10
459.5000822254672
 20
151.2427116385561
 30
0.0
 11
463.6750822254676
 21
151.2427116385561
 31
0.0
  0
ARC
  5
EF7C886A3
330
EF7C85532
100
AcDbEntity
  8
JISSEN
100
AcDbCircle
 10
464.5500822254684
 20
160.4427116385559
 30
0.0
 40
0.2
100
AcDbArc
 50
270.0000000000016
 51
359.9999999999991
1001
ACAD
1000
ASC_BOUNDS
1002
{
1070
    19
1002
}
  0
LINE
  5
EF7C886A4
330
EF7C85532
100
AcDbEntity
  8
JISSEN
100
AcDbLine
 10
464.7500822254685
 20
161.9927116385555
 30
0.0
 11
464.7500822254685
 21
160.4427116385548
 31
0.0
1001
ACAD
1000
ASC_BOUNDS
1002
{
1070
    19
1002
}
  0
LINE
  5
EF7C886B1
330
EF7C85532
100
AcDbEntity
  8
JISSEN
100
AcDbLine
 10
452.0000822254665
 20
30.74271163855565
 30
0.0
 11
458.9371421974123
 21
30.74271163855596
 31
0.0
1001
ACAD
1000
ASC_BOUNDS
1002
{
1070
    19
1002
}
  0
LINE
  5
EF7C886B2
330
EF7C85532
100
AcDbEntity
  8
JISSEN
100
AcDbLine
 10
439.2500822254666
 20
32.49271163855569
 30
0.0
 11
439.2500822254666
 21
30.94271163855486
 31
0.0
1001
ACAD
1000
ASC_BOUNDS
1002
{
1070
    19
1002
}
  0
LINE
  5
EF7C886B3
330
EF7C85532
100
AcDbEntity
  8
JISSEN
100
AcDbLine
 10
452.0000822254665
 20
30.74271163855565
 30
0.0
 11
439.4500822254665
 21
30.74271163855623
 31
0.0
1001
ACAD
1000
ASC_BOUNDS
1002
{
1070
    19
1002
}
  0
LINE
  5
EF7C886B4
330
EF7C85532
100
AcDbEntity
  8
JISSEN
100
AcDbLine
 10
440.3250822254654
 20
21.74271163855618
 30
0.0
 11
444.5000822254653
 21
21.74271163855618
 31
0.0
  0
LINE
  5
EF7C886B5
330
EF7C85532
100
AcDbEntity
  8
JISSEN
100
AcDbLine
 10
440.3250822254654
 20
30.74271163855621
 30
0.0
 11
440.3250822254654
 21
21.74271163855618
 31
0.0
  0
ARC
  5
EF7C886B6
330
EF7C85532
100
AcDbEntity
  8
JISSEN
100
AcDbCircle
 10
439.4500822254665
 20
30.942711638556
 30
0.0
 40
0.2
100
AcDbArc
 50
180.0000000000006
 51
269.9999999999982
1001
ACAD
1000
ASC_BOUNDS
1002
{
1070
    19
1002
}
  0
LINE
  5
EF7C886B7
330
EF7C85532
100
AcDbEntity
  8
JISSEN
100
AcDbLine
 10
445.538543763927
 20
30.74271163855596
 30
0.0
 11
444.5000822254653
 21
21.74271163855618
 31
0.0
  0
LINE
  5
EF7C886B8
330
EF7C85532
100
AcDbEntity
  8
JISSEN
100
AcDbLine
 10
463.6750822254654
 20
30.74271163855621
 30
0.0
 11
463.6750822254654
 21
21.74271163855618
 31
0.0
  0
LINE
  5
EF7C886B9
330
EF7C85532
100
AcDbEntity
  8
JISSEN
100
AcDbLine
 10
458.461620687004
 20
30.74271163855596
 30
0.0
 11
458.6224920301361
 21
29.34849333140951
 31
0.0
  0
LINE
  5
EF7C886BA
330
EF7C85532
100
AcDbEntity
  8
JISSEN
100
AcDbLine
 10
459.5000822254654
 20
21.74271163855618
 30
0.0
 11
463.6750822254656
 21
21.74271163855618
 31
0.0
  0
LINE
  5
EF7C886BB
330
EF7C85532
100
AcDbEntity
  8
JISSEN
100
AcDbLine
 10
464.7500822254666
 20
32.49271163855569
 30
0.0
 11
464.7500822254666
 21
30.94271163855486
 31
0.0
1001
ACAD
1000
ASC_BOUNDS
1002
{
1070
    19
1002
}
  0
ARC
  5
EF7C886BC
330
EF7C85532
100
AcDbEntity
  8
JISSEN
100
AcDbCircle
 10
464.5500822254665
 20
30.942711638556
 30
0.0
 40
0.2
100
AcDbArc
 50
270.0000000000016
 51
359.9999999999991
1001
ACAD
1000
ASC_BOUNDS
1002
{
1070
    19
1002
}
  0
LINE
  5
EF7C886BD
330
EF7C85532
100
AcDbEntity
  8
JISSEN
100
AcDbLine
 10
461.8819147610393
 20
30.7427116385561
 30
0.0
 11
464.5500822254665
 21
30.74271163855623
 31
0.0
1001
ACAD
1000
ASC_BOUNDS
1002
{
1070
    19
1002
}
  0
LINE
  5
EF7C886BE
330
EF7C85532
100
AcDbEntity
  8
JISSEN
100
AcDbLine
 10
459.2521071828668
 20
23.89182867440996
 30
0.0
 11
459.5000822254654
 21
21.74271163855618
 31
0.0
  0
TEXT
  5
EF7C88701
330
EF7C85532
100
AcDbEntity
  8
TEXT
100
AcDbText
 10
345.8499985519999
 20
266.5000001996573
 30
0.0
 40
3.0
  1
梨地Crメッキ
 41
0.7
  7
K
 72
     4
 11
353.4999985519998
 21
268.0000001996573
 31
0.0
100
AcDbText
  0
TEXT
  5
EF7C88702
330
EF7C85532
100
AcDbEntity
  8
TEXT
100
AcDbText
 10
526.849998063449
 20
266.5000001996573
 30
0.0
 40
3.0
  1
梨地Crメッキ
 41
0.7
  7
K
 72
     4
 11
534.4999980634489
 21
268.0000001996573
 31
0.0
100
AcDbText
  0
LINE
  5
EF7C88781
330
EF7C85532
100
AcDbEntity
  8
TEXT
100
AcDbLine
 10
306.5973240032785
 20
269.4893304331686
 30
0.0
 11
306.5973240032785
 21
266.4893304331686
 31
0.0
  0
LINE
  5
EF7C88782
330
EF7C85532
100
AcDbEntity
  8
TEXT
100
AcDbLine
 10
305.6973240032784
 20
269.4893304331686
 30
0.0
 11
305.6973240032784
 21
266.4893304331686
 31
0.0
  0
LINE
  5
EF7C88783
330
EF7C85532
100
AcDbEntity
  8
TEXT
100
AcDbLine
 10
305.2473240032785
 20
266.4893304331686
 30
0.0
 11
307.0473240032784
 21
266.4893304331686
 31
0.0
  0
LINE
  5
EF7C88784
330
EF7C85532
100
AcDbEntity
  8
TEXT
100
AcDbLine
 10
305.2473240032785
 20
269.4893304331686
 30
0.0
 11
307.0473240032784
 21
269.4893304331686
 31
0.0
  0
TEXT
  5
EF7C88789
330
EF7C85532
100
AcDbEntity
  8
TEXT
100
AcDbText
 10
466.6714266348779
 20
266.4999999999999
 30
0.0
 40
3.0
  1
ガード MFJ   
 41
0.9
  7
K
 72
     4
 11
478.4999980634493
 21
267.9999999999999
 31
0.0
100
AcDbText
  0
LINE
  5
EF7C8878A
330
EF7C85532
100
AcDbEntity
  8
TEXT
100
AcDbLine
 10
487.5973235147276
 20
269.4893304331686
 30
0.0
 11
487.5973235147276
 21
266.4893304331686
 31
0.0
  0
LINE
  5
EF7C8878B
330
EF7C85532
100
AcDbEntity
  8
TEXT
100
AcDbLine
 10
486.6973235147277
 20
269.4893304331686
 30
0.0
 11
486.6973235147277
 21
266.4893304331686
 31
0.0
  0
LINE
  5
EF7C8878C
330
EF7C85532
100
AcDbEntity
  8
TEXT
100
AcDbLine
 10
486.2473235147278
 20
266.4893304331686
 30
0.0
 11
488.0473235147277
 21
266.4893304331686
 31
0.0
  0
LINE
  5
EF7C8878D
330
EF7C85532
100
AcDbEntity
  8
TEXT
100
AcDbLine
 10
486.2473235147278
 20
269.4893304331686
 30
0.0
 11
488.0473235147277
 21
269.4893304331686
 31
0.0
  0
LINE
  5
EF7C88893
330
EF7C85532
100
AcDbEntity
  8
TENSEN
100
AcDbLine
 10
80.42970779485377
 20
85.91899672703664
 30
0.0
 11
78.35594571524116
 21
85.13900766022755
 31
0.0
  0
ARC
  5
EF7C88894
330
EF7C85532
100
AcDbEntity
  8
TENSEN
100
AcDbCircle
 10
90.00008343801608
 20
89.51863259670096
 30
0.0
 40
12.44054090026353
100
AcDbArc
 50
157.3126187070864
 51
200.612421563193
  0
LINE
  5
EF7C88895
330
EF7C85532
100
AcDbEntity
  8
TENSEN
100
AcDbLine
 10
80.56631485121732
 20
93.46242247398119
 30
0.0
 11
78.5221535463138
 21
94.31698474012451
 31
0.0
  0
ARC
  5
EF7C88896
330
EF7C85532
100
AcDbEntity
  8
TENSEN
100
AcDbCircle
 10
90.00008343801608
 20
89.51863259670096
 30
0.0
 40
10.22494343971686
100
AcDbArc
 50
157.3126187070864
 51
200.612421563193
  0
LINE
  5
EF7C88897
330
EF7C85532
100
AcDbEntity
  8
TENSEN
100
AcDbLine
 10
89.3291158885923
 20
79.3157275744522
 30
0.0
 11
89.1837269182398
 21
77.10490552044586
 31
0.0
  0
LINE
  5
EF7C88898
330
EF7C85532
100
AcDbEntity
  8
TENSEN
100
AcDbLine
 10
82.51445598293328
 20
82.55337237549461
 30
0.0
 11
80.89242870445872
 21
81.04410115564537
 31
0.0
  0
ARC
  5
EF7C88899
330
EF7C85532
100
AcDbEntity
  8
TENSEN
100
AcDbCircle
 10
90.00008343801608
 20
89.51863259670096
 30
0.0
 40
12.44054090026353
100
AcDbArc
 50
222.9377066468629
 51
266.2375095029705
  0
ARC
  5
EF7C8889A
330
EF7C85532
100
AcDbEntity
  8
TENSEN
100
AcDbCircle
 10
90.00008343801608
 20
89.51863259670096
 30
0.0
 40
10.22494343971686
100
AcDbArc
 50
222.9377066468629
 51
266.2375095029705
  0
LINE
  5
EF7C8889B
330
EF7C85532
100
AcDbEntity
  8
JISSEN
100
AcDbLine
 10
71.96713979702906
 20
77.95260719291653
 30
0.0
 11
70.96713979702906
 21
79.68465800048541
 31
0.0
  0
ARC
  5
EF7C8889C
330
EF7C85532
100
AcDbEntity
  8
JISSEN
100
AcDbCircle
 10
90.00008343801608
 20
89.51863259670096
 30
0.0
 40
23.35
100
AcDbArc
 50
206.3167926881416
 51
213.6832073118588
  0
LINE
  5
EF7C8889D
330
EF7C85532
100
AcDbEntity
  8
JISSEN
100
AcDbLine
 10
70.2841270951372
 20
79.86767070237694
 30
0.0
 11
67.98550020673724
 21
78.54055784959259
 31
0.0
  0
ARC
  5
EF7C8889E
330
EF7C85532
100
AcDbEntity
  8
JISSEN
100
AcDbCircle
 10
90.00008343801608
 20
89.51863259670094
 30
0.0
 40
23.35
100
AcDbArc
 50
326.3167926881412
 51
333.6832073118583
  0
LINE
  5
EF7C8889F
330
EF7C85532
100
AcDbEntity
  8
JISSEN
100
AcDbLine
 10
109.0330270790029
 20
79.68465800048541
 30
0.0
 11
108.0330270790029
 21
77.9526071929165
 31
0.0
  0
LINE
  5
EF7C888A0
330
EF7C85532
100
AcDbEntity
  8
JISSEN
100
AcDbLine
 10
109.7160397808957
 20
79.86767070237831
 30
0.0
 11
112.0146666692956
 21
78.54055784959412
 31
0.0
  0
ARC
  5
EF7C888A1
330
EF7C85532
100
AcDbEntity
  8
JISSEN
100
AcDbCircle
 10
90.00008343801608
 20
89.51863259670096
 30
0.0
 40
26.5
100
AcDbArc
 50
182.162233192218
 51
267.8377668077819
  0
CIRCLE
  5
EF7C888A2
330
EF7C85532
100
AcDbEntity
  8
NITEN
100
AcDbCircle
 10
90.00008343801608
 20
89.51863259670096
 30
0.0
 40
14.5
  0
ARC
  5
EF7C888A3
330
EF7C85532
100
AcDbEntity
  8
JISSEN
100
AcDbCircle
 10
90.00008343801608
 20
89.51863259670096
 30
0.0
 40
24.6
100
AcDbArc
 50
180.0
 51
0.0
  0
ARC
  5
EF7C888A4
330
EF7C85532
100
AcDbEntity
  8
JISSEN
100
AcDbCircle
 10
90.00008343801608
 20
89.51863259670096
 30
0.0
 40
24.6
100
AcDbArc
 50
0.0
 51
180.0
  0
CIRCLE
  5
EF7C888A5
330
EF7C85532
100
AcDbEntity
  8
JISSEN
100
AcDbCircle
 10
90.00008343801615
 20
89.51863259670096
 30
0.0
 40
25.5
  0
ARC
  5
EF7C888A6
330
EF7C85532
100
AcDbEntity
  8
JISSEN
100
AcDbCircle
 10
90.00008343801608
 20
89.51863259670096
 30
0.0
 40
26.5
100
AcDbArc
 50
272.162233192218
 51
357.8377668077819
  0
CIRCLE
  5
EF7C888A7
330
EF7C85532
100
AcDbEntity
  8
JISSEN
100
AcDbCircle
 10
90.00008343801608
 20
89.51863259670096
 30
0.0
 40
13.25
  0
LINE
  5
EF7C888A8
330
EF7C85532
100
AcDbEntity
  8
JISSEN
100
AcDbLine
 10
80.1925047117678
 20
66.95823810705508
 30
0.0
 11
81.10030336800504
 21
69.45239441647806
 31
0.0
  0
ARC
  5
EF7C888A9
330
EF7C85532
100
AcDbEntity
  8
JISSEN
100
AcDbCircle
 10
91.00008343801608
 20
67.61863259670092
 30
0.0
 40
0.5
100
AcDbArc
 50
0.0
 51
90.0
  0
ARC
  5
EF7C888AA
330
EF7C85532
100
AcDbEntity
  8
JISSEN
100
AcDbCircle
 10
89.00008343801607
 20
67.61863259670092
 30
0.0
 40
0.5
100
AcDbArc
 50
90.0
 51
180.0
  0
ARC
  5
EF7C888AB
330
EF7C85532
100
AcDbEntity
  8
JISSEN
100
AcDbCircle
 10
90.00008343801608
 20
89.51863259670096
 30
0.0
 40
23.35
100
AcDbArc
 50
246.3167926881404
 51
253.6832073118582
  0
LINE
  5
EF7C888AC
330
EF7C85532
100
AcDbEntity
  8
JISSEN
100
AcDbLine
 10
98.89986350802708
 20
69.45239441647806
 30
0.0
 11
99.80766216426427
 21
66.95823810705508
 31
0.0
  0
ARC
  5
EF7C888AD
330
EF7C85532
100
AcDbEntity
  8
JISSEN
100
AcDbCircle
 10
90.00008343801608
 20
89.51863259670096
 30
0.0
 40
23.35
100
AcDbArc
 50
286.3167926881416
 51
293.6832073118593
  0
LINE
  5
EF7C888AE
330
EF7C85532
100
AcDbEntity
  8
JISSEN
100
AcDbLine
 10
83.91938123036277
 20
68.42633398650105
 30
0.0
 11
83.01158257412557
 21
65.93217767707812
 31
0.0
  0
LINE
  5
EF7C888AF
330
EF7C85532
100
AcDbEntity
  8
JISSEN
100
AcDbLine
 10
96.98858430190654
 20
65.93217767707807
 30
0.0
 11
96.0807856456693
 21
68.42633398650105
 31
0.0
  0
LINE
  5
EF7C888B0
330
EF7C85532
100
AcDbEntity
  8
JISSEN
100
AcDbLine
 10
88.50008343801608
 20
64.96440689113248
 30
0.0
 11
88.50008343801608
 21
67.61863259670092
 31
0.0
  0
LINE
  5
EF7C888B1
330
EF7C85532
100
AcDbEntity
  8
JISSEN
100
AcDbLine
 10
91.50008343801607
 20
67.61863259670092
 30
0.0
 11
91.50008343801607
 21
64.96440689113248
 31
0.0
  0
ARC
  5
EF7C888B2
330
EF7C85532
100
AcDbEntity
  8
JISSEN
100
AcDbCircle
 10
90.00008343801608
 20
63.01863259670096
 30
0.0
 40
1.0
100
AcDbArc
 50
1.08111659610956
 51
178.9188834038904
  0
ARC
  5
EF7C888B3
330
EF7C85532
100
AcDbEntity
  8
JISSEN
100
AcDbCircle
 10
90.00008343801608
 20
89.51863259670096
 30
0.0
 40
23.35
100
AcDbArc
 50
266.3167926881413
 51
273.6832073118586
  0
LINE
  5
EF7C888B4
330
EF7C85532
100
AcDbEntity
  8
JISSEN
100
AcDbLine
 10
73.06786472435145
 20
71.67318585439083
 30
0.0
 11
74.7739681212024
 21
73.70644070692512
 31
0.0
  0
LINE
  5
EF7C888B5
330
EF7C85532
100
AcDbEntity
  8
JISSEN
100
AcDbLine
 10
75.47838414760514
 20
73.76806912364135
 30
0.0
 11
77.01047303384308
 21
72.48249390426827
 31
0.0
  0
LINE
  5
EF7C888B6
330
EF7C85532
100
AcDbEntity
  8
JISSEN
100
AcDbLine
 10
105.2261987548297
 20
73.70644070692512
 30
0.0
 11
106.9323021516806
 21
71.6731858543909
 31
0.0
  0
LINE
  5
EF7C888B7
330
EF7C85532
100
AcDbEntity
  8
JISSEN
100
AcDbLine
 10
102.989693842189
 20
72.48249390426827
 30
0.0
 11
104.5217827284269
 21
73.76806912364135
 31
0.0
  0
ARC
  5
EF7C888B8
330
EF7C85532
100
AcDbEntity
  8
JISSEN
100
AcDbCircle
 10
90.00008343801608
 20
89.51863259670096
 30
0.0
 40
23.35
100
AcDbArc
 50
226.3167926881409
 51
233.6832073118579
  0
LINE
  5
EF7C888B9
330
EF7C85532
100
AcDbEntity
  8
JISSEN
100
AcDbLine
 10
77.07210145055933
 20
71.77807787786552
 30
0.0
 11
75.36599805370837
 21
69.74482302533124
 31
0.0
  0
ARC
  5
EF7C888BA
330
EF7C85532
100
AcDbEntity
  8
JISSEN
100
AcDbCircle
 10
90.00008343801608
 20
89.51863259670096
 30
0.0
 40
23.35
100
AcDbArc
 50
306.316792688142
 51
313.6832073118588
  0
LINE
  5
EF7C888BB
330
EF7C85532
100
AcDbEntity
  8
JISSEN
100
AcDbLine
 10
104.6341688223237
 20
69.74482302533115
 30
0.0
 11
102.9280654254727
 21
71.77807787786552
 31
0.0
  0
LINE
  5
EF7C888BC
330
EF7C85532
100
AcDbEntity
  8
JISSEN
100
AcDbLine
 10
89.00008343801607
 20
68.11863259670094
 30
0.0
 11
91.00008343801608
 21
68.11863259670094
 31
0.0
  0
ARC
  5
EF7C888BD
330
EF7C85532
100
AcDbEntity
  8
JISSEN
100
AcDbCircle
 10
83.44953491996982
 20
68.59734405816388
 30
0.0
 40
0.5
100
AcDbArc
 50
339.9999999999999
 51
69.99999999999992
  0
ARC
  5
EF7C888BE
330
EF7C85532
100
AcDbEntity
  8
JISSEN
100
AcDbCircle
 10
96.55063195606231
 20
68.59734405816388
 30
0.0
 40
0.5
100
AcDbArc
 50
110.0
 51
200.0
  0
LINE
  5
EF7C888BF
330
EF7C85532
100
AcDbEntity
  8
JISSEN
100
AcDbLine
 10
81.74115975006083
 20
69.75123065520816
 30
0.0
 11
83.62054499163264
 21
69.06719036855685
 31
0.0
  0
ARC
  5
EF7C888C0
330
EF7C85532
100
AcDbEntity
  8
JISSEN
100
AcDbCircle
 10
81.57014967839803
 20
69.28138434481522
 30
0.0
 40
0.5
100
AcDbArc
 50
69.99999999999992
 51
159.9999999999998
  0
LINE
  5
EF7C888C1
330
EF7C85532
100
AcDbEntity
  8
JISSEN
100
AcDbLine
 10
96.37962188439946
 20
69.06719036855682
 30
0.0
 11
98.25900712597121
 21
69.75123065520816
 31
0.0
  0
ARC
  5
EF7C888C2
330
EF7C85532
100
AcDbEntity
  8
JISSEN
100
AcDbCircle
 10
98.43001719763408
 20
69.28138434481522
 30
0.0
 40
0.5
100
AcDbArc
 50
20.00000000000009
 51
110.0
  0
ARC
  5
EF7C888C3
330
EF7C85532
100
AcDbEntity
  8
JISSEN
100
AcDbCircle
 10
76.68907922899984
 20
72.09947168270878
 30
0.0
 40
0.5
100
AcDbArc
 50
319.9999999999998
 51
49.99999999999992
  0
ARC
  5
EF7C888C4
330
EF7C85532
100
AcDbEntity
  8
JISSEN
100
AcDbCircle
 10
103.3110876470322
 20
72.09947168270878
 30
0.0
 40
0.5
100
AcDbArc
 50
130.0
 51
220.0000000000001
  0
LINE
  5
EF7C888C5
330
EF7C85532
100
AcDbEntity
  8
JISSEN
100
AcDbLine
 10
71.78412709513725
 20
77.26959449102358
 30
0.0
 11
69.4855002067373
 21
75.94248163823934
 31
0.0
  0
LINE
  5
EF7C888C6
330
EF7C85532
100
AcDbEntity
  8
JISSEN
100
AcDbLine
 10
108.2160397808957
 20
77.26959449102493
 30
0.0
 11
110.5146666692957
 21
75.94248163824076
 31
0.0
  0
ARC
  5
EF7C888C7
330
EF7C85532
100
AcDbEntity
  8
JISSEN
100
AcDbCircle
 10
75.1569903427619
 20
73.38504690208186
 30
0.0
 40
0.5
100
AcDbArc
 50
49.99999999999992
 51
139.9999999999998
  0
ARC
  5
EF7C888C8
330
EF7C85532
100
AcDbEntity
  8
JISSEN
100
AcDbCircle
 10
104.8431765332702
 20
73.38504690208186
 30
0.0
 40
0.5
100
AcDbArc
 50
40.00000000000009
 51
130.0
  0
ARC
  5
EF7C888C9
330
EF7C85532
100
AcDbEntity
  8
JISSEN
100
AcDbCircle
 10
71.53412709513684
 20
77.7026071929165
 30
0.0
 40
0.5
100
AcDbArc
 50
299.9999999999997
 51
29.99999999999972
  0
ARC
  5
EF7C888CA
330
EF7C85532
100
AcDbEntity
  8
JISSEN
100
AcDbCircle
 10
108.4660397808952
 20
77.7026071929165
 30
0.0
 40
0.5
100
AcDbArc
 50
150.0000000000001
 51
240.0000000000002
  0
LINE
  5
EF7C888CB
330
EF7C85532
100
AcDbEntity
  8
JISSEN
100
AcDbLine
 10
71.96713979702912
 20
101.0846580004854
 30
0.0
 11
70.96713979702911
 21
99.35260719291662
 31
0.0
  0
ARC
  5
EF7C888CC
330
EF7C85532
100
AcDbEntity
  8
JISSEN
100
AcDbCircle
 10
90.00008343801608
 20
89.51863259670096
 30
0.0
 40
23.35
100
AcDbArc
 50
146.3167926881411
 51
153.6832073118582
  0
LINE
  5
EF7C888CD
330
EF7C85532
100
AcDbEntity
  8
JISSEN
100
AcDbLine
 10
108.033027079003
 20
101.0846580004854
 30
0.0
 11
109.0330270790029
 21
99.35260719291651
 31
0.0
  0
ARC
  5
EF7C888CE
330
EF7C85532
100
AcDbEntity
  8
JISSEN
100
AcDbCircle
 10
90.00008343801608
 20
89.51863259670096
 30
0.0
 40
23.35
100
AcDbArc
 50
26.3167926881416
 51
33.6832073118588
  0
ARC
  5
EF7C888CF
330
EF7C85532
100
AcDbEntity
  8
JISSEN
100
AcDbCircle
 10
90.00008343801608
 20
89.51863259670096
 30
0.0
 40
26.5
100
AcDbArc
 50
92.16223319221807
 51
177.8377668077819
  0
ARC
  5
EF7C888D0
330
EF7C85532
100
AcDbEntity
  8
JISSEN
100
AcDbCircle
 10
90.00008343801608
 20
89.51863259670096
 30
0.0
 40
26.5
100
AcDbArc
 50
2.162233192218069
 51
87.83776680778194
  0
ARC
  5
EF7C888D1
330
EF7C85532
100
AcDbEntity
  8
JISSEN
100
AcDbCircle
 10
63.50008343801608
 20
89.51863259670096
 30
0.0
 40
1.0
100
AcDbArc
 50
271.0811165961095
 51
89.99999999999511
  0
ARC
  5
EF7C888D2
330
EF7C85532
100
AcDbEntity
  8
JISSEN
100
AcDbCircle
 10
116.500083438016
 20
89.51863259670096
 30
0.0
 40
1.0
100
AcDbArc
 50
91.0811165961128
 51
268.9188834038871
  0
CIRCLE
  5
EF7C888D3
330
EF7C85532
100
AcDbEntity
  8
JISSEN
100
AcDbCircle
 10
90.00008343801608
 20
89.51863259670096
 30
0.0
 40
1.25
  0
CIRCLE
  5
EF7C888D4
330
EF7C85532
100
AcDbEntity
  8
JISSEN
100
AcDbCircle
 10
90.00008343801608
 20
89.51863259670096
 30
0.0
 40
1.7
  0
CIRCLE
  5
EF7C888D5
330
EF7C85532
100
AcDbEntity
  8
TEXT
100
AcDbCircle
 10
90.00008343801608
 20
89.51863259670096
 30
0.0
 40
7.5
  0
CIRCLE
  5
EF7C888D6
330
EF7C85532
100
AcDbEntity
  8
TEXT
100
AcDbCircle
 10
90.00008343801608
 20
89.51863259670096
 30
0.0
 40
7.799999999999998
  0
CIRCLE
  5
EF7C888D7
330
EF7C85532
100
AcDbEntity
  8
JISSEN
100
AcDbCircle
 10
90.00008343801608
 20
89.51863259670096
 30
0.0
 40
9.25
  0
ARC
  5
EF7C888D8
330
EF7C85532
100
AcDbEntity
  8
JISSEN
100
AcDbCircle
 10
68.6064418247156
 20
84.730929752783
 30
0.0
 40
0.5
100
AcDbArc
 50
280.0
 51
10.00000000000021
  0
ARC
  5
EF7C888D9
330
EF7C85532
100
AcDbEntity
  8
JISSEN
100
AcDbCircle
 10
111.3937250513165
 20
84.73092975278296
 30
0.0
 40
0.5
100
AcDbArc
 50
169.9999999999996
 51
259.9999999999998
  0
ARC
  5
EF7C888DA
330
EF7C85532
100
AcDbEntity
  8
JISSEN
100
AcDbCircle
 10
90.00008343801608
 20
89.51863259670096
 30
0.0
 40
23.35
100
AcDbArc
 50
186.3167926881401
 51
193.6832073118586
  0
ARC
  5
EF7C888DB
330
EF7C85532
100
AcDbEntity
  8
JISSEN
100
AcDbCircle
 10
90.00008343801608
 20
89.51863259670096
 30
0.0
 40
23.35
100
AcDbArc
 50
346.3167926881414
 51
353.6832073118581
  0
ARC
  5
EF7C888DC
330
EF7C85532
100
AcDbEntity
  8
JISSEN
100
AcDbCircle
 10
70.53412709513684
 20
79.43465800048541
 30
0.0
 40
0.5
100
AcDbArc
 50
29.99999999999972
 51
119.9999999999997
  0
ARC
  5
EF7C888DD
330
EF7C85532
100
AcDbEntity
  8
JISSEN
100
AcDbCircle
 10
109.4660397808952
 20
79.43465800048537
 30
0.0
 40
0.5
100
AcDbArc
 50
60.00000000000028
 51
150.0000000000001
  0
LINE
  5
EF7C888DE
330
EF7C85532
100
AcDbEntity
  8
JISSEN
100
AcDbLine
 10
68.69326591354911
 20
84.2385258762769
 30
0.0
 11
66.07936386046095
 21
83.77762441938822
 31
0.0
  0
LINE
  5
EF7C888DF
330
EF7C85532
100
AcDbEntity
  8
JISSEN
100
AcDbLine
 10
113.9208030155711
 20
83.77762441938816
 30
0.0
 11
111.3069009624829
 21
84.23852587627688
 31
0.0
  0
ARC
  5
EF7C888E0
330
EF7C85532
100
AcDbEntity
  8
JISSEN
100
AcDbCircle
 10
68.25914546938179
 20
86.70054525880741
 30
0.0
 40
0.5
100
AcDbArc
 50
10.00000000000021
 51
100.0000000000001
  0
ARC
  5
EF7C888E1
330
EF7C85532
100
AcDbEntity
  8
JISSEN
100
AcDbCircle
 10
111.7410214066502
 20
86.70054525880736
 30
0.0
 40
0.5
100
AcDbArc
 50
79.9999999999998
 51
169.9999999999996
  0
LINE
  5
EF7C888E2
330
EF7C85532
100
AcDbEntity
  8
JISSEN
100
AcDbLine
 10
65.55841932746017
 20
86.73204767842483
 30
0.0
 11
68.17232138054828
 21
87.19294913531351
 31
0.0
  0
LINE
  5
EF7C888E3
330
EF7C85532
100
AcDbEntity
  8
JISSEN
100
AcDbLine
 10
111.8278454954838
 20
87.19294913531349
 30
0.0
 11
114.4417475485719
 21
86.73204767842475
 31
0.0
  0
LINE
  5
EF7C888E4
330
EF7C85532
100
AcDbEntity
  8
JISSEN
100
AcDbLine
 10
68.75154934588789
 20
86.78736934764089
 30
0.0
 11
69.0988457012217
 21
84.81775384161649
 31
0.0
  0
LINE
  5
EF7C888E5
330
EF7C85532
100
AcDbEntity
  8
JISSEN
100
AcDbLine
 10
110.9013211748104
 20
84.81775384161641
 30
0.0
 11
111.2486175301442
 21
86.78736934764081
 31
0.0
  0
LINE
  5
EF7C888E6
330
EF7C85532
100
AcDbEntity
  8
JISSEN
100
AcDbLine
 10
68.75154934588789
 20
92.24989584576107
 30
0.0
 11
69.0988457012217
 21
94.2195113517855
 31
0.0
  0
ARC
  5
EF7C888E7
330
EF7C85532
100
AcDbEntity
  8
JISSEN
100
AcDbCircle
 10
90.00008343801608
 20
89.51863259670096
 30
0.0
 40
23.35
100
AcDbArc
 50
166.3167926881413
 51
173.6832073118581
  0
ARC
  5
EF7C888E8
330
EF7C85532
100
AcDbEntity
  8
JISSEN
100
AcDbCircle
 10
90.00008343801608
 20
89.51863259670096
 30
0.0
 40
23.35
100
AcDbArc
 50
6.316792688141881
 51
13.6832073118586
  0
ARC
  5
EF7C888E9
330
EF7C85532
100
AcDbEntity
  8
JISSEN
100
AcDbCircle
 10
90.00008343801608
 20
89.51863259670096
 30
0.0
 40
23.35
100
AcDbArc
 50
6.316792688141881
 51
13.6832073118586
  0
LINE
  5
EF7C888EA
330
EF7C85532
100
AcDbEntity
  8
JISSEN
100
AcDbLine
 10
110.9013211748104
 20
94.21951135178549
 30
0.0
 11
111.2486175301442
 21
92.24989584576107
 31
0.0
  0
ARC
  5
EF7C888EB
330
EF7C85532
100
AcDbEntity
  8
JISSEN
100
AcDbCircle
 10
68.25914546938179
 20
92.33671993459456
 30
0.0
 40
0.5
100
AcDbArc
 50
259.9999999999998
 51
349.9999999999998
  0
LINE
  5
EF7C888EC
330
EF7C85532
100
AcDbEntity
  8
JISSEN
100
AcDbLine
 10
65.55841932746017
 20
92.30521751497715
 30
0.0
 11
68.17232138054828
 21
91.84431605808844
 31
0.0
  0
LINE
  5
EF7C888ED
330
EF7C85532
100
AcDbEntity
  8
JISSEN
100
AcDbLine
 10
111.8278454954838
 20
91.84431605808844
 30
0.0
 11
114.4417475485719
 21
92.30521751497713
 31
0.0
  0
ARC
  5
EF7C888EE
330
EF7C85532
100
AcDbEntity
  8
JISSEN
100
AcDbCircle
 10
111.7410214066502
 20
92.33671993459456
 30
0.0
 40
0.5
100
AcDbArc
 50
190.0000000000002
 51
280.0
  0
ARC
  5
EF7C888EF
330
EF7C85532
100
AcDbEntity
  8
JISSEN
100
AcDbCircle
 10
68.6064418247156
 20
94.30633544061896
 30
0.0
 40
0.5
100
AcDbArc
 50
349.9999999999998
 51
79.9999999999998
  0
LINE
  5
EF7C888F0
330
EF7C85532
100
AcDbEntity
  8
JISSEN
100
AcDbLine
 10
68.69326591354911
 20
94.79873931712507
 30
0.0
 11
66.07936386046095
 21
95.25964077401374
 31
0.0
  0
ARC
  5
EF7C888F1
330
EF7C85532
100
AcDbEntity
  8
JISSEN
100
AcDbCircle
 10
111.3937250513165
 20
94.30633544061896
 30
0.0
 40
0.5
100
AcDbArc
 50
100.0000000000001
 51
190.0000000000002
  0
LINE
  5
EF7C888F2
330
EF7C85532
100
AcDbEntity
  8
JISSEN
100
AcDbLine
 10
113.9208030155711
 20
95.25964077401374
 30
0.0
 11
111.3069009624829
 21
94.79873931712507
 31
0.0
  0
ARC
  5
EF7C888F3
330
EF7C85532
100
AcDbEntity
  8
JISSEN
100
AcDbCircle
 10
70.53412709513691
 20
99.6026071929166
 30
0.0
 40
0.5
100
AcDbArc
 50
240.0000000000002
 51
330.0000000000001
  0
ARC
  5
EF7C888F4
330
EF7C85532
100
AcDbEntity
  8
JISSEN
100
AcDbCircle
 10
109.4660397808952
 20
99.60260719291651
 30
0.0
 40
0.5
100
AcDbArc
 50
209.9999999999996
 51
299.9999999999997
  0
LINE
  5
EF7C888F5
330
EF7C85532
100
AcDbEntity
  8
JISSEN
100
AcDbLine
 10
70.28412709513691
 20
99.1695944910244
 30
0.0
 11
67.9855002067369
 21
100.4967073438086
 31
0.0
  0
LINE
  5
EF7C888F6
330
EF7C85532
100
AcDbEntity
  8
JISSEN
100
AcDbLine
 10
109.7160397808952
 20
99.1695944910243
 30
0.0
 11
112.0146666692952
 21
100.4967073438084
 31
0.0
  0
LINE
  5
EF7C888F7
330
EF7C85532
100
AcDbEntity
  8
JISSEN
100
AcDbLine
 10
80.19250471176787
 20
112.0790270863468
 30
0.0
 11
81.10030336800511
 21
109.5848707769239
 31
0.0
  0
LINE
  5
EF7C888F8
330
EF7C85532
100
AcDbEntity
  8
JISSEN
100
AcDbLine
 10
98.89986350802708
 20
109.5848707769238
 30
0.0
 11
99.80766216426427
 21
112.0790270863468
 31
0.0
  0
LINE
  5
EF7C888F9
330
EF7C85532
100
AcDbEntity
  8
JISSEN
100
AcDbLine
 10
91.50008343801529
 20
111.4186325967009
 30
0.0
 11
91.50008343801522
 21
114.0728583022694
 31
0.0
  0
LINE
  5
EF7C888FA
330
EF7C85532
100
AcDbEntity
  8
JISSEN
100
AcDbLine
 10
88.50008343801524
 20
111.4186325967009
 30
0.0
 11
88.50008343801524
 21
114.0728583022694
 31
0.0
  0
LINE
  5
EF7C888FB
330
EF7C85532
100
AcDbEntity
  8
JISSEN
100
AcDbLine
 10
83.91938123036277
 20
110.6109312069009
 30
0.0
 11
83.01158257412561
 21
113.1050875163237
 31
0.0
  0
LINE
  5
EF7C888FC
330
EF7C85532
100
AcDbEntity
  8
JISSEN
100
AcDbLine
 10
96.98858430190654
 20
113.1050875163237
 30
0.0
 11
96.0807856456693
 21
110.6109312069009
 31
0.0
  0
ARC
  5
EF7C888FD
330
EF7C85532
100
AcDbEntity
  8
JISSEN
100
AcDbCircle
 10
90.00008343801608
 20
89.51863259670096
 30
0.0
 40
23.35
100
AcDbArc
 50
126.3167926881409
 51
133.6832073118588
  0
ARC
  5
EF7C888FE
330
EF7C85532
100
AcDbEntity
  8
JISSEN
100
AcDbCircle
 10
90.00008343801608
 20
89.51863259670096
 30
0.0
 40
23.35
100
AcDbArc
 50
46.31679268814106
 51
53.68320731185797
  0
LINE
  5
EF7C888FF
330
EF7C85532
100
AcDbEntity
  8
JISSEN
100
AcDbLine
 10
75.47838414760514
 20
105.2691960697605
 30
0.0
 11
77.01047303384308
 21
106.5547712891337
 31
0.0
  0
LINE
  5
EF7C88900
330
EF7C85532
100
AcDbEntity
  8
JISSEN
100
AcDbLine
 10
73.06786472435145
 20
107.3640793390111
 30
0.0
 11
74.7739681212024
 21
105.3308244864767
 31
0.0
  0
LINE
  5
EF7C88901
330
EF7C85532
100
AcDbEntity
  8
JISSEN
100
AcDbLine
 10
105.2261987548297
 20
105.3308244864767
 30
0.0
 11
106.9323021516806
 21
107.3640793390109
 31
0.0
  0
LINE
  5
EF7C88902
330
EF7C85532
100
AcDbEntity
  8
JISSEN
100
AcDbLine
 10
102.989693842189
 20
106.5547712891335
 30
0.0
 11
104.5217827284269
 21
105.2691960697605
 31
0.0
  0
LINE
  5
EF7C88903
330
EF7C85532
100
AcDbEntity
  8
JISSEN
100
AcDbLine
 10
69.4855002067369
 20
103.0947835551619
 30
0.0
 11
71.78412709513691
 21
101.7676707023777
 31
0.0
  0
ARC
  5
EF7C88904
330
EF7C85532
100
AcDbEntity
  8
JISSEN
100
AcDbCircle
 10
71.53412709513691
 20
101.3346580004854
 30
0.0
 40
0.5
100
AcDbArc
 50
330.0000000000001
 51
60.00000000000028
  0
LINE
  5
EF7C88905
330
EF7C85532
100
AcDbEntity
  8
JISSEN
100
AcDbLine
 10
110.5146666692953
 20
103.0947835551617
 30
0.0
 11
108.2160397808952
 21
101.7676707023775
 31
0.0
  0
ARC
  5
EF7C88906
330
EF7C85532
100
AcDbEntity
  8
JISSEN
100
AcDbCircle
 10
108.4660397808952
 20
101.3346580004854
 30
0.0
 40
0.5
100
AcDbArc
 50
119.9999999999997
 51
209.9999999999981
  0
ARC
  5
EF7C88907
330
EF7C85532
100
AcDbEntity
  8
JISSEN
100
AcDbCircle
 10
75.1569903427619
 20
105.65221829132
 30
0.0
 40
0.5
100
AcDbArc
 50
220.0000000000001
 51
310.0000000000001
  0
ARC
  5
EF7C88908
330
EF7C85532
100
AcDbEntity
  8
JISSEN
100
AcDbCircle
 10
104.8431765332702
 20
105.6522182913199
 30
0.0
 40
0.5
100
AcDbArc
 50
229.9999999999999
 51
319.9999999999998
  0
ARC
  5
EF7C88909
330
EF7C85532
100
AcDbEntity
  8
JISSEN
100
AcDbCircle
 10
81.57014967839803
 20
109.7558808485867
 30
0.0
 40
0.5
100
AcDbArc
 50
200.0
 51
290.0
  0
LINE
  5
EF7C8890A
330
EF7C85532
100
AcDbEntity
  8
JISSEN
100
AcDbLine
 10
81.74115975006083
 20
109.2860345381938
 30
0.0
 11
83.62054499163269
 21
109.970074824845
 31
0.0
  0
ARC
  5
EF7C8890B
330
EF7C85532
100
AcDbEntity
  8
JISSEN
100
AcDbCircle
 10
98.43001719763408
 20
109.7558808485867
 30
0.0
 40
0.5
100
AcDbArc
 50
249.9999999999999
 51
339.9999999999999
  0
LINE
  5
EF7C8890C
330
EF7C85532
100
AcDbEntity
  8
JISSEN
100
AcDbLine
 10
96.37962188439946
 20
109.970074824845
 30
0.0
 11
98.25900712597132
 21
109.2860345381937
 31
0.0
  0
LINE
  5
EF7C8890D
330
EF7C85532
100
AcDbEntity
  8
JISSEN
100
AcDbLine
 10
77.07210145055933
 20
107.2591873155364
 30
0.0
 11
75.36599805370837
 21
109.2924421680707
 31
0.0
  0
ARC
  5
EF7C8890E
330
EF7C85532
100
AcDbEntity
  8
JISSEN
100
AcDbCircle
 10
76.68907922899984
 20
106.9377935106931
 30
0.0
 40
0.5
100
AcDbArc
 50
310.0000000000001
 51
40.00000000000009
  0
LINE
  5
EF7C8890F
330
EF7C85532
100
AcDbEntity
  8
JISSEN
100
AcDbLine
 10
104.6341688223237
 20
109.2924421680707
 30
0.0
 11
102.9280654254727
 21
107.2591873155364
 31
0.0
  0
ARC
  5
EF7C88910
330
EF7C85532
100
AcDbEntity
  8
JISSEN
100
AcDbCircle
 10
103.3110876470322
 20
106.9377935106931
 30
0.0
 40
0.5
100
AcDbArc
 50
139.9999999999998
 51
229.9999999999999
  0
ARC
  5
EF7C88911
330
EF7C85532
100
AcDbEntity
  8
JISSEN
100
AcDbCircle
 10
91.00008343801608
 20
111.4186325967009
 30
0.0
 40
0.5
100
AcDbArc
 50
270.0
 51
0.0
  0
ARC
  5
EF7C88912
330
EF7C85532
100
AcDbEntity
  8
JISSEN
100
AcDbCircle
 10
89.00008343801607
 20
111.4186325967009
 30
0.0
 40
0.5
100
AcDbArc
 50
180.0
 51
270.0
  0
LINE
  5
EF7C88913
330
EF7C85532
100
AcDbEntity
  8
JISSEN
100
AcDbLine
 10
89.00008343801607
 20
110.9186325967009
 30
0.0
 11
91.00008343801608
 21
110.9186325967009
 31
0.0
  0
ARC
  5
EF7C88914
330
EF7C85532
100
AcDbEntity
  8
JISSEN
100
AcDbCircle
 10
83.44953491996982
 20
110.4399211352379
 30
0.0
 40
0.5
100
AcDbArc
 50
290.0
 51
20.00000000000009
  0
ARC
  5
EF7C88915
330
EF7C85532
100
AcDbEntity
  8
JISSEN
100
AcDbCircle
 10
90.00008343801608
 20
89.51863259670096
 30
0.0
 40
23.35
100
AcDbArc
 50
106.3167926881417
 51
113.6832073118595
  0
ARC
  5
EF7C88916
330
EF7C85532
100
AcDbEntity
  8
JISSEN
100
AcDbCircle
 10
96.55063195606231
 20
110.4399211352379
 30
0.0
 40
0.5
100
AcDbArc
 50
159.9999999999998
 51
249.9999999999999
  0
ARC
  5
EF7C88917
330
EF7C85532
100
AcDbEntity
  8
JISSEN
100
AcDbCircle
 10
90.00008343801608
 20
89.51863259670096
 30
0.0
 40
23.35
100
AcDbArc
 50
66.31679268814051
 51
73.68320731185827
  0
ARC
  5
EF7C88918
330
EF7C85532
100
AcDbEntity
  8
JISSEN
100
AcDbCircle
 10
90.00008343801608
 20
89.51863259670096
 30
0.0
 40
23.35
100
AcDbArc
 50
86.31679268814298
 51
93.68320731186027
  0
ARC
  5
EF7C88919
330
EF7C85532
100
AcDbEntity
  8
JISSEN
100
AcDbCircle
 10
90.00008343801608
 20
89.51863259670096
 30
0.0
 40
23.35
100
AcDbArc
 50
86.31679268814298
 51
93.68320731186027
  0
ARC
  5
EF7C8891A
330
EF7C85532
100
AcDbEntity
  8
JISSEN
100
AcDbCircle
 10
90.00008343801608
 20
89.51863259670096
 30
0.0
 40
23.35
100
AcDbArc
 50
86.31679268814139
 51
93.68320731185866
  0
ARC
  5
EF7C8891B
330
EF7C85532
100
AcDbEntity
  8
JISSEN
100
AcDbCircle
 10
90.00008343801608
 20
116.0186325967009
 30
0.0
 40
1.0
100
AcDbArc
 50
181.0811165961094
 51
358.9188834038903
  0
CIRCLE
  5
EF7C88920
330
EF7C85532
100
AcDbEntity
  8
TENSEN
100
AcDbCircle
 10
90.00008343801608
 20
89.51863259670096
 30
0.0
 40
2.849999999999993
  0
TEXT
  5
EF7C88927
330
EF7C85532
100
AcDbEntity
  8
TEXT
100
AcDbText
 10
82.31949744325953
 20
99.08571372254662
 30
0.0
 40
2.0
  1
T
 50
223.0278785648635
  7
K
100
AcDbText
  0
TEXT
  5
EF7C88928
330
EF7C85532
100
AcDbEntity
  8
TEXT
100
AcDbText
 10
84.94003350157806
 20
100.6952303407425
 30
0.0
 40
2.0
  1
N
 50
208.6278785648643
  7
K
100
AcDbText
  0
TEXT
  5
EF7C88929
330
EF7C85532
100
AcDbEntity
  8
TEXT
100
AcDbText
 10
87.87851110696488
 20
101.6024802180292
 30
0.0
 40
2.0
  1
E
 50
194.2278785648641
  7
K
100
AcDbText
  0
TEXT
  5
EF7C8892A
330
EF7C85532
100
AcDbEntity
  8
TEXT
100
AcDbText
 10
90.95029490450889
 20
101.750457507985
 30
0.0
 40
2.0
  1
D
 50
179.8278785648638
  7
K
100
AcDbText
  0
LWPOLYLINE
  5
EF7C8892B
330
EF7C85532
100
AcDbEntity
  8
TEXT
100
AcDbPolyline
 90
        2
 70
     1
 43
0.25
 10
97.74506381741629
 20
80.70320518877201
 42
1.0
 10
97.99506381741629
 20
80.70320518877201
 42
1.0
  0
TEXT
  5
EF7C8892C
330
EF7C85532
100
AcDbEntity
  8
TEXT
100
AcDbText
 10
98.34252883977951
 20
98.5144120076225
 30
0.0
 40
2.0
  1
P
 50
141.4278785648638
  7
K
100
AcDbText
  0
TEXT
  5
EF7C8892D
330
EF7C85532
100
AcDbEntity
  8
TEXT
100
AcDbText
 10
102.1785404513062
 20
91.00376803389449
 30
0.0
 40
2.0
  1
R
 50
101.222658067387
  7
K
100
AcDbText
  0
TEXT
  5
EF7C8892E
330
EF7C85532
100
AcDbEntity
  8
TEXT
100
AcDbText
 10
102.2211889660457
 20
88.43927067217203
 30
0.0
 40
2.0
  1
Q
 50
89.22265806738737
  7
K
100
AcDbText
  0
TEXT
  5
EF7C8892F
330
EF7C85532
100
AcDbEntity
  8
TEXT
100
AcDbText
 10
98.4501094313577
 20
80.62383056387226
 30
0.0
 40
2.0
  1
6
 50
47.80097405393946
  7
K
100
AcDbText
  0
TEXT
  5
EF7C88930
330
EF7C85532
100
AcDbEntity
  8
TEXT
100
AcDbText
 10
96.41612275940685
 20
79.06134413755771
 30
0.0
 40
2.0
  1
2
 50
35.80097405394027
  7
K
100
AcDbText
  0
TEXT
  5
EF7C88931
330
EF7C85532
100
AcDbEntity
  8
TEXT
100
AcDbText
 10
94.10172438153869
 20
77.95589139654509
 30
0.0
 40
2.0
  1
r
 50
23.80097405394037
  7
K
100
AcDbText
  0
TEXT
  5
EF7C88932
330
EF7C85532
100
AcDbEntity
  8
TEXT
100
AcDbText
 10
93.96237342097988
 20
101.1298642532595
 30
0.0
 40
2.0
  1
N
 50
165.4278785648646
  7
K
100
AcDbText
  0
TEXT
  5
EF7C88933
330
EF7C85532
100
AcDbEntity
  8
TEXT
100
AcDbText
 10
96.2898986844555
 20
100.0523245732597
 30
0.0
 40
2.0
  1
E
 50
153.427878564863
  7
K
100
AcDbText
  0
HATCH
  5
EF7C88940
330
EF7C85532
100
AcDbEntity
  8
HATCH
100
AcDbHatch
 10
0.0
 20
0.0
 30
0.0
210
0.0
220
0.0
230
1.0
  2
_U
 70
     0
 71
     1
 91
        2
 92
        7
 72
     0
 73
     1
 93
       15
 10
107.500083438016
 20
188.3285939608951
 10
107.500083438016
 20
183.328593960895
 10
116.3500834380158
 20
183.328593960895
 10
155.2741466959157
 20
183.328593960895
 10
155.5837102133948
 20
184.0767625047499
 10
155.9139668061094
 20
184.6143335023784
 10
156.295102832459
 20
185.0375538910026
 10
156.7052752452529
 20
185.3788669826274
 10
157.122640997298
 20
185.6707160892553
 10
157.5253570414086
 20
185.945544522894
 10
157.891580330388
 20
186.2357955955439
 10
158.1994678170473
 20
186.5739126192109
 10
158.4271764541952
 20
186.9923389058988
 10
158.5690818108754
 20
187.5089568826627
 10
158.7336689891253
 20
188.3285939608951
 97
        5
330
EF7C88A36
330
EF7C8895A
330
EF7C8895D
330
EF7C88965
330
EF7C8895B
 92
        7
 72
     0
 73
     1
 93
       14
 10
21.26633101087457
 20
188.3285939608951
 10
21.43091818912459
 20
187.5089568826629
 10
21.57282354580492
 20
186.9923389058988
 10
21.8005321829527
 20
186.573912619211
 10
22.10841966961196
 20
186.2357955955439
 10
22.47464295859124
 20
185.9455445228941
 10
22.87735900270076
 20
185.6707160892562
 10
23.29472475474729
 20
185.3788669826272
 10
23.70489716754091
 20
185.0375538910028
 10
24.08603319389066
 20
184.6143335023782
 10
24.41628978660518
 20
184.0767625047498
 10
24.72585330408435
 20
183.3285939608951
 10
72.50008343801606
 20
183.3285939608951
 10
72.50008343801606
 20
188.3285939608952
 97
        4
330
EF7C88948
330
EF7C8894A
330
EF7C88949
330
EF7C8895C
 75
     0
 76
     0
 52
45.0
 41
2.0
 77
     0
 78
     1
 53
45.0
 43
0.0
 44
2.999999800342606
 45
-1.414213562373094
 46
1.414213562373094
 79
     0
 47
0.2346837798524018
 98
        2
 10
117.2263874898443
 20
186.1842257965506
 10
66.25858219618862
 20
186.8882768503218
  0
LINE
  5
EF7C88941
330
EF7C85532
100
AcDbEntity
  8
JISSEN
100
AcDbLine
 10
63.65008343801611
 20
183.328593960895
 30
0.0
 11
90.00008343801608
 21
183.328593960895
 31
0.0
  0
LINE
  5
EF7C88942
330
EF7C85532
100
AcDbEntity
  8
JISSEN
100
AcDbLine
 10
64.50008343801608
 20
174.828593960895
 30
0.0
 11
90.00008343801608
 21
174.828593960895
 31
0.0
  0
LINE
  5
EF7C88943
330
EF7C85532
100
AcDbEntity
  8
JISSEN
100
AcDbLine
 10
63.50008343801608
 20
175.828593960895
 30
0.0
 11
89.00008343801607
 21
175.828593960895
 31
0.0
  0
LINE
  5
EF7C88944
330
EF7C85532
100
AcDbEntity
  8
JISSEN
100
AcDbLine
 10
89.00008343801607
 20
182.828593960895
 30
0.0
 11
63.50008343801608
 21
182.828593960895
 31
0.0
  0
LINE
  5
EF7C88945
330
EF7C85532
100
AcDbEntity
  8
JISSEN
100
AcDbLine
 10
69.1351764380161
 20
165.6493309608951
 30
0.0
 11
67.6233174380161
 21
166.348721960895
 31
0.0
  0
LINE
  5
EF7C88946
330
EF7C85532
100
AcDbEntity
  8
JISSEN
100
AcDbLine
 10
67.15375643801611
 20
166.3249519608951
 30
0.0
 11
68.6206544380161
 21
165.646359960895
 31
0.0
  0
LINE
  5
EF7C88947
330
EF7C85532
100
AcDbEntity
  8
JISSEN
100
AcDbLine
 10
75.47088042141432
 20
161.9927116385555
 30
0.0
 11
66.94547781217671
 21
166.001207580266
 31
0.0
1001
ACAD
1000
ASC_BOUNDS
1002
{
1070
    19
1002
}
  0
LINE
  5
EF7C88948
102
{ACAD_REACTORS
330
EF7C88940
102
}
330
EF7C85532
100
AcDbEntity
  8
JISSEN
100
AcDbLine
 10
21.26633101087457
 20
188.3285939608951
 30
0.0
 11
79.46508070100378
 21
188.3285939608952
 31
0.0
  0
LINE
  5
EF7C88949
102
{ACAD_REACTORS
330
EF7C88940
102
}
330
EF7C85532
100
AcDbEntity
  8
JISSEN
100
AcDbLine
 10
79.4025775210672
 20
183.328593960895
 30
0.0
 11
24.72409404430448
 21
183.328593960895
 31
0.0
  0
LWPOLYLINE
  5
EF7C8894A
102
{ACAD_REACTORS
330
EF7C88940
102
}
330
EF7C85532
100
AcDbEntity
  8
HATCH
100
AcDbPolyline
 90
       13
 70
     0
 43
0.0
 10
21.26633101087457
 20
188.3285939608951
 10
21.43091818912455
 20
187.508956882663
 10
21.57282354580491
 20
186.9923389058988
 10
21.80053218295272
 20
186.573912619211
 10
22.10841966961197
 20
186.235795595544
 10
22.47464295859151
 20
185.9455445228938
 10
22.87735900270023
 20
185.6707160892563
 10
23.2947247547471
 20
185.3788669826274
 10
23.70489716754093
 20
185.0375538910027
 10
24.08603319389067
 20
184.6143335023783
 10
24.41628978660514
 20
184.0767625047499
 10
24.69086984980787
 20
183.4131437174626
 10
24.72409404430448
 20
183.328593960895
  0
LINE
  5
EF7C8894B
330
EF7C85532
100
AcDbEntity
  8
JISSEN
100
AcDbLine
 10
65.40008343801611
 20
174.828593960895
 30
0.0
 11
65.53131643801612
 21
173.3285939608951
 31
0.0
  0
LINE
  5
EF7C8894C
330
EF7C85532
100
AcDbEntity
  8
JISSEN
100
AcDbLine
 10
65.53131643801612
 20
173.3285939608951
 30
0.0
 11
66.05167043801611
 21
167.3809169608951
 31
0.0
  0
LINE
  5
EF7C8894D
330
EF7C85532
100
AcDbEntity
  8
JISSEN
100
AcDbLine
 10
65.7617594380161
 20
172.908029960895
 30
0.0
 11
66.3495894380161
 21
167.445780960895
 31
0.0
  0
LINE
  5
EF7C8894E
330
EF7C85532
100
AcDbEntity
  8
JISSEN
100
AcDbLine
 10
66.87659243801608
 20
167.389491960895
 30
0.0
 11
66.24466143801612
 21
173.261529960895
 31
0.0
  0
ARC
  5
EF7C8894F
330
EF7C85532
100
AcDbEntity
  8
JISSEN
100
AcDbCircle
 10
67.74155243801607
 20
167.595579960895
 30
0.0
 40
1.399999999999999
100
AcDbArc
 50
186.1423570000001
 51
245.1745949999998
  0
ARC
  5
EF7C88950
330
EF7C85532
100
AcDbEntity
  8
JISSEN
100
AcDbCircle
 10
68.16912843801606
 20
167.528590960895
 30
0.0
 40
1.3
100
AcDbArc
 50
186.1423570000001
 51
245.1745949999998
  0
ARC
  5
EF7C88951
330
EF7C85532
100
AcDbEntity
  8
JISSEN
100
AcDbCircle
 10
67.5459627675533
 20
167.3757685350316
 30
0.0
 40
1.5
100
AcDbArc
 50
184.9999999999998
 51
249.9999999999999
  0
ARC
  5
EF7C88952
330
EF7C85532
100
AcDbEntity
  8
JISSEN
100
AcDbCircle
 10
66.14523543801607
 20
173.250829960895
 30
0.0
 40
0.1
100
AcDbArc
 50
6.142357000000093
 51
87.28209800000021
  0
ARC
  5
EF7C88953
330
EF7C85532
100
AcDbEntity
  8
JISSEN
100
AcDbCircle
 10
66.15946243801608
 20
172.950829960895
 30
0.0
 40
0.4
100
AcDbArc
 50
91.35885499999986
 51
186.1423570000001
  0
LINE
  5
EF7C88954
330
EF7C85532
100
AcDbEntity
  8
JISSEN
100
AcDbLine
 10
63.50008343801608
 20
183.178593960895
 30
0.0
 11
63.50008343801608
 21
175.828593960895
 31
0.0
  0
LINE
  5
EF7C88955
330
EF7C85532
100
AcDbEntity
  8
JISSEN
100
AcDbLine
 10
63.50008343801608
 20
175.828593960895
 30
0.0
 11
64.50008343801608
 21
174.828593960895
 31
0.0
  0
LINE
  5
EF7C88956
330
EF7C85532
100
AcDbEntity
  8
JISSEN
100
AcDbLine
 10
64.50008343801608
 20
174.828593960895
 30
0.0
 11
65.40008343801611
 21
174.828593960895
 31
0.0
  0
LINE
  5
EF7C88957
330
EF7C85532
100
AcDbEntity
  8
JISSEN
100
AcDbLine
 10
63.50008343801608
 20
183.178593960895
 30
0.0
 11
63.65008343801611
 21
183.328593960895
 31
0.0
  0
LWPOLYLINE
  5
EF7C88958
330
EF7C85532
100
AcDbEntity
  8
NITEN
100
AcDbPolyline
 90
       15
 70
     1
 43
0.0
 10
76.0
 20
190.9391428666225
 42
0.4142135623730927
 10
77.4999999999999
 20
189.4391428666225
 10
100.5940511709964
 20
189.4391428666225
 10
102.4999999999999
 20
189.4391428666225
 42
0.4142135623730925
 10
104.0
 20
190.9391428666225
 10
104.0
 20
201.9851588928405
 42
-0.4142135623730943
 10
109.0
 20
206.9851588928405
 42
0.4142135623730951
 10
111.0
 20
208.9851588928405
 10
110.9999999999997
 20
229.4391428666225
 42
0.4142135623730949
 10
109.0
 20
231.4391428666225
 10
71.0
 20
231.4391428666225
 42
0.4142135623730951
 10
69.0
 20
229.4391428666225
 10
69.0
 20
208.9851588928405
 42
0.4142135623730951
 10
71.0
 20
206.9851588928405
 42
-0.4142135623730961
 10
76.0
 20
201.9851588928405
  0
LINE
  5
EF7C8895A
102
{ACAD_REACTORS
330
EF7C88940
102
}
330
EF7C85532
100
AcDbEntity
  8
JISSEN
100
AcDbLine
 10
158.7336689891253
 20
188.3285939608951
 30
0.0
 11
100.5350861750282
 21
188.3285939608951
 31
0.0
  0
LINE
  5
EF7C8895B
102
{ACAD_REACTORS
330
EF7C88940
102
}
330
EF7C85532
100
AcDbEntity
  8
JISSEN
100
AcDbLine
 10
100.5975893549649
 20
183.328593960895
 30
0.0
 11
155.2759059556955
 21
183.328593960895
 31
0.0
  0
LINE
  5
EF7C8895C
102
{ACAD_REACTORS
330
EF7C88940
102
}
330
EF7C85532
100
AcDbEntity
  8
JISSEN
100
AcDbLine
 10
72.50008343801606
 20
188.3285939608951
 30
0.0
 11
72.50008343801606
 21
183.328593960895
 31
0.0
  0
LINE
  5
EF7C8895D
102
{ACAD_REACTORS
330
EF7C88940
102
}
330
EF7C85532
100
AcDbEntity
  8
JISSEN
100
AcDbLine
 10
107.500083438016
 20
188.3285939608951
 30
0.0
 11
107.500083438016
 21
183.328593960895
 31
0.0
  0
LINE
  5
EF7C8895E
330
EF7C85532
100
AcDbEntity
  8
SAISEN
100
AcDbLine
 10
80.54085043801604
 20
185.569360960895
 30
0.0
 11
81.0333502847493
 21
201.3285939608986
 31
0.0
  0
LINE
  5
EF7C8895F
330
EF7C85532
100
AcDbEntity
  8
JISSEN
100
AcDbLine
 10
79.83493871665119
 20
200.1634483162257
 30
0.0
 11
79.34136443801604
 21
184.369874960895
 31
0.0
  0
LINE
  5
EF7C88960
330
EF7C85532
100
AcDbEntity
  8
JISSEN
100
AcDbLine
 10
100.1652281593809
 20
200.1634483162257
 30
0.0
 11
100.6588024380159
 21
184.369874960895
 31
0.0
  0
LINE
  5
EF7C88961
330
EF7C85532
100
AcDbEntity
  8
SAISEN
100
AcDbLine
 10
99.459316438016
 20
185.569360960895
 30
0.0
 11
98.96681659128274
 21
201.3285939608986
 31
0.0
  0
LINE
  5
EF7C88962
330
EF7C85532
100
AcDbEntity
  8
JISSEN
100
AcDbLine
 10
91.00008343801608
 20
182.828593960895
 30
0.0
 11
116.5000834380159
 21
182.828593960895
 31
0.0
  0
LINE
  5
EF7C88963
330
EF7C85532
100
AcDbEntity
  8
JISSEN
100
AcDbLine
 10
116.5000834380159
 20
175.828593960895
 30
0.0
 11
91.00008343801608
 21
175.828593960895
 31
0.0
  0
LINE
  5
EF7C88964
330
EF7C85532
100
AcDbEntity
  8
JISSEN
100
AcDbLine
 10
115.5000834380159
 20
174.828593960895
 30
0.0
 11
90.00008343801608
 21
174.828593960895
 31
0.0
  0
LINE
  5
EF7C88965
102
{ACAD_REACTORS
330
EF7C88940
102
}
330
EF7C85532
100
AcDbEntity
  8
JISSEN
100
AcDbLine
 10
116.3500834380158
 20
183.328593960895
 30
0.0
 11
90.00008343801608
 21
183.328593960895
 31
0.0
  0
LINE
  5
EF7C88966
330
EF7C85532
100
AcDbEntity
  8
JISSEN
100
AcDbLine
 10
90.00008343801608
 20
185.569360960895
 30
0.0
 11
100.6213164380159
 21
185.569360960895
 31
0.0
  0
ARC
  5
EF7C88967
330
EF7C85532
100
AcDbEntity
  8
JISSEN
100
AcDbCircle
 10
96.31001343801607
 20
165.731714960895
 30
0.0
 40
0.2
100
AcDbArc
 50
143.1028380000001
 51
270.0
  0
LINE
  5
EF7C88968
330
EF7C85532
100
AcDbEntity
  8
SAISEN
100
AcDbLine
 10
90.00008343801608
 20
149.8704943949478
 30
0.0
 11
97.63441043801607
 21
149.8704943949478
 31
0.0
  0
LINE
  5
EF7C88969
330
EF7C85532
100
AcDbEntity
  8
JISSEN
100
AcDbLine
 10
99.25008343801607
 20
154.4204943949478
 30
0.0
 11
90.00008343801608
 21
154.4204943949478
 31
0.0
1001
ACAD
1000
ASC_BOUNDS
1002
{
1070
    19
1002
}
  0
LINE
  5
EF7C8896A
330
EF7C85532
100
AcDbEntity
  8
JISSEN
100
AcDbLine
 10
103.2500834380159
 20
156.4585961929254
 30
0.0
 11
90.00008343801608
 21
156.4585961929254
 31
0.0
  0
LINE
  5
EF7C8896B
330
EF7C85532
100
AcDbEntity
  8
SAISEN
100
AcDbLine
 10
99.26800943801607
 20
150.1614063949478
 30
0.0
 11
90.00008343801608
 21
150.1614063949476
 31
0.0
  0
LINE
  5
EF7C8896C
330
EF7C85532
100
AcDbEntity
  8
SAISEN
100
AcDbLine
 10
94.52811243801605
 20
152.1436173949478
 30
0.0
 11
99.26800943801607
 21
152.1436173949478
 31
0.0
  0
LINE
  5
EF7C8896D
330
EF7C85532
100
AcDbEntity
  8
SAISEN
100
AcDbLine
 10
90.00008343801608
 20
150.4838353949478
 30
0.0
 11
99.26800943801607
 21
150.4838353949478
 31
0.0
  0
LINE
  5
EF7C8896E
330
EF7C85532
100
AcDbEntity
  8
SAISEN
100
AcDbLine
 10
90.00008343801608
 20
152.4757363949477
 30
0.0
 11
99.26800943801607
 21
152.4757363949477
 31
0.0
  0
LINE
  5
EF7C8896F
330
EF7C85532
100
AcDbEntity
  8
JISSEN
100
AcDbLine
 10
90.00008343801608
 20
160.2427116385555
 30
0.0
 11
102.5500834380159
 21
160.2427116385561
 31
0.0
1001
ACAD
1000
ASC_BOUNDS
1002
{
1070
    19
1002
}
  0
LINE
  5
EF7C88970
330
EF7C85532
100
AcDbEntity
  8
JISSEN
100
AcDbLine
 10
103.2500834380159
 20
158.7204943949478
 30
0.0
 11
90.00008343801608
 21
158.7204943949476
 31
0.0
1001
ACAD
1000
ASC_BOUNDS
1002
{
1070
    19
1002
}
  0
LINE
  5
EF7C88971
330
EF7C85532
100
AcDbEntity
  8
JISSEN
100
AcDbLine
 10
90.00008343801608
 20
161.9927116385558
 30
0.0
 11
104.5292864546178
 21
161.9927116385555
 31
0.0
1001
ACAD
1000
ASC_BOUNDS
1002
{
1070
    19
1002
}
  0
LINE
  5
EF7C88972
330
EF7C85532
100
AcDbEntity
  8
JISSEN
100
AcDbLine
 10
90.00008343801608
 20
161.9927116385558
 30
0.0
 11
75.47088042141432
 21
161.9927116385555
 31
0.0
1001
ACAD
1000
ASC_BOUNDS
1002
{
1070
    19
1002
}
  0
LINE
  5
EF7C88973
330
EF7C85532
100
AcDbEntity
  8
JISSEN
100
AcDbLine
 10
76.75008343801606
 20
158.7204943949478
 30
0.0
 11
90.00008343801608
 21
158.7204943949476
 31
0.0
1001
ACAD
1000
ASC_BOUNDS
1002
{
1070
    19
1002
}
  0
LINE
  5
EF7C88974
330
EF7C85532
100
AcDbEntity
  8
JISSEN
100
AcDbLine
 10
90.00008343801608
 20
160.2427116385555
 30
0.0
 11
77.45008343801612
 21
160.2427116385561
 31
0.0
1001
ACAD
1000
ASC_BOUNDS
1002
{
1070
    19
1002
}
  0
ARC
  5
EF7C88975
330
EF7C85532
100
AcDbEntity
  8
SAISEN
100
AcDbCircle
 10
82.48215743801607
 20
150.6114063949478
 30
0.0
 40
0.75
100
AcDbArc
 50
216.8698979999995
 51
278.9284709999993
  0
LINE
  5
EF7C88976
330
EF7C85532
100
AcDbEntity
  8
SAISEN
100
AcDbLine
 10
90.00008343801608
 20
152.4757363949477
 30
0.0
 11
80.73215743801609
 21
152.4757363949477
 31
0.0
  0
LINE
  5
EF7C88977
330
EF7C85532
100
AcDbEntity
  8
SAISEN
100
AcDbLine
 10
90.00008343801608
 20
150.4838353949478
 30
0.0
 11
80.73215743801609
 21
150.4838353949478
 31
0.0
  0
LINE
  5
EF7C88978
330
EF7C85532
100
AcDbEntity
  8
SAISEN
100
AcDbLine
 10
85.47205443801601
 20
152.1436173949478
 30
0.0
 11
80.73215743801609
 21
152.1436173949478
 31
0.0
  0
LINE
  5
EF7C88979
330
EF7C85532
100
AcDbEntity
  8
SAISEN
100
AcDbLine
 10
80.73215743801609
 20
150.1614063949478
 30
0.0
 11
90.00008343801608
 21
150.1614063949476
 31
0.0
  0
LINE
  5
EF7C8897A
330
EF7C85532
100
AcDbEntity
  8
JISSEN
100
AcDbLine
 10
76.75008343801606
 20
156.4585961929254
 30
0.0
 11
90.00008343801608
 21
156.4585961929254
 31
0.0
  0
LINE
  5
EF7C8897B
330
EF7C85532
100
AcDbEntity
  8
JISSEN
100
AcDbLine
 10
80.75008343801608
 20
154.4204943949478
 30
0.0
 11
90.00008343801608
 21
154.4204943949478
 31
0.0
1001
ACAD
1000
ASC_BOUNDS
1002
{
1070
    19
1002
}
  0
LINE
  5
EF7C8897C
330
EF7C85532
100
AcDbEntity
  8
SAISEN
100
AcDbLine
 10
80.73215743801609
 20
152.1436173949478
 30
0.0
 11
80.73215743801609
 21
152.4757363949477
 31
0.0
  0
LINE
  5
EF7C8897D
330
EF7C85532
100
AcDbEntity
  8
SAISEN
100
AcDbLine
 10
80.73215743801609
 20
150.4838353949478
 30
0.0
 11
80.73215743801609
 21
150.1614063949478
 31
0.0
  0
LINE
  5
EF7C8897E
330
EF7C85532
100
AcDbEntity
  8
JISSEN
100
AcDbLine
 10
76.75008343801606
 20
158.7204943949478
 30
0.0
 11
76.75008343801606
 21
156.4585961929254
 31
0.0
1001
ACAD
1000
ASC_BOUNDS
1002
{
1070
    19
1002
}
  0
LINE
  5
EF7C8897F
330
EF7C85532
100
AcDbEntity
  8
JISSEN
100
AcDbLine
 10
80.75008343801608
 20
154.4204943949478
 30
0.0
 11
76.75008343801606
 21
156.4585961929254
 31
0.0
1001
ACAD
1000
ASC_BOUNDS
1002
{
1070
    19
1002
}
  0
LINE
  5
EF7C88980
330
EF7C85532
100
AcDbEntity
  8
JISSEN
100
AcDbLine
 10
77.25008343801608
 20
161.9927116385555
 30
0.0
 11
77.25008343801608
 21
160.4427116385548
 31
0.0
1001
ACAD
1000
ASC_BOUNDS
1002
{
1070
    19
1002
}
  0
ARC
  5
EF7C88981
330
EF7C85532
100
AcDbEntity
  8
JISSEN
100
AcDbCircle
 10
77.45008343801612
 20
160.4427116385559
 30
0.0
 40
0.2
100
AcDbArc
 50
180.0000000000006
 51
269.9999999999982
1001
ACAD
1000
ASC_BOUNDS
1002
{
1070
    19
1002
}
  0
LINE
  5
EF7C88982
330
EF7C85532
100
AcDbEntity
  8
JISSEN
100
AcDbLine
 10
81.73756562220082
 20
160.242711638556
 30
0.0
 11
81.73756562220082
 21
158.7204943949478
 31
0.0
1001
ACAD
1000
ASC_BOUNDS
1002
{
1070
    19
1002
}
  0
ARC
  5
EF7C88983
330
EF7C85532
100
AcDbEntity
  8
JISSEN
100
AcDbCircle
 10
82.05781846493506
 20
159.4204943949478
 30
0.0
 40
0.8
100
AcDbArc
 50
113.5979379883457
 51
149.9999999999998
1001
ACAD
1000
ASC_BOUNDS
1002
{
1070
    19
1002
}
  0
LINE
  5
EF7C88984
330
EF7C85532
100
AcDbEntity
  8
JISSEN
100
AcDbLine
 10
80.72991284579893
 20
158.7204943949478
 30
0.0
 11
81.36499814190745
 21
159.8204943949478
 31
0.0
1001
ACAD
1000
ASC_BOUNDS
1002
{
1070
    19
1002
}
  0
ARC
  5
EF7C88985
330
EF7C85532
100
AcDbEntity
  8
SAISEN
100
AcDbCircle
 10
95.01800943801606
 20
152.0069713949478
 30
0.0
 40
0.75
100
AcDbArc
 50
38.68358900000032
 51
90.0
  0
ARC
  5
EF7C88986
330
EF7C85532
100
AcDbEntity
  8
SAISEN
100
AcDbCircle
 10
84.98215743801607
 20
152.0069713949478
 30
0.0
 40
0.75
100
AcDbArc
 50
90.0
 51
141.3164109999995
  0
LINE
  5
EF7C88987
330
EF7C85532
100
AcDbEntity
  8
SAISEN
100
AcDbLine
 10
85.47205443801601
 20
152.1436173949478
 30
0.0
 11
90.00008343801608
 21
152.1436173949478
 31
0.0
  0
LINE
  5
EF7C88988
330
EF7C85532
100
AcDbEntity
  8
SAISEN
100
AcDbLine
 10
90.00008343801608
 20
149.8704943949478
 30
0.0
 11
82.36575643801609
 21
149.8704943949478
 31
0.0
  0
ARC
  5
EF7C88989
330
EF7C85532
100
AcDbEntity
  8
JISSEN
100
AcDbCircle
 10
86.98215743801609
 20
151.6436173949478
 30
0.0
 40
0.5
100
AcDbArc
 50
90.0
 51
180.0
  0
LINE
  5
EF7C8898A
330
EF7C85532
100
AcDbEntity
  8
JISSEN
100
AcDbLine
 10
86.48215743801609
 20
151.6436173949478
 30
0.0
 11
86.48215743801609
 21
150.7838353949478
 31
0.0
  0
ARC
  5
EF7C8898B
330
EF7C85532
100
AcDbEntity
  8
JISSEN
100
AcDbCircle
 10
86.18215743801602
 20
150.7838353949478
 30
0.0
 40
0.3
100
AcDbArc
 50
270.0
 51
0.0
  0
LINE
  5
EF7C8898C
330
EF7C85532
100
AcDbEntity
  8
SAISEN
100
AcDbLine
 10
94.52811243801605
 20
152.1436173949478
 30
0.0
 11
90.00008343801608
 21
152.1436173949478
 31
0.0
  0
ARC
  5
EF7C8898D
330
EF7C85532
100
AcDbEntity
  8
JISSEN
100
AcDbCircle
 10
93.81800943801602
 20
150.7838353949478
 30
0.0
 40
0.3
100
AcDbArc
 50
180.0
 51
270.0
  0
LINE
  5
EF7C8898E
330
EF7C85532
100
AcDbEntity
  8
JISSEN
100
AcDbLine
 10
93.51800943801606
 20
151.6436173949478
 30
0.0
 11
93.51800943801606
 21
150.7838353949478
 31
0.0
  0
ARC
  5
EF7C8898F
330
EF7C85532
100
AcDbEntity
  8
JISSEN
100
AcDbCircle
 10
93.01800943801607
 20
151.6436173949478
 30
0.0
 40
0.5
100
AcDbArc
 50
0.000000000000007
 51
90.0
  0
LINE
  5
EF7C88990
330
EF7C85532
100
AcDbEntity
  8
SAISEN
100
AcDbLine
 10
90.00008343801608
 20
152.7569713949478
 30
0.0
 11
84.98215743801607
 21
152.7569713949478
 31
0.0
  0
LINE
  5
EF7C88991
330
EF7C85532
100
AcDbEntity
  8
JISSEN
100
AcDbLine
 10
86.98215743801609
 20
154.4204943949478
 30
0.0
 11
86.98215743801609
 21
152.7569713949478
 31
0.0
  0
LINE
  5
EF7C88992
330
EF7C85532
100
AcDbEntity
  8
JISSEN
100
AcDbLine
 10
83.61008343801609
 20
158.7204943949478
 30
0.0
 11
83.61008343801609
 21
160.2427116385559
 31
0.0
1001
ACAD
1000
ASC_BOUNDS
1002
{
1070
    19
1002
}
  0
LINE
  5
EF7C88993
330
EF7C85532
100
AcDbEntity
  8
SAISEN
100
AcDbLine
 10
90.00008343801608
 20
152.7569713949478
 30
0.0
 11
95.01800943801606
 21
152.7569713949478
 31
0.0
  0
LINE
  5
EF7C88994
330
EF7C85532
100
AcDbEntity
  8
JISSEN
100
AcDbLine
 10
93.01800943801607
 20
154.4204943949478
 30
0.0
 11
93.01800943801607
 21
152.7569713949478
 31
0.0
  0
LINE
  5
EF7C88995
330
EF7C85532
100
AcDbEntity
  8
JISSEN
100
AcDbLine
 10
90.00008343801608
 20
185.569360960895
 30
0.0
 11
79.37885043801611
 21
185.569360960895
 31
0.0
  0
LINE
  5
EF7C88996
330
EF7C85532
100
AcDbEntity
  8
JISSEN
100
AcDbLine
 10
82.81891743801613
 20
173.3285939608951
 30
0.0
 11
80.50392643801604
 21
173.3285939608951
 31
0.0
  0
LINE
  5
EF7C88997
330
EF7C85532
100
AcDbEntity
  8
JISSEN
100
AcDbLine
 10
81.1436744380161
 20
166.635492960895
 30
0.0
 11
83.27700743801608
 21
166.635492960895
 31
0.0
  0
LINE
  5
EF7C88998
330
EF7C85532
100
AcDbEntity
  8
JISSEN
100
AcDbLine
 10
81.42122443801611
 20
165.5317149608951
 30
0.0
 11
83.69015343801606
 21
165.5317149608951
 31
0.0
  0
LINE
  5
EF7C88999
330
EF7C85532
100
AcDbEntity
  8
JISSEN
100
AcDbLine
 10
74.19320243801609
 20
173.3285939608951
 30
0.0
 11
75.17955343801611
 21
173.3285939608951
 31
0.0
  0
LINE
  5
EF7C8899A
330
EF7C85532
100
AcDbEntity
  8
JISSEN
100
AcDbLine
 10
74.68563243801611
 20
166.635492960895
 30
0.0
 11
75.88578443801613
 21
166.635492960895
 31
0.0
  0
LINE
  5
EF7C8899B
330
EF7C85532
100
AcDbEntity
  8
JISSEN
100
AcDbLine
 10
75.00443043801602
 20
165.5961629608951
 30
0.0
 11
74.00136443801608
 21
166.3070849608951
 31
0.0
  0
LINE
  5
EF7C8899C
330
EF7C85532
100
AcDbEntity
  8
JISSEN
100
AcDbLine
 10
73.89384343801613
 20
173.0090019608951
 30
0.0
 11
74.28648643801608
 21
167.009370960895
 31
0.0
  0
LINE
  5
EF7C8899D
330
EF7C85532
100
AcDbEntity
  8
JISSEN
100
AcDbLine
 10
73.49820643801608
 20
167.202038960895
 30
0.0
 11
73.09417243801608
 21
172.954068960895
 31
0.0
  0
LINE
  5
EF7C8899E
330
EF7C85532
100
AcDbEntity
  8
JISSEN
100
AcDbLine
 10
70.0942744380161
 20
166.906143960895
 30
0.0
 11
69.52616643801611
 21
173.146725960895
 31
0.0
  0
LINE
  5
EF7C8899F
330
EF7C85532
100
AcDbEntity
  8
JISSEN
100
AcDbLine
 10
68.02692143801607
 20
172.890906960895
 30
0.0
 11
68.5526234380161
 21
167.3359609608951
 31
0.0
  0
LINE
  5
EF7C889A0
330
EF7C85532
100
AcDbEntity
  8
JISSEN
100
AcDbLine
 10
69.0893424380161
 20
173.111026960895
 30
0.0
 11
69.62009643801611
 21
167.0915769608951
 31
0.0
  0
LINE
  5
EF7C889A1
330
EF7C85532
100
AcDbEntity
  8
JISSEN
100
AcDbLine
 10
70.81593243801609
 20
165.5317149608951
 30
0.0
 11
71.81225143801611
 21
165.5317149608951
 31
0.0
  0
LINE
  5
EF7C889A2
330
EF7C85532
100
AcDbEntity
  8
JISSEN
100
AcDbLine
 10
71.85880843801612
 20
165.720216960895
 30
0.0
 11
70.35943343801609
 21
166.508966960895
 31
0.0
  0
ARC
  5
EF7C889A3
330
EF7C85532
100
AcDbEntity
  8
JISSEN
100
AcDbCircle
 10
70.81593243801609
 20
165.9317149608951
 30
0.0
 40
0.4
100
AcDbArc
 50
242.253262
 51
270.0
  0
ARC
  5
EF7C889A4
330
EF7C85532
100
AcDbEntity
  8
JISSEN
100
AcDbCircle
 10
70.59221543801605
 20
166.9514739608951
 30
0.0
 40
0.5
100
AcDbArc
 50
185.2015590000002
 51
242.253262
  0
ARC
  5
EF7C889A5
330
EF7C85532
100
AcDbEntity
  8
JISSEN
100
AcDbCircle
 10
69.8468404380161
 20
167.458441960895
 30
0.0
 40
1.3
100
AcDbArc
 50
185.4061850000002
 51
242.253262
  0
ARC
  5
EF7C889A6
330
EF7C85532
100
AcDbEntity
  8
JISSEN
100
AcDbCircle
 10
69.0405094380161
 20
166.553951960895
 30
0.0
 40
1.0
100
AcDbArc
 50
245.1745949999998
 51
270.0
  0
LINE
  5
EF7C889A7
330
EF7C85532
100
AcDbEntity
  8
JISSEN
100
AcDbLine
 10
69.0405094380161
 20
165.553951960895
 30
0.0
 11
69.11418443801608
 21
165.553951960895
 31
0.0
  0
ARC
  5
EF7C889A8
330
EF7C85532
100
AcDbEntity
  8
JISSEN
100
AcDbCircle
 10
69.11418443801608
 20
165.6039519608951
 30
0.0
 40
0.05
100
AcDbArc
 50
270.0
 51
65.17459499999985
  0
LINE
  5
EF7C889A9
330
EF7C85532
100
AcDbEntity
  8
JISSEN
100
AcDbLine
 10
69.24160743801611
 20
166.307922960895
 30
0.0
 11
70.62970643801611
 21
165.5777099608951
 31
0.0
  0
ARC
  5
EF7C889AA
330
EF7C85532
100
AcDbEntity
  8
JISSEN
100
AcDbCircle
 10
70.1181644380161
 20
167.1354929608952
 30
0.0
 40
0.5
100
AcDbArc
 50
185.0389269999999
 51
279.3495549999998
  0
ARC
  5
EF7C889AB
330
EF7C85532
100
AcDbEntity
  8
JISSEN
100
AcDbCircle
 10
74.69525643801609
 20
167.286121960895
 30
0.0
 40
1.199999999999999
100
AcDbArc
 50
184.0179690000003
 51
234.6729319999998
  0
ARC
  5
EF7C889AC
330
EF7C85532
100
AcDbEntity
  8
JISSEN
100
AcDbCircle
 10
71.81225143801611
 20
165.6317149608951
 30
0.0
 40
0.1
100
AcDbArc
 50
270.0
 51
62.25326200000021
  0
ARC
  5
EF7C889AD
330
EF7C85532
100
AcDbEntity
  8
JISSEN
100
AcDbCircle
 10
74.68563243801611
 20
167.0354929608951
 30
0.0
 40
0.4
100
AcDbArc
 50
183.7443620000003
 51
270.0
  0
ARC
  5
EF7C889AE
330
EF7C85532
100
AcDbEntity
  8
JISSEN
100
AcDbCircle
 10
69.32698943801608
 20
173.128593960895
 30
0.0
 40
0.2
100
AcDbArc
 50
5.201559000000191
 51
90.0
  0
LINE
  5
EF7C889AF
330
EF7C85532
100
AcDbEntity
  8
JISSEN
100
AcDbLine
 10
69.32698943801608
 20
173.3285939608951
 30
0.0
 11
68.42514243801611
 21
173.3285939608951
 31
0.0
  0
ARC
  5
EF7C889B0
330
EF7C85532
100
AcDbEntity
  8
JISSEN
100
AcDbCircle
 10
68.42514243801611
 20
172.928593960895
 30
0.0
 40
0.4
100
AcDbArc
 50
90.0
 51
185.4061850000002
  0
ARC
  5
EF7C889B1
330
EF7C85532
100
AcDbEntity
  8
JISSEN
100
AcDbCircle
 10
69.28856943801611
 20
173.128593960895
 30
0.0
 40
0.2
100
AcDbArc
 50
90.0
 51
185.0389269999999
  0
ARC
  5
EF7C889B2
330
EF7C85532
100
AcDbEntity
  8
JISSEN
100
AcDbCircle
 10
74.19320243801609
 20
173.028593960895
 30
0.0
 40
0.3
100
AcDbArc
 50
90.0
 51
183.7443620000003
  0
ARC
  5
EF7C889B3
330
EF7C85532
100
AcDbEntity
  8
JISSEN
100
AcDbCircle
 10
73.44331143801611
 20
172.978593960895
 30
0.0
 40
0.35
100
AcDbArc
 50
90.0
 51
184.0179690000003
  0
LINE
  5
EF7C889B4
330
EF7C85532
100
AcDbEntity
  8
JISSEN
100
AcDbLine
 10
73.44331143801611
 20
173.3285939608951
 30
0.0
 11
74.19320243801609
 21
173.3285939608951
 31
0.0
  0
LINE
  5
EF7C889B5
330
EF7C85532
100
AcDbEntity
  8
JISSEN
100
AcDbLine
 10
75.37906243801605
 20
173.142607960895
 30
0.0
 11
75.82286943801602
 21
166.8243419608951
 31
0.0
  0
LINE
  5
EF7C889B6
330
EF7C85532
100
AcDbEntity
  8
JISSEN
100
AcDbLine
 10
80.629878438016
 20
173.069892960895
 30
0.0
 11
80.84385643801601
 21
166.9250529608951
 31
0.0
  0
LINE
  5
EF7C889B7
330
EF7C85532
100
AcDbEntity
  8
JISSEN
100
AcDbLine
 10
80.20413643801614
 20
173.017388960895
 30
0.0
 11
80.43097043801607
 21
166.9482409608952
 31
0.0
  0
ARC
  5
EF7C889B8
330
EF7C85532
100
AcDbEntity
  8
JISSEN
100
AcDbCircle
 10
76.92244843801609
 20
165.6817149608951
 30
0.0
 40
0.15
100
AcDbArc
 50
270.0
 51
54.67293199999994
  0
ARC
  5
EF7C889B9
330
EF7C85532
100
AcDbEntity
  8
JISSEN
100
AcDbCircle
 10
76.22188643801608
 20
166.852369960895
 30
0.0
 40
0.4
100
AcDbArc
 50
184.0179690000003
 51
234.6729319999998
  0
ARC
  5
EF7C889BA
330
EF7C85532
100
AcDbEntity
  8
JISSEN
100
AcDbCircle
 10
75.20681543801607
 20
165.881714960895
 30
0.0
 40
0.35
100
AcDbArc
 50
234.6729319999998
 51
270.0
  0
LINE
  5
EF7C889BB
330
EF7C85532
100
AcDbEntity
  8
JISSEN
100
AcDbLine
 10
75.99058943801606
 20
166.526023960895
 30
0.0
 11
77.00918443801606
 21
165.8040949608951
 31
0.0
  0
LINE
  5
EF7C889BC
330
EF7C85532
100
AcDbEntity
  8
JISSEN
100
AcDbLine
 10
76.92244843801609
 20
165.5317149608951
 30
0.0
 11
75.20681543801607
 21
165.5317149608951
 31
0.0
  0
ARC
  5
EF7C889BD
330
EF7C85532
100
AcDbEntity
  8
JISSEN
100
AcDbCircle
 10
81.1436744380161
 20
166.935492960895
 30
0.0
 40
0.3
100
AcDbArc
 50
181.994368
 51
270.0
  0
LINE
  5
EF7C889BE
330
EF7C85532
100
AcDbEntity
  8
JISSEN
100
AcDbLine
 10
80.63055843801611
 20
166.3852089608951
 30
0.0
 11
81.18130943801611
 21
165.6516009608951
 31
0.0
  0
ARC
  5
EF7C889BF
330
EF7C85532
100
AcDbEntity
  8
JISSEN
100
AcDbCircle
 10
81.42122443801611
 20
165.8317149608951
 30
0.0
 40
0.3
100
AcDbArc
 50
216.8971619999997
 51
270.0
  0
ARC
  5
EF7C889C0
330
EF7C85532
100
AcDbEntity
  8
JISSEN
100
AcDbCircle
 10
81.4302724380161
 20
166.9855899608951
 30
0.0
 40
1.0
100
AcDbArc
 50
182.1404319999997
 51
216.8971619999997
  0
ARC
  5
EF7C889C1
330
EF7C85532
100
AcDbEntity
  8
JISSEN
100
AcDbCircle
 10
75.17955343801611
 20
173.128593960895
 30
0.0
 40
0.2
100
AcDbArc
 50
4.017969000000318
 51
90.0
  0
ARC
  5
EF7C889C2
330
EF7C85532
100
AcDbEntity
  8
JISSEN
100
AcDbCircle
 10
80.87972643801606
 20
173.078593960895
 30
0.0
 40
0.25
100
AcDbArc
 50
90.0
 51
181.994368
  0
ARC
  5
EF7C889C3
330
EF7C85532
100
AcDbEntity
  8
JISSEN
100
AcDbCircle
 10
80.50392643801604
 20
173.028593960895
 30
0.0
 40
0.3
100
AcDbArc
 50
90.0
 51
182.1404319999997
  0
LINE
  5
EF7C889C4
330
EF7C85532
100
AcDbEntity
  8
JISSEN
100
AcDbLine
 10
78.30008343801603
 20
183.328593960895
 30
0.0
 11
79.34136443801604
 21
184.369874960895
 31
0.0
  0
LINE
  5
EF7C889C5
330
EF7C85532
100
AcDbEntity
  8
SAISEN
100
AcDbLine
 10
79.34136443801604
 20
184.369874960895
 30
0.0
 11
80.54085043801604
 21
185.569360960895
 31
0.0
  0
ARC
  5
EF7C889C6
330
EF7C85532
100
AcDbEntity
  8
JISSEN
100
AcDbCircle
 10
90.00008343801608
 20
175.828593960895
 30
0.0
 40
1.0
100
AcDbArc
 50
180.0
 51
270.0
  0
ARC
  5
EF7C889C7
330
EF7C85532
100
AcDbEntity
  8
JISSEN
100
AcDbCircle
 10
90.00008343801608
 20
175.828593960895
 30
0.0
 40
1.0
100
AcDbArc
 50
270.0
 51
0.000000000000007
  0
LINE
  5
EF7C889C8
330
EF7C85532
100
AcDbEntity
  8
JISSEN
100
AcDbLine
 10
90.00008343801608
 20
173.3285939608951
 30
0.0
 11
89.00008343801607
 21
173.3285939608951
 31
0.0
  0
LINE
  5
EF7C889C9
330
EF7C85532
100
AcDbEntity
  8
JISSEN
100
AcDbLine
 10
89.00008343801607
 20
166.635492960895
 30
0.0
 11
90.00008343801608
 21
166.635492960895
 31
0.0
  0
LINE
  5
EF7C889CA
330
EF7C85532
100
AcDbEntity
  8
JISSEN
100
AcDbLine
 10
90.00008343801608
 20
165.5317149608951
 30
0.0
 11
89.00008343801607
 21
165.5317149608951
 31
0.0
  0
LINE
  5
EF7C889CB
330
EF7C85532
100
AcDbEntity
  8
JISSEN
100
AcDbLine
 10
88.50008343801608
 20
172.828593960895
 30
0.0
 11
88.50008343801608
 21
166.0317149608951
 31
0.0
  0
LINE
  5
EF7C889CC
330
EF7C85532
100
AcDbEntity
  8
JISSEN
100
AcDbLine
 10
83.25823043801609
 20
166.729317960895
 30
0.0
 11
83.01877843801603
 21
173.136063960895
 31
0.0
  0
ARC
  5
EF7C889CD
330
EF7C85532
100
AcDbEntity
  8
JISSEN
100
AcDbCircle
 10
83.55802143801611
 20
166.7405219608951
 30
0.0
 40
0.3
100
AcDbArc
 50
182.1404319999997
 51
216.8971619999997
  0
ARC
  5
EF7C889CE
330
EF7C85532
100
AcDbEntity
  8
JISSEN
100
AcDbCircle
 10
83.69015343801606
 20
165.731714960895
 30
0.0
 40
0.2
100
AcDbArc
 50
270.0
 51
36.89716199999973
  0
LINE
  5
EF7C889CF
330
EF7C85532
100
AcDbEntity
  8
JISSEN
100
AcDbLine
 10
83.85009643801607
 20
165.8517919608951
 30
0.0
 11
83.31810643801611
 21
166.5604079608951
 31
0.0
  0
ARC
  5
EF7C889D0
330
EF7C85532
100
AcDbEntity
  8
JISSEN
100
AcDbCircle
 10
89.00008343801607
 20
166.0317149608951
 30
0.0
 40
0.5
100
AcDbArc
 50
180.0
 51
270.0
  0
ARC
  5
EF7C889D1
330
EF7C85532
100
AcDbEntity
  8
JISSEN
100
AcDbCircle
 10
89.00008343801607
 20
167.1354929608952
 30
0.0
 40
0.5
100
AcDbArc
 50
180.0
 51
270.0
  0
ARC
  5
EF7C889D2
330
EF7C85532
100
AcDbEntity
  8
JISSEN
100
AcDbCircle
 10
82.81891743801613
 20
173.128593960895
 30
0.0
 40
0.2
100
AcDbArc
 50
2.140431999999735
 51
90.0
  0
ARC
  5
EF7C889D3
330
EF7C85532
100
AcDbEntity
  8
JISSEN
100
AcDbCircle
 10
89.00008343801607
 20
172.828593960895
 30
0.0
 40
0.5
100
AcDbArc
 50
90.0
 51
180.0
  0
LINE
  5
EF7C889D4
330
EF7C85532
100
AcDbEntity
  8
JISSEN
100
AcDbLine
 10
91.50008343801607
 20
172.828593960895
 30
0.0
 11
91.50008343801607
 21
166.0317149608951
 31
0.0
  0
ARC
  5
EF7C889D5
330
EF7C85532
100
AcDbEntity
  8
JISSEN
100
AcDbCircle
 10
91.00008343801608
 20
167.1354929608952
 30
0.0
 40
0.5
100
AcDbArc
 50
270.0
 51
0.000000000000007
  0
ARC
  5
EF7C889D6
330
EF7C85532
100
AcDbEntity
  8
JISSEN
100
AcDbCircle
 10
91.00008343801608
 20
166.0317149608951
 30
0.0
 40
0.5
100
AcDbArc
 50
270.0
 51
0.000000000000007
  0
LINE
  5
EF7C889D7
330
EF7C85532
100
AcDbEntity
  8
JISSEN
100
AcDbLine
 10
90.00008343801608
 20
165.5317149608951
 30
0.0
 11
91.00008343801608
 21
165.5317149608951
 31
0.0
  0
LINE
  5
EF7C889D8
330
EF7C85532
100
AcDbEntity
  8
JISSEN
100
AcDbLine
 10
91.00008343801608
 20
166.635492960895
 30
0.0
 11
90.00008343801608
 21
166.635492960895
 31
0.0
  0
ARC
  5
EF7C889D9
330
EF7C85532
100
AcDbEntity
  8
JISSEN
100
AcDbCircle
 10
91.00008343801608
 20
172.828593960895
 30
0.0
 40
0.5
100
AcDbArc
 50
0.000000000000007
 51
90.0
  0
LINE
  5
EF7C889DA
330
EF7C85532
100
AcDbEntity
  8
JISSEN
100
AcDbLine
 10
90.00008343801608
 20
173.3285939608951
 30
0.0
 11
91.00008343801608
 21
173.3285939608951
 31
0.0
  0
ARC
  5
EF7C889DB
330
EF7C85532
100
AcDbEntity
  8
JISSEN
100
AcDbCircle
 10
90.00008343801608
 20
182.0785939608951
 30
0.0
 40
1.25
100
AcDbArc
 50
90.0
 51
143.1301020000003
  0
LINE
  5
EF7C889DC
330
EF7C85532
100
AcDbEntity
  8
JISSEN
100
AcDbLine
 10
89.00008343801607
 20
182.828593960895
 30
0.0
 11
89.00008343801607
 21
175.828593960895
 31
0.0
  0
LINE
  5
EF7C889DD
330
EF7C85532
100
AcDbEntity
  8
JISSEN
100
AcDbLine
 10
91.00008343801608
 20
182.828593960895
 30
0.0
 11
91.00008343801608
 21
175.828593960895
 31
0.0
  0
ARC
  5
EF7C889DE
330
EF7C85532
100
AcDbEntity
  8
JISSEN
100
AcDbCircle
 10
90.00008343801608
 20
182.0785939608951
 30
0.0
 40
1.25
100
AcDbArc
 50
36.86989799999964
 51
90.0
  0
LINE
  5
EF7C889E1
330
EF7C85532
100
AcDbEntity
  8
JISSEN
100
AcDbLine
 10
104.5292864546178
 20
161.9927116385555
 30
0.0
 11
113.0546890638554
 21
166.001207580266
 31
0.0
1001
ACAD
1000
ASC_BOUNDS
1002
{
1070
    19
1002
}
  0
LINE
  5
EF7C889E2
330
EF7C85532
100
AcDbEntity
  8
SAISEN
100
AcDbLine
 10
99.26800943801607
 20
150.4838353949478
 30
0.0
 11
99.26800943801607
 21
150.1614063949478
 31
0.0
  0
LINE
  5
EF7C889E3
330
EF7C85532
100
AcDbEntity
  8
SAISEN
100
AcDbLine
 10
99.26800943801607
 20
152.1436173949478
 30
0.0
 11
99.26800943801607
 21
152.4757363949477
 31
0.0
  0
ARC
  5
EF7C889E4
330
EF7C85532
100
AcDbEntity
  8
SAISEN
100
AcDbCircle
 10
97.51800943801606
 20
150.6114063949478
 30
0.0
 40
0.75
100
AcDbArc
 50
261.0715290000005
 51
323.1301020000003
  0
LINE
  5
EF7C889E5
330
EF7C85532
100
AcDbEntity
  8
JISSEN
100
AcDbLine
 10
99.25008343801607
 20
154.4204943949478
 30
0.0
 11
103.2500834380159
 21
156.4585961929254
 31
0.0
1001
ACAD
1000
ASC_BOUNDS
1002
{
1070
    19
1002
}
  0
LINE
  5
EF7C889E6
330
EF7C85532
100
AcDbEntity
  8
JISSEN
100
AcDbLine
 10
99.27025403023321
 20
158.7204943949478
 30
0.0
 11
98.63516873412461
 21
159.8204943949478
 31
0.0
1001
ACAD
1000
ASC_BOUNDS
1002
{
1070
    19
1002
}
  0
ARC
  5
EF7C889E7
330
EF7C85532
100
AcDbEntity
  8
JISSEN
100
AcDbCircle
 10
97.94234841109712
 20
159.4204943949478
 30
0.0
 40
0.8
100
AcDbArc
 50
30.00000000000015
 51
66.40206201165418
1001
ACAD
1000
ASC_BOUNDS
1002
{
1070
    19
1002
}
  0
LINE
  5
EF7C889E8
330
EF7C85532
100
AcDbEntity
  8
JISSEN
100
AcDbLine
 10
98.26260125383136
 20
160.242711638556
 30
0.0
 11
98.26260125383136
 21
158.7204943949478
 31
0.0
1001
ACAD
1000
ASC_BOUNDS
1002
{
1070
    19
1002
}
  0
LINE
  5
EF7C889E9
330
EF7C85532
100
AcDbEntity
  8
JISSEN
100
AcDbLine
 10
96.39008343801608
 20
158.7204943949478
 30
0.0
 11
96.39008343801608
 21
160.2427116385559
 31
0.0
1001
ACAD
1000
ASC_BOUNDS
1002
{
1070
    19
1002
}
  0
ARC
  5
EF7C889EA
330
EF7C85532
100
AcDbEntity
  8
JISSEN
100
AcDbCircle
 10
102.5500834380159
 20
160.4427116385559
 30
0.0
 40
0.2
100
AcDbArc
 50
270.0000000000016
 51
359.9999999999991
1001
ACAD
1000
ASC_BOUNDS
1002
{
1070
    19
1002
}
  0
LINE
  5
EF7C889EB
330
EF7C85532
100
AcDbEntity
  8
JISSEN
100
AcDbLine
 10
102.7500834380159
 20
161.9927116385555
 30
0.0
 11
102.7500834380159
 21
160.4427116385548
 31
0.0
1001
ACAD
1000
ASC_BOUNDS
1002
{
1070
    19
1002
}
  0
LINE
  5
EF7C889EC
330
EF7C85532
100
AcDbEntity
  8
JISSEN
100
AcDbLine
 10
103.2500834380159
 20
158.7204943949478
 30
0.0
 11
103.2500834380159
 21
156.4585961929254
 31
0.0
1001
ACAD
1000
ASC_BOUNDS
1002
{
1070
    19
1002
}
  0
ARC
  5
EF7C889ED
330
EF7C85532
100
AcDbEntity
  8
JISSEN
100
AcDbCircle
 10
109.882002438016
 20
167.1354929608952
 30
0.0
 40
0.5
100
AcDbArc
 50
260.650445
 51
354.9610729999998
  0
LINE
  5
EF7C889EE
330
EF7C85532
100
AcDbEntity
  8
JISSEN
100
AcDbLine
 10
110.758559438016
 20
166.307922960895
 30
0.0
 11
109.3704604380159
 21
165.5777099608951
 31
0.0
  0
LINE
  5
EF7C889EF
330
EF7C85532
100
AcDbEntity
  8
JISSEN
100
AcDbLine
 10
109.905892438016
 20
166.906143960895
 30
0.0
 11
110.4740004380159
 21
173.146725960895
 31
0.0
  0
LINE
  5
EF7C889F0
330
EF7C85532
100
AcDbEntity
  8
JISSEN
100
AcDbLine
 10
103.0777184380159
 20
165.5317149608951
 30
0.0
 11
104.7933514380159
 21
165.5317149608951
 31
0.0
  0
LINE
  5
EF7C889F1
330
EF7C85532
100
AcDbEntity
  8
JISSEN
100
AcDbLine
 10
104.0095774380158
 20
166.526023960895
 30
0.0
 11
102.9909824380159
 21
165.8040949608951
 31
0.0
  0
LINE
  5
EF7C889F2
330
EF7C85532
100
AcDbEntity
  8
JISSEN
100
AcDbLine
 10
99.79603043801605
 20
173.017388960895
 30
0.0
 11
99.5691964380161
 21
166.9482409608952
 31
0.0
  0
LINE
  5
EF7C889F3
330
EF7C85532
100
AcDbEntity
  8
JISSEN
100
AcDbLine
 10
99.37028843801602
 20
173.069892960895
 30
0.0
 11
99.15631043801605
 21
166.9250529608951
 31
0.0
  0
LINE
  5
EF7C889F4
330
EF7C85532
100
AcDbEntity
  8
JISSEN
100
AcDbLine
 10
96.74193643801608
 20
166.729317960895
 30
0.0
 11
96.9813884380161
 21
173.136063960895
 31
0.0
  0
ARC
  5
EF7C889F5
330
EF7C85532
100
AcDbEntity
  8
JISSEN
100
AcDbCircle
 10
98.56989443801605
 20
166.9855899608951
 30
0.0
 40
1.0
100
AcDbArc
 50
323.1028380000003
 51
357.8595680000001
  0
ARC
  5
EF7C889F6
330
EF7C85532
100
AcDbEntity
  8
JISSEN
100
AcDbCircle
 10
98.57894243801606
 20
165.8317149608951
 30
0.0
 40
0.3
100
AcDbArc
 50
270.0
 51
323.1028380000003
  0
LINE
  5
EF7C889F7
330
EF7C85532
100
AcDbEntity
  8
JISSEN
100
AcDbLine
 10
99.36960843801607
 20
166.3852089608951
 30
0.0
 11
98.81885743801605
 21
165.6516009608951
 31
0.0
  0
ARC
  5
EF7C889F8
330
EF7C85532
100
AcDbEntity
  8
JISSEN
100
AcDbCircle
 10
98.85649243801609
 20
166.935492960895
 30
0.0
 40
0.3
100
AcDbArc
 50
270.0
 51
358.0056319999998
  0
LINE
  5
EF7C889F9
330
EF7C85532
100
AcDbEntity
  8
JISSEN
100
AcDbLine
 10
96.15007043801607
 20
165.8517919608951
 30
0.0
 11
96.68206043801605
 21
166.5604079608951
 31
0.0
  0
ARC
  5
EF7C889FA
330
EF7C85532
100
AcDbEntity
  8
JISSEN
100
AcDbCircle
 10
96.44214543801606
 20
166.7405219608951
 30
0.0
 40
0.3
100
AcDbArc
 50
323.1028380000003
 51
357.8595680000001
  0
LINE
  5
EF7C889FB
330
EF7C85532
100
AcDbEntity
  8
JISSEN
100
AcDbLine
 10
98.57894243801606
 20
165.5317149608951
 30
0.0
 11
96.31001343801607
 21
165.5317149608951
 31
0.0
  0
LINE
  5
EF7C889FC
330
EF7C85532
100
AcDbEntity
  8
JISSEN
100
AcDbLine
 10
98.85649243801609
 20
166.635492960895
 30
0.0
 11
96.72315943801606
 21
166.635492960895
 31
0.0
  0
ARC
  5
EF7C889FD
330
EF7C85532
100
AcDbEntity
  8
JISSEN
100
AcDbCircle
 10
103.0777184380159
 20
165.6817149608951
 30
0.0
 40
0.15
100
AcDbArc
 50
125.3270679999999
 51
270.0
  0
ARC
  5
EF7C889FE
330
EF7C85532
100
AcDbEntity
  8
JISSEN
100
AcDbCircle
 10
99.49624043801598
 20
173.028593960895
 30
0.0
 40
0.3
100
AcDbArc
 50
357.8595680000001
 51
90.0
  0
ARC
  5
EF7C889FF
330
EF7C85532
100
AcDbEntity
  8
JISSEN
100
AcDbCircle
 10
99.12044043801607
 20
173.078593960895
 30
0.0
 40
0.25
100
AcDbArc
 50
358.0056319999998
 51
90.0
  0
ARC
  5
EF7C88A00
330
EF7C85532
100
AcDbEntity
  8
JISSEN
100
AcDbCircle
 10
97.18124943801605
 20
173.128593960895
 30
0.0
 40
0.2
100
AcDbArc
 50
90.0
 51
177.8595680000002
  0
LINE
  5
EF7C88A01
330
EF7C85532
100
AcDbEntity
  8
JISSEN
100
AcDbLine
 10
97.18124943801605
 20
173.3285939608951
 30
0.0
 11
99.49624043801598
 21
173.3285939608951
 31
0.0
  0
LINE
  5
EF7C88A02
330
EF7C85532
100
AcDbEntity
  8
JISSEN
100
AcDbLine
 10
106.501960438016
 20
167.202038960895
 30
0.0
 11
106.905994438016
 21
172.954068960895
 31
0.0
  0
LINE
  5
EF7C88A03
330
EF7C85532
100
AcDbEntity
  8
JISSEN
100
AcDbLine
 10
106.106323438016
 20
173.0090019608951
 30
0.0
 11
105.713680438016
 21
167.009370960895
 31
0.0
  0
LINE
  5
EF7C88A04
330
EF7C85532
100
AcDbEntity
  8
JISSEN
100
AcDbLine
 10
104.6211044380159
 20
173.142607960895
 30
0.0
 11
104.177297438016
 21
166.8243419608951
 31
0.0
  0
ARC
  5
EF7C88A05
330
EF7C85532
100
AcDbEntity
  8
JISSEN
100
AcDbCircle
 10
105.3145344380159
 20
167.0354929608951
 30
0.0
 40
0.4
100
AcDbArc
 50
270.0
 51
356.2556379999997
  0
ARC
  5
EF7C88A06
330
EF7C85532
100
AcDbEntity
  8
JISSEN
100
AcDbCircle
 10
105.3049104380159
 20
167.286121960895
 30
0.0
 40
1.199999999999999
100
AcDbArc
 50
305.327068
 51
355.9820309999997
  0
ARC
  5
EF7C88A07
330
EF7C85532
100
AcDbEntity
  8
JISSEN
100
AcDbCircle
 10
104.7933514380159
 20
165.881714960895
 30
0.0
 40
0.35
100
AcDbArc
 50
270.0
 51
305.327068
  0
ARC
  5
EF7C88A08
330
EF7C85532
100
AcDbEntity
  8
JISSEN
100
AcDbCircle
 10
103.778280438016
 20
166.852369960895
 30
0.0
 40
0.4
100
AcDbArc
 50
305.327068
 51
355.9820309999997
  0
LINE
  5
EF7C88A09
330
EF7C85532
100
AcDbEntity
  8
JISSEN
100
AcDbLine
 10
104.995736438016
 20
165.5961629608951
 30
0.0
 11
105.998802438016
 21
166.3070849608951
 31
0.0
  0
LINE
  5
EF7C88A0A
330
EF7C85532
100
AcDbEntity
  8
JISSEN
100
AcDbLine
 10
105.3145344380159
 20
166.635492960895
 30
0.0
 11
104.114382438016
 21
166.635492960895
 31
0.0
  0
LINE
  5
EF7C88A0B
330
EF7C85532
100
AcDbEntity
  8
JISSEN
100
AcDbLine
 10
108.1413584380159
 20
165.720216960895
 30
0.0
 11
109.6407334380159
 21
166.508966960895
 31
0.0
  0
LINE
  5
EF7C88A0C
330
EF7C85532
100
AcDbEntity
  8
JISSEN
100
AcDbLine
 10
109.1842344380159
 20
165.5317149608951
 30
0.0
 11
108.187915438016
 21
165.5317149608951
 31
0.0
  0
ARC
  5
EF7C88A0D
330
EF7C85532
100
AcDbEntity
  8
JISSEN
100
AcDbCircle
 10
109.407951438016
 20
166.9514739608951
 30
0.0
 40
0.5
100
AcDbArc
 50
297.7467379999998
 51
354.7984409999998
  0
ARC
  5
EF7C88A0E
330
EF7C85532
100
AcDbEntity
  8
JISSEN
100
AcDbCircle
 10
109.1842344380159
 20
165.9317149608951
 30
0.0
 40
0.4
100
AcDbArc
 50
270.0
 51
297.7467379999998
  0
ARC
  5
EF7C88A0F
330
EF7C85532
100
AcDbEntity
  8
JISSEN
100
AcDbCircle
 10
108.187915438016
 20
165.6317149608951
 30
0.0
 40
0.1
100
AcDbArc
 50
117.7467379999998
 51
270.0
  0
ARC
  5
EF7C88A10
330
EF7C85532
100
AcDbEntity
  8
JISSEN
100
AcDbCircle
 10
106.5568554380158
 20
172.978593960895
 30
0.0
 40
0.35
100
AcDbArc
 50
355.9820309999997
 51
90.0
  0
LINE
  5
EF7C88A11
330
EF7C85532
100
AcDbEntity
  8
JISSEN
100
AcDbLine
 10
106.5568554380158
 20
173.3285939608951
 30
0.0
 11
105.806964438016
 21
173.3285939608951
 31
0.0
  0
ARC
  5
EF7C88A12
330
EF7C85532
100
AcDbEntity
  8
JISSEN
100
AcDbCircle
 10
105.806964438016
 20
173.028593960895
 30
0.0
 40
0.3
100
AcDbArc
 50
356.2556379999997
 51
90.0
  0
ARC
  5
EF7C88A13
330
EF7C85532
100
AcDbEntity
  8
JISSEN
100
AcDbCircle
 10
104.820613438016
 20
173.128593960895
 30
0.0
 40
0.2
100
AcDbArc
 50
90.0
 51
175.9820309999995
  0
LINE
  5
EF7C88A14
330
EF7C85532
100
AcDbEntity
  8
JISSEN
100
AcDbLine
 10
105.806964438016
 20
173.3285939608951
 30
0.0
 11
104.820613438016
 21
173.3285939608951
 31
0.0
  0
LINE
  5
EF7C88A15
330
EF7C85532
100
AcDbEntity
  8
SAISEN
100
AcDbLine
 10
100.6588024380159
 20
184.369874960895
 30
0.0
 11
99.459316438016
 21
185.569360960895
 31
0.0
  0
LINE
  5
EF7C88A16
330
EF7C85532
100
AcDbEntity
  8
JISSEN
100
AcDbLine
 10
101.7000834380159
 20
183.328593960895
 30
0.0
 11
100.6588024380159
 21
184.369874960895
 31
0.0
  0
LINE
  5
EF7C88A17
330
EF7C85532
100
AcDbEntity
  8
JISSEN
100
AcDbLine
 10
114.6000834380159
 20
174.828593960895
 30
0.0
 11
114.468850438016
 21
173.3285939608951
 31
0.0
  0
LINE
  5
EF7C88A18
330
EF7C85532
100
AcDbEntity
  8
JISSEN
100
AcDbLine
 10
113.1235744380159
 20
167.389491960895
 30
0.0
 11
113.755505438016
 21
173.261529960895
 31
0.0
  0
LINE
  5
EF7C88A19
330
EF7C85532
100
AcDbEntity
  8
JISSEN
100
AcDbLine
 10
114.238407438016
 20
172.908029960895
 30
0.0
 11
113.650577438016
 21
167.445780960895
 31
0.0
  0
LINE
  5
EF7C88A1A
330
EF7C85532
100
AcDbEntity
  8
JISSEN
100
AcDbLine
 10
114.468850438016
 20
173.3285939608951
 30
0.0
 11
113.9484964380159
 21
167.3809169608951
 31
0.0
  0
LINE
  5
EF7C88A1B
330
EF7C85532
100
AcDbEntity
  8
JISSEN
100
AcDbLine
 10
110.9108244380158
 20
173.111026960895
 30
0.0
 11
110.3800704380158
 21
167.0915769608951
 31
0.0
  0
LINE
  5
EF7C88A1C
330
EF7C85532
100
AcDbEntity
  8
JISSEN
100
AcDbLine
 10
111.9732454380159
 20
172.890906960895
 30
0.0
 11
111.4475434380159
 21
167.3359609608951
 31
0.0
  0
ARC
  5
EF7C88A1D
330
EF7C85532
100
AcDbEntity
  8
JISSEN
100
AcDbCircle
 10
112.4542041084787
 20
167.3757685350316
 30
0.0
 40
1.5
100
AcDbArc
 50
290.0
 51
355.0000000000001
  0
ARC
  5
EF7C88A1E
330
EF7C85532
100
AcDbEntity
  8
JISSEN
100
AcDbCircle
 10
111.831038438016
 20
167.528590960895
 30
0.0
 40
1.3
100
AcDbArc
 50
294.825405
 51
353.8576429999998
  0
ARC
  5
EF7C88A1F
330
EF7C85532
100
AcDbEntity
  8
JISSEN
100
AcDbCircle
 10
112.2586144380159
 20
167.595579960895
 30
0.0
 40
1.399999999999999
100
AcDbArc
 50
294.825405
 51
353.8576429999998
  0
ARC
  5
EF7C88A20
330
EF7C85532
100
AcDbEntity
  8
JISSEN
100
AcDbCircle
 10
110.8859824380159
 20
165.6039519608951
 30
0.0
 40
0.05
100
AcDbArc
 50
114.825405
 51
270.0
  0
LINE
  5
EF7C88A21
330
EF7C85532
100
AcDbEntity
  8
JISSEN
100
AcDbLine
 10
110.9596574380159
 20
165.553951960895
 30
0.0
 11
110.8859824380159
 21
165.553951960895
 31
0.0
  0
ARC
  5
EF7C88A22
330
EF7C85532
100
AcDbEntity
  8
JISSEN
100
AcDbCircle
 10
110.9596574380159
 20
166.553951960895
 30
0.0
 40
1.0
100
AcDbArc
 50
270.0
 51
294.825405
  0
ARC
  5
EF7C88A23
330
EF7C85532
100
AcDbEntity
  8
JISSEN
100
AcDbCircle
 10
110.153326438016
 20
167.458441960895
 30
0.0
 40
1.3
100
AcDbArc
 50
297.7467379999998
 51
354.5938149999996
  0
LINE
  5
EF7C88A24
330
EF7C85532
100
AcDbEntity
  8
JISSEN
100
AcDbLine
 10
112.8464104380159
 20
166.3249519608951
 30
0.0
 11
111.379512438016
 21
165.646359960895
 31
0.0
  0
LINE
  5
EF7C88A25
330
EF7C85532
100
AcDbEntity
  8
JISSEN
100
AcDbLine
 10
110.8649904380158
 20
165.6493309608951
 30
0.0
 11
112.376849438016
 21
166.348721960895
 31
0.0
  0
ARC
  5
EF7C88A26
330
EF7C85532
100
AcDbEntity
  8
JISSEN
100
AcDbCircle
 10
113.8549314380159
 20
173.250829960895
 30
0.0
 40
0.1
100
AcDbArc
 50
92.7179019999998
 51
173.8576429999999
  0
ARC
  5
EF7C88A27
330
EF7C85532
100
AcDbEntity
  8
JISSEN
100
AcDbCircle
 10
110.7115974380159
 20
173.128593960895
 30
0.0
 40
0.2
100
AcDbArc
 50
354.9610729999998
 51
90.0
  0
ARC
  5
EF7C88A28
330
EF7C85532
100
AcDbEntity
  8
JISSEN
100
AcDbCircle
 10
111.575024438016
 20
172.928593960895
 30
0.0
 40
0.4
100
AcDbArc
 50
354.5938149999996
 51
90.0
  0
LINE
  5
EF7C88A29
330
EF7C85532
100
AcDbEntity
  8
JISSEN
100
AcDbLine
 10
110.6731774380159
 20
173.3285939608951
 30
0.0
 11
111.575024438016
 21
173.3285939608951
 31
0.0
  0
ARC
  5
EF7C88A2A
330
EF7C85532
100
AcDbEntity
  8
JISSEN
100
AcDbCircle
 10
110.6731774380159
 20
173.128593960895
 30
0.0
 40
0.2
100
AcDbArc
 50
90.0
 51
174.7984409999996
  0
ARC
  5
EF7C88A2B
330
EF7C85532
100
AcDbEntity
  8
JISSEN
100
AcDbCircle
 10
113.8407044380159
 20
172.950829960895
 30
0.0
 40
0.4
100
AcDbArc
 50
353.8576429999998
 51
88.64114500000017
  0
LINE
  5
EF7C88A2C
330
EF7C85532
100
AcDbEntity
  8
JISSEN
100
AcDbLine
 10
116.5000834380159
 20
183.178593960895
 30
0.0
 11
116.5000834380159
 21
175.828593960895
 31
0.0
  0
LINE
  5
EF7C88A2D
330
EF7C85532
100
AcDbEntity
  8
JISSEN
100
AcDbLine
 10
115.5000834380159
 20
174.828593960895
 30
0.0
 11
114.6000834380159
 21
174.828593960895
 31
0.0
  0
LINE
  5
EF7C88A2E
330
EF7C85532
100
AcDbEntity
  8
JISSEN
100
AcDbLine
 10
116.5000834380159
 20
175.828593960895
 30
0.0
 11
115.5000834380159
 21
174.828593960895
 31
0.0
  0
LINE
  5
EF7C88A2F
330
EF7C85532
100
AcDbEntity
  8
JISSEN
100
AcDbLine
 10
116.5000834380159
 20
183.178593960895
 30
0.0
 11
116.3500834380158
 21
183.328593960895
 31
0.0
  0
LINE
  5
EF7C88A30
330
EF7C85532
100
AcDbEntity
  8
JISSEN
100
AcDbLine
 10
99.00008343801609
 20
201.3285939608988
 30
0.0
 11
90.00008343801608
 21
201.3285939608986
 31
0.0
  0
LINE
  5
EF7C88A31
330
EF7C85532
100
AcDbEntity
  8
JISSEN
100
AcDbLine
 10
100.2620074380158
 20
200.0666689608987
 30
0.0
 11
90.00008343801608
 21
200.0666689608987
 31
0.0
  0
LINE
  5
EF7C88A32
330
EF7C85532
100
AcDbEntity
  8
JISSEN
100
AcDbLine
 10
79.73815943801604
 20
200.0666689608987
 30
0.0
 11
90.00008343801608
 21
200.0666689608987
 31
0.0
  0
LINE
  5
EF7C88A33
330
EF7C85532
100
AcDbEntity
  8
JISSEN
100
AcDbLine
 10
81.00008343801608
 20
201.3285939608988
 30
0.0
 11
90.00008343801608
 21
201.3285939608986
 31
0.0
  0
LINE
  5
EF7C88A34
330
EF7C85532
100
AcDbEntity
  8
JISSEN
100
AcDbLine
 10
79.73815943801604
 20
200.0666689608987
 30
0.0
 11
81.00008343801608
 21
201.3285939608988
 31
0.0
  0
LINE
  5
EF7C88A35
330
EF7C85532
100
AcDbEntity
  8
JISSEN
100
AcDbLine
 10
100.2620074380158
 20
200.0666689608987
 30
0.0
 11
99.00008343801609
 21
201.3285939608988
 31
0.0
  0
LWPOLYLINE
  5
EF7C88A36
102
{ACAD_REACTORS
330
EF7C88940
102
}
330
EF7C85532
100
AcDbEntity
  8
HATCH
100
AcDbPolyline
 90
       13
 70
     0
 43
0.0
 10
158.7336689891253
 20
188.3285939608951
 10
158.5690818108755
 20
187.508956882663
 10
158.4271764541952
 20
186.9923389058988
 10
158.1994678170473
 20
186.573912619211
 10
157.891580330388
 20
186.235795595544
 10
157.5253570414085
 20
185.9455445228938
 10
157.1226409972998
 20
185.6707160892565
 10
156.7052752452529
 20
185.3788669826275
 10
156.295102832459
 20
185.0375538910027
 10
155.9139668061094
 20
184.6143335023784
 10
155.5837102133949
 20
184.07676250475
 10
155.3091301501921
 20
183.4131437174626
 10
155.2759059556955
 20
183.328593960895
  0
LWPOLYLINE
  5
EF7C88A48
330
EF7C85532
100
AcDbEntity
  8
NITEN
100
AcDbPolyline
 90
        5
 70
     0
 43
0.0
 10
107.0
 20
231.4391428666225
 10
107.0
 20
252.2768605177684
 42
-0.5882352941176476
 10
90.0
 20
252.2768605177684
 42
0.5882352941176477
 10
73.0
 20
252.276860517768
 10
73.0
 20
231.4391428666225
  0
LWPOLYLINE
  5
EF7C88A49
330
EF7C85532
100
AcDbEntity
  8
NITEN
100
AcDbPolyline
 90
        2
 70
     0
 43
0.0
 10
107.0
 20
252.2768605177684
 42
0.5882352941176295
 10
90.0
 20
252.2768605177686
 42
0.5882352941176295
  0
INSERT
  5
EF7C88A5B
330
EF7C85532
100
AcDbEntity
  8
WAKU
100
AcDbBlockReference
  2
WAKU
 10
0.0
 20
0.0
 30
0.0
 41
181.0
 42
283.0
 43
181.0
  0
LINE
  5
EF7C89607
330
EF7C85532
100
AcDbEntity
  8
TEXT
100
AcDbLine
 10
91.95373908046244
 20
84.91610832943875
 30
0.0
 11
93.07839081464438
 21
85.57857882866734
 31
0.0
  0
LINE
  5
EF7C89608
330
EF7C85532
100
AcDbEntity
  8
TEXT
100
AcDbLine
 10
92.71504662490348
 20
83.62366458877646
 30
0.0
 11
93.83969835908542
 21
84.28613508800506
 31
0.0
  0
LINE
  5
EF7C89609
330
EF7C85532
100
AcDbEntity
  8
TEXT
100
AcDbLine
 10
92.51606494755341
 20
85.24734357905305
 30
0.0
 11
93.27737249199447
 21
83.95489983839075
 31
0.0
  0
LINE
  5
EF7C8960C
330
EF7C85532
100
AcDbEntity
  8
TEXT
100
AcDbLine
 10
92.86071661173002
 20
85.45035892423733
 30
0.0
 11
93.62202415617108
 21
84.15791518357504
 31
0.0
  0
LINE
  5
EF7C8960D
330
EF7C85532
100
AcDbEntity
  8
TEXT
100
AcDbLine
 10
92.1714132833768
 20
85.04432823386876
 30
0.0
 11
92.93272082781786
 21
83.75188449320647
 31
0.0
  0
TEXT
  5
EF7C89612
330
EF7C85532
100
AcDbEntity
  8
TEXT
100
AcDbText
 10
92.61824018910635
 20
95.49924615818129
 30
0.0
 40
1.5
  1
E
 50
163.2299999999999
  7
K
100
AcDbText
  0
TEXT
  5
EF7C89613
330
EF7C85532
100
AcDbEntity
  8
TEXT
100
AcDbText
 10
87.05405578020535
 20
95.34594180870987
 30
0.0
 40
1.5
  1
U
 50
213.77
  7
K
100
AcDbText
  0
TEXT
  5
EF7C89614
330
EF7C85532
100
AcDbEntity
  8
TEXT
100
AcDbText
 10
88.47617891891763
 20
95.82899530793072
 30
0.0
 40
1.5
  1
J
 50
196.77
  7
K
100
AcDbText
  0
TEXT
  5
EF7C89615
330
EF7C85532
100
AcDbEntity
  8
TEXT
100
AcDbText
 10
90.75527700868249
 20
96.00339674166923
 30
0.0
 40
1.5
  1
N
 50
180.2299999999999
  7
K
100
AcDbText
  0
TEXT
  5
EF7C89616
330
EF7C85532
100
AcDbEntity
  8
TEXT
100
AcDbText
 10
94.19296535511703
 20
94.51220425659647
 30
0.0
 40
1.5
  1
S
 50
146.2330068280615
  7
K
100
AcDbText
  0
TEXT
  5
EF7C89617
330
EF7C85532
100
AcDbEntity
  8
TEXT
100
AcDbText
 10
90.77737050343674
 20
83.03835016403784
 30
0.0
 40
1.5
  1
R
 50
13.99999999999999
  7
K
100
AcDbText
  0
TEXT
  5
EF7C89618
330
EF7C85532
100
AcDbEntity
  8
TEXT
100
AcDbText
 10
87.643220319923
 20
83.42876453159403
 30
0.0
 40
1.5
  1
F
 50
345.9999999999999
  7
K
100
AcDbText
  0
TEXT
  5
EF7C89619
330
EF7C85532
100
AcDbEntity
  8
TEXT
100
AcDbText
 10
89.14481773158646
 20
83.05496706737329
 30
0.0
 40
1.5
  1
Q
 50
358.9999999999999
  7
K
100
AcDbText
  0
TEXT
  5
EF7C8961A
330
EF7C85532
100
AcDbEntity
  8
TEXT
100
AcDbText
 10
86.14709010715598
 20
84.24450274611487
 30
0.0
 40
1.5
  1
M
 50
330.9999999999999
  7
K
100
AcDbText
  0
LINE
  5
EF7C8961B
330
EF7C85532
100
AcDbEntity
  8
TEXT
100
AcDbLine
 10
295.918829287121
 20
275.6422245102613
 30
0.0
 11
295.918829287121
 21
272.6422245102613
 31
0.0
  0
LINE
  5
EF7C8961C
330
EF7C85532
100
AcDbEntity
  8
TEXT
100
AcDbLine
 10
295.368829287121
 20
275.6422245102613
 30
0.0
 11
295.368829287121
 21
272.6422245102613
 31
0.0
  0
LINE
  5
EF7C8961D
330
EF7C85532
100
AcDbEntity
  8
TEXT
100
AcDbLine
 10
296.468829287121
 20
275.6422245102613
 30
0.0
 11
296.468829287121
 21
272.6422245102613
 31
0.0
  0
LINE
  5
EF7C8961E
330
EF7C85532
100
AcDbEntity
  8
TEXT
100
AcDbLine
 10
477.4688287985704
 20
275.6422245102613
 30
0.0
 11
477.4688287985704
 21
272.6422245102613
 31
0.0
  0
LINE
  5
EF7C8961F
330
EF7C85532
100
AcDbEntity
  8
TEXT
100
AcDbLine
 10
476.3688287985704
 20
275.6422245102613
 30
0.0
 11
476.3688287985704
 21
272.6422245102613
 31
0.0
  0
LINE
  5
EF7C89620
330
EF7C85532
100
AcDbEntity
  8
TEXT
100
AcDbLine
 10
476.9188287985705
 20
275.6422245102613
 30
0.0
 11
476.9188287985705
 21
272.6422245102613
 31
0.0
  0
LINE
  5
EF7C89621
330
EF7C85532
100
AcDbEntity
  8
TEXT
100
AcDbLine
 10
476.0188287985705
 20
272.6422245102613
 30
0.0
 11
477.8188287985703
 21
272.6422245102613
 31
0.0
  0
LINE
  5
EF7C89622
330
EF7C85532
100
AcDbEntity
  8
TEXT
100
AcDbLine
 10
476.0188287985705
 20
275.6422245102613
 30
0.0
 11
477.8188287985703
 21
275.6422245102613
 31
0.0
  0
LINE
  5
EF7C89623
330
EF7C85532
100
AcDbEntity
  8
TEXT
100
AcDbLine
 10
337.8782045999136
 20
152.3495932541832
 30
0.0
 11
340.0782045999135
 21
152.3495932541832
 31
0.0
  0
LINE
  5
EF7C89624
330
EF7C85532
100
AcDbEntity
  8
TEXT
100
AcDbLine
 10
337.8782045999136
 20
149.3495932541832
 30
0.0
 11
340.0782045999135
 21
149.3495932541832
 31
0.0
  0
LINE
  5
EF7C89625
330
EF7C85532
100
AcDbEntity
  8
TEXT
100
AcDbLine
 10
338.9782045999136
 20
152.3495932541832
 30
0.0
 11
338.9782045999136
 21
149.3495932541832
 31
0.0
  0
LINE
  5
EF7C89626
330
EF7C85532
100
AcDbEntity
  8
TEXT
100
AcDbLine
 10
338.4282045999135
 20
152.3495932541832
 30
0.0
 11
338.4282045999135
 21
149.3495932541832
 31
0.0
  0
LINE
  5
EF7C89627
330
EF7C85532
100
AcDbEntity
  8
TEXT
100
AcDbLine
 10
339.5282045999135
 20
152.3495932541832
 30
0.0
 11
339.5282045999135
 21
149.3495932541832
 31
0.0
  0
LINE
  5
EF7C89628
330
EF7C85532
100
AcDbEntity
  8
TEXT
100
AcDbLine
 10
518.8782043468122
 20
152.3495932541832
 30
0.0
 11
521.0782043468121
 21
152.3495932541832
 31
0.0
  0
LINE
  5
EF7C89629
330
EF7C85532
100
AcDbEntity
  8
TEXT
100
AcDbLine
 10
518.8782043468122
 20
149.3495932541832
 30
0.0
 11
521.0782043468121
 21
149.3495932541832
 31
0.0
  0
LINE
  5
EF7C8962A
330
EF7C85532
100
AcDbEntity
  8
TEXT
100
AcDbLine
 10
519.9782043468123
 20
152.3495932541832
 30
0.0
 11
519.9782043468123
 21
149.3495932541832
 31
0.0
  0
LINE
  5
EF7C8962B
330
EF7C85532
100
AcDbEntity
  8
TEXT
100
AcDbLine
 10
519.4282043468121
 20
152.3495932541832
 30
0.0
 11
519.4282043468121
 21
149.3495932541832
 31
0.0
  0
LINE
  5
EF7C8962C
330
EF7C85532
100
AcDbEntity
  8
TEXT
100
AcDbLine
 10
520.5282043468122
 20
152.3495932541832
 30
0.0
 11
520.5282043468122
 21
149.3495932541832
 31
0.0
  0
LINE
  5
EF7C8962D
330
EF7C85532
100
AcDbEntity
  8
TEXT
100
AcDbLine
 10
511.4566844676167
 20
6.664236094217557
 30
0.0
 11
513.6566844676165
 21
6.664236094217557
 31
0.0
  0
LINE
  5
EF7C8962E
330
EF7C85532
100
AcDbEntity
  8
TEXT
100
AcDbLine
 10
511.4566844676167
 20
9.664236094217557
 30
0.0
 11
513.6566844676165
 21
9.664236094217557
 31
0.0
  0
LINE
  5
EF7C8962F
330
EF7C85532
100
AcDbEntity
  8
TEXT
100
AcDbLine
 10
513.1066844676166
 20
9.664236094217557
 30
0.0
 11
513.1066844676166
 21
6.664236094217557
 31
0.0
  0
LINE
  5
EF7C89630
330
EF7C85532
100
AcDbEntity
  8
TEXT
100
AcDbLine
 10
512.0066844676166
 20
9.664236094217557
 30
0.0
 11
512.0066844676166
 21
6.664236094217557
 31
0.0
  0
LINE
  5
EF7C89631
330
EF7C85532
100
AcDbEntity
  8
TEXT
100
AcDbLine
 10
512.5566844676166
 20
9.664236094217557
 30
0.0
 11
512.5566844676166
 21
6.664236094217557
 31
0.0
  0
LINE
  5
EF7C89632
330
EF7C85532
100
AcDbEntity
  8
TEXT
100
AcDbLine
 10
330.4566847207179
 20
9.664236094217557
 30
0.0
 11
332.6566847207179
 21
9.664236094217557
 31
0.0
  0
LINE
  5
EF7C89633
330
EF7C85532
100
AcDbEntity
  8
TEXT
100
AcDbLine
 10
330.4566847207179
 20
6.664236094217557
 30
0.0
 11
332.6566847207179
 21
6.664236094217557
 31
0.0
  0
LINE
  5
EF7C89634
330
EF7C85532
100
AcDbEntity
  8
TEXT
100
AcDbLine
 10
331.5566847207179
 20
9.664236094217557
 30
0.0
 11
331.5566847207179
 21
6.664236094217557
 31
0.0
  0
LINE
  5
EF7C89635
330
EF7C85532
100
AcDbEntity
  8
TEXT
100
AcDbLine
 10
331.0066847207179
 20
9.664236094217557
 30
0.0
 11
331.0066847207179
 21
6.664236094217557
 31
0.0
  0
LINE
  5
EF7C89636
330
EF7C85532
100
AcDbEntity
  8
TEXT
100
AcDbLine
 10
332.1066847207179
 20
9.664236094217557
 30
0.0
 11
332.1066847207179
 21
6.664236094217557
 31
0.0
  0
LINE
  5
EF7C89638
330
EF7C85532
100
AcDbEntity
  8
JISSEN
100
AcDbLine
 10
280.000082714016
 20
71.8285939608989
 30
0.0
 11
271.000082714016
 21
71.82859396089878
 31
0.0
  0
LINE
  5
EF7C89639
330
EF7C85532
100
AcDbEntity
  8
JISSEN
100
AcDbLine
 10
281.262006714016
 20
70.56666896089879
 30
0.0
 11
271.000082714016
 21
70.56666896089879
 31
0.0
  0
LINE
  5
EF7C8963A
330
EF7C85532
100
AcDbEntity
  8
JISSEN
100
AcDbLine
 10
260.7381587140161
 20
70.56666896089883
 30
0.0
 11
260.2445844353808
 21
54.77309560556822
 31
0.0
  0
LINE
  5
EF7C8963B
330
EF7C85532
100
AcDbEntity
  8
SAISEN
100
AcDbLine
 10
261.540849714016
 20
56.06936096089516
 30
0.0
 11
262.0333495607493
 21
71.82859396089878
 31
0.0
  0
LINE
  5
EF7C8963C
330
EF7C85532
100
AcDbEntity
  8
JISSEN
100
AcDbLine
 10
260.7381587140161
 20
70.56666896089879
 30
0.0
 11
262.000082714016
 21
71.8285939608989
 31
0.0
  0
LINE
  5
EF7C8963D
330
EF7C85532
100
AcDbEntity
  8
JISSEN
100
AcDbLine
 10
260.7381587140161
 20
70.56666896089879
 30
0.0
 11
271.000082714016
 21
70.56666896089879
 31
0.0
  0
LINE
  5
EF7C8963E
330
EF7C85532
100
AcDbEntity
  8
JISSEN
100
AcDbLine
 10
262.000082714016
 20
71.8285939608989
 30
0.0
 11
271.000082714016
 21
71.82859396089878
 31
0.0
  0
LINE
  5
EF7C8963F
330
EF7C85532
100
AcDbEntity
  8
JISSEN
100
AcDbLine
 10
281.262006714016
 20
70.56666896089879
 30
0.0
 11
281.7555809926511
 21
54.77309560556818
 31
0.0
  0
LINE
  5
EF7C89640
330
EF7C85532
100
AcDbEntity
  8
SAISEN
100
AcDbLine
 10
280.459315714016
 20
56.06936096089516
 30
0.0
 11
279.9668158672826
 21
71.82859396089878
 31
0.0
  0
LINE
  5
EF7C89641
330
EF7C85532
100
AcDbEntity
  8
JISSEN
100
AcDbLine
 10
281.262006714016
 20
70.56666896089879
 30
0.0
 11
280.000082714016
 21
71.8285939608989
 31
0.0
  0
LINE
  5
EF7C89642
330
EF7C85532
100
AcDbEntity
  8
JISSEN
100
AcDbLine
 10
271.000082714016
 20
56.06936096089516
 30
0.0
 11
281.7150706392763
 21
56.06936096089516
 31
0.0
  0
LINE
  5
EF7C89643
330
EF7C85532
100
AcDbEntity
  8
JISSEN
100
AcDbLine
 10
271.000082714016
 20
56.06936096089516
 30
0.0
 11
260.2850947887556
 21
56.06936096089516
 31
0.0
  0
LINE
  5
EF7C89644
330
EF7C85532
100
AcDbEntity
  8
SAISEN
100
AcDbLine
 10
260.3413637140159
 20
54.86987496089517
 30
0.0
 11
261.540849714016
 21
56.06936096089516
 31
0.0
  0
LINE
  5
EF7C89645
330
EF7C85532
100
AcDbEntity
  8
JISSEN
100
AcDbLine
 10
259.300082714016
 20
53.82859396089518
 30
0.0
 11
260.3413637140159
 21
54.86987496089517
 31
0.0
  0
LINE
  5
EF7C89646
330
EF7C85532
100
AcDbEntity
  8
JISSEN
100
AcDbLine
 10
282.7000827140159
 20
53.82859396089518
 30
0.0
 11
281.658801714016
 21
54.86987496089517
 31
0.0
  0
LINE
  5
EF7C89647
330
EF7C85532
100
AcDbEntity
  8
SAISEN
100
AcDbLine
 10
281.658801714016
 20
54.86987496089517
 30
0.0
 11
280.459315714016
 21
56.06936096089516
 31
0.0
  0
LINE
  5
EF7C89648
330
EF7C85532
100
AcDbEntity
  8
JISSEN
100
AcDbLine
 10
452.0000822254654
 20
185.569360960895
 30
0.0
 11
462.7150701507257
 21
185.569360960895
 31
0.0
  0
LINE
  5
EF7C89649
330
EF7C85532
100
AcDbEntity
  8
JISSEN
100
AcDbLine
 10
461.0000822254654
 20
201.3285939608988
 30
0.0
 11
452.0000822254654
 21
201.3285939608986
 31
0.0
  0
LINE
  5
EF7C8964A
330
EF7C85532
100
AcDbEntity
  8
JISSEN
100
AcDbLine
 10
462.2620062254653
 20
200.0666689608987
 30
0.0
 11
452.0000822254654
 21
200.0666689608987
 31
0.0
  0
LINE
  5
EF7C8964B
330
EF7C85532
100
AcDbEntity
  8
JISSEN
100
AcDbLine
 10
441.7381582254654
 20
200.0666689608987
 30
0.0
 11
441.2445839468302
 21
184.2730956055681
 31
0.0
  0
LINE
  5
EF7C8964C
330
EF7C85532
100
AcDbEntity
  8
SAISEN
100
AcDbLine
 10
442.5408492254653
 20
185.569360960895
 30
0.0
 11
443.0333490721986
 21
201.3285939608986
 31
0.0
  0
LINE
  5
EF7C8964D
330
EF7C85532
100
AcDbEntity
  8
JISSEN
100
AcDbLine
 10
452.0000822254654
 20
185.569360960895
 30
0.0
 11
441.285094300205
 21
185.569360960895
 31
0.0
  0
LINE
  5
EF7C8964E
330
EF7C85532
100
AcDbEntity
  8
SAISEN
100
AcDbLine
 10
441.3413632254653
 20
184.369874960895
 30
0.0
 11
442.5408492254653
 21
185.569360960895
 31
0.0
  0
LINE
  5
EF7C8964F
330
EF7C85532
100
AcDbEntity
  8
JISSEN
100
AcDbLine
 10
441.7381582254654
 20
200.0666689608987
 30
0.0
 11
443.0000822254654
 21
201.3285939608988
 31
0.0
  0
LINE
  5
EF7C89650
330
EF7C85532
100
AcDbEntity
  8
JISSEN
100
AcDbLine
 10
441.7381582254654
 20
200.0666689608987
 30
0.0
 11
452.0000822254654
 21
200.0666689608987
 31
0.0
  0
LINE
  5
EF7C89651
330
EF7C85532
100
AcDbEntity
  8
JISSEN
100
AcDbLine
 10
443.0000822254654
 20
201.3285939608988
 30
0.0
 11
452.0000822254654
 21
201.3285939608986
 31
0.0
  0
LINE
  5
EF7C89652
330
EF7C85532
100
AcDbEntity
  8
JISSEN
100
AcDbLine
 10
462.2620062254653
 20
200.0666689608987
 30
0.0
 11
462.7555805041005
 21
184.2730956055681
 31
0.0
  0
LINE
  5
EF7C89653
330
EF7C85532
100
AcDbEntity
  8
SAISEN
100
AcDbLine
 10
461.4593152254653
 20
185.569360960895
 30
0.0
 11
460.9668153787319
 21
201.3285939608986
 31
0.0
  0
LINE
  5
EF7C89654
330
EF7C85532
100
AcDbEntity
  8
JISSEN
100
AcDbLine
 10
463.7000822254653
 20
183.328593960895
 30
0.0
 11
462.6588012254654
 21
184.369874960895
 31
0.0
  0
LINE
  5
EF7C89655
330
EF7C85532
100
AcDbEntity
  8
SAISEN
100
AcDbLine
 10
462.6588012254654
 20
184.369874960895
 30
0.0
 11
461.4593152254653
 21
185.569360960895
 31
0.0
  0
LINE
  5
EF7C89656
330
EF7C85532
100
AcDbEntity
  8
JISSEN
100
AcDbLine
 10
462.2620062254653
 20
200.0666689608987
 30
0.0
 11
461.0000822254654
 21
201.3285939608988
 31
0.0
  0
LINE
  5
EF7C89657
330
EF7C85532
100
AcDbEntity
  8
JISSEN
100
AcDbLine
 10
440.3000822254653
 20
183.328593960895
 30
0.0
 11
441.3413632254653
 21
184.369874960895
 31
0.0
  0
LINE
  5
EF7C89658
330
EF7C85532
100
AcDbEntity
  8
JISSEN
100
AcDbLine
 10
452.0000822254654
 20
56.06936096089516
 30
0.0
 11
462.7150701507257
 21
56.06936096089516
 31
0.0
  0
LINE
  5
EF7C89659
330
EF7C85532
100
AcDbEntity
  8
JISSEN
100
AcDbLine
 10
462.2620062254653
 20
70.56666896089879
 30
0.0
 11
452.0000822254654
 21
70.56666896089879
 31
0.0
  0
LINE
  5
EF7C8965A
330
EF7C85532
100
AcDbEntity
  8
JISSEN
100
AcDbLine
 10
461.0000822254654
 20
71.8285939608989
 30
0.0
 11
452.0000822254654
 21
71.82859396089878
 31
0.0
  0
LINE
  5
EF7C8965B
330
EF7C85532
100
AcDbEntity
  8
SAISEN
100
AcDbLine
 10
442.5408492254653
 20
56.06936096089516
 30
0.0
 11
443.0333490721986
 21
71.82859396089878
 31
0.0
  0
LINE
  5
EF7C8965C
330
EF7C85532
100
AcDbEntity
  8
JISSEN
100
AcDbLine
 10
441.7381582254654
 20
70.56666896089883
 30
0.0
 11
441.2445839468302
 21
54.77309560556822
 31
0.0
  0
LINE
  5
EF7C8965D
330
EF7C85532
100
AcDbEntity
  8
SAISEN
100
AcDbLine
 10
441.3413632254653
 20
54.86987496089517
 30
0.0
 11
442.5408492254653
 21
56.06936096089516
 31
0.0
  0
LINE
  5
EF7C8965E
330
EF7C85532
100
AcDbEntity
  8
JISSEN
100
AcDbLine
 10
452.0000822254654
 20
56.06936096089516
 30
0.0
 11
441.285094300205
 21
56.06936096089516
 31
0.0
  0
LINE
  5
EF7C8965F
330
EF7C85532
100
AcDbEntity
  8
JISSEN
100
AcDbLine
 10
440.3000822254653
 20
53.82859396089518
 30
0.0
 11
441.3413632254653
 21
54.86987496089517
 31
0.0
  0
LINE
  5
EF7C89660
330
EF7C85532
100
AcDbEntity
  8
JISSEN
100
AcDbLine
 10
441.7381582254654
 20
70.56666896089879
 30
0.0
 11
452.0000822254654
 21
70.56666896089879
 31
0.0
  0
LINE
  5
EF7C89661
330
EF7C85532
100
AcDbEntity
  8
JISSEN
100
AcDbLine
 10
441.7381582254654
 20
70.56666896089879
 30
0.0
 11
443.0000822254654
 21
71.8285939608989
 31
0.0
  0
LINE
  5
EF7C89662
330
EF7C85532
100
AcDbEntity
  8
JISSEN
100
AcDbLine
 10
443.0000822254654
 20
71.8285939608989
 30
0.0
 11
452.0000822254654
 21
71.82859396089878
 31
0.0
  0
LINE
  5
EF7C89663
330
EF7C85532
100
AcDbEntity
  8
SAISEN
100
AcDbLine
 10
461.4593152254653
 20
56.06936096089516
 30
0.0
 11
460.9668153787319
 21
71.82859396089878
 31
0.0
  0
LINE
  5
EF7C89664
330
EF7C85532
100
AcDbEntity
  8
JISSEN
100
AcDbLine
 10
462.2620062254653
 20
70.56666896089879
 30
0.0
 11
462.7555805041005
 21
54.77309560556818
 31
0.0
  0
LINE
  5
EF7C89665
330
EF7C85532
100
AcDbEntity
  8
JISSEN
100
AcDbLine
 10
463.7000822254653
 20
53.82859396089518
 30
0.0
 11
462.6588012254654
 21
54.86987496089517
 31
0.0
  0
LINE
  5
EF7C89666
330
EF7C85532
100
AcDbEntity
  8
SAISEN
100
AcDbLine
 10
462.6588012254654
 20
54.86987496089517
 30
0.0
 11
461.4593152254653
 21
56.06936096089516
 31
0.0
  0
LINE
  5
EF7C89667
330
EF7C85532
100
AcDbEntity
  8
JISSEN
100
AcDbLine
 10
462.2620062254653
 20
70.56666896089879
 30
0.0
 11
461.0000822254654
 21
71.8285939608989
 31
0.0
  0
ENDSEC
  0
SECTION
  2
OBJECTS
  0
DICTIONARY
  5
EF7C85527
330
0
100
AcDbDictionary
  3
ACAD_GROUP
350
EF7C85528
  3
ACAD_LAYOUT
350
EF7C85BB7
  3
ACAD_MLINESTYLE
350
EF7C85535
  3
ACAD_PLOTSETTINGS
350
EF7C85BB8
  3
ACAD_PLOTSTYLENAME
350
EF7C85BB5
  3
ACDBHEADERROUNDTRIPXREC
350
EF7C8966A
  3
ACDBVARIABLEDICTIONARY
350
EF7C85DB7
  0
DICTIONARY
  5
EF7C88ACB
330
EF7C8551D
100
AcDbDictionary
280
     1
  3
ACAD_LAYERSTATES
360
EF7C88ACC
  0
DICTIONARY
  5
EF7C85D9A
330
EF7C85532
100
AcDbDictionary
280
     1
  3
ACAD_LAYOUTSELFREF
360
EF7C8968C
  0
DICTIONARY
  5
EF7C85D98
330
EF7C8552F
100
AcDbDictionary
280
     1
  3
ACAD_LAYOUTSELFREF
360
EF7C8968B
  0
DICTIONARY
  5
EF7C85528
102
{ACAD_REACTORS
330
EF7C85527
102
}
330
EF7C85527
100
AcDbDictionary
  0
DICTIONARY
  5
EF7C85BB7
102
{ACAD_REACTORS
330
EF7C85527
102
}
330
EF7C85527
100
AcDbDictionary
  0
DICTIONARY
  5
EF7C85535
102
{ACAD_REACTORS
330
EF7C85527
102
}
330
EF7C85527
100
AcDbDictionary
  3
STANDARD
350
EF7C85536
  0
DICTIONARY
  5
EF7C85BB8
102
{ACAD_REACTORS
330
EF7C85527
102
}
330
EF7C85527
100
AcDbDictionary
  0
ACDBDICTIONARYWDFLT
  5
EF7C85BB5
102
{ACAD_REACTORS
330
EF7C85527
102
}
330
EF7C85527
100
AcDbDictionary
281
     1
  3
Normal
350
EF7C85BB6
100
AcDbDictionaryWithDefault
340
EF7C85BB6
  0
DICTIONARY
  5
EF7C8966A
102
{ACAD_REACTORS
330
EF7C85527
102
}
330
EF7C85527
100
AcDbDictionary
  3
CEPSNTYPE
350
EF7C89674
  3
DIMSTYLEDATA
350
EF7C89678
  3
FINGERPRINTGUID
350
EF7C89675
  3
HYPERLINKBASE
350
EF7C8966D
  3
INSUNITS
350
EF7C89673
  3
LAYOUTDICT
350
EF7C8966F
  3
LWETCUNION
350
EF7C89672
  3
PLOTSETDICT
350
EF7C89670
  3
PLOTSTYLNAMDICT
350
EF7C89671
  3
PSVPSCALE
350
EF7C89677
  3
PUCSBASE
350
EF7C8967B
  3
PUCSORGBACK
350
EF7C89681
  3
PUCSORGBOTTOM
350
EF7C8967D
  3
PUCSORGFRONT
350
EF7C89680
  3
PUCSORGLEFT
350
EF7C8967E
  3
PUCSORGRIGHT
350
EF7C8967F
  3
PUCSORGTOP
350
EF7C8967C
  3
PUCSORTHOREF
350
EF7C89679
  3
PUCSORTHOVIEW
350
EF7C8967A
  3
STYLESHEET
350
EF7C8966E
  3
TSTACKALIGN
350
EF7C8966B
  3
TSTACKSIZE
350
EF7C8966C
  3
UCSBASE
350
EF7C89684
  3
UCSORGBACK
350
EF7C8968A
  3
UCSORGBOTTOM
350
EF7C89686
  3
UCSORGFRONT
350
EF7C89689
  3
UCSORGLEFT
350
EF7C89687
  3
UCSORGRIGHT
350
EF7C89688
  3
UCSORGTOP
350
EF7C89685
  3
UCSORTHOREF
350
EF7C89682
  3
UCSORTHOVIEW
350
EF7C89683
  3
VERSIONGUID
350
EF7C89676
  0
DICTIONARY
  5
EF7C85DB7
102
{ACAD_REACTORS
330
EF7C85527
102
}
330
EF7C85527
100
AcDbDictionary
  3
DIMASSOC
350
EF7C88A9E
  3
SORTENTS
350
EF7C85DB8
  0
DICTIONARY
  5
EF7C88ACC
102
{ACAD_REACTORS
330
EF7C88ACB
102
}
330
EF7C88ACB
100
AcDbDictionary
  0
XRECORD
  5
EF7C8968C
102
{ACAD_REACTORS
330
EF7C85D9A
102
}
330
EF7C85D9A
100
AcDbXrecord
340
EF7C85532
  0
XRECORD
  5
EF7C8968B
102
{ACAD_REACTORS
330
EF7C85D98
102
}
330
EF7C85D98
100
AcDbXrecord
340
EF7C8552F
  0
MLINESTYLE
  5
EF7C85536
102
{ACAD_REACTORS
330
EF7C85535
102
}
330
EF7C85535
100
AcDbMlineStyle
  2
STANDARD
 70
     0
  3

 62
   256
 51
90.0
 52
90.0
 71
     2
 49
0.5
 62
   256
  6
BYLAYER
 49
-0.5
 62
   256
  6
BYLAYER
  0
ACDBPLACEHOLDER
  5
EF7C85BB6
102
{ACAD_REACTORS
330
EF7C85BB5
102
}
330
EF7C85BB5
100
AcDbPlaceHolder
280
     0
  0
XRECORD
  5
EF7C89674
102
{ACAD_REACTORS
330
EF7C8966A
102
}
330
EF7C8966A
100
AcDbXrecord
 90
        0
  0
XRECORD
  5
EF7C89678
102
{ACAD_REACTORS
330
EF7C8966A
102
}
330
EF7C8966A
100
AcDbXrecord
1000
DSTYLE
1002
{
1070
   341
340
EF7C85537
1070
   342
340
EF7C85537
1070
   343
340
EF7C85543
1070
   344
340
EF7C85543
1002
}
  0
XRECORD
  5
EF7C89675
102
{ACAD_REACTORS
330
EF7C8966A
102
}
330
EF7C8966A
100
AcDbXrecord
  1
{09AA4C7A-3D6F-4857-A850-771461888CEC}
  0
XRECORD
  5
EF7C8966D
102
{ACAD_REACTORS
330
EF7C8966A
102
}
330
EF7C8966A
100
AcDbXrecord
  1

  0
XRECORD
  5
EF7C89673
102
{ACAD_REACTORS
330
EF7C8966A
102
}
330
EF7C8966A
100
AcDbXrecord
 90
        0
  0
XRECORD
  5
EF7C8966F
102
{ACAD_REACTORS
330
EF7C8966A
102
}
330
EF7C8966A
100
AcDbXrecord
340
EF7C85BB7
  0
XRECORD
  5
EF7C89672
102
{ACAD_REACTORS
330
EF7C8966A
102
}
330
EF7C8966A
100
AcDbXrecord
 90
    14877
  0
XRECORD
  5
EF7C89670
102
{ACAD_REACTORS
330
EF7C8966A
102
}
330
EF7C8966A
100
AcDbXrecord
340
EF7C85BB8
  0
XRECORD
  5
EF7C89671
102
{ACAD_REACTORS
330
EF7C8966A
102
}
330
EF7C8966A
100
AcDbXrecord
340
EF7C85BB5
  0
XRECORD
  5
EF7C89677
102
{ACAD_REACTORS
330
EF7C8966A
102
}
330
EF7C8966A
100
AcDbXrecord
 40
0.0
  0
XRECORD
  5
EF7C8967B
102
{ACAD_REACTORS
330
EF7C8966A
102
}
330
EF7C8966A
100
AcDbXrecord
340
0
  0
XRECORD
  5
EF7C89681
102
{ACAD_REACTORS
330
EF7C8966A
102
}
330
EF7C8966A
100
AcDbXrecord
 10
0.0
 20
0.0
 30
0.0
  0
XRECORD
  5
EF7C8967D
102
{ACAD_REACTORS
330
EF7C8966A
102
}
330
EF7C8966A
100
AcDbXrecord
 10
0.0
 20
0.0
 30
0.0
  0
XRECORD
  5
EF7C89680
102
{ACAD_REACTORS
330
EF7C8966A
102
}
330
EF7C8966A
100
AcDbXrecord
 10
0.0
 20
0.0
 30
0.0
  0
XRECORD
  5
EF7C8967E
102
{ACAD_REACTORS
330
EF7C8966A
102
}
330
EF7C8966A
100
AcDbXrecord
 10
0.0
 20
0.0
 30
0.0
  0
XRECORD
  5
EF7C8967F
102
{ACAD_REACTORS
330
EF7C8966A
102
}
330
EF7C8966A
100
AcDbXrecord
 10
0.0
 20
0.0
 30
0.0
  0
XRECORD
  5
EF7C8967C
102
{ACAD_REACTORS
330
EF7C8966A
102
}
330
EF7C8966A
100
AcDbXrecord
 10
0.0
 20
0.0
 30
0.0
  0
XRECORD
  5
EF7C89679
102
{ACAD_REACTORS
330
EF7C8966A
102
}
330
EF7C8966A
100
AcDbXrecord
340
0
  0
XRECORD
  5
EF7C8967A
102
{ACAD_REACTORS
330
EF7C8966A
102
}
330
EF7C8966A
100
AcDbXrecord
 70
     0
  0
XRECORD
  5
EF7C8966E
102
{ACAD_REACTORS
330
EF7C8966A
102
}
330
EF7C8966A
100
AcDbXrecord
  1

  0
XRECORD
  5
EF7C8966B
102
{ACAD_REACTORS
330
EF7C8966A
102
}
330
EF7C8966A
100
AcDbXrecord
 90
        1
  0
XRECORD
  5
EF7C8966C
102
{ACAD_REACTORS
330
EF7C8966A
102
}
330
EF7C8966A
100
AcDbXrecord
 90
       70
  0
XRECORD
  5
EF7C89684
102
{ACAD_REACTORS
330
EF7C8966A
102
}
330
EF7C8966A
100
AcDbXrecord
340
0
  0
XRECORD
  5
EF7C8968A
102
{ACAD_REACTORS
330
EF7C8966A
102
}
330
EF7C8966A
100
AcDbXrecord
 10
0.0
 20
0.0
 30
0.0
  0
XRECORD
  5
EF7C89686
102
{ACAD_REACTORS
330
EF7C8966A
102
}
330
EF7C8966A
100
AcDbXrecord
 10
0.0
 20
0.0
 30
0.0
  0
XRECORD
  5
EF7C89689
102
{ACAD_REACTORS
330
EF7C8966A
102
}
330
EF7C8966A
100
AcDbXrecord
 10
0.0
 20
0.0
 30
0.0
  0
XRECORD
  5
EF7C89687
102
{ACAD_REACTORS
330
EF7C8966A
102
}
330
EF7C8966A
100
AcDbXrecord
 10
0.0
 20
0.0
 30
0.0
  0
XRECORD
  5
EF7C89688
102
{ACAD_REACTORS
330
EF7C8966A
102
}
330
EF7C8966A
100
AcDbXrecord
 10
0.0
 20
0.0
 30
0.0
  0
XRECORD
  5
EF7C89685
102
{ACAD_REACTORS
330
EF7C8966A
102
}
330
EF7C8966A
100
AcDbXrecord
 10
0.0
 20
0.0
 30
0.0
  0
XRECORD
  5
EF7C89682
102
{ACAD_REACTORS
330
EF7C8966A
102
}
330
EF7C8966A
100
AcDbXrecord
340
0
  0
XRECORD
  5
EF7C89683
102
{ACAD_REACTORS
330
EF7C8966A
102
}
330
EF7C8966A
100
AcDbXrecord
 70
     0
  0
XRECORD
  5
EF7C89676
102
{ACAD_REACTORS
330
EF7C8966A
102
}
330
EF7C8966A
100
AcDbXrecord
  1
{8D42E2B1-EAA4-41A2-898E-79DFC891CDBB}
  0
DICTIONARYVAR
  5
EF7C88A9E
102
{ACAD_REACTORS
330
EF7C85DB7
102
}
330
EF7C85DB7
100
DictionaryVariables
280
     0
  1
0
  0
DICTIONARYVAR
  5
EF7C85DB8
102
{ACAD_REACTORS
330
EF7C85DB7
102
}
330
EF7C85DB7
100
DictionaryVariables
280
     0
  1
96
  0
ENDSEC
  0
EOF
