  0
SECTION
  2
HEADER
  9
$ACADVER
  1
AC1014
  9
$ACADMAINTVER
 70
     9
  9
$DWGCODEPAGE
  3
ANSI_932
  9
$INSBASE
 10
0.0
 20
0.0
 30
0.0
  9
$EXTMIN
 10
-0.03314057257694
 20
-0.0172721585058753
 30
-0.0000000349181948
  9
$EXTMAX
 10
543.0331439287113
 20
283.017274794229
 30
0.0000000814935747
  9
$LIMMIN
 10
0.0
 20
0.0
  9
$LIMMAX
 10
181.0
 20
283.0
  9
$ORTHOMODE
 70
     1
  9
$REGENMODE
 70
     1
  9
$FILLMODE
 70
     1
  9
$QTEXTMODE
 70
     0
  9
$MIRRTEXT
 70
     0
  9
$DRAGMODE
 70
     2
  9
$LTSCALE
 40
5.0
  9
$OSMODE
 70
   167
  9
$ATTMODE
 70
     1
  9
$TEXTSIZE
 40
3.0
  9
$TRACEWID
 40
0.05
  9
$TEXTSTYLE
  7
BIGFONT
  9
$CLAYER
  8
JISSEN
  9
$CELTYPE
  6
BYLAYER
  9
$CECOLOR
 62
   256
  9
$CELTSCALE
 40
1.0
  9
$DELOBJ
 70
     1
  9
$DISPSILH
 70
     0
  9
$DIMSCALE
 40
1.0
  9
$DIMASZ
 40
1.5
  9
$DIMEXO
 40
1.0
  9
$DIMDLI
 40
6.0
  9
$DIMRND
 40
0.0
  9
$DIMDLE
 40
0.0
  9
$DIMEXE
 40
1.0
  9
$DIMTP
 40
0.0
  9
$DIMTM
 40
0.0
  9
$DIMTXT
 40
3.0
  9
$DIMCEN
 40
1.0
  9
$DIMTSZ
 40
0.0
  9
$DIMTOL
 70
     0
  9
$DIMLIM
 70
     0
  9
$DIMTIH
 70
     0
  9
$DIMTOH
 70
     0
  9
$DIMSE1
 70
     0
  9
$DIMSE2
 70
     0
  9
$DIMTAD
 70
     0
  9
$DIMZIN
 70
     8
  9
$DIMBLK
  1
ARROW
  9
$DIMASO
 70
     0
  9
$DIMSHO
 70
     0
  9
$DIMPOST
  1

  9
$DIMAPOST
  1

  9
$DIMALT
 70
     0
  9
$DIMALTD
 70
     2
  9
$DIMALTF
 40
25.4
  9
$DIMLFAC
 40
1.0
  9
$DIMTOFL
 70
     1
  9
$DIMTVP
 40
0.0
  9
$DIMTIX
 70
     0
  9
$DIMSOXD
 70
     0
  9
$DIMSAH
 70
     0
  9
$DIMBLK1
  1
ARROWANG
  9
$DIMBLK2
  1
ARROWANG
  9
$DIMSTYLE
  2
IMAO
  9
$DIMCLRD
 70
     0
  9
$DIMCLRE
 70
     0
  9
$DIMCLRT
 70
     0
  9
$DIMTFAC
 40
1.0
  9
$DIMGAP
 40
0.09
  9
$DIMJUST
 70
     0
  9
$DIMSD1
 70
     0
  9
$DIMSD2
 70
     0
  9
$DIMTOLJ
 70
     1
  9
$DIMTZIN
 70
     8
  9
$DIMALTZ
 70
     8
  9
$DIMALTTZ
 70
     8
  9
$DIMFIT
 70
     3
  9
$DIMUPT
 70
     0
  9
$DIMUNIT
 70
     2
  9
$DIMDEC
 70
     2
  9
$DIMTDEC
 70
     2
  9
$DIMALTU
 70
     2
  9
$DIMALTTD
 70
     2
  9
$DIMTXSTY
  7
BIGFONT
  9
$DIMAUNIT
 70
     0
  9
$LUNITS
 70
     2
  9
$LUPREC
 70
     2
  9
$SKETCHINC
 40
0.1
  9
$FILLETRAD
 40
1.5
  9
$AUNITS
 70
     0
  9
$AUPREC
 70
     2
  9
$MENU
  1
stdr12j
  9
$ELEVATION
 40
0.0
  9
$PELEVATION
 40
0.0
  9
$THICKNESS
 40
0.0
  9
$LIMCHECK
 70
     0
  9
$BLIPMODE
 70
     0
  9
$CHAMFERA
 40
0.0
  9
$CHAMFERB
 40
0.0
  9
$CHAMFERC
 40
0.0
  9
$CHAMFERD
 40
0.0
  9
$SKPOLY
 70
     0
  9
$TDCREATE
 40
2450617.453041203
  9
$TDUPDATE
 40
2453614.499588576
  9
$TDINDWG
 40
0.1876301389
  9
$TDUSRTIMER
 40
0.1876299074
  9
$USRTIMER
 70
     1
  9
$ANGBASE
 50
0.0
  9
$ANGDIR
 70
     0
  9
$PDMODE
 70
     0
  9
$PDSIZE
 40
0.0
  9
$PLINEWID
 40
0.0
  9
$COORDS
 70
     2
  9
$SPLFRAME
 70
     0
  9
$SPLINETYPE
 70
     6
  9
$SPLINESEGS
 70
     8
  9
$ATTDIA
 70
     0
  9
$ATTREQ
 70
     1
  9
$HANDLING
 70
 22529
  9
$HANDSEED
  5
EF7C8A1EF
  9
$SURFTAB1
 70
     6
  9
$SURFTAB2
 70
     6
  9
$SURFTYPE
 70
     6
  9
$SURFU
 70
     6
  9
$SURFV
 70
     6
  9
$UCSNAME
  2

  9
$UCSORG
 10
0.0
 20
0.0
 30
0.0
  9
$UCSXDIR
 10
1.0
 20
0.0
 30
0.0
  9
$UCSYDIR
 10
0.0
 20
1.0
 30
0.0
  9
$PUCSNAME
  2

  9
$PUCSORG
 10
0.0
 20
0.0
 30
0.0
  9
$PUCSXDIR
 10
1.0
 20
0.0
 30
0.0
  9
$PUCSYDIR
 10
0.0
 20
1.0
 30
0.0
  9
$USERI1
 70
     0
  9
$USERI2
 70
     1
  9
$USERI3
 70
     1
  9
$USERI4
 70
     3
  9
$USERI5
 70
     0
  9
$USERR1
 40
1.0
  9
$USERR2
 40
3.0
  9
$USERR3
 40
3.0
  9
$USERR4
 40
1.5
  9
$USERR5
 40
8.0
  9
$WORLDVIEW
 70
     1
  9
$SHADEDGE
 70
     3
  9
$SHADEDIF
 70
    70
  9
$TILEMODE
 70
     1
  9
$MAXACTVP
 70
    16
  9
$PINSBASE
 10
0.0
 20
0.0
 30
0.0
  9
$PLIMCHECK
 70
     0
  9
$PEXTMIN
 10
1.000000000000000E+20
 20
1.000000000000000E+20
 30
1.000000000000000E+20
  9
$PEXTMAX
 10
-1.000000000000000E+20
 20
-1.000000000000000E+20
 30
-1.000000000000000E+20
  9
$PLIMMIN
 10
0.0
 20
0.0
  9
$PLIMMAX
 10
12.0
 20
9.0
  9
$UNITMODE
 70
     0
  9
$VISRETAIN
 70
     0
  9
$PLINEGEN
 70
     0
  9
$PSLTSCALE
 70
     0
  9
$TREEDEPTH
 70
  3020
  9
$PICKSTYLE
 70
     1
  9
$CMLSTYLE
  2
STANDARD
  9
$CMLJUST
 70
     0
  9
$CMLSCALE
 40
1.0
  9
$PROXYGRAPHICS
 70
     1
  9
$MEASUREMENT
 70
     0
  0
ENDSEC
  0
SECTION
  2
CLASSES
  0
CLASS
  1
LWPOLYLINE
  2
AcDbPolyline
  3
AutoCAD 2000
 90
        0
280
     0
281
     1
  0
CLASS
  1
HATCH
  2
AcDbHatch
  3
AutoCAD 2000
 90
        0
280
     0
281
     1
  0
CLASS
  1
ACDBDICTIONARYWDFLT
  2
AcDbDictionaryWithDefault
  3
AutoCAD 2000
 90
        0
280
     0
281
     0
  0
CLASS
  1
ACDBPLACEHOLDER
  2
AcDbPlaceHolder
  3
AutoCAD 2000
 90
        0
280
     0
281
     0
  0
CLASS
  1
LAYOUT
  2
AcDbLayout
  3
AutoCAD 2000
 90
        0
280
     0
281
     0
  0
CLASS
  1
LONG_TRANSACTION
  2
AcDbLongTransaction
  3
AutoCAD 2000
 90
        0
280
     0
281
     0
  0
CLASS
  1
LWPOLYLINE
  2
AcDbPolyline
  3
AutoCAD 2000
 90
        0
280
     0
281
     1
  0
CLASS
  1
HATCH
  2
AcDbHatch
  3
AutoCAD 2000
 90
        0
280
     0
281
     1
  0
CLASS
  1
XRECORD
  2
AcDbXrecord
  3
AutoCAD 2000
 90
        0
280
     0
281
     0
  0
CLASS
  1
DICTIONARYVAR
  2
AcDbDictionaryVar
  3
AutoCAD 2000
 90
        0
280
     0
281
     0
  0
CLASS
  1
LONG_TRANSACTION
  2
AcDbLongTransaction
  3
AutoCAD 2000
 90
        0
280
     0
281
     0
  0
CLASS
  1
LWPOLYLINE
  2
AcDbPolyline
  3
AutoCAD 2000
 90
        0
280
     0
281
     1
  0
CLASS
  1
HATCH
  2
AcDbHatch
  3
AutoCAD 2000
 90
        0
280
     0
281
     1
  0
CLASS
  1
XRECORD
  2
AcDbXrecord
  3
AutoCAD 2000
 90
        0
280
     0
281
     0
  0
CLASS
  1
LONG_TRANSACTION
  2
AcDbLongTransaction
  3
AutoCAD 2000
 90
        0
280
     0
281
     0
  0
CLASS
  1
LWPOLYLINE
  2
AcDbPolyline
  3
AutoCAD 2000
 90
        0
280
     0
281
     1
  0
CLASS
  1
HATCH
  2
AcDbHatch
  3
AutoCAD 2000
 90
        0
280
     0
281
     1
  0
CLASS
  1
XRECORD
  2
AcDbXrecord
  3
AutoCAD 2000
 90
        0
280
     0
281
     0
  0
CLASS
  1
LONG_TRANSACTION
  2
AcDbLongTransaction
  3
AutoCAD 2000
 90
        0
280
     0
281
     0
  0
CLASS
  1
LWPOLYLINE
  2
AcDbPolyline
  3
AutoCAD 2000
 90
        0
280
     0
281
     1
  0
CLASS
  1
HATCH
  2
AcDbHatch
  3
AutoCAD 2000
 90
        0
280
     0
281
     1
  0
CLASS
  1
XRECORD
  2
AcDbXrecord
  3
AutoCAD 2000
 90
        0
280
     0
281
     0
  0
CLASS
  1
LONG_TRANSACTION
  2
AcDbLongTransaction
  3
AutoCAD 2000
 90
        0
280
     0
281
     0
  0
CLASS
  1
LWPOLYLINE
  2
AcDbPolyline
  3
AutoCAD 2000
 90
        0
280
     0
281
     1
  0
CLASS
  1
HATCH
  2
AcDbHatch
  3
AutoCAD 2000
 90
        0
280
     0
281
     1
  0
CLASS
  1
XRECORD
  2
AcDbXrecord
  3
AutoCAD 2000
 90
        0
280
     0
281
     0
  0
CLASS
  1
LONG_TRANSACTION
  2
AcDbLongTransaction
  3
AutoCAD 2000
 90
        0
280
     0
281
     0
  0
CLASS
  1
LWPOLYLINE
  2
AcDbPolyline
  3
AutoCAD 2000
 90
        0
280
     0
281
     1
  0
CLASS
  1
HATCH
  2
AcDbHatch
  3
AutoCAD 2000
 90
        0
280
     0
281
     1
  0
CLASS
  1
XRECORD
  2
AcDbXrecord
  3
AutoCAD 2000
 90
        0
280
     0
281
     0
  0
CLASS
  1
LONG_TRANSACTION
  2
AcDbLongTransaction
  3
AutoCAD 2000
 90
        0
280
     0
281
     0
  0
CLASS
  1
LWPOLYLINE
  2
AcDbPolyline
  3
AutoCAD 2000
 90
        0
280
     0
281
     1
  0
CLASS
  1
HATCH
  2
AcDbHatch
  3
AutoCAD 2000
 90
        0
280
     0
281
     1
  0
CLASS
  1
XRECORD
  2
AcDbXrecord
  3
AutoCAD 2000
 90
        0
280
     0
281
     0
  0
CLASS
  1
LONG_TRANSACTION
  2
AcDbLongTransaction
  3
AutoCAD 2000
 90
        0
280
     0
281
     0
  0
CLASS
  1
LWPOLYLINE
  2
AcDbPolyline
  3
AutoCAD 2000
 90
        0
280
     0
281
     1
  0
CLASS
  1
HATCH
  2
AcDbHatch
  3
AutoCAD 2000
 90
        0
280
     0
281
     1
  0
CLASS
  1
XRECORD
  2
AcDbXrecord
  3
AutoCAD 2000
 90
        0
280
     0
281
     0
  0
CLASS
  1
LONG_TRANSACTION
  2
AcDbLongTransaction
  3
AutoCAD 2000
 90
        0
280
     0
281
     0
  0
CLASS
  1
LWPOLYLINE
  2
AcDbPolyline
  3
AutoCAD 2000
 90
        0
280
     0
281
     1
  0
CLASS
  1
HATCH
  2
AcDbHatch
  3
AutoCAD 2000
 90
        0
280
     0
281
     1
  0
CLASS
  1
XRECORD
  2
AcDbXrecord
  3
AutoCAD 2000
 90
        0
280
     0
281
     0
  0
CLASS
  1
LONG_TRANSACTION
  2
AcDbLongTransaction
  3
AutoCAD 2000
 90
        0
280
     0
281
     0
  0
CLASS
  1
LWPOLYLINE
  2
AcDbPolyline
  3
AutoCAD 2000
 90
        0
280
     0
281
     1
  0
CLASS
  1
HATCH
  2
AcDbHatch
  3
AutoCAD 2000
 90
        0
280
     0
281
     1
  0
CLASS
  1
XRECORD
  2
AcDbXrecord
  3
AutoCAD 2000
 90
        0
280
     0
281
     0
  0
CLASS
  1
LONG_TRANSACTION
  2
AcDbLongTransaction
  3
AutoCAD 2000
 90
        0
280
     0
281
     0
  0
CLASS
  1
LWPOLYLINE
  2
AcDbPolyline
  3
AutoCAD 2000
 90
        0
280
     0
281
     1
  0
CLASS
  1
HATCH
  2
AcDbHatch
  3
AutoCAD 2000
 90
        0
280
     0
281
     1
  0
CLASS
  1
XRECORD
  2
AcDbXrecord
  3
AutoCAD 2000
 90
        0
280
     0
281
     0
  0
CLASS
  1
LONG_TRANSACTION
  2
AcDbLongTransaction
  3
AutoCAD 2000
 90
        0
280
     0
281
     0
  0
CLASS
  1
LWPOLYLINE
  2
AcDbPolyline
  3
AutoCAD 2000
 90
        0
280
     0
281
     1
  0
CLASS
  1
HATCH
  2
AcDbHatch
  3
AutoCAD 2000
 90
        0
280
     0
281
     1
  0
CLASS
  1
XRECORD
  2
AcDbXrecord
  3
AutoCAD 2000
 90
        0
280
     0
281
     0
  0
CLASS
  1
LONG_TRANSACTION
  2
AcDbLongTransaction
  3
AutoCAD 2000
 90
        0
280
     0
281
     0
  0
CLASS
  1
LWPOLYLINE
  2
AcDbPolyline
  3
AutoCAD 2000
 90
        0
280
     0
281
     1
  0
CLASS
  1
HATCH
  2
AcDbHatch
  3
AutoCAD 2000
 90
        0
280
     0
281
     1
  0
CLASS
  1
XRECORD
  2
AcDbXrecord
  3
AutoCAD 2000
 90
        0
280
     0
281
     0
  0
CLASS
  1
LONG_TRANSACTION
  2
AcDbLongTransaction
  3
AutoCAD 2000
 90
        0
280
     0
281
     0
  0
CLASS
  1
LWPOLYLINE
  2
AcDbPolyline
  3
AutoCAD 2000
 90
        0
280
     0
281
     1
  0
CLASS
  1
HATCH
  2
AcDbHatch
  3
AutoCAD 2000
 90
        0
280
     0
281
     1
  0
CLASS
  1
XRECORD
  2
AcDbXrecord
  3
AutoCAD 2000
 90
        0
280
     0
281
     0
  0
CLASS
  1
LONG_TRANSACTION
  2
AcDbLongTransaction
  3
AutoCAD 2000
 90
        0
280
     0
281
     0
  0
CLASS
  1
LWPOLYLINE
  2
AcDbPolyline
  3
AutoCAD 2000
 90
        0
280
     0
281
     1
  0
CLASS
  1
HATCH
  2
AcDbHatch
  3
AutoCAD 2000
 90
        0
280
     0
281
     1
  0
CLASS
  1
XRECORD
  2
AcDbXrecord
  3
AutoCAD 2000
 90
        0
280
     0
281
     0
  0
CLASS
  1
LONG_TRANSACTION
  2
AcDbLongTransaction
  3
AutoCAD 2000
 90
        0
280
     0
281
     0
  0
CLASS
  1
LWPOLYLINE
  2
AcDbPolyline
  3
AutoCAD 2000
 90
        0
280
     0
281
     1
  0
CLASS
  1
HATCH
  2
AcDbHatch
  3
AutoCAD 2000
 90
        0
280
     0
281
     1
  0
CLASS
  1
XRECORD
  2
AcDbXrecord
  3
AutoCAD 2000
 90
        0
280
     0
281
     0
  0
ENDSEC
  0
SECTION
  2
TABLES
  0
TABLE
  2
VPORT
  5
EF7C85523
330
0
100
AcDbSymbolTable
 70
    11
  0
VPORT
  5
EF7C85567
330
EF7C85523
100
AcDbSymbolTableRecord
100
AcDbViewportTableRecord
  2
2
 70
     0
 10
0.5
 20
0.0
 11
1.0
 21
1.0
 12
0.9240312421264802
 22
1.052650975462764
 13
0.0
 23
0.0
 14
1.0
 24
1.0
 15
10.0
 25
10.0
 16
0.0
 26
0.0
 36
1.0
 17
0.0
 27
0.0
 37
0.0
 40
2.105301950925533
 41
0.8778135048231511
 42
50.0
 43
0.0
 44
0.0
 50
0.0
 51
0.0
 71
     0
 72
   500
 73
     1
 74
     1
 75
     0
 76
     0
 77
     0
 78
     0
  0
VPORT
  5
EF7C85568
330
EF7C85523
100
AcDbSymbolTableRecord
100
AcDbViewportTableRecord
  2
2
 70
     0
 10
0.0
 20
0.0
 11
0.5
 21
1.0
 12
0.9240312421264802
 22
1.052650975462764
 13
0.0
 23
0.0
 14
1.0
 24
1.0
 15
10.0
 25
10.0
 16
0.0
 26
0.0
 36
1.0
 17
0.0
 27
0.0
 37
0.0
 40
2.105301950925533
 41
0.8778135048231511
 42
50.0
 43
0.0
 44
0.0
 50
0.0
 51
0.0
 71
     0
 72
   500
 73
     1
 74
     1
 75
     0
 76
     0
 77
     0
 78
     0
  0
VPORT
  5
EF7C85569
330
EF7C85523
100
AcDbSymbolTableRecord
100
AcDbViewportTableRecord
  2
3
 70
     0
 10
0.0
 20
0.5
 11
1.0
 21
1.0
 12
2.832169994473273
 22
1.052650975462764
 13
0.0
 23
0.0
 14
1.0
 24
1.0
 15
10.0
 25
10.0
 16
0.0
 26
0.0
 36
1.0
 17
0.0
 27
0.0
 37
0.0
 40
2.105301950925533
 41
3.571428571428571
 42
50.0
 43
0.0
 44
0.0
 50
0.0
 51
0.0
 71
     0
 72
   500
 73
     1
 74
     1
 75
     0
 76
     0
 77
     0
 78
     0
  0
VPORT
  5
EF7C8556A
330
EF7C85523
100
AcDbSymbolTableRecord
100
AcDbViewportTableRecord
  2
3
 70
     0
 10
0.0
 20
0.0
 11
1.0
 21
0.5
 12
2.856741679241311
 22
1.052650975462764
 13
0.0
 23
0.0
 14
1.0
 24
1.0
 15
10.0
 25
10.0
 16
0.0
 26
0.0
 36
1.0
 17
0.0
 27
0.0
 37
0.0
 40
2.105301950925533
 41
3.594771241830064
 42
50.0
 43
0.0
 44
0.0
 50
0.0
 51
0.0
 71
     0
 72
   500
 73
     1
 74
     1
 75
     0
 76
     0
 77
     0
 78
     0
  0
VPORT
  5
EF7C8556B
330
EF7C85523
100
AcDbSymbolTableRecord
100
AcDbViewportTableRecord
  2
4
 70
     0
 10
0.5
 20
0.0
 11
1.0
 21
0.5
 12
2.886857516709718
 22
1.052650975462764
 13
0.0
 23
0.0
 14
1.0
 24
1.0
 15
10.0
 25
10.0
 16
0.0
 26
0.0
 36
1.0
 17
0.0
 27
0.0
 37
0.0
 40
4.275207030309068
 41
1.784313725490195
 42
50.0
 43
0.0
 44
0.0
 50
0.0
 51
0.0
 71
     0
 72
   500
 73
     1
 74
     1
 75
     0
 76
     0
 77
     0
 78
     0
  0
VPORT
  5
EF7C8556C
330
EF7C85523
100
AcDbSymbolTableRecord
100
AcDbViewportTableRecord
  2
4
 70
     0
 10
0.5
 20
0.5
 11
1.0
 21
1.0
 12
2.862090274555523
 22
1.052650975462764
 13
0.0
 23
0.0
 14
1.0
 24
1.0
 15
10.0
 25
10.0
 16
0.0
 26
0.0
 36
1.0
 17
0.0
 27
0.0
 37
0.0
 40
4.275207030309068
 41
1.77272727272727
 42
50.0
 43
0.0
 44
0.0
 50
0.0
 51
0.0
 71
     0
 72
   500
 73
     1
 74
     1
 75
     0
 76
     0
 77
     0
 78
     0
  0
VPORT
  5
EF7C8556D
330
EF7C85523
100
AcDbSymbolTableRecord
100
AcDbViewportTableRecord
  2
4
 70
     0
 10
0.0
 20
0.5
 11
0.5
 21
1.0
 12
2.862090274555523
 22
1.052650975462764
 13
0.0
 23
0.0
 14
1.0
 24
1.0
 15
10.0
 25
10.0
 16
0.0
 26
0.0
 36
1.0
 17
0.0
 27
0.0
 37
0.0
 40
4.275207030309068
 41
1.77272727272727
 42
50.0
 43
0.0
 44
0.0
 50
0.0
 51
0.0
 71
     0
 72
   500
 73
     1
 74
     1
 75
     0
 76
     0
 77
     0
 78
     0
  0
VPORT
  5
EF7C8556E
330
EF7C85523
100
AcDbSymbolTableRecord
100
AcDbViewportTableRecord
  2
4
 70
     0
 10
0.0
 20
0.0
 11
0.5
 21
0.5
 12
2.886857516709718
 22
1.052650975462764
 13
0.0
 23
0.0
 14
1.0
 24
1.0
 15
10.0
 25
10.0
 16
0.0
 26
0.0
 36
1.0
 17
0.0
 27
0.0
 37
0.0
 40
4.275207030309068
 41
1.784313725490195
 42
50.0
 43
0.0
 44
0.0
 50
0.0
 51
0.0
 71
     0
 72
   500
 73
     1
 74
     1
 75
     0
 76
     0
 77
     0
 78
     0
  0
VPORT
  5
EF7C8A1CB
330
EF7C85523
100
AcDbSymbolTableRecord
100
AcDbViewportTableRecord
  2
*ACTIVE
 70
     0
 10
0.0
 20
0.0
 11
1.0
 21
1.0
 12
271.5000016780671
 22
141.5000013178616
 13
0.0
 23
0.0
 14
1.0
 24
1.0
 15
10.0
 25
10.0
 16
0.0
 26
0.0
 36
1.0
 17
0.0
 27
0.0
 37
0.0
 40
286.528800618818
 41
1.954639175257731
 42
50.0
 43
0.0
 44
0.0
 50
0.0
 51
0.0
 71
     0
 72
   500
 73
     1
 74
     0
 75
     0
 76
     0
 77
     0
 78
     0
  0
ENDTAB
  0
TABLE
  2
LTYPE
  5
EF7C85520
330
0
100
AcDbSymbolTable
 70
     3
  0
LTYPE
  5
EF7C8552C
330
EF7C85520
100
AcDbSymbolTableRecord
100
AcDbLinetypeTableRecord
  2
BYBLOCK
 70
     0
  3

 72
    65
 73
     0
 40
0.0
  0
LTYPE
  5
EF7C8552D
330
EF7C85520
100
AcDbSymbolTableRecord
100
AcDbLinetypeTableRecord
  2
BYLAYER
 70
     0
  3

 72
    65
 73
     0
 40
0.0
  0
LTYPE
  5
EF7C8552E
330
EF7C85520
100
AcDbSymbolTableRecord
100
AcDbLinetypeTableRecord
  2
CONTINUOUS
 70
     0
  3
実線
 72
    65
 73
     0
 40
0.0
  0
LTYPE
  5
EF7C85565
330
EF7C85520
100
AcDbSymbolTableRecord
100
AcDbLinetypeTableRecord
  2
PHANTOM
 70
     0
  3
_____ _ _ _____ _ _ _____ _ _ _____ _ _ ____
 72
    65
 73
     6
 40
2.5
 49
1.25
 74
     0
 49
-0.25
 74
     0
 49
0.25
 74
     0
 49
-0.25
 74
     0
 49
0.25
 74
     0
 49
-0.25
 74
     0
  0
LTYPE
  5
EF7C887D0
330
EF7C85520
100
AcDbSymbolTableRecord
100
AcDbLinetypeTableRecord
  2
HIDDEN
 70
     0
  3
_ _ _ _ _ _ _ _ _ _ _ _ _ _ _ _ _ _ _ _ _ _ _
 72
    65
 73
     2
 40
0.375
 49
0.25
 74
     0
 49
-0.125
 74
     0
  0
ENDTAB
  0
TABLE
  2
LAYER
  5
EF7C8551D
102
{ACAD_XDICTIONARY
360
EF7C88ACB
102
}
330
0
100
AcDbSymbolTable
 70
     9
  0
LAYER
  5
EF7C85529
330
EF7C8551D
100
AcDbSymbolTableRecord
100
AcDbLayerTableRecord
  2
0
 70
     0
 62
     6
  6
CONTINUOUS
  0
LAYER
  5
EF7C85574
330
EF7C8551D
100
AcDbSymbolTableRecord
100
AcDbLayerTableRecord
  2
NITEN
 70
     0
 62
     2
  6
PHANTOM
  0
LAYER
  5
EF7C85575
330
EF7C8551D
100
AcDbSymbolTableRecord
100
AcDbLayerTableRecord
  2
HATCH
 70
     0
 62
     4
  6
CONTINUOUS
  0
LAYER
  5
EF7C85576
330
EF7C8551D
100
AcDbSymbolTableRecord
100
AcDbLayerTableRecord
  2
SUNPOU
 70
     0
 62
     3
  6
CONTINUOUS
  0
LAYER
  5
EF7C85577
330
EF7C8551D
100
AcDbSymbolTableRecord
100
AcDbLayerTableRecord
  2
TEXT
 70
     0
 62
     3
  6
CONTINUOUS
  0
LAYER
  5
EF7C85578
330
EF7C8551D
100
AcDbSymbolTableRecord
100
AcDbLayerTableRecord
  2
SAISEN
 70
     0
 62
     4
  6
CONTINUOUS
  0
LAYER
  5
EF7C85579
330
EF7C8551D
100
AcDbSymbolTableRecord
100
AcDbLayerTableRecord
  2
JISSEN
 70
     0
 62
     7
  6
CONTINUOUS
  0
LAYER
  5
EF7C8557D
330
EF7C8551D
100
AcDbSymbolTableRecord
100
AcDbLayerTableRecord
  2
WAKU
 70
     0
 62
     5
  6
CONTINUOUS
  0
LAYER
  5
EF7C887D2
330
EF7C8551D
100
AcDbSymbolTableRecord
100
AcDbLayerTableRecord
  2
TENSEN
 70
     0
 62
     2
  6
HIDDEN
  0
ENDTAB
  0
TABLE
  2
STYLE
  5
EF7C8551E
330
0
100
AcDbSymbolTable
 70
     3
  0
STYLE
  5
EF7C8552A
330
EF7C8551E
100
AcDbSymbolTableRecord
100
AcDbTextStyleTableRecord
  2
STANDARD
 70
     0
 40
0.0
 41
1.0
 50
0.0
 71
     0
 42
1.5
  3
SIMPLEX
  4

  0
STYLE
  5
EF7C85558
330
EF7C8551E
100
AcDbSymbolTableRecord
100
AcDbTextStyleTableRecord
  2
K
 70
     0
 40
0.0
 41
1.0
 50
0.0
 71
     0
 42
3.0
  3
ROMANS
  4
BIGFONT
  0
STYLE
  5
EF7C8555B
330
EF7C8551E
100
AcDbSymbolTableRecord
100
AcDbTextStyleTableRecord
  2
BIGFONT
 70
     0
 40
0.0
 41
1.0
 50
0.0
 71
     0
 42
3.0
  3
txt.shx
  4
bigfont
  0
ENDTAB
  0
TABLE
  2
VIEW
  5
EF7C85521
330
0
100
AcDbSymbolTable
 70
     0
  0
ENDTAB
  0
TABLE
  2
UCS
  5
EF7C85522
330
0
100
AcDbSymbolTable
 70
     0
  0
ENDTAB
  0
TABLE
  2
APPID
  5
EF7C85524
330
0
100
AcDbSymbolTable
 70
     1
  0
APPID
  5
EF7C8552B
330
EF7C85524
100
AcDbSymbolTableRecord
100
AcDbRegAppTableRecord
  2
ACAD
 70
     0
  0
ENDTAB
  0
TABLE
  2
DIMSTYLE
  5
EF7C85525
330
0
100
AcDbSymbolTable
 70
     2
  0
DIMSTYLE
105
EF7C85571
330
EF7C85525
100
AcDbSymbolTableRecord
100
AcDbDimStyleTableRecord
  2
IMAO
 70
     0
  3

  4

  5
ARROWANG
  6
ARROWANG
  7
ARROWANG
 40
1.0
 41
1.5
 42
1.0
 43
6.0
 44
1.0
 45
0.0
 46
0.0
 47
495.0
 48
0.0
140
3.0
141
0.0
142
0.0
143
25.4
144
1.0
145
0.0
146
1.0
147
0.09
 71
     0
 72
     0
 73
     0
 74
     0
 75
     0
 76
     0
 77
     1
 78
     8
170
     0
171
     2
172
     1
173
     0
174
     1
175
     0
176
     0
177
     0
178
     0
270
     2
271
     2
272
     2
273
     2
274
     2
340
EF7C8555B
275
     0
280
     0
281
     0
282
     0
283
     1
284
     8
285
     8
286
     8
287
     3
288
     0
  0
DIMSTYLE
105
EF7C87CA1
330
EF7C85525
100
AcDbSymbolTableRecord
100
AcDbDimStyleTableRecord
  2
STANDARD
 70
     0
  3

  4

  5

  6

  7

 40
1.0
 41
0.18
 42
0.0625
 43
0.38
 44
0.18
 45
0.0
 46
0.0
 47
0.0
 48
0.0
140
0.18
141
0.09
142
0.0
143
25.4
144
1.0
145
0.0
146
1.0
147
0.09
 71
     0
 72
     0
 73
     1
 74
     1
 75
     0
 76
     0
 77
     0
 78
     0
170
     0
171
     2
172
     0
173
     0
174
     0
175
     0
176
     0
177
     0
178
     0
270
     2
271
     4
272
     4
273
     2
274
     2
340
EF7C8552A
275
     0
280
     0
281
     0
282
     0
283
     1
284
     0
285
     0
286
     0
287
     3
288
     0
  0
ENDTAB
  0
TABLE
  2
BLOCK_RECORD
  5
EF7C8551C
330
0
100
AcDbSymbolTable
 70
    11
  0
BLOCK_RECORD
  5
EF7C85532
102
{ACAD_XDICTIONARY
360
EF7C85D9A
102
}
330
EF7C8551C
100
AcDbSymbolTableRecord
100
AcDbBlockTableRecord
  2
*MODEL_SPACE
  0
BLOCK_RECORD
  5
EF7C8552F
102
{ACAD_XDICTIONARY
360
EF7C85D98
102
}
330
EF7C8551C
100
AcDbSymbolTableRecord
100
AcDbBlockTableRecord
  2
*PAPER_SPACE
  0
BLOCK_RECORD
  5
EF7C85537
330
EF7C8551C
100
AcDbSymbolTableRecord
100
AcDbBlockTableRecord
  2
ARROW
  0
BLOCK_RECORD
  5
EF7C8553B
330
EF7C8551C
100
AcDbSymbolTableRecord
100
AcDbBlockTableRecord
  2
WAKU
  0
BLOCK_RECORD
  5
EF7C8553D
330
EF7C8551C
100
AcDbSymbolTableRecord
100
AcDbBlockTableRecord
  2
*X2
  0
BLOCK_RECORD
  5
EF7C8553E
330
EF7C8551C
100
AcDbSymbolTableRecord
100
AcDbBlockTableRecord
  2
STDGX5
  0
BLOCK_RECORD
  5
EF7C8553F
330
EF7C8551C
100
AcDbSymbolTableRecord
100
AcDbBlockTableRecord
  2
*X4
  0
BLOCK_RECORD
  5
EF7C85540
330
EF7C8551C
100
AcDbSymbolTableRecord
100
AcDbBlockTableRecord
  2
*X5
  0
BLOCK_RECORD
  5
EF7C85541
330
EF7C8551C
100
AcDbSymbolTableRecord
100
AcDbBlockTableRecord
  2
*X6
  0
BLOCK_RECORD
  5
EF7C85542
330
EF7C8551C
100
AcDbSymbolTableRecord
100
AcDbBlockTableRecord
  2
*X7
  0
BLOCK_RECORD
  5
EF7C85543
330
EF7C8551C
100
AcDbSymbolTableRecord
100
AcDbBlockTableRecord
  2
ARROWANG
  0
BLOCK_RECORD
  5
EF7C85544
330
EF7C8551C
100
AcDbSymbolTableRecord
100
AcDbBlockTableRecord
  2
STDR12J
  0
ENDTAB
  0
ENDSEC
  0
SECTION
  2
BLOCKS
  0
BLOCK
  5
EF7C85580
330
EF7C85532
100
AcDbEntity
  8
0
100
AcDbBlockBegin
  2
*MODEL_SPACE
 70
     0
 10
0.0
 20
0.0
 30
0.0
  3
*MODEL_SPACE
  1

  0
ENDBLK
  5
EF7C85581
330
EF7C85532
100
AcDbEntity
  8
0
100
AcDbBlockEnd
  0
BLOCK
  5
EF7C8557E
330
EF7C8552F
100
AcDbEntity
 67
     1
  8
0
100
AcDbBlockBegin
  2
*PAPER_SPACE
 70
     0
 10
0.0
 20
0.0
 30
0.0
  3
*PAPER_SPACE
  1

  0
ENDBLK
  5
EF7C8557F
330
EF7C8552F
100
AcDbEntity
 67
     1
  8
0
100
AcDbBlockEnd
  0
BLOCK
  5
499
330
EF7C85537
100
AcDbEntity
  8
0
100
AcDbBlockBegin
  2
ARROW
 70
     0
 10
1.0
 20
0.5
 30
0.0
  3
ARROW
  1

  0
LINE
  5
49A
330
EF7C85537
100
AcDbEntity
  8
0
100
AcDbLine
 10
1.0
 20
0.5
 30
0.0
 11
-0.5000000000000214
 21
0.0980762113533018
 31
0.0
  0
LINE
  5
49B
330
EF7C85537
100
AcDbEntity
  8
0
100
AcDbLine
 10
0.0
 20
0.5
 30
0.0
 11
1.0
 21
0.5
 31
0.0
  0
LINE
  5
49C
330
EF7C85537
100
AcDbEntity
  8
0
100
AcDbLine
 10
1.0
 20
0.5
 30
0.0
 11
-0.4999999999999575
 21
0.9019237886467408
 31
0.0
  0
ENDBLK
  5
49D
330
EF7C85537
100
AcDbEntity
  8
0
100
AcDbBlockEnd
  0
BLOCK
  5
4A7
330
EF7C8553B
100
AcDbEntity
  8
0
100
AcDbBlockBegin
  2
WAKU
 70
     0
 10
0.0
 20
0.0
 30
0.0
  3
WAKU
  1

  0
LINE
  5
4A8
330
EF7C8553B
100
AcDbEntity
  8
WAKU
100
AcDbLine
 10
0.9999999959999998
 20
0.0
 30
0.0
 11
0.9999999959999998
 21
0.9999999999999998
 31
0.0
  0
LINE
  5
4A9
330
EF7C8553B
100
AcDbEntity
  8
WAKU
100
AcDbLine
 10
0.0
 20
0.9999999999999998
 30
0.0
 11
0.9999999959999998
 21
0.9999999999999998
 31
0.0
  0
LINE
  5
4AA
330
EF7C8553B
100
AcDbEntity
  8
WAKU
100
AcDbLine
 10
0.9999999959999998
 20
0.0
 30
0.0
 11
0.0
 21
0.0
 31
0.0
  0
LINE
  5
4AB
330
EF7C8553B
100
AcDbEntity
  8
WAKU
100
AcDbLine
 10
0.0
 20
0.0
 30
0.0
 11
0.0
 21
0.9999999999999998
 31
0.0
  0
ENDBLK
  5
4AC
330
EF7C8553B
100
AcDbEntity
  8
0
100
AcDbBlockEnd
  0
BLOCK
  5
2764
330
EF7C8553D
100
AcDbEntity
  8
0
100
AcDbBlockBegin
  2
*X2
 70
     1
 10
0.0
 20
0.0
 30
0.0
  3
*X2
  1

  0
ENDBLK
  5
2765
330
EF7C8553D
100
AcDbEntity
  8
0
100
AcDbBlockEnd
  0
BLOCK
  5
2766
330
EF7C8553E
100
AcDbEntity
  8
0
100
AcDbBlockBegin
  2
STDGX5
 70
     0
 10
0.0
 20
0.0
 30
0.0
  3
STDGX5
  1

  0
ENDBLK
  5
2767
330
EF7C8553E
100
AcDbEntity
  8
0
100
AcDbBlockEnd
  0
BLOCK
  5
2F5A
330
EF7C8553F
100
AcDbEntity
  8
0
100
AcDbBlockBegin
  2
*X4
 70
     1
 10
0.0
 20
0.0
 30
0.0
  3
*X4
  1

  0
ENDBLK
  5
2F5B
330
EF7C8553F
100
AcDbEntity
  8
0
100
AcDbBlockEnd
  0
BLOCK
  5
32BB
330
EF7C85540
100
AcDbEntity
  8
0
100
AcDbBlockBegin
  2
*X5
 70
     1
 10
0.0
 20
0.0
 30
0.0
  3
*X5
  1

  0
ENDBLK
  5
32BC
330
EF7C85540
100
AcDbEntity
  8
0
100
AcDbBlockEnd
  0
BLOCK
  5
372F
330
EF7C85541
100
AcDbEntity
  8
0
100
AcDbBlockBegin
  2
*X6
 70
     1
 10
0.0
 20
0.0
 30
0.0
  3
*X6
  1

  0
ENDBLK
  5
3730
330
EF7C85541
100
AcDbEntity
  8
0
100
AcDbBlockEnd
  0
BLOCK
  5
3A6D
330
EF7C85542
100
AcDbEntity
  8
0
100
AcDbBlockBegin
  2
*X7
 70
     1
 10
0.0
 20
0.0
 30
0.0
  3
*X7
  1

  0
ENDBLK
  5
3A6E
330
EF7C85542
100
AcDbEntity
  8
0
100
AcDbBlockEnd
  0
BLOCK
  5
4CC9
330
EF7C85543
100
AcDbEntity
  8
0
100
AcDbBlockBegin
  2
ARROWANG
 70
     0
 10
0.0
 20
0.0
 30
0.0
  3
ARROWANG
  1

  0
LINE
  5
4CCA
330
EF7C85543
100
AcDbEntity
  8
SUNPOU
100
AcDbLine
 10
0.0
 20
0.0
 30
0.0
 11
-1.499999999999956
 21
0.401923788646741
 31
0.0
  0
LINE
  5
4CCB
330
EF7C85543
100
AcDbEntity
  8
SUNPOU
100
AcDbLine
 10
0.0
 20
0.0
 30
0.0
 11
-1.500000000000026
 21
-0.4019237886467124
 31
0.0
  0
ENDBLK
  5
4CCC
330
EF7C85543
100
AcDbEntity
  8
0
100
AcDbBlockEnd
  0
BLOCK
  5
4CCD
330
EF7C85544
100
AcDbEntity
  8
0
100
AcDbBlockBegin
  2
STDR12J
 70
     0
 10
0.0
 20
0.0
 30
0.0
  3
STDR12J
  1

  0
ENDBLK
  5
4CF2
330
EF7C85544
100
AcDbEntity
  8
0
100
AcDbBlockEnd
  0
ENDSEC
  0
SECTION
  2
ENTITIES
  0
TEXT
  5
1
330
EF7C85532
100
AcDbEntity
  8
SUNPOU
100
AcDbText
 10
95.05869565217388
 20
43.7966872748706
 30
0.0
 40
1.5
  1
                          
100
AcDbText
  0
TEXT
  5
2
330
EF7C85532
100
AcDbEntity
  8
SUNPOU
100
AcDbText
 10
332.2793466870868
 20
21.8983436374353
 30
0.0
 40
0.75
  1
                          
100
AcDbText
  0
TEXT
  5
1A
330
EF7C85532
100
AcDbEntity
  8
SUNPOU
100
AcDbText
 10
289.9834441000535
 20
43.7966872748706
 30
0.0
 40
1.5
  1
                          
100
AcDbText
  0
TEXT
  5
1B
330
EF7C85532
100
AcDbEntity
  8
SUNPOU
100
AcDbText
 10
527.2040951349663
 20
21.8983436374353
 30
0.0
 40
0.75
  1
                          
100
AcDbText
  0
TEXT
  5
1C
330
EF7C85532
100
AcDbEntity
  8
SUNPOU
100
AcDbText
 10
490.6272568090836
 20
43.79668727487056
 30
0.0
 40
1.5
  1
                          
100
AcDbText
  0
TEXT
  5
1D
330
EF7C85532
100
AcDbEntity
  8
SUNPOU
100
AcDbText
 10
727.8479078439966
 20
21.89834363743526
 30
0.0
 40
0.75
  1
                          
100
AcDbText
  0
INSERT
  5
1E
330
EF7C85532
100
AcDbEntity
  8
HATCH
100
AcDbBlockReference
  2
*X2
 10
194.9247484478796
 20
0.0
 30
0.0
  0
TEXT
  5
1F
330
EF7C85532
100
AcDbEntity
  8
SUNPOU
100
AcDbText
 10
493.0101992368963
 20
43.7966872748706
 30
0.0
 40
1.5
  1
                          
100
AcDbText
  0
TEXT
  5
20
330
EF7C85532
100
AcDbEntity
  8
SUNPOU
100
AcDbText
 10
730.2308502718092
 20
21.8983436374353
 30
0.0
 40
0.75
  1
                          
100
AcDbText
  0
TEXT
  5
21
330
EF7C85532
100
AcDbEntity
  8
SUNPOU
100
AcDbText
 10
482.0486607753577
 20
43.7966872748706
 30
0.0
 40
1.5
  1
                          
100
AcDbText
  0
TEXT
  5
22
330
EF7C85532
100
AcDbEntity
  8
SUNPOU
100
AcDbText
 10
719.269311810271
 20
21.8983436374353
 30
0.0
 40
0.75
  1
                          
100
AcDbText
  0
INSERT
  5
25
330
EF7C85532
100
AcDbEntity
  8
JISSEN
100
AcDbBlockReference
  2
STDGX5
 10
0.0
 20
0.0
 30
0.0
  0
TEXT
  5
60
330
EF7C85532
100
AcDbEntity
  8
SUNPOU
100
AcDbText
 10
274.0586949361738
 20
43.7966872748706
 30
0.0
 40
1.5
  1
                          
100
AcDbText
  0
TEXT
  5
61
330
EF7C85532
100
AcDbEntity
  8
SUNPOU
100
AcDbText
 10
511.2793459710869
 20
21.8983436374353
 30
0.0
 40
0.75
  1
                          
100
AcDbText
  0
TEXT
  5
62
330
EF7C85532
100
AcDbEntity
  8
SUNPOU
100
AcDbText
 10
474.702507645204
 20
43.79668727487056
 30
0.0
 40
1.5
  1
                          
100
AcDbText
  0
TEXT
  5
63
330
EF7C85532
100
AcDbEntity
  8
SUNPOU
100
AcDbText
 10
711.923158680117
 20
21.89834363743526
 30
0.0
 40
0.75
  1
                          
100
AcDbText
  0
INSERT
  5
64
330
EF7C85532
100
AcDbEntity
  8
HATCH
100
AcDbBlockReference
  2
*X4
 10
178.999999284
 20
0.0
 30
0.0
  0
TEXT
  5
65
330
EF7C85532
100
AcDbEntity
  8
SUNPOU
100
AcDbText
 10
477.0854500730166
 20
43.7966872748706
 30
0.0
 40
1.5
  1
                          
100
AcDbText
  0
TEXT
  5
66
330
EF7C85532
100
AcDbEntity
  8
SUNPOU
100
AcDbText
 10
714.3061011079296
 20
21.8983436374353
 30
0.0
 40
0.75
  1
                          
100
AcDbText
  0
TEXT
  5
67
330
EF7C85532
100
AcDbEntity
  8
SUNPOU
100
AcDbText
 10
466.1239116114783
 20
43.7966872748706
 30
0.0
 40
1.5
  1
                          
100
AcDbText
  0
TEXT
  5
68
330
EF7C85532
100
AcDbEntity
  8
SUNPOU
100
AcDbText
 10
703.3445626463913
 20
21.8983436374353
 30
0.0
 40
0.75
  1
                          
100
AcDbText
  0
INSERT
  5
69
330
EF7C85532
100
AcDbEntity
  8
TEXT
100
AcDbBlockReference
  2
STDGX5
 10
178.999999284
 20
0.0
 30
0.0
  0
TEXT
  5
6A
330
EF7C85532
100
AcDbEntity
  8
SUNPOU
100
AcDbText
 10
453.0586949361739
 20
43.7966872748706
 30
0.0
 40
1.5
  1
                          
100
AcDbText
  0
TEXT
  5
6B
330
EF7C85532
100
AcDbEntity
  8
SUNPOU
100
AcDbText
 10
690.2793459710871
 20
21.8983436374353
 30
0.0
 40
0.75
  1
                          
100
AcDbText
  0
TEXT
  5
6C
330
EF7C85532
100
AcDbEntity
  8
SUNPOU
100
AcDbText
 10
647.9834433840535
 20
43.7966872748706
 30
0.0
 40
1.5
  1
                          
100
AcDbText
  0
TEXT
  5
6D
330
EF7C85532
100
AcDbEntity
  8
SUNPOU
100
AcDbText
 10
885.2040944189665
 20
21.8983436374353
 30
0.0
 40
0.75
  1
                          
100
AcDbText
  0
TEXT
  5
6E
330
EF7C85532
100
AcDbEntity
  8
SUNPOU
100
AcDbText
 10
848.6272560930835
 20
43.79668727487056
 30
0.0
 40
1.5
  1
                          
100
AcDbText
  0
TEXT
  5
6F
330
EF7C85532
100
AcDbEntity
  8
SUNPOU
100
AcDbText
 10
1085.847907127996
 20
21.89834363743526
 30
0.0
 40
0.75
  1
                          
100
AcDbText
  0
INSERT
  5
70
330
EF7C85532
100
AcDbEntity
  8
HATCH
100
AcDbBlockReference
  2
*X5
 10
552.9247477318796
 20
0.0
 30
0.0
  0
TEXT
  5
71
330
EF7C85532
100
AcDbEntity
  8
SUNPOU
100
AcDbText
 10
851.0101985208963
 20
43.7966872748706
 30
0.0
 40
1.5
  1
                          
100
AcDbText
  0
TEXT
  5
72
330
EF7C85532
100
AcDbEntity
  8
SUNPOU
100
AcDbText
 10
1088.230849555809
 20
21.8983436374353
 30
0.0
 40
0.75
  1
                          
100
AcDbText
  0
TEXT
  5
73
330
EF7C85532
100
AcDbEntity
  8
SUNPOU
100
AcDbText
 10
840.048660059358
 20
43.7966872748706
 30
0.0
 40
1.5
  1
                          
100
AcDbText
  0
TEXT
  5
74
330
EF7C85532
100
AcDbEntity
  8
SUNPOU
100
AcDbText
 10
1077.269311094271
 20
21.8983436374353
 30
0.0
 40
0.75
  1
                          
100
AcDbText
  0
INSERT
  5
75
330
EF7C85532
100
AcDbEntity
  8
JISSEN
100
AcDbBlockReference
  2
STDGX5
 10
357.999999284
 20
0.0
 30
0.0
  0
TEXT
  5
76
330
EF7C85532
100
AcDbEntity
  8
SUNPOU
100
AcDbText
 10
453.0586949361739
 20
43.7966872748706
 30
0.0
 40
1.5
  1
                          
100
AcDbText
  0
TEXT
  5
77
330
EF7C85532
100
AcDbEntity
  8
SUNPOU
100
AcDbText
 10
690.2793459710871
 20
21.8983436374353
 30
0.0
 40
0.75
  1
                          
100
AcDbText
  0
TEXT
  5
78
330
EF7C85532
100
AcDbEntity
  8
SUNPOU
100
AcDbText
 10
647.9834433840535
 20
43.7966872748706
 30
0.0
 40
1.5
  1
                          
100
AcDbText
  0
TEXT
  5
79
330
EF7C85532
100
AcDbEntity
  8
SUNPOU
100
AcDbText
 10
885.2040944189665
 20
21.8983436374353
 30
0.0
 40
0.75
  1
                          
100
AcDbText
  0
TEXT
  5
7A
330
EF7C85532
100
AcDbEntity
  8
SUNPOU
100
AcDbText
 10
848.6272560930835
 20
43.79668727487056
 30
0.0
 40
1.5
  1
                          
100
AcDbText
  0
TEXT
  5
7B
330
EF7C85532
100
AcDbEntity
  8
SUNPOU
100
AcDbText
 10
1085.847907127996
 20
21.89834363743526
 30
0.0
 40
0.75
  1
                          
100
AcDbText
  0
INSERT
  5
7C
330
EF7C85532
100
AcDbEntity
  8
HATCH
100
AcDbBlockReference
  2
*X6
 10
552.9247477318796
 20
0.0
 30
0.0
  0
TEXT
  5
7D
330
EF7C85532
100
AcDbEntity
  8
SUNPOU
100
AcDbText
 10
851.0101985208963
 20
43.7966872748706
 30
0.0
 40
1.5
  1
                          
100
AcDbText
  0
TEXT
  5
7E
330
EF7C85532
100
AcDbEntity
  8
SUNPOU
100
AcDbText
 10
1088.230849555809
 20
21.8983436374353
 30
0.0
 40
0.75
  1
                          
100
AcDbText
  0
TEXT
  5
7F
330
EF7C85532
100
AcDbEntity
  8
SUNPOU
100
AcDbText
 10
840.048660059358
 20
43.7966872748706
 30
0.0
 40
1.5
  1
                          
100
AcDbText
  0
TEXT
  5
80
330
EF7C85532
100
AcDbEntity
  8
SUNPOU
100
AcDbText
 10
1077.269311094271
 20
21.8983436374353
 30
0.0
 40
0.75
  1
                          
100
AcDbText
  0
INSERT
  5
81
330
EF7C85532
100
AcDbEntity
  8
JISSEN
100
AcDbBlockReference
  2
STDGX5
 10
357.999999284
 20
0.0
 30
0.0
  0
TEXT
  5
82
330
EF7C85532
100
AcDbEntity
  8
SUNPOU
100
AcDbText
 10
632.0586942201737
 20
43.7966872748706
 30
0.0
 40
1.5
  1
                          
100
AcDbText
  0
TEXT
  5
83
330
EF7C85532
100
AcDbEntity
  8
SUNPOU
100
AcDbText
 10
869.2793452550871
 20
21.8983436374353
 30
0.0
 40
0.75
  1
                          
100
AcDbText
  0
TEXT
  5
84
330
EF7C85532
100
AcDbEntity
  8
SUNPOU
100
AcDbText
 10
826.9834426680532
 20
43.7966872748706
 30
0.0
 40
1.5
  1
                          
100
AcDbText
  0
TEXT
  5
85
330
EF7C85532
100
AcDbEntity
  8
SUNPOU
100
AcDbText
 10
1064.204093702966
 20
21.8983436374353
 30
0.0
 40
0.75
  1
                          
100
AcDbText
  0
TEXT
  5
86
330
EF7C85532
100
AcDbEntity
  8
SUNPOU
100
AcDbText
 10
1027.627255377083
 20
43.79668727487056
 30
0.0
 40
1.5
  1
                          
100
AcDbText
  0
TEXT
  5
87
330
EF7C85532
100
AcDbEntity
  8
SUNPOU
100
AcDbText
 10
1264.847906411996
 20
21.89834363743526
 30
0.0
 40
0.75
  1
                          
100
AcDbText
  0
INSERT
  5
88
330
EF7C85532
100
AcDbEntity
  8
HATCH
100
AcDbBlockReference
  2
*X7
 10
731.9247470158797
 20
0.0
 30
0.0
  0
TEXT
  5
89
330
EF7C85532
100
AcDbEntity
  8
SUNPOU
100
AcDbText
 10
1030.010197804895
 20
43.7966872748706
 30
0.0
 40
1.5
  1
                          
100
AcDbText
  0
TEXT
  5
8A
330
EF7C85532
100
AcDbEntity
  8
SUNPOU
100
AcDbText
 10
1267.230848839808
 20
21.8983436374353
 30
0.0
 40
0.75
  1
                          
100
AcDbText
  0
TEXT
  5
8B
330
EF7C85532
100
AcDbEntity
  8
SUNPOU
100
AcDbText
 10
1019.048659343358
 20
43.7966872748706
 30
0.0
 40
1.5
  1
                          
100
AcDbText
  0
TEXT
  5
8C
330
EF7C85532
100
AcDbEntity
  8
SUNPOU
100
AcDbText
 10
1256.269310378271
 20
21.8983436374353
 30
0.0
 40
0.75
  1
                          
100
AcDbText
  0
INSERT
  5
8D
330
EF7C85532
100
AcDbEntity
  8
JISSEN
100
AcDbBlockReference
  2
STDGX5
 10
536.999998568
 20
0.0
 30
0.0
  0
INSERT
  5
8E
330
EF7C85532
100
AcDbEntity
  8
SUNPOU
100
AcDbBlockReference
  2
STDGX5
 10
739.0804232644236
 20
50.83533235670902
 30
0.0
 41
0.5
 42
0.5
 43
0.5
  0
INSERT
  5
8F
330
EF7C85532
100
AcDbEntity
  8
SUNPOU
100
AcDbBlockReference
  2
STDGX5
 10
726.2208210623692
 20
105.0763138619288
 30
0.0
 41
0.5
 42
0.5
 43
0.5
  0
INSERT
  5
90
330
EF7C85532
100
AcDbEntity
  8
HATCH
100
AcDbBlockReference
  2
STDGX5
 10
852.3985550581901
 20
151.7065097967401
 30
0.0
 41
0.5
 42
0.5
 43
0.5
  0
INSERT
  5
91
330
EF7C85532
100
AcDbEntity
  8
HATCH
100
AcDbBlockReference
  2
STDGX5
 10
866.6806796277283
 20
102.7017487639612
 30
0.0
 41
0.5
 42
0.5
 43
0.5
  0
INSERT
  5
92
330
EF7C85532
100
AcDbEntity
  8
TEXT
100
AcDbBlockReference
  2
STDGX5
 10
970.3434408521969
 20
102.8213468229236
 30
0.0
 41
0.5
 42
0.5
 43
0.5
  0
INSERT
  5
93
330
EF7C85532
100
AcDbEntity
  8
SUNPOU
100
AcDbBlockReference
  2
STDGX5
 10
996.1728907397867
 20
174.5475645486173
 30
0.0
 41
0.5
 42
0.5
 43
0.5
  0
INSERT
  5
94
330
EF7C85532
100
AcDbEntity
  8
TEXT
100
AcDbBlockReference
  2
STDGX5
 10
725.7513886810995
 20
124.5860190441302
 30
0.0
 41
0.5
 42
0.5
 43
0.5
  0
INSERT
  5
95
330
EF7C85532
100
AcDbEntity
  8
HATCH
100
AcDbBlockReference
  2
STDGX5
 10
777.1755722656421
 20
145.5222028932424
 30
0.0
 41
0.5
 42
0.5
 43
0.5
  0
INSERT
  5
96
330
EF7C85532
100
AcDbEntity
  8
SUNPOU
100
AcDbBlockReference
  2
STDGX5
 10
846.1963575359604
 20
112.6957974729892
 30
0.0
 41
0.5
 42
0.5
 43
0.5
  0
INSERT
  5
97
330
EF7C85532
100
AcDbEntity
  8
SUNPOU
100
AcDbBlockReference
  2
STDGX5
 10
916.6681156211122
 20
121.7330617103083
 30
0.0
 41
0.5
 42
0.5
 43
0.5
  0
INSERT
  5
98
330
EF7C85532
100
AcDbEntity
  8
TEXT
100
AcDbBlockReference
  2
STDGX5
 10
983.7969461426766
 20
84.61852224867081
 30
0.0
 41
0.5
 42
0.5
 43
0.5
  0
INSERT
  5
99
330
EF7C85532
100
AcDbEntity
  8
HATCH
100
AcDbBlockReference
  2
STDGX5
 10
974.2802715042101
 20
136.484938655923
 30
0.0
 41
0.5
 42
0.5
 43
0.5
  0
INSERT
  5
9A
330
EF7C85532
100
AcDbEntity
  8
SUNPOU
100
AcDbBlockReference
  2
STDGX5
 10
749.7834008663487
 20
95.14721172234004
 30
0.0
 41
0.5
 42
0.5
 43
0.5
  0
INSERT
  5
9B
330
EF7C85532
100
AcDbEntity
  8
SUNPOU
100
AcDbBlockReference
  2
STDGX5
 10
736.9237986642947
 20
149.3881932275598
 30
0.0
 41
0.5
 42
0.5
 43
0.5
  0
INSERT
  5
9C
330
EF7C85532
100
AcDbEntity
  8
HATCH
100
AcDbBlockReference
  2
STDGX5
 10
863.1015326601156
 20
196.0183891623711
 30
0.0
 41
0.5
 42
0.5
 43
0.5
  0
INSERT
  5
9D
330
EF7C85532
100
AcDbEntity
  8
HATCH
100
AcDbBlockReference
  2
STDGX5
 10
877.3836572296538
 20
147.0136281295921
 30
0.0
 41
0.5
 42
0.5
 43
0.5
  0
INSERT
  5
9E
330
EF7C85532
100
AcDbEntity
  8
TEXT
100
AcDbBlockReference
  2
STDGX5
 10
981.0464184541222
 20
147.1332261885546
 30
0.0
 41
0.5
 42
0.5
 43
0.5
  0
INSERT
  5
9F
330
EF7C85532
100
AcDbEntity
  8
SUNPOU
100
AcDbBlockReference
  2
STDGX5
 10
1006.875868341712
 20
218.8594439142483
 30
0.0
 41
0.5
 42
0.5
 43
0.5
  0
INSERT
  5
A0
330
EF7C85532
100
AcDbEntity
  8
TEXT
100
AcDbBlockReference
  2
STDGX5
 10
736.454366283025
 20
168.8978984097611
 30
0.0
 41
0.5
 42
0.5
 43
0.5
  0
INSERT
  5
A1
330
EF7C85532
100
AcDbEntity
  8
HATCH
100
AcDbBlockReference
  2
STDGX5
 10
787.8785498675677
 20
189.8340822588733
 30
0.0
 41
0.5
 42
0.5
 43
0.5
  0
INSERT
  5
A2
330
EF7C85532
100
AcDbEntity
  8
SUNPOU
100
AcDbBlockReference
  2
STDGX5
 10
856.899335137886
 20
157.0076768386202
 30
0.0
 41
0.5
 42
0.5
 43
0.5
  0
INSERT
  5
A3
330
EF7C85532
100
AcDbEntity
  8
SUNPOU
100
AcDbBlockReference
  2
STDGX5
 10
927.3710932230379
 20
166.0449410759395
 30
0.0
 41
0.5
 42
0.5
 43
0.5
  0
INSERT
  5
A4
330
EF7C85532
100
AcDbEntity
  8
TEXT
100
AcDbBlockReference
  2
STDGX5
 10
994.4999237446024
 20
128.9304016143016
 30
0.0
 41
0.5
 42
0.5
 43
0.5
  0
INSERT
  5
A5
330
EF7C85532
100
AcDbEntity
  8
HATCH
100
AcDbBlockReference
  2
STDGX5
 10
984.9832491061354
 20
180.7968180215541
 30
0.0
 41
0.5
 42
0.5
 43
0.5
  0
TEXT
  5
DE
330
EF7C85532
100
AcDbEntity
  8
SUNPOU
100
AcDbText
 10
274.0586949361738
 20
43.7966872748706
 30
0.0
 40
1.5
  1
                          
100
AcDbText
  0
TEXT
  5
145
330
EF7C85532
100
AcDbEntity
  8
SUNPOU
100
AcDbText
 10
511.2793459710869
 20
21.8983436374353
 30
0.0
 40
0.75
  1
                          
100
AcDbText
  0
TEXT
  5
265
330
EF7C85532
100
AcDbEntity
  8
SUNPOU
100
AcDbText
 10
474.702507645204
 20
43.79668727487056
 30
0.0
 40
1.5
  1
                          
100
AcDbText
  0
TEXT
  5
266
330
EF7C85532
100
AcDbEntity
  8
SUNPOU
100
AcDbText
 10
711.923158680117
 20
21.89834363743526
 30
0.0
 40
0.75
  1
                          
100
AcDbText
  0
INSERT
  5
2F7
330
EF7C85532
100
AcDbEntity
  8
HATCH
100
AcDbBlockReference
  2
*X4
 10
178.999999284
 20
0.0
 30
0.0
  0
TEXT
  5
31A
330
EF7C85532
100
AcDbEntity
  8
SUNPOU
100
AcDbText
 10
477.0854500730166
 20
43.7966872748706
 30
0.0
 40
1.5
  1
                          
100
AcDbText
  0
TEXT
  5
31C
330
EF7C85532
100
AcDbEntity
  8
SUNPOU
100
AcDbText
 10
714.3061011079296
 20
21.8983436374353
 30
0.0
 40
0.75
  1
                          
100
AcDbText
  0
TEXT
  5
3A6
330
EF7C85532
100
AcDbEntity
  8
TEXT
100
AcDbText
 10
100.9999992839998
 20
244.9999999999999
 30
0.0
 40
3.0
  1
 
  7
K
100
AcDbText
  0
TEXT
  5
3AB
330
EF7C85532
100
AcDbEntity
  8
SUNPOU
100
AcDbText
 10
466.1239116114783
 20
43.7966872748706
 30
0.0
 40
1.5
  1
                          
100
AcDbText
  0
TEXT
  5
3AC
330
EF7C85532
100
AcDbEntity
  8
SUNPOU
100
AcDbText
 10
703.3445626463913
 20
21.8983436374353
 30
0.0
 40
0.75
  1
                          
100
AcDbText
  0
INSERT
  5
3F6
330
EF7C85532
100
AcDbEntity
  8
TEXT
100
AcDbBlockReference
  2
STDGX5
 10
178.999999284
 20
0.0
 30
0.0
  0
TEXT
  5
3F7
330
EF7C85532
100
AcDbEntity
  8
SUNPOU
100
AcDbText
 10
453.0586949361739
 20
43.7966872748706
 30
0.0
 40
1.5
  1
                          
100
AcDbText
  0
TEXT
  5
3F8
330
EF7C85532
100
AcDbEntity
  8
SUNPOU
100
AcDbText
 10
690.2793459710871
 20
21.8983436374353
 30
0.0
 40
0.75
  1
                          
100
AcDbText
  0
TEXT
  5
3F9
330
EF7C85532
100
AcDbEntity
  8
SUNPOU
100
AcDbText
 10
647.9834433840535
 20
43.7966872748706
 30
0.0
 40
1.5
  1
                          
100
AcDbText
  0
TEXT
  5
3FA
330
EF7C85532
100
AcDbEntity
  8
SUNPOU
100
AcDbText
 10
885.2040944189665
 20
21.8983436374353
 30
0.0
 40
0.75
  1
                          
100
AcDbText
  0
TEXT
  5
3FB
330
EF7C85532
100
AcDbEntity
  8
SUNPOU
100
AcDbText
 10
848.6272560930835
 20
43.79668727487056
 30
0.0
 40
1.5
  1
                          
100
AcDbText
  0
TEXT
  5
3FC
330
EF7C85532
100
AcDbEntity
  8
SUNPOU
100
AcDbText
 10
1085.847907127996
 20
21.89834363743526
 30
0.0
 40
0.75
  1
                          
100
AcDbText
  0
INSERT
  5
3FD
330
EF7C85532
100
AcDbEntity
  8
HATCH
100
AcDbBlockReference
  2
*X5
 10
552.9247477318796
 20
0.0
 30
0.0
  0
TEXT
  5
3FE
330
EF7C85532
100
AcDbEntity
  8
SUNPOU
100
AcDbText
 10
851.0101985208963
 20
43.7966872748706
 30
0.0
 40
1.5
  1
                          
100
AcDbText
  0
TEXT
  5
3FF
330
EF7C85532
100
AcDbEntity
  8
SUNPOU
100
AcDbText
 10
1088.230849555809
 20
21.8983436374353
 30
0.0
 40
0.75
  1
                          
100
AcDbText
  0
TEXT
  5
400
330
EF7C85532
100
AcDbEntity
  8
SUNPOU
100
AcDbText
 10
840.048660059358
 20
43.7966872748706
 30
0.0
 40
1.5
  1
                          
100
AcDbText
  0
TEXT
  5
401
330
EF7C85532
100
AcDbEntity
  8
SUNPOU
100
AcDbText
 10
1077.269311094271
 20
21.8983436374353
 30
0.0
 40
0.75
  1
                          
100
AcDbText
  0
INSERT
  5
402
330
EF7C85532
100
AcDbEntity
  8
JISSEN
100
AcDbBlockReference
  2
STDGX5
 10
357.999999284
 20
0.0
 30
0.0
  0
TEXT
  5
409
330
EF7C85532
100
AcDbEntity
  8
SUNPOU
100
AcDbText
 10
453.0586949361739
 20
43.7966872748706
 30
0.0
 40
1.5
  1
                          
100
AcDbText
  0
TEXT
  5
40A
330
EF7C85532
100
AcDbEntity
  8
SUNPOU
100
AcDbText
 10
690.2793459710871
 20
21.8983436374353
 30
0.0
 40
0.75
  1
                          
100
AcDbText
  0
TEXT
  5
41B
330
EF7C85532
100
AcDbEntity
  8
SUNPOU
100
AcDbText
 10
647.9834433840535
 20
43.7966872748706
 30
0.0
 40
1.5
  1
                          
100
AcDbText
  0
TEXT
  5
41C
330
EF7C85532
100
AcDbEntity
  8
SUNPOU
100
AcDbText
 10
885.2040944189665
 20
21.8983436374353
 30
0.0
 40
0.75
  1
                          
100
AcDbText
  0
TEXT
  5
41D
330
EF7C85532
100
AcDbEntity
  8
SUNPOU
100
AcDbText
 10
848.6272560930835
 20
43.79668727487056
 30
0.0
 40
1.5
  1
                          
100
AcDbText
  0
TEXT
  5
41E
330
EF7C85532
100
AcDbEntity
  8
SUNPOU
100
AcDbText
 10
1085.847907127996
 20
21.89834363743526
 30
0.0
 40
0.75
  1
                          
100
AcDbText
  0
INSERT
  5
41F
330
EF7C85532
100
AcDbEntity
  8
HATCH
100
AcDbBlockReference
  2
*X6
 10
552.9247477318796
 20
0.0
 30
0.0
  0
TEXT
  5
420
330
EF7C85532
100
AcDbEntity
  8
SUNPOU
100
AcDbText
 10
851.0101985208963
 20
43.7966872748706
 30
0.0
 40
1.5
  1
                          
100
AcDbText
  0
TEXT
  5
421
330
EF7C85532
100
AcDbEntity
  8
SUNPOU
100
AcDbText
 10
1088.230849555809
 20
21.8983436374353
 30
0.0
 40
0.75
  1
                          
100
AcDbText
  0
TEXT
  5
422
330
EF7C85532
100
AcDbEntity
  8
SUNPOU
100
AcDbText
 10
840.048660059358
 20
43.7966872748706
 30
0.0
 40
1.5
  1
                          
100
AcDbText
  0
TEXT
  5
423
330
EF7C85532
100
AcDbEntity
  8
SUNPOU
100
AcDbText
 10
1077.269311094271
 20
21.8983436374353
 30
0.0
 40
0.75
  1
                          
100
AcDbText
  0
INSERT
  5
424
330
EF7C85532
100
AcDbEntity
  8
JISSEN
100
AcDbBlockReference
  2
STDGX5
 10
357.999999284
 20
0.0
 30
0.0
  0
TEXT
  5
425
330
EF7C85532
100
AcDbEntity
  8
SUNPOU
100
AcDbText
 10
632.0586942201737
 20
43.7966872748706
 30
0.0
 40
1.5
  1
                          
100
AcDbText
  0
TEXT
  5
426
330
EF7C85532
100
AcDbEntity
  8
SUNPOU
100
AcDbText
 10
869.2793452550871
 20
21.8983436374353
 30
0.0
 40
0.75
  1
                          
100
AcDbText
  0
TEXT
  5
427
330
EF7C85532
100
AcDbEntity
  8
SUNPOU
100
AcDbText
 10
826.9834426680532
 20
43.7966872748706
 30
0.0
 40
1.5
  1
                          
100
AcDbText
  0
TEXT
  5
428
330
EF7C85532
100
AcDbEntity
  8
SUNPOU
100
AcDbText
 10
1064.204093702966
 20
21.8983436374353
 30
0.0
 40
0.75
  1
                          
100
AcDbText
  0
TEXT
  5
429
330
EF7C85532
100
AcDbEntity
  8
SUNPOU
100
AcDbText
 10
1027.627255377083
 20
43.79668727487056
 30
0.0
 40
1.5
  1
                          
100
AcDbText
  0
TEXT
  5
42A
330
EF7C85532
100
AcDbEntity
  8
SUNPOU
100
AcDbText
 10
1264.847906411996
 20
21.89834363743526
 30
0.0
 40
0.75
  1
                          
100
AcDbText
  0
INSERT
  5
42B
330
EF7C85532
100
AcDbEntity
  8
HATCH
100
AcDbBlockReference
  2
*X7
 10
731.9247470158797
 20
0.0
 30
0.0
  0
TEXT
  5
42C
330
EF7C85532
100
AcDbEntity
  8
SUNPOU
100
AcDbText
 10
1030.010197804895
 20
43.7966872748706
 30
0.0
 40
1.5
  1
                          
100
AcDbText
  0
TEXT
  5
42D
330
EF7C85532
100
AcDbEntity
  8
SUNPOU
100
AcDbText
 10
1267.230848839808
 20
21.8983436374353
 30
0.0
 40
0.75
  1
                          
100
AcDbText
  0
TEXT
  5
42E
330
EF7C85532
100
AcDbEntity
  8
SUNPOU
100
AcDbText
 10
1019.048659343358
 20
43.7966872748706
 30
0.0
 40
1.5
  1
                          
100
AcDbText
  0
TEXT
  5
42F
330
EF7C85532
100
AcDbEntity
  8
SUNPOU
100
AcDbText
 10
1256.269310378271
 20
21.8983436374353
 30
0.0
 40
0.75
  1
                          
100
AcDbText
  0
INSERT
  5
430
330
EF7C85532
100
AcDbEntity
  8
JISSEN
100
AcDbBlockReference
  2
STDGX5
 10
536.999998568
 20
0.0
 30
0.0
  0
INSERT
  5
43B
330
EF7C85532
100
AcDbEntity
  8
SUNPOU
100
AcDbBlockReference
  2
STDGX5
 10
739.0804232644236
 20
50.83533235670902
 30
0.0
 41
0.5
 42
0.5
 43
0.5
  0
INSERT
  5
43C
330
EF7C85532
100
AcDbEntity
  8
SUNPOU
100
AcDbBlockReference
  2
STDGX5
 10
726.2208210623692
 20
105.0763138619288
 30
0.0
 41
0.5
 42
0.5
 43
0.5
  0
INSERT
  5
43D
330
EF7C85532
100
AcDbEntity
  8
HATCH
100
AcDbBlockReference
  2
STDGX5
 10
852.3985550581901
 20
151.7065097967401
 30
0.0
 41
0.5
 42
0.5
 43
0.5
  0
INSERT
  5
43E
330
EF7C85532
100
AcDbEntity
  8
HATCH
100
AcDbBlockReference
  2
STDGX5
 10
866.6806796277283
 20
102.7017487639612
 30
0.0
 41
0.5
 42
0.5
 43
0.5
  0
INSERT
  5
43F
330
EF7C85532
100
AcDbEntity
  8
TEXT
100
AcDbBlockReference
  2
STDGX5
 10
970.3434408521969
 20
102.8213468229236
 30
0.0
 41
0.5
 42
0.5
 43
0.5
  0
INSERT
  5
440
330
EF7C85532
100
AcDbEntity
  8
SUNPOU
100
AcDbBlockReference
  2
STDGX5
 10
996.1728907397867
 20
174.5475645486173
 30
0.0
 41
0.5
 42
0.5
 43
0.5
  0
INSERT
  5
441
330
EF7C85532
100
AcDbEntity
  8
TEXT
100
AcDbBlockReference
  2
STDGX5
 10
725.7513886810995
 20
124.5860190441302
 30
0.0
 41
0.5
 42
0.5
 43
0.5
  0
INSERT
  5
442
330
EF7C85532
100
AcDbEntity
  8
HATCH
100
AcDbBlockReference
  2
STDGX5
 10
777.1755722656421
 20
145.5222028932424
 30
0.0
 41
0.5
 42
0.5
 43
0.5
  0
INSERT
  5
443
330
EF7C85532
100
AcDbEntity
  8
SUNPOU
100
AcDbBlockReference
  2
STDGX5
 10
846.1963575359604
 20
112.6957974729892
 30
0.0
 41
0.5
 42
0.5
 43
0.5
  0
INSERT
  5
444
330
EF7C85532
100
AcDbEntity
  8
SUNPOU
100
AcDbBlockReference
  2
STDGX5
 10
916.6681156211122
 20
121.7330617103083
 30
0.0
 41
0.5
 42
0.5
 43
0.5
  0
INSERT
  5
445
330
EF7C85532
100
AcDbEntity
  8
TEXT
100
AcDbBlockReference
  2
STDGX5
 10
983.7969461426766
 20
84.61852224867081
 30
0.0
 41
0.5
 42
0.5
 43
0.5
  0
INSERT
  5
446
330
EF7C85532
100
AcDbEntity
  8
HATCH
100
AcDbBlockReference
  2
STDGX5
 10
974.2802715042101
 20
136.484938655923
 30
0.0
 41
0.5
 42
0.5
 43
0.5
  0
INSERT
  5
447
330
EF7C85532
100
AcDbEntity
  8
SUNPOU
100
AcDbBlockReference
  2
STDGX5
 10
749.7834008663487
 20
95.14721172234004
 30
0.0
 41
0.5
 42
0.5
 43
0.5
  0
INSERT
  5
448
330
EF7C85532
100
AcDbEntity
  8
SUNPOU
100
AcDbBlockReference
  2
STDGX5
 10
736.9237986642947
 20
149.3881932275598
 30
0.0
 41
0.5
 42
0.5
 43
0.5
  0
INSERT
  5
449
330
EF7C85532
100
AcDbEntity
  8
HATCH
100
AcDbBlockReference
  2
STDGX5
 10
863.1015326601156
 20
196.0183891623711
 30
0.0
 41
0.5
 42
0.5
 43
0.5
  0
INSERT
  5
44A
330
EF7C85532
100
AcDbEntity
  8
HATCH
100
AcDbBlockReference
  2
STDGX5
 10
877.3836572296538
 20
147.0136281295921
 30
0.0
 41
0.5
 42
0.5
 43
0.5
  0
INSERT
  5
44B
330
EF7C85532
100
AcDbEntity
  8
TEXT
100
AcDbBlockReference
  2
STDGX5
 10
981.0464184541222
 20
147.1332261885546
 30
0.0
 41
0.5
 42
0.5
 43
0.5
  0
INSERT
  5
44C
330
EF7C85532
100
AcDbEntity
  8
SUNPOU
100
AcDbBlockReference
  2
STDGX5
 10
1006.875868341712
 20
218.8594439142483
 30
0.0
 41
0.5
 42
0.5
 43
0.5
  0
INSERT
  5
44D
330
EF7C85532
100
AcDbEntity
  8
TEXT
100
AcDbBlockReference
  2
STDGX5
 10
736.454366283025
 20
168.8978984097611
 30
0.0
 41
0.5
 42
0.5
 43
0.5
  0
INSERT
  5
44E
330
EF7C85532
100
AcDbEntity
  8
HATCH
100
AcDbBlockReference
  2
STDGX5
 10
787.8785498675677
 20
189.8340822588733
 30
0.0
 41
0.5
 42
0.5
 43
0.5
  0
INSERT
  5
44F
330
EF7C85532
100
AcDbEntity
  8
SUNPOU
100
AcDbBlockReference
  2
STDGX5
 10
856.899335137886
 20
157.0076768386202
 30
0.0
 41
0.5
 42
0.5
 43
0.5
  0
INSERT
  5
450
330
EF7C85532
100
AcDbEntity
  8
SUNPOU
100
AcDbBlockReference
  2
STDGX5
 10
927.3710932230379
 20
166.0449410759395
 30
0.0
 41
0.5
 42
0.5
 43
0.5
  0
INSERT
  5
451
330
EF7C85532
100
AcDbEntity
  8
TEXT
100
AcDbBlockReference
  2
STDGX5
 10
994.4999237446024
 20
128.9304016143016
 30
0.0
 41
0.5
 42
0.5
 43
0.5
  0
INSERT
  5
452
330
EF7C85532
100
AcDbEntity
  8
HATCH
100
AcDbBlockReference
  2
STDGX5
 10
984.9832491061354
 20
180.7968180215541
 30
0.0
 41
0.5
 42
0.5
 43
0.5
  0
INSERT
  5
4CF3
330
EF7C85532
100
AcDbEntity
  8
JISSEN
100
AcDbBlockReference
  2
STDR12J
 10
0.0
 20
0.0
 30
0.0
  0
LINE
  5
EF7C87C8D
330
EF7C85532
100
AcDbEntity
  8
TEXT
100
AcDbLine
 10
295.0188292871212
 20
272.6422241166537
 30
0.0
 11
296.8188292871209
 21
272.6422241166537
 31
0.0
  0
LINE
  5
EF7C87C90
330
EF7C85532
100
AcDbEntity
  8
TEXT
100
AcDbLine
 10
295.0188292871212
 20
275.6422241166537
 30
0.0
 11
296.8188292871209
 21
275.6422241166537
 31
0.0
  0
LINE
  5
EF7C88893
330
EF7C85532
100
AcDbEntity
  8
TENSEN
100
AcDbLine
 10
80.42970779485381
 20
85.91899672703666
 30
0.0
 11
78.3559457152412
 21
85.13900766022755
 31
0.0
  0
ARC
  5
EF7C88894
330
EF7C85532
100
AcDbEntity
  8
TENSEN
100
AcDbCircle
 10
90.00008343801608
 20
89.51863259670096
 30
0.0
 40
12.44054090026352
100
AcDbArc
 50
157.3126187070864
 51
200.612421563193
  0
LINE
  5
EF7C88895
330
EF7C85532
100
AcDbEntity
  8
TENSEN
100
AcDbLine
 10
80.56631485121727
 20
93.46242247398121
 30
0.0
 11
78.5221535463138
 21
94.31698474012453
 31
0.0
  0
ARC
  5
EF7C88896
330
EF7C85532
100
AcDbEntity
  8
TENSEN
100
AcDbCircle
 10
90.00008343801608
 20
89.51863259670096
 30
0.0
 40
10.22494343971685
100
AcDbArc
 50
157.3126187070864
 51
200.612421563193
  0
LINE
  5
EF7C88897
330
EF7C85532
100
AcDbEntity
  8
TENSEN
100
AcDbLine
 10
89.32911588859225
 20
79.31572757445221
 30
0.0
 11
89.1837269182398
 21
77.10490552044588
 31
0.0
  0
LINE
  5
EF7C88898
330
EF7C85532
100
AcDbEntity
  8
TENSEN
100
AcDbLine
 10
82.51445598293333
 20
82.55337237549463
 30
0.0
 11
80.89242870445877
 21
81.04410115564538
 31
0.0
  0
ARC
  5
EF7C88899
330
EF7C85532
100
AcDbEntity
  8
TENSEN
100
AcDbCircle
 10
90.00008343801608
 20
89.51863259670096
 30
0.0
 40
12.44054090026352
100
AcDbArc
 50
222.9377066468629
 51
266.2375095029705
  0
ARC
  5
EF7C8889A
330
EF7C85532
100
AcDbEntity
  8
TENSEN
100
AcDbCircle
 10
90.00008343801608
 20
89.51863259670096
 30
0.0
 40
10.22494343971685
100
AcDbArc
 50
222.9377066468629
 51
266.2375095029705
  0
LINE
  5
EF7C8889B
330
EF7C85532
100
AcDbEntity
  8
JISSEN
100
AcDbLine
 10
71.96713979702906
 20
77.95260719291654
 30
0.0
 11
70.96713979702906
 21
79.68465800048543
 31
0.0
  0
ARC
  5
EF7C8889C
330
EF7C85532
100
AcDbEntity
  8
JISSEN
100
AcDbCircle
 10
90.00008343801608
 20
89.51863259670096
 30
0.0
 40
23.35
100
AcDbArc
 50
206.3167926881416
 51
213.6832073118588
  0
LINE
  5
EF7C8889D
330
EF7C85532
100
AcDbEntity
  8
JISSEN
100
AcDbLine
 10
70.28412709513725
 20
79.86767070237696
 30
0.0
 11
67.98550020673724
 21
78.5405578495926
 31
0.0
  0
ARC
  5
EF7C8889E
330
EF7C85532
100
AcDbEntity
  8
JISSEN
100
AcDbCircle
 10
90.00008343801608
 20
89.51863259670096
 30
0.0
 40
23.35
100
AcDbArc
 50
326.3167926881412
 51
333.6832073118583
  0
LINE
  5
EF7C8889F
330
EF7C85532
100
AcDbEntity
  8
JISSEN
100
AcDbLine
 10
109.0330270790029
 20
79.68465800048543
 30
0.0
 11
108.0330270790029
 21
77.95260719291651
 31
0.0
  0
LINE
  5
EF7C888A0
330
EF7C85532
100
AcDbEntity
  8
JISSEN
100
AcDbLine
 10
109.7160397808957
 20
79.86767070237831
 30
0.0
 11
112.0146666692956
 21
78.54055784959413
 31
0.0
  0
ARC
  5
EF7C888A1
330
EF7C85532
100
AcDbEntity
  8
JISSEN
100
AcDbCircle
 10
90.00008343801608
 20
89.51863259670096
 30
0.0
 40
26.5
100
AcDbArc
 50
182.162233192218
 51
267.8377668077819
  0
CIRCLE
  5
EF7C888A2
330
EF7C85532
100
AcDbEntity
  8
NITEN
100
AcDbCircle
 10
90.00008343801608
 20
89.51863259670096
 30
0.0
 40
14.5
  0
ARC
  5
EF7C888A3
330
EF7C85532
100
AcDbEntity
  8
JISSEN
100
AcDbCircle
 10
90.00008343801608
 20
89.51863259670096
 30
0.0
 40
24.6
100
AcDbArc
 50
180.0
 51
0.0
  0
ARC
  5
EF7C888A4
330
EF7C85532
100
AcDbEntity
  8
JISSEN
100
AcDbCircle
 10
90.00008343801608
 20
89.51863259670096
 30
0.0
 40
24.6
100
AcDbArc
 50
0.0
 51
180.0
  0
CIRCLE
  5
EF7C888A5
330
EF7C85532
100
AcDbEntity
  8
JISSEN
100
AcDbCircle
 10
90.00008343801619
 20
89.51863259670096
 30
0.0
 40
25.5
  0
ARC
  5
EF7C888A6
330
EF7C85532
100
AcDbEntity
  8
JISSEN
100
AcDbCircle
 10
90.00008343801608
 20
89.51863259670096
 30
0.0
 40
26.5
100
AcDbArc
 50
272.162233192218
 51
357.8377668077819
  0
CIRCLE
  5
EF7C888A7
330
EF7C85532
100
AcDbEntity
  8
JISSEN
100
AcDbCircle
 10
90.00008343801608
 20
89.51863259670096
 30
0.0
 40
13.25
  0
LINE
  5
EF7C888A8
330
EF7C85532
100
AcDbEntity
  8
JISSEN
100
AcDbLine
 10
80.1925047117678
 20
66.95823810705509
 30
0.0
 11
81.10030336800504
 21
69.45239441647807
 31
0.0
  0
ARC
  5
EF7C888A9
330
EF7C85532
100
AcDbEntity
  8
JISSEN
100
AcDbCircle
 10
91.00008343801608
 20
67.61863259670093
 30
0.0
 40
0.5
100
AcDbArc
 50
0.0
 51
90.0
  0
ARC
  5
EF7C888AA
330
EF7C85532
100
AcDbEntity
  8
JISSEN
100
AcDbCircle
 10
89.00008343801607
 20
67.61863259670093
 30
0.0
 40
0.5
100
AcDbArc
 50
90.0
 51
180.0
  0
ARC
  5
EF7C888AB
330
EF7C85532
100
AcDbEntity
  8
JISSEN
100
AcDbCircle
 10
90.00008343801608
 20
89.51863259670096
 30
0.0
 40
23.35
100
AcDbArc
 50
246.3167926881404
 51
253.6832073118582
  0
LINE
  5
EF7C888AC
330
EF7C85532
100
AcDbEntity
  8
JISSEN
100
AcDbLine
 10
98.89986350802713
 20
69.45239441647807
 30
0.0
 11
99.80766216426424
 21
66.95823810705509
 31
0.0
  0
ARC
  5
EF7C888AD
330
EF7C85532
100
AcDbEntity
  8
JISSEN
100
AcDbCircle
 10
90.00008343801608
 20
89.51863259670096
 30
0.0
 40
23.35
100
AcDbArc
 50
286.3167926881416
 51
293.6832073118593
  0
LINE
  5
EF7C888AE
330
EF7C85532
100
AcDbEntity
  8
JISSEN
100
AcDbLine
 10
83.91938123036277
 20
68.42633398650106
 30
0.0
 11
83.01158257412556
 21
65.93217767707812
 31
0.0
  0
LINE
  5
EF7C888AF
330
EF7C85532
100
AcDbEntity
  8
JISSEN
100
AcDbLine
 10
96.98858430190648
 20
65.93217767707809
 30
0.0
 11
96.08078564566927
 21
68.42633398650106
 31
0.0
  0
LINE
  5
EF7C888B0
330
EF7C85532
100
AcDbEntity
  8
JISSEN
100
AcDbLine
 10
88.50008343801608
 20
64.96440689113249
 30
0.0
 11
88.50008343801608
 21
67.61863259670093
 31
0.0
  0
LINE
  5
EF7C888B1
330
EF7C85532
100
AcDbEntity
  8
JISSEN
100
AcDbLine
 10
91.50008343801607
 20
67.61863259670093
 30
0.0
 11
91.50008343801607
 21
64.96440689113249
 31
0.0
  0
ARC
  5
EF7C888B2
330
EF7C85532
100
AcDbEntity
  8
JISSEN
100
AcDbCircle
 10
90.00008343801608
 20
63.01863259670097
 30
0.0
 40
1.0
100
AcDbArc
 50
1.08111659610956
 51
178.9188834038904
  0
ARC
  5
EF7C888B3
330
EF7C85532
100
AcDbEntity
  8
JISSEN
100
AcDbCircle
 10
90.00008343801608
 20
89.51863259670096
 30
0.0
 40
23.35
100
AcDbArc
 50
266.3167926881413
 51
273.6832073118586
  0
LINE
  5
EF7C888B4
330
EF7C85532
100
AcDbEntity
  8
JISSEN
100
AcDbLine
 10
73.06786472435146
 20
71.67318585439085
 30
0.0
 11
74.77396812120241
 21
73.70644070692513
 31
0.0
  0
LINE
  5
EF7C888B5
330
EF7C85532
100
AcDbEntity
  8
JISSEN
100
AcDbLine
 10
75.47838414760509
 20
73.76806912364137
 30
0.0
 11
77.01047303384303
 21
72.48249390426828
 31
0.0
  0
LINE
  5
EF7C888B6
330
EF7C85532
100
AcDbEntity
  8
JISSEN
100
AcDbLine
 10
105.2261987548297
 20
73.70644070692513
 30
0.0
 11
106.9323021516805
 21
71.67318585439092
 31
0.0
  0
LINE
  5
EF7C888B7
330
EF7C85532
100
AcDbEntity
  8
JISSEN
100
AcDbLine
 10
102.989693842189
 20
72.48249390426828
 30
0.0
 11
104.5217827284269
 21
73.76806912364137
 31
0.0
  0
ARC
  5
EF7C888B8
330
EF7C85532
100
AcDbEntity
  8
JISSEN
100
AcDbCircle
 10
90.00008343801608
 20
89.51863259670096
 30
0.0
 40
23.35
100
AcDbArc
 50
226.3167926881409
 51
233.6832073118579
  0
LINE
  5
EF7C888B9
330
EF7C85532
100
AcDbEntity
  8
JISSEN
100
AcDbLine
 10
77.07210145055933
 20
71.77807787786552
 30
0.0
 11
75.36599805370838
 21
69.74482302533125
 31
0.0
  0
ARC
  5
EF7C888BA
330
EF7C85532
100
AcDbEntity
  8
JISSEN
100
AcDbCircle
 10
90.00008343801608
 20
89.51863259670096
 30
0.0
 40
23.35
100
AcDbArc
 50
306.316792688142
 51
313.6832073118588
  0
LINE
  5
EF7C888BB
330
EF7C85532
100
AcDbEntity
  8
JISSEN
100
AcDbLine
 10
104.6341688223236
 20
69.74482302533115
 30
0.0
 11
102.9280654254727
 21
71.77807787786552
 31
0.0
  0
LINE
  5
EF7C888BC
330
EF7C85532
100
AcDbEntity
  8
JISSEN
100
AcDbLine
 10
89.00008343801607
 20
68.11863259670094
 30
0.0
 11
91.00008343801608
 21
68.11863259670094
 31
0.0
  0
ARC
  5
EF7C888BD
330
EF7C85532
100
AcDbEntity
  8
JISSEN
100
AcDbCircle
 10
83.44953491996978
 20
68.59734405816389
 30
0.0
 40
0.5
100
AcDbArc
 50
339.9999999999999
 51
69.99999999999992
  0
ARC
  5
EF7C888BE
330
EF7C85532
100
AcDbEntity
  8
JISSEN
100
AcDbCircle
 10
96.55063195606226
 20
68.59734405816389
 30
0.0
 40
0.5
100
AcDbArc
 50
110.0
 51
200.0
  0
LINE
  5
EF7C888BF
330
EF7C85532
100
AcDbEntity
  8
JISSEN
100
AcDbLine
 10
81.74115975006088
 20
69.75123065520818
 30
0.0
 11
83.62054499163264
 21
69.06719036855687
 31
0.0
  0
ARC
  5
EF7C888C0
330
EF7C85532
100
AcDbEntity
  8
JISSEN
100
AcDbCircle
 10
81.57014967839803
 20
69.28138434481524
 30
0.0
 40
0.5
100
AcDbArc
 50
69.99999999999992
 51
159.9999999999998
  0
LINE
  5
EF7C888C1
330
EF7C85532
100
AcDbEntity
  8
JISSEN
100
AcDbLine
 10
96.37962188439951
 20
69.06719036855683
 30
0.0
 11
98.25900712597126
 21
69.75123065520818
 31
0.0
  0
ARC
  5
EF7C888C2
330
EF7C85532
100
AcDbEntity
  8
JISSEN
100
AcDbCircle
 10
98.43001719763414
 20
69.28138434481524
 30
0.0
 40
0.5
100
AcDbArc
 50
20.00000000000009
 51
110.0
  0
ARC
  5
EF7C888C3
330
EF7C85532
100
AcDbEntity
  8
JISSEN
100
AcDbCircle
 10
76.68907922899984
 20
72.09947168270879
 30
0.0
 40
0.5
100
AcDbArc
 50
319.9999999999998
 51
49.99999999999992
  0
ARC
  5
EF7C888C4
330
EF7C85532
100
AcDbEntity
  8
JISSEN
100
AcDbCircle
 10
103.3110876470322
 20
72.09947168270879
 30
0.0
 40
0.5
100
AcDbArc
 50
130.0
 51
220.0000000000001
  0
LINE
  5
EF7C888C5
330
EF7C85532
100
AcDbEntity
  8
JISSEN
100
AcDbLine
 10
71.78412709513725
 20
77.26959449102359
 30
0.0
 11
69.48550020673724
 21
75.94248163823936
 31
0.0
  0
LINE
  5
EF7C888C6
330
EF7C85532
100
AcDbEntity
  8
JISSEN
100
AcDbLine
 10
108.2160397808957
 20
77.26959449102494
 30
0.0
 11
110.5146666692957
 21
75.94248163824078
 31
0.0
  0
ARC
  5
EF7C888C7
330
EF7C85532
100
AcDbEntity
  8
JISSEN
100
AcDbCircle
 10
75.1569903427619
 20
73.38504690208188
 30
0.0
 40
0.5
100
AcDbArc
 50
49.99999999999992
 51
139.9999999999998
  0
ARC
  5
EF7C888C8
330
EF7C85532
100
AcDbEntity
  8
JISSEN
100
AcDbCircle
 10
104.8431765332702
 20
73.38504690208188
 30
0.0
 40
0.5
100
AcDbArc
 50
40.00000000000009
 51
130.0
  0
ARC
  5
EF7C888C9
330
EF7C85532
100
AcDbEntity
  8
JISSEN
100
AcDbCircle
 10
71.5341270951368
 20
77.70260719291652
 30
0.0
 40
0.5
100
AcDbArc
 50
299.9999999999997
 51
29.99999999999971
  0
ARC
  5
EF7C888CA
330
EF7C85532
100
AcDbEntity
  8
JISSEN
100
AcDbCircle
 10
108.4660397808952
 20
77.70260719291652
 30
0.0
 40
0.5
100
AcDbArc
 50
150.0
 51
240.0000000000002
  0
LINE
  5
EF7C888CB
330
EF7C85532
100
AcDbEntity
  8
JISSEN
100
AcDbLine
 10
71.96713979702917
 20
101.0846580004854
 30
0.0
 11
70.96713979702918
 21
99.35260719291663
 31
0.0
  0
ARC
  5
EF7C888CC
330
EF7C85532
100
AcDbEntity
  8
JISSEN
100
AcDbCircle
 10
90.00008343801608
 20
89.51863259670096
 30
0.0
 40
23.35
100
AcDbArc
 50
146.3167926881411
 51
153.6832073118581
  0
LINE
  5
EF7C888CD
330
EF7C85532
100
AcDbEntity
  8
JISSEN
100
AcDbLine
 10
108.0330270790029
 20
101.0846580004854
 30
0.0
 11
109.0330270790029
 21
99.35260719291653
 31
0.0
  0
ARC
  5
EF7C888CE
330
EF7C85532
100
AcDbEntity
  8
JISSEN
100
AcDbCircle
 10
90.00008343801608
 20
89.51863259670096
 30
0.0
 40
23.35
100
AcDbArc
 50
26.3167926881416
 51
33.6832073118588
  0
ARC
  5
EF7C888CF
330
EF7C85532
100
AcDbEntity
  8
JISSEN
100
AcDbCircle
 10
90.00008343801608
 20
89.51863259670096
 30
0.0
 40
26.5
100
AcDbArc
 50
92.16223319221807
 51
177.8377668077819
  0
ARC
  5
EF7C888D0
330
EF7C85532
100
AcDbEntity
  8
JISSEN
100
AcDbCircle
 10
90.00008343801608
 20
89.51863259670096
 30
0.0
 40
26.5
100
AcDbArc
 50
2.162233192218069
 51
87.83776680778194
  0
ARC
  5
EF7C888D1
330
EF7C85532
100
AcDbEntity
  8
JISSEN
100
AcDbCircle
 10
63.50008343801608
 20
89.51863259670096
 30
0.0
 40
1.0
100
AcDbArc
 50
271.0811165961095
 51
89.99999999999511
  0
ARC
  5
EF7C888D2
330
EF7C85532
100
AcDbEntity
  8
JISSEN
100
AcDbCircle
 10
116.5000834380159
 20
89.51863259670096
 30
0.0
 40
1.0
100
AcDbArc
 50
91.0811165961128
 51
268.918883403887
  0
CIRCLE
  5
EF7C888D3
330
EF7C85532
100
AcDbEntity
  8
JISSEN
100
AcDbCircle
 10
90.00008343801608
 20
89.51863259670096
 30
0.0
 40
1.25
  0
CIRCLE
  5
EF7C888D4
330
EF7C85532
100
AcDbEntity
  8
JISSEN
100
AcDbCircle
 10
90.00008343801608
 20
89.51863259670096
 30
0.0
 40
1.7
  0
CIRCLE
  5
EF7C888D5
330
EF7C85532
100
AcDbEntity
  8
TEXT
100
AcDbCircle
 10
90.00008343801608
 20
89.51863259670096
 30
0.0
 40
7.5
  0
CIRCLE
  5
EF7C888D6
330
EF7C85532
100
AcDbEntity
  8
TEXT
100
AcDbCircle
 10
90.00008343801608
 20
89.51863259670096
 30
0.0
 40
7.799999999999998
  0
CIRCLE
  5
EF7C888D7
330
EF7C85532
100
AcDbEntity
  8
JISSEN
100
AcDbCircle
 10
90.00008343801608
 20
89.51863259670096
 30
0.0
 40
9.25
  0
ARC
  5
EF7C888D8
330
EF7C85532
100
AcDbEntity
  8
JISSEN
100
AcDbCircle
 10
68.6064418247156
 20
84.73092975278301
 30
0.0
 40
0.5
100
AcDbArc
 50
280.0
 51
10.00000000000021
  0
ARC
  5
EF7C888D9
330
EF7C85532
100
AcDbEntity
  8
JISSEN
100
AcDbCircle
 10
111.3937250513165
 20
84.73092975278296
 30
0.0
 40
0.5
100
AcDbArc
 50
169.9999999999995
 51
259.9999999999998
  0
ARC
  5
EF7C888DA
330
EF7C85532
100
AcDbEntity
  8
JISSEN
100
AcDbCircle
 10
90.00008343801608
 20
89.51863259670096
 30
0.0
 40
23.35
100
AcDbArc
 50
186.3167926881401
 51
193.6832073118586
  0
ARC
  5
EF7C888DB
330
EF7C85532
100
AcDbEntity
  8
JISSEN
100
AcDbCircle
 10
90.00008343801608
 20
89.51863259670096
 30
0.0
 40
23.35
100
AcDbArc
 50
346.3167926881414
 51
353.6832073118581
  0
ARC
  5
EF7C888DC
330
EF7C85532
100
AcDbEntity
  8
JISSEN
100
AcDbCircle
 10
70.53412709513679
 20
79.43465800048542
 30
0.0
 40
0.5
100
AcDbArc
 50
29.99999999999971
 51
119.9999999999997
  0
ARC
  5
EF7C888DD
330
EF7C85532
100
AcDbEntity
  8
JISSEN
100
AcDbCircle
 10
109.4660397808952
 20
79.43465800048539
 30
0.0
 40
0.5
100
AcDbArc
 50
60.00000000000028
 51
150.0
  0
LINE
  5
EF7C888DE
330
EF7C85532
100
AcDbEntity
  8
JISSEN
100
AcDbLine
 10
68.69326591354911
 20
84.23852587627692
 30
0.0
 11
66.07936386046095
 21
83.77762441938823
 31
0.0
  0
LINE
  5
EF7C888DF
330
EF7C85532
100
AcDbEntity
  8
JISSEN
100
AcDbLine
 10
113.9208030155711
 20
83.77762441938818
 30
0.0
 11
111.3069009624829
 21
84.2385258762769
 31
0.0
  0
ARC
  5
EF7C888E0
330
EF7C85532
100
AcDbEntity
  8
JISSEN
100
AcDbCircle
 10
68.25914546938179
 20
86.70054525880741
 30
0.0
 40
0.5
100
AcDbArc
 50
10.00000000000021
 51
100.0000000000001
  0
ARC
  5
EF7C888E1
330
EF7C85532
100
AcDbEntity
  8
JISSEN
100
AcDbCircle
 10
111.7410214066502
 20
86.70054525880736
 30
0.0
 40
0.5
100
AcDbArc
 50
79.9999999999998
 51
169.9999999999995
  0
LINE
  5
EF7C888E2
330
EF7C85532
100
AcDbEntity
  8
JISSEN
100
AcDbLine
 10
65.55841932746012
 20
86.73204767842484
 30
0.0
 11
68.17232138054828
 21
87.19294913531353
 31
0.0
  0
LINE
  5
EF7C888E3
330
EF7C85532
100
AcDbEntity
  8
JISSEN
100
AcDbLine
 10
111.8278454954837
 20
87.19294913531351
 30
0.0
 11
114.4417475485719
 21
86.73204767842477
 31
0.0
  0
LINE
  5
EF7C888E4
330
EF7C85532
100
AcDbEntity
  8
JISSEN
100
AcDbLine
 10
68.75154934588795
 20
86.7873693476409
 30
0.0
 11
69.09884570122176
 21
84.8177538416165
 31
0.0
  0
LINE
  5
EF7C888E5
330
EF7C85532
100
AcDbEntity
  8
JISSEN
100
AcDbLine
 10
110.9013211748103
 20
84.81775384161641
 30
0.0
 11
111.2486175301442
 21
86.78736934764083
 31
0.0
  0
LINE
  5
EF7C888E6
330
EF7C85532
100
AcDbEntity
  8
JISSEN
100
AcDbLine
 10
68.75154934588795
 20
92.24989584576109
 30
0.0
 11
69.09884570122176
 21
94.21951135178552
 31
0.0
  0
ARC
  5
EF7C888E7
330
EF7C85532
100
AcDbEntity
  8
JISSEN
100
AcDbCircle
 10
90.00008343801608
 20
89.51863259670096
 30
0.0
 40
23.35
100
AcDbArc
 50
166.3167926881413
 51
173.6832073118581
  0
ARC
  5
EF7C888E8
330
EF7C85532
100
AcDbEntity
  8
JISSEN
100
AcDbCircle
 10
90.00008343801608
 20
89.51863259670096
 30
0.0
 40
23.35
100
AcDbArc
 50
6.316792688141881
 51
13.6832073118586
  0
ARC
  5
EF7C888E9
330
EF7C85532
100
AcDbEntity
  8
JISSEN
100
AcDbCircle
 10
90.00008343801608
 20
89.51863259670096
 30
0.0
 40
23.35
100
AcDbArc
 50
6.316792688141881
 51
13.6832073118586
  0
LINE
  5
EF7C888EA
330
EF7C85532
100
AcDbEntity
  8
JISSEN
100
AcDbLine
 10
110.9013211748103
 20
94.2195113517855
 30
0.0
 11
111.2486175301442
 21
92.24989584576109
 31
0.0
  0
ARC
  5
EF7C888EB
330
EF7C85532
100
AcDbEntity
  8
JISSEN
100
AcDbCircle
 10
68.25914546938179
 20
92.33671993459457
 30
0.0
 40
0.5
100
AcDbArc
 50
259.9999999999998
 51
349.9999999999998
  0
LINE
  5
EF7C888EC
330
EF7C85532
100
AcDbEntity
  8
JISSEN
100
AcDbLine
 10
65.55841932746012
 20
92.30521751497716
 30
0.0
 11
68.17232138054828
 21
91.84431605808844
 31
0.0
  0
LINE
  5
EF7C888ED
330
EF7C85532
100
AcDbEntity
  8
JISSEN
100
AcDbLine
 10
111.8278454954837
 20
91.84431605808844
 30
0.0
 11
114.4417475485719
 21
92.30521751497715
 31
0.0
  0
ARC
  5
EF7C888EE
330
EF7C85532
100
AcDbEntity
  8
JISSEN
100
AcDbCircle
 10
111.7410214066502
 20
92.33671993459457
 30
0.0
 40
0.5
100
AcDbArc
 50
190.0000000000002
 51
280.0
  0
ARC
  5
EF7C888EF
330
EF7C85532
100
AcDbEntity
  8
JISSEN
100
AcDbCircle
 10
68.6064418247156
 20
94.30633544061896
 30
0.0
 40
0.5
100
AcDbArc
 50
349.9999999999998
 51
79.9999999999998
  0
LINE
  5
EF7C888F0
330
EF7C85532
100
AcDbEntity
  8
JISSEN
100
AcDbLine
 10
68.69326591354911
 20
94.79873931712509
 30
0.0
 11
66.07936386046095
 21
95.25964077401374
 31
0.0
  0
ARC
  5
EF7C888F1
330
EF7C85532
100
AcDbEntity
  8
JISSEN
100
AcDbCircle
 10
111.3937250513165
 20
94.30633544061896
 30
0.0
 40
0.5
100
AcDbArc
 50
100.0000000000001
 51
190.0000000000002
  0
LINE
  5
EF7C888F2
330
EF7C85532
100
AcDbEntity
  8
JISSEN
100
AcDbLine
 10
113.9208030155711
 20
95.25964077401374
 30
0.0
 11
111.3069009624829
 21
94.79873931712509
 31
0.0
  0
ARC
  5
EF7C888F3
330
EF7C85532
100
AcDbEntity
  8
JISSEN
100
AcDbCircle
 10
70.53412709513691
 20
99.60260719291662
 30
0.0
 40
0.5
100
AcDbArc
 50
240.0000000000002
 51
330.0000000000001
  0
ARC
  5
EF7C888F4
330
EF7C85532
100
AcDbEntity
  8
JISSEN
100
AcDbCircle
 10
109.4660397808952
 20
99.60260719291653
 30
0.0
 40
0.5
100
AcDbArc
 50
209.9999999999995
 51
299.9999999999997
  0
LINE
  5
EF7C888F5
330
EF7C85532
100
AcDbEntity
  8
JISSEN
100
AcDbLine
 10
70.28412709513691
 20
99.16959449102442
 30
0.0
 11
67.9855002067369
 21
100.4967073438086
 31
0.0
  0
LINE
  5
EF7C888F6
330
EF7C85532
100
AcDbEntity
  8
JISSEN
100
AcDbLine
 10
109.7160397808952
 20
99.16959449102431
 30
0.0
 11
112.0146666692951
 21
100.4967073438084
 31
0.0
  0
LINE
  5
EF7C888F7
330
EF7C85532
100
AcDbEntity
  8
JISSEN
100
AcDbLine
 10
80.19250471176793
 20
112.0790270863468
 30
0.0
 11
81.10030336800514
 21
109.5848707769239
 31
0.0
  0
LINE
  5
EF7C888F8
330
EF7C85532
100
AcDbEntity
  8
JISSEN
100
AcDbLine
 10
98.89986350802713
 20
109.5848707769238
 30
0.0
 11
99.80766216426424
 21
112.0790270863468
 31
0.0
  0
LINE
  5
EF7C888F9
330
EF7C85532
100
AcDbEntity
  8
JISSEN
100
AcDbLine
 10
91.50008343801529
 20
111.4186325967009
 30
0.0
 11
91.50008343801516
 21
114.0728583022694
 31
0.0
  0
LINE
  5
EF7C888FA
330
EF7C85532
100
AcDbEntity
  8
JISSEN
100
AcDbLine
 10
88.50008343801528
 20
111.4186325967009
 30
0.0
 11
88.50008343801528
 21
114.0728583022694
 31
0.0
  0
LINE
  5
EF7C888FB
330
EF7C85532
100
AcDbEntity
  8
JISSEN
100
AcDbLine
 10
83.91938123036277
 20
110.6109312069009
 30
0.0
 11
83.01158257412566
 21
113.1050875163237
 31
0.0
  0
LINE
  5
EF7C888FC
330
EF7C85532
100
AcDbEntity
  8
JISSEN
100
AcDbLine
 10
96.98858430190648
 20
113.1050875163237
 30
0.0
 11
96.08078564566927
 21
110.6109312069009
 31
0.0
  0
ARC
  5
EF7C888FD
330
EF7C85532
100
AcDbEntity
  8
JISSEN
100
AcDbCircle
 10
90.00008343801608
 20
89.51863259670096
 30
0.0
 40
23.35
100
AcDbArc
 50
126.3167926881409
 51
133.6832073118588
  0
ARC
  5
EF7C888FE
330
EF7C85532
100
AcDbEntity
  8
JISSEN
100
AcDbCircle
 10
90.00008343801608
 20
89.51863259670096
 30
0.0
 40
23.35
100
AcDbArc
 50
46.31679268814106
 51
53.68320731185797
  0
LINE
  5
EF7C888FF
330
EF7C85532
100
AcDbEntity
  8
JISSEN
100
AcDbLine
 10
75.47838414760509
 20
105.2691960697605
 30
0.0
 11
77.01047303384303
 21
106.5547712891337
 31
0.0
  0
LINE
  5
EF7C88900
330
EF7C85532
100
AcDbEntity
  8
JISSEN
100
AcDbLine
 10
73.06786472435146
 20
107.3640793390111
 30
0.0
 11
74.77396812120241
 21
105.3308244864767
 31
0.0
  0
LINE
  5
EF7C88901
330
EF7C85532
100
AcDbEntity
  8
JISSEN
100
AcDbLine
 10
105.2261987548297
 20
105.3308244864767
 30
0.0
 11
106.9323021516805
 21
107.3640793390109
 31
0.0
  0
LINE
  5
EF7C88902
330
EF7C85532
100
AcDbEntity
  8
JISSEN
100
AcDbLine
 10
102.989693842189
 20
106.5547712891335
 30
0.0
 11
104.5217827284269
 21
105.2691960697605
 31
0.0
  0
LINE
  5
EF7C88903
330
EF7C85532
100
AcDbEntity
  8
JISSEN
100
AcDbLine
 10
69.4855002067369
 20
103.0947835551619
 30
0.0
 11
71.78412709513691
 21
101.7676707023777
 31
0.0
  0
ARC
  5
EF7C88904
330
EF7C85532
100
AcDbEntity
  8
JISSEN
100
AcDbCircle
 10
71.53412709513691
 20
101.3346580004854
 30
0.0
 40
0.5
100
AcDbArc
 50
330.0000000000001
 51
60.00000000000028
  0
LINE
  5
EF7C88905
330
EF7C85532
100
AcDbEntity
  8
JISSEN
100
AcDbLine
 10
110.5146666692952
 20
103.0947835551617
 30
0.0
 11
108.2160397808952
 21
101.7676707023775
 31
0.0
  0
ARC
  5
EF7C88906
330
EF7C85532
100
AcDbEntity
  8
JISSEN
100
AcDbCircle
 10
108.4660397808952
 20
101.3346580004854
 30
0.0
 40
0.5
100
AcDbArc
 50
119.9999999999997
 51
209.999999999998
  0
ARC
  5
EF7C88907
330
EF7C85532
100
AcDbEntity
  8
JISSEN
100
AcDbCircle
 10
75.1569903427619
 20
105.65221829132
 30
0.0
 40
0.5
100
AcDbArc
 50
220.0000000000001
 51
310.0000000000001
  0
ARC
  5
EF7C88908
330
EF7C85532
100
AcDbEntity
  8
JISSEN
100
AcDbCircle
 10
104.8431765332702
 20
105.6522182913199
 30
0.0
 40
0.5
100
AcDbArc
 50
229.9999999999999
 51
319.9999999999998
  0
ARC
  5
EF7C88909
330
EF7C85532
100
AcDbEntity
  8
JISSEN
100
AcDbCircle
 10
81.57014967839803
 20
109.7558808485867
 30
0.0
 40
0.5
100
AcDbArc
 50
200.0
 51
290.0
  0
LINE
  5
EF7C8890A
330
EF7C85532
100
AcDbEntity
  8
JISSEN
100
AcDbLine
 10
81.74115975006088
 20
109.2860345381938
 30
0.0
 11
83.62054499163264
 21
109.970074824845
 31
0.0
  0
ARC
  5
EF7C8890B
330
EF7C85532
100
AcDbEntity
  8
JISSEN
100
AcDbCircle
 10
98.43001719763414
 20
109.7558808485867
 30
0.0
 40
0.5
100
AcDbArc
 50
249.9999999999999
 51
339.9999999999999
  0
LINE
  5
EF7C8890C
330
EF7C85532
100
AcDbEntity
  8
JISSEN
100
AcDbLine
 10
96.37962188439951
 20
109.970074824845
 30
0.0
 11
98.25900712597126
 21
109.2860345381937
 31
0.0
  0
LINE
  5
EF7C8890D
330
EF7C85532
100
AcDbEntity
  8
JISSEN
100
AcDbLine
 10
77.07210145055933
 20
107.2591873155364
 30
0.0
 11
75.36599805370838
 21
109.2924421680707
 31
0.0
  0
ARC
  5
EF7C8890E
330
EF7C85532
100
AcDbEntity
  8
JISSEN
100
AcDbCircle
 10
76.68907922899984
 20
106.9377935106931
 30
0.0
 40
0.5
100
AcDbArc
 50
310.0000000000001
 51
40.00000000000009
  0
LINE
  5
EF7C8890F
330
EF7C85532
100
AcDbEntity
  8
JISSEN
100
AcDbLine
 10
104.6341688223236
 20
109.2924421680707
 30
0.0
 11
102.9280654254727
 21
107.2591873155364
 31
0.0
  0
ARC
  5
EF7C88910
330
EF7C85532
100
AcDbEntity
  8
JISSEN
100
AcDbCircle
 10
103.3110876470322
 20
106.9377935106931
 30
0.0
 40
0.5
100
AcDbArc
 50
139.9999999999998
 51
229.9999999999999
  0
ARC
  5
EF7C88911
330
EF7C85532
100
AcDbEntity
  8
JISSEN
100
AcDbCircle
 10
91.00008343801608
 20
111.4186325967009
 30
0.0
 40
0.5
100
AcDbArc
 50
270.0
 51
0.0
  0
ARC
  5
EF7C88912
330
EF7C85532
100
AcDbEntity
  8
JISSEN
100
AcDbCircle
 10
89.00008343801607
 20
111.4186325967009
 30
0.0
 40
0.5
100
AcDbArc
 50
180.0
 51
270.0
  0
LINE
  5
EF7C88913
330
EF7C85532
100
AcDbEntity
  8
JISSEN
100
AcDbLine
 10
89.00008343801607
 20
110.9186325967009
 30
0.0
 11
91.00008343801608
 21
110.9186325967009
 31
0.0
  0
ARC
  5
EF7C88914
330
EF7C85532
100
AcDbEntity
  8
JISSEN
100
AcDbCircle
 10
83.44953491996978
 20
110.4399211352379
 30
0.0
 40
0.5
100
AcDbArc
 50
290.0
 51
20.00000000000009
  0
ARC
  5
EF7C88915
330
EF7C85532
100
AcDbEntity
  8
JISSEN
100
AcDbCircle
 10
90.00008343801608
 20
89.51863259670096
 30
0.0
 40
23.35
100
AcDbArc
 50
106.3167926881416
 51
113.6832073118595
  0
ARC
  5
EF7C88916
330
EF7C85532
100
AcDbEntity
  8
JISSEN
100
AcDbCircle
 10
96.55063195606226
 20
110.4399211352379
 30
0.0
 40
0.5
100
AcDbArc
 50
159.9999999999998
 51
249.9999999999999
  0
ARC
  5
EF7C88917
330
EF7C85532
100
AcDbEntity
  8
JISSEN
100
AcDbCircle
 10
90.00008343801608
 20
89.51863259670096
 30
0.0
 40
23.35
100
AcDbArc
 50
66.31679268814051
 51
73.68320731185827
  0
ARC
  5
EF7C88918
330
EF7C85532
100
AcDbEntity
  8
JISSEN
100
AcDbCircle
 10
90.00008343801608
 20
89.51863259670096
 30
0.0
 40
23.35
100
AcDbArc
 50
86.31679268814298
 51
93.68320731186029
  0
ARC
  5
EF7C88919
330
EF7C85532
100
AcDbEntity
  8
JISSEN
100
AcDbCircle
 10
90.00008343801608
 20
89.51863259670096
 30
0.0
 40
23.35
100
AcDbArc
 50
86.31679268814298
 51
93.68320731186029
  0
ARC
  5
EF7C8891A
330
EF7C85532
100
AcDbEntity
  8
JISSEN
100
AcDbCircle
 10
90.00008343801608
 20
89.51863259670096
 30
0.0
 40
23.35
100
AcDbArc
 50
86.31679268814139
 51
93.68320731185866
  0
ARC
  5
EF7C8891B
330
EF7C85532
100
AcDbEntity
  8
JISSEN
100
AcDbCircle
 10
90.00008343801608
 20
116.0186325967009
 30
0.0
 40
1.0
100
AcDbArc
 50
181.0811165961093
 51
358.9188834038902
  0
CIRCLE
  5
EF7C88920
330
EF7C85532
100
AcDbEntity
  8
TENSEN
100
AcDbCircle
 10
90.00008343801608
 20
89.51863259670096
 30
0.0
 40
2.849999999999993
  0
TEXT
  5
EF7C88927
330
EF7C85532
100
AcDbEntity
  8
TEXT
100
AcDbText
 10
82.31949744325948
 20
99.08571372254662
 30
0.0
 40
2.0
  1
T
 50
223.0278785648635
  7
K
100
AcDbText
  0
TEXT
  5
EF7C88928
330
EF7C85532
100
AcDbEntity
  8
TEXT
100
AcDbText
 10
84.940033501578
 20
100.6952303407425
 30
0.0
 40
2.0
  1
N
 50
208.6278785648643
  7
K
100
AcDbText
  0
TEXT
  5
EF7C88929
330
EF7C85532
100
AcDbEntity
  8
TEXT
100
AcDbText
 10
87.87851110696488
 20
101.6024802180292
 30
0.0
 40
2.0
  1
E
 50
194.2278785648641
  7
K
100
AcDbText
  0
TEXT
  5
EF7C8892A
330
EF7C85532
100
AcDbEntity
  8
TEXT
100
AcDbText
 10
90.95029490450883
 20
101.750457507985
 30
0.0
 40
2.0
  1
D
 50
179.8278785648638
  7
K
100
AcDbText
  0
LWPOLYLINE
  5
EF7C8892B
330
EF7C85532
100
AcDbEntity
  8
TEXT
100
AcDbPolyline
 90
        2
 70
     1
 43
0.25
 10
97.74506381741629
 20
80.70320518877203
 42
1.0
 10
97.99506381741629
 20
80.70320518877203
 42
1.0
  0
TEXT
  5
EF7C8892C
330
EF7C85532
100
AcDbEntity
  8
TEXT
100
AcDbText
 10
98.34252883977956
 20
98.51441200762252
 30
0.0
 40
2.0
  1
P
 50
141.4278785648638
  7
K
100
AcDbText
  0
TEXT
  5
EF7C8892D
330
EF7C85532
100
AcDbEntity
  8
TEXT
100
AcDbText
 10
102.1785404513061
 20
91.00376803389449
 30
0.0
 40
2.0
  1
R
 50
101.2226580673869
  7
K
100
AcDbText
  0
TEXT
  5
EF7C8892E
330
EF7C85532
100
AcDbEntity
  8
TEXT
100
AcDbText
 10
102.2211889660457
 20
88.43927067217205
 30
0.0
 40
2.0
  1
Q
 50
89.22265806738737
  7
K
100
AcDbText
  0
TEXT
  5
EF7C8892F
330
EF7C85532
100
AcDbEntity
  8
TEXT
100
AcDbText
 10
98.45010943135775
 20
80.62383056387227
 30
0.0
 40
2.0
  1
6
 50
47.80097405393946
  7
K
100
AcDbText
  0
TEXT
  5
EF7C88930
330
EF7C85532
100
AcDbEntity
  8
TEXT
100
AcDbText
 10
96.4161227594068
 20
79.06134413755772
 30
0.0
 40
2.0
  1
2
 50
35.80097405394027
  7
K
100
AcDbText
  0
TEXT
  5
EF7C88931
330
EF7C85532
100
AcDbEntity
  8
TEXT
100
AcDbText
 10
94.10172438153869
 20
77.95589139654511
 30
0.0
 40
2.0
  1
r
 50
23.80097405394037
  7
K
100
AcDbText
  0
TEXT
  5
EF7C88932
330
EF7C85532
100
AcDbEntity
  8
TEXT
100
AcDbText
 10
93.96237342097993
 20
101.1298642532595
 30
0.0
 40
2.0
  1
N
 50
165.4278785648645
  7
K
100
AcDbText
  0
TEXT
  5
EF7C88933
330
EF7C85532
100
AcDbEntity
  8
TEXT
100
AcDbText
 10
96.28989868445547
 20
100.0523245732597
 30
0.0
 40
2.0
  1
E
 50
153.427878564863
  7
K
100
AcDbText
  0
LINE
  5
EF7C89607
330
EF7C85532
100
AcDbEntity
  8
TEXT
100
AcDbLine
 10
91.95373908046247
 20
84.91610832943877
 30
0.0
 11
93.07839081464441
 21
85.57857882866736
 31
0.0
  0
LINE
  5
EF7C89608
330
EF7C85532
100
AcDbEntity
  8
TEXT
100
AcDbLine
 10
92.71504662490348
 20
83.62366458877646
 30
0.0
 11
93.83969835908544
 21
84.28613508800507
 31
0.0
  0
LINE
  5
EF7C89609
330
EF7C85532
100
AcDbEntity
  8
TEXT
100
AcDbLine
 10
92.51606494755344
 20
85.24734357905307
 30
0.0
 11
93.27737249199447
 21
83.95489983839075
 31
0.0
  0
LINE
  5
EF7C8960C
330
EF7C85532
100
AcDbEntity
  8
TEXT
100
AcDbLine
 10
92.86071661173002
 20
85.45035892423733
 30
0.0
 11
93.62202415617105
 21
84.15791518357506
 31
0.0
  0
LINE
  5
EF7C8960D
330
EF7C85532
100
AcDbEntity
  8
TEXT
100
AcDbLine
 10
92.17141328337675
 20
85.04432823386878
 30
0.0
 11
92.93272082781788
 21
83.75188449320649
 31
0.0
  0
TEXT
  5
EF7C89612
330
EF7C85532
100
AcDbEntity
  8
TEXT
100
AcDbText
 10
92.61824018910635
 20
95.49924615818129
 30
0.0
 40
1.5
  1
E
 50
163.2299999999998
  7
K
100
AcDbText
  0
TEXT
  5
EF7C89613
330
EF7C85532
100
AcDbEntity
  8
TEXT
100
AcDbText
 10
87.05405578020531
 20
95.34594180870987
 30
0.0
 40
1.5
  1
U
 50
213.77
  7
K
100
AcDbText
  0
TEXT
  5
EF7C89614
330
EF7C85532
100
AcDbEntity
  8
TEXT
100
AcDbText
 10
88.47617891891763
 20
95.82899530793072
 30
0.0
 40
1.5
  1
J
 50
196.77
  7
K
100
AcDbText
  0
TEXT
  5
EF7C89615
330
EF7C85532
100
AcDbEntity
  8
TEXT
100
AcDbText
 10
90.75527700868248
 20
96.00339674166924
 30
0.0
 40
1.5
  1
N
 50
180.2299999999999
  7
K
100
AcDbText
  0
TEXT
  5
EF7C89616
330
EF7C85532
100
AcDbEntity
  8
TEXT
100
AcDbText
 10
94.19296535511705
 20
94.5122042565965
 30
0.0
 40
1.5
  1
S
 50
146.2330068280614
  7
K
100
AcDbText
  0
TEXT
  5
EF7C89617
330
EF7C85532
100
AcDbEntity
  8
TEXT
100
AcDbText
 10
90.77737050343671
 20
83.03835016403786
 30
0.0
 40
1.5
  1
R
 50
13.99999999999999
  7
K
100
AcDbText
  0
TEXT
  5
EF7C89618
330
EF7C85532
100
AcDbEntity
  8
TEXT
100
AcDbText
 10
87.64322031992298
 20
83.42876453159403
 30
0.0
 40
1.5
  1
F
 50
345.9999999999998
  7
K
100
AcDbText
  0
TEXT
  5
EF7C89619
330
EF7C85532
100
AcDbEntity
  8
TEXT
100
AcDbText
 10
89.1448177315865
 20
83.05496706737331
 30
0.0
 40
1.5
  1
Q
 50
358.9999999999998
  7
K
100
AcDbText
  0
TEXT
  5
EF7C8961A
330
EF7C85532
100
AcDbEntity
  8
TEXT
100
AcDbText
 10
86.14709010715603
 20
84.24450274611489
 30
0.0
 40
1.5
  1
M
 50
330.9999999999998
  7
K
100
AcDbText
  0
LINE
  5
EF7C8961B
330
EF7C85532
100
AcDbEntity
  8
TEXT
100
AcDbLine
 10
295.918829287121
 20
275.6422241166537
 30
0.0
 11
295.918829287121
 21
272.6422241166537
 31
0.0
  0
LINE
  5
EF7C8961C
330
EF7C85532
100
AcDbEntity
  8
TEXT
100
AcDbLine
 10
295.3688292871209
 20
275.6422241166537
 30
0.0
 11
295.3688292871209
 21
272.6422241166537
 31
0.0
  0
LINE
  5
EF7C8961D
330
EF7C85532
100
AcDbEntity
  8
TEXT
100
AcDbLine
 10
296.468829287121
 20
275.6422241166537
 30
0.0
 11
296.468829287121
 21
272.6422241166537
 31
0.0
  0
LINE
  5
EF7C8961E
330
EF7C85532
100
AcDbEntity
  8
TEXT
100
AcDbLine
 10
477.4688287985704
 20
275.6422241166537
 30
0.0
 11
477.4688287985704
 21
272.6422241166537
 31
0.0
  0
LINE
  5
EF7C8961F
330
EF7C85532
100
AcDbEntity
  8
TEXT
100
AcDbLine
 10
476.3688287985703
 20
275.6422241166537
 30
0.0
 11
476.3688287985703
 21
272.6422241166537
 31
0.0
  0
LINE
  5
EF7C89620
330
EF7C85532
100
AcDbEntity
  8
TEXT
100
AcDbLine
 10
476.9188287985705
 20
275.6422241166537
 30
0.0
 11
476.9188287985705
 21
272.6422241166537
 31
0.0
  0
LINE
  5
EF7C89621
330
EF7C85532
100
AcDbEntity
  8
TEXT
100
AcDbLine
 10
476.0188287985704
 20
272.6422241166537
 30
0.0
 11
477.8188287985703
 21
272.6422241166537
 31
0.0
  0
LINE
  5
EF7C89622
330
EF7C85532
100
AcDbEntity
  8
TEXT
100
AcDbLine
 10
476.0188287985704
 20
275.6422241166537
 30
0.0
 11
477.8188287985703
 21
275.6422241166537
 31
0.0
  0
LINE
  5
EF7C89623
330
EF7C85532
100
AcDbEntity
  8
TEXT
100
AcDbLine
 10
337.8782045999139
 20
152.3495934538405
 30
0.0
 11
340.0782045999137
 21
152.3495934538405
 31
0.0
  0
LINE
  5
EF7C89624
330
EF7C85532
100
AcDbEntity
  8
TEXT
100
AcDbLine
 10
337.8782045999139
 20
149.3495934538405
 30
0.0
 11
340.0782045999137
 21
149.3495934538405
 31
0.0
  0
LINE
  5
EF7C89625
330
EF7C85532
100
AcDbEntity
  8
TEXT
100
AcDbLine
 10
338.9782045999138
 20
152.3495934538405
 30
0.0
 11
338.9782045999138
 21
149.3495934538405
 31
0.0
  0
LINE
  5
EF7C89626
330
EF7C85532
100
AcDbEntity
  8
TEXT
100
AcDbLine
 10
338.4282045999136
 20
152.3495934538405
 30
0.0
 11
338.4282045999136
 21
149.3495934538405
 31
0.0
  0
LINE
  5
EF7C89627
330
EF7C85532
100
AcDbEntity
  8
TEXT
100
AcDbLine
 10
339.5282045999136
 20
152.3495934538405
 30
0.0
 11
339.5282045999136
 21
149.3495934538405
 31
0.0
  0
LINE
  5
EF7C89628
330
EF7C85532
100
AcDbEntity
  8
TEXT
100
AcDbLine
 10
518.8782043468124
 20
152.3495934538405
 30
0.0
 11
521.0782043468125
 21
152.3495934538405
 31
0.0
  0
LINE
  5
EF7C89629
330
EF7C85532
100
AcDbEntity
  8
TEXT
100
AcDbLine
 10
518.8782043468124
 20
149.3495934538405
 30
0.0
 11
521.0782043468125
 21
149.3495934538405
 31
0.0
  0
LINE
  5
EF7C8962A
330
EF7C85532
100
AcDbEntity
  8
TEXT
100
AcDbLine
 10
519.9782043468125
 20
152.3495934538405
 30
0.0
 11
519.9782043468125
 21
149.3495934538405
 31
0.0
  0
LINE
  5
EF7C8962B
330
EF7C85532
100
AcDbEntity
  8
TEXT
100
AcDbLine
 10
519.4282043468124
 20
152.3495934538405
 30
0.0
 11
519.4282043468124
 21
149.3495934538405
 31
0.0
  0
LINE
  5
EF7C8962C
330
EF7C85532
100
AcDbEntity
  8
TEXT
100
AcDbLine
 10
520.5282043468123
 20
152.3495934538405
 30
0.0
 11
520.5282043468123
 21
149.3495934538405
 31
0.0
  0
LINE
  5
EF7C89C2C
330
EF7C85532
100
AcDbEntity
  8
WAKU
100
AcDbLine
 10
361.9999987874493
 20
141.5000001996573
 30
0.0
 11
180.9999992759999
 21
141.5000001996573
 31
0.0
  0
LINE
  5
EF7C89C2D
330
EF7C85532
100
AcDbEntity
  8
JISSEN
100
AcDbLine
 10
271.0000827140161
 20
43.82859416055254
 30
0.0
 11
272.0000827140161
 21
43.82859416055254
 31
0.0
  0
ARC
  5
EF7C89C2E
330
EF7C85532
100
AcDbEntity
  8
JISSEN
100
AcDbCircle
 10
271.0000827140161
 20
46.32859416055254
 30
0.0
 40
1.0
100
AcDbArc
 50
270.0
 51
0.000000000000007
  0
LINE
  5
EF7C89C2F
330
EF7C85532
100
AcDbEntity
  8
JISSEN
100
AcDbLine
 10
296.5000827140161
 20
45.32859416055259
 30
0.0
 11
271.0000827140161
 21
45.32859416055259
 31
0.0
  0
LINE
  5
EF7C89C30
330
EF7C85532
100
AcDbEntity
  8
JISSEN
100
AcDbLine
 10
297.350082714016
 20
53.8285941605526
 30
0.0
 11
271.0000827140161
 21
53.8285941605526
 31
0.0
  0
LINE
  5
EF7C89C31
330
EF7C85532
100
AcDbEntity
  8
JISSEN
100
AcDbLine
 10
298.5000827140161
 20
46.32859416055254
 30
0.0
 11
243.5000827140161
 21
46.32859416055254
 31
0.0
  0
LINE
  5
EF7C89C32
330
EF7C85532
100
AcDbEntity
  8
JISSEN
100
AcDbLine
 10
243.5000827140161
 20
50.32859416055259
 30
0.0
 11
298.5000827140161
 21
50.32859416055265
 31
0.0
  0
LINE
  5
EF7C89C33
330
EF7C85532
100
AcDbEntity
  8
JISSEN
100
AcDbLine
 10
271.0000827140161
 20
36.0317151605526
 30
0.0
 11
272.0000827140161
 21
36.0317151605526
 31
0.0
  0
LINE
  5
EF7C89C34
330
EF7C85532
100
AcDbEntity
  8
JISSEN
100
AcDbLine
 10
272.0000827140161
 20
37.13549316055264
 30
0.0
 11
271.0000827140161
 21
37.13549316055264
 31
0.0
  0
LINE
  5
EF7C89C35
330
EF7C85532
100
AcDbEntity
  8
SAISEN
100
AcDbLine
 10
271.0000827140161
 20
20.37049459460524
 30
0.0
 11
278.634409714016
 21
20.37049459460524
 31
0.0
  0
LINE
  5
EF7C89C36
330
EF7C85532
100
AcDbEntity
  8
SAISEN
100
AcDbLine
 10
271.0000827140161
 20
23.25697159460526
 30
0.0
 11
276.018008714016
 21
23.25697159460526
 31
0.0
  0
LINE
  5
EF7C89C37
330
EF7C85532
100
AcDbEntity
  8
SAISEN
100
AcDbLine
 10
275.528111714016
 20
22.64361759460524
 30
0.0
 11
271.0000827140161
 21
22.64361759460524
 31
0.0
  0
LINE
  5
EF7C89C38
330
EF7C85532
100
AcDbEntity
  8
JISSEN
100
AcDbLine
 10
280.2500827140161
 20
24.9204945946052
 30
0.0
 11
271.0000827140161
 21
24.92049459460526
 31
0.0
1001
ACAD
1000
ASC_BOUNDS
1002
{
1070
    19
1002
}
  0
LINE
  5
EF7C89C39
330
EF7C85532
100
AcDbEntity
  8
JISSEN
100
AcDbLine
 10
284.2500827140161
 20
26.95859639258293
 30
0.0
 11
271.0000827140161
 21
26.95859639258293
 31
0.0
  0
LINE
  5
EF7C89C3A
330
EF7C85532
100
AcDbEntity
  8
SAISEN
100
AcDbLine
 10
280.268008714016
 20
20.66140659460523
 30
0.0
 11
271.0000827140161
 21
20.66140659460523
 31
0.0
  0
LINE
  5
EF7C89C3B
330
EF7C85532
100
AcDbEntity
  8
SAISEN
100
AcDbLine
 10
271.0000827140161
 20
20.98383559460523
 30
0.0
 11
280.268008714016
 21
20.98383559460523
 31
0.0
  0
LINE
  5
EF7C89C3C
330
EF7C85532
100
AcDbEntity
  8
SAISEN
100
AcDbLine
 10
271.0000827140161
 20
22.97573659460522
 30
0.0
 11
280.268008714016
 21
22.97573659460522
 31
0.0
  0
LINE
  5
EF7C89C3D
330
EF7C85532
100
AcDbEntity
  8
JISSEN
100
AcDbLine
 10
271.0000827140161
 20
30.74271183821304
 30
0.0
 11
283.550082714016
 21
30.74271183821361
 31
0.0
1001
ACAD
1000
ASC_BOUNDS
1002
{
1070
    19
1002
}
  0
LINE
  5
EF7C89C3E
330
EF7C85532
100
AcDbEntity
  8
JISSEN
100
AcDbLine
 10
284.2500827140161
 20
29.22049459460521
 30
0.0
 11
271.0000827140161
 21
29.22049459460521
 31
0.0
1001
ACAD
1000
ASC_BOUNDS
1002
{
1070
    19
1002
}
  0
LINE
  5
EF7C89C3F
330
EF7C85532
100
AcDbEntity
  8
JISSEN
100
AcDbLine
 10
271.0000827140161
 20
32.49271183821326
 30
0.0
 11
285.5292857306178
 21
32.49271183821304
 31
0.0
1001
ACAD
1000
ASC_BOUNDS
1002
{
1070
    19
1002
}
  0
LINE
  5
EF7C89C40
330
EF7C85532
100
AcDbEntity
  8
JISSEN
100
AcDbLine
 10
234.5000827140161
 20
53.8285941605526
 30
0.0
 11
307.5000827140161
 21
53.8285941605526
 31
0.0
  0
LWPOLYLINE
  5
EF7C89C41
330
EF7C85532
100
AcDbEntity
  8
NITEN
100
AcDbPolyline
 90
        2
 70
     0
 43
0.0
 10
287.9999992760001
 20
122.7768607174258
 42
0.5882352941176295
 10
270.9999992759999
 20
122.776860717426
 42
0.5882352941176295
  0
LINE
  5
EF7C89C42
330
EF7C85532
100
AcDbEntity
  8
JISSEN
100
AcDbLine
 10
280.0000827140161
 20
71.82859416055624
 30
0.0
 11
271.0000827140161
 21
71.82859416055624
 31
0.0
  0
LINE
  5
EF7C89C43
330
EF7C85532
100
AcDbEntity
  8
JISSEN
100
AcDbLine
 10
281.262006714016
 20
70.56666916055622
 30
0.0
 11
271.0000827140161
 21
70.56666916055622
 31
0.0
  0
LWPOLYLINE
  5
EF7C89C44
330
EF7C85532
100
AcDbEntity
  8
NITEN
100
AcDbPolyline
 90
       15
 70
     1
 43
0.0
 10
256.9999992759999
 20
61.43914306627999
 42
0.4142135623730927
 10
258.4999992759999
 20
59.93914306627999
 10
281.5940504469965
 20
59.93914306627999
 10
283.4999992759999
 20
59.93914306627999
 42
0.4142135623730925
 10
284.9999992759999
 20
61.43914306627999
 10
284.9999992759999
 20
72.48515909249795
 42
-0.4142135623730943
 10
289.9999992759999
 20
77.48515909249795
 42
0.4142135623730951
 10
291.9999992759999
 20
79.48515909249795
 10
291.9999992759999
 20
99.93914306627999
 42
0.4142135623730949
 10
289.9999992759999
 20
101.93914306628
 10
251.9999992759999
 20
101.93914306628
 42
0.4142135623730951
 10
249.9999992759999
 20
99.93914306627999
 10
249.9999992759999
 20
79.48515909249795
 42
0.4142135623730951
 10
251.9999992759999
 20
77.48515909249795
 42
-0.4142135623730961
 10
256.9999992759999
 20
72.48515909249795
  0
LINE
  5
EF7C89C45
330
EF7C85532
100
AcDbEntity
  8
JISSEN
100
AcDbLine
 10
271.0000827140161
 20
56.06936116055255
 30
0.0
 11
281.6213157140159
 21
56.06936116055255
 31
0.0
  0
LINE
  5
EF7C89C46
330
EF7C85532
100
AcDbEntity
  8
JISSEN
100
AcDbLine
 10
297.350082714016
 20
53.8285941605526
 30
0.0
 11
271.0000827140161
 21
53.8285941605526
 31
0.0
  0
LWPOLYLINE
  5
EF7C89C47
330
EF7C85532
100
AcDbEntity
  8
NITEN
100
AcDbPolyline
 90
        5
 70
     0
 43
0.0
 10
287.9999992759999
 20
101.93914306628
 10
287.9999992759999
 20
122.7768607174258
 42
-0.5882352941176476
 10
270.9999992759999
 20
122.7768607174258
 42
0.5882352941176477
 10
253.9999992759999
 20
122.7768607174254
 10
253.9999992759999
 20
101.93914306628
  0
HATCH
  5
EF7C89C48
330
EF7C85532
100
AcDbEntity
  8
HATCH
100
AcDbHatch
 10
0.0
 20
0.0
 30
0.0
210
0.0
220
0.0
230
1.0
  2
_U
 70
     0
 71
     0
 91
        2
 92
        7
 72
     0
 73
     1
 93
       13
 10
288.500082714016
 20
58.82859416055254
 10
288.500082714016
 20
53.82859416055257
 10
297.350082714016
 20
53.82859416055257
 10
336.2741459719158
 20
53.82859416055257
 10
336.7144840773901
 20
54.89282524908404
 10
337.4276414642647
 20
55.68472820644577
 10
338.1226402732989
 20
56.17071628891315
 10
338.5253563174085
 20
56.44554472255137
 10
338.8915796063879
 20
56.73579579520149
 10
339.1994670930473
 20
57.07391281886846
 10
339.4271757301951
 20
57.49233910555616
 10
339.5690810868753
 20
58.00895708232039
 10
339.7336682651255
 20
58.82859416055257
 97
        0
 92
        7
 72
     0
 73
     1
 93
       12
 10
202.2663302868745
 20
58.82859416055257
 10
202.4309174651244
 20
58.00895708232054
 10
202.5728228218049
 20
57.49233910555624
 10
202.8005314589527
 20
57.07391281886842
 10
203.108418945612
 20
56.73579579520147
 10
203.4746422345916
 20
56.44554472255126
 10
204.2478040051116
 20
55.91791032246018
 10
204.952715593562
 20
55.3313385636788
 10
205.416289062605
 20
54.57676270440752
 10
205.7258525800842
 20
53.82859416055256
 10
253.5000827140161
 20
53.82859416055257
 10
253.5000827140161
 20
58.82859416055262
 97
        0
 75
     0
 76
     0
 52
45.0
 41
2.0
 77
     0
 78
     1
 53
45.0
 43
180.9999992759999
 44
-126.4999999999999
 45
-1.414213562373094
 46
1.414213562373094
 79
     0
 47
0.2346837798524018
 98
        2
 10
298.2263867658445
 20
56.6842259962082
 10
247.2585814721885
 20
57.38827704997928
  0
HATCH
  5
EF7C89C49
330
EF7C85532
100
AcDbEntity
  8
HATCH
100
AcDbHatch
 10
0.0
 20
0.0
 30
0.0
210
0.0
220
0.0
230
1.0
  2
_U
 70
     0
 71
     0
 91
        2
 92
        7
 72
     0
 73
     1
 93
       15
 10
288.500082714016
 20
188.3285941605524
 10
288.500082714016
 20
183.3285941605524
 10
297.350082714016
 20
183.3285941605524
 10
336.2741459719158
 20
183.3285941605524
 10
336.5837094893949
 20
184.0767627044074
 10
336.9139660821094
 20
184.6143337020356
 10
337.295102108459
 20
185.03755409066
 10
337.7052745212531
 20
185.3788671822848
 10
338.1226402733009
 20
185.6707162889147
 10
338.5253563174086
 20
185.9455447225514
 10
338.8915796063881
 20
186.2357957952014
 10
339.1994670930473
 20
186.5739128188684
 10
339.4271757301951
 20
186.9923391055561
 10
339.5690810868756
 20
187.5089570823201
 10
339.7336682651255
 20
188.3285941605526
 97
        0
 92
        7
 72
     0
 73
     1
 93
       14
 10
202.2663302868745
 20
188.3285941605524
 10
202.4309174651246
 20
187.5089570823203
 10
202.5728228218049
 20
186.9923391055561
 10
202.8005314589527
 20
186.5739128188684
 10
203.108418945612
 20
186.2357957952014
 10
203.4746422345917
 20
185.9455447225513
 10
203.8773582786983
 20
185.6707162889144
 10
204.2947240307471
 20
185.3788671822845
 10
204.7048964435409
 20
185.0375540906603
 10
205.0860324698906
 20
184.6143337020358
 10
205.416289062605
 20
184.0767627044075
 10
205.7258525800842
 20
183.3285941605524
 10
253.5000827140161
 20
183.3285941605524
 10
253.5000827140161
 20
188.3285941605524
 97
        0
 75
     0
 76
     0
 52
45.0
 41
2.0
 77
     0
 78
     1
 53
45.0
 43
180.9999992759999
 44
3.0
 45
-1.414213562373094
 46
1.414213562373094
 79
     0
 47
0.2346837798524018
 98
        2
 10
298.2263867658445
 20
186.1842259962081
 10
247.2585814721885
 20
186.8882770499791
  0
LINE
  5
EF7C89C4A
330
EF7C85532
100
AcDbEntity
  8
JISSEN
100
AcDbLine
 10
280.0000827140161
 20
201.3285941605561
 30
0.0
 11
271.0000827140161
 21
201.328594160556
 31
0.0
  0
LINE
  5
EF7C89C4B
330
EF7C85532
100
AcDbEntity
  8
JISSEN
100
AcDbLine
 10
281.262006714016
 20
200.0666691605561
 30
0.0
 11
271.0000827140161
 21
200.0666691605561
 31
0.0
  0
ARC
  5
EF7C89C4C
330
EF7C85532
100
AcDbEntity
  8
JISSEN
100
AcDbCircle
 10
271.0000827140161
 20
182.0785941605524
 30
0.0
 40
1.25
100
AcDbArc
 50
36.86989800000062
 51
90.0
  0
LINE
  5
EF7C89C4D
330
EF7C85532
100
AcDbEntity
  8
JISSEN
100
AcDbLine
 10
271.0000827140161
 20
173.3285941605524
 30
0.0
 11
272.0000827140161
 21
173.3285941605524
 31
0.0
  0
ARC
  5
EF7C89C4E
330
EF7C85532
100
AcDbEntity
  8
JISSEN
100
AcDbCircle
 10
271.0000827140161
 20
175.8285941605524
 30
0.0
 40
1.0
100
AcDbArc
 50
270.0
 51
0.000000000000007
  0
LINE
  5
EF7C89C4F
330
EF7C85532
100
AcDbEntity
  8
JISSEN
100
AcDbLine
 10
296.5000827140161
 20
174.8285941605525
 30
0.0
 11
271.0000827140161
 21
174.8285941605525
 31
0.0
  0
LINE
  5
EF7C89C50
330
EF7C85532
100
AcDbEntity
  8
JISSEN
100
AcDbLine
 10
297.350082714016
 20
183.3285941605524
 30
0.0
 11
271.0000827140161
 21
183.3285941605524
 31
0.0
  0
LINE
  5
EF7C89C51
330
EF7C85532
100
AcDbEntity
  8
JISSEN
100
AcDbLine
 10
271.0000827140161
 20
185.5693611605524
 30
0.0
 11
281.6213157140159
 21
185.5693611605524
 31
0.0
  0
LINE
  5
EF7C89C52
330
EF7C85532
100
AcDbEntity
  8
JISSEN
100
AcDbLine
 10
271.0000827140161
 20
165.5317151605524
 30
0.0
 11
272.0000827140161
 21
165.5317151605524
 31
0.0
  0
LINE
  5
EF7C89C53
330
EF7C85532
100
AcDbEntity
  8
JISSEN
100
AcDbLine
 10
272.0000827140161
 20
166.6354931605525
 30
0.0
 11
271.0000827140161
 21
166.6354931605525
 31
0.0
  0
LINE
  5
EF7C89C54
330
EF7C85532
100
AcDbEntity
  8
SAISEN
100
AcDbLine
 10
271.0000827140161
 20
149.8704945946052
 30
0.0
 11
278.634409714016
 21
149.8704945946052
 31
0.0
  0
LINE
  5
EF7C89C55
330
EF7C85532
100
AcDbEntity
  8
SAISEN
100
AcDbLine
 10
271.0000827140161
 20
152.7569715946051
 30
0.0
 11
276.018008714016
 21
152.7569715946051
 31
0.0
  0
LINE
  5
EF7C89C56
330
EF7C85532
100
AcDbEntity
  8
SAISEN
100
AcDbLine
 10
275.528111714016
 20
152.1436175946051
 30
0.0
 11
271.0000827140161
 21
152.1436175946051
 31
0.0
  0
LINE
  5
EF7C89C57
330
EF7C85532
100
AcDbEntity
  8
JISSEN
100
AcDbLine
 10
280.2500827140161
 20
154.4204945946051
 30
0.0
 11
271.0000827140161
 21
154.4204945946051
 31
0.0
1001
ACAD
1000
ASC_BOUNDS
1002
{
1070
    19
1002
}
  0
LINE
  5
EF7C89C58
330
EF7C85532
100
AcDbEntity
  8
JISSEN
100
AcDbLine
 10
284.2500827140161
 20
156.4585963925829
 30
0.0
 11
271.0000827140161
 21
156.4585963925829
 31
0.0
  0
LINE
  5
EF7C89C59
330
EF7C85532
100
AcDbEntity
  8
SAISEN
100
AcDbLine
 10
280.268008714016
 20
150.1614065946052
 30
0.0
 11
271.0000827140161
 21
150.1614065946052
 31
0.0
  0
LINE
  5
EF7C89C5A
330
EF7C85532
100
AcDbEntity
  8
SAISEN
100
AcDbLine
 10
271.0000827140161
 20
150.4838355946051
 30
0.0
 11
280.268008714016
 21
150.4838355946051
 31
0.0
  0
LINE
  5
EF7C89C5B
330
EF7C85532
100
AcDbEntity
  8
SAISEN
100
AcDbLine
 10
271.0000827140161
 20
152.4757365946051
 30
0.0
 11
280.268008714016
 21
152.4757365946051
 31
0.0
  0
LINE
  5
EF7C89C5C
330
EF7C85532
100
AcDbEntity
  8
JISSEN
100
AcDbLine
 10
271.0000827140161
 20
160.242711838213
 30
0.0
 11
283.550082714016
 21
160.2427118382136
 31
0.0
1001
ACAD
1000
ASC_BOUNDS
1002
{
1070
    19
1002
}
  0
LINE
  5
EF7C89C5D
330
EF7C85532
100
AcDbEntity
  8
JISSEN
100
AcDbLine
 10
284.2500827140161
 20
158.7204945946051
 30
0.0
 11
271.0000827140161
 21
158.7204945946051
 31
0.0
1001
ACAD
1000
ASC_BOUNDS
1002
{
1070
    19
1002
}
  0
LINE
  5
EF7C89C5E
330
EF7C85532
100
AcDbEntity
  8
JISSEN
100
AcDbLine
 10
271.0000827140161
 20
161.9927118382131
 30
0.0
 11
285.5292857306178
 21
161.992711838213
 31
0.0
1001
ACAD
1000
ASC_BOUNDS
1002
{
1070
    19
1002
}
  0
INSERT
  5
EF7C89C5F
330
EF7C85532
100
AcDbEntity
  8
WAKU
100
AcDbBlockReference
  2
WAKU
 10
180.9999992759999
 20
0.0
 30
0.0
 41
181.0
 42
283.0
 43
181.0
  0
LWPOLYLINE
  5
EF7C89C60
330
EF7C85532
100
AcDbEntity
  8
NITEN
100
AcDbPolyline
 90
       15
 70
     1
 43
0.0
 10
256.9999992759999
 20
190.9391430662799
 42
0.4142135623730927
 10
258.4999992759999
 20
189.4391430662799
 10
281.5940504469965
 20
189.4391430662799
 10
283.4999992759999
 20
189.4391430662799
 42
0.4142135623730925
 10
284.9999992759999
 20
190.9391430662799
 10
284.9999992759999
 20
201.9851590924978
 42
-0.4142135623730943
 10
289.9999992759999
 20
206.9851590924979
 42
0.4142135623730951
 10
291.9999992759999
 20
208.9851590924979
 10
291.9999992759999
 20
229.4391430662799
 42
0.4142135623730949
 10
289.9999992759999
 20
231.4391430662799
 10
251.9999992759999
 20
231.4391430662799
 42
0.4142135623730951
 10
249.9999992759999
 20
229.4391430662799
 10
249.9999992759999
 20
208.9851590924979
 42
0.4142135623730951
 10
251.9999992759999
 20
206.9851590924979
 42
-0.4142135623730961
 10
256.9999992759999
 20
201.9851590924978
  0
LWPOLYLINE
  5
EF7C89C61
330
EF7C85532
100
AcDbEntity
  8
NITEN
100
AcDbPolyline
 90
        5
 70
     0
 43
0.0
 10
287.9999992759999
 20
231.4391430662799
 10
287.9999992759999
 20
252.2768607174258
 42
-0.5882352941176476
 10
270.9999992759999
 20
252.2768607174258
 42
0.5882352941176477
 10
253.9999992759999
 20
252.2768607174254
 10
253.9999992759999
 20
231.4391430662799
  0
LWPOLYLINE
  5
EF7C89C62
330
EF7C85532
100
AcDbEntity
  8
NITEN
100
AcDbPolyline
 90
        2
 70
     0
 43
0.0
 10
287.9999992760001
 20
252.2768607174258
 42
0.5882352941176295
 10
270.9999992759999
 20
252.2768607174261
 42
0.5882352941176295
  0
INSERT
  5
EF7C89C63
330
EF7C85532
100
AcDbEntity
  8
WAKU
100
AcDbBlockReference
  2
WAKU
 10
0.0
 20
0.0
 30
0.0
 41
181.0
 42
283.0
 43
181.0
  0
ARC
  5
EF7C89CE2
330
EF7C85532
100
AcDbEntity
  8
JISSEN
100
AcDbCircle
 10
235.5000827140161
 20
53.50746388040864
 30
0.0
 40
1.0
100
AcDbArc
 50
180.0
 51
255.000000000019
  0
LINE
  5
EF7C89CE3
330
EF7C85532
100
AcDbEntity
  8
JISSEN
100
AcDbLine
 10
258.2500827140161
 20
32.49271183821309
 30
0.0
 11
258.2500827140161
 21
30.94271183821229
 31
0.0
1001
ACAD
1000
ASC_BOUNDS
1002
{
1070
    19
1002
}
  0
LINE
  5
EF7C89CE4
330
EF7C85532
100
AcDbEntity
  8
JISSEN
100
AcDbLine
 10
257.7500827140161
 20
29.22049459460521
 30
0.0
 11
271.0000827140161
 21
29.22049459460521
 31
0.0
1001
ACAD
1000
ASC_BOUNDS
1002
{
1070
    19
1002
}
  0
LINE
  5
EF7C89CE5
330
EF7C85532
100
AcDbEntity
  8
JISSEN
100
AcDbLine
 10
271.0000827140161
 20
30.74271183821304
 30
0.0
 11
258.450082714016
 21
30.74271183821361
 31
0.0
1001
ACAD
1000
ASC_BOUNDS
1002
{
1070
    19
1002
}
  0
LINE
  5
EF7C89CE6
330
EF7C85532
100
AcDbEntity
  8
JISSEN
100
AcDbLine
 10
261.7500827140161
 20
24.9204945946052
 30
0.0
 11
257.7500827140161
 21
26.95859639258293
 31
0.0
1001
ACAD
1000
ASC_BOUNDS
1002
{
1070
    19
1002
}
  0
LINE
  5
EF7C89CE7
330
EF7C85532
100
AcDbEntity
  8
JISSEN
100
AcDbLine
 10
257.7500827140161
 20
26.95859639258293
 30
0.0
 11
271.0000827140161
 21
26.95859639258293
 31
0.0
  0
ARC
  5
EF7C89CE8
330
EF7C85532
100
AcDbEntity
  8
JISSEN
100
AcDbCircle
 10
258.450082714016
 20
30.94271183821337
 30
0.0
 40
0.2
100
AcDbArc
 50
180.0000000000006
 51
270.0
1001
ACAD
1000
ASC_BOUNDS
1002
{
1070
    19
1002
}
  0
LINE
  5
EF7C89CE9
330
EF7C85532
100
AcDbEntity
  8
JISSEN
100
AcDbLine
 10
257.7500827140161
 20
29.22049459460521
 30
0.0
 11
257.7500827140161
 21
26.95859639258293
 31
0.0
1001
ACAD
1000
ASC_BOUNDS
1002
{
1070
    19
1002
}
  0
LINE
  5
EF7C89CEA
330
EF7C85532
100
AcDbEntity
  8
SAISEN
100
AcDbLine
 10
271.0000827140161
 20
23.25697159460526
 30
0.0
 11
265.9821567140161
 21
23.25697159460526
 31
0.0
  0
LINE
  5
EF7C89CEB
330
EF7C85532
100
AcDbEntity
  8
SAISEN
100
AcDbLine
 10
271.0000827140161
 20
22.97573659460522
 30
0.0
 11
261.7321567140161
 21
22.97573659460522
 31
0.0
  0
LINE
  5
EF7C89CEC
330
EF7C85532
100
AcDbEntity
  8
SAISEN
100
AcDbLine
 10
271.0000827140161
 20
20.98383559460523
 30
0.0
 11
261.7321567140161
 21
20.98383559460523
 31
0.0
  0
LINE
  5
EF7C89CED
330
EF7C85532
100
AcDbEntity
  8
SAISEN
100
AcDbLine
 10
266.472053714016
 20
22.64361759460524
 30
0.0
 11
261.7321567140161
 21
22.64361759460524
 31
0.0
  0
LINE
  5
EF7C89CEE
330
EF7C85532
100
AcDbEntity
  8
SAISEN
100
AcDbLine
 10
261.7321567140161
 20
20.66140659460523
 30
0.0
 11
271.0000827140161
 21
20.66140659460523
 31
0.0
  0
LINE
  5
EF7C89CEF
330
EF7C85532
100
AcDbEntity
  8
SAISEN
100
AcDbLine
 10
271.0000827140161
 20
20.37049459460524
 30
0.0
 11
263.3657557140161
 21
20.37049459460524
 31
0.0
  0
LINE
  5
EF7C89CF0
330
EF7C85532
100
AcDbEntity
  8
JISSEN
100
AcDbLine
 10
261.7500827140161
 20
24.9204945946052
 30
0.0
 11
271.0000827140161
 21
24.92049459460526
 31
0.0
1001
ACAD
1000
ASC_BOUNDS
1002
{
1070
    19
1002
}
  0
ARC
  5
EF7C89CF1
330
EF7C85532
100
AcDbEntity
  8
SAISEN
100
AcDbCircle
 10
265.9821567140161
 20
22.50697159460526
 30
0.0
 40
0.75
100
AcDbArc
 50
90.0
 51
141.3164110000012
  0
ARC
  5
EF7C89CF2
330
EF7C85532
100
AcDbEntity
  8
SAISEN
100
AcDbCircle
 10
263.4821567140161
 20
21.11140659460522
 30
0.0
 40
0.75
100
AcDbArc
 50
216.8698980000005
 51
278.9284710000001
  0
LINE
  5
EF7C89CF3
330
EF7C85532
100
AcDbEntity
  8
SAISEN
100
AcDbLine
 10
261.7321567140161
 20
22.64361759460524
 30
0.0
 11
261.7321567140161
 21
22.97573659460522
 31
0.0
  0
LINE
  5
EF7C89CF4
330
EF7C85532
100
AcDbEntity
  8
SAISEN
100
AcDbLine
 10
261.7321567140161
 20
20.98383559460523
 30
0.0
 11
261.7321567140161
 21
20.66140659460523
 31
0.0
  0
ARC
  5
EF7C89CF5
330
EF7C85532
100
AcDbEntity
  8
JISSEN
100
AcDbCircle
 10
267.9821567140161
 20
22.14361759460524
 30
0.0
 40
0.5
100
AcDbArc
 50
90.0
 51
180.0
  0
LINE
  5
EF7C89CF6
330
EF7C85532
100
AcDbEntity
  8
JISSEN
100
AcDbLine
 10
267.4821567140161
 20
22.14361759460524
 30
0.0
 11
267.4821567140161
 21
21.28383559460524
 31
0.0
  0
ARC
  5
EF7C89CF7
330
EF7C85532
100
AcDbEntity
  8
JISSEN
100
AcDbCircle
 10
267.182156714016
 20
21.28383559460524
 30
0.0
 40
0.3
100
AcDbArc
 50
270.0
 51
0.0
  0
LINE
  5
EF7C89CF8
330
EF7C85532
100
AcDbEntity
  8
SAISEN
100
AcDbLine
 10
266.472053714016
 20
22.64361759460524
 30
0.0
 11
271.0000827140161
 21
22.64361759460524
 31
0.0
  0
LINE
  5
EF7C89CF9
330
EF7C85532
100
AcDbEntity
  8
JISSEN
100
AcDbLine
 10
267.9821567140161
 20
24.9204945946052
 30
0.0
 11
267.9821567140161
 21
23.25697159460526
 31
0.0
  0
LINE
  5
EF7C89CFA
330
EF7C85532
100
AcDbEntity
  8
JISSEN
100
AcDbLine
 10
262.7375648982008
 20
30.74271183821349
 30
0.0
 11
262.7375648982008
 21
29.22049459460521
 31
0.0
1001
ACAD
1000
ASC_BOUNDS
1002
{
1070
    19
1002
}
  0
LINE
  5
EF7C89CFB
330
EF7C85532
100
AcDbEntity
  8
JISSEN
100
AcDbLine
 10
264.610082714016
 20
29.22049459460521
 30
0.0
 11
264.610082714016
 21
30.74271183821332
 31
0.0
1001
ACAD
1000
ASC_BOUNDS
1002
{
1070
    19
1002
}
  0
ARC
  5
EF7C89CFC
330
EF7C85532
100
AcDbEntity
  8
JISSEN
100
AcDbCircle
 10
263.0578177409351
 20
29.9204945946052
 30
0.0
 40
0.8
100
AcDbArc
 50
113.597937988345
 51
149.9999999999992
1001
ACAD
1000
ASC_BOUNDS
1002
{
1070
    19
1002
}
  0
LINE
  5
EF7C89CFD
330
EF7C85532
100
AcDbEntity
  8
JISSEN
100
AcDbLine
 10
261.7299121217988
 20
29.22049459460521
 30
0.0
 11
262.3649974179075
 21
30.32049459460523
 31
0.0
1001
ACAD
1000
ASC_BOUNDS
1002
{
1070
    19
1002
}
  0
ARC
  5
EF7C89CFE
330
EF7C85532
100
AcDbEntity
  8
JISSEN
100
AcDbCircle
 10
263.1696262208497
 20
28.92859416055256
 30
0.0
 40
0.3
100
AcDbArc
 50
90.0
 51
103.3441175406757
1001
ACAD
1000
ASC_BOUNDS
1002
{
1070
    19
1002
}
  0
LINE
  5
EF7C89CFF
330
EF7C85532
100
AcDbEntity
  8
JISSEN
100
AcDbLine
 10
263.1656217682623
 20
29.22859416055257
 30
0.0
 11
263.2115566893665
 21
29.22049459460521
 31
0.0
1001
ACAD
1000
ASC_BOUNDS
1002
{
1070
    19
1002
}
  0
LINE
  5
EF7C89D00
330
EF7C85532
100
AcDbEntity
  8
JISSEN
100
AcDbLine
 10
250.3269887140161
 20
43.82859416055254
 30
0.0
 11
249.425141714016
 21
43.82859416055254
 31
0.0
  0
LINE
  5
EF7C89D01
330
EF7C85532
100
AcDbEntity
  8
JISSEN
100
AcDbLine
 10
245.5000827140161
 20
45.32859416055259
 30
0.0
 11
271.0000827140161
 21
45.32859416055259
 31
0.0
  0
LINE
  5
EF7C89D02
330
EF7C85532
100
AcDbEntity
  8
JISSEN
100
AcDbLine
 10
244.5000827140161
 20
46.32859416055254
 30
0.0
 11
270.0000827140161
 21
46.32859416055254
 31
0.0
  0
LINE
  5
EF7C89D03
330
EF7C85532
100
AcDbEntity
  8
JISSEN
100
AcDbLine
 10
250.2416067140161
 20
36.80792316055255
 30
0.0
 11
251.629705714016
 21
36.07771016055255
 31
0.0
  0
LINE
  5
EF7C89D04
330
EF7C85532
100
AcDbEntity
  8
JISSEN
100
AcDbLine
 10
256.4708796974144
 20
32.49271183821304
 30
0.0
 11
247.9200573945722
 21
36.51315967748462
 31
0.0
1001
ACAD
1000
ASC_BOUNDS
1002
{
1070
    19
1002
}
  0
LINE
  5
EF7C89D05
330
EF7C85532
100
AcDbEntity
  8
JISSEN
100
AcDbLine
 10
250.0893417140161
 20
43.61102716055256
 30
0.0
 11
250.6200957140161
 21
37.59157716055256
 31
0.0
  0
LINE
  5
EF7C89D06
330
EF7C85532
100
AcDbEntity
  8
JISSEN
100
AcDbLine
 10
249.0269207140161
 20
43.39090716055261
 30
0.0
 11
249.552622714016
 21
37.83596116055253
 31
0.0
  0
LINE
  5
EF7C89D07
330
EF7C85532
100
AcDbEntity
  8
JISSEN
100
AcDbLine
 10
246.531315714016
 20
43.82859416055254
 30
0.0
 11
247.0640100613985
 21
37.73986626001374
 31
0.0
  0
LINE
  5
EF7C89D08
330
EF7C85532
100
AcDbEntity
  8
JISSEN
100
AcDbLine
 10
246.761758714016
 20
43.40803016055253
 30
0.0
 11
247.3495887140161
 21
37.94578116055254
 31
0.0
  0
LINE
  5
EF7C89D09
330
EF7C85532
100
AcDbEntity
  8
JISSEN
100
AcDbLine
 10
247.876591714016
 20
37.88949216055255
 30
0.0
 11
247.244660714016
 21
43.76153016055252
 31
0.0
  0
ARC
  5
EF7C89D0A
330
EF7C85532
100
AcDbEntity
  8
JISSEN
100
AcDbCircle
 10
248.5583021153379
 20
37.8705997963903
 30
0.0
 40
1.5
100
AcDbArc
 50
184.999997019019
 51
244.8179069454226
  0
LINE
  5
EF7C89D0B
330
EF7C85532
100
AcDbEntity
  8
JISSEN
100
AcDbLine
 10
250.135175714016
 20
36.1493311605526
 30
0.0
 11
248.623316714016
 21
36.84872216055259
 31
0.0
  0
LINE
  5
EF7C89D0C
330
EF7C85532
100
AcDbEntity
  8
JISSEN
100
AcDbLine
 10
248.1537557140161
 20
36.82495216055253
 30
0.0
 11
249.620653714016
 21
36.14636016055254
 31
0.0
  0
ARC
  5
EF7C89D0D
330
EF7C85532
100
AcDbEntity
  8
JISSEN
100
AcDbCircle
 10
250.0405087140161
 20
37.05395216055262
 30
0.0
 40
1.0
100
AcDbArc
 50
245.1745949999999
 51
270.0
  0
LINE
  5
EF7C89D0E
330
EF7C85532
100
AcDbEntity
  8
JISSEN
100
AcDbLine
 10
250.0405087140161
 20
36.05395216055262
 30
0.0
 11
250.1141837140159
 21
36.05395216055262
 31
0.0
  0
ARC
  5
EF7C89D0F
330
EF7C85532
100
AcDbEntity
  8
JISSEN
100
AcDbCircle
 10
250.1141837140159
 20
36.10395216055252
 30
0.0
 40
0.05
100
AcDbArc
 50
270.0
 51
65.17459499999998
  0
ARC
  5
EF7C89D10
330
EF7C85532
100
AcDbEntity
  8
JISSEN
100
AcDbCircle
 10
250.8468397140161
 20
37.95844216055263
 30
0.0
 40
1.3
100
AcDbArc
 50
185.4061850000004
 51
242.2532619999987
  0
ARC
  5
EF7C89D11
330
EF7C85532
100
AcDbEntity
  8
JISSEN
100
AcDbCircle
 10
248.741551714016
 20
38.09558016055257
 30
0.0
 40
1.399999999999999
100
AcDbArc
 50
186.1423570000002
 51
245.1745949999999
  0
ARC
  5
EF7C89D12
330
EF7C85532
100
AcDbEntity
  8
JISSEN
100
AcDbCircle
 10
249.169127714016
 20
38.02859116055254
 30
0.0
 40
1.3
100
AcDbArc
 50
186.1423570000002
 51
245.1745949999999
  0
LINE
  5
EF7C89D13
330
EF7C85532
100
AcDbEntity
  8
JISSEN
100
AcDbLine
 10
243.5000827140161
 20
50.32859416055259
 30
0.0
 11
235.2412636689139
 21
52.54153805411954
 31
0.0
  0
LINE
  5
EF7C89D14
330
EF7C85532
100
AcDbEntity
  8
JISSEN
100
AcDbLine
 10
243.5000827140161
 20
46.32859416055254
 30
0.0
 11
243.5000827140161
 21
50.32859416055259
 31
0.0
  0
LINE
  5
EF7C89D15
330
EF7C85532
100
AcDbEntity
  8
JISSEN
100
AcDbLine
 10
244.5000827140161
 20
46.32859416055254
 30
0.0
 11
245.5000827140161
 21
45.32859416055259
 31
0.0
  0
LINE
  5
EF7C89D16
330
EF7C85532
100
AcDbEntity
  8
JISSEN
100
AcDbLine
 10
245.5000827140161
 20
45.32859416055259
 30
0.0
 11
246.400082714016
 21
45.32859416055259
 31
0.0
  0
ARC
  5
EF7C89D17
330
EF7C85532
100
AcDbEntity
  8
JISSEN
100
AcDbCircle
 10
249.425141714016
 20
43.42859416055262
 30
0.0
 40
0.4
100
AcDbArc
 50
90.0
 51
185.4061850000004
  0
ARC
  5
EF7C89D18
330
EF7C85532
100
AcDbEntity
  8
JISSEN
100
AcDbCircle
 10
250.288568714016
 20
43.62859416055255
 30
0.0
 40
0.2
100
AcDbArc
 50
90.0
 51
185.038927
  0
ARC
  5
EF7C89D19
330
EF7C85532
100
AcDbEntity
  8
JISSEN
100
AcDbCircle
 10
247.145234714016
 20
43.75083016055254
 30
0.0
 40
0.1
100
AcDbArc
 50
6.142357000000295
 51
87.28209800000021
  0
ARC
  5
EF7C89D1A
330
EF7C85532
100
AcDbEntity
  8
JISSEN
100
AcDbCircle
 10
247.159461714016
 20
43.45083016055252
 30
0.0
 40
0.4
100
AcDbArc
 50
91.35885500000068
 51
186.1423570000002
  0
LINE
  5
EF7C89D1B
330
EF7C85532
100
AcDbEntity
  8
JISSEN
100
AcDbLine
 10
246.400082714016
 20
45.32859416055259
 30
0.0
 11
246.531315714016
 21
43.82859416055254
 31
0.0
  0
LINE
  5
EF7C89D1C
330
EF7C85532
100
AcDbEntity
  8
JISSEN
100
AcDbLine
 10
269.5000827140161
 20
43.32859416055254
 30
0.0
 11
269.5000827140161
 21
36.53171516055261
 31
0.0
  0
LINE
  5
EF7C89D1D
330
EF7C85532
100
AcDbEntity
  8
JISSEN
100
AcDbLine
 10
264.2582297140161
 20
37.22931816055256
 30
0.0
 11
264.0187777140161
 21
43.63606416055262
 31
0.0
  0
LINE
  5
EF7C89D1E
330
EF7C85532
100
AcDbEntity
  8
JISSEN
100
AcDbLine
 10
256.379061714016
 20
43.64260816055258
 30
0.0
 11
256.822868714016
 21
37.32434216055253
 31
0.0
  0
LINE
  5
EF7C89D1F
330
EF7C85532
100
AcDbEntity
  8
JISSEN
100
AcDbLine
 10
261.629877714016
 20
43.56989316055262
 30
0.0
 11
261.843855714016
 21
37.42505316055252
 31
0.0
  0
LINE
  5
EF7C89D20
330
EF7C85532
100
AcDbEntity
  8
JISSEN
100
AcDbLine
 10
261.204135714016
 20
43.51738916055262
 30
0.0
 11
261.4309697140161
 21
37.44824116055258
 31
0.0
  0
LINE
  5
EF7C89D21
330
EF7C85532
100
AcDbEntity
  8
JISSEN
100
AcDbLine
 10
254.893842714016
 20
43.50900216055253
 30
0.0
 11
255.286485714016
 21
37.50937116055252
 31
0.0
  0
LINE
  5
EF7C89D22
330
EF7C85532
100
AcDbEntity
  8
JISSEN
100
AcDbLine
 10
254.498205714016
 20
37.70203916055254
 30
0.0
 11
254.094171714016
 21
43.45406916055253
 31
0.0
  0
LINE
  5
EF7C89D23
330
EF7C85532
100
AcDbEntity
  8
JISSEN
100
AcDbLine
 10
251.094273714016
 20
37.40614416055257
 30
0.0
 11
250.526165714016
 21
43.64672616055258
 31
0.0
  0
LINE
  5
EF7C89D24
330
EF7C85532
100
AcDbEntity
  8
JISSEN
100
AcDbLine
 10
271.0000827140161
 20
32.49271183821326
 30
0.0
 11
256.4708796974144
 21
32.49271183821304
 31
0.0
1001
ACAD
1000
ASC_BOUNDS
1002
{
1070
    19
1002
}
  0
LINE
  5
EF7C89D25
330
EF7C85532
100
AcDbEntity
  8
JISSEN
100
AcDbLine
 10
252.858807714016
 20
36.22021716055263
 30
0.0
 11
251.359432714016
 21
37.00896716055263
 31
0.0
  0
LINE
  5
EF7C89D26
330
EF7C85532
100
AcDbEntity
  8
JISSEN
100
AcDbLine
 10
256.004429714016
 20
36.09616316055263
 30
0.0
 11
255.001363714016
 21
36.80708516055256
 31
0.0
  0
LINE
  5
EF7C89D27
330
EF7C85532
100
AcDbEntity
  8
JISSEN
100
AcDbLine
 10
256.9905887140161
 20
37.02602416055253
 30
0.0
 11
258.0091837140161
 21
36.30409516055255
 31
0.0
  0
ARC
  5
EF7C89D28
330
EF7C85532
100
AcDbEntity
  8
JISSEN
100
AcDbCircle
 10
252.812250714016
 20
36.13171516055263
 30
0.0
 40
0.1
100
AcDbArc
 50
270.0
 51
62.25326199999882
  0
ARC
  5
EF7C89D29
330
EF7C85532
100
AcDbEntity
  8
JISSEN
100
AcDbCircle
 10
251.815931714016
 20
36.43171516055258
 30
0.0
 40
0.4
100
AcDbArc
 50
242.2532619999987
 51
270.0
  0
LINE
  5
EF7C89D2A
330
EF7C85532
100
AcDbEntity
  8
JISSEN
100
AcDbLine
 10
251.815931714016
 20
36.0317151605526
 30
0.0
 11
252.812250714016
 21
36.0317151605526
 31
0.0
  0
ARC
  5
EF7C89D2B
330
EF7C85532
100
AcDbEntity
  8
JISSEN
100
AcDbCircle
 10
257.922447714016
 20
36.18171516055253
 30
0.0
 40
0.15
100
AcDbArc
 50
270.0
 51
54.67293200000212
  0
ARC
  5
EF7C89D2C
330
EF7C85532
100
AcDbEntity
  8
JISSEN
100
AcDbCircle
 10
256.206814714016
 20
36.38171516055263
 30
0.0
 40
0.35
100
AcDbArc
 50
234.6729320000021
 51
270.0
  0
LINE
  5
EF7C89D2D
330
EF7C85532
100
AcDbEntity
  8
JISSEN
100
AcDbLine
 10
257.922447714016
 20
36.0317151605526
 30
0.0
 11
256.206814714016
 21
36.0317151605526
 31
0.0
  0
ARC
  5
EF7C89D2E
330
EF7C85532
100
AcDbEntity
  8
JISSEN
100
AcDbCircle
 10
255.685631714016
 20
37.53549316055261
 30
0.0
 40
0.4
100
AcDbArc
 50
183.7443620000002
 51
270.0
  0
ARC
  5
EF7C89D2F
330
EF7C85532
100
AcDbEntity
  8
JISSEN
100
AcDbCircle
 10
255.695255714016
 20
37.78612216055262
 30
0.0
 40
1.199999999999999
100
AcDbArc
 50
184.0179690000001
 51
234.6729320000021
  0
ARC
  5
EF7C89D30
330
EF7C85532
100
AcDbEntity
  8
JISSEN
100
AcDbCircle
 10
251.5922147140161
 20
37.4514741605526
 30
0.0
 40
0.5
100
AcDbArc
 50
185.201559
 51
242.2532619999987
  0
ARC
  5
EF7C89D31
330
EF7C85532
100
AcDbEntity
  8
JISSEN
100
AcDbCircle
 10
251.118163714016
 20
37.63549316055264
 30
0.0
 40
0.5
100
AcDbArc
 50
185.038927
 51
279.3495549999982
  0
LINE
  5
EF7C89D32
330
EF7C85532
100
AcDbEntity
  8
JISSEN
100
AcDbLine
 10
255.685631714016
 20
37.13549316055264
 30
0.0
 11
256.885783714016
 21
37.13549316055264
 31
0.0
  0
ARC
  5
EF7C89D33
330
EF7C85532
100
AcDbEntity
  8
JISSEN
100
AcDbCircle
 10
257.221885714016
 20
37.35237016055254
 30
0.0
 40
0.4
100
AcDbArc
 50
184.0179690000001
 51
234.6729320000021
  0
ARC
  5
EF7C89D34
330
EF7C85532
100
AcDbEntity
  8
JISSEN
100
AcDbCircle
 10
270.0000827140161
 20
36.53171516055261
 30
0.0
 40
0.5
100
AcDbArc
 50
180.0
 51
270.0
  0
LINE
  5
EF7C89D35
330
EF7C85532
100
AcDbEntity
  8
JISSEN
100
AcDbLine
 10
261.630557714016
 20
36.88520916055256
 30
0.0
 11
262.181308714016
 21
36.15160116055261
 31
0.0
  0
LINE
  5
EF7C89D36
330
EF7C85532
100
AcDbEntity
  8
JISSEN
100
AcDbLine
 10
264.8500957140161
 20
36.35179216055258
 30
0.0
 11
264.3181057140161
 21
37.06040816055252
 31
0.0
  0
ARC
  5
EF7C89D37
330
EF7C85532
100
AcDbEntity
  8
JISSEN
100
AcDbCircle
 10
262.4212237140161
 20
36.33171516055256
 30
0.0
 40
0.3
100
AcDbArc
 50
216.8971619999989
 51
270.0
  0
LINE
  5
EF7C89D38
330
EF7C85532
100
AcDbEntity
  8
JISSEN
100
AcDbLine
 10
262.4212237140161
 20
36.0317151605526
 30
0.0
 11
264.690152714016
 21
36.0317151605526
 31
0.0
  0
ARC
  5
EF7C89D39
330
EF7C85532
100
AcDbEntity
  8
JISSEN
100
AcDbCircle
 10
264.690152714016
 20
36.23171516055254
 30
0.0
 40
0.2
100
AcDbArc
 50
270.0
 51
36.8971619999989
  0
LINE
  5
EF7C89D3A
330
EF7C85532
100
AcDbEntity
  8
JISSEN
100
AcDbLine
 10
271.0000827140161
 20
36.0317151605526
 30
0.0
 11
270.0000827140161
 21
36.0317151605526
 31
0.0
  0
ARC
  5
EF7C89D3B
330
EF7C85532
100
AcDbEntity
  8
JISSEN
100
AcDbCircle
 10
264.558020714016
 20
37.24052216055253
 30
0.0
 40
0.3
100
AcDbArc
 50
182.1404319999997
 51
216.8971619999989
  0
ARC
  5
EF7C89D3C
330
EF7C85532
100
AcDbEntity
  8
JISSEN
100
AcDbCircle
 10
262.1436737140161
 20
37.43549316055254
 30
0.0
 40
0.3
100
AcDbArc
 50
181.994368
 51
270.0
  0
ARC
  5
EF7C89D3D
330
EF7C85532
100
AcDbEntity
  8
JISSEN
100
AcDbCircle
 10
262.430271714016
 20
37.48559016055253
 30
0.0
 40
1.0
100
AcDbArc
 50
182.1404319999997
 51
216.8971619999989
  0
LINE
  5
EF7C89D3E
330
EF7C85532
100
AcDbEntity
  8
JISSEN
100
AcDbLine
 10
262.1436737140161
 20
37.13549316055264
 30
0.0
 11
264.2770067140161
 21
37.13549316055264
 31
0.0
  0
LINE
  5
EF7C89D3F
330
EF7C85532
100
AcDbEntity
  8
JISSEN
100
AcDbLine
 10
270.0000827140161
 20
37.13549316055264
 30
0.0
 11
271.0000827140161
 21
37.13549316055264
 31
0.0
  0
ARC
  5
EF7C89D40
330
EF7C85532
100
AcDbEntity
  8
JISSEN
100
AcDbCircle
 10
270.0000827140161
 20
37.63549316055264
 30
0.0
 40
0.5
100
AcDbArc
 50
180.0
 51
270.0
  0
LINE
  5
EF7C89D41
330
EF7C85532
100
AcDbEntity
  8
JISSEN
100
AcDbLine
 10
255.1932017140161
 20
43.82859416055254
 30
0.0
 11
256.1795527140161
 21
43.82859416055254
 31
0.0
  0
ARC
  5
EF7C89D42
330
EF7C85532
100
AcDbEntity
  8
JISSEN
100
AcDbCircle
 10
255.1932017140161
 20
43.52859416055252
 30
0.0
 40
0.3
100
AcDbArc
 50
90.0
 51
183.7443620000002
  0
ARC
  5
EF7C89D43
330
EF7C85532
100
AcDbEntity
  8
JISSEN
100
AcDbCircle
 10
254.443310714016
 20
43.47859416055252
 30
0.0
 40
0.35
100
AcDbArc
 50
90.0
 51
184.0179690000001
  0
LINE
  5
EF7C89D44
330
EF7C85532
100
AcDbEntity
  8
JISSEN
100
AcDbLine
 10
254.443310714016
 20
43.82859416055254
 30
0.0
 11
255.1932017140161
 21
43.82859416055254
 31
0.0
  0
ARC
  5
EF7C89D45
330
EF7C85532
100
AcDbEntity
  8
JISSEN
100
AcDbCircle
 10
250.3269887140161
 20
43.62859416055255
 30
0.0
 40
0.2
100
AcDbArc
 50
5.201558999999984
 51
90.0
  0
ARC
  5
EF7C89D46
330
EF7C85532
100
AcDbEntity
  8
JISSEN
100
AcDbCircle
 10
256.1795527140161
 20
43.62859416055255
 30
0.0
 40
0.2
100
AcDbArc
 50
4.017969000000171
 51
90.0
  0
ARC
  5
EF7C89D47
330
EF7C85532
100
AcDbEntity
  8
JISSEN
100
AcDbCircle
 10
263.818916714016
 20
43.62859416055255
 30
0.0
 40
0.2
100
AcDbArc
 50
2.140431999999805
 51
90.0
  0
ARC
  5
EF7C89D48
330
EF7C85532
100
AcDbEntity
  8
JISSEN
100
AcDbCircle
 10
261.879725714016
 20
43.57859416055259
 30
0.0
 40
0.25
100
AcDbArc
 50
90.0
 51
181.994368
  0
ARC
  5
EF7C89D49
330
EF7C85532
100
AcDbEntity
  8
JISSEN
100
AcDbCircle
 10
261.503925714016
 20
43.52859416055252
 30
0.0
 40
0.3
100
AcDbArc
 50
90.0
 51
182.1404319999997
  0
LINE
  5
EF7C89D4A
330
EF7C85532
100
AcDbEntity
  8
JISSEN
100
AcDbLine
 10
263.818916714016
 20
43.82859416055254
 30
0.0
 11
261.503925714016
 21
43.82859416055254
 31
0.0
  0
LINE
  5
EF7C89D4B
330
EF7C85532
100
AcDbEntity
  8
JISSEN
100
AcDbLine
 10
271.0000827140161
 20
43.82859416055254
 30
0.0
 11
270.0000827140161
 21
43.82859416055254
 31
0.0
  0
ARC
  5
EF7C89D4C
330
EF7C85532
100
AcDbEntity
  8
JISSEN
100
AcDbCircle
 10
270.0000827140161
 20
43.32859416055254
 30
0.0
 40
0.5
100
AcDbArc
 50
90.0
 51
180.0
  0
ARC
  5
EF7C89D4D
330
EF7C85532
100
AcDbEntity
  8
JISSEN
100
AcDbCircle
 10
271.0000827140161
 20
46.32859416055254
 30
0.0
 40
1.0
100
AcDbArc
 50
180.0
 51
270.0
  0
LINE
  5
EF7C89D74
330
EF7C85532
100
AcDbEntity
  8
JISSEN
100
AcDbLine
 10
260.4025767970672
 20
53.8285941605526
 30
0.0
 11
205.7240933203045
 21
53.8285941605526
 31
0.0
  0
LINE
  5
EF7C89D75
330
EF7C85532
100
AcDbEntity
  8
JISSEN
100
AcDbLine
 10
202.2663302868745
 20
58.8285941605526
 30
0.0
 11
260.4650799770038
 21
58.8285941605526
 31
0.0
  0
LWPOLYLINE
  5
EF7C89D76
330
EF7C85532
100
AcDbEntity
  8
HATCH
100
AcDbPolyline
 90
       13
 70
     0
 43
0.0
 10
202.2663302868745
 20
58.82859416055257
 10
202.4309174651246
 20
58.00895708232051
 10
202.5728228218049
 20
57.49233910555624
 10
202.8005314589527
 20
57.07391281886842
 10
203.108418945612
 20
56.73579579520147
 10
203.4746422345914
 20
56.44554472255137
 10
203.8773582787003
 20
56.17071628891388
 10
204.2947240307471
 20
55.87886718228489
 10
204.7048964435409
 20
55.53755409066017
 10
205.0860324698907
 20
55.1143337020358
 10
205.416289062605
 20
54.57676270440751
 10
205.6908691258079
 20
53.91314391712004
 10
205.7240933203045
 20
53.82859416055257
  0
LINE
  5
EF7C89D77
330
EF7C85532
100
AcDbEntity
  8
JISSEN
100
AcDbLine
 10
244.6500827140161
 20
53.8285941605526
 30
0.0
 11
271.0000827140161
 21
53.8285941605526
 31
0.0
  0
LINE
  5
EF7C89D78
330
EF7C85532
100
AcDbEntity
  8
JISSEN
100
AcDbLine
 10
244.6500827140161
 20
53.8285941605526
 30
0.0
 11
271.0000827140161
 21
53.8285941605526
 31
0.0
  0
LINE
  5
EF7C89D79
330
EF7C85532
100
AcDbEntity
  8
JISSEN
100
AcDbLine
 10
234.5000827140161
 20
53.50746388040864
 30
0.0
 11
234.5000827140161
 21
53.8285941605526
 31
0.0
  0
LINE
  5
EF7C89D7A
330
EF7C85532
100
AcDbEntity
  8
SAISEN
100
AcDbLine
 10
261.540849714016
 20
56.06936116055255
 30
0.0
 11
262.0333495607494
 21
71.82859416055624
 31
0.0
  0
LINE
  5
EF7C89D7B
330
EF7C85532
100
AcDbEntity
  8
JISSEN
100
AcDbLine
 10
260.8349379926512
 20
70.66344851588315
 30
0.0
 11
260.341363714016
 21
54.86987516055262
 31
0.0
  0
LINE
  5
EF7C89D7C
330
EF7C85532
100
AcDbEntity
  8
SAISEN
100
AcDbLine
 10
260.341363714016
 20
54.86987516055262
 30
0.0
 11
261.540849714016
 21
56.06936116055255
 31
0.0
  0
LINE
  5
EF7C89D7D
330
EF7C85532
100
AcDbEntity
  8
JISSEN
100
AcDbLine
 10
271.0000827140161
 20
56.06936116055255
 30
0.0
 11
260.378849714016
 21
56.06936116055255
 31
0.0
  0
LINE
  5
EF7C89D7E
330
EF7C85532
100
AcDbEntity
  8
JISSEN
100
AcDbLine
 10
253.5000827140161
 20
58.8285941605526
 30
0.0
 11
253.5000827140161
 21
53.8285941605526
 31
0.0
  0
LINE
  5
EF7C89D7F
330
EF7C85532
100
AcDbEntity
  8
JISSEN
100
AcDbLine
 10
259.300082714016
 20
53.8285941605526
 30
0.0
 11
260.341363714016
 21
54.86987516055262
 31
0.0
  0
LINE
  5
EF7C89D80
330
EF7C85532
100
AcDbEntity
  8
JISSEN
100
AcDbLine
 10
259.300082714016
 20
53.8285941605526
 30
0.0
 11
260.341363714016
 21
54.86987516055262
 31
0.0
  0
LINE
  5
EF7C89D81
330
EF7C85532
100
AcDbEntity
  8
JISSEN
100
AcDbLine
 10
260.7381587140161
 20
70.56666916055622
 30
0.0
 11
262.0000827140161
 21
71.82859416055624
 31
0.0
  0
LINE
  5
EF7C89D82
330
EF7C85532
100
AcDbEntity
  8
JISSEN
100
AcDbLine
 10
260.7381587140161
 20
70.56666916055622
 30
0.0
 11
271.0000827140161
 21
70.56666916055622
 31
0.0
  0
LINE
  5
EF7C89D83
330
EF7C85532
100
AcDbEntity
  8
JISSEN
100
AcDbLine
 10
262.0000827140161
 20
71.82859416055624
 30
0.0
 11
271.0000827140161
 21
71.82859416055624
 31
0.0
  0
HATCH
  5
EF7C89D84
330
EF7C85532
100
AcDbEntity
  8
HATCH
100
AcDbHatch
 10
0.0
 20
0.0
 30
0.0
210
0.0
220
0.0
230
1.0
  2
_U
 70
     0
 71
     0
 91
        2
 92
        7
 72
     0
 73
     1
 93
       12
 10
107.5000834380159
 20
188.3285939608951
 10
107.5000834380159
 20
183.328593960895
 10
116.3500834380158
 20
183.328593960895
 10
155.2741466959156
 20
183.328593960895
 10
155.7144848013899
 20
184.3928250494265
 10
156.4276421882648
 20
185.1847280067884
 10
157.5979996273206
 20
186.0031175640292
 10
157.891580330388
 20
186.235795595544
 10
158.1994678170472
 20
186.5739126192108
 10
158.427176454195
 20
186.9923389058986
 10
158.5690818108755
 20
187.5089568826629
 10
158.7336689891253
 20
188.3285939608951
 97
        0
 92
        7
 72
     0
 73
     1
 93
       11
 10
21.26633101087452
 20
188.3285939608951
 10
21.43091818912455
 20
187.5089568826629
 10
21.57282354580491
 20
186.9923389058988
 10
21.80053218295268
 20
186.573912619211
 10
22.10841966961209
 20
186.2357955955438
 10
22.40200037267959
 20
186.0031175640289
 10
23.57235781173528
 20
185.1847280067883
 10
24.28551519861014
 20
184.3928250494265
 10
24.72585330408435
 20
183.328593960895
 10
72.50008343801607
 20
183.328593960895
 10
72.50008343801607
 20
188.3285939608951
 97
        0
 75
     0
 76
     0
 52
45.0
 41
2.0
 77
     0
 78
     1
 53
45.0
 43
0.0
 44
2.999999800342606
 45
-1.414213562373094
 46
1.414213562373094
 79
     0
 47
0.2346837798524018
 98
        2
 10
117.2263874898444
 20
186.1842257965506
 10
66.25858219618862
 20
186.8882768503218
  0
LWPOLYLINE
  5
EF7C89D85
330
EF7C85532
100
AcDbEntity
  8
NITEN
100
AcDbPolyline
 90
       15
 70
     1
 43
0.0
 10
76.0
 20
190.9391428666225
 42
0.4142135623730927
 10
77.49999999999989
 20
189.4391428666225
 10
100.5940511709965
 20
189.4391428666225
 10
102.4999999999998
 20
189.4391428666225
 42
0.4142135623730925
 10
104.0
 20
190.9391428666225
 10
104.0
 20
201.9851588928405
 42
-0.4142135623730943
 10
109.0
 20
206.9851588928405
 42
0.4142135623730951
 10
111.0
 20
208.9851588928405
 10
110.9999999999997
 20
229.4391428666225
 42
0.4142135623730949
 10
109.0
 20
231.4391428666225
 10
71.0
 20
231.4391428666225
 42
0.4142135623730951
 10
69.0
 20
229.4391428666225
 10
69.0
 20
208.9851588928405
 42
0.4142135623730951
 10
71.0
 20
206.9851588928405
 42
-0.4142135623730961
 10
76.0
 20
201.9851588928405
  0
LINE
  5
EF7C89D86
330
EF7C85532
100
AcDbEntity
  8
JISSEN
100
AcDbLine
 10
158.7336689891253
 20
188.3285939608951
 30
0.0
 11
100.5350861750282
 21
188.3285939608951
 31
0.0
  0
LINE
  5
EF7C89D87
330
EF7C85532
100
AcDbEntity
  8
JISSEN
100
AcDbLine
 10
100.5975893549649
 20
183.328593960895
 30
0.0
 11
155.2759059556956
 21
183.328593960895
 31
0.0
  0
LINE
  5
EF7C89D88
330
EF7C85532
100
AcDbEntity
  8
JISSEN
100
AcDbLine
 10
91.00008343801608
 20
182.828593960895
 30
0.0
 11
116.5000834380159
 21
182.828593960895
 31
0.0
  0
LINE
  5
EF7C89D89
330
EF7C85532
100
AcDbEntity
  8
JISSEN
100
AcDbLine
 10
116.5000834380159
 20
175.828593960895
 30
0.0
 11
91.00008343801608
 21
175.828593960895
 31
0.0
  0
LINE
  5
EF7C89D8A
330
EF7C85532
100
AcDbEntity
  8
JISSEN
100
AcDbLine
 10
115.5000834380159
 20
174.828593960895
 30
0.0
 11
90.00008343801608
 21
174.828593960895
 31
0.0
  0
LINE
  5
EF7C89D8B
330
EF7C85532
100
AcDbEntity
  8
JISSEN
100
AcDbLine
 10
116.3500834380158
 20
183.328593960895
 30
0.0
 11
90.00008343801608
 21
183.328593960895
 31
0.0
  0
LINE
  5
EF7C89D8C
330
EF7C85532
100
AcDbEntity
  8
JISSEN
100
AcDbLine
 10
103.2500834380159
 20
156.4585961929254
 30
0.0
 11
90.00008343801608
 21
156.4585961929254
 31
0.0
  0
LINE
  5
EF7C89D8D
330
EF7C85532
100
AcDbEntity
  8
JISSEN
100
AcDbLine
 10
90.00008343801608
 20
160.2427116385555
 30
0.0
 11
102.550083438016
 21
160.2427116385561
 31
0.0
1001
ACAD
1000
ASC_BOUNDS
1002
{
1070
    19
1002
}
  0
LINE
  5
EF7C89D8E
330
EF7C85532
100
AcDbEntity
  8
JISSEN
100
AcDbLine
 10
103.2500834380159
 20
158.7204943949478
 30
0.0
 11
90.00008343801608
 21
158.7204943949476
 31
0.0
1001
ACAD
1000
ASC_BOUNDS
1002
{
1070
    19
1002
}
  0
LINE
  5
EF7C89D8F
330
EF7C85532
100
AcDbEntity
  8
JISSEN
100
AcDbLine
 10
90.00008343801608
 20
161.9927116385558
 30
0.0
 11
104.5292864546178
 21
161.9927116385555
 31
0.0
1001
ACAD
1000
ASC_BOUNDS
1002
{
1070
    19
1002
}
  0
LINE
  5
EF7C89D90
330
EF7C85532
100
AcDbEntity
  8
JISSEN
100
AcDbLine
 10
99.25008343801607
 20
154.4204943949478
 30
0.0
 11
103.2500834380159
 21
156.4585961929254
 31
0.0
1001
ACAD
1000
ASC_BOUNDS
1002
{
1070
    19
1002
}
  0
LWPOLYLINE
  5
EF7C89D91
330
EF7C85532
100
AcDbEntity
  8
NITEN
100
AcDbPolyline
 90
        5
 70
     0
 43
0.0
 10
107.0
 20
231.4391428666225
 10
107.0
 20
252.2768605177684
 42
-0.5882352941176476
 10
90.0
 20
252.2768605177684
 42
0.5882352941176477
 10
73.0
 20
252.276860517768
 10
73.0
 20
231.4391428666225
  0
LWPOLYLINE
  5
EF7C89D92
330
EF7C85532
100
AcDbEntity
  8
NITEN
100
AcDbPolyline
 90
        2
 70
     0
 43
0.0
 10
107.0000000000001
 20
252.2768605177684
 42
0.5882352941176295
 10
90.0
 20
252.2768605177686
 42
0.5882352941176295
  0
LWPOLYLINE
  5
EF7C89D93
330
EF7C85532
100
AcDbEntity
  8
HATCH
100
AcDbPolyline
 90
       13
 70
     0
 43
0.0
 10
21.26633101087452
 20
188.3285939608951
 10
21.43091818912455
 20
187.508956882663
 10
21.57282354580491
 20
186.9923389058988
 10
21.80053218295268
 20
186.573912619211
 10
22.10841966961197
 20
186.235795595544
 10
22.47464295859151
 20
185.9455445228938
 10
22.87735900270024
 20
185.6707160892563
 10
23.2947247547471
 20
185.3788669826274
 10
23.70489716754093
 20
185.0375538910027
 10
24.08603319389067
 20
184.6143335023783
 10
24.41628978660514
 20
184.0767625047499
 10
24.69086984980788
 20
183.4131437174626
 10
24.72409404430448
 20
183.328593960895
  0
LINE
  5
EF7C89D94
330
EF7C85532
100
AcDbEntity
  8
JISSEN
100
AcDbLine
 10
72.50008343801607
 20
188.3285939608951
 30
0.0
 11
72.50008343801607
 21
183.328593960895
 31
0.0
  0
LINE
  5
EF7C89D95
330
EF7C85532
100
AcDbEntity
  8
SAISEN
100
AcDbLine
 10
80.54085043801604
 20
185.569360960895
 30
0.0
 11
81.0333502847493
 21
201.3285939608986
 31
0.0
  0
LINE
  5
EF7C89D96
330
EF7C85532
100
AcDbEntity
  8
JISSEN
100
AcDbLine
 10
79.83493871665121
 20
200.1634483162257
 30
0.0
 11
79.34136443801605
 21
184.369874960895
 31
0.0
  0
LINE
  5
EF7C89D97
330
EF7C85532
100
AcDbEntity
  8
JISSEN
100
AcDbLine
 10
100.1652281593809
 20
200.1634483162257
 30
0.0
 11
100.6588024380158
 21
184.369874960895
 31
0.0
  0
LINE
  5
EF7C89D98
330
EF7C85532
100
AcDbEntity
  8
SAISEN
100
AcDbLine
 10
99.459316438016
 20
185.569360960895
 30
0.0
 11
98.96681659128274
 21
201.3285939608986
 31
0.0
  0
LINE
  5
EF7C89D99
330
EF7C85532
100
AcDbEntity
  8
JISSEN
100
AcDbLine
 10
79.4025775210672
 20
183.328593960895
 30
0.0
 11
24.72409404430448
 21
183.328593960895
 31
0.0
  0
LINE
  5
EF7C89D9A
330
EF7C85532
100
AcDbEntity
  8
JISSEN
100
AcDbLine
 10
75.47088042141433
 20
161.9927116385555
 30
0.0
 11
66.94547781217671
 21
166.001207580266
 31
0.0
1001
ACAD
1000
ASC_BOUNDS
1002
{
1070
    19
1002
}
  0
LINE
  5
EF7C89D9B
330
EF7C85532
100
AcDbEntity
  8
JISSEN
100
AcDbLine
 10
90.00008343801608
 20
161.9927116385558
 30
0.0
 11
75.47088042141433
 21
161.9927116385555
 31
0.0
1001
ACAD
1000
ASC_BOUNDS
1002
{
1070
    19
1002
}
  0
LINE
  5
EF7C89D9C
330
EF7C85532
100
AcDbEntity
  8
JISSEN
100
AcDbLine
 10
76.75008343801607
 20
158.7204943949478
 30
0.0
 11
90.00008343801608
 21
158.7204943949476
 31
0.0
1001
ACAD
1000
ASC_BOUNDS
1002
{
1070
    19
1002
}
  0
LINE
  5
EF7C89D9D
330
EF7C85532
100
AcDbEntity
  8
JISSEN
100
AcDbLine
 10
90.00008343801608
 20
160.2427116385555
 30
0.0
 11
77.45008343801612
 21
160.2427116385561
 31
0.0
1001
ACAD
1000
ASC_BOUNDS
1002
{
1070
    19
1002
}
  0
LINE
  5
EF7C89D9E
330
EF7C85532
100
AcDbEntity
  8
JISSEN
100
AcDbLine
 10
76.75008343801607
 20
156.4585961929254
 30
0.0
 11
90.00008343801608
 21
156.4585961929254
 31
0.0
  0
LINE
  5
EF7C89D9F
330
EF7C85532
100
AcDbEntity
  8
JISSEN
100
AcDbLine
 10
80.75008343801608
 20
154.4204943949478
 30
0.0
 11
76.75008343801607
 21
156.4585961929254
 31
0.0
1001
ACAD
1000
ASC_BOUNDS
1002
{
1070
    19
1002
}
  0
LINE
  5
EF7C89DA0
330
EF7C85532
100
AcDbEntity
  8
JISSEN
100
AcDbLine
 10
76.75008343801607
 20
158.7204943949478
 30
0.0
 11
76.75008343801607
 21
156.4585961929254
 31
0.0
1001
ACAD
1000
ASC_BOUNDS
1002
{
1070
    19
1002
}
  0
LINE
  5
EF7C89DA1
330
EF7C85532
100
AcDbEntity
  8
JISSEN
100
AcDbLine
 10
77.25008343801608
 20
161.9927116385555
 30
0.0
 11
77.25008343801608
 21
160.4427116385548
 31
0.0
1001
ACAD
1000
ASC_BOUNDS
1002
{
1070
    19
1002
}
  0
ARC
  5
EF7C89DA2
330
EF7C85532
100
AcDbEntity
  8
JISSEN
100
AcDbCircle
 10
77.45008343801612
 20
160.4427116385559
 30
0.0
 40
0.2
100
AcDbArc
 50
180.0000000000006
 51
270.0
1001
ACAD
1000
ASC_BOUNDS
1002
{
1070
    19
1002
}
  0
ARC
  5
EF7C89DA3
330
EF7C85532
100
AcDbEntity
  8
SAISEN
100
AcDbCircle
 10
95.01800943801606
 20
152.0069713949478
 30
0.0
 40
0.75
100
AcDbArc
 50
38.68358899999899
 51
90.0
  0
ARC
  5
EF7C89DA4
330
EF7C85532
100
AcDbEntity
  8
SAISEN
100
AcDbCircle
 10
84.98215743801608
 20
152.0069713949478
 30
0.0
 40
0.75
100
AcDbArc
 50
90.0
 51
141.3164110000009
  0
LINE
  5
EF7C89DA5
330
EF7C85532
100
AcDbEntity
  8
SAISEN
100
AcDbLine
 10
90.00008343801608
 20
149.8704943949478
 30
0.0
 11
97.63441043801606
 21
149.8704943949478
 31
0.0
  0
LINE
  5
EF7C89DA6
330
EF7C85532
100
AcDbEntity
  8
SAISEN
100
AcDbLine
 10
99.26800943801607
 20
150.1614063949478
 30
0.0
 11
90.00008343801608
 21
150.1614063949476
 31
0.0
  0
LINE
  5
EF7C89DA7
330
EF7C85532
100
AcDbEntity
  8
SAISEN
100
AcDbLine
 10
90.00008343801608
 20
150.4838353949478
 30
0.0
 11
99.26800943801607
 21
150.4838353949478
 31
0.0
  0
LINE
  5
EF7C89DA8
330
EF7C85532
100
AcDbEntity
  8
SAISEN
100
AcDbLine
 10
90.00008343801608
 20
152.4757363949477
 30
0.0
 11
99.26800943801607
 21
152.4757363949477
 31
0.0
  0
LINE
  5
EF7C89DA9
330
EF7C85532
100
AcDbEntity
  8
SAISEN
100
AcDbLine
 10
94.52811243801603
 20
152.1436173949478
 30
0.0
 11
90.00008343801608
 21
152.1436173949478
 31
0.0
  0
LINE
  5
EF7C89DAA
330
EF7C85532
100
AcDbEntity
  8
SAISEN
100
AcDbLine
 10
90.00008343801608
 20
152.4757363949477
 30
0.0
 11
80.73215743801609
 21
152.4757363949477
 31
0.0
  0
LINE
  5
EF7C89DAB
330
EF7C85532
100
AcDbEntity
  8
SAISEN
100
AcDbLine
 10
90.00008343801608
 20
150.4838353949478
 30
0.0
 11
80.73215743801609
 21
150.4838353949478
 31
0.0
  0
LINE
  5
EF7C89DAC
330
EF7C85532
100
AcDbEntity
  8
SAISEN
100
AcDbLine
 10
80.73215743801609
 20
150.1614063949478
 30
0.0
 11
90.00008343801608
 21
150.1614063949476
 31
0.0
  0
LINE
  5
EF7C89DAD
330
EF7C85532
100
AcDbEntity
  8
SAISEN
100
AcDbLine
 10
85.47205443801601
 20
152.1436173949478
 30
0.0
 11
90.00008343801608
 21
152.1436173949478
 31
0.0
  0
LINE
  5
EF7C89DAE
330
EF7C85532
100
AcDbEntity
  8
SAISEN
100
AcDbLine
 10
90.00008343801608
 20
149.8704943949478
 30
0.0
 11
82.36575643801609
 21
149.8704943949478
 31
0.0
  0
ARC
  5
EF7C89DAF
330
EF7C85532
100
AcDbEntity
  8
SAISEN
100
AcDbCircle
 10
82.48215743801608
 20
150.6114063949478
 30
0.0
 40
0.75
100
AcDbArc
 50
216.8698980000005
 51
278.9284710000001
  0
LINE
  5
EF7C89DB0
330
EF7C85532
100
AcDbEntity
  8
SAISEN
100
AcDbLine
 10
85.47205443801601
 20
152.1436173949478
 30
0.0
 11
80.73215743801609
 21
152.1436173949478
 31
0.0
  0
LINE
  5
EF7C89DB1
330
EF7C85532
100
AcDbEntity
  8
SAISEN
100
AcDbLine
 10
80.73215743801609
 20
152.1436173949478
 30
0.0
 11
80.73215743801609
 21
152.4757363949477
 31
0.0
  0
LINE
  5
EF7C89DB2
330
EF7C85532
100
AcDbEntity
  8
SAISEN
100
AcDbLine
 10
80.73215743801609
 20
150.4838353949478
 30
0.0
 11
80.73215743801609
 21
150.1614063949478
 31
0.0
  0
ARC
  5
EF7C89DB3
330
EF7C85532
100
AcDbEntity
  8
JISSEN
100
AcDbCircle
 10
86.98215743801609
 20
151.6436173949478
 30
0.0
 40
0.5
100
AcDbArc
 50
90.0
 51
180.0
  0
LINE
  5
EF7C89DB4
330
EF7C85532
100
AcDbEntity
  8
JISSEN
100
AcDbLine
 10
86.48215743801609
 20
151.6436173949478
 30
0.0
 11
86.48215743801609
 21
150.7838353949478
 31
0.0
  0
ARC
  5
EF7C89DB5
330
EF7C85532
100
AcDbEntity
  8
JISSEN
100
AcDbCircle
 10
86.18215743801602
 20
150.7838353949478
 30
0.0
 40
0.3
100
AcDbArc
 50
270.0
 51
0.0
  0
LINE
  5
EF7C89DB6
330
EF7C85532
100
AcDbEntity
  8
SAISEN
100
AcDbLine
 10
94.52811243801603
 20
152.1436173949478
 30
0.0
 11
99.26800943801607
 21
152.1436173949478
 31
0.0
  0
ARC
  5
EF7C89DB7
330
EF7C85532
100
AcDbEntity
  8
JISSEN
100
AcDbCircle
 10
93.81800943801602
 20
150.7838353949478
 30
0.0
 40
0.3
100
AcDbArc
 50
180.0
 51
270.0
  0
LINE
  5
EF7C89DB8
330
EF7C85532
100
AcDbEntity
  8
JISSEN
100
AcDbLine
 10
93.51800943801606
 20
151.6436173949478
 30
0.0
 11
93.51800943801606
 21
150.7838353949478
 31
0.0
  0
ARC
  5
EF7C89DB9
330
EF7C85532
100
AcDbEntity
  8
JISSEN
100
AcDbCircle
 10
93.01800943801607
 20
151.6436173949478
 30
0.0
 40
0.5
100
AcDbArc
 50
0.0
 51
90.0
  0
LINE
  5
EF7C89DBA
330
EF7C85532
100
AcDbEntity
  8
SAISEN
100
AcDbLine
 10
99.26800943801607
 20
150.4838353949478
 30
0.0
 11
99.26800943801607
 21
150.1614063949478
 31
0.0
  0
LINE
  5
EF7C89DBB
330
EF7C85532
100
AcDbEntity
  8
SAISEN
100
AcDbLine
 10
99.26800943801607
 20
152.1436173949478
 30
0.0
 11
99.26800943801607
 21
152.4757363949477
 31
0.0
  0
ARC
  5
EF7C89DBC
330
EF7C85532
100
AcDbEntity
  8
SAISEN
100
AcDbCircle
 10
97.51800943801606
 20
150.6114063949478
 30
0.0
 40
0.75
100
AcDbArc
 50
261.0715289999998
 51
323.1301019999993
  0
LINE
  5
EF7C89DBD
330
EF7C85532
100
AcDbEntity
  8
JISSEN
100
AcDbLine
 10
99.25008343801607
 20
154.4204943949478
 30
0.0
 11
90.00008343801608
 21
154.4204943949478
 31
0.0
1001
ACAD
1000
ASC_BOUNDS
1002
{
1070
    19
1002
}
  0
LINE
  5
EF7C89DBE
330
EF7C85532
100
AcDbEntity
  8
SAISEN
100
AcDbLine
 10
90.00008343801608
 20
152.7569713949478
 30
0.0
 11
95.01800943801606
 21
152.7569713949478
 31
0.0
  0
LINE
  5
EF7C89DBF
330
EF7C85532
100
AcDbEntity
  8
JISSEN
100
AcDbLine
 10
80.75008343801608
 20
154.4204943949478
 30
0.0
 11
90.00008343801608
 21
154.4204943949478
 31
0.0
1001
ACAD
1000
ASC_BOUNDS
1002
{
1070
    19
1002
}
  0
LINE
  5
EF7C89DC0
330
EF7C85532
100
AcDbEntity
  8
SAISEN
100
AcDbLine
 10
90.00008343801608
 20
152.7569713949478
 30
0.0
 11
84.98215743801608
 21
152.7569713949478
 31
0.0
  0
LINE
  5
EF7C89DC1
330
EF7C85532
100
AcDbEntity
  8
JISSEN
100
AcDbLine
 10
86.98215743801609
 20
154.4204943949478
 30
0.0
 11
86.98215743801609
 21
152.7569713949478
 31
0.0
  0
LINE
  5
EF7C89DC2
330
EF7C85532
100
AcDbEntity
  8
JISSEN
100
AcDbLine
 10
81.73756562220081
 20
160.242711638556
 30
0.0
 11
81.73756562220081
 21
158.7204943949478
 31
0.0
1001
ACAD
1000
ASC_BOUNDS
1002
{
1070
    19
1002
}
  0
ARC
  5
EF7C89DC3
330
EF7C85532
100
AcDbEntity
  8
JISSEN
100
AcDbCircle
 10
82.05781846493506
 20
159.4204943949478
 30
0.0
 40
0.8
100
AcDbArc
 50
113.5979379883451
 51
149.9999999999996
1001
ACAD
1000
ASC_BOUNDS
1002
{
1070
    19
1002
}
  0
LINE
  5
EF7C89DC4
330
EF7C85532
100
AcDbEntity
  8
JISSEN
100
AcDbLine
 10
80.72991284579893
 20
158.7204943949478
 30
0.0
 11
81.36499814190745
 21
159.8204943949478
 31
0.0
1001
ACAD
1000
ASC_BOUNDS
1002
{
1070
    19
1002
}
  0
LINE
  5
EF7C89DC5
330
EF7C85532
100
AcDbEntity
  8
JISSEN
100
AcDbLine
 10
83.61008343801609
 20
158.7204943949478
 30
0.0
 11
83.61008343801609
 21
160.2427116385559
 31
0.0
1001
ACAD
1000
ASC_BOUNDS
1002
{
1070
    19
1002
}
  0
LINE
  5
EF7C89DC6
330
EF7C85532
100
AcDbEntity
  8
JISSEN
100
AcDbLine
 10
93.01800943801607
 20
154.4204943949478
 30
0.0
 11
93.01800943801607
 21
152.7569713949478
 31
0.0
  0
LINE
  5
EF7C89DC7
330
EF7C85532
100
AcDbEntity
  8
JISSEN
100
AcDbLine
 10
96.39008343801606
 20
158.7204943949478
 30
0.0
 11
96.39008343801606
 21
160.2427116385559
 31
0.0
1001
ACAD
1000
ASC_BOUNDS
1002
{
1070
    19
1002
}
  0
LINE
  5
EF7C89DC8
330
EF7C85532
100
AcDbEntity
  8
JISSEN
100
AcDbLine
 10
99.27025403023321
 20
158.7204943949478
 30
0.0
 11
98.63516873412459
 21
159.8204943949478
 31
0.0
1001
ACAD
1000
ASC_BOUNDS
1002
{
1070
    19
1002
}
  0
ARC
  5
EF7C89DC9
330
EF7C85532
100
AcDbEntity
  8
JISSEN
100
AcDbCircle
 10
97.94234841109711
 20
159.4204943949478
 30
0.0
 40
0.8
100
AcDbArc
 50
30.00000000000034
 51
66.40206201165485
1001
ACAD
1000
ASC_BOUNDS
1002
{
1070
    19
1002
}
  0
LINE
  5
EF7C89DCA
330
EF7C85532
100
AcDbEntity
  8
JISSEN
100
AcDbLine
 10
98.26260125383136
 20
160.242711638556
 30
0.0
 11
98.26260125383136
 21
158.7204943949478
 31
0.0
1001
ACAD
1000
ASC_BOUNDS
1002
{
1070
    19
1002
}
  0
LINE
  5
EF7C89DCB
330
EF7C85532
100
AcDbEntity
  8
JISSEN
100
AcDbLine
 10
63.65008343801605
 20
183.328593960895
 30
0.0
 11
90.00008343801608
 21
183.328593960895
 31
0.0
  0
LINE
  5
EF7C89DCC
330
EF7C85532
100
AcDbEntity
  8
JISSEN
100
AcDbLine
 10
64.50008343801608
 20
174.828593960895
 30
0.0
 11
90.00008343801608
 21
174.828593960895
 31
0.0
  0
LINE
  5
EF7C89DCD
330
EF7C85532
100
AcDbEntity
  8
JISSEN
100
AcDbLine
 10
63.50008343801608
 20
175.828593960895
 30
0.0
 11
89.00008343801607
 21
175.828593960895
 31
0.0
  0
LINE
  5
EF7C89DCE
330
EF7C85532
100
AcDbEntity
  8
JISSEN
100
AcDbLine
 10
89.00008343801607
 20
182.828593960895
 30
0.0
 11
63.50008343801608
 21
182.828593960895
 31
0.0
  0
LINE
  5
EF7C89DCF
330
EF7C85532
100
AcDbEntity
  8
JISSEN
100
AcDbLine
 10
90.00008343801608
 20
185.569360960895
 30
0.0
 11
79.37885043801611
 21
185.569360960895
 31
0.0
  0
LINE
  5
EF7C89DD0
330
EF7C85532
100
AcDbEntity
  8
JISSEN
100
AcDbLine
 10
82.81891743801612
 20
173.3285939608951
 30
0.0
 11
80.50392643801604
 21
173.3285939608951
 31
0.0
  0
ARC
  5
EF7C89DD1
330
EF7C85532
100
AcDbEntity
  8
JISSEN
100
AcDbCircle
 10
81.43027243801611
 20
166.9855899608951
 30
0.0
 40
1.0
100
AcDbArc
 50
182.1404319999997
 51
216.8971619999989
  0
ARC
  5
EF7C89DD2
330
EF7C85532
100
AcDbEntity
  8
JISSEN
100
AcDbCircle
 10
80.87972643801606
 20
173.078593960895
 30
0.0
 40
0.25
100
AcDbArc
 50
90.0
 51
181.994368
  0
LINE
  5
EF7C89DD3
330
EF7C85532
100
AcDbEntity
  8
JISSEN
100
AcDbLine
 10
65.40008343801606
 20
174.828593960895
 30
0.0
 11
65.53131643801612
 21
173.3285939608951
 31
0.0
  0
LINE
  5
EF7C89DD4
330
EF7C85532
100
AcDbEntity
  8
JISSEN
100
AcDbLine
 10
70.0942744380161
 20
166.906143960895
 30
0.0
 11
69.52616643801616
 21
173.146725960895
 31
0.0
  0
LINE
  5
EF7C89DD5
330
EF7C85532
100
AcDbEntity
  8
JISSEN
100
AcDbLine
 10
69.24160743801611
 20
166.307922960895
 30
0.0
 11
70.62970643801611
 21
165.5777099608951
 31
0.0
  0
ARC
  5
EF7C89DD6
330
EF7C85532
100
AcDbEntity
  8
JISSEN
100
AcDbCircle
 10
70.11816443801603
 20
167.1354929608952
 30
0.0
 40
0.5
100
AcDbArc
 50
185.0389269999999
 51
279.3495549999982
  0
LINE
  5
EF7C89DD7
330
EF7C85532
100
AcDbEntity
  8
JISSEN
100
AcDbLine
 10
65.53131643801612
 20
173.3285939608951
 30
0.0
 11
66.05167043801611
 21
167.3809169608951
 31
0.0
  0
LINE
  5
EF7C89DD8
330
EF7C85532
100
AcDbEntity
  8
JISSEN
100
AcDbLine
 10
65.76175943801604
 20
172.908029960895
 30
0.0
 11
66.3495894380161
 21
167.445780960895
 31
0.0
  0
LINE
  5
EF7C89DD9
330
EF7C85532
100
AcDbEntity
  8
JISSEN
100
AcDbLine
 10
66.87659243801613
 20
167.389491960895
 30
0.0
 11
66.24466143801612
 21
173.261529960895
 31
0.0
  0
LINE
  5
EF7C89DDA
330
EF7C85532
100
AcDbEntity
  8
JISSEN
100
AcDbLine
 10
68.02692143801607
 20
172.890906960895
 30
0.0
 11
68.5526234380161
 21
167.3359609608951
 31
0.0
  0
LINE
  5
EF7C89DDB
330
EF7C85532
100
AcDbEntity
  8
JISSEN
100
AcDbLine
 10
69.08934243801605
 20
173.111026960895
 30
0.0
 11
69.62009643801616
 21
167.0915769608951
 31
0.0
  0
LINE
  5
EF7C89DDC
330
EF7C85532
100
AcDbEntity
  8
JISSEN
100
AcDbLine
 10
69.13517643801606
 20
165.6493309608951
 30
0.0
 11
67.6233174380161
 21
166.348721960895
 31
0.0
  0
LINE
  5
EF7C89DDD
330
EF7C85532
100
AcDbEntity
  8
JISSEN
100
AcDbLine
 10
67.15375643801611
 20
166.3249519608951
 30
0.0
 11
68.62065443801611
 21
165.646359960895
 31
0.0
  0
ARC
  5
EF7C89DDE
330
EF7C85532
100
AcDbEntity
  8
JISSEN
100
AcDbCircle
 10
67.74155243801601
 20
167.595579960895
 30
0.0
 40
1.399999999999999
100
AcDbArc
 50
186.1423570000002
 51
245.174595
  0
ARC
  5
EF7C89DDF
330
EF7C85532
100
AcDbEntity
  8
JISSEN
100
AcDbCircle
 10
68.16912843801606
 20
167.528590960895
 30
0.0
 40
1.3
100
AcDbArc
 50
186.1423570000002
 51
245.174595
  0
ARC
  5
EF7C89DE0
330
EF7C85532
100
AcDbEntity
  8
JISSEN
100
AcDbCircle
 10
67.5459627675533
 20
167.3757685350316
 30
0.0
 40
1.5
100
AcDbArc
 50
184.9999999999998
 51
249.9999999999969
  0
ARC
  5
EF7C89DE1
330
EF7C85532
100
AcDbEntity
  8
JISSEN
100
AcDbCircle
 10
69.8468404380161
 20
167.458441960895
 30
0.0
 40
1.3
100
AcDbArc
 50
185.4061850000004
 51
242.2532619999987
  0
ARC
  5
EF7C89DE2
330
EF7C85532
100
AcDbEntity
  8
JISSEN
100
AcDbCircle
 10
69.0405094380161
 20
166.553951960895
 30
0.0
 40
1.0
100
AcDbArc
 50
245.174595
 51
270.0
  0
LINE
  5
EF7C89DE3
330
EF7C85532
100
AcDbEntity
  8
JISSEN
100
AcDbLine
 10
69.0405094380161
 20
165.553951960895
 30
0.0
 11
69.11418443801608
 21
165.553951960895
 31
0.0
  0
ARC
  5
EF7C89DE4
330
EF7C85532
100
AcDbEntity
  8
JISSEN
100
AcDbCircle
 10
69.11418443801608
 20
165.6039519608951
 30
0.0
 40
0.05
100
AcDbArc
 50
270.0
 51
65.17459500000002
  0
ARC
  5
EF7C89DE5
330
EF7C85532
100
AcDbEntity
  8
JISSEN
100
AcDbCircle
 10
66.14523543801602
 20
173.250829960895
 30
0.0
 40
0.1
100
AcDbArc
 50
6.142357000000295
 51
87.28209800000021
  0
ARC
  5
EF7C89DE6
330
EF7C85532
100
AcDbEntity
  8
JISSEN
100
AcDbCircle
 10
66.15946243801613
 20
172.950829960895
 30
0.0
 40
0.4
100
AcDbArc
 50
91.35885500000068
 51
186.1423570000002
  0
ARC
  5
EF7C89DE7
330
EF7C85532
100
AcDbEntity
  8
JISSEN
100
AcDbCircle
 10
69.32698943801608
 20
173.128593960895
 30
0.0
 40
0.2
100
AcDbArc
 50
5.201558999999912
 51
90.0
  0
LINE
  5
EF7C89DE8
330
EF7C85532
100
AcDbEntity
  8
JISSEN
100
AcDbLine
 10
69.32698943801608
 20
173.3285939608951
 30
0.0
 11
68.42514243801611
 21
173.3285939608951
 31
0.0
  0
ARC
  5
EF7C89DE9
330
EF7C85532
100
AcDbEntity
  8
JISSEN
100
AcDbCircle
 10
68.42514243801611
 20
172.928593960895
 30
0.0
 40
0.4
100
AcDbArc
 50
90.0
 51
185.4061850000004
  0
ARC
  5
EF7C89DEA
330
EF7C85532
100
AcDbEntity
  8
JISSEN
100
AcDbCircle
 10
69.28856943801611
 20
173.128593960895
 30
0.0
 40
0.2
100
AcDbArc
 50
90.0
 51
185.0389269999999
  0
LINE
  5
EF7C89DEB
330
EF7C85532
100
AcDbEntity
  8
JISSEN
100
AcDbLine
 10
73.89384343801612
 20
173.0090019608951
 30
0.0
 11
74.28648643801603
 21
167.009370960895
 31
0.0
  0
LINE
  5
EF7C89DEC
330
EF7C85532
100
AcDbEntity
  8
JISSEN
100
AcDbLine
 10
73.49820643801604
 20
167.202038960895
 30
0.0
 11
73.09417243801613
 21
172.954068960895
 31
0.0
  0
LINE
  5
EF7C89DED
330
EF7C85532
100
AcDbEntity
  8
JISSEN
100
AcDbLine
 10
75.37906243801604
 20
173.142607960895
 30
0.0
 11
75.82286943801602
 21
166.8243419608951
 31
0.0
  0
LINE
  5
EF7C89DEE
330
EF7C85532
100
AcDbEntity
  8
JISSEN
100
AcDbLine
 10
80.20413643801612
 20
173.017388960895
 30
0.0
 11
80.43097043801607
 21
166.9482409608952
 31
0.0
  0
LINE
  5
EF7C89DEF
330
EF7C85532
100
AcDbEntity
  8
JISSEN
100
AcDbLine
 10
74.68563243801611
 20
166.635492960895
 30
0.0
 11
75.88578443801612
 21
166.635492960895
 31
0.0
  0
LINE
  5
EF7C89DF0
330
EF7C85532
100
AcDbEntity
  8
JISSEN
100
AcDbLine
 10
76.92244843801609
 20
165.5317149608951
 30
0.0
 11
75.20681543801607
 21
165.5317149608951
 31
0.0
  0
LINE
  5
EF7C89DF1
330
EF7C85532
100
AcDbEntity
  8
JISSEN
100
AcDbLine
 10
75.00443043801602
 20
165.5961629608951
 30
0.0
 11
74.00136443801603
 21
166.3070849608951
 31
0.0
  0
LINE
  5
EF7C89DF2
330
EF7C85532
100
AcDbEntity
  8
JISSEN
100
AcDbLine
 10
70.81593243801603
 20
165.5317149608951
 30
0.0
 11
71.81225143801611
 21
165.5317149608951
 31
0.0
  0
LINE
  5
EF7C89DF3
330
EF7C85532
100
AcDbEntity
  8
JISSEN
100
AcDbLine
 10
71.85880843801612
 20
165.720216960895
 30
0.0
 11
70.35943343801614
 21
166.508966960895
 31
0.0
  0
ARC
  5
EF7C89DF4
330
EF7C85532
100
AcDbEntity
  8
JISSEN
100
AcDbCircle
 10
70.81593243801603
 20
165.9317149608951
 30
0.0
 40
0.4
100
AcDbArc
 50
242.2532619999987
 51
270.0
  0
ARC
  5
EF7C89DF5
330
EF7C85532
100
AcDbEntity
  8
JISSEN
100
AcDbCircle
 10
70.59221543801607
 20
166.9514739608951
 30
0.0
 40
0.5
100
AcDbArc
 50
185.2015589999998
 51
242.2532619999987
  0
ARC
  5
EF7C89DF6
330
EF7C85532
100
AcDbEntity
  8
JISSEN
100
AcDbCircle
 10
74.69525643801603
 20
167.286121960895
 30
0.0
 40
1.199999999999999
100
AcDbArc
 50
184.017969
 51
234.6729320000019
  0
ARC
  5
EF7C89DF7
330
EF7C85532
100
AcDbEntity
  8
JISSEN
100
AcDbCircle
 10
71.81225143801611
 20
165.6317149608951
 30
0.0
 40
0.1
100
AcDbArc
 50
270.0
 51
62.25326199999882
  0
ARC
  5
EF7C89DF8
330
EF7C85532
100
AcDbEntity
  8
JISSEN
100
AcDbCircle
 10
74.68563243801611
 20
167.0354929608951
 30
0.0
 40
0.4
100
AcDbArc
 50
183.7443620000002
 51
270.0
  0
ARC
  5
EF7C89DF9
330
EF7C85532
100
AcDbEntity
  8
JISSEN
100
AcDbCircle
 10
75.20681543801607
 20
165.881714960895
 30
0.0
 40
0.35
100
AcDbArc
 50
234.6729320000019
 51
270.0
  0
ARC
  5
EF7C89DFA
330
EF7C85532
100
AcDbEntity
  8
JISSEN
100
AcDbCircle
 10
76.92244843801609
 20
165.6817149608951
 30
0.0
 40
0.15
100
AcDbArc
 50
270.0
 51
54.67293200000199
  0
ARC
  5
EF7C89DFB
330
EF7C85532
100
AcDbEntity
  8
JISSEN
100
AcDbCircle
 10
76.2218864380161
 20
166.852369960895
 30
0.0
 40
0.4
100
AcDbArc
 50
184.017969
 51
234.6729320000019
  0
LINE
  5
EF7C89DFC
330
EF7C85532
100
AcDbEntity
  8
JISSEN
100
AcDbLine
 10
75.99058943801606
 20
166.526023960895
 30
0.0
 11
77.00918443801606
 21
165.8040949608951
 31
0.0
  0
ARC
  5
EF7C89DFD
330
EF7C85532
100
AcDbEntity
  8
JISSEN
100
AcDbCircle
 10
75.17955343801611
 20
173.128593960895
 30
0.0
 40
0.2
100
AcDbArc
 50
4.017969000000114
 51
90.0
  0
LINE
  5
EF7C89DFE
330
EF7C85532
100
AcDbEntity
  8
JISSEN
100
AcDbLine
 10
74.1932024380161
 20
173.3285939608951
 30
0.0
 11
75.17955343801611
 21
173.3285939608951
 31
0.0
  0
ARC
  5
EF7C89DFF
330
EF7C85532
100
AcDbEntity
  8
JISSEN
100
AcDbCircle
 10
74.1932024380161
 20
173.028593960895
 30
0.0
 40
0.3
100
AcDbArc
 50
90.0
 51
183.7443620000002
  0
ARC
  5
EF7C89E00
330
EF7C85532
100
AcDbEntity
  8
JISSEN
100
AcDbCircle
 10
73.44331143801605
 20
172.978593960895
 30
0.0
 40
0.35
100
AcDbArc
 50
90.0
 51
184.017969
  0
LINE
  5
EF7C89E01
330
EF7C85532
100
AcDbEntity
  8
JISSEN
100
AcDbLine
 10
73.44331143801605
 20
173.3285939608951
 30
0.0
 11
74.1932024380161
 21
173.3285939608951
 31
0.0
  0
ARC
  5
EF7C89E02
330
EF7C85532
100
AcDbEntity
  8
JISSEN
100
AcDbCircle
 10
80.50392643801604
 20
173.028593960895
 30
0.0
 40
0.3
100
AcDbArc
 50
90.0
 51
182.1404319999997
  0
LINE
  5
EF7C89E03
330
EF7C85532
100
AcDbEntity
  8
JISSEN
100
AcDbLine
 10
63.50008343801608
 20
183.178593960895
 30
0.0
 11
63.50008343801608
 21
175.828593960895
 31
0.0
  0
LINE
  5
EF7C89E04
330
EF7C85532
100
AcDbEntity
  8
JISSEN
100
AcDbLine
 10
64.50008343801608
 20
174.828593960895
 30
0.0
 11
65.40008343801606
 21
174.828593960895
 31
0.0
  0
LINE
  5
EF7C89E05
330
EF7C85532
100
AcDbEntity
  8
JISSEN
100
AcDbLine
 10
63.50008343801608
 20
175.828593960895
 30
0.0
 11
64.50008343801608
 21
174.828593960895
 31
0.0
  0
LINE
  5
EF7C89E06
330
EF7C85532
100
AcDbEntity
  8
JISSEN
100
AcDbLine
 10
63.50008343801608
 20
183.178593960895
 30
0.0
 11
63.65008343801605
 21
183.328593960895
 31
0.0
  0
LINE
  5
EF7C89E07
330
EF7C85532
100
AcDbEntity
  8
JISSEN
100
AcDbLine
 10
78.30008343801603
 20
183.328593960895
 30
0.0
 11
79.34136443801605
 21
184.369874960895
 31
0.0
  0
LINE
  5
EF7C89E08
330
EF7C85532
100
AcDbEntity
  8
SAISEN
100
AcDbLine
 10
79.34136443801605
 20
184.369874960895
 30
0.0
 11
80.54085043801604
 21
185.569360960895
 31
0.0
  0
ARC
  5
EF7C89E09
330
EF7C85532
100
AcDbEntity
  8
JISSEN
100
AcDbCircle
 10
90.00008343801608
 20
175.828593960895
 30
0.0
 40
1.0
100
AcDbArc
 50
180.0
 51
270.0
  0
ARC
  5
EF7C89E0A
330
EF7C85532
100
AcDbEntity
  8
JISSEN
100
AcDbCircle
 10
90.00008343801608
 20
175.828593960895
 30
0.0
 40
1.0
100
AcDbArc
 50
270.0
 51
0.0
  0
ARC
  5
EF7C89E0B
330
EF7C85532
100
AcDbEntity
  8
JISSEN
100
AcDbCircle
 10
91.00008343801608
 20
167.1354929608952
 30
0.0
 40
0.5
100
AcDbArc
 50
270.0
 51
0.0
  0
ARC
  5
EF7C89E0C
330
EF7C85532
100
AcDbEntity
  8
JISSEN
100
AcDbCircle
 10
91.00008343801608
 20
166.0317149608951
 30
0.0
 40
0.5
100
AcDbArc
 50
270.0
 51
0.0
  0
ARC
  5
EF7C89E0D
330
EF7C85532
100
AcDbEntity
  8
JISSEN
100
AcDbCircle
 10
91.00008343801608
 20
172.828593960895
 30
0.0
 40
0.5
100
AcDbArc
 50
0.0
 51
90.0
  0
LINE
  5
EF7C89E0E
330
EF7C85532
100
AcDbEntity
  8
JISSEN
100
AcDbLine
 10
80.62987843801602
 20
173.069892960895
 30
0.0
 11
80.84385643801601
 21
166.9250529608951
 31
0.0
  0
LINE
  5
EF7C89E0F
330
EF7C85532
100
AcDbEntity
  8
JISSEN
100
AcDbLine
 10
88.50008343801608
 20
172.828593960895
 30
0.0
 11
88.50008343801608
 21
166.0317149608951
 31
0.0
  0
LINE
  5
EF7C89E10
330
EF7C85532
100
AcDbEntity
  8
JISSEN
100
AcDbLine
 10
83.25823043801609
 20
166.729317960895
 30
0.0
 11
83.01877843801605
 21
173.136063960895
 31
0.0
  0
LINE
  5
EF7C89E11
330
EF7C85532
100
AcDbEntity
  8
JISSEN
100
AcDbLine
 10
81.1436744380161
 20
166.635492960895
 30
0.0
 11
83.27700743801608
 21
166.635492960895
 31
0.0
  0
LINE
  5
EF7C89E12
330
EF7C85532
100
AcDbEntity
  8
JISSEN
100
AcDbLine
 10
81.42122443801611
 20
165.5317149608951
 30
0.0
 11
83.69015343801606
 21
165.5317149608951
 31
0.0
  0
ARC
  5
EF7C89E13
330
EF7C85532
100
AcDbEntity
  8
JISSEN
100
AcDbCircle
 10
81.1436744380161
 20
166.935492960895
 30
0.0
 40
0.3
100
AcDbArc
 50
181.994368
 51
270.0
  0
LINE
  5
EF7C89E14
330
EF7C85532
100
AcDbEntity
  8
JISSEN
100
AcDbLine
 10
80.63055843801611
 20
166.3852089608951
 30
0.0
 11
81.18130943801611
 21
165.6516009608951
 31
0.0
  0
ARC
  5
EF7C89E15
330
EF7C85532
100
AcDbEntity
  8
JISSEN
100
AcDbCircle
 10
81.42122443801611
 20
165.8317149608951
 30
0.0
 40
0.3
100
AcDbArc
 50
216.8971619999989
 51
270.0
  0
ARC
  5
EF7C89E16
330
EF7C85532
100
AcDbEntity
  8
JISSEN
100
AcDbCircle
 10
83.55802143801611
 20
166.7405219608951
 30
0.0
 40
0.3
100
AcDbArc
 50
182.1404319999997
 51
216.8971619999989
  0
ARC
  5
EF7C89E17
330
EF7C85532
100
AcDbEntity
  8
JISSEN
100
AcDbCircle
 10
83.69015343801606
 20
165.731714960895
 30
0.0
 40
0.2
100
AcDbArc
 50
270.0
 51
36.8971619999989
  0
LINE
  5
EF7C89E18
330
EF7C85532
100
AcDbEntity
  8
JISSEN
100
AcDbLine
 10
83.85009643801607
 20
165.8517919608951
 30
0.0
 11
83.31810643801611
 21
166.5604079608951
 31
0.0
  0
LINE
  5
EF7C89E19
330
EF7C85532
100
AcDbEntity
  8
JISSEN
100
AcDbLine
 10
89.00008343801607
 20
166.635492960895
 30
0.0
 11
90.00008343801608
 21
166.635492960895
 31
0.0
  0
LINE
  5
EF7C89E1A
330
EF7C85532
100
AcDbEntity
  8
JISSEN
100
AcDbLine
 10
90.00008343801608
 20
165.5317149608951
 30
0.0
 11
89.00008343801607
 21
165.5317149608951
 31
0.0
  0
ARC
  5
EF7C89E1B
330
EF7C85532
100
AcDbEntity
  8
JISSEN
100
AcDbCircle
 10
89.00008343801607
 20
166.0317149608951
 30
0.0
 40
0.5
100
AcDbArc
 50
180.0
 51
270.0
  0
ARC
  5
EF7C89E1C
330
EF7C85532
100
AcDbEntity
  8
JISSEN
100
AcDbCircle
 10
89.00008343801607
 20
167.1354929608952
 30
0.0
 40
0.5
100
AcDbArc
 50
180.0
 51
270.0
  0
LINE
  5
EF7C89E1D
330
EF7C85532
100
AcDbEntity
  8
JISSEN
100
AcDbLine
 10
90.00008343801608
 20
165.5317149608951
 30
0.0
 11
91.00008343801608
 21
165.5317149608951
 31
0.0
  0
LINE
  5
EF7C89E1E
330
EF7C85532
100
AcDbEntity
  8
JISSEN
100
AcDbLine
 10
91.00008343801608
 20
166.635492960895
 30
0.0
 11
90.00008343801608
 21
166.635492960895
 31
0.0
  0
ARC
  5
EF7C89E1F
330
EF7C85532
100
AcDbEntity
  8
JISSEN
100
AcDbCircle
 10
82.81891743801612
 20
173.128593960895
 30
0.0
 40
0.2
100
AcDbArc
 50
2.140431999999805
 51
90.0
  0
LINE
  5
EF7C89E20
330
EF7C85532
100
AcDbEntity
  8
JISSEN
100
AcDbLine
 10
90.00008343801608
 20
173.3285939608951
 30
0.0
 11
89.00008343801607
 21
173.3285939608951
 31
0.0
  0
ARC
  5
EF7C89E21
330
EF7C85532
100
AcDbEntity
  8
JISSEN
100
AcDbCircle
 10
89.00008343801607
 20
172.828593960895
 30
0.0
 40
0.5
100
AcDbArc
 50
90.0
 51
180.0
  0
LINE
  5
EF7C89E22
330
EF7C85532
100
AcDbEntity
  8
JISSEN
100
AcDbLine
 10
90.00008343801608
 20
173.3285939608951
 30
0.0
 11
91.00008343801608
 21
173.3285939608951
 31
0.0
  0
LINE
  5
EF7C89E23
330
EF7C85532
100
AcDbEntity
  8
JISSEN
100
AcDbLine
 10
91.50008343801607
 20
172.828593960895
 30
0.0
 11
91.50008343801607
 21
166.0317149608951
 31
0.0
  0
LINE
  5
EF7C89E24
330
EF7C85532
100
AcDbEntity
  8
JISSEN
100
AcDbLine
 10
99.79603043801603
 20
173.017388960895
 30
0.0
 11
99.5691964380161
 21
166.9482409608952
 31
0.0
  0
LINE
  5
EF7C89E25
330
EF7C85532
100
AcDbEntity
  8
JISSEN
100
AcDbLine
 10
99.37028843801602
 20
173.069892960895
 30
0.0
 11
99.15631043801603
 21
166.9250529608951
 31
0.0
  0
LINE
  5
EF7C89E26
330
EF7C85532
100
AcDbEntity
  8
JISSEN
100
AcDbLine
 10
96.74193643801608
 20
166.729317960895
 30
0.0
 11
96.9813884380161
 21
173.136063960895
 31
0.0
  0
LINE
  5
EF7C89E27
330
EF7C85532
100
AcDbEntity
  8
JISSEN
100
AcDbLine
 10
96.15007043801609
 20
165.8517919608951
 30
0.0
 11
96.68206043801603
 21
166.5604079608951
 31
0.0
  0
LINE
  5
EF7C89E28
330
EF7C85532
100
AcDbEntity
  8
JISSEN
100
AcDbLine
 10
98.57894243801604
 20
165.5317149608951
 30
0.0
 11
96.31001343801608
 21
165.5317149608951
 31
0.0
  0
ARC
  5
EF7C89E29
330
EF7C85532
100
AcDbEntity
  8
JISSEN
100
AcDbCircle
 10
96.31001343801608
 20
165.731714960895
 30
0.0
 40
0.2
100
AcDbArc
 50
143.102838000001
 51
270.0
  0
ARC
  5
EF7C89E2A
330
EF7C85532
100
AcDbEntity
  8
JISSEN
100
AcDbCircle
 10
98.56989443801603
 20
166.9855899608951
 30
0.0
 40
1.0
100
AcDbArc
 50
323.1028380000011
 51
357.859568
  0
ARC
  5
EF7C89E2B
330
EF7C85532
100
AcDbEntity
  8
JISSEN
100
AcDbCircle
 10
98.57894243801604
 20
165.8317149608951
 30
0.0
 40
0.3
100
AcDbArc
 50
270.0
 51
323.1028380000011
  0
LINE
  5
EF7C89E2C
330
EF7C85532
100
AcDbEntity
  8
JISSEN
100
AcDbLine
 10
99.36960843801603
 20
166.3852089608951
 30
0.0
 11
98.81885743801603
 21
165.6516009608951
 31
0.0
  0
ARC
  5
EF7C89E2D
330
EF7C85532
100
AcDbEntity
  8
JISSEN
100
AcDbCircle
 10
98.85649243801607
 20
166.935492960895
 30
0.0
 40
0.3
100
AcDbArc
 50
270.0
 51
358.0056319999998
  0
ARC
  5
EF7C89E2E
330
EF7C85532
100
AcDbEntity
  8
JISSEN
100
AcDbCircle
 10
96.44214543801604
 20
166.7405219608951
 30
0.0
 40
0.3
100
AcDbArc
 50
323.1028380000011
 51
357.859568
  0
LINE
  5
EF7C89E2F
330
EF7C85532
100
AcDbEntity
  8
JISSEN
100
AcDbLine
 10
98.85649243801607
 20
166.635492960895
 30
0.0
 11
96.72315943801606
 21
166.635492960895
 31
0.0
  0
ARC
  5
EF7C89E30
330
EF7C85532
100
AcDbEntity
  8
JISSEN
100
AcDbCircle
 10
99.496240438016
 20
173.028593960895
 30
0.0
 40
0.3
100
AcDbArc
 50
357.859568
 51
90.0
  0
ARC
  5
EF7C89E31
330
EF7C85532
100
AcDbEntity
  8
JISSEN
100
AcDbCircle
 10
99.12044043801609
 20
173.078593960895
 30
0.0
 40
0.25
100
AcDbArc
 50
358.0056319999998
 51
90.0
  0
ARC
  5
EF7C89E32
330
EF7C85532
100
AcDbEntity
  8
JISSEN
100
AcDbCircle
 10
97.18124943801605
 20
173.128593960895
 30
0.0
 40
0.2
100
AcDbArc
 50
90.0
 51
177.8595680000001
  0
LINE
  5
EF7C89E33
330
EF7C85532
100
AcDbEntity
  8
JISSEN
100
AcDbLine
 10
97.18124943801605
 20
173.3285939608951
 30
0.0
 11
99.496240438016
 21
173.3285939608951
 31
0.0
  0
LINE
  5
EF7C89E34
330
EF7C85532
100
AcDbEntity
  8
JISSEN
100
AcDbLine
 10
90.00008343801608
 20
185.569360960895
 30
0.0
 11
100.621316438016
 21
185.569360960895
 31
0.0
  0
LINE
  5
EF7C89E35
330
EF7C85532
100
AcDbEntity
  8
JISSEN
100
AcDbLine
 10
89.00008343801607
 20
182.828593960895
 30
0.0
 11
89.00008343801607
 21
175.828593960895
 31
0.0
  0
LINE
  5
EF7C89E36
330
EF7C85532
100
AcDbEntity
  8
JISSEN
100
AcDbLine
 10
91.00008343801608
 20
182.828593960895
 30
0.0
 11
91.00008343801608
 21
175.828593960895
 31
0.0
  0
ARC
  5
EF7C89E37
330
EF7C85532
100
AcDbEntity
  8
JISSEN
100
AcDbCircle
 10
90.00008343801608
 20
182.0785939608951
 30
0.0
 40
1.25
100
AcDbArc
 50
90.0
 51
143.1301019999993
  0
ARC
  5
EF7C89E38
330
EF7C85532
100
AcDbEntity
  8
JISSEN
100
AcDbCircle
 10
90.00008343801608
 20
182.0785939608951
 30
0.0
 40
1.25
100
AcDbArc
 50
36.86989800000062
 51
90.0
  0
LINE
  5
EF7C89E39
330
EF7C85532
100
AcDbEntity
  8
SAISEN
100
AcDbLine
 10
100.6588024380158
 20
184.369874960895
 30
0.0
 11
99.459316438016
 21
185.569360960895
 31
0.0
  0
LINE
  5
EF7C89E3A
330
EF7C85532
100
AcDbEntity
  8
JISSEN
100
AcDbLine
 10
101.700083438016
 20
183.328593960895
 30
0.0
 11
100.6588024380158
 21
184.369874960895
 31
0.0
  0
LINE
  5
EF7C89E3B
330
EF7C85532
100
AcDbEntity
  8
JISSEN
100
AcDbLine
 10
21.26633101087452
 20
188.3285939608951
 30
0.0
 11
79.46508070100378
 21
188.3285939608952
 31
0.0
  0
LINE
  5
EF7C89E3C
330
EF7C85532
100
AcDbEntity
  8
JISSEN
100
AcDbLine
 10
79.73815943801605
 20
200.0666689608987
 30
0.0
 11
90.00008343801608
 21
200.0666689608987
 31
0.0
  0
LINE
  5
EF7C89E3D
330
EF7C85532
100
AcDbEntity
  8
JISSEN
100
AcDbLine
 10
79.73815943801605
 20
200.0666689608987
 30
0.0
 11
81.00008343801608
 21
201.3285939608988
 31
0.0
  0
LINE
  5
EF7C89E3E
330
EF7C85532
100
AcDbEntity
  8
JISSEN
100
AcDbLine
 10
99.00008343801609
 20
201.3285939608988
 30
0.0
 11
90.00008343801608
 21
201.3285939608986
 31
0.0
  0
LINE
  5
EF7C89E3F
330
EF7C85532
100
AcDbEntity
  8
JISSEN
100
AcDbLine
 10
100.2620074380158
 20
200.0666689608987
 30
0.0
 11
90.00008343801608
 21
200.0666689608987
 31
0.0
  0
LINE
  5
EF7C89E40
330
EF7C85532
100
AcDbEntity
  8
JISSEN
100
AcDbLine
 10
81.00008343801608
 20
201.3285939608988
 30
0.0
 11
90.00008343801608
 21
201.3285939608986
 31
0.0
  0
LINE
  5
EF7C89E41
330
EF7C85532
100
AcDbEntity
  8
JISSEN
100
AcDbLine
 10
100.2620074380158
 20
200.0666689608987
 30
0.0
 11
99.00008343801609
 21
201.3285939608988
 31
0.0
  0
LINE
  5
EF7C89E42
330
EF7C85532
100
AcDbEntity
  8
JISSEN
100
AcDbLine
 10
107.5000834380159
 20
188.3285939608951
 30
0.0
 11
107.5000834380159
 21
183.328593960895
 31
0.0
  0
LWPOLYLINE
  5
EF7C89E43
330
EF7C85532
100
AcDbEntity
  8
HATCH
100
AcDbPolyline
 90
       13
 70
     0
 43
0.0
 10
158.7336689891253
 20
188.3285939608951
 10
158.5690818108755
 20
187.508956882663
 10
158.4271764541952
 20
186.9923389058988
 10
158.1994678170473
 20
186.573912619211
 10
157.891580330388
 20
186.235795595544
 10
157.5253570414084
 20
185.9455445228938
 10
157.1226409972998
 20
185.6707160892565
 10
156.705275245253
 20
185.3788669826275
 10
156.295102832459
 20
185.0375538910027
 10
155.9139668061094
 20
184.6143335023784
 10
155.5837102133948
 20
184.07676250475
 10
155.3091301501922
 20
183.4131437174626
 10
155.2759059556956
 20
183.328593960895
  0
LINE
  5
EF7C89E44
330
EF7C85532
100
AcDbEntity
  8
JISSEN
100
AcDbLine
 10
104.5292864546178
 20
161.9927116385555
 30
0.0
 11
113.0546890638554
 21
166.001207580266
 31
0.0
1001
ACAD
1000
ASC_BOUNDS
1002
{
1070
    19
1002
}
  0
LINE
  5
EF7C89E45
330
EF7C85532
100
AcDbEntity
  8
JISSEN
100
AcDbLine
 10
103.2500834380159
 20
158.7204943949478
 30
0.0
 11
103.2500834380159
 21
156.4585961929254
 31
0.0
1001
ACAD
1000
ASC_BOUNDS
1002
{
1070
    19
1002
}
  0
ARC
  5
EF7C89E46
330
EF7C85532
100
AcDbEntity
  8
JISSEN
100
AcDbCircle
 10
102.550083438016
 20
160.4427116385559
 30
0.0
 40
0.2
100
AcDbArc
 50
270.0
 51
359.9999999999991
1001
ACAD
1000
ASC_BOUNDS
1002
{
1070
    19
1002
}
  0
LINE
  5
EF7C89E47
330
EF7C85532
100
AcDbEntity
  8
JISSEN
100
AcDbLine
 10
102.7500834380159
 20
161.9927116385555
 30
0.0
 11
102.7500834380159
 21
160.4427116385548
 31
0.0
1001
ACAD
1000
ASC_BOUNDS
1002
{
1070
    19
1002
}
  0
LINE
  5
EF7C89E48
330
EF7C85532
100
AcDbEntity
  8
JISSEN
100
AcDbLine
 10
114.6000834380158
 20
174.828593960895
 30
0.0
 11
114.468850438016
 21
173.3285939608951
 31
0.0
  0
ARC
  5
EF7C89E49
330
EF7C85532
100
AcDbEntity
  8
JISSEN
100
AcDbCircle
 10
111.8310384380159
 20
167.528590960895
 30
0.0
 40
1.3
100
AcDbArc
 50
294.8254049999999
 51
353.8576429999996
  0
LINE
  5
EF7C89E4A
330
EF7C85532
100
AcDbEntity
  8
JISSEN
100
AcDbLine
 10
112.8464104380159
 20
166.3249519608951
 30
0.0
 11
111.379512438016
 21
165.646359960895
 31
0.0
  0
LINE
  5
EF7C89E4B
330
EF7C85532
100
AcDbEntity
  8
JISSEN
100
AcDbLine
 10
109.905892438016
 20
166.906143960895
 30
0.0
 11
110.4740004380158
 21
173.146725960895
 31
0.0
  0
LINE
  5
EF7C89E4C
330
EF7C85532
100
AcDbEntity
  8
JISSEN
100
AcDbLine
 10
106.501960438016
 20
167.202038960895
 30
0.0
 11
106.905994438016
 21
172.954068960895
 31
0.0
  0
LINE
  5
EF7C89E4D
330
EF7C85532
100
AcDbEntity
  8
JISSEN
100
AcDbLine
 10
106.106323438016
 20
173.0090019608951
 30
0.0
 11
105.713680438016
 21
167.009370960895
 31
0.0
  0
LINE
  5
EF7C89E4E
330
EF7C85532
100
AcDbEntity
  8
JISSEN
100
AcDbLine
 10
104.6211044380158
 20
173.142607960895
 30
0.0
 11
104.177297438016
 21
166.8243419608951
 31
0.0
  0
LINE
  5
EF7C89E4F
330
EF7C85532
100
AcDbEntity
  8
JISSEN
100
AcDbLine
 10
110.9108244380158
 20
173.111026960895
 30
0.0
 11
110.3800704380158
 21
167.0915769608951
 31
0.0
  0
LINE
  5
EF7C89E50
330
EF7C85532
100
AcDbEntity
  8
JISSEN
100
AcDbLine
 10
111.9732454380159
 20
172.890906960895
 30
0.0
 11
111.447543438016
 21
167.3359609608951
 31
0.0
  0
LINE
  5
EF7C89E51
330
EF7C85532
100
AcDbEntity
  8
JISSEN
100
AcDbLine
 10
103.0777184380159
 20
165.5317149608951
 30
0.0
 11
104.7933514380159
 21
165.5317149608951
 31
0.0
  0
LINE
  5
EF7C89E52
330
EF7C85532
100
AcDbEntity
  8
JISSEN
100
AcDbLine
 10
104.0095774380158
 20
166.526023960895
 30
0.0
 11
102.9909824380159
 21
165.8040949608951
 31
0.0
  0
ARC
  5
EF7C89E53
330
EF7C85532
100
AcDbEntity
  8
JISSEN
100
AcDbCircle
 10
103.0777184380159
 20
165.6817149608951
 30
0.0
 40
0.15
100
AcDbArc
 50
125.3270679999979
 51
270.0
  0
ARC
  5
EF7C89E54
330
EF7C85532
100
AcDbEntity
  8
JISSEN
100
AcDbCircle
 10
105.314534438016
 20
167.0354929608951
 30
0.0
 40
0.4
100
AcDbArc
 50
270.0
 51
356.2556379999997
  0
ARC
  5
EF7C89E55
330
EF7C85532
100
AcDbEntity
  8
JISSEN
100
AcDbCircle
 10
105.304910438016
 20
167.286121960895
 30
0.0
 40
1.199999999999999
100
AcDbArc
 50
305.3270679999979
 51
355.9820309999998
  0
ARC
  5
EF7C89E56
330
EF7C85532
100
AcDbEntity
  8
JISSEN
100
AcDbCircle
 10
104.7933514380159
 20
165.881714960895
 30
0.0
 40
0.35
100
AcDbArc
 50
270.0
 51
305.3270679999979
  0
ARC
  5
EF7C89E57
330
EF7C85532
100
AcDbEntity
  8
JISSEN
100
AcDbCircle
 10
103.778280438016
 20
166.852369960895
 30
0.0
 40
0.4
100
AcDbArc
 50
305.3270679999979
 51
355.9820309999998
  0
LINE
  5
EF7C89E58
330
EF7C85532
100
AcDbEntity
  8
JISSEN
100
AcDbLine
 10
104.995736438016
 20
165.5961629608951
 30
0.0
 11
105.998802438016
 21
166.3070849608951
 31
0.0
  0
LINE
  5
EF7C89E59
330
EF7C85532
100
AcDbEntity
  8
JISSEN
100
AcDbLine
 10
105.314534438016
 20
166.635492960895
 30
0.0
 11
104.114382438016
 21
166.635492960895
 31
0.0
  0
ARC
  5
EF7C89E5A
330
EF7C85532
100
AcDbEntity
  8
JISSEN
100
AcDbCircle
 10
109.882002438016
 20
167.1354929608952
 30
0.0
 40
0.5
100
AcDbArc
 50
260.6504450000016
 51
354.9610729999997
  0
LINE
  5
EF7C89E5B
330
EF7C85532
100
AcDbEntity
  8
JISSEN
100
AcDbLine
 10
110.7585594380159
 20
166.307922960895
 30
0.0
 11
109.370460438016
 21
165.5777099608951
 31
0.0
  0
LINE
  5
EF7C89E5C
330
EF7C85532
100
AcDbEntity
  8
JISSEN
100
AcDbLine
 10
108.141358438016
 20
165.720216960895
 30
0.0
 11
109.640733438016
 21
166.508966960895
 31
0.0
  0
LINE
  5
EF7C89E5D
330
EF7C85532
100
AcDbEntity
  8
JISSEN
100
AcDbLine
 10
109.184234438016
 20
165.5317149608951
 30
0.0
 11
108.187915438016
 21
165.5317149608951
 31
0.0
  0
ARC
  5
EF7C89E5E
330
EF7C85532
100
AcDbEntity
  8
JISSEN
100
AcDbCircle
 10
109.4079514380159
 20
166.9514739608951
 30
0.0
 40
0.5
100
AcDbArc
 50
297.7467380000011
 51
354.7984410000001
  0
ARC
  5
EF7C89E5F
330
EF7C85532
100
AcDbEntity
  8
JISSEN
100
AcDbCircle
 10
109.184234438016
 20
165.9317149608951
 30
0.0
 40
0.4
100
AcDbArc
 50
270.0
 51
297.7467380000011
  0
ARC
  5
EF7C89E60
330
EF7C85532
100
AcDbEntity
  8
JISSEN
100
AcDbCircle
 10
108.187915438016
 20
165.6317149608951
 30
0.0
 40
0.1
100
AcDbArc
 50
117.7467380000011
 51
270.0
  0
ARC
  5
EF7C89E61
330
EF7C85532
100
AcDbEntity
  8
JISSEN
100
AcDbCircle
 10
110.8859824380159
 20
165.6039519608951
 30
0.0
 40
0.05
100
AcDbArc
 50
114.8254049999999
 51
270.0
  0
LINE
  5
EF7C89E62
330
EF7C85532
100
AcDbEntity
  8
JISSEN
100
AcDbLine
 10
110.9596574380159
 20
165.553951960895
 30
0.0
 11
110.8859824380159
 21
165.553951960895
 31
0.0
  0
ARC
  5
EF7C89E63
330
EF7C85532
100
AcDbEntity
  8
JISSEN
100
AcDbCircle
 10
110.9596574380159
 20
166.553951960895
 30
0.0
 40
1.0
100
AcDbArc
 50
270.0
 51
294.8254049999999
  0
ARC
  5
EF7C89E64
330
EF7C85532
100
AcDbEntity
  8
JISSEN
100
AcDbCircle
 10
110.1533264380159
 20
167.458441960895
 30
0.0
 40
1.3
100
AcDbArc
 50
297.7467380000011
 51
354.5938149999994
  0
LINE
  5
EF7C89E65
330
EF7C85532
100
AcDbEntity
  8
JISSEN
100
AcDbLine
 10
110.8649904380158
 20
165.6493309608951
 30
0.0
 11
112.376849438016
 21
166.348721960895
 31
0.0
  0
ARC
  5
EF7C89E66
330
EF7C85532
100
AcDbEntity
  8
JISSEN
100
AcDbCircle
 10
106.5568554380158
 20
172.978593960895
 30
0.0
 40
0.35
100
AcDbArc
 50
355.9820309999998
 51
90.0
  0
LINE
  5
EF7C89E67
330
EF7C85532
100
AcDbEntity
  8
JISSEN
100
AcDbLine
 10
106.5568554380158
 20
173.3285939608951
 30
0.0
 11
105.8069644380159
 21
173.3285939608951
 31
0.0
  0
ARC
  5
EF7C89E68
330
EF7C85532
100
AcDbEntity
  8
JISSEN
100
AcDbCircle
 10
105.8069644380159
 20
173.028593960895
 30
0.0
 40
0.3
100
AcDbArc
 50
356.2556379999997
 51
90.0
  0
ARC
  5
EF7C89E69
330
EF7C85532
100
AcDbEntity
  8
JISSEN
100
AcDbCircle
 10
104.820613438016
 20
173.128593960895
 30
0.0
 40
0.2
100
AcDbArc
 50
90.0
 51
175.9820309999998
  0
LINE
  5
EF7C89E6A
330
EF7C85532
100
AcDbEntity
  8
JISSEN
100
AcDbLine
 10
105.8069644380159
 20
173.3285939608951
 30
0.0
 11
104.820613438016
 21
173.3285939608951
 31
0.0
  0
ARC
  5
EF7C89E6B
330
EF7C85532
100
AcDbEntity
  8
JISSEN
100
AcDbCircle
 10
110.711597438016
 20
173.128593960895
 30
0.0
 40
0.2
100
AcDbArc
 50
354.9610729999997
 51
90.0
  0
ARC
  5
EF7C89E6C
330
EF7C85532
100
AcDbEntity
  8
JISSEN
100
AcDbCircle
 10
111.575024438016
 20
172.928593960895
 30
0.0
 40
0.4
100
AcDbArc
 50
354.5938149999994
 51
90.0
  0
LINE
  5
EF7C89E6D
330
EF7C85532
100
AcDbEntity
  8
JISSEN
100
AcDbLine
 10
110.6731774380159
 20
173.3285939608951
 30
0.0
 11
111.575024438016
 21
173.3285939608951
 31
0.0
  0
ARC
  5
EF7C89E6E
330
EF7C85532
100
AcDbEntity
  8
JISSEN
100
AcDbCircle
 10
110.6731774380159
 20
173.128593960895
 30
0.0
 40
0.2
100
AcDbArc
 50
90.0
 51
174.7984409999999
  0
LINE
  5
EF7C89E6F
330
EF7C85532
100
AcDbEntity
  8
JISSEN
100
AcDbLine
 10
113.123574438016
 20
167.389491960895
 30
0.0
 11
113.755505438016
 21
173.261529960895
 31
0.0
  0
LINE
  5
EF7C89E70
330
EF7C85532
100
AcDbEntity
  8
JISSEN
100
AcDbLine
 10
114.238407438016
 20
172.908029960895
 30
0.0
 11
113.6505774380159
 21
167.445780960895
 31
0.0
  0
LINE
  5
EF7C89E71
330
EF7C85532
100
AcDbEntity
  8
JISSEN
100
AcDbLine
 10
114.468850438016
 20
173.3285939608951
 30
0.0
 11
113.948496438016
 21
167.3809169608951
 31
0.0
  0
ARC
  5
EF7C89E72
330
EF7C85532
100
AcDbEntity
  8
JISSEN
100
AcDbCircle
 10
112.4542041084787
 20
167.3757685350316
 30
0.0
 40
1.5
100
AcDbArc
 50
289.9999999999969
 51
354.9999999999998
  0
ARC
  5
EF7C89E73
330
EF7C85532
100
AcDbEntity
  8
JISSEN
100
AcDbCircle
 10
112.258614438016
 20
167.595579960895
 30
0.0
 40
1.399999999999999
100
AcDbArc
 50
294.8254049999999
 51
353.8576429999996
  0
ARC
  5
EF7C89E74
330
EF7C85532
100
AcDbEntity
  8
JISSEN
100
AcDbCircle
 10
113.854931438016
 20
173.250829960895
 30
0.0
 40
0.1
100
AcDbArc
 50
92.71790199999978
 51
173.8576429999997
  0
ARC
  5
EF7C89E75
330
EF7C85532
100
AcDbEntity
  8
JISSEN
100
AcDbCircle
 10
113.840704438016
 20
172.950829960895
 30
0.0
 40
0.4
100
AcDbArc
 50
353.8576429999996
 51
88.64114499999931
  0
LINE
  5
EF7C89E76
330
EF7C85532
100
AcDbEntity
  8
JISSEN
100
AcDbLine
 10
116.5000834380159
 20
183.178593960895
 30
0.0
 11
116.5000834380159
 21
175.828593960895
 31
0.0
  0
LINE
  5
EF7C89E77
330
EF7C85532
100
AcDbEntity
  8
JISSEN
100
AcDbLine
 10
115.5000834380159
 20
174.828593960895
 30
0.0
 11
114.6000834380158
 21
174.828593960895
 31
0.0
  0
LINE
  5
EF7C89E78
330
EF7C85532
100
AcDbEntity
  8
JISSEN
100
AcDbLine
 10
116.5000834380159
 20
175.828593960895
 30
0.0
 11
115.5000834380159
 21
174.828593960895
 31
0.0
  0
LINE
  5
EF7C89E79
330
EF7C85532
100
AcDbEntity
  8
JISSEN
100
AcDbLine
 10
116.5000834380159
 20
183.178593960895
 30
0.0
 11
116.3500834380158
 21
183.328593960895
 31
0.0
  0
LINE
  5
EF7C89E7A
330
EF7C85532
100
AcDbEntity
  8
JISSEN
100
AcDbLine
 10
253.5000827140161
 20
188.3285941605524
 30
0.0
 11
253.5000827140161
 21
183.3285941605524
 31
0.0
  0
LINE
  5
EF7C89E7B
330
EF7C85532
100
AcDbEntity
  8
SAISEN
100
AcDbLine
 10
261.540849714016
 20
185.5693611605524
 30
0.0
 11
262.0333495607494
 21
201.328594160556
 31
0.0
  0
LINE
  5
EF7C89E7C
330
EF7C85532
100
AcDbEntity
  8
JISSEN
100
AcDbLine
 10
260.8349379926512
 20
200.1634485158831
 30
0.0
 11
260.341363714016
 21
184.3698751605524
 31
0.0
  0
LWPOLYLINE
  5
EF7C89E7D
330
EF7C85532
100
AcDbEntity
  8
HATCH
100
AcDbPolyline
 90
       13
 70
     0
 43
0.0
 10
202.2663302868745
 20
188.3285941605524
 10
202.4309174651246
 20
187.5089570823203
 10
202.5728228218049
 20
186.9923391055561
 10
202.8005314589527
 20
186.5739128188682
 10
203.108418945612
 20
186.2357957952014
 10
203.4746422345914
 20
185.9455447225513
 10
203.8773582787003
 20
185.6707162889138
 10
204.2947240307471
 20
185.3788671822847
 10
204.7048964435409
 20
185.0375540906601
 10
205.0860324698907
 20
184.6143337020356
 10
205.416289062605
 20
184.0767627044074
 10
205.6908691258079
 20
183.4131439171199
 10
205.7240933203045
 20
183.3285941605524
  0
LINE
  5
EF7C89E7E
330
EF7C85532
100
AcDbEntity
  8
JISSEN
100
AcDbLine
 10
260.4025767970672
 20
183.3285941605524
 30
0.0
 11
205.7240933203045
 21
183.3285941605524
 31
0.0
  0
LINE
  5
EF7C89E7F
330
EF7C85532
100
AcDbEntity
  8
JISSEN
100
AcDbLine
 10
256.4708796974144
 20
161.992711838213
 30
0.0
 11
247.9454770881766
 21
166.0012077799235
 31
0.0
1001
ACAD
1000
ASC_BOUNDS
1002
{
1070
    19
1002
}
  0
ARC
  5
EF7C89E80
330
EF7C85532
100
AcDbEntity
  8
SAISEN
100
AcDbCircle
 10
265.9821567140161
 20
152.0069715946051
 30
0.0
 40
0.75
100
AcDbArc
 50
90.0
 51
141.3164110000012
  0
LINE
  5
EF7C89E81
330
EF7C85532
100
AcDbEntity
  8
SAISEN
100
AcDbLine
 10
271.0000827140161
 20
152.4757365946051
 30
0.0
 11
261.7321567140161
 21
152.4757365946051
 31
0.0
  0
LINE
  5
EF7C89E82
330
EF7C85532
100
AcDbEntity
  8
SAISEN
100
AcDbLine
 10
271.0000827140161
 20
150.4838355946051
 30
0.0
 11
261.7321567140161
 21
150.4838355946051
 31
0.0
  0
LINE
  5
EF7C89E83
330
EF7C85532
100
AcDbEntity
  8
SAISEN
100
AcDbLine
 10
266.472053714016
 20
152.1436175946051
 30
0.0
 11
261.7321567140161
 21
152.1436175946051
 31
0.0
  0
LINE
  5
EF7C89E84
330
EF7C85532
100
AcDbEntity
  8
SAISEN
100
AcDbLine
 10
261.7321567140161
 20
150.1614065946052
 30
0.0
 11
271.0000827140161
 21
150.1614065946052
 31
0.0
  0
LINE
  5
EF7C89E85
330
EF7C85532
100
AcDbEntity
  8
SAISEN
100
AcDbLine
 10
271.0000827140161
 20
149.8704945946052
 30
0.0
 11
263.3657557140161
 21
149.8704945946052
 31
0.0
  0
ARC
  5
EF7C89E86
330
EF7C85532
100
AcDbEntity
  8
SAISEN
100
AcDbCircle
 10
263.4821567140161
 20
150.6114065946051
 30
0.0
 40
0.75
100
AcDbArc
 50
216.8698980000005
 51
278.9284710000001
  0
LINE
  5
EF7C89E87
330
EF7C85532
100
AcDbEntity
  8
SAISEN
100
AcDbLine
 10
261.7321567140161
 20
152.1436175946051
 30
0.0
 11
261.7321567140161
 21
152.4757365946051
 31
0.0
  0
LINE
  5
EF7C89E88
330
EF7C85532
100
AcDbEntity
  8
SAISEN
100
AcDbLine
 10
261.7321567140161
 20
150.4838355946051
 30
0.0
 11
261.7321567140161
 21
150.1614065946052
 31
0.0
  0
ARC
  5
EF7C89E89
330
EF7C85532
100
AcDbEntity
  8
JISSEN
100
AcDbCircle
 10
267.9821567140161
 20
151.6436175946051
 30
0.0
 40
0.5
100
AcDbArc
 50
90.0
 51
180.0
  0
LINE
  5
EF7C89E8A
330
EF7C85532
100
AcDbEntity
  8
JISSEN
100
AcDbLine
 10
267.4821567140161
 20
151.6436175946051
 30
0.0
 11
267.4821567140161
 21
150.7838355946051
 31
0.0
  0
ARC
  5
EF7C89E8B
330
EF7C85532
100
AcDbEntity
  8
JISSEN
100
AcDbCircle
 10
267.182156714016
 20
150.7838355946051
 30
0.0
 40
0.3
100
AcDbArc
 50
270.0
 51
0.0
  0
LINE
  5
EF7C89E8C
330
EF7C85532
100
AcDbEntity
  8
SAISEN
100
AcDbLine
 10
266.472053714016
 20
152.1436175946051
 30
0.0
 11
271.0000827140161
 21
152.1436175946051
 31
0.0
  0
LINE
  5
EF7C89E8D
330
EF7C85532
100
AcDbEntity
  8
JISSEN
100
AcDbLine
 10
271.0000827140161
 20
161.9927118382131
 30
0.0
 11
256.4708796974144
 21
161.992711838213
 31
0.0
1001
ACAD
1000
ASC_BOUNDS
1002
{
1070
    19
1002
}
  0
LINE
  5
EF7C89E8E
330
EF7C85532
100
AcDbEntity
  8
JISSEN
100
AcDbLine
 10
257.7500827140161
 20
158.7204945946051
 30
0.0
 11
271.0000827140161
 21
158.7204945946051
 31
0.0
1001
ACAD
1000
ASC_BOUNDS
1002
{
1070
    19
1002
}
  0
LINE
  5
EF7C89E8F
330
EF7C85532
100
AcDbEntity
  8
JISSEN
100
AcDbLine
 10
271.0000827140161
 20
160.242711838213
 30
0.0
 11
258.450082714016
 21
160.2427118382136
 31
0.0
1001
ACAD
1000
ASC_BOUNDS
1002
{
1070
    19
1002
}
  0
LINE
  5
EF7C89E90
330
EF7C85532
100
AcDbEntity
  8
JISSEN
100
AcDbLine
 10
261.7500827140161
 20
154.4204945946051
 30
0.0
 11
257.7500827140161
 21
156.4585963925829
 31
0.0
1001
ACAD
1000
ASC_BOUNDS
1002
{
1070
    19
1002
}
  0
LINE
  5
EF7C89E91
330
EF7C85532
100
AcDbEntity
  8
JISSEN
100
AcDbLine
 10
257.7500827140161
 20
156.4585963925829
 30
0.0
 11
271.0000827140161
 21
156.4585963925829
 31
0.0
  0
LINE
  5
EF7C89E92
330
EF7C85532
100
AcDbEntity
  8
JISSEN
100
AcDbLine
 10
257.7500827140161
 20
158.7204945946051
 30
0.0
 11
257.7500827140161
 21
156.4585963925829
 31
0.0
1001
ACAD
1000
ASC_BOUNDS
1002
{
1070
    19
1002
}
  0
LINE
  5
EF7C89E93
330
EF7C85532
100
AcDbEntity
  8
JISSEN
100
AcDbLine
 10
258.2500827140161
 20
161.992711838213
 30
0.0
 11
258.2500827140161
 21
160.4427118382121
 31
0.0
1001
ACAD
1000
ASC_BOUNDS
1002
{
1070
    19
1002
}
  0
ARC
  5
EF7C89E94
330
EF7C85532
100
AcDbEntity
  8
JISSEN
100
AcDbCircle
 10
258.450082714016
 20
160.4427118382133
 30
0.0
 40
0.2
100
AcDbArc
 50
180.0000000000006
 51
270.0
1001
ACAD
1000
ASC_BOUNDS
1002
{
1070
    19
1002
}
  0
LINE
  5
EF7C89E95
330
EF7C85532
100
AcDbEntity
  8
SAISEN
100
AcDbLine
 10
271.0000827140161
 20
152.7569715946051
 30
0.0
 11
265.9821567140161
 21
152.7569715946051
 31
0.0
  0
LINE
  5
EF7C89E96
330
EF7C85532
100
AcDbEntity
  8
JISSEN
100
AcDbLine
 10
261.7500827140161
 20
154.4204945946051
 30
0.0
 11
271.0000827140161
 21
154.4204945946051
 31
0.0
1001
ACAD
1000
ASC_BOUNDS
1002
{
1070
    19
1002
}
  0
LINE
  5
EF7C89E97
330
EF7C85532
100
AcDbEntity
  8
JISSEN
100
AcDbLine
 10
267.9821567140161
 20
154.4204945946051
 30
0.0
 11
267.9821567140161
 21
152.7569715946051
 31
0.0
  0
LINE
  5
EF7C89E98
330
EF7C85532
100
AcDbEntity
  8
JISSEN
100
AcDbLine
 10
262.7375648982008
 20
160.2427118382134
 30
0.0
 11
262.7375648982008
 21
158.7204945946051
 31
0.0
1001
ACAD
1000
ASC_BOUNDS
1002
{
1070
    19
1002
}
  0
LINE
  5
EF7C89E99
330
EF7C85532
100
AcDbEntity
  8
JISSEN
100
AcDbLine
 10
264.610082714016
 20
158.7204945946051
 30
0.0
 11
264.610082714016
 21
160.2427118382133
 31
0.0
1001
ACAD
1000
ASC_BOUNDS
1002
{
1070
    19
1002
}
  0
ARC
  5
EF7C89E9A
330
EF7C85532
100
AcDbEntity
  8
JISSEN
100
AcDbCircle
 10
263.0578177409351
 20
159.4204945946051
 30
0.0
 40
0.8
100
AcDbArc
 50
113.597937988345
 51
149.9999999999992
1001
ACAD
1000
ASC_BOUNDS
1002
{
1070
    19
1002
}
  0
LINE
  5
EF7C89E9B
330
EF7C85532
100
AcDbEntity
  8
JISSEN
100
AcDbLine
 10
261.7299121217988
 20
158.7204945946051
 30
0.0
 11
262.3649974179075
 21
159.8204945946051
 31
0.0
1001
ACAD
1000
ASC_BOUNDS
1002
{
1070
    19
1002
}
  0
LINE
  5
EF7C89E9C
330
EF7C85532
100
AcDbEntity
  8
JISSEN
100
AcDbLine
 10
250.3269887140161
 20
173.3285941605524
 30
0.0
 11
249.425141714016
 21
173.3285941605524
 31
0.0
  0
LINE
  5
EF7C89E9D
330
EF7C85532
100
AcDbEntity
  8
JISSEN
100
AcDbLine
 10
244.6500827140161
 20
183.3285941605524
 30
0.0
 11
271.0000827140161
 21
183.3285941605524
 31
0.0
  0
LINE
  5
EF7C89E9E
330
EF7C85532
100
AcDbEntity
  8
JISSEN
100
AcDbLine
 10
245.5000827140161
 20
174.8285941605525
 30
0.0
 11
271.0000827140161
 21
174.8285941605525
 31
0.0
  0
LINE
  5
EF7C89E9F
330
EF7C85532
100
AcDbEntity
  8
JISSEN
100
AcDbLine
 10
244.5000827140161
 20
175.8285941605524
 30
0.0
 11
270.0000827140161
 21
175.8285941605524
 31
0.0
  0
LINE
  5
EF7C89EA0
330
EF7C85532
100
AcDbEntity
  8
JISSEN
100
AcDbLine
 10
270.0000827140161
 20
182.8285941605524
 30
0.0
 11
244.5000827140161
 21
182.8285941605524
 31
0.0
  0
LINE
  5
EF7C89EA1
330
EF7C85532
100
AcDbEntity
  8
JISSEN
100
AcDbLine
 10
250.2416067140161
 20
166.3079231605524
 30
0.0
 11
251.629705714016
 21
165.5777101605524
 31
0.0
  0
LINE
  5
EF7C89EA2
330
EF7C85532
100
AcDbEntity
  8
JISSEN
100
AcDbLine
 10
250.0893417140161
 20
173.1110271605524
 30
0.0
 11
250.6200957140161
 21
167.0915771605525
 31
0.0
  0
LINE
  5
EF7C89EA3
330
EF7C85532
100
AcDbEntity
  8
JISSEN
100
AcDbLine
 10
246.400082714016
 20
174.8285941605525
 30
0.0
 11
246.531315714016
 21
173.3285941605524
 31
0.0
  0
LINE
  5
EF7C89EA4
330
EF7C85532
100
AcDbEntity
  8
JISSEN
100
AcDbLine
 10
249.0269207140161
 20
172.8909071605524
 30
0.0
 11
249.552622714016
 21
167.3359611605524
 31
0.0
  0
LINE
  5
EF7C89EA5
330
EF7C85532
100
AcDbEntity
  8
JISSEN
100
AcDbLine
 10
246.531315714016
 20
173.3285941605524
 30
0.0
 11
247.051669714016
 21
167.3809171605525
 31
0.0
  0
LINE
  5
EF7C89EA6
330
EF7C85532
100
AcDbEntity
  8
JISSEN
100
AcDbLine
 10
246.761758714016
 20
172.9080301605524
 30
0.0
 11
247.3495887140161
 21
167.4457811605525
 31
0.0
  0
LINE
  5
EF7C89EA7
330
EF7C85532
100
AcDbEntity
  8
JISSEN
100
AcDbLine
 10
247.876591714016
 20
167.3894921605524
 30
0.0
 11
247.244660714016
 21
173.2615301605525
 31
0.0
  0
ARC
  5
EF7C89EA8
330
EF7C85532
100
AcDbEntity
  8
JISSEN
100
AcDbCircle
 10
250.8468397140161
 20
167.4584421605525
 30
0.0
 40
1.3
100
AcDbArc
 50
185.4061850000004
 51
242.2532619999987
  0
ARC
  5
EF7C89EA9
330
EF7C85532
100
AcDbEntity
  8
JISSEN
100
AcDbCircle
 10
250.0405087140161
 20
166.5539521605525
 30
0.0
 40
1.0
100
AcDbArc
 50
245.1745949999999
 51
270.0
  0
LINE
  5
EF7C89EAA
330
EF7C85532
100
AcDbEntity
  8
JISSEN
100
AcDbLine
 10
250.0405087140161
 20
165.5539521605525
 30
0.0
 11
250.1141837140159
 21
165.5539521605525
 31
0.0
  0
ARC
  5
EF7C89EAB
330
EF7C85532
100
AcDbEntity
  8
JISSEN
100
AcDbCircle
 10
250.1141837140159
 20
165.6039521605524
 30
0.0
 40
0.05
100
AcDbArc
 50
270.0
 51
65.17459499999998
  0
LINE
  5
EF7C89EAC
330
EF7C85532
100
AcDbEntity
  8
JISSEN
100
AcDbLine
 10
250.135175714016
 20
165.6493311605524
 30
0.0
 11
248.623316714016
 21
166.3487221605525
 31
0.0
  0
ARC
  5
EF7C89EAD
330
EF7C85532
100
AcDbEntity
  8
JISSEN
100
AcDbCircle
 10
248.741551714016
 20
167.5955801605525
 30
0.0
 40
1.399999999999999
100
AcDbArc
 50
186.1423570000002
 51
245.1745949999999
  0
LINE
  5
EF7C89EAE
330
EF7C85532
100
AcDbEntity
  8
JISSEN
100
AcDbLine
 10
248.1537557140161
 20
166.3249521605524
 30
0.0
 11
249.620653714016
 21
165.6463601605524
 31
0.0
  0
ARC
  5
EF7C89EAF
330
EF7C85532
100
AcDbEntity
  8
JISSEN
100
AcDbCircle
 10
249.169127714016
 20
167.5285911605525
 30
0.0
 40
1.3
100
AcDbArc
 50
186.1423570000002
 51
245.1745949999999
  0
ARC
  5
EF7C89EB0
330
EF7C85532
100
AcDbEntity
  8
JISSEN
100
AcDbCircle
 10
248.5459620435533
 20
167.3757687346891
 30
0.0
 40
1.5
100
AcDbArc
 50
185.0
 51
249.9999999999969
  0
ARC
  5
EF7C89EB1
330
EF7C85532
100
AcDbEntity
  8
JISSEN
100
AcDbCircle
 10
249.425141714016
 20
172.9285941605524
 30
0.0
 40
0.4
100
AcDbArc
 50
90.0
 51
185.4061850000004
  0
ARC
  5
EF7C89EB2
330
EF7C85532
100
AcDbEntity
  8
JISSEN
100
AcDbCircle
 10
250.288568714016
 20
173.1285941605525
 30
0.0
 40
0.2
100
AcDbArc
 50
90.0
 51
185.038927
  0
ARC
  5
EF7C89EB3
330
EF7C85532
100
AcDbEntity
  8
JISSEN
100
AcDbCircle
 10
247.145234714016
 20
173.2508301605524
 30
0.0
 40
0.1
100
AcDbArc
 50
6.142357000000295
 51
87.28209800000021
  0
ARC
  5
EF7C89EB4
330
EF7C85532
100
AcDbEntity
  8
JISSEN
100
AcDbCircle
 10
247.159461714016
 20
172.9508301605524
 30
0.0
 40
0.4
100
AcDbArc
 50
91.35885500000068
 51
186.1423570000002
  0
LINE
  5
EF7C89EB5
330
EF7C85532
100
AcDbEntity
  8
JISSEN
100
AcDbLine
 10
244.5000827140161
 20
183.1785941605524
 30
0.0
 11
244.5000827140161
 21
175.8285941605524
 31
0.0
  0
LINE
  5
EF7C89EB6
330
EF7C85532
100
AcDbEntity
  8
JISSEN
100
AcDbLine
 10
244.5000827140161
 20
175.8285941605524
 30
0.0
 11
245.5000827140161
 21
174.8285941605525
 31
0.0
  0
LINE
  5
EF7C89EB7
330
EF7C85532
100
AcDbEntity
  8
JISSEN
100
AcDbLine
 10
245.5000827140161
 20
174.8285941605525
 30
0.0
 11
246.400082714016
 21
174.8285941605525
 31
0.0
  0
LINE
  5
EF7C89EB8
330
EF7C85532
100
AcDbEntity
  8
JISSEN
100
AcDbLine
 10
244.5000827140161
 20
183.1785941605524
 30
0.0
 11
244.6500827140161
 21
183.3285941605524
 31
0.0
  0
ARC
  5
EF7C89EB9
330
EF7C85532
100
AcDbEntity
  8
JISSEN
100
AcDbCircle
 10
271.0000827140161
 20
175.8285941605524
 30
0.0
 40
1.0
100
AcDbArc
 50
180.0
 51
270.0
  0
LINE
  5
EF7C89EBA
330
EF7C85532
100
AcDbEntity
  8
JISSEN
100
AcDbLine
 10
256.379061714016
 20
173.1426081605524
 30
0.0
 11
256.822868714016
 21
166.8243421605525
 31
0.0
  0
LINE
  5
EF7C89EBB
330
EF7C85532
100
AcDbEntity
  8
JISSEN
100
AcDbLine
 10
254.893842714016
 20
173.0090021605524
 30
0.0
 11
255.286485714016
 21
167.0093711605525
 31
0.0
  0
LINE
  5
EF7C89EBC
330
EF7C85532
100
AcDbEntity
  8
JISSEN
100
AcDbLine
 10
254.498205714016
 20
167.2020391605524
 30
0.0
 11
254.094171714016
 21
172.9540691605524
 31
0.0
  0
LINE
  5
EF7C89EBD
330
EF7C85532
100
AcDbEntity
  8
JISSEN
100
AcDbLine
 10
251.094273714016
 20
166.9061441605525
 30
0.0
 11
250.526165714016
 21
173.1467261605524
 31
0.0
  0
ARC
  5
EF7C89EBE
330
EF7C85532
100
AcDbEntity
  8
JISSEN
100
AcDbCircle
 10
255.685631714016
 20
167.0354931605525
 30
0.0
 40
0.4
100
AcDbArc
 50
183.7443620000002
 51
270.0
  0
LINE
  5
EF7C89EBF
330
EF7C85532
100
AcDbEntity
  8
JISSEN
100
AcDbLine
 10
256.004429714016
 20
165.5961631605524
 30
0.0
 11
255.001363714016
 21
166.3070851605525
 31
0.0
  0
ARC
  5
EF7C89EC0
330
EF7C85532
100
AcDbEntity
  8
JISSEN
100
AcDbCircle
 10
255.695255714016
 20
167.2861221605525
 30
0.0
 40
1.199999999999999
100
AcDbArc
 50
184.0179690000001
 51
234.6729320000021
  0
ARC
  5
EF7C89EC1
330
EF7C85532
100
AcDbEntity
  8
JISSEN
100
AcDbCircle
 10
252.812250714016
 20
165.6317151605524
 30
0.0
 40
0.1
100
AcDbArc
 50
270.0
 51
62.25326199999882
  0
ARC
  5
EF7C89EC2
330
EF7C85532
100
AcDbEntity
  8
JISSEN
100
AcDbCircle
 10
251.815931714016
 20
165.9317151605524
 30
0.0
 40
0.4
100
AcDbArc
 50
242.2532619999987
 51
270.0
  0
ARC
  5
EF7C89EC3
330
EF7C85532
100
AcDbEntity
  8
JISSEN
100
AcDbCircle
 10
251.5922147140161
 20
166.9514741605524
 30
0.0
 40
0.5
100
AcDbArc
 50
185.201559
 51
242.2532619999987
  0
LINE
  5
EF7C89EC4
330
EF7C85532
100
AcDbEntity
  8
JISSEN
100
AcDbLine
 10
251.815931714016
 20
165.5317151605524
 30
0.0
 11
252.812250714016
 21
165.5317151605524
 31
0.0
  0
LINE
  5
EF7C89EC5
330
EF7C85532
100
AcDbEntity
  8
JISSEN
100
AcDbLine
 10
252.858807714016
 20
165.7202171605525
 30
0.0
 11
251.359432714016
 21
166.5089671605525
 31
0.0
  0
ARC
  5
EF7C89EC6
330
EF7C85532
100
AcDbEntity
  8
JISSEN
100
AcDbCircle
 10
251.118163714016
 20
167.1354931605524
 30
0.0
 40
0.5
100
AcDbArc
 50
185.038927
 51
279.3495549999982
  0
ARC
  5
EF7C89EC7
330
EF7C85532
100
AcDbEntity
  8
JISSEN
100
AcDbCircle
 10
257.922447714016
 20
165.6817151605524
 30
0.0
 40
0.15
100
AcDbArc
 50
270.0
 51
54.67293200000212
  0
LINE
  5
EF7C89EC8
330
EF7C85532
100
AcDbEntity
  8
JISSEN
100
AcDbLine
 10
255.685631714016
 20
166.6354931605525
 30
0.0
 11
256.885783714016
 21
166.6354931605525
 31
0.0
  0
ARC
  5
EF7C89EC9
330
EF7C85532
100
AcDbEntity
  8
JISSEN
100
AcDbCircle
 10
257.221885714016
 20
166.8523701605525
 30
0.0
 40
0.4
100
AcDbArc
 50
184.0179690000001
 51
234.6729320000021
  0
ARC
  5
EF7C89ECA
330
EF7C85532
100
AcDbEntity
  8
JISSEN
100
AcDbCircle
 10
256.206814714016
 20
165.8817151605525
 30
0.0
 40
0.35
100
AcDbArc
 50
234.6729320000021
 51
270.0
  0
LINE
  5
EF7C89ECB
330
EF7C85532
100
AcDbEntity
  8
JISSEN
100
AcDbLine
 10
256.9905887140161
 20
166.5260241605525
 30
0.0
 11
258.0091837140161
 21
165.8040951605524
 31
0.0
  0
LINE
  5
EF7C89ECC
330
EF7C85532
100
AcDbEntity
  8
JISSEN
100
AcDbLine
 10
257.922447714016
 20
165.5317151605524
 30
0.0
 11
256.206814714016
 21
165.5317151605524
 31
0.0
  0
LINE
  5
EF7C89ECD
330
EF7C85532
100
AcDbEntity
  8
JISSEN
100
AcDbLine
 10
255.1932017140161
 20
173.3285941605524
 30
0.0
 11
256.1795527140161
 21
173.3285941605524
 31
0.0
  0
ARC
  5
EF7C89ECE
330
EF7C85532
100
AcDbEntity
  8
JISSEN
100
AcDbCircle
 10
255.1932017140161
 20
173.0285941605524
 30
0.0
 40
0.3
100
AcDbArc
 50
90.0
 51
183.7443620000002
  0
ARC
  5
EF7C89ECF
330
EF7C85532
100
AcDbEntity
  8
JISSEN
100
AcDbCircle
 10
254.443310714016
 20
172.9785941605524
 30
0.0
 40
0.35
100
AcDbArc
 50
90.0
 51
184.0179690000001
  0
LINE
  5
EF7C89ED0
330
EF7C85532
100
AcDbEntity
  8
JISSEN
100
AcDbLine
 10
254.443310714016
 20
173.3285941605524
 30
0.0
 11
255.1932017140161
 21
173.3285941605524
 31
0.0
  0
ARC
  5
EF7C89ED1
330
EF7C85532
100
AcDbEntity
  8
JISSEN
100
AcDbCircle
 10
250.3269887140161
 20
173.1285941605525
 30
0.0
 40
0.2
100
AcDbArc
 50
5.201558999999984
 51
90.0
  0
ARC
  5
EF7C89ED2
330
EF7C85532
100
AcDbEntity
  8
JISSEN
100
AcDbCircle
 10
256.1795527140161
 20
173.1285941605525
 30
0.0
 40
0.2
100
AcDbArc
 50
4.017969000000171
 51
90.0
  0
LINE
  5
EF7C89ED3
330
EF7C85532
100
AcDbEntity
  8
JISSEN
100
AcDbLine
 10
269.5000827140161
 20
172.8285941605524
 30
0.0
 11
269.5000827140161
 21
166.0317151605525
 31
0.0
  0
LINE
  5
EF7C89ED4
330
EF7C85532
100
AcDbEntity
  8
JISSEN
100
AcDbLine
 10
264.2582297140161
 20
166.7293181605525
 30
0.0
 11
264.0187777140161
 21
173.1360641605524
 31
0.0
  0
LINE
  5
EF7C89ED5
330
EF7C85532
100
AcDbEntity
  8
JISSEN
100
AcDbLine
 10
261.629877714016
 20
173.0698931605524
 30
0.0
 11
261.843855714016
 21
166.9250531605525
 31
0.0
  0
LINE
  5
EF7C89ED6
330
EF7C85532
100
AcDbEntity
  8
JISSEN
100
AcDbLine
 10
261.204135714016
 20
173.0173891605524
 30
0.0
 11
261.4309697140161
 21
166.9482411605525
 31
0.0
  0
ARC
  5
EF7C89ED7
330
EF7C85532
100
AcDbEntity
  8
JISSEN
100
AcDbCircle
 10
264.558020714016
 20
166.7405221605525
 30
0.0
 40
0.3
100
AcDbArc
 50
182.1404319999997
 51
216.8971619999989
  0
ARC
  5
EF7C89ED8
330
EF7C85532
100
AcDbEntity
  8
JISSEN
100
AcDbCircle
 10
262.1436737140161
 20
166.9354931605525
 30
0.0
 40
0.3
100
AcDbArc
 50
181.994368
 51
270.0
  0
LINE
  5
EF7C89ED9
330
EF7C85532
100
AcDbEntity
  8
JISSEN
100
AcDbLine
 10
261.630557714016
 20
166.3852091605525
 30
0.0
 11
262.181308714016
 21
165.6516011605525
 31
0.0
  0
ARC
  5
EF7C89EDA
330
EF7C85532
100
AcDbEntity
  8
JISSEN
100
AcDbCircle
 10
262.4212237140161
 20
165.8317151605525
 30
0.0
 40
0.3
100
AcDbArc
 50
216.8971619999989
 51
270.0
  0
ARC
  5
EF7C89EDB
330
EF7C85532
100
AcDbEntity
  8
JISSEN
100
AcDbCircle
 10
262.430271714016
 20
166.9855901605524
 30
0.0
 40
1.0
100
AcDbArc
 50
182.1404319999997
 51
216.8971619999989
  0
LINE
  5
EF7C89EDC
330
EF7C85532
100
AcDbEntity
  8
JISSEN
100
AcDbLine
 10
262.1436737140161
 20
166.6354931605525
 30
0.0
 11
264.2770067140161
 21
166.6354931605525
 31
0.0
  0
LINE
  5
EF7C89EDD
330
EF7C85532
100
AcDbEntity
  8
JISSEN
100
AcDbLine
 10
262.4212237140161
 20
165.5317151605524
 30
0.0
 11
264.690152714016
 21
165.5317151605524
 31
0.0
  0
ARC
  5
EF7C89EDE
330
EF7C85532
100
AcDbEntity
  8
JISSEN
100
AcDbCircle
 10
264.690152714016
 20
165.7317151605525
 30
0.0
 40
0.2
100
AcDbArc
 50
270.0
 51
36.8971619999989
  0
LINE
  5
EF7C89EDF
330
EF7C85532
100
AcDbEntity
  8
JISSEN
100
AcDbLine
 10
264.8500957140161
 20
165.8517921605525
 30
0.0
 11
264.3181057140161
 21
166.5604081605525
 31
0.0
  0
LINE
  5
EF7C89EE0
330
EF7C85532
100
AcDbEntity
  8
JISSEN
100
AcDbLine
 10
270.0000827140161
 20
166.6354931605525
 30
0.0
 11
271.0000827140161
 21
166.6354931605525
 31
0.0
  0
LINE
  5
EF7C89EE1
330
EF7C85532
100
AcDbEntity
  8
JISSEN
100
AcDbLine
 10
271.0000827140161
 20
165.5317151605524
 30
0.0
 11
270.0000827140161
 21
165.5317151605524
 31
0.0
  0
ARC
  5
EF7C89EE2
330
EF7C85532
100
AcDbEntity
  8
JISSEN
100
AcDbCircle
 10
270.0000827140161
 20
166.0317151605525
 30
0.0
 40
0.5
100
AcDbArc
 50
180.0
 51
270.0
  0
ARC
  5
EF7C89EE3
330
EF7C85532
100
AcDbEntity
  8
JISSEN
100
AcDbCircle
 10
270.0000827140161
 20
167.1354931605524
 30
0.0
 40
0.5
100
AcDbArc
 50
180.0
 51
270.0
  0
ARC
  5
EF7C89EE4
330
EF7C85532
100
AcDbEntity
  8
JISSEN
100
AcDbCircle
 10
263.818916714016
 20
173.1285941605525
 30
0.0
 40
0.2
100
AcDbArc
 50
2.140431999999805
 51
90.0
  0
ARC
  5
EF7C89EE5
330
EF7C85532
100
AcDbEntity
  8
JISSEN
100
AcDbCircle
 10
261.879725714016
 20
173.0785941605524
 30
0.0
 40
0.25
100
AcDbArc
 50
90.0
 51
181.994368
  0
ARC
  5
EF7C89EE6
330
EF7C85532
100
AcDbEntity
  8
JISSEN
100
AcDbCircle
 10
261.503925714016
 20
173.0285941605524
 30
0.0
 40
0.3
100
AcDbArc
 50
90.0
 51
182.1404319999997
  0
LINE
  5
EF7C89EE7
330
EF7C85532
100
AcDbEntity
  8
JISSEN
100
AcDbLine
 10
263.818916714016
 20
173.3285941605524
 30
0.0
 11
261.503925714016
 21
173.3285941605524
 31
0.0
  0
LINE
  5
EF7C89EE8
330
EF7C85532
100
AcDbEntity
  8
JISSEN
100
AcDbLine
 10
271.0000827140161
 20
173.3285941605524
 30
0.0
 11
270.0000827140161
 21
173.3285941605524
 31
0.0
  0
ARC
  5
EF7C89EE9
330
EF7C85532
100
AcDbEntity
  8
JISSEN
100
AcDbCircle
 10
270.0000827140161
 20
172.8285941605524
 30
0.0
 40
0.5
100
AcDbArc
 50
90.0
 51
180.0
  0
LINE
  5
EF7C89EEA
330
EF7C85532
100
AcDbEntity
  8
SAISEN
100
AcDbLine
 10
260.341363714016
 20
184.3698751605524
 30
0.0
 11
261.540849714016
 21
185.5693611605524
 31
0.0
  0
LINE
  5
EF7C89EEB
330
EF7C85532
100
AcDbEntity
  8
JISSEN
100
AcDbLine
 10
271.0000827140161
 20
185.5693611605524
 30
0.0
 11
260.378849714016
 21
185.5693611605524
 31
0.0
  0
LINE
  5
EF7C89EEC
330
EF7C85532
100
AcDbEntity
  8
JISSEN
100
AcDbLine
 10
259.300082714016
 20
183.3285941605524
 30
0.0
 11
260.341363714016
 21
184.3698751605524
 31
0.0
  0
LINE
  5
EF7C89EED
330
EF7C85532
100
AcDbEntity
  8
JISSEN
100
AcDbLine
 10
270.0000827140161
 20
182.8285941605524
 30
0.0
 11
270.0000827140161
 21
175.8285941605524
 31
0.0
  0
ARC
  5
EF7C89EEE
330
EF7C85532
100
AcDbEntity
  8
JISSEN
100
AcDbCircle
 10
271.0000827140161
 20
182.0785941605524
 30
0.0
 40
1.25
100
AcDbArc
 50
90.0
 51
143.1301019999993
  0
LINE
  5
EF7C89EEF
330
EF7C85532
100
AcDbEntity
  8
JISSEN
100
AcDbLine
 10
202.2663302868745
 20
188.3285941605524
 30
0.0
 11
260.4650799770038
 21
188.3285941605526
 31
0.0
  0
LINE
  5
EF7C89EF0
330
EF7C85532
100
AcDbEntity
  8
JISSEN
100
AcDbLine
 10
260.7381587140161
 20
200.0666691605561
 30
0.0
 11
262.0000827140161
 21
201.3285941605561
 31
0.0
  0
LINE
  5
EF7C89EF1
330
EF7C85532
100
AcDbEntity
  8
JISSEN
100
AcDbLine
 10
260.7381587140161
 20
200.0666691605561
 30
0.0
 11
271.0000827140161
 21
200.0666691605561
 31
0.0
  0
LINE
  5
EF7C89EF2
330
EF7C85532
100
AcDbEntity
  8
JISSEN
100
AcDbLine
 10
262.0000827140161
 20
201.3285941605561
 30
0.0
 11
271.0000827140161
 21
201.328594160556
 31
0.0
  0
INSERT
  5
EF7C89EF3
330
EF7C85532
100
AcDbEntity
  8
WAKU
100
AcDbBlockReference
  2
WAKU
 10
361.9999987874493
 20
0.0
 30
0.0
 41
181.0
 42
283.0
 43
181.0
  0
LINE
  5
EF7C89EF4
330
EF7C85532
100
AcDbEntity
  8
JISSEN
100
AcDbLine
 10
440.3250822254654
 20
21.74271183821355
 30
0.0
 11
444.5000822254653
 21
21.74271183821355
 31
0.0
  0
LINE
  5
EF7C89EF5
330
EF7C85532
100
AcDbEntity
  8
JISSEN
100
AcDbLine
 10
452.0000822254664
 20
30.74271183821304
 30
0.0
 11
439.4500822254665
 21
30.74271183821361
 31
0.0
1001
ACAD
1000
ASC_BOUNDS
1002
{
1070
    19
1002
}
  0
LWPOLYLINE
  5
EF7C89EF6
330
EF7C85532
100
AcDbEntity
  8
NITEN
100
AcDbPolyline
 90
        5
 70
     0
 43
0.0
 10
468.9999987874493
 20
101.93914306628
 10
468.9999987874493
 20
122.7768607174258
 42
-0.5882352941176476
 10
451.9999987874493
 20
122.7768607174258
 42
0.5882352941176477
 10
434.9999987874493
 20
122.7768607174254
 10
434.9999987874493
 20
101.93914306628
  0
LINE
  5
EF7C89EF7
330
EF7C85532
100
AcDbEntity
  8
JISSEN
100
AcDbLine
 10
440.3000822254653
 20
53.8285941605526
 30
0.0
 11
441.3413632254653
 21
54.86987516055262
 31
0.0
  0
LINE
  5
EF7C89EF8
330
EF7C85532
100
AcDbEntity
  8
JISSEN
100
AcDbLine
 10
440.3000822254653
 20
53.8285941605526
 30
0.0
 11
441.3413632254653
 21
54.86987516055262
 31
0.0
  0
LWPOLYLINE
  5
EF7C89EF9
330
EF7C85532
100
AcDbEntity
  8
NITEN
100
AcDbPolyline
 90
       15
 70
     1
 43
0.0
 10
437.9999987874493
 20
61.43914306627999
 42
0.4142135623730927
 10
439.4999987874491
 20
59.93914306627999
 10
462.5940499584458
 20
59.93914306627999
 10
464.4999987874493
 20
59.93914306627999
 42
0.4142135623730925
 10
465.9999987874494
 20
61.43914306627999
 10
465.9999987874494
 20
72.48515909249795
 42
-0.4142135623730943
 10
470.9999987874494
 20
77.48515909249795
 42
0.4142135623730951
 10
472.9999987874493
 20
79.48515909249795
 10
472.9999987874491
 20
99.93914306627999
 42
0.4142135623730949
 10
470.9999987874494
 20
101.93914306628
 10
432.9999987874494
 20
101.93914306628
 42
0.4142135623730951
 10
430.9999987874493
 20
99.93914306627999
 10
430.9999987874493
 20
79.48515909249795
 42
0.4142135623730951
 10
432.9999987874494
 20
77.48515909249795
 42
-0.4142135623730961
 10
437.9999987874493
 20
72.48515909249795
  0
LINE
  5
EF7C89EFA
330
EF7C85532
100
AcDbEntity
  8
JISSEN
100
AcDbLine
 10
452.0000822254655
 20
32.49271183821326
 30
0.0
 11
437.4708792088636
 21
32.49271183821304
 31
0.0
1001
ACAD
1000
ASC_BOUNDS
1002
{
1070
    19
1002
}
  0
HATCH
  5
EF7C89EFB
330
EF7C85532
100
AcDbEntity
  8
HATCH
100
AcDbHatch
 10
0.0
 20
0.0
 30
0.0
210
0.0
220
0.0
230
1.0
  2
_U
 70
     0
 71
     0
 91
        2
 92
        7
 72
     0
 73
     1
 93
       13
 10
469.5000822254653
 20
58.82859416055254
 10
469.5000822254653
 20
53.82859416055257
 10
478.3500822254652
 20
53.82859416055257
 10
517.2741454833651
 20
53.82859416055257
 10
517.7144835888393
 20
54.89282524908404
 10
518.4276409757142
 20
55.68472820644577
 10
519.1226397847481
 20
56.17071628891315
 10
519.5253558288577
 20
56.44554472255137
 10
519.8915791178373
 20
56.73579579520149
 10
520.1994666044965
 20
57.07391281886846
 10
520.4271752416444
 20
57.49233910555616
 10
520.5690805983249
 20
58.00895708232039
 10
520.7336677765747
 20
58.82859416055257
 97
        0
 92
        7
 72
     0
 73
     1
 93
       12
 10
383.2663297983239
 20
58.82859416055257
 10
383.4309169765738
 20
58.00895708232054
 10
383.5728223332541
 20
57.49233910555624
 10
383.8005309704019
 20
57.07391281886842
 10
384.1084184570613
 20
56.73579579520147
 10
384.474641746041
 20
56.44554472255126
 10
385.2478035165609
 20
55.91791032246018
 10
385.9527151050113
 20
55.3313385636788
 10
386.4162885740544
 20
54.57676270440752
 10
386.7258520915336
 20
53.82859416055256
 10
434.5000822254653
 20
53.82859416055257
 10
434.5000822254653
 20
58.82859416055262
 97
        0
 75
     0
 76
     0
 52
45.0
 41
2.0
 77
     0
 78
     1
 53
45.0
 43
361.9999987874493
 44
-126.4999999999999
 45
-1.414213562373094
 46
1.414213562373094
 79
     0
 47
0.2346837798524018
 98
        2
 10
479.2263862772938
 20
56.6842259962082
 10
428.258580983638
 20
57.38827704997928
  0
LINE
  5
EF7C89EFC
330
EF7C85532
100
AcDbEntity
  8
JISSEN
100
AcDbLine
 10
383.2663297983239
 20
58.8285941605526
 30
0.0
 11
441.465079488453
 21
58.8285941605526
 31
0.0
  0
LINE
  5
EF7C89EFD
330
EF7C85532
100
AcDbEntity
  8
JISSEN
100
AcDbLine
 10
441.4025763085167
 20
53.8285941605526
 30
0.0
 11
386.7240928317538
 21
53.8285941605526
 31
0.0
  0
LINE
  5
EF7C89EFE
330
EF7C85532
100
AcDbEntity
  8
JISSEN
100
AcDbLine
 10
425.6500822254654
 20
53.8285941605526
 30
0.0
 11
452.0000822254655
 21
53.8285941605526
 31
0.0
  0
LINE
  5
EF7C89EFF
330
EF7C85532
100
AcDbEntity
  8
JISSEN
100
AcDbLine
 10
415.5000822254653
 20
53.8285941605526
 30
0.0
 11
488.5000822254653
 21
53.8285941605526
 31
0.0
  0
LINE
  5
EF7C89F00
330
EF7C85532
100
AcDbEntity
  8
JISSEN
100
AcDbLine
 10
424.5000822254653
 20
50.32859416055259
 30
0.0
 11
479.5000822254653
 21
50.32859416055265
 31
0.0
  0
LINE
  5
EF7C89F01
330
EF7C85532
100
AcDbEntity
  8
JISSEN
100
AcDbLine
 10
479.5000822254653
 20
46.32859416055254
 30
0.0
 11
424.5000822254653
 21
46.32859416055254
 31
0.0
  0
LINE
  5
EF7C89F02
330
EF7C85532
100
AcDbEntity
  8
JISSEN
100
AcDbLine
 10
425.5000822254653
 20
46.32859416055254
 30
0.0
 11
451.0000822254653
 21
46.32859416055254
 31
0.0
  0
LINE
  5
EF7C89F03
330
EF7C85532
100
AcDbEntity
  8
JISSEN
100
AcDbLine
 10
426.5000822254653
 20
45.32859416055259
 30
0.0
 11
452.0000822254655
 21
45.32859416055259
 31
0.0
  0
LINE
  5
EF7C89F04
330
EF7C85532
100
AcDbEntity
  8
JISSEN
100
AcDbLine
 10
425.6500822254654
 20
53.8285941605526
 30
0.0
 11
452.0000822254655
 21
53.8285941605526
 31
0.0
  0
LINE
  5
EF7C89F05
330
EF7C85532
100
AcDbEntity
  8
WAKU
100
AcDbLine
 10
542.9999982988988
 20
141.5000001996573
 30
0.0
 11
361.9999987874493
 21
141.5000001996573
 31
0.0
  0
ARC
  5
EF7C89F06
330
EF7C85532
100
AcDbEntity
  8
JISSEN
100
AcDbCircle
 10
416.5000822254653
 20
53.50746388040864
 30
0.0
 40
1.0
100
AcDbArc
 50
180.0
 51
255.000000000019
  0
ARC
  5
EF7C89F07
330
EF7C85532
100
AcDbEntity
  8
JISSEN
100
AcDbCircle
 10
306.5000827140161
 20
53.50746388040864
 30
0.0
 40
1.0
100
AcDbArc
 50
284.9999999999809
 51
0.000000000000007
  0
TEXT
  5
EF7C89F08
330
EF7C85532
100
AcDbEntity
  8
SUNPOU
100
AcDbText
 10
294.2071097486936
 20
6.665259596075088
 30
0.0
 40
3.0
  1
MFQR   シーリングプレート取付状態
  7
K
100
AcDbText
  0
TEXT
  5
EF7C89F0B
330
EF7C85532
100
AcDbEntity
  8
SUNPOU
100
AcDbText
 10
294.2071097486936
 20
1.665259596075088
 30
0.0
 40
3.0
  1
尺度　1/1
  7
K
100
AcDbText
  0
LINE
  5
EF7C89F0D
330
EF7C85532
100
AcDbEntity
  8
SUNPOU
100
AcDbLine
 10
302.629492236567
 20
51.43506610733601
 30
0.0
 11
325.0577263757406
 21
26.0334284688584
 31
0.0
  0
CIRCLE
  5
EF7C89F0E
330
EF7C85532
100
AcDbEntity
  8
SUNPOU
100
AcDbCircle
 10
309.0289517425905
 20
21.53572137682931
 30
0.0
 40
6.0
  0
LINE
  5
EF7C89F0F
330
EF7C85532
100
AcDbEntity
  8
SUNPOU
100
AcDbLine
 10
289.7919870352367
 20
34.4969598090683
 30
0.0
 11
304.0530171911068
 21
24.88834353558087
 31
0.0
  0
LINE
  5
EF7C89F10
330
EF7C85532
100
AcDbEntity
  8
JISSEN
100
AcDbLine
 10
283.7500827140161
 20
32.49271183821309
 30
0.0
 11
283.7500827140161
 21
30.94271183821229
 31
0.0
1001
ACAD
1000
ASC_BOUNDS
1002
{
1070
    19
1002
}
  0
LINE
  5
EF7C89F11
330
EF7C85532
100
AcDbEntity
  8
JISSEN
100
AcDbLine
 10
280.2500827140161
 20
24.9204945946052
 30
0.0
 11
284.2500827140161
 21
26.95859639258293
 31
0.0
1001
ACAD
1000
ASC_BOUNDS
1002
{
1070
    19
1002
}
  0
LINE
  5
EF7C89F12
330
EF7C85532
100
AcDbEntity
  8
SAISEN
100
AcDbLine
 10
275.528111714016
 20
22.64361759460524
 30
0.0
 11
280.268008714016
 21
22.64361759460524
 31
0.0
  0
ARC
  5
EF7C89F13
330
EF7C85532
100
AcDbEntity
  8
SAISEN
100
AcDbCircle
 10
276.018008714016
 20
22.50697159460526
 30
0.0
 40
0.75
100
AcDbArc
 50
38.68358899999869
 51
90.0
  0
ARC
  5
EF7C89F14
330
EF7C85532
100
AcDbEntity
  8
JISSEN
100
AcDbCircle
 10
274.818008714016
 20
21.28383559460524
 30
0.0
 40
0.3
100
AcDbArc
 50
180.0
 51
270.0
  0
LINE
  5
EF7C89F15
330
EF7C85532
100
AcDbEntity
  8
JISSEN
100
AcDbLine
 10
274.5180087140161
 20
22.14361759460524
 30
0.0
 11
274.5180087140161
 21
21.28383559460524
 31
0.0
  0
ARC
  5
EF7C89F16
330
EF7C85532
100
AcDbEntity
  8
JISSEN
100
AcDbCircle
 10
274.018008714016
 20
22.14361759460524
 30
0.0
 40
0.5
100
AcDbArc
 50
0.000000000000007
 51
90.0
  0
LINE
  5
EF7C89F17
330
EF7C85532
100
AcDbEntity
  8
JISSEN
100
AcDbLine
 10
274.018008714016
 20
24.9204945946052
 30
0.0
 11
274.018008714016
 21
23.25697159460526
 31
0.0
  0
LINE
  5
EF7C89F18
330
EF7C85532
100
AcDbEntity
  8
SAISEN
100
AcDbLine
 10
280.268008714016
 20
20.98383559460523
 30
0.0
 11
280.268008714016
 21
20.66140659460523
 31
0.0
  0
LINE
  5
EF7C89F19
330
EF7C85532
100
AcDbEntity
  8
SAISEN
100
AcDbLine
 10
280.268008714016
 20
22.64361759460524
 30
0.0
 11
280.268008714016
 21
22.97573659460522
 31
0.0
  0
ARC
  5
EF7C89F1A
330
EF7C85532
100
AcDbEntity
  8
SAISEN
100
AcDbCircle
 10
278.5180087140161
 20
21.11140659460522
 30
0.0
 40
0.75
100
AcDbArc
 50
261.0715289999998
 51
323.1301019999993
  0
LINE
  5
EF7C89F1B
330
EF7C85532
100
AcDbEntity
  8
JISSEN
100
AcDbLine
 10
280.2702533062331
 20
29.22049459460521
 30
0.0
 11
279.6351680101245
 21
30.32049459460523
 31
0.0
1001
ACAD
1000
ASC_BOUNDS
1002
{
1070
    19
1002
}
  0
ARC
  5
EF7C89F1C
330
EF7C85532
100
AcDbEntity
  8
JISSEN
100
AcDbCircle
 10
278.942347687097
 20
29.9204945946052
 30
0.0
 40
0.8
100
AcDbArc
 50
30.00000000000065
 51
66.40206201165497
1001
ACAD
1000
ASC_BOUNDS
1002
{
1070
    19
1002
}
  0
LINE
  5
EF7C89F1D
330
EF7C85532
100
AcDbEntity
  8
JISSEN
100
AcDbLine
 10
279.2626005298314
 20
30.74271183821349
 30
0.0
 11
279.2626005298314
 21
29.22049459460521
 31
0.0
1001
ACAD
1000
ASC_BOUNDS
1002
{
1070
    19
1002
}
  0
LINE
  5
EF7C89F1E
330
EF7C85532
100
AcDbEntity
  8
JISSEN
100
AcDbLine
 10
278.8345436597698
 20
29.22859416055257
 30
0.0
 11
278.7886087386655
 21
29.22049459460521
 31
0.0
1001
ACAD
1000
ASC_BOUNDS
1002
{
1070
    19
1002
}
  0
ARC
  5
EF7C89F1F
330
EF7C85532
100
AcDbEntity
  8
JISSEN
100
AcDbCircle
 10
278.8305392071822
 20
28.92859416055256
 30
0.0
 40
0.3
100
AcDbArc
 50
76.65588245932423
 51
90.0
1001
ACAD
1000
ASC_BOUNDS
1002
{
1070
    19
1002
}
  0
LINE
  5
EF7C89F20
330
EF7C85532
100
AcDbEntity
  8
JISSEN
100
AcDbLine
 10
277.3900827140161
 20
29.22049459460521
 30
0.0
 11
277.3900827140161
 21
30.74271183821332
 31
0.0
1001
ACAD
1000
ASC_BOUNDS
1002
{
1070
    19
1002
}
  0
ARC
  5
EF7C89F21
330
EF7C85532
100
AcDbEntity
  8
JISSEN
100
AcDbCircle
 10
283.550082714016
 20
30.94271183821337
 30
0.0
 40
0.2
100
AcDbArc
 50
270.0
 51
359.9999999999991
1001
ACAD
1000
ASC_BOUNDS
1002
{
1070
    19
1002
}
  0
LINE
  5
EF7C89F22
330
EF7C85532
100
AcDbEntity
  8
JISSEN
100
AcDbLine
 10
284.2500827140161
 20
29.22049459460521
 30
0.0
 11
284.2500827140161
 21
26.95859639258293
 31
0.0
1001
ACAD
1000
ASC_BOUNDS
1002
{
1070
    19
1002
}
  0
TEXT
  5
EF7C89F23
330
EF7C85532
100
AcDbEntity
  8
SUNPOU
100
AcDbText
 10
307.2075231711619
 20
19.28572137682931
 30
0.0
 40
4.5
  1
1
  7
K
 72
     4
 11
309.0289517425905
 21
21.53572137682931
 31
0.0
100
AcDbText
  0
ARC
  5
EF7C89F25
330
EF7C85532
100
AcDbEntity
  8
JISSEN
100
AcDbCircle
 10
292.5750237140159
 20
43.42859416055262
 30
0.0
 40
0.4
100
AcDbArc
 50
354.5938149999994
 51
90.0
  0
LINE
  5
EF7C89F26
330
EF7C85532
100
AcDbEntity
  8
JISSEN
100
AcDbLine
 10
297.5000827140161
 20
46.32859416055254
 30
0.0
 11
272.0000827140161
 21
46.32859416055254
 31
0.0
  0
LINE
  5
EF7C89F27
330
EF7C85532
100
AcDbEntity
  8
JISSEN
100
AcDbLine
 10
285.5292857306178
 20
32.49271183821304
 30
0.0
 11
294.0801080334597
 21
36.51315967748462
 31
0.0
1001
ACAD
1000
ASC_BOUNDS
1002
{
1070
    19
1002
}
  0
LINE
  5
EF7C89F28
330
EF7C85532
100
AcDbEntity
  8
JISSEN
100
AcDbLine
 10
293.8464097140159
 20
36.82495216055253
 30
0.0
 11
292.3795117140159
 21
36.14636016055254
 31
0.0
  0
LINE
  5
EF7C89F29
330
EF7C85532
100
AcDbEntity
  8
JISSEN
100
AcDbLine
 10
291.864989714016
 20
36.1493311605526
 30
0.0
 11
293.3768487140159
 21
36.84872216055259
 31
0.0
  0
LINE
  5
EF7C89F2A
330
EF7C85532
100
AcDbEntity
  8
JISSEN
100
AcDbLine
 10
292.9732447140161
 20
43.39090716055261
 30
0.0
 11
292.4475427140161
 21
37.83596116055253
 31
0.0
  0
LINE
  5
EF7C89F2B
330
EF7C85532
100
AcDbEntity
  8
JISSEN
100
AcDbLine
 10
291.910823714016
 20
43.61102716055256
 30
0.0
 11
291.3800697140159
 21
37.59157716055256
 31
0.0
  0
LINE
  5
EF7C89F2C
330
EF7C85532
100
AcDbEntity
  8
JISSEN
100
AcDbLine
 10
290.9058917140161
 20
37.40614416055257
 30
0.0
 11
291.4739997140161
 21
43.64672616055258
 31
0.0
  0
LINE
  5
EF7C89F2D
330
EF7C85532
100
AcDbEntity
  8
JISSEN
100
AcDbLine
 10
287.501959714016
 20
37.70203916055254
 30
0.0
 11
287.9059937140161
 21
43.45406916055253
 31
0.0
  0
LINE
  5
EF7C89F2E
330
EF7C85532
100
AcDbEntity
  8
JISSEN
100
AcDbLine
 10
287.1063227140159
 20
43.50900216055253
 30
0.0
 11
286.713679714016
 21
37.50937116055252
 31
0.0
  0
LINE
  5
EF7C89F2F
330
EF7C85532
100
AcDbEntity
  8
JISSEN
100
AcDbLine
 10
280.7960297140159
 20
43.51738916055262
 30
0.0
 11
280.5691957140161
 21
37.44824116055258
 31
0.0
  0
LINE
  5
EF7C89F30
330
EF7C85532
100
AcDbEntity
  8
JISSEN
100
AcDbLine
 10
280.370287714016
 20
43.56989316055262
 30
0.0
 11
280.156309714016
 21
37.42505316055252
 31
0.0
  0
LINE
  5
EF7C89F31
330
EF7C85532
100
AcDbEntity
  8
JISSEN
100
AcDbLine
 10
285.621103714016
 20
43.64260816055258
 30
0.0
 11
285.1772967140161
 21
37.32434216055253
 31
0.0
  0
LINE
  5
EF7C89F32
330
EF7C85532
100
AcDbEntity
  8
JISSEN
100
AcDbLine
 10
277.7419357140161
 20
37.22931816055256
 30
0.0
 11
277.9813877140161
 21
43.63606416055262
 31
0.0
  0
LINE
  5
EF7C89F33
330
EF7C85532
100
AcDbEntity
  8
JISSEN
100
AcDbLine
 10
272.5000827140161
 20
43.32859416055254
 30
0.0
 11
272.5000827140161
 21
36.53171516055261
 31
0.0
  0
LINE
  5
EF7C89F34
330
EF7C85532
100
AcDbEntity
  8
JISSEN
100
AcDbLine
 10
280.3696077140159
 20
36.88520916055256
 30
0.0
 11
279.8188567140159
 21
36.15160116055261
 31
0.0
  0
LINE
  5
EF7C89F35
330
EF7C85532
100
AcDbEntity
  8
JISSEN
100
AcDbLine
 10
277.1500697140161
 20
36.35179216055258
 30
0.0
 11
277.682059714016
 21
37.06040816055252
 31
0.0
  0
ARC
  5
EF7C89F36
330
EF7C85532
100
AcDbEntity
  8
JISSEN
100
AcDbCircle
 10
272.0000827140161
 20
36.53171516055261
 30
0.0
 40
0.5
100
AcDbArc
 50
270.0
 51
0.000000000000007
  0
ARC
  5
EF7C89F37
330
EF7C85532
100
AcDbEntity
  8
JISSEN
100
AcDbCircle
 10
279.578941714016
 20
36.33171516055256
 30
0.0
 40
0.3
100
AcDbArc
 50
270.0
 51
323.1028380000011
  0
ARC
  5
EF7C89F38
330
EF7C85532
100
AcDbEntity
  8
JISSEN
100
AcDbCircle
 10
277.310012714016
 20
36.23171516055254
 30
0.0
 40
0.2
100
AcDbArc
 50
143.102838000001
 51
270.0
  0
LINE
  5
EF7C89F39
330
EF7C85532
100
AcDbEntity
  8
JISSEN
100
AcDbLine
 10
279.578941714016
 20
36.0317151605526
 30
0.0
 11
277.310012714016
 21
36.0317151605526
 31
0.0
  0
ARC
  5
EF7C89F3A
330
EF7C85532
100
AcDbEntity
  8
JISSEN
100
AcDbCircle
 10
272.0000827140161
 20
37.63549316055264
 30
0.0
 40
0.5
100
AcDbArc
 50
270.0
 51
0.000000000000007
  0
ARC
  5
EF7C89F3B
330
EF7C85532
100
AcDbEntity
  8
JISSEN
100
AcDbCircle
 10
279.5698937140159
 20
37.48559016055253
 30
0.0
 40
1.0
100
AcDbArc
 50
323.1028380000011
 51
357.859568
  0
ARC
  5
EF7C89F3C
330
EF7C85532
100
AcDbEntity
  8
JISSEN
100
AcDbCircle
 10
279.856491714016
 20
37.43549316055254
 30
0.0
 40
0.3
100
AcDbArc
 50
270.0
 51
358.0056319999998
  0
ARC
  5
EF7C89F3D
330
EF7C85532
100
AcDbEntity
  8
JISSEN
100
AcDbCircle
 10
277.4421447140159
 20
37.24052216055253
 30
0.0
 40
0.3
100
AcDbArc
 50
323.1028380000011
 51
357.859568
  0
LINE
  5
EF7C89F3E
330
EF7C85532
100
AcDbEntity
  8
JISSEN
100
AcDbLine
 10
279.856491714016
 20
37.13549316055264
 30
0.0
 11
277.723158714016
 21
37.13549316055264
 31
0.0
  0
LINE
  5
EF7C89F3F
330
EF7C85532
100
AcDbEntity
  8
JISSEN
100
AcDbLine
 10
291.7585587140159
 20
36.80792316055255
 30
0.0
 11
290.370459714016
 21
36.07771016055255
 31
0.0
  0
LINE
  5
EF7C89F40
330
EF7C85532
100
AcDbEntity
  8
JISSEN
100
AcDbLine
 10
289.141357714016
 20
36.22021716055263
 30
0.0
 11
290.6407327140161
 21
37.00896716055263
 31
0.0
  0
LINE
  5
EF7C89F41
330
EF7C85532
100
AcDbEntity
  8
JISSEN
100
AcDbLine
 10
285.009576714016
 20
37.02602416055253
 30
0.0
 11
283.9909817140161
 21
36.30409516055255
 31
0.0
  0
LINE
  5
EF7C89F42
330
EF7C85532
100
AcDbEntity
  8
JISSEN
100
AcDbLine
 10
285.995735714016
 20
36.09616316055263
 30
0.0
 11
286.998801714016
 21
36.80708516055256
 31
0.0
  0
LINE
  5
EF7C89F43
330
EF7C85532
100
AcDbEntity
  8
JISSEN
100
AcDbLine
 10
284.0777177140159
 20
36.0317151605526
 30
0.0
 11
285.7933507140161
 21
36.0317151605526
 31
0.0
  0
ARC
  5
EF7C89F44
330
EF7C85532
100
AcDbEntity
  8
JISSEN
100
AcDbCircle
 10
285.7933507140161
 20
36.38171516055263
 30
0.0
 40
0.35
100
AcDbArc
 50
270.0
 51
305.3270679999978
  0
ARC
  5
EF7C89F45
330
EF7C85532
100
AcDbEntity
  8
JISSEN
100
AcDbCircle
 10
284.0777177140159
 20
36.18171516055253
 30
0.0
 40
0.15
100
AcDbArc
 50
125.3270679999978
 51
270.0
  0
INSERT
  5
EF7C89F46
330
EF7C85532
100
AcDbEntity
  8
SUNPOU
100
AcDbBlockReference
  2
ARROW
 10
289.7919870352366
 20
34.4969598090683
 30
0.0
 41
1.499999999999983
 42
1.5
 43
1.5
 50
146.0291974830129
  0
ARC
  5
EF7C89F47
330
EF7C85532
100
AcDbEntity
  8
JISSEN
100
AcDbCircle
 10
291.8859817140161
 20
36.10395216055252
 30
0.0
 40
0.05
100
AcDbArc
 50
114.825405
 51
270.0
  0
LINE
  5
EF7C89F48
330
EF7C85532
100
AcDbEntity
  8
JISSEN
100
AcDbLine
 10
291.959656714016
 20
36.05395216055262
 30
0.0
 11
291.8859817140161
 21
36.05395216055262
 31
0.0
  0
ARC
  5
EF7C89F49
330
EF7C85532
100
AcDbEntity
  8
JISSEN
100
AcDbCircle
 10
291.959656714016
 20
37.05395216055262
 30
0.0
 40
1.0
100
AcDbArc
 50
270.0
 51
294.825405
  0
LINE
  5
EF7C89F4A
330
EF7C85532
100
AcDbEntity
  8
JISSEN
100
AcDbLine
 10
290.184233714016
 20
36.0317151605526
 30
0.0
 11
289.1879147140159
 21
36.0317151605526
 31
0.0
  0
ARC
  5
EF7C89F4B
330
EF7C85532
100
AcDbEntity
  8
JISSEN
100
AcDbCircle
 10
290.184233714016
 20
36.43171516055258
 30
0.0
 40
0.4
100
AcDbArc
 50
270.0
 51
297.7467380000011
  0
ARC
  5
EF7C89F4C
330
EF7C85532
100
AcDbEntity
  8
JISSEN
100
AcDbCircle
 10
289.1879147140159
 20
36.13171516055263
 30
0.0
 40
0.1
100
AcDbArc
 50
117.7467380000011
 51
270.0
  0
ARC
  5
EF7C89F4D
330
EF7C85532
100
AcDbEntity
  8
JISSEN
100
AcDbCircle
 10
286.304909714016
 20
37.78612216055262
 30
0.0
 40
1.199999999999999
100
AcDbArc
 50
305.3270679999978
 51
355.9820309999998
  0
ARC
  5
EF7C89F4E
330
EF7C85532
100
AcDbEntity
  8
JISSEN
100
AcDbCircle
 10
286.314533714016
 20
37.53549316055261
 30
0.0
 40
0.4
100
AcDbArc
 50
270.0
 51
356.2556379999997
  0
ARC
  5
EF7C89F4F
330
EF7C85532
100
AcDbEntity
  8
JISSEN
100
AcDbCircle
 10
284.7782797140159
 20
37.35237016055254
 30
0.0
 40
0.4
100
AcDbArc
 50
305.3270679999978
 51
355.9820309999998
  0
LINE
  5
EF7C89F50
330
EF7C85532
100
AcDbEntity
  8
JISSEN
100
AcDbLine
 10
286.314533714016
 20
37.13549316055264
 30
0.0
 11
285.1143817140159
 21
37.13549316055264
 31
0.0
  0
ARC
  5
EF7C89F51
330
EF7C85532
100
AcDbEntity
  8
JISSEN
100
AcDbCircle
 10
290.882001714016
 20
37.63549316055264
 30
0.0
 40
0.5
100
AcDbArc
 50
260.6504450000016
 51
354.9610729999997
  0
ARC
  5
EF7C89F52
330
EF7C85532
100
AcDbEntity
  8
JISSEN
100
AcDbCircle
 10
291.1533257140161
 20
37.95844216055263
 30
0.0
 40
1.3
100
AcDbArc
 50
297.7467380000011
 51
354.5938149999994
  0
ARC
  5
EF7C89F53
330
EF7C85532
100
AcDbEntity
  8
JISSEN
100
AcDbCircle
 10
290.4079507140161
 20
37.4514741605526
 30
0.0
 40
0.5
100
AcDbArc
 50
297.7467380000011
 51
354.7984410000001
  0
ARC
  5
EF7C89F54
330
EF7C85532
100
AcDbEntity
  8
JISSEN
100
AcDbCircle
 10
272.0000827140161
 20
43.32859416055254
 30
0.0
 40
0.5
100
AcDbArc
 50
0.000000000000007
 51
90.0
  0
ARC
  5
EF7C89F55
330
EF7C85532
100
AcDbEntity
  8
JISSEN
100
AcDbCircle
 10
280.4962397140159
 20
43.52859416055252
 30
0.0
 40
0.3
100
AcDbArc
 50
357.859568
 51
90.0
  0
ARC
  5
EF7C89F56
330
EF7C85532
100
AcDbEntity
  8
JISSEN
100
AcDbCircle
 10
280.1204397140161
 20
43.57859416055259
 30
0.0
 40
0.25
100
AcDbArc
 50
358.0056319999998
 51
90.0
  0
ARC
  5
EF7C89F57
330
EF7C85532
100
AcDbEntity
  8
JISSEN
100
AcDbCircle
 10
278.1812487140161
 20
43.62859416055255
 30
0.0
 40
0.2
100
AcDbArc
 50
90.0
 51
177.8595680000001
  0
LINE
  5
EF7C89F58
330
EF7C85532
100
AcDbEntity
  8
JISSEN
100
AcDbLine
 10
278.1812487140161
 20
43.82859416055254
 30
0.0
 11
280.4962397140159
 21
43.82859416055254
 31
0.0
  0
LINE
  5
EF7C89F59
330
EF7C85532
100
AcDbEntity
  8
JISSEN
100
AcDbLine
 10
287.5568547140161
 20
43.82859416055254
 30
0.0
 11
286.8069637140159
 21
43.82859416055254
 31
0.0
  0
ARC
  5
EF7C89F5A
330
EF7C85532
100
AcDbEntity
  8
JISSEN
100
AcDbCircle
 10
286.8069637140159
 20
43.52859416055252
 30
0.0
 40
0.3
100
AcDbArc
 50
356.2556379999997
 51
90.0
  0
ARC
  5
EF7C89F5B
330
EF7C85532
100
AcDbEntity
  8
JISSEN
100
AcDbCircle
 10
285.820612714016
 20
43.62859416055255
 30
0.0
 40
0.2
100
AcDbArc
 50
90.0
 51
175.9820309999997
  0
LINE
  5
EF7C89F5C
330
EF7C85532
100
AcDbEntity
  8
JISSEN
100
AcDbLine
 10
286.8069637140159
 20
43.82859416055254
 30
0.0
 11
285.820612714016
 21
43.82859416055254
 31
0.0
  0
ARC
  5
EF7C89F5D
330
EF7C85532
100
AcDbEntity
  8
JISSEN
100
AcDbCircle
 10
291.7115967140159
 20
43.62859416055255
 30
0.0
 40
0.2
100
AcDbArc
 50
354.9610729999997
 51
90.0
  0
LINE
  5
EF7C89F5E
330
EF7C85532
100
AcDbEntity
  8
JISSEN
100
AcDbLine
 10
291.6731767140161
 20
43.82859416055254
 30
0.0
 11
292.5750237140159
 21
43.82859416055254
 31
0.0
  0
ARC
  5
EF7C89F5F
330
EF7C85532
100
AcDbEntity
  8
JISSEN
100
AcDbCircle
 10
291.6731767140161
 20
43.62859416055255
 30
0.0
 40
0.2
100
AcDbArc
 50
90.0
 51
174.7984409999998
  0
ARC
  5
EF7C89F60
330
EF7C85532
100
AcDbEntity
  8
JISSEN
100
AcDbCircle
 10
287.5568547140161
 20
43.47859416055252
 30
0.0
 40
0.35
100
AcDbArc
 50
355.9820309999998
 51
90.0
  0
LINE
  5
EF7C89F61
330
EF7C85532
100
AcDbEntity
  8
JISSEN
100
AcDbLine
 10
294.1235737140161
 20
37.88949216055255
 30
0.0
 11
294.755504714016
 21
43.76153016055252
 31
0.0
  0
LINE
  5
EF7C89F62
330
EF7C85532
100
AcDbEntity
  8
JISSEN
100
AcDbLine
 10
295.238406714016
 20
43.40803016055253
 30
0.0
 11
294.6505767140159
 21
37.94578116055254
 31
0.0
  0
LINE
  5
EF7C89F63
330
EF7C85532
100
AcDbEntity
  8
JISSEN
100
AcDbLine
 10
295.4688497140159
 20
43.82859416055254
 30
0.0
 11
294.9361553666335
 21
37.73986626001374
 31
0.0
  0
ARC
  5
EF7C89F64
330
EF7C85532
100
AcDbEntity
  8
JISSEN
100
AcDbCircle
 10
293.441863312694
 20
37.8705997963903
 30
0.0
 40
1.5
100
AcDbArc
 50
295.1820930545772
 51
355.0000029809808
  0
ARC
  5
EF7C89F65
330
EF7C85532
100
AcDbEntity
  8
JISSEN
100
AcDbCircle
 10
292.8310377140161
 20
38.02859116055254
 30
0.0
 40
1.3
100
AcDbArc
 50
294.825405
 51
353.8576429999996
  0
ARC
  5
EF7C89F66
330
EF7C85532
100
AcDbEntity
  8
JISSEN
100
AcDbCircle
 10
293.258613714016
 20
38.09558016055257
 30
0.0
 40
1.399999999999999
100
AcDbArc
 50
294.825405
 51
353.8576429999996
  0
INSERT
  5
EF7C89F67
330
EF7C85532
100
AcDbEntity
  8
SUNPOU
100
AcDbBlockReference
  2
ARROW
 10
302.6294922365672
 20
51.43506610733601
 30
0.0
 41
1.500000000000015
 42
1.5
 43
1.5
 50
131.4427143987443
  0
LINE
  5
EF7C89F68
330
EF7C85532
100
AcDbEntity
  8
JISSEN
100
AcDbLine
 10
298.5000827140161
 20
50.32859416055259
 30
0.0
 11
306.7589017591183
 21
52.54153805411954
 31
0.0
  0
LINE
  5
EF7C89F69
330
EF7C85532
100
AcDbEntity
  8
JISSEN
100
AcDbLine
 10
298.5000827140161
 20
46.32859416055254
 30
0.0
 11
298.5000827140161
 21
50.32859416055259
 31
0.0
  0
LINE
  5
EF7C89F6A
330
EF7C85532
100
AcDbEntity
  8
JISSEN
100
AcDbLine
 10
295.600082714016
 20
45.32859416055259
 30
0.0
 11
295.4688497140159
 21
43.82859416055254
 31
0.0
  0
ARC
  5
EF7C89F6B
330
EF7C85532
100
AcDbEntity
  8
JISSEN
100
AcDbCircle
 10
294.8407037140161
 20
43.45083016055252
 30
0.0
 40
0.4
100
AcDbArc
 50
353.8576429999996
 51
88.64114499999931
  0
ARC
  5
EF7C89F6C
330
EF7C85532
100
AcDbEntity
  8
JISSEN
100
AcDbCircle
 10
294.854930714016
 20
43.75083016055254
 30
0.0
 40
0.1
100
AcDbArc
 50
92.71790199999978
 51
173.8576429999997
  0
LINE
  5
EF7C89F6D
330
EF7C85532
100
AcDbEntity
  8
JISSEN
100
AcDbLine
 10
296.5000827140161
 20
45.32859416055259
 30
0.0
 11
295.600082714016
 21
45.32859416055259
 31
0.0
  0
LINE
  5
EF7C89F6E
330
EF7C85532
100
AcDbEntity
  8
JISSEN
100
AcDbLine
 10
297.5000827140161
 20
46.32859416055254
 30
0.0
 11
296.5000827140161
 21
45.32859416055259
 31
0.0
  0
CIRCLE
  5
EF7C89F6F
330
EF7C85532
100
AcDbEntity
  8
SUNPOU
100
AcDbCircle
 10
329.0289517425903
 20
21.53572137682931
 30
0.0
 40
6.0
  0
TEXT
  5
EF7C89F70
330
EF7C85532
100
AcDbEntity
  8
SUNPOU
100
AcDbText
 10
326.8860945997332
 20
19.28572137682931
 30
0.0
 40
4.5
  1
2
  7
K
 72
     4
 11
329.0289517425903
 21
21.53572137682931
 31
0.0
100
AcDbText
  0
LINE
  5
EF7C89F71
330
EF7C85532
100
AcDbEntity
  8
JISSEN
100
AcDbLine
 10
439.2500822254665
 20
32.49271183821309
 30
0.0
 11
439.2500822254665
 21
30.94271183821229
 31
0.0
1001
ACAD
1000
ASC_BOUNDS
1002
{
1070
    19
1002
}
  0
LINE
  5
EF7C89F72
330
EF7C85532
100
AcDbEntity
  8
JISSEN
100
AcDbLine
 10
440.3250822254654
 20
30.74271183821361
 30
0.0
 11
440.3250822254654
 21
21.7427118382136
 31
0.0
  0
ARC
  5
EF7C89F73
330
EF7C85532
100
AcDbEntity
  8
JISSEN
100
AcDbCircle
 10
439.4500822254665
 20
30.94271183821337
 30
0.0
 40
0.2
100
AcDbArc
 50
180.0000000000006
 51
270.0
1001
ACAD
1000
ASC_BOUNDS
1002
{
1070
    19
1002
}
  0
LINE
  5
EF7C89F74
330
EF7C85532
100
AcDbEntity
  8
JISSEN
100
AcDbLine
 10
424.5000822254653
 20
50.32859416055259
 30
0.0
 11
416.2412631803631
 21
52.54153805411954
 31
0.0
  0
LINE
  5
EF7C89F75
330
EF7C85532
100
AcDbEntity
  8
JISSEN
100
AcDbLine
 10
431.0893412254654
 20
43.61102716055256
 30
0.0
 11
431.6200952254653
 21
37.59157716055256
 31
0.0
  0
LINE
  5
EF7C89F76
330
EF7C85532
100
AcDbEntity
  8
JISSEN
100
AcDbLine
 10
430.0269202254653
 20
43.39090716055261
 30
0.0
 11
430.5526222254655
 21
37.83596116055253
 31
0.0
  0
LINE
  5
EF7C89F77
330
EF7C85532
100
AcDbEntity
  8
JISSEN
100
AcDbLine
 10
432.0942732254652
 20
37.40614416055257
 30
0.0
 11
431.5261652254653
 21
43.64672616055258
 31
0.0
  0
LINE
  5
EF7C89F78
330
EF7C85532
100
AcDbEntity
  8
JISSEN
100
AcDbLine
 10
435.4982052254654
 20
37.70203916055254
 30
0.0
 11
435.0941712254653
 21
43.45406916055253
 31
0.0
  0
LINE
  5
EF7C89F79
330
EF7C85532
100
AcDbEntity
  8
JISSEN
100
AcDbLine
 10
435.8938422254655
 20
43.50900216055253
 30
0.0
 11
436.2864852254654
 21
37.50937116055252
 31
0.0
  0
LINE
  5
EF7C89F7A
330
EF7C85532
100
AcDbEntity
  8
JISSEN
100
AcDbLine
 10
437.3790612254654
 20
43.64260816055258
 30
0.0
 11
437.8228682254652
 21
37.32434216055253
 31
0.0
  0
LINE
  5
EF7C89F7B
330
EF7C85532
100
AcDbEntity
  8
JISSEN
100
AcDbLine
 10
428.8765912254652
 20
37.88949216055255
 30
0.0
 11
428.2446602254654
 21
43.76153016055252
 31
0.0
  0
LINE
  5
EF7C89F7C
330
EF7C85532
100
AcDbEntity
  8
JISSEN
100
AcDbLine
 10
427.7617582254654
 20
43.40803016055253
 30
0.0
 11
428.3495882254653
 21
37.94578116055254
 31
0.0
  0
LINE
  5
EF7C89F7D
330
EF7C85532
100
AcDbEntity
  8
JISSEN
100
AcDbLine
 10
427.5313152254653
 20
43.82859416055254
 30
0.0
 11
428.0640095728479
 21
37.73986626001374
 31
0.0
  0
ARC
  5
EF7C89F7E
330
EF7C85532
100
AcDbEntity
  8
JISSEN
100
AcDbCircle
 10
431.8468392254653
 20
37.95844216055263
 30
0.0
 40
1.3
100
AcDbArc
 50
185.4061850000004
 51
242.2532619999987
  0
LINE
  5
EF7C89F7F
330
EF7C85532
100
AcDbEntity
  8
JISSEN
100
AcDbLine
 10
437.4708792088636
 20
32.49271183821304
 30
0.0
 11
428.9200569060215
 21
36.51315967748462
 31
0.0
1001
ACAD
1000
ASC_BOUNDS
1002
{
1070
    19
1002
}
  0
LINE
  5
EF7C89F80
330
EF7C85532
100
AcDbEntity
  8
JISSEN
100
AcDbLine
 10
429.1537552254653
 20
36.82495216055253
 30
0.0
 11
430.6206532254654
 21
36.14636016055254
 31
0.0
  0
LINE
  5
EF7C89F81
330
EF7C85532
100
AcDbEntity
  8
JISSEN
100
AcDbLine
 10
431.1351752254654
 20
36.1493311605526
 30
0.0
 11
429.6233162254655
 21
36.84872216055259
 31
0.0
  0
ARC
  5
EF7C89F82
330
EF7C85532
100
AcDbEntity
  8
JISSEN
100
AcDbCircle
 10
429.5583016267873
 20
37.87059979639036
 30
0.0
 40
1.5
100
AcDbArc
 50
184.999997019019
 51
244.8179069454226
  0
ARC
  5
EF7C89F83
330
EF7C85532
100
AcDbEntity
  8
JISSEN
100
AcDbCircle
 10
430.1691272254654
 20
38.02859116055254
 30
0.0
 40
1.3
100
AcDbArc
 50
186.1423570000002
 51
245.1745949999999
  0
ARC
  5
EF7C89F84
330
EF7C85532
100
AcDbEntity
  8
JISSEN
100
AcDbCircle
 10
429.7415512254653
 20
38.09558016055257
 30
0.0
 40
1.399999999999999
100
AcDbArc
 50
186.1423570000002
 51
245.1745949999999
  0
LINE
  5
EF7C89F85
330
EF7C85532
100
AcDbEntity
  8
JISSEN
100
AcDbLine
 10
437.9905882254654
 20
37.02602416055253
 30
0.0
 11
439.0091832254654
 21
36.30409516055255
 31
0.0
  0
LINE
  5
EF7C89F86
330
EF7C85532
100
AcDbEntity
  8
JISSEN
100
AcDbLine
 10
431.2416062254653
 20
36.80792316055255
 30
0.0
 11
432.6297052254654
 21
36.07771016055255
 31
0.0
  0
LINE
  5
EF7C89F87
330
EF7C85532
100
AcDbEntity
  8
JISSEN
100
AcDbLine
 10
433.8588072254654
 20
36.22021716055263
 30
0.0
 11
432.3594322254653
 21
37.00896716055263
 31
0.0
  0
LINE
  5
EF7C89F88
330
EF7C85532
100
AcDbEntity
  8
JISSEN
100
AcDbLine
 10
437.0044292254654
 20
36.09616316055263
 30
0.0
 11
436.0013632254654
 21
36.80708516055256
 31
0.0
  0
ARC
  5
EF7C89F89
330
EF7C85532
100
AcDbEntity
  8
JISSEN
100
AcDbCircle
 10
433.8122502254655
 20
36.13171516055263
 30
0.0
 40
0.1
100
AcDbArc
 50
270.0
 51
62.25326199999882
  0
ARC
  5
EF7C89F8A
330
EF7C85532
100
AcDbEntity
  8
JISSEN
100
AcDbCircle
 10
431.1141832254654
 20
36.10395216055252
 30
0.0
 40
0.05
100
AcDbArc
 50
270.0
 51
65.17459499999998
  0
LINE
  5
EF7C89F8B
330
EF7C85532
100
AcDbEntity
  8
JISSEN
100
AcDbLine
 10
431.0405082254654
 20
36.05395216055262
 30
0.0
 11
431.1141832254654
 21
36.05395216055262
 31
0.0
  0
ARC
  5
EF7C89F8C
330
EF7C85532
100
AcDbEntity
  8
JISSEN
100
AcDbCircle
 10
431.0405082254654
 20
37.05395216055262
 30
0.0
 40
1.0
100
AcDbArc
 50
245.1745949999999
 51
270.0
  0
ARC
  5
EF7C89F8D
330
EF7C85532
100
AcDbEntity
  8
JISSEN
100
AcDbCircle
 10
432.8159312254654
 20
36.43171516055258
 30
0.0
 40
0.4
100
AcDbArc
 50
242.2532619999987
 51
270.0
  0
LINE
  5
EF7C89F8E
330
EF7C85532
100
AcDbEntity
  8
JISSEN
100
AcDbLine
 10
432.8159312254654
 20
36.0317151605526
 30
0.0
 11
433.8122502254655
 21
36.0317151605526
 31
0.0
  0
LINE
  5
EF7C89F8F
330
EF7C85532
100
AcDbEntity
  8
JISSEN
100
AcDbLine
 10
438.9224472254654
 20
36.0317151605526
 30
0.0
 11
437.2068142254654
 21
36.0317151605526
 31
0.0
  0
ARC
  5
EF7C89F90
330
EF7C85532
100
AcDbEntity
  8
JISSEN
100
AcDbCircle
 10
437.2068142254654
 20
36.38171516055263
 30
0.0
 40
0.35
100
AcDbArc
 50
234.6729320000021
 51
270.0
  0
ARC
  5
EF7C89F91
330
EF7C85532
100
AcDbEntity
  8
JISSEN
100
AcDbCircle
 10
438.9224472254654
 20
36.18171516055253
 30
0.0
 40
0.15
100
AcDbArc
 50
270.0
 51
54.67293200000212
  0
ARC
  5
EF7C89F92
330
EF7C85532
100
AcDbEntity
  8
JISSEN
100
AcDbCircle
 10
436.6952552254652
 20
37.78612216055262
 30
0.0
 40
1.199999999999999
100
AcDbArc
 50
184.0179690000001
 51
234.6729320000021
  0
ARC
  5
EF7C89F93
330
EF7C85532
100
AcDbEntity
  8
JISSEN
100
AcDbCircle
 10
432.1181632254654
 20
37.63549316055264
 30
0.0
 40
0.5
100
AcDbArc
 50
185.038927
 51
279.3495549999982
  0
ARC
  5
EF7C89F94
330
EF7C85532
100
AcDbEntity
  8
JISSEN
100
AcDbCircle
 10
432.5922142254653
 20
37.4514741605526
 30
0.0
 40
0.5
100
AcDbArc
 50
185.201559
 51
242.2532619999987
  0
ARC
  5
EF7C89F95
330
EF7C85532
100
AcDbEntity
  8
JISSEN
100
AcDbCircle
 10
438.2218852254655
 20
37.35237016055254
 30
0.0
 40
0.4
100
AcDbArc
 50
184.0179690000001
 51
234.6729320000021
  0
ARC
  5
EF7C89F96
330
EF7C85532
100
AcDbEntity
  8
JISSEN
100
AcDbCircle
 10
436.6856312254653
 20
37.53549316055261
 30
0.0
 40
0.4
100
AcDbArc
 50
183.7443620000002
 51
270.0
  0
LINE
  5
EF7C89F97
330
EF7C85532
100
AcDbEntity
  8
JISSEN
100
AcDbLine
 10
436.6856312254653
 20
37.13549316055264
 30
0.0
 11
437.8857832254655
 21
37.13549316055264
 31
0.0
  0
LINE
  5
EF7C89F98
330
EF7C85532
100
AcDbEntity
  8
JISSEN
100
AcDbLine
 10
431.3269882254653
 20
43.82859416055254
 30
0.0
 11
430.4251412254655
 21
43.82859416055254
 31
0.0
  0
LINE
  5
EF7C89F99
330
EF7C85532
100
AcDbEntity
  8
JISSEN
100
AcDbLine
 10
424.5000822254653
 20
46.32859416055254
 30
0.0
 11
424.5000822254653
 21
50.32859416055259
 31
0.0
  0
ARC
  5
EF7C89F9A
330
EF7C85532
100
AcDbEntity
  8
JISSEN
100
AcDbCircle
 10
430.4251412254655
 20
43.42859416055262
 30
0.0
 40
0.4
100
AcDbArc
 50
90.0
 51
185.4061850000004
  0
LINE
  5
EF7C89F9B
330
EF7C85532
100
AcDbEntity
  8
JISSEN
100
AcDbLine
 10
427.4000822254654
 20
45.32859416055259
 30
0.0
 11
427.5313152254653
 21
43.82859416055254
 31
0.0
  0
ARC
  5
EF7C89F9C
330
EF7C85532
100
AcDbEntity
  8
JISSEN
100
AcDbCircle
 10
428.1594612254653
 20
43.45083016055252
 30
0.0
 40
0.4
100
AcDbArc
 50
91.35885500000068
 51
186.1423570000002
  0
ARC
  5
EF7C89F9D
330
EF7C85532
100
AcDbEntity
  8
JISSEN
100
AcDbCircle
 10
428.1452342254653
 20
43.75083016055254
 30
0.0
 40
0.1
100
AcDbArc
 50
6.142357000000295
 51
87.28209800000021
  0
LINE
  5
EF7C89F9E
330
EF7C85532
100
AcDbEntity
  8
JISSEN
100
AcDbLine
 10
426.5000822254653
 20
45.32859416055259
 30
0.0
 11
427.4000822254654
 21
45.32859416055259
 31
0.0
  0
LINE
  5
EF7C89F9F
330
EF7C85532
100
AcDbEntity
  8
JISSEN
100
AcDbLine
 10
425.5000822254653
 20
46.32859416055254
 30
0.0
 11
426.5000822254653
 21
45.32859416055259
 31
0.0
  0
LINE
  5
EF7C89FA0
330
EF7C85532
100
AcDbEntity
  8
JISSEN
100
AcDbLine
 10
435.4433102254654
 20
43.82859416055254
 30
0.0
 11
436.1932012254653
 21
43.82859416055254
 31
0.0
  0
ARC
  5
EF7C89FA1
330
EF7C85532
100
AcDbEntity
  8
JISSEN
100
AcDbCircle
 10
436.1932012254653
 20
43.52859416055252
 30
0.0
 40
0.3
100
AcDbArc
 50
90.0
 51
183.7443620000002
  0
ARC
  5
EF7C89FA2
330
EF7C85532
100
AcDbEntity
  8
JISSEN
100
AcDbCircle
 10
435.4433102254654
 20
43.47859416055252
 30
0.0
 40
0.35
100
AcDbArc
 50
90.0
 51
184.0179690000001
  0
ARC
  5
EF7C89FA3
330
EF7C85532
100
AcDbEntity
  8
JISSEN
100
AcDbCircle
 10
431.2885682254655
 20
43.62859416055255
 30
0.0
 40
0.2
100
AcDbArc
 50
90.0
 51
185.038927
  0
ARC
  5
EF7C89FA4
330
EF7C85532
100
AcDbEntity
  8
JISSEN
100
AcDbCircle
 10
431.3269882254653
 20
43.62859416055255
 30
0.0
 40
0.2
100
AcDbArc
 50
5.201558999999984
 51
90.0
  0
ARC
  5
EF7C89FA5
330
EF7C85532
100
AcDbEntity
  8
JISSEN
100
AcDbCircle
 10
437.1795522254654
 20
43.62859416055255
 30
0.0
 40
0.2
100
AcDbArc
 50
4.017969000000171
 51
90.0
  0
LINE
  5
EF7C89FA6
330
EF7C85532
100
AcDbEntity
  8
JISSEN
100
AcDbLine
 10
436.1932012254653
 20
43.82859416055254
 30
0.0
 11
437.1795522254654
 21
43.82859416055254
 31
0.0
  0
LINE
  5
EF7C89FA7
330
EF7C85532
100
AcDbEntity
  8
JISSEN
100
AcDbLine
 10
281.5975886309648
 20
53.8285941605526
 30
0.0
 11
336.2759052316955
 21
53.8285941605526
 31
0.0
  0
LINE
  5
EF7C89FA8
330
EF7C85532
100
AcDbEntity
  8
JISSEN
100
AcDbLine
 10
339.7336682651255
 20
58.8285941605526
 30
0.0
 11
281.5350854510284
 21
58.82859416055254
 31
0.0
  0
LINE
  5
EF7C89FA9
330
EF7C85532
100
AcDbEntity
  8
JISSEN
100
AcDbLine
 10
281.1652274353808
 20
70.66344851588315
 30
0.0
 11
281.658801714016
 21
54.86987516055262
 31
0.0
  0
LINE
  5
EF7C89FAA
330
EF7C85532
100
AcDbEntity
  8
SAISEN
100
AcDbLine
 10
280.4593157140159
 20
56.06936116055255
 30
0.0
 11
279.9668158672827
 21
71.82859416055624
 31
0.0
  0
LINE
  5
EF7C89FAB
330
EF7C85532
100
AcDbEntity
  8
JISSEN
100
AcDbLine
 10
282.7000827140161
 20
53.8285941605526
 30
0.0
 11
281.658801714016
 21
54.86987516055262
 31
0.0
  0
LINE
  5
EF7C89FAC
330
EF7C85532
100
AcDbEntity
  8
JISSEN
100
AcDbLine
 10
282.7000827140161
 20
53.8285941605526
 30
0.0
 11
281.658801714016
 21
54.86987516055262
 31
0.0
  0
LINE
  5
EF7C89FAD
330
EF7C85532
100
AcDbEntity
  8
SAISEN
100
AcDbLine
 10
281.658801714016
 20
54.86987516055262
 30
0.0
 11
280.4593157140159
 21
56.06936116055255
 31
0.0
  0
LINE
  5
EF7C89FAE
330
EF7C85532
100
AcDbEntity
  8
JISSEN
100
AcDbLine
 10
288.500082714016
 20
58.8285941605526
 30
0.0
 11
288.500082714016
 21
53.8285941605526
 31
0.0
  0
LINE
  5
EF7C89FAF
330
EF7C85532
100
AcDbEntity
  8
JISSEN
100
AcDbLine
 10
281.262006714016
 20
70.56666916055622
 30
0.0
 11
280.0000827140161
 21
71.82859416055624
 31
0.0
  0
LINE
  5
EF7C89FB0
330
EF7C85532
100
AcDbEntity
  8
JISSEN
100
AcDbLine
 10
307.5000827140161
 20
53.50746388040864
 30
0.0
 11
307.5000827140161
 21
53.8285941605526
 31
0.0
  0
LWPOLYLINE
  5
EF7C89FB1
330
EF7C85532
100
AcDbEntity
  8
HATCH
100
AcDbPolyline
 90
       13
 70
     0
 43
0.0
 10
339.7336682651255
 20
58.8285941605526
 10
339.5690810868756
 20
58.00895708232054
 10
339.4271757301951
 20
57.49233910555624
 10
339.1994670930473
 20
57.07391281886845
 10
338.8915796063881
 20
56.73579579520151
 10
338.5253563174086
 20
56.44554472255141
 10
338.1226402732997
 20
56.17071628891391
 10
337.7052745212529
 20
55.87886718228492
 10
337.2951021084592
 20
55.53755409066019
 10
336.9139660821094
 20
55.11433370203581
 10
336.5837094893949
 20
54.57676270440754
 10
336.3091294261921
 20
53.91314391712007
 10
336.2759052316955
 20
53.8285941605526
  0
LWPOLYLINE
  5
EF7C89FB2
330
EF7C85532
100
AcDbEntity
  8
HATCH
100
AcDbPolyline
 90
       13
 70
     0
 43
0.0
 10
383.2663297983239
 20
58.82859416055257
 10
383.4309169765738
 20
58.00895708232051
 10
383.5728223332543
 20
57.49233910555624
 10
383.8005309704019
 20
57.07391281886842
 10
384.1084184570613
 20
56.73579579520147
 10
384.4746417460409
 20
56.44554472255137
 10
384.8773577901496
 20
56.17071628891388
 10
385.2947235421964
 20
55.87886718228489
 10
385.7048959549903
 20
55.53755409066017
 10
386.08603198134
 20
55.1143337020358
 10
386.4162885740544
 20
54.57676270440751
 10
386.6908686372571
 20
53.91314391712004
 10
386.7240928317538
 20
53.82859416055257
  0
LINE
  5
EF7C89FB3
330
EF7C85532
100
AcDbEntity
  8
JISSEN
100
AcDbLine
 10
415.5000822254653
 20
53.50746388040864
 30
0.0
 11
415.5000822254653
 21
53.8285941605526
 31
0.0
  0
LINE
  5
EF7C89FB4
330
EF7C85532
100
AcDbEntity
  8
JISSEN
100
AcDbLine
 10
434.5000822254653
 20
58.8285941605526
 30
0.0
 11
434.5000822254653
 21
53.8285941605526
 31
0.0
  0
ARC
  5
EF7C89FB5
330
EF7C85532
100
AcDbEntity
  8
JISSEN
100
AcDbCircle
 10
487.5000822254653
 20
53.50746388040864
 30
0.0
 40
1.0
100
AcDbArc
 50
284.9999999999809
 51
0.000000000000007
  0
TEXT
  5
EF7C89FB6
330
EF7C85532
100
AcDbEntity
  8
SUNPOU
100
AcDbText
 10
475.2071092601429
 20
6.665259596075088
 30
0.0
 40
3.0
  1
MFQR   シーリングプレート作動状態
  7
K
100
AcDbText
  0
TEXT
  5
EF7C89FB9
330
EF7C85532
100
AcDbEntity
  8
SUNPOU
100
AcDbText
 10
475.2071092601429
 20
1.665259596075088
 30
0.0
 40
3.0
  1
尺度　1/1
  7
K
100
AcDbText
  0
LINE
  5
EF7C89FBB
330
EF7C85532
100
AcDbEntity
  8
SUNPOU
100
AcDbLine
 10
470.7919865466861
 20
34.4969598090683
 30
0.0
 11
485.053016702556
 21
24.88834353558087
 31
0.0
  0
LINE
  5
EF7C89FBC
330
EF7C85532
100
AcDbEntity
  8
JISSEN
100
AcDbLine
 10
479.5000822254653
 20
50.32859416055259
 30
0.0
 11
487.7589012705676
 21
52.54153805411954
 31
0.0
  0
LINE
  5
EF7C89FBD
330
EF7C85532
100
AcDbEntity
  8
JISSEN
100
AcDbLine
 10
464.7500822254665
 20
32.49271183821309
 30
0.0
 11
464.7500822254665
 21
30.94271183821229
 31
0.0
1001
ACAD
1000
ASC_BOUNDS
1002
{
1070
    19
1002
}
  0
LINE
  5
EF7C89FBE
330
EF7C85532
100
AcDbEntity
  8
JISSEN
100
AcDbLine
 10
459.5000822254653
 20
21.74271183821355
 30
0.0
 11
463.6750822254655
 21
21.7427118382136
 31
0.0
  0
LINE
  5
EF7C89FBF
330
EF7C85532
100
AcDbEntity
  8
JISSEN
100
AcDbLine
 10
452.0000822254664
 20
30.74271183821304
 30
0.0
 11
464.5500822254667
 21
30.74271183821361
 31
0.0
1001
ACAD
1000
ASC_BOUNDS
1002
{
1070
    19
1002
}
  0
LINE
  5
EF7C89FC0
330
EF7C85532
100
AcDbEntity
  8
JISSEN
100
AcDbLine
 10
445.538543763927
 20
30.74271183821338
 30
0.0
 11
444.5000822254653
 21
21.7427118382136
 31
0.0
  0
LINE
  5
EF7C89FC1
330
EF7C85532
100
AcDbEntity
  8
JISSEN
100
AcDbLine
 10
458.4616206870037
 20
30.74271183821338
 30
0.0
 11
459.5000822254653
 21
21.7427118382136
 31
0.0
  0
LINE
  5
EF7C89FC2
330
EF7C85532
100
AcDbEntity
  8
JISSEN
100
AcDbLine
 10
463.6750822254655
 20
30.74271183821361
 30
0.0
 11
463.6750822254655
 21
21.7427118382136
 31
0.0
  0
ARC
  5
EF7C89FC3
330
EF7C85532
100
AcDbEntity
  8
JISSEN
100
AcDbCircle
 10
464.5500822254667
 20
30.94271183821337
 30
0.0
 40
0.2
100
AcDbArc
 50
270.0
 51
359.9999999999991
1001
ACAD
1000
ASC_BOUNDS
1002
{
1070
    19
1002
}
  0
LINE
  5
EF7C89FC4
330
EF7C85532
100
AcDbEntity
  8
JISSEN
100
AcDbLine
 10
452.0000822254655
 20
32.49271183821326
 30
0.0
 11
466.529285242067
 21
32.49271183821304
 31
0.0
1001
ACAD
1000
ASC_BOUNDS
1002
{
1070
    19
1002
}
  0
LINE
  5
EF7C89FC5
330
EF7C85532
100
AcDbEntity
  8
JISSEN
100
AcDbLine
 10
477.5000822254653
 20
45.32859416055259
 30
0.0
 11
452.0000822254655
 21
45.32859416055259
 31
0.0
  0
LINE
  5
EF7C89FC6
330
EF7C85532
100
AcDbEntity
  8
JISSEN
100
AcDbLine
 10
478.5000822254653
 20
46.32859416055254
 30
0.0
 11
453.0000822254653
 21
46.32859416055254
 31
0.0
  0
LINE
  5
EF7C89FC7
330
EF7C85532
100
AcDbEntity
  8
JISSEN
100
AcDbLine
 10
458.7419352254653
 20
37.22931816055256
 30
0.0
 11
458.9813872254653
 21
43.63606416055262
 31
0.0
  0
LINE
  5
EF7C89FC8
330
EF7C85532
100
AcDbEntity
  8
JISSEN
100
AcDbLine
 10
461.3702872254653
 20
43.56989316055262
 30
0.0
 11
461.1563092254653
 21
37.42505316055252
 31
0.0
  0
LINE
  5
EF7C89FC9
330
EF7C85532
100
AcDbEntity
  8
JISSEN
100
AcDbLine
 10
461.7960292254654
 20
43.51738916055262
 30
0.0
 11
461.5691952254653
 21
37.44824116055258
 31
0.0
  0
LINE
  5
EF7C89FCA
330
EF7C85532
100
AcDbEntity
  8
JISSEN
100
AcDbLine
 10
453.5000822254653
 20
43.32859416055254
 30
0.0
 11
453.5000822254653
 21
36.53171516055261
 31
0.0
  0
LINE
  5
EF7C89FCB
330
EF7C85532
100
AcDbEntity
  8
JISSEN
100
AcDbLine
 10
445.2582292254653
 20
37.22931816055256
 30
0.0
 11
445.0187772254653
 21
43.63606416055262
 31
0.0
  0
LINE
  5
EF7C89FCC
330
EF7C85532
100
AcDbEntity
  8
JISSEN
100
AcDbLine
 10
450.5000822254653
 20
43.32859416055254
 30
0.0
 11
450.5000822254653
 21
36.53171516055261
 31
0.0
  0
LINE
  5
EF7C89FCD
330
EF7C85532
100
AcDbEntity
  8
JISSEN
100
AcDbLine
 10
442.2041352254654
 20
43.51738916055262
 30
0.0
 11
442.4309692254653
 21
37.44824116055258
 31
0.0
  0
LINE
  5
EF7C89FCE
330
EF7C85532
100
AcDbEntity
  8
JISSEN
100
AcDbLine
 10
442.6298772254654
 20
43.56989316055262
 30
0.0
 11
442.8438552254654
 21
37.42505316055252
 31
0.0
  0
LINE
  5
EF7C89FCF
330
EF7C85532
100
AcDbEntity
  8
JISSEN
100
AcDbLine
 10
452.0000822254655
 20
36.0317151605526
 30
0.0
 11
451.0000822254653
 21
36.0317151605526
 31
0.0
  0
LINE
  5
EF7C89FD0
330
EF7C85532
100
AcDbEntity
  8
JISSEN
100
AcDbLine
 10
451.0000822254653
 20
37.13549316055264
 30
0.0
 11
452.0000822254655
 21
37.13549316055264
 31
0.0
  0
LINE
  5
EF7C89FD1
330
EF7C85532
100
AcDbEntity
  8
JISSEN
100
AcDbLine
 10
445.8500952254653
 20
36.35179216055258
 30
0.0
 11
445.3181052254653
 21
37.06040816055252
 31
0.0
  0
ARC
  5
EF7C89FD2
330
EF7C85532
100
AcDbEntity
  8
JISSEN
100
AcDbCircle
 10
451.0000822254653
 20
36.53171516055261
 30
0.0
 40
0.5
100
AcDbArc
 50
180.0
 51
270.0
  0
LINE
  5
EF7C89FD3
330
EF7C85532
100
AcDbEntity
  8
JISSEN
100
AcDbLine
 10
442.6305572254655
 20
36.88520916055256
 30
0.0
 11
443.1813082254655
 21
36.15160116055261
 31
0.0
  0
ARC
  5
EF7C89FD4
330
EF7C85532
100
AcDbEntity
  8
JISSEN
100
AcDbCircle
 10
445.6901522254654
 20
36.23171516055254
 30
0.0
 40
0.2
100
AcDbArc
 50
270.0
 51
36.8971619999989
  0
ARC
  5
EF7C89FD5
330
EF7C85532
100
AcDbEntity
  8
JISSEN
100
AcDbCircle
 10
443.4212232254654
 20
36.33171516055256
 30
0.0
 40
0.3
100
AcDbArc
 50
216.8971619999989
 51
270.0
  0
LINE
  5
EF7C89FD6
330
EF7C85532
100
AcDbEntity
  8
JISSEN
100
AcDbLine
 10
443.4212232254654
 20
36.0317151605526
 30
0.0
 11
445.6901522254654
 21
36.0317151605526
 31
0.0
  0
ARC
  5
EF7C89FD7
330
EF7C85532
100
AcDbEntity
  8
JISSEN
100
AcDbCircle
 10
445.5580202254655
 20
37.24052216055253
 30
0.0
 40
0.3
100
AcDbArc
 50
182.1404319999997
 51
216.8971619999989
  0
ARC
  5
EF7C89FD8
330
EF7C85532
100
AcDbEntity
  8
JISSEN
100
AcDbCircle
 10
443.4302712254653
 20
37.48559016055253
 30
0.0
 40
1.0
100
AcDbArc
 50
182.1404319999997
 51
216.8971619999989
  0
ARC
  5
EF7C89FD9
330
EF7C85532
100
AcDbEntity
  8
JISSEN
100
AcDbCircle
 10
443.1436732254653
 20
37.43549316055254
 30
0.0
 40
0.3
100
AcDbArc
 50
181.994368
 51
270.0
  0
LINE
  5
EF7C89FDA
330
EF7C85532
100
AcDbEntity
  8
JISSEN
100
AcDbLine
 10
443.1436732254653
 20
37.13549316055264
 30
0.0
 11
445.2770062254653
 21
37.13549316055264
 31
0.0
  0
ARC
  5
EF7C89FDB
330
EF7C85532
100
AcDbEntity
  8
JISSEN
100
AcDbCircle
 10
451.0000822254653
 20
37.63549316055264
 30
0.0
 40
0.5
100
AcDbArc
 50
180.0
 51
270.0
  0
LINE
  5
EF7C89FDC
330
EF7C85532
100
AcDbEntity
  8
JISSEN
100
AcDbLine
 10
458.1500692254653
 20
36.35179216055258
 30
0.0
 11
458.6820592254652
 21
37.06040816055252
 31
0.0
  0
LINE
  5
EF7C89FDD
330
EF7C85532
100
AcDbEntity
  8
JISSEN
100
AcDbLine
 10
461.3696072254652
 20
36.88520916055256
 30
0.0
 11
460.8188562254654
 21
36.15160116055261
 31
0.0
  0
ARC
  5
EF7C89FDE
330
EF7C85532
100
AcDbEntity
  8
JISSEN
100
AcDbCircle
 10
453.0000822254653
 20
36.53171516055261
 30
0.0
 40
0.5
100
AcDbArc
 50
270.0
 51
0.000000000000007
  0
LINE
  5
EF7C89FDF
330
EF7C85532
100
AcDbEntity
  8
JISSEN
100
AcDbLine
 10
452.0000822254655
 20
36.0317151605526
 30
0.0
 11
453.0000822254653
 21
36.0317151605526
 31
0.0
  0
LINE
  5
EF7C89FE0
330
EF7C85532
100
AcDbEntity
  8
JISSEN
100
AcDbLine
 10
460.5789412254653
 20
36.0317151605526
 30
0.0
 11
458.3100122254655
 21
36.0317151605526
 31
0.0
  0
ARC
  5
EF7C89FE1
330
EF7C85532
100
AcDbEntity
  8
JISSEN
100
AcDbCircle
 10
460.5789412254653
 20
36.33171516055256
 30
0.0
 40
0.3
100
AcDbArc
 50
270.0
 51
323.1028380000011
  0
ARC
  5
EF7C89FE2
330
EF7C85532
100
AcDbEntity
  8
JISSEN
100
AcDbCircle
 10
458.3100122254655
 20
36.23171516055254
 30
0.0
 40
0.2
100
AcDbArc
 50
143.102838000001
 51
270.0
  0
LINE
  5
EF7C89FE3
330
EF7C85532
100
AcDbEntity
  8
JISSEN
100
AcDbLine
 10
453.0000822254653
 20
37.13549316055264
 30
0.0
 11
452.0000822254655
 21
37.13549316055264
 31
0.0
  0
ARC
  5
EF7C89FE4
330
EF7C85532
100
AcDbEntity
  8
JISSEN
100
AcDbCircle
 10
453.0000822254653
 20
37.63549316055264
 30
0.0
 40
0.5
100
AcDbArc
 50
270.0
 51
0.000000000000007
  0
LINE
  5
EF7C89FE5
330
EF7C85532
100
AcDbEntity
  8
JISSEN
100
AcDbLine
 10
460.8564912254653
 20
37.13549316055264
 30
0.0
 11
458.7231582254653
 21
37.13549316055264
 31
0.0
  0
ARC
  5
EF7C89FE6
330
EF7C85532
100
AcDbEntity
  8
JISSEN
100
AcDbCircle
 10
458.4421442254654
 20
37.24052216055253
 30
0.0
 40
0.3
100
AcDbArc
 50
323.1028380000011
 51
357.859568
  0
ARC
  5
EF7C89FE7
330
EF7C85532
100
AcDbEntity
  8
JISSEN
100
AcDbCircle
 10
460.8564912254653
 20
37.43549316055254
 30
0.0
 40
0.3
100
AcDbArc
 50
270.0
 51
358.0056319999998
  0
ARC
  5
EF7C89FE8
330
EF7C85532
100
AcDbEntity
  8
JISSEN
100
AcDbCircle
 10
460.5698932254654
 20
37.48559016055253
 30
0.0
 40
1.0
100
AcDbArc
 50
323.1028380000011
 51
357.859568
  0
ARC
  5
EF7C89FE9
330
EF7C85532
100
AcDbEntity
  8
JISSEN
100
AcDbCircle
 10
452.0000822254655
 20
46.32859416055254
 30
0.0
 40
1.0
100
AcDbArc
 50
180.0
 51
270.0
  0
LINE
  5
EF7C89FEA
330
EF7C85532
100
AcDbEntity
  8
JISSEN
100
AcDbLine
 10
452.0000822254655
 20
43.82859416055254
 30
0.0
 11
451.0000822254653
 21
43.82859416055254
 31
0.0
  0
ARC
  5
EF7C89FEB
330
EF7C85532
100
AcDbEntity
  8
JISSEN
100
AcDbCircle
 10
444.8189162254655
 20
43.62859416055255
 30
0.0
 40
0.2
100
AcDbArc
 50
2.140431999999805
 51
90.0
  0
ARC
  5
EF7C89FEC
330
EF7C85532
100
AcDbEntity
  8
JISSEN
100
AcDbCircle
 10
442.5039252254653
 20
43.52859416055252
 30
0.0
 40
0.3
100
AcDbArc
 50
90.0
 51
182.1404319999997
  0
ARC
  5
EF7C89FED
330
EF7C85532
100
AcDbEntity
  8
JISSEN
100
AcDbCircle
 10
442.8797252254653
 20
43.57859416055259
 30
0.0
 40
0.25
100
AcDbArc
 50
90.0
 51
181.994368
  0
LINE
  5
EF7C89FEE
330
EF7C85532
100
AcDbEntity
  8
JISSEN
100
AcDbLine
 10
444.8189162254655
 20
43.82859416055254
 30
0.0
 11
442.5039252254653
 21
43.82859416055254
 31
0.0
  0
ARC
  5
EF7C89FEF
330
EF7C85532
100
AcDbEntity
  8
JISSEN
100
AcDbCircle
 10
451.0000822254653
 20
43.32859416055254
 30
0.0
 40
0.5
100
AcDbArc
 50
90.0
 51
180.0
  0
ARC
  5
EF7C89FF0
330
EF7C85532
100
AcDbEntity
  8
JISSEN
100
AcDbCircle
 10
452.0000822254655
 20
46.32859416055254
 30
0.0
 40
1.0
100
AcDbArc
 50
270.0
 51
0.000000000000007
  0
LINE
  5
EF7C89FF1
330
EF7C85532
100
AcDbEntity
  8
JISSEN
100
AcDbLine
 10
452.0000822254655
 20
43.82859416055254
 30
0.0
 11
453.0000822254653
 21
43.82859416055254
 31
0.0
  0
ARC
  5
EF7C89FF2
330
EF7C85532
100
AcDbEntity
  8
JISSEN
100
AcDbCircle
 10
453.0000822254653
 20
43.32859416055254
 30
0.0
 40
0.5
100
AcDbArc
 50
0.000000000000007
 51
90.0
  0
LINE
  5
EF7C89FF3
330
EF7C85532
100
AcDbEntity
  8
JISSEN
100
AcDbLine
 10
459.1812482254653
 20
43.82859416055254
 30
0.0
 11
461.4962392254653
 21
43.82859416055254
 31
0.0
  0
ARC
  5
EF7C89FF4
330
EF7C85532
100
AcDbEntity
  8
JISSEN
100
AcDbCircle
 10
459.1812482254653
 20
43.62859416055255
 30
0.0
 40
0.2
100
AcDbArc
 50
90.0
 51
177.8595680000001
  0
ARC
  5
EF7C89FF5
330
EF7C85532
100
AcDbEntity
  8
JISSEN
100
AcDbCircle
 10
461.1204392254653
 20
43.57859416055259
 30
0.0
 40
0.25
100
AcDbArc
 50
358.0056319999998
 51
90.0
  0
ARC
  5
EF7C89FF6
330
EF7C85532
100
AcDbEntity
  8
JISSEN
100
AcDbCircle
 10
461.4962392254653
 20
43.52859416055252
 30
0.0
 40
0.3
100
AcDbArc
 50
357.859568
 51
90.0
  0
LINE
  5
EF7C89FF7
330
EF7C85532
100
AcDbEntity
  8
JISSEN
100
AcDbLine
 10
473.9732442254653
 20
43.39090716055261
 30
0.0
 11
473.4475422254654
 21
37.83596116055253
 31
0.0
  0
LINE
  5
EF7C89FF8
330
EF7C85532
100
AcDbEntity
  8
JISSEN
100
AcDbLine
 10
472.9108232254652
 20
43.61102716055256
 30
0.0
 11
472.3800692254654
 21
37.59157716055256
 31
0.0
  0
LINE
  5
EF7C89FF9
330
EF7C85532
100
AcDbEntity
  8
JISSEN
100
AcDbLine
 10
476.4688492254654
 20
43.82859416055254
 30
0.0
 11
475.9361548780828
 21
37.73986626001374
 31
0.0
  0
LINE
  5
EF7C89FFA
330
EF7C85532
100
AcDbEntity
  8
JISSEN
100
AcDbLine
 10
476.2384062254652
 20
43.40803016055253
 30
0.0
 11
475.6505762254653
 21
37.94578116055254
 31
0.0
  0
LINE
  5
EF7C89FFB
330
EF7C85532
100
AcDbEntity
  8
JISSEN
100
AcDbLine
 10
475.1235732254654
 20
37.88949216055255
 30
0.0
 11
475.7555042254653
 21
43.76153016055252
 31
0.0
  0
LINE
  5
EF7C89FFC
330
EF7C85532
100
AcDbEntity
  8
JISSEN
100
AcDbLine
 10
466.6211032254652
 20
43.64260816055258
 30
0.0
 11
466.1772962254653
 21
37.32434216055253
 31
0.0
  0
LINE
  5
EF7C89FFD
330
EF7C85532
100
AcDbEntity
  8
JISSEN
100
AcDbLine
 10
468.1063222254654
 20
43.50900216055253
 30
0.0
 11
467.7136792254652
 21
37.50937116055252
 31
0.0
  0
LINE
  5
EF7C89FFE
330
EF7C85532
100
AcDbEntity
  8
JISSEN
100
AcDbLine
 10
468.5019592254652
 20
37.70203916055254
 30
0.0
 11
468.9059932254654
 21
43.45406916055253
 31
0.0
  0
LINE
  5
EF7C89FFF
330
EF7C85532
100
AcDbEntity
  8
JISSEN
100
AcDbLine
 10
471.9058912254654
 20
37.40614416055257
 30
0.0
 11
472.4739992254654
 21
43.64672616055258
 31
0.0
  0
ARC
  5
EF7C8A000
330
EF7C85532
100
AcDbEntity
  8
JISSEN
100
AcDbCircle
 10
472.1533252254653
 20
37.95844216055263
 30
0.0
 40
1.3
100
AcDbArc
 50
297.7467380000011
 51
354.5938149999994
  0
ARC
  5
EF7C8A001
330
EF7C85532
100
AcDbEntity
  8
JISSEN
100
AcDbCircle
 10
472.9596562254653
 20
37.05395216055262
 30
0.0
 40
1.0
100
AcDbArc
 50
270.0
 51
294.825405
  0
LINE
  5
EF7C8A002
330
EF7C85532
100
AcDbEntity
  8
JISSEN
100
AcDbLine
 10
472.8649892254652
 20
36.1493311605526
 30
0.0
 11
474.3768482254654
 21
36.84872216055259
 31
0.0
  0
LINE
  5
EF7C8A003
330
EF7C85532
100
AcDbEntity
  8
JISSEN
100
AcDbLine
 10
466.529285242067
 20
32.49271183821304
 30
0.0
 11
475.0801075449092
 21
36.51315967748462
 31
0.0
1001
ACAD
1000
ASC_BOUNDS
1002
{
1070
    19
1002
}
  0
LINE
  5
EF7C8A004
330
EF7C85532
100
AcDbEntity
  8
JISSEN
100
AcDbLine
 10
466.9957352254654
 20
36.09616316055263
 30
0.0
 11
467.9988012254653
 21
36.80708516055256
 31
0.0
  0
LINE
  5
EF7C8A005
330
EF7C85532
100
AcDbEntity
  8
JISSEN
100
AcDbLine
 10
470.1413572254653
 20
36.22021716055263
 30
0.0
 11
471.6407322254654
 21
37.00896716055263
 31
0.0
  0
LINE
  5
EF7C8A006
330
EF7C85532
100
AcDbEntity
  8
JISSEN
100
AcDbLine
 10
466.0095762254655
 20
37.02602416055253
 30
0.0
 11
464.9909812254654
 21
36.30409516055255
 31
0.0
  0
LINE
  5
EF7C8A007
330
EF7C85532
100
AcDbEntity
  8
JISSEN
100
AcDbLine
 10
472.7585582254653
 20
36.80792316055255
 30
0.0
 11
471.3704592254653
 21
36.07771016055255
 31
0.0
  0
ARC
  5
EF7C8A008
330
EF7C85532
100
AcDbEntity
  8
JISSEN
100
AcDbCircle
 10
466.7933502254654
 20
36.38171516055263
 30
0.0
 40
0.35
100
AcDbArc
 50
270.0
 51
305.3270679999978
  0
ARC
  5
EF7C8A009
330
EF7C85532
100
AcDbEntity
  8
JISSEN
100
AcDbCircle
 10
465.0777172254654
 20
36.18171516055253
 30
0.0
 40
0.15
100
AcDbArc
 50
125.3270679999978
 51
270.0
  0
LINE
  5
EF7C8A00A
330
EF7C85532
100
AcDbEntity
  8
JISSEN
100
AcDbLine
 10
465.0777172254654
 20
36.0317151605526
 30
0.0
 11
466.7933502254654
 21
36.0317151605526
 31
0.0
  0
LINE
  5
EF7C8A00B
330
EF7C85532
100
AcDbEntity
  8
JISSEN
100
AcDbLine
 10
472.9596562254653
 20
36.05395216055262
 30
0.0
 11
472.8859812254654
 21
36.05395216055262
 31
0.0
  0
ARC
  5
EF7C8A00C
330
EF7C85532
100
AcDbEntity
  8
JISSEN
100
AcDbCircle
 10
472.8859812254654
 20
36.10395216055252
 30
0.0
 40
0.05
100
AcDbArc
 50
114.825405
 51
270.0
  0
ARC
  5
EF7C8A00D
330
EF7C85532
100
AcDbEntity
  8
JISSEN
100
AcDbCircle
 10
470.1879142254654
 20
36.13171516055263
 30
0.0
 40
0.1
100
AcDbArc
 50
117.7467380000011
 51
270.0
  0
ARC
  5
EF7C8A00E
330
EF7C85532
100
AcDbEntity
  8
JISSEN
100
AcDbCircle
 10
471.1842332254652
 20
36.43171516055258
 30
0.0
 40
0.4
100
AcDbArc
 50
270.0
 51
297.7467380000011
  0
LINE
  5
EF7C8A00F
330
EF7C85532
100
AcDbEntity
  8
JISSEN
100
AcDbLine
 10
471.1842332254652
 20
36.0317151605526
 30
0.0
 11
470.1879142254654
 21
36.0317151605526
 31
0.0
  0
INSERT
  5
EF7C8A010
330
EF7C85532
100
AcDbEntity
  8
SUNPOU
100
AcDbBlockReference
  2
ARROW
 10
470.7919865466858
 20
34.4969598090683
 30
0.0
 41
1.499999999999983
 42
1.5
 43
1.5
 50
146.0291974830129
  0
ARC
  5
EF7C8A011
330
EF7C85532
100
AcDbEntity
  8
JISSEN
100
AcDbCircle
 10
467.3145332254653
 20
37.53549316055261
 30
0.0
 40
0.4
100
AcDbArc
 50
270.0
 51
356.2556379999997
  0
LINE
  5
EF7C8A012
330
EF7C85532
100
AcDbEntity
  8
JISSEN
100
AcDbLine
 10
467.3145332254653
 20
37.13549316055264
 30
0.0
 11
466.1143812254654
 21
37.13549316055264
 31
0.0
  0
ARC
  5
EF7C8A013
330
EF7C85532
100
AcDbEntity
  8
JISSEN
100
AcDbCircle
 10
465.7782792254654
 20
37.35237016055254
 30
0.0
 40
0.4
100
AcDbArc
 50
305.3270679999978
 51
355.9820309999998
  0
ARC
  5
EF7C8A014
330
EF7C85532
100
AcDbEntity
  8
JISSEN
100
AcDbCircle
 10
471.4079502254653
 20
37.4514741605526
 30
0.0
 40
0.5
100
AcDbArc
 50
297.7467380000011
 51
354.7984410000001
  0
ARC
  5
EF7C8A015
330
EF7C85532
100
AcDbEntity
  8
JISSEN
100
AcDbCircle
 10
467.3049092254655
 20
37.78612216055262
 30
0.0
 40
1.199999999999999
100
AcDbArc
 50
305.3270679999978
 51
355.9820309999998
  0
ARC
  5
EF7C8A016
330
EF7C85532
100
AcDbEntity
  8
JISSEN
100
AcDbCircle
 10
471.8820012254655
 20
37.63549316055264
 30
0.0
 40
0.5
100
AcDbArc
 50
260.6504450000016
 51
354.9610729999997
  0
LINE
  5
EF7C8A017
330
EF7C85532
100
AcDbEntity
  8
JISSEN
100
AcDbLine
 10
474.8464092254653
 20
36.82495216055253
 30
0.0
 11
473.3795112254654
 21
36.14636016055254
 31
0.0
  0
ARC
  5
EF7C8A018
330
EF7C85532
100
AcDbEntity
  8
JISSEN
100
AcDbCircle
 10
474.4418628241435
 20
37.8705997963903
 30
0.0
 40
1.5
100
AcDbArc
 50
295.1820930545772
 51
355.0000029809808
  0
ARC
  5
EF7C8A019
330
EF7C85532
100
AcDbEntity
  8
JISSEN
100
AcDbCircle
 10
474.2586132254655
 20
38.09558016055257
 30
0.0
 40
1.399999999999999
100
AcDbArc
 50
294.825405
 51
353.8576429999996
  0
ARC
  5
EF7C8A01A
330
EF7C85532
100
AcDbEntity
  8
JISSEN
100
AcDbCircle
 10
473.8310372254654
 20
38.02859116055254
 30
0.0
 40
1.3
100
AcDbArc
 50
294.825405
 51
353.8576429999996
  0
LINE
  5
EF7C8A01B
330
EF7C85532
100
AcDbEntity
  8
JISSEN
100
AcDbLine
 10
472.6731762254653
 20
43.82859416055254
 30
0.0
 11
473.5750232254654
 21
43.82859416055254
 31
0.0
  0
LINE
  5
EF7C8A01C
330
EF7C85532
100
AcDbEntity
  8
JISSEN
100
AcDbLine
 10
467.8069632254653
 20
43.82859416055254
 30
0.0
 11
466.8206122254653
 21
43.82859416055254
 31
0.0
  0
ARC
  5
EF7C8A01D
330
EF7C85532
100
AcDbEntity
  8
JISSEN
100
AcDbCircle
 10
466.8206122254653
 20
43.62859416055255
 30
0.0
 40
0.2
100
AcDbArc
 50
90.0
 51
175.9820309999997
  0
ARC
  5
EF7C8A01E
330
EF7C85532
100
AcDbEntity
  8
JISSEN
100
AcDbCircle
 10
472.6731762254653
 20
43.62859416055255
 30
0.0
 40
0.2
100
AcDbArc
 50
90.0
 51
174.7984409999998
  0
ARC
  5
EF7C8A01F
330
EF7C85532
100
AcDbEntity
  8
JISSEN
100
AcDbCircle
 10
472.7115962254654
 20
43.62859416055255
 30
0.0
 40
0.2
100
AcDbArc
 50
354.9610729999997
 51
90.0
  0
ARC
  5
EF7C8A020
330
EF7C85532
100
AcDbEntity
  8
JISSEN
100
AcDbCircle
 10
467.8069632254653
 20
43.52859416055252
 30
0.0
 40
0.3
100
AcDbArc
 50
356.2556379999997
 51
90.0
  0
LINE
  5
EF7C8A021
330
EF7C85532
100
AcDbEntity
  8
JISSEN
100
AcDbLine
 10
468.5568542254652
 20
43.82859416055254
 30
0.0
 11
467.8069632254653
 21
43.82859416055254
 31
0.0
  0
ARC
  5
EF7C8A022
330
EF7C85532
100
AcDbEntity
  8
JISSEN
100
AcDbCircle
 10
468.5568542254652
 20
43.47859416055252
 30
0.0
 40
0.35
100
AcDbArc
 50
355.9820309999998
 51
90.0
  0
LINE
  5
EF7C8A023
330
EF7C85532
100
AcDbEntity
  8
JISSEN
100
AcDbLine
 10
479.5000822254653
 20
46.32859416055254
 30
0.0
 11
479.5000822254653
 21
50.32859416055259
 31
0.0
  0
LINE
  5
EF7C8A024
330
EF7C85532
100
AcDbEntity
  8
JISSEN
100
AcDbLine
 10
478.5000822254653
 20
46.32859416055254
 30
0.0
 11
477.5000822254653
 21
45.32859416055259
 31
0.0
  0
LINE
  5
EF7C8A025
330
EF7C85532
100
AcDbEntity
  8
JISSEN
100
AcDbLine
 10
477.5000822254653
 20
45.32859416055259
 30
0.0
 11
476.6000822254652
 21
45.32859416055259
 31
0.0
  0
ARC
  5
EF7C8A026
330
EF7C85532
100
AcDbEntity
  8
JISSEN
100
AcDbCircle
 10
475.8407032254654
 20
43.45083016055252
 30
0.0
 40
0.4
100
AcDbArc
 50
353.8576429999996
 51
88.64114499999931
  0
LINE
  5
EF7C8A027
330
EF7C85532
100
AcDbEntity
  8
JISSEN
100
AcDbLine
 10
476.6000822254652
 20
45.32859416055259
 30
0.0
 11
476.4688492254654
 21
43.82859416055254
 31
0.0
  0
ARC
  5
EF7C8A028
330
EF7C85532
100
AcDbEntity
  8
JISSEN
100
AcDbCircle
 10
473.5750232254654
 20
43.42859416055262
 30
0.0
 40
0.4
100
AcDbArc
 50
354.5938149999994
 51
90.0
  0
ARC
  5
EF7C8A029
330
EF7C85532
100
AcDbEntity
  8
JISSEN
100
AcDbCircle
 10
475.8549302254655
 20
43.75083016055254
 30
0.0
 40
0.1
100
AcDbArc
 50
92.71790199999978
 51
173.8576429999997
  0
LINE
  5
EF7C8A02A
330
EF7C85532
100
AcDbEntity
  8
SUNPOU
100
AcDbLine
 10
483.6294917480163
 20
51.43506610733601
 30
0.0
 11
506.0577258871899
 21
26.0334284688584
 31
0.0
  0
CIRCLE
  5
EF7C8A02B
330
EF7C85532
100
AcDbEntity
  8
SUNPOU
100
AcDbCircle
 10
510.0289512540398
 20
21.53572137682931
 30
0.0
 40
6.0
  0
TEXT
  5
EF7C8A02C
330
EF7C85532
100
AcDbEntity
  8
SUNPOU
100
AcDbText
 10
488.2075226826112
 20
19.28572137682931
 30
0.0
 40
4.5
  1
1
  7
K
 72
     4
 11
490.0289512540398
 21
21.53572137682931
 31
0.0
100
AcDbText
  0
CIRCLE
  5
EF7C8A02D
330
EF7C85532
100
AcDbEntity
  8
SUNPOU
100
AcDbCircle
 10
490.0289512540398
 20
21.53572137682931
 30
0.0
 40
6.0
  0
TEXT
  5
EF7C8A02F
330
EF7C85532
100
AcDbEntity
  8
SUNPOU
100
AcDbText
 10
507.8860941111826
 20
19.28572137682931
 30
0.0
 40
4.5
  1
2
  7
K
 72
     4
 11
510.0289512540398
 21
21.53572137682931
 31
0.0
100
AcDbText
  0
INSERT
  5
EF7C8A030
330
EF7C85532
100
AcDbEntity
  8
SUNPOU
100
AcDbBlockReference
  2
ARROW
 10
483.6294917480167
 20
51.43506610733601
 30
0.0
 41
1.500000000000015
 42
1.5
 43
1.5
 50
131.4427143987443
  0
LINE
  5
EF7C8A031
330
EF7C85532
100
AcDbEntity
  8
JISSEN
100
AcDbLine
 10
520.7336677765747
 20
58.8285941605526
 30
0.0
 11
462.5350849624776
 21
58.82859416055254
 31
0.0
  0
LINE
  5
EF7C8A032
330
EF7C85532
100
AcDbEntity
  8
JISSEN
100
AcDbLine
 10
462.5975881424142
 20
53.8285941605526
 30
0.0
 11
517.2759047431449
 21
53.8285941605526
 31
0.0
  0
LINE
  5
EF7C8A033
330
EF7C85532
100
AcDbEntity
  8
SAISEN
100
AcDbLine
 10
462.6588012254654
 20
54.86987516055262
 30
0.0
 11
461.4593152254654
 21
56.06936116055255
 31
0.0
  0
LINE
  5
EF7C8A034
330
EF7C85532
100
AcDbEntity
  8
JISSEN
100
AcDbLine
 10
462.1652269468301
 20
70.66344851588315
 30
0.0
 11
462.6588012254654
 21
54.86987516055262
 31
0.0
  0
LINE
  5
EF7C8A035
330
EF7C85532
100
AcDbEntity
  8
JISSEN
100
AcDbLine
 10
478.3500822254652
 20
53.8285941605526
 30
0.0
 11
452.0000822254655
 21
53.8285941605526
 31
0.0
  0
LINE
  5
EF7C8A036
330
EF7C85532
100
AcDbEntity
  8
JISSEN
100
AcDbLine
 10
452.0000822254655
 20
56.06936116055255
 30
0.0
 11
462.6213152254654
 21
56.06936116055255
 31
0.0
  0
LINE
  5
EF7C8A037
330
EF7C85532
100
AcDbEntity
  8
JISSEN
100
AcDbLine
 10
478.3500822254652
 20
53.8285941605526
 30
0.0
 11
452.0000822254655
 21
53.8285941605526
 31
0.0
  0
LINE
  5
EF7C8A038
330
EF7C85532
100
AcDbEntity
  8
SAISEN
100
AcDbLine
 10
461.4593152254654
 20
56.06936116055255
 30
0.0
 11
460.9668153787319
 21
71.82859416055624
 31
0.0
  0
LINE
  5
EF7C8A039
330
EF7C85532
100
AcDbEntity
  8
JISSEN
100
AcDbLine
 10
441.8349375041007
 20
70.66344851588315
 30
0.0
 11
441.3413632254653
 21
54.86987516055262
 31
0.0
  0
LINE
  5
EF7C8A03A
330
EF7C85532
100
AcDbEntity
  8
SAISEN
100
AcDbLine
 10
442.5408492254653
 20
56.06936116055255
 30
0.0
 11
443.0333490721986
 21
71.82859416055624
 31
0.0
  0
LINE
  5
EF7C8A03B
330
EF7C85532
100
AcDbEntity
  8
JISSEN
100
AcDbLine
 10
452.0000822254655
 20
56.06936116055255
 30
0.0
 11
441.3788492254655
 21
56.06936116055255
 31
0.0
  0
LINE
  5
EF7C8A03C
330
EF7C85532
100
AcDbEntity
  8
SAISEN
100
AcDbLine
 10
441.3413632254653
 20
54.86987516055262
 30
0.0
 11
442.5408492254653
 21
56.06936116055255
 31
0.0
  0
LINE
  5
EF7C8A03D
330
EF7C85532
100
AcDbEntity
  8
JISSEN
100
AcDbLine
 10
443.0000822254653
 20
71.82859416055624
 30
0.0
 11
452.0000822254655
 21
71.82859416055624
 31
0.0
  0
LINE
  5
EF7C8A03E
330
EF7C85532
100
AcDbEntity
  8
JISSEN
100
AcDbLine
 10
441.7381582254654
 20
70.56666916055622
 30
0.0
 11
452.0000822254655
 21
70.56666916055622
 31
0.0
  0
LINE
  5
EF7C8A03F
330
EF7C85532
100
AcDbEntity
  8
JISSEN
100
AcDbLine
 10
441.7381582254654
 20
70.56666916055622
 30
0.0
 11
443.0000822254653
 21
71.82859416055624
 31
0.0
  0
LINE
  5
EF7C8A040
330
EF7C85532
100
AcDbEntity
  8
JISSEN
100
AcDbLine
 10
462.2620062254652
 20
70.56666916055622
 30
0.0
 11
452.0000822254655
 21
70.56666916055622
 31
0.0
  0
LINE
  5
EF7C8A041
330
EF7C85532
100
AcDbEntity
  8
JISSEN
100
AcDbLine
 10
461.0000822254654
 20
71.82859416055624
 30
0.0
 11
452.0000822254655
 21
71.82859416055624
 31
0.0
  0
LINE
  5
EF7C8A042
330
EF7C85532
100
AcDbEntity
  8
JISSEN
100
AcDbLine
 10
462.2620062254652
 20
70.56666916055622
 30
0.0
 11
461.0000822254654
 21
71.82859416055624
 31
0.0
  0
LINE
  5
EF7C8A043
330
EF7C85532
100
AcDbEntity
  8
JISSEN
100
AcDbLine
 10
469.5000822254653
 20
58.8285941605526
 30
0.0
 11
469.5000822254653
 21
53.8285941605526
 31
0.0
  0
LINE
  5
EF7C8A044
330
EF7C85532
100
AcDbEntity
  8
JISSEN
100
AcDbLine
 10
463.7000822254654
 20
53.8285941605526
 30
0.0
 11
462.6588012254654
 21
54.86987516055262
 31
0.0
  0
LINE
  5
EF7C8A045
330
EF7C85532
100
AcDbEntity
  8
JISSEN
100
AcDbLine
 10
463.7000822254654
 20
53.8285941605526
 30
0.0
 11
462.6588012254654
 21
54.86987516055262
 31
0.0
  0
LINE
  5
EF7C8A046
330
EF7C85532
100
AcDbEntity
  8
JISSEN
100
AcDbLine
 10
488.5000822254653
 20
53.50746388040864
 30
0.0
 11
488.5000822254653
 21
53.8285941605526
 31
0.0
  0
LWPOLYLINE
  5
EF7C8A047
330
EF7C85532
100
AcDbEntity
  8
HATCH
100
AcDbPolyline
 90
       13
 70
     0
 43
0.0
 10
520.7336677765747
 20
58.8285941605526
 10
520.5690805983249
 20
58.00895708232054
 10
520.4271752416444
 20
57.49233910555624
 10
520.1994666044968
 20
57.07391281886845
 10
519.8915791178373
 20
56.73579579520151
 10
519.5253558288577
 20
56.44554472255141
 10
519.1226397847493
 20
56.17071628891391
 10
518.7052740327024
 20
55.87886718228492
 10
518.2951016199085
 20
55.53755409066019
 10
517.9139655935586
 20
55.11433370203581
 10
517.5837090008444
 20
54.57676270440754
 10
517.3091289376416
 20
53.91314391712007
 10
517.2759047431449
 20
53.8285941605526
  0
LWPOLYLINE
  5
EF7C8A048
330
EF7C85532
100
AcDbEntity
  8
NITEN
100
AcDbPolyline
 90
        2
 70
     0
 43
0.0
 10
468.9999987874493
 20
122.7768607174258
 42
0.5882352941176295
 10
451.9999987874491
 20
122.776860717426
 42
0.5882352941176295
  0
LINE
  5
EF7C8A049
330
EF7C85532
100
AcDbEntity
  8
JISSEN
100
AcDbLine
 10
440.3250822254672
 20
151.2427118382134
 30
0.0
 11
444.5000822254674
 21
151.2427118382134
 31
0.0
  0
LINE
  5
EF7C8A04A
330
EF7C85532
100
AcDbEntity
  8
JISSEN
100
AcDbLine
 10
452.0000822254685
 20
160.2427118382129
 30
0.0
 11
439.4500822254685
 21
160.2427118382134
 31
0.0
1001
ACAD
1000
ASC_BOUNDS
1002
{
1070
    19
1002
}
  0
LWPOLYLINE
  5
EF7C8A04B
330
EF7C85532
100
AcDbEntity
  8
NITEN
100
AcDbPolyline
 90
        5
 70
     0
 43
0.0
 10
468.9999987874493
 20
231.4391430662799
 10
468.9999987874493
 20
252.2768607174258
 42
-0.5882352941176476
 10
451.9999987874493
 20
252.2768607174258
 42
0.5882352941176477
 10
434.9999987874493
 20
252.2768607174254
 10
434.9999987874493
 20
231.4391430662799
  0
LINE
  5
EF7C8A04C
330
EF7C85532
100
AcDbEntity
  8
JISSEN
100
AcDbLine
 10
440.3000822254653
 20
183.3285941605524
 30
0.0
 11
441.3413632254653
 21
184.3698751605524
 31
0.0
  0
LINE
  5
EF7C8A04D
330
EF7C85532
100
AcDbEntity
  8
JISSEN
100
AcDbLine
 10
452.0000822254655
 20
161.9927118382131
 30
0.0
 11
437.4708792088636
 21
161.992711838213
 31
0.0
1001
ACAD
1000
ASC_BOUNDS
1002
{
1070
    19
1002
}
  0
LWPOLYLINE
  5
EF7C8A04E
330
EF7C85532
100
AcDbEntity
  8
NITEN
100
AcDbPolyline
 90
       15
 70
     1
 43
0.0
 10
437.9999987874493
 20
190.9391430662799
 42
0.4142135623730927
 10
439.4999987874491
 20
189.4391430662799
 10
462.5940499584458
 20
189.4391430662799
 10
464.4999987874493
 20
189.4391430662799
 42
0.4142135623730925
 10
465.9999987874494
 20
190.9391430662799
 10
465.9999987874494
 20
201.9851590924978
 42
-0.4142135623730943
 10
470.9999987874494
 20
206.9851590924979
 42
0.4142135623730951
 10
472.9999987874493
 20
208.9851590924979
 10
472.9999987874491
 20
229.4391430662799
 42
0.4142135623730949
 10
470.9999987874494
 20
231.4391430662799
 10
432.9999987874494
 20
231.4391430662799
 42
0.4142135623730951
 10
430.9999987874493
 20
229.4391430662799
 10
430.9999987874493
 20
208.9851590924979
 42
0.4142135623730951
 10
432.9999987874494
 20
206.9851590924979
 42
-0.4142135623730961
 10
437.9999987874493
 20
201.9851590924978
  0
LINE
  5
EF7C8A04F
330
EF7C85532
100
AcDbEntity
  8
JISSEN
100
AcDbLine
 10
441.4025763085167
 20
183.3285941605524
 30
0.0
 11
386.7240928317538
 21
183.3285941605524
 31
0.0
  0
LINE
  5
EF7C8A050
330
EF7C85532
100
AcDbEntity
  8
JISSEN
100
AcDbLine
 10
383.2663297983239
 20
188.3285941605524
 30
0.0
 11
441.465079488453
 21
188.3285941605526
 31
0.0
  0
LINE
  5
EF7C8A051
330
EF7C85532
100
AcDbEntity
  8
JISSEN
100
AcDbLine
 10
451.0000822254653
 20
182.8285941605524
 30
0.0
 11
425.5000822254653
 21
182.8285941605524
 31
0.0
  0
LINE
  5
EF7C8A052
330
EF7C85532
100
AcDbEntity
  8
JISSEN
100
AcDbLine
 10
425.5000822254653
 20
175.8285941605524
 30
0.0
 11
451.0000822254653
 21
175.8285941605524
 31
0.0
  0
LINE
  5
EF7C8A053
330
EF7C85532
100
AcDbEntity
  8
JISSEN
100
AcDbLine
 10
426.5000822254653
 20
174.8285941605525
 30
0.0
 11
452.0000822254655
 21
174.8285941605525
 31
0.0
  0
LINE
  5
EF7C8A054
330
EF7C85532
100
AcDbEntity
  8
JISSEN
100
AcDbLine
 10
425.6500822254654
 20
183.3285941605524
 30
0.0
 11
452.0000822254655
 21
183.3285941605524
 31
0.0
  0
HATCH
  5
EF7C8A055
330
EF7C85532
100
AcDbEntity
  8
HATCH
100
AcDbHatch
 10
0.0
 20
0.0
 30
0.0
210
0.0
220
0.0
230
1.0
  2
_U
 70
     0
 71
     0
 91
        2
 92
        7
 72
     0
 73
     1
 93
       15
 10
469.5000822254653
 20
188.3285941605524
 10
469.5000822254653
 20
183.3285941605524
 10
478.3500822254652
 20
183.3285941605524
 10
517.2741454833651
 20
183.3285941605524
 10
517.5837090008444
 20
184.0767627044074
 10
517.9139655935586
 20
184.6143337020356
 10
518.2951016199083
 20
185.03755409066
 10
518.7052740327024
 20
185.3788671822848
 10
519.1226397847501
 20
185.6707162889147
 10
519.5253558288577
 20
185.9455447225514
 10
519.8915791178373
 20
186.2357957952014
 10
520.1994666044968
 20
186.5739128188684
 10
520.4271752416444
 20
186.9923391055561
 10
520.5690805983249
 20
187.5089570823201
 10
520.7336677765747
 20
188.3285941605526
 97
        0
 92
        7
 72
     0
 73
     1
 93
       14
 10
383.2663297983239
 20
188.3285941605524
 10
383.4309169765738
 20
187.5089570823203
 10
383.5728223332543
 20
186.9923391055561
 10
383.8005309704019
 20
186.5739128188684
 10
384.1084184570613
 20
186.2357957952014
 10
384.4746417460411
 20
185.9455447225513
 10
384.8773577901474
 20
185.6707162889144
 10
385.2947235421966
 20
185.3788671822845
 10
385.7048959549903
 20
185.0375540906603
 10
386.0860319813398
 20
184.6143337020358
 10
386.4162885740544
 20
184.0767627044075
 10
386.7258520915336
 20
183.3285941605524
 10
434.5000822254653
 20
183.3285941605524
 10
434.5000822254653
 20
188.3285941605524
 97
        0
 75
     0
 76
     0
 52
45.0
 41
2.0
 77
     0
 78
     1
 53
45.0
 43
361.9999987874493
 44
3.0
 45
-1.414213562373094
 46
1.414213562373094
 79
     0
 47
0.2346837798524018
 98
        2
 10
479.2263862772938
 20
186.1842259962081
 10
428.258580983638
 20
186.8882770499791
  0
TEXT
  5
EF7C8A056
330
EF7C85532
100
AcDbEntity
  8
SUNPOU
100
AcDbText
 10
325.2551966600238
 20
149.3494238986851
 30
0.0
 40
3.0
  1
MFQR   取付状態
  7
K
100
AcDbText
  0
LINE
  5
EF7C8A057
330
EF7C85532
100
AcDbEntity
  8
JISSEN
100
AcDbLine
 10
288.500082714016
 20
188.3285941605524
 30
0.0
 11
288.500082714016
 21
183.3285941605524
 31
0.0
  0
LINE
  5
EF7C8A058
330
EF7C85532
100
AcDbEntity
  8
JISSEN
100
AcDbLine
 10
281.1652274353808
 20
200.1634485158831
 30
0.0
 11
281.658801714016
 21
184.3698751605524
 31
0.0
  0
LINE
  5
EF7C8A059
330
EF7C85532
100
AcDbEntity
  8
SAISEN
100
AcDbLine
 10
280.4593157140159
 20
185.5693611605524
 30
0.0
 11
279.9668158672827
 21
201.328594160556
 31
0.0
  0
LWPOLYLINE
  5
EF7C8A05A
330
EF7C85532
100
AcDbEntity
  8
HATCH
100
AcDbPolyline
 90
       13
 70
     0
 43
0.0
 10
339.7336682651255
 20
188.3285941605524
 10
339.5690810868756
 20
187.5089570823205
 10
339.4271757301951
 20
186.9923391055561
 10
339.1994670930473
 20
186.5739128188684
 10
338.8915796063881
 20
186.2357957952014
 10
338.5253563174086
 20
185.9455447225513
 10
338.1226402732997
 20
185.6707162889138
 10
337.7052745212529
 20
185.3788671822847
 10
337.2951021084592
 20
185.0375540906601
 10
336.9139660821094
 20
184.6143337020356
 10
336.5837094893949
 20
184.0767627044075
 10
336.3091294261921
 20
183.4131439171199
 10
336.2759052316955
 20
183.3285941605524
  0
CIRCLE
  5
EF7C8A05B
330
EF7C85532
100
AcDbEntity
  8
SUNPOU
100
AcDbCircle
 10
309.0289517425905
 20
151.0357213768291
 30
0.0
 40
6.0
  0
LINE
  5
EF7C8A05C
330
EF7C85532
100
AcDbEntity
  8
JISSEN
100
AcDbLine
 10
281.5975886309648
 20
183.3285941605524
 30
0.0
 11
336.2759052316955
 21
183.3285941605524
 31
0.0
  0
INSERT
  5
EF7C8A05D
330
EF7C85532
100
AcDbEntity
  8
SUNPOU
100
AcDbBlockReference
  2
ARROW
 10
289.7919870352366
 20
163.9969598090681
 30
0.0
 41
1.499999999999983
 42
1.5
 43
1.5
 50
146.0291974830129
  0
LINE
  5
EF7C8A05E
330
EF7C85532
100
AcDbEntity
  8
SUNPOU
100
AcDbLine
 10
289.7919870352367
 20
163.9969598090681
 30
0.0
 11
304.0530171911068
 21
154.3883435355808
 31
0.0
  0
LINE
  5
EF7C8A05F
330
EF7C85532
100
AcDbEntity
  8
JISSEN
100
AcDbLine
 10
285.5292857306178
 20
161.992711838213
 30
0.0
 11
294.0546883398555
 21
166.0012077799235
 31
0.0
1001
ACAD
1000
ASC_BOUNDS
1002
{
1070
    19
1002
}
  0
ARC
  5
EF7C8A060
330
EF7C85532
100
AcDbEntity
  8
SAISEN
100
AcDbCircle
 10
276.018008714016
 20
152.0069715946051
 30
0.0
 40
0.75
100
AcDbArc
 50
38.68358899999869
 51
90.0
  0
LINE
  5
EF7C8A061
330
EF7C85532
100
AcDbEntity
  8
SAISEN
100
AcDbLine
 10
275.528111714016
 20
152.1436175946051
 30
0.0
 11
280.268008714016
 21
152.1436175946051
 31
0.0
  0
ARC
  5
EF7C8A062
330
EF7C85532
100
AcDbEntity
  8
JISSEN
100
AcDbCircle
 10
274.818008714016
 20
150.7838355946051
 30
0.0
 40
0.3
100
AcDbArc
 50
180.0
 51
270.0
  0
LINE
  5
EF7C8A063
330
EF7C85532
100
AcDbEntity
  8
JISSEN
100
AcDbLine
 10
274.5180087140161
 20
151.6436175946051
 30
0.0
 11
274.5180087140161
 21
150.7838355946051
 31
0.0
  0
ARC
  5
EF7C8A064
330
EF7C85532
100
AcDbEntity
  8
JISSEN
100
AcDbCircle
 10
274.018008714016
 20
151.6436175946051
 30
0.0
 40
0.5
100
AcDbArc
 50
0.000000000000007
 51
90.0
  0
LINE
  5
EF7C8A065
330
EF7C85532
100
AcDbEntity
  8
SAISEN
100
AcDbLine
 10
280.268008714016
 20
150.4838355946051
 30
0.0
 11
280.268008714016
 21
150.1614065946052
 31
0.0
  0
LINE
  5
EF7C8A066
330
EF7C85532
100
AcDbEntity
  8
SAISEN
100
AcDbLine
 10
280.268008714016
 20
152.1436175946051
 30
0.0
 11
280.268008714016
 21
152.4757365946051
 31
0.0
  0
ARC
  5
EF7C8A067
330
EF7C85532
100
AcDbEntity
  8
SAISEN
100
AcDbCircle
 10
278.5180087140161
 20
150.6114065946051
 30
0.0
 40
0.75
100
AcDbArc
 50
261.0715289999998
 51
323.1301019999993
  0
LINE
  5
EF7C8A068
330
EF7C85532
100
AcDbEntity
  8
JISSEN
100
AcDbLine
 10
280.2500827140161
 20
154.4204945946051
 30
0.0
 11
284.2500827140161
 21
156.4585963925829
 31
0.0
1001
ACAD
1000
ASC_BOUNDS
1002
{
1070
    19
1002
}
  0
LINE
  5
EF7C8A069
330
EF7C85532
100
AcDbEntity
  8
JISSEN
100
AcDbLine
 10
274.018008714016
 20
154.4204945946051
 30
0.0
 11
274.018008714016
 21
152.7569715946051
 31
0.0
  0
LINE
  5
EF7C8A06A
330
EF7C85532
100
AcDbEntity
  8
JISSEN
100
AcDbLine
 10
280.2702533062331
 20
158.7204945946051
 30
0.0
 11
279.6351680101245
 21
159.8204945946051
 31
0.0
1001
ACAD
1000
ASC_BOUNDS
1002
{
1070
    19
1002
}
  0
ARC
  5
EF7C8A06B
330
EF7C85532
100
AcDbEntity
  8
JISSEN
100
AcDbCircle
 10
278.942347687097
 20
159.4204945946051
 30
0.0
 40
0.8
100
AcDbArc
 50
30.00000000000065
 51
66.40206201165497
1001
ACAD
1000
ASC_BOUNDS
1002
{
1070
    19
1002
}
  0
LINE
  5
EF7C8A06C
330
EF7C85532
100
AcDbEntity
  8
JISSEN
100
AcDbLine
 10
279.2626005298314
 20
160.2427118382134
 30
0.0
 11
279.2626005298314
 21
158.7204945946051
 31
0.0
1001
ACAD
1000
ASC_BOUNDS
1002
{
1070
    19
1002
}
  0
LINE
  5
EF7C8A06D
330
EF7C85532
100
AcDbEntity
  8
JISSEN
100
AcDbLine
 10
277.3900827140161
 20
158.7204945946051
 30
0.0
 11
277.3900827140161
 21
160.2427118382133
 31
0.0
1001
ACAD
1000
ASC_BOUNDS
1002
{
1070
    19
1002
}
  0
LINE
  5
EF7C8A06E
330
EF7C85532
100
AcDbEntity
  8
JISSEN
100
AcDbLine
 10
284.2500827140161
 20
158.7204945946051
 30
0.0
 11
284.2500827140161
 21
156.4585963925829
 31
0.0
1001
ACAD
1000
ASC_BOUNDS
1002
{
1070
    19
1002
}
  0
ARC
  5
EF7C8A06F
330
EF7C85532
100
AcDbEntity
  8
JISSEN
100
AcDbCircle
 10
283.550082714016
 20
160.4427118382133
 30
0.0
 40
0.2
100
AcDbArc
 50
270.0
 51
359.9999999999991
1001
ACAD
1000
ASC_BOUNDS
1002
{
1070
    19
1002
}
  0
LINE
  5
EF7C8A070
330
EF7C85532
100
AcDbEntity
  8
JISSEN
100
AcDbLine
 10
283.7500827140161
 20
161.992711838213
 30
0.0
 11
283.7500827140161
 21
160.4427118382121
 31
0.0
1001
ACAD
1000
ASC_BOUNDS
1002
{
1070
    19
1002
}
  0
TEXT
  5
EF7C8A071
330
EF7C85532
100
AcDbEntity
  8
SUNPOU
100
AcDbText
 10
307.2075231711619
 20
148.7857213768291
 30
0.0
 40
4.5
  1
1
  7
K
 72
     4
 11
309.0289517425905
 21
151.0357213768291
 31
0.0
100
AcDbText
  0
ARC
  5
EF7C8A072
330
EF7C85532
100
AcDbEntity
  8
JISSEN
100
AcDbCircle
 10
292.5750237140159
 20
172.9285941605524
 30
0.0
 40
0.4
100
AcDbArc
 50
354.5938149999994
 51
90.0
  0
LINE
  5
EF7C8A073
330
EF7C85532
100
AcDbEntity
  8
JISSEN
100
AcDbLine
 10
272.0000827140161
 20
182.8285941605524
 30
0.0
 11
297.5000827140161
 21
182.8285941605524
 31
0.0
  0
LINE
  5
EF7C8A074
330
EF7C85532
100
AcDbEntity
  8
JISSEN
100
AcDbLine
 10
297.5000827140161
 20
175.8285941605524
 30
0.0
 11
272.0000827140161
 21
175.8285941605524
 31
0.0
  0
LINE
  5
EF7C8A075
330
EF7C85532
100
AcDbEntity
  8
JISSEN
100
AcDbLine
 10
293.8464097140159
 20
166.3249521605524
 30
0.0
 11
292.3795117140159
 21
165.6463601605524
 31
0.0
  0
LINE
  5
EF7C8A076
330
EF7C85532
100
AcDbEntity
  8
JISSEN
100
AcDbLine
 10
291.864989714016
 20
165.6493311605524
 30
0.0
 11
293.3768487140159
 21
166.3487221605525
 31
0.0
  0
LINE
  5
EF7C8A077
330
EF7C85532
100
AcDbEntity
  8
JISSEN
100
AcDbLine
 10
292.9732447140161
 20
172.8909071605524
 30
0.0
 11
292.4475427140161
 21
167.3359611605524
 31
0.0
  0
LINE
  5
EF7C8A078
330
EF7C85532
100
AcDbEntity
  8
JISSEN
100
AcDbLine
 10
280.7960297140159
 20
173.0173891605524
 30
0.0
 11
280.5691957140161
 21
166.9482411605525
 31
0.0
  0
LINE
  5
EF7C8A079
330
EF7C85532
100
AcDbEntity
  8
JISSEN
100
AcDbLine
 10
280.370287714016
 20
173.0698931605524
 30
0.0
 11
280.156309714016
 21
166.9250531605525
 31
0.0
  0
LINE
  5
EF7C8A07A
330
EF7C85532
100
AcDbEntity
  8
JISSEN
100
AcDbLine
 10
277.7419357140161
 20
166.7293181605525
 30
0.0
 11
277.9813877140161
 21
173.1360641605524
 31
0.0
  0
LINE
  5
EF7C8A07B
330
EF7C85532
100
AcDbEntity
  8
JISSEN
100
AcDbLine
 10
272.5000827140161
 20
172.8285941605524
 30
0.0
 11
272.5000827140161
 21
166.0317151605525
 31
0.0
  0
ARC
  5
EF7C8A07C
330
EF7C85532
100
AcDbEntity
  8
JISSEN
100
AcDbCircle
 10
272.0000827140161
 20
167.1354931605524
 30
0.0
 40
0.5
100
AcDbArc
 50
270.0
 51
0.000000000000007
  0
ARC
  5
EF7C8A07D
330
EF7C85532
100
AcDbEntity
  8
JISSEN
100
AcDbCircle
 10
272.0000827140161
 20
166.0317151605525
 30
0.0
 40
0.5
100
AcDbArc
 50
270.0
 51
0.000000000000007
  0
ARC
  5
EF7C8A07E
330
EF7C85532
100
AcDbEntity
  8
JISSEN
100
AcDbCircle
 10
279.5698937140159
 20
166.9855901605524
 30
0.0
 40
1.0
100
AcDbArc
 50
323.1028380000011
 51
357.859568
  0
ARC
  5
EF7C8A07F
330
EF7C85532
100
AcDbEntity
  8
JISSEN
100
AcDbCircle
 10
279.578941714016
 20
165.8317151605525
 30
0.0
 40
0.3
100
AcDbArc
 50
270.0
 51
323.1028380000011
  0
LINE
  5
EF7C8A080
330
EF7C85532
100
AcDbEntity
  8
JISSEN
100
AcDbLine
 10
280.3696077140159
 20
166.3852091605525
 30
0.0
 11
279.8188567140159
 21
165.6516011605525
 31
0.0
  0
ARC
  5
EF7C8A081
330
EF7C85532
100
AcDbEntity
  8
JISSEN
100
AcDbCircle
 10
279.856491714016
 20
166.9354931605525
 30
0.0
 40
0.3
100
AcDbArc
 50
270.0
 51
358.0056319999998
  0
LINE
  5
EF7C8A082
330
EF7C85532
100
AcDbEntity
  8
JISSEN
100
AcDbLine
 10
277.1500697140161
 20
165.8517921605525
 30
0.0
 11
277.682059714016
 21
166.5604081605525
 31
0.0
  0
ARC
  5
EF7C8A083
330
EF7C85532
100
AcDbEntity
  8
JISSEN
100
AcDbCircle
 10
277.310012714016
 20
165.7317151605525
 30
0.0
 40
0.2
100
AcDbArc
 50
143.102838000001
 51
270.0
  0
ARC
  5
EF7C8A084
330
EF7C85532
100
AcDbEntity
  8
JISSEN
100
AcDbCircle
 10
277.4421447140159
 20
166.7405221605525
 30
0.0
 40
0.3
100
AcDbArc
 50
323.1028380000011
 51
357.859568
  0
LINE
  5
EF7C8A085
330
EF7C85532
100
AcDbEntity
  8
JISSEN
100
AcDbLine
 10
279.578941714016
 20
165.5317151605524
 30
0.0
 11
277.310012714016
 21
165.5317151605524
 31
0.0
  0
LINE
  5
EF7C8A086
330
EF7C85532
100
AcDbEntity
  8
JISSEN
100
AcDbLine
 10
279.856491714016
 20
166.6354931605525
 30
0.0
 11
277.723158714016
 21
166.6354931605525
 31
0.0
  0
ARC
  5
EF7C8A087
330
EF7C85532
100
AcDbEntity
  8
JISSEN
100
AcDbCircle
 10
272.0000827140161
 20
172.8285941605524
 30
0.0
 40
0.5
100
AcDbArc
 50
0.000000000000007
 51
90.0
  0
ARC
  5
EF7C8A088
330
EF7C85532
100
AcDbEntity
  8
JISSEN
100
AcDbCircle
 10
280.4962397140159
 20
173.0285941605524
 30
0.0
 40
0.3
100
AcDbArc
 50
357.859568
 51
90.0
  0
ARC
  5
EF7C8A089
330
EF7C85532
100
AcDbEntity
  8
JISSEN
100
AcDbCircle
 10
280.1204397140161
 20
173.0785941605524
 30
0.0
 40
0.25
100
AcDbArc
 50
358.0056319999998
 51
90.0
  0
ARC
  5
EF7C8A08A
330
EF7C85532
100
AcDbEntity
  8
JISSEN
100
AcDbCircle
 10
278.1812487140161
 20
173.1285941605525
 30
0.0
 40
0.2
100
AcDbArc
 50
90.0
 51
177.8595680000001
  0
LINE
  5
EF7C8A08B
330
EF7C85532
100
AcDbEntity
  8
JISSEN
100
AcDbLine
 10
278.1812487140161
 20
173.3285941605524
 30
0.0
 11
280.4962397140159
 21
173.3285941605524
 31
0.0
  0
LINE
  5
EF7C8A08C
330
EF7C85532
100
AcDbEntity
  8
JISSEN
100
AcDbLine
 10
291.910823714016
 20
173.1110271605524
 30
0.0
 11
291.3800697140159
 21
167.0915771605525
 31
0.0
  0
LINE
  5
EF7C8A08D
330
EF7C85532
100
AcDbEntity
  8
JISSEN
100
AcDbLine
 10
290.9058917140161
 20
166.9061441605525
 30
0.0
 11
291.4739997140161
 21
173.1467261605524
 31
0.0
  0
LINE
  5
EF7C8A08E
330
EF7C85532
100
AcDbEntity
  8
JISSEN
100
AcDbLine
 10
287.501959714016
 20
167.2020391605524
 30
0.0
 11
287.9059937140161
 21
172.9540691605524
 31
0.0
  0
LINE
  5
EF7C8A08F
330
EF7C85532
100
AcDbEntity
  8
JISSEN
100
AcDbLine
 10
287.1063227140159
 20
173.0090021605524
 30
0.0
 11
286.713679714016
 21
167.0093711605525
 31
0.0
  0
LINE
  5
EF7C8A090
330
EF7C85532
100
AcDbEntity
  8
JISSEN
100
AcDbLine
 10
285.621103714016
 20
173.1426081605524
 30
0.0
 11
285.1772967140161
 21
166.8243421605525
 31
0.0
  0
ARC
  5
EF7C8A091
330
EF7C85532
100
AcDbEntity
  8
JISSEN
100
AcDbCircle
 10
286.304909714016
 20
167.2861221605525
 30
0.0
 40
1.199999999999999
100
AcDbArc
 50
305.3270679999978
 51
355.9820309999998
  0
ARC
  5
EF7C8A092
330
EF7C85532
100
AcDbEntity
  8
JISSEN
100
AcDbCircle
 10
286.314533714016
 20
167.0354931605525
 30
0.0
 40
0.4
100
AcDbArc
 50
270.0
 51
356.2556379999997
  0
LINE
  5
EF7C8A093
330
EF7C85532
100
AcDbEntity
  8
JISSEN
100
AcDbLine
 10
284.0777177140159
 20
165.5317151605524
 30
0.0
 11
285.7933507140161
 21
165.5317151605524
 31
0.0
  0
LINE
  5
EF7C8A094
330
EF7C85532
100
AcDbEntity
  8
JISSEN
100
AcDbLine
 10
285.009576714016
 20
166.5260241605525
 30
0.0
 11
283.9909817140161
 21
165.8040951605524
 31
0.0
  0
ARC
  5
EF7C8A095
330
EF7C85532
100
AcDbEntity
  8
JISSEN
100
AcDbCircle
 10
285.7933507140161
 20
165.8817151605525
 30
0.0
 40
0.35
100
AcDbArc
 50
270.0
 51
305.3270679999978
  0
ARC
  5
EF7C8A096
330
EF7C85532
100
AcDbEntity
  8
JISSEN
100
AcDbCircle
 10
284.7782797140159
 20
166.8523701605525
 30
0.0
 40
0.4
100
AcDbArc
 50
305.3270679999978
 51
355.9820309999998
  0
ARC
  5
EF7C8A097
330
EF7C85532
100
AcDbEntity
  8
JISSEN
100
AcDbCircle
 10
284.0777177140159
 20
165.6817151605524
 30
0.0
 40
0.15
100
AcDbArc
 50
125.3270679999978
 51
270.0
  0
LINE
  5
EF7C8A098
330
EF7C85532
100
AcDbEntity
  8
JISSEN
100
AcDbLine
 10
285.995735714016
 20
165.5961631605524
 30
0.0
 11
286.998801714016
 21
166.3070851605525
 31
0.0
  0
LINE
  5
EF7C8A099
330
EF7C85532
100
AcDbEntity
  8
JISSEN
100
AcDbLine
 10
286.314533714016
 20
166.6354931605525
 30
0.0
 11
285.1143817140159
 21
166.6354931605525
 31
0.0
  0
ARC
  5
EF7C8A09A
330
EF7C85532
100
AcDbEntity
  8
JISSEN
100
AcDbCircle
 10
290.882001714016
 20
167.1354931605524
 30
0.0
 40
0.5
100
AcDbArc
 50
260.6504450000016
 51
354.9610729999997
  0
LINE
  5
EF7C8A09B
330
EF7C85532
100
AcDbEntity
  8
JISSEN
100
AcDbLine
 10
291.7585587140159
 20
166.3079231605524
 30
0.0
 11
290.370459714016
 21
165.5777101605524
 31
0.0
  0
ARC
  5
EF7C8A09C
330
EF7C85532
100
AcDbEntity
  8
JISSEN
100
AcDbCircle
 10
291.8859817140161
 20
165.6039521605524
 30
0.0
 40
0.05
100
AcDbArc
 50
114.825405
 51
270.0
  0
LINE
  5
EF7C8A09D
330
EF7C85532
100
AcDbEntity
  8
JISSEN
100
AcDbLine
 10
291.959656714016
 20
165.5539521605525
 30
0.0
 11
291.8859817140161
 21
165.5539521605525
 31
0.0
  0
ARC
  5
EF7C8A09E
330
EF7C85532
100
AcDbEntity
  8
JISSEN
100
AcDbCircle
 10
291.959656714016
 20
166.5539521605525
 30
0.0
 40
1.0
100
AcDbArc
 50
270.0
 51
294.825405
  0
ARC
  5
EF7C8A09F
330
EF7C85532
100
AcDbEntity
  8
JISSEN
100
AcDbCircle
 10
291.1533257140161
 20
167.4584421605525
 30
0.0
 40
1.3
100
AcDbArc
 50
297.7467380000011
 51
354.5938149999994
  0
LINE
  5
EF7C8A0A0
330
EF7C85532
100
AcDbEntity
  8
JISSEN
100
AcDbLine
 10
289.141357714016
 20
165.7202171605525
 30
0.0
 11
290.6407327140161
 21
166.5089671605525
 31
0.0
  0
LINE
  5
EF7C8A0A1
330
EF7C85532
100
AcDbEntity
  8
JISSEN
100
AcDbLine
 10
290.184233714016
 20
165.5317151605524
 30
0.0
 11
289.1879147140159
 21
165.5317151605524
 31
0.0
  0
ARC
  5
EF7C8A0A2
330
EF7C85532
100
AcDbEntity
  8
JISSEN
100
AcDbCircle
 10
290.4079507140161
 20
166.9514741605524
 30
0.0
 40
0.5
100
AcDbArc
 50
297.7467380000011
 51
354.7984410000001
  0
ARC
  5
EF7C8A0A3
330
EF7C85532
100
AcDbEntity
  8
JISSEN
100
AcDbCircle
 10
290.184233714016
 20
165.9317151605524
 30
0.0
 40
0.4
100
AcDbArc
 50
270.0
 51
297.7467380000011
  0
ARC
  5
EF7C8A0A4
330
EF7C85532
100
AcDbEntity
  8
JISSEN
100
AcDbCircle
 10
289.1879147140159
 20
165.6317151605524
 30
0.0
 40
0.1
100
AcDbArc
 50
117.7467380000011
 51
270.0
  0
LINE
  5
EF7C8A0A5
330
EF7C85532
100
AcDbEntity
  8
JISSEN
100
AcDbLine
 10
287.5568547140161
 20
173.3285941605524
 30
0.0
 11
286.8069637140159
 21
173.3285941605524
 31
0.0
  0
ARC
  5
EF7C8A0A6
330
EF7C85532
100
AcDbEntity
  8
JISSEN
100
AcDbCircle
 10
286.8069637140159
 20
173.0285941605524
 30
0.0
 40
0.3
100
AcDbArc
 50
356.2556379999997
 51
90.0
  0
ARC
  5
EF7C8A0A7
330
EF7C85532
100
AcDbEntity
  8
JISSEN
100
AcDbCircle
 10
285.820612714016
 20
173.1285941605525
 30
0.0
 40
0.2
100
AcDbArc
 50
90.0
 51
175.9820309999997
  0
LINE
  5
EF7C8A0A8
330
EF7C85532
100
AcDbEntity
  8
JISSEN
100
AcDbLine
 10
286.8069637140159
 20
173.3285941605524
 30
0.0
 11
285.820612714016
 21
173.3285941605524
 31
0.0
  0
ARC
  5
EF7C8A0A9
330
EF7C85532
100
AcDbEntity
  8
JISSEN
100
AcDbCircle
 10
291.7115967140159
 20
173.1285941605525
 30
0.0
 40
0.2
100
AcDbArc
 50
354.9610729999997
 51
90.0
  0
LINE
  5
EF7C8A0AA
330
EF7C85532
100
AcDbEntity
  8
JISSEN
100
AcDbLine
 10
291.6731767140161
 20
173.3285941605524
 30
0.0
 11
292.5750237140159
 21
173.3285941605524
 31
0.0
  0
ARC
  5
EF7C8A0AB
330
EF7C85532
100
AcDbEntity
  8
JISSEN
100
AcDbCircle
 10
291.6731767140161
 20
173.1285941605525
 30
0.0
 40
0.2
100
AcDbArc
 50
90.0
 51
174.7984409999998
  0
ARC
  5
EF7C8A0AC
330
EF7C85532
100
AcDbEntity
  8
JISSEN
100
AcDbCircle
 10
287.5568547140161
 20
172.9785941605524
 30
0.0
 40
0.35
100
AcDbArc
 50
355.9820309999998
 51
90.0
  0
LINE
  5
EF7C8A0AD
330
EF7C85532
100
AcDbEntity
  8
JISSEN
100
AcDbLine
 10
282.7000827140161
 20
183.3285941605524
 30
0.0
 11
281.658801714016
 21
184.3698751605524
 31
0.0
  0
LINE
  5
EF7C8A0AE
330
EF7C85532
100
AcDbEntity
  8
JISSEN
100
AcDbLine
 10
272.0000827140161
 20
182.8285941605524
 30
0.0
 11
272.0000827140161
 21
175.8285941605524
 31
0.0
  0
LINE
  5
EF7C8A0AF
330
EF7C85532
100
AcDbEntity
  8
SAISEN
100
AcDbLine
 10
281.658801714016
 20
184.3698751605524
 30
0.0
 11
280.4593157140159
 21
185.5693611605524
 31
0.0
  0
LINE
  5
EF7C8A0B0
330
EF7C85532
100
AcDbEntity
  8
JISSEN
100
AcDbLine
 10
295.600082714016
 20
174.8285941605525
 30
0.0
 11
295.4688497140159
 21
173.3285941605524
 31
0.0
  0
LINE
  5
EF7C8A0B1
330
EF7C85532
100
AcDbEntity
  8
JISSEN
100
AcDbLine
 10
294.1235737140161
 20
167.3894921605524
 30
0.0
 11
294.755504714016
 21
173.2615301605525
 31
0.0
  0
LINE
  5
EF7C8A0B2
330
EF7C85532
100
AcDbEntity
  8
JISSEN
100
AcDbLine
 10
295.238406714016
 20
172.9080301605524
 30
0.0
 11
294.6505767140159
 21
167.4457811605525
 31
0.0
  0
LINE
  5
EF7C8A0B3
330
EF7C85532
100
AcDbEntity
  8
JISSEN
100
AcDbLine
 10
295.4688497140159
 20
173.3285941605524
 30
0.0
 11
294.9484957140159
 21
167.3809171605525
 31
0.0
  0
ARC
  5
EF7C8A0B4
330
EF7C85532
100
AcDbEntity
  8
JISSEN
100
AcDbCircle
 10
293.4542033844787
 20
167.3757687346891
 30
0.0
 40
1.5
100
AcDbArc
 50
289.9999999999969
 51
354.9999999999998
  0
ARC
  5
EF7C8A0B5
330
EF7C85532
100
AcDbEntity
  8
JISSEN
100
AcDbCircle
 10
292.8310377140161
 20
167.5285911605525
 30
0.0
 40
1.3
100
AcDbArc
 50
294.825405
 51
353.8576429999996
  0
ARC
  5
EF7C8A0B6
330
EF7C85532
100
AcDbEntity
  8
JISSEN
100
AcDbCircle
 10
293.258613714016
 20
167.5955801605525
 30
0.0
 40
1.399999999999999
100
AcDbArc
 50
294.825405
 51
353.8576429999996
  0
ARC
  5
EF7C8A0B7
330
EF7C85532
100
AcDbEntity
  8
JISSEN
100
AcDbCircle
 10
294.8407037140161
 20
172.9508301605524
 30
0.0
 40
0.4
100
AcDbArc
 50
353.8576429999996
 51
88.64114499999931
  0
ARC
  5
EF7C8A0B8
330
EF7C85532
100
AcDbEntity
  8
JISSEN
100
AcDbCircle
 10
294.854930714016
 20
173.2508301605524
 30
0.0
 40
0.1
100
AcDbArc
 50
92.71790199999978
 51
173.8576429999997
  0
LINE
  5
EF7C8A0B9
330
EF7C85532
100
AcDbEntity
  8
JISSEN
100
AcDbLine
 10
297.5000827140161
 20
183.1785941605524
 30
0.0
 11
297.5000827140161
 21
175.8285941605524
 31
0.0
  0
LINE
  5
EF7C8A0BA
330
EF7C85532
100
AcDbEntity
  8
JISSEN
100
AcDbLine
 10
296.5000827140161
 20
174.8285941605525
 30
0.0
 11
295.600082714016
 21
174.8285941605525
 31
0.0
  0
LINE
  5
EF7C8A0BB
330
EF7C85532
100
AcDbEntity
  8
JISSEN
100
AcDbLine
 10
297.5000827140161
 20
175.8285941605524
 30
0.0
 11
296.5000827140161
 21
174.8285941605525
 31
0.0
  0
LINE
  5
EF7C8A0BC
330
EF7C85532
100
AcDbEntity
  8
JISSEN
100
AcDbLine
 10
297.5000827140161
 20
183.1785941605524
 30
0.0
 11
297.350082714016
 21
183.3285941605524
 31
0.0
  0
TEXT
  5
EF7C8A0BD
330
EF7C85532
100
AcDbEntity
  8
SUNPOU
100
AcDbText
 10
325.2551966600238
 20
144.3494238986851
 30
0.0
 40
3.0
  1
尺度　1/1
  7
K
100
AcDbText
  0
LINE
  5
EF7C8A0C2
330
EF7C85532
100
AcDbEntity
  8
JISSEN
100
AcDbLine
 10
339.7336682651255
 20
188.3285941605524
 30
0.0
 11
281.5350854510284
 21
188.3285941605524
 31
0.0
  0
LINE
  5
EF7C8A0C3
330
EF7C85532
100
AcDbEntity
  8
JISSEN
100
AcDbLine
 10
281.262006714016
 20
200.0666691605561
 30
0.0
 11
280.0000827140161
 21
201.3285941605561
 31
0.0
  0
LINE
  5
EF7C8A0C4
330
EF7C85532
100
AcDbEntity
  8
JISSEN
100
AcDbLine
 10
434.5000822254653
 20
188.3285941605524
 30
0.0
 11
434.5000822254653
 21
183.3285941605524
 31
0.0
  0
LWPOLYLINE
  5
EF7C8A0C5
330
EF7C85532
100
AcDbEntity
  8
HATCH
100
AcDbPolyline
 90
       13
 70
     0
 43
0.0
 10
383.2663297983239
 20
188.3285941605524
 10
383.4309169765738
 20
187.5089570823203
 10
383.5728223332543
 20
186.9923391055561
 10
383.8005309704019
 20
186.5739128188682
 10
384.1084184570613
 20
186.2357957952014
 10
384.4746417460409
 20
185.9455447225513
 10
384.8773577901496
 20
185.6707162889138
 10
385.2947235421964
 20
185.3788671822847
 10
385.7048959549903
 20
185.0375540906601
 10
386.08603198134
 20
184.6143337020356
 10
386.4162885740544
 20
184.0767627044074
 10
386.6908686372571
 20
183.4131439171199
 10
386.7240928317538
 20
183.3285941605524
  0
LINE
  5
EF7C8A0C6
330
EF7C85532
100
AcDbEntity
  8
JISSEN
100
AcDbLine
 10
437.4708792088636
 20
161.992711838213
 30
0.0
 11
428.9454765996261
 21
166.0012077799235
 31
0.0
1001
ACAD
1000
ASC_BOUNDS
1002
{
1070
    19
1002
}
  0
LINE
  5
EF7C8A0C7
330
EF7C85532
100
AcDbEntity
  8
JISSEN
100
AcDbLine
 10
440.3250822254672
 20
160.2427118382134
 30
0.0
 11
440.3250822254674
 21
151.2427118382134
 31
0.0
  0
ARC
  5
EF7C8A0C8
330
EF7C85532
100
AcDbEntity
  8
JISSEN
100
AcDbCircle
 10
439.4500822254685
 20
160.4427118382133
 30
0.0
 40
0.2
100
AcDbArc
 50
180.0000000000006
 51
270.0
1001
ACAD
1000
ASC_BOUNDS
1002
{
1070
    19
1002
}
  0
LINE
  5
EF7C8A0C9
330
EF7C85532
100
AcDbEntity
  8
JISSEN
100
AcDbLine
 10
439.2500822254685
 20
161.992711838213
 30
0.0
 11
439.2500822254685
 21
160.4427118382121
 31
0.0
1001
ACAD
1000
ASC_BOUNDS
1002
{
1070
    19
1002
}
  0
LINE
  5
EF7C8A0CA
330
EF7C85532
100
AcDbEntity
  8
JISSEN
100
AcDbLine
 10
427.4000822254654
 20
174.8285941605525
 30
0.0
 11
427.5313152254653
 21
173.3285941605524
 31
0.0
  0
LINE
  5
EF7C8A0CB
330
EF7C85532
100
AcDbEntity
  8
JISSEN
100
AcDbLine
 10
431.3269882254653
 20
173.3285941605524
 30
0.0
 11
430.4251412254655
 21
173.3285941605524
 31
0.0
  0
ARC
  5
EF7C8A0CC
330
EF7C85532
100
AcDbEntity
  8
JISSEN
100
AcDbCircle
 10
431.8468392254653
 20
167.4584421605525
 30
0.0
 40
1.3
100
AcDbArc
 50
185.4061850000004
 51
242.2532619999987
  0
LINE
  5
EF7C8A0CD
330
EF7C85532
100
AcDbEntity
  8
JISSEN
100
AcDbLine
 10
429.1537552254653
 20
166.3249521605524
 30
0.0
 11
430.6206532254654
 21
165.6463601605524
 31
0.0
  0
LINE
  5
EF7C8A0CE
330
EF7C85532
100
AcDbEntity
  8
JISSEN
100
AcDbLine
 10
431.1351752254654
 20
165.6493311605524
 30
0.0
 11
429.6233162254655
 21
166.3487221605525
 31
0.0
  0
LINE
  5
EF7C8A0CF
330
EF7C85532
100
AcDbEntity
  8
JISSEN
100
AcDbLine
 10
430.0269202254653
 20
172.8909071605524
 30
0.0
 11
430.5526222254655
 21
167.3359611605524
 31
0.0
  0
LINE
  5
EF7C8A0D0
330
EF7C85532
100
AcDbEntity
  8
JISSEN
100
AcDbLine
 10
428.8765912254652
 20
167.3894921605524
 30
0.0
 11
428.2446602254654
 21
173.2615301605525
 31
0.0
  0
LINE
  5
EF7C8A0D1
330
EF7C85532
100
AcDbEntity
  8
JISSEN
100
AcDbLine
 10
427.7617582254654
 20
172.9080301605524
 30
0.0
 11
428.3495882254653
 21
167.4457811605525
 31
0.0
  0
LINE
  5
EF7C8A0D2
330
EF7C85532
100
AcDbEntity
  8
JISSEN
100
AcDbLine
 10
427.5313152254653
 20
173.3285941605524
 30
0.0
 11
428.0516692254654
 21
167.3809171605525
 31
0.0
  0
ARC
  5
EF7C8A0D3
330
EF7C85532
100
AcDbEntity
  8
JISSEN
100
AcDbCircle
 10
429.5459615550026
 20
167.3757687346891
 30
0.0
 40
1.5
100
AcDbArc
 50
185.0
 51
249.9999999999969
  0
ARC
  5
EF7C8A0D4
330
EF7C85532
100
AcDbEntity
  8
JISSEN
100
AcDbCircle
 10
430.1691272254654
 20
167.5285911605525
 30
0.0
 40
1.3
100
AcDbArc
 50
186.1423570000002
 51
245.1745949999999
  0
ARC
  5
EF7C8A0D5
330
EF7C85532
100
AcDbEntity
  8
JISSEN
100
AcDbCircle
 10
429.7415512254653
 20
167.5955801605525
 30
0.0
 40
1.399999999999999
100
AcDbArc
 50
186.1423570000002
 51
245.1745949999999
  0
ARC
  5
EF7C8A0D6
330
EF7C85532
100
AcDbEntity
  8
JISSEN
100
AcDbCircle
 10
430.4251412254655
 20
172.9285941605524
 30
0.0
 40
0.4
100
AcDbArc
 50
90.0
 51
185.4061850000004
  0
ARC
  5
EF7C8A0D7
330
EF7C85532
100
AcDbEntity
  8
JISSEN
100
AcDbCircle
 10
428.1594612254653
 20
172.9508301605524
 30
0.0
 40
0.4
100
AcDbArc
 50
91.35885500000068
 51
186.1423570000002
  0
ARC
  5
EF7C8A0D8
330
EF7C85532
100
AcDbEntity
  8
JISSEN
100
AcDbCircle
 10
428.1452342254653
 20
173.2508301605524
 30
0.0
 40
0.1
100
AcDbArc
 50
6.142357000000295
 51
87.28209800000021
  0
LINE
  5
EF7C8A0D9
330
EF7C85532
100
AcDbEntity
  8
JISSEN
100
AcDbLine
 10
437.3790612254654
 20
173.1426081605524
 30
0.0
 11
437.8228682254652
 21
166.8243421605525
 31
0.0
  0
LINE
  5
EF7C8A0DA
330
EF7C85532
100
AcDbEntity
  8
JISSEN
100
AcDbLine
 10
431.0893412254654
 20
173.1110271605524
 30
0.0
 11
431.6200952254653
 21
167.0915771605525
 31
0.0
  0
LINE
  5
EF7C8A0DB
330
EF7C85532
100
AcDbEntity
  8
JISSEN
100
AcDbLine
 10
432.0942732254652
 20
166.9061441605525
 30
0.0
 11
431.5261652254653
 21
173.1467261605524
 31
0.0
  0
LINE
  5
EF7C8A0DC
330
EF7C85532
100
AcDbEntity
  8
JISSEN
100
AcDbLine
 10
435.4982052254654
 20
167.2020391605524
 30
0.0
 11
435.0941712254653
 21
172.9540691605524
 31
0.0
  0
LINE
  5
EF7C8A0DD
330
EF7C85532
100
AcDbEntity
  8
JISSEN
100
AcDbLine
 10
435.8938422254655
 20
173.0090021605524
 30
0.0
 11
436.2864852254654
 21
167.0093711605525
 31
0.0
  0
ARC
  5
EF7C8A0DE
330
EF7C85532
100
AcDbEntity
  8
JISSEN
100
AcDbCircle
 10
436.6952552254652
 20
167.2861221605525
 30
0.0
 40
1.199999999999999
100
AcDbArc
 50
184.0179690000001
 51
234.6729320000021
  0
ARC
  5
EF7C8A0DF
330
EF7C85532
100
AcDbEntity
  8
JISSEN
100
AcDbCircle
 10
433.8122502254655
 20
165.6317151605524
 30
0.0
 40
0.1
100
AcDbArc
 50
270.0
 51
62.25326199999882
  0
ARC
  5
EF7C8A0E0
330
EF7C85532
100
AcDbEntity
  8
JISSEN
100
AcDbCircle
 10
432.1181632254654
 20
167.1354931605524
 30
0.0
 40
0.5
100
AcDbArc
 50
185.038927
 51
279.3495549999982
  0
LINE
  5
EF7C8A0E1
330
EF7C85532
100
AcDbEntity
  8
JISSEN
100
AcDbLine
 10
431.2416062254653
 20
166.3079231605524
 30
0.0
 11
432.6297052254654
 21
165.5777101605524
 31
0.0
  0
ARC
  5
EF7C8A0E2
330
EF7C85532
100
AcDbEntity
  8
JISSEN
100
AcDbCircle
 10
431.1141832254654
 20
165.6039521605524
 30
0.0
 40
0.05
100
AcDbArc
 50
270.0
 51
65.17459499999998
  0
LINE
  5
EF7C8A0E3
330
EF7C85532
100
AcDbEntity
  8
JISSEN
100
AcDbLine
 10
431.0405082254654
 20
165.5539521605525
 30
0.0
 11
431.1141832254654
 21
165.5539521605525
 31
0.0
  0
ARC
  5
EF7C8A0E4
330
EF7C85532
100
AcDbEntity
  8
JISSEN
100
AcDbCircle
 10
431.0405082254654
 20
166.5539521605525
 30
0.0
 40
1.0
100
AcDbArc
 50
245.1745949999999
 51
270.0
  0
ARC
  5
EF7C8A0E5
330
EF7C85532
100
AcDbEntity
  8
JISSEN
100
AcDbCircle
 10
432.5922142254653
 20
166.9514741605524
 30
0.0
 40
0.5
100
AcDbArc
 50
185.201559
 51
242.2532619999987
  0
ARC
  5
EF7C8A0E6
330
EF7C85532
100
AcDbEntity
  8
JISSEN
100
AcDbCircle
 10
432.8159312254654
 20
165.9317151605524
 30
0.0
 40
0.4
100
AcDbArc
 50
242.2532619999987
 51
270.0
  0
LINE
  5
EF7C8A0E7
330
EF7C85532
100
AcDbEntity
  8
JISSEN
100
AcDbLine
 10
433.8588072254654
 20
165.7202171605525
 30
0.0
 11
432.3594322254653
 21
166.5089671605525
 31
0.0
  0
LINE
  5
EF7C8A0E8
330
EF7C85532
100
AcDbEntity
  8
JISSEN
100
AcDbLine
 10
432.8159312254654
 20
165.5317151605524
 30
0.0
 11
433.8122502254655
 21
165.5317151605524
 31
0.0
  0
LINE
  5
EF7C8A0E9
330
EF7C85532
100
AcDbEntity
  8
JISSEN
100
AcDbLine
 10
438.9224472254654
 20
165.5317151605524
 30
0.0
 11
437.2068142254654
 21
165.5317151605524
 31
0.0
  0
LINE
  5
EF7C8A0EA
330
EF7C85532
100
AcDbEntity
  8
JISSEN
100
AcDbLine
 10
437.9905882254654
 20
166.5260241605525
 30
0.0
 11
439.0091832254654
 21
165.8040951605524
 31
0.0
  0
ARC
  5
EF7C8A0EB
330
EF7C85532
100
AcDbEntity
  8
JISSEN
100
AcDbCircle
 10
437.2068142254654
 20
165.8817151605525
 30
0.0
 40
0.35
100
AcDbArc
 50
234.6729320000021
 51
270.0
  0
ARC
  5
EF7C8A0EC
330
EF7C85532
100
AcDbEntity
  8
JISSEN
100
AcDbCircle
 10
438.2218852254655
 20
166.8523701605525
 30
0.0
 40
0.4
100
AcDbArc
 50
184.0179690000001
 51
234.6729320000021
  0
ARC
  5
EF7C8A0ED
330
EF7C85532
100
AcDbEntity
  8
JISSEN
100
AcDbCircle
 10
438.9224472254654
 20
165.6817151605524
 30
0.0
 40
0.15
100
AcDbArc
 50
270.0
 51
54.67293200000212
  0
ARC
  5
EF7C8A0EE
330
EF7C85532
100
AcDbEntity
  8
JISSEN
100
AcDbCircle
 10
436.6856312254653
 20
167.0354931605525
 30
0.0
 40
0.4
100
AcDbArc
 50
183.7443620000002
 51
270.0
  0
LINE
  5
EF7C8A0EF
330
EF7C85532
100
AcDbEntity
  8
JISSEN
100
AcDbLine
 10
437.0044292254654
 20
165.5961631605524
 30
0.0
 11
436.0013632254654
 21
166.3070851605525
 31
0.0
  0
LINE
  5
EF7C8A0F0
330
EF7C85532
100
AcDbEntity
  8
JISSEN
100
AcDbLine
 10
436.6856312254653
 20
166.6354931605525
 30
0.0
 11
437.8857832254655
 21
166.6354931605525
 31
0.0
  0
LINE
  5
EF7C8A0F1
330
EF7C85532
100
AcDbEntity
  8
JISSEN
100
AcDbLine
 10
435.4433102254654
 20
173.3285941605524
 30
0.0
 11
436.1932012254653
 21
173.3285941605524
 31
0.0
  0
ARC
  5
EF7C8A0F2
330
EF7C85532
100
AcDbEntity
  8
JISSEN
100
AcDbCircle
 10
436.1932012254653
 20
173.0285941605524
 30
0.0
 40
0.3
100
AcDbArc
 50
90.0
 51
183.7443620000002
  0
ARC
  5
EF7C8A0F3
330
EF7C85532
100
AcDbEntity
  8
JISSEN
100
AcDbCircle
 10
435.4433102254654
 20
172.9785941605524
 30
0.0
 40
0.35
100
AcDbArc
 50
90.0
 51
184.0179690000001
  0
ARC
  5
EF7C8A0F4
330
EF7C85532
100
AcDbEntity
  8
JISSEN
100
AcDbCircle
 10
431.2885682254655
 20
173.1285941605525
 30
0.0
 40
0.2
100
AcDbArc
 50
90.0
 51
185.038927
  0
ARC
  5
EF7C8A0F5
330
EF7C85532
100
AcDbEntity
  8
JISSEN
100
AcDbCircle
 10
431.3269882254653
 20
173.1285941605525
 30
0.0
 40
0.2
100
AcDbArc
 50
5.201558999999984
 51
90.0
  0
ARC
  5
EF7C8A0F6
330
EF7C85532
100
AcDbEntity
  8
JISSEN
100
AcDbCircle
 10
437.1795522254654
 20
173.1285941605525
 30
0.0
 40
0.2
100
AcDbArc
 50
4.017969000000171
 51
90.0
  0
LINE
  5
EF7C8A0F7
330
EF7C85532
100
AcDbEntity
  8
JISSEN
100
AcDbLine
 10
436.1932012254653
 20
173.3285941605524
 30
0.0
 11
437.1795522254654
 21
173.3285941605524
 31
0.0
  0
LINE
  5
EF7C8A0F8
330
EF7C85532
100
AcDbEntity
  8
JISSEN
100
AcDbLine
 10
425.5000822254653
 20
183.1785941605524
 30
0.0
 11
425.5000822254653
 21
175.8285941605524
 31
0.0
  0
LINE
  5
EF7C8A0F9
330
EF7C85532
100
AcDbEntity
  8
JISSEN
100
AcDbLine
 10
426.5000822254653
 20
174.8285941605525
 30
0.0
 11
427.4000822254654
 21
174.8285941605525
 31
0.0
  0
LINE
  5
EF7C8A0FA
330
EF7C85532
100
AcDbEntity
  8
JISSEN
100
AcDbLine
 10
425.5000822254653
 20
175.8285941605524
 30
0.0
 11
426.5000822254653
 21
174.8285941605525
 31
0.0
  0
LINE
  5
EF7C8A0FB
330
EF7C85532
100
AcDbEntity
  8
JISSEN
100
AcDbLine
 10
425.5000822254653
 20
183.1785941605524
 30
0.0
 11
425.6500822254654
 21
183.3285941605524
 31
0.0
  0
LINE
  5
EF7C8A0FC
330
EF7C85532
100
AcDbEntity
  8
JISSEN
100
AcDbLine
 10
272.499998552
 20
264.9999999999999
 30
0.0
 11
361.9999985519999
 21
264.9999999999999
 31
0.0
  0
TEXT
  5
EF7C8A0FD
330
EF7C85532
100
AcDbEntity
  8
TEXT
100
AcDbText
 10
346.6999985519999
 20
278.4999999999999
 30
0.0
 40
3.0
  1
備    考
  7
K
 72
     4
 11
353.4999985519999
 21
279.9999999999999
 31
0.0
100
AcDbText
  0
LINE
  5
EF7C8A0FE
330
EF7C85532
100
AcDbEntity
  8
JISSEN
100
AcDbLine
 10
272.499998552
 20
270.9999999999999
 30
0.0
 11
361.9999985519999
 21
270.9999999999999
 31
0.0
  0
LINE
  5
EF7C8A0FF
330
EF7C85532
100
AcDbEntity
  8
JISSEN
100
AcDbLine
 10
272.499998552
 20
276.9999999999999
 30
0.0
 11
361.9999985519999
 21
276.9999999999999
 31
0.0
  0
TEXT
  5
EF7C8A102
330
EF7C85532
100
AcDbEntity
  8
TEXT
100
AcDbText
 10
283.4085699805715
 20
272.642857142857
 30
0.0
 40
3.0
  1
MFQR   型ヘッド
 41
0.9
  7
K
 72
     4
 11
297.499998552
 21
273.9999999999999
 31
0.0
100
AcDbText
  0
TEXT
  5
EF7C8A103
330
EF7C85532
100
AcDbEntity
  8
TEXT
100
AcDbText
 10
337.6795470384093
 20
272.4999999999999
 30
0.0
 40
3.0
  1
1
  7
K
 72
     4
 11
338.893832752695
 21
273.9999999999999
 31
0.0
100
AcDbText
  0
TEXT
  5
EF7C8A104
330
EF7C85532
100
AcDbEntity
  8
TEXT
100
AcDbText
 10
276.2857128377143
 20
272.4999999999999
 30
0.0
 40
3.0
  1
1
  7
K
 72
     4
 11
277.499998552
 21
273.9999999999999
 31
0.0
100
AcDbText
  0
LINE
  5
EF7C8A105
330
EF7C85532
100
AcDbEntity
  8
JISSEN
100
AcDbLine
 10
344.4999985519999
 20
282.9999999999998
 30
0.0
 11
344.4999985519998
 21
264.9999999999999
 31
0.0
  0
LINE
  5
EF7C8A106
330
EF7C85532
100
AcDbEntity
  8
JISSEN
100
AcDbLine
 10
333.4999985519998
 20
264.9999999999999
 30
0.0
 11
333.499998552
 21
282.9999999999998
 31
0.0
  0
LINE
  5
EF7C8A107
330
EF7C85532
100
AcDbEntity
  8
JISSEN
100
AcDbLine
 10
312.4999985520001
 20
282.9999999999998
 30
0.0
 11
312.4999985519998
 21
264.9999999999999
 31
0.0
  0
LINE
  5
EF7C8A108
330
EF7C85532
100
AcDbEntity
  8
JISSEN
100
AcDbLine
 10
282.499998552
 20
282.9999999999998
 30
0.0
 11
282.499998552
 21
264.9999999999999
 31
0.0
  0
LINE
  5
EF7C8A109
330
EF7C85532
100
AcDbEntity
  8
JISSEN
100
AcDbLine
 10
272.4999985519998
 20
264.9999999999999
 30
0.0
 11
272.499998552
 21
282.9999999999998
 31
0.0
  0
TEXT
  5
EF7C8A10A
330
EF7C85532
100
AcDbEntity
  8
TEXT
100
AcDbText
 10
283.7478556948572
 20
266.4999999999999
 30
0.0
 40
3.0
  1
シーリングプレート MFJ
 41
0.65
  7
K
 72
     4
 11
297.499998552
 21
267.9999999999999
 31
0.0
100
AcDbText
  0
TEXT
  5
EF7C8A10B
330
EF7C85532
100
AcDbEntity
  8
TEXT
100
AcDbText
 10
276.3830709575344
 20
266.4999999999999
 30
0.0
 40
3.0
  1
2
  7
K
 72
     4
 11
277.8116423861058
 21
267.9999999999999
 31
0.0
100
AcDbText
  0
TEXT
  5
EF7C8A10D
330
EF7C85532
100
AcDbEntity
  8
TEXT
100
AcDbText
 10
319.9999985519998
 20
266.4999999999999
 30
0.0
 40
3.0
  1
PE
  7
K
 72
     4
 11
322.9999985519998
 21
267.9999999999999
 31
0.0
100
AcDbText
  0
TEXT
  5
EF7C8A10E
330
EF7C85532
100
AcDbEntity
  8
TEXT
100
AcDbText
 10
317.8249985519998
 20
274.2999999999999
 30
0.0
 40
3.0
  1
%%u      
  7
K
 72
     4
 11
322.9999985519998
 21
273.9999999999999
 31
0.0
100
AcDbText
  0
TEXT
  5
EF7C8A10F
330
EF7C85532
100
AcDbEntity
  8
TEXT
100
AcDbText
 10
337.6795470384093
 20
266.580835176341
 30
0.0
 40
3.0
  1
1
  7
K
 72
     4
 11
338.893832752695
 21
268.0808351763409
 31
0.0
100
AcDbText
  0
TEXT
  5
EF7C8A110
330
EF7C85532
100
AcDbEntity
  8
TEXT
100
AcDbText
 10
288.899998552
 20
278.4999999999999
 30
0.0
 40
3.0
  1
名      称
  7
K
 72
     4
 11
297.499998552
 21
279.9999999999999
 31
0.0
100
AcDbText
  0
TEXT
  5
EF7C8A111
330
EF7C85532
100
AcDbEntity
  8
TEXT
100
AcDbText
 10
274.299998552
 20
278.4999999999999
 30
0.0
 40
3.0
  1
番号
  7
K
 72
     4
 11
277.499998552
 21
279.9999999999999
 31
0.0
100
AcDbText
  0
TEXT
  5
EF7C8A113
330
EF7C85532
100
AcDbEntity
  8
TEXT
100
AcDbText
 10
316.199998552
 20
278.4999999999999
 30
0.0
 40
3.0
  1
材    質
  7
K
 72
     4
 11
322.9999985520001
 21
279.9999999999999
 31
0.0
100
AcDbText
  0
TEXT
  5
EF7C8A114
330
EF7C85532
100
AcDbEntity
  8
TEXT
100
AcDbText
 10
335.7999985520001
 20
278.4999999999999
 30
0.0
 40
3.0
  1
個数
  7
K
 72
     4
 11
338.999998552
 21
279.9999999999999
 31
0.0
100
AcDbText
  0
TEXT
  5
EF7C8A115
330
EF7C85532
100
AcDbEntity
  8
SUNPOU
100
AcDbText
 10
506.2551961714732
 20
149.3494238986851
 30
0.0
 40
3.0
  1
MFQR   作動状態
  7
K
100
AcDbText
  0
LWPOLYLINE
  5
EF7C8A116
330
EF7C85532
100
AcDbEntity
  8
HATCH
100
AcDbPolyline
 90
       13
 70
     0
 43
0.0
 10
520.7336677765747
 20
188.3285941605524
 10
520.5690805983249
 20
187.5089570823205
 10
520.4271752416444
 20
186.9923391055561
 10
520.1994666044968
 20
186.5739128188684
 10
519.8915791178373
 20
186.2357957952014
 10
519.5253558288577
 20
185.9455447225513
 10
519.1226397847493
 20
185.6707162889138
 10
518.7052740327024
 20
185.3788671822847
 10
518.2951016199085
 20
185.0375540906601
 10
517.9139655935586
 20
184.6143337020356
 10
517.5837090008444
 20
184.0767627044075
 10
517.3091289376416
 20
183.4131439171199
 10
517.2759047431449
 20
183.3285941605524
  0
LINE
  5
EF7C8A117
330
EF7C85532
100
AcDbEntity
  8
SAISEN
100
AcDbLine
 10
461.4593152254654
 20
185.5693611605524
 30
0.0
 11
460.9668153787319
 21
201.328594160556
 31
0.0
  0
LINE
  5
EF7C8A118
330
EF7C85532
100
AcDbEntity
  8
JISSEN
100
AcDbLine
 10
462.1652269468301
 20
200.1634485158831
 30
0.0
 11
462.6588012254654
 21
184.3698751605524
 31
0.0
  0
LINE
  5
EF7C8A119
330
EF7C85532
100
AcDbEntity
  8
JISSEN
100
AcDbLine
 10
441.8349375041007
 20
200.1634485158831
 30
0.0
 11
441.3413632254653
 21
184.3698751605524
 31
0.0
  0
LINE
  5
EF7C8A11A
330
EF7C85532
100
AcDbEntity
  8
SAISEN
100
AcDbLine
 10
442.5408492254653
 20
185.5693611605524
 30
0.0
 11
443.0333490721986
 21
201.328594160556
 31
0.0
  0
LINE
  5
EF7C8A11B
330
EF7C85532
100
AcDbEntity
  8
JISSEN
100
AcDbLine
 10
469.5000822254653
 20
188.3285941605524
 30
0.0
 11
469.5000822254653
 21
183.3285941605524
 31
0.0
  0
LINE
  5
EF7C8A11C
330
EF7C85532
100
AcDbEntity
  8
SUNPOU
100
AcDbLine
 10
470.7919865466861
 20
163.9969598090681
 30
0.0
 11
485.053016702556
 21
154.3883435355808
 31
0.0
  0
LINE
  5
EF7C8A11D
330
EF7C85532
100
AcDbEntity
  8
JISSEN
100
AcDbLine
 10
462.5975881424142
 20
183.3285941605524
 30
0.0
 11
517.2759047431449
 21
183.3285941605524
 31
0.0
  0
LINE
  5
EF7C8A11E
330
EF7C85532
100
AcDbEntity
  8
JISSEN
100
AcDbLine
 10
466.529285242067
 20
161.992711838213
 30
0.0
 11
475.0546878513048
 21
166.0012077799235
 31
0.0
1001
ACAD
1000
ASC_BOUNDS
1002
{
1070
    19
1002
}
  0
INSERT
  5
EF7C8A11F
330
EF7C85532
100
AcDbEntity
  8
SUNPOU
100
AcDbBlockReference
  2
ARROW
 10
470.7919865466858
 20
163.9969598090681
 30
0.0
 41
1.499999999999983
 42
1.5
 43
1.5
 50
146.0291974830129
  0
LINE
  5
EF7C8A120
330
EF7C85532
100
AcDbEntity
  8
JISSEN
100
AcDbLine
 10
459.5000822254673
 20
151.2427118382134
 30
0.0
 11
463.6750822254676
 21
151.2427118382134
 31
0.0
  0
LINE
  5
EF7C8A121
330
EF7C85532
100
AcDbEntity
  8
JISSEN
100
AcDbLine
 10
452.0000822254685
 20
160.2427118382129
 30
0.0
 11
464.5500822254684
 21
160.2427118382134
 31
0.0
1001
ACAD
1000
ASC_BOUNDS
1002
{
1070
    19
1002
}
  0
LINE
  5
EF7C8A122
330
EF7C85532
100
AcDbEntity
  8
JISSEN
100
AcDbLine
 10
452.0000822254655
 20
161.9927118382131
 30
0.0
 11
466.529285242067
 21
161.992711838213
 31
0.0
1001
ACAD
1000
ASC_BOUNDS
1002
{
1070
    19
1002
}
  0
LINE
  5
EF7C8A123
330
EF7C85532
100
AcDbEntity
  8
JISSEN
100
AcDbLine
 10
458.4616206870059
 20
160.2427118382133
 30
0.0
 11
459.5000822254673
 21
151.2427118382134
 31
0.0
  0
LINE
  5
EF7C8A124
330
EF7C85532
100
AcDbEntity
  8
JISSEN
100
AcDbLine
 10
445.5385437639288
 20
160.2427118382133
 30
0.0
 11
444.5000822254674
 21
151.2427118382134
 31
0.0
  0
LINE
  5
EF7C8A125
330
EF7C85532
100
AcDbEntity
  8
JISSEN
100
AcDbLine
 10
463.6750822254676
 20
160.2427118382134
 30
0.0
 11
463.6750822254676
 21
151.2427118382134
 31
0.0
  0
LINE
  5
EF7C8A126
330
EF7C85532
100
AcDbEntity
  8
JISSEN
100
AcDbLine
 10
464.7500822254685
 20
161.992711838213
 30
0.0
 11
464.7500822254685
 21
160.4427118382121
 31
0.0
1001
ACAD
1000
ASC_BOUNDS
1002
{
1070
    19
1002
}
  0
ARC
  5
EF7C8A127
330
EF7C85532
100
AcDbEntity
  8
JISSEN
100
AcDbCircle
 10
464.5500822254684
 20
160.4427118382133
 30
0.0
 40
0.2
100
AcDbArc
 50
270.0
 51
359.9999999999991
1001
ACAD
1000
ASC_BOUNDS
1002
{
1070
    19
1002
}
  0
LINE
  5
EF7C8A128
330
EF7C85532
100
AcDbEntity
  8
SAISEN
100
AcDbLine
 10
462.6588012254654
 20
184.3698751605524
 30
0.0
 11
461.4593152254654
 21
185.5693611605524
 31
0.0
  0
LINE
  5
EF7C8A129
330
EF7C85532
100
AcDbEntity
  8
JISSEN
100
AcDbLine
 10
452.0000822254655
 20
185.5693611605524
 30
0.0
 11
462.6213152254654
 21
185.5693611605524
 31
0.0
  0
LINE
  5
EF7C8A12A
330
EF7C85532
100
AcDbEntity
  8
JISSEN
100
AcDbLine
 10
478.3500822254652
 20
183.3285941605524
 30
0.0
 11
452.0000822254655
 21
183.3285941605524
 31
0.0
  0
LINE
  5
EF7C8A12B
330
EF7C85532
100
AcDbEntity
  8
JISSEN
100
AcDbLine
 10
477.5000822254653
 20
174.8285941605525
 30
0.0
 11
452.0000822254655
 21
174.8285941605525
 31
0.0
  0
LINE
  5
EF7C8A12C
330
EF7C85532
100
AcDbEntity
  8
JISSEN
100
AcDbLine
 10
478.5000822254653
 20
175.8285941605524
 30
0.0
 11
453.0000822254653
 21
175.8285941605524
 31
0.0
  0
LINE
  5
EF7C8A12D
330
EF7C85532
100
AcDbEntity
  8
JISSEN
100
AcDbLine
 10
453.0000822254653
 20
182.8285941605524
 30
0.0
 11
478.5000822254653
 21
182.8285941605524
 31
0.0
  0
ARC
  5
EF7C8A12E
330
EF7C85532
100
AcDbEntity
  8
JISSEN
100
AcDbCircle
 10
452.0000822254655
 20
175.8285941605524
 30
0.0
 40
1.0
100
AcDbArc
 50
270.0
 51
0.000000000000007
  0
ARC
  5
EF7C8A12F
330
EF7C85532
100
AcDbEntity
  8
JISSEN
100
AcDbCircle
 10
452.0000822254655
 20
175.8285941605524
 30
0.0
 40
1.0
100
AcDbArc
 50
180.0
 51
270.0
  0
LINE
  5
EF7C8A130
330
EF7C85532
100
AcDbEntity
  8
JISSEN
100
AcDbLine
 10
452.0000822254655
 20
165.5317151605524
 30
0.0
 11
451.0000822254653
 21
165.5317151605524
 31
0.0
  0
LINE
  5
EF7C8A131
330
EF7C85532
100
AcDbEntity
  8
JISSEN
100
AcDbLine
 10
451.0000822254653
 20
166.6354931605525
 30
0.0
 11
452.0000822254655
 21
166.6354931605525
 31
0.0
  0
LINE
  5
EF7C8A132
330
EF7C85532
100
AcDbEntity
  8
JISSEN
100
AcDbLine
 10
452.0000822254655
 20
173.3285941605524
 30
0.0
 11
451.0000822254653
 21
173.3285941605524
 31
0.0
  0
LINE
  5
EF7C8A133
330
EF7C85532
100
AcDbEntity
  8
JISSEN
100
AcDbLine
 10
445.2582292254653
 20
166.7293181605525
 30
0.0
 11
445.0187772254653
 21
173.1360641605524
 31
0.0
  0
LINE
  5
EF7C8A134
330
EF7C85532
100
AcDbEntity
  8
JISSEN
100
AcDbLine
 10
450.5000822254653
 20
172.8285941605524
 30
0.0
 11
450.5000822254653
 21
166.0317151605525
 31
0.0
  0
LINE
  5
EF7C8A135
330
EF7C85532
100
AcDbEntity
  8
JISSEN
100
AcDbLine
 10
442.2041352254654
 20
173.0173891605524
 30
0.0
 11
442.4309692254653
 21
166.9482411605525
 31
0.0
  0
LINE
  5
EF7C8A136
330
EF7C85532
100
AcDbEntity
  8
JISSEN
100
AcDbLine
 10
442.6298772254654
 20
173.0698931605524
 30
0.0
 11
442.8438552254654
 21
166.9250531605525
 31
0.0
  0
LINE
  5
EF7C8A137
330
EF7C85532
100
AcDbEntity
  8
JISSEN
100
AcDbLine
 10
445.8500952254653
 20
165.8517921605525
 30
0.0
 11
445.3181052254653
 21
166.5604081605525
 31
0.0
  0
ARC
  5
EF7C8A138
330
EF7C85532
100
AcDbEntity
  8
JISSEN
100
AcDbCircle
 10
445.6901522254654
 20
165.7317151605525
 30
0.0
 40
0.2
100
AcDbArc
 50
270.0
 51
36.8971619999989
  0
ARC
  5
EF7C8A139
330
EF7C85532
100
AcDbEntity
  8
JISSEN
100
AcDbCircle
 10
445.5580202254655
 20
166.7405221605525
 30
0.0
 40
0.3
100
AcDbArc
 50
182.1404319999997
 51
216.8971619999989
  0
ARC
  5
EF7C8A13A
330
EF7C85532
100
AcDbEntity
  8
JISSEN
100
AcDbCircle
 10
443.4302712254653
 20
166.9855901605524
 30
0.0
 40
1.0
100
AcDbArc
 50
182.1404319999997
 51
216.8971619999989
  0
ARC
  5
EF7C8A13B
330
EF7C85532
100
AcDbEntity
  8
JISSEN
100
AcDbCircle
 10
443.4212232254654
 20
165.8317151605525
 30
0.0
 40
0.3
100
AcDbArc
 50
216.8971619999989
 51
270.0
  0
LINE
  5
EF7C8A13C
330
EF7C85532
100
AcDbEntity
  8
JISSEN
100
AcDbLine
 10
442.6305572254655
 20
166.3852091605525
 30
0.0
 11
443.1813082254655
 21
165.6516011605525
 31
0.0
  0
ARC
  5
EF7C8A13D
330
EF7C85532
100
AcDbEntity
  8
JISSEN
100
AcDbCircle
 10
443.1436732254653
 20
166.9354931605525
 30
0.0
 40
0.3
100
AcDbArc
 50
181.994368
 51
270.0
  0
LINE
  5
EF7C8A13E
330
EF7C85532
100
AcDbEntity
  8
JISSEN
100
AcDbLine
 10
443.4212232254654
 20
165.5317151605524
 30
0.0
 11
445.6901522254654
 21
165.5317151605524
 31
0.0
  0
LINE
  5
EF7C8A13F
330
EF7C85532
100
AcDbEntity
  8
JISSEN
100
AcDbLine
 10
443.1436732254653
 20
166.6354931605525
 30
0.0
 11
445.2770062254653
 21
166.6354931605525
 31
0.0
  0
ARC
  5
EF7C8A140
330
EF7C85532
100
AcDbEntity
  8
JISSEN
100
AcDbCircle
 10
451.0000822254653
 20
167.1354931605524
 30
0.0
 40
0.5
100
AcDbArc
 50
180.0
 51
270.0
  0
ARC
  5
EF7C8A141
330
EF7C85532
100
AcDbEntity
  8
JISSEN
100
AcDbCircle
 10
451.0000822254653
 20
166.0317151605525
 30
0.0
 40
0.5
100
AcDbArc
 50
180.0
 51
270.0
  0
ARC
  5
EF7C8A142
330
EF7C85532
100
AcDbEntity
  8
JISSEN
100
AcDbCircle
 10
444.8189162254655
 20
173.1285941605525
 30
0.0
 40
0.2
100
AcDbArc
 50
2.140431999999805
 51
90.0
  0
ARC
  5
EF7C8A143
330
EF7C85532
100
AcDbEntity
  8
JISSEN
100
AcDbCircle
 10
442.5039252254653
 20
173.0285941605524
 30
0.0
 40
0.3
100
AcDbArc
 50
90.0
 51
182.1404319999997
  0
ARC
  5
EF7C8A144
330
EF7C85532
100
AcDbEntity
  8
JISSEN
100
AcDbCircle
 10
442.8797252254653
 20
173.0785941605524
 30
0.0
 40
0.25
100
AcDbArc
 50
90.0
 51
181.994368
  0
LINE
  5
EF7C8A145
330
EF7C85532
100
AcDbEntity
  8
JISSEN
100
AcDbLine
 10
444.8189162254655
 20
173.3285941605524
 30
0.0
 11
442.5039252254653
 21
173.3285941605524
 31
0.0
  0
ARC
  5
EF7C8A146
330
EF7C85532
100
AcDbEntity
  8
JISSEN
100
AcDbCircle
 10
451.0000822254653
 20
172.8285941605524
 30
0.0
 40
0.5
100
AcDbArc
 50
90.0
 51
180.0
  0
LINE
  5
EF7C8A147
330
EF7C85532
100
AcDbEntity
  8
JISSEN
100
AcDbLine
 10
458.7419352254653
 20
166.7293181605525
 30
0.0
 11
458.9813872254653
 21
173.1360641605524
 31
0.0
  0
LINE
  5
EF7C8A148
330
EF7C85532
100
AcDbEntity
  8
JISSEN
100
AcDbLine
 10
461.3702872254653
 20
173.0698931605524
 30
0.0
 11
461.1563092254653
 21
166.9250531605525
 31
0.0
  0
LINE
  5
EF7C8A149
330
EF7C85532
100
AcDbEntity
  8
JISSEN
100
AcDbLine
 10
461.7960292254654
 20
173.0173891605524
 30
0.0
 11
461.5691952254653
 21
166.9482411605525
 31
0.0
  0
LINE
  5
EF7C8A14A
330
EF7C85532
100
AcDbEntity
  8
JISSEN
100
AcDbLine
 10
453.5000822254653
 20
172.8285941605524
 30
0.0
 11
453.5000822254653
 21
166.0317151605525
 31
0.0
  0
LINE
  5
EF7C8A14B
330
EF7C85532
100
AcDbEntity
  8
JISSEN
100
AcDbLine
 10
453.0000822254653
 20
166.6354931605525
 30
0.0
 11
452.0000822254655
 21
166.6354931605525
 31
0.0
  0
LINE
  5
EF7C8A14C
330
EF7C85532
100
AcDbEntity
  8
JISSEN
100
AcDbLine
 10
452.0000822254655
 20
165.5317151605524
 30
0.0
 11
453.0000822254653
 21
165.5317151605524
 31
0.0
  0
ARC
  5
EF7C8A14D
330
EF7C85532
100
AcDbEntity
  8
JISSEN
100
AcDbCircle
 10
453.0000822254653
 20
166.0317151605525
 30
0.0
 40
0.5
100
AcDbArc
 50
270.0
 51
0.000000000000007
  0
ARC
  5
EF7C8A14E
330
EF7C85532
100
AcDbEntity
  8
JISSEN
100
AcDbCircle
 10
453.0000822254653
 20
167.1354931605524
 30
0.0
 40
0.5
100
AcDbArc
 50
270.0
 51
0.000000000000007
  0
LINE
  5
EF7C8A14F
330
EF7C85532
100
AcDbEntity
  8
JISSEN
100
AcDbLine
 10
460.8564912254653
 20
166.6354931605525
 30
0.0
 11
458.7231582254653
 21
166.6354931605525
 31
0.0
  0
LINE
  5
EF7C8A150
330
EF7C85532
100
AcDbEntity
  8
JISSEN
100
AcDbLine
 10
460.5789412254653
 20
165.5317151605524
 30
0.0
 11
458.3100122254655
 21
165.5317151605524
 31
0.0
  0
ARC
  5
EF7C8A151
330
EF7C85532
100
AcDbEntity
  8
JISSEN
100
AcDbCircle
 10
458.4421442254654
 20
166.7405221605525
 30
0.0
 40
0.3
100
AcDbArc
 50
323.1028380000011
 51
357.859568
  0
LINE
  5
EF7C8A152
330
EF7C85532
100
AcDbEntity
  8
JISSEN
100
AcDbLine
 10
458.1500692254653
 20
165.8517921605525
 30
0.0
 11
458.6820592254652
 21
166.5604081605525
 31
0.0
  0
ARC
  5
EF7C8A153
330
EF7C85532
100
AcDbEntity
  8
JISSEN
100
AcDbCircle
 10
460.8564912254653
 20
166.9354931605525
 30
0.0
 40
0.3
100
AcDbArc
 50
270.0
 51
358.0056319999998
  0
LINE
  5
EF7C8A154
330
EF7C85532
100
AcDbEntity
  8
JISSEN
100
AcDbLine
 10
461.3696072254652
 20
166.3852091605525
 30
0.0
 11
460.8188562254654
 21
165.6516011605525
 31
0.0
  0
ARC
  5
EF7C8A155
330
EF7C85532
100
AcDbEntity
  8
JISSEN
100
AcDbCircle
 10
460.5789412254653
 20
165.8317151605525
 30
0.0
 40
0.3
100
AcDbArc
 50
270.0
 51
323.1028380000011
  0
ARC
  5
EF7C8A156
330
EF7C85532
100
AcDbEntity
  8
JISSEN
100
AcDbCircle
 10
460.5698932254654
 20
166.9855901605524
 30
0.0
 40
1.0
100
AcDbArc
 50
323.1028380000011
 51
357.859568
  0
ARC
  5
EF7C8A157
330
EF7C85532
100
AcDbEntity
  8
JISSEN
100
AcDbCircle
 10
458.3100122254655
 20
165.7317151605525
 30
0.0
 40
0.2
100
AcDbArc
 50
143.102838000001
 51
270.0
  0
LINE
  5
EF7C8A158
330
EF7C85532
100
AcDbEntity
  8
JISSEN
100
AcDbLine
 10
452.0000822254655
 20
173.3285941605524
 30
0.0
 11
453.0000822254653
 21
173.3285941605524
 31
0.0
  0
ARC
  5
EF7C8A159
330
EF7C85532
100
AcDbEntity
  8
JISSEN
100
AcDbCircle
 10
453.0000822254653
 20
172.8285941605524
 30
0.0
 40
0.5
100
AcDbArc
 50
0.000000000000007
 51
90.0
  0
LINE
  5
EF7C8A15A
330
EF7C85532
100
AcDbEntity
  8
JISSEN
100
AcDbLine
 10
459.1812482254653
 20
173.3285941605524
 30
0.0
 11
461.4962392254653
 21
173.3285941605524
 31
0.0
  0
ARC
  5
EF7C8A15B
330
EF7C85532
100
AcDbEntity
  8
JISSEN
100
AcDbCircle
 10
459.1812482254653
 20
173.1285941605525
 30
0.0
 40
0.2
100
AcDbArc
 50
90.0
 51
177.8595680000001
  0
ARC
  5
EF7C8A15C
330
EF7C85532
100
AcDbEntity
  8
JISSEN
100
AcDbCircle
 10
461.1204392254653
 20
173.0785941605524
 30
0.0
 40
0.25
100
AcDbArc
 50
358.0056319999998
 51
90.0
  0
ARC
  5
EF7C8A15D
330
EF7C85532
100
AcDbEntity
  8
JISSEN
100
AcDbCircle
 10
461.4962392254653
 20
173.0285941605524
 30
0.0
 40
0.3
100
AcDbArc
 50
357.859568
 51
90.0
  0
ARC
  5
EF7C8A15E
330
EF7C85532
100
AcDbEntity
  8
JISSEN
100
AcDbCircle
 10
452.0000822254655
 20
182.0785941605524
 30
0.0
 40
1.25
100
AcDbArc
 50
90.0
 51
143.1301019999993
  0
LINE
  5
EF7C8A15F
330
EF7C85532
100
AcDbEntity
  8
JISSEN
100
AcDbLine
 10
452.0000822254655
 20
185.5693611605524
 30
0.0
 11
441.3788492254655
 21
185.5693611605524
 31
0.0
  0
LINE
  5
EF7C8A160
330
EF7C85532
100
AcDbEntity
  8
JISSEN
100
AcDbLine
 10
451.0000822254653
 20
182.8285941605524
 30
0.0
 11
451.0000822254653
 21
175.8285941605524
 31
0.0
  0
LINE
  5
EF7C8A161
330
EF7C85532
100
AcDbEntity
  8
SAISEN
100
AcDbLine
 10
441.3413632254653
 20
184.3698751605524
 30
0.0
 11
442.5408492254653
 21
185.5693611605524
 31
0.0
  0
LINE
  5
EF7C8A162
330
EF7C85532
100
AcDbEntity
  8
JISSEN
100
AcDbLine
 10
453.0000822254653
 20
182.8285941605524
 30
0.0
 11
453.0000822254653
 21
175.8285941605524
 31
0.0
  0
ARC
  5
EF7C8A163
330
EF7C85532
100
AcDbEntity
  8
JISSEN
100
AcDbCircle
 10
452.0000822254655
 20
182.0785941605524
 30
0.0
 40
1.25
100
AcDbArc
 50
36.86989800000062
 51
90.0
  0
LINE
  5
EF7C8A164
330
EF7C85532
100
AcDbEntity
  8
JISSEN
100
AcDbLine
 10
476.6000822254652
 20
174.8285941605525
 30
0.0
 11
476.4688492254654
 21
173.3285941605524
 31
0.0
  0
LINE
  5
EF7C8A165
330
EF7C85532
100
AcDbEntity
  8
JISSEN
100
AcDbLine
 10
472.6731762254653
 20
173.3285941605524
 30
0.0
 11
473.5750232254654
 21
173.3285941605524
 31
0.0
  0
LINE
  5
EF7C8A166
330
EF7C85532
100
AcDbEntity
  8
JISSEN
100
AcDbLine
 10
472.8649892254652
 20
165.6493311605524
 30
0.0
 11
474.3768482254654
 21
166.3487221605525
 31
0.0
  0
ARC
  5
EF7C8A167
330
EF7C85532
100
AcDbEntity
  8
JISSEN
100
AcDbCircle
 10
472.1533252254653
 20
167.4584421605525
 30
0.0
 40
1.3
100
AcDbArc
 50
297.7467380000011
 51
354.5938149999994
  0
ARC
  5
EF7C8A168
330
EF7C85532
100
AcDbEntity
  8
JISSEN
100
AcDbCircle
 10
472.9596562254653
 20
166.5539521605525
 30
0.0
 40
1.0
100
AcDbArc
 50
270.0
 51
294.825405
  0
LINE
  5
EF7C8A169
330
EF7C85532
100
AcDbEntity
  8
JISSEN
100
AcDbLine
 10
472.9108232254652
 20
173.1110271605524
 30
0.0
 11
472.3800692254654
 21
167.0915771605525
 31
0.0
  0
LINE
  5
EF7C8A16A
330
EF7C85532
100
AcDbEntity
  8
JISSEN
100
AcDbLine
 10
466.6211032254652
 20
173.1426081605524
 30
0.0
 11
466.1772962254653
 21
166.8243421605525
 31
0.0
  0
LINE
  5
EF7C8A16B
330
EF7C85532
100
AcDbEntity
  8
JISSEN
100
AcDbLine
 10
468.1063222254654
 20
173.0090021605524
 30
0.0
 11
467.7136792254652
 21
167.0093711605525
 31
0.0
  0
LINE
  5
EF7C8A16C
330
EF7C85532
100
AcDbEntity
  8
JISSEN
100
AcDbLine
 10
468.5019592254652
 20
167.2020391605524
 30
0.0
 11
468.9059932254654
 21
172.9540691605524
 31
0.0
  0
LINE
  5
EF7C8A16D
330
EF7C85532
100
AcDbEntity
  8
JISSEN
100
AcDbLine
 10
471.9058912254654
 20
166.9061441605525
 30
0.0
 11
472.4739992254654
 21
173.1467261605524
 31
0.0
  0
LINE
  5
EF7C8A16E
330
EF7C85532
100
AcDbEntity
  8
JISSEN
100
AcDbLine
 10
466.9957352254654
 20
165.5961631605524
 30
0.0
 11
467.9988012254653
 21
166.3070851605525
 31
0.0
  0
ARC
  5
EF7C8A16F
330
EF7C85532
100
AcDbEntity
  8
JISSEN
100
AcDbCircle
 10
467.3145332254653
 20
167.0354931605525
 30
0.0
 40
0.4
100
AcDbArc
 50
270.0
 51
356.2556379999997
  0
LINE
  5
EF7C8A170
330
EF7C85532
100
AcDbEntity
  8
JISSEN
100
AcDbLine
 10
467.3145332254653
 20
166.6354931605525
 30
0.0
 11
466.1143812254654
 21
166.6354931605525
 31
0.0
  0
ARC
  5
EF7C8A171
330
EF7C85532
100
AcDbEntity
  8
JISSEN
100
AcDbCircle
 10
465.7782792254654
 20
166.8523701605525
 30
0.0
 40
0.4
100
AcDbArc
 50
305.3270679999978
 51
355.9820309999998
  0
ARC
  5
EF7C8A172
330
EF7C85532
100
AcDbEntity
  8
JISSEN
100
AcDbCircle
 10
466.7933502254654
 20
165.8817151605525
 30
0.0
 40
0.35
100
AcDbArc
 50
270.0
 51
305.3270679999978
  0
ARC
  5
EF7C8A173
330
EF7C85532
100
AcDbEntity
  8
JISSEN
100
AcDbCircle
 10
465.0777172254654
 20
165.6817151605524
 30
0.0
 40
0.15
100
AcDbArc
 50
125.3270679999978
 51
270.0
  0
LINE
  5
EF7C8A174
330
EF7C85532
100
AcDbEntity
  8
JISSEN
100
AcDbLine
 10
466.0095762254655
 20
166.5260241605525
 30
0.0
 11
464.9909812254654
 21
165.8040951605524
 31
0.0
  0
LINE
  5
EF7C8A175
330
EF7C85532
100
AcDbEntity
  8
JISSEN
100
AcDbLine
 10
465.0777172254654
 20
165.5317151605524
 30
0.0
 11
466.7933502254654
 21
165.5317151605524
 31
0.0
  0
LINE
  5
EF7C8A176
330
EF7C85532
100
AcDbEntity
  8
JISSEN
100
AcDbLine
 10
472.9596562254653
 20
165.5539521605525
 30
0.0
 11
472.8859812254654
 21
165.5539521605525
 31
0.0
  0
ARC
  5
EF7C8A177
330
EF7C85532
100
AcDbEntity
  8
JISSEN
100
AcDbCircle
 10
472.8859812254654
 20
165.6039521605524
 30
0.0
 40
0.05
100
AcDbArc
 50
114.825405
 51
270.0
  0
ARC
  5
EF7C8A178
330
EF7C85532
100
AcDbEntity
  8
JISSEN
100
AcDbCircle
 10
470.1879142254654
 20
165.6317151605524
 30
0.0
 40
0.1
100
AcDbArc
 50
117.7467380000011
 51
270.0
  0
ARC
  5
EF7C8A179
330
EF7C85532
100
AcDbEntity
  8
JISSEN
100
AcDbCircle
 10
471.1842332254652
 20
165.9317151605524
 30
0.0
 40
0.4
100
AcDbArc
 50
270.0
 51
297.7467380000011
  0
ARC
  5
EF7C8A17A
330
EF7C85532
100
AcDbEntity
  8
JISSEN
100
AcDbCircle
 10
471.4079502254653
 20
166.9514741605524
 30
0.0
 40
0.5
100
AcDbArc
 50
297.7467380000011
 51
354.7984410000001
  0
LINE
  5
EF7C8A17B
330
EF7C85532
100
AcDbEntity
  8
JISSEN
100
AcDbLine
 10
471.1842332254652
 20
165.5317151605524
 30
0.0
 11
470.1879142254654
 21
165.5317151605524
 31
0.0
  0
LINE
  5
EF7C8A17C
330
EF7C85532
100
AcDbEntity
  8
JISSEN
100
AcDbLine
 10
470.1413572254653
 20
165.7202171605525
 30
0.0
 11
471.6407322254654
 21
166.5089671605525
 31
0.0
  0
ARC
  5
EF7C8A17D
330
EF7C85532
100
AcDbEntity
  8
JISSEN
100
AcDbCircle
 10
467.3049092254655
 20
167.2861221605525
 30
0.0
 40
1.199999999999999
100
AcDbArc
 50
305.3270679999978
 51
355.9820309999998
  0
LINE
  5
EF7C8A17E
330
EF7C85532
100
AcDbEntity
  8
JISSEN
100
AcDbLine
 10
472.7585582254653
 20
166.3079231605524
 30
0.0
 11
471.3704592254653
 21
165.5777101605524
 31
0.0
  0
ARC
  5
EF7C8A17F
330
EF7C85532
100
AcDbEntity
  8
JISSEN
100
AcDbCircle
 10
471.8820012254655
 20
167.1354931605524
 30
0.0
 40
0.5
100
AcDbArc
 50
260.6504450000016
 51
354.9610729999997
  0
LINE
  5
EF7C8A180
330
EF7C85532
100
AcDbEntity
  8
JISSEN
100
AcDbLine
 10
467.8069632254653
 20
173.3285941605524
 30
0.0
 11
466.8206122254653
 21
173.3285941605524
 31
0.0
  0
ARC
  5
EF7C8A181
330
EF7C85532
100
AcDbEntity
  8
JISSEN
100
AcDbCircle
 10
466.8206122254653
 20
173.1285941605525
 30
0.0
 40
0.2
100
AcDbArc
 50
90.0
 51
175.9820309999997
  0
ARC
  5
EF7C8A182
330
EF7C85532
100
AcDbEntity
  8
JISSEN
100
AcDbCircle
 10
472.6731762254653
 20
173.1285941605525
 30
0.0
 40
0.2
100
AcDbArc
 50
90.0
 51
174.7984409999998
  0
ARC
  5
EF7C8A183
330
EF7C85532
100
AcDbEntity
  8
JISSEN
100
AcDbCircle
 10
472.7115962254654
 20
173.1285941605525
 30
0.0
 40
0.2
100
AcDbArc
 50
354.9610729999997
 51
90.0
  0
ARC
  5
EF7C8A184
330
EF7C85532
100
AcDbEntity
  8
JISSEN
100
AcDbCircle
 10
467.8069632254653
 20
173.0285941605524
 30
0.0
 40
0.3
100
AcDbArc
 50
356.2556379999997
 51
90.0
  0
LINE
  5
EF7C8A185
330
EF7C85532
100
AcDbEntity
  8
JISSEN
100
AcDbLine
 10
468.5568542254652
 20
173.3285941605524
 30
0.0
 11
467.8069632254653
 21
173.3285941605524
 31
0.0
  0
ARC
  5
EF7C8A186
330
EF7C85532
100
AcDbEntity
  8
JISSEN
100
AcDbCircle
 10
468.5568542254652
 20
172.9785941605524
 30
0.0
 40
0.35
100
AcDbArc
 50
355.9820309999998
 51
90.0
  0
LINE
  5
EF7C8A187
330
EF7C85532
100
AcDbEntity
  8
JISSEN
100
AcDbLine
 10
473.9732442254653
 20
172.8909071605524
 30
0.0
 11
473.4475422254654
 21
167.3359611605524
 31
0.0
  0
LINE
  5
EF7C8A188
330
EF7C85532
100
AcDbEntity
  8
JISSEN
100
AcDbLine
 10
476.4688492254654
 20
173.3285941605524
 30
0.0
 11
475.9484952254654
 21
167.3809171605525
 31
0.0
  0
LINE
  5
EF7C8A189
330
EF7C85532
100
AcDbEntity
  8
JISSEN
100
AcDbLine
 10
476.2384062254652
 20
172.9080301605524
 30
0.0
 11
475.6505762254653
 21
167.4457811605525
 31
0.0
  0
LINE
  5
EF7C8A18A
330
EF7C85532
100
AcDbEntity
  8
JISSEN
100
AcDbLine
 10
475.1235732254654
 20
167.3894921605524
 30
0.0
 11
475.7555042254653
 21
173.2615301605525
 31
0.0
  0
LINE
  5
EF7C8A18B
330
EF7C85532
100
AcDbEntity
  8
JISSEN
100
AcDbLine
 10
474.8464092254653
 20
166.3249521605524
 30
0.0
 11
473.3795112254654
 21
165.6463601605524
 31
0.0
  0
ARC
  5
EF7C8A18C
330
EF7C85532
100
AcDbEntity
  8
JISSEN
100
AcDbCircle
 10
474.2586132254655
 20
167.5955801605525
 30
0.0
 40
1.399999999999999
100
AcDbArc
 50
294.825405
 51
353.8576429999996
  0
ARC
  5
EF7C8A18D
330
EF7C85532
100
AcDbEntity
  8
JISSEN
100
AcDbCircle
 10
473.8310372254654
 20
167.5285911605525
 30
0.0
 40
1.3
100
AcDbArc
 50
294.825405
 51
353.8576429999996
  0
ARC
  5
EF7C8A18E
330
EF7C85532
100
AcDbEntity
  8
JISSEN
100
AcDbCircle
 10
474.4542028959281
 20
167.3757687346891
 30
0.0
 40
1.5
100
AcDbArc
 50
289.9999999999969
 51
354.9999999999998
  0
ARC
  5
EF7C8A18F
330
EF7C85532
100
AcDbEntity
  8
JISSEN
100
AcDbCircle
 10
475.8407032254654
 20
172.9508301605524
 30
0.0
 40
0.4
100
AcDbArc
 50
353.8576429999996
 51
88.64114499999931
  0
ARC
  5
EF7C8A190
330
EF7C85532
100
AcDbEntity
  8
JISSEN
100
AcDbCircle
 10
473.5750232254654
 20
172.9285941605524
 30
0.0
 40
0.4
100
AcDbArc
 50
354.5938149999994
 51
90.0
  0
ARC
  5
EF7C8A191
330
EF7C85532
100
AcDbEntity
  8
JISSEN
100
AcDbCircle
 10
475.8549302254655
 20
173.2508301605524
 30
0.0
 40
0.1
100
AcDbArc
 50
92.71790199999978
 51
173.8576429999997
  0
LINE
  5
EF7C8A192
330
EF7C85532
100
AcDbEntity
  8
JISSEN
100
AcDbLine
 10
463.7000822254654
 20
183.3285941605524
 30
0.0
 11
462.6588012254654
 21
184.3698751605524
 31
0.0
  0
LINE
  5
EF7C8A193
330
EF7C85532
100
AcDbEntity
  8
JISSEN
100
AcDbLine
 10
478.5000822254653
 20
183.1785941605524
 30
0.0
 11
478.5000822254653
 21
175.8285941605524
 31
0.0
  0
LINE
  5
EF7C8A194
330
EF7C85532
100
AcDbEntity
  8
JISSEN
100
AcDbLine
 10
478.5000822254653
 20
175.8285941605524
 30
0.0
 11
477.5000822254653
 21
174.8285941605525
 31
0.0
  0
LINE
  5
EF7C8A195
330
EF7C85532
100
AcDbEntity
  8
JISSEN
100
AcDbLine
 10
477.5000822254653
 20
174.8285941605525
 30
0.0
 11
476.6000822254652
 21
174.8285941605525
 31
0.0
  0
LINE
  5
EF7C8A196
330
EF7C85532
100
AcDbEntity
  8
JISSEN
100
AcDbLine
 10
478.5000822254653
 20
183.1785941605524
 30
0.0
 11
478.3500822254652
 21
183.3285941605524
 31
0.0
  0
TEXT
  5
EF7C8A197
330
EF7C85532
100
AcDbEntity
  8
SUNPOU
100
AcDbText
 10
488.2075226826112
 20
148.7857213768291
 30
0.0
 40
4.5
  1
1
  7
K
 72
     4
 11
490.0289512540398
 21
151.0357213768291
 31
0.0
100
AcDbText
  0
CIRCLE
  5
EF7C8A198
330
EF7C85532
100
AcDbEntity
  8
SUNPOU
100
AcDbCircle
 10
490.0289512540398
 20
151.0357213768291
 30
0.0
 40
6.0
  0
TEXT
  5
EF7C8A199
330
EF7C85532
100
AcDbEntity
  8
SUNPOU
100
AcDbText
 10
506.2551961714732
 20
144.3494238986851
 30
0.0
 40
3.0
  1
尺度　1/1
  7
K
100
AcDbText
  0
LINE
  5
EF7C8A19E
330
EF7C85532
100
AcDbEntity
  8
JISSEN
100
AcDbLine
 10
520.7336677765747
 20
188.3285941605524
 30
0.0
 11
462.5350849624776
 21
188.3285941605524
 31
0.0
  0
LINE
  5
EF7C8A19F
330
EF7C85532
100
AcDbEntity
  8
JISSEN
100
AcDbLine
 10
443.0000822254653
 20
201.3285941605561
 30
0.0
 11
452.0000822254655
 21
201.328594160556
 31
0.0
  0
LINE
  5
EF7C8A1A0
330
EF7C85532
100
AcDbEntity
  8
JISSEN
100
AcDbLine
 10
441.7381582254654
 20
200.0666691605561
 30
0.0
 11
452.0000822254655
 21
200.0666691605561
 31
0.0
  0
LINE
  5
EF7C8A1A1
330
EF7C85532
100
AcDbEntity
  8
JISSEN
100
AcDbLine
 10
441.7381582254654
 20
200.0666691605561
 30
0.0
 11
443.0000822254653
 21
201.3285941605561
 31
0.0
  0
LINE
  5
EF7C8A1A2
330
EF7C85532
100
AcDbEntity
  8
JISSEN
100
AcDbLine
 10
462.2620062254652
 20
200.0666691605561
 30
0.0
 11
452.0000822254655
 21
200.0666691605561
 31
0.0
  0
LINE
  5
EF7C8A1A3
330
EF7C85532
100
AcDbEntity
  8
JISSEN
100
AcDbLine
 10
461.0000822254654
 20
201.3285941605561
 30
0.0
 11
452.0000822254655
 21
201.328594160556
 31
0.0
  0
LINE
  5
EF7C8A1A4
330
EF7C85532
100
AcDbEntity
  8
JISSEN
100
AcDbLine
 10
462.2620062254652
 20
200.0666691605561
 30
0.0
 11
461.0000822254654
 21
201.3285941605561
 31
0.0
  0
LINE
  5
EF7C8A1A5
330
EF7C85532
100
AcDbEntity
  8
JISSEN
100
AcDbLine
 10
453.4999980634493
 20
276.9999999999999
 30
0.0
 11
542.9999980634493
 21
276.9999999999999
 31
0.0
  0
LINE
  5
EF7C8A1A6
330
EF7C85532
100
AcDbEntity
  8
JISSEN
100
AcDbLine
 10
453.4999980634493
 20
270.9999999999999
 30
0.0
 11
542.9999980634493
 21
270.9999999999999
 31
0.0
  0
LINE
  5
EF7C8A1A7
330
EF7C85532
100
AcDbEntity
  8
JISSEN
100
AcDbLine
 10
453.4999980634493
 20
264.9999999999999
 30
0.0
 11
542.9999980634493
 21
264.9999999999999
 31
0.0
  0
LINE
  5
EF7C8A1A8
330
EF7C85532
100
AcDbEntity
  8
JISSEN
100
AcDbLine
 10
493.4999980634493
 20
282.9999999999998
 30
0.0
 11
493.4999980634493
 21
264.9999999999999
 31
0.0
  0
LINE
  5
EF7C8A1A9
330
EF7C85532
100
AcDbEntity
  8
JISSEN
100
AcDbLine
 10
514.4999980634493
 20
264.9999999999999
 30
0.0
 11
514.4999980634493
 21
282.9999999999998
 31
0.0
  0
LINE
  5
EF7C8A1AA
330
EF7C85532
100
AcDbEntity
  8
JISSEN
100
AcDbLine
 10
525.4999980634493
 20
282.9999999999998
 30
0.0
 11
525.4999980634493
 21
264.9999999999999
 31
0.0
  0
TEXT
  5
EF7C8A1AB
330
EF7C85532
100
AcDbEntity
  8
TEXT
100
AcDbText
 10
518.6795465498586
 20
272.4999999999999
 30
0.0
 40
3.0
  1
1
  7
K
 72
     4
 11
519.8938322641443
 21
273.9999999999999
 31
0.0
100
AcDbText
  0
LINE
  5
EF7C8A1AC
330
EF7C85532
100
AcDbEntity
  8
JISSEN
100
AcDbLine
 10
453.4999980634493
 20
264.9999999999999
 30
0.0
 11
453.4999980634493
 21
282.9999999999998
 31
0.0
  0
LINE
  5
EF7C8A1AD
330
EF7C85532
100
AcDbEntity
  8
JISSEN
100
AcDbLine
 10
463.4999980634493
 20
282.9999999999998
 30
0.0
 11
463.4999980634493
 21
264.9999999999999
 31
0.0
  0
TEXT
  5
EF7C8A1AE
330
EF7C85532
100
AcDbEntity
  8
TEXT
100
AcDbText
 10
457.2857123491636
 20
272.4999999999999
 30
0.0
 40
3.0
  1
1
  7
K
 72
     4
 11
458.4999980634493
 21
273.9999999999999
 31
0.0
100
AcDbText
  0
TEXT
  5
EF7C8A1B1
330
EF7C85532
100
AcDbEntity
  8
TEXT
100
AcDbText
 10
464.4085694920207
 20
272.642857142857
 30
0.0
 40
3.0
  1
MFQR   型ヘッド
 41
0.9
  7
K
 72
     4
 11
478.4999980634493
 21
273.9999999999999
 31
0.0
100
AcDbText
  0
TEXT
  5
EF7C8A1B2
330
EF7C85532
100
AcDbEntity
  8
TEXT
100
AcDbText
 10
464.7478552063064
 20
266.4999999999999
 30
0.0
 40
3.0
  1
シーリングプレート MFJ
 41
0.65
  7
K
 72
     4
 11
478.4999980634493
 21
267.9999999999999
 31
0.0
100
AcDbText
  0
LWPOLYLINE
  5
EF7C8A1B3
330
EF7C85532
100
AcDbEntity
  8
NITEN
100
AcDbPolyline
 90
        2
 70
     0
 43
0.0
 10
468.9999987874493
 20
252.2768607174258
 42
0.5882352941176295
 10
451.9999987874491
 20
252.2768607174261
 42
0.5882352941176295
  0
TEXT
  5
EF7C8A1B4
330
EF7C85532
100
AcDbEntity
  8
TEXT
100
AcDbText
 10
457.3830704689836
 20
266.4999999999999
 30
0.0
 40
3.0
  1
2
  7
K
 72
     4
 11
458.8116418975551
 21
267.9999999999999
 31
0.0
100
AcDbText
  0
TEXT
  5
EF7C8A1B6
330
EF7C85532
100
AcDbEntity
  8
TEXT
100
AcDbText
 10
500.9999980634493
 20
266.4999999999999
 30
0.0
 40
3.0
  1
PE
  7
K
 72
     4
 11
503.9999980634493
 21
267.9999999999999
 31
0.0
100
AcDbText
  0
TEXT
  5
EF7C8A1B7
330
EF7C85532
100
AcDbEntity
  8
TEXT
100
AcDbText
 10
498.8249980634493
 20
274.2999999999999
 30
0.0
 40
3.0
  1
%%u      
  7
K
 72
     4
 11
503.9999980634493
 21
273.9999999999999
 31
0.0
100
AcDbText
  0
TEXT
  5
EF7C8A1B8
330
EF7C85532
100
AcDbEntity
  8
TEXT
100
AcDbText
 10
518.6795465498586
 20
266.580835176341
 30
0.0
 40
3.0
  1
1
  7
K
 72
     4
 11
519.8938322641443
 21
268.0808351763409
 31
0.0
100
AcDbText
  0
TEXT
  5
EF7C8A1B9
330
EF7C85532
100
AcDbEntity
  8
TEXT
100
AcDbText
 10
469.8999980634493
 20
278.4999999999999
 30
0.0
 40
3.0
  1
名      称
  7
K
 72
     4
 11
478.4999980634493
 21
279.9999999999999
 31
0.0
100
AcDbText
  0
TEXT
  5
EF7C8A1BA
330
EF7C85532
100
AcDbEntity
  8
TEXT
100
AcDbText
 10
455.2999980634493
 20
278.4999999999999
 30
0.0
 40
3.0
  1
番号
  7
K
 72
     4
 11
458.4999980634493
 21
279.9999999999999
 31
0.0
100
AcDbText
  0
TEXT
  5
EF7C8A1BC
330
EF7C85532
100
AcDbEntity
  8
TEXT
100
AcDbText
 10
497.1999980634492
 20
278.4999999999999
 30
0.0
 40
3.0
  1
材    質
  7
K
 72
     4
 11
503.9999980634493
 21
279.9999999999999
 31
0.0
100
AcDbText
  0
TEXT
  5
EF7C8A1BD
330
EF7C85532
100
AcDbEntity
  8
TEXT
100
AcDbText
 10
516.7999980634492
 20
278.4999999999999
 30
0.0
 40
3.0
  1
個数
  7
K
 72
     4
 11
519.9999980634493
 21
279.9999999999999
 31
0.0
100
AcDbText
  0
TEXT
  5
EF7C8A1BE
330
EF7C85532
100
AcDbEntity
  8
TEXT
100
AcDbText
 10
527.6999980634493
 20
278.4999999999999
 30
0.0
 40
3.0
  1
備    考
  7
K
 72
     4
 11
534.4999980634493
 21
279.9999999999999
 31
0.0
100
AcDbText
  0
LINE
  5
EF7C8A1C0
330
EF7C85532
100
AcDbEntity
  8
TEXT
100
AcDbLine
 10
488.0556703188847
 20
9.663751587663284
 30
0.0
 11
490.2556703188848
 21
9.663751587663284
 31
0.0
  0
LINE
  5
EF7C8A1C1
330
EF7C85532
100
AcDbEntity
  8
TEXT
100
AcDbLine
 10
488.0556703188847
 20
6.663751587663284
 30
0.0
 11
490.2556703188848
 21
6.663751587663284
 31
0.0
  0
LINE
  5
EF7C8A1C2
330
EF7C85532
100
AcDbEntity
  8
TEXT
100
AcDbLine
 10
489.1556703188848
 20
9.663751587663284
 30
0.0
 11
489.1556703188848
 21
6.663751587663284
 31
0.0
  0
LINE
  5
EF7C8A1C3
330
EF7C85532
100
AcDbEntity
  8
TEXT
100
AcDbLine
 10
488.6056703188846
 20
9.663751587663284
 30
0.0
 11
488.6056703188846
 21
6.663751587663284
 31
0.0
  0
LINE
  5
EF7C8A1C4
330
EF7C85532
100
AcDbEntity
  8
TEXT
100
AcDbLine
 10
489.7056703188845
 20
9.663751587663284
 30
0.0
 11
489.7056703188845
 21
6.663751587663284
 31
0.0
  0
LINE
  5
EF7C8A1C5
330
EF7C85532
100
AcDbEntity
  8
TEXT
100
AcDbLine
 10
307.0556705719861
 20
9.663751587663284
 30
0.0
 11
309.2556705719859
 21
9.663751587663284
 31
0.0
  0
LINE
  5
EF7C8A1C6
330
EF7C85532
100
AcDbEntity
  8
TEXT
100
AcDbLine
 10
307.0556705719861
 20
6.663751587663284
 30
0.0
 11
309.2556705719859
 21
6.663751587663284
 31
0.0
  0
LINE
  5
EF7C8A1C7
330
EF7C85532
100
AcDbEntity
  8
TEXT
100
AcDbLine
 10
308.1556705719861
 20
9.663751587663284
 30
0.0
 11
308.1556705719861
 21
6.663751587663284
 31
0.0
  0
LINE
  5
EF7C8A1C8
330
EF7C85532
100
AcDbEntity
  8
TEXT
100
AcDbLine
 10
307.6056705719859
 20
9.663751587663284
 30
0.0
 11
307.6056705719859
 21
6.663751587663284
 31
0.0
  0
LINE
  5
EF7C8A1C9
330
EF7C85532
100
AcDbEntity
  8
TEXT
100
AcDbLine
 10
308.7056705719859
 20
9.663751587663284
 30
0.0
 11
308.7056705719859
 21
6.663751587663284
 31
0.0
  0
ENDSEC
  0
SECTION
  2
OBJECTS
  0
DICTIONARY
  5
EF7C85527
330
0
100
AcDbDictionary
  3
ACAD_GROUP
350
EF7C85528
  3
ACAD_LAYOUT
350
EF7C85BB7
  3
ACAD_MLINESTYLE
350
EF7C85535
  3
ACAD_PLOTSETTINGS
350
EF7C85BB8
  3
ACAD_PLOTSTYLENAME
350
EF7C85BB5
  3
ACDBHEADERROUNDTRIPXREC
350
EF7C8A1CC
  3
ACDBVARIABLEDICTIONARY
350
EF7C85DB7
  0
DICTIONARY
  5
EF7C88ACB
330
EF7C8551D
100
AcDbDictionary
280
     1
  3
ACAD_LAYERSTATES
360
EF7C88ACC
  0
DICTIONARY
  5
EF7C85D9A
330
EF7C85532
100
AcDbDictionary
280
     1
  3
ACAD_LAYOUTSELFREF
360
EF7C8A1EE
  0
DICTIONARY
  5
EF7C85D98
330
EF7C8552F
100
AcDbDictionary
280
     1
  3
ACAD_LAYOUTSELFREF
360
EF7C8A1ED
  0
DICTIONARY
  5
EF7C85528
102
{ACAD_REACTORS
330
EF7C85527
102
}
330
EF7C85527
100
AcDbDictionary
  0
DICTIONARY
  5
EF7C85BB7
102
{ACAD_REACTORS
330
EF7C85527
102
}
330
EF7C85527
100
AcDbDictionary
  0
DICTIONARY
  5
EF7C85535
102
{ACAD_REACTORS
330
EF7C85527
102
}
330
EF7C85527
100
AcDbDictionary
  3
STANDARD
350
EF7C85536
  0
DICTIONARY
  5
EF7C85BB8
102
{ACAD_REACTORS
330
EF7C85527
102
}
330
EF7C85527
100
AcDbDictionary
  0
ACDBDICTIONARYWDFLT
  5
EF7C85BB5
102
{ACAD_REACTORS
330
EF7C85527
102
}
330
EF7C85527
100
AcDbDictionary
281
     1
  3
Normal
350
EF7C85BB6
100
AcDbDictionaryWithDefault
340
EF7C85BB6
  0
DICTIONARY
  5
EF7C8A1CC
102
{ACAD_REACTORS
330
EF7C85527
102
}
330
EF7C85527
100
AcDbDictionary
  3
CEPSNTYPE
350
EF7C8A1D6
  3
DIMSTYLEDATA
350
EF7C8A1DA
  3
FINGERPRINTGUID
350
EF7C8A1D7
  3
HYPERLINKBASE
350
EF7C8A1CF
  3
INSUNITS
350
EF7C8A1D5
  3
LAYOUTDICT
350
EF7C8A1D1
  3
LWETCUNION
350
EF7C8A1D4
  3
PLOTSETDICT
350
EF7C8A1D2
  3
PLOTSTYLNAMDICT
350
EF7C8A1D3
  3
PSVPSCALE
350
EF7C8A1D9
  3
PUCSBASE
350
EF7C8A1DD
  3
PUCSORGBACK
350
EF7C8A1E3
  3
PUCSORGBOTTOM
350
EF7C8A1DF
  3
PUCSORGFRONT
350
EF7C8A1E2
  3
PUCSORGLEFT
350
EF7C8A1E0
  3
PUCSORGRIGHT
350
EF7C8A1E1
  3
PUCSORGTOP
350
EF7C8A1DE
  3
PUCSORTHOREF
350
EF7C8A1DB
  3
PUCSORTHOVIEW
350
EF7C8A1DC
  3
STYLESHEET
350
EF7C8A1D0
  3
TSTACKALIGN
350
EF7C8A1CD
  3
TSTACKSIZE
350
EF7C8A1CE
  3
UCSBASE
350
EF7C8A1E6
  3
UCSORGBACK
350
EF7C8A1EC
  3
UCSORGBOTTOM
350
EF7C8A1E8
  3
UCSORGFRONT
350
EF7C8A1EB
  3
UCSORGLEFT
350
EF7C8A1E9
  3
UCSORGRIGHT
350
EF7C8A1EA
  3
UCSORGTOP
350
EF7C8A1E7
  3
UCSORTHOREF
350
EF7C8A1E4
  3
UCSORTHOVIEW
350
EF7C8A1E5
  3
VERSIONGUID
350
EF7C8A1D8
  0
DICTIONARY
  5
EF7C85DB7
102
{ACAD_REACTORS
330
EF7C85527
102
}
330
EF7C85527
100
AcDbDictionary
  3
DIMASSOC
350
EF7C88A9E
  3
SORTENTS
350
EF7C85DB8
  0
DICTIONARY
  5
EF7C88ACC
102
{ACAD_REACTORS
330
EF7C88ACB
102
}
330
EF7C88ACB
100
AcDbDictionary
  0
XRECORD
  5
EF7C8A1EE
102
{ACAD_REACTORS
330
EF7C85D9A
102
}
330
EF7C85D9A
100
AcDbXrecord
340
EF7C85532
  0
XRECORD
  5
EF7C8A1ED
102
{ACAD_REACTORS
330
EF7C85D98
102
}
330
EF7C85D98
100
AcDbXrecord
340
EF7C8552F
  0
MLINESTYLE
  5
EF7C85536
102
{ACAD_REACTORS
330
EF7C85535
102
}
330
EF7C85535
100
AcDbMlineStyle
  2
STANDARD
 70
     0
  3

 62
   256
 51
90.0
 52
90.0
 71
     2
 49
0.5
 62
   256
  6
BYLAYER
 49
-0.5
 62
   256
  6
BYLAYER
  0
ACDBPLACEHOLDER
  5
EF7C85BB6
102
{ACAD_REACTORS
330
EF7C85BB5
102
}
330
EF7C85BB5
100
AcDbPlaceHolder
280
     0
  0
XRECORD
  5
EF7C8A1D6
102
{ACAD_REACTORS
330
EF7C8A1CC
102
}
330
EF7C8A1CC
100
AcDbXrecord
 90
        0
  0
XRECORD
  5
EF7C8A1DA
102
{ACAD_REACTORS
330
EF7C8A1CC
102
}
330
EF7C8A1CC
100
AcDbXrecord
1000
DSTYLE
1002
{
1070
   341
340
EF7C85537
1070
   342
340
EF7C85537
1070
   343
340
EF7C85543
1070
   344
340
EF7C85543
1002
}
  0
XRECORD
  5
EF7C8A1D7
102
{ACAD_REACTORS
330
EF7C8A1CC
102
}
330
EF7C8A1CC
100
AcDbXrecord
  1
{09AA4C7A-3D6F-4857-A850-771461888CEC}
  0
XRECORD
  5
EF7C8A1CF
102
{ACAD_REACTORS
330
EF7C8A1CC
102
}
330
EF7C8A1CC
100
AcDbXrecord
  1

  0
XRECORD
  5
EF7C8A1D5
102
{ACAD_REACTORS
330
EF7C8A1CC
102
}
330
EF7C8A1CC
100
AcDbXrecord
 90
        0
  0
XRECORD
  5
EF7C8A1D1
102
{ACAD_REACTORS
330
EF7C8A1CC
102
}
330
EF7C8A1CC
100
AcDbXrecord
340
EF7C85BB7
  0
XRECORD
  5
EF7C8A1D4
102
{ACAD_REACTORS
330
EF7C8A1CC
102
}
330
EF7C8A1CC
100
AcDbXrecord
 90
    14877
  0
XRECORD
  5
EF7C8A1D2
102
{ACAD_REACTORS
330
EF7C8A1CC
102
}
330
EF7C8A1CC
100
AcDbXrecord
340
EF7C85BB8
  0
XRECORD
  5
EF7C8A1D3
102
{ACAD_REACTORS
330
EF7C8A1CC
102
}
330
EF7C8A1CC
100
AcDbXrecord
340
EF7C85BB5
  0
XRECORD
  5
EF7C8A1D9
102
{ACAD_REACTORS
330
EF7C8A1CC
102
}
330
EF7C8A1CC
100
AcDbXrecord
 40
0.0
  0
XRECORD
  5
EF7C8A1DD
102
{ACAD_REACTORS
330
EF7C8A1CC
102
}
330
EF7C8A1CC
100
AcDbXrecord
340
0
  0
XRECORD
  5
EF7C8A1E3
102
{ACAD_REACTORS
330
EF7C8A1CC
102
}
330
EF7C8A1CC
100
AcDbXrecord
 10
0.0
 20
0.0
 30
0.0
  0
XRECORD
  5
EF7C8A1DF
102
{ACAD_REACTORS
330
EF7C8A1CC
102
}
330
EF7C8A1CC
100
AcDbXrecord
 10
0.0
 20
0.0
 30
0.0
  0
XRECORD
  5
EF7C8A1E2
102
{ACAD_REACTORS
330
EF7C8A1CC
102
}
330
EF7C8A1CC
100
AcDbXrecord
 10
0.0
 20
0.0
 30
0.0
  0
XRECORD
  5
EF7C8A1E0
102
{ACAD_REACTORS
330
EF7C8A1CC
102
}
330
EF7C8A1CC
100
AcDbXrecord
 10
0.0
 20
0.0
 30
0.0
  0
XRECORD
  5
EF7C8A1E1
102
{ACAD_REACTORS
330
EF7C8A1CC
102
}
330
EF7C8A1CC
100
AcDbXrecord
 10
0.0
 20
0.0
 30
0.0
  0
XRECORD
  5
EF7C8A1DE
102
{ACAD_REACTORS
330
EF7C8A1CC
102
}
330
EF7C8A1CC
100
AcDbXrecord
 10
0.0
 20
0.0
 30
0.0
  0
XRECORD
  5
EF7C8A1DB
102
{ACAD_REACTORS
330
EF7C8A1CC
102
}
330
EF7C8A1CC
100
AcDbXrecord
340
0
  0
XRECORD
  5
EF7C8A1DC
102
{ACAD_REACTORS
330
EF7C8A1CC
102
}
330
EF7C8A1CC
100
AcDbXrecord
 70
     0
  0
XRECORD
  5
EF7C8A1D0
102
{ACAD_REACTORS
330
EF7C8A1CC
102
}
330
EF7C8A1CC
100
AcDbXrecord
  1

  0
XRECORD
  5
EF7C8A1CD
102
{ACAD_REACTORS
330
EF7C8A1CC
102
}
330
EF7C8A1CC
100
AcDbXrecord
 90
        1
  0
XRECORD
  5
EF7C8A1CE
102
{ACAD_REACTORS
330
EF7C8A1CC
102
}
330
EF7C8A1CC
100
AcDbXrecord
 90
       70
  0
XRECORD
  5
EF7C8A1E6
102
{ACAD_REACTORS
330
EF7C8A1CC
102
}
330
EF7C8A1CC
100
AcDbXrecord
340
0
  0
XRECORD
  5
EF7C8A1EC
102
{ACAD_REACTORS
330
EF7C8A1CC
102
}
330
EF7C8A1CC
100
AcDbXrecord
 10
0.0
 20
0.0
 30
0.0
  0
XRECORD
  5
EF7C8A1E8
102
{ACAD_REACTORS
330
EF7C8A1CC
102
}
330
EF7C8A1CC
100
AcDbXrecord
 10
0.0
 20
0.0
 30
0.0
  0
XRECORD
  5
EF7C8A1EB
102
{ACAD_REACTORS
330
EF7C8A1CC
102
}
330
EF7C8A1CC
100
AcDbXrecord
 10
0.0
 20
0.0
 30
0.0
  0
XRECORD
  5
EF7C8A1E9
102
{ACAD_REACTORS
330
EF7C8A1CC
102
}
330
EF7C8A1CC
100
AcDbXrecord
 10
0.0
 20
0.0
 30
0.0
  0
XRECORD
  5
EF7C8A1EA
102
{ACAD_REACTORS
330
EF7C8A1CC
102
}
330
EF7C8A1CC
100
AcDbXrecord
 10
0.0
 20
0.0
 30
0.0
  0
XRECORD
  5
EF7C8A1E7
102
{ACAD_REACTORS
330
EF7C8A1CC
102
}
330
EF7C8A1CC
100
AcDbXrecord
 10
0.0
 20
0.0
 30
0.0
  0
XRECORD
  5
EF7C8A1E4
102
{ACAD_REACTORS
330
EF7C8A1CC
102
}
330
EF7C8A1CC
100
AcDbXrecord
340
0
  0
XRECORD
  5
EF7C8A1E5
102
{ACAD_REACTORS
330
EF7C8A1CC
102
}
330
EF7C8A1CC
100
AcDbXrecord
 70
     0
  0
XRECORD
  5
EF7C8A1D8
102
{ACAD_REACTORS
330
EF7C8A1CC
102
}
330
EF7C8A1CC
100
AcDbXrecord
  1
{AADF550C-3B5F-47BD-B3F2-0E4011B0D194}
  0
DICTIONARYVAR
  5
EF7C88A9E
102
{ACAD_REACTORS
330
EF7C85DB7
102
}
330
EF7C85DB7
100
DictionaryVariables
280
     0
  1
0
  0
DICTIONARYVAR
  5
EF7C85DB8
102
{ACAD_REACTORS
330
EF7C85DB7
102
}
330
EF7C85DB7
100
DictionaryVariables
280
     0
  1
96
  0
ENDSEC
  0
EOF
