  0
SECTION
  2
HEADER
  9
$ACADVER
  1
AC1014
  9
$ACADMAINTVER
 70
     9
  9
$DWGCODEPAGE
  3
ANSI_932
  9
$INSBASE
 10
0.0
 20
0.0
 30
0.0
  9
$EXTMIN
 10
-0.0220937150322698
 20
-0.0172721585058753
 30
-0.0000000349181948
  9
$EXTMAX
 10
543.0165704322055
 20
283.017274794229
 30
0.0000000814935747
  9
$LIMMIN
 10
0.0
 20
0.0
  9
$LIMMAX
 10
181.0
 20
283.0
  9
$ORTHOMODE
 70
     1
  9
$REGENMODE
 70
     1
  9
$FILLMODE
 70
     1
  9
$QTEXTMODE
 70
     0
  9
$MIRRTEXT
 70
     0
  9
$DRAGMODE
 70
     2
  9
$LTSCALE
 40
5.0
  9
$OSMODE
 70
   167
  9
$ATTMODE
 70
     1
  9
$TEXTSIZE
 40
3.0
  9
$TRACEWID
 40
0.05
  9
$TEXTSTYLE
  7
BIGFONT
  9
$CLAYER
  8
JISSEN
  9
$CELTYPE
  6
BYLAYER
  9
$CECOLOR
 62
   256
  9
$CELTSCALE
 40
1.0
  9
$DELOBJ
 70
     1
  9
$DISPSILH
 70
     0
  9
$DIMSCALE
 40
1.0
  9
$DIMASZ
 40
1.5
  9
$DIMEXO
 40
1.0
  9
$DIMDLI
 40
6.0
  9
$DIMRND
 40
0.0
  9
$DIMDLE
 40
0.0
  9
$DIMEXE
 40
1.0
  9
$DIMTP
 40
0.0
  9
$DIMTM
 40
0.0
  9
$DIMTXT
 40
3.0
  9
$DIMCEN
 40
1.0
  9
$DIMTSZ
 40
0.0
  9
$DIMTOL
 70
     0
  9
$DIMLIM
 70
     0
  9
$DIMTIH
 70
     0
  9
$DIMTOH
 70
     0
  9
$DIMSE1
 70
     0
  9
$DIMSE2
 70
     0
  9
$DIMTAD
 70
     0
  9
$DIMZIN
 70
     8
  9
$DIMBLK
  1
ARROW
  9
$DIMASO
 70
     0
  9
$DIMSHO
 70
     0
  9
$DIMPOST
  1

  9
$DIMAPOST
  1

  9
$DIMALT
 70
     0
  9
$DIMALTD
 70
     2
  9
$DIMALTF
 40
25.4
  9
$DIMLFAC
 40
1.0
  9
$DIMTOFL
 70
     1
  9
$DIMTVP
 40
0.0
  9
$DIMTIX
 70
     0
  9
$DIMSOXD
 70
     0
  9
$DIMSAH
 70
     0
  9
$DIMBLK1
  1
ARROWANG
  9
$DIMBLK2
  1
ARROWANG
  9
$DIMSTYLE
  2
IMAO
  9
$DIMCLRD
 70
     0
  9
$DIMCLRE
 70
     0
  9
$DIMCLRT
 70
     0
  9
$DIMTFAC
 40
1.0
  9
$DIMGAP
 40
0.09
  9
$DIMJUST
 70
     0
  9
$DIMSD1
 70
     0
  9
$DIMSD2
 70
     0
  9
$DIMTOLJ
 70
     1
  9
$DIMTZIN
 70
     8
  9
$DIMALTZ
 70
     8
  9
$DIMALTTZ
 70
     8
  9
$DIMFIT
 70
     3
  9
$DIMUPT
 70
     0
  9
$DIMUNIT
 70
     2
  9
$DIMDEC
 70
     2
  9
$DIMTDEC
 70
     2
  9
$DIMALTU
 70
     2
  9
$DIMALTTD
 70
     2
  9
$DIMTXSTY
  7
BIGFONT
  9
$DIMAUNIT
 70
     0
  9
$LUNITS
 70
     2
  9
$LUPREC
 70
     2
  9
$SKETCHINC
 40
0.1
  9
$FILLETRAD
 40
0.0
  9
$AUNITS
 70
     0
  9
$AUPREC
 70
     2
  9
$MENU
  1
stdr12j
  9
$ELEVATION
 40
0.0
  9
$PELEVATION
 40
0.0
  9
$THICKNESS
 40
0.0
  9
$LIMCHECK
 70
     0
  9
$BLIPMODE
 70
     0
  9
$CHAMFERA
 40
0.0
  9
$CHAMFERB
 40
0.0
  9
$CHAMFERC
 40
0.0
  9
$CHAMFERD
 40
0.0
  9
$SKPOLY
 70
     0
  9
$TDCREATE
 40
2450617.453041203
  9
$TDUPDATE
 40
2453614.670291018
  9
$TDINDWG
 40
0.1191746181
  9
$TDUSRTIMER
 40
0.1191746181
  9
$USRTIMER
 70
     1
  9
$ANGBASE
 50
0.0
  9
$ANGDIR
 70
     0
  9
$PDMODE
 70
     0
  9
$PDSIZE
 40
0.0
  9
$PLINEWID
 40
0.0
  9
$COORDS
 70
     2
  9
$SPLFRAME
 70
     0
  9
$SPLINETYPE
 70
     6
  9
$SPLINESEGS
 70
     8
  9
$ATTDIA
 70
     0
  9
$ATTREQ
 70
     1
  9
$HANDLING
 70
 22529
  9
$HANDSEED
  5
EF7C87B7B
  9
$SURFTAB1
 70
     6
  9
$SURFTAB2
 70
     6
  9
$SURFTYPE
 70
     6
  9
$SURFU
 70
     6
  9
$SURFV
 70
     6
  9
$UCSNAME
  2

  9
$UCSORG
 10
0.0
 20
0.0
 30
0.0
  9
$UCSXDIR
 10
1.0
 20
0.0
 30
0.0
  9
$UCSYDIR
 10
0.0
 20
1.0
 30
0.0
  9
$PUCSNAME
  2

  9
$PUCSORG
 10
0.0
 20
0.0
 30
0.0
  9
$PUCSXDIR
 10
1.0
 20
0.0
 30
0.0
  9
$PUCSYDIR
 10
0.0
 20
1.0
 30
0.0
  9
$USERI1
 70
     0
  9
$USERI2
 70
     1
  9
$USERI3
 70
     1
  9
$USERI4
 70
     3
  9
$USERI5
 70
     0
  9
$USERR1
 40
1.0
  9
$USERR2
 40
3.0
  9
$USERR3
 40
3.0
  9
$USERR4
 40
1.5
  9
$USERR5
 40
8.0
  9
$WORLDVIEW
 70
     1
  9
$SHADEDGE
 70
     3
  9
$SHADEDIF
 70
    70
  9
$TILEMODE
 70
     1
  9
$MAXACTVP
 70
    16
  9
$PINSBASE
 10
0.0
 20
0.0
 30
0.0
  9
$PLIMCHECK
 70
     0
  9
$PEXTMIN
 10
1.000000000000000E+20
 20
1.000000000000000E+20
 30
1.000000000000000E+20
  9
$PEXTMAX
 10
-1.000000000000000E+20
 20
-1.000000000000000E+20
 30
-1.000000000000000E+20
  9
$PLIMMIN
 10
0.0
 20
0.0
  9
$PLIMMAX
 10
12.0
 20
9.0
  9
$UNITMODE
 70
     0
  9
$VISRETAIN
 70
     0
  9
$PLINEGEN
 70
     0
  9
$PSLTSCALE
 70
     0
  9
$TREEDEPTH
 70
  3020
  9
$PICKSTYLE
 70
     1
  9
$CMLSTYLE
  2
STANDARD
  9
$CMLJUST
 70
     0
  9
$CMLSCALE
 40
1.0
  9
$PROXYGRAPHICS
 70
     1
  9
$MEASUREMENT
 70
     0
  0
ENDSEC
  0
SECTION
  2
CLASSES
  0
CLASS
  1
LWPOLYLINE
  2
AcDbPolyline
  3
AutoCAD 2000
 90
        0
280
     0
281
     1
  0
CLASS
  1
HATCH
  2
AcDbHatch
  3
AutoCAD 2000
 90
        0
280
     0
281
     1
  0
CLASS
  1
ACDBDICTIONARYWDFLT
  2
AcDbDictionaryWithDefault
  3
AutoCAD 2000
 90
        0
280
     0
281
     0
  0
CLASS
  1
ACDBPLACEHOLDER
  2
AcDbPlaceHolder
  3
AutoCAD 2000
 90
        0
280
     0
281
     0
  0
CLASS
  1
LAYOUT
  2
AcDbLayout
  3
AutoCAD 2000
 90
        0
280
     0
281
     0
  0
CLASS
  1
LONG_TRANSACTION
  2
AcDbLongTransaction
  3
AutoCAD 2000
 90
        0
280
     0
281
     0
  0
CLASS
  1
LWPOLYLINE
  2
AcDbPolyline
  3
AutoCAD 2000
 90
        0
280
     0
281
     1
  0
CLASS
  1
HATCH
  2
AcDbHatch
  3
AutoCAD 2000
 90
        0
280
     0
281
     1
  0
CLASS
  1
XRECORD
  2
AcDbXrecord
  3
AutoCAD 2000
 90
        0
280
     0
281
     0
  0
CLASS
  1
DICTIONARYVAR
  2
AcDbDictionaryVar
  3
AutoCAD 2000
 90
        0
280
     0
281
     0
  0
CLASS
  1
LONG_TRANSACTION
  2
AcDbLongTransaction
  3
AutoCAD 2000
 90
        0
280
     0
281
     0
  0
CLASS
  1
LWPOLYLINE
  2
AcDbPolyline
  3
AutoCAD 2000
 90
        0
280
     0
281
     1
  0
CLASS
  1
HATCH
  2
AcDbHatch
  3
AutoCAD 2000
 90
        0
280
     0
281
     1
  0
CLASS
  1
XRECORD
  2
AcDbXrecord
  3
AutoCAD 2000
 90
        0
280
     0
281
     0
  0
CLASS
  1
LONG_TRANSACTION
  2
AcDbLongTransaction
  3
AutoCAD 2000
 90
        0
280
     0
281
     0
  0
CLASS
  1
LWPOLYLINE
  2
AcDbPolyline
  3
AutoCAD 2000
 90
        0
280
     0
281
     1
  0
CLASS
  1
HATCH
  2
AcDbHatch
  3
AutoCAD 2000
 90
        0
280
     0
281
     1
  0
CLASS
  1
XRECORD
  2
AcDbXrecord
  3
AutoCAD 2000
 90
        0
280
     0
281
     0
  0
CLASS
  1
LONG_TRANSACTION
  2
AcDbLongTransaction
  3
AutoCAD 2000
 90
        0
280
     0
281
     0
  0
CLASS
  1
LWPOLYLINE
  2
AcDbPolyline
  3
AutoCAD 2000
 90
        0
280
     0
281
     1
  0
CLASS
  1
HATCH
  2
AcDbHatch
  3
AutoCAD 2000
 90
        0
280
     0
281
     1
  0
CLASS
  1
XRECORD
  2
AcDbXrecord
  3
AutoCAD 2000
 90
        0
280
     0
281
     0
  0
CLASS
  1
LONG_TRANSACTION
  2
AcDbLongTransaction
  3
AutoCAD 2000
 90
        0
280
     0
281
     0
  0
CLASS
  1
LWPOLYLINE
  2
AcDbPolyline
  3
AutoCAD 2000
 90
        0
280
     0
281
     1
  0
CLASS
  1
HATCH
  2
AcDbHatch
  3
AutoCAD 2000
 90
        0
280
     0
281
     1
  0
CLASS
  1
XRECORD
  2
AcDbXrecord
  3
AutoCAD 2000
 90
        0
280
     0
281
     0
  0
CLASS
  1
LONG_TRANSACTION
  2
AcDbLongTransaction
  3
AutoCAD 2000
 90
        0
280
     0
281
     0
  0
CLASS
  1
LWPOLYLINE
  2
AcDbPolyline
  3
AutoCAD 2000
 90
        0
280
     0
281
     1
  0
CLASS
  1
HATCH
  2
AcDbHatch
  3
AutoCAD 2000
 90
        0
280
     0
281
     1
  0
CLASS
  1
XRECORD
  2
AcDbXrecord
  3
AutoCAD 2000
 90
        0
280
     0
281
     0
  0
CLASS
  1
LONG_TRANSACTION
  2
AcDbLongTransaction
  3
AutoCAD 2000
 90
        0
280
     0
281
     0
  0
CLASS
  1
LWPOLYLINE
  2
AcDbPolyline
  3
AutoCAD 2000
 90
        0
280
     0
281
     1
  0
CLASS
  1
HATCH
  2
AcDbHatch
  3
AutoCAD 2000
 90
        0
280
     0
281
     1
  0
CLASS
  1
XRECORD
  2
AcDbXrecord
  3
AutoCAD 2000
 90
        0
280
     0
281
     0
  0
CLASS
  1
LONG_TRANSACTION
  2
AcDbLongTransaction
  3
AutoCAD 2000
 90
        0
280
     0
281
     0
  0
CLASS
  1
LWPOLYLINE
  2
AcDbPolyline
  3
AutoCAD 2000
 90
        0
280
     0
281
     1
  0
CLASS
  1
HATCH
  2
AcDbHatch
  3
AutoCAD 2000
 90
        0
280
     0
281
     1
  0
CLASS
  1
XRECORD
  2
AcDbXrecord
  3
AutoCAD 2000
 90
        0
280
     0
281
     0
  0
CLASS
  1
LONG_TRANSACTION
  2
AcDbLongTransaction
  3
AutoCAD 2000
 90
        0
280
     0
281
     0
  0
CLASS
  1
LWPOLYLINE
  2
AcDbPolyline
  3
AutoCAD 2000
 90
        0
280
     0
281
     1
  0
CLASS
  1
HATCH
  2
AcDbHatch
  3
AutoCAD 2000
 90
        0
280
     0
281
     1
  0
CLASS
  1
XRECORD
  2
AcDbXrecord
  3
AutoCAD 2000
 90
        0
280
     0
281
     0
  0
CLASS
  1
LONG_TRANSACTION
  2
AcDbLongTransaction
  3
AutoCAD 2000
 90
        0
280
     0
281
     0
  0
CLASS
  1
LWPOLYLINE
  2
AcDbPolyline
  3
AutoCAD 2000
 90
        0
280
     0
281
     1
  0
CLASS
  1
HATCH
  2
AcDbHatch
  3
AutoCAD 2000
 90
        0
280
     0
281
     1
  0
CLASS
  1
XRECORD
  2
AcDbXrecord
  3
AutoCAD 2000
 90
        0
280
     0
281
     0
  0
CLASS
  1
LONG_TRANSACTION
  2
AcDbLongTransaction
  3
AutoCAD 2000
 90
        0
280
     0
281
     0
  0
CLASS
  1
LWPOLYLINE
  2
AcDbPolyline
  3
AutoCAD 2000
 90
        0
280
     0
281
     1
  0
CLASS
  1
HATCH
  2
AcDbHatch
  3
AutoCAD 2000
 90
        0
280
     0
281
     1
  0
CLASS
  1
XRECORD
  2
AcDbXrecord
  3
AutoCAD 2000
 90
        0
280
     0
281
     0
  0
CLASS
  1
LONG_TRANSACTION
  2
AcDbLongTransaction
  3
AutoCAD 2000
 90
        0
280
     0
281
     0
  0
CLASS
  1
LWPOLYLINE
  2
AcDbPolyline
  3
AutoCAD 2000
 90
        0
280
     0
281
     1
  0
CLASS
  1
HATCH
  2
AcDbHatch
  3
AutoCAD 2000
 90
        0
280
     0
281
     1
  0
CLASS
  1
XRECORD
  2
AcDbXrecord
  3
AutoCAD 2000
 90
        0
280
     0
281
     0
  0
CLASS
  1
LONG_TRANSACTION
  2
AcDbLongTransaction
  3
AutoCAD 2000
 90
        0
280
     0
281
     0
  0
CLASS
  1
LWPOLYLINE
  2
AcDbPolyline
  3
AutoCAD 2000
 90
        0
280
     0
281
     1
  0
CLASS
  1
HATCH
  2
AcDbHatch
  3
AutoCAD 2000
 90
        0
280
     0
281
     1
  0
CLASS
  1
XRECORD
  2
AcDbXrecord
  3
AutoCAD 2000
 90
        0
280
     0
281
     0
  0
CLASS
  1
LONG_TRANSACTION
  2
AcDbLongTransaction
  3
AutoCAD 2000
 90
        0
280
     0
281
     0
  0
CLASS
  1
LWPOLYLINE
  2
AcDbPolyline
  3
AutoCAD 2000
 90
        0
280
     0
281
     1
  0
CLASS
  1
HATCH
  2
AcDbHatch
  3
AutoCAD 2000
 90
        0
280
     0
281
     1
  0
CLASS
  1
XRECORD
  2
AcDbXrecord
  3
AutoCAD 2000
 90
        0
280
     0
281
     0
  0
CLASS
  1
LONG_TRANSACTION
  2
AcDbLongTransaction
  3
AutoCAD 2000
 90
        0
280
     0
281
     0
  0
CLASS
  1
LWPOLYLINE
  2
AcDbPolyline
  3
AutoCAD 2000
 90
        0
280
     0
281
     1
  0
CLASS
  1
HATCH
  2
AcDbHatch
  3
AutoCAD 2000
 90
        0
280
     0
281
     1
  0
CLASS
  1
XRECORD
  2
AcDbXrecord
  3
AutoCAD 2000
 90
        0
280
     0
281
     0
  0
CLASS
  1
LONG_TRANSACTION
  2
AcDbLongTransaction
  3
AutoCAD 2000
 90
        0
280
     0
281
     0
  0
CLASS
  1
LWPOLYLINE
  2
AcDbPolyline
  3
AutoCAD 2000
 90
        0
280
     0
281
     1
  0
CLASS
  1
HATCH
  2
AcDbHatch
  3
AutoCAD 2000
 90
        0
280
     0
281
     1
  0
CLASS
  1
XRECORD
  2
AcDbXrecord
  3
AutoCAD 2000
 90
        0
280
     0
281
     0
  0
CLASS
  1
LONG_TRANSACTION
  2
AcDbLongTransaction
  3
AutoCAD 2000
 90
        0
280
     0
281
     0
  0
CLASS
  1
LWPOLYLINE
  2
AcDbPolyline
  3
AutoCAD 2000
 90
        0
280
     0
281
     1
  0
CLASS
  1
HATCH
  2
AcDbHatch
  3
AutoCAD 2000
 90
        0
280
     0
281
     1
  0
CLASS
  1
XRECORD
  2
AcDbXrecord
  3
AutoCAD 2000
 90
        0
280
     0
281
     0
  0
ENDSEC
  0
SECTION
  2
TABLES
  0
TABLE
  2
VPORT
  5
EF7C85523
330
0
100
AcDbSymbolTable
 70
    11
  0
VPORT
  5
EF7C85567
330
EF7C85523
100
AcDbSymbolTableRecord
100
AcDbViewportTableRecord
  2
2
 70
     0
 10
0.5
 20
0.0
 11
1.0
 21
1.0
 12
0.9240312421264802
 22
1.052650975462764
 13
0.0
 23
0.0
 14
1.0
 24
1.0
 15
10.0
 25
10.0
 16
0.0
 26
0.0
 36
1.0
 17
0.0
 27
0.0
 37
0.0
 40
2.105301950925533
 41
0.8778135048231511
 42
50.0
 43
0.0
 44
0.0
 50
0.0
 51
0.0
 71
     0
 72
   500
 73
     1
 74
     1
 75
     0
 76
     0
 77
     0
 78
     0
  0
VPORT
  5
EF7C85568
330
EF7C85523
100
AcDbSymbolTableRecord
100
AcDbViewportTableRecord
  2
2
 70
     0
 10
0.0
 20
0.0
 11
0.5
 21
1.0
 12
0.9240312421264802
 22
1.052650975462764
 13
0.0
 23
0.0
 14
1.0
 24
1.0
 15
10.0
 25
10.0
 16
0.0
 26
0.0
 36
1.0
 17
0.0
 27
0.0
 37
0.0
 40
2.105301950925533
 41
0.8778135048231511
 42
50.0
 43
0.0
 44
0.0
 50
0.0
 51
0.0
 71
     0
 72
   500
 73
     1
 74
     1
 75
     0
 76
     0
 77
     0
 78
     0
  0
VPORT
  5
EF7C85569
330
EF7C85523
100
AcDbSymbolTableRecord
100
AcDbViewportTableRecord
  2
3
 70
     0
 10
0.0
 20
0.5
 11
1.0
 21
1.0
 12
2.832169994473273
 22
1.052650975462764
 13
0.0
 23
0.0
 14
1.0
 24
1.0
 15
10.0
 25
10.0
 16
0.0
 26
0.0
 36
1.0
 17
0.0
 27
0.0
 37
0.0
 40
2.105301950925533
 41
3.571428571428571
 42
50.0
 43
0.0
 44
0.0
 50
0.0
 51
0.0
 71
     0
 72
   500
 73
     1
 74
     1
 75
     0
 76
     0
 77
     0
 78
     0
  0
VPORT
  5
EF7C8556A
330
EF7C85523
100
AcDbSymbolTableRecord
100
AcDbViewportTableRecord
  2
3
 70
     0
 10
0.0
 20
0.0
 11
1.0
 21
0.5
 12
2.856741679241311
 22
1.052650975462764
 13
0.0
 23
0.0
 14
1.0
 24
1.0
 15
10.0
 25
10.0
 16
0.0
 26
0.0
 36
1.0
 17
0.0
 27
0.0
 37
0.0
 40
2.105301950925533
 41
3.594771241830064
 42
50.0
 43
0.0
 44
0.0
 50
0.0
 51
0.0
 71
     0
 72
   500
 73
     1
 74
     1
 75
     0
 76
     0
 77
     0
 78
     0
  0
VPORT
  5
EF7C8556B
330
EF7C85523
100
AcDbSymbolTableRecord
100
AcDbViewportTableRecord
  2
4
 70
     0
 10
0.5
 20
0.0
 11
1.0
 21
0.5
 12
2.886857516709718
 22
1.052650975462764
 13
0.0
 23
0.0
 14
1.0
 24
1.0
 15
10.0
 25
10.0
 16
0.0
 26
0.0
 36
1.0
 17
0.0
 27
0.0
 37
0.0
 40
4.275207030309068
 41
1.784313725490195
 42
50.0
 43
0.0
 44
0.0
 50
0.0
 51
0.0
 71
     0
 72
   500
 73
     1
 74
     1
 75
     0
 76
     0
 77
     0
 78
     0
  0
VPORT
  5
EF7C8556C
330
EF7C85523
100
AcDbSymbolTableRecord
100
AcDbViewportTableRecord
  2
4
 70
     0
 10
0.5
 20
0.5
 11
1.0
 21
1.0
 12
2.862090274555523
 22
1.052650975462764
 13
0.0
 23
0.0
 14
1.0
 24
1.0
 15
10.0
 25
10.0
 16
0.0
 26
0.0
 36
1.0
 17
0.0
 27
0.0
 37
0.0
 40
4.275207030309068
 41
1.77272727272727
 42
50.0
 43
0.0
 44
0.0
 50
0.0
 51
0.0
 71
     0
 72
   500
 73
     1
 74
     1
 75
     0
 76
     0
 77
     0
 78
     0
  0
VPORT
  5
EF7C8556D
330
EF7C85523
100
AcDbSymbolTableRecord
100
AcDbViewportTableRecord
  2
4
 70
     0
 10
0.0
 20
0.5
 11
0.5
 21
1.0
 12
2.862090274555523
 22
1.052650975462764
 13
0.0
 23
0.0
 14
1.0
 24
1.0
 15
10.0
 25
10.0
 16
0.0
 26
0.0
 36
1.0
 17
0.0
 27
0.0
 37
0.0
 40
4.275207030309068
 41
1.77272727272727
 42
50.0
 43
0.0
 44
0.0
 50
0.0
 51
0.0
 71
     0
 72
   500
 73
     1
 74
     1
 75
     0
 76
     0
 77
     0
 78
     0
  0
VPORT
  5
EF7C8556E
330
EF7C85523
100
AcDbSymbolTableRecord
100
AcDbViewportTableRecord
  2
4
 70
     0
 10
0.0
 20
0.0
 11
0.5
 21
0.5
 12
2.886857516709718
 22
1.052650975462764
 13
0.0
 23
0.0
 14
1.0
 24
1.0
 15
10.0
 25
10.0
 16
0.0
 26
0.0
 36
1.0
 17
0.0
 27
0.0
 37
0.0
 40
4.275207030309068
 41
1.784313725490195
 42
50.0
 43
0.0
 44
0.0
 50
0.0
 51
0.0
 71
     0
 72
   500
 73
     1
 74
     1
 75
     0
 76
     0
 77
     0
 78
     0
  0
VPORT
  5
EF7C87B57
330
EF7C85523
100
AcDbSymbolTableRecord
100
AcDbViewportTableRecord
  2
*ACTIVE
 70
     0
 10
0.0
 20
0.0
 11
1.0
 21
1.0
 12
271.4972383585865
 22
141.5000013178616
 13
0.0
 23
0.0
 14
1.0
 24
1.0
 15
10.0
 25
10.0
 16
0.0
 26
0.0
 36
1.0
 17
0.0
 27
0.0
 37
0.0
 40
286.528800618818
 41
1.954639175257731
 42
50.0
 43
0.0
 44
0.0
 50
0.0
 51
0.0
 71
     0
 72
   500
 73
     1
 74
     0
 75
     0
 76
     0
 77
     0
 78
     0
  0
ENDTAB
  0
TABLE
  2
LTYPE
  5
EF7C85520
330
0
100
AcDbSymbolTable
 70
     3
  0
LTYPE
  5
EF7C8552C
330
EF7C85520
100
AcDbSymbolTableRecord
100
AcDbLinetypeTableRecord
  2
BYBLOCK
 70
     0
  3

 72
    65
 73
     0
 40
0.0
  0
LTYPE
  5
EF7C8552D
330
EF7C85520
100
AcDbSymbolTableRecord
100
AcDbLinetypeTableRecord
  2
BYLAYER
 70
     0
  3

 72
    65
 73
     0
 40
0.0
  0
LTYPE
  5
EF7C8552E
330
EF7C85520
100
AcDbSymbolTableRecord
100
AcDbLinetypeTableRecord
  2
CONTINUOUS
 70
     0
  3
実線
 72
    65
 73
     0
 40
0.0
  0
LTYPE
  5
EF7C85565
330
EF7C85520
100
AcDbSymbolTableRecord
100
AcDbLinetypeTableRecord
  2
PHANTOM
 70
     0
  3
_____ _ _ _____ _ _ _____ _ _ _____ _ _ ____
 72
    65
 73
     6
 40
2.5
 49
1.25
 74
     0
 49
-0.25
 74
     0
 49
0.25
 74
     0
 49
-0.25
 74
     0
 49
0.25
 74
     0
 49
-0.25
 74
     0
  0
LTYPE
  5
EF7C86EBE
330
EF7C85520
100
AcDbSymbolTableRecord
100
AcDbLinetypeTableRecord
  2
HIDDEN
 70
     0
  3
_ _ _ _ _ _ _ _ _ _ _ _ _ _ _ _ _ _ _ _ _ _ _
 72
    65
 73
     2
 40
0.375
 49
0.25
 74
     0
 49
-0.125
 74
     0
  0
ENDTAB
  0
TABLE
  2
LAYER
  5
EF7C8551D
102
{ACAD_XDICTIONARY
360
EF7C86FB8
102
}
330
0
100
AcDbSymbolTable
 70
     9
  0
LAYER
  5
EF7C85529
330
EF7C8551D
100
AcDbSymbolTableRecord
100
AcDbLayerTableRecord
  2
0
 70
     0
 62
     6
  6
CONTINUOUS
  0
LAYER
  5
EF7C85574
330
EF7C8551D
100
AcDbSymbolTableRecord
100
AcDbLayerTableRecord
  2
NITEN
 70
     0
 62
     2
  6
PHANTOM
  0
LAYER
  5
EF7C85575
330
EF7C8551D
100
AcDbSymbolTableRecord
100
AcDbLayerTableRecord
  2
HATCH
 70
     0
 62
     4
  6
CONTINUOUS
  0
LAYER
  5
EF7C85576
330
EF7C8551D
100
AcDbSymbolTableRecord
100
AcDbLayerTableRecord
  2
SUNPOU
 70
     0
 62
     3
  6
CONTINUOUS
  0
LAYER
  5
EF7C85577
330
EF7C8551D
100
AcDbSymbolTableRecord
100
AcDbLayerTableRecord
  2
TEXT
 70
     0
 62
     3
  6
CONTINUOUS
  0
LAYER
  5
EF7C85578
330
EF7C8551D
100
AcDbSymbolTableRecord
100
AcDbLayerTableRecord
  2
SAISEN
 70
     0
 62
     4
  6
CONTINUOUS
  0
LAYER
  5
EF7C85579
330
EF7C8551D
100
AcDbSymbolTableRecord
100
AcDbLayerTableRecord
  2
JISSEN
 70
     0
 62
     7
  6
CONTINUOUS
  0
LAYER
  5
EF7C8557D
330
EF7C8551D
100
AcDbSymbolTableRecord
100
AcDbLayerTableRecord
  2
WAKU
 70
     0
 62
     5
  6
CONTINUOUS
  0
LAYER
  5
EF7C86EBF
330
EF7C8551D
100
AcDbSymbolTableRecord
100
AcDbLayerTableRecord
  2
TENSEN
 70
     0
 62
     2
  6
HIDDEN
  0
ENDTAB
  0
TABLE
  2
STYLE
  5
EF7C8551E
330
0
100
AcDbSymbolTable
 70
     3
  0
STYLE
  5
EF7C8552A
330
EF7C8551E
100
AcDbSymbolTableRecord
100
AcDbTextStyleTableRecord
  2
STANDARD
 70
     0
 40
0.0
 41
1.0
 50
0.0
 71
     0
 42
1.5
  3
SIMPLEX
  4

  0
STYLE
  5
EF7C85558
330
EF7C8551E
100
AcDbSymbolTableRecord
100
AcDbTextStyleTableRecord
  2
K
 70
     0
 40
0.0
 41
1.0
 50
0.0
 71
     0
 42
3.0
  3
ROMANS
  4
BIGFONT
  0
STYLE
  5
EF7C8555B
330
EF7C8551E
100
AcDbSymbolTableRecord
100
AcDbTextStyleTableRecord
  2
BIGFONT
 70
     0
 40
0.0
 41
1.0
 50
0.0
 71
     0
 42
3.0
  3
txt.shx
  4
bigfont
  0
ENDTAB
  0
TABLE
  2
VIEW
  5
EF7C85521
330
0
100
AcDbSymbolTable
 70
     0
  0
ENDTAB
  0
TABLE
  2
UCS
  5
EF7C85522
330
0
100
AcDbSymbolTable
 70
     0
  0
ENDTAB
  0
TABLE
  2
APPID
  5
EF7C85524
330
0
100
AcDbSymbolTable
 70
     1
  0
APPID
  5
EF7C8552B
330
EF7C85524
100
AcDbSymbolTableRecord
100
AcDbRegAppTableRecord
  2
ACAD
 70
     0
  0
ENDTAB
  0
TABLE
  2
DIMSTYLE
  5
EF7C85525
330
0
100
AcDbSymbolTable
 70
     1
  0
DIMSTYLE
105
EF7C85571
330
EF7C85525
100
AcDbSymbolTableRecord
100
AcDbDimStyleTableRecord
  2
IMAO
 70
     0
  3

  4

  5
ARROWANG
  6
ARROWANG
  7
ARROWANG
 40
1.0
 41
1.5
 42
1.0
 43
6.0
 44
1.0
 45
0.0
 46
0.0
 47
495.0
 48
0.0
140
3.0
141
0.0
142
0.0
143
25.4
144
1.0
145
0.0
146
1.0
147
0.09
 71
     0
 72
     0
 73
     0
 74
     0
 75
     0
 76
     0
 77
     1
 78
     8
170
     0
171
     2
172
     1
173
     0
174
     1
175
     0
176
     0
177
     0
178
     0
270
     2
271
     2
272
     2
273
     2
274
     2
340
EF7C8555B
275
     0
280
     0
281
     0
282
     0
283
     1
284
     8
285
     8
286
     8
287
     3
288
     0
  0
ENDTAB
  0
TABLE
  2
BLOCK_RECORD
  5
EF7C8551C
330
0
100
AcDbSymbolTable
 70
    11
  0
BLOCK_RECORD
  5
EF7C85532
102
{ACAD_XDICTIONARY
360
EF7C85D9A
102
}
330
EF7C8551C
100
AcDbSymbolTableRecord
100
AcDbBlockTableRecord
  2
*MODEL_SPACE
  0
BLOCK_RECORD
  5
EF7C8552F
102
{ACAD_XDICTIONARY
360
EF7C85D98
102
}
330
EF7C8551C
100
AcDbSymbolTableRecord
100
AcDbBlockTableRecord
  2
*PAPER_SPACE
  0
BLOCK_RECORD
  5
EF7C85537
330
EF7C8551C
100
AcDbSymbolTableRecord
100
AcDbBlockTableRecord
  2
ARROW
  0
BLOCK_RECORD
  5
EF7C8553B
330
EF7C8551C
100
AcDbSymbolTableRecord
100
AcDbBlockTableRecord
  2
WAKU
  0
BLOCK_RECORD
  5
EF7C8553D
330
EF7C8551C
100
AcDbSymbolTableRecord
100
AcDbBlockTableRecord
  2
*X2
  0
BLOCK_RECORD
  5
EF7C8553E
330
EF7C8551C
100
AcDbSymbolTableRecord
100
AcDbBlockTableRecord
  2
STDGX5
  0
BLOCK_RECORD
  5
EF7C8553F
330
EF7C8551C
100
AcDbSymbolTableRecord
100
AcDbBlockTableRecord
  2
*X4
  0
BLOCK_RECORD
  5
EF7C85540
330
EF7C8551C
100
AcDbSymbolTableRecord
100
AcDbBlockTableRecord
  2
*X5
  0
BLOCK_RECORD
  5
EF7C85541
330
EF7C8551C
100
AcDbSymbolTableRecord
100
AcDbBlockTableRecord
  2
*X6
  0
BLOCK_RECORD
  5
EF7C85542
330
EF7C8551C
100
AcDbSymbolTableRecord
100
AcDbBlockTableRecord
  2
*X7
  0
BLOCK_RECORD
  5
EF7C85543
330
EF7C8551C
100
AcDbSymbolTableRecord
100
AcDbBlockTableRecord
  2
ARROWANG
  0
BLOCK_RECORD
  5
EF7C85544
330
EF7C8551C
100
AcDbSymbolTableRecord
100
AcDbBlockTableRecord
  2
STDR12J
  0
ENDTAB
  0
ENDSEC
  0
SECTION
  2
BLOCKS
  0
BLOCK
  5
EF7C85580
330
EF7C85532
100
AcDbEntity
  8
0
100
AcDbBlockBegin
  2
*MODEL_SPACE
 70
     0
 10
0.0
 20
0.0
 30
0.0
  3
*MODEL_SPACE
  1

  0
ENDBLK
  5
EF7C85581
330
EF7C85532
100
AcDbEntity
  8
0
100
AcDbBlockEnd
  0
BLOCK
  5
EF7C8557E
330
EF7C8552F
100
AcDbEntity
 67
     1
  8
0
100
AcDbBlockBegin
  2
*PAPER_SPACE
 70
     0
 10
0.0
 20
0.0
 30
0.0
  3
*PAPER_SPACE
  1

  0
ENDBLK
  5
EF7C8557F
330
EF7C8552F
100
AcDbEntity
 67
     1
  8
0
100
AcDbBlockEnd
  0
BLOCK
  5
499
330
EF7C85537
100
AcDbEntity
  8
0
100
AcDbBlockBegin
  2
ARROW
 70
     0
 10
1.0
 20
0.5
 30
0.0
  3
ARROW
  1

  0
LINE
  5
49A
330
EF7C85537
100
AcDbEntity
  8
0
100
AcDbLine
 10
1.0
 20
0.5
 30
0.0
 11
-0.5000000000000214
 21
0.0980762113533018
 31
0.0
  0
LINE
  5
49B
330
EF7C85537
100
AcDbEntity
  8
0
100
AcDbLine
 10
0.0
 20
0.5
 30
0.0
 11
1.0
 21
0.5
 31
0.0
  0
LINE
  5
49C
330
EF7C85537
100
AcDbEntity
  8
0
100
AcDbLine
 10
1.0
 20
0.5
 30
0.0
 11
-0.4999999999999575
 21
0.9019237886467408
 31
0.0
  0
ENDBLK
  5
49D
330
EF7C85537
100
AcDbEntity
  8
0
100
AcDbBlockEnd
  0
BLOCK
  5
4A7
330
EF7C8553B
100
AcDbEntity
  8
0
100
AcDbBlockBegin
  2
WAKU
 70
     0
 10
0.0
 20
0.0
 30
0.0
  3
WAKU
  1

  0
LINE
  5
4A8
330
EF7C8553B
100
AcDbEntity
  8
WAKU
100
AcDbLine
 10
0.9999999959999998
 20
0.0
 30
0.0
 11
0.9999999959999998
 21
0.9999999999999998
 31
0.0
  0
LINE
  5
4A9
330
EF7C8553B
100
AcDbEntity
  8
WAKU
100
AcDbLine
 10
0.0
 20
0.9999999999999998
 30
0.0
 11
0.9999999959999998
 21
0.9999999999999998
 31
0.0
  0
LINE
  5
4AA
330
EF7C8553B
100
AcDbEntity
  8
WAKU
100
AcDbLine
 10
0.9999999959999998
 20
0.0
 30
0.0
 11
0.0
 21
0.0
 31
0.0
  0
LINE
  5
4AB
330
EF7C8553B
100
AcDbEntity
  8
WAKU
100
AcDbLine
 10
0.0
 20
0.0
 30
0.0
 11
0.0
 21
0.9999999999999998
 31
0.0
  0
ENDBLK
  5
4AC
330
EF7C8553B
100
AcDbEntity
  8
0
100
AcDbBlockEnd
  0
BLOCK
  5
2764
330
EF7C8553D
100
AcDbEntity
  8
0
100
AcDbBlockBegin
  2
*X2
 70
     1
 10
0.0
 20
0.0
 30
0.0
  3
*X2
  1

  0
ENDBLK
  5
2765
330
EF7C8553D
100
AcDbEntity
  8
0
100
AcDbBlockEnd
  0
BLOCK
  5
2766
330
EF7C8553E
100
AcDbEntity
  8
0
100
AcDbBlockBegin
  2
STDGX5
 70
     0
 10
0.0
 20
0.0
 30
0.0
  3
STDGX5
  1

  0
ENDBLK
  5
2767
330
EF7C8553E
100
AcDbEntity
  8
0
100
AcDbBlockEnd
  0
BLOCK
  5
2F5A
330
EF7C8553F
100
AcDbEntity
  8
0
100
AcDbBlockBegin
  2
*X4
 70
     1
 10
0.0
 20
0.0
 30
0.0
  3
*X4
  1

  0
ENDBLK
  5
2F5B
330
EF7C8553F
100
AcDbEntity
  8
0
100
AcDbBlockEnd
  0
BLOCK
  5
32BB
330
EF7C85540
100
AcDbEntity
  8
0
100
AcDbBlockBegin
  2
*X5
 70
     1
 10
0.0
 20
0.0
 30
0.0
  3
*X5
  1

  0
ENDBLK
  5
32BC
330
EF7C85540
100
AcDbEntity
  8
0
100
AcDbBlockEnd
  0
BLOCK
  5
372F
330
EF7C85541
100
AcDbEntity
  8
0
100
AcDbBlockBegin
  2
*X6
 70
     1
 10
0.0
 20
0.0
 30
0.0
  3
*X6
  1

  0
ENDBLK
  5
3730
330
EF7C85541
100
AcDbEntity
  8
0
100
AcDbBlockEnd
  0
BLOCK
  5
3A6D
330
EF7C85542
100
AcDbEntity
  8
0
100
AcDbBlockBegin
  2
*X7
 70
     1
 10
0.0
 20
0.0
 30
0.0
  3
*X7
  1

  0
ENDBLK
  5
3A6E
330
EF7C85542
100
AcDbEntity
  8
0
100
AcDbBlockEnd
  0
BLOCK
  5
4CC9
330
EF7C85543
100
AcDbEntity
  8
0
100
AcDbBlockBegin
  2
ARROWANG
 70
     0
 10
0.0
 20
0.0
 30
0.0
  3
ARROWANG
  1

  0
LINE
  5
4CCA
330
EF7C85543
100
AcDbEntity
  8
SUNPOU
100
AcDbLine
 10
0.0
 20
0.0
 30
0.0
 11
-1.499999999999956
 21
0.401923788646741
 31
0.0
  0
LINE
  5
4CCB
330
EF7C85543
100
AcDbEntity
  8
SUNPOU
100
AcDbLine
 10
0.0
 20
0.0
 30
0.0
 11
-1.500000000000026
 21
-0.4019237886467124
 31
0.0
  0
ENDBLK
  5
4CCC
330
EF7C85543
100
AcDbEntity
  8
0
100
AcDbBlockEnd
  0
BLOCK
  5
4CCD
330
EF7C85544
100
AcDbEntity
  8
0
100
AcDbBlockBegin
  2
STDR12J
 70
     0
 10
0.0
 20
0.0
 30
0.0
  3
STDR12J
  1

  0
ENDBLK
  5
4CF2
330
EF7C85544
100
AcDbEntity
  8
0
100
AcDbBlockEnd
  0
ENDSEC
  0
SECTION
  2
ENTITIES
  0
TEXT
  5
1
330
EF7C85532
100
AcDbEntity
  8
SUNPOU
100
AcDbText
 10
95.05869565217388
 20
43.7966872748706
 30
0.0
 40
1.5
  1
                          
100
AcDbText
  0
TEXT
  5
2
330
EF7C85532
100
AcDbEntity
  8
SUNPOU
100
AcDbText
 10
332.2793466870868
 20
21.8983436374353
 30
0.0
 40
0.75
  1
                          
100
AcDbText
  0
TEXT
  5
1A
330
EF7C85532
100
AcDbEntity
  8
SUNPOU
100
AcDbText
 10
289.9834441000535
 20
43.7966872748706
 30
0.0
 40
1.5
  1
                          
100
AcDbText
  0
TEXT
  5
1B
330
EF7C85532
100
AcDbEntity
  8
SUNPOU
100
AcDbText
 10
527.2040951349663
 20
21.8983436374353
 30
0.0
 40
0.75
  1
                          
100
AcDbText
  0
TEXT
  5
1C
330
EF7C85532
100
AcDbEntity
  8
SUNPOU
100
AcDbText
 10
490.6272568090836
 20
43.79668727487056
 30
0.0
 40
1.5
  1
                          
100
AcDbText
  0
TEXT
  5
1D
330
EF7C85532
100
AcDbEntity
  8
SUNPOU
100
AcDbText
 10
727.8479078439966
 20
21.89834363743526
 30
0.0
 40
0.75
  1
                          
100
AcDbText
  0
INSERT
  5
1E
330
EF7C85532
100
AcDbEntity
  8
HATCH
100
AcDbBlockReference
  2
*X2
 10
194.9247484478796
 20
0.0
 30
0.0
  0
TEXT
  5
1F
330
EF7C85532
100
AcDbEntity
  8
SUNPOU
100
AcDbText
 10
493.0101992368963
 20
43.7966872748706
 30
0.0
 40
1.5
  1
                          
100
AcDbText
  0
TEXT
  5
20
330
EF7C85532
100
AcDbEntity
  8
SUNPOU
100
AcDbText
 10
730.2308502718092
 20
21.8983436374353
 30
0.0
 40
0.75
  1
                          
100
AcDbText
  0
TEXT
  5
21
330
EF7C85532
100
AcDbEntity
  8
SUNPOU
100
AcDbText
 10
482.0486607753577
 20
43.7966872748706
 30
0.0
 40
1.5
  1
                          
100
AcDbText
  0
TEXT
  5
22
330
EF7C85532
100
AcDbEntity
  8
SUNPOU
100
AcDbText
 10
719.269311810271
 20
21.8983436374353
 30
0.0
 40
0.75
  1
                          
100
AcDbText
  0
INSERT
  5
25
330
EF7C85532
100
AcDbEntity
  8
JISSEN
100
AcDbBlockReference
  2
STDGX5
 10
0.0
 20
0.0
 30
0.0
  0
TEXT
  5
60
330
EF7C85532
100
AcDbEntity
  8
SUNPOU
100
AcDbText
 10
274.0586949361738
 20
43.7966872748706
 30
0.0
 40
1.5
  1
                          
100
AcDbText
  0
TEXT
  5
61
330
EF7C85532
100
AcDbEntity
  8
SUNPOU
100
AcDbText
 10
511.2793459710869
 20
21.8983436374353
 30
0.0
 40
0.75
  1
                          
100
AcDbText
  0
TEXT
  5
62
330
EF7C85532
100
AcDbEntity
  8
SUNPOU
100
AcDbText
 10
474.702507645204
 20
43.79668727487056
 30
0.0
 40
1.5
  1
                          
100
AcDbText
  0
TEXT
  5
63
330
EF7C85532
100
AcDbEntity
  8
SUNPOU
100
AcDbText
 10
711.923158680117
 20
21.89834363743526
 30
0.0
 40
0.75
  1
                          
100
AcDbText
  0
INSERT
  5
64
330
EF7C85532
100
AcDbEntity
  8
HATCH
100
AcDbBlockReference
  2
*X4
 10
178.999999284
 20
0.0
 30
0.0
  0
TEXT
  5
65
330
EF7C85532
100
AcDbEntity
  8
SUNPOU
100
AcDbText
 10
477.0854500730166
 20
43.7966872748706
 30
0.0
 40
1.5
  1
                          
100
AcDbText
  0
TEXT
  5
66
330
EF7C85532
100
AcDbEntity
  8
SUNPOU
100
AcDbText
 10
714.3061011079296
 20
21.8983436374353
 30
0.0
 40
0.75
  1
                          
100
AcDbText
  0
TEXT
  5
67
330
EF7C85532
100
AcDbEntity
  8
SUNPOU
100
AcDbText
 10
466.1239116114783
 20
43.7966872748706
 30
0.0
 40
1.5
  1
                          
100
AcDbText
  0
TEXT
  5
68
330
EF7C85532
100
AcDbEntity
  8
SUNPOU
100
AcDbText
 10
703.3445626463913
 20
21.8983436374353
 30
0.0
 40
0.75
  1
                          
100
AcDbText
  0
INSERT
  5
69
330
EF7C85532
100
AcDbEntity
  8
TEXT
100
AcDbBlockReference
  2
STDGX5
 10
178.999999284
 20
0.0
 30
0.0
  0
TEXT
  5
6A
330
EF7C85532
100
AcDbEntity
  8
SUNPOU
100
AcDbText
 10
453.0586949361739
 20
43.7966872748706
 30
0.0
 40
1.5
  1
                          
100
AcDbText
  0
TEXT
  5
6B
330
EF7C85532
100
AcDbEntity
  8
SUNPOU
100
AcDbText
 10
690.2793459710871
 20
21.8983436374353
 30
0.0
 40
0.75
  1
                          
100
AcDbText
  0
TEXT
  5
6C
330
EF7C85532
100
AcDbEntity
  8
SUNPOU
100
AcDbText
 10
647.9834433840535
 20
43.7966872748706
 30
0.0
 40
1.5
  1
                          
100
AcDbText
  0
TEXT
  5
6D
330
EF7C85532
100
AcDbEntity
  8
SUNPOU
100
AcDbText
 10
885.2040944189665
 20
21.8983436374353
 30
0.0
 40
0.75
  1
                          
100
AcDbText
  0
TEXT
  5
6E
330
EF7C85532
100
AcDbEntity
  8
SUNPOU
100
AcDbText
 10
848.6272560930835
 20
43.79668727487056
 30
0.0
 40
1.5
  1
                          
100
AcDbText
  0
TEXT
  5
6F
330
EF7C85532
100
AcDbEntity
  8
SUNPOU
100
AcDbText
 10
1085.847907127996
 20
21.89834363743526
 30
0.0
 40
0.75
  1
                          
100
AcDbText
  0
INSERT
  5
70
330
EF7C85532
100
AcDbEntity
  8
HATCH
100
AcDbBlockReference
  2
*X5
 10
552.9247477318796
 20
0.0
 30
0.0
  0
TEXT
  5
71
330
EF7C85532
100
AcDbEntity
  8
SUNPOU
100
AcDbText
 10
851.0101985208963
 20
43.7966872748706
 30
0.0
 40
1.5
  1
                          
100
AcDbText
  0
TEXT
  5
72
330
EF7C85532
100
AcDbEntity
  8
SUNPOU
100
AcDbText
 10
1088.230849555809
 20
21.8983436374353
 30
0.0
 40
0.75
  1
                          
100
AcDbText
  0
TEXT
  5
73
330
EF7C85532
100
AcDbEntity
  8
SUNPOU
100
AcDbText
 10
840.048660059358
 20
43.7966872748706
 30
0.0
 40
1.5
  1
                          
100
AcDbText
  0
TEXT
  5
74
330
EF7C85532
100
AcDbEntity
  8
SUNPOU
100
AcDbText
 10
1077.269311094271
 20
21.8983436374353
 30
0.0
 40
0.75
  1
                          
100
AcDbText
  0
INSERT
  5
75
330
EF7C85532
100
AcDbEntity
  8
JISSEN
100
AcDbBlockReference
  2
STDGX5
 10
357.999999284
 20
0.0
 30
0.0
  0
TEXT
  5
76
330
EF7C85532
100
AcDbEntity
  8
SUNPOU
100
AcDbText
 10
453.0586949361739
 20
43.7966872748706
 30
0.0
 40
1.5
  1
                          
100
AcDbText
  0
TEXT
  5
77
330
EF7C85532
100
AcDbEntity
  8
SUNPOU
100
AcDbText
 10
690.2793459710871
 20
21.8983436374353
 30
0.0
 40
0.75
  1
                          
100
AcDbText
  0
TEXT
  5
78
330
EF7C85532
100
AcDbEntity
  8
SUNPOU
100
AcDbText
 10
647.9834433840535
 20
43.7966872748706
 30
0.0
 40
1.5
  1
                          
100
AcDbText
  0
TEXT
  5
79
330
EF7C85532
100
AcDbEntity
  8
SUNPOU
100
AcDbText
 10
885.2040944189665
 20
21.8983436374353
 30
0.0
 40
0.75
  1
                          
100
AcDbText
  0
TEXT
  5
7A
330
EF7C85532
100
AcDbEntity
  8
SUNPOU
100
AcDbText
 10
848.6272560930835
 20
43.79668727487056
 30
0.0
 40
1.5
  1
                          
100
AcDbText
  0
TEXT
  5
7B
330
EF7C85532
100
AcDbEntity
  8
SUNPOU
100
AcDbText
 10
1085.847907127996
 20
21.89834363743526
 30
0.0
 40
0.75
  1
                          
100
AcDbText
  0
INSERT
  5
7C
330
EF7C85532
100
AcDbEntity
  8
HATCH
100
AcDbBlockReference
  2
*X6
 10
552.9247477318796
 20
0.0
 30
0.0
  0
TEXT
  5
7D
330
EF7C85532
100
AcDbEntity
  8
SUNPOU
100
AcDbText
 10
851.0101985208963
 20
43.7966872748706
 30
0.0
 40
1.5
  1
                          
100
AcDbText
  0
TEXT
  5
7E
330
EF7C85532
100
AcDbEntity
  8
SUNPOU
100
AcDbText
 10
1088.230849555809
 20
21.8983436374353
 30
0.0
 40
0.75
  1
                          
100
AcDbText
  0
TEXT
  5
7F
330
EF7C85532
100
AcDbEntity
  8
SUNPOU
100
AcDbText
 10
840.048660059358
 20
43.7966872748706
 30
0.0
 40
1.5
  1
                          
100
AcDbText
  0
TEXT
  5
80
330
EF7C85532
100
AcDbEntity
  8
SUNPOU
100
AcDbText
 10
1077.269311094271
 20
21.8983436374353
 30
0.0
 40
0.75
  1
                          
100
AcDbText
  0
INSERT
  5
81
330
EF7C85532
100
AcDbEntity
  8
JISSEN
100
AcDbBlockReference
  2
STDGX5
 10
357.999999284
 20
0.0
 30
0.0
  0
TEXT
  5
82
330
EF7C85532
100
AcDbEntity
  8
SUNPOU
100
AcDbText
 10
632.0586942201737
 20
43.7966872748706
 30
0.0
 40
1.5
  1
                          
100
AcDbText
  0
TEXT
  5
83
330
EF7C85532
100
AcDbEntity
  8
SUNPOU
100
AcDbText
 10
869.2793452550871
 20
21.8983436374353
 30
0.0
 40
0.75
  1
                          
100
AcDbText
  0
TEXT
  5
84
330
EF7C85532
100
AcDbEntity
  8
SUNPOU
100
AcDbText
 10
826.9834426680532
 20
43.7966872748706
 30
0.0
 40
1.5
  1
                          
100
AcDbText
  0
TEXT
  5
85
330
EF7C85532
100
AcDbEntity
  8
SUNPOU
100
AcDbText
 10
1064.204093702966
 20
21.8983436374353
 30
0.0
 40
0.75
  1
                          
100
AcDbText
  0
TEXT
  5
86
330
EF7C85532
100
AcDbEntity
  8
SUNPOU
100
AcDbText
 10
1027.627255377083
 20
43.79668727487056
 30
0.0
 40
1.5
  1
                          
100
AcDbText
  0
TEXT
  5
87
330
EF7C85532
100
AcDbEntity
  8
SUNPOU
100
AcDbText
 10
1264.847906411996
 20
21.89834363743526
 30
0.0
 40
0.75
  1
                          
100
AcDbText
  0
INSERT
  5
88
330
EF7C85532
100
AcDbEntity
  8
HATCH
100
AcDbBlockReference
  2
*X7
 10
731.9247470158797
 20
0.0
 30
0.0
  0
TEXT
  5
89
330
EF7C85532
100
AcDbEntity
  8
SUNPOU
100
AcDbText
 10
1030.010197804895
 20
43.7966872748706
 30
0.0
 40
1.5
  1
                          
100
AcDbText
  0
TEXT
  5
8A
330
EF7C85532
100
AcDbEntity
  8
SUNPOU
100
AcDbText
 10
1267.230848839808
 20
21.8983436374353
 30
0.0
 40
0.75
  1
                          
100
AcDbText
  0
TEXT
  5
8B
330
EF7C85532
100
AcDbEntity
  8
SUNPOU
100
AcDbText
 10
1019.048659343358
 20
43.7966872748706
 30
0.0
 40
1.5
  1
                          
100
AcDbText
  0
TEXT
  5
8C
330
EF7C85532
100
AcDbEntity
  8
SUNPOU
100
AcDbText
 10
1256.269310378271
 20
21.8983436374353
 30
0.0
 40
0.75
  1
                          
100
AcDbText
  0
INSERT
  5
8D
330
EF7C85532
100
AcDbEntity
  8
JISSEN
100
AcDbBlockReference
  2
STDGX5
 10
536.999998568
 20
0.0
 30
0.0
  0
INSERT
  5
8E
330
EF7C85532
100
AcDbEntity
  8
SUNPOU
100
AcDbBlockReference
  2
STDGX5
 10
739.0804232644236
 20
50.83533235670902
 30
0.0
 41
0.5
 42
0.5
 43
0.5
  0
INSERT
  5
8F
330
EF7C85532
100
AcDbEntity
  8
SUNPOU
100
AcDbBlockReference
  2
STDGX5
 10
726.2208210623692
 20
105.0763138619288
 30
0.0
 41
0.5
 42
0.5
 43
0.5
  0
INSERT
  5
90
330
EF7C85532
100
AcDbEntity
  8
HATCH
100
AcDbBlockReference
  2
STDGX5
 10
852.3985550581901
 20
151.7065097967401
 30
0.0
 41
0.5
 42
0.5
 43
0.5
  0
INSERT
  5
91
330
EF7C85532
100
AcDbEntity
  8
HATCH
100
AcDbBlockReference
  2
STDGX5
 10
866.6806796277283
 20
102.7017487639612
 30
0.0
 41
0.5
 42
0.5
 43
0.5
  0
INSERT
  5
92
330
EF7C85532
100
AcDbEntity
  8
TEXT
100
AcDbBlockReference
  2
STDGX5
 10
970.3434408521969
 20
102.8213468229236
 30
0.0
 41
0.5
 42
0.5
 43
0.5
  0
INSERT
  5
93
330
EF7C85532
100
AcDbEntity
  8
SUNPOU
100
AcDbBlockReference
  2
STDGX5
 10
996.1728907397867
 20
174.5475645486173
 30
0.0
 41
0.5
 42
0.5
 43
0.5
  0
INSERT
  5
94
330
EF7C85532
100
AcDbEntity
  8
TEXT
100
AcDbBlockReference
  2
STDGX5
 10
725.7513886810995
 20
124.5860190441302
 30
0.0
 41
0.5
 42
0.5
 43
0.5
  0
INSERT
  5
95
330
EF7C85532
100
AcDbEntity
  8
HATCH
100
AcDbBlockReference
  2
STDGX5
 10
777.1755722656421
 20
145.5222028932424
 30
0.0
 41
0.5
 42
0.5
 43
0.5
  0
INSERT
  5
96
330
EF7C85532
100
AcDbEntity
  8
SUNPOU
100
AcDbBlockReference
  2
STDGX5
 10
846.1963575359604
 20
112.6957974729892
 30
0.0
 41
0.5
 42
0.5
 43
0.5
  0
INSERT
  5
97
330
EF7C85532
100
AcDbEntity
  8
SUNPOU
100
AcDbBlockReference
  2
STDGX5
 10
916.6681156211122
 20
121.7330617103083
 30
0.0
 41
0.5
 42
0.5
 43
0.5
  0
INSERT
  5
98
330
EF7C85532
100
AcDbEntity
  8
TEXT
100
AcDbBlockReference
  2
STDGX5
 10
983.7969461426766
 20
84.61852224867081
 30
0.0
 41
0.5
 42
0.5
 43
0.5
  0
INSERT
  5
99
330
EF7C85532
100
AcDbEntity
  8
HATCH
100
AcDbBlockReference
  2
STDGX5
 10
974.2802715042101
 20
136.484938655923
 30
0.0
 41
0.5
 42
0.5
 43
0.5
  0
INSERT
  5
9A
330
EF7C85532
100
AcDbEntity
  8
SUNPOU
100
AcDbBlockReference
  2
STDGX5
 10
749.7834008663487
 20
95.14721172234004
 30
0.0
 41
0.5
 42
0.5
 43
0.5
  0
INSERT
  5
9B
330
EF7C85532
100
AcDbEntity
  8
SUNPOU
100
AcDbBlockReference
  2
STDGX5
 10
736.9237986642947
 20
149.3881932275598
 30
0.0
 41
0.5
 42
0.5
 43
0.5
  0
INSERT
  5
9C
330
EF7C85532
100
AcDbEntity
  8
HATCH
100
AcDbBlockReference
  2
STDGX5
 10
863.1015326601156
 20
196.0183891623711
 30
0.0
 41
0.5
 42
0.5
 43
0.5
  0
INSERT
  5
9D
330
EF7C85532
100
AcDbEntity
  8
HATCH
100
AcDbBlockReference
  2
STDGX5
 10
877.3836572296538
 20
147.0136281295921
 30
0.0
 41
0.5
 42
0.5
 43
0.5
  0
INSERT
  5
9E
330
EF7C85532
100
AcDbEntity
  8
TEXT
100
AcDbBlockReference
  2
STDGX5
 10
981.0464184541222
 20
147.1332261885546
 30
0.0
 41
0.5
 42
0.5
 43
0.5
  0
INSERT
  5
9F
330
EF7C85532
100
AcDbEntity
  8
SUNPOU
100
AcDbBlockReference
  2
STDGX5
 10
1006.875868341712
 20
218.8594439142483
 30
0.0
 41
0.5
 42
0.5
 43
0.5
  0
INSERT
  5
A0
330
EF7C85532
100
AcDbEntity
  8
TEXT
100
AcDbBlockReference
  2
STDGX5
 10
736.454366283025
 20
168.8978984097611
 30
0.0
 41
0.5
 42
0.5
 43
0.5
  0
INSERT
  5
A1
330
EF7C85532
100
AcDbEntity
  8
HATCH
100
AcDbBlockReference
  2
STDGX5
 10
787.8785498675677
 20
189.8340822588733
 30
0.0
 41
0.5
 42
0.5
 43
0.5
  0
INSERT
  5
A2
330
EF7C85532
100
AcDbEntity
  8
SUNPOU
100
AcDbBlockReference
  2
STDGX5
 10
856.899335137886
 20
157.0076768386202
 30
0.0
 41
0.5
 42
0.5
 43
0.5
  0
INSERT
  5
A3
330
EF7C85532
100
AcDbEntity
  8
SUNPOU
100
AcDbBlockReference
  2
STDGX5
 10
927.3710932230379
 20
166.0449410759395
 30
0.0
 41
0.5
 42
0.5
 43
0.5
  0
INSERT
  5
A4
330
EF7C85532
100
AcDbEntity
  8
TEXT
100
AcDbBlockReference
  2
STDGX5
 10
994.4999237446024
 20
128.9304016143016
 30
0.0
 41
0.5
 42
0.5
 43
0.5
  0
INSERT
  5
A5
330
EF7C85532
100
AcDbEntity
  8
HATCH
100
AcDbBlockReference
  2
STDGX5
 10
984.9832491061354
 20
180.7968180215541
 30
0.0
 41
0.5
 42
0.5
 43
0.5
  0
TEXT
  5
DE
330
EF7C85532
100
AcDbEntity
  8
SUNPOU
100
AcDbText
 10
274.0586949361738
 20
43.7966872748706
 30
0.0
 40
1.5
  1
                          
100
AcDbText
  0
TEXT
  5
145
330
EF7C85532
100
AcDbEntity
  8
SUNPOU
100
AcDbText
 10
511.2793459710869
 20
21.8983436374353
 30
0.0
 40
0.75
  1
                          
100
AcDbText
  0
TEXT
  5
265
330
EF7C85532
100
AcDbEntity
  8
SUNPOU
100
AcDbText
 10
474.702507645204
 20
43.79668727487056
 30
0.0
 40
1.5
  1
                          
100
AcDbText
  0
TEXT
  5
266
330
EF7C85532
100
AcDbEntity
  8
SUNPOU
100
AcDbText
 10
711.923158680117
 20
21.89834363743526
 30
0.0
 40
0.75
  1
                          
100
AcDbText
  0
INSERT
  5
2F7
330
EF7C85532
100
AcDbEntity
  8
HATCH
100
AcDbBlockReference
  2
*X4
 10
178.999999284
 20
0.0
 30
0.0
  0
TEXT
  5
31A
330
EF7C85532
100
AcDbEntity
  8
SUNPOU
100
AcDbText
 10
477.0854500730166
 20
43.7966872748706
 30
0.0
 40
1.5
  1
                          
100
AcDbText
  0
TEXT
  5
31C
330
EF7C85532
100
AcDbEntity
  8
SUNPOU
100
AcDbText
 10
714.3061011079296
 20
21.8983436374353
 30
0.0
 40
0.75
  1
                          
100
AcDbText
  0
TEXT
  5
3A6
330
EF7C85532
100
AcDbEntity
  8
TEXT
100
AcDbText
 10
100.9999992839998
 20
244.9999999999999
 30
0.0
 40
3.0
  1
 
  7
K
100
AcDbText
  0
TEXT
  5
3AB
330
EF7C85532
100
AcDbEntity
  8
SUNPOU
100
AcDbText
 10
466.1239116114783
 20
43.7966872748706
 30
0.0
 40
1.5
  1
                          
100
AcDbText
  0
TEXT
  5
3AC
330
EF7C85532
100
AcDbEntity
  8
SUNPOU
100
AcDbText
 10
703.3445626463913
 20
21.8983436374353
 30
0.0
 40
0.75
  1
                          
100
AcDbText
  0
INSERT
  5
3F6
330
EF7C85532
100
AcDbEntity
  8
TEXT
100
AcDbBlockReference
  2
STDGX5
 10
178.999999284
 20
0.0
 30
0.0
  0
TEXT
  5
3F7
330
EF7C85532
100
AcDbEntity
  8
SUNPOU
100
AcDbText
 10
453.0586949361739
 20
43.7966872748706
 30
0.0
 40
1.5
  1
                          
100
AcDbText
  0
TEXT
  5
3F8
330
EF7C85532
100
AcDbEntity
  8
SUNPOU
100
AcDbText
 10
690.2793459710871
 20
21.8983436374353
 30
0.0
 40
0.75
  1
                          
100
AcDbText
  0
TEXT
  5
3F9
330
EF7C85532
100
AcDbEntity
  8
SUNPOU
100
AcDbText
 10
647.9834433840535
 20
43.7966872748706
 30
0.0
 40
1.5
  1
                          
100
AcDbText
  0
TEXT
  5
3FA
330
EF7C85532
100
AcDbEntity
  8
SUNPOU
100
AcDbText
 10
885.2040944189665
 20
21.8983436374353
 30
0.0
 40
0.75
  1
                          
100
AcDbText
  0
TEXT
  5
3FB
330
EF7C85532
100
AcDbEntity
  8
SUNPOU
100
AcDbText
 10
848.6272560930835
 20
43.79668727487056
 30
0.0
 40
1.5
  1
                          
100
AcDbText
  0
TEXT
  5
3FC
330
EF7C85532
100
AcDbEntity
  8
SUNPOU
100
AcDbText
 10
1085.847907127996
 20
21.89834363743526
 30
0.0
 40
0.75
  1
                          
100
AcDbText
  0
INSERT
  5
3FD
330
EF7C85532
100
AcDbEntity
  8
HATCH
100
AcDbBlockReference
  2
*X5
 10
552.9247477318796
 20
0.0
 30
0.0
  0
TEXT
  5
3FE
330
EF7C85532
100
AcDbEntity
  8
SUNPOU
100
AcDbText
 10
851.0101985208963
 20
43.7966872748706
 30
0.0
 40
1.5
  1
                          
100
AcDbText
  0
TEXT
  5
3FF
330
EF7C85532
100
AcDbEntity
  8
SUNPOU
100
AcDbText
 10
1088.230849555809
 20
21.8983436374353
 30
0.0
 40
0.75
  1
                          
100
AcDbText
  0
TEXT
  5
400
330
EF7C85532
100
AcDbEntity
  8
SUNPOU
100
AcDbText
 10
840.048660059358
 20
43.7966872748706
 30
0.0
 40
1.5
  1
                          
100
AcDbText
  0
TEXT
  5
401
330
EF7C85532
100
AcDbEntity
  8
SUNPOU
100
AcDbText
 10
1077.269311094271
 20
21.8983436374353
 30
0.0
 40
0.75
  1
                          
100
AcDbText
  0
INSERT
  5
402
330
EF7C85532
100
AcDbEntity
  8
JISSEN
100
AcDbBlockReference
  2
STDGX5
 10
357.999999284
 20
0.0
 30
0.0
  0
TEXT
  5
409
330
EF7C85532
100
AcDbEntity
  8
SUNPOU
100
AcDbText
 10
453.0586949361739
 20
43.7966872748706
 30
0.0
 40
1.5
  1
                          
100
AcDbText
  0
TEXT
  5
40A
330
EF7C85532
100
AcDbEntity
  8
SUNPOU
100
AcDbText
 10
690.2793459710871
 20
21.8983436374353
 30
0.0
 40
0.75
  1
                          
100
AcDbText
  0
TEXT
  5
41B
330
EF7C85532
100
AcDbEntity
  8
SUNPOU
100
AcDbText
 10
647.9834433840535
 20
43.7966872748706
 30
0.0
 40
1.5
  1
                          
100
AcDbText
  0
TEXT
  5
41C
330
EF7C85532
100
AcDbEntity
  8
SUNPOU
100
AcDbText
 10
885.2040944189665
 20
21.8983436374353
 30
0.0
 40
0.75
  1
                          
100
AcDbText
  0
TEXT
  5
41D
330
EF7C85532
100
AcDbEntity
  8
SUNPOU
100
AcDbText
 10
848.6272560930835
 20
43.79668727487056
 30
0.0
 40
1.5
  1
                          
100
AcDbText
  0
TEXT
  5
41E
330
EF7C85532
100
AcDbEntity
  8
SUNPOU
100
AcDbText
 10
1085.847907127996
 20
21.89834363743526
 30
0.0
 40
0.75
  1
                          
100
AcDbText
  0
INSERT
  5
41F
330
EF7C85532
100
AcDbEntity
  8
HATCH
100
AcDbBlockReference
  2
*X6
 10
552.9247477318796
 20
0.0
 30
0.0
  0
TEXT
  5
420
330
EF7C85532
100
AcDbEntity
  8
SUNPOU
100
AcDbText
 10
851.0101985208963
 20
43.7966872748706
 30
0.0
 40
1.5
  1
                          
100
AcDbText
  0
TEXT
  5
421
330
EF7C85532
100
AcDbEntity
  8
SUNPOU
100
AcDbText
 10
1088.230849555809
 20
21.8983436374353
 30
0.0
 40
0.75
  1
                          
100
AcDbText
  0
TEXT
  5
422
330
EF7C85532
100
AcDbEntity
  8
SUNPOU
100
AcDbText
 10
840.048660059358
 20
43.7966872748706
 30
0.0
 40
1.5
  1
                          
100
AcDbText
  0
TEXT
  5
423
330
EF7C85532
100
AcDbEntity
  8
SUNPOU
100
AcDbText
 10
1077.269311094271
 20
21.8983436374353
 30
0.0
 40
0.75
  1
                          
100
AcDbText
  0
INSERT
  5
424
330
EF7C85532
100
AcDbEntity
  8
JISSEN
100
AcDbBlockReference
  2
STDGX5
 10
357.999999284
 20
0.0
 30
0.0
  0
TEXT
  5
425
330
EF7C85532
100
AcDbEntity
  8
SUNPOU
100
AcDbText
 10
632.0586942201737
 20
43.7966872748706
 30
0.0
 40
1.5
  1
                          
100
AcDbText
  0
TEXT
  5
426
330
EF7C85532
100
AcDbEntity
  8
SUNPOU
100
AcDbText
 10
869.2793452550871
 20
21.8983436374353
 30
0.0
 40
0.75
  1
                          
100
AcDbText
  0
TEXT
  5
427
330
EF7C85532
100
AcDbEntity
  8
SUNPOU
100
AcDbText
 10
826.9834426680532
 20
43.7966872748706
 30
0.0
 40
1.5
  1
                          
100
AcDbText
  0
TEXT
  5
428
330
EF7C85532
100
AcDbEntity
  8
SUNPOU
100
AcDbText
 10
1064.204093702966
 20
21.8983436374353
 30
0.0
 40
0.75
  1
                          
100
AcDbText
  0
TEXT
  5
429
330
EF7C85532
100
AcDbEntity
  8
SUNPOU
100
AcDbText
 10
1027.627255377083
 20
43.79668727487056
 30
0.0
 40
1.5
  1
                          
100
AcDbText
  0
TEXT
  5
42A
330
EF7C85532
100
AcDbEntity
  8
SUNPOU
100
AcDbText
 10
1264.847906411996
 20
21.89834363743526
 30
0.0
 40
0.75
  1
                          
100
AcDbText
  0
INSERT
  5
42B
330
EF7C85532
100
AcDbEntity
  8
HATCH
100
AcDbBlockReference
  2
*X7
 10
731.9247470158797
 20
0.0
 30
0.0
  0
TEXT
  5
42C
330
EF7C85532
100
AcDbEntity
  8
SUNPOU
100
AcDbText
 10
1030.010197804895
 20
43.7966872748706
 30
0.0
 40
1.5
  1
                          
100
AcDbText
  0
TEXT
  5
42D
330
EF7C85532
100
AcDbEntity
  8
SUNPOU
100
AcDbText
 10
1267.230848839808
 20
21.8983436374353
 30
0.0
 40
0.75
  1
                          
100
AcDbText
  0
TEXT
  5
42E
330
EF7C85532
100
AcDbEntity
  8
SUNPOU
100
AcDbText
 10
1019.048659343358
 20
43.7966872748706
 30
0.0
 40
1.5
  1
                          
100
AcDbText
  0
TEXT
  5
42F
330
EF7C85532
100
AcDbEntity
  8
SUNPOU
100
AcDbText
 10
1256.269310378271
 20
21.8983436374353
 30
0.0
 40
0.75
  1
                          
100
AcDbText
  0
INSERT
  5
430
330
EF7C85532
100
AcDbEntity
  8
JISSEN
100
AcDbBlockReference
  2
STDGX5
 10
536.999998568
 20
0.0
 30
0.0
  0
INSERT
  5
43B
330
EF7C85532
100
AcDbEntity
  8
SUNPOU
100
AcDbBlockReference
  2
STDGX5
 10
739.0804232644236
 20
50.83533235670902
 30
0.0
 41
0.5
 42
0.5
 43
0.5
  0
INSERT
  5
43C
330
EF7C85532
100
AcDbEntity
  8
SUNPOU
100
AcDbBlockReference
  2
STDGX5
 10
726.2208210623692
 20
105.0763138619288
 30
0.0
 41
0.5
 42
0.5
 43
0.5
  0
INSERT
  5
43D
330
EF7C85532
100
AcDbEntity
  8
HATCH
100
AcDbBlockReference
  2
STDGX5
 10
852.3985550581901
 20
151.7065097967401
 30
0.0
 41
0.5
 42
0.5
 43
0.5
  0
INSERT
  5
43E
330
EF7C85532
100
AcDbEntity
  8
HATCH
100
AcDbBlockReference
  2
STDGX5
 10
866.6806796277283
 20
102.7017487639612
 30
0.0
 41
0.5
 42
0.5
 43
0.5
  0
INSERT
  5
43F
330
EF7C85532
100
AcDbEntity
  8
TEXT
100
AcDbBlockReference
  2
STDGX5
 10
970.3434408521969
 20
102.8213468229236
 30
0.0
 41
0.5
 42
0.5
 43
0.5
  0
INSERT
  5
440
330
EF7C85532
100
AcDbEntity
  8
SUNPOU
100
AcDbBlockReference
  2
STDGX5
 10
996.1728907397867
 20
174.5475645486173
 30
0.0
 41
0.5
 42
0.5
 43
0.5
  0
INSERT
  5
441
330
EF7C85532
100
AcDbEntity
  8
TEXT
100
AcDbBlockReference
  2
STDGX5
 10
725.7513886810995
 20
124.5860190441302
 30
0.0
 41
0.5
 42
0.5
 43
0.5
  0
INSERT
  5
442
330
EF7C85532
100
AcDbEntity
  8
HATCH
100
AcDbBlockReference
  2
STDGX5
 10
777.1755722656421
 20
145.5222028932424
 30
0.0
 41
0.5
 42
0.5
 43
0.5
  0
INSERT
  5
443
330
EF7C85532
100
AcDbEntity
  8
SUNPOU
100
AcDbBlockReference
  2
STDGX5
 10
846.1963575359604
 20
112.6957974729892
 30
0.0
 41
0.5
 42
0.5
 43
0.5
  0
INSERT
  5
444
330
EF7C85532
100
AcDbEntity
  8
SUNPOU
100
AcDbBlockReference
  2
STDGX5
 10
916.6681156211122
 20
121.7330617103083
 30
0.0
 41
0.5
 42
0.5
 43
0.5
  0
INSERT
  5
445
330
EF7C85532
100
AcDbEntity
  8
TEXT
100
AcDbBlockReference
  2
STDGX5
 10
983.7969461426766
 20
84.61852224867081
 30
0.0
 41
0.5
 42
0.5
 43
0.5
  0
INSERT
  5
446
330
EF7C85532
100
AcDbEntity
  8
HATCH
100
AcDbBlockReference
  2
STDGX5
 10
974.2802715042101
 20
136.484938655923
 30
0.0
 41
0.5
 42
0.5
 43
0.5
  0
INSERT
  5
447
330
EF7C85532
100
AcDbEntity
  8
SUNPOU
100
AcDbBlockReference
  2
STDGX5
 10
749.7834008663487
 20
95.14721172234004
 30
0.0
 41
0.5
 42
0.5
 43
0.5
  0
INSERT
  5
448
330
EF7C85532
100
AcDbEntity
  8
SUNPOU
100
AcDbBlockReference
  2
STDGX5
 10
736.9237986642947
 20
149.3881932275598
 30
0.0
 41
0.5
 42
0.5
 43
0.5
  0
INSERT
  5
449
330
EF7C85532
100
AcDbEntity
  8
HATCH
100
AcDbBlockReference
  2
STDGX5
 10
863.1015326601156
 20
196.0183891623711
 30
0.0
 41
0.5
 42
0.5
 43
0.5
  0
INSERT
  5
44A
330
EF7C85532
100
AcDbEntity
  8
HATCH
100
AcDbBlockReference
  2
STDGX5
 10
877.3836572296538
 20
147.0136281295921
 30
0.0
 41
0.5
 42
0.5
 43
0.5
  0
INSERT
  5
44B
330
EF7C85532
100
AcDbEntity
  8
TEXT
100
AcDbBlockReference
  2
STDGX5
 10
981.0464184541222
 20
147.1332261885546
 30
0.0
 41
0.5
 42
0.5
 43
0.5
  0
INSERT
  5
44C
330
EF7C85532
100
AcDbEntity
  8
SUNPOU
100
AcDbBlockReference
  2
STDGX5
 10
1006.875868341712
 20
218.8594439142483
 30
0.0
 41
0.5
 42
0.5
 43
0.5
  0
INSERT
  5
44D
330
EF7C85532
100
AcDbEntity
  8
TEXT
100
AcDbBlockReference
  2
STDGX5
 10
736.454366283025
 20
168.8978984097611
 30
0.0
 41
0.5
 42
0.5
 43
0.5
  0
INSERT
  5
44E
330
EF7C85532
100
AcDbEntity
  8
HATCH
100
AcDbBlockReference
  2
STDGX5
 10
787.8785498675677
 20
189.8340822588733
 30
0.0
 41
0.5
 42
0.5
 43
0.5
  0
INSERT
  5
44F
330
EF7C85532
100
AcDbEntity
  8
SUNPOU
100
AcDbBlockReference
  2
STDGX5
 10
856.899335137886
 20
157.0076768386202
 30
0.0
 41
0.5
 42
0.5
 43
0.5
  0
INSERT
  5
450
330
EF7C85532
100
AcDbEntity
  8
SUNPOU
100
AcDbBlockReference
  2
STDGX5
 10
927.3710932230379
 20
166.0449410759395
 30
0.0
 41
0.5
 42
0.5
 43
0.5
  0
INSERT
  5
451
330
EF7C85532
100
AcDbEntity
  8
TEXT
100
AcDbBlockReference
  2
STDGX5
 10
994.4999237446024
 20
128.9304016143016
 30
0.0
 41
0.5
 42
0.5
 43
0.5
  0
INSERT
  5
452
330
EF7C85532
100
AcDbEntity
  8
HATCH
100
AcDbBlockReference
  2
STDGX5
 10
984.9832491061354
 20
180.7968180215541
 30
0.0
 41
0.5
 42
0.5
 43
0.5
  0
INSERT
  5
4CF3
330
EF7C85532
100
AcDbEntity
  8
JISSEN
100
AcDbBlockReference
  2
STDR12J
 10
0.0
 20
0.0
 30
0.0
  0
TEXT
  5
EF7C871BE
330
EF7C85532
100
AcDbEntity
  8
SUNPOU
100
AcDbText
 10
88.40418416980702
 20
83.07539239454756
 30
0.0
 40
1.5
  1
Q
 50
351.5000000000001
  7
K
 72
     1
 11
89.18126806244851
 21
82.95925642866
 31
0.0
100
AcDbText
  0
TEXT
  5
EF7C871C1
330
EF7C85532
100
AcDbEntity
  8
SUNPOU
100
AcDbText
 10
86.88905592362365
 20
83.79914963472122
 30
0.0
 40
1.5
  1
X
 50
333.4999999999991
  7
K
 72
     1
 11
87.52829475333937
 21
83.48043691107136
 31
0.0
100
AcDbText
  0
LINE
  5
EF7C871C2
330
EF7C85532
100
AcDbEntity
  8
SUNPOU
100
AcDbLine
 10
92.25813664143675
 20
85.1270151623998
 30
0.0
 11
93.00813664143674
 21
83.82797705672317
 31
0.0
  0
LINE
  5
EF7C871C3
330
EF7C85532
100
AcDbEntity
  8
SUNPOU
100
AcDbLine
 10
93.26558833263055
 20
83.97661685993716
 30
0.0
 11
92.23106970797237
 21
83.37933725350911
 31
0.0
  0
LINE
  5
EF7C871C4
330
EF7C85532
100
AcDbEntity
  8
SUNPOU
100
AcDbLine
 10
91.73852139916613
 20
84.82701516239979
 30
0.0
 11
92.48852139916612
 21
83.52797705672315
 31
0.0
  0
LINE
  5
EF7C871C5
330
EF7C85532
100
AcDbEntity
  8
SUNPOU
100
AcDbLine
 10
92.51558833263056
 20
85.27565496561384
 30
0.0
 11
91.48106970797238
 21
84.6783753591858
 31
0.0
  0
TEXT
  5
EF7C871C6
330
EF7C85532
100
AcDbEntity
  8
SUNPOU
100
AcDbText
 10
90.13945403861827
 20
82.84470091671201
 30
0.0
 40
1.5
  1
R
 50
9.499999999999994
  7
K
 72
     1
 11
90.91439272554039
 21
82.97438117845969
 31
0.0
100
AcDbText
  0
TEXT
  5
EF7C87298
330
EF7C85532
100
AcDbEntity
  8
TEXT
100
AcDbText
 10
103.3857135617143
 20
272.6428573010572
 30
0.0
 40
3.0
  1
XQR  型ヘッド
  7
K
 72
     4
 11
116.499999276
 21
274.0000001582
 31
0.0
100
AcDbText
  0
LINE
  5
EF7C8729D
330
EF7C85532
100
AcDbEntity
  8
TEXT
100
AcDbLine
 10
113.4679837116725
 20
275.5069522511281
 30
0.0
 11
113.4679837116725
 21
272.5069522511283
 31
0.0
  0
LINE
  5
EF7C8729E
330
EF7C85532
100
AcDbEntity
  8
TEXT
100
AcDbLine
 10
114.3679837116726
 20
275.5069522511281
 30
0.0
 11
114.3679837116726
 21
272.5069522511283
 31
0.0
  0
LINE
  5
EF7C872A5
330
EF7C85532
100
AcDbEntity
  8
TEXT
100
AcDbLine
 10
112.9179837116724
 20
272.5069522511283
 30
0.0
 11
114.9179837116726
 21
272.5069522511283
 31
0.0
  0
LINE
  5
EF7C872A7
330
EF7C85532
100
AcDbEntity
  8
TEXT
100
AcDbLine
 10
112.9179837116724
 20
275.5069522511281
 30
0.0
 11
114.9179837116726
 21
275.5069522511281
 31
0.0
  0
LINE
  5
EF7C8736A
330
EF7C85532
100
AcDbEntity
  8
TEXT
100
AcDbLine
 10
146.9973259647413
 20
10.84900581350063
 30
0.0
 11
146.9973259647413
 21
7.849005813500639
 31
0.0
  0
LINE
  5
EF7C8736B
330
EF7C85532
100
AcDbEntity
  8
TEXT
100
AcDbLine
 10
147.8973259647414
 20
10.84900581350063
 30
0.0
 11
147.8973259647414
 21
7.849005813500639
 31
0.0
  0
LINE
  5
EF7C8736C
330
EF7C85532
100
AcDbEntity
  8
TEXT
100
AcDbLine
 10
146.4473259647415
 20
7.849005813500639
 30
0.0
 11
148.4473259647415
 21
7.849005813500639
 31
0.0
  0
LINE
  5
EF7C8736D
330
EF7C85532
100
AcDbEntity
  8
TEXT
100
AcDbLine
 10
146.4473259647415
 20
10.84900581350063
 30
0.0
 11
148.4473259647415
 21
10.84900581350063
 31
0.0
  0
CIRCLE
  5
EF7C87773
330
EF7C85532
100
AcDbEntity
  8
JISSEN
100
AcDbCircle
 10
271.499998914
 20
30.55976720272906
 30
0.0
 40
14.00000000360273
  0
ARC
  5
EF7C87774
330
EF7C85532
100
AcDbEntity
  8
NITEN
 48
0.3
100
AcDbCircle
 10
271.499998914
 20
30.55976720272906
 30
0.0
 40
8.876455556170945
100
AcDbArc
 50
71.11660204973528
 51
101.8539214473984
  0
ARC
  5
EF7C87775
330
EF7C85532
100
AcDbEntity
  8
NITEN
 48
0.3
100
AcDbCircle
 10
271.499998914
 20
30.55976720272906
 30
0.0
 40
10.37645555617093
100
AcDbArc
 50
71.11660204973528
 51
101.8539214473984
  0
TEXT
  5
EF7C87776
330
EF7C85532
100
AcDbEntity
  8
SUNPOU
100
AcDbText
 10
272.2857131997142
 20
36.09943730431314
 30
0.0
 40
1.5
  1
N
 50
180.0
  7
K
 72
     1
 11
271.499998914
 21
36.09943730431314
 31
0.0
100
AcDbText
  0
CIRCLE
  5
EF7C87777
330
EF7C85532
100
AcDbEntity
  8
SAISEN
100
AcDbCircle
 10
271.499998914
 20
30.55976720272906
 30
0.0
 40
0.8163265304000049
  0
CIRCLE
  5
EF7C87778
330
EF7C85532
100
AcDbEntity
  8
TENSEN
100
AcDbCircle
 10
271.499998914
 20
30.55976720272906
 30
0.0
 40
3.0
  0
CIRCLE
  5
EF7C87779
330
EF7C85532
100
AcDbEntity
  8
JISSEN
100
AcDbCircle
 10
271.499998914
 20
30.55976720272906
 30
0.0
 40
1.275510203750001
  0
CIRCLE
  5
EF7C8777A
330
EF7C85532
100
AcDbEntity
  8
JISSEN
100
AcDbCircle
 10
271.499998914
 20
30.55976720272906
 30
0.0
 40
2.908163264550011
  0
CIRCLE
  5
EF7C8777B
330
EF7C85532
100
AcDbEntity
  8
JISSEN
100
AcDbCircle
 10
271.499998914
 20
30.55976720272906
 30
0.0
 40
11.69999999695849
  0
CIRCLE
  5
EF7C8777C
330
EF7C85532
100
AcDbEntity
  8
JISSEN
100
AcDbCircle
 10
271.499998914
 20
30.55976720272906
 30
0.0
 40
11.0
  0
CIRCLE
  5
EF7C8777D
330
EF7C85532
100
AcDbEntity
  8
JISSEN
100
AcDbCircle
 10
271.499998914
 20
30.55976720272906
 30
0.0
 40
6.565073706439192
  0
CIRCLE
  5
EF7C8777E
330
EF7C85532
100
AcDbEntity
  8
JISSEN
100
AcDbCircle
 10
271.499998914
 20
30.55976720272906
 30
0.0
 40
7.210436494060857
  0
CIRCLE
  5
EF7C8777F
330
EF7C85532
100
AcDbEntity
  8
JISSEN
100
AcDbCircle
 10
271.499998914
 20
30.55976720272906
 30
0.0
 40
8.163265304000006
  0
LINE
  5
EF7C87781
330
EF7C85532
100
AcDbEntity
  8
SAISEN
100
AcDbLine
 10
271.499998914
 20
222.9882608347681
 30
0.0
 11
264.6122438137499
 21
222.9882608347681
 31
0.0
  0
LINE
  5
EF7C87782
330
EF7C85532
100
AcDbEntity
  8
SAISEN
100
AcDbLine
 10
271.499998914
 20
220.5392812435682
 30
0.0
 11
264.6122438137499
 21
220.5392812435682
 31
0.0
  0
LINE
  5
EF7C87783
330
EF7C85532
100
AcDbEntity
  8
JISSEN
100
AcDbLine
 10
271.499998914
 20
221.7637710391683
 30
0.0
 11
268.7448968738999
 21
221.7637710391683
 31
0.0
  0
LINE
  5
EF7C87784
330
EF7C85532
100
AcDbEntity
  8
SAISEN
100
AcDbLine
 10
271.499998914
 20
222.6311179777183
 30
0.0
 11
263.33673361
 21
222.6311179777181
 31
0.0
  0
LINE
  5
EF7C87785
330
EF7C85532
100
AcDbEntity
  8
SAISEN
100
AcDbLine
 10
271.499998914
 20
222.7841792021681
 30
0.0
 11
263.33673361
 21
222.7841792021681
 31
0.0
  0
LINE
  5
EF7C87786
330
EF7C85532
100
AcDbEntity
  8
SAISEN
100
AcDbLine
 10
271.499998914
 20
220.8964241006181
 30
0.0
 11
263.33673361
 21
220.8964241006183
 31
0.0
  0
LINE
  5
EF7C87787
330
EF7C85532
100
AcDbEntity
  8
SAISEN
100
AcDbLine
 10
271.499998914
 20
220.7433628761683
 30
0.0
 11
263.33673361
 21
220.7433628761683
 31
0.0
  0
LINE
  5
EF7C87788
330
EF7C85532
100
AcDbEntity
  8
JISSEN
100
AcDbLine
 10
261.2499989140001
 20
225.0862200178183
 30
0.0
 11
271.499998914
 21
225.0862200178183
 31
0.0
  0
LINE
  5
EF7C87789
330
EF7C85532
100
AcDbEntity
  8
JISSEN
100
AcDbLine
 10
258.649998914
 20
234.2069756819134
 30
0.0
 11
285.4999989139999
 21
234.2069756819137
 31
0.0
  0
LINE
  5
EF7C8778A
330
EF7C85532
100
AcDbEntity
  8
JISSEN
100
AcDbLine
 10
283.999998914
 20
234.7069756819134
 30
0.0
 11
258.999998914
 21
234.7069756819134
 31
0.0
  0
LINE
  5
EF7C8778B
330
EF7C85532
100
AcDbEntity
  8
SUNPOU
100
AcDbLine
 10
283.999998914
 20
252.1320626855132
 30
0.0
 11
258.999998914
 21
252.1320626855132
 31
0.0
  0
HATCH
  5
EF7C8778C
330
EF7C85532
100
AcDbEntity
  8
HATCH
100
AcDbHatch
 10
0.0
 20
0.0
 30
0.0
210
0.0
220
0.0
230
1.0
  2
ANSI31
 70
     0
 71
     0
 91
        2
 92
        7
 72
     0
 73
     1
 93
        4
 10
345.5634250355989
 20
242.7069756819133
 10
283.999998914
 20
242.7069756819134
 10
283.999998914
 20
234.7069756819134
 10
345.5634250355989
 20
234.7069756819134
 97
        0
 92
        7
 72
     0
 73
     1
 93
        4
 10
258.999998914
 20
242.7069756819136
 10
197.4365727924013
 20
242.7069756819136
 10
197.4365727924013
 20
234.7069756819136
 10
258.999998914
 20
234.7069756819136
 97
        0
 75
     0
 76
     1
 52
0.0
 41
20.0
 77
     0
 78
     1
 53
45.0
 43
181.4999154759839
 44
195.6283815213576
 45
-1.767766952966368
 46
1.767766952966368
 79
     0
 47
0.1733828905373426
 98
        2
 10
303.1131983211344
 20
238.9565668826363
 10
244.2885865653518
 20
238.7831839473429
  0
MTEXT
  5
EF7C8778D
330
EF7C85532
100
AcDbEntity
  8
SUNPOU
100
AcDbMText
 10
271.499998914
 20
254.082866763918
 30
0.0
 40
3.0
 41
0.0
 71
     5
 72
     1
  1
\A1;%%c25
  7
K
1001
ACAD
1000
MTEXTBEGIN
1070
    73
1070
     1
1070
    44
1040
1.0
1070
    74
1070
     0
1000
MTEXTEND
  0
INSERT
  5
EF7C8778E
330
EF7C85532
100
AcDbEntity
  8
WAKU
100
AcDbBlockReference
  2
WAKU
 10
180.9999992759999
 20
0.0000003292834663
 30
0.0
 41
181.0
 42
283.0
 43
181.0
  0
CIRCLE
  5
EF7C8778F
330
EF7C85532
100
AcDbEntity
  8
JISSEN
 62
     0
100
AcDbCircle
 10
271.4999989176025
 20
132.5673616117143
 30
0.0
 40
4.001768729385497
  0
LINE
  5
EF7C87790
330
EF7C85532
100
AcDbEntity
  8
JISSEN
 62
     0
100
AcDbLine
 10
257.6435924570514
 20
116.7984785412738
 30
0.0
 11
285.3564053781533
 21
116.7984785412742
 31
0.0
  0
LINE
  5
EF7C87791
330
EF7C85532
100
AcDbEntity
  8
JISSEN
 62
     0
100
AcDbLine
 10
285.3564053781533
 20
119.7984785412639
 30
0.0
 11
257.6435924570514
 21
119.7984785412738
 31
0.0
  0
LINE
  5
EF7C87792
330
EF7C85532
100
AcDbEntity
  8
JISSEN
 62
     0
100
AcDbLine
 10
284.4986561177666
 20
145.5673616117144
 30
0.0
 11
253.9999989176026
 21
145.5673616117144
 31
0.0
  0
LINE
  5
EF7C87793
330
EF7C85532
100
AcDbEntity
  8
JISSEN
 62
     0
100
AcDbLine
 10
260.8303761039059
 20
121.990855727577
 30
0.0
 11
282.1696217312993
 21
121.990855727577
 31
0.0
  0
LINE
  5
EF7C87794
330
EF7C85532
100
AcDbEntity
  8
JISSEN
 62
     0
100
AcDbLine
 10
258.4986561177667
 20
127.5673616117144
 30
0.0
 11
284.4986561177666
 21
127.5673616117143
 31
0.0
  0
LWPOLYLINE
  5
EF7C87795
330
EF7C85532
100
AcDbEntity
  8
JISSEN
 62
     0
100
AcDbPolyline
 90
        4
 70
     0
 43
0.0
 10
258.4986561177667
 20
127.5673616117144
 10
258.4986561177667
 20
125.0276249020122
 10
284.4986561177666
 20
125.0276249020122
 10
284.4986561177666
 20
127.5673616117143
  0
LINE
  5
EF7C87796
330
EF7C85532
100
AcDbEntity
  8
JISSEN
 62
     0
100
AcDbLine
 10
271.499998914
 20
114.6984785426001
 30
0.0
 11
259.7999989170415
 21
114.6984785426001
 31
0.0
  0
LINE
  5
EF7C87797
330
EF7C85532
100
AcDbEntity
  8
JISSEN
 62
     0
100
AcDbLine
 10
264.9999989156895
 20
78.19847855209014
 30
0.0
 11
271.499998914
 21
78.19847855209014
 31
0.0
  0
LINE
  5
EF7C87798
330
EF7C85532
100
AcDbEntity
  8
JISSEN
 62
     0
100
AcDbLine
 10
260.4999989139999
 20
77.17846479428539
 30
0.0
 11
271.499998914
 21
77.17846479428533
 31
0.0
  0
LINE
  5
EF7C87799
330
EF7C85532
100
AcDbEntity
  8
JISSEN
 62
     0
100
AcDbLine
 10
260.3102029985415
 20
79.19847855183014
 30
0.0
 11
271.499998914
 21
79.19847855183014
 31
0.0
  0
LINE
  5
EF7C8779A
330
EF7C85532
100
AcDbEntity
  8
SAISEN
 62
     0
100
AcDbLine
 10
271.499998914
 20
63.85601581563538
 30
0.0
 11
268.7448968738997
 21
63.85601581563538
 31
0.0
  0
LINE
  5
EF7C8779B
330
EF7C85532
100
AcDbEntity
  8
SAISEN
 62
     0
100
AcDbLine
 10
271.499998914
 20
62.83560765263541
 30
0.0
 11
263.3367336099999
 21
62.83560765263541
 31
0.0
  0
LINE
  5
EF7C8779C
330
EF7C85532
100
AcDbEntity
  8
SAISEN
 62
     0
100
AcDbLine
 10
271.499998914
 20
62.98866887708533
 30
0.0
 11
263.3367336099999
 21
62.98866887708545
 31
0.0
  0
LINE
  5
EF7C8779D
330
EF7C85532
100
AcDbEntity
  8
SAISEN
 62
     0
100
AcDbLine
 10
264.6122438137497
 20
65.08050561123531
 30
0.0
 11
271.499998914
 21
65.08050561123531
 31
0.0
  0
LINE
  5
EF7C8779E
330
EF7C85532
100
AcDbEntity
  8
SAISEN
 62
     0
100
AcDbLine
 10
271.499998914
 20
64.87642397863533
 30
0.0
 11
263.3367336099999
 21
64.87642397863533
 31
0.0
  0
LINE
  5
EF7C8779F
330
EF7C85532
100
AcDbEntity
  8
SAISEN
 62
     0
100
AcDbLine
 10
271.499998914
 20
64.72336275418541
 30
0.0
 11
263.3367336099999
 21
64.7233627541853
 31
0.0
  0
LINE
  5
EF7C877A0
330
EF7C85532
100
AcDbEntity
  8
JISSEN
 62
     0
100
AcDbLine
 10
261.249998914
 20
67.17846479428539
 30
0.0
 11
271.499998914
 21
67.17846479428539
 31
0.0
  0
LINE
  5
EF7C877A1
330
EF7C85532
100
AcDbEntity
  8
JISSEN
 62
     0
100
AcDbLine
 10
259.7999989170415
 20
79.70868263333017
 30
0.0
 11
283.1999989109572
 21
79.70868263333017
 31
0.0
  0
LINE
  5
EF7C877A2
330
EF7C85532
100
AcDbEntity
  8
SAISEN
 62
     0
100
AcDbLine
 10
264.6122438137497
 20
62.63152602003543
 30
0.0
 11
278.38775401425
 21
62.63152602003543
 31
0.0
  0
HATCH
  5
EF7C877A3
330
EF7C85532
100
AcDbEntity
  8
JISSEN
100
AcDbHatch
 10
0.0
 20
0.0
 30
0.0
210
0.0
220
0.0
230
1.0
  2
ANSI31
 70
     0
 71
     0
 91
        2
 92
        7
 72
     0
 73
     1
 93
       25
 10
297.3294920435753
 20
108.2287135843535
 10
298.8294920435753
 20
108.2287135843535
 10
298.8294920435753
 20
107.2287135843535
 10
300.0794920435753
 20
107.2287135843535
 10
300.0794920435753
 20
110.2287135843535
 10
297.3294920435753
 20
112.5287135843535
 10
297.3294920435753
 20
117.0287135843536
 10
300.0794920435753
 20
117.0287135843536
 10
300.0794920435753
 20
118.5287135843535
 10
293.0794920435753
 20
118.5287135843535
 10
293.0794920435753
 20
117.0287135843536
 10
295.8294920435753
 20
117.0287135843536
 10
295.8294920435753
 20
112.5287135843535
 10
293.0794920435753
 20
110.2287135843535
 10
293.0794920435753
 20
107.2287135843535
 10
294.3294920435753
 20
107.2287135843535
 10
294.3294920435753
 20
108.2287135843535
 10
295.8294920435753
 20
108.2287135843535
 10
295.8294920435753
 20
78.57871358435359
 10
284.4294920435757
 20
78.57871358435359
 10
284.4294920435754
 20
76.87871358435359
 10
309.0794920435753
 20
76.87871358435353
 10
309.0794920435753
 20
78.57871358435359
 10
302.3294920435753
 20
78.57871358435359
 10
297.3294920435753
 20
78.57871358435359
 97
        0
 92
        7
 72
     0
 73
     1
 93
       24
 10
247.1705057916299
 20
108.2287135843535
 10
248.6705057916298
 20
108.2287135843535
 10
248.6705057916298
 20
107.2287135843535
 10
249.9205057916298
 20
107.2287135843535
 10
249.9205057916298
 20
110.2287135843535
 10
247.1705057916298
 20
112.5287135843534
 10
247.1705057916298
 20
117.0287135843536
 10
249.9205057916298
 20
117.0287135843536
 10
249.9205057916298
 20
118.5287135843535
 10
242.9205057916298
 20
118.5287135843535
 10
242.9205057916298
 20
117.0287135843536
 10
245.6705057916298
 20
117.0287135843536
 10
245.6705057916298
 20
112.5287135843535
 10
242.9205057916298
 20
110.2287135843535
 10
242.9205057916298
 20
107.2287135843535
 10
244.1705057916298
 20
107.2287135843535
 10
244.1705057916298
 20
108.2287135843535
 10
245.6705057916298
 20
108.2287135843535
 10
245.6705057916299
 20
78.57871358435359
 10
233.9205057916298
 20
78.57871358435359
 10
233.9205057916298
 20
76.87871358435359
 10
258.5705057916295
 20
76.87871358435359
 10
258.5705057916295
 20
78.57871358435359
 10
247.1705057916298
 20
78.57871358435359
 97
        0
 75
     0
 76
     1
 52
0.0
 41
5.0
 77
     0
 78
     1
 53
45.0
 43
-307.4255189799798
 44
249.1869932644902
 45
-0.4419417382415923
 46
0.4419417382415923
 79
     0
 47
0.1461541772446758
 98
        2
 10
296.594832676807
 20
98.6948125865102
 10
246.5694421607281
 20
99.27942932426921
  0
LWPOLYLINE
  5
EF7C877A4
330
EF7C85532
100
AcDbEntity
  8
JISSEN
 62
     0
100
AcDbPolyline
 90
       11
 70
     0
 43
0.0
 10
288.4986561177667
 20
166.2776249020122
 42
0.4142135623730951
 10
291.9986561177667
 20
169.7776249020122
 10
291.9986561177667
 20
195.0276249020121
 10
250.9986561177667
 20
195.0276249020121
 10
250.9986561177667
 20
171.0276249020122
 10
250.9986561177667
 20
169.7776249020122
 42
0.4142135623730951
 10
254.4986561177667
 20
166.2776249020122
 10
254.9986561177667
 20
166.2776249020122
 42
-0.4142135623730951
 10
258.4986561177667
 20
162.7776249020122
 10
258.4986561177667
 20
161.5276249020123
 10
258.4986561177667
 20
145.5673616117143
  0
LINE
  5
EF7C877A5
330
EF7C85532
100
AcDbEntity
  8
JISSEN
 62
     0
100
AcDbLine
 10
253.9999989176026
 20
127.5673616117144
 30
0.0
 11
253.9999989176026
 21
145.5673616117144
 31
0.0
  0
LINE
  5
EF7C877A6
330
EF7C85532
100
AcDbEntity
  8
JISSEN
 62
     0
100
AcDbLine
 10
243.7999989176024
 20
137.5254015032642
 30
0.0
 11
243.7999989176024
 21
143.8692408604282
 31
0.0
  0
LINE
  5
EF7C877A7
330
EF7C85532
100
AcDbEntity
  8
JISSEN
 62
     0
100
AcDbLine
 10
248.7999989176024
 20
143.8692408604282
 30
0.0
 11
248.7999989176024
 21
137.5254015032642
 31
0.0
  0
LINE
  5
EF7C877A8
330
EF7C85532
100
AcDbEntity
  8
SUNPOU
100
AcDbLine
 10
112.0657567361749
 20
124.0785941605558
 30
0.0
 11
125.8392715290708
 21
157.6711554898794
 31
0.0
  0
LINE
  5
EF7C877A9
330
EF7C85532
100
AcDbEntity
  8
JISSEN
100
AcDbLine
 10
78.30008343801608
 20
157.7070965793538
 30
0.0
 11
78.30008343801608
 21
136.5785941605557
 31
0.0
  0
LINE
  5
EF7C877AA
330
EF7C85532
100
AcDbEntity
  8
JISSEN
100
AcDbLine
 10
101.700083438016
 20
157.7070965793538
 30
0.0
 11
101.700083438016
 21
136.5785941605557
 31
0.0
  0
INSERT
  5
EF7C877AB
330
EF7C85532
100
AcDbEntity
  8
WAKU
100
AcDbBlockReference
  2
WAKU
 10
0.0
 20
0.0
 30
0.0
 41
181.0
 42
283.0
 43
181.0
  0
LINE
  5
EF7C877AC
330
EF7C85532
100
AcDbEntity
  8
JISSEN
100
AcDbLine
 10
102.3500834380158
 20
136.5785941605557
 30
0.0
 11
77.650083438016
 21
136.5785941605557
 31
0.0
  0
HATCH
  5
EF7C877AD
330
EF7C85532
100
AcDbEntity
  8
JISSEN
100
AcDbHatch
 10
0.0
 20
0.0
 30
0.0
210
0.0
220
0.0
230
1.0
  2
ANSI31
 70
     0
 71
     0
 91
        2
 92
        7
 72
     1
 73
     1
 93
       14
 10
167.5097743114365
 20
123.3280584764697
 42
0.0
 10
167.9972317747797
 20
123.7856339354783
 42
0.0
 10
168.1752926713695
 20
124.0785941605557
 42
0.0
 10
102.5000834380159
 20
124.0785941605557
 42
0.0
 10
102.5000834380159
 20
119.2215227391284
 42
0.1963145652733771
 10
102.8500834380158
 20
119.0785941605557
 42
0.0
 10
164.0635095596147
 20
119.0785941605557
 42
0.0
 10
164.1804421322476
 20
119.9017512591074
 42
0.0
 10
164.3463994427758
 20
120.7043957538769
 42
0.0
 10
164.6692820066152
 20
121.3441024271858
 42
0.0
 10
165.1359711827814
 20
121.8449897150385
 42
0.0
 10
165.6999159863102
 20
122.250443290664
 42
0.0
 10
166.3145654322383
 20
122.6038488272918
 42
0.0
 10
166.9333685356015
 20
122.9485919981505
 42
0.0
 97
        0
 92
        7
 72
     1
 73
     1
 93
       14
 10
77.50008343801585
 20
124.0785941605557
 42
0.0
 10
11.82487420466259
 20
124.0785941605557
 42
0.0
 10
12.00293510125254
 20
123.7856339354783
 42
0.0
 10
12.49039256459559
 20
123.3280584764697
 42
0.0
 10
13.06679834043058
 20
122.9485919981505
 42
0.0
 10
13.68560144379432
 20
122.6038488272914
 42
0.0
 10
14.300250889722
 20
122.2504432906641
 42
0.0
 10
14.86419569325073
 20
121.8449897150384
 42
0.0
 10
15.33088486941676
 20
121.3441024271858
 42
0.0
 10
15.6537674332564
 20
120.7043957538769
 42
0.0
 10
15.81972474378437
 20
119.9017512591075
 42
0.0
 10
15.93665731641738
 20
119.0785941605557
 42
0.0
 10
77.15008343801599
 20
119.0785941605557
 42
0.1963145652733251
 10
77.50008343801585
 20
119.2215227391284
 42
0.0
 97
        0
 75
     0
 76
     1
 52
90.0
 41
15.0
 77
     0
 78
     1
 53
135.0
 43
0.0
 44
0.0
 45
-1.325825214724775
 46
-1.325825214724775
 79
     0
 47
0.5177232085739521
 98
        2
 10
130.6683305668432
 20
123.079378338806
 10
50.87410083576765
 20
120.4907620870842
  0
LINE
  5
EF7C877AE
330
EF7C85532
100
AcDbEntity
  8
JISSEN
100
AcDbLine
 10
104.0000834380159
 20
119.0785941605557
 30
0.0
 11
15.93665731641738
 21
119.0785941605559
 31
0.0
  0
LINE
  5
EF7C877AF
330
EF7C85532
100
AcDbEntity
  8
JISSEN
100
AcDbLine
 10
77.15008343801599
 20
118.5785941605557
 30
0.0
 11
104.0000834380159
 21
118.578594160556
 31
0.0
  0
LINE
  5
EF7C877B0
330
EF7C85532
100
AcDbEntity
  8
JISSEN
100
AcDbLine
 10
77.650083438016
 20
124.0785941605557
 30
0.0
 11
11.82487420466259
 21
124.0785941605557
 31
0.0
  0
LWPOLYLINE
  5
EF7C877B1
330
EF7C85532
100
AcDbEntity
  8
SAISEN
100
AcDbPolyline
 90
       11
 70
     0
 43
0.0
 10
11.82487420466259
 20
124.0785941605557
 10
12.00293510125254
 20
123.7856339354783
 10
12.49039256459559
 20
123.3280584764697
 10
13.06679834043063
 20
122.9485919981506
 10
13.68560144379398
 20
122.6038488272916
 10
14.30025088972189
 20
122.2504432906641
 10
14.86419569325073
 20
121.8449897150385
 10
15.33088486941682
 20
121.3441024271858
 10
15.6537674332564
 20
120.7043957538767
 10
15.81972474378437
 20
119.9017512591074
 10
15.93665731641738
 20
119.0785941605559
  0
LINE
  5
EF7C877B2
330
EF7C85532
100
AcDbEntity
  8
NITEN
 48
0.3
100
AcDbLine
 10
92.8728885091832
 20
96.83679545470035
 30
0.0
 11
93.35835340893765
 21
98.25606422103966
 31
0.0
  0
LINE
  5
EF7C877B3
330
EF7C85532
100
AcDbEntity
  8
NITEN
 48
0.3
100
AcDbLine
 10
85.93181614093044
 20
96.32735331669801
 30
0.0
 11
85.24433441953704
 21
97.66053330557793
 31
0.0
  0
LINE
  5
EF7C877B4
330
EF7C85532
100
AcDbEntity
  8
NITEN
 48
0.3
100
AcDbLine
 10
88.17670697018536
 20
97.12523876394762
 30
0.0
 11
87.86858120033969
 21
98.59325051797311
 31
0.0
  0
ARC
  5
EF7C877B5
330
EF7C85532
100
AcDbEntity
  8
NITEN
 48
0.3
100
AcDbCircle
 10
90.00008343801596
 20
88.43807803691834
 30
0.0
 40
8.876455556170945
100
AcDbArc
 50
71.11660204973528
 51
101.8539214473984
  0
ARC
  5
EF7C877B6
330
EF7C85532
100
AcDbEntity
  8
NITEN
 48
0.3
100
AcDbCircle
 10
90.00008343801596
 20
88.43807803691834
 30
0.0
 40
10.37645555617093
100
AcDbArc
 50
117.2788271775953
 51
152.8168386277389
  0
CIRCLE
  5
EF7C877B7
330
EF7C85532
100
AcDbEntity
  8
JISSEN
100
AcDbCircle
 10
90.00008343801596
 20
88.43807803691834
 30
0.0
 40
11.69999999695849
  0
CIRCLE
  5
EF7C877B8
330
EF7C85532
100
AcDbEntity
  8
JISSEN
100
AcDbCircle
 10
90.00008343801596
 20
88.43807803691834
 30
0.0
 40
11.0
  0
LINE
  5
EF7C877B9
330
EF7C85532
100
AcDbEntity
  8
SUNPOU
100
AcDbLine
 10
79.00008343801613
 20
114.3932163285082
 30
0.0
 11
65.18515078964014
 21
83.78613121456117
 31
0.0
  0
CIRCLE
  5
EF7C877BA
330
EF7C85532
100
AcDbEntity
  8
SUNPOU
100
AcDbCircle
 10
62.71676165537531
 20
78.31739689281505
 30
0.0
 40
6.0
  0
TEXT
  5
EF7C877BB
330
EF7C85532
100
AcDbEntity
  8
SUNPOU
100
AcDbText
 10
60.89533308394674
 20
76.06739689281505
 30
0.0
 40
4.5
  1
1
  7
K
 72
     4
 11
62.71676165537531
 21
78.31739689281505
 31
0.0
100
AcDbText
  0
CIRCLE
  5
EF7C877BC
330
EF7C85532
100
AcDbEntity
  8
TENSEN
100
AcDbCircle
 10
90.00008343801596
 20
88.43807803691834
 30
0.0
 40
3.0
  0
CIRCLE
  5
EF7C877BD
330
EF7C85532
100
AcDbEntity
  8
JISSEN
100
AcDbCircle
 10
90.00008343801596
 20
88.43807803691834
 30
0.0
 40
2.908163264550011
  0
CIRCLE
  5
EF7C877BE
330
EF7C85532
100
AcDbEntity
  8
JISSEN
100
AcDbCircle
 10
90.00008343801596
 20
88.43807803691834
 30
0.0
 40
6.565073706439192
  0
CIRCLE
  5
EF7C877BF
330
EF7C85532
100
AcDbEntity
  8
JISSEN
100
AcDbCircle
 10
90.00008343801596
 20
88.43807803691834
 30
0.0
 40
7.210436494060857
  0
CIRCLE
  5
EF7C877C0
330
EF7C85532
100
AcDbEntity
  8
JISSEN
100
AcDbCircle
 10
90.00008343801596
 20
88.43807803691834
 30
0.0
 40
8.163265304000006
  0
TEXT
  5
EF7C877C2
330
EF7C85532
100
AcDbEntity
  8
SUNPOU
100
AcDbText
 10
85.45072058855367
 20
79.08477211576105
 30
0.0
 40
1.5
  1
2
 50
338.0000000000004
  7
K
 72
     1
 11
86.11299477038711
 21
78.81719597760684
 31
0.0
100
AcDbText
  0
TEXT
  5
EF7C877C3
330
EF7C85532
100
AcDbEntity
  8
SUNPOU
100
AcDbText
 10
84.01680083225187
 20
79.94115566578907
 30
0.0
 40
1.5
  1
r
 50
328.0000000000001
  7
K
 72
     1
 11
84.50139974434126
 21
79.63834465765581
 31
0.0
100
AcDbText
  0
CIRCLE
  5
EF7C877C4
330
EF7C85532
100
AcDbEntity
  8
SUNPOU
100
AcDbCircle
 10
86.8731960932339
 20
78.61262306310954
 30
0.0
 40
0.0440817172092238
  0
TEXT
  5
EF7C877C5
330
EF7C85532
100
AcDbEntity
  8
SUNPOU
100
AcDbText
 10
87.10908631808683
 20
78.44430669864213
 30
0.0
 40
1.5
  1
6
 50
347.9999999999993
  7
K
 72
     1
 11
87.84269701863719
 21
78.28837293052879
 31
0.0
100
AcDbText
  0
TEXT
  5
EF7C877C8
330
EF7C85532
100
AcDbEntity
  8
SUNPOU
100
AcDbText
 10
94.5078626845566
 20
79.05894678117694
 30
0.0
 40
1.5
  1
P
 50
30.00000000000064
  7
K
 72
     1
 11
95.18831121610151
 21
79.45180392403409
 31
0.0
100
AcDbText
  0
TEXT
  5
EF7C877C9
330
EF7C85532
100
AcDbEntity
  8
SUNPOU
100
AcDbText
 10
93.0518293774452
 20
78.49484512644092
 30
0.0
 40
1.5
  1
S
 50
20.99999999999986
  7
K
 72
     1
 11
93.71867253922891
 21
78.75082223325899
 31
0.0
100
AcDbText
  0
TEXT
  5
EF7C877CA
330
EF7C85532
100
AcDbEntity
  8
SUNPOU
100
AcDbText
 10
91.45879299972785
 20
78.13986457994468
 30
0.0
 40
1.5
  1
S
 50
12.00000000000017
  7
K
 72
     1
 11
92.15746985739485
 21
78.28837293052879
 31
0.0
100
AcDbText
  0
CIRCLE
  5
EF7C877CB
330
EF7C85532
100
AcDbEntity
  8
JISSEN
100
AcDbCircle
 10
90.00008343801596
 20
88.43807803691834
 30
0.0
 40
1.275510203750001
  0
TEXT
  5
EF7C877CC
330
EF7C85532
100
AcDbEntity
  8
SUNPOU
100
AcDbText
 10
92.42522802985767
 20
93.47485463937402
 30
0.0
 40
1.5
  1
E
 50
161.9999999999993
  7
K
 72
     1
 11
91.71193564263631
 21
93.70661738515526
 31
0.0
100
AcDbText
  0
TEXT
  5
EF7C877CD
330
EF7C85532
100
AcDbEntity
  8
SUNPOU
100
AcDbText
 10
87.37960325960543
 20
93.381596561989
 30
0.0
 40
1.5
  1
U
 50
216.0000000000008
  7
K
 72
     1
 11
86.7439470497394
 21
92.91976529233062
 31
0.0
100
AcDbText
  0
CIRCLE
  5
EF7C877CE
330
EF7C85532
100
AcDbEntity
  8
SAISEN
100
AcDbCircle
 10
90.00008343801596
 20
88.43807803691834
 30
0.0
 40
0.8163265304000049
  0
ARC
  5
EF7C877CF
330
EF7C85532
100
AcDbEntity
  8
NITEN
 48
0.3
100
AcDbCircle
 10
90.00008343801596
 20
88.43807803691834
 30
0.0
 40
8.876455556170945
100
AcDbArc
 50
117.2788271775953
 51
152.8168386277389
  0
LINE
  5
EF7C877D0
330
EF7C85532
100
AcDbEntity
  8
NITEN
 48
0.3
100
AcDbLine
 10
82.10402644051407
 20
92.49316707821924
 30
0.0
 11
80.76970043377604
 21
93.17842185400895
 31
0.0
  0
TEXT
  5
EF7C877D1
330
EF7C85532
100
AcDbEntity
  8
SUNPOU
100
AcDbText
 10
90.78579772373025
 20
93.97774813850237
 30
0.0
 40
1.5
  1
N
 50
180.0
  7
K
 72
     1
 11
90.00008343801596
 21
93.97774813850237
 31
0.0
100
AcDbText
  0
TEXT
  5
EF7C877D2
330
EF7C85532
100
AcDbEntity
  8
SUNPOU
100
AcDbText
 10
88.76375949154329
 20
93.86112588234274
 30
0.0
 40
1.5
  1
J
 50
198.0000000000005
  7
K
 72
     1
 11
88.28823123339573
 21
93.70661738515526
 31
0.0
100
AcDbText
  0
TEXT
  5
EF7C877D3
330
EF7C85532
100
AcDbEntity
  8
SUNPOU
100
AcDbText
 10
93.83408910798902
 20
92.49991868355028
 30
0.0
 40
1.5
  1
S
 50
143.9999999999991
  7
K
 72
     1
 11
93.25621982629263
 21
92.91976529233062
 31
0.0
100
AcDbText
  0
TEXT
  5
EF7C877D4
330
EF7C85532
100
AcDbEntity
  8
SUNPOU
100
AcDbText
 10
97.52402660523188
 20
95.6268509547724
 30
0.0
 40
1.5
  1
R
 50
138.0251942352304
  7
K
 72
     1
 11
96.93989597391704
 21
96.15233962671045
 31
0.0
100
AcDbText
  0
TEXT
  5
EF7C877D5
330
EF7C85532
100
AcDbEntity
  8
SUNPOU
100
AcDbText
 10
98.65803831916013
 20
94.21111832120862
 30
0.0
 40
1.5
  1
Q
 50
128.0251942352288
  7
K
 72
     1
 11
98.17403209493603
 21
94.83005685910057
 31
0.0
100
AcDbText
  0
ARC
  5
EF7C877D6
330
EF7C85532
100
AcDbEntity
  8
JISSEN
100
AcDbCircle
 10
77.15008343801599
 20
119.5785941605557
 30
0.0
 40
0.5
100
AcDbArc
 50
270.0
 51
0.000000000000007
  0
LINE
  5
EF7C877D7
330
EF7C85532
100
AcDbEntity
  8
JISSEN
100
AcDbLine
 10
77.50008343801585
 20
124.0785941605557
 30
0.0
 11
77.50008343801585
 21
119.2215227391284
 31
0.0
  0
LINE
  5
EF7C877D8
330
EF7C85532
100
AcDbEntity
  8
JISSEN
100
AcDbLine
 10
79.75008343801613
 20
109.4578384964605
 30
0.0
 11
90.00008343801608
 21
109.4578384964605
 31
0.0
  0
LINE
  5
EF7C877D9
330
EF7C85532
100
AcDbEntity
  8
JISSEN
100
AcDbLine
 10
79.00008343801613
 20
118.5785941605557
 30
0.0
 11
79.00008343801613
 21
110.2078384964605
 31
0.0
  0
INSERT
  5
EF7C877DA
330
EF7C85532
100
AcDbEntity
  8
SUNPOU
100
AcDbBlockReference
  2
ARROW
 10
79.00008343801613
 20
114.3932163285082
 30
0.0
 41
1.499999999999991
 42
1.5
 43
1.5
 50
65.70730284191435
  0
ARC
  5
EF7C877DB
330
EF7C85532
100
AcDbEntity
  8
JISSEN
100
AcDbCircle
 10
79.75008343801613
 20
110.2078384964605
 30
0.0
 40
0.75
100
AcDbArc
 50
180.0
 51
270.0
  0
LINE
  5
EF7C877DC
330
EF7C85532
100
AcDbEntity
  8
JISSEN
100
AcDbLine
 10
76.00008343801596
 20
119.0785941605557
 30
0.0
 11
76.00008343801596
 21
118.5785941605557
 31
0.0
  0
LINE
  5
EF7C877DD
330
EF7C85532
100
AcDbEntity
  8
JISSEN
100
AcDbLine
 10
76.00008343801596
 20
118.5785941605557
 30
0.0
 11
77.15008343801599
 21
118.5785941605557
 31
0.0
  0
LINE
  5
EF7C877DE
330
EF7C85532
100
AcDbEntity
  8
JISSEN
100
AcDbLine
 10
77.15008343801599
 20
119.0785941605557
 30
0.0
 11
76.00008343801596
 21
119.0785941605557
 31
0.0
  0
LINE
  5
EF7C877DF
330
EF7C85532
100
AcDbEntity
  8
JISSEN
100
AcDbLine
 10
87.80620588756608
 20
107.3598793134104
 30
0.0
 11
87.80620588756608
 21
109.4578384964605
 31
0.0
  0
LINE
  5
EF7C877E0
330
EF7C85532
100
AcDbEntity
  8
JISSEN
100
AcDbLine
 10
92.19396098846607
 20
107.3598793134104
 30
0.0
 11
92.19396098846607
 21
109.4578384964605
 31
0.0
  0
ARC
  5
EF7C877E1
330
EF7C85532
100
AcDbEntity
  8
NITEN
 48
0.3
100
AcDbCircle
 10
90.00008343801596
 20
88.43807803691834
 30
0.0
 40
10.37645555617093
100
AcDbArc
 50
71.11660204973528
 51
101.8539214473984
  0
LINE
  5
EF7C877E2
330
EF7C85532
100
AcDbEntity
  8
JISSEN
100
AcDbLine
 10
90.00008343801608
 20
106.1353895178104
 30
0.0
 11
92.755185478116
 21
106.1353895178104
 31
0.0
  0
LINE
  5
EF7C877E3
330
EF7C85532
100
AcDbEntity
  8
SAISEN
100
AcDbLine
 10
90.00008343801608
 20
105.1149813548105
 30
0.0
 11
98.16334874201608
 21
105.1149813548105
 31
0.0
  0
LINE
  5
EF7C877E4
330
EF7C85532
100
AcDbEntity
  8
SAISEN
100
AcDbLine
 10
90.00008343801608
 20
105.2680425792605
 30
0.0
 11
98.16334874201608
 21
105.2680425792606
 31
0.0
  0
LINE
  5
EF7C877E5
330
EF7C85532
100
AcDbEntity
  8
SAISEN
100
AcDbLine
 10
90.00008343801608
 20
104.9108997222105
 30
0.0
 11
96.88783853826601
 21
104.9108997222106
 31
0.0
  0
LINE
  5
EF7C877E6
330
EF7C85532
100
AcDbEntity
  8
SAISEN
100
AcDbLine
 10
90.00008343801608
 20
107.3598793134104
 30
0.0
 11
96.88783853826601
 21
107.3598793134104
 31
0.0
  0
LINE
  5
EF7C877E7
330
EF7C85532
100
AcDbEntity
  8
SAISEN
100
AcDbLine
 10
90.00008343801608
 20
107.1557976808105
 30
0.0
 11
98.16334874201608
 21
107.1557976808105
 31
0.0
  0
LINE
  5
EF7C877E8
330
EF7C85532
100
AcDbEntity
  8
SAISEN
100
AcDbLine
 10
90.00008343801608
 20
107.0027364563606
 30
0.0
 11
98.16334874201608
 21
107.0027364563603
 31
0.0
  0
LINE
  5
EF7C877E9
330
EF7C85532
100
AcDbEntity
  8
SAISEN
100
AcDbLine
 10
90.00008343801608
 20
107.0027364563606
 30
0.0
 11
81.83681813401609
 21
107.0027364563603
 31
0.0
  0
LINE
  5
EF7C877EA
330
EF7C85532
100
AcDbEntity
  8
SAISEN
100
AcDbLine
 10
90.00008343801608
 20
107.1557976808105
 30
0.0
 11
81.83681813401609
 21
107.1557976808105
 31
0.0
  0
LINE
  5
EF7C877EB
330
EF7C85532
100
AcDbEntity
  8
SAISEN
100
AcDbLine
 10
90.00008343801608
 20
107.3598793134104
 30
0.0
 11
83.11232833776614
 21
107.3598793134104
 31
0.0
  0
LINE
  5
EF7C877EC
330
EF7C85532
100
AcDbEntity
  8
SAISEN
100
AcDbLine
 10
90.00008343801608
 20
104.9108997222105
 30
0.0
 11
83.11232833776614
 21
104.9108997222106
 31
0.0
  0
LINE
  5
EF7C877ED
330
EF7C85532
100
AcDbEntity
  8
SAISEN
100
AcDbLine
 10
90.00008343801608
 20
105.2680425792605
 30
0.0
 11
81.83681813401609
 21
105.2680425792606
 31
0.0
  0
LINE
  5
EF7C877EE
330
EF7C85532
100
AcDbEntity
  8
SAISEN
100
AcDbLine
 10
90.00008343801608
 20
105.1149813548105
 30
0.0
 11
81.83681813401609
 21
105.1149813548105
 31
0.0
  0
LINE
  5
EF7C877EF
330
EF7C85532
100
AcDbEntity
  8
SAISEN
100
AcDbLine
 10
81.83681813401609
 20
107.1557976808105
 30
0.0
 11
81.83681813401609
 21
107.0027364563603
 31
0.0
  0
ARC
  5
EF7C877F0
330
EF7C85532
100
AcDbEntity
  8
SAISEN
100
AcDbCircle
 10
83.11232833776614
 20
107.0027364563603
 30
0.0
 40
0.3571428570499999
100
AcDbArc
 50
90.0
 51
154.6230664748522
  0
LINE
  5
EF7C877F1
330
EF7C85532
100
AcDbEntity
  8
SAISEN
100
AcDbLine
 10
81.83681813401609
 20
105.1149813548105
 30
0.0
 11
81.83681813401609
 21
105.2680425792606
 31
0.0
  0
ARC
  5
EF7C877F2
330
EF7C85532
100
AcDbEntity
  8
SAISEN
100
AcDbCircle
 10
83.11232833776614
 20
105.2680425792606
 30
0.0
 40
0.3571428570499999
100
AcDbArc
 50
205.3769335251477
 51
270.0
  0
LINE
  5
EF7C877F3
330
EF7C85532
100
AcDbEntity
  8
JISSEN
100
AcDbLine
 10
86.9388589490161
 20
106.4415119667105
 30
0.0
 11
86.9388589490161
 21
106.8496752319105
 31
0.0
  0
ARC
  5
EF7C877F4
330
EF7C85532
100
AcDbEntity
  8
SAISEN
100
AcDbCircle
 10
86.78579772456613
 20
106.8496752319105
 30
0.0
 40
0.15306122445
100
AcDbArc
 50
0.000000000000007
 51
90.0
  0
LINE
  5
EF7C877F5
330
EF7C85532
100
AcDbEntity
  8
JISSEN
100
AcDbLine
 10
88.2653895609161
 20
106.1353895178104
 30
0.0
 11
87.24498139791615
 21
106.1353895178104
 31
0.0
  0
ARC
  5
EF7C877F6
330
EF7C85532
100
AcDbEntity
  8
JISSEN
100
AcDbCircle
 10
87.24498139791615
 20
105.8292670689104
 30
0.0
 40
0.3061224489
100
AcDbArc
 50
90.0
 51
180.0
  0
LINE
  5
EF7C877F7
330
EF7C85532
100
AcDbEntity
  8
JISSEN
100
AcDbLine
 10
86.9388589490161
 20
105.8292670689104
 30
0.0
 11
86.9388589490161
 21
105.4211038037104
 31
0.0
  0
ARC
  5
EF7C877F8
330
EF7C85532
100
AcDbEntity
  8
SAISEN
100
AcDbCircle
 10
86.78579772456613
 20
105.4211038037104
 30
0.0
 40
0.15306122445
100
AcDbArc
 50
270.0
 51
0.000000000000007
  0
ARC
  5
EF7C877F9
330
EF7C85532
100
AcDbEntity
  8
JISSEN
100
AcDbCircle
 10
87.24498139791615
 20
106.4415119667105
 30
0.0
 40
0.3061224489
100
AcDbArc
 50
180.0
 51
270.0
  0
LINE
  5
EF7C877FA
330
EF7C85532
100
AcDbEntity
  8
JISSEN
100
AcDbLine
 10
90.00008343801608
 20
106.1353895178104
 30
0.0
 11
87.24498139791615
 21
106.1353895178104
 31
0.0
  0
ARC
  5
EF7C877FB
330
EF7C85532
100
AcDbEntity
  8
SAISEN
100
AcDbCircle
 10
93.21436915146604
 20
105.4211038037104
 30
0.0
 40
0.15306122445
100
AcDbArc
 50
180.0
 51
270.0
  0
ARC
  5
EF7C877FC
330
EF7C85532
100
AcDbEntity
  8
SAISEN
100
AcDbCircle
 10
93.21436915146604
 20
106.8496752319105
 30
0.0
 40
0.15306122445
100
AcDbArc
 50
90.0
 51
180.0
  0
LINE
  5
EF7C877FD
330
EF7C85532
100
AcDbEntity
  8
JISSEN
100
AcDbLine
 10
93.06130792701607
 20
105.8292670689104
 30
0.0
 11
93.06130792701607
 21
105.4211038037104
 31
0.0
  0
ARC
  5
EF7C877FE
330
EF7C85532
100
AcDbEntity
  8
JISSEN
100
AcDbCircle
 10
92.755185478116
 20
105.8292670689104
 30
0.0
 40
0.3061224489
100
AcDbArc
 50
0.0
 51
90.0
  0
ARC
  5
EF7C877FF
330
EF7C85532
100
AcDbEntity
  8
JISSEN
100
AcDbCircle
 10
92.755185478116
 20
106.4415119667105
 30
0.0
 40
0.3061224489
100
AcDbArc
 50
270.0
 51
0.0
  0
LINE
  5
EF7C87800
330
EF7C85532
100
AcDbEntity
  8
JISSEN
100
AcDbLine
 10
93.06130792701607
 20
106.4415119667105
 30
0.0
 11
93.06130792701607
 21
106.8496752319105
 31
0.0
  0
LINE
  5
EF7C87801
330
EF7C85532
100
AcDbEntity
  8
JISSEN
100
AcDbLine
 10
91.73477731511605
 20
106.1353895178104
 30
0.0
 11
92.755185478116
 21
106.1353895178104
 31
0.0
  0
ARC
  5
EF7C87802
330
EF7C85532
100
AcDbEntity
  8
SAISEN
100
AcDbCircle
 10
96.88783853826601
 20
107.0027364563603
 30
0.0
 40
0.3571428570499999
100
AcDbArc
 50
25.37693352514767
 51
90.0
  0
ARC
  5
EF7C87803
330
EF7C85532
100
AcDbEntity
  8
SAISEN
100
AcDbCircle
 10
96.88783853826601
 20
105.2680425792606
 30
0.0
 40
0.3571428570499999
100
AcDbArc
 50
270.0
 51
334.6230664748522
  0
LINE
  5
EF7C87804
330
EF7C85532
100
AcDbEntity
  8
SAISEN
100
AcDbLine
 10
98.16334874201608
 20
105.1149813548105
 30
0.0
 11
98.16334874201608
 21
105.2680425792606
 31
0.0
  0
LINE
  5
EF7C87805
330
EF7C85532
100
AcDbEntity
  8
SAISEN
100
AcDbLine
 10
98.16334874201608
 20
107.1557976808105
 30
0.0
 11
98.16334874201608
 21
107.0027364563603
 31
0.0
  0
LINE
  5
EF7C87806
330
EF7C85532
100
AcDbEntity
  8
JISSEN
100
AcDbLine
 10
100.2500834380159
 20
109.4578384964605
 30
0.0
 11
90.00008343801608
 21
109.4578384964605
 31
0.0
  0
LINE
  5
EF7C87807
330
EF7C85532
100
AcDbEntity
  8
JISSEN
100
AcDbLine
 10
101.0000834380159
 20
118.578594160556
 30
0.0
 11
101.0000834380159
 21
110.2078384964605
 31
0.0
  0
ARC
  5
EF7C87808
330
EF7C85532
100
AcDbEntity
  8
JISSEN
100
AcDbCircle
 10
100.2500834380159
 20
110.2078384964605
 30
0.0
 40
0.75
100
AcDbArc
 50
270.0
 51
0.0
  0
LINE
  5
EF7C87809
330
EF7C85532
100
AcDbEntity
  8
JISSEN
100
AcDbLine
 10
77.650083438016
 20
136.5785941605557
 30
0.0
 11
77.650083438016
 21
119.5785941605557
 31
0.0
  0
TEXT
  5
EF7C8780A
330
EF7C85532
100
AcDbEntity
  8
SUNPOU
100
AcDbText
 10
136.9446634111445
 20
7.849423898685245
 30
0.0
 40
3.0
  1
XQR  スリーブ取付状態
  7
K
100
AcDbText
  0
TEXT
  5
EF7C8780B
330
EF7C85532
100
AcDbEntity
  8
SUNPOU
100
AcDbText
 10
136.9446634111445
 20
2.849423898685245
 30
0.0
 40
3.0
  1
尺度　1/1
  7
K
100
AcDbText
  0
LINE
  5
EF7C8780C
330
EF7C85532
100
AcDbEntity
  8
JISSEN
100
AcDbLine
 10
258.999998914
 20
10.55976720272906
 30
0.0
 11
258.999998914
 21
24.25500708826979
 31
0.0
  0
TEXT
  5
EF7C8780E
330
EF7C85532
100
AcDbEntity
  8
SUNPOU
100
AcDbText
 10
265.5167163082357
 20
22.06284483159978
 30
0.0
 40
1.5
  1
r
 50
328.0000000000001
  7
K
 72
     1
 11
266.0013152203251
 21
21.76003382346653
 31
0.0
100
AcDbText
  0
CIRCLE
  5
EF7C8780F
330
EF7C85532
100
AcDbEntity
  8
SUNPOU
100
AcDbCircle
 10
268.3731115692178
 20
20.73431222892031
 30
0.0
 40
0.0440817172092238
  0
TEXT
  5
EF7C87810
330
EF7C85532
100
AcDbEntity
  8
SUNPOU
100
AcDbText
 10
266.9506360645375
 20
21.20646128157178
 30
0.0
 40
1.5
  1
2
 50
338.0000000000004
  7
K
 72
     1
 11
267.612910246371
 21
20.93888514341756
 31
0.0
100
AcDbText
  0
TEXT
  5
EF7C87811
330
EF7C85532
100
AcDbEntity
  8
SUNPOU
100
AcDbText
 10
268.6090017940707
 20
20.56599586445284
 30
0.0
 40
1.5
  1
6
 50
347.9999999999993
  7
K
 72
     1
 11
269.3426124946211
 21
20.41006209633951
 31
0.0
100
AcDbText
  0
LINE
  5
EF7C87812
330
EF7C85532
100
AcDbEntity
  8
JISSEN
100
AcDbLine
 10
258.999998914
 20
36.86452731718839
 30
0.0
 11
258.999998914
 21
50.55976720272906
 31
0.0
  0
ARC
  5
EF7C87813
330
EF7C85532
100
AcDbEntity
  8
NITEN
 48
0.3
100
AcDbCircle
 10
271.499998914
 20
30.55976720272906
 30
0.0
 40
10.37645555617093
100
AcDbArc
 50
117.2788271775953
 51
152.8168386277389
  0
ARC
  5
EF7C87814
330
EF7C85532
100
AcDbEntity
  8
NITEN
 48
0.3
100
AcDbCircle
 10
271.499998914
 20
30.55976720272906
 30
0.0
 40
8.876455556170945
100
AcDbArc
 50
117.2788271775953
 51
152.8168386277389
  0
LINE
  5
EF7C87815
330
EF7C85532
100
AcDbEntity
  8
NITEN
 48
0.3
100
AcDbLine
 10
263.6039419164979
 20
34.61485624402996
 30
0.0
 11
262.2696159097599
 21
35.30011101981966
 31
0.0
  0
TEXT
  5
EF7C87816
330
EF7C85532
100
AcDbEntity
  8
SUNPOU
100
AcDbText
 10
270.2636749675272
 20
35.98281504815351
 30
0.0
 40
1.5
  1
J
 50
198.0000000000005
  7
K
 72
     1
 11
269.7881467093797
 21
35.82830655096603
 31
0.0
100
AcDbText
  0
TEXT
  5
EF7C87817
330
EF7C85532
100
AcDbEntity
  8
SUNPOU
100
AcDbText
 10
268.8795187355893
 20
35.50328572779973
 30
0.0
 40
1.5
  1
U
 50
216.0000000000008
  7
K
 72
     1
 11
268.2438625257233
 21
35.04145445814134
 31
0.0
100
AcDbText
  0
LINE
  5
EF7C87818
330
EF7C85532
100
AcDbEntity
  8
NITEN
 48
0.3
100
AcDbLine
 10
269.6766224461693
 20
39.24692792975838
 30
0.0
 11
269.3684966763234
 21
40.71493968378388
 31
0.0
  0
LINE
  5
EF7C87819
330
EF7C85532
100
AcDbEntity
  8
NITEN
 48
0.3
100
AcDbLine
 10
267.4317316169144
 20
38.44904248250873
 30
0.0
 11
266.744249895521
 21
39.7822224713887
 31
0.0
  0
LINE
  5
EF7C8781A
330
EF7C85532
100
AcDbEntity
  8
SUNPOU
100
AcDbLine
 10
102.8500834380158
 20
118.5785941605557
 30
0.0
 11
124.6814474624251
 21
81.35329596242582
 31
0.0
  0
TEXT
  5
EF7C8781B
330
EF7C85532
100
AcDbEntity
  8
SUNPOU
100
AcDbText
 10
125.5739045125166
 20
73.9276928333129
 30
0.0
 40
4.5
  1
2
  7
K
 72
     4
 11
127.7167616553738
 21
76.1776928333129
 31
0.0
100
AcDbText
  0
CIRCLE
  5
EF7C8781C
330
EF7C85532
100
AcDbEntity
  8
SUNPOU
100
AcDbCircle
 10
127.7167616553738
 20
76.1776928333129
 30
0.0
 40
6.0
  0
LINE
  5
EF7C8781D
330
EF7C85532
100
AcDbEntity
  8
JISSEN
100
AcDbLine
 10
102.3500834380158
 20
124.0785941605557
 30
0.0
 11
168.1752926713695
 21
124.0785941605557
 31
0.0
  0
LINE
  5
EF7C8781E
330
EF7C85532
100
AcDbEntity
  8
JISSEN
100
AcDbLine
 10
104.0000834380159
 20
119.0785941605557
 30
0.0
 11
164.0635095596147
 21
119.0785941605559
 31
0.0
  0
ARC
  5
EF7C8781F
330
EF7C85532
100
AcDbEntity
  8
JISSEN
100
AcDbCircle
 10
102.8500834380158
 20
119.5785941605557
 30
0.0
 40
0.5
100
AcDbArc
 50
180.0
 51
270.0
  0
LINE
  5
EF7C87820
330
EF7C85532
100
AcDbEntity
  8
JISSEN
100
AcDbLine
 10
102.5000834380159
 20
124.0785941605557
 30
0.0
 11
102.5000834380159
 21
119.2215227391284
 31
0.0
  0
LINE
  5
EF7C87821
330
EF7C85532
100
AcDbEntity
  8
JISSEN
100
AcDbLine
 10
104.0000834380159
 20
119.0785941605557
 30
0.0
 11
104.0000834380159
 21
118.5785941605557
 31
0.0
  0
LINE
  5
EF7C87822
330
EF7C85532
100
AcDbEntity
  8
JISSEN
100
AcDbLine
 10
102.8500834380158
 20
119.0785941605557
 30
0.0
 11
104.0000834380159
 21
119.0785941605557
 31
0.0
  0
LINE
  5
EF7C87823
330
EF7C85532
100
AcDbEntity
  8
JISSEN
100
AcDbLine
 10
104.0000834380159
 20
118.5785941605557
 30
0.0
 11
102.8500834380158
 21
118.5785941605557
 31
0.0
  0
INSERT
  5
EF7C87824
330
EF7C85532
100
AcDbEntity
  8
SUNPOU
100
AcDbBlockReference
  2
ARROW
 10
102.8500834380158
 20
118.5785941605557
 30
0.0
 41
1.500000000000002
 42
1.5
 43
1.5
 50
120.3901646898522
  0
LINE
  5
EF7C87825
330
EF7C85532
100
AcDbEntity
  8
JISSEN
100
AcDbLine
 10
102.3500834380158
 20
136.5785941605557
 30
0.0
 11
102.3500834380158
 21
119.5785941605557
 31
0.0
  0
INSERT
  5
EF7C87826
330
EF7C85532
100
AcDbEntity
  8
SUNPOU
100
AcDbBlockReference
  2
ARROW
 10
112.0657567361749
 20
124.0785941605558
 30
0.0
 41
1.499999999999996
 42
1.5
 43
1.5
 50
247.7055463707493
  0
LWPOLYLINE
  5
EF7C87827
330
EF7C85532
100
AcDbEntity
  8
SAISEN
100
AcDbPolyline
 90
       11
 70
     0
 43
0.0
 10
168.1752926713695
 20
124.0785941605557
 10
167.9972317747797
 20
123.7856339354783
 10
167.5097743114365
 20
123.3280584764697
 10
166.9333685356015
 20
122.9485919981506
 10
166.3145654322381
 20
122.6038488272916
 10
165.6999159863103
 20
122.2504432906641
 10
165.1359711827814
 20
121.8449897150385
 10
164.6692820066152
 20
121.3441024271858
 10
164.3463994427758
 20
120.7043957538767
 10
164.1804421322476
 20
119.9017512591074
 10
164.0635095596147
 20
119.0785941605559
  0
LINE
  5
EF7C87828
330
EF7C85532
100
AcDbEntity
  8
JISSEN
 62
     0
100
AcDbLine
 10
259.7999989170415
 20
114.6984785426001
 30
0.0
 11
259.7999989170415
 21
87.69847855183014
 31
0.0
  0
LINE
  5
EF7C87829
330
EF7C85532
100
AcDbEntity
  8
JISSEN
 62
     0
100
AcDbLine
 10
247.1705057916298
 20
78.57871358435358
 30
0.0
 11
247.1705057916298
 21
108.2287135843536
 31
0.0
  0
LINE
  5
EF7C8782A
330
EF7C85532
100
AcDbEntity
  8
JISSEN
 62
     0
100
AcDbLine
 10
245.6705057916298
 20
108.2287135843536
 30
0.0
 11
245.6705057916298
 21
78.57871358435358
 31
0.0
  0
LINE
  5
EF7C8782B
330
EF7C85532
100
AcDbEntity
  8
0
 62
     0
100
AcDbLine
 10
228.7869314466547
 20
78.57871358435364
 30
0.0
 11
231.3247876649701
 21
81.11656980266905
 31
0.0
  0
LINE
  5
EF7C8782C
330
EF7C85532
100
AcDbEntity
  8
0
 62
     0
100
AcDbLine
 10
219.9480966818228
 20
78.57871358435358
 30
0.0
 11
231.9480966818229
 21
90.57871358435358
 31
0.0
  0
LINE
  5
EF7C8782D
330
EF7C85532
100
AcDbEntity
  8
0
 62
     0
100
AcDbLine
 10
224.3675140642387
 20
78.57871358435358
 30
0.0
 11
236.3675140642389
 21
90.57871358435363
 31
0.0
  0
LINE
  5
EF7C8782E
330
EF7C85532
100
AcDbEntity
  8
SAISEN
 62
     0
100
AcDbLine
 10
228.7869314466547
 20
78.57871358435358
 30
0.0
 11
240.6705057916298
 21
90.46228792932856
 31
0.0
  0
LWPOLYLINE
  5
EF7C8782F
330
EF7C85532
100
AcDbEntity
  8
JISSEN
 62
     0
100
AcDbPolyline
 90
        8
 70
     1
 43
0.0
 10
216.8278626773719
 20
90.5787135843536
 10
240.6705057916298
 20
90.57871358435363
 10
240.6705057916298
 20
78.57871358435364
 10
219.7659092362813
 20
78.57871358435359
 42
-0.202120388705406
 10
221.0966265295925
 20
80.70189253270674
 42
0.5713525608206203
 10
220.8690229507949
 20
83.56064856029636
 42
-0.3987555679944311
 10
219.7404885392578
 20
86.57017062585216
 42
0.4814910058598528
 10
218.2326148297247
 20
89.34774494069079
 42
-0.2786868946516943
  0
TEXT
  5
EF7C87830
330
EF7C85532
100
AcDbEntity
  8
SUNPOU
100
AcDbText
 10
216.4122762703507
 20
60.59043002235495
 30
0.0
 40
4.5
  1
スリーブ X
  7
K
 72
     2
 11
244.3551334132079
 21
60.59043002235495
 31
0.0
100
AcDbText
  0
LINE
  5
EF7C87831
330
EF7C85532
100
AcDbEntity
  8
SUNPOU
100
AcDbLine
 10
248.0547373756121
 20
60.10267431635821
 30
0.0
 11
215.5871279601267
 21
60.10267431635821
 31
0.0
  0
LINE
  5
EF7C87832
330
EF7C85532
100
AcDbEntity
  8
0
 62
     0
100
AcDbLine
 10
220.6390993909441
 20
83.68913367589085
 30
0.0
 11
227.5286792994069
 21
90.57871358435358
 31
0.0
  0
LINE
  5
EF7C87833
330
EF7C85532
100
AcDbEntity
  8
0
 62
     0
100
AcDbLine
 10
220.2762442089301
 20
78.90686111146107
 30
0.0
 11
220.2762442089301
 21
78.90686111146107
 31
0.0
  0
LINE
  5
EF7C87834
330
EF7C85532
100
AcDbEntity
  8
0
 62
     0
100
AcDbLine
 10
224.3675140642387
 20
78.57871358435364
 30
0.0
 11
225.2480887641481
 21
79.45928828426303
 31
0.0
  0
LINE
  5
EF7C87835
330
EF7C85532
100
AcDbEntity
  8
0
 62
     0
100
AcDbLine
 10
226.3529431097523
 20
80.56414262986704
 30
0.0
 11
226.3529431097523
 21
80.56414262986704
 31
0.0
  0
LINE
  5
EF7C87836
330
EF7C85532
100
AcDbEntity
  8
0
 62
     0
100
AcDbLine
 10
221.9335257273362
 20
84.98356001228296
 30
0.0
 11
221.9335257273362
 21
84.98356001228296
 31
0.0
  0
LINE
  5
EF7C87837
330
EF7C85532
100
AcDbEntity
  8
0
 62
     0
100
AcDbLine
 10
220.6390993909439
 20
83.68913367589049
 30
0.0
 11
220.8286713817323
 21
83.87870566667897
 31
0.0
  0
LINE
  5
EF7C87838
330
EF7C85532
100
AcDbEntity
  8
0
 62
     0
100
AcDbLine
 10
219.9001052156722
 20
87.3695568830351
 30
0.0
 11
223.1092619169909
 21
90.57871358435363
 31
0.0
  0
LINE
  5
EF7C87839
330
EF7C85532
100
AcDbEntity
  8
0
 62
     0
100
AcDbLine
 10
218.6189626905244
 20
90.50783174030289
 30
0.0
 11
218.689844534575
 21
90.57871358435358
 31
0.0
  0
LINE
  5
EF7C8783A
330
EF7C85532
100
AcDbEntity
  8
0
 62
     0
100
AcDbLine
 10
228.0102246281582
 20
86.64084153068893
 30
0.0
 11
228.0102246281582
 21
86.64084153068893
 31
0.0
  0
LINE
  5
EF7C8783B
330
EF7C85532
100
AcDbEntity
  8
SUNPOU
100
AcDbLine
 10
258.5226279653767
 20
75.94922045838075
 30
0.0
 11
257.0484050918941
 21
71.52988210222122
 31
0.0
  0
LINE
  5
EF7C8783C
330
EF7C85532
100
AcDbEntity
  8
SUNPOU
100
AcDbLine
 10
258.5226279653767
 20
75.94922045838075
 30
0.0
 11
255.0362443280205
 21
72.85907261076932
 31
0.0
  0
LINE
  5
EF7C8783D
330
EF7C85532
100
AcDbEntity
  8
JISSEN
 62
     0
100
AcDbLine
 10
260.4999989139999
 20
77.17846479428539
 30
0.0
 11
260.4999989139999
 21
67.92846479428539
 31
0.0
  0
LINE
  5
EF7C8783E
330
EF7C85532
100
AcDbEntity
  8
SUNPOU
100
AcDbLine
 10
258.5226279653767
 20
75.94922045838075
 30
0.0
 11
248.0547373756121
 21
60.10267431635821
 31
0.0
  0
ARC
  5
EF7C8783F
330
EF7C85532
100
AcDbEntity
  8
SAISEN
 62
     0
100
AcDbCircle
 10
268.7448968738997
 20
64.16213826453537
 30
0.0
 40
0.3061224489
100
AcDbArc
 50
180.0
 51
270.0
  0
ARC
  5
EF7C87840
330
EF7C85532
100
AcDbEntity
  8
SAISEN
 62
     0
100
AcDbCircle
 10
264.6122438137497
 20
62.98866887708545
 30
0.0
 40
0.3571428570499999
100
AcDbArc
 50
205.3769335251475
 51
270.0
  0
LINE
  5
EF7C87841
330
EF7C85532
100
AcDbEntity
  8
SAISEN
 62
     0
100
AcDbLine
 10
263.3367336099999
 20
62.83560765263541
 30
0.0
 11
263.3367336099999
 21
62.98866887708545
 31
0.0
  0
LINE
  5
EF7C87842
330
EF7C85532
100
AcDbEntity
  8
SAISEN
 62
     0
100
AcDbLine
 10
269.7653050368998
 20
63.85601581563538
 30
0.0
 11
268.7448968738997
 21
63.85601581563538
 31
0.0
  0
LINE
  5
EF7C87843
330
EF7C85532
100
AcDbEntity
  8
SAISEN
 62
     0
100
AcDbLine
 10
268.4387744249995
 20
63.54989336673537
 30
0.0
 11
268.4387744249995
 21
63.14173010153536
 31
0.0
  0
ARC
  5
EF7C87844
330
EF7C85532
100
AcDbEntity
  8
SAISEN
 62
     0
100
AcDbCircle
 10
268.2857132005499
 20
63.14173010153536
 30
0.0
 40
0.15306122445
100
AcDbArc
 50
270.0
 51
0.0
  0
ARC
  5
EF7C87845
330
EF7C85532
100
AcDbEntity
  8
SAISEN
 62
     0
100
AcDbCircle
 10
268.7448968738997
 20
63.54989336673537
 30
0.0
 40
0.3061224489
100
AcDbArc
 50
90.0
 51
180.0
  0
ARC
  5
EF7C87846
330
EF7C85532
100
AcDbEntity
  8
JISSEN
 62
     0
100
AcDbCircle
 10
261.249998914
 20
67.92846479428539
 30
0.0
 40
0.75
100
AcDbArc
 50
180.0
 51
270.0
  0
LINE
  5
EF7C87847
330
EF7C85532
100
AcDbEntity
  8
SAISEN
 62
     0
100
AcDbLine
 10
263.3367336099999
 20
64.87642397863533
 30
0.0
 11
263.3367336099999
 21
64.7233627541853
 31
0.0
  0
ARC
  5
EF7C87848
330
EF7C85532
100
AcDbEntity
  8
SAISEN
 62
     0
100
AcDbCircle
 10
264.6122438137497
 20
64.7233627541853
 30
0.0
 40
0.3571428570499999
100
AcDbArc
 50
90.0
 51
154.6230664748522
  0
ARC
  5
EF7C87849
330
EF7C85532
100
AcDbEntity
  8
SAISEN
 62
     0
100
AcDbCircle
 10
268.2857132005499
 20
64.57030152973539
 30
0.0
 40
0.15306122445
100
AcDbArc
 50
0.0
 51
90.0
  0
LINE
  5
EF7C8784A
330
EF7C85532
100
AcDbEntity
  8
SAISEN
 62
     0
100
AcDbLine
 10
268.4387744249995
 20
64.16213826453537
 30
0.0
 11
268.4387744249995
 21
64.57030152973539
 31
0.0
  0
LINE
  5
EF7C8784B
330
EF7C85532
100
AcDbEntity
  8
JISSEN
 62
     0
100
AcDbLine
 10
269.30612136355
 20
65.08050561123531
 30
0.0
 11
269.30612136355
 21
67.17846479428539
 31
0.0
  0
LINE
  5
EF7C8784C
330
EF7C85532
100
AcDbEntity
  8
JISSEN
 62
     0
100
AcDbLine
 10
233.9205057916298
 20
76.87871358435359
 30
0.0
 11
258.5705057916295
 21
76.87871358435359
 31
0.0
  0
LINE
  5
EF7C8784D
330
EF7C85532
100
AcDbEntity
  8
JISSEN
 62
     0
100
AcDbLine
 10
258.5705057916295
 20
78.57871358435358
 30
0.0
 11
247.1705057916298
 21
78.57871358435358
 31
0.0
  0
LINE
  5
EF7C8784E
330
EF7C85532
100
AcDbEntity
  8
JISSEN
 62
     0
100
AcDbLine
 10
245.6705057916298
 20
78.57871358435358
 30
0.0
 11
233.9205057916298
 21
78.57871358435358
 31
0.0
  0
LINE
  5
EF7C8784F
330
EF7C85532
100
AcDbEntity
  8
0
 62
     0
100
AcDbLine
 10
237.6257662114866
 20
78.57871358435364
 30
0.0
 11
240.6705057916298
 21
81.62345316449677
 31
0.0
  0
LINE
  5
EF7C87850
330
EF7C85532
100
AcDbEntity
  8
0
 62
     0
100
AcDbLine
 10
233.2063488290705
 20
78.57871358435364
 30
0.0
 11
240.6705057916298
 21
86.04287054691269
 31
0.0
  0
LINE
  5
EF7C87851
330
EF7C85532
100
AcDbEntity
  8
JISSEN
 62
     0
100
AcDbLine
 10
233.9205057916298
 20
78.57871358435358
 30
0.0
 11
233.9205057916298
 21
76.87871358435359
 31
0.0
  0
LINE
  5
EF7C87852
330
EF7C85532
100
AcDbEntity
  8
0
 62
     0
100
AcDbLine
 10
232.4296420105742
 20
82.22142414827301
 30
0.0
 11
232.4296420105742
 21
82.22142414827301
 31
0.0
  0
LINE
  5
EF7C87853
330
EF7C85532
100
AcDbEntity
  8
0
 62
     0
100
AcDbLine
 10
238.506340911396
 20
83.87870566667897
 30
0.0
 11
238.506340911396
 21
83.87870566667897
 31
0.0
  0
LINE
  5
EF7C87854
330
EF7C85532
100
AcDbEntity
  8
0
 62
     0
100
AcDbLine
 10
234.0869235289799
 20
88.2981230490949
 30
0.0
 11
234.0869235289799
 21
88.2981230490949
 31
0.0
  0
LINE
  5
EF7C87855
330
EF7C85532
100
AcDbEntity
  8
0
 62
     0
100
AcDbLine
 10
235.1917778745839
 20
89.40297739469883
 30
0.0
 11
236.3675140642385
 21
90.57871358435358
 31
0.0
  0
LINE
  5
EF7C87856
330
EF7C85532
100
AcDbEntity
  8
0
 62
     0
100
AcDbLine
 10
240.1636224298017
 20
89.95540456750081
 30
0.0
 11
240.1636224298017
 21
89.95540456750081
 31
0.0
  0
ARC
  5
EF7C87857
330
EF7C85532
100
AcDbEntity
  8
JISSEN
 62
     0
100
AcDbCircle
 10
262.896659663341
 20
86.17352280529155
 30
0.0
 40
1.524955746538608
100
AcDbArc
 50
270.0
 51
89.99691535268258
  0
LINE
  5
EF7C87858
330
EF7C85532
100
AcDbEntity
  8
JISSEN
 62
     0
100
AcDbLine
 10
263.5737351688707
 20
87.53992640185918
 30
0.0
 11
263.950630153156
 21
85.07141744031946
 31
0.0
  0
LINE
  5
EF7C87859
330
EF7C85532
100
AcDbEntity
  8
SAISEN
 62
     0
100
AcDbLine
 10
259.6499989176026
 20
93.64922045838074
 30
0.0
 11
259.6499989176026
 21
84.44922045838058
 31
0.0
  0
ARC
  5
EF7C8785A
330
EF7C85532
100
AcDbEntity
  8
JISSEN
 62
     0
100
AcDbCircle
 10
263.8999989159758
 20
85.19847855027013
 30
0.0
 40
2.499999999349999
100
AcDbArc
 50
103.0473327250437
 51
180.0
  0
LINE
  5
EF7C8785B
330
EF7C85532
100
AcDbEntity
  8
SAISEN
 62
     0
100
AcDbLine
 10
258.7999989176023
 20
77.09922045838073
 30
0.0
 11
258.7999989176023
 21
93.94922045838075
 31
0.0
  0
LINE
  5
EF7C8785C
330
EF7C85532
100
AcDbEntity
  8
JISSEN
 62
     0
100
AcDbLine
 10
259.7999989170415
 20
84.64856705875291
 30
0.0
 11
262.896659663341
 21
84.64856705875291
 31
0.0
  0
LINE
  5
EF7C8785D
330
EF7C85532
100
AcDbEntity
  8
SAISEN
 62
     0
100
AcDbLine
 10
259.674998917602
 20
82.4492204583807
 30
0.0
 11
259.6499989176026
 21
76.94922045838075
 31
0.0
  0
LINE
  5
EF7C8785E
330
EF7C85532
100
AcDbEntity
  8
SAISEN
 62
     0
100
AcDbLine
 10
259.799998917602
 20
83.19847854127408
 30
0.0
 11
259.799998917602
 21
79.70868263333017
 31
0.0
  0
LINE
  5
EF7C8785F
330
EF7C85532
100
AcDbEntity
  8
SAISEN
 62
     0
100
AcDbLine
 10
259.799998917602
 20
83.19847854127408
 30
0.0
 11
259.799998917602
 21
79.70868263333017
 31
0.0
  0
LINE
  5
EF7C87860
330
EF7C85532
100
AcDbEntity
  8
JISSEN
 62
     0
100
AcDbLine
 10
259.7999989170415
 20
84.64856705875291
 30
0.0
 11
259.7999989170415
 21
79.70868263333017
 31
0.0
  0
LINE
  5
EF7C87861
330
EF7C85532
100
AcDbEntity
  8
SAISEN
 62
     0
100
AcDbLine
 10
257.4999989176025
 20
76.79922045838072
 30
0.0
 11
258.4999989176025
 21
76.79922045838072
 31
0.0
  0
LINE
  5
EF7C87862
330
EF7C85532
100
AcDbEntity
  8
SAISEN
 62
     0
100
AcDbLine
 10
258.6499989176024
 20
75.94922045838075
 30
0.0
 11
257.4999989176025
 21
75.94922045838075
 31
0.0
  0
LINE
  5
EF7C87863
330
EF7C85532
100
AcDbEntity
  8
SAISEN
 62
     0
100
AcDbLine
 10
257.4999989176025
 20
75.94922045838075
 30
0.0
 11
257.4999989176025
 21
76.79922045838072
 31
0.0
  0
LINE
  5
EF7C87864
330
EF7C85532
100
AcDbEntity
  8
JISSEN
 62
     0
100
AcDbLine
 10
258.5705057916295
 20
76.87871358435359
 30
0.0
 11
258.5705057916295
 21
78.57871358435358
 31
0.0
  0
LINE
  5
EF7C87865
330
EF7C85532
100
AcDbEntity
  8
SAISEN
 62
     0
100
AcDbLine
 10
258.6499989176024
 20
75.94922045838075
 30
0.0
 11
260.4999989139999
 21
75.94922045838075
 31
0.0
  0
ARC
  5
EF7C87866
330
EF7C85532
100
AcDbEntity
  8
SAISEN
 62
     0
100
AcDbCircle
 10
258.6499989176024
 20
76.94922045838075
 30
0.0
 40
1.0
100
AcDbArc
 50
270.0
 51
0.0
  0
LINE
  5
EF7C87867
330
EF7C85532
100
AcDbEntity
  8
SAISEN
 62
     0
100
AcDbLine
 10
260.4999989176019
 20
75.94922045838075
 30
0.0
 11
258.6499989176024
 21
75.94922045838075
 31
0.0
  0
LINE
  5
EF7C87868
330
EF7C85532
100
AcDbEntity
  8
SAISEN
 62
     0
100
AcDbLine
 10
258.6499989176024
 20
75.94922045838075
 30
0.0
 11
260.4999989176019
 21
75.94922045838075
 31
0.0
  0
ARC
  5
EF7C87869
330
EF7C85532
100
AcDbEntity
  8
SAISEN
 62
     0
100
AcDbCircle
 10
258.4999989176025
 20
77.09922045838073
 30
0.0
 40
0.3
100
AcDbArc
 50
270.0
 51
0.0000000000016284
  0
LINE
  5
EF7C8786A
330
EF7C85532
100
AcDbEntity
  8
JISSEN
 62
     0
100
AcDbLine
 10
260.3102029985415
 20
79.19847855183014
 30
0.0
 11
259.7999989170415
 21
79.70868263333017
 31
0.0
  0
LINE
  5
EF7C8786B
330
EF7C85532
100
AcDbEntity
  8
SAISEN
 62
     0
100
AcDbLine
 10
259.6499989176026
 20
81.64922045838073
 30
0.0
 11
258.7999989176023
 21
81.64922045838073
 31
0.0
  0
LINE
  5
EF7C8786C
330
EF7C85532
100
AcDbEntity
  8
SAISEN
 62
     0
100
AcDbLine
 10
259.674998917602
 20
82.4492204583807
 30
0.0
 11
258.7999989176023
 21
82.4492204583807
 31
0.0
  0
LINE
  5
EF7C8786D
330
EF7C85532
100
AcDbEntity
  8
SAISEN
 62
     0
100
AcDbLine
 10
258.8354490425512
 20
82.53410792714346
 30
0.0
 11
258.9604490425512
 21
83.03410792714345
 31
0.0
  0
LINE
  5
EF7C8786E
330
EF7C85532
100
AcDbEntity
  8
SAISEN
 62
     0
100
AcDbLine
 10
259.799998917602
 20
82.94922045838076
 30
0.0
 11
259.674998917602
 21
82.4492204583807
 31
0.0
  0
LINE
  5
EF7C8786F
330
EF7C85532
100
AcDbEntity
  8
SAISEN
 62
     0
100
AcDbLine
 10
258.9517359010285
 20
82.91439415672346
 30
0.0
 11
258.801735901029
 21
84.41439415672334
 31
0.0
  0
LINE
  5
EF7C87870
330
EF7C85532
100
AcDbEntity
  8
SAISEN
 62
     0
100
AcDbLine
 10
258.9517359010285
 20
82.91439415672346
 30
0.0
 11
258.801735901029
 21
84.41439415672334
 31
0.0
  0
LINE
  5
EF7C87871
330
EF7C85532
100
AcDbEntity
  8
SAISEN
 62
     0
100
AcDbLine
 10
259.6499989176026
 20
84.44922045838058
 30
0.0
 11
259.799998917602
 21
82.94922045838076
 31
0.0
  0
LINE
  5
EF7C87872
330
EF7C85532
100
AcDbEntity
  8
JISSEN
 62
     0
100
AcDbLine
 10
264.8473176858216
 20
79.19847855183014
 30
0.0
 11
264.9999989156895
 21
78.19847855209014
 31
0.0
  0
LINE
  5
EF7C87873
330
EF7C85532
100
AcDbEntity
  8
JISSEN
 62
     0
100
AcDbLine
 10
269.9999989143893
 20
78.19847855209014
 30
0.0
 11
269.9999989143893
 21
77.17846479428539
 31
0.0
  0
LINE
  5
EF7C87874
330
EF7C85532
100
AcDbEntity
  8
JISSEN
 62
     0
100
AcDbLine
 10
268.1999989148579
 20
78.19847855209014
 30
0.0
 11
268.1999989148579
 21
77.17846479428533
 31
0.0
  0
LINE
  5
EF7C87875
330
EF7C85532
100
AcDbEntity
  8
SAISEN
 62
     0
100
AcDbLine
 10
270.2499989143243
 20
78.19847855209014
 30
0.0
 11
270.2499989143243
 21
77.17846479428533
 31
0.0
  0
LINE
  5
EF7C87876
330
EF7C85532
100
AcDbEntity
  8
JISSEN
 62
     0
100
AcDbLine
 10
266.1999989153779
 20
78.19847855209014
 30
0.0
 11
266.1999989153779
 21
77.17846479428533
 31
0.0
  0
ARC
  5
EF7C87877
330
EF7C85532
100
AcDbEntity
  8
JISSEN
 62
     0
100
AcDbCircle
 10
263.8999989159758
 20
85.19847855027013
 30
0.0
 40
0.4999999998699999
100
AcDbArc
 50
95.14084203253792
 51
180.0
  0
LINE
  5
EF7C87878
330
EF7C85532
100
AcDbEntity
  8
JISSEN
 62
     0
100
AcDbLine
 10
263.3999989161059
 20
84.73402996907202
 30
0.0
 11
263.3999989161059
 21
85.19847855027013
 31
0.0
  0
LINE
  5
EF7C87879
330
EF7C85532
100
AcDbEntity
  8
JISSEN
 62
     0
100
AcDbLine
 10
261.399998916626
 20
84.64856705875291
 30
0.0
 11
261.399998916626
 21
85.19847855027013
 31
0.0
  0
LINE
  5
EF7C8787A
330
EF7C85532
100
AcDbEntity
  8
JISSEN
 62
     0
100
AcDbLine
 10
259.7999989170415
 20
87.69847855183014
 30
0.0
 11
262.896659663341
 21
87.69847855183014
 31
0.0
  0
LINE
  5
EF7C8787B
330
EF7C85532
100
AcDbEntity
  8
SAISEN
 62
     0
100
AcDbLine
 10
258.7999989176023
 20
93.94922045838075
 30
0.0
 11
259.3499989176025
 21
93.94922045838075
 31
0.0
  0
LINE
  5
EF7C8787C
330
EF7C85532
100
AcDbEntity
  8
SAISEN
 62
     0
100
AcDbLine
 10
259.3499989176025
 20
93.94922045838075
 30
0.0
 11
259.6499989176026
 21
93.64922045838074
 31
0.0
  0
LINE
  5
EF7C8787D
330
EF7C85532
100
AcDbEntity
  8
SAISEN
 62
     0
100
AcDbLine
 10
259.799998917602
 20
93.94922045838075
 30
0.0
 11
259.3499989176025
 21
93.94922045838075
 31
0.0
  0
LINE
  5
EF7C8787E
330
EF7C85532
100
AcDbEntity
  8
SAISEN
 62
     0
100
AcDbLine
 10
259.799998917602
 20
93.64922045838074
 30
0.0
 11
259.6499989176026
 21
93.64922045838074
 31
0.0
  0
LINE
  5
EF7C8787F
330
EF7C85532
100
AcDbEntity
  8
JISSEN
 62
     0
100
AcDbLine
 10
264.5717956873268
 20
119.7984785412715
 30
0.0
 11
264.5717956873268
 21
116.7984785412739
 31
0.0
  0
LINE
  5
EF7C87880
330
EF7C85532
100
AcDbEntity
  8
JISSEN
 62
     0
100
AcDbLine
 10
257.6435924570514
 20
119.7984785412738
 30
0.0
 11
257.6435924570514
 21
116.7984785412738
 31
0.0
  0
LINE
  5
EF7C87881
330
EF7C85532
100
AcDbEntity
  8
JISSEN
 62
     0
100
AcDbLine
 10
243.7999989176024
 20
119.0287135843535
 30
0.0
 11
243.7999989176024
 21
127.5673616117144
 31
0.0
  0
LINE
  5
EF7C87882
330
EF7C85532
100
AcDbEntity
  8
JISSEN
 62
     0
100
AcDbLine
 10
248.7999989176024
 20
127.5673616117144
 30
0.0
 11
248.7999989176024
 21
119.0287135843535
 31
0.0
  0
LINE
  5
EF7C87883
330
EF7C85532
100
AcDbEntity
  8
JISSEN
 62
     0
100
AcDbLine
 10
242.4999989176026
 20
106.0673616117143
 30
0.0
 11
242.4999989176026
 21
127.5673616117144
 31
0.0
  0
LINE
  5
EF7C87884
330
EF7C85532
100
AcDbEntity
  8
JISSEN
 62
     0
100
AcDbLine
 10
241.2999989176024
 20
128.7673616117143
 30
0.0
 11
241.2999989176024
 21
106.0673616117143
 31
0.0
  0
LINE
  5
EF7C87885
330
EF7C85532
100
AcDbEntity
  8
JISSEN
 62
     0
100
AcDbLine
 10
242.9205057916298
 20
110.2287135843536
 30
0.0
 11
242.9205057916298
 21
107.2287135843536
 31
0.0
  0
LINE
  5
EF7C87886
330
EF7C85532
100
AcDbEntity
  8
JISSEN
 62
     0
100
AcDbLine
 10
249.9205057916298
 20
107.2287135843536
 30
0.0
 11
249.9205057916298
 21
110.2287135843536
 31
0.0
  0
LINE
  5
EF7C87887
330
EF7C85532
100
AcDbEntity
  8
JISSEN
 62
     0
100
AcDbLine
 10
244.6504864208008
 20
105.6600644207268
 30
0.0
 11
245.5392294021438
 21
107.1994124192833
 31
0.0
  0
LINE
  5
EF7C87888
330
EF7C85532
100
AcDbEntity
  8
JISSEN
 62
     0
100
AcDbLine
 10
244.1705057916298
 20
108.2287135843536
 30
0.0
 11
245.6705057916298
 21
108.2287135843536
 31
0.0
  0
LINE
  5
EF7C87889
330
EF7C85532
100
AcDbEntity
  8
JISSEN
 62
     0
100
AcDbLine
 10
245.5392294021438
 20
107.1994124192833
 30
0.0
 11
244.4999989176026
 21
107.7994124192832
 31
0.0
  0
ARC
  5
EF7C8788A
330
EF7C85532
100
AcDbEntity
  8
JISSEN
 62
     0
100
AcDbCircle
 10
242.9999989176026
 20
106.0673616117143
 30
0.0
 40
0.5
100
AcDbArc
 50
180.0
 51
0.0000000000032569
  0
LINE
  5
EF7C8788B
330
EF7C85532
100
AcDbEntity
  8
JISSEN
 62
     0
100
AcDbLine
 10
244.4999989176026
 20
107.7994124192832
 30
0.0
 11
243.4999989176026
 21
106.0673616117144
 31
0.0
  0
ARC
  5
EF7C8788C
330
EF7C85532
100
AcDbEntity
  8
JISSEN
 62
     0
100
AcDbCircle
 10
242.9999989176026
 20
106.0673616117143
 30
0.0
 40
1.699999999999988
100
AcDbArc
 50
180.0
 51
346.1378585542229
  0
LINE
  5
EF7C8788D
330
EF7C85532
100
AcDbEntity
  8
JISSEN
 62
     0
100
AcDbLine
 10
242.9205057916298
 20
107.2287135843536
 30
0.0
 11
244.1705057916298
 21
107.2287135843536
 31
0.0
  0
LINE
  5
EF7C8788E
330
EF7C85532
100
AcDbEntity
  8
JISSEN
 62
     0
100
AcDbLine
 10
244.1705057916298
 20
107.2287135843536
 30
0.0
 11
244.1705057916298
 21
108.2287135843536
 31
0.0
  0
LINE
  5
EF7C8788F
330
EF7C85532
100
AcDbEntity
  8
JISSEN
 62
     0
100
AcDbLine
 10
247.1705057916298
 20
108.2287135843536
 30
0.0
 11
248.6705057916298
 21
108.2287135843536
 31
0.0
  0
LINE
  5
EF7C87890
330
EF7C85532
100
AcDbEntity
  8
JISSEN
 62
     0
100
AcDbLine
 10
248.6705057916298
 20
107.2287135843536
 30
0.0
 11
249.9205057916298
 21
107.2287135843536
 31
0.0
  0
LINE
  5
EF7C87891
330
EF7C85532
100
AcDbEntity
  8
JISSEN
 62
     0
100
AcDbLine
 10
248.6705057916298
 20
108.2287135843536
 30
0.0
 11
248.6705057916298
 21
107.2287135843536
 31
0.0
  0
LINE
  5
EF7C87892
330
EF7C85532
100
AcDbEntity
  8
JISSEN
 62
     0
100
AcDbLine
 10
245.6705057916298
 20
117.0287135843535
 30
0.0
 11
245.6705057916298
 21
112.5287135843535
 31
0.0
  0
LINE
  5
EF7C87893
330
EF7C85532
100
AcDbEntity
  8
JISSEN
 62
     0
100
AcDbLine
 10
247.1705057916298
 20
112.5287135843535
 30
0.0
 11
247.1705057916298
 21
117.0287135843535
 31
0.0
  0
LINE
  5
EF7C87894
330
EF7C85532
100
AcDbEntity
  8
JISSEN
 62
     0
100
AcDbLine
 10
245.6705057916298
 20
112.5287135843535
 30
0.0
 11
242.9205057916298
 21
110.2287135843536
 31
0.0
  0
LINE
  5
EF7C87895
330
EF7C85532
100
AcDbEntity
  8
JISSEN
 62
     0
100
AcDbLine
 10
249.9205057916298
 20
110.2287135843536
 30
0.0
 11
247.1705057916298
 21
112.5287135843535
 31
0.0
  0
LINE
  5
EF7C87896
330
EF7C85532
100
AcDbEntity
  8
JISSEN
 62
     0
100
AcDbLine
 10
249.9205057916298
 20
118.5287135843535
 30
0.0
 11
242.9205057916298
 21
118.5287135843535
 31
0.0
  0
LINE
  5
EF7C87897
330
EF7C85532
100
AcDbEntity
  8
JISSEN
 62
     0
100
AcDbLine
 10
242.9205057916298
 20
117.0287135843535
 30
0.0
 11
245.6705057916298
 21
117.0287135843535
 31
0.0
  0
LINE
  5
EF7C87898
330
EF7C85532
100
AcDbEntity
  8
JISSEN
 62
     0
100
AcDbLine
 10
242.9205057916298
 20
118.5287135843535
 30
0.0
 11
242.9205057916298
 21
117.0287135843535
 31
0.0
  0
LINE
  5
EF7C87899
330
EF7C85532
100
AcDbEntity
  8
JISSEN
 62
     0
100
AcDbLine
 10
243.7999989176024
 20
119.0287135843535
 30
0.0
 11
244.2999989176024
 21
118.5287135843535
 31
0.0
  0
LINE
  5
EF7C8789A
330
EF7C85532
100
AcDbEntity
  8
JISSEN
 62
     0
100
AcDbLine
 10
247.1705057916298
 20
117.0287135843535
 30
0.0
 11
249.9205057916298
 21
117.0287135843535
 31
0.0
  0
LINE
  5
EF7C8789B
330
EF7C85532
100
AcDbEntity
  8
JISSEN
 62
     0
100
AcDbLine
 10
249.9205057916298
 20
117.0287135843535
 30
0.0
 11
249.9205057916298
 21
118.5287135843535
 31
0.0
  0
LINE
  5
EF7C8789C
330
EF7C85532
100
AcDbEntity
  8
JISSEN
 62
     0
100
AcDbLine
 10
248.7999989176024
 20
119.0287135843535
 30
0.0
 11
248.2999989176024
 21
118.5287135843535
 31
0.0
  0
LINE
  5
EF7C8789D
330
EF7C85532
100
AcDbEntity
  8
JISSEN
 62
     0
100
AcDbLine
 10
261.2499989176019
 20
115.2984785412739
 30
0.0
 11
260.7499989176019
 21
114.798478541274
 31
0.0
  0
ARC
  5
EF7C8789E
330
EF7C85532
100
AcDbEntity
  8
JISSEN
 62
     0
100
AcDbCircle
 10
260.399998917602
 20
115.7984785412739
 30
0.0
 40
1.0
100
AcDbArc
 50
0.0
 51
90.0
  0
LINE
  5
EF7C8789F
330
EF7C85532
100
AcDbEntity
  8
JISSEN
 62
     0
100
AcDbLine
 10
260.7499989176019
 20
114.798478541274
 30
0.0
 11
260.7499989176019
 21
114.6984785412739
 31
0.0
  0
LINE
  5
EF7C878A0
330
EF7C85532
100
AcDbEntity
  8
JISSEN
 62
     0
100
AcDbLine
 10
261.2499989176019
 20
115.2984785412739
 30
0.0
 11
261.399998917602
 21
115.2984785412739
 31
0.0
  0
LINE
  5
EF7C878A1
330
EF7C85532
100
AcDbEntity
  8
JISSEN
 62
     0
100
AcDbLine
 10
261.399998917602
 20
115.7984785412739
 30
0.0
 11
261.399998917602
 21
115.2984785412739
 31
0.0
  0
LINE
  5
EF7C878A2
330
EF7C85532
100
AcDbEntity
  8
SAISEN
 62
     0
100
AcDbLine
 10
261.2499989176019
 20
115.2984785412739
 30
0.0
 11
261.2499989176019
 21
114.6984785412739
 31
0.0
  0
LINE
  5
EF7C878A3
330
EF7C85532
100
AcDbEntity
  8
JISSEN
 62
     0
100
AcDbLine
 10
253.9999989176026
 20
137.5254015032642
 30
0.0
 11
243.7999989176024
 21
137.5254015032642
 31
0.0
  0
LINE
  5
EF7C878A4
330
EF7C85532
100
AcDbEntity
  8
JISSEN
 62
     0
100
AcDbLine
 10
242.4999989176026
 20
127.5673616117144
 30
0.0
 11
258.4986561177667
 21
127.5673616117144
 31
0.0
  0
LINE
  5
EF7C878A5
330
EF7C85532
100
AcDbEntity
  8
JISSEN
 62
     0
100
AcDbLine
 10
241.2999989176024
 20
128.7673616117143
 30
0.0
 11
241.2999989176024
 21
134.5673616117144
 31
0.0
  0
ARC
  5
EF7C878A6
330
EF7C85532
100
AcDbEntity
  8
JISSEN
 62
     0
100
AcDbCircle
 10
244.2999989176024
 20
134.5673616117144
 30
0.0
 40
3.0
100
AcDbArc
 50
99.59406822686487
 51
180.0
  0
ARC
  5
EF7C878A7
330
EF7C85532
100
AcDbEntity
  8
JISSEN
 62
     0
100
AcDbCircle
 10
267.8068035459935
 20
129.9932152211608
 30
0.0
 40
0.5
100
AcDbArc
 50
34.87638431273693
 51
87.02021202417169
  0
LINE
  5
EF7C878A8
330
EF7C85532
100
AcDbEntity
  8
JISSEN
 62
     0
100
AcDbLine
 10
262.0528633604018
 20
121.990855727577
 30
0.0
 11
259.799998917602
 21
119.798478541273
 31
0.0
  0
LINE
  5
EF7C878A9
330
EF7C85532
100
AcDbEntity
  8
JISSEN
 62
     0
100
AcDbLine
 10
260.9252798831418
 20
125.0276249020122
 30
0.0
 11
260.7920310577021
 21
120.7638755668185
 31
0.0
  0
LINE
  5
EF7C878AA
330
EF7C85532
100
AcDbEntity
  8
SAISEN
 62
     0
100
AcDbLine
 10
262.0528633604018
 20
121.990855727577
 30
0.0
 11
262.1477671396376
 21
125.0276249020122
 31
0.0
  0
ARC
  5
EF7C878AB
330
EF7C85532
100
AcDbEntity
  8
JISSEN
 62
     0
100
AcDbCircle
 10
261.6321564454278
 20
133.3180617666805
 30
0.0
 40
1.0
100
AcDbArc
 50
92.97978797582832
 51
180.0
  0
ARC
  5
EF7C878AC
330
EF7C85532
100
AcDbEntity
  8
JISSEN
 62
     0
100
AcDbCircle
 10
261.6321564454278
 20
131.816661456748
 30
0.0
 40
1.0
100
AcDbArc
 50
180.0
 51
267.0202120241717
  0
LINE
  5
EF7C878AD
330
EF7C85532
100
AcDbEntity
  8
JISSEN
 62
     0
100
AcDbLine
 10
260.632156445428
 20
131.816661456748
 30
0.0
 11
260.632156445428
 21
133.3180617666805
 31
0.0
  0
LINE
  5
EF7C878AE
330
EF7C85532
100
AcDbEntity
  8
JISSEN
 62
     0
100
AcDbLine
 10
267.8327953810323
 20
134.6421840347763
 30
0.0
 11
261.5801727753504
 21
134.3167097016631
 31
0.0
  0
LINE
  5
EF7C878AF
330
EF7C85532
100
AcDbEntity
  8
JISSEN
 62
     0
100
AcDbLine
 10
267.8327953810323
 20
130.4925391886522
 30
0.0
 11
261.5801727753504
 21
130.8180135217654
 31
0.0
  0
ARC
  5
EF7C878B0
330
EF7C85532
100
AcDbEntity
  8
JISSEN
 62
     0
100
AcDbCircle
 10
267.8068035459935
 20
135.1415080022678
 30
0.0
 40
0.5
100
AcDbArc
 50
272.9797879758283
 51
325.1236156872674
  0
LWPOLYLINE
  5
EF7C878B1
330
EF7C85532
100
AcDbEntity
  8
NITEN
100
AcDbPolyline
 90
        2
 70
     0
 43
0.0
 10
107.0
 20
230.2553631362227
 42
0.5882352941176295
 10
89.99999999999989
 20
230.255363136223
 42
0.5882352941176295
  0
LINE
  5
EF7C878B2
330
EF7C85532
100
AcDbEntity
  8
JISSEN
100
AcDbLine
 10
103.856489898567
 20
159.8070965793537
 30
0.0
 11
90.00008343801596
 21
159.8070965793539
 31
0.0
  0
LINE
  5
EF7C878B3
330
EF7C85532
100
AcDbEntity
  8
JISSEN
100
AcDbLine
 10
90.00008343801596
 20
162.8070965793488
 30
0.0
 11
103.856489898567
 21
162.8070965793537
 31
0.0
  0
LWPOLYLINE
  5
EF7C878B4
330
EF7C85532
100
AcDbEntity
  8
NITEN
100
AcDbPolyline
 90
       15
 70
     1
 43
0.0
 10
76.0
 20
168.9176454850768
 42
0.4142135623730927
 10
77.49999999999989
 20
167.4176454850768
 10
100.5940511709964
 20
167.4176454850768
 10
102.4999999999998
 20
167.4176454850768
 42
0.4142135623730925
 10
104.0
 20
168.9176454850768
 10
104.0
 20
179.9636615112948
 42
-0.4142135623730943
 10
108.9999999999997
 20
184.9636615112948
 42
0.4142135623730951
 10
111.0
 20
186.9636615112948
 10
110.9999999999997
 20
207.4176454850768
 42
0.4142135623730949
 10
109.0
 20
209.4176454850768
 10
71.0
 20
209.4176454850768
 42
0.4142135623730951
 10
69.0
 20
207.4176454850768
 10
69.0
 20
186.9636615112948
 42
0.4142135623730951
 10
71.0
 20
184.9636615112948
 42
-0.4142135623730961
 10
76.0
 20
179.9636615112948
  0
LWPOLYLINE
  5
EF7C878B5
330
EF7C85532
100
AcDbEntity
  8
NITEN
100
AcDbPolyline
 90
        5
 70
     0
 43
0.0
 10
107.0
 20
209.4176454850768
 10
107.0
 20
230.2553631362227
 42
-0.5882352941176476
 10
90.0
 20
230.2553631362227
 42
0.5882352941176477
 10
73.0
 20
230.2553631362224
 10
73.0
 20
209.4176454850768
  0
LINE
  5
EF7C878B6
330
EF7C85532
100
AcDbEntity
  8
JISSEN
100
AcDbLine
 10
91.49999927599992
 20
264.9999999999999
 30
0.0
 11
180.9999992759999
 21
264.9999999999999
 31
0.0
  0
LINE
  5
EF7C878B7
330
EF7C85532
100
AcDbEntity
  8
JISSEN
100
AcDbLine
 10
91.49999927599992
 20
270.9999999999999
 30
0.0
 11
180.9999992759999
 21
270.9999999999999
 31
0.0
  0
LINE
  5
EF7C878B8
330
EF7C85532
100
AcDbEntity
  8
JISSEN
100
AcDbLine
 10
91.49999927599992
 20
276.9999999999999
 30
0.0
 11
180.9999992759999
 21
276.9999999999999
 31
0.0
  0
LINE
  5
EF7C878B9
330
EF7C85532
100
AcDbEntity
  8
JISSEN
100
AcDbLine
 10
99.5077062517123
 20
164.9994737656566
 30
0.0
 11
101.700083438016
 21
162.807096579353
 31
0.0
  0
LINE
  5
EF7C878BA
330
EF7C85532
100
AcDbEntity
  8
JISSEN
100
AcDbLine
 10
80.49246062431961
 20
164.9994737656566
 30
0.0
 11
78.30008343801603
 21
162.807096579353
 31
0.0
  0
LINE
  5
EF7C878BB
330
EF7C85532
100
AcDbEntity
  8
JISSEN
100
AcDbLine
 10
90.00008343801608
 20
158.3070965793539
 30
0.0
 11
79.75008343801562
 21
158.3070965793538
 31
0.0
  0
LINE
  5
EF7C878BC
330
EF7C85532
100
AcDbEntity
  8
JISSEN
100
AcDbLine
 10
90.00008343801608
 20
157.7070965793538
 30
0.0
 11
78.30008343801615
 21
157.7070965793538
 31
0.0
  0
LINE
  5
EF7C878BD
330
EF7C85532
100
AcDbEntity
  8
JISSEN
100
AcDbLine
 10
76.14367697746502
 20
162.8070965793438
 30
0.0
 11
90.00008343801596
 21
162.8070965793488
 31
0.0
  0
LINE
  5
EF7C878BE
330
EF7C85532
100
AcDbEntity
  8
JISSEN
100
AcDbLine
 10
76.14367697746502
 20
159.8070965793537
 30
0.0
 11
90.00008343801596
 21
159.8070965793539
 31
0.0
  0
LINE
  5
EF7C878BF
330
EF7C85532
100
AcDbEntity
  8
JISSEN
100
AcDbLine
 10
77.65008343801605
 20
159.8070965793539
 30
0.0
 11
90.00008343801596
 21
159.8070965793539
 31
0.0
  0
LINE
  5
EF7C878C0
330
EF7C85532
100
AcDbEntity
  8
SAISEN
100
AcDbLine
 10
79.75008343801562
 20
158.3070965793538
 30
0.0
 11
79.75008343801562
 21
157.7070965793538
 31
0.0
  0
LINE
  5
EF7C878C1
330
EF7C85532
100
AcDbEntity
  8
JISSEN
100
AcDbLine
 10
79.75008343801562
 20
158.3070965793538
 30
0.0
 11
79.25008343801562
 21
157.8070965793538
 31
0.0
  0
LINE
  5
EF7C878C2
330
EF7C85532
100
AcDbEntity
  8
JISSEN
100
AcDbLine
 10
79.25008343801562
 20
157.8070965793538
 30
0.0
 11
79.25008343801562
 21
157.7070965793538
 31
0.0
  0
ARC
  5
EF7C878C3
330
EF7C85532
100
AcDbEntity
  8
JISSEN
100
AcDbCircle
 10
78.90008343801605
 20
158.8070965793539
 30
0.0
 40
1.0
100
AcDbArc
 50
0.000000000000007
 51
90.0
  0
LINE
  5
EF7C878C4
330
EF7C85532
100
AcDbEntity
  8
JISSEN
100
AcDbLine
 10
79.90008343801571
 20
158.3070965793538
 30
0.0
 11
79.90008343801605
 21
158.8070965793539
 31
0.0
  0
LINE
  5
EF7C878C5
330
EF7C85532
100
AcDbEntity
  8
JISSEN
100
AcDbLine
 10
76.14367697746502
 20
162.8070965793537
 30
0.0
 11
76.14367697746502
 21
159.8070965793537
 31
0.0
  0
LINE
  5
EF7C878C6
330
EF7C85532
100
AcDbEntity
  8
JISSEN
100
AcDbLine
 10
90.00008343801596
 20
157.7070965793538
 30
0.0
 11
101.700083438016
 21
157.7070965793538
 31
0.0
  0
LINE
  5
EF7C878C7
330
EF7C85532
100
AcDbEntity
  8
JISSEN
100
AcDbLine
 10
90.00008343801596
 20
158.3070965793539
 30
0.0
 11
100.2500834380164
 21
158.3070965793538
 31
0.0
  0
LINE
  5
EF7C878C8
330
EF7C85532
100
AcDbEntity
  8
JISSEN
100
AcDbLine
 10
83.07188020774049
 20
159.8070965793538
 30
0.0
 11
83.07188020774049
 21
162.8070965793513
 31
0.0
  0
LINE
  5
EF7C878C9
330
EF7C85532
100
AcDbEntity
  8
JISSEN
100
AcDbLine
 10
100.2500834380164
 20
158.3070965793538
 30
0.0
 11
100.7500834380164
 21
157.8070965793538
 31
0.0
  0
LINE
  5
EF7C878CA
330
EF7C85532
100
AcDbEntity
  8
SAISEN
100
AcDbLine
 10
100.2500834380164
 20
158.3070965793538
 30
0.0
 11
100.2500834380164
 21
157.7070965793538
 31
0.0
  0
LINE
  5
EF7C878CB
330
EF7C85532
100
AcDbEntity
  8
JISSEN
100
AcDbLine
 10
100.7500834380164
 20
157.8070965793538
 30
0.0
 11
100.7500834380164
 21
157.7070965793538
 31
0.0
  0
LINE
  5
EF7C878CC
330
EF7C85532
100
AcDbEntity
  8
JISSEN
100
AcDbLine
 10
100.1000834380164
 20
158.3070965793538
 30
0.0
 11
100.1000834380158
 21
158.8070965793539
 31
0.0
  0
ARC
  5
EF7C878CD
330
EF7C85532
100
AcDbEntity
  8
JISSEN
100
AcDbCircle
 10
101.1000834380158
 20
158.8070965793539
 30
0.0
 40
1.0
100
AcDbArc
 50
90.0
 51
180.0
  0
LINE
  5
EF7C878CE
330
EF7C85532
100
AcDbEntity
  8
JISSEN
100
AcDbLine
 10
96.92828666829155
 20
159.8070965793538
 30
0.0
 11
96.92828666829155
 21
162.8070965793513
 31
0.0
  0
LINE
  5
EF7C878CF
330
EF7C85532
100
AcDbEntity
  8
JISSEN
100
AcDbLine
 10
79.73815907440587
 20
178.045172215742
 30
0.0
 11
81.00008343801688
 21
179.3070965793531
 31
0.0
  0
LINE
  5
EF7C878D0
330
EF7C85532
100
AcDbEntity
  8
SAISEN
100
AcDbLine
 10
80.49246062431974
 20
164.9994737656566
 30
0.0
 11
80.93764487904264
 21
179.2446580203787
 31
0.0
  0
LINE
  5
EF7C878D1
330
EF7C85532
100
AcDbEntity
  8
JISSEN
100
AcDbLine
 10
90.00008343801608
 20
164.9994737656566
 30
0.0
 11
79.33046062431969
 21
164.9994737656566
 31
0.0
  0
LINE
  5
EF7C878D2
330
EF7C85532
100
AcDbEntity
  8
JISSEN
100
AcDbLine
 10
79.73815907440587
 20
178.045172215742
 30
0.0
 11
90.00008343801608
 21
178.045172215742
 31
0.0
  0
LINE
  5
EF7C878D3
330
EF7C85532
100
AcDbEntity
  8
JISSEN
100
AcDbLine
 10
79.73815907440587
 20
178.045172215742
 30
0.0
 11
79.29297481968285
 21
163.7999879610198
 31
0.0
  0
LINE
  5
EF7C878D4
330
EF7C85532
100
AcDbEntity
  8
JISSEN
100
AcDbLine
 10
100.2620078016261
 20
178.045172215742
 30
0.0
 11
100.707192056349
 21
163.7999879610198
 31
0.0
  0
LINE
  5
EF7C878D5
330
EF7C85532
100
AcDbEntity
  8
SAISEN
100
AcDbLine
 10
99.5077062517123
 20
164.9994737656566
 30
0.0
 11
99.06252199698929
 21
179.2446580203787
 31
0.0
  0
LINE
  5
EF7C878D6
330
EF7C85532
100
AcDbEntity
  8
JISSEN
100
AcDbLine
 10
90.00008343801596
 20
164.9994737656566
 30
0.0
 11
100.6697062517123
 21
164.9994737656566
 31
0.0
  0
LINE
  5
EF7C878D7
330
EF7C85532
100
AcDbEntity
  8
JISSEN
100
AcDbLine
 10
99.00008343801516
 20
179.3070965793531
 30
0.0
 11
90.00008343801596
 21
179.3070965793531
 31
0.0
  0
LINE
  5
EF7C878D8
330
EF7C85532
100
AcDbEntity
  8
JISSEN
100
AcDbLine
 10
100.2620078016261
 20
178.045172215742
 30
0.0
 11
90.00008343801596
 21
178.045172215742
 31
0.0
  0
LINE
  5
EF7C878D9
330
EF7C85532
100
AcDbEntity
  8
JISSEN
100
AcDbLine
 10
81.00008343801688
 20
179.3070965793531
 30
0.0
 11
90.00008343801608
 21
179.3070965793531
 31
0.0
  0
LINE
  5
EF7C878DA
330
EF7C85532
100
AcDbEntity
  8
JISSEN
100
AcDbLine
 10
100.2620078016261
 20
178.045172215742
 30
0.0
 11
99.00008343801516
 21
179.3070965793531
 31
0.0
  0
TEXT
  5
EF7C878DB
330
EF7C85532
100
AcDbEntity
  8
TEXT
100
AcDbText
 10
95.28571356171422
 20
272.4999999999999
 30
0.0
 40
3.0
  1
1
  7
K
 72
     4
 11
96.49999927599992
 21
273.9999999999999
 31
0.0
100
AcDbText
  0
LINE
  5
EF7C878DC
330
EF7C85532
100
AcDbEntity
  8
JISSEN
100
AcDbLine
 10
101.4999992759999
 20
282.9999999999998
 30
0.0
 11
101.4999992759999
 21
264.9999999999999
 31
0.0
  0
LINE
  5
EF7C878DD
330
EF7C85532
100
AcDbEntity
  8
JISSEN
100
AcDbLine
 10
91.49999927599992
 20
264.9999999999999
 30
0.0
 11
91.49999927599992
 21
282.9999999999998
 31
0.0
  0
TEXT
  5
EF7C878DE
330
EF7C85532
100
AcDbEntity
  8
TEXT
100
AcDbText
 10
95.38307168153428
 20
266.4999999999999
 30
0.0
 40
3.0
  1
2
  7
K
 72
     4
 11
96.8116431101057
 21
267.9999999999999
 31
0.0
100
AcDbText
  0
TEXT
  5
EF7C878DF
330
EF7C85532
100
AcDbEntity
  8
TEXT
100
AcDbText
 10
93.29999927599992
 20
278.4999999999999
 30
0.0
 40
3.0
  1
番号
  7
K
 72
     4
 11
96.49999927599992
 21
279.9999999999999
 31
0.0
100
AcDbText
  0
LINE
  5
EF7C878E0
330
EF7C85532
100
AcDbEntity
  8
JISSEN
100
AcDbLine
 10
260.4999989140001
 20
234.2069756819136
 30
0.0
 11
260.4999989140001
 21
225.8362200178182
 31
0.0
  0
LINE
  5
EF7C878E1
330
EF7C85532
100
AcDbEntity
  8
SUNPOU
100
AcDbLine
 10
125.8392715290708
 20
157.6711554898794
 30
0.0
 11
159.8756944775478
 21
157.6711554898794
 31
0.0
  0
TEXT
  5
EF7C878E2
330
EF7C85532
100
AcDbEntity
  8
SUNPOU
100
AcDbText
 10
128.4508427877718
 20
158.1560541285737
 30
0.0
 40
4.5
  1
設備プレート
  7
K
100
AcDbText
  0
LINE
  5
EF7C878E3
330
EF7C85532
100
AcDbEntity
  8
JISSEN
100
AcDbLine
 10
103.856489898567
 20
162.8070965793537
 30
0.0
 11
103.856489898567
 21
159.8070965793537
 31
0.0
  0
LWPOLYLINE
  5
EF7C878E4
330
EF7C85532
100
AcDbEntity
  8
JISSEN
 62
     0
100
AcDbPolyline
 90
       13
 70
     0
 43
0.0
 10
248.7999989176024
 20
143.8692408604282
 42
0.0123075550001654
 10
249.2401697670358
 20
144.0031715515809
 42
0.0889226874667008
 10
251.6032997765014
 20
145.2860728972343
 42
0.1049567332455664
 10
253.2581769271022
 20
147.303845321664
 42
0.120011216869144
 10
253.7999989176024
 20
149.5287135843535
 42
0.1200112168691424
 10
253.2581769271022
 20
151.7535818470429
 42
0.1049567332455653
 10
251.6032997765014
 20
153.7713542714728
 42
0.0889226874666963
 10
249.2401697670358
 20
155.0542556171262
 42
0.0801668980116132
 10
246.2999989176024
 20
155.5287135843536
 42
0.0801668980116128
 10
243.3598280681693
 20
155.0542556171262
 42
0.0889226874666951
 10
240.9966980587034
 20
153.7713542714728
 42
0.1049567332455669
 10
239.3418209081029
 20
151.7535818470429
 42
0.1200112168691447
 10
238.7999989176024
 20
149.5287135843535
 42
0.1200112168691455
  0
LWPOLYLINE
  5
EF7C878E5
330
EF7C85532
100
AcDbEntity
  8
JISSEN
 62
     0
100
AcDbPolyline
 90
        5
 70
     0
 43
0.0
 10
238.7999989176024
 20
149.5287135843535
 42
0.1200112168691455
 10
239.3418209081029
 20
147.303845321664
 42
0.1049567332455674
 10
240.9966980587034
 20
145.2860728972343
 42
0.0889226874667021
 10
243.3598280681693
 20
144.0031715515809
 42
0.012307555000165
 10
243.7999989176024
 20
143.8692408604282
 42
0.0801668980116146
  0
ARC
  5
EF7C878E6
330
EF7C85532
100
AcDbEntity
  8
JISSEN
100
AcDbCircle
 10
261.2499989140001
 20
225.8362200178182
 30
0.0
 40
0.75
100
AcDbArc
 50
180.0
 51
270.0
  0
LINE
  5
EF7C878E7
330
EF7C85532
100
AcDbEntity
  8
JISSEN
100
AcDbLine
 10
269.30612136355
 20
222.9882608347681
 30
0.0
 11
269.30612136355
 21
225.0862200178183
 31
0.0
  0
ARC
  5
EF7C878E8
330
EF7C85532
100
AcDbEntity
  8
SAISEN
100
AcDbCircle
 10
264.6122438137499
 20
222.6311179777181
 30
0.0
 40
0.3571428570499999
100
AcDbArc
 50
90.0
 51
154.6230664748522
  0
ARC
  5
EF7C878E9
330
EF7C85532
100
AcDbEntity
  8
SAISEN
100
AcDbCircle
 10
264.6122438137499
 20
220.8964241006183
 30
0.0
 40
0.3571428570499999
100
AcDbArc
 50
205.3769335251477
 51
270.0
  0
LINE
  5
EF7C878EA
330
EF7C85532
100
AcDbEntity
  8
SAISEN
100
AcDbLine
 10
263.33673361
 20
222.7841792021681
 30
0.0
 11
263.33673361
 21
222.6311179777181
 31
0.0
  0
LINE
  5
EF7C878EB
330
EF7C85532
100
AcDbEntity
  8
SAISEN
100
AcDbLine
 10
263.33673361
 20
220.7433628761683
 30
0.0
 11
263.33673361
 21
220.8964241006183
 31
0.0
  0
ARC
  5
EF7C878EC
330
EF7C85532
100
AcDbEntity
  8
SAISEN
100
AcDbCircle
 10
268.2857132005499
 20
222.4780567532683
 30
0.0
 40
0.15306122445
100
AcDbArc
 50
0.000000000000007
 51
90.0
  0
ARC
  5
EF7C878ED
330
EF7C85532
100
AcDbEntity
  8
JISSEN
100
AcDbCircle
 10
268.7448968738999
 20
221.4576485902683
 30
0.0
 40
0.3061224489
100
AcDbArc
 50
90.0
 51
180.0
  0
ARC
  5
EF7C878EE
330
EF7C85532
100
AcDbEntity
  8
SAISEN
100
AcDbCircle
 10
268.2857132005499
 20
221.0494853250683
 30
0.0
 40
0.15306122445
100
AcDbArc
 50
270.0
 51
0.000000000000007
  0
ARC
  5
EF7C878EF
330
EF7C85532
100
AcDbEntity
  8
JISSEN
100
AcDbCircle
 10
268.7448968738999
 20
222.0698934880683
 30
0.0
 40
0.3061224489
100
AcDbArc
 50
180.0
 51
270.0
  0
LINE
  5
EF7C878F0
330
EF7C85532
100
AcDbEntity
  8
JISSEN
100
AcDbLine
 10
268.438774425
 20
222.0698934880683
 30
0.0
 11
268.438774425
 21
222.4780567532683
 31
0.0
  0
LINE
  5
EF7C878F1
330
EF7C85532
100
AcDbEntity
  8
JISSEN
100
AcDbLine
 10
268.438774425
 20
221.4576485902683
 30
0.0
 11
268.438774425
 21
221.0494853250683
 31
0.0
  0
LINE
  5
EF7C878F2
330
EF7C85532
100
AcDbEntity
  8
JISSEN
100
AcDbLine
 10
269.7653050368999
 20
221.7637710391683
 30
0.0
 11
268.7448968738999
 21
221.7637710391683
 31
0.0
  0
TEXT
  5
EF7C878F4
330
EF7C85532
100
AcDbEntity
  8
TEXT
100
AcDbText
 10
156.6795477624092
 20
272.4999999999999
 30
0.0
 40
3.0
  1
1
  7
K
 72
     4
 11
157.8938334766949
 21
273.9999999999999
 31
0.0
100
AcDbText
  0
LINE
  5
EF7C878F5
330
EF7C85532
100
AcDbEntity
  8
JISSEN
100
AcDbLine
 10
163.4999992759999
 20
282.9999999999998
 30
0.0
 11
163.4999992759999
 21
264.9999999999999
 31
0.0
  0
LINE
  5
EF7C878F6
330
EF7C85532
100
AcDbEntity
  8
JISSEN
100
AcDbLine
 10
152.4999992759999
 20
264.9999999999999
 30
0.0
 11
152.4999992759999
 21
282.9999999999998
 31
0.0
  0
LINE
  5
EF7C878F7
330
EF7C85532
100
AcDbEntity
  8
JISSEN
100
AcDbLine
 10
131.4999992759999
 20
282.9999999999998
 30
0.0
 11
131.4999992759999
 21
264.9999999999999
 31
0.0
  0
TEXT
  5
EF7C878F8
330
EF7C85532
100
AcDbEntity
  8
TEXT
100
AcDbText
 10
135.2142849902856
 20
266.4999999999999
 30
0.0
 40
3.0
  1
C2801
  7
K
 72
     4
 11
141.9999992759999
 21
267.9999999999999
 31
0.0
100
AcDbText
  0
TEXT
  5
EF7C878F9
330
EF7C85532
100
AcDbEntity
  8
TEXT
100
AcDbText
 10
136.8249992759999
 20
274.2999999999999
 30
0.0
 40
3.0
  1
%%u      
  7
K
 72
     4
 11
141.9999992759999
 21
273.9999999999999
 31
0.0
100
AcDbText
  0
TEXT
  5
EF7C878FA
330
EF7C85532
100
AcDbEntity
  8
TEXT
100
AcDbText
 10
107.0857135617142
 20
266.4999999999999
 30
0.0
 40
3.0
  1
スリーブ X
  7
K
 72
     4
 11
116.4999992759999
 21
267.9999999999999
 31
0.0
100
AcDbText
  0
TEXT
  5
EF7C878FB
330
EF7C85532
100
AcDbEntity
  8
TEXT
100
AcDbText
 10
156.6795477624092
 20
266.580835176341
 30
0.0
 40
3.0
  1
1
  7
K
 72
     4
 11
157.8938334766949
 21
268.0808351763409
 31
0.0
100
AcDbText
  0
TEXT
  5
EF7C878FC
330
EF7C85532
100
AcDbEntity
  8
TEXT
100
AcDbText
 10
135.1999992759999
 20
278.4999999999999
 30
0.0
 40
3.0
  1
材    質
  7
K
 72
     4
 11
141.9999992759999
 21
279.9999999999999
 31
0.0
100
AcDbText
  0
TEXT
  5
EF7C878FD
330
EF7C85532
100
AcDbEntity
  8
TEXT
100
AcDbText
 10
107.8999992759999
 20
278.4999999999999
 30
0.0
 40
3.0
  1
名      称
  7
K
 72
     4
 11
116.4999992759999
 21
279.9999999999999
 31
0.0
100
AcDbText
  0
TEXT
  5
EF7C878FE
330
EF7C85532
100
AcDbEntity
  8
TEXT
100
AcDbText
 10
154.7999992759999
 20
278.4999999999999
 30
0.0
 40
3.0
  1
個数
  7
K
 72
     4
 11
157.9999992759999
 21
279.9999999999999
 31
0.0
100
AcDbText
  0
TEXT
  5
EF7C878FF
330
EF7C85532
100
AcDbEntity
  8
TEXT
100
AcDbText
 10
165.6999992759999
 20
278.4999999999999
 30
0.0
 40
3.0
  1
備    考
  7
K
 72
     4
 11
172.4999992759999
 21
279.9999999999999
 31
0.0
100
AcDbText
  0
LINE
  5
EF7C87900
330
EF7C85532
100
AcDbEntity
  8
JISSEN
100
AcDbLine
 10
258.999998914
 20
242.7069756819134
 30
0.0
 11
197.4365727924013
 21
242.7069756819136
 31
0.0
  0
LINE
  5
EF7C87901
330
EF7C85532
100
AcDbEntity
  8
JISSEN
100
AcDbLine
 10
258.999998914
 20
234.7069756819134
 30
0.0
 11
197.4365727924013
 21
234.7069756819134
 31
0.0
  0
INSERT
  5
EF7C87902
330
EF7C85532
100
AcDbEntity
  8
SUNPOU
100
AcDbBlockReference
  2
ARROW
 10
258.999998914
 20
252.1320626855132
 30
0.0
 41
1.5
 42
1.5
 43
1.5
 50
180.0
  0
LINE
  5
EF7C87903
330
EF7C85532
100
AcDbEntity
  8
SUNPOU
100
AcDbLine
 10
258.999998914
 20
243.7069756819135
 30
0.0
 11
258.999998914
 21
253.132062685513
 31
0.0
  0
LINE
  5
EF7C87904
330
EF7C85532
100
AcDbEntity
  8
JISSEN
100
AcDbLine
 10
258.999998914
 20
234.7069756819134
 30
0.0
 11
258.999998914
 21
242.7069756819134
 31
0.0
  0
LINE
  5
EF7C87905
330
EF7C85532
100
AcDbEntity
  8
JISSEN
100
AcDbLine
 10
257.4999989139998
 20
234.2069756819134
 30
0.0
 11
258.649998914
 21
234.2069756819134
 31
0.0
  0
LINE
  5
EF7C87906
330
EF7C85532
100
AcDbEntity
  8
JISSEN
100
AcDbLine
 10
257.4999989139998
 20
234.7069756819134
 30
0.0
 11
257.4999989139998
 21
234.2069756819134
 31
0.0
  0
LINE
  5
EF7C87907
330
EF7C85532
100
AcDbEntity
  8
JISSEN
 62
     0
100
AcDbLine
 10
469.9999981936029
 20
145.5673616117144
 30
0.0
 11
469.9999981936029
 21
127.5673616117144
 31
0.0
  0
LINE
  5
EF7C87908
330
EF7C85532
100
AcDbEntity
  8
JISSEN
 62
     0
100
AcDbLine
 10
475.1999981936026
 20
137.5254015032642
 30
0.0
 11
475.1999981936026
 21
143.8692408604282
 31
0.0
  0
LINE
  5
EF7C87909
330
EF7C85532
100
AcDbEntity
  8
JISSEN
 62
     0
100
AcDbLine
 10
480.1999981936026
 20
143.8692408604282
 30
0.0
 11
480.1999981936026
 21
137.5254015032642
 31
0.0
  0
LINE
  5
EF7C8790A
330
EF7C85532
100
AcDbEntity
  8
SUNPOU
100
AcDbLine
 10
482.6874627387326
 20
134.8413243675615
 30
0.0
 11
494.8648159655796
 21
146.0745770949074
 31
0.0
  0
LINE
  5
EF7C8790B
330
EF7C85532
100
AcDbEntity
  8
JISSEN
 62
     0
100
AcDbLine
 10
429.7999981936026
 20
143.8692408604282
 30
0.0
 11
429.7999981936026
 21
137.5254015032642
 31
0.0
  0
LINE
  5
EF7C8790C
330
EF7C85532
100
AcDbEntity
  8
JISSEN
 62
     0
100
AcDbLine
 10
424.7999981936025
 20
137.5254015032642
 30
0.0
 11
424.7999981936025
 21
143.8692408604282
 31
0.0
  0
LINE
  5
EF7C8790D
330
EF7C85532
100
AcDbEntity
  8
JISSEN
 62
     0
100
AcDbLine
 10
434.9999981936027
 20
127.5673616117144
 30
0.0
 11
434.9999981936027
 21
145.5673616117144
 31
0.0
  0
INSERT
  5
EF7C8790E
330
EF7C85532
100
AcDbEntity
  8
WAKU
100
AcDbBlockReference
  2
WAKU
 10
361.9999985519999
 20
0.0000003292834663
 30
0.0
 41
181.0
 42
283.0
 43
181.0
  0
LINE
  5
EF7C8790F
330
EF7C85532
100
AcDbEntity
  8
JISSEN
 62
     0
100
AcDbLine
 10
299.1999989176024
 20
143.8692408604282
 30
0.0
 11
299.1999989176024
 21
137.5254015032642
 31
0.0
  0
LINE
  5
EF7C87910
330
EF7C85532
100
AcDbEntity
  8
SUNPOU
100
AcDbLine
 10
301.6874634627324
 20
134.8413243675615
 30
0.0
 11
313.8648166895793
 21
146.0745770949074
 31
0.0
  0
LINE
  5
EF7C87911
330
EF7C85532
100
AcDbEntity
  8
JISSEN
 62
     0
100
AcDbLine
 10
294.1999989176024
 20
137.5254015032642
 30
0.0
 11
294.1999989176024
 21
143.8692408604282
 31
0.0
  0
LINE
  5
EF7C87912
330
EF7C85532
100
AcDbEntity
  8
JISSEN
 62
     0
100
AcDbLine
 10
288.9999989176026
 20
145.5673616117144
 30
0.0
 11
288.9999989176026
 21
127.5673616117144
 31
0.0
  0
LINE
  5
EF7C87913
330
EF7C85532
100
AcDbEntity
  8
JISSEN
100
AcDbLine
 10
500.0794913195757
 20
38.4992204583807
 30
0.0
 11
404.9205050676298
 21
38.4992204583807
 31
0.0
  0
LINE
  5
EF7C87914
330
EF7C85532
100
AcDbEntity
  8
JISSEN
100
AcDbLine
 10
490.0794913195754
 20
36.79922045838071
 30
0.0
 11
414.9205050676298
 21
36.79922045838071
 31
0.0
  0
LINE
  5
EF7C87915
330
EF7C85532
100
AcDbEntity
  8
JISSEN
100
AcDbLine
 10
466.4999981936029
 20
35.94922045838075
 30
0.0
 11
438.4999981936025
 21
35.94922045838069
 31
0.0
  0
LINE
  5
EF7C87916
330
EF7C85532
100
AcDbEntity
  8
JISSEN
100
AcDbLine
 10
444.3779210553541
 20
75.94922045838075
 30
0.0
 11
438.4999981936025
 21
75.94922045838075
 31
0.0
  0
HATCH
  5
EF7C87917
330
EF7C85532
100
AcDbEntity
  8
JISSEN
100
AcDbHatch
 10
0.0
 20
0.0
 30
0.0
210
0.0
220
0.0
230
1.0
  2
ANSI31
 70
     0
 71
     0
 91
        2
 92
        7
 72
     0
 73
     1
 93
       25
 10
478.3294913195756
 20
108.2287135843535
 10
479.8294913195754
 20
108.2287135843535
 10
479.8294913195754
 20
107.2287135843535
 10
481.0794913195755
 20
107.2287135843535
 10
481.0794913195755
 20
110.2287135843535
 10
478.3294913195756
 20
112.5287135843535
 10
478.3294913195756
 20
117.0287135843536
 10
481.0794913195755
 20
117.0287135843536
 10
481.0794913195755
 20
118.5287135843535
 10
474.0794913195754
 20
118.5287135843535
 10
474.0794913195754
 20
117.0287135843536
 10
476.8294913195757
 20
117.0287135843536
 10
476.8294913195757
 20
112.5287135843535
 10
474.0794913195754
 20
110.2287135843535
 10
474.0794913195754
 20
107.2287135843535
 10
475.3294913195754
 20
107.2287135843535
 10
475.3294913195754
 20
108.2287135843535
 10
476.8294913195757
 20
108.2287135843535
 10
476.8294913195757
 20
78.57871358435359
 10
465.429491319576
 20
78.57871358435359
 10
465.4294913195756
 20
76.87871358435359
 10
490.0794913195754
 20
76.87871358435353
 10
490.0794913195754
 20
78.57871358435359
 10
483.3294913195754
 20
78.57871358435359
 10
478.3294913195756
 20
78.57871358435359
 97
        0
 92
        7
 72
     0
 73
     1
 93
       24
 10
428.1705050676301
 20
108.2287135843535
 10
429.6705050676298
 20
108.2287135843535
 10
429.6705050676298
 20
107.2287135843535
 10
430.9205050676298
 20
107.2287135843535
 10
430.9205050676298
 20
110.2287135843535
 10
428.1705050676301
 20
112.5287135843534
 10
428.1705050676301
 20
117.0287135843536
 10
430.9205050676298
 20
117.0287135843536
 10
430.9205050676298
 20
118.5287135843535
 10
423.9205050676298
 20
118.5287135843535
 10
423.9205050676298
 20
117.0287135843536
 10
426.6705050676298
 20
117.0287135843536
 10
426.6705050676298
 20
112.5287135843535
 10
423.9205050676298
 20
110.2287135843535
 10
423.9205050676298
 20
107.2287135843535
 10
425.1705050676298
 20
107.2287135843535
 10
425.1705050676298
 20
108.2287135843535
 10
426.6705050676298
 20
108.2287135843535
 10
426.67050506763
 20
78.57871358435359
 10
414.9205050676298
 20
78.57871358435359
 10
414.9205050676298
 20
76.87871358435359
 10
439.5705050676297
 20
76.87871358435359
 10
439.5705050676297
 20
78.57871358435359
 10
428.1705050676301
 20
78.57871358435359
 97
        0
 75
     0
 76
     1
 52
0.0
 41
5.0
 77
     0
 78
     1
 53
45.0
 43
-126.4255197039799
 44
249.1869932644902
 45
-0.4419417382415923
 46
0.4419417382415923
 79
     0
 47
0.1461541772446758
 98
        2
 10
477.5948319528073
 20
98.6948125865102
 10
427.5694414367283
 20
99.27942932426921
  0
LINE
  5
EF7C87918
330
EF7C85532
100
AcDbEntity
  8
JISSEN
 62
     0
100
AcDbLine
 10
440.7999981930417
 20
79.70868263333017
 30
0.0
 11
464.1999981869575
 21
79.70868263333017
 31
0.0
  0
LINE
  5
EF7C87919
330
EF7C85532
100
AcDbEntity
  8
JISSEN
 62
     0
100
AcDbLine
 10
441.3102022745415
 20
79.19847855183014
 30
0.0
 11
440.7999981930417
 21
79.70868263333017
 31
0.0
  0
LINE
  5
EF7C8791A
330
EF7C85532
100
AcDbEntity
  8
JISSEN
 62
     0
100
AcDbLine
 10
440.7999981930417
 20
87.69847855183014
 30
0.0
 11
443.8966589393412
 21
87.69847855183014
 31
0.0
  0
LINE
  5
EF7C8791B
330
EF7C85532
100
AcDbEntity
  8
JISSEN
 62
     0
100
AcDbLine
 10
440.7999981930417
 20
84.64856705875291
 30
0.0
 11
443.8966589393412
 21
84.64856705875291
 31
0.0
  0
LINE
  5
EF7C8791C
330
EF7C85532
100
AcDbEntity
  8
JISSEN
 62
     0
100
AcDbLine
 10
452.4999981900001
 20
114.6984785426001
 30
0.0
 11
440.7999981930417
 21
114.6984785426001
 31
0.0
  0
LWPOLYLINE
  5
EF7C8791D
330
EF7C85532
100
AcDbEntity
  8
JISSEN
 62
     0
100
AcDbPolyline
 90
        4
 70
     0
 43
0.0
 10
439.4986553937667
 20
127.5673616117144
 10
439.4986553937667
 20
125.0276249020122
 10
465.4986553937667
 20
125.0276249020122
 10
465.4986553937667
 20
127.5673616117143
  0
LINE
  5
EF7C8791E
330
EF7C85532
100
AcDbEntity
  8
JISSEN
 62
     0
100
AcDbLine
 10
439.4986553937667
 20
127.5673616117144
 30
0.0
 11
465.4986553937667
 21
127.5673616117143
 31
0.0
  0
LINE
  5
EF7C8791F
330
EF7C85532
100
AcDbEntity
  8
JISSEN
 62
     0
100
AcDbLine
 10
466.3564046541536
 20
119.7984785412639
 30
0.0
 11
438.6435917330516
 21
119.7984785412738
 31
0.0
  0
LINE
  5
EF7C87920
330
EF7C85532
100
AcDbEntity
  8
JISSEN
 62
     0
100
AcDbLine
 10
438.6435917330516
 20
116.7984785412738
 30
0.0
 11
466.3564046541536
 21
116.7984785412742
 31
0.0
  0
LINE
  5
EF7C87921
330
EF7C85532
100
AcDbEntity
  8
JISSEN
 62
     0
100
AcDbLine
 10
443.052862636402
 20
121.990855727577
 30
0.0
 11
440.7999981936021
 21
119.798478541273
 31
0.0
  0
TEXT
  5
EF7C87922
330
EF7C85532
100
AcDbEntity
  8
SUNPOU
100
AcDbText
 10
317.9446626871446
 20
7.849423898685245
 30
0.0
 40
3.0
  1
XQR  スリーブ取付状態
  7
K
100
AcDbText
  0
TEXT
  5
EF7C87923
330
EF7C85532
100
AcDbEntity
  8
SUNPOU
100
AcDbText
 10
317.9446626871446
 20
2.849423898685245
 30
0.0
 40
3.0
  1
尺度　1/1
  7
K
100
AcDbText
  0
LINE
  5
EF7C87924
330
EF7C85532
100
AcDbEntity
  8
JISSEN
100
AcDbLine
 10
283.999998914
 20
10.55976720272906
 30
0.0
 11
283.999998914
 21
24.25500708826985
 31
0.0
  0
TEXT
  5
EF7C87926
330
EF7C85532
100
AcDbEntity
  8
SUNPOU
100
AcDbText
 10
276.0077781605405
 20
21.18063594698766
 30
0.0
 40
1.5
  1
P
 50
30.00000000000064
  7
K
 72
     1
 11
276.6882266920854
 21
21.57349308984481
 31
0.0
100
AcDbText
  0
TEXT
  5
EF7C87927
330
EF7C85532
100
AcDbEntity
  8
SUNPOU
100
AcDbText
 10
272.9587084757119
 20
20.2615537457554
 30
0.0
 40
1.5
  1
S
 50
12.00000000000017
  7
K
 72
     1
 11
273.6573853333788
 21
20.41006209633951
 31
0.0
100
AcDbText
  0
TEXT
  5
EF7C87928
330
EF7C85532
100
AcDbEntity
  8
SUNPOU
100
AcDbText
 10
274.5517448534291
 20
20.61653429225169
 30
0.0
 40
1.5
  1
S
 50
20.99999999999986
  7
K
 72
     1
 11
275.2185880152128
 21
20.87251139906976
 31
0.0
100
AcDbText
  0
LINE
  5
EF7C87929
330
EF7C85532
100
AcDbEntity
  8
JISSEN
100
AcDbLine
 10
283.999998914
 20
36.86452731718839
 30
0.0
 11
283.999998914
 21
50.55976720272906
 31
0.0
  0
TEXT
  5
EF7C8792A
330
EF7C85532
100
AcDbEntity
  8
SUNPOU
100
AcDbText
 10
280.1579537951441
 20
36.3328074870194
 30
0.0
 40
1.5
  1
Q
 50
128.0251942352288
  7
K
 72
     1
 11
279.67394757092
 21
36.95174602491135
 31
0.0
100
AcDbText
  0
TEXT
  5
EF7C8792B
330
EF7C85532
100
AcDbEntity
  8
SUNPOU
100
AcDbText
 10
273.9251435058415
 20
35.59654380518481
 30
0.0
 40
1.5
  1
E
 50
161.9999999999993
  7
K
 72
     1
 11
273.2118511186202
 21
35.82830655096603
 31
0.0
100
AcDbText
  0
TEXT
  5
EF7C8792C
330
EF7C85532
100
AcDbEntity
  8
SUNPOU
100
AcDbText
 10
275.3340045839729
 20
34.621607849361
 30
0.0
 40
1.5
  1
S
 50
143.9999999999991
  7
K
 72
     1
 11
274.7561353022765
 21
35.04145445814134
 31
0.0
100
AcDbText
  0
LINE
  5
EF7C8792D
330
EF7C85532
100
AcDbEntity
  8
NITEN
 48
0.3
100
AcDbLine
 10
274.3728039851671
 20
38.95848462051105
 30
0.0
 11
274.8582688849215
 21
40.37775338685037
 31
0.0
  0
TEXT
  5
EF7C8792E
330
EF7C85532
100
AcDbEntity
  8
SUNPOU
100
AcDbText
 10
279.0239420812159
 20
37.74854012058316
 30
0.0
 40
1.5
  1
R
 50
138.0251942352304
  7
K
 72
     1
 11
278.439811449901
 21
38.27402879252122
 31
0.0
100
AcDbText
  0
LINE
  5
EF7C8792F
330
EF7C85532
100
AcDbEntity
  8
JISSEN
100
AcDbLine
 10
414.9205050676298
 20
36.87871358435359
 30
0.0
 11
414.9205050676298
 21
38.4992204583807
 31
0.0
  0
LINE
  5
EF7C87930
330
EF7C85532
100
AcDbEntity
  8
SAISEN
 62
     0
100
AcDbLine
 10
438.4999981936025
 20
35.94922045838069
 30
0.0
 11
438.4999981936025
 21
36.79922045838071
 31
0.0
  0
LINE
  5
EF7C87931
330
EF7C85532
100
AcDbEntity
  8
SAISEN
 62
     0
100
AcDbLine
 10
438.4999981936025
 20
36.79922045838071
 30
0.0
 11
439.4999981936027
 21
36.79922045838071
 31
0.0
  0
LINE
  5
EF7C87932
330
EF7C85532
100
AcDbEntity
  8
SUNPOU
100
AcDbLine
 10
309.9151826757038
 20
90.57871358435358
 30
0.0
 11
319.8932077128281
 21
100.7045226194899
 31
0.0
  0
LINE
  5
EF7C87933
330
EF7C85532
100
AcDbEntity
  8
JISSEN
 62
     0
100
AcDbLine
 10
297.3294920435753
 20
78.57871358435358
 30
0.0
 11
297.3294920435753
 21
108.2287135843536
 31
0.0
  0
LINE
  5
EF7C87934
330
EF7C85532
100
AcDbEntity
  8
JISSEN
 62
     0
100
AcDbLine
 10
295.8294920435753
 20
108.2287135843536
 30
0.0
 11
295.8294920435753
 21
78.57871358435358
 31
0.0
  0
LINE
  5
EF7C87935
330
EF7C85532
100
AcDbEntity
  8
JISSEN
 62
     0
100
AcDbLine
 10
283.1999989109572
 20
87.69847855183787
 30
0.0
 11
283.1999989109572
 21
114.6984785426001
 31
0.0
  0
LINE
  5
EF7C87936
330
EF7C85532
100
AcDbEntity
  8
SUNPOU
100
AcDbLine
 10
309.9151826757038
 20
90.57871358435358
 30
0.0
 11
313.9325404655883
 21
92.93767966613097
 31
0.0
  0
LINE
  5
EF7C87937
330
EF7C85532
100
AcDbEntity
  8
0
 62
     0
100
AcDbLine
 10
312.7558617125571
 20
78.57871358435358
 30
0.0
 11
321.1968682590468
 21
87.0197201308432
 31
0.0
  0
LINE
  5
EF7C87938
330
EF7C85532
100
AcDbEntity
  8
0
 62
     0
100
AcDbLine
 10
308.3364443301411
 20
78.57871358435358
 30
0.0
 11
320.3364443301411
 21
90.57871358435358
 31
0.0
  0
LWPOLYLINE
  5
EF7C87939
330
EF7C85532
100
AcDbEntity
  8
JISSEN
 62
     0
100
AcDbPolyline
 90
        8
 70
     1
 43
0.0
 10
326.1721351578332
 20
78.57871358435359
 10
302.3294920435753
 20
78.57871358435359
 10
302.3294920435753
 20
90.5787135843536
 10
323.2340885989238
 20
90.5787135843536
 42
-0.202120388705406
 10
321.9033713056123
 20
88.45553463600046
 42
0.5713525608206203
 10
322.1309748844098
 20
85.59677860841086
 42
-0.3987555679944311
 10
323.259509295947
 20
82.58725654285504
 42
0.4814910058598528
 10
324.76738300548
 20
79.80968222801642
 42
-0.2786868946516943
  0
LINE
  5
EF7C8793A
330
EF7C85532
100
AcDbEntity
  8
0
 62
     0
100
AcDbLine
 10
303.9170269477255
 20
78.57871358435358
 30
0.0
 11
315.9170269477255
 21
90.57871358435358
 31
0.0
  0
LINE
  5
EF7C8793B
330
EF7C85532
100
AcDbEntity
  8
SUNPOU
100
AcDbLine
 10
303.2631639347953
 20
60.3877472531068
 30
0.0
 11
349.9662937808673
 21
60.3877472531068
 31
0.0
  0
TEXT
  5
EF7C8793C
330
EF7C85532
100
AcDbEntity
  8
SUNPOU
100
AcDbText
 10
306.1128706625197
 20
60.68971516339366
 30
0.0
 40
4.5
  1
T バーチャンネル
  7
K
100
AcDbText
  0
LINE
  5
EF7C8793D
330
EF7C85532
100
AcDbEntity
  8
JISSEN
 62
     0
100
AcDbLine
 10
282.499998914
 20
77.17846479428539
 30
0.0
 11
282.499998914
 21
67.92846479428539
 31
0.0
  0
LINE
  5
EF7C8793E
330
EF7C85532
100
AcDbEntity
  8
SUNPOU
100
AcDbLine
 10
295.1560179516656
 20
76.87871358435359
 30
0.0
 11
303.2631639347953
 21
60.3877472531068
 31
0.0
  0
LINE
  5
EF7C8793F
330
EF7C85532
100
AcDbEntity
  8
SUNPOU
100
AcDbLine
 10
295.1560179516656
 20
76.87871358435359
 30
0.0
 11
298.2234133401795
 21
73.37229516701587
 31
0.0
  0
LINE
  5
EF7C87940
330
EF7C85532
100
AcDbEntity
  8
SUNPOU
100
AcDbLine
 10
295.1560179516656
 20
76.87871358435359
 30
0.0
 11
296.059251072901
 21
72.30836846438467
 31
0.0
  0
ARC
  5
EF7C87941
330
EF7C85532
100
AcDbEntity
  8
SAISEN
 62
     0
100
AcDbCircle
 10
274.2551009541
 20
64.16213826453537
 30
0.0
 40
0.3061224489
100
AcDbArc
 50
270.0
 51
0.0
  0
LINE
  5
EF7C87942
330
EF7C85532
100
AcDbEntity
  8
SAISEN
 62
     0
100
AcDbLine
 10
271.499998914
 20
62.83560765263541
 30
0.0
 11
279.663264218
 21
62.83560765263541
 31
0.0
  0
LINE
  5
EF7C87943
330
EF7C85532
100
AcDbEntity
  8
SAISEN
 62
     0
100
AcDbLine
 10
271.499998914
 20
62.98866887708533
 30
0.0
 11
279.663264218
 21
62.98866887708545
 31
0.0
  0
ARC
  5
EF7C87944
330
EF7C85532
100
AcDbEntity
  8
SAISEN
 62
     0
100
AcDbCircle
 10
274.7142846274498
 20
63.14173010153536
 30
0.0
 40
0.15306122445
100
AcDbArc
 50
180.0
 51
270.0
  0
ARC
  5
EF7C87945
330
EF7C85532
100
AcDbEntity
  8
SAISEN
 62
     0
100
AcDbCircle
 10
274.2551009541
 20
63.54989336673537
 30
0.0
 40
0.3061224489
100
AcDbArc
 50
0.0
 51
90.0
  0
LINE
  5
EF7C87946
330
EF7C85532
100
AcDbEntity
  8
SAISEN
 62
     0
100
AcDbLine
 10
274.5612234030001
 20
63.54989336673537
 30
0.0
 11
274.5612234030001
 21
63.14173010153536
 31
0.0
  0
LINE
  5
EF7C87947
330
EF7C85532
100
AcDbEntity
  8
SAISEN
 62
     0
100
AcDbLine
 10
273.2346927911001
 20
63.85601581563538
 30
0.0
 11
274.2551009541
 21
63.85601581563538
 31
0.0
  0
LINE
  5
EF7C87948
330
EF7C85532
100
AcDbEntity
  8
SAISEN
 62
     0
100
AcDbLine
 10
271.499998914
 20
63.85601581563538
 30
0.0
 11
274.2551009541
 21
63.85601581563538
 31
0.0
  0
LINE
  5
EF7C87949
330
EF7C85532
100
AcDbEntity
  8
SAISEN
 62
     0
100
AcDbLine
 10
279.663264218
 20
62.83560765263541
 30
0.0
 11
279.663264218
 21
62.98866887708545
 31
0.0
  0
ARC
  5
EF7C8794A
330
EF7C85532
100
AcDbEntity
  8
SAISEN
 62
     0
100
AcDbCircle
 10
278.38775401425
 20
62.98866887708545
 30
0.0
 40
0.3571428570499999
100
AcDbArc
 50
270.0
 51
334.6230664748522
  0
ARC
  5
EF7C8794B
330
EF7C85532
100
AcDbEntity
  8
JISSEN
 62
     0
100
AcDbCircle
 10
281.7499989139998
 20
67.92846479428539
 30
0.0
 40
0.75
100
AcDbArc
 50
270.0
 51
0.0
  0
LINE
  5
EF7C8794C
330
EF7C85532
100
AcDbEntity
  8
JISSEN
 62
     0
100
AcDbLine
 10
271.499998914
 20
67.17846479428539
 30
0.0
 11
281.7499989139998
 21
67.17846479428539
 31
0.0
  0
LINE
  5
EF7C8794D
330
EF7C85532
100
AcDbEntity
  8
SAISEN
 62
     0
100
AcDbLine
 10
271.499998914
 20
65.08050561123531
 30
0.0
 11
278.38775401425
 21
65.08050561123531
 31
0.0
  0
LINE
  5
EF7C8794E
330
EF7C85532
100
AcDbEntity
  8
SAISEN
 62
     0
100
AcDbLine
 10
271.499998914
 20
64.87642397863533
 30
0.0
 11
279.663264218
 21
64.87642397863533
 31
0.0
  0
LINE
  5
EF7C8794F
330
EF7C85532
100
AcDbEntity
  8
SAISEN
 62
     0
100
AcDbLine
 10
271.499998914
 20
64.72336275418541
 30
0.0
 11
279.663264218
 21
64.7233627541853
 31
0.0
  0
LINE
  5
EF7C87950
330
EF7C85532
100
AcDbEntity
  8
JISSEN
 62
     0
100
AcDbLine
 10
273.69387646445
 20
65.08050561123531
 30
0.0
 11
273.69387646445
 21
67.17846479428539
 31
0.0
  0
LINE
  5
EF7C87951
330
EF7C85532
100
AcDbEntity
  8
SAISEN
 62
     0
100
AcDbLine
 10
274.5612234030001
 20
64.16213826453537
 30
0.0
 11
274.5612234030001
 21
64.57030152973539
 31
0.0
  0
ARC
  5
EF7C87952
330
EF7C85532
100
AcDbEntity
  8
SAISEN
 62
     0
100
AcDbCircle
 10
274.7142846274498
 20
64.57030152973539
 30
0.0
 40
0.15306122445
100
AcDbArc
 50
90.0
 51
180.0
  0
LINE
  5
EF7C87953
330
EF7C85532
100
AcDbEntity
  8
SAISEN
 62
     0
100
AcDbLine
 10
279.663264218
 20
64.87642397863533
 30
0.0
 11
279.663264218
 21
64.7233627541853
 31
0.0
  0
ARC
  5
EF7C87954
330
EF7C85532
100
AcDbEntity
  8
SAISEN
 62
     0
100
AcDbCircle
 10
278.38775401425
 20
64.7233627541853
 30
0.0
 40
0.3571428570499999
100
AcDbArc
 50
25.37693352514767
 51
90.0
  0
LINE
  5
EF7C87955
330
EF7C85532
100
AcDbEntity
  8
JISSEN
 62
     0
100
AcDbLine
 10
284.4294920435754
 20
76.87871358435359
 30
0.0
 11
309.0794920435753
 21
76.87871358435359
 31
0.0
  0
LINE
  5
EF7C87956
330
EF7C85532
100
AcDbEntity
  8
JISSEN
 62
     0
100
AcDbLine
 10
295.8294920435753
 20
78.57871358435358
 30
0.0
 11
284.4294920435754
 21
78.57871358435358
 31
0.0
  0
LINE
  5
EF7C87957
330
EF7C85532
100
AcDbEntity
  8
SAISEN
 62
     0
100
AcDbLine
 10
283.3499989176025
 20
93.64922045838074
 30
0.0
 11
283.3499989176025
 21
84.44922045838058
 31
0.0
  0
LINE
  5
EF7C87958
330
EF7C85532
100
AcDbEntity
  8
JISSEN
 62
     0
100
AcDbLine
 10
279.0493676748439
 20
85.07141744032583
 30
0.0
 11
279.4262626591289
 21
87.5399264018651
 31
0.0
  0
ARC
  5
EF7C87959
330
EF7C85532
100
AcDbEntity
  8
JISSEN
 62
     0
100
AcDbCircle
 10
280.1033381646593
 20
86.17352280529724
 30
0.0
 40
1.524955746538608
100
AcDbArc
 50
90.00308904205786
 51
270.000000000039
  0
ARC
  5
EF7C8795A
330
EF7C85532
100
AcDbEntity
  8
JISSEN
 62
     0
100
AcDbCircle
 10
279.0999989120239
 20
85.19847855027013
 30
0.0
 40
2.499999999349999
100
AcDbArc
 50
0.0
 51
76.95266727518363
  0
LINE
  5
EF7C8795B
330
EF7C85532
100
AcDbEntity
  8
SAISEN
 62
     0
100
AcDbLine
 10
284.1999989176024
 20
77.09922045838073
 30
0.0
 11
284.1999989176024
 21
93.94922045838075
 31
0.0
  0
LINE
  5
EF7C8795C
330
EF7C85532
100
AcDbEntity
  8
SAISEN
 62
     0
100
AcDbLine
 10
284.1999989176024
 20
77.09922045838073
 30
0.0
 11
284.1999989176024
 21
93.94922045838075
 31
0.0
  0
LINE
  5
EF7C8795D
330
EF7C85532
100
AcDbEntity
  8
JISSEN
 62
     0
100
AcDbLine
 10
283.1999989109599
 20
84.64856705876071
 30
0.0
 11
280.1033381646604
 21
84.6485670587586
 31
0.0
  0
LINE
  5
EF7C8795E
330
EF7C85532
100
AcDbEntity
  8
JISSEN
 62
     0
100
AcDbLine
 10
271.499998914
 20
77.17846479428539
 30
0.0
 11
282.499998914
 21
77.17846479428539
 31
0.0
  0
LINE
  5
EF7C8795F
330
EF7C85532
100
AcDbEntity
  8
JISSEN
 62
     0
100
AcDbLine
 10
271.499998914
 20
79.19847855183014
 30
0.0
 11
282.6897948294572
 21
79.19847855183019
 31
0.0
  0
LINE
  5
EF7C87960
330
EF7C85532
100
AcDbEntity
  8
JISSEN
 62
     0
100
AcDbLine
 10
271.499998914
 20
78.19847855209014
 30
0.0
 11
277.9999989123093
 21
78.19847855209014
 31
0.0
  0
LINE
  5
EF7C87961
330
EF7C85532
100
AcDbEntity
  8
JISSEN
 62
     0
100
AcDbLine
 10
274.7999989131418
 20
78.19847855209014
 30
0.0
 11
274.7999989131418
 21
77.17846479428533
 31
0.0
  0
LINE
  5
EF7C87962
330
EF7C85532
100
AcDbEntity
  8
JISSEN
 62
     0
100
AcDbLine
 10
272.9999989136095
 20
78.19847855209014
 30
0.0
 11
272.9999989136095
 21
77.17846479428533
 31
0.0
  0
LINE
  5
EF7C87963
330
EF7C85532
100
AcDbEntity
  8
SAISEN
 62
     0
100
AcDbLine
 10
272.7499989136745
 20
78.19847855209014
 30
0.0
 11
272.7499989136745
 21
77.17846479428533
 31
0.0
  0
LINE
  5
EF7C87964
330
EF7C85532
100
AcDbEntity
  8
JISSEN
 62
     0
100
AcDbLine
 10
277.9999989123093
 20
78.19847855209014
 30
0.0
 11
278.1526801421771
 21
79.19847855183014
 31
0.0
  0
LINE
  5
EF7C87965
330
EF7C85532
100
AcDbEntity
  8
JISSEN
 62
     0
100
AcDbLine
 10
276.7999989126219
 20
78.19847855209014
 30
0.0
 11
276.7999989126219
 21
77.17846479428533
 31
0.0
  0
LINE
  5
EF7C87966
330
EF7C85532
100
AcDbEntity
  8
JISSEN
 62
     0
100
AcDbLine
 10
281.5999989113738
 20
84.64856705875963
 30
0.0
 11
281.5999989113738
 21
85.19847855027013
 31
0.0
  0
ARC
  5
EF7C87967
330
EF7C85532
100
AcDbEntity
  8
JISSEN
 62
     0
100
AcDbCircle
 10
279.0999989120239
 20
85.19847855027013
 30
0.0
 40
0.4999999998699999
100
AcDbArc
 50
0.0
 51
84.8591579675798
  0
LINE
  5
EF7C87968
330
EF7C85532
100
AcDbEntity
  8
JISSEN
 62
     0
100
AcDbLine
 10
279.5999989118938
 20
84.73402996907793
 30
0.0
 11
279.5999989118938
 21
85.19847855027013
 31
0.0
  0
LINE
  5
EF7C87969
330
EF7C85532
100
AcDbEntity
  8
SAISEN
 62
     0
100
AcDbLine
 10
283.3499989176025
 20
82.4492204583807
 30
0.0
 11
283.3499989176025
 21
76.94922045838075
 31
0.0
  0
LINE
  5
EF7C8796A
330
EF7C85532
100
AcDbEntity
  8
JISSEN
 62
     0
100
AcDbLine
 10
283.1999989109572
 20
79.70868263333017
 30
0.0
 11
283.1999989109572
 21
84.64856705876071
 31
0.0
  0
LINE
  5
EF7C8796B
330
EF7C85532
100
AcDbEntity
  8
SAISEN
 62
     0
100
AcDbLine
 10
285.4999989176026
 20
76.79922045838072
 30
0.0
 11
284.4999989176025
 21
76.79922045838072
 31
0.0
  0
LINE
  5
EF7C8796C
330
EF7C85532
100
AcDbEntity
  8
JISSEN
 62
     0
100
AcDbLine
 10
284.4294920435754
 20
78.57871358435358
 30
0.0
 11
284.4294920435754
 21
76.87871358435359
 31
0.0
  0
LINE
  5
EF7C8796D
330
EF7C85532
100
AcDbEntity
  8
SAISEN
 62
     0
100
AcDbLine
 10
285.4999989176026
 20
75.94922045838075
 30
0.0
 11
285.4999989176025
 21
76.79922045838072
 31
0.0
  0
LINE
  5
EF7C8796E
330
EF7C85532
100
AcDbEntity
  8
SAISEN
 62
     0
100
AcDbLine
 10
282.499998914
 20
75.94922045838075
 30
0.0
 11
284.3499989176025
 21
75.94922045838075
 31
0.0
  0
ARC
  5
EF7C8796F
330
EF7C85532
100
AcDbEntity
  8
SAISEN
 62
     0
100
AcDbCircle
 10
284.3499989176025
 20
76.94922045838075
 30
0.0
 40
1.0
100
AcDbArc
 50
180.0
 51
270.0
  0
LINE
  5
EF7C87970
330
EF7C85532
100
AcDbEntity
  8
SAISEN
 62
     0
100
AcDbLine
 10
282.499998917603
 20
75.94922045838075
 30
0.0
 11
284.3499989176025
 21
75.94922045838075
 31
0.0
  0
LINE
  5
EF7C87971
330
EF7C85532
100
AcDbEntity
  8
JISSEN
 62
     0
100
AcDbLine
 10
283.1999989109572
 20
79.70868263333017
 30
0.0
 11
282.6897948294572
 21
79.19847855183019
 31
0.0
  0
LINE
  5
EF7C87972
330
EF7C85532
100
AcDbEntity
  8
SAISEN
 62
     0
100
AcDbLine
 10
284.3499989176025
 20
75.94922045838075
 30
0.0
 11
285.4999989176026
 21
75.94922045838075
 31
0.0
  0
ARC
  5
EF7C87973
330
EF7C85532
100
AcDbEntity
  8
SAISEN
 62
     0
100
AcDbCircle
 10
284.4999989176025
 20
77.09922045838073
 30
0.0
 40
0.3
100
AcDbArc
 50
179.9999999999983
 51
270.0
  0
LINE
  5
EF7C87974
330
EF7C85532
100
AcDbEntity
  8
SAISEN
 62
     0
100
AcDbLine
 10
283.199998917603
 20
82.94922045838076
 30
0.0
 11
283.324998917603
 21
82.4492204583807
 31
0.0
  0
LINE
  5
EF7C87975
330
EF7C85532
100
AcDbEntity
  8
SAISEN
 62
     0
100
AcDbLine
 10
284.1645487926538
 20
82.53410792714346
 30
0.0
 11
284.0395487926538
 21
83.03410792714345
 31
0.0
  0
LINE
  5
EF7C87976
330
EF7C85532
100
AcDbEntity
  8
SAISEN
 62
     0
100
AcDbLine
 10
283.324998917603
 20
82.4492204583807
 30
0.0
 11
284.1999989176024
 21
82.4492204583807
 31
0.0
  0
LINE
  5
EF7C87977
330
EF7C85532
100
AcDbEntity
  8
SAISEN
 62
     0
100
AcDbLine
 10
283.3499989176025
 20
81.64922045838073
 30
0.0
 11
284.1999989176024
 21
81.64922045838073
 31
0.0
  0
LINE
  5
EF7C87978
330
EF7C85532
100
AcDbEntity
  8
SAISEN
 62
     0
100
AcDbLine
 10
283.199998917603
 20
83.19847854127408
 30
0.0
 11
283.199998917603
 21
82.94922045838076
 31
0.0
  0
LINE
  5
EF7C87979
330
EF7C85532
100
AcDbEntity
  8
SAISEN
 62
     0
100
AcDbLine
 10
283.199998917603
 20
83.19847854127408
 30
0.0
 11
283.199998917603
 21
82.94922045838076
 31
0.0
  0
LINE
  5
EF7C8797A
330
EF7C85532
100
AcDbEntity
  8
SAISEN
 62
     0
100
AcDbLine
 10
283.3499989176025
 20
84.44922045838058
 30
0.0
 11
283.199998917603
 21
82.94922045838076
 31
0.0
  0
LINE
  5
EF7C8797B
330
EF7C85532
100
AcDbEntity
  8
SAISEN
 62
     0
100
AcDbLine
 10
284.0482619341766
 20
82.91439415672346
 30
0.0
 11
284.1982619341758
 21
84.41439415672334
 31
0.0
  0
LINE
  5
EF7C8797C
330
EF7C85532
100
AcDbEntity
  8
SAISEN
 62
     0
100
AcDbLine
 10
284.0482619341766
 20
82.91439415672346
 30
0.0
 11
284.1982619341758
 21
84.41439415672334
 31
0.0
  0
LINE
  5
EF7C8797D
330
EF7C85532
100
AcDbEntity
  8
JISSEN
 62
     0
100
AcDbLine
 10
283.1999989109581
 20
87.69847855183787
 30
0.0
 11
280.1033381646584
 21
87.69847855183583
 31
0.0
  0
LINE
  5
EF7C8797E
330
EF7C85532
100
AcDbEntity
  8
SAISEN
 62
     0
100
AcDbLine
 10
283.199998917603
 20
93.64922045838074
 30
0.0
 11
283.3499989176025
 21
93.64922045838074
 31
0.0
  0
LINE
  5
EF7C8797F
330
EF7C85532
100
AcDbEntity
  8
SAISEN
 62
     0
100
AcDbLine
 10
283.199998917603
 20
93.94922045838075
 30
0.0
 11
283.6499989176024
 21
93.94922045838075
 31
0.0
  0
LINE
  5
EF7C87980
330
EF7C85532
100
AcDbEntity
  8
SAISEN
 62
     0
100
AcDbLine
 10
283.6499989176024
 20
93.94922045838075
 30
0.0
 11
283.3499989176025
 21
93.64922045838074
 31
0.0
  0
LINE
  5
EF7C87981
330
EF7C85532
100
AcDbEntity
  8
SAISEN
 62
     0
100
AcDbLine
 10
284.1999989176024
 20
93.94922045838075
 30
0.0
 11
283.6499989176024
 21
93.94922045838075
 31
0.0
  0
LINE
  5
EF7C87982
330
EF7C85532
100
AcDbEntity
  8
0
 62
     0
100
AcDbLine
 10
302.3294920435753
 20
85.83001344503555
 30
0.0
 11
307.0073103388426
 21
90.50783174030289
 31
0.0
  0
LINE
  5
EF7C87983
330
EF7C85532
100
AcDbEntity
  8
0
 62
     0
100
AcDbLine
 10
302.3294920435753
 20
81.41059606261951
 30
0.0
 11
311.4976095653094
 21
90.57871358435358
 31
0.0
  0
LINE
  5
EF7C87984
330
EF7C85532
100
AcDbEntity
  8
JISSEN
 62
     0
100
AcDbLine
 10
309.0794920435753
 20
78.57871358435358
 30
0.0
 11
297.3294920435753
 21
78.57871358435358
 31
0.0
  0
LINE
  5
EF7C87985
330
EF7C85532
100
AcDbEntity
  8
0
 62
     0
100
AcDbLine
 10
304.7976016476348
 20
79.4592882842631
 30
0.0
 11
304.7976016476348
 21
79.4592882842631
 31
0.0
  0
LINE
  5
EF7C87986
330
EF7C85532
100
AcDbEntity
  8
JISSEN
 62
     0
100
AcDbLine
 10
309.0794920435753
 20
76.87871358435359
 30
0.0
 11
309.0794920435753
 21
78.57871358435358
 31
0.0
  0
LINE
  5
EF7C87987
330
EF7C85532
100
AcDbEntity
  8
0
 62
     0
100
AcDbLine
 10
306.4548831660406
 20
85.53598718508494
 30
0.0
 11
306.4548831660406
 21
85.53598718508494
 31
0.0
  0
LINE
  5
EF7C87988
330
EF7C85532
100
AcDbEntity
  8
0
 62
     0
100
AcDbLine
 10
310.8743005484566
 20
81.11656980266905
 30
0.0
 11
310.8743005484566
 21
81.11656980266905
 31
0.0
  0
LINE
  5
EF7C87989
330
EF7C85532
100
AcDbEntity
  8
SUNPOU
100
AcDbLine
 10
309.9151826757038
 20
90.57871358435358
 30
0.0
 11
312.2148335369461
 21
94.63031703278108
 31
0.0
  0
LINE
  5
EF7C8798A
330
EF7C85532
100
AcDbEntity
  8
0
 62
     0
100
AcDbLine
 10
312.5315820668627
 20
87.19326870349096
 30
0.0
 11
312.5315820668627
 21
87.19326870349096
 31
0.0
  0
LINE
  5
EF7C8798B
330
EF7C85532
100
AcDbEntity
  8
0
 62
     0
100
AcDbLine
 10
317.1752790949731
 20
78.57871358435358
 30
0.0
 11
323.1773015443477
 21
84.58073603372827
 31
0.0
  0
LINE
  5
EF7C8798C
330
EF7C85532
100
AcDbEntity
  8
0
 62
     0
100
AcDbLine
 10
316.9509994492786
 20
82.77385132107497
 30
0.0
 11
316.9509994492786
 21
82.77385132107497
 31
0.0
  0
LINE
  5
EF7C8798D
330
EF7C85532
100
AcDbEntity
  8
0
 62
     0
100
AcDbLine
 10
323.0276983501003
 20
84.43113283948093
 30
0.0
 11
323.0276983501003
 21
84.43113283948093
 31
0.0
  0
LINE
  5
EF7C8798E
330
EF7C85532
100
AcDbEntity
  8
0
 62
     0
100
AcDbLine
 10
326.0141138598048
 20
78.57871358435358
 30
0.0
 11
326.1306577378848
 21
78.69525746243346
 31
0.0
  0
LINE
  5
EF7C8798F
330
EF7C85532
100
AcDbEntity
  8
0
 62
     0
100
AcDbLine
 10
318.6082809676845
 20
88.85055022189687
 30
0.0
 11
318.6082809676845
 21
88.85055022189687
 31
0.0
  0
LINE
  5
EF7C87990
330
EF7C85532
100
AcDbEntity
  8
0
 62
     0
100
AcDbLine
 10
319.7131353132887
 20
89.95540456750081
 30
0.0
 11
320.3364443301411
 21
90.57871358435352
 31
0.0
  0
LINE
  5
EF7C87991
330
EF7C85532
100
AcDbEntity
  8
JISSEN
 62
     0
100
AcDbLine
 10
299.1999989176024
 20
127.5673616117144
 30
0.0
 11
299.1999989176024
 21
119.0287135843535
 31
0.0
  0
LINE
  5
EF7C87992
330
EF7C85532
100
AcDbEntity
  8
JISSEN
 62
     0
100
AcDbLine
 10
301.6999989176024
 20
106.0673616117143
 30
0.0
 11
301.6999989176024
 21
128.7673616117143
 31
0.0
  0
LINE
  5
EF7C87993
330
EF7C85532
100
AcDbEntity
  8
JISSEN
 62
     0
100
AcDbLine
 10
300.4999989176026
 20
127.5673616117144
 30
0.0
 11
300.4999989176026
 21
106.0673616117143
 31
0.0
  0
LINE
  5
EF7C87994
330
EF7C85532
100
AcDbEntity
  8
JISSEN
 62
     0
100
AcDbLine
 10
294.1999989176024
 20
119.0287135843535
 30
0.0
 11
294.1999989176024
 21
127.5673616117144
 31
0.0
  0
LINE
  5
EF7C87995
330
EF7C85532
100
AcDbEntity
  8
JISSEN
 62
     0
100
AcDbLine
 10
285.3564053781533
 20
119.7984785412738
 30
0.0
 11
285.3564053781533
 21
116.7984785412738
 31
0.0
  0
LINE
  5
EF7C87996
330
EF7C85532
100
AcDbEntity
  8
JISSEN
 62
     0
100
AcDbLine
 10
278.4282021478781
 20
119.7984785412715
 30
0.0
 11
278.4282021478781
 21
116.7984785412739
 31
0.0
  0
LINE
  5
EF7C87997
330
EF7C85532
100
AcDbEntity
  8
JISSEN
 62
     0
100
AcDbLine
 10
281.7499989176031
 20
115.2984785412739
 30
0.0
 11
282.249998917603
 21
114.798478541274
 31
0.0
  0
LINE
  5
EF7C87998
330
EF7C85532
100
AcDbEntity
  8
JISSEN
 62
     0
100
AcDbLine
 10
283.1999989109572
 20
114.6984785426001
 30
0.0
 11
271.499998914
 21
114.6984785426001
 31
0.0
  0
ARC
  5
EF7C87999
330
EF7C85532
100
AcDbEntity
  8
JISSEN
 62
     0
100
AcDbCircle
 10
282.5999989176031
 20
115.7984785412739
 30
0.0
 40
1.0
100
AcDbArc
 50
90.0
 51
180.0
  0
LINE
  5
EF7C8799A
330
EF7C85532
100
AcDbEntity
  8
JISSEN
 62
     0
100
AcDbLine
 10
281.7499989176031
 20
115.2984785412739
 30
0.0
 11
281.5999989176031
 21
115.2984785412739
 31
0.0
  0
LINE
  5
EF7C8799B
330
EF7C85532
100
AcDbEntity
  8
SAISEN
 62
     0
100
AcDbLine
 10
281.7499989176031
 20
115.2984785412739
 30
0.0
 11
281.7499989176031
 21
114.6984785412739
 31
0.0
  0
LINE
  5
EF7C8799C
330
EF7C85532
100
AcDbEntity
  8
JISSEN
 62
     0
100
AcDbLine
 10
281.5999989176031
 20
115.7984785412739
 30
0.0
 11
281.5999989176031
 21
115.2984785412739
 31
0.0
  0
LINE
  5
EF7C8799D
330
EF7C85532
100
AcDbEntity
  8
JISSEN
 62
     0
100
AcDbLine
 10
282.249998917603
 20
114.798478541274
 30
0.0
 11
282.249998917603
 21
114.6984785412739
 31
0.0
  0
LINE
  5
EF7C8799E
330
EF7C85532
100
AcDbEntity
  8
JISSEN
 62
     0
100
AcDbLine
 10
300.0794920435753
 20
107.2287135843536
 30
0.0
 11
300.0794920435753
 21
110.2287135843536
 31
0.0
  0
LINE
  5
EF7C8799F
330
EF7C85532
100
AcDbEntity
  8
JISSEN
 62
     0
100
AcDbLine
 10
293.0794920435753
 20
110.2287135843536
 30
0.0
 11
293.0794920435753
 21
107.2287135843536
 31
0.0
  0
LINE
  5
EF7C879A0
330
EF7C85532
100
AcDbEntity
  8
JISSEN
 62
     0
100
AcDbLine
 10
297.3294920435753
 20
108.2287135843536
 30
0.0
 11
298.8294920435753
 21
108.2287135843536
 31
0.0
  0
LINE
  5
EF7C879A1
330
EF7C85532
100
AcDbEntity
  8
JISSEN
 62
     0
100
AcDbLine
 10
297.4607684330612
 20
107.1994124192833
 30
0.0
 11
298.3495114144043
 21
105.6600644207268
 31
0.0
  0
LINE
  5
EF7C879A2
330
EF7C85532
100
AcDbEntity
  8
JISSEN
 62
     0
100
AcDbLine
 10
298.4999989176026
 20
107.7994124192832
 30
0.0
 11
297.4607684330612
 21
107.1994124192833
 31
0.0
  0
LINE
  5
EF7C879A3
330
EF7C85532
100
AcDbEntity
  8
JISSEN
 62
     0
100
AcDbLine
 10
294.3294920435753
 20
107.2287135843536
 30
0.0
 11
294.3294920435753
 21
108.2287135843536
 31
0.0
  0
LINE
  5
EF7C879A4
330
EF7C85532
100
AcDbEntity
  8
JISSEN
 62
     0
100
AcDbLine
 10
293.0794920435753
 20
107.2287135843536
 30
0.0
 11
294.3294920435753
 21
107.2287135843536
 31
0.0
  0
LINE
  5
EF7C879A5
330
EF7C85532
100
AcDbEntity
  8
JISSEN
 62
     0
100
AcDbLine
 10
294.3294920435753
 20
108.2287135843536
 30
0.0
 11
295.8294920435753
 21
108.2287135843536
 31
0.0
  0
ARC
  5
EF7C879A6
330
EF7C85532
100
AcDbEntity
  8
JISSEN
 62
     0
100
AcDbCircle
 10
299.9999989176026
 20
106.0673616117143
 30
0.0
 40
0.5
100
AcDbArc
 50
179.9999999999966
 51
0.0
  0
LINE
  5
EF7C879A7
330
EF7C85532
100
AcDbEntity
  8
JISSEN
 62
     0
100
AcDbLine
 10
299.4999989176026
 20
106.0673616117144
 30
0.0
 11
298.4999989176026
 21
107.7994124192832
 31
0.0
  0
ARC
  5
EF7C879A8
330
EF7C85532
100
AcDbEntity
  8
JISSEN
 62
     0
100
AcDbCircle
 10
299.9999989176026
 20
106.0673616117143
 30
0.0
 40
1.699999999999992
100
AcDbArc
 50
193.8621414457762
 51
0.0
  0
LINE
  5
EF7C879A9
330
EF7C85532
100
AcDbEntity
  8
JISSEN
 62
     0
100
AcDbLine
 10
298.8294920435753
 20
107.2287135843536
 30
0.0
 11
300.0794920435753
 21
107.2287135843536
 31
0.0
  0
LINE
  5
EF7C879AA
330
EF7C85532
100
AcDbEntity
  8
JISSEN
 62
     0
100
AcDbLine
 10
298.8294920435753
 20
108.2287135843536
 30
0.0
 11
298.8294920435753
 21
107.2287135843536
 31
0.0
  0
LINE
  5
EF7C879AB
330
EF7C85532
100
AcDbEntity
  8
JISSEN
 62
     0
100
AcDbLine
 10
295.8294920435753
 20
117.0287135843535
 30
0.0
 11
295.8294920435753
 21
112.5287135843535
 31
0.0
  0
LINE
  5
EF7C879AC
330
EF7C85532
100
AcDbEntity
  8
JISSEN
 62
     0
100
AcDbLine
 10
297.3294920435753
 20
112.5287135843535
 30
0.0
 11
297.3294920435753
 21
117.0287135843535
 31
0.0
  0
LINE
  5
EF7C879AD
330
EF7C85532
100
AcDbEntity
  8
JISSEN
 62
     0
100
AcDbLine
 10
300.0794920435753
 20
110.2287135843536
 30
0.0
 11
297.3294920435753
 21
112.5287135843535
 31
0.0
  0
LINE
  5
EF7C879AE
330
EF7C85532
100
AcDbEntity
  8
JISSEN
 62
     0
100
AcDbLine
 10
295.8294920435753
 20
112.5287135843535
 30
0.0
 11
293.0794920435753
 21
110.2287135843536
 31
0.0
  0
LINE
  5
EF7C879AF
330
EF7C85532
100
AcDbEntity
  8
JISSEN
 62
     0
100
AcDbLine
 10
297.3294920435753
 20
117.0287135843535
 30
0.0
 11
300.0794920435753
 21
117.0287135843535
 31
0.0
  0
LINE
  5
EF7C879B0
330
EF7C85532
100
AcDbEntity
  8
JISSEN
 62
     0
100
AcDbLine
 10
300.0794920435753
 20
118.5287135843535
 30
0.0
 11
293.0794920435753
 21
118.5287135843535
 31
0.0
  0
LINE
  5
EF7C879B1
330
EF7C85532
100
AcDbEntity
  8
JISSEN
 62
     0
100
AcDbLine
 10
294.1999989176024
 20
119.0287135843535
 30
0.0
 11
294.6999989176024
 21
118.5287135843535
 31
0.0
  0
LINE
  5
EF7C879B2
330
EF7C85532
100
AcDbEntity
  8
JISSEN
 62
     0
100
AcDbLine
 10
293.0794920435753
 20
118.5287135843535
 30
0.0
 11
293.0794920435753
 21
117.0287135843535
 31
0.0
  0
LINE
  5
EF7C879B3
330
EF7C85532
100
AcDbEntity
  8
JISSEN
 62
     0
100
AcDbLine
 10
293.0794920435753
 20
117.0287135843535
 30
0.0
 11
295.8294920435753
 21
117.0287135843535
 31
0.0
  0
LINE
  5
EF7C879B4
330
EF7C85532
100
AcDbEntity
  8
JISSEN
 62
     0
100
AcDbLine
 10
300.0794920435753
 20
117.0287135843535
 30
0.0
 11
300.0794920435753
 21
118.5287135843535
 31
0.0
  0
LINE
  5
EF7C879B5
330
EF7C85532
100
AcDbEntity
  8
JISSEN
 62
     0
100
AcDbLine
 10
299.1999989176024
 20
119.0287135843535
 30
0.0
 11
298.6999989176024
 21
118.5287135843535
 31
0.0
  0
LINE
  5
EF7C879B6
330
EF7C85532
100
AcDbEntity
  8
JISSEN
 62
     0
100
AcDbLine
 10
299.1999989176024
 20
137.5254015032642
 30
0.0
 11
288.9999989176026
 21
137.5254015032642
 31
0.0
  0
LINE
  5
EF7C879B7
330
EF7C85532
100
AcDbEntity
  8
JISSEN
 62
     0
100
AcDbLine
 10
284.4986561177666
 20
127.5673616117144
 30
0.0
 11
301.6999989176024
 21
127.5673616117144
 31
0.0
  0
ARC
  5
EF7C879B8
330
EF7C85532
100
AcDbEntity
  8
JISSEN
 62
     0
100
AcDbCircle
 10
275.1931942892115
 20
129.9932152211608
 30
0.0
 40
0.5
100
AcDbArc
 50
92.97978797582832
 51
145.123615687263
  0
LINE
  5
EF7C879B9
330
EF7C85532
100
AcDbEntity
  8
JISSEN
 62
     0
100
AcDbLine
 10
280.9471344748035
 20
121.990855727577
 30
0.0
 11
283.199998917603
 21
119.798478541273
 31
0.0
  0
LINE
  5
EF7C879BA
330
EF7C85532
100
AcDbEntity
  8
JISSEN
 62
     0
100
AcDbLine
 10
282.0747179520631
 20
125.0276249020122
 30
0.0
 11
282.2071075359358
 21
120.7913699229401
 31
0.0
  0
LINE
  5
EF7C879BB
330
EF7C85532
100
AcDbEntity
  8
SAISEN
 62
     0
100
AcDbLine
 10
280.9471344748035
 20
121.990855727577
 30
0.0
 11
280.8522306955675
 21
125.0276249020122
 31
0.0
  0
ARC
  5
EF7C879BC
330
EF7C85532
100
AcDbEntity
  8
JISSEN
 62
     0
100
AcDbCircle
 10
281.3678413897769
 20
133.3180617666805
 30
0.0
 40
1.0
100
AcDbArc
 50
0.0
 51
87.02021202417169
  0
ARC
  5
EF7C879BD
330
EF7C85532
100
AcDbEntity
  8
JISSEN
 62
     0
100
AcDbCircle
 10
281.3678413897769
 20
131.816661456748
 30
0.0
 40
1.0
100
AcDbArc
 50
272.9797879758283
 51
0.0
  0
LINE
  5
EF7C879BE
330
EF7C85532
100
AcDbEntity
  8
JISSEN
 62
     0
100
AcDbLine
 10
275.1672024541726
 20
134.6421840347763
 30
0.0
 11
281.4198250598548
 21
134.3167097016631
 31
0.0
  0
LINE
  5
EF7C879BF
330
EF7C85532
100
AcDbEntity
  8
JISSEN
 62
     0
100
AcDbLine
 10
275.1672024541726
 20
130.4925391886522
 30
0.0
 11
281.4198250598548
 21
130.8180135217654
 31
0.0
  0
ARC
  5
EF7C879C0
330
EF7C85532
100
AcDbEntity
  8
JISSEN
 62
     0
100
AcDbCircle
 10
275.1931942892115
 20
135.1415080022678
 30
0.0
 40
0.5
100
AcDbArc
 50
214.8763843127333
 51
267.0202120241717
  0
LINE
  5
EF7C879C1
330
EF7C85532
100
AcDbEntity
  8
JISSEN
 62
     0
100
AcDbLine
 10
282.3678413897768
 20
131.816661456748
 30
0.0
 11
282.3678413897768
 21
133.3180617666805
 31
0.0
  0
LINE
  5
EF7C879C2
330
EF7C85532
100
AcDbEntity
  8
JISSEN
 62
     0
100
AcDbLine
 10
301.6999989176024
 20
134.5673616117144
 30
0.0
 11
301.6999989176024
 21
128.7673616117143
 31
0.0
  0
LINE
  5
EF7C879C3
330
EF7C85532
100
AcDbEntity
  8
SUNPOU
100
AcDbLine
 10
301.6874634627324
 20
134.8413243675615
 30
0.0
 11
304.1775173688147
 21
138.7787748284214
 31
0.0
  0
LINE
  5
EF7C879C4
330
EF7C85532
100
AcDbEntity
  8
SUNPOU
100
AcDbLine
 10
301.6874634627324
 20
134.8413243675615
 30
0.0
 11
305.8126386326223
 21
137.0062295397675
 31
0.0
  0
ARC
  5
EF7C879C5
330
EF7C85532
100
AcDbEntity
  8
JISSEN
 62
     0
100
AcDbCircle
 10
298.6999989176024
 20
134.5673616117144
 30
0.0
 40
3.0
100
AcDbArc
 50
0.0
 51
80.40593177313514
  0
LINE
  5
EF7C879C6
330
EF7C85532
100
AcDbEntity
  8
SUNPOU
100
AcDbLine
 10
319.8932077128281
 20
100.7045226194899
 30
0.0
 11
348.2180594026042
 21
100.7045226194899
 31
0.0
  0
TEXT
  5
EF7C879C7
330
EF7C85532
100
AcDbEntity
  8
SUNPOU
100
AcDbText
 10
321.8932077128281
 20
101.3172261057353
 30
0.0
 40
4.5
  1
天井ボード
  7
K
100
AcDbText
  0
LINE
  5
EF7C879C8
330
EF7C85532
100
AcDbEntity
  8
JISSEN
 62
     0
100
AcDbLine
 10
426.6705050676298
 20
108.2287135843536
 30
0.0
 11
426.6705050676298
 21
78.57871358435358
 31
0.0
  0
LINE
  5
EF7C879C9
330
EF7C85532
100
AcDbEntity
  8
JISSEN
 62
     0
100
AcDbLine
 10
428.1705050676301
 20
78.57871358435358
 30
0.0
 11
428.1705050676301
 21
108.2287135843536
 31
0.0
  0
LINE
  5
EF7C879CA
330
EF7C85532
100
AcDbEntity
  8
JISSEN
 62
     0
100
AcDbLine
 10
440.7999981930417
 20
114.6984785426001
 30
0.0
 11
440.7999981930417
 21
87.69847855183014
 31
0.0
  0
LWPOLYLINE
  5
EF7C879CB
330
EF7C85532
100
AcDbEntity
  8
JISSEN
 62
     0
100
AcDbPolyline
 90
        8
 70
     1
 43
0.0
 10
397.8278619533718
 20
90.5787135843536
 10
421.6705050676298
 20
90.57871358435363
 10
421.6705050676298
 20
78.57871358435364
 10
400.7659085122813
 20
78.57871358435359
 42
-0.202120388705406
 10
402.0966258055925
 20
80.70189253270674
 42
0.5713525608206203
 10
401.8690222267951
 20
83.56064856029636
 42
-0.3987555679944311
 10
400.740487815258
 20
86.57017062585216
 42
0.4814910058598528
 10
399.232614105725
 20
89.34774494069079
 42
-0.2786868946516943
  0
LINE
  5
EF7C879CC
330
EF7C85532
100
AcDbEntity
  8
SUNPOU
100
AcDbLine
 10
429.0547366516124
 20
60.10267431635821
 30
0.0
 11
396.5871272361266
 21
60.10267431635821
 31
0.0
  0
TEXT
  5
EF7C879CD
330
EF7C85532
100
AcDbEntity
  8
SUNPOU
100
AcDbText
 10
397.4122755463508
 20
60.59043002235495
 30
0.0
 40
4.5
  1
スリーブ X
  7
K
 72
     2
 11
425.3551326892079
 21
60.59043002235495
 31
0.0
100
AcDbText
  0
LINE
  5
EF7C879CE
330
EF7C85532
100
AcDbEntity
  8
SUNPOU
100
AcDbLine
 10
439.5226272413768
 20
75.94922045838075
 30
0.0
 11
429.0547366516124
 21
60.10267431635821
 31
0.0
  0
LINE
  5
EF7C879CF
330
EF7C85532
100
AcDbEntity
  8
SUNPOU
100
AcDbLine
 10
439.5226272413768
 20
75.94922045838075
 30
0.0
 11
436.0362436040206
 21
72.85907261076932
 31
0.0
  0
LINE
  5
EF7C879D0
330
EF7C85532
100
AcDbEntity
  8
SUNPOU
100
AcDbLine
 10
439.5226272413768
 20
75.94922045838075
 30
0.0
 11
438.0484043678941
 21
71.52988210222122
 31
0.0
  0
LINE
  5
EF7C879D1
330
EF7C85532
100
AcDbEntity
  8
JISSEN
 62
     0
100
AcDbLine
 10
414.9205050676298
 20
76.87871358435359
 30
0.0
 11
439.5705050676297
 21
76.87871358435359
 31
0.0
  0
LINE
  5
EF7C879D2
330
EF7C85532
100
AcDbEntity
  8
0
 62
     0
100
AcDbLine
 10
414.2063481050707
 20
78.57871358435364
 30
0.0
 11
421.6705050676298
 21
86.04287054691269
 31
0.0
  0
LINE
  5
EF7C879D3
330
EF7C85532
100
AcDbEntity
  8
SAISEN
 62
     0
100
AcDbLine
 10
409.786930722655
 20
78.57871358435358
 30
0.0
 11
421.6705050676298
 21
90.46228792932856
 31
0.0
  0
LINE
  5
EF7C879D4
330
EF7C85532
100
AcDbEntity
  8
0
 62
     0
100
AcDbLine
 10
418.6257654874866
 20
78.57871358435364
 30
0.0
 11
421.6705050676298
 21
81.62345316449677
 31
0.0
  0
LINE
  5
EF7C879D5
330
EF7C85532
100
AcDbEntity
  8
JISSEN
 62
     0
100
AcDbLine
 10
426.6705050676298
 20
78.57871358435358
 30
0.0
 11
414.9205050676298
 21
78.57871358435358
 31
0.0
  0
LINE
  5
EF7C879D6
330
EF7C85532
100
AcDbEntity
  8
0
 62
     0
100
AcDbLine
 10
401.6390986669441
 20
83.68913367589085
 30
0.0
 11
408.5286785754069
 21
90.57871358435358
 31
0.0
  0
LINE
  5
EF7C879D7
330
EF7C85532
100
AcDbEntity
  8
0
 62
     0
100
AcDbLine
 10
405.367513340239
 20
78.57871358435358
 30
0.0
 11
417.367513340239
 21
90.57871358435363
 31
0.0
  0
LINE
  5
EF7C879D8
330
EF7C85532
100
AcDbEntity
  8
0
 62
     0
100
AcDbLine
 10
400.9480959578231
 20
78.57871358435358
 30
0.0
 11
412.948095957823
 21
90.57871358435358
 31
0.0
  0
LINE
  5
EF7C879D9
330
EF7C85532
100
AcDbEntity
  8
0
 62
     0
100
AcDbLine
 10
401.2762434849303
 20
78.90686111146107
 30
0.0
 11
401.2762434849303
 21
78.90686111146107
 31
0.0
  0
LINE
  5
EF7C879DA
330
EF7C85532
100
AcDbEntity
  8
0
 62
     0
100
AcDbLine
 10
407.3529423857523
 20
80.56414262986704
 30
0.0
 11
407.3529423857523
 21
80.56414262986704
 31
0.0
  0
LINE
  5
EF7C879DB
330
EF7C85532
100
AcDbEntity
  8
0
 62
     0
100
AcDbLine
 10
405.367513340239
 20
78.57871358435364
 30
0.0
 11
406.2480880401483
 21
79.45928828426303
 31
0.0
  0
LINE
  5
EF7C879DC
330
EF7C85532
100
AcDbEntity
  8
0
 62
     0
100
AcDbLine
 10
402.9335250033365
 20
84.98356001228296
 30
0.0
 11
402.9335250033365
 21
84.98356001228296
 31
0.0
  0
LINE
  5
EF7C879DD
330
EF7C85532
100
AcDbEntity
  8
0
 62
     0
100
AcDbLine
 10
401.6390986669439
 20
83.68913367589049
 30
0.0
 11
401.8286706577323
 21
83.87870566667897
 31
0.0
  0
LINE
  5
EF7C879DE
330
EF7C85532
100
AcDbEntity
  8
0
 62
     0
100
AcDbLine
 10
409.786930722655
 20
78.57871358435364
 30
0.0
 11
412.3247869409701
 21
81.11656980266905
 31
0.0
  0
LINE
  5
EF7C879DF
330
EF7C85532
100
AcDbEntity
  8
JISSEN
 62
     0
100
AcDbLine
 10
414.9205050676298
 20
78.57871358435358
 30
0.0
 11
414.9205050676298
 21
76.87871358435359
 31
0.0
  0
LINE
  5
EF7C879E0
330
EF7C85532
100
AcDbEntity
  8
0
 62
     0
100
AcDbLine
 10
413.4296412865743
 20
82.22142414827301
 30
0.0
 11
413.4296412865743
 21
82.22142414827301
 31
0.0
  0
LINE
  5
EF7C879E1
330
EF7C85532
100
AcDbEntity
  8
0
 62
     0
100
AcDbLine
 10
419.506340187396
 20
83.87870566667897
 30
0.0
 11
419.506340187396
 21
83.87870566667897
 31
0.0
  0
LINE
  5
EF7C879E2
330
EF7C85532
100
AcDbEntity
  8
0
 62
     0
100
AcDbLine
 10
400.9001044916724
 20
87.3695568830351
 30
0.0
 11
404.1092611929911
 21
90.57871358435363
 31
0.0
  0
LINE
  5
EF7C879E3
330
EF7C85532
100
AcDbEntity
  8
0
 62
     0
100
AcDbLine
 10
399.6189619665246
 20
90.50783174030289
 30
0.0
 11
399.6898438105753
 21
90.57871358435358
 31
0.0
  0
LINE
  5
EF7C879E4
330
EF7C85532
100
AcDbEntity
  8
0
 62
     0
100
AcDbLine
 10
409.0102239041583
 20
86.64084153068893
 30
0.0
 11
409.0102239041583
 21
86.64084153068893
 31
0.0
  0
LINE
  5
EF7C879E5
330
EF7C85532
100
AcDbEntity
  8
0
 62
     0
100
AcDbLine
 10
415.0869228049802
 20
88.2981230490949
 30
0.0
 11
415.0869228049802
 21
88.2981230490949
 31
0.0
  0
LINE
  5
EF7C879E6
330
EF7C85532
100
AcDbEntity
  8
0
 62
     0
100
AcDbLine
 10
416.1917771505841
 20
89.40297739469883
 30
0.0
 11
417.3675133402388
 21
90.57871358435358
 31
0.0
  0
LINE
  5
EF7C879E7
330
EF7C85532
100
AcDbEntity
  8
SAISEN
 62
     0
100
AcDbLine
 10
440.6499981936026
 20
93.64922045838074
 30
0.0
 11
440.6499981936026
 21
84.44922045838058
 31
0.0
  0
LINE
  5
EF7C879E8
330
EF7C85532
100
AcDbEntity
  8
SAISEN
 62
     0
100
AcDbLine
 10
439.7999981936026
 20
77.09922045838073
 30
0.0
 11
439.7999981936026
 21
93.94922045838075
 31
0.0
  0
LINE
  5
EF7C879E9
330
EF7C85532
100
AcDbEntity
  8
JISSEN
 62
     0
100
AcDbLine
 10
439.5705050676297
 20
78.57871358435358
 30
0.0
 11
428.1705050676301
 21
78.57871358435358
 31
0.0
  0
LINE
  5
EF7C879EA
330
EF7C85532
100
AcDbEntity
  8
SAISEN
 62
     0
100
AcDbLine
 10
440.7999981936021
 20
83.19847854127408
 30
0.0
 11
440.7999981936021
 21
79.70868263276969
 31
0.0
  0
LINE
  5
EF7C879EB
330
EF7C85532
100
AcDbEntity
  8
SAISEN
 62
     0
100
AcDbLine
 10
440.7999981936021
 20
83.19847854127408
 30
0.0
 11
440.7999981936021
 21
79.70868263276969
 31
0.0
  0
LINE
  5
EF7C879EC
330
EF7C85532
100
AcDbEntity
  8
SAISEN
 62
     0
100
AcDbLine
 10
440.6749981936021
 20
82.4492204583807
 30
0.0
 11
440.6499981936026
 21
76.94922045838075
 31
0.0
  0
LINE
  5
EF7C879ED
330
EF7C85532
100
AcDbEntity
  8
JISSEN
 62
     0
100
AcDbLine
 10
440.7999981930417
 20
84.64856705875291
 30
0.0
 11
440.7999981930417
 21
79.70868263333017
 31
0.0
  0
ARC
  5
EF7C879EE
330
EF7C85532
100
AcDbEntity
  8
SAISEN
 62
     0
100
AcDbCircle
 10
439.4999981936027
 20
77.09922045838073
 30
0.0
 40
0.3
100
AcDbArc
 50
270.0
 51
0.0000000000016284
  0
ARC
  5
EF7C879EF
330
EF7C85532
100
AcDbEntity
  8
SAISEN
 62
     0
100
AcDbCircle
 10
439.6499981936026
 20
76.94922045838075
 30
0.0
 40
1.0
100
AcDbArc
 50
270.0
 51
0.0
  0
LINE
  5
EF7C879F0
330
EF7C85532
100
AcDbEntity
  8
SAISEN
 62
     0
100
AcDbLine
 10
438.4999981936025
 20
75.94922045838075
 30
0.0
 11
438.4999981936025
 21
76.79922045838072
 31
0.0
  0
LINE
  5
EF7C879F1
330
EF7C85532
100
AcDbEntity
  8
SAISEN
 62
     0
100
AcDbLine
 10
439.6499981936026
 20
75.94922045838075
 30
0.0
 11
438.4999981936025
 21
75.94922045838075
 31
0.0
  0
LINE
  5
EF7C879F2
330
EF7C85532
100
AcDbEntity
  8
SAISEN
 62
     0
100
AcDbLine
 10
438.4999981936025
 20
76.79922045838072
 30
0.0
 11
439.4999981936027
 21
76.79922045838072
 31
0.0
  0
LINE
  5
EF7C879F3
330
EF7C85532
100
AcDbEntity
  8
JISSEN
 62
     0
100
AcDbLine
 10
439.5705050676297
 20
76.87871358435359
 30
0.0
 11
439.5705050676297
 21
78.57871358435358
 31
0.0
  0
LINE
  5
EF7C879F4
330
EF7C85532
100
AcDbEntity
  8
SAISEN
 62
     0
100
AcDbLine
 10
440.7999981936021
 20
82.94922045838076
 30
0.0
 11
440.6749981936021
 21
82.4492204583807
 31
0.0
  0
LINE
  5
EF7C879F5
330
EF7C85532
100
AcDbEntity
  8
SAISEN
 62
     0
100
AcDbLine
 10
439.8354483185513
 20
82.53410792714346
 30
0.0
 11
439.9604483185513
 21
83.03410792714345
 31
0.0
  0
LINE
  5
EF7C879F6
330
EF7C85532
100
AcDbEntity
  8
SAISEN
 62
     0
100
AcDbLine
 10
440.6749981936021
 20
82.4492204583807
 30
0.0
 11
439.7999981936026
 21
82.4492204583807
 31
0.0
  0
LINE
  5
EF7C879F7
330
EF7C85532
100
AcDbEntity
  8
SAISEN
 62
     0
100
AcDbLine
 10
440.6499981936026
 20
81.64922045838073
 30
0.0
 11
439.7999981936026
 21
81.64922045838073
 31
0.0
  0
LINE
  5
EF7C879F8
330
EF7C85532
100
AcDbEntity
  8
SAISEN
 62
     0
100
AcDbLine
 10
440.6499981936026
 20
84.44922045838058
 30
0.0
 11
440.7999981936021
 21
82.94922045838076
 31
0.0
  0
LINE
  5
EF7C879F9
330
EF7C85532
100
AcDbEntity
  8
SAISEN
 62
     0
100
AcDbLine
 10
439.9517351770287
 20
82.91439415672346
 30
0.0
 11
439.801735177029
 21
84.41439415672334
 31
0.0
  0
LINE
  5
EF7C879FA
330
EF7C85532
100
AcDbEntity
  8
SAISEN
 62
     0
100
AcDbLine
 10
439.9517351770287
 20
82.91439415672346
 30
0.0
 11
439.801735177029
 21
84.41439415672334
 31
0.0
  0
LINE
  5
EF7C879FB
330
EF7C85532
100
AcDbEntity
  8
0
 62
     0
100
AcDbLine
 10
421.1636217058019
 20
89.95540456750081
 30
0.0
 11
421.1636217058019
 21
89.95540456750081
 31
0.0
  0
LINE
  5
EF7C879FC
330
EF7C85532
100
AcDbEntity
  8
SAISEN
 62
     0
100
AcDbLine
 10
440.7999981936021
 20
93.64922045838074
 30
0.0
 11
440.6499981936026
 21
93.64922045838074
 31
0.0
  0
LINE
  5
EF7C879FD
330
EF7C85532
100
AcDbEntity
  8
SAISEN
 62
     0
100
AcDbLine
 10
440.7999981936021
 20
93.94922045838075
 30
0.0
 11
440.3499981936028
 21
93.94922045838075
 31
0.0
  0
LINE
  5
EF7C879FE
330
EF7C85532
100
AcDbEntity
  8
SAISEN
 62
     0
100
AcDbLine
 10
440.3499981936028
 20
93.94922045838075
 30
0.0
 11
440.6499981936026
 21
93.64922045838074
 31
0.0
  0
LINE
  5
EF7C879FF
330
EF7C85532
100
AcDbEntity
  8
SAISEN
 62
     0
100
AcDbLine
 10
439.7999981936026
 20
93.94922045838075
 30
0.0
 11
440.3499981936028
 21
93.94922045838075
 31
0.0
  0
LINE
  5
EF7C87A00
330
EF7C85532
100
AcDbEntity
  8
JISSEN
 62
     0
100
AcDbLine
 10
429.7999981936026
 20
127.5673616117144
 30
0.0
 11
429.7999981936026
 21
119.0287135843535
 31
0.0
  0
LINE
  5
EF7C87A01
330
EF7C85532
100
AcDbEntity
  8
JISSEN
 62
     0
100
AcDbLine
 10
424.7999981936025
 20
119.0287135843535
 30
0.0
 11
424.7999981936025
 21
127.5673616117144
 31
0.0
  0
LINE
  5
EF7C87A02
330
EF7C85532
100
AcDbEntity
  8
JISSEN
 62
     0
100
AcDbLine
 10
422.2999981936026
 20
128.7673616117143
 30
0.0
 11
422.2999981936026
 21
106.0673616117143
 31
0.0
  0
LINE
  5
EF7C87A03
330
EF7C85532
100
AcDbEntity
  8
JISSEN
 62
     0
100
AcDbLine
 10
423.4999981936027
 20
106.0673616117143
 30
0.0
 11
423.4999981936027
 21
127.5673616117144
 31
0.0
  0
LINE
  5
EF7C87A04
330
EF7C85532
100
AcDbEntity
  8
JISSEN
 62
     0
100
AcDbLine
 10
438.6435917330516
 20
119.7984785412738
 30
0.0
 11
438.6435917330516
 21
116.7984785412738
 31
0.0
  0
LINE
  5
EF7C87A05
330
EF7C85532
100
AcDbEntity
  8
JISSEN
 62
     0
100
AcDbLine
 10
430.9205050676298
 20
107.2287135843536
 30
0.0
 11
430.9205050676298
 21
110.2287135843536
 31
0.0
  0
LINE
  5
EF7C87A06
330
EF7C85532
100
AcDbEntity
  8
JISSEN
 62
     0
100
AcDbLine
 10
423.9205050676298
 20
110.2287135843536
 30
0.0
 11
423.9205050676298
 21
107.2287135843536
 31
0.0
  0
LINE
  5
EF7C87A07
330
EF7C85532
100
AcDbEntity
  8
JISSEN
 62
     0
100
AcDbLine
 10
429.6705050676298
 20
107.2287135843536
 30
0.0
 11
430.9205050676298
 21
107.2287135843536
 31
0.0
  0
LINE
  5
EF7C87A08
330
EF7C85532
100
AcDbEntity
  8
JISSEN
 62
     0
100
AcDbLine
 10
425.1705050676298
 20
108.2287135843536
 30
0.0
 11
426.6705050676298
 21
108.2287135843536
 31
0.0
  0
ARC
  5
EF7C87A09
330
EF7C85532
100
AcDbEntity
  8
JISSEN
 62
     0
100
AcDbCircle
 10
423.9999981936027
 20
106.0673616117143
 30
0.0
 40
1.699999999999988
100
AcDbArc
 50
180.0
 51
346.1378585542229
  0
LINE
  5
EF7C87A0A
330
EF7C85532
100
AcDbEntity
  8
JISSEN
 62
     0
100
AcDbLine
 10
425.4999981936029
 20
107.7994124192832
 30
0.0
 11
424.4999981936029
 21
106.0673616117144
 31
0.0
  0
LINE
  5
EF7C87A0B
330
EF7C85532
100
AcDbEntity
  8
JISSEN
 62
     0
100
AcDbLine
 10
425.1705050676298
 20
107.2287135843536
 30
0.0
 11
425.1705050676298
 21
108.2287135843536
 31
0.0
  0
LINE
  5
EF7C87A0C
330
EF7C85532
100
AcDbEntity
  8
JISSEN
 62
     0
100
AcDbLine
 10
423.9205050676298
 20
107.2287135843536
 30
0.0
 11
425.1705050676298
 21
107.2287135843536
 31
0.0
  0
ARC
  5
EF7C87A0D
330
EF7C85532
100
AcDbEntity
  8
JISSEN
 62
     0
100
AcDbCircle
 10
423.9999981936027
 20
106.0673616117143
 30
0.0
 40
0.5
100
AcDbArc
 50
180.0
 51
0.0000000000032569
  0
LINE
  5
EF7C87A0E
330
EF7C85532
100
AcDbEntity
  8
JISSEN
 62
     0
100
AcDbLine
 10
429.6705050676298
 20
108.2287135843536
 30
0.0
 11
429.6705050676298
 21
107.2287135843536
 31
0.0
  0
LINE
  5
EF7C87A0F
330
EF7C85532
100
AcDbEntity
  8
JISSEN
 62
     0
100
AcDbLine
 10
428.1705050676301
 20
108.2287135843536
 30
0.0
 11
429.6705050676298
 21
108.2287135843536
 31
0.0
  0
LINE
  5
EF7C87A10
330
EF7C85532
100
AcDbEntity
  8
JISSEN
 62
     0
100
AcDbLine
 10
426.5392286781438
 20
107.1994124192833
 30
0.0
 11
425.4999981936029
 21
107.7994124192832
 31
0.0
  0
LINE
  5
EF7C87A11
330
EF7C85532
100
AcDbEntity
  8
JISSEN
 62
     0
100
AcDbLine
 10
425.6504856968008
 20
105.6600644207268
 30
0.0
 11
426.5392286781438
 21
107.1994124192833
 31
0.0
  0
LINE
  5
EF7C87A12
330
EF7C85532
100
AcDbEntity
  8
JISSEN
 62
     0
100
AcDbLine
 10
430.9205050676298
 20
118.5287135843535
 30
0.0
 11
423.9205050676298
 21
118.5287135843535
 31
0.0
  0
LINE
  5
EF7C87A13
330
EF7C85532
100
AcDbEntity
  8
JISSEN
 62
     0
100
AcDbLine
 10
430.9205050676298
 20
110.2287135843536
 30
0.0
 11
428.1705050676301
 21
112.5287135843535
 31
0.0
  0
LINE
  5
EF7C87A14
330
EF7C85532
100
AcDbEntity
  8
JISSEN
 62
     0
100
AcDbLine
 10
428.1705050676301
 20
117.0287135843535
 30
0.0
 11
430.9205050676298
 21
117.0287135843535
 31
0.0
  0
LINE
  5
EF7C87A15
330
EF7C85532
100
AcDbEntity
  8
JISSEN
 62
     0
100
AcDbLine
 10
428.1705050676301
 20
112.5287135843535
 30
0.0
 11
428.1705050676301
 21
117.0287135843535
 31
0.0
  0
LINE
  5
EF7C87A16
330
EF7C85532
100
AcDbEntity
  8
JISSEN
 62
     0
100
AcDbLine
 10
426.6705050676298
 20
117.0287135843535
 30
0.0
 11
426.6705050676298
 21
112.5287135843535
 31
0.0
  0
LINE
  5
EF7C87A17
330
EF7C85532
100
AcDbEntity
  8
JISSEN
 62
     0
100
AcDbLine
 10
426.6705050676298
 20
112.5287135843535
 30
0.0
 11
423.9205050676298
 21
110.2287135843536
 31
0.0
  0
LINE
  5
EF7C87A18
330
EF7C85532
100
AcDbEntity
  8
JISSEN
 62
     0
100
AcDbLine
 10
424.7999981936025
 20
119.0287135843535
 30
0.0
 11
425.2999981936026
 21
118.5287135843535
 31
0.0
  0
LINE
  5
EF7C87A19
330
EF7C85532
100
AcDbEntity
  8
JISSEN
 62
     0
100
AcDbLine
 10
423.9205050676298
 20
117.0287135843535
 30
0.0
 11
426.6705050676298
 21
117.0287135843535
 31
0.0
  0
LINE
  5
EF7C87A1A
330
EF7C85532
100
AcDbEntity
  8
JISSEN
 62
     0
100
AcDbLine
 10
423.9205050676298
 20
118.5287135843535
 30
0.0
 11
423.9205050676298
 21
117.0287135843535
 31
0.0
  0
LINE
  5
EF7C87A1B
330
EF7C85532
100
AcDbEntity
  8
JISSEN
 62
     0
100
AcDbLine
 10
429.7999981936026
 20
119.0287135843535
 30
0.0
 11
429.2999981936026
 21
118.5287135843535
 31
0.0
  0
LINE
  5
EF7C87A1C
330
EF7C85532
100
AcDbEntity
  8
JISSEN
 62
     0
100
AcDbLine
 10
430.9205050676298
 20
117.0287135843535
 30
0.0
 11
430.9205050676298
 21
118.5287135843535
 31
0.0
  0
LINE
  5
EF7C87A1D
330
EF7C85532
100
AcDbEntity
  8
JISSEN
 62
     0
100
AcDbLine
 10
422.2999981936026
 20
128.7673616117143
 30
0.0
 11
422.2999981936026
 21
134.5673616117144
 31
0.0
  0
LINE
  5
EF7C87A1E
330
EF7C85532
100
AcDbEntity
  8
JISSEN
 62
     0
100
AcDbLine
 10
423.4999981936027
 20
127.5673616117144
 30
0.0
 11
439.4986553937667
 21
127.5673616117144
 31
0.0
  0
LINE
  5
EF7C87A1F
330
EF7C85532
100
AcDbEntity
  8
JISSEN
 62
     0
100
AcDbLine
 10
434.9999981936027
 20
137.5254015032642
 30
0.0
 11
424.7999981936025
 21
137.5254015032642
 31
0.0
  0
ARC
  5
EF7C87A20
330
EF7C85532
100
AcDbEntity
  8
JISSEN
 62
     0
100
AcDbCircle
 10
425.2999981936026
 20
134.5673616117144
 30
0.0
 40
3.0
100
AcDbArc
 50
99.59406822686487
 51
180.0
  0
TEXT
  5
EF7C87A21
330
EF7C85532
100
AcDbEntity
  8
SUNPOU
100
AcDbText
 10
498.9446619631446
 20
7.849423898685245
 30
0.0
 40
3.0
  1
XQR  スリーブ作動状態
  7
K
100
AcDbText
  0
TEXT
  5
EF7C87A22
330
EF7C85532
100
AcDbEntity
  8
SUNPOU
100
AcDbText
 10
498.9446619631446
 20
2.849423898685245
 30
0.0
 40
3.0
  1
尺度　1/1
  7
K
100
AcDbText
  0
ARC
  5
EF7C87A23
330
EF7C85532
100
AcDbEntity
  8
JISSEN
100
AcDbCircle
 10
452.4779210532475
 20
29.29827152834173
 30
0.0
 40
3.1
100
AcDbArc
 50
89.99999999999349
 51
181.9160832903887
  0
LINE
  5
EF7C87A24
330
EF7C85532
100
AcDbEntity
  8
JISSEN
100
AcDbLine
 10
444.3779210553541
 20
25.69827152834176
 30
0.0
 11
444.3779210553543
 21
35.94922045838075
 31
0.0
  0
LINE
  5
EF7C87A25
330
EF7C85532
100
AcDbEntity
  8
JISSEN
100
AcDbLine
 10
445.3779210550942
 20
35.94922045838075
 30
0.0
 11
445.3779210550942
 21
25.69827152834176
 31
0.0
  0
LINE
  5
EF7C87A26
330
EF7C85532
100
AcDbEntity
  8
JISSEN
100
AcDbLine
 10
459.5718210141768
 20
35.94922045838075
 30
0.0
 11
459.5718210141767
 21
25.69827152834176
 31
0.0
  0
LINE
  5
EF7C87A27
330
EF7C85532
100
AcDbEntity
  8
JISSEN
100
AcDbLine
 10
460.5718210139168
 20
25.69827152834176
 30
0.0
 11
460.5718210139168
 21
35.94922045838075
 31
0.0
  0
ARC
  5
EF7C87A28
330
EF7C85532
100
AcDbEntity
  8
JISSEN
100
AcDbCircle
 10
452.4718210160235
 20
29.29827152834173
 30
0.0
 40
3.1
100
AcDbArc
 50
358.0839167096111
 51
90.00000000000651
  0
ARC
  5
EF7C87A29
330
EF7C85532
100
AcDbEntity
  8
JISSEN
100
AcDbCircle
 10
452.4779210532482
 20
27.64827152783476
 30
0.0
 40
4.249999998894995
100
AcDbArc
 50
241.9275130641453
 51
269.9999999999934
  0
LINE
  5
EF7C87A2A
330
EF7C85532
100
AcDbEntity
  8
JISSEN
100
AcDbLine
 10
445.3779210550942
 20
25.69827152834176
 30
0.0
 11
452.4748710346356
 21
25.69827152834176
 31
0.0
  0
LINE
  5
EF7C87A2B
330
EF7C85532
100
AcDbEntity
  8
JISSEN
100
AcDbLine
 10
452.4748710346356
 20
24.69827152860176
 30
0.0
 11
445.3779210550942
 21
24.69827152860176
 31
0.0
  0
LINE
  5
EF7C87A2C
330
EF7C85532
100
AcDbEntity
  8
JISSEN
100
AcDbLine
 10
452.4748710346356
 20
27.19827152834176
 30
0.0
 11
445.6779210550147
 21
27.19827152834244
 31
0.0
  0
ARC
  5
EF7C87A2D
330
EF7C85532
100
AcDbEntity
  8
JISSEN
100
AcDbCircle
 10
445.3779210550942
 20
25.69827152834176
 30
0.0
 40
0.9999999997399998
100
AcDbArc
 50
180.0
 51
270.0
  0
LINE
  5
EF7C87A2E
330
EF7C85532
100
AcDbEntity
  8
JISSEN
100
AcDbLine
 10
450.4779210537681
 20
23.89827152880974
 30
0.0
 11
450.4779210537681
 21
24.69827152860176
 31
0.0
  0
LINE
  5
EF7C87A2F
330
EF7C85532
100
AcDbEntity
  8
JISSEN
100
AcDbLine
 10
449.2163145034874
 20
27.49827152834205
 30
0.0
 11
445.6779210550147
 21
27.49827152834245
 31
0.0
  0
LINE
  5
EF7C87A30
330
EF7C85532
100
AcDbEntity
  8
JISSEN
100
AcDbLine
 10
445.6779210550163
 20
25.69827152834176
 30
0.0
 11
445.6779210550163
 21
27.19827152795176
 31
0.0
  0
LINE
  5
EF7C87A31
330
EF7C85532
100
AcDbEntity
  8
JISSEN
100
AcDbLine
 10
445.6779210550163
 20
27.19827152795176
 30
0.0
 11
445.6779210550163
 21
27.49827152787378
 31
0.0
  0
LINE
  5
EF7C87A32
330
EF7C85532
100
AcDbEntity
  8
JISSEN
100
AcDbLine
 10
449.2163145034874
 20
27.49827152834205
 30
0.0
 11
449.3796543571907
 21
29.19462076806183
 31
0.0
  0
ARC
  5
EF7C87A33
330
EF7C85532
100
AcDbEntity
  8
JISSEN
100
AcDbCircle
 10
459.5718210141768
 20
25.69827152834176
 30
0.0
 40
0.9999999997399998
100
AcDbArc
 50
270.0
 51
0.0
  0
LINE
  5
EF7C87A34
330
EF7C85532
100
AcDbEntity
  8
JISSEN
100
AcDbLine
 10
452.4748710346356
 20
24.69827152860176
 30
0.0
 11
459.5718210141768
 21
24.69827152860176
 31
0.0
  0
ARC
  5
EF7C87A35
330
EF7C85532
100
AcDbEntity
  8
JISSEN
100
AcDbCircle
 10
452.4718210160228
 20
27.64827152783476
 30
0.0
 40
4.249999998894995
100
AcDbArc
 50
270.0000000000065
 51
298.0724869358546
  0
LINE
  5
EF7C87A36
330
EF7C85532
100
AcDbEntity
  8
JISSEN
100
AcDbLine
 10
454.4718210155028
 20
23.89827152880974
 30
0.0
 11
454.4718210155028
 21
24.69827152860176
 31
0.0
  0
LINE
  5
EF7C87A37
330
EF7C85532
100
AcDbEntity
  8
JISSEN
100
AcDbLine
 10
459.5718210141767
 20
25.69827152834176
 30
0.0
 11
452.4748710346356
 21
25.69827152834176
 31
0.0
  0
LINE
  5
EF7C87A38
330
EF7C85532
100
AcDbEntity
  8
JISSEN
100
AcDbLine
 10
452.4748710346356
 20
27.19827152834176
 30
0.0
 11
459.2718210142565
 21
27.19827152834244
 31
0.0
  0
LINE
  5
EF7C87A39
330
EF7C85532
100
AcDbEntity
  8
JISSEN
100
AcDbLine
 10
455.7334275657836
 20
27.49827152834205
 30
0.0
 11
459.2718210142565
 21
27.49827152834245
 31
0.0
  0
LINE
  5
EF7C87A3A
330
EF7C85532
100
AcDbEntity
  8
JISSEN
100
AcDbLine
 10
455.7334275657836
 20
27.49827152834205
 30
0.0
 11
455.5700877120804
 21
29.19462076806183
 31
0.0
  0
LINE
  5
EF7C87A3B
330
EF7C85532
100
AcDbEntity
  8
JISSEN
100
AcDbLine
 10
459.2718210142548
 20
25.69827152834176
 30
0.0
 11
459.2718210142548
 21
27.19827152795176
 31
0.0
  0
LINE
  5
EF7C87A3C
330
EF7C85532
100
AcDbEntity
  8
JISSEN
100
AcDbLine
 10
459.2718210142548
 20
27.19827152795176
 30
0.0
 11
459.2718210142548
 21
27.49827152787378
 31
0.0
  0
LINE
  5
EF7C87A3D
330
EF7C85532
100
AcDbEntity
  8
SAISEN
 62
     0
100
AcDbLine
 10
466.4999981936029
 20
35.94922045838069
 30
0.0
 11
466.4999981936025
 21
36.79922045838071
 31
0.0
  0
LINE
  5
EF7C87A3E
330
EF7C85532
100
AcDbEntity
  8
SAISEN
 62
     0
100
AcDbLine
 10
466.4999981936029
 20
36.79922045838071
 30
0.0
 11
465.4999981936025
 21
36.79922045838071
 31
0.0
  0
LINE
  5
EF7C87A3F
330
EF7C85532
100
AcDbEntity
  8
JISSEN
100
AcDbLine
 10
490.0794913195754
 20
36.87871358435353
 30
0.0
 11
490.0794913195757
 21
38.4992204583807
 31
0.0
  0
TEXT
  5
EF7C87A40
330
EF7C85532
100
AcDbEntity
  8
SUNPOU
100
AcDbText
 10
502.8932069888282
 20
101.3172261057353
 30
0.0
 40
4.5
  1
天井ボード
  7
K
100
AcDbText
  0
LINE
  5
EF7C87A41
330
EF7C85532
100
AcDbEntity
  8
SUNPOU
100
AcDbLine
 10
500.8932069888283
 20
100.7045226194899
 30
0.0
 11
529.2180586786042
 21
100.7045226194899
 31
0.0
  0
TEXT
  5
EF7C87A42
330
EF7C85532
100
AcDbEntity
  8
SUNPOU
100
AcDbText
 10
487.1128699385201
 20
60.68971516339366
 30
0.0
 40
4.5
  1
T バーチャンネル
  7
K
100
AcDbText
  0
LINE
  5
EF7C87A43
330
EF7C85532
100
AcDbEntity
  8
SUNPOU
100
AcDbLine
 10
484.2631632107956
 20
60.3877472531068
 30
0.0
 11
530.9662930568672
 21
60.3877472531068
 31
0.0
  0
LINE
  5
EF7C87A44
330
EF7C85532
100
AcDbEntity
  8
SUNPOU
100
AcDbLine
 10
490.9151819517041
 20
90.57871358435358
 30
0.0
 11
500.8932069888283
 21
100.7045226194899
 31
0.0
  0
LINE
  5
EF7C87A45
330
EF7C85532
100
AcDbEntity
  8
JISSEN
 62
     0
100
AcDbLine
 10
464.1999981869575
 20
87.69847855183787
 30
0.0
 11
464.1999981869575
 21
114.6984785426001
 31
0.0
  0
LINE
  5
EF7C87A46
330
EF7C85532
100
AcDbEntity
  8
JISSEN
 62
     0
100
AcDbLine
 10
476.8294913195757
 20
108.2287135843536
 30
0.0
 11
476.8294913195757
 21
78.57871358435358
 31
0.0
  0
LINE
  5
EF7C87A47
330
EF7C85532
100
AcDbEntity
  8
JISSEN
 62
     0
100
AcDbLine
 10
478.3294913195756
 20
78.57871358435358
 30
0.0
 11
478.3294913195756
 21
108.2287135843536
 31
0.0
  0
LINE
  5
EF7C87A48
330
EF7C85532
100
AcDbEntity
  8
JISSEN
 62
     0
100
AcDbLine
 10
465.4294913195756
 20
76.87871358435359
 30
0.0
 11
490.0794913195754
 21
76.87871358435359
 31
0.0
  0
LINE
  5
EF7C87A49
330
EF7C85532
100
AcDbEntity
  8
0
 62
     0
100
AcDbLine
 10
483.3294913195754
 20
81.41059606261951
 30
0.0
 11
492.4976088413096
 21
90.57871358435358
 31
0.0
  0
LWPOLYLINE
  5
EF7C87A4A
330
EF7C85532
100
AcDbEntity
  8
JISSEN
 62
     0
100
AcDbPolyline
 90
        8
 70
     1
 43
0.0
 10
507.1721344338334
 20
78.57871358435359
 10
483.3294913195754
 20
78.57871358435359
 10
483.3294913195754
 20
90.5787135843536
 10
504.2340878749239
 20
90.5787135843536
 42
-0.202120388705406
 10
502.9033705816126
 20
88.45553463600046
 42
0.5713525608206203
 10
503.1309741604102
 20
85.59677860841086
 42
-0.3987555679944311
 10
504.2595085719473
 20
82.58725654285504
 42
0.4814910058598528
 10
505.7673822814803
 20
79.80968222801642
 42
-0.2786868946516943
  0
LINE
  5
EF7C87A4B
330
EF7C85532
100
AcDbEntity
  8
JISSEN
 62
     0
100
AcDbLine
 10
490.0794913195754
 20
78.57871358435358
 30
0.0
 11
478.3294913195756
 21
78.57871358435358
 31
0.0
  0
LINE
  5
EF7C87A4C
330
EF7C85532
100
AcDbEntity
  8
0
 62
     0
100
AcDbLine
 10
483.3294913195754
 20
85.83001344503555
 30
0.0
 11
488.0073096148429
 21
90.50783174030289
 31
0.0
  0
LINE
  5
EF7C87A4D
330
EF7C85532
100
AcDbEntity
  8
SUNPOU
100
AcDbLine
 10
476.1560172276658
 20
76.87871358435359
 30
0.0
 11
484.2631632107956
 21
60.3877472531068
 31
0.0
  0
LINE
  5
EF7C87A4E
330
EF7C85532
100
AcDbEntity
  8
JISSEN
100
AcDbLine
 10
460.5718210139168
 20
65.69827152834176
 30
0.0
 11
460.5718210139168
 21
79.19827152392173
 31
0.0
  0
LINE
  5
EF7C87A4F
330
EF7C85532
100
AcDbEntity
  8
JISSEN
100
AcDbLine
 10
459.5718210141768
 20
79.19827152392167
 30
0.0
 11
459.5718210141767
 21
65.69827152834176
 31
0.0
  0
LINE
  5
EF7C87A50
330
EF7C85532
100
AcDbEntity
  8
JISSEN
100
AcDbLine
 10
445.3779210550942
 20
79.19827152392167
 30
0.0
 11
445.3779210550942
 21
65.69827152834176
 31
0.0
  0
LINE
  5
EF7C87A51
330
EF7C85532
100
AcDbEntity
  8
JISSEN
100
AcDbLine
 10
444.3779210553541
 20
65.69827152834176
 30
0.0
 11
444.3779210553541
 21
79.19827152392173
 31
0.0
  0
LINE
  5
EF7C87A52
330
EF7C85532
100
AcDbEntity
  8
SUNPOU
100
AcDbLine
 10
476.1560172276658
 20
76.87871358435359
 30
0.0
 11
479.2234126161798
 21
73.37229516701587
 31
0.0
  0
LINE
  5
EF7C87A53
330
EF7C85532
100
AcDbEntity
  8
SUNPOU
100
AcDbLine
 10
476.1560172276658
 20
76.87871358435359
 30
0.0
 11
477.0592503489011
 21
72.30836846438467
 31
0.0
  0
LINE
  5
EF7C87A54
330
EF7C85532
100
AcDbEntity
  8
JISSEN
100
AcDbLine
 10
454.4718210155028
 20
63.8982715288098
 30
0.0
 11
454.4718210155028
 21
64.69827152860171
 31
0.0
  0
LINE
  5
EF7C87A55
330
EF7C85532
100
AcDbEntity
  8
JISSEN
100
AcDbLine
 10
450.4779210537681
 20
63.8982715288098
 30
0.0
 11
450.4779210537681
 21
64.69827152860171
 31
0.0
  0
ARC
  5
EF7C87A56
330
EF7C85532
100
AcDbEntity
  8
JISSEN
100
AcDbCircle
 10
452.4779210532482
 20
67.64827152783471
 30
0.0
 40
4.249999998894995
100
AcDbArc
 50
241.9275130641453
 51
269.9999999999934
  0
ARC
  5
EF7C87A57
330
EF7C85532
100
AcDbEntity
  8
JISSEN
100
AcDbCircle
 10
452.4718210160228
 20
67.64827152783471
 30
0.0
 40
4.249999998894995
100
AcDbArc
 50
270.0000000000065
 51
298.0724869358546
  0
LINE
  5
EF7C87A58
330
EF7C85532
100
AcDbEntity
  8
JISSEN
100
AcDbLine
 10
452.4748710346356
 20
67.19827152834176
 30
0.0
 11
445.6779210550147
 21
67.19827152834245
 31
0.0
  0
LINE
  5
EF7C87A59
330
EF7C85532
100
AcDbEntity
  8
JISSEN
100
AcDbLine
 10
452.4748710346356
 20
64.69827152860176
 30
0.0
 11
445.3779210550942
 21
64.69827152860176
 31
0.0
  0
LINE
  5
EF7C87A5A
330
EF7C85532
100
AcDbEntity
  8
JISSEN
100
AcDbLine
 10
445.3779210550942
 20
65.69827152834176
 30
0.0
 11
452.4748710346356
 21
65.69827152834176
 31
0.0
  0
ARC
  5
EF7C87A5B
330
EF7C85532
100
AcDbEntity
  8
JISSEN
100
AcDbCircle
 10
452.4779210532475
 20
69.29827152834173
 30
0.0
 40
3.1
100
AcDbArc
 50
89.99999999999349
 51
181.9160832903887
  0
LINE
  5
EF7C87A5C
330
EF7C85532
100
AcDbEntity
  8
JISSEN
100
AcDbLine
 10
449.2163145034874
 20
67.49827152834211
 30
0.0
 11
445.6779210550147
 21
67.49827152834246
 31
0.0
  0
LINE
  5
EF7C87A5D
330
EF7C85532
100
AcDbEntity
  8
JISSEN
100
AcDbLine
 10
445.6779210550163
 20
67.19827152795176
 30
0.0
 11
445.6779210550163
 21
67.49827152787372
 31
0.0
  0
LINE
  5
EF7C87A5E
330
EF7C85532
100
AcDbEntity
  8
JISSEN
100
AcDbLine
 10
445.6779210550163
 20
65.69827152834176
 30
0.0
 11
445.6779210550163
 21
67.19827152795176
 31
0.0
  0
ARC
  5
EF7C87A5F
330
EF7C85532
100
AcDbEntity
  8
JISSEN
100
AcDbCircle
 10
445.3779210550942
 20
65.69827152834176
 30
0.0
 40
0.9999999997399998
100
AcDbArc
 50
180.0
 51
270.0
  0
LINE
  5
EF7C87A60
330
EF7C85532
100
AcDbEntity
  8
JISSEN
100
AcDbLine
 10
449.2163145034874
 20
67.49827152834211
 30
0.0
 11
449.3796543571907
 21
69.1946207680619
 31
0.0
  0
ARC
  5
EF7C87A61
330
EF7C85532
100
AcDbEntity
  8
JISSEN
100
AcDbCircle
 10
452.4718210160235
 20
69.29827152834173
 30
0.0
 40
3.1
100
AcDbArc
 50
358.0839167096111
 51
90.00000000000651
  0
LINE
  5
EF7C87A62
330
EF7C85532
100
AcDbEntity
  8
JISSEN
100
AcDbLine
 10
455.7334275657836
 20
67.49827152834211
 30
0.0
 11
459.2718210142565
 21
67.49827152834246
 31
0.0
  0
LINE
  5
EF7C87A63
330
EF7C85532
100
AcDbEntity
  8
JISSEN
100
AcDbLine
 10
452.4748710346356
 20
67.19827152834176
 30
0.0
 11
459.2718210142565
 21
67.19827152834245
 31
0.0
  0
LINE
  5
EF7C87A64
330
EF7C85532
100
AcDbEntity
  8
JISSEN
100
AcDbLine
 10
459.5718210141767
 20
65.69827152834176
 30
0.0
 11
452.4748710346356
 21
65.69827152834176
 31
0.0
  0
LINE
  5
EF7C87A65
330
EF7C85532
100
AcDbEntity
  8
JISSEN
100
AcDbLine
 10
452.4748710346356
 20
64.69827152860176
 30
0.0
 11
459.5718210141768
 21
64.69827152860176
 31
0.0
  0
LINE
  5
EF7C87A66
330
EF7C85532
100
AcDbEntity
  8
JISSEN
100
AcDbLine
 10
455.7334275657836
 20
67.49827152834211
 30
0.0
 11
455.5700877120804
 21
69.1946207680619
 31
0.0
  0
LINE
  5
EF7C87A67
330
EF7C85532
100
AcDbEntity
  8
JISSEN
100
AcDbLine
 10
459.2718210142548
 20
67.19827152795176
 30
0.0
 11
459.2718210142548
 21
67.49827152787372
 31
0.0
  0
LINE
  5
EF7C87A68
330
EF7C85532
100
AcDbEntity
  8
JISSEN
100
AcDbLine
 10
459.2718210142548
 20
65.69827152834176
 30
0.0
 11
459.2718210142548
 21
67.19827152795176
 31
0.0
  0
ARC
  5
EF7C87A69
330
EF7C85532
100
AcDbEntity
  8
JISSEN
100
AcDbCircle
 10
459.5718210141768
 20
65.69827152834176
 30
0.0
 40
0.9999999997399998
100
AcDbArc
 50
270.0
 51
0.0
  0
LINE
  5
EF7C87A6A
330
EF7C85532
100
AcDbEntity
  8
JISSEN
100
AcDbLine
 10
466.4999981936029
 20
75.94922045838075
 30
0.0
 11
460.5718210139168
 21
75.94922045838075
 31
0.0
  0
LINE
  5
EF7C87A6B
330
EF7C85532
100
AcDbEntity
  8
JISSEN
 62
     0
100
AcDbLine
 10
452.4999981900001
 20
79.19847855183014
 30
0.0
 11
463.6897941054574
 21
79.19847855183019
 31
0.0
  0
LINE
  5
EF7C87A6C
330
EF7C85532
100
AcDbEntity
  8
JISSEN
 62
     0
100
AcDbLine
 10
464.1999981869584
 20
87.69847855183787
 30
0.0
 11
461.1033374406587
 21
87.69847855183583
 31
0.0
  0
LINE
  5
EF7C87A6D
330
EF7C85532
100
AcDbEntity
  8
JISSEN
 62
     0
100
AcDbLine
 10
464.19999818696
 20
84.64856705876071
 30
0.0
 11
461.1033374406604
 21
84.6485670587586
 31
0.0
  0
ARC
  5
EF7C87A6E
330
EF7C85532
100
AcDbEntity
  8
JISSEN
 62
     0
100
AcDbCircle
 10
461.1033374406596
 20
86.17352280529724
 30
0.0
 40
1.524955746538608
100
AcDbArc
 50
90.00308904205786
 51
270.000000000039
  0
ARC
  5
EF7C87A6F
330
EF7C85532
100
AcDbEntity
  8
JISSEN
 62
     0
100
AcDbCircle
 10
443.8966589393412
 20
86.17352280529155
 30
0.0
 40
1.524955746538608
100
AcDbArc
 50
270.0
 51
89.99691535268258
  0
LINE
  5
EF7C87A70
330
EF7C85532
100
AcDbEntity
  8
JISSEN
100
AcDbLine
 10
459.5718210141767
 20
75.94922045838075
 30
0.0
 11
445.3779210550941
 21
75.94922045838075
 31
0.0
  0
LINE
  5
EF7C87A71
330
EF7C85532
100
AcDbEntity
  8
JISSEN
 62
     0
100
AcDbLine
 10
441.3102022745415
 20
79.19847855183014
 30
0.0
 11
452.4999981900001
 21
79.19847855183014
 31
0.0
  0
LINE
  5
EF7C87A72
330
EF7C85532
100
AcDbEntity
  8
JISSEN
 62
     0
100
AcDbLine
 10
445.9999981916896
 20
78.19847855209014
 30
0.0
 11
452.4999981900001
 21
78.19847855209014
 31
0.0
  0
LINE
  5
EF7C87A73
330
EF7C85532
100
AcDbEntity
  8
JISSEN
 62
     0
100
AcDbLine
 10
445.8473169618216
 20
79.19847855183014
 30
0.0
 11
445.9999981916896
 21
78.19847855209014
 31
0.0
  0
LINE
  5
EF7C87A74
330
EF7C85532
100
AcDbEntity
  8
JISSEN
 62
     0
100
AcDbLine
 10
452.4999981900001
 20
78.19847855209014
 30
0.0
 11
458.9999981883096
 21
78.19847855209014
 31
0.0
  0
LINE
  5
EF7C87A75
330
EF7C85532
100
AcDbEntity
  8
JISSEN
 62
     0
100
AcDbLine
 10
458.9999981883096
 20
78.19847855209014
 30
0.0
 11
459.1526794181772
 21
79.19847855183014
 31
0.0
  0
LINE
  5
EF7C87A76
330
EF7C85532
100
AcDbEntity
  8
SAISEN
 62
     0
100
AcDbLine
 10
464.3499981936026
 20
93.64922045838074
 30
0.0
 11
464.3499981936026
 21
84.44922045838058
 31
0.0
  0
LINE
  5
EF7C87A77
330
EF7C85532
100
AcDbEntity
  8
SAISEN
 62
     0
100
AcDbLine
 10
465.1999981936025
 20
77.09922045838073
 30
0.0
 11
465.1999981936025
 21
93.94922045838075
 31
0.0
  0
LINE
  5
EF7C87A78
330
EF7C85532
100
AcDbEntity
  8
SAISEN
 62
     0
100
AcDbLine
 10
465.1999981936025
 20
77.09922045838073
 30
0.0
 11
465.1999981936025
 21
93.94922045838075
 31
0.0
  0
LINE
  5
EF7C87A79
330
EF7C85532
100
AcDbEntity
  8
JISSEN
 62
     0
100
AcDbLine
 10
476.8294913195757
 20
78.57871358435358
 30
0.0
 11
465.4294913195756
 21
78.57871358435358
 31
0.0
  0
LINE
  5
EF7C87A7A
330
EF7C85532
100
AcDbEntity
  8
SAISEN
 62
     0
100
AcDbLine
 10
464.3499981936026
 20
82.4492204583807
 30
0.0
 11
464.3499981936026
 21
76.94922045838075
 31
0.0
  0
LINE
  5
EF7C87A7B
330
EF7C85532
100
AcDbEntity
  8
JISSEN
 62
     0
100
AcDbLine
 10
464.1999981869575
 20
79.70868263333017
 30
0.0
 11
464.1999981869575
 21
84.64856705876071
 31
0.0
  0
LINE
  5
EF7C87A7C
330
EF7C85532
100
AcDbEntity
  8
JISSEN
 62
     0
100
AcDbLine
 10
464.1999981869575
 20
79.70868263333017
 30
0.0
 11
463.6897941054574
 21
79.19847855183019
 31
0.0
  0
ARC
  5
EF7C87A7D
330
EF7C85532
100
AcDbEntity
  8
SAISEN
 62
     0
100
AcDbCircle
 10
465.4999981936025
 20
77.09922045838073
 30
0.0
 40
0.3
100
AcDbArc
 50
179.9999999999983
 51
270.0
  0
LINE
  5
EF7C87A7E
330
EF7C85532
100
AcDbEntity
  8
SAISEN
 62
     0
100
AcDbLine
 10
465.3499981936028
 20
75.94922045838075
 30
0.0
 11
466.4999981936029
 21
75.94922045838075
 31
0.0
  0
ARC
  5
EF7C87A7F
330
EF7C85532
100
AcDbEntity
  8
SAISEN
 62
     0
100
AcDbCircle
 10
465.3499981936028
 20
76.94922045838075
 30
0.0
 40
1.0
100
AcDbArc
 50
180.0
 51
270.0
  0
LINE
  5
EF7C87A80
330
EF7C85532
100
AcDbEntity
  8
SAISEN
 62
     0
100
AcDbLine
 10
466.4999981936029
 20
75.94922045838075
 30
0.0
 11
466.4999981936025
 21
76.79922045838072
 31
0.0
  0
LINE
  5
EF7C87A81
330
EF7C85532
100
AcDbEntity
  8
SAISEN
 62
     0
100
AcDbLine
 10
466.4999981936029
 20
76.79922045838072
 30
0.0
 11
465.4999981936025
 21
76.79922045838072
 31
0.0
  0
LINE
  5
EF7C87A82
330
EF7C85532
100
AcDbEntity
  8
JISSEN
 62
     0
100
AcDbLine
 10
465.4294913195756
 20
78.57871358435358
 30
0.0
 11
465.4294913195756
 21
76.87871358435359
 31
0.0
  0
LINE
  5
EF7C87A83
330
EF7C85532
100
AcDbEntity
  8
SAISEN
 62
     0
100
AcDbLine
 10
464.199998193603
 20
83.19847854127408
 30
0.0
 11
464.199998193603
 21
82.94922045838076
 31
0.0
  0
LINE
  5
EF7C87A84
330
EF7C85532
100
AcDbEntity
  8
SAISEN
 62
     0
100
AcDbLine
 10
464.199998193603
 20
83.19847854127408
 30
0.0
 11
464.199998193603
 21
82.94922045838076
 31
0.0
  0
LINE
  5
EF7C87A85
330
EF7C85532
100
AcDbEntity
  8
SAISEN
 62
     0
100
AcDbLine
 10
464.3499981936026
 20
81.64922045838073
 30
0.0
 11
465.1999981936025
 21
81.64922045838073
 31
0.0
  0
LINE
  5
EF7C87A86
330
EF7C85532
100
AcDbEntity
  8
SAISEN
 62
     0
100
AcDbLine
 10
464.3249981936032
 20
82.4492204583807
 30
0.0
 11
465.1999981936025
 21
82.4492204583807
 31
0.0
  0
LINE
  5
EF7C87A87
330
EF7C85532
100
AcDbEntity
  8
SAISEN
 62
     0
100
AcDbLine
 10
465.1645480686538
 20
82.53410792714346
 30
0.0
 11
465.0395480686539
 21
83.03410792714345
 31
0.0
  0
LINE
  5
EF7C87A88
330
EF7C85532
100
AcDbEntity
  8
SAISEN
 62
     0
100
AcDbLine
 10
464.199998193603
 20
82.94922045838076
 30
0.0
 11
464.3249981936032
 21
82.4492204583807
 31
0.0
  0
LINE
  5
EF7C87A89
330
EF7C85532
100
AcDbEntity
  8
SAISEN
 62
     0
100
AcDbLine
 10
465.0482612101766
 20
82.91439415672346
 30
0.0
 11
465.1982612101761
 21
84.41439415672334
 31
0.0
  0
LINE
  5
EF7C87A8A
330
EF7C85532
100
AcDbEntity
  8
SAISEN
 62
     0
100
AcDbLine
 10
465.0482612101766
 20
82.91439415672346
 30
0.0
 11
465.1982612101761
 21
84.41439415672334
 31
0.0
  0
LINE
  5
EF7C87A8B
330
EF7C85532
100
AcDbEntity
  8
SAISEN
 62
     0
100
AcDbLine
 10
464.3499981936026
 20
84.44922045838058
 30
0.0
 11
464.199998193603
 21
82.94922045838076
 31
0.0
  0
LINE
  5
EF7C87A8C
330
EF7C85532
100
AcDbEntity
  8
SAISEN
 62
     0
100
AcDbLine
 10
465.1999981936025
 20
93.94922045838075
 30
0.0
 11
464.6499981936026
 21
93.94922045838075
 31
0.0
  0
LINE
  5
EF7C87A8D
330
EF7C85532
100
AcDbEntity
  8
SAISEN
 62
     0
100
AcDbLine
 10
464.6499981936026
 20
93.94922045838075
 30
0.0
 11
464.3499981936026
 21
93.64922045838074
 31
0.0
  0
LINE
  5
EF7C87A8E
330
EF7C85532
100
AcDbEntity
  8
SAISEN
 62
     0
100
AcDbLine
 10
464.199998193603
 20
93.94922045838075
 30
0.0
 11
464.6499981936026
 21
93.94922045838075
 31
0.0
  0
LINE
  5
EF7C87A8F
330
EF7C85532
100
AcDbEntity
  8
SAISEN
 62
     0
100
AcDbLine
 10
464.199998193603
 20
93.64922045838074
 30
0.0
 11
464.3499981936026
 21
93.64922045838074
 31
0.0
  0
LINE
  5
EF7C87A90
330
EF7C85532
100
AcDbEntity
  8
0
 62
     0
100
AcDbLine
 10
484.9170262237256
 20
78.57871358435358
 30
0.0
 11
496.9170262237256
 21
90.57871358435358
 31
0.0
  0
LINE
  5
EF7C87A91
330
EF7C85532
100
AcDbEntity
  8
0
 62
     0
100
AcDbLine
 10
489.3364436061412
 20
78.57871358435358
 30
0.0
 11
501.3364436061412
 21
90.57871358435358
 31
0.0
  0
LINE
  5
EF7C87A92
330
EF7C85532
100
AcDbEntity
  8
0
 62
     0
100
AcDbLine
 10
493.7558609885573
 20
78.57871358435358
 30
0.0
 11
502.1968675350469
 21
87.0197201308432
 31
0.0
  0
LINE
  5
EF7C87A93
330
EF7C85532
100
AcDbEntity
  8
0
 62
     0
100
AcDbLine
 10
485.7976009236351
 20
79.4592882842631
 30
0.0
 11
485.7976009236351
 21
79.4592882842631
 31
0.0
  0
LINE
  5
EF7C87A94
330
EF7C85532
100
AcDbEntity
  8
JISSEN
 62
     0
100
AcDbLine
 10
490.0794913195754
 20
76.87871358435359
 30
0.0
 11
490.0794913195754
 21
78.57871358435358
 31
0.0
  0
LINE
  5
EF7C87A95
330
EF7C85532
100
AcDbEntity
  8
0
 62
     0
100
AcDbLine
 10
487.4548824420408
 20
85.53598718508494
 30
0.0
 11
487.4548824420408
 21
85.53598718508494
 31
0.0
  0
LINE
  5
EF7C87A96
330
EF7C85532
100
AcDbEntity
  8
0
 62
     0
100
AcDbLine
 10
491.8742998244567
 20
81.11656980266905
 30
0.0
 11
491.8742998244567
 21
81.11656980266905
 31
0.0
  0
LINE
  5
EF7C87A97
330
EF7C85532
100
AcDbEntity
  8
0
 62
     0
100
AcDbLine
 10
498.1752783709732
 20
78.57871358435358
 30
0.0
 11
504.1773008203478
 21
84.58073603372827
 31
0.0
  0
LINE
  5
EF7C87A98
330
EF7C85532
100
AcDbEntity
  8
0
 62
     0
100
AcDbLine
 10
497.9509987252786
 20
82.77385132107497
 30
0.0
 11
497.9509987252786
 21
82.77385132107497
 31
0.0
  0
LINE
  5
EF7C87A99
330
EF7C85532
100
AcDbEntity
  8
0
 62
     0
100
AcDbLine
 10
504.0276976261004
 20
84.43113283948093
 30
0.0
 11
504.0276976261004
 21
84.43113283948093
 31
0.0
  0
LINE
  5
EF7C87A9A
330
EF7C85532
100
AcDbEntity
  8
SUNPOU
100
AcDbLine
 10
490.9151819517041
 20
90.57871358435358
 30
0.0
 11
494.9325397415885
 21
92.93767966613097
 31
0.0
  0
LINE
  5
EF7C87A9B
330
EF7C85532
100
AcDbEntity
  8
SUNPOU
100
AcDbLine
 10
490.9151819517041
 20
90.57871358435358
 30
0.0
 11
493.2148328129462
 21
94.63031703278108
 31
0.0
  0
LINE
  5
EF7C87A9C
330
EF7C85532
100
AcDbEntity
  8
0
 62
     0
100
AcDbLine
 10
493.5315813428626
 20
87.19326870349096
 30
0.0
 11
493.5315813428626
 21
87.19326870349096
 31
0.0
  0
LINE
  5
EF7C87A9D
330
EF7C85532
100
AcDbEntity
  8
0
 62
     0
100
AcDbLine
 10
500.7131345892887
 20
89.95540456750081
 30
0.0
 11
501.3364436061412
 21
90.57871358435352
 31
0.0
  0
LINE
  5
EF7C87A9E
330
EF7C85532
100
AcDbEntity
  8
0
 62
     0
100
AcDbLine
 10
499.6082802436847
 20
88.85055022189687
 30
0.0
 11
499.6082802436847
 21
88.85055022189687
 31
0.0
  0
LINE
  5
EF7C87A9F
330
EF7C85532
100
AcDbEntity
  8
0
 62
     0
100
AcDbLine
 10
507.0141131358051
 20
78.57871358435358
 30
0.0
 11
507.1306570138849
 21
78.69525746243346
 31
0.0
  0
LINE
  5
EF7C87AA0
330
EF7C85532
100
AcDbEntity
  8
SUNPOU
100
AcDbLine
 10
482.6874627387326
 20
134.8413243675615
 30
0.0
 11
486.8126379086226
 21
137.0062295397675
 31
0.0
  0
LINE
  5
EF7C87AA1
330
EF7C85532
100
AcDbEntity
  8
SUNPOU
100
AcDbLine
 10
482.6874627387326
 20
134.8413243675615
 30
0.0
 11
485.177516644815
 21
138.7787748284214
 31
0.0
  0
LINE
  5
EF7C87AA2
330
EF7C85532
100
AcDbEntity
  8
JISSEN
 62
     0
100
AcDbLine
 10
475.1999981936026
 20
119.0287135843535
 30
0.0
 11
475.1999981936026
 21
127.5673616117144
 31
0.0
  0
LINE
  5
EF7C87AA3
330
EF7C85532
100
AcDbEntity
  8
JISSEN
 62
     0
100
AcDbLine
 10
480.1999981936026
 20
127.5673616117144
 30
0.0
 11
480.1999981936026
 21
119.0287135843535
 31
0.0
  0
LINE
  5
EF7C87AA4
330
EF7C85532
100
AcDbEntity
  8
JISSEN
 62
     0
100
AcDbLine
 10
445.5717949633269
 20
119.7984785412715
 30
0.0
 11
445.5717949633269
 21
116.7984785412739
 31
0.0
  0
LINE
  5
EF7C87AA5
330
EF7C85532
100
AcDbEntity
  8
JISSEN
 62
     0
100
AcDbLine
 10
459.4282014238781
 20
119.7984785412715
 30
0.0
 11
459.4282014238781
 21
116.7984785412739
 31
0.0
  0
LINE
  5
EF7C87AA6
330
EF7C85532
100
AcDbEntity
  8
JISSEN
 62
     0
100
AcDbLine
 10
466.3564046541536
 20
119.7984785412738
 30
0.0
 11
466.3564046541536
 21
116.7984785412738
 31
0.0
  0
LINE
  5
EF7C87AA7
330
EF7C85532
100
AcDbEntity
  8
JISSEN
 62
     0
100
AcDbLine
 10
481.4999981936027
 20
127.5673616117144
 30
0.0
 11
481.4999981936027
 21
106.0673616117143
 31
0.0
  0
LINE
  5
EF7C87AA8
330
EF7C85532
100
AcDbEntity
  8
JISSEN
 62
     0
100
AcDbLine
 10
482.6999981936025
 20
106.0673616117143
 30
0.0
 11
482.6999981936025
 21
128.7673616117143
 31
0.0
  0
ARC
  5
EF7C87AA9
330
EF7C85532
100
AcDbEntity
  8
JISSEN
 62
     0
100
AcDbCircle
 10
463.5999981936031
 20
115.7984785412739
 30
0.0
 40
1.0
100
AcDbArc
 50
90.0
 51
180.0
  0
LINE
  5
EF7C87AAA
330
EF7C85532
100
AcDbEntity
  8
JISSEN
 62
     0
100
AcDbLine
 10
464.1999981869575
 20
114.6984785426001
 30
0.0
 11
452.4999981900001
 21
114.6984785426001
 31
0.0
  0
ARC
  5
EF7C87AAB
330
EF7C85532
100
AcDbEntity
  8
JISSEN
 62
     0
100
AcDbCircle
 10
441.3999981936021
 20
115.7984785412739
 30
0.0
 40
1.0
100
AcDbArc
 50
0.0
 51
90.0
  0
LINE
  5
EF7C87AAC
330
EF7C85532
100
AcDbEntity
  8
SAISEN
 62
     0
100
AcDbLine
 10
442.2499981936022
 20
115.2984785412739
 30
0.0
 11
442.2499981936022
 21
114.6984785412739
 31
0.0
  0
LINE
  5
EF7C87AAD
330
EF7C85532
100
AcDbEntity
  8
JISSEN
 62
     0
100
AcDbLine
 10
442.3999981936023
 20
115.7984785412739
 30
0.0
 11
442.3999981936023
 21
115.2984785412739
 31
0.0
  0
LINE
  5
EF7C87AAE
330
EF7C85532
100
AcDbEntity
  8
JISSEN
 62
     0
100
AcDbLine
 10
442.2499981936022
 20
115.2984785412739
 30
0.0
 11
442.3999981936023
 21
115.2984785412739
 31
0.0
  0
LINE
  5
EF7C87AAF
330
EF7C85532
100
AcDbEntity
  8
JISSEN
 62
     0
100
AcDbLine
 10
441.7499981936022
 20
114.798478541274
 30
0.0
 11
441.7499981936022
 21
114.6984785412739
 31
0.0
  0
LINE
  5
EF7C87AB0
330
EF7C85532
100
AcDbEntity
  8
JISSEN
 62
     0
100
AcDbLine
 10
442.2499981936022
 20
115.2984785412739
 30
0.0
 11
441.7499981936022
 21
114.798478541274
 31
0.0
  0
LINE
  5
EF7C87AB1
330
EF7C85532
100
AcDbEntity
  8
JISSEN
 62
     0
100
AcDbLine
 10
481.0794913195755
 20
107.2287135843536
 30
0.0
 11
481.0794913195755
 21
110.2287135843536
 31
0.0
  0
LINE
  5
EF7C87AB2
330
EF7C85532
100
AcDbEntity
  8
JISSEN
 62
     0
100
AcDbLine
 10
474.0794913195754
 20
110.2287135843536
 30
0.0
 11
474.0794913195754
 21
107.2287135843536
 31
0.0
  0
LINE
  5
EF7C87AB3
330
EF7C85532
100
AcDbEntity
  8
JISSEN
 62
     0
100
AcDbLine
 10
475.3294913195754
 20
108.2287135843536
 30
0.0
 11
476.8294913195757
 21
108.2287135843536
 31
0.0
  0
LINE
  5
EF7C87AB4
330
EF7C85532
100
AcDbEntity
  8
JISSEN
 62
     0
100
AcDbLine
 10
474.0794913195754
 20
107.2287135843536
 30
0.0
 11
475.3294913195754
 21
107.2287135843536
 31
0.0
  0
LINE
  5
EF7C87AB5
330
EF7C85532
100
AcDbEntity
  8
JISSEN
 62
     0
100
AcDbLine
 10
475.3294913195754
 20
107.2287135843536
 30
0.0
 11
475.3294913195754
 21
108.2287135843536
 31
0.0
  0
LINE
  5
EF7C87AB6
330
EF7C85532
100
AcDbEntity
  8
JISSEN
 62
     0
100
AcDbLine
 10
479.8294913195754
 20
108.2287135843536
 30
0.0
 11
479.8294913195754
 21
107.2287135843536
 31
0.0
  0
LINE
  5
EF7C87AB7
330
EF7C85532
100
AcDbEntity
  8
JISSEN
 62
     0
100
AcDbLine
 10
479.8294913195754
 20
107.2287135843536
 30
0.0
 11
481.0794913195755
 21
107.2287135843536
 31
0.0
  0
LINE
  5
EF7C87AB8
330
EF7C85532
100
AcDbEntity
  8
JISSEN
 62
     0
100
AcDbLine
 10
479.4999981936029
 20
107.7994124192832
 30
0.0
 11
478.4607677090614
 21
107.1994124192833
 31
0.0
  0
LINE
  5
EF7C87AB9
330
EF7C85532
100
AcDbEntity
  8
JISSEN
 62
     0
100
AcDbLine
 10
478.3294913195756
 20
108.2287135843536
 30
0.0
 11
479.8294913195754
 21
108.2287135843536
 31
0.0
  0
ARC
  5
EF7C87ABA
330
EF7C85532
100
AcDbEntity
  8
JISSEN
 62
     0
100
AcDbCircle
 10
480.9999981936027
 20
106.0673616117143
 30
0.0
 40
1.699999999999992
100
AcDbArc
 50
193.8621414457762
 51
0.0
  0
LINE
  5
EF7C87ABB
330
EF7C85532
100
AcDbEntity
  8
JISSEN
 62
     0
100
AcDbLine
 10
480.4999981936028
 20
106.0673616117144
 30
0.0
 11
479.4999981936029
 21
107.7994124192832
 31
0.0
  0
ARC
  5
EF7C87ABC
330
EF7C85532
100
AcDbEntity
  8
JISSEN
 62
     0
100
AcDbCircle
 10
480.9999981936027
 20
106.0673616117143
 30
0.0
 40
0.5
100
AcDbArc
 50
179.9999999999966
 51
0.0
  0
LINE
  5
EF7C87ABD
330
EF7C85532
100
AcDbEntity
  8
JISSEN
 62
     0
100
AcDbLine
 10
478.4607677090614
 20
107.1994124192833
 30
0.0
 11
479.3495106904044
 21
105.6600644207268
 31
0.0
  0
LINE
  5
EF7C87ABE
330
EF7C85532
100
AcDbEntity
  8
JISSEN
 62
     0
100
AcDbLine
 10
462.5999981936031
 20
115.7984785412739
 30
0.0
 11
462.5999981936031
 21
115.2984785412739
 31
0.0
  0
LINE
  5
EF7C87ABF
330
EF7C85532
100
AcDbEntity
  8
JISSEN
 62
     0
100
AcDbLine
 10
463.2499981936032
 20
114.798478541274
 30
0.0
 11
463.2499981936032
 21
114.6984785412739
 31
0.0
  0
LINE
  5
EF7C87AC0
330
EF7C85532
100
AcDbEntity
  8
SAISEN
 62
     0
100
AcDbLine
 10
462.7499981936032
 20
115.2984785412739
 30
0.0
 11
462.7499981936032
 21
114.6984785412739
 31
0.0
  0
LINE
  5
EF7C87AC1
330
EF7C85532
100
AcDbEntity
  8
JISSEN
 62
     0
100
AcDbLine
 10
462.7499981936032
 20
115.2984785412739
 30
0.0
 11
463.2499981936032
 21
114.798478541274
 31
0.0
  0
LINE
  5
EF7C87AC2
330
EF7C85532
100
AcDbEntity
  8
JISSEN
 62
     0
100
AcDbLine
 10
462.7499981936032
 20
115.2984785412739
 30
0.0
 11
462.5999981936031
 21
115.2984785412739
 31
0.0
  0
LINE
  5
EF7C87AC3
330
EF7C85532
100
AcDbEntity
  8
JISSEN
 62
     0
100
AcDbLine
 10
478.3294913195756
 20
112.5287135843535
 30
0.0
 11
478.3294913195756
 21
117.0287135843535
 31
0.0
  0
LINE
  5
EF7C87AC4
330
EF7C85532
100
AcDbEntity
  8
JISSEN
 62
     0
100
AcDbLine
 10
476.8294913195757
 20
117.0287135843535
 30
0.0
 11
476.8294913195757
 21
112.5287135843535
 31
0.0
  0
LINE
  5
EF7C87AC5
330
EF7C85532
100
AcDbEntity
  8
JISSEN
 62
     0
100
AcDbLine
 10
476.8294913195757
 20
112.5287135843535
 30
0.0
 11
474.0794913195754
 21
110.2287135843536
 31
0.0
  0
LINE
  5
EF7C87AC6
330
EF7C85532
100
AcDbEntity
  8
JISSEN
 62
     0
100
AcDbLine
 10
481.0794913195755
 20
110.2287135843536
 30
0.0
 11
478.3294913195756
 21
112.5287135843535
 31
0.0
  0
LINE
  5
EF7C87AC7
330
EF7C85532
100
AcDbEntity
  8
JISSEN
 62
     0
100
AcDbLine
 10
481.0794913195755
 20
118.5287135843535
 30
0.0
 11
474.0794913195754
 21
118.5287135843535
 31
0.0
  0
LINE
  5
EF7C87AC8
330
EF7C85532
100
AcDbEntity
  8
JISSEN
 62
     0
100
AcDbLine
 10
475.1999981936026
 20
119.0287135843535
 30
0.0
 11
475.6999981936026
 21
118.5287135843535
 31
0.0
  0
LINE
  5
EF7C87AC9
330
EF7C85532
100
AcDbEntity
  8
JISSEN
 62
     0
100
AcDbLine
 10
474.0794913195754
 20
117.0287135843535
 30
0.0
 11
476.8294913195757
 21
117.0287135843535
 31
0.0
  0
LINE
  5
EF7C87ACA
330
EF7C85532
100
AcDbEntity
  8
JISSEN
 62
     0
100
AcDbLine
 10
474.0794913195754
 20
118.5287135843535
 30
0.0
 11
474.0794913195754
 21
117.0287135843535
 31
0.0
  0
LINE
  5
EF7C87ACB
330
EF7C85532
100
AcDbEntity
  8
JISSEN
 62
     0
100
AcDbLine
 10
480.1999981936026
 20
119.0287135843535
 30
0.0
 11
479.6999981936026
 21
118.5287135843535
 31
0.0
  0
LINE
  5
EF7C87ACC
330
EF7C85532
100
AcDbEntity
  8
JISSEN
 62
     0
100
AcDbLine
 10
478.3294913195756
 20
117.0287135843535
 30
0.0
 11
481.0794913195755
 21
117.0287135843535
 31
0.0
  0
LINE
  5
EF7C87ACD
330
EF7C85532
100
AcDbEntity
  8
JISSEN
 62
     0
100
AcDbLine
 10
481.0794913195755
 20
117.0287135843535
 30
0.0
 11
481.0794913195755
 21
118.5287135843535
 31
0.0
  0
LINE
  5
EF7C87ACE
330
EF7C85532
100
AcDbEntity
  8
JISSEN
 62
     0
100
AcDbLine
 10
441.8303753799059
 20
121.990855727577
 30
0.0
 11
463.1696210072995
 21
121.990855727577
 31
0.0
  0
LINE
  5
EF7C87ACF
330
EF7C85532
100
AcDbEntity
  8
JISSEN
 62
     0
100
AcDbLine
 10
456.1672017301729
 20
130.4925391886522
 30
0.0
 11
462.419824335855
 21
130.8180135217654
 31
0.0
  0
LINE
  5
EF7C87AD0
330
EF7C85532
100
AcDbEntity
  8
JISSEN
 62
     0
100
AcDbLine
 10
461.9471337508039
 20
121.990855727577
 30
0.0
 11
464.199998193603
 21
119.798478541273
 31
0.0
  0
LINE
  5
EF7C87AD1
330
EF7C85532
100
AcDbEntity
  8
JISSEN
 62
     0
100
AcDbLine
 10
456.1672017301729
 20
134.6421840347763
 30
0.0
 11
462.419824335855
 21
134.3167097016631
 31
0.0
  0
ARC
  5
EF7C87AD2
330
EF7C85532
100
AcDbEntity
  8
JISSEN
 62
     0
100
AcDbCircle
 10
456.1931935652117
 20
129.9932152211608
 30
0.0
 40
0.5
100
AcDbArc
 50
92.97978797582832
 51
145.123615687263
  0
ARC
  5
EF7C87AD3
330
EF7C85532
100
AcDbEntity
  8
JISSEN
 62
     0
100
AcDbCircle
 10
448.8068028219936
 20
129.9932152211608
 30
0.0
 40
0.5
100
AcDbArc
 50
34.87638431273693
 51
87.02021202417169
  0
CIRCLE
  5
EF7C87AD4
330
EF7C85532
100
AcDbEntity
  8
JISSEN
 62
     0
100
AcDbCircle
 10
452.4999981936026
 20
132.5673616117143
 30
0.0
 40
4.001768729385497
  0
LINE
  5
EF7C87AD5
330
EF7C85532
100
AcDbEntity
  8
JISSEN
 62
     0
100
AcDbLine
 10
441.9252791591418
 20
125.0276249020122
 30
0.0
 11
441.7920303337023
 21
120.7638755668185
 31
0.0
  0
LINE
  5
EF7C87AD6
330
EF7C85532
100
AcDbEntity
  8
SAISEN
 62
     0
100
AcDbLine
 10
443.052862636402
 20
121.990855727577
 30
0.0
 11
443.1477664156378
 21
125.0276249020122
 31
0.0
  0
LINE
  5
EF7C87AD7
330
EF7C85532
100
AcDbEntity
  8
SAISEN
 62
     0
100
AcDbLine
 10
461.9471337508039
 20
121.990855727577
 30
0.0
 11
461.8522299715675
 21
125.0276249020122
 31
0.0
  0
LINE
  5
EF7C87AD8
330
EF7C85532
100
AcDbEntity
  8
JISSEN
 62
     0
100
AcDbLine
 10
448.8327946570326
 20
134.6421840347763
 30
0.0
 11
442.5801720513504
 21
134.3167097016631
 31
0.0
  0
LINE
  5
EF7C87AD9
330
EF7C85532
100
AcDbEntity
  8
JISSEN
 62
     0
100
AcDbLine
 10
448.8327946570326
 20
130.4925391886522
 30
0.0
 11
442.5801720513504
 21
130.8180135217654
 31
0.0
  0
LINE
  5
EF7C87ADA
330
EF7C85532
100
AcDbEntity
  8
JISSEN
 62
     0
100
AcDbLine
 10
441.6321557214281
 20
131.816661456748
 30
0.0
 11
441.6321557214281
 21
133.3180617666805
 31
0.0
  0
ARC
  5
EF7C87ADB
330
EF7C85532
100
AcDbEntity
  8
JISSEN
 62
     0
100
AcDbCircle
 10
442.6321557214281
 20
131.816661456748
 30
0.0
 40
1.0
100
AcDbArc
 50
180.0
 51
267.0202120241717
  0
ARC
  5
EF7C87ADC
330
EF7C85532
100
AcDbEntity
  8
JISSEN
 62
     0
100
AcDbCircle
 10
442.6321557214281
 20
133.3180617666805
 30
0.0
 40
1.0
100
AcDbArc
 50
92.97978797582832
 51
180.0
  0
ARC
  5
EF7C87ADD
330
EF7C85532
100
AcDbEntity
  8
JISSEN
 62
     0
100
AcDbCircle
 10
448.8068028219936
 20
135.1415080022678
 30
0.0
 40
0.5
100
AcDbArc
 50
272.9797879758283
 51
325.1236156872674
  0
ARC
  5
EF7C87ADE
330
EF7C85532
100
AcDbEntity
  8
JISSEN
 62
     0
100
AcDbCircle
 10
456.1931935652117
 20
135.1415080022678
 30
0.0
 40
0.5
100
AcDbArc
 50
214.8763843127333
 51
267.0202120241717
  0
LINE
  5
EF7C87ADF
330
EF7C85532
100
AcDbEntity
  8
JISSEN
 62
     0
100
AcDbLine
 10
482.6999981936025
 20
134.5673616117144
 30
0.0
 11
482.6999981936025
 21
128.7673616117143
 31
0.0
  0
LINE
  5
EF7C87AE0
330
EF7C85532
100
AcDbEntity
  8
JISSEN
 62
     0
100
AcDbLine
 10
465.4986553937667
 20
127.5673616117144
 30
0.0
 11
482.6999981936025
 21
127.5673616117144
 31
0.0
  0
LINE
  5
EF7C87AE1
330
EF7C85532
100
AcDbEntity
  8
JISSEN
 62
     0
100
AcDbLine
 10
463.0747172280632
 20
125.0276249020122
 30
0.0
 11
463.2071068119361
 21
120.7913699229401
 31
0.0
  0
LINE
  5
EF7C87AE2
330
EF7C85532
100
AcDbEntity
  8
JISSEN
 62
     0
100
AcDbLine
 10
480.1999981936026
 20
137.5254015032642
 30
0.0
 11
469.9999981936029
 21
137.5254015032642
 31
0.0
  0
LINE
  5
EF7C87AE3
330
EF7C85532
100
AcDbEntity
  8
JISSEN
 62
     0
100
AcDbLine
 10
463.3678406657772
 20
131.816661456748
 30
0.0
 11
463.3678406657772
 21
133.3180617666805
 31
0.0
  0
ARC
  5
EF7C87AE4
330
EF7C85532
100
AcDbEntity
  8
JISSEN
 62
     0
100
AcDbCircle
 10
462.3678406657772
 20
131.816661456748
 30
0.0
 40
1.0
100
AcDbArc
 50
272.9797879758283
 51
0.0
  0
ARC
  5
EF7C87AE5
330
EF7C85532
100
AcDbEntity
  8
JISSEN
 62
     0
100
AcDbCircle
 10
462.3678406657772
 20
133.3180617666805
 30
0.0
 40
1.0
100
AcDbArc
 50
0.0
 51
87.02021202417169
  0
ARC
  5
EF7C87AE6
330
EF7C85532
100
AcDbEntity
  8
JISSEN
 62
     0
100
AcDbCircle
 10
479.6999981936026
 20
134.5673616117144
 30
0.0
 40
3.0
100
AcDbArc
 50
0.0
 51
80.40593177313514
  0
LINE
  5
EF7C87AE7
330
EF7C85532
100
AcDbEntity
  8
JISSEN
100
AcDbLine
 10
466.4999981899998
 20
234.2069756819134
 30
0.0
 11
438.4999981899998
 21
234.2069756819134
 31
0.0
  0
HATCH
  5
EF7C87AE8
330
EF7C85532
100
AcDbEntity
  8
HATCH
100
AcDbHatch
 10
0.0
 20
0.0
 30
0.0
210
0.0
220
0.0
230
1.0
  2
ANSI31
 70
     0
 71
     0
 91
        2
 92
        7
 72
     0
 73
     1
 93
        4
 10
526.5634243115989
 20
242.7069756819133
 10
464.9999981900001
 20
242.7069756819134
 10
464.9999981900001
 20
234.7069756819134
 10
526.5634243115989
 20
234.7069756819134
 97
        0
 92
        7
 72
     0
 73
     1
 93
        4
 10
439.9999981900001
 20
242.7069756819136
 10
378.4365720684013
 20
242.7069756819136
 10
378.4365720684013
 20
234.7069756819136
 10
439.9999981900001
 20
234.7069756819136
 97
        0
 75
     0
 76
     1
 52
0.0
 41
20.0
 77
     0
 78
     1
 53
45.0
 43
362.4999147519838
 44
195.6283815213576
 45
-1.767766952966368
 46
1.767766952966368
 79
     0
 47
0.1733828905373426
 98
        2
 10
484.1131975971343
 20
238.9565668826363
 10
425.2885858413517
 20
238.7831839473429
  0
LINE
  5
EF7C87AE9
330
EF7C85532
100
AcDbEntity
  8
SUNPOU
100
AcDbLine
 10
464.9999981900001
 20
252.1320626855132
 30
0.0
 11
439.9999981900001
 21
252.1320626855132
 31
0.0
  0
LINE
  5
EF7C87AEA
330
EF7C85532
100
AcDbEntity
  8
JISSEN
100
AcDbLine
 10
464.9999981900001
 20
234.7069756819134
 30
0.0
 11
439.9999981900001
 21
234.7069756819134
 31
0.0
  0
INSERT
  5
EF7C87AEB
330
EF7C85532
100
AcDbEntity
  8
SUNPOU
100
AcDbBlockReference
  2
ARROW
 10
439.9999981900001
 20
252.1320626855132
 30
0.0
 41
1.5
 42
1.5
 43
1.5
 50
180.0
  0
LINE
  5
EF7C87AEC
330
EF7C85532
100
AcDbEntity
  8
JISSEN
 62
     0
100
AcDbLine
 10
465.4986553937667
 20
145.5673616117144
 30
0.0
 11
434.9999981936027
 21
145.5673616117144
 31
0.0
  0
LWPOLYLINE
  5
EF7C87AED
330
EF7C85532
100
AcDbEntity
  8
JISSEN
 62
     0
100
AcDbPolyline
 90
       11
 70
     0
 43
0.0
 10
469.4986553937667
 20
166.2776249020122
 42
0.4142135623730951
 10
472.9986553937667
 20
169.7776249020122
 10
472.9986553937667
 20
195.0276249020121
 10
431.9986553937667
 20
195.0276249020121
 10
431.9986553937667
 20
171.0276249020122
 10
431.9986553937667
 20
169.7776249020122
 42
0.4142135623730951
 10
435.4986553937667
 20
166.2776249020122
 10
435.9986553937667
 20
166.2776249020122
 42
-0.4142135623730951
 10
439.4986553937667
 20
162.7776249020122
 10
439.4986553937667
 20
161.5276249020123
 10
439.4986553937667
 20
145.5673616117143
  0
LINE
  5
EF7C87AEE
330
EF7C85532
100
AcDbEntity
  8
JISSEN
100
AcDbLine
 10
282.499998914
 20
234.2069756819137
 30
0.0
 11
282.499998914
 21
225.8362200178182
 31
0.0
  0
LINE
  5
EF7C87AEF
330
EF7C85532
100
AcDbEntity
  8
SUNPOU
100
AcDbLine
 10
313.8648166895793
 20
146.0745770949074
 30
0.0
 11
348.1896683793554
 21
146.0745770949074
 31
0.0
  0
LWPOLYLINE
  5
EF7C87AF0
330
EF7C85532
100
AcDbEntity
  8
JISSEN
 62
     0
100
AcDbPolyline
 90
        4
 70
     0
 43
0.0
 10
284.4986561177666
 20
145.5673616117143
 10
284.4986561177666
 20
162.7776249020122
 42
-0.4142135623730951
 10
287.9986561177667
 20
166.2776249020122
 10
288.4986561177667
 20
166.2776249020122
 42
0.4142135623730951
  0
LWPOLYLINE
  5
EF7C87AF1
330
EF7C85532
100
AcDbEntity
  8
JISSEN
 62
     0
100
AcDbPolyline
 90
        5
 70
     0
 43
0.0
 10
289.1999989176024
 20
149.5287135843535
 42
0.1200112168691455
 10
289.7418209081028
 20
147.303845321664
 42
0.1049567332455674
 10
291.3966980587033
 20
145.2860728972343
 42
0.0889226874667021
 10
293.7598280681693
 20
144.0031715515809
 42
0.012307555000165
 10
294.1999989176024
 20
143.8692408604282
 42
0.0801668980116146
  0
LWPOLYLINE
  5
EF7C87AF2
330
EF7C85532
100
AcDbEntity
  8
JISSEN
 62
     0
100
AcDbPolyline
 90
       13
 70
     0
 43
0.0
 10
299.1999989176024
 20
143.8692408604282
 42
0.0123075550001654
 10
299.6401697670357
 20
144.0031715515809
 42
0.0889226874667008
 10
302.0032997765015
 20
145.2860728972343
 42
0.1049567332455664
 10
303.6581769271023
 20
147.303845321664
 42
0.120011216869144
 10
304.1999989176024
 20
149.5287135843535
 42
0.1200112168691424
 10
303.6581769271023
 20
151.7535818470429
 42
0.1049567332455653
 10
302.0032997765015
 20
153.7713542714728
 42
0.0889226874666963
 10
299.6401697670357
 20
155.0542556171262
 42
0.0801668980116132
 10
296.6999989176024
 20
155.5287135843536
 42
0.0801668980116128
 10
293.7598280681691
 20
155.0542556171262
 42
0.0889226874666951
 10
291.3966980587033
 20
153.7713542714728
 42
0.1049567332455669
 10
289.7418209081028
 20
151.7535818470429
 42
0.1200112168691447
 10
289.1999989176024
 20
149.5287135843535
 42
0.1200112168691455
  0
LINE
  5
EF7C87AF3
330
EF7C85532
100
AcDbEntity
  8
JISSEN
 62
     0
100
AcDbLine
 10
288.9999989176026
 20
145.5673616117144
 30
0.0
 11
284.4986561177666
 21
145.5673616117144
 31
0.0
  0
TEXT
  5
EF7C87AF4
330
EF7C85532
100
AcDbEntity
  8
SUNPOU
100
AcDbText
 10
315.8648166895793
 20
146.7633022222829
 30
0.0
 40
4.5
  1
振れ止め金具
  7
K
100
AcDbText
  0
ARC
  5
EF7C87AF5
330
EF7C85532
100
AcDbEntity
  8
JISSEN
100
AcDbCircle
 10
281.7499989139998
 20
225.8362200178182
 30
0.0
 40
0.75
100
AcDbArc
 50
270.0
 51
0.0
  0
LINE
  5
EF7C87AF6
330
EF7C85532
100
AcDbEntity
  8
JISSEN
100
AcDbLine
 10
273.69387646445
 20
222.9882608347681
 30
0.0
 11
273.69387646445
 21
225.0862200178183
 31
0.0
  0
LINE
  5
EF7C87AF7
330
EF7C85532
100
AcDbEntity
  8
SAISEN
100
AcDbLine
 10
271.499998914
 20
220.7433628761683
 30
0.0
 11
279.663264218
 21
220.7433628761683
 31
0.0
  0
LINE
  5
EF7C87AF8
330
EF7C85532
100
AcDbEntity
  8
SAISEN
100
AcDbLine
 10
271.499998914
 20
220.8964241006181
 30
0.0
 11
279.663264218
 21
220.8964241006183
 31
0.0
  0
LINE
  5
EF7C87AF9
330
EF7C85532
100
AcDbEntity
  8
SAISEN
100
AcDbLine
 10
271.499998914
 20
220.5392812435682
 30
0.0
 11
278.3877540142499
 21
220.5392812435682
 31
0.0
  0
LINE
  5
EF7C87AFA
330
EF7C85532
100
AcDbEntity
  8
SAISEN
100
AcDbLine
 10
271.499998914
 20
222.9882608347681
 30
0.0
 11
278.3877540142499
 21
222.9882608347681
 31
0.0
  0
LINE
  5
EF7C87AFB
330
EF7C85532
100
AcDbEntity
  8
SAISEN
100
AcDbLine
 10
271.499998914
 20
222.7841792021681
 30
0.0
 11
279.663264218
 21
222.7841792021681
 31
0.0
  0
LINE
  5
EF7C87AFC
330
EF7C85532
100
AcDbEntity
  8
SAISEN
100
AcDbLine
 10
271.499998914
 20
222.6311179777183
 30
0.0
 11
279.663264218
 21
222.6311179777181
 31
0.0
  0
ARC
  5
EF7C87AFD
330
EF7C85532
100
AcDbEntity
  8
SAISEN
100
AcDbCircle
 10
274.7142846274498
 20
221.0494853250683
 30
0.0
 40
0.15306122445
100
AcDbArc
 50
180.0
 51
270.0
  0
ARC
  5
EF7C87AFE
330
EF7C85532
100
AcDbEntity
  8
SAISEN
100
AcDbCircle
 10
274.7142846274498
 20
222.4780567532683
 30
0.0
 40
0.15306122445
100
AcDbArc
 50
90.0
 51
180.0
  0
LINE
  5
EF7C87AFF
330
EF7C85532
100
AcDbEntity
  8
JISSEN
100
AcDbLine
 10
274.5612234029999
 20
221.4576485902683
 30
0.0
 11
274.5612234029999
 21
221.0494853250683
 31
0.0
  0
ARC
  5
EF7C87B00
330
EF7C85532
100
AcDbEntity
  8
JISSEN
100
AcDbCircle
 10
274.2551009540999
 20
221.4576485902683
 30
0.0
 40
0.3061224489
100
AcDbArc
 50
0.0
 51
90.0
  0
ARC
  5
EF7C87B01
330
EF7C85532
100
AcDbEntity
  8
JISSEN
100
AcDbCircle
 10
274.2551009540999
 20
222.0698934880683
 30
0.0
 40
0.3061224489
100
AcDbArc
 50
270.0
 51
0.0
  0
LINE
  5
EF7C87B02
330
EF7C85532
100
AcDbEntity
  8
JISSEN
100
AcDbLine
 10
274.5612234029999
 20
222.0698934880683
 30
0.0
 11
274.5612234029999
 21
222.4780567532683
 31
0.0
  0
LINE
  5
EF7C87B03
330
EF7C85532
100
AcDbEntity
  8
JISSEN
100
AcDbLine
 10
271.499998914
 20
221.7637710391683
 30
0.0
 11
274.2551009540999
 21
221.7637710391683
 31
0.0
  0
LINE
  5
EF7C87B04
330
EF7C85532
100
AcDbEntity
  8
JISSEN
100
AcDbLine
 10
273.2346927910998
 20
221.7637710391683
 30
0.0
 11
274.2551009540999
 21
221.7637710391683
 31
0.0
  0
ARC
  5
EF7C87B05
330
EF7C85532
100
AcDbEntity
  8
SAISEN
100
AcDbCircle
 10
278.3877540142499
 20
222.6311179777181
 30
0.0
 40
0.3571428570499999
100
AcDbArc
 50
25.37693352514767
 51
90.0
  0
ARC
  5
EF7C87B06
330
EF7C85532
100
AcDbEntity
  8
SAISEN
100
AcDbCircle
 10
278.3877540142499
 20
220.8964241006183
 30
0.0
 40
0.3571428570499999
100
AcDbArc
 50
270.0
 51
334.6230664748522
  0
LINE
  5
EF7C87B07
330
EF7C85532
100
AcDbEntity
  8
SAISEN
100
AcDbLine
 10
279.663264218
 20
220.7433628761683
 30
0.0
 11
279.663264218
 21
220.8964241006183
 31
0.0
  0
LINE
  5
EF7C87B08
330
EF7C85532
100
AcDbEntity
  8
SAISEN
100
AcDbLine
 10
279.663264218
 20
222.7841792021681
 30
0.0
 11
279.663264218
 21
222.6311179777181
 31
0.0
  0
LINE
  5
EF7C87B09
330
EF7C85532
100
AcDbEntity
  8
JISSEN
100
AcDbLine
 10
281.7499989139998
 20
225.0862200178183
 30
0.0
 11
271.499998914
 21
225.0862200178183
 31
0.0
  0
LWPOLYLINE
  5
EF7C87B0A
330
EF7C85532
100
AcDbEntity
  8
JISSEN
 62
     0
100
AcDbPolyline
 90
       13
 70
     0
 43
0.0
 10
429.7999981936026
 20
143.8692408604282
 42
0.0123075550001654
 10
430.2401690430358
 20
144.0031715515809
 42
0.0889226874667008
 10
432.6032990525016
 20
145.2860728972343
 42
0.1049567332455664
 10
434.2581762031023
 20
147.303845321664
 42
0.120011216869144
 10
434.7999981936026
 20
149.5287135843535
 42
0.1200112168691424
 10
434.2581762031023
 20
151.7535818470429
 42
0.1049567332455653
 10
432.6032990525016
 20
153.7713542714728
 42
0.0889226874666963
 10
430.2401690430358
 20
155.0542556171262
 42
0.0801668980116132
 10
427.2999981936026
 20
155.5287135843536
 42
0.0801668980116128
 10
424.3598273441693
 20
155.0542556171262
 42
0.0889226874666951
 10
421.9966973347035
 20
153.7713542714728
 42
0.1049567332455669
 10
420.3418201841031
 20
151.7535818470429
 42
0.1200112168691447
 10
419.7999981936026
 20
149.5287135843535
 42
0.1200112168691455
  0
LWPOLYLINE
  5
EF7C87B0B
330
EF7C85532
100
AcDbEntity
  8
JISSEN
 62
     0
100
AcDbPolyline
 90
        5
 70
     0
 43
0.0
 10
419.7999981936026
 20
149.5287135843535
 42
0.1200112168691455
 10
420.3418201841031
 20
147.303845321664
 42
0.1049567332455674
 10
421.9966973347035
 20
145.2860728972343
 42
0.0889226874667021
 10
424.3598273441693
 20
144.0031715515809
 42
0.012307555000165
 10
424.7999981936025
 20
143.8692408604282
 42
0.0801668980116146
  0
LINE
  5
EF7C87B0C
330
EF7C85532
100
AcDbEntity
  8
SUNPOU
100
AcDbLine
 10
307.3391870050548
 20
251.4306410719119
 30
0.0
 11
341.3756099535319
 21
251.4306410719119
 31
0.0
  0
TEXT
  5
EF7C87B0D
330
EF7C85532
100
AcDbEntity
  8
SUNPOU
100
AcDbText
 10
309.9507582637559
 20
251.9155397106063
 30
0.0
 40
4.5
  1
設備プレート
  7
K
100
AcDbText
  0
LINE
  5
EF7C87B0E
330
EF7C85532
100
AcDbEntity
  8
JISSEN
100
AcDbLine
 10
345.5634250355989
 20
242.7069756819133
 30
0.0
 11
283.999998914
 21
242.7069756819134
 31
0.0
  0
LINE
  5
EF7C87B0F
330
EF7C85532
100
AcDbEntity
  8
JISSEN
100
AcDbLine
 10
283.999998914
 20
234.7069756819134
 30
0.0
 11
345.5634250355989
 21
234.7069756819134
 31
0.0
  0
INSERT
  5
EF7C87B10
330
EF7C85532
100
AcDbEntity
  8
SUNPOU
100
AcDbBlockReference
  2
ARROW
 10
283.999998914
 20
252.1320626855132
 30
0.0
 41
1.5
 42
1.5
 43
1.5
  0
LINE
  5
EF7C87B11
330
EF7C85532
100
AcDbEntity
  8
SUNPOU
100
AcDbLine
 10
283.999998914
 20
243.7069756819135
 30
0.0
 11
283.999998914
 21
253.132062685513
 31
0.0
  0
LINE
  5
EF7C87B12
330
EF7C85532
100
AcDbEntity
  8
JISSEN
100
AcDbLine
 10
283.999998914
 20
234.7069756819134
 30
0.0
 11
283.999998914
 21
242.7069756819134
 31
0.0
  0
LINE
  5
EF7C87B13
330
EF7C85532
100
AcDbEntity
  8
JISSEN
100
AcDbLine
 10
285.4999989139999
 20
234.7069756819134
 30
0.0
 11
285.4999989139999
 21
234.2069756819134
 31
0.0
  0
LINE
  5
EF7C87B14
330
EF7C85532
100
AcDbEntity
  8
JISSEN
100
AcDbLine
 10
285.4999989139999
 20
234.2069756819134
 30
0.0
 11
284.3499989139997
 21
234.2069756819134
 31
0.0
  0
LINE
  5
EF7C87B15
330
EF7C85532
100
AcDbEntity
  8
SUNPOU
100
AcDbLine
 10
303.7623375615282
 20
242.7069756819133
 30
0.0
 11
307.3391870050548
 21
251.4306410719119
 31
0.0
  0
INSERT
  5
EF7C87B16
330
EF7C85532
100
AcDbEntity
  8
SUNPOU
100
AcDbBlockReference
  2
ARROW
 10
303.7623375615282
 20
242.7069756819134
 30
0.0
 41
1.499999999999996
 42
1.5
 43
1.5
 50
247.7055463707493
  0
LINE
  5
EF7C87B17
330
EF7C85532
100
AcDbEntity
  8
JISSEN
100
AcDbLine
 10
439.9999981900001
 20
234.7069756819134
 30
0.0
 11
378.4365720684013
 21
234.7069756819134
 31
0.0
  0
LINE
  5
EF7C87B18
330
EF7C85532
100
AcDbEntity
  8
JISSEN
100
AcDbLine
 10
439.9999981900001
 20
242.7069756819134
 30
0.0
 11
378.4365720684013
 21
242.7069756819136
 31
0.0
  0
LINE
  5
EF7C87B19
330
EF7C85532
100
AcDbEntity
  8
SUNPOU
100
AcDbLine
 10
439.9999981900001
 20
243.7069756819135
 30
0.0
 11
439.9999981900001
 21
253.132062685513
 31
0.0
  0
LINE
  5
EF7C87B1A
330
EF7C85532
100
AcDbEntity
  8
JISSEN
100
AcDbLine
 10
439.9999981900001
 20
234.7069756819134
 30
0.0
 11
439.9999981900001
 21
242.7069756819134
 31
0.0
  0
LINE
  5
EF7C87B1B
330
EF7C85532
100
AcDbEntity
  8
JISSEN
100
AcDbLine
 10
438.4999981899998
 20
234.7069756819134
 30
0.0
 11
438.4999981899998
 21
234.2069756819134
 31
0.0
  0
ARC
  5
EF7C87B1C
330
EF7C85532
100
AcDbEntity
  8
JISSEN
100
AcDbCircle
 10
452.4718210160222
 20
227.5560267518747
 30
0.0
 40
3.1
100
AcDbArc
 50
358.0839167096111
 51
90.00000000000651
  0
ARC
  5
EF7C87B1D
330
EF7C85532
100
AcDbEntity
  8
JISSEN
100
AcDbCircle
 10
452.4779210532462
 20
227.5560267518747
 30
0.0
 40
3.1
100
AcDbArc
 50
89.99999999999349
 51
181.9160832903887
  0
LINE
  5
EF7C87B1E
330
EF7C85532
100
AcDbEntity
  8
JISSEN
100
AcDbLine
 10
444.3779210553527
 20
223.9560267518747
 30
0.0
 11
444.3779210553527
 21
234.2069756819134
 31
0.0
  0
LINE
  5
EF7C87B1F
330
EF7C85532
100
AcDbEntity
  8
JISSEN
100
AcDbLine
 10
445.3779210550928
 20
234.2069756819134
 30
0.0
 11
445.3779210550928
 21
223.9560267518747
 31
0.0
  0
LINE
  5
EF7C87B20
330
EF7C85532
100
AcDbEntity
  8
JISSEN
100
AcDbLine
 10
459.5718210141755
 20
234.2069756819134
 30
0.0
 11
459.5718210141753
 21
223.9560267518747
 31
0.0
  0
LINE
  5
EF7C87B21
330
EF7C85532
100
AcDbEntity
  8
JISSEN
100
AcDbLine
 10
460.5718210139155
 20
223.9560267518747
 30
0.0
 11
460.5718210139155
 21
234.2069756819134
 31
0.0
  0
TEXT
  5
EF7C87B22
330
EF7C85532
100
AcDbEntity
  8
SUNPOU
100
AcDbText
 10
496.8648159655796
 20
146.7633022222829
 30
0.0
 40
4.5
  1
振れ止め金具
  7
K
100
AcDbText
  0
LINE
  5
EF7C87B23
330
EF7C85532
100
AcDbEntity
  8
SUNPOU
100
AcDbLine
 10
494.8648159655796
 20
146.0745770949074
 30
0.0
 11
529.1896676553554
 21
146.0745770949074
 31
0.0
  0
LWPOLYLINE
  5
EF7C87B24
330
EF7C85532
100
AcDbEntity
  8
JISSEN
 62
     0
100
AcDbPolyline
 90
       13
 70
     0
 43
0.0
 10
480.1999981936026
 20
143.8692408604282
 42
0.0123075550001654
 10
480.6401690430361
 20
144.0031715515809
 42
0.0889226874667008
 10
483.0032990525019
 20
145.2860728972343
 42
0.1049567332455664
 10
484.6581762031023
 20
147.303845321664
 42
0.120011216869144
 10
485.1999981936025
 20
149.5287135843535
 42
0.1200112168691424
 10
484.6581762031023
 20
151.7535818470429
 42
0.1049567332455653
 10
483.0032990525019
 20
153.7713542714728
 42
0.0889226874666963
 10
480.6401690430361
 20
155.0542556171262
 42
0.0801668980116132
 10
477.6999981936025
 20
155.5287135843536
 42
0.0801668980116128
 10
474.7598273441694
 20
155.0542556171262
 42
0.0889226874666951
 10
472.3966973347036
 20
153.7713542714728
 42
0.1049567332455669
 10
470.741820184103
 20
151.7535818470429
 42
0.1200112168691447
 10
470.1999981936025
 20
149.5287135843535
 42
0.1200112168691455
  0
LWPOLYLINE
  5
EF7C87B25
330
EF7C85532
100
AcDbEntity
  8
JISSEN
 62
     0
100
AcDbPolyline
 90
        4
 70
     0
 43
0.0
 10
465.4986553937667
 20
145.5673616117143
 10
465.4986553937667
 20
162.7776249020122
 42
-0.4142135623730951
 10
468.9986553937667
 20
166.2776249020122
 10
469.4986553937667
 20
166.2776249020122
 42
0.4142135623730951
  0
LWPOLYLINE
  5
EF7C87B26
330
EF7C85532
100
AcDbEntity
  8
JISSEN
 62
     0
100
AcDbPolyline
 90
        5
 70
     0
 43
0.0
 10
470.1999981936025
 20
149.5287135843535
 42
0.1200112168691455
 10
470.741820184103
 20
147.303845321664
 42
0.1049567332455674
 10
472.3966973347036
 20
145.2860728972343
 42
0.0889226874667021
 10
474.7598273441695
 20
144.0031715515809
 42
0.012307555000165
 10
475.1999981936026
 20
143.8692408604282
 42
0.0801668980116146
  0
LINE
  5
EF7C87B27
330
EF7C85532
100
AcDbEntity
  8
JISSEN
 62
     0
100
AcDbLine
 10
469.9999981936029
 20
145.5673616117144
 30
0.0
 11
465.4986553937667
 21
145.5673616117144
 31
0.0
  0
LINE
  5
EF7C87B28
330
EF7C85532
100
AcDbEntity
  8
JISSEN
100
AcDbLine
 10
445.3779210550928
 20
223.9560267518747
 30
0.0
 11
452.4748710346341
 21
223.9560267518747
 31
0.0
  0
LINE
  5
EF7C87B29
330
EF7C85532
100
AcDbEntity
  8
JISSEN
100
AcDbLine
 10
452.4748710346341
 20
222.9560267521347
 30
0.0
 11
445.3779210550928
 21
222.9560267521347
 31
0.0
  0
LINE
  5
EF7C87B2A
330
EF7C85532
100
AcDbEntity
  8
JISSEN
100
AcDbLine
 10
452.4748710346341
 20
225.4560267518747
 30
0.0
 11
445.6779210550132
 21
225.4560267518754
 31
0.0
  0
ARC
  5
EF7C87B2B
330
EF7C85532
100
AcDbEntity
  8
JISSEN
100
AcDbCircle
 10
452.4779210532468
 20
225.9060267513676
 30
0.0
 40
4.249999998894995
100
AcDbArc
 50
241.9275130641453
 51
269.9999999999934
  0
LINE
  5
EF7C87B2C
330
EF7C85532
100
AcDbEntity
  8
JISSEN
100
AcDbLine
 10
445.6779210550148
 20
223.9560267518747
 30
0.0
 11
445.6779210550148
 21
225.4560267514846
 31
0.0
  0
ARC
  5
EF7C87B2D
330
EF7C85532
100
AcDbEntity
  8
JISSEN
100
AcDbCircle
 10
445.3779210550928
 20
223.9560267518747
 30
0.0
 40
0.9999999997399998
100
AcDbArc
 50
180.0
 51
270.0
  0
LINE
  5
EF7C87B2E
330
EF7C85532
100
AcDbEntity
  8
JISSEN
100
AcDbLine
 10
450.4779210537667
 20
222.1560267523426
 30
0.0
 11
450.4779210537667
 21
222.9560267521347
 31
0.0
  0
LINE
  5
EF7C87B2F
330
EF7C85532
100
AcDbEntity
  8
JISSEN
100
AcDbLine
 10
449.216314503486
 20
225.756026751875
 30
0.0
 11
445.6779210550132
 21
225.7560267518754
 31
0.0
  0
LINE
  5
EF7C87B30
330
EF7C85532
100
AcDbEntity
  8
JISSEN
100
AcDbLine
 10
445.6779210550148
 20
225.4560267514846
 30
0.0
 11
445.6779210550148
 21
225.7560267514066
 31
0.0
  0
LINE
  5
EF7C87B31
330
EF7C85532
100
AcDbEntity
  8
JISSEN
100
AcDbLine
 10
449.216314503486
 20
225.756026751875
 30
0.0
 11
449.3796543571893
 21
227.4523759915948
 31
0.0
  0
LINE
  5
EF7C87B32
330
EF7C85532
100
AcDbEntity
  8
JISSEN
100
AcDbLine
 10
459.2718210142534
 20
223.9560267518747
 30
0.0
 11
459.2718210142534
 21
225.4560267514846
 31
0.0
  0
LINE
  5
EF7C87B33
330
EF7C85532
100
AcDbEntity
  8
JISSEN
100
AcDbLine
 10
452.4748710346341
 20
222.9560267521347
 30
0.0
 11
459.5718210141755
 21
222.9560267521347
 31
0.0
  0
LINE
  5
EF7C87B34
330
EF7C85532
100
AcDbEntity
  8
JISSEN
100
AcDbLine
 10
459.5718210141753
 20
223.9560267518747
 30
0.0
 11
452.4748710346341
 21
223.9560267518747
 31
0.0
  0
ARC
  5
EF7C87B35
330
EF7C85532
100
AcDbEntity
  8
JISSEN
100
AcDbCircle
 10
452.4718210160215
 20
225.9060267513676
 30
0.0
 40
4.249999998894995
100
AcDbArc
 50
270.0000000000065
 51
298.0724869358546
  0
LINE
  5
EF7C87B36
330
EF7C85532
100
AcDbEntity
  8
JISSEN
100
AcDbLine
 10
454.4718210155015
 20
222.1560267523426
 30
0.0
 11
454.4718210155015
 21
222.9560267521347
 31
0.0
  0
ARC
  5
EF7C87B37
330
EF7C85532
100
AcDbEntity
  8
JISSEN
100
AcDbCircle
 10
459.5718210141755
 20
223.9560267518747
 30
0.0
 40
0.9999999997399998
100
AcDbArc
 50
270.0
 51
0.0
  0
LINE
  5
EF7C87B38
330
EF7C85532
100
AcDbEntity
  8
JISSEN
100
AcDbLine
 10
452.4748710346341
 20
225.4560267518747
 30
0.0
 11
459.271821014255
 21
225.4560267518754
 31
0.0
  0
LINE
  5
EF7C87B39
330
EF7C85532
100
AcDbEntity
  8
JISSEN
100
AcDbLine
 10
455.7334275657821
 20
225.756026751875
 30
0.0
 11
459.271821014255
 21
225.7560267518754
 31
0.0
  0
LINE
  5
EF7C87B3A
330
EF7C85532
100
AcDbEntity
  8
JISSEN
100
AcDbLine
 10
455.7334275657821
 20
225.756026751875
 30
0.0
 11
455.5700877120789
 21
227.4523759915948
 31
0.0
  0
LINE
  5
EF7C87B3B
330
EF7C85532
100
AcDbEntity
  8
JISSEN
100
AcDbLine
 10
459.2718210142534
 20
225.4560267514846
 30
0.0
 11
459.2718210142534
 21
225.7560267514066
 31
0.0
  0
LINE
  5
EF7C87B3C
330
EF7C85532
100
AcDbEntity
  8
JISSEN
100
AcDbLine
 10
464.9999981900001
 20
234.7069756819134
 30
0.0
 11
526.5634243115989
 21
234.7069756819134
 31
0.0
  0
LINE
  5
EF7C87B3D
330
EF7C85532
100
AcDbEntity
  8
JISSEN
100
AcDbLine
 10
526.5634243115989
 20
242.7069756819133
 30
0.0
 11
464.9999981900001
 21
242.7069756819134
 31
0.0
  0
LINE
  5
EF7C87B3E
330
EF7C85532
100
AcDbEntity
  8
SUNPOU
100
AcDbLine
 10
464.9999981900001
 20
243.7069756819135
 30
0.0
 11
464.9999981900001
 21
253.132062685513
 31
0.0
  0
INSERT
  5
EF7C87B3F
330
EF7C85532
100
AcDbEntity
  8
SUNPOU
100
AcDbBlockReference
  2
ARROW
 10
464.9999981900001
 20
252.1320626855132
 30
0.0
 41
1.5
 42
1.5
 43
1.5
  0
LINE
  5
EF7C87B40
330
EF7C85532
100
AcDbEntity
  8
JISSEN
100
AcDbLine
 10
464.9999981900001
 20
234.7069756819134
 30
0.0
 11
464.9999981900001
 21
242.7069756819134
 31
0.0
  0
LINE
  5
EF7C87B41
330
EF7C85532
100
AcDbEntity
  8
JISSEN
100
AcDbLine
 10
466.4999981899998
 20
234.7069756819134
 30
0.0
 11
466.4999981899998
 21
234.2069756819134
 31
0.0
  0
MTEXT
  5
EF7C87B42
330
EF7C85532
100
AcDbEntity
  8
SUNPOU
100
AcDbMText
 10
452.4999981900001
 20
254.082866763918
 30
0.0
 40
3.0
 41
0.0
 71
     5
 72
     1
  1
\A1;%%c25
  7
K
1001
ACAD
1000
MTEXTBEGIN
1070
    73
1070
     1
1070
    44
1040
1.0
1070
    74
1070
     0
1000
MTEXTEND
  0
TEXT
  5
EF7C87B43
330
EF7C85532
100
AcDbEntity
  8
SUNPOU
100
AcDbText
 10
490.9507575397558
 20
251.9155397106063
 30
0.0
 40
4.5
  1
設備プレート
  7
K
100
AcDbText
  0
LINE
  5
EF7C87B44
330
EF7C85532
100
AcDbEntity
  8
SUNPOU
100
AcDbLine
 10
488.3391862810547
 20
251.4306410719119
 30
0.0
 11
522.3756092295319
 21
251.4306410719119
 31
0.0
  0
LINE
  5
EF7C87B45
330
EF7C85532
100
AcDbEntity
  8
SUNPOU
100
AcDbLine
 10
484.7623368375284
 20
242.7069756819133
 30
0.0
 11
488.3391862810547
 21
251.4306410719119
 31
0.0
  0
INSERT
  5
EF7C87B46
330
EF7C85532
100
AcDbEntity
  8
SUNPOU
100
AcDbBlockReference
  2
ARROW
 10
484.7623368375284
 20
242.7069756819134
 30
0.0
 41
1.499999999999996
 42
1.5
 43
1.5
 50
247.7055463707493
  0
LINE
  5
EF7C87B47
330
EF7C85532
100
AcDbEntity
  8
TEXT
100
AcDbLine
 10
328.8973252407414
 20
10.84900581350063
 30
0.0
 11
328.8973252407414
 21
7.849005813500639
 31
0.0
  0
LINE
  5
EF7C87B48
330
EF7C85532
100
AcDbEntity
  8
TEXT
100
AcDbLine
 10
327.9973252407413
 20
10.84900581350063
 30
0.0
 11
327.9973252407413
 21
7.849005813500639
 31
0.0
  0
LINE
  5
EF7C87B49
330
EF7C85532
100
AcDbEntity
  8
TEXT
100
AcDbLine
 10
327.4473252407416
 20
7.849005813500639
 30
0.0
 11
329.4473252407416
 21
7.849005813500639
 31
0.0
  0
LINE
  5
EF7C87B4A
330
EF7C85532
100
AcDbEntity
  8
TEXT
100
AcDbLine
 10
327.4473252407416
 20
10.84900581350063
 30
0.0
 11
329.4473252407416
 21
10.84900581350063
 31
0.0
  0
LINE
  5
EF7C87B4B
330
EF7C85532
100
AcDbEntity
  8
TEXT
100
AcDbLine
 10
508.9973245167413
 20
10.84900581350063
 30
0.0
 11
508.9973245167413
 21
7.849005813500639
 31
0.0
  0
LINE
  5
EF7C87B4C
330
EF7C85532
100
AcDbEntity
  8
TEXT
100
AcDbLine
 10
509.8973245167413
 20
10.84900581350063
 30
0.0
 11
509.8973245167413
 21
7.849005813500639
 31
0.0
  0
LINE
  5
EF7C87B4D
330
EF7C85532
100
AcDbEntity
  8
TEXT
100
AcDbLine
 10
508.4473245167415
 20
7.849005813500639
 30
0.0
 11
510.4473245167415
 21
7.849005813500639
 31
0.0
  0
LINE
  5
EF7C87B4E
330
EF7C85532
100
AcDbEntity
  8
TEXT
100
AcDbLine
 10
508.4473245167415
 20
10.84900581350063
 30
0.0
 11
510.4473245167415
 21
10.84900581350063
 31
0.0
  0
TEXT
  5
EF7C87B4F
330
EF7C85532
100
AcDbEntity
  8
SUNPOU
100
AcDbText
 10
269.9040996457911
 20
25.19708156035828
 30
0.0
 40
1.5
  1
Q
 50
351.5000000000001
  7
K
 72
     1
 11
270.6811835384326
 21
25.08094559447073
 31
0.0
100
AcDbText
  0
TEXT
  5
EF7C87B50
330
EF7C85532
100
AcDbEntity
  8
SUNPOU
100
AcDbText
 10
268.3889713996076
 20
25.92083880053196
 30
0.0
 40
1.5
  1
X
 50
333.4999999999991
  7
K
 72
     1
 11
269.0282102293233
 21
25.60212607688209
 31
0.0
100
AcDbText
  0
LINE
  5
EF7C87B51
330
EF7C85532
100
AcDbEntity
  8
SUNPOU
100
AcDbLine
 10
273.7580521174208
 20
27.24870432821052
 30
0.0
 11
274.5080521174207
 21
25.94966622253389
 31
0.0
  0
LINE
  5
EF7C87B52
330
EF7C85532
100
AcDbEntity
  8
SUNPOU
100
AcDbLine
 10
274.7655038086145
 20
26.09830602574788
 30
0.0
 11
273.7309851839563
 21
25.50102641931982
 31
0.0
  0
LINE
  5
EF7C87B53
330
EF7C85532
100
AcDbEntity
  8
SUNPOU
100
AcDbLine
 10
273.2384368751502
 20
26.94870432821051
 30
0.0
 11
273.9884368751502
 21
25.64966622253388
 31
0.0
  0
LINE
  5
EF7C87B54
330
EF7C85532
100
AcDbEntity
  8
SUNPOU
100
AcDbLine
 10
274.0155038086145
 20
27.39734413142457
 30
0.0
 11
272.9809851839563
 21
26.80006452499651
 31
0.0
  0
TEXT
  5
EF7C87B55
330
EF7C85532
100
AcDbEntity
  8
SUNPOU
100
AcDbText
 10
271.6393695146022
 20
24.96639008252272
 30
0.0
 40
1.5
  1
R
 50
9.499999999999994
  7
K
 72
     1
 11
272.4143082015243
 21
25.0960703442704
 31
0.0
100
AcDbText
  0
ENDSEC
  0
SECTION
  2
OBJECTS
  0
DICTIONARY
  5
EF7C85527
330
0
100
AcDbDictionary
  3
ACAD_GROUP
350
EF7C85528
  3
ACAD_LAYOUT
350
EF7C85BB7
  3
ACAD_MLINESTYLE
350
EF7C85535
  3
ACAD_PLOTSETTINGS
350
EF7C85BB8
  3
ACAD_PLOTSTYLENAME
350
EF7C85BB5
  3
ACDBHEADERROUNDTRIPXREC
350
EF7C87B58
  3
ACDBVARIABLEDICTIONARY
350
EF7C85FA1
  0
DICTIONARY
  5
EF7C86FB8
330
EF7C8551D
100
AcDbDictionary
280
     1
  3
ACAD_LAYERSTATES
360
EF7C86FB9
  0
DICTIONARY
  5
EF7C85D9A
330
EF7C85532
100
AcDbDictionary
280
     1
  3
ACAD_LAYOUTSELFREF
360
EF7C87B7A
  0
DICTIONARY
  5
EF7C85D98
330
EF7C8552F
100
AcDbDictionary
280
     1
  3
ACAD_LAYOUTSELFREF
360
EF7C87B79
  0
DICTIONARY
  5
EF7C85528
102
{ACAD_REACTORS
330
EF7C85527
102
}
330
EF7C85527
100
AcDbDictionary
  0
DICTIONARY
  5
EF7C85BB7
102
{ACAD_REACTORS
330
EF7C85527
102
}
330
EF7C85527
100
AcDbDictionary
  0
DICTIONARY
  5
EF7C85535
102
{ACAD_REACTORS
330
EF7C85527
102
}
330
EF7C85527
100
AcDbDictionary
  3
STANDARD
350
EF7C85536
  0
DICTIONARY
  5
EF7C85BB8
102
{ACAD_REACTORS
330
EF7C85527
102
}
330
EF7C85527
100
AcDbDictionary
  0
ACDBDICTIONARYWDFLT
  5
EF7C85BB5
102
{ACAD_REACTORS
330
EF7C85527
102
}
330
EF7C85527
100
AcDbDictionary
281
     1
  3
Normal
350
EF7C85BB6
100
AcDbDictionaryWithDefault
340
EF7C85BB6
  0
DICTIONARY
  5
EF7C87B58
102
{ACAD_REACTORS
330
EF7C85527
102
}
330
EF7C85527
100
AcDbDictionary
  3
CEPSNTYPE
350
EF7C87B62
  3
DIMSTYLEDATA
350
EF7C87B66
  3
FINGERPRINTGUID
350
EF7C87B63
  3
HYPERLINKBASE
350
EF7C87B5B
  3
INSUNITS
350
EF7C87B61
  3
LAYOUTDICT
350
EF7C87B5D
  3
LWETCUNION
350
EF7C87B60
  3
PLOTSETDICT
350
EF7C87B5E
  3
PLOTSTYLNAMDICT
350
EF7C87B5F
  3
PSVPSCALE
350
EF7C87B65
  3
PUCSBASE
350
EF7C87B69
  3
PUCSORGBACK
350
EF7C87B6F
  3
PUCSORGBOTTOM
350
EF7C87B6B
  3
PUCSORGFRONT
350
EF7C87B6E
  3
PUCSORGLEFT
350
EF7C87B6C
  3
PUCSORGRIGHT
350
EF7C87B6D
  3
PUCSORGTOP
350
EF7C87B6A
  3
PUCSORTHOREF
350
EF7C87B67
  3
PUCSORTHOVIEW
350
EF7C87B68
  3
STYLESHEET
350
EF7C87B5C
  3
TSTACKALIGN
350
EF7C87B59
  3
TSTACKSIZE
350
EF7C87B5A
  3
UCSBASE
350
EF7C87B72
  3
UCSORGBACK
350
EF7C87B78
  3
UCSORGBOTTOM
350
EF7C87B74
  3
UCSORGFRONT
350
EF7C87B77
  3
UCSORGLEFT
350
EF7C87B75
  3
UCSORGRIGHT
350
EF7C87B76
  3
UCSORGTOP
350
EF7C87B73
  3
UCSORTHOREF
350
EF7C87B70
  3
UCSORTHOVIEW
350
EF7C87B71
  3
VERSIONGUID
350
EF7C87B64
  0
DICTIONARY
  5
EF7C85FA1
102
{ACAD_REACTORS
330
EF7C85527
102
}
330
EF7C85527
100
AcDbDictionary
  3
DIMASSOC
350
EF7C86F8B
  3
SORTENTS
350
EF7C85FA2
  0
DICTIONARY
  5
EF7C86FB9
102
{ACAD_REACTORS
330
EF7C86FB8
102
}
330
EF7C86FB8
100
AcDbDictionary
  0
XRECORD
  5
EF7C87B7A
102
{ACAD_REACTORS
330
EF7C85D9A
102
}
330
EF7C85D9A
100
AcDbXrecord
340
EF7C85532
  0
XRECORD
  5
EF7C87B79
102
{ACAD_REACTORS
330
EF7C85D98
102
}
330
EF7C85D98
100
AcDbXrecord
340
EF7C8552F
  0
MLINESTYLE
  5
EF7C85536
102
{ACAD_REACTORS
330
EF7C85535
102
}
330
EF7C85535
100
AcDbMlineStyle
  2
STANDARD
 70
     0
  3

 62
   256
 51
90.0
 52
90.0
 71
     2
 49
0.5
 62
   256
  6
BYLAYER
 49
-0.5
 62
   256
  6
BYLAYER
  0
ACDBPLACEHOLDER
  5
EF7C85BB6
102
{ACAD_REACTORS
330
EF7C85BB5
102
}
330
EF7C85BB5
100
AcDbPlaceHolder
280
     0
  0
XRECORD
  5
EF7C87B62
102
{ACAD_REACTORS
330
EF7C87B58
102
}
330
EF7C87B58
100
AcDbXrecord
 90
        0
  0
XRECORD
  5
EF7C87B66
102
{ACAD_REACTORS
330
EF7C87B58
102
}
330
EF7C87B58
100
AcDbXrecord
1000
DSTYLE
1002
{
1070
   341
340
EF7C85537
1070
   342
340
EF7C85537
1070
   343
340
EF7C85543
1070
   344
340
EF7C85543
1002
}
  0
XRECORD
  5
EF7C87B63
102
{ACAD_REACTORS
330
EF7C87B58
102
}
330
EF7C87B58
100
AcDbXrecord
  1
{09AA4C7A-3D6F-4857-A850-771461888CEC}
  0
XRECORD
  5
EF7C87B5B
102
{ACAD_REACTORS
330
EF7C87B58
102
}
330
EF7C87B58
100
AcDbXrecord
  1

  0
XRECORD
  5
EF7C87B61
102
{ACAD_REACTORS
330
EF7C87B58
102
}
330
EF7C87B58
100
AcDbXrecord
 90
        0
  0
XRECORD
  5
EF7C87B5D
102
{ACAD_REACTORS
330
EF7C87B58
102
}
330
EF7C87B58
100
AcDbXrecord
340
EF7C85BB7
  0
XRECORD
  5
EF7C87B60
102
{ACAD_REACTORS
330
EF7C87B58
102
}
330
EF7C87B58
100
AcDbXrecord
 90
    14877
  0
XRECORD
  5
EF7C87B5E
102
{ACAD_REACTORS
330
EF7C87B58
102
}
330
EF7C87B58
100
AcDbXrecord
340
EF7C85BB8
  0
XRECORD
  5
EF7C87B5F
102
{ACAD_REACTORS
330
EF7C87B58
102
}
330
EF7C87B58
100
AcDbXrecord
340
EF7C85BB5
  0
XRECORD
  5
EF7C87B65
102
{ACAD_REACTORS
330
EF7C87B58
102
}
330
EF7C87B58
100
AcDbXrecord
 40
0.0
  0
XRECORD
  5
EF7C87B69
102
{ACAD_REACTORS
330
EF7C87B58
102
}
330
EF7C87B58
100
AcDbXrecord
340
0
  0
XRECORD
  5
EF7C87B6F
102
{ACAD_REACTORS
330
EF7C87B58
102
}
330
EF7C87B58
100
AcDbXrecord
 10
0.0
 20
0.0
 30
0.0
  0
XRECORD
  5
EF7C87B6B
102
{ACAD_REACTORS
330
EF7C87B58
102
}
330
EF7C87B58
100
AcDbXrecord
 10
0.0
 20
0.0
 30
0.0
  0
XRECORD
  5
EF7C87B6E
102
{ACAD_REACTORS
330
EF7C87B58
102
}
330
EF7C87B58
100
AcDbXrecord
 10
0.0
 20
0.0
 30
0.0
  0
XRECORD
  5
EF7C87B6C
102
{ACAD_REACTORS
330
EF7C87B58
102
}
330
EF7C87B58
100
AcDbXrecord
 10
0.0
 20
0.0
 30
0.0
  0
XRECORD
  5
EF7C87B6D
102
{ACAD_REACTORS
330
EF7C87B58
102
}
330
EF7C87B58
100
AcDbXrecord
 10
0.0
 20
0.0
 30
0.0
  0
XRECORD
  5
EF7C87B6A
102
{ACAD_REACTORS
330
EF7C87B58
102
}
330
EF7C87B58
100
AcDbXrecord
 10
0.0
 20
0.0
 30
0.0
  0
XRECORD
  5
EF7C87B67
102
{ACAD_REACTORS
330
EF7C87B58
102
}
330
EF7C87B58
100
AcDbXrecord
340
0
  0
XRECORD
  5
EF7C87B68
102
{ACAD_REACTORS
330
EF7C87B58
102
}
330
EF7C87B58
100
AcDbXrecord
 70
     0
  0
XRECORD
  5
EF7C87B5C
102
{ACAD_REACTORS
330
EF7C87B58
102
}
330
EF7C87B58
100
AcDbXrecord
  1

  0
XRECORD
  5
EF7C87B59
102
{ACAD_REACTORS
330
EF7C87B58
102
}
330
EF7C87B58
100
AcDbXrecord
 90
        1
  0
XRECORD
  5
EF7C87B5A
102
{ACAD_REACTORS
330
EF7C87B58
102
}
330
EF7C87B58
100
AcDbXrecord
 90
       70
  0
XRECORD
  5
EF7C87B72
102
{ACAD_REACTORS
330
EF7C87B58
102
}
330
EF7C87B58
100
AcDbXrecord
340
0
  0
XRECORD
  5
EF7C87B78
102
{ACAD_REACTORS
330
EF7C87B58
102
}
330
EF7C87B58
100
AcDbXrecord
 10
0.0
 20
0.0
 30
0.0
  0
XRECORD
  5
EF7C87B74
102
{ACAD_REACTORS
330
EF7C87B58
102
}
330
EF7C87B58
100
AcDbXrecord
 10
0.0
 20
0.0
 30
0.0
  0
XRECORD
  5
EF7C87B77
102
{ACAD_REACTORS
330
EF7C87B58
102
}
330
EF7C87B58
100
AcDbXrecord
 10
0.0
 20
0.0
 30
0.0
  0
XRECORD
  5
EF7C87B75
102
{ACAD_REACTORS
330
EF7C87B58
102
}
330
EF7C87B58
100
AcDbXrecord
 10
0.0
 20
0.0
 30
0.0
  0
XRECORD
  5
EF7C87B76
102
{ACAD_REACTORS
330
EF7C87B58
102
}
330
EF7C87B58
100
AcDbXrecord
 10
0.0
 20
0.0
 30
0.0
  0
XRECORD
  5
EF7C87B73
102
{ACAD_REACTORS
330
EF7C87B58
102
}
330
EF7C87B58
100
AcDbXrecord
 10
0.0
 20
0.0
 30
0.0
  0
XRECORD
  5
EF7C87B70
102
{ACAD_REACTORS
330
EF7C87B58
102
}
330
EF7C87B58
100
AcDbXrecord
340
0
  0
XRECORD
  5
EF7C87B71
102
{ACAD_REACTORS
330
EF7C87B58
102
}
330
EF7C87B58
100
AcDbXrecord
 70
     0
  0
XRECORD
  5
EF7C87B64
102
{ACAD_REACTORS
330
EF7C87B58
102
}
330
EF7C87B58
100
AcDbXrecord
  1
{480DA472-EA2A-410D-BA71-199A4B08FA19}
  0
DICTIONARYVAR
  5
EF7C86F8B
102
{ACAD_REACTORS
330
EF7C85FA1
102
}
330
EF7C85FA1
100
DictionaryVariables
280
     0
  1
0
  0
DICTIONARYVAR
  5
EF7C85FA2
102
{ACAD_REACTORS
330
EF7C85FA1
102
}
330
EF7C85FA1
100
DictionaryVariables
280
     0
  1
96
  0
ENDSEC
  0
EOF
