  0
SECTION
  2
HEADER
  9
$ACADVER
  1
AC1014
  9
$ACADMAINTVER
 70
     9
  9
$DWGCODEPAGE
  3
ANSI_932
  9
$INSBASE
 10
0.0
 20
0.0
 30
0.0
  9
$EXTMIN
 10
0.0
 20
0.0
 30
0.0
  9
$EXTMAX
 10
361.9999985519999
 20
282.9999999999999
 30
0.0
  9
$LIMMIN
 10
0.0
 20
0.0
  9
$LIMMAX
 10
181.0
 20
283.0
  9
$ORTHOMODE
 70
     1
  9
$REGENMODE
 70
     1
  9
$FILLMODE
 70
     1
  9
$QTEXTMODE
 70
     0
  9
$MIRRTEXT
 70
     0
  9
$DRAGMODE
 70
     2
  9
$LTSCALE
 40
5.0
  9
$OSMODE
 70
   167
  9
$ATTMODE
 70
     1
  9
$TEXTSIZE
 40
3.0
  9
$TRACEWID
 40
0.05
  9
$TEXTSTYLE
  7
BIGFONT
  9
$CLAYER
  8
JISSEN
  9
$CELTYPE
  6
BYLAYER
  9
$CECOLOR
 62
   256
  9
$CELTSCALE
 40
1.0
  9
$DELOBJ
 70
     1
  9
$DISPSILH
 70
     0
  9
$DIMSCALE
 40
1.0
  9
$DIMASZ
 40
1.5
  9
$DIMEXO
 40
1.0
  9
$DIMDLI
 40
6.0
  9
$DIMRND
 40
0.0
  9
$DIMDLE
 40
0.0
  9
$DIMEXE
 40
1.0
  9
$DIMTP
 40
0.0
  9
$DIMTM
 40
0.0
  9
$DIMTXT
 40
3.0
  9
$DIMCEN
 40
1.0
  9
$DIMTSZ
 40
0.0
  9
$DIMTOL
 70
     0
  9
$DIMLIM
 70
     0
  9
$DIMTIH
 70
     0
  9
$DIMTOH
 70
     0
  9
$DIMSE1
 70
     0
  9
$DIMSE2
 70
     0
  9
$DIMTAD
 70
     0
  9
$DIMZIN
 70
     8
  9
$DIMBLK
  1
ARROW
  9
$DIMASO
 70
     0
  9
$DIMSHO
 70
     0
  9
$DIMPOST
  1

  9
$DIMAPOST
  1

  9
$DIMALT
 70
     0
  9
$DIMALTD
 70
     2
  9
$DIMALTF
 40
25.4
  9
$DIMLFAC
 40
1.0
  9
$DIMTOFL
 70
     1
  9
$DIMTVP
 40
0.0
  9
$DIMTIX
 70
     0
  9
$DIMSOXD
 70
     0
  9
$DIMSAH
 70
     0
  9
$DIMBLK1
  1
ARROWANG
  9
$DIMBLK2
  1
ARROWANG
  9
$DIMSTYLE
  2
IMAO
  9
$DIMCLRD
 70
     0
  9
$DIMCLRE
 70
     0
  9
$DIMCLRT
 70
     0
  9
$DIMTFAC
 40
1.0
  9
$DIMGAP
 40
0.09
  9
$DIMJUST
 70
     0
  9
$DIMSD1
 70
     0
  9
$DIMSD2
 70
     0
  9
$DIMTOLJ
 70
     1
  9
$DIMTZIN
 70
     8
  9
$DIMALTZ
 70
     8
  9
$DIMALTTZ
 70
     8
  9
$DIMFIT
 70
     3
  9
$DIMUPT
 70
     0
  9
$DIMUNIT
 70
     2
  9
$DIMDEC
 70
     2
  9
$DIMTDEC
 70
     2
  9
$DIMALTU
 70
     2
  9
$DIMALTTD
 70
     2
  9
$DIMTXSTY
  7
BIGFONT
  9
$DIMAUNIT
 70
     0
  9
$LUNITS
 70
     2
  9
$LUPREC
 70
     2
  9
$SKETCHINC
 40
0.1
  9
$FILLETRAD
 40
0.2
  9
$AUNITS
 70
     0
  9
$AUPREC
 70
     2
  9
$MENU
  1
stdr12j
  9
$ELEVATION
 40
0.0
  9
$PELEVATION
 40
0.0
  9
$THICKNESS
 40
0.0
  9
$LIMCHECK
 70
     0
  9
$BLIPMODE
 70
     0
  9
$CHAMFERA
 40
0.0
  9
$CHAMFERB
 40
0.0
  9
$CHAMFERC
 40
0.0
  9
$CHAMFERD
 40
0.0
  9
$SKPOLY
 70
     0
  9
$TDCREATE
 40
2450617.453041203
  9
$TDUPDATE
 40
2454146.704370810
  9
$TDINDWG
 40
0.1052917014
  9
$TDUSRTIMER
 40
0.1052917014
  9
$USRTIMER
 70
     1
  9
$ANGBASE
 50
0.0
  9
$ANGDIR
 70
     0
  9
$PDMODE
 70
     0
  9
$PDSIZE
 40
0.0
  9
$PLINEWID
 40
0.0
  9
$COORDS
 70
     2
  9
$SPLFRAME
 70
     0
  9
$SPLINETYPE
 70
     6
  9
$SPLINESEGS
 70
     8
  9
$ATTDIA
 70
     0
  9
$ATTREQ
 70
     1
  9
$HANDLING
 70
 22529
  9
$HANDSEED
  5
EF7C87BC6
  9
$SURFTAB1
 70
     6
  9
$SURFTAB2
 70
     6
  9
$SURFTYPE
 70
     6
  9
$SURFU
 70
     6
  9
$SURFV
 70
     6
  9
$UCSNAME
  2

  9
$UCSORG
 10
0.0
 20
0.0
 30
0.0
  9
$UCSXDIR
 10
1.0
 20
0.0
 30
0.0
  9
$UCSYDIR
 10
0.0
 20
1.0
 30
0.0
  9
$PUCSNAME
  2

  9
$PUCSORG
 10
0.0
 20
0.0
 30
0.0
  9
$PUCSXDIR
 10
1.0
 20
0.0
 30
0.0
  9
$PUCSYDIR
 10
0.0
 20
1.0
 30
0.0
  9
$USERI1
 70
     0
  9
$USERI2
 70
     1
  9
$USERI3
 70
     1
  9
$USERI4
 70
     3
  9
$USERI5
 70
     0
  9
$USERR1
 40
1.0
  9
$USERR2
 40
3.0
  9
$USERR3
 40
3.0
  9
$USERR4
 40
1.5
  9
$USERR5
 40
8.0
  9
$WORLDVIEW
 70
     1
  9
$SHADEDGE
 70
     3
  9
$SHADEDIF
 70
    70
  9
$TILEMODE
 70
     1
  9
$MAXACTVP
 70
    16
  9
$PINSBASE
 10
0.0
 20
0.0
 30
0.0
  9
$PLIMCHECK
 70
     0
  9
$PEXTMIN
 10
1.000000000000000E+20
 20
1.000000000000000E+20
 30
1.000000000000000E+20
  9
$PEXTMAX
 10
-1.000000000000000E+20
 20
-1.000000000000000E+20
 30
-1.000000000000000E+20
  9
$PLIMMIN
 10
0.0
 20
0.0
  9
$PLIMMAX
 10
12.0
 20
9.0
  9
$UNITMODE
 70
     0
  9
$VISRETAIN
 70
     0
  9
$PLINEGEN
 70
     0
  9
$PSLTSCALE
 70
     0
  9
$TREEDEPTH
 70
  3020
  9
$PICKSTYLE
 70
     1
  9
$CMLSTYLE
  2
STANDARD
  9
$CMLJUST
 70
     0
  9
$CMLSCALE
 40
1.0
  9
$PROXYGRAPHICS
 70
     1
  9
$MEASUREMENT
 70
     0
  0
ENDSEC
  0
SECTION
  2
CLASSES
  0
CLASS
  1
LWPOLYLINE
  2
AcDbPolyline
  3
AutoCAD 2000
 90
        0
280
     0
281
     1
  0
CLASS
  1
HATCH
  2
AcDbHatch
  3
AutoCAD 2000
 90
        0
280
     0
281
     1
  0
CLASS
  1
ACDBDICTIONARYWDFLT
  2
AcDbDictionaryWithDefault
  3
AutoCAD 2000
 90
        0
280
     0
281
     0
  0
CLASS
  1
ACDBPLACEHOLDER
  2
AcDbPlaceHolder
  3
AutoCAD 2000
 90
        0
280
     0
281
     0
  0
CLASS
  1
LAYOUT
  2
AcDbLayout
  3
AutoCAD 2000
 90
        0
280
     0
281
     0
  0
CLASS
  1
LONG_TRANSACTION
  2
AcDbLongTransaction
  3
AutoCAD 2000
 90
        0
280
     0
281
     0
  0
CLASS
  1
LWPOLYLINE
  2
AcDbPolyline
  3
AutoCAD 2000
 90
        0
280
     0
281
     1
  0
CLASS
  1
HATCH
  2
AcDbHatch
  3
AutoCAD 2000
 90
        0
280
     0
281
     1
  0
CLASS
  1
XRECORD
  2
AcDbXrecord
  3
AutoCAD 2000
 90
        0
280
     0
281
     0
  0
CLASS
  1
DICTIONARYVAR
  2
AcDbDictionaryVar
  3
AutoCAD 2000
 90
        0
280
     0
281
     0
  0
CLASS
  1
LONG_TRANSACTION
  2
AcDbLongTransaction
  3
AutoCAD 2000
 90
        0
280
     0
281
     0
  0
CLASS
  1
LWPOLYLINE
  2
AcDbPolyline
  3
AutoCAD 2000
 90
        0
280
     0
281
     1
  0
CLASS
  1
HATCH
  2
AcDbHatch
  3
AutoCAD 2000
 90
        0
280
     0
281
     1
  0
CLASS
  1
XRECORD
  2
AcDbXrecord
  3
AutoCAD 2000
 90
        0
280
     0
281
     0
  0
CLASS
  1
LONG_TRANSACTION
  2
AcDbLongTransaction
  3
AutoCAD 2000
 90
        0
280
     0
281
     0
  0
CLASS
  1
LWPOLYLINE
  2
AcDbPolyline
  3
AutoCAD 2000
 90
        0
280
     0
281
     1
  0
CLASS
  1
HATCH
  2
AcDbHatch
  3
AutoCAD 2000
 90
        0
280
     0
281
     1
  0
CLASS
  1
XRECORD
  2
AcDbXrecord
  3
AutoCAD 2000
 90
        0
280
     0
281
     0
  0
CLASS
  1
LONG_TRANSACTION
  2
AcDbLongTransaction
  3
AutoCAD 2000
 90
        0
280
     0
281
     0
  0
CLASS
  1
LWPOLYLINE
  2
AcDbPolyline
  3
AutoCAD 2000
 90
        0
280
     0
281
     1
  0
CLASS
  1
HATCH
  2
AcDbHatch
  3
AutoCAD 2000
 90
        0
280
     0
281
     1
  0
CLASS
  1
XRECORD
  2
AcDbXrecord
  3
AutoCAD 2000
 90
        0
280
     0
281
     0
  0
CLASS
  1
LONG_TRANSACTION
  2
AcDbLongTransaction
  3
AutoCAD 2000
 90
        0
280
     0
281
     0
  0
CLASS
  1
LWPOLYLINE
  2
AcDbPolyline
  3
AutoCAD 2000
 90
        0
280
     0
281
     1
  0
CLASS
  1
HATCH
  2
AcDbHatch
  3
AutoCAD 2000
 90
        0
280
     0
281
     1
  0
CLASS
  1
XRECORD
  2
AcDbXrecord
  3
AutoCAD 2000
 90
        0
280
     0
281
     0
  0
CLASS
  1
LONG_TRANSACTION
  2
AcDbLongTransaction
  3
AutoCAD 2000
 90
        0
280
     0
281
     0
  0
CLASS
  1
LWPOLYLINE
  2
AcDbPolyline
  3
AutoCAD 2000
 90
        0
280
     0
281
     1
  0
CLASS
  1
HATCH
  2
AcDbHatch
  3
AutoCAD 2000
 90
        0
280
     0
281
     1
  0
CLASS
  1
XRECORD
  2
AcDbXrecord
  3
AutoCAD 2000
 90
        0
280
     0
281
     0
  0
CLASS
  1
LONG_TRANSACTION
  2
AcDbLongTransaction
  3
AutoCAD 2000
 90
        0
280
     0
281
     0
  0
CLASS
  1
LWPOLYLINE
  2
AcDbPolyline
  3
AutoCAD 2000
 90
        0
280
     0
281
     1
  0
CLASS
  1
HATCH
  2
AcDbHatch
  3
AutoCAD 2000
 90
        0
280
     0
281
     1
  0
CLASS
  1
XRECORD
  2
AcDbXrecord
  3
AutoCAD 2000
 90
        0
280
     0
281
     0
  0
CLASS
  1
LONG_TRANSACTION
  2
AcDbLongTransaction
  3
AutoCAD 2000
 90
        0
280
     0
281
     0
  0
CLASS
  1
LWPOLYLINE
  2
AcDbPolyline
  3
AutoCAD 2000
 90
        0
280
     0
281
     1
  0
CLASS
  1
HATCH
  2
AcDbHatch
  3
AutoCAD 2000
 90
        0
280
     0
281
     1
  0
CLASS
  1
XRECORD
  2
AcDbXrecord
  3
AutoCAD 2000
 90
        0
280
     0
281
     0
  0
CLASS
  1
LONG_TRANSACTION
  2
AcDbLongTransaction
  3
AutoCAD 2000
 90
        0
280
     0
281
     0
  0
CLASS
  1
LWPOLYLINE
  2
AcDbPolyline
  3
AutoCAD 2000
 90
        0
280
     0
281
     1
  0
CLASS
  1
HATCH
  2
AcDbHatch
  3
AutoCAD 2000
 90
        0
280
     0
281
     1
  0
CLASS
  1
XRECORD
  2
AcDbXrecord
  3
AutoCAD 2000
 90
        0
280
     0
281
     0
  0
CLASS
  1
LONG_TRANSACTION
  2
AcDbLongTransaction
  3
AutoCAD 2000
 90
        0
280
     0
281
     0
  0
CLASS
  1
LWPOLYLINE
  2
AcDbPolyline
  3
AutoCAD 2000
 90
        0
280
     0
281
     1
  0
CLASS
  1
HATCH
  2
AcDbHatch
  3
AutoCAD 2000
 90
        0
280
     0
281
     1
  0
CLASS
  1
XRECORD
  2
AcDbXrecord
  3
AutoCAD 2000
 90
        0
280
     0
281
     0
  0
CLASS
  1
LONG_TRANSACTION
  2
AcDbLongTransaction
  3
AutoCAD 2000
 90
        0
280
     0
281
     0
  0
CLASS
  1
LWPOLYLINE
  2
AcDbPolyline
  3
AutoCAD 2000
 90
        0
280
     0
281
     1
  0
CLASS
  1
HATCH
  2
AcDbHatch
  3
AutoCAD 2000
 90
        0
280
     0
281
     1
  0
CLASS
  1
XRECORD
  2
AcDbXrecord
  3
AutoCAD 2000
 90
        0
280
     0
281
     0
  0
CLASS
  1
LONG_TRANSACTION
  2
AcDbLongTransaction
  3
AutoCAD 2000
 90
        0
280
     0
281
     0
  0
CLASS
  1
LWPOLYLINE
  2
AcDbPolyline
  3
AutoCAD 2000
 90
        0
280
     0
281
     1
  0
CLASS
  1
HATCH
  2
AcDbHatch
  3
AutoCAD 2000
 90
        0
280
     0
281
     1
  0
CLASS
  1
XRECORD
  2
AcDbXrecord
  3
AutoCAD 2000
 90
        0
280
     0
281
     0
  0
CLASS
  1
LONG_TRANSACTION
  2
AcDbLongTransaction
  3
AutoCAD 2000
 90
        0
280
     0
281
     0
  0
CLASS
  1
LWPOLYLINE
  2
AcDbPolyline
  3
AutoCAD 2000
 90
        0
280
     0
281
     1
  0
CLASS
  1
HATCH
  2
AcDbHatch
  3
AutoCAD 2000
 90
        0
280
     0
281
     1
  0
CLASS
  1
XRECORD
  2
AcDbXrecord
  3
AutoCAD 2000
 90
        0
280
     0
281
     0
  0
ENDSEC
  0
SECTION
  2
TABLES
  0
TABLE
  2
VPORT
  5
EF7C85523
330
0
100
AcDbSymbolTable
 70
    10
  0
VPORT
  5
EF7C85567
330
EF7C85523
100
AcDbSymbolTableRecord
100
AcDbViewportTableRecord
  2
2
 70
     0
 10
0.5
 20
0.0
 11
1.0
 21
1.0
 12
0.9240312421264802
 22
1.052650975462765
 13
0.0
 23
0.0
 14
1.0
 24
1.0
 15
10.0
 25
10.0
 16
0.0
 26
0.0
 36
1.0
 17
0.0
 27
0.0
 37
0.0
 40
2.105301950925533
 41
0.8778135048231511
 42
50.0
 43
0.0
 44
0.0
 50
0.0
 51
0.0
 71
     0
 72
   500
 73
     1
 74
     1
 75
     0
 76
     0
 77
     0
 78
     0
  0
VPORT
  5
EF7C85568
330
EF7C85523
100
AcDbSymbolTableRecord
100
AcDbViewportTableRecord
  2
2
 70
     0
 10
0.0
 20
0.0
 11
0.5
 21
1.0
 12
0.9240312421264802
 22
1.052650975462765
 13
0.0
 23
0.0
 14
1.0
 24
1.0
 15
10.0
 25
10.0
 16
0.0
 26
0.0
 36
1.0
 17
0.0
 27
0.0
 37
0.0
 40
2.105301950925533
 41
0.8778135048231511
 42
50.0
 43
0.0
 44
0.0
 50
0.0
 51
0.0
 71
     0
 72
   500
 73
     1
 74
     1
 75
     0
 76
     0
 77
     0
 78
     0
  0
VPORT
  5
EF7C85569
330
EF7C85523
100
AcDbSymbolTableRecord
100
AcDbViewportTableRecord
  2
3
 70
     0
 10
0.0
 20
0.5
 11
1.0
 21
1.0
 12
2.832169994473273
 22
1.052650975462765
 13
0.0
 23
0.0
 14
1.0
 24
1.0
 15
10.0
 25
10.0
 16
0.0
 26
0.0
 36
1.0
 17
0.0
 27
0.0
 37
0.0
 40
2.105301950925533
 41
3.571428571428571
 42
50.0
 43
0.0
 44
0.0
 50
0.0
 51
0.0
 71
     0
 72
   500
 73
     1
 74
     1
 75
     0
 76
     0
 77
     0
 78
     0
  0
VPORT
  5
EF7C8556A
330
EF7C85523
100
AcDbSymbolTableRecord
100
AcDbViewportTableRecord
  2
3
 70
     0
 10
0.0
 20
0.0
 11
1.0
 21
0.5
 12
2.856741679241311
 22
1.052650975462765
 13
0.0
 23
0.0
 14
1.0
 24
1.0
 15
10.0
 25
10.0
 16
0.0
 26
0.0
 36
1.0
 17
0.0
 27
0.0
 37
0.0
 40
2.105301950925533
 41
3.594771241830064
 42
50.0
 43
0.0
 44
0.0
 50
0.0
 51
0.0
 71
     0
 72
   500
 73
     1
 74
     1
 75
     0
 76
     0
 77
     0
 78
     0
  0
VPORT
  5
EF7C8556B
330
EF7C85523
100
AcDbSymbolTableRecord
100
AcDbViewportTableRecord
  2
4
 70
     0
 10
0.5
 20
0.0
 11
1.0
 21
0.5
 12
2.886857516709718
 22
1.052650975462765
 13
0.0
 23
0.0
 14
1.0
 24
1.0
 15
10.0
 25
10.0
 16
0.0
 26
0.0
 36
1.0
 17
0.0
 27
0.0
 37
0.0
 40
4.275207030309069
 41
1.784313725490195
 42
50.0
 43
0.0
 44
0.0
 50
0.0
 51
0.0
 71
     0
 72
   500
 73
     1
 74
     1
 75
     0
 76
     0
 77
     0
 78
     0
  0
VPORT
  5
EF7C8556C
330
EF7C85523
100
AcDbSymbolTableRecord
100
AcDbViewportTableRecord
  2
4
 70
     0
 10
0.5
 20
0.5
 11
1.0
 21
1.0
 12
2.862090274555523
 22
1.052650975462765
 13
0.0
 23
0.0
 14
1.0
 24
1.0
 15
10.0
 25
10.0
 16
0.0
 26
0.0
 36
1.0
 17
0.0
 27
0.0
 37
0.0
 40
4.275207030309069
 41
1.772727272727271
 42
50.0
 43
0.0
 44
0.0
 50
0.0
 51
0.0
 71
     0
 72
   500
 73
     1
 74
     1
 75
     0
 76
     0
 77
     0
 78
     0
  0
VPORT
  5
EF7C8556D
330
EF7C85523
100
AcDbSymbolTableRecord
100
AcDbViewportTableRecord
  2
4
 70
     0
 10
0.0
 20
0.5
 11
0.5
 21
1.0
 12
2.862090274555523
 22
1.052650975462765
 13
0.0
 23
0.0
 14
1.0
 24
1.0
 15
10.0
 25
10.0
 16
0.0
 26
0.0
 36
1.0
 17
0.0
 27
0.0
 37
0.0
 40
4.275207030309069
 41
1.772727272727271
 42
50.0
 43
0.0
 44
0.0
 50
0.0
 51
0.0
 71
     0
 72
   500
 73
     1
 74
     1
 75
     0
 76
     0
 77
     0
 78
     0
  0
VPORT
  5
EF7C8556E
330
EF7C85523
100
AcDbSymbolTableRecord
100
AcDbViewportTableRecord
  2
4
 70
     0
 10
0.0
 20
0.0
 11
0.5
 21
0.5
 12
2.886857516709718
 22
1.052650975462765
 13
0.0
 23
0.0
 14
1.0
 24
1.0
 15
10.0
 25
10.0
 16
0.0
 26
0.0
 36
1.0
 17
0.0
 27
0.0
 37
0.0
 40
4.275207030309069
 41
1.784313725490195
 42
50.0
 43
0.0
 44
0.0
 50
0.0
 51
0.0
 71
     0
 72
   500
 73
     1
 74
     1
 75
     0
 76
     0
 77
     0
 78
     0
  0
VPORT
  5
EF7C87BA2
330
EF7C85523
100
AcDbSymbolTableRecord
100
AcDbViewportTableRecord
  2
*ACTIVE
 70
     0
 10
0.0
 20
0.0
 11
1.0
 21
1.0
 12
229.4318567801611
 22
141.5000019768528
 13
0.0
 23
0.0
 14
1.0
 24
1.0
 15
10.0
 25
10.0
 16
0.0
 26
0.0
 36
1.0
 17
0.0
 27
0.0
 37
0.0
 40
284.9222342547637
 41
1.764444444444444
 42
50.0
 43
0.0
 44
0.0
 50
0.0
 51
0.0
 71
     0
 72
   500
 73
     1
 74
     0
 75
     0
 76
     0
 77
     0
 78
     0
  0
ENDTAB
  0
TABLE
  2
LTYPE
  5
EF7C85520
330
0
100
AcDbSymbolTable
 70
     3
  0
LTYPE
  5
EF7C8552C
330
EF7C85520
100
AcDbSymbolTableRecord
100
AcDbLinetypeTableRecord
  2
BYBLOCK
 70
     0
  3

 72
    65
 73
     0
 40
0.0
  0
LTYPE
  5
EF7C8552D
330
EF7C85520
100
AcDbSymbolTableRecord
100
AcDbLinetypeTableRecord
  2
BYLAYER
 70
     0
  3

 72
    65
 73
     0
 40
0.0
  0
LTYPE
  5
EF7C8552E
330
EF7C85520
100
AcDbSymbolTableRecord
100
AcDbLinetypeTableRecord
  2
CONTINUOUS
 70
     0
  3
実線
 72
    65
 73
     0
 40
0.0
  0
LTYPE
  5
EF7C85565
330
EF7C85520
100
AcDbSymbolTableRecord
100
AcDbLinetypeTableRecord
  2
PHANTOM
 70
     0
  3
_____ _ _ _____ _ _ _____ _ _ _____ _ _ ____
 72
    65
 73
     6
 40
2.5
 49
1.25
 74
     0
 49
-0.25
 74
     0
 49
0.25
 74
     0
 49
-0.25
 74
     0
 49
0.25
 74
     0
 49
-0.25
 74
     0
  0
LTYPE
  5
EF7C85566
330
EF7C85520
100
AcDbSymbolTableRecord
100
AcDbLinetypeTableRecord
  2
HIDDEN
 70
     0
  3
_ _ _ _ _ _ _ _ _ _ _ _ _ _ _ _ _ _ _ _ _ _ _
 72
    65
 73
     2
 40
0.375
 49
0.25
 74
     0
 49
-0.125
 74
     0
  0
ENDTAB
  0
TABLE
  2
LAYER
  5
EF7C8551D
102
{ACAD_XDICTIONARY
360
EF7C8725C
102
}
330
0
100
AcDbSymbolTable
 70
     9
  0
LAYER
  5
EF7C85529
330
EF7C8551D
100
AcDbSymbolTableRecord
100
AcDbLayerTableRecord
  2
0
 70
     0
 62
     6
  6
CONTINUOUS
  0
LAYER
  5
EF7C85574
330
EF7C8551D
100
AcDbSymbolTableRecord
100
AcDbLayerTableRecord
  2
NITEN
 70
     0
 62
     2
  6
PHANTOM
  0
LAYER
  5
EF7C85575
330
EF7C8551D
100
AcDbSymbolTableRecord
100
AcDbLayerTableRecord
  2
HATCH
 70
     0
 62
     4
  6
CONTINUOUS
  0
LAYER
  5
EF7C85576
330
EF7C8551D
100
AcDbSymbolTableRecord
100
AcDbLayerTableRecord
  2
SUNPOU
 70
     0
 62
     3
  6
CONTINUOUS
  0
LAYER
  5
EF7C85577
330
EF7C8551D
100
AcDbSymbolTableRecord
100
AcDbLayerTableRecord
  2
TEXT
 70
     0
 62
     3
  6
CONTINUOUS
  0
LAYER
  5
EF7C85578
330
EF7C8551D
100
AcDbSymbolTableRecord
100
AcDbLayerTableRecord
  2
SAISEN
 70
     0
 62
     4
  6
CONTINUOUS
  0
LAYER
  5
EF7C85579
330
EF7C8551D
100
AcDbSymbolTableRecord
100
AcDbLayerTableRecord
  2
JISSEN
 70
     0
 62
     7
  6
CONTINUOUS
  0
LAYER
  5
EF7C8557B
330
EF7C8551D
100
AcDbSymbolTableRecord
100
AcDbLayerTableRecord
  2
TENSEN
 70
     0
 62
     2
  6
HIDDEN
  0
LAYER
  5
EF7C8557D
330
EF7C8551D
100
AcDbSymbolTableRecord
100
AcDbLayerTableRecord
  2
WAKU
 70
     0
 62
     5
  6
CONTINUOUS
  0
ENDTAB
  0
TABLE
  2
STYLE
  5
EF7C8551E
330
0
100
AcDbSymbolTable
 70
     3
  0
STYLE
  5
EF7C8552A
330
EF7C8551E
100
AcDbSymbolTableRecord
100
AcDbTextStyleTableRecord
  2
STANDARD
 70
     0
 40
0.0
 41
1.0
 50
0.0
 71
     0
 42
1.5
  3
SIMPLEX
  4

  0
STYLE
  5
EF7C85558
330
EF7C8551E
100
AcDbSymbolTableRecord
100
AcDbTextStyleTableRecord
  2
K
 70
     0
 40
0.0
 41
1.0
 50
0.0
 71
     0
 42
3.0
  3
ROMANS
  4
BIGFONT
  0
STYLE
  5
EF7C8555B
330
EF7C8551E
100
AcDbSymbolTableRecord
100
AcDbTextStyleTableRecord
  2
BIGFONT
 70
     0
 40
0.0
 41
1.0
 50
0.0
 71
     0
 42
3.0
  3
txt.shx
  4
bigfont
  0
ENDTAB
  0
TABLE
  2
VIEW
  5
EF7C85521
330
0
100
AcDbSymbolTable
 70
     0
  0
ENDTAB
  0
TABLE
  2
UCS
  5
EF7C85522
330
0
100
AcDbSymbolTable
 70
     0
  0
ENDTAB
  0
TABLE
  2
APPID
  5
EF7C85524
330
0
100
AcDbSymbolTable
 70
     1
  0
APPID
  5
EF7C8552B
330
EF7C85524
100
AcDbSymbolTableRecord
100
AcDbRegAppTableRecord
  2
ACAD
 70
     0
  0
ENDTAB
  0
TABLE
  2
DIMSTYLE
  5
EF7C85525
330
0
100
AcDbSymbolTable
 70
     1
  0
DIMSTYLE
105
EF7C85571
330
EF7C85525
100
AcDbSymbolTableRecord
100
AcDbDimStyleTableRecord
  2
IMAO
 70
     0
  3

  4

  5
ARROWANG
  6
ARROWANG
  7
ARROWANG
 40
1.0
 41
1.5
 42
1.0
 43
6.0
 44
1.0
 45
0.0
 46
0.0
 47
495.0
 48
0.0
140
3.0
141
0.0
142
0.0
143
25.4
144
1.0
145
0.0
146
1.0
147
0.09
 71
     0
 72
     0
 73
     0
 74
     0
 75
     0
 76
     0
 77
     1
 78
     8
170
     0
171
     2
172
     1
173
     0
174
     1
175
     0
176
     0
177
     0
178
     0
270
     2
271
     2
272
     2
273
     2
274
     2
340
EF7C8555B
275
     0
280
     0
281
     0
282
     0
283
     1
284
     8
285
     8
286
     8
287
     3
288
     0
  0
ENDTAB
  0
TABLE
  2
BLOCK_RECORD
  5
EF7C8551C
330
0
100
AcDbSymbolTable
 70
    12
  0
BLOCK_RECORD
  5
EF7C85532
102
{ACAD_XDICTIONARY
360
EF7C85D9A
102
}
330
EF7C8551C
100
AcDbSymbolTableRecord
100
AcDbBlockTableRecord
  2
*MODEL_SPACE
  0
BLOCK_RECORD
  5
EF7C8552F
102
{ACAD_XDICTIONARY
360
EF7C85D98
102
}
330
EF7C8551C
100
AcDbSymbolTableRecord
100
AcDbBlockTableRecord
  2
*PAPER_SPACE
  0
BLOCK_RECORD
  5
EF7C85537
330
EF7C8551C
100
AcDbSymbolTableRecord
100
AcDbBlockTableRecord
  2
ARROW
  0
BLOCK_RECORD
  5
EF7C8553B
330
EF7C8551C
100
AcDbSymbolTableRecord
100
AcDbBlockTableRecord
  2
WAKU
  0
BLOCK_RECORD
  5
EF7C8553D
330
EF7C8551C
100
AcDbSymbolTableRecord
100
AcDbBlockTableRecord
  2
*X2
  0
BLOCK_RECORD
  5
EF7C8553E
330
EF7C8551C
100
AcDbSymbolTableRecord
100
AcDbBlockTableRecord
  2
STDGX5
  0
BLOCK_RECORD
  5
EF7C8553F
330
EF7C8551C
100
AcDbSymbolTableRecord
100
AcDbBlockTableRecord
  2
*X4
  0
BLOCK_RECORD
  5
EF7C85540
330
EF7C8551C
100
AcDbSymbolTableRecord
100
AcDbBlockTableRecord
  2
*X5
  0
BLOCK_RECORD
  5
EF7C85541
330
EF7C8551C
100
AcDbSymbolTableRecord
100
AcDbBlockTableRecord
  2
*X6
  0
BLOCK_RECORD
  5
EF7C85542
330
EF7C8551C
100
AcDbSymbolTableRecord
100
AcDbBlockTableRecord
  2
*X7
  0
BLOCK_RECORD
  5
EF7C85543
330
EF7C8551C
100
AcDbSymbolTableRecord
100
AcDbBlockTableRecord
  2
ARROWANG
  0
BLOCK_RECORD
  5
EF7C85544
330
EF7C8551C
100
AcDbSymbolTableRecord
100
AcDbBlockTableRecord
  2
STDR12J
  0
BLOCK_RECORD
  5
EF7C85557
330
EF7C8551C
100
AcDbSymbolTableRecord
100
AcDbBlockTableRecord
  2
*X10
  0
BLOCK_RECORD
  5
EF7C86AEF
330
EF7C8551C
100
AcDbSymbolTableRecord
100
AcDbBlockTableRecord
  2
*X11
  0
ENDTAB
  0
ENDSEC
  0
SECTION
  2
BLOCKS
  0
BLOCK
  5
EF7C85580
330
EF7C85532
100
AcDbEntity
  8
0
100
AcDbBlockBegin
  2
*MODEL_SPACE
 70
     0
 10
0.0
 20
0.0
 30
0.0
  3
*MODEL_SPACE
  1

  0
ENDBLK
  5
EF7C85581
330
EF7C85532
100
AcDbEntity
  8
0
100
AcDbBlockEnd
  0
BLOCK
  5
EF7C8557E
330
EF7C8552F
100
AcDbEntity
 67
     1
  8
0
100
AcDbBlockBegin
  2
*PAPER_SPACE
 70
     0
 10
0.0
 20
0.0
 30
0.0
  3
*PAPER_SPACE
  1

  0
ENDBLK
  5
EF7C8557F
330
EF7C8552F
100
AcDbEntity
 67
     1
  8
0
100
AcDbBlockEnd
  0
BLOCK
  5
499
330
EF7C85537
100
AcDbEntity
  8
0
100
AcDbBlockBegin
  2
ARROW
 70
     0
 10
1.0
 20
0.5
 30
0.0
  3
ARROW
  1

  0
LINE
  5
49A
330
EF7C85537
100
AcDbEntity
  8
0
100
AcDbLine
 10
1.0
 20
0.5
 30
0.0
 11
-0.5000000000000214
 21
0.0980762113533018
 31
0.0
  0
LINE
  5
49B
330
EF7C85537
100
AcDbEntity
  8
0
100
AcDbLine
 10
0.0
 20
0.5
 30
0.0
 11
1.0
 21
0.5
 31
0.0
  0
LINE
  5
49C
330
EF7C85537
100
AcDbEntity
  8
0
100
AcDbLine
 10
1.0
 20
0.5
 30
0.0
 11
-0.4999999999999575
 21
0.9019237886467408
 31
0.0
  0
ENDBLK
  5
49D
330
EF7C85537
100
AcDbEntity
  8
0
100
AcDbBlockEnd
  0
BLOCK
  5
4A7
330
EF7C8553B
100
AcDbEntity
  8
0
100
AcDbBlockBegin
  2
WAKU
 70
     0
 10
0.0
 20
0.0
 30
0.0
  3
WAKU
  1

  0
LINE
  5
4A8
330
EF7C8553B
100
AcDbEntity
  8
WAKU
100
AcDbLine
 10
0.9999999959999998
 20
0.0
 30
0.0
 11
0.9999999959999998
 21
0.9999999999999998
 31
0.0
  0
LINE
  5
4A9
330
EF7C8553B
100
AcDbEntity
  8
WAKU
100
AcDbLine
 10
0.0
 20
0.9999999999999998
 30
0.0
 11
0.9999999959999998
 21
0.9999999999999998
 31
0.0
  0
LINE
  5
4AA
330
EF7C8553B
100
AcDbEntity
  8
WAKU
100
AcDbLine
 10
0.9999999959999998
 20
0.0
 30
0.0
 11
0.0
 21
0.0
 31
0.0
  0
LINE
  5
4AB
330
EF7C8553B
100
AcDbEntity
  8
WAKU
100
AcDbLine
 10
0.0
 20
0.0
 30
0.0
 11
0.0
 21
0.9999999999999998
 31
0.0
  0
ENDBLK
  5
4AC
330
EF7C8553B
100
AcDbEntity
  8
0
100
AcDbBlockEnd
  0
BLOCK
  5
2764
330
EF7C8553D
100
AcDbEntity
  8
0
100
AcDbBlockBegin
  2
*X2
 70
     1
 10
0.0
 20
0.0
 30
0.0
  3
*X2
  1

  0
ENDBLK
  5
2765
330
EF7C8553D
100
AcDbEntity
  8
0
100
AcDbBlockEnd
  0
BLOCK
  5
2766
330
EF7C8553E
100
AcDbEntity
  8
0
100
AcDbBlockBegin
  2
STDGX5
 70
     0
 10
0.0
 20
0.0
 30
0.0
  3
STDGX5
  1

  0
ENDBLK
  5
2767
330
EF7C8553E
100
AcDbEntity
  8
0
100
AcDbBlockEnd
  0
BLOCK
  5
2F5A
330
EF7C8553F
100
AcDbEntity
  8
0
100
AcDbBlockBegin
  2
*X4
 70
     1
 10
0.0
 20
0.0
 30
0.0
  3
*X4
  1

  0
ENDBLK
  5
2F5B
330
EF7C8553F
100
AcDbEntity
  8
0
100
AcDbBlockEnd
  0
BLOCK
  5
32BB
330
EF7C85540
100
AcDbEntity
  8
0
100
AcDbBlockBegin
  2
*X5
 70
     1
 10
0.0
 20
0.0
 30
0.0
  3
*X5
  1

  0
ENDBLK
  5
32BC
330
EF7C85540
100
AcDbEntity
  8
0
100
AcDbBlockEnd
  0
BLOCK
  5
372F
330
EF7C85541
100
AcDbEntity
  8
0
100
AcDbBlockBegin
  2
*X6
 70
     1
 10
0.0
 20
0.0
 30
0.0
  3
*X6
  1

  0
ENDBLK
  5
3730
330
EF7C85541
100
AcDbEntity
  8
0
100
AcDbBlockEnd
  0
BLOCK
  5
3A6D
330
EF7C85542
100
AcDbEntity
  8
0
100
AcDbBlockBegin
  2
*X7
 70
     1
 10
0.0
 20
0.0
 30
0.0
  3
*X7
  1

  0
ENDBLK
  5
3A6E
330
EF7C85542
100
AcDbEntity
  8
0
100
AcDbBlockEnd
  0
BLOCK
  5
4CC9
330
EF7C85543
100
AcDbEntity
  8
0
100
AcDbBlockBegin
  2
ARROWANG
 70
     0
 10
0.0
 20
0.0
 30
0.0
  3
ARROWANG
  1

  0
LINE
  5
4CCA
330
EF7C85543
100
AcDbEntity
  8
SUNPOU
100
AcDbLine
 10
0.0
 20
0.0
 30
0.0
 11
-1.499999999999956
 21
0.401923788646741
 31
0.0
  0
LINE
  5
4CCB
330
EF7C85543
100
AcDbEntity
  8
SUNPOU
100
AcDbLine
 10
0.0
 20
0.0
 30
0.0
 11
-1.500000000000027
 21
-0.4019237886467124
 31
0.0
  0
ENDBLK
  5
4CCC
330
EF7C85543
100
AcDbEntity
  8
0
100
AcDbBlockEnd
  0
BLOCK
  5
4CCD
330
EF7C85544
100
AcDbEntity
  8
0
100
AcDbBlockBegin
  2
STDR12J
 70
     0
 10
0.0
 20
0.0
 30
0.0
  3
STDR12J
  1

  0
ENDBLK
  5
4CF2
330
EF7C85544
100
AcDbEntity
  8
0
100
AcDbBlockEnd
  0
BLOCK
  5
EF7C854FB
330
EF7C85557
100
AcDbEntity
  8
0
100
AcDbBlockBegin
  2
*X10
 70
     1
 10
0.0
 20
0.0
 30
0.0
  3
*X10
  1

  0
LINE
  5
EF7C854FD
330
EF7C85557
100
AcDbEntity
  8
0
 62
     0
100
AcDbLine
 10
42.91207191918546
 20
139.0785941605559
 30
0.0
 11
47.91207191918546
 21
144.0785941605559
 31
0.0
  0
LINE
  5
EF7C854FE
330
EF7C85557
100
AcDbEntity
  8
0
 62
     0
100
AcDbLine
 10
40.08364479443928
 20
139.0785941605559
 30
0.0
 11
45.08364479443929
 21
144.0785941605559
 31
0.0
  0
LINE
  5
EF7C854FF
330
EF7C85557
100
AcDbEntity
  8
0
 62
     0
100
AcDbLine
 10
37.25521766969309
 20
139.0785941605559
 30
0.0
 11
42.25521766969309
 21
144.0785941605559
 31
0.0
  0
LINE
  5
EF7C85500
330
EF7C85557
100
AcDbEntity
  8
0
 62
     0
100
AcDbLine
 10
34.42679054494689
 20
139.0785941605559
 30
0.0
 11
39.42679054494689
 21
144.0785941605559
 31
0.0
  0
LINE
  5
EF7C85501
330
EF7C85557
100
AcDbEntity
  8
0
 62
     0
100
AcDbLine
 10
31.59836342020071
 20
139.0785941605559
 30
0.0
 11
36.59836342020072
 21
144.0785941605559
 31
0.0
  0
LINE
  5
EF7C85502
330
EF7C85557
100
AcDbEntity
  8
0
 62
     0
100
AcDbLine
 10
28.76993629545451
 20
139.0785941605559
 30
0.0
 11
33.76993629545452
 21
144.0785941605559
 31
0.0
  0
LINE
  5
EF7C85503
330
EF7C85557
100
AcDbEntity
  8
0
 62
     0
100
AcDbLine
 10
25.94150917070832
 20
139.0785941605559
 30
0.0
 11
30.94150917070832
 21
144.0785941605559
 31
0.0
  0
LINE
  5
EF7C85504
330
EF7C85557
100
AcDbEntity
  8
0
 62
     0
100
AcDbLine
 10
24.20506654826371
 20
140.1705786628574
 30
0.0
 11
28.11308204596214
 21
144.0785941605559
 31
0.0
  0
LINE
  5
EF7C85505
330
EF7C85557
100
AcDbEntity
  8
0
 62
     0
100
AcDbLine
 10
22.72841915269601
 20
141.522358392036
 30
0.0
 11
25.28465492121595
 21
144.0785941605559
 31
0.0
  0
LINE
  5
EF7C85506
330
EF7C85557
100
AcDbEntity
  8
0
 62
     0
100
AcDbLine
 10
21.47523861350567
 20
143.0976049775918
 30
0.0
 11
22.45622779646976
 21
144.0785941605559
 31
0.0
  0
LINE
  5
EF7C85507
330
EF7C85557
100
AcDbEntity
  8
0
 62
     0
100
AcDbLine
 10
45.74049904393166
 20
139.0785941605559
 30
0.0
 11
50.74049904393167
 21
144.0785941605559
 31
0.0
  0
LINE
  5
EF7C85508
330
EF7C85557
100
AcDbEntity
  8
0
 62
     0
100
AcDbLine
 10
48.56892616867785
 20
139.0785941605559
 30
0.0
 11
53.56892616867786
 21
144.0785941605559
 31
0.0
  0
LINE
  5
EF7C85509
330
EF7C85557
100
AcDbEntity
  8
0
 62
     0
100
AcDbLine
 10
51.39735329342403
 20
139.0785941605559
 30
0.0
 11
56.39735329342404
 21
144.0785941605559
 31
0.0
  0
LINE
  5
EF7C8550A
330
EF7C85557
100
AcDbEntity
  8
0
 62
     0
100
AcDbLine
 10
54.22578041817022
 20
139.0785941605559
 30
0.0
 11
59.22578041817022
 21
144.0785941605559
 31
0.0
  0
LINE
  5
EF7C8550B
330
EF7C85557
100
AcDbEntity
  8
0
 62
     0
100
AcDbLine
 10
57.0542075429164
 20
139.0785941605559
 30
0.0
 11
62.05420754291642
 21
144.0785941605559
 31
0.0
  0
LINE
  5
EF7C8550C
330
EF7C85557
100
AcDbEntity
  8
0
 62
     0
100
AcDbLine
 10
59.8826346676626
 20
139.0785941605559
 30
0.0
 11
64.88263466766261
 21
144.0785941605559
 31
0.0
  0
LINE
  5
EF7C8550D
330
EF7C85557
100
AcDbEntity
  8
0
 62
     0
100
AcDbLine
 10
62.71106179240879
 20
139.0785941605559
 30
0.0
 11
65.0
 21
141.367532368147
 31
0.0
  0
ENDBLK
  5
EF7C8550E
330
EF7C85557
100
AcDbEntity
  8
0
100
AcDbBlockEnd
  0
BLOCK
  5
EF7C86B01
330
EF7C86AEF
100
AcDbEntity
  8
0
100
AcDbBlockBegin
  2
*X11
 70
     1
 10
0.0
 20
0.0
 30
0.0
  3
*X11
  1

  0
LINE
  5
EF7C86AF0
330
EF7C86AEF
100
AcDbEntity
  8
0
 62
     0
100
AcDbLine
 10
42.91207191918546
 20
139.0785941605559
 30
0.0
 11
47.91207191918546
 21
144.0785941605559
 31
0.0
  0
LINE
  5
EF7C86AF1
330
EF7C86AEF
100
AcDbEntity
  8
0
 62
     0
100
AcDbLine
 10
40.08364479443928
 20
139.0785941605559
 30
0.0
 11
45.08364479443929
 21
144.0785941605559
 31
0.0
  0
LINE
  5
EF7C86AF2
330
EF7C86AEF
100
AcDbEntity
  8
0
 62
     0
100
AcDbLine
 10
37.25521766969309
 20
139.0785941605559
 30
0.0
 11
42.25521766969309
 21
144.0785941605559
 31
0.0
  0
LINE
  5
EF7C86AF3
330
EF7C86AEF
100
AcDbEntity
  8
0
 62
     0
100
AcDbLine
 10
34.42679054494689
 20
139.0785941605559
 30
0.0
 11
39.42679054494689
 21
144.0785941605559
 31
0.0
  0
LINE
  5
EF7C86AF4
330
EF7C86AEF
100
AcDbEntity
  8
0
 62
     0
100
AcDbLine
 10
31.59836342020071
 20
139.0785941605559
 30
0.0
 11
36.59836342020072
 21
144.0785941605559
 31
0.0
  0
LINE
  5
EF7C86AF5
330
EF7C86AEF
100
AcDbEntity
  8
0
 62
     0
100
AcDbLine
 10
28.76993629545451
 20
139.0785941605559
 30
0.0
 11
33.76993629545452
 21
144.0785941605559
 31
0.0
  0
LINE
  5
EF7C86AF6
330
EF7C86AEF
100
AcDbEntity
  8
0
 62
     0
100
AcDbLine
 10
25.94150917070832
 20
139.0785941605559
 30
0.0
 11
30.94150917070832
 21
144.0785941605559
 31
0.0
  0
LINE
  5
EF7C86AF7
330
EF7C86AEF
100
AcDbEntity
  8
0
 62
     0
100
AcDbLine
 10
24.20506654826371
 20
140.1705786628574
 30
0.0
 11
28.11308204596214
 21
144.0785941605559
 31
0.0
  0
LINE
  5
EF7C86AF8
330
EF7C86AEF
100
AcDbEntity
  8
0
 62
     0
100
AcDbLine
 10
22.72841915269601
 20
141.522358392036
 30
0.0
 11
25.28465492121595
 21
144.0785941605559
 31
0.0
  0
LINE
  5
EF7C86AF9
330
EF7C86AEF
100
AcDbEntity
  8
0
 62
     0
100
AcDbLine
 10
21.47523861350567
 20
143.0976049775918
 30
0.0
 11
22.45622779646976
 21
144.0785941605559
 31
0.0
  0
LINE
  5
EF7C86AFA
330
EF7C86AEF
100
AcDbEntity
  8
0
 62
     0
100
AcDbLine
 10
45.74049904393166
 20
139.0785941605559
 30
0.0
 11
50.74049904393167
 21
144.0785941605559
 31
0.0
  0
LINE
  5
EF7C86AFB
330
EF7C86AEF
100
AcDbEntity
  8
0
 62
     0
100
AcDbLine
 10
48.56892616867785
 20
139.0785941605559
 30
0.0
 11
53.56892616867786
 21
144.0785941605559
 31
0.0
  0
LINE
  5
EF7C86AFC
330
EF7C86AEF
100
AcDbEntity
  8
0
 62
     0
100
AcDbLine
 10
51.39735329342403
 20
139.0785941605559
 30
0.0
 11
56.39735329342404
 21
144.0785941605559
 31
0.0
  0
LINE
  5
EF7C86AFD
330
EF7C86AEF
100
AcDbEntity
  8
0
 62
     0
100
AcDbLine
 10
54.22578041817022
 20
139.0785941605559
 30
0.0
 11
59.22578041817022
 21
144.0785941605559
 31
0.0
  0
LINE
  5
EF7C86AFE
330
EF7C86AEF
100
AcDbEntity
  8
0
 62
     0
100
AcDbLine
 10
57.0542075429164
 20
139.0785941605559
 30
0.0
 11
62.05420754291642
 21
144.0785941605559
 31
0.0
  0
LINE
  5
EF7C86AFF
330
EF7C86AEF
100
AcDbEntity
  8
0
 62
     0
100
AcDbLine
 10
59.8826346676626
 20
139.0785941605559
 30
0.0
 11
64.88263466766261
 21
144.0785941605559
 31
0.0
  0
LINE
  5
EF7C86B00
330
EF7C86AEF
100
AcDbEntity
  8
0
 62
     0
100
AcDbLine
 10
62.71106179240879
 20
139.0785941605559
 30
0.0
 11
65.0
 21
141.367532368147
 31
0.0
  0
ENDBLK
  5
EF7C86B02
330
EF7C86AEF
100
AcDbEntity
  8
0
100
AcDbBlockEnd
  0
ENDSEC
  0
SECTION
  2
ENTITIES
  0
TEXT
  5
1
330
EF7C85532
100
AcDbEntity
  8
SUNPOU
100
AcDbText
 10
95.05869565217388
 20
43.7966872748706
 30
0.0
 40
1.5
  1
                          
100
AcDbText
  0
TEXT
  5
2
330
EF7C85532
100
AcDbEntity
  8
SUNPOU
100
AcDbText
 10
332.2793466870868
 20
21.8983436374353
 30
0.0
 40
0.75
  1
                          
100
AcDbText
  0
TEXT
  5
1A
330
EF7C85532
100
AcDbEntity
  8
SUNPOU
100
AcDbText
 10
289.9834441000535
 20
43.7966872748706
 30
0.0
 40
1.5
  1
                          
100
AcDbText
  0
TEXT
  5
1B
330
EF7C85532
100
AcDbEntity
  8
SUNPOU
100
AcDbText
 10
527.2040951349664
 20
21.8983436374353
 30
0.0
 40
0.75
  1
                          
100
AcDbText
  0
TEXT
  5
1C
330
EF7C85532
100
AcDbEntity
  8
SUNPOU
100
AcDbText
 10
490.6272568090836
 20
43.79668727487056
 30
0.0
 40
1.5
  1
                          
100
AcDbText
  0
TEXT
  5
1D
330
EF7C85532
100
AcDbEntity
  8
SUNPOU
100
AcDbText
 10
727.8479078439966
 20
21.89834363743526
 30
0.0
 40
0.75
  1
                          
100
AcDbText
  0
INSERT
  5
1E
330
EF7C85532
100
AcDbEntity
  8
HATCH
100
AcDbBlockReference
  2
*X2
 10
194.9247484478796
 20
0.0
 30
0.0
  0
TEXT
  5
1F
330
EF7C85532
100
AcDbEntity
  8
SUNPOU
100
AcDbText
 10
493.0101992368963
 20
43.7966872748706
 30
0.0
 40
1.5
  1
                          
100
AcDbText
  0
TEXT
  5
20
330
EF7C85532
100
AcDbEntity
  8
SUNPOU
100
AcDbText
 10
730.2308502718093
 20
21.8983436374353
 30
0.0
 40
0.75
  1
                          
100
AcDbText
  0
TEXT
  5
21
330
EF7C85532
100
AcDbEntity
  8
SUNPOU
100
AcDbText
 10
482.0486607753578
 20
43.7966872748706
 30
0.0
 40
1.5
  1
                          
100
AcDbText
  0
TEXT
  5
22
330
EF7C85532
100
AcDbEntity
  8
SUNPOU
100
AcDbText
 10
719.269311810271
 20
21.8983436374353
 30
0.0
 40
0.75
  1
                          
100
AcDbText
  0
INSERT
  5
25
330
EF7C85532
100
AcDbEntity
  8
JISSEN
100
AcDbBlockReference
  2
STDGX5
 10
0.0
 20
0.0
 30
0.0
  0
TEXT
  5
60
330
EF7C85532
100
AcDbEntity
  8
SUNPOU
100
AcDbText
 10
274.0586949361738
 20
43.7966872748706
 30
0.0
 40
1.5
  1
                          
100
AcDbText
  0
TEXT
  5
61
330
EF7C85532
100
AcDbEntity
  8
SUNPOU
100
AcDbText
 10
511.2793459710869
 20
21.8983436374353
 30
0.0
 40
0.75
  1
                          
100
AcDbText
  0
TEXT
  5
62
330
EF7C85532
100
AcDbEntity
  8
SUNPOU
100
AcDbText
 10
474.702507645204
 20
43.79668727487056
 30
0.0
 40
1.5
  1
                          
100
AcDbText
  0
TEXT
  5
63
330
EF7C85532
100
AcDbEntity
  8
SUNPOU
100
AcDbText
 10
711.923158680117
 20
21.89834363743526
 30
0.0
 40
0.75
  1
                          
100
AcDbText
  0
INSERT
  5
64
330
EF7C85532
100
AcDbEntity
  8
HATCH
100
AcDbBlockReference
  2
*X4
 10
178.999999284
 20
0.0
 30
0.0
  0
TEXT
  5
65
330
EF7C85532
100
AcDbEntity
  8
SUNPOU
100
AcDbText
 10
477.0854500730166
 20
43.7966872748706
 30
0.0
 40
1.5
  1
                          
100
AcDbText
  0
TEXT
  5
66
330
EF7C85532
100
AcDbEntity
  8
SUNPOU
100
AcDbText
 10
714.3061011079296
 20
21.8983436374353
 30
0.0
 40
0.75
  1
                          
100
AcDbText
  0
TEXT
  5
67
330
EF7C85532
100
AcDbEntity
  8
SUNPOU
100
AcDbText
 10
466.1239116114783
 20
43.7966872748706
 30
0.0
 40
1.5
  1
                          
100
AcDbText
  0
TEXT
  5
68
330
EF7C85532
100
AcDbEntity
  8
SUNPOU
100
AcDbText
 10
703.3445626463913
 20
21.8983436374353
 30
0.0
 40
0.75
  1
                          
100
AcDbText
  0
INSERT
  5
69
330
EF7C85532
100
AcDbEntity
  8
TEXT
100
AcDbBlockReference
  2
STDGX5
 10
178.999999284
 20
0.0
 30
0.0
  0
TEXT
  5
6A
330
EF7C85532
100
AcDbEntity
  8
SUNPOU
100
AcDbText
 10
453.0586949361739
 20
43.7966872748706
 30
0.0
 40
1.5
  1
                          
100
AcDbText
  0
TEXT
  5
6B
330
EF7C85532
100
AcDbEntity
  8
SUNPOU
100
AcDbText
 10
690.2793459710871
 20
21.8983436374353
 30
0.0
 40
0.75
  1
                          
100
AcDbText
  0
TEXT
  5
6C
330
EF7C85532
100
AcDbEntity
  8
SUNPOU
100
AcDbText
 10
647.9834433840535
 20
43.7966872748706
 30
0.0
 40
1.5
  1
                          
100
AcDbText
  0
TEXT
  5
6D
330
EF7C85532
100
AcDbEntity
  8
SUNPOU
100
AcDbText
 10
885.2040944189665
 20
21.8983436374353
 30
0.0
 40
0.75
  1
                          
100
AcDbText
  0
TEXT
  5
6E
330
EF7C85532
100
AcDbEntity
  8
SUNPOU
100
AcDbText
 10
848.6272560930835
 20
43.79668727487056
 30
0.0
 40
1.5
  1
                          
100
AcDbText
  0
TEXT
  5
6F
330
EF7C85532
100
AcDbEntity
  8
SUNPOU
100
AcDbText
 10
1085.847907127996
 20
21.89834363743526
 30
0.0
 40
0.75
  1
                          
100
AcDbText
  0
INSERT
  5
70
330
EF7C85532
100
AcDbEntity
  8
HATCH
100
AcDbBlockReference
  2
*X5
 10
552.9247477318796
 20
0.0
 30
0.0
  0
TEXT
  5
71
330
EF7C85532
100
AcDbEntity
  8
SUNPOU
100
AcDbText
 10
851.0101985208963
 20
43.7966872748706
 30
0.0
 40
1.5
  1
                          
100
AcDbText
  0
TEXT
  5
72
330
EF7C85532
100
AcDbEntity
  8
SUNPOU
100
AcDbText
 10
1088.230849555809
 20
21.8983436374353
 30
0.0
 40
0.75
  1
                          
100
AcDbText
  0
TEXT
  5
73
330
EF7C85532
100
AcDbEntity
  8
SUNPOU
100
AcDbText
 10
840.048660059358
 20
43.7966872748706
 30
0.0
 40
1.5
  1
                          
100
AcDbText
  0
TEXT
  5
74
330
EF7C85532
100
AcDbEntity
  8
SUNPOU
100
AcDbText
 10
1077.269311094271
 20
21.8983436374353
 30
0.0
 40
0.75
  1
                          
100
AcDbText
  0
INSERT
  5
75
330
EF7C85532
100
AcDbEntity
  8
JISSEN
100
AcDbBlockReference
  2
STDGX5
 10
357.999999284
 20
0.0
 30
0.0
  0
TEXT
  5
76
330
EF7C85532
100
AcDbEntity
  8
SUNPOU
100
AcDbText
 10
453.0586949361739
 20
43.7966872748706
 30
0.0
 40
1.5
  1
                          
100
AcDbText
  0
TEXT
  5
77
330
EF7C85532
100
AcDbEntity
  8
SUNPOU
100
AcDbText
 10
690.2793459710871
 20
21.8983436374353
 30
0.0
 40
0.75
  1
                          
100
AcDbText
  0
TEXT
  5
78
330
EF7C85532
100
AcDbEntity
  8
SUNPOU
100
AcDbText
 10
647.9834433840535
 20
43.7966872748706
 30
0.0
 40
1.5
  1
                          
100
AcDbText
  0
TEXT
  5
79
330
EF7C85532
100
AcDbEntity
  8
SUNPOU
100
AcDbText
 10
885.2040944189665
 20
21.8983436374353
 30
0.0
 40
0.75
  1
                          
100
AcDbText
  0
TEXT
  5
7A
330
EF7C85532
100
AcDbEntity
  8
SUNPOU
100
AcDbText
 10
848.6272560930835
 20
43.79668727487056
 30
0.0
 40
1.5
  1
                          
100
AcDbText
  0
TEXT
  5
7B
330
EF7C85532
100
AcDbEntity
  8
SUNPOU
100
AcDbText
 10
1085.847907127996
 20
21.89834363743526
 30
0.0
 40
0.75
  1
                          
100
AcDbText
  0
INSERT
  5
7C
330
EF7C85532
100
AcDbEntity
  8
HATCH
100
AcDbBlockReference
  2
*X6
 10
552.9247477318796
 20
0.0
 30
0.0
  0
TEXT
  5
7D
330
EF7C85532
100
AcDbEntity
  8
SUNPOU
100
AcDbText
 10
851.0101985208963
 20
43.7966872748706
 30
0.0
 40
1.5
  1
                          
100
AcDbText
  0
TEXT
  5
7E
330
EF7C85532
100
AcDbEntity
  8
SUNPOU
100
AcDbText
 10
1088.230849555809
 20
21.8983436374353
 30
0.0
 40
0.75
  1
                          
100
AcDbText
  0
TEXT
  5
7F
330
EF7C85532
100
AcDbEntity
  8
SUNPOU
100
AcDbText
 10
840.048660059358
 20
43.7966872748706
 30
0.0
 40
1.5
  1
                          
100
AcDbText
  0
TEXT
  5
80
330
EF7C85532
100
AcDbEntity
  8
SUNPOU
100
AcDbText
 10
1077.269311094271
 20
21.8983436374353
 30
0.0
 40
0.75
  1
                          
100
AcDbText
  0
INSERT
  5
81
330
EF7C85532
100
AcDbEntity
  8
JISSEN
100
AcDbBlockReference
  2
STDGX5
 10
357.999999284
 20
0.0
 30
0.0
  0
TEXT
  5
82
330
EF7C85532
100
AcDbEntity
  8
SUNPOU
100
AcDbText
 10
632.0586942201738
 20
43.7966872748706
 30
0.0
 40
1.5
  1
                          
100
AcDbText
  0
TEXT
  5
83
330
EF7C85532
100
AcDbEntity
  8
SUNPOU
100
AcDbText
 10
869.2793452550871
 20
21.8983436374353
 30
0.0
 40
0.75
  1
                          
100
AcDbText
  0
TEXT
  5
84
330
EF7C85532
100
AcDbEntity
  8
SUNPOU
100
AcDbText
 10
826.9834426680533
 20
43.7966872748706
 30
0.0
 40
1.5
  1
                          
100
AcDbText
  0
TEXT
  5
85
330
EF7C85532
100
AcDbEntity
  8
SUNPOU
100
AcDbText
 10
1064.204093702966
 20
21.8983436374353
 30
0.0
 40
0.75
  1
                          
100
AcDbText
  0
TEXT
  5
86
330
EF7C85532
100
AcDbEntity
  8
SUNPOU
100
AcDbText
 10
1027.627255377083
 20
43.79668727487056
 30
0.0
 40
1.5
  1
                          
100
AcDbText
  0
TEXT
  5
87
330
EF7C85532
100
AcDbEntity
  8
SUNPOU
100
AcDbText
 10
1264.847906411996
 20
21.89834363743526
 30
0.0
 40
0.75
  1
                          
100
AcDbText
  0
INSERT
  5
88
330
EF7C85532
100
AcDbEntity
  8
HATCH
100
AcDbBlockReference
  2
*X7
 10
731.9247470158797
 20
0.0
 30
0.0
  0
TEXT
  5
89
330
EF7C85532
100
AcDbEntity
  8
SUNPOU
100
AcDbText
 10
1030.010197804895
 20
43.7966872748706
 30
0.0
 40
1.5
  1
                          
100
AcDbText
  0
TEXT
  5
8A
330
EF7C85532
100
AcDbEntity
  8
SUNPOU
100
AcDbText
 10
1267.230848839808
 20
21.8983436374353
 30
0.0
 40
0.75
  1
                          
100
AcDbText
  0
TEXT
  5
8B
330
EF7C85532
100
AcDbEntity
  8
SUNPOU
100
AcDbText
 10
1019.048659343358
 20
43.7966872748706
 30
0.0
 40
1.5
  1
                          
100
AcDbText
  0
TEXT
  5
8C
330
EF7C85532
100
AcDbEntity
  8
SUNPOU
100
AcDbText
 10
1256.269310378271
 20
21.8983436374353
 30
0.0
 40
0.75
  1
                          
100
AcDbText
  0
INSERT
  5
8D
330
EF7C85532
100
AcDbEntity
  8
JISSEN
100
AcDbBlockReference
  2
STDGX5
 10
536.999998568
 20
0.0
 30
0.0
  0
INSERT
  5
8E
330
EF7C85532
100
AcDbEntity
  8
SUNPOU
100
AcDbBlockReference
  2
STDGX5
 10
739.0804232644236
 20
50.83533235670902
 30
0.0
 41
0.5
 42
0.5
 43
0.5
  0
INSERT
  5
8F
330
EF7C85532
100
AcDbEntity
  8
SUNPOU
100
AcDbBlockReference
  2
STDGX5
 10
726.2208210623692
 20
105.0763138619288
 30
0.0
 41
0.5
 42
0.5
 43
0.5
  0
INSERT
  5
90
330
EF7C85532
100
AcDbEntity
  8
HATCH
100
AcDbBlockReference
  2
STDGX5
 10
852.3985550581901
 20
151.7065097967401
 30
0.0
 41
0.5
 42
0.5
 43
0.5
  0
INSERT
  5
91
330
EF7C85532
100
AcDbEntity
  8
HATCH
100
AcDbBlockReference
  2
STDGX5
 10
866.6806796277283
 20
102.7017487639612
 30
0.0
 41
0.5
 42
0.5
 43
0.5
  0
INSERT
  5
92
330
EF7C85532
100
AcDbEntity
  8
TEXT
100
AcDbBlockReference
  2
STDGX5
 10
970.3434408521969
 20
102.8213468229236
 30
0.0
 41
0.5
 42
0.5
 43
0.5
  0
INSERT
  5
93
330
EF7C85532
100
AcDbEntity
  8
SUNPOU
100
AcDbBlockReference
  2
STDGX5
 10
996.1728907397867
 20
174.5475645486173
 30
0.0
 41
0.5
 42
0.5
 43
0.5
  0
INSERT
  5
94
330
EF7C85532
100
AcDbEntity
  8
TEXT
100
AcDbBlockReference
  2
STDGX5
 10
725.7513886810995
 20
124.5860190441302
 30
0.0
 41
0.5
 42
0.5
 43
0.5
  0
INSERT
  5
95
330
EF7C85532
100
AcDbEntity
  8
HATCH
100
AcDbBlockReference
  2
STDGX5
 10
777.1755722656421
 20
145.5222028932424
 30
0.0
 41
0.5
 42
0.5
 43
0.5
  0
INSERT
  5
96
330
EF7C85532
100
AcDbEntity
  8
SUNPOU
100
AcDbBlockReference
  2
STDGX5
 10
846.1963575359604
 20
112.6957974729892
 30
0.0
 41
0.5
 42
0.5
 43
0.5
  0
INSERT
  5
97
330
EF7C85532
100
AcDbEntity
  8
SUNPOU
100
AcDbBlockReference
  2
STDGX5
 10
916.6681156211122
 20
121.7330617103084
 30
0.0
 41
0.5
 42
0.5
 43
0.5
  0
INSERT
  5
98
330
EF7C85532
100
AcDbEntity
  8
TEXT
100
AcDbBlockReference
  2
STDGX5
 10
983.7969461426766
 20
84.61852224867081
 30
0.0
 41
0.5
 42
0.5
 43
0.5
  0
INSERT
  5
99
330
EF7C85532
100
AcDbEntity
  8
HATCH
100
AcDbBlockReference
  2
STDGX5
 10
974.2802715042101
 20
136.484938655923
 30
0.0
 41
0.5
 42
0.5
 43
0.5
  0
INSERT
  5
9A
330
EF7C85532
100
AcDbEntity
  8
SUNPOU
100
AcDbBlockReference
  2
STDGX5
 10
749.7834008663488
 20
95.14721172234004
 30
0.0
 41
0.5
 42
0.5
 43
0.5
  0
INSERT
  5
9B
330
EF7C85532
100
AcDbEntity
  8
SUNPOU
100
AcDbBlockReference
  2
STDGX5
 10
736.9237986642947
 20
149.3881932275598
 30
0.0
 41
0.5
 42
0.5
 43
0.5
  0
INSERT
  5
9C
330
EF7C85532
100
AcDbEntity
  8
HATCH
100
AcDbBlockReference
  2
STDGX5
 10
863.1015326601156
 20
196.0183891623711
 30
0.0
 41
0.5
 42
0.5
 43
0.5
  0
INSERT
  5
9D
330
EF7C85532
100
AcDbEntity
  8
HATCH
100
AcDbBlockReference
  2
STDGX5
 10
877.3836572296538
 20
147.0136281295922
 30
0.0
 41
0.5
 42
0.5
 43
0.5
  0
INSERT
  5
9E
330
EF7C85532
100
AcDbEntity
  8
TEXT
100
AcDbBlockReference
  2
STDGX5
 10
981.0464184541222
 20
147.1332261885546
 30
0.0
 41
0.5
 42
0.5
 43
0.5
  0
INSERT
  5
9F
330
EF7C85532
100
AcDbEntity
  8
SUNPOU
100
AcDbBlockReference
  2
STDGX5
 10
1006.875868341712
 20
218.8594439142483
 30
0.0
 41
0.5
 42
0.5
 43
0.5
  0
INSERT
  5
A0
330
EF7C85532
100
AcDbEntity
  8
TEXT
100
AcDbBlockReference
  2
STDGX5
 10
736.454366283025
 20
168.8978984097611
 30
0.0
 41
0.5
 42
0.5
 43
0.5
  0
INSERT
  5
A1
330
EF7C85532
100
AcDbEntity
  8
HATCH
100
AcDbBlockReference
  2
STDGX5
 10
787.8785498675677
 20
189.8340822588734
 30
0.0
 41
0.5
 42
0.5
 43
0.5
  0
INSERT
  5
A2
330
EF7C85532
100
AcDbEntity
  8
SUNPOU
100
AcDbBlockReference
  2
STDGX5
 10
856.899335137886
 20
157.0076768386202
 30
0.0
 41
0.5
 42
0.5
 43
0.5
  0
INSERT
  5
A3
330
EF7C85532
100
AcDbEntity
  8
SUNPOU
100
AcDbBlockReference
  2
STDGX5
 10
927.3710932230379
 20
166.0449410759395
 30
0.0
 41
0.5
 42
0.5
 43
0.5
  0
INSERT
  5
A4
330
EF7C85532
100
AcDbEntity
  8
TEXT
100
AcDbBlockReference
  2
STDGX5
 10
994.4999237446024
 20
128.9304016143017
 30
0.0
 41
0.5
 42
0.5
 43
0.5
  0
INSERT
  5
A5
330
EF7C85532
100
AcDbEntity
  8
HATCH
100
AcDbBlockReference
  2
STDGX5
 10
984.9832491061354
 20
180.7968180215541
 30
0.0
 41
0.5
 42
0.5
 43
0.5
  0
TEXT
  5
DE
330
EF7C85532
100
AcDbEntity
  8
SUNPOU
100
AcDbText
 10
274.0586949361738
 20
43.7966872748706
 30
0.0
 40
1.5
  1
                          
100
AcDbText
  0
TEXT
  5
145
330
EF7C85532
100
AcDbEntity
  8
SUNPOU
100
AcDbText
 10
511.2793459710869
 20
21.8983436374353
 30
0.0
 40
0.75
  1
                          
100
AcDbText
  0
TEXT
  5
265
330
EF7C85532
100
AcDbEntity
  8
SUNPOU
100
AcDbText
 10
474.702507645204
 20
43.79668727487056
 30
0.0
 40
1.5
  1
                          
100
AcDbText
  0
TEXT
  5
266
330
EF7C85532
100
AcDbEntity
  8
SUNPOU
100
AcDbText
 10
711.923158680117
 20
21.89834363743526
 30
0.0
 40
0.75
  1
                          
100
AcDbText
  0
INSERT
  5
2F7
330
EF7C85532
100
AcDbEntity
  8
HATCH
100
AcDbBlockReference
  2
*X4
 10
178.999999284
 20
0.0
 30
0.0
  0
TEXT
  5
31A
330
EF7C85532
100
AcDbEntity
  8
SUNPOU
100
AcDbText
 10
477.0854500730166
 20
43.7966872748706
 30
0.0
 40
1.5
  1
                          
100
AcDbText
  0
TEXT
  5
31C
330
EF7C85532
100
AcDbEntity
  8
SUNPOU
100
AcDbText
 10
714.3061011079296
 20
21.8983436374353
 30
0.0
 40
0.75
  1
                          
100
AcDbText
  0
TEXT
  5
3A6
330
EF7C85532
100
AcDbEntity
  8
TEXT
100
AcDbText
 10
100.9999992839998
 20
244.9999999999999
 30
0.0
 40
3.0
  1
 
  7
K
100
AcDbText
  0
TEXT
  5
3AB
330
EF7C85532
100
AcDbEntity
  8
SUNPOU
100
AcDbText
 10
466.1239116114783
 20
43.7966872748706
 30
0.0
 40
1.5
  1
                          
100
AcDbText
  0
TEXT
  5
3AC
330
EF7C85532
100
AcDbEntity
  8
SUNPOU
100
AcDbText
 10
703.3445626463913
 20
21.8983436374353
 30
0.0
 40
0.75
  1
                          
100
AcDbText
  0
INSERT
  5
3F6
330
EF7C85532
100
AcDbEntity
  8
TEXT
100
AcDbBlockReference
  2
STDGX5
 10
178.999999284
 20
0.0
 30
0.0
  0
TEXT
  5
3F7
330
EF7C85532
100
AcDbEntity
  8
SUNPOU
100
AcDbText
 10
453.0586949361739
 20
43.7966872748706
 30
0.0
 40
1.5
  1
                          
100
AcDbText
  0
TEXT
  5
3F8
330
EF7C85532
100
AcDbEntity
  8
SUNPOU
100
AcDbText
 10
690.2793459710871
 20
21.8983436374353
 30
0.0
 40
0.75
  1
                          
100
AcDbText
  0
TEXT
  5
3F9
330
EF7C85532
100
AcDbEntity
  8
SUNPOU
100
AcDbText
 10
647.9834433840535
 20
43.7966872748706
 30
0.0
 40
1.5
  1
                          
100
AcDbText
  0
TEXT
  5
3FA
330
EF7C85532
100
AcDbEntity
  8
SUNPOU
100
AcDbText
 10
885.2040944189665
 20
21.8983436374353
 30
0.0
 40
0.75
  1
                          
100
AcDbText
  0
TEXT
  5
3FB
330
EF7C85532
100
AcDbEntity
  8
SUNPOU
100
AcDbText
 10
848.6272560930835
 20
43.79668727487056
 30
0.0
 40
1.5
  1
                          
100
AcDbText
  0
TEXT
  5
3FC
330
EF7C85532
100
AcDbEntity
  8
SUNPOU
100
AcDbText
 10
1085.847907127996
 20
21.89834363743526
 30
0.0
 40
0.75
  1
                          
100
AcDbText
  0
INSERT
  5
3FD
330
EF7C85532
100
AcDbEntity
  8
HATCH
100
AcDbBlockReference
  2
*X5
 10
552.9247477318796
 20
0.0
 30
0.0
  0
TEXT
  5
3FE
330
EF7C85532
100
AcDbEntity
  8
SUNPOU
100
AcDbText
 10
851.0101985208963
 20
43.7966872748706
 30
0.0
 40
1.5
  1
                          
100
AcDbText
  0
TEXT
  5
3FF
330
EF7C85532
100
AcDbEntity
  8
SUNPOU
100
AcDbText
 10
1088.230849555809
 20
21.8983436374353
 30
0.0
 40
0.75
  1
                          
100
AcDbText
  0
TEXT
  5
400
330
EF7C85532
100
AcDbEntity
  8
SUNPOU
100
AcDbText
 10
840.048660059358
 20
43.7966872748706
 30
0.0
 40
1.5
  1
                          
100
AcDbText
  0
TEXT
  5
401
330
EF7C85532
100
AcDbEntity
  8
SUNPOU
100
AcDbText
 10
1077.269311094271
 20
21.8983436374353
 30
0.0
 40
0.75
  1
                          
100
AcDbText
  0
INSERT
  5
402
330
EF7C85532
100
AcDbEntity
  8
JISSEN
100
AcDbBlockReference
  2
STDGX5
 10
357.999999284
 20
0.0
 30
0.0
  0
TEXT
  5
409
330
EF7C85532
100
AcDbEntity
  8
SUNPOU
100
AcDbText
 10
453.0586949361739
 20
43.7966872748706
 30
0.0
 40
1.5
  1
                          
100
AcDbText
  0
TEXT
  5
40A
330
EF7C85532
100
AcDbEntity
  8
SUNPOU
100
AcDbText
 10
690.2793459710871
 20
21.8983436374353
 30
0.0
 40
0.75
  1
                          
100
AcDbText
  0
TEXT
  5
41B
330
EF7C85532
100
AcDbEntity
  8
SUNPOU
100
AcDbText
 10
647.9834433840535
 20
43.7966872748706
 30
0.0
 40
1.5
  1
                          
100
AcDbText
  0
TEXT
  5
41C
330
EF7C85532
100
AcDbEntity
  8
SUNPOU
100
AcDbText
 10
885.2040944189665
 20
21.8983436374353
 30
0.0
 40
0.75
  1
                          
100
AcDbText
  0
TEXT
  5
41D
330
EF7C85532
100
AcDbEntity
  8
SUNPOU
100
AcDbText
 10
848.6272560930835
 20
43.79668727487056
 30
0.0
 40
1.5
  1
                          
100
AcDbText
  0
TEXT
  5
41E
330
EF7C85532
100
AcDbEntity
  8
SUNPOU
100
AcDbText
 10
1085.847907127996
 20
21.89834363743526
 30
0.0
 40
0.75
  1
                          
100
AcDbText
  0
INSERT
  5
41F
330
EF7C85532
100
AcDbEntity
  8
HATCH
100
AcDbBlockReference
  2
*X6
 10
552.9247477318796
 20
0.0
 30
0.0
  0
TEXT
  5
420
330
EF7C85532
100
AcDbEntity
  8
SUNPOU
100
AcDbText
 10
851.0101985208963
 20
43.7966872748706
 30
0.0
 40
1.5
  1
                          
100
AcDbText
  0
TEXT
  5
421
330
EF7C85532
100
AcDbEntity
  8
SUNPOU
100
AcDbText
 10
1088.230849555809
 20
21.8983436374353
 30
0.0
 40
0.75
  1
                          
100
AcDbText
  0
TEXT
  5
422
330
EF7C85532
100
AcDbEntity
  8
SUNPOU
100
AcDbText
 10
840.048660059358
 20
43.7966872748706
 30
0.0
 40
1.5
  1
                          
100
AcDbText
  0
TEXT
  5
423
330
EF7C85532
100
AcDbEntity
  8
SUNPOU
100
AcDbText
 10
1077.269311094271
 20
21.8983436374353
 30
0.0
 40
0.75
  1
                          
100
AcDbText
  0
INSERT
  5
424
330
EF7C85532
100
AcDbEntity
  8
JISSEN
100
AcDbBlockReference
  2
STDGX5
 10
357.999999284
 20
0.0
 30
0.0
  0
TEXT
  5
425
330
EF7C85532
100
AcDbEntity
  8
SUNPOU
100
AcDbText
 10
632.0586942201738
 20
43.7966872748706
 30
0.0
 40
1.5
  1
                          
100
AcDbText
  0
TEXT
  5
426
330
EF7C85532
100
AcDbEntity
  8
SUNPOU
100
AcDbText
 10
869.2793452550871
 20
21.8983436374353
 30
0.0
 40
0.75
  1
                          
100
AcDbText
  0
TEXT
  5
427
330
EF7C85532
100
AcDbEntity
  8
SUNPOU
100
AcDbText
 10
826.9834426680533
 20
43.7966872748706
 30
0.0
 40
1.5
  1
                          
100
AcDbText
  0
TEXT
  5
428
330
EF7C85532
100
AcDbEntity
  8
SUNPOU
100
AcDbText
 10
1064.204093702966
 20
21.8983436374353
 30
0.0
 40
0.75
  1
                          
100
AcDbText
  0
TEXT
  5
429
330
EF7C85532
100
AcDbEntity
  8
SUNPOU
100
AcDbText
 10
1027.627255377083
 20
43.79668727487056
 30
0.0
 40
1.5
  1
                          
100
AcDbText
  0
TEXT
  5
42A
330
EF7C85532
100
AcDbEntity
  8
SUNPOU
100
AcDbText
 10
1264.847906411996
 20
21.89834363743526
 30
0.0
 40
0.75
  1
                          
100
AcDbText
  0
INSERT
  5
42B
330
EF7C85532
100
AcDbEntity
  8
HATCH
100
AcDbBlockReference
  2
*X7
 10
731.9247470158797
 20
0.0
 30
0.0
  0
TEXT
  5
42C
330
EF7C85532
100
AcDbEntity
  8
SUNPOU
100
AcDbText
 10
1030.010197804895
 20
43.7966872748706
 30
0.0
 40
1.5
  1
                          
100
AcDbText
  0
TEXT
  5
42D
330
EF7C85532
100
AcDbEntity
  8
SUNPOU
100
AcDbText
 10
1267.230848839808
 20
21.8983436374353
 30
0.0
 40
0.75
  1
                          
100
AcDbText
  0
TEXT
  5
42E
330
EF7C85532
100
AcDbEntity
  8
SUNPOU
100
AcDbText
 10
1019.048659343358
 20
43.7966872748706
 30
0.0
 40
1.5
  1
                          
100
AcDbText
  0
TEXT
  5
42F
330
EF7C85532
100
AcDbEntity
  8
SUNPOU
100
AcDbText
 10
1256.269310378271
 20
21.8983436374353
 30
0.0
 40
0.75
  1
                          
100
AcDbText
  0
INSERT
  5
430
330
EF7C85532
100
AcDbEntity
  8
JISSEN
100
AcDbBlockReference
  2
STDGX5
 10
536.999998568
 20
0.0
 30
0.0
  0
INSERT
  5
43B
330
EF7C85532
100
AcDbEntity
  8
SUNPOU
100
AcDbBlockReference
  2
STDGX5
 10
739.0804232644236
 20
50.83533235670902
 30
0.0
 41
0.5
 42
0.5
 43
0.5
  0
INSERT
  5
43C
330
EF7C85532
100
AcDbEntity
  8
SUNPOU
100
AcDbBlockReference
  2
STDGX5
 10
726.2208210623692
 20
105.0763138619288
 30
0.0
 41
0.5
 42
0.5
 43
0.5
  0
INSERT
  5
43D
330
EF7C85532
100
AcDbEntity
  8
HATCH
100
AcDbBlockReference
  2
STDGX5
 10
852.3985550581901
 20
151.7065097967401
 30
0.0
 41
0.5
 42
0.5
 43
0.5
  0
INSERT
  5
43E
330
EF7C85532
100
AcDbEntity
  8
HATCH
100
AcDbBlockReference
  2
STDGX5
 10
866.6806796277283
 20
102.7017487639612
 30
0.0
 41
0.5
 42
0.5
 43
0.5
  0
INSERT
  5
43F
330
EF7C85532
100
AcDbEntity
  8
TEXT
100
AcDbBlockReference
  2
STDGX5
 10
970.3434408521969
 20
102.8213468229236
 30
0.0
 41
0.5
 42
0.5
 43
0.5
  0
INSERT
  5
440
330
EF7C85532
100
AcDbEntity
  8
SUNPOU
100
AcDbBlockReference
  2
STDGX5
 10
996.1728907397867
 20
174.5475645486173
 30
0.0
 41
0.5
 42
0.5
 43
0.5
  0
INSERT
  5
441
330
EF7C85532
100
AcDbEntity
  8
TEXT
100
AcDbBlockReference
  2
STDGX5
 10
725.7513886810995
 20
124.5860190441302
 30
0.0
 41
0.5
 42
0.5
 43
0.5
  0
INSERT
  5
442
330
EF7C85532
100
AcDbEntity
  8
HATCH
100
AcDbBlockReference
  2
STDGX5
 10
777.1755722656421
 20
145.5222028932424
 30
0.0
 41
0.5
 42
0.5
 43
0.5
  0
INSERT
  5
443
330
EF7C85532
100
AcDbEntity
  8
SUNPOU
100
AcDbBlockReference
  2
STDGX5
 10
846.1963575359604
 20
112.6957974729892
 30
0.0
 41
0.5
 42
0.5
 43
0.5
  0
INSERT
  5
444
330
EF7C85532
100
AcDbEntity
  8
SUNPOU
100
AcDbBlockReference
  2
STDGX5
 10
916.6681156211122
 20
121.7330617103084
 30
0.0
 41
0.5
 42
0.5
 43
0.5
  0
INSERT
  5
445
330
EF7C85532
100
AcDbEntity
  8
TEXT
100
AcDbBlockReference
  2
STDGX5
 10
983.7969461426766
 20
84.61852224867081
 30
0.0
 41
0.5
 42
0.5
 43
0.5
  0
INSERT
  5
446
330
EF7C85532
100
AcDbEntity
  8
HATCH
100
AcDbBlockReference
  2
STDGX5
 10
974.2802715042101
 20
136.484938655923
 30
0.0
 41
0.5
 42
0.5
 43
0.5
  0
INSERT
  5
447
330
EF7C85532
100
AcDbEntity
  8
SUNPOU
100
AcDbBlockReference
  2
STDGX5
 10
749.7834008663488
 20
95.14721172234004
 30
0.0
 41
0.5
 42
0.5
 43
0.5
  0
INSERT
  5
448
330
EF7C85532
100
AcDbEntity
  8
SUNPOU
100
AcDbBlockReference
  2
STDGX5
 10
736.9237986642947
 20
149.3881932275598
 30
0.0
 41
0.5
 42
0.5
 43
0.5
  0
INSERT
  5
449
330
EF7C85532
100
AcDbEntity
  8
HATCH
100
AcDbBlockReference
  2
STDGX5
 10
863.1015326601156
 20
196.0183891623711
 30
0.0
 41
0.5
 42
0.5
 43
0.5
  0
INSERT
  5
44A
330
EF7C85532
100
AcDbEntity
  8
HATCH
100
AcDbBlockReference
  2
STDGX5
 10
877.3836572296538
 20
147.0136281295922
 30
0.0
 41
0.5
 42
0.5
 43
0.5
  0
INSERT
  5
44B
330
EF7C85532
100
AcDbEntity
  8
TEXT
100
AcDbBlockReference
  2
STDGX5
 10
981.0464184541222
 20
147.1332261885546
 30
0.0
 41
0.5
 42
0.5
 43
0.5
  0
INSERT
  5
44C
330
EF7C85532
100
AcDbEntity
  8
SUNPOU
100
AcDbBlockReference
  2
STDGX5
 10
1006.875868341712
 20
218.8594439142483
 30
0.0
 41
0.5
 42
0.5
 43
0.5
  0
INSERT
  5
44D
330
EF7C85532
100
AcDbEntity
  8
TEXT
100
AcDbBlockReference
  2
STDGX5
 10
736.454366283025
 20
168.8978984097611
 30
0.0
 41
0.5
 42
0.5
 43
0.5
  0
INSERT
  5
44E
330
EF7C85532
100
AcDbEntity
  8
HATCH
100
AcDbBlockReference
  2
STDGX5
 10
787.8785498675677
 20
189.8340822588734
 30
0.0
 41
0.5
 42
0.5
 43
0.5
  0
INSERT
  5
44F
330
EF7C85532
100
AcDbEntity
  8
SUNPOU
100
AcDbBlockReference
  2
STDGX5
 10
856.899335137886
 20
157.0076768386202
 30
0.0
 41
0.5
 42
0.5
 43
0.5
  0
INSERT
  5
450
330
EF7C85532
100
AcDbEntity
  8
SUNPOU
100
AcDbBlockReference
  2
STDGX5
 10
927.3710932230379
 20
166.0449410759395
 30
0.0
 41
0.5
 42
0.5
 43
0.5
  0
INSERT
  5
451
330
EF7C85532
100
AcDbEntity
  8
TEXT
100
AcDbBlockReference
  2
STDGX5
 10
994.4999237446024
 20
128.9304016143017
 30
0.0
 41
0.5
 42
0.5
 43
0.5
  0
INSERT
  5
452
330
EF7C85532
100
AcDbEntity
  8
HATCH
100
AcDbBlockReference
  2
STDGX5
 10
984.9832491061354
 20
180.7968180215541
 30
0.0
 41
0.5
 42
0.5
 43
0.5
  0
INSERT
  5
4CF3
330
EF7C85532
100
AcDbEntity
  8
JISSEN
100
AcDbBlockReference
  2
STDR12J
 10
0.0
 20
0.0
 30
0.0
  0
LWPOLYLINE
  5
1D277
330
EF7C85532
100
AcDbEntity
  8
NITEN
100
AcDbPolyline
 90
        2
 70
     0
 43
0.0
 10
107.0
 20
249.2768607174257
 42
0.5882352941176295
 10
89.99999999999996
 20
249.276860717426
 42
0.5882352941176295
  0
LWPOLYLINE
  5
1D27B
330
EF7C85532
100
AcDbEntity
  8
NITEN
100
AcDbPolyline
 90
        5
 70
     0
 43
0.0
 10
107.0
 20
228.4391430662799
 10
107.0
 20
249.2768607174257
 42
-0.5882352941176476
 10
90.0
 20
249.2768607174257
 42
0.5882352941176477
 10
73.0
 20
249.2768607174255
 10
73.0
 20
228.4391430662799
  0
LWPOLYLINE
  5
1D282
330
EF7C85532
100
AcDbEntity
  8
NITEN
100
AcDbPolyline
 90
       15
 70
     1
 43
0.0
 10
76.0
 20
187.9391430662799
 42
0.4142135623730927
 10
77.49999999999992
 20
186.4391430662799
 10
100.5940511709964
 20
186.4391430662799
 10
102.4999999999999
 20
186.4391430662799
 42
0.4142135623730925
 10
104.0
 20
187.9391430662799
 10
104.0
 20
198.9851590924978
 42
-0.4142135623730943
 10
108.9999999999998
 20
203.9851590924978
 42
0.4142135623730951
 10
111.0
 20
205.9851590924978
 10
110.9999999999998
 20
226.4391430662799
 42
0.4142135623730949
 10
109.0
 20
228.4391430662799
 10
71.0
 20
228.4391430662799
 42
0.4142135623730951
 10
69.0
 20
226.4391430662799
 10
69.0
 20
205.9851590924978
 42
0.4142135623730951
 10
71.0
 20
203.9851590924978
 42
-0.4142135623730961
 10
76.0
 20
198.9851590924978
  0
LINE
  5
1D2D9
330
EF7C85532
100
AcDbEntity
  8
JISSEN
100
AcDbLine
 10
65.0
 20
159.0785941605559
 30
0.0
 11
65.0
 21
164.0785941605559
 31
0.0
  0
LWPOLYLINE
  5
1E284
330
EF7C85532
100
AcDbEntity
  8
HATCH
100
AcDbPolyline
 90
       13
 70
     0
 43
0.0
 10
21.26633101087456
 20
164.0785941605559
 10
21.43091818912453
 20
163.2589570823238
 10
21.57282354580485
 20
162.7423391055595
 10
21.80053218295272
 20
162.3239128188716
 10
22.10841966961198
 20
161.9857957952048
 10
22.47464295859153
 20
161.6955447225546
 10
22.87735900270026
 20
161.4207162889171
 10
23.29472475474708
 20
161.1288671822881
 10
23.70489716754092
 20
160.7875540906635
 10
24.08603319389063
 20
160.364333702039
 10
24.41628978660509
 20
159.8267627044108
 10
24.69086984980787
 20
159.1631439171234
 10
24.72409404430448
 20
159.0785941605559
  0
LINE
  5
EAFFB3C99
330
EF7C85532
100
AcDbEntity
  8
JISSEN
100
AcDbLine
 10
91.49999927599994
 20
276.9999999999999
 30
0.0
 11
180.9999992759999
 21
276.9999999999999
 31
0.0
  0
LINE
  5
EAFFB3C9A
330
EF7C85532
100
AcDbEntity
  8
JISSEN
100
AcDbLine
 10
91.49999927599994
 20
270.9999999999999
 30
0.0
 11
180.9999992759999
 21
270.9999999999999
 31
0.0
  0
TEXT
  5
EAFFB3C9B
330
EF7C85532
100
AcDbEntity
  8
TEXT
100
AcDbText
 10
107.8999992759999
 20
278.4999999999999
 30
0.0
 40
3.0
  1
名      称
  7
K
 72
     4
 11
116.4999992759999
 21
279.9999999999999
 31
0.0
100
AcDbText
  0
TEXT
  5
EAFFB3C9C
330
EF7C85532
100
AcDbEntity
  8
TEXT
100
AcDbText
 10
93.29999927599999
 20
278.4999999999999
 30
0.0
 40
3.0
  1
番号
  7
K
 72
     4
 11
96.49999927599999
 21
279.9999999999999
 31
0.0
100
AcDbText
  0
LINE
  5
EAFFB3C9D
330
EF7C85532
100
AcDbEntity
  8
JISSEN
100
AcDbLine
 10
91.49999927599994
 20
264.9999999999999
 30
0.0
 11
91.49999927599994
 21
282.9999999999998
 31
0.0
  0
LINE
  5
EAFFB3C9E
330
EF7C85532
100
AcDbEntity
  8
JISSEN
100
AcDbLine
 10
101.4999992759999
 20
282.9999999999998
 30
0.0
 11
101.4999992759999
 21
264.9999999999999
 31
0.0
  0
TEXT
  5
EAFFB3C9F
330
EF7C85532
100
AcDbEntity
  8
TEXT
100
AcDbText
 10
135.1999992759998
 20
278.4999999999999
 30
0.0
 40
3.0
  1
材    質
  7
K
 72
     4
 11
141.9999992759999
 21
279.9999999999999
 31
0.0
100
AcDbText
  0
LINE
  5
EAFFB3CA0
330
EF7C85532
100
AcDbEntity
  8
JISSEN
100
AcDbLine
 10
131.4999992759998
 20
282.9999999999998
 30
0.0
 11
131.4999992759998
 21
264.9999999999999
 31
0.0
  0
LINE
  5
EAFFB3CA1
330
EF7C85532
100
AcDbEntity
  8
JISSEN
100
AcDbLine
 10
152.4999992759999
 20
264.9999999999999
 30
0.0
 11
152.4999992759999
 21
282.9999999999998
 31
0.0
  0
TEXT
  5
EAFFB3CA2
330
EF7C85532
100
AcDbEntity
  8
TEXT
100
AcDbText
 10
165.6999992759998
 20
278.4999999999999
 30
0.0
 40
3.0
  1
備    考
  7
K
 72
     4
 11
172.4999992759999
 21
279.9999999999999
 31
0.0
100
AcDbText
  0
TEXT
  5
EAFFB3CA3
330
EF7C85532
100
AcDbEntity
  8
TEXT
100
AcDbText
 10
154.7999992759999
 20
278.4999999999999
 30
0.0
 40
3.0
  1
個数
  7
K
 72
     4
 11
157.9999992759999
 21
279.9999999999999
 31
0.0
100
AcDbText
  0
LINE
  5
EAFFB3CA4
330
EF7C85532
100
AcDbEntity
  8
JISSEN
100
AcDbLine
 10
163.4999992759999
 20
282.9999999999998
 30
0.0
 11
163.4999992759999
 21
264.9999999999999
 31
0.0
  0
LINE
  5
EAFFB3CA6
330
EF7C85532
100
AcDbEntity
  8
JISSEN
100
AcDbLine
 10
91.49999927599994
 20
264.9999999999999
 30
0.0
 11
180.9999992759999
 21
264.9999999999999
 31
0.0
  0
TEXT
  5
EAFFB3CAC
330
EF7C85532
100
AcDbEntity
  8
TEXT
100
AcDbText
 10
95.28571356171429
 20
272.4999999999999
 30
0.0
 40
3.0
  1
1
  7
K
 72
     4
 11
96.49999927599999
 21
273.9999999999999
 31
0.0
100
AcDbText
  0
TEXT
  5
EAFFB3CB0
330
EF7C85532
100
AcDbEntity
  8
TEXT
100
AcDbText
 10
95.38307168153433
 20
266.4999999999999
 30
0.0
 40
3.0
  1
2
  7
K
 72
     4
 11
96.81164311010576
 21
267.9999999999999
 31
0.0
100
AcDbText
  0
TEXT
  5
EAFFB3CC2
330
EF7C85532
100
AcDbEntity
  8
TEXT
100
AcDbText
 10
136.8249992759998
 20
274.2999999999999
 30
0.0
 40
3.0
  1
%%u      
  7
K
 72
     4
 11
141.9999992759999
 21
273.9999999999999
 31
0.0
100
AcDbText
  0
TEXT
  5
EAFFB3CC3
330
EF7C85532
100
AcDbEntity
  8
TEXT
100
AcDbText
 10
137.642856418857
 20
266.4999999999999
 30
0.0
 40
3.0
  1
PBT
  7
K
 72
     4
 11
141.9999992759999
 21
267.9999999999999
 31
0.0
100
AcDbText
  0
INSERT
  5
EAFFB3CF7
330
EF7C85532
100
AcDbEntity
  8
WAKU
100
AcDbBlockReference
  2
WAKU
 10
0.0
 20
0.0
 30
0.0
 41
181.0
 42
283.0
 43
181.0
  0
LINE
  5
EF7C854BC
330
EF7C85532
100
AcDbEntity
  8
TENSEN
100
AcDbLine
 10
108.4999999999984
 20
164.0785941605559
 30
0.0
 11
108.4999999999984
 21
162.0235875520867
 31
0.0
  0
LINE
  5
EF7C854C9
330
EF7C85532
100
AcDbEntity
  8
JISSEN
100
AcDbLine
 10
108.4999999999984
 20
184.8285941605559
 30
0.0
 11
108.4999999999984
 21
159.0785941605559
 31
0.0
  0
LINE
  5
EF7C854DA
330
EF7C85532
100
AcDbEntity
  8
JISSEN
100
AcDbLine
 10
21.26633101087457
 20
164.0785941605559
 30
0.0
 11
71.50000000000051
 21
164.0785941605559
 31
0.0
  0
INSERT
  5
EF7C854FC
330
EF7C85532
100
AcDbEntity
  8
HATCH
100
AcDbBlockReference
  2
*X10
 10
0.0
 20
20.0
 30
0.0
1001
ACAD
1000
HATCH
1002
{
1070
    16
1000
_U
1040
2.0
1040
0.7853981633974483
1070
     0
1002
}
  0
LINE
  5
EF7C856F1
330
EF7C85532
100
AcDbEntity
  8
JISSEN
100
AcDbLine
 10
71.50000000000142
 20
184.8285941605559
 30
0.0
 11
71.50000000000142
 21
159.0785941605559
 31
0.0
  0
TEXT
  5
EF7C85BB1
330
EF7C85532
100
AcDbEntity
  8
TEXT
100
AcDbText
 10
156.6795477624092
 20
272.4999999999999
 30
0.0
 40
3.0
  1
1
  7
K
 72
     4
 11
157.8938334766949
 21
273.9999999999999
 31
0.0
100
AcDbText
  0
TEXT
  5
EF7C85BB2
330
EF7C85532
100
AcDbEntity
  8
TEXT
100
AcDbText
 10
156.6795477624092
 20
266.580835176341
 30
0.0
 40
3.0
  1
1
  7
K
 72
     4
 11
157.8938334766949
 21
268.0808351763409
 31
0.0
100
AcDbText
  0
INSERT
  5
EF7C85D61
330
EF7C85532
100
AcDbEntity
  8
HATCH
100
AcDbBlockReference
  2
*X10
 10
180.0
 20
20.0
 30
0.0
 41
-1.0
1001
ACAD
1000
HATCH
1002
{
1070
    16
1000
_U
1040
2.0
1040
0.7853981633974483
1070
     0
1002
}
  0
LINE
  5
EF7C85D62
330
EF7C85532
100
AcDbEntity
  8
JISSEN
100
AcDbLine
 10
158.7336689891255
 20
164.0785941605559
 30
0.0
 11
108.4999999999995
 21
164.0785941605559
 31
0.0
  0
LWPOLYLINE
  5
EF7C85D63
330
EF7C85532
100
AcDbEntity
  8
HATCH
100
AcDbPolyline
 90
       13
 70
     0
 43
0.0
 10
158.7336689891255
 20
164.0785941605559
 10
158.5690818108755
 20
163.2589570823238
 10
158.4271764541952
 20
162.7423391055595
 10
158.1994678170473
 20
162.3239128188716
 10
157.891580330388
 20
161.9857957952048
 10
157.5253570414085
 20
161.6955447225546
 10
157.1226409972998
 20
161.4207162889171
 10
156.7052752452529
 20
161.1288671822881
 10
156.295102832459
 20
160.7875540906635
 10
155.9139668061094
 20
160.364333702039
 10
155.5837102133949
 20
159.8267627044108
 10
155.3091301501921
 20
159.1631439171234
 10
155.2759059556955
 20
159.0785941605559
  0
LINE
  5
EF7C85D64
330
EF7C85532
100
AcDbEntity
  8
JISSEN
100
AcDbLine
 10
115.0000000000001
 20
159.0785941605559
 30
0.0
 11
115.0000000000001
 21
164.0785941605559
 31
0.0
  0
TEXT
  5
EF7C85D65
330
EF7C85532
100
AcDbEntity
  8
SUNPOU
100
AcDbText
 10
121.3378538400208
 20
7.849423898685245
 30
0.0
 40
3.0
  1
eZQ シーリングプレート取付状態
  7
K
100
AcDbText
  0
TEXT
  5
EF7C85D66
330
EF7C85532
100
AcDbEntity
  8
SUNPOU
100
AcDbText
 10
121.3378538400208
 20
2.849423898685245
 30
0.0
 40
3.0
  1
尺度　1/1
  7
K
100
AcDbText
  0
CIRCLE
  5
EF7C85D67
330
EF7C85532
100
AcDbEntity
  8
SUNPOU
100
AcDbCircle
 10
74.71667821735923
 20
118.0064679393257
 30
0.0
 40
6.0
  0
TEXT
  5
EF7C85D68
330
EF7C85532
100
AcDbEntity
  8
SUNPOU
100
AcDbText
 10
72.89524964593066
 20
115.7564679393257
 30
0.0
 40
4.5
  1
1
  7
K
 72
     4
 11
74.71667821735923
 21
118.0064679393257
 31
0.0
100
AcDbText
  0
LINE
  5
EF7C85D6C
330
EF7C85532
100
AcDbEntity
  8
SUNPOU
100
AcDbLine
 10
86.99999999999896
 20
143.1634704049703
 30
0.0
 11
77.34923035889521
 21
123.3980974909636
 31
0.0
  0
INSERT
  5
EF7C85D6E
330
EF7C85532
100
AcDbEntity
  8
SUNPOU
100
AcDbBlockReference
  2
ARROW
 10
86.99999999999894
 20
143.1634704049703
 30
0.0
 41
1.5
 42
1.5
 43
1.5
 50
63.97529251430656
  0
LINE
  5
EF7C85D70
330
EF7C85532
100
AcDbEntity
  8
SUNPOU
100
AcDbLine
 10
112.398103103286
 20
149.0690308509968
 30
0.0
 11
125.062916214423
 21
123.3876896622965
 31
0.0
  0
CIRCLE
  5
EF7C85D71
330
EF7C85532
100
AcDbEntity
  8
SUNPOU
100
AcDbCircle
 10
127.7166782173592
 20
118.0064679393257
 30
0.0
 40
6.0
  0
TEXT
  5
EF7C85D72
330
EF7C85532
100
AcDbEntity
  8
SUNPOU
100
AcDbText
 10
125.573821074502
 20
115.7564679393257
 30
0.0
 40
4.5
  1
2
  7
K
 72
     4
 11
127.7166782173592
 21
118.0064679393257
 31
0.0
100
AcDbText
  0
INSERT
  5
EF7C85D73
330
EF7C85532
100
AcDbEntity
  8
SUNPOU
100
AcDbBlockReference
  2
ARROW
 10
112.3981031032857
 20
149.0690308509971
 30
0.0
 41
1.5
 42
1.5
 43
1.5
 50
116.2503179468659
  0
TEXT
  5
EF7C85DB6
330
EF7C85532
100
AcDbEntity
  8
TEXT
100
AcDbText
 10
105.8857135617141
 20
266.4999999999999
 30
0.0
 40
3.0
  1
ガード ZN
  7
K
 72
     4
 11
114.9999992759999
 21
267.9999999999999
 31
0.0
100
AcDbText
  0
LINE
  5
EF7C865F1
330
EF7C85532
100
AcDbEntity
  8
JISSEN
100
AcDbLine
 10
90.49999999999769
 20
167.6785941605566
 30
0.0
 11
89.99999999999856
 21
167.6785941605566
 31
0.0
  0
LINE
  5
EF7C865F2
330
EF7C85532
100
AcDbEntity
  8
JISSEN
100
AcDbLine
 10
71.74999999999858
 20
185.0785941605559
 30
0.0
 11
89.49999999999949
 21
185.0785941605563
 31
0.0
  0
LINE
  5
EF7C865F3
330
EF7C85532
100
AcDbEntity
  8
JISSEN
100
AcDbLine
 10
74.50195324422242
 20
185.0785941605559
 30
0.0
 11
74.50195324422242
 21
167.6785941605558
 31
0.0
  0
LINE
  5
EF7C865F4
330
EF7C85532
100
AcDbEntity
  8
JISSEN
100
AcDbLine
 10
73.50195324422242
 20
185.0785941605559
 30
0.0
 11
73.50195324422242
 21
167.6785941605558
 31
0.0
  0
LINE
  5
EF7C865F5
330
EF7C85532
100
AcDbEntity
  8
JISSEN
100
AcDbLine
 10
74.50195324422242
 20
167.6785941605558
 30
0.0
 11
73.50195324422242
 21
167.6785941605558
 31
0.0
  0
LINE
  5
EF7C865F6
330
EF7C85532
100
AcDbEntity
  8
JISSEN
100
AcDbLine
 10
71.74999999999858
 20
185.0785941605559
 30
0.0
 11
71.49999999999858
 21
184.8285941605559
 31
0.0
  0
LINE
  5
EF7C865F7
330
EF7C85532
100
AcDbEntity
  8
JISSEN
100
AcDbLine
 10
89.49999999999949
 20
185.0785941605559
 30
0.0
 11
89.49999999999949
 21
167.6785941605566
 31
0.0
  0
LINE
  5
EF7C865F8
330
EF7C85532
100
AcDbEntity
  8
JISSEN
100
AcDbLine
 10
89.49999999999949
 20
167.6785941605566
 30
0.0
 11
89.99999999999856
 21
167.6785941605566
 31
0.0
  0
LINE
  5
EF7C865F9
330
EF7C85532
100
AcDbEntity
  8
JISSEN
100
AcDbLine
 10
108.2499999999984
 20
185.0785941605559
 30
0.0
 11
90.49999999999769
 21
185.0785941605563
 31
0.0
  0
LINE
  5
EF7C865FA
330
EF7C85532
100
AcDbEntity
  8
JISSEN
100
AcDbLine
 10
90.49999999999769
 20
185.0785941605559
 30
0.0
 11
90.49999999999769
 21
167.6785941605566
 31
0.0
  0
LINE
  5
EF7C865FB
330
EF7C85532
100
AcDbEntity
  8
JISSEN
100
AcDbLine
 10
105.4980467557747
 20
185.0785941605559
 30
0.0
 11
105.4980467557747
 21
167.6785941605558
 31
0.0
  0
LINE
  5
EF7C865FC
330
EF7C85532
100
AcDbEntity
  8
JISSEN
100
AcDbLine
 10
106.4980467557747
 20
185.0785941605559
 30
0.0
 11
106.4980467557747
 21
167.6785941605558
 31
0.0
  0
LINE
  5
EF7C865FD
330
EF7C85532
100
AcDbEntity
  8
JISSEN
100
AcDbLine
 10
105.4980467557747
 20
167.6785941605558
 30
0.0
 11
106.4980467557747
 21
167.6785941605558
 31
0.0
  0
LINE
  5
EF7C865FE
330
EF7C85532
100
AcDbEntity
  8
JISSEN
100
AcDbLine
 10
108.2499999999984
 20
185.0785941605559
 30
0.0
 11
108.4999999999984
 21
184.8285941605559
 31
0.0
  0
LINE
  5
EF7C86880
330
EF7C85532
100
AcDbEntity
  8
JISSEN
100
AcDbLine
 10
70.07237468904538
 20
84.07859416055595
 30
0.0
 11
109.9276253109545
 21
84.07859416055595
 31
0.0
  0
LINE
  5
EF7C86888
330
EF7C85532
100
AcDbEntity
  8
JISSEN
100
AcDbLine
 10
58.61177143234783
 20
87.1494535479599
 30
0.0
 11
70.07237468904548
 21
84.07859416055591
 31
0.0
  0
LINE
  5
EF7C8688B
330
EF7C85532
100
AcDbEntity
  8
JISSEN
100
AcDbLine
 10
57.50000000000142
 20
89.0785941605559
 30
0.0
 11
57.50000000000136
 21
88.59834228739357
 31
0.0
  0
ARC
  5
EF7C8688C
330
EF7C85532
100
AcDbEntity
  8
JISSEN
100
AcDbCircle
 10
59.00000000000137
 20
88.59834228739357
 30
0.0
 40
1.5
100
AcDbArc
 50
180.0000000000006
 51
255.0000000000077
  0
LINE
  5
EF7C868B6
330
EF7C85532
100
AcDbEntity
  8
JISSEN
100
AcDbLine
 10
121.3882285676521
 20
87.1494535479599
 30
0.0
 11
109.9276253109545
 21
84.07859416055591
 31
0.0
  0
ARC
  5
EF7C868C8
330
EF7C85532
100
AcDbEntity
  8
JISSEN
100
AcDbCircle
 10
120.9999999999985
 20
88.59834228739357
 30
0.0
 40
1.5
100
AcDbArc
 50
284.9999999999921
 51
359.9999999999993
  0
LINE
  5
EF7C868C9
330
EF7C85532
100
AcDbEntity
  8
JISSEN
100
AcDbLine
 10
122.4999999999984
 20
89.0785941605559
 30
0.0
 11
122.4999999999985
 21
88.59834228739357
 31
0.0
  0
INSERT
  5
EF7C86918
330
EF7C85532
100
AcDbEntity
  8
WAKU
100
AcDbBlockReference
  2
WAKU
 10
180.9999992759999
 20
0.0
 30
0.0
 41
181.0
 42
283.0
 43
181.0
  0
TEXT
  5
EF7C8692A
330
EF7C85532
100
AcDbEntity
  8
SUNPOU
100
AcDbText
 10
302.3378531160208
 20
2.849423898685245
 30
0.0
 40
3.0
  1
尺度　1/1
  7
K
100
AcDbText
  0
TEXT
  5
EF7C8692B
330
EF7C85532
100
AcDbEntity
  8
SUNPOU
100
AcDbText
 10
302.3378531160208
 20
7.849423898685245
 30
0.0
 40
3.0
  1
eZQ シーリングプレート作動状態
  7
K
100
AcDbText
  0
LINE
  5
EF7C86EA3
330
EF7C85532
100
AcDbEntity
  8
JISSEN
100
AcDbLine
 10
295.9999995720778
 20
159.0785946738836
 30
0.0
 11
295.9999995720778
 21
164.0785946738836
 31
0.0
  0
LWPOLYLINE
  5
EF7C86EA4
330
EF7C85532
100
AcDbEntity
  8
HATCH
100
AcDbPolyline
 90
       13
 70
     0
 43
0.0
 10
339.7336685612033
 20
164.0785946738836
 10
339.5690813829533
 20
163.2589575956515
 10
339.4271760262729
 20
162.7423396188873
 10
339.1994673891251
 20
162.3239133321995
 10
338.891579902466
 20
161.9857963085325
 10
338.5253566134863
 20
161.6955452358824
 10
338.1226405693776
 20
161.420716802245
 10
337.7052748173308
 20
161.128867695616
 10
337.295102404537
 20
160.7875546039913
 10
336.9139663781873
 20
160.3643342153669
 10
336.5837097854728
 20
159.8267632177386
 10
336.30912972227
 20
159.163144430451
 10
336.2759055277733
 20
159.0785946738836
  0
INSERT
  5
EF7C86EA5
330
EF7C85532
100
AcDbEntity
  8
HATCH
100
AcDbBlockReference
  2
*X11
 10
360.9999995720778
 20
20.00000051332779
 30
0.0
 41
-1.0
1001
ACAD
1000
HATCH
1002
{
1070
    16
1000
_U
1040
2.0
1040
0.7853981633974483
1070
     0
1002
}
  0
LINE
  5
EF7C86EA6
330
EF7C85532
100
AcDbEntity
  8
JISSEN
100
AcDbLine
 10
252.499999572079
 20
184.8285946738837
 30
0.0
 11
252.499999572079
 21
159.0785946738836
 31
0.0
  0
INSERT
  5
EF7C86EA7
330
EF7C85532
100
AcDbEntity
  8
HATCH
100
AcDbBlockReference
  2
*X11
 10
180.9999995720778
 20
20.00000051332779
 30
0.0
1001
ACAD
1000
HATCH
1002
{
1070
    16
1000
_U
1040
2.0
1040
0.7853981633974483
1070
     0
1002
}
  0
LINE
  5
EF7C86EA8
330
EF7C85532
100
AcDbEntity
  8
JISSEN
100
AcDbLine
 10
289.4999995720763
 20
184.8285946738837
 30
0.0
 11
289.4999995720763
 21
159.0785946738836
 31
0.0
  0
LWPOLYLINE
  5
EF7C86EA9
330
EF7C85532
100
AcDbEntity
  8
HATCH
100
AcDbPolyline
 90
       13
 70
     0
 43
0.0
 10
202.2663305829524
 20
164.0785946738836
 10
202.4309177612023
 20
163.2589575956515
 10
202.5728231178825
 20
162.7423396188873
 10
202.8005317550305
 20
162.3239133321995
 10
203.1084192416896
 20
161.9857963085325
 10
203.4746425306693
 20
161.6955452358824
 10
203.877358574778
 20
161.420716802245
 10
204.2947243268248
 20
161.128867695616
 10
204.7048967396186
 20
160.7875546039913
 10
205.0860327659683
 20
160.3643342153669
 10
205.4162893586828
 20
159.8267632177386
 10
205.6908694218857
 20
159.163144430451
 10
205.7240936163823
 20
159.0785946738836
  0
LINE
  5
EF7C86EAA
330
EF7C85532
100
AcDbEntity
  8
JISSEN
100
AcDbLine
 10
245.9999995720778
 20
159.0785946738836
 30
0.0
 11
245.9999995720778
 21
164.0785946738836
 31
0.0
  0
LINE
  5
EF7C86F14
330
EF7C85532
100
AcDbEntity
  8
JISSEN
100
AcDbLine
 10
269.4999995720785
 20
140.9285946738841
 30
0.0
 11
259.4999995720778
 21
140.9285946738844
 31
0.0
  0
LINE
  5
EF7C86F15
330
EF7C85532
100
AcDbEntity
  8
JISSEN
100
AcDbLine
 10
259.4999995720778
 20
139.9285946738842
 30
0.0
 11
269.4999995720787
 21
139.9285946738842
 31
0.0
  0
LINE
  5
EF7C86F1C
330
EF7C85532
100
AcDbEntity
  8
JISSEN
100
AcDbLine
 10
259.4999995720778
 20
140.9285946738844
 30
0.0
 11
259.4999995720778
 21
139.9285946738842
 31
0.0
  0
LINE
  5
EF7C86F1D
330
EF7C85532
100
AcDbEntity
  8
JISSEN
100
AcDbLine
 10
268.1249995720782
 20
139.8285946738844
 30
0.0
 11
268.1249995720782
 21
139.1285946738844
 31
0.0
  0
LINE
  5
EF7C86F1E
330
EF7C85532
100
AcDbEntity
  8
JISSEN
100
AcDbLine
 10
268.2499995720778
 20
139.0161050732264
 30
0.0
 11
268.2499995720778
 21
139.9285946738842
 31
0.0
  0
LINE
  5
EF7C86F1F
330
EF7C85532
100
AcDbEntity
  8
JISSEN
100
AcDbLine
 10
265.1249995720783
 20
139.8285946738844
 30
0.0
 11
265.1249995720783
 21
139.1285946738844
 31
0.0
  0
LINE
  5
EF7C86F20
330
EF7C85532
100
AcDbEntity
  8
JISSEN
100
AcDbLine
 10
276.8749995720773
 20
139.8285946738844
 30
0.0
 11
276.8749995720773
 21
139.1285946738844
 31
0.0
  0
LINE
  5
EF7C86F21
330
EF7C85532
100
AcDbEntity
  8
JISSEN
100
AcDbLine
 10
273.7499995720778
 20
139.0161050732264
 30
0.0
 11
273.7499995720778
 21
139.9285946738842
 31
0.0
  0
LINE
  5
EF7C86F22
330
EF7C85532
100
AcDbEntity
  8
JISSEN
100
AcDbLine
 10
273.8749995720774
 20
139.8285946738844
 30
0.0
 11
273.8749995720774
 21
139.1285946738844
 31
0.0
  0
LINE
  5
EF7C86F25
330
EF7C85532
100
AcDbEntity
  8
JISSEN
100
AcDbLine
 10
273.9749995720774
 20
139.0285946738844
 30
0.0
 11
276.7749995720774
 21
139.0285946738844
 31
0.0
  0
ARC
  5
EF7C86F26
330
EF7C85532
100
AcDbEntity
  8
JISSEN
100
AcDbCircle
 10
267.2249995720781
 20
138.3785946738844
 30
0.0
 40
0.1
100
AcDbArc
 50
270.0
 51
0.0
  0
LINE
  5
EF7C86F27
330
EF7C85532
100
AcDbEntity
  8
JISSEN
100
AcDbLine
 10
268.0249995720783
 20
139.0285946738844
 30
0.0
 11
265.2249995720781
 21
139.0285946738844
 31
0.0
  0
LINE
  5
EF7C86F28
330
EF7C85532
100
AcDbEntity
  8
JISSEN
100
AcDbLine
 10
267.2249995720781
 20
138.2785946738844
 30
0.0
 11
266.0249995720783
 21
138.2785946738844
 31
0.0
  0
LINE
  5
EF7C86F29
330
EF7C85532
100
AcDbEntity
  8
JISSEN
100
AcDbLine
 10
265.9249995720781
 20
139.0285946738844
 30
0.0
 11
265.9249995720781
 21
138.3785946738844
 31
0.0
  0
ARC
  5
EF7C86F2A
330
EF7C85532
100
AcDbEntity
  8
JISSEN
100
AcDbCircle
 10
266.0249995720783
 20
138.3785946738844
 30
0.0
 40
0.1
100
AcDbArc
 50
180.0
 51
270.0
  0
ARC
  5
EF7C86F2B
330
EF7C85532
100
AcDbEntity
  8
JISSEN
100
AcDbCircle
 10
265.2249995720781
 20
139.1285946738844
 30
0.0
 40
0.0999999999999943
100
AcDbArc
 50
179.9999999999836
 51
269.9999999999803
  0
ARC
  5
EF7C86F2E
330
EF7C85532
100
AcDbEntity
  8
JISSEN
100
AcDbCircle
 10
270.9999995720778
 20
146.5285946738843
 30
0.0
 40
7.999999999999522
100
AcDbArc
 50
249.8944902120839
 51
259.193077125146
  0
ARC
  5
EF7C86F2F
330
EF7C85532
100
AcDbEntity
  8
JISSEN
100
AcDbCircle
 10
268.0249995720783
 20
139.1285946738844
 30
0.0
 40
0.0999999999999943
100
AcDbArc
 50
270.000000000013
 51
0.0000000000162844
  0
LINE
  5
EF7C86F30
330
EF7C85532
100
AcDbEntity
  8
JISSEN
100
AcDbLine
 10
267.3249995720782
 20
139.0285946738844
 30
0.0
 11
267.324999572078
 21
138.3785946738844
 31
0.0
  0
ARC
  5
EF7C86F34
330
EF7C85532
100
AcDbEntity
  8
JISSEN
100
AcDbCircle
 10
273.9749995720774
 20
139.1285946738844
 30
0.0
 40
0.0999999999999943
100
AcDbArc
 50
179.9999999999836
 51
269.9999999999803
  0
ARC
  5
EF7C86F38
330
EF7C85532
100
AcDbEntity
  8
JISSEN
100
AcDbCircle
 10
270.9999995720778
 20
146.5285946738843
 30
0.0
 40
7.999999999999522
100
AcDbArc
 50
280.8069228748589
 51
290.1055097879159
  0
ARC
  5
EF7C86F39
330
EF7C85532
100
AcDbEntity
  8
JISSEN
100
AcDbCircle
 10
276.7749995720774
 20
139.1285946738844
 30
0.0
 40
0.0999999999999943
100
AcDbArc
 50
270.000000000013
 51
0.0000000000162915
  0
LINE
  5
EF7C86F3A
330
EF7C85532
100
AcDbEntity
  8
JISSEN
100
AcDbLine
 10
274.6749995720774
 20
139.0285946738844
 30
0.0
 11
274.6749995720774
 21
138.3785946738844
 31
0.0
  0
LINE
  5
EF7C86F3B
330
EF7C85532
100
AcDbEntity
  8
JISSEN
100
AcDbLine
 10
274.7749995720774
 20
138.2785946738844
 30
0.0
 11
275.9749995720773
 21
138.2785946738844
 31
0.0
  0
ARC
  5
EF7C86F3C
330
EF7C85532
100
AcDbEntity
  8
JISSEN
100
AcDbCircle
 10
274.7749995720774
 20
138.3785946738844
 30
0.0
 40
0.1
100
AcDbArc
 50
180.0
 51
270.0
  0
LINE
  5
EF7C86F3D
330
EF7C85532
100
AcDbEntity
  8
JISSEN
100
AcDbLine
 10
276.0749995720773
 20
139.0285946738844
 30
0.0
 11
276.0749995720773
 21
138.3785946738844
 31
0.0
  0
ARC
  5
EF7C86F3E
330
EF7C85532
100
AcDbEntity
  8
JISSEN
100
AcDbCircle
 10
275.9749995720773
 20
138.3785946738844
 30
0.0
 40
0.1
100
AcDbArc
 50
270.0
 51
0.000000000000007
  0
ARC
  5
EF7C86F3F
330
EF7C85532
100
AcDbEntity
  8
JISSEN
100
AcDbCircle
 10
274.1336488881283
 20
144.9285946738841
 30
0.0
 40
1.0
100
AcDbArc
 50
10.00000000000025
 51
90.0
  0
LINE
  5
EF7C86F40
330
EF7C85532
100
AcDbEntity
  8
JISSEN
100
AcDbLine
 10
278.4999995720778
 20
140.9285946738842
 30
0.0
 11
273.6249995720778
 21
140.9285946738842
 31
0.0
  0
LINE
  5
EF7C86F41
330
EF7C85532
100
AcDbEntity
  8
JISSEN
100
AcDbLine
 10
278.4999995720778
 20
141.1285946738843
 30
0.0
 11
273.6249995720778
 21
141.1285946738843
 31
0.0
  0
LINE
  5
EF7C86F42
330
EF7C85532
100
AcDbEntity
  8
JISSEN
100
AcDbLine
 10
272.4999995720779
 20
142.6285946738841
 30
0.0
 11
277.4999995720778
 21
142.6285946738841
 31
0.0
  0
LINE
  5
EF7C86F43
330
EF7C85532
100
AcDbEntity
  8
JISSEN
100
AcDbLine
 10
282.4999995720778
 20
139.9285946738842
 30
0.0
 11
272.4999995720776
 21
139.9285946738842
 31
0.0
  0
LINE
  5
EF7C86F44
330
EF7C85532
100
AcDbEntity
  8
JISSEN
100
AcDbLine
 10
272.4999995720778
 20
140.9285946738842
 30
0.0
 11
282.4999995720778
 21
140.9285946738844
 31
0.0
  0
LINE
  5
EF7C86F45
330
EF7C85532
100
AcDbEntity
  8
JISSEN
100
AcDbLine
 10
265.9249995720781
 20
142.9287366880036
 30
0.0
 11
265.9249995720784
 21
154.0785946738836
 31
0.0
  0
LINE
  5
EF7C86F46
330
EF7C85532
100
AcDbEntity
  8
JISSEN
100
AcDbLine
 10
267.324999572078
 20
154.0785946738836
 30
0.0
 11
267.3249995720782
 21
145.7693915797941
 31
0.0
  0
ARC
  5
EF7C86F49
330
EF7C85532
100
AcDbEntity
  8
JISSEN
100
AcDbCircle
 10
267.8663502560274
 20
144.9285946738841
 30
0.0
 40
1.0
100
AcDbArc
 50
90.0
 51
169.9999999999996
  0
LINE
  5
EF7C86F4A
330
EF7C85532
100
AcDbEntity
  8
JISSEN
100
AcDbLine
 10
269.4999995720784
 20
142.6285946738841
 30
0.0
 11
264.4999995720778
 21
142.6285946738841
 31
0.0
  0
LINE
  5
EF7C86F4B
330
EF7C85532
100
AcDbEntity
  8
JISSEN
100
AcDbLine
 10
263.4999995720778
 20
141.1285946738843
 30
0.0
 11
268.3749995720778
 21
141.1285946738843
 31
0.0
  0
LINE
  5
EF7C86F4C
330
EF7C85532
100
AcDbEntity
  8
JISSEN
100
AcDbLine
 10
263.4999995720778
 20
140.9285946738842
 30
0.0
 11
268.3749995720778
 21
140.9285946738842
 31
0.0
  0
LINE
  5
EF7C86F4D
330
EF7C85532
100
AcDbEntity
  8
JISSEN
100
AcDbLine
 10
266.8815425030151
 20
145.1022428515511
 30
0.0
 11
266.6002653680091
 21
143.5070409495174
 31
0.0
  0
LINE
  5
EF7C86F4E
330
EF7C85532
100
AcDbEntity
  8
JISSEN
100
AcDbLine
 10
263.4999995720778
 20
141.4285946738842
 30
0.0
 11
264.4999995720778
 21
142.6285946738841
 31
0.0
  0
LINE
  5
EF7C86F4F
330
EF7C85532
100
AcDbEntity
  8
JISSEN
100
AcDbLine
 10
263.4999995720778
 20
141.4285946738842
 30
0.0
 11
263.4999995720778
 21
141.1285946738843
 31
0.0
  0
ARC
  5
EF7C86F50
330
EF7C85532
100
AcDbEntity
  8
JISSEN
100
AcDbCircle
 10
265.9108999409006
 20
143.6285946738841
 30
0.0
 40
0.7
100
AcDbArc
 50
270.0
 51
349.9999999999997
  0
LINE
  5
EF7C86F51
330
EF7C85532
100
AcDbEntity
  8
JISSEN
100
AcDbLine
 10
264.4999995720778
 20
142.9285946738841
 30
0.0
 11
264.4999995720778
 21
142.6285946738843
 31
0.0
  0
ARC
  5
EF7C86F52
330
EF7C85532
100
AcDbEntity
  8
JISSEN
100
AcDbCircle
 10
265.2249995720781
 20
139.8285946738844
 30
0.0
 40
0.0999999999999943
100
AcDbArc
 50
90.00000000001303
 51
180.0000000000161
  0
LINE
  5
EF7C86F53
330
EF7C85532
100
AcDbEntity
  8
JISSEN
100
AcDbLine
 10
265.9108999409006
 20
142.9285946738841
 30
0.0
 11
264.4999995720778
 21
142.9285946738841
 31
0.0
  0
LINE
  5
EF7C86F54
330
EF7C85532
100
AcDbEntity
  8
JISSEN
100
AcDbLine
 10
268.3749995720778
 20
140.9285946738841
 30
0.0
 11
268.3749995720778
 21
141.1285946738843
 31
0.0
  0
ARC
  5
EF7C86F55
330
EF7C85532
100
AcDbEntity
  8
JISSEN
100
AcDbCircle
 10
268.0249995720783
 20
139.8285946738844
 30
0.0
 40
0.0999999999999943
100
AcDbArc
 50
359.9999999999837
 51
89.99999999998044
  0
ARC
  5
EF7C86F57
330
EF7C85532
100
AcDbEntity
  8
JISSEN
100
AcDbCircle
 10
273.9749995720774
 20
139.8285946738844
 30
0.0
 40
0.0999999999999943
100
AcDbArc
 50
90.00000000001303
 51
180.0000000000163
  0
LINE
  5
EF7C86F58
330
EF7C85532
100
AcDbEntity
  8
JISSEN
100
AcDbLine
 10
273.6249995720778
 20
140.9285946738841
 30
0.0
 11
273.6249995720778
 21
141.1285946738843
 31
0.0
  0
LINE
  5
EF7C86F5A
330
EF7C85532
100
AcDbEntity
  8
JISSEN
100
AcDbLine
 10
267.8663502560274
 20
145.9285946738841
 30
0.0
 11
269.4999995720781
 21
145.9285946738841
 31
0.0
  0
LINE
  5
EF7C86F5B
330
EF7C85532
100
AcDbEntity
  8
JISSEN
100
AcDbLine
 10
274.1336488881283
 20
145.9285946738841
 30
0.0
 11
272.4999995720782
 21
145.9285946738842
 31
0.0
  0
LINE
  5
EF7C86F5C
330
EF7C85532
100
AcDbEntity
  8
JISSEN
100
AcDbLine
 10
274.6749995720774
 20
154.0785946738836
 30
0.0
 11
274.6749995720774
 21
145.7693915797941
 31
0.0
  0
LINE
  5
EF7C86F5D
330
EF7C85532
100
AcDbEntity
  8
JISSEN
100
AcDbLine
 10
276.0749995720773
 20
142.9287366880036
 30
0.0
 11
276.0749995720771
 21
154.0785946738836
 31
0.0
  0
LINE
  5
EF7C86F5E
330
EF7C85532
100
AcDbEntity
  8
JISSEN
100
AcDbLine
 10
275.1184566411404
 20
145.1022428515511
 30
0.0
 11
275.3997337761465
 21
143.5070409495174
 31
0.0
  0
LINE
  5
EF7C86F5F
330
EF7C85532
100
AcDbEntity
  8
JISSEN
100
AcDbLine
 10
278.4999995720778
 20
141.4285946738842
 30
0.0
 11
277.4999995720778
 21
142.6285946738841
 31
0.0
  0
ARC
  5
EF7C86F60
330
EF7C85532
100
AcDbEntity
  8
JISSEN
100
AcDbCircle
 10
276.7749995720774
 20
139.8285946738844
 30
0.0
 40
0.0999999999999943
100
AcDbArc
 50
359.9999999999837
 51
89.99999999998044
  0
LINE
  5
EF7C86F61
330
EF7C85532
100
AcDbEntity
  8
JISSEN
100
AcDbLine
 10
276.0890992032549
 20
142.9285946738841
 30
0.0
 11
277.4999995720778
 21
142.9285946738841
 31
0.0
  0
LINE
  5
EF7C86F62
330
EF7C85532
100
AcDbEntity
  8
JISSEN
100
AcDbLine
 10
277.4999995720778
 20
142.9285946738841
 30
0.0
 11
277.4999995720778
 21
142.6285946738843
 31
0.0
  0
ARC
  5
EF7C86F63
330
EF7C85532
100
AcDbEntity
  8
JISSEN
100
AcDbCircle
 10
276.0890992032549
 20
143.6285946738841
 30
0.0
 40
0.7
100
AcDbArc
 50
190.0000000000002
 51
270.0
  0
LINE
  5
EF7C86F64
330
EF7C85532
100
AcDbEntity
  8
JISSEN
100
AcDbLine
 10
278.4999995720778
 20
141.4285946738842
 30
0.0
 11
278.4999995720778
 21
141.1285946738843
 31
0.0
  0
LINE
  5
EF7C86F65
330
EF7C85532
100
AcDbEntity
  8
JISSEN
100
AcDbLine
 10
282.4999995720778
 20
140.9285946738844
 30
0.0
 11
282.4999995720778
 21
139.9285946738842
 31
0.0
  0
LINE
  5
EF7C86FD1
330
EF7C85532
100
AcDbEntity
  8
JISSEN
100
AcDbLine
 10
339.7336685612033
 20
164.0785946738836
 30
0.0
 11
289.4999995720773
 21
164.0785946738836
 31
0.0
  0
LINE
  5
EF7C86FD2
330
EF7C85532
100
AcDbEntity
  8
JISSEN
100
AcDbLine
 10
202.2663305829524
 20
164.0785946738836
 30
0.0
 11
252.4999995720781
 21
164.0785946738836
 31
0.0
  0
LWPOLYLINE
  5
EF7C86FD3
330
EF7C85532
100
AcDbEntity
  8
NITEN
100
AcDbPolyline
 90
        5
 70
     0
 43
0.0
 10
287.9999995720778
 20
228.4391435796077
 10
287.9999995720778
 20
249.2768612307535
 42
-0.5882352941176476
 10
270.9999995720778
 20
249.2768612307535
 42
0.5882352941176477
 10
253.9999995720778
 20
249.2768612307533
 10
253.9999995720778
 20
228.4391435796077
  0
LWPOLYLINE
  5
EF7C86FD4
330
EF7C85532
100
AcDbEntity
  8
NITEN
100
AcDbPolyline
 90
        2
 70
     0
 43
0.0
 10
287.9999995720778
 20
249.2768612307535
 42
0.5882352941176295
 10
270.9999995720778
 20
249.2768612307539
 42
0.5882352941176295
  0
LINE
  5
EF7C86FD5
330
EF7C85532
100
AcDbEntity
  8
JISSEN
100
AcDbLine
 10
252.749999572079
 20
185.0785946738837
 30
0.0
 11
270.49999957208
 21
185.078594673884
 31
0.0
  0
LWPOLYLINE
  5
EF7C86FD6
330
EF7C85532
100
AcDbEntity
  8
NITEN
100
AcDbPolyline
 90
       15
 70
     1
 43
0.0
 10
256.9999995720778
 20
187.9391435796076
 42
0.4142135623730927
 10
258.4999995720778
 20
186.4391435796077
 10
281.5940507430743
 20
186.4391435796077
 10
283.4999995720778
 20
186.4391435796077
 42
0.4142135623730925
 10
284.9999995720778
 20
187.9391435796076
 10
284.9999995720778
 20
198.9851596058256
 42
-0.4142135623730943
 10
289.9999995720778
 20
203.9851596058257
 42
0.4142135623730951
 10
291.9999995720778
 20
205.9851596058257
 10
291.9999995720778
 20
226.4391435796077
 42
0.4142135623730949
 10
289.9999995720778
 20
228.4391435796077
 10
251.9999995720778
 20
228.4391435796077
 42
0.4142135623730951
 10
249.9999995720778
 20
226.4391435796077
 10
249.9999995720778
 20
205.9851596058257
 42
0.4142135623730951
 10
251.9999995720778
 20
203.9851596058257
 42
-0.4142135623730961
 10
256.9999995720778
 20
198.9851596058256
  0
LINE
  5
EF7C86FD7
330
EF7C85532
100
AcDbEntity
  8
JISSEN
100
AcDbLine
 10
254.5019528163029
 20
185.0785946738837
 30
0.0
 11
254.5019528163029
 21
167.6785946738835
 31
0.0
  0
LINE
  5
EF7C86FD8
330
EF7C85532
100
AcDbEntity
  8
JISSEN
100
AcDbLine
 10
255.5019528163029
 20
185.0785946738837
 30
0.0
 11
255.5019528163029
 21
167.6785946738835
 31
0.0
  0
LINE
  5
EF7C86FD9
330
EF7C85532
100
AcDbEntity
  8
JISSEN
100
AcDbLine
 10
255.5019528163029
 20
167.6785946738835
 30
0.0
 11
254.5019528163029
 21
167.6785946738835
 31
0.0
  0
LINE
  5
EF7C86FDA
330
EF7C85532
100
AcDbEntity
  8
JISSEN
100
AcDbLine
 10
252.749999572079
 20
185.0785946738837
 30
0.0
 11
252.499999572079
 21
184.8285946738837
 31
0.0
  0
LINE
  5
EF7C86FDB
330
EF7C85532
100
AcDbEntity
  8
JISSEN
100
AcDbLine
 10
289.2499995720792
 20
185.0785946738837
 30
0.0
 11
271.4999995720783
 21
185.078594673884
 31
0.0
  0
LINE
  5
EF7C86FDC
330
EF7C85532
100
AcDbEntity
  8
JISSEN
100
AcDbLine
 10
271.4999995720783
 20
185.0785946738837
 30
0.0
 11
271.4999995720783
 21
167.6785946738845
 31
0.0
  0
LINE
  5
EF7C86FDD
330
EF7C85532
100
AcDbEntity
  8
JISSEN
100
AcDbLine
 10
270.49999957208
 20
185.0785946738837
 30
0.0
 11
270.49999957208
 21
167.6785946738845
 31
0.0
  0
LINE
  5
EF7C86FDE
330
EF7C85532
100
AcDbEntity
  8
JISSEN
100
AcDbLine
 10
287.4980463278553
 20
185.0785946738837
 30
0.0
 11
287.4980463278553
 21
167.6785946738835
 31
0.0
  0
LINE
  5
EF7C86FDF
330
EF7C85532
100
AcDbEntity
  8
JISSEN
100
AcDbLine
 10
286.4980463278553
 20
185.0785946738837
 30
0.0
 11
286.4980463278553
 21
167.6785946738835
 31
0.0
  0
LINE
  5
EF7C86FE0
330
EF7C85532
100
AcDbEntity
  8
JISSEN
100
AcDbLine
 10
270.49999957208
 20
167.6785946738845
 30
0.0
 11
270.9999995720792
 21
167.6785946738845
 31
0.0
  0
LINE
  5
EF7C86FE1
330
EF7C85532
100
AcDbEntity
  8
JISSEN
100
AcDbLine
 10
271.4999995720783
 20
167.6785946738845
 30
0.0
 11
270.9999995720792
 21
167.6785946738845
 31
0.0
  0
LINE
  5
EF7C86FE2
330
EF7C85532
100
AcDbEntity
  8
JISSEN
100
AcDbLine
 10
286.4980463278553
 20
167.6785946738835
 30
0.0
 11
287.4980463278553
 21
167.6785946738835
 31
0.0
  0
LINE
  5
EF7C86FE3
330
EF7C85532
100
AcDbEntity
  8
JISSEN
100
AcDbLine
 10
260.7380752084685
 20
197.0666703102733
 30
0.0
 11
281.2619239356886
 21
197.0666703102751
 31
0.0
  0
LINE
  5
EF7C86FE4
330
EF7C85532
100
AcDbEntity
  8
JISSEN
100
AcDbLine
 10
262.9232609875205
 20
198.3285946738836
 30
0.0
 11
279.0769050326673
 21
198.3285946738843
 31
0.0
  0
LINE
  5
EF7C86FE5
330
EF7C85532
100
AcDbEntity
  8
JISSEN
100
AcDbLine
 10
260.7380752084685
 20
197.0666703102733
 30
0.0
 11
260.3634291230042
 21
185.0785946738837
 31
0.0
  0
LINE
  5
EF7C86FE6
330
EF7C85532
100
AcDbEntity
  8
SAISEN
100
AcDbLine
 10
261.9375610131053
 20
198.2661561149101
 30
0.0
 11
261.5254291230042
 21
185.0785946738836
 31
0.0
  0
LINE
  5
EF7C86FE7
330
EF7C85532
100
AcDbEntity
  8
JISSEN
100
AcDbLine
 10
261.9999995720785
 20
198.3285946738835
 30
0.0
 11
262.9232609875205
 21
198.3285946738836
 31
0.0
  0
LINE
  5
EF7C86FE8
330
EF7C85532
100
AcDbEntity
  8
JISSEN
100
AcDbLine
 10
261.9999995720785
 20
198.3285946738835
 30
0.0
 11
260.7380752084685
 21
197.0666703102733
 31
0.0
  0
LINE
  5
EF7C86FE9
330
EF7C85532
100
AcDbEntity
  8
JISSEN
100
AcDbLine
 10
281.2619239356886
 20
197.0666703102751
 30
0.0
 11
281.6365700211529
 21
185.0785946738836
 31
0.0
  0
LINE
  5
EF7C86FEA
330
EF7C85532
100
AcDbEntity
  8
SAISEN
100
AcDbLine
 10
280.0624381310519
 20
198.266156114912
 30
0.0
 11
280.474570021153
 21
185.0785946738837
 31
0.0
  0
LINE
  5
EF7C86FEB
330
EF7C85532
100
AcDbEntity
  8
JISSEN
100
AcDbLine
 10
279.9999995720785
 20
198.3285946738853
 30
0.0
 11
281.2619239356886
 21
197.0666703102751
 31
0.0
  0
LINE
  5
EF7C86FEC
330
EF7C85532
100
AcDbEntity
  8
JISSEN
100
AcDbLine
 10
279.0769050326671
 20
198.3285946738851
 30
0.0
 11
279.9999995720785
 21
198.3285946738853
 31
0.0
  0
LINE
  5
EF7C86FED
330
EF7C85532
100
AcDbEntity
  8
JISSEN
100
AcDbLine
 10
289.2499995720792
 20
185.0785946738837
 30
0.0
 11
289.4999995720792
 21
184.8285946738837
 31
0.0
  0
TEXT
  5
EF7C87564
330
EF7C85532
100
AcDbEntity
  8
TEXT
100
AcDbText
 10
105.3999992759999
 20
272.6428569184009
 30
0.0
 40
3.0
  1
eZQ型ヘッド
  7
K
 72
     4
 11
116.4999992759999
 21
273.9999997755438
 31
0.0
100
AcDbText
  0
ELLIPSE
  5
EF7C87727
330
EF7C85532
100
AcDbEntity
  8
JISSEN
 62
     0
100
AcDbEllipse
 10
83.7362945491783
 20
150.7193734781007
 30
0.0
 11
0.2665932411522147
 21
-1.476119251202949
 31
0.0
210
0.0
220
0.0
230
-1.0
 40
0.866025403784482
 41
1.570796326794896
 42
4.712388980384689
  0
LINE
  5
EF7C87728
330
EF7C85532
100
AcDbEntity
  8
JISSEN
 62
     0
100
AcDbLine
 10
82.95911905016295
 20
147.7134704049703
 30
0.0
 11
82.45793777862116
 21
150.4884969587856
 31
0.0
  0
LINE
  5
EF7C87729
330
EF7C85532
100
AcDbEntity
  8
JISSEN
 62
     0
100
AcDbLine
 10
75.89999999999998
 20
152.2134704049703
 30
0.0
 11
88.49999999999791
 21
152.2134704049703
 31
0.0
  0
LINE
  5
EF7C8772A
330
EF7C85532
100
AcDbEntity
  8
JISSEN
 62
     0
100
AcDbLine
 10
78.19286452272502
 20
147.7134704049703
 30
0.0
 11
88.49999999999999
 21
147.7134704049703
 31
0.0
  0
LINE
  5
EF7C8772F
330
EF7C85532
100
AcDbEntity
  8
JISSEN
 62
     0
100
AcDbLine
 10
79.7380756363907
 20
197.0666697969456
 30
0.0
 11
100.2619243636108
 21
197.0666697969474
 31
0.0
  0
LINE
  5
EF7C87730
330
EF7C85532
100
AcDbEntity
  8
JISSEN
 62
     0
100
AcDbLine
 10
81.92326141544265
 20
198.3285941605558
 30
0.0
 11
98.0769054605895
 21
198.3285941605566
 31
0.0
  0
LINE
  5
EF7C87733
330
EF7C85532
100
AcDbEntity
  8
JISSEN
 62
     0
100
AcDbLine
 10
83.24999999999898
 20
143.1634704049703
 30
0.0
 11
82.4323614756172
 21
143.1634704049703
 31
0.0
  0
LINE
  5
EF7C87735
330
EF7C85532
100
AcDbEntity
  8
JISSEN
 62
     0
100
AcDbLine
 10
99.2499165619828
 20
143.5204945946099
 30
0.0
 11
91.49999999999833
 21
143.5204945946099
 31
0.0
  0
LINE
  5
EF7C87736
330
EF7C85532
100
AcDbEntity
  8
JISSEN
 62
     0
100
AcDbLine
 10
82.49999999999898
 20
145.6634704049703
 30
0.0
 11
88.49999999999852
 21
145.6634704049703
 31
0.0
  0
LINE
  5
EF7C87737
330
EF7C85532
100
AcDbEntity
  8
JISSEN
 62
     0
100
AcDbLine
 10
99.2499165619828
 20
145.3704945946098
 30
0.0
 11
91.49999999999849
 21
145.3704945946099
 31
0.0
  0
LINE
  5
EF7C87738
330
EF7C85532
100
AcDbEntity
  8
JISSEN
 62
     0
100
AcDbLine
 10
99.24999999999897
 20
145.2204945946097
 30
0.0
 11
91.49999999999851
 21
145.2204945946098
 31
0.0
  0
LINE
  5
EF7C8774A
330
EF7C85532
100
AcDbEntity
  8
JISSEN
 62
     0
100
AcDbLine
 10
75.89999999999998
 20
154.0785941605558
 30
0.0
 11
75.89999999999998
 21
152.2134704049703
 31
0.0
  0
LINE
  5
EF7C8774B
330
EF7C85532
100
AcDbEntity
  8
JISSEN
 62
     0
100
AcDbLine
 10
78.50451091245531
 20
148.0134704049703
 30
0.0
 11
80.71654783518487
 21
148.0134704049703
 31
0.0
  0
ELLIPSE
  5
EF7C8774C
330
EF7C85532
100
AcDbEntity
  8
JISSEN
 62
     0
100
AcDbEllipse
 10
78.29082039795139
 20
150.7999524199594
 30
0.0
 11
-0.6940197743542135
 21
1.337153604893318
 31
0.0
210
0.0
220
0.0
230
-1.0
 40
0.6609228862828055
 41
-1.488791155437144
 42
0.3172914451004174
  0
ELLIPSE
  5
EF7C8774D
330
EF7C85532
100
AcDbEntity
  8
JISSEN
 62
     0
100
AcDbEllipse
 10
78.29082039795139
 20
150.7999524199594
 30
0.0
 11
-0.6940197743542135
 21
1.337153604893318
 31
0.0
210
0.0
220
0.0
230
-1.0
 40
0.6609228862828055
 41
0.3436256476527281
 42
1.652801498152649
  0
LINE
  5
EF7C8774E
330
EF7C85532
100
AcDbEntity
  8
JISSEN
 62
     0
100
AcDbLine
 10
77.35318543040818
 20
150.4523309769495
 30
0.0
 11
78.64613345889461
 21
147.7134704049703
 31
0.0
  0
LINE
  5
EF7C8774F
330
EF7C85532
100
AcDbEntity
  8
JISSEN
 62
     0
100
AcDbLine
 10
79.22845536549459
 20
151.1475738629693
 30
0.0
 11
80.85898976375871
 21
147.7134704049703
 31
0.0
  0
LINE
  5
EF7C87750
330
EF7C85532
100
AcDbEntity
  8
JISSEN
 62
     0
100
AcDbLine
 10
75.89999999999998
 20
152.2134704049703
 30
0.0
 11
78.19286452272502
 21
147.7134704049703
 31
0.0
  0
ARC
  5
EF7C87751
330
EF7C85532
100
AcDbEntity
  8
JISSEN
 62
     0
100
AcDbCircle
 10
82.1495187631425
 20
143.2704945946098
 30
0.0
 40
0.1
100
AcDbArc
 50
19.4712206344878
 51
90.0
  0
LINE
  5
EF7C87752
330
EF7C85532
100
AcDbEntity
  8
JISSEN
 62
     0
100
AcDbLine
 10
80.75008343801494
 20
143.5204945946097
 30
0.0
 11
80.75008343801494
 21
143.3704945946097
 31
0.0
  0
LINE
  5
EF7C87753
330
EF7C85532
100
AcDbEntity
  8
JISSEN
 62
     0
100
AcDbLine
 10
82.4323614756172
 20
143.1704945946098
 30
0.0
 11
82.4323614756172
 21
143.1634704049703
 31
0.0
  0
ARC
  5
EF7C87754
330
EF7C85532
100
AcDbEntity
  8
JISSEN
 62
     0
100
AcDbCircle
 10
82.4323614756172
 20
143.3704945946098
 30
0.0
 40
0.200000000000017
100
AcDbArc
 50
199.4712206344893
 51
270.0
  0
LINE
  5
EF7C87755
330
EF7C85532
100
AcDbEntity
  8
JISSEN
 62
     0
100
AcDbLine
 10
80.75008343801494
 20
145.3704945946099
 30
0.0
 11
80.75008343801494
 21
145.2204945946099
 31
0.0
  0
ARC
  5
EF7C87756
330
EF7C85532
100
AcDbEntity
  8
JISSEN
 62
     0
100
AcDbCircle
 10
82.49999999999898
 20
145.3634704049704
 30
0.0
 40
0.3
100
AcDbArc
 50
90.0
 51
165.5224878140701
  0
ARC
  5
EF7C87757
330
EF7C85532
100
AcDbEntity
  8
JISSEN
 62
     0
100
AcDbCircle
 10
82.11270166537827
 20
145.4634704049704
 30
0.0
 40
0.1
100
AcDbArc
 50
291.6028608817221
 51
345.5224878140701
  0
LINE
  5
EF7C87764
330
EF7C85532
100
AcDbEntity
  8
JISSEN
 62
     0
100
AcDbLine
 10
80.93756144102746
 20
198.2661556015824
 30
0.0
 11
80.52542955092638
 21
185.0785941605561
 31
0.0
  0
LINE
  5
EF7C87765
330
EF7C85532
100
AcDbEntity
  8
JISSEN
 62
     0
100
AcDbLine
 10
79.7380756363907
 20
197.0666697969456
 30
0.0
 11
79.36342955092645
 21
185.078594160556
 31
0.0
  0
LINE
  5
EF7C87774
330
EF7C85532
100
AcDbEntity
  8
JISSEN
 62
     0
100
AcDbLine
 10
81.00000000000079
 20
198.3285941605558
 30
0.0
 11
79.7380756363907
 21
197.0666697969456
 31
0.0
  0
LINE
  5
EF7C87775
330
EF7C85532
100
AcDbEntity
  8
JISSEN
 62
     0
100
AcDbLine
 10
81.00000000000079
 20
198.3285941605558
 30
0.0
 11
81.92326141544265
 21
198.3285941605558
 31
0.0
  0
LINE
  5
EF7C8777E
330
EF7C85532
100
AcDbEntity
  8
JISSEN
 62
     0
100
AcDbLine
 10
92.71976814106187
 20
144.3704945946097
 30
0.0
 11
91.4999999999984
 21
144.3704945946097
 31
0.0
  0
LINE
  5
EF7C8777F
330
EF7C85532
100
AcDbEntity
  8
JISSEN
 62
     0
100
AcDbLine
 10
92.71976814106187
 20
144.3704945946098
 30
0.0
 11
91.4999999999984
 21
144.3704945946098
 31
0.0
  0
LINE
  5
EF7C87780
330
EF7C85532
100
AcDbEntity
  8
JISSEN
 62
     0
100
AcDbLine
 10
96.74999999999897
 20
143.1634704049703
 30
0.0
 11
91.49999999999831
 21
143.1634704049703
 31
0.0
  0
LINE
  5
EF7C87781
330
EF7C85532
100
AcDbEntity
  8
JISSEN
 62
     0
100
AcDbLine
 10
82.90493780953443
 20
148.0134704049703
 30
0.0
 11
85.54504585897177
 21
148.0134704049703
 31
0.0
  0
LINE
  5
EF7C87782
330
EF7C85532
100
AcDbEntity
  8
JISSEN
 62
     0
100
AcDbLine
 10
85.59922709960018
 20
147.7134704049703
 30
0.0
 11
85.01465131973532
 21
150.9502499974158
 31
0.0
  0
ARC
  5
EF7C87784
330
EF7C85532
100
AcDbEntity
  8
JISSEN
 62
     0
100
AcDbCircle
 10
87.35008343801508
 20
144.0204945946098
 30
0.0
 40
0.35
100
AcDbArc
 50
90.0
 51
180.0
  0
ARC
  5
EF7C87785
330
EF7C85532
100
AcDbEntity
  8
JISSEN
 62
     0
100
AcDbCircle
 10
86.80008343801501
 20
143.7204945946098
 30
0.0
 40
0.2
100
AcDbArc
 50
270.0
 51
0.0
  0
LINE
  5
EF7C87786
330
EF7C85532
100
AcDbEntity
  8
JISSEN
 62
     0
100
AcDbLine
 10
87.00008343801494
 20
143.7204945946098
 30
0.0
 11
87.00008343801494
 21
144.0204945946098
 31
0.0
  0
LINE
  5
EF7C87787
330
EF7C85532
100
AcDbEntity
  8
JISSEN
 62
     0
100
AcDbLine
 10
87.00008343801494
 20
143.7204945946098
 30
0.0
 11
87.00008343801494
 21
144.0204945946098
 31
0.0
  0
ARC
  5
EF7C87788
330
EF7C85532
100
AcDbEntity
  8
JISSEN
 62
     0
100
AcDbCircle
 10
87.35008343801508
 20
144.7204945946098
 30
0.0
 40
0.35
100
AcDbArc
 50
180.0
 51
270.0
  0
ARC
  5
EF7C87789
330
EF7C85532
100
AcDbEntity
  8
JISSEN
 62
     0
100
AcDbCircle
 10
86.80008343801501
 20
143.7204945946098
 30
0.0
 40
0.2
100
AcDbArc
 50
270.0
 51
0.0
  0
LINE
  5
EF7C8778A
330
EF7C85532
100
AcDbEntity
  8
JISSEN
 62
     0
100
AcDbLine
 10
87.00008343801494
 20
143.7204945946098
 30
0.0
 11
87.00008343801494
 21
144.0204945946098
 31
0.0
  0
LINE
  5
EF7C8778B
330
EF7C85532
100
AcDbEntity
  8
JISSEN
 62
     0
100
AcDbLine
 10
87.00008343801494
 20
145.0204945946098
 30
0.0
 11
87.00008343801494
 21
144.7204945946098
 31
0.0
  0
ARC
  5
EF7C8778C
330
EF7C85532
100
AcDbEntity
  8
JISSEN
 62
     0
100
AcDbCircle
 10
86.80008343801501
 20
145.0204945946098
 30
0.0
 40
0.2
100
AcDbArc
 50
0.0
 51
90.0
  0
LINE
  5
EF7C8778D
330
EF7C85532
100
AcDbEntity
  8
JISSEN
 62
     0
100
AcDbLine
 10
87.85008343801509
 20
147.7134704049704
 30
0.0
 11
87.85008343801507
 21
145.6704945946098
 31
0.0
  0
LINE
  5
EF7C8778E
330
EF7C85532
100
AcDbEntity
  8
JISSEN
 62
     0
100
AcDbLine
 10
94.45495414102822
 20
148.0134704049703
 30
0.0
 11
97.09506219046545
 21
148.0134704049703
 31
0.0
  0
ELLIPSE
  5
EF7C8778F
330
EF7C85532
100
AcDbEntity
  8
JISSEN
 62
     0
100
AcDbEllipse
 10
96.26370545082171
 20
150.7193734781007
 30
0.0
 11
-0.2665932411522147
 21
-1.476119251202949
 31
0.0
210
0.0
220
0.0
230
1.0
 40
0.866025403784482
 41
1.570796326794896
 42
4.712388980384689
  0
LINE
  5
EF7C87790
330
EF7C85532
100
AcDbEntity
  8
JISSEN
 62
     0
100
AcDbLine
 10
97.04088094983706
 20
147.7134704049703
 30
0.0
 11
97.54206222137884
 21
150.4884969587856
 31
0.0
  0
LINE
  5
EF7C87791
330
EF7C85532
100
AcDbEntity
  8
JISSEN
 62
     0
100
AcDbLine
 10
94.40077290039983
 20
147.7134704049703
 30
0.0
 11
94.98534868026467
 21
150.9502499974158
 31
0.0
  0
LINE
  5
EF7C8779A
330
EF7C85532
100
AcDbEntity
  8
JISSEN
 62
     0
100
AcDbLine
 10
92.14999999999884
 20
147.7134704049704
 30
0.0
 11
92.14999999999884
 21
145.6634704049704
 31
0.0
  0
LINE
  5
EF7C877B4
330
EF7C85532
100
AcDbEntity
  8
JISSEN
 62
     0
100
AcDbLine
 10
104.1
 20
154.0785941605558
 30
0.0
 11
104.1
 21
152.2134704049703
 31
0.0
  0
LINE
  5
EF7C877B5
330
EF7C85532
100
AcDbEntity
  8
JISSEN
 62
     0
100
AcDbLine
 10
99.28345216481512
 20
148.0134704049703
 30
0.0
 11
101.4954890875446
 21
148.0134704049703
 31
0.0
  0
ELLIPSE
  5
EF7C877B6
330
EF7C85532
100
AcDbEntity
  8
JISSEN
 62
     0
100
AcDbEllipse
 10
101.7091796020486
 20
150.7999524199594
 30
0.0
 11
0.6940197743542135
 21
1.337153604893318
 31
0.0
210
0.0
220
0.0
230
1.0
 40
0.6609228862828055
 41
0.3436256476527281
 42
1.652801498152649
  0
LINE
  5
EF7C877B7
330
EF7C85532
100
AcDbEntity
  8
JISSEN
 62
     0
100
AcDbLine
 10
100.7715446345053
 20
151.1475738629693
 30
0.0
 11
99.1410102362413
 21
147.7134704049703
 31
0.0
  0
LINE
  5
EF7C877B8
330
EF7C85532
100
AcDbEntity
  8
JISSEN
 62
     0
100
AcDbLine
 10
102.6468145695918
 20
150.4523309769495
 30
0.0
 11
101.3538665411053
 21
147.7134704049703
 31
0.0
  0
ELLIPSE
  5
EF7C877B9
330
EF7C85532
100
AcDbEntity
  8
JISSEN
 62
     0
100
AcDbEllipse
 10
101.7091796020486
 20
150.7999524199594
 30
0.0
 11
0.6940197743542135
 21
1.337153604893318
 31
0.0
210
0.0
220
0.0
230
1.0
 40
0.6609228862828055
 41
-1.488791155437144
 42
0.3172914451004174
  0
LINE
  5
EF7C877BA
330
EF7C85532
100
AcDbEntity
  8
JISSEN
 62
     0
100
AcDbLine
 10
104.1
 20
152.2134704049703
 30
0.0
 11
101.8071354772749
 21
147.7134704049703
 31
0.0
  0
LINE
  5
EF7C877C6
330
EF7C85532
100
AcDbEntity
  8
JISSEN
 62
     0
100
AcDbLine
 10
99.0000000000008
 20
198.3285941605575
 30
0.0
 11
100.2619243636108
 21
197.0666697969474
 31
0.0
  0
LINE
  5
EF7C877C7
330
EF7C85532
100
AcDbEntity
  8
JISSEN
 62
     0
100
AcDbLine
 10
99.06243855897413
 20
198.2661556015843
 30
0.0
 11
99.47457044907519
 21
185.078594160556
 31
0.0
  0
LINE
  5
EF7C877D5
330
EF7C85532
100
AcDbEntity
  8
JISSEN
 62
     0
100
AcDbLine
 10
98.07690546058939
 20
198.3285941605575
 30
0.0
 11
99.0000000000008
 21
198.3285941605575
 31
0.0
  0
LINE
  5
EF7C877D6
330
EF7C85532
100
AcDbEntity
  8
JISSEN
 62
     0
100
AcDbLine
 10
100.2619243636108
 20
197.0666697969474
 30
0.0
 11
100.6365704490751
 21
185.078594160556
 31
0.0
  0
LINE
  5
EF7C877E7
330
EF7C85532
100
AcDbEntity
  8
JISSEN
 62
     0
100
AcDbLine
 10
80.75008343801496
 20
143.37049459461
 30
0.0
 11
88.49999999999873
 21
143.3704945946099
 31
0.0
  0
LINE
  5
EF7C877E8
330
EF7C85532
100
AcDbEntity
  8
JISSEN
 62
     0
100
AcDbLine
 10
99.24991656198507
 20
145.3704945946099
 30
0.0
 11
99.24991656198507
 21
145.2204945946099
 31
0.0
  0
LINE
  5
EF7C877E9
330
EF7C85532
100
AcDbEntity
  8
JISSEN
 62
     0
100
AcDbLine
 10
99.24991656198507
 20
143.5204945946097
 30
0.0
 11
99.24991656198507
 21
143.3704945946097
 31
0.0
  0
LINE
  5
EF7C877EA
330
EF7C85532
100
AcDbEntity
  8
JISSEN
 62
     0
100
AcDbLine
 10
97.56763852438281
 20
143.1704945946098
 30
0.0
 11
97.56763852438281
 21
143.1634704049703
 31
0.0
  0
LINE
  5
EF7C877EB
330
EF7C85532
100
AcDbEntity
  8
JISSEN
 62
     0
100
AcDbLine
 10
96.75000000000103
 20
143.1634704049703
 30
0.0
 11
97.56763852438281
 21
143.1634704049703
 31
0.0
  0
ARC
  5
EF7C877EC
330
EF7C85532
100
AcDbEntity
  8
JISSEN
 62
     0
100
AcDbCircle
 10
97.88729833462173
 20
145.4634704049704
 30
0.0
 40
0.1
100
AcDbArc
 50
194.4775121859299
 51
248.3971391182778
  0
ARC
  5
EF7C877ED
330
EF7C85532
100
AcDbEntity
  8
JISSEN
 62
     0
100
AcDbCircle
 10
97.85048123685749
 20
143.2704945946098
 30
0.0
 40
0.1
100
AcDbArc
 50
90.0
 51
160.5287793655121
  0
ARC
  5
EF7C877EE
330
EF7C85532
100
AcDbEntity
  8
JISSEN
 62
     0
100
AcDbCircle
 10
97.50000000000103
 20
145.3634704049704
 30
0.0
 40
0.3
100
AcDbArc
 50
14.47751218592986
 51
90.0
  0
ARC
  5
EF7C877EF
330
EF7C85532
100
AcDbEntity
  8
JISSEN
 62
     0
100
AcDbCircle
 10
97.56763852438281
 20
143.3704945946098
 30
0.0
 40
0.200000000000017
100
AcDbArc
 50
270.0
 51
340.5287793655106
  0
ARC
  5
EF7C877F0
330
EF7C85532
100
AcDbEntity
  8
JISSEN
 62
     0
100
AcDbCircle
 10
93.19991656198499
 20
145.0204945946098
 30
0.0
 40
0.2
100
AcDbArc
 50
90.0
 51
180.0
  0
LINE
  5
EF7C877F1
330
EF7C85532
100
AcDbEntity
  8
JISSEN
 62
     0
100
AcDbLine
 10
92.99991656198505
 20
145.0204945946098
 30
0.0
 11
92.99991656198505
 21
144.7204945946098
 31
0.0
  0
LINE
  5
EF7C877F2
330
EF7C85532
100
AcDbEntity
  8
JISSEN
 62
     0
100
AcDbLine
 10
92.99991656198505
 20
143.7204945946098
 30
0.0
 11
92.99991656198505
 21
144.0204945946098
 31
0.0
  0
ARC
  5
EF7C877F3
330
EF7C85532
100
AcDbEntity
  8
JISSEN
 62
     0
100
AcDbCircle
 10
93.19991656198499
 20
143.7204945946098
 30
0.0
 40
0.2
100
AcDbArc
 50
180.0
 51
270.0
  0
ARC
  5
EF7C877F4
330
EF7C85532
100
AcDbEntity
  8
JISSEN
 62
     0
100
AcDbCircle
 10
92.64991656198493
 20
144.7204945946098
 30
0.0
 40
0.35
100
AcDbArc
 50
270.0
 51
0.000000000000007
  0
LINE
  5
EF7C877F5
330
EF7C85532
100
AcDbEntity
  8
JISSEN
 62
     0
100
AcDbLine
 10
92.99991656198505
 20
143.7204945946098
 30
0.0
 11
92.99991656198505
 21
144.0204945946098
 31
0.0
  0
LINE
  5
EF7C877F6
330
EF7C85532
100
AcDbEntity
  8
JISSEN
 62
     0
100
AcDbLine
 10
92.99991656198505
 20
143.7204945946098
 30
0.0
 11
92.99991656198505
 21
144.0204945946098
 31
0.0
  0
ARC
  5
EF7C877F7
330
EF7C85532
100
AcDbEntity
  8
JISSEN
 62
     0
100
AcDbCircle
 10
93.19991656198499
 20
143.7204945946098
 30
0.0
 40
0.2
100
AcDbArc
 50
180.0
 51
270.0
  0
ARC
  5
EF7C877F8
330
EF7C85532
100
AcDbEntity
  8
JISSEN
 62
     0
100
AcDbCircle
 10
92.64991656198493
 20
144.0204945946098
 30
0.0
 40
0.35
100
AcDbArc
 50
0.000000000000007
 51
90.0
  0
LINE
  5
EF7C877FA
330
EF7C85532
100
AcDbEntity
  8
JISSEN
 62
     0
100
AcDbLine
 10
82.49999999999898
 20
75.66347040497041
 30
0.0
 11
97.49999999999898
 21
75.66347040497053
 31
0.0
  0
LINE
  5
EF7C877FB
330
EF7C85532
100
AcDbEntity
  8
JISSEN
 62
     0
100
AcDbLine
 10
99.24999999999897
 20
75.22049459460979
 30
0.0
 11
80.75008343801494
 21
75.22049459460996
 31
0.0
  0
LINE
  5
EF7C877FC
330
EF7C85532
100
AcDbEntity
  8
JISSEN
 62
     0
100
AcDbLine
 10
99.2499165619828
 20
75.37049459460994
 30
0.0
 11
80.75008343801494
 21
75.37049459460994
 31
0.0
  0
LINE
  5
EF7C877FD
330
EF7C85532
100
AcDbEntity
  8
JISSEN
 62
     0
100
AcDbLine
 10
80.75008343801496
 20
73.3704945946101
 30
0.0
 11
99.24991656198507
 21
73.37049459460985
 31
0.0
  0
LINE
  5
EF7C877FE
330
EF7C85532
100
AcDbEntity
  8
JISSEN
 62
     0
100
AcDbLine
 10
96.74999999999897
 20
73.16347040497041
 30
0.0
 11
83.24999999999898
 21
73.16347040497041
 31
0.0
  0
LINE
  5
EF7C877FF
330
EF7C85532
100
AcDbEntity
  8
JISSEN
 62
     0
100
AcDbLine
 10
99.2499165619828
 20
73.52049459460999
 30
0.0
 11
80.75008343801494
 21
73.52049459460985
 31
0.0
  0
ELLIPSE
  5
EF7C87800
330
EF7C85532
100
AcDbEntity
  8
JISSEN
 62
     0
100
AcDbEllipse
 10
96.26370545082171
 20
80.71937347810083
 30
0.0
 11
-0.2665932411522147
 21
-1.476119251202949
 31
0.0
210
0.0
220
0.0
230
1.0
 40
0.866025403784482
 41
1.570796326794896
 42
4.712388980384689
  0
LINE
  5
EF7C87801
330
EF7C85532
100
AcDbEntity
  8
JISSEN
 62
     0
100
AcDbLine
 10
94.45495414102822
 20
78.01347040497043
 30
0.0
 11
97.09506219046545
 21
78.01347040497043
 31
0.0
  0
LINE
  5
EF7C87802
330
EF7C85532
100
AcDbEntity
  8
JISSEN
 62
     0
100
AcDbLine
 10
78.19286452272502
 20
77.71347040497042
 30
0.0
 11
101.8071354772749
 21
77.71347040497042
 31
0.0
  0
LINE
  5
EF7C87803
330
EF7C85532
100
AcDbEntity
  8
JISSEN
 62
     0
100
AcDbLine
 10
75.89999999999998
 20
82.21347040497041
 30
0.0
 11
104.1
 21
82.21347040497041
 31
0.0
  0
LINE
  5
EF7C87804
330
EF7C85532
100
AcDbEntity
  8
JISSEN
 62
     0
100
AcDbLine
 10
75.89999999999998
 20
84.07859416055595
 30
0.0
 11
75.89999999999998
 21
82.21347040497041
 31
0.0
  0
LINE
  5
EF7C87805
330
EF7C85532
100
AcDbEntity
  8
JISSEN
 62
     0
100
AcDbLine
 10
80.75008343801494
 20
75.37049459460999
 30
0.0
 11
80.75008343801494
 21
75.22049459460996
 31
0.0
  0
LINE
  5
EF7C87806
330
EF7C85532
100
AcDbEntity
  8
JISSEN
 62
     0
100
AcDbLine
 10
80.75008343801494
 20
73.52049459460983
 30
0.0
 11
80.75008343801494
 21
73.37049459460985
 31
0.0
  0
LINE
  5
EF7C87807
330
EF7C85532
100
AcDbEntity
  8
JISSEN
 62
     0
100
AcDbLine
 10
77.35318543040818
 20
80.45233097694955
 30
0.0
 11
78.64613345889461
 21
77.71347040497042
 31
0.0
  0
ELLIPSE
  5
EF7C87808
330
EF7C85532
100
AcDbEntity
  8
JISSEN
 62
     0
100
AcDbEllipse
 10
78.29082039795139
 20
80.7999524199595
 30
0.0
 11
-0.6940197743542135
 21
1.337153604893318
 31
0.0
210
0.0
220
0.0
230
-1.0
 40
0.6609228862828055
 41
0.3436256476527281
 42
1.652801498152649
  0
LINE
  5
EF7C87809
330
EF7C85532
100
AcDbEntity
  8
JISSEN
 62
     0
100
AcDbLine
 10
75.89999999999998
 20
82.21347040497041
 30
0.0
 11
78.19286452272502
 21
77.71347040497042
 31
0.0
  0
ELLIPSE
  5
EF7C8780A
330
EF7C85532
100
AcDbEntity
  8
JISSEN
 62
     0
100
AcDbEllipse
 10
78.29082039795139
 20
80.7999524199595
 30
0.0
 11
-0.6940197743542135
 21
1.337153604893318
 31
0.0
210
0.0
220
0.0
230
-1.0
 40
0.6609228862828055
 41
-1.488791155437144
 42
0.3172914451004174
  0
LINE
  5
EF7C8780B
330
EF7C85532
100
AcDbEntity
  8
JISSEN
 62
     0
100
AcDbLine
 10
79.22845536549459
 20
81.14757386296943
 30
0.0
 11
80.85898976375871
 21
77.71347040497042
 31
0.0
  0
LINE
  5
EF7C8780C
330
EF7C85532
100
AcDbEntity
  8
JISSEN
 62
     0
100
AcDbLine
 10
78.50451091245531
 20
78.01347040497043
 30
0.0
 11
80.71654783518487
 21
78.01347040497043
 31
0.0
  0
ARC
  5
EF7C8780D
330
EF7C85532
100
AcDbEntity
  8
JISSEN
 62
     0
100
AcDbCircle
 10
90.0
 20
80.71347040497043
 30
0.0
 40
1.5
100
AcDbArc
 50
0.0
 51
180.0
  0
LINE
  5
EF7C8780E
330
EF7C85532
100
AcDbEntity
  8
JISSEN
 62
     0
100
AcDbLine
 10
92.71976814106187
 20
74.37049459460988
 30
0.0
 11
87.35008343801508
 21
74.37049459460988
 31
0.0
  0
LINE
  5
EF7C8780F
330
EF7C85532
100
AcDbEntity
  8
JISSEN
 62
     0
100
AcDbLine
 10
92.71976814106187
 20
74.37049459460985
 30
0.0
 11
87.35008343801508
 21
74.37049459460985
 31
0.0
  0
LINE
  5
EF7C87810
330
EF7C85532
100
AcDbEntity
  8
JISSEN
 62
     0
100
AcDbLine
 10
88.49999999999999
 20
78.01347040497046
 30
0.0
 11
91.50000000000011
 21
78.01347040497043
 31
0.0
  0
LINE
  5
EF7C87811
330
EF7C85532
100
AcDbEntity
  8
JISSEN
 62
     0
100
AcDbLine
 10
87.85008343801507
 20
77.62049459460993
 30
0.0
 11
87.85008343801507
 21
75.67049459460989
 31
0.0
  0
LINE
  5
EF7C87812
330
EF7C85532
100
AcDbEntity
  8
JISSEN
 62
     0
100
AcDbLine
 10
82.4323614756172
 20
73.17049459460989
 30
0.0
 11
82.4323614756172
 21
73.16347040497044
 31
0.0
  0
LINE
  5
EF7C87813
330
EF7C85532
100
AcDbEntity
  8
JISSEN
 62
     0
100
AcDbLine
 10
83.24999999999898
 20
73.16347040497041
 30
0.0
 11
82.4323614756172
 21
73.16347040497041
 31
0.0
  0
ARC
  5
EF7C87814
330
EF7C85532
100
AcDbEntity
  8
JISSEN
 62
     0
100
AcDbCircle
 10
82.11270166537827
 20
75.46347040497053
 30
0.0
 40
0.1
100
AcDbArc
 50
291.6028608817221
 51
345.5224878140701
  0
ARC
  5
EF7C87815
330
EF7C85532
100
AcDbEntity
  8
JISSEN
 62
     0
100
AcDbCircle
 10
82.1495187631425
 20
73.27049459460988
 30
0.0
 40
0.1
100
AcDbArc
 50
19.4712206344878
 51
90.0
  0
ARC
  5
EF7C87816
330
EF7C85532
100
AcDbEntity
  8
JISSEN
 62
     0
100
AcDbCircle
 10
82.49999999999898
 20
75.36347040497052
 30
0.0
 40
0.3
100
AcDbArc
 50
90.0
 51
165.5224878140701
  0
ARC
  5
EF7C87817
330
EF7C85532
100
AcDbEntity
  8
JISSEN
 62
     0
100
AcDbCircle
 10
82.4323614756172
 20
73.37049459460991
 30
0.0
 40
0.200000000000017
100
AcDbArc
 50
199.4712206344893
 51
270.0
  0
ARC
  5
EF7C87818
330
EF7C85532
100
AcDbEntity
  8
JISSEN
 62
     0
100
AcDbCircle
 10
86.80008343801501
 20
75.02049459460991
 30
0.0
 40
0.2
100
AcDbArc
 50
0.0
 51
90.0
  0
LINE
  5
EF7C87819
330
EF7C85532
100
AcDbEntity
  8
JISSEN
 62
     0
100
AcDbLine
 10
87.00008343801494
 20
75.02049459460991
 30
0.0
 11
87.00008343801494
 21
74.7204945946099
 31
0.0
  0
LINE
  5
EF7C8781A
330
EF7C85532
100
AcDbEntity
  8
JISSEN
 62
     0
100
AcDbLine
 10
87.00008343801494
 20
73.7204945946099
 30
0.0
 11
87.00008343801494
 21
74.02049459460991
 31
0.0
  0
ARC
  5
EF7C8781B
330
EF7C85532
100
AcDbEntity
  8
JISSEN
 62
     0
100
AcDbCircle
 10
86.80008343801501
 20
73.7204945946099
 30
0.0
 40
0.2
100
AcDbArc
 50
270.0
 51
0.0
  0
ARC
  5
EF7C8781C
330
EF7C85532
100
AcDbEntity
  8
JISSEN
 62
     0
100
AcDbCircle
 10
87.35008343801508
 20
74.7204945946099
 30
0.0
 40
0.35
100
AcDbArc
 50
180.0
 51
270.0
  0
LINE
  5
EF7C8781D
330
EF7C85532
100
AcDbEntity
  8
JISSEN
 62
     0
100
AcDbLine
 10
87.00008343801494
 20
73.7204945946099
 30
0.0
 11
87.00008343801494
 21
74.02049459460991
 31
0.0
  0
LINE
  5
EF7C8781E
330
EF7C85532
100
AcDbEntity
  8
JISSEN
 62
     0
100
AcDbLine
 10
87.00008343801494
 20
73.72049459460987
 30
0.0
 11
87.00008343801494
 21
74.02049459460989
 31
0.0
  0
ARC
  5
EF7C8781F
330
EF7C85532
100
AcDbEntity
  8
JISSEN
 62
     0
100
AcDbCircle
 10
86.80008343801501
 20
73.72049459460987
 30
0.0
 40
0.2
100
AcDbArc
 50
270.0
 51
0.0
  0
ARC
  5
EF7C87820
330
EF7C85532
100
AcDbEntity
  8
JISSEN
 62
     0
100
AcDbCircle
 10
87.35008343801508
 20
74.02049459460989
 30
0.0
 40
0.35
100
AcDbArc
 50
90.0
 51
180.0
  0
LINE
  5
EF7C87821
330
EF7C85532
100
AcDbEntity
  8
JISSEN
 62
     0
100
AcDbLine
 10
85.59922709960018
 20
77.71347040497042
 30
0.0
 11
85.01465131973532
 21
80.95024999741594
 31
0.0
  0
LINE
  5
EF7C87822
330
EF7C85532
100
AcDbEntity
  8
JISSEN
 62
     0
100
AcDbLine
 10
82.90493780953443
 20
78.01347040497043
 30
0.0
 11
85.54504585897177
 21
78.01347040497043
 31
0.0
  0
ELLIPSE
  5
EF7C87823
330
EF7C85532
100
AcDbEntity
  8
JISSEN
 62
     0
100
AcDbEllipse
 10
83.7362945491783
 20
80.71937347810083
 30
0.0
 11
0.2665932411522147
 21
-1.476119251202949
 31
0.0
210
0.0
220
0.0
230
-1.0
 40
0.866025403784482
 41
1.570796326794896
 42
4.712388980384689
  0
LINE
  5
EF7C87824
330
EF7C85532
100
AcDbEntity
  8
JISSEN
 62
     0
100
AcDbLine
 10
82.95911905016295
 20
77.71347040497042
 30
0.0
 11
82.45793777862116
 21
80.48849695878576
 31
0.0
  0
LINE
  5
EF7C87825
330
EF7C85532
100
AcDbEntity
  8
JISSEN
 62
     0
100
AcDbLine
 10
88.49999999999999
 20
80.71347040497043
 30
0.0
 11
88.49999999999999
 21
77.71347040497042
 31
0.0
  0
LINE
  5
EF7C87826
330
EF7C85532
100
AcDbEntity
  8
JISSEN
 62
     0
100
AcDbLine
 10
92.14999999999884
 20
77.61347040497051
 30
0.0
 11
92.14999999999884
 21
75.66347040497046
 31
0.0
  0
ARC
  5
EF7C87827
330
EF7C85532
100
AcDbEntity
  8
JISSEN
 62
     0
100
AcDbCircle
 10
92.64991656198493
 20
74.02049459460989
 30
0.0
 40
0.35
100
AcDbArc
 50
0.000000000000007
 51
90.0
  0
ARC
  5
EF7C87828
330
EF7C85532
100
AcDbEntity
  8
JISSEN
 62
     0
100
AcDbCircle
 10
93.19991656198499
 20
73.72049459460987
 30
0.0
 40
0.2
100
AcDbArc
 50
180.0
 51
270.0
  0
LINE
  5
EF7C87829
330
EF7C85532
100
AcDbEntity
  8
JISSEN
 62
     0
100
AcDbLine
 10
92.99991656198505
 20
73.72049459460987
 30
0.0
 11
92.99991656198505
 21
74.02049459460989
 31
0.0
  0
LINE
  5
EF7C8782A
330
EF7C85532
100
AcDbEntity
  8
JISSEN
 62
     0
100
AcDbLine
 10
92.99991656198505
 20
73.7204945946099
 30
0.0
 11
92.99991656198505
 21
74.02049459460991
 31
0.0
  0
ARC
  5
EF7C8782B
330
EF7C85532
100
AcDbEntity
  8
JISSEN
 62
     0
100
AcDbCircle
 10
92.64991656198493
 20
74.7204945946099
 30
0.0
 40
0.35
100
AcDbArc
 50
270.0
 51
0.000000000000007
  0
ARC
  5
EF7C8782C
330
EF7C85532
100
AcDbEntity
  8
JISSEN
 62
     0
100
AcDbCircle
 10
93.19991656198499
 20
73.7204945946099
 30
0.0
 40
0.2
100
AcDbArc
 50
180.0
 51
270.0
  0
LINE
  5
EF7C8782D
330
EF7C85532
100
AcDbEntity
  8
JISSEN
 62
     0
100
AcDbLine
 10
92.99991656198505
 20
73.7204945946099
 30
0.0
 11
92.99991656198505
 21
74.02049459460991
 31
0.0
  0
LINE
  5
EF7C8782E
330
EF7C85532
100
AcDbEntity
  8
JISSEN
 62
     0
100
AcDbLine
 10
92.99991656198505
 20
75.02049459460991
 30
0.0
 11
92.99991656198505
 21
74.7204945946099
 31
0.0
  0
ARC
  5
EF7C8782F
330
EF7C85532
100
AcDbEntity
  8
JISSEN
 62
     0
100
AcDbCircle
 10
93.19991656198499
 20
75.02049459460991
 30
0.0
 40
0.2
100
AcDbArc
 50
90.0
 51
180.0
  0
LINE
  5
EF7C87830
330
EF7C85532
100
AcDbEntity
  8
JISSEN
 62
     0
100
AcDbLine
 10
91.5
 20
80.71347040497043
 30
0.0
 11
91.5
 21
77.71347040497042
 31
0.0
  0
LINE
  5
EF7C87831
330
EF7C85532
100
AcDbEntity
  8
JISSEN
 62
     0
100
AcDbLine
 10
94.40077290039983
 20
77.71347040497042
 30
0.0
 11
94.98534868026467
 21
80.95024999741594
 31
0.0
  0
LINE
  5
EF7C87832
330
EF7C85532
100
AcDbEntity
  8
JISSEN
 62
     0
100
AcDbLine
 10
104.1
 20
84.07859416055595
 30
0.0
 11
104.1
 21
82.21347040497041
 31
0.0
  0
LINE
  5
EF7C87833
330
EF7C85532
100
AcDbEntity
  8
JISSEN
 62
     0
100
AcDbLine
 10
104.1
 20
82.21347040497041
 30
0.0
 11
101.8071354772749
 21
77.71347040497042
 31
0.0
  0
ARC
  5
EF7C87834
330
EF7C85532
100
AcDbEntity
  8
JISSEN
 62
     0
100
AcDbCircle
 10
97.56763852438281
 20
73.37049459460991
 30
0.0
 40
0.200000000000017
100
AcDbArc
 50
270.0
 51
340.5287793655106
  0
ARC
  5
EF7C87835
330
EF7C85532
100
AcDbEntity
  8
JISSEN
 62
     0
100
AcDbCircle
 10
97.50000000000103
 20
75.36347040497052
 30
0.0
 40
0.3
100
AcDbArc
 50
14.47751218592986
 51
90.0
  0
ARC
  5
EF7C87836
330
EF7C85532
100
AcDbEntity
  8
JISSEN
 62
     0
100
AcDbCircle
 10
97.85048123685749
 20
73.27049459460988
 30
0.0
 40
0.1
100
AcDbArc
 50
90.0
 51
160.5287793655121
  0
ARC
  5
EF7C87837
330
EF7C85532
100
AcDbEntity
  8
JISSEN
 62
     0
100
AcDbCircle
 10
97.88729833462173
 20
75.46347040497053
 30
0.0
 40
0.1
100
AcDbArc
 50
194.4775121859299
 51
248.3971391182778
  0
LINE
  5
EF7C87838
330
EF7C85532
100
AcDbEntity
  8
JISSEN
 62
     0
100
AcDbLine
 10
96.75000000000103
 20
73.16347040497041
 30
0.0
 11
97.56763852438281
 21
73.16347040497041
 31
0.0
  0
LINE
  5
EF7C87839
330
EF7C85532
100
AcDbEntity
  8
JISSEN
 62
     0
100
AcDbLine
 10
97.56763852438281
 20
73.17049459460989
 30
0.0
 11
97.56763852438281
 21
73.16347040497044
 31
0.0
  0
LINE
  5
EF7C8783A
330
EF7C85532
100
AcDbEntity
  8
JISSEN
 62
     0
100
AcDbLine
 10
99.24991656198507
 20
73.52049459460983
 30
0.0
 11
99.24991656198507
 21
73.37049459460985
 31
0.0
  0
LINE
  5
EF7C8783B
330
EF7C85532
100
AcDbEntity
  8
JISSEN
 62
     0
100
AcDbLine
 10
99.24991656198507
 20
75.37049459460999
 30
0.0
 11
99.24991656198507
 21
75.22049459460996
 31
0.0
  0
LINE
  5
EF7C8783C
330
EF7C85532
100
AcDbEntity
  8
JISSEN
 62
     0
100
AcDbLine
 10
100.7715446345053
 20
81.14757386296943
 30
0.0
 11
99.1410102362413
 21
77.71347040497042
 31
0.0
  0
LINE
  5
EF7C8783D
330
EF7C85532
100
AcDbEntity
  8
JISSEN
 62
     0
100
AcDbLine
 10
99.28345216481512
 20
78.01347040497043
 30
0.0
 11
101.4954890875446
 21
78.01347040497043
 31
0.0
  0
LINE
  5
EF7C8783E
330
EF7C85532
100
AcDbEntity
  8
JISSEN
 62
     0
100
AcDbLine
 10
97.04088094983706
 20
77.71347040497042
 30
0.0
 11
97.54206222137884
 21
80.48849695878576
 31
0.0
  0
ELLIPSE
  5
EF7C8783F
330
EF7C85532
100
AcDbEntity
  8
JISSEN
 62
     0
100
AcDbEllipse
 10
101.7091796020486
 20
80.7999524199595
 30
0.0
 11
0.6940197743542135
 21
1.337153604893318
 31
0.0
210
0.0
220
0.0
230
1.0
 40
0.6609228862828055
 41
-1.488791155437144
 42
0.3172914451004174
  0
ELLIPSE
  5
EF7C87840
330
EF7C85532
100
AcDbEntity
  8
JISSEN
 62
     0
100
AcDbEllipse
 10
101.7091796020486
 20
80.7999524199595
 30
0.0
 11
0.6940197743542135
 21
1.337153604893318
 31
0.0
210
0.0
220
0.0
230
1.0
 40
0.6609228862828055
 41
0.3436256476527281
 42
1.652801498152649
  0
LINE
  5
EF7C87841
330
EF7C85532
100
AcDbEntity
  8
JISSEN
 62
     0
100
AcDbLine
 10
102.6468145695918
 20
80.45233097694955
 30
0.0
 11
101.3538665411053
 21
77.71347040497042
 31
0.0
  0
TEXT
  5
EF7C878C7
330
EF7C85532
100
AcDbEntity
  8
SUNPOU
100
AcDbText
 10
96.04868307192399
 20
51.1539153075338
 30
0.0
 40
1.5
  1
R
 50
150.7182655555299
  7
K
100
AcDbText
  0
TEXT
  5
EF7C878C8
330
EF7C85532
100
AcDbEntity
  8
SUNPOU
100
AcDbText
 10
97.43979120378439
 20
50.08906220568446
 30
0.0
 40
1.5
  1
Q
 50
141.561357047403
  7
K
100
AcDbText
  0
TEXT
  5
EF7C878C9
330
EF7C85532
100
AcDbEntity
  8
SUNPOU
100
AcDbText
 10
93.53182997153979
 20
31.30218308691642
 30
0.0
 40
1.5
  1
S
 50
21.7997031971855
  7
K
100
AcDbText
  0
TEXT
  5
EF7C878CA
330
EF7C85532
100
AcDbEntity
  8
SUNPOU
100
AcDbText
 10
96.32600434602185
 20
32.63400386844362
 30
0.0
 40
1.5
  1
P
 50
38.41069564365493
  7
K
100
AcDbText
  0
TEXT
  5
EF7C878CB
330
EF7C85532
100
AcDbEntity
  8
SUNPOU
100
AcDbText
 10
94.98157422911337
 20
31.90632551962108
 30
0.0
 40
1.5
  1
S
 50
29.96038365392363
  7
K
100
AcDbText
  0
TEXT
  5
EF7C878CD
330
EF7C85532
100
AcDbEntity
  8
TEXT
100
AcDbText
 10
93.10417846516994
 20
36.09917442866901
 30
0.0
 40
1.8
  1
U
 50
45.7243323008152
  7
K
 72
     1
 11
93.76239767481266
 21
36.77425002732003
 31
0.0
100
AcDbText
  0
TEXT
  5
EF7C878CE
330
EF7C85532
100
AcDbEntity
  8
TEXT
100
AcDbText
 10
91.42618458063473
 20
35.3442940353012
 30
0.0
 40
1.8
  1
J
 50
22.03498383703905
  7
K
 72
     1
 11
91.98235755260148
 21
35.56939762313062
 31
0.0
100
AcDbText
  0
TEXT
  5
EF7C878CF
330
EF7C85532
100
AcDbEntity
  8
TEXT
100
AcDbText
 10
89.0765390648
 20
35.17962937157546
 30
0.0
 40
1.8
  1
N
  7
K
 72
     1
 11
90.01939620765714
 21
35.17962937157546
 31
0.0
100
AcDbText
  0
TEXT
  5
EF7C878D0
330
EF7C85532
100
AcDbEntity
  8
TEXT
100
AcDbText
 10
87.05002237205931
 20
36.00098896377438
 30
0.0
 40
1.8
  1
E
 50
335.7945695415423
  7
K
 72
     1
 11
87.87089550590136
 21
35.63198042981299
 31
0.0
100
AcDbText
  0
TEXT
  5
EF7C878D1
330
EF7C85532
100
AcDbEntity
  8
TEXT
100
AcDbText
 10
85.46423007067536
 20
37.6688746022536
 30
0.0
 40
1.8
  1
S
 50
310.2874187607432
  7
K
 72
     1
 11
86.01847775134856
 21
37.01503717137388
 31
0.0
100
AcDbText
  0
TEXT
  5
EF7C878D2
330
EF7C85532
100
AcDbEntity
  8
TEXT
100
AcDbText
 10
90.84866800193474
 20
48.41399836046709
 30
0.0
 40
1.8
  1
Z
 50
180.0685095036378
  7
K
 72
     1
 11
89.99152575753655
 21
48.41297346093355
 31
0.0
100
AcDbText
  0
CIRCLE
  5
EF7C878D3
330
EF7C85532
100
AcDbEntity
  8
TENSEN
100
AcDbCircle
 10
89.99991656198394
 20
41.83961867685355
 30
0.0
 40
2.849999999999994
  0
TEXT
  5
EF7C878DA
330
EF7C85532
100
AcDbEntity
  8
SUNPOU
100
AcDbText
 10
85.38622409057481
 20
31.57387972701003
 30
0.0
 40
1.5
  1
6
 50
339.8579134473879
  7
K
100
AcDbText
  0
TEXT
  5
EF7C878DB
330
EF7C85532
100
AcDbEntity
  8
SUNPOU
100
AcDbText
 10
84.73687461579638
 20
31.8849252988163
 30
0.0
 40
1.5
  1
.
 50
336.0978633422471
  7
K
100
AcDbText
  0
TEXT
  5
EF7C878DC
330
EF7C85532
100
AcDbEntity
  8
SUNPOU
100
AcDbText
 10
83.50941806565222
 20
32.62903046982735
 30
0.0
 40
1.5
  1
2
 50
328.5978633422466
  7
K
100
AcDbText
  0
TEXT
  5
EF7C878DD
330
EF7C85532
100
AcDbEntity
  8
SUNPOU
100
AcDbText
 10
82.68482127378874
 20
33.26627415378569
 30
0.0
 40
1.5
  1
r
 50
323.1544963328823
  7
K
100
AcDbText
  0
CIRCLE
  5
EF7C878DE
330
EF7C85532
100
AcDbEntity
  8
JISSEN
100
AcDbCircle
 10
90.00000000000003
 20
41.83961867685357
 30
0.0
 40
11.4999165619839
  0
LINE
  5
EF7C878DF
330
EF7C85532
100
AcDbEntity
  8
JISSEN
 48
0.5
100
AcDbLine
 10
94.85233188700991
 20
53.22109696426383
 30
0.0
 11
94.41251304695052
 21
52.45930838715504
 31
0.0
  0
LINE
  5
EF7C878E0
330
EF7C85532
100
AcDbEntity
  8
JISSEN
 48
0.5
100
AcDbLine
 10
97.45040861266538
 20
51.7210978550613
 30
0.0
 11
97.00907585580663
 21
50.95668709713758
 31
0.0
  0
ELLIPSE
  5
EF7C878E1
330
EF7C85532
100
AcDbEntity
  8
JISSEN
100
AcDbEllipse
 10
96.1513702498377
 20
52.47109740966255
 30
0.0
 11
-1.299044046923071
 21
0.7499897093651919
 31
0.0
210
0.0
220
0.0
230
1.0
 40
0.9781196004126297
 41
3.141584554665853
 42
6.283177558793654
  0
ELLIPSE
  5
EF7C878E2
330
EF7C85532
100
AcDbEntity
  8
JISSEN
100
AcDbEllipse
 10
96.09996229423055
 20
52.38205621863773
 30
0.0
 11
-1.299038105676644
 21
0.749999999999992
 31
0.0
210
0.0
220
0.0
230
1.0
 40
0.8447823318035045
 41
3.141592653589793
 42
6.283185480583092
  0
LINE
  5
EF7C878E3
330
EF7C85532
100
AcDbEntity
  8
JISSEN
 48
0.5
100
AcDbLine
 10
99.89298182544898
 20
49.27010206286689
 30
0.0
 11
99.13119324834022
 21
48.83028322280756
 31
0.0
  0
LINE
  5
EF7C878E4
330
EF7C85532
100
AcDbEntity
  8
JISSEN
 48
0.5
100
AcDbLine
 10
101.3929827162463
 20
46.67202636581574
 30
0.0
 11
100.6285719583227
 21
46.23069360895706
 31
0.0
  0
ELLIPSE
  5
EF7C878E5
330
EF7C85532
100
AcDbEntity
  8
JISSEN
100
AcDbEllipse
 10
100.6429822708477
 20
47.97106421434132
 30
0.0
 11
-0.7500102905877282
 21
1.2990321643487
 31
0.0
210
0.0
220
0.0
230
1.0
 40
0.9781196004126297
 41
3.141584554665853
 42
6.283177558793654
  0
ELLIPSE
  5
EF7C878E6
330
EF7C85532
100
AcDbEntity
  8
JISSEN
100
AcDbEllipse
 10
100.5539410798228
 20
47.91965625873417
 30
0.0
 11
-0.7499999999999925
 21
1.299038105676644
 31
0.0
210
0.0
220
0.0
230
1.0
 40
0.8447823318035045
 41
3.141592653589793
 42
6.283185480583092
  0
LINE
  5
EF7C878E7
330
EF7C85532
100
AcDbEntity
  8
JISSEN
 48
0.5
100
AcDbLine
 10
102.2828152730232
 20
43.3281151388148
 30
0.0
 11
101.4031775929045
 21
43.3281151388148
 31
0.0
  0
LINE
  5
EF7C878E8
330
EF7C85532
100
AcDbEntity
  8
JISSEN
 48
0.5
100
AcDbLine
 10
102.2828163016274
 20
40.32811513881482
 30
0.0
 11
101.4001507879101
 21
40.32811513881482
 31
0.0
  0
ELLIPSE
  5
EF7C878E9
330
EF7C85532
100
AcDbEntity
  8
JISSEN
100
AcDbEllipse
 10
102.2828157873254
 20
41.82811513881481
 30
0.0
 11
-0.0000118825743708
 21
1.49999999995292
 31
0.0
210
0.0
220
0.0
230
1.0
 40
0.9781196004126297
 41
3.141584554665853
 42
6.283177558793654
  0
ELLIPSE
  5
EF7C878EA
330
EF7C85532
100
AcDbEntity
  8
JISSEN
100
AcDbEllipse
 10
102.1799998761111
 20
41.82811513881481
 30
0.0
 11
0.0000000000000003
 21
1.499999999999984
 31
0.0
210
0.0
220
0.0
230
1.0
 40
0.8447823318035045
 41
3.141592653589793
 42
6.283185480583092
  0
LINE
  5
EF7C878EB
330
EF7C85532
100
AcDbEntity
  8
JISSEN
 48
0.5
100
AcDbLine
 10
101.3814782874102
 20
36.98728678984364
 30
0.0
 11
100.6196897103013
 21
37.42710562990296
 31
0.0
  0
LINE
  5
EF7C878EC
330
EF7C85532
100
AcDbEntity
  8
JISSEN
 48
0.5
100
AcDbLine
 10
99.88147917820768
 20
34.38921006418819
 30
0.0
 11
99.11706842028403
 21
34.83054282104689
 31
0.0
  0
ELLIPSE
  5
EF7C878ED
330
EF7C85532
100
AcDbEntity
  8
JISSEN
100
AcDbEllipse
 10
100.6314787328089
 20
35.68824842701591
 30
0.0
 11
0.7499897093651931
 21
1.299044046923071
 31
0.0
210
0.0
220
0.0
230
1.0
 40
0.9781196004126297
 41
3.141584554665853
 42
6.283177558793654
  0
ELLIPSE
  5
EF7C878EE
330
EF7C85532
100
AcDbEntity
  8
JISSEN
100
AcDbEllipse
 10
100.5424375417841
 20
35.73965638262306
 30
0.0
 11
0.749999999999993
 21
1.299038105676644
 31
0.0
210
0.0
220
0.0
230
1.0
 40
0.8447823318035045
 41
3.141592653589793
 42
6.283185480583092
  0
LINE
  5
EF7C878EF
330
EF7C85532
100
AcDbEntity
  8
JISSEN
 48
0.5
100
AcDbLine
 10
97.43048338601333
 20
31.94663685140454
 30
0.0
 11
96.99066454595394
 21
32.70842542851335
 31
0.0
  0
LINE
  5
EF7C878F0
330
EF7C85532
100
AcDbEntity
  8
JISSEN
 48
0.5
100
AcDbLine
 10
94.83240768896214
 20
30.44663596060711
 30
0.0
 11
94.39107493210352
 21
31.21104671853084
 31
0.0
  0
ELLIPSE
  5
EF7C878F1
330
EF7C85532
100
AcDbEntity
  8
JISSEN
100
AcDbEllipse
 10
96.13144553748774
 20
31.19663640600583
 30
0.0
 11
1.2990321643487
 21
0.7500102905877271
 31
0.0
210
0.0
220
0.0
230
1.0
 40
0.9781196004126297
 41
3.141584554665853
 42
6.283177558793654
  0
ELLIPSE
  5
EF7C878F2
330
EF7C85532
100
AcDbEntity
  8
JISSEN
100
AcDbEllipse
 10
96.08003758188059
 20
31.28567759703066
 30
0.0
 11
1.299038105676645
 21
0.7499999999999917
 31
0.0
210
0.0
220
0.0
230
1.0
 40
0.8447823318035045
 41
3.141592653589793
 42
6.283185480583092
  0
LINE
  5
EF7C878F3
330
EF7C85532
100
AcDbEntity
  8
JISSEN
 48
0.5
100
AcDbLine
 10
91.4884964619612
 20
29.55680340383031
 30
0.0
 11
91.4884964619612
 21
30.436441083949
 31
0.0
  0
LINE
  5
EF7C878F4
330
EF7C85532
100
AcDbEntity
  8
JISSEN
 48
0.5
100
AcDbLine
 10
88.4884964619612
 20
29.55680237522603
 30
0.0
 11
88.4884964619612
 21
30.43946788894343
 31
0.0
  0
ELLIPSE
  5
EF7C878F5
330
EF7C85532
100
AcDbEntity
  8
JISSEN
100
AcDbEllipse
 10
89.9884964619612
 20
29.55680288952817
 30
0.0
 11
1.49999999995292
 21
0.0000118825743703
 31
0.0
210
0.0
220
0.0
230
1.0
 40
0.9781196004126297
 41
3.141584554665853
 42
6.283177558793654
  0
ELLIPSE
  5
EF7C878F6
330
EF7C85532
100
AcDbEntity
  8
JISSEN
100
AcDbEllipse
 10
89.9884964619612
 20
29.65961880074246
 30
0.0
 11
1.499999999999984
 21
-0.0000000000000008
 31
0.0
210
0.0
220
0.0
230
1.0
 40
0.8447823318035045
 41
3.141592653589793
 42
6.283185480583092
  0
LINE
  5
EF7C878F7
330
EF7C85532
100
AcDbEntity
  8
JISSEN
 48
0.5
100
AcDbLine
 10
85.14766811299002
 20
30.4581403894433
 30
0.0
 11
85.58748695304942
 21
31.21992896655209
 31
0.0
  0
LINE
  5
EF7C878F8
330
EF7C85532
100
AcDbEntity
  8
JISSEN
 48
0.5
100
AcDbLine
 10
82.54959138733468
 20
31.95813949864585
 30
0.0
 11
82.99092414419332
 21
32.72255025656954
 31
0.0
  0
ELLIPSE
  5
EF7C878F9
330
EF7C85532
100
AcDbEntity
  8
JISSEN
100
AcDbEllipse
 10
83.84862975016236
 20
31.20813994404458
 30
0.0
 11
1.299044046923071
 21
-0.749989709365193
 31
0.0
210
0.0
220
0.0
230
1.0
 40
0.9781196004126297
 41
3.141584554665853
 42
6.283177558793654
  0
ELLIPSE
  5
EF7C878FA
330
EF7C85532
100
AcDbEntity
  8
JISSEN
100
AcDbEllipse
 10
83.90003770576951
 20
31.2971811350694
 30
0.0
 11
1.299038105676644
 21
-0.7499999999999928
 31
0.0
210
0.0
220
0.0
230
1.0
 40
0.8447823318035045
 41
3.141592653589793
 42
6.283185480583092
  0
LINE
  5
EF7C878FB
330
EF7C85532
100
AcDbEntity
  8
JISSEN
 48
0.5
100
AcDbLine
 10
80.10701817455098
 20
34.40913529084023
 30
0.0
 11
80.86880675165984
 21
34.84895413089959
 31
0.0
  0
LINE
  5
EF7C878FC
330
EF7C85532
100
AcDbEntity
  8
JISSEN
 48
0.5
100
AcDbLine
 10
78.60701728375355
 20
37.0072109878914
 30
0.0
 11
79.37142804167732
 21
37.44854374475009
 31
0.0
  0
ELLIPSE
  5
EF7C878FD
330
EF7C85532
100
AcDbEntity
  8
JISSEN
100
AcDbEllipse
 10
79.3570177291522
 20
35.70817313936581
 30
0.0
 11
0.7500102905877278
 21
-1.2990321643487
 31
0.0
210
0.0
220
0.0
230
1.0
 40
0.9781196004126297
 41
3.141584554665853
 42
6.283177558793654
  0
ELLIPSE
  5
EF7C878FE
330
EF7C85532
100
AcDbEntity
  8
JISSEN
100
AcDbEllipse
 10
79.44605892017708
 20
35.75958109497296
 30
0.0
 11
0.749999999999992
 21
-1.299038105676644
 31
0.0
210
0.0
220
0.0
230
0.9999999999999998
 40
0.8447823318035045
 41
3.141592653589793
 42
6.283185480583092
  0
LINE
  5
EF7C878FF
330
EF7C85532
100
AcDbEntity
  8
JISSEN
 48
0.5
100
AcDbLine
 10
77.71718472697674
 20
40.35112221489232
 30
0.0
 11
78.5968224070954
 21
40.35112221489232
 31
0.0
  0
LINE
  5
EF7C87900
330
EF7C85532
100
AcDbEntity
  8
JISSEN
 48
0.5
100
AcDbLine
 10
77.71718369837245
 20
43.35112221489229
 30
0.0
 11
78.59984921208982
 21
43.35112221489229
 31
0.0
  0
ELLIPSE
  5
EF7C87901
330
EF7C85532
100
AcDbEntity
  8
JISSEN
100
AcDbEllipse
 10
77.71718421267454
 20
41.8511222148923
 30
0.0
 11
0.000011882574371
 21
-1.49999999995292
 31
0.0
210
0.0
220
0.0
230
1.0
 40
0.9781196004126297
 41
3.141584554665853
 42
6.283177558793654
  0
ELLIPSE
  5
EF7C87902
330
EF7C85532
100
AcDbEntity
  8
JISSEN
100
AcDbEllipse
 10
77.82000012388883
 20
41.8511222148923
 30
0.0
 11
-0.0000000000000001
 21
-1.499999999999984
 31
0.0
210
0.0
220
0.0
230
1.0
 40
0.8447823318035045
 41
3.141592653589793
 42
6.283185480583092
  0
LINE
  5
EF7C87903
330
EF7C85532
100
AcDbEntity
  8
JISSEN
 48
0.5
100
AcDbLine
 10
78.61852171258968
 20
46.6919505638635
 30
0.0
 11
79.38031028969854
 21
46.25213172380417
 31
0.0
  0
LINE
  5
EF7C87904
330
EF7C85532
100
AcDbEntity
  8
JISSEN
 48
0.5
100
AcDbLine
 10
80.11852082179226
 20
49.29002728951894
 30
0.0
 11
80.88293157971603
 21
48.84869453266023
 31
0.0
  0
ELLIPSE
  5
EF7C87905
330
EF7C85532
100
AcDbEntity
  8
JISSEN
100
AcDbEllipse
 10
79.36852126719102
 20
47.99098892669122
 30
0.0
 11
-0.7499897093651926
 21
-1.299044046923071
 31
0.0
210
0.0
220
0.0
230
0.9999999999999998
 40
0.9781196004126297
 41
3.141584554665853
 42
6.283177558793654
  0
ELLIPSE
  5
EF7C87906
330
EF7C85532
100
AcDbEntity
  8
JISSEN
100
AcDbEllipse
 10
79.45756245821579
 20
47.93958097108407
 30
0.0
 11
-0.7499999999999925
 21
-1.299038105676644
 31
0.0
210
0.0
220
0.0
230
1.0
 40
0.8447823318035045
 41
3.141592653589793
 42
6.283185480583092
  0
LINE
  5
EF7C87907
330
EF7C85532
100
AcDbEntity
  8
JISSEN
 48
0.5
100
AcDbLine
 10
82.56951661398662
 20
51.73260050230259
 30
0.0
 11
83.00933545404602
 21
50.97081192519378
 31
0.0
  0
LINE
  5
EF7C87908
330
EF7C85532
100
AcDbEntity
  8
JISSEN
 48
0.5
100
AcDbLine
 10
85.1675923110378
 20
53.23260139310002
 30
0.0
 11
85.60892506789654
 21
52.4681906351763
 31
0.0
  0
ELLIPSE
  5
EF7C87909
330
EF7C85532
100
AcDbEntity
  8
JISSEN
100
AcDbEllipse
 10
83.86855446251221
 20
52.48260094770131
 30
0.0
 11
-1.2990321643487
 21
-0.7500102905877279
 31
0.0
210
0.0
220
0.0
230
0.9999999999999998
 40
0.9781196004126297
 41
3.141584554665853
 42
6.283177558793654
  0
ELLIPSE
  5
EF7C8790A
330
EF7C85532
100
AcDbEntity
  8
JISSEN
100
AcDbEllipse
 10
83.91996241811936
 20
52.39355975667649
 30
0.0
 11
-1.299038105676644
 21
-0.7499999999999922
 31
0.0
210
0.0
220
0.0
230
1.0
 40
0.8447823318035045
 41
3.141592653589793
 42
6.283185480583092
  0
ELLIPSE
  5
EF7C8790B
330
EF7C85532
100
AcDbEntity
  8
JISSEN
100
AcDbEllipse
 10
90.01150353803874
 20
54.01961855296468
 30
0.0
 11
-1.499999999999984
 21
0.0
 31
0.0
210
0.0
220
0.0
230
1.0
 40
0.8447823318035045
 41
3.141592653589793
 42
6.283185480583092
  0
ELLIPSE
  5
EF7C8790C
330
EF7C85532
100
AcDbEntity
  8
JISSEN
100
AcDbEllipse
 10
90.01150353803874
 20
54.12243446417897
 30
0.0
 11
-1.49999999995292
 21
-0.0000118825743711
 31
0.0
210
0.0
220
0.0
230
1.0
 40
0.9781196004126297
 41
3.141584554665853
 42
6.283177558793654
  0
LINE
  5
EF7C8790D
330
EF7C85532
100
AcDbEntity
  8
JISSEN
 48
0.5
100
AcDbLine
 10
91.51150353803874
 20
54.12243497848112
 30
0.0
 11
91.51150353803874
 21
53.23976946476371
 31
0.0
  0
LINE
  5
EF7C8790E
330
EF7C85532
100
AcDbEntity
  8
JISSEN
 48
0.5
100
AcDbLine
 10
88.51150353803873
 20
54.12243394987683
 30
0.0
 11
88.51150353803873
 21
53.24279626975812
 31
0.0
  0
CIRCLE
  5
EF7C8790F
330
EF7C85532
100
AcDbEntity
  8
JISSEN
100
AcDbCircle
 10
90.00000000000003
 20
41.83961867685357
 30
0.0
 40
13.75
  0
CIRCLE
  5
EF7C87910
330
EF7C85532
100
AcDbEntity
  8
JISSEN
100
AcDbCircle
 10
89.99991656198394
 20
41.83961867685357
 30
0.0
 40
0.85
  0
CIRCLE
  5
EF7C87911
330
EF7C85532
100
AcDbEntity
  8
JISSEN
100
AcDbCircle
 10
89.99991656198394
 20
41.83961867685357
 30
0.0
 40
1.1
  0
CIRCLE
  5
EF7C87912
330
EF7C85532
100
AcDbEntity
  8
JISSEN
100
AcDbCircle
 10
89.99991656198384
 20
41.83961867685355
 30
0.0
 40
1.58
  0
ARC
  5
EF7C87913
330
EF7C85532
100
AcDbEntity
  8
JISSEN
100
AcDbCircle
 10
89.99991656198394
 20
41.83961867685357
 30
0.0
 40
17.5
100
AcDbArc
 50
338.2132107017371
 51
81.7867892982637
  0
ARC
  5
EF7C87914
330
EF7C85532
100
AcDbEntity
  8
JISSEN
100
AcDbCircle
 10
89.99991656198394
 20
41.83961867685357
 30
0.0
 40
17.0
100
AcDbArc
 50
338.4565193352699
 51
81.54348066473067
  0
CIRCLE
  5
EF7C87915
330
EF7C85532
100
AcDbEntity
  8
JISSEN
100
AcDbCircle
 10
89.99991656198384
 20
41.83961867685355
 30
0.0
 40
15.14999999999999
  0
ARC
  5
EF7C87917
330
EF7C85532
100
AcDbEntity
  8
JISSEN
100
AcDbCircle
 10
89.99991656198394
 20
41.83961867685357
 30
0.0
 40
17.5
100
AcDbArc
 50
98.21321070173958
 51
201.7867892982624
  0
ARC
  5
EF7C87918
330
EF7C85532
100
AcDbEntity
  8
JISSEN
100
AcDbCircle
 10
89.99991656198394
 20
41.83961867685357
 30
0.0
 40
17.0
100
AcDbArc
 50
98.45651933527101
 51
201.54348066473
  0
ARC
  5
EF7C87919
330
EF7C85532
100
AcDbEntity
  8
JISSEN
100
AcDbCircle
 10
89.99991656198394
 20
41.83961867685357
 30
0.0
 40
17.5
100
AcDbArc
 50
218.213210701739
 51
321.786789298261
  0
ARC
  5
EF7C8791A
330
EF7C85532
100
AcDbEntity
  8
JISSEN
100
AcDbCircle
 10
89.99991656198394
 20
41.83961867685357
 30
0.0
 40
17.0
100
AcDbArc
 50
218.4565193352713
 51
321.5434806647283
  0
ARC
  5
EF7C8791B
330
EF7C85532
100
AcDbEntity
  8
JISSEN
100
AcDbCircle
 10
89.99991656198394
 20
41.83961867685357
 30
0.0
 40
16.25
100
AcDbArc
 50
203.1423515846492
 51
216.8576484153506
  0
ARC
  5
EF7C8791C
330
EF7C85532
100
AcDbEntity
  8
JISSEN
100
AcDbCircle
 10
76.59776828473074
 20
31.7924836845035
 30
0.0
 40
0.5
100
AcDbArc
 50
299.9999999999999
 51
36.85764841535255
  0
LINE
  5
EF7C8791D
330
EF7C85532
100
AcDbEntity
  8
JISSEN
100
AcDbLine
 10
76.24991656198429
 20
31.01430112954819
 30
0.0
 11
76.84776828473073
 21
31.35947098261127
 31
0.0
  0
LINE
  5
EF7C8791E
330
EF7C85532
100
AcDbEntity
  8
JISSEN
100
AcDbLine
 10
74.34776828473065
 20
35.68959800153343
 30
0.0
 11
73.74991656198426
 21
35.34442814847033
 31
0.0
  0
ARC
  5
EF7C8791F
330
EF7C85532
100
AcDbEntity
  8
JISSEN
100
AcDbCircle
 10
74.59776828473062
 20
35.2565852996412
 30
0.0
 40
0.5
100
AcDbArc
 50
23.14235158465141
 51
120.0
  0
ARC
  5
EF7C87920
330
EF7C85532
100
AcDbEntity
  8
JISSEN
100
AcDbCircle
 10
89.99991656198394
 20
27.83961867685357
 30
0.0
 40
2.25
100
AcDbArc
 50
206.8557628338703
 51
333.1442371661296
  0
ARC
  5
EF7C87921
330
EF7C85532
100
AcDbEntity
  8
JISSEN
100
AcDbCircle
 10
89.99991656198394
 20
41.83961867685357
 30
0.0
 40
16.25
100
AcDbArc
 50
323.1423515846494
 51
336.8576484153503
  0
ARC
  5
EF7C87922
330
EF7C85532
100
AcDbEntity
  8
JISSEN
100
AcDbCircle
 10
103.402064839237
 20
31.79248368450346
 30
0.0
 40
0.5
100
AcDbArc
 50
143.1423515846471
 51
239.9999999999999
  0
LINE
  5
EF7C87923
330
EF7C85532
100
AcDbEntity
  8
JISSEN
100
AcDbLine
 10
103.7499165619833
 20
31.01430112954815
 30
0.0
 11
103.152064839237
 21
31.35947098261125
 31
0.0
  0
LINE
  5
EF7C87924
330
EF7C85532
100
AcDbEntity
  8
JISSEN
100
AcDbLine
 10
105.6520648392371
 20
35.68959800153339
 30
0.0
 11
106.2499165619835
 21
35.34442814847029
 31
0.0
  0
ARC
  5
EF7C87925
330
EF7C85532
100
AcDbEntity
  8
JISSEN
100
AcDbCircle
 10
105.4020648392371
 20
35.25658529964116
 30
0.0
 40
0.5
100
AcDbArc
 50
60.00000000000007
 51
156.8576484153485
  0
ARC
  5
EF7C87927
330
EF7C85532
100
AcDbEntity
  8
JISSEN
100
AcDbCircle
 10
77.87556090900173
 20
48.83961867685357
 30
0.0
 40
2.25
100
AcDbArc
 50
86.85576283387112
 51
213.1442371661283
  0
ARC
  5
EF7C87928
330
EF7C85532
100
AcDbEntity
  8
JISSEN
100
AcDbCircle
 10
89.99991656198394
 20
41.83961867685357
 30
0.0
 40
16.25
100
AcDbArc
 50
83.14235158465086
 51
96.85764841535243
  0
LINE
  5
EF7C87929
330
EF7C85532
100
AcDbEntity
  8
JISSEN
100
AcDbLine
 10
87.4999165619835
 20
59.16012675254227
 30
0.0
 11
87.4999165619835
 21
58.4697870464161
 31
0.0
  0
ARC
  5
EF7C8792A
330
EF7C85532
100
AcDbEntity
  8
JISSEN
100
AcDbCircle
 10
87.99991656198349
 20
58.46978704641609
 30
0.0
 40
0.5
100
AcDbArc
 50
180.0
 51
276.8576484153523
  0
LINE
  5
EF7C8792B
330
EF7C85532
100
AcDbEntity
  8
JISSEN
100
AcDbLine
 10
92.4999165619835
 20
58.46978704641621
 30
0.0
 11
92.4999165619835
 21
59.1601267525424
 31
0.0
  0
ARC
  5
EF7C8792C
330
EF7C85532
100
AcDbEntity
  8
JISSEN
100
AcDbCircle
 10
91.99991656198349
 20
58.46978704641621
 30
0.0
 40
0.5
100
AcDbArc
 50
263.1423515846508
 51
0.0
  0
ARC
  5
EF7C8792D
330
EF7C85532
100
AcDbEntity
  8
JISSEN
100
AcDbCircle
 10
102.124272214966
 20
48.83961867685357
 30
0.0
 40
2.25
100
AcDbArc
 50
326.8557628338716
 51
93.14423716612889
  0
TEXT
  5
EF7C8792E
330
EF7C85532
100
AcDbEntity
  8
TEXT
100
AcDbText
 10
88.7972237201103
 20
48.37638168738616
 30
0.0
 40
1.8
  1
Q
 50
199.0031773916884
  7
K
 72
     1
 11
87.90575180176679
 21
48.06936798957826
 31
0.0
100
AcDbText
  0
TEXT
  5
EF7C8792F
330
EF7C85532
100
AcDbEntity
  8
TEXT
100
AcDbText
 10
92.60829408174622
 20
48.06384825477355
 30
0.0
 40
1.8
  1
e
 50
172.0031773916883
  7
K
 72
     1
 11
91.844367047453
 21
48.17116799709669
 31
0.0
100
AcDbText
  0
CIRCLE
  5
EF7C87930
330
EF7C85532
100
AcDbEntity
  8
JISSEN
100
AcDbCircle
 10
90.00000000000003
 20
41.83961867685357
 30
0.0
 40
7.500000000000085
  0
CIRCLE
  5
EF7C87931
330
EF7C85532
100
AcDbEntity
  8
JISSEN
100
AcDbCircle
 10
90.00000000000003
 20
41.83961867685357
 30
0.0
 40
9.250000000000085
  0
ARC
  5
EF7C87932
330
EF7C85532
100
AcDbEntity
  8
TENSEN
100
AcDbCircle
 10
90.00000000000003
 20
41.83961867685357
 30
0.0
 40
9.775000000000085
100
AcDbArc
 50
80.00047420855857
 51
100.0004890686612
  0
ARC
  5
EF7C87933
330
EF7C85532
100
AcDbEntity
  8
TENSEN
100
AcDbCircle
 10
90.00000000000003
 20
41.83961867685357
 30
0.0
 40
10.97500000000008
100
AcDbArc
 50
113.0003943489065
 51
133.000325191073
  0
LINE
  5
EF7C87934
330
EF7C85532
100
AcDbEntity
  8
TENSEN
100
AcDbLine
 10
88.30250689296244
 20
51.46609997333785
 30
0.0
 11
88.0941290797554
 21
52.64786927699084
 31
0.0
  0
LINE
  5
EF7C87935
330
EF7C85532
100
AcDbEntity
  8
TENSEN
100
AcDbLine
 10
91.69732623100541
 20
51.46609997333785
 30
0.0
 11
91.90570404421251
 21
52.64786927699084
 31
0.0
  0
LINE
  5
EF7C87936
330
EF7C85532
100
AcDbEntity
  8
TENSEN
100
AcDbLine
 10
86.18052660923078
 20
50.83754077725312
 30
0.0
 11
85.71164925502845
 21
51.94214660143188
 31
0.0
  0
LINE
  5
EF7C87937
330
EF7C85532
100
AcDbEntity
  8
TENSEN
100
AcDbLine
 10
83.33339154692216
 20
48.98858964893104
 30
0.0
 11
82.51499351482065
 21
49.8662140909025
 31
0.0
  0
ARC
  5
EF7C87939
330
EF7C85532
100
AcDbEntity
  8
TENSEN
100
AcDbCircle
 10
90.00000000000003
 20
41.83961867685357
 30
0.0
 40
10.97500000000008
100
AcDbArc
 50
80.00047420855857
 51
100.0004890686612
  0
ARC
  5
EF7C8793A
330
EF7C85532
100
AcDbEntity
  8
TENSEN
100
AcDbCircle
 10
90.00000000000003
 20
41.83961867685357
 30
0.0
 40
9.775000000000085
100
AcDbArc
 50
113.0003943489065
 51
133.000325191073
  0
ELLIPSE
  5
EF7C87A54
330
EF7C85532
100
AcDbEntity
  8
JISSEN
100
AcDbEllipse
 10
89.99999999999857
 20
154.8819517269471
 30
0.0
 11
0.0
 21
2.673389674331701
 31
0.0
210
0.0
220
0.0
230
1.0
 40
0.5610854318774397
 41
4.712388980384689
 42
7.853981633974482
  0
ARC
  5
EF7C87A55
330
EF7C85532
100
AcDbEntity
  8
JISSEN
 48
3.0
100
AcDbCircle
 10
88.49999999999857
 20
133.5785941604931
 30
0.0
 40
1.49999999999909
100
AcDbArc
 50
0.0
 51
90.0
  0
LINE
  5
EF7C87A56
330
EF7C85532
100
AcDbEntity
  8
JISSEN
 48
3.0
100
AcDbLine
 10
88.49999999999766
 20
154.8819517269466
 30
0.0
 11
88.49999999999949
 21
135.0785941604922
 31
0.0
  0
ARC
  5
EF7C87A5B
330
EF7C85532
100
AcDbEntity
  8
JISSEN
 48
3.0
100
AcDbCircle
 10
71.84999999999622
 20
155.3819517269466
 30
0.0
 40
0.5
100
AcDbArc
 50
259.7516211656067
 51
270.0
  0
LINE
  5
EF7C87A5D
330
EF7C85532
100
AcDbEntity
  8
JISSEN
100
AcDbLine
 10
55.99999999999766
 20
158.5749417237134
 30
0.0
 11
55.99999999999766
 21
159.0785941605559
 31
0.0
  0
ARC
  5
EF7C87A5E
330
EF7C85532
100
AcDbEntity
  8
JISSEN
100
AcDbCircle
 10
56.99999999999767
 20
158.5749417237134
 30
0.0
 40
1.0
100
AcDbArc
 50
180.0
 51
259.7516211656067
  0
LINE
  5
EF7C87A5F
330
EF7C85532
100
AcDbEntity
  8
JISSEN
 48
3.0
100
AcDbLine
 10
71.76104214885203
 20
154.8899288608918
 30
0.0
 11
56.8220842977093
 21
157.5908959916059
 31
0.0
  0
ARC
  5
EF7C87A63
330
EF7C85532
100
AcDbEntity
  8
JISSEN
 62
     7
100
AcDbCircle
 10
70.34999999999712
 20
133.578594160494
 30
0.0
 40
1.49999999999909
100
AcDbArc
 50
179.9999999991141
 51
269.9999999998436
  0
ARC
  5
EF7C87A64
330
EF7C85532
100
AcDbEntity
  8
JISSEN
 48
3.0
100
AcDbCircle
 10
70.34999999999712
 20
133.578594160494
 30
0.0
 40
1.49999999999909
100
AcDbArc
 50
90.0
 51
180.0
  0
LINE
  5
EF7C87A65
330
EF7C85532
100
AcDbEntity
  8
JISSEN
100
AcDbLine
 10
72.84999999999621
 20
154.8819517269462
 30
0.0
 11
72.84999999999531
 21
135.0785941604917
 31
0.0
  0
ARC
  5
EF7C87A66
330
EF7C85532
100
AcDbEntity
  8
JISSEN
100
AcDbCircle
 10
53.84999999999803
 20
143.0785941605563
 30
0.0
 40
15.0
100
AcDbArc
 50
0.0
 51
70.61166638270238
  0
LINE
  5
EF7C87A67
330
EF7C85532
100
AcDbEntity
  8
JISSEN
100
AcDbLine
 10
71.84999999999622
 20
154.8819517269466
 30
0.0
 11
88.49999999999766
 21
154.8819517269471
 31
0.0
  0
LINE
  5
EF7C87A68
330
EF7C85532
100
AcDbEntity
  8
JISSEN
100
AcDbLine
 10
72.84999999999803
 20
154.0785941605527
 30
0.0
 11
88.49999999999766
 21
154.0785941605527
 31
0.0
  0
LINE
  5
EF7C87A6A
330
EF7C85532
100
AcDbEntity
  8
JISSEN
100
AcDbLine
 10
88.49999999999857
 20
135.0785941604922
 30
0.0
 11
70.34999999999712
 21
135.0785941604922
 31
0.0
  0
ARC
  5
EF7C87A8C
330
EF7C85532
100
AcDbEntity
  8
JISSEN
100
AcDbCircle
 10
126.149999999999
 20
143.0785941605563
 30
0.0
 40
15.0
100
AcDbArc
 50
109.3883336172976
 51
180.0
  0
LINE
  5
EF7C87A8D
330
EF7C85532
100
AcDbEntity
  8
JISSEN
 48
3.0
100
AcDbLine
 10
108.238957851145
 20
154.8899288608918
 30
0.0
 11
123.1779157022877
 21
157.5908959916059
 31
0.0
  0
LINE
  5
EF7C87A8F
330
EF7C85532
100
AcDbEntity
  8
JISSEN
100
AcDbLine
 10
91.49999999999847
 20
135.0785941604922
 30
0.0
 11
109.6499999999999
 21
135.0785941604922
 31
0.0
  0
LINE
  5
EF7C87A91
330
EF7C85532
100
AcDbEntity
  8
JISSEN
100
AcDbLine
 10
107.149999999999
 20
154.0785941605527
 30
0.0
 11
91.49999999999938
 21
154.0785941605527
 31
0.0
  0
LINE
  5
EF7C87A92
330
EF7C85532
100
AcDbEntity
  8
JISSEN
100
AcDbLine
 10
108.1500000000008
 20
154.8819517269466
 30
0.0
 11
91.49999999999938
 21
154.8819517269471
 31
0.0
  0
ARC
  5
EF7C87A93
330
EF7C85532
100
AcDbEntity
  8
JISSEN
 48
3.0
100
AcDbCircle
 10
109.6499999999999
 20
133.578594160494
 30
0.0
 40
1.49999999999909
100
AcDbArc
 50
0.000000000000007
 51
90.0
  0
ARC
  5
EF7C87A96
330
EF7C85532
100
AcDbEntity
  8
JISSEN
 62
     7
100
AcDbCircle
 10
109.6499999999999
 20
133.578594160494
 30
0.0
 40
1.49999999999909
100
AcDbArc
 50
270.0000000001563
 51
0.0000000008858806
  0
LINE
  5
EF7C87A98
330
EF7C85532
100
AcDbEntity
  8
JISSEN
100
AcDbLine
 10
107.1500000000008
 20
154.8819517269462
 30
0.0
 11
107.1500000000017
 21
135.0785941604917
 31
0.0
  0
ARC
  5
EF7C87A99
330
EF7C85532
100
AcDbEntity
  8
JISSEN
 48
3.0
100
AcDbCircle
 10
108.1500000000008
 20
155.3819517269466
 30
0.0
 40
0.5
100
AcDbArc
 50
270.0
 51
280.2483788343932
  0
ARC
  5
EF7C87A9A
330
EF7C85532
100
AcDbEntity
  8
JISSEN
 48
3.0
100
AcDbCircle
 10
91.49999999999847
 20
133.5785941604931
 30
0.0
 40
1.49999999999909
100
AcDbArc
 50
90.0
 51
180.0
  0
LINE
  5
EF7C87A9B
330
EF7C85532
100
AcDbEntity
  8
JISSEN
 48
3.0
100
AcDbLine
 10
91.49999999999938
 20
154.8819517269466
 30
0.0
 11
91.49999999999755
 21
135.0785941604922
 31
0.0
  0
ARC
  5
EF7C87AA1
330
EF7C85532
100
AcDbEntity
  8
JISSEN
100
AcDbCircle
 10
122.9999999999993
 20
158.5749417237134
 30
0.0
 40
1.0
100
AcDbArc
 50
280.2483788343932
 51
0.000000000000007
  0
LINE
  5
EF7C87AA2
330
EF7C85532
100
AcDbEntity
  8
JISSEN
100
AcDbLine
 10
123.9999999999993
 20
158.5749417237134
 30
0.0
 11
123.9999999999993
 21
159.0785941605559
 31
0.0
  0
LINE
  5
EF7C87AA6
330
EF7C85532
100
AcDbEntity
  8
JISSEN
100
AcDbLine
 10
109.650000000004
 20
132.0785941604949
 30
0.0
 11
70.34999999999303
 21
132.0785941604949
 31
0.0
  0
LINE
  5
EF7C87AA7
330
EF7C85532
100
AcDbEntity
  8
JISSEN
100
AcDbLine
 10
68.84999999999803
 20
143.0785941605563
 30
0.0
 11
68.84999999999803
 21
133.578594160494
 31
0.0
  0
LINE
  5
EF7C87AA8
330
EF7C85532
100
AcDbEntity
  8
JISSEN
100
AcDbLine
 10
111.149999999999
 20
143.0785941605563
 30
0.0
 11
111.149999999999
 21
133.578594160494
 31
0.0
  0
LINE
  5
EF7C87AAC
330
EF7C85532
100
AcDbEntity
  8
JISSEN
 62
     0
100
AcDbLine
 10
91.5
 20
147.7134704049703
 30
0.0
 11
101.8071354772749
 21
147.7134704049703
 31
0.0
  0
LINE
  5
EF7C87AAD
330
EF7C85532
100
AcDbEntity
  8
JISSEN
 62
     0
100
AcDbLine
 10
91.49999999999854
 20
145.6634704049704
 30
0.0
 11
97.49999999999898
 21
145.6634704049704
 31
0.0
  0
LINE
  5
EF7C87AAE
330
EF7C85532
100
AcDbEntity
  8
JISSEN
 62
     0
100
AcDbLine
 10
88.49999999999855
 20
145.2204945946098
 30
0.0
 11
80.75008343801494
 21
145.2204945946099
 31
0.0
  0
LINE
  5
EF7C87AAF
330
EF7C85532
100
AcDbEntity
  8
JISSEN
 62
     0
100
AcDbLine
 10
88.49999999999855
 20
145.3704945946099
 30
0.0
 11
80.75008343801494
 21
145.3704945946098
 31
0.0
  0
LINE
  5
EF7C87AB0
330
EF7C85532
100
AcDbEntity
  8
JISSEN
 62
     0
100
AcDbLine
 10
88.49999999999864
 20
144.3704945946098
 30
0.0
 11
87.35008343801508
 21
144.3704945946098
 31
0.0
  0
LINE
  5
EF7C87AB1
330
EF7C85532
100
AcDbEntity
  8
JISSEN
 62
     0
100
AcDbLine
 10
88.49999999999864
 20
144.3704945946097
 30
0.0
 11
87.35008343801508
 21
144.3704945946097
 31
0.0
  0
LINE
  5
EF7C87AB2
330
EF7C85532
100
AcDbEntity
  8
JISSEN
 62
     0
100
AcDbLine
 10
91.49999999999833
 20
143.3704945946098
 30
0.0
 11
99.24991656198507
 21
143.3704945946097
 31
0.0
  0
LINE
  5
EF7C87AB3
330
EF7C85532
100
AcDbEntity
  8
JISSEN
 62
     0
100
AcDbLine
 10
88.49999999999871
 20
143.5204945946098
 30
0.0
 11
80.75008343801494
 21
143.5204945946098
 31
0.0
  0
LINE
  5
EF7C87AB4
330
EF7C85532
100
AcDbEntity
  8
JISSEN
 62
     0
100
AcDbLine
 10
88.49999999999875
 20
143.1634704049703
 30
0.0
 11
83.24999999999898
 21
143.1634704049703
 31
0.0
  0
LINE
  5
EF7C87AB5
330
EF7C85532
100
AcDbEntity
  8
JISSEN
 62
     0
100
AcDbLine
 10
91.49999999999913
 20
152.2134704049703
 30
0.0
 11
104.1
 21
152.2134704049703
 31
0.0
  0
LINE
  5
EF7C87AB6
330
EF7C85532
100
AcDbEntity
  8
TEXT
100
AcDbLine
 10
124.8555136308852
 20
269.4990220525594
 30
0.0
 11
126.8555136308852
 21
269.4990220525594
 31
0.0
  0
LINE
  5
EF7C87AB7
330
EF7C85532
100
AcDbEntity
  8
TEXT
100
AcDbLine
 10
124.8555136308852
 20
266.4990220525594
 30
0.0
 11
126.8555136308852
 21
266.4990220525594
 31
0.0
  0
LINE
  5
EF7C87AB8
330
EF7C85532
100
AcDbEntity
  8
TEXT
100
AcDbLine
 10
125.2555136308852
 20
269.4990220525594
 30
0.0
 11
125.2555136308852
 21
266.4990220525594
 31
0.0
  0
LINE
  5
EF7C87AB9
330
EF7C85532
100
AcDbEntity
  8
TEXT
100
AcDbLine
 10
126.4555136308853
 20
269.4990220525594
 30
0.0
 11
126.4555136308853
 21
266.4990220525594
 31
0.0
  0
LINE
  5
EF7C87ABA
330
EF7C85532
100
AcDbEntity
  8
TEXT
100
AcDbLine
 10
125.8555136308852
 20
269.4990220525594
 30
0.0
 11
125.8555136308852
 21
266.4990220525594
 31
0.0
  0
LINE
  5
EF7C87ABC
330
EF7C85532
100
AcDbEntity
  8
JISSEN
100
AcDbLine
 10
253.8499995720759
 20
154.8819522402739
 30
0.0
 11
253.8499995720749
 21
135.0785946738195
 31
0.0
  0
LINE
  5
EF7C87ABD
330
EF7C85532
100
AcDbEntity
  8
JISSEN
100
AcDbLine
 10
249.8499995720777
 20
143.078594673884
 30
0.0
 11
249.8499995720777
 21
133.5785946738217
 31
0.0
  0
LINE
  5
EF7C87ABE
330
EF7C85532
100
AcDbEntity
  8
JISSEN
100
AcDbLine
 10
288.1499995720805
 20
154.8819522402739
 30
0.0
 11
288.1499995720814
 21
135.0785946738195
 31
0.0
  0
LINE
  5
EF7C87ABF
330
EF7C85532
100
AcDbEntity
  8
JISSEN
 48
3.0
100
AcDbLine
 10
272.499999572079
 20
154.8819522402744
 30
0.0
 11
272.4999995720772
 21
135.0785946738199
 31
0.0
  0
LINE
  5
EF7C87AC0
330
EF7C85532
100
AcDbEntity
  8
JISSEN
 48
3.0
100
AcDbLine
 10
269.4999995720773
 20
154.8819522402744
 30
0.0
 11
269.4999995720791
 21
135.0785946738199
 31
0.0
  0
LINE
  5
EF7C87AC1
330
EF7C85532
100
AcDbEntity
  8
JISSEN
100
AcDbLine
 10
292.1499995720786
 20
143.078594673884
 30
0.0
 11
292.1499995720786
 21
133.5785946738217
 31
0.0
  0
LINE
  5
EF7C87AC2
330
EF7C85532
100
AcDbEntity
  8
JISSEN
100
AcDbLine
 10
272.4999995720781
 20
135.0785946738199
 30
0.0
 11
290.6499995720796
 21
135.0785946738199
 31
0.0
  0
LINE
  5
EF7C87AC3
330
EF7C85532
100
AcDbEntity
  8
JISSEN
100
AcDbLine
 10
290.6499995720837
 20
132.0785946738227
 30
0.0
 11
251.3499995720727
 21
132.0785946738227
 31
0.0
  0
LINE
  5
EF7C87AC4
330
EF7C85532
100
AcDbEntity
  8
JISSEN
100
AcDbLine
 10
269.4999995720782
 20
135.0785946738199
 30
0.0
 11
251.3499995720767
 21
135.0785946738199
 31
0.0
  0
ARC
  5
EF7C87AC5
330
EF7C85532
100
AcDbEntity
  8
JISSEN
 62
     7
100
AcDbCircle
 10
251.3499995720767
 20
133.5785946738217
 30
0.0
 40
1.49999999999909
100
AcDbArc
 50
179.9999999991141
 51
269.9999999998436
  0
ARC
  5
EF7C87AC6
330
EF7C85532
100
AcDbEntity
  8
JISSEN
 48
3.0
100
AcDbCircle
 10
251.3499995720767
 20
133.5785946738217
 30
0.0
 40
1.49999999999909
100
AcDbArc
 50
90.0
 51
180.0
  0
ARC
  5
EF7C87AC7
330
EF7C85532
100
AcDbEntity
  8
JISSEN
 48
3.0
100
AcDbCircle
 10
269.4999995720782
 20
133.5785946738208
 30
0.0
 40
1.49999999999909
100
AcDbArc
 50
0.0
 51
90.0
  0
ARC
  5
EF7C87AC8
330
EF7C85532
100
AcDbEntity
  8
JISSEN
 48
3.0
100
AcDbCircle
 10
272.4999995720781
 20
133.5785946738208
 30
0.0
 40
1.49999999999909
100
AcDbArc
 50
90.0
 51
180.0
  0
ARC
  5
EF7C87AC9
330
EF7C85532
100
AcDbEntity
  8
JISSEN
 62
     7
100
AcDbCircle
 10
290.6499995720796
 20
133.5785946738217
 30
0.0
 40
1.49999999999909
100
AcDbArc
 50
270.0000000001563
 51
0.0000000008858806
  0
ARC
  5
EF7C87ACA
330
EF7C85532
100
AcDbEntity
  8
JISSEN
 48
3.0
100
AcDbCircle
 10
290.6499995720796
 20
133.5785946738217
 30
0.0
 40
1.49999999999909
100
AcDbArc
 50
0.000000000000007
 51
90.0
  0
ARC
  5
EF7C87ACB
330
EF7C85532
100
AcDbEntity
  8
JISSEN
100
AcDbCircle
 10
234.8499995720777
 20
143.078594673884
 30
0.0
 40
15.0
100
AcDbArc
 50
0.0
 51
70.61166638270238
  0
LINE
  5
EF7C87ACC
330
EF7C85532
100
AcDbEntity
  8
JISSEN
 48
3.0
100
AcDbLine
 10
252.7610417209317
 20
154.8899293742195
 30
0.0
 11
237.8220838697889
 21
157.5908965049337
 31
0.0
  0
ARC
  5
EF7C87AD0
330
EF7C85532
100
AcDbEntity
  8
JISSEN
100
AcDbCircle
 10
237.9999995720773
 20
158.5749422370411
 30
0.0
 40
1.0
100
AcDbArc
 50
180.0
 51
259.7516211656067
  0
LINE
  5
EF7C87AD1
330
EF7C85532
100
AcDbEntity
  8
JISSEN
100
AcDbLine
 10
236.9999995720773
 20
158.5749422370411
 30
0.0
 11
236.9999995720773
 21
159.0785946738836
 31
0.0
  0
LINE
  5
EF7C87ADA
330
EF7C85532
100
AcDbEntity
  8
JISSEN
100
AcDbLine
 10
288.1499995720787
 20
154.0785946738804
 30
0.0
 11
272.499999572079
 21
154.0785946738804
 31
0.0
  0
LINE
  5
EF7C87ADB
330
EF7C85532
100
AcDbEntity
  8
JISSEN
100
AcDbLine
 10
289.1499995720804
 20
154.8819522402744
 30
0.0
 11
272.499999572079
 21
154.8819522402748
 31
0.0
  0
LINE
  5
EF7C87AE5
330
EF7C85532
100
AcDbEntity
  8
JISSEN
100
AcDbLine
 10
252.8499995720758
 20
154.8819522402744
 30
0.0
 11
269.4999995720773
 21
154.8819522402748
 31
0.0
  0
LINE
  5
EF7C87AE6
330
EF7C85532
100
AcDbEntity
  8
JISSEN
100
AcDbLine
 10
253.8499995720777
 20
154.0785946738804
 30
0.0
 11
269.4999995720773
 21
154.0785946738804
 31
0.0
  0
ARC
  5
EF7C87AF0
330
EF7C85532
100
AcDbEntity
  8
JISSEN
 48
3.0
100
AcDbCircle
 10
252.8499995720758
 20
155.3819522402744
 30
0.0
 40
0.5
100
AcDbArc
 50
259.7516211656067
 51
270.0
  0
ELLIPSE
  5
EF7C87B16
330
EF7C85532
100
AcDbEntity
  8
JISSEN
100
AcDbEllipse
 10
270.9999995720782
 20
154.8819522402748
 30
0.0
 11
0.0
 21
2.673389674331701
 31
0.0
210
0.0
220
0.0
230
1.0
 40
0.5610854318774397
 41
4.712388980384689
 42
7.853981633974482
  0
ARC
  5
EF7C87B1D
330
EF7C85532
100
AcDbEntity
  8
JISSEN
100
AcDbCircle
 10
307.1499995720786
 20
143.078594673884
 30
0.0
 40
15.0
100
AcDbArc
 50
109.3883336172976
 51
180.0
  0
LINE
  5
EF7C87B1E
330
EF7C85532
100
AcDbEntity
  8
JISSEN
 48
3.0
100
AcDbLine
 10
289.2389574232246
 20
154.8899293742195
 30
0.0
 11
304.1779152743674
 21
157.5908965049337
 31
0.0
  0
ARC
  5
EF7C87B2F
330
EF7C85532
100
AcDbEntity
  8
JISSEN
 48
3.0
100
AcDbCircle
 10
289.1499995720804
 20
155.3819522402744
 30
0.0
 40
0.5
100
AcDbArc
 50
270.0
 51
280.2483788343932
  0
ARC
  5
EF7C87B30
330
EF7C85532
100
AcDbEntity
  8
JISSEN
100
AcDbCircle
 10
303.999999572079
 20
158.5749422370411
 30
0.0
 40
1.0
100
AcDbArc
 50
280.2483788343932
 51
0.000000000000007
  0
LINE
  5
EF7C87B32
330
EF7C85532
100
AcDbEntity
  8
JISSEN
100
AcDbLine
 10
304.999999572079
 20
158.5749422370411
 30
0.0
 11
304.999999572079
 21
159.0785946738836
 31
0.0
  0
LINE
  5
EF7C87B34
330
EF7C85532
100
AcDbEntity
  8
JISSEN
100
AcDbLine
 10
336.2759055277733
 20
159.0785946738836
 30
0.0
 11
205.7240936163823
 21
159.0785946738836
 31
0.0
  0
LINE
  5
EF7C87B35
330
EF7C85532
100
AcDbEntity
  8
JISSEN
100
AcDbLine
 10
236.9999995720773
 20
159.0785946738836
 30
0.0
 11
304.999999572079
 21
159.0785946738836
 31
0.0
  0
LINE
  5
EF7C87B37
330
EF7C85532
100
AcDbEntity
  8
JISSEN
100
AcDbLine
 10
24.72409404430448
 20
159.0785941605559
 30
0.0
 11
155.2759059556955
 21
159.0785941605559
 31
0.0
  0
LINE
  5
EF7C87B38
330
EF7C85532
100
AcDbEntity
  8
JISSEN
100
AcDbLine
 10
123.9999999999993
 20
159.0785941605559
 30
0.0
 11
55.99999999999766
 21
159.0785941605559
 31
0.0
  0
LINE
  5
EF7C87B3B
330
EF7C85532
100
AcDbEntity
  8
JISSEN
100
AcDbLine
 10
123.9999999999993
 20
89.07859416055593
 30
0.0
 11
55.99999999999766
 21
89.07859416055593
 31
0.0
  0
LINE
  5
EF7C87B3C
330
EF7C85532
100
AcDbEntity
  8
JISSEN
100
AcDbLine
 10
24.72409404430449
 20
89.07859416055593
 30
0.0
 11
155.2759059556955
 21
89.07859416055593
 31
0.0
  0
LINE
  5
EF7C87B3E
330
EF7C85532
100
AcDbEntity
  8
JISSEN
100
AcDbLine
 10
336.2759055277733
 20
89.07859467388373
 30
0.0
 11
205.7240936163823
 21
89.07859467388373
 31
0.0
  0
LINE
  5
EF7C87B3F
330
EF7C85532
100
AcDbEntity
  8
JISSEN
100
AcDbLine
 10
253.8499995720759
 20
84.881952240274
 30
0.0
 11
253.8499995720749
 21
65.07859467381955
 31
0.0
  0
LINE
  5
EF7C87B40
330
EF7C85532
100
AcDbEntity
  8
JISSEN
100
AcDbLine
 10
249.8499995720777
 20
73.07859467388412
 30
0.0
 11
249.8499995720777
 21
63.57859467382183
 31
0.0
  0
LINE
  5
EF7C87B41
330
EF7C85532
100
AcDbEntity
  8
JISSEN
100
AcDbLine
 10
288.1499995720805
 20
84.881952240274
 30
0.0
 11
288.1499995720814
 21
65.07859467381955
 31
0.0
  0
LINE
  5
EF7C87B42
330
EF7C85532
100
AcDbEntity
  8
JISSEN
 48
3.0
100
AcDbLine
 10
272.499999572079
 20
84.88195224027446
 30
0.0
 11
272.4999995720772
 21
65.07859467382001
 31
0.0
  0
LINE
  5
EF7C87B43
330
EF7C85532
100
AcDbEntity
  8
JISSEN
 48
3.0
100
AcDbLine
 10
269.4999995720773
 20
84.88195224027446
 30
0.0
 11
269.4999995720791
 21
65.07859467382001
 31
0.0
  0
LINE
  5
EF7C87B44
330
EF7C85532
100
AcDbEntity
  8
JISSEN
100
AcDbLine
 10
292.1499995720786
 20
73.07859467388412
 30
0.0
 11
292.1499995720786
 21
63.57859467382183
 31
0.0
  0
LINE
  5
EF7C87B45
330
EF7C85532
100
AcDbEntity
  8
JISSEN
100
AcDbLine
 10
278.4999995720778
 20
71.42859467388423
 30
0.0
 11
277.4999995720778
 21
72.62859467388422
 31
0.0
  0
LINE
  5
EF7C87B46
330
EF7C85532
100
AcDbEntity
  8
JISSEN
100
AcDbLine
 10
263.4999995720778
 20
71.42859467388423
 30
0.0
 11
264.4999995720778
 21
72.62859467388422
 31
0.0
  0
LINE
  5
EF7C87B47
330
EF7C85532
100
AcDbEntity
  8
JISSEN
100
AcDbLine
 10
259.4999995720778
 20
69.92859467388434
 30
0.0
 11
269.4999995720787
 21
69.92859467388426
 31
0.0
  0
LINE
  5
EF7C87B48
330
EF7C85532
100
AcDbEntity
  8
JISSEN
100
AcDbLine
 10
269.4999995720785
 20
70.92859467388423
 30
0.0
 11
259.4999995720778
 21
70.92859467388446
 31
0.0
  0
LINE
  5
EF7C87B49
330
EF7C85532
100
AcDbEntity
  8
JISSEN
100
AcDbLine
 10
269.4999995720782
 20
65.07859467382001
 30
0.0
 11
251.3499995720767
 21
65.07859467382001
 31
0.0
  0
LINE
  5
EF7C87B4A
330
EF7C85532
100
AcDbEntity
  8
JISSEN
100
AcDbLine
 10
290.6499995720837
 20
62.07859467382274
 30
0.0
 11
251.3499995720727
 21
62.07859467382274
 31
0.0
  0
LINE
  5
EF7C87B4B
330
EF7C85532
100
AcDbEntity
  8
JISSEN
100
AcDbLine
 10
263.4999995720778
 20
70.92859467388435
 30
0.0
 11
268.3749995720778
 21
70.92859467388435
 31
0.0
  0
LINE
  5
EF7C87B4C
330
EF7C85532
100
AcDbEntity
  8
JISSEN
100
AcDbLine
 10
263.4999995720778
 20
71.12859467388436
 30
0.0
 11
268.3749995720778
 21
71.12859467388436
 31
0.0
  0
LINE
  5
EF7C87B4D
330
EF7C85532
100
AcDbEntity
  8
JISSEN
100
AcDbLine
 10
268.0249995720783
 20
69.02859467388445
 30
0.0
 11
265.2249995720781
 21
69.02859467388445
 31
0.0
  0
ARC
  5
EF7C87B4E
330
EF7C85532
100
AcDbEntity
  8
JISSEN
 62
     7
100
AcDbCircle
 10
251.3499995720767
 20
63.57859467382183
 30
0.0
 40
1.49999999999909
100
AcDbArc
 50
179.9999999991141
 51
269.9999999998436
  0
ARC
  5
EF7C87B4F
330
EF7C85532
100
AcDbEntity
  8
JISSEN
 48
3.0
100
AcDbCircle
 10
251.3499995720767
 20
63.57859467382183
 30
0.0
 40
1.49999999999909
100
AcDbArc
 50
90.0
 51
180.0
  0
LINE
  5
EF7C87B50
330
EF7C85532
100
AcDbEntity
  8
JISSEN
100
AcDbLine
 10
259.4999995720778
 20
70.92859467388446
 30
0.0
 11
259.4999995720778
 21
69.92859467388434
 31
0.0
  0
ARC
  5
EF7C87B51
330
EF7C85532
100
AcDbEntity
  8
JISSEN
100
AcDbCircle
 10
265.2249995720781
 20
69.82859467388447
 30
0.0
 40
0.0999999999999943
100
AcDbArc
 50
90.00000000001303
 51
180.0000000000161
  0
LINE
  5
EF7C87B52
330
EF7C85532
100
AcDbEntity
  8
JISSEN
100
AcDbLine
 10
263.4999995720778
 20
71.42859467388423
 30
0.0
 11
263.4999995720778
 21
71.12859467388436
 31
0.0
  0
ARC
  5
EF7C87B53
330
EF7C85532
100
AcDbEntity
  8
JISSEN
100
AcDbCircle
 10
265.2249995720781
 20
69.12859467388445
 30
0.0
 40
0.0999999999999943
100
AcDbArc
 50
179.9999999999836
 51
269.9999999999803
  0
LINE
  5
EF7C87B54
330
EF7C85532
100
AcDbEntity
  8
JISSEN
100
AcDbLine
 10
265.1249995720783
 20
69.82859467388447
 30
0.0
 11
265.1249995720783
 21
69.12859467388445
 31
0.0
  0
LINE
  5
EF7C87B55
330
EF7C85532
100
AcDbEntity
  8
JISSEN
100
AcDbLine
 10
282.4999995720778
 20
69.92859467388434
 30
0.0
 11
272.4999995720776
 21
69.92859467388426
 31
0.0
  0
LINE
  5
EF7C87B56
330
EF7C85532
100
AcDbEntity
  8
JISSEN
100
AcDbLine
 10
272.4999995720778
 20
70.92859467388426
 30
0.0
 11
282.4999995720778
 21
70.92859467388446
 31
0.0
  0
LINE
  5
EF7C87B57
330
EF7C85532
100
AcDbEntity
  8
JISSEN
100
AcDbLine
 10
272.4999995720781
 20
65.07859467382001
 30
0.0
 11
290.6499995720796
 21
65.07859467382001
 31
0.0
  0
ARC
  5
EF7C87B58
330
EF7C85532
100
AcDbEntity
  8
JISSEN
100
AcDbCircle
 10
270.9999995720778
 20
76.52859467388437
 30
0.0
 40
7.999999999999522
100
AcDbArc
 50
280.8069228748589
 51
290.1055097879159
  0
ARC
  5
EF7C87B59
330
EF7C85532
100
AcDbEntity
  8
JISSEN
 48
3.0
100
AcDbCircle
 10
269.4999995720782
 20
63.57859467382091
 30
0.0
 40
1.49999999999909
100
AcDbArc
 50
0.0
 51
90.0
  0
ARC
  5
EF7C87B5A
330
EF7C85532
100
AcDbEntity
  8
JISSEN
 48
3.0
100
AcDbCircle
 10
272.4999995720781
 20
63.57859467382091
 30
0.0
 40
1.49999999999909
100
AcDbArc
 50
90.0
 51
180.0
  0
ARC
  5
EF7C87B5B
330
EF7C85532
100
AcDbEntity
  8
JISSEN
100
AcDbCircle
 10
270.9999995720778
 20
76.52859467388437
 30
0.0
 40
7.999999999999522
100
AcDbArc
 50
249.8944902120839
 51
259.193077125146
  0
ARC
  5
EF7C87B5C
330
EF7C85532
100
AcDbEntity
  8
JISSEN
100
AcDbCircle
 10
268.0249995720783
 20
69.82859467388447
 30
0.0
 40
0.0999999999999943
100
AcDbArc
 50
359.9999999999837
 51
89.99999999998044
  0
LINE
  5
EF7C87B5D
330
EF7C85532
100
AcDbEntity
  8
JISSEN
100
AcDbLine
 10
268.3749995720778
 20
70.92859467388423
 30
0.0
 11
268.3749995720778
 21
71.12859467388436
 31
0.0
  0
LINE
  5
EF7C87B5E
330
EF7C85532
100
AcDbEntity
  8
JISSEN
100
AcDbLine
 10
267.3249995720782
 20
69.02859467388445
 30
0.0
 11
267.324999572078
 21
68.37859467388445
 31
0.0
  0
ARC
  5
EF7C87B5F
330
EF7C85532
100
AcDbEntity
  8
JISSEN
100
AcDbCircle
 10
268.0249995720783
 20
69.12859467388445
 30
0.0
 40
0.0999999999999943
100
AcDbArc
 50
270.000000000013
 51
0.0000000000162844
  0
ARC
  5
EF7C87B60
330
EF7C85532
100
AcDbEntity
  8
JISSEN
100
AcDbCircle
 10
266.0249995720783
 20
68.37859467388445
 30
0.0
 40
0.1
100
AcDbArc
 50
180.0
 51
270.0
  0
LINE
  5
EF7C87B61
330
EF7C85532
100
AcDbEntity
  8
JISSEN
100
AcDbLine
 10
265.9249995720781
 20
69.02859467388445
 30
0.0
 11
265.9249995720781
 21
68.37859467388445
 31
0.0
  0
LINE
  5
EF7C87B62
330
EF7C85532
100
AcDbEntity
  8
JISSEN
100
AcDbLine
 10
267.2249995720781
 20
68.27859467388446
 30
0.0
 11
266.0249995720783
 21
68.27859467388446
 31
0.0
  0
ARC
  5
EF7C87B63
330
EF7C85532
100
AcDbEntity
  8
JISSEN
100
AcDbCircle
 10
267.2249995720781
 20
68.37859467388445
 30
0.0
 40
0.1
100
AcDbArc
 50
270.0
 51
0.0
  0
LINE
  5
EF7C87B64
330
EF7C85532
100
AcDbEntity
  8
JISSEN
100
AcDbLine
 10
268.2499995720778
 20
69.01610507322645
 30
0.0
 11
268.2499995720778
 21
69.92859467388434
 31
0.0
  0
LINE
  5
EF7C87B65
330
EF7C85532
100
AcDbEntity
  8
JISSEN
100
AcDbLine
 10
268.1249995720782
 20
69.82859467388447
 30
0.0
 11
268.1249995720782
 21
69.12859467388445
 31
0.0
  0
LINE
  5
EF7C87B66
330
EF7C85532
100
AcDbEntity
  8
JISSEN
100
AcDbLine
 10
278.4999995720778
 20
71.12859467388436
 30
0.0
 11
273.6249995720778
 21
71.12859467388436
 31
0.0
  0
LINE
  5
EF7C87B67
330
EF7C85532
100
AcDbEntity
  8
JISSEN
100
AcDbLine
 10
278.4999995720778
 20
70.92859467388435
 30
0.0
 11
273.6249995720778
 21
70.92859467388435
 31
0.0
  0
LINE
  5
EF7C87B68
330
EF7C85532
100
AcDbEntity
  8
JISSEN
100
AcDbLine
 10
273.9749995720774
 20
69.02859467388445
 30
0.0
 11
276.7749995720774
 21
69.02859467388445
 31
0.0
  0
LINE
  5
EF7C87B69
330
EF7C85532
100
AcDbEntity
  8
JISSEN
100
AcDbLine
 10
273.6249995720778
 20
70.92859467388423
 30
0.0
 11
273.6249995720778
 21
71.12859467388436
 31
0.0
  0
ARC
  5
EF7C87B6A
330
EF7C85532
100
AcDbEntity
  8
JISSEN
100
AcDbCircle
 10
273.9749995720774
 20
69.82859467388447
 30
0.0
 40
0.0999999999999943
100
AcDbArc
 50
90.00000000001303
 51
180.0000000000163
  0
ARC
  5
EF7C87B6B
330
EF7C85532
100
AcDbEntity
  8
JISSEN
100
AcDbCircle
 10
275.9749995720773
 20
68.37859467388445
 30
0.0
 40
0.1
100
AcDbArc
 50
270.0
 51
0.000000000000007
  0
LINE
  5
EF7C87B6C
330
EF7C85532
100
AcDbEntity
  8
JISSEN
100
AcDbLine
 10
276.0749995720773
 20
69.02859467388445
 30
0.0
 11
276.0749995720773
 21
68.37859467388445
 31
0.0
  0
ARC
  5
EF7C87B6D
330
EF7C85532
100
AcDbEntity
  8
JISSEN
100
AcDbCircle
 10
274.7749995720774
 20
68.37859467388445
 30
0.0
 40
0.1
100
AcDbArc
 50
180.0
 51
270.0
  0
LINE
  5
EF7C87B6E
330
EF7C85532
100
AcDbEntity
  8
JISSEN
100
AcDbLine
 10
274.7749995720774
 20
68.27859467388446
 30
0.0
 11
275.9749995720773
 21
68.27859467388446
 31
0.0
  0
LINE
  5
EF7C87B6F
330
EF7C85532
100
AcDbEntity
  8
JISSEN
100
AcDbLine
 10
274.6749995720774
 20
69.02859467388445
 30
0.0
 11
274.6749995720774
 21
68.37859467388445
 31
0.0
  0
ARC
  5
EF7C87B70
330
EF7C85532
100
AcDbEntity
  8
JISSEN
100
AcDbCircle
 10
273.9749995720774
 20
69.12859467388445
 30
0.0
 40
0.0999999999999943
100
AcDbArc
 50
179.9999999999836
 51
269.9999999999803
  0
LINE
  5
EF7C87B71
330
EF7C85532
100
AcDbEntity
  8
JISSEN
100
AcDbLine
 10
273.8749995720774
 20
69.82859467388447
 30
0.0
 11
273.8749995720774
 21
69.12859467388445
 31
0.0
  0
LINE
  5
EF7C87B72
330
EF7C85532
100
AcDbEntity
  8
JISSEN
100
AcDbLine
 10
273.7499995720778
 20
69.01610507322645
 30
0.0
 11
273.7499995720778
 21
69.92859467388434
 31
0.0
  0
LINE
  5
EF7C87B73
330
EF7C85532
100
AcDbEntity
  8
JISSEN
100
AcDbLine
 10
278.4999995720778
 20
71.42859467388423
 30
0.0
 11
278.4999995720778
 21
71.12859467388436
 31
0.0
  0
ARC
  5
EF7C87B74
330
EF7C85532
100
AcDbEntity
  8
JISSEN
100
AcDbCircle
 10
276.7749995720774
 20
69.82859467388447
 30
0.0
 40
0.0999999999999943
100
AcDbArc
 50
359.9999999999837
 51
89.99999999998044
  0
ARC
  5
EF7C87B75
330
EF7C85532
100
AcDbEntity
  8
JISSEN
100
AcDbCircle
 10
276.7749995720774
 20
69.12859467388445
 30
0.0
 40
0.0999999999999943
100
AcDbArc
 50
270.000000000013
 51
0.0000000000162915
  0
LINE
  5
EF7C87B76
330
EF7C85532
100
AcDbEntity
  8
JISSEN
100
AcDbLine
 10
276.8749995720773
 20
69.82859467388447
 30
0.0
 11
276.8749995720773
 21
69.12859467388445
 31
0.0
  0
LINE
  5
EF7C87B77
330
EF7C85532
100
AcDbEntity
  8
JISSEN
100
AcDbLine
 10
282.4999995720778
 20
70.92859467388446
 30
0.0
 11
282.4999995720778
 21
69.92859467388434
 31
0.0
  0
ARC
  5
EF7C87B78
330
EF7C85532
100
AcDbEntity
  8
JISSEN
 62
     7
100
AcDbCircle
 10
290.6499995720796
 20
63.57859467382183
 30
0.0
 40
1.49999999999909
100
AcDbArc
 50
270.0000000001563
 51
0.0000000008858806
  0
ARC
  5
EF7C87B79
330
EF7C85532
100
AcDbEntity
  8
JISSEN
 48
3.0
100
AcDbCircle
 10
290.6499995720796
 20
63.57859467382183
 30
0.0
 40
1.49999999999909
100
AcDbArc
 50
0.000000000000007
 51
90.0
  0
ARC
  5
EF7C87B7A
330
EF7C85532
100
AcDbEntity
  8
JISSEN
100
AcDbCircle
 10
307.1499995720786
 20
73.07859467388412
 30
0.0
 40
15.0
100
AcDbArc
 50
109.3883336172976
 51
180.0
  0
LINE
  5
EF7C87B7B
330
EF7C85532
100
AcDbEntity
  8
JISSEN
 48
3.0
100
AcDbLine
 10
289.2389574232246
 20
84.8899293742196
 30
0.0
 11
304.1779152743674
 21
87.59089650493375
 31
0.0
  0
ARC
  5
EF7C87B7C
330
EF7C85532
100
AcDbEntity
  8
JISSEN
100
AcDbCircle
 10
237.9999995720773
 20
88.5749422370412
 30
0.0
 40
1.0
100
AcDbArc
 50
180.0
 51
259.7516211656067
  0
LINE
  5
EF7C87B7D
330
EF7C85532
100
AcDbEntity
  8
JISSEN
100
AcDbLine
 10
236.9999995720773
 20
88.5749422370412
 30
0.0
 11
236.9999995720773
 21
89.07859467388368
 31
0.0
  0
LINE
  5
EF7C87B7E
330
EF7C85532
100
AcDbEntity
  8
JISSEN
100
AcDbLine
 10
269.4999995720784
 20
72.62859467388422
 30
0.0
 11
264.4999995720778
 21
72.62859467388422
 31
0.0
  0
LINE
  5
EF7C87B7F
330
EF7C85532
100
AcDbEntity
  8
JISSEN
100
AcDbLine
 10
252.8499995720758
 20
84.88195224027446
 30
0.0
 11
269.4999995720773
 21
84.8819522402749
 31
0.0
  0
LINE
  5
EF7C87B80
330
EF7C85532
100
AcDbEntity
  8
JISSEN
100
AcDbLine
 10
253.8499995720777
 20
84.07859467388048
 30
0.0
 11
269.4999995720773
 21
84.07859467388048
 31
0.0
  0
LINE
  5
EF7C87B81
330
EF7C85532
100
AcDbEntity
  8
JISSEN
100
AcDbLine
 10
265.9108999409006
 20
72.92859467388423
 30
0.0
 11
264.4999995720778
 21
72.92859467388423
 31
0.0
  0
ARC
  5
EF7C87B82
330
EF7C85532
100
AcDbEntity
  8
JISSEN
100
AcDbCircle
 10
234.8499995720777
 20
73.07859467388412
 30
0.0
 40
15.0
100
AcDbArc
 50
0.0
 51
70.61166638270238
  0
LINE
  5
EF7C87B83
330
EF7C85532
100
AcDbEntity
  8
JISSEN
 48
3.0
100
AcDbLine
 10
252.7610417209317
 20
84.8899293742196
 30
0.0
 11
237.8220838697889
 21
87.59089650493375
 31
0.0
  0
LINE
  5
EF7C87B84
330
EF7C85532
100
AcDbEntity
  8
JISSEN
100
AcDbLine
 10
264.4999995720778
 20
72.92859467388423
 30
0.0
 11
264.4999995720778
 21
72.62859467388437
 31
0.0
  0
ARC
  5
EF7C87B85
330
EF7C85532
100
AcDbEntity
  8
JISSEN
 48
3.0
100
AcDbCircle
 10
252.8499995720758
 20
85.38195224027445
 30
0.0
 40
0.5
100
AcDbArc
 50
259.7516211656067
 51
270.0
  0
LINE
  5
EF7C87B86
330
EF7C85532
100
AcDbEntity
  8
JISSEN
100
AcDbLine
 10
288.1499995720787
 20
84.07859467388048
 30
0.0
 11
272.499999572079
 21
84.07859467388048
 31
0.0
  0
LINE
  5
EF7C87B87
330
EF7C85532
100
AcDbEntity
  8
JISSEN
100
AcDbLine
 10
289.1499995720804
 20
84.88195224027446
 30
0.0
 11
272.499999572079
 21
84.8819522402749
 31
0.0
  0
LINE
  5
EF7C87B88
330
EF7C85532
100
AcDbEntity
  8
JISSEN
100
AcDbLine
 10
276.0749995720773
 20
72.92873668800372
 30
0.0
 11
276.0749995720771
 21
84.07859467388373
 31
0.0
  0
LINE
  5
EF7C87B89
330
EF7C85532
100
AcDbEntity
  8
JISSEN
100
AcDbLine
 10
274.6749995720774
 20
84.07859467388373
 30
0.0
 11
274.6749995720774
 21
75.76939157979423
 31
0.0
  0
LINE
  5
EF7C87B8A
330
EF7C85532
100
AcDbEntity
  8
JISSEN
100
AcDbLine
 10
267.324999572078
 20
84.07859467388373
 30
0.0
 11
267.3249995720782
 21
75.76939157979423
 31
0.0
  0
LINE
  5
EF7C87B8B
330
EF7C85532
100
AcDbEntity
  8
JISSEN
100
AcDbLine
 10
265.9249995720781
 20
72.92873668800372
 30
0.0
 11
265.9249995720784
 21
84.07859467388373
 31
0.0
  0
LINE
  5
EF7C87B8C
330
EF7C85532
100
AcDbEntity
  8
JISSEN
100
AcDbLine
 10
272.4999995720779
 20
72.6285946738842
 30
0.0
 11
277.4999995720778
 21
72.62859467388422
 31
0.0
  0
LINE
  5
EF7C87B8D
330
EF7C85532
100
AcDbEntity
  8
JISSEN
100
AcDbLine
 10
274.1336488881283
 20
75.92859467388423
 30
0.0
 11
272.4999995720782
 21
75.92859467388426
 31
0.0
  0
LINE
  5
EF7C87B8E
330
EF7C85532
100
AcDbEntity
  8
JISSEN
100
AcDbLine
 10
267.8663502560274
 20
75.92859467388423
 30
0.0
 11
269.4999995720781
 21
75.92859467388423
 31
0.0
  0
ARC
  5
EF7C87B8F
330
EF7C85532
100
AcDbEntity
  8
JISSEN
100
AcDbCircle
 10
265.9108999409006
 20
73.62859467388422
 30
0.0
 40
0.7
100
AcDbArc
 50
270.0
 51
349.9999999999997
  0
LINE
  5
EF7C87B90
330
EF7C85532
100
AcDbEntity
  8
JISSEN
100
AcDbLine
 10
266.8815425030151
 20
75.10224285155122
 30
0.0
 11
266.6002653680091
 21
73.50704094951744
 31
0.0
  0
ARC
  5
EF7C87B91
330
EF7C85532
100
AcDbEntity
  8
JISSEN
100
AcDbCircle
 10
267.8663502560274
 20
74.92859467388424
 30
0.0
 40
1.0
100
AcDbArc
 50
90.0
 51
169.9999999999996
  0
LINE
  5
EF7C87B92
330
EF7C85532
100
AcDbEntity
  8
JISSEN
100
AcDbLine
 10
276.0890992032549
 20
72.92859467388423
 30
0.0
 11
277.4999995720778
 21
72.92859467388423
 31
0.0
  0
ARC
  5
EF7C87B93
330
EF7C85532
100
AcDbEntity
  8
JISSEN
100
AcDbCircle
 10
276.0890992032549
 20
73.62859467388422
 30
0.0
 40
0.7
100
AcDbArc
 50
190.0000000000002
 51
270.0
  0
LINE
  5
EF7C87B94
330
EF7C85532
100
AcDbEntity
  8
JISSEN
100
AcDbLine
 10
275.1184566411404
 20
75.10224285155122
 30
0.0
 11
275.3997337761465
 21
73.50704094951744
 31
0.0
  0
ARC
  5
EF7C87B95
330
EF7C85532
100
AcDbEntity
  8
JISSEN
100
AcDbCircle
 10
274.1336488881283
 20
74.92859467388424
 30
0.0
 40
1.0
100
AcDbArc
 50
10.00000000000025
 51
90.0
  0
LINE
  5
EF7C87B96
330
EF7C85532
100
AcDbEntity
  8
JISSEN
100
AcDbLine
 10
277.4999995720778
 20
72.92859467388423
 30
0.0
 11
277.4999995720778
 21
72.62859467388437
 31
0.0
  0
ELLIPSE
  5
EF7C87B97
330
EF7C85532
100
AcDbEntity
  8
JISSEN
100
AcDbEllipse
 10
270.9999995720782
 20
84.8819522402749
 30
0.0
 11
0.0
 21
2.673389674331701
 31
0.0
210
0.0
220
0.0
230
1.0
 40
0.5610854318774397
 41
4.712388980384689
 42
7.853981633974482
  0
ARC
  5
EF7C87B98
330
EF7C85532
100
AcDbEntity
  8
JISSEN
 48
3.0
100
AcDbCircle
 10
289.1499995720804
 20
85.38195224027445
 30
0.0
 40
0.5
100
AcDbArc
 50
270.0
 51
280.2483788343932
  0
ARC
  5
EF7C87B99
330
EF7C85532
100
AcDbEntity
  8
JISSEN
100
AcDbCircle
 10
303.999999572079
 20
88.5749422370412
 30
0.0
 40
1.0
100
AcDbArc
 50
280.2483788343932
 51
0.000000000000007
  0
LINE
  5
EF7C87B9A
330
EF7C85532
100
AcDbEntity
  8
JISSEN
100
AcDbLine
 10
304.999999572079
 20
88.5749422370412
 30
0.0
 11
304.999999572079
 21
89.07859467388368
 31
0.0
  0
LINE
  5
EF7C87B9B
330
EF7C85532
100
AcDbEntity
  8
JISSEN
100
AcDbLine
 10
236.9999995720773
 20
89.07859467388373
 30
0.0
 11
304.999999572079
 21
89.07859467388373
 31
0.0
  0
ENDSEC
  0
SECTION
  2
OBJECTS
  0
DICTIONARY
  5
EF7C85527
330
0
100
AcDbDictionary
  3
ACAD_GROUP
350
EF7C85528
  3
ACAD_LAYOUT
350
EF7C85BB7
  3
ACAD_MLINESTYLE
350
EF7C85535
  3
ACAD_PLOTSETTINGS
350
EF7C85BB8
  3
ACAD_PLOTSTYLENAME
350
EF7C85BB5
  3
ACDBHEADERROUNDTRIPXREC
350
EF7C87BA3
  3
ACDBVARIABLEDICTIONARY
350
EF7C85DB7
  0
DICTIONARY
  5
EF7C8725C
330
EF7C8551D
100
AcDbDictionary
280
     1
  3
ACAD_LAYERSTATES
360
EF7C8725D
  0
DICTIONARY
  5
EF7C85D9A
330
EF7C85532
100
AcDbDictionary
280
     1
  3
ACAD_LAYOUTSELFREF
360
EF7C87BC5
  0
DICTIONARY
  5
EF7C85D98
330
EF7C8552F
100
AcDbDictionary
280
     1
  3
ACAD_LAYOUTSELFREF
360
EF7C87BC4
  0
DICTIONARY
  5
EF7C85528
102
{ACAD_REACTORS
330
EF7C85527
102
}
330
EF7C85527
100
AcDbDictionary
  0
DICTIONARY
  5
EF7C85BB7
102
{ACAD_REACTORS
330
EF7C85527
102
}
330
EF7C85527
100
AcDbDictionary
  0
DICTIONARY
  5
EF7C85535
102
{ACAD_REACTORS
330
EF7C85527
102
}
330
EF7C85527
100
AcDbDictionary
  3
STANDARD
350
EF7C85536
  0
DICTIONARY
  5
EF7C85BB8
102
{ACAD_REACTORS
330
EF7C85527
102
}
330
EF7C85527
100
AcDbDictionary
  0
ACDBDICTIONARYWDFLT
  5
EF7C85BB5
102
{ACAD_REACTORS
330
EF7C85527
102
}
330
EF7C85527
100
AcDbDictionary
281
     1
  3
Normal
350
EF7C85BB6
100
AcDbDictionaryWithDefault
340
EF7C85BB6
  0
DICTIONARY
  5
EF7C87BA3
102
{ACAD_REACTORS
330
EF7C85527
102
}
330
EF7C85527
100
AcDbDictionary
  3
CEPSNTYPE
350
EF7C87BAD
  3
DIMSTYLEDATA
350
EF7C87BB1
  3
FINGERPRINTGUID
350
EF7C87BAE
  3
HYPERLINKBASE
350
EF7C87BA6
  3
INSUNITS
350
EF7C87BAC
  3
LAYOUTDICT
350
EF7C87BA8
  3
LWETCUNION
350
EF7C87BAB
  3
PLOTSETDICT
350
EF7C87BA9
  3
PLOTSTYLNAMDICT
350
EF7C87BAA
  3
PSVPSCALE
350
EF7C87BB0
  3
PUCSBASE
350
EF7C87BB4
  3
PUCSORGBACK
350
EF7C87BBA
  3
PUCSORGBOTTOM
350
EF7C87BB6
  3
PUCSORGFRONT
350
EF7C87BB9
  3
PUCSORGLEFT
350
EF7C87BB7
  3
PUCSORGRIGHT
350
EF7C87BB8
  3
PUCSORGTOP
350
EF7C87BB5
  3
PUCSORTHOREF
350
EF7C87BB2
  3
PUCSORTHOVIEW
350
EF7C87BB3
  3
STYLESHEET
350
EF7C87BA7
  3
TSTACKALIGN
350
EF7C87BA4
  3
TSTACKSIZE
350
EF7C87BA5
  3
UCSBASE
350
EF7C87BBD
  3
UCSORGBACK
350
EF7C87BC3
  3
UCSORGBOTTOM
350
EF7C87BBF
  3
UCSORGFRONT
350
EF7C87BC2
  3
UCSORGLEFT
350
EF7C87BC0
  3
UCSORGRIGHT
350
EF7C87BC1
  3
UCSORGTOP
350
EF7C87BBE
  3
UCSORTHOREF
350
EF7C87BBB
  3
UCSORTHOVIEW
350
EF7C87BBC
  3
VERSIONGUID
350
EF7C87BAF
  0
DICTIONARY
  5
EF7C85DB7
102
{ACAD_REACTORS
330
EF7C85527
102
}
330
EF7C85527
100
AcDbDictionary
  3
DIMASSOC
350
EF7C87207
  3
SORTENTS
350
EF7C85DB8
  0
DICTIONARY
  5
EF7C8725D
102
{ACAD_REACTORS
330
EF7C8725C
102
}
330
EF7C8725C
100
AcDbDictionary
  0
XRECORD
  5
EF7C87BC5
102
{ACAD_REACTORS
330
EF7C85D9A
102
}
330
EF7C85D9A
100
AcDbXrecord
340
EF7C85532
  0
XRECORD
  5
EF7C87BC4
102
{ACAD_REACTORS
330
EF7C85D98
102
}
330
EF7C85D98
100
AcDbXrecord
340
EF7C8552F
  0
MLINESTYLE
  5
EF7C85536
102
{ACAD_REACTORS
330
EF7C85535
102
}
330
EF7C85535
100
AcDbMlineStyle
  2
STANDARD
 70
     0
  3

 62
   256
 51
90.0
 52
90.0
 71
     2
 49
0.5
 62
   256
  6
BYLAYER
 49
-0.5
 62
   256
  6
BYLAYER
  0
ACDBPLACEHOLDER
  5
EF7C85BB6
102
{ACAD_REACTORS
330
EF7C85BB5
102
}
330
EF7C85BB5
100
AcDbPlaceHolder
280
     0
  0
XRECORD
  5
EF7C87BAD
102
{ACAD_REACTORS
330
EF7C87BA3
102
}
330
EF7C87BA3
100
AcDbXrecord
 90
        0
  0
XRECORD
  5
EF7C87BB1
102
{ACAD_REACTORS
330
EF7C87BA3
102
}
330
EF7C87BA3
100
AcDbXrecord
1000
DSTYLE
1002
{
1070
   341
340
EF7C85537
1070
   342
340
EF7C85537
1070
   343
340
EF7C85543
1070
   344
340
EF7C85543
1002
}
  0
XRECORD
  5
EF7C87BAE
102
{ACAD_REACTORS
330
EF7C87BA3
102
}
330
EF7C87BA3
100
AcDbXrecord
  1
{09AA4C7A-3D6F-4857-A850-771461888CEC}
  0
XRECORD
  5
EF7C87BA6
102
{ACAD_REACTORS
330
EF7C87BA3
102
}
330
EF7C87BA3
100
AcDbXrecord
  1

  0
XRECORD
  5
EF7C87BAC
102
{ACAD_REACTORS
330
EF7C87BA3
102
}
330
EF7C87BA3
100
AcDbXrecord
 90
        0
  0
XRECORD
  5
EF7C87BA8
102
{ACAD_REACTORS
330
EF7C87BA3
102
}
330
EF7C87BA3
100
AcDbXrecord
340
EF7C85BB7
  0
XRECORD
  5
EF7C87BAB
102
{ACAD_REACTORS
330
EF7C87BA3
102
}
330
EF7C87BA3
100
AcDbXrecord
 90
    14877
  0
XRECORD
  5
EF7C87BA9
102
{ACAD_REACTORS
330
EF7C87BA3
102
}
330
EF7C87BA3
100
AcDbXrecord
340
EF7C85BB8
  0
XRECORD
  5
EF7C87BAA
102
{ACAD_REACTORS
330
EF7C87BA3
102
}
330
EF7C87BA3
100
AcDbXrecord
340
EF7C85BB5
  0
XRECORD
  5
EF7C87BB0
102
{ACAD_REACTORS
330
EF7C87BA3
102
}
330
EF7C87BA3
100
AcDbXrecord
 40
0.0
  0
XRECORD
  5
EF7C87BB4
102
{ACAD_REACTORS
330
EF7C87BA3
102
}
330
EF7C87BA3
100
AcDbXrecord
340
0
  0
XRECORD
  5
EF7C87BBA
102
{ACAD_REACTORS
330
EF7C87BA3
102
}
330
EF7C87BA3
100
AcDbXrecord
 10
0.0
 20
0.0
 30
0.0
  0
XRECORD
  5
EF7C87BB6
102
{ACAD_REACTORS
330
EF7C87BA3
102
}
330
EF7C87BA3
100
AcDbXrecord
 10
0.0
 20
0.0
 30
0.0
  0
XRECORD
  5
EF7C87BB9
102
{ACAD_REACTORS
330
EF7C87BA3
102
}
330
EF7C87BA3
100
AcDbXrecord
 10
0.0
 20
0.0
 30
0.0
  0
XRECORD
  5
EF7C87BB7
102
{ACAD_REACTORS
330
EF7C87BA3
102
}
330
EF7C87BA3
100
AcDbXrecord
 10
0.0
 20
0.0
 30
0.0
  0
XRECORD
  5
EF7C87BB8
102
{ACAD_REACTORS
330
EF7C87BA3
102
}
330
EF7C87BA3
100
AcDbXrecord
 10
0.0
 20
0.0
 30
0.0
  0
XRECORD
  5
EF7C87BB5
102
{ACAD_REACTORS
330
EF7C87BA3
102
}
330
EF7C87BA3
100
AcDbXrecord
 10
0.0
 20
0.0
 30
0.0
  0
XRECORD
  5
EF7C87BB2
102
{ACAD_REACTORS
330
EF7C87BA3
102
}
330
EF7C87BA3
100
AcDbXrecord
340
0
  0
XRECORD
  5
EF7C87BB3
102
{ACAD_REACTORS
330
EF7C87BA3
102
}
330
EF7C87BA3
100
AcDbXrecord
 70
     0
  0
XRECORD
  5
EF7C87BA7
102
{ACAD_REACTORS
330
EF7C87BA3
102
}
330
EF7C87BA3
100
AcDbXrecord
  1

  0
XRECORD
  5
EF7C87BA4
102
{ACAD_REACTORS
330
EF7C87BA3
102
}
330
EF7C87BA3
100
AcDbXrecord
 90
        1
  0
XRECORD
  5
EF7C87BA5
102
{ACAD_REACTORS
330
EF7C87BA3
102
}
330
EF7C87BA3
100
AcDbXrecord
 90
       70
  0
XRECORD
  5
EF7C87BBD
102
{ACAD_REACTORS
330
EF7C87BA3
102
}
330
EF7C87BA3
100
AcDbXrecord
340
0
  0
XRECORD
  5
EF7C87BC3
102
{ACAD_REACTORS
330
EF7C87BA3
102
}
330
EF7C87BA3
100
AcDbXrecord
 10
0.0
 20
0.0
 30
0.0
  0
XRECORD
  5
EF7C87BBF
102
{ACAD_REACTORS
330
EF7C87BA3
102
}
330
EF7C87BA3
100
AcDbXrecord
 10
0.0
 20
0.0
 30
0.0
  0
XRECORD
  5
EF7C87BC2
102
{ACAD_REACTORS
330
EF7C87BA3
102
}
330
EF7C87BA3
100
AcDbXrecord
 10
0.0
 20
0.0
 30
0.0
  0
XRECORD
  5
EF7C87BC0
102
{ACAD_REACTORS
330
EF7C87BA3
102
}
330
EF7C87BA3
100
AcDbXrecord
 10
0.0
 20
0.0
 30
0.0
  0
XRECORD
  5
EF7C87BC1
102
{ACAD_REACTORS
330
EF7C87BA3
102
}
330
EF7C87BA3
100
AcDbXrecord
 10
0.0
 20
0.0
 30
0.0
  0
XRECORD
  5
EF7C87BBE
102
{ACAD_REACTORS
330
EF7C87BA3
102
}
330
EF7C87BA3
100
AcDbXrecord
 10
0.0
 20
0.0
 30
0.0
  0
XRECORD
  5
EF7C87BBB
102
{ACAD_REACTORS
330
EF7C87BA3
102
}
330
EF7C87BA3
100
AcDbXrecord
340
0
  0
XRECORD
  5
EF7C87BBC
102
{ACAD_REACTORS
330
EF7C87BA3
102
}
330
EF7C87BA3
100
AcDbXrecord
 70
     0
  0
XRECORD
  5
EF7C87BAF
102
{ACAD_REACTORS
330
EF7C87BA3
102
}
330
EF7C87BA3
100
AcDbXrecord
  1
{828EAEB2-6363-45A1-A810-271F53707076}
  0
DICTIONARYVAR
  5
EF7C87207
102
{ACAD_REACTORS
330
EF7C85DB7
102
}
330
EF7C85DB7
100
DictionaryVariables
280
     0
  1
0
  0
DICTIONARYVAR
  5
EF7C85DB8
102
{ACAD_REACTORS
330
EF7C85DB7
102
}
330
EF7C85DB7
100
DictionaryVariables
280
     0
  1
96
  0
ENDSEC
  0
EOF
