  0
SECTION
  2
HEADER
  9
$ACADVER
  1
AC1015
  9
$ACADMAINTVER
 70
    10
  9
$DWGCODEPAGE
  3
ANSI_932
  9
$INSBASE
 10
0.0
 20
0.0
 30
0.0
  9
$EXTMIN
 10
0.0000004973298928
 20
0.0000001783795369
 30
0.0
  9
$EXTMAX
 10
361.9999990493306
 20
273.0000001783795
 30
1680.364539346804
  9
$LIMMIN
 10
0.0000004973298928
 20
0.0000001783795369
  9
$LIMMAX
 10
361.9999990493306
 20
273.0000001783795
  9
$ORTHOMODE
 70
     0
  9
$REGENMODE
 70
     1
  9
$FILLMODE
 70
     1
  9
$QTEXTMODE
 70
     0
  9
$MIRRTEXT
 70
     0
  9
$LTSCALE
 40
5.0
  9
$ATTMODE
 70
     1
  9
$TEXTSIZE
 40
6.0
  9
$TRACEWID
 40
0.05
  9
$TEXTSTYLE
  7
K
  9
$CLAYER
  8
JISSEN
  9
$CELTYPE
  6
BYLAYER
  9
$CECOLOR
 62
   256
  9
$CELTSCALE
 40
1.0
  9
$DISPSILH
 70
     0
  9
$DIMSCALE
 40
1.0
  9
$DIMASZ
 40
1.099999999999998
  9
$DIMEXO
 40
1.0
  9
$DIMDLI
 40
6.0
  9
$DIMRND
 40
0.0
  9
$DIMDLE
 40
0.0
  9
$DIMEXE
 40
1.0
  9
$DIMTP
 40
0.0
  9
$DIMTM
 40
0.0
  9
$DIMTXT
 40
3.0
  9
$DIMCEN
 40
1.0
  9
$DIMTSZ
 40
0.0
  9
$DIMTOL
 70
     0
  9
$DIMLIM
 70
     0
  9
$DIMTIH
 70
     0
  9
$DIMTOH
 70
     0
  9
$DIMSE1
 70
     0
  9
$DIMSE2
 70
     0
  9
$DIMTAD
 70
     0
  9
$DIMZIN
 70
     8
  9
$DIMBLK
  1
ARROW
  9
$DIMASO
 70
     0
  9
$DIMSHO
 70
     0
  9
$DIMPOST
  1

  9
$DIMAPOST
  1

  9
$DIMALT
 70
     0
  9
$DIMALTD
 70
     2
  9
$DIMALTF
 40
25.4
  9
$DIMLFAC
 40
1.0
  9
$DIMTOFL
 70
     1
  9
$DIMTVP
 40
1.0
  9
$DIMTIX
 70
     0
  9
$DIMSOXD
 70
     0
  9
$DIMSAH
 70
     0
  9
$DIMBLK1
  1

  9
$DIMBLK2
  1

  9
$DIMSTYLE
  2
IMAO
  9
$DIMCLRD
 70
     0
  9
$DIMCLRE
 70
     0
  9
$DIMCLRT
 70
     0
  9
$DIMTFAC
 40
1.0
  9
$DIMGAP
 40
0.09
  9
$DIMJUST
 70
     0
  9
$DIMSD1
 70
     0
  9
$DIMSD2
 70
     0
  9
$DIMTOLJ
 70
     1
  9
$DIMTZIN
 70
     0
  9
$DIMALTZ
 70
     0
  9
$DIMALTTZ
 70
     0
  9
$DIMUPT
 70
     0
  9
$DIMDEC
 70
     2
  9
$DIMTDEC
 70
     2
  9
$DIMALTU
 70
     2
  9
$DIMALTTD
 70
     2
  9
$DIMTXSTY
  7
STANDARD
  9
$DIMAUNIT
 70
     0
  9
$DIMADEC
 70
     0
  9
$DIMALTRND
 40
0.0
  9
$DIMAZIN
 70
     0
  9
$DIMDSEP
 70
    46
  9
$DIMATFIT
 70
     3
  9
$DIMFRAC
 70
     0
  9
$DIMLDRBLK
  1
ARROW
  9
$DIMLUNIT
 70
     2
  9
$DIMLWD
 70
    -2
  9
$DIMLWE
 70
    -2
  9
$DIMTMOVE
 70
     0
  9
$LUNITS
 70
     2
  9
$LUPREC
 70
     2
  9
$SKETCHINC
 40
0.1
  9
$FILLETRAD
 40
0.3
  9
$AUNITS
 70
     0
  9
$AUPREC
 70
     2
  9
$MENU
  1
stdr12j
  9
$ELEVATION
 40
0.0
  9
$PELEVATION
 40
0.0
  9
$THICKNESS
 40
0.0
  9
$LIMCHECK
 70
     0
  9
$CHAMFERA
 40
0.0
  9
$CHAMFERB
 40
0.0
  9
$CHAMFERC
 40
0.0
  9
$CHAMFERD
 40
0.0
  9
$SKPOLY
 70
     0
  9
$TDCREATE
 40
2450542.749144212
  9
$TDUCREATE
 40
2450542.374144212
  9
$TDUPDATE
 40
2457291.446927199
  9
$TDUUPDATE
 40
2457291.071927199
  9
$TDINDWG
 40
1.5311145255
  9
$TDUSRTIMER
 40
1.5311139468
  9
$USRTIMER
 70
     1
  9
$ANGBASE
 50
0.0
  9
$ANGDIR
 70
     0
  9
$PDMODE
 70
     0
  9
$PDSIZE
 40
0.0
  9
$PLINEWID
 40
0.0
  9
$SPLFRAME
 70
     0
  9
$SPLINETYPE
 70
     6
  9
$SPLINESEGS
 70
     8
  9
$HANDSEED
  5
E00EDDA9
  9
$SURFTAB1
 70
     6
  9
$SURFTAB2
 70
     6
  9
$SURFTYPE
 70
     6
  9
$SURFU
 70
     6
  9
$SURFV
 70
     6
  9
$UCSBASE
  2

  9
$UCSNAME
  2

  9
$UCSORG
 10
0.0
 20
0.0
 30
0.0
  9
$UCSXDIR
 10
1.0
 20
0.0
 30
0.0
  9
$UCSYDIR
 10
0.0
 20
1.0
 30
0.0
  9
$UCSORTHOREF
  2

  9
$UCSORTHOVIEW
 70
     0
  9
$UCSORGTOP
 10
0.0
 20
0.0
 30
0.0
  9
$UCSORGBOTTOM
 10
0.0
 20
0.0
 30
0.0
  9
$UCSORGLEFT
 10
0.0
 20
0.0
 30
0.0
  9
$UCSORGRIGHT
 10
0.0
 20
0.0
 30
0.0
  9
$UCSORGFRONT
 10
0.0
 20
0.0
 30
0.0
  9
$UCSORGBACK
 10
0.0
 20
0.0
 30
0.0
  9
$PUCSBASE
  2

  9
$PUCSNAME
  2

  9
$PUCSORG
 10
0.0
 20
0.0
 30
0.0
  9
$PUCSXDIR
 10
1.0
 20
0.0
 30
0.0
  9
$PUCSYDIR
 10
0.0
 20
1.0
 30
0.0
  9
$PUCSORTHOREF
  2

  9
$PUCSORTHOVIEW
 70
     0
  9
$PUCSORGTOP
 10
0.0
 20
0.0
 30
0.0
  9
$PUCSORGBOTTOM
 10
0.0
 20
0.0
 30
0.0
  9
$PUCSORGLEFT
 10
0.0
 20
0.0
 30
0.0
  9
$PUCSORGRIGHT
 10
0.0
 20
0.0
 30
0.0
  9
$PUCSORGFRONT
 10
0.0
 20
0.0
 30
0.0
  9
$PUCSORGBACK
 10
0.0
 20
0.0
 30
0.0
  9
$USERI1
 70
     4
  9
$USERI2
 70
     1
  9
$USERI3
 70
     1
  9
$USERI4
 70
     2
  9
$USERI5
 70
     0
  9
$USERR1
 40
1.0
  9
$USERR2
 40
3.0
  9
$USERR3
 40
3.0
  9
$USERR4
 40
1.5
  9
$USERR5
 40
8.0
  9
$WORLDVIEW
 70
     1
  9
$SHADEDGE
 70
     3
  9
$SHADEDIF
 70
    70
  9
$TILEMODE
 70
     1
  9
$MAXACTVP
 70
    16
  9
$PINSBASE
 10
0.0
 20
0.0
 30
0.0
  9
$PLIMCHECK
 70
     0
  9
$PEXTMIN
 10
1.000000000000000E+20
 20
1.000000000000000E+20
 30
1.000000000000000E+20
  9
$PEXTMAX
 10
-1.000000000000000E+20
 20
-1.000000000000000E+20
 30
-1.000000000000000E+20
  9
$PLIMMIN
 10
0.0
 20
0.0
  9
$PLIMMAX
 10
12.0
 20
9.0
  9
$UNITMODE
 70
     0
  9
$VISRETAIN
 70
     0
  9
$PLINEGEN
 70
     0
  9
$PSLTSCALE
 70
     0
  9
$TREEDEPTH
 70
  3020
  9
$CMLSTYLE
  2
STANDARD
  9
$CMLJUST
 70
     0
  9
$CMLSCALE
 40
1.0
  9
$PROXYGRAPHICS
 70
     1
  9
$MEASUREMENT
 70
     0
  9
$CELWEIGHT
370
    -1
  9
$ENDCAPS
280
     0
  9
$JOINSTYLE
280
     0
  9
$LWDISPLAY
290
     0
  9
$INSUNITS
 70
     0
  9
$HYPERLINKBASE
  1

  9
$STYLESHEET
  1
aclt.ctb
  9
$XEDIT
290
     1
  9
$CEPSNTYPE
380
     0
  9
$PSTYLEMODE
290
     1
  9
$FINGERPRINTGUID
  2
{3644D75A-AD60-4D58-9D7E-D616B61E4E68}
  9
$VERSIONGUID
  2
{4174F2FD-0496-4438-9931-3251A2C5234D}
  9
$EXTNAMES
290
     1
  9
$PSVPSCALE
 40
0.0
  9
$OLESTARTUP
290
     0
  0
ENDSEC
  0
SECTION
  2
CLASSES
  0
CLASS
  1
LWPOLYLINE
  2
AcDbPolyline
  3
AutoCAD 2000
 90
    32768
280
     0
281
     1
  0
CLASS
  1
DICTIONARYVAR
  2
AcDbDictionaryVar
  3
AutoCAD 2000
 90
        0
280
     0
281
     0
  0
CLASS
  1
HATCH
  2
AcDbHatch
  3
AutoCAD 2000
 90
    32768
280
     0
281
     1
  0
CLASS
  1
ACDBDICTIONARYWDFLT
  2
AcDbDictionaryWithDefault
  3
AutoCAD 2000
 90
        0
280
     0
281
     0
  0
CLASS
  1
ACDBPLACEHOLDER
  2
AcDbPlaceHolder
  3
AutoCAD 2000
 90
        0
280
     0
281
     0
  0
CLASS
  1
LAYOUT
  2
AcDbLayout
  3
AutoCAD 2000
 90
        0
280
     0
281
     0
  0
CLASS
  1
LONG_TRANSACTION
  2
AcDbLongTransaction
  3
AutoCAD 2000
 90
    32768
280
     0
281
     0
  0
CLASS
  1
LWPOLYLINE
  2
AcDbPolyline
  3
AutoCAD 2000
 90
    32768
280
     0
281
     1
  0
CLASS
  1
HATCH
  2
AcDbHatch
  3
AutoCAD 2000
 90
    32768
280
     0
281
     1
  0
CLASS
  1
XRECORD
  2
AcDbXrecord
  3
AutoCAD 2000
 90
    32768
280
     0
281
     0
  0
ENDSEC
  0
SECTION
  2
TABLES
  0
TABLE
  2
VPORT
  5
E00DEA4D
330
0
100
AcDbSymbolTable
 70
    10
  0
VPORT
  5
E00DEA82
330
E00DEA4D
100
AcDbSymbolTableRecord
100
AcDbViewportTableRecord
  2
2
 70
     0
 10
0.5
 20
0.0
 11
1.0
 21
1.0
 12
0.9240312421264802
 22
1.052650975462765
 13
0.0
 23
0.0
 14
1.0
 24
1.0
 15
10.0
 25
10.0
 16
0.0
 26
0.0
 36
1.0
 17
0.0
 27
0.0
 37
0.0
 40
2.105301950925533
 41
0.8778135048231511
 42
50.0
 43
0.0
 44
0.0
 50
0.0
 51
0.0
 71
     0
 72
   500
 73
     1
 74
     1
 75
     0
 76
     0
 77
     0
 78
     0
281
     0
 65
     1
110
0.0
120
0.0
130
0.0
111
1.0
121
0.0
131
0.0
112
0.0
122
1.0
132
0.0
 79
     0
146
0.0
  0
VPORT
  5
E00DEA83
330
E00DEA4D
100
AcDbSymbolTableRecord
100
AcDbViewportTableRecord
  2
2
 70
     0
 10
0.0
 20
0.0
 11
0.5
 21
1.0
 12
0.9240312421264802
 22
1.052650975462765
 13
0.0
 23
0.0
 14
1.0
 24
1.0
 15
10.0
 25
10.0
 16
0.0
 26
0.0
 36
1.0
 17
0.0
 27
0.0
 37
0.0
 40
2.105301950925533
 41
0.8778135048231511
 42
50.0
 43
0.0
 44
0.0
 50
0.0
 51
0.0
 71
     0
 72
   500
 73
     1
 74
     1
 75
     0
 76
     0
 77
     0
 78
     0
281
     0
 65
     1
110
0.0
120
0.0
130
0.0
111
1.0
121
0.0
131
0.0
112
0.0
122
1.0
132
0.0
 79
     0
146
0.0
  0
VPORT
  5
E00DEA84
330
E00DEA4D
100
AcDbSymbolTableRecord
100
AcDbViewportTableRecord
  2
3
 70
     0
 10
0.0
 20
0.5
 11
1.0
 21
1.0
 12
2.832169994473273
 22
1.052650975462765
 13
0.0
 23
0.0
 14
1.0
 24
1.0
 15
10.0
 25
10.0
 16
0.0
 26
0.0
 36
1.0
 17
0.0
 27
0.0
 37
0.0
 40
2.105301950925533
 41
3.571428571428571
 42
50.0
 43
0.0
 44
0.0
 50
0.0
 51
0.0
 71
     0
 72
   500
 73
     1
 74
     1
 75
     0
 76
     0
 77
     0
 78
     0
281
     0
 65
     1
110
0.0
120
0.0
130
0.0
111
1.0
121
0.0
131
0.0
112
0.0
122
1.0
132
0.0
 79
     0
146
0.0
  0
VPORT
  5
E00DEA85
330
E00DEA4D
100
AcDbSymbolTableRecord
100
AcDbViewportTableRecord
  2
3
 70
     0
 10
0.0
 20
0.0
 11
1.0
 21
0.5
 12
2.856741679241311
 22
1.052650975462765
 13
0.0
 23
0.0
 14
1.0
 24
1.0
 15
10.0
 25
10.0
 16
0.0
 26
0.0
 36
1.0
 17
0.0
 27
0.0
 37
0.0
 40
2.105301950925533
 41
3.594771241830064
 42
50.0
 43
0.0
 44
0.0
 50
0.0
 51
0.0
 71
     0
 72
   500
 73
     1
 74
     1
 75
     0
 76
     0
 77
     0
 78
     0
281
     0
 65
     1
110
0.0
120
0.0
130
0.0
111
1.0
121
0.0
131
0.0
112
0.0
122
1.0
132
0.0
 79
     0
146
0.0
  0
VPORT
  5
E00DEA86
330
E00DEA4D
100
AcDbSymbolTableRecord
100
AcDbViewportTableRecord
  2
4
 70
     0
 10
0.5
 20
0.0
 11
1.0
 21
0.5
 12
2.886857516709718
 22
1.052650975462765
 13
0.0
 23
0.0
 14
1.0
 24
1.0
 15
10.0
 25
10.0
 16
0.0
 26
0.0
 36
1.0
 17
0.0
 27
0.0
 37
0.0
 40
4.275207030309069
 41
1.784313725490195
 42
50.0
 43
0.0
 44
0.0
 50
0.0
 51
0.0
 71
     0
 72
   500
 73
     1
 74
     1
 75
     0
 76
     0
 77
     0
 78
     0
281
     0
 65
     1
110
0.0
120
0.0
130
0.0
111
1.0
121
0.0
131
0.0
112
0.0
122
1.0
132
0.0
 79
     0
146
0.0
  0
VPORT
  5
E00DEA87
330
E00DEA4D
100
AcDbSymbolTableRecord
100
AcDbViewportTableRecord
  2
4
 70
     0
 10
0.5
 20
0.5
 11
1.0
 21
1.0
 12
2.862090274555523
 22
1.052650975462765
 13
0.0
 23
0.0
 14
1.0
 24
1.0
 15
10.0
 25
10.0
 16
0.0
 26
0.0
 36
1.0
 17
0.0
 27
0.0
 37
0.0
 40
4.275207030309069
 41
1.772727272727271
 42
50.0
 43
0.0
 44
0.0
 50
0.0
 51
0.0
 71
     0
 72
   500
 73
     1
 74
     1
 75
     0
 76
     0
 77
     0
 78
     0
281
     0
 65
     1
110
0.0
120
0.0
130
0.0
111
1.0
121
0.0
131
0.0
112
0.0
122
1.0
132
0.0
 79
     0
146
0.0
  0
VPORT
  5
E00DEA88
330
E00DEA4D
100
AcDbSymbolTableRecord
100
AcDbViewportTableRecord
  2
4
 70
     0
 10
0.0
 20
0.5
 11
0.5
 21
1.0
 12
2.862090274555523
 22
1.052650975462765
 13
0.0
 23
0.0
 14
1.0
 24
1.0
 15
10.0
 25
10.0
 16
0.0
 26
0.0
 36
1.0
 17
0.0
 27
0.0
 37
0.0
 40
4.275207030309069
 41
1.772727272727271
 42
50.0
 43
0.0
 44
0.0
 50
0.0
 51
0.0
 71
     0
 72
   500
 73
     1
 74
     1
 75
     0
 76
     0
 77
     0
 78
     0
281
     0
 65
     1
110
0.0
120
0.0
130
0.0
111
1.0
121
0.0
131
0.0
112
0.0
122
1.0
132
0.0
 79
     0
146
0.0
  0
VPORT
  5
E00DEA89
330
E00DEA4D
100
AcDbSymbolTableRecord
100
AcDbViewportTableRecord
  2
4
 70
     0
 10
0.0
 20
0.0
 11
0.5
 21
0.5
 12
2.886857516709718
 22
1.052650975462765
 13
0.0
 23
0.0
 14
1.0
 24
1.0
 15
10.0
 25
10.0
 16
0.0
 26
0.0
 36
1.0
 17
0.0
 27
0.0
 37
0.0
 40
4.275207030309069
 41
1.784313725490195
 42
50.0
 43
0.0
 44
0.0
 50
0.0
 51
0.0
 71
     0
 72
   500
 73
     1
 74
     1
 75
     0
 76
     0
 77
     0
 78
     0
281
     0
 65
     1
110
0.0
120
0.0
130
0.0
111
1.0
121
0.0
131
0.0
112
0.0
122
1.0
132
0.0
 79
     0
146
0.0
  0
VPORT
  5
E00EDDA8
330
E00DEA4D
100
AcDbSymbolTableRecord
100
AcDbViewportTableRecord
  2
*Active
 70
     0
 10
0.0
 20
0.0
 11
1.0
 21
1.0
 12
190.9915062934085
 22
136.5000008140071
 13
0.0
 23
0.0
 14
1.0
 24
1.0
 15
10.0
 25
10.0
 16
0.0
 26
0.0
 36
1.0
 17
0.0
 27
0.0
 37
0.0
 40
274.9714358382318
 41
2.275779376498801
 42
50.0
 43
0.0
 44
0.0
 50
0.0
 51
0.0
 71
     0
 72
   500
 73
     1
 74
     0
 75
     0
 76
     0
 77
     0
 78
     0
281
     0
 65
     1
110
0.0
120
0.0
130
0.0
111
1.0
121
0.0
131
0.0
112
0.0
122
1.0
132
0.0
 79
     0
146
0.0
  0
ENDTAB
  0
TABLE
  2
LTYPE
  5
E00DEA4A
330
0
100
AcDbSymbolTable
 70
     5
  0
LTYPE
  5
E00DEA57
330
E00DEA4A
100
AcDbSymbolTableRecord
100
AcDbLinetypeTableRecord
  2
BYBLOCK
 70
     0
  3

 72
    65
 73
     0
 40
0.0
  0
LTYPE
  5
E00DEA58
330
E00DEA4A
100
AcDbSymbolTableRecord
100
AcDbLinetypeTableRecord
  2
BYLAYER
 70
     0
  3

 72
    65
 73
     0
 40
0.0
  0
LTYPE
  5
E00DEA59
330
E00DEA4A
100
AcDbSymbolTableRecord
100
AcDbLinetypeTableRecord
  2
CONTINUOUS
 70
     0
  3
実線
 72
    65
 73
     0
 40
0.0
  0
LTYPE
  5
E00DEA7E
330
E00DEA4A
100
AcDbSymbolTableRecord
100
AcDbLinetypeTableRecord
  2
CENTER
 70
     0
  3
____ _ ____ _ ____ _ ____ _ ____ _ ____ _ ____
 72
    65
 73
     4
 40
2.0
 49
1.25
 74
     0
 49
-0.25
 74
     0
 49
0.25
 74
     0
 49
-0.25
 74
     0
  0
LTYPE
  5
E00DEA81
330
E00DEA4A
100
AcDbSymbolTableRecord
100
AcDbLinetypeTableRecord
  2
HIDDEN
 70
     0
  3
_ _ _ _ _ _ _ _ _ _ _ _ _ _ _ _ _ _ _ _ _ _ _
 72
    65
 73
     2
 40
0.375
 49
0.25
 74
     0
 49
-0.125
 74
     0
  0
LTYPE
  5
E00E0AD4
330
E00DEA4A
100
AcDbSymbolTableRecord
100
AcDbLinetypeTableRecord
  2
PHANTOM
 70
     0
  3
Phantom ______  __  __  ______  __  __  ______
 72
    65
 73
     6
 40
2.5
 49
1.25
 74
     0
 49
-0.25
 74
     0
 49
0.25
 74
     0
 49
-0.25
 74
     0
 49
0.25
 74
     0
 49
-0.25
 74
     0
  0
LTYPE
  5
E00ECC5C
330
E00DEA4A
100
AcDbSymbolTableRecord
100
AcDbLinetypeTableRecord
  2
SLD-実線
 70
     0
  3
SolidWorks Line Style
 72
    65
 73
     0
 40
0.0
  0
ENDTAB
  0
TABLE
  2
LAYER
  5
E00DEA47
102
{ACAD_XDICTIONARY
360
E00DFB39
102
}
330
0
100
AcDbSymbolTable
 70
    13
  0
LAYER
  5
E00DEA54
330
E00DEA47
100
AcDbSymbolTableRecord
100
AcDbLayerTableRecord
  2
0
 70
     0
 62
     6
  6
CONTINUOUS
370
    -3
390
E00DFA69
  0
LAYER
  5
E00DEA8D
330
E00DEA47
100
AcDbSymbolTableRecord
100
AcDbLayerTableRecord
  2
ITTEN
 70
     0
 62
     1
  6
CENTER
370
    -3
390
E00DFA69
  0
LAYER
  5
E00DEA8F
330
E00DEA47
100
AcDbSymbolTableRecord
100
AcDbLayerTableRecord
  2
HATCH
 70
     0
 62
     4
  6
CONTINUOUS
370
    -3
390
E00DFA69
  0
LAYER
  5
E00DEA90
330
E00DEA47
100
AcDbSymbolTableRecord
100
AcDbLayerTableRecord
  2
SUNPOU
 70
     0
 62
     3
  6
CONTINUOUS
370
    -3
390
E00DFA69
  0
LAYER
  5
E00DEA91
330
E00DEA47
100
AcDbSymbolTableRecord
100
AcDbLayerTableRecord
  2
TEXT
 70
     0
 62
     3
  6
CONTINUOUS
370
    -3
390
E00DFA69
  0
LAYER
  5
E00DEA92
330
E00DEA47
100
AcDbSymbolTableRecord
100
AcDbLayerTableRecord
  2
SAISEN
 70
     0
 62
     4
  6
CONTINUOUS
370
    -3
390
E00DFA69
  0
LAYER
  5
E00DEA93
330
E00DEA47
100
AcDbSymbolTableRecord
100
AcDbLayerTableRecord
  2
JISSEN
 70
     0
 62
     7
  6
CONTINUOUS
370
    -3
390
E00DFA69
  0
LAYER
  5
E00DEA96
330
E00DEA47
100
AcDbSymbolTableRecord
100
AcDbLayerTableRecord
  2
WAKU
 70
     0
 62
     5
  6
CONTINUOUS
370
    -3
390
E00DFA69
  0
LAYER
  5
E00DEA97
330
E00DEA47
100
AcDbSymbolTableRecord
100
AcDbLayerTableRecord
  2
TENSEN
 70
     0
 62
     2
  6
HIDDEN
370
    -3
390
E00DFA69
  0
LAYER
  5
E00E0AD5
330
E00DEA47
100
AcDbSymbolTableRecord
100
AcDbLayerTableRecord
  2
SCALE
 70
     0
 62
     4
  6
CONTINUOUS
370
    -3
390
E00DFA69
  0
LAYER
  5
E00E0AD6
330
E00DEA47
100
AcDbSymbolTableRecord
100
AcDbLayerTableRecord
  2
BORDER
 70
     0
 62
     5
  6
CONTINUOUS
370
    -3
390
E00DFA69
  0
LAYER
  5
E00E0AD7
330
E00DEA47
100
AcDbSymbolTableRecord
100
AcDbLayerTableRecord
  2
NITEN
 70
     0
 62
     2
  6
PHANTOM
370
    -3
390
E00DFA69
  0
LAYER
  5
E00E5AB9
330
E00DEA47
100
AcDbSymbolTableRecord
100
AcDbLayerTableRecord
  2
DEFPOINTS
 70
     0
 62
    -7
  6
CONTINUOUS
290
     0
370
    -3
390
E00DFA69
  0
ENDTAB
  0
TABLE
  2
STYLE
  5
E00DEA48
330
0
100
AcDbSymbolTable
 70
     5
  0
STYLE
  5
E00DEA55
330
E00DEA48
100
AcDbSymbolTableRecord
100
AcDbTextStyleTableRecord
  2
STANDARD
 70
     0
 40
0.0
 41
1.0
 50
0.0
 71
     0
 42
2.5
  3
SIMPLEX
  4

  0
STYLE
  5
E00DEA7C
330
E00DEA48
100
AcDbSymbolTableRecord
100
AcDbTextStyleTableRecord
  2
K
 70
     0
 40
0.0
 41
1.0
 50
0.0
 71
     0
 42
6.0
  3
SIMPLEX
  4
bigfont.shx
  0
STYLE
  5
E00DFB37
330
E00DEA48
100
AcDbSymbolTableRecord
100
AcDbTextStyleTableRecord
  2
DIMENSION
 70
     0
 40
0.0
 41
1.0
 50
0.0
 71
     0
 42
2.5
  3
TXT
  4

  0
STYLE
  5
E00EC309
330
E00DEA48
100
AcDbSymbolTableRecord
100
AcDbTextStyleTableRecord
  2
BIGFONT
 70
     0
 40
0.0
 41
1.0
 50
0.0
 71
     0
 42
3.0
  3
txt.shx
  4
bigfont
  0
STYLE
  5
E00ECC5D
330
E00DEA48
100
AcDbSymbolTableRecord
100
AcDbTextStyleTableRecord
  2
ROMANS
 70
     0
 40
0.0
 41
0.8
 50
0.0
 71
     0
 42
6.0
  3
romans
  4

  0
ENDTAB
  0
TABLE
  2
VIEW
  5
E00DEA4B
330
0
100
AcDbSymbolTable
 70
     0
  0
ENDTAB
  0
TABLE
  2
UCS
  5
E00DEA4C
330
0
100
AcDbSymbolTable
 70
     0
  0
ENDTAB
  0
TABLE
  2
APPID
  5
E00DEA4E
330
0
100
AcDbSymbolTable
 70
     8
  0
APPID
  5
E00DEA56
330
E00DEA4E
100
AcDbSymbolTableRecord
100
AcDbRegAppTableRecord
  2
ACAD
 70
     0
  0
APPID
  5
E00E89BA
330
E00DEA4E
100
AcDbSymbolTableRecord
100
AcDbRegAppTableRecord
  2
CONTENTBLOCKICON
 70
     0
  0
APPID
  5
E00E89BB
330
E00DEA4E
100
AcDbSymbolTableRecord
100
AcDbRegAppTableRecord
  2
X_OBJNAME
 70
     0
  0
APPID
  5
E00E89BC
330
E00DEA4E
100
AcDbSymbolTableRecord
100
AcDbRegAppTableRecord
  2
X_PARAM_BALLOON
 70
     0
  0
APPID
  5
E00E89BD
330
E00DEA4E
100
AcDbSymbolTableRecord
100
AcDbRegAppTableRecord
  2
X_PARAM_TXTPATERN
 70
     0
  0
APPID
  5
E00E89BE
330
E00DEA4E
100
AcDbSymbolTableRecord
100
AcDbRegAppTableRecord
  2
X_PARAM_CTXTPATERN
 70
     0
  0
APPID
  5
E00E89BF
330
E00DEA4E
100
AcDbSymbolTableRecord
100
AcDbRegAppTableRecord
  2
X_PARAM_SYSVAL
 70
     0
  0
APPID
  5
E00E89C0
330
E00DEA4E
100
AcDbSymbolTableRecord
100
AcDbRegAppTableRecord
  2
X_DEFINELIST
 70
     0
  0
ENDTAB
  0
TABLE
  2
DIMSTYLE
  5
E00DEA4F
330
0
100
AcDbSymbolTable
 70
     2
100
AcDbDimStyleTable
 71
     1
340
E00DEA8C
  0
DIMSTYLE
105
E00DEA8C
330
E00DEA4F
100
AcDbSymbolTableRecord
100
AcDbDimStyleTableRecord
  2
IMAO
 70
     0
 41
1.5
 42
1.0
 43
6.0
 44
1.0
 47
495.0
 73
     0
 74
     0
 77
     1
 78
     8
140
3.0
141
0.0
172
     1
174
     1
271
     2
272
     2
279
     2
284
     8
285
     8
286
     8
340
E00DEA7C
341
E00DEA68
342
E00DEA68
343
E00DEA68
344
E00DEA68
  0
DIMSTYLE
105
E00DFB38
330
E00DEA4F
100
AcDbSymbolTableRecord
100
AcDbDimStyleTableRecord
  2
STANDARD
 70
     0
 40
0.5
 41
2.0
 42
0.1
 43
10.0
 44
1.5
 73
     0
 74
     0
 78
     8
140
3.0
145
1.0
147
0.1
172
     1
176
   256
177
   256
178
   256
271
     2
272
     2
284
     8
340
E00DFB37
341
E00DFB2F
342
E00DFB2F
  0
ENDTAB
  0
TABLE
  2
BLOCK_RECORD
  5
E00DEA46
330
0
100
AcDbSymbolTable
 70
     4
  0
BLOCK_RECORD
  5
E00DEA5D
102
{ACAD_XDICTIONARY
360
E00DFB13
102
}
330
E00DEA46
100
AcDbSymbolTableRecord
100
AcDbBlockTableRecord
  2
*MODEL_SPACE
340
E00DFA6C
  0
BLOCK_RECORD
  5
E00DEA5A
102
{ACAD_XDICTIONARY
360
E00DFB11
102
}
330
E00DEA46
100
AcDbSymbolTableRecord
100
AcDbBlockTableRecord
  2
*PAPER_SPACE
340
E00DFA6D
  0
BLOCK_RECORD
  5
E00DEA61
330
E00DEA46
100
AcDbSymbolTableRecord
100
AcDbBlockTableRecord
  2
ARROW
340
0
102
{BLKREFS
331
E00ED769
331
E00ED8B0
102
}
  0
BLOCK_RECORD
  5
E00DEA68
330
E00DEA46
100
AcDbSymbolTableRecord
100
AcDbBlockTableRecord
  2
ARROWANG
340
0
  0
BLOCK_RECORD
  5
E00DFB2F
330
E00DEA46
100
AcDbSymbolTableRecord
100
AcDbBlockTableRecord
  2
AR_OPEN
340
0
  0
BLOCK_RECORD
  5
E00E0A21
330
E00DEA46
100
AcDbSymbolTableRecord
100
AcDbBlockTableRecord
  2
WAKU
340
0
  0
ENDTAB
  0
ENDSEC
  0
SECTION
  2
BLOCKS
  0
BLOCK
  5
E00DEA9A
330
E00DEA5D
100
AcDbEntity
  8
0
100
AcDbBlockBegin
  2
*MODEL_SPACE
 70
     0
 10
0.0
 20
0.0
 30
0.0
  3
*MODEL_SPACE
  1

  0
ENDBLK
  5
E00DEA9B
330
E00DEA5D
100
AcDbEntity
  8
0
100
AcDbBlockEnd
  0
BLOCK
  5
E00DEA98
330
E00DEA5A
100
AcDbEntity
 67
     1
  8
0
100
AcDbBlockBegin
  2
*PAPER_SPACE
 70
     0
 10
0.0
 20
0.0
 30
0.0
  3
*PAPER_SPACE
  1

  0
ENDBLK
  5
E00DEA99
330
E00DEA5A
100
AcDbEntity
 67
     1
  8
0
100
AcDbBlockEnd
  0
BLOCK
  5
41E
330
E00DEA61
100
AcDbEntity
  8
0
100
AcDbBlockBegin
  2
ARROW
 70
     0
 10
1.0
 20
0.5
 30
0.0
  3
ARROW
  1

  0
LINE
  5
41F
330
E00DEA61
100
AcDbEntity
  8
0
100
AcDbLine
 10
1.0
 20
0.5
 30
0.0
 11
-0.5000000000000214
 21
0.0980762113533018
 31
0.0
  0
LINE
  5
420
330
E00DEA61
100
AcDbEntity
  8
0
100
AcDbLine
 10
0.0
 20
0.5
 30
0.0
 11
1.0
 21
0.5
 31
0.0
  0
LINE
  5
421
330
E00DEA61
100
AcDbEntity
  8
0
100
AcDbLine
 10
1.0
 20
0.5
 30
0.0
 11
-0.4999999999999575
 21
0.9019237886467408
 31
0.0
  0
ENDBLK
  5
422
330
E00DEA61
100
AcDbEntity
  8
0
100
AcDbBlockEnd
  0
BLOCK
  5
460
330
E00DEA68
100
AcDbEntity
  8
0
100
AcDbBlockBegin
  2
ARROWANG
 70
     0
 10
0.0
 20
0.0
 30
0.0
  3
ARROWANG
  1

  0
LINE
  5
461
330
E00DEA68
100
AcDbEntity
  8
SUNPOU
100
AcDbLine
 10
0.0
 20
0.0
 30
0.0
 11
-1.499999999999956
 21
0.401923788646741
 31
0.0
  0
LINE
  5
462
330
E00DEA68
100
AcDbEntity
  8
SUNPOU
100
AcDbLine
 10
0.0
 20
0.0
 30
0.0
 11
-1.500000000000027
 21
-0.4019237886467124
 31
0.0
  0
ENDBLK
  5
463
330
E00DEA68
100
AcDbEntity
  8
0
100
AcDbBlockEnd
  0
BLOCK
  5
E00DFB33
330
E00DFB2F
100
AcDbEntity
  8
0
100
AcDbBlockBegin
  2
AR_OPEN
 70
     0
 10
0.0
 20
0.0
 30
0.0
  3
AR_OPEN
  1

  0
LINE
  5
E00DFB30
330
E00DFB2F
100
AcDbEntity
  8
0
 62
     0
100
AcDbLine
 10
-1.0
 20
0.0
 30
0.0
 11
0.0
 21
0.0
 31
0.0
  0
LINE
  5
E00DFB31
330
E00DFB2F
100
AcDbEntity
  8
0
 62
     0
100
AcDbLine
 10
0.0
 20
0.0
 30
0.0
 11
-1.0
 21
0.2679491924311037
 31
0.0
  0
LINE
  5
E00DFB32
330
E00DFB2F
100
AcDbEntity
  8
0
 62
     0
100
AcDbLine
 10
0.0
 20
0.0
 30
0.0
 11
-1.0
 21
-0.2679491924311037
 31
0.0
  0
ENDBLK
  5
E00DFB34
330
E00DFB2F
100
AcDbEntity
  8
0
100
AcDbBlockEnd
  0
BLOCK
  5
E00E0A26
330
E00E0A21
100
AcDbEntity
  8
0
100
AcDbBlockBegin
  2
WAKU
 70
     0
 10
0.0
 20
0.0
 30
0.0
  3
WAKU
  1

  0
LINE
  5
E00E0A22
330
E00E0A21
100
AcDbEntity
  8
WAKU
100
AcDbLine
 10
0.9999999959999998
 20
0.0
 30
0.0
 11
0.9999999959999998
 21
0.9999999999999998
 31
0.0
  0
LINE
  5
E00E0A23
330
E00E0A21
100
AcDbEntity
  8
WAKU
100
AcDbLine
 10
0.0
 20
0.9999999999999998
 30
0.0
 11
0.9999999959999998
 21
0.9999999999999998
 31
0.0
  0
LINE
  5
E00E0A24
330
E00E0A21
100
AcDbEntity
  8
WAKU
100
AcDbLine
 10
0.9999999959999998
 20
0.0
 30
0.0
 11
0.0
 21
0.0
 31
0.0
  0
LINE
  5
E00E0A25
330
E00E0A21
100
AcDbEntity
  8
WAKU
100
AcDbLine
 10
0.0
 20
0.0
 30
0.0
 11
0.0
 21
0.9999999999999998
 31
0.0
  0
ENDBLK
  5
E00E0A27
330
E00E0A21
100
AcDbEntity
  8
0
100
AcDbBlockEnd
  0
ENDSEC
  0
SECTION
  2
ENTITIES
  0
LWPOLYLINE
  5
E00ED747
330
E00DEA5D
100
AcDbEntity
  8
WAKU
100
AcDbPolyline
 90
        4
 70
     1
 43
0.0
 10
361.9999990493306
 20
0.0000001783795369
 10
180.9999997733302
 20
0.0000001783795369
 10
180.9999997733302
 20
273.0000001783795
 10
361.9999990493306
 20
273.0000001783795
  0
LWPOLYLINE
  5
E00ED748
330
E00DEA5D
100
AcDbEntity
  8
WAKU
100
AcDbPolyline
 90
        4
 70
     1
 43
0.0
 10
180.9999997733302
 20
0.0000001783795369
 10
0.0000004973298928
 20
0.0000001783795369
 10
0.0000004973298928
 20
273.0000001783795
 10
180.9999997733302
 20
273.0000001783795
  0
TEXT
  5
E00ED749
330
E00DEA5D
100
AcDbEntity
  8
SUNPOU
100
AcDbText
 10
56.73885406860993
 20
133.8248513226948
 30
0.0
 40
3.0
  1
1
  7
K
 72
     4
 11
57.09599692575278
 21
135.3248513226948
 31
0.0
100
AcDbText
  0
CIRCLE
  5
E00ED74A
330
E00DEA5D
100
AcDbEntity
  8
SUNPOU
100
AcDbCircle
 10
57.09599692575278
 20
135.3248513226948
 30
0.0
 40
3.0
  0
LINE
  5
E00ED74B
330
E00DEA5D
100
AcDbEntity
  8
JISSEN
100
AcDbLine
 39
1680.364539346804
 10
79.56901643077799
 20
43.5651308736318
 30
0.0
 11
78.05570755349254
 21
43.56513087364089
 31
0.0
  0
LINE
  5
E00ED74C
330
E00DEA5D
100
AcDbEntity
  8
JISSEN
100
AcDbLine
 39
1680.364539346804
 10
79.57288951225518
 20
43.46513087363144
 30
0.0
 11
78.05570755349208
 21
43.46513087364235
 31
0.0
  0
ARC
  5
E00ED74D
330
E00DEA5D
100
AcDbEntity
  8
JISSEN
100
AcDbCircle
 39
1680.364539346804
 10
83.23144348477581
 20
43.26513087359614
 30
0.0
 40
0.2
100
AcDbArc
 50
44.999999999588
 51
89.99999999960918
  0
LINE
  5
E00ED74E
330
E00DEA5D
100
AcDbEntity
  8
JISSEN
 48
0.05
100
AcDbLine
 39
1680.364539346804
 10
83.37286484101424
 20
43.40655222982912
 30
0.0
 11
83.92641823160102
 21
42.8529988392396
 31
0.0
  0
LINE
  5
E00ED74F
330
E00DEA5D
100
AcDbEntity
  8
JISSEN
100
AcDbLine
 39
1680.364539346804
 10
83.23144348477717
 20
43.46513087360778
 30
0.0
 11
82.34976879929082
 21
43.4651308736096
 31
0.0
  0
LINE
  5
E00ED750
330
E00DEA5D
100
AcDbEntity
  8
JISSEN
100
AcDbLine
 39
1680.364539346804
 10
88.55570754039263
 20
43.56513087356495
 30
0.0
 11
82.34736426231666
 21
43.56513087361179
 31
0.0
  0
LINE
  5
E00ED751
330
E00DEA5D
100
AcDbEntity
  8
JISSEN
 48
0.05
100
AcDbLine
 39
1680.364539346804
 10
78.05570755349254
 20
43.56513087364453
 30
0.0
 11
78.05570755349208
 21
43.46513087364235
 31
0.0
  0
LINE
  5
E00ED752
330
E00DEA5D
100
AcDbEntity
  8
JISSEN
100
AcDbLine
 39
1680.364539346804
 10
85.83086698966781
 20
39.46496985033934
 30
0.0
 11
86.53070449576716
 21
38.76513234423453
 31
0.0
  0
LINE
  5
E00ED753
330
E00DEA5D
100
AcDbEntity
  8
JISSEN
100
AcDbLine
 39
1680.364539346804
 10
94.28054811724042
 20
39.46496985031206
 30
0.0
 11
93.58071061113651
 21
38.76513234421088
 31
0.0
  0
LINE
  5
E00ED754
330
E00DEA5D
100
AcDbEntity
  8
JISSEN
 48
0.05
100
AcDbLine
 39
1680.364539346804
 10
102.0557075534429
 20
43.56513087356449
 30
0.0
 11
102.0557075534429
 21
43.46513087356231
 31
0.0
  0
LINE
  5
E00ED755
330
E00DEA5D
100
AcDbEntity
  8
JISSEN
100
AcDbLine
 39
1680.364539346804
 10
91.55570756649149
 20
43.56513087355494
 30
0.0
 11
97.76405084461885
 21
43.56513087356086
 31
0.0
  0
LINE
  5
E00ED756
330
E00DEA5D
100
AcDbEntity
  8
JISSEN
100
AcDbLine
 39
1680.364539346804
 10
96.87997162215788
 20
43.46513087356231
 30
0.0
 11
97.76164630764425
 21
43.46513087355868
 31
0.0
  0
LINE
  5
E00ED757
330
E00DEA5D
100
AcDbEntity
  8
JISSEN
 48
0.05
100
AcDbLine
 39
1680.364539346804
 10
96.73855026592036
 20
43.40655222978546
 30
0.0
 11
96.18499687532995
 21
42.85299883919958
 31
0.0
  0
ARC
  5
E00ED758
330
E00DEA5D
100
AcDbEntity
  8
JISSEN
100
AcDbCircle
 39
1680.364539346804
 10
96.87997162215788
 20
43.26513087355067
 30
0.0
 40
0.2
100
AcDbArc
 50
90.0
 51
134.9999999999882
  0
LINE
  5
E00ED759
330
E00DEA5D
100
AcDbEntity
  8
JISSEN
100
AcDbLine
 39
1680.364539346804
 10
100.5385255946798
 20
43.46513087356231
 30
0.0
 11
102.0557075534429
 21
43.46513087356231
 31
0.0
  0
LINE
  5
E00ED75A
330
E00DEA5D
100
AcDbEntity
  8
JISSEN
100
AcDbLine
 39
1680.364539346804
 10
100.5423986761575
 20
43.56513087356086
 30
0.0
 11
102.0557075534429
 21
43.56513087356086
 31
0.0
  0
LINE
  5
E00ED75B
330
E00DEA5D
100
AcDbEntity
  8
JISSEN
100
AcDbLine
 10
68.85871448559237
 20
103.0839622396162
 30
0.0
 11
61.66495310053119
 21
103.0839622396162
 31
0.0
  0
LINE
  5
E00ED75C
330
E00DEA5D
100
AcDbEntity
  8
JISSEN
100
AcDbLine
 10
61.66495310053346
 20
100.0839622135164
 30
0.0
 11
68.85871448559237
 21
100.0839622135164
 31
0.0
  0
ARC
  5
E00ED75D
330
E00DEA5D
100
AcDbEntity
  8
JISSEN
100
AcDbCircle
 10
90.05570755344207
 20
101.5839622265667
 30
0.0
 40
21.25000000000001
100
AcDbArc
 50
179.9999886858837
 51
269.9999886859358
  0
ARC
  5
E00ED75E
330
E00DEA5D
100
AcDbEntity
  8
JISSEN
100
AcDbCircle
 10
90.05570755344207
 20
101.5839622265667
 30
0.0
 40
21.25000000000001
100
AcDbArc
 50
89.99998868593587
 51
179.9999886858837
  0
ARC
  5
E00ED75F
330
E00DEA5D
100
AcDbEntity
  8
JISSEN
100
AcDbCircle
 10
90.05570755344207
 20
101.5839622265667
 30
0.0
 40
34.0
100
AcDbArc
 50
90.0
 51
270.0
  0
LINE
  5
E00ED760
330
E00DEA5D
100
AcDbEntity
  8
JISSEN
100
AcDbLine
 10
56.05570570569262
 20
52.21797419711322
 30
0.0
 11
90.05570755344207
 21
52.21797419711322
 31
0.0
  0
LINE
  5
E00ED761
330
E00DEA5D
100
AcDbEntity
  8
JISSEN
100
AcDbLine
 10
71.77958211557769
 20
49.22164591026478
 30
0.0
 11
60.00671261663274
 21
50.87621481649069
 31
0.0
  0
ARC
  5
E00ED762
330
E00DEA5D
100
AcDbEntity
  8
JISSEN
100
AcDbCircle
 10
53.80570755344206
 20
37.21797419711322
 30
0.0
 40
15.0
100
AcDbArc
 50
0.0
 51
65.58138155570325
  0
HATCH
  5
E00ED763
330
E00DEA5D
100
AcDbEntity
  8
SUNPOU
100
AcDbHatch
 10
0.0
 20
0.0
 30
0.0
210
0.0
220
0.0
230
1.0
  2
ANSI31
 70
     0
 71
     0
 91
        2
 92
        5
 93
        5
 72
     1
 10
90.05570755344207
 20
62.21797419711345
 11
33.00383944881423
 21
62.21797419711163
 72
     4
 94
        3
 73
     0
 74
     0
 95
       11
 96
        7
 40
0.0
 40
0.0
 40
0.0
 40
0.0
 40
3.264692203133994
 40
6.15697472568029
 40
8.955271668736928
 40
10.85738683396026
 40
10.85738683396026
 40
10.85738683396026
 40
10.85738683396026
 10
33.00383944881332
 20
62.21797419711345
 10
33.67894013709974
 20
61.21657524590716
 10
34.95213148759785
 20
59.32800883619472
 10
32.68628677125343
 20
56.47663780312484
 10
34.88940393781013
 20
53.85030730538471
 10
33.54704974707601
 20
52.68823133219427
 10
33.00383944881332
 20
52.21797419711345
 72
     1
 10
33.00383944881332
 20
52.21797419711345
 11
57.55570755336612
 21
52.21797419711345
 72
     1
 10
57.55570755336612
 20
52.21797419711345
 11
90.05570755344207
 21
52.21797419711345
 72
     1
 10
90.05570755344207
 20
52.21797419711163
 11
90.05570755344207
 21
62.21797419711345
 97
        0
 92
        5
 93
        5
 72
     4
 94
        3
 73
     0
 74
     0
 95
       11
 96
        7
 40
0.0
 40
0.0
 40
0.0
 40
0.0
 40
1.902115165223333
 40
4.700412108279971
 40
7.592694630826267
 40
10.85738683396026
 40
10.85738683396026
 40
10.85738683396026
 40
10.85738683396026
 10
147.1075756580708
 20
52.21797419711345
 10
146.5643653598081
 20
52.68823133219427
 10
145.222011169074
 20
53.85030730538471
 10
147.4251283356306
 20
56.47663780312484
 10
145.1592836192862
 20
59.32800883619472
 10
146.4324749697843
 20
61.21657524590716
 10
147.1075756580708
 20
62.21797419711345
 72
     1
 10
147.1075756580703
 20
62.21797419711163
 11
90.05570755344228
 21
62.21797419711527
 72
     1
 10
90.05570755344207
 20
62.21797419711345
 11
90.05570755344207
 21
52.21797419711163
 72
     1
 10
90.05570755344207
 20
52.21797419711345
 11
122.555707553518
 21
52.21797419711345
 72
     1
 10
122.555707553518
 20
52.21797419711345
 11
147.1075756580708
 21
52.21797419711345
 97
        0
 75
     0
 76
     1
 52
0.0
 41
10.0
 77
     0
 78
     1
 53
45.0
 43
185.0253228836386
 44
-2520.445078698
 45
-0.8838834764831842
 46
0.8838834764831844
 79
     0
 47
0.087569455337929
 98
        2
 10
84.46519850710364
 20
59.23529752275078
 10
105.8413467177565
 20
58.97258914386236
  0
ARC
  5
E00ED764
330
E00DEA5D
100
AcDbEntity
  8
JISSEN
100
AcDbCircle
 10
57.79414727559242
 20
53.20682571906321
 30
0.0
 40
1.999999999999985
100
AcDbArc
 50
209.6318914940861
 51
262.0000000000055
  0
LINE
  5
E00ED765
330
E00DEA5D
100
AcDbEntity
  8
JISSEN
100
AcDbLine
 10
57.51579971054207
 20
51.22628957961308
 30
0.0
 11
60.00671320599258
 21
50.8762147370627
 31
0.0
  0
LINE
  5
E00ED766
330
E00DEA5D
100
AcDbEntity
  8
SUNPOU
100
AcDbLine
 10
58.96407643000287
 20
35.97817741737356
 30
0.0
 11
66.41552666288629
 21
45.34154865834
 31
0.0
  0
CIRCLE
  5
E00ED767
330
E00DEA5D
100
AcDbEntity
  8
SUNPOU
100
AcDbCircle
 10
57.09599692575278
 20
33.63077907755007
 30
0.0
 40
3.0
  0
TEXT
  5
E00ED768
330
E00DEA5D
100
AcDbEntity
  8
SUNPOU
100
AcDbText
 10
56.09599692575279
 20
32.13077907755007
 30
0.0
 40
3.0
  1
2
  7
K
 72
     4
 11
57.09599692575278
 21
33.63077907755007
 31
0.0
100
AcDbText
  0
INSERT
  5
E00ED769
330
E00DEA5D
100
AcDbEntity
  8
SUNPOU
100
AcDbBlockReference
  2
ARROW
 10
66.40002851336607
 20
45.32574168728763
 30
0.0
 41
1.500000000000068
 42
1.5
 43
1.5
 50
51.56959793943634
  0
LINE
  5
E00ED76A
330
E00DEA5D
100
AcDbEntity
  8
SUNPOU
100
AcDbLine
 10
57.55570755336612
 20
52.21797419711345
 30
0.0
 11
33.00383944881287
 21
52.21797419711345
 31
0.0
  0
SPLINE
  5
E00ED76B
330
E00DEA5D
100
AcDbEntity
  8
JISSEN
100
AcDbSpline
210
0.0
220
0.0
230
1.0
 70
     8
 71
     3
 72
     8
 73
     4
 74
     0
 42
0.0000000001
 43
0.0000000001
 40
0.0
 40
0.0
 40
0.0
 40
0.0
 40
2.236014716865069
 40
2.236014716865111
 40
2.236014716865111
 40
2.236014716865111
 10
61.66495310053164
 20
100.0839622135177
 30
0.0
 10
60.83609248764287
 20
100.5851462536508
 30
0.0
 10
60.00723187475387
 20
101.0863302937838
 30
0.0
 10
60.00671253448331
 20
101.5839622265672
 30
0.0
  0
SPLINE
  5
E00ED76C
330
E00DEA5D
100
AcDbEntity
  8
JISSEN
100
AcDbSpline
210
0.0
220
0.0
230
1.0
 70
     8
 71
     3
 72
     8
 73
     4
 74
     0
 42
0.0000000001
 43
0.0000000001
 40
0.0
 40
0.0
 40
0.0
 40
0.0
 40
2.236014716865069
 40
2.236014716865111
 40
2.236014716865111
 40
2.236014716865111
 10
61.66495310053164
 20
103.0839622396166
 30
0.0
 10
60.83609248764287
 20
102.5827781994831
 30
0.0
 10
60.00723187475387
 20
102.0815941593497
 30
0.0
 10
60.00671253448331
 20
101.5839622265672
 30
0.0
  0
ARC
  5
E00ED76D
330
E00DEA5D
100
AcDbEntity
  8
JISSEN
100
AcDbCircle
 10
126.305707553442
 20
37.21797419711322
 30
0.0
 40
15.0
100
AcDbArc
 50
114.4186184442967
 51
180.0
  0
LINE
  5
E00ED76E
330
E00DEA5D
100
AcDbEntity
  8
JISSEN
100
AcDbLine
 10
122.595615396342
 20
51.22628957961308
 30
0.0
 11
120.1047019008915
 21
50.8762147370627
 31
0.0
  0
ARC
  5
E00ED76F
330
E00DEA5D
100
AcDbEntity
  8
JISSEN
100
AcDbCircle
 10
122.3172678312917
 20
53.20682571906321
 30
0.0
 40
1.999999999999985
100
AcDbArc
 50
277.9999999999944
 51
330.3681085059137
  0
TEXT
  5
E00ED770
330
E00DEA5D
100
AcDbEntity
  8
TEXT
100
AcDbText
 10
114.0181079754142
 20
4.713118270407953
 30
0.0
 40
3.0
  1
尺度　1/1
  7
K
 72
     4
 11
122.4895365468428
 21
5.998832556122238
 31
0.0
100
AcDbText
  0
TEXT
  5
E00ED771
330
E00DEA5D
100
AcDbEntity
  8
TEXT
100
AcDbText
 10
114.5400738703363
 20
9.24359141707524
 30
0.0
 40
3.0
  1
KQS　＋ガードK 取付状態
  7
K
 72
     4
 11
137.2400738703363
 21
10.60073427421809
 31
0.0
100
AcDbText
  0
LINE
  5
E00ED772
330
E00DEA5D
100
AcDbEntity
  8
JISSEN
100
AcDbLine
 39
240.0520776831561
 10
102.4557075534453
 20
48.66513091792455
 30
0.0
 11
91.55570756649149
 21
48.66513091792308
 31
0.0
  0
LINE
  5
E00ED773
330
E00DEA5D
100
AcDbEntity
  8
JISSEN
100
AcDbLine
 39
240.0520776831561
 10
77.65570755352474
 20
48.66513091800641
 30
0.0
 11
88.55570754039263
 21
48.66513091793286
 31
0.0
  0
LINE
  5
E00ED774
330
E00DEA5D
100
AcDbEntity
  8
JISSEN
100
AcDbLine
 10
91.55570756649149
 20
49.22164591026478
 30
0.0
 11
108.3318329913067
 21
49.22164591026478
 31
0.0
  0
LINE
  5
E00ED775
330
E00DEA5D
100
AcDbEntity
  8
JISSEN
100
AcDbLine
 10
109.8057084624419
 20
26.41797382456309
 30
0.0
 11
90.05570755344207
 21
26.41797382456309
 31
0.0
  0
LINE
  5
E00ED776
330
E00DEA5D
100
AcDbEntity
  8
JISSEN
100
AcDbLine
 10
109.7486630920925
 20
29.41797431631414
 30
0.0
 11
91.55570756649149
 21
29.41797431631414
 31
0.0
  0
LINE
  5
E00ED777
330
E00DEA5D
100
AcDbEntity
  8
JISSEN
370
    -2
100
AcDbLine
 10
96.86897293664287
 20
44.96496982051337
 30
0.0
 11
91.55570756649149
 21
44.96496982051337
 31
0.0
  0
LINE
  5
E00ED778
330
E00DEA5D
100
AcDbEntity
  8
JISSEN
370
    -2
100
AcDbLine
 10
103.3057073969425
 20
46.46497099771238
 30
0.0
 11
91.55570756649149
 21
46.46497099771226
 31
0.0
  0
LINE
  5
E00ED779
330
E00DEA5D
100
AcDbEntity
  8
JISSEN
370
    -2
100
AcDbLine
 10
96.86897293664287
 20
41.96497119141293
 30
0.0
 11
91.55570756649149
 21
41.96497119141293
 31
0.0
  0
LINE
  5
E00ED77A
330
E00DEA5D
100
AcDbEntity
  8
JISSEN
370
    -2
100
AcDbLine
 10
101.3057080004423
 20
39.46496985031206
 30
0.0
 11
91.55570756649144
 21
39.46496985031206
 31
0.0
  0
ARC
  5
E00ED77B
330
E00DEA5D
100
AcDbEntity
  8
JISSEN
100
AcDbCircle
 10
95.97286484097413
 20
43.06513087355722
 30
0.0
 40
0.3
100
AcDbArc
 50
269.9999999999739
 51
314.9999999996935
  0
LINE
  5
E00ED77C
330
E00DEA5D
100
AcDbEntity
  8
JISSEN
100
AcDbLine
 10
88.55570754039263
 20
29.41797431631425
 30
0.0
 11
88.55570754039263
 21
49.22164591026319
 31
0.0
  0
LINE
  5
E00ED77D
330
E00DEA5D
100
AcDbEntity
  8
JISSEN
100
AcDbLine
 10
68.80570732994283
 20
27.91797419711395
 30
0.0
 11
68.80570732994283
 21
37.21797453236388
 31
0.0
  0
LINE
  5
E00ED77E
330
E00DEA5D
100
AcDbEntity
  8
JISSEN
100
AcDbLine
 10
72.8057079855921
 20
29.41797431631414
 30
0.0
 11
72.8057079855921
 21
49.21908081506365
 31
0.0
  0
LINE
  5
E00ED77F
330
E00DEA5D
100
AcDbEntity
  8
JISSEN
100
AcDbLine
 10
91.55570756649144
 20
29.41797431631425
 30
0.0
 11
91.55570756649149
 21
49.22164591026626
 31
0.0
  0
LINE
  5
E00ED780
330
E00DEA5D
100
AcDbEntity
  8
JISSEN
100
AcDbLine
 10
70.36275201479156
 20
29.41797431631414
 30
0.0
 11
88.55570754039263
 21
29.41797431631414
 31
0.0
  0
LINE
  5
E00ED781
330
E00DEA5D
100
AcDbEntity
  8
JISSEN
100
AcDbLine
 10
70.30570664444212
 20
26.41797382456309
 30
0.0
 11
90.05570755344207
 21
26.41797382456309
 31
0.0
  0
SPLINE
  5
E00ED782
330
E00DEA5D
100
AcDbEntity
  8
JISSEN
100
AcDbSpline
210
0.0
220
0.0
230
1.0
 70
     8
 71
     3
 72
     9
 73
     5
 74
     0
 42
0.0000000001
 43
0.0000000001
 40
0.0
 40
0.0
 40
0.0
 40
0.0
 40
0.5
 40
1.0
 40
1.0
 40
1.0
 40
1.0
 10
70.3627519601273
 20
29.41797419709212
 30
0.0
 10
70.3532639443506
 20
29.41797419709212
 30
0.0
 10
70.33426861551788
 20
29.41779520767989
 30
0.0
 10
70.31523443362721
 20
29.41725584173139
 30
0.0
 10
70.30570755343569
 20
29.41689535986109
 30
0.0
  0
ARC
  5
E00ED783
330
E00DEA5D
100
AcDbEntity
  8
JISSEN
100
AcDbCircle
 10
70.30570755344206
 20
27.91797419711395
 30
0.0
 40
1.5
100
AcDbArc
 50
180.0
 51
270.0
  0
SPLINE
  5
E00ED784
330
E00DEA5D
100
AcDbEntity
  8
JISSEN
100
AcDbSpline
210
0.0
220
0.0
230
1.0
 70
     8
 71
     3
 72
    16
 73
    12
 74
     0
 42
0.0000000001
 43
0.0000000001
 40
0.0
 40
0.0
 40
0.0
 40
0.0
 40
0.249999999999999
 40
0.249999999999999
 40
0.3749999999999985
 40
0.3749999999999985
 40
0.4999999999999981
 40
0.4999999999999981
 40
0.7499999999999991
 40
0.7499999999999991
 40
1.0
 40
1.0
 40
1.0
 40
1.0
 10
70.30570755343569
 20
29.41689535986109
 30
0.0
 10
70.06486372071731
 20
29.4077822154478
 30
0.0
 10
69.8357677142344
 20
29.34054749265953
 30
0.0
 10
69.5449665336414
 20
29.19022296008108
 30
0.0
 10
69.4560894009469
 20
29.13170936657582
 30
0.0
 10
69.29848385176547
 20
29.00609950046703
 30
0.0
 10
69.22845235552586
 20
28.93825198978186
 30
0.0
 10
69.04189768971855
 20
28.72232337328853
 30
0.0
 10
68.95396567699799
 20
28.56930279102482
 30
0.0
 10
68.83488314739361
 20
28.24852137289883
 30
0.0
 10
68.80570755343569
 20
28.08229210851379
 30
0.0
 10
68.80570755343569
 20
27.91797419709212
 30
0.0
  0
SPLINE
  5
E00ED785
330
E00DEA5D
100
AcDbEntity
  8
JISSEN
100
AcDbSpline
210
0.0
220
0.0
230
1.0
 70
     8
 71
     3
 72
    16
 73
    12
 74
     0
 42
0.0000000001
 43
0.0000000001
 40
0.0
 40
0.0
 40
0.0
 40
0.0
 40
0.2500000000000009
 40
0.2500000000000009
 40
0.3750000000000013
 40
0.3750000000000013
 40
0.5000000000000018
 40
0.5000000000000018
 40
0.7500000000000009
 40
0.7500000000000009
 40
1.0
 40
1.0
 40
1.0
 40
1.0
 10
88.55570755343569
 20
29.41689535986109
 30
0.0
 10
88.55570755343569
 20
29.4077822154478
 30
0.0
 10
88.61491115849867
 20
29.34054749265953
 30
0.0
 10
88.75841902468209
 20
29.19022296008108
 30
0.0
 10
88.81545951861108
 20
29.13170936657582
 30
0.0
 10
88.93965799910665
 20
29.00609950046703
 30
0.0
 10
89.00753595635661
 20
28.93825198978186
 30
0.0
 10
89.2254338264288
 20
28.72232337328853
 30
0.0
 10
89.38215168547548
 20
28.56930279102482
 30
0.0
 10
89.71283851959061
 20
28.24852137289883
 30
0.0
 10
89.88526394788232
 20
28.08229210851379
 30
0.0
 10
90.05570755343569
 20
27.91797419709212
 30
0.0
  0
SPLINE
  5
E00ED786
330
E00DEA5D
100
AcDbEntity
  8
JISSEN
100
AcDbSpline
210
0.0
220
0.0
230
1.0
 70
     8
 71
     3
 72
    16
 73
    12
 74
     0
 42
0.0000000001
 43
0.0000000001
 40
0.0
 40
0.0
 40
0.0
 40
0.0
 40
0.2500000000000009
 40
0.2500000000000009
 40
0.3750000000000013
 40
0.3750000000000013
 40
0.5000000000000018
 40
0.5000000000000018
 40
0.7500000000000009
 40
0.7500000000000009
 40
1.0
 40
1.0
 40
1.0
 40
1.0
 10
91.55570755344843
 20
29.41689535986109
 30
0.0
 10
91.55570755344843
 20
29.4077822154478
 30
0.0
 10
91.49650394838545
 20
29.34054749265953
 30
0.0
 10
91.35299608220202
 20
29.19022296008108
 30
0.0
 10
91.29595558827304
 20
29.13170936657582
 30
0.0
 10
91.17175710777747
 20
29.00609950046703
 30
0.0
 10
91.10387915052752
 20
28.93825198978186
 30
0.0
 10
90.88598128045532
 20
28.72232337328853
 30
0.0
 10
90.72926342140863
 20
28.56930279102482
 30
0.0
 10
90.39857658729351
 20
28.24852137289883
 30
0.0
 10
90.2261511590018
 20
28.08229210851379
 30
0.0
 10
90.05570755344843
 20
27.91797419709212
 30
0.0
  0
LINE
  5
E00ED787
330
E00DEA5D
100
AcDbEntity
  8
JISSEN
100
AcDbLine
 10
88.55570754039257
 20
49.22164591026478
 30
0.0
 11
71.77958211557769
 21
49.22164591026478
 31
0.0
  0
LINE
  5
E00ED788
330
E00DEA5D
100
AcDbEntity
  8
JISSEN
370
    -2
100
AcDbLine
 10
76.80570771001248
 20
46.46497099780151
 30
0.0
 11
88.55570754039263
 21
46.46497099772227
 31
0.0
  0
LINE
  5
E00ED789
330
E00DEA5D
100
AcDbEntity
  8
JISSEN
370
    -2
100
AcDbLine
 10
78.80570710646589
 20
39.46496985038663
 30
0.0
 11
88.55570754039263
 21
39.46496985032206
 31
0.0
  0
ARC
  5
E00ED78A
330
E00DEA5D
100
AcDbEntity
  8
JISSEN
370
    -2
100
AcDbCircle
 10
83.31948094469362
 20
43.59344089475905
 30
0.0
 40
1.373690855685324
100
AcDbArc
 50
93.21492544802474
 51
185.3662609455776
  0
ARC
  5
E00ED78B
330
E00DEA5D
100
AcDbEntity
  8
JISSEN
370
    -2
100
AcDbCircle
 10
83.35728301839209
 20
43.36902582965683
 30
0.0
 40
1.408743357584393
100
AcDbArc
 50
176.0947579959863
 51
265.3240556089218
  0
ARC
  5
E00ED78C
330
E00DEA5D
100
AcDbEntity
  8
JISSEN
370
    -2
100
AcDbCircle
 10
78.80570755347889
 20
41.46497062388641
 30
0.0
 40
2.000000000000056
100
AcDbArc
 50
179.9999999995831
 51
269.9999999996091
  0
LINE
  5
E00ED78D
330
E00DEA5D
100
AcDbEntity
  8
JISSEN
100
AcDbLine
 10
71.9727051351424
 20
49.21797417101436
 30
0.0
 11
71.9608400855418
 21
49.21797417101436
 31
0.0
  0
SPLINE
  5
E00ED78E
330
E00DEA5D
100
AcDbEntity
  8
JISSEN
100
AcDbSpline
210
0.0
220
0.0
230
1.0
 70
     8
 71
     3
 72
     9
 73
     5
 74
     0
 42
0.0000000001
 43
0.0000000001
 40
0.0
 40
0.0
 40
0.0
 40
0.0
 40
0.5
 40
1.0
 40
1.0
 40
1.0
 40
1.0
 10
71.86745585075687
 20
49.22164601043289
 30
0.0
 10
71.88494122628753
 20
49.22042446061926
 30
0.0
 10
71.91996783223067
 20
49.21858912465097
 30
0.0
 10
71.95510659651927
 20
49.2179741970914
 30
0.0
 10
71.9727042352938
 20
49.2179741970914
 30
0.0
  0
LINE
  5
E00ED78F
330
E00DEA5D
100
AcDbEntity
  8
JISSEN
370
    -2
100
AcDbLine
 10
76.80570771001248
 20
46.46497099780151
 30
0.0
 11
76.80570771000247
 21
44.9649698206025
 31
0.0
  0
LINE
  5
E00ED790
330
E00DEA5D
100
AcDbEntity
  8
JISSEN
370
    -2
100
AcDbLine
 10
76.80570771000247
 20
44.9649698206025
 30
0.0
 11
78.69164523680274
 21
44.96496982058795
 31
0.0
  0
LINE
  5
E00ED791
330
E00DEA5D
100
AcDbEntity
  8
JISSEN
370
    -2
100
AcDbLine
 10
76.80570770998247
 20
41.96497119150206
 30
0.0
 11
78.69164523678273
 21
41.96497119148751
 31
0.0
  0
LINE
  5
E00ED792
330
E00DEA5D
100
AcDbEntity
  8
JISSEN
370
    -2
100
AcDbLine
 10
76.80570770998247
 20
41.96497119150206
 30
0.0
 11
76.80570770997928
 21
41.46497017820126
 31
0.0
  0
SPLINE
  5
E00ED793
330
E00DEA5D
100
AcDbEntity
  8
JISSEN
370
    -2
100
AcDbSpline
210
0.0
220
0.0
230
1.0
 70
    12
 71
     3
 72
    12
 73
     8
 74
     0
 42
0.0000000001
 43
0.0000000001
 40
0.0
 40
0.0
 40
0.0
 40
0.0
 40
0.2270414180693609
 40
0.4545205376007232
 40
0.6714649260062801
 40
0.8806674473517201
 40
1.0
 40
1.0
 40
1.0
 40
1.0
 10
78.69164523678455
 20
44.96496982058431
 30
0.0
 41
1.0
 10
78.7873984175717
 20
44.94806017063581
 30
0.0
 41
1.0
 10
78.97908937677494
 20
44.9142082714892
 30
0.0
 41
1.0
 10
79.2530304726406
 20
44.64031815810574
 30
0.0
 41
1.0
 10
79.45889804581838
 20
44.2399492418275
 30
0.0
 41
1.0
 10
79.56006111819715
 20
43.82348147285244
 30
0.0
 41
1.0
 10
79.56947564881011
 20
43.56049433110399
 30
0.0
 41
1.0
 10
79.57289525316582
 20
43.46497050603227
 30
0.0
 41
1.0
  0
SPLINE
  5
E00ED794
330
E00DEA5D
100
AcDbEntity
  8
JISSEN
370
    -2
100
AcDbSpline
210
0.0
220
0.0
230
1.0
 70
    12
 71
     3
 72
    12
 73
     8
 74
     0
 42
0.0000000001
 43
0.0000000001
 40
0.0
 40
0.0
 40
0.0
 40
0.0
 40
0.205840282809383
 40
0.4116490113380446
 40
0.6184457918287852
 40
0.8292559119854885
 40
1.0
 40
1.0
 40
1.0
 40
1.0
 10
79.57289525316582
 20
43.46497050603227
 30
0.0
 41
1.0
 10
79.56287878031162
 20
43.29954404074612
 30
0.0
 41
1.0
 10
79.54284737008038
 20
42.96871646921078
 30
0.0
 41
1.0
 10
79.38911942812637
 20
42.52732761677669
 30
0.0
 41
1.0
 10
79.16974961461983
 20
42.19063708892043
 30
0.0
 41
1.0
 10
78.92283895434593
 20
41.99606828880257
 30
0.0
 41
1.0
 10
78.76311922235482
 20
41.97458491935811
 30
0.0
 41
1.0
 10
78.69164523676454
 20
41.96497119149114
 30
0.0
 41
1.0
  0
LINE
  5
E00ED795
330
E00DEA5D
100
AcDbEntity
  8
JISSEN
100
AcDbLine
 10
77.45570755352855
 20
49.21797419711163
 30
0.0
 11
77.45570755352582
 21
48.86513091800896
 31
0.0
  0
ARC
  5
E00ED796
330
E00DEA5D
100
AcDbEntity
  8
JISSEN
100
AcDbCircle
 10
77.65570755352564
 20
48.86513091800714
 30
0.0
 40
0.1999999999999957
100
AcDbArc
 50
179.9999999995831
 51
269.9999999996091
  0
LINE
  5
E00ED797
330
E00DEA5D
100
AcDbEntity
  8
JISSEN
100
AcDbLine
 10
86.53070409692828
 20
38.76513274307342
 30
0.0
 11
87.55570760936734
 21
38.76513234422725
 31
0.0
  0
LINE
  5
E00ED798
330
E00DEA5D
100
AcDbEntity
  8
JISSEN
100
AcDbLine
 10
87.55570760936734
 20
38.76513234422725
 30
0.0
 11
88.55570754039263
 21
38.76513234422054
 31
0.0
  0
LINE
  5
E00ED799
330
E00DEA5D
100
AcDbEntity
  8
JISSEN
100
AcDbLine
 10
93.58071100997539
 20
38.76513274304977
 30
0.0
 11
92.55570749753633
 21
38.76513234421088
 31
0.0
  0
LINE
  5
E00ED79A
330
E00DEA5D
100
AcDbEntity
  8
JISSEN
100
AcDbLine
 10
92.55570749753633
 20
38.76513234421088
 30
0.0
 11
91.55570756649144
 21
38.76513234421077
 31
0.0
  0
SPLINE
  5
E00ED79B
330
E00DEA5D
100
AcDbEntity
  8
JISSEN
100
AcDbSpline
210
0.0
220
0.0
230
1.0
 70
     8
 71
     3
 72
     8
 73
     4
 74
     0
 42
0.0000000001
 43
0.0000000001
 40
0.0
 40
0.0
 40
0.0
 40
0.0
 40
2.236014716865069
 40
2.236014716865111
 40
2.236014716865111
 40
2.236014716865111
 10
88.55570754039353
 20
49.22164591026467
 30
0.0
 10
89.05689158052679
 20
50.05050652315367
 30
0.0
 10
89.55807562066002
 20
50.87936713604268
 30
0.0
 10
90.05570755344297
 20
50.879886476313
 30
0.0
  0
ARC
  5
E00ED79C
330
E00DEA5D
100
AcDbEntity
  8
JISSEN
370
    -2
100
AcDbCircle
 10
85.65570755348289
 20
42.06497062384312
 30
0.0
 40
0.7000000000000242
100
AcDbArc
 50
89.99999999960918
 51
179.9999999995831
  0
LINE
  5
E00ED79D
330
E00DEA5D
100
AcDbEntity
  8
JISSEN
100
AcDbLine
 10
88.55570754039263
 20
42.76513087356761
 30
0.0
 11
84.13855026595639
 21
42.76513087359615
 31
0.0
  0
LINE
  5
E00ED79E
330
E00DEA5D
100
AcDbEntity
  8
JISSEN
370
    -2
100
AcDbLine
 10
83.24244217028217
 20
41.9649711914584
 30
0.0
 11
88.55570754039263
 21
41.96497119142293
 31
0.0
  0
LINE
  5
E00ED79F
330
E00DEA5D
100
AcDbEntity
  8
JISSEN
370
    -2
100
AcDbLine
 10
83.24244217030217
 20
44.96496982055885
 30
0.0
 11
88.55570754039263
 21
44.96496982052327
 31
0.0
  0
ARC
  5
E00ED7A0
330
E00DEA5D
100
AcDbEntity
  8
JISSEN
370
    -2
100
AcDbCircle
 10
83.76588919259303
 20
43.54921092105485
 30
0.0
 40
1.418614261419669
100
AcDbArc
 50
93.63587483011007
 51
183.4043513649433
  0
ARC
  5
E00ED7A1
330
E00DEA5D
100
AcDbEntity
  8
JISSEN
100
AcDbCircle
 10
84.1385502659582
 20
43.06513087359542
 30
0.0
 40
0.3
100
AcDbArc
 50
224.9999999998828
 51
269.9999999996352
  0
LINE
  5
E00ED7A2
330
E00DEA5D
100
AcDbEntity
  8
JISSEN
370
    -2
100
AcDbLine
 10
84.95570736948321
 20
42.06496915894729
 30
0.0
 11
84.95570736948275
 21
41.96497119144749
 31
0.0
  0
ARC
  5
E00ED7A3
330
E00DEA5D
100
AcDbEntity
  8
JISSEN
370
    -2
100
AcDbCircle
 10
83.73275898329211
 20
43.35143968455429
 30
0.0
 40
1.387632780893617
100
AcDbArc
 50
175.3070321912918
 51
267.6527416120486
  0
LINE
  5
E00ED7A4
330
E00DEA5D
100
AcDbEntity
  8
JISSEN
370
    -2
100
AcDbLine
 10
86.00570744840252
 20
44.96496982054066
 30
0.0
 11
86.00570744839297
 21
43.5651308735845
 31
0.0
  0
LINE
  5
E00ED7A5
330
E00DEA5D
100
AcDbEntity
  8
JISSEN
370
    -2
100
AcDbLine
 10
84.50570766822783
 20
48.66513091796457
 30
0.0
 11
84.50570766821284
 21
46.46497099774876
 31
0.0
  0
LINE
  5
E00ED7A6
330
E00DEA5D
100
AcDbEntity
  8
JISSEN
100
AcDbLine
 10
91.55570756649149
 20
42.76513087355783
 30
0.0
 11
95.97286484097413
 21
42.76513087355795
 31
0.0
  0
LINE
  5
E00ED7A7
330
E00DEA5D
100
AcDbEntity
  8
JISSEN
370
    -2
100
AcDbLine
 10
94.10570765854254
 20
44.96496982051337
 30
0.0
 11
94.10570765854254
 21
43.56513087355722
 31
0.0
  0
ARC
  5
E00ED7A8
330
E00DEA5D
100
AcDbEntity
  8
JISSEN
370
    -2
100
AcDbCircle
 10
94.45570755344261
 20
42.06497062381401
 30
0.0
 40
0.7000000000000242
100
AcDbArc
 50
0.0
 51
90.0
  0
LINE
  5
E00ED7A9
330
E00DEA5D
100
AcDbEntity
  8
JISSEN
370
    -2
100
AcDbLine
 10
95.15570773744229
 20
42.06496915891273
 30
0.0
 11
95.15570773744229
 21
41.96497119141293
 31
0.0
  0
SPLINE
  5
E00ED7AA
330
E00DEA5D
100
AcDbEntity
  8
JISSEN
100
AcDbSpline
210
0.0
220
0.0
230
1.0
 70
     8
 71
     3
 72
     8
 73
     4
 74
     0
 42
0.0000000001
 43
0.0000000001
 40
0.0
 40
0.0
 40
0.0
 40
0.0
 40
2.236014716865069
 40
2.236014716865111
 40
2.236014716865111
 40
2.236014716865111
 10
91.5557075664924
 20
49.22164591026467
 30
0.0
 10
91.05452352635916
 20
50.05050652315367
 30
0.0
 10
90.55333948622592
 20
50.87936713604268
 30
0.0
 10
90.05570755344297
 20
50.879886476313
 30
0.0
  0
LINE
  5
E00ED7AB
330
E00DEA5D
100
AcDbEntity
  8
JISSEN
370
    -2
100
AcDbLine
 10
95.60570743874222
 20
48.66513091792819
 30
0.0
 11
95.60570743874222
 21
46.46497099771238
 31
0.0
  0
LINE
  5
E00ED7AC
330
E00DEA5D
100
AcDbEntity
  8
JISSEN
100
AcDbLine
 10
111.3057077769412
 20
27.91797419711395
 30
0.0
 11
111.3057077769412
 21
37.21797453236388
 31
0.0
  0
LINE
  5
E00ED7AD
330
E00DEA5D
100
AcDbEntity
  8
JISSEN
100
AcDbLine
 10
107.305707121292
 20
29.41797431631414
 30
0.0
 11
107.305707121292
 21
49.21908081506365
 31
0.0
  0
ARC
  5
E00ED7AE
330
E00DEA5D
100
AcDbEntity
  8
JISSEN
100
AcDbCircle
 10
109.805707553442
 20
27.91797419711395
 30
0.0
 40
1.5
100
AcDbArc
 50
270.0
 51
0.0
  0
SPLINE
  5
E00ED7AF
330
E00DEA5D
100
AcDbEntity
  8
JISSEN
100
AcDbSpline
210
0.0
220
0.0
230
1.0
 70
     8
 71
     3
 72
    16
 73
    12
 74
     0
 42
0.0000000001
 43
0.0000000001
 40
0.0
 40
0.0
 40
0.0
 40
0.0
 40
0.249999999999999
 40
0.249999999999999
 40
0.3749999999999985
 40
0.3749999999999985
 40
0.4999999999999981
 40
0.4999999999999981
 40
0.7499999999999991
 40
0.7499999999999991
 40
1.0
 40
1.0
 40
1.0
 40
1.0
 10
109.8057075534484
 20
29.41689535986109
 30
0.0
 10
110.0465513861668
 20
29.4077822154478
 30
0.0
 10
110.2756473926497
 20
29.34054749265953
 30
0.0
 10
110.5664485732427
 20
29.19022296008108
 30
0.0
 10
110.6553257059372
 20
29.13170936657582
 30
0.0
 10
110.8129312551186
 20
29.00609950046703
 30
0.0
 10
110.8829627513582
 20
28.93825198978186
 30
0.0
 10
111.0695174171655
 20
28.72232337328853
 30
0.0
 10
111.1574494298861
 20
28.56930279102482
 30
0.0
 10
111.2765319594905
 20
28.24852137289883
 30
0.0
 10
111.3057075534484
 20
28.08229210851379
 30
0.0
 10
111.3057075534484
 20
27.91797419709212
 30
0.0
  0
SPLINE
  5
E00ED7B0
330
E00DEA5D
100
AcDbEntity
  8
JISSEN
100
AcDbSpline
210
0.0
220
0.0
230
1.0
 70
     8
 71
     3
 72
     9
 73
     5
 74
     0
 42
0.0000000001
 43
0.0000000001
 40
0.0
 40
0.0
 40
0.0
 40
0.0
 40
0.5
 40
1.0
 40
1.0
 40
1.0
 40
1.0
 10
109.7486631467568
 20
29.41797419709212
 30
0.0
 10
109.7581511625335
 20
29.41797419709212
 30
0.0
 10
109.7771464913662
 20
29.41779520767989
 30
0.0
 10
109.7961806732569
 20
29.41725584173139
 30
0.0
 10
109.8057075534484
 20
29.41689535986109
 30
0.0
  0
LINE
  5
E00ED7B1
330
E00DEA5D
100
AcDbEntity
  8
JISSEN
100
AcDbLine
 10
108.3318329913067
 20
49.22164591026478
 30
0.0
 11
120.1047024902513
 21
50.87621481649069
 31
0.0
  0
ARC
  5
E00ED7B2
330
E00DEA5D
100
AcDbEntity
  8
JISSEN
370
    -2
100
AcDbCircle
 10
101.3057075534429
 20
41.46497062381183
 30
0.0
 40
2.000000000000056
100
AcDbArc
 50
270.0
 51
0.0
  0
LINE
  5
E00ED7B3
330
E00DEA5D
100
AcDbEntity
  8
JISSEN
370
    -2
100
AcDbLine
 10
103.3057073969425
 20
44.96496982051337
 30
0.0
 11
101.4197698701423
 21
44.96496982051337
 31
0.0
  0
LINE
  5
E00ED7B4
330
E00DEA5D
100
AcDbEntity
  8
JISSEN
370
    -2
100
AcDbLine
 10
103.3057073969425
 20
41.96497119141293
 30
0.0
 11
101.4197698701423
 21
41.96497119141293
 31
0.0
  0
ARC
  5
E00ED7B5
330
E00DEA5D
100
AcDbEntity
  8
JISSEN
370
    -2
100
AcDbCircle
 10
96.3455259143425
 20
43.54921092101301
 30
0.0
 40
1.418614261419669
100
AcDbArc
 50
356.595648634639
 51
86.36412516949977
  0
ARC
  5
E00ED7B6
330
E00DEA5D
100
AcDbEntity
  8
JISSEN
370
    -2
100
AcDbCircle
 10
96.79193416224235
 20
43.59344089471358
 30
0.0
 40
1.373690855685324
100
AcDbArc
 50
354.6337390540036
 51
86.7850745516049
  0
ARC
  5
E00ED7B7
330
E00DEA5D
100
AcDbEntity
  8
JISSEN
370
    -2
100
AcDbCircle
 10
96.37865612364249
 20
43.35143968451245
 30
0.0
 40
1.387632780893617
100
AcDbArc
 50
272.3472583875866
 51
4.692967808289879
  0
ARC
  5
E00ED7B8
330
E00DEA5D
100
AcDbEntity
  8
JISSEN
370
    -2
100
AcDbCircle
 10
96.75413208854251
 20
43.36902582961136
 30
0.0
 40
1.408743357584393
100
AcDbArc
 50
274.6759443907207
 51
3.905242003595847
  0
SPLINE
  5
E00ED7B9
330
E00DEA5D
100
AcDbEntity
  8
JISSEN
370
    -2
100
AcDbSpline
210
0.0
220
0.0
230
1.0
 70
    12
 71
     3
 72
    12
 73
     8
 74
     0
 42
0.0000000001
 43
0.0000000001
 40
0.0
 40
0.0
 40
0.0
 40
0.0
 40
0.2270414180693609
 40
0.4545205376007232
 40
0.6714649260062801
 40
0.8806674473517201
 40
1.0
 40
1.0
 40
1.0
 40
1.0
 10
101.4197698701605
 20
44.96496982050792
 30
0.0
 41
1.0
 10
101.3240166893733
 20
44.94806017055942
 30
0.0
 41
1.0
 10
101.1323257301696
 20
44.91420827141462
 30
0.0
 41
1.0
 10
100.8583846343021
 20
44.64031815803298
 30
0.0
 41
1.0
 10
100.6525170611216
 20
44.23994924175474
 30
0.0
 41
1.0
 10
100.5513539887401
 20
43.8234814727815
 30
0.0
 41
1.0
 10
100.5419394581253
 20
43.56049433103305
 30
0.0
 41
1.0
 10
100.5385198537692
 20
43.46497050596133
 30
0.0
 41
1.0
  0
SPLINE
  5
E00ED7BA
330
E00DEA5D
100
AcDbEntity
  8
JISSEN
370
    -2
100
AcDbSpline
210
0.0
220
0.0
230
1.0
 70
    12
 71
     3
 72
    12
 73
     8
 74
     0
 42
0.0000000001
 43
0.0000000001
 40
0.0
 40
0.0
 40
0.0
 40
0.0
 40
0.205840282809383
 40
0.4116490113380446
 40
0.6184457918287852
 40
0.8292559119854885
 40
1.0
 40
1.0
 40
1.0
 40
1.0
 10
100.5385198537692
 20
43.46497050596133
 30
0.0
 41
1.0
 10
100.548536326622
 20
43.29954404067518
 30
0.0
 41
1.0
 10
100.5685677368514
 20
42.96871646913984
 30
0.0
 41
1.0
 10
100.7222956788023
 20
42.52732761670393
 30
0.0
 41
1.0
 10
100.9416654923065
 20
42.19063708884767
 30
0.0
 41
1.0
 10
101.1885761525795
 20
41.99606828872617
 30
0.0
 41
1.0
 10
101.3482958845702
 20
41.97458491928171
 30
0.0
 41
1.0
 10
101.4197698701605
 20
41.96497119141475
 30
0.0
 41
1.0
  0
LINE
  5
E00ED7BB
330
E00DEA5D
100
AcDbEntity
  8
JISSEN
100
AcDbLine
 10
102.6557075534451
 20
49.21797419711345
 30
0.0
 11
102.6557075534451
 21
48.86513091792529
 31
0.0
  0
ARC
  5
E00ED7BC
330
E00DEA5D
100
AcDbEntity
  8
JISSEN
100
AcDbCircle
 10
102.4557075534453
 20
48.86513091792529
 30
0.0
 40
0.1999999999999957
100
AcDbArc
 50
270.0
 51
0.0
  0
LINE
  5
E00ED7BD
330
E00DEA5D
100
AcDbEntity
  8
JISSEN
370
    -2
100
AcDbLine
 10
103.3057073969425
 20
46.46497099771238
 30
0.0
 11
103.3057073969425
 21
44.96496982051337
 31
0.0
  0
LINE
  5
E00ED7BE
330
E00DEA5D
100
AcDbEntity
  8
JISSEN
370
    -2
100
AcDbLine
 10
103.3057073969425
 20
41.96497119141293
 30
0.0
 11
103.3057073969425
 21
41.46497017811213
 31
0.0
  0
SPLINE
  5
E00ED7BF
330
E00DEA5D
100
AcDbEntity
  8
JISSEN
100
AcDbSpline
210
0.0
220
0.0
230
1.0
 70
     8
 71
     3
 72
     9
 73
     5
 74
     0
 42
0.0000000001
 43
0.0000000001
 40
0.0
 40
0.0
 40
0.0
 40
0.0
 40
0.5
 40
1.0
 40
1.0
 40
1.0
 40
1.0
 10
108.2439592561272
 20
49.22164601043289
 30
0.0
 10
108.2264738805965
 20
49.22042446061926
 30
0.0
 10
108.1914472746534
 20
49.21858912465097
 30
0.0
 10
108.1563085103648
 20
49.2179741970914
 30
0.0
 10
108.1387108715903
 20
49.2179741970914
 30
0.0
  0
LINE
  5
E00ED7C0
330
E00DEA5D
100
AcDbEntity
  8
JISSEN
100
AcDbLine
 10
108.1387099717417
 20
49.21797417101436
 30
0.0
 11
108.1505750213423
 21
49.21797417101436
 31
0.0
  0
LINE
  5
E00ED7C1
330
E00DEA5D
100
AcDbEntity
  8
SUNPOU
100
AcDbLine
 10
122.555707553518
 20
52.21797419711345
 30
0.0
 11
147.1075756580712
 21
52.21797419711345
 31
0.0
  0
ARC
  5
E00ED7C2
330
E00DEA5D
100
AcDbEntity
  8
JISSEN
100
AcDbCircle
 10
90.05570755344207
 20
101.5839622265667
 30
0.0
 40
17.25000000000002
100
AcDbArc
 50
318.0000000000252
 51
355.0114580243984
  0
ARC
  5
E00ED7C3
330
E00DEA5D
100
AcDbEntity
  8
JISSEN
100
AcDbCircle
 10
90.05570755344207
 20
101.5839622265667
 30
0.0
 40
18.25
100
AcDbArc
 50
274.3813846339229
 51
355.6186153660771
  0
ARC
  5
E00ED7C4
330
E00DEA5D
100
AcDbEntity
  8
JISSEN
100
AcDbCircle
 10
90.05570755344207
 20
101.5839622265667
 30
0.0
 40
21.25000000000001
100
AcDbArc
 50
270.0000113140641
 51
0.0000113141162293
  0
ARC
  5
E00ED7C5
330
E00DEA5D
100
AcDbEntity
  8
JISSEN
100
AcDbCircle
 10
90.05570755344207
 20
101.5839622265667
 30
0.0
 40
15.0
100
AcDbArc
 50
270.0
 51
90.0
  0
ARC
  5
E00ED7C6
330
E00DEA5D
100
AcDbEntity
  8
JISSEN
100
AcDbCircle
 10
90.05570755344207
 20
101.5839622265667
 30
0.0
 40
17.25000000000002
100
AcDbArc
 50
184.9885419756015
 51
221.9999999999747
  0
ARC
  5
E00ED7C7
330
E00DEA5D
100
AcDbEntity
  8
JISSEN
100
AcDbCircle
 10
90.05570755344207
 20
101.5839622265667
 30
0.0
 40
18.25
100
AcDbArc
 50
184.3813846339228
 51
265.6186153660769
  0
ARC
  5
E00ED7C8
330
E00DEA5D
100
AcDbEntity
  8
JISSEN
100
AcDbCircle
 10
90.05570755344207
 20
101.5839622265667
 30
0.0
 40
15.0
100
AcDbArc
 50
90.0
 51
270.0
  0
ARC
  5
E00ED7C9
330
E00DEA5D
100
AcDbEntity
  8
JISSEN
100
AcDbCircle
 10
90.05570755344207
 20
101.5839622265667
 30
0.0
 40
34.0
100
AcDbArc
 50
270.0
 51
90.0
  0
CIRCLE
  5
E00ED7CA
330
E00DEA5D
100
AcDbEntity
  8
JISSEN
370
    -2
100
AcDbCircle
 10
90.05570755344207
 20
101.5765606846918
 30
0.0
 40
14.64999999999998
  0
CIRCLE
  5
E00ED7CB
330
E00DEA5D
100
AcDbEntity
  8
JISSEN
 48
0.2
370
    -2
100
AcDbCircle
 10
90.05570755344207
 20
101.5765606846918
 30
0.0
 40
13.25000000000011
  0
ARC
  5
E00ED7CC
330
E00DEA5D
100
AcDbEntity
  8
JISSEN
100
AcDbCircle
 10
90.05570755344207
 20
101.5839622265667
 30
0.0
 40
17.25000000000002
100
AcDbArc
 50
274.9885419756014
 51
311.9999999999953
  0
LINE
  5
E00ED7CD
330
E00DEA5D
100
AcDbEntity
  8
JISSEN
100
AcDbLine
 10
124.0557094011915
 20
52.21797419711322
 30
0.0
 11
90.05570755344207
 21
52.21797419711322
 31
0.0
  0
SPLINE
  5
E00ED7CE
330
E00DEA5D
100
AcDbEntity
  8
JISSEN
100
AcDbSpline
210
0.0
220
0.0
230
1.0
 70
     8
 71
     3
 72
     8
 73
     4
 74
     0
 42
0.0000000001
 43
0.0000000001
 40
0.0
 40
0.0
 40
0.0
 40
0.0
 40
2.236014716865069
 40
2.236014716865111
 40
2.236014716865111
 40
2.236014716865111
 10
91.55570756649149
 20
73.19320777365658
 30
0.0
 10
91.05452352635825
 20
72.36434716076804
 30
0.0
 10
90.55333948622502
 20
71.53548654787903
 30
0.0
 10
90.05570755344207
 20
71.53496720760824
 30
0.0
  0
SPLINE
  5
E00ED7CF
330
E00DEA5D
100
AcDbEntity
  8
JISSEN
100
AcDbSpline
210
0.0
220
0.0
230
1.0
 70
     8
 71
     3
 72
     8
 73
     4
 74
     0
 42
0.0000000001
 43
0.0000000001
 40
0.0
 40
0.0
 40
0.0
 40
0.0
 40
2.236014716865069
 40
2.236014716865111
 40
2.236014716865111
 40
2.236014716865111
 10
88.55570754039263
 20
73.19320777365658
 30
0.0
 10
89.05689158052576
 20
72.36434716076804
 30
0.0
 10
89.55807562065889
 20
71.53548654787903
 30
0.0
 10
90.05570755344207
 20
71.53496720760824
 30
0.0
  0
ARC
  5
E00ED7D0
330
E00DEA5D
100
AcDbEntity
  8
JISSEN
100
AcDbCircle
 10
90.05570755344207
 20
101.5839622265667
 30
0.0
 40
17.25000000000002
100
AcDbArc
 50
228.0000000000046
 51
265.0114580243985
  0
LINE
  5
E00ED7D1
330
E00DEA5D
100
AcDbEntity
  8
JISSEN
100
AcDbLine
 10
77.9142591078421
 20
88.09951775736601
 30
0.0
 11
78.43963959259281
 21
88.68301183941651
 31
0.0
  0
LWPOLYLINE
  5
E00ED7D2
330
E00DEA5D
100
AcDbEntity
  8
JISSEN
100
AcDbPolyline
 90
        9
 70
   128
 43
0.0
 10
77.84407370729287
 20
88.02156885181659
 10
77.8528355900421
 20
88.03129931006708
 10
77.86160119814349
 20
88.04103535626666
 10
77.87037146284319
 20
88.05077605906637
 10
77.87914545279318
 20
88.06051955586656
 10
77.88792130544289
 20
88.07026677791702
 10
77.89669995199119
 20
88.08001586261719
 10
77.90547859859225
 20
88.08976680996613
 10
77.9142591078421
 20
88.09951775736601
  0
LWPOLYLINE
  5
E00ED7D3
330
E00DEA5D
100
AcDbEntity
  8
JISSEN
100
AcDbPolyline
 90
        9
 70
   128
 43
0.0
 10
78.43963959259281
 20
88.68301183941651
 10
78.44884292229153
 20
88.69323310471656
 10
78.45804625194114
 20
88.70345436996661
 10
78.46724771899289
 20
88.71367377256694
 10
78.47644639204236
 20
88.72389038121685
 10
78.48564320249216
 20
88.73410326456644
 10
78.4948353562927
 20
88.74431242261664
 10
78.5040228534931
 20
88.75451599276686
 10
78.51320476274167
 20
88.76471397496619
  0
LWPOLYLINE
  5
E00ED7D4
330
E00DEA5D
100
AcDbEntity
  8
JISSEN
100
AcDbPolyline
 90
        9
 70
   128
 43
0.0
 10
77.23645930184329
 20
90.04145943586639
 10
77.22626131964216
 20
90.0322775266169
 10
77.21605774949103
 20
90.02309002941649
 10
77.20584859144264
 20
90.01389787561686
 10
77.19563570809305
 20
90.00470106516706
 10
77.18541909944224
 20
89.9955023921167
 10
77.1751996968419
 20
89.98630092506676
 10
77.16497843159277
 20
89.97709759536713
 10
77.15475716634364
 20
89.96789426571661
  0
LINE
  5
E00ED7D5
330
E00DEA5D
100
AcDbEntity
  8
JISSEN
100
AcDbLine
 10
77.15475716634364
 20
89.96789426571661
 30
0.0
 11
76.57126308424313
 21
89.4425137809668
 31
0.0
  0
LWPOLYLINE
  5
E00ED7D6
330
E00DEA5D
100
AcDbEntity
  8
JISSEN
100
AcDbPolyline
 90
        9
 70
   128
 43
0.0
 10
76.57126308424313
 20
89.4425137809668
 10
76.56151213689236
 20
89.43373327171697
 10
76.55176118954159
 20
89.42495462511681
 10
76.54201210479232
 20
89.41617597851665
 10
76.53226488274277
 20
89.40740012591607
 10
76.5225213859926
 20
89.39862613591698
 10
76.51278068314105
 20
89.38985587126637
 10
76.50304463694237
 20
89.38109026316681
 10
76.49331417869371
 20
89.37232838041666
  0
SPLINE
  5
E00ED7D7
330
E00DEA5D
100
AcDbEntity
  8
JISSEN
100
AcDbSpline
210
0.0
220
0.0
230
1.0
 70
     8
 71
     3
 72
    12
 73
     8
 74
     0
 42
0.0000000001
 43
0.0000000001
 40
0.0
 40
0.0
 40
0.0
 40
0.0
 40
0.2499999999999992
 40
0.2499999999999992
 40
0.4999999999999984
 40
0.4999999999999984
 40
1.0
 40
1.0
 40
1.0
 40
1.0
 10
88.66149730308142
 20
83.38729555989369
 30
0.0
 10
88.66149730308142
 20
83.38729555989369
 30
0.0
 10
88.67037578373356
 20
83.37291103368091
 30
0.0
 10
88.70592016812635
 20
83.3173501397897
 30
0.0
 10
88.73263057264239
 20
83.27614828686467
 30
0.0
 10
88.83782212809137
 20
83.12335047095904
 30
0.0
 10
88.94294633780418
 20
82.97940404036955
 30
0.0
 10
89.08102400914186
 20
82.83396222656131
 30
0.0
  0
SPLINE
  5
E00ED7D8
330
E00DEA5D
100
AcDbEntity
  8
JISSEN
100
AcDbSpline
210
0.0
220
0.0
230
1.0
 70
     8
 71
     3
 72
    12
 73
     8
 74
     0
 42
0.0000000001
 43
0.0000000001
 40
0.0
 40
0.0
 40
0.0
 40
0.0
 40
0.2499999999999992
 40
0.2499999999999992
 40
0.4999999999999984
 40
0.4999999999999984
 40
1.0
 40
1.0
 40
1.0
 40
1.0
 10
91.44991780380269
 20
83.38729555989369
 30
0.0
 10
91.44991780380269
 20
83.38729555989369
 30
0.0
 10
91.44103932315056
 20
83.37291103368091
 30
0.0
 10
91.40549493875779
 20
83.3173501397897
 30
0.0
 10
91.37878453424173
 20
83.27614828686467
 30
0.0
 10
91.27359297879275
 20
83.12335047095904
 30
0.0
 10
91.16846876907994
 20
82.97940404036955
 30
0.0
 10
91.03039109774227
 20
82.83396222656131
 30
0.0
  0
LINE
  5
E00ED7D9
330
E00DEA5D
100
AcDbEntity
  8
JISSEN
100
AcDbLine
 10
88.55570754039263
 20
80.38696915871708
 30
0.0
 11
88.55570754039263
 21
73.19320777365658
 31
0.0
  0
LINE
  5
E00ED7DA
330
E00DEA5D
100
AcDbEntity
  8
JISSEN
100
AcDbLine
 10
91.55570756649149
 20
80.38696915871708
 30
0.0
 11
91.55570756649149
 21
73.19320777365658
 31
0.0
  0
SPLINE
  5
E00ED7DB
330
E00DEA5D
100
AcDbEntity
  8
JISSEN
100
AcDbSpline
210
0.0
220
0.0
230
1.0
 70
     8
 71
     3
 72
    10
 73
     6
 74
     0
 42
0.0000000001
 43
0.0000000001
 40
0.0
 40
0.0
 40
0.0
 40
0.0
 40
0.5
 40
0.5
 40
1.0
 40
1.0
 40
1.0
 40
1.0
 10
89.08102400914186
 20
82.8339622265604
 30
0.0
 10
89.22638204497024
 20
82.68085176215402
 30
0.0
 10
89.3826761381465
 20
82.51811512947837
 30
0.0
 10
89.71305202617122
 20
82.17890172404635
 30
0.0
 10
89.88458618049525
 20
82.00510733282238
 30
0.0
 10
90.05570755344569
 20
81.83396222656041
 30
0.0
  0
SPLINE
  5
E00ED7DC
330
E00DEA5D
100
AcDbEntity
  8
JISSEN
100
AcDbSpline
210
0.0
220
0.0
230
1.0
 70
     8
 71
     3
 72
    10
 73
     6
 74
     0
 42
0.0000000001
 43
0.0000000001
 40
0.0
 40
0.0
 40
0.0
 40
0.0
 40
0.5
 40
0.5
 40
1.0
 40
1.0
 40
1.0
 40
1.0
 10
91.03039109774227
 20
82.8339622265604
 30
0.0
 10
90.88503306191388
 20
82.68085176215402
 30
0.0
 10
90.72873896873762
 20
82.51811512947837
 30
0.0
 10
90.3983630807129
 20
82.17890172404635
 30
0.0
 10
90.22682892638886
 20
82.00510733282238
 30
0.0
 10
90.05570755343843
 20
81.83396222656041
 30
0.0
  0
ARC
  5
E00ED7DD
330
E00DEA5D
100
AcDbEntity
  8
JISSEN
100
AcDbCircle
 10
90.05570755344207
 20
82.83396222656676
 30
0.0
 40
1.500000000000028
100
AcDbArc
 50
90.0
 51
158.3528915029915
  0
LINE
  5
E00ED7DE
330
E00DEA5D
100
AcDbEntity
  8
JISSEN
100
AcDbLine
 10
88.55570754039263
 20
84.28894625071654
 30
0.0
 11
88.55570754039263
 21
83.50095980826711
 31
0.0
  0
SPLINE
  5
E00ED7DF
330
E00DEA5D
100
AcDbEntity
  8
JISSEN
100
AcDbSpline
210
0.0
220
0.0
230
1.0
 70
    24
 71
     3
 72
     9
 73
     5
 74
     0
 42
0.0000000001
 43
0.0000000001
 40
0.0
 40
0.0
 40
0.0
 40
0.0
 40
0.5
 40
1.0
 40
1.0
 40
1.0
 40
1.0
 10
88.55570755344571
 20
83.50095890841851
 30
0.0
 10
88.55570755344571
 20
83.48332182139632
 30
0.0
 10
88.55570755344571
 20
83.44814422832872
 30
0.0
 10
88.55570755344571
 20
83.41315702969779
 30
0.0
 10
88.55570755344571
 20
83.39571052388157
 30
0.0
  0
SPLINE
  5
E00ED7E0
330
E00DEA5D
100
AcDbEntity
  8
JISSEN
100
AcDbSpline
210
0.0
220
0.0
230
1.0
 70
    24
 71
     3
 72
    10
 73
     6
 74
     0
 42
0.0000000001
 43
0.0000000001
 40
0.0
 40
0.0
 40
0.0
 40
0.0
 40
0.5
 40
0.5
 40
1.0
 40
1.0
 40
1.0
 40
1.0
 10
88.55570755344571
 20
84.39930337047565
 30
0.0
 10
88.55570755344571
 20
84.38098298397846
 30
0.0
 10
88.55570755344571
 20
84.36262185823409
 30
0.0
 10
88.55570755344571
 20
84.32581752492671
 30
0.0
 10
88.55570755344571
 20
84.30734715681422
 30
0.0
 10
88.55570755344571
 20
84.2889463898838
 30
0.0
  0
SPLINE
  5
E00ED7E1
330
E00DEA5D
100
AcDbEntity
  8
JISSEN
100
AcDbSpline
210
0.0
220
0.0
230
1.0
 70
    24
 71
     3
 72
    10
 73
     6
 74
     0
 42
0.0000000001
 43
0.0000000001
 40
0.0
 40
0.0
 40
0.0
 40
0.0
 40
0.5
 40
0.5
 40
1.0
 40
1.0
 40
1.0
 40
1.0
 10
91.55570755343843
 20
84.39930337047565
 30
0.0
 10
91.55570755343843
 20
84.38098298397846
 30
0.0
 10
91.55570755343843
 20
84.36262185823409
 30
0.0
 10
91.55570755343843
 20
84.32581752492671
 30
0.0
 10
91.55570755343843
 20
84.30734715681422
 30
0.0
 10
91.55570755343843
 20
84.2889463898838
 30
0.0
  0
SPLINE
  5
E00ED7E2
330
E00DEA5D
100
AcDbEntity
  8
JISSEN
100
AcDbSpline
210
0.0
220
0.0
230
1.0
 70
    24
 71
     3
 72
     9
 73
     5
 74
     0
 42
0.0000000001
 43
0.0000000001
 40
0.0
 40
0.0
 40
0.0
 40
0.0
 40
0.5
 40
1.0
 40
1.0
 40
1.0
 40
1.0
 10
91.55570755343843
 20
83.50095890841851
 30
0.0
 10
91.55570755343843
 20
83.48332182139632
 30
0.0
 10
91.55570755343843
 20
83.44814422832872
 30
0.0
 10
91.55570755343843
 20
83.41315702969779
 30
0.0
 10
91.55570755343843
 20
83.39571052388157
 30
0.0
  0
LINE
  5
E00ED7E3
330
E00DEA5D
100
AcDbEntity
  8
JISSEN
100
AcDbLine
 10
91.55570756649149
 20
84.28894625071654
 30
0.0
 11
91.55570756649149
 21
83.50095980826711
 31
0.0
  0
ARC
  5
E00ED7E4
330
E00DEA5D
100
AcDbEntity
  8
JISSEN
100
AcDbCircle
 10
90.05570755344207
 20
82.83396222656676
 30
0.0
 40
1.500000000000028
100
AcDbArc
 50
21.64710849700843
 51
90.0
  0
LINE
  5
E00ED7E5
330
E00DEA5D
100
AcDbEntity
  8
JISSEN
100
AcDbLine
 10
102.9566579405404
 20
89.96789426571661
 30
0.0
 11
103.5401520226409
 21
89.4425137809668
 31
0.0
  0
LINE
  5
E00ED7E6
330
E00DEA5D
100
AcDbEntity
  8
JISSEN
100
AcDbLine
 10
102.197155999042
 20
88.09951775736601
 30
0.0
 11
101.6717755142913
 21
88.68301183941651
 31
0.0
  0
LWPOLYLINE
  5
E00ED7E7
330
E00DEA5D
100
AcDbEntity
  8
JISSEN
100
AcDbPolyline
 90
        9
 70
   128
 43
0.0
 10
102.2673413995912
 20
88.02156885181659
 10
102.258579516842
 20
88.03129931006708
 10
102.2498139087406
 20
88.04103535626666
 10
102.2410436440409
 20
88.05077605906637
 10
102.2322696540909
 20
88.06051955586656
 10
102.2234938014412
 20
88.07026677791702
 10
102.2147151548929
 20
88.08001586261719
 10
102.2059365082918
 20
88.08976680996613
 10
102.197155999042
 20
88.09951775736601
  0
LWPOLYLINE
  5
E00ED7E8
330
E00DEA5D
100
AcDbEntity
  8
JISSEN
100
AcDbPolyline
 90
        9
 70
   128
 43
0.0
 10
102.8749558050408
 20
90.04145943586639
 10
102.8851537872419
 20
90.0322775266169
 10
102.8953573573931
 20
90.02309002941649
 10
102.9055665154414
 20
90.01389787561686
 10
102.915779398791
 20
90.00470106516706
 10
102.9259960074418
 20
89.9955023921167
 10
102.9362154100422
 20
89.98630092506676
 10
102.9464366752913
 20
89.97709759536713
 10
102.9566579405404
 20
89.96789426571661
  0
LWPOLYLINE
  5
E00ED7E9
330
E00DEA5D
100
AcDbEntity
  8
JISSEN
100
AcDbPolyline
 90
        9
 70
   128
 43
0.0
 10
101.6717755142913
 20
88.68301183941651
 10
101.6625721845926
 20
88.69323310471656
 10
101.6533688549429
 20
88.70345436996661
 10
101.6441673878912
 20
88.71367377256694
 10
101.6349687148417
 20
88.72389038121685
 10
101.6257719043919
 20
88.73410326456644
 10
101.6165797505914
 20
88.74431242261664
 10
101.607392253391
 20
88.75451599276686
 10
101.5982103441424
 20
88.76471397496619
  0
LWPOLYLINE
  5
E00ED7EA
330
E00DEA5D
100
AcDbEntity
  8
JISSEN
100
AcDbPolyline
 90
        9
 70
   128
 43
0.0
 10
103.5401520226409
 20
89.4425137809668
 10
103.5499029699917
 20
89.43373327171697
 10
103.5596539173425
 20
89.42495462511681
 10
103.5694030020918
 20
89.41617597851665
 10
103.5791502241413
 20
89.40740012591607
 10
103.5888937208915
 20
89.39862613591698
 10
103.598634423743
 20
89.38985587126637
 10
103.6083704699417
 20
89.38109026316681
 10
103.6181009281904
 20
89.37232838041666
  0
CIRCLE
  5
E00ED7EB
330
E00DEA5D
100
AcDbEntity
  8
JISSEN
100
AcDbCircle
 39
240.0520776831561
 10
90.05570755344207
 20
101.5765606846918
 30
0.0
 40
2.149999999999999
  0
ARC
  5
E00ED7EC
330
E00DEA5D
100
AcDbEntity
  8
JISSEN
100
AcDbCircle
 10
90.05570755344207
 20
101.5839622265667
 30
0.0
 40
17.24999999999999
100
AcDbArc
 50
48.00000000000467
 51
85.01145802439854
  0
ARC
  5
E00ED7ED
330
E00DEA5D
100
AcDbEntity
  8
JISSEN
100
AcDbCircle
 10
90.05570755344207
 20
101.5839622265667
 30
0.0
 40
18.25
100
AcDbArc
 50
4.381384633922886
 51
85.61861536607706
  0
ARC
  5
E00ED7EE
330
E00DEA5D
100
AcDbEntity
  8
JISSEN
100
AcDbCircle
 10
90.05570755344207
 20
101.5839622265667
 30
0.0
 40
21.25000000000001
100
AcDbArc
 50
0.0000113141162293
 51
90.00001131406412
  0
ARC
  5
E00ED7EF
330
E00DEA5D
100
AcDbEntity
  8
JISSEN
100
AcDbCircle
 10
90.05570755344207
 20
101.5839622265667
 30
0.0
 40
18.25
100
AcDbArc
 50
94.38138463392293
 51
175.6186153660771
  0
ARC
  5
E00ED7F0
330
E00DEA5D
100
AcDbEntity
  8
JISSEN
100
AcDbCircle
 10
90.05570755344207
 20
101.5839622265667
 30
0.0
 40
17.24999999999999
100
AcDbArc
 50
94.98854197560142
 51
131.9999999999953
  0
ARC
  5
E00ED7F1
330
E00DEA5D
100
AcDbEntity
  8
JISSEN
100
AcDbCircle
 10
90.05570755344207
 20
101.5839622265667
 30
0.0
 40
17.24999999999999
100
AcDbArc
 50
138.0000000000252
 51
175.0114580243984
  0
SPLINE
  5
E00ED7F2
330
E00DEA5D
100
AcDbEntity
  8
JISSEN
100
AcDbSpline
210
0.0
220
0.0
230
1.0
 70
     8
 71
     3
 72
    12
 73
     8
 74
     0
 42
0.0000000001
 43
0.0000000001
 40
0.0
 40
0.0
 40
0.0
 40
0.0
 40
0.2499999999999991
 40
0.2499999999999991
 40
0.4999999999999983
 40
0.4999999999999983
 40
1.0
 40
1.0
 40
1.0
 40
1.0
 10
71.85904088677898
 20
102.9781724769255
 30
0.0
 10
71.85904088677898
 20
102.9781724769255
 30
0.0
 10
71.84465636056711
 20
102.9692939962734
 30
0.0
 10
71.78909546667682
 20
102.9337496118806
 30
0.0
 10
71.74789361375087
 20
102.9070392073646
 30
0.0
 10
71.59509579784617
 20
102.8018476519147
 30
0.0
 10
71.45114936725486
 20
102.6967234422019
 30
0.0
 10
71.3057075534457
 20
102.5586457708651
 30
0.0
  0
SPLINE
  5
E00ED7F3
330
E00DEA5D
100
AcDbEntity
  8
JISSEN
100
AcDbSpline
210
0.0
220
0.0
230
1.0
 70
     8
 71
     3
 72
    12
 73
     8
 74
     0
 42
0.0000000001
 43
0.0000000001
 40
0.0
 40
0.0
 40
0.0
 40
0.0
 40
0.2500000000000007
 40
0.2500000000000007
 40
0.5000000000000015
 40
0.5000000000000015
 40
1.0
 40
1.0
 40
1.0
 40
1.0
 10
71.85904088677898
 20
100.1897519761952
 30
0.0
 10
71.85904088677898
 20
100.1897519761952
 30
0.0
 10
71.84465636056711
 20
100.1986304568473
 30
0.0
 10
71.78909546667682
 20
100.2341748412392
 30
0.0
 10
71.74789361375087
 20
100.2608852457561
 30
0.0
 10
71.59509579784617
 20
100.366076801206
 30
0.0
 10
71.45114936725486
 20
100.4712010109179
 30
0.0
 10
71.3057075534457
 20
100.6092786822556
 30
0.0
  0
SPLINE
  5
E00ED7F4
330
E00DEA5D
100
AcDbEntity
  8
JISSEN
100
AcDbSpline
210
0.0
220
0.0
230
1.0
 70
     8
 71
     3
 72
    10
 73
     6
 74
     0
 42
0.0000000001
 43
0.0000000001
 40
0.0
 40
0.0
 40
0.0
 40
0.0
 40
0.5
 40
0.5
 40
1.0
 40
1.0
 40
1.0
 40
1.0
 10
71.3057075534457
 20
100.6092786822565
 30
0.0
 10
71.15259708904023
 20
100.7546367180849
 30
0.0
 10
70.98986045636457
 20
100.9109308112612
 30
0.0
 10
70.65064705093437
 20
101.2413066992841
 30
0.0
 10
70.47685265970949
 20
101.412840853609
 30
0.0
 10
70.30570755344569
 20
101.5839622265604
 30
0.0
  0
SPLINE
  5
E00ED7F5
330
E00DEA5D
100
AcDbEntity
  8
JISSEN
100
AcDbSpline
210
0.0
220
0.0
230
1.0
 70
     8
 71
     3
 72
    10
 73
     6
 74
     0
 42
0.0000000001
 43
0.0000000001
 40
0.0
 40
0.0
 40
0.0
 40
0.0
 40
0.5
 40
0.5
 40
1.0
 40
1.0
 40
1.0
 40
1.0
 10
71.3057075534457
 20
102.5586457708633
 30
0.0
 10
71.15259708904023
 20
102.4132877350349
 30
0.0
 10
70.98986045636457
 20
102.2569936418596
 30
0.0
 10
70.65064705093437
 20
101.9266177538357
 30
0.0
 10
70.47685265970949
 20
101.7550835995117
 30
0.0
 10
70.30570755344569
 20
101.5839622265604
 30
0.0
  0
LINE
  5
E00ED7F6
330
E00DEA5D
100
AcDbEntity
  8
JISSEN
100
AcDbLine
 10
72.76069157759275
 20
103.0839622396162
 30
0.0
 11
71.9727051351424
 21
103.0839622396162
 31
0.0
  0
SPLINE
  5
E00ED7F7
330
E00DEA5D
100
AcDbEntity
  8
JISSEN
100
AcDbSpline
210
0.0
220
0.0
230
1.0
 70
    24
 71
     3
 72
    10
 73
     6
 74
     0
 42
0.0000000001
 43
0.0000000001
 40
0.0
 40
0.0
 40
0.0
 40
0.0
 40
0.5
 40
0.5
 40
1.0
 40
1.0
 40
1.0
 40
1.0
 10
72.87104869736186
 20
103.0839622265603
 30
0.0
 10
72.85272831086377
 20
103.0839622265603
 30
0.0
 10
72.8343671851203
 20
103.0839622265603
 30
0.0
 10
72.79756285181292
 20
103.0839622265603
 30
0.0
 10
72.77909248369951
 20
103.0839622265603
 30
0.0
 10
72.76069171676908
 20
103.0839622265603
 30
0.0
  0
SPLINE
  5
E00ED7F8
330
E00DEA5D
100
AcDbEntity
  8
JISSEN
100
AcDbSpline
210
0.0
220
0.0
230
1.0
 70
    24
 71
     3
 72
     9
 73
     5
 74
     0
 42
0.0000000001
 43
0.0000000001
 40
0.0
 40
0.0
 40
0.0
 40
0.0
 40
0.5
 40
1.0
 40
1.0
 40
1.0
 40
1.0
 10
71.97270423530472
 20
103.0839622265603
 30
0.0
 10
71.95506714828344
 20
103.0839622265603
 30
0.0
 10
71.91988955521492
 20
103.0839622265603
 30
0.0
 10
71.88490235658583
 20
103.0839622265603
 30
0.0
 10
71.86745585076687
 20
103.0839622265603
 30
0.0
  0
ARC
  5
E00ED7F9
330
E00DEA5D
100
AcDbEntity
  8
JISSEN
100
AcDbCircle
 10
71.30570755344206
 20
101.5839622265667
 30
0.0
 40
1.5
100
AcDbArc
 50
291.6471084970225
 51
0.0
  0
LINE
  5
E00ED7FA
330
E00DEA5D
100
AcDbEntity
  8
JISSEN
100
AcDbLine
 10
71.9727051351424
 20
100.0839622135164
 30
0.0
 11
72.76069157759275
 21
100.0839622135164
 31
0.0
  0
SPLINE
  5
E00ED7FB
330
E00DEA5D
100
AcDbEntity
  8
JISSEN
100
AcDbSpline
210
0.0
220
0.0
230
1.0
 70
    24
 71
     3
 72
    10
 73
     6
 74
     0
 42
0.0000000001
 43
0.0000000001
 40
0.0
 40
0.0
 40
0.0
 40
0.0
 40
0.5
 40
0.5
 40
1.0
 40
1.0
 40
1.0
 40
1.0
 10
72.76069171676908
 20
100.0839622265603
 30
0.0
 10
72.77913596851113
 20
100.0839622265603
 30
0.0
 10
72.7976279439813
 20
100.0839622265603
 30
0.0
 10
72.83443176161791
 20
100.0839622265603
 30
0.0
 10
72.85277107917727
 20
100.0839622265603
 30
0.0
 10
72.87104869736186
 20
100.0839622265603
 30
0.0
  0
SPLINE
  5
E00ED7FC
330
E00DEA5D
100
AcDbEntity
  8
JISSEN
100
AcDbSpline
210
0.0
220
0.0
230
1.0
 70
    24
 71
     3
 72
     9
 73
     5
 74
     0
 42
0.0000000001
 43
0.0000000001
 40
0.0
 40
0.0
 40
0.0
 40
0.0
 40
0.5
 40
1.0
 40
1.0
 40
1.0
 40
1.0
 10
71.86745585076687
 20
100.0839622265603
 30
0.0
 10
71.88494122629754
 20
100.0839622265603
 30
0.0
 10
71.91996783224067
 20
100.0839622265603
 30
0.0
 10
71.95510659653018
 20
100.0839622265603
 30
0.0
 10
71.97270423530472
 20
100.0839622265603
 30
0.0
  0
ARC
  5
E00ED7FD
330
E00DEA5D
100
AcDbEntity
  8
JISSEN
100
AcDbCircle
 10
71.30570755344206
 20
101.5839622265667
 30
0.0
 40
1.500000000000023
100
AcDbArc
 50
0.0
 51
68.35289150297744
  0
LWPOLYLINE
  5
E00ED7FE
330
E00DEA5D
100
AcDbEntity
  8
JISSEN
100
AcDbPolyline
 90
        9
 70
   128
 43
0.0
 10
78.51320476274167
 20
114.4032104781664
 10
78.5040228534931
 20
114.4134084603666
 10
78.4948353562927
 20
114.4236120305168
 10
78.48564320249216
 20
114.4338211885661
 10
78.47644639204236
 20
114.4440340719167
 10
78.46724771899289
 20
114.4542506805665
 10
78.45804625194114
 20
114.4644700831669
 10
78.44884292229153
 20
114.474691348416
 10
78.43963959259281
 20
114.484912613667
  0
LINE
  5
E00ED7FF
330
E00DEA5D
100
AcDbEntity
  8
JISSEN
100
AcDbLine
 10
76.57126308424313
 20
113.7254106721667
 30
0.0
 11
77.15475716634364
 21
113.200030187416
 31
0.0
  0
LWPOLYLINE
  5
E00ED800
330
E00DEA5D
100
AcDbEntity
  8
JISSEN
100
AcDbPolyline
 90
        9
 70
   128
 43
0.0
 10
77.15475716634364
 20
113.200030187416
 10
77.16497843159277
 20
113.1908268577173
 10
77.1751996968419
 20
113.1816235280667
 10
77.18541909944224
 20
113.1724220610168
 10
77.19563570809305
 20
113.1632233879664
 10
77.20584859144264
 20
113.1540265775166
 10
77.21605774949103
 20
113.1448344237161
 10
77.22626131964216
 20
113.1356469265166
 10
77.23645930184329
 20
113.1264650172671
  0
LWPOLYLINE
  5
E00ED801
330
E00DEA5D
100
AcDbEntity
  8
JISSEN
100
AcDbPolyline
 90
        9
 70
   128
 43
0.0
 10
76.49331417869371
 20
113.7955960727168
 10
76.50304463694237
 20
113.7868341899667
 10
76.51278068314105
 20
113.7780685818671
 10
76.5225213859926
 20
113.7692983171665
 10
76.53226488274277
 20
113.7605243272165
 10
76.54201210479232
 20
113.7517484745668
 10
76.55176118954159
 20
113.7429698280167
 10
76.56151213689236
 20
113.7341911814165
 10
76.57126308424313
 20
113.7254106721667
  0
LINE
  5
E00ED802
330
E00DEA5D
100
AcDbEntity
  8
JISSEN
100
AcDbLine
 10
78.43963959259281
 20
114.484912613667
 30
0.0
 11
77.9142591078421
 21
115.0684066957666
 31
0.0
  0
LWPOLYLINE
  5
E00ED803
330
E00DEA5D
100
AcDbEntity
  8
JISSEN
100
AcDbPolyline
 90
        9
 70
   128
 43
0.0
 10
77.9142591078421
 20
115.0684066957666
 10
77.90547859859225
 20
115.0781576431164
 10
77.89669995199119
 20
115.0879085904672
 10
77.88792130544289
 20
115.0976576752165
 10
77.87914545279318
 20
115.107404897266
 10
77.87037146284319
 20
115.1171483940162
 10
77.86160119814349
 20
115.1268890968668
 10
77.8528355900421
 20
115.1366251430664
 10
77.84407370729287
 20
115.1463556013169
  0
CIRCLE
  5
E00ED804
330
E00DEA5D
100
AcDbEntity
  8
JISSEN
370
    -2
100
AcDbCircle
 10
90.05570755344207
 20
101.5765606846918
 30
0.0
 40
3.550000000000018
  0
CIRCLE
  5
E00ED805
330
E00DEA5D
100
AcDbEntity
  8
JISSEN
370
    -2
100
AcDbCircle
 10
90.05570755344207
 20
101.5765606846918
 30
0.0
 40
4.600000000000036
  0
CIRCLE
  5
E00ED806
330
E00DEA5D
100
AcDbEntity
  8
JISSEN
370
    -2
100
AcDbCircle
 10
90.05570755344207
 20
101.5765606846918
 30
0.0
 40
5.300000000000039
  0
CIRCLE
  5
E00ED807
330
E00DEA5D
100
AcDbEntity
  8
JISSEN
370
    -2
100
AcDbCircle
 10
90.05570755344207
 20
101.5765606846918
 30
0.0
 40
4.55000000000005
  0
CIRCLE
  5
E00ED808
330
E00DEA5D
100
AcDbEntity
  8
JISSEN
370
    -2
100
AcDbCircle
 10
90.05570755344207
 20
101.5765606846918
 30
0.0
 40
1.200000000000015
  0
CIRCLE
  5
E00ED809
330
E00DEA5D
100
AcDbEntity
  8
SAISEN
370
    -2
100
AcDbCircle
 10
90.05570755344207
 20
101.5765606846918
 30
0.0
 40
1.500000000000001
  0
LINE
  5
E00ED80A
330
E00DEA5D
100
AcDbEntity
  8
JISSEN
100
AcDbLine
 10
91.55570756649149
 20
129.9747166794774
 30
0.0
 11
91.55570756649149
 21
122.7809552944164
 31
0.0
  0
LINE
  5
E00ED80B
330
E00DEA5D
100
AcDbEntity
  8
JISSEN
100
AcDbLine
 10
88.55570754039263
 20
129.9747166794769
 30
0.0
 11
88.55570754039263
 21
122.7809552944164
 31
0.0
  0
ARC
  5
E00ED80C
330
E00DEA5D
100
AcDbEntity
  8
JISSEN
100
AcDbCircle
 10
90.05570755344207
 20
120.3339622265667
 30
0.0
 40
1.500000000000018
100
AcDbArc
 50
201.6471084970084
 51
270.0
  0
SPLINE
  5
E00ED80D
330
E00DEA5D
100
AcDbEntity
  8
JISSEN
100
AcDbSpline
210
0.0
220
0.0
230
1.0
 70
     8
 71
     3
 72
    12
 73
     8
 74
     0
 42
0.0000000001
 43
0.0000000001
 40
0.0
 40
0.0
 40
0.0
 40
0.0
 40
0.2499999999999976
 40
0.2499999999999976
 40
0.4999999999999952
 40
0.4999999999999952
 40
1.0
 40
1.0
 40
1.0
 40
1.0
 10
88.66149730308142
 20
119.7806288932271
 30
0.0
 10
88.66149730308142
 20
119.7806288932271
 30
0.0
 10
88.67037578373356
 20
119.7950134194399
 30
0.0
 10
88.70592016812635
 20
119.8505743133301
 30
0.0
 10
88.73263057264239
 20
119.8917761662561
 30
0.0
 10
88.83782212809137
 20
120.0445739821608
 30
0.0
 10
88.94294633780418
 20
120.1885204127503
 30
0.0
 10
89.08102400914186
 20
120.3339622265594
 30
0.0
  0
LINE
  5
E00ED80E
330
E00DEA5D
100
AcDbEntity
  8
JISSEN
100
AcDbLine
 10
88.55570754039263
 20
119.6669646448173
 30
0.0
 11
88.55570754039263
 21
118.878978202416
 31
0.0
  0
SPLINE
  5
E00ED80F
330
E00DEA5D
100
AcDbEntity
  8
JISSEN
100
AcDbSpline
210
0.0
220
0.0
230
1.0
 70
    24
 71
     3
 72
    10
 73
     6
 74
     0
 42
0.0000000001
 43
0.0000000001
 40
0.0
 40
0.0
 40
0.0
 40
0.0
 40
0.5
 40
0.5
 40
1.0
 40
1.0
 40
1.0
 40
1.0
 10
88.55570755344571
 20
118.878978063237
 30
0.0
 10
88.55570755344571
 20
118.860533811494
 30
0.0
 10
88.55570755344571
 20
118.8420418360248
 30
0.0
 10
88.55570755344571
 20
118.8052380183891
 30
0.0
 10
88.55570755344571
 20
118.7868987008297
 30
0.0
 10
88.55570755344571
 20
118.7686210826451
 30
0.0
  0
SPLINE
  5
E00ED810
330
E00DEA5D
100
AcDbEntity
  8
JISSEN
100
AcDbSpline
210
0.0
220
0.0
230
1.0
 70
    24
 71
     3
 72
     9
 73
     5
 74
     0
 42
0.0000000001
 43
0.0000000001
 40
0.0
 40
0.0
 40
0.0
 40
0.0
 40
0.5
 40
1.0
 40
1.0
 40
1.0
 40
1.0
 10
88.55570755344571
 20
119.7722139292392
 30
0.0
 10
88.55570755344571
 20
119.7547005305187
 30
0.0
 10
88.55570755344571
 20
119.7196457283317
 30
0.0
 10
88.55570755344571
 20
119.6845349605247
 30
0.0
 10
88.55570755344571
 20
119.6669655447013
 30
0.0
  0
LINE
  5
E00ED811
330
E00DEA5D
100
AcDbEntity
  8
JISSEN
100
AcDbLine
 10
90.05570755344207
 20
121.3339631355166
 30
0.0
 11
90.05570755344207
 21
120.3339629716166
 31
0.0
  0
SPLINE
  5
E00ED812
330
E00DEA5D
100
AcDbEntity
  8
JISSEN
100
AcDbSpline
210
0.0
220
0.0
230
1.0
 70
     8
 71
     3
 72
    10
 73
     6
 74
     0
 42
0.0000000001
 43
0.0000000001
 40
0.0
 40
0.0
 40
0.0
 40
0.0
 40
0.5
 40
0.5
 40
1.0
 40
1.0
 40
1.0
 40
1.0
 10
89.08102400914186
 20
120.3339622265604
 30
0.0
 10
89.22638204497024
 20
120.4870726909667
 30
0.0
 10
89.3826761381465
 20
120.6498093236415
 30
0.0
 10
89.71305202617122
 20
120.9890227290735
 30
0.0
 10
89.88458618049525
 20
121.1628171202975
 30
0.0
 10
90.05570755344569
 20
121.3339622265604
 30
0.0
  0
SPLINE
  5
E00ED813
330
E00DEA5D
100
AcDbEntity
  8
JISSEN
100
AcDbSpline
210
0.0
220
0.0
230
1.0
 70
     8
 71
     3
 72
    10
 73
     6
 74
     0
 42
0.0000000001
 43
0.0000000001
 40
0.0
 40
0.0
 40
0.0
 40
0.0
 40
0.5
 40
0.5
 40
1.0
 40
1.0
 40
1.0
 40
1.0
 10
91.03039109774227
 20
120.3339622265604
 30
0.0
 10
90.88503306191388
 20
120.4870726909667
 30
0.0
 10
90.72873896873762
 20
120.6498093236415
 30
0.0
 10
90.3983630807129
 20
120.9890227290735
 30
0.0
 10
90.22682892638886
 20
121.1628171202975
 30
0.0
 10
90.05570755343843
 20
121.3339622265604
 30
0.0
  0
LINE
  5
E00ED814
330
E00DEA5D
100
AcDbEntity
  8
JISSEN
100
AcDbLine
 10
90.05570755344207
 20
121.3339631355166
 30
0.0
 11
90.05570755344207
 21
120.3339629716166
 31
0.0
  0
SPLINE
  5
E00ED815
330
E00DEA5D
100
AcDbEntity
  8
JISSEN
100
AcDbSpline
210
0.0
220
0.0
230
1.0
 70
    24
 71
     3
 72
     9
 73
     5
 74
     0
 42
0.0000000001
 43
0.0000000001
 40
0.0
 40
0.0
 40
0.0
 40
0.0
 40
0.5
 40
1.0
 40
1.0
 40
1.0
 40
1.0
 10
91.55570755343843
 20
119.7722139292392
 30
0.0
 10
91.55570755343843
 20
119.7547005305187
 30
0.0
 10
91.55570755343843
 20
119.7196457283317
 30
0.0
 10
91.55570755343843
 20
119.6845349605247
 30
0.0
 10
91.55570755343843
 20
119.6669655447013
 30
0.0
  0
SPLINE
  5
E00ED816
330
E00DEA5D
100
AcDbEntity
  8
JISSEN
100
AcDbSpline
210
0.0
220
0.0
230
1.0
 70
     8
 71
     3
 72
    12
 73
     8
 74
     0
 42
0.0000000001
 43
0.0000000001
 40
0.0
 40
0.0
 40
0.0
 40
0.0
 40
0.2499999999999976
 40
0.2499999999999976
 40
0.4999999999999952
 40
0.4999999999999952
 40
1.0
 40
1.0
 40
1.0
 40
1.0
 10
91.44991780380269
 20
119.7806288932271
 30
0.0
 10
91.44991780380269
 20
119.7806288932271
 30
0.0
 10
91.44103932315056
 20
119.7950134194399
 30
0.0
 10
91.40549493875779
 20
119.8505743133301
 30
0.0
 10
91.37878453424173
 20
119.8917761662561
 30
0.0
 10
91.27359297879275
 20
120.0445739821608
 30
0.0
 10
91.16846876907994
 20
120.1885204127503
 30
0.0
 10
91.03039109774227
 20
120.3339622265594
 30
0.0
  0
SPLINE
  5
E00ED817
330
E00DEA5D
100
AcDbEntity
  8
JISSEN
100
AcDbSpline
210
0.0
220
0.0
230
1.0
 70
    24
 71
     3
 72
    10
 73
     6
 74
     0
 42
0.0000000001
 43
0.0000000001
 40
0.0
 40
0.0
 40
0.0
 40
0.0
 40
0.5
 40
0.5
 40
1.0
 40
1.0
 40
1.0
 40
1.0
 10
91.55570755343843
 20
118.878978063237
 30
0.0
 10
91.55570755343843
 20
118.860533811494
 30
0.0
 10
91.55570755343843
 20
118.8420418360248
 30
0.0
 10
91.55570755343843
 20
118.8052380183891
 30
0.0
 10
91.55570755343843
 20
118.7868987008297
 30
0.0
 10
91.55570755343843
 20
118.7686210826451
 30
0.0
  0
LINE
  5
E00ED818
330
E00DEA5D
100
AcDbEntity
  8
JISSEN
100
AcDbLine
 10
91.55570756649149
 20
119.6669646448173
 30
0.0
 11
91.55570756649149
 21
118.878978202416
 31
0.0
  0
ARC
  5
E00ED819
330
E00DEA5D
100
AcDbEntity
  8
JISSEN
100
AcDbCircle
 10
90.05570755344207
 20
120.3339622265667
 30
0.0
 40
1.500000000000018
100
AcDbArc
 50
270.0
 51
338.3528915029915
  0
SPLINE
  5
E00ED81A
330
E00DEA5D
100
AcDbEntity
  8
JISSEN
100
AcDbSpline
210
0.0
220
0.0
230
1.0
 70
     8
 71
     3
 72
     8
 73
     4
 74
     0
 42
0.0000000001
 43
0.0000000001
 40
0.0
 40
0.0
 40
0.0
 40
0.0
 40
2.236014716865069
 40
2.236014716865111
 40
2.236014716865111
 40
2.236014716865111
 10
88.55570754039275
 20
129.9747166794774
 30
0.0
 10
89.05689158052586
 20
130.8035772923659
 30
0.0
 10
89.55807562065912
 20
131.6324379052549
 30
0.0
 10
90.05570755344217
 20
131.6329572455257
 30
0.0
  0
SPLINE
  5
E00ED81B
330
E00DEA5D
100
AcDbEntity
  8
JISSEN
100
AcDbSpline
210
0.0
220
0.0
230
1.0
 70
     8
 71
     3
 72
     8
 73
     4
 74
     0
 42
0.0000000001
 43
0.0000000001
 40
0.0
 40
0.0
 40
0.0
 40
0.0
 40
2.236014716865069
 40
2.236014716865111
 40
2.236014716865111
 40
2.236014716865111
 10
91.5557075664916
 20
129.9747166794774
 30
0.0
 10
91.05452352635849
 20
130.8035772923659
 30
0.0
 10
90.55333948622523
 20
131.6324379052549
 30
0.0
 10
90.05570755344217
 20
131.6329572455257
 30
0.0
  0
ARC
  5
E00ED81C
330
E00DEA5D
100
AcDbEntity
  8
JISSEN
100
AcDbCircle
 10
90.05570755344207
 20
101.5839622265667
 30
0.0
 40
17.24999999999999
100
AcDbArc
 50
4.988541975601546
 51
41.99999999997474
  0
SPLINE
  5
E00ED81D
330
E00DEA5D
100
AcDbEntity
  8
JISSEN
100
AcDbSpline
210
0.0
220
0.0
230
1.0
 70
     8
 71
     3
 72
    10
 73
     6
 74
     0
 42
0.0000000001
 43
0.0000000001
 40
0.0
 40
0.0
 40
0.0
 40
0.0
 40
0.5
 40
0.5
 40
1.0
 40
1.0
 40
1.0
 40
1.0
 10
108.8057075534384
 20
102.5586457708633
 30
0.0
 10
108.9588180178439
 20
102.4132877350349
 30
0.0
 10
109.1215546505195
 20
102.2569936418596
 30
0.0
 10
109.4607680559497
 20
101.9266177538357
 30
0.0
 10
109.6345624471746
 20
101.7550835995117
 30
0.0
 10
109.8057075534384
 20
101.5839622265604
 30
0.0
  0
ARC
  5
E00ED81E
330
E00DEA5D
100
AcDbEntity
  8
JISSEN
100
AcDbCircle
 10
108.805707553442
 20
101.5839622265667
 30
0.0
 40
1.500000000000023
100
AcDbArc
 50
111.6471084970225
 51
180.0
  0
SPLINE
  5
E00ED81F
330
E00DEA5D
100
AcDbEntity
  8
JISSEN
100
AcDbSpline
210
0.0
220
0.0
230
1.0
 70
    24
 71
     3
 72
     9
 73
     5
 74
     0
 42
0.0000000001
 43
0.0000000001
 40
0.0
 40
0.0
 40
0.0
 40
0.0
 40
0.5
 40
1.0
 40
1.0
 40
1.0
 40
1.0
 10
108.2439592561172
 20
100.0839622265603
 30
0.0
 10
108.2264738805865
 20
100.0839622265603
 30
0.0
 10
108.1914472746434
 20
100.0839622265603
 30
0.0
 10
108.1563085103539
 20
100.0839622265603
 30
0.0
 10
108.1387108715794
 20
100.0839622265603
 30
0.0
  0
SPLINE
  5
E00ED820
330
E00DEA5D
100
AcDbEntity
  8
JISSEN
100
AcDbSpline
210
0.0
220
0.0
230
1.0
 70
    24
 71
     3
 72
    10
 73
     6
 74
     0
 42
0.0000000001
 43
0.0000000001
 40
0.0
 40
0.0
 40
0.0
 40
0.0
 40
0.5
 40
0.5
 40
1.0
 40
1.0
 40
1.0
 40
1.0
 10
107.350723390115
 20
100.0839622265603
 30
0.0
 10
107.3322791383729
 20
100.0839622265603
 30
0.0
 10
107.3137871629028
 20
100.0839622265603
 30
0.0
 10
107.2769833452662
 20
100.0839622265603
 30
0.0
 10
107.2586440277068
 20
100.0839622265603
 30
0.0
 10
107.2403664095222
 20
100.0839622265603
 30
0.0
  0
LINE
  5
E00ED821
330
E00DEA5D
100
AcDbEntity
  8
JISSEN
100
AcDbLine
 10
108.1387099717417
 20
100.0839622135164
 30
0.0
 11
107.3507235292913
 21
100.0839622135164
 31
0.0
  0
SPLINE
  5
E00ED822
330
E00DEA5D
100
AcDbEntity
  8
JISSEN
100
AcDbSpline
210
0.0
220
0.0
230
1.0
 70
     8
 71
     3
 72
    10
 73
     6
 74
     0
 42
0.0000000001
 43
0.0000000001
 40
0.0
 40
0.0
 40
0.0
 40
0.0
 40
0.5
 40
0.5
 40
1.0
 40
1.0
 40
1.0
 40
1.0
 10
108.8057075534384
 20
100.6092786822565
 30
0.0
 10
108.9588180178439
 20
100.7546367180849
 30
0.0
 10
109.1215546505195
 20
100.9109308112612
 30
0.0
 10
109.4607680559497
 20
101.2413066992841
 30
0.0
 10
109.6345624471746
 20
101.412840853609
 30
0.0
 10
109.8057075534384
 20
101.5839622265604
 30
0.0
  0
SPLINE
  5
E00ED823
330
E00DEA5D
100
AcDbEntity
  8
JISSEN
100
AcDbSpline
210
0.0
220
0.0
230
1.0
 70
     8
 71
     3
 72
    12
 73
     8
 74
     0
 42
0.0000000001
 43
0.0000000001
 40
0.0
 40
0.0
 40
0.0
 40
0.0
 40
0.2500000000000007
 40
0.2500000000000007
 40
0.5000000000000015
 40
0.5000000000000015
 40
1.0
 40
1.0
 40
1.0
 40
1.0
 10
108.2523742201051
 20
100.1897519761952
 30
0.0
 10
108.2523742201051
 20
100.1897519761952
 30
0.0
 10
108.266758746317
 20
100.1986304568473
 30
0.0
 10
108.3223196402073
 20
100.2341748412392
 30
0.0
 10
108.3635214931332
 20
100.2608852457561
 30
0.0
 10
108.5163193090379
 20
100.366076801206
 30
0.0
 10
108.6602657396292
 20
100.4712010109179
 30
0.0
 10
108.8057075534384
 20
100.6092786822556
 30
0.0
  0
ARC
  5
E00ED824
330
E00DEA5D
100
AcDbEntity
  8
JISSEN
100
AcDbCircle
 10
108.805707553442
 20
101.5839622265667
 30
0.0
 40
1.5
100
AcDbArc
 50
180.0
 51
248.3528915029774
  0
SPLINE
  5
E00ED825
330
E00DEA5D
100
AcDbEntity
  8
JISSEN
100
AcDbSpline
210
0.0
220
0.0
230
1.0
 70
    24
 71
     3
 72
     9
 73
     5
 74
     0
 42
0.0000000001
 43
0.0000000001
 40
0.0
 40
0.0
 40
0.0
 40
0.0
 40
0.5
 40
1.0
 40
1.0
 40
1.0
 40
1.0
 10
108.1387108715794
 20
103.0839622265603
 30
0.0
 10
108.1563479586006
 20
103.0839622265603
 30
0.0
 10
108.1915255516691
 20
103.0839622265603
 30
0.0
 10
108.2265127502983
 20
103.0839622265603
 30
0.0
 10
108.2439592561172
 20
103.0839622265603
 30
0.0
  0
SPLINE
  5
E00ED826
330
E00DEA5D
100
AcDbEntity
  8
JISSEN
100
AcDbSpline
210
0.0
220
0.0
230
1.0
 70
    24
 71
     3
 72
    10
 73
     6
 74
     0
 42
0.0000000001
 43
0.0000000001
 40
0.0
 40
0.0
 40
0.0
 40
0.0
 40
0.5
 40
0.5
 40
1.0
 40
1.0
 40
1.0
 40
1.0
 10
107.2403664095222
 20
103.0839622265603
 30
0.0
 10
107.2586867960203
 20
103.0839622265603
 30
0.0
 10
107.2770479217638
 20
103.0839622265603
 30
0.0
 10
107.3138522550711
 20
103.0839622265603
 30
0.0
 10
107.3323226231846
 20
103.0839622265603
 30
0.0
 10
107.350723390115
 20
103.0839622265603
 30
0.0
  0
LINE
  5
E00ED827
330
E00DEA5D
100
AcDbEntity
  8
JISSEN
100
AcDbLine
 10
107.3507235292913
 20
103.0839622396162
 30
0.0
 11
108.1387099717417
 21
103.0839622396162
 31
0.0
  0
SPLINE
  5
E00ED828
330
E00DEA5D
100
AcDbEntity
  8
JISSEN
100
AcDbSpline
210
0.0
220
0.0
230
1.0
 70
     8
 71
     3
 72
    12
 73
     8
 74
     0
 42
0.0000000001
 43
0.0000000001
 40
0.0
 40
0.0
 40
0.0
 40
0.0
 40
0.2499999999999991
 40
0.2499999999999991
 40
0.4999999999999983
 40
0.4999999999999983
 40
1.0
 40
1.0
 40
1.0
 40
1.0
 10
108.2523742201051
 20
102.9781724769255
 30
0.0
 10
108.2523742201051
 20
102.9781724769255
 30
0.0
 10
108.266758746317
 20
102.9692939962734
 30
0.0
 10
108.3223196402073
 20
102.9337496118806
 30
0.0
 10
108.3635214931332
 20
102.9070392073646
 30
0.0
 10
108.5163193090379
 20
102.8018476519147
 30
0.0
 10
108.6602657396292
 20
102.6967234422019
 30
0.0
 10
108.8057075534384
 20
102.5586457708651
 30
0.0
  0
LINE
  5
E00ED829
330
E00DEA5D
100
AcDbEntity
  8
JISSEN
100
AcDbLine
 10
103.5401520226409
 20
113.7254106721667
 30
0.0
 11
102.9566579405404
 21
113.200030187416
 31
0.0
  0
LWPOLYLINE
  5
E00ED82A
330
E00DEA5D
100
AcDbEntity
  8
JISSEN
100
AcDbPolyline
 90
        9
 70
   128
 43
0.0
 10
102.9566579405404
 20
113.200030187416
 10
102.9464366752913
 20
113.1908268577173
 10
102.9362154100422
 20
113.1816235280667
 10
102.9259960074418
 20
113.1724220610168
 10
102.915779398791
 20
113.1632233879664
 10
102.9055665154414
 20
113.1540265775166
 10
102.8953573573931
 20
113.1448344237161
 10
102.8851537872419
 20
113.1356469265166
 10
102.8749558050408
 20
113.1264650172671
  0
LWPOLYLINE
  5
E00ED82B
330
E00DEA5D
100
AcDbEntity
  8
JISSEN
100
AcDbPolyline
 90
        9
 70
   128
 43
0.0
 10
102.197155999042
 20
115.0684066957666
 10
102.2059365082918
 20
115.0781576431164
 10
102.2147151548929
 20
115.0879085904672
 10
102.2234938014412
 20
115.0976576752165
 10
102.2322696540909
 20
115.107404897266
 10
102.2410436440409
 20
115.1171483940162
 10
102.2498139087406
 20
115.1268890968668
 10
102.258579516842
 20
115.1366251430664
 10
102.2673413995912
 20
115.1463556013169
  0
LWPOLYLINE
  5
E00ED82C
330
E00DEA5D
100
AcDbEntity
  8
JISSEN
100
AcDbPolyline
 90
        9
 70
   128
 43
0.0
 10
101.5982103441424
 20
114.4032104781664
 10
101.607392253391
 20
114.4134084603666
 10
101.6165797505914
 20
114.4236120305168
 10
101.6257719043919
 20
114.4338211885661
 10
101.6349687148417
 20
114.4440340719167
 10
101.6441673878912
 20
114.4542506805665
 10
101.6533688549429
 20
114.4644700831669
 10
101.6625721845926
 20
114.474691348416
 10
101.6717755142913
 20
114.484912613667
  0
LINE
  5
E00ED82D
330
E00DEA5D
100
AcDbEntity
  8
JISSEN
100
AcDbLine
 10
101.6717755142913
 20
114.484912613667
 30
0.0
 11
102.197155999042
 21
115.0684066957666
 31
0.0
  0
LWPOLYLINE
  5
E00ED82E
330
E00DEA5D
100
AcDbEntity
  8
JISSEN
100
AcDbPolyline
 90
        9
 70
   128
 43
0.0
 10
103.6181009281904
 20
113.7955960727168
 10
103.6083704699417
 20
113.7868341899667
 10
103.598634423743
 20
113.7780685818671
 10
103.5888937208915
 20
113.7692983171665
 10
103.5791502241413
 20
113.7605243272165
 10
103.5694030020918
 20
113.7517484745668
 10
103.5596539173425
 20
113.7429698280167
 10
103.5499029699917
 20
113.7341911814165
 10
103.5401520226409
 20
113.7254106721667
  0
LINE
  5
E00ED82F
330
E00DEA5D
100
AcDbEntity
  8
JISSEN
100
AcDbLine
 10
118.4464620063513
 20
100.0839622135164
 30
0.0
 11
111.2527006212917
 21
100.0839622135164
 31
0.0
  0
LINE
  5
E00ED830
330
E00DEA5D
100
AcDbEntity
  8
JISSEN
100
AcDbLine
 10
111.2527006212917
 20
103.0839622396162
 30
0.0
 11
118.446462006352
 21
103.0839622396162
 31
0.0
  0
SPLINE
  5
E00ED831
330
E00DEA5D
100
AcDbEntity
  8
JISSEN
100
AcDbSpline
210
0.0
220
0.0
230
1.0
 70
     8
 71
     3
 72
     8
 73
     4
 74
     0
 42
0.0000000001
 43
0.0000000001
 40
0.0
 40
0.0
 40
0.0
 40
0.0
 40
2.236014716865069
 40
2.236014716865111
 40
2.236014716865111
 40
2.236014716865111
 10
118.4464620063524
 20
103.0839622396157
 30
0.0
 10
119.2753226192412
 20
102.5827781994827
 30
0.0
 10
120.1041832321302
 20
102.0815941593497
 30
0.0
 10
120.1047025724008
 20
101.5839622265663
 30
0.0
  0
SPLINE
  5
E00ED832
330
E00DEA5D
100
AcDbEntity
  8
JISSEN
100
AcDbSpline
210
0.0
220
0.0
230
1.0
 70
     8
 71
     3
 72
     8
 73
     4
 74
     0
 42
0.0000000001
 43
0.0000000001
 40
0.0
 40
0.0
 40
0.0
 40
0.0
 40
2.236014716865069
 40
2.236014716865111
 40
2.236014716865111
 40
2.236014716865111
 10
118.4464620063524
 20
100.0839622135168
 30
0.0
 10
119.2753226192412
 20
100.5851462536503
 30
0.0
 10
120.1041832321302
 20
101.0863302937838
 30
0.0
 10
120.1047025724008
 20
101.5839622265663
 30
0.0
  0
LINE
  5
E00ED833
330
E00DEA5D
100
AcDbEntity
  8
JISSEN
100
AcDbLine
 39
1680.364539346804
 10
75.40202012682915
 20
168.2688567837004
 30
0.0
 11
104.7057075534398
 21
171.2388251039641
 31
0.0
  0
LINE
  5
E00ED834
330
E00DEA5D
100
AcDbEntity
  8
JISSEN
100
AcDbLine
 39
1680.364539346804
 10
105.0057075534436
 20
174.2388251039477
 30
0.0
 11
105.0057075534427
 21
173.6821290323417
 31
0.0
  0
LINE
  5
E00ED835
330
E00DEA5D
100
AcDbEntity
  8
JISSEN
100
AcDbLine
 39
1680.364539346804
 10
105.0057075534427
 20
171.2388251039477
 30
0.0
 11
105.0057075534427
 21
170.6821290323417
 31
0.0
  0
LINE
  5
E00ED836
330
E00DEA5D
100
AcDbEntity
  8
JISSEN
100
AcDbLine
 39
1680.364539346804
 10
105.0057075534436
 20
177.2388251039477
 30
0.0
 11
105.0057075534427
 21
176.6821290323417
 31
0.0
  0
LINE
  5
E00ED837
330
E00DEA5D
100
AcDbEntity
  8
SAISEN
100
AcDbLine
 39
1680.364539346804
 10
104.2057075534426
 20
182.7416687053731
 30
0.0
 11
104.7057075534426
 21
181.8756433015981
 31
0.0
  0
LINE
  5
E00ED838
330
E00DEA5D
100
AcDbEntity
  8
JISSEN
100
AcDbLine
 39
1680.364539346804
 10
104.7057075534417
 20
165.8584403463422
 30
0.0
 11
104.7057075534417
 21
166.3727997002055
 31
0.0
  0
LINE
  5
E00ED839
330
E00DEA5D
100
AcDbEntity
  8
JISSEN
100
AcDbLine
 39
1680.364539346804
 10
104.4057075534424
 20
164.7388251040714
 30
0.0
 11
104.7057075534417
 21
165.8584403463422
 31
0.0
  0
LINE
  5
E00ED83A
330
E00DEA5D
100
AcDbEntity
  8
JISSEN
100
AcDbLine
 39
1680.364539346804
 10
104.4057075534424
 20
164.7388251040714
 30
0.0
 11
104.7057075534417
 21
165.8584403463422
 31
0.0
  0
LINE
  5
E00ED83B
330
E00DEA5D
100
AcDbEntity
  8
JISSEN
100
AcDbLine
 39
1680.364539346804
 10
105.0057075534864
 20
177.2388251040241
 30
0.0
 11
105.0057075534882
 21
176.6821290324181
 31
0.0
  0
LINE
  5
E00ED83C
330
E00DEA5D
100
AcDbEntity
  8
SAISEN
100
AcDbLine
 39
1680.364539346804
 10
75.90570755344152
 20
182.7416687053731
 30
0.0
 11
75.40570755344152
 21
181.8756433015981
 31
0.0
  0
LINE
  5
E00ED83D
330
E00DEA5D
100
AcDbEntity
  8
JISSEN
100
AcDbLine
 39
1680.364539346804
 10
75.10570755344042
 20
177.2388251039477
 30
0.0
 11
75.10570755344133
 21
176.6821290323417
 31
0.0
  0
LINE
  5
E00ED83E
330
E00DEA5D
100
AcDbEntity
  8
JISSEN
100
AcDbLine
 39
1680.364539346804
 10
75.10570755344133
 20
171.2388251039477
 30
0.0
 11
75.10570755344133
 21
170.6821290323417
 31
0.0
  0
LINE
  5
E00ED83F
330
E00DEA5D
100
AcDbEntity
  8
JISSEN
100
AcDbLine
 39
1680.364539346804
 10
75.10570755344042
 20
174.2388251039477
 30
0.0
 11
75.10570755344133
 21
173.6821290323417
 31
0.0
  0
LINE
  5
E00ED840
330
E00DEA5D
100
AcDbEntity
  8
JISSEN
100
AcDbLine
 39
1680.364539346804
 10
75.10570755339768
 20
177.2388251040241
 30
0.0
 11
75.10570755339585
 21
176.6821290324181
 31
0.0
  0
LINE
  5
E00ED841
330
E00DEA5D
100
AcDbEntity
  8
JISSEN
100
AcDbLine
 39
1680.364539346804
 10
75.7057075534417
 20
164.7388251040714
 30
0.0
 11
75.40570755344242
 21
165.8584403463422
 31
0.0
  0
LINE
  5
E00ED842
330
E00DEA5D
100
AcDbEntity
  8
JISSEN
100
AcDbLine
 39
1680.364539346804
 10
75.7057075534417
 20
164.7388251040714
 30
0.0
 11
75.40570755344242
 21
165.8584403463422
 31
0.0
  0
LINE
  5
E00ED843
330
E00DEA5D
100
AcDbEntity
  8
JISSEN
100
AcDbLine
 39
1680.364539346804
 10
75.40570755344242
 20
165.8584403463422
 30
0.0
 11
75.40570755344242
 21
166.3727997002055
 31
0.0
  0
LINE
  5
E00ED844
330
E00DEA5D
100
AcDbEntity
  8
JISSEN
100
AcDbLine
 39
1680.364539346804
 10
75.10570755343877
 20
173.6821290323631
 30
0.0
 11
105.0057075534409
 21
176.6821290323563
 31
0.0
  0
LINE
  5
E00ED845
330
E00DEA5D
100
AcDbEntity
  8
JISSEN
100
AcDbLine
 39
1680.364539346804
 10
75.40205667417433
 20
174.2685591294592
 30
0.0
 11
105.0057075534409
 21
177.2388251039641
 31
0.0
  0
LINE
  5
E00ED846
330
E00DEA5D
100
AcDbEntity
  8
JISSEN
100
AcDbLine
 39
1680.364539346804
 10
75.10570755344139
 20
170.6821290323561
 30
0.0
 11
105.0057075534409
 21
173.6821290323563
 31
0.0
  0
LINE
  5
E00ED847
330
E00DEA5D
100
AcDbEntity
  8
JISSEN
100
AcDbLine
 39
1680.364539346804
 10
75.40205667417445
 20
171.2685591294592
 30
0.0
 11
105.0057075534409
 21
174.2388251039641
 31
0.0
  0
LINE
  5
E00ED848
330
E00DEA5D
100
AcDbEntity
  8
JISSEN
100
AcDbLine
 39
1680.364539346804
 10
80.65411173362582
 20
168.2388251039477
 30
0.0
 11
105.0057075534409
 21
170.6821290323545
 31
0.0
  0
LINE
  5
E00ED849
330
E00DEA5D
100
AcDbEntity
  8
JISSEN
100
AcDbLine
 39
1680.364539346804
 10
79.56901643077799
 20
158.8388250596902
 30
0.0
 11
78.05570755349254
 21
158.8388250596993
 31
0.0
  0
LINE
  5
E00ED84A
330
E00DEA5D
100
AcDbEntity
  8
JISSEN
100
AcDbLine
 39
1680.364539346804
 10
79.57288951225518
 20
158.7388250596899
 30
0.0
 11
78.05570755349208
 21
158.7388250597008
 31
0.0
  0
ARC
  5
E00ED84B
330
E00DEA5D
100
AcDbEntity
  8
JISSEN
100
AcDbCircle
 39
1680.364539346804
 10
83.23144348477581
 20
158.5388250596546
 30
0.0
 40
0.2
100
AcDbArc
 50
44.999999999588
 51
89.99999999960918
  0
LINE
  5
E00ED84C
330
E00DEA5D
100
AcDbEntity
  8
JISSEN
 48
0.05
100
AcDbLine
 39
1680.364539346804
 10
83.37286484101424
 20
158.6802464158876
 30
0.0
 11
83.92641823160102
 21
158.126693025298
 31
0.0
  0
LINE
  5
E00ED84D
330
E00DEA5D
100
AcDbEntity
  8
JISSEN
100
AcDbLine
 39
1680.364539346804
 10
83.23144348477717
 20
158.7388250596662
 30
0.0
 11
82.34976879929082
 21
158.738825059668
 31
0.0
  0
LINE
  5
E00ED84E
330
E00DEA5D
100
AcDbEntity
  8
JISSEN
100
AcDbLine
 39
1680.364539346804
 10
90.05570755344207
 20
158.8388250596123
 30
0.0
 11
82.34736426231666
 21
158.8388250596702
 31
0.0
  0
LINE
  5
E00ED84F
330
E00DEA5D
100
AcDbEntity
  8
JISSEN
 48
0.05
100
AcDbLine
 39
1680.364539346804
 10
78.05570755349254
 20
158.838825059703
 30
0.0
 11
78.05570755349208
 21
158.7388250597008
 31
0.0
  0
LINE
  5
E00ED850
330
E00DEA5D
100
AcDbEntity
  8
JISSEN
100
AcDbLine
 39
1680.364539346804
 10
85.83086698966781
 20
154.7386640363996
 30
0.0
 11
86.53070449576716
 21
154.038826530293
 31
0.0
  0
ARC
  5
E00ED852
330
E00DEA5D
100
AcDbEntity
  8
JISSEN
100
AcDbCircle
 39
1680.364539346804
 10
77.90570755344152
 20
190.7416687184717
 30
0.0
 40
0.9999999999997548
100
AcDbArc
 50
270.0
 51
329.9999999999998
  0
LINE
  5
E00ED857
330
E00DEA5D
100
AcDbEntity
  8
JISSEN
100
AcDbLine
 39
1680.364539346804
 10
100.5423986761575
 20
158.8388250596193
 30
0.0
 11
102.0557075534429
 21
158.8388250596193
 31
0.0
  0
LINE
  5
E00ED858
330
E00DEA5D
100
AcDbEntity
  8
JISSEN
100
AcDbLine
 39
1680.364539346804
 10
100.5385255946798
 20
158.7388250596208
 30
0.0
 11
102.0557075534429
 21
158.7388250596208
 31
0.0
  0
ARC
  5
E00ED859
330
E00DEA5D
100
AcDbEntity
  8
JISSEN
100
AcDbCircle
 39
1680.364539346804
 10
96.87997162215788
 20
158.5388250596091
 30
0.0
 40
0.2
100
AcDbArc
 50
90.0
 51
134.9999999999882
  0
LINE
  5
E00ED85A
330
E00DEA5D
100
AcDbEntity
  8
JISSEN
 48
0.05
100
AcDbLine
 39
1680.364539346804
 10
96.73855026592036
 20
158.6802464158439
 30
0.0
 11
96.18499687532995
 21
158.126693025258
 31
0.0
  0
LINE
  5
E00ED85B
330
E00DEA5D
100
AcDbEntity
  8
JISSEN
100
AcDbLine
 39
1680.364539346804
 10
96.87997162215788
 20
158.7388250596208
 30
0.0
 11
97.76164630764425
 21
158.7388250596171
 31
0.0
  0
LINE
  5
E00ED85C
330
E00DEA5D
100
AcDbEntity
  8
JISSEN
100
AcDbLine
 39
1680.364539346804
 10
90.05570755344207
 20
158.838825059612
 30
0.0
 11
97.76405084461885
 21
158.8388250596193
 31
0.0
  0
LINE
  5
E00ED85D
330
E00DEA5D
100
AcDbEntity
  8
JISSEN
 48
0.05
100
AcDbLine
 39
1680.364539346804
 10
102.0557075534429
 20
158.8388250596229
 30
0.0
 11
102.0557075534429
 21
158.7388250596208
 31
0.0
  0
LINE
  5
E00ED85E
330
E00DEA5D
100
AcDbEntity
  8
JISSEN
100
AcDbLine
 39
1680.364539346804
 10
94.28054811724042
 20
154.7386640363705
 30
0.0
 11
93.58071061113651
 21
154.0388265302693
 31
0.0
  0
LINE
  5
E00ED862
330
E00DEA5D
100
AcDbEntity
  8
SAISEN
100
AcDbLine
 39
1680.364539346804
 10
99.55371667143982
 20
192.0416687184746
 30
0.0
 11
100.7535120988527
 21
190.8418732910625
 31
0.0
  0
LINE
  5
E00ED863
330
E00DEA5D
100
AcDbEntity
  8
JISSEN
100
AcDbLine
 39
1680.364539346804
 10
99.55371667143891
 20
192.0416687184746
 30
0.0
 11
100.7472700534485
 21
192.0416687184746
 31
0.0
  0
LINE
  5
E00ED864
330
E00DEA5D
100
AcDbEntity
  8
JISSEN
100
AcDbLine
 39
1680.364539346804
 10
90.05570755344207
 20
192.0416687184928
 30
0.0
 11
100.7472700534485
 21
192.0416687184746
 31
0.0
  0
LINE
  5
E00ED865
330
E00DEA5D
100
AcDbEntity
  8
SAISEN
100
AcDbLine
 39
1680.364539346804
 10
99.55371667143982
 20
192.0416687184782
 30
0.0
 11
100.7535120988536
 21
190.8418732910662
 31
0.0
  0
ARC
  5
E00ED866
330
E00DEA5D
100
AcDbEntity
  8
JISSEN
100
AcDbCircle
 39
1680.364539346804
 10
102.2057075534426
 20
190.7416687184717
 30
0.0
 40
0.9999999999997548
100
AcDbArc
 50
210.0
 51
270.0
  0
LINE
  5
E00ED869
330
E00DEA5D
100
AcDbEntity
  8
SAISEN
100
AcDbLine
 39
1680.364539346804
 10
80.5576984354443
 20
192.0416687184782
 30
0.0
 11
79.35790300803046
 21
190.8418732910662
 31
0.0
  0
LINE
  5
E00ED86A
330
E00DEA5D
100
AcDbEntity
  8
JISSEN
100
AcDbLine
 39
1680.364539346804
 10
90.05570755344207
 20
192.0416687184928
 30
0.0
 11
79.36414505343555
 21
192.0416687184746
 31
0.0
  0
LINE
  5
E00ED86B
330
E00DEA5D
100
AcDbEntity
  8
JISSEN
100
AcDbLine
 39
1680.364539346804
 10
80.55769843544522
 20
192.0416687184746
 30
0.0
 11
79.36414505343555
 21
192.0416687184746
 31
0.0
  0
LINE
  5
E00ED86C
330
E00DEA5D
100
AcDbEntity
  8
SAISEN
100
AcDbLine
 39
1680.364539346804
 10
80.5576984354443
 20
192.0416687184746
 30
0.0
 11
79.35790300803137
 21
190.8418732910625
 31
0.0
  0
HATCH
  5
E00ED86D
330
E00DEA5D
100
AcDbEntity
  8
HATCH
100
AcDbHatch
 10
0.0
 20
0.0
 30
0.0
210
0.0
220
0.0
230
1.0
  2
ANSI31
 70
     0
 71
     0
 91
        1
 92
        7
 72
     1
 73
     1
 93
       25
 10
60.00671261644311
 20
166.1499089802558
 42
0.0
 10
56.48557357732852
 20
166.6447727999124
 42
-0.3735722059454823
 10
56.05570570570819
 20
167.1398324776158
 42
0.0
 10
56.05570755345843
 20
167.4916683831428
 42
0.0
 10
61.23754318779322
 20
167.4916683831428
 42
0.0
 10
69.66653445249244
 20
166.3070509151433
 42
0.4557262555294019
 10
70.80570755344206
 20
167.2973189838861
 42
0.0
 10
70.80570755344206
 20
167.3818843499933
 42
-0.3541185725222754
 10
71.59779586263289
 20
168.3600319506907
 42
0.0
 10
72.76361924424055
 20
168.6078353601982
 42
0.3541185725362401
 10
73.55570755344206
 20
169.5859829609365
 42
0.0
 10
73.55570755344206
 20
178.9916683831428
 42
0.0
 10
74.55570755344206
 20
178.9916683831428
 42
0.0
 10
75.05570755344206
 20
178.4916683831428
 42
0.0
 10
75.05570755344206
 20
173.3861141809933
 42
0.0
 10
75.05570755344206
 20
168.8044106582923
 42
-0.0743128367426121
 10
74.99016468739364
 20
168.3658531011991
 42
0.0
 10
74.13022307483515
 20
165.5531108260669
 42
-0.3297520604192335
 10
72.69575775168482
 20
164.4916683831655
 42
0.0183434696993945
 10
72.80570755344206
 20
164.4957028615348
 42
0.0
 10
72.80570755344206
 20
143.1916683831435
 42
-0.4142135623730951
 10
71.30570755344206
 20
141.6916683831435
 42
0.0
 10
70.30570755344206
 20
141.6916683831435
 42
-0.4142135623730951
 10
68.80570755344206
 20
143.1916683831435
 42
0.0
 10
68.80570755344206
 20
152.4916683831428
 42
0.294227732135957
 97
        0
 75
     0
 76
     1
 52
0.0
 41
10.0
 77
     0
 78
     1
 53
135.0
 43
-139.6714709126331
 44
-1383.194100821662
 45
0.8838834764831842
 46
0.8838834764831844
 79
     0
 47
0.0434239996700352
 98
        1
 10
70.92820768405954
 20
161.5557807646622
  0
LINE
  5
E00ED86E
330
E00DEA5D
100
AcDbEntity
  8
JISSEN
100
AcDbLine
 10
61.23754318779219
 20
167.4916683831428
 30
0.0
 11
69.66653445249221
 21
166.3070509151433
 31
0.0
  0
LINE
  5
E00ED86F
330
E00DEA5D
100
AcDbEntity
  8
JISSEN
100
AcDbLine
 10
61.23754318779219
 20
167.4916683831428
 30
0.0
 11
70.81175208864306
 21
167.4916683831428
 31
0.0
  0
ARC
  5
E00ED870
330
E00DEA5D
100
AcDbEntity
  8
JISSEN
100
AcDbCircle
 10
53.80570755344206
 20
152.4916683831428
 30
0.0
 40
14.99999999999999
100
AcDbArc
 50
0.0
 51
65.5813815559043
  0
LINE
  5
E00ED871
330
E00DEA5D
100
AcDbEntity
  8
SUNPOU
100
AcDbLine
 10
70.81175208861522
 20
167.4916683831719
 30
0.0
 11
33.00383944881287
 21
167.4916683831719
 31
0.0
  0
LINE
  5
E00ED872
330
E00DEA5D
100
AcDbEntity
  8
SUNPOU
100
AcDbLine
 10
73.55570755344206
 20
177.4916683831719
 30
0.0
 11
33.00383944881423
 21
177.4916683831701
 31
0.0
  0
HATCH
  5
E00ED873
330
E00DEA5D
100
AcDbEntity
  8
SUNPOU
100
AcDbHatch
 10
0.0
 20
0.0
 30
0.0
210
0.0
220
0.0
230
1.0
  2
ANSI31
 70
     0
 71
     0
 91
        2
 92
        5
 93
        5
 72
     1
 10
57.55570755336612
 20
167.4916683831719
 11
65.05570755344206
 21
167.4916683831719
 72
     1
 10
65.05570755344206
 20
167.4916683831701
 11
65.05570755344206
 21
177.4916683831719
 72
     1
 10
65.05570755344206
 20
177.4916683831719
 11
33.00383944881412
 21
177.4916683831682
 72
     4
 94
        3
 73
     0
 74
     0
 95
       11
 96
        7
 40
0.0
 40
0.0
 40
0.0
 40
0.0
 40
3.264692203133994
 40
6.15697472568029
 40
8.955271668736928
 40
10.85738683396026
 40
10.85738683396026
 40
10.85738683396026
 40
10.85738683396026
 10
33.00383944881332
 20
177.4916683831719
 10
33.67894013709974
 20
176.4902694319656
 10
34.95213148759785
 20
174.6017030222532
 10
32.68628677125343
 20
171.7503319891851
 10
34.88940393781013
 20
169.1240014914414
 10
33.54704974707601
 20
167.9619255182527
 10
33.00383944881332
 20
167.4916683831719
 72
     1
 10
33.00383944881287
 20
167.4916683831719
 11
57.55570755336634
 21
167.4916683831719
 97
        0
 92
        5
 93
        5
 72
     1
 10
115.055707553442
 20
177.4916683831719
 11
115.055707553442
 21
167.4916683831719
 72
     1
 10
115.055707553442
 20
167.4916683831719
 11
122.555707553518
 21
167.4916683831719
 72
     1
 10
122.555707553518
 20
167.4916683831719
 11
147.1075756580712
 21
167.4916683831719
 72
     4
 94
        3
 73
     0
 74
     0
 95
       11
 96
        7
 40
0.0
 40
0.0
 40
0.0
 40
0.0
 40
1.902115165223333
 40
4.700412108279971
 40
7.592694630826267
 40
10.85738683396026
 40
10.85738683396026
 40
10.85738683396026
 40
10.85738683396026
 10
147.1075756580708
 20
167.4916683831719
 10
146.5643653598081
 20
167.9619255182527
 10
145.222011169074
 20
169.1240014914414
 10
147.4251283356306
 20
171.7503319891851
 10
145.1592836192862
 20
174.6017030222532
 10
146.4324749697843
 20
176.4902694319656
 10
147.1075756580708
 20
177.4916683831719
 72
     1
 10
147.1075756580694
 20
177.4916683831701
 11
115.0557075534421
 21
177.4916683831719
 97
        0
 75
     0
 76
     1
 52
0.0
 41
10.0
 77
     0
 78
     1
 53
45.0
 43
185.0253228836386
 44
-2491.006975336945
 45
-0.8838834764831842
 46
0.8838834764831844
 79
     0
 47
0.1102095095325799
 98
        2
 10
57.15975372667481
 20
171.1918147995796
 10
124.8575404034067
 20
173.9470515336191
  0
LINE
  5
E00ED874
330
E00DEA5D
100
AcDbEntity
  8
SUNPOU
100
AcDbLine
 10
59.23283705180066
 20
137.4305374996241
 30
0.0
 11
77.39149399109556
 21
155.3244512475824
 31
0.0
  0
ARC
  5
E00ED875
330
E00DEA5D
100
AcDbEntity
  8
JISSEN
100
AcDbCircle
 39
240.0520776831561
 10
56.55570570569444
 20
167.1398298517464
 30
0.0
 40
0.5
100
AcDbArc
 50
180.0
 51
262.0000049459389
  0
LINE
  5
E00ED876
330
E00DEA5D
100
AcDbEntity
  8
JISSEN
100
AcDbLine
 39
240.0520776831561
 10
56.05570570569444
 20
167.1398298517464
 30
0.0
 11
56.05570755345843
 21
167.4916683831719
 31
0.0
  0
SPLINE
  5
E00ED877
330
E00DEA5D
100
AcDbEntity
  8
SUNPOU
100
AcDbSpline
210
0.0
220
0.0
230
1.0
 70
     8
 71
     3
 72
    11
 73
     7
 74
     5
 42
0.0000000001
 43
0.0000000001
 44
0.0000000001
 40
0.0
 40
0.0
 40
0.0
 40
0.0
 40
3.264692203133994
 40
6.15697472568029
 40
8.955271668736928
 40
10.85738683396026
 40
10.85738683396026
 40
10.85738683396026
 40
10.85738683396026
 10
33.00383944881332
 20
177.4916683831719
 30
0.0
 10
33.6789401370997
 20
176.4902694319667
 30
0.0
 10
34.95213148759773
 20
174.6017030222531
 30
0.0
 10
32.68628677125343
 20
171.7503319891838
 30
0.0
 10
34.88940393781009
 20
169.1240014914428
 30
0.0
 10
33.54704974707601
 20
167.9619255182539
 30
0.0
 10
33.00383944881332
 20
167.4916683831719
 30
0.0
 11
33.00383944881332
 21
177.4916683831719
 31
0.0
 11
34.23317982637718
 21
174.4672779623937
 31
0.0
 11
33.4609963724074
 21
171.6799798255518
 31
0.0
 11
34.19030290421551
 21
168.9783918176975
 31
0.0
 11
33.00383944881332
 21
167.4916683831719
 31
0.0
  0
LINE
  5
E00ED878
330
E00DEA5D
100
AcDbEntity
  8
SUNPOU
100
AcDbLine
 10
65.05570755344206
 20
177.4916683831719
 30
0.0
 11
65.05570755344206
 21
167.4916683831719
 31
0.0
  0
LINE
  5
E00ED879
330
E00DEA5D
100
AcDbEntity
  8
JISSEN
100
AcDbLine
 10
56.05570755344206
 20
167.4916683831428
 30
0.0
 11
61.23754318779219
 21
167.4916683831428
 31
0.0
  0
LINE
  5
E00ED87A
330
E00DEA5D
100
AcDbEntity
  8
JISSEN
100
AcDbLine
 10
60.00671261644538
 20
166.1499089802558
 30
0.0
 11
56.48557357661457
 21
166.6447728000124
 31
0.0
  0
LINE
  5
E00ED87B
330
E00DEA5D
100
AcDbEntity
  8
NITEN
100
AcDbLine
 10
70.55570755344206
 20
219.3019964992576
 30
0.0
 11
70.55570755344206
 21
236.5416687184709
 31
0.0
  0
LINE
  5
E00ED87C
330
E00DEA5D
100
AcDbEntity
  8
NITEN
100
AcDbLine
 10
109.555707553442
 20
219.3019964992576
 30
0.0
 11
109.5557075534425
 21
236.5416687184709
 31
0.0
  0
LINE
  5
E00ED87D
330
E00DEA5D
100
AcDbEntity
  8
SUNPOU
100
AcDbLine
 10
106.555707553442
 20
177.4916683831721
 30
0.0
 11
147.1075756580698
 21
177.4916683831701
 31
0.0
  0
LINE
  5
E00ED87E
330
E00DEA5D
100
AcDbEntity
  8
SUNPOU
100
AcDbLine
 10
109.2996630182688
 20
167.4916683831719
 30
0.0
 11
147.1075756580712
 21
167.4916683831719
 31
0.0
  0
LINE
  5
E00ED87F
330
E00DEA5D
100
AcDbEntity
  8
JISSEN
100
AcDbLine
 10
104.7057075534426
 20
177.2388251040205
 30
0.0
 11
104.7057075534426
 21
183.7416687184771
 31
0.0
  0
ARC
  5
E00ED880
330
E00DEA5D
100
AcDbEntity
  8
JISSEN
370
    -2
100
AcDbCircle
 10
96.37771260874297
 20
179.8698461901871
 30
0.0
 40
1.640694770587604
100
AcDbArc
 50
262.9064018570143
 51
355.5207093781105
  0
SPLINE
  5
E00ED881
330
E00DEA5D
100
AcDbEntity
  8
JISSEN
370
    -2
100
AcDbSpline
210
0.0
220
0.0
230
1.0
 70
    12
 71
     3
 72
    14
 73
    10
 74
     0
 42
0.0000000001
 43
0.0000000001
 40
0.0
 40
0.0
 40
0.0
 40
0.0
 40
0.1088769686984931
 40
0.2172663573285982
 40
0.3685706574444105
 40
0.4825742753969225
 40
0.5996174274824865
 40
0.7976149977365948
 40
1.0
 40
1.0
 40
1.0
 40
1.0
 10
96.16441809571689
 20
179.7417099663574
 30
0.0
 41
1.0
 10
96.151724805301
 20
179.6154289801337
 30
0.0
 41
1.0
 10
96.1263950684065
 20
179.3634325275846
 30
0.0
 41
1.0
 10
95.91909628044822
 20
178.9935460414302
 30
0.0
 41
1.0
 10
95.61826743738084
 20
178.7115013907126
 30
0.0
 41
1.0
 10
95.25632439731134
 20
178.5118629975726
 30
0.0
 41
1.0
 10
94.81988946766932
 20
178.3572164392165
 30
0.0
 41
1.0
 10
94.26397418147599
 20
178.2571571590737
 30
0.0
 41
1.0
 10
93.82038696282098
 20
178.2468963463501
 30
0.0
 41
1.0
 10
93.59616291708652
 20
178.2417097204882
 30
0.0
 41
1.0
  0
SPLINE
  5
E00ED882
330
E00DEA5D
100
AcDbEntity
  8
JISSEN
370
    -2
100
AcDbSpline
210
0.0
220
0.0
230
1.0
 70
    12
 71
     3
 72
    14
 73
    10
 74
     0
 42
0.0000000001
 43
0.0000000001
 40
0.0
 40
0.0
 40
0.0
 40
0.0
 40
0.1088769686984931
 40
0.2172663573285982
 40
0.3685706574444105
 40
0.4825742753969225
 40
0.5996174274824865
 40
0.7976149977365948
 40
1.0
 40
1.0
 40
1.0
 40
1.0
 10
83.94699701116724
 20
179.7417099663574
 30
0.0
 41
1.0
 10
83.95969030158312
 20
179.6154289801337
 30
0.0
 41
1.0
 10
83.98502003847761
 20
179.3634325275846
 30
0.0
 41
1.0
 10
84.1923188264359
 20
178.9935460414302
 30
0.0
 41
1.0
 10
84.49314766950328
 20
178.7115013907126
 30
0.0
 41
1.0
 10
84.85509070957277
 20
178.5118629975726
 30
0.0
 41
1.0
 10
85.2915256392148
 20
178.3572164392165
 30
0.0
 41
1.0
 10
85.84744092540814
 20
178.2571571590737
 30
0.0
 41
1.0
 10
86.29102814406314
 20
178.2468963463501
 30
0.0
 41
1.0
 10
86.5152521897976
 20
178.2417097204882
 30
0.0
 41
1.0
  0
ARC
  5
E00ED883
330
E00DEA5D
100
AcDbEntity
  8
JISSEN
370
    -2
100
AcDbCircle
 10
83.73370249814115
 20
179.8698461901871
 30
0.0
 40
1.640694770587604
100
AcDbArc
 50
184.4792906218894
 51
277.0935981429855
  0
LINE
  5
E00ED884
330
E00DEA5D
100
AcDbEntity
  8
JISSEN
100
AcDbLine
 10
75.40570755344152
 20
177.2388251040205
 30
0.0
 11
75.40570755344152
 21
183.7416687184771
 31
0.0
  0
LINE
  5
E00ED885
330
E00DEA5D
100
AcDbEntity
  8
JISSEN
100
AcDbLine
 39
240.0520776831561
 10
102.4557075534453
 20
163.9388251039848
 30
0.0
 11
90.05570755344207
 21
163.938825103983
 31
0.0
  0
LINE
  5
E00ED886
330
E00DEA5D
100
AcDbEntity
  8
JISSEN
100
AcDbLine
 39
240.0520776831561
 10
90.05570755344207
 20
168.2388251039477
 30
0.0
 11
104.7057075534453
 21
168.2388251039477
 31
0.0
  0
LINE
  5
E00ED887
330
E00DEA5D
100
AcDbEntity
  8
JISSEN
100
AcDbLine
 39
240.0520776831561
 10
90.05570755344207
 20
168.2388251039477
 30
0.0
 11
104.7057075534444
 21
168.2388251039477
 31
0.0
  0
LINE
  5
E00ED888
330
E00DEA5D
100
AcDbEntity
  8
JISSEN
100
AcDbLine
 39
240.0520776831561
 10
104.7057075534417
 20
165.8584403463422
 30
0.0
 11
90.05570755344207
 21
165.8584403463895
 31
0.0
  0
LINE
  5
E00ED889
330
E00DEA5D
100
AcDbEntity
  8
JISSEN
100
AcDbLine
 39
240.0520776831561
 10
104.705707553488
 20
177.2388251040205
 30
0.0
 11
105.0057075534873
 21
177.2388251040241
 31
0.0
  0
LINE
  5
E00ED88A
330
E00DEA5D
100
AcDbEntity
  8
JISSEN
100
AcDbLine
 39
240.0520776831561
 10
104.7057075534871
 20
177.2388251040205
 30
0.0
 11
105.0057075534864
 21
177.2388251040241
 31
0.0
  0
LINE
  5
E00ED88B
330
E00DEA5D
100
AcDbEntity
  8
JISSEN
100
AcDbLine
 39
240.0520776831561
 10
75.40570755339695
 20
177.2388251040205
 30
0.0
 11
75.10570755339768
 21
177.2388251040241
 31
0.0
  0
LINE
  5
E00ED88C
330
E00DEA5D
100
AcDbEntity
  8
JISSEN
100
AcDbLine
 39
240.0520776831561
 10
75.40570755339604
 20
177.2388251040205
 30
0.0
 11
75.10570755339677
 21
177.2388251040241
 31
0.0
  0
LINE
  5
E00ED88D
330
E00DEA5D
100
AcDbEntity
  8
JISSEN
100
AcDbLine
 39
240.0520776831561
 10
75.40570755344242
 20
165.8584403463422
 30
0.0
 11
90.05570755344207
 21
165.8584403463895
 31
0.0
  0
LINE
  5
E00ED88E
330
E00DEA5D
100
AcDbEntity
  8
JISSEN
100
AcDbLine
 39
240.0520776831561
 10
90.05570755344207
 20
168.2388251039477
 30
0.0
 11
75.4057075534397
 21
168.2388251039477
 31
0.0
  0
LINE
  5
E00ED88F
330
E00DEA5D
100
AcDbEntity
  8
JISSEN
100
AcDbLine
 39
240.0520776831561
 10
90.05570755344207
 20
168.2388251039477
 30
0.0
 11
75.40570755343878
 21
168.2388251039477
 31
0.0
  0
LINE
  5
E00ED890
330
E00DEA5D
100
AcDbEntity
  8
JISSEN
100
AcDbLine
 39
240.0520776831561
 10
77.65570755343879
 20
163.9388251039848
 30
0.0
 11
90.05570755344207
 21
163.938825103983
 31
0.0
  0
LINE
  5
E00ED891
330
E00DEA5D
100
AcDbEntity
  8
JISSEN
100
AcDbLine
 39
240.0520776831561
 10
124.0557094011896
 20
167.1398298517464
 30
0.0
 11
124.0557075534256
 21
167.4916683831719
 31
0.0
  0
ARC
  5
E00ED892
330
E00DEA5D
100
AcDbEntity
  8
JISSEN
100
AcDbCircle
 39
240.0520776831561
 10
123.5557094011896
 20
167.1398298517464
 30
0.0
 40
0.5
100
AcDbArc
 50
277.9999950540611
 51
0.0
  0
LINE
  5
E00ED893
330
E00DEA5D
100
AcDbEntity
  8
JISSEN
100
AcDbLine
 39
240.0520776831561
 10
102.4557075534453
 20
163.938825103983
 30
0.0
 11
90.05570755344207
 21
163.9388251039832
 31
0.0
  0
LINE
  5
E00ED894
330
E00DEA5D
100
AcDbEntity
  8
JISSEN
100
AcDbLine
 39
240.0520776831561
 10
77.65570755352474
 20
163.9388251040667
 30
0.0
 11
90.05570755344207
 21
163.9388251039828
 31
0.0
  0
LINE
  5
E00ED895
330
E00DEA5D
100
AcDbEntity
  8
JISSEN
370
    -2
100
AcDbLine
 10
96.17510222824376
 20
178.2417097204882
 30
0.0
 11
90.05570755344207
 21
178.2417097204882
 31
0.0
  0
LINE
  5
E00ED896
330
E00DEA5D
100
AcDbEntity
  8
JISSEN
100
AcDbLine
 10
104.4057075534424
 20
164.7388251040714
 30
0.0
 11
90.05570755344207
 21
164.7388251040714
 31
0.0
  0
LINE
  5
E00ED897
330
E00DEA5D
100
AcDbEntity
  8
JISSEN
100
AcDbLine
 10
105.0057075534873
 20
177.2388251040241
 30
0.0
 11
90.05570755344207
 21
177.2388251039459
 31
0.0
  0
LINE
  5
E00ED898
330
E00DEA5D
100
AcDbEntity
  8
JISSEN
100
AcDbLine
 10
105.0057075534864
 20
177.2388251040241
 30
0.0
 11
90.05570755344207
 21
177.2388251039459
 31
0.0
  0
LINE
  5
E00ED899
330
E00DEA5D
100
AcDbEntity
  8
JISSEN
100
AcDbLine
 10
107.305707553442
 20
144.6916683831435
 30
0.0
 11
91.44991780379177
 21
144.6916683831435
 31
0.0
  0
LINE
  5
E00ED89A
330
E00DEA5D
100
AcDbEntity
  8
JISSEN
100
AcDbLine
 10
108.805707553442
 20
141.6916683831435
 30
0.0
 11
90.05570755344207
 21
141.6916683831435
 31
0.0
  0
ARC
  5
E00ED89B
330
E00DEA5D
100
AcDbEntity
  8
JISSEN
100
AcDbCircle
 10
95.97286484097413
 20
158.3388250596157
 30
0.0
 40
0.3
100
AcDbArc
 50
269.9999999999739
 51
314.9999999996935
  0
LINE
  5
E00ED89C
330
E00DEA5D
100
AcDbEntity
  8
JISSEN
370
    -2
100
AcDbLine
 10
103.3057073969425
 20
161.7386651837708
 30
0.0
 11
90.05570755344207
 21
161.7386651837706
 31
0.0
  0
LINE
  5
E00ED89D
330
E00DEA5D
100
AcDbEntity
  8
JISSEN
370
    -2
100
AcDbLine
 10
101.3057080004423
 20
154.7386640363705
 30
0.0
 11
90.05570755344207
 21
154.7386640363703
 31
0.0
  0
LINE
  5
E00ED89E
330
E00DEA5D
100
AcDbEntity
  8
JISSEN
370
    -2
100
AcDbLine
 10
96.86897293664287
 20
157.2386653774714
 30
0.0
 11
90.05570755344207
 21
157.2386653774714
 31
0.0
  0
LINE
  5
E00ED89F
330
E00DEA5D
100
AcDbEntity
  8
JISSEN
370
    -2
100
AcDbLine
 10
96.86897293664287
 20
160.2386640065718
 30
0.0
 11
90.05570755344207
 21
160.2386640065716
 31
0.0
  0
LINE
  5
E00ED8A0
330
E00DEA5D
100
AcDbEntity
  8
JISSEN
100
AcDbLine
 10
72.80570755344206
 20
143.1916683831435
 30
0.0
 11
72.80570755344206
 21
164.4957028615348
 31
0.0
  0
SPLINE
  5
E00ED8A1
330
E00DEA5D
100
AcDbEntity
  8
JISSEN
370
    -2
100
AcDbSpline
210
0.0
220
0.0
230
1.0
 70
    12
 71
     3
 72
    12
 73
     8
 74
     0
 42
0.0000000001
 43
0.0000000001
 40
0.0
 40
0.0
 40
0.0
 40
0.0
 40
0.205840282809383
 40
0.4116490113380446
 40
0.6184457918287852
 40
0.8292559119854885
 40
1.0
 40
1.0
 40
1.0
 40
1.0
 10
79.57289525316582
 20
158.7386646920907
 30
0.0
 41
1.0
 10
79.56287878031162
 20
158.5732382268046
 30
0.0
 41
1.0
 10
79.54284737008038
 20
158.2424106552692
 30
0.0
 41
1.0
 10
79.38911942812637
 20
157.8010218028351
 30
0.0
 41
1.0
 10
79.16974961461983
 20
157.4643312749807
 30
0.0
 41
1.0
 10
78.92283895434593
 20
157.269762474861
 30
0.0
 41
1.0
 10
78.76311922235482
 20
157.2482791054166
 30
0.0
 41
1.0
 10
78.69164523676454
 20
157.2386653775514
 30
0.0
 41
1.0
  0
ARC
  5
E00ED8A2
330
E00DEA5D
100
AcDbEntity
  8
JISSEN
370
    -2
100
AcDbCircle
 10
94.45570755344261
 20
157.3386648098725
 30
0.0
 40
0.7000000000000242
100
AcDbArc
 50
0.0
 51
90.0
  0
ARC
  5
E00ED8A3
330
E00DEA5D
100
AcDbEntity
  8
JISSEN
370
    -2
100
AcDbCircle
 10
83.35728301839209
 20
158.6427200157153
 30
0.0
 40
1.408743357584393
100
AcDbArc
 50
176.0947579959863
 51
265.3240556089218
  0
ARC
  5
E00ED8A4
330
E00DEA5D
100
AcDbEntity
  8
JISSEN
370
    -2
100
AcDbCircle
 10
83.73275898329211
 20
158.6251338706127
 30
0.0
 40
1.387632780893617
100
AcDbArc
 50
175.3070321912918
 51
267.6527416120486
  0
ARC
  5
E00ED8A5
330
E00DEA5D
100
AcDbEntity
  8
JISSEN
370
    -2
100
AcDbCircle
 10
85.65570755348289
 20
157.3386648099016
 30
0.0
 40
0.7000000000000242
100
AcDbArc
 50
89.99999999960918
 51
179.9999999995831
  0
LINE
  5
E00ED8A6
330
E00DEA5D
100
AcDbEntity
  8
JISSEN
100
AcDbLine
 10
71.30570755344206
 20
141.6916683831435
 30
0.0
 11
90.05570755344207
 21
141.6916683831435
 31
0.0
  0
LINE
  5
E00ED8A7
330
E00DEA5D
100
AcDbEntity
  8
JISSEN
100
AcDbLine
 10
72.80570755344206
 20
144.6916683831435
 30
0.0
 11
88.66149730309235
 21
144.6916683831435
 31
0.0
  0
LINE
  5
E00ED8A8
330
E00DEA5D
100
AcDbEntity
  8
JISSEN
370
    -2
100
AcDbLine
 10
78.80570710646589
 20
154.7386640364469
 30
0.0
 11
90.05570755344207
 21
154.7386640363703
 31
0.0
  0
LINE
  5
E00ED8A9
330
E00DEA5D
100
AcDbEntity
  8
JISSEN
100
AcDbLine
 10
68.80570755344206
 20
143.1916683831435
 30
0.0
 11
68.80570755344206
 21
152.4916683831428
 31
0.0
  0
ARC
  5
E00ED8AA
330
E00DEA5D
100
AcDbEntity
  8
JISSEN
100
AcDbCircle
 10
71.30570755344206
 20
143.1916683831435
 30
0.0
 40
1.5
100
AcDbArc
 50
270.0
 51
0.0
  0
ARC
  5
E00ED8AB
330
E00DEA5D
100
AcDbEntity
  8
JISSEN
100
AcDbCircle
 10
70.30570755344206
 20
143.1916683831435
 30
0.0
 40
1.5
100
AcDbArc
 50
180.0
 51
270.0
  0
LINE
  5
E00ED8AC
330
E00DEA5D
100
AcDbEntity
  8
JISSEN
100
AcDbLine
 10
70.30570755344206
 20
141.6916683831435
 30
0.0
 11
71.30570755344206
 21
141.6916683831435
 31
0.0
  0
ARC
  5
E00ED8AD
330
E00DEA5D
100
AcDbEntity
  8
JISSEN
370
    -2
100
AcDbCircle
 10
78.80570755347889
 20
156.7386648099467
 30
0.0
 40
2.000000000000056
100
AcDbArc
 50
179.9999999995831
 51
269.9999999996091
  0
LINE
  5
E00ED8AE
330
E00DEA5D
100
AcDbEntity
  8
JISSEN
370
    -2
100
AcDbLine
 10
76.80570770998247
 20
157.2386653775605
 30
0.0
 11
78.69164523678273
 21
157.2386653775478
 31
0.0
  0
LINE
  5
E00ED8AF
330
E00DEA5D
100
AcDbEntity
  8
JISSEN
370
    -2
100
AcDbLine
 10
76.80570770998247
 20
157.2386653775605
 30
0.0
 11
76.80570770997928
 21
156.7386643642597
 31
0.0
  0
INSERT
  5
E00ED8B0
330
E00DEA5D
100
AcDbEntity
  8
SUNPOU
100
AcDbBlockReference
  2
ARROW
 10
77.37420724138701
 20
155.3106229701473
 30
0.0
 41
1.499999999999528
 42
1.5
 43
1.5
 50
44.6619397375731
  0
LINE
  5
E00ED8B1
330
E00DEA5D
100
AcDbEntity
  8
JISSEN
100
AcDbLine
 10
91.55570755344205
 20
154.0388261411598
 30
0.0
 11
91.55570755344205
 21
144.6916683831435
 31
0.0
  0
LINE
  5
E00ED8B2
330
E00DEA5D
100
AcDbEntity
  8
JISSEN
100
AcDbLine
 10
88.55570755344208
 20
154.0388265302791
 30
0.0
 11
88.55570755344206
 21
144.6916683831435
 31
0.0
  0
ARC
  5
E00ED8B3
330
E00DEA5D
100
AcDbEntity
  8
JISSEN
100
AcDbCircle
 10
90.05570755344207
 20
143.1916683831435
 30
0.0
 40
1.5
100
AcDbArc
 50
201.64710849855
 51
270.0
  0
LINE
  5
E00ED8B4
330
E00DEA5D
100
AcDbEntity
  8
JISSEN
100
AcDbLine
 10
88.66149730309235
 20
144.6916683831435
 30
0.0
 11
88.66149730309235
 21
142.638335049772
 31
0.0
  0
ARC
  5
E00ED8B5
330
E00DEA5D
100
AcDbEntity
  8
JISSEN
100
AcDbCircle
 10
90.05570755344207
 20
143.1916683831435
 30
0.0
 40
1.5
100
AcDbArc
 50
270.0
 51
338.3528915014498
  0
LINE
  5
E00ED8B6
330
E00DEA5D
100
AcDbEntity
  8
JISSEN
100
AcDbLine
 10
91.44991780379177
 20
144.6916683831435
 30
0.0
 11
91.44991780379177
 21
142.638335049772
 31
0.0
  0
LINE
  5
E00ED8B7
330
E00DEA5D
100
AcDbEntity
  8
JISSEN
100
AcDbLine
 10
87.55570760936734
 20
154.0388265302857
 30
0.0
 11
90.05570755344205
 21
154.0388265302691
 31
0.0
  0
LINE
  5
E00ED8B8
330
E00DEA5D
100
AcDbEntity
  8
JISSEN
370
    -2
100
AcDbLine
 10
83.24244217028217
 20
157.2386653775168
 30
0.0
 11
90.05570755344207
 21
157.2386653774714
 31
0.0
  0
LINE
  5
E00ED8B9
330
E00DEA5D
100
AcDbEntity
  8
JISSEN
370
    -2
100
AcDbLine
 10
84.95570736948321
 20
157.3386633450057
 30
0.0
 11
84.95570736948275
 21
157.2386653775059
 31
0.0
  0
LINE
  5
E00ED8BA
330
E00DEA5D
100
AcDbEntity
  8
JISSEN
100
AcDbLine
 10
86.53070409692828
 20
154.0388269291319
 30
0.0
 11
87.55570760936734
 21
154.0388265302857
 31
0.0
  0
LINE
  5
E00ED8BB
330
E00DEA5D
100
AcDbEntity
  8
JISSEN
100
AcDbLine
 10
93.58071100997539
 20
154.0388269291082
 30
0.0
 11
90.05570755344207
 21
154.0388255574952
 31
0.0
  0
LINE
  5
E00ED8BC
330
E00DEA5D
100
AcDbEntity
  8
JISSEN
100
AcDbLine
 10
92.55570749753633
 20
154.0388265302693
 30
0.0
 11
91.55570756649149
 21
154.0388265302693
 31
0.0
  0
LINE
  5
E00ED8BD
330
E00DEA5D
100
AcDbEntity
  8
JISSEN
370
    -2
100
AcDbLine
 10
95.15570773744229
 20
157.3386633449712
 30
0.0
 11
95.15570773744229
 21
157.2386653774714
 31
0.0
  0
LINE
  5
E00ED8BE
330
E00DEA5D
100
AcDbEntity
  8
JISSEN
100
AcDbLine
 10
75.10570755339768
 20
177.2388251040241
 30
0.0
 11
90.05570755344207
 21
177.2388251039459
 31
0.0
  0
LINE
  5
E00ED8BF
330
E00DEA5D
100
AcDbEntity
  8
JISSEN
100
AcDbLine
 10
75.10570755339677
 20
177.2388251040241
 30
0.0
 11
90.05570755344207
 21
177.2388251039459
 31
0.0
  0
LINE
  5
E00ED8C0
330
E00DEA5D
100
AcDbEntity
  8
JISSEN
100
AcDbLine
 10
75.7057075534417
 20
164.7388251040714
 30
0.0
 11
90.05570755344207
 21
164.7388251040714
 31
0.0
  0
LINE
  5
E00ED8C1
330
E00DEA5D
100
AcDbEntity
  8
JISSEN
370
    -2
100
AcDbLine
 10
76.80570771001248
 20
161.73866518386
 30
0.0
 11
90.05570755344207
 21
161.7386651837708
 31
0.0
  0
ARC
  5
E00ED8C2
330
E00DEA5D
100
AcDbEntity
  8
JISSEN
370
    -2
100
AcDbCircle
 10
83.31948094469362
 20
158.8671350808175
 30
0.0
 40
1.373690855685324
100
AcDbArc
 50
93.21492544802474
 51
185.3662609455776
  0
LINE
  5
E00ED8C3
330
E00DEA5D
100
AcDbEntity
  8
JISSEN
100
AcDbLine
 10
75.4057075534406
 20
168.2388251039477
 30
0.0
 11
75.10570755344133
 21
170.6821290323417
 31
0.0
  0
ARC
  5
E00ED8C4
330
E00DEA5D
100
AcDbEntity
  8
JISSEN
100
AcDbCircle
 10
73.55570755344206
 20
168.8044106582923
 30
0.0
 40
1.5
100
AcDbArc
 50
343.0000000000185
 51
0.0
  0
ARC
  5
E00ED8C5
330
E00DEA5D
100
AcDbEntity
  8
JISSEN
100
AcDbCircle
 10
71.80570755344206
 20
167.3818843499933
 30
0.0
 40
1.00000000000004
100
AcDbArc
 50
101.9999999999637
 51
180.0
  0
LINE
  5
E00ED8C6
330
E00DEA5D
100
AcDbEntity
  8
JISSEN
100
AcDbLine
 10
71.59779586264312
 20
168.3600319506926
 30
0.0
 11
72.76361924423918
 21
168.6078353601982
 31
0.0
  0
ARC
  5
E00ED8C7
330
E00DEA5D
100
AcDbEntity
  8
JISSEN
100
AcDbCircle
 10
72.55570755344206
 20
169.5859829608447
 30
0.0
 40
1.000000000000011
100
AcDbArc
 50
282.0000000000152
 51
0.0
  0
LINE
  5
E00ED8C8
330
E00DEA5D
100
AcDbEntity
  8
JISSEN
100
AcDbLine
 10
74.99016468739182
 20
168.3658531011927
 30
0.0
 11
74.13022307484289
 21
165.5531108260923
 31
0.0
  0
LINE
  5
E00ED8C9
330
E00DEA5D
100
AcDbEntity
  8
JISSEN
100
AcDbLine
 10
77.4557075535286
 20
164.4953400963235
 30
0.0
 11
71.86745637099239
 21
164.4953400963235
 31
0.0
  0
ARC
  5
E00ED8CA
330
E00DEA5D
100
AcDbEntity
  8
JISSEN
100
AcDbCircle
 10
69.80570755344206
 20
167.2973189838443
 30
0.0
 40
1.0
100
AcDbArc
 50
278.0000000167149
 51
0.0
  0
ARC
  5
E00ED8CB
330
E00DEA5D
100
AcDbEntity
  8
JISSEN
100
AcDbCircle
 10
69.80570755344206
 20
167.2973189838443
 30
0.0
 40
1.0
100
AcDbArc
 50
261.9999999999592
 51
267.6310203909496
  0
LINE
  5
E00ED8CC
330
E00DEA5D
100
AcDbEntity
  8
JISSEN
100
AcDbLine
 10
69.94488065444284
 20
166.3070509151433
 30
0.0
 11
69.66653445249221
 21
166.3070509151433
 31
0.0
  0
ARC
  5
E00ED8CD
330
E00DEA5D
100
AcDbEntity
  8
JISSEN
100
AcDbCircle
 10
72.69576594094224
 20
165.9916683831428
 30
0.0
 40
1.500000000000016
100
AcDbArc
 50
270.0
 51
343.0000000000185
  0
SPLINE
  5
E00ED8CE
330
E00DEA5D
100
AcDbEntity
  8
JISSEN
100
AcDbSpline
210
0.0
220
0.0
230
1.0
 70
     8
 71
     3
 72
     9
 73
     5
 74
     0
 42
0.0000000001
 43
0.0000000001
 40
0.0
 40
0.0
 40
0.0
 40
0.0
 40
0.5
 40
1.0
 40
1.0
 40
1.0
 40
1.0
 10
71.86745585075687
 20
164.4953401964916
 30
0.0
 10
71.88494122628753
 20
164.4941186466779
 30
0.0
 10
71.91996783223067
 20
164.4922833107097
 30
0.0
 10
71.95510659651927
 20
164.4916683831501
 30
0.0
 10
71.9727042352938
 20
164.4916683831501
 30
0.0
  0
LINE
  5
E00ED8CF
330
E00DEA5D
100
AcDbEntity
  8
JISSEN
100
AcDbLine
 10
71.9727051351424
 20
164.491668357073
 30
0.0
 11
71.9608400855418
 21
164.491668357073
 31
0.0
  0
LINE
  5
E00ED8D0
330
E00DEA5D
100
AcDbEntity
  8
JISSEN
370
    -2
100
AcDbLine
 10
76.80570771000247
 20
160.238664006661
 30
0.0
 11
78.69164523680274
 21
160.2386640066482
 31
0.0
  0
LINE
  5
E00ED8D1
330
E00DEA5D
100
AcDbEntity
  8
JISSEN
370
    -2
100
AcDbLine
 10
76.80570771001248
 20
161.73866518386
 30
0.0
 11
76.80570771000247
 21
160.238664006661
 31
0.0
  0
SPLINE
  5
E00ED8D2
330
E00DEA5D
100
AcDbEntity
  8
JISSEN
370
    -2
100
AcDbSpline
210
0.0
220
0.0
230
1.0
 70
    12
 71
     3
 72
    12
 73
     8
 74
     0
 42
0.0000000001
 43
0.0000000001
 40
0.0
 40
0.0
 40
0.0
 40
0.0
 40
0.2270414180693609
 40
0.4545205376007232
 40
0.6714649260062801
 40
0.8806674473517201
 40
1.0
 40
1.0
 40
1.0
 40
1.0
 10
78.69164523678455
 20
160.2386640066446
 30
0.0
 41
1.0
 10
78.7873984175717
 20
160.2217543566943
 30
0.0
 41
1.0
 10
78.97908937677494
 20
160.1879024575477
 30
0.0
 41
1.0
 10
79.2530304726406
 20
159.914012344166
 30
0.0
 41
1.0
 10
79.45889804581838
 20
159.513643427886
 30
0.0
 41
1.0
 10
79.56006111819715
 20
159.0971756589109
 30
0.0
 41
1.0
 10
79.56947564881011
 20
158.8341885171624
 30
0.0
 41
1.0
 10
79.57289525316582
 20
158.7386646920907
 30
0.0
 41
1.0
  0
LINE
  5
E00ED8D3
330
E00DEA5D
100
AcDbEntity
  8
JISSEN
100
AcDbLine
 10
77.35570755343951
 20
164.7388251039805
 30
0.0
 11
77.75570755344279
 21
164.7388251039841
 31
0.0
  0
ARC
  5
E00ED8D4
330
E00DEA5D
100
AcDbEntity
  8
JISSEN
100
AcDbCircle
 10
77.65570755343879
 20
164.5388251039834
 30
0.0
 40
0.200000000000017
100
AcDbArc
 50
90.0
 51
180.0
  0
ARC
  5
E00ED8D5
330
E00DEA5D
100
AcDbEntity
  8
JISSEN
100
AcDbCircle
 10
77.65570755343879
 20
164.1388251039856
 30
0.0
 40
0.1999999999999957
100
AcDbArc
 50
180.0
 51
270.0
  0
LINE
  5
E00ED8D6
330
E00DEA5D
100
AcDbEntity
  8
JISSEN
100
AcDbLine
 10
77.45570755343897
 20
164.5388251039834
 30
0.0
 11
77.45570755343897
 21
164.1388251039856
 31
0.0
  0
LINE
  5
E00ED8D7
330
E00DEA5D
100
AcDbEntity
  8
JISSEN
100
AcDbLine
 10
75.4057075534406
 20
165.8584403463459
 30
0.0
 11
75.4057075534397
 21
168.2388251039477
 31
0.0
  0
ARC
  5
E00ED8D8
330
E00DEA5D
100
AcDbEntity
  8
JISSEN
100
AcDbCircle
 10
77.65570755352564
 20
164.1388251040674
 30
0.0
 40
0.1999999999999957
100
AcDbArc
 50
179.9999999995831
 51
269.9999999996091
  0
LINE
  5
E00ED8D9
330
E00DEA5D
100
AcDbEntity
  8
JISSEN
100
AcDbLine
 10
77.4557075535286
 20
164.4953400963235
 30
0.0
 11
77.45570755352582
 21
164.1388251040674
 31
0.0
  0
LINE
  5
E00ED8DA
330
E00DEA5D
100
AcDbEntity
  8
JISSEN
100
AcDbLine
 10
74.55570755344206
 20
178.9916683831428
 30
0.0
 11
75.05570755344206
 21
178.4916683831428
 31
0.0
  0
LINE
  5
E00ED8DB
330
E00DEA5D
100
AcDbEntity
  8
JISSEN
100
AcDbLine
 10
75.05570755344206
 20
178.4916683831428
 30
0.0
 11
74.55570755344206
 21
178.9916683831428
 31
0.0
  0
LINE
  5
E00ED8DC
330
E00DEA5D
100
AcDbEntity
  8
JISSEN
100
AcDbLine
 10
75.40570755344152
 20
178.9916683831428
 30
0.0
 11
74.55570755344206
 21
178.9916683831428
 31
0.0
  0
LINE
  5
E00ED8DD
330
E00DEA5D
100
AcDbEntity
  8
JISSEN
100
AcDbLine
 10
73.55570755344206
 20
178.9916683831446
 30
0.0
 11
73.55570755344206
 21
169.5859829608447
 31
0.0
  0
LINE
  5
E00ED8DE
330
E00DEA5D
100
AcDbEntity
  8
JISSEN
100
AcDbLine
 10
73.55570755344206
 20
178.9916683831428
 30
0.0
 11
74.55570755344206
 21
178.9916683831428
 31
0.0
  0
LINE
  5
E00ED8DF
330
E00DEA5D
100
AcDbEntity
  8
JISSEN
100
AcDbLine
 10
75.05570755344206
 20
178.4916683831428
 30
0.0
 11
75.05570755344206
 21
173.3861141809933
 31
0.0
  0
LINE
  5
E00ED8E0
330
E00DEA5D
100
AcDbEntity
  8
JISSEN
100
AcDbLine
 10
75.05570755344206
 20
168.8044106582414
 30
0.0
 11
75.05570755344206
 21
174.5819828632424
 31
0.0
  0
LINE
  5
E00ED8E1
330
E00DEA5D
100
AcDbEntity
  8
JISSEN
100
AcDbLine
 10
75.4057075534406
 20
171.2388251039477
 30
0.0
 11
75.10570755344133
 21
173.6821290323417
 31
0.0
  0
LINE
  5
E00ED8E2
330
E00DEA5D
100
AcDbEntity
  8
JISSEN
100
AcDbLine
 10
75.10570755344133
 20
171.2388251039477
 30
0.0
 11
75.4057075534406
 21
171.2388251039477
 31
0.0
  0
LINE
  5
E00ED8E3
330
E00DEA5D
100
AcDbEntity
  8
JISSEN
100
AcDbLine
 10
75.10570755344133
 20
170.6821290323417
 30
0.0
 11
75.10570755344133
 21
171.2388251039477
 31
0.0
  0
LINE
  5
E00ED8E4
330
E00DEA5D
100
AcDbEntity
  8
JISSEN
100
AcDbLine
 10
75.05570755344206
 20
171.5750016002924
 30
0.0
 11
75.05570755344206
 21
168.8044106582923
 31
0.0
  0
LINE
  5
E00ED8E5
330
E00DEA5D
100
AcDbEntity
  8
JISSEN
100
AcDbLine
 10
75.10570755344133
 20
174.2388251039477
 30
0.0
 11
75.4057075534406
 21
174.2388251039477
 31
0.0
  0
LINE
  5
E00ED8E6
330
E00DEA5D
100
AcDbEntity
  8
JISSEN
100
AcDbLine
 10
75.4057075534406
 20
174.2388251039477
 30
0.0
 11
75.10570755344133
 21
176.6821290323417
 31
0.0
  0
LINE
  5
E00ED8E7
330
E00DEA5D
100
AcDbEntity
  8
JISSEN
100
AcDbLine
 10
75.10570755344133
 20
177.2388251039477
 30
0.0
 11
75.40570755344152
 21
177.2388251039477
 31
0.0
  0
LINE
  5
E00ED8E8
330
E00DEA5D
100
AcDbEntity
  8
JISSEN
100
AcDbLine
 10
75.05570755344206
 20
176.3930954439414
 30
0.0
 11
75.05570755344206
 21
178.4916683831428
 31
0.0
  0
LINE
  5
E00ED8E9
330
E00DEA5D
100
AcDbEntity
  8
JISSEN
100
AcDbLine
 10
90.05570755344205
 20
158.0388250596157
 30
0.0
 11
84.13855026595639
 21
158.0388250596564
 31
0.0
  0
LINE
  5
E00ED8EA
330
E00DEA5D
100
AcDbEntity
  8
JISSEN
370
    -2
100
AcDbLine
 10
83.24244217030217
 20
160.2386640066173
 30
0.0
 11
90.05570755344207
 21
160.2386640065714
 31
0.0
  0
LINE
  5
E00ED8EB
330
E00DEA5D
100
AcDbEntity
  8
JISSEN
370
    -2
100
AcDbLine
 10
84.50570766822783
 20
163.938825104023
 30
0.0
 11
84.50570766821284
 21
161.7386651838072
 31
0.0
  0
ARC
  5
E00ED8EC
330
E00DEA5D
100
AcDbEntity
  8
JISSEN
100
AcDbCircle
 10
84.1385502659582
 20
158.3388250596557
 30
0.0
 40
0.3
100
AcDbArc
 50
224.9999999998828
 51
269.9999999996352
  0
ARC
  5
E00ED8ED
330
E00DEA5D
100
AcDbEntity
  8
JISSEN
370
    -2
100
AcDbCircle
 10
83.76588919259303
 20
158.8229051071133
 30
0.0
 40
1.418614261419669
100
AcDbArc
 50
93.63587483011007
 51
183.4043513649433
  0
LINE
  5
E00ED8EE
330
E00DEA5D
100
AcDbEntity
  8
JISSEN
370
    -2
100
AcDbLine
 10
86.00570744840252
 20
160.2386640065991
 30
0.0
 11
86.00570744839297
 21
158.8388250596429
 31
0.0
  0
LINE
  5
E00ED8EF
330
E00DEA5D
100
AcDbEntity
  8
JISSEN
370
    -2
100
AcDbLine
 10
95.60570743874222
 20
163.9388251039866
 30
0.0
 11
95.60570743874222
 21
161.7386651837708
 31
0.0
  0
LINE
  5
E00ED8F0
330
E00DEA5D
100
AcDbEntity
  8
JISSEN
100
AcDbLine
 10
90.05570755344207
 20
158.0388250596164
 30
0.0
 11
95.97286484097413
 21
158.0388250596164
 31
0.0
  0
LINE
  5
E00ED8F1
330
E00DEA5D
100
AcDbEntity
  8
JISSEN
370
    -2
100
AcDbLine
 10
94.10570765854254
 20
160.2386640065718
 30
0.0
 11
94.10570765854254
 21
158.8388250596157
 31
0.0
  0
LINE
  5
E00ED8F2
330
E00DEA5D
100
AcDbEntity
  8
JISSEN
370
    -2
100
AcDbLine
 10
83.93631287864037
 20
178.2417097204882
 30
0.0
 11
90.05570755344207
 21
178.2417097204882
 31
0.0
  0
LINE
  5
E00ED8F3
330
E00DEA5D
100
AcDbEntity
  8
JISSEN
100
AcDbLine
 10
107.305707553442
 20
143.1916683831435
 30
0.0
 11
107.305707553442
 21
164.4957028615348
 31
0.0
  0
ARC
  5
E00ED8F4
330
E00DEA5D
100
AcDbEntity
  8
JISSEN
100
AcDbCircle
 10
126.305707553442
 20
152.4916683831428
 30
0.0
 40
14.99999999999999
100
AcDbArc
 50
114.4186184440957
 51
180.0
  0
HATCH
  5
E00ED8F5
330
E00DEA5D
100
AcDbEntity
  8
HATCH
100
AcDbHatch
 10
0.0
 20
0.0
 30
0.0
210
0.0
220
0.0
230
1.0
  2
ANSI31
 70
     0
 71
     0
 91
        1
 92
        7
 72
     1
 73
     1
 93
       25
 10
120.104702490441
 20
166.1499089802558
 42
0.0
 10
123.6258415295556
 20
166.6447727999124
 42
0.3735722059454823
 10
124.0557094011759
 20
167.1398324776158
 42
0.0
 10
124.0557075534256
 20
167.4916683831428
 42
0.0
 10
118.8738719190909
 20
167.4916683831428
 42
0.0
 10
110.4448806543916
 20
166.3070509151433
 42
-0.4557262555294019
 10
109.305707553442
 20
167.2973189838861
 42
0.0
 10
109.305707553442
 20
167.3818843499933
 42
0.3541185725222754
 10
108.5136192442512
 20
168.3600319506907
 42
0.0
 10
107.3477958626435
 20
168.6078353601982
 42
-0.3541185725362401
 10
106.555707553442
 20
169.5859829609365
 42
0.0
 10
106.555707553442
 20
178.9916683831428
 42
0.0
 10
105.555707553442
 20
178.9916683831428
 42
0.0
 10
105.055707553442
 20
178.4916683831428
 42
0.0
 10
105.055707553442
 20
173.3861141809933
 42
0.0
 10
105.055707553442
 20
168.8044106582923
 42
0.0743128367426121
 10
105.1212504194904
 20
168.3658531011991
 42
0.0
 10
105.9811920320489
 20
165.5531108260669
 42
0.3297520604192335
 10
107.4156573551993
 20
164.4916683831655
 42
-0.0183434696993945
 10
107.305707553442
 20
164.4957028615348
 42
0.0
 10
107.305707553442
 20
143.1916683831435
 42
0.4142135623730951
 10
108.805707553442
 20
141.6916683831435
 42
0.0
 10
109.805707553442
 20
141.6916683831435
 42
0.4142135623730951
 10
111.305707553442
 20
143.1916683831435
 42
0.0
 10
111.305707553442
 20
152.4916683831428
 42
-0.294227732135957
 97
        0
 75
     0
 76
     1
 52
0.0
 41
10.0
 77
     0
 78
     1
 53
45.0
 43
319.7828860195172
 44
-1383.194100821662
 45
-0.8838834764831842
 46
0.8838834764831844
 79
     0
 47
0.0434239996700352
 98
        1
 10
109.1832074228245
 20
161.5557807646622
  0
SPLINE
  5
E00ED8F6
330
E00DEA5D
100
AcDbEntity
  8
JISSEN
370
    -2
100
AcDbSpline
210
0.0
220
0.0
230
1.0
 70
    12
 71
     3
 72
    12
 73
     8
 74
     0
 42
0.0000000001
 43
0.0000000001
 40
0.0
 40
0.0
 40
0.0
 40
0.0
 40
0.205840282809383
 40
0.4116490113380446
 40
0.6184457918287852
 40
0.8292559119854885
 40
1.0
 40
1.0
 40
1.0
 40
1.0
 10
100.5385198537692
 20
158.7386646920216
 30
0.0
 41
1.0
 10
100.548536326622
 20
158.5732382267354
 30
0.0
 41
1.0
 10
100.5685677368514
 20
158.2424106552001
 30
0.0
 41
1.0
 10
100.7222956788023
 20
157.8010218027642
 30
0.0
 41
1.0
 10
100.9416654923065
 20
157.4643312749079
 30
0.0
 41
1.0
 10
101.1885761525795
 20
157.2697624747864
 30
0.0
 41
1.0
 10
101.3482958845702
 20
157.248279105342
 30
0.0
 41
1.0
 10
101.4197698701605
 20
157.238665377475
 30
0.0
 41
1.0
  0
ARC
  5
E00ED8F7
330
E00DEA5D
100
AcDbEntity
  8
JISSEN
370
    -2
100
AcDbCircle
 10
96.75413208854251
 20
158.6427200156698
 30
0.0
 40
1.408743357584393
100
AcDbArc
 50
274.6759443907207
 51
3.905242003595847
  0
ARC
  5
E00ED8F8
330
E00DEA5D
100
AcDbEntity
  8
JISSEN
370
    -2
100
AcDbCircle
 10
96.37865612364249
 20
158.6251338705709
 30
0.0
 40
1.387632780893617
100
AcDbArc
 50
272.3472583875866
 51
4.692967808289879
  0
ARC
  5
E00ED8F9
330
E00DEA5D
100
AcDbEntity
  8
JISSEN
100
AcDbCircle
 10
109.805707553442
 20
143.1916683831435
 30
0.0
 40
1.5
100
AcDbArc
 50
270.0
 51
0.0
  0
ARC
  5
E00ED8FA
330
E00DEA5D
100
AcDbEntity
  8
JISSEN
100
AcDbCircle
 10
108.805707553442
 20
143.1916683831435
 30
0.0
 40
1.5
100
AcDbArc
 50
180.0
 51
270.0
  0
LINE
  5
E00ED8FB
330
E00DEA5D
100
AcDbEntity
  8
JISSEN
100
AcDbLine
 10
109.805707553442
 20
141.6916683831435
 30
0.0
 11
108.805707553442
 21
141.6916683831435
 31
0.0
  0
ARC
  5
E00ED8FC
330
E00DEA5D
100
AcDbEntity
  8
JISSEN
370
    -2
100
AcDbCircle
 10
101.3057075534429
 20
156.7386648098703
 30
0.0
 40
2.000000000000056
100
AcDbArc
 50
270.0
 51
0.0
  0
LINE
  5
E00ED8FD
330
E00DEA5D
100
AcDbEntity
  8
JISSEN
370
    -2
100
AcDbLine
 10
103.3057073969425
 20
157.2386653774714
 30
0.0
 11
101.4197698701423
 21
157.2386653774714
 31
0.0
  0
LINE
  5
E00ED8FE
330
E00DEA5D
100
AcDbEntity
  8
JISSEN
370
    -2
100
AcDbLine
 10
103.3057073969425
 20
157.2386653774714
 30
0.0
 11
103.3057073969425
 21
156.7386643641706
 31
0.0
  0
LINE
  5
E00ED8FF
330
E00DEA5D
100
AcDbEntity
  8
JISSEN
100
AcDbLine
 10
111.305707553442
 20
143.1916683831435
 30
0.0
 11
111.305707553442
 21
152.4916683831428
 31
0.0
  0
LINE
  5
E00ED900
330
E00DEA5D
100
AcDbEntity
  8
JISSEN
100
AcDbLine
 10
110.1665344524412
 20
166.3070509151433
 30
0.0
 11
110.4448806543919
 21
166.3070509151433
 31
0.0
  0
LINE
  5
E00ED901
330
E00DEA5D
100
AcDbEntity
  8
JISSEN
100
AcDbLine
 10
118.8738719190919
 20
167.4916683831428
 30
0.0
 11
109.299663018241
 21
167.4916683831428
 31
0.0
  0
LINE
  5
E00ED902
330
E00DEA5D
100
AcDbEntity
  8
JISSEN
100
AcDbLine
 10
104.7057075534435
 20
168.2388251039477
 30
0.0
 11
105.0057075534427
 21
170.6821290323417
 31
0.0
  0
ARC
  5
E00ED903
330
E00DEA5D
100
AcDbEntity
  8
JISSEN
100
AcDbCircle
 10
107.555707553442
 20
169.5859829608447
 30
0.0
 40
1.000000000000011
100
AcDbArc
 50
180.0
 51
257.9999999999847
  0
LINE
  5
E00ED904
330
E00DEA5D
100
AcDbEntity
  8
JISSEN
100
AcDbLine
 10
108.513619244241
 20
168.3600319506926
 30
0.0
 11
107.3477958626449
 21
168.6078353601982
 31
0.0
  0
ARC
  5
E00ED905
330
E00DEA5D
100
AcDbEntity
  8
JISSEN
100
AcDbCircle
 10
108.305707553442
 20
167.3818843499933
 30
0.0
 40
1.00000000000004
100
AcDbArc
 50
0.0
 51
78.0000000000362
  0
ARC
  5
E00ED906
330
E00DEA5D
100
AcDbEntity
  8
JISSEN
100
AcDbCircle
 10
106.555707553442
 20
168.8044106582923
 30
0.0
 40
1.5
100
AcDbArc
 50
180.0
 51
196.9999999999813
  0
LINE
  5
E00ED907
330
E00DEA5D
100
AcDbEntity
  8
JISSEN
100
AcDbLine
 10
102.6557075534451
 20
164.4953400963235
 30
0.0
 11
108.2439587358917
 21
164.4953400963235
 31
0.0
  0
LINE
  5
E00ED908
330
E00DEA5D
100
AcDbEntity
  8
JISSEN
370
    -2
100
AcDbLine
 10
103.3057073969425
 20
160.2386640065718
 30
0.0
 11
101.4197698701423
 21
160.2386640065718
 31
0.0
  0
ARC
  5
E00ED909
330
E00DEA5D
100
AcDbEntity
  8
JISSEN
370
    -2
100
AcDbCircle
 10
96.79193416224235
 20
158.867135080772
 30
0.0
 40
1.373690855685324
100
AcDbArc
 50
354.6337390540036
 51
86.7850745516049
  0
ARC
  5
E00ED90A
330
E00DEA5D
100
AcDbEntity
  8
JISSEN
370
    -2
100
AcDbCircle
 10
96.3455259143425
 20
158.8229051070715
 30
0.0
 40
1.418614261419669
100
AcDbArc
 50
356.595648634639
 51
86.36412516949977
  0
SPLINE
  5
E00ED90B
330
E00DEA5D
100
AcDbEntity
  8
JISSEN
370
    -2
100
AcDbSpline
210
0.0
220
0.0
230
1.0
 70
    12
 71
     3
 72
    12
 73
     8
 74
     0
 42
0.0000000001
 43
0.0000000001
 40
0.0
 40
0.0
 40
0.0
 40
0.0
 40
0.2270414180693609
 40
0.4545205376007232
 40
0.6714649260062801
 40
0.8806674473517201
 40
1.0
 40
1.0
 40
1.0
 40
1.0
 10
101.4197698701605
 20
160.2386640065682
 30
0.0
 41
1.0
 10
101.3240166893733
 20
160.2217543566197
 30
0.0
 41
1.0
 10
101.1323257301696
 20
160.1879024574749
 30
0.0
 41
1.0
 10
100.8583846343021
 20
159.9140123440933
 30
0.0
 41
1.0
 10
100.6525170611216
 20
159.513643427815
 30
0.0
 41
1.0
 10
100.5513539887401
 20
159.0971756588418
 30
0.0
 41
1.0
 10
100.5419394581253
 20
158.8341885170933
 30
0.0
 41
1.0
 10
100.5385198537692
 20
158.7386646920216
 30
0.0
 41
1.0
  0
LINE
  5
E00ED90C
330
E00DEA5D
100
AcDbEntity
  8
JISSEN
100
AcDbLine
 10
102.7557075534446
 20
164.7388251039805
 30
0.0
 11
102.3557075534413
 21
164.7388251039841
 31
0.0
  0
LINE
  5
E00ED90D
330
E00DEA5D
100
AcDbEntity
  8
JISSEN
100
AcDbLine
 10
102.6557075534451
 20
164.5388251039834
 30
0.0
 11
102.6557075534451
 21
164.1388251039856
 31
0.0
  0
ARC
  5
E00ED90E
330
E00DEA5D
100
AcDbEntity
  8
JISSEN
100
AcDbCircle
 10
102.4557075534453
 20
164.1388251039856
 30
0.0
 40
0.1999999999999957
100
AcDbArc
 50
270.0
 51
0.0
  0
ARC
  5
E00ED90F
330
E00DEA5D
100
AcDbEntity
  8
JISSEN
100
AcDbCircle
 10
102.4557075534453
 20
164.5388251039834
 30
0.0
 40
0.200000000000017
100
AcDbArc
 50
0.0
 51
90.0
  0
ARC
  5
E00ED910
330
E00DEA5D
100
AcDbEntity
  8
JISSEN
100
AcDbCircle
 10
102.4557075534453
 20
164.1388251039837
 30
0.0
 40
0.1999999999999957
100
AcDbArc
 50
270.0
 51
0.0
  0
LINE
  5
E00ED911
330
E00DEA5D
100
AcDbEntity
  8
JISSEN
100
AcDbLine
 10
102.6557075534451
 20
164.4953400963235
 30
0.0
 11
102.6557075534451
 21
164.1388251039837
 31
0.0
  0
LINE
  5
E00ED912
330
E00DEA5D
100
AcDbEntity
  8
JISSEN
370
    -2
100
AcDbLine
 10
103.3057073969425
 20
161.7386651837708
 30
0.0
 11
103.3057073969425
 21
160.2386640065718
 31
0.0
  0
ARC
  5
E00ED913
330
E00DEA5D
100
AcDbEntity
  8
JISSEN
100
AcDbCircle
 10
107.4156491659418
 20
165.9916683831428
 30
0.0
 40
1.500000000000016
100
AcDbArc
 50
196.9999999999813
 51
270.0
  0
LINE
  5
E00ED914
330
E00DEA5D
100
AcDbEntity
  8
JISSEN
100
AcDbLine
 10
104.7057075534435
 20
165.8584403463459
 30
0.0
 11
104.7057075534444
 21
168.2388251039477
 31
0.0
  0
LINE
  5
E00ED915
330
E00DEA5D
100
AcDbEntity
  8
JISSEN
100
AcDbLine
 10
105.1212504194922
 20
168.3658531011927
 30
0.0
 11
105.9811920320412
 21
165.5531108260923
 31
0.0
  0
ARC
  5
E00ED916
330
E00DEA5D
100
AcDbEntity
  8
JISSEN
100
AcDbCircle
 10
110.305707553442
 20
167.2973189838443
 30
0.0
 40
1.0
100
AcDbArc
 50
180.0
 51
261.999999983285
  0
LINE
  5
E00ED917
330
E00DEA5D
100
AcDbEntity
  8
JISSEN
100
AcDbLine
 10
108.1387099717417
 20
164.491668357073
 30
0.0
 11
108.1505750213423
 21
164.491668357073
 31
0.0
  0
SPLINE
  5
E00ED918
330
E00DEA5D
100
AcDbEntity
  8
JISSEN
100
AcDbSpline
210
0.0
220
0.0
230
1.0
 70
     8
 71
     3
 72
     9
 73
     5
 74
     0
 42
0.0000000001
 43
0.0000000001
 40
0.0
 40
0.0
 40
0.0
 40
0.0
 40
0.5
 40
1.0
 40
1.0
 40
1.0
 40
1.0
 10
108.2439592561272
 20
164.4953401964916
 30
0.0
 10
108.2264738805965
 20
164.4941186466779
 30
0.0
 10
108.1914472746534
 20
164.4922833107097
 30
0.0
 10
108.1563085103648
 20
164.4916683831501
 30
0.0
 10
108.1387108715903
 20
164.4916683831501
 30
0.0
  0
LINE
  5
E00ED919
330
E00DEA5D
100
AcDbEntity
  8
JISSEN
100
AcDbLine
 10
106.555707553442
 20
178.9916683831446
 30
0.0
 11
106.555707553442
 21
169.5859829608447
 31
0.0
  0
LINE
  5
E00ED91A
330
E00DEA5D
100
AcDbEntity
  8
JISSEN
100
AcDbLine
 10
105.055707553442
 20
168.8044106582414
 30
0.0
 11
105.055707553442
 21
174.5819828632424
 31
0.0
  0
LINE
  5
E00ED91B
330
E00DEA5D
100
AcDbEntity
  8
JISSEN
100
AcDbLine
 10
105.055707553442
 20
178.4916683831428
 30
0.0
 11
105.055707553442
 21
173.3861141809933
 31
0.0
  0
LINE
  5
E00ED91C
330
E00DEA5D
100
AcDbEntity
  8
JISSEN
100
AcDbLine
 10
104.7057075534435
 20
171.2388251039477
 30
0.0
 11
105.0057075534427
 21
173.6821290323417
 31
0.0
  0
LINE
  5
E00ED91D
330
E00DEA5D
100
AcDbEntity
  8
JISSEN
100
AcDbLine
 10
105.0057075534427
 20
170.6821290323417
 30
0.0
 11
105.0057075534427
 21
171.2388251039477
 31
0.0
  0
LINE
  5
E00ED91E
330
E00DEA5D
100
AcDbEntity
  8
JISSEN
100
AcDbLine
 10
105.0057075534427
 20
171.2388251039477
 30
0.0
 11
104.7057075534435
 21
171.2388251039477
 31
0.0
  0
LINE
  5
E00ED91F
330
E00DEA5D
100
AcDbEntity
  8
JISSEN
100
AcDbLine
 10
105.055707553442
 20
171.5750016002924
 30
0.0
 11
105.055707553442
 21
168.8044106582923
 31
0.0
  0
LINE
  5
E00ED920
330
E00DEA5D
100
AcDbEntity
  8
JISSEN
100
AcDbLine
 10
104.7057075534435
 20
174.2388251039477
 30
0.0
 11
105.0057075534427
 21
176.6821290323417
 31
0.0
  0
LINE
  5
E00ED921
330
E00DEA5D
100
AcDbEntity
  8
JISSEN
100
AcDbLine
 10
105.0057075534427
 20
174.2388251039477
 30
0.0
 11
104.7057075534435
 21
174.2388251039477
 31
0.0
  0
LINE
  5
E00ED922
330
E00DEA5D
100
AcDbEntity
  8
JISSEN
100
AcDbLine
 10
105.0057075534427
 20
177.2388251039477
 30
0.0
 11
104.7057075534426
 21
177.2388251039477
 31
0.0
  0
LINE
  5
E00ED923
330
E00DEA5D
100
AcDbEntity
  8
JISSEN
100
AcDbLine
 10
104.7057075534425
 20
178.9916683831428
 30
0.0
 11
105.555707553442
 21
178.9916683831428
 31
0.0
  0
LINE
  5
E00ED924
330
E00DEA5D
100
AcDbEntity
  8
JISSEN
100
AcDbLine
 10
105.055707553442
 20
176.3930954439414
 30
0.0
 11
105.055707553442
 21
178.4916683831428
 31
0.0
  0
LINE
  5
E00ED925
330
E00DEA5D
100
AcDbEntity
  8
JISSEN
100
AcDbLine
 10
105.055707553442
 20
178.4916683831428
 30
0.0
 11
105.555707553442
 21
178.9916683831428
 31
0.0
  0
LINE
  5
E00ED926
330
E00DEA5D
100
AcDbEntity
  8
JISSEN
100
AcDbLine
 10
105.555707553442
 20
178.9916683831428
 30
0.0
 11
105.055707553442
 21
178.4916683831428
 31
0.0
  0
LINE
  5
E00ED927
330
E00DEA5D
100
AcDbEntity
  8
JISSEN
100
AcDbLine
 10
106.555707553442
 20
178.9916683831428
 30
0.0
 11
105.555707553442
 21
178.9916683831428
 31
0.0
  0
LINE
  5
E00ED928
330
E00DEA5D
100
AcDbEntity
  8
SUNPOU
100
AcDbLine
 10
115.055707553442
 20
177.4916683831719
 30
0.0
 11
115.055707553442
 21
167.4916683831719
 31
0.0
  0
LINE
  5
E00ED929
330
E00DEA5D
100
AcDbEntity
  8
JISSEN
100
AcDbLine
 10
118.8738719190919
 20
167.4916683831428
 30
0.0
 11
110.4448806543919
 21
166.3070509151433
 31
0.0
  0
ARC
  5
E00ED92A
330
E00DEA5D
100
AcDbEntity
  8
JISSEN
100
AcDbCircle
 10
110.305707553442
 20
167.2973189838443
 30
0.0
 40
1.0
100
AcDbArc
 50
272.3689796090502
 51
278.0000000000406
  0
LINE
  5
E00ED92B
330
E00DEA5D
100
AcDbEntity
  8
JISSEN
100
AcDbLine
 10
124.055707553442
 20
167.4916683831428
 30
0.0
 11
118.8738719190919
 21
167.4916683831428
 31
0.0
  0
LINE
  5
E00ED92C
330
E00DEA5D
100
AcDbEntity
  8
JISSEN
100
AcDbLine
 10
120.1047024904387
 20
166.1499089802558
 30
0.0
 11
123.6258415302695
 21
166.6447728000124
 31
0.0
  0
LINE
  5
E00ED92D
330
E00DEA5D
100
AcDbEntity
  8
JISSEN
100
AcDbLine
 39
240.0520776831561
 10
104.2057075534426
 20
182.7416687053768
 30
0.0
 11
90.05570755344207
 21
182.7416687053731
 31
0.0
  0
LINE
  5
E00ED92E
330
E00DEA5D
100
AcDbEntity
  8
JISSEN
100
AcDbLine
 39
240.0520776831561
 10
75.90570755344152
 20
182.7416687053768
 30
0.0
 11
90.05570755344207
 21
182.7416687053731
 31
0.0
  0
LINE
  5
E00ED92F
330
E00DEA5D
100
AcDbEntity
  8
JISSEN
370
    -2
100
AcDbLine
 10
96.17510222824376
 20
181.2417102121866
 30
0.0
 11
90.05570755344207
 21
181.2417102121866
 31
0.0
  0
SPLINE
  5
E00ED930
330
E00DEA5D
100
AcDbEntity
  8
JISSEN
370
    -2
100
AcDbSpline
210
0.0
220
0.0
230
1.0
 70
    12
 71
     3
 72
    14
 73
    10
 74
     0
 42
0.0000000001
 43
0.0000000001
 40
0.0
 40
0.0
 40
0.0
 40
0.0
 40
0.2170493941225676
 40
0.4388311995732112
 40
0.5988137766302898
 40
0.7597871991591737
 40
0.8750649674182215
 40
0.9755548291618868
 40
1.0
 40
1.0
 40
1.0
 40
1.0
 10
93.59616291708652
 20
181.2417102122266
 30
0.0
 41
1.0
 10
93.83652540676894
 20
181.2357446606541
 30
0.0
 41
1.0
 10
94.32249110184192
 20
181.2236834882963
 30
0.0
 41
1.0
 10
94.96312268903739
 20
181.0944939978538
 30
0.0
 41
1.0
 10
95.50005748772901
 20
180.8585709403154
 30
0.0
 41
1.0
 10
95.87186506456374
 20
180.5525106316775
 30
0.0
 41
1.0
 10
96.09364794174007
 20
180.187630395066
 30
0.0
 41
1.0
 10
96.16036729704639
 20
179.9140471376734
 30
0.0
 41
1.0
 10
96.16375520690462
 20
179.7699119067614
 30
0.0
 41
1.0
 10
96.16441809571689
 20
179.7417099663574
 30
0.0
 41
1.0
  0
LINE
  5
E00ED931
330
E00DEA5D
100
AcDbEntity
  8
NITEN
100
AcDbLine
 10
77.55570755344206
 20
195.0416687184709
 30
0.0
 11
102.555707553442
 21
195.0416687184709
 31
0.0
  0
LINE
  5
E00ED932
330
E00DEA5D
100
AcDbEntity
  8
JISSEN
100
AcDbLine
 10
99.05570755344207
 20
206.041668718471
 30
0.0
 11
90.05570755344207
 21
206.041668718471
 31
0.0
  0
LINE
  5
E00ED933
330
E00DEA5D
100
AcDbEntity
  8
JISSEN
100
AcDbLine
 10
100.3178043275424
 20
204.7795719442741
 30
0.0
 11
90.05570755344207
 21
204.7795719442741
 31
0.0
  0
LINE
  5
E00ED934
330
E00DEA5D
100
AcDbEntity
  8
NITEN
100
AcDbLine
 10
99.05570755344207
 20
195.0416687184709
 30
0.0
 11
90.05570755344207
 21
195.0416687184709
 31
0.0
  0
LINE
  5
E00ED937
330
E00DEA5D
100
AcDbEntity
  8
JISSEN
100
AcDbLine
 10
101.3396821496576
 20
190.2416687184717
 30
0.0
 11
90.05570755344207
 21
190.2416687184717
 31
0.0
  0
LINE
  5
E00ED938
330
E00DEA5D
100
AcDbEntity
  8
SAISEN
100
AcDbLine
 10
80.55769843544522
 20
192.0416687184782
 30
0.0
 11
80.993268996825
 21
205.9792301595165
 31
0.0
  0
LINE
  5
E00ED939
330
E00DEA5D
100
AcDbEntity
  8
SAISEN
100
AcDbLine
 10
80.55769843544522
 20
192.0416687184746
 30
0.0
 11
80.993268996825
 21
205.9792301595129
 31
0.0
  0
LINE
  5
E00ED93A
330
E00DEA5D
100
AcDbEntity
  8
NITEN
100
AcDbLine
 10
77.05570755344206
 20
211.8470191322061
 30
0.0
 11
77.05570755344251
 21
195.5416687184709
 31
0.0
  0
LINE
  5
E00ED93B
330
E00DEA5D
100
AcDbEntity
  8
JISSEN
100
AcDbLine
 10
79.79361077934163
 20
204.7795719442741
 30
0.0
 11
79.33930130349153
 21
190.2416687184717
 31
0.0
  0
ARC
  5
E00ED93C
330
E00DEA5D
100
AcDbEntity
  8
JISSEN
370
    -2
100
AcDbCircle
 10
83.74124335484111
 20
179.6043322036852
 30
0.0
 40
1.648956901138485
100
AcDbArc
 50
83.20607180967957
 51
175.2210394254883
  0
LINE
  5
E00ED93E
330
E00DEA5D
100
AcDbEntity
  8
JISSEN
100
AcDbLine
 10
78.7717329572265
 20
190.2416687184717
 30
0.0
 11
90.05570755344207
 21
190.2416687184717
 31
0.0
  0
LINE
  5
E00ED947
330
E00DEA5D
100
AcDbEntity
  8
SAISEN
100
AcDbLine
 10
75.90570755344152
 20
182.7416687053768
 30
0.0
 11
75.90570755344242
 21
183.7416687184735
 31
0.0
  0
LINE
  5
E00ED948
330
E00DEA5D
100
AcDbEntity
  8
JISSEN
100
AcDbLine
 10
75.40570755344152
 20
182.7416687053731
 30
0.0
 11
75.90570755344152
 21
182.7416687053731
 31
0.0
  0
ARC
  5
E00ED94B
330
E00DEA5D
100
AcDbEntity
  8
NITEN
100
AcDbCircle
 10
77.55570755344206
 20
195.5416687184709
 30
0.0
 40
0.5
100
AcDbArc
 50
180.0
 51
270.0
  0
LINE
  5
E00ED94C
330
E00DEA5D
100
AcDbEntity
  8
JISSEN
370
    -2
100
AcDbLine
 10
83.93631287864037
 20
181.2417102121866
 30
0.0
 11
90.05570755344207
 21
181.2417102121866
 31
0.0
  0
SPLINE
  5
E00ED94F
330
E00DEA5D
100
AcDbEntity
  8
JISSEN
370
    -2
100
AcDbSpline
210
0.0
220
0.0
230
1.0
 70
    12
 71
     3
 72
    14
 73
    10
 74
     0
 42
0.0000000001
 43
0.0000000001
 40
0.0
 40
0.0
 40
0.0
 40
0.0
 40
0.2170493941225676
 40
0.4388311995732112
 40
0.5988137766302898
 40
0.7597871991591737
 40
0.8750649674182215
 40
0.9755548291618868
 40
1.0
 40
1.0
 40
1.0
 40
1.0
 10
86.5152521897976
 20
181.2417102122266
 30
0.0
 41
1.0
 10
86.27488970011517
 20
181.2357446606541
 30
0.0
 41
1.0
 10
85.78892400504219
 20
181.2236834882963
 30
0.0
 41
1.0
 10
85.14829241784672
 20
181.0944939978538
 30
0.0
 41
1.0
 10
84.61135761915512
 20
180.8585709403154
 30
0.0
 41
1.0
 10
84.23955004232039
 20
180.5525106316775
 30
0.0
 41
1.0
 10
84.01776716514405
 20
180.187630395066
 30
0.0
 41
1.0
 10
83.95104780983775
 20
179.9140471376734
 30
0.0
 41
1.0
 10
83.94765989997949
 20
179.7699119067614
 30
0.0
 41
1.0
 10
83.94699701116724
 20
179.7417099663574
 30
0.0
 41
1.0
  0
LINE
  5
E00ED954
330
E00DEA5D
100
AcDbEntity
  8
JISSEN
100
AcDbLine
 10
79.79361077934163
 20
204.7795719442741
 30
0.0
 11
90.05570755344207
 21
204.7795719442741
 31
0.0
  0
LINE
  5
E00ED955
330
E00DEA5D
100
AcDbEntity
  8
JISSEN
100
AcDbLine
 10
81.05570755344206
 20
206.041668718471
 30
0.0
 11
90.05570755344207
 21
206.041668718471
 31
0.0
  0
LINE
  5
E00ED956
330
E00DEA5D
100
AcDbEntity
  8
JISSEN
100
AcDbLine
 10
81.05570755344206
 20
206.041668718471
 30
0.0
 11
79.79361077934163
 21
204.7795719442741
 31
0.0
  0
LINE
  5
E00ED957
330
E00DEA5D
100
AcDbEntity
  8
NITEN
100
AcDbLine
 10
76.92409942561153
 20
212.1850833694746
 30
0.0
 11
70.76897638126047
 21
218.892380538998
 31
0.0
  0
ARC
  5
E00ED958
330
E00DEA5D
100
AcDbEntity
  8
NITEN
100
AcDbCircle
 10
71.0557075534416
 20
219.3019964992576
 30
0.0
 40
0.5
100
AcDbArc
 50
180.0
 51
235.0079798014486
  0
ARC
  5
E00ED959
330
E00DEA5D
100
AcDbEntity
  8
NITEN
100
AcDbCircle
 10
76.55570755344161
 20
211.8470191322061
 30
0.0
 40
0.5
100
AcDbArc
 50
0.0
 51
42.5418441566224
  0
LINE
  5
E00ED95A
330
E00DEA5D
100
AcDbEntity
  8
NITEN
100
AcDbLine
 10
103.0557075534425
 20
211.8470191322061
 30
0.0
 11
103.055707553442
 21
195.5416687184709
 31
0.0
  0
LINE
  5
E00ED95B
330
E00DEA5D
100
AcDbEntity
  8
JISSEN
100
AcDbLine
 10
100.3178043275424
 20
204.7795719442741
 30
0.0
 11
100.7721138033925
 21
190.2416687184717
 31
0.0
  0
LINE
  5
E00ED95C
330
E00DEA5D
100
AcDbEntity
  8
SAISEN
100
AcDbLine
 10
99.55371667143891
 20
192.0416687184746
 30
0.0
 11
99.11814611005912
 21
205.9792301595129
 31
0.0
  0
LINE
  5
E00ED95D
330
E00DEA5D
100
AcDbEntity
  8
SAISEN
100
AcDbLine
 10
99.55371667143891
 20
192.0416687184782
 30
0.0
 11
99.11814611005912
 21
205.9792301595165
 31
0.0
  0
ARC
  5
E00ED95F
330
E00DEA5D
100
AcDbEntity
  8
JISSEN
370
    -2
100
AcDbCircle
 10
96.37017175204301
 20
179.6043322036852
 30
0.0
 40
1.648956901138485
100
AcDbArc
 50
4.778960574511654
 51
96.7939281903204
  0
LINE
  5
E00ED965
330
E00DEA5D
100
AcDbEntity
  8
SAISEN
100
AcDbLine
 10
104.2057075534426
 20
182.7416687053768
 30
0.0
 11
104.2057075534416
 21
183.7416687184735
 31
0.0
  0
LINE
  5
E00ED966
330
E00DEA5D
100
AcDbEntity
  8
JISSEN
100
AcDbLine
 10
104.7057075534426
 20
182.7416687053731
 30
0.0
 11
104.2057075534426
 21
182.7416687053731
 31
0.0
  0
ARC
  5
E00ED96A
330
E00DEA5D
100
AcDbEntity
  8
NITEN
100
AcDbCircle
 10
102.5557075534416
 20
195.5416687184709
 30
0.0
 40
0.5
100
AcDbArc
 50
270.0
 51
0.0
  0
LINE
  5
E00ED96B
330
E00DEA5D
100
AcDbEntity
  8
JISSEN
100
AcDbLine
 10
99.05570755344207
 20
206.041668718471
 30
0.0
 11
100.3178043275424
 21
204.7795719442741
 31
0.0
  0
LINE
  5
E00ED96C
330
E00DEA5D
100
AcDbEntity
  8
NITEN
100
AcDbLine
 10
103.1873156812725
 20
212.1850833694746
 30
0.0
 11
109.3424387256236
 21
218.892380538998
 31
0.0
  0
ARC
  5
E00ED96D
330
E00DEA5D
100
AcDbEntity
  8
NITEN
100
AcDbCircle
 10
103.555707553442
 20
211.8470191322061
 30
0.0
 40
0.5
100
AcDbArc
 50
137.4581558433775
 51
180.0
  0
ARC
  5
E00ED96E
330
E00DEA5D
100
AcDbEntity
  8
NITEN
100
AcDbCircle
 10
109.0557075534416
 20
219.3019964992576
 30
0.0
 40
0.5
100
AcDbArc
 50
304.9920201985514
 51
0.0
  0
SPLINE
  5
E00ED96F
330
E00DEA5D
100
AcDbEntity
  8
SUNPOU
100
AcDbSpline
210
0.0
220
0.0
230
1.0
 70
     8
 71
     3
 72
    11
 73
     7
 74
     5
 42
0.0000000001
 43
0.0000000001
 44
0.0000000001
 40
0.0
 40
0.0
 40
0.0
 40
0.0
 40
3.264692203133994
 40
6.15697472568029
 40
8.955271668736928
 40
10.85738683396026
 40
10.85738683396026
 40
10.85738683396026
 40
10.85738683396026
 10
147.1075756580708
 20
177.4916683831719
 30
0.0
 10
146.4324749697844
 20
176.4902694319667
 30
0.0
 10
145.1592836192864
 20
174.6017030222531
 30
0.0
 10
147.4251283356306
 20
171.7503319891838
 30
0.0
 10
145.222011169074
 20
169.1240014914428
 30
0.0
 10
146.5643653598081
 20
167.9619255182539
 30
0.0
 10
147.1075756580708
 20
167.4916683831719
 30
0.0
 11
147.1075756580708
 21
177.4916683831719
 31
0.0
 11
145.8782352805069
 21
174.4672779623937
 31
0.0
 11
146.6504187344767
 21
171.6799798255518
 31
0.0
 11
145.9211122026686
 21
168.9783918176975
 31
0.0
 11
147.1075756580708
 21
167.4916683831719
 31
0.0
  0
LINE
  5
E00ED970
330
E00DEA5D
100
AcDbEntity
  8
JISSEN
100
AcDbLine
 10
122.9999997733302
 20
268.0000001783795
 30
0.0
 11
180.9999994113304
 21
268.0000001783795
 31
0.0
  0
LINE
  5
E00ED971
330
E00DEA5D
100
AcDbEntity
  8
JISSEN
100
AcDbLine
 10
122.9999997733302
 20
263.0000001783795
 30
0.0
 11
180.9999994113304
 21
263.0000001783795
 31
0.0
  0
LINE
  5
E00ED972
330
E00DEA5D
100
AcDbEntity
  8
JISSEN
100
AcDbLine
 10
122.9999997733302
 20
258.0000001783795
 30
0.0
 11
180.9999994113304
 21
258.0000001783795
 31
0.0
  0
LINE
  5
E00ED973
330
E00DEA5D
100
AcDbEntity
  8
JISSEN
100
AcDbLine
 10
122.9999997733302
 20
258.0000001783795
 30
0.0
 11
122.9999997733302
 21
273.0000001783795
 31
0.0
  0
LINE
  5
E00ED974
330
E00DEA5D
100
AcDbEntity
  8
NITEN
100
AcDbLine
 10
109.055707553442
 20
237.041668718471
 30
0.0
 11
71.05570755344206
 21
237.041668718471
 31
0.0
  0
ELLIPSE
  5
E00ED975
330
E00DEA5D
100
AcDbEntity
  8
NITEN
100
AcDbEllipse
 10
98.55570755344206
 20
251.8456572428725
 30
0.0
 11
-8.499999999999985
 21
0.0
 31
0.0
210
0.0
220
0.0
230
1.0
 40
0.2352941176470057
 41
0.0
 42
6.283185307179586
  0
LINE
  5
E00ED976
330
E00DEA5D
100
AcDbEntity
  8
NITEN
100
AcDbLine
 10
73.05570755344206
 20
237.041668718471
 30
0.0
 11
73.05570755344206
 21
251.8456572428725
 31
0.0
  0
ARC
  5
E00ED977
330
E00DEA5D
100
AcDbEntity
  8
NITEN
100
AcDbCircle
 10
71.0557075534416
 20
236.5416687184709
 30
0.0
 40
0.5
100
AcDbArc
 50
90.0
 51
180.0
  0
ELLIPSE
  5
E00ED978
330
E00DEA5D
100
AcDbEntity
  8
NITEN
100
AcDbEllipse
 10
81.55570755344205
 20
251.8456572428725
 30
0.0
 11
-8.5
 21
0.0
 31
0.0
210
0.0
220
0.0
230
1.0
 40
0.2352941176470588
 41
3.141592653589793
 42
6.283185307179586
  0
LINE
  5
E00ED979
330
E00DEA5D
100
AcDbEntity
  8
NITEN
100
AcDbLine
 10
107.055707553442
 20
237.041668718471
 30
0.0
 11
107.055707553442
 21
251.8456572428725
 31
0.0
  0
ARC
  5
E00ED97A
330
E00DEA5D
100
AcDbEntity
  8
NITEN
100
AcDbCircle
 10
109.0557075534416
 20
236.5416687184709
 30
0.0
 40
0.5
100
AcDbArc
 50
0.0
 51
90.0
  0
TEXT
  5
E00ED97B
330
E00DEA5D
100
AcDbEntity
  8
TEXT
100
AcDbText
 10
127.6428569161874
 20
263.9370849667033
 30
0.0
 40
3.0
  1
1
  7
K
 72
     4
 11
127.9999997733302
 21
265.4370849667033
 31
0.0
100
AcDbText
  0
TEXT
  5
E00ED97C
330
E00DEA5D
100
AcDbEntity
  8
TEXT
100
AcDbText
 10
133.9495665142721
 20
263.8900037657774
 30
0.0
 40
3.0
  1
スプリンクラーヘッド
 41
0.8
  7
K
 72
     4
 11
147.9495665142722
 21
265.4900037657774
 31
0.0
100
AcDbText
  0
LINE
  5
E00ED97D
330
E00DEA5D
100
AcDbEntity
  8
JISSEN
100
AcDbLine
 10
162.9999994113304
 20
273.0000001783795
 30
0.0
 11
162.9999994113304
 21
258.0000001783795
 31
0.0
  0
LINE
  5
E00ED97E
330
E00DEA5D
100
AcDbEntity
  8
JISSEN
100
AcDbLine
 10
132.9999994113304
 20
273.0000001783795
 30
0.0
 11
132.9999994113304
 21
258.0000001783795
 31
0.0
  0
TEXT
  5
E00ED97F
330
E00DEA5D
100
AcDbEntity
  8
TEXT
100
AcDbText
 10
126.9999997733302
 20
258.9370849667033
 30
0.0
 40
3.0
  1
2
  7
K
 72
     4
 11
127.9999997733302
 21
260.4370849667033
 31
0.0
100
AcDbText
  0
TEXT
  5
E00ED980
330
E00DEA5D
100
AcDbEntity
  8
TEXT
100
AcDbText
 10
143.5395665142721
 20
258.8900037657774
 30
0.0
 40
3.0
  1
ガード
 41
0.9
  7
K
 72
     4
 11
147.9495665142722
 21
260.4900037657774
 31
0.0
100
AcDbText
  0
TEXT
  5
E00ED981
330
E00DEA5D
100
AcDbEntity
  8
TEXT
100
AcDbText
 10
141.3423042351716
 20
268.932190623162
 30
0.0
 40
3.0
  1
名　　称
  7
K
 72
     4
 11
148.1423042351716
 21
270.432190623162
 31
0.0
100
AcDbText
  0
TEXT
  5
E00ED982
330
E00DEA5D
100
AcDbEntity
  8
TEXT
100
AcDbText
 10
124.7999994113304
 20
269.0382148668853
 30
0.0
 40
3.0
  1
番号
  7
K
 72
     4
 11
127.9999994113304
 21
270.5382148668853
 31
0.0
100
AcDbText
  0
TEXT
  5
E00ED983
330
E00DEA5D
100
AcDbEntity
  8
TEXT
100
AcDbText
 10
167.030893005055
 20
268.9731310272003
 30
0.0
 40
3.0
  1
備　考
  7
K
 72
     4
 11
172.030893005055
 21
270.4731310272003
 31
0.0
100
AcDbText
  0
LINE
  5
E00ED984
330
E00DEA5D
100
AcDbEntity
  8
JISSEN
 48
0.1
100
AcDbLine
 39
1680.364539346804
 10
275.4307068294419
 20
42.26880263115458
 30
0.0
 11
275.4307068294365
 21
41.7688026311564
 31
0.0
  0
LINE
  5
E00ED985
330
E00DEA5D
100
AcDbEntity
  8
JISSEN
 48
0.1
100
AcDbLine
 39
1680.364539346804
 10
277.0557068294838
 20
41.76880263115276
 30
0.0
 11
277.0557068294678
 21
40.26880263115276
 31
0.0
  0
LINE
  5
E00ED986
330
E00DEA5D
100
AcDbEntity
  8
JISSEN
 48
0.1
100
AcDbLine
 39
1680.364539346804
 10
274.5557068295111
 20
44.26880263115276
 30
0.0
 11
274.5557068294892
 21
42.26880263115276
 31
0.0
  0
LINE
  5
E00ED987
330
E00DEA5D
100
AcDbEntity
  8
JISSEN
100
AcDbLine
 39
1680.364539346804
 10
265.055706829416
 20
40.2688026311655
 30
0.0
 11
266.4057068294423
 21
40.26880263116004
 31
0.0
  0
LINE
  5
E00ED988
330
E00DEA5D
100
AcDbEntity
  8
JISSEN
 48
0.1
100
AcDbLine
 39
1680.364539346804
 10
267.5557068293728
 20
44.26880263115276
 30
0.0
 11
267.5557068293946
 21
42.26880263115276
 31
0.0
  0
LINE
  5
E00ED989
330
E00DEA5D
100
AcDbEntity
  8
JISSEN
 48
0.1
100
AcDbLine
 39
1680.364539346804
 10
265.0557068294001
 20
41.76880263115276
 30
0.0
 11
265.055706829416
 21
40.26880263115276
 31
0.0
  0
LINE
  5
E00ED98A
330
E00DEA5D
100
AcDbEntity
  8
JISSEN
 48
0.1
100
AcDbLine
 39
1680.364539346804
 10
266.6807068294419
 20
42.26880263115458
 30
0.0
 11
266.6807068294474
 21
41.7688026311564
 31
0.0
  0
LINE
  5
E00ED98B
330
E00DEA5D
100
AcDbEntity
  8
JISSEN
100
AcDbLine
 39
1680.364539346804
 10
280.4307068294383
 20
38.16880258671449
 30
0.0
 11
279.1807068294374
 21
38.16880258671449
 31
0.0
  0
LINE
  5
E00ED98C
330
E00DEA5D
100
AcDbEntity
  8
JISSEN
100
AcDbLine
 39
1680.364539346804
 10
262.8529845463426
 20
38.16880258671449
 30
0.0
 11
264.1029845463435
 21
38.16880258671449
 31
0.0
  0
LINE
  5
E00ED98D
330
E00DEA5D
100
AcDbEntity
  8
JISSEN
100
AcDbLine
 10
305.0557086771914
 20
52.21797419711333
 30
0.0
 11
271.055706829442
 21
52.21797419711333
 31
0.0
  0
LINE
  5
E00ED98E
330
E00DEA5D
100
AcDbEntity
  8
JISSEN
100
AcDbLine
 10
289.3318322673077
 20
49.2216459102649
 30
0.0
 11
301.1047017662513
 21
50.8762148164908
 31
0.0
  0
ARC
  5
E00ED98F
330
E00DEA5D
100
AcDbEntity
  8
JISSEN
100
AcDbCircle
 10
307.3057068294419
 20
37.21797419711333
 30
0.0
 40
15.0
100
AcDbArc
 50
114.4186184442967
 51
180.0
  0
HATCH
  5
E00ED990
330
E00DEA5D
100
AcDbEntity
  8
SUNPOU
100
AcDbHatch
 10
0.0
 20
0.0
 30
0.0
210
0.0
220
0.0
230
1.0
  2
ANSI31
 70
     0
 71
     0
 91
        2
 92
        5
 93
        5
 72
     1
 10
271.055706829442
 20
62.21797419711345
 11
214.0038387248143
 21
62.21797419711163
 72
     4
 94
        3
 73
     0
 74
     0
 95
       11
 96
        7
 40
0.0
 40
0.0
 40
0.0
 40
0.0
 40
3.264692203133994
 40
6.15697472568029
 40
8.955271668736928
 40
10.85738683396026
 40
10.85738683396026
 40
10.85738683396026
 40
10.85738683396026
 10
214.0038387248132
 20
62.21797419711345
 10
214.6789394131001
 20
61.21657524590716
 10
215.9521307635977
 20
59.32800883619472
 10
213.6862860472538
 20
56.47663780312484
 10
215.8894032138105
 20
53.85030730538471
 10
214.5470490230763
 20
52.68823133219427
 10
214.0038387248132
 20
52.21797419711345
 72
     1
 10
214.0038387248137
 20
52.21797419711345
 11
238.5557068293662
 21
52.21797419711345
 72
     1
 10
238.555706829366
 20
52.21797419711345
 11
271.055706829442
 21
52.21797419711345
 72
     1
 10
271.055706829442
 20
52.21797419711345
 11
271.055706829442
 21
62.21797419711527
 97
        0
 92
        5
 93
        5
 72
     4
 94
        3
 73
     0
 74
     0
 95
       11
 96
        7
 40
0.0
 40
0.0
 40
0.0
 40
0.0
 40
1.902115165223333
 40
4.700412108279971
 40
7.592694630826267
 40
10.85738683396026
 40
10.85738683396026
 40
10.85738683396026
 40
10.85738683396026
 10
328.1075749340707
 20
52.21797419711345
 10
327.5643646358084
 20
52.68823133219427
 10
326.2220104450743
 20
53.85030730538471
 10
328.425127611631
 20
56.47663780312484
 10
326.1592828952866
 20
59.32800883619472
 10
327.4324742457847
 20
61.21657524590716
 10
328.1075749340707
 20
62.21797419711345
 72
     1
 10
328.1075749340698
 20
62.21797419711163
 11
271.0557068294424
 21
62.21797419711527
 72
     1
 10
271.055706829442
 20
62.21797419711345
 11
271.055706829442
 21
52.21797419711163
 72
     1
 10
271.055706829442
 20
52.21797419711345
 11
303.5557068295179
 21
52.21797419711345
 72
     1
 10
303.5557068295184
 20
52.21797419711345
 11
328.1075749340711
 21
52.21797419711345
 97
        0
 75
     0
 76
     1
 52
0.0
 41
10.0
 77
     0
 78
     1
 53
45.0
 43
185.0253228836386
 44
-2520.445078698
 45
-0.8838834764831842
 46
0.8838834764831844
 79
     0
 47
0.0883306502300457
 98
        2
 10
256.9824998416856
 20
61.33749188505987
 10
287.1162310294998
 20
56.92095839214687
  0
ARC
  5
E00ED991
330
E00DEA5D
100
AcDbEntity
  8
JISSEN
100
AcDbCircle
 10
238.7941465515923
 20
53.20682571906331
 30
0.0
 40
1.999999999999985
100
AcDbArc
 50
209.6318914940861
 51
262.0000000000055
  0
LINE
  5
E00ED992
330
E00DEA5D
100
AcDbEntity
  8
JISSEN
100
AcDbLine
 10
238.5157989865419
 20
51.22628957961319
 30
0.0
 11
241.0067124819925
 21
50.87621473706281
 31
0.0
  0
ARC
  5
E00ED993
330
E00DEA5D
100
AcDbEntity
  8
JISSEN
100
AcDbCircle
 10
234.8057068294419
 20
37.21797419711333
 30
0.0
 40
15.0
100
AcDbArc
 50
0.0
 51
65.58138155570325
  0
ARC
  5
E00ED994
330
E00DEA5D
100
AcDbEntity
  8
JISSEN
100
AcDbCircle
 39
240.0520776831561
 10
279.1807068294374
 20
38.36880258671522
 30
0.0
 40
0.2000000000007276
100
AcDbArc
 50
180.0
 51
270.0
  0
ARC
  5
E00ED995
330
E00DEA5D
100
AcDbEntity
  8
JISSEN
100
AcDbCircle
 39
240.0520776831561
 10
280.4307068294374
 20
38.36880258671522
 30
0.0
 40
0.2000000000007276
100
AcDbArc
 50
270.0
 51
0.0
  0
ARC
  5
E00ED996
330
E00DEA5D
100
AcDbEntity
  8
JISSEN
100
AcDbCircle
 39
240.0520776831561
 10
262.8529845463436
 20
38.36880258671522
 30
0.0
 40
0.2000000000007276
100
AcDbArc
 50
180.0
 51
270.0
  0
ARC
  5
E00ED997
330
E00DEA5D
100
AcDbEntity
  8
JISSEN
100
AcDbCircle
 39
240.0520776831561
 10
264.1029845463435
 20
38.36880258671522
 30
0.0
 40
0.2000000000007276
100
AcDbArc
 50
270.0
 51
0.0
  0
LINE
  5
E00ED998
330
E00DEA5D
100
AcDbEntity
  8
JISSEN
100
AcDbLine
 10
265.0557068294001
 20
41.76880263115094
 30
0.0
 11
266.6807068294478
 21
41.76880263115276
 31
0.0
  0
LINE
  5
E00ED999
330
E00DEA5D
100
AcDbEntity
  8
JISSEN
100
AcDbLine
 10
266.2628875593927
 20
39.06880258671595
 30
0.0
 11
265.3971188414416
 21
38.36880258671522
 31
0.0
  0
LINE
  5
E00ED99A
330
E00DEA5D
100
AcDbEntity
  8
JISSEN
100
AcDbLine
 10
267.2450457307913
 20
40.26880258671485
 30
0.0
 11
263.5277327035419
 21
40.26880258671485
 31
0.0
  0
LINE
  5
E00ED99B
330
E00DEA5D
100
AcDbEntity
  8
JISSEN
100
AcDbLine
 10
269.5557068163925
 20
39.06880258671595
 30
0.0
 11
263.5277327035419
 21
39.06880258671595
 31
0.0
  0
LINE
  5
E00ED99C
330
E00DEA5D
100
AcDbEntity
  8
JISSEN
100
AcDbLine
 10
269.5557068163925
 20
49.2216459102649
 30
0.0
 11
252.7795813915761
 21
49.22164591026501
 31
0.0
  0
LINE
  5
E00ED99D
330
E00DEA5D
100
AcDbEntity
  8
JISSEN
100
AcDbLine
 10
251.305705920442
 20
26.4179738245632
 30
0.0
 11
271.055706829442
 21
26.4179738245632
 31
0.0
  0
LINE
  5
E00ED99E
330
E00DEA5D
100
AcDbEntity
  8
JISSEN
100
AcDbLine
 10
251.3627512907914
 20
29.41797431631425
 30
0.0
 11
269.5557068163925
 21
29.41797431631425
 31
0.0
  0
LINE
  5
E00ED99F
330
E00DEA5D
100
AcDbEntity
  8
JISSEN
100
AcDbLine
 10
253.805707261592
 20
29.41797431631425
 30
0.0
 11
253.805707261592
 21
49.21908081506376
 31
0.0
  0
LINE
  5
E00ED9A0
330
E00DEA5D
100
AcDbEntity
  8
JISSEN
100
AcDbLine
 10
249.8057066059427
 20
27.91797419711406
 30
0.0
 11
249.8057066059427
 21
37.21797453236399
 31
0.0
  0
SPLINE
  5
E00ED9A1
330
E00DEA5D
100
AcDbEntity
  8
JISSEN
100
AcDbSpline
210
0.0
220
0.0
230
1.0
 70
     8
 71
     3
 72
     9
 73
     5
 74
     0
 42
0.0000000001
 43
0.0000000001
 40
0.0
 40
0.0
 40
0.0
 40
0.0
 40
0.5
 40
1.0
 40
1.0
 40
1.0
 40
1.0
 10
251.3627512361272
 20
29.41797419709223
 30
0.0
 10
251.3532632203505
 20
29.41797419709223
 30
0.0
 10
251.3342678915178
 20
29.41779520768
 30
0.0
 10
251.3152337096271
 20
29.4172558417315
 30
0.0
 10
251.3057068294356
 20
29.4168953598612
 30
0.0
  0
SPLINE
  5
E00ED9A2
330
E00DEA5D
100
AcDbEntity
  8
JISSEN
100
AcDbSpline
210
0.0
220
0.0
230
1.0
 70
     8
 71
     3
 72
    16
 73
    12
 74
     0
 42
0.0000000001
 43
0.0000000001
 40
0.0
 40
0.0
 40
0.0
 40
0.0
 40
0.249999999999999
 40
0.249999999999999
 40
0.3749999999999985
 40
0.3749999999999985
 40
0.4999999999999981
 40
0.4999999999999981
 40
0.7499999999999991
 40
0.7499999999999991
 40
1.0
 40
1.0
 40
1.0
 40
1.0
 10
251.3057068294356
 20
29.4168953598612
 30
0.0
 10
251.0648629967172
 20
29.40778221544792
 30
0.0
 10
250.8357669902343
 20
29.34054749265965
 30
0.0
 10
250.5449658096413
 20
29.1902229600812
 30
0.0
 10
250.4560886769468
 20
29.13170936657593
 30
0.0
 10
250.2984831277653
 20
29.00609950046714
 30
0.0
 10
250.2284516315258
 20
28.93825198978197
 30
0.0
 10
250.0418969657185
 20
28.72232337328864
 30
0.0
 10
249.9539649529979
 20
28.56930279102494
 30
0.0
 10
249.8348824233935
 20
28.24852137289894
 30
0.0
 10
249.8057068294356
 20
28.08229210851391
 30
0.0
 10
249.8057068294356
 20
27.91797419709223
 30
0.0
  0
ARC
  5
E00ED9A3
330
E00DEA5D
100
AcDbEntity
  8
JISSEN
100
AcDbCircle
 10
251.3057068294419
 20
27.91797419711406
 30
0.0
 40
1.5
100
AcDbArc
 50
180.0
 51
270.0
  0
LINE
  5
E00ED9A4
330
E00DEA5D
100
AcDbEntity
  8
JISSEN
100
AcDbLine
 10
252.7795813915761
 20
49.22164591026501
 30
0.0
 11
241.0067118926326
 21
50.8762148164908
 31
0.0
  0
LINE
  5
E00ED9A5
330
E00DEA5D
100
AcDbEntity
  8
JISSEN
100
AcDbLine
 10
264.177984546342
 20
49.21797419710981
 30
0.0
 11
264.1779845463415
 21
40.26513087355977
 31
0.0
  0
LINE
  5
E00ED9A6
330
E00DEA5D
100
AcDbEntity
  8
JISSEN
100
AcDbLine
 10
262.7779845463419
 20
40.26513087355977
 30
0.0
 11
262.7779845463424
 21
49.21797419710981
 31
0.0
  0
LINE
  5
E00ED9A7
330
E00DEA5D
100
AcDbEntity
  8
JISSEN
100
AcDbLine
 10
262.3689549277933
 20
39.06880258671595
 30
0.0
 11
262.0188534025419
 21
39.06880258671595
 31
0.0
  0
LINE
  5
E00ED9A8
330
E00DEA5D
100
AcDbEntity
  8
JISSEN
100
AcDbLine
 10
262.3689549277933
 20
40.26880258671485
 30
0.0
 11
262.0188534025419
 21
40.26880258671485
 31
0.0
  0
LINE
  5
E00ED9A9
330
E00DEA5D
100
AcDbEntity
  8
JISSEN
100
AcDbLine
 10
265.3971188414416
 20
38.36880258671522
 30
0.0
 11
262.0188534025419
 21
38.36880258671522
 31
0.0
  0
LINE
  5
E00ED9AA
330
E00DEA5D
100
AcDbEntity
  8
JISSEN
100
AcDbLine
 10
262.0188534025419
 20
38.36880258671522
 30
0.0
 11
262.0188534025419
 21
39.06880258671595
 31
0.0
  0
LINE
  5
E00ED9AB
330
E00DEA5D
100
AcDbEntity
  8
JISSEN
100
AcDbLine
 10
262.0188534025419
 20
40.26880258671485
 30
0.0
 11
262.0188534025419
 21
39.56880258671594
 31
0.0
  0
LINE
  5
E00ED9AC
330
E00DEA5D
100
AcDbEntity
  8
JISSEN
100
AcDbLine
 10
260.5188534025419
 20
38.36880258671522
 30
0.0
 11
260.5188534025419
 21
39.06880258671595
 31
0.0
  0
LINE
  5
E00ED9AD
330
E00DEA5D
100
AcDbEntity
  8
JISSEN
100
AcDbLine
 10
259.691288674543
 20
40.26880258671485
 30
0.0
 11
259.691288674543
 21
39.06880258671595
 31
0.0
  0
LINE
  5
E00ED9AE
330
E00DEA5D
100
AcDbEntity
  8
JISSEN
100
AcDbLine
 10
260.5188534025419
 20
40.26880258671485
 30
0.0
 11
260.5188534025419
 21
39.56880258671594
 31
0.0
  0
LINE
  5
E00ED9AF
330
E00DEA5D
100
AcDbEntity
  8
JISSEN
100
AcDbLine
 10
260.5188534025419
 20
39.06880258671595
 30
0.0
 11
259.691288674543
 21
39.06880258671595
 31
0.0
  0
LINE
  5
E00ED9B0
330
E00DEA5D
100
AcDbEntity
  8
JISSEN
100
AcDbLine
 10
260.5188534025419
 20
40.26880258671485
 30
0.0
 11
259.691288674543
 21
40.26880258671485
 31
0.0
  0
LINE
  5
E00ED9B1
330
E00DEA5D
100
AcDbEntity
  8
JISSEN
100
AcDbLine
 10
262.0188534025419
 20
38.36880258671522
 30
0.0
 11
260.5188534025419
 21
38.36880258671522
 31
0.0
  0
LINE
  5
E00ED9B2
330
E00DEA5D
100
AcDbEntity
  8
JISSEN
100
AcDbLine
 10
260.5188534025419
 20
39.56880258671594
 30
0.0
 11
262.0188534025419
 21
39.56880258671594
 31
0.0
  0
LINE
  5
E00ED9B3
330
E00DEA5D
100
AcDbEntity
  8
JISSEN
100
AcDbLine
 10
262.0188534025419
 20
40.26880258671485
 30
0.0
 11
260.5188534025419
 21
40.26880258671485
 31
0.0
  0
LINE
  5
E00ED9B4
330
E00DEA5D
100
AcDbEntity
  8
JISSEN
100
AcDbLine
 10
263.5277327035419
 20
40.26880258671485
 30
0.0
 11
263.5277327035419
 21
39.06880258671595
 31
0.0
  0
LINE
  5
E00ED9B5
330
E00DEA5D
100
AcDbEntity
  8
JISSEN
100
AcDbLine
 10
262.3689549277933
 20
39.06880258671595
 30
0.0
 11
262.3689549277933
 21
40.26880258671485
 31
0.0
  0
LINE
  5
E00ED9B6
330
E00DEA5D
100
AcDbEntity
  8
JISSEN
100
AcDbLine
 10
262.3689549277933
 20
39.06880258671595
 30
0.0
 11
263.5277327035419
 21
39.06880258671595
 31
0.0
  0
LINE
  5
E00ED9B7
330
E00DEA5D
100
AcDbEntity
  8
JISSEN
100
AcDbLine
 10
262.3689549277933
 20
40.26880258671485
 30
0.0
 11
263.5277327035419
 21
40.26880258671485
 31
0.0
  0
SPLINE
  5
E00ED9B8
330
E00DEA5D
100
AcDbEntity
  8
JISSEN
100
AcDbSpline
210
0.0
220
0.0
230
1.0
 70
     8
 71
     3
 72
     9
 73
     5
 74
     0
 42
0.0000000001
 43
0.0000000001
 40
0.0
 40
0.0
 40
0.0
 40
0.0
 40
0.5
 40
1.0
 40
1.0
 40
1.0
 40
1.0
 10
252.8674551267568
 20
49.221646010433
 30
0.0
 10
252.8849405022874
 20
49.22042446061936
 30
0.0
 10
252.9199671082305
 20
49.21858912465109
 30
0.0
 10
252.9551058725191
 20
49.2179741970915
 30
0.0
 10
252.9727035112937
 20
49.2179741970915
 30
0.0
  0
LINE
  5
E00ED9B9
330
E00DEA5D
100
AcDbEntity
  8
JISSEN
100
AcDbLine
 10
252.9727044111423
 20
49.21797417101448
 30
0.0
 11
252.9608393615417
 21
49.21797417101448
 31
0.0
  0
LINE
  5
E00ED9BA
330
E00DEA5D
100
AcDbEntity
  8
JISSEN
100
AcDbLine
 10
269.5557068163925
 20
29.41797431631437
 30
0.0
 11
269.5557068163925
 21
49.22164591026319
 31
0.0
  0
LINE
  5
E00ED9BB
330
E00DEA5D
100
AcDbEntity
  8
JISSEN
100
AcDbLine
 10
272.5557068424913
 20
29.41797431631437
 30
0.0
 11
272.5557068424914
 21
49.22164591026637
 31
0.0
  0
LINE
  5
E00ED9BC
330
E00DEA5D
100
AcDbEntity
  8
JISSEN
100
AcDbLine
 10
292.3057070529412
 20
27.91797419711406
 30
0.0
 11
292.3057070529412
 21
37.21797453236399
 31
0.0
  0
LINE
  5
E00ED9BD
330
E00DEA5D
100
AcDbEntity
  8
JISSEN
100
AcDbLine
 10
288.3057063972919
 20
29.41797431631425
 30
0.0
 11
288.3057063972919
 21
49.21908081506376
 31
0.0
  0
LINE
  5
E00ED9BE
330
E00DEA5D
100
AcDbEntity
  8
JISSEN
100
AcDbLine
 10
290.7486623680924
 20
29.41797431631425
 30
0.0
 11
272.5557068424914
 21
29.41797431631425
 31
0.0
  0
LINE
  5
E00ED9BF
330
E00DEA5D
100
AcDbEntity
  8
JISSEN
100
AcDbLine
 10
290.8057077384419
 20
26.4179738245632
 30
0.0
 11
271.055706829442
 21
26.4179738245632
 31
0.0
  0
SPLINE
  5
E00ED9C0
330
E00DEA5D
100
AcDbEntity
  8
JISSEN
100
AcDbSpline
210
0.0
220
0.0
230
1.0
 70
     8
 71
     3
 72
    16
 73
    12
 74
     0
 42
0.0000000001
 43
0.0000000001
 40
0.0
 40
0.0
 40
0.0
 40
0.0
 40
0.2500000000000009
 40
0.2500000000000009
 40
0.3750000000000013
 40
0.3750000000000013
 40
0.5000000000000018
 40
0.5000000000000018
 40
0.7500000000000009
 40
0.7500000000000009
 40
1.0
 40
1.0
 40
1.0
 40
1.0
 10
269.5557068294356
 20
29.4168953598612
 30
0.0
 10
269.5557068294356
 20
29.40778221544792
 30
0.0
 10
269.6149104344986
 20
29.34054749265965
 30
0.0
 10
269.758418300682
 20
29.1902229600812
 30
0.0
 10
269.815458794611
 20
29.13170936657593
 30
0.0
 10
269.9396572751065
 20
29.00609950046714
 30
0.0
 10
270.0075352323565
 20
28.93825198978197
 30
0.0
 10
270.2254331024287
 20
28.72232337328864
 30
0.0
 10
270.3821509614754
 20
28.56930279102494
 30
0.0
 10
270.7128377955905
 20
28.24852137289894
 30
0.0
 10
270.8852632238822
 20
28.08229210851391
 30
0.0
 10
271.0557068294356
 20
27.91797419709223
 30
0.0
  0
SPLINE
  5
E00ED9C1
330
E00DEA5D
100
AcDbEntity
  8
JISSEN
100
AcDbSpline
210
0.0
220
0.0
230
1.0
 70
     8
 71
     3
 72
    16
 73
    12
 74
     0
 42
0.0000000001
 43
0.0000000001
 40
0.0
 40
0.0
 40
0.0
 40
0.0
 40
0.2500000000000009
 40
0.2500000000000009
 40
0.3750000000000013
 40
0.3750000000000013
 40
0.5000000000000018
 40
0.5000000000000018
 40
0.7500000000000009
 40
0.7500000000000009
 40
1.0
 40
1.0
 40
1.0
 40
1.0
 10
272.5557068294483
 20
29.4168953598612
 30
0.0
 10
272.5557068294483
 20
29.40778221544792
 30
0.0
 10
272.4965032243853
 20
29.34054749265965
 30
0.0
 10
272.3529953582019
 20
29.1902229600812
 30
0.0
 10
272.2959548642729
 20
29.13170936657593
 30
0.0
 10
272.1717563837774
 20
29.00609950046714
 30
0.0
 10
272.1038784265274
 20
28.93825198978197
 30
0.0
 10
271.8859805564552
 20
28.72232337328864
 30
0.0
 10
271.7292626974085
 20
28.56930279102494
 30
0.0
 10
271.3985758632934
 20
28.24852137289894
 30
0.0
 10
271.2261504350017
 20
28.08229210851391
 30
0.0
 10
271.0557068294483
 20
27.91797419709223
 30
0.0
  0
SPLINE
  5
E00ED9C2
330
E00DEA5D
100
AcDbEntity
  8
JISSEN
100
AcDbSpline
210
0.0
220
0.0
230
1.0
 70
     8
 71
     3
 72
     9
 73
     5
 74
     0
 42
0.0000000001
 43
0.0000000001
 40
0.0
 40
0.0
 40
0.0
 40
0.0
 40
0.5
 40
1.0
 40
1.0
 40
1.0
 40
1.0
 10
290.7486624227567
 20
29.41797419709223
 30
0.0
 10
290.7581504385334
 20
29.41797419709223
 30
0.0
 10
290.7771457673661
 20
29.41779520768
 30
0.0
 10
290.7961799492568
 20
29.4172558417315
 30
0.0
 10
290.8057068294483
 20
29.4168953598612
 30
0.0
  0
SPLINE
  5
E00ED9C3
330
E00DEA5D
100
AcDbEntity
  8
JISSEN
100
AcDbSpline
210
0.0
220
0.0
230
1.0
 70
     8
 71
     3
 72
    16
 73
    12
 74
     0
 42
0.0000000001
 43
0.0000000001
 40
0.0
 40
0.0
 40
0.0
 40
0.0
 40
0.249999999999999
 40
0.249999999999999
 40
0.3749999999999985
 40
0.3749999999999985
 40
0.4999999999999981
 40
0.4999999999999981
 40
0.7499999999999991
 40
0.7499999999999991
 40
1.0
 40
1.0
 40
1.0
 40
1.0
 10
290.8057068294483
 20
29.4168953598612
 30
0.0
 10
291.0465506621667
 20
29.40778221544792
 30
0.0
 10
291.2756466686496
 20
29.34054749265965
 30
0.0
 10
291.5664478492426
 20
29.1902229600812
 30
0.0
 10
291.6553249819371
 20
29.13170936657593
 30
0.0
 10
291.8129305311186
 20
29.00609950046714
 30
0.0
 10
291.8829620273582
 20
28.93825198978197
 30
0.0
 10
292.0695166931654
 20
28.72232337328864
 30
0.0
 10
292.157448705886
 20
28.56930279102494
 30
0.0
 10
292.2765312354904
 20
28.24852137289894
 30
0.0
 10
292.3057068294483
 20
28.08229210851391
 30
0.0
 10
292.3057068294483
 20
27.91797419709223
 30
0.0
  0
ARC
  5
E00ED9C4
330
E00DEA5D
100
AcDbEntity
  8
JISSEN
100
AcDbCircle
 10
290.8057068294419
 20
27.91797419711406
 30
0.0
 40
1.5
100
AcDbArc
 50
270.0
 51
0.0
  0
LINE
  5
E00ED9C5
330
E00DEA5D
100
AcDbEntity
  8
JISSEN
100
AcDbLine
 10
281.8183503546915
 20
39.06880258671595
 30
0.0
 11
279.727960074093
 21
39.06880258671595
 31
0.0
  0
LINE
  5
E00ED9C6
330
E00DEA5D
100
AcDbEntity
  8
JISSEN
100
AcDbLine
 10
281.8183503546915
 20
40.26880258671485
 30
0.0
 11
279.727960074093
 21
40.26880258671485
 31
0.0
  0
LINE
  5
E00ED9C7
330
E00DEA5D
100
AcDbEntity
  8
JISSEN
100
AcDbLine
 10
278.4557068294434
 20
38.36880258671522
 30
0.0
 11
282.356591750542
 21
38.36880258671522
 31
0.0
  0
LINE
  5
E00ED9C8
330
E00DEA5D
100
AcDbEntity
  8
JISSEN
100
AcDbLine
 10
272.5557068424914
 20
49.2216459102649
 30
0.0
 11
289.3318322673077
 21
49.2216459102649
 31
0.0
  0
LINE
  5
E00ED9C9
330
E00DEA5D
100
AcDbEntity
  8
JISSEN
100
AcDbLine
 10
279.1057068294403
 20
40.26513087355977
 30
0.0
 11
279.1057068294408
 21
49.21797419711163
 31
0.0
  0
LINE
  5
E00ED9CA
330
E00DEA5D
100
AcDbEntity
  8
JISSEN
100
AcDbLine
 10
274.8283565602132
 20
37.86880263110788
 30
0.0
 11
272.5557068424913
 21
37.86880263114722
 31
0.0
  0
LINE
  5
E00ED9CB
330
E00DEA5D
100
AcDbEntity
  8
JISSEN
100
AcDbLine
 10
272.5557068424913
 20
39.06880263113896
 30
0.0
 11
273.1277014407196
 21
39.06880263112896
 31
0.0
  0
LINE
  5
E00ED9CC
330
E00DEA5D
100
AcDbEntity
  8
JISSEN
100
AcDbLine
 10
273.1277014407914
 20
40.26880258671485
 30
0.0
 11
272.5557068424913
 21
40.26880258671485
 31
0.0
  0
LINE
  5
E00ED9CD
330
E00DEA5D
100
AcDbEntity
  8
JISSEN
100
AcDbLine
 10
272.5557068424913
 20
39.01880263113833
 30
0.0
 11
275.8557068294198
 21
39.0188026310825
 31
0.0
  0
LINE
  5
E00ED9CE
330
E00DEA5D
100
AcDbEntity
  8
JISSEN
100
AcDbLine
 10
278.4551678679927
 20
39.06880258671595
 30
0.0
 11
272.5557068424914
 21
39.06880258671595
 31
0.0
  0
LINE
  5
E00ED9CF
330
E00DEA5D
100
AcDbEntity
  8
JISSEN
100
AcDbLine
 10
269.5557068163925
 20
40.26880258671474
 30
0.0
 11
268.9837122181434
 21
40.26880258671485
 31
0.0
  0
LINE
  5
E00ED9D0
330
E00DEA5D
100
AcDbEntity
  8
JISSEN
100
AcDbLine
 10
269.5557068163925
 20
39.06880263116477
 30
0.0
 11
268.9837122181434
 21
39.06880263116477
 31
0.0
  0
LINE
  5
E00ED9D1
330
E00DEA5D
100
AcDbEntity
  8
JISSEN
100
AcDbLine
 10
267.2830570986293
 20
37.86880263117314
 30
0.0
 11
269.5557068163925
 21
37.86880263117314
 31
0.0
  0
LINE
  5
E00ED9D2
330
E00DEA5D
100
AcDbEntity
  8
JISSEN
100
AcDbLine
 10
269.5557068163925
 20
39.01880263116413
 30
0.0
 11
266.2557068294422
 21
39.0188026311655
 31
0.0
  0
LINE
  5
E00ED9D3
330
E00DEA5D
100
AcDbEntity
  8
JISSEN
100
AcDbLine
 10
269.5557068163926
 20
40.26880263115197
 30
0.0
 11
266.4057068294423
 21
40.26880263112547
 31
0.0
  0
LINE
  5
E00ED9D4
330
E00DEA5D
100
AcDbEntity
  8
JISSEN
100
AcDbLine
 10
268.9837122181434
 20
40.26880258671485
 30
0.0
 11
268.9837122181434
 21
39.06880258671595
 31
0.0
  0
LINE
  5
E00ED9D5
330
E00DEA5D
100
AcDbEntity
  8
JISSEN
100
AcDbLine
 10
267.2450457307913
 20
39.06880263116477
 30
0.0
 11
268.0122936069419
 21
39.06880263116477
 31
0.0
  0
LINE
  5
E00ED9D6
330
E00DEA5D
100
AcDbEntity
  8
JISSEN
100
AcDbLine
 10
267.2450457307913
 20
40.26880263116368
 30
0.0
 11
268.0122936069419
 21
40.26880263116368
 31
0.0
  0
LINE
  5
E00ED9D7
330
E00DEA5D
100
AcDbEntity
  8
JISSEN
100
AcDbLine
 10
267.2450457307913
 20
40.26880258671485
 30
0.0
 11
268.0122936069419
 21
40.26880258671485
 31
0.0
  0
LINE
  5
E00ED9D8
330
E00DEA5D
100
AcDbEntity
  8
JISSEN
100
AcDbLine
 10
266.4170316948425
 20
38.36880263117132
 30
0.0
 11
266.2557068294418
 21
38.64822549457062
 31
0.0
  0
ARC
  5
E00ED9D9
330
E00DEA5D
100
AcDbEntity
  8
JISSEN
100
AcDbCircle
 10
267.2830570986293
 20
38.8688026311695
 30
0.0
 40
1.0
100
AcDbArc
 50
210.0
 51
270.0
  0
LINE
  5
E00ED9DA
330
E00DEA5D
100
AcDbEntity
  8
JISSEN
100
AcDbLine
 10
266.2557068294422
 20
39.0188026311655
 30
0.0
 11
266.2557068294422
 21
38.64822549457062
 31
0.0
  0
LINE
  5
E00ED9DB
330
E00DEA5D
100
AcDbEntity
  8
JISSEN
100
AcDbLine
 10
266.4057068294423
 20
39.06880263116477
 30
0.0
 11
266.4057068294423
 21
39.0188026311655
 31
0.0
  0
LINE
  5
E00ED9DC
330
E00DEA5D
100
AcDbEntity
  8
JISSEN
100
AcDbLine
 10
267.2450457307913
 20
39.06880258671595
 30
0.0
 11
267.2450457307913
 21
40.26880258671485
 31
0.0
  0
LINE
  5
E00ED9DD
330
E00DEA5D
100
AcDbEntity
  8
JISSEN
100
AcDbLine
 10
268.0122936069419
 20
39.06880263116477
 30
0.0
 11
268.9837122181434
 21
39.06880263116477
 31
0.0
  0
LINE
  5
E00ED9DE
330
E00DEA5D
100
AcDbEntity
  8
JISSEN
100
AcDbLine
 10
268.0122936069419
 20
40.26880263116368
 30
0.0
 11
268.9837122181434
 21
40.26880263116368
 31
0.0
  0
LINE
  5
E00ED9DF
330
E00DEA5D
100
AcDbEntity
  8
JISSEN
100
AcDbLine
 10
268.0122936069419
 20
40.26880258671485
 30
0.0
 11
268.9837122181434
 21
40.26880258671485
 31
0.0
  0
LINE
  5
E00ED9E0
330
E00DEA5D
100
AcDbEntity
  8
JISSEN
100
AcDbLine
 10
278.4551678679927
 20
40.26880258671485
 30
0.0
 11
274.8663679281435
 21
40.26880258671485
 31
0.0
  0
LINE
  5
E00ED9E1
330
E00DEA5D
100
AcDbEntity
  8
JISSEN
100
AcDbLine
 10
275.6943819640087
 20
38.36880263109117
 30
0.0
 11
275.8557068294139
 21
38.64822549448763
 31
0.0
  0
LINE
  5
E00ED9E2
330
E00DEA5D
100
AcDbEntity
  8
JISSEN
100
AcDbLine
 10
275.7057068294207
 20
39.06880263108439
 30
0.0
 11
275.7057068294197
 21
39.01880263108512
 31
0.0
  0
LINE
  5
E00ED9E3
330
E00DEA5D
100
AcDbEntity
  8
JISSEN
100
AcDbLine
 10
275.8557068294198
 20
39.0188026310825
 30
0.0
 11
275.8557068294135
 21
38.64822549448763
 31
0.0
  0
LINE
  5
E00ED9E4
330
E00DEA5D
100
AcDbEntity
  8
JISSEN
100
AcDbLine
 10
274.099120051921
 20
39.06880263111224
 30
0.0
 11
273.1277014407196
 21
39.06880263112896
 31
0.0
  0
LINE
  5
E00ED9E5
330
E00DEA5D
100
AcDbEntity
  8
JISSEN
100
AcDbLine
 10
274.8663679280716
 20
39.06880263109894
 30
0.0
 11
274.099120051921
 21
39.06880263111224
 31
0.0
  0
LINE
  5
E00ED9E6
330
E00DEA5D
100
AcDbEntity
  8
JISSEN
100
AcDbLine
 10
274.0991200519911
 20
40.26880258671485
 30
0.0
 11
274.8663679281435
 21
40.26880258671485
 31
0.0
  0
LINE
  5
E00ED9E7
330
E00DEA5D
100
AcDbEntity
  8
JISSEN
100
AcDbLine
 10
273.1277014407914
 20
40.26880258671485
 30
0.0
 11
274.0991200519911
 21
40.26880258671485
 31
0.0
  0
LINE
  5
E00ED9E8
330
E00DEA5D
100
AcDbEntity
  8
JISSEN
100
AcDbLine
 10
274.8663679281435
 20
40.26880258671485
 30
0.0
 11
274.8663679281435
 21
39.06880258671595
 31
0.0
  0
LINE
  5
E00ED9E9
330
E00DEA5D
100
AcDbEntity
  8
JISSEN
100
AcDbLine
 10
273.1277014407914
 20
39.06880258671595
 30
0.0
 11
273.1277014407914
 21
40.26880258671485
 31
0.0
  0
ARC
  5
E00ED9EA
330
E00DEA5D
100
AcDbEntity
  8
JISSEN
100
AcDbCircle
 10
274.8283565602305
 20
38.86880263110424
 30
0.0
 40
1.0
100
AcDbArc
 50
269.9999999990099
 51
329.9999999990071
  0
LINE
  5
E00ED9EB
330
E00DEA5D
100
AcDbEntity
  8
JISSEN
100
AcDbLine
 10
279.727960074093
 20
40.26880258671485
 30
0.0
 11
279.727960074093
 21
39.06880258671595
 31
0.0
  0
LINE
  5
E00ED9EC
330
E00DEA5D
100
AcDbEntity
  8
JISSEN
100
AcDbLine
 10
277.4560032247427
 20
39.06880258671595
 30
0.0
 11
278.4557068294434
 21
38.36880258671522
 31
0.0
  0
LINE
  5
E00ED9ED
330
E00DEA5D
100
AcDbEntity
  8
JISSEN
100
AcDbLine
 10
278.4551678679927
 20
39.06880258671595
 30
0.0
 11
278.4551678679927
 21
40.26880258671485
 31
0.0
  0
LINE
  5
E00ED9EE
330
E00DEA5D
100
AcDbEntity
  8
JISSEN
100
AcDbLine
 10
278.4551678679927
 20
39.06880258671595
 30
0.0
 11
279.727960074093
 21
39.06880258671595
 31
0.0
  0
LINE
  5
E00ED9EF
330
E00DEA5D
100
AcDbEntity
  8
JISSEN
100
AcDbLine
 10
278.4551678679927
 20
40.26880258671485
 30
0.0
 11
279.727960074093
 21
40.26880258671485
 31
0.0
  0
LINE
  5
E00ED9F0
330
E00DEA5D
100
AcDbEntity
  8
JISSEN
100
AcDbLine
 10
274.5557068295111
 20
44.26880263115458
 30
0.0
 11
272.5557068424914
 21
44.26880263115992
 31
0.0
  0
LINE
  5
E00ED9F1
330
E00DEA5D
100
AcDbEntity
  8
JISSEN
100
AcDbLine
 10
272.5557068424913
 20
41.76880263115015
 30
0.0
 11
275.430706829436
 21
41.76880263112548
 31
0.0
  0
LINE
  5
E00ED9F2
330
E00DEA5D
100
AcDbEntity
  8
JISSEN
100
AcDbLine
 10
272.5557068424913
 20
42.26880263115174
 30
0.0
 11
274.5557068294892
 21
42.26880263113457
 31
0.0
  0
LINE
  5
E00ED9F3
330
E00DEA5D
100
AcDbEntity
  8
JISSEN
100
AcDbLine
 10
269.5557068163925
 20
42.26880263115174
 30
0.0
 11
267.5557068293946
 21
42.26880263113457
 31
0.0
  0
LINE
  5
E00ED9F4
330
E00DEA5D
100
AcDbEntity
  8
JISSEN
100
AcDbLine
 10
269.5557068163925
 20
41.76880263115015
 30
0.0
 11
266.6807068294478
 21
41.76880263112548
 31
0.0
  0
LINE
  5
E00ED9F5
330
E00DEA5D
100
AcDbEntity
  8
JISSEN
100
AcDbLine
 10
267.5557068293728
 20
44.26880263115458
 30
0.0
 11
269.5557068163926
 21
44.2688026311597
 31
0.0
  0
LINE
  5
E00ED9F6
330
E00DEA5D
100
AcDbEntity
  8
JISSEN
100
AcDbLine
 10
266.6807068294419
 20
42.26880263115458
 30
0.0
 11
267.5557068293942
 21
42.2688026311564
 31
0.0
  0
SPLINE
  5
E00ED9F7
330
E00DEA5D
100
AcDbEntity
  8
JISSEN
100
AcDbSpline
210
0.0
220
0.0
230
1.0
 70
     8
 71
     3
 72
     8
 73
     4
 74
     0
 42
0.0000000001
 43
0.0000000001
 40
0.0
 40
0.0
 40
0.0
 40
0.0
 40
2.236014716865069
 40
2.236014716865111
 40
2.236014716865111
 40
2.236014716865111
 10
272.5557068424923
 20
49.22164591026478
 30
0.0
 10
272.0545228023591
 20
50.05050652315379
 30
0.0
 10
271.5533387622258
 20
50.87936713604278
 30
0.0
 10
271.0557068294428
 20
50.87988647631312
 30
0.0
  0
SPLINE
  5
E00ED9F8
330
E00DEA5D
100
AcDbEntity
  8
JISSEN
100
AcDbSpline
210
0.0
220
0.0
230
1.0
 70
     8
 71
     3
 72
     8
 73
     4
 74
     0
 42
0.0000000001
 43
0.0000000001
 40
0.0
 40
0.0
 40
0.0
 40
0.0
 40
2.236014716865069
 40
2.236014716865111
 40
2.236014716865111
 40
2.236014716865111
 10
269.5557068163934
 20
49.22164591026478
 30
0.0
 10
270.0568908565267
 20
50.05050652315379
 30
0.0
 10
270.5580748966599
 20
50.87936713604278
 30
0.0
 10
271.0557068294428
 20
50.87988647631312
 30
0.0
  0
LINE
  5
E00ED9F9
330
E00DEA5D
100
AcDbEntity
  8
JISSEN
100
AcDbLine
 10
277.0557068294838
 20
41.76880263115094
 30
0.0
 11
275.430706829436
 21
41.76880263115276
 31
0.0
  0
LINE
  5
E00ED9FA
330
E00DEA5D
100
AcDbEntity
  8
JISSEN
100
AcDbLine
 10
275.4307068294419
 20
42.26880263115458
 30
0.0
 11
274.5557068294897
 21
42.2688026311564
 31
0.0
  0
LINE
  5
E00ED9FB
330
E00DEA5D
100
AcDbEntity
  8
JISSEN
100
AcDbLine
 10
280.5057068294422
 20
49.21797419711163
 30
0.0
 11
280.5057068294418
 21
40.26513087355977
 31
0.0
  0
LINE
  5
E00ED9FC
330
E00DEA5D
100
AcDbEntity
  8
JISSEN
100
AcDbLine
 10
281.8183503546915
 20
39.06880258671595
 30
0.0
 11
282.2561159817924
 21
39.06880258671595
 31
0.0
  0
LINE
  5
E00ED9FD
330
E00DEA5D
100
AcDbEntity
  8
JISSEN
100
AcDbLine
 10
281.8183503546915
 20
40.26880258671485
 30
0.0
 11
282.2561159817924
 21
40.26880258671485
 31
0.0
  0
LINE
  5
E00ED9FE
330
E00DEA5D
100
AcDbEntity
  8
JISSEN
100
AcDbLine
 10
281.8183503546915
 20
39.06880258671595
 30
0.0
 11
281.8183503546915
 21
40.26880258671485
 31
0.0
  0
LINE
  5
E00ED9FF
330
E00DEA5D
100
AcDbEntity
  8
JISSEN
100
AcDbLine
 10
282.356591750542
 20
38.36880258671522
 30
0.0
 11
282.356591750542
 21
39.06880258671595
 31
0.0
  0
LINE
  5
E00EDA00
330
E00DEA5D
100
AcDbEntity
  8
JISSEN
100
AcDbLine
 10
282.4557068294434
 20
39.56880258671594
 30
0.0
 11
282.4557068294434
 21
38.36880258671522
 31
0.0
  0
LINE
  5
E00EDA01
330
E00DEA5D
100
AcDbEntity
  8
JISSEN
100
AcDbLine
 10
282.4557068294434
 20
38.36880258671522
 30
0.0
 11
282.356591750542
 21
38.36880258671522
 31
0.0
  0
LINE
  5
E00EDA02
330
E00DEA5D
100
AcDbEntity
  8
JISSEN
100
AcDbLine
 10
282.356591750542
 20
40.26880258671485
 30
0.0
 11
282.356591750542
 21
39.56880258671594
 31
0.0
  0
LINE
  5
E00EDA03
330
E00DEA5D
100
AcDbEntity
  8
JISSEN
100
AcDbLine
 10
282.2561159817924
 20
40.26880258671485
 30
0.0
 11
282.2561159817924
 21
39.06880258671595
 31
0.0
  0
LINE
  5
E00EDA04
330
E00DEA5D
100
AcDbEntity
  8
JISSEN
100
AcDbLine
 10
282.356591750542
 20
39.06880258671595
 30
0.0
 11
282.2561159817924
 21
39.06880258671595
 31
0.0
  0
LINE
  5
E00EDA05
330
E00DEA5D
100
AcDbEntity
  8
JISSEN
100
AcDbLine
 10
282.356591750542
 20
39.56880258671594
 30
0.0
 11
282.4557068294434
 21
39.56880258671594
 31
0.0
  0
LINE
  5
E00EDA06
330
E00DEA5D
100
AcDbEntity
  8
JISSEN
100
AcDbLine
 10
282.356591750542
 20
40.26880258671485
 30
0.0
 11
282.2561159817924
 21
40.26880258671485
 31
0.0
  0
LINE
  5
E00EDA07
330
E00DEA5D
100
AcDbEntity
  8
JISSEN
100
AcDbLine
 10
289.1387092477416
 20
49.21797417101448
 30
0.0
 11
289.1505742973422
 21
49.21797417101448
 31
0.0
  0
SPLINE
  5
E00EDA08
330
E00DEA5D
100
AcDbEntity
  8
JISSEN
100
AcDbSpline
210
0.0
220
0.0
230
1.0
 70
     8
 71
     3
 72
     9
 73
     5
 74
     0
 42
0.0000000001
 43
0.0000000001
 40
0.0
 40
0.0
 40
0.0
 40
0.0
 40
0.5
 40
1.0
 40
1.0
 40
1.0
 40
1.0
 10
289.2439585321271
 20
49.221646010433
 30
0.0
 10
289.2264731565965
 20
49.22042446061936
 30
0.0
 10
289.1914465506534
 20
49.21858912465109
 30
0.0
 10
289.1563077863647
 20
49.2179741970915
 30
0.0
 10
289.1387101475902
 20
49.2179741970915
 30
0.0
  0
LINE
  5
E00EDA09
330
E00DEA5D
100
AcDbEntity
  8
JISSEN
100
AcDbLine
 10
237.0557049816925
 20
52.21797419711333
 30
0.0
 11
271.055706829442
 21
52.21797419711333
 31
0.0
  0
LINE
  5
E00EDA0A
330
E00DEA5D
100
AcDbEntity
  8
SUNPOU
100
AcDbLine
 10
256.4057068294399
 20
52.21797419711333
 30
0.0
 11
214.0038387248132
 21
52.21797419711333
 31
0.0
  0
LINE
  5
E00EDA0B
330
E00DEA5D
100
AcDbEntity
  8
SUNPOU
100
AcDbLine
 10
238.555706829366
 20
52.21797419711345
 30
0.0
 11
214.0038387248132
 21
52.21797419711345
 31
0.0
  0
LINE
  5
E00EDA0C
330
E00DEA5D
100
AcDbEntity
  8
JISSEN
100
AcDbLine
 10
303.5956146723419
 20
51.22628957961319
 30
0.0
 11
301.1047011768914
 21
50.87621473706281
 31
0.0
  0
ARC
  5
E00EDA0D
330
E00DEA5D
100
AcDbEntity
  8
JISSEN
100
AcDbCircle
 10
303.3172671072916
 20
53.20682571906331
 30
0.0
 40
1.999999999999985
100
AcDbArc
 50
277.9999999999944
 51
330.3681085059137
  0
TEXT
  5
E00EDA0E
330
E00DEA5D
100
AcDbEntity
  8
TEXT
100
AcDbText
 10
295.2473488435058
 20
4.698249668237444
 30
0.0
 40
3.0
  1
尺度　1/1
  7
K
 72
     4
 11
303.7187774149344
 21
5.983963953951729
 31
0.0
100
AcDbText
  0
TEXT
  5
E00EDA0F
330
E00DEA5D
100
AcDbEntity
  8
TEXT
100
AcDbText
 10
295.3681550381382
 20
9.24359141707524
 30
0.0
 40
3.0
  1
KQS　＋ガードK 作動状態
  7
K
 72
     4
 11
318.0681550381382
 21
10.60073427421809
 31
0.0
100
AcDbText
  0
LINE
  5
E00EDA10
330
E00DEA5D
100
AcDbEntity
  8
SUNPOU
100
AcDbLine
 10
303.5557068295184
 20
52.21797419711345
 30
0.0
 11
328.1075749340711
 21
52.21797419711345
 31
0.0
  0
LINE
  5
E00EDA11
330
E00DEA5D
100
AcDbEntity
  8
JISSEN
100
AcDbLine
 39
1680.364539346804
 10
262.8529845463428
 20
153.4388250596197
 30
0.0
 11
264.1029845463437
 21
153.4388250596197
 31
0.0
  0
LINE
  5
E00EDA12
330
E00DEA5D
100
AcDbEntity
  8
JISSEN
100
AcDbLine
 39
1680.364539346804
 10
280.4307068294385
 20
153.4388250596197
 30
0.0
 11
279.1807068294376
 21
153.4388250596197
 31
0.0
  0
LINE
  5
E00EDA13
330
E00DEA5D
100
AcDbEntity
  8
JISSEN
 48
0.1
100
AcDbLine
 39
1680.364539346804
 10
266.6807068294422
 20
157.5388251040598
 30
0.0
 11
266.6807068294476
 21
157.0388251040616
 31
0.0
  0
LINE
  5
E00EDA14
330
E00DEA5D
100
AcDbEntity
  8
JISSEN
 48
0.1
100
AcDbLine
 39
1680.364539346804
 10
265.0557068294003
 20
157.0388251040579
 30
0.0
 11
265.0557068294162
 21
155.5388251040579
 31
0.0
  0
LINE
  5
E00EDA15
330
E00DEA5D
100
AcDbEntity
  8
JISSEN
 48
0.1
100
AcDbLine
 39
1680.364539346804
 10
267.5557068293731
 20
159.5388251040579
 30
0.0
 11
267.5557068293949
 21
157.5388251040579
 31
0.0
  0
LINE
  5
E00EDA16
330
E00DEA5D
100
AcDbEntity
  8
JISSEN
100
AcDbLine
 39
1680.364539346804
 10
265.0557068294162
 20
155.5388251040707
 30
0.0
 11
266.4057068294425
 21
155.5388251040652
 31
0.0
  0
LINE
  5
E00EDA17
330
E00DEA5D
100
AcDbEntity
  8
JISSEN
 48
0.1
100
AcDbLine
 39
1680.364539346804
 10
274.5557068295113
 20
159.5388251040579
 30
0.0
 11
274.5557068294895
 21
157.5388251040579
 31
0.0
  0
LINE
  5
E00EDA18
330
E00DEA5D
100
AcDbEntity
  8
JISSEN
 48
0.1
100
AcDbLine
 39
1680.364539346804
 10
277.055706829484
 20
157.0388251040579
 30
0.0
 11
277.0557068294681
 21
155.5388251040579
 31
0.0
  0
LINE
  5
E00EDA19
330
E00DEA5D
100
AcDbEntity
  8
JISSEN
 48
0.1
100
AcDbLine
 39
1680.364539346804
 10
275.4307068294422
 20
157.5388251040598
 30
0.0
 11
275.4307068294367
 21
157.0388251040616
 31
0.0
  0
LINE
  5
E00EDA1A
330
E00DEA5D
100
AcDbEntity
  8
JISSEN
100
AcDbLine
 39
1680.364539346804
 10
268.5923770647614
 20
172.4916682713713
 30
0.0
 11
271.055706829442
 21
172.7388251039477
 31
0.0
  0
LINE
  5
E00EDA1B
330
E00DEA5D
100
AcDbEntity
  8
JISSEN
100
AcDbLine
 39
1680.364539346804
 10
281.6707293007893
 20
173.8038775258149
 30
0.0
 11
285.8278230359411
 21
174.2209772316827
 31
0.0
  0
LINE
  5
E00EDA1C
330
E00DEA5D
100
AcDbEntity
  8
JISSEN
100
AcDbLine
 39
1680.364539346804
 10
281.806605947931
 20
173.2608145626153
 30
0.0
 11
285.821474568767
 21
173.663644190124
 31
0.0
  0
LINE
  5
E00EDA1D
330
E00DEA5D
100
AcDbEntity
  8
JISSEN
100
AcDbLine
 39
1680.364539346804
 10
281.6617023727394
 20
176.246275742363
 30
0.0
 11
285.827823035941
 21
176.6642811600746
 31
0.0
  0
LINE
  5
E00EDA1E
330
E00DEA5D
100
AcDbEntity
  8
JISSEN
100
AcDbLine
 39
1680.364539346804
 10
281.6617023727394
 20
176.8029718139704
 30
0.0
 11
285.827823035941
 21
177.2209772316822
 31
0.0
  0
LINE
  5
E00EDA1F
330
E00DEA5D
100
AcDbEntity
  8
JISSEN
100
AcDbLine
 39
1680.364539346804
 10
256.283590622943
 20
176.6999769045977
 30
0.0
 11
260.4497112861445
 21
177.1179823223097
 31
0.0
  0
LINE
  5
E00EDA20
330
E00DEA5D
100
AcDbEntity
  8
JISSEN
100
AcDbLine
 39
1680.364539346804
 10
256.2885724208024
 20
173.7004767505403
 30
0.0
 11
260.4497112861445
 21
174.1179823223134
 31
0.0
  0
LINE
  5
E00EDA21
330
E00DEA5D
100
AcDbEntity
  8
JISSEN
100
AcDbLine
 39
1680.364539346804
 10
256.2835906229431
 20
174.2566729762064
 30
0.0
 11
260.4497112861445
 21
174.6746783939185
 31
0.0
  0
LINE
  5
E00EDA22
330
E00DEA5D
100
AcDbEntity
  8
JISSEN
100
AcDbLine
 39
1680.364539346804
 10
265.9254046685437
 20
174.6673829961265
 30
0.0
 11
276.1860089903403
 21
175.6968750685449
 31
0.0
  0
LINE
  5
E00EDA23
330
E00DEA5D
100
AcDbEntity
  8
JISSEN
100
AcDbLine
 39
1680.364539346804
 10
265.9254046685437
 20
175.2240790677314
 30
0.0
 11
276.1860089903403
 21
176.2535711401518
 31
0.0
  0
LINE
  5
E00EDA24
330
E00DEA5D
100
AcDbEntity
  8
JISSEN
100
AcDbLine
 39
1680.364539346804
 10
271.055706829683
 20
172.7388251039659
 30
0.0
 11
275.9926021216303
 21
173.2341657687094
 31
0.0
  0
LINE
  5
E00EDA25
330
E00DEA5D
100
AcDbEntity
  8
SAISEN
100
AcDbLine
 39
1680.364539346804
 10
285.2057068294425
 20
182.7416687053713
 30
0.0
 11
285.7057068294425
 21
181.8756433015963
 31
0.0
  0
LINE
  5
E00EDA26
330
E00DEA5D
100
AcDbEntity
  8
SAISEN
100
AcDbLine
 39
1680.364539346804
 10
256.9057068294414
 20
182.7416687053713
 30
0.0
 11
256.4057068294414
 21
181.8756433015963
 31
0.0
  0
LINE
  5
E00EDA27
330
E00DEA5D
100
AcDbEntity
  8
SAISEN
100
AcDbLine
 39
1680.364539346804
 10
261.5576977114442
 20
192.0416687184746
 30
0.0
 11
260.3579022840313
 21
190.8418732910625
 31
0.0
  0
LINE
  5
E00EDA28
330
E00DEA5D
100
AcDbEntity
  8
JISSEN
100
AcDbLine
 39
1680.364539346804
 10
261.5576977114451
 20
192.0416687184746
 30
0.0
 11
260.3641443294354
 21
192.0416687184746
 31
0.0
  0
LINE
  5
E00EDA29
330
E00DEA5D
100
AcDbEntity
  8
JISSEN
100
AcDbLine
 39
1680.364539346804
 10
271.055706829442
 20
192.0416687184928
 30
0.0
 11
260.3641443294354
 21
192.0416687184746
 31
0.0
  0
LINE
  5
E00EDA2A
330
E00DEA5D
100
AcDbEntity
  8
SAISEN
100
AcDbLine
 39
1680.364539346804
 10
261.5576977114442
 20
192.0416687184782
 30
0.0
 11
260.3579022840303
 21
190.8418732910662
 31
0.0
  0
ARC
  5
E00EDA2D
330
E00DEA5D
100
AcDbEntity
  8
JISSEN
100
AcDbCircle
 39
1680.364539346804
 10
283.2057068294425
 20
190.7416687184717
 30
0.0
 40
0.9999999999997548
100
AcDbArc
 50
210.0
 51
270.0
  0
LINE
  5
E00EDA2E
330
E00DEA5D
100
AcDbEntity
  8
SAISEN
100
AcDbLine
 39
1680.364539346804
 10
280.5537159474397
 20
192.0416687184782
 30
0.0
 11
281.7535113748535
 21
190.8418732910662
 31
0.0
  0
LINE
  5
E00EDA2F
330
E00DEA5D
100
AcDbEntity
  8
JISSEN
100
AcDbLine
 39
1680.364539346804
 10
271.055706829442
 20
192.0416687184928
 30
0.0
 11
281.7472693294484
 21
192.0416687184746
 31
0.0
  0
LINE
  5
E00EDA30
330
E00DEA5D
100
AcDbEntity
  8
JISSEN
100
AcDbLine
 39
1680.364539346804
 10
280.5537159474388
 20
192.0416687184746
 30
0.0
 11
281.7472693294484
 21
192.0416687184746
 31
0.0
  0
LINE
  5
E00EDA31
330
E00DEA5D
100
AcDbEntity
  8
SAISEN
100
AcDbLine
 39
1680.364539346804
 10
280.5537159474397
 20
192.0416687184746
 30
0.0
 11
281.7535113748526
 21
190.8418732910625
 31
0.0
  0
ARC
  5
E00EDA39
330
E00DEA5D
100
AcDbEntity
  8
JISSEN
100
AcDbCircle
 39
1680.364539346804
 10
258.9057068294414
 20
190.7416687184717
 30
0.0
 40
0.9999999999997548
100
AcDbArc
 50
270.0
 51
329.9999999999998
  0
ARC
  5
E00EDA3B
330
E00DEA5D
100
AcDbEntity
  8
JISSEN
100
AcDbCircle
 10
307.3057068294419
 20
152.4916683831719
 30
0.0
 40
15.0
100
AcDbArc
 50
114.4186184442876
 51
180.0
  0
LINE
  5
E00EDA3C
330
E00DEA5D
100
AcDbEntity
  8
JISSEN
100
AcDbLine
 10
304.6252951849292
 20
166.6446958337486
 30
0.0
 11
289.3318248691329
 21
164.4953400963235
 31
0.0
  0
LINE
  5
E00EDA3D
330
E00DEA5D
100
AcDbEntity
  8
JISSEN
100
AcDbLine
 10
305.0557086771896
 20
167.4916683831719
 30
0.0
 11
271.055706829442
 21
167.4916683831719
 31
0.0
  0
HATCH
  5
E00EDA3E
330
E00DEA5D
100
AcDbEntity
  8
SUNPOU
100
AcDbHatch
 10
0.0
 20
0.0
 30
0.0
210
0.0
220
0.0
230
1.0
  2
ANSI31
 70
     0
 71
     0
 91
        2
 92
        5
 93
        5
 72
     1
 10
238.555706829366
 20
167.4916683831719
 11
246.0557068294422
 21
167.4916683831719
 72
     1
 10
246.055706829442
 20
167.4916683831719
 11
246.055706829442
 21
177.4916683831719
 72
     1
 10
246.055706829442
 20
177.4916683831719
 11
214.0038387248145
 21
177.4916683831701
 72
     4
 94
        3
 73
     0
 74
     0
 95
       11
 96
        7
 40
0.0
 40
0.0
 40
0.0
 40
0.0
 40
3.264692203133994
 40
6.15697472568029
 40
8.955271668736928
 40
10.85738683396026
 40
10.85738683396026
 40
10.85738683396026
 40
10.85738683396026
 10
214.0038387248132
 20
177.4916683831719
 10
214.6789394130996
 20
176.4902694319656
 10
215.9521307635977
 20
174.6017030222532
 10
213.6862860472538
 20
171.7503319891851
 10
215.88940321381
 20
169.1240014914414
 10
214.5470490230763
 20
167.9619255182527
 10
214.0038387248132
 20
167.4916683831719
 72
     1
 10
214.0038387248137
 20
167.4916683831719
 11
238.5557068293661
 21
167.4916683831719
 97
        0
 92
        5
 93
        5
 72
     1
 10
296.055706829442
 20
177.4916683831719
 11
296.055706829442
 21
167.4916683831719
 72
     1
 10
296.055706829442
 20
167.4916683831719
 11
303.5557068295179
 21
167.4916683831719
 72
     1
 10
303.5557068295184
 20
167.4916683831719
 11
328.1075749340714
 21
167.4916683831719
 72
     4
 94
        3
 73
     0
 74
     0
 95
       11
 96
        7
 40
0.0
 40
0.0
 40
0.0
 40
0.0
 40
1.902115165223333
 40
4.700412108279971
 40
7.592694630826267
 40
10.85738683396026
 40
10.85738683396026
 40
10.85738683396026
 40
10.85738683396026
 10
328.1075749340707
 20
167.4916683831719
 10
327.564364635808
 20
167.9619255182527
 10
326.2220104450743
 20
169.1240014914414
 10
328.425127611631
 20
171.7503319891851
 10
326.1592828952866
 20
174.6017030222532
 10
327.4324742457847
 20
176.4902694319656
 10
328.1075749340707
 20
177.4916683831719
 72
     1
 10
328.1075749340698
 20
177.4916683831701
 11
296.055706829442
 21
177.4916683831719
 97
        0
 75
     0
 76
     1
 52
0.0
 41
10.0
 77
     0
 78
     1
 53
45.0
 43
366.0253221596385
 44
-2491.006975336945
 45
-0.8838834764831842
 46
0.8838834764831844
 79
     0
 47
0.1102095095325799
 98
        2
 10
238.1597530026747
 20
171.1918147995796
 10
305.8575396794067
 20
173.9470515336191
  0
LINE
  5
E00EDA3F
330
E00DEA5D
100
AcDbEntity
  8
SUNPOU
100
AcDbLine
 10
290.299662294272
 20
167.4916683831719
 30
0.0
 11
328.1075749340711
 21
167.4916683831719
 31
0.0
  0
LINE
  5
E00EDA40
330
E00DEA5D
100
AcDbEntity
  8
SUNPOU
100
AcDbLine
 10
287.5557067400404
 20
177.4916683831719
 30
0.0
 11
328.1075749340698
 21
177.4916683831701
 31
0.0
  0
LINE
  5
E00EDA41
330
E00DEA5D
100
AcDbEntity
  8
NITEN
100
AcDbLine
 10
251.5557068294419
 20
219.3019964992576
 30
0.0
 11
251.5557068294419
 21
236.5416687184709
 31
0.0
  0
LINE
  5
E00EDA42
330
E00DEA5D
100
AcDbEntity
  8
NITEN
100
AcDbLine
 10
290.5557068294419
 20
219.3019964992576
 30
0.0
 11
290.5557068294424
 21
236.5416687184709
 31
0.0
  0
LINE
  5
E00EDA43
330
E00DEA5D
100
AcDbEntity
  8
JISSEN
100
AcDbLine
 10
237.4861184739547
 20
166.6446958337486
 30
0.0
 11
252.7795887897509
 21
164.4953400963235
 31
0.0
  0
LINE
  5
E00EDA44
330
E00DEA5D
100
AcDbEntity
  8
JISSEN
100
AcDbLine
 10
237.0557049816943
 20
167.4916683831719
 30
0.0
 11
271.055706829442
 21
167.4916683831719
 31
0.0
  0
LINE
  5
E00EDA45
330
E00DEA5D
100
AcDbEntity
  8
SUNPOU
100
AcDbLine
 10
251.8117513646119
 20
167.4916683831719
 30
0.0
 11
214.0038387248132
 21
167.4916683831719
 31
0.0
  0
LINE
  5
E00EDA46
330
E00DEA5D
100
AcDbEntity
  8
SUNPOU
100
AcDbLine
 10
254.5557069188435
 20
177.4916683831717
 30
0.0
 11
214.0038387248141
 21
177.4916683831701
 31
0.0
  0
ARC
  5
E00EDA47
330
E00DEA5D
100
AcDbEntity
  8
JISSEN
100
AcDbCircle
 39
240.0520776831561
 10
237.5557049816943
 20
167.1398298741254
 30
0.0
 40
0.5
100
AcDbArc
 50
180.0
 51
262.0000049459389
  0
LINE
  5
E00EDA48
330
E00DEA5D
100
AcDbEntity
  8
JISSEN
100
AcDbLine
 39
240.0520776831561
 10
237.0557049816943
 20
167.4916683831719
 30
0.0
 11
237.0557049816943
 21
167.1398298741254
 31
0.0
  0
SPLINE
  5
E00EDA49
330
E00DEA5D
100
AcDbEntity
  8
SUNPOU
100
AcDbSpline
210
0.0
220
0.0
230
1.0
 70
     8
 71
     3
 72
    11
 73
     7
 74
     5
 42
0.0000000001
 43
0.0000000001
 44
0.0000000001
 40
0.0
 40
0.0
 40
0.0
 40
0.0
 40
3.264692203133994
 40
6.15697472568029
 40
8.955271668736928
 40
10.85738683396026
 40
10.85738683396026
 40
10.85738683396026
 40
10.85738683396026
 10
214.0038387248132
 20
177.4916683831719
 30
0.0
 10
214.6789394130996
 20
176.4902694319667
 30
0.0
 10
215.9521307635976
 20
174.6017030222531
 30
0.0
 10
213.6862860472533
 20
171.7503319891838
 30
0.0
 10
215.88940321381
 20
169.1240014914428
 30
0.0
 10
214.5470490230759
 20
167.9619255182539
 30
0.0
 10
214.0038387248132
 20
167.4916683831719
 30
0.0
 11
214.0038387248132
 21
177.4916683831719
 31
0.0
 11
215.2331791023771
 21
174.4672779623937
 31
0.0
 11
214.4609956484073
 21
171.6799798255518
 31
0.0
 11
215.1903021802154
 21
168.9783918176975
 31
0.0
 11
214.0038387248132
 21
167.4916683831719
 31
0.0
  0
ARC
  5
E00EDA4A
330
E00DEA5D
100
AcDbEntity
  8
JISSEN
370
    -2
100
AcDbCircle
 10
277.3777118847429
 20
179.8698461901852
 30
0.0
 40
1.640694770587604
100
AcDbArc
 50
327.6393017569091
 51
355.5207093781105
  0
SPLINE
  5
E00EDA4B
330
E00DEA5D
100
AcDbEntity
  8
JISSEN
370
    -2
100
AcDbSpline
210
0.0
220
0.0
230
1.0
 70
    12
 71
     3
 72
    10
 73
     6
 74
     0
 42
0.0000000001
 43
0.0000000001
 40
0.0
 40
0.0
 40
0.0
 40
0.0
 40
0.1088769686984931
 40
0.2172663573285982
 40
0.2385700975410849
 40
0.2385700975410849
 40
0.2385700975410849
 40
0.2385700975410849
 10
277.1644173717167
 20
179.7417099663556
 30
0.0
 41
1.0
 10
277.1517240813009
 20
179.6154289801319
 30
0.0
 41
1.0
 10
277.1263943444064
 20
179.3634325275828
 30
0.0
 41
1.0
 10
276.9922130386935
 20
179.1240107144279
 30
0.0
 41
1.0
 10
276.9035574542645
 20
179.0099711844449
 30
0.0
 41
1.0
 10
276.8885963104035
 20
178.9916684054709
 30
0.0
 41
1.0
  0
SPLINE
  5
E00EDA4C
330
E00DEA5D
100
AcDbEntity
  8
JISSEN
370
    -2
100
AcDbSpline
210
0.0
220
0.0
230
1.0
 70
    12
 71
     3
 72
    10
 73
     6
 74
     0
 42
0.0000000001
 43
0.0000000001
 40
0.0
 40
0.0
 40
0.0
 40
0.0
 40
0.1088769686984931
 40
0.2172663573285982
 40
0.2385700975410079
 40
0.2385700975410079
 40
0.2385700975410079
 40
0.2385700975410079
 10
264.9469962871671
 20
179.7417099663556
 30
0.0
 41
1.0
 10
264.959689577583
 20
179.6154289801319
 30
0.0
 41
1.0
 10
264.9850193144775
 20
179.3634325275828
 30
0.0
 41
1.0
 10
265.1192006201904
 20
179.1240107144279
 30
0.0
 41
1.0
 10
265.2078562046194
 20
179.0099711844449
 30
0.0
 41
1.0
 10
265.2228173484803
 20
178.9916684054709
 30
0.0
 41
1.0
  0
ARC
  5
E00EDA4D
330
E00DEA5D
100
AcDbEntity
  8
JISSEN
370
    -2
100
AcDbCircle
 10
264.733701774141
 20
179.8698461901852
 30
0.0
 40
1.640694770587604
100
AcDbArc
 50
184.4792906218894
 51
212.3606982430909
  0
LINE
  5
E00EDA4E
330
E00DEA5D
100
AcDbEntity
  8
JISSEN
100
AcDbLine
 10
285.7057068294425
 20
177.2388251039459
 30
0.0
 11
285.7057068294425
 21
183.7416687184753
 31
0.0
  0
LINE
  5
E00EDA4F
330
E00DEA5D
100
AcDbEntity
  8
JISSEN
100
AcDbLine
 10
256.4057068294414
 20
177.2388251039459
 30
0.0
 11
256.4057068294414
 21
183.7416687184753
 31
0.0
  0
ARC
  5
E00EDA50
330
E00DEA5D
100
AcDbEntity
  8
JISSEN
100
AcDbCircle
 39
240.0520776831561
 10
280.4307068294376
 20
153.6388250596204
 30
0.0
 40
0.2000000000007276
100
AcDbArc
 50
270.0
 51
0.0
  0
ARC
  5
E00EDA51
330
E00DEA5D
100
AcDbEntity
  8
JISSEN
100
AcDbCircle
 39
240.0520776831561
 10
279.1807068294376
 20
153.6388250596204
 30
0.0
 40
0.2000000000007276
100
AcDbArc
 50
180.0
 51
270.0
  0
ARC
  5
E00EDA52
330
E00DEA5D
100
AcDbEntity
  8
JISSEN
100
AcDbCircle
 39
240.0520776831561
 10
264.1029845463437
 20
153.6388250596204
 30
0.0
 40
0.2000000000007276
100
AcDbArc
 50
270.0
 51
0.0
  0
ARC
  5
E00EDA53
330
E00DEA5D
100
AcDbEntity
  8
JISSEN
100
AcDbCircle
 39
240.0520776831561
 10
262.8529845463438
 20
153.6388250596204
 30
0.0
 40
0.2000000000007276
100
AcDbArc
 50
180.0
 51
270.0
  0
LINE
  5
E00EDA54
330
E00DEA5D
100
AcDbEntity
  8
JISSEN
100
AcDbLine
 10
267.2450457307916
 20
155.53882505962
 30
0.0
 11
263.5277327035421
 21
155.53882505962
 31
0.0
  0
LINE
  5
E00EDA55
330
E00DEA5D
100
AcDbEntity
  8
JISSEN
100
AcDbLine
 10
265.0557068294003
 20
157.0388251040561
 30
0.0
 11
266.6807068294481
 21
157.0388251040579
 31
0.0
  0
LINE
  5
E00EDA56
330
E00DEA5D
100
AcDbEntity
  8
JISSEN
100
AcDbLine
 10
266.262887559393
 20
154.3388250596211
 30
0.0
 11
265.3971188414418
 21
153.6388250596204
 31
0.0
  0
LINE
  5
E00EDA57
330
E00DEA5D
100
AcDbEntity
  8
JISSEN
100
AcDbLine
 10
269.5557068163925
 20
154.3388250596211
 30
0.0
 11
263.5277327035421
 21
154.3388250596211
 31
0.0
  0
SPLINE
  5
E00EDA58
330
E00DEA5D
100
AcDbEntity
  8
JISSEN
100
AcDbSpline
210
0.0
220
0.0
230
1.0
 70
     8
 71
     3
 72
    18
 73
    14
 74
     0
 42
0.0000000001
 43
0.0000000001
 40
0.0
 40
0.0
 40
0.0
 40
0.0
 40
0.1250000000000003
 40
0.1250000000000003
 40
0.2500000000000006
 40
0.2500000000000006
 40
0.3750000000000009
 40
0.3750000000000009
 40
0.5000000000000013
 40
0.5000000000000013
 40
0.7500000000000006
 40
0.7500000000000006
 40
1.0
 40
1.0
 40
1.0
 40
1.0
 10
266.8452813320409
 20
172.4916683831282
 30
0.0
 10
266.7494439502025
 20
172.4916683831282
 30
0.0
 10
266.6554266102957
 20
172.5013173018154
 30
0.0
 10
266.4708716036611
 20
172.5392131966649
 30
0.0
 10
266.3793800030907
 20
172.567922222371
 30
0.0
 10
266.2053154993045
 20
172.6429578427099
 30
0.0
 10
266.1229612560318
 20
172.6889071173931
 30
0.0
 10
265.9674168514402
 20
172.7975503239862
 30
0.0
 10
265.8939478221918
 20
172.8608202231438
 30
0.0
 10
265.6967773378773
 20
173.0682109301518
 30
0.0
 10
265.5911292604332
 20
173.2354864223447
 30
0.0
 10
265.4497978892077
 20
173.5964270914604
 30
0.0
 10
265.4123744646067
 20
173.7934231076845
 30
0.0
 10
265.4123744646067
 20
173.9916683831282
 30
0.0
  0
LINE
  5
E00EDA59
330
E00DEA5D
100
AcDbEntity
  8
JISSEN
100
AcDbLine
 10
265.7543947516442
 20
178.9916684054709
 30
0.0
 11
265.9254046685437
 21
178.4916683235709
 31
0.0
  0
LINE
  5
E00EDA5A
330
E00DEA5D
100
AcDbEntity
  8
JISSEN
100
AcDbLine
 10
269.5557068163925
 20
164.4953400963235
 30
0.0
 11
252.77958878975
 21
164.4953400963235
 31
0.0
  0
LINE
  5
E00EDA5B
330
E00DEA5D
100
AcDbEntity
  8
JISSEN
100
AcDbLine
 10
251.305705920442
 20
141.6916680106218
 30
0.0
 11
271.055706829442
 21
141.6916680106218
 31
0.0
  0
LINE
  5
E00EDA5C
330
E00DEA5D
100
AcDbEntity
  8
JISSEN
100
AcDbLine
 10
251.3627512907933
 20
144.6916685023728
 30
0.0
 11
269.5557068163925
 21
144.6916685023728
 31
0.0
  0
LINE
  5
E00EDA5D
330
E00DEA5D
100
AcDbEntity
  8
JISSEN
100
AcDbLine
 10
253.8057072615938
 20
144.6916685023728
 30
0.0
 11
253.8057072615938
 21
164.4927750011223
 31
0.0
  0
ARC
  5
E00EDA5E
330
E00DEA5D
100
AcDbEntity
  8
JISSEN
100
AcDbCircle
 10
234.8057068294419
 20
152.4916683831719
 30
0.0
 40
15.0
100
AcDbArc
 50
0.0
 51
65.58138155571239
  0
LINE
  5
E00EDA5F
330
E00DEA5D
100
AcDbEntity
  8
JISSEN
100
AcDbLine
 10
264.1779845463429
 20
164.4953400963237
 30
0.0
 11
264.1779845463424
 21
155.53882505962
 31
0.0
  0
LINE
  5
E00EDA60
330
E00DEA5D
100
AcDbEntity
  8
JISSEN
100
AcDbLine
 10
262.7779845463428
 20
155.53882505962
 30
0.0
 11
262.7779845463432
 21
164.4953400963237
 31
0.0
  0
LINE
  5
E00EDA61
330
E00DEA5D
100
AcDbEntity
  8
JISSEN
100
AcDbLine
 10
249.8057066059427
 20
143.1916683831508
 30
0.0
 11
249.8057066059427
 21
152.4916687184226
 31
0.0
  0
ARC
  5
E00EDA62
330
E00DEA5D
100
AcDbEntity
  8
JISSEN
100
AcDbCircle
 10
251.3057068294419
 20
143.1916683831726
 30
0.0
 40
1.5
100
AcDbArc
 50
180.0
 51
270.0
  0
SPLINE
  5
E00EDA63
330
E00DEA5D
100
AcDbEntity
  8
JISSEN
100
AcDbSpline
210
0.0
220
0.0
230
1.0
 70
     8
 71
     3
 72
    16
 73
    12
 74
     0
 42
0.0000000001
 43
0.0000000001
 40
0.0
 40
0.0
 40
0.0
 40
0.0
 40
0.249999999999999
 40
0.249999999999999
 40
0.3749999999999985
 40
0.3749999999999985
 40
0.4999999999999981
 40
0.4999999999999981
 40
0.7499999999999991
 40
0.7499999999999991
 40
1.0
 40
1.0
 40
1.0
 40
1.0
 10
251.3057068294365
 20
144.6905895459198
 30
0.0
 10
251.0648629967181
 20
144.6814764015065
 30
0.0
 10
250.8357669902352
 20
144.6142416787182
 30
0.0
 10
250.5449658096422
 20
144.4639171461398
 30
0.0
 10
250.4560886769477
 20
144.4054035526345
 30
0.0
 10
250.2984831277663
 20
144.2797936865257
 30
0.0
 10
250.2284516315266
 20
144.2119461758405
 30
0.0
 10
250.0418969657193
 20
143.9960175593472
 30
0.0
 10
249.9539649529988
 20
143.8429969770835
 30
0.0
 10
249.8348824233944
 20
143.5222155589575
 30
0.0
 10
249.8057068294365
 20
143.3559862945725
 30
0.0
 10
249.8057068294365
 20
143.1916683831508
 30
0.0
  0
SPLINE
  5
E00EDA64
330
E00DEA5D
100
AcDbEntity
  8
JISSEN
100
AcDbSpline
210
0.0
220
0.0
230
1.0
 70
     8
 71
     3
 72
     9
 73
     5
 74
     0
 42
0.0000000001
 43
0.0000000001
 40
0.0
 40
0.0
 40
0.0
 40
0.0
 40
0.5
 40
1.0
 40
1.0
 40
1.0
 40
1.0
 10
251.3627512361281
 20
144.6916683831508
 30
0.0
 10
251.3532632203514
 20
144.6916683831508
 30
0.0
 10
251.3342678915187
 20
144.6914893937386
 30
0.0
 10
251.315233709628
 20
144.6909500277901
 30
0.0
 10
251.3057068294365
 20
144.6905895459198
 30
0.0
  0
LINE
  5
E00EDA65
330
E00DEA5D
100
AcDbEntity
  8
JISSEN
100
AcDbLine
 10
262.3689549277935
 20
155.53882505962
 30
0.0
 11
262.0188534025421
 21
155.53882505962
 31
0.0
  0
LINE
  5
E00EDA66
330
E00DEA5D
100
AcDbEntity
  8
JISSEN
100
AcDbLine
 10
262.3689549277935
 20
154.3388250596211
 30
0.0
 11
262.0188534025421
 21
154.3388250596211
 31
0.0
  0
LINE
  5
E00EDA67
330
E00DEA5D
100
AcDbEntity
  8
JISSEN
100
AcDbLine
 10
265.3971188414418
 20
153.6388250596204
 30
0.0
 11
262.0188534025421
 21
153.6388250596204
 31
0.0
  0
LINE
  5
E00EDA68
330
E00DEA5D
100
AcDbEntity
  8
JISSEN
100
AcDbLine
 10
262.0188534025421
 20
155.53882505962
 30
0.0
 11
262.0188534025421
 21
154.8388250596211
 31
0.0
  0
LINE
  5
E00EDA69
330
E00DEA5D
100
AcDbEntity
  8
JISSEN
100
AcDbLine
 10
260.5188534025421
 20
155.53882505962
 30
0.0
 11
259.6912886745433
 21
155.53882505962
 31
0.0
  0
LINE
  5
E00EDA6A
330
E00DEA5D
100
AcDbEntity
  8
JISSEN
100
AcDbLine
 10
260.5188534025421
 20
154.3388250596211
 30
0.0
 11
259.6912886745433
 21
154.3388250596211
 31
0.0
  0
LINE
  5
E00EDA6B
330
E00DEA5D
100
AcDbEntity
  8
JISSEN
100
AcDbLine
 10
260.5188534025421
 20
155.53882505962
 30
0.0
 11
260.5188534025421
 21
154.8388250596211
 31
0.0
  0
LINE
  5
E00EDA6C
330
E00DEA5D
100
AcDbEntity
  8
JISSEN
100
AcDbLine
 10
259.6912886745433
 20
155.53882505962
 30
0.0
 11
259.6912886745433
 21
154.3388250596211
 31
0.0
  0
LINE
  5
E00EDA6D
330
E00DEA5D
100
AcDbEntity
  8
JISSEN
100
AcDbLine
 10
262.0188534025421
 20
155.53882505962
 30
0.0
 11
260.5188534025421
 21
155.53882505962
 31
0.0
  0
LINE
  5
E00EDA6E
330
E00DEA5D
100
AcDbEntity
  8
JISSEN
100
AcDbLine
 10
260.5188534025421
 20
154.8388250596211
 30
0.0
 11
262.0188534025421
 21
154.8388250596211
 31
0.0
  0
LINE
  5
E00EDA6F
330
E00DEA5D
100
AcDbEntity
  8
JISSEN
100
AcDbLine
 10
262.0188534025421
 20
153.6388250596204
 30
0.0
 11
260.5188534025421
 21
153.6388250596204
 31
0.0
  0
LINE
  5
E00EDA70
330
E00DEA5D
100
AcDbEntity
  8
JISSEN
100
AcDbLine
 10
260.5188534025421
 20
153.6388250596204
 30
0.0
 11
260.5188534025421
 21
154.3388250596211
 31
0.0
  0
LINE
  5
E00EDA71
330
E00DEA5D
100
AcDbEntity
  8
JISSEN
100
AcDbLine
 10
262.0188534025421
 20
153.6388250596204
 30
0.0
 11
262.0188534025421
 21
154.3388250596211
 31
0.0
  0
LINE
  5
E00EDA72
330
E00DEA5D
100
AcDbEntity
  8
JISSEN
100
AcDbLine
 10
262.3689549277935
 20
155.53882505962
 30
0.0
 11
263.5277327035421
 21
155.53882505962
 31
0.0
  0
LINE
  5
E00EDA73
330
E00DEA5D
100
AcDbEntity
  8
JISSEN
100
AcDbLine
 10
262.3689549277935
 20
154.3388250596211
 30
0.0
 11
263.5277327035421
 21
154.3388250596211
 31
0.0
  0
LINE
  5
E00EDA74
330
E00DEA5D
100
AcDbEntity
  8
JISSEN
100
AcDbLine
 10
262.3689549277935
 20
154.3388250596211
 30
0.0
 11
262.3689549277935
 21
155.53882505962
 31
0.0
  0
LINE
  5
E00EDA75
330
E00DEA5D
100
AcDbEntity
  8
JISSEN
100
AcDbLine
 10
263.5277327035421
 20
155.53882505962
 30
0.0
 11
263.5277327035421
 21
154.3388250596211
 31
0.0
  0
ARC
  5
E00EDA76
330
E00DEA5D
100
AcDbEntity
  8
JISSEN
100
AcDbCircle
 10
252.8057068294419
 20
167.3818843499715
 30
0.0
 40
0.999999999999998
100
AcDbArc
 50
102.0000000000151
 51
173.6971338164191
  0
LINE
  5
E00EDA77
330
E00DEA5D
100
AcDbEntity
  8
SUNPOU
100
AcDbLine
 10
246.055706829442
 20
177.4916683831719
 30
0.0
 11
246.055706829442
 21
167.4916683831719
 31
0.0
  0
ARC
  5
E00EDA78
330
E00DEA5D
100
AcDbEntity
  8
JISSEN
100
AcDbCircle
 10
253.5557068294419
 20
169.5859829608719
 30
0.0
 40
1.000000000000007
100
AcDbArc
 50
282.0000000000152
 51
0.0
  0
LINE
  5
E00EDA79
330
E00DEA5D
100
AcDbEntity
  8
JISSEN
100
AcDbLine
 10
253.7636189318418
 20
168.6078353221704
 30
0.0
 11
252.5977949208445
 21
168.3600319218706
 31
0.0
  0
LINE
  5
E00EDA7A
330
E00DEA5D
100
AcDbEntity
  8
JISSEN
100
AcDbLine
 10
259.3445620096445
 20
172.4916682713713
 30
0.0
 11
257.0757382146421
 21
172.4916682713713
 31
0.0
  0
LINE
  5
E00EDA7B
330
E00DEA5D
100
AcDbEntity
  8
JISSEN
100
AcDbLine
 10
256.2835906229429
 20
177.2388251040214
 30
0.0
 11
260.4497112861445
 21
177.2388251039998
 31
0.0
  0
LINE
  5
E00EDA7C
330
E00DEA5D
100
AcDbEntity
  8
JISSEN
100
AcDbLine
 10
256.2835906229429
 20
177.2388251040212
 30
0.0
 11
260.4497112861445
 21
177.238825104
 31
0.0
  0
SPLINE
  5
E00EDA7D
330
E00DEA5D
100
AcDbEntity
  8
JISSEN
100
AcDbSpline
210
0.0
220
0.0
230
1.0
 70
     8
 71
     3
 72
    18
 73
    14
 74
     0
 42
0.0000000001
 43
0.0000000001
 40
0.0
 40
0.0
 40
0.0
 40
0.0
 40
0.1250000000000001
 40
0.1250000000000001
 40
0.2500000000000002
 40
0.2500000000000002
 40
0.3750000000000002
 40
0.3750000000000002
 40
0.5000000000000004
 40
0.5000000000000004
 40
0.7500000000000001
 40
0.7500000000000001
 40
1.0
 40
1.0
 40
1.0
 40
1.0
 10
256.2835905342972
 20
173.9916683831282
 30
0.0
 10
256.2835905342972
 20
173.8925276017647
 30
0.0
 10
256.2852716910238
 20
173.7950440878697
 30
0.0
 10
256.2919655363293
 20
173.6032561419173
 30
0.0
 10
256.2970611812434
 20
173.5079573540291
 30
0.0
 10
256.3107119858695
 20
173.3262422326328
 30
0.0
 10
256.3191984511859
 20
173.2400600292215
 30
0.0
 10
256.3399227788377
 20
173.0769655027828
 30
0.0
 10
256.3522836448564
 20
172.9997559732158
 30
0.0
 10
256.3943502237216
 20
172.7922222613518
 30
0.0
 10
256.4302584905626
 20
172.6805548410678
 30
0.0
 10
256.5148367126603
 20
172.5311801187139
 30
0.0
 10
256.5643242966562
 20
172.4916683831282
 30
0.0
 10
256.6181089627952
 20
172.4916683831282
 30
0.0
  0
SPLINE
  5
E00EDA7E
330
E00DEA5D
100
AcDbEntity
  8
JISSEN
100
AcDbSpline
210
0.0
220
0.0
230
1.0
 70
     8
 71
     3
 72
    18
 73
    14
 74
     0
 42
0.0000000001
 43
0.0000000001
 40
0.0
 40
0.0
 40
0.0
 40
0.0
 40
0.1249999999999998
 40
0.1249999999999998
 40
0.2499999999999997
 40
0.2499999999999997
 40
0.3749999999999995
 40
0.3749999999999995
 40
0.4999999999999993
 40
0.4999999999999993
 40
0.7499999999999997
 40
0.7499999999999997
 40
1.0
 40
1.0
 40
1.0
 40
1.0
 10
255.1341364620575
 20
172.4916683831282
 30
0.0
 10
255.1081220331325
 20
172.4916683831282
 30
0.0
 10
255.0834010149255
 20
172.5013173018154
 30
0.0
 10
255.0363499300974
 20
172.5392131966649
 30
0.0
 10
255.0137967380223
 20
172.567922222371
 30
0.0
 10
254.9722178808033
 20
172.6429578427099
 30
0.0
 10
254.9532234158405
 20
172.6889071173931
 30
0.0
 10
254.9183842861393
 20
172.7975503239862
 30
0.0
 10
254.9024920771044
 20
172.8608202231438
 30
0.0
 10
254.8609429529942
 20
173.0682109301518
 30
0.0
 10
254.8402613611851
 20
173.2354864223447
 30
0.0
 10
254.8131817233352
 20
173.5964270914604
 30
0.0
 10
254.8063789047791
 20
173.7934231076845
 30
0.0
 10
254.8063789047791
 20
173.9916683831282
 30
0.0
  0
LINE
  5
E00EDA7F
330
E00DEA5D
100
AcDbEntity
  8
JISSEN
100
AcDbLine
 10
254.5557069188435
 20
178.9916684054709
 30
0.0
 11
254.5557069188435
 21
169.5859830495713
 31
0.0
  0
LINE
  5
E00EDA80
330
E00DEA5D
100
AcDbEntity
  8
JISSEN
100
AcDbLine
 10
256.4757383025443
 20
172.4916682713713
 30
0.0
 11
255.1341364688432
 21
172.4916682713713
 31
0.0
  0
LINE
  5
E00EDA81
330
E00DEA5D
100
AcDbEntity
  8
JISSEN
100
AcDbLine
 10
256.4757383025443
 20
172.4916682713713
 30
0.0
 11
257.0757382146421
 21
172.4916682713713
 31
0.0
  0
LINE
  5
E00EDA82
330
E00DEA5D
100
AcDbEntity
  8
JISSEN
100
AcDbLine
 10
256.471875176443
 20
169.4916684781704
 30
0.0
 11
257.0718750885443
 21
169.4916684781704
 31
0.0
  0
SPLINE
  5
E00EDA83
330
E00DEA5D
100
AcDbEntity
  8
JISSEN
100
AcDbSpline
210
0.0
220
0.0
230
1.0
 70
     8
 71
     3
 72
     8
 73
     4
 74
     0
 42
0.0000000001
 43
0.0000000001
 40
0.0
 40
0.0
 40
0.0
 40
0.0
 40
0.000094419996181
 40
0.000094419996181
 40
0.000094419996181
 40
0.000094419996181
 10
256.4757383421201
 20
169.5859829609156
 30
0.0
 10
256.4757383421201
 20
169.5545096288564
 30
0.0
 10
256.4744478222773
 20
169.5230012366731
 30
0.0
 10
256.4718754323767
 20
169.4916683831282
 30
0.0
  0
LINE
  5
E00EDA84
330
E00DEA5D
100
AcDbEntity
  8
JISSEN
100
AcDbLine
 10
256.4757383025443
 20
172.4916682713713
 30
0.0
 11
256.4757383025443
 21
169.5859830495713
 31
0.0
  0
SPLINE
  5
E00EDA85
330
E00DEA5D
100
AcDbEntity
  8
JISSEN
100
AcDbSpline
210
0.0
220
0.0
230
1.0
 70
     8
 71
     3
 72
     8
 73
     4
 74
     0
 42
0.0000000001
 43
0.0000000001
 40
0.0
 40
0.0
 40
0.0
 40
0.0
 40
0.000094419996181
 40
0.000094419996181
 40
0.000094419996181
 40
0.000094419996181
 10
257.0718754323761
 20
169.4916683831282
 30
0.0
 10
257.0744478222768
 20
169.5230012366731
 30
0.0
 10
257.0757383421205
 20
169.5545096288564
 30
0.0
 10
257.0757383421205
 20
169.5859829609156
 30
0.0
  0
LINE
  5
E00EDA86
330
E00DEA5D
100
AcDbEntity
  8
JISSEN
100
AcDbLine
 10
257.0757382146421
 20
169.5859830495713
 30
0.0
 11
257.0757382146421
 21
172.4916682713713
 31
0.0
  0
LINE
  5
E00EDA87
330
E00DEA5D
100
AcDbEntity
  8
JISSEN
100
AcDbLine
 10
254.8063779777421
 20
178.9916684054709
 30
0.0
 11
255.7911864078432
 21
178.9916684054709
 31
0.0
  0
LINE
  5
E00EDA88
330
E00DEA5D
100
AcDbEntity
  8
JISSEN
100
AcDbLine
 10
254.5557069188435
 20
178.9916684054709
 30
0.0
 11
254.8063779777421
 21
178.9916684054709
 31
0.0
  0
LINE
  5
E00EDA89
330
E00DEA5D
100
AcDbEntity
  8
JISSEN
100
AcDbLine
 10
254.8063779777421
 20
173.9916685172714
 30
0.0
 11
254.8063779777421
 21
178.9916684054709
 31
0.0
  0
LINE
  5
E00EDA8A
330
E00DEA5D
100
AcDbEntity
  8
JISSEN
100
AcDbLine
 10
256.2835906229429
 20
178.4916683235709
 30
0.0
 11
256.2835906229431
 21
173.9904210903743
 31
0.0
  0
LINE
  5
E00EDA8B
330
E00DEA5D
100
AcDbEntity
  8
JISSEN
100
AcDbLine
 10
255.7911864078432
 20
178.9916684054709
 30
0.0
 11
256.2835906229429
 21
178.4916683235709
 31
0.0
  0
SPLINE
  5
E00EDA8C
330
E00DEA5D
100
AcDbEntity
  8
JISSEN
100
AcDbSpline
210
0.0
220
0.0
230
1.0
 70
     8
 71
     3
 72
    18
 73
    14
 74
     0
 42
0.0000000001
 43
0.0000000001
 40
0.0
 40
0.0
 40
0.0
 40
0.0
 40
0.1249999999999998
 40
0.1249999999999998
 40
0.2499999999999995
 40
0.2499999999999995
 40
0.3749999999999992
 40
0.3749999999999992
 40
0.499999999999999
 40
0.499999999999999
 40
0.7499999999999995
 40
0.7499999999999995
 40
1.0
 40
1.0
 40
1.0
 40
1.0
 10
260.4497112696526
 20
173.9916683831282
 30
0.0
 10
260.4497112696526
 20
173.892545043201
 30
0.0
 10
260.4422533269962
 20
173.7950784203434
 30
0.0
 10
260.413094664018
 20
173.6033231780214
 30
0.0
 10
260.3910407131006
 20
173.5080408492625
 30
0.0
 10
260.3336723025922
 20
173.3263507210425
 30
0.0
 10
260.2986453325856
 20
173.240179361673
 30
0.0
 10
260.216292863085
 20
173.0771024774124
 30
0.0
 10
260.1685380083945
 20
172.9998974903459
 30
0.0
 10
260.0130275977317
 20
172.7923621954081
 30
0.0
 10
259.8888782492249
 20
172.6806749859709
 30
0.0
 10
259.625663320342
 20
172.5312307853449
 30
0.0
 10
259.4842123605558
 20
172.4916683831282
 30
0.0
 10
259.3445619594977
 20
172.4916683831282
 30
0.0
  0
LINE
  5
E00EDA8D
330
E00DEA5D
100
AcDbEntity
  8
JISSEN
100
AcDbLine
 10
260.4497112861445
 20
178.9916684054709
 30
0.0
 11
265.4123744524422
 21
178.9916684054709
 31
0.0
  0
LINE
  5
E00EDA8E
330
E00DEA5D
100
AcDbEntity
  8
JISSEN
100
AcDbLine
 10
260.4497112861445
 20
178.9916684054709
 30
0.0
 11
260.4497112861445
 21
173.9916685172714
 31
0.0
  0
LINE
  5
E00EDA8F
330
E00DEA5D
100
AcDbEntity
  8
JISSEN
100
AcDbLine
 10
265.4123744524422
 20
178.9916684054709
 30
0.0
 11
265.7543947516442
 21
178.9916684054709
 31
0.0
  0
LINE
  5
E00EDA90
330
E00DEA5D
100
AcDbEntity
  8
JISSEN
100
AcDbLine
 10
265.4123744524422
 20
173.9916685172714
 30
0.0
 11
265.4123744524422
 21
178.9916684054709
 31
0.0
  0
LINE
  5
E00EDA91
330
E00DEA5D
100
AcDbEntity
  8
JISSEN
100
AcDbLine
 10
288.3057063972901
 20
144.6916685023728
 30
0.0
 11
288.3057063972901
 21
164.4927750011223
 31
0.0
  0
LINE
  5
E00EDA92
330
E00DEA5D
100
AcDbEntity
  8
JISSEN
100
AcDbLine
 10
272.5557068424914
 20
152.4916687184226
 30
0.0
 11
272.5557068424914
 21
164.4953400963235
 31
0.0
  0
LINE
  5
E00EDA93
330
E00DEA5D
100
AcDbEntity
  8
JISSEN
100
AcDbLine
 10
269.5557068163925
 20
152.4916687184226
 30
0.0
 11
269.5557068163925
 21
164.4953400963235
 31
0.0
  0
LINE
  5
E00EDA94
330
E00DEA5D
100
AcDbEntity
  8
JISSEN
100
AcDbLine
 10
279.1057068294412
 20
155.53882505962
 30
0.0
 11
279.1057068294417
 21
164.4953400963237
 31
0.0
  0
LINE
  5
E00EDA95
330
E00DEA5D
100
AcDbEntity
  8
JISSEN
100
AcDbLine
 10
280.5057068294432
 20
164.4953400963237
 30
0.0
 11
280.5057068294427
 21
155.53882505962
 31
0.0
  0
LINE
  5
E00EDA96
330
E00DEA5D
100
AcDbEntity
  8
JISSEN
100
AcDbLine
 10
281.8183503546918
 20
155.53882505962
 30
0.0
 11
279.7279600740933
 21
155.53882505962
 31
0.0
  0
LINE
  5
E00EDA97
330
E00DEA5D
100
AcDbEntity
  8
JISSEN
100
AcDbLine
 10
281.8183503546918
 20
154.3388250596211
 30
0.0
 11
279.7279600740933
 21
154.3388250596211
 31
0.0
  0
LINE
  5
E00EDA98
330
E00DEA5D
100
AcDbEntity
  8
JISSEN
100
AcDbLine
 10
278.4557068294436
 20
153.6388250596204
 30
0.0
 11
282.3565917505423
 21
153.6388250596204
 31
0.0
  0
LINE
  5
E00EDA99
330
E00DEA5D
100
AcDbEntity
  8
JISSEN
100
AcDbLine
 10
290.7486623680906
 20
144.6916685023728
 30
0.0
 11
272.5557068424914
 21
144.6916685023728
 31
0.0
  0
LINE
  5
E00EDA9A
330
E00DEA5D
100
AcDbEntity
  8
JISSEN
100
AcDbLine
 10
290.8057077384419
 20
141.6916680106218
 30
0.0
 11
271.055706829442
 21
141.6916680106218
 31
0.0
  0
LINE
  5
E00EDA9B
330
E00DEA5D
100
AcDbEntity
  8
JISSEN
100
AcDbLine
 10
272.5557068424914
 20
144.6916685023728
 30
0.0
 11
272.5557068424914
 21
152.4916687184226
 31
0.0
  0
LINE
  5
E00EDA9C
330
E00DEA5D
100
AcDbEntity
  8
JISSEN
100
AcDbLine
 10
269.5557068163925
 20
144.6916685023728
 30
0.0
 11
269.5557068163925
 21
152.4916687184226
 31
0.0
  0
SPLINE
  5
E00EDA9D
330
E00DEA5D
100
AcDbEntity
  8
JISSEN
100
AcDbSpline
210
0.0
220
0.0
230
1.0
 70
     8
 71
     3
 72
    16
 73
    12
 74
     0
 42
0.0000000001
 43
0.0000000001
 40
0.0
 40
0.0
 40
0.0
 40
0.0
 40
0.2500000000000009
 40
0.2500000000000009
 40
0.3750000000000013
 40
0.3750000000000013
 40
0.5000000000000018
 40
0.5000000000000018
 40
0.7500000000000009
 40
0.7500000000000009
 40
1.0
 40
1.0
 40
1.0
 40
1.0
 10
269.5557068294365
 20
144.6905895459198
 30
0.0
 10
269.5557068294365
 20
144.6814764015065
 30
0.0
 10
269.6149104344994
 20
144.6142416787182
 30
0.0
 10
269.7584183006829
 20
144.4639171461398
 30
0.0
 10
269.8154587946119
 20
144.4054035526345
 30
0.0
 10
269.9396572751075
 20
144.2797936865257
 30
0.0
 10
270.0075352323574
 20
144.2119461758405
 30
0.0
 10
270.2254331024296
 20
143.9960175593472
 30
0.0
 10
270.3821509614763
 20
143.8429969770835
 30
0.0
 10
270.7128377955914
 20
143.5222155589575
 30
0.0
 10
270.8852632238831
 20
143.3559862945725
 30
0.0
 10
271.0557068294365
 20
143.1916683831508
 30
0.0
  0
SPLINE
  5
E00EDA9E
330
E00DEA5D
100
AcDbEntity
  8
JISSEN
100
AcDbSpline
210
0.0
220
0.0
230
1.0
 70
     8
 71
     3
 72
    16
 73
    12
 74
     0
 42
0.0000000001
 43
0.0000000001
 40
0.0
 40
0.0
 40
0.0
 40
0.0
 40
0.2500000000000009
 40
0.2500000000000009
 40
0.3750000000000013
 40
0.3750000000000013
 40
0.5000000000000018
 40
0.5000000000000018
 40
0.7500000000000009
 40
0.7500000000000009
 40
1.0
 40
1.0
 40
1.0
 40
1.0
 10
272.5557068294474
 20
144.6905895459198
 30
0.0
 10
272.5557068294474
 20
144.6814764015065
 30
0.0
 10
272.4965032243844
 20
144.6142416787182
 30
0.0
 10
272.352995358201
 20
144.4639171461398
 30
0.0
 10
272.295954864272
 20
144.4054035526345
 30
0.0
 10
272.1717563837764
 20
144.2797936865257
 30
0.0
 10
272.1038784265265
 20
144.2119461758405
 30
0.0
 10
271.8859805564543
 20
143.9960175593472
 30
0.0
 10
271.7292626974076
 20
143.8429969770835
 30
0.0
 10
271.3985758632925
 20
143.5222155589575
 30
0.0
 10
271.2261504350008
 20
143.3559862945725
 30
0.0
 10
271.0557068294474
 20
143.1916683831508
 30
0.0
  0
LINE
  5
E00EDA9F
330
E00DEA5D
100
AcDbEntity
  8
JISSEN
100
AcDbLine
 10
273.1277014407917
 20
155.53882505962
 30
0.0
 11
272.5557068424914
 21
155.5388250596203
 31
0.0
  0
LINE
  5
E00EDAA0
330
E00DEA5D
100
AcDbEntity
  8
JISSEN
100
AcDbLine
 10
272.5557068424914
 20
157.5388251040568
 30
0.0
 11
274.5557068294895
 21
157.5388251040398
 31
0.0
  0
LINE
  5
E00EDAA1
330
E00DEA5D
100
AcDbEntity
  8
JISSEN
100
AcDbLine
 10
272.5557068424914
 20
157.0388251040552
 30
0.0
 11
275.4307068294362
 21
157.0388251040307
 31
0.0
  0
LINE
  5
E00EDAA2
330
E00DEA5D
100
AcDbEntity
  8
JISSEN
100
AcDbLine
 10
272.5557068424914
 20
154.3388251040443
 30
0.0
 11
273.1277014407198
 21
154.3388251040342
 31
0.0
  0
LINE
  5
E00EDAA3
330
E00DEA5D
100
AcDbEntity
  8
JISSEN
100
AcDbLine
 10
278.4551678679929
 20
154.3388250596211
 30
0.0
 11
272.5557068424914
 21
154.3388250596211
 31
0.0
  0
LINE
  5
E00EDAA4
330
E00DEA5D
100
AcDbEntity
  8
JISSEN
100
AcDbLine
 10
272.5557068424914
 20
154.2888251040434
 30
0.0
 11
275.8557068294201
 21
154.2888251039877
 31
0.0
  0
LINE
  5
E00EDAA5
330
E00DEA5D
100
AcDbEntity
  8
JISSEN
100
AcDbLine
 10
274.8283565602134
 20
153.1388251040131
 30
0.0
 11
272.5557068424914
 21
153.1388251040524
 31
0.0
  0
LINE
  5
E00EDAA6
330
E00DEA5D
100
AcDbEntity
  8
JISSEN
100
AcDbLine
 10
269.5557068163925
 20
155.53882505962
 30
0.0
 11
268.9837122181436
 21
155.53882505962
 31
0.0
  0
LINE
  5
E00EDAA7
330
E00DEA5D
100
AcDbEntity
  8
JISSEN
100
AcDbLine
 10
269.5557068163925
 20
154.3388251040702
 30
0.0
 11
268.9837122181436
 21
154.3388251040699
 31
0.0
  0
LINE
  5
E00EDAA8
330
E00DEA5D
100
AcDbEntity
  8
JISSEN
100
AcDbLine
 10
267.2830570986295
 20
153.1388251040783
 30
0.0
 11
269.5557068163925
 21
153.1388251040783
 31
0.0
  0
LINE
  5
E00EDAA9
330
E00DEA5D
100
AcDbEntity
  8
JISSEN
100
AcDbLine
 10
269.5557068163925
 20
155.538825104057
 30
0.0
 11
266.4057068294425
 21
155.5388251040307
 31
0.0
  0
LINE
  5
E00EDAAA
330
E00DEA5D
100
AcDbEntity
  8
JISSEN
100
AcDbLine
 10
269.5557068163925
 20
157.0388251040554
 30
0.0
 11
266.6807068294481
 21
157.0388251040307
 31
0.0
  0
LINE
  5
E00EDAAB
330
E00DEA5D
100
AcDbEntity
  8
JISSEN
100
AcDbLine
 10
269.5557068163926
 20
157.5388251040568
 30
0.0
 11
267.5557068293949
 21
157.5388251040398
 31
0.0
  0
LINE
  5
E00EDAAC
330
E00DEA5D
100
AcDbEntity
  8
JISSEN
100
AcDbLine
 10
269.5557068163925
 20
154.2888251040693
 30
0.0
 11
266.2557068294424
 21
154.2888251040707
 31
0.0
  0
LINE
  5
E00EDAAD
330
E00DEA5D
100
AcDbEntity
  8
JISSEN
100
AcDbLine
 10
268.9837122181436
 20
155.53882505962
 30
0.0
 11
268.9837122181436
 21
154.3388250596211
 31
0.0
  0
LINE
  5
E00EDAAE
330
E00DEA5D
100
AcDbEntity
  8
JISSEN
100
AcDbLine
 10
267.2450457307916
 20
155.53882505962
 30
0.0
 11
268.0122936069421
 21
155.53882505962
 31
0.0
  0
LINE
  5
E00EDAAF
330
E00DEA5D
100
AcDbEntity
  8
JISSEN
100
AcDbLine
 10
267.2450457307916
 20
155.5388251040689
 30
0.0
 11
268.0122936069421
 21
155.5388251040689
 31
0.0
  0
LINE
  5
E00EDAB0
330
E00DEA5D
100
AcDbEntity
  8
JISSEN
100
AcDbLine
 10
267.2450457307916
 20
154.3388251040699
 30
0.0
 11
268.0122936069421
 21
154.3388251040699
 31
0.0
  0
LINE
  5
E00EDAB1
330
E00DEA5D
100
AcDbEntity
  8
JISSEN
100
AcDbLine
 10
267.2450457307916
 20
154.3388250596211
 30
0.0
 11
267.2450457307916
 21
155.53882505962
 31
0.0
  0
LINE
  5
E00EDAB2
330
E00DEA5D
100
AcDbEntity
  8
JISSEN
100
AcDbLine
 10
266.6807068294422
 20
157.5388251040598
 30
0.0
 11
267.5557068293944
 21
157.5388251040616
 31
0.0
  0
LINE
  5
E00EDAB3
330
E00DEA5D
100
AcDbEntity
  8
JISSEN
100
AcDbLine
 10
266.4057068294425
 20
154.3388251040699
 30
0.0
 11
266.4057068294425
 21
154.2888251040707
 31
0.0
  0
LINE
  5
E00EDAB4
330
E00DEA5D
100
AcDbEntity
  8
JISSEN
100
AcDbLine
 10
266.2557068294424
 20
154.2888251040707
 30
0.0
 11
266.2557068294424
 21
153.9182479674758
 31
0.0
  0
ARC
  5
E00EDAB5
330
E00DEA5D
100
AcDbEntity
  8
JISSEN
100
AcDbCircle
 10
267.2830570986295
 20
154.1388251040747
 30
0.0
 40
1.0
100
AcDbArc
 50
210.0
 51
270.0
  0
LINE
  5
E00EDAB6
330
E00DEA5D
100
AcDbEntity
  8
JISSEN
100
AcDbLine
 10
266.4170316948427
 20
153.6388251040765
 30
0.0
 11
266.255706829442
 21
153.9182479674758
 31
0.0
  0
LINE
  5
E00EDAB7
330
E00DEA5D
100
AcDbEntity
  8
JISSEN
100
AcDbLine
 10
268.0122936069421
 20
155.53882505962
 30
0.0
 11
268.9837122181436
 21
155.53882505962
 31
0.0
  0
LINE
  5
E00EDAB8
330
E00DEA5D
100
AcDbEntity
  8
JISSEN
100
AcDbLine
 10
268.0122936069421
 20
155.5388251040689
 30
0.0
 11
268.9837122181436
 21
155.5388251040689
 31
0.0
  0
LINE
  5
E00EDAB9
330
E00DEA5D
100
AcDbEntity
  8
JISSEN
100
AcDbLine
 10
268.0122936069421
 20
154.3388251040699
 30
0.0
 11
268.9837122181436
 21
154.3388251040699
 31
0.0
  0
LINE
  5
E00EDABA
330
E00DEA5D
100
AcDbEntity
  8
JISSEN
100
AcDbLine
 10
278.4551678679929
 20
155.53882505962
 30
0.0
 11
274.8663679281437
 21
155.53882505962
 31
0.0
  0
LINE
  5
E00EDABB
330
E00DEA5D
100
AcDbEntity
  8
JISSEN
100
AcDbLine
 10
277.055706829484
 20
157.0388251040561
 30
0.0
 11
275.4307068294362
 21
157.0388251040579
 31
0.0
  0
LINE
  5
E00EDABC
330
E00DEA5D
100
AcDbEntity
  8
JISSEN
100
AcDbLine
 10
275.8557068294201
 20
154.2888251039877
 30
0.0
 11
275.8557068294137
 21
153.9182479673928
 31
0.0
  0
LINE
  5
E00EDABD
330
E00DEA5D
100
AcDbEntity
  8
JISSEN
100
AcDbLine
 10
275.7057068294209
 20
154.3388251039897
 30
0.0
 11
275.70570682942
 21
154.2888251039904
 31
0.0
  0
LINE
  5
E00EDABE
330
E00DEA5D
100
AcDbEntity
  8
JISSEN
100
AcDbLine
 10
275.4307068294422
 20
157.5388251040598
 30
0.0
 11
274.5557068294899
 21
157.5388251040616
 31
0.0
  0
LINE
  5
E00EDABF
330
E00DEA5D
100
AcDbEntity
  8
JISSEN
100
AcDbLine
 10
273.1277014407917
 20
155.53882505962
 30
0.0
 11
274.0991200519913
 21
155.53882505962
 31
0.0
  0
LINE
  5
E00EDAC0
330
E00DEA5D
100
AcDbEntity
  8
JISSEN
100
AcDbLine
 10
274.0991200519913
 20
155.53882505962
 30
0.0
 11
274.8663679281437
 21
155.53882505962
 31
0.0
  0
LINE
  5
E00EDAC1
330
E00DEA5D
100
AcDbEntity
  8
JISSEN
100
AcDbLine
 10
273.1277014407917
 20
154.3388250596211
 30
0.0
 11
273.1277014407917
 21
155.53882505962
 31
0.0
  0
LINE
  5
E00EDAC2
330
E00DEA5D
100
AcDbEntity
  8
JISSEN
100
AcDbLine
 10
274.8663679281437
 20
155.53882505962
 30
0.0
 11
274.8663679281437
 21
154.3388250596211
 31
0.0
  0
LINE
  5
E00EDAC3
330
E00DEA5D
100
AcDbEntity
  8
JISSEN
100
AcDbLine
 10
274.8663679280718
 20
154.338825104004
 30
0.0
 11
274.0991200519213
 21
154.3388251040174
 31
0.0
  0
LINE
  5
E00EDAC4
330
E00DEA5D
100
AcDbEntity
  8
JISSEN
100
AcDbLine
 10
274.0991200519213
 20
154.3388251040174
 30
0.0
 11
273.1277014407198
 21
154.3388251040342
 31
0.0
  0
ARC
  5
E00EDAC5
330
E00DEA5D
100
AcDbEntity
  8
JISSEN
100
AcDbCircle
 10
274.8283565602307
 20
154.1388251040094
 30
0.0
 40
1.0
100
AcDbArc
 50
269.9999999990099
 51
329.9999999990071
  0
LINE
  5
E00EDAC6
330
E00DEA5D
100
AcDbEntity
  8
JISSEN
100
AcDbLine
 10
275.6943819640089
 20
153.6388251039962
 30
0.0
 11
275.8557068294142
 21
153.9182479673928
 31
0.0
  0
LINE
  5
E00EDAC7
330
E00DEA5D
100
AcDbEntity
  8
JISSEN
100
AcDbLine
 10
279.7279600740933
 20
155.53882505962
 30
0.0
 11
279.7279600740933
 21
154.3388250596211
 31
0.0
  0
LINE
  5
E00EDAC8
330
E00DEA5D
100
AcDbEntity
  8
JISSEN
100
AcDbLine
 10
278.4551678679929
 20
154.3388250596211
 30
0.0
 11
278.4551678679929
 21
155.53882505962
 31
0.0
  0
LINE
  5
E00EDAC9
330
E00DEA5D
100
AcDbEntity
  8
JISSEN
100
AcDbLine
 10
278.4551678679929
 20
155.53882505962
 30
0.0
 11
279.7279600740933
 21
155.53882505962
 31
0.0
  0
LINE
  5
E00EDACA
330
E00DEA5D
100
AcDbEntity
  8
JISSEN
100
AcDbLine
 10
278.4551678679929
 20
154.3388250596211
 30
0.0
 11
279.7279600740933
 21
154.3388250596211
 31
0.0
  0
LINE
  5
E00EDACB
330
E00DEA5D
100
AcDbEntity
  8
JISSEN
100
AcDbLine
 10
277.4560032247429
 20
154.3388250596211
 30
0.0
 11
278.4557068294436
 21
153.6388250596204
 31
0.0
  0
LINE
  5
E00EDACC
330
E00DEA5D
100
AcDbEntity
  8
JISSEN
100
AcDbLine
 10
292.3057070529412
 20
143.1916683831508
 30
0.0
 11
292.3057070529412
 21
152.4916687184226
 31
0.0
  0
ARC
  5
E00EDACD
330
E00DEA5D
100
AcDbEntity
  8
JISSEN
100
AcDbCircle
 10
290.8057068294419
 20
143.1916683831726
 30
0.0
 40
1.5
100
AcDbArc
 50
270.0
 51
0.0
  0
SPLINE
  5
E00EDACE
330
E00DEA5D
100
AcDbEntity
  8
JISSEN
100
AcDbSpline
210
0.0
220
0.0
230
1.0
 70
     8
 71
     3
 72
     9
 73
     5
 74
     0
 42
0.0000000001
 43
0.0000000001
 40
0.0
 40
0.0
 40
0.0
 40
0.0
 40
0.5
 40
1.0
 40
1.0
 40
1.0
 40
1.0
 10
290.7486624227558
 20
144.6916683831508
 30
0.0
 10
290.7581504385325
 20
144.6916683831508
 30
0.0
 10
290.7771457673652
 20
144.6914893937386
 30
0.0
 10
290.7961799492559
 20
144.6909500277901
 30
0.0
 10
290.8057068294474
 20
144.6905895459198
 30
0.0
  0
SPLINE
  5
E00EDACF
330
E00DEA5D
100
AcDbEntity
  8
JISSEN
100
AcDbSpline
210
0.0
220
0.0
230
1.0
 70
     8
 71
     3
 72
    16
 73
    12
 74
     0
 42
0.0000000001
 43
0.0000000001
 40
0.0
 40
0.0
 40
0.0
 40
0.0
 40
0.249999999999999
 40
0.249999999999999
 40
0.3749999999999985
 40
0.3749999999999985
 40
0.4999999999999981
 40
0.4999999999999981
 40
0.7499999999999991
 40
0.7499999999999991
 40
1.0
 40
1.0
 40
1.0
 40
1.0
 10
290.8057068294474
 20
144.6905895459198
 30
0.0
 10
291.0465506621658
 20
144.6814764015065
 30
0.0
 10
291.2756466686487
 20
144.6142416787182
 30
0.0
 10
291.5664478492417
 20
144.4639171461398
 30
0.0
 10
291.6553249819362
 20
144.4054035526345
 30
0.0
 10
291.8129305311176
 20
144.2797936865257
 30
0.0
 10
291.8829620273573
 20
144.2119461758405
 30
0.0
 10
292.0695166931646
 20
143.9960175593472
 30
0.0
 10
292.1574487058851
 20
143.8429969770835
 30
0.0
 10
292.2765312354895
 20
143.5222155589575
 30
0.0
 10
292.3057068294474
 20
143.3559862945725
 30
0.0
 10
292.3057068294474
 20
143.1916683831508
 30
0.0
  0
LINE
  5
E00EDAD0
330
E00DEA5D
100
AcDbEntity
  8
JISSEN
100
AcDbLine
 10
281.8183503546918
 20
155.53882505962
 30
0.0
 11
282.2561159817926
 21
155.53882505962
 31
0.0
  0
LINE
  5
E00EDAD1
330
E00DEA5D
100
AcDbEntity
  8
JISSEN
100
AcDbLine
 10
281.8183503546918
 20
154.3388250596211
 30
0.0
 11
282.2561159817926
 21
154.3388250596211
 31
0.0
  0
LINE
  5
E00EDAD2
330
E00DEA5D
100
AcDbEntity
  8
JISSEN
100
AcDbLine
 10
281.8183503546918
 20
154.3388250596211
 30
0.0
 11
281.8183503546918
 21
155.53882505962
 31
0.0
  0
LINE
  5
E00EDAD3
330
E00DEA5D
100
AcDbEntity
  8
JISSEN
100
AcDbLine
 10
282.3565917505423
 20
155.53882505962
 30
0.0
 11
282.2561159817926
 21
155.53882505962
 31
0.0
  0
LINE
  5
E00EDAD4
330
E00DEA5D
100
AcDbEntity
  8
JISSEN
100
AcDbLine
 10
282.3565917505423
 20
154.8388250596211
 30
0.0
 11
282.4557068294436
 21
154.8388250596211
 31
0.0
  0
LINE
  5
E00EDAD5
330
E00DEA5D
100
AcDbEntity
  8
JISSEN
100
AcDbLine
 10
282.3565917505423
 20
154.3388250596211
 30
0.0
 11
282.2561159817926
 21
154.3388250596211
 31
0.0
  0
LINE
  5
E00EDAD6
330
E00DEA5D
100
AcDbEntity
  8
JISSEN
100
AcDbLine
 10
282.2561159817926
 20
155.53882505962
 30
0.0
 11
282.2561159817926
 21
154.3388250596211
 31
0.0
  0
LINE
  5
E00EDAD7
330
E00DEA5D
100
AcDbEntity
  8
JISSEN
100
AcDbLine
 10
282.3565917505423
 20
155.53882505962
 30
0.0
 11
282.3565917505423
 21
154.8388250596211
 31
0.0
  0
LINE
  5
E00EDAD8
330
E00DEA5D
100
AcDbEntity
  8
JISSEN
100
AcDbLine
 10
282.4557068294436
 20
153.6388250596204
 30
0.0
 11
282.3565917505423
 21
153.6388250596204
 31
0.0
  0
LINE
  5
E00EDAD9
330
E00DEA5D
100
AcDbEntity
  8
JISSEN
100
AcDbLine
 10
282.4557068294436
 20
154.8388250596211
 30
0.0
 11
282.4557068294436
 21
153.6388250596204
 31
0.0
  0
LINE
  5
E00EDADA
330
E00DEA5D
100
AcDbEntity
  8
JISSEN
100
AcDbLine
 10
282.3565917505423
 20
153.6388250596204
 30
0.0
 11
282.3565917505423
 21
154.3388250596211
 31
0.0
  0
LINE
  5
E00EDADB
330
E00DEA5D
100
AcDbEntity
  8
JISSEN
100
AcDbLine
 10
281.6617023727394
 20
178.9916684054709
 30
0.0
 11
276.6990392064417
 21
178.9916684054709
 31
0.0
  0
LINE
  5
E00EDADC
330
E00DEA5D
100
AcDbEntity
  8
JISSEN
100
AcDbLine
 10
272.5557068424914
 20
164.4953400963235
 30
0.0
 11
289.3318248691339
 21
164.4953400963235
 31
0.0
  0
LINE
  5
E00EDADD
330
E00DEA5D
100
AcDbEntity
  8
JISSEN
100
AcDbLine
 10
274.5557068295113
 20
159.5388251040598
 30
0.0
 11
272.5557068424913
 21
159.5388251040648
 31
0.0
  0
LINE
  5
E00EDADE
330
E00DEA5D
100
AcDbEntity
  8
JISSEN
100
AcDbLine
 10
267.5557068293731
 20
159.5388251040598
 30
0.0
 11
269.5557068163925
 21
159.538825104065
 31
0.0
  0
SPLINE
  5
E00EDADF
330
E00DEA5D
100
AcDbEntity
  8
JISSEN
100
AcDbSpline
210
0.0
220
0.0
230
1.0
 70
     8
 71
     3
 72
     8
 73
     4
 74
     0
 42
0.0000000001
 43
0.0000000001
 40
0.0
 40
0.0
 40
0.0
 40
0.0
 40
2.236014716865069
 40
2.236014716865111
 40
2.236014716865111
 40
2.236014716865111
 10
269.5557068163925
 20
164.4953400963235
 30
0.0
 10
270.0568908565258
 20
165.3242007092124
 30
0.0
 10
270.558074896659
 20
166.1530613221015
 30
0.0
 10
271.055706829442
 20
166.1535806623718
 30
0.0
  0
SPLINE
  5
E00EDAE0
330
E00DEA5D
100
AcDbEntity
  8
JISSEN
100
AcDbSpline
210
0.0
220
0.0
230
1.0
 70
     8
 71
     3
 72
     8
 73
     4
 74
     0
 42
0.0000000001
 43
0.0000000001
 40
0.0
 40
0.0
 40
0.0
 40
0.0
 40
2.236014716865069
 40
2.236014716865111
 40
2.236014716865111
 40
2.236014716865111
 10
272.5557068424914
 20
164.4953400963235
 30
0.0
 10
272.0545228023581
 20
165.3242007092124
 30
0.0
 10
271.5533387622249
 20
166.1530613221015
 30
0.0
 10
271.055706829442
 20
166.1535806623718
 30
0.0
  0
LINE
  5
E00EDAE1
330
E00DEA5D
100
AcDbEntity
  8
JISSEN
100
AcDbLine
 10
276.1860089903402
 20
177.238825103972
 30
0.0
 11
271.055706829442
 21
177.2388251039459
 31
0.0
  0
LINE
  5
E00EDAE2
330
E00DEA5D
100
AcDbEntity
  8
JISSEN
100
AcDbLine
 10
276.1860089903403
 20
177.2388251039723
 30
0.0
 11
265.9254046685437
 21
177.2388251039197
 31
0.0
  0
LINE
  5
E00EDAE3
330
E00DEA5D
100
AcDbEntity
  8
JISSEN
100
AcDbLine
 10
271.6557068579404
 20
172.4916682713713
 30
0.0
 11
275.2661323702395
 21
172.4916682713713
 31
0.0
  0
LINE
  5
E00EDAE4
330
E00DEA5D
100
AcDbEntity
  8
JISSEN
370
    -2
100
AcDbLine
 10
276.1860089903402
 20
178.2417097204865
 30
0.0
 11
271.055706829442
 21
178.2417097204865
 31
0.0
  0
SPLINE
  5
E00EDAE5
330
E00DEA5D
100
AcDbEntity
  8
JISSEN
100
AcDbSpline
210
0.0
220
0.0
230
1.0
 70
     8
 71
     3
 72
    18
 73
    14
 74
     0
 42
0.0000000001
 43
0.0000000001
 40
0.0
 40
0.0
 40
0.0
 40
0.0
 40
0.1250000000000001
 40
0.1250000000000001
 40
0.2500000000000003
 40
0.2500000000000003
 40
0.3750000000000004
 40
0.3750000000000004
 40
0.5000000000000006
 40
0.5000000000000006
 40
0.7500000000000002
 40
0.7500000000000002
 40
1.0
 40
1.0
 40
1.0
 40
1.0
 10
265.925404679595
 20
173.9916640538662
 30
0.0
 10
265.9254049484761
 20
173.892523455171
 30
0.0
 10
265.9345474044539
 20
173.7950401459814
 30
0.0
 10
265.9704062360997
 20
173.6032526516168
 30
0.0
 10
265.9975590340836
 20
173.5079541180088
 30
0.0
 10
266.0685639204684
 20
173.3262394793868
 30
0.0
 10
266.1120604645993
 20
173.2400575258083
 30
0.0
 10
266.2150569440227
 20
173.0769635109985
 30
0.0
 10
266.2751069949336
 20
172.9997542216618
 30
0.0
 10
266.4723667065755
 20
172.7922211750477
 30
0.0
 10
266.6320440466315
 20
172.6805541572297
 30
0.0
 10
266.9785145746
 20
172.5311799711847
 30
0.0
 10
267.1684917489392
 20
172.4916683831282
 30
0.0
 10
267.3606595729625
 20
172.4916683831282
 30
0.0
  0
LINE
  5
E00EDAE6
330
E00DEA5D
100
AcDbEntity
  8
JISSEN
100
AcDbLine
 10
270.4557068009435
 20
172.4916682713713
 30
0.0
 11
266.8452812886444
 21
172.4916682713713
 31
0.0
  0
LINE
  5
E00EDAE7
330
E00DEA5D
100
AcDbEntity
  8
JISSEN
100
AcDbLine
 10
270.4557068009435
 20
169.4916684781704
 30
0.0
 11
271.055706829442
 21
169.4916684781704
 31
0.0
  0
SPLINE
  5
E00EDAE8
330
E00DEA5D
100
AcDbEntity
  8
JISSEN
100
AcDbSpline
210
0.0
220
0.0
230
1.0
 70
    24
 71
     3
 72
     8
 73
     4
 74
     0
 42
0.0000000001
 43
0.0000000001
 40
0.0
 40
0.0
 40
0.0
 40
0.0
 40
0.000094419996181
 40
0.000094419996181
 40
0.000094419996181
 40
0.000094419996181
 10
270.4557068294807
 20
169.5859829609156
 30
0.0
 10
270.4557068294807
 20
169.5545096288564
 30
0.0
 10
270.4557068294807
 20
169.5230012366731
 30
0.0
 10
270.4557068294807
 20
169.4916683831282
 30
0.0
  0
LINE
  5
E00EDAE9
330
E00DEA5D
100
AcDbEntity
  8
JISSEN
100
AcDbLine
 10
270.4557068009435
 20
172.4916682713713
 30
0.0
 11
270.4557068009435
 21
169.5859830495713
 31
0.0
  0
LINE
  5
E00EDAEA
330
E00DEA5D
100
AcDbEntity
  8
JISSEN
100
AcDbLine
 10
271.6557068579404
 20
172.4916682713713
 30
0.0
 11
271.6557068579404
 21
169.5859830495713
 31
0.0
  0
SPLINE
  5
E00EDAEB
330
E00DEA5D
100
AcDbEntity
  8
JISSEN
100
AcDbSpline
210
0.0
220
0.0
230
1.0
 70
    24
 71
     3
 72
     8
 73
     4
 74
     0
 42
0.0000000001
 43
0.0000000001
 40
0.0
 40
0.0
 40
0.0
 40
0.0
 40
0.000094419996181
 40
0.000094419996181
 40
0.000094419996181
 40
0.000094419996181
 10
271.6557068294032
 20
169.5859829609156
 30
0.0
 10
271.6557068294032
 20
169.5545096288564
 30
0.0
 10
271.6557068294032
 20
169.5230012366731
 30
0.0
 10
271.6557068294032
 20
169.4916683831282
 30
0.0
  0
LINE
  5
E00EDAEC
330
E00DEA5D
100
AcDbEntity
  8
JISSEN
100
AcDbLine
 10
271.6557068579404
 20
169.4916684781704
 30
0.0
 11
271.055706829442
 21
169.4916684781704
 31
0.0
  0
LINE
  5
E00EDAED
330
E00DEA5D
100
AcDbEntity
  8
JISSEN
370
    -2
100
AcDbLine
 10
265.9254046685437
 20
178.2417097204867
 30
0.0
 11
271.055706829442
 21
178.2417097204882
 31
0.0
  0
SPLINE
  5
E00EDAEE
330
E00DEA5D
100
AcDbEntity
  8
JISSEN
370
    -2
100
AcDbSpline
210
0.0
220
0.0
230
1.0
 70
    12
 71
     3
 72
    10
 73
     6
 74
     0
 42
0.0000000001
 43
0.0000000001
 40
0.5057820204622066
 40
0.5057820204622066
 40
0.5057820204622066
 40
0.5057820204622066
 40
0.5996174274824865
 40
0.7976149977365948
 40
1.0
 40
1.0
 40
1.0
 40
1.0
 10
265.9249970832894
 20
178.4928600244039
 30
0.0
 41
1.0
 10
266.0183701485802
 20
178.4543264728948
 30
0.0
 41
1.0
 10
266.3164590064792
 20
178.3527285481908
 30
0.0
 41
1.0
 10
266.847440201408
 20
178.2571571590718
 30
0.0
 41
1.0
 10
267.291027420063
 20
178.2468963463483
 30
0.0
 41
1.0
 10
267.5152514657975
 20
178.2417097204865
 30
0.0
 41
1.0
  0
LINE
  5
E00EDAEF
330
E00DEA5D
100
AcDbEntity
  8
JISSEN
100
AcDbLine
 10
265.9254046685437
 20
174.5614679665717
 30
0.0
 11
265.9254046685437
 21
173.9916638606713
 31
0.0
  0
LINE
  5
E00EDAF0
330
E00DEA5D
100
AcDbEntity
  8
JISSEN
100
AcDbLine
 10
265.9254046685437
 20
178.4916683235709
 30
0.0
 11
265.9254046685437
 21
174.5614679665717
 31
0.0
  0
SPLINE
  5
E00EDAF1
330
E00DEA5D
100
AcDbEntity
  8
JISSEN
100
AcDbSpline
210
0.0
220
0.0
230
1.0
 70
     8
 71
     3
 72
    18
 73
    14
 74
     0
 42
0.0000000001
 43
0.0000000001
 40
0.0
 40
0.0
 40
0.0
 40
0.0
 40
0.1250000000000001
 40
0.1250000000000001
 40
0.2500000000000003
 40
0.2500000000000003
 40
0.3750000000000004
 40
0.3750000000000004
 40
0.5000000000000006
 40
0.5000000000000006
 40
0.7500000000000002
 40
0.7500000000000002
 40
1.0
 40
1.0
 40
1.0
 40
1.0
 10
276.1860089792889
 20
173.9916640538662
 30
0.0
 10
276.1860087104078
 20
173.892523455171
 30
0.0
 10
276.17686625443
 20
173.7950401459814
 30
0.0
 10
276.1410074227842
 20
173.6032526516168
 30
0.0
 10
276.1138546248003
 20
173.5079541180088
 30
0.0
 10
276.0428497384154
 20
173.3262394793868
 30
0.0
 10
275.9993531942845
 20
173.2400575258083
 30
0.0
 10
275.8963567148612
 20
173.0769635109985
 30
0.0
 10
275.8363066639503
 20
172.9997542216618
 30
0.0
 10
275.6390469523084
 20
172.7922211750477
 30
0.0
 10
275.4793696122524
 20
172.6805541572297
 30
0.0
 10
275.1328990842839
 20
172.5311799711847
 30
0.0
 10
274.9429219099447
 20
172.4916683831282
 30
0.0
 10
274.7507540859214
 20
172.4916683831282
 30
0.0
  0
SPLINE
  5
E00EDAF2
330
E00DEA5D
100
AcDbEntity
  8
JISSEN
100
AcDbSpline
210
0.0
220
0.0
230
1.0
 70
     8
 71
     3
 72
    18
 73
    14
 74
     0
 42
0.0000000001
 43
0.0000000001
 40
0.0
 40
0.0
 40
0.0
 40
0.0
 40
0.1250000000000003
 40
0.1250000000000003
 40
0.2500000000000006
 40
0.2500000000000006
 40
0.3750000000000009
 40
0.3750000000000009
 40
0.5000000000000013
 40
0.5000000000000013
 40
0.7500000000000006
 40
0.7500000000000006
 40
1.0
 40
1.0
 40
1.0
 40
1.0
 10
275.266132326843
 20
172.4916683831282
 30
0.0
 10
275.3619697086814
 20
172.4916683831282
 30
0.0
 10
275.4559870485882
 20
172.5013173018154
 30
0.0
 10
275.6405420552228
 20
172.5392131966649
 30
0.0
 10
275.7320336557932
 20
172.567922222371
 30
0.0
 10
275.9060981595794
 20
172.6429578427099
 30
0.0
 10
275.9884524028521
 20
172.6889071173931
 30
0.0
 10
276.1439968074437
 20
172.7975503239862
 30
0.0
 10
276.217465836692
 20
172.8608202231438
 30
0.0
 10
276.4146363210065
 20
173.0682109301518
 30
0.0
 10
276.5202843984507
 20
173.2354864223447
 30
0.0
 10
276.6616157696762
 20
173.5964270914604
 30
0.0
 10
276.6990391942772
 20
173.7934231076845
 30
0.0
 10
276.6990391942772
 20
173.9916683831282
 30
0.0
  0
LINE
  5
E00EDAF3
330
E00DEA5D
100
AcDbEntity
  8
JISSEN
100
AcDbLine
 10
276.6990392064417
 20
178.9916684054709
 30
0.0
 11
276.3570189072397
 21
178.9916684054709
 31
0.0
  0
SPLINE
  5
E00EDAF4
330
E00DEA5D
100
AcDbEntity
  8
JISSEN
370
    -2
100
AcDbSpline
210
0.0
220
0.0
230
1.0
 70
    12
 71
     3
 72
    10
 73
     6
 74
     0
 42
0.0000000001
 43
0.0000000001
 40
0.5057820204623223
 40
0.5057820204623223
 40
0.5057820204623223
 40
0.5057820204623223
 40
0.5996174274824865
 40
0.7976149977365948
 40
1.0
 40
1.0
 40
1.0
 40
1.0
 10
276.1864165755941
 20
178.4928600244037
 30
0.0
 41
1.0
 10
276.0930435103035
 20
178.4543264728946
 30
0.0
 41
1.0
 10
275.7949546524045
 20
178.3527285481908
 30
0.0
 41
1.0
 10
275.2639734574759
 20
178.2571571590718
 30
0.0
 41
1.0
 10
274.8203862388209
 20
178.2468963463483
 30
0.0
 41
1.0
 10
274.5961621930864
 20
178.2417097204865
 30
0.0
 41
1.0
  0
LINE
  5
E00EDAF5
330
E00DEA5D
100
AcDbEntity
  8
JISSEN
100
AcDbLine
 10
276.1860089903402
 20
178.4916683235709
 30
0.0
 11
276.1860089903402
 21
174.5614679665717
 31
0.0
  0
LINE
  5
E00EDAF6
330
E00DEA5D
100
AcDbEntity
  8
JISSEN
100
AcDbLine
 10
276.1860089903402
 20
174.5614679665717
 30
0.0
 11
276.1860089903402
 21
173.9916638606713
 31
0.0
  0
LINE
  5
E00EDAF7
330
E00DEA5D
100
AcDbEntity
  8
JISSEN
100
AcDbLine
 10
276.3570189072397
 20
178.9916684054709
 30
0.0
 11
276.1860089903402
 21
178.4916683235709
 31
0.0
  0
LINE
  5
E00EDAF8
330
E00DEA5D
100
AcDbEntity
  8
JISSEN
100
AcDbLine
 10
276.6990392064417
 20
173.9916685172714
 30
0.0
 11
276.6990392064417
 21
178.9916684054709
 31
0.0
  0
LINE
  5
E00EDAF9
330
E00DEA5D
100
AcDbEntity
  8
JISSEN
100
AcDbLine
 10
288.3477947270421
 20
168.6078353221704
 30
0.0
 11
289.5136187380394
 21
168.3600319218706
 31
0.0
  0
ARC
  5
E00EDAFA
330
E00DEA5D
100
AcDbEntity
  8
JISSEN
100
AcDbCircle
 10
288.5557068294419
 20
169.5859829608719
 30
0.0
 40
1.000000000000007
100
AcDbArc
 50
180.0
 51
257.9999999999847
  0
ARC
  5
E00EDAFB
330
E00DEA5D
100
AcDbEntity
  8
JISSEN
100
AcDbCircle
 10
289.305706829442
 20
167.3818843499715
 30
0.0
 40
0.999999999999998
100
AcDbArc
 50
6.302866183580868
 51
77.9999999999848
  0
LINE
  5
E00EDAFC
330
E00DEA5D
100
AcDbEntity
  8
JISSEN
100
AcDbLine
 10
287.3050356811418
 20
178.9916684054709
 30
0.0
 11
286.3202272510406
 21
178.9916684054709
 31
0.0
  0
SPLINE
  5
E00EDAFD
330
E00DEA5D
100
AcDbEntity
  8
JISSEN
100
AcDbSpline
210
0.0
220
0.0
230
1.0
 70
     8
 71
     3
 72
    18
 73
    14
 74
     0
 42
0.0000000001
 43
0.0000000001
 40
0.0
 40
0.0
 40
0.0
 40
0.0
 40
0.1249999999999998
 40
0.1249999999999998
 40
0.2499999999999997
 40
0.2499999999999997
 40
0.3749999999999995
 40
0.3749999999999995
 40
0.4999999999999993
 40
0.4999999999999993
 40
0.7499999999999997
 40
0.7499999999999997
 40
1.0
 40
1.0
 40
1.0
 40
1.0
 10
286.9772771968264
 20
172.4916683831282
 30
0.0
 10
287.0032916257514
 20
172.4916683831282
 30
0.0
 10
287.0280126439583
 20
172.5013173018154
 30
0.0
 10
287.0750637287865
 20
172.5392131966649
 30
0.0
 10
287.0976169208615
 20
172.567922222371
 30
0.0
 10
287.1391957780806
 20
172.6429578427099
 30
0.0
 10
287.1581902430434
 20
172.6889071173931
 30
0.0
 10
287.1930293727446
 20
172.7975503239862
 30
0.0
 10
287.2089215817796
 20
172.8608202231438
 30
0.0
 10
287.2504707058897
 20
173.0682109301518
 30
0.0
 10
287.2711522976988
 20
173.2354864223447
 30
0.0
 10
287.2982319355487
 20
173.5964270914604
 30
0.0
 10
287.3050347541047
 20
173.7934231076845
 30
0.0
 10
287.3050347541047
 20
173.9916683831282
 30
0.0
  0
SPLINE
  5
E00EDAFE
330
E00DEA5D
100
AcDbEntity
  8
JISSEN
100
AcDbSpline
210
0.0
220
0.0
230
1.0
 70
     8
 71
     3
 72
    18
 73
    14
 74
     0
 42
0.0000000001
 43
0.0000000001
 40
0.0
 40
0.0
 40
0.0
 40
0.0
 40
0.1250000000000001
 40
0.1250000000000001
 40
0.2500000000000002
 40
0.2500000000000002
 40
0.3750000000000002
 40
0.3750000000000002
 40
0.5000000000000004
 40
0.5000000000000004
 40
0.7500000000000001
 40
0.7500000000000001
 40
1.0
 40
1.0
 40
1.0
 40
1.0
 10
285.8278231245867
 20
173.9916683831282
 30
0.0
 10
285.8278231245867
 20
173.8925276017647
 30
0.0
 10
285.8261419678601
 20
173.7950440878697
 30
0.0
 10
285.8194481225546
 20
173.6032561419173
 30
0.0
 10
285.8143524776405
 20
173.5079573540291
 30
0.0
 10
285.8007016730143
 20
173.3262422326328
 30
0.0
 10
285.792215207698
 20
173.2400600292215
 30
0.0
 10
285.7714908800462
 20
173.0769655027828
 30
0.0
 10
285.7591300140274
 20
172.9997559732158
 30
0.0
 10
285.7170634351623
 20
172.7922222613518
 30
0.0
 10
285.6811551683213
 20
172.6805548410678
 30
0.0
 10
285.5965769462236
 20
172.5311801187139
 30
0.0
 10
285.5470893622277
 20
172.4916683831282
 30
0.0
 10
285.4933046960886
 20
172.4916683831282
 30
0.0
  0
SPLINE
  5
E00EDAFF
330
E00DEA5D
100
AcDbEntity
  8
JISSEN
100
AcDbSpline
210
0.0
220
0.0
230
1.0
 70
     8
 71
     3
 72
    18
 73
    14
 74
     0
 42
0.0000000001
 43
0.0000000001
 40
0.0
 40
0.0
 40
0.0
 40
0.0
 40
0.1249999999999998
 40
0.1249999999999998
 40
0.2499999999999995
 40
0.2499999999999995
 40
0.3749999999999992
 40
0.3749999999999992
 40
0.499999999999999
 40
0.499999999999999
 40
0.7499999999999995
 40
0.7499999999999995
 40
1.0
 40
1.0
 40
1.0
 40
1.0
 10
281.6617023892313
 20
173.9916683831282
 30
0.0
 10
281.6617023892313
 20
173.892545043201
 30
0.0
 10
281.6691603318877
 20
173.7950784203434
 30
0.0
 10
281.6983189948659
 20
173.6033231780214
 30
0.0
 10
281.7203729457833
 20
173.5080408492625
 30
0.0
 10
281.7777413562917
 20
173.3263507210425
 30
0.0
 10
281.8127683262982
 20
173.240179361673
 30
0.0
 10
281.8951207957989
 20
173.0771024774124
 30
0.0
 10
281.9428756504894
 20
172.9998974903459
 30
0.0
 10
282.0983860611523
 20
172.7923621954081
 30
0.0
 10
282.222535409659
 20
172.6806749859709
 30
0.0
 10
282.4857503385419
 20
172.5312307853449
 30
0.0
 10
282.6272012983281
 20
172.4916683831282
 30
0.0
 10
282.7668516993862
 20
172.4916683831282
 30
0.0
  0
LINE
  5
E00EDB00
330
E00DEA5D
100
AcDbEntity
  8
JISSEN
100
AcDbLine
 10
282.7668516492394
 20
172.4916682713713
 30
0.0
 11
285.0356754442418
 21
172.4916682713713
 31
0.0
  0
LINE
  5
E00EDB01
330
E00DEA5D
100
AcDbEntity
  8
JISSEN
100
AcDbLine
 10
285.6356753563395
 20
172.4916682713713
 30
0.0
 11
286.9772771900406
 21
172.4916682713713
 31
0.0
  0
LINE
  5
E00EDB02
330
E00DEA5D
100
AcDbEntity
  8
JISSEN
100
AcDbLine
 10
285.0356754442418
 20
169.5859830495713
 30
0.0
 11
285.0356754442418
 21
172.4916682713713
 31
0.0
  0
SPLINE
  5
E00EDB03
330
E00DEA5D
100
AcDbEntity
  8
JISSEN
100
AcDbSpline
210
0.0
220
0.0
230
1.0
 70
     8
 71
     3
 72
     8
 73
     4
 74
     0
 42
0.0000000001
 43
0.0000000001
 40
0.0
 40
0.0
 40
0.0
 40
0.0
 40
0.000094419996181
 40
0.000094419996181
 40
0.000094419996181
 40
0.000094419996181
 10
285.0395382265078
 20
169.4916683831282
 30
0.0
 10
285.0369658366071
 20
169.5230012366731
 30
0.0
 10
285.0356753167634
 20
169.5545096288564
 30
0.0
 10
285.0356753167634
 20
169.5859829609156
 30
0.0
  0
LINE
  5
E00EDB04
330
E00DEA5D
100
AcDbEntity
  8
JISSEN
100
AcDbLine
 10
285.6356753563395
 20
172.4916682713713
 30
0.0
 11
285.6356753563395
 21
169.4916684781702
 31
0.0
  0
LINE
  5
E00EDB05
330
E00DEA5D
100
AcDbEntity
  8
JISSEN
100
AcDbLine
 10
285.6395384824409
 20
169.4916684781704
 30
0.0
 11
285.0395385703395
 21
169.4916684781704
 31
0.0
  0
LINE
  5
E00EDB06
330
E00DEA5D
100
AcDbEntity
  8
JISSEN
100
AcDbLine
 10
285.6356753563395
 20
172.4916682713713
 30
0.0
 11
285.0356754442418
 21
172.4916682713713
 31
0.0
  0
LINE
  5
E00EDB07
330
E00DEA5D
100
AcDbEntity
  8
JISSEN
100
AcDbLine
 10
285.827823035941
 20
177.2388251040214
 30
0.0
 11
281.6617023727394
 21
177.2388251040002
 31
0.0
  0
LINE
  5
E00EDB08
330
E00DEA5D
100
AcDbEntity
  8
JISSEN
100
AcDbLine
 10
285.827823035941
 20
177.2388251040214
 30
0.0
 11
281.6617023727394
 21
177.238825104
 31
0.0
  0
LINE
  5
E00EDB09
330
E00DEA5D
100
AcDbEntity
  8
JISSEN
100
AcDbLine
 10
281.6617023727394
 20
178.9916684054709
 30
0.0
 11
281.6617023727394
 21
173.9916685172714
 31
0.0
  0
LINE
  5
E00EDB0A
330
E00DEA5D
100
AcDbEntity
  8
JISSEN
100
AcDbLine
 10
286.3202272510406
 20
178.9916684054709
 30
0.0
 11
285.827823035941
 21
178.4916683235709
 31
0.0
  0
LINE
  5
E00EDB0B
330
E00DEA5D
100
AcDbEntity
  8
JISSEN
100
AcDbLine
 10
285.827823035941
 20
178.4916683235709
 30
0.0
 11
285.8278230359411
 21
173.9904210920379
 31
0.0
  0
LINE
  5
E00EDB0C
330
E00DEA5D
100
AcDbEntity
  8
JISSEN
100
AcDbLine
 10
287.5557067400404
 20
178.9916684054709
 30
0.0
 11
287.5557067400404
 21
169.5859830495713
 31
0.0
  0
LINE
  5
E00EDB0D
330
E00DEA5D
100
AcDbEntity
  8
JISSEN
100
AcDbLine
 10
287.3050356811418
 20
173.9916685172714
 30
0.0
 11
287.3050356811418
 21
178.9916684054709
 31
0.0
  0
LINE
  5
E00EDB0E
330
E00DEA5D
100
AcDbEntity
  8
JISSEN
100
AcDbLine
 10
287.5557067400404
 20
178.9916684054709
 30
0.0
 11
287.3050356811418
 21
178.9916684054709
 31
0.0
  0
LINE
  5
E00EDB0F
330
E00DEA5D
100
AcDbEntity
  8
JISSEN
100
AcDbLine
 39
240.0520776831561
 10
285.2057068294425
 20
182.741668705375
 30
0.0
 11
271.055706829442
 21
182.7416687053731
 31
0.0
  0
LINE
  5
E00EDB10
330
E00DEA5D
100
AcDbEntity
  8
JISSEN
100
AcDbLine
 39
240.0520776831561
 10
256.9057068294414
 20
182.741668705375
 30
0.0
 11
271.055706829442
 21
182.7416687053731
 31
0.0
  0
SPLINE
  5
E00EDB11
330
E00DEA5D
100
AcDbEntity
  8
JISSEN
370
    -2
100
AcDbSpline
210
0.0
220
0.0
230
1.0
 70
    12
 71
     3
 72
    14
 73
    10
 74
     0
 42
0.0000000001
 43
0.0000000001
 40
0.0
 40
0.0
 40
0.0
 40
0.0
 40
0.2170493941225676
 40
0.4388311995732112
 40
0.5988137766302898
 40
0.7597871991591737
 40
0.8750649674182215
 40
0.9755548291618868
 40
1.0
 40
1.0
 40
1.0
 40
1.0
 10
267.5152514657975
 20
181.2417102122248
 30
0.0
 41
1.0
 10
267.2748889761151
 20
181.2357446606523
 30
0.0
 41
1.0
 10
266.7889232810421
 20
181.2236834882945
 30
0.0
 41
1.0
 10
266.1482916938466
 20
181.094493997852
 30
0.0
 41
1.0
 10
265.611356895155
 20
180.8585709403136
 30
0.0
 41
1.0
 10
265.2395493183203
 20
180.5525106316757
 30
0.0
 41
1.0
 10
265.0177664411439
 20
180.1876303950642
 30
0.0
 41
1.0
 10
264.9510470858376
 20
179.9140471376716
 30
0.0
 41
1.0
 10
264.9476591759794
 20
179.7699119067596
 30
0.0
 41
1.0
 10
264.9469962871671
 20
179.7417099663556
 30
0.0
 41
1.0
  0
LINE
  5
E00EDB12
330
E00DEA5D
100
AcDbEntity
  8
JISSEN
370
    -2
100
AcDbLine
 10
264.9363121546402
 20
181.2417102121847
 30
0.0
 11
271.055706829442
 21
181.2417102121847
 31
0.0
  0
LINE
  5
E00EDB13
330
E00DEA5D
100
AcDbEntity
  8
NITEN
100
AcDbLine
 10
258.555706829442
 20
195.0416687184709
 30
0.0
 11
283.555706829442
 21
195.0416687184709
 31
0.0
  0
LINE
  5
E00EDB14
330
E00DEA5D
100
AcDbEntity
  8
JISSEN
100
AcDbLine
 10
260.7936100553415
 20
204.7795719442741
 30
0.0
 11
271.055706829442
 21
204.7795719442741
 31
0.0
  0
LINE
  5
E00EDB15
330
E00DEA5D
100
AcDbEntity
  8
JISSEN
100
AcDbLine
 10
262.055706829442
 20
206.041668718471
 30
0.0
 11
271.055706829442
 21
206.041668718471
 31
0.0
  0
LINE
  5
E00EDB18
330
E00DEA5D
100
AcDbEntity
  8
JISSEN
100
AcDbLine
 10
259.7717322332264
 20
190.2416687184717
 30
0.0
 11
271.055706829442
 21
190.2416687184717
 31
0.0
  0
LINE
  5
E00EDB19
330
E00DEA5D
100
AcDbEntity
  8
NITEN
100
AcDbLine
 10
258.055706829442
 20
211.8470191322061
 30
0.0
 11
258.0557068294424
 21
195.5416687184709
 31
0.0
  0
LINE
  5
E00EDB1A
330
E00DEA5D
100
AcDbEntity
  8
SAISEN
100
AcDbLine
 10
261.5576977114451
 20
192.0416687184746
 30
0.0
 11
261.9932682728249
 21
205.9792301595129
 31
0.0
  0
LINE
  5
E00EDB1B
330
E00DEA5D
100
AcDbEntity
  8
SAISEN
100
AcDbLine
 10
261.5576977114451
 20
192.0416687184782
 30
0.0
 11
261.9932682728249
 21
205.9792301595165
 31
0.0
  0
LINE
  5
E00EDB1C
330
E00DEA5D
100
AcDbEntity
  8
JISSEN
100
AcDbLine
 10
260.7936100553415
 20
204.7795719442741
 30
0.0
 11
260.3393005794914
 21
190.2416687184717
 31
0.0
  0
LINE
  5
E00EDB22
330
E00DEA5D
100
AcDbEntity
  8
SAISEN
100
AcDbLine
 10
256.9057068294414
 20
182.741668705375
 30
0.0
 11
256.9057068294423
 21
183.7416687184717
 31
0.0
  0
LINE
  5
E00EDB23
330
E00DEA5D
100
AcDbEntity
  8
JISSEN
100
AcDbLine
 10
256.4057068294414
 20
182.7416687053713
 30
0.0
 11
256.9057068294414
 21
182.7416687053713
 31
0.0
  0
ARC
  5
E00EDB28
330
E00DEA5D
100
AcDbEntity
  8
JISSEN
370
    -2
100
AcDbCircle
 10
264.741242630841
 20
179.6043322036833
 30
0.0
 40
1.648956901138485
100
AcDbArc
 50
83.20607180967957
 51
175.2210394254883
  0
ARC
  5
E00EDB29
330
E00DEA5D
100
AcDbEntity
  8
NITEN
100
AcDbCircle
 10
258.555706829442
 20
195.5416687184709
 30
0.0
 40
0.5
100
AcDbArc
 50
180.0
 51
270.0
  0
ARC
  5
E00EDB2A
330
E00DEA5D
100
AcDbEntity
  8
NITEN
100
AcDbCircle
 10
252.055706829442
 20
219.3019964992576
 30
0.0
 40
0.5
100
AcDbArc
 50
180.0
 51
235.0079798014486
  0
LINE
  5
E00EDB2B
330
E00DEA5D
100
AcDbEntity
  8
JISSEN
100
AcDbLine
 10
262.055706829442
 20
206.041668718471
 30
0.0
 11
260.7936100553415
 21
204.7795719442741
 31
0.0
  0
LINE
  5
E00EDB2C
330
E00DEA5D
100
AcDbEntity
  8
NITEN
100
AcDbLine
 10
257.9240987016119
 20
212.1850833694746
 30
0.0
 11
251.7689756572608
 21
218.892380538998
 31
0.0
  0
ARC
  5
E00EDB2D
330
E00DEA5D
100
AcDbEntity
  8
NITEN
100
AcDbCircle
 10
257.5557068294419
 20
211.8470191322061
 30
0.0
 40
0.5
100
AcDbArc
 50
0.0
 51
42.5418441566224
  0
LINE
  5
E00EDB2E
330
E00DEA5D
100
AcDbEntity
  8
NITEN
100
AcDbLine
 10
284.0557068294424
 20
211.8470191322061
 30
0.0
 11
284.0557068294419
 21
195.5416687184709
 31
0.0
  0
LINE
  5
E00EDB2F
330
E00DEA5D
100
AcDbEntity
  8
SAISEN
100
AcDbLine
 10
280.5537159474388
 20
192.0416687184782
 30
0.0
 11
280.118145386059
 21
205.9792301595165
 31
0.0
  0
LINE
  5
E00EDB30
330
E00DEA5D
100
AcDbEntity
  8
SAISEN
100
AcDbLine
 10
280.5537159474388
 20
192.0416687184746
 30
0.0
 11
280.118145386059
 21
205.9792301595129
 31
0.0
  0
LINE
  5
E00EDB31
330
E00DEA5D
100
AcDbEntity
  8
JISSEN
100
AcDbLine
 10
281.3178036035424
 20
204.7795719442741
 30
0.0
 11
281.7721130793925
 21
190.2416687184717
 31
0.0
  0
LINE
  5
E00EDB32
330
E00DEA5D
100
AcDbEntity
  8
NITEN
100
AcDbLine
 10
280.0557068294419
 20
195.0416687184709
 30
0.0
 11
271.055706829442
 21
195.0416687184709
 31
0.0
  0
LINE
  5
E00EDB33
330
E00DEA5D
100
AcDbEntity
  8
JISSEN
100
AcDbLine
 10
282.3396814256575
 20
190.2416687184717
 30
0.0
 11
271.055706829442
 21
190.2416687184717
 31
0.0
  0
LINE
  5
E00EDB36
330
E00DEA5D
100
AcDbEntity
  8
JISSEN
370
    -2
100
AcDbLine
 10
277.1751015042436
 20
181.2417102121847
 30
0.0
 11
271.055706829442
 21
181.2417102121847
 31
0.0
  0
SPLINE
  5
E00EDB3C
330
E00DEA5D
100
AcDbEntity
  8
JISSEN
370
    -2
100
AcDbSpline
210
0.0
220
0.0
230
1.0
 70
    12
 71
     3
 72
    14
 73
    10
 74
     0
 42
0.0000000001
 43
0.0000000001
 40
0.0
 40
0.0
 40
0.0
 40
0.0
 40
0.2170493941225676
 40
0.4388311995732112
 40
0.5988137766302898
 40
0.7597871991591737
 40
0.8750649674182215
 40
0.9755548291618868
 40
1.0
 40
1.0
 40
1.0
 40
1.0
 10
274.5961621930864
 20
181.2417102122248
 30
0.0
 41
1.0
 10
274.8365246827688
 20
181.2357446606523
 30
0.0
 41
1.0
 10
275.3224903778418
 20
181.2236834882945
 30
0.0
 41
1.0
 10
275.9631219650373
 20
181.094493997852
 30
0.0
 41
1.0
 10
276.5000567637289
 20
180.8585709403136
 30
0.0
 41
1.0
 10
276.8718643405636
 20
180.5525106316757
 30
0.0
 41
1.0
 10
277.09364721774
 20
180.1876303950642
 30
0.0
 41
1.0
 10
277.1603665730463
 20
179.9140471376716
 30
0.0
 41
1.0
 10
277.1637544829045
 20
179.7699119067596
 30
0.0
 41
1.0
 10
277.1644173717167
 20
179.7417099663556
 30
0.0
 41
1.0
  0
ARC
  5
E00EDB3D
330
E00DEA5D
100
AcDbEntity
  8
JISSEN
370
    -2
100
AcDbCircle
 10
277.3701710280429
 20
179.6043322036833
 30
0.0
 40
1.648956901138485
100
AcDbArc
 50
4.778960574511653
 51
96.7939281903204
  0
LINE
  5
E00EDB43
330
E00DEA5D
100
AcDbEntity
  8
SAISEN
100
AcDbLine
 10
285.2057068294425
 20
182.741668705375
 30
0.0
 11
285.2057068294416
 21
183.7416687184717
 31
0.0
  0
LINE
  5
E00EDB44
330
E00DEA5D
100
AcDbEntity
  8
JISSEN
100
AcDbLine
 10
285.7057068294425
 20
182.7416687053713
 30
0.0
 11
285.2057068294425
 21
182.7416687053713
 31
0.0
  0
ARC
  5
E00EDB4A
330
E00DEA5D
100
AcDbEntity
  8
NITEN
100
AcDbCircle
 10
283.555706829442
 20
195.5416687184709
 30
0.0
 40
0.5
100
AcDbArc
 50
270.0
 51
0.0
  0
LINE
  5
E00EDB4B
330
E00DEA5D
100
AcDbEntity
  8
JISSEN
100
AcDbLine
 10
281.3178036035424
 20
204.7795719442741
 30
0.0
 11
271.055706829442
 21
204.7795719442741
 31
0.0
  0
LINE
  5
E00EDB4C
330
E00DEA5D
100
AcDbEntity
  8
JISSEN
100
AcDbLine
 10
280.0557068294419
 20
206.041668718471
 30
0.0
 11
271.055706829442
 21
206.041668718471
 31
0.0
  0
LINE
  5
E00EDB4D
330
E00DEA5D
100
AcDbEntity
  8
JISSEN
100
AcDbLine
 10
280.0557068294419
 20
206.041668718471
 30
0.0
 11
281.3178036035424
 21
204.7795719442741
 31
0.0
  0
LINE
  5
E00EDB4E
330
E00DEA5D
100
AcDbEntity
  8
NITEN
100
AcDbLine
 10
284.1873149572729
 20
212.1850833694746
 30
0.0
 11
290.342438001624
 21
218.892380538998
 31
0.0
  0
ARC
  5
E00EDB4F
330
E00DEA5D
100
AcDbEntity
  8
NITEN
100
AcDbCircle
 10
284.5557068294419
 20
211.8470191322061
 30
0.0
 40
0.5
100
AcDbArc
 50
137.4581558433775
 51
180.0
  0
ARC
  5
E00EDB50
330
E00DEA5D
100
AcDbEntity
  8
NITEN
100
AcDbCircle
 10
290.0557068294419
 20
219.3019964992576
 30
0.0
 40
0.5
100
AcDbArc
 50
304.9920201985514
 51
0.0
  0
LINE
  5
E00EDB51
330
E00DEA5D
100
AcDbEntity
  8
NITEN
100
AcDbLine
 10
290.0557068294419
 20
237.041668718471
 30
0.0
 11
252.055706829442
 21
237.041668718471
 31
0.0
  0
ELLIPSE
  5
E00EDB52
330
E00DEA5D
100
AcDbEntity
  8
NITEN
100
AcDbEllipse
 10
262.555706829442
 20
251.8456572428725
 30
0.0
 11
-8.5
 21
0.0
 31
0.0
210
0.0
220
0.0
230
1.0
 40
0.2352941176470588
 41
3.141592653589793
 42
6.283185307179586
  0
LINE
  5
E00EDB53
330
E00DEA5D
100
AcDbEntity
  8
NITEN
100
AcDbLine
 10
254.055706829442
 20
237.041668718471
 30
0.0
 11
254.055706829442
 21
251.8456572428725
 31
0.0
  0
ARC
  5
E00EDB54
330
E00DEA5D
100
AcDbEntity
  8
NITEN
100
AcDbCircle
 10
252.055706829442
 20
236.5416687184709
 30
0.0
 40
0.5
100
AcDbArc
 50
90.0
 51
180.0
  0
LINE
  5
E00EDB55
330
E00DEA5D
100
AcDbEntity
  8
NITEN
100
AcDbLine
 10
288.055706829442
 20
237.041668718471
 30
0.0
 11
288.055706829442
 21
251.8456572428725
 31
0.0
  0
ARC
  5
E00EDB56
330
E00DEA5D
100
AcDbEntity
  8
NITEN
100
AcDbCircle
 10
290.0557068294419
 20
236.5416687184709
 30
0.0
 40
0.5
100
AcDbArc
 50
0.0
 51
90.0
  0
ELLIPSE
  5
E00EDB57
330
E00DEA5D
100
AcDbEntity
  8
NITEN
100
AcDbEllipse
 10
279.5557068294419
 20
251.8456572428725
 30
0.0
 11
-8.499999999999985
 21
0.0
 31
0.0
210
0.0
220
0.0
230
1.0
 40
0.2352941176470057
 41
0.0
 42
6.283185307179586
  0
LINE
  5
E00EDB58
330
E00DEA5D
100
AcDbEntity
  8
JISSEN
100
AcDbLine
 39
240.0520776831561
 10
305.0557086771896
 20
167.4916683831719
 30
0.0
 11
305.0557086771896
 21
167.1398298741254
 31
0.0
  0
ARC
  5
E00EDB59
330
E00DEA5D
100
AcDbEntity
  8
JISSEN
100
AcDbCircle
 39
240.0520776831561
 10
304.5557086771896
 20
167.1398298741254
 30
0.0
 40
0.5
100
AcDbArc
 50
277.999995054061
 51
0.0
  0
LINE
  5
E00EDB5A
330
E00DEA5D
100
AcDbEntity
  8
SUNPOU
100
AcDbLine
 10
296.055706829442
 20
177.4916683831719
 30
0.0
 11
296.055706829442
 21
167.4916683831719
 31
0.0
  0
SPLINE
  5
E00EDB5B
330
E00DEA5D
100
AcDbEntity
  8
SUNPOU
100
AcDbSpline
210
0.0
220
0.0
230
1.0
 70
     8
 71
     3
 72
    11
 73
     7
 74
     5
 42
0.0000000001
 43
0.0000000001
 44
0.0000000001
 40
0.0
 40
0.0
 40
0.0
 40
0.0
 40
3.264692203133994
 40
6.15697472568029
 40
8.955271668736928
 40
10.85738683396026
 40
10.85738683396026
 40
10.85738683396026
 40
10.85738683396026
 10
328.1075749340707
 20
177.4916683831719
 30
0.0
 10
327.4324742457843
 20
176.4902694319667
 30
0.0
 10
326.1592828952863
 20
174.6017030222531
 30
0.0
 10
328.4251276116306
 20
171.7503319891838
 30
0.0
 10
326.222010445074
 20
169.1240014914428
 30
0.0
 10
327.564364635808
 20
167.9619255182539
 30
0.0
 10
328.1075749340707
 20
167.4916683831719
 30
0.0
 11
328.1075749340707
 21
177.4916683831719
 31
0.0
 11
326.8782345565068
 21
174.4672779623937
 31
0.0
 11
327.6504180104766
 21
171.6799798255518
 31
0.0
 11
326.9211114786685
 21
168.9783918176975
 31
0.0
 11
328.1075749340707
 21
167.4916683831719
 31
0.0
  0
LINE
  5
E00EDBEF
330
E00DEA5D
100
AcDbEntity
  8
JISSEN
100
AcDbLine
 39
1680.364539346804
 10
107.5557075534411
 20
186.0916687184811
 30
0.0
 11
106.3057075534338
 21
186.0916687184811
 31
0.0
  0
LINE
  5
E00EDBF0
330
E00DEA5D
100
AcDbEntity
  8
JISSEN
100
AcDbLine
 39
1680.364539346804
 10
107.5557075534411
 20
185.4916687184826
 30
0.0
 11
106.3057075534502
 21
185.4916687184808
 31
0.0
  0
LINE
  5
E00EDBF1
330
E00DEA5D
100
AcDbEntity
  8
JISSEN
100
AcDbLine
 39
1680.364539346804
 10
107.5557075534411
 20
184.5916687184793
 30
0.0
 11
106.3057075534393
 21
184.5916687184793
 31
0.0
  0
LINE
  5
E00EDBF2
330
E00DEA5D
100
AcDbEntity
  8
JISSEN
100
AcDbLine
 39
1680.364539346804
 10
107.5557075534447
 20
188.4916687184826
 30
0.0
 11
106.3057075534538
 21
188.4916687184826
 31
0.0
  0
LINE
  5
E00EDBF3
330
E00DEA5D
100
AcDbEntity
  8
JISSEN
100
AcDbLine
 39
1680.364539346804
 10
107.5557075534447
 20
187.5916687184811
 30
0.0
 11
106.3057075534375
 21
187.5916687184811
 31
0.0
  0
LINE
  5
E00EDBF4
330
E00DEA5D
100
AcDbEntity
  8
JISSEN
100
AcDbLine
 39
1680.364539346804
 10
107.5557075534411
 20
186.9916687184826
 30
0.0
 11
106.3057075534556
 21
186.9916687184826
 31
0.0
  0
LINE
  5
E00EDBF5
330
E00DEA5D
100
AcDbEntity
  8
JISSEN
100
AcDbLine
 39
1680.364539346804
 10
103.8057075534411
 20
184.5916687184793
 30
0.0
 11
92.55570755344114
 21
184.5916687184793
 31
0.0
  0
LINE
  5
E00EDBF6
330
E00DEA5D
100
AcDbEntity
  8
JISSEN
100
AcDbLine
 39
1680.364539346804
 10
103.8057075534411
 20
185.4916687184826
 30
0.0
 11
92.55570755344114
 21
185.4916687184826
 31
0.0
  0
LINE
  5
E00EDBF7
330
E00DEA5D
100
AcDbEntity
  8
JISSEN
100
AcDbLine
 39
1680.364539346804
 10
103.8057075534411
 20
186.0916687184811
 30
0.0
 11
92.55570755344114
 21
186.0916687184811
 31
0.0
  0
LINE
  5
E00EDBF8
330
E00DEA5D
100
AcDbEntity
  8
JISSEN
100
AcDbLine
 39
1680.364539346804
 10
103.8057075534411
 20
187.591668718483
 30
0.0
 11
92.55570755339567
 21
187.5916687184811
 31
0.0
  0
LINE
  5
E00EDBF9
330
E00DEA5D
100
AcDbEntity
  8
JISSEN
100
AcDbLine
 39
1680.364539346804
 10
103.8057075534411
 20
186.9916687184844
 30
0.0
 11
92.55570755344114
 21
186.9916687184826
 31
0.0
  0
LINE
  5
E00EDBFA
330
E00DEA5D
100
AcDbEntity
  8
JISSEN
100
AcDbLine
 39
1680.364539346804
 10
103.8057075534411
 20
188.4916687184808
 30
0.0
 11
92.55570755339567
 21
188.4916687184789
 31
0.0
  0
LINE
  5
E00EDBFB
330
E00DEA5D
100
AcDbEntity
  8
JISSEN
100
AcDbLine
 39
1680.364539346804
 10
72.55570755344115
 20
186.9916687184826
 30
0.0
 11
73.8057075534266
 21
186.9916687184826
 31
0.0
  0
LINE
  5
E00EDBFC
330
E00DEA5D
100
AcDbEntity
  8
JISSEN
100
AcDbLine
 39
1680.364539346804
 10
72.55570755343751
 20
187.5916687184811
 30
0.0
 11
73.80570755344479
 21
187.5916687184811
 31
0.0
  0
LINE
  5
E00EDBFD
330
E00DEA5D
100
AcDbEntity
  8
JISSEN
100
AcDbLine
 39
1680.364539346804
 10
72.55570755343751
 20
188.4916687184826
 30
0.0
 11
73.80570755342842
 21
188.4916687184826
 31
0.0
  0
LINE
  5
E00EDBFE
330
E00DEA5D
100
AcDbEntity
  8
JISSEN
100
AcDbLine
 39
1680.364539346804
 10
72.55570755344115
 20
184.5916687184793
 30
0.0
 11
73.80570755344297
 21
184.5916687184793
 31
0.0
  0
LINE
  5
E00EDBFF
330
E00DEA5D
100
AcDbEntity
  8
JISSEN
100
AcDbLine
 39
1680.364539346804
 10
72.55570755344115
 20
185.4916687184826
 30
0.0
 11
73.80570755343206
 21
185.4916687184808
 31
0.0
  0
LINE
  5
E00EDC00
330
E00DEA5D
100
AcDbEntity
  8
JISSEN
100
AcDbLine
 39
1680.364539346804
 10
72.55570755344115
 20
186.0916687184811
 30
0.0
 11
73.80570755344843
 21
186.0916687184811
 31
0.0
  0
LINE
  5
E00EDC01
330
E00DEA5D
100
AcDbEntity
  8
JISSEN
100
AcDbLine
 39
1680.364539346804
 10
76.30570755344115
 20
188.4916687184808
 30
0.0
 11
87.55570755348662
 21
188.4916687184789
 31
0.0
  0
LINE
  5
E00EDC02
330
E00DEA5D
100
AcDbEntity
  8
JISSEN
100
AcDbLine
 39
1680.364539346804
 10
76.30570755344115
 20
186.9916687184844
 30
0.0
 11
87.55570755344114
 21
186.9916687184826
 31
0.0
  0
LINE
  5
E00EDC03
330
E00DEA5D
100
AcDbEntity
  8
JISSEN
100
AcDbLine
 39
1680.364539346804
 10
76.30570755344115
 20
187.591668718483
 30
0.0
 11
87.55570755348662
 21
187.5916687184811
 31
0.0
  0
LINE
  5
E00EDC04
330
E00DEA5D
100
AcDbEntity
  8
JISSEN
100
AcDbLine
 39
1680.364539346804
 10
76.30570755344115
 20
186.0916687184811
 30
0.0
 11
87.55570755344114
 21
186.0916687184811
 31
0.0
  0
LINE
  5
E00EDC05
330
E00DEA5D
100
AcDbEntity
  8
JISSEN
100
AcDbLine
 39
1680.364539346804
 10
76.30570755344115
 20
185.4916687184826
 30
0.0
 11
87.55570755344114
 21
185.4916687184826
 31
0.0
  0
LINE
  5
E00EDC06
330
E00DEA5D
100
AcDbEntity
  8
JISSEN
100
AcDbLine
 39
1680.364539346804
 10
76.30570755344115
 20
184.5916687184793
 30
0.0
 11
87.55570755344114
 21
184.5916687184793
 31
0.0
  0
LINE
  5
E00EDC07
330
E00DEA5D
100
AcDbEntity
  8
JISSEN
100
AcDbLine
 10
103.8057075534411
 20
184.2450979994767
 30
0.0
 11
92.55570755344114
 21
184.2450979994786
 31
0.0
  0
LINE
  5
E00EDC08
330
E00DEA5D
100
AcDbEntity
  8
JISSEN
100
AcDbLine
 10
76.30570755344115
 20
184.2450979994767
 30
0.0
 11
87.55570755344114
 21
184.2450979994786
 31
0.0
  0
LINE
  5
E00EDC09
330
E00DEA5D
100
AcDbEntity
  8
JISSEN
100
AcDbLine
 10
72.55570755344115
 20
184.5916687184793
 30
0.0
 11
72.55570755344115
 21
184.2416687184771
 31
0.0
  0
LINE
  5
E00EDC0A
330
E00DEA5D
100
AcDbEntity
  8
JISSEN
100
AcDbLine
 10
73.80570755344115
 20
184.2416687184771
 30
0.0
 11
73.80570755344115
 21
184.5916687184793
 31
0.0
  0
LINE
  5
E00EDC0B
330
E00DEA5D
100
AcDbEntity
  8
JISSEN
100
AcDbLine
 10
73.80570755344115
 20
184.2416687184771
 30
0.0
 11
73.80570755344115
 21
184.5916687184793
 31
0.0
  0
LINE
  5
E00EDC0C
330
E00DEA5D
100
AcDbEntity
  8
JISSEN
100
AcDbLine
 10
72.55570755344115
 20
184.2450979994767
 30
0.0
 11
73.80570755344115
 21
184.2450979994767
 31
0.0
  0
LINE
  5
E00EDC0D
330
E00DEA5D
100
AcDbEntity
  8
JISSEN
100
AcDbLine
 10
72.55570755344115
 20
184.2416687184771
 30
0.0
 11
73.05570755344115
 21
183.7416687184771
 31
0.0
  0
SPLINE
  5
E00EDC0E
330
E00DEA5D
100
AcDbEntity
  8
JISSEN
100
AcDbSpline
210
0.0
220
0.0
230
1.0
 70
     8
 71
     3
 72
     8
 73
     4
 74
     0
 42
0.0000000001
 43
0.0000000001
 40
0.0
 40
0.0
 40
0.0
 40
0.0
 40
0.0007108901684311
 40
0.0007108901684311
 40
0.0007108901684311
 40
0.0007108901684311
 10
73.80570755344115
 20
184.2450979994767
 30
0.0
 10
73.95156347240072
 20
184.0784055206653
 30
0.0
 10
74.09744085860757
 20
183.9117380825495
 30
0.0
 10
74.24334167422921
 20
183.7450979994768
 30
0.0
  0
LINE
  5
E00EDC0F
330
E00DEA5D
100
AcDbEntity
  8
JISSEN
100
AcDbLine
 10
72.55570755344115
 20
188.7416687184771
 30
0.0
 11
72.55570755344115
 21
188.4916687184808
 31
0.0
  0
LINE
  5
E00EDC10
330
E00DEA5D
100
AcDbEntity
  8
JISSEN
100
AcDbLine
 10
72.55570755344115
 20
187.5916687184811
 30
0.0
 11
72.55570755344115
 21
186.9916687184789
 31
0.0
  0
LINE
  5
E00EDC11
330
E00DEA5D
100
AcDbEntity
  8
JISSEN
100
AcDbLine
 10
72.55570755344115
 20
187.5916687184793
 30
0.0
 11
72.55570755344115
 21
186.9916687184789
 31
0.0
  0
LINE
  5
E00EDC12
330
E00DEA5D
100
AcDbEntity
  8
JISSEN
100
AcDbLine
 10
72.55570755344115
 20
187.5916687184793
 30
0.0
 11
72.55570755344115
 21
186.9916687184789
 31
0.0
  0
LINE
  5
E00EDC13
330
E00DEA5D
100
AcDbEntity
  8
JISSEN
100
AcDbLine
 10
72.55570755344115
 20
187.5916687184811
 30
0.0
 11
72.55570755344115
 21
186.9916687184789
 31
0.0
  0
ARC
  5
E00EDC14
330
E00DEA5D
100
AcDbEntity
  8
JISSEN
100
AcDbCircle
 10
72.36820755343933
 20
188.04166871848
 30
0.0
 40
0.4875000000000239
100
AcDbArc
 50
292.6198649480738
 51
67.38013505192611
  0
LINE
  5
E00EDC15
330
E00DEA5D
100
AcDbEntity
  8
JISSEN
100
AcDbLine
 10
72.55570755344115
 20
187.5916687184811
 30
0.0
 11
72.55570755344115
 21
186.9916687184826
 31
0.0
  0
LINE
  5
E00EDC16
330
E00DEA5D
100
AcDbEntity
  8
JISSEN
100
AcDbLine
 10
73.80570755344115
 20
188.4916687184808
 30
0.0
 11
73.80570755344115
 21
188.7416687184771
 31
0.0
  0
ARC
  5
E00EDC17
330
E00DEA5D
100
AcDbEntity
  8
JISSEN
100
AcDbCircle
 10
73.61820755343933
 20
188.0416687184782
 30
0.0
 40
0.4875000000000239
100
AcDbArc
 50
292.6198649480738
 51
67.38013505192611
  0
LINE
  5
E00EDC18
330
E00DEA5D
100
AcDbEntity
  8
JISSEN
100
AcDbLine
 10
73.80570755344115
 20
186.9916687184808
 30
0.0
 11
73.80570755344115
 21
187.5916687184793
 31
0.0
  0
LINE
  5
E00EDC19
330
E00DEA5D
100
AcDbEntity
  8
JISSEN
100
AcDbLine
 10
73.80570755344115
 20
186.9916687184808
 30
0.0
 11
73.80570755344115
 21
187.5916687184793
 31
0.0
  0
LINE
  5
E00EDC1A
330
E00DEA5D
100
AcDbEntity
  8
JISSEN
100
AcDbLine
 10
72.55570755344115
 20
186.0916687184811
 30
0.0
 11
72.55570755344115
 21
185.4916687184826
 31
0.0
  0
ARC
  5
E00EDC1B
330
E00DEA5D
100
AcDbEntity
  8
JISSEN
100
AcDbCircle
 10
72.36820755343933
 20
185.04166871848
 30
0.0
 40
0.4875000000000239
100
AcDbArc
 50
292.6198649480738
 51
67.38013505192611
  0
LINE
  5
E00EDC1C
330
E00DEA5D
100
AcDbEntity
  8
JISSEN
100
AcDbLine
 10
72.55570755344115
 20
186.0916687184793
 30
0.0
 11
72.55570755344115
 21
185.491668718479
 31
0.0
  0
LINE
  5
E00EDC1D
330
E00DEA5D
100
AcDbEntity
  8
JISSEN
100
AcDbLine
 10
72.55570755344115
 20
186.0916687184793
 30
0.0
 11
72.55570755343933
 21
185.491668718479
 31
0.0
  0
LINE
  5
E00EDC1E
330
E00DEA5D
100
AcDbEntity
  8
JISSEN
100
AcDbLine
 10
72.55570755344115
 20
186.0916687184811
 30
0.0
 11
72.55570755344115
 21
185.491668718479
 31
0.0
  0
LINE
  5
E00EDC1F
330
E00DEA5D
100
AcDbEntity
  8
JISSEN
100
AcDbLine
 10
72.55570755344115
 20
186.0916687184793
 30
0.0
 11
72.55570755344115
 21
185.4916687184826
 31
0.0
  0
ARC
  5
E00EDC20
330
E00DEA5D
100
AcDbEntity
  8
JISSEN
100
AcDbCircle
 10
73.61820755343933
 20
185.0416687184782
 30
0.0
 40
0.4875000000000239
100
AcDbArc
 50
292.6198649480738
 51
67.38013505192611
  0
LINE
  5
E00EDC21
330
E00DEA5D
100
AcDbEntity
  8
JISSEN
100
AcDbLine
 10
73.80570755344115
 20
185.4916687184826
 30
0.0
 11
73.80570755344115
 21
186.0916687184811
 31
0.0
  0
LINE
  5
E00EDC22
330
E00DEA5D
100
AcDbEntity
  8
JISSEN
100
AcDbLine
 10
73.80570755344115
 20
185.4916687184826
 30
0.0
 11
73.80570755344115
 21
186.0916687184811
 31
0.0
  0
ARC
  5
E00EDC23
330
E00DEA5D
100
AcDbEntity
  8
JISSEN
100
AcDbCircle
 10
72.36820755343933
 20
186.54166871848
 30
0.0
 40
0.4875000000000239
100
AcDbArc
 50
292.6198649480738
 51
67.38013505192611
  0
ARC
  5
E00EDC24
330
E00DEA5D
100
AcDbEntity
  8
JISSEN
100
AcDbCircle
 10
73.61820755343933
 20
186.5416687184782
 30
0.0
 40
0.4875000000000239
100
AcDbArc
 50
292.6198649480738
 51
67.38013505192611
  0
LINE
  5
E00EDC25
330
E00DEA5D
100
AcDbEntity
  8
JISSEN
100
AcDbLine
 10
75.11949186027004
 20
183.7416687184771
 30
0.0
 11
75.11949186027004
 21
189.6076941222612
 31
0.0
  0
LINE
  5
E00EDC26
330
E00DEA5D
100
AcDbEntity
  8
JISSEN
100
AcDbLine
 10
76.30570755344115
 20
184.5916687184793
 30
0.0
 11
76.30570755344115
 21
184.2416687184771
 31
0.0
  0
SPLINE
  5
E00EDC27
330
E00DEA5D
100
AcDbEntity
  8
JISSEN
100
AcDbSpline
210
0.0
220
0.0
230
1.0
 70
     8
 71
     3
 72
     8
 73
     4
 74
     0
 42
0.0000000001
 43
0.0000000001
 40
0.0
 40
0.0
 40
0.0
 40
0.0
 40
0.0007108901684311
 40
0.0007108901684311
 40
0.0007108901684311
 40
0.0007108901684311
 10
76.74334167422921
 20
183.7416687184771
 30
0.0
 10
76.59744085860757
 20
183.9083088015499
 30
0.0
 10
76.45156347240072
 20
184.0749762396657
 30
0.0
 10
76.30570755344115
 20
184.2416687184771
 30
0.0
  0
LINE
  5
E00EDC28
330
E00DEA5D
100
AcDbEntity
  8
JISSEN
100
AcDbLine
 10
76.30570755344115
 20
188.7416687184771
 30
0.0
 11
76.30570755344137
 21
188.4916687184826
 31
0.0
  0
LINE
  5
E00EDC29
330
E00DEA5D
100
AcDbEntity
  8
JISSEN
100
AcDbLine
 10
76.30570755344115
 20
187.591668718483
 30
0.0
 11
76.30570755344115
 21
186.9916687184862
 31
0.0
  0
ARC
  5
E00EDC2A
330
E00DEA5D
100
AcDbEntity
  8
JISSEN
100
AcDbCircle
 10
76.11820755344115
 20
188.04166871848
 30
0.0
 40
0.4875000000000239
100
AcDbArc
 50
292.6198649480738
 51
67.38013505192611
  0
LINE
  5
E00EDC2B
330
E00DEA5D
100
AcDbEntity
  8
JISSEN
100
AcDbLine
 10
76.30570755344115
 20
186.0916687184811
 30
0.0
 11
76.30570755344115
 21
185.4916687184826
 31
0.0
  0
ARC
  5
E00EDC2C
330
E00DEA5D
100
AcDbEntity
  8
JISSEN
100
AcDbCircle
 10
76.11820755344115
 20
185.04166871848
 30
0.0
 40
0.4875000000000239
100
AcDbArc
 50
292.6198649480738
 51
67.38013505192611
  0
ARC
  5
E00EDC2D
330
E00DEA5D
100
AcDbEntity
  8
JISSEN
100
AcDbCircle
 10
76.11820755344115
 20
186.54166871848
 30
0.0
 40
0.4875000000000239
100
AcDbArc
 50
292.6198649480738
 51
67.38013505192611
  0
LINE
  5
E00EDC2E
330
E00DEA5D
100
AcDbEntity
  8
JISSEN
100
AcDbLine
 10
87.55570755344114
 20
183.7416687184771
 30
0.0
 11
87.55570755344114
 21
189.6076941222612
 31
0.0
  0
LINE
  5
E00EDC2F
330
E00DEA5D
100
AcDbEntity
  8
JISSEN
100
AcDbLine
 10
92.55570755344114
 20
183.7416687184771
 30
0.0
 11
92.55570755344114
 21
189.6076941222612
 31
0.0
  0
LINE
  5
E00EDC30
330
E00DEA5D
100
AcDbEntity
  8
JISSEN
100
AcDbLine
 10
103.8057075534411
 20
184.5916687184793
 30
0.0
 11
103.8057075534411
 21
184.2416687184771
 31
0.0
  0
LINE
  5
E00EDC31
330
E00DEA5D
100
AcDbEntity
  8
JISSEN
100
AcDbLine
 10
104.9919232466122
 20
183.7416687184771
 30
0.0
 11
104.9919232466122
 21
189.6076941222612
 31
0.0
  0
LINE
  5
E00EDC32
330
E00DEA5D
100
AcDbEntity
  8
JISSEN
100
AcDbLine
 10
106.3057075534411
 20
184.2416687184771
 30
0.0
 11
106.3057075534411
 21
184.5916687184793
 31
0.0
  0
LINE
  5
E00EDC33
330
E00DEA5D
100
AcDbEntity
  8
JISSEN
100
AcDbLine
 10
106.3057075534411
 20
184.2416687184771
 30
0.0
 11
106.3057075534411
 21
184.5916687184793
 31
0.0
  0
LINE
  5
E00EDC34
330
E00DEA5D
100
AcDbEntity
  8
JISSEN
100
AcDbLine
 10
107.5557075534411
 20
184.5916687184793
 30
0.0
 11
107.5557075534411
 21
184.2416687184771
 31
0.0
  0
LINE
  5
E00EDC35
330
E00DEA5D
100
AcDbEntity
  8
JISSEN
100
AcDbLine
 10
107.5557075534411
 20
184.2450979994767
 30
0.0
 11
106.3057075534411
 21
184.2450979994767
 31
0.0
  0
SPLINE
  5
E00EDC36
330
E00DEA5D
100
AcDbEntity
  8
JISSEN
100
AcDbSpline
210
0.0
220
0.0
230
1.0
 70
     8
 71
     3
 72
     8
 73
     4
 74
     0
 42
0.0000000001
 43
0.0000000001
 40
0.0
 40
0.0
 40
0.0
 40
0.0
 40
0.0007108901684311
 40
0.0007108901684311
 40
0.0007108901684311
 40
0.0007108901684311
 10
103.368073432653
 20
183.7416687184771
 30
0.0
 10
103.5139742482747
 20
183.9083088015499
 30
0.0
 10
103.6598516344815
 20
184.0749762396657
 30
0.0
 10
103.8057075534411
 20
184.2416687184771
 30
0.0
  0
SPLINE
  5
E00EDC37
330
E00DEA5D
100
AcDbEntity
  8
JISSEN
100
AcDbSpline
210
0.0
220
0.0
230
1.0
 70
     8
 71
     3
 72
     8
 73
     4
 74
     0
 42
0.0000000001
 43
0.0000000001
 40
0.0
 40
0.0
 40
0.0
 40
0.0
 40
0.0007108901684311
 40
0.0007108901684311
 40
0.0007108901684311
 40
0.0007108901684311
 10
106.3057075534411
 20
184.2450979994767
 30
0.0
 10
106.1598516344815
 20
184.0784055206653
 30
0.0
 10
106.0139742482747
 20
183.9117380825495
 30
0.0
 10
105.868073432653
 20
183.7450979994768
 30
0.0
  0
LINE
  5
E00EDC38
330
E00DEA5D
100
AcDbEntity
  8
JISSEN
100
AcDbLine
 10
107.5557075534411
 20
184.2416687184771
 30
0.0
 11
107.0557075534411
 21
183.7416687184771
 31
0.0
  0
ARC
  5
E00EDC39
330
E00DEA5D
100
AcDbEntity
  8
JISSEN
100
AcDbCircle
 10
103.9932075534411
 20
185.04166871848
 30
0.0
 40
0.4875000000000239
100
AcDbArc
 50
112.6198649480738
 51
247.3801350519261
  0
ARC
  5
E00EDC3A
330
E00DEA5D
100
AcDbEntity
  8
JISSEN
100
AcDbCircle
 10
103.9932075534411
 20
186.54166871848
 30
0.0
 40
0.4875000000000239
100
AcDbArc
 50
112.6198649480738
 51
247.3801350519261
  0
LINE
  5
E00EDC3B
330
E00DEA5D
100
AcDbEntity
  8
JISSEN
100
AcDbLine
 10
103.8057075534411
 20
186.0916687184811
 30
0.0
 11
103.8057075534411
 21
185.4916687184826
 31
0.0
  0
ARC
  5
E00EDC3C
330
E00DEA5D
100
AcDbEntity
  8
JISSEN
100
AcDbCircle
 10
103.9932075534411
 20
188.04166871848
 30
0.0
 40
0.4875000000000239
100
AcDbArc
 50
112.6198649480738
 51
247.3801350519261
  0
LINE
  5
E00EDC3D
330
E00DEA5D
100
AcDbEntity
  8
JISSEN
100
AcDbLine
 10
103.8057075534411
 20
187.591668718483
 30
0.0
 11
103.8057075534411
 21
186.9916687184862
 31
0.0
  0
LINE
  5
E00EDC3E
330
E00DEA5D
100
AcDbEntity
  8
JISSEN
100
AcDbLine
 10
103.8057075534411
 20
188.7416687184771
 30
0.0
 11
103.8057075534409
 21
188.4916687184826
 31
0.0
  0
ARC
  5
E00EDC3F
330
E00DEA5D
100
AcDbEntity
  8
JISSEN
100
AcDbCircle
 10
106.4932075534429
 20
186.5416687184782
 30
0.0
 40
0.4875000000000239
100
AcDbArc
 50
112.6198649480738
 51
247.3801350519261
  0
LINE
  5
E00EDC40
330
E00DEA5D
100
AcDbEntity
  8
JISSEN
100
AcDbLine
 10
106.3057075534411
 20
185.4916687184826
 30
0.0
 11
106.3057075534411
 21
186.0916687184811
 31
0.0
  0
LINE
  5
E00EDC41
330
E00DEA5D
100
AcDbEntity
  8
JISSEN
100
AcDbLine
 10
106.3057075534411
 20
185.4916687184826
 30
0.0
 11
106.3057075534411
 21
186.0916687184811
 31
0.0
  0
ARC
  5
E00EDC42
330
E00DEA5D
100
AcDbEntity
  8
JISSEN
100
AcDbCircle
 10
106.4932075534429
 20
185.0416687184782
 30
0.0
 40
0.4875000000000239
100
AcDbArc
 50
112.6198649480738
 51
247.3801350519261
  0
LINE
  5
E00EDC43
330
E00DEA5D
100
AcDbEntity
  8
JISSEN
100
AcDbLine
 10
106.3057075534411
 20
186.9916687184808
 30
0.0
 11
106.3057075534411
 21
187.5916687184793
 31
0.0
  0
LINE
  5
E00EDC44
330
E00DEA5D
100
AcDbEntity
  8
JISSEN
100
AcDbLine
 10
106.3057075534411
 20
186.9916687184808
 30
0.0
 11
106.3057075534411
 21
187.5916687184793
 31
0.0
  0
ARC
  5
E00EDC45
330
E00DEA5D
100
AcDbEntity
  8
JISSEN
100
AcDbCircle
 10
106.4932075534429
 20
188.0416687184782
 30
0.0
 40
0.4875000000000239
100
AcDbArc
 50
112.6198649480738
 51
247.3801350519261
  0
LINE
  5
E00EDC46
330
E00DEA5D
100
AcDbEntity
  8
JISSEN
100
AcDbLine
 10
106.3057075534411
 20
188.4916687184808
 30
0.0
 11
106.3057075534411
 21
188.7416687184771
 31
0.0
  0
ARC
  5
E00EDC47
330
E00DEA5D
100
AcDbEntity
  8
JISSEN
100
AcDbCircle
 10
107.7432075534429
 20
186.54166871848
 30
0.0
 40
0.4875000000000239
100
AcDbArc
 50
112.6198649480738
 51
247.3801350519261
  0
LINE
  5
E00EDC48
330
E00DEA5D
100
AcDbEntity
  8
JISSEN
100
AcDbLine
 10
107.5557075534411
 20
186.0916687184793
 30
0.0
 11
107.5557075534411
 21
185.4916687184826
 31
0.0
  0
LINE
  5
E00EDC49
330
E00DEA5D
100
AcDbEntity
  8
JISSEN
100
AcDbLine
 10
107.5557075534411
 20
186.0916687184811
 30
0.0
 11
107.5557075534411
 21
185.491668718479
 31
0.0
  0
LINE
  5
E00EDC4A
330
E00DEA5D
100
AcDbEntity
  8
JISSEN
100
AcDbLine
 10
107.5557075534411
 20
186.0916687184793
 30
0.0
 11
107.5557075534429
 21
185.491668718479
 31
0.0
  0
LINE
  5
E00EDC4B
330
E00DEA5D
100
AcDbEntity
  8
JISSEN
100
AcDbLine
 10
107.5557075534411
 20
186.0916687184793
 30
0.0
 11
107.5557075534411
 21
185.491668718479
 31
0.0
  0
ARC
  5
E00EDC4C
330
E00DEA5D
100
AcDbEntity
  8
JISSEN
100
AcDbCircle
 10
107.7432075534429
 20
185.04166871848
 30
0.0
 40
0.4875000000000239
100
AcDbArc
 50
112.6198649480738
 51
247.3801350519261
  0
LINE
  5
E00EDC4D
330
E00DEA5D
100
AcDbEntity
  8
JISSEN
100
AcDbLine
 10
107.5557075534411
 20
186.0916687184811
 30
0.0
 11
107.5557075534411
 21
185.4916687184826
 31
0.0
  0
LINE
  5
E00EDC4E
330
E00DEA5D
100
AcDbEntity
  8
JISSEN
100
AcDbLine
 10
107.5557075534411
 20
187.5916687184811
 30
0.0
 11
107.5557075534411
 21
186.9916687184826
 31
0.0
  0
ARC
  5
E00EDC4F
330
E00DEA5D
100
AcDbEntity
  8
JISSEN
100
AcDbCircle
 10
107.7432075534429
 20
188.04166871848
 30
0.0
 40
0.4875000000000239
100
AcDbArc
 50
112.6198649480738
 51
247.3801350519261
  0
LINE
  5
E00EDC50
330
E00DEA5D
100
AcDbEntity
  8
JISSEN
100
AcDbLine
 10
107.5557075534411
 20
187.5916687184811
 30
0.0
 11
107.5557075534411
 21
186.9916687184789
 31
0.0
  0
LINE
  5
E00EDC51
330
E00DEA5D
100
AcDbEntity
  8
JISSEN
100
AcDbLine
 10
107.5557075534411
 20
187.5916687184793
 30
0.0
 11
107.5557075534411
 21
186.9916687184789
 31
0.0
  0
LINE
  5
E00EDC52
330
E00DEA5D
100
AcDbEntity
  8
JISSEN
100
AcDbLine
 10
107.5557075534411
 20
187.5916687184793
 30
0.0
 11
107.5557075534411
 21
186.9916687184789
 31
0.0
  0
LINE
  5
E00EDC53
330
E00DEA5D
100
AcDbEntity
  8
JISSEN
100
AcDbLine
 10
107.5557075534411
 20
187.5916687184811
 30
0.0
 11
107.5557075534411
 21
186.9916687184789
 31
0.0
  0
LINE
  5
E00EDC54
330
E00DEA5D
100
AcDbEntity
  8
JISSEN
100
AcDbLine
 10
107.5557075534411
 20
188.7416687184771
 30
0.0
 11
107.5557075534411
 21
188.4916687184808
 31
0.0
  0
LINE
  5
E00EDC55
330
E00DEA5D
100
AcDbEntity
  8
JISSEN
100
AcDbLine
 10
90.05570755344114
 20
183.7416687184771
 30
0.0
 11
103.3680734326421
 21
183.7416687184771
 31
0.0
  0
LINE
  5
E00EDC56
330
E00DEA5D
100
AcDbEntity
  8
JISSEN
100
AcDbLine
 10
90.05570755344114
 20
183.7416687184771
 30
0.0
 11
76.74334167424013
 21
183.7416687184771
 31
0.0
  0
LINE
  5
E00EDC57
330
E00DEA5D
100
AcDbEntity
  8
JISSEN
100
AcDbLine
 10
75.11949186034098
 20
183.7416687184771
 30
0.0
 11
76.74334167424013
 21
183.7416687184771
 31
0.0
  0
LINE
  5
E00EDC58
330
E00DEA5D
100
AcDbEntity
  8
JISSEN
100
AcDbLine
 39
1680.364539346804
 10
72.55570755344115
 20
188.7416687184771
 30
0.0
 11
73.80570755344115
 21
188.7416687184771
 31
0.0
  0
LINE
  5
E00EDC59
330
E00DEA5D
100
AcDbEntity
  8
JISSEN
100
AcDbLine
 10
74.28775836102386
 20
189.7416687184771
 30
0.0
 11
90.05570755344114
 21
189.7416687184771
 31
0.0
  0
SPLINE
  5
E00EDC5A
330
E00DEA5D
100
AcDbEntity
  8
JISSEN
100
AcDbSpline
210
0.0
220
0.0
230
1.0
 70
     8
 71
     3
 72
     8
 73
     4
 74
     0
 42
0.0000000001
 43
0.0000000001
 40
0.000000403112789
 40
0.000000403112789
 40
0.000000403112789
 40
0.000000403112789
 40
0.0017472208689273
 40
0.0017472208689273
 40
0.0017472208689273
 40
0.0017472208689273
 10
73.80570755344115
 20
188.7416687184771
 30
0.0
 10
74.24353031553209
 20
189.0305568208217
 30
0.0
 10
74.68144857316429
 20
189.3192520971546
 30
0.0
 10
75.11949186027004
 20
189.6076941222612
 30
0.0
  0
LINE
  5
E00EDC5B
330
E00DEA5D
100
AcDbEntity
  8
JISSEN
100
AcDbLine
 10
74.24334167424013
 20
183.7416687184771
 30
0.0
 11
75.11949186034098
 21
183.7416687184771
 31
0.0
  0
LINE
  5
E00EDC5C
330
E00DEA5D
100
AcDbEntity
  8
JISSEN
100
AcDbLine
 10
74.24334167424013
 20
183.7416687184771
 30
0.0
 11
73.05570755344115
 21
183.7416687184771
 31
0.0
  0
LINE
  5
E00EDC5D
330
E00DEA5D
100
AcDbEntity
  8
JISSEN
100
AcDbLine
 10
74.28775836102568
 20
189.7416687184771
 30
0.0
 11
72.55570755344115
 21
188.7416687184753
 31
0.0
  0
LINE
  5
E00EDC5E
330
E00DEA5D
100
AcDbEntity
  8
JISSEN
100
AcDbLine
 10
73.80570755344115
 20
188.6916687184851
 30
0.0
 11
73.80570755344115
 21
188.7416687184771
 31
0.0
  0
SPLINE
  5
E00EDC5F
330
E00DEA5D
100
AcDbEntity
  8
JISSEN
100
AcDbSpline
210
0.0
220
0.0
230
1.0
 70
     8
 71
     3
 72
     8
 73
     4
 74
     0
 42
0.0000000001
 43
0.0000000001
 40
0.0000002658515791
 40
0.0000002658515791
 40
0.0000002658515791
 40
0.0000002658515791
 40
0.0017470836077175
 40
0.0017470836077175
 40
0.0017470836077175
 40
0.0017470836077175
 10
77.61949186027004
 20
189.6076941222612
 30
0.0
 10
77.18144857316429
 20
189.3192520971546
 30
0.0
 10
76.74353031553209
 20
189.0305568208217
 30
0.0
 10
76.30570755344115
 20
188.7416687184771
 30
0.0
  0
LINE
  5
E00EDC60
330
E00DEA5D
100
AcDbEntity
  8
JISSEN
100
AcDbLine
 10
75.11949186027004
 20
189.6076941222612
 30
0.0
 11
77.61949186027004
 21
189.6076941222612
 31
0.0
  0
LINE
  5
E00EDC61
330
E00DEA5D
100
AcDbEntity
  8
JISSEN
100
AcDbLine
 39
1680.364539346804
 10
107.5557075534411
 20
188.7416687184771
 30
0.0
 11
106.3057075534411
 21
188.7416687184771
 31
0.0
  0
LINE
  5
E00EDC62
330
E00DEA5D
100
AcDbEntity
  8
JISSEN
100
AcDbLine
 39
1680.364539346804
 10
103.8057075534411
 20
188.7416687185626
 30
0.0
 11
92.55570755339567
 21
188.7416687185608
 31
0.0
  0
LINE
  5
E00EDC63
330
E00DEA5D
100
AcDbEntity
  8
JISSEN
100
AcDbLine
 10
87.55570755344114
 20
189.6076941222612
 30
0.0
 11
90.05570755344114
 21
189.6076941222612
 31
0.0
  0
LINE
  5
E00EDC64
330
E00DEA5D
100
AcDbEntity
  8
JISSEN
100
AcDbLine
 10
92.55570755344114
 20
189.6076941222612
 30
0.0
 11
90.05570755344114
 21
189.6076941222612
 31
0.0
  0
LINE
  5
E00EDC65
330
E00DEA5D
100
AcDbEntity
  8
JISSEN
100
AcDbLine
 10
104.9919232466122
 20
189.6076941222612
 30
0.0
 11
102.4919232466122
 21
189.6076941222612
 31
0.0
  0
SPLINE
  5
E00EDC66
330
E00DEA5D
100
AcDbEntity
  8
JISSEN
100
AcDbSpline
210
0.0
220
0.0
230
1.0
 70
     8
 71
     3
 72
     8
 73
     4
 74
     0
 42
0.0000000001
 43
0.0000000001
 40
0.0000002658515791
 40
0.0000002658515791
 40
0.0000002658515791
 40
0.0000002658515791
 40
0.0017470836077175
 40
0.0017470836077175
 40
0.0017470836077175
 40
0.0017470836077175
 10
102.4919232466122
 20
189.6076941222612
 30
0.0
 10
102.929966533718
 20
189.3192520971546
 30
0.0
 10
103.3678847913502
 20
189.0305568208217
 30
0.0
 10
103.8057075534411
 20
188.7416687184771
 30
0.0
  0
LINE
  5
E00EDC67
330
E00DEA5D
100
AcDbEntity
  8
JISSEN
100
AcDbLine
 10
105.8236567458566
 20
189.7416687184771
 30
0.0
 11
107.5557075534411
 21
188.7416687184753
 31
0.0
  0
LINE
  5
E00EDC68
330
E00DEA5D
100
AcDbEntity
  8
JISSEN
100
AcDbLine
 10
106.3057075534411
 20
188.6916687184851
 30
0.0
 11
106.3057075534411
 21
188.7416687184771
 31
0.0
  0
SPLINE
  5
E00EDC69
330
E00DEA5D
100
AcDbEntity
  8
JISSEN
100
AcDbSpline
210
0.0
220
0.0
230
1.0
 70
     8
 71
     3
 72
     8
 73
     4
 74
     0
 42
0.0000000001
 43
0.0000000001
 40
0.000000403112789
 40
0.000000403112789
 40
0.000000403112789
 40
0.000000403112789
 40
0.0017472208689273
 40
0.0017472208689273
 40
0.0017472208689273
 40
0.0017472208689273
 10
106.3057075534411
 20
188.7416687184771
 30
0.0
 10
105.8678847913502
 20
189.0305568208217
 30
0.0
 10
105.429966533718
 20
189.3192520971546
 30
0.0
 10
104.9919232466122
 20
189.6076941222612
 30
0.0
  0
LINE
  5
E00EDC6A
330
E00DEA5D
100
AcDbEntity
  8
JISSEN
100
AcDbLine
 10
107.5557075534411
 20
188.7416687184771
 30
0.0
 11
107.5557075534411
 21
188.6916687184779
 31
0.0
  0
LINE
  5
E00EDC6B
330
E00DEA5D
100
AcDbEntity
  8
JISSEN
100
AcDbLine
 10
107.5557075534411
 20
188.7416687184771
 30
0.0
 11
107.5557075534411
 21
188.6916687184779
 31
0.0
  0
LINE
  5
E00EDC6C
330
E00DEA5D
100
AcDbEntity
  8
JISSEN
100
AcDbLine
 10
105.8236567458584
 20
189.7416687184771
 30
0.0
 11
90.05570755344114
 21
189.7416687184771
 31
0.0
  0
LINE
  5
E00EDC6D
330
E00DEA5D
100
AcDbEntity
  8
JISSEN
100
AcDbLine
 10
105.8680734326421
 20
183.7416687184771
 30
0.0
 11
107.0557075534411
 21
183.7416687184771
 31
0.0
  0
LINE
  5
E00EDC6E
330
E00DEA5D
100
AcDbEntity
  8
JISSEN
100
AcDbLine
 10
105.8680734326421
 20
183.7416687184771
 30
0.0
 11
104.9919232465413
 21
183.7416687184771
 31
0.0
  0
LINE
  5
E00EDC6F
330
E00DEA5D
100
AcDbEntity
  8
JISSEN
100
AcDbLine
 10
104.9919232465413
 20
183.7416687184771
 30
0.0
 11
103.3680734326421
 21
183.7416687184771
 31
0.0
  0
LINE
  5
E00EDCF5
330
E00DEA5D
100
AcDbEntity
  8
JISSEN
100
AcDbLine
 39
1680.364539346804
 10
288.555706829441
 20
186.0916687184793
 30
0.0
 11
287.3057068294338
 21
186.0916687184793
 31
0.0
  0
LINE
  5
E00EDCF6
330
E00DEA5D
100
AcDbEntity
  8
JISSEN
100
AcDbLine
 39
1680.364539346804
 10
288.555706829441
 20
185.4916687184808
 30
0.0
 11
287.3057068294501
 21
185.491668718479
 31
0.0
  0
LINE
  5
E00EDCF7
330
E00DEA5D
100
AcDbEntity
  8
JISSEN
100
AcDbLine
 39
1680.364539346804
 10
288.555706829441
 20
184.5916687184775
 30
0.0
 11
287.3057068294392
 21
184.5916687184775
 31
0.0
  0
LINE
  5
E00EDCF8
330
E00DEA5D
100
AcDbEntity
  8
JISSEN
100
AcDbLine
 39
1680.364539346804
 10
288.5557068294447
 20
188.4916687184808
 30
0.0
 11
287.3057068294538
 21
188.4916687184808
 31
0.0
  0
LINE
  5
E00EDCF9
330
E00DEA5D
100
AcDbEntity
  8
JISSEN
100
AcDbLine
 39
1680.364539346804
 10
288.5557068294447
 20
187.5916687184793
 30
0.0
 11
287.3057068294374
 21
187.5916687184793
 31
0.0
  0
LINE
  5
E00EDCFA
330
E00DEA5D
100
AcDbEntity
  8
JISSEN
100
AcDbLine
 39
1680.364539346804
 10
288.555706829441
 20
186.9916687184808
 30
0.0
 11
287.3057068294556
 21
186.9916687184808
 31
0.0
  0
LINE
  5
E00EDCFB
330
E00DEA5D
100
AcDbEntity
  8
JISSEN
100
AcDbLine
 39
1680.364539346804
 10
284.805706829441
 20
184.5916687184775
 30
0.0
 11
273.5557068294411
 21
184.5916687184775
 31
0.0
  0
LINE
  5
E00EDCFC
330
E00DEA5D
100
AcDbEntity
  8
JISSEN
100
AcDbLine
 39
1680.364539346804
 10
284.805706829441
 20
185.4916687184808
 30
0.0
 11
273.5557068294411
 21
185.4916687184808
 31
0.0
  0
LINE
  5
E00EDCFD
330
E00DEA5D
100
AcDbEntity
  8
JISSEN
100
AcDbLine
 39
1680.364539346804
 10
284.805706829441
 20
186.0916687184793
 30
0.0
 11
273.5557068294411
 21
186.0916687184793
 31
0.0
  0
LINE
  5
E00EDCFE
330
E00DEA5D
100
AcDbEntity
  8
JISSEN
100
AcDbLine
 39
1680.364539346804
 10
284.805706829441
 20
187.5916687184811
 30
0.0
 11
273.5557068293956
 21
187.5916687184793
 31
0.0
  0
LINE
  5
E00EDCFF
330
E00DEA5D
100
AcDbEntity
  8
JISSEN
100
AcDbLine
 39
1680.364539346804
 10
284.805706829441
 20
186.9916687184826
 30
0.0
 11
273.5557068294411
 21
186.9916687184808
 31
0.0
  0
LINE
  5
E00EDD00
330
E00DEA5D
100
AcDbEntity
  8
JISSEN
100
AcDbLine
 39
1680.364539346804
 10
284.805706829441
 20
188.4916687184789
 30
0.0
 11
273.5557068293956
 21
188.4916687184771
 31
0.0
  0
LINE
  5
E00EDD01
330
E00DEA5D
100
AcDbEntity
  8
JISSEN
100
AcDbLine
 39
1680.364539346804
 10
253.555706829441
 20
186.9916687184808
 30
0.0
 11
254.8057068294265
 21
186.9916687184808
 31
0.0
  0
LINE
  5
E00EDD02
330
E00DEA5D
100
AcDbEntity
  8
JISSEN
100
AcDbLine
 39
1680.364539346804
 10
253.5557068294374
 20
187.5916687184793
 30
0.0
 11
254.8057068294447
 21
187.5916687184793
 31
0.0
  0
LINE
  5
E00EDD03
330
E00DEA5D
100
AcDbEntity
  8
JISSEN
100
AcDbLine
 39
1680.364539346804
 10
253.5557068294374
 20
188.4916687184808
 30
0.0
 11
254.8057068294283
 21
188.4916687184808
 31
0.0
  0
LINE
  5
E00EDD04
330
E00DEA5D
100
AcDbEntity
  8
JISSEN
100
AcDbLine
 39
1680.364539346804
 10
253.555706829441
 20
184.5916687184775
 30
0.0
 11
254.8057068294429
 21
184.5916687184775
 31
0.0
  0
LINE
  5
E00EDD05
330
E00DEA5D
100
AcDbEntity
  8
JISSEN
100
AcDbLine
 39
1680.364539346804
 10
253.555706829441
 20
185.4916687184808
 30
0.0
 11
254.8057068294319
 21
185.491668718479
 31
0.0
  0
LINE
  5
E00EDD06
330
E00DEA5D
100
AcDbEntity
  8
JISSEN
100
AcDbLine
 39
1680.364539346804
 10
253.555706829441
 20
186.0916687184793
 30
0.0
 11
254.8057068294483
 21
186.0916687184793
 31
0.0
  0
LINE
  5
E00EDD07
330
E00DEA5D
100
AcDbEntity
  8
JISSEN
100
AcDbLine
 39
1680.364539346804
 10
257.305706829441
 20
188.4916687184789
 30
0.0
 11
268.5557068294865
 21
188.4916687184771
 31
0.0
  0
LINE
  5
E00EDD08
330
E00DEA5D
100
AcDbEntity
  8
JISSEN
100
AcDbLine
 39
1680.364539346804
 10
257.305706829441
 20
186.9916687184826
 30
0.0
 11
268.555706829441
 21
186.9916687184808
 31
0.0
  0
LINE
  5
E00EDD09
330
E00DEA5D
100
AcDbEntity
  8
JISSEN
100
AcDbLine
 39
1680.364539346804
 10
257.305706829441
 20
187.5916687184811
 30
0.0
 11
268.5557068294865
 21
187.5916687184793
 31
0.0
  0
LINE
  5
E00EDD0A
330
E00DEA5D
100
AcDbEntity
  8
JISSEN
100
AcDbLine
 39
1680.364539346804
 10
257.305706829441
 20
186.0916687184793
 30
0.0
 11
268.555706829441
 21
186.0916687184793
 31
0.0
  0
LINE
  5
E00EDD0B
330
E00DEA5D
100
AcDbEntity
  8
JISSEN
100
AcDbLine
 39
1680.364539346804
 10
257.305706829441
 20
185.4916687184808
 30
0.0
 11
268.555706829441
 21
185.4916687184808
 31
0.0
  0
LINE
  5
E00EDD0C
330
E00DEA5D
100
AcDbEntity
  8
JISSEN
100
AcDbLine
 39
1680.364539346804
 10
257.305706829441
 20
184.5916687184775
 30
0.0
 11
268.555706829441
 21
184.5916687184775
 31
0.0
  0
LINE
  5
E00EDD0D
330
E00DEA5D
100
AcDbEntity
  8
JISSEN
100
AcDbLine
 10
284.805706829441
 20
184.2450979994749
 30
0.0
 11
273.5557068294411
 21
184.2450979994767
 31
0.0
  0
LINE
  5
E00EDD0E
330
E00DEA5D
100
AcDbEntity
  8
JISSEN
100
AcDbLine
 10
257.305706829441
 20
184.2450979994749
 30
0.0
 11
268.555706829441
 21
184.2450979994767
 31
0.0
  0
LINE
  5
E00EDD0F
330
E00DEA5D
100
AcDbEntity
  8
JISSEN
100
AcDbLine
 10
253.555706829441
 20
184.5916687184775
 30
0.0
 11
253.555706829441
 21
184.2416687184753
 31
0.0
  0
LINE
  5
E00EDD10
330
E00DEA5D
100
AcDbEntity
  8
JISSEN
100
AcDbLine
 10
254.8057068294411
 20
184.2416687184753
 30
0.0
 11
254.8057068294411
 21
184.5916687184775
 31
0.0
  0
LINE
  5
E00EDD11
330
E00DEA5D
100
AcDbEntity
  8
JISSEN
100
AcDbLine
 10
254.8057068294411
 20
184.2416687184753
 30
0.0
 11
254.8057068294411
 21
184.5916687184775
 31
0.0
  0
LINE
  5
E00EDD12
330
E00DEA5D
100
AcDbEntity
  8
JISSEN
100
AcDbLine
 10
253.555706829441
 20
184.2450979994749
 30
0.0
 11
254.8057068294411
 21
184.2450979994749
 31
0.0
  0
LINE
  5
E00EDD13
330
E00DEA5D
100
AcDbEntity
  8
JISSEN
100
AcDbLine
 10
253.555706829441
 20
184.2416687184753
 30
0.0
 11
254.055706829441
 21
183.7416687184753
 31
0.0
  0
SPLINE
  5
E00EDD14
330
E00DEA5D
100
AcDbEntity
  8
JISSEN
100
AcDbSpline
210
0.0
220
0.0
230
1.0
 70
     8
 71
     3
 72
     8
 73
     4
 74
     0
 42
0.0000000001
 43
0.0000000001
 40
0.0
 40
0.0
 40
0.0
 40
0.0
 40
0.0007108901684311
 40
0.0007108901684311
 40
0.0007108901684311
 40
0.0007108901684311
 10
254.8057068294411
 20
184.2450979994749
 30
0.0
 10
254.9515627484006
 20
184.0784055206635
 30
0.0
 10
255.0974401346075
 20
183.9117380825476
 30
0.0
 10
255.2433409502291
 20
183.7450979994749
 30
0.0
  0
LINE
  5
E00EDD15
330
E00DEA5D
100
AcDbEntity
  8
JISSEN
100
AcDbLine
 10
253.555706829441
 20
188.7416687184753
 30
0.0
 11
253.555706829441
 21
188.4916687184789
 31
0.0
  0
LINE
  5
E00EDD16
330
E00DEA5D
100
AcDbEntity
  8
JISSEN
100
AcDbLine
 10
253.555706829441
 20
187.5916687184793
 30
0.0
 11
253.555706829441
 21
186.9916687184771
 31
0.0
  0
LINE
  5
E00EDD17
330
E00DEA5D
100
AcDbEntity
  8
JISSEN
100
AcDbLine
 10
253.555706829441
 20
187.5916687184775
 30
0.0
 11
253.555706829441
 21
186.9916687184771
 31
0.0
  0
LINE
  5
E00EDD18
330
E00DEA5D
100
AcDbEntity
  8
JISSEN
100
AcDbLine
 10
253.555706829441
 20
187.5916687184775
 30
0.0
 11
253.555706829441
 21
186.9916687184771
 31
0.0
  0
LINE
  5
E00EDD19
330
E00DEA5D
100
AcDbEntity
  8
JISSEN
100
AcDbLine
 10
253.555706829441
 20
187.5916687184793
 30
0.0
 11
253.555706829441
 21
186.9916687184771
 31
0.0
  0
ARC
  5
E00EDD1A
330
E00DEA5D
100
AcDbEntity
  8
JISSEN
100
AcDbCircle
 10
253.3682068294392
 20
188.0416687184782
 30
0.0
 40
0.4875000000000239
100
AcDbArc
 50
292.6198649480738
 51
67.38013505192611
  0
LINE
  5
E00EDD1B
330
E00DEA5D
100
AcDbEntity
  8
JISSEN
100
AcDbLine
 10
253.555706829441
 20
187.5916687184793
 30
0.0
 11
253.555706829441
 21
186.9916687184808
 31
0.0
  0
LINE
  5
E00EDD1C
330
E00DEA5D
100
AcDbEntity
  8
JISSEN
100
AcDbLine
 10
254.8057068294411
 20
188.4916687184789
 30
0.0
 11
254.8057068294411
 21
188.7416687184753
 31
0.0
  0
ARC
  5
E00EDD1D
330
E00DEA5D
100
AcDbEntity
  8
JISSEN
100
AcDbCircle
 10
254.6182068294392
 20
188.0416687184764
 30
0.0
 40
0.4875000000000239
100
AcDbArc
 50
292.6198649480738
 51
67.38013505192611
  0
LINE
  5
E00EDD1E
330
E00DEA5D
100
AcDbEntity
  8
JISSEN
100
AcDbLine
 10
254.8057068294411
 20
186.9916687184789
 30
0.0
 11
254.8057068294411
 21
187.5916687184775
 31
0.0
  0
LINE
  5
E00EDD1F
330
E00DEA5D
100
AcDbEntity
  8
JISSEN
100
AcDbLine
 10
254.8057068294411
 20
186.9916687184789
 30
0.0
 11
254.8057068294411
 21
187.5916687184775
 31
0.0
  0
LINE
  5
E00EDD20
330
E00DEA5D
100
AcDbEntity
  8
JISSEN
100
AcDbLine
 10
253.555706829441
 20
186.0916687184793
 30
0.0
 11
253.555706829441
 21
185.4916687184808
 31
0.0
  0
ARC
  5
E00EDD21
330
E00DEA5D
100
AcDbEntity
  8
JISSEN
100
AcDbCircle
 10
253.3682068294392
 20
185.0416687184782
 30
0.0
 40
0.4875000000000239
100
AcDbArc
 50
292.6198649480738
 51
67.38013505192611
  0
LINE
  5
E00EDD22
330
E00DEA5D
100
AcDbEntity
  8
JISSEN
100
AcDbLine
 10
253.555706829441
 20
186.0916687184775
 30
0.0
 11
253.555706829441
 21
185.4916687184771
 31
0.0
  0
LINE
  5
E00EDD23
330
E00DEA5D
100
AcDbEntity
  8
JISSEN
100
AcDbLine
 10
253.555706829441
 20
186.0916687184775
 30
0.0
 11
253.5557068294392
 21
185.4916687184771
 31
0.0
  0
LINE
  5
E00EDD24
330
E00DEA5D
100
AcDbEntity
  8
JISSEN
100
AcDbLine
 10
253.555706829441
 20
186.0916687184793
 30
0.0
 11
253.555706829441
 21
185.4916687184771
 31
0.0
  0
LINE
  5
E00EDD25
330
E00DEA5D
100
AcDbEntity
  8
JISSEN
100
AcDbLine
 10
253.555706829441
 20
186.0916687184775
 30
0.0
 11
253.555706829441
 21
185.4916687184808
 31
0.0
  0
ARC
  5
E00EDD26
330
E00DEA5D
100
AcDbEntity
  8
JISSEN
100
AcDbCircle
 10
254.6182068294392
 20
185.0416687184764
 30
0.0
 40
0.4875000000000239
100
AcDbArc
 50
292.6198649480738
 51
67.38013505192611
  0
LINE
  5
E00EDD27
330
E00DEA5D
100
AcDbEntity
  8
JISSEN
100
AcDbLine
 10
254.8057068294411
 20
185.4916687184808
 30
0.0
 11
254.8057068294411
 21
186.0916687184793
 31
0.0
  0
LINE
  5
E00EDD28
330
E00DEA5D
100
AcDbEntity
  8
JISSEN
100
AcDbLine
 10
254.8057068294411
 20
185.4916687184808
 30
0.0
 11
254.8057068294411
 21
186.0916687184793
 31
0.0
  0
ARC
  5
E00EDD29
330
E00DEA5D
100
AcDbEntity
  8
JISSEN
100
AcDbCircle
 10
253.3682068294392
 20
186.5416687184782
 30
0.0
 40
0.4875000000000239
100
AcDbArc
 50
292.6198649480738
 51
67.38013505192611
  0
ARC
  5
E00EDD2A
330
E00DEA5D
100
AcDbEntity
  8
JISSEN
100
AcDbCircle
 10
254.6182068294392
 20
186.5416687184764
 30
0.0
 40
0.4875000000000239
100
AcDbArc
 50
292.6198649480738
 51
67.38013505192611
  0
LINE
  5
E00EDD2B
330
E00DEA5D
100
AcDbEntity
  8
JISSEN
100
AcDbLine
 10
256.1194911362699
 20
183.7416687184753
 30
0.0
 11
256.1194911362699
 21
189.6076941222594
 31
0.0
  0
LINE
  5
E00EDD2C
330
E00DEA5D
100
AcDbEntity
  8
JISSEN
100
AcDbLine
 10
257.305706829441
 20
184.5916687184775
 30
0.0
 11
257.305706829441
 21
184.2416687184753
 31
0.0
  0
SPLINE
  5
E00EDD2D
330
E00DEA5D
100
AcDbEntity
  8
JISSEN
100
AcDbSpline
210
0.0
220
0.0
230
1.0
 70
     8
 71
     3
 72
     8
 73
     4
 74
     0
 42
0.0000000001
 43
0.0000000001
 40
0.0
 40
0.0
 40
0.0
 40
0.0
 40
0.0007108901684311
 40
0.0007108901684311
 40
0.0007108901684311
 40
0.0007108901684311
 10
257.7433409502291
 20
183.7416687184753
 30
0.0
 10
257.5974401346075
 20
183.908308801548
 30
0.0
 10
257.4515627484006
 20
184.0749762396638
 30
0.0
 10
257.305706829441
 20
184.2416687184753
 30
0.0
  0
LINE
  5
E00EDD2E
330
E00DEA5D
100
AcDbEntity
  8
JISSEN
100
AcDbLine
 10
257.305706829441
 20
188.7416687184753
 30
0.0
 11
257.3057068294413
 21
188.4916687184808
 31
0.0
  0
LINE
  5
E00EDD2F
330
E00DEA5D
100
AcDbEntity
  8
JISSEN
100
AcDbLine
 10
257.305706829441
 20
187.5916687184811
 30
0.0
 11
257.305706829441
 21
186.9916687184844
 31
0.0
  0
ARC
  5
E00EDD30
330
E00DEA5D
100
AcDbEntity
  8
JISSEN
100
AcDbCircle
 10
257.118206829441
 20
188.0416687184782
 30
0.0
 40
0.4875000000000239
100
AcDbArc
 50
292.6198649480738
 51
67.38013505192611
  0
LINE
  5
E00EDD31
330
E00DEA5D
100
AcDbEntity
  8
JISSEN
100
AcDbLine
 10
257.305706829441
 20
186.0916687184793
 30
0.0
 11
257.305706829441
 21
185.4916687184808
 31
0.0
  0
ARC
  5
E00EDD32
330
E00DEA5D
100
AcDbEntity
  8
JISSEN
100
AcDbCircle
 10
257.118206829441
 20
185.0416687184782
 30
0.0
 40
0.4875000000000239
100
AcDbArc
 50
292.6198649480738
 51
67.38013505192611
  0
ARC
  5
E00EDD33
330
E00DEA5D
100
AcDbEntity
  8
JISSEN
100
AcDbCircle
 10
257.118206829441
 20
186.5416687184782
 30
0.0
 40
0.4875000000000239
100
AcDbArc
 50
292.6198649480738
 51
67.38013505192611
  0
LINE
  5
E00EDD34
330
E00DEA5D
100
AcDbEntity
  8
JISSEN
100
AcDbLine
 10
268.555706829441
 20
183.7416687184753
 30
0.0
 11
268.555706829441
 21
189.6076941222594
 31
0.0
  0
LINE
  5
E00EDD35
330
E00DEA5D
100
AcDbEntity
  8
JISSEN
100
AcDbLine
 10
273.5557068294411
 20
183.7416687184753
 30
0.0
 11
273.5557068294411
 21
189.6076941222594
 31
0.0
  0
LINE
  5
E00EDD36
330
E00DEA5D
100
AcDbEntity
  8
JISSEN
100
AcDbLine
 10
284.805706829441
 20
184.5916687184775
 30
0.0
 11
284.805706829441
 21
184.2416687184753
 31
0.0
  0
LINE
  5
E00EDD37
330
E00DEA5D
100
AcDbEntity
  8
JISSEN
100
AcDbLine
 10
285.9919225226121
 20
183.7416687184753
 30
0.0
 11
285.9919225226121
 21
189.6076941222594
 31
0.0
  0
LINE
  5
E00EDD38
330
E00DEA5D
100
AcDbEntity
  8
JISSEN
100
AcDbLine
 10
287.305706829441
 20
184.2416687184753
 30
0.0
 11
287.305706829441
 21
184.5916687184775
 31
0.0
  0
LINE
  5
E00EDD39
330
E00DEA5D
100
AcDbEntity
  8
JISSEN
100
AcDbLine
 10
287.305706829441
 20
184.2416687184753
 30
0.0
 11
287.305706829441
 21
184.5916687184775
 31
0.0
  0
LINE
  5
E00EDD3A
330
E00DEA5D
100
AcDbEntity
  8
JISSEN
100
AcDbLine
 10
288.555706829441
 20
184.5916687184775
 30
0.0
 11
288.555706829441
 21
184.2416687184753
 31
0.0
  0
LINE
  5
E00EDD3B
330
E00DEA5D
100
AcDbEntity
  8
JISSEN
100
AcDbLine
 10
288.555706829441
 20
184.2450979994749
 30
0.0
 11
287.305706829441
 21
184.2450979994749
 31
0.0
  0
SPLINE
  5
E00EDD3C
330
E00DEA5D
100
AcDbEntity
  8
JISSEN
100
AcDbSpline
210
0.0
220
0.0
230
1.0
 70
     8
 71
     3
 72
     8
 73
     4
 74
     0
 42
0.0000000001
 43
0.0000000001
 40
0.0
 40
0.0
 40
0.0
 40
0.0
 40
0.0007108901684311
 40
0.0007108901684311
 40
0.0007108901684311
 40
0.0007108901684311
 10
284.368072708653
 20
183.7416687184753
 30
0.0
 10
284.5139735242746
 20
183.908308801548
 30
0.0
 10
284.6598509104815
 20
184.0749762396638
 30
0.0
 10
284.805706829441
 20
184.2416687184753
 30
0.0
  0
SPLINE
  5
E00EDD3D
330
E00DEA5D
100
AcDbEntity
  8
JISSEN
100
AcDbSpline
210
0.0
220
0.0
230
1.0
 70
     8
 71
     3
 72
     8
 73
     4
 74
     0
 42
0.0000000001
 43
0.0000000001
 40
0.0
 40
0.0
 40
0.0
 40
0.0
 40
0.0007108901684311
 40
0.0007108901684311
 40
0.0007108901684311
 40
0.0007108901684311
 10
287.305706829441
 20
184.2450979994749
 30
0.0
 10
287.1598509104815
 20
184.0784055206635
 30
0.0
 10
287.0139735242746
 20
183.9117380825476
 30
0.0
 10
286.868072708653
 20
183.7450979994749
 30
0.0
  0
LINE
  5
E00EDD3E
330
E00DEA5D
100
AcDbEntity
  8
JISSEN
100
AcDbLine
 10
288.555706829441
 20
184.2416687184753
 30
0.0
 11
288.0557068294411
 21
183.7416687184753
 31
0.0
  0
ARC
  5
E00EDD3F
330
E00DEA5D
100
AcDbEntity
  8
JISSEN
100
AcDbCircle
 10
284.993206829441
 20
185.0416687184782
 30
0.0
 40
0.4875000000000239
100
AcDbArc
 50
112.6198649480738
 51
247.3801350519261
  0
ARC
  5
E00EDD40
330
E00DEA5D
100
AcDbEntity
  8
JISSEN
100
AcDbCircle
 10
284.993206829441
 20
186.5416687184782
 30
0.0
 40
0.4875000000000239
100
AcDbArc
 50
112.6198649480738
 51
247.3801350519261
  0
LINE
  5
E00EDD41
330
E00DEA5D
100
AcDbEntity
  8
JISSEN
100
AcDbLine
 10
284.805706829441
 20
186.0916687184793
 30
0.0
 11
284.805706829441
 21
185.4916687184808
 31
0.0
  0
ARC
  5
E00EDD42
330
E00DEA5D
100
AcDbEntity
  8
JISSEN
100
AcDbCircle
 10
284.993206829441
 20
188.0416687184782
 30
0.0
 40
0.4875000000000239
100
AcDbArc
 50
112.6198649480738
 51
247.3801350519261
  0
LINE
  5
E00EDD43
330
E00DEA5D
100
AcDbEntity
  8
JISSEN
100
AcDbLine
 10
284.805706829441
 20
187.5916687184811
 30
0.0
 11
284.805706829441
 21
186.9916687184844
 31
0.0
  0
LINE
  5
E00EDD44
330
E00DEA5D
100
AcDbEntity
  8
JISSEN
100
AcDbLine
 10
284.805706829441
 20
188.7416687184753
 30
0.0
 11
284.8057068294408
 21
188.4916687184808
 31
0.0
  0
ARC
  5
E00EDD45
330
E00DEA5D
100
AcDbEntity
  8
JISSEN
100
AcDbCircle
 10
287.4932068294429
 20
186.5416687184764
 30
0.0
 40
0.4875000000000239
100
AcDbArc
 50
112.6198649480738
 51
247.3801350519261
  0
LINE
  5
E00EDD46
330
E00DEA5D
100
AcDbEntity
  8
JISSEN
100
AcDbLine
 10
287.305706829441
 20
185.4916687184808
 30
0.0
 11
287.305706829441
 21
186.0916687184793
 31
0.0
  0
LINE
  5
E00EDD47
330
E00DEA5D
100
AcDbEntity
  8
JISSEN
100
AcDbLine
 10
287.305706829441
 20
185.4916687184808
 30
0.0
 11
287.305706829441
 21
186.0916687184793
 31
0.0
  0
ARC
  5
E00EDD48
330
E00DEA5D
100
AcDbEntity
  8
JISSEN
100
AcDbCircle
 10
287.4932068294429
 20
185.0416687184764
 30
0.0
 40
0.4875000000000239
100
AcDbArc
 50
112.6198649480738
 51
247.3801350519261
  0
LINE
  5
E00EDD49
330
E00DEA5D
100
AcDbEntity
  8
JISSEN
100
AcDbLine
 10
287.305706829441
 20
186.9916687184789
 30
0.0
 11
287.305706829441
 21
187.5916687184775
 31
0.0
  0
LINE
  5
E00EDD4A
330
E00DEA5D
100
AcDbEntity
  8
JISSEN
100
AcDbLine
 10
287.305706829441
 20
186.9916687184789
 30
0.0
 11
287.305706829441
 21
187.5916687184775
 31
0.0
  0
ARC
  5
E00EDD4B
330
E00DEA5D
100
AcDbEntity
  8
JISSEN
100
AcDbCircle
 10
287.4932068294429
 20
188.0416687184764
 30
0.0
 40
0.4875000000000239
100
AcDbArc
 50
112.6198649480738
 51
247.3801350519261
  0
LINE
  5
E00EDD4C
330
E00DEA5D
100
AcDbEntity
  8
JISSEN
100
AcDbLine
 10
287.305706829441
 20
188.4916687184789
 30
0.0
 11
287.305706829441
 21
188.7416687184753
 31
0.0
  0
ARC
  5
E00EDD4D
330
E00DEA5D
100
AcDbEntity
  8
JISSEN
100
AcDbCircle
 10
288.7432068294429
 20
186.5416687184782
 30
0.0
 40
0.4875000000000239
100
AcDbArc
 50
112.6198649480738
 51
247.3801350519261
  0
LINE
  5
E00EDD4E
330
E00DEA5D
100
AcDbEntity
  8
JISSEN
100
AcDbLine
 10
288.555706829441
 20
186.0916687184775
 30
0.0
 11
288.555706829441
 21
185.4916687184808
 31
0.0
  0
LINE
  5
E00EDD4F
330
E00DEA5D
100
AcDbEntity
  8
JISSEN
100
AcDbLine
 10
288.555706829441
 20
186.0916687184793
 30
0.0
 11
288.555706829441
 21
185.4916687184771
 31
0.0
  0
LINE
  5
E00EDD50
330
E00DEA5D
100
AcDbEntity
  8
JISSEN
100
AcDbLine
 10
288.555706829441
 20
186.0916687184775
 30
0.0
 11
288.5557068294429
 21
185.4916687184771
 31
0.0
  0
LINE
  5
E00EDD51
330
E00DEA5D
100
AcDbEntity
  8
JISSEN
100
AcDbLine
 10
288.555706829441
 20
186.0916687184775
 30
0.0
 11
288.555706829441
 21
185.4916687184771
 31
0.0
  0
ARC
  5
E00EDD52
330
E00DEA5D
100
AcDbEntity
  8
JISSEN
100
AcDbCircle
 10
288.7432068294429
 20
185.0416687184782
 30
0.0
 40
0.4875000000000239
100
AcDbArc
 50
112.6198649480738
 51
247.3801350519261
  0
LINE
  5
E00EDD53
330
E00DEA5D
100
AcDbEntity
  8
JISSEN
100
AcDbLine
 10
288.555706829441
 20
186.0916687184793
 30
0.0
 11
288.555706829441
 21
185.4916687184808
 31
0.0
  0
LINE
  5
E00EDD54
330
E00DEA5D
100
AcDbEntity
  8
JISSEN
100
AcDbLine
 10
288.555706829441
 20
187.5916687184793
 30
0.0
 11
288.555706829441
 21
186.9916687184808
 31
0.0
  0
ARC
  5
E00EDD55
330
E00DEA5D
100
AcDbEntity
  8
JISSEN
100
AcDbCircle
 10
288.7432068294429
 20
188.0416687184782
 30
0.0
 40
0.4875000000000239
100
AcDbArc
 50
112.6198649480738
 51
247.3801350519261
  0
LINE
  5
E00EDD56
330
E00DEA5D
100
AcDbEntity
  8
JISSEN
100
AcDbLine
 10
288.555706829441
 20
187.5916687184793
 30
0.0
 11
288.555706829441
 21
186.9916687184771
 31
0.0
  0
LINE
  5
E00EDD57
330
E00DEA5D
100
AcDbEntity
  8
JISSEN
100
AcDbLine
 10
288.555706829441
 20
187.5916687184775
 30
0.0
 11
288.555706829441
 21
186.9916687184771
 31
0.0
  0
LINE
  5
E00EDD58
330
E00DEA5D
100
AcDbEntity
  8
JISSEN
100
AcDbLine
 10
288.555706829441
 20
187.5916687184775
 30
0.0
 11
288.555706829441
 21
186.9916687184771
 31
0.0
  0
LINE
  5
E00EDD59
330
E00DEA5D
100
AcDbEntity
  8
JISSEN
100
AcDbLine
 10
288.555706829441
 20
187.5916687184793
 30
0.0
 11
288.555706829441
 21
186.9916687184771
 31
0.0
  0
LINE
  5
E00EDD5A
330
E00DEA5D
100
AcDbEntity
  8
JISSEN
100
AcDbLine
 10
288.555706829441
 20
188.7416687184753
 30
0.0
 11
288.555706829441
 21
188.4916687184789
 31
0.0
  0
LINE
  5
E00EDD5B
330
E00DEA5D
100
AcDbEntity
  8
JISSEN
100
AcDbLine
 10
271.055706829441
 20
183.7416687184753
 30
0.0
 11
284.3680727086421
 21
183.7416687184753
 31
0.0
  0
LINE
  5
E00EDD5C
330
E00DEA5D
100
AcDbEntity
  8
JISSEN
100
AcDbLine
 10
271.055706829441
 20
183.7416687184753
 30
0.0
 11
257.74334095024
 21
183.7416687184753
 31
0.0
  0
LINE
  5
E00EDD5D
330
E00DEA5D
100
AcDbEntity
  8
JISSEN
100
AcDbLine
 10
256.1194911363409
 20
183.7416687184753
 30
0.0
 11
257.74334095024
 21
183.7416687184753
 31
0.0
  0
LINE
  5
E00EDD5E
330
E00DEA5D
100
AcDbEntity
  8
JISSEN
100
AcDbLine
 39
1680.364539346804
 10
253.555706829441
 20
188.7416687184753
 30
0.0
 11
254.8057068294411
 21
188.7416687184753
 31
0.0
  0
LINE
  5
E00EDD5F
330
E00DEA5D
100
AcDbEntity
  8
JISSEN
100
AcDbLine
 10
255.2877576370237
 20
189.7416687184753
 30
0.0
 11
271.055706829441
 21
189.7416687184753
 31
0.0
  0
SPLINE
  5
E00EDD60
330
E00DEA5D
100
AcDbEntity
  8
JISSEN
100
AcDbSpline
210
0.0
220
0.0
230
1.0
 70
     8
 71
     3
 72
     8
 73
     4
 74
     0
 42
0.0000000001
 43
0.0000000001
 40
0.000000403112789
 40
0.000000403112789
 40
0.000000403112789
 40
0.000000403112789
 40
0.0017472208689273
 40
0.0017472208689273
 40
0.0017472208689273
 40
0.0017472208689273
 10
254.8057068294411
 20
188.7416687184753
 30
0.0
 10
255.243529591532
 20
189.0305568208199
 30
0.0
 10
255.6814478491642
 20
189.3192520971528
 30
0.0
 10
256.1194911362699
 20
189.6076941222594
 30
0.0
  0
LINE
  5
E00EDD61
330
E00DEA5D
100
AcDbEntity
  8
JISSEN
100
AcDbLine
 10
255.24334095024
 20
183.7416687184753
 30
0.0
 11
256.1194911363409
 21
183.7416687184753
 31
0.0
  0
LINE
  5
E00EDD62
330
E00DEA5D
100
AcDbEntity
  8
JISSEN
100
AcDbLine
 10
255.24334095024
 20
183.7416687184753
 30
0.0
 11
254.055706829441
 21
183.7416687184753
 31
0.0
  0
LINE
  5
E00EDD63
330
E00DEA5D
100
AcDbEntity
  8
JISSEN
100
AcDbLine
 10
255.2877576370256
 20
189.7416687184753
 30
0.0
 11
253.555706829441
 21
188.7416687184735
 31
0.0
  0
LINE
  5
E00EDD64
330
E00DEA5D
100
AcDbEntity
  8
JISSEN
100
AcDbLine
 10
254.8057068294411
 20
188.6916687184833
 30
0.0
 11
254.8057068294411
 21
188.7416687184753
 31
0.0
  0
SPLINE
  5
E00EDD65
330
E00DEA5D
100
AcDbEntity
  8
JISSEN
100
AcDbSpline
210
0.0
220
0.0
230
1.0
 70
     8
 71
     3
 72
     8
 73
     4
 74
     0
 42
0.0000000001
 43
0.0000000001
 40
0.0000002658515791
 40
0.0000002658515791
 40
0.0000002658515791
 40
0.0000002658515791
 40
0.0017470836077175
 40
0.0017470836077175
 40
0.0017470836077175
 40
0.0017470836077175
 10
258.6194911362699
 20
189.6076941222594
 30
0.0
 10
258.1814478491642
 20
189.3192520971528
 30
0.0
 10
257.743529591532
 20
189.0305568208199
 30
0.0
 10
257.305706829441
 20
188.7416687184753
 30
0.0
  0
LINE
  5
E00EDD66
330
E00DEA5D
100
AcDbEntity
  8
JISSEN
100
AcDbLine
 10
256.1194911362699
 20
189.6076941222594
 30
0.0
 11
258.6194911362699
 21
189.6076941222594
 31
0.0
  0
LINE
  5
E00EDD67
330
E00DEA5D
100
AcDbEntity
  8
JISSEN
100
AcDbLine
 39
1680.364539346804
 10
288.555706829441
 20
188.7416687184753
 30
0.0
 11
287.305706829441
 21
188.7416687184753
 31
0.0
  0
LINE
  5
E00EDD68
330
E00DEA5D
100
AcDbEntity
  8
JISSEN
100
AcDbLine
 39
1680.364539346804
 10
284.805706829441
 20
188.7416687185608
 30
0.0
 11
273.5557068293956
 21
188.741668718559
 31
0.0
  0
LINE
  5
E00EDD69
330
E00DEA5D
100
AcDbEntity
  8
JISSEN
100
AcDbLine
 10
268.555706829441
 20
189.6076941222594
 30
0.0
 11
271.055706829441
 21
189.6076941222594
 31
0.0
  0
LINE
  5
E00EDD6A
330
E00DEA5D
100
AcDbEntity
  8
JISSEN
100
AcDbLine
 10
273.5557068294411
 20
189.6076941222594
 30
0.0
 11
271.055706829441
 21
189.6076941222594
 31
0.0
  0
LINE
  5
E00EDD6B
330
E00DEA5D
100
AcDbEntity
  8
JISSEN
100
AcDbLine
 10
285.9919225226121
 20
189.6076941222594
 30
0.0
 11
283.4919225226121
 21
189.6076941222594
 31
0.0
  0
SPLINE
  5
E00EDD6C
330
E00DEA5D
100
AcDbEntity
  8
JISSEN
100
AcDbSpline
210
0.0
220
0.0
230
1.0
 70
     8
 71
     3
 72
     8
 73
     4
 74
     0
 42
0.0000000001
 43
0.0000000001
 40
0.0000002658515791
 40
0.0000002658515791
 40
0.0000002658515791
 40
0.0000002658515791
 40
0.0017470836077175
 40
0.0017470836077175
 40
0.0017470836077175
 40
0.0017470836077175
 10
283.4919225226121
 20
189.6076941222594
 30
0.0
 10
283.9299658097179
 20
189.3192520971528
 30
0.0
 10
284.3678840673501
 20
189.0305568208199
 30
0.0
 10
284.805706829441
 20
188.7416687184753
 30
0.0
  0
LINE
  5
E00EDD6D
330
E00DEA5D
100
AcDbEntity
  8
JISSEN
100
AcDbLine
 10
286.8236560218565
 20
189.7416687184753
 30
0.0
 11
288.555706829441
 21
188.7416687184735
 31
0.0
  0
LINE
  5
E00EDD6E
330
E00DEA5D
100
AcDbEntity
  8
JISSEN
100
AcDbLine
 10
287.305706829441
 20
188.6916687184833
 30
0.0
 11
287.305706829441
 21
188.7416687184753
 31
0.0
  0
SPLINE
  5
E00EDD6F
330
E00DEA5D
100
AcDbEntity
  8
JISSEN
100
AcDbSpline
210
0.0
220
0.0
230
1.0
 70
     8
 71
     3
 72
     8
 73
     4
 74
     0
 42
0.0000000001
 43
0.0000000001
 40
0.000000403112789
 40
0.000000403112789
 40
0.000000403112789
 40
0.000000403112789
 40
0.0017472208689273
 40
0.0017472208689273
 40
0.0017472208689273
 40
0.0017472208689273
 10
287.305706829441
 20
188.7416687184753
 30
0.0
 10
286.8678840673501
 20
189.0305568208199
 30
0.0
 10
286.4299658097179
 20
189.3192520971528
 30
0.0
 10
285.9919225226121
 20
189.6076941222594
 30
0.0
  0
LINE
  5
E00EDD70
330
E00DEA5D
100
AcDbEntity
  8
JISSEN
100
AcDbLine
 10
288.555706829441
 20
188.7416687184753
 30
0.0
 11
288.555706829441
 21
188.691668718476
 31
0.0
  0
LINE
  5
E00EDD71
330
E00DEA5D
100
AcDbEntity
  8
JISSEN
100
AcDbLine
 10
288.555706829441
 20
188.7416687184753
 30
0.0
 11
288.555706829441
 21
188.691668718476
 31
0.0
  0
LINE
  5
E00EDD72
330
E00DEA5D
100
AcDbEntity
  8
JISSEN
100
AcDbLine
 10
286.8236560218583
 20
189.7416687184753
 30
0.0
 11
271.055706829441
 21
189.7416687184753
 31
0.0
  0
LINE
  5
E00EDD73
330
E00DEA5D
100
AcDbEntity
  8
JISSEN
100
AcDbLine
 10
286.8680727086421
 20
183.7416687184753
 30
0.0
 11
288.0557068294411
 21
183.7416687184753
 31
0.0
  0
LINE
  5
E00EDD74
330
E00DEA5D
100
AcDbEntity
  8
JISSEN
100
AcDbLine
 10
286.8680727086421
 20
183.7416687184753
 30
0.0
 11
285.9919225225412
 21
183.7416687184753
 31
0.0
  0
LINE
  5
E00EDD75
330
E00DEA5D
100
AcDbEntity
  8
JISSEN
100
AcDbLine
 10
285.9919225225412
 20
183.7416687184753
 30
0.0
 11
284.3680727086421
 21
183.7416687184753
 31
0.0
  0
LINE
  5
E00EDD84
330
E00DEA5D
100
AcDbEntity
  8
SUNPOU
100
AcDbLine
 10
123.7840152732573
 20
12.23654868772291
 30
0.0
 11
126.7840152732572
 21
12.23654868772291
 31
0.0
  0
LINE
  5
E00EDD85
330
E00DEA5D
100
AcDbEntity
  8
SUNPOU
100
AcDbLine
 10
123.7840152732573
 20
9.236548687722915
 30
0.0
 11
126.7840152732572
 21
9.236548687722915
 31
0.0
  0
LINE
  5
E00EDD86
330
E00DEA5D
100
AcDbEntity
  8
SUNPOU
100
AcDbLine
 10
126.0340152732573
 20
12.23654868772291
 30
0.0
 11
126.0340152732573
 21
9.236548687722915
 31
0.0
  0
LINE
  5
E00EDD87
330
E00DEA5D
100
AcDbEntity
  8
SUNPOU
100
AcDbLine
 10
124.5340152732572
 20
12.23654868772291
 30
0.0
 11
124.5340152732572
 21
9.236548687722915
 31
0.0
  0
LINE
  5
E00EDD91
330
E00DEA5D
100
AcDbEntity
  8
SUNPOU
100
AcDbLine
 10
304.6102896028918
 20
12.23738453809289
 30
0.0
 11
307.6102896028918
 21
12.23738453809289
 31
0.0
  0
LINE
  5
E00EDD92
330
E00DEA5D
100
AcDbEntity
  8
SUNPOU
100
AcDbLine
 10
304.6102896028918
 20
9.237384538092896
 30
0.0
 11
307.6102896028918
 21
9.237384538092896
 31
0.0
  0
LINE
  5
E00EDD93
330
E00DEA5D
100
AcDbEntity
  8
SUNPOU
100
AcDbLine
 10
306.8602896028918
 20
12.23738453809289
 30
0.0
 11
306.8602896028918
 21
9.237384538092896
 31
0.0
  0
LINE
  5
E00EDD94
330
E00DEA5D
100
AcDbEntity
  8
SUNPOU
100
AcDbLine
 10
305.3602896028918
 20
12.23738453809289
 30
0.0
 11
305.3602896028918
 21
9.237384538092896
 31
0.0
  0
ENDSEC
  0
SECTION
  2
OBJECTS
  0
DICTIONARY
  5
E00DEA51
330
0
100
AcDbDictionary
281
     1
  3
ACAD_GROUP
350
E00DEA52
  3
ACAD_LAYOUT
350
E00DFA6A
  3
ACAD_MLINESTYLE
350
E00DEA53
  3
ACAD_PLOTSETTINGS
350
E00DFA6B
  3
ACAD_PLOTSTYLENAME
350
E00DFA68
  3
AcadDim
350
E00E59A8
  3
ACDBVARIABLEDICTIONARY
350
E00DF82C
  0
DICTIONARY
  5
E00DFB39
330
E00DEA47
100
AcDbDictionary
280
     1
281
     1
  3
ACAD_LAYERFILTERS
360
E00E26A3
  3
ACAD_LAYERSTATES
360
E00DFB3A
  0
DICTIONARY
  5
E00DFB13
330
E00DEA5D
100
AcDbDictionary
280
     1
281
     1
  3
ACAD_LAYOUTSELFREF
360
E00DFB14
  0
DICTIONARY
  5
E00DFB11
330
E00DEA5A
100
AcDbDictionary
280
     1
281
     1
  3
ACAD_LAYOUTSELFREF
360
E00DFB12
  0
DICTIONARY
  5
E00DEA52
102
{ACAD_REACTORS
330
E00DEA51
102
}
330
E00DEA51
100
AcDbDictionary
281
     1
  0
DICTIONARY
  5
E00DFA6A
102
{ACAD_REACTORS
330
E00DEA51
102
}
330
E00DEA51
100
AcDbDictionary
281
     1
  3
Model
350
E00DFA6C
  3
ﾚｲｱｳﾄ1
350
E00DFA6D
  0
DICTIONARY
  5
E00DEA53
102
{ACAD_REACTORS
330
E00DEA51
102
}
330
E00DEA51
100
AcDbDictionary
281
     1
  3
STANDARD
350
E00DEA60
  0
DICTIONARY
  5
E00DFA6B
102
{ACAD_REACTORS
330
E00DEA51
102
}
330
E00DEA51
100
AcDbDictionary
281
     1
  0
ACDBDICTIONARYWDFLT
  5
E00DFA68
102
{ACAD_REACTORS
330
E00DEA51
102
}
330
E00DEA51
100
AcDbDictionary
281
     1
  3
Normal
350
E00DFA69
  3
Style_1
350
E00ECC5E
100
AcDbDictionaryWithDefault
340
E00DFA69
  0
XRECORD
  5
E00E59A8
102
{ACAD_REACTORS
330
E00DEA51
102
}
330
E00DEA51
100
AcDbXrecord
280
     1
 90
   990106
  3

 60
     0
 61
     0
 62
     1
 63
     3
 64
     0
 65
     0
 66
     0
 67
     3
 68
     1
 69
     0
 70
     0
 71
     0
 72
     0
 40
0.0
170
     0
  0
DICTIONARY
  5
E00DF82C
102
{ACAD_REACTORS
330
E00DEA51
102
}
330
E00DEA51
100
AcDbDictionary
281
     1
  3
DIMASSOC
350
E00DFB2E
  3
SORTENTS
350
E00DF82D
  0
DICTIONARY
  5
E00E26A3
102
{ACAD_REACTORS
330
E00DFB39
102
}
330
E00DFB39
100
AcDbDictionary
280
     1
281
     1
  3
0
360
E00E26A4
  3
0-0
360
E00E26A5
  3
10画層
360
E00E26A6
  3
2
360
E00E26A7
  3
3
360
E00E26A8
  3
3A
360
E00E26A9
  3
4
360
E00E26AA
  3
5画層
360
E00E26AB
  3
6画層
360
E00E26AC
  3
7
360
E00E26AD
  3
7a画層
360
E00E26AE
  3
8
360
E00E26AF
  3
ASYST
360
E00E26B0
  3
ASYST PHASE 1
360
E00E26B1
  3
ASYST PHASE 2
360
E00E26B2
  3
cap-0
360
E00E26B3
  3
dims
360
E00E26B4
  3
elec
360
E00E26B5
  3
ELECTRICAL
360
E00E26B6
  3
F
360
E00E26B7
  3
Frame
360
E00E26B8
  3
FROZEN
360
E00E26B9
  3
FROZEN ACTIVE
360
E00E26BA
  3
jiku-0
360
E00E26BB
  3
MP
360
E00E26BC
  3
MPR
360
E00E26BD
  3
p-
360
E00E26BE
  3
ST
360
E00E26BF
  3
TC
360
E00E26C0
  3
TEXT
360
E00E26C1
  3
ｹｰﾌﾞﾙ図
360
E00E26C2
  3
０画層
360
E00E26C3
  3
３A画層
360
E00E26C4
  3
３画層
360
E00E26C5
  0
DICTIONARY
  5
E00DFB3A
102
{ACAD_REACTORS
330
E00DFB39
102
}
330
E00DFB39
100
AcDbDictionary
281
     1
  0
XRECORD
  5
E00DFB14
102
{ACAD_REACTORS
330
E00DFB13
102
}
330
E00DFB13
100
AcDbXrecord
280
     1
340
E00DEA5D
  0
XRECORD
  5
E00DFB12
102
{ACAD_REACTORS
330
E00DFB11
102
}
330
E00DFB11
100
AcDbXrecord
280
     1
340
E00DEA5A
  0
LAYOUT
  5
E00DFA6C
102
{ACAD_REACTORS
330
E00DFA6A
102
}
330
E00DFA6A
100
AcDbPlotSettings
  1

  2
\\Nt_honsya\FUJITSU XL-5300-3
  4
A4
  6

 40
5.873749732971191
 41
5.704405784606932
 42
5.789077758789062
 43
5.873748779296875
 44
209.9733276367186
 45
296.9259948730469
 46
0.0
 47
0.0
 48
0.0
 49
0.0
140
0.0
141
0.0
142
1.0
143
1.0
 70
 11952
 72
     0
 73
     1
 74
     0
  7
aclt.ctb
 75
     0
147
1.0
148
1211.157904756485
149
44.79223521629618
100
AcDbLayout
  1
Model
 70
     1
 71
     0
 10
0.0
 20
0.0
 11
12.0
 21
9.0
 12
0.0
 22
0.0
 32
0.0
 14
0.0
 24
0.0
 34
0.0
 15
0.0
 25
0.0
 35
0.0
146
0.0
 13
0.0
 23
0.0
 33
0.0
 16
1.0
 26
0.0
 36
0.0
 17
0.0
 27
1.0
 37
0.0
 76
     0
330
E00DEA5D
  0
LAYOUT
  5
E00DFA6D
102
{ACAD_REACTORS
330
E00DFA6A
102
}
330
E00DFA6A
100
AcDbPlotSettings
  1

  2
\\Nt_honsya\FUJITSU XL-5300-3
  4

  6

 40
0.0
 41
0.0
 42
0.0
 43
0.0
 44
0.0
 45
0.0
 46
0.0
 47
0.0
 48
0.0
 49
0.0
140
0.0
141
0.0
142
1.0
143
1.0
 70
   688
 72
     0
 73
     0
 74
     5
  7
aclt(XL).ctb
 75
    16
147
1.0
148
0.0
149
0.0
100
AcDbLayout
  1
ﾚｲｱｳﾄ1
 70
     0
 71
     1
 10
0.0
 20
0.0
 11
12.0
 21
9.0
 12
0.0
 22
0.0
 32
0.0
 14
1.000000000000000E+20
 24
1.000000000000000E+20
 34
1.000000000000000E+20
 15
-1.000000000000000E+20
 25
-1.000000000000000E+20
 35
-1.000000000000000E+20
146
0.0
 13
0.0
 23
0.0
 33
0.0
 16
1.0
 26
0.0
 36
0.0
 17
0.0
 27
1.0
 37
0.0
 76
     0
330
E00DEA5A
  0
MLINESTYLE
  5
E00DEA60
102
{ACAD_REACTORS
330
E00DEA53
102
}
330
E00DEA53
100
AcDbMlineStyle
  2
STANDARD
 70
     0
  3

 62
     0
 51
90.0
 52
90.0
 71
     2
 49
0.5
 62
   256
  6
BYLAYER
 49
-0.5
 62
   256
  6
BYLAYER
  0
ACDBPLACEHOLDER
  5
E00DFA69
102
{ACAD_REACTORS
330
E00DFA68
102
}
330
E00DFA68
  0
ACDBPLACEHOLDER
  5
E00ECC5E
102
{ACAD_REACTORS
330
E00DFA68
102
}
330
E00DFA68
  0
DICTIONARYVAR
  5
E00DFB2E
102
{ACAD_REACTORS
330
E00DF82C
102
}
330
E00DF82C
100
DictionaryVariables
280
     0
  1
0
  0
DICTIONARYVAR
  5
E00DF82D
102
{ACAD_REACTORS
330
E00DF82C
102
}
330
E00DF82C
100
DictionaryVariables
280
     0
  1
96
  0
XRECORD
  5
E00E26A4
102
{ACAD_REACTORS
330
E00E26A3
102
}
330
E00E26A3
100
AcDbXrecord
280
     1
  1
0
  1
*-0
  1
*
  1
*
 70
     0
  1
*
  1
*
  0
XRECORD
  5
E00E26A5
102
{ACAD_REACTORS
330
E00E26A3
102
}
330
E00E26A3
100
AcDbXrecord
280
     1
  1
0-0
  1
*-0
  1
*
  1
*
 70
     0
  1
*
  1
*
  0
XRECORD
  5
E00E26A6
102
{ACAD_REACTORS
330
E00E26A3
102
}
330
E00E26A3
100
AcDbXrecord
280
     1
  1
10画層
  1
*-10
  1
*
  1
*
 70
     0
  1
*
  1
*
  0
XRECORD
  5
E00E26A7
102
{ACAD_REACTORS
330
E00E26A3
102
}
330
E00E26A3
100
AcDbXrecord
280
     1
  1
2
  1
*-2
  1
*
  1
*
 70
     0
  1
*
  1
*
  0
XRECORD
  5
E00E26A8
102
{ACAD_REACTORS
330
E00E26A3
102
}
330
E00E26A3
100
AcDbXrecord
280
     1
  1
3
  1
*-3
  1
*
  1
*
 70
     0
  1
*
  1
*
  0
XRECORD
  5
E00E26A9
102
{ACAD_REACTORS
330
E00E26A3
102
}
330
E00E26A3
100
AcDbXrecord
280
     1
  1
3A
  1
*-3A
  1
*
  1
*
 70
     0
  1
*
  1
*
  0
XRECORD
  5
E00E26AA
102
{ACAD_REACTORS
330
E00E26A3
102
}
330
E00E26A3
100
AcDbXrecord
280
     1
  1
4
  1
*-4
  1
*
  1
*
 70
     0
  1
*
  1
*
  0
XRECORD
  5
E00E26AB
102
{ACAD_REACTORS
330
E00E26A3
102
}
330
E00E26A3
100
AcDbXrecord
280
     1
  1
5画層
  1
*-5
  1
*
  1
*
 70
     0
  1
*
  1
*
  0
XRECORD
  5
E00E26AC
102
{ACAD_REACTORS
330
E00E26A3
102
}
330
E00E26A3
100
AcDbXrecord
280
     1
  1
6画層
  1
*-6
  1
*
  1
*
 70
     0
  1
*
  1
*
  0
XRECORD
  5
E00E26AD
102
{ACAD_REACTORS
330
E00E26A3
102
}
330
E00E26A3
100
AcDbXrecord
280
     1
  1
7
  1
*-7*
  1
*
  1
*
 70
     0
  1
*
  1
*
  0
XRECORD
  5
E00E26AE
102
{ACAD_REACTORS
330
E00E26A3
102
}
330
E00E26A3
100
AcDbXrecord
280
     1
  1
7a画層
  1
*-7a
  1
*
  1
*
 70
     0
  1
*
  1
*
  0
XRECORD
  5
E00E26AF
102
{ACAD_REACTORS
330
E00E26A3
102
}
330
E00E26A3
100
AcDbXrecord
280
     1
  1
8
  1
*-8,8
  1
*
  1
*
 70
     0
  1
*
  1
*
  0
XRECORD
  5
E00E26B0
102
{ACAD_REACTORS
330
E00E26A3
102
}
330
E00E26A3
100
AcDbXrecord
280
     1
  1
ASYST
  1
ASYST*
  1
*
  1
*
 70
     0
  1
*
  1
*
  0
XRECORD
  5
E00E26B1
102
{ACAD_REACTORS
330
E00E26A3
102
}
330
E00E26A3
100
AcDbXrecord
280
     1
  1
ASYST PHASE 1
  1
A1.0-8$0$ASYT*
  1
*
  1
*
 70
     0
  1
*
  1
*
  0
XRECORD
  5
E00E26B2
102
{ACAD_REACTORS
330
E00E26A3
102
}
330
E00E26A3
100
AcDbXrecord
280
     1
  1
ASYST PHASE 2
  1
A2.0-8$0$ASYT*
  1
*
  1
*
 70
     0
  1
*
  1
*
  0
XRECORD
  5
E00E26B3
102
{ACAD_REACTORS
330
E00E26A3
102
}
330
E00E26A3
100
AcDbXrecord
280
     1
  1
cap-0
  1
*
  1
*
  1
*
 70
     0
  1
*
  1
*
  0
XRECORD
  5
E00E26B4
102
{ACAD_REACTORS
330
E00E26A3
102
}
330
E00E26A3
100
AcDbXrecord
280
     1
  1
dims
  1
*di*
  1
*
  1
*
 70
     0
  1
*
  1
*
  0
XRECORD
  5
E00E26B5
102
{ACAD_REACTORS
330
E00E26A3
102
}
330
E00E26A3
100
AcDbXrecord
280
     1
  1
elec
  1
e-*
  1
*
  1
*
 70
     0
  1
*
  1
*
  0
XRECORD
  5
E00E26B6
102
{ACAD_REACTORS
330
E00E26A3
102
}
330
E00E26A3
100
AcDbXrecord
280
     1
  1
ELECTRICAL
  1
E-*
  1
*
  1
*
 70
     0
  1
*
  1
*
  0
XRECORD
  5
E00E26B7
102
{ACAD_REACTORS
330
E00E26A3
102
}
330
E00E26A3
100
AcDbXrecord
280
     1
  1
F
  1
*
  1
*
  1
*
 70
     0
  1
*
  1
*
  0
XRECORD
  5
E00E26B8
102
{ACAD_REACTORS
330
E00E26A3
102
}
330
E00E26A3
100
AcDbXrecord
280
     1
  1
Frame
  1
F*
  1
*
  1
*
 70
     0
  1
*
  1
*
  0
XRECORD
  5
E00E26B9
102
{ACAD_REACTORS
330
E00E26A3
102
}
330
E00E26A3
100
AcDbXrecord
280
     1
  1
FROZEN
  1
*
  1
*
  1
*
 70
     4
  1
*
  1
*
  0
XRECORD
  5
E00E26BA
102
{ACAD_REACTORS
330
E00E26A3
102
}
330
E00E26A3
100
AcDbXrecord
280
     1
  1
FROZEN ACTIVE
  1
*
  1
*
  1
*
 70
    16
  1
*
  1
*
  0
XRECORD
  5
E00E26BB
102
{ACAD_REACTORS
330
E00E26A3
102
}
330
E00E26A3
100
AcDbXrecord
280
     1
  1
jiku-0
  1
*
  1
*
  1
*
 70
     0
  1
*
  1
*
  0
XRECORD
  5
E00E26BC
102
{ACAD_REACTORS
330
E00E26A3
102
}
330
E00E26A3
100
AcDbXrecord
280
     1
  1
MP
  1
MP_*
  1
*
  1
*
 70
     0
  1
*
  1
*
  0
XRECORD
  5
E00E26BD
102
{ACAD_REACTORS
330
E00E26A3
102
}
330
E00E26A3
100
AcDbXrecord
280
     1
  1
MPR
  1
MPR*
  1
*
  1
*
 70
     0
  1
*
  1
*
  0
XRECORD
  5
E00E26BE
102
{ACAD_REACTORS
330
E00E26A3
102
}
330
E00E26A3
100
AcDbXrecord
280
     1
  1
p-
  1
p-*
  1
*
  1
*
 70
     0
  1
*
  1
*
  0
XRECORD
  5
E00E26BF
102
{ACAD_REACTORS
330
E00E26A3
102
}
330
E00E26A3
100
AcDbXrecord
280
     1
  1
ST
  1
ST_*
  1
*
  1
*
 70
     0
  1
*
  1
*
  0
XRECORD
  5
E00E26C0
102
{ACAD_REACTORS
330
E00E26A3
102
}
330
E00E26A3
100
AcDbXrecord
280
     1
  1
TC
  1
TC_*,0N
  1
*
  1
*
 70
     0
  1
*
  1
*
  0
XRECORD
  5
E00E26C1
102
{ACAD_REACTORS
330
E00E26A3
102
}
330
E00E26A3
100
AcDbXrecord
280
     1
  1
TEXT
  1
TEXT
  1
*
  1
*
 70
     0
  1
*
  1
*
  0
XRECORD
  5
E00E26C2
102
{ACAD_REACTORS
330
E00E26A3
102
}
330
E00E26A3
100
AcDbXrecord
280
     1
  1
ｹｰﾌﾞﾙ図
  1
*
  1
*
  1
*
 70
     0
  1
*
  1
*
  0
XRECORD
  5
E00E26C3
102
{ACAD_REACTORS
330
E00E26A3
102
}
330
E00E26A3
100
AcDbXrecord
280
     1
  1
０画層
  1
*-0
  1
*
  1
*
 70
     0
  1
*
  1
*
  0
XRECORD
  5
E00E26C4
102
{ACAD_REACTORS
330
E00E26A3
102
}
330
E00E26A3
100
AcDbXrecord
280
     1
  1
３A画層
  1
*-3A
  1
*
  1
*
 70
     0
  1
*
  1
*
  0
XRECORD
  5
E00E26C5
102
{ACAD_REACTORS
330
E00E26A3
102
}
330
E00E26A3
100
AcDbXrecord
280
     1
  1
３画層
  1
*-3
  1
*
  1
*
 70
     0
  1
*
  1
*
  0
ENDSEC
  0
EOF
