  0
SECTION
  2
HEADER
  9
$ACADVER
  1
AC1015
  9
$ACADMAINTVER
 70
    10
  9
$DWGCODEPAGE
  3
ANSI_932
  9
$INSBASE
 10
0.0
 20
0.0
 30
0.0
  9
$EXTMIN
 10
-0.0000001757153996
 20
-0.0000003048232884
 30
0.0
  9
$EXTMAX
 10
361.9999983762853
 20
272.9999996951767
 30
1680.364539346804
  9
$LIMMIN
 10
-0.0000001757153996
 20
-0.0000003048232884
  9
$LIMMAX
 10
361.9999983762853
 20
272.9999996951767
  9
$ORTHOMODE
 70
     0
  9
$REGENMODE
 70
     1
  9
$FILLMODE
 70
     1
  9
$QTEXTMODE
 70
     0
  9
$MIRRTEXT
 70
     0
  9
$LTSCALE
 40
5.0
  9
$ATTMODE
 70
     1
  9
$TEXTSIZE
 40
6.0
  9
$TRACEWID
 40
0.05
  9
$TEXTSTYLE
  7
K
  9
$CLAYER
  8
JISSEN
  9
$CELTYPE
  6
BYLAYER
  9
$CECOLOR
 62
   256
  9
$CELTSCALE
 40
1.0
  9
$DISPSILH
 70
     0
  9
$DIMSCALE
 40
1.0
  9
$DIMASZ
 40
1.099999999999998
  9
$DIMEXO
 40
1.0
  9
$DIMDLI
 40
6.0
  9
$DIMRND
 40
0.0
  9
$DIMDLE
 40
0.0
  9
$DIMEXE
 40
1.0
  9
$DIMTP
 40
0.0
  9
$DIMTM
 40
0.0
  9
$DIMTXT
 40
3.0
  9
$DIMCEN
 40
1.0
  9
$DIMTSZ
 40
0.0
  9
$DIMTOL
 70
     0
  9
$DIMLIM
 70
     0
  9
$DIMTIH
 70
     0
  9
$DIMTOH
 70
     0
  9
$DIMSE1
 70
     0
  9
$DIMSE2
 70
     0
  9
$DIMTAD
 70
     0
  9
$DIMZIN
 70
     8
  9
$DIMBLK
  1
ARROW
  9
$DIMASO
 70
     0
  9
$DIMSHO
 70
     0
  9
$DIMPOST
  1

  9
$DIMAPOST
  1

  9
$DIMALT
 70
     0
  9
$DIMALTD
 70
     2
  9
$DIMALTF
 40
25.4
  9
$DIMLFAC
 40
1.0
  9
$DIMTOFL
 70
     1
  9
$DIMTVP
 40
1.0
  9
$DIMTIX
 70
     0
  9
$DIMSOXD
 70
     0
  9
$DIMSAH
 70
     0
  9
$DIMBLK1
  1

  9
$DIMBLK2
  1

  9
$DIMSTYLE
  2
IMAO
  9
$DIMCLRD
 70
     0
  9
$DIMCLRE
 70
     0
  9
$DIMCLRT
 70
     0
  9
$DIMTFAC
 40
1.0
  9
$DIMGAP
 40
0.09
  9
$DIMJUST
 70
     0
  9
$DIMSD1
 70
     0
  9
$DIMSD2
 70
     0
  9
$DIMTOLJ
 70
     1
  9
$DIMTZIN
 70
     0
  9
$DIMALTZ
 70
     0
  9
$DIMALTTZ
 70
     0
  9
$DIMUPT
 70
     0
  9
$DIMDEC
 70
     2
  9
$DIMTDEC
 70
     2
  9
$DIMALTU
 70
     2
  9
$DIMALTTD
 70
     2
  9
$DIMTXSTY
  7
STANDARD
  9
$DIMAUNIT
 70
     0
  9
$DIMADEC
 70
     0
  9
$DIMALTRND
 40
0.0
  9
$DIMAZIN
 70
     0
  9
$DIMDSEP
 70
    46
  9
$DIMATFIT
 70
     3
  9
$DIMFRAC
 70
     0
  9
$DIMLDRBLK
  1
ARROW
  9
$DIMLUNIT
 70
     2
  9
$DIMLWD
 70
    -2
  9
$DIMLWE
 70
    -2
  9
$DIMTMOVE
 70
     0
  9
$LUNITS
 70
     2
  9
$LUPREC
 70
     2
  9
$SKETCHINC
 40
0.1
  9
$FILLETRAD
 40
0.3
  9
$AUNITS
 70
     0
  9
$AUPREC
 70
     2
  9
$MENU
  1
stdr12j
  9
$ELEVATION
 40
0.0
  9
$PELEVATION
 40
0.0
  9
$THICKNESS
 40
0.0
  9
$LIMCHECK
 70
     0
  9
$CHAMFERA
 40
0.0
  9
$CHAMFERB
 40
0.0
  9
$CHAMFERC
 40
0.0
  9
$CHAMFERD
 40
0.0
  9
$SKPOLY
 70
     0
  9
$TDCREATE
 40
2450542.749144212
  9
$TDUCREATE
 40
2450542.374144212
  9
$TDUPDATE
 40
2457291.446752789
  9
$TDUUPDATE
 40
2457291.071752789
  9
$TDINDWG
 40
1.5223441319
  9
$TDUSRTIMER
 40
1.5223435532
  9
$USRTIMER
 70
     1
  9
$ANGBASE
 50
0.0
  9
$ANGDIR
 70
     0
  9
$PDMODE
 70
     0
  9
$PDSIZE
 40
0.0
  9
$PLINEWID
 40
0.0
  9
$SPLFRAME
 70
     0
  9
$SPLINETYPE
 70
     6
  9
$SPLINESEGS
 70
     8
  9
$HANDSEED
  5
E00EDBCF
  9
$SURFTAB1
 70
     6
  9
$SURFTAB2
 70
     6
  9
$SURFTYPE
 70
     6
  9
$SURFU
 70
     6
  9
$SURFV
 70
     6
  9
$UCSBASE
  2

  9
$UCSNAME
  2

  9
$UCSORG
 10
0.0
 20
0.0
 30
0.0
  9
$UCSXDIR
 10
1.0
 20
0.0
 30
0.0
  9
$UCSYDIR
 10
0.0
 20
1.0
 30
0.0
  9
$UCSORTHOREF
  2

  9
$UCSORTHOVIEW
 70
     0
  9
$UCSORGTOP
 10
0.0
 20
0.0
 30
0.0
  9
$UCSORGBOTTOM
 10
0.0
 20
0.0
 30
0.0
  9
$UCSORGLEFT
 10
0.0
 20
0.0
 30
0.0
  9
$UCSORGRIGHT
 10
0.0
 20
0.0
 30
0.0
  9
$UCSORGFRONT
 10
0.0
 20
0.0
 30
0.0
  9
$UCSORGBACK
 10
0.0
 20
0.0
 30
0.0
  9
$PUCSBASE
  2

  9
$PUCSNAME
  2

  9
$PUCSORG
 10
0.0
 20
0.0
 30
0.0
  9
$PUCSXDIR
 10
1.0
 20
0.0
 30
0.0
  9
$PUCSYDIR
 10
0.0
 20
1.0
 30
0.0
  9
$PUCSORTHOREF
  2

  9
$PUCSORTHOVIEW
 70
     0
  9
$PUCSORGTOP
 10
0.0
 20
0.0
 30
0.0
  9
$PUCSORGBOTTOM
 10
0.0
 20
0.0
 30
0.0
  9
$PUCSORGLEFT
 10
0.0
 20
0.0
 30
0.0
  9
$PUCSORGRIGHT
 10
0.0
 20
0.0
 30
0.0
  9
$PUCSORGFRONT
 10
0.0
 20
0.0
 30
0.0
  9
$PUCSORGBACK
 10
0.0
 20
0.0
 30
0.0
  9
$USERI1
 70
     4
  9
$USERI2
 70
     1
  9
$USERI3
 70
     1
  9
$USERI4
 70
     2
  9
$USERI5
 70
     0
  9
$USERR1
 40
1.0
  9
$USERR2
 40
3.0
  9
$USERR3
 40
3.0
  9
$USERR4
 40
1.5
  9
$USERR5
 40
8.0
  9
$WORLDVIEW
 70
     1
  9
$SHADEDGE
 70
     3
  9
$SHADEDIF
 70
    70
  9
$TILEMODE
 70
     1
  9
$MAXACTVP
 70
    16
  9
$PINSBASE
 10
0.0
 20
0.0
 30
0.0
  9
$PLIMCHECK
 70
     0
  9
$PEXTMIN
 10
1.000000000000000E+20
 20
1.000000000000000E+20
 30
1.000000000000000E+20
  9
$PEXTMAX
 10
-1.000000000000000E+20
 20
-1.000000000000000E+20
 30
-1.000000000000000E+20
  9
$PLIMMIN
 10
0.0
 20
0.0
  9
$PLIMMAX
 10
12.0
 20
9.0
  9
$UNITMODE
 70
     0
  9
$VISRETAIN
 70
     0
  9
$PLINEGEN
 70
     0
  9
$PSLTSCALE
 70
     0
  9
$TREEDEPTH
 70
  3020
  9
$CMLSTYLE
  2
STANDARD
  9
$CMLJUST
 70
     0
  9
$CMLSCALE
 40
1.0
  9
$PROXYGRAPHICS
 70
     1
  9
$MEASUREMENT
 70
     0
  9
$CELWEIGHT
370
    -1
  9
$ENDCAPS
280
     0
  9
$JOINSTYLE
280
     0
  9
$LWDISPLAY
290
     0
  9
$INSUNITS
 70
     0
  9
$HYPERLINKBASE
  1

  9
$STYLESHEET
  1
aclt.ctb
  9
$XEDIT
290
     1
  9
$CEPSNTYPE
380
     0
  9
$PSTYLEMODE
290
     1
  9
$FINGERPRINTGUID
  2
{3644D75A-AD60-4D58-9D7E-D616B61E4E68}
  9
$VERSIONGUID
  2
{453338A5-7131-4A8E-84A4-B5DA620854AA}
  9
$EXTNAMES
290
     1
  9
$PSVPSCALE
 40
0.0
  9
$OLESTARTUP
290
     0
  0
ENDSEC
  0
SECTION
  2
CLASSES
  0
CLASS
  1
LWPOLYLINE
  2
AcDbPolyline
  3
AutoCAD 2000
 90
    32768
280
     0
281
     1
  0
CLASS
  1
DICTIONARYVAR
  2
AcDbDictionaryVar
  3
AutoCAD 2000
 90
        0
280
     0
281
     0
  0
CLASS
  1
HATCH
  2
AcDbHatch
  3
AutoCAD 2000
 90
    32768
280
     0
281
     1
  0
CLASS
  1
ACDBDICTIONARYWDFLT
  2
AcDbDictionaryWithDefault
  3
AutoCAD 2000
 90
        0
280
     0
281
     0
  0
CLASS
  1
ACDBPLACEHOLDER
  2
AcDbPlaceHolder
  3
AutoCAD 2000
 90
        0
280
     0
281
     0
  0
CLASS
  1
LAYOUT
  2
AcDbLayout
  3
AutoCAD 2000
 90
        0
280
     0
281
     0
  0
CLASS
  1
LONG_TRANSACTION
  2
AcDbLongTransaction
  3
AutoCAD 2000
 90
    32768
280
     0
281
     0
  0
CLASS
  1
LWPOLYLINE
  2
AcDbPolyline
  3
AutoCAD 2000
 90
    32768
280
     0
281
     1
  0
CLASS
  1
HATCH
  2
AcDbHatch
  3
AutoCAD 2000
 90
    32768
280
     0
281
     1
  0
CLASS
  1
XRECORD
  2
AcDbXrecord
  3
AutoCAD 2000
 90
    32768
280
     0
281
     0
  0
ENDSEC
  0
SECTION
  2
TABLES
  0
TABLE
  2
VPORT
  5
E00DEA4D
330
0
100
AcDbSymbolTable
 70
    10
  0
VPORT
  5
E00DEA82
330
E00DEA4D
100
AcDbSymbolTableRecord
100
AcDbViewportTableRecord
  2
2
 70
     0
 10
0.5
 20
0.0
 11
1.0
 21
1.0
 12
0.9240312421264802
 22
1.052650975462765
 13
0.0
 23
0.0
 14
1.0
 24
1.0
 15
10.0
 25
10.0
 16
0.0
 26
0.0
 36
1.0
 17
0.0
 27
0.0
 37
0.0
 40
2.105301950925533
 41
0.8778135048231511
 42
50.0
 43
0.0
 44
0.0
 50
0.0
 51
0.0
 71
     0
 72
   500
 73
     1
 74
     1
 75
     0
 76
     0
 77
     0
 78
     0
281
     0
 65
     1
110
0.0
120
0.0
130
0.0
111
1.0
121
0.0
131
0.0
112
0.0
122
1.0
132
0.0
 79
     0
146
0.0
  0
VPORT
  5
E00DEA83
330
E00DEA4D
100
AcDbSymbolTableRecord
100
AcDbViewportTableRecord
  2
2
 70
     0
 10
0.0
 20
0.0
 11
0.5
 21
1.0
 12
0.9240312421264802
 22
1.052650975462765
 13
0.0
 23
0.0
 14
1.0
 24
1.0
 15
10.0
 25
10.0
 16
0.0
 26
0.0
 36
1.0
 17
0.0
 27
0.0
 37
0.0
 40
2.105301950925533
 41
0.8778135048231511
 42
50.0
 43
0.0
 44
0.0
 50
0.0
 51
0.0
 71
     0
 72
   500
 73
     1
 74
     1
 75
     0
 76
     0
 77
     0
 78
     0
281
     0
 65
     1
110
0.0
120
0.0
130
0.0
111
1.0
121
0.0
131
0.0
112
0.0
122
1.0
132
0.0
 79
     0
146
0.0
  0
VPORT
  5
E00DEA84
330
E00DEA4D
100
AcDbSymbolTableRecord
100
AcDbViewportTableRecord
  2
3
 70
     0
 10
0.0
 20
0.5
 11
1.0
 21
1.0
 12
2.832169994473273
 22
1.052650975462765
 13
0.0
 23
0.0
 14
1.0
 24
1.0
 15
10.0
 25
10.0
 16
0.0
 26
0.0
 36
1.0
 17
0.0
 27
0.0
 37
0.0
 40
2.105301950925533
 41
3.571428571428571
 42
50.0
 43
0.0
 44
0.0
 50
0.0
 51
0.0
 71
     0
 72
   500
 73
     1
 74
     1
 75
     0
 76
     0
 77
     0
 78
     0
281
     0
 65
     1
110
0.0
120
0.0
130
0.0
111
1.0
121
0.0
131
0.0
112
0.0
122
1.0
132
0.0
 79
     0
146
0.0
  0
VPORT
  5
E00DEA85
330
E00DEA4D
100
AcDbSymbolTableRecord
100
AcDbViewportTableRecord
  2
3
 70
     0
 10
0.0
 20
0.0
 11
1.0
 21
0.5
 12
2.856741679241311
 22
1.052650975462765
 13
0.0
 23
0.0
 14
1.0
 24
1.0
 15
10.0
 25
10.0
 16
0.0
 26
0.0
 36
1.0
 17
0.0
 27
0.0
 37
0.0
 40
2.105301950925533
 41
3.594771241830064
 42
50.0
 43
0.0
 44
0.0
 50
0.0
 51
0.0
 71
     0
 72
   500
 73
     1
 74
     1
 75
     0
 76
     0
 77
     0
 78
     0
281
     0
 65
     1
110
0.0
120
0.0
130
0.0
111
1.0
121
0.0
131
0.0
112
0.0
122
1.0
132
0.0
 79
     0
146
0.0
  0
VPORT
  5
E00DEA86
330
E00DEA4D
100
AcDbSymbolTableRecord
100
AcDbViewportTableRecord
  2
4
 70
     0
 10
0.5
 20
0.0
 11
1.0
 21
0.5
 12
2.886857516709718
 22
1.052650975462765
 13
0.0
 23
0.0
 14
1.0
 24
1.0
 15
10.0
 25
10.0
 16
0.0
 26
0.0
 36
1.0
 17
0.0
 27
0.0
 37
0.0
 40
4.275207030309069
 41
1.784313725490195
 42
50.0
 43
0.0
 44
0.0
 50
0.0
 51
0.0
 71
     0
 72
   500
 73
     1
 74
     1
 75
     0
 76
     0
 77
     0
 78
     0
281
     0
 65
     1
110
0.0
120
0.0
130
0.0
111
1.0
121
0.0
131
0.0
112
0.0
122
1.0
132
0.0
 79
     0
146
0.0
  0
VPORT
  5
E00DEA87
330
E00DEA4D
100
AcDbSymbolTableRecord
100
AcDbViewportTableRecord
  2
4
 70
     0
 10
0.5
 20
0.5
 11
1.0
 21
1.0
 12
2.862090274555523
 22
1.052650975462765
 13
0.0
 23
0.0
 14
1.0
 24
1.0
 15
10.0
 25
10.0
 16
0.0
 26
0.0
 36
1.0
 17
0.0
 27
0.0
 37
0.0
 40
4.275207030309069
 41
1.772727272727271
 42
50.0
 43
0.0
 44
0.0
 50
0.0
 51
0.0
 71
     0
 72
   500
 73
     1
 74
     1
 75
     0
 76
     0
 77
     0
 78
     0
281
     0
 65
     1
110
0.0
120
0.0
130
0.0
111
1.0
121
0.0
131
0.0
112
0.0
122
1.0
132
0.0
 79
     0
146
0.0
  0
VPORT
  5
E00DEA88
330
E00DEA4D
100
AcDbSymbolTableRecord
100
AcDbViewportTableRecord
  2
4
 70
     0
 10
0.0
 20
0.5
 11
0.5
 21
1.0
 12
2.862090274555523
 22
1.052650975462765
 13
0.0
 23
0.0
 14
1.0
 24
1.0
 15
10.0
 25
10.0
 16
0.0
 26
0.0
 36
1.0
 17
0.0
 27
0.0
 37
0.0
 40
4.275207030309069
 41
1.772727272727271
 42
50.0
 43
0.0
 44
0.0
 50
0.0
 51
0.0
 71
     0
 72
   500
 73
     1
 74
     1
 75
     0
 76
     0
 77
     0
 78
     0
281
     0
 65
     1
110
0.0
120
0.0
130
0.0
111
1.0
121
0.0
131
0.0
112
0.0
122
1.0
132
0.0
 79
     0
146
0.0
  0
VPORT
  5
E00DEA89
330
E00DEA4D
100
AcDbSymbolTableRecord
100
AcDbViewportTableRecord
  2
4
 70
     0
 10
0.0
 20
0.0
 11
0.5
 21
0.5
 12
2.886857516709718
 22
1.052650975462765
 13
0.0
 23
0.0
 14
1.0
 24
1.0
 15
10.0
 25
10.0
 16
0.0
 26
0.0
 36
1.0
 17
0.0
 27
0.0
 37
0.0
 40
4.275207030309069
 41
1.784313725490195
 42
50.0
 43
0.0
 44
0.0
 50
0.0
 51
0.0
 71
     0
 72
   500
 73
     1
 74
     1
 75
     0
 76
     0
 77
     0
 78
     0
281
     0
 65
     1
110
0.0
120
0.0
130
0.0
111
1.0
121
0.0
131
0.0
112
0.0
122
1.0
132
0.0
 79
     0
146
0.0
  0
VPORT
  5
E00EDBCE
330
E00DEA4D
100
AcDbSymbolTableRecord
100
AcDbViewportTableRecord
  2
*Active
 70
     0
 10
0.0
 20
0.0
 11
1.0
 21
1.0
 12
190.9915056203632
 22
136.5000003308043
 13
0.0
 23
0.0
 14
1.0
 24
1.0
 15
10.0
 25
10.0
 16
0.0
 26
0.0
 36
1.0
 17
0.0
 27
0.0
 37
0.0
 40
274.9714358382318
 41
2.275779376498801
 42
50.0
 43
0.0
 44
0.0
 50
0.0
 51
0.0
 71
     0
 72
   500
 73
     1
 74
     0
 75
     0
 76
     0
 77
     0
 78
     0
281
     0
 65
     1
110
0.0
120
0.0
130
0.0
111
1.0
121
0.0
131
0.0
112
0.0
122
1.0
132
0.0
 79
     0
146
0.0
  0
ENDTAB
  0
TABLE
  2
LTYPE
  5
E00DEA4A
330
0
100
AcDbSymbolTable
 70
     5
  0
LTYPE
  5
E00DEA57
330
E00DEA4A
100
AcDbSymbolTableRecord
100
AcDbLinetypeTableRecord
  2
BYBLOCK
 70
     0
  3

 72
    65
 73
     0
 40
0.0
  0
LTYPE
  5
E00DEA58
330
E00DEA4A
100
AcDbSymbolTableRecord
100
AcDbLinetypeTableRecord
  2
BYLAYER
 70
     0
  3

 72
    65
 73
     0
 40
0.0
  0
LTYPE
  5
E00DEA59
330
E00DEA4A
100
AcDbSymbolTableRecord
100
AcDbLinetypeTableRecord
  2
CONTINUOUS
 70
     0
  3
実線
 72
    65
 73
     0
 40
0.0
  0
LTYPE
  5
E00DEA7E
330
E00DEA4A
100
AcDbSymbolTableRecord
100
AcDbLinetypeTableRecord
  2
CENTER
 70
     0
  3
____ _ ____ _ ____ _ ____ _ ____ _ ____ _ ____
 72
    65
 73
     4
 40
2.0
 49
1.25
 74
     0
 49
-0.25
 74
     0
 49
0.25
 74
     0
 49
-0.25
 74
     0
  0
LTYPE
  5
E00DEA81
330
E00DEA4A
100
AcDbSymbolTableRecord
100
AcDbLinetypeTableRecord
  2
HIDDEN
 70
     0
  3
_ _ _ _ _ _ _ _ _ _ _ _ _ _ _ _ _ _ _ _ _ _ _
 72
    65
 73
     2
 40
0.375
 49
0.25
 74
     0
 49
-0.125
 74
     0
  0
LTYPE
  5
E00E0AD4
330
E00DEA4A
100
AcDbSymbolTableRecord
100
AcDbLinetypeTableRecord
  2
PHANTOM
 70
     0
  3
Phantom ______  __  __  ______  __  __  ______
 72
    65
 73
     6
 40
2.5
 49
1.25
 74
     0
 49
-0.25
 74
     0
 49
0.25
 74
     0
 49
-0.25
 74
     0
 49
0.25
 74
     0
 49
-0.25
 74
     0
  0
LTYPE
  5
E00ECC5C
330
E00DEA4A
100
AcDbSymbolTableRecord
100
AcDbLinetypeTableRecord
  2
SLD-実線
 70
     0
  3
SolidWorks Line Style
 72
    65
 73
     0
 40
0.0
  0
ENDTAB
  0
TABLE
  2
LAYER
  5
E00DEA47
102
{ACAD_XDICTIONARY
360
E00DFB39
102
}
330
0
100
AcDbSymbolTable
 70
    13
  0
LAYER
  5
E00DEA54
330
E00DEA47
100
AcDbSymbolTableRecord
100
AcDbLayerTableRecord
  2
0
 70
     0
 62
     6
  6
CONTINUOUS
370
    -3
390
E00DFA69
  0
LAYER
  5
E00DEA8D
330
E00DEA47
100
AcDbSymbolTableRecord
100
AcDbLayerTableRecord
  2
ITTEN
 70
     0
 62
     1
  6
CENTER
370
    -3
390
E00DFA69
  0
LAYER
  5
E00DEA8F
330
E00DEA47
100
AcDbSymbolTableRecord
100
AcDbLayerTableRecord
  2
HATCH
 70
     0
 62
     4
  6
CONTINUOUS
370
    -3
390
E00DFA69
  0
LAYER
  5
E00DEA90
330
E00DEA47
100
AcDbSymbolTableRecord
100
AcDbLayerTableRecord
  2
SUNPOU
 70
     0
 62
     3
  6
CONTINUOUS
370
    -3
390
E00DFA69
  0
LAYER
  5
E00DEA91
330
E00DEA47
100
AcDbSymbolTableRecord
100
AcDbLayerTableRecord
  2
TEXT
 70
     0
 62
     3
  6
CONTINUOUS
370
    -3
390
E00DFA69
  0
LAYER
  5
E00DEA92
330
E00DEA47
100
AcDbSymbolTableRecord
100
AcDbLayerTableRecord
  2
SAISEN
 70
     0
 62
     4
  6
CONTINUOUS
370
    -3
390
E00DFA69
  0
LAYER
  5
E00DEA93
330
E00DEA47
100
AcDbSymbolTableRecord
100
AcDbLayerTableRecord
  2
JISSEN
 70
     0
 62
     7
  6
CONTINUOUS
370
    -3
390
E00DFA69
  0
LAYER
  5
E00DEA96
330
E00DEA47
100
AcDbSymbolTableRecord
100
AcDbLayerTableRecord
  2
WAKU
 70
     0
 62
     5
  6
CONTINUOUS
370
    -3
390
E00DFA69
  0
LAYER
  5
E00DEA97
330
E00DEA47
100
AcDbSymbolTableRecord
100
AcDbLayerTableRecord
  2
TENSEN
 70
     0
 62
     2
  6
HIDDEN
370
    -3
390
E00DFA69
  0
LAYER
  5
E00E0AD5
330
E00DEA47
100
AcDbSymbolTableRecord
100
AcDbLayerTableRecord
  2
SCALE
 70
     0
 62
     4
  6
CONTINUOUS
370
    -3
390
E00DFA69
  0
LAYER
  5
E00E0AD6
330
E00DEA47
100
AcDbSymbolTableRecord
100
AcDbLayerTableRecord
  2
BORDER
 70
     0
 62
     5
  6
CONTINUOUS
370
    -3
390
E00DFA69
  0
LAYER
  5
E00E0AD7
330
E00DEA47
100
AcDbSymbolTableRecord
100
AcDbLayerTableRecord
  2
NITEN
 70
     0
 62
     2
  6
PHANTOM
370
    -3
390
E00DFA69
  0
LAYER
  5
E00E5AB9
330
E00DEA47
100
AcDbSymbolTableRecord
100
AcDbLayerTableRecord
  2
DEFPOINTS
 70
     0
 62
    -7
  6
CONTINUOUS
290
     0
370
    -3
390
E00DFA69
  0
ENDTAB
  0
TABLE
  2
STYLE
  5
E00DEA48
330
0
100
AcDbSymbolTable
 70
     6
  0
STYLE
  5
E00DEA55
330
E00DEA48
100
AcDbSymbolTableRecord
100
AcDbTextStyleTableRecord
  2
STANDARD
 70
     0
 40
0.0
 41
1.0
 50
0.0
 71
     0
 42
2.5
  3
SIMPLEX
  4

  0
STYLE
  5
E00DEA7C
330
E00DEA48
100
AcDbSymbolTableRecord
100
AcDbTextStyleTableRecord
  2
K
 70
     0
 40
0.0
 41
1.0
 50
0.0
 71
     0
 42
6.0
  3
SIMPLEX
  4
bigfont.shx
  0
STYLE
  5
E00DFB37
330
E00DEA48
100
AcDbSymbolTableRecord
100
AcDbTextStyleTableRecord
  2
DIMENSION
 70
     0
 40
0.0
 41
1.0
 50
0.0
 71
     0
 42
2.5
  3
TXT
  4

  0
STYLE
  5
E00EC309
330
E00DEA48
100
AcDbSymbolTableRecord
100
AcDbTextStyleTableRecord
  2
BIGFONT
 70
     0
 40
0.0
 41
1.0
 50
0.0
 71
     0
 42
3.0
  3
txt.shx
  4
bigfont
  0
STYLE
  5
E00ECC5D
330
E00DEA48
100
AcDbSymbolTableRecord
100
AcDbTextStyleTableRecord
  2
ROMANS
 70
     0
 40
0.0
 41
0.8
 50
0.0
 71
     0
 42
6.0
  3
romans
  4

  0
STYLE
  5
E00EDB91
330
E00DEA48
100
AcDbSymbolTableRecord
100
AcDbTextStyleTableRecord
  2
ＭＳゴシック
 70
     0
 40
0.0
 41
1.0
 50
0.0
 71
     0
 42
2.5
  3

  4

1001
ACAD
1000
ＭＳ ゴシック
1071
    32817
  0
ENDTAB
  0
TABLE
  2
VIEW
  5
E00DEA4B
330
0
100
AcDbSymbolTable
 70
     0
  0
ENDTAB
  0
TABLE
  2
UCS
  5
E00DEA4C
330
0
100
AcDbSymbolTable
 70
     0
  0
ENDTAB
  0
TABLE
  2
APPID
  5
E00DEA4E
330
0
100
AcDbSymbolTable
 70
     8
  0
APPID
  5
E00DEA56
330
E00DEA4E
100
AcDbSymbolTableRecord
100
AcDbRegAppTableRecord
  2
ACAD
 70
     0
  0
APPID
  5
E00E89BA
330
E00DEA4E
100
AcDbSymbolTableRecord
100
AcDbRegAppTableRecord
  2
CONTENTBLOCKICON
 70
     0
  0
APPID
  5
E00E89BB
330
E00DEA4E
100
AcDbSymbolTableRecord
100
AcDbRegAppTableRecord
  2
X_OBJNAME
 70
     0
  0
APPID
  5
E00E89BC
330
E00DEA4E
100
AcDbSymbolTableRecord
100
AcDbRegAppTableRecord
  2
X_PARAM_BALLOON
 70
     0
  0
APPID
  5
E00E89BD
330
E00DEA4E
100
AcDbSymbolTableRecord
100
AcDbRegAppTableRecord
  2
X_PARAM_TXTPATERN
 70
     0
  0
APPID
  5
E00E89BE
330
E00DEA4E
100
AcDbSymbolTableRecord
100
AcDbRegAppTableRecord
  2
X_PARAM_CTXTPATERN
 70
     0
  0
APPID
  5
E00E89BF
330
E00DEA4E
100
AcDbSymbolTableRecord
100
AcDbRegAppTableRecord
  2
X_PARAM_SYSVAL
 70
     0
  0
APPID
  5
E00E89C0
330
E00DEA4E
100
AcDbSymbolTableRecord
100
AcDbRegAppTableRecord
  2
X_DEFINELIST
 70
     0
  0
ENDTAB
  0
TABLE
  2
DIMSTYLE
  5
E00DEA4F
330
0
100
AcDbSymbolTable
 70
     2
100
AcDbDimStyleTable
 71
     1
340
E00DEA8C
  0
DIMSTYLE
105
E00DEA8C
330
E00DEA4F
100
AcDbSymbolTableRecord
100
AcDbDimStyleTableRecord
  2
IMAO
 70
     0
 41
1.5
 42
1.0
 43
6.0
 44
1.0
 47
495.0
 73
     0
 74
     0
 77
     1
 78
     8
140
3.0
141
0.0
172
     1
174
     1
271
     2
272
     2
279
     2
284
     8
285
     8
286
     8
340
E00DEA7C
341
E00DEA68
342
E00DEA68
343
E00DEA68
344
E00DEA68
  0
DIMSTYLE
105
E00DFB38
330
E00DEA4F
100
AcDbSymbolTableRecord
100
AcDbDimStyleTableRecord
  2
STANDARD
 70
     0
 40
0.5
 41
2.0
 42
0.1
 43
10.0
 44
1.5
 73
     0
 74
     0
 78
     8
140
3.0
145
1.0
147
0.1
172
     1
176
   256
177
   256
178
   256
271
     2
272
     2
284
     8
340
E00DFB37
341
E00DFB2F
342
E00DFB2F
  0
ENDTAB
  0
TABLE
  2
BLOCK_RECORD
  5
E00DEA46
330
0
100
AcDbSymbolTable
 70
     4
  0
BLOCK_RECORD
  5
E00DEA5D
102
{ACAD_XDICTIONARY
360
E00DFB13
102
}
330
E00DEA46
100
AcDbSymbolTableRecord
100
AcDbBlockTableRecord
  2
*MODEL_SPACE
340
E00DFA6C
  0
BLOCK_RECORD
  5
E00DEA5A
102
{ACAD_XDICTIONARY
360
E00DFB11
102
}
330
E00DEA46
100
AcDbSymbolTableRecord
100
AcDbBlockTableRecord
  2
*PAPER_SPACE
340
E00DFA6D
  0
BLOCK_RECORD
  5
E00DEA61
330
E00DEA46
100
AcDbSymbolTableRecord
100
AcDbBlockTableRecord
  2
ARROW
340
0
102
{BLKREFS
331
E00ED675
331
E00ED736
102
}
  0
BLOCK_RECORD
  5
E00DEA68
330
E00DEA46
100
AcDbSymbolTableRecord
100
AcDbBlockTableRecord
  2
ARROWANG
340
0
  0
BLOCK_RECORD
  5
E00DFB2F
330
E00DEA46
100
AcDbSymbolTableRecord
100
AcDbBlockTableRecord
  2
AR_OPEN
340
0
  0
BLOCK_RECORD
  5
E00E0A21
330
E00DEA46
100
AcDbSymbolTableRecord
100
AcDbBlockTableRecord
  2
WAKU
340
0
  0
ENDTAB
  0
ENDSEC
  0
SECTION
  2
BLOCKS
  0
BLOCK
  5
E00DEA9A
330
E00DEA5D
100
AcDbEntity
  8
0
100
AcDbBlockBegin
  2
*MODEL_SPACE
 70
     0
 10
0.0
 20
0.0
 30
0.0
  3
*MODEL_SPACE
  1

  0
ENDBLK
  5
E00DEA9B
330
E00DEA5D
100
AcDbEntity
  8
0
100
AcDbBlockEnd
  0
BLOCK
  5
E00DEA98
330
E00DEA5A
100
AcDbEntity
 67
     1
  8
0
100
AcDbBlockBegin
  2
*PAPER_SPACE
 70
     0
 10
0.0
 20
0.0
 30
0.0
  3
*PAPER_SPACE
  1

  0
ENDBLK
  5
E00DEA99
330
E00DEA5A
100
AcDbEntity
 67
     1
  8
0
100
AcDbBlockEnd
  0
BLOCK
  5
41E
330
E00DEA61
100
AcDbEntity
  8
0
100
AcDbBlockBegin
  2
ARROW
 70
     0
 10
1.0
 20
0.5
 30
0.0
  3
ARROW
  1

  0
LINE
  5
41F
330
E00DEA61
100
AcDbEntity
  8
0
100
AcDbLine
 10
1.0
 20
0.5
 30
0.0
 11
-0.5000000000000214
 21
0.0980762113533018
 31
0.0
  0
LINE
  5
420
330
E00DEA61
100
AcDbEntity
  8
0
100
AcDbLine
 10
0.0
 20
0.5
 30
0.0
 11
1.0
 21
0.5
 31
0.0
  0
LINE
  5
421
330
E00DEA61
100
AcDbEntity
  8
0
100
AcDbLine
 10
1.0
 20
0.5
 30
0.0
 11
-0.4999999999999575
 21
0.9019237886467408
 31
0.0
  0
ENDBLK
  5
422
330
E00DEA61
100
AcDbEntity
  8
0
100
AcDbBlockEnd
  0
BLOCK
  5
460
330
E00DEA68
100
AcDbEntity
  8
0
100
AcDbBlockBegin
  2
ARROWANG
 70
     0
 10
0.0
 20
0.0
 30
0.0
  3
ARROWANG
  1

  0
LINE
  5
461
330
E00DEA68
100
AcDbEntity
  8
SUNPOU
100
AcDbLine
 10
0.0
 20
0.0
 30
0.0
 11
-1.499999999999956
 21
0.401923788646741
 31
0.0
  0
LINE
  5
462
330
E00DEA68
100
AcDbEntity
  8
SUNPOU
100
AcDbLine
 10
0.0
 20
0.0
 30
0.0
 11
-1.500000000000027
 21
-0.4019237886467124
 31
0.0
  0
ENDBLK
  5
463
330
E00DEA68
100
AcDbEntity
  8
0
100
AcDbBlockEnd
  0
BLOCK
  5
E00DFB33
330
E00DFB2F
100
AcDbEntity
  8
0
100
AcDbBlockBegin
  2
AR_OPEN
 70
     0
 10
0.0
 20
0.0
 30
0.0
  3
AR_OPEN
  1

  0
LINE
  5
E00DFB30
330
E00DFB2F
100
AcDbEntity
  8
0
 62
     0
100
AcDbLine
 10
-1.0
 20
0.0
 30
0.0
 11
0.0
 21
0.0
 31
0.0
  0
LINE
  5
E00DFB31
330
E00DFB2F
100
AcDbEntity
  8
0
 62
     0
100
AcDbLine
 10
0.0
 20
0.0
 30
0.0
 11
-1.0
 21
0.2679491924311037
 31
0.0
  0
LINE
  5
E00DFB32
330
E00DFB2F
100
AcDbEntity
  8
0
 62
     0
100
AcDbLine
 10
0.0
 20
0.0
 30
0.0
 11
-1.0
 21
-0.2679491924311037
 31
0.0
  0
ENDBLK
  5
E00DFB34
330
E00DFB2F
100
AcDbEntity
  8
0
100
AcDbBlockEnd
  0
BLOCK
  5
E00E0A26
330
E00E0A21
100
AcDbEntity
  8
0
100
AcDbBlockBegin
  2
WAKU
 70
     0
 10
0.0
 20
0.0
 30
0.0
  3
WAKU
  1

  0
LINE
  5
E00E0A22
330
E00E0A21
100
AcDbEntity
  8
WAKU
100
AcDbLine
 10
0.9999999959999998
 20
0.0
 30
0.0
 11
0.9999999959999998
 21
0.9999999999999998
 31
0.0
  0
LINE
  5
E00E0A23
330
E00E0A21
100
AcDbEntity
  8
WAKU
100
AcDbLine
 10
0.0
 20
0.9999999999999998
 30
0.0
 11
0.9999999959999998
 21
0.9999999999999998
 31
0.0
  0
LINE
  5
E00E0A24
330
E00E0A21
100
AcDbEntity
  8
WAKU
100
AcDbLine
 10
0.9999999959999998
 20
0.0
 30
0.0
 11
0.0
 21
0.0
 31
0.0
  0
LINE
  5
E00E0A25
330
E00E0A21
100
AcDbEntity
  8
WAKU
100
AcDbLine
 10
0.0
 20
0.0
 30
0.0
 11
0.0
 21
0.9999999999999998
 31
0.0
  0
ENDBLK
  5
E00E0A27
330
E00E0A21
100
AcDbEntity
  8
0
100
AcDbBlockEnd
  0
ENDSEC
  0
SECTION
  2
ENTITIES
  0
LINE
  5
E00ED655
330
E00DEA5D
100
AcDbEntity
  8
JISSEN
100
AcDbLine
 10
122.9999991002849
 20
257.9999996951767
 30
0.0
 11
180.9999987382851
 21
257.9999996951767
 31
0.0
  0
LINE
  5
E00ED656
330
E00DEA5D
100
AcDbEntity
  8
JISSEN
100
AcDbLine
 10
122.9999991002849
 20
262.9999996951767
 30
0.0
 11
180.9999987382851
 21
262.9999996951767
 31
0.0
  0
LINE
  5
E00ED657
330
E00DEA5D
100
AcDbEntity
  8
JISSEN
100
AcDbLine
 10
122.9999991002849
 20
267.9999996951767
 30
0.0
 11
180.9999987382851
 21
267.9999996951767
 31
0.0
  0
LWPOLYLINE
  5
E00ED658
330
E00DEA5D
100
AcDbEntity
  8
WAKU
100
AcDbPolyline
 90
        4
 70
     1
 43
0.0
 10
180.9999991002849
 20
-0.0000003048232884
 10
-0.0000001757153996
 20
-0.0000003048232884
 10
-0.0000001757153996
 20
272.9999996951767
 10
180.9999991002849
 20
272.9999996951767
  0
CIRCLE
  5
E00ED659
330
E00DEA5D
100
AcDbEntity
  8
SUNPOU
100
AcDbCircle
 10
66.11098247223606
 20
137.8533130509943
 30
0.0
 40
3.0
  0
TEXT
  5
E00ED65A
330
E00DEA5D
100
AcDbEntity
  8
SUNPOU
100
AcDbText
 10
65.7538396150932
 20
136.3533130509942
 30
0.0
 40
3.0
  1
1
  7
K
 72
     4
 11
66.11098247223606
 21
137.8533130509943
 31
0.0
100
AcDbText
  0
LINE
  5
E00ED65B
330
E00DEA5D
100
AcDbEntity
  8
JISSEN
100
AcDbLine
 39
1680.364539346804
 10
100.5423980031122
 20
37.33970644355554
 30
0.0
 11
102.0557068803976
 21
37.33970644355554
 31
0.0
  0
LINE
  5
E00ED65C
330
E00DEA5D
100
AcDbEntity
  8
JISSEN
100
AcDbLine
 39
1680.364539346804
 10
100.5385249216345
 20
37.23970644355699
 30
0.0
 11
102.0557068803976
 21
37.23970644355699
 31
0.0
  0
ARC
  5
E00ED65D
330
E00DEA5D
100
AcDbEntity
  8
JISSEN
100
AcDbCircle
 39
1680.364539346804
 10
96.8799709491126
 20
37.03970644354535
 30
0.0
 40
0.2
100
AcDbArc
 50
90.0
 51
134.9999999999864
  0
LINE
  5
E00ED65E
330
E00DEA5D
100
AcDbEntity
  8
JISSEN
 48
0.05
100
AcDbLine
 39
1680.364539346804
 10
96.73854959287508
 20
37.18112779978014
 30
0.0
 11
96.18499620228465
 21
36.62757440919426
 31
0.0
  0
LINE
  5
E00ED65F
330
E00DEA5D
100
AcDbEntity
  8
JISSEN
100
AcDbLine
 39
1680.364539346804
 10
96.8799709491126
 20
37.23970644355699
 30
0.0
 11
97.76164563459895
 21
37.23970644355336
 31
0.0
  0
LINE
  5
E00ED660
330
E00DEA5D
100
AcDbEntity
  8
JISSEN
100
AcDbLine
 39
1680.364539346804
 10
90.05570688039767
 20
37.33970644354826
 30
0.0
 11
97.76405017157356
 21
37.33970644355554
 31
0.0
  0
LINE
  5
E00ED661
330
E00DEA5D
100
AcDbEntity
  8
JISSEN
 48
0.05
100
AcDbLine
 39
1680.364539346804
 10
102.0557068803976
 20
37.33970644355918
 30
0.0
 11
102.0557068803976
 21
37.23970644355699
 31
0.0
  0
LINE
  5
E00ED662
330
E00DEA5D
100
AcDbEntity
  8
JISSEN
100
AcDbLine
 39
1680.364539346804
 10
94.28054744419512
 20
33.23954542030674
 30
0.0
 11
93.58070993809121
 21
32.53970791420556
 31
0.0
  0
LINE
  5
E00ED663
330
E00DEA5D
100
AcDbEntity
  8
JISSEN
100
AcDbLine
 39
1680.364539346804
 10
85.83086631662252
 20
33.23954542033402
 30
0.0
 11
86.53070382272188
 21
32.53970791422921
 31
0.0
  0
LINE
  5
E00ED664
330
E00DEA5D
100
AcDbEntity
  8
JISSEN
 48
0.05
100
AcDbLine
 39
1680.364539346804
 10
78.05570688044724
 20
37.33970644363921
 30
0.0
 11
78.05570688044679
 21
37.23970644363703
 31
0.0
  0
LINE
  5
E00ED665
330
E00DEA5D
100
AcDbEntity
  8
JISSEN
100
AcDbLine
 39
1680.364539346804
 10
90.05570688044725
 20
37.33970644354826
 30
0.0
 11
82.34736358927136
 21
37.33970644360647
 31
0.0
  0
LINE
  5
E00ED666
330
E00DEA5D
100
AcDbEntity
  8
JISSEN
100
AcDbLine
 39
1680.364539346804
 10
83.23144281173188
 20
37.23970644360247
 30
0.0
 11
82.34976812624552
 21
37.23970644360429
 31
0.0
  0
LINE
  5
E00ED667
330
E00DEA5D
100
AcDbEntity
  8
JISSEN
 48
0.05
100
AcDbLine
 39
1680.364539346804
 10
83.37286416796894
 20
37.1811277998238
 30
0.0
 11
83.92641755855573
 21
36.62757440923428
 31
0.0
  0
ARC
  5
E00ED668
330
E00DEA5D
100
AcDbEntity
  8
JISSEN
100
AcDbCircle
 39
1680.364539346804
 10
83.23144281173052
 20
37.03970644359083
 30
0.0
 40
0.2
100
AcDbArc
 50
44.99999999958983
 51
89.99999999960918
  0
LINE
  5
E00ED669
330
E00DEA5D
100
AcDbEntity
  8
JISSEN
100
AcDbLine
 39
1680.364539346804
 10
79.57288883920989
 20
37.23970644362612
 30
0.0
 11
78.05570688044679
 21
37.23970644363703
 31
0.0
  0
LINE
  5
E00ED66A
330
E00DEA5D
100
AcDbEntity
  8
JISSEN
100
AcDbLine
 39
1680.364539346804
 10
79.5690157577327
 20
37.33970644362648
 30
0.0
 11
78.05570688044724
 21
37.33970644363557
 31
0.0
  0
ARC
  5
E00ED66B
330
E00DEA5D
100
AcDbEntity
  8
JISSEN
100
AcDbCircle
 10
90.05570688039677
 20
99.09047482671576
 30
0.0
 40
32.5
100
AcDbArc
 50
180.0
 51
0.0
  0
ARC
  5
E00ED66C
330
E00DEA5D
100
AcDbEntity
  8
JISSEN
100
AcDbCircle
 10
90.05570688039677
 20
99.09047482671576
 30
0.0
 40
32.5
100
AcDbArc
 50
0.0
 51
180.0
  0
LINE
  5
E00ED66D
330
E00DEA5D
100
AcDbEntity
  8
JISSEN
100
AcDbLine
 10
73.20183744689472
 20
43.00714766390751
 30
0.0
 11
59.01580040059423
 21
45.0008651515052
 31
0.0
  0
LINE
  5
E00ED66E
330
E00DEA5D
100
AcDbEntity
  8
JISSEN
100
AcDbLine
 10
57.55570688031719
 20
45.99254976710812
 30
0.0
 11
122.5557068804727
 21
45.99254976710812
 31
0.0
  0
HATCH
  5
E00ED66F
330
E00DEA5D
100
AcDbEntity
  8
SUNPOU
100
AcDbHatch
 10
0.0
 20
0.0
 30
0.0
210
0.0
220
0.0
230
1.0
  2
ANSI31
 70
     0
 71
     0
 91
        2
 92
        5
 93
        5
 72
     1
 10
90.05570688039677
 20
55.99254976710813
 11
33.00383877576894
 21
55.99254976710631
 72
     4
 94
        3
 73
     0
 74
     0
 95
       11
 96
        7
 40
0.0
 40
0.0
 40
0.0
 40
0.0
 40
3.264692203133994
 40
6.15697472568029
 40
8.955271668736928
 40
10.85738683396026
 40
10.85738683396026
 40
10.85738683396026
 40
10.85738683396026
 10
33.00383877576803
 20
55.99254976710813
 10
33.67893946405445
 20
54.99115081590185
 10
34.95213081455256
 20
53.10258440618941
 10
32.68628609820814
 20
50.25121337311952
 10
34.88940326476483
 20
47.6248828753794
 10
33.54704907403072
 20
46.46280690218896
 10
33.00383877576803
 20
45.99254976710812
 72
     1
 10
33.00383877576803
 20
45.99254976710812
 11
57.55570688032083
 21
45.99254976710812
 72
     1
 10
57.55570688032083
 20
45.99254976710812
 11
90.05570688039677
 21
45.99254976710812
 72
     1
 10
90.05570688039677
 20
45.99254976710631
 11
90.05570688039677
 21
55.99254976710813
 97
        0
 92
        5
 93
        5
 72
     4
 94
        3
 73
     0
 74
     0
 95
       11
 96
        7
 40
0.0
 40
0.0
 40
0.0
 40
0.0
 40
1.902115165223333
 40
4.700412108279971
 40
7.592694630826267
 40
10.85738683396026
 40
10.85738683396026
 40
10.85738683396026
 40
10.85738683396026
 10
147.1075749850255
 20
45.99254976710812
 10
146.5643646867628
 20
46.46280690218896
 10
145.2220104960287
 20
47.6248828753794
 10
147.4251276625853
 20
50.25121337311952
 10
145.1592829462409
 20
53.10258440618941
 10
146.432474296739
 20
54.99115081590185
 10
147.1075749850255
 20
55.99254976710813
 72
     1
 10
147.107574985025
 20
55.99254976710631
 11
90.055706880397
 21
55.99254976710994
 72
     1
 10
90.05570688039677
 20
55.99254976710813
 11
90.05570688039677
 21
45.99254976710631
 72
     1
 10
90.05570688039677
 20
45.99254976710812
 11
122.5557068804727
 21
45.99254976710812
 72
     1
 10
122.5557068804727
 20
45.99254976710812
 11
147.1075749850255
 21
45.99254976710812
 97
        0
 75
     0
 76
     1
 52
0.0
 41
10.0
 77
     0
 78
     1
 53
45.0
 43
185.0253222105933
 44
-2526.670503128005
 45
-0.8838834764831842
 46
0.8838834764831844
 79
     0
 47
0.087569455337929
 98
        2
 10
84.46519783405836
 20
53.00987309274546
 10
105.8413460447112
 20
52.74716471385705
  0
LINE
  5
E00ED670
330
E00DEA5D
100
AcDbEntity
  8
SUNPOU
100
AcDbLine
 10
57.55570688032083
 20
45.99254976710812
 30
0.0
 11
33.00383877576757
 21
45.99254976710812
 31
0.0
  0
CIRCLE
  5
E00ED671
330
E00DEA5D
100
AcDbEntity
  8
SUNPOU
100
AcDbCircle
 10
56.78928918620511
 20
32.29323682691732
 30
0.0
 40
3.0
  0
LINE
  5
E00ED672
330
E00DEA5D
100
AcDbEntity
  8
SUNPOU
100
AcDbLine
 10
58.6573686904552
 20
34.6406351667408
 30
0.0
 11
66.10881892333861
 21
44.00400640770725
 31
0.0
  0
TEXT
  5
E00ED673
330
E00DEA5D
100
AcDbEntity
  8
SUNPOU
100
AcDbText
 10
55.78928918620511
 20
30.79323682691732
 30
0.0
 40
3.0
  1
2
  7
K
 72
     4
 11
56.78928918620511
 21
32.29323682691732
 31
0.0
100
AcDbText
  0
ARC
  5
E00ED674
330
E00DEA5D
100
AcDbEntity
  8
JISSEN
100
AcDbCircle
 10
59.29414660249301
 20
46.98140128900536
 30
0.0
 40
1.999999999999996
100
AcDbArc
 50
209.6318914940852
 51
261.9999999999498
  0
INSERT
  5
E00ED675
330
E00DEA5D
100
AcDbEntity
  8
SUNPOU
100
AcDbBlockReference
  2
ARROW
 10
66.09332077381839
 20
43.98819943665488
 30
0.0
 41
1.500000000000068
 42
1.5
 43
1.5
 50
51.56959793943634
  0
LINE
  5
E00ED676
330
E00DEA5D
100
AcDbEntity
  8
SUNPOU
100
AcDbLine
 10
122.5557068804727
 20
45.99254976710812
 30
0.0
 11
147.1075749850259
 21
45.99254976710812
 31
0.0
  0
TEXT
  5
E00ED677
330
E00DEA5D
100
AcDbEntity
  8
TEXT
100
AcDbText
 10
111.2529902518674
 20
9.243590933872415
 30
0.0
 40
3.0
  1
KQR　＋シーリングプレートK 取付状態
  7
K
 72
     4
 11
144.824418823296
 21
10.60073379101527
 31
0.0
100
AcDbText
  0
TEXT
  5
E00ED678
330
E00DEA5D
100
AcDbEntity
  8
TEXT
100
AcDbText
 10
111.0421557703545
 20
4.698249185034619
 30
0.0
 40
3.0
  1
尺度　1/1
  7
K
 72
     4
 11
119.5135843417831
 21
5.983963470748904
 31
0.0
100
AcDbText
  0
LINE
  5
E00ED679
330
E00DEA5D
100
AcDbEntity
  8
JISSEN
100
AcDbLine
 39
240.0520776831561
 10
77.65570688047944
 20
42.43970648800109
 30
0.0
 11
90.05570688048271
 21
42.43970648791742
 31
0.0
  0
LINE
  5
E00ED67A
330
E00DEA5D
100
AcDbEntity
  8
JISSEN
100
AcDbLine
 39
240.0520776831561
 10
102.4557068804
 20
42.43970648791924
 30
0.0
 11
90.05570688039677
 21
42.43970648791742
 31
0.0
  0
ARC
  5
E00ED67B
330
E00DEA5D
100
AcDbEntity
  8
JISSEN
100
AcDbCircle
 10
95.97286416792883
 20
36.8397064435519
 30
0.0
 40
0.3
100
AcDbArc
 50
269.9999999999739
 51
314.9999999996917
  0
LINE
  5
E00ED67C
330
E00DEA5D
100
AcDbEntity
  8
JISSEN
370
    -2
100
AcDbLine
 10
96.86897226359759
 20
35.73954676140761
 30
0.0
 11
90.05570688039677
 21
35.73954676140761
 31
0.0
  0
LINE
  5
E00ED67D
330
E00DEA5D
100
AcDbEntity
  8
JISSEN
370
    -2
100
AcDbLine
 10
103.3057067238972
 20
40.23954656770706
 30
0.0
 11
90.05570688039767
 21
40.23954656770706
 31
0.0
  0
LINE
  5
E00ED67E
330
E00DEA5D
100
AcDbEntity
  8
JISSEN
370
    -2
100
AcDbLine
 10
96.86897226359759
 20
38.73954539050805
 30
0.0
 11
90.05570688039677
 21
38.73954539050805
 31
0.0
  0
LINE
  5
E00ED67F
330
E00DEA5D
100
AcDbEntity
  8
JISSEN
100
AcDbLine
 10
90.05570688039677
 20
42.99254976710813
 30
0.0
 11
106.6888497944977
 21
42.99254976710813
 31
0.0
  0
LINE
  5
E00ED680
330
E00DEA5D
100
AcDbEntity
  8
JISSEN
370
    -2
100
AcDbLine
 10
101.305707327397
 20
33.23954542030674
 30
0.0
 11
90.05570688039767
 21
33.23954542030674
 31
0.0
  0
ARC
  5
E00ED681
330
E00DEA5D
100
AcDbEntity
  8
JISSEN
370
    -2
100
AcDbCircle
 10
83.35728234534679
 20
37.14360139965151
 30
0.0
 40
1.408743357584393
100
AcDbArc
 50
176.0947579959861
 51
265.3240556089233
  0
ARC
  5
E00ED682
330
E00DEA5D
100
AcDbEntity
  8
JISSEN
370
    -2
100
AcDbCircle
 10
83.31948027164832
 20
37.36801646475373
 30
0.0
 40
1.373690855685324
100
AcDbArc
 50
93.21492544802405
 51
185.3662609455778
  0
LINE
  5
E00ED683
330
E00DEA5D
100
AcDbEntity
  8
JISSEN
370
    -2
100
AcDbLine
 10
76.80570703696719
 20
40.23954656779619
 30
0.0
 11
90.05570688046679
 21
40.23954656770706
 31
0.0
  0
LINE
  5
E00ED684
330
E00DEA5D
100
AcDbEntity
  8
JISSEN
100
AcDbLine
 10
90.05570688039677
 20
42.9925497671063
 30
0.0
 11
73.42256396629398
 21
42.9925497671063
 31
0.0
  0
LINE
  5
E00ED685
330
E00DEA5D
100
AcDbEntity
  8
JISSEN
370
    -2
100
AcDbLine
 10
78.8057064334206
 20
33.23954542038132
 30
0.0
 11
90.05570688041997
 21
33.23954542030674
 31
0.0
  0
ARC
  5
E00ED686
330
E00DEA5D
100
AcDbEntity
  8
JISSEN
370
    -2
100
AcDbCircle
 10
78.8057068804336
 20
35.23954619388109
 30
0.0
 40
2.000000000000056
100
AcDbArc
 50
179.9999999995831
 51
269.9999999996091
  0
LINE
  5
E00ED687
330
E00DEA5D
100
AcDbEntity
  8
JISSEN
370
    -2
100
AcDbLine
 10
76.80570703693717
 20
35.73954676149674
 30
0.0
 11
78.69164456373744
 21
35.73954676148218
 31
0.0
  0
LINE
  5
E00ED688
330
E00DEA5D
100
AcDbEntity
  8
JISSEN
370
    -2
100
AcDbLine
 10
76.80570703695718
 20
38.73954539059718
 30
0.0
 11
78.69164456375745
 21
38.73954539058263
 31
0.0
  0
LINE
  5
E00ED689
330
E00DEA5D
100
AcDbEntity
  8
JISSEN
370
    -2
100
AcDbLine
 10
76.80570703693717
 20
35.73954676149674
 30
0.0
 11
76.80570703693399
 21
35.23954574819595
 31
0.0
  0
LINE
  5
E00ED68A
330
E00DEA5D
100
AcDbEntity
  8
JISSEN
370
    -2
100
AcDbLine
 10
76.80570703696719
 20
40.23954656779619
 30
0.0
 11
76.80570703695718
 21
38.73954539059718
 31
0.0
  0
SPLINE
  5
E00ED68B
330
E00DEA5D
100
AcDbEntity
  8
JISSEN
370
    -2
100
AcDbSpline
210
0.0
220
0.0
230
1.0
 70
    12
 71
     3
 72
    12
 73
     8
 74
     0
 42
0.0000000001
 43
0.0000000001
 40
0.0
 40
0.0
 40
0.0
 40
0.0
 40
0.205840282809383
 40
0.4116490113380446
 40
0.6184457918287852
 40
0.8292559119854885
 40
1.0
 40
1.0
 40
1.0
 40
1.0
 10
79.57289458012053
 20
37.23954607602695
 30
0.0
 41
1.0
 10
79.56287810726633
 20
37.07411961074081
 30
0.0
 41
1.0
 10
79.54284669703509
 20
36.74329203920547
 30
0.0
 41
1.0
 10
79.38911875508108
 20
36.30190318677136
 30
0.0
 41
1.0
 10
79.16974894157454
 20
35.9652126589151
 30
0.0
 41
1.0
 10
78.92283828130064
 20
35.77064385879725
 30
0.0
 41
1.0
 10
78.76311854930952
 20
35.74916048935278
 30
0.0
 41
1.0
 10
78.69164456371925
 20
35.73954676148582
 30
0.0
 41
1.0
  0
SPLINE
  5
E00ED68C
330
E00DEA5D
100
AcDbEntity
  8
JISSEN
370
    -2
100
AcDbSpline
210
0.0
220
0.0
230
1.0
 70
    12
 71
     3
 72
    12
 73
     8
 74
     0
 42
0.0000000001
 43
0.0000000001
 40
0.0
 40
0.0
 40
0.0
 40
0.0
 40
0.2270414180693609
 40
0.4545205376007232
 40
0.6714649260062801
 40
0.8806674473517201
 40
1.0
 40
1.0
 40
1.0
 40
1.0
 10
78.69164456373926
 20
38.73954539057899
 30
0.0
 41
1.0
 10
78.7873977445264
 20
38.72263574063049
 30
0.0
 41
1.0
 10
78.97908870372964
 20
38.68878384148388
 30
0.0
 41
1.0
 10
79.25302979959531
 20
38.41489372810042
 30
0.0
 41
1.0
 10
79.45889737277309
 20
38.01452481182218
 30
0.0
 41
1.0
 10
79.56006044515186
 20
37.59805704284713
 30
0.0
 41
1.0
 10
79.56947497576482
 20
37.33506990109868
 30
0.0
 41
1.0
 10
79.57289458012053
 20
37.23954607602695
 30
0.0
 41
1.0
  0
LINE
  5
E00ED68D
330
E00DEA5D
100
AcDbEntity
  8
JISSEN
100
AcDbLine
 10
73.42256396629398
 20
42.9925497671063
 30
0.0
 11
73.41059709829403
 21
42.9925497671063
 31
0.0
  0
ARC
  5
E00ED68E
330
E00DEA5D
100
AcDbEntity
  8
JISSEN
100
AcDbCircle
 10
73.41059709829266
 20
44.49254976710813
 30
0.0
 40
1.5
100
AcDbArc
 50
261.9999999999498
 51
270.0
  0
ARC
  5
E00ED68F
330
E00DEA5D
100
AcDbEntity
  8
JISSEN
100
AcDbCircle
 10
77.65570688048035
 20
42.63970648800182
 30
0.0
 40
0.1999999999999957
100
AcDbArc
 50
179.9999999995831
 51
269.9999999996091
  0
LINE
  5
E00ED690
330
E00DEA5D
100
AcDbEntity
  8
JISSEN
100
AcDbLine
 10
77.45570688048326
 20
42.9925497671063
 30
0.0
 11
77.45570688048053
 21
42.63970648800364
 31
0.0
  0
LINE
  5
E00ED691
330
E00DEA5D
100
AcDbEntity
  8
JISSEN
370
    -2
100
AcDbLine
 10
95.60570676569694
 20
42.43970648792287
 30
0.0
 11
95.60570676569694
 21
40.23954656770706
 31
0.0
  0
LINE
  5
E00ED692
330
E00DEA5D
100
AcDbEntity
  8
JISSEN
370
    -2
100
AcDbLine
 10
84.50570699518255
 20
42.43970648795925
 30
0.0
 11
84.50570699516754
 21
40.23954656774344
 31
0.0
  0
LINE
  5
E00ED693
330
E00DEA5D
100
AcDbEntity
  8
JISSEN
370
    -2
100
AcDbLine
 10
83.24244149725689
 20
38.73954539055353
 30
0.0
 11
90.0557068804577
 21
38.73954539050805
 31
0.0
  0
LINE
  5
E00ED694
330
E00DEA5D
100
AcDbEntity
  8
JISSEN
370
    -2
100
AcDbLine
 10
83.24244149723687
 20
35.73954676145308
 30
0.0
 11
90.0557068804377
 21
35.73954676140761
 31
0.0
  0
LINE
  5
E00ED695
330
E00DEA5D
100
AcDbEntity
  8
JISSEN
100
AcDbLine
 10
90.05570688044315
 20
36.53970644355263
 30
0.0
 11
84.13854959291109
 21
36.53970644359083
 31
0.0
  0
LINE
  5
E00ED696
330
E00DEA5D
100
AcDbEntity
  8
JISSEN
100
AcDbLine
 10
87.55570693632206
 20
32.53970791422193
 30
0.0
 11
90.05570688042269
 21
32.53970791420556
 31
0.0
  0
LINE
  5
E00ED697
330
E00DEA5D
100
AcDbEntity
  8
JISSEN
100
AcDbLine
 10
86.53070342388298
 20
32.5397083130681
 30
0.0
 11
87.55570693632206
 21
32.53970791422193
 31
0.0
  0
ARC
  5
E00ED698
330
E00DEA5D
100
AcDbEntity
  8
JISSEN
370
    -2
100
AcDbCircle
 10
85.65570688043761
 20
35.8395461938378
 30
0.0
 40
0.7000000000000242
100
AcDbArc
 50
89.99999999960918
 51
179.9999999995831
  0
ARC
  5
E00ED699
330
E00DEA5D
100
AcDbEntity
  8
JISSEN
370
    -2
100
AcDbCircle
 10
83.73275831024683
 20
37.12601525454897
 30
0.0
 40
1.387632780893617
100
AcDbArc
 50
175.3070321912916
 51
267.6527416120474
  0
LINE
  5
E00ED69A
330
E00DEA5D
100
AcDbEntity
  8
JISSEN
370
    -2
100
AcDbLine
 10
84.95570669643791
 20
35.83954472894197
 30
0.0
 11
84.95570669643745
 21
35.73954676144217
 31
0.0
  0
ARC
  5
E00ED69B
330
E00DEA5D
100
AcDbEntity
  8
JISSEN
100
AcDbCircle
 10
84.1385495929129
 20
36.8397064435901
 30
0.0
 40
0.3
100
AcDbArc
 50
224.9999999998846
 51
269.9999999996352
  0
ARC
  5
E00ED69C
330
E00DEA5D
100
AcDbEntity
  8
JISSEN
370
    -2
100
AcDbCircle
 10
83.76588851954773
 20
37.32378649104953
 30
0.0
 40
1.418614261419669
100
AcDbArc
 50
93.63587483011
 51
183.4043513649434
  0
LINE
  5
E00ED69D
330
E00DEA5D
100
AcDbEntity
  8
JISSEN
370
    -2
100
AcDbLine
 10
86.00570677535722
 20
38.73954539053534
 30
0.0
 11
86.00570677534767
 21
37.33970644357919
 31
0.0
  0
LINE
  5
E00ED69E
330
E00DEA5D
100
AcDbEntity
  8
JISSEN
100
AcDbLine
 10
93.58071033693011
 20
32.53970831304445
 30
0.0
 11
92.55570682449103
 21
32.53970791420556
 31
0.0
  0
LINE
  5
E00ED69F
330
E00DEA5D
100
AcDbEntity
  8
JISSEN
100
AcDbLine
 10
92.55570682449103
 20
32.53970791420556
 30
0.0
 11
90.05570688039041
 21
32.53970791420556
 31
0.0
  0
LINE
  5
E00ED6A0
330
E00DEA5D
100
AcDbEntity
  8
JISSEN
100
AcDbLine
 10
90.05570688039677
 20
36.53970644355263
 30
0.0
 11
95.97286416792883
 21
36.53970644355263
 31
0.0
  0
LINE
  5
E00ED6A1
330
E00DEA5D
100
AcDbEntity
  8
JISSEN
370
    -2
100
AcDbLine
 10
95.15570706439701
 20
35.83954472890741
 30
0.0
 11
95.15570706439701
 21
35.73954676140761
 31
0.0
  0
ARC
  5
E00ED6A2
330
E00DEA5D
100
AcDbEntity
  8
JISSEN
370
    -2
100
AcDbCircle
 10
94.45570688039731
 20
35.8395461938087
 30
0.0
 40
0.7000000000000242
100
AcDbArc
 50
0.0
 51
90.0
  0
LINE
  5
E00ED6A3
330
E00DEA5D
100
AcDbEntity
  8
JISSEN
370
    -2
100
AcDbLine
 10
94.10570698549724
 20
38.73954539050805
 30
0.0
 11
94.10570698549724
 21
37.3397064435519
 31
0.0
  0
LINE
  5
E00ED6A4
330
E00DEA5D
100
AcDbEntity
  8
JISSEN
100
AcDbLine
 10
106.9095763138969
 20
43.00714766390751
 30
0.0
 11
121.095613360197
 21
45.00086515150701
 31
0.0
  0
LINE
  5
E00ED6A5
330
E00DEA5D
100
AcDbEntity
  8
JISSEN
370
    -2
100
AcDbLine
 10
103.3057067238972
 20
35.73954676140761
 30
0.0
 11
101.419769197097
 21
35.73954676140761
 31
0.0
  0
LINE
  5
E00ED6A6
330
E00DEA5D
100
AcDbEntity
  8
JISSEN
370
    -2
100
AcDbLine
 10
103.3057067238972
 20
38.73954539050805
 30
0.0
 11
101.419769197097
 21
38.73954539050805
 31
0.0
  0
ARC
  5
E00ED6A7
330
E00DEA5D
100
AcDbEntity
  8
JISSEN
370
    -2
100
AcDbCircle
 10
101.3057068803976
 20
35.23954619380651
 30
0.0
 40
2.000000000000056
100
AcDbArc
 50
270.0
 51
0.0
  0
ARC
  5
E00ED6A8
330
E00DEA5D
100
AcDbEntity
  8
JISSEN
370
    -2
100
AcDbCircle
 10
96.75413141549723
 20
37.14360139960604
 30
0.0
 40
1.408743357584393
100
AcDbArc
 50
274.6759443907204
 51
3.905242003595682
  0
ARC
  5
E00ED6A9
330
E00DEA5D
100
AcDbEntity
  8
JISSEN
370
    -2
100
AcDbCircle
 10
96.37865545059719
 20
37.12601525450713
 30
0.0
 40
1.387632780893617
100
AcDbArc
 50
272.3472583875874
 51
4.692967808289825
  0
ARC
  5
E00ED6AA
330
E00DEA5D
100
AcDbEntity
  8
JISSEN
370
    -2
100
AcDbCircle
 10
96.79193348919705
 20
37.36801646470826
 30
0.0
 40
1.373690855685324
100
AcDbArc
 50
354.6337390540033
 51
86.78507455160408
  0
ARC
  5
E00ED6AB
330
E00DEA5D
100
AcDbEntity
  8
JISSEN
370
    -2
100
AcDbCircle
 10
96.3455252412972
 20
37.32378649100769
 30
0.0
 40
1.418614261419669
100
AcDbArc
 50
356.5956486346391
 51
86.36412516949837
  0
SPLINE
  5
E00ED6AC
330
E00DEA5D
100
AcDbEntity
  8
JISSEN
370
    -2
100
AcDbSpline
210
0.0
220
0.0
230
1.0
 70
    12
 71
     3
 72
    12
 73
     8
 74
     0
 42
0.0000000001
 43
0.0000000001
 40
0.0
 40
0.0
 40
0.0
 40
0.0
 40
0.205840282809383
 40
0.4116490113380446
 40
0.6184457918287852
 40
0.8292559119854885
 40
1.0
 40
1.0
 40
1.0
 40
1.0
 10
100.5385191807239
 20
37.23954607595601
 30
0.0
 41
1.0
 10
100.5485356535767
 20
37.07411961066986
 30
0.0
 41
1.0
 10
100.5685670638061
 20
36.74329203913453
 30
0.0
 41
1.0
 10
100.722295005757
 20
36.3019031866986
 30
0.0
 41
1.0
 10
100.9416648192613
 20
35.96521265884234
 30
0.0
 41
1.0
 10
101.1885754795342
 20
35.77064385872086
 30
0.0
 41
1.0
 10
101.3482952115249
 20
35.74916048927639
 30
0.0
 41
1.0
 10
101.4197691971152
 20
35.73954676140942
 30
0.0
 41
1.0
  0
SPLINE
  5
E00ED6AD
330
E00DEA5D
100
AcDbEntity
  8
JISSEN
370
    -2
100
AcDbSpline
210
0.0
220
0.0
230
1.0
 70
    12
 71
     3
 72
    12
 73
     8
 74
     0
 42
0.0000000001
 43
0.0000000001
 40
0.0
 40
0.0
 40
0.0
 40
0.0
 40
0.2270414180693609
 40
0.4545205376007232
 40
0.6714649260062801
 40
0.8806674473517201
 40
1.0
 40
1.0
 40
1.0
 40
1.0
 10
101.4197691971152
 20
38.73954539050259
 30
0.0
 41
1.0
 10
101.324016016328
 20
38.72263574055409
 30
0.0
 41
1.0
 10
101.1323250571243
 20
38.6887838414093
 30
0.0
 41
1.0
 10
100.8583839612569
 20
38.41489372802766
 30
0.0
 41
1.0
 10
100.6525163880763
 20
38.01452481174942
 30
0.0
 41
1.0
 10
100.5513533156948
 20
37.59805704277619
 30
0.0
 41
1.0
 10
100.5419387850801
 20
37.33506990102773
 30
0.0
 41
1.0
 10
100.5385191807239
 20
37.23954607595601
 30
0.0
 41
1.0
  0
LINE
  5
E00ED6AE
330
E00DEA5D
100
AcDbEntity
  8
JISSEN
370
    -2
100
AcDbLine
 10
103.3057067238972
 20
35.73954676140761
 30
0.0
 11
103.3057067238972
 21
35.23954574810682
 31
0.0
  0
LINE
  5
E00ED6AF
330
E00DEA5D
100
AcDbEntity
  8
JISSEN
370
    -2
100
AcDbLine
 10
103.3057067238972
 20
40.23954656770706
 30
0.0
 11
103.3057067238972
 21
38.73954539050805
 31
0.0
  0
ARC
  5
E00ED6B0
330
E00DEA5D
100
AcDbEntity
  8
JISSEN
100
AcDbCircle
 10
102.4557068804
 20
42.63970648791996
 30
0.0
 40
0.1999999999999957
100
AcDbArc
 50
270.0
 51
0.0
  0
LINE
  5
E00ED6B1
330
E00DEA5D
100
AcDbEntity
  8
JISSEN
100
AcDbLine
 10
102.6557068803998
 20
42.99254976710813
 30
0.0
 11
102.6557068803998
 21
42.63970648791996
 31
0.0
  0
ARC
  5
E00ED6B2
330
E00DEA5D
100
AcDbEntity
  8
JISSEN
100
AcDbCircle
 10
106.7008166624985
 20
44.49254976710813
 30
0.0
 40
1.5
100
AcDbArc
 50
270.0
 51
278.0000000000501
  0
LINE
  5
E00ED6B3
330
E00DEA5D
100
AcDbEntity
  8
JISSEN
100
AcDbLine
 10
106.6888497944977
 20
42.99254976710813
 30
0.0
 11
106.7008166624976
 21
42.99254976710813
 31
0.0
  0
ARC
  5
E00ED6B4
330
E00DEA5D
100
AcDbEntity
  8
JISSEN
100
AcDbCircle
 10
120.8172671582982
 20
46.98140128900718
 30
0.0
 40
1.999999999999996
100
AcDbArc
 50
278.0000000000501
 51
330.3681085059147
  0
CIRCLE
  5
E00ED6B5
330
E00DEA5D
100
AcDbEntity
  8
JISSEN
100
AcDbCircle
 10
90.05570688039677
 20
99.09047482671576
 30
0.0
 40
14.65000000000134
  0
ARC
  5
E00ED6B6
330
E00DEA5D
100
AcDbEntity
  8
JISSEN
100
AcDbCircle
 10
90.05570688039677
 20
99.09047482671576
 30
0.0
 40
15.0
100
AcDbArc
 50
180.0
 51
0.0
  0
CIRCLE
  5
E00ED6B7
330
E00DEA5D
100
AcDbEntity
  8
JISSEN
370
    -2
100
AcDbCircle
 10
90.05570688039677
 20
99.09047482671576
 30
0.0
 40
5.300000000000039
  0
CIRCLE
  5
E00ED6B8
330
E00DEA5D
100
AcDbEntity
  8
JISSEN
 48
0.2
370
    -2
100
AcDbCircle
 10
90.05570688039677
 20
99.09047482671576
 30
0.0
 40
13.25000000000011
  0
CIRCLE
  5
E00ED6B9
330
E00DEA5D
100
AcDbEntity
  8
JISSEN
100
AcDbCircle
 39
240.0520776831561
 10
90.05570688039677
 20
99.09047482671576
 30
0.0
 40
2.149999999999999
  0
ARC
  5
E00ED6BA
330
E00DEA5D
100
AcDbEntity
  8
JISSEN
100
AcDbCircle
 10
90.05570688039677
 20
99.09047482671576
 30
0.0
 40
15.0
100
AcDbArc
 50
0.0
 51
180.0
  0
CIRCLE
  5
E00ED6BB
330
E00DEA5D
100
AcDbEntity
  8
JISSEN
370
    -2
100
AcDbCircle
 10
90.05570688039677
 20
99.09047482671576
 30
0.0
 40
4.55000000000005
  0
CIRCLE
  5
E00ED6BC
330
E00DEA5D
100
AcDbEntity
  8
JISSEN
370
    -2
100
AcDbCircle
 10
90.05570688039677
 20
99.09047482671576
 30
0.0
 40
4.600000000000036
  0
CIRCLE
  5
E00ED6BD
330
E00DEA5D
100
AcDbEntity
  8
JISSEN
370
    -2
100
AcDbCircle
 10
90.05570688039677
 20
99.09047482671576
 30
0.0
 40
3.550000000000018
  0
CIRCLE
  5
E00ED6BE
330
E00DEA5D
100
AcDbEntity
  8
SAISEN
370
    -2
100
AcDbCircle
 10
90.05570688039677
 20
99.09047482671576
 30
0.0
 40
1.500000000000001
  0
CIRCLE
  5
E00ED6BF
330
E00DEA5D
100
AcDbEntity
  8
JISSEN
370
    -2
100
AcDbCircle
 10
90.05570688039677
 20
99.09047482671576
 30
0.0
 40
1.200000000000015
  0
LINE
  5
E00ED6C0
330
E00DEA5D
100
AcDbEntity
  8
JISSEN
100
AcDbLine
 39
1680.364539346804
 10
75.40570688039713
 20
159.289673259039
 30
0.0
 11
75.40570688039713
 21
159.8040326129023
 31
0.0
  0
LINE
  5
E00ED6C1
330
E00DEA5D
100
AcDbEntity
  8
JISSEN
100
AcDbLine
 39
1680.364539346804
 10
75.70570688039641
 20
158.1700580167682
 30
0.0
 11
75.40570688039713
 21
159.289673259039
 31
0.0
  0
LINE
  5
E00ED6C2
330
E00DEA5D
100
AcDbEntity
  8
JISSEN
100
AcDbLine
 39
1680.364539346804
 10
75.70570688039641
 20
158.1700580167682
 30
0.0
 11
75.40570688039713
 21
159.289673259039
 31
0.0
  0
LINE
  5
E00ED6C3
330
E00DEA5D
100
AcDbEntity
  8
JISSEN
100
AcDbLine
 39
1680.364539346804
 10
75.10570688035238
 20
170.6700580167209
 30
0.0
 11
75.10570688035056
 21
170.113361945115
 31
0.0
  0
LINE
  5
E00ED6C4
330
E00DEA5D
100
AcDbEntity
  8
JISSEN
100
AcDbLine
 39
1680.364539346804
 10
75.10570688039513
 20
167.6700580166445
 30
0.0
 11
75.10570688039604
 21
167.1133619450386
 31
0.0
  0
LINE
  5
E00ED6C5
330
E00DEA5D
100
AcDbEntity
  8
JISSEN
100
AcDbLine
 39
1680.364539346804
 10
75.10570688039604
 20
164.6700580166445
 30
0.0
 11
75.10570688039604
 21
164.1133619450386
 31
0.0
  0
LINE
  5
E00ED6C6
330
E00DEA5D
100
AcDbEntity
  8
JISSEN
100
AcDbLine
 39
1680.364539346804
 10
75.10570688039513
 20
170.6700580166445
 30
0.0
 11
75.10570688039604
 21
170.1133619450386
 31
0.0
  0
LINE
  5
E00ED6C7
330
E00DEA5D
100
AcDbEntity
  8
SAISEN
100
AcDbLine
 39
1680.364539346804
 10
75.90570688039623
 20
176.17290161807
 30
0.0
 11
75.40570688039622
 21
175.306876214295
 31
0.0
  0
LINE
  5
E00ED6C8
330
E00DEA5D
100
AcDbEntity
  8
JISSEN
100
AcDbLine
 39
1680.364539346804
 10
105.0057068804411
 20
170.6700580167209
 30
0.0
 11
105.0057068804429
 21
170.113361945115
 31
0.0
  0
LINE
  5
E00ED6C9
330
E00DEA5D
100
AcDbEntity
  8
JISSEN
100
AcDbLine
 39
1680.364539346804
 10
104.4057068803971
 20
158.1700580167682
 30
0.0
 11
104.7057068803963
 21
159.289673259039
 31
0.0
  0
LINE
  5
E00ED6CA
330
E00DEA5D
100
AcDbEntity
  8
JISSEN
100
AcDbLine
 39
1680.364539346804
 10
104.4057068803971
 20
158.1700580167682
 30
0.0
 11
104.7057068803963
 21
159.289673259039
 31
0.0
  0
LINE
  5
E00ED6CB
330
E00DEA5D
100
AcDbEntity
  8
JISSEN
100
AcDbLine
 39
1680.364539346804
 10
104.7057068803963
 20
159.289673259039
 30
0.0
 11
104.7057068803963
 21
159.8040326129023
 31
0.0
  0
LINE
  5
E00ED6CC
330
E00DEA5D
100
AcDbEntity
  8
SAISEN
100
AcDbLine
 39
1680.364539346804
 10
104.2057068803973
 20
176.17290161807
 30
0.0
 11
104.7057068803973
 21
175.306876214295
 31
0.0
  0
LINE
  5
E00ED6CD
330
E00DEA5D
100
AcDbEntity
  8
JISSEN
100
AcDbLine
 39
1680.364539346804
 10
105.0057068803984
 20
170.6700580166445
 30
0.0
 11
105.0057068803974
 21
170.1133619450386
 31
0.0
  0
LINE
  5
E00ED6CE
330
E00DEA5D
100
AcDbEntity
  8
JISSEN
100
AcDbLine
 39
1680.364539346804
 10
105.0057068803974
 20
164.6700580166445
 30
0.0
 11
105.0057068803974
 21
164.1133619450386
 31
0.0
  0
LINE
  5
E00ED6CF
330
E00DEA5D
100
AcDbEntity
  8
JISSEN
100
AcDbLine
 39
1680.364539346804
 10
105.0057068803984
 20
167.6700580166445
 30
0.0
 11
105.0057068803974
 21
167.1133619450386
 31
0.0
  0
LINE
  5
E00ED6D0
330
E00DEA5D
100
AcDbEntity
  8
JISSEN
100
AcDbLine
 39
1680.364539346804
 10
75.40201945378385
 20
161.7000896963973
 30
0.0
 11
104.7057068803945
 21
164.6700580166609
 31
0.0
  0
LINE
  5
E00ED6D1
330
E00DEA5D
100
AcDbEntity
  8
JISSEN
100
AcDbLine
 39
1680.364539346804
 10
80.65411106058054
 20
161.6700580166446
 30
0.0
 11
105.0057068803956
 21
164.1133619450513
 31
0.0
  0
LINE
  5
E00ED6D2
330
E00DEA5D
100
AcDbEntity
  8
JISSEN
100
AcDbLine
 39
1680.364539346804
 10
75.40205600112916
 20
164.6997920421559
 30
0.0
 11
105.0057068803956
 21
167.6700580166609
 31
0.0
  0
LINE
  5
E00ED6D3
330
E00DEA5D
100
AcDbEntity
  8
JISSEN
100
AcDbLine
 39
1680.364539346804
 10
75.1057068803961
 20
164.113361945053
 30
0.0
 11
105.0057068803956
 21
167.1133619450531
 31
0.0
  0
LINE
  5
E00ED6D4
330
E00DEA5D
100
AcDbEntity
  8
JISSEN
100
AcDbLine
 39
1680.364539346804
 10
75.40205600112904
 20
167.6997920421559
 30
0.0
 11
105.0057068803956
 21
170.6700580166609
 31
0.0
  0
LINE
  5
E00ED6D5
330
E00DEA5D
100
AcDbEntity
  8
JISSEN
100
AcDbLine
 39
1680.364539346804
 10
75.10570688039348
 20
167.1133619450599
 30
0.0
 11
105.0057068803956
 21
170.1133619450531
 31
0.0
  0
LINE
  5
E00ED6D6
330
E00DEA5D
100
AcDbEntity
  8
SAISEN
100
AcDbLine
 39
1680.364539346804
 10
80.55769776239902
 20
185.4729016311714
 30
0.0
 11
79.35790233498607
 21
184.2731062037594
 31
0.0
  0
LINE
  5
E00ED6D7
330
E00DEA5D
100
AcDbEntity
  8
JISSEN
100
AcDbLine
 39
1680.364539346804
 10
80.55769776239992
 20
185.4729016311714
 30
0.0
 11
79.36414438039026
 21
185.4729016311714
 31
0.0
  0
LINE
  5
E00ED6D8
330
E00DEA5D
100
AcDbEntity
  8
JISSEN
100
AcDbLine
 39
1680.364539346804
 10
90.05570688039677
 20
185.4729016311896
 30
0.0
 11
79.36414438039026
 21
185.4729016311714
 31
0.0
  0
LINE
  5
E00ED6D9
330
E00DEA5D
100
AcDbEntity
  8
SAISEN
100
AcDbLine
 39
1680.364539346804
 10
80.55769776239902
 20
185.472901631175
 30
0.0
 11
79.35790233498517
 21
184.273106203763
 31
0.0
  0
ARC
  5
E00ED6DC
330
E00DEA5D
100
AcDbEntity
  8
JISSEN
100
AcDbCircle
 39
1680.364539346804
 10
102.2057068803973
 20
184.1729016311685
 30
0.0
 40
0.9999999999997548
100
AcDbArc
 50
210.0000000000009
 51
270.0
  0
LINE
  5
E00ED6DD
330
E00DEA5D
100
AcDbEntity
  8
SAISEN
100
AcDbLine
 39
1680.364539346804
 10
99.55371599839452
 20
185.472901631175
 30
0.0
 11
100.7535114258083
 21
184.273106203763
 31
0.0
  0
LINE
  5
E00ED6DE
330
E00DEA5D
100
AcDbEntity
  8
JISSEN
100
AcDbLine
 39
1680.364539346804
 10
90.05570688039677
 20
185.4729016311896
 30
0.0
 11
100.7472693804032
 21
185.4729016311714
 31
0.0
  0
LINE
  5
E00ED6DF
330
E00DEA5D
100
AcDbEntity
  8
JISSEN
100
AcDbLine
 39
1680.364539346804
 10
99.55371599839361
 20
185.4729016311714
 30
0.0
 11
100.7472693804032
 21
185.4729016311714
 31
0.0
  0
LINE
  5
E00ED6E0
330
E00DEA5D
100
AcDbEntity
  8
SAISEN
100
AcDbLine
 39
1680.364539346804
 10
99.55371599839452
 20
185.4729016311714
 30
0.0
 11
100.7535114258074
 21
184.2731062037594
 31
0.0
  0
LINE
  5
E00ED6E4
330
E00DEA5D
100
AcDbEntity
  8
JISSEN
100
AcDbLine
 39
1680.364539346804
 10
94.28054744419512
 20
148.1698969490673
 30
0.0
 11
93.58070993809121
 21
147.4700594429662
 31
0.0
  0
LINE
  5
E00ED6E5
330
E00DEA5D
100
AcDbEntity
  8
JISSEN
 48
0.05
100
AcDbLine
 39
1680.364539346804
 10
102.0557068803976
 20
152.2700579723198
 30
0.0
 11
102.0557068803976
 21
152.1700579723176
 31
0.0
  0
LINE
  5
E00ED6E6
330
E00DEA5D
100
AcDbEntity
  8
JISSEN
100
AcDbLine
 39
1680.364539346804
 10
90.05570688039767
 20
152.2700579723089
 30
0.0
 11
97.76405017157356
 21
152.2700579723161
 31
0.0
  0
LINE
  5
E00ED6E7
330
E00DEA5D
100
AcDbEntity
  8
JISSEN
100
AcDbLine
 39
1680.364539346804
 10
96.8799709491126
 20
152.1700579723176
 30
0.0
 11
97.76164563459895
 21
152.1700579723139
 31
0.0
  0
LINE
  5
E00ED6E8
330
E00DEA5D
100
AcDbEntity
  8
JISSEN
 48
0.05
100
AcDbLine
 39
1680.364539346804
 10
96.73854959287508
 20
152.1114793285407
 30
0.0
 11
96.18499620228465
 21
151.5579259379549
 31
0.0
  0
ARC
  5
E00ED6E9
330
E00DEA5D
100
AcDbEntity
  8
JISSEN
100
AcDbCircle
 39
1680.364539346804
 10
96.8799709491126
 20
151.970057972306
 30
0.0
 40
0.2
100
AcDbArc
 50
90.0
 51
134.9999999999864
  0
LINE
  5
E00ED6EA
330
E00DEA5D
100
AcDbEntity
  8
JISSEN
100
AcDbLine
 39
1680.364539346804
 10
100.5385249216345
 20
152.1700579723176
 30
0.0
 11
102.0557068803976
 21
152.1700579723176
 31
0.0
  0
LINE
  5
E00ED6EB
330
E00DEA5D
100
AcDbEntity
  8
JISSEN
100
AcDbLine
 39
1680.364539346804
 10
100.5423980031122
 20
152.2700579723161
 30
0.0
 11
102.0557068803976
 21
152.2700579723161
 31
0.0
  0
ARC
  5
E00ED6F0
330
E00DEA5D
100
AcDbEntity
  8
JISSEN
100
AcDbCircle
 39
1680.364539346804
 10
77.90570688039622
 20
184.1729016311685
 30
0.0
 40
0.9999999999997548
100
AcDbArc
 50
270.0
 51
329.999999999999
  0
LINE
  5
E00ED6F2
330
E00DEA5D
100
AcDbEntity
  8
JISSEN
100
AcDbLine
 39
1680.364539346804
 10
85.83086631662252
 20
148.1698969490964
 30
0.0
 11
86.53070382272188
 21
147.4700594429898
 31
0.0
  0
LINE
  5
E00ED6F3
330
E00DEA5D
100
AcDbEntity
  8
JISSEN
 48
0.05
100
AcDbLine
 39
1680.364539346804
 10
78.05570688044724
 20
152.2700579723998
 30
0.0
 11
78.05570688044679
 21
152.1700579723976
 31
0.0
  0
LINE
  5
E00ED6F4
330
E00DEA5D
100
AcDbEntity
  8
JISSEN
100
AcDbLine
 39
1680.364539346804
 10
90.05570688044725
 20
152.2700579723089
 30
0.0
 11
82.34736358927136
 21
152.2700579723671
 31
0.0
  0
LINE
  5
E00ED6F5
330
E00DEA5D
100
AcDbEntity
  8
JISSEN
100
AcDbLine
 39
1680.364539346804
 10
83.23144281173188
 20
152.1700579723631
 30
0.0
 11
82.34976812624552
 21
152.1700579723649
 31
0.0
  0
LINE
  5
E00ED6F6
330
E00DEA5D
100
AcDbEntity
  8
JISSEN
 48
0.05
100
AcDbLine
 39
1680.364539346804
 10
83.37286416796894
 20
152.1114793285844
 30
0.0
 11
83.92641755855573
 21
151.5579259379949
 31
0.0
  0
ARC
  5
E00ED6F7
330
E00DEA5D
100
AcDbEntity
  8
JISSEN
100
AcDbCircle
 39
1680.364539346804
 10
83.23144281173052
 20
151.9700579723514
 30
0.0
 40
0.2
100
AcDbArc
 50
44.99999999958983
 51
89.99999999960918
  0
LINE
  5
E00ED6F8
330
E00DEA5D
100
AcDbEntity
  8
JISSEN
100
AcDbLine
 39
1680.364539346804
 10
79.57288883920989
 20
152.1700579723867
 30
0.0
 11
78.05570688044679
 21
152.1700579723976
 31
0.0
  0
LINE
  5
E00ED6F9
330
E00DEA5D
100
AcDbEntity
  8
JISSEN
100
AcDbLine
 39
1680.364539346804
 10
79.5690157577327
 20
152.2700579723871
 30
0.0
 11
78.05570688044724
 21
152.2700579723962
 31
0.0
  0
LINE
  5
E00ED6FA
330
E00DEA5D
100
AcDbEntity
  8
JISSEN
100
AcDbLine
 10
73.54161060639615
 20
160.9229012958687
 30
0.0
 11
62.73754251479601
 21
160.9229012958687
 31
0.0
  0
LINE
  5
E00ED6FB
330
E00DEA5D
100
AcDbEntity
  8
JISSEN
100
AcDbLine
 10
73.24545297279598
 20
157.9313694302666
 30
0.0
 11
57.98612032999642
 21
160.0759287769699
 31
0.0
  0
LINE
  5
E00ED6FC
330
E00DEA5D
100
AcDbEntity
  8
JISSEN
100
AcDbLine
 10
62.73754251479601
 20
160.9229012958687
 30
0.0
 11
71.84694722899746
 21
159.6426579536684
 31
0.0
  0
HATCH
  5
E00ED6FD
330
E00DEA5D
100
AcDbEntity
  8
HATCH
100
AcDbHatch
 10
0.0
 20
0.0
 30
0.0
210
0.0
220
0.0
230
1.0
  2
ANSI31
 70
     0
 71
     0
 91
        1
 92
        7
 72
     1
 73
     1
 93
       14
 10
75.05570688039677
 20
171.9229012958685
 42
0.0
 10
74.55570688039654
 20
172.4229012958685
 42
0.0
 10
73.55570688039683
 20
172.4229012958689
 42
0.0
 10
73.55570688039676
 20
161.128060056767
 42
-0.4557262555289391
 10
71.84694722895546
 20
159.6426579536744
 42
0.0
 10
62.73754251479477
 20
160.9229012958687
 42
0.0
 10
57.55570688039671
 20
160.9229012958687
 42
0.0
 10
57.55570688039677
 20
160.5710628112694
 42
0.3738846794428605
 10
57.98612032992548
 20
160.0759287769799
 42
0.0
 10
73.24545297273556
 20
157.931369430275
 42
0.0122983169365944
 10
73.31874412890266
 20
157.9229012958687
 42
0.3888787318578421
 10
74.81303617600952
 20
159.2921676818084
 42
0.0
 10
74.95570688039641
 20
160.9229012958685
 42
0.0
 10
75.05570688039677
 20
160.9229012958689
 42
0.0
 97
        0
 75
     0
 76
     1
 52
90.0
 41
5.0
 77
     0
 78
     1
 53
135.0
 43
-405.8672522744049
 44
-0.000000457838496
 45
-0.4419417382415923
 46
-0.4419417382415922
 79
     0
 47
0.0183417260654637
 98
        1
 10
74.45111596438858
 20
165.9796934994178
  0
HATCH
  5
E00ED6FE
330
E00DEA5D
100
AcDbEntity
  8
SUNPOU
100
AcDbHatch
 10
0.0
 20
0.0
 30
0.0
210
0.0
220
0.0
230
1.0
  2
ANSI31
 70
     0
 71
     0
 91
        2
 92
        5
 93
        5
 72
     1
 10
57.55570688032083
 20
160.9229012958687
 11
65.05570688039677
 21
160.9229012958687
 72
     1
 10
65.05570688039677
 20
160.9229012958669
 11
65.05570688039677
 21
170.9229012958687
 72
     1
 10
65.05570688039677
 20
170.9229012958687
 11
33.00383877576882
 21
170.9229012958651
 72
     4
 94
        3
 73
     0
 74
     0
 95
       11
 96
        7
 40
0.0
 40
0.0
 40
0.0
 40
0.0
 40
3.264692203133994
 40
6.15697472568029
 40
8.955271668736928
 40
10.85738683396026
 40
10.85738683396026
 40
10.85738683396026
 40
10.85738683396026
 10
33.00383877576803
 20
170.9229012958687
 10
33.67893946405445
 20
169.9215023446624
 10
34.95213081455256
 20
168.03293593495
 10
32.68628609820814
 20
165.1815649018819
 10
34.88940326476483
 20
162.5552344041382
 10
33.54704907403072
 20
161.3931584309495
 10
33.00383877576803
 20
160.9229012958687
 72
     1
 10
33.00383877576757
 20
160.9229012958687
 11
57.55570688032105
 21
160.9229012958687
 97
        0
 92
        5
 93
        5
 72
     1
 10
115.0557068803967
 20
170.9229012958687
 11
115.0557068803967
 21
160.9229012958687
 72
     1
 10
115.0557068803967
 20
160.9229012958687
 11
122.5557068804727
 21
160.9229012958687
 72
     1
 10
122.5557068804727
 20
160.9229012958687
 11
147.1075749850259
 21
160.9229012958687
 72
     4
 94
        3
 73
     0
 74
     0
 95
       11
 96
        7
 40
0.0
 40
0.0
 40
0.0
 40
0.0
 40
1.902115165223333
 40
4.700412108279971
 40
7.592694630826267
 40
10.85738683396026
 40
10.85738683396026
 40
10.85738683396026
 40
10.85738683396026
 10
147.1075749850255
 20
160.9229012958687
 10
146.5643646867628
 20
161.3931584309495
 10
145.2220104960287
 20
162.5552344041382
 10
147.4251276625853
 20
165.1815649018819
 10
145.1592829462409
 20
168.03293593495
 10
146.432474296739
 20
169.9215023446624
 10
147.1075749850255
 20
170.9229012958687
 72
     1
 10
147.1075749850241
 20
170.9229012958669
 11
115.0557068803968
 21
170.9229012958687
 97
        0
 75
     0
 76
     1
 52
0.0
 41
10.0
 77
     0
 78
     1
 53
45.0
 43
185.0253222105933
 44
-2497.575742424248
 45
-0.8838834764831842
 46
0.8838834764831844
 79
     0
 47
0.1102095095325799
 98
        2
 10
57.15975305362952
 20
164.6230477122765
 10
124.8575397303615
 20
167.3782844463159
  0
LINE
  5
E00ED6FF
330
E00DEA5D
100
AcDbEntity
  8
SUNPOU
100
AcDbLine
 10
73.55570688039676
 20
170.9229012958687
 30
0.0
 11
33.00383877576894
 21
170.9229012958669
 31
0.0
  0
LINE
  5
E00ED700
330
E00DEA5D
100
AcDbEntity
  8
SUNPOU
100
AcDbLine
 10
73.5416106063575
 20
160.9229012958687
 30
0.0
 11
33.00383877576757
 21
160.9229012958687
 31
0.0
  0
SPLINE
  5
E00ED701
330
E00DEA5D
100
AcDbEntity
  8
SUNPOU
100
AcDbSpline
210
0.0
220
0.0
230
1.0
 70
     8
 71
     3
 72
    11
 73
     7
 74
     5
 42
0.0000000001
 43
0.0000000001
 44
0.0000000001
 40
0.0
 40
0.0
 40
0.0
 40
0.0
 40
3.264692203133994
 40
6.15697472568029
 40
8.955271668736928
 40
10.85738683396026
 40
10.85738683396026
 40
10.85738683396026
 40
10.85738683396026
 10
33.00383877576803
 20
170.9229012958687
 30
0.0
 10
33.67893946405441
 20
169.9215023446635
 30
0.0
 10
34.95213081455244
 20
168.0329359349499
 30
0.0
 10
32.68628609820814
 20
165.1815649018806
 30
0.0
 10
34.88940326476479
 20
162.5552344041397
 30
0.0
 10
33.54704907403073
 20
161.3931584309507
 30
0.0
 10
33.00383877576803
 20
160.9229012958687
 30
0.0
 11
33.00383877576803
 21
170.9229012958687
 31
0.0
 11
34.23317915333189
 21
167.8985108750905
 31
0.0
 11
33.46099569936211
 21
165.1112127382486
 31
0.0
 11
34.19030223117022
 21
162.4096247303944
 31
0.0
 11
33.00383877576803
 21
160.9229012958687
 31
0.0
  0
LINE
  5
E00ED702
330
E00DEA5D
100
AcDbEntity
  8
SUNPOU
100
AcDbLine
 10
65.05570688039677
 20
170.9229012958687
 30
0.0
 11
65.05570688039677
 21
160.9229012958687
 31
0.0
  0
LINE
  5
E00ED703
330
E00DEA5D
100
AcDbEntity
  8
JISSEN
100
AcDbLine
 10
57.55570688039677
 20
160.9229012958687
 30
0.0
 11
62.73754251479601
 21
160.9229012958687
 31
0.0
  0
ARC
  5
E00ED704
330
E00DEA5D
100
AcDbEntity
  8
JISSEN
100
AcDbCircle
 10
58.05570688039586
 20
160.5710628112694
 30
0.0
 40
0.5000000000000084
100
AcDbArc
 50
180.0
 51
261.9999999999564
  0
LINE
  5
E00ED705
330
E00DEA5D
100
AcDbEntity
  8
JISSEN
100
AcDbLine
 10
57.55570688039677
 20
160.5710628112694
 30
0.0
 11
57.55570688039677
 21
160.9229012958687
 31
0.0
  0
LINE
  5
E00ED706
330
E00DEA5D
100
AcDbEntity
  8
NITEN
100
AcDbLine
 10
109.5557068803967
 20
212.7332294119544
 30
0.0
 11
109.5557068803972
 21
229.9729016311678
 31
0.0
  0
LINE
  5
E00ED707
330
E00DEA5D
100
AcDbEntity
  8
NITEN
100
AcDbLine
 10
70.55570688039677
 20
212.7332294119544
 30
0.0
 11
70.55570688039677
 21
229.9729016311678
 31
0.0
  0
LINE
  5
E00ED708
330
E00DEA5D
100
AcDbEntity
  8
SUNPOU
100
AcDbLine
 10
106.5557068803967
 20
170.9229012958687
 30
0.0
 11
147.1075749850245
 21
170.9229012958669
 31
0.0
  0
LINE
  5
E00ED709
330
E00DEA5D
100
AcDbEntity
  8
SUNPOU
100
AcDbLine
 10
106.569803154436
 20
160.9229012958687
 30
0.0
 11
147.1075749850259
 21
160.9229012958687
 31
0.0
  0
LINE
  5
E00ED714
330
E00DEA5D
100
AcDbEntity
  8
JISSEN
100
AcDbLine
 39
240.0520776831561
 10
75.40570688035074
 20
170.6700580167173
 30
0.0
 11
75.10570688035148
 21
170.6700580167209
 31
0.0
  0
LINE
  5
E00ED715
330
E00DEA5D
100
AcDbEntity
  8
JISSEN
100
AcDbLine
 39
240.0520776831561
 10
75.40570688035166
 20
170.6700580167173
 30
0.0
 11
75.10570688035238
 21
170.6700580167209
 31
0.0
  0
LINE
  5
E00ED716
330
E00DEA5D
100
AcDbEntity
  8
JISSEN
100
AcDbLine
 39
240.0520776831561
 10
77.6557068803935
 20
157.3700580166816
 30
0.0
 11
90.05570688039677
 21
157.3700580166798
 31
0.0
  0
LINE
  5
E00ED717
330
E00DEA5D
100
AcDbEntity
  8
JISSEN
100
AcDbLine
 39
240.0520776831561
 10
90.05570688039677
 20
161.6700580166446
 30
0.0
 11
75.40570688039349
 21
161.6700580166446
 31
0.0
  0
LINE
  5
E00ED718
330
E00DEA5D
100
AcDbEntity
  8
JISSEN
100
AcDbLine
 39
240.0520776831561
 10
90.05570688039677
 20
161.6700580166446
 30
0.0
 11
75.40570688039441
 21
161.6700580166446
 31
0.0
  0
LINE
  5
E00ED719
330
E00DEA5D
100
AcDbEntity
  8
JISSEN
100
AcDbLine
 39
240.0520776831561
 10
75.90570688039623
 20
176.1729016180736
 30
0.0
 11
90.05570688039677
 21
176.17290161807
 31
0.0
  0
LINE
  5
E00ED71A
330
E00DEA5D
100
AcDbEntity
  8
JISSEN
100
AcDbLine
 39
240.0520776831561
 10
75.40570688039713
 20
159.289673259039
 30
0.0
 11
90.05570688039677
 21
159.2896732590863
 31
0.0
  0
LINE
  5
E00ED71B
330
E00DEA5D
100
AcDbEntity
  8
JISSEN
100
AcDbLine
 39
240.0520776831561
 10
104.7057068804418
 20
170.6700580167173
 30
0.0
 11
105.0057068804411
 21
170.6700580167209
 31
0.0
  0
LINE
  5
E00ED71C
330
E00DEA5D
100
AcDbEntity
  8
JISSEN
100
AcDbLine
 39
240.0520776831561
 10
104.7057068804427
 20
170.6700580167173
 30
0.0
 11
105.005706880442
 21
170.6700580167209
 31
0.0
  0
LINE
  5
E00ED71D
330
E00DEA5D
100
AcDbEntity
  8
JISSEN
100
AcDbLine
 39
240.0520776831561
 10
104.7057068803963
 20
159.289673259039
 30
0.0
 11
90.05570688039677
 21
159.2896732590863
 31
0.0
  0
LINE
  5
E00ED71E
330
E00DEA5D
100
AcDbEntity
  8
JISSEN
100
AcDbLine
 39
240.0520776831561
 10
104.2057068803973
 20
176.1729016180736
 30
0.0
 11
90.05570688039677
 21
176.17290161807
 31
0.0
  0
LINE
  5
E00ED71F
330
E00DEA5D
100
AcDbEntity
  8
JISSEN
100
AcDbLine
 39
240.0520776831561
 10
90.05570688039677
 20
161.6700580166446
 30
0.0
 11
104.7057068803991
 21
161.6700580166446
 31
0.0
  0
LINE
  5
E00ED720
330
E00DEA5D
100
AcDbEntity
  8
JISSEN
100
AcDbLine
 39
240.0520776831561
 10
90.05570688039677
 20
161.6700580166446
 30
0.0
 11
104.7057068804
 21
161.6700580166446
 31
0.0
  0
LINE
  5
E00ED721
330
E00DEA5D
100
AcDbEntity
  8
JISSEN
100
AcDbLine
 39
240.0520776831561
 10
102.4557068804
 20
157.3700580166816
 30
0.0
 11
90.05570688039677
 21
157.3700580166798
 31
0.0
  0
SPLINE
  5
E00ED722
330
E00DEA5D
100
AcDbEntity
  8
JISSEN
370
    -2
100
AcDbSpline
210
0.0
220
0.0
230
1.0
 70
    12
 71
     3
 72
    14
 73
    10
 74
     0
 42
0.0000000001
 43
0.0000000001
 40
0.0
 40
0.0
 40
0.0
 40
0.0
 40
0.1088769686984931
 40
0.2172663573285982
 40
0.3685706574444105
 40
0.4825742753969225
 40
0.5996174274824865
 40
0.7976149977365948
 40
1.0
 40
1.0
 40
1.0
 40
1.0
 10
96.16441742267159
 20
173.1729428790542
 30
0.0
 41
1.0
 10
96.15172413225572
 20
173.0466618928305
 30
0.0
 41
1.0
 10
96.12639439536122
 20
172.7946654402814
 30
0.0
 41
1.0
 10
95.91909560740294
 20
172.424778954127
 30
0.0
 41
1.0
 10
95.61826676433554
 20
172.1427343034094
 30
0.0
 41
1.0
 10
95.25632372426604
 20
171.9430959102694
 30
0.0
 41
1.0
 10
94.81988879462404
 20
171.7884493519134
 30
0.0
 41
1.0
 10
94.26397350843069
 20
171.6883900717705
 30
0.0
 41
1.0
 10
93.82038628977568
 20
171.6781292590469
 30
0.0
 41
1.0
 10
93.59616224404124
 20
171.6729426331851
 30
0.0
 41
1.0
  0
SPLINE
  5
E00ED723
330
E00DEA5D
100
AcDbEntity
  8
JISSEN
370
    -2
100
AcDbSpline
210
0.0
220
0.0
230
1.0
 70
    12
 71
     3
 72
    14
 73
    10
 74
     0
 42
0.0000000001
 43
0.0000000001
 40
0.0
 40
0.0
 40
0.0
 40
0.0
 40
0.2170493941225676
 40
0.4388311995732112
 40
0.5988137766302898
 40
0.7597871991591737
 40
0.8750649674182215
 40
0.9755548291618868
 40
1.0
 40
1.0
 40
1.0
 40
1.0
 10
93.59616224404124
 20
174.6729431249234
 30
0.0
 41
1.0
 10
93.83652473372364
 20
174.666977573351
 30
0.0
 41
1.0
 10
94.32249042879664
 20
174.6549164009932
 30
0.0
 41
1.0
 10
94.96312201599209
 20
174.5257269105507
 30
0.0
 41
1.0
 10
95.50005681468372
 20
174.2898038530122
 30
0.0
 41
1.0
 10
95.87186439151844
 20
173.9837435443744
 30
0.0
 41
1.0
 10
96.09364726869479
 20
173.6188633077629
 30
0.0
 41
1.0
 10
96.16036662400109
 20
173.3452800503703
 30
0.0
 41
1.0
 10
96.16375453385934
 20
173.2011448194582
 30
0.0
 41
1.0
 10
96.16441742267159
 20
173.1729428790542
 30
0.0
 41
1.0
  0
LINE
  5
E00ED724
330
E00DEA5D
100
AcDbEntity
  8
JISSEN
370
    -2
100
AcDbLine
 10
96.17510155519847
 20
171.6729426331851
 30
0.0
 11
90.05570688039677
 21
171.6729426331851
 31
0.0
  0
LINE
  5
E00ED725
330
E00DEA5D
100
AcDbEntity
  8
JISSEN
370
    -2
100
AcDbLine
 10
96.17510155519847
 20
174.6729431248834
 30
0.0
 11
90.05570688039677
 21
174.6729431248834
 31
0.0
  0
LINE
  5
E00ED726
330
E00DEA5D
100
AcDbEntity
  8
JISSEN
100
AcDbLine
 10
105.0057068804411
 20
170.6700580167209
 30
0.0
 11
90.05570688039677
 21
170.6700580166427
 31
0.0
  0
LINE
  5
E00ED727
330
E00DEA5D
100
AcDbEntity
  8
JISSEN
100
AcDbLine
 10
105.005706880442
 20
170.6700580167209
 30
0.0
 11
90.05570688039677
 21
170.6700580166427
 31
0.0
  0
LINE
  5
E00ED728
330
E00DEA5D
100
AcDbEntity
  8
JISSEN
100
AcDbLine
 10
104.4057068803971
 20
158.1700580167682
 30
0.0
 11
90.05570688039677
 21
158.1700580167682
 31
0.0
  0
LINE
  5
E00ED729
330
E00DEA5D
100
AcDbEntity
  8
JISSEN
370
    -2
100
AcDbLine
 10
96.86897226359759
 20
153.6698969192686
 30
0.0
 11
90.05570688039677
 21
153.6698969192686
 31
0.0
  0
LINE
  5
E00ED72A
330
E00DEA5D
100
AcDbEntity
  8
JISSEN
370
    -2
100
AcDbLine
 10
96.86897226359759
 20
150.6698982901682
 30
0.0
 11
90.05570688039677
 21
150.6698982901682
 31
0.0
  0
LINE
  5
E00ED72B
330
E00DEA5D
100
AcDbEntity
  8
JISSEN
370
    -2
100
AcDbLine
 10
101.305707327397
 20
148.1698969490673
 30
0.0
 11
90.05570688039767
 21
148.1698969490673
 31
0.0
  0
LINE
  5
E00ED72C
330
E00DEA5D
100
AcDbEntity
  8
JISSEN
370
    -2
100
AcDbLine
 10
103.3057067238972
 20
155.1698980964677
 30
0.0
 11
90.05570688039767
 21
155.1698980964677
 31
0.0
  0
ARC
  5
E00ED72D
330
E00DEA5D
100
AcDbEntity
  8
JISSEN
100
AcDbCircle
 10
95.97286416792883
 20
151.7700579723125
 30
0.0
 40
0.3
100
AcDbArc
 50
269.9999999999739
 51
314.9999999996917
  0
LINE
  5
E00ED72F
330
E00DEA5D
100
AcDbEntity
  8
JISSEN
100
AcDbLine
 10
77.45570688039368
 20
157.9700580166802
 30
0.0
 11
77.45570688039368
 21
157.5700580166824
 31
0.0
  0
ARC
  5
E00ED730
330
E00DEA5D
100
AcDbEntity
  8
JISSEN
100
AcDbCircle
 10
73.31874412879585
 20
159.4229012958687
 30
0.0
 40
1.5
100
AcDbArc
 50
270.0
 51
354.9999999999217
  0
ARC
  5
E00ED731
330
E00DEA5D
100
AcDbEntity
  8
JISSEN
370
    -2
100
AcDbCircle
 10
83.35728234534679
 20
152.0739529284121
 30
0.0
 40
1.408743357584393
100
AcDbArc
 50
176.0947579959861
 51
265.3240556089233
  0
ARC
  5
E00ED732
330
E00DEA5D
100
AcDbEntity
  8
JISSEN
370
    -2
100
AcDbCircle
 10
83.31948027164832
 20
152.2983679935143
 30
0.0
 40
1.373690855685324
100
AcDbArc
 50
93.21492544802405
 51
185.3662609455778
  0
LINE
  5
E00ED733
330
E00DEA5D
100
AcDbEntity
  8
JISSEN
370
    -2
100
AcDbLine
 10
78.8057064334206
 20
148.1698969491437
 30
0.0
 11
90.05570688041997
 21
148.1698969490673
 31
0.0
  0
LINE
  5
E00ED734
330
E00DEA5D
100
AcDbEntity
  8
JISSEN
370
    -2
100
AcDbLine
 10
76.80570703696719
 20
155.1698980965568
 30
0.0
 11
90.05570688046679
 21
155.1698980964677
 31
0.0
  0
LINE
  5
E00ED735
330
E00DEA5D
100
AcDbEntity
  8
SUNPOU
100
AcDbLine
 10
68.35189748815071
 20
139.8478806461
 30
0.0
 11
77.39149331805027
 21
148.7556841602793
 31
0.0
  0
INSERT
  5
E00ED736
330
E00DEA5D
100
AcDbEntity
  8
SUNPOU
100
AcDbBlockReference
  2
ARROW
 10
77.37420656834172
 20
148.7418558828442
 30
0.0
 41
1.499999999999528
 42
1.5
 43
1.5
 50
44.6619397375731
  0
SPLINE
  5
E00ED737
330
E00DEA5D
100
AcDbEntity
  8
JISSEN
370
    -2
100
AcDbSpline
210
0.0
220
0.0
230
1.0
 70
    12
 71
     3
 72
    12
 73
     8
 74
     0
 42
0.0000000001
 43
0.0000000001
 40
0.0
 40
0.0
 40
0.0
 40
0.0
 40
0.2270414180693609
 40
0.4545205376007232
 40
0.6714649260062801
 40
0.8806674473517201
 40
1.0
 40
1.0
 40
1.0
 40
1.0
 10
78.69164456373926
 20
153.6698969193414
 30
0.0
 41
1.0
 10
78.7873977445264
 20
153.6529872693911
 30
0.0
 41
1.0
 10
78.97908870372964
 20
153.6191353702445
 30
0.0
 41
1.0
 10
79.25302979959531
 20
153.3452452568628
 30
0.0
 41
1.0
 10
79.45889737277309
 20
152.9448763405828
 30
0.0
 41
1.0
 10
79.56006044515186
 20
152.5284085716077
 30
0.0
 41
1.0
 10
79.56947497576482
 20
152.2654214298593
 30
0.0
 41
1.0
 10
79.57289458012053
 20
152.1698976047876
 30
0.0
 41
1.0
  0
LINE
  5
E00ED738
330
E00DEA5D
100
AcDbEntity
  8
JISSEN
370
    -2
100
AcDbLine
 10
76.80570703693717
 20
150.6698982902573
 30
0.0
 11
78.69164456373744
 21
150.6698982902446
 31
0.0
  0
ARC
  5
E00ED739
330
E00DEA5D
100
AcDbEntity
  8
JISSEN
370
    -2
100
AcDbCircle
 10
78.8057068804336
 20
150.1698977226435
 30
0.0
 40
2.000000000000056
100
AcDbArc
 50
179.9999999995831
 51
269.9999999996091
  0
LINE
  5
E00ED73A
330
E00DEA5D
100
AcDbEntity
  8
JISSEN
370
    -2
100
AcDbLine
 10
76.80570703693717
 20
150.6698982902573
 30
0.0
 11
76.80570703693399
 21
150.1698972769565
 31
0.0
  0
SPLINE
  5
E00ED73B
330
E00DEA5D
100
AcDbEntity
  8
JISSEN
370
    -2
100
AcDbSpline
210
0.0
220
0.0
230
1.0
 70
    12
 71
     3
 72
    12
 73
     8
 74
     0
 42
0.0000000001
 43
0.0000000001
 40
0.0
 40
0.0
 40
0.0
 40
0.0
 40
0.205840282809383
 40
0.4116490113380446
 40
0.6184457918287852
 40
0.8292559119854885
 40
1.0
 40
1.0
 40
1.0
 40
1.0
 10
79.57289458012053
 20
152.1698976047876
 30
0.0
 41
1.0
 10
79.56287810726633
 20
152.0044711395014
 30
0.0
 41
1.0
 10
79.54284669703509
 20
151.6736435679661
 30
0.0
 41
1.0
 10
79.38911875508108
 20
151.232254715532
 30
0.0
 41
1.0
 10
79.16974894157454
 20
150.8955641876775
 30
0.0
 41
1.0
 10
78.92283828130064
 20
150.7009953875579
 30
0.0
 41
1.0
 10
78.76311854930952
 20
150.6795120181134
 30
0.0
 41
1.0
 10
78.69164456371925
 20
150.6698982902482
 30
0.0
 41
1.0
  0
LINE
  5
E00ED73C
330
E00DEA5D
100
AcDbEntity
  8
JISSEN
370
    -2
100
AcDbLine
 10
76.80570703695718
 20
153.6698969193578
 30
0.0
 11
78.69164456375745
 21
153.669896919345
 31
0.0
  0
ARC
  5
E00ED73D
330
E00DEA5D
100
AcDbEntity
  8
JISSEN
100
AcDbCircle
 10
77.6557068803935
 20
157.5700580166824
 30
0.0
 40
0.1999999999999957
100
AcDbArc
 50
180.0
 51
270.0
  0
LINE
  5
E00ED73E
330
E00DEA5D
100
AcDbEntity
  8
JISSEN
370
    -2
100
AcDbLine
 10
76.80570703696719
 20
155.1698980965568
 30
0.0
 11
76.80570703695718
 21
153.6698969193578
 31
0.0
  0
LINE
  5
E00ED73F
330
E00DEA5D
100
AcDbEntity
  8
JISSEN
370
    -2
100
AcDbLine
 10
83.24244149725689
 20
153.6698969193141
 30
0.0
 11
90.0557068804577
 21
153.6698969192686
 31
0.0
  0
LINE
  5
E00ED740
330
E00DEA5D
100
AcDbEntity
  8
JISSEN
370
    -2
100
AcDbLine
 10
83.24244149723687
 20
150.6698982902137
 30
0.0
 11
90.0557068804377
 21
150.6698982901682
 31
0.0
  0
LINE
  5
E00ED741
330
E00DEA5D
100
AcDbEntity
  8
JISSEN
100
AcDbLine
 10
90.05570688044315
 20
151.4700579723132
 30
0.0
 11
84.13854959291109
 21
151.4700579723532
 31
0.0
  0
LINE
  5
E00ED742
330
E00DEA5D
100
AcDbEntity
  8
JISSEN
100
AcDbLine
 10
87.55570693632206
 20
147.4700594429825
 30
0.0
 11
90.05570688042269
 21
147.4700594429662
 31
0.0
  0
LINE
  5
E00ED743
330
E00DEA5D
100
AcDbEntity
  8
JISSEN
370
    -2
100
AcDbLine
 10
86.00570677535722
 20
153.6698969192959
 30
0.0
 11
86.00570677534767
 21
152.2700579723398
 31
0.0
  0
ARC
  5
E00ED744
330
E00DEA5D
100
AcDbEntity
  8
JISSEN
370
    -2
100
AcDbCircle
 10
83.76588851954773
 20
152.2541380198101
 30
0.0
 40
1.418614261419669
100
AcDbArc
 50
93.63587483011
 51
183.4043513649434
  0
ARC
  5
E00ED745
330
E00DEA5D
100
AcDbEntity
  8
JISSEN
370
    -2
100
AcDbCircle
 10
85.65570688043761
 20
150.7698977225984
 30
0.0
 40
0.7000000000000242
100
AcDbArc
 50
89.99999999960918
 51
179.9999999995831
  0
LINE
  5
E00ED746
330
E00DEA5D
100
AcDbEntity
  8
JISSEN
370
    -2
100
AcDbLine
 10
84.95570669643791
 20
150.7698962577026
 30
0.0
 11
84.95570669643745
 21
150.6698982902028
 31
0.0
  0
ARC
  5
E00ED747
330
E00DEA5D
100
AcDbEntity
  8
JISSEN
370
    -2
100
AcDbCircle
 10
83.73275831024683
 20
152.0563667833096
 30
0.0
 40
1.387632780893617
100
AcDbArc
 50
175.3070321912916
 51
267.6527416120474
  0
ARC
  5
E00ED748
330
E00DEA5D
100
AcDbEntity
  8
JISSEN
100
AcDbCircle
 10
84.1385495929129
 20
151.7700579723525
 30
0.0
 40
0.3
100
AcDbArc
 50
224.9999999998846
 51
269.9999999996352
  0
LINE
  5
E00ED749
330
E00DEA5D
100
AcDbEntity
  8
JISSEN
100
AcDbLine
 10
86.53070342388298
 20
147.4700598418287
 30
0.0
 11
87.55570693632206
 21
147.4700594429825
 31
0.0
  0
LINE
  5
E00ED74A
330
E00DEA5D
100
AcDbEntity
  8
JISSEN
370
    -2
100
AcDbLine
 10
84.50570699518255
 20
157.3700580167199
 30
0.0
 11
84.50570699516754
 21
155.169898096504
 31
0.0
  0
LINE
  5
E00ED74B
330
E00DEA5D
100
AcDbEntity
  8
JISSEN
370
    -2
100
AcDbLine
 10
94.10570698549724
 20
153.6698969192686
 30
0.0
 11
94.10570698549724
 21
152.2700579723125
 31
0.0
  0
LINE
  5
E00ED74C
330
E00DEA5D
100
AcDbEntity
  8
JISSEN
100
AcDbLine
 10
90.05570688039677
 20
151.4700579723132
 30
0.0
 11
95.97286416792883
 21
151.4700579723132
 31
0.0
  0
LINE
  5
E00ED74D
330
E00DEA5D
100
AcDbEntity
  8
JISSEN
100
AcDbLine
 10
93.58071033693011
 20
147.4700598418051
 30
0.0
 11
92.55570682449103
 21
147.4700594429662
 31
0.0
  0
LINE
  5
E00ED74E
330
E00DEA5D
100
AcDbEntity
  8
JISSEN
100
AcDbLine
 10
92.55570682449103
 20
147.4700594429662
 30
0.0
 11
90.05570688039041
 21
147.4700594429662
 31
0.0
  0
ARC
  5
E00ED74F
330
E00DEA5D
100
AcDbEntity
  8
JISSEN
370
    -2
100
AcDbCircle
 10
94.45570688039731
 20
150.7698977225693
 30
0.0
 40
0.7000000000000242
100
AcDbArc
 50
0.0
 51
90.0
  0
LINE
  5
E00ED750
330
E00DEA5D
100
AcDbEntity
  8
JISSEN
370
    -2
100
AcDbLine
 10
95.15570706439701
 20
150.769896257668
 30
0.0
 11
95.15570706439701
 21
150.6698982901682
 31
0.0
  0
LINE
  5
E00ED751
330
E00DEA5D
100
AcDbEntity
  8
JISSEN
370
    -2
100
AcDbLine
 10
95.60570676569694
 20
157.3700580166835
 30
0.0
 11
95.60570676569694
 21
155.1698980964677
 31
0.0
  0
ARC
  5
E00ED752
330
E00DEA5D
100
AcDbEntity
  8
JISSEN
370
    -2
100
AcDbCircle
 10
83.74124268179583
 20
173.035565116382
 30
0.0
 40
1.648956901138485
100
AcDbArc
 50
83.20607180967952
 51
175.2210394254884
  0
ARC
  5
E00ED753
330
E00DEA5D
100
AcDbEntity
  8
JISSEN
370
    -2
100
AcDbCircle
 10
83.73370182509587
 20
173.3010791028839
 30
0.0
 40
1.640694770587604
100
AcDbArc
 50
184.4792906218895
 51
277.0935981429854
  0
LINE
  5
E00ED754
330
E00DEA5D
100
AcDbEntity
  8
JISSEN
100
AcDbLine
 10
75.70570688039641
 20
158.1700580167682
 30
0.0
 11
90.05570688039677
 21
158.1700580167682
 31
0.0
  0
LINE
  5
E00ED755
330
E00DEA5D
100
AcDbEntity
  8
JISSEN
100
AcDbLine
 10
75.10570688035148
 20
170.6700580167209
 30
0.0
 11
90.05570688039677
 21
170.6700580166427
 31
0.0
  0
LINE
  5
E00ED756
330
E00DEA5D
100
AcDbEntity
  8
JISSEN
100
AcDbLine
 10
75.10570688035238
 20
170.6700580167209
 30
0.0
 11
90.05570688039677
 21
170.6700580166427
 31
0.0
  0
LINE
  5
E00ED758
330
E00DEA5D
100
AcDbEntity
  8
JISSEN
100
AcDbLine
 10
75.40570688039531
 20
167.6700580166445
 30
0.0
 11
75.10570688039604
 21
170.1133619450386
 31
0.0
  0
LINE
  5
E00ED759
330
E00DEA5D
100
AcDbEntity
  8
JISSEN
100
AcDbLine
 10
73.55570688039676
 20
161.128060056767
 30
0.0
 11
73.55570688039676
 21
172.4229012958685
 31
0.0
  0
LINE
  5
E00ED75A
330
E00DEA5D
100
AcDbEntity
  8
JISSEN
100
AcDbLine
 10
75.05570688039677
 20
171.9229012958685
 30
0.0
 11
75.05570688039677
 21
160.9229012958687
 31
0.0
  0
LINE
  5
E00ED75B
330
E00DEA5D
100
AcDbEntity
  8
JISSEN
100
AcDbLine
 10
77.45570688039368
 20
157.9229012958687
 30
0.0
 11
73.31874412879677
 21
157.9229012958687
 31
0.0
  0
LINE
  5
E00ED75C
330
E00DEA5D
100
AcDbEntity
  8
JISSEN
100
AcDbLine
 10
74.95570688039641
 20
160.9229012958687
 30
0.0
 11
74.81303617599713
 21
159.292167681667
 31
0.0
  0
ARC
  5
E00ED75D
330
E00DEA5D
100
AcDbEntity
  8
JISSEN
100
AcDbCircle
 10
73.4542126241962
 20
159.4167715334672
 30
0.0
 40
1.499999999999995
100
AcDbArc
 50
261.9999999999564
 51
264.8184245309434
  0
ARC
  5
E00ED75E
330
E00DEA5D
100
AcDbEntity
  8
JISSEN
100
AcDbCircle
 10
72.05570688039586
 20
161.128060056767
 30
0.0
 40
1.5
100
AcDbArc
 50
261.9999999999564
 51
0.000000000000007
  0
LINE
  5
E00ED75F
330
E00DEA5D
100
AcDbEntity
  8
JISSEN
100
AcDbLine
 10
75.40570688039531
 20
161.6700580166446
 30
0.0
 11
75.10570688039604
 21
164.1133619450386
 31
0.0
  0
LINE
  5
E00ED760
330
E00DEA5D
100
AcDbEntity
  8
JISSEN
100
AcDbLine
 10
75.05570688039677
 20
160.9229012958687
 30
0.0
 11
74.95570688039641
 21
160.9229012958687
 31
0.0
  0
ARC
  5
E00ED761
330
E00DEA5D
100
AcDbEntity
  8
JISSEN
100
AcDbCircle
 10
77.6557068803935
 20
157.9700580166802
 30
0.0
 40
0.200000000000017
100
AcDbArc
 50
90.0
 51
180.0
  0
LINE
  5
E00ED762
330
E00DEA5D
100
AcDbEntity
  8
JISSEN
100
AcDbLine
 10
77.35570688039422
 20
158.1700580166773
 30
0.0
 11
77.75570688039749
 21
158.1700580166809
 31
0.0
  0
LINE
  5
E00ED763
330
E00DEA5D
100
AcDbEntity
  8
JISSEN
100
AcDbLine
 10
75.40570688039531
 20
159.2896732590427
 30
0.0
 11
75.40570688039441
 21
161.6700580166446
 31
0.0
  0
LINE
  5
E00ED764
330
E00DEA5D
100
AcDbEntity
  8
JISSEN
100
AcDbLine
 10
75.10570688039604
 20
167.6700580166445
 30
0.0
 11
75.40570688039531
 21
167.6700580166445
 31
0.0
  0
LINE
  5
E00ED765
330
E00DEA5D
100
AcDbEntity
  8
JISSEN
100
AcDbLine
 10
75.10570688039604
 20
164.1133619450386
 30
0.0
 11
75.10570688039604
 21
164.6700580166445
 31
0.0
  0
LINE
  5
E00ED766
330
E00DEA5D
100
AcDbEntity
  8
JISSEN
100
AcDbLine
 10
75.10570688039604
 20
164.6700580166445
 30
0.0
 11
75.40570688039531
 21
164.6700580166445
 31
0.0
  0
LINE
  5
E00ED767
330
E00DEA5D
100
AcDbEntity
  8
JISSEN
100
AcDbLine
 10
75.40570688039531
 20
164.6700580166445
 30
0.0
 11
75.10570688039604
 21
167.1133619450386
 31
0.0
  0
LINE
  5
E00ED768
330
E00DEA5D
100
AcDbEntity
  8
JISSEN
100
AcDbLine
 10
74.55570688039677
 20
172.4229012958685
 30
0.0
 11
75.05570688039677
 21
171.9229012958685
 31
0.0
  0
LINE
  5
E00ED769
330
E00DEA5D
100
AcDbEntity
  8
JISSEN
100
AcDbLine
 10
73.55570688039676
 20
172.4229012958685
 30
0.0
 11
75.40570688039622
 21
172.4229012958685
 31
0.0
  0
LINE
  5
E00ED76C
330
E00DEA5D
100
AcDbEntity
  8
JISSEN
100
AcDbLine
 10
75.40570688039622
 20
170.6700580167173
 30
0.0
 11
75.40570688039622
 21
177.172901631174
 31
0.0
  0
LINE
  5
E00ED76D
330
E00DEA5D
100
AcDbEntity
  8
JISSEN
100
AcDbLine
 10
75.10570688039604
 20
170.6700580166445
 30
0.0
 11
75.40570688039622
 21
170.6700580166445
 31
0.0
  0
LINE
  5
E00ED76E
330
E00DEA5D
100
AcDbEntity
  8
SAISEN
100
AcDbLine
 10
75.90570688039623
 20
176.1729016180736
 30
0.0
 11
75.90570688039713
 21
177.1729016311703
 31
0.0
  0
LINE
  5
E00ED76F
330
E00DEA5D
100
AcDbEntity
  8
JISSEN
100
AcDbLine
 10
75.40570688039622
 20
176.17290161807
 30
0.0
 11
75.90570688039623
 21
176.17290161807
 31
0.0
  0
LINE
  5
E00ED771
330
E00DEA5D
100
AcDbEntity
  8
JISSEN
370
    -2
100
AcDbLine
 10
83.93631220559507
 20
174.6729431248834
 30
0.0
 11
90.05570688039677
 21
174.6729431248834
 31
0.0
  0
LINE
  5
E00ED772
330
E00DEA5D
100
AcDbEntity
  8
JISSEN
370
    -2
100
AcDbLine
 10
83.93631220559507
 20
171.6729426331851
 30
0.0
 11
90.05570688039677
 21
171.6729426331851
 31
0.0
  0
SPLINE
  5
E00ED773
330
E00DEA5D
100
AcDbEntity
  8
JISSEN
370
    -2
100
AcDbSpline
210
0.0
220
0.0
230
1.0
 70
    12
 71
     3
 72
    14
 73
    10
 74
     0
 42
0.0000000001
 43
0.0000000001
 40
0.0
 40
0.0
 40
0.0
 40
0.0
 40
0.2170493941225676
 40
0.4388311995732112
 40
0.5988137766302898
 40
0.7597871991591737
 40
0.8750649674182215
 40
0.9755548291618868
 40
1.0
 40
1.0
 40
1.0
 40
1.0
 10
86.5152515167523
 20
174.6729431249234
 30
0.0
 41
1.0
 10
86.27488902706989
 20
174.666977573351
 30
0.0
 41
1.0
 10
85.78892333199689
 20
174.6549164009932
 30
0.0
 41
1.0
 10
85.14829174480144
 20
174.5257269105507
 30
0.0
 41
1.0
 10
84.61135694610982
 20
174.2898038530122
 30
0.0
 41
1.0
 10
84.23954936927509
 20
173.9837435443744
 30
0.0
 41
1.0
 10
84.01776649209876
 20
173.6188633077629
 30
0.0
 41
1.0
 10
83.95104713679245
 20
173.3452800503703
 30
0.0
 41
1.0
 10
83.94765922693421
 20
173.2011448194582
 30
0.0
 41
1.0
 10
83.94699633812194
 20
173.1729428790542
 30
0.0
 41
1.0
  0
SPLINE
  5
E00ED774
330
E00DEA5D
100
AcDbEntity
  8
JISSEN
370
    -2
100
AcDbSpline
210
0.0
220
0.0
230
1.0
 70
    12
 71
     3
 72
    14
 73
    10
 74
     0
 42
0.0000000001
 43
0.0000000001
 40
0.0
 40
0.0
 40
0.0
 40
0.0
 40
0.1088769686984931
 40
0.2172663573285982
 40
0.3685706574444105
 40
0.4825742753969225
 40
0.5996174274824865
 40
0.7976149977365948
 40
1.0
 40
1.0
 40
1.0
 40
1.0
 10
83.94699633812194
 20
173.1729428790542
 30
0.0
 41
1.0
 10
83.95968962853784
 20
173.0466618928305
 30
0.0
 41
1.0
 10
83.98501936543231
 20
172.7946654402814
 30
0.0
 41
1.0
 10
84.1923181533906
 20
172.424778954127
 30
0.0
 41
1.0
 10
84.493146996458
 20
172.1427343034094
 30
0.0
 41
1.0
 10
84.85509003652749
 20
171.9430959102694
 30
0.0
 41
1.0
 10
85.2915249661695
 20
171.7884493519134
 30
0.0
 41
1.0
 10
85.84744025236284
 20
171.6883900717705
 30
0.0
 41
1.0
 10
86.29102747101786
 20
171.6781292590469
 30
0.0
 41
1.0
 10
86.5152515167523
 20
171.6729426331851
 30
0.0
 41
1.0
  0
ARC
  5
E00ED775
330
E00DEA5D
100
AcDbEntity
  8
JISSEN
100
AcDbCircle
 10
106.7926696319976
 20
159.4229012958687
 30
0.0
 40
1.5
100
AcDbArc
 50
185.0000000000782
 51
270.0
  0
LINE
  5
E00ED776
330
E00DEA5D
100
AcDbEntity
  8
JISSEN
100
AcDbLine
 10
102.6557068803998
 20
157.9700580166802
 30
0.0
 11
102.6557068803998
 21
157.5700580166824
 31
0.0
  0
LINE
  5
E00ED777
330
E00DEA5D
100
AcDbEntity
  8
JISSEN
370
    -2
100
AcDbLine
 10
103.3057067238972
 20
150.6698982901682
 30
0.0
 11
101.419769197097
 21
150.6698982901682
 31
0.0
  0
ARC
  5
E00ED778
330
E00DEA5D
100
AcDbEntity
  8
JISSEN
370
    -2
100
AcDbCircle
 10
101.3057068803976
 20
150.1698977225671
 30
0.0
 40
2.000000000000056
100
AcDbArc
 50
270.0
 51
0.0
  0
LINE
  5
E00ED779
330
E00DEA5D
100
AcDbEntity
  8
JISSEN
370
    -2
100
AcDbLine
 10
103.3057067238972
 20
153.6698969192686
 30
0.0
 11
101.419769197097
 21
153.6698969192686
 31
0.0
  0
ARC
  5
E00ED77A
330
E00DEA5D
100
AcDbEntity
  8
JISSEN
370
    -2
100
AcDbCircle
 10
96.3455252412972
 20
152.2541380197683
 30
0.0
 40
1.418614261419669
100
AcDbArc
 50
356.5956486346391
 51
86.36412516949837
  0
ARC
  5
E00ED77B
330
E00DEA5D
100
AcDbEntity
  8
JISSEN
370
    -2
100
AcDbCircle
 10
96.79193348919705
 20
152.2983679934688
 30
0.0
 40
1.373690855685324
100
AcDbArc
 50
354.6337390540033
 51
86.78507455160408
  0
SPLINE
  5
E00ED77C
330
E00DEA5D
100
AcDbEntity
  8
JISSEN
370
    -2
100
AcDbSpline
210
0.0
220
0.0
230
1.0
 70
    12
 71
     3
 72
    12
 73
     8
 74
     0
 42
0.0000000001
 43
0.0000000001
 40
0.0
 40
0.0
 40
0.0
 40
0.0
 40
0.2270414180693609
 40
0.4545205376007232
 40
0.6714649260062801
 40
0.8806674473517201
 40
1.0
 40
1.0
 40
1.0
 40
1.0
 10
101.4197691971152
 20
153.669896919265
 30
0.0
 41
1.0
 10
101.324016016328
 20
153.6529872693165
 30
0.0
 41
1.0
 10
101.1323250571243
 20
153.6191353701717
 30
0.0
 41
1.0
 10
100.8583839612569
 20
153.3452452567901
 30
0.0
 41
1.0
 10
100.6525163880763
 20
152.9448763405118
 30
0.0
 41
1.0
 10
100.5513533156948
 20
152.5284085715386
 30
0.0
 41
1.0
 10
100.5419387850801
 20
152.2654214297902
 30
0.0
 41
1.0
 10
100.5385191807239
 20
152.1698976047184
 30
0.0
 41
1.0
  0
ARC
  5
E00ED77D
330
E00DEA5D
100
AcDbEntity
  8
JISSEN
370
    -2
100
AcDbCircle
 10
96.37865545059719
 20
152.0563667832677
 30
0.0
 40
1.387632780893617
100
AcDbArc
 50
272.3472583875874
 51
4.692967808289825
  0
ARC
  5
E00ED77E
330
E00DEA5D
100
AcDbEntity
  8
JISSEN
370
    -2
100
AcDbCircle
 10
96.75413141549723
 20
152.0739529283666
 30
0.0
 40
1.408743357584393
100
AcDbArc
 50
274.6759443907204
 51
3.905242003595682
  0
SPLINE
  5
E00ED77F
330
E00DEA5D
100
AcDbEntity
  8
JISSEN
370
    -2
100
AcDbSpline
210
0.0
220
0.0
230
1.0
 70
    12
 71
     3
 72
    12
 73
     8
 74
     0
 42
0.0000000001
 43
0.0000000001
 40
0.0
 40
0.0
 40
0.0
 40
0.0
 40
0.205840282809383
 40
0.4116490113380446
 40
0.6184457918287852
 40
0.8292559119854885
 40
1.0
 40
1.0
 40
1.0
 40
1.0
 10
100.5385191807239
 20
152.1698976047184
 30
0.0
 41
1.0
 10
100.5485356535767
 20
152.0044711394323
 30
0.0
 41
1.0
 10
100.5685670638061
 20
151.6736435678969
 30
0.0
 41
1.0
 10
100.722295005757
 20
151.232254715461
 30
0.0
 41
1.0
 10
100.9416648192613
 20
150.8955641876048
 30
0.0
 41
1.0
 10
101.1885754795342
 20
150.7009953874833
 30
0.0
 41
1.0
 10
101.3482952115249
 20
150.6795120180388
 30
0.0
 41
1.0
 10
101.4197691971152
 20
150.6698982901719
 30
0.0
 41
1.0
  0
ARC
  5
E00ED780
330
E00DEA5D
100
AcDbEntity
  8
JISSEN
100
AcDbCircle
 10
102.4557068804
 20
157.5700580166824
 30
0.0
 40
0.1999999999999957
100
AcDbArc
 50
270.0
 51
0.0
  0
LINE
  5
E00ED781
330
E00DEA5D
100
AcDbEntity
  8
JISSEN
370
    -2
100
AcDbLine
 10
103.3057067238972
 20
150.6698982901682
 30
0.0
 11
103.3057067238972
 21
150.1698972768674
 31
0.0
  0
LINE
  5
E00ED782
330
E00DEA5D
100
AcDbEntity
  8
JISSEN
370
    -2
100
AcDbLine
 10
103.3057067238972
 20
155.1698980964677
 30
0.0
 11
103.3057067238972
 21
153.6698969192686
 31
0.0
  0
LINE
  5
E00ED783
330
E00DEA5D
100
AcDbEntity
  8
JISSEN
100
AcDbLine
 10
117.3738712459975
 20
160.9229012958687
 30
0.0
 11
108.264466531796
 21
159.6426579536684
 31
0.0
  0
HATCH
  5
E00ED784
330
E00DEA5D
100
AcDbEntity
  8
HATCH
100
AcDbHatch
 10
0.0
 20
0.0
 30
0.0
210
0.0
220
0.0
230
1.0
  2
ANSI31
 70
     0
 71
     0
 91
        1
 92
        7
 72
     1
 73
     1
 93
       14
 10
105.0557068803967
 20
171.9229012958685
 42
0.0
 10
105.5557068803969
 20
172.4229012958685
 42
0.0
 10
106.5557068803967
 20
172.4229012958689
 42
0.0
 10
106.5557068803967
 20
161.128060056767
 42
0.4557262555289391
 10
108.2644665318381
 20
159.6426579536744
 42
0.0
 10
117.3738712459987
 20
160.9229012958687
 42
0.0
 10
122.5557068803967
 20
160.9229012958687
 42
0.0
 10
122.5557068803967
 20
160.5710628112694
 42
-0.3738846794428605
 10
122.125293430868
 20
160.0759287769799
 42
0.0
 10
106.865960788058
 20
157.931369430275
 42
-0.0122983169365944
 10
106.7926696318908
 20
157.9229012958687
 42
-0.3888787318578421
 10
105.298377584784
 20
159.2921676818084
 42
0.0
 10
105.1557068803971
 20
160.9229012958685
 42
0.0
 10
105.0557068803967
 20
160.9229012958689
 42
0.0
 97
        0
 75
     0
 76
     1
 52
0.0
 41
5.0
 77
     0
 78
     1
 53
135.0
 43
61.2312227571773
 44
-1464.721826509709
 45
0.4419417382415922
 46
0.4419417382415923
 79
     0
 47
0.0183417260654637
 98
        1
 10
105.6602977964049
 20
165.9796934994178
  0
LINE
  5
E00ED785
330
E00DEA5D
100
AcDbEntity
  8
JISSEN
100
AcDbLine
 10
106.8659607879975
 20
157.9313694302666
 30
0.0
 11
122.1252934307971
 21
160.0759287769699
 31
0.0
  0
LINE
  5
E00ED786
330
E00DEA5D
100
AcDbEntity
  8
JISSEN
100
AcDbLine
 10
106.5698031543973
 20
160.9229012958687
 30
0.0
 11
117.3738712459975
 21
160.9229012958687
 31
0.0
  0
LINE
  5
E00ED787
330
E00DEA5D
100
AcDbEntity
  8
JISSEN
100
AcDbLine
 10
104.7057068803982
 20
167.6700580166445
 30
0.0
 11
105.0057068803974
 21
170.1133619450386
 31
0.0
  0
LINE
  5
E00ED788
330
E00DEA5D
100
AcDbEntity
  8
JISSEN
100
AcDbLine
 10
105.0557068803967
 20
171.9229012958685
 30
0.0
 11
105.0557068803967
 21
160.9229012958687
 31
0.0
  0
LINE
  5
E00ED789
330
E00DEA5D
100
AcDbEntity
  8
JISSEN
100
AcDbLine
 10
106.5557068803967
 20
161.128060056767
 30
0.0
 11
106.5557068803967
 21
172.4229012958685
 31
0.0
  0
LINE
  5
E00ED78A
330
E00DEA5D
100
AcDbEntity
  8
JISSEN
100
AcDbLine
 10
102.6557068803998
 20
157.9229012958687
 30
0.0
 11
106.7926696319967
 21
157.9229012958687
 31
0.0
  0
LINE
  5
E00ED78B
330
E00DEA5D
100
AcDbEntity
  8
JISSEN
100
AcDbLine
 10
102.7557068803993
 20
158.1700580166773
 30
0.0
 11
102.355706880396
 21
158.1700580166809
 31
0.0
  0
ARC
  5
E00ED78C
330
E00DEA5D
100
AcDbEntity
  8
JISSEN
100
AcDbCircle
 10
102.4557068804
 20
157.9700580166802
 30
0.0
 40
0.200000000000017
100
AcDbArc
 50
0.0
 51
90.0
  0
LINE
  5
E00ED78D
330
E00DEA5D
100
AcDbEntity
  8
JISSEN
100
AcDbLine
 10
104.7057068803982
 20
161.6700580166446
 30
0.0
 11
105.0057068803974
 21
164.1133619450386
 31
0.0
  0
ARC
  5
E00ED78E
330
E00DEA5D
100
AcDbEntity
  8
JISSEN
100
AcDbCircle
 10
108.0557068803976
 20
161.128060056767
 30
0.0
 40
1.5
100
AcDbArc
 50
180.0
 51
278.0000000000435
  0
LINE
  5
E00ED78F
330
E00DEA5D
100
AcDbEntity
  8
JISSEN
100
AcDbLine
 10
105.0557068803967
 20
160.9229012958687
 30
0.0
 11
105.1557068803971
 21
160.9229012958687
 31
0.0
  0
LINE
  5
E00ED790
330
E00DEA5D
100
AcDbEntity
  8
JISSEN
100
AcDbLine
 10
104.7057068803982
 20
159.2896732590427
 30
0.0
 11
104.7057068803991
 21
161.6700580166446
 31
0.0
  0
LINE
  5
E00ED791
330
E00DEA5D
100
AcDbEntity
  8
JISSEN
100
AcDbLine
 10
105.1557068803971
 20
160.9229012958687
 30
0.0
 11
105.2983775847964
 21
159.292167681667
 31
0.0
  0
ARC
  5
E00ED792
330
E00DEA5D
100
AcDbEntity
  8
JISSEN
100
AcDbCircle
 10
106.6572011365973
 20
159.4167715334672
 30
0.0
 40
1.499999999999995
100
AcDbArc
 50
275.1815754690533
 51
278.0000000000435
  0
LINE
  5
E00ED793
330
E00DEA5D
100
AcDbEntity
  8
JISSEN
100
AcDbLine
 10
105.0057068803974
 20
167.6700580166445
 30
0.0
 11
104.7057068803982
 21
167.6700580166445
 31
0.0
  0
LINE
  5
E00ED794
330
E00DEA5D
100
AcDbEntity
  8
JISSEN
100
AcDbLine
 10
105.0057068803974
 20
164.6700580166445
 30
0.0
 11
104.7057068803982
 21
164.6700580166445
 31
0.0
  0
LINE
  5
E00ED795
330
E00DEA5D
100
AcDbEntity
  8
JISSEN
100
AcDbLine
 10
105.0057068803974
 20
164.1133619450386
 30
0.0
 11
105.0057068803974
 21
164.6700580166445
 31
0.0
  0
LINE
  5
E00ED796
330
E00DEA5D
100
AcDbEntity
  8
JISSEN
100
AcDbLine
 10
104.7057068803982
 20
164.6700580166445
 30
0.0
 11
105.0057068803974
 21
167.1133619450386
 31
0.0
  0
ARC
  5
E00ED797
330
E00DEA5D
100
AcDbEntity
  8
JISSEN
370
    -2
100
AcDbCircle
 10
96.37017107899772
 20
173.035565116382
 30
0.0
 40
1.648956901138485
100
AcDbArc
 50
4.778960574511525
 51
96.79392819032045
  0
ARC
  5
E00ED798
330
E00DEA5D
100
AcDbEntity
  8
JISSEN
370
    -2
100
AcDbCircle
 10
96.37771193569768
 20
173.3010791028839
 30
0.0
 40
1.640694770587604
100
AcDbArc
 50
262.9064018570145
 51
355.5207093781104
  0
LINE
  5
E00ED799
330
E00DEA5D
100
AcDbEntity
  8
JISSEN
100
AcDbLine
 10
104.7057068803973
 20
170.6700580167173
 30
0.0
 11
104.7057068803973
 21
177.172901631174
 31
0.0
  0
LINE
  5
E00ED79A
330
E00DEA5D
100
AcDbEntity
  8
JISSEN
100
AcDbLine
 10
106.5557068803967
 20
172.4229012958685
 30
0.0
 11
104.7057068803973
 21
172.4229012958685
 31
0.0
  0
LINE
  5
E00ED79B
330
E00DEA5D
100
AcDbEntity
  8
JISSEN
100
AcDbLine
 10
105.5557068803967
 20
172.4229012958685
 30
0.0
 11
105.0557068803967
 21
171.9229012958685
 31
0.0
  0
LINE
  5
E00ED79C
330
E00DEA5D
100
AcDbEntity
  8
JISSEN
100
AcDbLine
 10
105.0057068803974
 20
170.6700580166445
 30
0.0
 11
104.7057068803973
 21
170.6700580166445
 31
0.0
  0
LINE
  5
E00ED79E
330
E00DEA5D
100
AcDbEntity
  8
JISSEN
100
AcDbLine
 10
104.7057068803973
 20
176.17290161807
 30
0.0
 11
104.2057068803973
 21
176.17290161807
 31
0.0
  0
LINE
  5
E00ED79F
330
E00DEA5D
100
AcDbEntity
  8
SAISEN
100
AcDbLine
 10
104.2057068803973
 20
176.1729016180736
 30
0.0
 11
104.2057068803964
 21
177.1729016311703
 31
0.0
  0
LINE
  5
E00ED7A2
330
E00DEA5D
100
AcDbEntity
  8
SUNPOU
100
AcDbLine
 10
115.0557068803967
 20
170.9229012958687
 30
0.0
 11
115.0557068803967
 21
160.9229012958687
 31
0.0
  0
LINE
  5
E00ED7A3
330
E00DEA5D
100
AcDbEntity
  8
JISSEN
100
AcDbLine
 10
122.5557068803967
 20
160.9229012958687
 30
0.0
 11
117.3738712459975
 21
160.9229012958687
 31
0.0
  0
LINE
  5
E00ED7A4
330
E00DEA5D
100
AcDbEntity
  8
JISSEN
100
AcDbLine
 10
122.5557068803967
 20
160.5710628112694
 30
0.0
 11
122.5557068803967
 21
160.9229012958687
 31
0.0
  0
ARC
  5
E00ED7A5
330
E00DEA5D
100
AcDbEntity
  8
JISSEN
100
AcDbCircle
 10
122.0557068803976
 20
160.5710628112694
 30
0.0
 40
0.5000000000000084
100
AcDbArc
 50
278.0000000000435
 51
0.0
  0
LINE
  5
E00ED7A6
330
E00DEA5D
100
AcDbEntity
  8
JISSEN
100
AcDbLine
 10
101.3396814766123
 20
183.6729016311685
 30
0.0
 11
90.05570688039677
 21
183.6729016311685
 31
0.0
  0
LINE
  5
E00ED7A8
330
E00DEA5D
100
AcDbEntity
  8
NITEN
100
AcDbLine
 10
99.05570688039677
 20
188.4729016311678
 30
0.0
 11
90.05570688039677
 21
188.4729016311678
 31
0.0
  0
LINE
  5
E00ED7A9
330
E00DEA5D
100
AcDbEntity
  8
JISSEN
100
AcDbLine
 10
100.3178036544972
 20
198.2108048569709
 30
0.0
 11
90.05570688039677
 21
198.2108048569709
 31
0.0
  0
LINE
  5
E00ED7AA
330
E00DEA5D
100
AcDbEntity
  8
JISSEN
100
AcDbLine
 10
99.05570688039677
 20
199.4729016311678
 30
0.0
 11
90.05570688039677
 21
199.4729016311678
 31
0.0
  0
LINE
  5
E00ED7AB
330
E00DEA5D
100
AcDbEntity
  8
NITEN
100
AcDbLine
 10
77.55570688039677
 20
188.4729016311678
 30
0.0
 11
102.5557068803967
 21
188.4729016311678
 31
0.0
  0
LINE
  5
E00ED7AC
330
E00DEA5D
100
AcDbEntity
  8
NITEN
100
AcDbLine
 10
77.05570688039677
 20
205.2782520449029
 30
0.0
 11
77.05570688039722
 21
188.9729016311678
 31
0.0
  0
LINE
  5
E00ED7AD
330
E00DEA5D
100
AcDbEntity
  8
JISSEN
100
AcDbLine
 10
81.05570688039676
 20
199.4729016311678
 30
0.0
 11
90.05570688039677
 21
199.4729016311678
 31
0.0
  0
LINE
  5
E00ED7AF
330
E00DEA5D
100
AcDbEntity
  8
JISSEN
100
AcDbLine
 10
78.77173228418121
 20
183.6729016311685
 30
0.0
 11
90.05570688039677
 21
183.6729016311685
 31
0.0
  0
LINE
  5
E00ED7B0
330
E00DEA5D
100
AcDbEntity
  8
JISSEN
100
AcDbLine
 10
79.79361010629634
 20
198.2108048569709
 30
0.0
 11
90.05570688039677
 21
198.2108048569709
 31
0.0
  0
LINE
  5
E00ED7B1
330
E00DEA5D
100
AcDbEntity
  8
JISSEN
100
AcDbLine
 10
79.79361010629634
 20
198.2108048569709
 30
0.0
 11
79.33930063044624
 21
183.6729016311685
 31
0.0
  0
LINE
  5
E00ED7B2
330
E00DEA5D
100
AcDbEntity
  8
SAISEN
100
AcDbLine
 10
80.55769776239992
 20
185.4729016311714
 30
0.0
 11
80.99326832377972
 21
199.4104630722097
 31
0.0
  0
LINE
  5
E00ED7B3
330
E00DEA5D
100
AcDbEntity
  8
SAISEN
100
AcDbLine
 10
80.55769776239992
 20
185.472901631175
 30
0.0
 11
80.99326832377972
 21
199.4104630722133
 31
0.0
  0
ARC
  5
E00ED7B6
330
E00DEA5D
100
AcDbEntity
  8
NITEN
100
AcDbCircle
 10
77.55570688039677
 20
188.9729016311678
 30
0.0
 40
0.5
100
AcDbArc
 50
180.0
 51
270.0
  0
LINE
  5
E00ED7B7
330
E00DEA5D
100
AcDbEntity
  8
JISSEN
100
AcDbLine
 10
81.05570688039676
 20
199.4729016311678
 30
0.0
 11
79.79361010629634
 21
198.2108048569709
 31
0.0
  0
LINE
  5
E00ED7BC
330
E00DEA5D
100
AcDbEntity
  8
NITEN
100
AcDbLine
 10
76.92409875256624
 20
205.6163162821714
 30
0.0
 11
70.76897570821518
 21
212.3236134516949
 31
0.0
  0
ARC
  5
E00ED7BD
330
E00DEA5D
100
AcDbEntity
  8
NITEN
100
AcDbCircle
 10
76.55570688039631
 20
205.2782520449029
 30
0.0
 40
0.5
100
AcDbArc
 50
0.0
 51
42.54184415662172
  0
ARC
  5
E00ED7BE
330
E00DEA5D
100
AcDbEntity
  8
NITEN
100
AcDbCircle
 10
71.05570688039631
 20
212.7332294119544
 30
0.0
 40
0.5
100
AcDbArc
 50
180.0
 51
235.0079798014511
  0
LINE
  5
E00ED7BF
330
E00DEA5D
100
AcDbEntity
  8
NITEN
100
AcDbLine
 10
103.0557068803972
 20
205.2782520449029
 30
0.0
 11
103.0557068803967
 21
188.9729016311678
 31
0.0
  0
LINE
  5
E00ED7C0
330
E00DEA5D
100
AcDbEntity
  8
SAISEN
100
AcDbLine
 10
99.55371599839361
 20
185.472901631175
 30
0.0
 11
99.11814543701382
 21
199.4104630722133
 31
0.0
  0
LINE
  5
E00ED7C1
330
E00DEA5D
100
AcDbEntity
  8
SAISEN
100
AcDbLine
 10
99.55371599839361
 20
185.4729016311714
 30
0.0
 11
99.11814543701382
 21
199.4104630722097
 31
0.0
  0
LINE
  5
E00ED7C2
330
E00DEA5D
100
AcDbEntity
  8
JISSEN
100
AcDbLine
 10
100.3178036544972
 20
198.2108048569709
 30
0.0
 11
100.7721131303472
 21
183.6729016311685
 31
0.0
  0
ARC
  5
E00ED7C4
330
E00DEA5D
100
AcDbEntity
  8
NITEN
100
AcDbCircle
 10
102.5557068803963
 20
188.9729016311678
 30
0.0
 40
0.5
100
AcDbArc
 50
270.0
 51
0.0
  0
LINE
  5
E00ED7C6
330
E00DEA5D
100
AcDbEntity
  8
JISSEN
100
AcDbLine
 10
99.05570688039677
 20
199.4729016311678
 30
0.0
 11
100.3178036544972
 21
198.2108048569709
 31
0.0
  0
LINE
  5
E00ED7C7
330
E00DEA5D
100
AcDbEntity
  8
NITEN
100
AcDbLine
 10
103.1873150082273
 20
205.6163162821714
 30
0.0
 11
109.3424380525783
 21
212.3236134516949
 31
0.0
  0
ARC
  5
E00ED7C8
330
E00DEA5D
100
AcDbEntity
  8
NITEN
100
AcDbCircle
 10
103.5557068803967
 20
205.2782520449029
 30
0.0
 40
0.5
100
AcDbArc
 50
137.4581558433782
 51
180.0
  0
ARC
  5
E00ED7C9
330
E00DEA5D
100
AcDbEntity
  8
NITEN
100
AcDbCircle
 10
109.0557068803963
 20
212.7332294119544
 30
0.0
 40
0.5
100
AcDbArc
 50
304.9920201985488
 51
0.0
  0
SPLINE
  5
E00ED7CA
330
E00DEA5D
100
AcDbEntity
  8
SUNPOU
100
AcDbSpline
210
0.0
220
0.0
230
1.0
 70
     8
 71
     3
 72
    11
 73
     7
 74
     5
 42
0.0000000001
 43
0.0000000001
 44
0.0000000001
 40
0.0
 40
0.0
 40
0.0
 40
0.0
 40
3.264692203133994
 40
6.15697472568029
 40
8.955271668736928
 40
10.85738683396026
 40
10.85738683396026
 40
10.85738683396026
 40
10.85738683396026
 10
147.1075749850255
 20
170.9229012958687
 30
0.0
 10
146.4324742967391
 20
169.9215023446635
 30
0.0
 10
145.1592829462411
 20
168.0329359349499
 30
0.0
 10
147.4251276625854
 20
165.1815649018806
 30
0.0
 10
145.2220104960287
 20
162.5552344041397
 30
0.0
 10
146.5643646867628
 20
161.3931584309507
 30
0.0
 10
147.1075749850255
 20
160.9229012958687
 30
0.0
 11
147.1075749850255
 21
170.9229012958687
 31
0.0
 11
145.8782346074616
 21
167.8985108750905
 31
0.0
 11
146.6504180614314
 21
165.1112127382486
 31
0.0
 11
145.9211115296233
 21
162.4096247303944
 31
0.0
 11
147.1075749850255
 21
160.9229012958687
 31
0.0
  0
LINE
  5
E00ED7CB
330
E00DEA5D
100
AcDbEntity
  8
JISSEN
100
AcDbLine
 10
122.9999991002849
 20
257.9999996951767
 30
0.0
 11
122.9999991002849
 21
272.9999996951767
 31
0.0
  0
ELLIPSE
  5
E00ED7CC
330
E00DEA5D
100
AcDbEntity
  8
NITEN
100
AcDbEllipse
 10
98.55570688039676
 20
245.2768901555693
 30
0.0
 11
-8.499999999999985
 21
0.0
 31
0.0
210
0.0
220
0.0
230
1.0
 40
0.2352941176470057
 41
0.0
 42
6.283185307179586
  0
LINE
  5
E00ED7CD
330
E00DEA5D
100
AcDbEntity
  8
NITEN
100
AcDbLine
 10
109.0557068803967
 20
230.4729016311678
 30
0.0
 11
71.05570688039676
 21
230.4729016311678
 31
0.0
  0
LINE
  5
E00ED7CE
330
E00DEA5D
100
AcDbEntity
  8
NITEN
100
AcDbLine
 10
73.05570688039677
 20
230.4729016311678
 30
0.0
 11
73.05570688039677
 21
245.2768901555693
 31
0.0
  0
ARC
  5
E00ED7CF
330
E00DEA5D
100
AcDbEntity
  8
NITEN
100
AcDbCircle
 10
71.05570688039631
 20
229.9729016311678
 30
0.0
 40
0.5
100
AcDbArc
 50
90.0
 51
180.0
  0
ELLIPSE
  5
E00ED7D0
330
E00DEA5D
100
AcDbEntity
  8
NITEN
100
AcDbEllipse
 10
81.55570688039677
 20
245.2768901555693
 30
0.0
 11
-8.5
 21
0.0
 31
0.0
210
0.0
220
0.0
230
1.0
 40
0.2352941176470588
 41
3.141592653589793
 42
6.283185307179586
  0
LINE
  5
E00ED7D1
330
E00DEA5D
100
AcDbEntity
  8
NITEN
100
AcDbLine
 10
107.0557068803967
 20
230.4729016311678
 30
0.0
 11
107.0557068803967
 21
245.2768901555693
 31
0.0
  0
ARC
  5
E00ED7D2
330
E00DEA5D
100
AcDbEntity
  8
NITEN
100
AcDbCircle
 10
109.0557068803963
 20
229.9729016311678
 30
0.0
 40
0.5
100
AcDbArc
 50
0.0
 51
90.0
  0
LINE
  5
E00ED7D3
330
E00DEA5D
100
AcDbEntity
  8
JISSEN
100
AcDbLine
 10
132.9999987382851
 20
272.9999996951767
 30
0.0
 11
132.9999987382851
 21
257.9999996951767
 31
0.0
  0
LINE
  5
E00ED7D4
330
E00DEA5D
100
AcDbEntity
  8
JISSEN
100
AcDbLine
 10
162.9999987382851
 20
272.9999996951767
 30
0.0
 11
162.9999987382851
 21
257.9999996951767
 31
0.0
  0
TEXT
  5
E00ED7D5
330
E00DEA5D
100
AcDbEntity
  8
TEXT
100
AcDbText
 10
133.9495658412269
 20
263.8900032825746
 30
0.0
 40
3.0
  1
スプリンクラーヘッド
 41
0.8
  7
K
 72
     4
 11
147.9495658412268
 21
265.4900032825746
 31
0.0
100
AcDbText
  0
TEXT
  5
E00ED7D6
330
E00DEA5D
100
AcDbEntity
  8
TEXT
100
AcDbText
 10
127.6428562431421
 20
263.9370844835005
 30
0.0
 40
3.0
  1
1
  7
K
 72
     4
 11
127.9999991002849
 21
265.4370844835004
 31
0.0
100
AcDbText
  0
TEXT
  5
E00ED7D7
330
E00DEA5D
100
AcDbEntity
  8
TEXT
100
AcDbText
 10
133.8195658412269
 20
258.8900032825746
 30
0.0
 40
3.0
  1
シーリングプレート
 41
0.9
  7
K
 72
     4
 11
147.9495658412268
 21
260.4900032825746
 31
0.0
100
AcDbText
  0
TEXT
  5
E00ED7D8
330
E00DEA5D
100
AcDbEntity
  8
TEXT
100
AcDbText
 10
126.9999991002849
 20
258.9370844835004
 30
0.0
 40
3.0
  1
2
  7
K
 72
     4
 11
127.9999991002849
 21
260.4370844835004
 31
0.0
100
AcDbText
  0
TEXT
  5
E00ED7D9
330
E00DEA5D
100
AcDbEntity
  8
TEXT
100
AcDbText
 10
141.3423035621263
 20
268.9321901399591
 30
0.0
 40
3.0
  1
名　　称
  7
K
 72
     4
 11
148.1423035621263
 21
270.4321901399591
 31
0.0
100
AcDbText
  0
TEXT
  5
E00ED7DA
330
E00DEA5D
100
AcDbEntity
  8
TEXT
100
AcDbText
 10
124.7999987382851
 20
269.0382143836825
 30
0.0
 40
3.0
  1
番号
  7
K
 72
     4
 11
127.9999987382851
 21
270.5382143836825
 31
0.0
100
AcDbText
  0
TEXT
  5
E00ED7DB
330
E00DEA5D
100
AcDbEntity
  8
TEXT
100
AcDbText
 10
167.0308923320097
 20
268.9731305439975
 30
0.0
 40
3.0
  1
備　考
  7
K
 72
     4
 11
172.0308923320097
 21
270.4731305439975
 31
0.0
100
AcDbText
  0
LWPOLYLINE
  5
E00ED7DC
330
E00DEA5D
100
AcDbEntity
  8
WAKU
100
AcDbPolyline
 90
        4
 70
     1
 43
0.0
 10
361.9999983762853
 20
-0.0000003048232884
 10
180.9999991002849
 20
-0.0000003048232884
 10
180.9999991002849
 20
272.9999996951767
 10
361.9999983762853
 20
272.9999996951767
  0
LINE
  5
E00ED7DD
330
E00DEA5D
100
AcDbEntity
  8
JISSEN
100
AcDbLine
 39
1680.364539346804
 10
262.8529838732973
 20
31.93970644355409
 30
0.0
 11
264.1029838732982
 21
31.93970644355409
 31
0.0
  0
LINE
  5
E00ED7DE
330
E00DEA5D
100
AcDbEntity
  8
JISSEN
100
AcDbLine
 39
1680.364539346804
 10
280.4307061563921
 20
31.93970644355409
 30
0.0
 11
279.1807061563912
 21
31.93970644355409
 31
0.0
  0
TEXT
  5
E00ED7DF
330
E00DEA5D
100
AcDbEntity
  8
TEXT
100
AcDbText
 10
292.2529895278673
 20
9.243590933872415
 30
0.0
 40
3.0
  1
KQR　＋シーリングプレートK 作動状態
  7
K
 72
     4
 11
325.8244180992959
 21
10.60073379101527
 31
0.0
100
AcDbText
  0
LINE
  5
E00ED7E0
330
E00DEA5D
100
AcDbEntity
  8
JISSEN
100
AcDbLine
 10
287.9095755898969
 20
43.00714766390752
 30
0.0
 11
302.0956126361969
 21
45.00086515150702
 31
0.0
  0
LINE
  5
E00ED7E1
330
E00DEA5D
100
AcDbEntity
  8
JISSEN
100
AcDbLine
 10
238.5557061563175
 20
45.99254976710813
 30
0.0
 11
303.555706156473
 21
45.99254976710813
 31
0.0
  0
HATCH
  5
E00ED7E2
330
E00DEA5D
100
AcDbEntity
  8
SUNPOU
100
AcDbHatch
 10
0.0
 20
0.0
 30
0.0
210
0.0
220
0.0
230
1.0
  2
ANSI31
 70
     0
 71
     0
 91
        2
 92
        5
 93
        5
 72
     1
 10
271.0557061563966
 20
55.99254976710813
 11
214.003838051769
 21
55.99254976710632
 72
     4
 94
        3
 73
     0
 74
     0
 95
       11
 96
        7
 40
0.0
 40
0.0
 40
0.0
 40
0.0
 40
3.264692203133994
 40
6.15697472568029
 40
8.955271668736928
 40
10.85738683396026
 40
10.85738683396026
 40
10.85738683396026
 40
10.85738683396026
 10
214.0038380517679
 20
55.99254976710813
 10
214.6789387400548
 20
54.99115081590185
 10
215.9521300905524
 20
53.10258440618941
 10
213.6862853742085
 20
50.25121337311953
 10
215.8894025407652
 20
47.6248828753794
 10
214.547048350031
 20
46.46280690218897
 10
214.0038380517679
 20
45.99254976710813
 72
     1
 10
214.0038380517684
 20
45.99254976710813
 11
238.555706156321
 21
45.99254976710813
 72
     1
 10
238.5557061563207
 20
45.99254976710813
 11
271.0557061563966
 21
45.99254976710813
 72
     1
 10
271.0557061563966
 20
45.99254976710813
 11
271.0557061563966
 21
55.99254976710995
 97
        0
 92
        5
 93
        5
 72
     4
 94
        3
 73
     0
 74
     0
 95
       11
 96
        7
 40
0.0
 40
0.0
 40
0.0
 40
0.0
 40
1.902115165223333
 40
4.700412108279971
 40
7.592694630826267
 40
10.85738683396026
 40
10.85738683396026
 40
10.85738683396026
 40
10.85738683396026
 10
328.1075742610254
 20
45.99254976710813
 10
327.5643639627631
 20
46.46280690218897
 10
326.2220097720291
 20
47.6248828753794
 10
328.4251269385857
 20
50.25121337311953
 10
326.1592822222413
 20
53.10258440618941
 10
327.4324735727394
 20
54.99115081590185
 10
328.1075742610254
 20
55.99254976710813
 72
     1
 10
328.1075742610245
 20
55.99254976710632
 11
271.0557061563971
 21
55.99254976710995
 72
     1
 10
271.0557061563966
 20
55.99254976710813
 11
271.0557061563966
 21
45.99254976710631
 72
     1
 10
271.0557061563966
 20
45.99254976710813
 11
303.5557061564726
 21
45.99254976710813
 72
     1
 10
303.555706156473
 20
45.99254976710813
 11
328.1075742610259
 21
45.99254976710813
 97
        0
 75
     0
 76
     1
 52
0.0
 41
10.0
 77
     0
 78
     1
 53
45.0
 43
185.0253222105933
 44
-2526.670503128005
 45
-0.8838834764831842
 46
0.8838834764831844
 79
     0
 47
0.0883306502300457
 98
        2
 10
256.9824991686404
 20
55.11206745505456
 10
287.1162303564545
 20
50.69553396214156
  0
LINE
  5
E00ED7E3
330
E00DEA5D
100
AcDbEntity
  8
SUNPOU
100
AcDbLine
 10
238.5557061563207
 20
45.99254976710813
 30
0.0
 11
214.0038380517679
 21
45.99254976710813
 31
0.0
  0
ARC
  5
E00ED7E4
330
E00DEA5D
100
AcDbEntity
  8
JISSEN
100
AcDbCircle
 39
240.0520776831561
 10
264.1029838732982
 20
32.13970644355482
 30
0.0
 40
0.2000000000007276
100
AcDbArc
 50
270.0
 51
0.0
  0
ARC
  5
E00ED7E5
330
E00DEA5D
100
AcDbEntity
  8
JISSEN
100
AcDbCircle
 39
240.0520776831561
 10
262.8529838732982
 20
32.13970644355482
 30
0.0
 40
0.2000000000007276
100
AcDbArc
 50
180.0
 51
270.0
  0
ARC
  5
E00ED7E6
330
E00DEA5D
100
AcDbEntity
  8
JISSEN
100
AcDbCircle
 39
240.0520776831561
 10
280.4307061563912
 20
32.13970644355482
 30
0.0
 40
0.2000000000007276
100
AcDbArc
 50
270.0
 51
0.0
  0
ARC
  5
E00ED7E7
330
E00DEA5D
100
AcDbEntity
  8
JISSEN
100
AcDbCircle
 39
240.0520776831561
 10
279.1807061563912
 20
32.13970644355482
 30
0.0
 40
0.2000000000007276
100
AcDbArc
 50
180.0
 51
270.0
  0
LINE
  5
E00ED7E8
330
E00DEA5D
100
AcDbEntity
  8
JISSEN
100
AcDbLine
 10
267.2450450577451
 20
34.03970644355446
 30
0.0
 11
263.5277320304957
 21
34.03970644355446
 31
0.0
  0
LINE
  5
E00ED7E9
330
E00DEA5D
100
AcDbEntity
  8
JISSEN
100
AcDbLine
 10
276.961288612996
 20
35.43970644355591
 30
0.0
 11
264.3057061563957
 21
35.43970644355591
 31
0.0
  0
LINE
  5
E00ED7EA
330
E00DEA5D
100
AcDbEntity
  8
JISSEN
100
AcDbLine
 10
275.9332798149952
 20
35.93970644355591
 30
0.0
 11
265.480706156395
 21
35.93970644355591
 31
0.0
  0
LINE
  5
E00ED7EB
330
E00DEA5D
100
AcDbEntity
  8
JISSEN
100
AcDbLine
 10
271.0557061563966
 20
42.99254976710631
 30
0.0
 11
254.4225632422939
 21
42.99254976710631
 31
0.0
  0
LINE
  5
E00ED7EC
330
E00DEA5D
100
AcDbEntity
  8
JISSEN
100
AcDbLine
 10
266.2628868863465
 20
32.83970644355555
 30
0.0
 11
265.3971181683954
 21
32.13970644355482
 31
0.0
  0
LINE
  5
E00ED7ED
330
E00DEA5D
100
AcDbEntity
  8
JISSEN
100
AcDbLine
 10
267.2450450577451
 20
32.83970644355555
 30
0.0
 11
263.5277320304957
 21
32.83970644355555
 31
0.0
  0
LINE
  5
E00ED7EE
330
E00DEA5D
100
AcDbEntity
  8
JISSEN
100
AcDbLine
 10
254.2018367228946
 20
43.00714766390752
 30
0.0
 11
240.0157996765946
 21
45.0008651515052
 31
0.0
  0
ARC
  5
E00ED7EF
330
E00DEA5D
100
AcDbEntity
  8
JISSEN
100
AcDbCircle
 10
240.2941458784933
 20
46.98140128900536
 30
0.0
 40
1.999999999999996
100
AcDbArc
 50
209.6318914940852
 51
261.9999999999498
  0
LINE
  5
E00ED7F0
330
E00DEA5D
100
AcDbEntity
  8
JISSEN
100
AcDbLine
 10
262.7779838732966
 20
34.03970644355446
 30
0.0
 11
262.777983873297
 21
42.99254976710449
 31
0.0
  0
LINE
  5
E00ED7F1
330
E00DEA5D
100
AcDbEntity
  8
JISSEN
100
AcDbLine
 10
264.1779838732967
 20
42.99254976710449
 30
0.0
 11
264.1779838732962
 21
34.03970644355446
 31
0.0
  0
LINE
  5
E00ED7F2
330
E00DEA5D
100
AcDbEntity
  8
JISSEN
100
AcDbLine
 10
264.3057061563957
 20
34.03970644355446
 30
0.0
 11
264.3057061563957
 21
35.43970644355591
 31
0.0
  0
LINE
  5
E00ED7F3
330
E00DEA5D
100
AcDbEntity
  8
JISSEN
100
AcDbLine
 10
262.3689542547471
 20
34.03970644355446
 30
0.0
 11
262.0188527294957
 21
34.03970644355446
 31
0.0
  0
LINE
  5
E00ED7F4
330
E00DEA5D
100
AcDbEntity
  8
JISSEN
100
AcDbLine
 10
265.3971181683954
 20
32.13970644355482
 30
0.0
 11
262.0188527294957
 21
32.13970644355482
 31
0.0
  0
LINE
  5
E00ED7F5
330
E00DEA5D
100
AcDbEntity
  8
JISSEN
100
AcDbLine
 10
262.3689542547471
 20
32.83970644355555
 30
0.0
 11
262.0188527294957
 21
32.83970644355555
 31
0.0
  0
LINE
  5
E00ED7F6
330
E00DEA5D
100
AcDbEntity
  8
JISSEN
100
AcDbLine
 10
262.0188527294957
 20
34.03970644355446
 30
0.0
 11
260.5188527294957
 21
34.03970644355446
 31
0.0
  0
LINE
  5
E00ED7F7
330
E00DEA5D
100
AcDbEntity
  8
JISSEN
100
AcDbLine
 10
260.5188527294957
 20
34.03970644355446
 30
0.0
 11
259.6912880014969
 21
34.03970644355446
 31
0.0
  0
LINE
  5
E00ED7F8
330
E00DEA5D
100
AcDbEntity
  8
JISSEN
100
AcDbLine
 10
260.5188527294957
 20
33.33970644355555
 30
0.0
 11
262.0188527294957
 21
33.33970644355555
 31
0.0
  0
LINE
  5
E00ED7F9
330
E00DEA5D
100
AcDbEntity
  8
JISSEN
100
AcDbLine
 10
262.0188527294957
 20
32.13970644355482
 30
0.0
 11
260.5188527294957
 21
32.13970644355482
 31
0.0
  0
LINE
  5
E00ED7FA
330
E00DEA5D
100
AcDbEntity
  8
JISSEN
100
AcDbLine
 10
260.5188527294957
 20
32.13970644355482
 30
0.0
 11
260.5188527294957
 21
32.83970644355555
 31
0.0
  0
LINE
  5
E00ED7FB
330
E00DEA5D
100
AcDbEntity
  8
JISSEN
100
AcDbLine
 10
262.0188527294957
 20
32.13970644355482
 30
0.0
 11
262.0188527294957
 21
32.83970644355555
 31
0.0
  0
LINE
  5
E00ED7FC
330
E00DEA5D
100
AcDbEntity
  8
JISSEN
100
AcDbLine
 10
260.5188527294957
 20
32.83970644355555
 30
0.0
 11
259.6912880014969
 21
32.83970644355555
 31
0.0
  0
LINE
  5
E00ED7FD
330
E00DEA5D
100
AcDbEntity
  8
JISSEN
100
AcDbLine
 10
262.0188527294957
 20
34.03970644355446
 30
0.0
 11
262.0188527294957
 21
33.33970644355555
 31
0.0
  0
LINE
  5
E00ED7FE
330
E00DEA5D
100
AcDbEntity
  8
JISSEN
100
AcDbLine
 10
260.5188527294957
 20
34.03970644355446
 30
0.0
 11
260.5188527294957
 21
33.33970644355555
 31
0.0
  0
LINE
  5
E00ED7FF
330
E00DEA5D
100
AcDbEntity
  8
JISSEN
100
AcDbLine
 10
259.6912880014969
 20
34.03970644355446
 30
0.0
 11
259.6912880014969
 21
32.83970644355555
 31
0.0
  0
LINE
  5
E00ED800
330
E00DEA5D
100
AcDbEntity
  8
JISSEN
100
AcDbLine
 10
262.3689542547471
 20
34.03970644355446
 30
0.0
 11
263.5277320304957
 21
34.03970644355446
 31
0.0
  0
LINE
  5
E00ED801
330
E00DEA5D
100
AcDbEntity
  8
JISSEN
100
AcDbLine
 10
262.3689542547471
 20
32.83970644355555
 30
0.0
 11
263.5277320304957
 21
32.83970644355555
 31
0.0
  0
LINE
  5
E00ED802
330
E00DEA5D
100
AcDbEntity
  8
JISSEN
100
AcDbLine
 10
263.5277320304957
 20
34.03970644355446
 30
0.0
 11
263.5277320304957
 21
32.83970644355555
 31
0.0
  0
LINE
  5
E00ED803
330
E00DEA5D
100
AcDbEntity
  8
JISSEN
100
AcDbLine
 10
262.3689542547471
 20
32.83970644355555
 30
0.0
 11
262.3689542547471
 21
34.03970644355446
 31
0.0
  0
LINE
  5
E00ED804
330
E00DEA5D
100
AcDbEntity
  8
JISSEN
100
AcDbLine
 10
265.480706156395
 20
35.43970644355591
 30
0.0
 11
265.480706156395
 21
35.93970644355591
 31
0.0
  0
ARC
  5
E00ED805
330
E00DEA5D
100
AcDbEntity
  8
JISSEN
100
AcDbCircle
 10
254.410596374293
 20
44.49254976710814
 30
0.0
 40
1.5
100
AcDbArc
 50
261.9999999999498
 51
270.0
  0
LINE
  5
E00ED806
330
E00DEA5D
100
AcDbEntity
  8
JISSEN
100
AcDbLine
 10
254.4225632422939
 20
42.99254976710631
 30
0.0
 11
254.4105963742939
 21
42.99254976710631
 31
0.0
  0
LINE
  5
E00ED807
330
E00DEA5D
100
AcDbEntity
  8
JISSEN
100
AcDbLine
 10
281.8183496816453
 20
34.03970644355446
 30
0.0
 11
279.7279594010468
 21
34.03970644355446
 31
0.0
  0
LINE
  5
E00ED808
330
E00DEA5D
100
AcDbEntity
  8
JISSEN
100
AcDbLine
 10
271.0557061563966
 20
42.99254976710813
 30
0.0
 11
287.6888490704976
 21
42.99254976710813
 31
0.0
  0
LINE
  5
E00ED809
330
E00DEA5D
100
AcDbEntity
  8
JISSEN
100
AcDbLine
 10
278.4557061563972
 20
32.13970644355482
 30
0.0
 11
282.3565910774958
 21
32.13970644355482
 31
0.0
  0
LINE
  5
E00ED80A
330
E00DEA5D
100
AcDbEntity
  8
JISSEN
100
AcDbLine
 10
281.8183496816453
 20
32.83970644355555
 30
0.0
 11
279.7279594010468
 21
32.83970644355555
 31
0.0
  0
LINE
  5
E00ED80B
330
E00DEA5D
100
AcDbEntity
  8
JISSEN
100
AcDbLine
 10
279.105706156395
 20
34.03970644355446
 30
0.0
 11
279.1057061563955
 21
42.99254976710631
 31
0.0
  0
LINE
  5
E00ED80C
330
E00DEA5D
100
AcDbEntity
  8
JISSEN
100
AcDbLine
 10
274.3057061563962
 20
38.43970644355591
 30
0.0
 11
267.8057061563962
 21
38.43970644355591
 31
0.0
  0
LINE
  5
E00ED80D
330
E00DEA5D
100
AcDbEntity
  8
JISSEN
100
AcDbLine
 10
267.5557061563962
 20
38.18970644355591
 30
0.0
 11
274.5557061563962
 21
38.18970644355591
 31
0.0
  0
LINE
  5
E00ED80E
330
E00DEA5D
100
AcDbEntity
  8
JISSEN
100
AcDbLine
 10
273.1277007677452
 20
34.03970644355446
 30
0.0
 11
268.9837115450972
 21
34.03970644355446
 31
0.0
  0
LINE
  5
E00ED80F
330
E00DEA5D
100
AcDbEntity
  8
JISSEN
100
AcDbLine
 10
275.2552314588973
 20
31.63970644355482
 30
0.0
 11
266.2557061563965
 21
31.63970644355482
 31
0.0
  0
LINE
  5
E00ED810
330
E00DEA5D
100
AcDbEntity
  8
JISSEN
100
AcDbLine
 10
275.2552314588973
 20
32.78970644355446
 30
0.0
 11
266.2557061563965
 21
32.78970644355446
 31
0.0
  0
LINE
  5
E00ED811
330
E00DEA5D
100
AcDbEntity
  8
JISSEN
100
AcDbLine
 10
273.1277007677452
 20
32.83970644355555
 30
0.0
 11
268.9837115450972
 21
32.83970644355555
 31
0.0
  0
LINE
  5
E00ED812
330
E00DEA5D
100
AcDbEntity
  8
JISSEN
100
AcDbLine
 10
268.0122929338957
 20
34.03970644355446
 30
0.0
 11
268.9837115450972
 21
34.03970644355446
 31
0.0
  0
LINE
  5
E00ED813
330
E00DEA5D
100
AcDbEntity
  8
JISSEN
100
AcDbLine
 10
267.2450450577451
 20
34.03970644355446
 30
0.0
 11
268.0122929338957
 21
34.03970644355446
 31
0.0
  0
LINE
  5
E00ED814
330
E00DEA5D
100
AcDbEntity
  8
JISSEN
100
AcDbLine
 10
266.2557061563965
 20
31.63970644355482
 30
0.0
 11
266.2557061563965
 21
32.78970644355446
 31
0.0
  0
LINE
  5
E00ED815
330
E00DEA5D
100
AcDbEntity
  8
JISSEN
100
AcDbLine
 10
268.0122929338957
 20
32.83970644355555
 30
0.0
 11
268.9837115450972
 21
32.83970644355555
 31
0.0
  0
LINE
  5
E00ED816
330
E00DEA5D
100
AcDbEntity
  8
JISSEN
100
AcDbLine
 10
266.4057061563961
 20
32.78970644355446
 30
0.0
 11
266.4057061563961
 21
32.83970644355555
 31
0.0
  0
LINE
  5
E00ED817
330
E00DEA5D
100
AcDbEntity
  8
JISSEN
100
AcDbLine
 10
267.2450450577451
 20
32.83970644355555
 30
0.0
 11
268.0122929338957
 21
32.83970644355555
 31
0.0
  0
LINE
  5
E00ED818
330
E00DEA5D
100
AcDbEntity
  8
JISSEN
100
AcDbLine
 10
268.9837115450972
 20
34.03970644355446
 30
0.0
 11
268.9837115450972
 21
32.83970644355555
 31
0.0
  0
LINE
  5
E00ED819
330
E00DEA5D
100
AcDbEntity
  8
JISSEN
100
AcDbLine
 10
267.2450450577451
 20
32.83970644355555
 30
0.0
 11
267.2450450577451
 21
34.03970644355446
 31
0.0
  0
LINE
  5
E00ED81A
330
E00DEA5D
100
AcDbEntity
  8
JISSEN
100
AcDbLine
 10
267.5557061563957
 20
35.93970644355591
 30
0.0
 11
267.5557061563962
 21
38.18970644355591
 31
0.0
  0
LINE
  5
E00ED81B
330
E00DEA5D
100
AcDbEntity
  8
JISSEN
100
AcDbLine
 10
267.5557061563962
 20
38.18970644355591
 30
0.0
 11
267.8057061563962
 21
38.43970644355591
 31
0.0
  0
LINE
  5
E00ED81C
330
E00DEA5D
100
AcDbEntity
  8
JISSEN
100
AcDbLine
 10
277.8057061563957
 20
35.43970644355591
 30
0.0
 11
277.8057061563957
 21
34.03970644355446
 31
0.0
  0
LINE
  5
E00ED81D
330
E00DEA5D
100
AcDbEntity
  8
JISSEN
100
AcDbLine
 10
278.4551671949464
 20
34.03970644355446
 30
0.0
 11
274.8663672550973
 21
34.03970644355446
 31
0.0
  0
LINE
  5
E00ED81E
330
E00DEA5D
100
AcDbEntity
  8
JISSEN
100
AcDbLine
 10
278.4551671949464
 20
32.83970644355555
 30
0.0
 11
274.8663672550973
 21
32.83970644355555
 31
0.0
  0
LINE
  5
E00ED81F
330
E00DEA5D
100
AcDbEntity
  8
JISSEN
100
AcDbLine
 10
273.1277007677452
 20
34.03970644355446
 30
0.0
 11
274.0991193789449
 21
34.03970644355446
 31
0.0
  0
LINE
  5
E00ED820
330
E00DEA5D
100
AcDbEntity
  8
JISSEN
100
AcDbLine
 10
274.0991193789449
 20
34.03970644355446
 30
0.0
 11
274.8663672550973
 21
34.03970644355446
 31
0.0
  0
LINE
  5
E00ED821
330
E00DEA5D
100
AcDbEntity
  8
JISSEN
100
AcDbLine
 10
273.1277007677452
 20
32.83970644355555
 30
0.0
 11
274.0991193789449
 21
32.83970644355555
 31
0.0
  0
LINE
  5
E00ED822
330
E00DEA5D
100
AcDbEntity
  8
JISSEN
100
AcDbLine
 10
275.7057061563972
 20
32.83970644355555
 30
0.0
 11
275.7057061563972
 21
32.78970644355446
 31
0.0
  0
LINE
  5
E00ED823
330
E00DEA5D
100
AcDbEntity
  8
JISSEN
100
AcDbLine
 10
275.855706156395
 20
32.78970644355446
 30
0.0
 11
275.2552314588973
 21
32.78970644355446
 31
0.0
  0
LINE
  5
E00ED824
330
E00DEA5D
100
AcDbEntity
  8
JISSEN
100
AcDbLine
 10
275.855706156395
 20
31.63970644355482
 30
0.0
 11
275.2552314588973
 21
31.63970644355482
 31
0.0
  0
LINE
  5
E00ED825
330
E00DEA5D
100
AcDbEntity
  8
JISSEN
100
AcDbLine
 10
275.855706156395
 20
32.78970644355446
 30
0.0
 11
275.855706156395
 21
31.63970644355482
 31
0.0
  0
LINE
  5
E00ED826
330
E00DEA5D
100
AcDbEntity
  8
JISSEN
100
AcDbLine
 10
274.0991193789449
 20
32.83970644355555
 30
0.0
 11
274.8663672550973
 21
32.83970644355555
 31
0.0
  0
LINE
  5
E00ED827
330
E00DEA5D
100
AcDbEntity
  8
JISSEN
100
AcDbLine
 10
273.1277007677452
 20
32.83970644355555
 30
0.0
 11
273.1277007677452
 21
34.03970644355446
 31
0.0
  0
LINE
  5
E00ED828
330
E00DEA5D
100
AcDbEntity
  8
JISSEN
100
AcDbLine
 10
274.8663672550973
 20
34.03970644355446
 30
0.0
 11
274.8663672550973
 21
32.83970644355555
 31
0.0
  0
LINE
  5
E00ED829
330
E00DEA5D
100
AcDbEntity
  8
JISSEN
100
AcDbLine
 10
278.4551671949464
 20
34.03970644355446
 30
0.0
 11
279.7279594010468
 21
34.03970644355446
 31
0.0
  0
LINE
  5
E00ED82A
330
E00DEA5D
100
AcDbEntity
  8
JISSEN
100
AcDbLine
 10
278.4551671949464
 20
32.83970644355555
 30
0.0
 11
279.7279594010468
 21
32.83970644355555
 31
0.0
  0
LINE
  5
E00ED82B
330
E00DEA5D
100
AcDbEntity
  8
JISSEN
100
AcDbLine
 10
277.4560025516965
 20
32.83970644355555
 30
0.0
 11
278.4557061563972
 21
32.13970644355482
 31
0.0
  0
LINE
  5
E00ED82C
330
E00DEA5D
100
AcDbEntity
  8
JISSEN
100
AcDbLine
 10
278.4551671949464
 20
32.83970644355555
 30
0.0
 11
278.4551671949464
 21
34.03970644355446
 31
0.0
  0
LINE
  5
E00ED82D
330
E00DEA5D
100
AcDbEntity
  8
JISSEN
100
AcDbLine
 10
279.7279594010468
 20
34.03970644355446
 30
0.0
 11
279.7279594010468
 21
32.83970644355555
 31
0.0
  0
LINE
  5
E00ED82E
330
E00DEA5D
100
AcDbEntity
  8
JISSEN
100
AcDbLine
 10
276.6307061563965
 20
35.93970644355591
 30
0.0
 11
275.9332798149952
 21
35.93970644355591
 31
0.0
  0
LINE
  5
E00ED82F
330
E00DEA5D
100
AcDbEntity
  8
JISSEN
100
AcDbLine
 10
274.5557061563962
 20
38.18970644355591
 30
0.0
 11
274.5557061563957
 21
35.93970644355591
 31
0.0
  0
LINE
  5
E00ED830
330
E00DEA5D
100
AcDbEntity
  8
JISSEN
100
AcDbLine
 10
274.3057061563962
 20
38.43970644355591
 30
0.0
 11
274.5557061563962
 21
38.18970644355591
 31
0.0
  0
LINE
  5
E00ED831
330
E00DEA5D
100
AcDbEntity
  8
JISSEN
100
AcDbLine
 10
276.6307061563965
 20
35.93970644355591
 30
0.0
 11
276.6307061563965
 21
35.43970644355591
 31
0.0
  0
LINE
  5
E00ED832
330
E00DEA5D
100
AcDbEntity
  8
JISSEN
100
AcDbLine
 10
277.8057061563957
 20
35.43970644355591
 30
0.0
 11
276.961288612996
 21
35.43970644355591
 31
0.0
  0
LINE
  5
E00ED833
330
E00DEA5D
100
AcDbEntity
  8
JISSEN
100
AcDbLine
 10
280.5057061563969
 20
42.99254976710631
 30
0.0
 11
280.5057061563965
 21
34.03970644355446
 31
0.0
  0
LINE
  5
E00ED834
330
E00DEA5D
100
AcDbEntity
  8
JISSEN
100
AcDbLine
 10
281.8183496816453
 20
34.03970644355446
 30
0.0
 11
282.2561153087462
 21
34.03970644355446
 31
0.0
  0
LINE
  5
E00ED835
330
E00DEA5D
100
AcDbEntity
  8
JISSEN
100
AcDbLine
 10
282.3565910774958
 20
34.03970644355446
 30
0.0
 11
282.2561153087462
 21
34.03970644355446
 31
0.0
  0
LINE
  5
E00ED836
330
E00DEA5D
100
AcDbEntity
  8
JISSEN
100
AcDbLine
 10
281.8183496816453
 20
32.83970644355555
 30
0.0
 11
282.2561153087462
 21
32.83970644355555
 31
0.0
  0
LINE
  5
E00ED837
330
E00DEA5D
100
AcDbEntity
  8
JISSEN
100
AcDbLine
 10
282.3565910774958
 20
33.33970644355555
 30
0.0
 11
282.4557061563972
 21
33.33970644355555
 31
0.0
  0
LINE
  5
E00ED838
330
E00DEA5D
100
AcDbEntity
  8
JISSEN
100
AcDbLine
 10
282.3565910774958
 20
32.83970644355555
 30
0.0
 11
282.2561153087462
 21
32.83970644355555
 31
0.0
  0
LINE
  5
E00ED839
330
E00DEA5D
100
AcDbEntity
  8
JISSEN
100
AcDbLine
 10
282.4557061563972
 20
32.13970644355482
 30
0.0
 11
282.3565910774958
 21
32.13970644355482
 31
0.0
  0
LINE
  5
E00ED83A
330
E00DEA5D
100
AcDbEntity
  8
JISSEN
100
AcDbLine
 10
282.4557061563972
 20
33.33970644355555
 30
0.0
 11
282.4557061563972
 21
32.13970644355482
 31
0.0
  0
LINE
  5
E00ED83B
330
E00DEA5D
100
AcDbEntity
  8
JISSEN
100
AcDbLine
 10
282.3565910774958
 20
32.13970644355482
 30
0.0
 11
282.3565910774958
 21
32.83970644355555
 31
0.0
  0
LINE
  5
E00ED83C
330
E00DEA5D
100
AcDbEntity
  8
JISSEN
100
AcDbLine
 10
281.8183496816453
 20
32.83970644355555
 30
0.0
 11
281.8183496816453
 21
34.03970644355446
 31
0.0
  0
LINE
  5
E00ED83D
330
E00DEA5D
100
AcDbEntity
  8
JISSEN
100
AcDbLine
 10
282.2561153087462
 20
34.03970644355446
 30
0.0
 11
282.2561153087462
 21
32.83970644355555
 31
0.0
  0
LINE
  5
E00ED83E
330
E00DEA5D
100
AcDbEntity
  8
JISSEN
100
AcDbLine
 10
282.3565910774958
 20
34.03970644355446
 30
0.0
 11
282.3565910774958
 21
33.33970644355555
 31
0.0
  0
LINE
  5
E00ED83F
330
E00DEA5D
100
AcDbEntity
  8
JISSEN
100
AcDbLine
 10
287.6888490704976
 20
42.99254976710813
 30
0.0
 11
287.7008159384976
 21
42.99254976710813
 31
0.0
  0
ARC
  5
E00ED840
330
E00DEA5D
100
AcDbEntity
  8
JISSEN
100
AcDbCircle
 10
287.7008159384985
 20
44.49254976710814
 30
0.0
 40
1.5
100
AcDbArc
 50
270.0
 51
278.0000000000501
  0
TEXT
  5
E00ED841
330
E00DEA5D
100
AcDbEntity
  8
TEXT
100
AcDbText
 10
291.9805837020297
 20
4.698249185034619
 30
0.0
 40
3.0
  1
尺度　1/1
  7
K
 72
     4
 11
300.4520122734583
 21
5.983963470748904
 31
0.0
100
AcDbText
  0
LINE
  5
E00ED842
330
E00DEA5D
100
AcDbEntity
  8
SUNPOU
100
AcDbLine
 10
303.555706156473
 20
45.99254976710813
 30
0.0
 11
328.1075742610259
 21
45.99254976710813
 31
0.0
  0
ARC
  5
E00ED843
330
E00DEA5D
100
AcDbEntity
  8
JISSEN
100
AcDbCircle
 10
301.8172664342981
 20
46.98140128900718
 30
0.0
 40
1.999999999999996
100
AcDbArc
 50
278.0000000000501
 51
330.3681085059147
  0
LINE
  5
E00ED844
330
E00DEA5D
100
AcDbEntity
  8
JISSEN
100
AcDbLine
 39
1680.364539346804
 10
265.8761367097374
 20
168.6503687745052
 30
0.0
 11
271.0557061563966
 21
169.1700580166445
 31
0.0
  0
LINE
  5
E00ED845
330
E00DEA5D
100
AcDbEntity
  8
JISSEN
100
AcDbLine
 39
1680.364539346804
 10
265.8761367097374
 20
168.0936727028996
 30
0.0
 11
271.0557061563966
 21
168.6133619450385
 31
0.0
  0
LINE
  5
E00ED846
330
E00DEA5D
100
AcDbEntity
  8
JISSEN
100
AcDbLine
 39
1680.364539346804
 10
268.5923775059953
 20
165.9229012958687
 30
0.0
 11
271.0557061563966
 21
166.1700580166445
 31
0.0
  0
LINE
  5
E00ED847
330
E00DEA5D
100
AcDbEntity
  8
JISSEN
100
AcDbLine
 39
1680.364539346804
 10
270.4327723063612
 20
165.550860220951
 30
0.0
 11
271.0557061563966
 21
165.6133619450349
 31
0.0
  0
LINE
  5
E00ED848
330
E00DEA5D
100
AcDbEntity
  8
JISSEN
100
AcDbLine
 39
1680.364539346804
 10
274.1407816864326
 20
165.9229012958687
 30
0.0
 11
275.5946737701357
 21
166.068776755772
 31
0.0
  0
LINE
  5
E00ED849
330
E00DEA5D
100
AcDbEntity
  8
JISSEN
100
AcDbLine
 39
1680.364539346804
 10
281.9613216289957
 20
166.7075708553232
 30
0.0
 11
285.9379540445207
 21
167.1065640742723
 31
0.0
  0
LINE
  5
E00ED84A
330
E00DEA5D
100
AcDbEntity
  8
JISSEN
100
AcDbLine
 39
1680.364539346804
 10
281.7998519519402
 20
167.2480659559895
 30
0.0
 11
285.9482388843527
 21
167.6642920696091
 31
0.0
  0
LINE
  5
E00ED84B
330
E00DEA5D
100
AcDbEntity
  8
JISSEN
100
AcDbLine
 39
1680.364539346804
 10
281.790259238212
 20
169.6904074047439
 30
0.0
 11
286.0057061566365
 21
170.1133619450531
 31
0.0
  0
LINE
  5
E00ED84C
330
E00DEA5D
100
AcDbEntity
  8
JISSEN
100
AcDbLine
 39
1680.364539346804
 10
281.790259238212
 20
170.2471034763512
 30
0.0
 11
286.0057061566365
 21
170.6700580166609
 31
0.0
  0
LINE
  5
E00ED84D
330
E00DEA5D
100
AcDbEntity
  8
JISSEN
100
AcDbLine
 39
1680.364539346804
 10
256.1057061563523
 20
170.6700580167191
 30
0.0
 11
256.1057061563504
 21
170.1133619451131
 31
0.0
  0
LINE
  5
E00ED84E
330
E00DEA5D
100
AcDbEntity
  8
SAISEN
100
AcDbLine
 39
1680.364539346804
 10
256.9057061563961
 20
176.1729016180681
 30
0.0
 11
256.4057061563961
 21
175.3068762142931
 31
0.0
  0
LINE
  5
E00ED84F
330
E00DEA5D
100
AcDbEntity
  8
JISSEN
100
AcDbLine
 39
1680.364539346804
 10
256.105706156395
 20
170.6700580166427
 30
0.0
 11
256.1057061563959
 21
170.1133619450367
 31
0.0
  0
LINE
  5
E00ED850
330
E00DEA5D
100
AcDbEntity
  8
JISSEN
100
AcDbLine
 39
1680.364539346804
 10
256.1057061563959
 20
170.1133619450367
 30
0.0
 11
260.321153074581
 21
170.5363164853223
 31
0.0
  0
LINE
  5
E00ED851
330
E00DEA5D
100
AcDbEntity
  8
JISSEN
100
AcDbLine
 39
1680.364539346804
 10
256.1729557830599
 20
167.1201093992208
 30
0.0
 11
260.321153074581
 21
167.536316485326
 31
0.0
  0
LINE
  5
E00ED852
330
E00DEA5D
100
AcDbEntity
  8
JISSEN
100
AcDbLine
 39
1680.364539346804
 10
256.4020552771316
 20
167.6997920421374
 30
0.0
 11
260.3211530745813
 21
168.0930125569314
 31
0.0
  0
LINE
  5
E00ED853
330
E00DEA5D
100
AcDbEntity
  8
JISSEN
100
AcDbLine
 39
1680.364539346804
 10
271.0557061566376
 20
168.6133619450568
 30
0.0
 11
276.2352756030301
 21
169.1330511871685
 31
0.0
  0
LINE
  5
E00ED854
330
E00DEA5D
100
AcDbEntity
  8
JISSEN
100
AcDbLine
 39
1680.364539346804
 10
271.0557061566376
 20
169.1700580166627
 30
0.0
 11
276.2352756030301
 21
169.6897472587751
 31
0.0
  0
LINE
  5
E00ED855
330
E00DEA5D
100
AcDbEntity
  8
JISSEN
100
AcDbLine
 39
1680.364539346804
 10
271.0557061566376
 20
165.6133619450531
 30
0.0
 11
271.6797318510196
 21
165.6759732187369
 31
0.0
  0
LINE
  5
E00ED856
330
E00DEA5D
100
AcDbEntity
  8
JISSEN
100
AcDbLine
 39
1680.364539346804
 10
271.0557061566376
 20
166.1700580166627
 30
0.0
 11
276.0828047523552
 21
166.6744491801121
 31
0.0
  0
LINE
  5
E00ED857
330
E00DEA5D
100
AcDbEntity
  8
JISSEN
100
AcDbLine
 39
1680.364539346804
 10
286.0057061563983
 20
170.6700580166427
 30
0.0
 11
286.0057061563974
 21
170.1133619450367
 31
0.0
  0
LINE
  5
E00ED858
330
E00DEA5D
100
AcDbEntity
  8
SAISEN
100
AcDbLine
 39
1680.364539346804
 10
285.2057061563972
 20
176.1729016180681
 30
0.0
 11
285.7057061563972
 21
175.3068762142931
 31
0.0
  0
LINE
  5
E00ED859
330
E00DEA5D
100
AcDbEntity
  8
JISSEN
100
AcDbLine
 39
1680.364539346804
 10
286.005706156441
 20
170.6700580167191
 30
0.0
 11
286.0057061564429
 21
170.1133619451131
 31
0.0
  0
LINE
  5
E00ED85A
330
E00DEA5D
100
AcDbEntity
  8
JISSEN
100
AcDbLine
 39
1680.364539346804
 10
280.430706156393
 20
146.8700579723165
 30
0.0
 11
279.1807061563921
 21
146.8700579723165
 31
0.0
  0
LINE
  5
E00ED85B
330
E00DEA5D
100
AcDbEntity
  8
JISSEN
100
AcDbLine
 39
1680.364539346804
 10
262.8529838732973
 20
146.8700579723165
 30
0.0
 11
264.1029838732982
 21
146.8700579723165
 31
0.0
  0
ARC
  5
E00ED85D
330
E00DEA5D
100
AcDbEntity
  8
JISSEN
100
AcDbCircle
 39
1680.364539346804
 10
258.9057061563961
 20
184.1729016311685
 30
0.0
 40
0.9999999999997548
100
AcDbArc
 50
270.0
 51
329.999999999999
  0
LINE
  5
E00ED865
330
E00DEA5D
100
AcDbEntity
  8
SAISEN
100
AcDbLine
 39
1680.364539346804
 10
280.5537152743944
 20
185.4729016311714
 30
0.0
 11
281.7535107018073
 21
184.2731062037594
 31
0.0
  0
LINE
  5
E00ED866
330
E00DEA5D
100
AcDbEntity
  8
JISSEN
100
AcDbLine
 39
1680.364539346804
 10
280.5537152743935
 20
185.4729016311714
 30
0.0
 11
281.7472686564032
 21
185.4729016311714
 31
0.0
  0
LINE
  5
E00ED867
330
E00DEA5D
100
AcDbEntity
  8
JISSEN
100
AcDbLine
 39
1680.364539346804
 10
271.0557061563966
 20
185.4729016311896
 30
0.0
 11
281.7472686564032
 21
185.4729016311714
 31
0.0
  0
LINE
  5
E00ED868
330
E00DEA5D
100
AcDbEntity
  8
SAISEN
100
AcDbLine
 39
1680.364539346804
 10
280.5537152743944
 20
185.472901631175
 30
0.0
 11
281.7535107018083
 21
184.273106203763
 31
0.0
  0
ARC
  5
E00ED869
330
E00DEA5D
100
AcDbEntity
  8
JISSEN
100
AcDbCircle
 39
1680.364539346804
 10
283.2057061563972
 20
184.1729016311685
 30
0.0
 40
0.9999999999997548
100
AcDbArc
 50
210.0000000000009
 51
270.0
  0
LINE
  5
E00ED86C
330
E00DEA5D
100
AcDbEntity
  8
SAISEN
100
AcDbLine
 39
1680.364539346804
 10
261.5576970383989
 20
185.472901631175
 30
0.0
 11
260.3579016109851
 21
184.273106203763
 31
0.0
  0
LINE
  5
E00ED86D
330
E00DEA5D
100
AcDbEntity
  8
JISSEN
100
AcDbLine
 39
1680.364539346804
 10
271.0557061563966
 20
185.4729016311896
 30
0.0
 11
260.3641436563902
 21
185.4729016311714
 31
0.0
  0
LINE
  5
E00ED86E
330
E00DEA5D
100
AcDbEntity
  8
JISSEN
100
AcDbLine
 39
1680.364539346804
 10
261.5576970383998
 20
185.4729016311714
 30
0.0
 11
260.3641436563902
 21
185.4729016311714
 31
0.0
  0
LINE
  5
E00ED86F
330
E00DEA5D
100
AcDbEntity
  8
SAISEN
100
AcDbLine
 39
1680.364539346804
 10
261.5576970383989
 20
185.4729016311714
 30
0.0
 11
260.3579016109859
 21
184.2731062037594
 31
0.0
  0
LINE
  5
E00ED870
330
E00DEA5D
100
AcDbEntity
  8
JISSEN
100
AcDbLine
 10
303.1252927068969
 20
160.0759287769698
 30
0.0
 11
287.8659600640956
 21
157.9313694302683
 31
0.0
  0
LINE
  5
E00ED871
330
E00DEA5D
100
AcDbEntity
  8
JISSEN
100
AcDbLine
 10
271.0557061563966
 20
160.9229012958687
 30
0.0
 11
303.5557061563965
 21
160.9229012958687
 31
0.0
  0
LINE
  5
E00ED872
330
E00DEA5D
100
AcDbEntity
  8
SUNPOU
100
AcDbLine
 10
287.7314578443143
 20
170.9229012958686
 30
0.0
 11
328.1075742610245
 21
170.9229012958669
 31
0.0
  0
LINE
  5
E00ED873
330
E00DEA5D
100
AcDbEntity
  8
SUNPOU
100
AcDbLine
 10
287.0617834225283
 20
160.9229012958687
 30
0.0
 11
328.1075742610259
 21
160.9229012958687
 31
0.0
  0
HATCH
  5
E00ED874
330
E00DEA5D
100
AcDbEntity
  8
SUNPOU
100
AcDbHatch
 10
0.0
 20
0.0
 30
0.0
210
0.0
220
0.0
230
1.0
  2
ANSI31
 70
     0
 71
     0
 91
        2
 92
        5
 93
        5
 72
     1
 10
238.5557061563207
 20
160.9229012958687
 11
246.0557061563969
 21
160.9229012958687
 72
     1
 10
246.0557061563966
 20
160.9229012958687
 11
246.0557061563966
 21
170.9229012958687
 72
     1
 10
246.0557061563966
 20
170.9229012958687
 11
214.0038380517692
 21
170.9229012958669
 72
     4
 94
        3
 73
     0
 74
     0
 95
       11
 96
        7
 40
0.0
 40
0.0
 40
0.0
 40
0.0
 40
3.264692203133994
 40
6.15697472568029
 40
8.955271668736928
 40
10.85738683396026
 40
10.85738683396026
 40
10.85738683396026
 40
10.85738683396026
 10
214.0038380517679
 20
170.9229012958687
 10
214.6789387400543
 20
169.9215023446624
 10
215.9521300905524
 20
168.03293593495
 10
213.6862853742085
 20
165.1815649018819
 10
215.8894025407647
 20
162.5552344041382
 10
214.547048350031
 20
161.3931584309495
 10
214.0038380517679
 20
160.9229012958687
 72
     1
 10
214.0038380517684
 20
160.9229012958687
 11
238.5557061563208
 21
160.9229012958687
 97
        0
 92
        5
 93
        5
 72
     1
 10
296.0557061563966
 20
170.9229012958687
 11
296.0557061563966
 21
160.9229012958687
 72
     1
 10
296.0557061563966
 20
160.9229012958687
 11
303.5557061564726
 21
160.9229012958687
 72
     1
 10
303.555706156473
 20
160.9229012958687
 11
328.1075742610261
 21
160.9229012958687
 72
     4
 94
        3
 73
     0
 74
     0
 95
       11
 96
        7
 40
0.0
 40
0.0
 40
0.0
 40
0.0
 40
1.902115165223333
 40
4.700412108279971
 40
7.592694630826267
 40
10.85738683396026
 40
10.85738683396026
 40
10.85738683396026
 40
10.85738683396026
 10
328.1075742610254
 20
160.9229012958687
 10
327.5643639627627
 20
161.3931584309495
 10
326.2220097720291
 20
162.5552344041382
 10
328.4251269385857
 20
165.1815649018819
 10
326.1592822222413
 20
168.03293593495
 10
327.4324735727394
 20
169.9215023446624
 10
328.1075742610254
 20
170.9229012958687
 72
     1
 10
328.1075742610245
 20
170.9229012958669
 11
296.0557061563966
 21
170.9229012958687
 97
        0
 75
     0
 76
     1
 52
0.0
 41
10.0
 77
     0
 78
     1
 53
45.0
 43
366.0253214865932
 44
-2497.575742424248
 45
-0.8838834764831842
 46
0.8838834764831844
 79
     0
 47
0.1102095095325799
 98
        2
 10
238.1597523296294
 20
164.6230477122765
 10
305.8575390063614
 20
167.3782844463159
  0
LINE
  5
E00ED875
330
E00DEA5D
100
AcDbEntity
  8
NITEN
100
AcDbLine
 10
290.5557061563967
 20
212.7332294119544
 30
0.0
 11
290.5557061563971
 21
229.9729016311678
 31
0.0
  0
LINE
  5
E00ED876
330
E00DEA5D
100
AcDbEntity
  8
NITEN
100
AcDbLine
 10
251.5557061563967
 20
212.7332294119544
 30
0.0
 11
251.5557061563967
 21
229.9729016311678
 31
0.0
  0
LINE
  5
E00ED877
330
E00DEA5D
100
AcDbEntity
  8
SUNPOU
100
AcDbLine
 10
254.3799544684785
 20
170.9229012958687
 30
0.0
 11
214.0038380517688
 21
170.9229012958669
 31
0.0
  0
LINE
  5
E00ED878
330
E00DEA5D
100
AcDbEntity
  8
SUNPOU
100
AcDbLine
 10
255.0496288902682
 20
160.9229012958687
 30
0.0
 11
214.0038380517679
 21
160.9229012958687
 31
0.0
  0
SPLINE
  5
E00ED879
330
E00DEA5D
100
AcDbEntity
  8
SUNPOU
100
AcDbSpline
210
0.0
220
0.0
230
1.0
 70
     8
 71
     3
 72
    11
 73
     7
 74
     5
 42
0.0000000001
 43
0.0000000001
 44
0.0000000001
 40
0.0
 40
0.0
 40
0.0
 40
0.0
 40
3.264692203133994
 40
6.15697472568029
 40
8.955271668736928
 40
10.85738683396026
 40
10.85738683396026
 40
10.85738683396026
 40
10.85738683396026
 10
214.0038380517679
 20
170.9229012958687
 30
0.0
 10
214.6789387400543
 20
169.9215023446635
 30
0.0
 10
215.9521300905523
 20
168.0329359349499
 30
0.0
 10
213.6862853742081
 20
165.1815649018806
 30
0.0
 10
215.8894025407647
 20
162.5552344041397
 30
0.0
 10
214.5470483500306
 20
161.3931584309507
 30
0.0
 10
214.0038380517679
 20
160.9229012958687
 30
0.0
 11
214.0038380517679
 21
170.9229012958687
 31
0.0
 11
215.2331784293318
 21
167.8985108750905
 31
0.0
 11
214.460994975362
 21
165.1112127382486
 31
0.0
 11
215.1903015071701
 21
162.4096247303944
 31
0.0
 11
214.0038380517679
 21
160.9229012958687
 31
0.0
  0
LINE
  5
E00ED884
330
E00DEA5D
100
AcDbEntity
  8
JISSEN
100
AcDbLine
 39
240.0520776831561
 10
256.9057061563961
 20
176.1729016180718
 30
0.0
 11
271.0557061563966
 21
176.17290161807
 31
0.0
  0
LINE
  5
E00ED885
330
E00DEA5D
100
AcDbEntity
  8
JISSEN
100
AcDbLine
 39
240.0520776831561
 10
256.4057061563516
 20
170.6700580167155
 30
0.0
 11
256.1057061563523
 21
170.6700580167191
 31
0.0
  0
LINE
  5
E00ED886
330
E00DEA5D
100
AcDbEntity
  8
JISSEN
100
AcDbLine
 39
240.0520776831561
 10
256.4057061563506
 20
170.6700580167155
 30
0.0
 11
256.1057061563514
 21
170.6700580167191
 31
0.0
  0
LINE
  5
E00ED887
330
E00DEA5D
100
AcDbEntity
  8
JISSEN
100
AcDbLine
 39
240.0520776831561
 10
285.2057061563972
 20
176.1729016180718
 30
0.0
 11
271.0557061563966
 21
176.17290161807
 31
0.0
  0
LINE
  5
E00ED888
330
E00DEA5D
100
AcDbEntity
  8
JISSEN
100
AcDbLine
 39
240.0520776831561
 10
285.7057061564427
 20
170.6700580167155
 30
0.0
 11
286.005706156442
 21
170.6700580167191
 31
0.0
  0
LINE
  5
E00ED889
330
E00DEA5D
100
AcDbEntity
  8
JISSEN
100
AcDbLine
 39
240.0520776831561
 10
285.7057061564418
 20
170.6700580167155
 30
0.0
 11
286.005706156441
 21
170.6700580167191
 31
0.0
  0
ARC
  5
E00ED88A
330
E00DEA5D
100
AcDbEntity
  8
JISSEN
100
AcDbCircle
 39
240.0520776831561
 10
262.8529838732982
 20
147.0700579723172
 30
0.0
 40
0.2000000000007276
100
AcDbArc
 50
180.0
 51
270.0
  0
ARC
  5
E00ED88B
330
E00DEA5D
100
AcDbEntity
  8
JISSEN
100
AcDbCircle
 39
240.0520776831561
 10
264.1029838732982
 20
147.0700579723172
 30
0.0
 40
0.2000000000007276
100
AcDbArc
 50
270.0
 51
0.0
  0
ARC
  5
E00ED88C
330
E00DEA5D
100
AcDbEntity
  8
JISSEN
100
AcDbCircle
 39
240.0520776831561
 10
279.1807061563921
 20
147.0700579723172
 30
0.0
 40
0.2000000000007276
100
AcDbArc
 50
180.0
 51
270.0
  0
ARC
  5
E00ED88D
330
E00DEA5D
100
AcDbEntity
  8
JISSEN
100
AcDbCircle
 39
240.0520776831561
 10
280.4307061563921
 20
147.0700579723172
 30
0.0
 40
0.2000000000007276
100
AcDbArc
 50
270.0
 51
0.0
  0
LINE
  5
E00ED88E
330
E00DEA5D
100
AcDbEntity
  8
JISSEN
100
AcDbLine
 10
265.7051266380383
 20
172.4229012958687
 30
0.0
 11
265.8761367097374
 21
171.9229012958687
 31
0.0
  0
LINE
  5
E00ED88F
330
E00DEA5D
100
AcDbEntity
  8
JISSEN
100
AcDbLine
 10
254.3187434047965
 20
157.9229012958687
 30
0.0
 11
271.0557061563956
 21
157.9229012958669
 31
0.0
  0
SPLINE
  5
E00ED890
330
E00DEA5D
100
AcDbEntity
  8
JISSEN
100
AcDbSpline
210
0.0
220
0.0
230
1.0
 70
     8
 71
     3
 72
    18
 73
    14
 74
     0
 42
0.0000000001
 43
0.0000000001
 40
0.0
 40
0.0
 40
0.0
 40
0.0
 40
0.1249999999999997
 40
0.1249999999999997
 40
0.2499999999999994
 40
0.2499999999999994
 40
0.3749999999999992
 40
0.3749999999999992
 40
0.499999999999999
 40
0.499999999999999
 40
0.7499999999999995
 40
0.7499999999999995
 40
1.0
 40
1.0
 40
1.0
 40
1.0
 10
266.4447062277321
 20
165.9229012958377
 30
0.0
 10
266.3755171574356
 20
165.9229012958377
 30
0.0
 10
266.3067730757883
 20
165.9325367920019
 30
0.0
 10
266.1702263349015
 20
165.9703988892025
 30
0.0
 10
266.1016952280459
 20
165.9990878377076
 30
0.0
 10
265.969878384465
 20
166.0740870439977
 30
0.0
 10
265.9067790878506
 20
166.1200206680597
 30
0.0
 10
265.7864814937455
 20
166.2286451494211
 30
0.0
 10
265.7290534341553
 20
166.2919103335071
 30
0.0
 10
265.5737489304045
 20
166.4993002813745
 30
0.0
 10
265.4888332236713
 20
166.6665951694768
 30
0.0
 10
265.3746090188668
 20
167.0275907755068
 30
0.0
 10
265.3439697628635
 20
167.2246214205798
 30
0.0
 10
265.3439697628635
 20
167.4229012958377
 30
0.0
  0
LINE
  5
E00ED891
330
E00DEA5D
100
AcDbEntity
  8
JISSEN
100
AcDbLine
 10
271.0557061563966
 20
160.9229012958687
 30
0.0
 11
238.5557061563965
 21
160.9229012958687
 31
0.0
  0
LINE
  5
E00ED892
330
E00DEA5D
100
AcDbEntity
  8
JISSEN
370
    -2
100
AcDbLine
 10
264.936311481595
 20
174.6729431248816
 30
0.0
 11
271.0557061563966
 21
174.6729431248816
 31
0.0
  0
SPLINE
  5
E00ED893
330
E00DEA5D
100
AcDbEntity
  8
JISSEN
370
    -2
100
AcDbSpline
210
0.0
220
0.0
230
1.0
 70
    12
 71
     3
 72
    14
 73
    10
 74
     0
 42
0.0000000001
 43
0.0000000001
 40
0.0
 40
0.0
 40
0.0
 40
0.0
 40
0.2170493941225676
 40
0.4388311995732112
 40
0.5988137766302898
 40
0.7597871991591737
 40
0.8750649674182215
 40
0.9755548291618868
 40
1.0
 40
1.0
 40
1.0
 40
1.0
 10
267.5152507927522
 20
174.6729431249216
 30
0.0
 41
1.0
 10
267.2748883030698
 20
174.6669775733491
 30
0.0
 41
1.0
 10
266.7889226079968
 20
174.6549164009914
 30
0.0
 41
1.0
 10
266.1482910208013
 20
174.5257269105488
 30
0.0
 41
1.0
 10
265.6113562221097
 20
174.2898038530104
 30
0.0
 41
1.0
 10
265.239548645275
 20
173.9837435443726
 30
0.0
 41
1.0
 10
265.0177657680986
 20
173.6188633077611
 30
0.0
 41
1.0
 10
264.9510464127923
 20
173.3452800503685
 30
0.0
 41
1.0
 10
264.9476585029341
 20
173.2011448194564
 30
0.0
 41
1.0
 10
264.9469956141218
 20
173.1729428790524
 30
0.0
 41
1.0
  0
LINE
  5
E00ED894
330
E00DEA5D
100
AcDbEntity
  8
JISSEN
100
AcDbLine
 10
267.2450450577461
 20
147.7700579723179
 30
0.0
 11
263.5277320304966
 21
147.7700579723179
 31
0.0
  0
LINE
  5
E00ED895
330
E00DEA5D
100
AcDbEntity
  8
JISSEN
100
AcDbLine
 10
266.2628868863474
 20
147.7700579723179
 30
0.0
 11
265.3971181683963
 21
147.0700579723172
 31
0.0
  0
LINE
  5
E00ED896
330
E00DEA5D
100
AcDbEntity
  8
JISSEN
100
AcDbLine
 10
267.2450450577461
 20
148.9700579723169
 30
0.0
 11
263.5277320304966
 21
148.9700579723169
 31
0.0
  0
LINE
  5
E00ED897
330
E00DEA5D
100
AcDbEntity
  8
JISSEN
100
AcDbLine
 10
275.9332798149961
 20
150.8700579723183
 30
0.0
 11
265.4807061563959
 21
150.8700579723183
 31
0.0
  0
LINE
  5
E00ED898
330
E00DEA5D
100
AcDbEntity
  8
JISSEN
100
AcDbLine
 10
276.961288612997
 20
150.3700579723183
 30
0.0
 11
264.3057061563967
 21
150.3700579723183
 31
0.0
  0
LINE
  5
E00ED89A
330
E00DEA5D
100
AcDbEntity
  8
JISSEN
100
AcDbLine
 10
262.7779838732975
 20
148.9700579723169
 30
0.0
 11
262.7779838732981
 21
157.9229012958678
 31
0.0
  0
LINE
  5
E00ED89B
330
E00DEA5D
100
AcDbEntity
  8
JISSEN
100
AcDbLine
 10
264.1779838732977
 20
157.9229012958676
 30
0.0
 11
264.1779838732972
 21
148.9700579723169
 31
0.0
  0
LINE
  5
E00ED89C
330
E00DEA5D
100
AcDbEntity
  8
JISSEN
100
AcDbLine
 10
262.0188527294966
 20
147.0700579723172
 30
0.0
 11
262.0188527294966
 21
147.7700579723179
 31
0.0
  0
LINE
  5
E00ED89D
330
E00DEA5D
100
AcDbEntity
  8
JISSEN
100
AcDbLine
 10
260.5188527294966
 20
147.0700579723172
 30
0.0
 11
260.5188527294966
 21
147.7700579723179
 31
0.0
  0
LINE
  5
E00ED89E
330
E00DEA5D
100
AcDbEntity
  8
JISSEN
100
AcDbLine
 10
265.3971181683963
 20
147.0700579723172
 30
0.0
 11
262.0188527294966
 21
147.0700579723172
 31
0.0
  0
LINE
  5
E00ED89F
330
E00DEA5D
100
AcDbEntity
  8
JISSEN
100
AcDbLine
 10
262.0188527294966
 20
147.0700579723172
 30
0.0
 11
260.5188527294966
 21
147.0700579723172
 31
0.0
  0
LINE
  5
E00ED8A0
330
E00DEA5D
100
AcDbEntity
  8
JISSEN
100
AcDbLine
 10
262.368954254748
 20
147.7700579723179
 30
0.0
 11
262.0188527294966
 21
147.7700579723179
 31
0.0
  0
LINE
  5
E00ED8A1
330
E00DEA5D
100
AcDbEntity
  8
JISSEN
100
AcDbLine
 10
262.368954254748
 20
148.9700579723169
 30
0.0
 11
262.0188527294966
 21
148.9700579723169
 31
0.0
  0
LINE
  5
E00ED8A2
330
E00DEA5D
100
AcDbEntity
  8
JISSEN
100
AcDbLine
 10
259.6912880014978
 20
148.9700579723169
 30
0.0
 11
259.6912880014978
 21
147.7700579723179
 31
0.0
  0
LINE
  5
E00ED8A3
330
E00DEA5D
100
AcDbEntity
  8
JISSEN
100
AcDbLine
 10
260.5188527294966
 20
148.9700579723169
 30
0.0
 11
260.5188527294966
 21
148.270057972318
 31
0.0
  0
LINE
  5
E00ED8A4
330
E00DEA5D
100
AcDbEntity
  8
JISSEN
100
AcDbLine
 10
262.0188527294966
 20
148.9700579723169
 30
0.0
 11
262.0188527294966
 21
148.270057972318
 31
0.0
  0
LINE
  5
E00ED8A5
330
E00DEA5D
100
AcDbEntity
  8
JISSEN
100
AcDbLine
 10
260.5188527294966
 20
147.7700579723179
 30
0.0
 11
259.6912880014978
 21
147.7700579723179
 31
0.0
  0
LINE
  5
E00ED8A6
330
E00DEA5D
100
AcDbEntity
  8
JISSEN
100
AcDbLine
 10
260.5188527294966
 20
148.270057972318
 30
0.0
 11
262.0188527294966
 21
148.270057972318
 31
0.0
  0
LINE
  5
E00ED8A7
330
E00DEA5D
100
AcDbEntity
  8
JISSEN
100
AcDbLine
 10
260.5188527294966
 20
148.9700579723169
 30
0.0
 11
259.6912880014978
 21
148.9700579723169
 31
0.0
  0
LINE
  5
E00ED8A8
330
E00DEA5D
100
AcDbEntity
  8
JISSEN
100
AcDbLine
 10
262.0188527294966
 20
148.9700579723169
 30
0.0
 11
260.5188527294966
 21
148.9700579723169
 31
0.0
  0
LINE
  5
E00ED8A9
330
E00DEA5D
100
AcDbEntity
  8
JISSEN
100
AcDbLine
 10
265.4807061563959
 20
150.3700579723183
 30
0.0
 11
265.4807061563959
 21
150.8700579723183
 31
0.0
  0
LINE
  5
E00ED8AA
330
E00DEA5D
100
AcDbEntity
  8
JISSEN
100
AcDbLine
 10
263.5277320304966
 20
148.9700579723169
 30
0.0
 11
263.5277320304966
 21
147.7700579723179
 31
0.0
  0
LINE
  5
E00ED8AB
330
E00DEA5D
100
AcDbEntity
  8
JISSEN
100
AcDbLine
 10
264.3057061563967
 20
148.9700579723169
 30
0.0
 11
264.3057061563967
 21
150.3700579723183
 31
0.0
  0
LINE
  5
E00ED8AC
330
E00DEA5D
100
AcDbEntity
  8
JISSEN
100
AcDbLine
 10
262.368954254748
 20
147.7700579723179
 30
0.0
 11
262.368954254748
 21
148.9700579723169
 31
0.0
  0
LINE
  5
E00ED8AD
330
E00DEA5D
100
AcDbEntity
  8
JISSEN
100
AcDbLine
 10
262.368954254748
 20
147.7700579723179
 30
0.0
 11
263.5277320304966
 21
147.7700579723179
 31
0.0
  0
LINE
  5
E00ED8AE
330
E00DEA5D
100
AcDbEntity
  8
JISSEN
100
AcDbLine
 10
262.368954254748
 20
148.9700579723169
 30
0.0
 11
263.5277320304966
 21
148.9700579723169
 31
0.0
  0
LINE
  5
E00ED8AF
330
E00DEA5D
100
AcDbEntity
  8
JISSEN
100
AcDbLine
 10
238.9861196058962
 20
160.0759287769698
 30
0.0
 11
254.2454522486975
 21
157.9313694302683
 31
0.0
  0
LINE
  5
E00ED8B0
330
E00DEA5D
100
AcDbEntity
  8
SUNPOU
100
AcDbLine
 10
246.0557061563966
 20
170.9229012958687
 30
0.0
 11
246.0557061563966
 21
160.9229012958687
 31
0.0
  0
LINE
  5
E00ED8B1
330
E00DEA5D
100
AcDbEntity
  8
JISSEN
100
AcDbLine
 10
238.5557061563965
 20
160.9229012958687
 30
0.0
 11
238.5557061563965
 21
160.5710628112694
 31
0.0
  0
ARC
  5
E00ED8B2
330
E00DEA5D
100
AcDbEntity
  8
JISSEN
100
AcDbCircle
 10
239.0557061563965
 20
160.5710628112694
 30
0.0
 40
0.5000000000000005
100
AcDbArc
 50
180.0
 51
261.9999999999597
  0
LINE
  5
E00ED8B3
330
E00DEA5D
100
AcDbEntity
  8
JISSEN
 62
     0
 48
0.1
100
AcDbLine
 10
254.5378613472719
 20
161.1547855858036
 30
0.0
 11
254.3557061563967
 21
172.4229012958687
 31
0.0
  0
LINE
  5
E00ED8B4
330
E00DEA5D
100
AcDbEntity
  8
JISSEN
 62
     0
 48
0.1
100
AcDbLine
 10
256.1675623515997
 20
167.4229012958442
 30
0.0
 11
256.0856681492912
 21
171.9270824230126
 31
0.0
  0
LINE
  5
E00ED8B5
330
E00DEA5D
100
AcDbEntity
  8
JISSEN
 62
     0
 48
0.1
100
AcDbLine
 10
254.6902443879962
 20
167.4229012958314
 30
0.0
 11
254.609416681056
 21
172.4229012958687
 31
0.0
  0
LINE
  5
E00ED8B6
330
E00DEA5D
100
AcDbEntity
  8
JISSEN
100
AcDbLine
 10
265.3439697628634
 20
172.4229012958687
 30
0.0
 11
265.3439697628634
 21
167.4229012958376
 31
0.0
  0
LINE
  5
E00ED8B7
330
E00DEA5D
100
AcDbEntity
  8
JISSEN
100
AcDbLine
 10
260.321153074581
 20
172.4229012958687
 30
0.0
 11
260.3211530745811
 21
167.4229012958024
 31
0.0
  0
LINE
  5
E00ED8B8
330
E00DEA5D
100
AcDbEntity
  8
JISSEN
100
AcDbLine
 10
256.4057061563952
 20
167.6700580166427
 30
0.0
 11
256.1057061563959
 21
170.1133619450367
 31
0.0
  0
LINE
  5
E00ED8B9
330
E00DEA5D
100
AcDbEntity
  8
JISSEN
100
AcDbLine
 10
258.8858981812431
 20
165.9229012958687
 30
0.0
 11
258.2169628817807
 21
165.9229012958687
 31
0.0
  0
LINE
  5
E00ED8BA
330
E00DEA5D
100
AcDbEntity
  8
JISSEN
100
AcDbLine
 10
256.3024081357962
 20
162.9229012958687
 30
0.0
 11
256.290713940482
 21
165.9229012958687
 31
0.0
  0
LINE
  5
E00ED8BB
330
E00DEA5D
100
AcDbEntity
  8
JISSEN
100
AcDbLine
 10
256.9024081357972
 20
162.9229012958687
 30
0.0
 11
256.9157139405598
 21
165.9229012957934
 31
0.0
  0
ARC
  5
E00ED8BC
330
E00DEA5D
100
AcDbEntity
  8
JISSEN
100
AcDbCircle
 10
254.4542119000968
 20
159.4167715334689
 30
0.0
 40
1.499999999999995
100
AcDbArc
 50
261.9999999999597
 51
264.8184245309499
  0
ARC
  5
E00ED8BD
330
E00DEA5D
100
AcDbEntity
  8
JISSEN
100
AcDbCircle
 10
253.038057302411
 20
161.1305404414444
 30
0.0
 40
1.5
100
AcDbArc
 50
352.0432185063709
 51
0.9261366264909746
  0
LINE
  5
E00ED8BE
330
E00DEA5D
100
AcDbEntity
  8
JISSEN
100
AcDbLine
 10
256.9024081357972
 20
162.9229012958687
 30
0.0
 11
256.3024081357962
 21
162.9229012958687
 31
0.0
  0
LINE
  5
E00ED8BF
330
E00DEA5D
100
AcDbEntity
  8
JISSEN
100
AcDbLine
 10
256.9157139405601
 20
165.9229012958683
 30
0.0
 11
255.0247628164933
 21
165.9229012958694
 31
0.0
  0
SPLINE
  5
E00ED8C0
330
E00DEA5D
100
AcDbEntity
  8
JISSEN
100
AcDbSpline
210
0.0
220
0.0
230
1.0
 70
     8
 71
     3
 72
    18
 73
    14
 74
     0
 42
0.0000000001
 43
0.0000000001
 40
0.0
 40
0.0
 40
0.0
 40
0.0
 40
0.1250000000000001
 40
0.1250000000000001
 40
0.2500000000000002
 40
0.2500000000000002
 40
0.3750000000000002
 40
0.3750000000000002
 40
0.5000000000000004
 40
0.5000000000000004
 40
0.7500000000000001
 40
0.7500000000000001
 40
1.0
 40
1.0
 40
1.0
 40
1.0
 10
254.6902443879962
 20
167.4229012958377
 30
0.0
 10
254.6902443879962
 20
167.3237605144742
 30
0.0
 10
254.6919255447219
 20
167.2262770005792
 30
0.0
 10
254.6986193900274
 20
167.0344890546268
 30
0.0
 10
254.7037150349415
 20
166.9391902667386
 30
0.0
 10
254.7173658395686
 20
166.7574751453423
 30
0.0
 10
254.7258523048849
 20
166.671292941931
 30
0.0
 10
254.7465766325358
 20
166.5081984154923
 30
0.0
 10
254.7589374985554
 20
166.4309888859254
 30
0.0
 10
254.8010040774197
 20
166.2234551740613
 30
0.0
 10
254.8369123442617
 20
166.1117877537773
 30
0.0
 10
254.9214905663584
 20
165.9624130314234
 30
0.0
 10
254.9709781503543
 20
165.9229012958378
 30
0.0
 10
255.0247628164934
 20
165.9229012958378
 30
0.0
  0
SPLINE
  5
E00ED8C1
330
E00DEA5D
100
AcDbEntity
  8
JISSEN
100
AcDbSpline
210
0.0
220
0.0
230
1.0
 70
     8
 71
     3
 72
    18
 73
    14
 74
     0
 42
0.0000000001
 43
0.0000000001
 40
0.0
 40
0.0
 40
0.0
 40
0.0
 40
0.1250000000000001
 40
0.1250000000000001
 40
0.2500000000000002
 40
0.2500000000000002
 40
0.3750000000000002
 40
0.3750000000000002
 40
0.5000000000000004
 40
0.5000000000000004
 40
0.7500000000000001
 40
0.7500000000000001
 40
1.0
 40
1.0
 40
1.0
 40
1.0
 10
256.1675623515998
 20
167.422901295844
 30
0.0
 10
256.1675623515998
 20
167.3237605144805
 30
0.0
 10
256.1692435083255
 20
167.2262770005855
 30
0.0
 10
256.175937353631
 20
167.0344890546331
 30
0.0
 10
256.1810329985451
 20
166.9391902667449
 30
0.0
 10
256.1946838031722
 20
166.7574751453486
 30
0.0
 10
256.2031702684885
 20
166.6712929419373
 30
0.0
 10
256.2238945961394
 20
166.5081984154986
 30
0.0
 10
256.236255462159
 20
166.4309888859317
 30
0.0
 10
256.2783220410233
 20
166.2234551740676
 30
0.0
 10
256.3142303078652
 20
166.1117877537837
 30
0.0
 10
256.398808529962
 20
165.9624130314297
 30
0.0
 10
256.4482961139578
 20
165.9229012958441
 30
0.0
 10
256.502080780097
 20
165.9229012958441
 30
0.0
  0
LINE
  5
E00ED8C2
330
E00DEA5D
100
AcDbEntity
  8
JISSEN
100
AcDbLine
 10
258.2169628787949
 20
165.9229012958687
 30
0.0
 11
257.5907822753949
 21
165.9229012958687
 31
0.0
  0
LINE
  5
E00ED8C3
330
E00DEA5D
100
AcDbEntity
  8
JISSEN
100
AcDbLine
 10
257.7635587476968
 20
165.9229012958687
 30
0.0
 11
256.9157139405601
 21
165.9229012958687
 31
0.0
  0
LINE
  5
E00ED8C4
330
E00DEA5D
100
AcDbEntity
  8
JISSEN
100
AcDbLine
 10
256.1630685930398
 20
167.6700580166427
 30
0.0
 11
256.4057061563952
 21
167.6700580166427
 31
0.0
  0
SPLINE
  5
E00ED8C5
330
E00DEA5D
100
AcDbEntity
  8
JISSEN
100
AcDbSpline
210
0.0
220
0.0
230
1.0
 70
     8
 71
     3
 72
    18
 73
    14
 74
     0
 42
0.0000000001
 43
0.0000000001
 40
0.0
 40
0.0
 40
0.0
 40
0.0
 40
0.1250000000000001
 40
0.1250000000000001
 40
0.2500000000000001
 40
0.2500000000000001
 40
0.5
 40
0.5
 40
0.7499999999999999
 40
0.7499999999999999
 40
0.8749999999999998
 40
0.8749999999999998
 40
1.0
 40
1.0
 40
1.0
 40
1.0
 10
260.3211530746102
 20
167.4229012958068
 30
0.0
 10
260.3211530746102
 20
167.3242077099632
 30
0.0
 10
260.3120914758328
 20
167.2268649402896
 30
0.0
 10
260.2762427451816
 20
167.0348162540114
 30
0.0
 10
260.2489828628549
 20
166.9391942317717
 30
0.0
 10
260.1428242319852
 20
166.6673715130174
 30
0.0
 10
260.0375411988661
 20
166.5005252671264
 30
0.0
 10
259.7738946407698
 20
166.2231365581857
 30
0.0
 10
259.6146550661851
 20
166.1117782925204
 30
0.0
 10
259.3539397084005
 20
165.9994805317903
 30
0.0
 10
259.2619801613618
 20
165.9705929278399
 30
0.0
 10
259.0763967514558
 20
165.9325388288554
 30
0.0
 10
258.9819862204421
 20
165.9229012958068
 30
0.0
 10
258.8858981812427
 20
165.9229012958068
 30
0.0
  0
LINE
  5
E00ED8C6
330
E00DEA5D
100
AcDbEntity
  8
JISSEN
100
AcDbLine
 10
256.1057061563523
 20
170.6700580167191
 30
0.0
 11
260.321153074581
 21
170.6700580166975
 31
0.0
  0
LINE
  5
E00ED8C7
330
E00DEA5D
100
AcDbEntity
  8
JISSEN
100
AcDbLine
 10
256.1057061563514
 20
170.6700580167191
 30
0.0
 11
260.321153074581
 21
170.6700580166976
 31
0.0
  0
LINE
  5
E00ED8C8
330
E00DEA5D
100
AcDbEntity
  8
JISSEN
100
AcDbLine
 10
256.4057061563961
 20
170.6700580167155
 30
0.0
 11
256.4057061563961
 21
177.1729016311721
 31
0.0
  0
LINE
  5
E00ED8C9
330
E00DEA5D
100
AcDbEntity
  8
JISSEN
100
AcDbLine
 10
255.5557061563965
 20
172.4229012958687
 30
0.0
 11
254.3557061563967
 21
172.4229012958687
 31
0.0
  0
LINE
  5
E00ED8CA
330
E00DEA5D
100
AcDbEntity
  8
JISSEN
100
AcDbLine
 10
255.5911859846953
 20
172.4229012958687
 30
0.0
 11
255.5557061563965
 21
172.4229012958687
 31
0.0
  0
LINE
  5
E00ED8CB
330
E00DEA5D
100
AcDbEntity
  8
JISSEN
100
AcDbLine
 10
256.0856681492912
 20
171.9270824230126
 30
0.0
 11
255.5898492764351
 21
172.4229012958687
 31
0.0
  0
LINE
  5
E00ED8CC
330
E00DEA5D
100
AcDbEntity
  8
JISSEN
100
AcDbLine
 10
256.1057061563959
 20
170.6700580166427
 30
0.0
 11
256.4057061563961
 21
170.6700580166427
 31
0.0
  0
LINE
  5
E00ED8CE
330
E00DEA5D
100
AcDbEntity
  8
SAISEN
100
AcDbLine
 10
256.9057061563961
 20
176.1729016180718
 30
0.0
 11
256.905706156397
 21
177.1729016311685
 31
0.0
  0
LINE
  5
E00ED8CF
330
E00DEA5D
100
AcDbEntity
  8
JISSEN
100
AcDbLine
 10
256.4057061563961
 20
176.1729016180681
 30
0.0
 11
256.9057061563961
 21
176.1729016180681
 31
0.0
  0
ARC
  5
E00ED8D2
330
E00DEA5D
100
AcDbEntity
  8
JISSEN
370
    -2
100
AcDbCircle
 10
264.7412419577957
 20
173.0355651163802
 30
0.0
 40
1.648956901138485
100
AcDbArc
 50
83.20607180967952
 51
175.2210394254886
  0
LINE
  5
E00ED8D3
330
E00DEA5D
100
AcDbEntity
  8
JISSEN
100
AcDbLine
 10
265.7051266380383
 20
172.4229012958687
 30
0.0
 11
260.3211530745811
 21
172.4229012958687
 31
0.0
  0
ARC
  5
E00ED8D4
330
E00DEA5D
100
AcDbEntity
  8
JISSEN
370
    -2
100
AcDbCircle
 10
264.7337011010957
 20
173.3010791028821
 30
0.0
 40
1.640694770587604
100
AcDbArc
 50
184.4792906218895
 51
212.3606991649856
  0
SPLINE
  5
E00ED8D5
330
E00DEA5D
100
AcDbEntity
  8
JISSEN
370
    -2
100
AcDbSpline
210
0.0
220
0.0
230
1.0
 70
    12
 71
     3
 72
    10
 73
     6
 74
     0
 42
0.0000000001
 43
0.0000000001
 40
0.0
 40
0.0
 40
0.0
 40
0.0
 40
0.1088769686984931
 40
0.2172663573285982
 40
0.2385701061928358
 40
0.2385701061928358
 40
0.2385701061928358
 40
0.2385701061928358
 10
264.9469956141218
 20
173.1729428790524
 30
0.0
 41
1.0
 10
264.9596889045377
 20
173.0466618928287
 30
0.0
 41
1.0
 10
264.9850186414322
 20
172.7946654402796
 30
0.0
 41
1.0
 10
265.1191999520111
 20
172.5552436184422
 30
0.0
 41
1.0
 10
265.2078555434026
 20
172.4412040819267
 30
0.0
 41
1.0
 10
265.222816693663
 20
172.4229012958687
 30
0.0
 41
1.0
  0
LINE
  5
E00ED8D6
330
E00DEA5D
100
AcDbEntity
  8
JISSEN
100
AcDbLine
 10
280.5057061563979
 20
157.9229012958679
 30
0.0
 11
280.5057061563974
 21
148.9700579723169
 31
0.0
  0
LINE
  5
E00ED8D7
330
E00DEA5D
100
AcDbEntity
  8
JISSEN
100
AcDbLine
 10
279.1057061563959
 20
148.9700579723169
 30
0.0
 11
279.1057061563965
 21
157.9229012958677
 31
0.0
  0
LINE
  5
E00ED8D8
330
E00DEA5D
100
AcDbEntity
  8
JISSEN
100
AcDbLine
 10
281.8183496816462
 20
147.7700579723179
 30
0.0
 11
279.7279594010477
 21
147.7700579723179
 31
0.0
  0
LINE
  5
E00ED8D9
330
E00DEA5D
100
AcDbEntity
  8
JISSEN
100
AcDbLine
 10
278.4557061563981
 20
147.0700579723172
 30
0.0
 11
282.3565910774967
 21
147.0700579723172
 31
0.0
  0
LINE
  5
E00ED8DA
330
E00DEA5D
100
AcDbEntity
  8
JISSEN
100
AcDbLine
 10
281.8183496816462
 20
148.9700579723169
 30
0.0
 11
279.7279594010477
 21
148.9700579723169
 31
0.0
  0
LINE
  5
E00ED8DB
330
E00DEA5D
100
AcDbEntity
  8
JISSEN
100
AcDbLine
 10
277.4560025516974
 20
147.7700579723179
 30
0.0
 11
278.4557061563981
 21
147.0700579723172
 31
0.0
  0
LINE
  5
E00ED8DC
330
E00DEA5D
100
AcDbEntity
  8
JISSEN
100
AcDbLine
 10
275.8557061563959
 20
147.7200579723169
 30
0.0
 11
275.8557061563959
 21
146.5700579723172
 31
0.0
  0
LINE
  5
E00ED8DD
330
E00DEA5D
100
AcDbEntity
  8
JISSEN
100
AcDbLine
 10
266.2557061563974
 20
146.5700579723172
 30
0.0
 11
266.2557061563974
 21
147.7200579723169
 31
0.0
  0
LINE
  5
E00ED8DE
330
E00DEA5D
100
AcDbEntity
  8
JISSEN
100
AcDbLine
 10
275.2552314588982
 20
146.5700579723172
 30
0.0
 11
266.2557061563974
 21
146.5700579723172
 31
0.0
  0
LINE
  5
E00ED8DF
330
E00DEA5D
100
AcDbEntity
  8
JISSEN
100
AcDbLine
 10
275.8557061563959
 20
146.5700579723172
 30
0.0
 11
275.2552314588982
 21
146.5700579723172
 31
0.0
  0
LINE
  5
E00ED8E0
330
E00DEA5D
100
AcDbEntity
  8
JISSEN
100
AcDbLine
 10
273.1277007677462
 20
147.7700579723179
 30
0.0
 11
268.9837115450981
 21
147.7700579723179
 31
0.0
  0
LINE
  5
E00ED8E1
330
E00DEA5D
100
AcDbEntity
  8
JISSEN
100
AcDbLine
 10
275.2552314588982
 20
147.7200579723169
 30
0.0
 11
266.2557061563974
 21
147.7200579723169
 31
0.0
  0
LINE
  5
E00ED8E2
330
E00DEA5D
100
AcDbEntity
  8
JISSEN
100
AcDbLine
 10
273.1277007677462
 20
148.9700579723169
 30
0.0
 11
268.9837115450981
 21
148.9700579723169
 31
0.0
  0
LINE
  5
E00ED8E3
330
E00DEA5D
100
AcDbEntity
  8
JISSEN
100
AcDbLine
 10
267.5557061563976
 20
153.1200579723183
 30
0.0
 11
274.5557061563975
 21
153.1200579723183
 31
0.0
  0
LINE
  5
E00ED8E4
330
E00DEA5D
100
AcDbEntity
  8
JISSEN
100
AcDbLine
 10
274.3057061563975
 20
153.3700579723183
 30
0.0
 11
267.8057061563976
 21
153.3700579723183
 31
0.0
  0
LINE
  5
E00ED8E5
330
E00DEA5D
100
AcDbEntity
  8
JISSEN
100
AcDbLine
 10
267.5557061563967
 20
150.8700579723183
 30
0.0
 11
267.5557061563976
 21
153.1200579723183
 31
0.0
  0
LINE
  5
E00ED8E6
330
E00DEA5D
100
AcDbEntity
  8
JISSEN
100
AcDbLine
 10
267.2450450577461
 20
147.7700579723179
 30
0.0
 11
267.2450450577461
 21
148.9700579723169
 31
0.0
  0
LINE
  5
E00ED8E7
330
E00DEA5D
100
AcDbEntity
  8
JISSEN
100
AcDbLine
 10
268.9837115450981
 20
148.9700579723169
 30
0.0
 11
268.9837115450981
 21
147.7700579723179
 31
0.0
  0
LINE
  5
E00ED8E8
330
E00DEA5D
100
AcDbEntity
  8
JISSEN
100
AcDbLine
 10
267.2450450577461
 20
147.7700579723179
 30
0.0
 11
268.0122929338967
 21
147.7700579723179
 31
0.0
  0
LINE
  5
E00ED8E9
330
E00DEA5D
100
AcDbEntity
  8
JISSEN
100
AcDbLine
 10
266.405706156397
 20
147.7200579723169
 30
0.0
 11
266.405706156397
 21
147.7700579723179
 31
0.0
  0
LINE
  5
E00ED8EA
330
E00DEA5D
100
AcDbEntity
  8
JISSEN
100
AcDbLine
 10
268.0122929338967
 20
147.7700579723179
 30
0.0
 11
268.9837115450981
 21
147.7700579723179
 31
0.0
  0
LINE
  5
E00ED8EB
330
E00DEA5D
100
AcDbEntity
  8
JISSEN
100
AcDbLine
 10
267.2450450577461
 20
148.9700579723169
 30
0.0
 11
268.0122929338967
 21
148.9700579723169
 31
0.0
  0
LINE
  5
E00ED8EC
330
E00DEA5D
100
AcDbEntity
  8
JISSEN
100
AcDbLine
 10
268.0122929338967
 20
148.9700579723169
 30
0.0
 11
268.9837115450981
 21
148.9700579723169
 31
0.0
  0
LINE
  5
E00ED8ED
330
E00DEA5D
100
AcDbEntity
  8
JISSEN
100
AcDbLine
 10
267.5557061563976
 20
153.1200579723183
 30
0.0
 11
267.8057061563976
 21
153.3700579723183
 31
0.0
  0
LINE
  5
E00ED8EE
330
E00DEA5D
100
AcDbEntity
  8
JISSEN
100
AcDbLine
 10
274.5557061563975
 20
153.1200579723183
 30
0.0
 11
274.5557061563967
 21
150.8700579723183
 31
0.0
  0
LINE
  5
E00ED8EF
330
E00DEA5D
100
AcDbEntity
  8
JISSEN
100
AcDbLine
 10
276.6307061563974
 20
150.8700579723183
 30
0.0
 11
275.9332798149961
 21
150.8700579723183
 31
0.0
  0
LINE
  5
E00ED8F0
330
E00DEA5D
100
AcDbEntity
  8
JISSEN
100
AcDbLine
 10
278.4551671949474
 20
147.7700579723179
 30
0.0
 11
274.8663672550982
 21
147.7700579723179
 31
0.0
  0
LINE
  5
E00ED8F1
330
E00DEA5D
100
AcDbEntity
  8
JISSEN
100
AcDbLine
 10
278.4551671949474
 20
148.9700579723169
 30
0.0
 11
274.8663672550982
 21
148.9700579723169
 31
0.0
  0
LINE
  5
E00ED8F2
330
E00DEA5D
100
AcDbEntity
  8
JISSEN
100
AcDbLine
 10
274.8663672550982
 20
148.9700579723169
 30
0.0
 11
274.8663672550982
 21
147.7700579723179
 31
0.0
  0
LINE
  5
E00ED8F3
330
E00DEA5D
100
AcDbEntity
  8
JISSEN
100
AcDbLine
 10
273.1277007677462
 20
147.7700579723179
 30
0.0
 11
273.1277007677462
 21
148.9700579723169
 31
0.0
  0
LINE
  5
E00ED8F4
330
E00DEA5D
100
AcDbEntity
  8
JISSEN
100
AcDbLine
 10
274.0991193789458
 20
147.7700579723179
 30
0.0
 11
274.8663672550982
 21
147.7700579723179
 31
0.0
  0
LINE
  5
E00ED8F5
330
E00DEA5D
100
AcDbEntity
  8
JISSEN
100
AcDbLine
 10
275.8557061563959
 20
147.7200579723169
 30
0.0
 11
275.2552314588982
 21
147.7200579723169
 31
0.0
  0
LINE
  5
E00ED8F6
330
E00DEA5D
100
AcDbEntity
  8
JISSEN
100
AcDbLine
 10
275.7057061563981
 20
147.7700579723179
 30
0.0
 11
275.7057061563981
 21
147.7200579723169
 31
0.0
  0
LINE
  5
E00ED8F7
330
E00DEA5D
100
AcDbEntity
  8
JISSEN
100
AcDbLine
 10
273.1277007677462
 20
147.7700579723179
 30
0.0
 11
274.0991193789458
 21
147.7700579723179
 31
0.0
  0
LINE
  5
E00ED8F8
330
E00DEA5D
100
AcDbEntity
  8
JISSEN
100
AcDbLine
 10
274.0991193789458
 20
148.9700579723169
 30
0.0
 11
274.8663672550982
 21
148.9700579723169
 31
0.0
  0
LINE
  5
E00ED8F9
330
E00DEA5D
100
AcDbEntity
  8
JISSEN
100
AcDbLine
 10
273.1277007677462
 20
148.9700579723169
 30
0.0
 11
274.0991193789458
 21
148.9700579723169
 31
0.0
  0
LINE
  5
E00ED8FA
330
E00DEA5D
100
AcDbEntity
  8
JISSEN
100
AcDbLine
 10
277.8057061563966
 20
150.3700579723183
 30
0.0
 11
276.961288612997
 21
150.3700579723183
 31
0.0
  0
LINE
  5
E00ED8FB
330
E00DEA5D
100
AcDbEntity
  8
JISSEN
100
AcDbLine
 10
276.6307061563974
 20
150.8700579723183
 30
0.0
 11
276.6307061563974
 21
150.3700579723183
 31
0.0
  0
LINE
  5
E00ED8FC
330
E00DEA5D
100
AcDbEntity
  8
JISSEN
100
AcDbLine
 10
279.7279594010477
 20
148.9700579723169
 30
0.0
 11
279.7279594010477
 21
147.7700579723179
 31
0.0
  0
LINE
  5
E00ED8FD
330
E00DEA5D
100
AcDbEntity
  8
JISSEN
100
AcDbLine
 10
278.4551671949474
 20
147.7700579723179
 30
0.0
 11
278.4551671949474
 21
148.9700579723169
 31
0.0
  0
LINE
  5
E00ED8FE
330
E00DEA5D
100
AcDbEntity
  8
JISSEN
100
AcDbLine
 10
278.4551671949474
 20
147.7700579723179
 30
0.0
 11
279.7279594010477
 21
147.7700579723179
 31
0.0
  0
LINE
  5
E00ED8FF
330
E00DEA5D
100
AcDbEntity
  8
JISSEN
100
AcDbLine
 10
278.4551671949474
 20
148.9700579723169
 30
0.0
 11
279.7279594010477
 21
148.9700579723169
 31
0.0
  0
LINE
  5
E00ED900
330
E00DEA5D
100
AcDbEntity
  8
JISSEN
100
AcDbLine
 10
277.8057061563966
 20
150.3700579723183
 30
0.0
 11
277.8057061563966
 21
148.9700579723169
 31
0.0
  0
LINE
  5
E00ED901
330
E00DEA5D
100
AcDbEntity
  8
JISSEN
100
AcDbLine
 10
274.3057061563975
 20
153.3700579723183
 30
0.0
 11
274.5557061563975
 21
153.1200579723183
 31
0.0
  0
LINE
  5
E00ED902
330
E00DEA5D
100
AcDbEntity
  8
JISSEN
100
AcDbLine
 10
282.3565910774967
 20
147.0700579723172
 30
0.0
 11
282.3565910774967
 21
147.7700579723179
 31
0.0
  0
LINE
  5
E00ED903
330
E00DEA5D
100
AcDbEntity
  8
JISSEN
100
AcDbLine
 10
282.4557061563981
 20
148.270057972318
 30
0.0
 11
282.4557061563981
 21
147.0700579723172
 31
0.0
  0
LINE
  5
E00ED904
330
E00DEA5D
100
AcDbEntity
  8
JISSEN
100
AcDbLine
 10
282.4557061563981
 20
147.0700579723172
 30
0.0
 11
282.3565910774967
 21
147.0700579723172
 31
0.0
  0
LINE
  5
E00ED905
330
E00DEA5D
100
AcDbEntity
  8
JISSEN
100
AcDbLine
 10
282.3565910774967
 20
148.9700579723169
 30
0.0
 11
282.3565910774967
 21
148.270057972318
 31
0.0
  0
LINE
  5
E00ED906
330
E00DEA5D
100
AcDbEntity
  8
JISSEN
100
AcDbLine
 10
282.2561153087471
 20
148.9700579723169
 30
0.0
 11
282.2561153087471
 21
147.7700579723179
 31
0.0
  0
LINE
  5
E00ED907
330
E00DEA5D
100
AcDbEntity
  8
JISSEN
100
AcDbLine
 10
281.8183496816462
 20
147.7700579723179
 30
0.0
 11
281.8183496816462
 21
148.9700579723169
 31
0.0
  0
LINE
  5
E00ED908
330
E00DEA5D
100
AcDbEntity
  8
JISSEN
100
AcDbLine
 10
282.3565910774967
 20
147.7700579723179
 30
0.0
 11
282.2561153087471
 21
147.7700579723179
 31
0.0
  0
LINE
  5
E00ED909
330
E00DEA5D
100
AcDbEntity
  8
JISSEN
100
AcDbLine
 10
282.3565910774967
 20
148.270057972318
 30
0.0
 11
282.4557061563981
 21
148.270057972318
 31
0.0
  0
LINE
  5
E00ED90A
330
E00DEA5D
100
AcDbEntity
  8
JISSEN
100
AcDbLine
 10
281.8183496816462
 20
147.7700579723179
 30
0.0
 11
282.2561153087471
 21
147.7700579723179
 31
0.0
  0
LINE
  5
E00ED90B
330
E00DEA5D
100
AcDbEntity
  8
JISSEN
100
AcDbLine
 10
282.3565910774967
 20
148.9700579723169
 30
0.0
 11
282.2561153087471
 21
148.9700579723169
 31
0.0
  0
LINE
  5
E00ED90C
330
E00DEA5D
100
AcDbEntity
  8
JISSEN
100
AcDbLine
 10
281.8183496816462
 20
148.9700579723169
 30
0.0
 11
282.2561153087471
 21
148.9700579723169
 31
0.0
  0
LINE
  5
E00ED90D
330
E00DEA5D
100
AcDbEntity
  8
JISSEN
100
AcDbLine
 10
276.4062856747548
 20
172.4229012958687
 30
0.0
 11
281.790259238212
 21
172.4229012958687
 31
0.0
  0
LINE
  5
E00ED90E
330
E00DEA5D
100
AcDbEntity
  8
JISSEN
100
AcDbLine
 10
287.7926689079965
 20
157.9229012958687
 30
0.0
 11
271.0557061563974
 21
157.9229012958669
 31
0.0
  0
LINE
  5
E00ED910
330
E00DEA5D
100
AcDbEntity
  8
JISSEN
100
AcDbLine
 10
265.8761367097629
 20
171.9229012957942
 30
0.0
 11
265.8761367097629
 21
167.4229012958335
 31
0.0
  0
LINE
  5
E00ED911
330
E00DEA5D
100
AcDbEntity
  8
JISSEN
100
AcDbLine
 10
265.8761367097374
 20
171.9229012958687
 30
0.0
 11
265.8761367097374
 21
167.4229012958687
 31
0.0
  0
LINE
  5
E00ED912
330
E00DEA5D
100
AcDbEntity
  8
JISSEN
100
AcDbLine
 10
276.7674425499297
 20
172.4229012958687
 30
0.0
 11
276.7674425499297
 21
167.4229012958376
 31
0.0
  0
LINE
  5
E00ED913
330
E00DEA5D
100
AcDbEntity
  8
JISSEN
100
AcDbLine
 10
276.2352756030557
 20
171.9229012958687
 30
0.0
 11
276.2352756030557
 21
167.4229012958687
 31
0.0
  0
LINE
  5
E00ED914
330
E00DEA5D
100
AcDbEntity
  8
JISSEN
100
AcDbLine
 10
276.2352756030302
 20
171.9229012957942
 30
0.0
 11
276.2352756030302
 21
167.4229012958335
 31
0.0
  0
LINE
  5
E00ED915
330
E00DEA5D
100
AcDbEntity
  8
JISSEN
100
AcDbLine
 10
271.6818867596964
 20
165.9229012958687
 30
0.0
 11
275.6667060850611
 21
165.9229012958687
 31
0.0
  0
LINE
  5
E00ED916
330
E00DEA5D
100
AcDbEntity
  8
JISSEN
100
AcDbLine
 10
271.6818867596964
 20
165.9229012958687
 30
0.0
 11
271.6557061563969
 21
162.9229012958687
 31
0.0
  0
LINE
  5
E00ED917
330
E00DEA5D
100
AcDbEntity
  8
JISSEN
100
AcDbLine
 10
270.4295255530967
 20
165.9229012958687
 30
0.0
 11
270.4557061563962
 21
162.9229012958687
 31
0.0
  0
LINE
  5
E00ED918
330
E00DEA5D
100
AcDbEntity
  8
JISSEN
100
AcDbLine
 10
270.4557061563962
 20
162.9229012958687
 30
0.0
 11
271.6557061563969
 21
162.9229012958687
 31
0.0
  0
LINE
  5
E00ED919
330
E00DEA5D
100
AcDbEntity
  8
JISSEN
100
AcDbLine
 10
270.4295255530967
 20
165.9229012958687
 30
0.0
 11
266.444706227732
 21
165.9229012958687
 31
0.0
  0
SPLINE
  5
E00ED91A
330
E00DEA5D
100
AcDbEntity
  8
JISSEN
100
AcDbSpline
210
0.0
220
0.0
230
1.0
 70
     8
 71
     3
 72
    18
 73
    14
 74
     0
 42
0.0000000001
 43
0.0000000001
 40
0.0
 40
0.0
 40
0.0
 40
0.0
 40
0.1249999999999994
 40
0.1249999999999994
 40
0.2499999999999989
 40
0.2499999999999989
 40
0.3749999999999983
 40
0.3749999999999983
 40
0.4999999999999978
 40
0.4999999999999978
 40
0.749999999999999
 40
0.749999999999999
 40
1.0
 40
1.0
 40
1.0
 40
1.0
 10
265.8761367097629
 20
167.4229012958377
 30
0.0
 10
265.8761367097629
 20
167.3237779559104
 30
0.0
 10
265.8835946524193
 20
167.2263113330528
 30
0.0
 10
265.9127533153985
 20
167.0345560907309
 30
0.0
 10
265.9348072663158
 20
166.939273761972
 30
0.0
 10
265.9921756768233
 20
166.757583633752
 30
0.0
 10
266.0272026468299
 20
166.6714122743825
 30
0.0
 10
266.1095551163305
 20
166.5083353901219
 30
0.0
 10
266.1573099710219
 20
166.4311304030553
 30
0.0
 10
266.3128203816847
 20
166.2235951081175
 30
0.0
 10
266.4369697301915
 20
166.1119078986804
 30
0.0
 10
266.7001846590735
 20
165.9624636980544
 30
0.0
 10
266.8416356188606
 20
165.9229012958377
 30
0.0
 10
266.9812860199178
 20
165.9229012958377
 30
0.0
  0
SPLINE
  5
E00ED91B
330
E00DEA5D
100
AcDbEntity
  8
JISSEN
100
AcDbSpline
210
0.0
220
0.0
230
1.0
 70
     8
 71
     3
 72
    18
 73
    14
 74
     0
 42
0.0000000001
 43
0.0000000001
 40
0.0
 40
0.0
 40
0.0
 40
0.0
 40
0.1249999999999997
 40
0.1249999999999997
 40
0.2499999999999994
 40
0.2499999999999994
 40
0.3749999999999992
 40
0.3749999999999992
 40
0.499999999999999
 40
0.499999999999999
 40
0.7499999999999995
 40
0.7499999999999995
 40
1.0
 40
1.0
 40
1.0
 40
1.0
 10
275.666706085061
 20
165.9229012958377
 30
0.0
 10
275.7358951553575
 20
165.9229012958377
 30
0.0
 10
275.8046392370048
 20
165.9325367920019
 30
0.0
 10
275.9411859778917
 20
165.9703988892025
 30
0.0
 10
276.0097170847472
 20
165.9990878377076
 30
0.0
 10
276.1415339283281
 20
166.0740870439977
 30
0.0
 10
276.2046332249425
 20
166.1200206680597
 30
0.0
 10
276.3249308190476
 20
166.2286451494211
 30
0.0
 10
276.3823588786377
 20
166.2919103335071
 30
0.0
 10
276.5376633823886
 20
166.4993002813745
 30
0.0
 10
276.6225790891218
 20
166.6665951694768
 30
0.0
 10
276.7368032939263
 20
167.0275907755068
 30
0.0
 10
276.7674425499295
 20
167.2246214205798
 30
0.0
 10
276.7674425499295
 20
167.4229012958377
 30
0.0
  0
SPLINE
  5
E00ED91C
330
E00DEA5D
100
AcDbEntity
  8
JISSEN
100
AcDbSpline
210
0.0
220
0.0
230
1.0
 70
     8
 71
     3
 72
    18
 73
    14
 74
     0
 42
0.0000000001
 43
0.0000000001
 40
0.0
 40
0.0
 40
0.0
 40
0.0
 40
0.1249999999999994
 40
0.1249999999999994
 40
0.2499999999999989
 40
0.2499999999999989
 40
0.3749999999999983
 40
0.3749999999999983
 40
0.4999999999999978
 40
0.4999999999999978
 40
0.749999999999999
 40
0.749999999999999
 40
1.0
 40
1.0
 40
1.0
 40
1.0
 10
276.2352756030302
 20
167.4229012958377
 30
0.0
 10
276.2352756030302
 20
167.3237779559104
 30
0.0
 10
276.2278176603738
 20
167.2263113330528
 30
0.0
 10
276.1986589973946
 20
167.0345560907309
 30
0.0
 10
276.1766050464773
 20
166.939273761972
 30
0.0
 10
276.1192366359698
 20
166.757583633752
 30
0.0
 10
276.0842096659632
 20
166.6714122743825
 30
0.0
 10
276.0018571964626
 20
166.5083353901219
 30
0.0
 10
275.9541023417712
 20
166.4311304030553
 30
0.0
 10
275.7985919311083
 20
166.2235951081175
 30
0.0
 10
275.6744425826016
 20
166.1119078986804
 30
0.0
 10
275.4112276537195
 20
165.9624636980544
 30
0.0
 10
275.2697766939324
 20
165.9229012958377
 30
0.0
 10
275.1301262928752
 20
165.9229012958377
 30
0.0
  0
LINE
  5
E00ED91D
330
E00DEA5D
100
AcDbEntity
  8
JISSEN
370
    -2
100
AcDbLine
 10
276.2352756030302
 20
171.6729426331833
 30
0.0
 11
271.0557061563966
 21
171.6729426331833
 31
0.0
  0
LINE
  5
E00ED91E
330
E00DEA5D
100
AcDbEntity
  8
JISSEN
100
AcDbLine
 10
276.2352756030301
 20
170.6700580166692
 30
0.0
 11
271.0557061563966
 21
170.6700580166427
 31
0.0
  0
LINE
  5
E00ED91F
330
E00DEA5D
100
AcDbEntity
  8
JISSEN
100
AcDbLine
 10
276.2352756030301
 20
170.6700580166692
 30
0.0
 11
271.0557061563966
 21
170.6700580166427
 31
0.0
  0
LINE
  5
E00ED920
330
E00DEA5D
100
AcDbEntity
  8
JISSEN
370
    -2
100
AcDbLine
 10
277.1751008311984
 20
174.6729431248816
 30
0.0
 11
271.0557061563966
 21
174.6729431248816
 31
0.0
  0
LINE
  5
E00ED921
330
E00DEA5D
100
AcDbEntity
  8
JISSEN
370
    -2
100
AcDbLine
 10
265.8761367097374
 20
171.6729426331836
 30
0.0
 11
271.0557061563966
 21
171.6729426331851
 31
0.0
  0
LINE
  5
E00ED922
330
E00DEA5D
100
AcDbEntity
  8
JISSEN
100
AcDbLine
 10
265.8761367097374
 20
170.6700580166692
 30
0.0
 11
271.0557061563966
 21
170.6700580166427
 31
0.0
  0
LINE
  5
E00ED923
330
E00DEA5D
100
AcDbEntity
  8
JISSEN
100
AcDbLine
 10
265.8761367097374
 20
170.6700580166692
 30
0.0
 11
271.0557061563966
 21
170.6700580166427
 31
0.0
  0
SPLINE
  5
E00ED924
330
E00DEA5D
100
AcDbEntity
  8
JISSEN
370
    -2
100
AcDbSpline
210
0.0
220
0.0
230
1.0
 70
    12
 71
     3
 72
    10
 73
     6
 74
     0
 42
0.0000000001
 43
0.0000000001
 40
0.4863364291330427
 40
0.4863364291330427
 40
0.4863364291330427
 40
0.4863364291330427
 40
0.5996174274824865
 40
0.7976149977365948
 40
1.0
 40
1.0
 40
1.0
 40
1.0
 10
265.8672735839294
 20
171.9488153420999
 30
0.0
 41
1.0
 10
265.9787132096735
 20
171.899299376065
 30
0.0
 41
1.0
 10
266.2955662498847
 20
171.7877218303046
 30
0.0
 41
1.0
 10
266.8474395283627
 20
171.6883900717687
 30
0.0
 41
1.0
 10
267.2910267470177
 20
171.6781292590451
 30
0.0
 41
1.0
 10
267.5152507927522
 20
171.6729426331833
 30
0.0
 41
1.0
  0
ARC
  5
E00ED925
330
E00DEA5D
100
AcDbEntity
  8
JISSEN
370
    -2
100
AcDbCircle
 10
277.3701703549976
 20
173.0355651163802
 30
0.0
 40
1.648956901138485
100
AcDbArc
 50
4.778960574511389
 51
96.79392819032045
  0
SPLINE
  5
E00ED926
330
E00DEA5D
100
AcDbEntity
  8
JISSEN
370
    -2
100
AcDbSpline
210
0.0
220
0.0
230
1.0
 70
    12
 71
     3
 72
    14
 73
    10
 74
     0
 42
0.0000000001
 43
0.0000000001
 40
0.0
 40
0.0
 40
0.0
 40
0.0
 40
0.2170493941225676
 40
0.4388311995732112
 40
0.5988137766302898
 40
0.7597871991591737
 40
0.8750649674182215
 40
0.9755548291618868
 40
1.0
 40
1.0
 40
1.0
 40
1.0
 10
274.5961615200411
 20
174.6729431249216
 30
0.0
 41
1.0
 10
274.8365240097235
 20
174.6669775733491
 30
0.0
 41
1.0
 10
275.3224897047965
 20
174.6549164009914
 30
0.0
 41
1.0
 10
275.963121291992
 20
174.5257269105488
 30
0.0
 41
1.0
 10
276.5000560906836
 20
174.2898038530104
 30
0.0
 41
1.0
 10
276.8718636675183
 20
173.9837435443726
 30
0.0
 41
1.0
 10
277.0936465446947
 20
173.6188633077611
 30
0.0
 41
1.0
 10
277.160365900001
 20
173.3452800503685
 30
0.0
 41
1.0
 10
277.1637538098592
 20
173.2011448194564
 30
0.0
 41
1.0
 10
277.1644166986715
 20
173.1729428790524
 30
0.0
 41
1.0
  0
SPLINE
  5
E00ED927
330
E00DEA5D
100
AcDbEntity
  8
JISSEN
370
    -2
100
AcDbSpline
210
0.0
220
0.0
230
1.0
 70
    12
 71
     3
 72
    10
 73
     6
 74
     0
 42
0.0000000001
 43
0.0000000001
 40
0.4863364291330975
 40
0.4863364291330975
 40
0.4863364291330975
 40
0.4863364291330975
 40
0.5996174274824865
 40
0.7976149977365948
 40
1.0
 40
1.0
 40
1.0
 40
1.0
 10
276.2441387288636
 20
171.9488153420998
 30
0.0
 41
1.0
 10
276.1326991031197
 20
171.899299376065
 30
0.0
 41
1.0
 10
275.8158460629086
 20
171.7877218303046
 30
0.0
 41
1.0
 10
275.2639727844306
 20
171.6883900717687
 30
0.0
 41
1.0
 10
274.8203855657755
 20
171.6781292590451
 30
0.0
 41
1.0
 10
274.5961615200411
 20
171.6729426331833
 30
0.0
 41
1.0
  0
LINE
  5
E00ED928
330
E00DEA5D
100
AcDbEntity
  8
JISSEN
100
AcDbLine
 10
276.4062856747548
 20
172.4229012958687
 30
0.0
 11
276.2352756030557
 21
171.9229012958687
 31
0.0
  0
SPLINE
  5
E00ED929
330
E00DEA5D
100
AcDbEntity
  8
JISSEN
370
    -2
100
AcDbSpline
210
0.0
220
0.0
230
1.0
 70
    12
 71
     3
 72
    10
 73
     6
 74
     0
 42
0.0000000001
 43
0.0000000001
 40
0.0
 40
0.0
 40
0.0
 40
0.0
 40
0.1088769686984931
 40
0.2172663573285982
 40
0.2385701061928065
 40
0.2385701061928065
 40
0.2385701061928065
 40
0.2385701061928065
 10
277.1644166986715
 20
173.1729428790524
 30
0.0
 41
1.0
 10
277.1517234082556
 20
173.0466618928287
 30
0.0
 41
1.0
 10
277.1263936713611
 20
172.7946654402796
 30
0.0
 41
1.0
 10
276.9922123607822
 20
172.5552436184423
 30
0.0
 41
1.0
 10
276.9035567693908
 20
172.4412040819268
 30
0.0
 41
1.0
 10
276.8885956191303
 20
172.4229012958687
 30
0.0
 41
1.0
  0
ARC
  5
E00ED92A
330
E00DEA5D
100
AcDbEntity
  8
JISSEN
370
    -2
100
AcDbCircle
 10
277.3777112116976
 20
173.3010791028821
 30
0.0
 40
1.640694770587604
100
AcDbArc
 50
327.6393008350143
 51
355.5207093781103
  0
LINE
  5
E00ED92B
330
E00DEA5D
100
AcDbEntity
  8
JISSEN
 62
     0
 48
0.1
100
AcDbLine
 10
287.5735509655212
 20
161.1547855858036
 30
0.0
 11
287.7557061563964
 21
172.4229012958687
 31
0.0
  0
LINE
  5
E00ED92C
330
E00DEA5D
100
AcDbEntity
  8
JISSEN
 62
     0
 48
0.1
100
AcDbLine
 10
285.9438499611934
 20
167.4229012958442
 30
0.0
 11
286.0257441635019
 21
171.9270824230126
 31
0.0
  0
LINE
  5
E00ED92D
330
E00DEA5D
100
AcDbEntity
  8
JISSEN
100
AcDbLine
 10
281.7902592382121
 20
172.4229012958687
 30
0.0
 11
281.790259238212
 21
167.4229012958024
 31
0.0
  0
LINE
  5
E00ED92E
330
E00DEA5D
100
AcDbEntity
  8
JISSEN
 62
     0
 48
0.1
100
AcDbLine
 10
287.4211679247969
 20
167.4229012958314
 30
0.0
 11
287.5019956317371
 21
172.4229012958687
 31
0.0
  0
LINE
  5
E00ED92F
330
E00DEA5D
100
AcDbEntity
  8
JISSEN
100
AcDbLine
 10
285.7057061563981
 20
167.6700580166427
 30
0.0
 11
286.0057061563974
 21
170.1133619450367
 31
0.0
  0
LINE
  5
E00ED930
330
E00DEA5D
100
AcDbEntity
  8
JISSEN
100
AcDbLine
 10
285.1956983722329
 20
165.9229012958683
 30
0.0
 11
287.0866494962998
 21
165.9229012958694
 31
0.0
  0
LINE
  5
E00ED931
330
E00DEA5D
100
AcDbEntity
  8
JISSEN
100
AcDbLine
 10
285.8090041769969
 20
162.9229012958687
 30
0.0
 11
285.820698372311
 21
165.9229012958687
 31
0.0
  0
LINE
  5
E00ED932
330
E00DEA5D
100
AcDbEntity
  8
JISSEN
100
AcDbLine
 10
285.2090041769958
 20
162.9229012958687
 30
0.0
 11
285.1956983722333
 21
165.9229012957934
 31
0.0
  0
LINE
  5
E00ED933
330
E00DEA5D
100
AcDbEntity
  8
JISSEN
100
AcDbLine
 10
285.2090041769958
 20
162.9229012958687
 30
0.0
 11
285.8090041769969
 21
162.9229012958687
 31
0.0
  0
LINE
  5
E00ED934
330
E00DEA5D
100
AcDbEntity
  8
JISSEN
100
AcDbLine
 10
283.2255141315499
 20
165.9229012958687
 30
0.0
 11
283.8944494310124
 21
165.9229012958687
 31
0.0
  0
SPLINE
  5
E00ED935
330
E00DEA5D
100
AcDbEntity
  8
JISSEN
100
AcDbSpline
210
0.0
220
0.0
230
1.0
 70
     8
 71
     3
 72
    18
 73
    14
 74
     0
 42
0.0000000001
 43
0.0000000001
 40
0.0
 40
0.0
 40
0.0
 40
0.0
 40
0.1250000000000001
 40
0.1250000000000001
 40
0.2500000000000001
 40
0.2500000000000001
 40
0.5
 40
0.5
 40
0.7499999999999999
 40
0.7499999999999999
 40
0.8749999999999998
 40
0.8749999999999998
 40
1.0
 40
1.0
 40
1.0
 40
1.0
 10
281.7902592381829
 20
167.4229012958068
 30
0.0
 10
281.7902592381829
 20
167.3242077099632
 30
0.0
 10
281.7993208369603
 20
167.2268649402896
 30
0.0
 10
281.8351695676115
 20
167.0348162540114
 30
0.0
 10
281.8624294499382
 20
166.9391942317717
 30
0.0
 10
281.9685880808078
 20
166.6673715130174
 30
0.0
 10
282.073871113927
 20
166.5005252671264
 30
0.0
 10
282.3375176720233
 20
166.2231365581857
 30
0.0
 10
282.496757246608
 20
166.1117782925204
 30
0.0
 10
282.7574726043926
 20
165.9994805317903
 30
0.0
 10
282.8494321514313
 20
165.9705929278399
 30
0.0
 10
283.0350155613373
 20
165.9325388288554
 30
0.0
 10
283.1294260923509
 20
165.9229012958068
 30
0.0
 10
283.2255141315504
 20
165.9229012958068
 30
0.0
  0
SPLINE
  5
E00ED936
330
E00DEA5D
100
AcDbEntity
  8
JISSEN
100
AcDbSpline
210
0.0
220
0.0
230
1.0
 70
     8
 71
     3
 72
    18
 73
    14
 74
     0
 42
0.0000000001
 43
0.0000000001
 40
0.0
 40
0.0
 40
0.0
 40
0.0
 40
0.1250000000000001
 40
0.1250000000000001
 40
0.2500000000000002
 40
0.2500000000000002
 40
0.3750000000000002
 40
0.3750000000000002
 40
0.5000000000000004
 40
0.5000000000000004
 40
0.7500000000000001
 40
0.7500000000000001
 40
1.0
 40
1.0
 40
1.0
 40
1.0
 10
285.9438499611933
 20
167.422901295844
 30
0.0
 10
285.9438499611933
 20
167.3237605144805
 30
0.0
 10
285.9421688044676
 20
167.2262770005855
 30
0.0
 10
285.935474959162
 20
167.0344890546331
 30
0.0
 10
285.930379314248
 20
166.9391902667449
 30
0.0
 10
285.9167285096209
 20
166.7574751453486
 30
0.0
 10
285.9082420443046
 20
166.6712929419373
 30
0.0
 10
285.8875177166537
 20
166.5081984154986
 30
0.0
 10
285.875156850634
 20
166.4309888859317
 30
0.0
 10
285.8330902717698
 20
166.2234551740676
 30
0.0
 10
285.7971820049278
 20
166.1117877537837
 30
0.0
 10
285.7126037828311
 20
165.9624130314297
 30
0.0
 10
285.6631161988352
 20
165.9229012958441
 30
0.0
 10
285.6093315326961
 20
165.9229012958441
 30
0.0
  0
LINE
  5
E00ED937
330
E00DEA5D
100
AcDbEntity
  8
JISSEN
100
AcDbLine
 10
284.3478535650963
 20
165.9229012958687
 30
0.0
 11
285.1956983722329
 21
165.9229012958687
 31
0.0
  0
LINE
  5
E00ED938
330
E00DEA5D
100
AcDbEntity
  8
JISSEN
100
AcDbLine
 10
283.8944494339982
 20
165.9229012958687
 30
0.0
 11
284.5206300373981
 21
165.9229012958687
 31
0.0
  0
LINE
  5
E00ED939
330
E00DEA5D
100
AcDbEntity
  8
JISSEN
100
AcDbLine
 10
285.9483437197532
 20
167.6700580166427
 30
0.0
 11
285.7057061563981
 21
167.6700580166427
 31
0.0
  0
ARC
  5
E00ED93A
330
E00DEA5D
100
AcDbEntity
  8
JISSEN
100
AcDbCircle
 10
287.6572004126962
 20
159.4167715334689
 30
0.0
 40
1.499999999999995
100
AcDbArc
 50
275.18157546905
 51
278.0000000000402
  0
ARC
  5
E00ED93B
330
E00DEA5D
100
AcDbEntity
  8
JISSEN
100
AcDbCircle
 10
289.0733550103821
 20
161.1305404414444
 30
0.0
 40
1.5
100
AcDbArc
 50
179.073863373509
 51
187.9567814936291
  0
SPLINE
  5
E00ED93C
330
E00DEA5D
100
AcDbEntity
  8
JISSEN
100
AcDbSpline
210
0.0
220
0.0
230
1.0
 70
     8
 71
     3
 72
    18
 73
    14
 74
     0
 42
0.0000000001
 43
0.0000000001
 40
0.0
 40
0.0
 40
0.0
 40
0.0
 40
0.1250000000000001
 40
0.1250000000000001
 40
0.2500000000000002
 40
0.2500000000000002
 40
0.3750000000000002
 40
0.3750000000000002
 40
0.5000000000000004
 40
0.5000000000000004
 40
0.7500000000000001
 40
0.7500000000000001
 40
1.0
 40
1.0
 40
1.0
 40
1.0
 10
287.4211679247969
 20
167.4229012958377
 30
0.0
 10
287.4211679247969
 20
167.3237605144742
 30
0.0
 10
287.4194867680712
 20
167.2262770005792
 30
0.0
 10
287.4127929227656
 20
167.0344890546268
 30
0.0
 10
287.4076972778516
 20
166.9391902667386
 30
0.0
 10
287.3940464732245
 20
166.7574751453423
 30
0.0
 10
287.3855600079082
 20
166.671292941931
 30
0.0
 10
287.3648356802573
 20
166.5081984154923
 30
0.0
 10
287.3524748142376
 20
166.4309888859254
 30
0.0
 10
287.3104082353734
 20
166.2234551740613
 30
0.0
 10
287.2744999685314
 20
166.1117877537773
 30
0.0
 10
287.1899217464347
 20
165.9624130314234
 30
0.0
 10
287.1404341624388
 20
165.9229012958378
 30
0.0
 10
287.0866494962997
 20
165.9229012958378
 30
0.0
  0
LINE
  5
E00ED93D
330
E00DEA5D
100
AcDbEntity
  8
JISSEN
100
AcDbLine
 10
286.5557061563965
 20
172.4229012958687
 30
0.0
 11
287.7557061563964
 21
172.4229012958687
 31
0.0
  0
LINE
  5
E00ED93F
330
E00DEA5D
100
AcDbEntity
  8
JISSEN
100
AcDbLine
 10
285.7057061563972
 20
170.6700580167155
 30
0.0
 11
285.7057061563972
 21
177.1729016311721
 31
0.0
  0
LINE
  5
E00ED940
330
E00DEA5D
100
AcDbEntity
  8
JISSEN
100
AcDbLine
 10
286.005706156442
 20
170.6700580167191
 30
0.0
 11
281.790259238212
 21
170.6700580166975
 31
0.0
  0
LINE
  5
E00ED941
330
E00DEA5D
100
AcDbEntity
  8
JISSEN
100
AcDbLine
 10
286.005706156441
 20
170.6700580167191
 30
0.0
 11
281.7902592382121
 21
170.6700580166976
 31
0.0
  0
LINE
  5
E00ED942
330
E00DEA5D
100
AcDbEntity
  8
JISSEN
100
AcDbLine
 10
286.0257441635019
 20
171.9270824230126
 30
0.0
 11
286.5215630363579
 21
172.4229012958687
 31
0.0
  0
LINE
  5
E00ED943
330
E00DEA5D
100
AcDbEntity
  8
JISSEN
100
AcDbLine
 10
286.5202263280977
 20
172.4229012958687
 30
0.0
 11
286.5557061563965
 21
172.4229012958687
 31
0.0
  0
LINE
  5
E00ED944
330
E00DEA5D
100
AcDbEntity
  8
JISSEN
100
AcDbLine
 10
286.0057061563974
 20
170.6700580166427
 30
0.0
 11
285.7057061563972
 21
170.6700580166427
 31
0.0
  0
LINE
  5
E00ED945
330
E00DEA5D
100
AcDbEntity
  8
SAISEN
100
AcDbLine
 10
285.2057061563972
 20
176.1729016180718
 30
0.0
 11
285.2057061563963
 21
177.1729016311685
 31
0.0
  0
LINE
  5
E00ED946
330
E00DEA5D
100
AcDbEntity
  8
JISSEN
100
AcDbLine
 10
285.7057061563972
 20
176.1729016180681
 30
0.0
 11
285.2057061563972
 21
176.1729016180681
 31
0.0
  0
LINE
  5
E00ED949
330
E00DEA5D
100
AcDbEntity
  8
JISSEN
100
AcDbLine
 10
259.7717315601811
 20
183.6729016311685
 30
0.0
 11
271.0557061563966
 21
183.6729016311685
 31
0.0
  0
LINE
  5
E00ED94B
330
E00DEA5D
100
AcDbEntity
  8
JISSEN
100
AcDbLine
 10
262.0557061563967
 20
199.4729016311678
 30
0.0
 11
271.0557061563966
 21
199.4729016311678
 31
0.0
  0
LINE
  5
E00ED94C
330
E00DEA5D
100
AcDbEntity
  8
JISSEN
100
AcDbLine
 10
260.7936093822962
 20
198.2108048569709
 30
0.0
 11
271.0557061563966
 21
198.2108048569709
 31
0.0
  0
LINE
  5
E00ED94D
330
E00DEA5D
100
AcDbEntity
  8
NITEN
100
AcDbLine
 10
258.5557061563966
 20
188.4729016311678
 30
0.0
 11
283.5557061563966
 21
188.4729016311678
 31
0.0
  0
LINE
  5
E00ED94E
330
E00DEA5D
100
AcDbEntity
  8
NITEN
100
AcDbLine
 10
258.0557061563967
 20
205.2782520449029
 30
0.0
 11
258.0557061563971
 21
188.9729016311678
 31
0.0
  0
LINE
  5
E00ED94F
330
E00DEA5D
100
AcDbEntity
  8
JISSEN
100
AcDbLine
 10
260.7936093822962
 20
198.2108048569709
 30
0.0
 11
260.3392999064461
 21
183.6729016311685
 31
0.0
  0
LINE
  5
E00ED950
330
E00DEA5D
100
AcDbEntity
  8
SAISEN
100
AcDbLine
 10
261.5576970383998
 20
185.472901631175
 30
0.0
 11
261.9932675997796
 21
199.4104630722133
 31
0.0
  0
LINE
  5
E00ED951
330
E00DEA5D
100
AcDbEntity
  8
SAISEN
100
AcDbLine
 10
261.5576970383998
 20
185.4729016311714
 30
0.0
 11
261.9932675997796
 21
199.4104630722097
 31
0.0
  0
ARC
  5
E00ED954
330
E00DEA5D
100
AcDbEntity
  8
NITEN
100
AcDbCircle
 10
258.5557061563966
 20
188.9729016311678
 30
0.0
 40
0.5
100
AcDbArc
 50
180.0
 51
270.0
  0
LINE
  5
E00ED955
330
E00DEA5D
100
AcDbEntity
  8
JISSEN
100
AcDbLine
 10
262.0557061563967
 20
199.4729016311678
 30
0.0
 11
260.7936093822962
 21
198.2108048569709
 31
0.0
  0
ARC
  5
E00ED956
330
E00DEA5D
100
AcDbEntity
  8
NITEN
100
AcDbCircle
 10
252.0557061563966
 20
212.7332294119544
 30
0.0
 40
0.5
100
AcDbArc
 50
180.0
 51
235.0079798014511
  0
LINE
  5
E00ED957
330
E00DEA5D
100
AcDbEntity
  8
NITEN
100
AcDbLine
 10
257.9240980285666
 20
205.6163162821714
 30
0.0
 11
251.7689749842155
 21
212.3236134516949
 31
0.0
  0
ARC
  5
E00ED958
330
E00DEA5D
100
AcDbEntity
  8
NITEN
100
AcDbCircle
 10
257.5557061563967
 20
205.2782520449029
 30
0.0
 40
0.5
100
AcDbArc
 50
0.0
 51
42.54184415662172
  0
LINE
  5
E00ED959
330
E00DEA5D
100
AcDbEntity
  8
NITEN
100
AcDbLine
 10
284.0557061563971
 20
205.2782520449029
 30
0.0
 11
284.0557061563966
 21
188.9729016311678
 31
0.0
  0
LINE
  5
E00ED95B
330
E00DEA5D
100
AcDbEntity
  8
JISSEN
100
AcDbLine
 10
282.3396807526122
 20
183.6729016311685
 30
0.0
 11
271.0557061563966
 21
183.6729016311685
 31
0.0
  0
LINE
  5
E00ED95C
330
E00DEA5D
100
AcDbEntity
  8
JISSEN
100
AcDbLine
 10
280.0557061563967
 20
199.4729016311678
 30
0.0
 11
271.0557061563966
 21
199.4729016311678
 31
0.0
  0
LINE
  5
E00ED95D
330
E00DEA5D
100
AcDbEntity
  8
JISSEN
100
AcDbLine
 10
281.3178029304971
 20
198.2108048569709
 30
0.0
 11
271.0557061563966
 21
198.2108048569709
 31
0.0
  0
LINE
  5
E00ED95E
330
E00DEA5D
100
AcDbEntity
  8
NITEN
100
AcDbLine
 10
280.0557061563967
 20
188.4729016311678
 30
0.0
 11
271.0557061563966
 21
188.4729016311678
 31
0.0
  0
LINE
  5
E00ED963
330
E00DEA5D
100
AcDbEntity
  8
JISSEN
100
AcDbLine
 10
281.3178029304971
 20
198.2108048569709
 30
0.0
 11
281.7721124063472
 21
183.6729016311685
 31
0.0
  0
LINE
  5
E00ED964
330
E00DEA5D
100
AcDbEntity
  8
SAISEN
100
AcDbLine
 10
280.5537152743935
 20
185.4729016311714
 30
0.0
 11
280.1181447130137
 21
199.4104630722097
 31
0.0
  0
LINE
  5
E00ED965
330
E00DEA5D
100
AcDbEntity
  8
SAISEN
100
AcDbLine
 10
280.5537152743935
 20
185.472901631175
 30
0.0
 11
280.1181447130137
 21
199.4104630722133
 31
0.0
  0
ARC
  5
E00ED967
330
E00DEA5D
100
AcDbEntity
  8
NITEN
100
AcDbCircle
 10
283.5557061563966
 20
188.9729016311678
 30
0.0
 40
0.5
100
AcDbArc
 50
270.0
 51
0.0
  0
LINE
  5
E00ED969
330
E00DEA5D
100
AcDbEntity
  8
JISSEN
100
AcDbLine
 10
280.0557061563967
 20
199.4729016311678
 30
0.0
 11
281.3178029304971
 21
198.2108048569709
 31
0.0
  0
LINE
  5
E00ED96A
330
E00DEA5D
100
AcDbEntity
  8
NITEN
100
AcDbLine
 10
284.1873142842276
 20
205.6163162821714
 30
0.0
 11
290.3424373285787
 21
212.3236134516949
 31
0.0
  0
ARC
  5
E00ED96B
330
E00DEA5D
100
AcDbEntity
  8
NITEN
100
AcDbCircle
 10
284.5557061563967
 20
205.2782520449029
 30
0.0
 40
0.5
100
AcDbArc
 50
137.4581558433782
 51
180.0
  0
ARC
  5
E00ED96C
330
E00DEA5D
100
AcDbEntity
  8
NITEN
100
AcDbCircle
 10
290.0557061563966
 20
212.7332294119544
 30
0.0
 40
0.5
100
AcDbArc
 50
304.9920201985488
 51
0.0
  0
ELLIPSE
  5
E00ED96D
330
E00DEA5D
100
AcDbEntity
  8
NITEN
100
AcDbEllipse
 10
262.5557061563966
 20
245.2768901555693
 30
0.0
 11
-8.5
 21
0.0
 31
0.0
210
0.0
220
0.0
230
1.0
 40
0.2352941176470588
 41
3.141592653589793
 42
6.283185307179586
  0
LINE
  5
E00ED96E
330
E00DEA5D
100
AcDbEntity
  8
NITEN
100
AcDbLine
 10
290.0557061563966
 20
230.4729016311678
 30
0.0
 11
252.0557061563966
 21
230.4729016311678
 31
0.0
  0
LINE
  5
E00ED96F
330
E00DEA5D
100
AcDbEntity
  8
NITEN
100
AcDbLine
 10
254.0557061563966
 20
230.4729016311678
 30
0.0
 11
254.0557061563966
 21
245.2768901555693
 31
0.0
  0
ARC
  5
E00ED970
330
E00DEA5D
100
AcDbEntity
  8
NITEN
100
AcDbCircle
 10
252.0557061563966
 20
229.9729016311678
 30
0.0
 40
0.5
100
AcDbArc
 50
90.0
 51
180.0
  0
LINE
  5
E00ED971
330
E00DEA5D
100
AcDbEntity
  8
NITEN
100
AcDbLine
 10
288.0557061563966
 20
230.4729016311678
 30
0.0
 11
288.0557061563966
 21
245.2768901555693
 31
0.0
  0
ARC
  5
E00ED972
330
E00DEA5D
100
AcDbEntity
  8
NITEN
100
AcDbCircle
 10
290.0557061563966
 20
229.9729016311678
 30
0.0
 40
0.5
100
AcDbArc
 50
0.0
 51
90.0
  0
ELLIPSE
  5
E00ED973
330
E00DEA5D
100
AcDbEntity
  8
NITEN
100
AcDbEllipse
 10
279.5557061563966
 20
245.2768901555693
 30
0.0
 11
-8.499999999999985
 21
0.0
 31
0.0
210
0.0
220
0.0
230
1.0
 40
0.2352941176470057
 41
0.0
 42
6.283185307179586
  0
LINE
  5
E00ED974
330
E00DEA5D
100
AcDbEntity
  8
SUNPOU
100
AcDbLine
 10
296.0557061563966
 20
170.9229012958687
 30
0.0
 11
296.0557061563966
 21
160.9229012958687
 31
0.0
  0
LINE
  5
E00ED975
330
E00DEA5D
100
AcDbEntity
  8
JISSEN
100
AcDbLine
 10
303.5557061563965
 20
160.9229012958687
 30
0.0
 11
303.5557061563965
 21
160.5710628112694
 31
0.0
  0
ARC
  5
E00ED976
330
E00DEA5D
100
AcDbEntity
  8
JISSEN
100
AcDbCircle
 10
303.0557061563965
 20
160.5710628112694
 30
0.0
 40
0.5000000000000005
100
AcDbArc
 50
278.0000000000402
 51
0.000000000000007
  0
SPLINE
  5
E00ED977
330
E00DEA5D
100
AcDbEntity
  8
SUNPOU
100
AcDbSpline
210
0.0
220
0.0
230
1.0
 70
     8
 71
     3
 72
    11
 73
     7
 74
     5
 42
0.0000000001
 43
0.0000000001
 44
0.0000000001
 40
0.0
 40
0.0
 40
0.0
 40
0.0
 40
3.264692203133994
 40
6.15697472568029
 40
8.955271668736928
 40
10.85738683396026
 40
10.85738683396026
 40
10.85738683396026
 40
10.85738683396026
 10
328.1075742610254
 20
170.9229012958687
 30
0.0
 10
327.432473572739
 20
169.9215023446635
 30
0.0
 10
326.1592822222411
 20
168.0329359349499
 30
0.0
 10
328.4251269385853
 20
165.1815649018806
 30
0.0
 10
326.2220097720286
 20
162.5552344041397
 30
0.0
 10
327.5643639627627
 20
161.3931584309507
 30
0.0
 10
328.1075742610254
 20
160.9229012958687
 30
0.0
 11
328.1075742610254
 21
170.9229012958687
 31
0.0
 11
326.8782338834615
 21
167.8985108750905
 31
0.0
 11
327.6504173374313
 21
165.1112127382486
 31
0.0
 11
326.9211108056232
 21
162.4096247303944
 31
0.0
 11
328.1075742610254
 21
160.9229012958687
 31
0.0
  0
LINE
  5
E00EDA04
330
E00DEA5D
100
AcDbEntity
  8
JISSEN
100
AcDbLine
 39
1680.364539346804
 10
107.5557068803958
 20
179.522901631178
 30
0.0
 11
106.3057068803885
 21
179.522901631178
 31
0.0
  0
LINE
  5
E00EDA05
330
E00DEA5D
100
AcDbEntity
  8
JISSEN
100
AcDbLine
 39
1680.364539346804
 10
107.5557068803958
 20
178.9229016311794
 30
0.0
 11
106.3057068804049
 21
178.9229016311776
 31
0.0
  0
LINE
  5
E00EDA06
330
E00DEA5D
100
AcDbEntity
  8
JISSEN
100
AcDbLine
 39
1680.364539346804
 10
107.5557068803958
 20
178.0229016311761
 30
0.0
 11
106.305706880394
 21
178.0229016311761
 31
0.0
  0
LINE
  5
E00EDA07
330
E00DEA5D
100
AcDbEntity
  8
JISSEN
100
AcDbLine
 39
1680.364539346804
 10
107.5557068803995
 20
181.9229016311794
 30
0.0
 11
106.3057068804085
 21
181.9229016311794
 31
0.0
  0
LINE
  5
E00EDA08
330
E00DEA5D
100
AcDbEntity
  8
JISSEN
100
AcDbLine
 39
1680.364539346804
 10
107.5557068803995
 20
181.022901631178
 30
0.0
 11
106.3057068803922
 21
181.022901631178
 31
0.0
  0
LINE
  5
E00EDA09
330
E00DEA5D
100
AcDbEntity
  8
JISSEN
100
AcDbLine
 39
1680.364539346804
 10
107.5557068803958
 20
180.4229016311794
 30
0.0
 11
106.3057068804104
 21
180.4229016311794
 31
0.0
  0
LINE
  5
E00EDA0A
330
E00DEA5D
100
AcDbEntity
  8
JISSEN
100
AcDbLine
 39
1680.364539346804
 10
103.8057068803958
 20
178.0229016311761
 30
0.0
 11
92.55570688039586
 21
178.0229016311761
 31
0.0
  0
LINE
  5
E00EDA0B
330
E00DEA5D
100
AcDbEntity
  8
JISSEN
100
AcDbLine
 39
1680.364539346804
 10
103.8057068803958
 20
178.9229016311794
 30
0.0
 11
92.55570688039586
 21
178.9229016311794
 31
0.0
  0
LINE
  5
E00EDA0C
330
E00DEA5D
100
AcDbEntity
  8
JISSEN
100
AcDbLine
 39
1680.364539346804
 10
103.8057068803958
 20
179.522901631178
 30
0.0
 11
92.55570688039586
 21
179.522901631178
 31
0.0
  0
LINE
  5
E00EDA0D
330
E00DEA5D
100
AcDbEntity
  8
JISSEN
100
AcDbLine
 39
1680.364539346804
 10
103.8057068803958
 20
181.0229016311798
 30
0.0
 11
92.55570688035039
 21
181.022901631178
 31
0.0
  0
LINE
  5
E00EDA0E
330
E00DEA5D
100
AcDbEntity
  8
JISSEN
100
AcDbLine
 39
1680.364539346804
 10
103.8057068803958
 20
180.4229016311812
 30
0.0
 11
92.55570688039586
 21
180.4229016311794
 31
0.0
  0
LINE
  5
E00EDA0F
330
E00DEA5D
100
AcDbEntity
  8
JISSEN
100
AcDbLine
 39
1680.364539346804
 10
103.8057068803958
 20
181.9229016311776
 30
0.0
 11
92.55570688035039
 21
181.9229016311758
 31
0.0
  0
LINE
  5
E00EDA10
330
E00DEA5D
100
AcDbEntity
  8
JISSEN
100
AcDbLine
 39
1680.364539346804
 10
72.55570688039586
 20
180.4229016311794
 30
0.0
 11
73.8057068803813
 21
180.4229016311794
 31
0.0
  0
LINE
  5
E00EDA11
330
E00DEA5D
100
AcDbEntity
  8
JISSEN
100
AcDbLine
 39
1680.364539346804
 10
72.55570688039222
 20
181.022901631178
 30
0.0
 11
73.80570688039949
 21
181.022901631178
 31
0.0
  0
LINE
  5
E00EDA12
330
E00DEA5D
100
AcDbEntity
  8
JISSEN
100
AcDbLine
 39
1680.364539346804
 10
72.55570688039222
 20
181.9229016311794
 30
0.0
 11
73.80570688038313
 21
181.9229016311794
 31
0.0
  0
LINE
  5
E00EDA13
330
E00DEA5D
100
AcDbEntity
  8
JISSEN
100
AcDbLine
 39
1680.364539346804
 10
72.55570688039586
 20
178.0229016311761
 30
0.0
 11
73.80570688039767
 21
178.0229016311761
 31
0.0
  0
LINE
  5
E00EDA14
330
E00DEA5D
100
AcDbEntity
  8
JISSEN
100
AcDbLine
 39
1680.364539346804
 10
72.55570688039586
 20
178.9229016311794
 30
0.0
 11
73.80570688038677
 21
178.9229016311776
 31
0.0
  0
LINE
  5
E00EDA15
330
E00DEA5D
100
AcDbEntity
  8
JISSEN
100
AcDbLine
 39
1680.364539346804
 10
72.55570688039586
 20
179.522901631178
 30
0.0
 11
73.80570688040314
 21
179.522901631178
 31
0.0
  0
LINE
  5
E00EDA16
330
E00DEA5D
100
AcDbEntity
  8
JISSEN
100
AcDbLine
 39
1680.364539346804
 10
76.30570688039586
 20
181.9229016311776
 30
0.0
 11
87.55570688044134
 21
181.9229016311758
 31
0.0
  0
LINE
  5
E00EDA17
330
E00DEA5D
100
AcDbEntity
  8
JISSEN
100
AcDbLine
 39
1680.364539346804
 10
76.30570688039586
 20
180.4229016311812
 30
0.0
 11
87.55570688039586
 21
180.4229016311794
 31
0.0
  0
LINE
  5
E00EDA18
330
E00DEA5D
100
AcDbEntity
  8
JISSEN
100
AcDbLine
 39
1680.364539346804
 10
76.30570688039586
 20
181.0229016311798
 30
0.0
 11
87.55570688044134
 21
181.022901631178
 31
0.0
  0
LINE
  5
E00EDA19
330
E00DEA5D
100
AcDbEntity
  8
JISSEN
100
AcDbLine
 39
1680.364539346804
 10
76.30570688039586
 20
179.522901631178
 30
0.0
 11
87.55570688039586
 21
179.522901631178
 31
0.0
  0
LINE
  5
E00EDA1A
330
E00DEA5D
100
AcDbEntity
  8
JISSEN
100
AcDbLine
 39
1680.364539346804
 10
76.30570688039586
 20
178.9229016311794
 30
0.0
 11
87.55570688039586
 21
178.9229016311794
 31
0.0
  0
LINE
  5
E00EDA1B
330
E00DEA5D
100
AcDbEntity
  8
JISSEN
100
AcDbLine
 39
1680.364539346804
 10
76.30570688039586
 20
178.0229016311761
 30
0.0
 11
87.55570688039586
 21
178.0229016311761
 31
0.0
  0
LINE
  5
E00EDA1C
330
E00DEA5D
100
AcDbEntity
  8
JISSEN
100
AcDbLine
 10
103.8057068803958
 20
177.6763309121736
 30
0.0
 11
92.55570688039586
 21
177.6763309121754
 31
0.0
  0
LINE
  5
E00EDA1D
330
E00DEA5D
100
AcDbEntity
  8
JISSEN
100
AcDbLine
 10
76.30570688039586
 20
177.6763309121736
 30
0.0
 11
87.55570688039586
 21
177.6763309121754
 31
0.0
  0
LINE
  5
E00EDA1E
330
E00DEA5D
100
AcDbEntity
  8
JISSEN
100
AcDbLine
 10
72.55570688039586
 20
178.0229016311761
 30
0.0
 11
72.55570688039586
 21
177.6729016311739
 31
0.0
  0
LINE
  5
E00EDA1F
330
E00DEA5D
100
AcDbEntity
  8
JISSEN
100
AcDbLine
 10
73.80570688039586
 20
177.6729016311739
 30
0.0
 11
73.80570688039586
 21
178.0229016311761
 31
0.0
  0
LINE
  5
E00EDA20
330
E00DEA5D
100
AcDbEntity
  8
JISSEN
100
AcDbLine
 10
73.80570688039586
 20
177.6729016311739
 30
0.0
 11
73.80570688039586
 21
178.0229016311761
 31
0.0
  0
LINE
  5
E00EDA21
330
E00DEA5D
100
AcDbEntity
  8
JISSEN
100
AcDbLine
 10
72.55570688039586
 20
177.6763309121736
 30
0.0
 11
73.80570688039586
 21
177.6763309121736
 31
0.0
  0
LINE
  5
E00EDA22
330
E00DEA5D
100
AcDbEntity
  8
JISSEN
100
AcDbLine
 10
72.55570688039586
 20
177.6729016311739
 30
0.0
 11
73.05570688039586
 21
177.172901631174
 31
0.0
  0
SPLINE
  5
E00EDA23
330
E00DEA5D
100
AcDbEntity
  8
JISSEN
100
AcDbSpline
210
0.0
220
0.0
230
1.0
 70
     8
 71
     3
 72
     8
 73
     4
 74
     0
 42
0.0000000001
 43
0.0000000001
 40
0.0
 40
0.0
 40
0.0
 40
0.0
 40
0.0007108901684311
 40
0.0007108901684311
 40
0.0007108901684311
 40
0.0007108901684311
 10
73.80570688039586
 20
177.6763309121736
 30
0.0
 10
73.95156279935543
 20
177.5096384333621
 30
0.0
 10
74.09744018556228
 20
177.3429709952463
 30
0.0
 10
74.24334100118392
 20
177.1763309121736
 30
0.0
  0
LINE
  5
E00EDA24
330
E00DEA5D
100
AcDbEntity
  8
JISSEN
100
AcDbLine
 10
72.55570688039586
 20
182.172901631174
 30
0.0
 11
72.55570688039586
 21
181.9229016311776
 31
0.0
  0
LINE
  5
E00EDA25
330
E00DEA5D
100
AcDbEntity
  8
JISSEN
100
AcDbLine
 10
72.55570688039586
 20
181.022901631178
 30
0.0
 11
72.55570688039586
 21
180.4229016311758
 31
0.0
  0
LINE
  5
E00EDA26
330
E00DEA5D
100
AcDbEntity
  8
JISSEN
100
AcDbLine
 10
72.55570688039586
 20
181.0229016311761
 30
0.0
 11
72.55570688039586
 21
180.4229016311758
 31
0.0
  0
LINE
  5
E00EDA27
330
E00DEA5D
100
AcDbEntity
  8
JISSEN
100
AcDbLine
 10
72.55570688039586
 20
181.0229016311761
 30
0.0
 11
72.55570688039586
 21
180.4229016311758
 31
0.0
  0
LINE
  5
E00EDA28
330
E00DEA5D
100
AcDbEntity
  8
JISSEN
100
AcDbLine
 10
72.55570688039586
 20
181.022901631178
 30
0.0
 11
72.55570688039586
 21
180.4229016311758
 31
0.0
  0
ARC
  5
E00EDA29
330
E00DEA5D
100
AcDbEntity
  8
JISSEN
100
AcDbCircle
 10
72.36820688039404
 20
181.4729016311769
 30
0.0
 40
0.4875000000000239
100
AcDbArc
 50
292.6198649480738
 51
67.38013505192611
  0
LINE
  5
E00EDA2A
330
E00DEA5D
100
AcDbEntity
  8
JISSEN
100
AcDbLine
 10
72.55570688039586
 20
181.022901631178
 30
0.0
 11
72.55570688039586
 21
180.4229016311794
 31
0.0
  0
LINE
  5
E00EDA2B
330
E00DEA5D
100
AcDbEntity
  8
JISSEN
100
AcDbLine
 10
73.80570688039586
 20
181.9229016311776
 30
0.0
 11
73.80570688039586
 21
182.172901631174
 31
0.0
  0
ARC
  5
E00EDA2C
330
E00DEA5D
100
AcDbEntity
  8
JISSEN
100
AcDbCircle
 10
73.61820688039404
 20
181.472901631175
 30
0.0
 40
0.4875000000000239
100
AcDbArc
 50
292.6198649480738
 51
67.38013505192611
  0
LINE
  5
E00EDA2D
330
E00DEA5D
100
AcDbEntity
  8
JISSEN
100
AcDbLine
 10
73.80570688039586
 20
180.4229016311776
 30
0.0
 11
73.80570688039586
 21
181.0229016311761
 31
0.0
  0
LINE
  5
E00EDA2E
330
E00DEA5D
100
AcDbEntity
  8
JISSEN
100
AcDbLine
 10
73.80570688039586
 20
180.4229016311776
 30
0.0
 11
73.80570688039586
 21
181.0229016311761
 31
0.0
  0
LINE
  5
E00EDA2F
330
E00DEA5D
100
AcDbEntity
  8
JISSEN
100
AcDbLine
 10
72.55570688039586
 20
179.522901631178
 30
0.0
 11
72.55570688039586
 21
178.9229016311794
 31
0.0
  0
ARC
  5
E00EDA30
330
E00DEA5D
100
AcDbEntity
  8
JISSEN
100
AcDbCircle
 10
72.36820688039404
 20
178.4729016311769
 30
0.0
 40
0.4875000000000239
100
AcDbArc
 50
292.6198649480738
 51
67.38013505192611
  0
LINE
  5
E00EDA31
330
E00DEA5D
100
AcDbEntity
  8
JISSEN
100
AcDbLine
 10
72.55570688039586
 20
179.5229016311761
 30
0.0
 11
72.55570688039586
 21
178.9229016311758
 31
0.0
  0
LINE
  5
E00EDA32
330
E00DEA5D
100
AcDbEntity
  8
JISSEN
100
AcDbLine
 10
72.55570688039586
 20
179.5229016311761
 30
0.0
 11
72.55570688039404
 21
178.9229016311758
 31
0.0
  0
LINE
  5
E00EDA33
330
E00DEA5D
100
AcDbEntity
  8
JISSEN
100
AcDbLine
 10
72.55570688039586
 20
179.522901631178
 30
0.0
 11
72.55570688039586
 21
178.9229016311758
 31
0.0
  0
LINE
  5
E00EDA34
330
E00DEA5D
100
AcDbEntity
  8
JISSEN
100
AcDbLine
 10
72.55570688039586
 20
179.5229016311761
 30
0.0
 11
72.55570688039586
 21
178.9229016311794
 31
0.0
  0
ARC
  5
E00EDA35
330
E00DEA5D
100
AcDbEntity
  8
JISSEN
100
AcDbCircle
 10
73.61820688039404
 20
178.472901631175
 30
0.0
 40
0.4875000000000239
100
AcDbArc
 50
292.6198649480738
 51
67.38013505192611
  0
LINE
  5
E00EDA36
330
E00DEA5D
100
AcDbEntity
  8
JISSEN
100
AcDbLine
 10
73.80570688039586
 20
178.9229016311794
 30
0.0
 11
73.80570688039586
 21
179.522901631178
 31
0.0
  0
LINE
  5
E00EDA37
330
E00DEA5D
100
AcDbEntity
  8
JISSEN
100
AcDbLine
 10
73.80570688039586
 20
178.9229016311794
 30
0.0
 11
73.80570688039586
 21
179.522901631178
 31
0.0
  0
ARC
  5
E00EDA38
330
E00DEA5D
100
AcDbEntity
  8
JISSEN
100
AcDbCircle
 10
72.36820688039404
 20
179.9729016311769
 30
0.0
 40
0.4875000000000239
100
AcDbArc
 50
292.6198649480738
 51
67.38013505192611
  0
ARC
  5
E00EDA39
330
E00DEA5D
100
AcDbEntity
  8
JISSEN
100
AcDbCircle
 10
73.61820688039404
 20
179.9729016311751
 30
0.0
 40
0.4875000000000239
100
AcDbArc
 50
292.6198649480738
 51
67.38013505192611
  0
LINE
  5
E00EDA3A
330
E00DEA5D
100
AcDbEntity
  8
JISSEN
100
AcDbLine
 10
75.11949118722475
 20
177.172901631174
 30
0.0
 11
75.11949118722475
 21
183.038927034958
 31
0.0
  0
LINE
  5
E00EDA3B
330
E00DEA5D
100
AcDbEntity
  8
JISSEN
100
AcDbLine
 10
76.30570688039586
 20
178.0229016311761
 30
0.0
 11
76.30570688039586
 21
177.6729016311739
 31
0.0
  0
SPLINE
  5
E00EDA3C
330
E00DEA5D
100
AcDbEntity
  8
JISSEN
100
AcDbSpline
210
0.0
220
0.0
230
1.0
 70
     8
 71
     3
 72
     8
 73
     4
 74
     0
 42
0.0000000001
 43
0.0000000001
 40
0.0
 40
0.0
 40
0.0
 40
0.0
 40
0.0007108901684311
 40
0.0007108901684311
 40
0.0007108901684311
 40
0.0007108901684311
 10
76.74334100118392
 20
177.172901631174
 30
0.0
 10
76.59744018556228
 20
177.3395417142467
 30
0.0
 10
76.45156279935543
 20
177.5062091523625
 30
0.0
 10
76.30570688039586
 20
177.6729016311739
 30
0.0
  0
LINE
  5
E00EDA3D
330
E00DEA5D
100
AcDbEntity
  8
JISSEN
100
AcDbLine
 10
76.30570688039586
 20
182.172901631174
 30
0.0
 11
76.30570688039608
 21
181.9229016311794
 31
0.0
  0
LINE
  5
E00EDA3E
330
E00DEA5D
100
AcDbEntity
  8
JISSEN
100
AcDbLine
 10
76.30570688039586
 20
181.0229016311798
 30
0.0
 11
76.30570688039586
 21
180.4229016311831
 31
0.0
  0
ARC
  5
E00EDA3F
330
E00DEA5D
100
AcDbEntity
  8
JISSEN
100
AcDbCircle
 10
76.11820688039586
 20
181.4729016311769
 30
0.0
 40
0.4875000000000239
100
AcDbArc
 50
292.6198649480738
 51
67.38013505192611
  0
LINE
  5
E00EDA40
330
E00DEA5D
100
AcDbEntity
  8
JISSEN
100
AcDbLine
 10
76.30570688039586
 20
179.522901631178
 30
0.0
 11
76.30570688039586
 21
178.9229016311794
 31
0.0
  0
ARC
  5
E00EDA41
330
E00DEA5D
100
AcDbEntity
  8
JISSEN
100
AcDbCircle
 10
76.11820688039586
 20
178.4729016311769
 30
0.0
 40
0.4875000000000239
100
AcDbArc
 50
292.6198649480738
 51
67.38013505192611
  0
ARC
  5
E00EDA42
330
E00DEA5D
100
AcDbEntity
  8
JISSEN
100
AcDbCircle
 10
76.11820688039586
 20
179.9729016311769
 30
0.0
 40
0.4875000000000239
100
AcDbArc
 50
292.6198649480738
 51
67.38013505192611
  0
LINE
  5
E00EDA43
330
E00DEA5D
100
AcDbEntity
  8
JISSEN
100
AcDbLine
 10
87.55570688039586
 20
177.172901631174
 30
0.0
 11
87.55570688039586
 21
183.038927034958
 31
0.0
  0
LINE
  5
E00EDA44
330
E00DEA5D
100
AcDbEntity
  8
JISSEN
100
AcDbLine
 10
92.55570688039586
 20
177.172901631174
 30
0.0
 11
92.55570688039586
 21
183.038927034958
 31
0.0
  0
LINE
  5
E00EDA45
330
E00DEA5D
100
AcDbEntity
  8
JISSEN
100
AcDbLine
 10
103.8057068803958
 20
178.0229016311761
 30
0.0
 11
103.8057068803958
 21
177.6729016311739
 31
0.0
  0
LINE
  5
E00EDA46
330
E00DEA5D
100
AcDbEntity
  8
JISSEN
100
AcDbLine
 10
104.9919225735669
 20
177.172901631174
 30
0.0
 11
104.9919225735669
 21
183.038927034958
 31
0.0
  0
LINE
  5
E00EDA47
330
E00DEA5D
100
AcDbEntity
  8
JISSEN
100
AcDbLine
 10
106.3057068803958
 20
177.6729016311739
 30
0.0
 11
106.3057068803958
 21
178.0229016311761
 31
0.0
  0
LINE
  5
E00EDA48
330
E00DEA5D
100
AcDbEntity
  8
JISSEN
100
AcDbLine
 10
106.3057068803958
 20
177.6729016311739
 30
0.0
 11
106.3057068803958
 21
178.0229016311761
 31
0.0
  0
LINE
  5
E00EDA49
330
E00DEA5D
100
AcDbEntity
  8
JISSEN
100
AcDbLine
 10
107.5557068803958
 20
178.0229016311761
 30
0.0
 11
107.5557068803958
 21
177.6729016311739
 31
0.0
  0
LINE
  5
E00EDA4A
330
E00DEA5D
100
AcDbEntity
  8
JISSEN
100
AcDbLine
 10
107.5557068803958
 20
177.6763309121736
 30
0.0
 11
106.3057068803958
 21
177.6763309121736
 31
0.0
  0
SPLINE
  5
E00EDA4B
330
E00DEA5D
100
AcDbEntity
  8
JISSEN
100
AcDbSpline
210
0.0
220
0.0
230
1.0
 70
     8
 71
     3
 72
     8
 73
     4
 74
     0
 42
0.0000000001
 43
0.0000000001
 40
0.0
 40
0.0
 40
0.0
 40
0.0
 40
0.0007108901684311
 40
0.0007108901684311
 40
0.0007108901684311
 40
0.0007108901684311
 10
103.3680727596077
 20
177.172901631174
 30
0.0
 10
103.5139735752294
 20
177.3395417142467
 30
0.0
 10
103.6598509614362
 20
177.5062091523625
 30
0.0
 10
103.8057068803958
 20
177.6729016311739
 30
0.0
  0
SPLINE
  5
E00EDA4C
330
E00DEA5D
100
AcDbEntity
  8
JISSEN
100
AcDbSpline
210
0.0
220
0.0
230
1.0
 70
     8
 71
     3
 72
     8
 73
     4
 74
     0
 42
0.0000000001
 43
0.0000000001
 40
0.0
 40
0.0
 40
0.0
 40
0.0
 40
0.0007108901684311
 40
0.0007108901684311
 40
0.0007108901684311
 40
0.0007108901684311
 10
106.3057068803958
 20
177.6763309121736
 30
0.0
 10
106.1598509614362
 20
177.5096384333621
 30
0.0
 10
106.0139735752294
 20
177.3429709952463
 30
0.0
 10
105.8680727596077
 20
177.1763309121736
 30
0.0
  0
LINE
  5
E00EDA4D
330
E00DEA5D
100
AcDbEntity
  8
JISSEN
100
AcDbLine
 10
107.5557068803958
 20
177.6729016311739
 30
0.0
 11
107.0557068803958
 21
177.172901631174
 31
0.0
  0
ARC
  5
E00EDA4E
330
E00DEA5D
100
AcDbEntity
  8
JISSEN
100
AcDbCircle
 10
103.9932068803958
 20
178.4729016311769
 30
0.0
 40
0.4875000000000239
100
AcDbArc
 50
112.6198649480738
 51
247.3801350519261
  0
ARC
  5
E00EDA4F
330
E00DEA5D
100
AcDbEntity
  8
JISSEN
100
AcDbCircle
 10
103.9932068803958
 20
179.9729016311769
 30
0.0
 40
0.4875000000000239
100
AcDbArc
 50
112.6198649480738
 51
247.3801350519261
  0
LINE
  5
E00EDA50
330
E00DEA5D
100
AcDbEntity
  8
JISSEN
100
AcDbLine
 10
103.8057068803958
 20
179.522901631178
 30
0.0
 11
103.8057068803958
 21
178.9229016311794
 31
0.0
  0
ARC
  5
E00EDA51
330
E00DEA5D
100
AcDbEntity
  8
JISSEN
100
AcDbCircle
 10
103.9932068803958
 20
181.4729016311769
 30
0.0
 40
0.4875000000000239
100
AcDbArc
 50
112.6198649480738
 51
247.3801350519261
  0
LINE
  5
E00EDA52
330
E00DEA5D
100
AcDbEntity
  8
JISSEN
100
AcDbLine
 10
103.8057068803958
 20
181.0229016311798
 30
0.0
 11
103.8057068803958
 21
180.4229016311831
 31
0.0
  0
LINE
  5
E00EDA53
330
E00DEA5D
100
AcDbEntity
  8
JISSEN
100
AcDbLine
 10
103.8057068803958
 20
182.172901631174
 30
0.0
 11
103.8057068803956
 21
181.9229016311794
 31
0.0
  0
ARC
  5
E00EDA54
330
E00DEA5D
100
AcDbEntity
  8
JISSEN
100
AcDbCircle
 10
106.4932068803976
 20
179.9729016311751
 30
0.0
 40
0.4875000000000239
100
AcDbArc
 50
112.6198649480738
 51
247.3801350519261
  0
LINE
  5
E00EDA55
330
E00DEA5D
100
AcDbEntity
  8
JISSEN
100
AcDbLine
 10
106.3057068803958
 20
178.9229016311794
 30
0.0
 11
106.3057068803958
 21
179.522901631178
 31
0.0
  0
LINE
  5
E00EDA56
330
E00DEA5D
100
AcDbEntity
  8
JISSEN
100
AcDbLine
 10
106.3057068803958
 20
178.9229016311794
 30
0.0
 11
106.3057068803958
 21
179.522901631178
 31
0.0
  0
ARC
  5
E00EDA57
330
E00DEA5D
100
AcDbEntity
  8
JISSEN
100
AcDbCircle
 10
106.4932068803976
 20
178.472901631175
 30
0.0
 40
0.4875000000000239
100
AcDbArc
 50
112.6198649480738
 51
247.3801350519261
  0
LINE
  5
E00EDA58
330
E00DEA5D
100
AcDbEntity
  8
JISSEN
100
AcDbLine
 10
106.3057068803958
 20
180.4229016311776
 30
0.0
 11
106.3057068803958
 21
181.0229016311761
 31
0.0
  0
LINE
  5
E00EDA59
330
E00DEA5D
100
AcDbEntity
  8
JISSEN
100
AcDbLine
 10
106.3057068803958
 20
180.4229016311776
 30
0.0
 11
106.3057068803958
 21
181.0229016311761
 31
0.0
  0
ARC
  5
E00EDA5A
330
E00DEA5D
100
AcDbEntity
  8
JISSEN
100
AcDbCircle
 10
106.4932068803976
 20
181.472901631175
 30
0.0
 40
0.4875000000000239
100
AcDbArc
 50
112.6198649480738
 51
247.3801350519261
  0
LINE
  5
E00EDA5B
330
E00DEA5D
100
AcDbEntity
  8
JISSEN
100
AcDbLine
 10
106.3057068803958
 20
181.9229016311776
 30
0.0
 11
106.3057068803958
 21
182.172901631174
 31
0.0
  0
ARC
  5
E00EDA5C
330
E00DEA5D
100
AcDbEntity
  8
JISSEN
100
AcDbCircle
 10
107.7432068803976
 20
179.9729016311769
 30
0.0
 40
0.4875000000000239
100
AcDbArc
 50
112.6198649480738
 51
247.3801350519261
  0
LINE
  5
E00EDA5D
330
E00DEA5D
100
AcDbEntity
  8
JISSEN
100
AcDbLine
 10
107.5557068803958
 20
179.5229016311761
 30
0.0
 11
107.5557068803958
 21
178.9229016311794
 31
0.0
  0
LINE
  5
E00EDA5E
330
E00DEA5D
100
AcDbEntity
  8
JISSEN
100
AcDbLine
 10
107.5557068803958
 20
179.522901631178
 30
0.0
 11
107.5557068803958
 21
178.9229016311758
 31
0.0
  0
LINE
  5
E00EDA5F
330
E00DEA5D
100
AcDbEntity
  8
JISSEN
100
AcDbLine
 10
107.5557068803958
 20
179.5229016311761
 30
0.0
 11
107.5557068803976
 21
178.9229016311758
 31
0.0
  0
LINE
  5
E00EDA60
330
E00DEA5D
100
AcDbEntity
  8
JISSEN
100
AcDbLine
 10
107.5557068803958
 20
179.5229016311761
 30
0.0
 11
107.5557068803958
 21
178.9229016311758
 31
0.0
  0
ARC
  5
E00EDA61
330
E00DEA5D
100
AcDbEntity
  8
JISSEN
100
AcDbCircle
 10
107.7432068803976
 20
178.4729016311769
 30
0.0
 40
0.4875000000000239
100
AcDbArc
 50
112.6198649480738
 51
247.3801350519261
  0
LINE
  5
E00EDA62
330
E00DEA5D
100
AcDbEntity
  8
JISSEN
100
AcDbLine
 10
107.5557068803958
 20
179.522901631178
 30
0.0
 11
107.5557068803958
 21
178.9229016311794
 31
0.0
  0
LINE
  5
E00EDA63
330
E00DEA5D
100
AcDbEntity
  8
JISSEN
100
AcDbLine
 10
107.5557068803958
 20
181.022901631178
 30
0.0
 11
107.5557068803958
 21
180.4229016311794
 31
0.0
  0
ARC
  5
E00EDA64
330
E00DEA5D
100
AcDbEntity
  8
JISSEN
100
AcDbCircle
 10
107.7432068803976
 20
181.4729016311769
 30
0.0
 40
0.4875000000000239
100
AcDbArc
 50
112.6198649480738
 51
247.3801350519261
  0
LINE
  5
E00EDA65
330
E00DEA5D
100
AcDbEntity
  8
JISSEN
100
AcDbLine
 10
107.5557068803958
 20
181.022901631178
 30
0.0
 11
107.5557068803958
 21
180.4229016311758
 31
0.0
  0
LINE
  5
E00EDA66
330
E00DEA5D
100
AcDbEntity
  8
JISSEN
100
AcDbLine
 10
107.5557068803958
 20
181.0229016311761
 30
0.0
 11
107.5557068803958
 21
180.4229016311758
 31
0.0
  0
LINE
  5
E00EDA67
330
E00DEA5D
100
AcDbEntity
  8
JISSEN
100
AcDbLine
 10
107.5557068803958
 20
181.0229016311761
 30
0.0
 11
107.5557068803958
 21
180.4229016311758
 31
0.0
  0
LINE
  5
E00EDA68
330
E00DEA5D
100
AcDbEntity
  8
JISSEN
100
AcDbLine
 10
107.5557068803958
 20
181.022901631178
 30
0.0
 11
107.5557068803958
 21
180.4229016311758
 31
0.0
  0
LINE
  5
E00EDA69
330
E00DEA5D
100
AcDbEntity
  8
JISSEN
100
AcDbLine
 10
107.5557068803958
 20
182.172901631174
 30
0.0
 11
107.5557068803958
 21
181.9229016311776
 31
0.0
  0
LINE
  5
E00EDA6A
330
E00DEA5D
100
AcDbEntity
  8
JISSEN
100
AcDbLine
 10
90.05570688039586
 20
177.172901631174
 30
0.0
 11
103.3680727595968
 21
177.172901631174
 31
0.0
  0
LINE
  5
E00EDA6B
330
E00DEA5D
100
AcDbEntity
  8
JISSEN
100
AcDbLine
 10
90.05570688039586
 20
177.172901631174
 30
0.0
 11
76.74334100119484
 21
177.172901631174
 31
0.0
  0
LINE
  5
E00EDA6C
330
E00DEA5D
100
AcDbEntity
  8
JISSEN
100
AcDbLine
 10
75.11949118729569
 20
177.172901631174
 30
0.0
 11
76.74334100119484
 21
177.172901631174
 31
0.0
  0
LINE
  5
E00EDA6D
330
E00DEA5D
100
AcDbEntity
  8
JISSEN
100
AcDbLine
 39
1680.364539346804
 10
72.55570688039586
 20
182.172901631174
 30
0.0
 11
73.80570688039586
 21
182.172901631174
 31
0.0
  0
LINE
  5
E00EDA6E
330
E00DEA5D
100
AcDbEntity
  8
JISSEN
100
AcDbLine
 10
74.28775768797857
 20
183.172901631174
 30
0.0
 11
90.05570688039586
 21
183.172901631174
 31
0.0
  0
SPLINE
  5
E00EDA6F
330
E00DEA5D
100
AcDbEntity
  8
JISSEN
100
AcDbSpline
210
0.0
220
0.0
230
1.0
 70
     8
 71
     3
 72
     8
 73
     4
 74
     0
 42
0.0000000001
 43
0.0000000001
 40
0.000000403112789
 40
0.000000403112789
 40
0.000000403112789
 40
0.000000403112789
 40
0.0017472208689273
 40
0.0017472208689273
 40
0.0017472208689273
 40
0.0017472208689273
 10
73.80570688039586
 20
182.172901631174
 30
0.0
 10
74.2435296424868
 20
182.4617897335185
 30
0.0
 10
74.681447900119
 20
182.7504850098514
 30
0.0
 10
75.11949118722475
 20
183.038927034958
 30
0.0
  0
LINE
  5
E00EDA70
330
E00DEA5D
100
AcDbEntity
  8
JISSEN
100
AcDbLine
 10
74.24334100119484
 20
177.172901631174
 30
0.0
 11
75.11949118729569
 21
177.172901631174
 31
0.0
  0
LINE
  5
E00EDA71
330
E00DEA5D
100
AcDbEntity
  8
JISSEN
100
AcDbLine
 10
74.24334100119484
 20
177.172901631174
 30
0.0
 11
73.05570688039586
 21
177.172901631174
 31
0.0
  0
LINE
  5
E00EDA72
330
E00DEA5D
100
AcDbEntity
  8
JISSEN
100
AcDbLine
 10
74.28775768798039
 20
183.172901631174
 30
0.0
 11
72.55570688039586
 21
182.1729016311721
 31
0.0
  0
LINE
  5
E00EDA73
330
E00DEA5D
100
AcDbEntity
  8
JISSEN
100
AcDbLine
 10
73.80570688039586
 20
182.122901631182
 30
0.0
 11
73.80570688039586
 21
182.172901631174
 31
0.0
  0
SPLINE
  5
E00EDA74
330
E00DEA5D
100
AcDbEntity
  8
JISSEN
100
AcDbSpline
210
0.0
220
0.0
230
1.0
 70
     8
 71
     3
 72
     8
 73
     4
 74
     0
 42
0.0000000001
 43
0.0000000001
 40
0.0000002658515791
 40
0.0000002658515791
 40
0.0000002658515791
 40
0.0000002658515791
 40
0.0017470836077175
 40
0.0017470836077175
 40
0.0017470836077175
 40
0.0017470836077175
 10
77.61949118722475
 20
183.038927034958
 30
0.0
 10
77.181447900119
 20
182.7504850098514
 30
0.0
 10
76.7435296424868
 20
182.4617897335185
 30
0.0
 10
76.30570688039586
 20
182.172901631174
 30
0.0
  0
LINE
  5
E00EDA75
330
E00DEA5D
100
AcDbEntity
  8
JISSEN
100
AcDbLine
 10
75.11949118722475
 20
183.038927034958
 30
0.0
 11
77.61949118722475
 21
183.038927034958
 31
0.0
  0
LINE
  5
E00EDA76
330
E00DEA5D
100
AcDbEntity
  8
JISSEN
100
AcDbLine
 39
1680.364539346804
 10
107.5557068803958
 20
182.172901631174
 30
0.0
 11
106.3057068803958
 21
182.172901631174
 31
0.0
  0
LINE
  5
E00EDA77
330
E00DEA5D
100
AcDbEntity
  8
JISSEN
100
AcDbLine
 39
1680.364539346804
 10
103.8057068803958
 20
182.1729016312595
 30
0.0
 11
92.55570688035039
 21
182.1729016312576
 31
0.0
  0
LINE
  5
E00EDA78
330
E00DEA5D
100
AcDbEntity
  8
JISSEN
100
AcDbLine
 10
87.55570688039586
 20
183.038927034958
 30
0.0
 11
90.05570688039586
 21
183.038927034958
 31
0.0
  0
LINE
  5
E00EDA79
330
E00DEA5D
100
AcDbEntity
  8
JISSEN
100
AcDbLine
 10
92.55570688039586
 20
183.038927034958
 30
0.0
 11
90.05570688039586
 21
183.038927034958
 31
0.0
  0
LINE
  5
E00EDA7A
330
E00DEA5D
100
AcDbEntity
  8
JISSEN
100
AcDbLine
 10
104.9919225735669
 20
183.038927034958
 30
0.0
 11
102.4919225735669
 21
183.038927034958
 31
0.0
  0
SPLINE
  5
E00EDA7B
330
E00DEA5D
100
AcDbEntity
  8
JISSEN
100
AcDbSpline
210
0.0
220
0.0
230
1.0
 70
     8
 71
     3
 72
     8
 73
     4
 74
     0
 42
0.0000000001
 43
0.0000000001
 40
0.0000002658515791
 40
0.0000002658515791
 40
0.0000002658515791
 40
0.0000002658515791
 40
0.0017470836077175
 40
0.0017470836077175
 40
0.0017470836077175
 40
0.0017470836077175
 10
102.4919225735669
 20
183.038927034958
 30
0.0
 10
102.9299658606727
 20
182.7504850098514
 30
0.0
 10
103.3678841183049
 20
182.4617897335185
 30
0.0
 10
103.8057068803958
 20
182.172901631174
 30
0.0
  0
LINE
  5
E00EDA7C
330
E00DEA5D
100
AcDbEntity
  8
JISSEN
100
AcDbLine
 10
105.8236560728113
 20
183.172901631174
 30
0.0
 11
107.5557068803958
 21
182.1729016311721
 31
0.0
  0
LINE
  5
E00EDA7D
330
E00DEA5D
100
AcDbEntity
  8
JISSEN
100
AcDbLine
 10
106.3057068803958
 20
182.122901631182
 30
0.0
 11
106.3057068803958
 21
182.172901631174
 31
0.0
  0
SPLINE
  5
E00EDA7E
330
E00DEA5D
100
AcDbEntity
  8
JISSEN
100
AcDbSpline
210
0.0
220
0.0
230
1.0
 70
     8
 71
     3
 72
     8
 73
     4
 74
     0
 42
0.0000000001
 43
0.0000000001
 40
0.000000403112789
 40
0.000000403112789
 40
0.000000403112789
 40
0.000000403112789
 40
0.0017472208689273
 40
0.0017472208689273
 40
0.0017472208689273
 40
0.0017472208689273
 10
106.3057068803958
 20
182.172901631174
 30
0.0
 10
105.8678841183049
 20
182.4617897335185
 30
0.0
 10
105.4299658606727
 20
182.7504850098514
 30
0.0
 10
104.9919225735669
 20
183.038927034958
 30
0.0
  0
LINE
  5
E00EDA7F
330
E00DEA5D
100
AcDbEntity
  8
JISSEN
100
AcDbLine
 10
107.5557068803958
 20
182.172901631174
 30
0.0
 11
107.5557068803958
 21
182.1229016311747
 31
0.0
  0
LINE
  5
E00EDA80
330
E00DEA5D
100
AcDbEntity
  8
JISSEN
100
AcDbLine
 10
107.5557068803958
 20
182.172901631174
 30
0.0
 11
107.5557068803958
 21
182.1229016311747
 31
0.0
  0
LINE
  5
E00EDA81
330
E00DEA5D
100
AcDbEntity
  8
JISSEN
100
AcDbLine
 10
105.8236560728131
 20
183.172901631174
 30
0.0
 11
90.05570688039586
 21
183.172901631174
 31
0.0
  0
LINE
  5
E00EDA82
330
E00DEA5D
100
AcDbEntity
  8
JISSEN
100
AcDbLine
 10
105.8680727595968
 20
177.172901631174
 30
0.0
 11
107.0557068803958
 21
177.172901631174
 31
0.0
  0
LINE
  5
E00EDA83
330
E00DEA5D
100
AcDbEntity
  8
JISSEN
100
AcDbLine
 10
105.8680727595968
 20
177.172901631174
 30
0.0
 11
104.991922573496
 21
177.172901631174
 31
0.0
  0
LINE
  5
E00EDA84
330
E00DEA5D
100
AcDbEntity
  8
JISSEN
100
AcDbLine
 10
104.991922573496
 20
177.172901631174
 30
0.0
 11
103.3680727595968
 21
177.172901631174
 31
0.0
  0
LINE
  5
E00EDB0A
330
E00DEA5D
100
AcDbEntity
  8
JISSEN
100
AcDbLine
 39
1680.364539346804
 10
288.5557061563957
 20
179.5229016311761
 30
0.0
 11
287.3057061563885
 21
179.5229016311761
 31
0.0
  0
LINE
  5
E00EDB0B
330
E00DEA5D
100
AcDbEntity
  8
JISSEN
100
AcDbLine
 39
1680.364539346804
 10
288.5557061563957
 20
178.9229016311776
 30
0.0
 11
287.3057061564048
 21
178.9229016311758
 31
0.0
  0
LINE
  5
E00EDB0C
330
E00DEA5D
100
AcDbEntity
  8
JISSEN
100
AcDbLine
 39
1680.364539346804
 10
288.5557061563957
 20
178.0229016311743
 30
0.0
 11
287.3057061563939
 21
178.0229016311743
 31
0.0
  0
LINE
  5
E00EDB0D
330
E00DEA5D
100
AcDbEntity
  8
JISSEN
100
AcDbLine
 39
1680.364539346804
 10
288.5557061563994
 20
181.9229016311776
 30
0.0
 11
287.3057061564085
 21
181.9229016311776
 31
0.0
  0
LINE
  5
E00EDB0E
330
E00DEA5D
100
AcDbEntity
  8
JISSEN
100
AcDbLine
 39
1680.364539346804
 10
288.5557061563994
 20
181.0229016311761
 30
0.0
 11
287.3057061563921
 21
181.0229016311761
 31
0.0
  0
LINE
  5
E00EDB0F
330
E00DEA5D
100
AcDbEntity
  8
JISSEN
100
AcDbLine
 39
1680.364539346804
 10
288.5557061563957
 20
180.4229016311776
 30
0.0
 11
287.3057061564103
 21
180.4229016311776
 31
0.0
  0
LINE
  5
E00EDB10
330
E00DEA5D
100
AcDbEntity
  8
JISSEN
100
AcDbLine
 39
1680.364539346804
 10
284.8057061563957
 20
178.0229016311743
 30
0.0
 11
273.5557061563957
 21
178.0229016311743
 31
0.0
  0
LINE
  5
E00EDB11
330
E00DEA5D
100
AcDbEntity
  8
JISSEN
100
AcDbLine
 39
1680.364539346804
 10
284.8057061563957
 20
178.9229016311776
 30
0.0
 11
273.5557061563957
 21
178.9229016311776
 31
0.0
  0
LINE
  5
E00EDB12
330
E00DEA5D
100
AcDbEntity
  8
JISSEN
100
AcDbLine
 39
1680.364539346804
 10
284.8057061563957
 20
179.5229016311761
 30
0.0
 11
273.5557061563957
 21
179.5229016311761
 31
0.0
  0
LINE
  5
E00EDB13
330
E00DEA5D
100
AcDbEntity
  8
JISSEN
100
AcDbLine
 39
1680.364539346804
 10
284.8057061563957
 20
181.022901631178
 30
0.0
 11
273.5557061563503
 21
181.0229016311761
 31
0.0
  0
LINE
  5
E00EDB14
330
E00DEA5D
100
AcDbEntity
  8
JISSEN
100
AcDbLine
 39
1680.364539346804
 10
284.8057061563957
 20
180.4229016311794
 30
0.0
 11
273.5557061563957
 21
180.4229016311776
 31
0.0
  0
LINE
  5
E00EDB15
330
E00DEA5D
100
AcDbEntity
  8
JISSEN
100
AcDbLine
 39
1680.364539346804
 10
284.8057061563957
 20
181.9229016311758
 30
0.0
 11
273.5557061563503
 21
181.9229016311739
 31
0.0
  0
LINE
  5
E00EDB16
330
E00DEA5D
100
AcDbEntity
  8
JISSEN
100
AcDbLine
 39
1680.364539346804
 10
253.5557061563957
 20
180.4229016311776
 30
0.0
 11
254.8057061563812
 21
180.4229016311776
 31
0.0
  0
LINE
  5
E00EDB17
330
E00DEA5D
100
AcDbEntity
  8
JISSEN
100
AcDbLine
 39
1680.364539346804
 10
253.5557061563921
 20
181.0229016311761
 30
0.0
 11
254.8057061563994
 21
181.0229016311761
 31
0.0
  0
LINE
  5
E00EDB18
330
E00DEA5D
100
AcDbEntity
  8
JISSEN
100
AcDbLine
 39
1680.364539346804
 10
253.5557061563921
 20
181.9229016311776
 30
0.0
 11
254.805706156383
 21
181.9229016311776
 31
0.0
  0
LINE
  5
E00EDB19
330
E00DEA5D
100
AcDbEntity
  8
JISSEN
100
AcDbLine
 39
1680.364539346804
 10
253.5557061563957
 20
178.0229016311743
 30
0.0
 11
254.8057061563976
 21
178.0229016311743
 31
0.0
  0
LINE
  5
E00EDB1A
330
E00DEA5D
100
AcDbEntity
  8
JISSEN
100
AcDbLine
 39
1680.364539346804
 10
253.5557061563957
 20
178.9229016311776
 30
0.0
 11
254.8057061563866
 21
178.9229016311758
 31
0.0
  0
LINE
  5
E00EDB1B
330
E00DEA5D
100
AcDbEntity
  8
JISSEN
100
AcDbLine
 39
1680.364539346804
 10
253.5557061563957
 20
179.5229016311761
 30
0.0
 11
254.805706156403
 21
179.5229016311761
 31
0.0
  0
LINE
  5
E00EDB1C
330
E00DEA5D
100
AcDbEntity
  8
JISSEN
100
AcDbLine
 39
1680.364539346804
 10
257.3057061563957
 20
181.9229016311758
 30
0.0
 11
268.5557061564412
 21
181.9229016311739
 31
0.0
  0
LINE
  5
E00EDB1D
330
E00DEA5D
100
AcDbEntity
  8
JISSEN
100
AcDbLine
 39
1680.364539346804
 10
257.3057061563957
 20
180.4229016311794
 30
0.0
 11
268.5557061563958
 21
180.4229016311776
 31
0.0
  0
LINE
  5
E00EDB1E
330
E00DEA5D
100
AcDbEntity
  8
JISSEN
100
AcDbLine
 39
1680.364539346804
 10
257.3057061563957
 20
181.022901631178
 30
0.0
 11
268.5557061564412
 21
181.0229016311761
 31
0.0
  0
LINE
  5
E00EDB1F
330
E00DEA5D
100
AcDbEntity
  8
JISSEN
100
AcDbLine
 39
1680.364539346804
 10
257.3057061563957
 20
179.5229016311761
 30
0.0
 11
268.5557061563958
 21
179.5229016311761
 31
0.0
  0
LINE
  5
E00EDB20
330
E00DEA5D
100
AcDbEntity
  8
JISSEN
100
AcDbLine
 39
1680.364539346804
 10
257.3057061563957
 20
178.9229016311776
 30
0.0
 11
268.5557061563958
 21
178.9229016311776
 31
0.0
  0
LINE
  5
E00EDB21
330
E00DEA5D
100
AcDbEntity
  8
JISSEN
100
AcDbLine
 39
1680.364539346804
 10
257.3057061563957
 20
178.0229016311743
 30
0.0
 11
268.5557061563958
 21
178.0229016311743
 31
0.0
  0
LINE
  5
E00EDB22
330
E00DEA5D
100
AcDbEntity
  8
JISSEN
100
AcDbLine
 10
284.8057061563957
 20
177.6763309121718
 30
0.0
 11
273.5557061563957
 21
177.6763309121736
 31
0.0
  0
LINE
  5
E00EDB23
330
E00DEA5D
100
AcDbEntity
  8
JISSEN
100
AcDbLine
 10
257.3057061563957
 20
177.6763309121718
 30
0.0
 11
268.5557061563958
 21
177.6763309121736
 31
0.0
  0
LINE
  5
E00EDB24
330
E00DEA5D
100
AcDbEntity
  8
JISSEN
100
AcDbLine
 10
253.5557061563957
 20
178.0229016311743
 30
0.0
 11
253.5557061563957
 21
177.6729016311721
 31
0.0
  0
LINE
  5
E00EDB25
330
E00DEA5D
100
AcDbEntity
  8
JISSEN
100
AcDbLine
 10
254.8057061563957
 20
177.6729016311721
 30
0.0
 11
254.8057061563957
 21
178.0229016311743
 31
0.0
  0
LINE
  5
E00EDB26
330
E00DEA5D
100
AcDbEntity
  8
JISSEN
100
AcDbLine
 10
254.8057061563957
 20
177.6729016311721
 30
0.0
 11
254.8057061563957
 21
178.0229016311743
 31
0.0
  0
LINE
  5
E00EDB27
330
E00DEA5D
100
AcDbEntity
  8
JISSEN
100
AcDbLine
 10
253.5557061563957
 20
177.6763309121718
 30
0.0
 11
254.8057061563957
 21
177.6763309121718
 31
0.0
  0
LINE
  5
E00EDB28
330
E00DEA5D
100
AcDbEntity
  8
JISSEN
100
AcDbLine
 10
253.5557061563957
 20
177.6729016311721
 30
0.0
 11
254.0557061563958
 21
177.1729016311721
 31
0.0
  0
SPLINE
  5
E00EDB29
330
E00DEA5D
100
AcDbEntity
  8
JISSEN
100
AcDbSpline
210
0.0
220
0.0
230
1.0
 70
     8
 71
     3
 72
     8
 73
     4
 74
     0
 42
0.0000000001
 43
0.0000000001
 40
0.0
 40
0.0
 40
0.0
 40
0.0
 40
0.0007108901684311
 40
0.0007108901684311
 40
0.0007108901684311
 40
0.0007108901684311
 10
254.8057061563957
 20
177.6763309121718
 30
0.0
 10
254.9515620753553
 20
177.5096384333603
 30
0.0
 10
255.0974394615622
 20
177.3429709952445
 30
0.0
 10
255.2433402771838
 20
177.1763309121718
 30
0.0
  0
LINE
  5
E00EDB2A
330
E00DEA5D
100
AcDbEntity
  8
JISSEN
100
AcDbLine
 10
253.5557061563957
 20
182.1729016311721
 30
0.0
 11
253.5557061563957
 21
181.9229016311758
 31
0.0
  0
LINE
  5
E00EDB2B
330
E00DEA5D
100
AcDbEntity
  8
JISSEN
100
AcDbLine
 10
253.5557061563957
 20
181.0229016311761
 30
0.0
 11
253.5557061563957
 21
180.4229016311739
 31
0.0
  0
LINE
  5
E00EDB2C
330
E00DEA5D
100
AcDbEntity
  8
JISSEN
100
AcDbLine
 10
253.5557061563957
 20
181.0229016311743
 30
0.0
 11
253.5557061563957
 21
180.4229016311739
 31
0.0
  0
LINE
  5
E00EDB2D
330
E00DEA5D
100
AcDbEntity
  8
JISSEN
100
AcDbLine
 10
253.5557061563957
 20
181.0229016311743
 30
0.0
 11
253.5557061563957
 21
180.4229016311739
 31
0.0
  0
LINE
  5
E00EDB2E
330
E00DEA5D
100
AcDbEntity
  8
JISSEN
100
AcDbLine
 10
253.5557061563957
 20
181.0229016311761
 30
0.0
 11
253.5557061563957
 21
180.4229016311739
 31
0.0
  0
ARC
  5
E00EDB2F
330
E00DEA5D
100
AcDbEntity
  8
JISSEN
100
AcDbCircle
 10
253.3682061563939
 20
181.472901631175
 30
0.0
 40
0.4875000000000239
100
AcDbArc
 50
292.6198649480738
 51
67.38013505192611
  0
LINE
  5
E00EDB30
330
E00DEA5D
100
AcDbEntity
  8
JISSEN
100
AcDbLine
 10
253.5557061563957
 20
181.0229016311761
 30
0.0
 11
253.5557061563957
 21
180.4229016311776
 31
0.0
  0
LINE
  5
E00EDB31
330
E00DEA5D
100
AcDbEntity
  8
JISSEN
100
AcDbLine
 10
254.8057061563957
 20
181.9229016311758
 30
0.0
 11
254.8057061563957
 21
182.1729016311721
 31
0.0
  0
ARC
  5
E00EDB32
330
E00DEA5D
100
AcDbEntity
  8
JISSEN
100
AcDbCircle
 10
254.6182061563939
 20
181.4729016311732
 30
0.0
 40
0.4875000000000239
100
AcDbArc
 50
292.6198649480738
 51
67.38013505192611
  0
LINE
  5
E00EDB33
330
E00DEA5D
100
AcDbEntity
  8
JISSEN
100
AcDbLine
 10
254.8057061563957
 20
180.4229016311758
 30
0.0
 11
254.8057061563957
 21
181.0229016311743
 31
0.0
  0
LINE
  5
E00EDB34
330
E00DEA5D
100
AcDbEntity
  8
JISSEN
100
AcDbLine
 10
254.8057061563957
 20
180.4229016311758
 30
0.0
 11
254.8057061563957
 21
181.0229016311743
 31
0.0
  0
LINE
  5
E00EDB35
330
E00DEA5D
100
AcDbEntity
  8
JISSEN
100
AcDbLine
 10
253.5557061563957
 20
179.5229016311761
 30
0.0
 11
253.5557061563957
 21
178.9229016311776
 31
0.0
  0
ARC
  5
E00EDB36
330
E00DEA5D
100
AcDbEntity
  8
JISSEN
100
AcDbCircle
 10
253.3682061563939
 20
178.472901631175
 30
0.0
 40
0.4875000000000239
100
AcDbArc
 50
292.6198649480738
 51
67.38013505192611
  0
LINE
  5
E00EDB37
330
E00DEA5D
100
AcDbEntity
  8
JISSEN
100
AcDbLine
 10
253.5557061563957
 20
179.5229016311743
 30
0.0
 11
253.5557061563957
 21
178.922901631174
 31
0.0
  0
LINE
  5
E00EDB38
330
E00DEA5D
100
AcDbEntity
  8
JISSEN
100
AcDbLine
 10
253.5557061563957
 20
179.5229016311743
 30
0.0
 11
253.5557061563939
 21
178.922901631174
 31
0.0
  0
LINE
  5
E00EDB39
330
E00DEA5D
100
AcDbEntity
  8
JISSEN
100
AcDbLine
 10
253.5557061563957
 20
179.5229016311761
 30
0.0
 11
253.5557061563957
 21
178.922901631174
 31
0.0
  0
LINE
  5
E00EDB3A
330
E00DEA5D
100
AcDbEntity
  8
JISSEN
100
AcDbLine
 10
253.5557061563957
 20
179.5229016311743
 30
0.0
 11
253.5557061563957
 21
178.9229016311776
 31
0.0
  0
ARC
  5
E00EDB3B
330
E00DEA5D
100
AcDbEntity
  8
JISSEN
100
AcDbCircle
 10
254.6182061563939
 20
178.4729016311732
 30
0.0
 40
0.4875000000000239
100
AcDbArc
 50
292.6198649480738
 51
67.38013505192611
  0
LINE
  5
E00EDB3C
330
E00DEA5D
100
AcDbEntity
  8
JISSEN
100
AcDbLine
 10
254.8057061563957
 20
178.9229016311776
 30
0.0
 11
254.8057061563957
 21
179.5229016311761
 31
0.0
  0
LINE
  5
E00EDB3D
330
E00DEA5D
100
AcDbEntity
  8
JISSEN
100
AcDbLine
 10
254.8057061563957
 20
178.9229016311776
 30
0.0
 11
254.8057061563957
 21
179.5229016311761
 31
0.0
  0
ARC
  5
E00EDB3E
330
E00DEA5D
100
AcDbEntity
  8
JISSEN
100
AcDbCircle
 10
253.3682061563939
 20
179.9729016311751
 30
0.0
 40
0.4875000000000239
100
AcDbArc
 50
292.6198649480738
 51
67.38013505192611
  0
ARC
  5
E00EDB3F
330
E00DEA5D
100
AcDbEntity
  8
JISSEN
100
AcDbCircle
 10
254.6182061563939
 20
179.9729016311732
 30
0.0
 40
0.4875000000000239
100
AcDbArc
 50
292.6198649480738
 51
67.38013505192611
  0
LINE
  5
E00EDB40
330
E00DEA5D
100
AcDbEntity
  8
JISSEN
100
AcDbLine
 10
256.1194904632246
 20
177.1729016311721
 30
0.0
 11
256.1194904632246
 21
183.0389270349562
 31
0.0
  0
LINE
  5
E00EDB41
330
E00DEA5D
100
AcDbEntity
  8
JISSEN
100
AcDbLine
 10
257.3057061563957
 20
178.0229016311743
 30
0.0
 11
257.3057061563957
 21
177.6729016311721
 31
0.0
  0
SPLINE
  5
E00EDB42
330
E00DEA5D
100
AcDbEntity
  8
JISSEN
100
AcDbSpline
210
0.0
220
0.0
230
1.0
 70
     8
 71
     3
 72
     8
 73
     4
 74
     0
 42
0.0000000001
 43
0.0000000001
 40
0.0
 40
0.0
 40
0.0
 40
0.0
 40
0.0007108901684311
 40
0.0007108901684311
 40
0.0007108901684311
 40
0.0007108901684311
 10
257.7433402771838
 20
177.1729016311721
 30
0.0
 10
257.5974394615621
 20
177.3395417142448
 30
0.0
 10
257.4515620753553
 20
177.5062091523607
 30
0.0
 10
257.3057061563957
 20
177.6729016311721
 30
0.0
  0
LINE
  5
E00EDB43
330
E00DEA5D
100
AcDbEntity
  8
JISSEN
100
AcDbLine
 10
257.3057061563957
 20
182.1729016311721
 30
0.0
 11
257.305706156396
 21
181.9229016311776
 31
0.0
  0
LINE
  5
E00EDB44
330
E00DEA5D
100
AcDbEntity
  8
JISSEN
100
AcDbLine
 10
257.3057061563957
 20
181.022901631178
 30
0.0
 11
257.3057061563957
 21
180.4229016311812
 31
0.0
  0
ARC
  5
E00EDB45
330
E00DEA5D
100
AcDbEntity
  8
JISSEN
100
AcDbCircle
 10
257.1182061563957
 20
181.472901631175
 30
0.0
 40
0.4875000000000239
100
AcDbArc
 50
292.6198649480738
 51
67.38013505192611
  0
LINE
  5
E00EDB46
330
E00DEA5D
100
AcDbEntity
  8
JISSEN
100
AcDbLine
 10
257.3057061563957
 20
179.5229016311761
 30
0.0
 11
257.3057061563957
 21
178.9229016311776
 31
0.0
  0
ARC
  5
E00EDB47
330
E00DEA5D
100
AcDbEntity
  8
JISSEN
100
AcDbCircle
 10
257.1182061563957
 20
178.472901631175
 30
0.0
 40
0.4875000000000239
100
AcDbArc
 50
292.6198649480738
 51
67.38013505192611
  0
ARC
  5
E00EDB48
330
E00DEA5D
100
AcDbEntity
  8
JISSEN
100
AcDbCircle
 10
257.1182061563957
 20
179.9729016311751
 30
0.0
 40
0.4875000000000239
100
AcDbArc
 50
292.6198649480738
 51
67.38013505192611
  0
LINE
  5
E00EDB49
330
E00DEA5D
100
AcDbEntity
  8
JISSEN
100
AcDbLine
 10
268.5557061563958
 20
177.1729016311721
 30
0.0
 11
268.5557061563958
 21
183.0389270349562
 31
0.0
  0
LINE
  5
E00EDB4A
330
E00DEA5D
100
AcDbEntity
  8
JISSEN
100
AcDbLine
 10
273.5557061563957
 20
177.1729016311721
 30
0.0
 11
273.5557061563957
 21
183.0389270349562
 31
0.0
  0
LINE
  5
E00EDB4B
330
E00DEA5D
100
AcDbEntity
  8
JISSEN
100
AcDbLine
 10
284.8057061563957
 20
178.0229016311743
 30
0.0
 11
284.8057061563957
 21
177.6729016311721
 31
0.0
  0
LINE
  5
E00EDB4C
330
E00DEA5D
100
AcDbEntity
  8
JISSEN
100
AcDbLine
 10
285.9919218495668
 20
177.1729016311721
 30
0.0
 11
285.9919218495668
 21
183.0389270349562
 31
0.0
  0
LINE
  5
E00EDB4D
330
E00DEA5D
100
AcDbEntity
  8
JISSEN
100
AcDbLine
 10
287.3057061563958
 20
177.6729016311721
 30
0.0
 11
287.3057061563958
 21
178.0229016311743
 31
0.0
  0
LINE
  5
E00EDB4E
330
E00DEA5D
100
AcDbEntity
  8
JISSEN
100
AcDbLine
 10
287.3057061563958
 20
177.6729016311721
 30
0.0
 11
287.3057061563958
 21
178.0229016311743
 31
0.0
  0
LINE
  5
E00EDB4F
330
E00DEA5D
100
AcDbEntity
  8
JISSEN
100
AcDbLine
 10
288.5557061563957
 20
178.0229016311743
 30
0.0
 11
288.5557061563957
 21
177.6729016311721
 31
0.0
  0
LINE
  5
E00EDB50
330
E00DEA5D
100
AcDbEntity
  8
JISSEN
100
AcDbLine
 10
288.5557061563957
 20
177.6763309121718
 30
0.0
 11
287.3057061563958
 21
177.6763309121718
 31
0.0
  0
SPLINE
  5
E00EDB51
330
E00DEA5D
100
AcDbEntity
  8
JISSEN
100
AcDbSpline
210
0.0
220
0.0
230
1.0
 70
     8
 71
     3
 72
     8
 73
     4
 74
     0
 42
0.0000000001
 43
0.0000000001
 40
0.0
 40
0.0
 40
0.0
 40
0.0
 40
0.0007108901684311
 40
0.0007108901684311
 40
0.0007108901684311
 40
0.0007108901684311
 10
284.3680720356077
 20
177.1729016311721
 30
0.0
 10
284.5139728512293
 20
177.3395417142448
 30
0.0
 10
284.6598502374362
 20
177.5062091523607
 30
0.0
 10
284.8057061563957
 20
177.6729016311721
 30
0.0
  0
SPLINE
  5
E00EDB52
330
E00DEA5D
100
AcDbEntity
  8
JISSEN
100
AcDbSpline
210
0.0
220
0.0
230
1.0
 70
     8
 71
     3
 72
     8
 73
     4
 74
     0
 42
0.0000000001
 43
0.0000000001
 40
0.0
 40
0.0
 40
0.0
 40
0.0
 40
0.0007108901684311
 40
0.0007108901684311
 40
0.0007108901684311
 40
0.0007108901684311
 10
287.3057061563958
 20
177.6763309121718
 30
0.0
 10
287.1598502374362
 20
177.5096384333603
 30
0.0
 10
287.0139728512293
 20
177.3429709952445
 30
0.0
 10
286.8680720356077
 20
177.1763309121718
 30
0.0
  0
LINE
  5
E00EDB53
330
E00DEA5D
100
AcDbEntity
  8
JISSEN
100
AcDbLine
 10
288.5557061563957
 20
177.6729016311721
 30
0.0
 11
288.0557061563957
 21
177.1729016311721
 31
0.0
  0
ARC
  5
E00EDB54
330
E00DEA5D
100
AcDbEntity
  8
JISSEN
100
AcDbCircle
 10
284.9932061563957
 20
178.472901631175
 30
0.0
 40
0.4875000000000239
100
AcDbArc
 50
112.6198649480738
 51
247.3801350519261
  0
ARC
  5
E00EDB55
330
E00DEA5D
100
AcDbEntity
  8
JISSEN
100
AcDbCircle
 10
284.9932061563957
 20
179.9729016311751
 30
0.0
 40
0.4875000000000239
100
AcDbArc
 50
112.6198649480738
 51
247.3801350519261
  0
LINE
  5
E00EDB56
330
E00DEA5D
100
AcDbEntity
  8
JISSEN
100
AcDbLine
 10
284.8057061563957
 20
179.5229016311761
 30
0.0
 11
284.8057061563957
 21
178.9229016311776
 31
0.0
  0
ARC
  5
E00EDB57
330
E00DEA5D
100
AcDbEntity
  8
JISSEN
100
AcDbCircle
 10
284.9932061563957
 20
181.472901631175
 30
0.0
 40
0.4875000000000239
100
AcDbArc
 50
112.6198649480738
 51
247.3801350519261
  0
LINE
  5
E00EDB58
330
E00DEA5D
100
AcDbEntity
  8
JISSEN
100
AcDbLine
 10
284.8057061563957
 20
181.022901631178
 30
0.0
 11
284.8057061563957
 21
180.4229016311812
 31
0.0
  0
LINE
  5
E00EDB59
330
E00DEA5D
100
AcDbEntity
  8
JISSEN
100
AcDbLine
 10
284.8057061563957
 20
182.1729016311721
 30
0.0
 11
284.8057061563955
 21
181.9229016311776
 31
0.0
  0
ARC
  5
E00EDB5A
330
E00DEA5D
100
AcDbEntity
  8
JISSEN
100
AcDbCircle
 10
287.4932061563976
 20
179.9729016311732
 30
0.0
 40
0.4875000000000239
100
AcDbArc
 50
112.6198649480738
 51
247.3801350519261
  0
LINE
  5
E00EDB5B
330
E00DEA5D
100
AcDbEntity
  8
JISSEN
100
AcDbLine
 10
287.3057061563958
 20
178.9229016311776
 30
0.0
 11
287.3057061563958
 21
179.5229016311761
 31
0.0
  0
LINE
  5
E00EDB5C
330
E00DEA5D
100
AcDbEntity
  8
JISSEN
100
AcDbLine
 10
287.3057061563958
 20
178.9229016311776
 30
0.0
 11
287.3057061563958
 21
179.5229016311761
 31
0.0
  0
ARC
  5
E00EDB5D
330
E00DEA5D
100
AcDbEntity
  8
JISSEN
100
AcDbCircle
 10
287.4932061563976
 20
178.4729016311732
 30
0.0
 40
0.4875000000000239
100
AcDbArc
 50
112.6198649480738
 51
247.3801350519261
  0
LINE
  5
E00EDB5E
330
E00DEA5D
100
AcDbEntity
  8
JISSEN
100
AcDbLine
 10
287.3057061563958
 20
180.4229016311758
 30
0.0
 11
287.3057061563958
 21
181.0229016311743
 31
0.0
  0
LINE
  5
E00EDB5F
330
E00DEA5D
100
AcDbEntity
  8
JISSEN
100
AcDbLine
 10
287.3057061563958
 20
180.4229016311758
 30
0.0
 11
287.3057061563958
 21
181.0229016311743
 31
0.0
  0
ARC
  5
E00EDB60
330
E00DEA5D
100
AcDbEntity
  8
JISSEN
100
AcDbCircle
 10
287.4932061563976
 20
181.4729016311732
 30
0.0
 40
0.4875000000000239
100
AcDbArc
 50
112.6198649480738
 51
247.3801350519261
  0
LINE
  5
E00EDB61
330
E00DEA5D
100
AcDbEntity
  8
JISSEN
100
AcDbLine
 10
287.3057061563958
 20
181.9229016311758
 30
0.0
 11
287.3057061563958
 21
182.1729016311721
 31
0.0
  0
ARC
  5
E00EDB62
330
E00DEA5D
100
AcDbEntity
  8
JISSEN
100
AcDbCircle
 10
288.7432061563976
 20
179.9729016311751
 30
0.0
 40
0.4875000000000239
100
AcDbArc
 50
112.6198649480738
 51
247.3801350519261
  0
LINE
  5
E00EDB63
330
E00DEA5D
100
AcDbEntity
  8
JISSEN
100
AcDbLine
 10
288.5557061563957
 20
179.5229016311743
 30
0.0
 11
288.5557061563957
 21
178.9229016311776
 31
0.0
  0
LINE
  5
E00EDB64
330
E00DEA5D
100
AcDbEntity
  8
JISSEN
100
AcDbLine
 10
288.5557061563957
 20
179.5229016311761
 30
0.0
 11
288.5557061563957
 21
178.922901631174
 31
0.0
  0
LINE
  5
E00EDB65
330
E00DEA5D
100
AcDbEntity
  8
JISSEN
100
AcDbLine
 10
288.5557061563957
 20
179.5229016311743
 30
0.0
 11
288.5557061563975
 21
178.922901631174
 31
0.0
  0
LINE
  5
E00EDB66
330
E00DEA5D
100
AcDbEntity
  8
JISSEN
100
AcDbLine
 10
288.5557061563957
 20
179.5229016311743
 30
0.0
 11
288.5557061563957
 21
178.922901631174
 31
0.0
  0
ARC
  5
E00EDB67
330
E00DEA5D
100
AcDbEntity
  8
JISSEN
100
AcDbCircle
 10
288.7432061563976
 20
178.472901631175
 30
0.0
 40
0.4875000000000239
100
AcDbArc
 50
112.6198649480738
 51
247.3801350519261
  0
LINE
  5
E00EDB68
330
E00DEA5D
100
AcDbEntity
  8
JISSEN
100
AcDbLine
 10
288.5557061563957
 20
179.5229016311761
 30
0.0
 11
288.5557061563957
 21
178.9229016311776
 31
0.0
  0
LINE
  5
E00EDB69
330
E00DEA5D
100
AcDbEntity
  8
JISSEN
100
AcDbLine
 10
288.5557061563957
 20
181.0229016311761
 30
0.0
 11
288.5557061563957
 21
180.4229016311776
 31
0.0
  0
ARC
  5
E00EDB6A
330
E00DEA5D
100
AcDbEntity
  8
JISSEN
100
AcDbCircle
 10
288.7432061563976
 20
181.472901631175
 30
0.0
 40
0.4875000000000239
100
AcDbArc
 50
112.6198649480738
 51
247.3801350519261
  0
LINE
  5
E00EDB6B
330
E00DEA5D
100
AcDbEntity
  8
JISSEN
100
AcDbLine
 10
288.5557061563957
 20
181.0229016311761
 30
0.0
 11
288.5557061563957
 21
180.4229016311739
 31
0.0
  0
LINE
  5
E00EDB6C
330
E00DEA5D
100
AcDbEntity
  8
JISSEN
100
AcDbLine
 10
288.5557061563957
 20
181.0229016311743
 30
0.0
 11
288.5557061563957
 21
180.4229016311739
 31
0.0
  0
LINE
  5
E00EDB6D
330
E00DEA5D
100
AcDbEntity
  8
JISSEN
100
AcDbLine
 10
288.5557061563957
 20
181.0229016311743
 30
0.0
 11
288.5557061563957
 21
180.4229016311739
 31
0.0
  0
LINE
  5
E00EDB6E
330
E00DEA5D
100
AcDbEntity
  8
JISSEN
100
AcDbLine
 10
288.5557061563957
 20
181.0229016311761
 30
0.0
 11
288.5557061563957
 21
180.4229016311739
 31
0.0
  0
LINE
  5
E00EDB6F
330
E00DEA5D
100
AcDbEntity
  8
JISSEN
100
AcDbLine
 10
288.5557061563957
 20
182.1729016311721
 30
0.0
 11
288.5557061563957
 21
181.9229016311758
 31
0.0
  0
LINE
  5
E00EDB70
330
E00DEA5D
100
AcDbEntity
  8
JISSEN
100
AcDbLine
 10
271.0557061563958
 20
177.1729016311721
 30
0.0
 11
284.3680720355968
 21
177.1729016311721
 31
0.0
  0
LINE
  5
E00EDB71
330
E00DEA5D
100
AcDbEntity
  8
JISSEN
100
AcDbLine
 10
271.0557061563958
 20
177.1729016311721
 30
0.0
 11
257.7433402771947
 21
177.1729016311721
 31
0.0
  0
LINE
  5
E00EDB72
330
E00DEA5D
100
AcDbEntity
  8
JISSEN
100
AcDbLine
 10
256.1194904632956
 20
177.1729016311721
 30
0.0
 11
257.7433402771947
 21
177.1729016311721
 31
0.0
  0
LINE
  5
E00EDB73
330
E00DEA5D
100
AcDbEntity
  8
JISSEN
100
AcDbLine
 39
1680.364539346804
 10
253.5557061563957
 20
182.1729016311721
 30
0.0
 11
254.8057061563957
 21
182.1729016311721
 31
0.0
  0
LINE
  5
E00EDB74
330
E00DEA5D
100
AcDbEntity
  8
JISSEN
100
AcDbLine
 10
255.2877569639785
 20
183.1729016311721
 30
0.0
 11
271.0557061563958
 21
183.1729016311721
 31
0.0
  0
SPLINE
  5
E00EDB75
330
E00DEA5D
100
AcDbEntity
  8
JISSEN
100
AcDbSpline
210
0.0
220
0.0
230
1.0
 70
     8
 71
     3
 72
     8
 73
     4
 74
     0
 42
0.0000000001
 43
0.0000000001
 40
0.000000403112789
 40
0.000000403112789
 40
0.000000403112789
 40
0.000000403112789
 40
0.0017472208689273
 40
0.0017472208689273
 40
0.0017472208689273
 40
0.0017472208689273
 10
254.8057061563957
 20
182.1729016311721
 30
0.0
 10
255.2435289184867
 20
182.4617897335167
 30
0.0
 10
255.6814471761189
 20
182.7504850098496
 30
0.0
 10
256.1194904632246
 20
183.0389270349562
 30
0.0
  0
LINE
  5
E00EDB76
330
E00DEA5D
100
AcDbEntity
  8
JISSEN
100
AcDbLine
 10
255.2433402771947
 20
177.1729016311721
 30
0.0
 11
256.1194904632956
 21
177.1729016311721
 31
0.0
  0
LINE
  5
E00EDB77
330
E00DEA5D
100
AcDbEntity
  8
JISSEN
100
AcDbLine
 10
255.2433402771947
 20
177.1729016311721
 30
0.0
 11
254.0557061563958
 21
177.1729016311721
 31
0.0
  0
LINE
  5
E00EDB78
330
E00DEA5D
100
AcDbEntity
  8
JISSEN
100
AcDbLine
 10
255.2877569639803
 20
183.1729016311721
 30
0.0
 11
253.5557061563957
 21
182.1729016311703
 31
0.0
  0
LINE
  5
E00EDB79
330
E00DEA5D
100
AcDbEntity
  8
JISSEN
100
AcDbLine
 10
254.8057061563957
 20
182.1229016311801
 30
0.0
 11
254.8057061563957
 21
182.1729016311721
 31
0.0
  0
SPLINE
  5
E00EDB7A
330
E00DEA5D
100
AcDbEntity
  8
JISSEN
100
AcDbSpline
210
0.0
220
0.0
230
1.0
 70
     8
 71
     3
 72
     8
 73
     4
 74
     0
 42
0.0000000001
 43
0.0000000001
 40
0.0000002658515791
 40
0.0000002658515791
 40
0.0000002658515791
 40
0.0000002658515791
 40
0.0017470836077175
 40
0.0017470836077175
 40
0.0017470836077175
 40
0.0017470836077175
 10
258.6194904632246
 20
183.0389270349562
 30
0.0
 10
258.1814471761189
 20
182.7504850098496
 30
0.0
 10
257.7435289184867
 20
182.4617897335167
 30
0.0
 10
257.3057061563957
 20
182.1729016311721
 30
0.0
  0
LINE
  5
E00EDB7B
330
E00DEA5D
100
AcDbEntity
  8
JISSEN
100
AcDbLine
 10
256.1194904632246
 20
183.0389270349562
 30
0.0
 11
258.6194904632246
 21
183.0389270349562
 31
0.0
  0
LINE
  5
E00EDB7C
330
E00DEA5D
100
AcDbEntity
  8
JISSEN
100
AcDbLine
 39
1680.364539346804
 10
288.5557061563957
 20
182.1729016311721
 30
0.0
 11
287.3057061563958
 21
182.1729016311721
 31
0.0
  0
LINE
  5
E00EDB7D
330
E00DEA5D
100
AcDbEntity
  8
JISSEN
100
AcDbLine
 39
1680.364539346804
 10
284.8057061563957
 20
182.1729016312576
 30
0.0
 11
273.5557061563503
 21
182.1729016312558
 31
0.0
  0
LINE
  5
E00EDB7E
330
E00DEA5D
100
AcDbEntity
  8
JISSEN
100
AcDbLine
 10
268.5557061563958
 20
183.0389270349562
 30
0.0
 11
271.0557061563958
 21
183.0389270349562
 31
0.0
  0
LINE
  5
E00EDB7F
330
E00DEA5D
100
AcDbEntity
  8
JISSEN
100
AcDbLine
 10
273.5557061563957
 20
183.0389270349562
 30
0.0
 11
271.0557061563958
 21
183.0389270349562
 31
0.0
  0
LINE
  5
E00EDB80
330
E00DEA5D
100
AcDbEntity
  8
JISSEN
100
AcDbLine
 10
285.9919218495668
 20
183.0389270349562
 30
0.0
 11
283.4919218495668
 21
183.0389270349562
 31
0.0
  0
SPLINE
  5
E00EDB81
330
E00DEA5D
100
AcDbEntity
  8
JISSEN
100
AcDbSpline
210
0.0
220
0.0
230
1.0
 70
     8
 71
     3
 72
     8
 73
     4
 74
     0
 42
0.0000000001
 43
0.0000000001
 40
0.0000002658515791
 40
0.0000002658515791
 40
0.0000002658515791
 40
0.0000002658515791
 40
0.0017470836077175
 40
0.0017470836077175
 40
0.0017470836077175
 40
0.0017470836077175
 10
283.4919218495668
 20
183.0389270349562
 30
0.0
 10
283.9299651366726
 20
182.7504850098496
 30
0.0
 10
284.3678833943048
 20
182.4617897335167
 30
0.0
 10
284.8057061563957
 20
182.1729016311721
 30
0.0
  0
LINE
  5
E00EDB82
330
E00DEA5D
100
AcDbEntity
  8
JISSEN
100
AcDbLine
 10
286.8236553488112
 20
183.1729016311721
 30
0.0
 11
288.5557061563957
 21
182.1729016311703
 31
0.0
  0
LINE
  5
E00EDB83
330
E00DEA5D
100
AcDbEntity
  8
JISSEN
100
AcDbLine
 10
287.3057061563958
 20
182.1229016311801
 30
0.0
 11
287.3057061563958
 21
182.1729016311721
 31
0.0
  0
SPLINE
  5
E00EDB84
330
E00DEA5D
100
AcDbEntity
  8
JISSEN
100
AcDbSpline
210
0.0
220
0.0
230
1.0
 70
     8
 71
     3
 72
     8
 73
     4
 74
     0
 42
0.0000000001
 43
0.0000000001
 40
0.000000403112789
 40
0.000000403112789
 40
0.000000403112789
 40
0.000000403112789
 40
0.0017472208689273
 40
0.0017472208689273
 40
0.0017472208689273
 40
0.0017472208689273
 10
287.3057061563958
 20
182.1729016311721
 30
0.0
 10
286.8678833943048
 20
182.4617897335167
 30
0.0
 10
286.4299651366726
 20
182.7504850098496
 30
0.0
 10
285.9919218495668
 20
183.0389270349562
 30
0.0
  0
LINE
  5
E00EDB85
330
E00DEA5D
100
AcDbEntity
  8
JISSEN
100
AcDbLine
 10
288.5557061563957
 20
182.1729016311721
 30
0.0
 11
288.5557061563957
 21
182.1229016311729
 31
0.0
  0
LINE
  5
E00EDB86
330
E00DEA5D
100
AcDbEntity
  8
JISSEN
100
AcDbLine
 10
288.5557061563957
 20
182.1729016311721
 30
0.0
 11
288.5557061563957
 21
182.1229016311729
 31
0.0
  0
LINE
  5
E00EDB87
330
E00DEA5D
100
AcDbEntity
  8
JISSEN
100
AcDbLine
 10
286.823655348813
 20
183.1729016311721
 30
0.0
 11
271.0557061563958
 21
183.1729016311721
 31
0.0
  0
LINE
  5
E00EDB88
330
E00DEA5D
100
AcDbEntity
  8
JISSEN
100
AcDbLine
 10
286.8680720355968
 20
177.1729016311721
 30
0.0
 11
288.0557061563957
 21
177.1729016311721
 31
0.0
  0
LINE
  5
E00EDB89
330
E00DEA5D
100
AcDbEntity
  8
JISSEN
100
AcDbLine
 10
286.8680720355968
 20
177.1729016311721
 30
0.0
 11
285.9919218494959
 21
177.1729016311721
 31
0.0
  0
LINE
  5
E00EDB8A
330
E00DEA5D
100
AcDbEntity
  8
JISSEN
100
AcDbLine
 10
285.9919218494959
 20
177.1729016311721
 30
0.0
 11
284.3680720355968
 21
177.1729016311721
 31
0.0
  0
LINE
  5
E00EDB9B
330
E00DEA5D
100
AcDbEntity
  8
SUNPOU
100
AcDbLine
 10
121.3804171345638
 20
12.24204165192054
 30
0.0
 11
121.3804171345638
 21
9.242041651920544
 31
0.0
  0
LINE
  5
E00EDB9C
330
E00DEA5D
100
AcDbEntity
  8
SUNPOU
100
AcDbLine
 10
122.8804171345638
 20
12.24204165192054
 30
0.0
 11
122.8804171345638
 21
9.242041651920544
 31
0.0
  0
LINE
  5
E00EDB9D
330
E00DEA5D
100
AcDbEntity
  8
SUNPOU
100
AcDbLine
 10
120.6304171345637
 20
9.242041651920544
 30
0.0
 11
123.6304171345637
 21
9.242041651920544
 31
0.0
  0
LINE
  5
E00EDB9E
330
E00DEA5D
100
AcDbEntity
  8
SUNPOU
100
AcDbLine
 10
120.6304171345637
 20
12.24204165192054
 30
0.0
 11
123.6304171345637
 21
12.24204165192054
 31
0.0
  0
LINE
  5
E00EDBA8
330
E00DEA5D
100
AcDbEntity
  8
SUNPOU
100
AcDbLine
 10
302.3607550262732
 20
12.23194407094934
 30
0.0
 11
302.3607550262732
 21
9.231944070949339
 31
0.0
  0
LINE
  5
E00EDBA9
330
E00DEA5D
100
AcDbEntity
  8
SUNPOU
100
AcDbLine
 10
303.8607550262732
 20
12.23194407094934
 30
0.0
 11
303.8607550262732
 21
9.231944070949339
 31
0.0
  0
LINE
  5
E00EDBAA
330
E00DEA5D
100
AcDbEntity
  8
SUNPOU
100
AcDbLine
 10
301.6107550262733
 20
9.231944070949339
 30
0.0
 11
304.6107550262732
 21
9.231944070949339
 31
0.0
  0
LINE
  5
E00EDBAB
330
E00DEA5D
100
AcDbEntity
  8
SUNPOU
100
AcDbLine
 10
301.6107550262733
 20
12.23194407094934
 30
0.0
 11
304.6107550262732
 21
12.23194407094934
 31
0.0
  0
LINE
  5
E00EDBBF
330
E00DEA5D
100
AcDbEntity
  8
JISSEN
100
AcDbLine
 10
287.0617834225283
 20
160.9229012958687
 30
0.0
 11
303.5557061563965
 21
160.9229012958687
 31
0.0
  0
ENDSEC
  0
SECTION
  2
OBJECTS
  0
DICTIONARY
  5
E00DEA51
330
0
100
AcDbDictionary
281
     1
  3
ACAD_GROUP
350
E00DEA52
  3
ACAD_LAYOUT
350
E00DFA6A
  3
ACAD_MLINESTYLE
350
E00DEA53
  3
ACAD_PLOTSETTINGS
350
E00DFA6B
  3
ACAD_PLOTSTYLENAME
350
E00DFA68
  3
AcadDim
350
E00E59A8
  3
ACDBVARIABLEDICTIONARY
350
E00DF82C
  0
DICTIONARY
  5
E00DFB39
330
E00DEA47
100
AcDbDictionary
280
     1
281
     1
  3
ACAD_LAYERFILTERS
360
E00E26A3
  3
ACAD_LAYERSTATES
360
E00DFB3A
  0
DICTIONARY
  5
E00DFB13
330
E00DEA5D
100
AcDbDictionary
280
     1
281
     1
  3
ACAD_LAYOUTSELFREF
360
E00DFB14
  0
DICTIONARY
  5
E00DFB11
330
E00DEA5A
100
AcDbDictionary
280
     1
281
     1
  3
ACAD_LAYOUTSELFREF
360
E00DFB12
  0
DICTIONARY
  5
E00DEA52
102
{ACAD_REACTORS
330
E00DEA51
102
}
330
E00DEA51
100
AcDbDictionary
281
     1
  0
DICTIONARY
  5
E00DFA6A
102
{ACAD_REACTORS
330
E00DEA51
102
}
330
E00DEA51
100
AcDbDictionary
281
     1
  3
Model
350
E00DFA6C
  3
ﾚｲｱｳﾄ1
350
E00DFA6D
  0
DICTIONARY
  5
E00DEA53
102
{ACAD_REACTORS
330
E00DEA51
102
}
330
E00DEA51
100
AcDbDictionary
281
     1
  3
STANDARD
350
E00DEA60
  0
DICTIONARY
  5
E00DFA6B
102
{ACAD_REACTORS
330
E00DEA51
102
}
330
E00DEA51
100
AcDbDictionary
281
     1
  0
ACDBDICTIONARYWDFLT
  5
E00DFA68
102
{ACAD_REACTORS
330
E00DEA51
102
}
330
E00DEA51
100
AcDbDictionary
281
     1
  3
Normal
350
E00DFA69
  3
Style_1
350
E00ECC5E
100
AcDbDictionaryWithDefault
340
E00DFA69
  0
XRECORD
  5
E00E59A8
102
{ACAD_REACTORS
330
E00DEA51
102
}
330
E00DEA51
100
AcDbXrecord
280
     1
 90
   990106
  3

 60
     0
 61
     0
 62
     1
 63
     3
 64
     0
 65
     0
 66
     0
 67
     3
 68
     1
 69
     0
 70
     0
 71
     0
 72
     0
 40
0.0
170
     0
  0
DICTIONARY
  5
E00DF82C
102
{ACAD_REACTORS
330
E00DEA51
102
}
330
E00DEA51
100
AcDbDictionary
281
     1
  3
DIMASSOC
350
E00DFB2E
  3
SORTENTS
350
E00DF82D
  0
DICTIONARY
  5
E00E26A3
102
{ACAD_REACTORS
330
E00DFB39
102
}
330
E00DFB39
100
AcDbDictionary
280
     1
281
     1
  3
0
360
E00E26A4
  3
0-0
360
E00E26A5
  3
10画層
360
E00E26A6
  3
2
360
E00E26A7
  3
3
360
E00E26A8
  3
3A
360
E00E26A9
  3
4
360
E00E26AA
  3
5画層
360
E00E26AB
  3
6画層
360
E00E26AC
  3
7
360
E00E26AD
  3
7a画層
360
E00E26AE
  3
8
360
E00E26AF
  3
ASYST
360
E00E26B0
  3
ASYST PHASE 1
360
E00E26B1
  3
ASYST PHASE 2
360
E00E26B2
  3
cap-0
360
E00E26B3
  3
dims
360
E00E26B4
  3
elec
360
E00E26B5
  3
ELECTRICAL
360
E00E26B6
  3
F
360
E00E26B7
  3
Frame
360
E00E26B8
  3
FROZEN
360
E00E26B9
  3
FROZEN ACTIVE
360
E00E26BA
  3
jiku-0
360
E00E26BB
  3
MP
360
E00E26BC
  3
MPR
360
E00E26BD
  3
p-
360
E00E26BE
  3
ST
360
E00E26BF
  3
TC
360
E00E26C0
  3
TEXT
360
E00E26C1
  3
ｹｰﾌﾞﾙ図
360
E00E26C2
  3
０画層
360
E00E26C3
  3
３A画層
360
E00E26C4
  3
３画層
360
E00E26C5
  0
DICTIONARY
  5
E00DFB3A
102
{ACAD_REACTORS
330
E00DFB39
102
}
330
E00DFB39
100
AcDbDictionary
281
     1
  0
XRECORD
  5
E00DFB14
102
{ACAD_REACTORS
330
E00DFB13
102
}
330
E00DFB13
100
AcDbXrecord
280
     1
340
E00DEA5D
  0
XRECORD
  5
E00DFB12
102
{ACAD_REACTORS
330
E00DFB11
102
}
330
E00DFB11
100
AcDbXrecord
280
     1
340
E00DEA5A
  0
LAYOUT
  5
E00DFA6C
102
{ACAD_REACTORS
330
E00DFA6A
102
}
330
E00DFA6A
100
AcDbPlotSettings
  1

  2
\\Nt_honsya\FUJITSU XL-5300-3
  4
A4
  6

 40
5.873749732971191
 41
5.704405784606932
 42
5.789077758789062
 43
5.873748779296875
 44
209.9733276367186
 45
296.9259948730469
 46
0.0
 47
0.0
 48
0.0
 49
0.0
140
0.0
141
0.0
142
1.0
143
1.0
 70
 11952
 72
     0
 73
     1
 74
     0
  7
aclt.ctb
 75
     0
147
1.0
148
1211.157904756485
149
44.79223521629618
100
AcDbLayout
  1
Model
 70
     1
 71
     0
 10
0.0
 20
0.0
 11
12.0
 21
9.0
 12
0.0
 22
0.0
 32
0.0
 14
0.0
 24
0.0
 34
0.0
 15
0.0
 25
0.0
 35
0.0
146
0.0
 13
0.0
 23
0.0
 33
0.0
 16
1.0
 26
0.0
 36
0.0
 17
0.0
 27
1.0
 37
0.0
 76
     0
330
E00DEA5D
  0
LAYOUT
  5
E00DFA6D
102
{ACAD_REACTORS
330
E00DFA6A
102
}
330
E00DFA6A
100
AcDbPlotSettings
  1

  2
\\Nt_honsya\FUJITSU XL-5300-3
  4

  6

 40
0.0
 41
0.0
 42
0.0
 43
0.0
 44
0.0
 45
0.0
 46
0.0
 47
0.0
 48
0.0
 49
0.0
140
0.0
141
0.0
142
1.0
143
1.0
 70
   688
 72
     0
 73
     0
 74
     5
  7
aclt(XL).ctb
 75
    16
147
1.0
148
0.0
149
0.0
100
AcDbLayout
  1
ﾚｲｱｳﾄ1
 70
     0
 71
     1
 10
0.0
 20
0.0
 11
12.0
 21
9.0
 12
0.0
 22
0.0
 32
0.0
 14
1.000000000000000E+20
 24
1.000000000000000E+20
 34
1.000000000000000E+20
 15
-1.000000000000000E+20
 25
-1.000000000000000E+20
 35
-1.000000000000000E+20
146
0.0
 13
0.0
 23
0.0
 33
0.0
 16
1.0
 26
0.0
 36
0.0
 17
0.0
 27
1.0
 37
0.0
 76
     0
330
E00DEA5A
  0
MLINESTYLE
  5
E00DEA60
102
{ACAD_REACTORS
330
E00DEA53
102
}
330
E00DEA53
100
AcDbMlineStyle
  2
STANDARD
 70
     0
  3

 62
     0
 51
90.0
 52
90.0
 71
     2
 49
0.5
 62
   256
  6
BYLAYER
 49
-0.5
 62
   256
  6
BYLAYER
  0
ACDBPLACEHOLDER
  5
E00DFA69
102
{ACAD_REACTORS
330
E00DFA68
102
}
330
E00DFA68
  0
ACDBPLACEHOLDER
  5
E00ECC5E
102
{ACAD_REACTORS
330
E00DFA68
102
}
330
E00DFA68
  0
DICTIONARYVAR
  5
E00DFB2E
102
{ACAD_REACTORS
330
E00DF82C
102
}
330
E00DF82C
100
DictionaryVariables
280
     0
  1
0
  0
DICTIONARYVAR
  5
E00DF82D
102
{ACAD_REACTORS
330
E00DF82C
102
}
330
E00DF82C
100
DictionaryVariables
280
     0
  1
96
  0
XRECORD
  5
E00E26A4
102
{ACAD_REACTORS
330
E00E26A3
102
}
330
E00E26A3
100
AcDbXrecord
280
     1
  1
0
  1
*-0
  1
*
  1
*
 70
     0
  1
*
  1
*
  0
XRECORD
  5
E00E26A5
102
{ACAD_REACTORS
330
E00E26A3
102
}
330
E00E26A3
100
AcDbXrecord
280
     1
  1
0-0
  1
*-0
  1
*
  1
*
 70
     0
  1
*
  1
*
  0
XRECORD
  5
E00E26A6
102
{ACAD_REACTORS
330
E00E26A3
102
}
330
E00E26A3
100
AcDbXrecord
280
     1
  1
10画層
  1
*-10
  1
*
  1
*
 70
     0
  1
*
  1
*
  0
XRECORD
  5
E00E26A7
102
{ACAD_REACTORS
330
E00E26A3
102
}
330
E00E26A3
100
AcDbXrecord
280
     1
  1
2
  1
*-2
  1
*
  1
*
 70
     0
  1
*
  1
*
  0
XRECORD
  5
E00E26A8
102
{ACAD_REACTORS
330
E00E26A3
102
}
330
E00E26A3
100
AcDbXrecord
280
     1
  1
3
  1
*-3
  1
*
  1
*
 70
     0
  1
*
  1
*
  0
XRECORD
  5
E00E26A9
102
{ACAD_REACTORS
330
E00E26A3
102
}
330
E00E26A3
100
AcDbXrecord
280
     1
  1
3A
  1
*-3A
  1
*
  1
*
 70
     0
  1
*
  1
*
  0
XRECORD
  5
E00E26AA
102
{ACAD_REACTORS
330
E00E26A3
102
}
330
E00E26A3
100
AcDbXrecord
280
     1
  1
4
  1
*-4
  1
*
  1
*
 70
     0
  1
*
  1
*
  0
XRECORD
  5
E00E26AB
102
{ACAD_REACTORS
330
E00E26A3
102
}
330
E00E26A3
100
AcDbXrecord
280
     1
  1
5画層
  1
*-5
  1
*
  1
*
 70
     0
  1
*
  1
*
  0
XRECORD
  5
E00E26AC
102
{ACAD_REACTORS
330
E00E26A3
102
}
330
E00E26A3
100
AcDbXrecord
280
     1
  1
6画層
  1
*-6
  1
*
  1
*
 70
     0
  1
*
  1
*
  0
XRECORD
  5
E00E26AD
102
{ACAD_REACTORS
330
E00E26A3
102
}
330
E00E26A3
100
AcDbXrecord
280
     1
  1
7
  1
*-7*
  1
*
  1
*
 70
     0
  1
*
  1
*
  0
XRECORD
  5
E00E26AE
102
{ACAD_REACTORS
330
E00E26A3
102
}
330
E00E26A3
100
AcDbXrecord
280
     1
  1
7a画層
  1
*-7a
  1
*
  1
*
 70
     0
  1
*
  1
*
  0
XRECORD
  5
E00E26AF
102
{ACAD_REACTORS
330
E00E26A3
102
}
330
E00E26A3
100
AcDbXrecord
280
     1
  1
8
  1
*-8,8
  1
*
  1
*
 70
     0
  1
*
  1
*
  0
XRECORD
  5
E00E26B0
102
{ACAD_REACTORS
330
E00E26A3
102
}
330
E00E26A3
100
AcDbXrecord
280
     1
  1
ASYST
  1
ASYST*
  1
*
  1
*
 70
     0
  1
*
  1
*
  0
XRECORD
  5
E00E26B1
102
{ACAD_REACTORS
330
E00E26A3
102
}
330
E00E26A3
100
AcDbXrecord
280
     1
  1
ASYST PHASE 1
  1
A1.0-8$0$ASYT*
  1
*
  1
*
 70
     0
  1
*
  1
*
  0
XRECORD
  5
E00E26B2
102
{ACAD_REACTORS
330
E00E26A3
102
}
330
E00E26A3
100
AcDbXrecord
280
     1
  1
ASYST PHASE 2
  1
A2.0-8$0$ASYT*
  1
*
  1
*
 70
     0
  1
*
  1
*
  0
XRECORD
  5
E00E26B3
102
{ACAD_REACTORS
330
E00E26A3
102
}
330
E00E26A3
100
AcDbXrecord
280
     1
  1
cap-0
  1
*
  1
*
  1
*
 70
     0
  1
*
  1
*
  0
XRECORD
  5
E00E26B4
102
{ACAD_REACTORS
330
E00E26A3
102
}
330
E00E26A3
100
AcDbXrecord
280
     1
  1
dims
  1
*di*
  1
*
  1
*
 70
     0
  1
*
  1
*
  0
XRECORD
  5
E00E26B5
102
{ACAD_REACTORS
330
E00E26A3
102
}
330
E00E26A3
100
AcDbXrecord
280
     1
  1
elec
  1
e-*
  1
*
  1
*
 70
     0
  1
*
  1
*
  0
XRECORD
  5
E00E26B6
102
{ACAD_REACTORS
330
E00E26A3
102
}
330
E00E26A3
100
AcDbXrecord
280
     1
  1
ELECTRICAL
  1
E-*
  1
*
  1
*
 70
     0
  1
*
  1
*
  0
XRECORD
  5
E00E26B7
102
{ACAD_REACTORS
330
E00E26A3
102
}
330
E00E26A3
100
AcDbXrecord
280
     1
  1
F
  1
*
  1
*
  1
*
 70
     0
  1
*
  1
*
  0
XRECORD
  5
E00E26B8
102
{ACAD_REACTORS
330
E00E26A3
102
}
330
E00E26A3
100
AcDbXrecord
280
     1
  1
Frame
  1
F*
  1
*
  1
*
 70
     0
  1
*
  1
*
  0
XRECORD
  5
E00E26B9
102
{ACAD_REACTORS
330
E00E26A3
102
}
330
E00E26A3
100
AcDbXrecord
280
     1
  1
FROZEN
  1
*
  1
*
  1
*
 70
     4
  1
*
  1
*
  0
XRECORD
  5
E00E26BA
102
{ACAD_REACTORS
330
E00E26A3
102
}
330
E00E26A3
100
AcDbXrecord
280
     1
  1
FROZEN ACTIVE
  1
*
  1
*
  1
*
 70
    16
  1
*
  1
*
  0
XRECORD
  5
E00E26BB
102
{ACAD_REACTORS
330
E00E26A3
102
}
330
E00E26A3
100
AcDbXrecord
280
     1
  1
jiku-0
  1
*
  1
*
  1
*
 70
     0
  1
*
  1
*
  0
XRECORD
  5
E00E26BC
102
{ACAD_REACTORS
330
E00E26A3
102
}
330
E00E26A3
100
AcDbXrecord
280
     1
  1
MP
  1
MP_*
  1
*
  1
*
 70
     0
  1
*
  1
*
  0
XRECORD
  5
E00E26BD
102
{ACAD_REACTORS
330
E00E26A3
102
}
330
E00E26A3
100
AcDbXrecord
280
     1
  1
MPR
  1
MPR*
  1
*
  1
*
 70
     0
  1
*
  1
*
  0
XRECORD
  5
E00E26BE
102
{ACAD_REACTORS
330
E00E26A3
102
}
330
E00E26A3
100
AcDbXrecord
280
     1
  1
p-
  1
p-*
  1
*
  1
*
 70
     0
  1
*
  1
*
  0
XRECORD
  5
E00E26BF
102
{ACAD_REACTORS
330
E00E26A3
102
}
330
E00E26A3
100
AcDbXrecord
280
     1
  1
ST
  1
ST_*
  1
*
  1
*
 70
     0
  1
*
  1
*
  0
XRECORD
  5
E00E26C0
102
{ACAD_REACTORS
330
E00E26A3
102
}
330
E00E26A3
100
AcDbXrecord
280
     1
  1
TC
  1
TC_*,0N
  1
*
  1
*
 70
     0
  1
*
  1
*
  0
XRECORD
  5
E00E26C1
102
{ACAD_REACTORS
330
E00E26A3
102
}
330
E00E26A3
100
AcDbXrecord
280
     1
  1
TEXT
  1
TEXT
  1
*
  1
*
 70
     0
  1
*
  1
*
  0
XRECORD
  5
E00E26C2
102
{ACAD_REACTORS
330
E00E26A3
102
}
330
E00E26A3
100
AcDbXrecord
280
     1
  1
ｹｰﾌﾞﾙ図
  1
*
  1
*
  1
*
 70
     0
  1
*
  1
*
  0
XRECORD
  5
E00E26C3
102
{ACAD_REACTORS
330
E00E26A3
102
}
330
E00E26A3
100
AcDbXrecord
280
     1
  1
０画層
  1
*-0
  1
*
  1
*
 70
     0
  1
*
  1
*
  0
XRECORD
  5
E00E26C4
102
{ACAD_REACTORS
330
E00E26A3
102
}
330
E00E26A3
100
AcDbXrecord
280
     1
  1
３A画層
  1
*-3A
  1
*
  1
*
 70
     0
  1
*
  1
*
  0
XRECORD
  5
E00E26C5
102
{ACAD_REACTORS
330
E00E26A3
102
}
330
E00E26A3
100
AcDbXrecord
280
     1
  1
３画層
  1
*-3
  1
*
  1
*
 70
     0
  1
*
  1
*
  0
ENDSEC
  0
EOF
