  0
SECTION
  2
HEADER
  9
$ACADVER
  1
AC1015
  9
$ACADMAINTVER
 70
    10
  9
$DWGCODEPAGE
  3
ANSI_932
  9
$INSBASE
 10
0.0
 20
0.0
 30
0.0
  9
$EXTMIN
 10
-0.0000001326359325
 20
-0.000000388758167
 30
0.0
  9
$EXTMAX
 10
361.9999984193648
 20
272.9999996112418
 30
1680.364539346804
  9
$LIMMIN
 10
-0.0000001326359325
 20
-0.000000388758167
  9
$LIMMAX
 10
361.9999984193648
 20
272.9999996112418
  9
$ORTHOMODE
 70
     0
  9
$REGENMODE
 70
     1
  9
$FILLMODE
 70
     1
  9
$QTEXTMODE
 70
     0
  9
$MIRRTEXT
 70
     0
  9
$LTSCALE
 40
5.0
  9
$ATTMODE
 70
     1
  9
$TEXTSIZE
 40
6.0
  9
$TRACEWID
 40
0.05
  9
$TEXTSTYLE
  7
K
  9
$CLAYER
  8
JISSEN
  9
$CELTYPE
  6
BYLAYER
  9
$CECOLOR
 62
   256
  9
$CELTSCALE
 40
1.0
  9
$DISPSILH
 70
     0
  9
$DIMSCALE
 40
1.0
  9
$DIMASZ
 40
1.099999999999998
  9
$DIMEXO
 40
1.0
  9
$DIMDLI
 40
6.0
  9
$DIMRND
 40
0.0
  9
$DIMDLE
 40
0.0
  9
$DIMEXE
 40
1.0
  9
$DIMTP
 40
0.0
  9
$DIMTM
 40
0.0
  9
$DIMTXT
 40
3.0
  9
$DIMCEN
 40
1.0
  9
$DIMTSZ
 40
0.0
  9
$DIMTOL
 70
     0
  9
$DIMLIM
 70
     0
  9
$DIMTIH
 70
     0
  9
$DIMTOH
 70
     0
  9
$DIMSE1
 70
     0
  9
$DIMSE2
 70
     0
  9
$DIMTAD
 70
     0
  9
$DIMZIN
 70
     8
  9
$DIMBLK
  1
ARROW
  9
$DIMASO
 70
     0
  9
$DIMSHO
 70
     0
  9
$DIMPOST
  1

  9
$DIMAPOST
  1

  9
$DIMALT
 70
     0
  9
$DIMALTD
 70
     2
  9
$DIMALTF
 40
25.4
  9
$DIMLFAC
 40
1.0
  9
$DIMTOFL
 70
     1
  9
$DIMTVP
 40
1.0
  9
$DIMTIX
 70
     0
  9
$DIMSOXD
 70
     0
  9
$DIMSAH
 70
     0
  9
$DIMBLK1
  1

  9
$DIMBLK2
  1

  9
$DIMSTYLE
  2
IMAO
  9
$DIMCLRD
 70
     0
  9
$DIMCLRE
 70
     0
  9
$DIMCLRT
 70
     0
  9
$DIMTFAC
 40
1.0
  9
$DIMGAP
 40
0.09
  9
$DIMJUST
 70
     0
  9
$DIMSD1
 70
     0
  9
$DIMSD2
 70
     0
  9
$DIMTOLJ
 70
     1
  9
$DIMTZIN
 70
     0
  9
$DIMALTZ
 70
     0
  9
$DIMALTTZ
 70
     0
  9
$DIMUPT
 70
     0
  9
$DIMDEC
 70
     2
  9
$DIMTDEC
 70
     2
  9
$DIMALTU
 70
     2
  9
$DIMALTTD
 70
     2
  9
$DIMTXSTY
  7
STANDARD
  9
$DIMAUNIT
 70
     0
  9
$DIMADEC
 70
     0
  9
$DIMALTRND
 40
0.0
  9
$DIMAZIN
 70
     0
  9
$DIMDSEP
 70
    46
  9
$DIMATFIT
 70
     3
  9
$DIMFRAC
 70
     0
  9
$DIMLDRBLK
  1
ARROW
  9
$DIMLUNIT
 70
     2
  9
$DIMLWD
 70
    -2
  9
$DIMLWE
 70
    -2
  9
$DIMTMOVE
 70
     0
  9
$LUNITS
 70
     2
  9
$LUPREC
 70
     2
  9
$SKETCHINC
 40
0.1
  9
$FILLETRAD
 40
0.3
  9
$AUNITS
 70
     0
  9
$AUPREC
 70
     2
  9
$MENU
  1
stdr12j
  9
$ELEVATION
 40
0.0
  9
$PELEVATION
 40
0.0
  9
$THICKNESS
 40
0.0
  9
$LIMCHECK
 70
     0
  9
$CHAMFERA
 40
0.0
  9
$CHAMFERB
 40
0.0
  9
$CHAMFERC
 40
0.0
  9
$CHAMFERD
 40
0.0
  9
$SKPOLY
 70
     0
  9
$TDCREATE
 40
2450542.749144212
  9
$TDUCREATE
 40
2450542.374144212
  9
$TDUPDATE
 40
2457291.446028218
  9
$TDUUPDATE
 40
2457291.071028218
  9
$TDINDWG
 40
1.5351436111
  9
$TDUSRTIMER
 40
1.5351430324
  9
$USRTIMER
 70
     1
  9
$ANGBASE
 50
0.0
  9
$ANGDIR
 70
     0
  9
$PDMODE
 70
     0
  9
$PDSIZE
 40
0.0
  9
$PLINEWID
 40
0.0
  9
$SPLFRAME
 70
     0
  9
$SPLINETYPE
 70
     6
  9
$SPLINESEGS
 70
     8
  9
$HANDSEED
  5
E00ED568
  9
$SURFTAB1
 70
     6
  9
$SURFTAB2
 70
     6
  9
$SURFTYPE
 70
     6
  9
$SURFU
 70
     6
  9
$SURFV
 70
     6
  9
$UCSBASE
  2

  9
$UCSNAME
  2

  9
$UCSORG
 10
0.0
 20
0.0
 30
0.0
  9
$UCSXDIR
 10
1.0
 20
0.0
 30
0.0
  9
$UCSYDIR
 10
0.0
 20
1.0
 30
0.0
  9
$UCSORTHOREF
  2

  9
$UCSORTHOVIEW
 70
     0
  9
$UCSORGTOP
 10
0.0
 20
0.0
 30
0.0
  9
$UCSORGBOTTOM
 10
0.0
 20
0.0
 30
0.0
  9
$UCSORGLEFT
 10
0.0
 20
0.0
 30
0.0
  9
$UCSORGRIGHT
 10
0.0
 20
0.0
 30
0.0
  9
$UCSORGFRONT
 10
0.0
 20
0.0
 30
0.0
  9
$UCSORGBACK
 10
0.0
 20
0.0
 30
0.0
  9
$PUCSBASE
  2

  9
$PUCSNAME
  2

  9
$PUCSORG
 10
0.0
 20
0.0
 30
0.0
  9
$PUCSXDIR
 10
1.0
 20
0.0
 30
0.0
  9
$PUCSYDIR
 10
0.0
 20
1.0
 30
0.0
  9
$PUCSORTHOREF
  2

  9
$PUCSORTHOVIEW
 70
     0
  9
$PUCSORGTOP
 10
0.0
 20
0.0
 30
0.0
  9
$PUCSORGBOTTOM
 10
0.0
 20
0.0
 30
0.0
  9
$PUCSORGLEFT
 10
0.0
 20
0.0
 30
0.0
  9
$PUCSORGRIGHT
 10
0.0
 20
0.0
 30
0.0
  9
$PUCSORGFRONT
 10
0.0
 20
0.0
 30
0.0
  9
$PUCSORGBACK
 10
0.0
 20
0.0
 30
0.0
  9
$USERI1
 70
     4
  9
$USERI2
 70
     1
  9
$USERI3
 70
     1
  9
$USERI4
 70
     2
  9
$USERI5
 70
     0
  9
$USERR1
 40
1.0
  9
$USERR2
 40
3.0
  9
$USERR3
 40
3.0
  9
$USERR4
 40
1.5
  9
$USERR5
 40
8.0
  9
$WORLDVIEW
 70
     1
  9
$SHADEDGE
 70
     3
  9
$SHADEDIF
 70
    70
  9
$TILEMODE
 70
     1
  9
$MAXACTVP
 70
    16
  9
$PINSBASE
 10
0.0
 20
0.0
 30
0.0
  9
$PLIMCHECK
 70
     0
  9
$PEXTMIN
 10
1.000000000000000E+20
 20
1.000000000000000E+20
 30
1.000000000000000E+20
  9
$PEXTMAX
 10
-1.000000000000000E+20
 20
-1.000000000000000E+20
 30
-1.000000000000000E+20
  9
$PLIMMIN
 10
0.0
 20
0.0
  9
$PLIMMAX
 10
12.0
 20
9.0
  9
$UNITMODE
 70
     0
  9
$VISRETAIN
 70
     0
  9
$PLINEGEN
 70
     0
  9
$PSLTSCALE
 70
     0
  9
$TREEDEPTH
 70
  3020
  9
$CMLSTYLE
  2
STANDARD
  9
$CMLJUST
 70
     0
  9
$CMLSCALE
 40
1.0
  9
$PROXYGRAPHICS
 70
     1
  9
$MEASUREMENT
 70
     0
  9
$CELWEIGHT
370
    -1
  9
$ENDCAPS
280
     0
  9
$JOINSTYLE
280
     0
  9
$LWDISPLAY
290
     0
  9
$INSUNITS
 70
     0
  9
$HYPERLINKBASE
  1

  9
$STYLESHEET
  1
aclt.ctb
  9
$XEDIT
290
     1
  9
$CEPSNTYPE
380
     0
  9
$PSTYLEMODE
290
     1
  9
$FINGERPRINTGUID
  2
{3644D75A-AD60-4D58-9D7E-D616B61E4E68}
  9
$VERSIONGUID
  2
{8F467301-6BF9-47E9-B6A0-F29942010904}
  9
$EXTNAMES
290
     1
  9
$PSVPSCALE
 40
0.0
  9
$OLESTARTUP
290
     0
  0
ENDSEC
  0
SECTION
  2
CLASSES
  0
CLASS
  1
LWPOLYLINE
  2
AcDbPolyline
  3
AutoCAD 2000
 90
    32768
280
     0
281
     1
  0
CLASS
  1
DICTIONARYVAR
  2
AcDbDictionaryVar
  3
AutoCAD 2000
 90
        0
280
     0
281
     0
  0
CLASS
  1
HATCH
  2
AcDbHatch
  3
AutoCAD 2000
 90
    32768
280
     0
281
     1
  0
CLASS
  1
ACDBDICTIONARYWDFLT
  2
AcDbDictionaryWithDefault
  3
AutoCAD 2000
 90
        0
280
     0
281
     0
  0
CLASS
  1
ACDBPLACEHOLDER
  2
AcDbPlaceHolder
  3
AutoCAD 2000
 90
        0
280
     0
281
     0
  0
CLASS
  1
LAYOUT
  2
AcDbLayout
  3
AutoCAD 2000
 90
        0
280
     0
281
     0
  0
CLASS
  1
LONG_TRANSACTION
  2
AcDbLongTransaction
  3
AutoCAD 2000
 90
    32768
280
     0
281
     0
  0
CLASS
  1
LWPOLYLINE
  2
AcDbPolyline
  3
AutoCAD 2000
 90
    32768
280
     0
281
     1
  0
CLASS
  1
HATCH
  2
AcDbHatch
  3
AutoCAD 2000
 90
    32768
280
     0
281
     1
  0
CLASS
  1
XRECORD
  2
AcDbXrecord
  3
AutoCAD 2000
 90
    32768
280
     0
281
     0
  0
ENDSEC
  0
SECTION
  2
TABLES
  0
TABLE
  2
VPORT
  5
E00DEA4D
330
0
100
AcDbSymbolTable
 70
    10
  0
VPORT
  5
E00DEA82
330
E00DEA4D
100
AcDbSymbolTableRecord
100
AcDbViewportTableRecord
  2
2
 70
     0
 10
0.5
 20
0.0
 11
1.0
 21
1.0
 12
0.9240312421264802
 22
1.052650975462765
 13
0.0
 23
0.0
 14
1.0
 24
1.0
 15
10.0
 25
10.0
 16
0.0
 26
0.0
 36
1.0
 17
0.0
 27
0.0
 37
0.0
 40
2.105301950925533
 41
0.8778135048231511
 42
50.0
 43
0.0
 44
0.0
 50
0.0
 51
0.0
 71
     0
 72
   500
 73
     1
 74
     1
 75
     0
 76
     0
 77
     0
 78
     0
281
     0
 65
     1
110
0.0
120
0.0
130
0.0
111
1.0
121
0.0
131
0.0
112
0.0
122
1.0
132
0.0
 79
     0
146
0.0
  0
VPORT
  5
E00DEA83
330
E00DEA4D
100
AcDbSymbolTableRecord
100
AcDbViewportTableRecord
  2
2
 70
     0
 10
0.0
 20
0.0
 11
0.5
 21
1.0
 12
0.9240312421264802
 22
1.052650975462765
 13
0.0
 23
0.0
 14
1.0
 24
1.0
 15
10.0
 25
10.0
 16
0.0
 26
0.0
 36
1.0
 17
0.0
 27
0.0
 37
0.0
 40
2.105301950925533
 41
0.8778135048231511
 42
50.0
 43
0.0
 44
0.0
 50
0.0
 51
0.0
 71
     0
 72
   500
 73
     1
 74
     1
 75
     0
 76
     0
 77
     0
 78
     0
281
     0
 65
     1
110
0.0
120
0.0
130
0.0
111
1.0
121
0.0
131
0.0
112
0.0
122
1.0
132
0.0
 79
     0
146
0.0
  0
VPORT
  5
E00DEA84
330
E00DEA4D
100
AcDbSymbolTableRecord
100
AcDbViewportTableRecord
  2
3
 70
     0
 10
0.0
 20
0.5
 11
1.0
 21
1.0
 12
2.832169994473273
 22
1.052650975462765
 13
0.0
 23
0.0
 14
1.0
 24
1.0
 15
10.0
 25
10.0
 16
0.0
 26
0.0
 36
1.0
 17
0.0
 27
0.0
 37
0.0
 40
2.105301950925533
 41
3.571428571428571
 42
50.0
 43
0.0
 44
0.0
 50
0.0
 51
0.0
 71
     0
 72
   500
 73
     1
 74
     1
 75
     0
 76
     0
 77
     0
 78
     0
281
     0
 65
     1
110
0.0
120
0.0
130
0.0
111
1.0
121
0.0
131
0.0
112
0.0
122
1.0
132
0.0
 79
     0
146
0.0
  0
VPORT
  5
E00DEA85
330
E00DEA4D
100
AcDbSymbolTableRecord
100
AcDbViewportTableRecord
  2
3
 70
     0
 10
0.0
 20
0.0
 11
1.0
 21
0.5
 12
2.856741679241311
 22
1.052650975462765
 13
0.0
 23
0.0
 14
1.0
 24
1.0
 15
10.0
 25
10.0
 16
0.0
 26
0.0
 36
1.0
 17
0.0
 27
0.0
 37
0.0
 40
2.105301950925533
 41
3.594771241830064
 42
50.0
 43
0.0
 44
0.0
 50
0.0
 51
0.0
 71
     0
 72
   500
 73
     1
 74
     1
 75
     0
 76
     0
 77
     0
 78
     0
281
     0
 65
     1
110
0.0
120
0.0
130
0.0
111
1.0
121
0.0
131
0.0
112
0.0
122
1.0
132
0.0
 79
     0
146
0.0
  0
VPORT
  5
E00DEA86
330
E00DEA4D
100
AcDbSymbolTableRecord
100
AcDbViewportTableRecord
  2
4
 70
     0
 10
0.5
 20
0.0
 11
1.0
 21
0.5
 12
2.886857516709718
 22
1.052650975462765
 13
0.0
 23
0.0
 14
1.0
 24
1.0
 15
10.0
 25
10.0
 16
0.0
 26
0.0
 36
1.0
 17
0.0
 27
0.0
 37
0.0
 40
4.275207030309069
 41
1.784313725490195
 42
50.0
 43
0.0
 44
0.0
 50
0.0
 51
0.0
 71
     0
 72
   500
 73
     1
 74
     1
 75
     0
 76
     0
 77
     0
 78
     0
281
     0
 65
     1
110
0.0
120
0.0
130
0.0
111
1.0
121
0.0
131
0.0
112
0.0
122
1.0
132
0.0
 79
     0
146
0.0
  0
VPORT
  5
E00DEA87
330
E00DEA4D
100
AcDbSymbolTableRecord
100
AcDbViewportTableRecord
  2
4
 70
     0
 10
0.5
 20
0.5
 11
1.0
 21
1.0
 12
2.862090274555523
 22
1.052650975462765
 13
0.0
 23
0.0
 14
1.0
 24
1.0
 15
10.0
 25
10.0
 16
0.0
 26
0.0
 36
1.0
 17
0.0
 27
0.0
 37
0.0
 40
4.275207030309069
 41
1.772727272727271
 42
50.0
 43
0.0
 44
0.0
 50
0.0
 51
0.0
 71
     0
 72
   500
 73
     1
 74
     1
 75
     0
 76
     0
 77
     0
 78
     0
281
     0
 65
     1
110
0.0
120
0.0
130
0.0
111
1.0
121
0.0
131
0.0
112
0.0
122
1.0
132
0.0
 79
     0
146
0.0
  0
VPORT
  5
E00DEA88
330
E00DEA4D
100
AcDbSymbolTableRecord
100
AcDbViewportTableRecord
  2
4
 70
     0
 10
0.0
 20
0.5
 11
0.5
 21
1.0
 12
2.862090274555523
 22
1.052650975462765
 13
0.0
 23
0.0
 14
1.0
 24
1.0
 15
10.0
 25
10.0
 16
0.0
 26
0.0
 36
1.0
 17
0.0
 27
0.0
 37
0.0
 40
4.275207030309069
 41
1.772727272727271
 42
50.0
 43
0.0
 44
0.0
 50
0.0
 51
0.0
 71
     0
 72
   500
 73
     1
 74
     1
 75
     0
 76
     0
 77
     0
 78
     0
281
     0
 65
     1
110
0.0
120
0.0
130
0.0
111
1.0
121
0.0
131
0.0
112
0.0
122
1.0
132
0.0
 79
     0
146
0.0
  0
VPORT
  5
E00DEA89
330
E00DEA4D
100
AcDbSymbolTableRecord
100
AcDbViewportTableRecord
  2
4
 70
     0
 10
0.0
 20
0.0
 11
0.5
 21
0.5
 12
2.886857516709718
 22
1.052650975462765
 13
0.0
 23
0.0
 14
1.0
 24
1.0
 15
10.0
 25
10.0
 16
0.0
 26
0.0
 36
1.0
 17
0.0
 27
0.0
 37
0.0
 40
4.275207030309069
 41
1.784313725490195
 42
50.0
 43
0.0
 44
0.0
 50
0.0
 51
0.0
 71
     0
 72
   500
 73
     1
 74
     1
 75
     0
 76
     0
 77
     0
 78
     0
281
     0
 65
     1
110
0.0
120
0.0
130
0.0
111
1.0
121
0.0
131
0.0
112
0.0
122
1.0
132
0.0
 79
     0
146
0.0
  0
VPORT
  5
E00ED567
330
E00DEA4D
100
AcDbSymbolTableRecord
100
AcDbViewportTableRecord
  2
*Active
 70
     0
 10
0.0
 20
0.0
 11
1.0
 21
1.0
 12
190.9915056634427
 22
136.5000002468694
 13
0.0
 23
0.0
 14
1.0
 24
1.0
 15
10.0
 25
10.0
 16
0.0
 26
0.0
 36
1.0
 17
0.0
 27
0.0
 37
0.0
 40
274.9714358382318
 41
2.275779376498801
 42
50.0
 43
0.0
 44
0.0
 50
0.0
 51
0.0
 71
     0
 72
   500
 73
     1
 74
     0
 75
     0
 76
     0
 77
     0
 78
     0
281
     0
 65
     1
110
0.0
120
0.0
130
0.0
111
1.0
121
0.0
131
0.0
112
0.0
122
1.0
132
0.0
 79
     0
146
0.0
  0
ENDTAB
  0
TABLE
  2
LTYPE
  5
E00DEA4A
330
0
100
AcDbSymbolTable
 70
     5
  0
LTYPE
  5
E00DEA57
330
E00DEA4A
100
AcDbSymbolTableRecord
100
AcDbLinetypeTableRecord
  2
BYBLOCK
 70
     0
  3

 72
    65
 73
     0
 40
0.0
  0
LTYPE
  5
E00DEA58
330
E00DEA4A
100
AcDbSymbolTableRecord
100
AcDbLinetypeTableRecord
  2
BYLAYER
 70
     0
  3

 72
    65
 73
     0
 40
0.0
  0
LTYPE
  5
E00DEA59
330
E00DEA4A
100
AcDbSymbolTableRecord
100
AcDbLinetypeTableRecord
  2
CONTINUOUS
 70
     0
  3
実線
 72
    65
 73
     0
 40
0.0
  0
LTYPE
  5
E00DEA7E
330
E00DEA4A
100
AcDbSymbolTableRecord
100
AcDbLinetypeTableRecord
  2
CENTER
 70
     0
  3
____ _ ____ _ ____ _ ____ _ ____ _ ____ _ ____
 72
    65
 73
     4
 40
2.0
 49
1.25
 74
     0
 49
-0.25
 74
     0
 49
0.25
 74
     0
 49
-0.25
 74
     0
  0
LTYPE
  5
E00DEA81
330
E00DEA4A
100
AcDbSymbolTableRecord
100
AcDbLinetypeTableRecord
  2
HIDDEN
 70
     0
  3
_ _ _ _ _ _ _ _ _ _ _ _ _ _ _ _ _ _ _ _ _ _ _
 72
    65
 73
     2
 40
0.375
 49
0.25
 74
     0
 49
-0.125
 74
     0
  0
LTYPE
  5
E00E0AD4
330
E00DEA4A
100
AcDbSymbolTableRecord
100
AcDbLinetypeTableRecord
  2
PHANTOM
 70
     0
  3
Phantom ______  __  __  ______  __  __  ______
 72
    65
 73
     6
 40
2.5
 49
1.25
 74
     0
 49
-0.25
 74
     0
 49
0.25
 74
     0
 49
-0.25
 74
     0
 49
0.25
 74
     0
 49
-0.25
 74
     0
  0
LTYPE
  5
E00ECC5C
330
E00DEA4A
100
AcDbSymbolTableRecord
100
AcDbLinetypeTableRecord
  2
SLD-実線
 70
     0
  3
SolidWorks Line Style
 72
    65
 73
     0
 40
0.0
  0
ENDTAB
  0
TABLE
  2
LAYER
  5
E00DEA47
102
{ACAD_XDICTIONARY
360
E00DFB39
102
}
330
0
100
AcDbSymbolTable
 70
    13
  0
LAYER
  5
E00DEA54
330
E00DEA47
100
AcDbSymbolTableRecord
100
AcDbLayerTableRecord
  2
0
 70
     0
 62
     6
  6
CONTINUOUS
370
    -3
390
E00DFA69
  0
LAYER
  5
E00DEA8D
330
E00DEA47
100
AcDbSymbolTableRecord
100
AcDbLayerTableRecord
  2
ITTEN
 70
     0
 62
     1
  6
CENTER
370
    -3
390
E00DFA69
  0
LAYER
  5
E00DEA8F
330
E00DEA47
100
AcDbSymbolTableRecord
100
AcDbLayerTableRecord
  2
HATCH
 70
     0
 62
     4
  6
CONTINUOUS
370
    -3
390
E00DFA69
  0
LAYER
  5
E00DEA90
330
E00DEA47
100
AcDbSymbolTableRecord
100
AcDbLayerTableRecord
  2
SUNPOU
 70
     0
 62
     3
  6
CONTINUOUS
370
    -3
390
E00DFA69
  0
LAYER
  5
E00DEA91
330
E00DEA47
100
AcDbSymbolTableRecord
100
AcDbLayerTableRecord
  2
TEXT
 70
     0
 62
     3
  6
CONTINUOUS
370
    -3
390
E00DFA69
  0
LAYER
  5
E00DEA92
330
E00DEA47
100
AcDbSymbolTableRecord
100
AcDbLayerTableRecord
  2
SAISEN
 70
     0
 62
     4
  6
CONTINUOUS
370
    -3
390
E00DFA69
  0
LAYER
  5
E00DEA93
330
E00DEA47
100
AcDbSymbolTableRecord
100
AcDbLayerTableRecord
  2
JISSEN
 70
     0
 62
     7
  6
CONTINUOUS
370
    -3
390
E00DFA69
  0
LAYER
  5
E00DEA96
330
E00DEA47
100
AcDbSymbolTableRecord
100
AcDbLayerTableRecord
  2
WAKU
 70
     0
 62
     5
  6
CONTINUOUS
370
    -3
390
E00DFA69
  0
LAYER
  5
E00DEA97
330
E00DEA47
100
AcDbSymbolTableRecord
100
AcDbLayerTableRecord
  2
TENSEN
 70
     0
 62
     2
  6
HIDDEN
370
    -3
390
E00DFA69
  0
LAYER
  5
E00E0AD5
330
E00DEA47
100
AcDbSymbolTableRecord
100
AcDbLayerTableRecord
  2
SCALE
 70
     0
 62
     4
  6
CONTINUOUS
370
    -3
390
E00DFA69
  0
LAYER
  5
E00E0AD6
330
E00DEA47
100
AcDbSymbolTableRecord
100
AcDbLayerTableRecord
  2
BORDER
 70
     0
 62
     5
  6
CONTINUOUS
370
    -3
390
E00DFA69
  0
LAYER
  5
E00E0AD7
330
E00DEA47
100
AcDbSymbolTableRecord
100
AcDbLayerTableRecord
  2
NITEN
 70
     0
 62
     2
  6
PHANTOM
370
    -3
390
E00DFA69
  0
LAYER
  5
E00E5AB9
330
E00DEA47
100
AcDbSymbolTableRecord
100
AcDbLayerTableRecord
  2
DEFPOINTS
 70
     0
 62
    -7
  6
CONTINUOUS
290
     0
370
    -3
390
E00DFA69
  0
ENDTAB
  0
TABLE
  2
STYLE
  5
E00DEA48
330
0
100
AcDbSymbolTable
 70
     5
  0
STYLE
  5
E00DEA55
330
E00DEA48
100
AcDbSymbolTableRecord
100
AcDbTextStyleTableRecord
  2
STANDARD
 70
     0
 40
0.0
 41
1.0
 50
0.0
 71
     0
 42
2.5
  3
SIMPLEX
  4

  0
STYLE
  5
E00DEA7C
330
E00DEA48
100
AcDbSymbolTableRecord
100
AcDbTextStyleTableRecord
  2
K
 70
     0
 40
0.0
 41
1.0
 50
0.0
 71
     0
 42
6.0
  3
SIMPLEX
  4
bigfont.shx
  0
STYLE
  5
E00DFB37
330
E00DEA48
100
AcDbSymbolTableRecord
100
AcDbTextStyleTableRecord
  2
DIMENSION
 70
     0
 40
0.0
 41
1.0
 50
0.0
 71
     0
 42
2.5
  3
TXT
  4

  0
STYLE
  5
E00EC309
330
E00DEA48
100
AcDbSymbolTableRecord
100
AcDbTextStyleTableRecord
  2
BIGFONT
 70
     0
 40
0.0
 41
1.0
 50
0.0
 71
     0
 42
3.0
  3
txt.shx
  4
bigfont
  0
STYLE
  5
E00ECC5D
330
E00DEA48
100
AcDbSymbolTableRecord
100
AcDbTextStyleTableRecord
  2
ROMANS
 70
     0
 40
0.0
 41
0.8
 50
0.0
 71
     0
 42
6.0
  3
romans
  4

  0
ENDTAB
  0
TABLE
  2
VIEW
  5
E00DEA4B
330
0
100
AcDbSymbolTable
 70
     0
  0
ENDTAB
  0
TABLE
  2
UCS
  5
E00DEA4C
330
0
100
AcDbSymbolTable
 70
     0
  0
ENDTAB
  0
TABLE
  2
APPID
  5
E00DEA4E
330
0
100
AcDbSymbolTable
 70
     8
  0
APPID
  5
E00DEA56
330
E00DEA4E
100
AcDbSymbolTableRecord
100
AcDbRegAppTableRecord
  2
ACAD
 70
     0
  0
APPID
  5
E00E89BA
330
E00DEA4E
100
AcDbSymbolTableRecord
100
AcDbRegAppTableRecord
  2
CONTENTBLOCKICON
 70
     0
  0
APPID
  5
E00E89BB
330
E00DEA4E
100
AcDbSymbolTableRecord
100
AcDbRegAppTableRecord
  2
X_OBJNAME
 70
     0
  0
APPID
  5
E00E89BC
330
E00DEA4E
100
AcDbSymbolTableRecord
100
AcDbRegAppTableRecord
  2
X_PARAM_BALLOON
 70
     0
  0
APPID
  5
E00E89BD
330
E00DEA4E
100
AcDbSymbolTableRecord
100
AcDbRegAppTableRecord
  2
X_PARAM_TXTPATERN
 70
     0
  0
APPID
  5
E00E89BE
330
E00DEA4E
100
AcDbSymbolTableRecord
100
AcDbRegAppTableRecord
  2
X_PARAM_CTXTPATERN
 70
     0
  0
APPID
  5
E00E89BF
330
E00DEA4E
100
AcDbSymbolTableRecord
100
AcDbRegAppTableRecord
  2
X_PARAM_SYSVAL
 70
     0
  0
APPID
  5
E00E89C0
330
E00DEA4E
100
AcDbSymbolTableRecord
100
AcDbRegAppTableRecord
  2
X_DEFINELIST
 70
     0
  0
ENDTAB
  0
TABLE
  2
DIMSTYLE
  5
E00DEA4F
330
0
100
AcDbSymbolTable
 70
     2
100
AcDbDimStyleTable
 71
     1
340
E00DEA8C
  0
DIMSTYLE
105
E00DEA8C
330
E00DEA4F
100
AcDbSymbolTableRecord
100
AcDbDimStyleTableRecord
  2
IMAO
 70
     0
 41
1.5
 42
1.0
 43
6.0
 44
1.0
 47
495.0
 73
     0
 74
     0
 77
     1
 78
     8
140
3.0
141
0.0
172
     1
174
     1
271
     2
272
     2
279
     2
284
     8
285
     8
286
     8
340
E00DEA7C
341
E00DEA68
342
E00DEA68
343
E00DEA68
344
E00DEA68
  0
DIMSTYLE
105
E00DFB38
330
E00DEA4F
100
AcDbSymbolTableRecord
100
AcDbDimStyleTableRecord
  2
STANDARD
 70
     0
 40
0.5
 41
2.0
 42
0.1
 43
10.0
 44
1.5
 73
     0
 74
     0
 78
     8
140
3.0
145
1.0
147
0.1
172
     1
176
   256
177
   256
178
   256
271
     2
272
     2
284
     8
340
E00DFB37
341
E00DFB2F
342
E00DFB2F
  0
ENDTAB
  0
TABLE
  2
BLOCK_RECORD
  5
E00DEA46
330
0
100
AcDbSymbolTable
 70
     4
  0
BLOCK_RECORD
  5
E00DEA5D
102
{ACAD_XDICTIONARY
360
E00DFB13
102
}
330
E00DEA46
100
AcDbSymbolTableRecord
100
AcDbBlockTableRecord
  2
*MODEL_SPACE
340
E00DFA6C
  0
BLOCK_RECORD
  5
E00DEA5A
102
{ACAD_XDICTIONARY
360
E00DFB11
102
}
330
E00DEA46
100
AcDbSymbolTableRecord
100
AcDbBlockTableRecord
  2
*PAPER_SPACE
340
E00DFA6D
  0
BLOCK_RECORD
  5
E00DEA61
330
E00DEA46
100
AcDbSymbolTableRecord
100
AcDbBlockTableRecord
  2
ARROW
340
0
102
{BLKREFS
331
E00ECFE7
331
E00ED0DA
102
}
  0
BLOCK_RECORD
  5
E00DEA68
330
E00DEA46
100
AcDbSymbolTableRecord
100
AcDbBlockTableRecord
  2
ARROWANG
340
0
  0
BLOCK_RECORD
  5
E00DFB2F
330
E00DEA46
100
AcDbSymbolTableRecord
100
AcDbBlockTableRecord
  2
AR_OPEN
340
0
  0
BLOCK_RECORD
  5
E00E0A21
330
E00DEA46
100
AcDbSymbolTableRecord
100
AcDbBlockTableRecord
  2
WAKU
340
0
  0
ENDTAB
  0
ENDSEC
  0
SECTION
  2
BLOCKS
  0
BLOCK
  5
E00DEA9A
330
E00DEA5D
100
AcDbEntity
  8
0
100
AcDbBlockBegin
  2
*MODEL_SPACE
 70
     0
 10
0.0
 20
0.0
 30
0.0
  3
*MODEL_SPACE
  1

  0
ENDBLK
  5
E00DEA9B
330
E00DEA5D
100
AcDbEntity
  8
0
100
AcDbBlockEnd
  0
BLOCK
  5
E00DEA98
330
E00DEA5A
100
AcDbEntity
 67
     1
  8
0
100
AcDbBlockBegin
  2
*PAPER_SPACE
 70
     0
 10
0.0
 20
0.0
 30
0.0
  3
*PAPER_SPACE
  1

  0
ENDBLK
  5
E00DEA99
330
E00DEA5A
100
AcDbEntity
 67
     1
  8
0
100
AcDbBlockEnd
  0
BLOCK
  5
41E
330
E00DEA61
100
AcDbEntity
  8
0
100
AcDbBlockBegin
  2
ARROW
 70
     0
 10
1.0
 20
0.5
 30
0.0
  3
ARROW
  1

  0
LINE
  5
41F
330
E00DEA61
100
AcDbEntity
  8
0
100
AcDbLine
 10
1.0
 20
0.5
 30
0.0
 11
-0.5000000000000214
 21
0.0980762113533018
 31
0.0
  0
LINE
  5
420
330
E00DEA61
100
AcDbEntity
  8
0
100
AcDbLine
 10
0.0
 20
0.5
 30
0.0
 11
1.0
 21
0.5
 31
0.0
  0
LINE
  5
421
330
E00DEA61
100
AcDbEntity
  8
0
100
AcDbLine
 10
1.0
 20
0.5
 30
0.0
 11
-0.4999999999999575
 21
0.9019237886467408
 31
0.0
  0
ENDBLK
  5
422
330
E00DEA61
100
AcDbEntity
  8
0
100
AcDbBlockEnd
  0
BLOCK
  5
460
330
E00DEA68
100
AcDbEntity
  8
0
100
AcDbBlockBegin
  2
ARROWANG
 70
     0
 10
0.0
 20
0.0
 30
0.0
  3
ARROWANG
  1

  0
LINE
  5
461
330
E00DEA68
100
AcDbEntity
  8
SUNPOU
100
AcDbLine
 10
0.0
 20
0.0
 30
0.0
 11
-1.499999999999956
 21
0.401923788646741
 31
0.0
  0
LINE
  5
462
330
E00DEA68
100
AcDbEntity
  8
SUNPOU
100
AcDbLine
 10
0.0
 20
0.0
 30
0.0
 11
-1.500000000000027
 21
-0.4019237886467124
 31
0.0
  0
ENDBLK
  5
463
330
E00DEA68
100
AcDbEntity
  8
0
100
AcDbBlockEnd
  0
BLOCK
  5
E00DFB33
330
E00DFB2F
100
AcDbEntity
  8
0
100
AcDbBlockBegin
  2
AR_OPEN
 70
     0
 10
0.0
 20
0.0
 30
0.0
  3
AR_OPEN
  1

  0
LINE
  5
E00DFB30
330
E00DFB2F
100
AcDbEntity
  8
0
 62
     0
100
AcDbLine
 10
-1.0
 20
0.0
 30
0.0
 11
0.0
 21
0.0
 31
0.0
  0
LINE
  5
E00DFB31
330
E00DFB2F
100
AcDbEntity
  8
0
 62
     0
100
AcDbLine
 10
0.0
 20
0.0
 30
0.0
 11
-1.0
 21
0.2679491924311037
 31
0.0
  0
LINE
  5
E00DFB32
330
E00DFB2F
100
AcDbEntity
  8
0
 62
     0
100
AcDbLine
 10
0.0
 20
0.0
 30
0.0
 11
-1.0
 21
-0.2679491924311037
 31
0.0
  0
ENDBLK
  5
E00DFB34
330
E00DFB2F
100
AcDbEntity
  8
0
100
AcDbBlockEnd
  0
BLOCK
  5
E00E0A26
330
E00E0A21
100
AcDbEntity
  8
0
100
AcDbBlockBegin
  2
WAKU
 70
     0
 10
0.0
 20
0.0
 30
0.0
  3
WAKU
  1

  0
LINE
  5
E00E0A22
330
E00E0A21
100
AcDbEntity
  8
WAKU
100
AcDbLine
 10
0.9999999959999998
 20
0.0
 30
0.0
 11
0.9999999959999998
 21
0.9999999999999998
 31
0.0
  0
LINE
  5
E00E0A23
330
E00E0A21
100
AcDbEntity
  8
WAKU
100
AcDbLine
 10
0.0
 20
0.9999999999999998
 30
0.0
 11
0.9999999959999998
 21
0.9999999999999998
 31
0.0
  0
LINE
  5
E00E0A24
330
E00E0A21
100
AcDbEntity
  8
WAKU
100
AcDbLine
 10
0.9999999959999998
 20
0.0
 30
0.0
 11
0.0
 21
0.0
 31
0.0
  0
LINE
  5
E00E0A25
330
E00E0A21
100
AcDbEntity
  8
WAKU
100
AcDbLine
 10
0.0
 20
0.0
 30
0.0
 11
0.0
 21
0.9999999999999998
 31
0.0
  0
ENDBLK
  5
E00E0A27
330
E00E0A21
100
AcDbEntity
  8
0
100
AcDbBlockEnd
  0
ENDSEC
  0
SECTION
  2
ENTITIES
  0
LINE
  5
E00ECFC3
330
E00DEA5D
100
AcDbEntity
  8
JISSEN
100
AcDbLine
 10
122.9999991433644
 20
257.9999996112418
 30
0.0
 11
180.9999987813646
 21
257.9999996112418
 31
0.0
  0
LINE
  5
E00ECFC4
330
E00DEA5D
100
AcDbEntity
  8
JISSEN
100
AcDbLine
 10
122.9999991433644
 20
262.9999996112418
 30
0.0
 11
180.9999987813646
 21
262.9999996112418
 31
0.0
  0
LINE
  5
E00ECFC5
330
E00DEA5D
100
AcDbEntity
  8
JISSEN
100
AcDbLine
 10
122.9999991433644
 20
267.9999996112418
 30
0.0
 11
180.9999987813646
 21
267.9999996112418
 31
0.0
  0
LWPOLYLINE
  5
E00ECFC6
330
E00DEA5D
100
AcDbEntity
  8
WAKU
100
AcDbPolyline
 90
        4
 70
     1
 43
0.0
 10
180.9999991433644
 20
-0.000000388758167
 10
-0.0000001326359325
 20
-0.000000388758167
 10
-0.0000001326359325
 20
272.9999996112418
 10
180.9999991433644
 20
272.9999996112418
  0
CIRCLE
  5
E00ECFC7
330
E00DEA5D
100
AcDbEntity
  8
SUNPOU
100
AcDbCircle
 10
66.11098251531553
 20
137.8533129670594
 30
0.0
 40
3.0
  0
TEXT
  5
E00ECFC8
330
E00DEA5D
100
AcDbEntity
  8
SUNPOU
100
AcDbText
 10
65.75383965817266
 20
136.3533129670594
 30
0.0
 40
3.0
  1
1
  7
K
 72
     4
 11
66.11098251531553
 21
137.8533129670594
 31
0.0
100
AcDbText
  0
LINE
  5
E00ECFC9
330
E00DEA5D
100
AcDbEntity
  8
JISSEN
 48
0.2
100
AcDbLine
 39
1680.364539346804
 10
94.05570692355855
 20
32.5397089892873
 30
0.0
 11
94.05570692355855
 21
33.13970869157276
 31
0.0
  0
LINE
  5
E00ECFCA
330
E00DEA5D
100
AcDbEntity
  8
JISSEN
100
AcDbLine
 39
1680.364539346804
 10
94.3057085498042
 20
33.23970635961961
 30
0.0
 11
94.20571088175734
 21
33.13970869157276
 31
0.0
  0
LINE
  5
E00ECFCB
330
E00DEA5D
100
AcDbEntity
  8
JISSEN
100
AcDbLine
 39
1680.364539346804
 10
94.3057085498042
 20
33.23970635961961
 30
0.0
 11
94.20571088175734
 21
33.13970869157276
 31
0.0
  0
LINE
  5
E00ECFCC
330
E00DEA5D
100
AcDbEntity
  8
JISSEN
100
AcDbLine
 39
1680.364539346804
 10
99.87321070762687
 20
35.93970635964581
 30
0.0
 11
102.0557069235621
 21
35.93970635965126
 31
0.0
  0
LINE
  5
E00ECFCD
330
E00DEA5D
100
AcDbEntity
  8
JISSEN
100
AcDbLine
 39
1680.364539346804
 10
99.87321070762687
 20
35.83970635964544
 30
0.0
 11
102.0557069235621
 21
35.8397063596509
 31
0.0
  0
LINE
  5
E00ECFCE
330
E00DEA5D
100
AcDbEntity
  8
JISSEN
100
AcDbLine
 39
1680.364539346804
 10
96.87997099227892
 20
35.93970635963853
 30
0.0
 11
102.0557069235603
 21
35.93970635964945
 31
0.0
  0
LINE
  5
E00ECFCF
330
E00DEA5D
100
AcDbEntity
  8
JISSEN
100
AcDbLine
 39
1680.364539346804
 10
92.58397955706119
 20
35.83970635962725
 30
0.0
 11
101.0557069235621
 21
35.83970635965636
 31
0.0
  0
LINE
  5
E00ECFD0
330
E00DEA5D
100
AcDbEntity
  8
JISSEN
 48
0.05
100
AcDbLine
 39
1680.364539346804
 10
96.7385496360405
 20
35.99828500341357
 30
0.0
 11
96.18499624544917
 21
36.55183839399944
 31
0.0
  0
ARC
  5
E00ECFD1
330
E00DEA5D
100
AcDbEntity
  8
JISSEN
100
AcDbCircle
 39
1680.364539346804
 10
96.87997099227892
 20
36.13970635965017
 30
0.0
 40
0.2
100
AcDbArc
 50
225.0000000001562
 51
270.0000000001335
  0
LINE
  5
E00ECFD2
330
E00DEA5D
100
AcDbEntity
  8
JISSEN
100
AcDbLine
 39
1680.364539346804
 10
94.35570692356691
 20
37.73970640407026
 30
0.0
 11
94.35570692356874
 21
36.63970635962289
 31
0.0
  0
LINE
  5
E00ECFD3
330
E00DEA5D
100
AcDbEntity
  8
JISSEN
100
AcDbLine
 39
1680.364539346804
 10
85.75570692351119
 20
37.73970640408132
 30
0.0
 11
85.75570692350657
 21
36.63970635963394
 31
0.0
  0
ARC
  5
E00ECFD4
330
E00DEA5D
100
AcDbEntity
  8
JISSEN
100
AcDbCircle
 39
1680.364539346804
 10
83.23144285479509
 20
36.13970635966771
 30
0.0
 40
0.2
100
AcDbArc
 50
269.9999999997199
 51
314.9999999996964
  0
LINE
  5
E00ECFD5
330
E00DEA5D
100
AcDbEntity
  8
JISSEN
 48
0.05
100
AcDbLine
 39
1680.364539346804
 10
83.37286421103318
 20
35.99828500343076
 30
0.0
 11
83.92641760162593
 21
36.55183839401522
 31
0.0
  0
LINE
  5
E00ECFD6
330
E00DEA5D
100
AcDbEntity
  8
JISSEN
100
AcDbLine
 39
1680.364539346804
 10
87.52743429001203
 20
35.83970635963376
 30
0.0
 11
79.05570692351102
 21
35.83970635968464
 31
0.0
  0
LINE
  5
E00ECFD7
330
E00DEA5D
100
AcDbEntity
  8
JISSEN
100
AcDbLine
 39
1680.364539346804
 10
83.23144285479457
 20
35.93970635965607
 30
0.0
 11
78.05570692351313
 21
35.93970635968029
 31
0.0
  0
LINE
  5
E00ECFD8
330
E00DEA5D
100
AcDbEntity
  8
JISSEN
100
AcDbLine
 39
1680.364539346804
 10
80.23820313944634
 20
35.83970635967068
 30
0.0
 11
78.05570692351103
 21
35.83970635968174
 31
0.0
  0
LINE
  5
E00ECFD9
330
E00DEA5D
100
AcDbEntity
  8
JISSEN
100
AcDbLine
 39
1680.364539346804
 10
80.23820313944662
 20
35.93970635967105
 30
0.0
 11
78.05570692351131
 21
35.9397063596821
 31
0.0
  0
LINE
  5
E00ECFDA
330
E00DEA5D
100
AcDbEntity
  8
JISSEN
100
AcDbLine
 39
1680.364539346804
 10
85.80570529726236
 20
33.23970635963056
 30
0.0
 11
85.90570296530893
 21
33.13970869158345
 31
0.0
  0
LINE
  5
E00ECFDB
330
E00DEA5D
100
AcDbEntity
  8
JISSEN
100
AcDbLine
 39
1680.364539346804
 10
85.80570529726236
 20
33.23970635963056
 30
0.0
 11
85.90570296530893
 21
33.13970869158345
 31
0.0
  0
LINE
  5
E00ECFDC
330
E00DEA5D
100
AcDbEntity
  8
JISSEN
 48
0.2
100
AcDbLine
 39
1680.364539346804
 10
86.05570692350619
 20
32.53970898929759
 30
0.0
 11
86.05570692350772
 21
33.13970869158305
 31
0.0
  0
ARC
  5
E00ECFDD
330
E00DEA5D
100
AcDbEntity
  8
JISSEN
100
AcDbCircle
 10
90.05570692347623
 20
99.09047474278089
 30
0.0
 40
32.5
100
AcDbArc
 50
180.0
 51
0.0
  0
ARC
  5
E00ECFDE
330
E00DEA5D
100
AcDbEntity
  8
JISSEN
100
AcDbCircle
 10
90.05570692347623
 20
99.09047474278089
 30
0.0
 40
32.5
100
AcDbArc
 50
0.0
 51
180.0
  0
LINE
  5
E00ECFDF
330
E00DEA5D
100
AcDbEntity
  8
JISSEN
100
AcDbLine
 10
73.20183748997419
 20
43.00714757997264
 30
0.0
 11
59.0158004436737
 21
45.00086506757031
 31
0.0
  0
LINE
  5
E00ECFE0
330
E00DEA5D
100
AcDbEntity
  8
JISSEN
100
AcDbLine
 10
57.55570692339666
 20
45.99254968317325
 30
0.0
 11
122.5557069235521
 21
45.99254968317325
 31
0.0
  0
HATCH
  5
E00ECFE1
330
E00DEA5D
100
AcDbEntity
  8
SUNPOU
100
AcDbHatch
 10
0.0
 20
0.0
 30
0.0
210
0.0
220
0.0
230
1.0
  2
ANSI31
 70
     0
 71
     0
 91
        2
 92
        5
 93
        5
 72
     1
 10
90.05570692347623
 20
55.99254968317325
 11
33.0038388188484
 21
55.99254968317143
 72
     4
 94
        3
 73
     0
 74
     0
 95
       11
 96
        7
 40
0.0
 40
0.0
 40
0.0
 40
0.0
 40
3.264692203133994
 40
6.15697472568029
 40
8.955271668736928
 40
10.85738683396026
 40
10.85738683396026
 40
10.85738683396026
 40
10.85738683396026
 10
33.0038388188475
 20
55.99254968317325
 10
33.67893950713392
 20
54.99115073196697
 10
34.95213085763202
 20
53.10258432225452
 10
32.68628614128761
 20
50.25121328918465
 10
34.8894033078443
 20
47.62488279144451
 10
33.54704911711019
 20
46.46280681825408
 10
33.0038388188475
 20
45.99254968317325
 72
     1
 10
33.0038388188475
 20
45.99254968317325
 11
57.55570692340029
 21
45.99254968317325
 72
     1
 10
57.55570692340029
 20
45.99254968317325
 11
90.05570692347623
 21
45.99254968317325
 72
     1
 10
90.05570692347623
 20
45.99254968317143
 11
90.05570692347623
 21
55.99254968317325
 97
        0
 92
        5
 93
        5
 72
     4
 94
        3
 73
     0
 74
     0
 95
       11
 96
        7
 40
0.0
 40
0.0
 40
0.0
 40
0.0
 40
1.902115165223333
 40
4.700412108279971
 40
7.592694630826267
 40
10.85738683396026
 40
10.85738683396026
 40
10.85738683396026
 40
10.85738683396026
 10
147.1075750281049
 20
45.99254968317325
 10
146.5643647298422
 20
46.46280681825408
 10
145.2220105391081
 20
47.62488279144451
 10
147.4251277056648
 20
50.25121328918465
 10
145.1592829893204
 20
53.10258432225452
 10
146.4324743398185
 20
54.99115073196697
 10
147.1075750281049
 20
55.99254968317325
 72
     1
 10
147.1075750281045
 20
55.99254968317143
 11
90.05570692347646
 21
55.99254968317507
 72
     1
 10
90.05570692347623
 20
55.99254968317325
 11
90.05570692347623
 21
45.99254968317143
 72
     1
 10
90.05570692347623
 20
45.99254968317325
 11
122.5557069235521
 21
45.99254968317325
 72
     1
 10
122.5557069235521
 20
45.99254968317325
 11
147.1075750281049
 21
45.99254968317325
 97
        0
 75
     0
 76
     1
 52
0.0
 41
10.0
 77
     0
 78
     1
 53
45.0
 43
185.0253222536728
 44
-2526.67050321194
 45
-0.8838834764831842
 46
0.8838834764831844
 79
     0
 47
0.087569455337929
 98
        2
 10
84.46519787713782
 20
53.00987300881058
 10
105.8413460877907
 20
52.74716462992216
  0
LINE
  5
E00ECFE2
330
E00DEA5D
100
AcDbEntity
  8
SUNPOU
100
AcDbLine
 10
57.55570692340029
 20
45.99254968317325
 30
0.0
 11
33.00383881884704
 21
45.99254968317325
 31
0.0
  0
CIRCLE
  5
E00ECFE3
330
E00DEA5D
100
AcDbEntity
  8
SUNPOU
100
AcDbCircle
 10
56.78928922928458
 20
32.29323674298244
 30
0.0
 40
3.0
  0
LINE
  5
E00ECFE4
330
E00DEA5D
100
AcDbEntity
  8
SUNPOU
100
AcDbLine
 10
58.65736873353466
 20
34.64063508280593
 30
0.0
 11
66.10881896641808
 21
44.00400632377237
 31
0.0
  0
TEXT
  5
E00ECFE5
330
E00DEA5D
100
AcDbEntity
  8
SUNPOU
100
AcDbText
 10
55.78928922928458
 20
30.79323674298244
 30
0.0
 40
3.0
  1
2
  7
K
 72
     4
 11
56.78928922928458
 21
32.29323674298244
 31
0.0
100
AcDbText
  0
ARC
  5
E00ECFE6
330
E00DEA5D
100
AcDbEntity
  8
JISSEN
100
AcDbCircle
 10
59.29414664557248
 20
46.98140120507048
 30
0.0
 40
1.999999999999996
100
AcDbArc
 50
209.6318914940852
 51
261.9999999999498
  0
INSERT
  5
E00ECFE7
330
E00DEA5D
100
AcDbEntity
  8
SUNPOU
100
AcDbBlockReference
  2
ARROW
 10
66.09332081689785
 20
43.98819935272
 30
0.0
 41
1.500000000000068
 42
1.5
 43
1.5
 50
51.56959793943634
  0
LINE
  5
E00ECFE8
330
E00DEA5D
100
AcDbEntity
  8
SUNPOU
100
AcDbLine
 10
122.5557069235521
 20
45.99254968317325
 30
0.0
 11
147.1075750281054
 21
45.99254968317325
 31
0.0
  0
TEXT
  5
E00ECFE9
330
E00DEA5D
100
AcDbEntity
  8
TEXT
100
AcDbText
 10
111.4672760092326
 20
9.100733707080394
 30
0.0
 40
3.0
  1
KEC　＋シーリングプレートK 取付状態
  7
K
 72
     4
 11
144.8244188663754
 21
10.60073370708039
 31
0.0
100
AcDbText
  0
TEXT
  5
E00ECFEA
330
E00DEA5D
100
AcDbEntity
  8
TEXT
100
AcDbText
 10
111.0704423291449
 20
4.69824910109974
 30
0.0
 40
3.0
  1
尺度　1/1
  7
K
 72
     4
 11
119.5418709005734
 21
5.983963386814025
 31
0.0
100
AcDbText
  0
LINE
  5
E00ECFEB
330
E00DEA5D
100
AcDbEntity
  8
JISSEN
100
AcDbLine
 39
240.0520776831561
 10
94.20571088175734
 20
33.13970869157276
 30
0.0
 11
94.05570692356219
 21
33.13970869157276
 31
0.0
  0
LINE
  5
E00ECFEC
330
E00DEA5D
100
AcDbEntity
  8
JISSEN
100
AcDbLine
 39
240.0520776831561
 10
102.0557069235603
 20
35.93970635964945
 30
0.0
 11
102.0557069235621
 21
35.8397063596509
 31
0.0
  0
LINE
  5
E00ECFED
330
E00DEA5D
100
AcDbEntity
  8
JISSEN
100
AcDbLine
 39
240.0520776831561
 10
94.20571088176098
 20
33.13970869157276
 30
0.0
 11
90.05570692356219
 21
33.13970869157185
 31
0.0
  0
LINE
  5
E00ECFEE
330
E00DEA5D
100
AcDbEntity
  8
JISSEN
100
AcDbLine
 39
240.0520776831561
 10
85.90570296530529
 20
33.13970869158345
 30
0.0
 11
90.05570692350408
 21
33.13970869157185
 31
0.0
  0
LINE
  5
E00ECFEF
330
E00DEA5D
100
AcDbEntity
  8
JISSEN
100
AcDbLine
 39
240.0520776831561
 10
78.05570692351313
 20
35.93970635968029
 30
0.0
 11
78.05570692351103
 21
35.83970635968174
 31
0.0
  0
LINE
  5
E00ECFF0
330
E00DEA5D
100
AcDbEntity
  8
JISSEN
100
AcDbLine
 39
240.0520776831561
 10
85.90570296530893
 20
33.13970869158345
 30
0.0
 11
86.0557069235041
 21
33.13970869158305
 31
0.0
  0
LINE
  5
E00ECFF1
330
E00DEA5D
100
AcDbEntity
  8
JISSEN
100
AcDbLine
 39
240.0520776831561
 10
77.65570692355891
 20
42.43970640406621
 30
0.0
 11
90.05570692356219
 21
42.43970640398254
 31
0.0
  0
LINE
  5
E00ECFF2
330
E00DEA5D
100
AcDbEntity
  8
JISSEN
100
AcDbLine
 39
240.0520776831561
 10
102.4557069234795
 20
42.43970640398436
 30
0.0
 11
90.05570692347623
 21
42.43970640398254
 31
0.0
  0
LINE
  5
E00ECFF3
330
E00DEA5D
100
AcDbEntity
  8
0
  6
SLD-実線
 62
     7
370
    15
100
AcDbLine
 10
103.3057069235621
 20
39.23970640407026
 30
0.0
 11
90.05570692356219
 21
39.23970640407026
 31
0.0
  0
LINE
  5
E00ECFF4
330
E00DEA5D
100
AcDbEntity
  8
0
  6
SLD-実線
 62
     7
370
    15
100
AcDbLine
 10
94.59979920051068
 20
33.73970640407026
 30
0.0
 11
100.7600423264123
 21
33.73970640407026
 31
0.0
  0
LINE
  5
E00ECFF5
330
E00DEA5D
100
AcDbEntity
  8
0
  6
SLD-実線
 62
     7
370
    15
100
AcDbLine
 10
100.7600423264123
 20
33.23970640407026
 30
0.0
 11
94.59979920051068
 21
33.23970640407026
 31
0.0
  0
LINE
  5
E00ECFF6
330
E00DEA5D
100
AcDbEntity
  8
0
  6
SLD-実線
 62
     7
370
    15
100
AcDbLine
 10
103.0622567155608
 20
37.73970640407026
 30
0.0
 11
92.58397955706119
 21
37.73970640407026
 31
0.0
  0
ARC
  5
E00ECFF7
330
E00DEA5D
100
AcDbEntity
  8
JISSEN
100
AcDbCircle
 10
95.97286421109334
 20
36.33970635964181
 30
0.0
 40
0.3
100
AcDbArc
 50
45.00000000043256
 51
90.00000000015957
  0
LINE
  5
E00ECFF8
330
E00DEA5D
100
AcDbEntity
  8
JISSEN
100
AcDbLine
 10
90.05570692347623
 20
42.99254968317325
 30
0.0
 11
106.6888498375772
 21
42.99254968317325
 31
0.0
  0
LINE
  5
E00ECFF9
330
E00DEA5D
100
AcDbEntity
  8
0
  6
SLD-実線
 62
     7
370
    15
100
AcDbLine
 10
77.04915713151729
 20
37.73970640410368
 30
0.0
 11
87.52743429001691
 21
37.73970640407677
 31
0.0
  0
LINE
  5
E00ECFFA
330
E00DEA5D
100
AcDbEntity
  8
0
  6
SLD-実線
 62
     7
370
    15
100
AcDbLine
 10
79.35137152065426
 20
33.23970640409777
 30
0.0
 11
85.51161464655587
 21
33.23970640408194
 31
0.0
  0
LINE
  5
E00ECFFB
330
E00DEA5D
100
AcDbEntity
  8
0
  6
SLD-実線
 62
     7
370
    15
100
AcDbLine
 10
85.51161464655718
 20
33.73970640408194
 30
0.0
 11
79.35137152065556
 21
33.73970640409777
 31
0.0
  0
LINE
  5
E00ECFFC
330
E00DEA5D
100
AcDbEntity
  8
0
  6
SLD-実線
 62
     7
370
    15
100
AcDbLine
 10
76.80570692351977
 20
39.23970640410431
 30
0.0
 11
90.05570692351978
 21
39.23970640407026
 31
0.0
  0
LINE
  5
E00ECFFD
330
E00DEA5D
100
AcDbEntity
  8
JISSEN
100
AcDbLine
 10
90.05570692347623
 20
42.99254968317143
 30
0.0
 11
73.42256400937344
 21
42.99254968317143
 31
0.0
  0
ARC
  5
E00ECFFE
330
E00DEA5D
100
AcDbEntity
  8
0
  6
SLD-実線
 62
     7
370
    15
100
AcDbCircle
 10
78.80570692350949
 20
35.23970640409919
 30
0.0
 40
2.0
100
AcDbArc
 50
179.9999999998527
 51
269.9999999998534
  0
SPLINE
  5
E00ECFFF
330
E00DEA5D
100
AcDbEntity
  8
0
  6
SLD-実線
 62
     7
370
    15
100
AcDbSpline
210
0.0
220
0.0
230
1.0
 70
     8
 71
     3
 72
    29
 73
    25
 74
     0
 42
0.0000000001
 43
0.0000000001
 40
0.0
 40
0.0
 40
0.0
 40
0.0
 40
0.0463693095164601
 40
0.0930564132881835
 40
0.1407459822675587
 40
0.1887832760155378
 40
0.2351668560695527
 40
0.281879692522319
 40
0.3296579782434866
 40
0.3778243583948085
 40
0.4228021779815779
 40
0.4681422006903605
 40
0.5146836044491538
 40
0.561671973579994
 40
0.6023247428840694
 40
0.6432870830207374
 40
0.68520686023583
 40
0.7274487755550413
 40
0.7669770662174202
 40
0.8067392388443048
 40
0.8471692827050581
 40
0.8878051013891491
 40
0.9436858266902781
 40
1.0
 40
1.0
 40
1.0
 40
1.0
 10
77.04915713152633
 20
35.23970640413097
 30
0.0
 10
77.05043974733706
 20
35.18483448338008
 30
0.0
 10
77.05301376942577
 20
35.07471457457575
 30
0.0
 10
77.07401661652728
 20
34.90929167545829
 30
0.0
 10
77.10806360122382
 20
34.7442293941169
 30
0.0
 10
77.15611443845637
 20
34.58305865564042
 30
0.0
 10
77.21709139784531
 20
34.42763332585119
 30
0.0
 10
77.29083111030707
 20
34.27814793330773
 30
0.0
 10
77.37834085516277
 20
34.13371956813668
 30
0.0
 10
77.47714559986599
 20
33.9991835177654
 30
0.0
 10
77.58531904554866
 20
33.87586427693611
 30
0.0
 10
77.7020099739413
 20
33.76346006049837
 30
0.0
 10
77.82938788698254
 20
33.66010240459235
 30
0.0
 10
77.95987572810521
 20
33.57153167811867
 30
0.0
 10
78.09002006553459
 20
33.49728802336852
 30
0.0
 10
78.21827866408625
 20
33.43563004255438
 30
0.0
 10
78.35007725138627
 20
33.38304434331686
 30
0.0
 10
78.4807882139857
 20
33.34062472358741
 30
0.0
 10
78.60827740698994
 20
33.30750873745088
 30
0.0
 10
78.73188888287751
 20
33.28238638031291
 30
0.0
 10
78.85370950319861
 20
33.26384343971338
 30
0.0
 10
78.98728328154419
 20
33.24964615998479
 30
0.0
 10
79.13031291735268
 20
33.24100722245975
 30
0.0
 10
79.22651212920181
 20
33.24014112558165
 30
0.0
 10
79.27479756067413
 20
33.23970640412525
 30
0.0
  0
SPLINE
  5
E00ED000
330
E00DEA5D
100
AcDbEntity
  8
0
  6
SLD-実線
 62
     7
370
    15
100
AcDbSpline
210
0.0
220
0.0
230
1.0
 70
     8
 71
     3
 72
    28
 73
    24
 74
     0
 42
0.0000000001
 43
0.0000000001
 40
0.0
 40
0.0
 40
0.0
 40
0.0
 40
0.0522610535988776
 40
0.1047398940120094
 40
0.1579696651708924
 40
0.211506227269888
 40
0.2571506177901186
 40
0.3030542834293318
 40
0.3498514086234424
 40
0.3969993247428615
 40
0.4426588851345469
 40
0.4886947291385182
 40
0.5359544676574553
 40
0.5836536500263239
 40
0.6251043233807513
 40
0.6668451353021764
 40
0.7094797461544916
 40
0.7524163467950467
 40
0.7942898451489305
 40
0.8364367948912803
 40
0.8794297466635674
 40
0.9227099776835272
 40
1.0
 40
1.0
 40
1.0
 40
1.0
 10
79.27479756067544
 20
33.73970640412526
 30
0.0
 10
79.24030448345104
 20
33.74000730107417
 30
0.0
 10
79.17117458644781
 20
33.74061034889419
 30
0.0
 10
79.05987203889083
 20
33.74676673194946
 30
0.0
 10
78.943117389461
 20
33.75857085272858
 30
0.0
 10
78.82719390825986
 20
33.77691891842676
 30
0.0
 10
78.71418205235045
 20
33.80173691139288
 30
0.0
 10
78.60487287245575
 20
33.83272630752617
 30
0.0
 10
78.49383984415499
 20
33.87229866601802
 30
0.0
 10
78.38369108773133
 20
33.92075720601008
 30
0.0
 10
78.27617936856109
 20
33.97813030006992
 30
0.0
 10
78.17194291769187
 20
34.04475411727545
 30
0.0
 10
78.0710454661068
 20
34.12173196221692
 30
0.0
 10
77.97954998669723
 20
34.20506604457091
 30
0.0
 10
77.89835991884746
 20
34.29244992687381
 30
0.0
 10
77.82693346437366
 20
34.38259460942589
 30
0.0
 10
77.76208609678832
 20
34.47948445519648
 30
0.0
 10
77.70522319890142
 20
34.58154870573028
 30
0.0
 10
77.65695897737237
 20
34.68750777838855
 30
0.0
 10
77.61720552376306
 20
34.79705147786879
 30
0.0
 10
77.58628239874941
 20
34.91070051576468
 30
0.0
 10
77.55768428384619
 20
35.05816831708847
 30
0.0
 10
77.5532262688613
 20
35.16879230703577
 30
0.0
 10
77.55036851524375
 20
35.23970640412969
 30
0.0
  0
LINE
  5
E00ED001
330
E00DEA5D
100
AcDbEntity
  8
JISSEN
100
AcDbLine
 10
79.27479756070596
 20
33.23970640409797
 30
0.0
 11
79.83325722770558
 21
33.23970640409655
 31
0.0
  0
LINE
  5
E00ED002
330
E00DEA5D
100
AcDbEntity
  8
JISSEN
100
AcDbLine
 10
79.8332572277069
 20
33.73970640409655
 30
0.0
 11
79.27479756070727
 21
33.73970640409797
 31
0.0
  0
LINE
  5
E00ED003
330
E00DEA5D
100
AcDbEntity
  8
JISSEN
100
AcDbLine
 10
78.80570692350437
 20
33.23970640409919
 30
0.0
 11
79.27479756070596
 21
33.23970640409797
 31
0.0
  0
LINE
  5
E00ED004
330
E00DEA5D
100
AcDbEntity
  8
0
  6
SLD-実線
 62
     7
370
    15
100
AcDbLine
 10
77.55036851521101
 20
35.2397064041024
 30
0.0
 11
77.55036851521743
 21
37.7397064041024
 31
0.0
  0
LINE
  5
E00ED005
330
E00DEA5D
100
AcDbEntity
  8
0
  6
SLD-実線
 62
     7
370
    15
100
AcDbLine
 10
77.04915713151729
 20
37.73970640410368
 30
0.0
 11
77.04915713151087
 21
35.23970640410368
 31
0.0
  0
LINE
  5
E00ED006
330
E00DEA5D
100
AcDbEntity
  8
0
  6
SLD-実線
 62
     7
370
    15
100
AcDbLine
 10
76.80570692351977
 20
39.23970640410613
 30
0.0
 11
76.80570692350949
 21
35.23970640410431
 31
0.0
  0
LINE
  5
E00ED007
330
E00DEA5D
100
AcDbEntity
  8
JISSEN
100
AcDbLine
 10
73.42256400937344
 20
42.99254968317143
 30
0.0
 11
73.4105971413735
 21
42.99254968317143
 31
0.0
  0
ARC
  5
E00ED008
330
E00DEA5D
100
AcDbEntity
  8
JISSEN
100
AcDbCircle
 10
73.41059714137213
 20
44.49254968317325
 30
0.0
 40
1.5
100
AcDbArc
 50
261.9999999999498
 51
270.0
  0
ARC
  5
E00ED009
330
E00DEA5D
100
AcDbEntity
  8
JISSEN
100
AcDbCircle
 10
77.65570692355982
 20
42.63970640406694
 30
0.0
 40
0.1999999999999957
100
AcDbArc
 50
179.9999999995831
 51
269.9999999996091
  0
LINE
  5
E00ED00A
330
E00DEA5D
100
AcDbEntity
  8
JISSEN
100
AcDbLine
 10
77.45570692356273
 20
42.99254968317143
 30
0.0
 11
77.45570692356
 21
42.63970640406876
 31
0.0
  0
LINE
  5
E00ED00B
330
E00DEA5D
100
AcDbEntity
  8
JISSEN
370
    -2
100
AcDbLine
 10
95.6057068087764
 20
42.43970640398799
 30
0.0
 11
95.60570680877635
 21
39.23970640407027
 31
0.0
  0
LINE
  5
E00ED00C
330
E00DEA5D
100
AcDbEntity
  8
JISSEN
370
    -2
100
AcDbLine
 10
84.50570703826201
 20
42.43970640402437
 30
0.0
 11
84.50570703824025
 21
39.23970640408453
 31
0.0
  0
LINE
  5
E00ED00D
330
E00DEA5D
100
AcDbEntity
  8
JISSEN
100
AcDbLine
 10
90.05570692350255
 20
32.53970898929276
 30
0.0
 11
86.05570692350619
 21
32.53970898929759
 31
0.0
  0
LINE
  5
E00ED00E
330
E00DEA5D
100
AcDbEntity
  8
0
  6
SLD-実線
 62
     7
370
    15
100
AcDbLine
 10
86.35909054175561
 20
33.23970640407978
 30
0.0
 11
90.05570692350437
 21
33.23970640407026
 31
0.0
  0
SPLINE
  5
E00ED00F
330
E00DEA5D
100
AcDbEntity
  8
0
  6
SLD-実線
 62
     7
370
    15
100
AcDbSpline
210
0.0
220
0.0
230
1.0
 70
     8
 71
     3
 72
    19
 73
    15
 74
     0
 42
0.0000000001
 43
0.0000000001
 40
0.0
 40
0.0
 40
0.0
 40
0.0
 40
0.0922783438489566
 40
0.1866039155398348
 40
0.2692802171638267
 40
0.3542290249012388
 40
0.4369760660769558
 40
0.5224090085026722
 40
0.6011174716426585
 40
0.6818052717131553
 40
0.7666490704745401
 40
0.853590616102161
 40
0.9261751045894824
 40
1.0
 40
1.0
 40
1.0
 40
1.0
 10
86.84097624878967
 20
33.23970640410581
 30
0.0
 10
86.91512050731097
 20
33.24086812586074
 30
0.0
 10
87.06505394107052
 20
33.24321734257873
 30
0.0
 10
87.23933469721373
 20
33.27282382511984
 30
0.0
 10
87.37537470710135
 20
33.33284438079064
 30
0.0
 10
87.47070033894415
 20
33.42660097850324
 30
0.0
 10
87.53296987116806
 20
33.56194231336917
 30
0.0
 10
87.5639664601668
 20
33.73343223967521
 30
0.0
 10
87.57255149262585
 20
33.93776161002702
 30
0.0
 10
87.5667562366155
 20
34.169863955966
 30
0.0
 10
87.55296391901907
 20
34.43407872535564
 30
0.0
 10
87.53900984821376
 20
34.70782759138342
 30
0.0
 10
87.52928742432926
 20
34.97915918818105
 30
0.0
 10
87.52805548054226
 20
35.15236817943949
 30
0.0
 10
87.52743429002322
 20
35.23970640410405
 30
0.0
  0
LINE
  5
E00ED010
330
E00DEA5D
100
AcDbEntity
  8
JISSEN
100
AcDbLine
 10
84.95570692350582
 20
33.93970635963162
 30
0.0
 11
84.95570692351066
 21
35.83970635963126
 31
0.0
  0
LINE
  5
E00ED011
330
E00DEA5D
100
AcDbEntity
  8
0
  6
SLD-実線
 62
     7
370
    15
100
AcDbLine
 10
85.51161464655587
 20
33.23970640408194
 30
0.0
 11
86.35909054175561
 21
33.23970640407978
 31
0.0
  0
LINE
  5
E00ED012
330
E00DEA5D
100
AcDbEntity
  8
0
  6
SLD-実線
 62
     7
370
    15
100
AcDbLine
 10
86.84097624879189
 20
33.73970640407671
 30
0.0
 11
85.51161464655718
 21
33.73970640408194
 31
0.0
  0
ARC
  5
E00ED013
330
E00DEA5D
100
AcDbEntity
  8
JISSEN
100
AcDbCircle
 10
84.75570692350691
 20
33.93970635963217
 30
0.0
 40
0.1999999999999957
100
AcDbArc
 50
269.9999999998534
 51
359.9999999998527
  0
SPLINE
  5
E00ED014
330
E00DEA5D
100
AcDbEntity
  8
JISSEN
 62
     0
100
AcDbSpline
210
0.0
220
0.0
230
1.0
 70
     8
 71
     3
 72
    15
 73
    11
 74
     0
 42
0.0000000001
 43
0.0000000001
 40
0.0
 40
0.0
 40
0.0
 40
0.0
 40
0.0659206332703618
 40
0.1898819739778078
 40
0.3177198498248165
 40
0.4373250071360384
 40
0.5600878195456405
 40
0.7141706950797873
 40
0.8726804546925864
 40
1.0
 40
1.0
 40
1.0
 40
1.0
 10
87.5528211165111
 20
34.43810795938654
 30
0.0
 10
87.55048519064349
 20
34.40284662971018
 30
0.0
 10
87.54375664158642
 20
34.30127765878271
 30
0.0
 10
87.51885873417746
 20
34.158161980148
 30
0.0
 10
87.47407470300448
 20
34.01610986483223
 30
0.0
 10
87.40802129724722
 20
33.9072912025432
 30
0.0
 10
87.31426509221211
 20
33.82293848140704
 30
0.0
 10
87.18201364341183
 20
33.76731240012464
 30
0.0
 10
87.02012062205733
 20
33.74249239203911
 30
0.0
 10
86.89618293794513
 20
33.74056495839482
 30
0.0
 10
86.84097624879099
 20
33.73970640410581
 30
0.0
  0
LINE
  5
E00ED015
330
E00DEA5D
100
AcDbEntity
  8
JISSEN
100
AcDbLine
 10
87.52743429001412
 20
36.63970635962758
 30
0.0
 11
84.13854963598016
 21
36.6397063596381
 31
0.0
  0
ARC
  5
E00ED016
330
E00DEA5D
100
AcDbEntity
  8
JISSEN
100
AcDbCircle
 10
84.13854963598117
 20
36.33970635965701
 30
0.0
 40
0.3
100
AcDbArc
 50
89.99999999969386
 51
134.99999999942
  0
LINE
  5
E00ED017
330
E00DEA5D
100
AcDbEntity
  8
JISSEN
100
AcDbLine
 10
85.75570692350657
 20
36.63970635963394
 30
0.0
 11
87.30570693841793
 21
36.63970635962815
 31
0.0
  0
LINE
  5
E00ED018
330
E00DEA5D
100
AcDbEntity
  8
JISSEN
 62
     0
100
AcDbLine
 10
87.52743429001048
 20
35.23970640407677
 30
0.0
 11
87.52743429001691
 21
37.73970640407677
 31
0.0
  0
LINE
  5
E00ED019
330
E00DEA5D
100
AcDbEntity
  8
JISSEN
100
AcDbLine
 10
95.15570692356254
 20
33.93970635961852
 30
0.0
 11
95.15570692356254
 21
35.83970635961816
 31
0.0
  0
SPLINE
  5
E00ED01A
330
E00DEA5D
100
AcDbEntity
  8
0
  6
SLD-実線
 62
     7
370
    15
100
AcDbSpline
210
0.0
220
0.0
230
1.0
 70
     8
 71
     3
 72
    19
 73
    15
 74
     0
 42
0.0000000001
 43
0.0000000001
 40
0.0
 40
0.0
 40
0.0
 40
0.0
 40
0.0922783438489566
 40
0.1866039155398348
 40
0.2692802171638267
 40
0.3542290249012388
 40
0.4369760660769558
 40
0.5224090085026722
 40
0.6011174716426585
 40
0.6818052717131553
 40
0.7666490704745401
 40
0.853590616102161
 40
0.9261751045894824
 40
1.0
 40
1.0
 40
1.0
 40
1.0
 10
93.27043759827688
 20
33.23970640409754
 30
0.0
 10
93.19629333975559
 20
33.24086812585267
 30
0.0
 10
93.04635990599605
 20
33.24321734257102
 30
0.0
 10
92.87207914985287
 20
33.27282382511259
 30
0.0
 10
92.73603913996543
 20
33.33284438078374
 30
0.0
 10
92.64071350812287
 20
33.42660097849659
 30
0.0
 10
92.57844397589929
 20
33.56194231336269
 30
0.0
 10
92.54744738690101
 20
33.73343223966879
 30
0.0
 10
92.53886235444246
 20
33.93776161002063
 30
0.0
 10
92.54465761045343
 20
34.16986395595961
 30
0.0
 10
92.55844992805055
 20
34.43407872534919
 30
0.0
 10
92.57240399885654
 20
34.70782759137694
 30
0.0
 10
92.58212642274179
 20
34.97915918817454
 30
0.0
 10
92.58335836652918
 20
35.15236817943298
 30
0.0
 10
92.58397955704845
 20
35.23970640409754
 30
0.0
  0
LINE
  5
E00ED01B
330
E00DEA5D
100
AcDbEntity
  8
0
  6
SLD-実線
 62
     7
370
    15
100
AcDbLine
 10
93.75232330531094
 20
33.23970640407026
 30
0.0
 11
90.05570692356219
 21
33.23970640407026
 31
0.0
  0
LINE
  5
E00ED01C
330
E00DEA5D
100
AcDbEntity
  8
JISSEN
100
AcDbLine
 10
90.05570692356219
 20
32.53970898929276
 30
0.0
 11
94.05570692355855
 21
32.5397089892873
 31
0.0
  0
SPLINE
  5
E00ED01D
330
E00DEA5D
100
AcDbEntity
  8
JISSEN
 62
     0
100
AcDbSpline
210
0.0
220
0.0
230
1.0
 70
     8
 71
     3
 72
    15
 73
    11
 74
     0
 42
0.0000000001
 43
0.0000000001
 40
0.0
 40
0.0
 40
0.0
 40
0.0
 40
0.0659206332703618
 40
0.1898819739778078
 40
0.3177198498248165
 40
0.4373250071360384
 40
0.5600878195456405
 40
0.7141706950797873
 40
0.8726804546925864
 40
1.0
 40
1.0
 40
1.0
 40
1.0
 10
92.55859273055852
 20
34.43810795938009
 30
0.0
 10
92.56092865642608
 20
34.40284662970373
 30
0.0
 10
92.56765720548287
 20
34.30127765877625
 30
0.0
 10
92.59255511289143
 20
34.15816198014147
 30
0.0
 10
92.63733914406406
 20
34.01610986482558
 30
0.0
 10
92.70339254982104
 20
33.90729120253638
 30
0.0
 10
92.79714875485593
 20
33.8229384814
 30
0.0
 10
92.92940020365609
 20
33.76731240011725
 30
0.0
 10
93.09129322501053
 20
33.74249239203129
 30
0.0
 10
93.21523090912274
 20
33.7405649583867
 30
0.0
 10
93.27043759827688
 20
33.73970640409754
 30
0.0
  0
LINE
  5
E00ED01E
330
E00DEA5D
100
AcDbEntity
  8
0
  6
SLD-実線
 62
     7
370
    15
100
AcDbLine
 10
93.27043759827597
 20
33.73970640406844
 30
0.0
 11
94.59979920051068
 21
33.73970640407026
 31
0.0
  0
LINE
  5
E00ED01F
330
E00DEA5D
100
AcDbEntity
  8
0
  6
SLD-実線
 62
     7
370
    15
100
AcDbLine
 10
94.59979920051068
 20
33.23970640407026
 30
0.0
 11
93.75232330531094
 21
33.23970640407026
 31
0.0
  0
ARC
  5
E00ED020
330
E00DEA5D
100
AcDbEntity
  8
JISSEN
100
AcDbCircle
 10
95.35570692356145
 20
33.93970635961852
 30
0.0
 40
0.1999999999999957
100
AcDbArc
 50
180.0
 51
270.0
  0
LINE
  5
E00ED021
330
E00DEA5D
100
AcDbEntity
  8
JISSEN
100
AcDbLine
 10
92.58397955706119
 20
36.63970635962107
 30
0.0
 11
95.97286421109515
 21
36.63970635962289
 31
0.0
  0
LINE
  5
E00ED022
330
E00DEA5D
100
AcDbEntity
  8
JISSEN
 62
     0
100
AcDbLine
 10
92.58397955706119
 20
35.23970640407026
 30
0.0
 11
92.58397955706119
 21
37.73970640407026
 31
0.0
  0
LINE
  5
E00ED023
330
E00DEA5D
100
AcDbEntity
  8
JISSEN
100
AcDbLine
 10
94.35570692356874
 20
36.63970635962289
 30
0.0
 11
92.80570690865738
 21
36.63970635962107
 31
0.0
  0
LINE
  5
E00ED024
330
E00DEA5D
100
AcDbEntity
  8
JISSEN
100
AcDbLine
 10
106.9095763569764
 20
43.00714757997264
 30
0.0
 11
121.0956134032765
 21
45.00086506757213
 31
0.0
  0
ARC
  5
E00ED025
330
E00DEA5D
100
AcDbEntity
  8
0
  6
SLD-実線
 62
     7
370
    15
100
AcDbCircle
 10
101.3057069235621
 20
35.23970640407026
 30
0.0
 40
2.0
100
AcDbArc
 50
270.0
 51
0.0
  0
SPLINE
  5
E00ED026
330
E00DEA5D
100
AcDbEntity
  8
0
  6
SLD-実線
 62
     7
370
    15
100
AcDbSpline
210
0.0
220
0.0
230
1.0
 70
     8
 71
     3
 72
    28
 73
    24
 74
     0
 42
0.0000000001
 43
0.0000000001
 40
0.0
 40
0.0
 40
0.0
 40
0.0
 40
0.0522610535988776
 40
0.1047398940120094
 40
0.1579696651708924
 40
0.211506227269888
 40
0.2571506177901186
 40
0.3030542834293318
 40
0.3498514086234424
 40
0.3969993247428615
 40
0.4426588851345469
 40
0.4886947291385182
 40
0.5359544676574553
 40
0.5836536500263239
 40
0.6251043233807513
 40
0.6668451353021764
 40
0.7094797461544916
 40
0.7524163467950467
 40
0.7942898451489305
 40
0.8364367948912803
 40
0.8794297466635674
 40
0.9227099776835272
 40
1.0
 40
1.0
 40
1.0
 40
1.0
 10
100.8366162863924
 20
33.73970640409754
 30
0.0
 10
100.8711093636168
 20
33.74000730104637
 30
0.0
 10
100.94023926062
 20
33.7406103488662
 30
0.0
 10
101.051541808177
 20
33.74676673192118
 30
0.0
 10
101.1682964576068
 20
33.75857085270002
 30
0.0
 10
101.284219938808
 20
33.77691891839788
 30
0.0
 10
101.3972317947175
 20
33.80173691136372
 30
0.0
 10
101.5065409746123
 20
33.83272630749672
 30
0.0
 10
101.6175740029132
 20
33.87229866598829
 30
0.0
 10
101.7277227593369
 20
33.92075720598006
 30
0.0
 10
101.8352344785073
 20
33.97813030003965
 30
0.0
 10
101.9394709293767
 20
34.0447541172449
 30
0.0
 10
102.040368380962
 20
34.12173196218612
 30
0.0
 10
102.1318638603718
 20
34.20506604453987
 30
0.0
 10
102.2130539282218
 20
34.29244992684255
 30
0.0
 10
102.2844803826958
 20
34.38259460939446
 30
0.0
 10
102.3493277502814
 20
34.47948445516487
 30
0.0
 10
102.4061906481686
 20
34.58154870569853
 30
0.0
 10
102.4544548696978
 20
34.68750777835669
 30
0.0
 10
102.4942083233074
 20
34.79705147783681
 30
0.0
 10
102.5251314483214
 20
34.91070051573263
 30
0.0
 10
102.553729563225
 20
35.05816831705635
 30
0.0
 10
102.5581875782102
 20
35.16879230700363
 30
0.0
 10
102.5610453318279
 20
35.23970640409754
 30
0.0
  0
SPLINE
  5
E00ED027
330
E00DEA5D
100
AcDbEntity
  8
0
  6
SLD-実線
 62
     7
370
    15
100
AcDbSpline
210
0.0
220
0.0
230
1.0
 70
     8
 71
     3
 72
    29
 73
    25
 74
     0
 42
0.0000000001
 43
0.0000000001
 40
0.0
 40
0.0
 40
0.0
 40
0.0
 40
0.0463693095164601
 40
0.0930564132881835
 40
0.1407459822675587
 40
0.1887832760155378
 40
0.2351668560695527
 40
0.281879692522319
 40
0.3296579782434866
 40
0.3778243583948085
 40
0.4228021779815779
 40
0.4681422006903605
 40
0.5146836044491538
 40
0.561671973579994
 40
0.6023247428840694
 40
0.6432870830207374
 40
0.68520686023583
 40
0.7274487755550413
 40
0.7669770662174202
 40
0.8067392388443048
 40
0.8471692827050581
 40
0.8878051013891491
 40
0.9436858266902781
 40
1.0
 40
1.0
 40
1.0
 40
1.0
 10
103.0622567155453
 20
35.23970640409754
 30
0.0
 10
103.0609740997344
 20
35.18483448334666
 30
0.0
 10
103.0584000776455
 20
35.07471457454232
 30
0.0
 10
103.0373972305435
 20
34.90929167542492
 30
0.0
 10
103.0033502458466
 20
34.74422939408361
 30
0.0
 10
102.9552994086136
 20
34.58305865560726
 30
0.0
 10
102.8943224492243
 20
34.42763332581819
 30
0.0
 10
102.8205827367621
 20
34.2781479332749
 30
0.0
 10
102.733072991906
 20
34.13371956810408
 30
0.0
 10
102.6342682472024
 20
33.99918351773306
 30
0.0
 10
102.5260948015195
 20
33.87586427690405
 30
0.0
 10
102.4094038731266
 20
33.76346006046663
 30
0.0
 10
102.282025960085
 20
33.66010240456091
 30
0.0
 10
102.1515381189622
 20
33.57153167808758
 30
0.0
 10
102.0213937815326
 20
33.49728802333777
 30
0.0
 10
101.8931351829808
 20
33.43563004252394
 30
0.0
 10
101.7613365956806
 20
33.38304434328676
 30
0.0
 10
101.630625633081
 20
33.34062472355765
 30
0.0
 10
101.5031364400767
 20
33.30750873742147
 30
0.0
 10
101.3795249641891
 20
33.28238638028381
 30
0.0
 10
101.257704343868
 20
33.26384343968459
 30
0.0
 10
101.1241305655223
 20
33.24964615995634
 30
0.0
 10
100.9811009297138
 20
33.24100722243167
 30
0.0
 10
100.8849017178647
 20
33.2401411255538
 30
0.0
 10
100.8366162863924
 20
33.23970640409754
 30
0.0
  0
LINE
  5
E00ED028
330
E00DEA5D
100
AcDbEntity
  8
JISSEN
100
AcDbLine
 10
101.3057069235621
 20
33.23970640407026
 30
0.0
 11
100.8366162863606
 21
33.23970640407026
 31
0.0
  0
LINE
  5
E00ED029
330
E00DEA5D
100
AcDbEntity
  8
JISSEN
100
AcDbLine
 10
100.2781566193609
 20
33.73970640407026
 30
0.0
 11
100.8366162863606
 21
33.73970640407026
 31
0.0
  0
LINE
  5
E00ED02A
330
E00DEA5D
100
AcDbEntity
  8
JISSEN
100
AcDbLine
 10
100.8366162863606
 20
33.23970640407026
 30
0.0
 11
100.2781566193609
 21
33.23970640407026
 31
0.0
  0
LINE
  5
E00ED02B
330
E00DEA5D
100
AcDbEntity
  8
0
  6
SLD-実線
 62
     7
370
    15
100
AcDbLine
 10
103.0622567155608
 20
37.73970640407026
 30
0.0
 11
103.0622567155608
 21
35.23970640407026
 31
0.0
  0
LINE
  5
E00ED02C
330
E00DEA5D
100
AcDbEntity
  8
0
  6
SLD-実線
 62
     7
370
    15
100
AcDbLine
 10
102.5610453318606
 20
35.23970640407026
 30
0.0
 11
102.5610453318606
 21
37.73970640407026
 31
0.0
  0
LINE
  5
E00ED02D
330
E00DEA5D
100
AcDbEntity
  8
0
  6
SLD-実線
 62
     7
370
    15
100
AcDbLine
 10
103.3057069235621
 20
39.23970640407208
 30
0.0
 11
103.3057069235621
 21
35.23970640407026
 31
0.0
  0
ARC
  5
E00ED02E
330
E00DEA5D
100
AcDbEntity
  8
JISSEN
100
AcDbCircle
 10
102.4557069234795
 20
42.63970640398508
 30
0.0
 40
0.1999999999999957
100
AcDbArc
 50
270.0
 51
0.0
  0
LINE
  5
E00ED02F
330
E00DEA5D
100
AcDbEntity
  8
JISSEN
100
AcDbLine
 10
102.6557069234793
 20
42.99254968317325
 30
0.0
 11
102.6557069234793
 21
42.63970640398508
 31
0.0
  0
ARC
  5
E00ED030
330
E00DEA5D
100
AcDbEntity
  8
JISSEN
100
AcDbCircle
 10
106.700816705578
 20
44.49254968317325
 30
0.0
 40
1.5
100
AcDbArc
 50
270.0
 51
278.0000000000501
  0
LINE
  5
E00ED031
330
E00DEA5D
100
AcDbEntity
  8
JISSEN
100
AcDbLine
 10
106.6888498375772
 20
42.99254968317325
 30
0.0
 11
106.7008167055771
 21
42.99254968317325
 31
0.0
  0
ARC
  5
E00ED032
330
E00DEA5D
100
AcDbEntity
  8
JISSEN
100
AcDbCircle
 10
120.8172672013777
 20
46.9814012050723
 30
0.0
 40
1.999999999999996
100
AcDbArc
 50
278.0000000000501
 51
330.3681085059147
  0
CIRCLE
  5
E00ED033
330
E00DEA5D
100
AcDbEntity
  8
JISSEN
100
AcDbCircle
 10
90.05570692347623
 20
99.09047474278111
 30
0.0
 40
14.64999999999781
  0
CIRCLE
  5
E00ED034
330
E00DEA5D
100
AcDbEntity
  8
JISSEN
100
AcDbCircle
 10
90.05570692347623
 20
99.09047474278111
 30
0.0
 40
14.95000000000001
  0
CIRCLE
  5
E00ED035
330
E00DEA5D
100
AcDbEntity
  8
JISSEN
100
AcDbCircle
 10
90.05570692347623
 20
99.09047474278111
 30
0.0
 40
14.34999999999854
  0
ARC
  5
E00ED036
330
E00DEA5D
100
AcDbEntity
  8
JISSEN
100
AcDbCircle
 10
90.05570692347623
 20
99.09047474278111
 30
0.0
 40
10.99999999999999
100
AcDbArc
 50
291.6719292857991
 51
338.328070714166
  0
ARC
  5
E00ED037
330
E00DEA5D
100
AcDbEntity
  8
JISSEN
100
AcDbCircle
 10
90.05570692347623
 20
99.09047474278111
 30
0.0
 40
13.25
100
AcDbArc
 50
191.0002354318695
 51
258.9997645680972
  0
ARC
  5
E00ED038
330
E00DEA5D
100
AcDbEntity
  8
JISSEN
100
AcDbCircle
 10
90.05570692347623
 20
99.09047474278111
 30
0.0
 40
12.75
100
AcDbArc
 50
191.2424863976698
 51
258.757513602297
  0
CIRCLE
  5
E00ED039
330
E00DEA5D
100
AcDbEntity
  8
JISSEN
100
AcDbCircle
 10
90.05570692347623
 20
99.09047474278111
 30
0.0
 40
5.300000000000004
  0
ARC
  5
E00ED03A
330
E00DEA5D
100
AcDbEntity
  8
JISSEN
100
AcDbCircle
 10
90.05570692347623
 20
99.09047474278111
 30
0.0
 40
11.0
100
AcDbArc
 50
201.6719292858339
 51
248.3280707142008
  0
ARC
  5
E00ED03B
330
E00DEA5D
100
AcDbEntity
  8
JISSEN
100
AcDbCircle
 10
90.05570692347623
 20
99.09047474278111
 30
0.0
 40
13.24999999999998
100
AcDbArc
 50
281.0002354319028
 51
348.9997645681304
  0
ARC
  5
E00ED03C
330
E00DEA5D
100
AcDbEntity
  8
JISSEN
100
AcDbCircle
 10
90.05570692347623
 20
99.09047474278111
 30
0.0
 40
12.74999999999998
100
AcDbArc
 50
281.242486397703
 51
348.75751360233
  0
ARC
  5
E00ED03D
330
E00DEA5D
100
AcDbEntity
  8
JISSEN
100
AcDbCircle
 10
90.05570692347623
 20
99.09047474278111
 30
0.0
 40
13.24999999999999
100
AcDbArc
 50
258.9997645680972
 51
281.0002354319028
  0
ARC
  5
E00ED03E
330
E00DEA5D
100
AcDbEntity
  8
JISSEN
100
AcDbCircle
 10
85.07027158767755
 20
86.54474102517985
 30
0.0
 40
2.499999999999999
100
AcDbArc
 50
44.90470551352808
 51
68.32807071420088
  0
SPLINE
  5
E00ED03F
330
E00DEA5D
100
AcDbEntity
  8
JISSEN
100
AcDbSpline
210
0.0
220
0.0
230
1.0
 70
     8
 71
     3
 72
    17
 73
    13
 74
     0
 42
0.0000000001
 43
0.0000000001
 40
0.0
 40
0.0
 40
0.0
 40
0.0
 40
0.09310299186457
 40
0.1888724770029573
 40
0.2820123136400561
 40
0.3779890662556367
 40
0.4683377655577301
 40
0.5618816368493445
 40
0.6435298732989363
 40
0.7277256459857529
 40
0.8877594422764657
 40
1.0
 40
1.0
 40
1.0
 40
1.0
 10
87.5274342899836
 20
86.08392495078431
 30
0.0
 10
87.52843390330395
 20
86.08910093163638
 30
0.0
 10
87.53046175912164
 20
86.09960113474505
 30
0.0
 10
87.54500246529074
 20
86.18445154027529
 30
0.0
 10
87.5618631001787
 20
86.32000835411588
 30
0.0
 10
87.57283768687898
 20
86.50453189886491
 30
0.0
 10
87.56712411834064
 20
86.7340079723325
 30
0.0
 10
87.5357600866762
 20
86.98649701036073
 30
0.0
 10
87.4728255459056
 20
87.25386808741848
 30
0.0
 10
87.34992511700307
 20
87.5988236722277
 30
0.0
 10
87.14685140894266
 20
87.97258527883775
 30
0.0
 10
86.9302617290457
 20
88.21120031441012
 30
0.0
 10
86.84097624875608
 20
88.30956537993722
 30
0.0
  0
ARC
  5
E00ED040
330
E00DEA5D
100
AcDbEntity
  8
JISSEN
100
AcDbCircle
 10
95.04114225917669
 20
86.54474102517985
 30
0.0
 40
2.499999999999996
100
AcDbArc
 50
111.6719292857991
 51
135.0952944864719
  0
SPLINE
  5
E00ED041
330
E00DEA5D
100
AcDbEntity
  8
JISSEN
100
AcDbSpline
210
0.0
220
0.0
230
1.0
 70
     8
 71
     3
 72
    19
 73
    15
 74
     0
 42
0.0000000001
 43
0.0000000001
 40
0.0
 40
0.0
 40
0.0
 40
0.0
 40
0.0922783438489578
 40
0.1866039155398343
 40
0.2692802171638274
 40
0.3542290249012387
 40
0.4369760660769554
 40
0.5224090085026717
 40
0.6011174716426586
 40
0.681805271713156
 40
0.7666490704745402
 40
0.8535906161021609
 40
0.9261751045894824
 40
1.0
 40
1.0
 40
1.0
 40
1.0
 10
93.27043759814818
 20
88.30956537993722
 30
0.0
 10
93.19629333962689
 20
88.22931071868685
 30
0.0
 10
93.04635990586735
 20
88.06702091801515
 30
0.0
 10
92.87207914972418
 20
87.79989398881832
 30
0.0
 10
92.73603913983675
 20
87.52705226887689
 30
0.0
 10
92.64071350799417
 20
87.2611499759604
 30
0.0
 10
92.5784439757715
 20
86.99985557710887
 30
0.0
 10
92.54744738677231
 20
86.76370279862556
 30
0.0
 10
92.53886235431378
 20
86.55720980895774
 30
0.0
 10
92.54465761032475
 20
86.38367437899058
 30
0.0
 10
92.55844992792185
 20
86.24279376033507
 30
0.0
 10
92.57240399872785
 20
86.1484515022056
 30
0.0
 10
92.58212642261311
 20
86.09361643723957
 30
0.0
 10
92.58335836640048
 20
86.08717364111532
 30
0.0
 10
92.58397955691975
 20
86.08392495078431
 30
0.0
  0
ARC
  5
E00ED042
330
E00DEA5D
100
AcDbEntity
  8
JISSEN
100
AcDbCircle
 10
90.05570692347623
 20
99.09047474278111
 30
0.0
 40
10.99999999999999
100
AcDbArc
 50
21.67192928583392
 51
68.32807071420088
  0
ARC
  5
E00ED043
330
E00DEA5D
100
AcDbEntity
  8
JISSEN
100
AcDbCircle
 10
90.05570692347623
 20
99.09047474278111
 30
0.0
 40
13.24999999999999
100
AcDbArc
 50
11.00023543186959
 51
78.99976456809717
  0
ARC
  5
E00ED044
330
E00DEA5D
100
AcDbEntity
  8
JISSEN
100
AcDbCircle
 10
90.05570692347623
 20
99.09047474278111
 30
0.0
 40
12.74999999999999
100
AcDbArc
 50
11.24248639766991
 51
78.75751360229701
  0
ARC
  5
E00ED045
330
E00DEA5D
100
AcDbEntity
  8
JISSEN
100
AcDbCircle
 10
90.05570692347623
 20
99.09047474278111
 30
0.0
 40
10.99999999999999
100
AcDbArc
 50
111.6719292857991
 51
158.328070714166
  0
ARC
  5
E00ED046
330
E00DEA5D
100
AcDbEntity
  8
JISSEN
100
AcDbCircle
 10
90.05570692347623
 20
99.09047474278111
 30
0.0
 40
13.24999999999999
100
AcDbArc
 50
101.0002354319027
 51
168.9997645681303
  0
ARC
  5
E00ED047
330
E00DEA5D
100
AcDbEntity
  8
JISSEN
100
AcDbCircle
 10
90.05570692347623
 20
99.09047474278111
 30
0.0
 40
12.74999999999999
100
AcDbArc
 50
101.2424863977029
 51
168.75751360233
  0
ARC
  5
E00ED048
330
E00DEA5D
100
AcDbEntity
  8
JISSEN
100
AcDbCircle
 10
90.05570692347623
 20
99.09047474278111
 30
0.0
 40
13.25
100
AcDbArc
 50
168.9997645681303
 51
191.0002354318695
  0
SPLINE
  5
E00ED049
330
E00DEA5D
100
AcDbEntity
  8
JISSEN
100
AcDbSpline
210
0.0
220
0.0
230
1.0
 70
     8
 71
     3
 72
    29
 73
    25
 74
     0
 42
0.0000000001
 43
0.0000000001
 40
0.0
 40
0.0
 40
0.0
 40
0.0
 40
0.0460219337734784
 40
0.0922720032431882
 40
0.1392896025934401
 40
0.1866088787628269
 40
0.227823399496987
 40
0.2692922448616938
 40
0.311615964629041
 40
0.3542637557499327
 40
0.395487782642475
 40
0.4370338373986461
 40
0.4795902873509177
 40
0.5224935272723208
 40
0.5618902063572313
 40
0.6413730894012964
 40
0.6818401670647213
 40
0.7241353313482648
 40
0.7666891826409332
 40
0.810030393330139
 40
0.8536361407605465
 40
0.9080650499029307
 40
0.9538792952567128
 40
1.0
 40
1.0
 40
1.0
 40
1.0
 10
79.27479756063963
 20
95.87574406805277
 30
0.0
 10
79.23550227151896
 20
95.91345723746224
 30
0.0
 10
79.15671690228624
 20
95.98907052453602
 30
0.0
 10
79.02870626834169
 20
96.09298295806901
 30
0.0
 10
78.89362446731297
 20
96.18949699649228
 30
0.0
 10
78.75790132332054
 20
96.27315319014257
 30
0.0
 10
78.62408097482853
 20
96.3446125377103
 30
0.0
 10
78.49310061222945
 20
96.40512030916751
 30
0.0
 10
78.35951651779009
 20
96.45772162610581
 30
0.0
 10
78.22650856796986
 20
96.501471332689
 30
0.0
 10
78.09615312487017
 20
96.53652815532211
 30
0.0
 10
77.96914560966229
 20
96.56361833730432
 30
0.0
 10
77.84522881695625
 20
96.58347938919348
 30
0.0
 10
77.72952125734059
 20
96.59620786537187
 30
0.0
 10
77.58871026438623
 20
96.60539278368185
 30
0.0
 10
77.46431176447709
 20
96.60571709491694
 30
0.0
 10
77.35512155332504
 20
96.60065670206666
 30
0.0
 10
77.28032210353262
 20
96.59480741875256
 30
0.0
 10
77.21421721577531
 20
96.58773637489311
 30
0.0
 10
77.15835925958868
 20
96.58036504471773
 30
0.0
 10
77.10960226434213
 20
96.57290720478693
 30
0.0
 10
77.07456121870814
 20
96.56688522806678
 30
0.0
 10
77.05295454536986
 20
96.56291974576914
 30
0.0
 10
77.05042574597951
 20
96.56244185245293
 30
0.0
 10
77.04915713148671
 20
96.56220210928029
 30
0.0
  0
ARC
  5
E00ED04A
330
E00DEA5D
100
AcDbEntity
  8
JISSEN
100
AcDbCircle
 10
77.50997320587862
 20
94.10503940698061
 30
0.0
 40
2.500000000000009
100
AcDbArc
 50
21.67192928583392
 51
45.0952944864819
  0
SPLINE
  5
E00ED04B
330
E00DEA5D
100
AcDbEntity
  8
JISSEN
100
AcDbSpline
210
0.0
220
0.0
230
1.0
 70
     8
 71
     3
 72
    29
 73
    25
 74
     0
 42
0.0000000001
 43
0.0000000001
 40
0.0
 40
0.0
 40
0.0
 40
0.0
 40
0.04636930951646
 40
0.0930564132881836
 40
0.1407459822675588
 40
0.1887832760155381
 40
0.2351668560695511
 40
0.2818796925223188
 40
0.3296579782434853
 40
0.3778243583948085
 40
0.4228021779815778
 40
0.4681422006903612
 40
0.5146836044491538
 40
0.5616719735799941
 40
0.6023247428840696
 40
0.6432870830207368
 40
0.6852068602358301
 40
0.7274487755550406
 40
0.7669770662174194
 40
0.8067392388443042
 40
0.8471692827050576
 40
0.8878051013891484
 40
0.9436858266902788
 40
1.0
 40
1.0
 40
1.0
 40
1.0
 10
77.04915713148671
 20
101.6187473762164
 30
0.0
 10
77.05043974729756
 20
101.6185050362345
 30
0.0
 10
77.05301376938655
 20
101.6180186953823
 30
0.0
 10
77.07401661648851
 20
101.6141640558924
 30
0.0
 10
77.10806360118545
 20
101.6083117500383
 30
0.0
 10
77.1561144384184
 20
101.6008753577406
 30
0.0
 10
77.21709139780774
 20
101.5928240876654
 30
0.0
 10
77.2908311102708
 20
101.5850976299296
 30
0.0
 10
77.37834085512599
 20
101.5787799226908
 30
0.0
 10
77.47714559982956
 20
101.5754058064829
 30
0.0
 10
77.58531904551251
 20
101.5762277999145
 30
0.0
 10
77.70200997390543
 20
101.5822960784406
 30
0.0
 10
77.82938788694696
 20
101.5951959975553
 30
0.0
 10
77.95987572807075
 20
101.615521537791
 30
0.0
 10
78.0900200654994
 20
101.6429887111406
 30
0.0
 10
78.21827866405124
 20
101.6770681576434
 30
0.0
 10
78.35007725135233
 20
101.7198733777112
 30
0.0
 10
78.48078821395188
 20
101.7706798819234
 30
0.0
 10
78.60827740695526
 20
101.8286724071621
 30
0.0
 10
78.73188888284289
 20
101.8933684049405
 30
0.0
 10
78.85370950316406
 20
101.9660876142423
 30
0.0
 10
78.98728328150969
 20
102.056821411208
 30
0.0
 10
79.13031291731818
 20
102.1676896429961
 30
0.0
 10
79.22651212916822
 20
102.2592489174948
 30
0.0
 10
79.27479756063963
 20
102.3052054174439
 30
0.0
  0
ARC
  5
E00ED04C
330
E00DEA5D
100
AcDbEntity
  8
JISSEN
100
AcDbCircle
 10
77.50997320587862
 20
104.0759100784797
 30
0.0
 40
2.500000000000006
100
AcDbArc
 50
314.9047055135181
 51
338.328070714166
  0
CIRCLE
  5
E00ED04D
330
E00DEA5D
100
AcDbEntity
  8
JISSEN
100
AcDbCircle
 10
90.05570692347623
 20
99.09047474278111
 30
0.0
 40
3.999999999999971
  0
CIRCLE
  5
E00ED04E
330
E00DEA5D
100
AcDbEntity
  8
JISSEN
100
AcDbCircle
 10
90.05570692347623
 20
99.09047474278111
 30
0.0
 40
1.5
  0
CIRCLE
  5
E00ED04F
330
E00DEA5D
100
AcDbEntity
  8
JISSEN
100
AcDbCircle
 10
90.05570692347623
 20
99.09047474278111
 30
0.0
 40
4.525000000000006
  0
ARC
  5
E00ED050
330
E00DEA5D
100
AcDbEntity
  8
JISSEN
100
AcDbCircle
 10
90.05570692347623
 20
99.09047474278111
 30
0.0
 40
13.24999999999999
100
AcDbArc
 50
78.99976456809717
 51
101.0002354319027
  0
ARC
  5
E00ED051
330
E00DEA5D
100
AcDbEntity
  8
JISSEN
100
AcDbCircle
 10
85.07027158767755
 20
111.6362084603805
 30
0.0
 40
2.499999999999999
100
AcDbArc
 50
291.6719292857991
 51
315.0952944864719
  0
SPLINE
  5
E00ED052
330
E00DEA5D
100
AcDbEntity
  8
JISSEN
100
AcDbSpline
210
0.0
220
0.0
230
1.0
 70
     8
 71
     3
 72
    29
 73
    25
 74
     0
 42
0.0000000001
 43
0.0000000001
 40
0.0
 40
0.0
 40
0.0
 40
0.0
 40
0.0460219885866146
 40
0.0922721131411744
 40
0.1392897684904225
 40
0.1866091010181082
 40
0.2278236708396697
 40
0.2692925655946836
 40
0.311616335770513
 40
0.3542641776858618
 40
0.3954882536771275
 40
0.4370343579155647
 40
0.4795908585535023
 40
0.5224941495736099
 40
0.6011479543748472
 40
0.641372662268754
 40
0.6818397881293594
 40
0.7241350027873735
 40
0.7666889047626158
 40
0.8100301670721567
 40
0.8536359664379691
 40
0.9080649404063819
 40
0.9538792403259384
 40
1.0
 40
1.0
 40
1.0
 40
1.0
 10
86.84097624875517
 20
109.8713841055613
 30
0.0
 10
86.87868941816555
 20
109.9106793946847
 30
0.0
 10
86.95430270523933
 20
109.9894647639265
 30
0.0
 10
87.05821513877323
 20
110.1174753978119
 30
0.0
 10
87.15472917719194
 20
110.2525571990698
 30
0.0
 10
87.23838537085589
 20
110.388280342231
 30
0.0
 10
87.30984471837633
 20
110.5221006934515
 30
0.0
 10
87.37035249000724
 20
110.6530810460534
 30
0.0
 10
87.42295380628343
 20
110.7866651787388
 30
0.0
 10
87.4667035153377
 20
110.9196729857611
 30
0.0
 10
87.50176032901412
 20
111.0500289467125
 30
0.0
 10
87.52885054470402
 20
111.1770345130515
 30
0.0
 10
87.54871146722939
 20
111.3009587851337
 30
0.0
 10
87.56544262471539
 20
111.4530106849796
 30
0.0
 10
87.57113806646044
 20
111.5896747601508
 30
0.0
 10
87.56972389719772
 20
111.708258654129
 30
0.0
 10
87.56588914295821
 20
111.7910690972765
 30
0.0
 10
87.56003952800597
 20
111.8658570954665
 30
0.0
 10
87.55296857517237
 20
111.9319651264048
 30
0.0
 10
87.54559722013596
 20
111.9878222241221
 30
0.0
 10
87.53813938731468
 20
112.0365794648749
 30
0.0
 10
87.5321174083308
 20
112.0716204323397
 30
0.0
 10
87.52815192657521
 20
112.0932271243708
 30
0.0
 10
87.52767403318989
 20
112.0957559214037
 30
0.0
 10
87.5274342899836
 20
112.0970245347124
 30
0.0
  0
ARC
  5
E00ED053
330
E00DEA5D
100
AcDbEntity
  8
JISSEN
100
AcDbCircle
 10
95.04114225917669
 20
111.6362084603805
 30
0.0
 40
2.499999999999999
100
AcDbArc
 50
224.904705513528
 51
248.3280707142008
  0
SPLINE
  5
E00ED054
330
E00DEA5D
100
AcDbEntity
  8
JISSEN
100
AcDbSpline
210
0.0
220
0.0
230
1.0
 70
     8
 71
     3
 72
    29
 73
    25
 74
     0
 42
0.0000000001
 43
0.0000000001
 40
0.0
 40
0.0
 40
0.0
 40
0.0
 40
0.0463693095164601
 40
0.0930564132881836
 40
0.1407459822675587
 40
0.1887832760155378
 40
0.2351668560695528
 40
0.2818796925223189
 40
0.3296579782434865
 40
0.3778243583948085
 40
0.4228021779815778
 40
0.4681422006903601
 40
0.5146836044491538
 40
0.561671973579994
 40
0.6023247428840689
 40
0.6432870830207376
 40
0.6852068602358303
 40
0.7274487755550413
 40
0.7669770662174198
 40
0.8067392388443051
 40
0.847169282705058
 40
0.8878051013891489
 40
0.9436858266902785
 40
1.0
 40
1.0
 40
1.0
 40
1.0
 10
92.58397955691975
 20
112.0970245347124
 30
0.0
 10
92.58373721693784
 20
112.0957419189034
 30
0.0
 10
92.58325087608477
 20
112.0931678968134
 30
0.0
 10
92.5793962365949
 20
112.0721650497124
 30
0.0
 10
92.5735439307407
 20
112.0381180650146
 30
0.0
 10
92.56610753844483
 20
111.9900672277816
 30
0.0
 10
92.55805626836878
 20
111.9290902683932
 30
0.0
 10
92.55032981063299
 20
111.8553505559301
 30
0.0
 10
92.54401210339507
 20
111.7678408110749
 30
0.0
 10
92.54063798718631
 20
111.6690360663705
 30
0.0
 10
92.5414599806179
 20
111.5608626206884
 30
0.0
 10
92.54752825914398
 20
111.4441716922955
 30
0.0
 10
92.5604281782587
 20
111.316793779253
 30
0.0
 10
92.58075371849349
 20
111.1863059381302
 30
0.0
 10
92.60822089184307
 20
111.0561616007015
 30
0.0
 10
92.64230033834769
 20
110.9279030021497
 30
0.0
 10
92.68510555841544
 20
110.7961044148486
 30
0.0
 10
92.73591206262768
 20
110.665393452249
 30
0.0
 10
92.79390458786542
 20
110.5379042592447
 30
0.0
 10
92.8586005856439
 20
110.414292783358
 30
0.0
 10
92.93131979494479
 20
110.2924721630369
 30
0.0
 10
93.02205359191134
 20
110.1588983846903
 30
0.0
 10
93.13292182369947
 20
110.0158687488818
 30
0.0
 10
93.22448109819902
 20
109.9196695370318
 30
0.0
 10
93.27043759814818
 20
109.8713841055613
 30
0.0
  0
ARC
  5
E00ED055
330
E00DEA5D
100
AcDbEntity
  8
JISSEN
100
AcDbCircle
 10
90.05570692347623
 20
99.09047474278111
 30
0.0
 40
13.24999999999998
100
AcDbArc
 50
348.9997645681304
 51
11.00023543186959
  0
ARC
  5
E00ED056
330
E00DEA5D
100
AcDbEntity
  8
JISSEN
100
AcDbCircle
 10
102.6014406410774
 20
94.10503940698061
 30
0.0
 40
2.500000000000006
100
AcDbArc
 50
134.904705513518
 51
158.328070714166
  0
SPLINE
  5
E00ED057
330
E00DEA5D
100
AcDbEntity
  8
JISSEN
100
AcDbSpline
210
0.0
220
0.0
230
1.0
 70
     8
 71
     3
 72
    19
 73
    15
 74
     0
 42
0.0000000001
 43
0.0000000001
 40
0.0
 40
0.0
 40
0.0
 40
0.0
 40
0.093052954736158
 40
0.1887709696700998
 40
0.2818607493769881
 40
0.3777859203946092
 40
0.4680860628310385
 40
0.5615796600486806
 40
0.6431840155959514
 40
0.7273345382365001
 40
0.8066320659743697
 40
0.8877135213466605
 40
0.9436398597662178
 40
1.0
 40
1.0
 40
1.0
 40
1.0
 10
103.0622567154166
 20
96.56220210928029
 30
0.0
 10
103.0570807489227
 20
96.56320171662253
 30
0.0
 10
103.0465805749452
 20
96.56522956031393
 30
0.0
 10
102.9617299482013
 20
96.57977035857209
 30
0.0
 10
102.8261739658326
 20
96.59663064732548
 30
0.0
 10
102.6416473043034
 20
96.60760653151909
 30
0.0
 10
102.4121824081755
 20
96.60188830993128
 30
0.0
 10
102.1596526089858
 20
96.5705412468559
 30
0.0
 10
101.8924176232001
 20
96.50755005223061
 30
0.0
 10
101.6323818589696
 20
96.415289383909
 30
0.0
 10
101.3768232304653
 20
96.2907338576805
 30
0.0
 10
101.1618271823697
 20
96.15345563104154
 30
0.0
 10
100.9811207618911
 20
96.01325240883841
 30
0.0
 10
100.8849083455086
 20
95.9216980837408
 30
0.0
 10
100.8366162862637
 20
95.87574406805277
 30
0.0
  0
ARC
  5
E00ED058
330
E00DEA5D
100
AcDbEntity
  8
JISSEN
100
AcDbCircle
 10
102.6014406410774
 20
104.0759100784797
 30
0.0
 40
2.500000000000015
100
AcDbArc
 50
201.6719292858339
 51
225.0952944864819
  0
SPLINE
  5
E00ED059
330
E00DEA5D
100
AcDbEntity
  8
JISSEN
100
AcDbSpline
210
0.0
220
0.0
230
1.0
 70
     8
 71
     3
 72
    19
 73
    15
 74
     0
 42
0.0000000001
 43
0.0000000001
 40
0.0
 40
0.0
 40
0.0
 40
0.0
 40
0.0922783438489563
 40
0.1866039155398346
 40
0.2692802171638265
 40
0.3542290249012385
 40
0.4369760660769561
 40
0.5224090085026722
 40
0.6011174716426583
 40
0.6818052717131553
 40
0.7666490704745401
 40
0.853590616102161
 40
0.9261751045894824
 40
1.0
 40
1.0
 40
1.0
 40
1.0
 10
100.8366162862637
 20
102.3052054174439
 30
0.0
 10
100.9168709475131
 20
102.2310611589235
 30
0.0
 10
101.0791607481849
 20
102.0811277251649
 30
0.0
 10
101.3462876773826
 20
101.9068469690208
 30
0.0
 10
101.6191293973231
 20
101.7708069591334
 30
0.0
 10
101.8850316902396
 20
101.6754813272908
 30
0.0
 10
102.1463260890921
 20
101.6132117950672
 30
0.0
 10
102.3824788675754
 20
101.582215206068
 30
0.0
 10
102.5889718572423
 20
101.5736301736104
 30
0.0
 10
102.7625072872103
 20
101.5794254296214
 30
0.0
 10
102.9033879058649
 20
101.5932177472185
 30
0.0
 10
102.9977301639953
 20
101.6071718180245
 30
0.0
 10
103.0525652289613
 20
101.6168942419097
 30
0.0
 10
103.0590080250847
 20
101.6181261856962
 30
0.0
 10
103.0622567154166
 20
101.6187473762164
 30
0.0
  0
LINE
  5
E00ED05A
330
E00DEA5D
100
AcDbEntity
  8
JISSEN
 48
0.2
100
AcDbLine
 39
1680.364539346804
 10
86.05570692342025
 20
147.47006051806
 30
0.0
 11
86.05570692342178
 21
148.0700602203455
 31
0.0
  0
LINE
  5
E00ED05B
330
E00DEA5D
100
AcDbEntity
  8
JISSEN
100
AcDbLine
 39
1680.364539346804
 10
85.80570529717642
 20
148.170057888393
 30
0.0
 11
85.90570296522299
 21
148.0700602203459
 31
0.0
  0
LINE
  5
E00ED05C
330
E00DEA5D
100
AcDbEntity
  8
JISSEN
100
AcDbLine
 39
1680.364539346804
 10
85.80570529717642
 20
148.170057888393
 30
0.0
 11
85.90570296522299
 21
148.0700602203459
 31
0.0
  0
LINE
  5
E00ED05D
330
E00DEA5D
100
AcDbEntity
  8
JISSEN
100
AcDbLine
 39
1680.364539346804
 10
80.23820313936068
 20
150.8700578884335
 30
0.0
 11
78.05570692342536
 21
150.8700578884445
 31
0.0
  0
LINE
  5
E00ED05E
330
E00DEA5D
100
AcDbEntity
  8
JISSEN
100
AcDbLine
 39
1680.364539346804
 10
80.2382031393604
 20
150.7700578884331
 30
0.0
 11
78.05570692342508
 21
150.7700578884441
 31
0.0
  0
LINE
  5
E00ED05F
330
E00DEA5D
100
AcDbEntity
  8
JISSEN
100
AcDbLine
 39
1680.364539346804
 10
83.23144285470863
 20
150.8700578884185
 30
0.0
 11
78.05570692342718
 21
150.8700578884427
 31
0.0
  0
LINE
  5
E00ED060
330
E00DEA5D
100
AcDbEntity
  8
JISSEN
100
AcDbLine
 39
1680.364539346804
 10
87.52743428992607
 20
150.7700578883962
 30
0.0
 11
79.05570692342507
 21
150.7700578884471
 31
0.0
  0
LINE
  5
E00ED061
330
E00DEA5D
100
AcDbEntity
  8
JISSEN
 48
0.05
100
AcDbLine
 39
1680.364539346804
 10
83.37286421094722
 20
150.9286365321932
 30
0.0
 11
83.92641760153997
 21
151.4821899227776
 31
0.0
  0
ARC
  5
E00ED062
330
E00DEA5D
100
AcDbEntity
  8
JISSEN
100
AcDbCircle
 39
1680.364539346804
 10
83.23144285470915
 20
151.0700578884301
 30
0.0
 40
0.2
100
AcDbArc
 50
269.9999999997199
 51
314.9999999996964
  0
LINE
  5
E00ED063
330
E00DEA5D
100
AcDbEntity
  8
JISSEN
100
AcDbLine
 39
1680.364539346804
 10
85.75570692342523
 20
152.6700579328437
 30
0.0
 11
85.75570692342063
 21
151.5700578883964
 31
0.0
  0
LINE
  5
E00ED064
330
E00DEA5D
100
AcDbEntity
  8
JISSEN
100
AcDbLine
 39
1680.364539346804
 10
94.35570692348097
 20
152.6700579328327
 30
0.0
 11
94.35570692348278
 21
151.5700578883853
 31
0.0
  0
ARC
  5
E00ED065
330
E00DEA5D
100
AcDbEntity
  8
JISSEN
100
AcDbCircle
 39
1680.364539346804
 10
96.87997099219296
 20
151.0700578884126
 30
0.0
 40
0.2
100
AcDbArc
 50
225.0000000001562
 51
270.0000000001335
  0
LINE
  5
E00ED066
330
E00DEA5D
100
AcDbEntity
  8
JISSEN
 48
0.05
100
AcDbLine
 39
1680.364539346804
 10
96.73854963595454
 20
150.928636532176
 30
0.0
 11
96.18499624536321
 21
151.4821899227619
 31
0.0
  0
LINE
  5
E00ED067
330
E00DEA5D
100
AcDbEntity
  8
JISSEN
100
AcDbLine
 39
1680.364539346804
 10
92.58397955697523
 20
150.7700578883897
 30
0.0
 11
101.0557069234762
 21
150.7700578884188
 31
0.0
  0
LINE
  5
E00ED068
330
E00DEA5D
100
AcDbEntity
  8
JISSEN
100
AcDbLine
 39
1680.364539346804
 10
96.87997099219296
 20
150.870057888401
 30
0.0
 11
102.0557069234744
 21
150.8700578884119
 31
0.0
  0
LINE
  5
E00ED069
330
E00DEA5D
100
AcDbEntity
  8
JISSEN
100
AcDbLine
 39
1680.364539346804
 10
99.87321070754092
 20
150.7700578884079
 30
0.0
 11
102.0557069234762
 21
150.7700578884133
 31
0.0
  0
LINE
  5
E00ED06A
330
E00DEA5D
100
AcDbEntity
  8
JISSEN
100
AcDbLine
 39
1680.364539346804
 10
99.87321070754092
 20
150.8700578884082
 30
0.0
 11
102.0557069234762
 21
150.8700578884137
 31
0.0
  0
LINE
  5
E00ED06B
330
E00DEA5D
100
AcDbEntity
  8
JISSEN
100
AcDbLine
 39
1680.364539346804
 10
94.30570854971824
 20
148.170057888382
 30
0.0
 11
94.2057108816714
 21
148.0700602203352
 31
0.0
  0
LINE
  5
E00ED06C
330
E00DEA5D
100
AcDbEntity
  8
JISSEN
100
AcDbLine
 39
1680.364539346804
 10
94.30570854971824
 20
148.170057888382
 30
0.0
 11
94.2057108816714
 21
148.0700602203352
 31
0.0
  0
LINE
  5
E00ED06D
330
E00DEA5D
100
AcDbEntity
  8
JISSEN
 48
0.2
100
AcDbLine
 39
1680.364539346804
 10
94.05570692347259
 20
147.4700605180497
 30
0.0
 11
94.05570692347259
 21
148.0700602203352
 31
0.0
  0
LINE
  5
E00ED06E
330
E00DEA5D
100
AcDbEntity
  8
JISSEN
100
AcDbLine
 39
1680.364539346804
 10
75.4057069234766
 20
159.2896731751042
 30
0.0
 11
75.4057069234766
 21
159.8040325289674
 31
0.0
  0
LINE
  5
E00ED06F
330
E00DEA5D
100
AcDbEntity
  8
JISSEN
100
AcDbLine
 39
1680.364539346804
 10
75.70570692347587
 20
158.1700579328334
 30
0.0
 11
75.4057069234766
 21
159.2896731751042
 31
0.0
  0
LINE
  5
E00ED070
330
E00DEA5D
100
AcDbEntity
  8
JISSEN
100
AcDbLine
 39
1680.364539346804
 10
75.70570692347587
 20
158.1700579328334
 30
0.0
 11
75.4057069234766
 21
159.2896731751042
 31
0.0
  0
LINE
  5
E00ED071
330
E00DEA5D
100
AcDbEntity
  8
JISSEN
100
AcDbLine
 39
1680.364539346804
 10
75.10570692343185
 20
170.6700579327861
 30
0.0
 11
75.10570692343003
 21
170.1133618611801
 31
0.0
  0
LINE
  5
E00ED072
330
E00DEA5D
100
AcDbEntity
  8
JISSEN
100
AcDbLine
 39
1680.364539346804
 10
75.1057069234746
 20
167.6700579327096
 30
0.0
 11
75.10570692347551
 21
167.1133618611037
 31
0.0
  0
LINE
  5
E00ED073
330
E00DEA5D
100
AcDbEntity
  8
JISSEN
100
AcDbLine
 39
1680.364539346804
 10
75.10570692347551
 20
164.6700579327097
 30
0.0
 11
75.10570692347551
 21
164.1133618611037
 31
0.0
  0
LINE
  5
E00ED074
330
E00DEA5D
100
AcDbEntity
  8
JISSEN
100
AcDbLine
 39
1680.364539346804
 10
75.1057069234746
 20
170.6700579327097
 30
0.0
 11
75.10570692347551
 21
170.1133618611037
 31
0.0
  0
LINE
  5
E00ED075
330
E00DEA5D
100
AcDbEntity
  8
SAISEN
100
AcDbLine
 39
1680.364539346804
 10
75.90570692347569
 20
176.1729015341351
 30
0.0
 11
75.40570692347569
 21
175.3068761303601
 31
0.0
  0
LINE
  5
E00ED076
330
E00DEA5D
100
AcDbEntity
  8
JISSEN
100
AcDbLine
 39
1680.364539346804
 10
105.0057069235206
 20
170.6700579327861
 30
0.0
 11
105.0057069235224
 21
170.1133618611801
 31
0.0
  0
LINE
  5
E00ED077
330
E00DEA5D
100
AcDbEntity
  8
JISSEN
100
AcDbLine
 39
1680.364539346804
 10
104.4057069234765
 20
158.1700579328334
 30
0.0
 11
104.7057069234758
 21
159.2896731751042
 31
0.0
  0
LINE
  5
E00ED078
330
E00DEA5D
100
AcDbEntity
  8
JISSEN
100
AcDbLine
 39
1680.364539346804
 10
104.4057069234765
 20
158.1700579328334
 30
0.0
 11
104.7057069234758
 21
159.2896731751042
 31
0.0
  0
LINE
  5
E00ED079
330
E00DEA5D
100
AcDbEntity
  8
JISSEN
100
AcDbLine
 39
1680.364539346804
 10
104.7057069234758
 20
159.2896731751042
 30
0.0
 11
104.7057069234758
 21
159.8040325289674
 31
0.0
  0
LINE
  5
E00ED07A
330
E00DEA5D
100
AcDbEntity
  8
SAISEN
100
AcDbLine
 39
1680.364539346804
 10
104.2057069234767
 20
176.1729015341351
 30
0.0
 11
104.7057069234767
 21
175.3068761303601
 31
0.0
  0
LINE
  5
E00ED07B
330
E00DEA5D
100
AcDbEntity
  8
JISSEN
100
AcDbLine
 39
1680.364539346804
 10
105.0057069234778
 20
170.6700579327097
 30
0.0
 11
105.0057069234769
 21
170.1133618611037
 31
0.0
  0
LINE
  5
E00ED07C
330
E00DEA5D
100
AcDbEntity
  8
JISSEN
100
AcDbLine
 39
1680.364539346804
 10
105.0057069234769
 20
164.6700579327097
 30
0.0
 11
105.0057069234769
 21
164.1133618611037
 31
0.0
  0
LINE
  5
E00ED07D
330
E00DEA5D
100
AcDbEntity
  8
JISSEN
100
AcDbLine
 39
1680.364539346804
 10
105.0057069234778
 20
167.6700579327096
 30
0.0
 11
105.0057069234769
 21
167.1133618611037
 31
0.0
  0
LINE
  5
E00ED07E
330
E00DEA5D
100
AcDbEntity
  8
JISSEN
100
AcDbLine
 39
1680.364539346804
 10
75.40201949686331
 20
161.7000896124624
 30
0.0
 11
104.705706923474
 21
164.670057932726
 31
0.0
  0
LINE
  5
E00ED07F
330
E00DEA5D
100
AcDbEntity
  8
JISSEN
100
AcDbLine
 39
1680.364539346804
 10
80.65411110366
 20
161.6700579327097
 30
0.0
 11
105.0057069234751
 21
164.1133618611164
 31
0.0
  0
LINE
  5
E00ED080
330
E00DEA5D
100
AcDbEntity
  8
JISSEN
100
AcDbLine
 39
1680.364539346804
 10
75.40205604420862
 20
164.6997919582211
 30
0.0
 11
105.0057069234751
 21
167.670057932726
 31
0.0
  0
LINE
  5
E00ED081
330
E00DEA5D
100
AcDbEntity
  8
JISSEN
100
AcDbLine
 39
1680.364539346804
 10
75.10570692347556
 20
164.1133618611181
 30
0.0
 11
105.0057069234751
 21
167.1133618611182
 31
0.0
  0
LINE
  5
E00ED082
330
E00DEA5D
100
AcDbEntity
  8
JISSEN
100
AcDbLine
 39
1680.364539346804
 10
75.40205604420851
 20
167.6997919582211
 30
0.0
 11
105.0057069234751
 21
170.670057932726
 31
0.0
  0
LINE
  5
E00ED083
330
E00DEA5D
100
AcDbEntity
  8
JISSEN
100
AcDbLine
 39
1680.364539346804
 10
75.10570692347295
 20
167.1133618611251
 30
0.0
 11
105.0057069234751
 21
170.1133618611182
 31
0.0
  0
LINE
  5
E00ED084
330
E00DEA5D
100
AcDbEntity
  8
SAISEN
100
AcDbLine
 39
1680.364539346804
 10
80.55769780547848
 20
185.4729015472365
 30
0.0
 11
79.35790237806554
 21
184.2731061198245
 31
0.0
  0
LINE
  5
E00ED085
330
E00DEA5D
100
AcDbEntity
  8
JISSEN
100
AcDbLine
 39
1680.364539346804
 10
80.55769780547938
 20
185.4729015472365
 30
0.0
 11
79.36414442346972
 21
185.4729015472365
 31
0.0
  0
LINE
  5
E00ED086
330
E00DEA5D
100
AcDbEntity
  8
JISSEN
100
AcDbLine
 39
1680.364539346804
 10
90.05570692347623
 20
185.4729015472547
 30
0.0
 11
79.36414442346972
 21
185.4729015472365
 31
0.0
  0
LINE
  5
E00ED087
330
E00DEA5D
100
AcDbEntity
  8
SAISEN
100
AcDbLine
 39
1680.364539346804
 10
80.55769780547848
 20
185.4729015472402
 30
0.0
 11
79.35790237806464
 21
184.2731061198281
 31
0.0
  0
ARC
  5
E00ED08A
330
E00DEA5D
100
AcDbEntity
  8
JISSEN
100
AcDbCircle
 39
1680.364539346804
 10
102.2057069234767
 20
184.1729015472336
 30
0.0
 40
0.9999999999997548
100
AcDbArc
 50
210.0000000000009
 51
270.0
  0
LINE
  5
E00ED08B
330
E00DEA5D
100
AcDbEntity
  8
SAISEN
100
AcDbLine
 39
1680.364539346804
 10
99.553716041474
 20
185.4729015472402
 30
0.0
 11
100.7535114688878
 21
184.2731061198281
 31
0.0
  0
LINE
  5
E00ED08C
330
E00DEA5D
100
AcDbEntity
  8
JISSEN
100
AcDbLine
 39
1680.364539346804
 10
90.05570692347623
 20
185.4729015472547
 30
0.0
 11
100.7472694234827
 21
185.4729015472365
 31
0.0
  0
LINE
  5
E00ED08D
330
E00DEA5D
100
AcDbEntity
  8
JISSEN
100
AcDbLine
 39
1680.364539346804
 10
99.55371604147309
 20
185.4729015472365
 30
0.0
 11
100.7472694234827
 21
185.4729015472365
 31
0.0
  0
LINE
  5
E00ED08E
330
E00DEA5D
100
AcDbEntity
  8
SAISEN
100
AcDbLine
 39
1680.364539346804
 10
99.553716041474
 20
185.4729015472365
 30
0.0
 11
100.7535114688869
 21
184.2731061198245
 31
0.0
  0
ARC
  5
E00ED096
330
E00DEA5D
100
AcDbEntity
  8
JISSEN
100
AcDbCircle
 39
1680.364539346804
 10
77.90570692347569
 20
184.1729015472336
 30
0.0
 40
0.9999999999997548
100
AcDbArc
 50
270.0
 51
329.999999999999
  0
LINE
  5
E00ED098
330
E00DEA5D
100
AcDbEntity
  8
JISSEN
100
AcDbLine
 10
73.54161064947561
 20
160.9229012119338
 30
0.0
 11
62.73754255787548
 21
160.9229012119338
 31
0.0
  0
LINE
  5
E00ED099
330
E00DEA5D
100
AcDbEntity
  8
JISSEN
100
AcDbLine
 10
73.24545301587545
 20
157.9313693463317
 30
0.0
 11
57.98612037307589
 21
160.075928693035
 31
0.0
  0
LINE
  5
E00ED09A
330
E00DEA5D
100
AcDbEntity
  8
JISSEN
100
AcDbLine
 10
62.73754255787548
 20
160.9229012119338
 30
0.0
 11
71.84694727207693
 21
159.6426578697336
 31
0.0
  0
HATCH
  5
E00ED09B
330
E00DEA5D
100
AcDbEntity
  8
HATCH
100
AcDbHatch
 10
0.0
 20
0.0
 30
0.0
210
0.0
220
0.0
230
1.0
  2
ANSI31
 70
     0
 71
     0
 91
        1
 92
        7
 72
     1
 73
     1
 93
       14
 10
75.05570692347624
 20
171.9229012119336
 42
0.0
 10
74.55570692347601
 20
172.4229012119336
 42
0.0
 10
73.5557069234763
 20
172.4229012119341
 42
0.0
 10
73.55570692347623
 20
161.1280599728321
 42
-0.4557262555289391
 10
71.84694727203492
 20
159.6426578697395
 42
0.0
 10
62.73754255787423
 20
160.9229012119338
 42
0.0
 10
57.55570692347617
 20
160.9229012119338
 42
0.0
 10
57.55570692347624
 20
160.5710627273346
 42
0.3738846794428605
 10
57.98612037300495
 20
160.075928693045
 42
0.0
 10
73.24545301581503
 20
157.9313693463401
 42
0.0122983169365944
 10
73.31874417198213
 20
157.9229012119338
 42
0.3888787318578421
 10
74.81303621908899
 20
159.2921675978735
 42
0.0
 10
74.95570692347587
 20
160.9229012119336
 42
0.0
 10
75.05570692347624
 20
160.9229012119341
 42
0.0
 97
        0
 75
     0
 76
     1
 52
90.0
 41
5.0
 77
     0
 78
     1
 53
135.0
 43
-405.8672522313254
 44
-0.0000005417733746
 45
-0.4419417382415923
 46
-0.4419417382415922
 79
     0
 47
0.0183417260654637
 98
        1
 10
74.45111600746805
 20
165.9796934154829
  0
HATCH
  5
E00ED09C
330
E00DEA5D
100
AcDbEntity
  8
SUNPOU
100
AcDbHatch
 10
0.0
 20
0.0
 30
0.0
210
0.0
220
0.0
230
1.0
  2
ANSI31
 70
     0
 71
     0
 91
        2
 92
        5
 93
        5
 72
     1
 10
57.55570692340029
 20
160.9229012119338
 11
65.05570692347624
 21
160.9229012119338
 72
     1
 10
65.05570692347624
 20
160.922901211932
 11
65.05570692347624
 21
170.9229012119338
 72
     1
 10
65.05570692347624
 20
170.9229012119338
 11
33.00383881884829
 21
170.9229012119302
 72
     4
 94
        3
 73
     0
 74
     0
 95
       11
 96
        7
 40
0.0
 40
0.0
 40
0.0
 40
0.0
 40
3.264692203133994
 40
6.15697472568029
 40
8.955271668736928
 40
10.85738683396026
 40
10.85738683396026
 40
10.85738683396026
 40
10.85738683396026
 10
33.0038388188475
 20
170.9229012119338
 10
33.67893950713392
 20
169.9215022607276
 10
34.95213085763202
 20
168.0329358510151
 10
32.68628614128761
 20
165.1815648179471
 10
34.8894033078443
 20
162.5552343202033
 10
33.54704911711019
 20
161.3931583470147
 10
33.0038388188475
 20
160.9229012119338
 72
     1
 10
33.00383881884704
 20
160.9229012119338
 11
57.55570692340052
 21
160.9229012119338
 97
        0
 92
        5
 93
        5
 72
     1
 10
115.0557069234762
 20
170.9229012119338
 11
115.0557069234762
 21
160.9229012119338
 72
     1
 10
115.0557069234762
 20
160.9229012119338
 11
122.5557069235521
 21
160.9229012119338
 72
     1
 10
122.5557069235521
 20
160.9229012119338
 11
147.1075750281054
 21
160.9229012119338
 72
     4
 94
        3
 73
     0
 74
     0
 95
       11
 96
        7
 40
0.0
 40
0.0
 40
0.0
 40
0.0
 40
1.902115165223333
 40
4.700412108279971
 40
7.592694630826267
 40
10.85738683396026
 40
10.85738683396026
 40
10.85738683396026
 40
10.85738683396026
 10
147.1075750281049
 20
160.9229012119338
 10
146.5643647298422
 20
161.3931583470147
 10
145.2220105391081
 20
162.5552343202033
 10
147.4251277056648
 20
165.1815648179471
 10
145.1592829893204
 20
168.0329358510151
 10
146.4324743398185
 20
169.9215022607276
 10
147.1075750281049
 20
170.9229012119338
 72
     1
 10
147.1075750281036
 20
170.922901211932
 11
115.0557069234763
 21
170.9229012119338
 97
        0
 75
     0
 76
     1
 52
0.0
 41
10.0
 77
     0
 78
     1
 53
45.0
 43
185.0253222536728
 44
-2497.575742508183
 45
-0.8838834764831842
 46
0.8838834764831844
 79
     0
 47
0.1102095095325799
 98
        2
 10
57.15975309670898
 20
164.6230476283416
 10
124.8575397734409
 20
167.3782843623811
  0
LINE
  5
E00ED09D
330
E00DEA5D
100
AcDbEntity
  8
SUNPOU
100
AcDbLine
 10
73.55570692347623
 20
170.9229012119338
 30
0.0
 11
33.0038388188484
 21
170.922901211932
 31
0.0
  0
LINE
  5
E00ED09E
330
E00DEA5D
100
AcDbEntity
  8
SUNPOU
100
AcDbLine
 10
73.54161064943696
 20
160.9229012119338
 30
0.0
 11
33.00383881884704
 21
160.9229012119338
 31
0.0
  0
SPLINE
  5
E00ED09F
330
E00DEA5D
100
AcDbEntity
  8
SUNPOU
100
AcDbSpline
210
0.0
220
0.0
230
1.0
 70
     8
 71
     3
 72
    11
 73
     7
 74
     5
 42
0.0000000001
 43
0.0000000001
 44
0.0000000001
 40
0.0
 40
0.0
 40
0.0
 40
0.0
 40
3.264692203133994
 40
6.15697472568029
 40
8.955271668736928
 40
10.85738683396026
 40
10.85738683396026
 40
10.85738683396026
 40
10.85738683396026
 10
33.0038388188475
 20
170.9229012119338
 30
0.0
 10
33.67893950713387
 20
169.9215022607287
 30
0.0
 10
34.9521308576319
 20
168.032935851015
 30
0.0
 10
32.68628614128761
 20
165.1815648179457
 30
0.0
 10
34.88940330784426
 20
162.5552343202048
 30
0.0
 10
33.54704911711019
 20
161.3931583470158
 30
0.0
 10
33.0038388188475
 20
160.9229012119338
 30
0.0
 11
33.0038388188475
 21
170.9229012119338
 31
0.0
 11
34.23317919641135
 21
167.8985107911556
 31
0.0
 11
33.46099574244158
 21
165.1112126543138
 31
0.0
 11
34.19030227424968
 21
162.4096246464595
 31
0.0
 11
33.0038388188475
 21
160.9229012119338
 31
0.0
  0
LINE
  5
E00ED0A0
330
E00DEA5D
100
AcDbEntity
  8
SUNPOU
100
AcDbLine
 10
65.05570692347624
 20
170.9229012119338
 30
0.0
 11
65.05570692347624
 21
160.9229012119338
 31
0.0
  0
LINE
  5
E00ED0A1
330
E00DEA5D
100
AcDbEntity
  8
JISSEN
100
AcDbLine
 10
57.55570692347624
 20
160.9229012119338
 30
0.0
 11
62.73754255787548
 21
160.9229012119338
 31
0.0
  0
ARC
  5
E00ED0A2
330
E00DEA5D
100
AcDbEntity
  8
JISSEN
100
AcDbCircle
 10
58.05570692347533
 20
160.5710627273346
 30
0.0
 40
0.5000000000000084
100
AcDbArc
 50
180.0
 51
261.9999999999564
  0
LINE
  5
E00ED0A3
330
E00DEA5D
100
AcDbEntity
  8
JISSEN
100
AcDbLine
 10
57.55570692347624
 20
160.5710627273346
 30
0.0
 11
57.55570692347624
 21
160.9229012119338
 31
0.0
  0
LINE
  5
E00ED0A4
330
E00DEA5D
100
AcDbEntity
  8
NITEN
100
AcDbLine
 10
109.5557069234762
 20
212.7332293280195
 30
0.0
 11
109.5557069234766
 21
229.9729015472329
 31
0.0
  0
LINE
  5
E00ED0A5
330
E00DEA5D
100
AcDbEntity
  8
NITEN
100
AcDbLine
 10
70.55570692347624
 20
212.7332293280195
 30
0.0
 11
70.55570692347624
 21
229.9729015472329
 31
0.0
  0
LINE
  5
E00ED0A6
330
E00DEA5D
100
AcDbEntity
  8
SUNPOU
100
AcDbLine
 10
106.5557069234762
 20
170.9229012119338
 30
0.0
 11
147.107575028104
 21
170.922901211932
 31
0.0
  0
LINE
  5
E00ED0A7
330
E00DEA5D
100
AcDbEntity
  8
SUNPOU
100
AcDbLine
 10
106.5698031975155
 20
160.9229012119338
 30
0.0
 11
147.1075750281054
 21
160.9229012119338
 31
0.0
  0
LINE
  5
E00ED0B2
330
E00DEA5D
100
AcDbEntity
  8
JISSEN
100
AcDbLine
 39
240.0520776831561
 10
85.90570296522299
 20
148.0700602203459
 30
0.0
 11
86.05570692341814
 21
148.0700602203455
 31
0.0
  0
LINE
  5
E00ED0B3
330
E00DEA5D
100
AcDbEntity
  8
JISSEN
100
AcDbLine
 39
240.0520776831561
 10
78.05570692342718
 20
150.8700578884427
 30
0.0
 11
78.05570692342508
 21
150.7700578884441
 31
0.0
  0
LINE
  5
E00ED0B4
330
E00DEA5D
100
AcDbEntity
  8
JISSEN
100
AcDbLine
 39
240.0520776831561
 10
85.90570296521935
 20
148.0700602203459
 30
0.0
 11
90.05570692341814
 21
148.0700602203343
 31
0.0
  0
LINE
  5
E00ED0B5
330
E00DEA5D
100
AcDbEntity
  8
JISSEN
100
AcDbLine
 39
240.0520776831561
 10
94.20571088167504
 20
148.0700602203352
 30
0.0
 11
90.05570692347623
 21
148.0700602203343
 31
0.0
  0
LINE
  5
E00ED0B6
330
E00DEA5D
100
AcDbEntity
  8
JISSEN
100
AcDbLine
 39
240.0520776831561
 10
102.0557069234744
 20
150.8700578884119
 30
0.0
 11
102.0557069234762
 21
150.7700578884133
 31
0.0
  0
LINE
  5
E00ED0B7
330
E00DEA5D
100
AcDbEntity
  8
JISSEN
100
AcDbLine
 39
240.0520776831561
 10
94.2057108816714
 20
148.0700602203352
 30
0.0
 11
94.05570692347623
 21
148.0700602203352
 31
0.0
  0
LINE
  5
E00ED0B8
330
E00DEA5D
100
AcDbEntity
  8
JISSEN
100
AcDbLine
 39
240.0520776831561
 10
75.40570692343021
 20
170.6700579327824
 30
0.0
 11
75.10570692343094
 21
170.6700579327861
 31
0.0
  0
LINE
  5
E00ED0B9
330
E00DEA5D
100
AcDbEntity
  8
JISSEN
100
AcDbLine
 39
240.0520776831561
 10
75.40570692343113
 20
170.6700579327824
 30
0.0
 11
75.10570692343185
 21
170.6700579327861
 31
0.0
  0
LINE
  5
E00ED0BA
330
E00DEA5D
100
AcDbEntity
  8
JISSEN
100
AcDbLine
 39
240.0520776831561
 10
77.65570692347296
 20
157.3700579327468
 30
0.0
 11
90.05570692347623
 21
157.370057932745
 31
0.0
  0
LINE
  5
E00ED0BB
330
E00DEA5D
100
AcDbEntity
  8
JISSEN
100
AcDbLine
 39
240.0520776831561
 10
90.05570692347623
 20
161.6700579327097
 30
0.0
 11
75.40570692347296
 21
161.6700579327097
 31
0.0
  0
LINE
  5
E00ED0BC
330
E00DEA5D
100
AcDbEntity
  8
JISSEN
100
AcDbLine
 39
240.0520776831561
 10
90.05570692347623
 20
161.6700579327097
 30
0.0
 11
75.40570692347387
 21
161.6700579327097
 31
0.0
  0
LINE
  5
E00ED0BD
330
E00DEA5D
100
AcDbEntity
  8
JISSEN
100
AcDbLine
 39
240.0520776831561
 10
75.90570692347569
 20
176.1729015341387
 30
0.0
 11
90.05570692347623
 21
176.1729015341351
 31
0.0
  0
LINE
  5
E00ED0BE
330
E00DEA5D
100
AcDbEntity
  8
JISSEN
100
AcDbLine
 39
240.0520776831561
 10
75.4057069234766
 20
159.2896731751042
 30
0.0
 11
90.05570692347623
 21
159.2896731751515
 31
0.0
  0
LINE
  5
E00ED0BF
330
E00DEA5D
100
AcDbEntity
  8
JISSEN
100
AcDbLine
 39
240.0520776831561
 10
104.7057069235213
 20
170.6700579327824
 30
0.0
 11
105.0057069235206
 21
170.6700579327861
 31
0.0
  0
LINE
  5
E00ED0C0
330
E00DEA5D
100
AcDbEntity
  8
JISSEN
100
AcDbLine
 39
240.0520776831561
 10
104.7057069235222
 20
170.6700579327824
 30
0.0
 11
105.0057069235215
 21
170.6700579327861
 31
0.0
  0
LINE
  5
E00ED0C1
330
E00DEA5D
100
AcDbEntity
  8
JISSEN
100
AcDbLine
 39
240.0520776831561
 10
104.7057069234758
 20
159.2896731751042
 30
0.0
 11
90.05570692347623
 21
159.2896731751515
 31
0.0
  0
LINE
  5
E00ED0C2
330
E00DEA5D
100
AcDbEntity
  8
JISSEN
100
AcDbLine
 39
240.0520776831561
 10
104.2057069234767
 20
176.1729015341387
 30
0.0
 11
90.05570692347623
 21
176.1729015341351
 31
0.0
  0
LINE
  5
E00ED0C3
330
E00DEA5D
100
AcDbEntity
  8
JISSEN
100
AcDbLine
 39
240.0520776831561
 10
90.05570692347623
 20
161.6700579327097
 30
0.0
 11
104.7057069234786
 21
161.6700579327097
 31
0.0
  0
LINE
  5
E00ED0C4
330
E00DEA5D
100
AcDbEntity
  8
JISSEN
100
AcDbLine
 39
240.0520776831561
 10
90.05570692347623
 20
161.6700579327097
 30
0.0
 11
104.7057069234795
 21
161.6700579327097
 31
0.0
  0
LINE
  5
E00ED0C5
330
E00DEA5D
100
AcDbEntity
  8
JISSEN
100
AcDbLine
 39
240.0520776831561
 10
102.4557069234795
 20
157.3700579327468
 30
0.0
 11
90.05570692347623
 21
157.370057932745
 31
0.0
  0
ARC
  5
E00ED0C6
330
E00DEA5D
100
AcDbEntity
  8
JISSEN
100
AcDbCircle
 10
95.97286421100738
 20
151.2700578884042
 30
0.0
 40
0.3
100
AcDbArc
 50
45.00000000043256
 51
90.00000000015957
  0
LINE
  5
E00ED0C7
330
E00DEA5D
100
AcDbEntity
  8
0
  6
SLD-実線
 62
     7
370
    15
100
AcDbLine
 10
103.0622567154748
 20
152.6700579328327
 30
0.0
 11
92.58397955697523
 21
152.6700579328327
 31
0.0
  0
LINE
  5
E00ED0C8
330
E00DEA5D
100
AcDbEntity
  8
0
  6
SLD-実線
 62
     7
370
    15
100
AcDbLine
 10
100.7600423263263
 20
148.1700579328327
 30
0.0
 11
94.59979920042474
 21
148.1700579328327
 31
0.0
  0
LINE
  5
E00ED0C9
330
E00DEA5D
100
AcDbEntity
  8
0
  6
SLD-実線
 62
     7
370
    15
100
AcDbLine
 10
94.59979920042474
 20
148.6700579328327
 30
0.0
 11
100.7600423263263
 21
148.6700579328327
 31
0.0
  0
LINE
  5
E00ED0CA
330
E00DEA5D
100
AcDbEntity
  8
0
  6
SLD-実線
 62
     7
370
    15
100
AcDbLine
 10
103.3057069234762
 20
154.1700579328327
 30
0.0
 11
90.05570692347623
 21
154.1700579328327
 31
0.0
  0
SPLINE
  5
E00ED0CB
330
E00DEA5D
100
AcDbEntity
  8
JISSEN
370
    -2
100
AcDbSpline
210
0.0
220
0.0
230
1.0
 70
    12
 71
     3
 72
    14
 73
    10
 74
     0
 42
0.0000000001
 43
0.0000000001
 40
0.0
 40
0.0
 40
0.0
 40
0.0
 40
0.1088769686984931
 40
0.2172663573285982
 40
0.3685706574444105
 40
0.4825742753969225
 40
0.5996174274824865
 40
0.7976149977365948
 40
1.0
 40
1.0
 40
1.0
 40
1.0
 10
96.16441746575105
 20
173.1729427951194
 30
0.0
 41
1.0
 10
96.15172417533518
 20
173.0466618088956
 30
0.0
 41
1.0
 10
96.12639443844068
 20
172.7946653563466
 30
0.0
 41
1.0
 10
95.9190956504824
 20
172.4247788701922
 30
0.0
 41
1.0
 10
95.61826680741502
 20
172.1427342194746
 30
0.0
 41
1.0
 10
95.25632376734552
 20
171.9430958263345
 30
0.0
 41
1.0
 10
94.8198888377035
 20
171.7884492679785
 30
0.0
 41
1.0
 10
94.26397355151015
 20
171.6883899878356
 30
0.0
 41
1.0
 10
93.82038633285516
 20
171.678129175112
 30
0.0
 41
1.0
 10
93.5961622871207
 20
171.6729425492502
 30
0.0
 41
1.0
  0
SPLINE
  5
E00ED0CC
330
E00DEA5D
100
AcDbEntity
  8
JISSEN
370
    -2
100
AcDbSpline
210
0.0
220
0.0
230
1.0
 70
    12
 71
     3
 72
    14
 73
    10
 74
     0
 42
0.0000000001
 43
0.0000000001
 40
0.0
 40
0.0
 40
0.0
 40
0.0
 40
0.2170493941225676
 40
0.4388311995732112
 40
0.5988137766302898
 40
0.7597871991591737
 40
0.8750649674182215
 40
0.9755548291618868
 40
1.0
 40
1.0
 40
1.0
 40
1.0
 10
93.5961622871207
 20
174.6729430409885
 30
0.0
 41
1.0
 10
93.83652477680312
 20
174.6669774894161
 30
0.0
 41
1.0
 10
94.3224904718761
 20
174.6549163170583
 30
0.0
 41
1.0
 10
94.96312205907157
 20
174.5257268266158
 30
0.0
 41
1.0
 10
95.50005685776318
 20
174.2898037690773
 30
0.0
 41
1.0
 10
95.8718644345979
 20
173.9837434604395
 30
0.0
 41
1.0
 10
96.09364731177425
 20
173.618863223828
 30
0.0
 41
1.0
 10
96.16036666708055
 20
173.3452799664354
 30
0.0
 41
1.0
 10
96.1637545769388
 20
173.2011447355233
 30
0.0
 41
1.0
 10
96.16441746575105
 20
173.1729427951194
 30
0.0
 41
1.0
  0
LINE
  5
E00ED0CD
330
E00DEA5D
100
AcDbEntity
  8
JISSEN
370
    -2
100
AcDbLine
 10
96.17510159827794
 20
171.6729425492502
 30
0.0
 11
90.05570692347623
 21
171.6729425492502
 31
0.0
  0
LINE
  5
E00ED0CE
330
E00DEA5D
100
AcDbEntity
  8
JISSEN
370
    -2
100
AcDbLine
 10
96.17510159827794
 20
174.6729430409485
 30
0.0
 11
90.05570692347623
 21
174.6729430409485
 31
0.0
  0
LINE
  5
E00ED0CF
330
E00DEA5D
100
AcDbEntity
  8
JISSEN
100
AcDbLine
 10
105.0057069235206
 20
170.6700579327861
 30
0.0
 11
90.05570692347623
 21
170.6700579327078
 31
0.0
  0
LINE
  5
E00ED0D0
330
E00DEA5D
100
AcDbEntity
  8
JISSEN
100
AcDbLine
 10
105.0057069235215
 20
170.6700579327861
 30
0.0
 11
90.05570692347623
 21
170.6700579327078
 31
0.0
  0
LINE
  5
E00ED0D1
330
E00DEA5D
100
AcDbEntity
  8
JISSEN
100
AcDbLine
 10
104.4057069234765
 20
158.1700579328334
 30
0.0
 11
90.05570692347623
 21
158.1700579328334
 31
0.0
  0
LINE
  5
E00ED0D3
330
E00DEA5D
100
AcDbEntity
  8
JISSEN
100
AcDbLine
 10
77.45570692347314
 20
157.9700579327453
 30
0.0
 11
77.45570692347314
 21
157.5700579327475
 31
0.0
  0
ARC
  5
E00ED0D4
330
E00DEA5D
100
AcDbEntity
  8
JISSEN
100
AcDbCircle
 10
73.31874417187532
 20
159.4229012119338
 30
0.0
 40
1.5
100
AcDbArc
 50
270.0
 51
354.9999999999217
  0
LINE
  5
E00ED0D5
330
E00DEA5D
100
AcDbEntity
  8
0
  6
SLD-実線
 62
     7
370
    15
100
AcDbLine
 10
76.80570692343383
 20
154.1700579328667
 30
0.0
 11
90.05570692343383
 21
154.1700579328327
 31
0.0
  0
LINE
  5
E00ED0D6
330
E00DEA5D
100
AcDbEntity
  8
0
  6
SLD-実線
 62
     7
370
    15
100
AcDbLine
 10
85.51161464647123
 20
148.6700579328443
 30
0.0
 11
79.35137152056961
 21
148.6700579328602
 31
0.0
  0
LINE
  5
E00ED0D7
330
E00DEA5D
100
AcDbEntity
  8
0
  6
SLD-実線
 62
     7
370
    15
100
AcDbLine
 10
79.35137152056831
 20
148.1700579328602
 30
0.0
 11
85.51161464646993
 21
148.1700579328444
 31
0.0
  0
LINE
  5
E00ED0D8
330
E00DEA5D
100
AcDbEntity
  8
0
  6
SLD-実線
 62
     7
370
    15
100
AcDbLine
 10
77.04915713143134
 20
152.6700579328661
 30
0.0
 11
87.52743428993097
 21
152.6700579328392
 31
0.0
  0
LINE
  5
E00ED0D9
330
E00DEA5D
100
AcDbEntity
  8
SUNPOU
100
AcDbLine
 10
68.35189753123017
 20
139.8478805621651
 30
0.0
 11
77.39149336112973
 21
148.7556840763444
 31
0.0
  0
INSERT
  5
E00ED0DA
330
E00DEA5D
100
AcDbEntity
  8
SUNPOU
100
AcDbBlockReference
  2
ARROW
 10
77.37420661142119
 20
148.7418557989093
 30
0.0
 41
1.499999999999528
 42
1.5
 43
1.5
 50
44.6619397375731
  0
LINE
  5
E00ED0DB
330
E00DEA5D
100
AcDbEntity
  8
0
  6
SLD-実線
 62
     7
370
    15
100
AcDbLine
 10
76.80570692343383
 20
154.1700579328685
 30
0.0
 11
76.80570692342354
 21
150.1700579328667
 31
0.0
  0
LINE
  5
E00ED0DC
330
E00DEA5D
100
AcDbEntity
  8
0
  6
SLD-実線
 62
     7
370
    15
100
AcDbLine
 10
77.04915713143134
 20
152.6700579328661
 30
0.0
 11
77.04915713142492
 21
150.1700579328661
 31
0.0
  0
LINE
  5
E00ED0DD
330
E00DEA5D
100
AcDbEntity
  8
0
  6
SLD-実線
 62
     7
370
    15
100
AcDbLine
 10
77.55036851512506
 20
150.1700579328648
 30
0.0
 11
77.55036851513148
 21
152.6700579328648
 31
0.0
  0
SPLINE
  5
E00ED0DE
330
E00DEA5D
100
AcDbEntity
  8
0
  6
SLD-実線
 62
     7
370
    15
100
AcDbSpline
210
0.0
220
0.0
230
1.0
 70
     8
 71
     3
 72
    28
 73
    24
 74
     0
 42
0.0000000001
 43
0.0000000001
 40
0.0
 40
0.0
 40
0.0
 40
0.0
 40
0.0522610535988776
 40
0.1047398940120094
 40
0.1579696651708924
 40
0.211506227269888
 40
0.2571506177901186
 40
0.3030542834293318
 40
0.3498514086234424
 40
0.3969993247428615
 40
0.4426588851345469
 40
0.4886947291385182
 40
0.5359544676574553
 40
0.5836536500263239
 40
0.6251043233807513
 40
0.6668451353021764
 40
0.7094797461544916
 40
0.7524163467950467
 40
0.7942898451489305
 40
0.8364367948912803
 40
0.8794297466635674
 40
0.9227099776835272
 40
1.0
 40
1.0
 40
1.0
 40
1.0
 10
79.27479756058949
 20
148.6700579328877
 30
0.0
 10
79.24030448336509
 20
148.6703588298366
 30
0.0
 10
79.17117458636187
 20
148.6709618776566
 30
0.0
 10
79.05987203880489
 20
148.6771182607119
 30
0.0
 10
78.94311738937506
 20
148.688922381491
 30
0.0
 10
78.82719390817391
 20
148.7072704471892
 30
0.0
 10
78.71418205226451
 20
148.7320884401553
 30
0.0
 10
78.60487287236981
 20
148.7630778362886
 30
0.0
 10
78.49383984406904
 20
148.8026501947804
 30
0.0
 10
78.38369108764538
 20
148.8511087347725
 30
0.0
 10
78.27617936847514
 20
148.9084818288323
 30
0.0
 10
78.17194291760592
 20
148.9751056460379
 30
0.0
 10
78.07104546602085
 20
149.0520834909793
 30
0.0
 10
77.97954998661129
 20
149.1354175733333
 30
0.0
 10
77.89835991876151
 20
149.2228014556362
 30
0.0
 10
77.82693346428771
 20
149.3129461381883
 30
0.0
 10
77.76208609670238
 20
149.4098359839589
 30
0.0
 10
77.70522319881547
 20
149.5119002344927
 30
0.0
 10
77.65695897728642
 20
149.617859307151
 30
0.0
 10
77.61720552367711
 20
149.7274030066312
 30
0.0
 10
77.58628239866346
 20
149.8410520445271
 30
0.0
 10
77.55768428376024
 20
149.9885198458509
 30
0.0
 10
77.55322626877535
 20
150.0991438357982
 30
0.0
 10
77.5503685151578
 20
150.1700579328921
 30
0.0
  0
SPLINE
  5
E00ED0DF
330
E00DEA5D
100
AcDbEntity
  8
0
  6
SLD-実線
 62
     7
370
    15
100
AcDbSpline
210
0.0
220
0.0
230
1.0
 70
     8
 71
     3
 72
    29
 73
    25
 74
     0
 42
0.0000000001
 43
0.0000000001
 40
0.0
 40
0.0
 40
0.0
 40
0.0
 40
0.0463693095164601
 40
0.0930564132881835
 40
0.1407459822675587
 40
0.1887832760155378
 40
0.2351668560695527
 40
0.281879692522319
 40
0.3296579782434866
 40
0.3778243583948085
 40
0.4228021779815779
 40
0.4681422006903605
 40
0.5146836044491538
 40
0.561671973579994
 40
0.6023247428840694
 40
0.6432870830207374
 40
0.68520686023583
 40
0.7274487755550413
 40
0.7669770662174202
 40
0.8067392388443048
 40
0.8471692827050581
 40
0.8878051013891491
 40
0.9436858266902781
 40
1.0
 40
1.0
 40
1.0
 40
1.0
 10
77.04915713144038
 20
150.1700579328934
 30
0.0
 10
77.05043974725112
 20
150.1151860121425
 30
0.0
 10
77.05301376933983
 20
150.0050661033382
 30
0.0
 10
77.07401661644133
 20
149.8396432042207
 30
0.0
 10
77.10806360113787
 20
149.6745809228793
 30
0.0
 10
77.15611443837042
 20
149.5134101844028
 30
0.0
 10
77.21709139775936
 20
149.3579848546136
 30
0.0
 10
77.29083111022112
 20
149.2084994620701
 30
0.0
 10
77.37834085507683
 20
149.0640710968991
 30
0.0
 10
77.47714559978004
 20
148.9295350465278
 30
0.0
 10
77.58531904546271
 20
148.8062158056985
 30
0.0
 10
77.70200997385535
 20
148.6938115892608
 30
0.0
 10
77.82938788689659
 20
148.5904539333548
 30
0.0
 10
77.95987572801926
 20
148.5018832068811
 30
0.0
 10
78.09002006544864
 20
148.4276395521309
 30
0.0
 10
78.21827866400031
 20
148.3659815713168
 30
0.0
 10
78.35007725130032
 20
148.3133958720793
 30
0.0
 10
78.48078821389975
 20
148.2709762523498
 30
0.0
 10
78.608277406904
 20
148.2378602662133
 30
0.0
 10
78.73188888279156
 20
148.2127379090753
 30
0.0
 10
78.85370950311267
 20
148.1941949684758
 30
0.0
 10
78.98728328145825
 20
148.1799976887472
 30
0.0
 10
79.13031291726674
 20
148.1713587512222
 30
0.0
 10
79.22651212911586
 20
148.1704926543441
 30
0.0
 10
79.27479756058819
 20
148.1700579328877
 30
0.0
  0
ARC
  5
E00ED0E0
330
E00DEA5D
100
AcDbEntity
  8
0
  6
SLD-実線
 62
     7
370
    15
100
AcDbCircle
 10
78.80570692342354
 20
150.1700579328616
 30
0.0
 40
2.0
100
AcDbArc
 50
179.9999999998527
 51
269.9999999998534
  0
LINE
  5
E00ED0E1
330
E00DEA5D
100
AcDbEntity
  8
JISSEN
100
AcDbLine
 10
78.80570692341843
 20
148.1700579328616
 30
0.0
 11
79.27479756062002
 21
148.1700579328604
 31
0.0
  0
LINE
  5
E00ED0E2
330
E00DEA5D
100
AcDbEntity
  8
JISSEN
100
AcDbLine
 10
79.83325722762095
 20
148.670057932859
 30
0.0
 11
79.27479756062132
 21
148.6700579328604
 31
0.0
  0
LINE
  5
E00ED0E3
330
E00DEA5D
100
AcDbEntity
  8
JISSEN
100
AcDbLine
 10
79.27479756062002
 20
148.1700579328604
 30
0.0
 11
79.83325722761964
 21
148.170057932859
 31
0.0
  0
ARC
  5
E00ED0E4
330
E00DEA5D
100
AcDbEntity
  8
JISSEN
100
AcDbCircle
 10
77.65570692347296
 20
157.5700579327475
 30
0.0
 40
0.1999999999999957
100
AcDbArc
 50
180.0
 51
270.0
  0
LINE
  5
E00ED0E5
330
E00DEA5D
100
AcDbEntity
  8
0
  6
SLD-実線
 62
     7
370
    15
100
AcDbLine
 10
86.35909054166967
 20
148.1700579328422
 30
0.0
 11
90.05570692341843
 21
148.1700579328327
 31
0.0
  0
LINE
  5
E00ED0E6
330
E00DEA5D
100
AcDbEntity
  8
JISSEN
100
AcDbLine
 10
90.05570692341661
 20
147.4700605180552
 30
0.0
 11
86.05570692342025
 21
147.47006051806
 31
0.0
  0
LINE
  5
E00ED0E7
330
E00DEA5D
100
AcDbEntity
  8
JISSEN
 62
     0
100
AcDbLine
 10
87.52743428992454
 20
150.1700579328392
 30
0.0
 11
87.52743428993097
 21
152.6700579328392
 31
0.0
  0
LINE
  5
E00ED0E8
330
E00DEA5D
100
AcDbEntity
  8
0
  6
SLD-実線
 62
     7
370
    15
100
AcDbLine
 10
86.84097624870593
 20
148.6700579328391
 30
0.0
 11
85.51161464647123
 21
148.6700579328443
 31
0.0
  0
LINE
  5
E00ED0E9
330
E00DEA5D
100
AcDbEntity
  8
0
  6
SLD-実線
 62
     7
370
    15
100
AcDbLine
 10
85.51161464646993
 20
148.1700579328444
 30
0.0
 11
86.35909054166967
 21
148.1700579328422
 31
0.0
  0
LINE
  5
E00ED0EA
330
E00DEA5D
100
AcDbEntity
  8
JISSEN
100
AcDbLine
 10
87.52743428992818
 20
151.57005788839
 30
0.0
 11
84.1385496358942
 21
151.5700578884005
 31
0.0
  0
LINE
  5
E00ED0EB
330
E00DEA5D
100
AcDbEntity
  8
JISSEN
100
AcDbLine
 10
84.95570692341988
 20
148.870057888394
 30
0.0
 11
84.95570692342472
 21
150.7700578883937
 31
0.0
  0
ARC
  5
E00ED0EC
330
E00DEA5D
100
AcDbEntity
  8
JISSEN
100
AcDbCircle
 10
84.75570692342097
 20
148.8700578883946
 30
0.0
 40
0.1999999999999957
100
AcDbArc
 50
269.9999999998534
 51
359.9999999998527
  0
ARC
  5
E00ED0ED
330
E00DEA5D
100
AcDbEntity
  8
JISSEN
100
AcDbCircle
 10
84.13854963589523
 20
151.2700578884194
 30
0.0
 40
0.3
100
AcDbArc
 50
89.99999999969386
 51
134.99999999942
  0
LINE
  5
E00ED0EE
330
E00DEA5D
100
AcDbEntity
  8
JISSEN
100
AcDbLine
 10
85.75570692342063
 20
151.5700578883964
 30
0.0
 11
87.30570693833199
 21
151.5700578883906
 31
0.0
  0
SPLINE
  5
E00ED0EF
330
E00DEA5D
100
AcDbEntity
  8
0
  6
SLD-実線
 62
     7
370
    15
100
AcDbSpline
210
0.0
220
0.0
230
1.0
 70
     8
 71
     3
 72
    19
 73
    15
 74
     0
 42
0.0000000001
 43
0.0000000001
 40
0.0
 40
0.0
 40
0.0
 40
0.0
 40
0.0922783438489566
 40
0.1866039155398348
 40
0.2692802171638267
 40
0.3542290249012388
 40
0.4369760660769558
 40
0.5224090085026722
 40
0.6011174716426585
 40
0.6818052717131553
 40
0.7666490704745401
 40
0.853590616102161
 40
0.9261751045894824
 40
1.0
 40
1.0
 40
1.0
 40
1.0
 10
86.84097624870373
 20
148.1700579328682
 30
0.0
 10
86.91512050722502
 20
148.1712196546232
 30
0.0
 10
87.06505394098456
 20
148.1735688713411
 30
0.0
 10
87.23933469712779
 20
148.2031753538822
 30
0.0
 10
87.37537470701539
 20
148.2631959095531
 30
0.0
 10
87.47070033885819
 20
148.3569525072657
 30
0.0
 10
87.53296987108212
 20
148.4922938421316
 30
0.0
 10
87.56396646008084
 20
148.6637837684376
 30
0.0
 10
87.57255149253991
 20
148.8681131387894
 30
0.0
 10
87.56675623652956
 20
149.1002154847284
 30
0.0
 10
87.55296391893313
 20
149.3644302541181
 30
0.0
 10
87.53900984812782
 20
149.6381791201458
 30
0.0
 10
87.5292874242433
 20
149.9095107169435
 30
0.0
 10
87.52805548045632
 20
150.0827197082019
 30
0.0
 10
87.52743428993728
 20
150.1700579328665
 30
0.0
  0
SPLINE
  5
E00ED0F0
330
E00DEA5D
100
AcDbEntity
  8
JISSEN
 62
     0
100
AcDbSpline
210
0.0
220
0.0
230
1.0
 70
     8
 71
     3
 72
    15
 73
    11
 74
     0
 42
0.0000000001
 43
0.0000000001
 40
0.0
 40
0.0
 40
0.0
 40
0.0
 40
0.0659206332703618
 40
0.1898819739778078
 40
0.3177198498248165
 40
0.4373250071360384
 40
0.5600878195456405
 40
0.7141706950797873
 40
0.8726804546925864
 40
1.0
 40
1.0
 40
1.0
 40
1.0
 10
87.55282111642515
 20
149.368459488149
 30
0.0
 10
87.55048519055753
 20
149.3331981584726
 30
0.0
 10
87.54375664150046
 20
149.2316291875451
 30
0.0
 10
87.5188587340915
 20
149.0885135089104
 30
0.0
 10
87.47407470291852
 20
148.9464613935946
 30
0.0
 10
87.40802129716128
 20
148.8376427313056
 30
0.0
 10
87.31426509212615
 20
148.7532900101695
 30
0.0
 10
87.18201364332589
 20
148.6976639288871
 30
0.0
 10
87.02012062197139
 20
148.6728439208015
 30
0.0
 10
86.89618293785917
 20
148.6709164871572
 30
0.0
 10
86.84097624870503
 20
148.6700579328682
 30
0.0
  0
LINE
  5
E00ED0F1
330
E00DEA5D
100
AcDbEntity
  8
JISSEN
370
    -2
100
AcDbLine
 10
84.50570703826201
 20
157.370057932785
 30
0.0
 11
84.5057070382403
 21
154.1700579328469
 31
0.0
  0
LINE
  5
E00ED0F2
330
E00DEA5D
100
AcDbEntity
  8
JISSEN
 62
     0
100
AcDbLine
 10
92.58397955697523
 20
150.1700579328327
 30
0.0
 11
92.58397955697523
 21
152.6700579328327
 31
0.0
  0
LINE
  5
E00ED0F3
330
E00DEA5D
100
AcDbEntity
  8
JISSEN
100
AcDbLine
 10
92.58397955697523
 20
151.5700578883835
 30
0.0
 11
95.97286421100921
 21
151.5700578883853
 31
0.0
  0
SPLINE
  5
E00ED0F4
330
E00DEA5D
100
AcDbEntity
  8
JISSEN
 62
     0
100
AcDbSpline
210
0.0
220
0.0
230
1.0
 70
     8
 71
     3
 72
    15
 73
    11
 74
     0
 42
0.0000000001
 43
0.0000000001
 40
0.0
 40
0.0
 40
0.0
 40
0.0
 40
0.0659206332703618
 40
0.1898819739778078
 40
0.3177198498248165
 40
0.4373250071360384
 40
0.5600878195456405
 40
0.7141706950797873
 40
0.8726804546925864
 40
1.0
 40
1.0
 40
1.0
 40
1.0
 10
92.55859273047258
 20
149.3684594881425
 30
0.0
 10
92.56092865634014
 20
149.3331981584661
 30
0.0
 10
92.56765720539693
 20
149.2316291875387
 30
0.0
 10
92.59255511280548
 20
149.0885135089039
 30
0.0
 10
92.63733914397812
 20
148.946461393588
 30
0.0
 10
92.7033925497351
 20
148.8376427312988
 30
0.0
 10
92.79714875476997
 20
148.7532900101624
 30
0.0
 10
92.92940020357013
 20
148.6976639288797
 30
0.0
 10
93.09129322492458
 20
148.6728439207937
 30
0.0
 10
93.2152309090368
 20
148.6709164871491
 30
0.0
 10
93.27043759819094
 20
148.67005793286
 30
0.0
  0
SPLINE
  5
E00ED0F5
330
E00DEA5D
100
AcDbEntity
  8
0
  6
SLD-実線
 62
     7
370
    15
100
AcDbSpline
210
0.0
220
0.0
230
1.0
 70
     8
 71
     3
 72
    19
 73
    15
 74
     0
 42
0.0000000001
 43
0.0000000001
 40
0.0
 40
0.0
 40
0.0
 40
0.0
 40
0.0922783438489566
 40
0.1866039155398348
 40
0.2692802171638267
 40
0.3542290249012388
 40
0.4369760660769558
 40
0.5224090085026722
 40
0.6011174716426585
 40
0.6818052717131553
 40
0.7666490704745401
 40
0.853590616102161
 40
0.9261751045894824
 40
1.0
 40
1.0
 40
1.0
 40
1.0
 10
93.27043759819094
 20
148.17005793286
 30
0.0
 10
93.19629333966963
 20
148.1712196546151
 30
0.0
 10
93.04635990591009
 20
148.1735688713334
 30
0.0
 10
92.87207914976693
 20
148.203175353875
 30
0.0
 10
92.73603913987949
 20
148.2631959095462
 30
0.0
 10
92.64071350803693
 20
148.356952507259
 30
0.0
 10
92.57844397581335
 20
148.4922938421251
 30
0.0
 10
92.54744738681507
 20
148.6637837684312
 30
0.0
 10
92.53886235435652
 20
148.868113138783
 30
0.0
 10
92.54465761036749
 20
149.100215484722
 30
0.0
 10
92.55844992796459
 20
149.3644302541116
 30
0.0
 10
92.5724039987706
 20
149.6381791201393
 30
0.0
 10
92.58212642265585
 20
149.909510716937
 30
0.0
 10
92.58335836644324
 20
150.0827197081954
 30
0.0
 10
92.58397955696251
 20
150.1700579328599
 30
0.0
  0
LINE
  5
E00ED0F6
330
E00DEA5D
100
AcDbEntity
  8
JISSEN
100
AcDbLine
 10
90.05570692347623
 20
147.4700605180552
 30
0.0
 11
94.05570692347259
 21
147.4700605180497
 31
0.0
  0
LINE
  5
E00ED0F7
330
E00DEA5D
100
AcDbEntity
  8
0
  6
SLD-実線
 62
     7
370
    15
100
AcDbLine
 10
93.75232330522498
 20
148.1700579328327
 30
0.0
 11
90.05570692347623
 21
148.1700579328327
 31
0.0
  0
LINE
  5
E00ED0F8
330
E00DEA5D
100
AcDbEntity
  8
JISSEN
100
AcDbLine
 10
94.35570692348278
 20
151.5700578883853
 30
0.0
 11
92.80570690857144
 21
151.5700578883835
 31
0.0
  0
ARC
  5
E00ED0F9
330
E00DEA5D
100
AcDbEntity
  8
JISSEN
100
AcDbCircle
 10
95.35570692347551
 20
148.8700578883809
 30
0.0
 40
0.1999999999999957
100
AcDbArc
 50
180.0
 51
270.0
  0
LINE
  5
E00ED0FA
330
E00DEA5D
100
AcDbEntity
  8
0
  6
SLD-実線
 62
     7
370
    15
100
AcDbLine
 10
94.59979920042474
 20
148.1700579328327
 30
0.0
 11
93.75232330522498
 21
148.1700579328327
 31
0.0
  0
LINE
  5
E00ED0FB
330
E00DEA5D
100
AcDbEntity
  8
0
  6
SLD-実線
 62
     7
370
    15
100
AcDbLine
 10
93.27043759819003
 20
148.6700579328308
 30
0.0
 11
94.59979920042474
 21
148.6700579328327
 31
0.0
  0
LINE
  5
E00ED0FC
330
E00DEA5D
100
AcDbEntity
  8
JISSEN
100
AcDbLine
 10
95.1557069234766
 20
148.8700578883809
 30
0.0
 11
95.1557069234766
 21
150.7700578883806
 31
0.0
  0
LINE
  5
E00ED0FD
330
E00DEA5D
100
AcDbEntity
  8
JISSEN
370
    -2
100
AcDbLine
 10
95.6057068087764
 20
157.3700579327486
 30
0.0
 11
95.60570680877635
 21
154.1700579328327
 31
0.0
  0
ARC
  5
E00ED0FE
330
E00DEA5D
100
AcDbEntity
  8
JISSEN
370
    -2
100
AcDbCircle
 10
83.74124272487529
 20
173.0355650324471
 30
0.0
 40
1.648956901138485
100
AcDbArc
 50
83.20607180967952
 51
175.2210394254884
  0
ARC
  5
E00ED0FF
330
E00DEA5D
100
AcDbEntity
  8
JISSEN
370
    -2
100
AcDbCircle
 10
83.73370186817533
 20
173.301079018949
 30
0.0
 40
1.640694770587604
100
AcDbArc
 50
184.4792906218895
 51
277.0935981429854
  0
LINE
  5
E00ED100
330
E00DEA5D
100
AcDbEntity
  8
JISSEN
100
AcDbLine
 10
75.70570692347587
 20
158.1700579328334
 30
0.0
 11
90.05570692347623
 21
158.1700579328334
 31
0.0
  0
LINE
  5
E00ED101
330
E00DEA5D
100
AcDbEntity
  8
JISSEN
100
AcDbLine
 10
75.10570692343094
 20
170.6700579327861
 30
0.0
 11
90.05570692347623
 21
170.6700579327078
 31
0.0
  0
LINE
  5
E00ED102
330
E00DEA5D
100
AcDbEntity
  8
JISSEN
100
AcDbLine
 10
75.10570692343185
 20
170.6700579327861
 30
0.0
 11
90.05570692347623
 21
170.6700579327078
 31
0.0
  0
LINE
  5
E00ED104
330
E00DEA5D
100
AcDbEntity
  8
JISSEN
100
AcDbLine
 10
75.40570692347478
 20
167.6700579327096
 30
0.0
 11
75.10570692347551
 21
170.1133618611037
 31
0.0
  0
LINE
  5
E00ED105
330
E00DEA5D
100
AcDbEntity
  8
JISSEN
100
AcDbLine
 10
73.55570692347623
 20
161.1280599728321
 30
0.0
 11
73.55570692347623
 21
172.4229012119336
 31
0.0
  0
LINE
  5
E00ED106
330
E00DEA5D
100
AcDbEntity
  8
JISSEN
100
AcDbLine
 10
75.05570692347624
 20
171.9229012119336
 30
0.0
 11
75.05570692347624
 21
160.9229012119338
 31
0.0
  0
LINE
  5
E00ED107
330
E00DEA5D
100
AcDbEntity
  8
JISSEN
100
AcDbLine
 10
77.45570692347314
 20
157.9229012119338
 30
0.0
 11
73.31874417187624
 21
157.9229012119338
 31
0.0
  0
LINE
  5
E00ED108
330
E00DEA5D
100
AcDbEntity
  8
JISSEN
100
AcDbLine
 10
74.95570692347587
 20
160.9229012119338
 30
0.0
 11
74.8130362190766
 21
159.2921675977321
 31
0.0
  0
ARC
  5
E00ED109
330
E00DEA5D
100
AcDbEntity
  8
JISSEN
100
AcDbCircle
 10
73.45421266727567
 20
159.4167714495323
 30
0.0
 40
1.499999999999995
100
AcDbArc
 50
261.9999999999564
 51
264.8184245309434
  0
ARC
  5
E00ED10A
330
E00DEA5D
100
AcDbEntity
  8
JISSEN
100
AcDbCircle
 10
72.05570692347532
 20
161.1280599728321
 30
0.0
 40
1.5
100
AcDbArc
 50
261.9999999999564
 51
0.000000000000007
  0
LINE
  5
E00ED10B
330
E00DEA5D
100
AcDbEntity
  8
JISSEN
100
AcDbLine
 10
75.40570692347478
 20
161.6700579327097
 30
0.0
 11
75.10570692347551
 21
164.1133618611037
 31
0.0
  0
LINE
  5
E00ED10C
330
E00DEA5D
100
AcDbEntity
  8
JISSEN
100
AcDbLine
 10
75.05570692347624
 20
160.9229012119338
 30
0.0
 11
74.95570692347587
 21
160.9229012119338
 31
0.0
  0
ARC
  5
E00ED10D
330
E00DEA5D
100
AcDbEntity
  8
JISSEN
100
AcDbCircle
 10
77.65570692347296
 20
157.9700579327453
 30
0.0
 40
0.200000000000017
100
AcDbArc
 50
90.0
 51
180.0
  0
LINE
  5
E00ED10E
330
E00DEA5D
100
AcDbEntity
  8
JISSEN
100
AcDbLine
 10
77.35570692347369
 20
158.1700579327424
 30
0.0
 11
77.75570692347696
 21
158.1700579327461
 31
0.0
  0
LINE
  5
E00ED10F
330
E00DEA5D
100
AcDbEntity
  8
JISSEN
100
AcDbLine
 10
75.40570692347478
 20
159.2896731751078
 30
0.0
 11
75.40570692347387
 21
161.6700579327097
 31
0.0
  0
LINE
  5
E00ED110
330
E00DEA5D
100
AcDbEntity
  8
JISSEN
100
AcDbLine
 10
75.10570692347551
 20
167.6700579327096
 30
0.0
 11
75.40570692347478
 21
167.6700579327096
 31
0.0
  0
LINE
  5
E00ED111
330
E00DEA5D
100
AcDbEntity
  8
JISSEN
100
AcDbLine
 10
75.10570692347551
 20
164.1133618611037
 30
0.0
 11
75.10570692347551
 21
164.6700579327097
 31
0.0
  0
LINE
  5
E00ED112
330
E00DEA5D
100
AcDbEntity
  8
JISSEN
100
AcDbLine
 10
75.10570692347551
 20
164.6700579327097
 30
0.0
 11
75.40570692347478
 21
164.6700579327097
 31
0.0
  0
LINE
  5
E00ED113
330
E00DEA5D
100
AcDbEntity
  8
JISSEN
100
AcDbLine
 10
75.40570692347478
 20
164.6700579327097
 30
0.0
 11
75.10570692347551
 21
167.1133618611037
 31
0.0
  0
LINE
  5
E00ED114
330
E00DEA5D
100
AcDbEntity
  8
JISSEN
100
AcDbLine
 10
74.55570692347624
 20
172.4229012119336
 30
0.0
 11
75.05570692347624
 21
171.9229012119336
 31
0.0
  0
LINE
  5
E00ED115
330
E00DEA5D
100
AcDbEntity
  8
JISSEN
100
AcDbLine
 10
73.55570692347623
 20
172.4229012119336
 30
0.0
 11
75.40570692347569
 21
172.4229012119336
 31
0.0
  0
LINE
  5
E00ED118
330
E00DEA5D
100
AcDbEntity
  8
JISSEN
100
AcDbLine
 10
75.40570692347569
 20
170.6700579327824
 30
0.0
 11
75.40570692347569
 21
177.1729015472391
 31
0.0
  0
LINE
  5
E00ED119
330
E00DEA5D
100
AcDbEntity
  8
JISSEN
100
AcDbLine
 10
75.10570692347551
 20
170.6700579327097
 30
0.0
 11
75.40570692347569
 21
170.6700579327097
 31
0.0
  0
LINE
  5
E00ED11A
330
E00DEA5D
100
AcDbEntity
  8
SAISEN
100
AcDbLine
 10
75.90570692347569
 20
176.1729015341387
 30
0.0
 11
75.9057069234766
 21
177.1729015472354
 31
0.0
  0
LINE
  5
E00ED11B
330
E00DEA5D
100
AcDbEntity
  8
JISSEN
100
AcDbLine
 10
75.40570692347569
 20
176.1729015341351
 30
0.0
 11
75.90570692347569
 21
176.1729015341351
 31
0.0
  0
LINE
  5
E00ED11D
330
E00DEA5D
100
AcDbEntity
  8
JISSEN
370
    -2
100
AcDbLine
 10
83.93631224867453
 20
174.6729430409485
 30
0.0
 11
90.05570692347623
 21
174.6729430409485
 31
0.0
  0
LINE
  5
E00ED11E
330
E00DEA5D
100
AcDbEntity
  8
JISSEN
370
    -2
100
AcDbLine
 10
83.93631224867453
 20
171.6729425492502
 30
0.0
 11
90.05570692347623
 21
171.6729425492502
 31
0.0
  0
SPLINE
  5
E00ED11F
330
E00DEA5D
100
AcDbEntity
  8
JISSEN
370
    -2
100
AcDbSpline
210
0.0
220
0.0
230
1.0
 70
    12
 71
     3
 72
    14
 73
    10
 74
     0
 42
0.0000000001
 43
0.0000000001
 40
0.0
 40
0.0
 40
0.0
 40
0.0
 40
0.2170493941225676
 40
0.4388311995732112
 40
0.5988137766302898
 40
0.7597871991591737
 40
0.8750649674182215
 40
0.9755548291618868
 40
1.0
 40
1.0
 40
1.0
 40
1.0
 10
86.51525155983177
 20
174.6729430409885
 30
0.0
 41
1.0
 10
86.27488907014935
 20
174.6669774894161
 30
0.0
 41
1.0
 10
85.78892337507637
 20
174.6549163170583
 30
0.0
 41
1.0
 10
85.1482917878809
 20
174.5257268266158
 30
0.0
 41
1.0
 10
84.61135698918928
 20
174.2898037690773
 30
0.0
 41
1.0
 10
84.23954941235455
 20
173.9837434604395
 30
0.0
 41
1.0
 10
84.01776653517822
 20
173.618863223828
 30
0.0
 41
1.0
 10
83.95104717987193
 20
173.3452799664354
 30
0.0
 41
1.0
 10
83.94765927001367
 20
173.2011447355233
 30
0.0
 41
1.0
 10
83.94699638120142
 20
173.1729427951194
 30
0.0
 41
1.0
  0
SPLINE
  5
E00ED120
330
E00DEA5D
100
AcDbEntity
  8
JISSEN
370
    -2
100
AcDbSpline
210
0.0
220
0.0
230
1.0
 70
    12
 71
     3
 72
    14
 73
    10
 74
     0
 42
0.0000000001
 43
0.0000000001
 40
0.0
 40
0.0
 40
0.0
 40
0.0
 40
0.1088769686984931
 40
0.2172663573285982
 40
0.3685706574444105
 40
0.4825742753969225
 40
0.5996174274824865
 40
0.7976149977365948
 40
1.0
 40
1.0
 40
1.0
 40
1.0
 10
83.94699638120142
 20
173.1729427951194
 30
0.0
 41
1.0
 10
83.9596896716173
 20
173.0466618088956
 30
0.0
 41
1.0
 10
83.98501940851179
 20
172.7946653563466
 30
0.0
 41
1.0
 10
84.19231819647007
 20
172.4247788701922
 30
0.0
 41
1.0
 10
84.49314703953746
 20
172.1427342194746
 30
0.0
 41
1.0
 10
84.85509007960695
 20
171.9430958263345
 30
0.0
 41
1.0
 10
85.29152500924897
 20
171.7884492679785
 30
0.0
 41
1.0
 10
85.8474402954423
 20
171.6883899878356
 30
0.0
 41
1.0
 10
86.29102751409732
 20
171.678129175112
 30
0.0
 41
1.0
 10
86.51525155983177
 20
171.6729425492502
 30
0.0
 41
1.0
  0
ARC
  5
E00ED121
330
E00DEA5D
100
AcDbEntity
  8
JISSEN
100
AcDbCircle
 10
106.7926696750771
 20
159.4229012119338
 30
0.0
 40
1.5
100
AcDbArc
 50
185.0000000000782
 51
270.0
  0
LINE
  5
E00ED122
330
E00DEA5D
100
AcDbEntity
  8
JISSEN
100
AcDbLine
 10
102.6557069234793
 20
157.9700579327453
 30
0.0
 11
102.6557069234793
 21
157.5700579327475
 31
0.0
  0
ARC
  5
E00ED123
330
E00DEA5D
100
AcDbEntity
  8
0
  6
SLD-実線
 62
     7
370
    15
100
AcDbCircle
 10
101.3057069234762
 20
150.1700579328327
 30
0.0
 40
2.0
100
AcDbArc
 50
270.0
 51
0.0
  0
LINE
  5
E00ED124
330
E00DEA5D
100
AcDbEntity
  8
0
  6
SLD-実線
 62
     7
370
    15
100
AcDbLine
 10
102.5610453317747
 20
150.1700579328327
 30
0.0
 11
102.5610453317747
 21
152.6700579328327
 31
0.0
  0
LINE
  5
E00ED125
330
E00DEA5D
100
AcDbEntity
  8
0
  6
SLD-実線
 62
     7
370
    15
100
AcDbLine
 10
103.0622567154748
 20
152.6700579328327
 30
0.0
 11
103.0622567154748
 21
150.1700579328327
 31
0.0
  0
LINE
  5
E00ED126
330
E00DEA5D
100
AcDbEntity
  8
JISSEN
100
AcDbLine
 10
100.8366162862746
 20
148.1700579328327
 30
0.0
 11
100.278156619275
 21
148.1700579328327
 31
0.0
  0
LINE
  5
E00ED127
330
E00DEA5D
100
AcDbEntity
  8
JISSEN
100
AcDbLine
 10
100.278156619275
 20
148.6700579328327
 30
0.0
 11
100.8366162862746
 21
148.6700579328327
 31
0.0
  0
LINE
  5
E00ED128
330
E00DEA5D
100
AcDbEntity
  8
JISSEN
100
AcDbLine
 10
101.3057069234762
 20
148.1700579328327
 30
0.0
 11
100.8366162862746
 21
148.1700579328327
 31
0.0
  0
SPLINE
  5
E00ED129
330
E00DEA5D
100
AcDbEntity
  8
0
  6
SLD-実線
 62
     7
370
    15
100
AcDbSpline
210
0.0
220
0.0
230
1.0
 70
     8
 71
     3
 72
    29
 73
    25
 74
     0
 42
0.0000000001
 43
0.0000000001
 40
0.0
 40
0.0
 40
0.0
 40
0.0
 40
0.0463693095164601
 40
0.0930564132881835
 40
0.1407459822675587
 40
0.1887832760155378
 40
0.2351668560695527
 40
0.281879692522319
 40
0.3296579782434866
 40
0.3778243583948085
 40
0.4228021779815779
 40
0.4681422006903605
 40
0.5146836044491538
 40
0.561671973579994
 40
0.6023247428840694
 40
0.6432870830207374
 40
0.68520686023583
 40
0.7274487755550413
 40
0.7669770662174202
 40
0.8067392388443048
 40
0.8471692827050581
 40
0.8878051013891491
 40
0.9436858266902781
 40
1.0
 40
1.0
 40
1.0
 40
1.0
 10
103.0622567154594
 20
150.1700579328599
 30
0.0
 10
103.0609740996485
 20
150.1151860121091
 30
0.0
 10
103.0584000775595
 20
150.0050661033047
 30
0.0
 10
103.0373972304575
 20
149.8396432041873
 30
0.0
 10
103.0033502457606
 20
149.674580922846
 30
0.0
 10
102.9552994085277
 20
149.5134101843697
 30
0.0
 10
102.8943224491383
 20
149.3579848545806
 30
0.0
 10
102.8205827366762
 20
149.2084994620373
 30
0.0
 10
102.7330729918201
 20
149.0640710968665
 30
0.0
 10
102.6342682471165
 20
148.9295350464955
 30
0.0
 10
102.5260948014335
 20
148.8062158056665
 30
0.0
 10
102.4094038730406
 20
148.693811589229
 30
0.0
 10
102.2820259599991
 20
148.5904539333233
 30
0.0
 10
102.1515381188762
 20
148.50188320685
 30
0.0
 10
102.0213937814467
 20
148.4276395521002
 30
0.0
 10
101.8931351828948
 20
148.3659815712863
 30
0.0
 10
101.7613365955946
 20
148.3133958720492
 30
0.0
 10
101.6306256329951
 20
148.2709762523201
 30
0.0
 10
101.5031364399908
 20
148.2378602661839
 30
0.0
 10
101.3795249641032
 20
148.2127379090462
 30
0.0
 10
101.257704343782
 20
148.194194968447
 30
0.0
 10
101.1241305654364
 20
148.1799976887188
 30
0.0
 10
100.9811009296279
 20
148.1713587511941
 30
0.0
 10
100.8849017177787
 20
148.1704926543162
 30
0.0
 10
100.8366162863064
 20
148.17005793286
 30
0.0
  0
SPLINE
  5
E00ED12A
330
E00DEA5D
100
AcDbEntity
  8
0
  6
SLD-実線
 62
     7
370
    15
100
AcDbSpline
210
0.0
220
0.0
230
1.0
 70
     8
 71
     3
 72
    28
 73
    24
 74
     0
 42
0.0000000001
 43
0.0000000001
 40
0.0
 40
0.0
 40
0.0
 40
0.0
 40
0.0522610535988776
 40
0.1047398940120094
 40
0.1579696651708924
 40
0.211506227269888
 40
0.2571506177901186
 40
0.3030542834293318
 40
0.3498514086234424
 40
0.3969993247428615
 40
0.4426588851345469
 40
0.4886947291385182
 40
0.5359544676574553
 40
0.5836536500263239
 40
0.6251043233807513
 40
0.6668451353021764
 40
0.7094797461544916
 40
0.7524163467950467
 40
0.7942898451489305
 40
0.8364367948912803
 40
0.8794297466635674
 40
0.9227099776835272
 40
1.0
 40
1.0
 40
1.0
 40
1.0
 10
100.8366162863064
 20
148.67005793286
 30
0.0
 10
100.8711093635308
 20
148.6703588298088
 30
0.0
 10
100.9402392605341
 20
148.6709618776286
 30
0.0
 10
101.051541808091
 20
148.6771182606836
 30
0.0
 10
101.1682964575209
 20
148.6889223814624
 30
0.0
 10
101.2842199387221
 20
148.7072704471603
 30
0.0
 10
101.3972317946315
 20
148.7320884401261
 30
0.0
 10
101.5065409745263
 20
148.7630778362591
 30
0.0
 10
101.6175740028272
 20
148.8026501947507
 30
0.0
 10
101.727722759251
 20
148.8511087347425
 30
0.0
 10
101.8352344784213
 20
148.9084818288021
 30
0.0
 10
101.9394709292907
 20
148.9751056460073
 30
0.0
 10
102.040368380876
 20
149.0520834909485
 30
0.0
 10
102.1318638602858
 20
149.1354175733023
 30
0.0
 10
102.2130539281358
 20
149.222801455605
 30
0.0
 10
102.2844803826099
 20
149.3129461381569
 30
0.0
 10
102.3493277501954
 20
149.4098359839273
 30
0.0
 10
102.4061906480826
 20
149.5119002344609
 30
0.0
 10
102.4544548696119
 20
149.6178593071191
 30
0.0
 10
102.4942083232215
 20
149.7274030065992
 30
0.0
 10
102.5251314482354
 20
149.841052044495
 30
0.0
 10
102.553729563139
 20
149.9885198458188
 30
0.0
 10
102.5581875781242
 20
150.099143835766
 30
0.0
 10
102.5610453317419
 20
150.1700579328599
 30
0.0
  0
ARC
  5
E00ED12B
330
E00DEA5D
100
AcDbEntity
  8
JISSEN
100
AcDbCircle
 10
102.4557069234795
 20
157.5700579327475
 30
0.0
 40
0.1999999999999957
100
AcDbArc
 50
270.0
 51
0.0
  0
LINE
  5
E00ED12C
330
E00DEA5D
100
AcDbEntity
  8
0
  6
SLD-実線
 62
     7
370
    15
100
AcDbLine
 10
103.3057069234762
 20
154.1700579328345
 30
0.0
 11
103.3057069234762
 21
150.1700579328327
 31
0.0
  0
LINE
  5
E00ED12D
330
E00DEA5D
100
AcDbEntity
  8
JISSEN
100
AcDbLine
 10
117.3738712890769
 20
160.9229012119338
 30
0.0
 11
108.2644665748755
 21
159.6426578697336
 31
0.0
  0
HATCH
  5
E00ED12E
330
E00DEA5D
100
AcDbEntity
  8
HATCH
100
AcDbHatch
 10
0.0
 20
0.0
 30
0.0
210
0.0
220
0.0
230
1.0
  2
ANSI31
 70
     0
 71
     0
 91
        1
 92
        7
 72
     1
 73
     1
 93
       14
 10
105.0557069234762
 20
171.9229012119336
 42
0.0
 10
105.5557069234764
 20
172.4229012119336
 42
0.0
 10
106.5557069234762
 20
172.4229012119341
 42
0.0
 10
106.5557069234762
 20
161.1280599728321
 42
0.4557262555289391
 10
108.2644665749176
 20
159.6426578697395
 42
0.0
 10
117.3738712890782
 20
160.9229012119338
 42
0.0
 10
122.5557069234762
 20
160.9229012119338
 42
0.0
 10
122.5557069234762
 20
160.5710627273346
 42
-0.3738846794428605
 10
122.1252934739475
 20
160.075928693045
 42
0.0
 10
106.8659608311375
 20
157.9313693463401
 42
-0.0122983169365944
 10
106.7926696749702
 20
157.9229012119338
 42
-0.3888787318578421
 10
105.2983776278634
 20
159.2921675978735
 42
0.0
 10
105.1557069234765
 20
160.9229012119336
 42
0.0
 10
105.0557069234762
 20
160.9229012119341
 42
0.0
 97
        0
 75
     0
 76
     1
 52
0.0
 41
5.0
 77
     0
 78
     1
 53
135.0
 43
61.23122280025677
 44
-1464.721826593645
 45
0.4419417382415922
 46
0.4419417382415923
 79
     0
 47
0.0183417260654637
 98
        1
 10
105.6602978394844
 20
165.9796934154829
  0
LINE
  5
E00ED12F
330
E00DEA5D
100
AcDbEntity
  8
JISSEN
100
AcDbLine
 10
106.865960831077
 20
157.9313693463317
 30
0.0
 11
122.1252934738765
 21
160.075928693035
 31
0.0
  0
LINE
  5
E00ED130
330
E00DEA5D
100
AcDbEntity
  8
JISSEN
100
AcDbLine
 10
106.5698031974768
 20
160.9229012119338
 30
0.0
 11
117.3738712890769
 21
160.9229012119338
 31
0.0
  0
LINE
  5
E00ED131
330
E00DEA5D
100
AcDbEntity
  8
JISSEN
100
AcDbLine
 10
104.7057069234776
 20
167.6700579327096
 30
0.0
 11
105.0057069234769
 21
170.1133618611037
 31
0.0
  0
LINE
  5
E00ED132
330
E00DEA5D
100
AcDbEntity
  8
JISSEN
100
AcDbLine
 10
105.0557069234762
 20
171.9229012119336
 30
0.0
 11
105.0557069234762
 21
160.9229012119338
 31
0.0
  0
LINE
  5
E00ED133
330
E00DEA5D
100
AcDbEntity
  8
JISSEN
100
AcDbLine
 10
106.5557069234762
 20
161.1280599728321
 30
0.0
 11
106.5557069234762
 21
172.4229012119336
 31
0.0
  0
LINE
  5
E00ED134
330
E00DEA5D
100
AcDbEntity
  8
JISSEN
100
AcDbLine
 10
102.6557069234793
 20
157.9229012119338
 30
0.0
 11
106.7926696750762
 21
157.9229012119338
 31
0.0
  0
LINE
  5
E00ED135
330
E00DEA5D
100
AcDbEntity
  8
JISSEN
100
AcDbLine
 10
102.7557069234787
 20
158.1700579327424
 30
0.0
 11
102.3557069234755
 21
158.1700579327461
 31
0.0
  0
ARC
  5
E00ED136
330
E00DEA5D
100
AcDbEntity
  8
JISSEN
100
AcDbCircle
 10
102.4557069234795
 20
157.9700579327453
 30
0.0
 40
0.200000000000017
100
AcDbArc
 50
0.0
 51
90.0
  0
LINE
  5
E00ED137
330
E00DEA5D
100
AcDbEntity
  8
JISSEN
100
AcDbLine
 10
104.7057069234776
 20
161.6700579327097
 30
0.0
 11
105.0057069234769
 21
164.1133618611037
 31
0.0
  0
ARC
  5
E00ED138
330
E00DEA5D
100
AcDbEntity
  8
JISSEN
100
AcDbCircle
 10
108.0557069234771
 20
161.1280599728321
 30
0.0
 40
1.5
100
AcDbArc
 50
180.0
 51
278.0000000000435
  0
LINE
  5
E00ED139
330
E00DEA5D
100
AcDbEntity
  8
JISSEN
100
AcDbLine
 10
105.0557069234762
 20
160.9229012119338
 30
0.0
 11
105.1557069234765
 21
160.9229012119338
 31
0.0
  0
LINE
  5
E00ED13A
330
E00DEA5D
100
AcDbEntity
  8
JISSEN
100
AcDbLine
 10
104.7057069234776
 20
159.2896731751078
 30
0.0
 11
104.7057069234786
 21
161.6700579327097
 31
0.0
  0
LINE
  5
E00ED13B
330
E00DEA5D
100
AcDbEntity
  8
JISSEN
100
AcDbLine
 10
105.1557069234765
 20
160.9229012119338
 30
0.0
 11
105.2983776278758
 21
159.2921675977321
 31
0.0
  0
ARC
  5
E00ED13C
330
E00DEA5D
100
AcDbEntity
  8
JISSEN
100
AcDbCircle
 10
106.6572011796768
 20
159.4167714495323
 30
0.0
 40
1.499999999999995
100
AcDbArc
 50
275.1815754690533
 51
278.0000000000435
  0
LINE
  5
E00ED13D
330
E00DEA5D
100
AcDbEntity
  8
JISSEN
100
AcDbLine
 10
105.0057069234769
 20
167.6700579327096
 30
0.0
 11
104.7057069234776
 21
167.6700579327096
 31
0.0
  0
LINE
  5
E00ED13E
330
E00DEA5D
100
AcDbEntity
  8
JISSEN
100
AcDbLine
 10
105.0057069234769
 20
164.6700579327097
 30
0.0
 11
104.7057069234776
 21
164.6700579327097
 31
0.0
  0
LINE
  5
E00ED13F
330
E00DEA5D
100
AcDbEntity
  8
JISSEN
100
AcDbLine
 10
105.0057069234769
 20
164.1133618611037
 30
0.0
 11
105.0057069234769
 21
164.6700579327097
 31
0.0
  0
LINE
  5
E00ED140
330
E00DEA5D
100
AcDbEntity
  8
JISSEN
100
AcDbLine
 10
104.7057069234776
 20
164.6700579327097
 30
0.0
 11
105.0057069234769
 21
167.1133618611037
 31
0.0
  0
ARC
  5
E00ED141
330
E00DEA5D
100
AcDbEntity
  8
JISSEN
370
    -2
100
AcDbCircle
 10
96.37017112207718
 20
173.0355650324471
 30
0.0
 40
1.648956901138485
100
AcDbArc
 50
4.778960574511525
 51
96.79392819032045
  0
ARC
  5
E00ED142
330
E00DEA5D
100
AcDbEntity
  8
JISSEN
370
    -2
100
AcDbCircle
 10
96.37771197877714
 20
173.301079018949
 30
0.0
 40
1.640694770587604
100
AcDbArc
 50
262.9064018570145
 51
355.5207093781104
  0
LINE
  5
E00ED143
330
E00DEA5D
100
AcDbEntity
  8
JISSEN
100
AcDbLine
 10
104.7057069234767
 20
170.6700579327824
 30
0.0
 11
104.7057069234767
 21
177.1729015472391
 31
0.0
  0
LINE
  5
E00ED144
330
E00DEA5D
100
AcDbEntity
  8
JISSEN
100
AcDbLine
 10
106.5557069234762
 20
172.4229012119336
 30
0.0
 11
104.7057069234767
 21
172.4229012119336
 31
0.0
  0
LINE
  5
E00ED145
330
E00DEA5D
100
AcDbEntity
  8
JISSEN
100
AcDbLine
 10
105.5557069234762
 20
172.4229012119336
 30
0.0
 11
105.0557069234762
 21
171.9229012119336
 31
0.0
  0
LINE
  5
E00ED146
330
E00DEA5D
100
AcDbEntity
  8
JISSEN
100
AcDbLine
 10
105.0057069234769
 20
170.6700579327097
 30
0.0
 11
104.7057069234767
 21
170.6700579327097
 31
0.0
  0
LINE
  5
E00ED148
330
E00DEA5D
100
AcDbEntity
  8
JISSEN
100
AcDbLine
 10
104.7057069234767
 20
176.1729015341351
 30
0.0
 11
104.2057069234767
 21
176.1729015341351
 31
0.0
  0
LINE
  5
E00ED149
330
E00DEA5D
100
AcDbEntity
  8
SAISEN
100
AcDbLine
 10
104.2057069234767
 20
176.1729015341387
 30
0.0
 11
104.2057069234758
 21
177.1729015472354
 31
0.0
  0
LINE
  5
E00ED14C
330
E00DEA5D
100
AcDbEntity
  8
SUNPOU
100
AcDbLine
 10
115.0557069234762
 20
170.9229012119338
 30
0.0
 11
115.0557069234762
 21
160.9229012119338
 31
0.0
  0
LINE
  5
E00ED14D
330
E00DEA5D
100
AcDbEntity
  8
JISSEN
100
AcDbLine
 10
122.5557069234762
 20
160.9229012119338
 30
0.0
 11
117.3738712890769
 21
160.9229012119338
 31
0.0
  0
LINE
  5
E00ED14E
330
E00DEA5D
100
AcDbEntity
  8
JISSEN
100
AcDbLine
 10
122.5557069234762
 20
160.5710627273346
 30
0.0
 11
122.5557069234762
 21
160.9229012119338
 31
0.0
  0
ARC
  5
E00ED14F
330
E00DEA5D
100
AcDbEntity
  8
JISSEN
100
AcDbCircle
 10
122.0557069234771
 20
160.5710627273346
 30
0.0
 40
0.5000000000000084
100
AcDbArc
 50
278.0000000000435
 51
0.0
  0
LINE
  5
E00ED150
330
E00DEA5D
100
AcDbEntity
  8
JISSEN
100
AcDbLine
 10
101.3396815196917
 20
183.6729015472336
 30
0.0
 11
90.05570692347623
 21
183.6729015472336
 31
0.0
  0
LINE
  5
E00ED152
330
E00DEA5D
100
AcDbEntity
  8
NITEN
100
AcDbLine
 10
99.05570692347623
 20
188.4729015472329
 30
0.0
 11
90.05570692347623
 21
188.4729015472329
 31
0.0
  0
LINE
  5
E00ED153
330
E00DEA5D
100
AcDbEntity
  8
JISSEN
100
AcDbLine
 10
100.3178036975766
 20
198.2108047730361
 30
0.0
 11
90.05570692347623
 21
198.2108047730361
 31
0.0
  0
LINE
  5
E00ED154
330
E00DEA5D
100
AcDbEntity
  8
JISSEN
100
AcDbLine
 10
99.05570692347623
 20
199.4729015472329
 30
0.0
 11
90.05570692347623
 21
199.4729015472329
 31
0.0
  0
LINE
  5
E00ED155
330
E00DEA5D
100
AcDbEntity
  8
NITEN
100
AcDbLine
 10
77.55570692347624
 20
188.4729015472329
 30
0.0
 11
102.5557069234762
 21
188.4729015472329
 31
0.0
  0
LINE
  5
E00ED156
330
E00DEA5D
100
AcDbEntity
  8
NITEN
100
AcDbLine
 10
77.05570692347624
 20
205.278251960968
 30
0.0
 11
77.05570692347669
 21
188.9729015472329
 31
0.0
  0
LINE
  5
E00ED157
330
E00DEA5D
100
AcDbEntity
  8
JISSEN
100
AcDbLine
 10
81.05570692347624
 20
199.4729015472329
 30
0.0
 11
90.05570692347623
 21
199.4729015472329
 31
0.0
  0
LINE
  5
E00ED159
330
E00DEA5D
100
AcDbEntity
  8
JISSEN
100
AcDbLine
 10
78.77173232726068
 20
183.6729015472336
 30
0.0
 11
90.05570692347623
 21
183.6729015472336
 31
0.0
  0
LINE
  5
E00ED15A
330
E00DEA5D
100
AcDbEntity
  8
JISSEN
100
AcDbLine
 10
79.7936101493758
 20
198.2108047730361
 30
0.0
 11
90.05570692347623
 21
198.2108047730361
 31
0.0
  0
LINE
  5
E00ED15B
330
E00DEA5D
100
AcDbEntity
  8
JISSEN
100
AcDbLine
 10
79.7936101493758
 20
198.2108047730361
 30
0.0
 11
79.33930067352571
 21
183.6729015472336
 31
0.0
  0
LINE
  5
E00ED15C
330
E00DEA5D
100
AcDbEntity
  8
SAISEN
100
AcDbLine
 10
80.55769780547938
 20
185.4729015472365
 30
0.0
 11
80.99326836685918
 21
199.4104629882748
 31
0.0
  0
LINE
  5
E00ED15D
330
E00DEA5D
100
AcDbEntity
  8
SAISEN
100
AcDbLine
 10
80.55769780547938
 20
185.4729015472402
 30
0.0
 11
80.99326836685918
 21
199.4104629882784
 31
0.0
  0
ARC
  5
E00ED160
330
E00DEA5D
100
AcDbEntity
  8
NITEN
100
AcDbCircle
 10
77.55570692347624
 20
188.9729015472329
 30
0.0
 40
0.5
100
AcDbArc
 50
180.0
 51
270.0
  0
LINE
  5
E00ED161
330
E00DEA5D
100
AcDbEntity
  8
JISSEN
100
AcDbLine
 10
81.05570692347624
 20
199.4729015472329
 30
0.0
 11
79.7936101493758
 21
198.2108047730361
 31
0.0
  0
LINE
  5
E00ED166
330
E00DEA5D
100
AcDbEntity
  8
NITEN
100
AcDbLine
 10
76.92409879564571
 20
205.6163161982366
 30
0.0
 11
70.76897575129464
 21
212.32361336776
 31
0.0
  0
ARC
  5
E00ED167
330
E00DEA5D
100
AcDbEntity
  8
NITEN
100
AcDbCircle
 10
76.55570692347578
 20
205.278251960968
 30
0.0
 40
0.5
100
AcDbArc
 50
0.0
 51
42.54184415662172
  0
ARC
  5
E00ED168
330
E00DEA5D
100
AcDbEntity
  8
NITEN
100
AcDbCircle
 10
71.05570692347578
 20
212.7332293280195
 30
0.0
 40
0.5
100
AcDbArc
 50
180.0
 51
235.0079798014511
  0
LINE
  5
E00ED169
330
E00DEA5D
100
AcDbEntity
  8
NITEN
100
AcDbLine
 10
103.0557069234766
 20
205.278251960968
 30
0.0
 11
103.0557069234762
 21
188.9729015472329
 31
0.0
  0
LINE
  5
E00ED16A
330
E00DEA5D
100
AcDbEntity
  8
SAISEN
100
AcDbLine
 10
99.55371604147309
 20
185.4729015472402
 30
0.0
 11
99.1181454800933
 21
199.4104629882784
 31
0.0
  0
LINE
  5
E00ED16B
330
E00DEA5D
100
AcDbEntity
  8
SAISEN
100
AcDbLine
 10
99.55371604147309
 20
185.4729015472365
 30
0.0
 11
99.1181454800933
 21
199.4104629882748
 31
0.0
  0
LINE
  5
E00ED16C
330
E00DEA5D
100
AcDbEntity
  8
JISSEN
100
AcDbLine
 10
100.3178036975766
 20
198.2108047730361
 30
0.0
 11
100.7721131734267
 21
183.6729015472336
 31
0.0
  0
ARC
  5
E00ED16E
330
E00DEA5D
100
AcDbEntity
  8
NITEN
100
AcDbCircle
 10
102.5557069234757
 20
188.9729015472329
 30
0.0
 40
0.5
100
AcDbArc
 50
270.0
 51
0.0
  0
LINE
  5
E00ED170
330
E00DEA5D
100
AcDbEntity
  8
JISSEN
100
AcDbLine
 10
99.05570692347623
 20
199.4729015472329
 30
0.0
 11
100.3178036975766
 21
198.2108047730361
 31
0.0
  0
LINE
  5
E00ED171
330
E00DEA5D
100
AcDbEntity
  8
NITEN
100
AcDbLine
 10
103.1873150513067
 20
205.6163161982366
 30
0.0
 11
109.3424380956578
 21
212.32361336776
 31
0.0
  0
ARC
  5
E00ED172
330
E00DEA5D
100
AcDbEntity
  8
NITEN
100
AcDbCircle
 10
103.5557069234762
 20
205.278251960968
 30
0.0
 40
0.5
100
AcDbArc
 50
137.4581558433782
 51
180.0
  0
ARC
  5
E00ED173
330
E00DEA5D
100
AcDbEntity
  8
NITEN
100
AcDbCircle
 10
109.0557069234757
 20
212.7332293280195
 30
0.0
 40
0.5
100
AcDbArc
 50
304.9920201985488
 51
0.0
  0
SPLINE
  5
E00ED174
330
E00DEA5D
100
AcDbEntity
  8
SUNPOU
100
AcDbSpline
210
0.0
220
0.0
230
1.0
 70
     8
 71
     3
 72
    11
 73
     7
 74
     5
 42
0.0000000001
 43
0.0000000001
 44
0.0000000001
 40
0.0
 40
0.0
 40
0.0
 40
0.0
 40
3.264692203133994
 40
6.15697472568029
 40
8.955271668736928
 40
10.85738683396026
 40
10.85738683396026
 40
10.85738683396026
 40
10.85738683396026
 10
147.1075750281049
 20
170.9229012119338
 30
0.0
 10
146.4324743398186
 20
169.9215022607287
 30
0.0
 10
145.1592829893205
 20
168.032935851015
 30
0.0
 10
147.4251277056648
 20
165.1815648179457
 30
0.0
 10
145.2220105391082
 20
162.5552343202048
 30
0.0
 10
146.5643647298422
 20
161.3931583470158
 30
0.0
 10
147.1075750281049
 20
160.9229012119338
 30
0.0
 11
147.1075750281049
 21
170.9229012119338
 31
0.0
 11
145.8782346505411
 21
167.8985107911556
 31
0.0
 11
146.6504181045108
 21
165.1112126543138
 31
0.0
 11
145.9211115727027
 21
162.4096246464595
 31
0.0
 11
147.1075750281049
 21
160.9229012119338
 31
0.0
  0
LINE
  5
E00ED175
330
E00DEA5D
100
AcDbEntity
  8
JISSEN
100
AcDbLine
 10
122.9999991433644
 20
257.9999996112418
 30
0.0
 11
122.9999991433644
 21
272.9999996112418
 31
0.0
  0
ELLIPSE
  5
E00ED176
330
E00DEA5D
100
AcDbEntity
  8
NITEN
100
AcDbEllipse
 10
98.55570692347624
 20
245.2768900716345
 30
0.0
 11
-8.499999999999985
 21
0.0
 31
0.0
210
0.0
220
0.0
230
1.0
 40
0.2352941176470057
 41
0.0
 42
6.283185307179586
  0
LINE
  5
E00ED177
330
E00DEA5D
100
AcDbEntity
  8
NITEN
100
AcDbLine
 10
109.0557069234762
 20
230.4729015472329
 30
0.0
 11
71.05570692347623
 21
230.4729015472329
 31
0.0
  0
LINE
  5
E00ED178
330
E00DEA5D
100
AcDbEntity
  8
NITEN
100
AcDbLine
 10
73.05570692347624
 20
230.4729015472329
 30
0.0
 11
73.05570692347624
 21
245.2768900716345
 31
0.0
  0
ARC
  5
E00ED179
330
E00DEA5D
100
AcDbEntity
  8
NITEN
100
AcDbCircle
 10
71.05570692347578
 20
229.9729015472329
 30
0.0
 40
0.5
100
AcDbArc
 50
90.0
 51
180.0
  0
ELLIPSE
  5
E00ED17A
330
E00DEA5D
100
AcDbEntity
  8
NITEN
100
AcDbEllipse
 10
81.55570692347623
 20
245.2768900716345
 30
0.0
 11
-8.5
 21
0.0
 31
0.0
210
0.0
220
0.0
230
1.0
 40
0.2352941176470588
 41
3.141592653589793
 42
6.283185307179586
  0
LINE
  5
E00ED17B
330
E00DEA5D
100
AcDbEntity
  8
NITEN
100
AcDbLine
 10
107.0557069234762
 20
230.4729015472329
 30
0.0
 11
107.0557069234762
 21
245.2768900716345
 31
0.0
  0
ARC
  5
E00ED17C
330
E00DEA5D
100
AcDbEntity
  8
NITEN
100
AcDbCircle
 10
109.0557069234757
 20
229.9729015472329
 30
0.0
 40
0.5
100
AcDbArc
 50
0.0
 51
90.0
  0
LINE
  5
E00ED17D
330
E00DEA5D
100
AcDbEntity
  8
JISSEN
100
AcDbLine
 10
132.9999987813646
 20
272.9999996112418
 30
0.0
 11
132.9999987813646
 21
257.9999996112418
 31
0.0
  0
LINE
  5
E00ED17E
330
E00DEA5D
100
AcDbEntity
  8
JISSEN
100
AcDbLine
 10
162.9999987813646
 20
272.9999996112418
 30
0.0
 11
162.9999987813646
 21
257.9999996112418
 31
0.0
  0
TEXT
  5
E00ED17F
330
E00DEA5D
100
AcDbEntity
  8
TEXT
100
AcDbText
 10
133.9495658843063
 20
263.8900031986397
 30
0.0
 40
3.0
  1
スプリンクラーヘッド
 41
0.8
  7
K
 72
     4
 11
147.9495658843063
 21
265.4900031986398
 31
0.0
100
AcDbText
  0
TEXT
  5
E00ED180
330
E00DEA5D
100
AcDbEntity
  8
TEXT
100
AcDbText
 10
127.6428562862215
 20
263.9370843995656
 30
0.0
 40
3.0
  1
1
  7
K
 72
     4
 11
127.9999991433644
 21
265.4370843995656
 31
0.0
100
AcDbText
  0
TEXT
  5
E00ED181
330
E00DEA5D
100
AcDbEntity
  8
TEXT
100
AcDbText
 10
133.8195658843063
 20
258.8900031986397
 30
0.0
 40
3.0
  1
シーリングプレート
 41
0.9
  7
K
 72
     4
 11
147.9495658843063
 21
260.4900031986397
 31
0.0
100
AcDbText
  0
TEXT
  5
E00ED182
330
E00DEA5D
100
AcDbEntity
  8
TEXT
100
AcDbText
 10
126.9999991433644
 20
258.9370843995656
 30
0.0
 40
3.0
  1
2
  7
K
 72
     4
 11
127.9999991433644
 21
260.4370843995656
 31
0.0
100
AcDbText
  0
TEXT
  5
E00ED183
330
E00DEA5D
100
AcDbEntity
  8
TEXT
100
AcDbText
 10
141.3423036052058
 20
268.9321900560242
 30
0.0
 40
3.0
  1
名　　称
  7
K
 72
     4
 11
148.1423036052058
 21
270.4321900560243
 31
0.0
100
AcDbText
  0
TEXT
  5
E00ED184
330
E00DEA5D
100
AcDbEntity
  8
TEXT
100
AcDbText
 10
124.7999987813646
 20
269.0382142997476
 30
0.0
 40
3.0
  1
番号
  7
K
 72
     4
 11
127.9999987813646
 21
270.5382142997476
 31
0.0
100
AcDbText
  0
TEXT
  5
E00ED185
330
E00DEA5D
100
AcDbEntity
  8
TEXT
100
AcDbText
 10
167.0308923750892
 20
268.9731304600626
 30
0.0
 40
3.0
  1
備　考
  7
K
 72
     4
 11
172.0308923750892
 21
270.4731304600626
 31
0.0
100
AcDbText
  0
LWPOLYLINE
  5
E00ED186
330
E00DEA5D
100
AcDbEntity
  8
WAKU
100
AcDbPolyline
 90
        4
 70
     1
 43
0.0
 10
361.9999984193648
 20
-0.000000388758167
 10
180.9999991433644
 20
-0.000000388758167
 10
180.9999991433644
 20
272.9999996112418
 10
361.9999984193648
 20
272.9999996112418
  0
LINE
  5
E00ED187
330
E00DEA5D
100
AcDbEntity
  8
JISSEN
100
AcDbLine
 39
1680.364539346804
 10
262.8529839163768
 20
31.93970635961921
 30
0.0
 11
264.1029839163777
 21
31.93970635961921
 31
0.0
  0
LINE
  5
E00ED188
330
E00DEA5D
100
AcDbEntity
  8
JISSEN
100
AcDbLine
 39
1680.364539346804
 10
280.4307061994716
 20
31.93970635961921
 30
0.0
 11
279.1807061994707
 21
31.93970635961921
 31
0.0
  0
LINE
  5
E00ED189
330
E00DEA5D
100
AcDbEntity
  8
JISSEN
100
AcDbLine
 10
287.9095756329764
 20
43.00714757997265
 30
0.0
 11
302.0956126792764
 21
45.00086506757214
 31
0.0
  0
LINE
  5
E00ED18A
330
E00DEA5D
100
AcDbEntity
  8
JISSEN
100
AcDbLine
 10
238.555706199397
 20
45.99254968317326
 30
0.0
 11
303.5557061995525
 21
45.99254968317326
 31
0.0
  0
HATCH
  5
E00ED18B
330
E00DEA5D
100
AcDbEntity
  8
SUNPOU
100
AcDbHatch
 10
0.0
 20
0.0
 30
0.0
210
0.0
220
0.0
230
1.0
  2
ANSI31
 70
     0
 71
     0
 91
        2
 92
        5
 93
        5
 72
     1
 10
271.0557061994761
 20
55.99254968317326
 11
214.0038380948485
 21
55.99254968317143
 72
     4
 94
        3
 73
     0
 74
     0
 95
       11
 96
        7
 40
0.0
 40
0.0
 40
0.0
 40
0.0
 40
3.264692203133994
 40
6.15697472568029
 40
8.955271668736928
 40
10.85738683396026
 40
10.85738683396026
 40
10.85738683396026
 40
10.85738683396026
 10
214.0038380948474
 20
55.99254968317326
 10
214.6789387831343
 20
54.99115073196698
 10
215.9521301336319
 20
53.10258432225453
 10
213.6862854172879
 20
50.25121328918466
 10
215.8894025838447
 20
47.62488279144452
 10
214.5470483931105
 20
46.46280681825408
 10
214.0038380948474
 20
45.99254968317326
 72
     1
 10
214.0038380948478
 20
45.99254968317326
 11
238.5557061994004
 21
45.99254968317326
 72
     1
 10
238.5557061994002
 20
45.99254968317326
 11
271.0557061994761
 21
45.99254968317326
 72
     1
 10
271.0557061994761
 20
45.99254968317326
 11
271.0557061994761
 21
55.99254968317508
 97
        0
 92
        5
 93
        5
 72
     4
 94
        3
 73
     0
 74
     0
 95
       11
 96
        7
 40
0.0
 40
0.0
 40
0.0
 40
0.0
 40
1.902115165223333
 40
4.700412108279971
 40
7.592694630826267
 40
10.85738683396026
 40
10.85738683396026
 40
10.85738683396026
 40
10.85738683396026
 10
328.1075743041049
 20
45.99254968317326
 10
327.5643640058426
 20
46.46280681825408
 10
326.2220098151085
 20
47.62488279144452
 10
328.4251269816652
 20
50.25121328918466
 10
326.1592822653208
 20
53.10258432225453
 10
327.4324736158189
 20
54.99115073196698
 10
328.1075743041049
 20
55.99254968317326
 72
     1
 10
328.1075743041039
 20
55.99254968317143
 11
271.0557061994766
 21
55.99254968317508
 72
     1
 10
271.0557061994761
 20
55.99254968317326
 11
271.0557061994761
 21
45.99254968317143
 72
     1
 10
271.0557061994761
 20
45.99254968317326
 11
303.555706199552
 21
45.99254968317326
 72
     1
 10
303.5557061995525
 20
45.99254968317326
 11
328.1075743041053
 21
45.99254968317326
 97
        0
 75
     0
 76
     1
 52
0.0
 41
10.0
 77
     0
 78
     1
 53
45.0
 43
185.0253222536728
 44
-2526.67050321194
 45
-0.8838834764831842
 46
0.8838834764831844
 79
     0
 47
0.0883306502300457
 98
        2
 10
256.9824992117198
 20
55.11206737111969
 10
287.116230399534
 20
50.69553387820668
  0
LINE
  5
E00ED18C
330
E00DEA5D
100
AcDbEntity
  8
SUNPOU
100
AcDbLine
 10
238.5557061994002
 20
45.99254968317326
 30
0.0
 11
214.0038380948474
 21
45.99254968317326
 31
0.0
  0
ARC
  5
E00ED18D
330
E00DEA5D
100
AcDbEntity
  8
JISSEN
100
AcDbCircle
 39
240.0520776831561
 10
264.1029839163777
 20
32.13970635961994
 30
0.0
 40
0.2000000000007276
100
AcDbArc
 50
270.0
 51
0.0
  0
ARC
  5
E00ED18E
330
E00DEA5D
100
AcDbEntity
  8
JISSEN
100
AcDbCircle
 39
240.0520776831561
 10
262.8529839163777
 20
32.13970635961994
 30
0.0
 40
0.2000000000007276
100
AcDbArc
 50
180.0
 51
270.0
  0
ARC
  5
E00ED18F
330
E00DEA5D
100
AcDbEntity
  8
JISSEN
100
AcDbCircle
 39
240.0520776831561
 10
280.4307061994707
 20
32.13970635961994
 30
0.0
 40
0.2000000000007276
100
AcDbArc
 50
270.0
 51
0.0
  0
ARC
  5
E00ED190
330
E00DEA5D
100
AcDbEntity
  8
JISSEN
100
AcDbCircle
 39
240.0520776831561
 10
279.1807061994707
 20
32.13970635961994
 30
0.0
 40
0.2000000000007276
100
AcDbArc
 50
180.0
 51
270.0
  0
LINE
  5
E00ED191
330
E00DEA5D
100
AcDbEntity
  8
JISSEN
100
AcDbLine
 10
267.2450451008246
 20
34.03970635961957
 30
0.0
 11
263.5277320735752
 21
34.03970635961957
 31
0.0
  0
LINE
  5
E00ED192
330
E00DEA5D
100
AcDbEntity
  8
JISSEN
100
AcDbLine
 10
276.9612886560755
 20
35.43970635962103
 30
0.0
 11
264.3057061994752
 21
35.43970635962103
 31
0.0
  0
LINE
  5
E00ED193
330
E00DEA5D
100
AcDbEntity
  8
JISSEN
100
AcDbLine
 10
275.9332798580746
 20
35.93970635962103
 30
0.0
 11
265.4807061994745
 21
35.93970635962103
 31
0.0
  0
LINE
  5
E00ED194
330
E00DEA5D
100
AcDbEntity
  8
JISSEN
100
AcDbLine
 10
271.0557061994761
 20
42.99254968317144
 30
0.0
 11
254.4225632853733
 21
42.99254968317144
 31
0.0
  0
LINE
  5
E00ED195
330
E00DEA5D
100
AcDbEntity
  8
JISSEN
100
AcDbLine
 10
266.262886929426
 20
32.83970635962067
 30
0.0
 11
265.3971182114748
 21
32.13970635961994
 31
0.0
  0
LINE
  5
E00ED196
330
E00DEA5D
100
AcDbEntity
  8
JISSEN
100
AcDbLine
 10
267.2450451008246
 20
32.83970635962067
 30
0.0
 11
263.5277320735752
 21
32.83970635962067
 31
0.0
  0
LINE
  5
E00ED197
330
E00DEA5D
100
AcDbEntity
  8
JISSEN
100
AcDbLine
 10
254.2018367659741
 20
43.00714757997265
 30
0.0
 11
240.015799719674
 21
45.00086506757032
 31
0.0
  0
ARC
  5
E00ED198
330
E00DEA5D
100
AcDbEntity
  8
JISSEN
100
AcDbCircle
 10
240.2941459215728
 20
46.98140120507049
 30
0.0
 40
1.999999999999996
100
AcDbArc
 50
209.6318914940852
 51
261.9999999999498
  0
LINE
  5
E00ED199
330
E00DEA5D
100
AcDbEntity
  8
JISSEN
100
AcDbLine
 10
262.7779839163761
 20
34.03970635961957
 30
0.0
 11
262.7779839163765
 21
42.99254968316962
 31
0.0
  0
LINE
  5
E00ED19A
330
E00DEA5D
100
AcDbEntity
  8
JISSEN
100
AcDbLine
 10
264.1779839163762
 20
42.99254968316962
 30
0.0
 11
264.1779839163757
 21
34.03970635961957
 31
0.0
  0
LINE
  5
E00ED19B
330
E00DEA5D
100
AcDbEntity
  8
JISSEN
100
AcDbLine
 10
264.3057061994752
 20
34.03970635961957
 30
0.0
 11
264.3057061994752
 21
35.43970635962103
 31
0.0
  0
LINE
  5
E00ED19C
330
E00DEA5D
100
AcDbEntity
  8
JISSEN
100
AcDbLine
 10
262.3689542978265
 20
34.03970635961957
 30
0.0
 11
262.0188527725752
 21
34.03970635961957
 31
0.0
  0
LINE
  5
E00ED19D
330
E00DEA5D
100
AcDbEntity
  8
JISSEN
100
AcDbLine
 10
265.3971182114748
 20
32.13970635961994
 30
0.0
 11
262.0188527725752
 21
32.13970635961994
 31
0.0
  0
LINE
  5
E00ED19E
330
E00DEA5D
100
AcDbEntity
  8
JISSEN
100
AcDbLine
 10
262.3689542978265
 20
32.83970635962067
 30
0.0
 11
262.0188527725752
 21
32.83970635962067
 31
0.0
  0
LINE
  5
E00ED19F
330
E00DEA5D
100
AcDbEntity
  8
JISSEN
100
AcDbLine
 10
262.0188527725752
 20
34.03970635961957
 30
0.0
 11
260.5188527725752
 21
34.03970635961957
 31
0.0
  0
LINE
  5
E00ED1A0
330
E00DEA5D
100
AcDbEntity
  8
JISSEN
100
AcDbLine
 10
260.5188527725752
 20
34.03970635961957
 30
0.0
 11
259.6912880445763
 21
34.03970635961957
 31
0.0
  0
LINE
  5
E00ED1A1
330
E00DEA5D
100
AcDbEntity
  8
JISSEN
100
AcDbLine
 10
260.5188527725752
 20
33.33970635962067
 30
0.0
 11
262.0188527725752
 21
33.33970635962067
 31
0.0
  0
LINE
  5
E00ED1A2
330
E00DEA5D
100
AcDbEntity
  8
JISSEN
100
AcDbLine
 10
262.0188527725752
 20
32.13970635961994
 30
0.0
 11
260.5188527725752
 21
32.13970635961994
 31
0.0
  0
LINE
  5
E00ED1A3
330
E00DEA5D
100
AcDbEntity
  8
JISSEN
100
AcDbLine
 10
260.5188527725752
 20
32.13970635961994
 30
0.0
 11
260.5188527725752
 21
32.83970635962067
 31
0.0
  0
LINE
  5
E00ED1A4
330
E00DEA5D
100
AcDbEntity
  8
JISSEN
100
AcDbLine
 10
262.0188527725752
 20
32.13970635961994
 30
0.0
 11
262.0188527725752
 21
32.83970635962067
 31
0.0
  0
LINE
  5
E00ED1A5
330
E00DEA5D
100
AcDbEntity
  8
JISSEN
100
AcDbLine
 10
260.5188527725752
 20
32.83970635962067
 30
0.0
 11
259.6912880445763
 21
32.83970635962067
 31
0.0
  0
LINE
  5
E00ED1A6
330
E00DEA5D
100
AcDbEntity
  8
JISSEN
100
AcDbLine
 10
262.0188527725752
 20
34.03970635961957
 30
0.0
 11
262.0188527725752
 21
33.33970635962067
 31
0.0
  0
LINE
  5
E00ED1A7
330
E00DEA5D
100
AcDbEntity
  8
JISSEN
100
AcDbLine
 10
260.5188527725752
 20
34.03970635961957
 30
0.0
 11
260.5188527725752
 21
33.33970635962067
 31
0.0
  0
LINE
  5
E00ED1A8
330
E00DEA5D
100
AcDbEntity
  8
JISSEN
100
AcDbLine
 10
259.6912880445763
 20
34.03970635961957
 30
0.0
 11
259.6912880445763
 21
32.83970635962067
 31
0.0
  0
LINE
  5
E00ED1A9
330
E00DEA5D
100
AcDbEntity
  8
JISSEN
100
AcDbLine
 10
262.3689542978265
 20
34.03970635961957
 30
0.0
 11
263.5277320735752
 21
34.03970635961957
 31
0.0
  0
LINE
  5
E00ED1AA
330
E00DEA5D
100
AcDbEntity
  8
JISSEN
100
AcDbLine
 10
262.3689542978265
 20
32.83970635962067
 30
0.0
 11
263.5277320735752
 21
32.83970635962067
 31
0.0
  0
LINE
  5
E00ED1AB
330
E00DEA5D
100
AcDbEntity
  8
JISSEN
100
AcDbLine
 10
263.5277320735752
 20
34.03970635961957
 30
0.0
 11
263.5277320735752
 21
32.83970635962067
 31
0.0
  0
LINE
  5
E00ED1AC
330
E00DEA5D
100
AcDbEntity
  8
JISSEN
100
AcDbLine
 10
262.3689542978265
 20
32.83970635962067
 30
0.0
 11
262.3689542978265
 21
34.03970635961957
 31
0.0
  0
LINE
  5
E00ED1AD
330
E00DEA5D
100
AcDbEntity
  8
JISSEN
100
AcDbLine
 10
265.4807061994745
 20
35.43970635962103
 30
0.0
 11
265.4807061994745
 21
35.93970635962103
 31
0.0
  0
ARC
  5
E00ED1AE
330
E00DEA5D
100
AcDbEntity
  8
JISSEN
100
AcDbCircle
 10
254.4105964173725
 20
44.49254968317325
 30
0.0
 40
1.5
100
AcDbArc
 50
261.9999999999498
 51
270.0
  0
LINE
  5
E00ED1AF
330
E00DEA5D
100
AcDbEntity
  8
JISSEN
100
AcDbLine
 10
254.4225632853733
 20
42.99254968317144
 30
0.0
 11
254.4105964173734
 21
42.99254968317144
 31
0.0
  0
LINE
  5
E00ED1B0
330
E00DEA5D
100
AcDbEntity
  8
JISSEN
100
AcDbLine
 10
281.8183497247248
 20
34.03970635961957
 30
0.0
 11
279.7279594441263
 21
34.03970635961957
 31
0.0
  0
LINE
  5
E00ED1B1
330
E00DEA5D
100
AcDbEntity
  8
JISSEN
100
AcDbLine
 10
271.0557061994761
 20
42.99254968317326
 30
0.0
 11
287.6888491135771
 21
42.99254968317326
 31
0.0
  0
LINE
  5
E00ED1B2
330
E00DEA5D
100
AcDbEntity
  8
JISSEN
100
AcDbLine
 10
278.4557061994767
 20
32.13970635961994
 30
0.0
 11
282.3565911205753
 21
32.13970635961994
 31
0.0
  0
LINE
  5
E00ED1B3
330
E00DEA5D
100
AcDbEntity
  8
JISSEN
100
AcDbLine
 10
281.8183497247248
 20
32.83970635962067
 30
0.0
 11
279.7279594441263
 21
32.83970635962067
 31
0.0
  0
LINE
  5
E00ED1B4
330
E00DEA5D
100
AcDbEntity
  8
JISSEN
100
AcDbLine
 10
279.1057061994745
 20
34.03970635961957
 30
0.0
 11
279.1057061994749
 21
42.99254968317144
 31
0.0
  0
LINE
  5
E00ED1B5
330
E00DEA5D
100
AcDbEntity
  8
JISSEN
100
AcDbLine
 10
274.3057061994757
 20
38.43970635962103
 30
0.0
 11
267.8057061994757
 21
38.43970635962103
 31
0.0
  0
LINE
  5
E00ED1B6
330
E00DEA5D
100
AcDbEntity
  8
JISSEN
100
AcDbLine
 10
267.5557061994757
 20
38.18970635962103
 30
0.0
 11
274.5557061994757
 21
38.18970635962103
 31
0.0
  0
LINE
  5
E00ED1B7
330
E00DEA5D
100
AcDbEntity
  8
JISSEN
100
AcDbLine
 10
273.1277008108247
 20
34.03970635961957
 30
0.0
 11
268.9837115881766
 21
34.03970635961957
 31
0.0
  0
LINE
  5
E00ED1B8
330
E00DEA5D
100
AcDbEntity
  8
JISSEN
100
AcDbLine
 10
275.2552315019768
 20
31.63970635961994
 30
0.0
 11
266.255706199476
 21
31.63970635961994
 31
0.0
  0
LINE
  5
E00ED1B9
330
E00DEA5D
100
AcDbEntity
  8
JISSEN
100
AcDbLine
 10
275.2552315019768
 20
32.78970635961957
 30
0.0
 11
266.255706199476
 21
32.78970635961957
 31
0.0
  0
LINE
  5
E00ED1BA
330
E00DEA5D
100
AcDbEntity
  8
JISSEN
100
AcDbLine
 10
273.1277008108247
 20
32.83970635962067
 30
0.0
 11
268.9837115881766
 21
32.83970635962067
 31
0.0
  0
LINE
  5
E00ED1BB
330
E00DEA5D
100
AcDbEntity
  8
JISSEN
100
AcDbLine
 10
268.0122929769752
 20
34.03970635961957
 30
0.0
 11
268.9837115881766
 21
34.03970635961957
 31
0.0
  0
LINE
  5
E00ED1BC
330
E00DEA5D
100
AcDbEntity
  8
JISSEN
100
AcDbLine
 10
267.2450451008246
 20
34.03970635961957
 30
0.0
 11
268.0122929769752
 21
34.03970635961957
 31
0.0
  0
LINE
  5
E00ED1BD
330
E00DEA5D
100
AcDbEntity
  8
JISSEN
100
AcDbLine
 10
266.255706199476
 20
31.63970635961994
 30
0.0
 11
266.255706199476
 21
32.78970635961957
 31
0.0
  0
LINE
  5
E00ED1BE
330
E00DEA5D
100
AcDbEntity
  8
JISSEN
100
AcDbLine
 10
268.0122929769752
 20
32.83970635962067
 30
0.0
 11
268.9837115881766
 21
32.83970635962067
 31
0.0
  0
LINE
  5
E00ED1BF
330
E00DEA5D
100
AcDbEntity
  8
JISSEN
100
AcDbLine
 10
266.4057061994756
 20
32.78970635961957
 30
0.0
 11
266.4057061994756
 21
32.83970635962067
 31
0.0
  0
LINE
  5
E00ED1C0
330
E00DEA5D
100
AcDbEntity
  8
JISSEN
100
AcDbLine
 10
267.2450451008246
 20
32.83970635962067
 30
0.0
 11
268.0122929769752
 21
32.83970635962067
 31
0.0
  0
LINE
  5
E00ED1C1
330
E00DEA5D
100
AcDbEntity
  8
JISSEN
100
AcDbLine
 10
268.9837115881766
 20
34.03970635961957
 30
0.0
 11
268.9837115881766
 21
32.83970635962067
 31
0.0
  0
LINE
  5
E00ED1C2
330
E00DEA5D
100
AcDbEntity
  8
JISSEN
100
AcDbLine
 10
267.2450451008246
 20
32.83970635962067
 30
0.0
 11
267.2450451008246
 21
34.03970635961957
 31
0.0
  0
LINE
  5
E00ED1C3
330
E00DEA5D
100
AcDbEntity
  8
JISSEN
100
AcDbLine
 10
267.5557061994752
 20
35.93970635962103
 30
0.0
 11
267.5557061994757
 21
38.18970635962103
 31
0.0
  0
LINE
  5
E00ED1C4
330
E00DEA5D
100
AcDbEntity
  8
JISSEN
100
AcDbLine
 10
267.5557061994757
 20
38.18970635962103
 30
0.0
 11
267.8057061994757
 21
38.43970635962103
 31
0.0
  0
LINE
  5
E00ED1C5
330
E00DEA5D
100
AcDbEntity
  8
JISSEN
100
AcDbLine
 10
277.8057061994752
 20
35.43970635962103
 30
0.0
 11
277.8057061994752
 21
34.03970635961957
 31
0.0
  0
LINE
  5
E00ED1C6
330
E00DEA5D
100
AcDbEntity
  8
JISSEN
100
AcDbLine
 10
278.4551672380259
 20
34.03970635961957
 30
0.0
 11
274.8663672981767
 21
34.03970635961957
 31
0.0
  0
LINE
  5
E00ED1C7
330
E00DEA5D
100
AcDbEntity
  8
JISSEN
100
AcDbLine
 10
278.4551672380259
 20
32.83970635962067
 30
0.0
 11
274.8663672981767
 21
32.83970635962067
 31
0.0
  0
LINE
  5
E00ED1C8
330
E00DEA5D
100
AcDbEntity
  8
JISSEN
100
AcDbLine
 10
273.1277008108247
 20
34.03970635961957
 30
0.0
 11
274.0991194220244
 21
34.03970635961957
 31
0.0
  0
LINE
  5
E00ED1C9
330
E00DEA5D
100
AcDbEntity
  8
JISSEN
100
AcDbLine
 10
274.0991194220244
 20
34.03970635961957
 30
0.0
 11
274.8663672981767
 21
34.03970635961957
 31
0.0
  0
LINE
  5
E00ED1CA
330
E00DEA5D
100
AcDbEntity
  8
JISSEN
100
AcDbLine
 10
273.1277008108247
 20
32.83970635962067
 30
0.0
 11
274.0991194220244
 21
32.83970635962067
 31
0.0
  0
LINE
  5
E00ED1CB
330
E00DEA5D
100
AcDbEntity
  8
JISSEN
100
AcDbLine
 10
275.7057061994767
 20
32.83970635962067
 30
0.0
 11
275.7057061994767
 21
32.78970635961957
 31
0.0
  0
LINE
  5
E00ED1CC
330
E00DEA5D
100
AcDbEntity
  8
JISSEN
100
AcDbLine
 10
275.8557061994745
 20
32.78970635961957
 30
0.0
 11
275.2552315019768
 21
32.78970635961957
 31
0.0
  0
LINE
  5
E00ED1CD
330
E00DEA5D
100
AcDbEntity
  8
JISSEN
100
AcDbLine
 10
275.8557061994745
 20
31.63970635961994
 30
0.0
 11
275.2552315019768
 21
31.63970635961994
 31
0.0
  0
LINE
  5
E00ED1CE
330
E00DEA5D
100
AcDbEntity
  8
JISSEN
100
AcDbLine
 10
275.8557061994745
 20
32.78970635961957
 30
0.0
 11
275.8557061994745
 21
31.63970635961994
 31
0.0
  0
LINE
  5
E00ED1CF
330
E00DEA5D
100
AcDbEntity
  8
JISSEN
100
AcDbLine
 10
274.0991194220244
 20
32.83970635962067
 30
0.0
 11
274.8663672981767
 21
32.83970635962067
 31
0.0
  0
LINE
  5
E00ED1D0
330
E00DEA5D
100
AcDbEntity
  8
JISSEN
100
AcDbLine
 10
273.1277008108247
 20
32.83970635962067
 30
0.0
 11
273.1277008108247
 21
34.03970635961957
 31
0.0
  0
LINE
  5
E00ED1D1
330
E00DEA5D
100
AcDbEntity
  8
JISSEN
100
AcDbLine
 10
274.8663672981767
 20
34.03970635961957
 30
0.0
 11
274.8663672981767
 21
32.83970635962067
 31
0.0
  0
LINE
  5
E00ED1D2
330
E00DEA5D
100
AcDbEntity
  8
JISSEN
100
AcDbLine
 10
278.4551672380259
 20
34.03970635961957
 30
0.0
 11
279.7279594441263
 21
34.03970635961957
 31
0.0
  0
LINE
  5
E00ED1D3
330
E00DEA5D
100
AcDbEntity
  8
JISSEN
100
AcDbLine
 10
278.4551672380259
 20
32.83970635962067
 30
0.0
 11
279.7279594441263
 21
32.83970635962067
 31
0.0
  0
LINE
  5
E00ED1D4
330
E00DEA5D
100
AcDbEntity
  8
JISSEN
100
AcDbLine
 10
277.456002594776
 20
32.83970635962067
 30
0.0
 11
278.4557061994767
 21
32.13970635961994
 31
0.0
  0
LINE
  5
E00ED1D5
330
E00DEA5D
100
AcDbEntity
  8
JISSEN
100
AcDbLine
 10
278.4551672380259
 20
32.83970635962067
 30
0.0
 11
278.4551672380259
 21
34.03970635961957
 31
0.0
  0
LINE
  5
E00ED1D6
330
E00DEA5D
100
AcDbEntity
  8
JISSEN
100
AcDbLine
 10
279.7279594441263
 20
34.03970635961957
 30
0.0
 11
279.7279594441263
 21
32.83970635962067
 31
0.0
  0
LINE
  5
E00ED1D7
330
E00DEA5D
100
AcDbEntity
  8
JISSEN
100
AcDbLine
 10
276.6307061994759
 20
35.93970635962103
 30
0.0
 11
275.9332798580746
 21
35.93970635962103
 31
0.0
  0
LINE
  5
E00ED1D8
330
E00DEA5D
100
AcDbEntity
  8
JISSEN
100
AcDbLine
 10
274.5557061994757
 20
38.18970635962103
 30
0.0
 11
274.5557061994752
 21
35.93970635962103
 31
0.0
  0
LINE
  5
E00ED1D9
330
E00DEA5D
100
AcDbEntity
  8
JISSEN
100
AcDbLine
 10
274.3057061994757
 20
38.43970635962103
 30
0.0
 11
274.5557061994757
 21
38.18970635962103
 31
0.0
  0
LINE
  5
E00ED1DA
330
E00DEA5D
100
AcDbEntity
  8
JISSEN
100
AcDbLine
 10
276.6307061994759
 20
35.93970635962103
 30
0.0
 11
276.6307061994759
 21
35.43970635962103
 31
0.0
  0
LINE
  5
E00ED1DB
330
E00DEA5D
100
AcDbEntity
  8
JISSEN
100
AcDbLine
 10
277.8057061994752
 20
35.43970635962103
 30
0.0
 11
276.9612886560755
 21
35.43970635962103
 31
0.0
  0
LINE
  5
E00ED1DC
330
E00DEA5D
100
AcDbEntity
  8
JISSEN
100
AcDbLine
 10
280.5057061994764
 20
42.99254968317144
 30
0.0
 11
280.5057061994759
 21
34.03970635961957
 31
0.0
  0
LINE
  5
E00ED1DD
330
E00DEA5D
100
AcDbEntity
  8
JISSEN
100
AcDbLine
 10
281.8183497247248
 20
34.03970635961957
 30
0.0
 11
282.2561153518256
 21
34.03970635961957
 31
0.0
  0
LINE
  5
E00ED1DE
330
E00DEA5D
100
AcDbEntity
  8
JISSEN
100
AcDbLine
 10
282.3565911205753
 20
34.03970635961957
 30
0.0
 11
282.2561153518256
 21
34.03970635961957
 31
0.0
  0
LINE
  5
E00ED1DF
330
E00DEA5D
100
AcDbEntity
  8
JISSEN
100
AcDbLine
 10
281.8183497247248
 20
32.83970635962067
 30
0.0
 11
282.2561153518256
 21
32.83970635962067
 31
0.0
  0
LINE
  5
E00ED1E0
330
E00DEA5D
100
AcDbEntity
  8
JISSEN
100
AcDbLine
 10
282.3565911205753
 20
33.33970635962067
 30
0.0
 11
282.4557061994767
 21
33.33970635962067
 31
0.0
  0
LINE
  5
E00ED1E1
330
E00DEA5D
100
AcDbEntity
  8
JISSEN
100
AcDbLine
 10
282.3565911205753
 20
32.83970635962067
 30
0.0
 11
282.2561153518256
 21
32.83970635962067
 31
0.0
  0
LINE
  5
E00ED1E2
330
E00DEA5D
100
AcDbEntity
  8
JISSEN
100
AcDbLine
 10
282.4557061994767
 20
32.13970635961994
 30
0.0
 11
282.3565911205753
 21
32.13970635961994
 31
0.0
  0
LINE
  5
E00ED1E3
330
E00DEA5D
100
AcDbEntity
  8
JISSEN
100
AcDbLine
 10
282.4557061994767
 20
33.33970635962067
 30
0.0
 11
282.4557061994767
 21
32.13970635961994
 31
0.0
  0
LINE
  5
E00ED1E4
330
E00DEA5D
100
AcDbEntity
  8
JISSEN
100
AcDbLine
 10
282.3565911205753
 20
32.13970635961994
 30
0.0
 11
282.3565911205753
 21
32.83970635962067
 31
0.0
  0
LINE
  5
E00ED1E5
330
E00DEA5D
100
AcDbEntity
  8
JISSEN
100
AcDbLine
 10
281.8183497247248
 20
32.83970635962067
 30
0.0
 11
281.8183497247248
 21
34.03970635961957
 31
0.0
  0
LINE
  5
E00ED1E6
330
E00DEA5D
100
AcDbEntity
  8
JISSEN
100
AcDbLine
 10
282.2561153518256
 20
34.03970635961957
 30
0.0
 11
282.2561153518256
 21
32.83970635962067
 31
0.0
  0
LINE
  5
E00ED1E7
330
E00DEA5D
100
AcDbEntity
  8
JISSEN
100
AcDbLine
 10
282.3565911205753
 20
34.03970635961957
 30
0.0
 11
282.3565911205753
 21
33.33970635962067
 31
0.0
  0
LINE
  5
E00ED1E8
330
E00DEA5D
100
AcDbEntity
  8
JISSEN
100
AcDbLine
 10
287.6888491135771
 20
42.99254968317326
 30
0.0
 11
287.700815981577
 21
42.99254968317326
 31
0.0
  0
ARC
  5
E00ED1E9
330
E00DEA5D
100
AcDbEntity
  8
JISSEN
100
AcDbCircle
 10
287.7008159815779
 20
44.49254968317325
 30
0.0
 40
1.5
100
AcDbArc
 50
270.0
 51
278.0000000000501
  0
TEXT
  5
E00ED1EA
330
E00DEA5D
100
AcDbEntity
  8
TEXT
100
AcDbText
 10
292.4672752852325
 20
9.100733707080392
 30
0.0
 40
3.0
  1
KEC　＋シーリングプレートK 作動状態
  7
K
 72
     4
 11
325.8244181423754
 21
10.60073370708039
 31
0.0
100
AcDbText
  0
TEXT
  5
E00ED1EB
330
E00DEA5D
100
AcDbEntity
  8
TEXT
100
AcDbText
 10
292.0414600096605
 20
4.69824910109974
 30
0.0
 40
3.0
  1
尺度　1/1
  7
K
 72
     4
 11
300.512888581089
 21
5.983963386814025
 31
0.0
100
AcDbText
  0
LINE
  5
E00ED1EC
330
E00DEA5D
100
AcDbEntity
  8
SUNPOU
100
AcDbLine
 10
303.5557061995525
 20
45.99254968317326
 30
0.0
 11
328.1075743041053
 21
45.99254968317326
 31
0.0
  0
ARC
  5
E00ED1ED
330
E00DEA5D
100
AcDbEntity
  8
JISSEN
100
AcDbCircle
 10
301.8172664773776
 20
46.98140120507231
 30
0.0
 40
1.999999999999996
100
AcDbArc
 50
278.0000000000501
 51
330.3681085059147
  0
LINE
  5
E00ED1EE
330
E00DEA5D
100
AcDbEntity
  8
JISSEN
100
AcDbLine
 39
1680.364539346804
 10
265.8761367528169
 20
168.6503686905703
 30
0.0
 11
271.0557061994761
 21
169.1700579327097
 31
0.0
  0
LINE
  5
E00ED1EF
330
E00DEA5D
100
AcDbEntity
  8
JISSEN
100
AcDbLine
 39
1680.364539346804
 10
265.8761367528169
 20
168.0936726189647
 30
0.0
 11
271.0557061994761
 21
168.6133618611037
 31
0.0
  0
LINE
  5
E00ED1F0
330
E00DEA5D
100
AcDbEntity
  8
JISSEN
100
AcDbLine
 39
1680.364539346804
 10
268.5923775490748
 20
165.9229012119338
 30
0.0
 11
271.0557061994761
 21
166.1700579327097
 31
0.0
  0
LINE
  5
E00ED1F1
330
E00DEA5D
100
AcDbEntity
  8
JISSEN
100
AcDbLine
 39
1680.364539346804
 10
270.4327723494407
 20
165.5508601370161
 30
0.0
 11
271.0557061994761
 21
165.6133618611
 31
0.0
  0
LINE
  5
E00ED1F2
330
E00DEA5D
100
AcDbEntity
  8
JISSEN
100
AcDbLine
 39
1680.364539346804
 10
274.1407817295121
 20
165.9229012119338
 30
0.0
 11
275.5946738132152
 21
166.0687766718371
 31
0.0
  0
LINE
  5
E00ED1F3
330
E00DEA5D
100
AcDbEntity
  8
JISSEN
100
AcDbLine
 39
1680.364539346804
 10
281.9613216720751
 20
166.7075707713884
 30
0.0
 11
285.9379540876002
 21
167.1065639903374
 31
0.0
  0
LINE
  5
E00ED1F4
330
E00DEA5D
100
AcDbEntity
  8
JISSEN
100
AcDbLine
 39
1680.364539346804
 10
281.7998519950197
 20
167.2480658720546
 30
0.0
 11
285.9482389274321
 21
167.6642919856742
 31
0.0
  0
LINE
  5
E00ED1F5
330
E00DEA5D
100
AcDbEntity
  8
JISSEN
100
AcDbLine
 39
1680.364539346804
 10
281.7902592812914
 20
169.6904073208091
 30
0.0
 11
286.005706199716
 21
170.1133618611182
 31
0.0
  0
LINE
  5
E00ED1F6
330
E00DEA5D
100
AcDbEntity
  8
JISSEN
100
AcDbLine
 39
1680.364539346804
 10
281.7902592812914
 20
170.2471033924163
 30
0.0
 11
286.005706199716
 21
170.670057932726
 31
0.0
  0
LINE
  5
E00ED1F7
330
E00DEA5D
100
AcDbEntity
  8
JISSEN
100
AcDbLine
 39
1680.364539346804
 10
256.1057061994318
 20
170.6700579327842
 30
0.0
 11
256.1057061994299
 21
170.1133618611783
 31
0.0
  0
LINE
  5
E00ED1F8
330
E00DEA5D
100
AcDbEntity
  8
SAISEN
100
AcDbLine
 39
1680.364539346804
 10
256.9057061994756
 20
176.1729015341332
 30
0.0
 11
256.4057061994756
 21
175.3068761303583
 31
0.0
  0
LINE
  5
E00ED1F9
330
E00DEA5D
100
AcDbEntity
  8
JISSEN
100
AcDbLine
 39
1680.364539346804
 10
256.1057061994745
 20
170.6700579327078
 30
0.0
 11
256.1057061994754
 21
170.1133618611019
 31
0.0
  0
LINE
  5
E00ED1FA
330
E00DEA5D
100
AcDbEntity
  8
JISSEN
100
AcDbLine
 39
1680.364539346804
 10
256.1057061994754
 20
170.1133618611019
 30
0.0
 11
260.3211531176605
 21
170.5363164013874
 31
0.0
  0
LINE
  5
E00ED1FB
330
E00DEA5D
100
AcDbEntity
  8
JISSEN
100
AcDbLine
 39
1680.364539346804
 10
256.1729558261394
 20
167.1201093152859
 30
0.0
 11
260.3211531176605
 21
167.5363164013912
 31
0.0
  0
LINE
  5
E00ED1FC
330
E00DEA5D
100
AcDbEntity
  8
JISSEN
100
AcDbLine
 39
1680.364539346804
 10
256.402055320211
 20
167.6997919582025
 30
0.0
 11
260.3211531176607
 21
168.0930124729965
 31
0.0
  0
LINE
  5
E00ED1FD
330
E00DEA5D
100
AcDbEntity
  8
JISSEN
100
AcDbLine
 39
1680.364539346804
 10
271.0557061997171
 20
168.6133618611219
 30
0.0
 11
276.2352756461095
 21
169.1330511032336
 31
0.0
  0
LINE
  5
E00ED1FE
330
E00DEA5D
100
AcDbEntity
  8
JISSEN
100
AcDbLine
 39
1680.364539346804
 10
271.0557061997171
 20
169.1700579327279
 30
0.0
 11
276.2352756461095
 21
169.6897471748402
 31
0.0
  0
LINE
  5
E00ED1FF
330
E00DEA5D
100
AcDbEntity
  8
JISSEN
100
AcDbLine
 39
1680.364539346804
 10
271.0557061997171
 20
165.6133618611182
 30
0.0
 11
271.679731894099
 21
165.675973134802
 31
0.0
  0
LINE
  5
E00ED200
330
E00DEA5D
100
AcDbEntity
  8
JISSEN
100
AcDbLine
 39
1680.364539346804
 10
271.0557061997171
 20
166.1700579327279
 30
0.0
 11
276.0828047954347
 21
166.6744490961772
 31
0.0
  0
LINE
  5
E00ED201
330
E00DEA5D
100
AcDbEntity
  8
JISSEN
100
AcDbLine
 39
1680.364539346804
 10
286.0057061994778
 20
170.6700579327078
 30
0.0
 11
286.0057061994769
 21
170.1133618611019
 31
0.0
  0
LINE
  5
E00ED202
330
E00DEA5D
100
AcDbEntity
  8
SAISEN
100
AcDbLine
 39
1680.364539346804
 10
285.2057061994766
 20
176.1729015341332
 30
0.0
 11
285.7057061994767
 21
175.3068761303583
 31
0.0
  0
LINE
  5
E00ED203
330
E00DEA5D
100
AcDbEntity
  8
JISSEN
100
AcDbLine
 39
1680.364539346804
 10
286.0057061995205
 20
170.6700579327842
 30
0.0
 11
286.0057061995224
 21
170.1133618611783
 31
0.0
  0
LINE
  5
E00ED204
330
E00DEA5D
100
AcDbEntity
  8
JISSEN
100
AcDbLine
 39
1680.364539346804
 10
280.4307061994725
 20
146.8700578883816
 30
0.0
 11
279.1807061994716
 21
146.8700578883816
 31
0.0
  0
LINE
  5
E00ED205
330
E00DEA5D
100
AcDbEntity
  8
JISSEN
100
AcDbLine
 39
1680.364539346804
 10
262.8529839163768
 20
146.8700578883816
 30
0.0
 11
264.1029839163777
 21
146.8700578883816
 31
0.0
  0
ARC
  5
E00ED207
330
E00DEA5D
100
AcDbEntity
  8
JISSEN
100
AcDbCircle
 39
1680.364539346804
 10
258.9057061994756
 20
184.1729015472336
 30
0.0
 40
0.9999999999997548
100
AcDbArc
 50
270.0
 51
329.999999999999
  0
LINE
  5
E00ED20F
330
E00DEA5D
100
AcDbEntity
  8
SAISEN
100
AcDbLine
 39
1680.364539346804
 10
280.5537153174739
 20
185.4729015472365
 30
0.0
 11
281.7535107448868
 21
184.2731061198245
 31
0.0
  0
LINE
  5
E00ED210
330
E00DEA5D
100
AcDbEntity
  8
JISSEN
100
AcDbLine
 39
1680.364539346804
 10
280.5537153174729
 20
185.4729015472365
 30
0.0
 11
281.7472686994826
 21
185.4729015472365
 31
0.0
  0
LINE
  5
E00ED211
330
E00DEA5D
100
AcDbEntity
  8
JISSEN
100
AcDbLine
 39
1680.364539346804
 10
271.0557061994761
 20
185.4729015472547
 30
0.0
 11
281.7472686994826
 21
185.4729015472365
 31
0.0
  0
LINE
  5
E00ED212
330
E00DEA5D
100
AcDbEntity
  8
SAISEN
100
AcDbLine
 39
1680.364539346804
 10
280.5537153174739
 20
185.4729015472402
 30
0.0
 11
281.7535107448877
 21
184.2731061198281
 31
0.0
  0
ARC
  5
E00ED213
330
E00DEA5D
100
AcDbEntity
  8
JISSEN
100
AcDbCircle
 39
1680.364539346804
 10
283.2057061994767
 20
184.1729015472336
 30
0.0
 40
0.9999999999997548
100
AcDbArc
 50
210.0000000000009
 51
270.0
  0
LINE
  5
E00ED216
330
E00DEA5D
100
AcDbEntity
  8
SAISEN
100
AcDbLine
 39
1680.364539346804
 10
261.5576970814784
 20
185.4729015472402
 30
0.0
 11
260.3579016540645
 21
184.2731061198281
 31
0.0
  0
LINE
  5
E00ED217
330
E00DEA5D
100
AcDbEntity
  8
JISSEN
100
AcDbLine
 39
1680.364539346804
 10
271.0557061994761
 20
185.4729015472547
 30
0.0
 11
260.3641436994696
 21
185.4729015472365
 31
0.0
  0
LINE
  5
E00ED218
330
E00DEA5D
100
AcDbEntity
  8
JISSEN
100
AcDbLine
 39
1680.364539346804
 10
261.5576970814793
 20
185.4729015472365
 30
0.0
 11
260.3641436994696
 21
185.4729015472365
 31
0.0
  0
LINE
  5
E00ED219
330
E00DEA5D
100
AcDbEntity
  8
SAISEN
100
AcDbLine
 39
1680.364539346804
 10
261.5576970814784
 20
185.4729015472365
 30
0.0
 11
260.3579016540654
 21
184.2731061198245
 31
0.0
  0
LINE
  5
E00ED21A
330
E00DEA5D
100
AcDbEntity
  8
JISSEN
100
AcDbLine
 10
303.1252927499764
 20
160.0759286930349
 30
0.0
 11
287.865960107175
 21
157.9313693463334
 31
0.0
  0
LINE
  5
E00ED21B
330
E00DEA5D
100
AcDbEntity
  8
JISSEN
100
AcDbLine
 10
271.055706199476
 20
160.9229012119338
 30
0.0
 11
303.555706199476
 21
160.9229012119338
 31
0.0
  0
LINE
  5
E00ED21C
330
E00DEA5D
100
AcDbEntity
  8
SUNPOU
100
AcDbLine
 10
287.7314578873938
 20
170.9229012119338
 30
0.0
 11
328.1075743041039
 21
170.922901211932
 31
0.0
  0
LINE
  5
E00ED21D
330
E00DEA5D
100
AcDbEntity
  8
SUNPOU
100
AcDbLine
 10
287.0617834656078
 20
160.9229012119338
 30
0.0
 11
328.1075743041053
 21
160.9229012119338
 31
0.0
  0
HATCH
  5
E00ED21E
330
E00DEA5D
100
AcDbEntity
  8
SUNPOU
100
AcDbHatch
 10
0.0
 20
0.0
 30
0.0
210
0.0
220
0.0
230
1.0
  2
ANSI31
 70
     0
 71
     0
 91
        2
 92
        5
 93
        5
 72
     1
 10
238.5557061994002
 20
160.9229012119338
 11
246.0557061994764
 21
160.9229012119338
 72
     1
 10
246.0557061994761
 20
160.9229012119338
 11
246.0557061994761
 21
170.9229012119338
 72
     1
 10
246.0557061994761
 20
170.9229012119338
 11
214.0038380948486
 21
170.922901211932
 72
     4
 94
        3
 73
     0
 74
     0
 95
       11
 96
        7
 40
0.0
 40
0.0
 40
0.0
 40
0.0
 40
3.264692203133994
 40
6.15697472568029
 40
8.955271668736928
 40
10.85738683396026
 40
10.85738683396026
 40
10.85738683396026
 40
10.85738683396026
 10
214.0038380948474
 20
170.9229012119338
 10
214.6789387831338
 20
169.9215022607276
 10
215.9521301336319
 20
168.0329358510151
 10
213.6862854172879
 20
165.1815648179471
 10
215.8894025838442
 20
162.5552343202033
 10
214.5470483931105
 20
161.3931583470147
 10
214.0038380948474
 20
160.9229012119338
 72
     1
 10
214.0038380948478
 20
160.9229012119338
 11
238.5557061994003
 21
160.9229012119338
 97
        0
 92
        5
 93
        5
 72
     1
 10
296.0557061994761
 20
170.9229012119338
 11
296.0557061994761
 21
160.9229012119338
 72
     1
 10
296.0557061994761
 20
160.9229012119338
 11
303.555706199552
 21
160.9229012119338
 72
     1
 10
303.5557061995525
 20
160.9229012119338
 11
328.1075743041055
 21
160.9229012119338
 72
     4
 94
        3
 73
     0
 74
     0
 95
       11
 96
        7
 40
0.0
 40
0.0
 40
0.0
 40
0.0
 40
1.902115165223333
 40
4.700412108279971
 40
7.592694630826267
 40
10.85738683396026
 40
10.85738683396026
 40
10.85738683396026
 40
10.85738683396026
 10
328.1075743041049
 20
160.9229012119338
 10
327.5643640058422
 20
161.3931583470147
 10
326.2220098151085
 20
162.5552343202033
 10
328.4251269816652
 20
165.1815648179471
 10
326.1592822653208
 20
168.0329358510151
 10
327.4324736158189
 20
169.9215022607276
 10
328.1075743041049
 20
170.9229012119338
 72
     1
 10
328.1075743041039
 20
170.922901211932
 11
296.0557061994761
 21
170.9229012119338
 97
        0
 75
     0
 76
     1
 52
0.0
 41
10.0
 77
     0
 78
     1
 53
45.0
 43
366.0253215296727
 44
-2497.575742508183
 45
-0.8838834764831842
 46
0.8838834764831844
 79
     0
 47
0.1102095095325799
 98
        2
 10
238.1597523727088
 20
164.6230476283416
 10
305.8575390494409
 20
167.3782843623811
  0
LINE
  5
E00ED21F
330
E00DEA5D
100
AcDbEntity
  8
NITEN
100
AcDbLine
 10
290.5557061994761
 20
212.7332293280195
 30
0.0
 11
290.5557061994766
 21
229.9729015472329
 31
0.0
  0
LINE
  5
E00ED220
330
E00DEA5D
100
AcDbEntity
  8
NITEN
100
AcDbLine
 10
251.5557061994761
 20
212.7332293280195
 30
0.0
 11
251.5557061994761
 21
229.9729015472329
 31
0.0
  0
LINE
  5
E00ED221
330
E00DEA5D
100
AcDbEntity
  8
SUNPOU
100
AcDbLine
 10
254.379954511558
 20
170.9229012119338
 30
0.0
 11
214.0038380948483
 21
170.922901211932
 31
0.0
  0
LINE
  5
E00ED222
330
E00DEA5D
100
AcDbEntity
  8
SUNPOU
100
AcDbLine
 10
255.0496289333477
 20
160.9229012119338
 30
0.0
 11
214.0038380948474
 21
160.9229012119338
 31
0.0
  0
SPLINE
  5
E00ED223
330
E00DEA5D
100
AcDbEntity
  8
SUNPOU
100
AcDbSpline
210
0.0
220
0.0
230
1.0
 70
     8
 71
     3
 72
    11
 73
     7
 74
     5
 42
0.0000000001
 43
0.0000000001
 44
0.0000000001
 40
0.0
 40
0.0
 40
0.0
 40
0.0
 40
3.264692203133994
 40
6.15697472568029
 40
8.955271668736928
 40
10.85738683396026
 40
10.85738683396026
 40
10.85738683396026
 40
10.85738683396026
 10
214.0038380948474
 20
170.9229012119338
 30
0.0
 10
214.6789387831338
 20
169.9215022607287
 30
0.0
 10
215.9521301336318
 20
168.032935851015
 30
0.0
 10
213.6862854172875
 20
165.1815648179457
 30
0.0
 10
215.8894025838441
 20
162.5552343202048
 30
0.0
 10
214.5470483931101
 20
161.3931583470158
 30
0.0
 10
214.0038380948474
 20
160.9229012119338
 30
0.0
 11
214.0038380948474
 21
170.9229012119338
 31
0.0
 11
215.2331784724113
 21
167.8985107911556
 31
0.0
 11
214.4609950184415
 21
165.1112126543138
 31
0.0
 11
215.1903015502496
 21
162.4096246464595
 31
0.0
 11
214.0038380948474
 21
160.9229012119338
 31
0.0
  0
LINE
  5
E00ED22E
330
E00DEA5D
100
AcDbEntity
  8
JISSEN
100
AcDbLine
 39
240.0520776831561
 10
256.9057061994756
 20
176.1729015341369
 30
0.0
 11
271.0557061994761
 21
176.1729015341351
 31
0.0
  0
LINE
  5
E00ED22F
330
E00DEA5D
100
AcDbEntity
  8
JISSEN
100
AcDbLine
 39
240.0520776831561
 10
256.405706199431
 20
170.6700579327806
 30
0.0
 11
256.1057061994318
 21
170.6700579327842
 31
0.0
  0
LINE
  5
E00ED230
330
E00DEA5D
100
AcDbEntity
  8
JISSEN
100
AcDbLine
 39
240.0520776831561
 10
256.4057061994301
 20
170.6700579327806
 30
0.0
 11
256.1057061994308
 21
170.6700579327842
 31
0.0
  0
LINE
  5
E00ED231
330
E00DEA5D
100
AcDbEntity
  8
JISSEN
100
AcDbLine
 39
240.0520776831561
 10
285.2057061994766
 20
176.1729015341369
 30
0.0
 11
271.0557061994761
 21
176.1729015341351
 31
0.0
  0
LINE
  5
E00ED232
330
E00DEA5D
100
AcDbEntity
  8
JISSEN
100
AcDbLine
 39
240.0520776831561
 10
285.7057061995222
 20
170.6700579327806
 30
0.0
 11
286.0057061995214
 21
170.6700579327842
 31
0.0
  0
LINE
  5
E00ED233
330
E00DEA5D
100
AcDbEntity
  8
JISSEN
100
AcDbLine
 39
240.0520776831561
 10
285.7057061995212
 20
170.6700579327806
 30
0.0
 11
286.0057061995205
 21
170.6700579327842
 31
0.0
  0
ARC
  5
E00ED234
330
E00DEA5D
100
AcDbEntity
  8
JISSEN
100
AcDbCircle
 39
240.0520776831561
 10
262.8529839163777
 20
147.0700578883823
 30
0.0
 40
0.2000000000007276
100
AcDbArc
 50
180.0
 51
270.0
  0
ARC
  5
E00ED235
330
E00DEA5D
100
AcDbEntity
  8
JISSEN
100
AcDbCircle
 39
240.0520776831561
 10
264.1029839163777
 20
147.0700578883823
 30
0.0
 40
0.2000000000007276
100
AcDbArc
 50
270.0
 51
0.0
  0
ARC
  5
E00ED236
330
E00DEA5D
100
AcDbEntity
  8
JISSEN
100
AcDbCircle
 39
240.0520776831561
 10
279.1807061994716
 20
147.0700578883823
 30
0.0
 40
0.2000000000007276
100
AcDbArc
 50
180.0
 51
270.0
  0
ARC
  5
E00ED237
330
E00DEA5D
100
AcDbEntity
  8
JISSEN
100
AcDbCircle
 39
240.0520776831561
 10
280.4307061994716
 20
147.0700578883823
 30
0.0
 40
0.2000000000007276
100
AcDbArc
 50
270.0
 51
0.0
  0
LINE
  5
E00ED238
330
E00DEA5D
100
AcDbEntity
  8
JISSEN
100
AcDbLine
 10
265.7051266811178
 20
172.4229012119338
 30
0.0
 11
265.8761367528169
 21
171.9229012119338
 31
0.0
  0
LINE
  5
E00ED239
330
E00DEA5D
100
AcDbEntity
  8
JISSEN
100
AcDbLine
 10
254.318743447876
 20
157.9229012119338
 30
0.0
 11
271.0557061994751
 21
157.922901211932
 31
0.0
  0
SPLINE
  5
E00ED23A
330
E00DEA5D
100
AcDbEntity
  8
JISSEN
100
AcDbSpline
210
0.0
220
0.0
230
1.0
 70
     8
 71
     3
 72
    18
 73
    14
 74
     0
 42
0.0000000001
 43
0.0000000001
 40
0.0
 40
0.0
 40
0.0
 40
0.0
 40
0.1249999999999997
 40
0.1249999999999997
 40
0.2499999999999994
 40
0.2499999999999994
 40
0.3749999999999992
 40
0.3749999999999992
 40
0.499999999999999
 40
0.499999999999999
 40
0.7499999999999995
 40
0.7499999999999995
 40
1.0
 40
1.0
 40
1.0
 40
1.0
 10
266.4447062708116
 20
165.9229012119028
 30
0.0
 10
266.3755172005151
 20
165.9229012119028
 30
0.0
 10
266.3067731188677
 20
165.9325367080671
 30
0.0
 10
266.1702263779809
 20
165.9703988052676
 30
0.0
 10
266.1016952711254
 20
165.9990877537727
 30
0.0
 10
265.9698784275444
 20
166.0740869600629
 30
0.0
 10
265.9067791309301
 20
166.1200205841248
 30
0.0
 10
265.786481536825
 20
166.2286450654862
 30
0.0
 10
265.7290534772348
 20
166.2919102495723
 30
0.0
 10
265.573748973484
 20
166.4993001974396
 30
0.0
 10
265.4888332667508
 20
166.6665950855419
 30
0.0
 10
265.3746090619463
 20
167.0275906915719
 30
0.0
 10
265.343969805943
 20
167.224621336645
 30
0.0
 10
265.343969805943
 20
167.4229012119028
 30
0.0
  0
LINE
  5
E00ED23B
330
E00DEA5D
100
AcDbEntity
  8
JISSEN
100
AcDbLine
 10
271.055706199476
 20
160.9229012119338
 30
0.0
 11
238.555706199476
 21
160.9229012119338
 31
0.0
  0
LINE
  5
E00ED23C
330
E00DEA5D
100
AcDbEntity
  8
JISSEN
370
    -2
100
AcDbLine
 10
264.9363115246744
 20
174.6729430409467
 30
0.0
 11
271.0557061994761
 21
174.6729430409467
 31
0.0
  0
SPLINE
  5
E00ED23D
330
E00DEA5D
100
AcDbEntity
  8
JISSEN
370
    -2
100
AcDbSpline
210
0.0
220
0.0
230
1.0
 70
    12
 71
     3
 72
    14
 73
    10
 74
     0
 42
0.0000000001
 43
0.0000000001
 40
0.0
 40
0.0
 40
0.0
 40
0.0
 40
0.2170493941225676
 40
0.4388311995732112
 40
0.5988137766302898
 40
0.7597871991591737
 40
0.8750649674182215
 40
0.9755548291618868
 40
1.0
 40
1.0
 40
1.0
 40
1.0
 10
267.5152508358316
 20
174.6729430409867
 30
0.0
 41
1.0
 10
267.2748883461492
 20
174.6669774894143
 30
0.0
 41
1.0
 10
266.7889226510762
 20
174.6549163170565
 30
0.0
 41
1.0
 10
266.1482910638808
 20
174.525726826614
 30
0.0
 41
1.0
 10
265.6113562651892
 20
174.2898037690755
 30
0.0
 41
1.0
 10
265.2395486883544
 20
173.9837434604377
 30
0.0
 41
1.0
 10
265.0177658111781
 20
173.6188632238262
 30
0.0
 41
1.0
 10
264.9510464558718
 20
173.3452799664336
 30
0.0
 41
1.0
 10
264.9476585460135
 20
173.2011447355215
 30
0.0
 41
1.0
 10
264.9469956572013
 20
173.1729427951175
 30
0.0
 41
1.0
  0
LINE
  5
E00ED23E
330
E00DEA5D
100
AcDbEntity
  8
JISSEN
100
AcDbLine
 10
267.2450451008255
 20
147.7700578883831
 30
0.0
 11
263.527732073576
 21
147.7700578883831
 31
0.0
  0
LINE
  5
E00ED23F
330
E00DEA5D
100
AcDbEntity
  8
JISSEN
100
AcDbLine
 10
266.2628869294269
 20
147.7700578883831
 30
0.0
 11
265.3971182114758
 21
147.0700578883823
 31
0.0
  0
LINE
  5
E00ED240
330
E00DEA5D
100
AcDbEntity
  8
JISSEN
100
AcDbLine
 10
267.2450451008255
 20
148.970057888382
 30
0.0
 11
263.527732073576
 21
148.970057888382
 31
0.0
  0
LINE
  5
E00ED241
330
E00DEA5D
100
AcDbEntity
  8
JISSEN
100
AcDbLine
 10
275.9332798580755
 20
150.8700578883834
 30
0.0
 11
265.4807061994754
 21
150.8700578883834
 31
0.0
  0
LINE
  5
E00ED242
330
E00DEA5D
100
AcDbEntity
  8
JISSEN
100
AcDbLine
 10
276.9612886560764
 20
150.3700578883834
 30
0.0
 11
264.3057061994761
 21
150.3700578883834
 31
0.0
  0
LINE
  5
E00ED244
330
E00DEA5D
100
AcDbEntity
  8
JISSEN
100
AcDbLine
 10
262.777983916377
 20
148.970057888382
 30
0.0
 11
262.7779839163776
 21
157.9229012119329
 31
0.0
  0
LINE
  5
E00ED245
330
E00DEA5D
100
AcDbEntity
  8
JISSEN
100
AcDbLine
 10
264.1779839163772
 20
157.9229012119327
 30
0.0
 11
264.1779839163766
 21
148.970057888382
 31
0.0
  0
LINE
  5
E00ED246
330
E00DEA5D
100
AcDbEntity
  8
JISSEN
100
AcDbLine
 10
262.0188527725761
 20
147.0700578883823
 30
0.0
 11
262.0188527725761
 21
147.7700578883831
 31
0.0
  0
LINE
  5
E00ED247
330
E00DEA5D
100
AcDbEntity
  8
JISSEN
100
AcDbLine
 10
260.5188527725761
 20
147.0700578883823
 30
0.0
 11
260.5188527725761
 21
147.7700578883831
 31
0.0
  0
LINE
  5
E00ED248
330
E00DEA5D
100
AcDbEntity
  8
JISSEN
100
AcDbLine
 10
265.3971182114758
 20
147.0700578883823
 30
0.0
 11
262.0188527725761
 21
147.0700578883823
 31
0.0
  0
LINE
  5
E00ED249
330
E00DEA5D
100
AcDbEntity
  8
JISSEN
100
AcDbLine
 10
262.0188527725761
 20
147.0700578883823
 30
0.0
 11
260.5188527725761
 21
147.0700578883823
 31
0.0
  0
LINE
  5
E00ED24A
330
E00DEA5D
100
AcDbEntity
  8
JISSEN
100
AcDbLine
 10
262.3689542978274
 20
147.7700578883831
 30
0.0
 11
262.0188527725761
 21
147.7700578883831
 31
0.0
  0
LINE
  5
E00ED24B
330
E00DEA5D
100
AcDbEntity
  8
JISSEN
100
AcDbLine
 10
262.3689542978274
 20
148.970057888382
 30
0.0
 11
262.0188527725761
 21
148.970057888382
 31
0.0
  0
LINE
  5
E00ED24C
330
E00DEA5D
100
AcDbEntity
  8
JISSEN
100
AcDbLine
 10
259.6912880445772
 20
148.970057888382
 30
0.0
 11
259.6912880445772
 21
147.7700578883831
 31
0.0
  0
LINE
  5
E00ED24D
330
E00DEA5D
100
AcDbEntity
  8
JISSEN
100
AcDbLine
 10
260.5188527725761
 20
148.970057888382
 30
0.0
 11
260.5188527725761
 21
148.2700578883831
 31
0.0
  0
LINE
  5
E00ED24E
330
E00DEA5D
100
AcDbEntity
  8
JISSEN
100
AcDbLine
 10
262.0188527725761
 20
148.970057888382
 30
0.0
 11
262.0188527725761
 21
148.2700578883831
 31
0.0
  0
LINE
  5
E00ED24F
330
E00DEA5D
100
AcDbEntity
  8
JISSEN
100
AcDbLine
 10
260.5188527725761
 20
147.7700578883831
 30
0.0
 11
259.6912880445772
 21
147.7700578883831
 31
0.0
  0
LINE
  5
E00ED250
330
E00DEA5D
100
AcDbEntity
  8
JISSEN
100
AcDbLine
 10
260.5188527725761
 20
148.2700578883831
 30
0.0
 11
262.0188527725761
 21
148.2700578883831
 31
0.0
  0
LINE
  5
E00ED251
330
E00DEA5D
100
AcDbEntity
  8
JISSEN
100
AcDbLine
 10
260.5188527725761
 20
148.970057888382
 30
0.0
 11
259.6912880445772
 21
148.970057888382
 31
0.0
  0
LINE
  5
E00ED252
330
E00DEA5D
100
AcDbEntity
  8
JISSEN
100
AcDbLine
 10
262.0188527725761
 20
148.970057888382
 30
0.0
 11
260.5188527725761
 21
148.970057888382
 31
0.0
  0
LINE
  5
E00ED253
330
E00DEA5D
100
AcDbEntity
  8
JISSEN
100
AcDbLine
 10
265.4807061994754
 20
150.3700578883834
 30
0.0
 11
265.4807061994754
 21
150.8700578883834
 31
0.0
  0
LINE
  5
E00ED254
330
E00DEA5D
100
AcDbEntity
  8
JISSEN
100
AcDbLine
 10
263.527732073576
 20
148.970057888382
 30
0.0
 11
263.527732073576
 21
147.7700578883831
 31
0.0
  0
LINE
  5
E00ED255
330
E00DEA5D
100
AcDbEntity
  8
JISSEN
100
AcDbLine
 10
264.3057061994761
 20
148.970057888382
 30
0.0
 11
264.3057061994761
 21
150.3700578883834
 31
0.0
  0
LINE
  5
E00ED256
330
E00DEA5D
100
AcDbEntity
  8
JISSEN
100
AcDbLine
 10
262.3689542978274
 20
147.7700578883831
 30
0.0
 11
262.3689542978274
 21
148.970057888382
 31
0.0
  0
LINE
  5
E00ED257
330
E00DEA5D
100
AcDbEntity
  8
JISSEN
100
AcDbLine
 10
262.3689542978274
 20
147.7700578883831
 30
0.0
 11
263.527732073576
 21
147.7700578883831
 31
0.0
  0
LINE
  5
E00ED258
330
E00DEA5D
100
AcDbEntity
  8
JISSEN
100
AcDbLine
 10
262.3689542978274
 20
148.970057888382
 30
0.0
 11
263.527732073576
 21
148.970057888382
 31
0.0
  0
LINE
  5
E00ED259
330
E00DEA5D
100
AcDbEntity
  8
JISSEN
100
AcDbLine
 10
238.9861196489756
 20
160.0759286930349
 30
0.0
 11
254.245452291777
 21
157.9313693463334
 31
0.0
  0
LINE
  5
E00ED25A
330
E00DEA5D
100
AcDbEntity
  8
SUNPOU
100
AcDbLine
 10
246.0557061994761
 20
170.9229012119338
 30
0.0
 11
246.0557061994761
 21
160.9229012119338
 31
0.0
  0
LINE
  5
E00ED25B
330
E00DEA5D
100
AcDbEntity
  8
JISSEN
100
AcDbLine
 10
238.555706199476
 20
160.9229012119338
 30
0.0
 11
238.555706199476
 21
160.5710627273345
 31
0.0
  0
ARC
  5
E00ED25C
330
E00DEA5D
100
AcDbEntity
  8
JISSEN
100
AcDbCircle
 10
239.055706199476
 20
160.5710627273345
 30
0.0
 40
0.5000000000000005
100
AcDbArc
 50
180.0
 51
261.9999999999597
  0
LINE
  5
E00ED25D
330
E00DEA5D
100
AcDbEntity
  8
JISSEN
 62
     0
 48
0.1
100
AcDbLine
 10
254.5378613903514
 20
161.1547855018687
 30
0.0
 11
254.3557061994762
 21
172.4229012119338
 31
0.0
  0
LINE
  5
E00ED25E
330
E00DEA5D
100
AcDbEntity
  8
JISSEN
 62
     0
 48
0.1
100
AcDbLine
 10
256.1675623946791
 20
167.4229012119093
 30
0.0
 11
256.0856681923707
 21
171.9270823390778
 31
0.0
  0
LINE
  5
E00ED25F
330
E00DEA5D
100
AcDbEntity
  8
JISSEN
 62
     0
 48
0.1
100
AcDbLine
 10
254.6902444310757
 20
167.4229012118965
 30
0.0
 11
254.6094167241355
 21
172.4229012119338
 31
0.0
  0
LINE
  5
E00ED260
330
E00DEA5D
100
AcDbEntity
  8
JISSEN
100
AcDbLine
 10
265.3439698059429
 20
172.4229012119338
 30
0.0
 11
265.3439698059429
 21
167.4229012119027
 31
0.0
  0
LINE
  5
E00ED261
330
E00DEA5D
100
AcDbEntity
  8
JISSEN
100
AcDbLine
 10
260.3211531176605
 20
172.4229012119338
 30
0.0
 11
260.3211531176606
 21
167.4229012118675
 31
0.0
  0
LINE
  5
E00ED262
330
E00DEA5D
100
AcDbEntity
  8
JISSEN
100
AcDbLine
 10
256.4057061994747
 20
167.6700579327079
 30
0.0
 11
256.1057061994754
 21
170.1133618611019
 31
0.0
  0
LINE
  5
E00ED263
330
E00DEA5D
100
AcDbEntity
  8
JISSEN
100
AcDbLine
 10
258.8858982243226
 20
165.9229012119338
 30
0.0
 11
258.2169629248602
 21
165.9229012119338
 31
0.0
  0
LINE
  5
E00ED264
330
E00DEA5D
100
AcDbEntity
  8
JISSEN
100
AcDbLine
 10
256.3024081788757
 20
162.9229012119338
 30
0.0
 11
256.2907139835615
 21
165.9229012119338
 31
0.0
  0
LINE
  5
E00ED265
330
E00DEA5D
100
AcDbEntity
  8
JISSEN
100
AcDbLine
 10
256.9024081788767
 20
162.9229012119338
 30
0.0
 11
256.9157139836393
 21
165.9229012118585
 31
0.0
  0
ARC
  5
E00ED266
330
E00DEA5D
100
AcDbEntity
  8
JISSEN
100
AcDbCircle
 10
254.4542119431763
 20
159.4167714495341
 30
0.0
 40
1.499999999999995
100
AcDbArc
 50
261.9999999999597
 51
264.8184245309499
  0
ARC
  5
E00ED267
330
E00DEA5D
100
AcDbEntity
  8
JISSEN
100
AcDbCircle
 10
253.0380573454905
 20
161.1305403575095
 30
0.0
 40
1.5
100
AcDbArc
 50
352.0432185063709
 51
0.9261366264909746
  0
LINE
  5
E00ED268
330
E00DEA5D
100
AcDbEntity
  8
JISSEN
100
AcDbLine
 10
256.9024081788767
 20
162.9229012119338
 30
0.0
 11
256.3024081788757
 21
162.9229012119338
 31
0.0
  0
LINE
  5
E00ED269
330
E00DEA5D
100
AcDbEntity
  8
JISSEN
100
AcDbLine
 10
256.9157139836396
 20
165.9229012119334
 30
0.0
 11
255.0247628595727
 21
165.9229012119345
 31
0.0
  0
SPLINE
  5
E00ED26A
330
E00DEA5D
100
AcDbEntity
  8
JISSEN
100
AcDbSpline
210
0.0
220
0.0
230
1.0
 70
     8
 71
     3
 72
    18
 73
    14
 74
     0
 42
0.0000000001
 43
0.0000000001
 40
0.0
 40
0.0
 40
0.0
 40
0.0
 40
0.1250000000000001
 40
0.1250000000000001
 40
0.2500000000000002
 40
0.2500000000000002
 40
0.3750000000000002
 40
0.3750000000000002
 40
0.5000000000000004
 40
0.5000000000000004
 40
0.7500000000000001
 40
0.7500000000000001
 40
1.0
 40
1.0
 40
1.0
 40
1.0
 10
254.6902444310757
 20
167.4229012119029
 30
0.0
 10
254.6902444310757
 20
167.3237604305393
 30
0.0
 10
254.6919255878013
 20
167.2262769166444
 30
0.0
 10
254.6986194331069
 20
167.0344889706919
 30
0.0
 10
254.703715078021
 20
166.9391901828037
 30
0.0
 10
254.717365882648
 20
166.7574750614074
 30
0.0
 10
254.7258523479644
 20
166.6712928579961
 30
0.0
 10
254.7465766756153
 20
166.5081983315574
 30
0.0
 10
254.7589375416349
 20
166.4309888019905
 30
0.0
 10
254.8010041204992
 20
166.2234550901264
 30
0.0
 10
254.8369123873411
 20
166.1117876698424
 30
0.0
 10
254.9214906094379
 20
165.9624129474885
 30
0.0
 10
254.9709781934337
 20
165.9229012119029
 30
0.0
 10
255.0247628595728
 20
165.9229012119029
 30
0.0
  0
SPLINE
  5
E00ED26B
330
E00DEA5D
100
AcDbEntity
  8
JISSEN
100
AcDbSpline
210
0.0
220
0.0
230
1.0
 70
     8
 71
     3
 72
    18
 73
    14
 74
     0
 42
0.0000000001
 43
0.0000000001
 40
0.0
 40
0.0
 40
0.0
 40
0.0
 40
0.1250000000000001
 40
0.1250000000000001
 40
0.2500000000000002
 40
0.2500000000000002
 40
0.3750000000000002
 40
0.3750000000000002
 40
0.5000000000000004
 40
0.5000000000000004
 40
0.7500000000000001
 40
0.7500000000000001
 40
1.0
 40
1.0
 40
1.0
 40
1.0
 10
256.1675623946793
 20
167.4229012119092
 30
0.0
 10
256.1675623946793
 20
167.3237604305456
 30
0.0
 10
256.169243551405
 20
167.2262769166507
 30
0.0
 10
256.1759373967105
 20
167.0344889706982
 30
0.0
 10
256.1810330416245
 20
166.93919018281
 30
0.0
 10
256.1946838462517
 20
166.7574750614137
 30
0.0
 10
256.203170311568
 20
166.6712928580025
 30
0.0
 10
256.2238946392188
 20
166.5081983315637
 30
0.0
 10
256.2362555052385
 20
166.4309888019968
 30
0.0
 10
256.2783220841028
 20
166.2234550901328
 30
0.0
 10
256.3142303509447
 20
166.1117876698488
 30
0.0
 10
256.3988085730414
 20
165.9624129474948
 30
0.0
 10
256.4482961570373
 20
165.9229012119092
 30
0.0
 10
256.5020808231764
 20
165.9229012119092
 30
0.0
  0
LINE
  5
E00ED26C
330
E00DEA5D
100
AcDbEntity
  8
JISSEN
100
AcDbLine
 10
258.2169629218743
 20
165.9229012119338
 30
0.0
 11
257.5907823184744
 21
165.9229012119338
 31
0.0
  0
LINE
  5
E00ED26D
330
E00DEA5D
100
AcDbEntity
  8
JISSEN
100
AcDbLine
 10
257.7635587907763
 20
165.9229012119338
 30
0.0
 11
256.9157139836396
 21
165.9229012119338
 31
0.0
  0
LINE
  5
E00ED26E
330
E00DEA5D
100
AcDbEntity
  8
JISSEN
100
AcDbLine
 10
256.1630686361193
 20
167.6700579327079
 30
0.0
 11
256.4057061994747
 21
167.6700579327079
 31
0.0
  0
SPLINE
  5
E00ED26F
330
E00DEA5D
100
AcDbEntity
  8
JISSEN
100
AcDbSpline
210
0.0
220
0.0
230
1.0
 70
     8
 71
     3
 72
    18
 73
    14
 74
     0
 42
0.0000000001
 43
0.0000000001
 40
0.0
 40
0.0
 40
0.0
 40
0.0
 40
0.1250000000000001
 40
0.1250000000000001
 40
0.2500000000000001
 40
0.2500000000000001
 40
0.5
 40
0.5
 40
0.7499999999999999
 40
0.7499999999999999
 40
0.8749999999999998
 40
0.8749999999999998
 40
1.0
 40
1.0
 40
1.0
 40
1.0
 10
260.3211531176897
 20
167.4229012118719
 30
0.0
 10
260.3211531176897
 20
167.3242076260283
 30
0.0
 10
260.3120915189123
 20
167.2268648563547
 30
0.0
 10
260.2762427882611
 20
167.0348161700765
 30
0.0
 10
260.2489829059344
 20
166.9391941478368
 30
0.0
 10
260.1428242750647
 20
166.6673714290826
 30
0.0
 10
260.0375412419456
 20
166.5005251831915
 30
0.0
 10
259.7738946838493
 20
166.2231364742509
 30
0.0
 10
259.6146551092646
 20
166.1117782085855
 30
0.0
 10
259.3539397514799
 20
165.9994804478554
 30
0.0
 10
259.2619802044413
 20
165.970592843905
 30
0.0
 10
259.0763967945353
 20
165.9325387449205
 30
0.0
 10
258.9819862635216
 20
165.9229012118719
 30
0.0
 10
258.8858982243221
 20
165.9229012118719
 30
0.0
  0
LINE
  5
E00ED270
330
E00DEA5D
100
AcDbEntity
  8
JISSEN
100
AcDbLine
 10
256.1057061994318
 20
170.6700579327842
 30
0.0
 11
260.3211531176605
 21
170.6700579327627
 31
0.0
  0
LINE
  5
E00ED271
330
E00DEA5D
100
AcDbEntity
  8
JISSEN
100
AcDbLine
 10
256.1057061994308
 20
170.6700579327842
 30
0.0
 11
260.3211531176605
 21
170.6700579327627
 31
0.0
  0
LINE
  5
E00ED272
330
E00DEA5D
100
AcDbEntity
  8
JISSEN
100
AcDbLine
 10
256.4057061994756
 20
170.6700579327806
 30
0.0
 11
256.4057061994756
 21
177.1729015472373
 31
0.0
  0
LINE
  5
E00ED273
330
E00DEA5D
100
AcDbEntity
  8
JISSEN
100
AcDbLine
 10
255.555706199476
 20
172.4229012119338
 30
0.0
 11
254.3557061994762
 21
172.4229012119338
 31
0.0
  0
LINE
  5
E00ED274
330
E00DEA5D
100
AcDbEntity
  8
JISSEN
100
AcDbLine
 10
255.5911860277748
 20
172.4229012119338
 30
0.0
 11
255.555706199476
 21
172.4229012119338
 31
0.0
  0
LINE
  5
E00ED275
330
E00DEA5D
100
AcDbEntity
  8
JISSEN
100
AcDbLine
 10
256.0856681923707
 20
171.9270823390778
 30
0.0
 11
255.5898493195146
 21
172.4229012119338
 31
0.0
  0
LINE
  5
E00ED276
330
E00DEA5D
100
AcDbEntity
  8
JISSEN
100
AcDbLine
 10
256.1057061994754
 20
170.6700579327078
 30
0.0
 11
256.4057061994756
 21
170.6700579327078
 31
0.0
  0
LINE
  5
E00ED278
330
E00DEA5D
100
AcDbEntity
  8
SAISEN
100
AcDbLine
 10
256.9057061994756
 20
176.1729015341369
 30
0.0
 11
256.9057061994765
 21
177.1729015472336
 31
0.0
  0
LINE
  5
E00ED279
330
E00DEA5D
100
AcDbEntity
  8
JISSEN
100
AcDbLine
 10
256.4057061994756
 20
176.1729015341332
 30
0.0
 11
256.9057061994756
 21
176.1729015341332
 31
0.0
  0
ARC
  5
E00ED27C
330
E00DEA5D
100
AcDbEntity
  8
JISSEN
370
    -2
100
AcDbCircle
 10
264.7412420008752
 20
173.0355650324453
 30
0.0
 40
1.648956901138485
100
AcDbArc
 50
83.20607180967952
 51
175.2210394254886
  0
LINE
  5
E00ED27D
330
E00DEA5D
100
AcDbEntity
  8
JISSEN
100
AcDbLine
 10
265.7051266811178
 20
172.4229012119338
 30
0.0
 11
260.3211531176606
 21
172.4229012119338
 31
0.0
  0
ARC
  5
E00ED27E
330
E00DEA5D
100
AcDbEntity
  8
JISSEN
370
    -2
100
AcDbCircle
 10
264.7337011441752
 20
173.3010790189472
 30
0.0
 40
1.640694770587604
100
AcDbArc
 50
184.4792906218895
 51
212.3606991649856
  0
SPLINE
  5
E00ED27F
330
E00DEA5D
100
AcDbEntity
  8
JISSEN
370
    -2
100
AcDbSpline
210
0.0
220
0.0
230
1.0
 70
    12
 71
     3
 72
    10
 73
     6
 74
     0
 42
0.0000000001
 43
0.0000000001
 40
0.0
 40
0.0
 40
0.0
 40
0.0
 40
0.1088769686984931
 40
0.2172663573285982
 40
0.2385701061928358
 40
0.2385701061928358
 40
0.2385701061928358
 40
0.2385701061928358
 10
264.9469956572013
 20
173.1729427951175
 30
0.0
 41
1.0
 10
264.9596889476172
 20
173.0466618088938
 30
0.0
 41
1.0
 10
264.9850186845117
 20
172.7946653563448
 30
0.0
 41
1.0
 10
265.1191999950906
 20
172.5552435345074
 30
0.0
 41
1.0
 10
265.207855586482
 20
172.4412039979918
 30
0.0
 41
1.0
 10
265.2228167367425
 20
172.4229012119338
 30
0.0
 41
1.0
  0
LINE
  5
E00ED280
330
E00DEA5D
100
AcDbEntity
  8
JISSEN
100
AcDbLine
 10
280.5057061994774
 20
157.922901211933
 30
0.0
 11
280.5057061994769
 21
148.970057888382
 31
0.0
  0
LINE
  5
E00ED281
330
E00DEA5D
100
AcDbEntity
  8
JISSEN
100
AcDbLine
 10
279.1057061994754
 20
148.970057888382
 30
0.0
 11
279.1057061994759
 21
157.9229012119328
 31
0.0
  0
LINE
  5
E00ED282
330
E00DEA5D
100
AcDbEntity
  8
JISSEN
100
AcDbLine
 10
281.8183497247257
 20
147.7700578883831
 30
0.0
 11
279.7279594441272
 21
147.7700578883831
 31
0.0
  0
LINE
  5
E00ED283
330
E00DEA5D
100
AcDbEntity
  8
JISSEN
100
AcDbLine
 10
278.4557061994776
 20
147.0700578883823
 30
0.0
 11
282.3565911205762
 21
147.0700578883823
 31
0.0
  0
LINE
  5
E00ED284
330
E00DEA5D
100
AcDbEntity
  8
JISSEN
100
AcDbLine
 10
281.8183497247257
 20
148.970057888382
 30
0.0
 11
279.7279594441272
 21
148.970057888382
 31
0.0
  0
LINE
  5
E00ED285
330
E00DEA5D
100
AcDbEntity
  8
JISSEN
100
AcDbLine
 10
277.4560025947769
 20
147.7700578883831
 30
0.0
 11
278.4557061994776
 21
147.0700578883823
 31
0.0
  0
LINE
  5
E00ED286
330
E00DEA5D
100
AcDbEntity
  8
JISSEN
100
AcDbLine
 10
275.8557061994754
 20
147.720057888382
 30
0.0
 11
275.8557061994754
 21
146.5700578883823
 31
0.0
  0
LINE
  5
E00ED287
330
E00DEA5D
100
AcDbEntity
  8
JISSEN
100
AcDbLine
 10
266.2557061994768
 20
146.5700578883823
 30
0.0
 11
266.2557061994768
 21
147.720057888382
 31
0.0
  0
LINE
  5
E00ED288
330
E00DEA5D
100
AcDbEntity
  8
JISSEN
100
AcDbLine
 10
275.2552315019777
 20
146.5700578883823
 30
0.0
 11
266.2557061994768
 21
146.5700578883823
 31
0.0
  0
LINE
  5
E00ED289
330
E00DEA5D
100
AcDbEntity
  8
JISSEN
100
AcDbLine
 10
275.8557061994754
 20
146.5700578883823
 30
0.0
 11
275.2552315019777
 21
146.5700578883823
 31
0.0
  0
LINE
  5
E00ED28A
330
E00DEA5D
100
AcDbEntity
  8
JISSEN
100
AcDbLine
 10
273.1277008108256
 20
147.7700578883831
 30
0.0
 11
268.9837115881775
 21
147.7700578883831
 31
0.0
  0
LINE
  5
E00ED28B
330
E00DEA5D
100
AcDbEntity
  8
JISSEN
100
AcDbLine
 10
275.2552315019777
 20
147.720057888382
 30
0.0
 11
266.2557061994768
 21
147.720057888382
 31
0.0
  0
LINE
  5
E00ED28C
330
E00DEA5D
100
AcDbEntity
  8
JISSEN
100
AcDbLine
 10
273.1277008108256
 20
148.970057888382
 30
0.0
 11
268.9837115881775
 21
148.970057888382
 31
0.0
  0
LINE
  5
E00ED28D
330
E00DEA5D
100
AcDbEntity
  8
JISSEN
100
AcDbLine
 10
267.555706199477
 20
153.1200578883835
 30
0.0
 11
274.555706199477
 21
153.1200578883835
 31
0.0
  0
LINE
  5
E00ED28E
330
E00DEA5D
100
AcDbEntity
  8
JISSEN
100
AcDbLine
 10
274.305706199477
 20
153.3700578883834
 30
0.0
 11
267.805706199477
 21
153.3700578883834
 31
0.0
  0
LINE
  5
E00ED28F
330
E00DEA5D
100
AcDbEntity
  8
JISSEN
100
AcDbLine
 10
267.5557061994761
 20
150.8700578883834
 30
0.0
 11
267.555706199477
 21
153.1200578883835
 31
0.0
  0
LINE
  5
E00ED290
330
E00DEA5D
100
AcDbEntity
  8
JISSEN
100
AcDbLine
 10
267.2450451008255
 20
147.7700578883831
 30
0.0
 11
267.2450451008255
 21
148.970057888382
 31
0.0
  0
LINE
  5
E00ED291
330
E00DEA5D
100
AcDbEntity
  8
JISSEN
100
AcDbLine
 10
268.9837115881775
 20
148.970057888382
 30
0.0
 11
268.9837115881775
 21
147.7700578883831
 31
0.0
  0
LINE
  5
E00ED292
330
E00DEA5D
100
AcDbEntity
  8
JISSEN
100
AcDbLine
 10
267.2450451008255
 20
147.7700578883831
 30
0.0
 11
268.0122929769761
 21
147.7700578883831
 31
0.0
  0
LINE
  5
E00ED293
330
E00DEA5D
100
AcDbEntity
  8
JISSEN
100
AcDbLine
 10
266.4057061994765
 20
147.720057888382
 30
0.0
 11
266.4057061994765
 21
147.7700578883831
 31
0.0
  0
LINE
  5
E00ED294
330
E00DEA5D
100
AcDbEntity
  8
JISSEN
100
AcDbLine
 10
268.0122929769761
 20
147.7700578883831
 30
0.0
 11
268.9837115881775
 21
147.7700578883831
 31
0.0
  0
LINE
  5
E00ED295
330
E00DEA5D
100
AcDbEntity
  8
JISSEN
100
AcDbLine
 10
267.2450451008255
 20
148.970057888382
 30
0.0
 11
268.0122929769761
 21
148.970057888382
 31
0.0
  0
LINE
  5
E00ED296
330
E00DEA5D
100
AcDbEntity
  8
JISSEN
100
AcDbLine
 10
268.0122929769761
 20
148.970057888382
 30
0.0
 11
268.9837115881775
 21
148.970057888382
 31
0.0
  0
LINE
  5
E00ED297
330
E00DEA5D
100
AcDbEntity
  8
JISSEN
100
AcDbLine
 10
267.555706199477
 20
153.1200578883835
 30
0.0
 11
267.805706199477
 21
153.3700578883834
 31
0.0
  0
LINE
  5
E00ED298
330
E00DEA5D
100
AcDbEntity
  8
JISSEN
100
AcDbLine
 10
274.555706199477
 20
153.1200578883835
 30
0.0
 11
274.5557061994761
 21
150.8700578883834
 31
0.0
  0
LINE
  5
E00ED299
330
E00DEA5D
100
AcDbEntity
  8
JISSEN
100
AcDbLine
 10
276.6307061994769
 20
150.8700578883834
 30
0.0
 11
275.9332798580755
 21
150.8700578883834
 31
0.0
  0
LINE
  5
E00ED29A
330
E00DEA5D
100
AcDbEntity
  8
JISSEN
100
AcDbLine
 10
278.4551672380268
 20
147.7700578883831
 30
0.0
 11
274.8663672981777
 21
147.7700578883831
 31
0.0
  0
LINE
  5
E00ED29B
330
E00DEA5D
100
AcDbEntity
  8
JISSEN
100
AcDbLine
 10
278.4551672380268
 20
148.970057888382
 30
0.0
 11
274.8663672981777
 21
148.970057888382
 31
0.0
  0
LINE
  5
E00ED29C
330
E00DEA5D
100
AcDbEntity
  8
JISSEN
100
AcDbLine
 10
274.8663672981777
 20
148.970057888382
 30
0.0
 11
274.8663672981777
 21
147.7700578883831
 31
0.0
  0
LINE
  5
E00ED29D
330
E00DEA5D
100
AcDbEntity
  8
JISSEN
100
AcDbLine
 10
273.1277008108256
 20
147.7700578883831
 30
0.0
 11
273.1277008108256
 21
148.970057888382
 31
0.0
  0
LINE
  5
E00ED29E
330
E00DEA5D
100
AcDbEntity
  8
JISSEN
100
AcDbLine
 10
274.0991194220252
 20
147.7700578883831
 30
0.0
 11
274.8663672981777
 21
147.7700578883831
 31
0.0
  0
LINE
  5
E00ED29F
330
E00DEA5D
100
AcDbEntity
  8
JISSEN
100
AcDbLine
 10
275.8557061994754
 20
147.720057888382
 30
0.0
 11
275.2552315019777
 21
147.720057888382
 31
0.0
  0
LINE
  5
E00ED2A0
330
E00DEA5D
100
AcDbEntity
  8
JISSEN
100
AcDbLine
 10
275.7057061994776
 20
147.7700578883831
 30
0.0
 11
275.7057061994776
 21
147.720057888382
 31
0.0
  0
LINE
  5
E00ED2A1
330
E00DEA5D
100
AcDbEntity
  8
JISSEN
100
AcDbLine
 10
273.1277008108256
 20
147.7700578883831
 30
0.0
 11
274.0991194220252
 21
147.7700578883831
 31
0.0
  0
LINE
  5
E00ED2A2
330
E00DEA5D
100
AcDbEntity
  8
JISSEN
100
AcDbLine
 10
274.0991194220252
 20
148.970057888382
 30
0.0
 11
274.8663672981777
 21
148.970057888382
 31
0.0
  0
LINE
  5
E00ED2A3
330
E00DEA5D
100
AcDbEntity
  8
JISSEN
100
AcDbLine
 10
273.1277008108256
 20
148.970057888382
 30
0.0
 11
274.0991194220252
 21
148.970057888382
 31
0.0
  0
LINE
  5
E00ED2A4
330
E00DEA5D
100
AcDbEntity
  8
JISSEN
100
AcDbLine
 10
277.8057061994761
 20
150.3700578883834
 30
0.0
 11
276.9612886560764
 21
150.3700578883834
 31
0.0
  0
LINE
  5
E00ED2A5
330
E00DEA5D
100
AcDbEntity
  8
JISSEN
100
AcDbLine
 10
276.6307061994769
 20
150.8700578883834
 30
0.0
 11
276.6307061994769
 21
150.3700578883834
 31
0.0
  0
LINE
  5
E00ED2A6
330
E00DEA5D
100
AcDbEntity
  8
JISSEN
100
AcDbLine
 10
279.7279594441272
 20
148.970057888382
 30
0.0
 11
279.7279594441272
 21
147.7700578883831
 31
0.0
  0
LINE
  5
E00ED2A7
330
E00DEA5D
100
AcDbEntity
  8
JISSEN
100
AcDbLine
 10
278.4551672380268
 20
147.7700578883831
 30
0.0
 11
278.4551672380268
 21
148.970057888382
 31
0.0
  0
LINE
  5
E00ED2A8
330
E00DEA5D
100
AcDbEntity
  8
JISSEN
100
AcDbLine
 10
278.4551672380268
 20
147.7700578883831
 30
0.0
 11
279.7279594441272
 21
147.7700578883831
 31
0.0
  0
LINE
  5
E00ED2A9
330
E00DEA5D
100
AcDbEntity
  8
JISSEN
100
AcDbLine
 10
278.4551672380268
 20
148.970057888382
 30
0.0
 11
279.7279594441272
 21
148.970057888382
 31
0.0
  0
LINE
  5
E00ED2AA
330
E00DEA5D
100
AcDbEntity
  8
JISSEN
100
AcDbLine
 10
277.8057061994761
 20
150.3700578883834
 30
0.0
 11
277.8057061994761
 21
148.970057888382
 31
0.0
  0
LINE
  5
E00ED2AB
330
E00DEA5D
100
AcDbEntity
  8
JISSEN
100
AcDbLine
 10
274.305706199477
 20
153.3700578883834
 30
0.0
 11
274.555706199477
 21
153.1200578883835
 31
0.0
  0
LINE
  5
E00ED2AC
330
E00DEA5D
100
AcDbEntity
  8
JISSEN
100
AcDbLine
 10
282.3565911205762
 20
147.0700578883823
 30
0.0
 11
282.3565911205762
 21
147.7700578883831
 31
0.0
  0
LINE
  5
E00ED2AD
330
E00DEA5D
100
AcDbEntity
  8
JISSEN
100
AcDbLine
 10
282.4557061994776
 20
148.2700578883831
 30
0.0
 11
282.4557061994776
 21
147.0700578883823
 31
0.0
  0
LINE
  5
E00ED2AE
330
E00DEA5D
100
AcDbEntity
  8
JISSEN
100
AcDbLine
 10
282.4557061994776
 20
147.0700578883823
 30
0.0
 11
282.3565911205762
 21
147.0700578883823
 31
0.0
  0
LINE
  5
E00ED2AF
330
E00DEA5D
100
AcDbEntity
  8
JISSEN
100
AcDbLine
 10
282.3565911205762
 20
148.970057888382
 30
0.0
 11
282.3565911205762
 21
148.2700578883831
 31
0.0
  0
LINE
  5
E00ED2B0
330
E00DEA5D
100
AcDbEntity
  8
JISSEN
100
AcDbLine
 10
282.2561153518265
 20
148.970057888382
 30
0.0
 11
282.2561153518265
 21
147.7700578883831
 31
0.0
  0
LINE
  5
E00ED2B1
330
E00DEA5D
100
AcDbEntity
  8
JISSEN
100
AcDbLine
 10
281.8183497247257
 20
147.7700578883831
 30
0.0
 11
281.8183497247257
 21
148.970057888382
 31
0.0
  0
LINE
  5
E00ED2B2
330
E00DEA5D
100
AcDbEntity
  8
JISSEN
100
AcDbLine
 10
282.3565911205762
 20
147.7700578883831
 30
0.0
 11
282.2561153518265
 21
147.7700578883831
 31
0.0
  0
LINE
  5
E00ED2B3
330
E00DEA5D
100
AcDbEntity
  8
JISSEN
100
AcDbLine
 10
282.3565911205762
 20
148.2700578883831
 30
0.0
 11
282.4557061994776
 21
148.2700578883831
 31
0.0
  0
LINE
  5
E00ED2B4
330
E00DEA5D
100
AcDbEntity
  8
JISSEN
100
AcDbLine
 10
281.8183497247257
 20
147.7700578883831
 30
0.0
 11
282.2561153518265
 21
147.7700578883831
 31
0.0
  0
LINE
  5
E00ED2B5
330
E00DEA5D
100
AcDbEntity
  8
JISSEN
100
AcDbLine
 10
282.3565911205762
 20
148.970057888382
 30
0.0
 11
282.2561153518265
 21
148.970057888382
 31
0.0
  0
LINE
  5
E00ED2B6
330
E00DEA5D
100
AcDbEntity
  8
JISSEN
100
AcDbLine
 10
281.8183497247257
 20
148.970057888382
 30
0.0
 11
282.2561153518265
 21
148.970057888382
 31
0.0
  0
LINE
  5
E00ED2B7
330
E00DEA5D
100
AcDbEntity
  8
JISSEN
100
AcDbLine
 10
276.4062857178342
 20
172.4229012119338
 30
0.0
 11
281.7902592812914
 21
172.4229012119338
 31
0.0
  0
LINE
  5
E00ED2B8
330
E00DEA5D
100
AcDbEntity
  8
JISSEN
100
AcDbLine
 10
287.792668951076
 20
157.9229012119338
 30
0.0
 11
271.0557061994769
 21
157.922901211932
 31
0.0
  0
LINE
  5
E00ED2BA
330
E00DEA5D
100
AcDbEntity
  8
JISSEN
100
AcDbLine
 10
265.8761367528423
 20
171.9229012118593
 30
0.0
 11
265.8761367528423
 21
167.4229012118987
 31
0.0
  0
LINE
  5
E00ED2BB
330
E00DEA5D
100
AcDbEntity
  8
JISSEN
100
AcDbLine
 10
265.8761367528169
 20
171.9229012119338
 30
0.0
 11
265.8761367528169
 21
167.4229012119338
 31
0.0
  0
LINE
  5
E00ED2BC
330
E00DEA5D
100
AcDbEntity
  8
JISSEN
100
AcDbLine
 10
276.7674425930091
 20
172.4229012119338
 30
0.0
 11
276.7674425930091
 21
167.4229012119027
 31
0.0
  0
LINE
  5
E00ED2BD
330
E00DEA5D
100
AcDbEntity
  8
JISSEN
100
AcDbLine
 10
276.2352756461351
 20
171.9229012119338
 30
0.0
 11
276.2352756461351
 21
167.4229012119338
 31
0.0
  0
LINE
  5
E00ED2BE
330
E00DEA5D
100
AcDbEntity
  8
JISSEN
100
AcDbLine
 10
276.2352756461097
 20
171.9229012118593
 30
0.0
 11
276.2352756461097
 21
167.4229012118987
 31
0.0
  0
LINE
  5
E00ED2BF
330
E00DEA5D
100
AcDbEntity
  8
JISSEN
100
AcDbLine
 10
271.6818868027759
 20
165.9229012119338
 30
0.0
 11
275.6667061281406
 21
165.9229012119338
 31
0.0
  0
LINE
  5
E00ED2C0
330
E00DEA5D
100
AcDbEntity
  8
JISSEN
100
AcDbLine
 10
271.6818868027759
 20
165.9229012119338
 30
0.0
 11
271.6557061994764
 21
162.9229012119338
 31
0.0
  0
LINE
  5
E00ED2C1
330
E00DEA5D
100
AcDbEntity
  8
JISSEN
100
AcDbLine
 10
270.4295255961761
 20
165.9229012119338
 30
0.0
 11
270.4557061994756
 21
162.9229012119338
 31
0.0
  0
LINE
  5
E00ED2C2
330
E00DEA5D
100
AcDbEntity
  8
JISSEN
100
AcDbLine
 10
270.4557061994756
 20
162.9229012119338
 30
0.0
 11
271.6557061994764
 21
162.9229012119338
 31
0.0
  0
LINE
  5
E00ED2C3
330
E00DEA5D
100
AcDbEntity
  8
JISSEN
100
AcDbLine
 10
270.4295255961761
 20
165.9229012119338
 30
0.0
 11
266.4447062708114
 21
165.9229012119338
 31
0.0
  0
SPLINE
  5
E00ED2C4
330
E00DEA5D
100
AcDbEntity
  8
JISSEN
100
AcDbSpline
210
0.0
220
0.0
230
1.0
 70
     8
 71
     3
 72
    18
 73
    14
 74
     0
 42
0.0000000001
 43
0.0000000001
 40
0.0
 40
0.0
 40
0.0
 40
0.0
 40
0.1249999999999994
 40
0.1249999999999994
 40
0.2499999999999989
 40
0.2499999999999989
 40
0.3749999999999983
 40
0.3749999999999983
 40
0.4999999999999978
 40
0.4999999999999978
 40
0.749999999999999
 40
0.749999999999999
 40
1.0
 40
1.0
 40
1.0
 40
1.0
 10
265.8761367528423
 20
167.4229012119028
 30
0.0
 10
265.8761367528423
 20
167.3237778719756
 30
0.0
 10
265.8835946954988
 20
167.2263112491179
 30
0.0
 10
265.9127533584779
 20
167.034556006796
 30
0.0
 10
265.9348073093953
 20
166.9392736780371
 30
0.0
 10
265.9921757199027
 20
166.7575835498171
 30
0.0
 10
266.0272026899093
 20
166.6714121904476
 30
0.0
 10
266.1095551594099
 20
166.508335306187
 30
0.0
 10
266.1573100141014
 20
166.4311303191204
 30
0.0
 10
266.3128204247642
 20
166.2235950241827
 30
0.0
 10
266.436969773271
 20
166.1119078147455
 30
0.0
 10
266.700184702153
 20
165.9624636141195
 30
0.0
 10
266.8416356619401
 20
165.9229012119028
 30
0.0
 10
266.9812860629973
 20
165.9229012119028
 30
0.0
  0
SPLINE
  5
E00ED2C5
330
E00DEA5D
100
AcDbEntity
  8
JISSEN
100
AcDbSpline
210
0.0
220
0.0
230
1.0
 70
     8
 71
     3
 72
    18
 73
    14
 74
     0
 42
0.0000000001
 43
0.0000000001
 40
0.0
 40
0.0
 40
0.0
 40
0.0
 40
0.1249999999999997
 40
0.1249999999999997
 40
0.2499999999999994
 40
0.2499999999999994
 40
0.3749999999999992
 40
0.3749999999999992
 40
0.499999999999999
 40
0.499999999999999
 40
0.7499999999999995
 40
0.7499999999999995
 40
1.0
 40
1.0
 40
1.0
 40
1.0
 10
275.6667061281405
 20
165.9229012119028
 30
0.0
 10
275.7358951984369
 20
165.9229012119028
 30
0.0
 10
275.8046392800843
 20
165.9325367080671
 30
0.0
 10
275.9411860209711
 20
165.9703988052676
 30
0.0
 10
276.0097171278266
 20
165.9990877537727
 30
0.0
 10
276.1415339714076
 20
166.0740869600629
 30
0.0
 10
276.204633268022
 20
166.1200205841248
 30
0.0
 10
276.324930862127
 20
166.2286450654862
 30
0.0
 10
276.3823589217172
 20
166.2919102495723
 30
0.0
 10
276.537663425468
 20
166.4993001974396
 30
0.0
 10
276.6225791322012
 20
166.6665950855419
 30
0.0
 10
276.7368033370057
 20
167.0275906915719
 30
0.0
 10
276.767442593009
 20
167.224621336645
 30
0.0
 10
276.767442593009
 20
167.4229012119028
 30
0.0
  0
SPLINE
  5
E00ED2C6
330
E00DEA5D
100
AcDbEntity
  8
JISSEN
100
AcDbSpline
210
0.0
220
0.0
230
1.0
 70
     8
 71
     3
 72
    18
 73
    14
 74
     0
 42
0.0000000001
 43
0.0000000001
 40
0.0
 40
0.0
 40
0.0
 40
0.0
 40
0.1249999999999994
 40
0.1249999999999994
 40
0.2499999999999989
 40
0.2499999999999989
 40
0.3749999999999983
 40
0.3749999999999983
 40
0.4999999999999978
 40
0.4999999999999978
 40
0.749999999999999
 40
0.749999999999999
 40
1.0
 40
1.0
 40
1.0
 40
1.0
 10
276.2352756461097
 20
167.4229012119028
 30
0.0
 10
276.2352756461097
 20
167.3237778719756
 30
0.0
 10
276.2278177034533
 20
167.2263112491179
 30
0.0
 10
276.1986590404741
 20
167.034556006796
 30
0.0
 10
276.1766050895567
 20
166.9392736780371
 30
0.0
 10
276.1192366790493
 20
166.7575835498171
 30
0.0
 10
276.0842097090427
 20
166.6714121904476
 30
0.0
 10
276.0018572395421
 20
166.508335306187
 30
0.0
 10
275.9541023848506
 20
166.4311303191204
 30
0.0
 10
275.7985919741878
 20
166.2235950241827
 30
0.0
 10
275.6744426256811
 20
166.1119078147455
 30
0.0
 10
275.411227696799
 20
165.9624636141195
 30
0.0
 10
275.2697767370119
 20
165.9229012119028
 30
0.0
 10
275.1301263359547
 20
165.9229012119028
 30
0.0
  0
LINE
  5
E00ED2C7
330
E00DEA5D
100
AcDbEntity
  8
JISSEN
370
    -2
100
AcDbLine
 10
276.2352756461097
 20
171.6729425492484
 30
0.0
 11
271.0557061994761
 21
171.6729425492484
 31
0.0
  0
LINE
  5
E00ED2C8
330
E00DEA5D
100
AcDbEntity
  8
JISSEN
100
AcDbLine
 10
276.2352756461095
 20
170.6700579327343
 30
0.0
 11
271.0557061994761
 21
170.6700579327078
 31
0.0
  0
LINE
  5
E00ED2C9
330
E00DEA5D
100
AcDbEntity
  8
JISSEN
100
AcDbLine
 10
276.2352756461095
 20
170.6700579327343
 30
0.0
 11
271.0557061994761
 21
170.6700579327078
 31
0.0
  0
LINE
  5
E00ED2CA
330
E00DEA5D
100
AcDbEntity
  8
JISSEN
370
    -2
100
AcDbLine
 10
277.1751008742778
 20
174.6729430409467
 30
0.0
 11
271.0557061994761
 21
174.6729430409467
 31
0.0
  0
LINE
  5
E00ED2CB
330
E00DEA5D
100
AcDbEntity
  8
JISSEN
370
    -2
100
AcDbLine
 10
265.8761367528169
 20
171.6729425492487
 30
0.0
 11
271.0557061994761
 21
171.6729425492502
 31
0.0
  0
LINE
  5
E00ED2CC
330
E00DEA5D
100
AcDbEntity
  8
JISSEN
100
AcDbLine
 10
265.8761367528169
 20
170.6700579327343
 30
0.0
 11
271.0557061994761
 21
170.6700579327078
 31
0.0
  0
LINE
  5
E00ED2CD
330
E00DEA5D
100
AcDbEntity
  8
JISSEN
100
AcDbLine
 10
265.8761367528169
 20
170.6700579327343
 30
0.0
 11
271.0557061994761
 21
170.6700579327078
 31
0.0
  0
SPLINE
  5
E00ED2CE
330
E00DEA5D
100
AcDbEntity
  8
JISSEN
370
    -2
100
AcDbSpline
210
0.0
220
0.0
230
1.0
 70
    12
 71
     3
 72
    10
 73
     6
 74
     0
 42
0.0000000001
 43
0.0000000001
 40
0.4863364291330427
 40
0.4863364291330427
 40
0.4863364291330427
 40
0.4863364291330427
 40
0.5996174274824865
 40
0.7976149977365948
 40
1.0
 40
1.0
 40
1.0
 40
1.0
 10
265.8672736270089
 20
171.948815258165
 30
0.0
 41
1.0
 10
265.9787132527529
 20
171.8992992921301
 30
0.0
 41
1.0
 10
266.2955662929641
 20
171.7877217463698
 30
0.0
 41
1.0
 10
266.8474395714422
 20
171.6883899878338
 30
0.0
 41
1.0
 10
267.2910267900972
 20
171.6781291751102
 30
0.0
 41
1.0
 10
267.5152508358316
 20
171.6729425492484
 30
0.0
 41
1.0
  0
ARC
  5
E00ED2CF
330
E00DEA5D
100
AcDbEntity
  8
JISSEN
370
    -2
100
AcDbCircle
 10
277.370170398077
 20
173.0355650324453
 30
0.0
 40
1.648956901138485
100
AcDbArc
 50
4.778960574511389
 51
96.79392819032045
  0
SPLINE
  5
E00ED2D0
330
E00DEA5D
100
AcDbEntity
  8
JISSEN
370
    -2
100
AcDbSpline
210
0.0
220
0.0
230
1.0
 70
    12
 71
     3
 72
    14
 73
    10
 74
     0
 42
0.0000000001
 43
0.0000000001
 40
0.0
 40
0.0
 40
0.0
 40
0.0
 40
0.2170493941225676
 40
0.4388311995732112
 40
0.5988137766302898
 40
0.7597871991591737
 40
0.8750649674182215
 40
0.9755548291618868
 40
1.0
 40
1.0
 40
1.0
 40
1.0
 10
274.5961615631206
 20
174.6729430409867
 30
0.0
 41
1.0
 10
274.836524052803
 20
174.6669774894143
 30
0.0
 41
1.0
 10
275.322489747876
 20
174.6549163170565
 30
0.0
 41
1.0
 10
275.9631213350715
 20
174.525726826614
 30
0.0
 41
1.0
 10
276.5000561337631
 20
174.2898037690755
 30
0.0
 41
1.0
 10
276.8718637105978
 20
173.9837434604377
 30
0.0
 41
1.0
 10
277.0936465877742
 20
173.6188632238262
 30
0.0
 41
1.0
 10
277.1603659430804
 20
173.3452799664336
 30
0.0
 41
1.0
 10
277.1637538529387
 20
173.2011447355215
 30
0.0
 41
1.0
 10
277.1644167417509
 20
173.1729427951175
 30
0.0
 41
1.0
  0
SPLINE
  5
E00ED2D1
330
E00DEA5D
100
AcDbEntity
  8
JISSEN
370
    -2
100
AcDbSpline
210
0.0
220
0.0
230
1.0
 70
    12
 71
     3
 72
    10
 73
     6
 74
     0
 42
0.0000000001
 43
0.0000000001
 40
0.4863364291330975
 40
0.4863364291330975
 40
0.4863364291330975
 40
0.4863364291330975
 40
0.5996174274824865
 40
0.7976149977365948
 40
1.0
 40
1.0
 40
1.0
 40
1.0
 10
276.244138771943
 20
171.948815258165
 30
0.0
 41
1.0
 10
276.1326991461992
 20
171.8992992921301
 30
0.0
 41
1.0
 10
275.8158461059881
 20
171.7877217463698
 30
0.0
 41
1.0
 10
275.26397282751
 20
171.6883899878338
 30
0.0
 41
1.0
 10
274.820385608855
 20
171.6781291751102
 30
0.0
 41
1.0
 10
274.5961615631206
 20
171.6729425492484
 30
0.0
 41
1.0
  0
LINE
  5
E00ED2D2
330
E00DEA5D
100
AcDbEntity
  8
JISSEN
100
AcDbLine
 10
276.4062857178342
 20
172.4229012119338
 30
0.0
 11
276.2352756461351
 21
171.9229012119338
 31
0.0
  0
SPLINE
  5
E00ED2D3
330
E00DEA5D
100
AcDbEntity
  8
JISSEN
370
    -2
100
AcDbSpline
210
0.0
220
0.0
230
1.0
 70
    12
 71
     3
 72
    10
 73
     6
 74
     0
 42
0.0000000001
 43
0.0000000001
 40
0.0
 40
0.0
 40
0.0
 40
0.0
 40
0.1088769686984931
 40
0.2172663573285982
 40
0.2385701061928065
 40
0.2385701061928065
 40
0.2385701061928065
 40
0.2385701061928065
 10
277.1644167417509
 20
173.1729427951175
 30
0.0
 41
1.0
 10
277.1517234513351
 20
173.0466618088938
 30
0.0
 41
1.0
 10
277.1263937144406
 20
172.7946653563448
 30
0.0
 41
1.0
 10
276.9922124038616
 20
172.5552435345074
 30
0.0
 41
1.0
 10
276.9035568124703
 20
172.4412039979919
 30
0.0
 41
1.0
 10
276.8885956622098
 20
172.4229012119339
 30
0.0
 41
1.0
  0
ARC
  5
E00ED2D4
330
E00DEA5D
100
AcDbEntity
  8
JISSEN
370
    -2
100
AcDbCircle
 10
277.377711254777
 20
173.3010790189472
 30
0.0
 40
1.640694770587604
100
AcDbArc
 50
327.6393008350143
 51
355.5207093781103
  0
LINE
  5
E00ED2D5
330
E00DEA5D
100
AcDbEntity
  8
JISSEN
 62
     0
 48
0.1
100
AcDbLine
 10
287.5735510086006
 20
161.1547855018687
 30
0.0
 11
287.7557061994758
 21
172.4229012119338
 31
0.0
  0
LINE
  5
E00ED2D6
330
E00DEA5D
100
AcDbEntity
  8
JISSEN
 62
     0
 48
0.1
100
AcDbLine
 10
285.9438500042729
 20
167.4229012119093
 30
0.0
 11
286.0257442065814
 21
171.9270823390778
 31
0.0
  0
LINE
  5
E00ED2D7
330
E00DEA5D
100
AcDbEntity
  8
JISSEN
100
AcDbLine
 10
281.7902592812915
 20
172.4229012119338
 30
0.0
 11
281.7902592812914
 21
167.4229012118675
 31
0.0
  0
LINE
  5
E00ED2D8
330
E00DEA5D
100
AcDbEntity
  8
JISSEN
 62
     0
 48
0.1
100
AcDbLine
 10
287.4211679678763
 20
167.4229012118965
 30
0.0
 11
287.5019956748166
 21
172.4229012119338
 31
0.0
  0
LINE
  5
E00ED2D9
330
E00DEA5D
100
AcDbEntity
  8
JISSEN
100
AcDbLine
 10
285.7057061994776
 20
167.6700579327079
 30
0.0
 11
286.0057061994769
 21
170.1133618611019
 31
0.0
  0
LINE
  5
E00ED2DA
330
E00DEA5D
100
AcDbEntity
  8
JISSEN
100
AcDbLine
 10
285.1956984153124
 20
165.9229012119334
 30
0.0
 11
287.0866495393793
 21
165.9229012119345
 31
0.0
  0
LINE
  5
E00ED2DB
330
E00DEA5D
100
AcDbEntity
  8
JISSEN
100
AcDbLine
 10
285.8090042200764
 20
162.9229012119338
 30
0.0
 11
285.8206984153905
 21
165.9229012119338
 31
0.0
  0
LINE
  5
E00ED2DC
330
E00DEA5D
100
AcDbEntity
  8
JISSEN
100
AcDbLine
 10
285.2090042200753
 20
162.9229012119338
 30
0.0
 11
285.1956984153127
 21
165.9229012118585
 31
0.0
  0
LINE
  5
E00ED2DD
330
E00DEA5D
100
AcDbEntity
  8
JISSEN
100
AcDbLine
 10
285.2090042200753
 20
162.9229012119338
 30
0.0
 11
285.8090042200764
 21
162.9229012119338
 31
0.0
  0
LINE
  5
E00ED2DE
330
E00DEA5D
100
AcDbEntity
  8
JISSEN
100
AcDbLine
 10
283.2255141746294
 20
165.9229012119338
 30
0.0
 11
283.8944494740918
 21
165.9229012119338
 31
0.0
  0
SPLINE
  5
E00ED2DF
330
E00DEA5D
100
AcDbEntity
  8
JISSEN
100
AcDbSpline
210
0.0
220
0.0
230
1.0
 70
     8
 71
     3
 72
    18
 73
    14
 74
     0
 42
0.0000000001
 43
0.0000000001
 40
0.0
 40
0.0
 40
0.0
 40
0.0
 40
0.1250000000000001
 40
0.1250000000000001
 40
0.2500000000000001
 40
0.2500000000000001
 40
0.5
 40
0.5
 40
0.7499999999999999
 40
0.7499999999999999
 40
0.8749999999999998
 40
0.8749999999999998
 40
1.0
 40
1.0
 40
1.0
 40
1.0
 10
281.7902592812623
 20
167.4229012118719
 30
0.0
 10
281.7902592812623
 20
167.3242076260283
 30
0.0
 10
281.7993208800397
 20
167.2268648563547
 30
0.0
 10
281.8351696106909
 20
167.0348161700765
 30
0.0
 10
281.8624294930176
 20
166.9391941478368
 30
0.0
 10
281.9685881238873
 20
166.6673714290826
 30
0.0
 10
282.0738711570064
 20
166.5005251831915
 30
0.0
 10
282.3375177151027
 20
166.2231364742509
 30
0.0
 10
282.4967572896874
 20
166.1117782085855
 30
0.0
 10
282.7574726474721
 20
165.9994804478554
 30
0.0
 10
282.8494321945107
 20
165.970592843905
 30
0.0
 10
283.0350156044167
 20
165.9325387449205
 30
0.0
 10
283.1294261354304
 20
165.9229012118719
 30
0.0
 10
283.2255141746299
 20
165.9229012118719
 30
0.0
  0
SPLINE
  5
E00ED2E0
330
E00DEA5D
100
AcDbEntity
  8
JISSEN
100
AcDbSpline
210
0.0
220
0.0
230
1.0
 70
     8
 71
     3
 72
    18
 73
    14
 74
     0
 42
0.0000000001
 43
0.0000000001
 40
0.0
 40
0.0
 40
0.0
 40
0.0
 40
0.1250000000000001
 40
0.1250000000000001
 40
0.2500000000000002
 40
0.2500000000000002
 40
0.3750000000000002
 40
0.3750000000000002
 40
0.5000000000000004
 40
0.5000000000000004
 40
0.7500000000000001
 40
0.7500000000000001
 40
1.0
 40
1.0
 40
1.0
 40
1.0
 10
285.9438500042728
 20
167.4229012119092
 30
0.0
 10
285.9438500042728
 20
167.3237604305456
 30
0.0
 10
285.9421688475471
 20
167.2262769166507
 30
0.0
 10
285.9354750022415
 20
167.0344889706982
 30
0.0
 10
285.9303793573275
 20
166.93919018281
 30
0.0
 10
285.9167285527004
 20
166.7574750614137
 30
0.0
 10
285.9082420873841
 20
166.6712928580025
 30
0.0
 10
285.8875177597332
 20
166.5081983315637
 30
0.0
 10
285.8751568937135
 20
166.4309888019968
 30
0.0
 10
285.8330903148493
 20
166.2234550901328
 30
0.0
 10
285.7971820480073
 20
166.1117876698488
 30
0.0
 10
285.7126038259106
 20
165.9624129474948
 30
0.0
 10
285.6631162419147
 20
165.9229012119092
 30
0.0
 10
285.6093315757756
 20
165.9229012119092
 30
0.0
  0
LINE
  5
E00ED2E1
330
E00DEA5D
100
AcDbEntity
  8
JISSEN
100
AcDbLine
 10
284.3478536081757
 20
165.9229012119338
 30
0.0
 11
285.1956984153124
 21
165.9229012119338
 31
0.0
  0
LINE
  5
E00ED2E2
330
E00DEA5D
100
AcDbEntity
  8
JISSEN
100
AcDbLine
 10
283.8944494770777
 20
165.9229012119338
 30
0.0
 11
284.5206300804776
 21
165.9229012119338
 31
0.0
  0
LINE
  5
E00ED2E3
330
E00DEA5D
100
AcDbEntity
  8
JISSEN
100
AcDbLine
 10
285.9483437628326
 20
167.6700579327079
 30
0.0
 11
285.7057061994776
 21
167.6700579327079
 31
0.0
  0
ARC
  5
E00ED2E4
330
E00DEA5D
100
AcDbEntity
  8
JISSEN
100
AcDbCircle
 10
287.6572004557757
 20
159.4167714495341
 30
0.0
 40
1.499999999999995
100
AcDbArc
 50
275.18157546905
 51
278.0000000000402
  0
ARC
  5
E00ED2E5
330
E00DEA5D
100
AcDbEntity
  8
JISSEN
100
AcDbCircle
 10
289.0733550534615
 20
161.1305403575095
 30
0.0
 40
1.5
100
AcDbArc
 50
179.073863373509
 51
187.9567814936291
  0
SPLINE
  5
E00ED2E6
330
E00DEA5D
100
AcDbEntity
  8
JISSEN
100
AcDbSpline
210
0.0
220
0.0
230
1.0
 70
     8
 71
     3
 72
    18
 73
    14
 74
     0
 42
0.0000000001
 43
0.0000000001
 40
0.0
 40
0.0
 40
0.0
 40
0.0
 40
0.1250000000000001
 40
0.1250000000000001
 40
0.2500000000000002
 40
0.2500000000000002
 40
0.3750000000000002
 40
0.3750000000000002
 40
0.5000000000000004
 40
0.5000000000000004
 40
0.7500000000000001
 40
0.7500000000000001
 40
1.0
 40
1.0
 40
1.0
 40
1.0
 10
287.4211679678763
 20
167.4229012119029
 30
0.0
 10
287.4211679678763
 20
167.3237604305393
 30
0.0
 10
287.4194868111507
 20
167.2262769166444
 30
0.0
 10
287.4127929658451
 20
167.0344889706919
 30
0.0
 10
287.407697320931
 20
166.9391901828037
 30
0.0
 10
287.394046516304
 20
166.7574750614074
 30
0.0
 10
287.3855600509876
 20
166.6712928579961
 30
0.0
 10
287.3648357233367
 20
166.5081983315574
 30
0.0
 10
287.3524748573171
 20
166.4309888019905
 30
0.0
 10
287.3104082784528
 20
166.2234550901264
 30
0.0
 10
287.2745000116109
 20
166.1117876698424
 30
0.0
 10
287.1899217895141
 20
165.9624129474885
 30
0.0
 10
287.1404342055183
 20
165.9229012119029
 30
0.0
 10
287.0866495393792
 20
165.9229012119029
 30
0.0
  0
LINE
  5
E00ED2E7
330
E00DEA5D
100
AcDbEntity
  8
JISSEN
100
AcDbLine
 10
286.555706199476
 20
172.4229012119338
 30
0.0
 11
287.7557061994758
 21
172.4229012119338
 31
0.0
  0
LINE
  5
E00ED2E9
330
E00DEA5D
100
AcDbEntity
  8
JISSEN
100
AcDbLine
 10
285.7057061994767
 20
170.6700579327806
 30
0.0
 11
285.7057061994767
 21
177.1729015472373
 31
0.0
  0
LINE
  5
E00ED2EA
330
E00DEA5D
100
AcDbEntity
  8
JISSEN
100
AcDbLine
 10
286.0057061995214
 20
170.6700579327842
 30
0.0
 11
281.7902592812914
 21
170.6700579327627
 31
0.0
  0
LINE
  5
E00ED2EB
330
E00DEA5D
100
AcDbEntity
  8
JISSEN
100
AcDbLine
 10
286.0057061995205
 20
170.6700579327842
 30
0.0
 11
281.7902592812915
 21
170.6700579327627
 31
0.0
  0
LINE
  5
E00ED2EC
330
E00DEA5D
100
AcDbEntity
  8
JISSEN
100
AcDbLine
 10
286.0257442065814
 20
171.9270823390778
 30
0.0
 11
286.5215630794374
 21
172.4229012119338
 31
0.0
  0
LINE
  5
E00ED2ED
330
E00DEA5D
100
AcDbEntity
  8
JISSEN
100
AcDbLine
 10
286.5202263711772
 20
172.4229012119338
 30
0.0
 11
286.555706199476
 21
172.4229012119338
 31
0.0
  0
LINE
  5
E00ED2EE
330
E00DEA5D
100
AcDbEntity
  8
JISSEN
100
AcDbLine
 10
286.0057061994769
 20
170.6700579327078
 30
0.0
 11
285.7057061994767
 21
170.6700579327078
 31
0.0
  0
LINE
  5
E00ED2EF
330
E00DEA5D
100
AcDbEntity
  8
SAISEN
100
AcDbLine
 10
285.2057061994766
 20
176.1729015341369
 30
0.0
 11
285.2057061994758
 21
177.1729015472336
 31
0.0
  0
LINE
  5
E00ED2F0
330
E00DEA5D
100
AcDbEntity
  8
JISSEN
100
AcDbLine
 10
285.7057061994767
 20
176.1729015341332
 30
0.0
 11
285.2057061994766
 21
176.1729015341332
 31
0.0
  0
LINE
  5
E00ED2F3
330
E00DEA5D
100
AcDbEntity
  8
JISSEN
100
AcDbLine
 10
259.7717316032606
 20
183.6729015472336
 30
0.0
 11
271.0557061994761
 21
183.6729015472336
 31
0.0
  0
LINE
  5
E00ED2F5
330
E00DEA5D
100
AcDbEntity
  8
JISSEN
100
AcDbLine
 10
262.0557061994761
 20
199.4729015472329
 30
0.0
 11
271.0557061994761
 21
199.4729015472329
 31
0.0
  0
LINE
  5
E00ED2F6
330
E00DEA5D
100
AcDbEntity
  8
JISSEN
100
AcDbLine
 10
260.7936094253757
 20
198.2108047730361
 30
0.0
 11
271.0557061994761
 21
198.2108047730361
 31
0.0
  0
LINE
  5
E00ED2F7
330
E00DEA5D
100
AcDbEntity
  8
NITEN
100
AcDbLine
 10
258.5557061994761
 20
188.4729015472329
 30
0.0
 11
283.5557061994761
 21
188.4729015472329
 31
0.0
  0
LINE
  5
E00ED2F8
330
E00DEA5D
100
AcDbEntity
  8
NITEN
100
AcDbLine
 10
258.0557061994761
 20
205.278251960968
 30
0.0
 11
258.0557061994766
 21
188.9729015472329
 31
0.0
  0
LINE
  5
E00ED2F9
330
E00DEA5D
100
AcDbEntity
  8
JISSEN
100
AcDbLine
 10
260.7936094253757
 20
198.2108047730361
 30
0.0
 11
260.3392999495256
 21
183.6729015472336
 31
0.0
  0
LINE
  5
E00ED2FA
330
E00DEA5D
100
AcDbEntity
  8
SAISEN
100
AcDbLine
 10
261.5576970814793
 20
185.4729015472402
 30
0.0
 11
261.9932676428591
 21
199.4104629882784
 31
0.0
  0
LINE
  5
E00ED2FB
330
E00DEA5D
100
AcDbEntity
  8
SAISEN
100
AcDbLine
 10
261.5576970814793
 20
185.4729015472365
 30
0.0
 11
261.9932676428591
 21
199.4104629882748
 31
0.0
  0
ARC
  5
E00ED2FE
330
E00DEA5D
100
AcDbEntity
  8
NITEN
100
AcDbCircle
 10
258.5557061994761
 20
188.9729015472329
 30
0.0
 40
0.5
100
AcDbArc
 50
180.0
 51
270.0
  0
LINE
  5
E00ED2FF
330
E00DEA5D
100
AcDbEntity
  8
JISSEN
100
AcDbLine
 10
262.0557061994761
 20
199.4729015472329
 30
0.0
 11
260.7936094253757
 21
198.2108047730361
 31
0.0
  0
ARC
  5
E00ED300
330
E00DEA5D
100
AcDbEntity
  8
NITEN
100
AcDbCircle
 10
252.0557061994761
 20
212.7332293280195
 30
0.0
 40
0.5
100
AcDbArc
 50
180.0
 51
235.0079798014511
  0
LINE
  5
E00ED301
330
E00DEA5D
100
AcDbEntity
  8
NITEN
100
AcDbLine
 10
257.924098071646
 20
205.6163161982366
 30
0.0
 11
251.768975027295
 21
212.32361336776
 31
0.0
  0
ARC
  5
E00ED302
330
E00DEA5D
100
AcDbEntity
  8
NITEN
100
AcDbCircle
 10
257.5557061994761
 20
205.278251960968
 30
0.0
 40
0.5
100
AcDbArc
 50
0.0
 51
42.54184415662172
  0
LINE
  5
E00ED303
330
E00DEA5D
100
AcDbEntity
  8
NITEN
100
AcDbLine
 10
284.0557061994766
 20
205.278251960968
 30
0.0
 11
284.0557061994761
 21
188.9729015472329
 31
0.0
  0
LINE
  5
E00ED305
330
E00DEA5D
100
AcDbEntity
  8
JISSEN
100
AcDbLine
 10
282.3396807956917
 20
183.6729015472336
 30
0.0
 11
271.0557061994761
 21
183.6729015472336
 31
0.0
  0
LINE
  5
E00ED306
330
E00DEA5D
100
AcDbEntity
  8
JISSEN
100
AcDbLine
 10
280.0557061994761
 20
199.4729015472329
 30
0.0
 11
271.0557061994761
 21
199.4729015472329
 31
0.0
  0
LINE
  5
E00ED307
330
E00DEA5D
100
AcDbEntity
  8
JISSEN
100
AcDbLine
 10
281.3178029735766
 20
198.2108047730361
 30
0.0
 11
271.0557061994761
 21
198.2108047730361
 31
0.0
  0
LINE
  5
E00ED308
330
E00DEA5D
100
AcDbEntity
  8
NITEN
100
AcDbLine
 10
280.0557061994761
 20
188.4729015472329
 30
0.0
 11
271.0557061994761
 21
188.4729015472329
 31
0.0
  0
LINE
  5
E00ED30D
330
E00DEA5D
100
AcDbEntity
  8
JISSEN
100
AcDbLine
 10
281.3178029735766
 20
198.2108047730361
 30
0.0
 11
281.7721124494267
 21
183.6729015472336
 31
0.0
  0
LINE
  5
E00ED30E
330
E00DEA5D
100
AcDbEntity
  8
SAISEN
100
AcDbLine
 10
280.5537153174729
 20
185.4729015472365
 30
0.0
 11
280.1181447560932
 21
199.4104629882748
 31
0.0
  0
LINE
  5
E00ED30F
330
E00DEA5D
100
AcDbEntity
  8
SAISEN
100
AcDbLine
 10
280.5537153174729
 20
185.4729015472402
 30
0.0
 11
280.1181447560932
 21
199.4104629882784
 31
0.0
  0
ARC
  5
E00ED311
330
E00DEA5D
100
AcDbEntity
  8
NITEN
100
AcDbCircle
 10
283.5557061994761
 20
188.9729015472329
 30
0.0
 40
0.5
100
AcDbArc
 50
270.0
 51
0.0
  0
LINE
  5
E00ED313
330
E00DEA5D
100
AcDbEntity
  8
JISSEN
100
AcDbLine
 10
280.0557061994761
 20
199.4729015472329
 30
0.0
 11
281.3178029735766
 21
198.2108047730361
 31
0.0
  0
LINE
  5
E00ED314
330
E00DEA5D
100
AcDbEntity
  8
NITEN
100
AcDbLine
 10
284.1873143273071
 20
205.6163161982366
 30
0.0
 11
290.3424373716581
 21
212.32361336776
 31
0.0
  0
ARC
  5
E00ED315
330
E00DEA5D
100
AcDbEntity
  8
NITEN
100
AcDbCircle
 10
284.5557061994761
 20
205.278251960968
 30
0.0
 40
0.5
100
AcDbArc
 50
137.4581558433782
 51
180.0
  0
ARC
  5
E00ED316
330
E00DEA5D
100
AcDbEntity
  8
NITEN
100
AcDbCircle
 10
290.0557061994761
 20
212.7332293280195
 30
0.0
 40
0.5
100
AcDbArc
 50
304.9920201985488
 51
0.0
  0
ELLIPSE
  5
E00ED317
330
E00DEA5D
100
AcDbEntity
  8
NITEN
100
AcDbEllipse
 10
262.5557061994761
 20
245.2768900716345
 30
0.0
 11
-8.5
 21
0.0
 31
0.0
210
0.0
220
0.0
230
1.0
 40
0.2352941176470588
 41
3.141592653589793
 42
6.283185307179586
  0
LINE
  5
E00ED318
330
E00DEA5D
100
AcDbEntity
  8
NITEN
100
AcDbLine
 10
290.0557061994761
 20
230.4729015472329
 30
0.0
 11
252.0557061994761
 21
230.4729015472329
 31
0.0
  0
LINE
  5
E00ED319
330
E00DEA5D
100
AcDbEntity
  8
NITEN
100
AcDbLine
 10
254.0557061994761
 20
230.4729015472329
 30
0.0
 11
254.0557061994761
 21
245.2768900716345
 31
0.0
  0
ARC
  5
E00ED31A
330
E00DEA5D
100
AcDbEntity
  8
NITEN
100
AcDbCircle
 10
252.0557061994761
 20
229.9729015472329
 30
0.0
 40
0.5
100
AcDbArc
 50
90.0
 51
180.0
  0
LINE
  5
E00ED31B
330
E00DEA5D
100
AcDbEntity
  8
NITEN
100
AcDbLine
 10
288.0557061994761
 20
230.4729015472329
 30
0.0
 11
288.0557061994761
 21
245.2768900716345
 31
0.0
  0
ARC
  5
E00ED31C
330
E00DEA5D
100
AcDbEntity
  8
NITEN
100
AcDbCircle
 10
290.0557061994761
 20
229.9729015472329
 30
0.0
 40
0.5
100
AcDbArc
 50
0.0
 51
90.0
  0
ELLIPSE
  5
E00ED31D
330
E00DEA5D
100
AcDbEntity
  8
NITEN
100
AcDbEllipse
 10
279.5557061994761
 20
245.2768900716345
 30
0.0
 11
-8.499999999999985
 21
0.0
 31
0.0
210
0.0
220
0.0
230
1.0
 40
0.2352941176470057
 41
0.0
 42
6.283185307179586
  0
LINE
  5
E00ED31E
330
E00DEA5D
100
AcDbEntity
  8
SUNPOU
100
AcDbLine
 10
296.0557061994761
 20
170.9229012119338
 30
0.0
 11
296.0557061994761
 21
160.9229012119338
 31
0.0
  0
LINE
  5
E00ED31F
330
E00DEA5D
100
AcDbEntity
  8
JISSEN
100
AcDbLine
 10
303.555706199476
 20
160.9229012119338
 30
0.0
 11
303.555706199476
 21
160.5710627273345
 31
0.0
  0
ARC
  5
E00ED320
330
E00DEA5D
100
AcDbEntity
  8
JISSEN
100
AcDbCircle
 10
303.055706199476
 20
160.5710627273345
 30
0.0
 40
0.5000000000000005
100
AcDbArc
 50
278.0000000000402
 51
0.000000000000007
  0
SPLINE
  5
E00ED321
330
E00DEA5D
100
AcDbEntity
  8
SUNPOU
100
AcDbSpline
210
0.0
220
0.0
230
1.0
 70
     8
 71
     3
 72
    11
 73
     7
 74
     5
 42
0.0000000001
 43
0.0000000001
 44
0.0000000001
 40
0.0
 40
0.0
 40
0.0
 40
0.0
 40
3.264692203133994
 40
6.15697472568029
 40
8.955271668736928
 40
10.85738683396026
 40
10.85738683396026
 40
10.85738683396026
 40
10.85738683396026
 10
328.1075743041049
 20
170.9229012119338
 30
0.0
 10
327.4324736158185
 20
169.9215022607287
 30
0.0
 10
326.1592822653204
 20
168.032935851015
 30
0.0
 10
328.4251269816649
 20
165.1815648179457
 30
0.0
 10
326.2220098151082
 20
162.5552343202048
 30
0.0
 10
327.5643640058422
 20
161.3931583470158
 30
0.0
 10
328.1075743041049
 20
160.9229012119338
 30
0.0
 11
328.1075743041049
 21
170.9229012119338
 31
0.0
 11
326.878233926541
 21
167.8985107911556
 31
0.0
 11
327.6504173805108
 21
165.1112126543138
 31
0.0
 11
326.9211108487027
 21
162.4096246464595
 31
0.0
 11
328.1075743041049
 21
160.9229012119338
 31
0.0
  0
LINE
  5
E00ED3AE
330
E00DEA5D
100
AcDbEntity
  8
JISSEN
100
AcDbLine
 39
1680.364539346804
 10
107.5557069234753
 20
179.5229015472431
 30
0.0
 11
106.305706923468
 21
179.5229015472431
 31
0.0
  0
LINE
  5
E00ED3AF
330
E00DEA5D
100
AcDbEntity
  8
JISSEN
100
AcDbLine
 39
1680.364539346804
 10
107.5557069234753
 20
178.9229015472445
 30
0.0
 11
106.3057069234844
 21
178.9229015472427
 31
0.0
  0
LINE
  5
E00ED3B0
330
E00DEA5D
100
AcDbEntity
  8
JISSEN
100
AcDbLine
 39
1680.364539346804
 10
107.5557069234753
 20
178.0229015472412
 30
0.0
 11
106.3057069234735
 21
178.0229015472412
 31
0.0
  0
LINE
  5
E00ED3B1
330
E00DEA5D
100
AcDbEntity
  8
JISSEN
100
AcDbLine
 39
1680.364539346804
 10
107.5557069234789
 20
181.9229015472445
 30
0.0
 11
106.305706923488
 21
181.9229015472445
 31
0.0
  0
LINE
  5
E00ED3B2
330
E00DEA5D
100
AcDbEntity
  8
JISSEN
100
AcDbLine
 39
1680.364539346804
 10
107.5557069234789
 20
181.0229015472431
 30
0.0
 11
106.3057069234716
 21
181.0229015472431
 31
0.0
  0
LINE
  5
E00ED3B3
330
E00DEA5D
100
AcDbEntity
  8
JISSEN
100
AcDbLine
 39
1680.364539346804
 10
107.5557069234753
 20
180.4229015472445
 30
0.0
 11
106.3057069234898
 21
180.4229015472445
 31
0.0
  0
LINE
  5
E00ED3B4
330
E00DEA5D
100
AcDbEntity
  8
JISSEN
100
AcDbLine
 39
1680.364539346804
 10
103.8057069234753
 20
178.0229015472412
 30
0.0
 11
92.55570692347532
 21
178.0229015472412
 31
0.0
  0
LINE
  5
E00ED3B5
330
E00DEA5D
100
AcDbEntity
  8
JISSEN
100
AcDbLine
 39
1680.364539346804
 10
103.8057069234753
 20
178.9229015472445
 30
0.0
 11
92.55570692347532
 21
178.9229015472445
 31
0.0
  0
LINE
  5
E00ED3B6
330
E00DEA5D
100
AcDbEntity
  8
JISSEN
100
AcDbLine
 39
1680.364539346804
 10
103.8057069234753
 20
179.5229015472431
 30
0.0
 11
92.55570692347532
 21
179.5229015472431
 31
0.0
  0
LINE
  5
E00ED3B7
330
E00DEA5D
100
AcDbEntity
  8
JISSEN
100
AcDbLine
 39
1680.364539346804
 10
103.8057069234753
 20
181.0229015472449
 30
0.0
 11
92.55570692342985
 21
181.0229015472431
 31
0.0
  0
LINE
  5
E00ED3B8
330
E00DEA5D
100
AcDbEntity
  8
JISSEN
100
AcDbLine
 39
1680.364539346804
 10
103.8057069234753
 20
180.4229015472463
 30
0.0
 11
92.55570692347532
 21
180.4229015472445
 31
0.0
  0
LINE
  5
E00ED3B9
330
E00DEA5D
100
AcDbEntity
  8
JISSEN
100
AcDbLine
 39
1680.364539346804
 10
103.8057069234753
 20
181.9229015472427
 30
0.0
 11
92.55570692342985
 21
181.9229015472409
 31
0.0
  0
LINE
  5
E00ED3BA
330
E00DEA5D
100
AcDbEntity
  8
JISSEN
100
AcDbLine
 39
1680.364539346804
 10
72.55570692347532
 20
180.4229015472445
 30
0.0
 11
73.80570692346077
 21
180.4229015472445
 31
0.0
  0
LINE
  5
E00ED3BB
330
E00DEA5D
100
AcDbEntity
  8
JISSEN
100
AcDbLine
 39
1680.364539346804
 10
72.55570692347169
 20
181.0229015472431
 30
0.0
 11
73.80570692347896
 21
181.0229015472431
 31
0.0
  0
LINE
  5
E00ED3BC
330
E00DEA5D
100
AcDbEntity
  8
JISSEN
100
AcDbLine
 39
1680.364539346804
 10
72.55570692347169
 20
181.9229015472445
 30
0.0
 11
73.80570692346259
 21
181.9229015472445
 31
0.0
  0
LINE
  5
E00ED3BD
330
E00DEA5D
100
AcDbEntity
  8
JISSEN
100
AcDbLine
 39
1680.364539346804
 10
72.55570692347532
 20
178.0229015472412
 30
0.0
 11
73.80570692347714
 21
178.0229015472412
 31
0.0
  0
LINE
  5
E00ED3BE
330
E00DEA5D
100
AcDbEntity
  8
JISSEN
100
AcDbLine
 39
1680.364539346804
 10
72.55570692347532
 20
178.9229015472445
 30
0.0
 11
73.80570692346623
 21
178.9229015472427
 31
0.0
  0
LINE
  5
E00ED3BF
330
E00DEA5D
100
AcDbEntity
  8
JISSEN
100
AcDbLine
 39
1680.364539346804
 10
72.55570692347532
 20
179.5229015472431
 30
0.0
 11
73.80570692348261
 21
179.5229015472431
 31
0.0
  0
LINE
  5
E00ED3C0
330
E00DEA5D
100
AcDbEntity
  8
JISSEN
100
AcDbLine
 39
1680.364539346804
 10
76.30570692347532
 20
181.9229015472427
 30
0.0
 11
87.5557069235208
 21
181.9229015472409
 31
0.0
  0
LINE
  5
E00ED3C1
330
E00DEA5D
100
AcDbEntity
  8
JISSEN
100
AcDbLine
 39
1680.364539346804
 10
76.30570692347532
 20
180.4229015472463
 30
0.0
 11
87.55570692347532
 21
180.4229015472445
 31
0.0
  0
LINE
  5
E00ED3C2
330
E00DEA5D
100
AcDbEntity
  8
JISSEN
100
AcDbLine
 39
1680.364539346804
 10
76.30570692347532
 20
181.0229015472449
 30
0.0
 11
87.5557069235208
 21
181.0229015472431
 31
0.0
  0
LINE
  5
E00ED3C3
330
E00DEA5D
100
AcDbEntity
  8
JISSEN
100
AcDbLine
 39
1680.364539346804
 10
76.30570692347532
 20
179.5229015472431
 30
0.0
 11
87.55570692347532
 21
179.5229015472431
 31
0.0
  0
LINE
  5
E00ED3C4
330
E00DEA5D
100
AcDbEntity
  8
JISSEN
100
AcDbLine
 39
1680.364539346804
 10
76.30570692347532
 20
178.9229015472445
 30
0.0
 11
87.55570692347532
 21
178.9229015472445
 31
0.0
  0
LINE
  5
E00ED3C5
330
E00DEA5D
100
AcDbEntity
  8
JISSEN
100
AcDbLine
 39
1680.364539346804
 10
76.30570692347532
 20
178.0229015472412
 30
0.0
 11
87.55570692347532
 21
178.0229015472412
 31
0.0
  0
LINE
  5
E00ED3C6
330
E00DEA5D
100
AcDbEntity
  8
JISSEN
100
AcDbLine
 10
103.8057069234753
 20
177.6763308282387
 30
0.0
 11
92.55570692347532
 21
177.6763308282405
 31
0.0
  0
LINE
  5
E00ED3C7
330
E00DEA5D
100
AcDbEntity
  8
JISSEN
100
AcDbLine
 10
76.30570692347532
 20
177.6763308282387
 30
0.0
 11
87.55570692347532
 21
177.6763308282405
 31
0.0
  0
LINE
  5
E00ED3C8
330
E00DEA5D
100
AcDbEntity
  8
JISSEN
100
AcDbLine
 10
72.55570692347532
 20
178.0229015472412
 30
0.0
 11
72.55570692347532
 21
177.6729015472391
 31
0.0
  0
LINE
  5
E00ED3C9
330
E00DEA5D
100
AcDbEntity
  8
JISSEN
100
AcDbLine
 10
73.80570692347532
 20
177.6729015472391
 30
0.0
 11
73.80570692347532
 21
178.0229015472412
 31
0.0
  0
LINE
  5
E00ED3CA
330
E00DEA5D
100
AcDbEntity
  8
JISSEN
100
AcDbLine
 10
73.80570692347532
 20
177.6729015472391
 30
0.0
 11
73.80570692347532
 21
178.0229015472412
 31
0.0
  0
LINE
  5
E00ED3CB
330
E00DEA5D
100
AcDbEntity
  8
JISSEN
100
AcDbLine
 10
72.55570692347532
 20
177.6763308282387
 30
0.0
 11
73.80570692347532
 21
177.6763308282387
 31
0.0
  0
LINE
  5
E00ED3CC
330
E00DEA5D
100
AcDbEntity
  8
JISSEN
100
AcDbLine
 10
72.55570692347532
 20
177.6729015472391
 30
0.0
 11
73.05570692347533
 21
177.1729015472391
 31
0.0
  0
SPLINE
  5
E00ED3CD
330
E00DEA5D
100
AcDbEntity
  8
JISSEN
100
AcDbSpline
210
0.0
220
0.0
230
1.0
 70
     8
 71
     3
 72
     8
 73
     4
 74
     0
 42
0.0000000001
 43
0.0000000001
 40
0.0
 40
0.0
 40
0.0
 40
0.0
 40
0.0007108901684311
 40
0.0007108901684311
 40
0.0007108901684311
 40
0.0007108901684311
 10
73.80570692347532
 20
177.6763308282387
 30
0.0
 10
73.9515628424349
 20
177.5096383494273
 30
0.0
 10
74.09744022864174
 20
177.3429709113114
 30
0.0
 10
74.24334104426339
 20
177.1763308282387
 30
0.0
  0
LINE
  5
E00ED3CE
330
E00DEA5D
100
AcDbEntity
  8
JISSEN
100
AcDbLine
 10
72.55570692347532
 20
182.1729015472391
 30
0.0
 11
72.55570692347532
 21
181.9229015472427
 31
0.0
  0
LINE
  5
E00ED3CF
330
E00DEA5D
100
AcDbEntity
  8
JISSEN
100
AcDbLine
 10
72.55570692347532
 20
181.0229015472431
 30
0.0
 11
72.55570692347532
 21
180.4229015472409
 31
0.0
  0
LINE
  5
E00ED3D0
330
E00DEA5D
100
AcDbEntity
  8
JISSEN
100
AcDbLine
 10
72.55570692347532
 20
181.0229015472413
 30
0.0
 11
72.55570692347532
 21
180.4229015472409
 31
0.0
  0
LINE
  5
E00ED3D1
330
E00DEA5D
100
AcDbEntity
  8
JISSEN
100
AcDbLine
 10
72.55570692347532
 20
181.0229015472413
 30
0.0
 11
72.55570692347532
 21
180.4229015472409
 31
0.0
  0
LINE
  5
E00ED3D2
330
E00DEA5D
100
AcDbEntity
  8
JISSEN
100
AcDbLine
 10
72.55570692347532
 20
181.0229015472431
 30
0.0
 11
72.55570692347532
 21
180.4229015472409
 31
0.0
  0
ARC
  5
E00ED3D3
330
E00DEA5D
100
AcDbEntity
  8
JISSEN
100
AcDbCircle
 10
72.3682069234735
 20
181.472901547242
 30
0.0
 40
0.4875000000000239
100
AcDbArc
 50
292.6198649480738
 51
67.38013505192611
  0
LINE
  5
E00ED3D4
330
E00DEA5D
100
AcDbEntity
  8
JISSEN
100
AcDbLine
 10
72.55570692347532
 20
181.0229015472431
 30
0.0
 11
72.55570692347532
 21
180.4229015472445
 31
0.0
  0
LINE
  5
E00ED3D5
330
E00DEA5D
100
AcDbEntity
  8
JISSEN
100
AcDbLine
 10
73.80570692347532
 20
181.9229015472427
 30
0.0
 11
73.80570692347532
 21
182.1729015472391
 31
0.0
  0
ARC
  5
E00ED3D6
330
E00DEA5D
100
AcDbEntity
  8
JISSEN
100
AcDbCircle
 10
73.6182069234735
 20
181.4729015472402
 30
0.0
 40
0.4875000000000239
100
AcDbArc
 50
292.6198649480738
 51
67.38013505192611
  0
LINE
  5
E00ED3D7
330
E00DEA5D
100
AcDbEntity
  8
JISSEN
100
AcDbLine
 10
73.80570692347532
 20
180.4229015472427
 30
0.0
 11
73.80570692347532
 21
181.0229015472413
 31
0.0
  0
LINE
  5
E00ED3D8
330
E00DEA5D
100
AcDbEntity
  8
JISSEN
100
AcDbLine
 10
73.80570692347532
 20
180.4229015472427
 30
0.0
 11
73.80570692347532
 21
181.0229015472413
 31
0.0
  0
LINE
  5
E00ED3D9
330
E00DEA5D
100
AcDbEntity
  8
JISSEN
100
AcDbLine
 10
72.55570692347532
 20
179.5229015472431
 30
0.0
 11
72.55570692347532
 21
178.9229015472445
 31
0.0
  0
ARC
  5
E00ED3DA
330
E00DEA5D
100
AcDbEntity
  8
JISSEN
100
AcDbCircle
 10
72.3682069234735
 20
178.472901547242
 30
0.0
 40
0.4875000000000239
100
AcDbArc
 50
292.6198649480738
 51
67.38013505192611
  0
LINE
  5
E00ED3DB
330
E00DEA5D
100
AcDbEntity
  8
JISSEN
100
AcDbLine
 10
72.55570692347532
 20
179.5229015472413
 30
0.0
 11
72.55570692347532
 21
178.9229015472409
 31
0.0
  0
LINE
  5
E00ED3DC
330
E00DEA5D
100
AcDbEntity
  8
JISSEN
100
AcDbLine
 10
72.55570692347532
 20
179.5229015472413
 30
0.0
 11
72.55570692347351
 21
178.9229015472409
 31
0.0
  0
LINE
  5
E00ED3DD
330
E00DEA5D
100
AcDbEntity
  8
JISSEN
100
AcDbLine
 10
72.55570692347532
 20
179.5229015472431
 30
0.0
 11
72.55570692347532
 21
178.9229015472409
 31
0.0
  0
LINE
  5
E00ED3DE
330
E00DEA5D
100
AcDbEntity
  8
JISSEN
100
AcDbLine
 10
72.55570692347532
 20
179.5229015472413
 30
0.0
 11
72.55570692347532
 21
178.9229015472445
 31
0.0
  0
ARC
  5
E00ED3DF
330
E00DEA5D
100
AcDbEntity
  8
JISSEN
100
AcDbCircle
 10
73.6182069234735
 20
178.4729015472402
 30
0.0
 40
0.4875000000000239
100
AcDbArc
 50
292.6198649480738
 51
67.38013505192611
  0
LINE
  5
E00ED3E0
330
E00DEA5D
100
AcDbEntity
  8
JISSEN
100
AcDbLine
 10
73.80570692347532
 20
178.9229015472445
 30
0.0
 11
73.80570692347532
 21
179.5229015472431
 31
0.0
  0
LINE
  5
E00ED3E1
330
E00DEA5D
100
AcDbEntity
  8
JISSEN
100
AcDbLine
 10
73.80570692347532
 20
178.9229015472445
 30
0.0
 11
73.80570692347532
 21
179.5229015472431
 31
0.0
  0
ARC
  5
E00ED3E2
330
E00DEA5D
100
AcDbEntity
  8
JISSEN
100
AcDbCircle
 10
72.3682069234735
 20
179.972901547242
 30
0.0
 40
0.4875000000000239
100
AcDbArc
 50
292.6198649480738
 51
67.38013505192611
  0
ARC
  5
E00ED3E3
330
E00DEA5D
100
AcDbEntity
  8
JISSEN
100
AcDbCircle
 10
73.6182069234735
 20
179.9729015472402
 30
0.0
 40
0.4875000000000239
100
AcDbArc
 50
292.6198649480738
 51
67.38013505192611
  0
LINE
  5
E00ED3E4
330
E00DEA5D
100
AcDbEntity
  8
JISSEN
100
AcDbLine
 10
75.11949123030422
 20
177.1729015472391
 30
0.0
 11
75.11949123030422
 21
183.0389269510231
 31
0.0
  0
LINE
  5
E00ED3E5
330
E00DEA5D
100
AcDbEntity
  8
JISSEN
100
AcDbLine
 10
76.30570692347532
 20
178.0229015472412
 30
0.0
 11
76.30570692347532
 21
177.6729015472391
 31
0.0
  0
SPLINE
  5
E00ED3E6
330
E00DEA5D
100
AcDbEntity
  8
JISSEN
100
AcDbSpline
210
0.0
220
0.0
230
1.0
 70
     8
 71
     3
 72
     8
 73
     4
 74
     0
 42
0.0000000001
 43
0.0000000001
 40
0.0
 40
0.0
 40
0.0
 40
0.0
 40
0.0007108901684311
 40
0.0007108901684311
 40
0.0007108901684311
 40
0.0007108901684311
 10
76.74334104426339
 20
177.1729015472391
 30
0.0
 10
76.59744022864174
 20
177.3395416303118
 30
0.0
 10
76.4515628424349
 20
177.5062090684276
 30
0.0
 10
76.30570692347532
 20
177.6729015472391
 30
0.0
  0
LINE
  5
E00ED3E7
330
E00DEA5D
100
AcDbEntity
  8
JISSEN
100
AcDbLine
 10
76.30570692347532
 20
182.1729015472391
 30
0.0
 11
76.30570692347555
 21
181.9229015472445
 31
0.0
  0
LINE
  5
E00ED3E8
330
E00DEA5D
100
AcDbEntity
  8
JISSEN
100
AcDbLine
 10
76.30570692347532
 20
181.0229015472449
 30
0.0
 11
76.30570692347532
 21
180.4229015472482
 31
0.0
  0
ARC
  5
E00ED3E9
330
E00DEA5D
100
AcDbEntity
  8
JISSEN
100
AcDbCircle
 10
76.11820692347532
 20
181.472901547242
 30
0.0
 40
0.4875000000000239
100
AcDbArc
 50
292.6198649480738
 51
67.38013505192611
  0
LINE
  5
E00ED3EA
330
E00DEA5D
100
AcDbEntity
  8
JISSEN
100
AcDbLine
 10
76.30570692347532
 20
179.5229015472431
 30
0.0
 11
76.30570692347532
 21
178.9229015472445
 31
0.0
  0
ARC
  5
E00ED3EB
330
E00DEA5D
100
AcDbEntity
  8
JISSEN
100
AcDbCircle
 10
76.11820692347532
 20
178.472901547242
 30
0.0
 40
0.4875000000000239
100
AcDbArc
 50
292.6198649480738
 51
67.38013505192611
  0
ARC
  5
E00ED3EC
330
E00DEA5D
100
AcDbEntity
  8
JISSEN
100
AcDbCircle
 10
76.11820692347532
 20
179.972901547242
 30
0.0
 40
0.4875000000000239
100
AcDbArc
 50
292.6198649480738
 51
67.38013505192611
  0
LINE
  5
E00ED3ED
330
E00DEA5D
100
AcDbEntity
  8
JISSEN
100
AcDbLine
 10
87.55570692347532
 20
177.1729015472391
 30
0.0
 11
87.55570692347532
 21
183.0389269510231
 31
0.0
  0
LINE
  5
E00ED3EE
330
E00DEA5D
100
AcDbEntity
  8
JISSEN
100
AcDbLine
 10
92.55570692347532
 20
177.1729015472391
 30
0.0
 11
92.55570692347532
 21
183.0389269510231
 31
0.0
  0
LINE
  5
E00ED3EF
330
E00DEA5D
100
AcDbEntity
  8
JISSEN
100
AcDbLine
 10
103.8057069234753
 20
178.0229015472412
 30
0.0
 11
103.8057069234753
 21
177.6729015472391
 31
0.0
  0
LINE
  5
E00ED3F0
330
E00DEA5D
100
AcDbEntity
  8
JISSEN
100
AcDbLine
 10
104.9919226166464
 20
177.1729015472391
 30
0.0
 11
104.9919226166464
 21
183.0389269510231
 31
0.0
  0
LINE
  5
E00ED3F1
330
E00DEA5D
100
AcDbEntity
  8
JISSEN
100
AcDbLine
 10
106.3057069234753
 20
177.6729015472391
 30
0.0
 11
106.3057069234753
 21
178.0229015472412
 31
0.0
  0
LINE
  5
E00ED3F2
330
E00DEA5D
100
AcDbEntity
  8
JISSEN
100
AcDbLine
 10
106.3057069234753
 20
177.6729015472391
 30
0.0
 11
106.3057069234753
 21
178.0229015472412
 31
0.0
  0
LINE
  5
E00ED3F3
330
E00DEA5D
100
AcDbEntity
  8
JISSEN
100
AcDbLine
 10
107.5557069234753
 20
178.0229015472412
 30
0.0
 11
107.5557069234753
 21
177.6729015472391
 31
0.0
  0
LINE
  5
E00ED3F4
330
E00DEA5D
100
AcDbEntity
  8
JISSEN
100
AcDbLine
 10
107.5557069234753
 20
177.6763308282387
 30
0.0
 11
106.3057069234753
 21
177.6763308282387
 31
0.0
  0
SPLINE
  5
E00ED3F5
330
E00DEA5D
100
AcDbEntity
  8
JISSEN
100
AcDbSpline
210
0.0
220
0.0
230
1.0
 70
     8
 71
     3
 72
     8
 73
     4
 74
     0
 42
0.0000000001
 43
0.0000000001
 40
0.0
 40
0.0
 40
0.0
 40
0.0
 40
0.0007108901684311
 40
0.0007108901684311
 40
0.0007108901684311
 40
0.0007108901684311
 10
103.3680728026872
 20
177.1729015472391
 30
0.0
 10
103.5139736183089
 20
177.3395416303118
 30
0.0
 10
103.6598510045157
 20
177.5062090684276
 30
0.0
 10
103.8057069234753
 20
177.6729015472391
 30
0.0
  0
SPLINE
  5
E00ED3F6
330
E00DEA5D
100
AcDbEntity
  8
JISSEN
100
AcDbSpline
210
0.0
220
0.0
230
1.0
 70
     8
 71
     3
 72
     8
 73
     4
 74
     0
 42
0.0000000001
 43
0.0000000001
 40
0.0
 40
0.0
 40
0.0
 40
0.0
 40
0.0007108901684311
 40
0.0007108901684311
 40
0.0007108901684311
 40
0.0007108901684311
 10
106.3057069234753
 20
177.6763308282387
 30
0.0
 10
106.1598510045157
 20
177.5096383494273
 30
0.0
 10
106.0139736183089
 20
177.3429709113114
 30
0.0
 10
105.8680728026872
 20
177.1763308282387
 30
0.0
  0
LINE
  5
E00ED3F7
330
E00DEA5D
100
AcDbEntity
  8
JISSEN
100
AcDbLine
 10
107.5557069234753
 20
177.6729015472391
 30
0.0
 11
107.0557069234753
 21
177.1729015472391
 31
0.0
  0
ARC
  5
E00ED3F8
330
E00DEA5D
100
AcDbEntity
  8
JISSEN
100
AcDbCircle
 10
103.9932069234753
 20
178.472901547242
 30
0.0
 40
0.4875000000000239
100
AcDbArc
 50
112.6198649480738
 51
247.3801350519261
  0
ARC
  5
E00ED3F9
330
E00DEA5D
100
AcDbEntity
  8
JISSEN
100
AcDbCircle
 10
103.9932069234753
 20
179.972901547242
 30
0.0
 40
0.4875000000000239
100
AcDbArc
 50
112.6198649480738
 51
247.3801350519261
  0
LINE
  5
E00ED3FA
330
E00DEA5D
100
AcDbEntity
  8
JISSEN
100
AcDbLine
 10
103.8057069234753
 20
179.5229015472431
 30
0.0
 11
103.8057069234753
 21
178.9229015472445
 31
0.0
  0
ARC
  5
E00ED3FB
330
E00DEA5D
100
AcDbEntity
  8
JISSEN
100
AcDbCircle
 10
103.9932069234753
 20
181.472901547242
 30
0.0
 40
0.4875000000000239
100
AcDbArc
 50
112.6198649480738
 51
247.3801350519261
  0
LINE
  5
E00ED3FC
330
E00DEA5D
100
AcDbEntity
  8
JISSEN
100
AcDbLine
 10
103.8057069234753
 20
181.0229015472449
 30
0.0
 11
103.8057069234753
 21
180.4229015472482
 31
0.0
  0
LINE
  5
E00ED3FD
330
E00DEA5D
100
AcDbEntity
  8
JISSEN
100
AcDbLine
 10
103.8057069234753
 20
182.1729015472391
 30
0.0
 11
103.8057069234751
 21
181.9229015472445
 31
0.0
  0
ARC
  5
E00ED3FE
330
E00DEA5D
100
AcDbEntity
  8
JISSEN
100
AcDbCircle
 10
106.4932069234771
 20
179.9729015472402
 30
0.0
 40
0.4875000000000239
100
AcDbArc
 50
112.6198649480738
 51
247.3801350519261
  0
LINE
  5
E00ED3FF
330
E00DEA5D
100
AcDbEntity
  8
JISSEN
100
AcDbLine
 10
106.3057069234753
 20
178.9229015472445
 30
0.0
 11
106.3057069234753
 21
179.5229015472431
 31
0.0
  0
LINE
  5
E00ED400
330
E00DEA5D
100
AcDbEntity
  8
JISSEN
100
AcDbLine
 10
106.3057069234753
 20
178.9229015472445
 30
0.0
 11
106.3057069234753
 21
179.5229015472431
 31
0.0
  0
ARC
  5
E00ED401
330
E00DEA5D
100
AcDbEntity
  8
JISSEN
100
AcDbCircle
 10
106.4932069234771
 20
178.4729015472402
 30
0.0
 40
0.4875000000000239
100
AcDbArc
 50
112.6198649480738
 51
247.3801350519261
  0
LINE
  5
E00ED402
330
E00DEA5D
100
AcDbEntity
  8
JISSEN
100
AcDbLine
 10
106.3057069234753
 20
180.4229015472427
 30
0.0
 11
106.3057069234753
 21
181.0229015472413
 31
0.0
  0
LINE
  5
E00ED403
330
E00DEA5D
100
AcDbEntity
  8
JISSEN
100
AcDbLine
 10
106.3057069234753
 20
180.4229015472427
 30
0.0
 11
106.3057069234753
 21
181.0229015472413
 31
0.0
  0
ARC
  5
E00ED404
330
E00DEA5D
100
AcDbEntity
  8
JISSEN
100
AcDbCircle
 10
106.4932069234771
 20
181.4729015472402
 30
0.0
 40
0.4875000000000239
100
AcDbArc
 50
112.6198649480738
 51
247.3801350519261
  0
LINE
  5
E00ED405
330
E00DEA5D
100
AcDbEntity
  8
JISSEN
100
AcDbLine
 10
106.3057069234753
 20
181.9229015472427
 30
0.0
 11
106.3057069234753
 21
182.1729015472391
 31
0.0
  0
ARC
  5
E00ED406
330
E00DEA5D
100
AcDbEntity
  8
JISSEN
100
AcDbCircle
 10
107.7432069234771
 20
179.972901547242
 30
0.0
 40
0.4875000000000239
100
AcDbArc
 50
112.6198649480738
 51
247.3801350519261
  0
LINE
  5
E00ED407
330
E00DEA5D
100
AcDbEntity
  8
JISSEN
100
AcDbLine
 10
107.5557069234753
 20
179.5229015472413
 30
0.0
 11
107.5557069234753
 21
178.9229015472445
 31
0.0
  0
LINE
  5
E00ED408
330
E00DEA5D
100
AcDbEntity
  8
JISSEN
100
AcDbLine
 10
107.5557069234753
 20
179.5229015472431
 30
0.0
 11
107.5557069234753
 21
178.9229015472409
 31
0.0
  0
LINE
  5
E00ED409
330
E00DEA5D
100
AcDbEntity
  8
JISSEN
100
AcDbLine
 10
107.5557069234753
 20
179.5229015472413
 30
0.0
 11
107.5557069234771
 21
178.9229015472409
 31
0.0
  0
LINE
  5
E00ED40A
330
E00DEA5D
100
AcDbEntity
  8
JISSEN
100
AcDbLine
 10
107.5557069234753
 20
179.5229015472413
 30
0.0
 11
107.5557069234753
 21
178.9229015472409
 31
0.0
  0
ARC
  5
E00ED40B
330
E00DEA5D
100
AcDbEntity
  8
JISSEN
100
AcDbCircle
 10
107.7432069234771
 20
178.472901547242
 30
0.0
 40
0.4875000000000239
100
AcDbArc
 50
112.6198649480738
 51
247.3801350519261
  0
LINE
  5
E00ED40C
330
E00DEA5D
100
AcDbEntity
  8
JISSEN
100
AcDbLine
 10
107.5557069234753
 20
179.5229015472431
 30
0.0
 11
107.5557069234753
 21
178.9229015472445
 31
0.0
  0
LINE
  5
E00ED40D
330
E00DEA5D
100
AcDbEntity
  8
JISSEN
100
AcDbLine
 10
107.5557069234753
 20
181.0229015472431
 30
0.0
 11
107.5557069234753
 21
180.4229015472445
 31
0.0
  0
ARC
  5
E00ED40E
330
E00DEA5D
100
AcDbEntity
  8
JISSEN
100
AcDbCircle
 10
107.7432069234771
 20
181.472901547242
 30
0.0
 40
0.4875000000000239
100
AcDbArc
 50
112.6198649480738
 51
247.3801350519261
  0
LINE
  5
E00ED40F
330
E00DEA5D
100
AcDbEntity
  8
JISSEN
100
AcDbLine
 10
107.5557069234753
 20
181.0229015472431
 30
0.0
 11
107.5557069234753
 21
180.4229015472409
 31
0.0
  0
LINE
  5
E00ED410
330
E00DEA5D
100
AcDbEntity
  8
JISSEN
100
AcDbLine
 10
107.5557069234753
 20
181.0229015472413
 30
0.0
 11
107.5557069234753
 21
180.4229015472409
 31
0.0
  0
LINE
  5
E00ED411
330
E00DEA5D
100
AcDbEntity
  8
JISSEN
100
AcDbLine
 10
107.5557069234753
 20
181.0229015472413
 30
0.0
 11
107.5557069234753
 21
180.4229015472409
 31
0.0
  0
LINE
  5
E00ED412
330
E00DEA5D
100
AcDbEntity
  8
JISSEN
100
AcDbLine
 10
107.5557069234753
 20
181.0229015472431
 30
0.0
 11
107.5557069234753
 21
180.4229015472409
 31
0.0
  0
LINE
  5
E00ED413
330
E00DEA5D
100
AcDbEntity
  8
JISSEN
100
AcDbLine
 10
107.5557069234753
 20
182.1729015472391
 30
0.0
 11
107.5557069234753
 21
181.9229015472427
 31
0.0
  0
LINE
  5
E00ED414
330
E00DEA5D
100
AcDbEntity
  8
JISSEN
100
AcDbLine
 10
90.05570692347532
 20
177.1729015472391
 30
0.0
 11
103.3680728026763
 21
177.1729015472391
 31
0.0
  0
LINE
  5
E00ED415
330
E00DEA5D
100
AcDbEntity
  8
JISSEN
100
AcDbLine
 10
90.05570692347532
 20
177.1729015472391
 30
0.0
 11
76.7433410442743
 21
177.1729015472391
 31
0.0
  0
LINE
  5
E00ED416
330
E00DEA5D
100
AcDbEntity
  8
JISSEN
100
AcDbLine
 10
75.11949123037516
 20
177.1729015472391
 30
0.0
 11
76.7433410442743
 21
177.1729015472391
 31
0.0
  0
LINE
  5
E00ED417
330
E00DEA5D
100
AcDbEntity
  8
JISSEN
100
AcDbLine
 39
1680.364539346804
 10
72.55570692347532
 20
182.1729015472391
 30
0.0
 11
73.80570692347532
 21
182.1729015472391
 31
0.0
  0
LINE
  5
E00ED418
330
E00DEA5D
100
AcDbEntity
  8
JISSEN
100
AcDbLine
 10
74.28775773105804
 20
183.1729015472391
 30
0.0
 11
90.05570692347532
 21
183.1729015472391
 31
0.0
  0
SPLINE
  5
E00ED419
330
E00DEA5D
100
AcDbEntity
  8
JISSEN
100
AcDbSpline
210
0.0
220
0.0
230
1.0
 70
     8
 71
     3
 72
     8
 73
     4
 74
     0
 42
0.0000000001
 43
0.0000000001
 40
0.000000403112789
 40
0.000000403112789
 40
0.000000403112789
 40
0.000000403112789
 40
0.0017472208689273
 40
0.0017472208689273
 40
0.0017472208689273
 40
0.0017472208689273
 10
73.80570692347532
 20
182.1729015472391
 30
0.0
 10
74.24352968556627
 20
182.4617896495837
 30
0.0
 10
74.68144794319846
 20
182.7504849259165
 30
0.0
 10
75.11949123030422
 20
183.0389269510231
 30
0.0
  0
LINE
  5
E00ED41A
330
E00DEA5D
100
AcDbEntity
  8
JISSEN
100
AcDbLine
 10
74.2433410442743
 20
177.1729015472391
 30
0.0
 11
75.11949123037516
 21
177.1729015472391
 31
0.0
  0
LINE
  5
E00ED41B
330
E00DEA5D
100
AcDbEntity
  8
JISSEN
100
AcDbLine
 10
74.2433410442743
 20
177.1729015472391
 30
0.0
 11
73.05570692347533
 21
177.1729015472391
 31
0.0
  0
LINE
  5
E00ED41C
330
E00DEA5D
100
AcDbEntity
  8
JISSEN
100
AcDbLine
 10
74.28775773105986
 20
183.1729015472391
 30
0.0
 11
72.55570692347532
 21
182.1729015472373
 31
0.0
  0
LINE
  5
E00ED41D
330
E00DEA5D
100
AcDbEntity
  8
JISSEN
100
AcDbLine
 10
73.80570692347532
 20
182.1229015472471
 30
0.0
 11
73.80570692347532
 21
182.1729015472391
 31
0.0
  0
SPLINE
  5
E00ED41E
330
E00DEA5D
100
AcDbEntity
  8
JISSEN
100
AcDbSpline
210
0.0
220
0.0
230
1.0
 70
     8
 71
     3
 72
     8
 73
     4
 74
     0
 42
0.0000000001
 43
0.0000000001
 40
0.0000002658515791
 40
0.0000002658515791
 40
0.0000002658515791
 40
0.0000002658515791
 40
0.0017470836077175
 40
0.0017470836077175
 40
0.0017470836077175
 40
0.0017470836077175
 10
77.61949123030422
 20
183.0389269510231
 30
0.0
 10
77.18144794319846
 20
182.7504849259165
 30
0.0
 10
76.74352968556627
 20
182.4617896495837
 30
0.0
 10
76.30570692347532
 20
182.1729015472391
 30
0.0
  0
LINE
  5
E00ED41F
330
E00DEA5D
100
AcDbEntity
  8
JISSEN
100
AcDbLine
 10
75.11949123030422
 20
183.0389269510231
 30
0.0
 11
77.61949123030422
 21
183.0389269510231
 31
0.0
  0
LINE
  5
E00ED420
330
E00DEA5D
100
AcDbEntity
  8
JISSEN
100
AcDbLine
 39
1680.364539346804
 10
107.5557069234753
 20
182.1729015472391
 30
0.0
 11
106.3057069234753
 21
182.1729015472391
 31
0.0
  0
LINE
  5
E00ED421
330
E00DEA5D
100
AcDbEntity
  8
JISSEN
100
AcDbLine
 39
1680.364539346804
 10
103.8057069234753
 20
182.1729015473246
 30
0.0
 11
92.55570692342985
 21
182.1729015473227
 31
0.0
  0
LINE
  5
E00ED422
330
E00DEA5D
100
AcDbEntity
  8
JISSEN
100
AcDbLine
 10
87.55570692347532
 20
183.0389269510231
 30
0.0
 11
90.05570692347532
 21
183.0389269510231
 31
0.0
  0
LINE
  5
E00ED423
330
E00DEA5D
100
AcDbEntity
  8
JISSEN
100
AcDbLine
 10
92.55570692347532
 20
183.0389269510231
 30
0.0
 11
90.05570692347532
 21
183.0389269510231
 31
0.0
  0
LINE
  5
E00ED424
330
E00DEA5D
100
AcDbEntity
  8
JISSEN
100
AcDbLine
 10
104.9919226166464
 20
183.0389269510231
 30
0.0
 11
102.4919226166464
 21
183.0389269510231
 31
0.0
  0
SPLINE
  5
E00ED425
330
E00DEA5D
100
AcDbEntity
  8
JISSEN
100
AcDbSpline
210
0.0
220
0.0
230
1.0
 70
     8
 71
     3
 72
     8
 73
     4
 74
     0
 42
0.0000000001
 43
0.0000000001
 40
0.0000002658515791
 40
0.0000002658515791
 40
0.0000002658515791
 40
0.0000002658515791
 40
0.0017470836077175
 40
0.0017470836077175
 40
0.0017470836077175
 40
0.0017470836077175
 10
102.4919226166464
 20
183.0389269510231
 30
0.0
 10
102.9299659037521
 20
182.7504849259165
 30
0.0
 10
103.3678841613843
 20
182.4617896495837
 30
0.0
 10
103.8057069234753
 20
182.1729015472391
 30
0.0
  0
LINE
  5
E00ED426
330
E00DEA5D
100
AcDbEntity
  8
JISSEN
100
AcDbLine
 10
105.8236561158907
 20
183.1729015472391
 30
0.0
 11
107.5557069234753
 21
182.1729015472373
 31
0.0
  0
LINE
  5
E00ED427
330
E00DEA5D
100
AcDbEntity
  8
JISSEN
100
AcDbLine
 10
106.3057069234753
 20
182.1229015472471
 30
0.0
 11
106.3057069234753
 21
182.1729015472391
 31
0.0
  0
SPLINE
  5
E00ED428
330
E00DEA5D
100
AcDbEntity
  8
JISSEN
100
AcDbSpline
210
0.0
220
0.0
230
1.0
 70
     8
 71
     3
 72
     8
 73
     4
 74
     0
 42
0.0000000001
 43
0.0000000001
 40
0.000000403112789
 40
0.000000403112789
 40
0.000000403112789
 40
0.000000403112789
 40
0.0017472208689273
 40
0.0017472208689273
 40
0.0017472208689273
 40
0.0017472208689273
 10
106.3057069234753
 20
182.1729015472391
 30
0.0
 10
105.8678841613843
 20
182.4617896495837
 30
0.0
 10
105.4299659037521
 20
182.7504849259165
 30
0.0
 10
104.9919226166464
 20
183.0389269510231
 30
0.0
  0
LINE
  5
E00ED429
330
E00DEA5D
100
AcDbEntity
  8
JISSEN
100
AcDbLine
 10
107.5557069234753
 20
182.1729015472391
 30
0.0
 11
107.5557069234753
 21
182.1229015472398
 31
0.0
  0
LINE
  5
E00ED42A
330
E00DEA5D
100
AcDbEntity
  8
JISSEN
100
AcDbLine
 10
107.5557069234753
 20
182.1729015472391
 30
0.0
 11
107.5557069234753
 21
182.1229015472398
 31
0.0
  0
LINE
  5
E00ED42B
330
E00DEA5D
100
AcDbEntity
  8
JISSEN
100
AcDbLine
 10
105.8236561158926
 20
183.1729015472391
 30
0.0
 11
90.05570692347532
 21
183.1729015472391
 31
0.0
  0
LINE
  5
E00ED42C
330
E00DEA5D
100
AcDbEntity
  8
JISSEN
100
AcDbLine
 10
105.8680728026763
 20
177.1729015472391
 30
0.0
 11
107.0557069234753
 21
177.1729015472391
 31
0.0
  0
LINE
  5
E00ED42D
330
E00DEA5D
100
AcDbEntity
  8
JISSEN
100
AcDbLine
 10
105.8680728026763
 20
177.1729015472391
 30
0.0
 11
104.9919226165755
 21
177.1729015472391
 31
0.0
  0
LINE
  5
E00ED42E
330
E00DEA5D
100
AcDbEntity
  8
JISSEN
100
AcDbLine
 10
104.9919226165755
 20
177.1729015472391
 30
0.0
 11
103.3680728026763
 21
177.1729015472391
 31
0.0
  0
LINE
  5
E00ED4B4
330
E00DEA5D
100
AcDbEntity
  8
JISSEN
100
AcDbLine
 39
1680.364539346804
 10
288.5557061994752
 20
179.5229015472413
 30
0.0
 11
287.3057061994679
 21
179.5229015472413
 31
0.0
  0
LINE
  5
E00ED4B5
330
E00DEA5D
100
AcDbEntity
  8
JISSEN
100
AcDbLine
 39
1680.364539346804
 10
288.5557061994752
 20
178.9229015472427
 30
0.0
 11
287.3057061994843
 21
178.9229015472409
 31
0.0
  0
LINE
  5
E00ED4B6
330
E00DEA5D
100
AcDbEntity
  8
JISSEN
100
AcDbLine
 39
1680.364539346804
 10
288.5557061994752
 20
178.0229015472395
 30
0.0
 11
287.3057061994734
 21
178.0229015472395
 31
0.0
  0
LINE
  5
E00ED4B7
330
E00DEA5D
100
AcDbEntity
  8
JISSEN
100
AcDbLine
 39
1680.364539346804
 10
288.5557061994788
 20
181.9229015472427
 30
0.0
 11
287.305706199488
 21
181.9229015472427
 31
0.0
  0
LINE
  5
E00ED4B8
330
E00DEA5D
100
AcDbEntity
  8
JISSEN
100
AcDbLine
 39
1680.364539346804
 10
288.5557061994788
 20
181.0229015472413
 30
0.0
 11
287.3057061994716
 21
181.0229015472413
 31
0.0
  0
LINE
  5
E00ED4B9
330
E00DEA5D
100
AcDbEntity
  8
JISSEN
100
AcDbLine
 39
1680.364539346804
 10
288.5557061994752
 20
180.4229015472427
 30
0.0
 11
287.3057061994898
 21
180.4229015472427
 31
0.0
  0
LINE
  5
E00ED4BA
330
E00DEA5D
100
AcDbEntity
  8
JISSEN
100
AcDbLine
 39
1680.364539346804
 10
284.8057061994752
 20
178.0229015472395
 30
0.0
 11
273.5557061994752
 21
178.0229015472395
 31
0.0
  0
LINE
  5
E00ED4BB
330
E00DEA5D
100
AcDbEntity
  8
JISSEN
100
AcDbLine
 39
1680.364539346804
 10
284.8057061994752
 20
178.9229015472427
 30
0.0
 11
273.5557061994752
 21
178.9229015472427
 31
0.0
  0
LINE
  5
E00ED4BC
330
E00DEA5D
100
AcDbEntity
  8
JISSEN
100
AcDbLine
 39
1680.364539346804
 10
284.8057061994752
 20
179.5229015472413
 30
0.0
 11
273.5557061994752
 21
179.5229015472413
 31
0.0
  0
LINE
  5
E00ED4BD
330
E00DEA5D
100
AcDbEntity
  8
JISSEN
100
AcDbLine
 39
1680.364539346804
 10
284.8057061994752
 20
181.0229015472431
 30
0.0
 11
273.5557061994297
 21
181.0229015472413
 31
0.0
  0
LINE
  5
E00ED4BE
330
E00DEA5D
100
AcDbEntity
  8
JISSEN
100
AcDbLine
 39
1680.364539346804
 10
284.8057061994752
 20
180.4229015472445
 30
0.0
 11
273.5557061994752
 21
180.4229015472427
 31
0.0
  0
LINE
  5
E00ED4BF
330
E00DEA5D
100
AcDbEntity
  8
JISSEN
100
AcDbLine
 39
1680.364539346804
 10
284.8057061994752
 20
181.9229015472409
 30
0.0
 11
273.5557061994297
 21
181.9229015472391
 31
0.0
  0
LINE
  5
E00ED4C0
330
E00DEA5D
100
AcDbEntity
  8
JISSEN
100
AcDbLine
 39
1680.364539346804
 10
253.5557061994752
 20
180.4229015472427
 30
0.0
 11
254.8057061994607
 21
180.4229015472427
 31
0.0
  0
LINE
  5
E00ED4C1
330
E00DEA5D
100
AcDbEntity
  8
JISSEN
100
AcDbLine
 39
1680.364539346804
 10
253.5557061994716
 20
181.0229015472413
 30
0.0
 11
254.8057061994788
 21
181.0229015472413
 31
0.0
  0
LINE
  5
E00ED4C2
330
E00DEA5D
100
AcDbEntity
  8
JISSEN
100
AcDbLine
 39
1680.364539346804
 10
253.5557061994716
 20
181.9229015472427
 30
0.0
 11
254.8057061994625
 21
181.9229015472427
 31
0.0
  0
LINE
  5
E00ED4C3
330
E00DEA5D
100
AcDbEntity
  8
JISSEN
100
AcDbLine
 39
1680.364539346804
 10
253.5557061994752
 20
178.0229015472395
 30
0.0
 11
254.805706199477
 21
178.0229015472395
 31
0.0
  0
LINE
  5
E00ED4C4
330
E00DEA5D
100
AcDbEntity
  8
JISSEN
100
AcDbLine
 39
1680.364539346804
 10
253.5557061994752
 20
178.9229015472427
 30
0.0
 11
254.8057061994661
 21
178.9229015472409
 31
0.0
  0
LINE
  5
E00ED4C5
330
E00DEA5D
100
AcDbEntity
  8
JISSEN
100
AcDbLine
 39
1680.364539346804
 10
253.5557061994752
 20
179.5229015472413
 30
0.0
 11
254.8057061994825
 21
179.5229015472413
 31
0.0
  0
LINE
  5
E00ED4C6
330
E00DEA5D
100
AcDbEntity
  8
JISSEN
100
AcDbLine
 39
1680.364539346804
 10
257.3057061994752
 20
181.9229015472409
 30
0.0
 11
268.5557061995207
 21
181.9229015472391
 31
0.0
  0
LINE
  5
E00ED4C7
330
E00DEA5D
100
AcDbEntity
  8
JISSEN
100
AcDbLine
 39
1680.364539346804
 10
257.3057061994752
 20
180.4229015472445
 30
0.0
 11
268.5557061994752
 21
180.4229015472427
 31
0.0
  0
LINE
  5
E00ED4C8
330
E00DEA5D
100
AcDbEntity
  8
JISSEN
100
AcDbLine
 39
1680.364539346804
 10
257.3057061994752
 20
181.0229015472431
 30
0.0
 11
268.5557061995207
 21
181.0229015472413
 31
0.0
  0
LINE
  5
E00ED4C9
330
E00DEA5D
100
AcDbEntity
  8
JISSEN
100
AcDbLine
 39
1680.364539346804
 10
257.3057061994752
 20
179.5229015472413
 30
0.0
 11
268.5557061994752
 21
179.5229015472413
 31
0.0
  0
LINE
  5
E00ED4CA
330
E00DEA5D
100
AcDbEntity
  8
JISSEN
100
AcDbLine
 39
1680.364539346804
 10
257.3057061994752
 20
178.9229015472427
 30
0.0
 11
268.5557061994752
 21
178.9229015472427
 31
0.0
  0
LINE
  5
E00ED4CB
330
E00DEA5D
100
AcDbEntity
  8
JISSEN
100
AcDbLine
 39
1680.364539346804
 10
257.3057061994752
 20
178.0229015472395
 30
0.0
 11
268.5557061994752
 21
178.0229015472395
 31
0.0
  0
LINE
  5
E00ED4CC
330
E00DEA5D
100
AcDbEntity
  8
JISSEN
100
AcDbLine
 10
284.8057061994752
 20
177.6763308282369
 30
0.0
 11
273.5557061994752
 21
177.6763308282387
 31
0.0
  0
LINE
  5
E00ED4CD
330
E00DEA5D
100
AcDbEntity
  8
JISSEN
100
AcDbLine
 10
257.3057061994752
 20
177.6763308282369
 30
0.0
 11
268.5557061994752
 21
177.6763308282387
 31
0.0
  0
LINE
  5
E00ED4CE
330
E00DEA5D
100
AcDbEntity
  8
JISSEN
100
AcDbLine
 10
253.5557061994752
 20
178.0229015472395
 30
0.0
 11
253.5557061994752
 21
177.6729015472373
 31
0.0
  0
LINE
  5
E00ED4CF
330
E00DEA5D
100
AcDbEntity
  8
JISSEN
100
AcDbLine
 10
254.8057061994752
 20
177.6729015472373
 30
0.0
 11
254.8057061994752
 21
178.0229015472395
 31
0.0
  0
LINE
  5
E00ED4D0
330
E00DEA5D
100
AcDbEntity
  8
JISSEN
100
AcDbLine
 10
254.8057061994752
 20
177.6729015472373
 30
0.0
 11
254.8057061994752
 21
178.0229015472395
 31
0.0
  0
LINE
  5
E00ED4D1
330
E00DEA5D
100
AcDbEntity
  8
JISSEN
100
AcDbLine
 10
253.5557061994752
 20
177.6763308282369
 30
0.0
 11
254.8057061994752
 21
177.6763308282369
 31
0.0
  0
LINE
  5
E00ED4D2
330
E00DEA5D
100
AcDbEntity
  8
JISSEN
100
AcDbLine
 10
253.5557061994752
 20
177.6729015472373
 30
0.0
 11
254.0557061994752
 21
177.1729015472373
 31
0.0
  0
SPLINE
  5
E00ED4D3
330
E00DEA5D
100
AcDbEntity
  8
JISSEN
100
AcDbSpline
210
0.0
220
0.0
230
1.0
 70
     8
 71
     3
 72
     8
 73
     4
 74
     0
 42
0.0000000001
 43
0.0000000001
 40
0.0
 40
0.0
 40
0.0
 40
0.0
 40
0.0007108901684311
 40
0.0007108901684311
 40
0.0007108901684311
 40
0.0007108901684311
 10
254.8057061994752
 20
177.6763308282369
 30
0.0
 10
254.9515621184348
 20
177.5096383494254
 30
0.0
 10
255.0974395046416
 20
177.3429709113096
 30
0.0
 10
255.2433403202633
 20
177.1763308282369
 30
0.0
  0
LINE
  5
E00ED4D4
330
E00DEA5D
100
AcDbEntity
  8
JISSEN
100
AcDbLine
 10
253.5557061994752
 20
182.1729015472373
 30
0.0
 11
253.5557061994752
 21
181.9229015472409
 31
0.0
  0
LINE
  5
E00ED4D5
330
E00DEA5D
100
AcDbEntity
  8
JISSEN
100
AcDbLine
 10
253.5557061994752
 20
181.0229015472413
 30
0.0
 11
253.5557061994752
 21
180.4229015472391
 31
0.0
  0
LINE
  5
E00ED4D6
330
E00DEA5D
100
AcDbEntity
  8
JISSEN
100
AcDbLine
 10
253.5557061994752
 20
181.0229015472394
 30
0.0
 11
253.5557061994752
 21
180.4229015472391
 31
0.0
  0
LINE
  5
E00ED4D7
330
E00DEA5D
100
AcDbEntity
  8
JISSEN
100
AcDbLine
 10
253.5557061994752
 20
181.0229015472394
 30
0.0
 11
253.5557061994752
 21
180.4229015472391
 31
0.0
  0
LINE
  5
E00ED4D8
330
E00DEA5D
100
AcDbEntity
  8
JISSEN
100
AcDbLine
 10
253.5557061994752
 20
181.0229015472413
 30
0.0
 11
253.5557061994752
 21
180.4229015472391
 31
0.0
  0
ARC
  5
E00ED4D9
330
E00DEA5D
100
AcDbEntity
  8
JISSEN
100
AcDbCircle
 10
253.3682061994734
 20
181.4729015472402
 30
0.0
 40
0.4875000000000239
100
AcDbArc
 50
292.6198649480738
 51
67.38013505192611
  0
LINE
  5
E00ED4DA
330
E00DEA5D
100
AcDbEntity
  8
JISSEN
100
AcDbLine
 10
253.5557061994752
 20
181.0229015472413
 30
0.0
 11
253.5557061994752
 21
180.4229015472427
 31
0.0
  0
LINE
  5
E00ED4DB
330
E00DEA5D
100
AcDbEntity
  8
JISSEN
100
AcDbLine
 10
254.8057061994752
 20
181.9229015472409
 30
0.0
 11
254.8057061994752
 21
182.1729015472373
 31
0.0
  0
ARC
  5
E00ED4DC
330
E00DEA5D
100
AcDbEntity
  8
JISSEN
100
AcDbCircle
 10
254.6182061994734
 20
181.4729015472384
 30
0.0
 40
0.4875000000000239
100
AcDbArc
 50
292.6198649480738
 51
67.38013505192611
  0
LINE
  5
E00ED4DD
330
E00DEA5D
100
AcDbEntity
  8
JISSEN
100
AcDbLine
 10
254.8057061994752
 20
180.4229015472409
 30
0.0
 11
254.8057061994752
 21
181.0229015472394
 31
0.0
  0
LINE
  5
E00ED4DE
330
E00DEA5D
100
AcDbEntity
  8
JISSEN
100
AcDbLine
 10
254.8057061994752
 20
180.4229015472409
 30
0.0
 11
254.8057061994752
 21
181.0229015472394
 31
0.0
  0
LINE
  5
E00ED4DF
330
E00DEA5D
100
AcDbEntity
  8
JISSEN
100
AcDbLine
 10
253.5557061994752
 20
179.5229015472413
 30
0.0
 11
253.5557061994752
 21
178.9229015472427
 31
0.0
  0
ARC
  5
E00ED4E0
330
E00DEA5D
100
AcDbEntity
  8
JISSEN
100
AcDbCircle
 10
253.3682061994734
 20
178.4729015472402
 30
0.0
 40
0.4875000000000239
100
AcDbArc
 50
292.6198649480738
 51
67.38013505192611
  0
LINE
  5
E00ED4E1
330
E00DEA5D
100
AcDbEntity
  8
JISSEN
100
AcDbLine
 10
253.5557061994752
 20
179.5229015472394
 30
0.0
 11
253.5557061994752
 21
178.9229015472391
 31
0.0
  0
LINE
  5
E00ED4E2
330
E00DEA5D
100
AcDbEntity
  8
JISSEN
100
AcDbLine
 10
253.5557061994752
 20
179.5229015472394
 30
0.0
 11
253.5557061994734
 21
178.9229015472391
 31
0.0
  0
LINE
  5
E00ED4E3
330
E00DEA5D
100
AcDbEntity
  8
JISSEN
100
AcDbLine
 10
253.5557061994752
 20
179.5229015472413
 30
0.0
 11
253.5557061994752
 21
178.9229015472391
 31
0.0
  0
LINE
  5
E00ED4E4
330
E00DEA5D
100
AcDbEntity
  8
JISSEN
100
AcDbLine
 10
253.5557061994752
 20
179.5229015472394
 30
0.0
 11
253.5557061994752
 21
178.9229015472427
 31
0.0
  0
ARC
  5
E00ED4E5
330
E00DEA5D
100
AcDbEntity
  8
JISSEN
100
AcDbCircle
 10
254.6182061994734
 20
178.4729015472384
 30
0.0
 40
0.4875000000000239
100
AcDbArc
 50
292.6198649480738
 51
67.38013505192611
  0
LINE
  5
E00ED4E6
330
E00DEA5D
100
AcDbEntity
  8
JISSEN
100
AcDbLine
 10
254.8057061994752
 20
178.9229015472427
 30
0.0
 11
254.8057061994752
 21
179.5229015472413
 31
0.0
  0
LINE
  5
E00ED4E7
330
E00DEA5D
100
AcDbEntity
  8
JISSEN
100
AcDbLine
 10
254.8057061994752
 20
178.9229015472427
 30
0.0
 11
254.8057061994752
 21
179.5229015472413
 31
0.0
  0
ARC
  5
E00ED4E8
330
E00DEA5D
100
AcDbEntity
  8
JISSEN
100
AcDbCircle
 10
253.3682061994734
 20
179.9729015472402
 30
0.0
 40
0.4875000000000239
100
AcDbArc
 50
292.6198649480738
 51
67.38013505192611
  0
ARC
  5
E00ED4E9
330
E00DEA5D
100
AcDbEntity
  8
JISSEN
100
AcDbCircle
 10
254.6182061994734
 20
179.9729015472383
 30
0.0
 40
0.4875000000000239
100
AcDbArc
 50
292.6198649480738
 51
67.38013505192611
  0
LINE
  5
E00ED4EA
330
E00DEA5D
100
AcDbEntity
  8
JISSEN
100
AcDbLine
 10
256.1194905063041
 20
177.1729015472373
 30
0.0
 11
256.1194905063041
 21
183.0389269510213
 31
0.0
  0
LINE
  5
E00ED4EB
330
E00DEA5D
100
AcDbEntity
  8
JISSEN
100
AcDbLine
 10
257.3057061994752
 20
178.0229015472395
 30
0.0
 11
257.3057061994752
 21
177.6729015472373
 31
0.0
  0
SPLINE
  5
E00ED4EC
330
E00DEA5D
100
AcDbEntity
  8
JISSEN
100
AcDbSpline
210
0.0
220
0.0
230
1.0
 70
     8
 71
     3
 72
     8
 73
     4
 74
     0
 42
0.0000000001
 43
0.0000000001
 40
0.0
 40
0.0
 40
0.0
 40
0.0
 40
0.0007108901684311
 40
0.0007108901684311
 40
0.0007108901684311
 40
0.0007108901684311
 10
257.7433403202633
 20
177.1729015472373
 30
0.0
 10
257.5974395046416
 20
177.33954163031
 30
0.0
 10
257.4515621184348
 20
177.5062090684258
 30
0.0
 10
257.3057061994752
 20
177.6729015472373
 30
0.0
  0
LINE
  5
E00ED4ED
330
E00DEA5D
100
AcDbEntity
  8
JISSEN
100
AcDbLine
 10
257.3057061994752
 20
182.1729015472373
 30
0.0
 11
257.3057061994755
 21
181.9229015472427
 31
0.0
  0
LINE
  5
E00ED4EE
330
E00DEA5D
100
AcDbEntity
  8
JISSEN
100
AcDbLine
 10
257.3057061994752
 20
181.0229015472431
 30
0.0
 11
257.3057061994752
 21
180.4229015472463
 31
0.0
  0
ARC
  5
E00ED4EF
330
E00DEA5D
100
AcDbEntity
  8
JISSEN
100
AcDbCircle
 10
257.1182061994752
 20
181.4729015472402
 30
0.0
 40
0.4875000000000239
100
AcDbArc
 50
292.6198649480738
 51
67.38013505192611
  0
LINE
  5
E00ED4F0
330
E00DEA5D
100
AcDbEntity
  8
JISSEN
100
AcDbLine
 10
257.3057061994752
 20
179.5229015472413
 30
0.0
 11
257.3057061994752
 21
178.9229015472427
 31
0.0
  0
ARC
  5
E00ED4F1
330
E00DEA5D
100
AcDbEntity
  8
JISSEN
100
AcDbCircle
 10
257.1182061994752
 20
178.4729015472402
 30
0.0
 40
0.4875000000000239
100
AcDbArc
 50
292.6198649480738
 51
67.38013505192611
  0
ARC
  5
E00ED4F2
330
E00DEA5D
100
AcDbEntity
  8
JISSEN
100
AcDbCircle
 10
257.1182061994752
 20
179.9729015472402
 30
0.0
 40
0.4875000000000239
100
AcDbArc
 50
292.6198649480738
 51
67.38013505192611
  0
LINE
  5
E00ED4F3
330
E00DEA5D
100
AcDbEntity
  8
JISSEN
100
AcDbLine
 10
268.5557061994752
 20
177.1729015472373
 30
0.0
 11
268.5557061994752
 21
183.0389269510213
 31
0.0
  0
LINE
  5
E00ED4F4
330
E00DEA5D
100
AcDbEntity
  8
JISSEN
100
AcDbLine
 10
273.5557061994752
 20
177.1729015472373
 30
0.0
 11
273.5557061994752
 21
183.0389269510213
 31
0.0
  0
LINE
  5
E00ED4F5
330
E00DEA5D
100
AcDbEntity
  8
JISSEN
100
AcDbLine
 10
284.8057061994752
 20
178.0229015472395
 30
0.0
 11
284.8057061994752
 21
177.6729015472373
 31
0.0
  0
LINE
  5
E00ED4F6
330
E00DEA5D
100
AcDbEntity
  8
JISSEN
100
AcDbLine
 10
285.9919218926463
 20
177.1729015472373
 30
0.0
 11
285.9919218926463
 21
183.0389269510213
 31
0.0
  0
LINE
  5
E00ED4F7
330
E00DEA5D
100
AcDbEntity
  8
JISSEN
100
AcDbLine
 10
287.3057061994752
 20
177.6729015472373
 30
0.0
 11
287.3057061994752
 21
178.0229015472395
 31
0.0
  0
LINE
  5
E00ED4F8
330
E00DEA5D
100
AcDbEntity
  8
JISSEN
100
AcDbLine
 10
287.3057061994752
 20
177.6729015472373
 30
0.0
 11
287.3057061994752
 21
178.0229015472395
 31
0.0
  0
LINE
  5
E00ED4F9
330
E00DEA5D
100
AcDbEntity
  8
JISSEN
100
AcDbLine
 10
288.5557061994752
 20
178.0229015472395
 30
0.0
 11
288.5557061994752
 21
177.6729015472373
 31
0.0
  0
LINE
  5
E00ED4FA
330
E00DEA5D
100
AcDbEntity
  8
JISSEN
100
AcDbLine
 10
288.5557061994752
 20
177.6763308282369
 30
0.0
 11
287.3057061994752
 21
177.6763308282369
 31
0.0
  0
SPLINE
  5
E00ED4FB
330
E00DEA5D
100
AcDbEntity
  8
JISSEN
100
AcDbSpline
210
0.0
220
0.0
230
1.0
 70
     8
 71
     3
 72
     8
 73
     4
 74
     0
 42
0.0000000001
 43
0.0000000001
 40
0.0
 40
0.0
 40
0.0
 40
0.0
 40
0.0007108901684311
 40
0.0007108901684311
 40
0.0007108901684311
 40
0.0007108901684311
 10
284.3680720786871
 20
177.1729015472373
 30
0.0
 10
284.5139728943088
 20
177.33954163031
 30
0.0
 10
284.6598502805156
 20
177.5062090684258
 30
0.0
 10
284.8057061994752
 20
177.6729015472373
 30
0.0
  0
SPLINE
  5
E00ED4FC
330
E00DEA5D
100
AcDbEntity
  8
JISSEN
100
AcDbSpline
210
0.0
220
0.0
230
1.0
 70
     8
 71
     3
 72
     8
 73
     4
 74
     0
 42
0.0000000001
 43
0.0000000001
 40
0.0
 40
0.0
 40
0.0
 40
0.0
 40
0.0007108901684311
 40
0.0007108901684311
 40
0.0007108901684311
 40
0.0007108901684311
 10
287.3057061994752
 20
177.6763308282369
 30
0.0
 10
287.1598502805156
 20
177.5096383494254
 30
0.0
 10
287.0139728943088
 20
177.3429709113096
 30
0.0
 10
286.8680720786871
 20
177.1763308282369
 30
0.0
  0
LINE
  5
E00ED4FD
330
E00DEA5D
100
AcDbEntity
  8
JISSEN
100
AcDbLine
 10
288.5557061994752
 20
177.6729015472373
 30
0.0
 11
288.0557061994752
 21
177.1729015472373
 31
0.0
  0
ARC
  5
E00ED4FE
330
E00DEA5D
100
AcDbEntity
  8
JISSEN
100
AcDbCircle
 10
284.9932061994752
 20
178.4729015472402
 30
0.0
 40
0.4875000000000239
100
AcDbArc
 50
112.6198649480738
 51
247.3801350519261
  0
ARC
  5
E00ED4FF
330
E00DEA5D
100
AcDbEntity
  8
JISSEN
100
AcDbCircle
 10
284.9932061994752
 20
179.9729015472402
 30
0.0
 40
0.4875000000000239
100
AcDbArc
 50
112.6198649480738
 51
247.3801350519261
  0
LINE
  5
E00ED500
330
E00DEA5D
100
AcDbEntity
  8
JISSEN
100
AcDbLine
 10
284.8057061994752
 20
179.5229015472413
 30
0.0
 11
284.8057061994752
 21
178.9229015472427
 31
0.0
  0
ARC
  5
E00ED501
330
E00DEA5D
100
AcDbEntity
  8
JISSEN
100
AcDbCircle
 10
284.9932061994752
 20
181.4729015472402
 30
0.0
 40
0.4875000000000239
100
AcDbArc
 50
112.6198649480738
 51
247.3801350519261
  0
LINE
  5
E00ED502
330
E00DEA5D
100
AcDbEntity
  8
JISSEN
100
AcDbLine
 10
284.8057061994752
 20
181.0229015472431
 30
0.0
 11
284.8057061994752
 21
180.4229015472463
 31
0.0
  0
LINE
  5
E00ED503
330
E00DEA5D
100
AcDbEntity
  8
JISSEN
100
AcDbLine
 10
284.8057061994752
 20
182.1729015472373
 30
0.0
 11
284.805706199475
 21
181.9229015472427
 31
0.0
  0
ARC
  5
E00ED504
330
E00DEA5D
100
AcDbEntity
  8
JISSEN
100
AcDbCircle
 10
287.4932061994771
 20
179.9729015472383
 30
0.0
 40
0.4875000000000239
100
AcDbArc
 50
112.6198649480738
 51
247.3801350519261
  0
LINE
  5
E00ED505
330
E00DEA5D
100
AcDbEntity
  8
JISSEN
100
AcDbLine
 10
287.3057061994752
 20
178.9229015472427
 30
0.0
 11
287.3057061994752
 21
179.5229015472413
 31
0.0
  0
LINE
  5
E00ED506
330
E00DEA5D
100
AcDbEntity
  8
JISSEN
100
AcDbLine
 10
287.3057061994752
 20
178.9229015472427
 30
0.0
 11
287.3057061994752
 21
179.5229015472413
 31
0.0
  0
ARC
  5
E00ED507
330
E00DEA5D
100
AcDbEntity
  8
JISSEN
100
AcDbCircle
 10
287.4932061994771
 20
178.4729015472384
 30
0.0
 40
0.4875000000000239
100
AcDbArc
 50
112.6198649480738
 51
247.3801350519261
  0
LINE
  5
E00ED508
330
E00DEA5D
100
AcDbEntity
  8
JISSEN
100
AcDbLine
 10
287.3057061994752
 20
180.4229015472409
 30
0.0
 11
287.3057061994752
 21
181.0229015472394
 31
0.0
  0
LINE
  5
E00ED509
330
E00DEA5D
100
AcDbEntity
  8
JISSEN
100
AcDbLine
 10
287.3057061994752
 20
180.4229015472409
 30
0.0
 11
287.3057061994752
 21
181.0229015472394
 31
0.0
  0
ARC
  5
E00ED50A
330
E00DEA5D
100
AcDbEntity
  8
JISSEN
100
AcDbCircle
 10
287.4932061994771
 20
181.4729015472384
 30
0.0
 40
0.4875000000000239
100
AcDbArc
 50
112.6198649480738
 51
247.3801350519261
  0
LINE
  5
E00ED50B
330
E00DEA5D
100
AcDbEntity
  8
JISSEN
100
AcDbLine
 10
287.3057061994752
 20
181.9229015472409
 30
0.0
 11
287.3057061994752
 21
182.1729015472373
 31
0.0
  0
ARC
  5
E00ED50C
330
E00DEA5D
100
AcDbEntity
  8
JISSEN
100
AcDbCircle
 10
288.743206199477
 20
179.9729015472402
 30
0.0
 40
0.4875000000000239
100
AcDbArc
 50
112.6198649480738
 51
247.3801350519261
  0
LINE
  5
E00ED50D
330
E00DEA5D
100
AcDbEntity
  8
JISSEN
100
AcDbLine
 10
288.5557061994752
 20
179.5229015472394
 30
0.0
 11
288.5557061994752
 21
178.9229015472427
 31
0.0
  0
LINE
  5
E00ED50E
330
E00DEA5D
100
AcDbEntity
  8
JISSEN
100
AcDbLine
 10
288.5557061994752
 20
179.5229015472413
 30
0.0
 11
288.5557061994752
 21
178.9229015472391
 31
0.0
  0
LINE
  5
E00ED50F
330
E00DEA5D
100
AcDbEntity
  8
JISSEN
100
AcDbLine
 10
288.5557061994752
 20
179.5229015472394
 30
0.0
 11
288.555706199477
 21
178.9229015472391
 31
0.0
  0
LINE
  5
E00ED510
330
E00DEA5D
100
AcDbEntity
  8
JISSEN
100
AcDbLine
 10
288.5557061994752
 20
179.5229015472394
 30
0.0
 11
288.5557061994752
 21
178.9229015472391
 31
0.0
  0
ARC
  5
E00ED511
330
E00DEA5D
100
AcDbEntity
  8
JISSEN
100
AcDbCircle
 10
288.743206199477
 20
178.4729015472402
 30
0.0
 40
0.4875000000000239
100
AcDbArc
 50
112.6198649480738
 51
247.3801350519261
  0
LINE
  5
E00ED512
330
E00DEA5D
100
AcDbEntity
  8
JISSEN
100
AcDbLine
 10
288.5557061994752
 20
179.5229015472413
 30
0.0
 11
288.5557061994752
 21
178.9229015472427
 31
0.0
  0
LINE
  5
E00ED513
330
E00DEA5D
100
AcDbEntity
  8
JISSEN
100
AcDbLine
 10
288.5557061994752
 20
181.0229015472413
 30
0.0
 11
288.5557061994752
 21
180.4229015472427
 31
0.0
  0
ARC
  5
E00ED514
330
E00DEA5D
100
AcDbEntity
  8
JISSEN
100
AcDbCircle
 10
288.743206199477
 20
181.4729015472402
 30
0.0
 40
0.4875000000000239
100
AcDbArc
 50
112.6198649480738
 51
247.3801350519261
  0
LINE
  5
E00ED515
330
E00DEA5D
100
AcDbEntity
  8
JISSEN
100
AcDbLine
 10
288.5557061994752
 20
181.0229015472413
 30
0.0
 11
288.5557061994752
 21
180.4229015472391
 31
0.0
  0
LINE
  5
E00ED516
330
E00DEA5D
100
AcDbEntity
  8
JISSEN
100
AcDbLine
 10
288.5557061994752
 20
181.0229015472394
 30
0.0
 11
288.5557061994752
 21
180.4229015472391
 31
0.0
  0
LINE
  5
E00ED517
330
E00DEA5D
100
AcDbEntity
  8
JISSEN
100
AcDbLine
 10
288.5557061994752
 20
181.0229015472394
 30
0.0
 11
288.5557061994752
 21
180.4229015472391
 31
0.0
  0
LINE
  5
E00ED518
330
E00DEA5D
100
AcDbEntity
  8
JISSEN
100
AcDbLine
 10
288.5557061994752
 20
181.0229015472413
 30
0.0
 11
288.5557061994752
 21
180.4229015472391
 31
0.0
  0
LINE
  5
E00ED519
330
E00DEA5D
100
AcDbEntity
  8
JISSEN
100
AcDbLine
 10
288.5557061994752
 20
182.1729015472373
 30
0.0
 11
288.5557061994752
 21
181.9229015472409
 31
0.0
  0
LINE
  5
E00ED51A
330
E00DEA5D
100
AcDbEntity
  8
JISSEN
100
AcDbLine
 10
271.0557061994752
 20
177.1729015472373
 30
0.0
 11
284.3680720786762
 21
177.1729015472373
 31
0.0
  0
LINE
  5
E00ED51B
330
E00DEA5D
100
AcDbEntity
  8
JISSEN
100
AcDbLine
 10
271.0557061994752
 20
177.1729015472373
 30
0.0
 11
257.7433403202742
 21
177.1729015472373
 31
0.0
  0
LINE
  5
E00ED51C
330
E00DEA5D
100
AcDbEntity
  8
JISSEN
100
AcDbLine
 10
256.1194905063751
 20
177.1729015472373
 30
0.0
 11
257.7433403202742
 21
177.1729015472373
 31
0.0
  0
LINE
  5
E00ED51D
330
E00DEA5D
100
AcDbEntity
  8
JISSEN
100
AcDbLine
 39
1680.364539346804
 10
253.5557061994752
 20
182.1729015472373
 30
0.0
 11
254.8057061994752
 21
182.1729015472373
 31
0.0
  0
LINE
  5
E00ED51E
330
E00DEA5D
100
AcDbEntity
  8
JISSEN
100
AcDbLine
 10
255.2877570070579
 20
183.1729015472373
 30
0.0
 11
271.0557061994752
 21
183.1729015472373
 31
0.0
  0
SPLINE
  5
E00ED51F
330
E00DEA5D
100
AcDbEntity
  8
JISSEN
100
AcDbSpline
210
0.0
220
0.0
230
1.0
 70
     8
 71
     3
 72
     8
 73
     4
 74
     0
 42
0.0000000001
 43
0.0000000001
 40
0.000000403112789
 40
0.000000403112789
 40
0.000000403112789
 40
0.000000403112789
 40
0.0017472208689273
 40
0.0017472208689273
 40
0.0017472208689273
 40
0.0017472208689273
 10
254.8057061994752
 20
182.1729015472373
 30
0.0
 10
255.2435289615662
 20
182.4617896495818
 30
0.0
 10
255.6814472191983
 20
182.7504849259147
 30
0.0
 10
256.1194905063041
 20
183.0389269510213
 30
0.0
  0
LINE
  5
E00ED520
330
E00DEA5D
100
AcDbEntity
  8
JISSEN
100
AcDbLine
 10
255.2433403202742
 20
177.1729015472373
 30
0.0
 11
256.1194905063751
 21
177.1729015472373
 31
0.0
  0
LINE
  5
E00ED521
330
E00DEA5D
100
AcDbEntity
  8
JISSEN
100
AcDbLine
 10
255.2433403202742
 20
177.1729015472373
 30
0.0
 11
254.0557061994752
 21
177.1729015472373
 31
0.0
  0
LINE
  5
E00ED522
330
E00DEA5D
100
AcDbEntity
  8
JISSEN
100
AcDbLine
 10
255.2877570070597
 20
183.1729015472373
 30
0.0
 11
253.5557061994752
 21
182.1729015472354
 31
0.0
  0
LINE
  5
E00ED523
330
E00DEA5D
100
AcDbEntity
  8
JISSEN
100
AcDbLine
 10
254.8057061994752
 20
182.1229015472453
 30
0.0
 11
254.8057061994752
 21
182.1729015472373
 31
0.0
  0
SPLINE
  5
E00ED524
330
E00DEA5D
100
AcDbEntity
  8
JISSEN
100
AcDbSpline
210
0.0
220
0.0
230
1.0
 70
     8
 71
     3
 72
     8
 73
     4
 74
     0
 42
0.0000000001
 43
0.0000000001
 40
0.0000002658515791
 40
0.0000002658515791
 40
0.0000002658515791
 40
0.0000002658515791
 40
0.0017470836077175
 40
0.0017470836077175
 40
0.0017470836077175
 40
0.0017470836077175
 10
258.6194905063041
 20
183.0389269510213
 30
0.0
 10
258.1814472191983
 20
182.7504849259147
 30
0.0
 10
257.7435289615662
 20
182.4617896495818
 30
0.0
 10
257.3057061994752
 20
182.1729015472373
 30
0.0
  0
LINE
  5
E00ED525
330
E00DEA5D
100
AcDbEntity
  8
JISSEN
100
AcDbLine
 10
256.1194905063041
 20
183.0389269510213
 30
0.0
 11
258.6194905063041
 21
183.0389269510213
 31
0.0
  0
LINE
  5
E00ED526
330
E00DEA5D
100
AcDbEntity
  8
JISSEN
100
AcDbLine
 39
1680.364539346804
 10
288.5557061994752
 20
182.1729015472373
 30
0.0
 11
287.3057061994752
 21
182.1729015472373
 31
0.0
  0
LINE
  5
E00ED527
330
E00DEA5D
100
AcDbEntity
  8
JISSEN
100
AcDbLine
 39
1680.364539346804
 10
284.8057061994752
 20
182.1729015473227
 30
0.0
 11
273.5557061994297
 21
182.1729015473209
 31
0.0
  0
LINE
  5
E00ED528
330
E00DEA5D
100
AcDbEntity
  8
JISSEN
100
AcDbLine
 10
268.5557061994752
 20
183.0389269510213
 30
0.0
 11
271.0557061994752
 21
183.0389269510213
 31
0.0
  0
LINE
  5
E00ED529
330
E00DEA5D
100
AcDbEntity
  8
JISSEN
100
AcDbLine
 10
273.5557061994752
 20
183.0389269510213
 30
0.0
 11
271.0557061994752
 21
183.0389269510213
 31
0.0
  0
LINE
  5
E00ED52A
330
E00DEA5D
100
AcDbEntity
  8
JISSEN
100
AcDbLine
 10
285.9919218926463
 20
183.0389269510213
 30
0.0
 11
283.4919218926463
 21
183.0389269510213
 31
0.0
  0
SPLINE
  5
E00ED52B
330
E00DEA5D
100
AcDbEntity
  8
JISSEN
100
AcDbSpline
210
0.0
220
0.0
230
1.0
 70
     8
 71
     3
 72
     8
 73
     4
 74
     0
 42
0.0000000001
 43
0.0000000001
 40
0.0000002658515791
 40
0.0000002658515791
 40
0.0000002658515791
 40
0.0000002658515791
 40
0.0017470836077175
 40
0.0017470836077175
 40
0.0017470836077175
 40
0.0017470836077175
 10
283.4919218926463
 20
183.0389269510213
 30
0.0
 10
283.9299651797521
 20
182.7504849259147
 30
0.0
 10
284.3678834373843
 20
182.4617896495818
 30
0.0
 10
284.8057061994752
 20
182.1729015472373
 30
0.0
  0
LINE
  5
E00ED52C
330
E00DEA5D
100
AcDbEntity
  8
JISSEN
100
AcDbLine
 10
286.8236553918907
 20
183.1729015472373
 30
0.0
 11
288.5557061994752
 21
182.1729015472354
 31
0.0
  0
LINE
  5
E00ED52D
330
E00DEA5D
100
AcDbEntity
  8
JISSEN
100
AcDbLine
 10
287.3057061994752
 20
182.1229015472453
 30
0.0
 11
287.3057061994752
 21
182.1729015472373
 31
0.0
  0
SPLINE
  5
E00ED52E
330
E00DEA5D
100
AcDbEntity
  8
JISSEN
100
AcDbSpline
210
0.0
220
0.0
230
1.0
 70
     8
 71
     3
 72
     8
 73
     4
 74
     0
 42
0.0000000001
 43
0.0000000001
 40
0.000000403112789
 40
0.000000403112789
 40
0.000000403112789
 40
0.000000403112789
 40
0.0017472208689273
 40
0.0017472208689273
 40
0.0017472208689273
 40
0.0017472208689273
 10
287.3057061994752
 20
182.1729015472373
 30
0.0
 10
286.8678834373842
 20
182.4617896495818
 30
0.0
 10
286.4299651797521
 20
182.7504849259147
 30
0.0
 10
285.9919218926463
 20
183.0389269510213
 30
0.0
  0
LINE
  5
E00ED52F
330
E00DEA5D
100
AcDbEntity
  8
JISSEN
100
AcDbLine
 10
288.5557061994752
 20
182.1729015472373
 30
0.0
 11
288.5557061994752
 21
182.122901547238
 31
0.0
  0
LINE
  5
E00ED530
330
E00DEA5D
100
AcDbEntity
  8
JISSEN
100
AcDbLine
 10
288.5557061994752
 20
182.1729015472373
 30
0.0
 11
288.5557061994752
 21
182.122901547238
 31
0.0
  0
LINE
  5
E00ED531
330
E00DEA5D
100
AcDbEntity
  8
JISSEN
100
AcDbLine
 10
286.8236553918925
 20
183.1729015472373
 30
0.0
 11
271.0557061994752
 21
183.1729015472373
 31
0.0
  0
LINE
  5
E00ED532
330
E00DEA5D
100
AcDbEntity
  8
JISSEN
100
AcDbLine
 10
286.8680720786762
 20
177.1729015472373
 30
0.0
 11
288.0557061994752
 21
177.1729015472373
 31
0.0
  0
LINE
  5
E00ED533
330
E00DEA5D
100
AcDbEntity
  8
JISSEN
100
AcDbLine
 10
286.8680720786762
 20
177.1729015472373
 30
0.0
 11
285.9919218925753
 21
177.1729015472373
 31
0.0
  0
LINE
  5
E00ED534
330
E00DEA5D
100
AcDbEntity
  8
JISSEN
100
AcDbLine
 10
285.9919218925753
 20
177.1729015472373
 30
0.0
 11
284.3680720786762
 21
177.1729015472373
 31
0.0
  0
LINE
  5
E00ED543
330
E00DEA5D
100
AcDbEntity
  8
SUNPOU
100
AcDbLine
 10
120.4201604518156
 20
12.09353634698129
 30
0.0
 11
123.4201604518156
 21
12.09353634698129
 31
0.0
  0
LINE
  5
E00ED544
330
E00DEA5D
100
AcDbEntity
  8
SUNPOU
100
AcDbLine
 10
120.4201604518156
 20
9.093536346981295
 30
0.0
 11
123.4201604518156
 21
9.093536346981295
 31
0.0
  0
LINE
  5
E00ED545
330
E00DEA5D
100
AcDbEntity
  8
SUNPOU
100
AcDbLine
 10
122.6701604518156
 20
12.09353634698129
 30
0.0
 11
122.6701604518156
 21
9.093536346981295
 31
0.0
  0
LINE
  5
E00ED546
330
E00DEA5D
100
AcDbEntity
  8
SUNPOU
100
AcDbLine
 10
121.1701604518156
 20
12.09353634698129
 30
0.0
 11
121.1701604518156
 21
9.093536346981295
 31
0.0
  0
LINE
  5
E00ED550
330
E00DEA5D
100
AcDbEntity
  8
SUNPOU
100
AcDbLine
 10
301.4294387543005
 20
12.10246627994524
 30
0.0
 11
304.4294387543005
 21
12.10246627994524
 31
0.0
  0
LINE
  5
E00ED551
330
E00DEA5D
100
AcDbEntity
  8
SUNPOU
100
AcDbLine
 10
301.4294387543005
 20
9.102466279945247
 30
0.0
 11
304.4294387543005
 21
9.102466279945247
 31
0.0
  0
LINE
  5
E00ED552
330
E00DEA5D
100
AcDbEntity
  8
SUNPOU
100
AcDbLine
 10
303.6794387543005
 20
12.10246627994524
 30
0.0
 11
303.6794387543005
 21
9.102466279945247
 31
0.0
  0
LINE
  5
E00ED553
330
E00DEA5D
100
AcDbEntity
  8
SUNPOU
100
AcDbLine
 10
302.1794387543005
 20
12.10246627994524
 30
0.0
 11
302.1794387543005
 21
9.102466279945247
 31
0.0
  0
ENDSEC
  0
SECTION
  2
OBJECTS
  0
DICTIONARY
  5
E00DEA51
330
0
100
AcDbDictionary
281
     1
  3
ACAD_GROUP
350
E00DEA52
  3
ACAD_LAYOUT
350
E00DFA6A
  3
ACAD_MLINESTYLE
350
E00DEA53
  3
ACAD_PLOTSETTINGS
350
E00DFA6B
  3
ACAD_PLOTSTYLENAME
350
E00DFA68
  3
AcadDim
350
E00E59A8
  3
ACDBVARIABLEDICTIONARY
350
E00DF82C
  0
DICTIONARY
  5
E00DFB39
330
E00DEA47
100
AcDbDictionary
280
     1
281
     1
  3
ACAD_LAYERFILTERS
360
E00E26A3
  3
ACAD_LAYERSTATES
360
E00DFB3A
  0
DICTIONARY
  5
E00DFB13
330
E00DEA5D
100
AcDbDictionary
280
     1
281
     1
  3
ACAD_LAYOUTSELFREF
360
E00DFB14
  0
DICTIONARY
  5
E00DFB11
330
E00DEA5A
100
AcDbDictionary
280
     1
281
     1
  3
ACAD_LAYOUTSELFREF
360
E00DFB12
  0
DICTIONARY
  5
E00DEA52
102
{ACAD_REACTORS
330
E00DEA51
102
}
330
E00DEA51
100
AcDbDictionary
281
     1
  0
DICTIONARY
  5
E00DFA6A
102
{ACAD_REACTORS
330
E00DEA51
102
}
330
E00DEA51
100
AcDbDictionary
281
     1
  3
Model
350
E00DFA6C
  3
ﾚｲｱｳﾄ1
350
E00DFA6D
  0
DICTIONARY
  5
E00DEA53
102
{ACAD_REACTORS
330
E00DEA51
102
}
330
E00DEA51
100
AcDbDictionary
281
     1
  3
STANDARD
350
E00DEA60
  0
DICTIONARY
  5
E00DFA6B
102
{ACAD_REACTORS
330
E00DEA51
102
}
330
E00DEA51
100
AcDbDictionary
281
     1
  0
ACDBDICTIONARYWDFLT
  5
E00DFA68
102
{ACAD_REACTORS
330
E00DEA51
102
}
330
E00DEA51
100
AcDbDictionary
281
     1
  3
Normal
350
E00DFA69
  3
Style_1
350
E00ECC5E
100
AcDbDictionaryWithDefault
340
E00DFA69
  0
XRECORD
  5
E00E59A8
102
{ACAD_REACTORS
330
E00DEA51
102
}
330
E00DEA51
100
AcDbXrecord
280
     1
 90
   990106
  3

 60
     0
 61
     0
 62
     1
 63
     3
 64
     0
 65
     0
 66
     0
 67
     3
 68
     1
 69
     0
 70
     0
 71
     0
 72
     0
 40
0.0
170
     0
  0
DICTIONARY
  5
E00DF82C
102
{ACAD_REACTORS
330
E00DEA51
102
}
330
E00DEA51
100
AcDbDictionary
281
     1
  3
DIMASSOC
350
E00DFB2E
  3
SORTENTS
350
E00DF82D
  0
DICTIONARY
  5
E00E26A3
102
{ACAD_REACTORS
330
E00DFB39
102
}
330
E00DFB39
100
AcDbDictionary
280
     1
281
     1
  3
0
360
E00E26A4
  3
0-0
360
E00E26A5
  3
10画層
360
E00E26A6
  3
2
360
E00E26A7
  3
3
360
E00E26A8
  3
3A
360
E00E26A9
  3
4
360
E00E26AA
  3
5画層
360
E00E26AB
  3
6画層
360
E00E26AC
  3
7
360
E00E26AD
  3
7a画層
360
E00E26AE
  3
8
360
E00E26AF
  3
ASYST
360
E00E26B0
  3
ASYST PHASE 1
360
E00E26B1
  3
ASYST PHASE 2
360
E00E26B2
  3
cap-0
360
E00E26B3
  3
dims
360
E00E26B4
  3
elec
360
E00E26B5
  3
ELECTRICAL
360
E00E26B6
  3
F
360
E00E26B7
  3
Frame
360
E00E26B8
  3
FROZEN
360
E00E26B9
  3
FROZEN ACTIVE
360
E00E26BA
  3
jiku-0
360
E00E26BB
  3
MP
360
E00E26BC
  3
MPR
360
E00E26BD
  3
p-
360
E00E26BE
  3
ST
360
E00E26BF
  3
TC
360
E00E26C0
  3
TEXT
360
E00E26C1
  3
ｹｰﾌﾞﾙ図
360
E00E26C2
  3
０画層
360
E00E26C3
  3
３A画層
360
E00E26C4
  3
３画層
360
E00E26C5
  0
DICTIONARY
  5
E00DFB3A
102
{ACAD_REACTORS
330
E00DFB39
102
}
330
E00DFB39
100
AcDbDictionary
281
     1
  0
XRECORD
  5
E00DFB14
102
{ACAD_REACTORS
330
E00DFB13
102
}
330
E00DFB13
100
AcDbXrecord
280
     1
340
E00DEA5D
  0
XRECORD
  5
E00DFB12
102
{ACAD_REACTORS
330
E00DFB11
102
}
330
E00DFB11
100
AcDbXrecord
280
     1
340
E00DEA5A
  0
LAYOUT
  5
E00DFA6C
102
{ACAD_REACTORS
330
E00DFA6A
102
}
330
E00DFA6A
100
AcDbPlotSettings
  1

  2
\\Nt_honsya\FUJITSU XL-5300-3
  4
A4
  6

 40
5.873749732971191
 41
5.704405784606932
 42
5.789077758789062
 43
5.873748779296875
 44
209.9733276367186
 45
296.9259948730469
 46
0.0
 47
0.0
 48
0.0
 49
0.0
140
0.0
141
0.0
142
1.0
143
1.0
 70
 11952
 72
     0
 73
     1
 74
     0
  7
aclt.ctb
 75
     0
147
1.0
148
1211.157904756485
149
44.79223521629618
100
AcDbLayout
  1
Model
 70
     1
 71
     0
 10
0.0
 20
0.0
 11
12.0
 21
9.0
 12
0.0
 22
0.0
 32
0.0
 14
0.0
 24
0.0
 34
0.0
 15
0.0
 25
0.0
 35
0.0
146
0.0
 13
0.0
 23
0.0
 33
0.0
 16
1.0
 26
0.0
 36
0.0
 17
0.0
 27
1.0
 37
0.0
 76
     0
330
E00DEA5D
  0
LAYOUT
  5
E00DFA6D
102
{ACAD_REACTORS
330
E00DFA6A
102
}
330
E00DFA6A
100
AcDbPlotSettings
  1

  2
\\Nt_honsya\FUJITSU XL-5300-3
  4

  6

 40
0.0
 41
0.0
 42
0.0
 43
0.0
 44
0.0
 45
0.0
 46
0.0
 47
0.0
 48
0.0
 49
0.0
140
0.0
141
0.0
142
1.0
143
1.0
 70
   688
 72
     0
 73
     0
 74
     5
  7
aclt(XL).ctb
 75
    16
147
1.0
148
0.0
149
0.0
100
AcDbLayout
  1
ﾚｲｱｳﾄ1
 70
     0
 71
     1
 10
0.0
 20
0.0
 11
12.0
 21
9.0
 12
0.0
 22
0.0
 32
0.0
 14
1.000000000000000E+20
 24
1.000000000000000E+20
 34
1.000000000000000E+20
 15
-1.000000000000000E+20
 25
-1.000000000000000E+20
 35
-1.000000000000000E+20
146
0.0
 13
0.0
 23
0.0
 33
0.0
 16
1.0
 26
0.0
 36
0.0
 17
0.0
 27
1.0
 37
0.0
 76
     0
330
E00DEA5A
  0
MLINESTYLE
  5
E00DEA60
102
{ACAD_REACTORS
330
E00DEA53
102
}
330
E00DEA53
100
AcDbMlineStyle
  2
STANDARD
 70
     0
  3

 62
     0
 51
90.0
 52
90.0
 71
     2
 49
0.5
 62
   256
  6
BYLAYER
 49
-0.5
 62
   256
  6
BYLAYER
  0
ACDBPLACEHOLDER
  5
E00DFA69
102
{ACAD_REACTORS
330
E00DFA68
102
}
330
E00DFA68
  0
ACDBPLACEHOLDER
  5
E00ECC5E
102
{ACAD_REACTORS
330
E00DFA68
102
}
330
E00DFA68
  0
DICTIONARYVAR
  5
E00DFB2E
102
{ACAD_REACTORS
330
E00DF82C
102
}
330
E00DF82C
100
DictionaryVariables
280
     0
  1
0
  0
DICTIONARYVAR
  5
E00DF82D
102
{ACAD_REACTORS
330
E00DF82C
102
}
330
E00DF82C
100
DictionaryVariables
280
     0
  1
96
  0
XRECORD
  5
E00E26A4
102
{ACAD_REACTORS
330
E00E26A3
102
}
330
E00E26A3
100
AcDbXrecord
280
     1
  1
0
  1
*-0
  1
*
  1
*
 70
     0
  1
*
  1
*
  0
XRECORD
  5
E00E26A5
102
{ACAD_REACTORS
330
E00E26A3
102
}
330
E00E26A3
100
AcDbXrecord
280
     1
  1
0-0
  1
*-0
  1
*
  1
*
 70
     0
  1
*
  1
*
  0
XRECORD
  5
E00E26A6
102
{ACAD_REACTORS
330
E00E26A3
102
}
330
E00E26A3
100
AcDbXrecord
280
     1
  1
10画層
  1
*-10
  1
*
  1
*
 70
     0
  1
*
  1
*
  0
XRECORD
  5
E00E26A7
102
{ACAD_REACTORS
330
E00E26A3
102
}
330
E00E26A3
100
AcDbXrecord
280
     1
  1
2
  1
*-2
  1
*
  1
*
 70
     0
  1
*
  1
*
  0
XRECORD
  5
E00E26A8
102
{ACAD_REACTORS
330
E00E26A3
102
}
330
E00E26A3
100
AcDbXrecord
280
     1
  1
3
  1
*-3
  1
*
  1
*
 70
     0
  1
*
  1
*
  0
XRECORD
  5
E00E26A9
102
{ACAD_REACTORS
330
E00E26A3
102
}
330
E00E26A3
100
AcDbXrecord
280
     1
  1
3A
  1
*-3A
  1
*
  1
*
 70
     0
  1
*
  1
*
  0
XRECORD
  5
E00E26AA
102
{ACAD_REACTORS
330
E00E26A3
102
}
330
E00E26A3
100
AcDbXrecord
280
     1
  1
4
  1
*-4
  1
*
  1
*
 70
     0
  1
*
  1
*
  0
XRECORD
  5
E00E26AB
102
{ACAD_REACTORS
330
E00E26A3
102
}
330
E00E26A3
100
AcDbXrecord
280
     1
  1
5画層
  1
*-5
  1
*
  1
*
 70
     0
  1
*
  1
*
  0
XRECORD
  5
E00E26AC
102
{ACAD_REACTORS
330
E00E26A3
102
}
330
E00E26A3
100
AcDbXrecord
280
     1
  1
6画層
  1
*-6
  1
*
  1
*
 70
     0
  1
*
  1
*
  0
XRECORD
  5
E00E26AD
102
{ACAD_REACTORS
330
E00E26A3
102
}
330
E00E26A3
100
AcDbXrecord
280
     1
  1
7
  1
*-7*
  1
*
  1
*
 70
     0
  1
*
  1
*
  0
XRECORD
  5
E00E26AE
102
{ACAD_REACTORS
330
E00E26A3
102
}
330
E00E26A3
100
AcDbXrecord
280
     1
  1
7a画層
  1
*-7a
  1
*
  1
*
 70
     0
  1
*
  1
*
  0
XRECORD
  5
E00E26AF
102
{ACAD_REACTORS
330
E00E26A3
102
}
330
E00E26A3
100
AcDbXrecord
280
     1
  1
8
  1
*-8,8
  1
*
  1
*
 70
     0
  1
*
  1
*
  0
XRECORD
  5
E00E26B0
102
{ACAD_REACTORS
330
E00E26A3
102
}
330
E00E26A3
100
AcDbXrecord
280
     1
  1
ASYST
  1
ASYST*
  1
*
  1
*
 70
     0
  1
*
  1
*
  0
XRECORD
  5
E00E26B1
102
{ACAD_REACTORS
330
E00E26A3
102
}
330
E00E26A3
100
AcDbXrecord
280
     1
  1
ASYST PHASE 1
  1
A1.0-8$0$ASYT*
  1
*
  1
*
 70
     0
  1
*
  1
*
  0
XRECORD
  5
E00E26B2
102
{ACAD_REACTORS
330
E00E26A3
102
}
330
E00E26A3
100
AcDbXrecord
280
     1
  1
ASYST PHASE 2
  1
A2.0-8$0$ASYT*
  1
*
  1
*
 70
     0
  1
*
  1
*
  0
XRECORD
  5
E00E26B3
102
{ACAD_REACTORS
330
E00E26A3
102
}
330
E00E26A3
100
AcDbXrecord
280
     1
  1
cap-0
  1
*
  1
*
  1
*
 70
     0
  1
*
  1
*
  0
XRECORD
  5
E00E26B4
102
{ACAD_REACTORS
330
E00E26A3
102
}
330
E00E26A3
100
AcDbXrecord
280
     1
  1
dims
  1
*di*
  1
*
  1
*
 70
     0
  1
*
  1
*
  0
XRECORD
  5
E00E26B5
102
{ACAD_REACTORS
330
E00E26A3
102
}
330
E00E26A3
100
AcDbXrecord
280
     1
  1
elec
  1
e-*
  1
*
  1
*
 70
     0
  1
*
  1
*
  0
XRECORD
  5
E00E26B6
102
{ACAD_REACTORS
330
E00E26A3
102
}
330
E00E26A3
100
AcDbXrecord
280
     1
  1
ELECTRICAL
  1
E-*
  1
*
  1
*
 70
     0
  1
*
  1
*
  0
XRECORD
  5
E00E26B7
102
{ACAD_REACTORS
330
E00E26A3
102
}
330
E00E26A3
100
AcDbXrecord
280
     1
  1
F
  1
*
  1
*
  1
*
 70
     0
  1
*
  1
*
  0
XRECORD
  5
E00E26B8
102
{ACAD_REACTORS
330
E00E26A3
102
}
330
E00E26A3
100
AcDbXrecord
280
     1
  1
Frame
  1
F*
  1
*
  1
*
 70
     0
  1
*
  1
*
  0
XRECORD
  5
E00E26B9
102
{ACAD_REACTORS
330
E00E26A3
102
}
330
E00E26A3
100
AcDbXrecord
280
     1
  1
FROZEN
  1
*
  1
*
  1
*
 70
     4
  1
*
  1
*
  0
XRECORD
  5
E00E26BA
102
{ACAD_REACTORS
330
E00E26A3
102
}
330
E00E26A3
100
AcDbXrecord
280
     1
  1
FROZEN ACTIVE
  1
*
  1
*
  1
*
 70
    16
  1
*
  1
*
  0
XRECORD
  5
E00E26BB
102
{ACAD_REACTORS
330
E00E26A3
102
}
330
E00E26A3
100
AcDbXrecord
280
     1
  1
jiku-0
  1
*
  1
*
  1
*
 70
     0
  1
*
  1
*
  0
XRECORD
  5
E00E26BC
102
{ACAD_REACTORS
330
E00E26A3
102
}
330
E00E26A3
100
AcDbXrecord
280
     1
  1
MP
  1
MP_*
  1
*
  1
*
 70
     0
  1
*
  1
*
  0
XRECORD
  5
E00E26BD
102
{ACAD_REACTORS
330
E00E26A3
102
}
330
E00E26A3
100
AcDbXrecord
280
     1
  1
MPR
  1
MPR*
  1
*
  1
*
 70
     0
  1
*
  1
*
  0
XRECORD
  5
E00E26BE
102
{ACAD_REACTORS
330
E00E26A3
102
}
330
E00E26A3
100
AcDbXrecord
280
     1
  1
p-
  1
p-*
  1
*
  1
*
 70
     0
  1
*
  1
*
  0
XRECORD
  5
E00E26BF
102
{ACAD_REACTORS
330
E00E26A3
102
}
330
E00E26A3
100
AcDbXrecord
280
     1
  1
ST
  1
ST_*
  1
*
  1
*
 70
     0
  1
*
  1
*
  0
XRECORD
  5
E00E26C0
102
{ACAD_REACTORS
330
E00E26A3
102
}
330
E00E26A3
100
AcDbXrecord
280
     1
  1
TC
  1
TC_*,0N
  1
*
  1
*
 70
     0
  1
*
  1
*
  0
XRECORD
  5
E00E26C1
102
{ACAD_REACTORS
330
E00E26A3
102
}
330
E00E26A3
100
AcDbXrecord
280
     1
  1
TEXT
  1
TEXT
  1
*
  1
*
 70
     0
  1
*
  1
*
  0
XRECORD
  5
E00E26C2
102
{ACAD_REACTORS
330
E00E26A3
102
}
330
E00E26A3
100
AcDbXrecord
280
     1
  1
ｹｰﾌﾞﾙ図
  1
*
  1
*
  1
*
 70
     0
  1
*
  1
*
  0
XRECORD
  5
E00E26C3
102
{ACAD_REACTORS
330
E00E26A3
102
}
330
E00E26A3
100
AcDbXrecord
280
     1
  1
０画層
  1
*-0
  1
*
  1
*
 70
     0
  1
*
  1
*
  0
XRECORD
  5
E00E26C4
102
{ACAD_REACTORS
330
E00E26A3
102
}
330
E00E26A3
100
AcDbXrecord
280
     1
  1
３A画層
  1
*-3A
  1
*
  1
*
 70
     0
  1
*
  1
*
  0
XRECORD
  5
E00E26C5
102
{ACAD_REACTORS
330
E00E26A3
102
}
330
E00E26A3
100
AcDbXrecord
280
     1
  1
３画層
  1
*-3
  1
*
  1
*
 70
     0
  1
*
  1
*
  0
ENDSEC
  0
EOF
