  0
SECTION
  2
HEADER
  9
$ACADVER
  1
AC1015
  9
$ACADMAINTVER
 70
    10
  9
$DWGCODEPAGE
  3
ANSI_932
  9
$INSBASE
 10
0.0
 20
0.0
 30
0.0
  9
$EXTMIN
 10
-0.0165666617465377
 20
-0.0129512853400229
 30
-0.0000000000000058
  9
$EXTMAX
 10
362.0165719568825
 20
283.0129565569071
 30
0.0000000000000104
  9
$LIMMIN
 10
0.0
 20
0.0
  9
$LIMMAX
 10
361.9999985519998
 20
282.9999999999999
  9
$ORTHOMODE
 70
     1
  9
$REGENMODE
 70
     1
  9
$FILLMODE
 70
     1
  9
$QTEXTMODE
 70
     0
  9
$MIRRTEXT
 70
     0
  9
$LTSCALE
 40
5.0
  9
$ATTMODE
 70
     1
  9
$TEXTSIZE
 40
3.0
  9
$TRACEWID
 40
0.05
  9
$TEXTSTYLE
  7
BIGFONT
  9
$CLAYER
  8
JISSEN
  9
$CELTYPE
  6
BYLAYER
  9
$CECOLOR
 62
   256
  9
$CELTSCALE
 40
1.0
  9
$DISPSILH
 70
     0
  9
$DIMSCALE
 40
1.0
  9
$DIMASZ
 40
1.5
  9
$DIMEXO
 40
1.0
  9
$DIMDLI
 40
6.0
  9
$DIMRND
 40
0.0
  9
$DIMDLE
 40
0.0
  9
$DIMEXE
 40
1.0
  9
$DIMTP
 40
0.0
  9
$DIMTM
 40
0.0
  9
$DIMTXT
 40
3.0
  9
$DIMCEN
 40
1.0
  9
$DIMTSZ
 40
0.0
  9
$DIMTOL
 70
     0
  9
$DIMLIM
 70
     0
  9
$DIMTIH
 70
     0
  9
$DIMTOH
 70
     0
  9
$DIMSE1
 70
     0
  9
$DIMSE2
 70
     0
  9
$DIMTAD
 70
     0
  9
$DIMZIN
 70
     8
  9
$DIMBLK
  1
ARROW
  9
$DIMASO
 70
     0
  9
$DIMSHO
 70
     0
  9
$DIMPOST
  1

  9
$DIMAPOST
  1

  9
$DIMALT
 70
     0
  9
$DIMALTD
 70
     2
  9
$DIMALTF
 40
25.4
  9
$DIMLFAC
 40
1.0
  9
$DIMTOFL
 70
     1
  9
$DIMTVP
 40
0.0
  9
$DIMTIX
 70
     0
  9
$DIMSOXD
 70
     0
  9
$DIMSAH
 70
     0
  9
$DIMBLK1
  1
ARROWANG
  9
$DIMBLK2
  1
ARROWANG
  9
$DIMSTYLE
  2
IMAO
  9
$DIMCLRD
 70
     0
  9
$DIMCLRE
 70
     0
  9
$DIMCLRT
 70
     0
  9
$DIMTFAC
 40
1.0
  9
$DIMGAP
 40
0.09
  9
$DIMJUST
 70
     0
  9
$DIMSD1
 70
     0
  9
$DIMSD2
 70
     0
  9
$DIMTOLJ
 70
     1
  9
$DIMTZIN
 70
     8
  9
$DIMALTZ
 70
     8
  9
$DIMALTTZ
 70
     8
  9
$DIMUPT
 70
     0
  9
$DIMDEC
 70
     2
  9
$DIMTDEC
 70
     2
  9
$DIMALTU
 70
     2
  9
$DIMALTTD
 70
     2
  9
$DIMTXSTY
  7
BIGFONT
  9
$DIMAUNIT
 70
     0
  9
$DIMADEC
 70
     0
  9
$DIMALTRND
 40
0.0
  9
$DIMAZIN
 70
     0
  9
$DIMDSEP
 70
    46
  9
$DIMATFIT
 70
     3
  9
$DIMFRAC
 70
     0
  9
$DIMLDRBLK
  1
ARROW
  9
$DIMLUNIT
 70
     2
  9
$DIMLWD
 70
    -2
  9
$DIMLWE
 70
    -2
  9
$DIMTMOVE
 70
     0
  9
$LUNITS
 70
     2
  9
$LUPREC
 70
     2
  9
$SKETCHINC
 40
0.1
  9
$FILLETRAD
 40
0.2
  9
$AUNITS
 70
     0
  9
$AUPREC
 70
     2
  9
$MENU
  1
stdr12j
  9
$ELEVATION
 40
0.0
  9
$PELEVATION
 40
0.0
  9
$THICKNESS
 40
0.0
  9
$LIMCHECK
 70
     0
  9
$CHAMFERA
 40
0.0
  9
$CHAMFERB
 40
0.0
  9
$CHAMFERC
 40
0.0
  9
$CHAMFERD
 40
0.0
  9
$SKPOLY
 70
     0
  9
$TDCREATE
 40
2450617.453041203
  9
$TDUCREATE
 40
2450617.078041203
  9
$TDUPDATE
 40
2454754.700804895
  9
$TDUUPDATE
 40
2454754.325804895
  9
$TDINDWG
 40
0.1327874769
  9
$TDUSRTIMER
 40
0.1327873611
  9
$USRTIMER
 70
     1
  9
$ANGBASE
 50
0.0
  9
$ANGDIR
 70
     0
  9
$PDMODE
 70
     0
  9
$PDSIZE
 40
0.0
  9
$PLINEWID
 40
0.0
  9
$SPLFRAME
 70
     0
  9
$SPLINETYPE
 70
     6
  9
$SPLINESEGS
 70
     8
  9
$HANDSEED
  5
EF7C8986E
  9
$SURFTAB1
 70
     6
  9
$SURFTAB2
 70
     6
  9
$SURFTYPE
 70
     6
  9
$SURFU
 70
     6
  9
$SURFV
 70
     6
  9
$UCSBASE
  2

  9
$UCSNAME
  2

  9
$UCSORG
 10
0.0
 20
0.0
 30
0.0
  9
$UCSXDIR
 10
1.0
 20
0.0
 30
0.0
  9
$UCSYDIR
 10
0.0
 20
1.0
 30
0.0
  9
$UCSORTHOREF
  2

  9
$UCSORTHOVIEW
 70
     0
  9
$UCSORGTOP
 10
0.0
 20
0.0
 30
0.0
  9
$UCSORGBOTTOM
 10
0.0
 20
0.0
 30
0.0
  9
$UCSORGLEFT
 10
0.0
 20
0.0
 30
0.0
  9
$UCSORGRIGHT
 10
0.0
 20
0.0
 30
0.0
  9
$UCSORGFRONT
 10
0.0
 20
0.0
 30
0.0
  9
$UCSORGBACK
 10
0.0
 20
0.0
 30
0.0
  9
$PUCSBASE
  2

  9
$PUCSNAME
  2

  9
$PUCSORG
 10
0.0
 20
0.0
 30
0.0
  9
$PUCSXDIR
 10
1.0
 20
0.0
 30
0.0
  9
$PUCSYDIR
 10
0.0
 20
1.0
 30
0.0
  9
$PUCSORTHOREF
  2

  9
$PUCSORTHOVIEW
 70
     0
  9
$PUCSORGTOP
 10
0.0
 20
0.0
 30
0.0
  9
$PUCSORGBOTTOM
 10
0.0
 20
0.0
 30
0.0
  9
$PUCSORGLEFT
 10
0.0
 20
0.0
 30
0.0
  9
$PUCSORGRIGHT
 10
0.0
 20
0.0
 30
0.0
  9
$PUCSORGFRONT
 10
0.0
 20
0.0
 30
0.0
  9
$PUCSORGBACK
 10
0.0
 20
0.0
 30
0.0
  9
$USERI1
 70
     0
  9
$USERI2
 70
     1
  9
$USERI3
 70
     1
  9
$USERI4
 70
     3
  9
$USERI5
 70
     0
  9
$USERR1
 40
1.0
  9
$USERR2
 40
3.0
  9
$USERR3
 40
3.0
  9
$USERR4
 40
1.5
  9
$USERR5
 40
8.0
  9
$WORLDVIEW
 70
     1
  9
$SHADEDGE
 70
     3
  9
$SHADEDIF
 70
    70
  9
$TILEMODE
 70
     1
  9
$MAXACTVP
 70
    16
  9
$PINSBASE
 10
0.0
 20
0.0
 30
0.0
  9
$PLIMCHECK
 70
     0
  9
$PEXTMIN
 10
1.000000000000000E+20
 20
1.000000000000000E+20
 30
1.000000000000000E+20
  9
$PEXTMAX
 10
-1.000000000000000E+20
 20
-1.000000000000000E+20
 30
-1.000000000000000E+20
  9
$PLIMMIN
 10
0.0
 20
0.0
  9
$PLIMMAX
 10
12.0
 20
9.0
  9
$UNITMODE
 70
     0
  9
$VISRETAIN
 70
     0
  9
$PLINEGEN
 70
     0
  9
$PSLTSCALE
 70
     0
  9
$TREEDEPTH
 70
  3020
  9
$CMLSTYLE
  2
STANDARD
  9
$CMLJUST
 70
     0
  9
$CMLSCALE
 40
1.0
  9
$PROXYGRAPHICS
 70
     1
  9
$MEASUREMENT
 70
     0
  9
$CELWEIGHT
370
    -1
  9
$ENDCAPS
280
     0
  9
$JOINSTYLE
280
     0
  9
$LWDISPLAY
290
     0
  9
$INSUNITS
 70
     0
  9
$HYPERLINKBASE
  1

  9
$STYLESHEET
  1
aclt.ctb
  9
$XEDIT
290
     1
  9
$CEPSNTYPE
380
     0
  9
$PSTYLEMODE
290
     1
  9
$FINGERPRINTGUID
  2
{09AA4C7A-3D6F-4857-A850-771461888CEC}
  9
$VERSIONGUID
  2
{EA83DE4A-74F8-4B32-A1AE-8A3D90506135}
  9
$EXTNAMES
290
     1
  9
$PSVPSCALE
 40
0.0
  9
$OLESTARTUP
290
     0
  0
ENDSEC
  0
SECTION
  2
CLASSES
  0
CLASS
  1
LWPOLYLINE
  2
AcDbPolyline
  3
AutoCAD 2000
 90
    32768
280
     0
281
     1
  0
CLASS
  1
HATCH
  2
AcDbHatch
  3
AutoCAD 2000
 90
    32768
280
     0
281
     1
  0
CLASS
  1
ACDBDICTIONARYWDFLT
  2
AcDbDictionaryWithDefault
  3
AutoCAD 2000
 90
        0
280
     0
281
     0
  0
CLASS
  1
ACDBPLACEHOLDER
  2
AcDbPlaceHolder
  3
AutoCAD 2000
 90
        0
280
     0
281
     0
  0
CLASS
  1
LAYOUT
  2
AcDbLayout
  3
AutoCAD 2000
 90
        0
280
     0
281
     0
  0
CLASS
  1
LONG_TRANSACTION
  2
AcDbLongTransaction
  3
AutoCAD 2000
 90
    32768
280
     0
281
     0
  0
CLASS
  1
LWPOLYLINE
  2
AcDbPolyline
  3
AutoCAD 2000
 90
    32768
280
     0
281
     1
  0
CLASS
  1
HATCH
  2
AcDbHatch
  3
AutoCAD 2000
 90
    32768
280
     0
281
     1
  0
CLASS
  1
XRECORD
  2
AcDbXrecord
  3
AutoCAD 2000
 90
    32768
280
     0
281
     0
  0
CLASS
  1
DICTIONARYVAR
  2
AcDbDictionaryVar
  3
AutoCAD 2000
 90
        0
280
     0
281
     0
  0
CLASS
  1
LONG_TRANSACTION
  2
AcDbLongTransaction
  3
AutoCAD 2000
 90
    32768
280
     0
281
     0
  0
CLASS
  1
LWPOLYLINE
  2
AcDbPolyline
  3
AutoCAD 2000
 90
    32768
280
     0
281
     1
  0
CLASS
  1
HATCH
  2
AcDbHatch
  3
AutoCAD 2000
 90
    32768
280
     0
281
     1
  0
CLASS
  1
XRECORD
  2
AcDbXrecord
  3
AutoCAD 2000
 90
    32768
280
     0
281
     0
  0
CLASS
  1
LONG_TRANSACTION
  2
AcDbLongTransaction
  3
AutoCAD 2000
 90
    32768
280
     0
281
     0
  0
CLASS
  1
LWPOLYLINE
  2
AcDbPolyline
  3
AutoCAD 2000
 90
    32768
280
     0
281
     1
  0
CLASS
  1
HATCH
  2
AcDbHatch
  3
AutoCAD 2000
 90
    32768
280
     0
281
     1
  0
CLASS
  1
XRECORD
  2
AcDbXrecord
  3
AutoCAD 2000
 90
    32768
280
     0
281
     0
  0
CLASS
  1
LONG_TRANSACTION
  2
AcDbLongTransaction
  3
AutoCAD 2000
 90
    32768
280
     0
281
     0
  0
CLASS
  1
LWPOLYLINE
  2
AcDbPolyline
  3
AutoCAD 2000
 90
    32768
280
     0
281
     1
  0
CLASS
  1
HATCH
  2
AcDbHatch
  3
AutoCAD 2000
 90
    32768
280
     0
281
     1
  0
CLASS
  1
XRECORD
  2
AcDbXrecord
  3
AutoCAD 2000
 90
    32768
280
     0
281
     0
  0
CLASS
  1
LONG_TRANSACTION
  2
AcDbLongTransaction
  3
AutoCAD 2000
 90
    32768
280
     0
281
     0
  0
CLASS
  1
LWPOLYLINE
  2
AcDbPolyline
  3
AutoCAD 2000
 90
    32768
280
     0
281
     1
  0
CLASS
  1
HATCH
  2
AcDbHatch
  3
AutoCAD 2000
 90
    32768
280
     0
281
     1
  0
CLASS
  1
XRECORD
  2
AcDbXrecord
  3
AutoCAD 2000
 90
    32768
280
     0
281
     0
  0
CLASS
  1
LONG_TRANSACTION
  2
AcDbLongTransaction
  3
AutoCAD 2000
 90
    32768
280
     0
281
     0
  0
CLASS
  1
LWPOLYLINE
  2
AcDbPolyline
  3
AutoCAD 2000
 90
    32768
280
     0
281
     1
  0
CLASS
  1
HATCH
  2
AcDbHatch
  3
AutoCAD 2000
 90
    32768
280
     0
281
     1
  0
CLASS
  1
XRECORD
  2
AcDbXrecord
  3
AutoCAD 2000
 90
    32768
280
     0
281
     0
  0
CLASS
  1
LONG_TRANSACTION
  2
AcDbLongTransaction
  3
AutoCAD 2000
 90
    32768
280
     0
281
     0
  0
CLASS
  1
LWPOLYLINE
  2
AcDbPolyline
  3
AutoCAD 2000
 90
    32768
280
     0
281
     1
  0
CLASS
  1
HATCH
  2
AcDbHatch
  3
AutoCAD 2000
 90
    32768
280
     0
281
     1
  0
CLASS
  1
XRECORD
  2
AcDbXrecord
  3
AutoCAD 2000
 90
    32768
280
     0
281
     0
  0
CLASS
  1
LONG_TRANSACTION
  2
AcDbLongTransaction
  3
AutoCAD 2000
 90
    32768
280
     0
281
     0
  0
CLASS
  1
LWPOLYLINE
  2
AcDbPolyline
  3
AutoCAD 2000
 90
    32768
280
     0
281
     1
  0
CLASS
  1
HATCH
  2
AcDbHatch
  3
AutoCAD 2000
 90
    32768
280
     0
281
     1
  0
CLASS
  1
XRECORD
  2
AcDbXrecord
  3
AutoCAD 2000
 90
    32768
280
     0
281
     0
  0
CLASS
  1
LONG_TRANSACTION
  2
AcDbLongTransaction
  3
AutoCAD 2000
 90
    32768
280
     0
281
     0
  0
CLASS
  1
LWPOLYLINE
  2
AcDbPolyline
  3
AutoCAD 2000
 90
    32768
280
     0
281
     1
  0
CLASS
  1
HATCH
  2
AcDbHatch
  3
AutoCAD 2000
 90
    32768
280
     0
281
     1
  0
CLASS
  1
XRECORD
  2
AcDbXrecord
  3
AutoCAD 2000
 90
    32768
280
     0
281
     0
  0
CLASS
  1
LONG_TRANSACTION
  2
AcDbLongTransaction
  3
AutoCAD 2000
 90
    32768
280
     0
281
     0
  0
CLASS
  1
LWPOLYLINE
  2
AcDbPolyline
  3
AutoCAD 2000
 90
    32768
280
     0
281
     1
  0
CLASS
  1
HATCH
  2
AcDbHatch
  3
AutoCAD 2000
 90
    32768
280
     0
281
     1
  0
CLASS
  1
XRECORD
  2
AcDbXrecord
  3
AutoCAD 2000
 90
    32768
280
     0
281
     0
  0
CLASS
  1
LONG_TRANSACTION
  2
AcDbLongTransaction
  3
AutoCAD 2000
 90
    32768
280
     0
281
     0
  0
CLASS
  1
LWPOLYLINE
  2
AcDbPolyline
  3
AutoCAD 2000
 90
    32768
280
     0
281
     1
  0
CLASS
  1
HATCH
  2
AcDbHatch
  3
AutoCAD 2000
 90
    32768
280
     0
281
     1
  0
CLASS
  1
XRECORD
  2
AcDbXrecord
  3
AutoCAD 2000
 90
    32768
280
     0
281
     0
  0
CLASS
  1
LONG_TRANSACTION
  2
AcDbLongTransaction
  3
AutoCAD 2000
 90
    32768
280
     0
281
     0
  0
CLASS
  1
LWPOLYLINE
  2
AcDbPolyline
  3
AutoCAD 2000
 90
    32768
280
     0
281
     1
  0
CLASS
  1
HATCH
  2
AcDbHatch
  3
AutoCAD 2000
 90
    32768
280
     0
281
     1
  0
CLASS
  1
XRECORD
  2
AcDbXrecord
  3
AutoCAD 2000
 90
    32768
280
     0
281
     0
  0
CLASS
  1
LONG_TRANSACTION
  2
AcDbLongTransaction
  3
AutoCAD 2000
 90
    32768
280
     0
281
     0
  0
CLASS
  1
LWPOLYLINE
  2
AcDbPolyline
  3
AutoCAD 2000
 90
    32768
280
     0
281
     1
  0
CLASS
  1
HATCH
  2
AcDbHatch
  3
AutoCAD 2000
 90
    32768
280
     0
281
     1
  0
CLASS
  1
XRECORD
  2
AcDbXrecord
  3
AutoCAD 2000
 90
    32768
280
     0
281
     0
  0
ENDSEC
  0
SECTION
  2
TABLES
  0
TABLE
  2
VPORT
  5
EF7C85523
330
0
100
AcDbSymbolTable
 70
    12
  0
VPORT
  5
EF7C85567
330
EF7C85523
100
AcDbSymbolTableRecord
100
AcDbViewportTableRecord
  2
2
 70
     0
 10
0.5
 20
0.0
 11
1.0
 21
1.0
 12
0.9240312421264802
 22
1.052650975462764
 13
0.0
 23
0.0
 14
1.0
 24
1.0
 15
10.0
 25
10.0
 16
0.0
 26
0.0
 36
1.0
 17
0.0
 27
0.0
 37
0.0
 40
2.105301950925533
 41
0.8778135048231511
 42
50.0
 43
0.0
 44
0.0
 50
0.0
 51
0.0
 71
     0
 72
   500
 73
     1
 74
     1
 75
     0
 76
     0
 77
     0
 78
     0
281
     0
 65
     1
110
0.0
120
0.0
130
0.0
111
1.0
121
0.0
131
0.0
112
0.0
122
1.0
132
0.0
 79
     0
146
0.0
  0
VPORT
  5
EF7C85568
330
EF7C85523
100
AcDbSymbolTableRecord
100
AcDbViewportTableRecord
  2
2
 70
     0
 10
0.0
 20
0.0
 11
0.5
 21
1.0
 12
0.9240312421264802
 22
1.052650975462764
 13
0.0
 23
0.0
 14
1.0
 24
1.0
 15
10.0
 25
10.0
 16
0.0
 26
0.0
 36
1.0
 17
0.0
 27
0.0
 37
0.0
 40
2.105301950925533
 41
0.8778135048231511
 42
50.0
 43
0.0
 44
0.0
 50
0.0
 51
0.0
 71
     0
 72
   500
 73
     1
 74
     1
 75
     0
 76
     0
 77
     0
 78
     0
281
     0
 65
     1
110
0.0
120
0.0
130
0.0
111
1.0
121
0.0
131
0.0
112
0.0
122
1.0
132
0.0
 79
     0
146
0.0
  0
VPORT
  5
EF7C85569
330
EF7C85523
100
AcDbSymbolTableRecord
100
AcDbViewportTableRecord
  2
3
 70
     0
 10
0.0
 20
0.5
 11
1.0
 21
1.0
 12
2.832169994473273
 22
1.052650975462764
 13
0.0
 23
0.0
 14
1.0
 24
1.0
 15
10.0
 25
10.0
 16
0.0
 26
0.0
 36
1.0
 17
0.0
 27
0.0
 37
0.0
 40
2.105301950925533
 41
3.571428571428571
 42
50.0
 43
0.0
 44
0.0
 50
0.0
 51
0.0
 71
     0
 72
   500
 73
     1
 74
     1
 75
     0
 76
     0
 77
     0
 78
     0
281
     0
 65
     1
110
0.0
120
0.0
130
0.0
111
1.0
121
0.0
131
0.0
112
0.0
122
1.0
132
0.0
 79
     0
146
0.0
  0
VPORT
  5
EF7C8556A
330
EF7C85523
100
AcDbSymbolTableRecord
100
AcDbViewportTableRecord
  2
3
 70
     0
 10
0.0
 20
0.0
 11
1.0
 21
0.5
 12
2.856741679241311
 22
1.052650975462764
 13
0.0
 23
0.0
 14
1.0
 24
1.0
 15
10.0
 25
10.0
 16
0.0
 26
0.0
 36
1.0
 17
0.0
 27
0.0
 37
0.0
 40
2.105301950925533
 41
3.594771241830064
 42
50.0
 43
0.0
 44
0.0
 50
0.0
 51
0.0
 71
     0
 72
   500
 73
     1
 74
     1
 75
     0
 76
     0
 77
     0
 78
     0
281
     0
 65
     1
110
0.0
120
0.0
130
0.0
111
1.0
121
0.0
131
0.0
112
0.0
122
1.0
132
0.0
 79
     0
146
0.0
  0
VPORT
  5
EF7C8556B
330
EF7C85523
100
AcDbSymbolTableRecord
100
AcDbViewportTableRecord
  2
4
 70
     0
 10
0.5
 20
0.0
 11
1.0
 21
0.5
 12
2.886857516709718
 22
1.052650975462764
 13
0.0
 23
0.0
 14
1.0
 24
1.0
 15
10.0
 25
10.0
 16
0.0
 26
0.0
 36
1.0
 17
0.0
 27
0.0
 37
0.0
 40
4.275207030309068
 41
1.784313725490195
 42
50.0
 43
0.0
 44
0.0
 50
0.0
 51
0.0
 71
     0
 72
   500
 73
     1
 74
     1
 75
     0
 76
     0
 77
     0
 78
     0
281
     0
 65
     1
110
0.0
120
0.0
130
0.0
111
1.0
121
0.0
131
0.0
112
0.0
122
1.0
132
0.0
 79
     0
146
0.0
  0
VPORT
  5
EF7C8556C
330
EF7C85523
100
AcDbSymbolTableRecord
100
AcDbViewportTableRecord
  2
4
 70
     0
 10
0.5
 20
0.5
 11
1.0
 21
1.0
 12
2.862090274555523
 22
1.052650975462764
 13
0.0
 23
0.0
 14
1.0
 24
1.0
 15
10.0
 25
10.0
 16
0.0
 26
0.0
 36
1.0
 17
0.0
 27
0.0
 37
0.0
 40
4.275207030309068
 41
1.77272727272727
 42
50.0
 43
0.0
 44
0.0
 50
0.0
 51
0.0
 71
     0
 72
   500
 73
     1
 74
     1
 75
     0
 76
     0
 77
     0
 78
     0
281
     0
 65
     1
110
0.0
120
0.0
130
0.0
111
1.0
121
0.0
131
0.0
112
0.0
122
1.0
132
0.0
 79
     0
146
0.0
  0
VPORT
  5
EF7C8556D
330
EF7C85523
100
AcDbSymbolTableRecord
100
AcDbViewportTableRecord
  2
4
 70
     0
 10
0.0
 20
0.5
 11
0.5
 21
1.0
 12
2.862090274555523
 22
1.052650975462764
 13
0.0
 23
0.0
 14
1.0
 24
1.0
 15
10.0
 25
10.0
 16
0.0
 26
0.0
 36
1.0
 17
0.0
 27
0.0
 37
0.0
 40
4.275207030309068
 41
1.77272727272727
 42
50.0
 43
0.0
 44
0.0
 50
0.0
 51
0.0
 71
     0
 72
   500
 73
     1
 74
     1
 75
     0
 76
     0
 77
     0
 78
     0
281
     0
 65
     1
110
0.0
120
0.0
130
0.0
111
1.0
121
0.0
131
0.0
112
0.0
122
1.0
132
0.0
 79
     0
146
0.0
  0
VPORT
  5
EF7C8556E
330
EF7C85523
100
AcDbSymbolTableRecord
100
AcDbViewportTableRecord
  2
4
 70
     0
 10
0.0
 20
0.0
 11
0.5
 21
0.5
 12
2.886857516709718
 22
1.052650975462764
 13
0.0
 23
0.0
 14
1.0
 24
1.0
 15
10.0
 25
10.0
 16
0.0
 26
0.0
 36
1.0
 17
0.0
 27
0.0
 37
0.0
 40
4.275207030309068
 41
1.784313725490195
 42
50.0
 43
0.0
 44
0.0
 50
0.0
 51
0.0
 71
     0
 72
   500
 73
     1
 74
     1
 75
     0
 76
     0
 77
     0
 78
     0
281
     0
 65
     1
110
0.0
120
0.0
130
0.0
111
1.0
121
0.0
131
0.0
112
0.0
122
1.0
132
0.0
 79
     0
146
0.0
  0
VPORT
  5
EF7C8986D
330
EF7C85523
100
AcDbSymbolTableRecord
100
AcDbViewportTableRecord
  2
*Active
 70
     0
 10
0.0
 20
0.0
 11
1.0
 21
1.0
 12
181.000002647568
 22
141.5000026357835
 13
0.0
 23
0.0
 14
1.0
 24
1.0
 15
10.0
 25
10.0
 16
0.0
 26
0.0
 36
1.0
 17
0.0
 27
0.0
 37
0.0
 40
285.0993577165493
 41
1.537897310513447
 42
50.0
 43
0.0
 44
0.0
 50
0.0
 51
0.0
 71
     0
 72
   500
 73
     1
 74
     0
 75
     0
 76
     0
 77
     0
 78
     0
281
     0
 65
     1
110
0.0
120
0.0
130
0.0
111
1.0
121
0.0
131
0.0
112
0.0
122
1.0
132
0.0
 79
     0
146
0.0
  0
ENDTAB
  0
TABLE
  2
LTYPE
  5
EF7C85520
330
0
100
AcDbSymbolTable
 70
     4
  0
LTYPE
  5
EF7C8552C
330
EF7C85520
100
AcDbSymbolTableRecord
100
AcDbLinetypeTableRecord
  2
BYBLOCK
 70
     0
  3

 72
    65
 73
     0
 40
0.0
  0
LTYPE
  5
EF7C8552D
330
EF7C85520
100
AcDbSymbolTableRecord
100
AcDbLinetypeTableRecord
  2
BYLAYER
 70
     0
  3

 72
    65
 73
     0
 40
0.0
  0
LTYPE
  5
EF7C8552E
330
EF7C85520
100
AcDbSymbolTableRecord
100
AcDbLinetypeTableRecord
  2
CONTINUOUS
 70
     0
  3
実線
 72
    65
 73
     0
 40
0.0
  0
LTYPE
  5
EF7C85565
330
EF7C85520
100
AcDbSymbolTableRecord
100
AcDbLinetypeTableRecord
  2
PHANTOM
 70
     0
  3
_____ _ _ _____ _ _ _____ _ _ _____ _ _ ____
 72
    65
 73
     6
 40
2.5
 49
1.25
 74
     0
 49
-0.25
 74
     0
 49
0.25
 74
     0
 49
-0.25
 74
     0
 49
0.25
 74
     0
 49
-0.25
 74
     0
  0
LTYPE
  5
EF7C85566
330
EF7C85520
100
AcDbSymbolTableRecord
100
AcDbLinetypeTableRecord
  2
HIDDEN
 70
     0
  3
_ _ _ _ _ _ _ _ _ _ _ _ _ _ _ _ _ _ _ _ _ _ _
 72
    65
 73
     2
 40
0.375
 49
0.25
 74
     0
 49
-0.125
 74
     0
  0
LTYPE
  5
EF7C88546
330
EF7C85520
100
AcDbSymbolTableRecord
100
AcDbLinetypeTableRecord
  2
CENTER
 70
     0
  3
____ _ ____ _ ____ _ ____ _ ____ _ ____ _ ____
 72
    65
 73
     4
 40
2.0
 49
1.25
 74
     0
 49
-0.25
 74
     0
 49
0.25
 74
     0
 49
-0.25
 74
     0
  0
ENDTAB
  0
TABLE
  2
LAYER
  5
EF7C8551D
102
{ACAD_XDICTIONARY
360
EF7C8725C
102
}
330
0
100
AcDbSymbolTable
 70
    14
  0
LAYER
  5
EF7C85529
330
EF7C8551D
100
AcDbSymbolTableRecord
100
AcDbLayerTableRecord
  2
0
 70
     0
 62
     6
  6
CONTINUOUS
370
    -3
390
EF7C85BB6
  0
LAYER
  5
EF7C85574
330
EF7C8551D
100
AcDbSymbolTableRecord
100
AcDbLayerTableRecord
  2
NITEN
 70
     0
 62
     2
  6
PHANTOM
370
    -3
390
EF7C85BB6
  0
LAYER
  5
EF7C85575
330
EF7C8551D
100
AcDbSymbolTableRecord
100
AcDbLayerTableRecord
  2
HATCH
 70
     0
 62
     4
  6
CONTINUOUS
370
    -3
390
EF7C85BB6
  0
LAYER
  5
EF7C85576
330
EF7C8551D
100
AcDbSymbolTableRecord
100
AcDbLayerTableRecord
  2
SUNPOU
 70
     0
 62
     3
  6
CONTINUOUS
370
    -3
390
EF7C85BB6
  0
LAYER
  5
EF7C85577
330
EF7C8551D
100
AcDbSymbolTableRecord
100
AcDbLayerTableRecord
  2
TEXT
 70
     0
 62
     3
  6
CONTINUOUS
370
    -3
390
EF7C85BB6
  0
LAYER
  5
EF7C85578
330
EF7C8551D
100
AcDbSymbolTableRecord
100
AcDbLayerTableRecord
  2
SAISEN
 70
     0
 62
     4
  6
CONTINUOUS
370
    -3
390
EF7C85BB6
  0
LAYER
  5
EF7C85579
330
EF7C8551D
100
AcDbSymbolTableRecord
100
AcDbLayerTableRecord
  2
JISSEN
 70
     0
 62
     7
  6
CONTINUOUS
370
    -3
390
EF7C85BB6
  0
LAYER
  5
EF7C8557B
330
EF7C8551D
100
AcDbSymbolTableRecord
100
AcDbLayerTableRecord
  2
TENSEN
 70
     0
 62
     2
  6
HIDDEN
370
    -3
390
EF7C85BB6
  0
LAYER
  5
EF7C8557D
330
EF7C8551D
100
AcDbSymbolTableRecord
100
AcDbLayerTableRecord
  2
WAKU
 70
     0
 62
     5
  6
CONTINUOUS
370
    -3
390
EF7C85BB6
  0
LAYER
  5
EF7C8855C
330
EF7C8551D
100
AcDbSymbolTableRecord
100
AcDbLayerTableRecord
  2
ITTEN
 70
     0
 62
     1
  6
CENTER
370
    -3
390
EF7C85BB6
  0
LAYER
  5
EF7C8855E
330
EF7C8551D
100
AcDbSymbolTableRecord
100
AcDbLayerTableRecord
  2
HOJYO
 70
     0
 62
     7
  6
CONTINUOUS
370
    -3
390
EF7C85BB6
  0
LAYER
  5
EF7C8855F
330
EF7C8551D
100
AcDbSymbolTableRecord
100
AcDbLayerTableRecord
  2
SCALE
 70
     0
 62
     4
  6
CONTINUOUS
370
    -3
390
EF7C85BB6
  0
LAYER
  5
EF7C88560
330
EF7C8551D
100
AcDbSymbolTableRecord
100
AcDbLayerTableRecord
  2
BORDER
 70
     0
 62
     5
  6
CONTINUOUS
370
    -3
390
EF7C85BB6
  0
LAYER
  5
EF7C88563
330
EF7C8551D
100
AcDbSymbolTableRecord
100
AcDbLayerTableRecord
  2
DEFPOINTS
 70
     0
 62
    -7
  6
CONTINUOUS
290
     0
370
    -3
390
EF7C85BB6
  0
ENDTAB
  0
TABLE
  2
STYLE
  5
EF7C8551E
330
0
100
AcDbSymbolTable
 70
     4
  0
STYLE
  5
EF7C8552A
330
EF7C8551E
100
AcDbSymbolTableRecord
100
AcDbTextStyleTableRecord
  2
STANDARD
 70
     0
 40
0.0
 41
1.0
 50
0.0
 71
     0
 42
1.5
  3
SIMPLEX
  4

  0
STYLE
  5
EF7C85558
330
EF7C8551E
100
AcDbSymbolTableRecord
100
AcDbTextStyleTableRecord
  2
K
 70
     0
 40
0.0
 41
1.0
 50
0.0
 71
     0
 42
3.0
  3
ROMANS
  4
BIGFONT
  0
STYLE
  5
EF7C8555B
330
EF7C8551E
100
AcDbSymbolTableRecord
100
AcDbTextStyleTableRecord
  2
BIGFONT
 70
     0
 40
0.0
 41
1.0
 50
0.0
 71
     0
 42
3.0
  3
txt.shx
  4
bigfont
  0
STYLE
  5
EF7C88570
330
EF7C8551E
100
AcDbSymbolTableRecord
100
AcDbTextStyleTableRecord
  2
DIMENSION
 70
     0
 40
0.0
 41
1.0
 50
0.0
 71
     0
 42
2.5
  3
TXT
  4

  0
ENDTAB
  0
TABLE
  2
VIEW
  5
EF7C85521
330
0
100
AcDbSymbolTable
 70
     0
  0
ENDTAB
  0
TABLE
  2
UCS
  5
EF7C85522
330
0
100
AcDbSymbolTable
 70
     0
  0
ENDTAB
  0
TABLE
  2
APPID
  5
EF7C85524
330
0
100
AcDbSymbolTable
 70
     8
  0
APPID
  5
EF7C8552B
330
EF7C85524
100
AcDbSymbolTableRecord
100
AcDbRegAppTableRecord
  2
ACAD
 70
     0
  0
APPID
  5
EF7C8857F
330
EF7C85524
100
AcDbSymbolTableRecord
100
AcDbRegAppTableRecord
  2
CONTENTBLOCKICON
 70
     0
  0
APPID
  5
EF7C88580
330
EF7C85524
100
AcDbSymbolTableRecord
100
AcDbRegAppTableRecord
  2
X_OBJNAME
 70
     0
  0
APPID
  5
EF7C88581
330
EF7C85524
100
AcDbSymbolTableRecord
100
AcDbRegAppTableRecord
  2
X_PARAM_BALLOON
 70
     0
  0
APPID
  5
EF7C88582
330
EF7C85524
100
AcDbSymbolTableRecord
100
AcDbRegAppTableRecord
  2
X_PARAM_TXTPATERN
 70
     0
  0
APPID
  5
EF7C88583
330
EF7C85524
100
AcDbSymbolTableRecord
100
AcDbRegAppTableRecord
  2
X_PARAM_CTXTPATERN
 70
     0
  0
APPID
  5
EF7C88584
330
EF7C85524
100
AcDbSymbolTableRecord
100
AcDbRegAppTableRecord
  2
X_PARAM_SYSVAL
 70
     0
  0
APPID
  5
EF7C88585
330
EF7C85524
100
AcDbSymbolTableRecord
100
AcDbRegAppTableRecord
  2
X_DEFINELIST
 70
     0
  0
ENDTAB
  0
TABLE
  2
DIMSTYLE
  5
EF7C85525
330
0
100
AcDbSymbolTable
 70
     2
100
AcDbDimStyleTable
 71
     0
  0
DIMSTYLE
105
EF7C85571
330
EF7C85525
100
AcDbSymbolTableRecord
100
AcDbDimStyleTableRecord
  2
IMAO
 70
     0
 41
1.5
 42
1.0
 43
6.0
 44
1.0
 47
495.0
 73
     0
 74
     0
 77
     1
 78
     8
140
3.0
141
0.0
172
     1
174
     1
271
     2
272
     2
284
     8
285
     8
286
     8
340
EF7C8555B
341
EF7C85543
342
EF7C85543
343
EF7C85543
344
EF7C85543
  0
DIMSTYLE
105
EF7C8857A
330
EF7C85525
100
AcDbSymbolTableRecord
100
AcDbDimStyleTableRecord
  2
STANDARD
 70
     0
 40
0.5
 41
2.0
 42
0.1
 43
10.0
 44
1.5
 73
     0
 74
     0
 78
     8
140
3.0
145
1.0
147
0.1
172
     1
176
   256
177
   256
178
   256
271
     2
272
     2
284
     8
340
EF7C88570
341
EF7C8782B
342
EF7C8782B
  0
ENDTAB
  0
TABLE
  2
BLOCK_RECORD
  5
EF7C8551C
330
0
100
AcDbSymbolTable
 70
    27
  0
BLOCK_RECORD
  5
EF7C85532
102
{ACAD_XDICTIONARY
360
EF7C85D9A
102
}
330
EF7C8551C
100
AcDbSymbolTableRecord
100
AcDbBlockTableRecord
  2
*MODEL_SPACE
340
EF7C87682
  0
BLOCK_RECORD
  5
EF7C8552F
102
{ACAD_XDICTIONARY
360
EF7C85D98
102
}
330
EF7C8551C
100
AcDbSymbolTableRecord
100
AcDbBlockTableRecord
  2
*PAPER_SPACE
340
EF7C87683
  0
BLOCK_RECORD
  5
EF7C85537
330
EF7C8551C
100
AcDbSymbolTableRecord
100
AcDbBlockTableRecord
  2
ARROW
340
0
102
{BLKREFS
331
EF7C85D6E
331
EF7C85D73
331
EF7C894A1
331
EF7C894DE
331
EF7C89713
331
EF7C89750
102
}
  0
BLOCK_RECORD
  5
EF7C8553B
330
EF7C8551C
100
AcDbSymbolTableRecord
100
AcDbBlockTableRecord
  2
WAKU
340
0
102
{BLKREFS
331
EAFFB3CF7
331
EF7C86918
331
EF7C8938B
331
EF7C89394
331
EF7C895FD
331
EF7C89606
102
}
  0
BLOCK_RECORD
  5
EF7C85543
330
EF7C8551C
100
AcDbSymbolTableRecord
100
AcDbBlockTableRecord
  2
ARROWANG
340
0
  0
BLOCK_RECORD
  5
EF7C8782B
330
EF7C8551C
100
AcDbSymbolTableRecord
100
AcDbBlockTableRecord
  2
AR_OPEN
340
0
  0
BLOCK_RECORD
  5
EF7C878C5
330
EF7C8551C
100
AcDbSymbolTableRecord
100
AcDbBlockTableRecord
  2
A$C0B8A3D21
340
0
102
{BLKREFS
331
EF7C88824
331
EF7C893A8
331
EF7C8961A
102
}
  0
BLOCK_RECORD
  5
EF7C89362
330
EF7C8551C
100
AcDbSymbolTableRecord
100
AcDbBlockTableRecord
  2
*X24
340
0
102
{BLKREFS
331
EF7C89473
331
EF7C8947B
331
EF7C896E5
331
EF7C896ED
102
}
  0
BLOCK_RECORD
  5
EF7C89376
330
EF7C8551C
100
AcDbSymbolTableRecord
100
AcDbBlockTableRecord
  2
*X25
340
0
102
{BLKREFS
331
EF7C895F5
331
EF7C895B6
331
EF7C89828
331
EF7C89867
102
}
  0
ENDTAB
  0
ENDSEC
  0
SECTION
  2
BLOCKS
  0
BLOCK
  5
EF7C85580
330
EF7C85532
100
AcDbEntity
  8
0
100
AcDbBlockBegin
  2
*MODEL_SPACE
 70
     0
 10
0.0
 20
0.0
 30
0.0
  3
*MODEL_SPACE
  1

  0
ENDBLK
  5
EF7C85581
330
EF7C85532
100
AcDbEntity
  8
0
100
AcDbBlockEnd
  0
BLOCK
  5
EF7C8557E
330
EF7C8552F
100
AcDbEntity
 67
     1
  8
0
100
AcDbBlockBegin
  2
*PAPER_SPACE
 70
     0
 10
0.0
 20
0.0
 30
0.0
  3
*PAPER_SPACE
  1

  0
ENDBLK
  5
EF7C8557F
330
EF7C8552F
100
AcDbEntity
 67
     1
  8
0
100
AcDbBlockEnd
  0
BLOCK
  5
499
330
EF7C85537
100
AcDbEntity
  8
0
100
AcDbBlockBegin
  2
ARROW
 70
     0
 10
1.0
 20
0.5
 30
0.0
  3
ARROW
  1

  0
LINE
  5
49A
330
EF7C85537
100
AcDbEntity
  8
0
100
AcDbLine
 10
1.0
 20
0.5
 30
0.0
 11
-0.5000000000000214
 21
0.0980762113533018
 31
0.0
  0
LINE
  5
49B
330
EF7C85537
100
AcDbEntity
  8
0
100
AcDbLine
 10
0.0
 20
0.5
 30
0.0
 11
1.0
 21
0.5
 31
0.0
  0
LINE
  5
49C
330
EF7C85537
100
AcDbEntity
  8
0
100
AcDbLine
 10
1.0
 20
0.5
 30
0.0
 11
-0.4999999999999575
 21
0.9019237886467408
 31
0.0
  0
ENDBLK
  5
49D
330
EF7C85537
100
AcDbEntity
  8
0
100
AcDbBlockEnd
  0
BLOCK
  5
4A7
330
EF7C8553B
100
AcDbEntity
  8
0
100
AcDbBlockBegin
  2
WAKU
 70
     0
 10
0.0
 20
0.0
 30
0.0
  3
WAKU
  1

  0
LINE
  5
4A8
330
EF7C8553B
100
AcDbEntity
  8
WAKU
100
AcDbLine
 10
0.9999999959999998
 20
0.0
 30
0.0
 11
0.9999999959999998
 21
0.9999999999999998
 31
0.0
  0
LINE
  5
4A9
330
EF7C8553B
100
AcDbEntity
  8
WAKU
100
AcDbLine
 10
0.0
 20
0.9999999999999998
 30
0.0
 11
0.9999999959999998
 21
0.9999999999999998
 31
0.0
  0
LINE
  5
4AA
330
EF7C8553B
100
AcDbEntity
  8
WAKU
100
AcDbLine
 10
0.9999999959999998
 20
0.0
 30
0.0
 11
0.0
 21
0.0
 31
0.0
  0
LINE
  5
4AB
330
EF7C8553B
100
AcDbEntity
  8
WAKU
100
AcDbLine
 10
0.0
 20
0.0
 30
0.0
 11
0.0
 21
0.9999999999999998
 31
0.0
  0
ENDBLK
  5
4AC
330
EF7C8553B
100
AcDbEntity
  8
0
100
AcDbBlockEnd
  0
BLOCK
  5
4CC9
330
EF7C85543
100
AcDbEntity
  8
0
100
AcDbBlockBegin
  2
ARROWANG
 70
     0
 10
0.0
 20
0.0
 30
0.0
  3
ARROWANG
  1

  0
LINE
  5
4CCA
330
EF7C85543
100
AcDbEntity
  8
SUNPOU
100
AcDbLine
 10
0.0
 20
0.0
 30
0.0
 11
-1.499999999999956
 21
0.401923788646741
 31
0.0
  0
LINE
  5
4CCB
330
EF7C85543
100
AcDbEntity
  8
SUNPOU
100
AcDbLine
 10
0.0
 20
0.0
 30
0.0
 11
-1.500000000000026
 21
-0.4019237886467124
 31
0.0
  0
ENDBLK
  5
4CCC
330
EF7C85543
100
AcDbEntity
  8
0
100
AcDbBlockEnd
  0
BLOCK
  5
EF7C8782F
330
EF7C8782B
100
AcDbEntity
  8
0
100
AcDbBlockBegin
  2
AR_OPEN
 70
     0
 10
0.0
 20
0.0
 30
0.0
  3
AR_OPEN
  1

  0
LINE
  5
EF7C8782C
330
EF7C8782B
100
AcDbEntity
  8
0
 62
     0
100
AcDbLine
 10
-1.0
 20
0.0
 30
0.0
 11
0.0
 21
0.0
 31
0.0
  0
LINE
  5
EF7C8782D
330
EF7C8782B
100
AcDbEntity
  8
0
 62
     0
100
AcDbLine
 10
0.0
 20
0.0
 30
0.0
 11
-1.0
 21
0.2679491924311037
 31
0.0
  0
LINE
  5
EF7C8782E
330
EF7C8782B
100
AcDbEntity
  8
0
 62
     0
100
AcDbLine
 10
0.0
 20
0.0
 30
0.0
 11
-1.0
 21
-0.2679491924311037
 31
0.0
  0
ENDBLK
  5
EF7C87830
330
EF7C8782B
100
AcDbEntity
  8
0
100
AcDbBlockEnd
  0
BLOCK
  5
EF7C8791D
330
EF7C878C5
100
AcDbEntity
  8
0
100
AcDbBlockBegin
  2
A$C0B8A3D21
 70
     0
 10
0.0
 20
0.0
 30
0.0
  3
A$C0B8A3D21
  1

  0
LINE
  5
EF7C878C6
330
EF7C878C5
100
AcDbEntity
  8
JISSEN
100
AcDbLine
 10
1.054677247597737
 20
12.64999991621027
 30
0.0
 11
2.442635277409522
 21
12.64999991621027
 31
0.0
  0
LINE
  5
EF7C878C7
330
EF7C878C5
100
AcDbEntity
  8
JISSEN
100
AcDbLine
 10
1.054677247597737
 20
15.64999991621027
 30
0.0
 11
2.44263527740938
 21
15.64999991621027
 31
0.0
  0
CIRCLE
  5
EF7C878C8
330
EF7C878C5
100
AcDbEntity
  8
JISSEN
100
AcDbCircle
 10
14.14999986368246
 20
14.14999991621096
 30
0.0
 40
13.79999999999995
  0
CIRCLE
  5
EF7C878C9
330
EF7C878C5
100
AcDbEntity
  8
JISSEN
100
AcDbCircle
 10
14.14999986368246
 20
14.14999991621096
 30
0.0
 40
11.5
  0
CIRCLE
  5
EF7C878CA
330
EF7C878C5
100
AcDbEntity
  8
JISSEN
100
AcDbCircle
 10
14.14999986368246
 20
14.14999991621096
 30
0.0
 40
14.14999999999997
  0
ARC
  5
EF7C878CB
330
EF7C878C5
100
AcDbEntity
  8
JISSEN
100
AcDbCircle
 10
14.14999986368246
 20
14.14999991621096
 30
0.0
 40
11.57932025016384
100
AcDbArc
 50
173.6637641406729
 51
186.3362358593335
  0
ARC
  5
EF7C878CC
330
EF7C878C5
100
AcDbEntity
  8
JISSEN
100
AcDbCircle
 10
2.44263527740938
 20
15.44999991621028
 30
0.0
 40
0.2
100
AcDbArc
 50
353.6637641406729
 51
90.0
  0
ARC
  5
EF7C878CD
330
EF7C878C5
100
AcDbEntity
  8
JISSEN
100
AcDbCircle
 10
2.442635277409522
 20
12.84999991621026
 30
0.0
 40
0.2
100
AcDbArc
 50
270.0
 51
6.336235859335181
  0
ELLIPSE
  5
EF7C878CE
330
EF7C878C5
100
AcDbEntity
  8
JISSEN
100
AcDbEllipse
 10
1.054677247597737
 20
14.14999991621096
 30
0.0
 11
0.0
 21
1.499999999999321
 31
0.0
210
0.0
220
0.0
230
1.0
 40
0.4512428905324702
 41
0.0
 42
3.141592653589793
  0
ELLIPSE
  5
EF7C878CF
330
EF7C878C5
100
AcDbEntity
  8
JISSEN
100
AcDbEllipse
 10
1.328427104592947
 20
14.14999991618844
 30
0.0
 11
0.0
 21
1.499999999999321
 31
0.0
210
0.0
220
0.0
230
1.0
 40
0.4512428905324702
 41
0.0
 42
3.141592653589793
  0
ELLIPSE
  5
EF7C878D0
330
EF7C878C5
100
AcDbEntity
  8
JISSEN
100
AcDbEllipse
 10
3.046192137851647
 20
7.739213536646701
 30
0.0
 11
-0.7499999999996607
 21
1.29903810567607
 31
0.0
210
0.0
220
0.0
230
1.0
 40
0.4512428905324702
 41
0.0
 42
3.141592653589793
  0
ARC
  5
EF7C878D1
330
EF7C878C5
100
AcDbEntity
  8
JISSEN
100
AcDbCircle
 10
3.36112472060401
 20
9.422150647993589
 30
0.0
 40
0.2
100
AcDbArc
 50
23.6637641406726
 51
119.999999999999
  0
LINE
  5
EF7C878D2
330
EF7C878C5
100
AcDbEntity
  8
JISSEN
100
AcDbLine
 10
2.059117807400525
 20
8.901376713844655
 30
0.0
 11
3.261124720604016
 21
9.59535572875049
 31
0.0
  0
ELLIPSE
  5
EF7C878D3
330
EF7C878C5
100
AcDbEntity
  8
JISSEN
100
AcDbEllipse
 10
2.809117807400184
 20
7.602338608168594
 30
0.0
 11
-0.7499999999996607
 21
1.29903810567607
 31
0.0
210
0.0
220
0.0
230
1.0
 40
0.4512428905324702
 41
0.0
 42
3.141592653589793
  0
ARC
  5
EF7C878D4
330
EF7C878C5
100
AcDbEntity
  8
JISSEN
100
AcDbCircle
 10
14.14999986368246
 20
14.14999991621096
 30
0.0
 40
11.57932025016384
100
AcDbArc
 50
203.6637641406726
 51
216.3362358593335
  0
ARC
  5
EF7C878D5
330
EF7C878C5
100
AcDbEntity
  8
JISSEN
100
AcDbCircle
 10
4.661124720604163
 20
7.170484598154132
 30
0.0
 40
0.2
100
AcDbArc
 50
299.999999999999
 51
36.33623585933587
  0
LINE
  5
EF7C878D6
330
EF7C878C5
100
AcDbEntity
  8
JISSEN
100
AcDbLine
 10
3.559117807400525
 20
6.303300502491339
 30
0.0
 11
4.761124720604129
 21
6.997279517397259
 31
0.0
  0
ELLIPSE
  5
EF7C878D7
330
EF7C878C5
100
AcDbEntity
  8
JISSEN
100
AcDbEllipse
 10
7.739213484157176
 20
3.046192190357658
 30
0.0
 11
-1.29903810567607
 21
0.7499999999996608
 31
0.0
210
0.0
220
0.0
230
1.0
 40
0.4512428905324702
 41
0.0
 42
3.141592653589793
  0
ARC
  5
EF7C878D8
330
EF7C878C5
100
AcDbEntity
  8
JISSEN
100
AcDbCircle
 10
7.17048454562672
 20
4.661124773131831
 30
0.0
 40
0.2
100
AcDbArc
 50
53.66376414067228
 51
149.9999999999998
  0
LINE
  5
EF7C878D9
330
EF7C878C5
100
AcDbEntity
  8
JISSEN
100
AcDbLine
 10
6.303300449964012
 20
3.559117859928363
 30
0.0
 11
6.997279464869848
 21
4.761124773131825
 31
0.0
  0
ELLIPSE
  5
EF7C878DA
330
EF7C878C5
100
AcDbEntity
  8
JISSEN
100
AcDbEllipse
 10
7.602338555640073
 20
2.809117859928704
 30
0.0
 11
-1.29903810567607
 21
0.7499999999996608
 31
0.0
210
0.0
220
0.0
230
1.0
 40
0.4512428905324702
 41
0.0
 42
3.141592653589793
  0
ARC
  5
EF7C878DB
330
EF7C878C5
100
AcDbEntity
  8
JISSEN
100
AcDbCircle
 10
14.14999986368246
 20
14.14999991621096
 30
0.0
 40
11.57932025016384
100
AcDbArc
 50
233.6637641406722
 51
246.3362358593335
  0
ARC
  5
EF7C878DC
330
EF7C878C5
100
AcDbEntity
  8
JISSEN
100
AcDbCircle
 10
9.422150595466348
 20
3.361124773131962
 30
0.0
 40
0.2
100
AcDbArc
 50
329.9999999999998
 51
66.33623585933434
  0
LINE
  5
EF7C878DD
330
EF7C878C5
100
AcDbEntity
  8
JISSEN
100
AcDbLine
 10
8.901376661317328
 20
2.059117859928363
 30
0.0
 11
9.595355676223221
 21
3.261124773131967
 31
0.0
  0
ELLIPSE
  5
EF7C878DE
330
EF7C878C5
100
AcDbEntity
  8
JISSEN
100
AcDbEllipse
 10
14.149999863705
 20
1.328427157121438
 30
0.0
 11
-1.499999999999321
 21
0.0000000000000001
 31
0.0
210
0.0
220
0.0
230
1.0
 40
0.4512428905324702
 41
0.0
 42
3.141592653589793
  0
ARC
  5
EF7C878DF
330
EF7C878C5
100
AcDbEntity
  8
JISSEN
100
AcDbCircle
 10
12.84999986368313
 20
2.442635329937843
 30
0.0
 40
0.2
100
AcDbArc
 50
83.66376414067294
 51
180.0
  0
LINE
  5
EF7C878E0
330
EF7C878C5
100
AcDbEntity
  8
JISSEN
100
AcDbLine
 10
12.64999986368315
 20
1.054677300126229
 30
0.0
 11
12.64999986368315
 21
2.442635329937871
 31
0.0
  0
ELLIPSE
  5
EF7C878E1
330
EF7C878C5
100
AcDbEntity
  8
JISSEN
100
AcDbEllipse
 10
14.14999986368246
 20
1.054677300126229
 30
0.0
 11
-1.499999999999321
 21
0.0000000000000001
 31
0.0
210
0.0
220
0.0
230
1.0
 40
0.4512428905324702
 41
0.0
 42
3.141592653589793
  0
ARC
  5
EF7C878E2
330
EF7C878C5
100
AcDbEntity
  8
JISSEN
100
AcDbCircle
 10
14.14999986368246
 20
14.14999991621096
 30
0.0
 40
11.57932025016384
100
AcDbArc
 50
263.6637641406738
 51
276.3362358593327
  0
ARC
  5
EF7C878E3
330
EF7C878C5
100
AcDbEntity
  8
JISSEN
100
AcDbCircle
 10
15.44999986368316
 20
2.442635329938013
 30
0.0
 40
0.2
100
AcDbArc
 50
0.0
 51
96.33623585933523
  0
LINE
  5
EF7C878E4
330
EF7C878C5
100
AcDbEntity
  8
JISSEN
100
AcDbLine
 10
15.64999986368317
 20
1.054677300126229
 30
0.0
 11
15.64999986368315
 21
2.442635329938013
 31
0.0
  0
ELLIPSE
  5
EF7C878E5
330
EF7C878C5
100
AcDbEntity
  8
JISSEN
100
AcDbEllipse
 10
20.56078624324669
 20
3.046192190380139
 30
0.0
 11
-1.29903810567607
 21
-0.7499999999996604
 31
0.0
210
0.0
220
0.0
230
1.0
 40
0.4512428905324702
 41
0.0
 42
3.141592653589793
  0
ARC
  5
EF7C878E6
330
EF7C878C5
100
AcDbEntity
  8
JISSEN
100
AcDbCircle
 10
18.8778491318998
 20
3.361124773132559
 30
0.0
 40
0.2
100
AcDbArc
 50
113.6637641406735
 51
210.0000000000001
  0
LINE
  5
EF7C878E7
330
EF7C878C5
100
AcDbEntity
  8
JISSEN
100
AcDbLine
 10
19.39862306604874
 20
2.059117859929017
 30
0.0
 11
18.7046440511429
 21
3.261124773132507
 31
0.0
  0
ELLIPSE
  5
EF7C878E8
330
EF7C878C5
100
AcDbEntity
  8
JISSEN
100
AcDbEllipse
 10
20.6976611717248
 20
2.809117859928676
 30
0.0
 11
-1.29903810567607
 21
-0.7499999999996604
 31
0.0
210
0.0
220
0.0
230
1.0
 40
0.4512428905324702
 41
0.0
 42
3.141592653589793
  0
ARC
  5
EF7C878E9
330
EF7C878C5
100
AcDbEntity
  8
JISSEN
100
AcDbCircle
 10
14.14999986368246
 20
14.14999991621101
 30
0.0
 40
11.57932025016384
100
AcDbArc
 50
293.6637641406734
 51
306.3362358593336
  0
ARC
  5
EF7C878EA
330
EF7C878C5
100
AcDbEntity
  8
JISSEN
100
AcDbCircle
 10
21.12951518173929
 20
4.661124773132712
 30
0.0
 40
0.2
100
AcDbArc
 50
30.00000000000014
 51
126.3362358593358
  0
LINE
  5
EF7C878EB
330
EF7C878C5
100
AcDbEntity
  8
JISSEN
100
AcDbLine
 10
21.99669927740206
 20
3.559117859929017
 30
0.0
 11
21.30272026249616
 21
4.761124773132621
 31
0.0
  0
ELLIPSE
  5
EF7C878EC
330
EF7C878C5
100
AcDbEntity
  8
JISSEN
100
AcDbEllipse
 10
25.25380758953579
 20
7.739213536685696
 30
0.0
 11
-0.7499999999996612
 21
-1.29903810567607
 31
0.0
210
0.0
220
0.0
230
1.0
 40
0.4512428905324702
 41
0.0
 42
3.141592653589793
  0
ARC
  5
EF7C878ED
330
EF7C878C5
100
AcDbEntity
  8
JISSEN
100
AcDbCircle
 10
23.63887500676162
 20
7.170484598155212
 30
0.0
 40
0.2
100
AcDbArc
 50
143.6637641406722
 51
240.0000000000009
  0
LINE
  5
EF7C878EE
330
EF7C878C5
100
AcDbEntity
  8
JISSEN
100
AcDbLine
 10
24.74088191996509
 20
6.303300502492504
 30
0.0
 11
23.53887500676159
 21
6.997279517398339
 31
0.0
  0
ELLIPSE
  5
EF7C878EF
330
EF7C878C5
100
AcDbEntity
  8
JISSEN
100
AcDbEllipse
 10
25.49088191996474
 20
7.602338608168565
 30
0.0
 11
-0.7499999999996612
 21
-1.29903810567607
 31
0.0
210
0.0
220
0.0
230
1.0
 40
0.4512428905324702
 41
0.0
 42
3.141592653589793
  0
ARC
  5
EF7C878F0
330
EF7C878C5
100
AcDbEntity
  8
JISSEN
100
AcDbCircle
 10
14.14999986368249
 20
14.14999991621096
 30
0.0
 40
11.57932025016384
100
AcDbArc
 50
323.6637641406722
 51
336.3362358593325
  0
ARC
  5
EF7C878F1
330
EF7C878C5
100
AcDbEntity
  8
JISSEN
100
AcDbCircle
 10
24.93887500676152
 20
9.42215064799484
 30
0.0
 40
0.2
100
AcDbArc
 50
60.00000000000097
 51
156.3362358593343
  0
LINE
  5
EF7C878F2
330
EF7C878C5
100
AcDbEntity
  8
JISSEN
100
AcDbLine
 10
26.24088191996509
 20
8.90137671384582
 30
0.0
 11
25.03887500676148
 21
9.595355728751712
 31
0.0
  0
ELLIPSE
  5
EF7C878F3
330
EF7C878C5
100
AcDbEntity
  8
JISSEN
100
AcDbEllipse
 10
26.97157262277196
 20
14.14999991623346
 30
0.0
 11
-0.0000000000000008
 21
-1.499999999999321
 31
0.0
210
0.0
220
0.0
230
1.0
 40
0.4512428905324702
 41
0.0
 42
3.141592653589793
  0
ARC
  5
EF7C878F4
330
EF7C878C5
100
AcDbEntity
  8
JISSEN
100
AcDbCircle
 10
25.85736444995549
 20
12.84999991621162
 30
0.0
 40
0.2
100
AcDbArc
 50
173.6637641406729
 51
270.0
  0
LINE
  5
EF7C878F5
330
EF7C878C5
100
AcDbEntity
  8
JISSEN
100
AcDbLine
 10
27.24532247976716
 20
12.64999991621164
 30
0.0
 11
25.85736444995552
 21
12.64999991621164
 31
0.0
  0
ELLIPSE
  5
EF7C878F6
330
EF7C878C5
100
AcDbEntity
  8
JISSEN
100
AcDbEllipse
 10
27.24532247976716
 20
14.14999991621096
 30
0.0
 11
-0.0000000000000008
 21
-1.499999999999321
 31
0.0
210
0.0
220
0.0
230
1.0
 40
0.4512428905324702
 41
0.0
 42
3.141592653589793
  0
ARC
  5
EF7C878F7
330
EF7C878C5
100
AcDbEntity
  8
JISSEN
100
AcDbCircle
 10
14.14999986368243
 20
14.14999991621096
 30
0.0
 40
11.57932025016384
100
AcDbArc
 50
353.6637641406729
 51
6.336235859333563
  0
ARC
  5
EF7C878F8
330
EF7C878C5
100
AcDbEntity
  8
JISSEN
100
AcDbCircle
 10
25.85736444995538
 20
15.44999991621165
 30
0.0
 40
0.2
100
AcDbArc
 50
90.0
 51
186.3362358593351
  0
LINE
  5
EF7C878F9
330
EF7C878C5
100
AcDbEntity
  8
JISSEN
100
AcDbLine
 10
27.2453224797672
 20
15.64999991621164
 30
0.0
 11
25.85736444995541
 21
15.64999991621164
 31
0.0
  0
ELLIPSE
  5
EF7C878FA
330
EF7C878C5
100
AcDbEntity
  8
JISSEN
100
AcDbEllipse
 10
25.25380758951325
 20
20.56078629577518
 30
0.0
 11
0.74999999999966
 21
-1.29903810567607
 31
0.0
210
0.0
220
0.0
230
0.9999999999999998
 40
0.4512428905324702
 41
0.0
 42
3.141592653589793
  0
ARC
  5
EF7C878FB
330
EF7C878C5
100
AcDbEntity
  8
JISSEN
100
AcDbCircle
 10
24.93887500676098
 20
18.87784918442832
 30
0.0
 40
0.2
100
AcDbArc
 50
203.6637641406726
 51
299.999999999999
  0
LINE
  5
EF7C878FC
330
EF7C878C5
100
AcDbEntity
  8
JISSEN
100
AcDbLine
 10
26.24088191996438
 20
19.39862311857723
 30
0.0
 11
25.03887500676095
 21
18.70464410367139
 31
0.0
  0
ELLIPSE
  5
EF7C878FD
330
EF7C878C5
100
AcDbEntity
  8
JISSEN
100
AcDbEllipse
 10
25.49088191996472
 20
20.69766122425329
 30
0.0
 11
0.74999999999966
 21
-1.29903810567607
 31
0.0
210
0.0
220
0.0
230
0.9999999999999998
 40
0.4512428905324702
 41
0.0
 42
3.141592653589793
  0
ARC
  5
EF7C878FE
330
EF7C878C5
100
AcDbEntity
  8
JISSEN
100
AcDbCircle
 10
14.14999986368252
 20
14.14999991621096
 30
0.0
 40
11.57932025016384
100
AcDbArc
 50
23.6637641406726
 51
36.3362358593336
  0
ARC
  5
EF7C878FF
330
EF7C878C5
100
AcDbEntity
  8
JISSEN
100
AcDbCircle
 10
23.63887500676085
 20
21.12951523426778
 30
0.0
 40
0.2
100
AcDbArc
 50
119.999999999999
 51
216.3362358593358
  0
LINE
  5
EF7C87900
330
EF7C878C5
100
AcDbEntity
  8
JISSEN
100
AcDbLine
 10
24.74088191996438
 20
21.99669932993054
 30
0.0
 11
23.5388750067608
 21
21.30272031502465
 31
0.0
  0
ELLIPSE
  5
EF7C87901
330
EF7C878C5
100
AcDbEntity
  8
JISSEN
100
AcDbEllipse
 10
20.5607862432077
 20
25.25380764206428
 30
0.0
 11
1.299038105676069
 21
-0.7499999999996615
 31
0.0
210
0.0
220
0.0
230
1.0
 40
0.4512428905324702
 41
0.0
 42
3.141592653589793
  0
ARC
  5
EF7C87902
330
EF7C878C5
100
AcDbEntity
  8
JISSEN
100
AcDbCircle
 10
21.12951518173815
 20
23.63887505929005
 30
0.0
 40
0.2
100
AcDbArc
 50
233.6637641406722
 51
329.9999999999998
  0
LINE
  5
EF7C87903
330
EF7C878C5
100
AcDbEntity
  8
JISSEN
100
AcDbLine
 10
21.99669927740086
 20
24.74088197249358
 30
0.0
 11
21.30272026249505
 21
23.53887505929006
 31
0.0
  0
ELLIPSE
  5
EF7C87904
330
EF7C878C5
100
AcDbEntity
  8
JISSEN
100
AcDbEllipse
 10
20.6976611717248
 20
25.49088197249324
 30
0.0
 11
1.299038105676069
 21
-0.7499999999996615
 31
0.0
210
0.0
220
0.0
230
1.0
 40
0.4512428905324702
 41
0.0
 42
3.141592653589793
  0
ARC
  5
EF7C87905
330
EF7C878C5
100
AcDbEntity
  8
JISSEN
100
AcDbCircle
 10
14.14999986368241
 20
14.14999991621096
 30
0.0
 40
11.57932025016384
100
AcDbArc
 50
53.66376414067228
 51
66.3362358593336
  0
ARC
  5
EF7C87906
330
EF7C878C5
100
AcDbEntity
  8
JISSEN
100
AcDbCircle
 10
18.8778491318985
 20
24.93887505928995
 30
0.0
 40
0.2
100
AcDbArc
 50
149.9999999999998
 51
246.3362358593343
  0
LINE
  5
EF7C87907
330
EF7C878C5
100
AcDbEntity
  8
JISSEN
100
AcDbLine
 10
19.39862306604754
 20
26.24088197249358
 30
0.0
 11
18.70464405114165
 21
25.03887505928998
 31
0.0
  0
ELLIPSE
  5
EF7C87908
330
EF7C878C5
100
AcDbEntity
  8
JISSEN
100
AcDbEllipse
 10
14.14999986365993
 20
26.97157267530048
 30
0.0
 11
1.499999999999321
 21
-0.0000000000000003
 31
0.0
210
0.0
220
0.0
230
1.0
 40
0.4512428905324702
 41
0.0
 42
3.141592653589793
  0
ARC
  5
EF7C87909
330
EF7C878C5
100
AcDbEntity
  8
JISSEN
100
AcDbCircle
 10
15.44999986368179
 20
25.85736450248404
 30
0.0
 40
0.2
100
AcDbArc
 50
263.6637641406729
 51
0.0
  0
LINE
  5
EF7C8790A
330
EF7C878C5
100
AcDbEntity
  8
JISSEN
100
AcDbLine
 10
15.64999986368178
 20
27.24532253229568
 30
0.0
 11
15.64999986368178
 21
25.85736450248404
 31
0.0
  0
ELLIPSE
  5
EF7C8790B
330
EF7C878C5
100
AcDbEntity
  8
JISSEN
100
AcDbEllipse
 10
14.14999986368246
 20
27.24532253229568
 30
0.0
 11
1.499999999999321
 21
-0.0000000000000003
 31
0.0
210
0.0
220
0.0
230
1.0
 40
0.4512428905324702
 41
0.0
 42
3.141592653589793
  0
ARC
  5
EF7C8790C
330
EF7C878C5
100
AcDbEntity
  8
JISSEN
100
AcDbCircle
 10
14.14999986368246
 20
14.14999991621096
 30
0.0
 40
11.57932025016384
100
AcDbArc
 50
83.66376414067381
 51
96.33623585933356
  0
ARC
  5
EF7C8790D
330
EF7C878C5
100
AcDbEntity
  8
JISSEN
100
AcDbCircle
 10
12.84999986368177
 20
25.8573645024839
 30
0.0
 40
0.2
100
AcDbArc
 50
180.0
 51
276.3362358593352
  0
LINE
  5
EF7C8790E
330
EF7C878C5
100
AcDbEntity
  8
JISSEN
100
AcDbLine
 10
12.64999986368175
 20
27.24532253229568
 30
0.0
 11
12.64999986368178
 21
25.8573645024839
 31
0.0
  0
ELLIPSE
  5
EF7C8790F
330
EF7C878C5
100
AcDbEntity
  8
JISSEN
100
AcDbEllipse
 10
7.739213484118181
 20
25.25380764204175
 30
0.0
 11
1.29903810567607
 21
0.7499999999996608
 31
0.0
210
0.0
220
0.0
230
1.0
 40
0.4512428905324702
 41
0.0
 42
3.141592653589793
  0
ARC
  5
EF7C87910
330
EF7C878C5
100
AcDbEntity
  8
JISSEN
100
AcDbCircle
 10
9.422150595465097
 20
24.93887505928938
 30
0.0
 40
0.2
100
AcDbArc
 50
293.6637641406734
 51
30.00000000000014
  0
LINE
  5
EF7C87911
330
EF7C878C5
100
AcDbEntity
  8
JISSEN
100
AcDbLine
 10
8.901376661316135
 20
26.24088197249287
 30
0.0
 11
9.59535567622197
 21
25.03887505928941
 31
0.0
  0
ELLIPSE
  5
EF7C87912
330
EF7C878C5
100
AcDbEntity
  8
JISSEN
100
AcDbEllipse
 10
7.602338555640073
 20
25.49088197249321
 30
0.0
 11
1.29903810567607
 21
0.7499999999996608
 31
0.0
210
0.0
220
0.0
230
1.0
 40
0.4512428905324702
 41
0.0
 42
3.141592653589793
  0
ARC
  5
EF7C87913
330
EF7C878C5
100
AcDbEntity
  8
JISSEN
100
AcDbCircle
 10
14.14999986368246
 20
14.14999991621096
 30
0.0
 40
11.57932025016384
100
AcDbArc
 50
113.6637641406735
 51
126.3362358593335
  0
ARC
  5
EF7C87914
330
EF7C878C5
100
AcDbEntity
  8
JISSEN
100
AcDbCircle
 10
7.17048454562564
 20
23.63887505928926
 30
0.0
 40
0.2
100
AcDbArc
 50
210.0000000000001
 51
306.3362358593359
  0
LINE
  5
EF7C87915
330
EF7C878C5
100
AcDbEntity
  8
JISSEN
100
AcDbLine
 10
6.303300449962819
 20
24.74088197249287
 30
0.0
 11
6.997279464868711
 21
23.53887505928927
 31
0.0
  0
ELLIPSE
  5
EF7C87916
330
EF7C878C5
100
AcDbEntity
  8
JISSEN
100
AcDbEllipse
 10
3.046192137829109
 20
20.56078629573619
 30
0.0
 11
0.7499999999996603
 21
1.29903810567607
 31
0.0
210
0.0
220
0.0
230
1.0
 40
0.4512428905324702
 41
0.0
 42
3.141592653589793
  0
ARC
  5
EF7C87917
330
EF7C878C5
100
AcDbEntity
  8
JISSEN
100
AcDbCircle
 10
4.661124720603311
 20
21.1295152342667
 30
0.0
 40
0.2
100
AcDbArc
 50
323.6637641406722
 51
60.00000000000097
  0
LINE
  5
EF7C87918
330
EF7C878C5
100
AcDbEntity
  8
JISSEN
100
AcDbLine
 10
3.559117807399843
 20
21.99669932992938
 30
0.0
 11
4.761124720603334
 21
21.30272031502357
 31
0.0
  0
ELLIPSE
  5
EF7C87919
330
EF7C878C5
100
AcDbEntity
  8
JISSEN
100
AcDbEllipse
 10
2.809117807400184
 20
20.69766122425332
 30
0.0
 11
0.7499999999996603
 21
1.29903810567607
 31
0.0
210
0.0
220
0.0
230
1.0
 40
0.4512428905324702
 41
0.0
 42
3.141592653589793
  0
ARC
  5
EF7C8791A
330
EF7C878C5
100
AcDbEntity
  8
JISSEN
100
AcDbCircle
 10
14.14999986368246
 20
14.14999991621096
 30
0.0
 40
11.57932025016384
100
AcDbArc
 50
143.6637641406745
 51
156.3362358593325
  0
ARC
  5
EF7C8791B
330
EF7C878C5
100
AcDbEntity
  8
JISSEN
100
AcDbCircle
 10
3.361124720603442
 20
18.87784918442707
 30
0.0
 40
0.2
100
AcDbArc
 50
240.0000000000009
 51
336.3362358593342
  0
LINE
  5
EF7C8791C
330
EF7C878C5
100
AcDbEntity
  8
JISSEN
100
AcDbLine
 10
2.059117807399843
 20
19.39862311857604
 30
0.0
 11
3.261124720603447
 21
18.70464410367017
 31
0.0
  0
ENDBLK
  5
EF7C8791E
330
EF7C878C5
100
AcDbEntity
  8
0
100
AcDbBlockEnd
  0
BLOCK
  5
EF7C89374
330
EF7C89362
100
AcDbEntity
  8
0
100
AcDbBlockBegin
  2
*X24
 70
     1
 10
0.0
 20
0.0
 30
0.0
  3
*X24
  1

  0
LINE
  5
EF7C89363
330
EF7C89362
100
AcDbEntity
  8
0
 62
     0
100
AcDbLine
 10
42.91207191918546
 20
139.0785941605559
 30
0.0
 11
47.91207191918545
 21
144.0785941605559
 31
0.0
  0
LINE
  5
EF7C89364
330
EF7C89362
100
AcDbEntity
  8
0
 62
     0
100
AcDbLine
 10
40.08364479443928
 20
139.0785941605559
 30
0.0
 11
45.08364479443929
 21
144.0785941605559
 31
0.0
  0
LINE
  5
EF7C89365
330
EF7C89362
100
AcDbEntity
  8
0
 62
     0
100
AcDbLine
 10
37.25521766969309
 20
139.0785941605559
 30
0.0
 11
42.25521766969309
 21
144.0785941605559
 31
0.0
  0
LINE
  5
EF7C89366
330
EF7C89362
100
AcDbEntity
  8
0
 62
     0
100
AcDbLine
 10
34.42679054494689
 20
139.0785941605559
 30
0.0
 11
39.42679054494689
 21
144.0785941605559
 31
0.0
  0
LINE
  5
EF7C89367
330
EF7C89362
100
AcDbEntity
  8
0
 62
     0
100
AcDbLine
 10
31.59836342020071
 20
139.0785941605559
 30
0.0
 11
36.59836342020072
 21
144.0785941605559
 31
0.0
  0
LINE
  5
EF7C89368
330
EF7C89362
100
AcDbEntity
  8
0
 62
     0
100
AcDbLine
 10
28.76993629545451
 20
139.0785941605559
 30
0.0
 11
33.76993629545452
 21
144.0785941605559
 31
0.0
  0
LINE
  5
EF7C89369
330
EF7C89362
100
AcDbEntity
  8
0
 62
     0
100
AcDbLine
 10
25.94150917070832
 20
139.0785941605559
 30
0.0
 11
30.94150917070832
 21
144.0785941605559
 31
0.0
  0
LINE
  5
EF7C8936A
330
EF7C89362
100
AcDbEntity
  8
0
 62
     0
100
AcDbLine
 10
24.20506654826371
 20
140.1705786628574
 30
0.0
 11
28.11308204596214
 21
144.0785941605559
 31
0.0
  0
LINE
  5
EF7C8936B
330
EF7C89362
100
AcDbEntity
  8
0
 62
     0
100
AcDbLine
 10
22.72841915269601
 20
141.522358392036
 30
0.0
 11
25.28465492121595
 21
144.0785941605559
 31
0.0
  0
LINE
  5
EF7C8936C
330
EF7C89362
100
AcDbEntity
  8
0
 62
     0
100
AcDbLine
 10
21.47523861350567
 20
143.0976049775918
 30
0.0
 11
22.45622779646976
 21
144.0785941605559
 31
0.0
  0
LINE
  5
EF7C8936D
330
EF7C89362
100
AcDbEntity
  8
0
 62
     0
100
AcDbLine
 10
45.74049904393166
 20
139.0785941605559
 30
0.0
 11
50.74049904393167
 21
144.0785941605559
 31
0.0
  0
LINE
  5
EF7C8936E
330
EF7C89362
100
AcDbEntity
  8
0
 62
     0
100
AcDbLine
 10
48.56892616867785
 20
139.0785941605559
 30
0.0
 11
53.56892616867786
 21
144.0785941605559
 31
0.0
  0
LINE
  5
EF7C8936F
330
EF7C89362
100
AcDbEntity
  8
0
 62
     0
100
AcDbLine
 10
51.39735329342403
 20
139.0785941605559
 30
0.0
 11
56.39735329342404
 21
144.0785941605559
 31
0.0
  0
LINE
  5
EF7C89370
330
EF7C89362
100
AcDbEntity
  8
0
 62
     0
100
AcDbLine
 10
54.22578041817022
 20
139.0785941605559
 30
0.0
 11
59.22578041817022
 21
144.0785941605559
 31
0.0
  0
LINE
  5
EF7C89371
330
EF7C89362
100
AcDbEntity
  8
0
 62
     0
100
AcDbLine
 10
57.0542075429164
 20
139.0785941605559
 30
0.0
 11
62.05420754291642
 21
144.0785941605559
 31
0.0
  0
LINE
  5
EF7C89372
330
EF7C89362
100
AcDbEntity
  8
0
 62
     0
100
AcDbLine
 10
59.8826346676626
 20
139.0785941605559
 30
0.0
 11
64.88263466766261
 21
144.0785941605559
 31
0.0
  0
LINE
  5
EF7C89373
330
EF7C89362
100
AcDbEntity
  8
0
 62
     0
100
AcDbLine
 10
62.71106179240879
 20
139.0785941605559
 30
0.0
 11
65.0
 21
141.3675323681469
 31
0.0
  0
ENDBLK
  5
EF7C89375
330
EF7C89362
100
AcDbEntity
  8
0
100
AcDbBlockEnd
  0
BLOCK
  5
EF7C89388
330
EF7C89376
100
AcDbEntity
  8
0
100
AcDbBlockBegin
  2
*X25
 70
     1
 10
0.0
 20
0.0
 30
0.0
  3
*X25
  1

  0
LINE
  5
EF7C89377
330
EF7C89376
100
AcDbEntity
  8
0
 62
     0
100
AcDbLine
 10
42.91207191918546
 20
139.0785941605559
 30
0.0
 11
47.91207191918545
 21
144.0785941605559
 31
0.0
  0
LINE
  5
EF7C89378
330
EF7C89376
100
AcDbEntity
  8
0
 62
     0
100
AcDbLine
 10
40.08364479443928
 20
139.0785941605559
 30
0.0
 11
45.08364479443929
 21
144.0785941605559
 31
0.0
  0
LINE
  5
EF7C89379
330
EF7C89376
100
AcDbEntity
  8
0
 62
     0
100
AcDbLine
 10
37.25521766969309
 20
139.0785941605559
 30
0.0
 11
42.25521766969309
 21
144.0785941605559
 31
0.0
  0
LINE
  5
EF7C8937A
330
EF7C89376
100
AcDbEntity
  8
0
 62
     0
100
AcDbLine
 10
34.42679054494689
 20
139.0785941605559
 30
0.0
 11
39.42679054494689
 21
144.0785941605559
 31
0.0
  0
LINE
  5
EF7C8937B
330
EF7C89376
100
AcDbEntity
  8
0
 62
     0
100
AcDbLine
 10
31.59836342020071
 20
139.0785941605559
 30
0.0
 11
36.59836342020072
 21
144.0785941605559
 31
0.0
  0
LINE
  5
EF7C8937C
330
EF7C89376
100
AcDbEntity
  8
0
 62
     0
100
AcDbLine
 10
28.76993629545451
 20
139.0785941605559
 30
0.0
 11
33.76993629545452
 21
144.0785941605559
 31
0.0
  0
LINE
  5
EF7C8937D
330
EF7C89376
100
AcDbEntity
  8
0
 62
     0
100
AcDbLine
 10
25.94150917070832
 20
139.0785941605559
 30
0.0
 11
30.94150917070832
 21
144.0785941605559
 31
0.0
  0
LINE
  5
EF7C8937E
330
EF7C89376
100
AcDbEntity
  8
0
 62
     0
100
AcDbLine
 10
24.20506654826371
 20
140.1705786628574
 30
0.0
 11
28.11308204596214
 21
144.0785941605559
 31
0.0
  0
LINE
  5
EF7C8937F
330
EF7C89376
100
AcDbEntity
  8
0
 62
     0
100
AcDbLine
 10
22.72841915269601
 20
141.522358392036
 30
0.0
 11
25.28465492121595
 21
144.0785941605559
 31
0.0
  0
LINE
  5
EF7C89380
330
EF7C89376
100
AcDbEntity
  8
0
 62
     0
100
AcDbLine
 10
21.47523861350567
 20
143.0976049775918
 30
0.0
 11
22.45622779646976
 21
144.0785941605559
 31
0.0
  0
LINE
  5
EF7C89381
330
EF7C89376
100
AcDbEntity
  8
0
 62
     0
100
AcDbLine
 10
45.74049904393166
 20
139.0785941605559
 30
0.0
 11
50.74049904393167
 21
144.0785941605559
 31
0.0
  0
LINE
  5
EF7C89382
330
EF7C89376
100
AcDbEntity
  8
0
 62
     0
100
AcDbLine
 10
48.56892616867785
 20
139.0785941605559
 30
0.0
 11
53.56892616867786
 21
144.0785941605559
 31
0.0
  0
LINE
  5
EF7C89383
330
EF7C89376
100
AcDbEntity
  8
0
 62
     0
100
AcDbLine
 10
51.39735329342403
 20
139.0785941605559
 30
0.0
 11
56.39735329342404
 21
144.0785941605559
 31
0.0
  0
LINE
  5
EF7C89384
330
EF7C89376
100
AcDbEntity
  8
0
 62
     0
100
AcDbLine
 10
54.22578041817022
 20
139.0785941605559
 30
0.0
 11
59.22578041817022
 21
144.0785941605559
 31
0.0
  0
LINE
  5
EF7C89385
330
EF7C89376
100
AcDbEntity
  8
0
 62
     0
100
AcDbLine
 10
57.0542075429164
 20
139.0785941605559
 30
0.0
 11
62.05420754291642
 21
144.0785941605559
 31
0.0
  0
LINE
  5
EF7C89386
330
EF7C89376
100
AcDbEntity
  8
0
 62
     0
100
AcDbLine
 10
59.8826346676626
 20
139.0785941605559
 30
0.0
 11
64.88263466766261
 21
144.0785941605559
 31
0.0
  0
LINE
  5
EF7C89387
330
EF7C89376
100
AcDbEntity
  8
0
 62
     0
100
AcDbLine
 10
62.71106179240879
 20
139.0785941605559
 30
0.0
 11
65.0
 21
141.3675323681469
 31
0.0
  0
ENDBLK
  5
EF7C89389
330
EF7C89376
100
AcDbEntity
  8
0
100
AcDbBlockEnd
  0
ENDSEC
  0
SECTION
  2
ENTITIES
  0
INSERT
  5
EF7C895FD
330
EF7C85532
100
AcDbEntity
  8
WAKU
100
AcDbBlockReference
  2
WAKU
 10
180.9999996686665
 20
-0.0000002423719252
 30
0.0
 41
181.0
 42
283.0
 43
181.0
  0
LINE
  5
EF7C895FE
330
EF7C85532
100
AcDbEntity
  8
JISSEN
 48
3.0
100
AcDbLine
 10
91.49991695465052
 20
154.8819514845776
 30
0.0
 11
91.49991695464871
 21
135.0785939181232
 31
0.0
  0
LINE
  5
EF7C895FF
330
EF7C85532
100
AcDbEntity
  8
JISSEN
 48
3.0
100
AcDbLine
 10
88.4999169546494
 20
154.8819514845776
 30
0.0
 11
88.49991695465133
 21
135.0785939181232
 31
0.0
  0
LINE
  5
EF7C89600
330
EF7C85532
100
AcDbEntity
  8
JISSEN
100
AcDbLine
 10
68.84991695464981
 20
143.0785939181873
 30
0.0
 11
68.84991695464981
 21
133.578593918125
 31
0.0
  0
LINE
  5
EF7C89601
330
EF7C85532
100
AcDbEntity
  8
JISSEN
100
AcDbLine
 10
72.849916954648
 20
154.8819514845772
 30
0.0
 11
72.84991695464708
 21
135.0785939181227
 31
0.0
  0
LINE
  5
EF7C89602
330
EF7C85532
100
AcDbEntity
  8
JISSEN
100
AcDbLine
 10
111.1499169546501
 20
143.0785939181873
 30
0.0
 11
111.1499169546501
 21
133.578593918125
 31
0.0
  0
LINE
  5
EF7C89603
330
EF7C85532
100
AcDbEntity
  8
JISSEN
100
AcDbLine
 10
107.1499169546519
 20
154.8819514845772
 30
0.0
 11
107.1499169546529
 21
135.0785939181227
 31
0.0
  0
LINE
  5
EF7C89604
330
EF7C85532
100
AcDbEntity
  8
SUNPOU
100
AcDbLine
 10
112.6641406286292
 20
149.6462294808944
 30
0.0
 11
125.0629166070896
 21
124.5043506840335
 31
0.0
  0
LINE
  5
EF7C89605
330
EF7C85532
100
AcDbEntity
  8
SUNPOU
100
AcDbLine
 10
86.00000039266602
 20
144.020627639053
 30
0.0
 11
76.34013274041335
 21
124.1516895358934
 31
0.0
  0
INSERT
  5
EF7C89606
330
EF7C85532
100
AcDbEntity
  8
WAKU
100
AcDbBlockReference
  2
WAKU
 10
0.0000003926666068
 20
-0.0000002423719252
 30
0.0
 41
181.0
 42
283.0
 43
181.0
  0
LINE
  5
EF7C89607
330
EF7C85532
100
AcDbEntity
  8
JISSEN
 48
3.0
100
AcDbLine
 10
71.76087566548779
 20
84.8899286185229
 30
0.0
 11
56.82191781434505
 21
87.59089574923706
 31
0.0
  0
ARC
  5
EF7C89608
330
EF7C85532
100
AcDbEntity
  8
JISSEN
100
AcDbCircle
 10
53.84983351663379
 20
73.07859391818744
 30
0.0
 40
15.0
100
AcDbArc
 50
0.0
 51
70.61166638270329
  0
LINE
  5
EF7C89609
330
EF7C85532
100
AcDbEntity
  8
JISSEN
100
AcDbLine
 10
71.50000039266712
 20
89.07859391818396
 30
0.0
 11
24.72409443697108
 21
89.07859391818396
 31
0.0
  0
CIRCLE
  5
EF7C8960A
330
EF7C85532
100
AcDbEntity
  8
SUNPOU
100
AcDbCircle
 10
73.71667861002531
 20
118.7556272284556
 30
0.0
 40
6.0
  0
LINE
  5
EF7C8960B
330
EF7C85532
100
AcDbEntity
  8
SUNPOU
100
AcDbLine
 10
45.14116580332664
 20
89.07859391818396
 30
0.0
 11
45.14116580332664
 21
89.07859391818396
 31
0.0
  0
ARC
  5
EF7C8960C
330
EF7C85532
100
AcDbEntity
  8
JISSEN
100
AcDbCircle
 10
56.99983351663343
 20
88.57494148134453
 30
0.0
 40
1.0
100
AcDbArc
 50
180.0
 51
259.7516211656066
  0
LINE
  5
EF7C8960D
330
EF7C85532
100
AcDbEntity
  8
JISSEN
100
AcDbLine
 10
55.99983351663343
 20
88.57494148134453
 30
0.0
 11
55.99983351663343
 21
89.07859391818698
 31
0.0
  0
TEXT
  5
EF7C8960E
330
EF7C85532
100
AcDbEntity
  8
SUNPOU
100
AcDbText
 10
123.2743335177161
 20
2.849423656313319
 30
0.0
 40
3.0
  1
尺度　1/1
  7
K
100
AcDbText
  0
TEXT
  5
EF7C8960F
330
EF7C85532
100
AcDbEntity
  8
SUNPOU
100
AcDbText
 10
123.2743335177161
 20
7.849423656313319
 30
0.0
 40
3.0
  1
VQR　ガードZN　　取付状態
  7
K
100
AcDbText
  0
ARC
  5
EF7C89610
330
EF7C85532
100
AcDbEntity
  8
JISSEN
100
AcDbCircle
 10
88.00000039266645
 20
8.542226234793538
 30
0.0
 40
0.5
100
AcDbArc
 50
83.14235158464763
 51
180.0
  0
ARC
  5
EF7C89611
330
EF7C85532
100
AcDbEntity
  8
JISSEN
100
AcDbCircle
 10
92.00000039266646
 20
8.542226234793311
 30
0.0
 40
0.5
100
AcDbArc
 50
0.0
 51
96.8576484153491
  0
ARC
  5
EF7C89612
330
EF7C85532
100
AcDbEntity
  8
JISSEN
100
AcDbCircle
 10
90.00000039266662
 20
25.17239460435571
 30
0.0
 40
17.0
100
AcDbArc
 50
218.4565193352673
 51
261.5434806647306
  0
ARC
  5
EF7C89613
330
EF7C85532
100
AcDbEntity
  8
JISSEN
100
AcDbCircle
 10
90.00000039266662
 20
25.17239460435571
 30
0.0
 40
17.5
100
AcDbArc
 50
218.2132107017354
 51
261.7867892982603
  0
ARC
  5
EF7C89614
330
EF7C85532
100
AcDbEntity
  8
JISSEN
100
AcDbCircle
 10
90.00000039266662
 20
25.17239460435571
 30
0.0
 40
17.0
100
AcDbArc
 50
278.4565193352693
 51
321.5434806647287
  0
ARC
  5
EF7C89615
330
EF7C85532
100
AcDbEntity
  8
JISSEN
100
AcDbCircle
 10
90.00000039266662
 20
25.17239460435571
 30
0.0
 40
17.5
100
AcDbArc
 50
278.2132107017362
 51
321.7867892982612
  0
LINE
  5
EF7C89616
330
EF7C85532
100
AcDbEntity
  8
JISSEN
100
AcDbLine
 10
87.50000039266645
 20
7.851886528667314
 30
0.0
 11
87.5000003926665
 21
8.542226234793538
 31
0.0
  0
LINE
  5
EF7C89617
330
EF7C85532
100
AcDbEntity
  8
JISSEN
100
AcDbLine
 10
92.50000039266645
 20
8.542226234793311
 30
0.0
 11
92.50000039266645
 21
7.851886528667201
 31
0.0
  0
ARC
  5
EF7C89618
330
EF7C85532
100
AcDbEntity
  8
JISSEN
100
AcDbCircle
 10
97.00000039266662
 20
37.29675025733775
 30
0.0
 40
2.25
100
AcDbArc
 50
356.8557628338727
 51
123.1442371661298
  0
ARC
  5
EF7C89619
330
EF7C85532
100
AcDbEntity
  8
JISSEN
100
AcDbCircle
 10
97.00000039266662
 20
13.04803895137349
 30
0.0
 40
2.25
100
AcDbArc
 50
236.8557628338701
 51
3.144237166130611
  0
INSERT
  5
EF7C8961A
330
EF7C85532
100
AcDbEntity
  8
JISSEN
100
AcDbBlockReference
  2
A$C0B8A3D21
 10
75.85000052898421
 20
11.02239468814469
 30
0.0
  0
CIRCLE
  5
EF7C8961B
330
EF7C85532
100
AcDbEntity
  8
JISSEN
 62
     7
100
AcDbCircle
 10
90.00000039266662
 20
25.17239460435565
 30
0.0
 40
9.25
  0
ARC
  5
EF7C8961C
330
EF7C85532
100
AcDbEntity
  8
JISSEN
100
AcDbCircle
 10
90.00000039266662
 20
25.17239460435571
 30
0.0
 40
17.0
100
AcDbArc
 50
38.45651933527193
 51
81.54348066473067
  0
ARC
  5
EF7C8961D
330
EF7C85532
100
AcDbEntity
  8
JISSEN
100
AcDbCircle
 10
90.00000039266662
 20
25.17239460435571
 30
0.0
 40
17.5
100
AcDbArc
 50
38.21321070173933
 51
81.78678929826036
  0
CIRCLE
  5
EF7C8961E
330
EF7C85532
100
AcDbEntity
  8
JISSEN
100
AcDbCircle
 10
90.00000039266662
 20
25.17239460435565
 30
0.0
 40
15.14999999999999
  0
CIRCLE
  5
EF7C8961F
330
EF7C85532
100
AcDbEntity
  8
JISSEN
 62
     7
100
AcDbCircle
 10
90.00000039266662
 20
25.17239460435565
 30
0.0
 40
8.282842712474625
  0
CIRCLE
  5
EF7C89620
330
EF7C85532
100
AcDbEntity
  8
JISSEN
100
AcDbCircle
 10
90.00000039266662
 20
25.17239460435565
 30
0.0
 40
7.717157287525409
  0
ARC
  5
EF7C89621
330
EF7C85532
100
AcDbEntity
  8
SUNPOU
  6
HIDDEN
 62
     2
100
AcDbCircle
 10
90.00000039266662
 20
25.17239460435565
 30
0.0
 40
11.0
100
AcDbArc
 50
130.8912403530808
 51
172.0152860825934
  0
ARC
  5
EF7C89622
330
EF7C85532
100
AcDbEntity
  8
SUNPOU
  6
HIDDEN
 62
     2
100
AcDbCircle
 10
90.00000039266662
 20
25.17239460435565
 30
0.0
 40
9.5
100
AcDbArc
 50
130.8912403530808
 51
172.0152860825942
  0
MTEXT
  5
EF7C89623
330
EF7C85532
100
AcDbEntity
  8
SUNPOU
 62
     3
100
AcDbMText
 10
92.05258736718919
 20
29.74049555355322
 30
0.0
 40
1.5
 41
0.05
 71
     1
 72
     5
  1
E
  7
K
 11
-0.9510565162951534
 21
0.3090169943749479
 31
0.0
 73
     1
 44
1.0
  0
MTEXT
  5
EF7C89624
330
EF7C85532
100
AcDbEntity
  8
SUNPOU
 62
     3
100
AcDbMText
 10
90.5392723410422
 20
30.14314222395714
 30
0.0
 40
1.5
 41
0.05
 71
     1
 72
     5
  1
N
  7
K
 11
-1.0
 21
0.0000000000000001
 31
0.0
 73
     1
 44
1.0
  0
MTEXT
  5
EF7C89625
330
EF7C85532
100
AcDbEntity
  8
SUNPOU
 62
     3
100
AcDbMText
 10
88.96320866251178
 20
30.05434019785656
 30
0.0
 40
1.499999999999999
 41
0.05
 71
     1
 72
     5
  1
J
  7
K
 11
-0.9510565162951536
 21
-0.3090169943749473
 31
0.0
 73
     1
 44
1.0
  0
ARC
  5
EF7C89626
330
EF7C85532
100
AcDbEntity
  8
JISSEN
100
AcDbCircle
 10
90.00000039266662
 20
25.17239460435571
 30
0.0
 40
17.0
100
AcDbArc
 50
158.4565193352713
 51
201.5434806647286
  0
ARC
  5
EF7C89627
330
EF7C85532
100
AcDbEntity
  8
JISSEN
100
AcDbCircle
 10
90.00000039266662
 20
25.17239460435571
 30
0.0
 40
17.5
100
AcDbArc
 50
158.2132107017385
 51
201.7867892982584
  0
ARC
  5
EF7C89628
330
EF7C85532
100
AcDbEntity
  8
JISSEN
100
AcDbCircle
 10
83.00000039266661
 20
13.04803895137349
 30
0.0
 40
2.25
100
AcDbArc
 50
176.8557628338693
 51
303.1442371661298
  0
TEXT
  5
EF7C89629
330
EF7C85532
100
AcDbEntity
  8
SUNPOU
 62
     3
100
AcDbText
 10
81.3677949909661
 20
18.27618303680484
 30
0.0
 40
1.5
  1
2.
 50
314.0000000000013
  7
K
 72
     4
 11
82.62676743919548
 21
18.05214630715551
 31
0.0
100
AcDbText
  0
ARC
  5
EF7C8962A
330
EF7C85532
100
AcDbEntity
  8
JISSEN
100
AcDbCircle
 10
74.59785211541284
 20
18.58936122714369
 30
0.0
 40
0.5
100
AcDbArc
 50
23.14235158464853
 51
120.0000000000001
  0
LINE
  5
EF7C8962B
330
EF7C85532
100
AcDbEntity
  8
JISSEN
100
AcDbLine
 10
73.75000039266645
 20
18.67720407597284
 30
0.0
 11
74.34785211541278
 21
19.02237392903584
 31
0.0
  0
LINE
  5
EF7C8962C
330
EF7C85532
100
AcDbEntity
  8
JISSEN
100
AcDbLine
 10
76.84785211541272
 20
14.69224691011363
 30
0.0
 11
76.25000039266634
 21
14.34707705705052
 31
0.0
  0
ARC
  5
EF7C8962D
330
EF7C85532
100
AcDbEntity
  8
JISSEN
100
AcDbCircle
 10
76.59785211541272
 20
15.12525961200589
 30
0.0
 40
0.5
100
AcDbArc
 50
300.0000000000001
 51
36.85764841534831
  0
ARC
  5
EF7C8962E
330
EF7C85532
100
AcDbEntity
  8
JISSEN
100
AcDbCircle
 10
90.00000039266662
 20
25.17239460435571
 30
0.0
 40
16.25
100
AcDbArc
 50
203.1423515846485
 51
216.8576484153482
  0
ARC
  5
EF7C8962F
330
EF7C85532
100
AcDbEntity
  8
JISSEN
100
AcDbCircle
 10
76.00000039266657
 20
25.17239460435571
 30
0.0
 40
2.25
100
AcDbArc
 50
116.8557628338684
 51
243.1442371661286
  0
TEXT
  5
EF7C89630
330
EF7C85532
100
AcDbEntity
  8
SUNPOU
 62
     3
100
AcDbText
 10
80.40451301626971
 20
20.29226626366564
 30
0.0
 40
1.5
  1
r
 50
300.0000000000001
  7
K
 72
     4
 11
81.12324000387623
 21
20.04739460436025
 31
0.0
100
AcDbText
  0
LINE
  5
EF7C89631
330
EF7C85532
100
AcDbEntity
  8
SUNPOU
  6
HIDDEN
 62
     2
100
AcDbLine
 10
80.59210133624487
 20
26.4920291538345
 30
0.0
 11
79.10664359049402
 21
26.7003925037522
 31
0.0
  0
MTEXT
  5
EF7C89632
330
EF7C85532
100
AcDbEntity
  8
SUNPOU
 62
     3
100
AcDbMText
 10
89.42854135134725
 20
20.20697773450331
 30
0.0
 40
1.499999999999999
 41
0.05
 71
     1
 72
     5
  1
Q
  7
K
 11
0.9997163024337226
 21
-0.0238183678753627
 31
0.0
 73
     1
 44
1.0
  0
MTEXT
  5
EF7C89633
330
EF7C85532
100
AcDbEntity
  8
SUNPOU
 62
     3
100
AcDbMText
 10
90.91621459431134
 20
20.24188350872248
 30
0.0
 40
1.499999999999999
 41
0.05
 71
     1
 72
     5
  1
R
  7
K
 11
0.9581705508061054
 21
0.2861978259315125
 31
0.0
 73
     1
 44
1.0
  0
MTEXT
  5
EF7C89634
330
EF7C85532
100
AcDbEntity
  8
SUNPOU
 62
     3
100
AcDbMText
 10
87.93855253232528
 20
20.63415680791042
 30
0.0
 40
1.499999999999999
 41
0.1
 71
     1
 72
     5
  1
V
  7
K
 11
0.9416657411702551
 21
-0.3365495979885789
 31
0.0
 73
     1
 44
1.0
  0
ARC
  5
EF7C89635
330
EF7C85532
100
AcDbEntity
  8
JISSEN
100
AcDbCircle
 10
90.00000039266662
 20
25.17239460435571
 30
0.0
 40
16.25
100
AcDbArc
 50
263.1423515846476
 51
276.8576484153491
  0
TEXT
  5
EF7C89636
330
EF7C85532
100
AcDbEntity
  8
SUNPOU
 62
     3
100
AcDbText
 10
83.53485241398407
 20
16.24130499481443
 30
0.0
 40
1.5
  1
6
 50
328.0000000000008
  7
K
 72
     4
 11
84.56832793427629
 21
16.47990161875686
 31
0.0
100
AcDbText
  0
TEXT
  5
EF7C89637
330
EF7C85532
100
AcDbEntity
  8
SUNPOU
 62
     3
100
AcDbText
 10
94.88141081853489
 20
15.28897230558851
 30
0.0
 40
1.5
  1
S
 50
30.00000000000054
  7
K
 72
     4
 11
95.12500039266662
 21
16.29563421556969
 31
0.0
100
AcDbText
  0
CIRCLE
  5
EF7C89638
330
EF7C85532
100
AcDbEntity
  8
JISSEN
 62
     0
100
AcDbCircle
 10
90.00000039266662
 20
25.17239460435565
 30
0.0
 40
1.0
  0
CIRCLE
  5
EF7C89639
330
EF7C85532
100
AcDbEntity
  8
SAISEN
 62
     0
100
AcDbCircle
 10
90.00000039266662
 20
25.17239460435565
 30
0.0
 40
1.25
  0
CIRCLE
  5
EF7C8963A
330
EF7C85532
100
AcDbEntity
  8
JISSEN
 62
     0
100
AcDbCircle
 10
90.00000039266662
 20
25.17239460435565
 30
0.0
 40
1.449999999999988
  0
CIRCLE
  5
EF7C8963B
330
EF7C85532
100
AcDbEntity
  8
JISSEN
 62
     0
100
AcDbCircle
 10
90.00000039266662
 20
25.17239460435565
 30
0.0
 40
2.25
  0
MTEXT
  5
EF7C8963C
330
EF7C85532
100
AcDbEntity
  8
SUNPOU
 62
     3
100
AcDbMText
 10
87.51634104860888
 20
29.49559081191285
 30
0.0
 40
1.5
 41
0.05
 71
     1
 72
     5
  1
U
  7
K
 11
-0.8090169943749476
 21
-0.587785252292473
 31
0.0
 73
     1
 44
1.0
  0
CIRCLE
  5
EF7C8963D
330
EF7C85532
100
AcDbEntity
  8
NITEN
 62
     0
100
AcDbCircle
 10
90.00000039266662
 20
25.17239460435565
 30
0.0
 40
0.0000000000000142
  0
CIRCLE
  5
EF7C8963E
330
EF7C85532
100
AcDbEntity
  8
NITEN
 62
     0
100
AcDbCircle
 10
90.00000039266662
 20
25.17239460435565
 30
0.0
 40
0.0000000000000142
  0
CIRCLE
  5
EF7C8963F
330
EF7C85532
100
AcDbEntity
  8
NITEN
 62
     0
100
AcDbCircle
 10
90.00000039266662
 20
25.17239460435565
 30
0.0
 40
0.0000000000000201
  0
MTEXT
  5
EF7C89640
330
EF7C85532
100
AcDbEntity
  8
SUNPOU
 62
     3
100
AcDbMText
 10
93.37895796795171
 20
28.88135905742047
 30
0.0
 40
1.5
 41
0.05
 71
     1
 72
     5
  1
S
  7
K
 11
-0.809016994374947
 21
0.5877852522924736
 31
0.0
 73
     1
 44
1.0
  0
ARC
  5
EF7C89641
330
EF7C85532
100
AcDbEntity
  8
JISSEN
100
AcDbCircle
 10
83.00000039266661
 20
37.29675025733775
 30
0.0
 40
2.25
100
AcDbArc
 50
56.85576283387016
 51
183.1442371661271
  0
ARC
  5
EF7C89642
330
EF7C85532
100
AcDbEntity
  8
JISSEN
100
AcDbCircle
 10
90.00000039266662
 20
25.17239460435571
 30
0.0
 40
17.5
100
AcDbArc
 50
98.21321070173631
 51
141.7867892982613
  0
ARC
  5
EF7C89643
330
EF7C85532
100
AcDbEntity
  8
JISSEN
100
AcDbCircle
 10
90.00000039266662
 20
25.17239460435571
 30
0.0
 40
17.0
100
AcDbArc
 50
98.45651933526932
 51
141.5434806647286
  0
ARC
  5
EF7C89644
330
EF7C85532
100
AcDbEntity
  8
JISSEN
100
AcDbCircle
 10
74.59785211541329
 20
31.75542798156772
 30
0.0
 40
0.5
100
AcDbArc
 50
239.9999999999998
 51
336.8576484153514
  0
LINE
  5
EF7C89645
330
EF7C85532
100
AcDbEntity
  8
JISSEN
100
AcDbLine
 10
73.75000039266696
 20
31.66758513273857
 30
0.0
 11
74.34785211541329
 21
31.32241527967551
 31
0.0
  0
LINE
  5
EF7C89646
330
EF7C85532
100
AcDbEntity
  8
JISSEN
100
AcDbLine
 10
76.25000039266753
 20
35.99771215166226
 30
0.0
 11
76.84785211541385
 21
35.65254229859915
 31
0.0
  0
ARC
  5
EF7C89647
330
EF7C85532
100
AcDbEntity
  8
JISSEN
100
AcDbCircle
 10
76.59785211541323
 20
35.21952959670552
 30
0.0
 40
0.5
100
AcDbArc
 50
323.1423515846484
 51
59.99999999999986
  0
ARC
  5
EF7C89648
330
EF7C85532
100
AcDbEntity
  8
JISSEN
100
AcDbCircle
 10
90.00000039266662
 20
25.17239460435571
 30
0.0
 40
16.25
100
AcDbArc
 50
143.1423515846484
 51
156.8576484153514
  0
LINE
  5
EF7C89649
330
EF7C85532
100
AcDbEntity
  8
JISSEN
100
AcDbLine
 10
92.50000039266685
 20
42.49290268004399
 30
0.0
 11
92.50000039266673
 21
41.80256297391782
 31
0.0
  0
LINE
  5
EF7C8964A
330
EF7C85532
100
AcDbEntity
  8
JISSEN
100
AcDbLine
 10
87.50000039266673
 20
41.80256297391788
 30
0.0
 11
87.50000039266673
 21
42.4929026800441
 31
0.0
  0
ARC
  5
EF7C8964B
330
EF7C85532
100
AcDbEntity
  8
SUNPOU
  6
HIDDEN
 62
     2
100
AcDbCircle
 10
90.00000039266662
 20
25.17239460435565
 30
0.0
 40
9.5
100
AcDbArc
 50
73.29219640464287
 51
108.5866031610656
  0
ARC
  5
EF7C8964C
330
EF7C85532
100
AcDbEntity
  8
SUNPOU
  6
HIDDEN
 62
     2
100
AcDbCircle
 10
90.00000039266662
 20
25.17239460435565
 30
0.0
 40
11.0
100
AcDbArc
 50
73.29219640464287
 51
108.5866031610656
  0
ARC
  5
EF7C8964D
330
EF7C85532
100
AcDbEntity
  8
JISSEN
100
AcDbCircle
 10
90.00000039266662
 20
25.17239460435571
 30
0.0
 40
16.25
100
AcDbArc
 50
83.14235158464763
 51
96.8576484153491
  0
LINE
  5
EF7C8964E
330
EF7C85532
100
AcDbEntity
  8
SUNPOU
  6
HIDDEN
 62
     2
100
AcDbLine
 10
83.78106053999045
 20
32.35395342600407
 30
0.0
 11
82.79912266851523
 21
33.48788376626437
 31
0.0
  0
LINE
  5
EF7C8964F
330
EF7C85532
100
AcDbEntity
  8
SUNPOU
  6
HIDDEN
 62
     2
100
AcDbLine
 10
86.97199229617208
 20
34.17690275125426
 30
0.0
 11
86.49388575462037
 21
35.59866719550144
 31
0.0
  0
ARC
  5
EF7C89650
330
EF7C85532
100
AcDbEntity
  8
JISSEN
100
AcDbCircle
 10
88.00000039266679
 20
41.80256297391788
 30
0.0
 40
0.5
100
AcDbArc
 50
180.0
 51
276.8576484153491
  0
LINE
  5
EF7C89651
330
EF7C85532
100
AcDbEntity
  8
SUNPOU
  6
HIDDEN
 62
     2
100
AcDbLine
 10
92.73116461817791
 20
34.27133640949365
 30
0.0
 11
93.16240107483755
 21
35.70801143135754
 31
0.0
  0
ARC
  5
EF7C89652
330
EF7C85532
100
AcDbEntity
  8
JISSEN
100
AcDbCircle
 10
92.00000039266674
 20
41.80256297391782
 30
0.0
 40
0.5
100
AcDbArc
 50
263.1423515846476
 51
0.0
  0
ARC
  5
EF7C89653
330
EF7C85532
100
AcDbEntity
  8
JISSEN
100
AcDbCircle
 10
90.00000039266662
 20
25.17239460435571
 30
0.0
 40
17.0
100
AcDbArc
 50
338.4565193352713
 51
21.54348066472868
  0
ARC
  5
EF7C89654
330
EF7C85532
100
AcDbEntity
  8
JISSEN
100
AcDbCircle
 10
90.00000039266662
 20
25.17239460435571
 30
0.0
 40
17.5
100
AcDbArc
 50
338.2132107017385
 51
21.78678929826146
  0
TEXT
  5
EF7C89655
330
EF7C85532
100
AcDbEntity
  8
SUNPOU
 62
     3
100
AcDbText
 10
99.94309587675044
 20
29.9952235401202
 30
0.0
 40
1.5
  1
Q
 50
120.0127519987916
  7
K
 72
     4
 11
98.96250273206785
 21
30.33616812073484
 31
0.0
100
AcDbText
  0
TEXT
  5
EF7C89656
330
EF7C85532
100
AcDbEntity
  8
SUNPOU
 62
     3
100
AcDbText
 10
98.91216431420415
 20
18.67695919367207
 30
0.0
 40
1.5
  1
P
 50
58.00000000000224
  7
K
 72
     4
 11
98.69249337827001
 21
19.74072214596987
 31
0.0
100
AcDbText
  0
LINE
  5
EF7C89657
330
EF7C85532
100
AcDbEntity
  8
JISSEN
100
AcDbLine
 10
103.15214866992
 20
14.69224691011363
 30
0.0
 11
103.7500003926664
 21
14.3470770570504
 31
0.0
  0
ARC
  5
EF7C89658
330
EF7C85532
100
AcDbEntity
  8
JISSEN
100
AcDbCircle
 10
90.00000039266662
 20
25.17239460435571
 30
0.0
 40
16.25
100
AcDbArc
 50
323.1423515846484
 51
336.8576484153514
  0
TEXT
  5
EF7C89659
330
EF7C85532
100
AcDbEntity
  8
SUNPOU
 62
     3
100
AcDbText
 10
97.12742832461668
 20
16.76347225030716
 30
0.0
 40
1.5
  1
S
 50
43.99999999999904
  7
K
 72
     4
 11
97.12024868987148
 21
17.79916165088901
 31
0.0
100
AcDbText
  0
ARC
  5
EF7C8965A
330
EF7C85532
100
AcDbEntity
  8
JISSEN
100
AcDbCircle
 10
103.40214866992
 20
15.12525961200578
 30
0.0
 40
0.5
100
AcDbArc
 50
143.1423515846484
 51
239.9999999999998
  0
ARC
  5
EF7C8965B
330
EF7C85532
100
AcDbEntity
  8
JISSEN
100
AcDbCircle
 10
105.40214866992
 20
18.58936122714357
 30
0.0
 40
0.5
100
AcDbArc
 50
59.99999999999986
 51
156.8576484153514
  0
LINE
  5
EF7C8965C
330
EF7C85532
100
AcDbEntity
  8
JISSEN
100
AcDbLine
 10
106.2500003926663
 20
18.67720407597273
 30
0.0
 11
105.65214866992
 21
19.02237392903584
 31
0.0
  0
ARC
  5
EF7C8965D
330
EF7C85532
100
AcDbEntity
  8
JISSEN
100
AcDbCircle
 10
104.0000003926666
 20
25.17239460435571
 30
0.0
 40
2.25
100
AcDbArc
 50
296.8557628338714
 51
63.14423716613155
  0
LINE
  5
EF7C8965E
330
EF7C85532
100
AcDbEntity
  8
JISSEN
100
AcDbLine
 10
103.7500003926663
 20
35.99771215166146
 30
0.0
 11
103.15214866992
 21
35.65254229859841
 31
0.0
  0
ARC
  5
EF7C8965F
330
EF7C85532
100
AcDbEntity
  8
JISSEN
100
AcDbCircle
 10
90.00000039266662
 20
25.17239460435571
 30
0.0
 40
16.25
100
AcDbArc
 50
23.14235158465153
 51
36.85764841535223
  0
TEXT
  5
EF7C89660
330
EF7C85532
100
AcDbEntity
  8
SUNPOU
 62
     3
100
AcDbText
 10
98.45696611646863
 20
32.25032351649427
 30
0.0
 40
1.5
  1
R
 50
134.012751998793
  7
K
 72
     4
 11
97.37164844999337
 21
32.29428374411231
 31
0.0
100
AcDbText
  0
ARC
  5
EF7C89661
330
EF7C85532
100
AcDbEntity
  8
JISSEN
100
AcDbCircle
 10
103.40214866992
 20
35.2195295967062
 30
0.0
 40
0.5
100
AcDbArc
 50
120.0000000000001
 51
216.8576484153522
  0
ARC
  5
EF7C89662
330
EF7C85532
100
AcDbEntity
  8
JISSEN
100
AcDbCircle
 10
105.40214866992
 20
31.75542798156846
 30
0.0
 40
0.5
100
AcDbArc
 50
203.1423515846515
 51
300.0000000000001
  0
LINE
  5
EF7C89663
330
EF7C85532
100
AcDbEntity
  8
JISSEN
100
AcDbLine
 10
105.65214866992
 20
31.32241527967625
 30
0.0
 11
106.2500003926664
 21
31.66758513273936
 31
0.0
  0
LINE
  5
EF7C89664
330
EF7C85532
100
AcDbEntity
  8
TEXT
100
AcDbLine
 10
153.8228503528797
 20
10.84959297135969
 30
0.0
 11
153.8228503528797
 21
7.849592971359697
 31
0.0
  0
LINE
  5
EF7C89665
330
EF7C85532
100
AcDbEntity
  8
TEXT
100
AcDbLine
 10
154.3228503528798
 20
10.84959297135969
 30
0.0
 11
154.3228503528798
 21
7.849592971359697
 31
0.0
  0
LINE
  5
EF7C89666
330
EF7C85532
100
AcDbEntity
  8
TEXT
100
AcDbLine
 10
153.3228503528797
 20
10.84959297135969
 30
0.0
 11
153.3228503528797
 21
7.849592971359697
 31
0.0
  0
LINE
  5
EF7C89667
330
EF7C85532
100
AcDbEntity
  8
TEXT
100
AcDbLine
 10
152.8228503528797
 20
7.849592971359697
 30
0.0
 11
154.8228503528797
 21
7.849592971359697
 31
0.0
  0
LINE
  5
EF7C89668
330
EF7C85532
100
AcDbEntity
  8
TEXT
100
AcDbLine
 10
152.8228503528797
 20
10.84959297135969
 30
0.0
 11
154.8228503528797
 21
10.84959297135969
 31
0.0
  0
LINE
  5
EF7C89669
330
EF7C85532
100
AcDbEntity
  8
JISSEN
100
AcDbLine
 10
108.5000003926661
 20
89.07859391818396
 30
0.0
 11
155.2759063483621
 21
89.07859391818396
 31
0.0
  0
CIRCLE
  5
EF7C8966A
330
EF7C85532
100
AcDbEntity
  8
SUNPOU
100
AcDbCircle
 10
127.7166786100258
 20
119.1231289610626
 30
0.0
 40
6.0
  0
LINE
  5
EF7C8966B
330
EF7C85532
100
AcDbEntity
  8
JISSEN
100
AcDbLine
 10
108.149833516636
 20
84.88195148457776
 30
0.0
 11
91.49983351663456
 21
84.88195148457823
 31
0.0
  0
LINE
  5
EF7C8966C
330
EF7C85532
100
AcDbEntity
  8
JISSEN
100
AcDbLine
 10
107.1498335166342
 20
84.0785939181838
 30
0.0
 11
91.49983351663456
 21
84.0785939181838
 31
0.0
  0
LINE
  5
EF7C8966D
330
EF7C85532
100
AcDbEntity
  8
JISSEN
100
AcDbLine
 10
91.49983351663365
 20
65.07859391812331
 30
0.0
 11
109.6498335166351
 21
65.07859391812331
 31
0.0
  0
LINE
  5
EF7C8966E
330
EF7C85532
100
AcDbEntity
  8
JISSEN
100
AcDbLine
 10
109.6498335166351
 20
62.07859391818698
 30
0.0
 11
89.99983351663377
 21
62.07859391818698
 31
0.0
  0
LINE
  5
EF7C8966F
330
EF7C85532
100
AcDbEntity
  8
JISSEN
100
AcDbLine
 10
89.99983351663434
 20
62.07859391818368
 30
0.0
 11
109.6498335166359
 21
62.07859391818368
 31
0.0
  0
ELLIPSE
  5
EF7C89670
330
EF7C85532
100
AcDbEntity
  8
JISSEN
100
AcDbEllipse
 10
96.92357177346137
 20
80.1527303546076
 30
0.0
 11
0.5496393822008371
 21
1.479185241978597
 31
0.0
210
0.0
220
0.0
230
-1.0
 40
0.7629139298608055
 41
4.660626179689004
 42
8.00239985888083
  0
LINE
  5
EF7C89671
330
EF7C85532
100
AcDbEntity
  8
JISSEN
100
AcDbLine
 10
91.49983351663356
 20
74.02062763905345
 30
0.0
 11
98.00000039266691
 21
74.0206276390534
 31
0.0
  0
LINE
  5
EF7C89672
330
EF7C85532
100
AcDbEntity
  8
JISSEN
100
AcDbLine
 10
103.7861853528658
 20
81.68781521249972
 30
0.0
 11
91.49983351663427
 21
81.68781521249973
 31
0.0
  0
LINE
  5
EF7C89673
330
EF7C85532
100
AcDbEntity
  8
JISSEN
100
AcDbLine
 10
99.25000039266691
 20
74.52062763905345
 30
0.0
 11
91.49983351663362
 21
74.52062763905345
 31
0.0
  0
LINE
  5
EF7C89674
330
EF7C85532
100
AcDbEntity
  8
JISSEN
100
AcDbLine
 10
91.49983351663356
 20
74.22062763905344
 30
0.0
 11
99.25000039266691
 21
74.22062763905344
 31
0.0
  0
LINE
  5
EF7C89675
330
EF7C85532
100
AcDbEntity
  8
JISSEN
100
AcDbLine
 10
101.1320008788644
 20
77.17049435222591
 30
0.0
 11
91.49983351663385
 21
77.17049435222593
 31
0.0
  0
LINE
  5
EF7C89676
330
EF7C85532
100
AcDbEntity
  8
JISSEN
100
AcDbLine
 10
94.52789329739378
 20
77.47049435222592
 30
0.0
 11
97.12596950874704
 21
77.47049435222592
 31
0.0
  0
LINE
  5
EF7C89677
330
EF7C85532
100
AcDbEntity
  8
JISSEN
100
AcDbLine
 10
108.500000392665
 20
89.07859391818396
 30
0.0
 11
71.50000039266712
 21
89.07859391818396
 31
0.0
  0
LINE
  5
EF7C89678
330
EF7C85532
100
AcDbEntity
  8
JISSEN
 48
3.0
100
AcDbLine
 10
91.49983351663456
 20
84.88195148457776
 30
0.0
 11
91.49983351663275
 21
65.07859391812331
 31
0.0
  0
LINE
  5
EF7C89679
330
EF7C85532
100
AcDbEntity
  8
JISSEN
 48
3.0
100
AcDbLine
 10
88.49983351663343
 20
84.88195148457776
 30
0.0
 11
88.49983351663524
 21
65.07859391812331
 31
0.0
  0
LINE
  5
EF7C8967A
330
EF7C85532
100
AcDbEntity
  8
JISSEN
100
AcDbLine
 10
72.84983351663197
 20
84.88195148457732
 30
0.0
 11
72.84983351663107
 21
65.07859391812286
 31
0.0
  0
LINE
  5
EF7C8967B
330
EF7C85532
100
AcDbEntity
  8
JISSEN
100
AcDbLine
 10
92.14936242685096
 20
76.07081187016214
 30
0.0
 11
92.14936242685096
 21
75.02062767180186
 31
0.0
  0
LINE
  5
EF7C8967C
330
EF7C85532
100
AcDbEntity
  8
JISSEN
100
AcDbLine
 10
87.85063835848214
 20
76.07081187016214
 30
0.0
 11
87.85063835848214
 21
75.02062767180186
 31
0.0
  0
LINE
  5
EF7C8967D
330
EF7C85532
100
AcDbEntity
  8
JISSEN
100
AcDbLine
 10
88.49983351663434
 20
65.07859391812331
 30
0.0
 11
70.34983351663289
 21
65.07859391812331
 31
0.0
  0
LINE
  5
EF7C8967E
330
EF7C85532
100
AcDbEntity
  8
JISSEN
100
AcDbLine
 10
70.34983351663289
 20
62.07859391818698
 30
0.0
 11
89.99983351663422
 21
62.07859391818698
 31
0.0
  0
LINE
  5
EF7C8967F
330
EF7C85532
100
AcDbEntity
  8
JISSEN
100
AcDbLine
 10
88.49983351663439
 20
74.22062763905344
 30
0.0
 11
80.75000039266617
 21
74.22062763905344
 31
0.0
  0
LINE
  5
EF7C89680
330
EF7C85532
100
AcDbEntity
  8
JISSEN
100
AcDbLine
 10
80.75000039266617
 20
74.52062763905345
 30
0.0
 11
88.49983351663437
 21
74.52062763905345
 31
0.0
  0
LINE
  5
EF7C89681
330
EF7C85532
100
AcDbEntity
  8
JISSEN
100
AcDbLine
 10
88.49983351663443
 20
74.02062763905346
 30
0.0
 11
82.00000039266617
 21
74.0206276390534
 31
0.0
  0
ARC
  5
EF7C89682
330
EF7C85532
100
AcDbEntity
  8
JISSEN
 48
3.0
100
AcDbCircle
 10
70.34983351663289
 20
63.57859391812514
 30
0.0
 40
1.49999999999909
100
AcDbArc
 50
90.0
 51
180.0
  0
LINE
  5
EF7C89683
330
EF7C85532
100
AcDbEntity
  8
JISSEN
100
AcDbLine
 10
68.84983351663379
 20
73.07859391818744
 30
0.0
 11
68.84983351663379
 21
63.57859391812514
 31
0.0
  0
LINE
  5
EF7C89684
330
EF7C85532
100
AcDbEntity
  8
JISSEN
100
AcDbLine
 10
72.34983351663561
 20
62.07859391812286
 30
0.0
 11
71.34983351663016
 21
62.07859391812559
 31
0.0
  0
ARC
  5
EF7C89685
330
EF7C85532
100
AcDbEntity
  8
JISSEN
 62
     7
100
AcDbCircle
 10
70.34983351663289
 20
63.57859391812514
 30
0.0
 40
1.49999999999909
100
AcDbArc
 50
179.9999999991141
 51
269.9999999998436
  0
LINE
  5
EF7C89686
330
EF7C85532
100
AcDbEntity
  8
JISSEN
100
AcDbLine
 10
80.75000039266617
 20
74.22062763905344
 30
0.0
 11
80.75000039266617
 21
74.52062763905345
 31
0.0
  0
LINE
  5
EF7C89687
330
EF7C85532
100
AcDbEntity
  8
JISSEN
100
AcDbLine
 10
80.75000039266617
 20
74.22062763905344
 30
0.0
 11
80.75000039266617
 21
74.52062763905345
 31
0.0
  0
ARC
  5
EF7C89688
330
EF7C85532
100
AcDbEntity
  8
JISSEN
100
AcDbCircle
 10
82.00000039266617
 20
74.32062763905347
 30
0.0
 40
0.3
100
AcDbArc
 50
199.4712206348864
 51
270.0
  0
ARC
  5
EF7C89689
330
EF7C85532
100
AcDbEntity
  8
JISSEN
 48
3.0
100
AcDbCircle
 10
91.49983351663365
 20
63.57859391812422
 30
0.0
 40
1.49999999999909
100
AcDbArc
 50
90.0
 51
180.0
  0
ARC
  5
EF7C8968A
330
EF7C85532
100
AcDbEntity
  8
JISSEN
 48
3.0
100
AcDbCircle
 10
91.49983351663445
 20
63.57859391812093
 30
0.0
 40
1.49999999999909
100
AcDbArc
 50
90.0
 51
180.0
  0
ARC
  5
EF7C8968B
330
EF7C85532
100
AcDbEntity
  8
JISSEN
 48
3.0
100
AcDbCircle
 10
88.49983351663434
 20
63.57859391812422
 30
0.0
 40
1.49999999999909
100
AcDbArc
 50
0.0
 51
90.0
  0
LINE
  5
EF7C8968C
330
EF7C85532
100
AcDbEntity
  8
JISSEN
100
AcDbLine
 10
87.20000039266611
 20
74.62062763905365
 30
0.0
 11
87.20000039266622
 21
74.62062763905331
 31
0.0
  0
ARC
  5
EF7C8968D
330
EF7C85532
100
AcDbEntity
  8
JISSEN
100
AcDbCircle
 10
87.60000039266619
 20
74.62062763905342
 30
0.0
 40
0.4
100
AcDbArc
 50
89.99999999999674
 51
179.9999999999674
  0
ARC
  5
EF7C8968E
330
EF7C85532
100
AcDbEntity
  8
JISSEN
100
AcDbCircle
 10
87.10000039266621
 20
74.62062763905331
 30
0.0
 40
0.1
100
AcDbArc
 50
270.0
 51
0.0
  0
LINE
  5
EF7C8968F
330
EF7C85532
100
AcDbEntity
  8
JISSEN
100
AcDbLine
 10
88.30031943358463
 20
75.02062763905346
 30
0.0
 11
88.26057087795041
 21
75.02062763905346
 31
0.0
  0
LINE
  5
EF7C89690
330
EF7C85532
100
AcDbEntity
  8
JISSEN
100
AcDbLine
 10
87.60000039266619
 20
75.02062763905346
 30
0.0
 11
88.49983351663434
 21
75.0206276390534
 31
0.0
  0
ARC
  5
EF7C89691
330
EF7C85532
100
AcDbEntity
  8
JISSEN
100
AcDbCircle
 10
92.40000039266689
 20
74.62062763905342
 30
0.0
 40
0.4
100
AcDbArc
 50
0.0000000000325759
 51
90.00000000000321
  0
LINE
  5
EF7C89692
330
EF7C85532
100
AcDbEntity
  8
JISSEN
100
AcDbLine
 10
92.40000039266689
 20
75.02062763905346
 30
0.0
 11
91.49983351663363
 21
75.0206276390534
 31
0.0
  0
LINE
  5
EF7C89693
330
EF7C85532
100
AcDbEntity
  8
JISSEN
100
AcDbLine
 10
91.69968135174846
 20
75.02062763905346
 30
0.0
 11
91.73942990738268
 21
75.02062763905346
 31
0.0
  0
ARC
  5
EF7C89694
330
EF7C85532
100
AcDbEntity
  8
JISSEN
100
AcDbCircle
 10
92.9000003926669
 20
74.62062763905331
 30
0.0
 40
0.1
100
AcDbArc
 50
180.0
 51
270.0
  0
LINE
  5
EF7C89695
330
EF7C85532
100
AcDbEntity
  8
JISSEN
100
AcDbLine
 10
92.80000039266699
 20
74.62062763905365
 30
0.0
 11
92.80000039266687
 21
74.62062763905331
 31
0.0
  0
LINE
  5
EF7C89696
330
EF7C85532
100
AcDbEntity
  8
JISSEN
100
AcDbLine
 10
71.84983351663198
 20
84.88195148457776
 30
0.0
 11
88.49983351663343
 21
84.88195148457823
 31
0.0
  0
LINE
  5
EF7C89697
330
EF7C85532
100
AcDbEntity
  8
JISSEN
100
AcDbLine
 10
72.84983351663379
 20
84.0785939181838
 30
0.0
 11
88.49983351663343
 21
84.0785939181838
 31
0.0
  0
LINE
  5
EF7C89698
330
EF7C85532
100
AcDbEntity
  8
JISSEN
100
AcDbLine
 10
78.86799990646867
 20
77.17049435222591
 30
0.0
 11
88.49983351663412
 21
77.17049435222593
 31
0.0
  0
LINE
  5
EF7C89699
330
EF7C85532
100
AcDbEntity
  8
JISSEN
100
AcDbLine
 10
76.21381543246721
 20
81.68781521249972
 30
0.0
 11
88.49983351663373
 21
81.68781521249973
 31
0.0
  0
ELLIPSE
  5
EF7C8969A
330
EF7C85532
100
AcDbEntity
  8
JISSEN
100
AcDbEllipse
 10
83.07642901187174
 20
80.1527303546076
 30
0.0
 11
-0.5496393822008371
 21
1.479185241978597
 31
0.0
210
0.0
220
0.0
230
1.0
 40
0.7629139298608055
 41
4.660626179689004
 42
8.00239985888083
  0
LINE
  5
EF7C8969B
330
EF7C85532
100
AcDbEntity
  8
JISSEN
100
AcDbLine
 10
76.2548161714906
 20
81.57754264455794
 30
0.0
 11
78.33339599195565
 21
77.49810005238217
 31
0.0
  0
ELLIPSE
  5
EF7C8969C
330
EF7C85532
100
AcDbEntity
  8
JISSEN
100
AcDbEllipse
 10
78.42330737900025
 20
80.03274874423581
 30
0.0
 11
-0.9570800929208298
 21
1.631415246132561
 31
0.0
210
0.0
220
0.0
230
1.0
 40
0.3500976397713617
 41
4.531254461994576
 42
7.607279528082885
  0
LINE
  5
EF7C8969D
330
EF7C85532
100
AcDbEntity
  8
JISSEN
100
AcDbLine
 10
79.15745983044885
 20
77.47049435222592
 30
0.0
 11
77.63571966768885
 21
80.10622563004417
 31
0.0
  0
ARC
  5
EF7C8969E
330
EF7C85532
100
AcDbEntity
  8
JISSEN
100
AcDbCircle
 10
78.86799990646867
 20
77.77049435222593
 30
0.0
 40
0.6
100
AcDbArc
 50
207.000000000001
 51
270.0
  0
LINE
  5
EF7C8969F
330
EF7C85532
100
AcDbEntity
  8
JISSEN
100
AcDbLine
 10
80.65745983044886
 20
77.47049435222592
 30
0.0
 11
79.15753169868256
 21
80.06844608414699
 31
0.0
  0
LINE
  5
EF7C896A0
330
EF7C85532
100
AcDbEntity
  8
JISSEN
100
AcDbLine
 10
80.65745983044886
 20
77.47049435222592
 30
0.0
 11
79.15745983044885
 21
77.47049435222592
 31
0.0
  0
ARC
  5
EF7C896A1
330
EF7C85532
100
AcDbEntity
  8
JISSEN
100
AcDbCircle
 10
76.70031943358484
 20
81.80453789442768
 30
0.0
 40
0.5
100
AcDbArc
 50
180.0
 51
207.000000000001
  0
LINE
  5
EF7C896A2
330
EF7C85532
100
AcDbEntity
  8
JISSEN
100
AcDbLine
 10
76.20031943358483
 20
84.07859391818403
 30
0.0
 11
76.20031943358483
 21
81.80453789442768
 31
0.0
  0
ELLIPSE
  5
EF7C896A3
330
EF7C85532
100
AcDbEntity
  8
JISSEN
100
AcDbEllipse
 10
89.99983351663434
 20
84.88195148457823
 30
0.0
 11
0.0
 21
2.6733896743317
 31
0.0
210
0.0
220
0.0
230
1.0
 40
0.5610854318774398
 41
6.283185307179585
 42
7.853981633974482
  0
ELLIPSE
  5
EF7C896A4
330
EF7C85532
100
AcDbEntity
  8
JISSEN
100
AcDbEllipse
 10
89.99983351663365
 20
84.88195148457823
 30
0.0
 11
0.0
 21
2.6733896743317
 31
0.0
210
0.0
220
0.0
230
-1.0
 40
0.5610854318774398
 41
6.283185307179585
 42
7.853981633974482
  0
ELLIPSE
  5
EF7C896A5
330
EF7C85532
100
AcDbEntity
  8
JISSEN
100
AcDbEllipse
 10
89.99983351663445
 20
84.88195148457492
 30
0.0
 11
0.0
 21
2.6733896743317
 31
0.0
210
0.0
220
0.0
230
1.0
 40
0.5610854318774398
 41
4.712388980384688
 42
6.283185307179585
  0
LINE
  5
EF7C896A6
330
EF7C85532
100
AcDbEntity
  8
JISSEN
100
AcDbLine
 10
84.23085633023303
 20
80.49798218827973
 30
0.0
 11
85.47210748793933
 21
77.47049435222592
 31
0.0
  0
LINE
  5
EF7C896A7
330
EF7C85532
100
AcDbEntity
  8
JISSEN
100
AcDbLine
 10
85.47210748793933
 20
77.47049435222592
 30
0.0
 11
82.87403127658606
 21
77.47049435222592
 31
0.0
  0
LINE
  5
EF7C896A8
330
EF7C85532
100
AcDbEntity
  8
JISSEN
100
AcDbLine
 10
82.04134836908933
 20
79.51981903869605
 30
0.0
 11
82.87403127658606
 21
77.47049435222592
 31
0.0
  0
LINE
  5
EF7C896A9
330
EF7C85532
100
AcDbEntity
  8
JISSEN
100
AcDbLine
 10
87.8503194335847
 20
77.17062763905349
 30
0.0
 11
88.49983351663412
 21
77.17062763905353
 31
0.0
  0
LINE
  5
EF7C896AA
330
EF7C85532
100
AcDbEntity
  8
JISSEN
100
AcDbLine
 10
88.02352439832047
 20
76.17062767180195
 30
0.0
 11
87.85031931756364
 21
76.27062767180198
 31
0.0
  0
LINE
  5
EF7C896AB
330
EF7C85532
100
AcDbEntity
  8
JISSEN
100
AcDbLine
 10
87.85031931756364
 20
76.07062767180193
 30
0.0
 11
88.02352439832047
 21
76.17062767180195
 31
0.0
  0
LINE
  5
EF7C896AC
330
EF7C85532
100
AcDbEntity
  8
JISSEN
100
AcDbLine
 10
87.8506198746003
 20
76.57076092645778
 30
0.0
 11
87.8506384745032
 21
76.87076092588111
 31
0.0
  0
LINE
  5
EF7C896AD
330
EF7C85532
100
AcDbEntity
  8
JISSEN
100
AcDbLine
 10
87.85063835848214
 20
77.17062767180195
 30
0.0
 11
87.85063835848214
 21
76.27044347344176
 31
0.0
  0
LINE
  5
EF7C896AE
330
EF7C85532
100
AcDbEntity
  8
SUNPOU
 62
     7
100
AcDbLine
 10
87.85063835848214
 20
76.07081187016209
 30
0.0
 11
88.49983351663423
 21
76.07081187016209
 31
0.0
  0
LINE
  5
EF7C896AF
330
EF7C85532
100
AcDbEntity
  8
SUNPOU
 62
     7
100
AcDbLine
 10
87.85063835848214
 20
76.27044347344181
 30
0.0
 11
88.49983351663421
 21
76.27044347344181
 31
0.0
  0
LINE
  5
EF7C896B0
330
EF7C85532
100
AcDbEntity
  8
SUNPOU
 62
     7
100
AcDbLine
 10
88.02352439832047
 20
76.17062767180195
 30
0.0
 11
88.49983351663423
 21
76.17062767180195
 31
0.0
  0
LINE
  5
EF7C896B1
330
EF7C85532
100
AcDbEntity
  8
JISSEN
100
AcDbLine
 10
92.1496813517484
 20
77.17062763905349
 30
0.0
 11
91.49983351663385
 21
77.17062763905353
 31
0.0
  0
LINE
  5
EF7C896B2
330
EF7C85532
100
AcDbEntity
  8
SUNPOU
 62
     7
100
AcDbLine
 10
91.97647638701264
 20
76.17062767180195
 30
0.0
 11
91.49983351663376
 21
76.17062767180195
 31
0.0
  0
LINE
  5
EF7C896B3
330
EF7C85532
100
AcDbEntity
  8
SUNPOU
 62
     7
100
AcDbLine
 10
92.14936242685096
 20
76.27044347344181
 30
0.0
 11
91.49983351663378
 21
76.27044347344181
 31
0.0
  0
LINE
  5
EF7C896B4
330
EF7C85532
100
AcDbEntity
  8
SUNPOU
 62
     7
100
AcDbLine
 10
92.14936242685096
 20
76.07081187016209
 30
0.0
 11
91.49983351663376
 21
76.07081187016209
 31
0.0
  0
LINE
  5
EF7C896B5
330
EF7C85532
100
AcDbEntity
  8
JISSEN
100
AcDbLine
 10
92.14938091073278
 20
76.57076092645778
 30
0.0
 11
92.1493623108299
 21
76.87076092588111
 31
0.0
  0
LINE
  5
EF7C896B6
330
EF7C85532
100
AcDbEntity
  8
JISSEN
100
AcDbLine
 10
92.14968146776945
 20
76.07062767180193
 30
0.0
 11
91.97647638701264
 21
76.17062767180195
 31
0.0
  0
LINE
  5
EF7C896B7
330
EF7C85532
100
AcDbEntity
  8
JISSEN
100
AcDbLine
 10
91.97647638701264
 20
76.17062767180195
 30
0.0
 11
92.14968146776945
 21
76.27062767180198
 31
0.0
  0
LINE
  5
EF7C896B8
330
EF7C85532
100
AcDbEntity
  8
JISSEN
100
AcDbLine
 10
92.14936242685096
 20
77.17062767180195
 30
0.0
 11
92.14936242685096
 21
76.27044347344176
 31
0.0
  0
LINE
  5
EF7C896B9
330
EF7C85532
100
AcDbEntity
  8
JISSEN
100
AcDbLine
 10
95.76914445510007
 20
80.49798218827973
 30
0.0
 11
94.52789329739378
 21
77.47049435222592
 31
0.0
  0
LINE
  5
EF7C896BA
330
EF7C85532
100
AcDbEntity
  8
JISSEN
100
AcDbLine
 10
107.149833516636
 20
84.88195148457732
 30
0.0
 11
107.1498335166368
 21
65.07859391812286
 31
0.0
  0
ARC
  5
EF7C896BB
330
EF7C85532
100
AcDbEntity
  8
JISSEN
100
AcDbCircle
 10
126.1498335166342
 20
73.07859391818744
 30
0.0
 40
15.0
100
AcDbArc
 50
109.3883336172967
 51
180.0
  0
ARC
  5
EF7C896BC
330
EF7C85532
100
AcDbEntity
  8
JISSEN
 48
3.0
100
AcDbCircle
 10
109.6498335166351
 20
63.57859391812514
 30
0.0
 40
1.49999999999909
100
AcDbArc
 50
0.0
 51
90.0
  0
ARC
  5
EF7C896BD
330
EF7C85532
100
AcDbEntity
  8
JISSEN
 62
     7
100
AcDbCircle
 10
109.6498335166351
 20
63.57859391812514
 30
0.0
 40
1.49999999999909
100
AcDbArc
 50
270.0000000001563
 51
0.0000000008858735
  0
LINE
  5
EF7C896BE
330
EF7C85532
100
AcDbEntity
  8
JISSEN
100
AcDbLine
 10
107.6498335166323
 20
62.07859391812286
 30
0.0
 11
108.6498335166378
 21
62.07859391812559
 31
0.0
  0
ARC
  5
EF7C896BF
330
EF7C85532
100
AcDbEntity
  8
JISSEN
100
AcDbCircle
 10
98.00000039266691
 20
74.32062763905347
 30
0.0
 40
0.3
100
AcDbArc
 50
270.0
 51
340.5287793651136
  0
LINE
  5
EF7C896C0
330
EF7C85532
100
AcDbEntity
  8
JISSEN
100
AcDbLine
 10
99.25000039266691
 20
74.22062763905344
 30
0.0
 11
99.25000039266691
 21
74.52062763905345
 31
0.0
  0
LINE
  5
EF7C896C1
330
EF7C85532
100
AcDbEntity
  8
JISSEN
100
AcDbLine
 10
99.25000039266691
 20
74.22062763905344
 30
0.0
 11
99.25000039266691
 21
74.52062763905345
 31
0.0
  0
LINE
  5
EF7C896C2
330
EF7C85532
100
AcDbEntity
  8
JISSEN
100
AcDbLine
 10
111.1498335166342
 20
73.07859391818744
 30
0.0
 11
111.1498335166342
 21
63.57859391812514
 31
0.0
  0
LINE
  5
EF7C896C3
330
EF7C85532
100
AcDbEntity
  8
JISSEN
 48
3.0
100
AcDbLine
 10
108.2387913677802
 20
84.8899286185229
 30
0.0
 11
123.1777492189229
 21
87.59089574923706
 31
0.0
  0
LINE
  5
EF7C896C4
330
EF7C85532
100
AcDbEntity
  8
JISSEN
100
AcDbLine
 10
103.7451846138425
 20
81.57754264455794
 30
0.0
 11
101.6666047933774
 21
77.49810005238217
 31
0.0
  0
ELLIPSE
  5
EF7C896C5
330
EF7C85532
100
AcDbEntity
  8
JISSEN
100
AcDbEllipse
 10
101.5766934063328
 20
80.03274874423581
 30
0.0
 11
0.9570800929208298
 21
1.631415246132561
 31
0.0
210
0.0
220
0.0
230
-1.0
 40
0.3500976397713617
 41
4.531254461994576
 42
7.607279528082885
  0
LINE
  5
EF7C896C6
330
EF7C85532
100
AcDbEntity
  8
JISSEN
100
AcDbLine
 10
99.34254095488425
 20
77.47049435222592
 30
0.0
 11
100.8425409548842
 21
77.47049435222592
 31
0.0
  0
LINE
  5
EF7C896C7
330
EF7C85532
100
AcDbEntity
  8
JISSEN
100
AcDbLine
 10
99.34254095488425
 20
77.47049435222592
 30
0.0
 11
100.8424690866505
 21
80.06844608414699
 31
0.0
  0
LINE
  5
EF7C896C8
330
EF7C85532
100
AcDbEntity
  8
JISSEN
100
AcDbLine
 10
97.95865241624378
 20
79.51981903869605
 30
0.0
 11
97.12596950874704
 21
77.47049435222592
 31
0.0
  0
ARC
  5
EF7C896C9
330
EF7C85532
100
AcDbEntity
  8
JISSEN
100
AcDbCircle
 10
101.1320008788644
 20
77.77049435222593
 30
0.0
 40
0.6
100
AcDbArc
 50
270.0
 51
332.9999999999989
  0
LINE
  5
EF7C896CA
330
EF7C85532
100
AcDbEntity
  8
JISSEN
100
AcDbLine
 10
100.8425409548842
 20
77.47049435222592
 30
0.0
 11
102.3642811176442
 21
80.10622563004417
 31
0.0
  0
ARC
  5
EF7C896CB
330
EF7C85532
100
AcDbEntity
  8
JISSEN
100
AcDbCircle
 10
103.2996813517482
 20
81.80453789442768
 30
0.0
 40
0.5
100
AcDbArc
 50
332.9999999999989
 51
0.000000000000007
  0
LINE
  5
EF7C896CC
330
EF7C85532
100
AcDbEntity
  8
JISSEN
100
AcDbLine
 10
103.7996813517482
 20
84.07859391818403
 30
0.0
 11
103.7996813517482
 21
81.80453789442768
 31
0.0
  0
ARC
  5
EF7C896CD
330
EF7C85532
100
AcDbEntity
  8
JISSEN
 48
3.0
100
AcDbCircle
 10
108.149833516636
 20
85.38195148457777
 30
0.0
 40
0.5
100
AcDbArc
 50
270.0
 51
280.2483788343934
  0
ARC
  5
EF7C896CE
330
EF7C85532
100
AcDbEntity
  8
JISSEN
100
AcDbCircle
 10
122.9998335166345
 20
88.57494148134453
 30
0.0
 40
1.0
100
AcDbArc
 50
280.2483788343934
 51
0.0
  0
LINE
  5
EF7C896CF
330
EF7C85532
100
AcDbEntity
  8
JISSEN
100
AcDbLine
 10
123.9998335166345
 20
88.57494148134453
 30
0.0
 11
123.9998335166345
 21
89.07859391818698
 31
0.0
  0
LINE
  5
EF7C896D0
330
EF7C85532
100
AcDbEntity
  8
JISSEN
100
AcDbLine
 10
109.649916954651
 20
132.0785939181869
 30
0.0
 11
89.99991695464974
 21
132.0785939181869
 31
0.0
  0
LINE
  5
EF7C896D1
330
EF7C85532
100
AcDbEntity
  8
JISSEN
100
AcDbLine
 10
91.49991695464962
 20
135.0785939181232
 30
0.0
 11
109.649916954651
 21
135.0785939181232
 31
0.0
  0
LINE
  5
EF7C896D2
330
EF7C85532
100
AcDbEntity
  8
JISSEN
100
AcDbLine
 10
89.9999169546503
 20
132.0785939181836
 30
0.0
 11
109.6499169546518
 21
132.0785939181836
 31
0.0
  0
TEXT
  5
EF7C896D3
330
EF7C85532
100
AcDbEntity
  8
SUNPOU
100
AcDbText
 10
71.89525003859674
 20
116.5056272284556
 30
0.0
 40
4.5
  1
1
  7
K
 72
     4
 11
73.71667861002531
 21
118.7556272284556
 31
0.0
100
AcDbText
  0
LINE
  5
EF7C896D4
330
EF7C85532
100
AcDbEntity
  8
JISSEN
100
AcDbLine
 10
88.4999169546503
 20
135.0785939181232
 30
0.0
 11
70.3499169546489
 21
135.0785939181232
 31
0.0
  0
LINE
  5
EF7C896D5
330
EF7C85532
100
AcDbEntity
  8
JISSEN
100
AcDbLine
 10
70.3499169546489
 20
132.0785939181869
 30
0.0
 11
89.9999169546503
 21
132.0785939181869
 31
0.0
  0
LINE
  5
EF7C896D6
330
EF7C85532
100
AcDbEntity
  8
JISSEN
100
AcDbLine
 10
72.34991695465163
 20
132.0785939181227
 30
0.0
 11
71.34991695464617
 21
132.0785939181255
 31
0.0
  0
ARC
  5
EF7C896D7
330
EF7C85532
100
AcDbEntity
  8
JISSEN
 62
     7
100
AcDbCircle
 10
70.3499169546489
 20
133.578593918125
 30
0.0
 40
1.49999999999909
100
AcDbArc
 50
179.9999999991141
 51
269.9999999998436
  0
ARC
  5
EF7C896D8
330
EF7C85532
100
AcDbEntity
  8
JISSEN
 48
3.0
100
AcDbCircle
 10
70.3499169546489
 20
133.578593918125
 30
0.0
 40
1.49999999999909
100
AcDbArc
 50
90.0
 51
180.0
  0
ARC
  5
EF7C896D9
330
EF7C85532
100
AcDbEntity
  8
JISSEN
 48
3.0
100
AcDbCircle
 10
88.4999169546503
 20
133.5785939181241
 30
0.0
 40
1.49999999999909
100
AcDbArc
 50
0.0
 51
90.0
  0
ARC
  5
EF7C896DA
330
EF7C85532
100
AcDbEntity
  8
JISSEN
 48
3.0
100
AcDbCircle
 10
91.49991695464962
 20
133.5785939181241
 30
0.0
 40
1.49999999999909
100
AcDbArc
 50
90.0
 51
180.0
  0
ARC
  5
EF7C896DB
330
EF7C85532
100
AcDbEntity
  8
JISSEN
 48
3.0
100
AcDbCircle
 10
91.49991695465052
 20
133.5785939181208
 30
0.0
 40
1.49999999999909
100
AcDbArc
 50
90.0
 51
180.0
  0
ARC
  5
EF7C896DC
330
EF7C85532
100
AcDbEntity
  8
JISSEN
 62
     7
100
AcDbCircle
 10
109.649916954651
 20
133.578593918125
 30
0.0
 40
1.49999999999909
100
AcDbArc
 50
270.0000000001563
 51
0.0000000008858735
  0
ARC
  5
EF7C896DD
330
EF7C85532
100
AcDbEntity
  8
JISSEN
 48
3.0
100
AcDbCircle
 10
109.649916954651
 20
133.578593918125
 30
0.0
 40
1.49999999999909
100
AcDbArc
 50
0.0
 51
90.0
  0
LINE
  5
EF7C896DE
330
EF7C85532
100
AcDbEntity
  8
JISSEN
100
AcDbLine
 10
107.6499169546483
 20
132.0785939181227
 30
0.0
 11
108.6499169546538
 21
132.0785939181255
 31
0.0
  0
TEXT
  5
EF7C896DF
330
EF7C85532
100
AcDbEntity
  8
SUNPOU
100
AcDbText
 10
125.5738214671686
 20
116.8731289610626
 30
0.0
 40
4.5
  1
2
  7
K
 72
     4
 11
127.7166786100258
 21
119.1231289610626
 31
0.0
100
AcDbText
  0
LINE
  5
EF7C896E0
330
EF7C85532
100
AcDbEntity
  8
JISSEN
 48
3.0
100
AcDbLine
 10
71.7609591035038
 20
154.8899286185229
 30
0.0
 11
56.82200125236107
 21
157.5908957492369
 31
0.0
  0
ARC
  5
EF7C896E1
330
EF7C85532
100
AcDbEntity
  8
JISSEN
100
AcDbCircle
 10
53.84991695464981
 20
143.0785939181873
 30
0.0
 40
15.0
100
AcDbArc
 50
0.0
 51
70.61166638270329
  0
LINE
  5
EF7C896E2
330
EF7C85532
100
AcDbEntity
  8
JISSEN
100
AcDbLine
 10
71.50000039266803
 20
159.0785939181839
 30
0.0
 11
60.23270000988702
 21
159.0785939181839
 31
0.0
  0
LINE
  5
EF7C896E3
330
EF7C85532
100
AcDbEntity
  8
JISSEN
100
AcDbLine
 10
21.26633140354117
 20
164.0785939181839
 30
0.0
 11
71.50000039266712
 21
164.0785939181839
 31
0.0
  0
LINE
  5
EF7C896E4
330
EF7C85532
100
AcDbEntity
  8
JISSEN
100
AcDbLine
 10
71.50000039266712
 20
159.0785939181839
 30
0.0
 11
24.72409443697108
 21
159.0785939181839
 31
0.0
  0
INSERT
  5
EF7C896E5
330
EF7C85532
100
AcDbEntity
  8
HATCH
100
AcDbBlockReference
  2
*X24
 10
0.0000003926666068
 20
19.99999975762807
 30
0.0
1001
ACAD
1000
HATCH
1002
{
1070
    16
1000
_U
1040
2.0
1040
0.7853981633974483
1070
     0
1002
}
  0
LWPOLYLINE
  5
EF7C896E6
330
EF7C85532
100
AcDbEntity
  8
HATCH
100
AcDbPolyline
 90
       13
 70
     0
 43
0.0
 10
21.26633140354116
 20
164.0785939181839
 10
21.43091858179114
 20
163.2589568399519
 10
21.57282393847146
 20
162.7423388631875
 10
21.80053257561932
 20
162.3239125764996
 10
22.10842006227858
 20
161.9857955528328
 10
22.47464335125814
 20
161.6955444801826
 10
22.87735939536687
 20
161.4207160465451
 10
23.29472514741368
 20
161.1288669399161
 10
23.70489756020752
 20
160.7875538482915
 10
24.08603358655723
 20
160.364333459667
 10
24.41629017927169
 20
159.8267624620388
 10
24.69087024247448
 20
159.1631436747515
 10
24.72409443697108
 20
159.0785939181839
  0
LINE
  5
EF7C896E7
330
EF7C85532
100
AcDbEntity
  8
JISSEN
100
AcDbLine
 10
65.00000039266661
 20
159.0785939181839
 30
0.0
 11
65.00000039266661
 21
164.0785939181839
 31
0.0
  0
LINE
  5
EF7C896E8
330
EF7C85532
100
AcDbEntity
  8
SUNPOU
100
AcDbLine
 10
45.14116580332664
 20
159.0785939181839
 30
0.0
 11
45.14116580332664
 21
159.0785939181839
 31
0.0
  0
ARC
  5
EF7C896E9
330
EF7C85532
100
AcDbEntity
  8
JISSEN
100
AcDbCircle
 10
56.99991695464944
 20
158.5749414813444
 30
0.0
 40
1.0
100
AcDbArc
 50
180.0
 51
259.7516211656066
  0
LINE
  5
EF7C896EA
330
EF7C85532
100
AcDbEntity
  8
JISSEN
100
AcDbLine
 10
55.99991695464945
 20
158.5749414813444
 30
0.0
 11
55.99991695464945
 21
159.0785939181869
 31
0.0
  0
LWPOLYLINE
  5
EF7C896EB
330
EF7C85532
100
AcDbEntity
  8
NITEN
100
AcDbPolyline
 90
        5
 70
     0
 43
0.0
 10
107.0000003926666
 20
228.439142823908
 10
107.0000003926666
 20
249.2768604750537
 42
-0.5882352941176477
 10
90.00000039266661
 20
249.2768604750537
 42
0.5882352941176478
 10
73.0000003926666
 20
249.2768604750535
 10
73.0000003926666
 20
228.439142823908
  0
LINE
  5
EF7C896EC
330
EF7C85532
100
AcDbEntity
  8
JISSEN
100
AcDbLine
 10
158.7336693817921
 20
164.0785939181839
 30
0.0
 11
108.5000003926661
 21
164.0785939181839
 31
0.0
  0
INSERT
  5
EF7C896ED
330
EF7C85532
100
AcDbEntity
  8
HATCH
100
AcDbBlockReference
  2
*X24
 10
180.0000003926666
 20
19.99999975762807
 30
0.0
 41
-1.0
1001
ACAD
1000
HATCH
1002
{
1070
    16
1000
_U
1040
2.0
1040
0.7853981633974483
1070
     0
1002
}
  0
LINE
  5
EF7C896EE
330
EF7C85532
100
AcDbEntity
  8
JISSEN
100
AcDbLine
 10
108.5000003926661
 20
159.0785939181839
 30
0.0
 11
155.2759063483621
 21
159.0785939181839
 31
0.0
  0
LINE
  5
EF7C896EF
330
EF7C85532
100
AcDbEntity
  8
JISSEN
100
AcDbLine
 10
100.2606805311812
 20
196.3179137796698
 30
0.0
 11
100.6138903872946
 21
185.0785939181841
 31
0.0
  0
LINE
  5
EF7C896F0
330
EF7C85532
100
AcDbEntity
  8
SAISEN
 62
     7
100
AcDbLine
 10
99.2561569846584
 20
197.3224373261927
 30
0.0
 11
99.64093526499169
 21
185.0785939181841
 31
0.0
  0
LINE
  5
EF7C896F1
330
EF7C85532
100
AcDbEntity
  8
JISSEN
100
AcDbLine
 10
79.73932025415189
 20
196.3179137796698
 30
0.0
 11
79.38611039803847
 21
185.0785939181841
 31
0.0
  0
LINE
  5
EF7C896F2
330
EF7C85532
100
AcDbEntity
  8
SAISEN
 62
     7
100
AcDbLine
 10
80.74384380067471
 20
197.3224373261927
 30
0.0
 11
80.35906552034141
 21
185.0785939181841
 31
0.0
  0
LINE
  5
EF7C896F3
330
EF7C85532
100
AcDbEntity
  8
JISSEN
100
AcDbLine
 10
108.1499169546519
 20
154.8819514845776
 30
0.0
 11
91.49991695465052
 21
154.8819514845781
 31
0.0
  0
LINE
  5
EF7C896F4
330
EF7C85532
100
AcDbEntity
  8
JISSEN
100
AcDbLine
 10
107.1499169546501
 20
154.0785939181837
 30
0.0
 11
91.49991695465052
 21
154.0785939181837
 31
0.0
  0
LINE
  5
EF7C896F5
330
EF7C85532
100
AcDbEntity
  8
JISSEN
100
AcDbLine
 10
94.52789329739378
 20
147.4704943522257
 30
0.0
 11
97.12596950874704
 21
147.4704943522257
 31
0.0
  0
LINE
  5
EF7C896F6
330
EF7C85532
100
AcDbEntity
  8
JISSEN
100
AcDbLine
 10
101.1320008788644
 20
147.1704943522257
 30
0.0
 11
91.49991695464981
 21
147.1704943522257
 31
0.0
  0
LINE
  5
EF7C896F7
330
EF7C85532
100
AcDbEntity
  8
JISSEN
100
AcDbLine
 10
91.49991695464953
 20
144.2206276390533
 30
0.0
 11
99.25000039266691
 21
144.2206276390533
 31
0.0
  0
LINE
  5
EF7C896F8
330
EF7C85532
100
AcDbEntity
  8
JISSEN
100
AcDbLine
 10
99.25000039266691
 20
144.5206276390533
 30
0.0
 11
91.49991695464956
 21
144.5206276390533
 31
0.0
  0
LINE
  5
EF7C896F9
330
EF7C85532
100
AcDbEntity
  8
JISSEN
100
AcDbLine
 10
103.7861853528658
 20
151.6878152124995
 30
0.0
 11
91.49991695465024
 21
151.6878152124996
 31
0.0
  0
LINE
  5
EF7C896FA
330
EF7C85532
100
AcDbEntity
  8
JISSEN
100
AcDbLine
 10
91.49991695464953
 20
144.0206276390533
 30
0.0
 11
98.00000039266691
 21
144.0206276390532
 31
0.0
  0
ELLIPSE
  5
EF7C896FB
330
EF7C85532
100
AcDbEntity
  8
JISSEN
100
AcDbEllipse
 10
96.92357177346137
 20
150.1527303546074
 30
0.0
 11
0.5496393822008371
 21
1.479185241978597
 31
0.0
210
0.0
220
0.0
230
-1.0
 40
0.7629139298608055
 41
4.660626179689004
 42
8.00239985888083
  0
LINE
  5
EF7C896FC
330
EF7C85532
100
AcDbEntity
  8
JISSEN
100
AcDbLine
 10
108.250000392665
 20
185.0785939181839
 30
0.0
 11
90.5000003926643
 21
185.0785939181843
 31
0.0
  0
LINE
  5
EF7C896FD
330
EF7C85532
100
AcDbEntity
  8
JISSEN
100
AcDbLine
 10
108.500000392665
 20
159.0785939181839
 30
0.0
 11
71.50000039266712
 21
159.0785939181839
 31
0.0
  0
LINE
  5
EF7C896FE
330
EF7C85532
100
AcDbEntity
  8
JISSEN
100
AcDbLine
 10
71.50000039266803
 20
184.828593918184
 30
0.0
 11
71.50000039266803
 21
159.0785939181839
 31
0.0
  0
LINE
  5
EF7C896FF
330
EF7C85532
100
AcDbEntity
  8
JISSEN
100
AcDbLine
 10
72.84991695464981
 20
154.0785939181837
 30
0.0
 11
88.4999169546494
 21
154.0785939181837
 31
0.0
  0
LINE
  5
EF7C89700
330
EF7C85532
100
AcDbEntity
  8
JISSEN
100
AcDbLine
 10
71.84991695464799
 20
154.8819514845776
 30
0.0
 11
88.4999169546494
 21
154.8819514845781
 31
0.0
  0
ELLIPSE
  5
EF7C89701
330
EF7C85532
100
AcDbEntity
  8
JISSEN
100
AcDbEllipse
 10
83.07642901187174
 20
150.1527303546074
 30
0.0
 11
-0.5496393822008371
 21
1.479185241978597
 31
0.0
210
0.0
220
0.0
230
1.0
 40
0.7629139298608055
 41
4.660626179689004
 42
8.00239985888083
  0
LINE
  5
EF7C89702
330
EF7C85532
100
AcDbEntity
  8
JISSEN
100
AcDbLine
 10
88.49991695465044
 20
144.0206276390533
 30
0.0
 11
82.00000039266617
 21
144.0206276390532
 31
0.0
  0
LINE
  5
EF7C89703
330
EF7C85532
100
AcDbEntity
  8
JISSEN
100
AcDbLine
 10
76.21381543246721
 20
151.6878152124995
 30
0.0
 11
88.4999169546497
 21
151.6878152124996
 31
0.0
  0
LINE
  5
EF7C89704
330
EF7C85532
100
AcDbEntity
  8
JISSEN
100
AcDbLine
 10
80.75000039266617
 20
144.5206276390533
 30
0.0
 11
88.49991695465041
 21
144.5206276390533
 31
0.0
  0
LINE
  5
EF7C89705
330
EF7C85532
100
AcDbEntity
  8
JISSEN
100
AcDbLine
 10
88.49991695465043
 20
144.2206276390533
 30
0.0
 11
80.75000039266617
 21
144.2206276390533
 31
0.0
  0
LINE
  5
EF7C89706
330
EF7C85532
100
AcDbEntity
  8
JISSEN
100
AcDbLine
 10
78.86799990646867
 20
147.1704943522257
 30
0.0
 11
88.49991695465014
 21
147.1704943522257
 31
0.0
  0
LINE
  5
EF7C89707
330
EF7C85532
100
AcDbEntity
  8
JISSEN
100
AcDbLine
 10
76.20031943358483
 20
154.0785939181838
 30
0.0
 11
76.20031943358483
 21
151.8045378944275
 31
0.0
  0
ARC
  5
EF7C89708
330
EF7C85532
100
AcDbEntity
  8
JISSEN
100
AcDbCircle
 10
82.00000039266617
 20
144.3206276390533
 30
0.0
 40
0.3
100
AcDbArc
 50
199.4712206348864
 51
270.0
  0
LINE
  5
EF7C89709
330
EF7C85532
100
AcDbEntity
  8
JISSEN
100
AcDbLine
 10
80.75000039266617
 20
144.2206276390533
 30
0.0
 11
80.75000039266617
 21
144.5206276390533
 31
0.0
  0
LINE
  5
EF7C8970A
330
EF7C85532
100
AcDbEntity
  8
JISSEN
100
AcDbLine
 10
80.75000039266617
 20
144.2206276390533
 30
0.0
 11
80.75000039266617
 21
144.5206276390533
 31
0.0
  0
ARC
  5
EF7C8970B
330
EF7C85532
100
AcDbEntity
  8
JISSEN
100
AcDbCircle
 10
78.86799990646867
 20
147.7704943522257
 30
0.0
 40
0.6
100
AcDbArc
 50
207.000000000001
 51
270.0
  0
LINE
  5
EF7C8970C
330
EF7C85532
100
AcDbEntity
  8
JISSEN
100
AcDbLine
 10
79.15745983044885
 20
147.4704943522257
 30
0.0
 11
77.63571966768885
 21
150.106225630044
 31
0.0
  0
ELLIPSE
  5
EF7C8970D
330
EF7C85532
100
AcDbEntity
  8
JISSEN
100
AcDbEllipse
 10
78.42330737900025
 20
150.0327487442356
 30
0.0
 11
-0.9570800929208298
 21
1.631415246132561
 31
0.0
210
0.0
220
0.0
230
1.0
 40
0.3500976397713617
 41
4.531254461994576
 42
7.607279528082885
  0
ARC
  5
EF7C8970E
330
EF7C85532
100
AcDbEntity
  8
JISSEN
100
AcDbCircle
 10
76.70031943358484
 20
151.8045378944275
 30
0.0
 40
0.5
100
AcDbArc
 50
180.0
 51
207.000000000001
  0
LINE
  5
EF7C8970F
330
EF7C85532
100
AcDbEntity
  8
JISSEN
100
AcDbLine
 10
76.2548161714906
 20
151.5775426445578
 30
0.0
 11
78.33339599195565
 21
147.498100052382
 31
0.0
  0
LINE
  5
EF7C89710
330
EF7C85532
100
AcDbEntity
  8
JISSEN
100
AcDbLine
 10
80.65745983044886
 20
147.4704943522257
 30
0.0
 11
79.15745983044885
 21
147.4704943522257
 31
0.0
  0
LINE
  5
EF7C89711
330
EF7C85532
100
AcDbEntity
  8
JISSEN
100
AcDbLine
 10
80.65745983044886
 20
147.4704943522257
 30
0.0
 11
79.15753169868256
 21
150.0684460841468
 31
0.0
  0
LINE
  5
EF7C89712
330
EF7C85532
100
AcDbEntity
  8
JISSEN
100
AcDbLine
 10
87.85063835848214
 20
147.1706276718018
 30
0.0
 11
87.85063835848214
 21
146.2704434734416
 31
0.0
  0
INSERT
  5
EF7C89713
330
EF7C85532
100
AcDbEntity
  8
SUNPOU
100
AcDbBlockReference
  2
ARROW
 10
86.00000039266609
 20
144.020627639053
 30
0.0
 41
1.5
 42
1.5
 43
1.5
 50
64.07193552635378
  0
LINE
  5
EF7C89714
330
EF7C85532
100
AcDbEntity
  8
JISSEN
100
AcDbLine
 10
88.30031943358463
 20
145.0206276390533
 30
0.0
 11
88.26057087795041
 21
145.0206276390533
 31
0.0
  0
ARC
  5
EF7C89715
330
EF7C85532
100
AcDbEntity
  8
JISSEN
100
AcDbCircle
 10
87.10000039266621
 20
144.6206276390531
 30
0.0
 40
0.1
100
AcDbArc
 50
270.0
 51
0.0
  0
ARC
  5
EF7C89716
330
EF7C85532
100
AcDbEntity
  8
JISSEN
100
AcDbCircle
 10
87.60000039266619
 20
144.6206276390532
 30
0.0
 40
0.4
100
AcDbArc
 50
89.99999999999674
 51
179.9999999999674
  0
LINE
  5
EF7C89717
330
EF7C85532
100
AcDbEntity
  8
JISSEN
100
AcDbLine
 10
87.8506198746003
 20
146.5707609264576
 30
0.0
 11
87.8506384745032
 21
146.8707609258809
 31
0.0
  0
LINE
  5
EF7C89718
330
EF7C85532
100
AcDbEntity
  8
JISSEN
100
AcDbLine
 10
87.20000039266611
 20
144.6206276390535
 30
0.0
 11
87.20000039266622
 21
144.6206276390531
 31
0.0
  0
LINE
  5
EF7C89719
330
EF7C85532
100
AcDbEntity
  8
JISSEN
100
AcDbLine
 10
87.85063835848214
 20
146.0708118701619
 30
0.0
 11
87.85063835848214
 21
145.0206276718017
 31
0.0
  0
LINE
  5
EF7C8971A
330
EF7C85532
100
AcDbEntity
  8
JISSEN
100
AcDbLine
 10
87.85031931756364
 20
146.0706276718017
 30
0.0
 11
88.02352439832047
 21
146.1706276718018
 31
0.0
  0
LINE
  5
EF7C8971B
330
EF7C85532
100
AcDbEntity
  8
JISSEN
100
AcDbLine
 10
88.02352439832047
 20
146.1706276718018
 30
0.0
 11
87.85031931756364
 21
146.2706276718018
 31
0.0
  0
LINE
  5
EF7C8971C
330
EF7C85532
100
AcDbEntity
  8
SUNPOU
 62
     7
100
AcDbLine
 10
88.02352439832047
 20
146.1706276718018
 30
0.0
 11
88.49991695465025
 21
146.1706276718018
 31
0.0
  0
LINE
  5
EF7C8971D
330
EF7C85532
100
AcDbEntity
  8
SUNPOU
 62
     7
100
AcDbLine
 10
87.85063835848214
 20
146.2704434734416
 30
0.0
 11
88.49991695465023
 21
146.2704434734416
 31
0.0
  0
LINE
  5
EF7C8971E
330
EF7C85532
100
AcDbEntity
  8
SUNPOU
 62
     7
100
AcDbLine
 10
87.85063835848214
 20
146.0708118701619
 30
0.0
 11
88.49991695465027
 21
146.0708118701619
 31
0.0
  0
LINE
  5
EF7C8971F
330
EF7C85532
100
AcDbEntity
  8
JISSEN
100
AcDbLine
 10
87.60000039266619
 20
145.0206276390533
 30
0.0
 11
88.49991695465034
 21
145.0206276390532
 31
0.0
  0
LINE
  5
EF7C89720
330
EF7C85532
100
AcDbEntity
  8
JISSEN
100
AcDbLine
 10
82.04134836908933
 20
149.5198190386959
 30
0.0
 11
82.87403127658606
 21
147.4704943522257
 31
0.0
  0
LINE
  5
EF7C89721
330
EF7C85532
100
AcDbEntity
  8
JISSEN
100
AcDbLine
 10
85.47210748793933
 20
147.4704943522257
 30
0.0
 11
82.87403127658606
 21
147.4704943522257
 31
0.0
  0
LINE
  5
EF7C89722
330
EF7C85532
100
AcDbEntity
  8
JISSEN
100
AcDbLine
 10
84.23085633023303
 20
150.4979821882795
 30
0.0
 11
85.47210748793933
 21
147.4704943522257
 31
0.0
  0
LINE
  5
EF7C89723
330
EF7C85532
100
AcDbEntity
  8
JISSEN
100
AcDbLine
 10
87.8503194335847
 20
147.1706276390533
 30
0.0
 11
88.49991695465014
 21
147.1706276390534
 31
0.0
  0
LINE
  5
EF7C89724
330
EF7C85532
100
AcDbEntity
  8
JISSEN
100
AcDbLine
 10
92.14936242685096
 20
147.1706276718018
 30
0.0
 11
92.14936242685096
 21
146.2704434734416
 31
0.0
  0
ARC
  5
EF7C89725
330
EF7C85532
100
AcDbEntity
  8
JISSEN
100
AcDbCircle
 10
92.40000039266689
 20
144.6206276390532
 30
0.0
 40
0.4
100
AcDbArc
 50
0.0000000000325759
 51
90.00000000000321
  0
LINE
  5
EF7C89726
330
EF7C85532
100
AcDbEntity
  8
JISSEN
100
AcDbLine
 10
91.97647638701264
 20
146.1706276718018
 30
0.0
 11
92.14968146776945
 21
146.2706276718018
 31
0.0
  0
LINE
  5
EF7C89727
330
EF7C85532
100
AcDbEntity
  8
JISSEN
100
AcDbLine
 10
92.14968146776945
 20
146.0706276718017
 30
0.0
 11
91.97647638701264
 21
146.1706276718018
 31
0.0
  0
LINE
  5
EF7C89728
330
EF7C85532
100
AcDbEntity
  8
JISSEN
100
AcDbLine
 10
92.14936242685096
 20
146.0708118701619
 30
0.0
 11
92.14936242685096
 21
145.0206276718017
 31
0.0
  0
LINE
  5
EF7C89729
330
EF7C85532
100
AcDbEntity
  8
JISSEN
100
AcDbLine
 10
92.14938091073278
 20
146.5707609264576
 30
0.0
 11
92.1493623108299
 21
146.8707609258809
 31
0.0
  0
LINE
  5
EF7C8972A
330
EF7C85532
100
AcDbEntity
  8
JISSEN
100
AcDbLine
 10
91.69968135174846
 20
145.0206276390533
 30
0.0
 11
91.73942990738268
 21
145.0206276390533
 31
0.0
  0
LINE
  5
EF7C8972B
330
EF7C85532
100
AcDbEntity
  8
JISSEN
100
AcDbLine
 10
92.40000039266689
 20
145.0206276390533
 30
0.0
 11
91.49991695464962
 21
145.0206276390532
 31
0.0
  0
LINE
  5
EF7C8972C
330
EF7C85532
100
AcDbEntity
  8
SUNPOU
 62
     7
100
AcDbLine
 10
92.14936242685096
 20
146.0708118701619
 30
0.0
 11
91.49991695464972
 21
146.0708118701619
 31
0.0
  0
LINE
  5
EF7C8972D
330
EF7C85532
100
AcDbEntity
  8
SUNPOU
 62
     7
100
AcDbLine
 10
92.14936242685096
 20
146.2704434734416
 30
0.0
 11
91.49991695464974
 21
146.2704434734416
 31
0.0
  0
LINE
  5
EF7C8972E
330
EF7C85532
100
AcDbEntity
  8
SUNPOU
 62
     7
100
AcDbLine
 10
91.97647638701264
 20
146.1706276718018
 30
0.0
 11
91.49991695464974
 21
146.1706276718018
 31
0.0
  0
LINE
  5
EF7C8972F
330
EF7C85532
100
AcDbEntity
  8
JISSEN
100
AcDbLine
 10
92.80000039266699
 20
144.6206276390535
 30
0.0
 11
92.80000039266687
 21
144.6206276390531
 31
0.0
  0
ARC
  5
EF7C89730
330
EF7C85532
100
AcDbEntity
  8
JISSEN
100
AcDbCircle
 10
92.9000003926669
 20
144.6206276390531
 30
0.0
 40
0.1
100
AcDbArc
 50
180.0
 51
270.0
  0
LINE
  5
EF7C89731
330
EF7C85532
100
AcDbEntity
  8
JISSEN
100
AcDbLine
 10
92.1496813517484
 20
147.1706276390533
 30
0.0
 11
91.49991695464981
 21
147.1706276390534
 31
0.0
  0
LINE
  5
EF7C89732
330
EF7C85532
100
AcDbEntity
  8
JISSEN
100
AcDbLine
 10
95.76914445510007
 20
150.4979821882795
 30
0.0
 11
94.52789329739378
 21
147.4704943522257
 31
0.0
  0
ELLIPSE
  5
EF7C89733
330
EF7C85532
100
AcDbEntity
  8
JISSEN
100
AcDbEllipse
 10
89.9999169546503
 20
154.8819514845781
 30
0.0
 11
0.0
 21
2.6733896743317
 31
0.0
210
0.0
220
0.0
230
1.0
 40
0.5610854318774398
 41
6.283185307179585
 42
7.853981633974482
  0
ELLIPSE
  5
EF7C89734
330
EF7C85532
100
AcDbEntity
  8
JISSEN
100
AcDbEllipse
 10
89.99991695465054
 20
154.8819514845749
 30
0.0
 11
0.0
 21
2.6733896743317
 31
0.0
210
0.0
220
0.0
230
1.0
 40
0.5610854318774398
 41
4.712388980384688
 42
6.283185307179585
  0
LINE
  5
EF7C89735
330
EF7C85532
100
AcDbEntity
  8
JISSEN
100
AcDbLine
 10
71.75000039266518
 20
185.0785939181839
 30
0.0
 11
89.5000003926661
 21
185.0785939181843
 31
0.0
  0
LINE
  5
EF7C89736
330
EF7C85532
100
AcDbEntity
  8
JISSEN
100
AcDbLine
 10
73.50195363688903
 20
185.0785939181839
 30
0.0
 11
73.50195363688903
 21
167.6785939181839
 31
0.0
  0
LINE
  5
EF7C89737
330
EF7C85532
100
AcDbEntity
  8
JISSEN
100
AcDbLine
 10
74.50195363688902
 20
185.0785939181839
 30
0.0
 11
74.50195363688902
 21
167.6785939181839
 31
0.0
  0
LINE
  5
EF7C89738
330
EF7C85532
100
AcDbEntity
  8
JISSEN
100
AcDbLine
 10
74.50195363688902
 20
167.6785939181839
 30
0.0
 11
73.50195363688903
 21
167.6785939181839
 31
0.0
  0
LINE
  5
EF7C89739
330
EF7C85532
100
AcDbEntity
  8
JISSEN
100
AcDbLine
 10
71.75000039266518
 20
185.0785939181839
 30
0.0
 11
71.50000039266519
 21
184.828593918184
 31
0.0
  0
LINE
  5
EF7C8973A
330
EF7C85532
100
AcDbEntity
  8
JISSEN
100
AcDbLine
 10
90.5000003926643
 20
185.0785939181839
 30
0.0
 11
90.5000003926643
 21
167.6785939181846
 31
0.0
  0
LINE
  5
EF7C8973B
330
EF7C85532
100
AcDbEntity
  8
JISSEN
100
AcDbLine
 10
89.5000003926661
 20
185.0785939181839
 30
0.0
 11
89.5000003926661
 21
167.6785939181846
 31
0.0
  0
LINE
  5
EF7C8973C
330
EF7C85532
100
AcDbEntity
  8
JISSEN
100
AcDbLine
 10
89.5000003926661
 20
167.6785939181846
 30
0.0
 11
90.00000039266517
 21
167.6785939181846
 31
0.0
  0
LINE
  5
EF7C8973D
330
EF7C85532
100
AcDbEntity
  8
JISSEN
100
AcDbLine
 10
90.5000003926643
 20
167.6785939181846
 30
0.0
 11
90.00000039266517
 21
167.6785939181846
 31
0.0
  0
LINE
  5
EF7C8973E
330
EF7C85532
100
AcDbEntity
  8
JISSEN
100
AcDbLine
 10
115.0000003926667
 20
159.0785939181839
 30
0.0
 11
115.0000003926667
 21
164.0785939181839
 31
0.0
  0
LINE
  5
EF7C8973F
330
EF7C85532
100
AcDbEntity
  8
JISSEN
100
AcDbLine
 10
108.500000392665
 20
184.828593918184
 30
0.0
 11
108.500000392665
 21
159.0785939181839
 31
0.0
  0
LINE
  5
EF7C89740
330
EF7C85532
100
AcDbEntity
  8
TENSEN
100
AcDbLine
 10
108.500000392665
 20
164.0785939181839
 30
0.0
 11
108.500000392665
 21
162.0235873097147
 31
0.0
  0
LINE
  5
EF7C89741
330
EF7C85532
100
AcDbEntity
  8
JISSEN
 48
3.0
100
AcDbLine
 10
108.2388748057961
 20
154.8899286185229
 30
0.0
 11
123.1778326569389
 21
157.5908957492369
 31
0.0
  0
ARC
  5
EF7C89742
330
EF7C85532
100
AcDbEntity
  8
JISSEN
100
AcDbCircle
 10
126.1499169546501
 20
143.0785939181873
 30
0.0
 40
15.0
100
AcDbArc
 50
109.3883336172967
 51
180.0
  0
LINE
  5
EF7C89743
330
EF7C85532
100
AcDbEntity
  8
JISSEN
100
AcDbLine
 10
103.7996813517482
 20
154.0785939181838
 30
0.0
 11
103.7996813517482
 21
151.8045378944275
 31
0.0
  0
LINE
  5
EF7C89744
330
EF7C85532
100
AcDbEntity
  8
JISSEN
100
AcDbLine
 10
103.7451846138425
 20
151.5775426445578
 30
0.0
 11
101.6666047933774
 21
147.498100052382
 31
0.0
  0
LINE
  5
EF7C89745
330
EF7C85532
100
AcDbEntity
  8
JISSEN
100
AcDbLine
 10
99.25000039266691
 20
144.2206276390533
 30
0.0
 11
99.25000039266691
 21
144.5206276390533
 31
0.0
  0
LINE
  5
EF7C89746
330
EF7C85532
100
AcDbEntity
  8
JISSEN
100
AcDbLine
 10
99.25000039266691
 20
144.2206276390533
 30
0.0
 11
99.25000039266691
 21
144.5206276390533
 31
0.0
  0
ARC
  5
EF7C89747
330
EF7C85532
100
AcDbEntity
  8
JISSEN
100
AcDbCircle
 10
98.00000039266691
 20
144.3206276390533
 30
0.0
 40
0.3
100
AcDbArc
 50
270.0
 51
340.5287793651136
  0
LINE
  5
EF7C89748
330
EF7C85532
100
AcDbEntity
  8
JISSEN
100
AcDbLine
 10
99.34254095488425
 20
147.4704943522257
 30
0.0
 11
100.8424690866505
 21
150.0684460841468
 31
0.0
  0
LINE
  5
EF7C89749
330
EF7C85532
100
AcDbEntity
  8
JISSEN
100
AcDbLine
 10
99.34254095488425
 20
147.4704943522257
 30
0.0
 11
100.8425409548842
 21
147.4704943522257
 31
0.0
  0
LINE
  5
EF7C8974A
330
EF7C85532
100
AcDbEntity
  8
JISSEN
100
AcDbLine
 10
97.95865241624378
 20
149.5198190386959
 30
0.0
 11
97.12596950874704
 21
147.4704943522257
 31
0.0
  0
ELLIPSE
  5
EF7C8974B
330
EF7C85532
100
AcDbEntity
  8
JISSEN
100
AcDbEllipse
 10
101.5766934063328
 20
150.0327487442356
 30
0.0
 11
0.9570800929208298
 21
1.631415246132561
 31
0.0
210
0.0
220
0.0
230
-1.0
 40
0.3500976397713617
 41
4.531254461994576
 42
7.607279528082885
  0
LINE
  5
EF7C8974C
330
EF7C85532
100
AcDbEntity
  8
JISSEN
100
AcDbLine
 10
100.8425409548842
 20
147.4704943522257
 30
0.0
 11
102.3642811176442
 21
150.106225630044
 31
0.0
  0
ARC
  5
EF7C8974D
330
EF7C85532
100
AcDbEntity
  8
JISSEN
100
AcDbCircle
 10
101.1320008788644
 20
147.7704943522257
 30
0.0
 40
0.6
100
AcDbArc
 50
270.0
 51
332.9999999999989
  0
ARC
  5
EF7C8974E
330
EF7C85532
100
AcDbEntity
  8
JISSEN
100
AcDbCircle
 10
103.2996813517482
 20
151.8045378944275
 30
0.0
 40
0.5
100
AcDbArc
 50
332.9999999999989
 51
0.000000000000007
  0
ARC
  5
EF7C8974F
330
EF7C85532
100
AcDbEntity
  8
JISSEN
 48
3.0
100
AcDbCircle
 10
108.1499169546519
 20
155.3819514845777
 30
0.0
 40
0.5
100
AcDbArc
 50
270.0
 51
280.2483788343934
  0
INSERT
  5
EF7C89750
330
EF7C85532
100
AcDbEntity
  8
SUNPOU
100
AcDbBlockReference
  2
ARROW
 10
112.6641406286292
 20
149.6462294808944
 30
0.0
 41
1.5
 42
1.5
 43
1.5
 50
116.2503179468659
  0
ARC
  5
EF7C89751
330
EF7C85532
100
AcDbEntity
  8
JISSEN
100
AcDbCircle
 10
122.9999169546505
 20
158.5749414813444
 30
0.0
 40
1.0
100
AcDbArc
 50
280.2483788343934
 51
0.0
  0
LINE
  5
EF7C89752
330
EF7C85532
100
AcDbEntity
  8
JISSEN
100
AcDbLine
 10
123.9999169546505
 20
158.5749414813444
 30
0.0
 11
123.9999169546505
 21
159.0785939181869
 31
0.0
  0
LINE
  5
EF7C89753
330
EF7C85532
100
AcDbEntity
  8
JISSEN
100
AcDbLine
 10
106.4980471484413
 20
185.0785939181839
 30
0.0
 11
106.4980471484413
 21
167.6785939181839
 31
0.0
  0
LINE
  5
EF7C89754
330
EF7C85532
100
AcDbEntity
  8
JISSEN
100
AcDbLine
 10
105.4980471484413
 20
185.0785939181839
 30
0.0
 11
105.4980471484413
 21
167.6785939181839
 31
0.0
  0
LINE
  5
EF7C89755
330
EF7C85532
100
AcDbEntity
  8
JISSEN
100
AcDbLine
 10
105.4980471484413
 20
167.6785939181839
 30
0.0
 11
106.4980471484413
 21
167.6785939181839
 31
0.0
  0
LINE
  5
EF7C89756
330
EF7C85532
100
AcDbEntity
  8
JISSEN
100
AcDbLine
 10
108.250000392665
 20
185.0785939181839
 30
0.0
 11
108.500000392665
 21
184.828593918184
 31
0.0
  0
LINE
  5
EF7C89757
330
EF7C85532
100
AcDbEntity
  8
SUNPOU
 62
     7
100
AcDbLine
 10
100.2606805311813
 20
196.3179137796698
 30
0.0
 11
90.00000039266655
 21
196.3179137796698
 31
0.0
  0
LINE
  5
EF7C89758
330
EF7C85532
100
AcDbEntity
  8
HOJYO
100
AcDbLine
 10
90.00000039266655
 20
197.5785939181847
 30
0.0
 11
99.00000039266643
 21
197.5785939181846
 31
0.0
  0
LWPOLYLINE
  5
EF7C89759
330
EF7C85532
100
AcDbEntity
  8
NITEN
100
AcDbPolyline
 90
       15
 70
     1
 43
0.0
 10
76.0000003926666
 20
187.9391428239079
 42
0.4142135623730927
 10
77.50000039266653
 20
186.4391428239079
 10
100.594051563663
 20
186.4391428239079
 10
102.5000003926665
 20
186.4391428239079
 42
0.4142135623730925
 10
104.0000003926666
 20
187.9391428239079
 10
104.0000003926666
 20
198.9851588501259
 42
-0.4142135623730943
 10
109.0000003926663
 20
203.9851588501259
 42
0.4142135623730951
 10
111.0000003926666
 20
205.9851588501259
 10
111.0000003926663
 20
226.439142823908
 42
0.414213562373095
 10
109.0000003926666
 20
228.439142823908
 10
71.0000003926666
 20
228.439142823908
 42
0.4142135623730951
 10
69.00000039266661
 20
226.439142823908
 10
69.00000039266661
 20
205.9851588501259
 42
0.4142135623730951
 10
71.0000003926666
 20
203.9851588501259
 42
-0.4142135623730961
 10
76.0000003926666
 20
198.9851588501259
  0
LINE
  5
EF7C8975A
330
EF7C85532
100
AcDbEntity
  8
HOJYO
100
AcDbLine
 10
90.00000039266655
 20
197.5785939181847
 30
0.0
 11
81.00000039266666
 21
197.5785939181846
 31
0.0
  0
LINE
  5
EF7C8975B
330
EF7C85532
100
AcDbEntity
  8
SUNPOU
 62
     7
100
AcDbLine
 10
79.73932025415177
 20
196.3179137796698
 30
0.0
 11
90.00000039266655
 21
196.3179137796698
 31
0.0
  0
LINE
  5
EF7C8975C
330
EF7C85532
100
AcDbEntity
  8
JISSEN
100
AcDbLine
 10
79.73932025415189
 20
196.3179137796698
 30
0.0
 11
81.00000039266666
 21
197.5785939181846
 31
0.0
  0
LINE
  5
EF7C8975D
330
EF7C85532
100
AcDbEntity
  8
HOJYO
100
AcDbLine
 10
81.92059176041352
 20
197.5785939181846
 30
0.0
 11
81.00000039266666
 21
197.5785939181846
 31
0.0
  0
LINE
  5
EF7C8975E
330
EF7C85532
100
AcDbEntity
  8
JISSEN
100
AcDbLine
 10
100.2606805311812
 20
196.3179137796698
 30
0.0
 11
99.00000039266643
 21
197.5785939181846
 31
0.0
  0
LINE
  5
EF7C8975F
330
EF7C85532
100
AcDbEntity
  8
HOJYO
100
AcDbLine
 10
98.07940902491958
 20
197.5785939181846
 30
0.0
 11
99.00000039266643
 21
197.5785939181846
 31
0.0
  0
LWPOLYLINE
  5
EF7C89760
330
EF7C85532
100
AcDbEntity
  8
HATCH
100
AcDbPolyline
 90
       13
 70
     0
 43
0.0
 10
158.7336693817921
 20
164.0785939181839
 10
158.5690822035421
 20
163.2589568399519
 10
158.4271768468618
 20
162.7423388631875
 10
158.1994682097139
 20
162.3239125764996
 10
157.8915807230545
 20
161.9857955528328
 10
157.5253574340751
 20
161.6955444801826
 10
157.1226413899664
 20
161.4207160465451
 10
156.7052756379195
 20
161.1288669399161
 10
156.2951032251255
 20
160.7875538482915
 10
155.913967198776
 20
160.364333459667
 10
155.5837106060615
 20
159.8267624620388
 10
155.3091305428587
 20
159.1631436747515
 10
155.2759063483621
 20
159.0785939181839
  0
TEXT
  5
EF7C89761
330
EF7C85532
100
AcDbEntity
  8
TEXT
100
AcDbText
 10
105.471428240095
 20
272.642856676029
 30
0.0
 40
3.0
  1
VQR型ヘッド
  7
K
 72
     4
 11
116.4999996686665
 21
273.9999995331718
 31
0.0
100
AcDbText
  0
LINE
  5
EF7C89762
330
EF7C85532
100
AcDbEntity
  8
JISSEN
100
AcDbLine
 10
91.49999966866655
 20
264.999999757628
 30
0.0
 11
180.9999996686665
 21
264.999999757628
 31
0.0
  0
TEXT
  5
EF7C89763
330
EF7C85532
100
AcDbEntity
  8
TEXT
100
AcDbText
 10
107.8999996686665
 20
278.499999757628
 30
0.0
 40
3.0
  1
名      称
  7
K
 72
     4
 11
116.4999996686665
 21
279.999999757628
 31
0.0
100
AcDbText
  0
LINE
  5
EF7C89764
330
EF7C85532
100
AcDbEntity
  8
JISSEN
100
AcDbLine
 10
91.49999966866655
 20
270.999999757628
 30
0.0
 11
180.9999996686665
 21
270.999999757628
 31
0.0
  0
LINE
  5
EF7C89765
330
EF7C85532
100
AcDbEntity
  8
JISSEN
100
AcDbLine
 10
91.49999966866655
 20
276.999999757628
 30
0.0
 11
180.9999996686665
 21
276.999999757628
 31
0.0
  0
TEXT
  5
EF7C89766
330
EF7C85532
100
AcDbEntity
  8
TEXT
100
AcDbText
 10
95.2857139543809
 20
272.499999757628
 30
0.0
 40
3.0
  1
1
  7
K
 72
     4
 11
96.4999996686666
 21
273.999999757628
 31
0.0
100
AcDbText
  0
LINE
  5
EF7C89767
330
EF7C85532
100
AcDbEntity
  8
JISSEN
100
AcDbLine
 10
101.4999996686665
 20
282.9999997576279
 30
0.0
 11
101.4999996686665
 21
264.999999757628
 31
0.0
  0
LINE
  5
EF7C89768
330
EF7C85532
100
AcDbEntity
  8
JISSEN
100
AcDbLine
 10
91.49999966866655
 20
264.999999757628
 30
0.0
 11
91.49999966866655
 21
282.9999997576279
 31
0.0
  0
TEXT
  5
EF7C89769
330
EF7C85532
100
AcDbEntity
  8
TEXT
100
AcDbText
 10
95.38307207420094
 20
266.499999757628
 30
0.0
 40
3.0
  1
2
  7
K
 72
     4
 11
96.81164350277237
 21
267.999999757628
 31
0.0
100
AcDbText
  0
LWPOLYLINE
  5
EF7C8976A
330
EF7C85532
100
AcDbEntity
  8
NITEN
100
AcDbPolyline
 90
        2
 70
     0
 43
0.0
 10
107.0000003926666
 20
249.2768604750537
 42
0.5882352941176296
 10
90.00000039266657
 20
249.276860475054
 42
0.5882352941176296
  0
TEXT
  5
EF7C8976B
330
EF7C85532
100
AcDbEntity
  8
TEXT
100
AcDbText
 10
106.2999996686665
 20
266.499999757628
 30
0.0
 40
3.0
  1
ガード ZN 
  7
K
 72
     4
 11
116.4999996686665
 21
267.999999757628
 31
0.0
100
AcDbText
  0
TEXT
  5
EF7C8976C
330
EF7C85532
100
AcDbEntity
  8
TEXT
100
AcDbText
 10
93.2999996686666
 20
278.499999757628
 30
0.0
 40
3.0
  1
番号
  7
K
 72
     4
 11
96.4999996686666
 21
279.999999757628
 31
0.0
100
AcDbText
  0
TEXT
  5
EF7C8976D
330
EF7C85532
100
AcDbEntity
  8
TEXT
100
AcDbText
 10
156.6795481550757
 20
272.499999757628
 30
0.0
 40
3.0
  1
1
  7
K
 72
     4
 11
157.8938338693615
 21
273.999999757628
 31
0.0
100
AcDbText
  0
LINE
  5
EF7C8976E
330
EF7C85532
100
AcDbEntity
  8
JISSEN
100
AcDbLine
 10
163.4999996686665
 20
282.9999997576279
 30
0.0
 11
163.4999996686665
 21
264.999999757628
 31
0.0
  0
LINE
  5
EF7C8976F
330
EF7C85532
100
AcDbEntity
  8
JISSEN
100
AcDbLine
 10
152.4999996686664
 20
264.999999757628
 30
0.0
 11
152.4999996686664
 21
282.9999997576279
 31
0.0
  0
LINE
  5
EF7C89770
330
EF7C85532
100
AcDbEntity
  8
JISSEN
100
AcDbLine
 10
131.4999996686663
 20
282.9999997576279
 30
0.0
 11
131.4999996686663
 21
264.999999757628
 31
0.0
  0
TEXT
  5
EF7C89771
330
EF7C85532
100
AcDbEntity
  8
TEXT
100
AcDbText
 10
137.6428568115236
 20
266.499999757628
 30
0.0
 40
3.0
  1
PBT
  7
K
 72
     4
 11
141.9999996686664
 21
267.999999757628
 31
0.0
100
AcDbText
  0
TEXT
  5
EF7C89772
330
EF7C85532
100
AcDbEntity
  8
TEXT
100
AcDbText
 10
136.8249996686665
 20
274.299999757628
 30
0.0
 40
3.0
  1
%%u      
  7
K
 72
     4
 11
141.9999996686664
 21
273.999999757628
 31
0.0
100
AcDbText
  0
LINE
  5
EF7C89773
330
EF7C85532
100
AcDbEntity
  8
TEXT
100
AcDbLine
 10
126.3734716430579
 20
269.5005516356847
 30
0.0
 11
126.3734716430579
 21
266.5005516356846
 31
0.0
  0
LINE
  5
EF7C89774
330
EF7C85532
100
AcDbEntity
  8
TEXT
100
AcDbLine
 10
125.723471643058
 20
269.5005516356847
 30
0.0
 11
125.723471643058
 21
266.5005516356846
 31
0.0
  0
LINE
  5
EF7C89775
330
EF7C85532
100
AcDbEntity
  8
TEXT
100
AcDbLine
 10
127.0234716430579
 20
269.5005516356847
 30
0.0
 11
127.0234716430579
 21
266.5005516356846
 31
0.0
  0
LINE
  5
EF7C89776
330
EF7C85532
100
AcDbEntity
  8
TEXT
100
AcDbLine
 10
125.3734716430578
 20
266.5005516356846
 30
0.0
 11
127.3734716430579
 21
266.5005516356846
 31
0.0
  0
LINE
  5
EF7C89777
330
EF7C85532
100
AcDbEntity
  8
TEXT
100
AcDbLine
 10
125.3734716430578
 20
269.5005516356847
 30
0.0
 11
127.3734716430579
 21
269.5005516356847
 31
0.0
  0
TEXT
  5
EF7C89778
330
EF7C85532
100
AcDbEntity
  8
TEXT
100
AcDbText
 10
156.6795481550757
 20
266.5808349339689
 30
0.0
 40
3.0
  1
1
  7
K
 72
     4
 11
157.8938338693615
 21
268.0808349339689
 31
0.0
100
AcDbText
  0
TEXT
  5
EF7C89779
330
EF7C85532
100
AcDbEntity
  8
TEXT
100
AcDbText
 10
135.1999996686664
 20
278.499999757628
 30
0.0
 40
3.0
  1
材    質
  7
K
 72
     4
 11
141.9999996686664
 21
279.999999757628
 31
0.0
100
AcDbText
  0
TEXT
  5
EF7C8977A
330
EF7C85532
100
AcDbEntity
  8
TEXT
100
AcDbText
 10
165.6999996686664
 20
278.499999757628
 30
0.0
 40
3.0
  1
備    考
  7
K
 72
     4
 11
172.4999996686665
 21
279.999999757628
 31
0.0
100
AcDbText
  0
TEXT
  5
EF7C8977B
330
EF7C85532
100
AcDbEntity
  8
TEXT
100
AcDbText
 10
154.7999996686665
 20
278.499999757628
 30
0.0
 40
3.0
  1
個数
  7
K
 72
     4
 11
157.9999996686665
 21
279.999999757628
 31
0.0
100
AcDbText
  0
LINE
  5
EF7C8977C
330
EF7C85532
100
AcDbEntity
  8
JISSEN
 48
3.0
100
AcDbLine
 10
272.4999165267293
 20
154.8819514155402
 30
0.0
 11
272.4999165267274
 21
135.0785938490858
 31
0.0
  0
LINE
  5
EF7C8977D
330
EF7C85532
100
AcDbEntity
  8
JISSEN
 48
3.0
100
AcDbLine
 10
269.4999165267282
 20
154.8819514155402
 30
0.0
 11
269.49991652673
 21
135.0785938490858
 31
0.0
  0
LINE
  5
EF7C8977E
330
EF7C85532
100
AcDbEntity
  8
JISSEN
100
AcDbLine
 10
253.8499165267267
 20
154.8819514155399
 30
0.0
 11
253.8499165267257
 21
135.0785938490853
 31
0.0
  0
LINE
  5
EF7C8977F
330
EF7C85532
100
AcDbEntity
  8
JISSEN
100
AcDbLine
 10
249.8499165267286
 20
143.0785938491499
 30
0.0
 11
249.8499165267286
 21
133.5785938490876
 31
0.0
  0
LINE
  5
EF7C89780
330
EF7C85532
100
AcDbEntity
  8
JISSEN
100
AcDbLine
 10
292.149916526729
 20
143.0785938491499
 30
0.0
 11
292.149916526729
 21
133.5785938490876
 31
0.0
  0
LINE
  5
EF7C89781
330
EF7C85532
100
AcDbEntity
  8
JISSEN
100
AcDbLine
 10
288.1499165267308
 20
154.8819514155399
 30
0.0
 11
288.1499165267316
 21
135.0785938490853
 31
0.0
  0
LINE
  5
EF7C89782
330
EF7C85532
100
AcDbEntity
  8
JISSEN
100
AcDbLine
 10
278.4999999647444
 20
141.2048958322104
 30
0.0
 11
277.4999999647444
 21
142.4048958322103
 31
0.0
  0
LINE
  5
EF7C89783
330
EF7C85532
100
AcDbEntity
  8
JISSEN
100
AcDbLine
 10
263.4999999647444
 20
141.2048958322104
 30
0.0
 11
264.4999999647444
 21
142.4048958322103
 31
0.0
  0
LINE
  5
EF7C89784
330
EF7C85532
100
AcDbEntity
  8
JISSEN
 48
3.0
100
AcDbLine
 10
289.2388743778749
 20
84.88992854948554
 30
0.0
 11
304.1778322290176
 21
87.59089568019973
 31
0.0
  0
ARC
  5
EF7C89785
330
EF7C85532
100
AcDbEntity
  8
JISSEN
100
AcDbCircle
 10
307.1499165267289
 20
73.07859384915008
 30
0.0
 40
15.0
100
AcDbArc
 50
109.3883336172967
 51
180.0
  0
LINE
  5
EF7C89786
330
EF7C85532
100
AcDbEntity
  8
JISSEN
100
AcDbLine
 10
289.4999999647439
 20
89.07859443151176
 30
0.0
 11
336.2759059204399
 21
89.07859443151176
 31
0.0
  0
ARC
  5
EF7C89787
330
EF7C85532
100
AcDbEntity
  8
JISSEN
100
AcDbCircle
 10
237.9999165267282
 20
88.57494141230716
 30
0.0
 40
1.0
100
AcDbArc
 50
180.0
 51
259.7516211656066
  0
LINE
  5
EF7C89788
330
EF7C85532
100
AcDbEntity
  8
JISSEN
100
AcDbLine
 10
252.4999999647446
 20
89.07859443151176
 30
0.0
 11
205.7240940090489
 21
89.07859443151176
 31
0.0
  0
LINE
  5
EF7C89789
330
EF7C85532
100
AcDbEntity
  8
SUNPOU
100
AcDbLine
 10
226.1411653754045
 20
89.07859443151176
 30
0.0
 11
226.1411653754045
 21
89.07859443151176
 31
0.0
  0
LINE
  5
EF7C8978A
330
EF7C85532
100
AcDbEntity
  8
JISSEN
100
AcDbLine
 10
236.9999165267282
 20
88.57494141230716
 30
0.0
 11
236.9999165267282
 21
89.07859384914962
 31
0.0
  0
LINE
  5
EF7C8978B
330
EF7C85532
100
AcDbEntity
  8
JISSEN
100
AcDbLine
 10
253.8499165267286
 20
84.07859384914644
 30
0.0
 11
269.4999165267282
 21
84.07859384914644
 31
0.0
  0
LINE
  5
EF7C8978C
330
EF7C85532
100
AcDbEntity
  8
JISSEN
100
AcDbLine
 10
252.8499165267267
 20
84.88195141554042
 30
0.0
 11
269.4999165267282
 21
84.88195141554086
 31
0.0
  0
LINE
  5
EF7C8978D
330
EF7C85532
100
AcDbEntity
  8
JISSEN
100
AcDbLine
 10
251.3499165267276
 20
62.07859384914963
 30
0.0
 11
270.9999165267289
 21
62.07859384914963
 31
0.0
  0
LINE
  5
EF7C8978E
330
EF7C85532
100
AcDbEntity
  8
JISSEN
100
AcDbLine
 10
269.4999165267291
 20
65.07859384908596
 30
0.0
 11
251.3499165267276
 21
65.07859384908596
 31
0.0
  0
LINE
  5
EF7C8978F
330
EF7C85532
100
AcDbEntity
  8
JISSEN
100
AcDbLine
 10
264.4999999647445
 20
72.40489583221047
 30
0.0
 11
269.4999165267294
 21
72.40489583221045
 31
0.0
  0
LINE
  5
EF7C89790
330
EF7C85532
100
AcDbEntity
  8
JISSEN
100
AcDbLine
 10
269.4999165267294
 20
72.70489583221046
 30
0.0
 11
264.4999999647445
 21
72.70489583221046
 31
0.0
  0
LINE
  5
EF7C89791
330
EF7C85532
100
AcDbEntity
  8
JISSEN
100
AcDbLine
 10
269.4999165267296
 20
70.90903948809721
 30
0.0
 11
259.4999999647445
 21
70.90903948809752
 31
0.0
  0
LINE
  5
EF7C89792
330
EF7C85532
100
AcDbEntity
  8
JISSEN
100
AcDbLine
 10
259.4999999647445
 20
69.70489583221056
 30
0.0
 11
269.4999165267296
 21
69.70489583221045
 31
0.0
  0
LINE
  5
EF7C89793
330
EF7C85532
100
AcDbEntity
  8
JISSEN
100
AcDbLine
 10
268.024999964745
 20
68.80489583221079
 30
0.0
 11
265.2249999647448
 21
68.80489583221079
 31
0.0
  0
LINE
  5
EF7C89794
330
EF7C85532
100
AcDbEntity
  8
JISSEN
100
AcDbLine
 10
263.4999999647445
 20
71.20489583221057
 30
0.0
 11
269.4999165267295
 21
71.20489583221057
 31
0.0
  0
LINE
  5
EF7C89795
330
EF7C85532
100
AcDbEntity
  8
JISSEN
100
AcDbLine
 10
289.4999999647439
 20
89.07859443151176
 30
0.0
 11
252.4999999647456
 21
89.07859443151176
 31
0.0
  0
ARC
  5
EF7C89796
330
EF7C85532
100
AcDbEntity
  8
JISSEN
100
AcDbCircle
 10
234.8499165267285
 20
73.07859384915008
 30
0.0
 40
15.0
100
AcDbArc
 50
0.0
 51
70.61166638270329
  0
LINE
  5
EF7C89797
330
EF7C85532
100
AcDbEntity
  8
JISSEN
100
AcDbLine
 10
253.8499165267267
 20
84.88195141553996
 30
0.0
 11
253.8499165267257
 21
65.07859384908551
 31
0.0
  0
ARC
  5
EF7C89798
330
EF7C85532
100
AcDbEntity
  8
JISSEN
 48
3.0
100
AcDbCircle
 10
251.3499165267276
 20
63.57859384908778
 30
0.0
 40
1.49999999999909
100
AcDbArc
 50
90.0
 51
180.0
  0
LINE
  5
EF7C89799
330
EF7C85532
100
AcDbEntity
  8
JISSEN
100
AcDbLine
 10
249.8499165267286
 20
73.07859384915008
 30
0.0
 11
249.8499165267286
 21
63.57859384908778
 31
0.0
  0
ARC
  5
EF7C8979A
330
EF7C85532
100
AcDbEntity
  8
JISSEN
 62
     7
100
AcDbCircle
 10
251.3499165267276
 20
63.57859384908778
 30
0.0
 40
1.49999999999909
100
AcDbArc
 50
179.9999999991141
 51
269.9999999998436
  0
LINE
  5
EF7C8979B
330
EF7C85532
100
AcDbEntity
  8
JISSEN
100
AcDbLine
 10
253.3499165267303
 20
62.07859384908551
 30
0.0
 11
252.3499165267248
 21
62.07859384908823
 31
0.0
  0
ARC
  5
EF7C8979C
330
EF7C85532
100
AcDbEntity
  8
JISSEN
100
AcDbCircle
 10
265.2249999647448
 20
69.6048958322108
 30
0.0
 40
0.0999999999999943
100
AcDbArc
 50
90.00000000001302
 51
180.000000000016
  0
LINE
  5
EF7C8979D
330
EF7C85532
100
AcDbEntity
  8
JISSEN
100
AcDbLine
 10
265.124999964745
 20
69.6048958322108
 30
0.0
 11
265.124999964745
 21
68.90489583221079
 31
0.0
  0
ARC
  5
EF7C8979E
330
EF7C85532
100
AcDbEntity
  8
JISSEN
100
AcDbCircle
 10
265.2249999647448
 20
68.90489583221079
 30
0.0
 40
0.0999999999999943
100
AcDbArc
 50
179.9999999999835
 51
269.9999999999803
  0
LINE
  5
EF7C8979F
330
EF7C85532
100
AcDbEntity
  8
JISSEN
100
AcDbLine
 10
259.4999999647445
 20
70.90903948809752
 30
0.0
 11
259.4999999647445
 21
69.70489583221056
 31
0.0
  0
LINE
  5
EF7C897A0
330
EF7C85532
100
AcDbEntity
  8
JISSEN
100
AcDbLine
 10
264.4999999647445
 20
72.70489583221046
 30
0.0
 11
264.4999999647445
 21
72.40489583221069
 31
0.0
  0
LINE
  5
EF7C897A1
330
EF7C85532
100
AcDbEntity
  8
JISSEN
100
AcDbLine
 10
263.4999999647445
 20
71.20489583221057
 30
0.0
 11
263.4999999647445
 21
70.9048958322107
 31
0.0
  0
LINE
  5
EF7C897A2
330
EF7C85532
100
AcDbEntity
  8
JISSEN
100
AcDbLine
 10
263.4999999647445
 20
71.20489583221057
 30
0.0
 11
264.4999999647445
 21
72.40489583221047
 31
0.0
  0
LINE
  5
EF7C897A3
330
EF7C85532
100
AcDbEntity
  8
JISSEN
 48
3.0
100
AcDbLine
 10
252.7609586755825
 20
84.88992854948554
 30
0.0
 11
237.8220008244397
 21
87.59089568019973
 31
0.0
  0
LINE
  5
EF7C897A4
330
EF7C85532
100
AcDbEntity
  8
JISSEN
 48
3.0
100
AcDbLine
 10
269.4999165267282
 20
84.88195141554042
 30
0.0
 11
269.49991652673
 21
65.07859384908596
 31
0.0
  0
LINE
  5
EF7C897A5
330
EF7C85532
100
AcDbEntity
  8
JISSEN
 48
3.0
100
AcDbLine
 10
272.4999165267293
 20
84.88195141554042
 30
0.0
 11
272.4999165267274
 21
65.07859384908596
 31
0.0
  0
LINE
  5
EF7C897A6
330
EF7C85532
100
AcDbEntity
  8
JISSEN
100
AcDbLine
 10
288.1499165267308
 20
84.88195141553996
 30
0.0
 11
288.1499165267316
 21
65.07859384908551
 31
0.0
  0
ARC
  5
EF7C897A7
330
EF7C85532
100
AcDbEntity
  8
JISSEN
100
AcDbCircle
 10
274.133649280795
 20
74.70489583221045
 30
0.0
 40
1.0
100
AcDbArc
 50
10.00000000000025
 51
90.0
  0
ARC
  5
EF7C897A8
330
EF7C85532
100
AcDbEntity
  8
JISSEN
100
AcDbCircle
 10
267.8663506486941
 20
74.70489583221045
 30
0.0
 40
1.0
100
AcDbArc
 50
90.0
 51
169.9999999999995
  0
LINE
  5
EF7C897A9
330
EF7C85532
100
AcDbEntity
  8
JISSEN
100
AcDbLine
 10
265.9249999647448
 20
72.70503784633
 30
0.0
 11
265.9249999647451
 21
84.07859443151183
 31
0.0
  0
LINE
  5
EF7C897AA
330
EF7C85532
100
AcDbEntity
  8
JISSEN
100
AcDbLine
 10
276.074999964744
 20
72.70503784633
 30
0.0
 11
276.0749999647438
 21
84.07859443151183
 31
0.0
  0
LINE
  5
EF7C897AB
330
EF7C85532
100
AcDbEntity
  8
JISSEN
100
AcDbLine
 10
272.4999165267283
 20
65.07859384908596
 30
0.0
 11
290.6499165267298
 21
65.07859384908596
 31
0.0
  0
LINE
  5
EF7C897AC
330
EF7C85532
100
AcDbEntity
  8
JISSEN
100
AcDbLine
 10
270.9999165267291
 20
62.07859384914636
 30
0.0
 11
290.6499165267306
 21
62.07859384914636
 31
0.0
  0
LINE
  5
EF7C897AD
330
EF7C85532
100
AcDbEntity
  8
JISSEN
100
AcDbLine
 10
290.6499165267298
 20
62.07859384914963
 30
0.0
 11
270.9999165267285
 21
62.07859384914963
 31
0.0
  0
LINE
  5
EF7C897AE
330
EF7C85532
100
AcDbEntity
  8
JISSEN
100
AcDbLine
 10
282.4999999647445
 20
69.70489583221056
 30
0.0
 11
272.4999165267278
 21
69.70489583221047
 31
0.0
  0
LINE
  5
EF7C897AF
330
EF7C85532
100
AcDbEntity
  8
JISSEN
100
AcDbLine
 10
272.4999165267279
 20
70.90903948809721
 30
0.0
 11
282.4999999647445
 21
70.90903948809752
 31
0.0
  0
ARC
  5
EF7C897B0
330
EF7C85532
100
AcDbEntity
  8
JISSEN
 48
3.0
100
AcDbCircle
 10
272.4999165267291
 20
63.57859384908358
 30
0.0
 40
1.49999999999909
100
AcDbArc
 50
90.0
 51
180.0
  0
ARC
  5
EF7C897B1
330
EF7C85532
100
AcDbEntity
  8
JISSEN
 48
3.0
100
AcDbCircle
 10
272.4999165267283
 20
63.5785938490869
 30
0.0
 40
1.49999999999909
100
AcDbArc
 50
90.0
 51
180.0
  0
ARC
  5
EF7C897B2
330
EF7C85532
100
AcDbEntity
  8
JISSEN
 48
3.0
100
AcDbCircle
 10
269.4999165267291
 20
63.5785938490869
 30
0.0
 40
1.49999999999909
100
AcDbArc
 50
0.0
 51
90.0
  0
LINE
  5
EF7C897B3
330
EF7C85532
100
AcDbEntity
  8
JISSEN
100
AcDbLine
 10
277.4999999647445
 20
72.40489583221047
 30
0.0
 11
272.4999165267281
 21
72.40489583221048
 31
0.0
  0
LINE
  5
EF7C897B4
330
EF7C85532
100
AcDbEntity
  8
JISSEN
100
AcDbLine
 10
272.4999165267281
 20
72.70489583221042
 30
0.0
 11
277.4999999647445
 21
72.70489583221046
 31
0.0
  0
ARC
  5
EF7C897B5
330
EF7C85532
100
AcDbEntity
  8
JISSEN
100
AcDbCircle
 10
270.9999999647445
 20
76.3048958322107
 30
0.0
 40
7.999999999999522
100
AcDbArc
 50
280.8063145050088
 51
290.1055097879159
  0
LINE
  5
EF7C897B6
330
EF7C85532
100
AcDbEntity
  8
JISSEN
100
AcDbLine
 10
278.4999999647445
 20
71.20489583221057
 30
0.0
 11
272.4999165267279
 21
71.20489583221057
 31
0.0
  0
LINE
  5
EF7C897B7
330
EF7C85532
100
AcDbEntity
  8
JISSEN
100
AcDbLine
 10
268.2499999647445
 20
68.79240623155279
 30
0.0
 11
268.2499999647445
 21
69.70489583221056
 31
0.0
  0
ARC
  5
EF7C897B8
330
EF7C85532
100
AcDbEntity
  8
JISSEN
100
AcDbCircle
 10
268.024999964745
 20
69.6048958322108
 30
0.0
 40
0.0999999999999943
100
AcDbArc
 50
359.9999999999837
 51
89.99999999998044
  0
ARC
  5
EF7C897B9
330
EF7C85532
100
AcDbEntity
  8
JISSEN
100
AcDbCircle
 10
270.9999999647445
 20
76.3048958322107
 30
0.0
 40
7.999999999999522
100
AcDbArc
 50
249.8944902120839
 51
259.1924687540687
  0
LINE
  5
EF7C897BA
330
EF7C85532
100
AcDbEntity
  8
JISSEN
100
AcDbLine
 10
268.1249999647449
 20
69.6048958322108
 30
0.0
 11
268.1249999647449
 21
68.90489583221079
 31
0.0
  0
ARC
  5
EF7C897BB
330
EF7C85532
100
AcDbEntity
  8
JISSEN
100
AcDbCircle
 10
267.2249999647448
 20
68.15489583221078
 30
0.0
 40
0.1
100
AcDbArc
 50
270.0
 51
0.0
  0
LINE
  5
EF7C897BC
330
EF7C85532
100
AcDbEntity
  8
JISSEN
100
AcDbLine
 10
267.2249999647448
 20
68.05489583221079
 30
0.0
 11
266.024999964745
 21
68.05489583221079
 31
0.0
  0
LINE
  5
EF7C897BD
330
EF7C85532
100
AcDbEntity
  8
JISSEN
100
AcDbLine
 10
265.9249999647448
 20
68.80489583221079
 30
0.0
 11
265.9249999647448
 21
68.15489583221078
 31
0.0
  0
ARC
  5
EF7C897BE
330
EF7C85532
100
AcDbEntity
  8
JISSEN
100
AcDbCircle
 10
266.024999964745
 20
68.15489583221078
 30
0.0
 40
0.1
100
AcDbArc
 50
180.0
 51
270.0
  0
ARC
  5
EF7C897BF
330
EF7C85532
100
AcDbEntity
  8
JISSEN
100
AcDbCircle
 10
268.024999964745
 20
68.90489583221079
 30
0.0
 40
0.0999999999999943
100
AcDbArc
 50
270.000000000013
 51
0.0000000000162844
  0
LINE
  5
EF7C897C0
330
EF7C85532
100
AcDbEntity
  8
JISSEN
100
AcDbLine
 10
267.3249999647449
 20
68.80489583221079
 30
0.0
 11
267.3249999647447
 21
68.15489583221078
 31
0.0
  0
LINE
  5
EF7C897C1
330
EF7C85532
100
AcDbEntity
  8
JISSEN
100
AcDbLine
 10
266.8815428956818
 20
74.87854400987747
 30
0.0
 11
266.6002657606758
 21
73.28334210784378
 31
0.0
  0
ARC
  5
EF7C897C2
330
EF7C85532
100
AcDbEntity
  8
JISSEN
100
AcDbCircle
 10
265.9109003335673
 20
73.40489583221047
 30
0.0
 40
0.7
100
AcDbArc
 50
270.0
 51
349.9999999999997
  0
ARC
  5
EF7C897C3
330
EF7C85532
100
AcDbEntity
  8
JISSEN
100
AcDbCircle
 10
276.7749999647441
 20
69.6048958322108
 30
0.0
 40
0.0999999999999943
100
AcDbArc
 50
359.9999999999837
 51
89.99999999998044
  0
LINE
  5
EF7C897C4
330
EF7C85532
100
AcDbEntity
  8
JISSEN
100
AcDbLine
 10
273.7499999647445
 20
68.79240623155279
 30
0.0
 11
273.7499999647445
 21
69.70489583221056
 31
0.0
  0
ARC
  5
EF7C897C5
330
EF7C85532
100
AcDbEntity
  8
JISSEN
100
AcDbCircle
 10
273.9749999647441
 20
69.6048958322108
 30
0.0
 40
0.0999999999999943
100
AcDbArc
 50
90.00000000001302
 51
180.0000000000163
  0
LINE
  5
EF7C897C6
330
EF7C85532
100
AcDbEntity
  8
JISSEN
100
AcDbLine
 10
273.9749999647441
 20
68.80489583221079
 30
0.0
 11
276.7749999647441
 21
68.80489583221079
 31
0.0
  0
LINE
  5
EF7C897C7
330
EF7C85532
100
AcDbEntity
  8
JISSEN
100
AcDbLine
 10
273.8749999647441
 20
69.6048958322108
 30
0.0
 11
273.8749999647441
 21
68.90489583221079
 31
0.0
  0
ARC
  5
EF7C897C8
330
EF7C85532
100
AcDbEntity
  8
JISSEN
100
AcDbCircle
 10
273.9749999647441
 20
68.90489583221079
 30
0.0
 40
0.0999999999999943
100
AcDbArc
 50
179.9999999999835
 51
269.9999999999803
  0
LINE
  5
EF7C897C9
330
EF7C85532
100
AcDbEntity
  8
JISSEN
100
AcDbLine
 10
274.6749999647441
 20
68.80489583221079
 30
0.0
 11
274.6749999647441
 21
68.15489583221078
 31
0.0
  0
LINE
  5
EF7C897CA
330
EF7C85532
100
AcDbEntity
  8
JISSEN
100
AcDbLine
 10
274.7749999647441
 20
68.05489583221079
 30
0.0
 11
275.974999964744
 21
68.05489583221079
 31
0.0
  0
ARC
  5
EF7C897CB
330
EF7C85532
100
AcDbEntity
  8
JISSEN
100
AcDbCircle
 10
274.7749999647441
 20
68.15489583221078
 30
0.0
 40
0.1
100
AcDbArc
 50
180.0
 51
270.0
  0
LINE
  5
EF7C897CC
330
EF7C85532
100
AcDbEntity
  8
JISSEN
100
AcDbLine
 10
276.074999964744
 20
68.80489583221079
 30
0.0
 11
276.074999964744
 21
68.15489583221078
 31
0.0
  0
ARC
  5
EF7C897CD
330
EF7C85532
100
AcDbEntity
  8
JISSEN
100
AcDbCircle
 10
275.974999964744
 20
68.15489583221078
 30
0.0
 40
0.1
100
AcDbArc
 50
270.0
 51
0.000000000000007
  0
LINE
  5
EF7C897CE
330
EF7C85532
100
AcDbEntity
  8
JISSEN
100
AcDbLine
 10
276.874999964744
 20
69.6048958322108
 30
0.0
 11
276.874999964744
 21
68.90489583221079
 31
0.0
  0
ARC
  5
EF7C897CF
330
EF7C85532
100
AcDbEntity
  8
JISSEN
100
AcDbCircle
 10
276.7749999647441
 20
68.90489583221079
 30
0.0
 40
0.0999999999999943
100
AcDbArc
 50
270.000000000013
 51
0.0000000000162915
  0
LINE
  5
EF7C897D0
330
EF7C85532
100
AcDbEntity
  8
JISSEN
100
AcDbLine
 10
275.1184570338071
 20
74.87854400987747
 30
0.0
 11
275.3997341688132
 21
73.28334210784378
 31
0.0
  0
ARC
  5
EF7C897D1
330
EF7C85532
100
AcDbEntity
  8
JISSEN
100
AcDbCircle
 10
276.0890995959215
 20
73.40489583221047
 30
0.0
 40
0.7
100
AcDbArc
 50
190.0000000000002
 51
270.0
  0
LINE
  5
EF7C897D2
330
EF7C85532
100
AcDbEntity
  8
JISSEN
100
AcDbLine
 10
277.4999999647445
 20
72.70489583221046
 30
0.0
 11
277.4999999647445
 21
72.40489583221069
 31
0.0
  0
LINE
  5
EF7C897D3
330
EF7C85532
100
AcDbEntity
  8
JISSEN
100
AcDbLine
 10
278.4999999647445
 20
71.20489583221057
 30
0.0
 11
278.4999999647445
 21
70.9048958322107
 31
0.0
  0
LINE
  5
EF7C897D4
330
EF7C85532
100
AcDbEntity
  8
JISSEN
100
AcDbLine
 10
278.4999999647445
 20
71.20489583221057
 30
0.0
 11
277.4999999647445
 21
72.40489583221047
 31
0.0
  0
ARC
  5
EF7C897D5
330
EF7C85532
100
AcDbEntity
  8
JISSEN
 48
3.0
100
AcDbCircle
 10
290.6499165267298
 20
63.57859384908778
 30
0.0
 40
1.49999999999909
100
AcDbArc
 50
0.0
 51
90.0
  0
LINE
  5
EF7C897D6
330
EF7C85532
100
AcDbEntity
  8
JISSEN
100
AcDbLine
 10
292.149916526729
 20
73.07859384915008
 30
0.0
 11
292.149916526729
 21
63.57859384908778
 31
0.0
  0
LINE
  5
EF7C897D7
330
EF7C85532
100
AcDbEntity
  8
JISSEN
100
AcDbLine
 10
288.6499165267271
 20
62.07859384908551
 30
0.0
 11
289.6499165267326
 21
62.07859384908823
 31
0.0
  0
ARC
  5
EF7C897D8
330
EF7C85532
100
AcDbEntity
  8
JISSEN
 62
     7
100
AcDbCircle
 10
290.6499165267298
 20
63.57859384908778
 30
0.0
 40
1.49999999999909
100
AcDbArc
 50
270.0000000001563
 51
0.0000000008858735
  0
LINE
  5
EF7C897D9
330
EF7C85532
100
AcDbEntity
  8
JISSEN
100
AcDbLine
 10
282.4999999647445
 20
70.90903948809755
 30
0.0
 11
282.4999999647445
 21
69.70489583221056
 31
0.0
  0
LINE
  5
EF7C897DA
330
EF7C85532
100
AcDbEntity
  8
JISSEN
100
AcDbLine
 10
288.149916526729
 20
84.07859384914644
 30
0.0
 11
272.4999165267293
 21
84.07859384914644
 31
0.0
  0
LINE
  5
EF7C897DB
330
EF7C85532
100
AcDbEntity
  8
JISSEN
100
AcDbLine
 10
289.1499165267306
 20
84.88195141554042
 30
0.0
 11
272.4999165267293
 21
84.88195141554086
 31
0.0
  0
ELLIPSE
  5
EF7C897DC
330
EF7C85532
100
AcDbEntity
  8
JISSEN
100
AcDbEllipse
 10
270.9999165267291
 20
84.88195141553758
 30
0.0
 11
0.0
 21
2.6733896743317
 31
0.0
210
0.0
220
0.0
230
1.0
 40
0.5610854318774398
 41
4.712388980384688
 42
6.283185307179585
  0
ELLIPSE
  5
EF7C897DD
330
EF7C85532
100
AcDbEntity
  8
JISSEN
100
AcDbEllipse
 10
270.9999165267283
 20
84.88195141554086
 30
0.0
 11
0.0
 21
2.6733896743317
 31
0.0
210
0.0
220
0.0
230
-1.0
 40
0.5610854318774398
 41
6.283185307179585
 42
7.853981633974482
  0
ELLIPSE
  5
EF7C897DE
330
EF7C85532
100
AcDbEntity
  8
JISSEN
100
AcDbEllipse
 10
270.9999165267291
 20
84.88195141554086
 30
0.0
 11
0.0
 21
2.6733896743317
 31
0.0
210
0.0
220
0.0
230
1.0
 40
0.5610854318774398
 41
6.283185307179585
 42
7.853981633974482
  0
LINE
  5
EF7C897DF
330
EF7C85532
100
AcDbEntity
  8
JISSEN
100
AcDbLine
 10
274.133649280795
 20
75.70489583221045
 30
0.0
 11
272.4999165267284
 21
75.70489583221045
 31
0.0
  0
LINE
  5
EF7C897E0
330
EF7C85532
100
AcDbEntity
  8
JISSEN
100
AcDbLine
 10
267.3249999647447
 20
84.07859443151183
 30
0.0
 11
267.3249999647449
 21
75.54569273812039
 31
0.0
  0
LINE
  5
EF7C897E1
330
EF7C85532
100
AcDbEntity
  8
JISSEN
100
AcDbLine
 10
267.8663506486941
 20
75.70489583221045
 30
0.0
 11
269.4999165267291
 21
75.70489583221045
 31
0.0
  0
LINE
  5
EF7C897E2
330
EF7C85532
100
AcDbEntity
  8
JISSEN
100
AcDbLine
 10
274.6749999647441
 20
84.07859443151183
 30
0.0
 11
274.674999964744
 21
75.54569273812051
 31
0.0
  0
LINE
  5
EF7C897E3
330
EF7C85532
100
AcDbEntity
  8
JISSEN
100
AcDbLine
 10
269.4999165267291
 20
135.0785938490858
 30
0.0
 11
251.3499165267276
 21
135.0785938490858
 31
0.0
  0
LINE
  5
EF7C897E4
330
EF7C85532
100
AcDbEntity
  8
JISSEN
100
AcDbLine
 10
251.3499165267276
 20
132.0785938491494
 30
0.0
 11
270.9999165267289
 21
132.0785938491494
 31
0.0
  0
LINE
  5
EF7C897E5
330
EF7C85532
100
AcDbEntity
  8
JISSEN
100
AcDbLine
 10
263.4999999647444
 20
141.2048958322104
 30
0.0
 11
269.4999165267295
 21
141.2048958322104
 31
0.0
  0
LINE
  5
EF7C897E6
330
EF7C85532
100
AcDbEntity
  8
JISSEN
100
AcDbLine
 10
268.0249999647449
 20
138.8048958322106
 30
0.0
 11
265.2249999647447
 21
138.8048958322106
 31
0.0
  0
LINE
  5
EF7C897E7
330
EF7C85532
100
AcDbEntity
  8
JISSEN
100
AcDbLine
 10
259.4999999647444
 20
139.7048958322104
 30
0.0
 11
269.4999165267296
 21
139.7048958322103
 31
0.0
  0
LINE
  5
EF7C897E8
330
EF7C85532
100
AcDbEntity
  8
JISSEN
100
AcDbLine
 10
269.4999165267295
 20
140.909039488097
 30
0.0
 11
259.4999999647444
 21
140.9090394880973
 31
0.0
  0
ARC
  5
EF7C897E9
330
EF7C85532
100
AcDbEntity
  8
JISSEN
 62
     7
100
AcDbCircle
 10
251.3499165267276
 20
133.5785938490876
 30
0.0
 40
1.49999999999909
100
AcDbArc
 50
179.9999999991141
 51
269.9999999998436
  0
ARC
  5
EF7C897EA
330
EF7C85532
100
AcDbEntity
  8
JISSEN
 48
3.0
100
AcDbCircle
 10
251.3499165267276
 20
133.5785938490876
 30
0.0
 40
1.49999999999909
100
AcDbArc
 50
90.0
 51
180.0
  0
LINE
  5
EF7C897EB
330
EF7C85532
100
AcDbEntity
  8
JISSEN
100
AcDbLine
 10
253.3499165267303
 20
132.0785938490853
 30
0.0
 11
252.3499165267248
 21
132.078593849088
 31
0.0
  0
LINE
  5
EF7C897EC
330
EF7C85532
100
AcDbEntity
  8
JISSEN
100
AcDbLine
 10
259.4999999647444
 20
140.9090394880973
 30
0.0
 11
259.4999999647444
 21
139.7048958322104
 31
0.0
  0
ARC
  5
EF7C897ED
330
EF7C85532
100
AcDbEntity
  8
JISSEN
100
AcDbCircle
 10
265.2249999647447
 20
139.6048958322106
 30
0.0
 40
0.0999999999999943
100
AcDbArc
 50
90.00000000001302
 51
180.000000000016
  0
LINE
  5
EF7C897EE
330
EF7C85532
100
AcDbEntity
  8
JISSEN
100
AcDbLine
 10
263.4999999647444
 20
141.2048958322104
 30
0.0
 11
263.4999999647444
 21
140.9048958322105
 31
0.0
  0
ARC
  5
EF7C897EF
330
EF7C85532
100
AcDbEntity
  8
JISSEN
100
AcDbCircle
 10
265.2249999647447
 20
138.9048958322106
 30
0.0
 40
0.0999999999999943
100
AcDbArc
 50
179.9999999999835
 51
269.9999999999803
  0
LINE
  5
EF7C897F0
330
EF7C85532
100
AcDbEntity
  8
JISSEN
100
AcDbLine
 10
265.1249999647449
 20
139.6048958322106
 30
0.0
 11
265.1249999647449
 21
138.9048958322106
 31
0.0
  0
LINE
  5
EF7C897F1
330
EF7C85532
100
AcDbEntity
  8
JISSEN
100
AcDbLine
 10
290.6499165267298
 20
132.0785938491494
 30
0.0
 11
270.9999165267285
 21
132.0785938491494
 31
0.0
  0
LINE
  5
EF7C897F2
330
EF7C85532
100
AcDbEntity
  8
JISSEN
100
AcDbLine
 10
272.4999165267283
 20
135.0785938490858
 30
0.0
 11
290.6499165267298
 21
135.0785938490858
 31
0.0
  0
LINE
  5
EF7C897F3
330
EF7C85532
100
AcDbEntity
  8
JISSEN
100
AcDbLine
 10
270.9999165267291
 20
132.0785938491462
 30
0.0
 11
290.6499165267306
 21
132.0785938491462
 31
0.0
  0
LINE
  5
EF7C897F4
330
EF7C85532
100
AcDbEntity
  8
JISSEN
100
AcDbLine
 10
272.4999165267279
 20
140.909039488097
 30
0.0
 11
282.4999999647444
 21
140.9090394880973
 31
0.0
  0
LINE
  5
EF7C897F5
330
EF7C85532
100
AcDbEntity
  8
JISSEN
100
AcDbLine
 10
282.4999999647444
 20
139.7048958322104
 30
0.0
 11
272.4999165267278
 21
139.7048958322103
 31
0.0
  0
LINE
  5
EF7C897F6
330
EF7C85532
100
AcDbEntity
  8
JISSEN
100
AcDbLine
 10
278.4999999647444
 20
141.2048958322104
 30
0.0
 11
272.4999165267279
 21
141.2048958322104
 31
0.0
  0
ARC
  5
EF7C897F7
330
EF7C85532
100
AcDbEntity
  8
JISSEN
100
AcDbCircle
 10
270.9999999647444
 20
146.3048958322105
 30
0.0
 40
7.999999999999522
100
AcDbArc
 50
280.80631450501
 51
290.1055097879159
  0
ARC
  5
EF7C897F8
330
EF7C85532
100
AcDbEntity
  8
JISSEN
 48
3.0
100
AcDbCircle
 10
269.4999165267291
 20
133.5785938490867
 30
0.0
 40
1.49999999999909
100
AcDbArc
 50
0.0
 51
90.0
  0
ARC
  5
EF7C897F9
330
EF7C85532
100
AcDbEntity
  8
JISSEN
 48
3.0
100
AcDbCircle
 10
272.4999165267283
 20
133.5785938490867
 30
0.0
 40
1.49999999999909
100
AcDbArc
 50
90.0
 51
180.0
  0
ARC
  5
EF7C897FA
330
EF7C85532
100
AcDbEntity
  8
JISSEN
 48
3.0
100
AcDbCircle
 10
272.4999165267291
 20
133.5785938490834
 30
0.0
 40
1.49999999999909
100
AcDbArc
 50
90.0
 51
180.0
  0
ARC
  5
EF7C897FB
330
EF7C85532
100
AcDbEntity
  8
JISSEN
100
AcDbCircle
 10
270.9999999647444
 20
146.3048958322105
 30
0.0
 40
7.999999999999522
100
AcDbArc
 50
249.8944902120839
 51
259.1924687540691
  0
ARC
  5
EF7C897FC
330
EF7C85532
100
AcDbEntity
  8
JISSEN
100
AcDbCircle
 10
268.0249999647449
 20
139.6048958322106
 30
0.0
 40
0.0999999999999943
100
AcDbArc
 50
359.9999999999837
 51
89.99999999998044
  0
LINE
  5
EF7C897FD
330
EF7C85532
100
AcDbEntity
  8
JISSEN
100
AcDbLine
 10
267.3249999647448
 20
138.8048958322106
 30
0.0
 11
267.3249999647446
 21
138.1548958322106
 31
0.0
  0
ARC
  5
EF7C897FE
330
EF7C85532
100
AcDbEntity
  8
JISSEN
100
AcDbCircle
 10
268.0249999647449
 20
138.9048958322106
 30
0.0
 40
0.0999999999999943
100
AcDbArc
 50
270.000000000013
 51
0.0000000000162844
  0
ARC
  5
EF7C897FF
330
EF7C85532
100
AcDbEntity
  8
JISSEN
100
AcDbCircle
 10
266.0249999647449
 20
138.1548958322106
 30
0.0
 40
0.1
100
AcDbArc
 50
180.0
 51
270.0
  0
LINE
  5
EF7C89800
330
EF7C85532
100
AcDbEntity
  8
JISSEN
100
AcDbLine
 10
265.9249999647447
 20
138.8048958322106
 30
0.0
 11
265.9249999647447
 21
138.1548958322106
 31
0.0
  0
LINE
  5
EF7C89801
330
EF7C85532
100
AcDbEntity
  8
JISSEN
100
AcDbLine
 10
267.2249999647447
 20
138.0548958322106
 30
0.0
 11
266.0249999647449
 21
138.0548958322106
 31
0.0
  0
ARC
  5
EF7C89802
330
EF7C85532
100
AcDbEntity
  8
JISSEN
100
AcDbCircle
 10
267.2249999647447
 20
138.1548958322106
 30
0.0
 40
0.1
100
AcDbArc
 50
270.0
 51
0.0
  0
LINE
  5
EF7C89803
330
EF7C85532
100
AcDbEntity
  8
JISSEN
100
AcDbLine
 10
268.2499999647444
 20
138.7924062315526
 30
0.0
 11
268.2499999647444
 21
139.7048958322104
 31
0.0
  0
LINE
  5
EF7C89804
330
EF7C85532
100
AcDbEntity
  8
JISSEN
100
AcDbLine
 10
268.1249999647448
 20
139.6048958322106
 30
0.0
 11
268.1249999647448
 21
138.9048958322106
 31
0.0
  0
LINE
  5
EF7C89805
330
EF7C85532
100
AcDbEntity
  8
JISSEN
100
AcDbLine
 10
273.974999964744
 20
138.8048958322106
 30
0.0
 11
276.774999964744
 21
138.8048958322106
 31
0.0
  0
ARC
  5
EF7C89806
330
EF7C85532
100
AcDbEntity
  8
JISSEN
100
AcDbCircle
 10
273.974999964744
 20
139.6048958322106
 30
0.0
 40
0.0999999999999943
100
AcDbArc
 50
90.00000000001302
 51
180.0000000000163
  0
ARC
  5
EF7C89807
330
EF7C85532
100
AcDbEntity
  8
JISSEN
100
AcDbCircle
 10
275.9749999647439
 20
138.1548958322106
 30
0.0
 40
0.1
100
AcDbArc
 50
270.0
 51
0.000000000000007
  0
LINE
  5
EF7C89808
330
EF7C85532
100
AcDbEntity
  8
JISSEN
100
AcDbLine
 10
276.0749999647439
 20
138.8048958322106
 30
0.0
 11
276.0749999647439
 21
138.1548958322106
 31
0.0
  0
ARC
  5
EF7C89809
330
EF7C85532
100
AcDbEntity
  8
JISSEN
100
AcDbCircle
 10
274.774999964744
 20
138.1548958322106
 30
0.0
 40
0.1
100
AcDbArc
 50
180.0
 51
270.0
  0
LINE
  5
EF7C8980A
330
EF7C85532
100
AcDbEntity
  8
JISSEN
100
AcDbLine
 10
274.774999964744
 20
138.0548958322106
 30
0.0
 11
275.9749999647439
 21
138.0548958322106
 31
0.0
  0
LINE
  5
EF7C8980B
330
EF7C85532
100
AcDbEntity
  8
JISSEN
100
AcDbLine
 10
274.674999964744
 20
138.8048958322106
 30
0.0
 11
274.674999964744
 21
138.1548958322106
 31
0.0
  0
ARC
  5
EF7C8980C
330
EF7C85532
100
AcDbEntity
  8
JISSEN
100
AcDbCircle
 10
273.974999964744
 20
138.9048958322106
 30
0.0
 40
0.0999999999999943
100
AcDbArc
 50
179.9999999999835
 51
269.9999999999803
  0
LINE
  5
EF7C8980D
330
EF7C85532
100
AcDbEntity
  8
JISSEN
100
AcDbLine
 10
273.874999964744
 20
139.6048958322106
 30
0.0
 11
273.874999964744
 21
138.9048958322106
 31
0.0
  0
LINE
  5
EF7C8980E
330
EF7C85532
100
AcDbEntity
  8
JISSEN
100
AcDbLine
 10
273.7499999647444
 20
138.7924062315526
 30
0.0
 11
273.7499999647444
 21
139.7048958322104
 31
0.0
  0
LINE
  5
EF7C8980F
330
EF7C85532
100
AcDbEntity
  8
JISSEN
100
AcDbLine
 10
278.4999999647444
 20
141.2048958322104
 30
0.0
 11
278.4999999647444
 21
140.9048958322105
 31
0.0
  0
ARC
  5
EF7C89810
330
EF7C85532
100
AcDbEntity
  8
JISSEN
100
AcDbCircle
 10
276.774999964744
 20
139.6048958322106
 30
0.0
 40
0.0999999999999943
100
AcDbArc
 50
359.9999999999837
 51
89.99999999998044
  0
ARC
  5
EF7C89811
330
EF7C85532
100
AcDbEntity
  8
JISSEN
100
AcDbCircle
 10
276.774999964744
 20
138.9048958322106
 30
0.0
 40
0.0999999999999943
100
AcDbArc
 50
270.000000000013
 51
0.0000000000162915
  0
LINE
  5
EF7C89812
330
EF7C85532
100
AcDbEntity
  8
JISSEN
100
AcDbLine
 10
276.8749999647439
 20
139.6048958322106
 30
0.0
 11
276.8749999647439
 21
138.9048958322106
 31
0.0
  0
LINE
  5
EF7C89813
330
EF7C85532
100
AcDbEntity
  8
JISSEN
100
AcDbLine
 10
282.4999999647444
 20
140.9090394880973
 30
0.0
 11
282.4999999647444
 21
139.7048958322104
 31
0.0
  0
LINE
  5
EF7C89814
330
EF7C85532
100
AcDbEntity
  8
JISSEN
100
AcDbLine
 10
288.6499165267271
 20
132.0785938490853
 30
0.0
 11
289.6499165267326
 21
132.078593849088
 31
0.0
  0
ARC
  5
EF7C89815
330
EF7C85532
100
AcDbEntity
  8
JISSEN
 62
     7
100
AcDbCircle
 10
290.6499165267298
 20
133.5785938490876
 30
0.0
 40
1.49999999999909
100
AcDbArc
 50
270.0000000001563
 51
0.0000000008858735
  0
ARC
  5
EF7C89816
330
EF7C85532
100
AcDbEntity
  8
JISSEN
 48
3.0
100
AcDbCircle
 10
290.6499165267298
 20
133.5785938490876
 30
0.0
 40
1.49999999999909
100
AcDbArc
 50
0.0
 51
90.0
  0
TEXT
  5
EF7C89817
330
EF7C85532
100
AcDbEntity
  8
SUNPOU
100
AcDbText
 10
304.2743327937161
 20
7.849423656313319
 30
0.0
 40
3.0
  1
VQR　ガードZN　　作動状態
  7
K
100
AcDbText
  0
LINE
  5
EF7C89818
330
EF7C85532
100
AcDbEntity
  8
TEXT
100
AcDbLine
 10
334.3228496288797
 20
10.84959297135969
 30
0.0
 11
334.3228496288797
 21
7.849592971359697
 31
0.0
  0
LINE
  5
EF7C89819
330
EF7C85532
100
AcDbEntity
  8
TEXT
100
AcDbLine
 10
335.3228496288798
 20
10.84959297135969
 30
0.0
 11
335.3228496288798
 21
7.849592971359697
 31
0.0
  0
LINE
  5
EF7C8981A
330
EF7C85532
100
AcDbEntity
  8
TEXT
100
AcDbLine
 10
334.8228496288796
 20
10.84959297135969
 30
0.0
 11
334.8228496288796
 21
7.849592971359697
 31
0.0
  0
TEXT
  5
EF7C8981B
330
EF7C85532
100
AcDbEntity
  8
SUNPOU
100
AcDbText
 10
304.2743327937162
 20
2.849423656313319
 30
0.0
 40
3.0
  1
尺度　1/1
  7
K
100
AcDbText
  0
LINE
  5
EF7C8981C
330
EF7C85532
100
AcDbEntity
  8
TEXT
100
AcDbLine
 10
333.8228496288796
 20
7.849592971359697
 30
0.0
 11
335.8228496288796
 21
7.849592971359697
 31
0.0
  0
LINE
  5
EF7C8981D
330
EF7C85532
100
AcDbEntity
  8
TEXT
100
AcDbLine
 10
333.8228496288796
 20
10.84959297135969
 30
0.0
 11
335.8228496288796
 21
10.84959297135969
 31
0.0
  0
ARC
  5
EF7C8981E
330
EF7C85532
100
AcDbEntity
  8
JISSEN
100
AcDbCircle
 10
303.9999165267293
 20
88.57494141230716
 30
0.0
 40
1.0
100
AcDbArc
 50
280.2483788343934
 51
0.0
  0
LINE
  5
EF7C8981F
330
EF7C85532
100
AcDbEntity
  8
JISSEN
100
AcDbLine
 10
304.9999165267292
 20
88.57494141230716
 30
0.0
 11
304.9999165267292
 21
89.07859384914962
 31
0.0
  0
LINE
  5
EF7C89820
330
EF7C85532
100
AcDbEntity
  8
JISSEN
 48
3.0
100
AcDbLine
 10
289.2388743778749
 20
154.8899285494854
 30
0.0
 11
304.1778322290176
 21
157.5908956801995
 31
0.0
  0
ARC
  5
EF7C89821
330
EF7C85532
100
AcDbEntity
  8
JISSEN
100
AcDbCircle
 10
307.1499165267289
 20
143.0785938491499
 30
0.0
 40
15.0
100
AcDbArc
 50
109.3883336172967
 51
180.0
  0
LINE
  5
EF7C89822
330
EF7C85532
100
AcDbEntity
  8
JISSEN
100
AcDbLine
 10
339.7336689538699
 20
164.0785944315116
 30
0.0
 11
289.4999999647439
 21
164.0785944315116
 31
0.0
  0
LINE
  5
EF7C89823
330
EF7C85532
100
AcDbEntity
  8
JISSEN
100
AcDbLine
 10
289.4999999647439
 20
159.0785944315116
 30
0.0
 11
336.2759059204399
 21
159.0785944315116
 31
0.0
  0
LWPOLYLINE
  5
EF7C89824
330
EF7C85532
100
AcDbEntity
  8
NITEN
100
AcDbPolyline
 90
        5
 70
     0
 43
0.0
 10
287.9999999647444
 20
228.4391433372357
 10
287.9999999647444
 20
249.2768609883816
 42
-0.5882352941176477
 10
270.9999999647444
 20
249.2768609883816
 42
0.5882352941176478
 10
253.9999999647444
 20
249.2768609883813
 10
253.9999999647444
 20
228.4391433372357
  0
ARC
  5
EF7C89825
330
EF7C85532
100
AcDbEntity
  8
JISSEN
100
AcDbCircle
 10
237.9999165267282
 20
158.574941412307
 30
0.0
 40
1.0
100
AcDbArc
 50
180.0
 51
259.7516211656066
  0
LINE
  5
EF7C89826
330
EF7C85532
100
AcDbEntity
  8
JISSEN
100
AcDbLine
 10
202.266330975619
 20
164.0785944315116
 30
0.0
 11
252.4999999647446
 21
164.0785944315116
 31
0.0
  0
LINE
  5
EF7C89827
330
EF7C85532
100
AcDbEntity
  8
JISSEN
100
AcDbLine
 10
252.4999999647446
 20
159.0785944315116
 30
0.0
 11
205.7240940090489
 21
159.0785944315116
 31
0.0
  0
INSERT
  5
EF7C89828
330
EF7C85532
100
AcDbEntity
  8
HATCH
100
AcDbBlockReference
  2
*X25
 10
180.9999999647444
 20
20.00000027095586
 30
0.0
1001
ACAD
1000
HATCH
1002
{
1070
    16
1000
_U
1040
2.0
1040
0.7853981633974483
1070
     0
1002
}
  0
LWPOLYLINE
  5
EF7C89829
330
EF7C85532
100
AcDbEntity
  8
HATCH
100
AcDbPolyline
 90
       13
 70
     0
 43
0.0
 10
202.266330975619
 20
164.0785944315116
 10
202.4309181538689
 20
163.2589573532795
 10
202.5728235105491
 20
162.7423393765153
 10
202.8005321476971
 20
162.3239130898275
 10
203.1084196343562
 20
161.9857960661605
 10
203.4746429233359
 20
161.6955449935104
 10
203.8773589674446
 20
161.420716559873
 10
204.2947247194914
 20
161.128867453244
 10
204.7048971322852
 20
160.7875543616193
 10
205.0860331586349
 20
160.3643339729949
 10
205.4162897513494
 20
159.8267629753666
 10
205.6908698145522
 20
159.163144188079
 10
205.7240940090489
 20
159.0785944315116
  0
LINE
  5
EF7C8982A
330
EF7C85532
100
AcDbEntity
  8
SUNPOU
100
AcDbLine
 10
226.1411653754044
 20
159.0785944315116
 30
0.0
 11
226.1411653754044
 21
159.0785944315116
 31
0.0
  0
LINE
  5
EF7C8982B
330
EF7C85532
100
AcDbEntity
  8
JISSEN
100
AcDbLine
 10
236.9999165267282
 20
158.574941412307
 30
0.0
 11
236.9999165267282
 21
159.0785938491494
 31
0.0
  0
LINE
  5
EF7C8982C
330
EF7C85532
100
AcDbEntity
  8
SAISEN
 62
     7
100
AcDbLine
 10
280.2561565567366
 20
197.3224378395204
 30
0.0
 11
280.64093483707
 21
185.0785944315119
 31
0.0
  0
LINE
  5
EF7C8982D
330
EF7C85532
100
AcDbEntity
  8
JISSEN
100
AcDbLine
 10
281.2606801032594
 20
196.3179142929975
 30
0.0
 11
281.6138899593729
 21
185.0785944315119
 31
0.0
  0
LINE
  5
EF7C8982E
330
EF7C85532
100
AcDbEntity
  8
SAISEN
 62
     7
100
AcDbLine
 10
261.7438433727529
 20
197.3224378395204
 30
0.0
 11
261.3590650924196
 21
185.0785944315119
 31
0.0
  0
LINE
  5
EF7C8982F
330
EF7C85532
100
AcDbEntity
  8
JISSEN
100
AcDbLine
 10
260.7393198262301
 20
196.3179142929975
 30
0.0
 11
260.3861099701166
 21
185.0785944315119
 31
0.0
  0
LINE
  5
EF7C89830
330
EF7C85532
100
AcDbEntity
  8
JISSEN
100
AcDbLine
 10
252.8499165267267
 20
154.8819514155402
 30
0.0
 11
269.4999165267282
 21
154.8819514155407
 31
0.0
  0
LINE
  5
EF7C89831
330
EF7C85532
100
AcDbEntity
  8
JISSEN
100
AcDbLine
 10
253.8499165267286
 20
154.0785938491463
 30
0.0
 11
269.4999165267282
 21
154.0785938491463
 31
0.0
  0
LINE
  5
EF7C89832
330
EF7C85532
100
AcDbEntity
  8
JISSEN
100
AcDbLine
 10
264.4999999647444
 20
142.4048958322103
 30
0.0
 11
269.4999165267294
 21
142.4048958322102
 31
0.0
  0
LINE
  5
EF7C89833
330
EF7C85532
100
AcDbEntity
  8
JISSEN
100
AcDbLine
 10
252.7499999647456
 20
185.0785944315117
 30
0.0
 11
270.4999999647465
 21
185.078594431512
 31
0.0
  0
LINE
  5
EF7C89834
330
EF7C85532
100
AcDbEntity
  8
JISSEN
100
AcDbLine
 10
269.4999165267293
 20
142.7048958322102
 30
0.0
 11
264.4999999647444
 21
142.7048958322103
 31
0.0
  0
LINE
  5
EF7C89835
330
EF7C85532
100
AcDbEntity
  8
JISSEN
100
AcDbLine
 10
289.4999999647439
 20
159.0785944315116
 30
0.0
 11
252.4999999647456
 21
159.0785944315116
 31
0.0
  0
LINE
  5
EF7C89836
330
EF7C85532
100
AcDbEntity
  8
JISSEN
100
AcDbLine
 10
245.9999999647444
 20
159.0785944315116
 30
0.0
 11
245.9999999647444
 21
164.0785944315116
 31
0.0
  0
LINE
  5
EF7C89837
330
EF7C85532
100
AcDbEntity
  8
JISSEN
100
AcDbLine
 10
252.4999999647456
 20
184.8285944315117
 30
0.0
 11
252.4999999647456
 21
159.0785944315116
 31
0.0
  0
LINE
  5
EF7C89838
330
EF7C85532
100
AcDbEntity
  8
JISSEN
 48
3.0
100
AcDbLine
 10
252.7609586755825
 20
154.8899285494854
 30
0.0
 11
237.8220008244397
 21
157.5908956801995
 31
0.0
  0
ARC
  5
EF7C89839
330
EF7C85532
100
AcDbEntity
  8
JISSEN
100
AcDbCircle
 10
234.8499165267285
 20
143.0785938491499
 30
0.0
 40
15.0
100
AcDbArc
 50
0.0
 51
70.61166638270329
  0
LINE
  5
EF7C8983A
330
EF7C85532
100
AcDbEntity
  8
JISSEN
100
AcDbLine
 10
264.4999999647444
 20
142.7048958322103
 30
0.0
 11
264.4999999647444
 21
142.4048958322105
 31
0.0
  0
LINE
  5
EF7C8983B
330
EF7C85532
100
AcDbEntity
  8
JISSEN
100
AcDbLine
 10
255.5019532089695
 20
185.0785944315117
 30
0.0
 11
255.5019532089695
 21
167.6785944315115
 31
0.0
  0
LINE
  5
EF7C8983C
330
EF7C85532
100
AcDbEntity
  8
JISSEN
100
AcDbLine
 10
254.5019532089695
 20
185.0785944315117
 30
0.0
 11
254.5019532089695
 21
167.6785944315115
 31
0.0
  0
LINE
  5
EF7C8983D
330
EF7C85532
100
AcDbEntity
  8
JISSEN
100
AcDbLine
 10
255.5019532089695
 20
167.6785944315115
 30
0.0
 11
254.5019532089695
 21
167.6785944315115
 31
0.0
  0
LINE
  5
EF7C8983E
330
EF7C85532
100
AcDbEntity
  8
JISSEN
100
AcDbLine
 10
252.7499999647456
 20
185.0785944315117
 30
0.0
 11
252.4999999647456
 21
184.8285944315117
 31
0.0
  0
LINE
  5
EF7C8983F
330
EF7C85532
100
AcDbEntity
  8
JISSEN
100
AcDbLine
 10
289.4999999647429
 20
184.8285944315117
 30
0.0
 11
289.4999999647429
 21
159.0785944315116
 31
0.0
  0
LINE
  5
EF7C89840
330
EF7C85532
100
AcDbEntity
  8
JISSEN
100
AcDbLine
 10
289.1499165267306
 20
154.8819514155402
 30
0.0
 11
272.4999165267293
 21
154.8819514155407
 31
0.0
  0
LINE
  5
EF7C89841
330
EF7C85532
100
AcDbEntity
  8
JISSEN
100
AcDbLine
 10
288.149916526729
 20
154.0785938491463
 30
0.0
 11
272.4999165267293
 21
154.0785938491463
 31
0.0
  0
LINE
  5
EF7C89842
330
EF7C85532
100
AcDbEntity
  8
JISSEN
100
AcDbLine
 10
276.0749999647438
 20
142.7050378463298
 30
0.0
 11
276.0749999647436
 21
154.0785944315116
 31
0.0
  0
LINE
  5
EF7C89843
330
EF7C85532
100
AcDbEntity
  8
JISSEN
100
AcDbLine
 10
274.674999964744
 20
154.0785944315116
 30
0.0
 11
274.6749999647439
 21
145.5456927381203
 31
0.0
  0
LINE
  5
EF7C89844
330
EF7C85532
100
AcDbEntity
  8
JISSEN
100
AcDbLine
 10
267.3249999647446
 20
154.0785944315116
 30
0.0
 11
267.3249999647448
 21
145.5456927381202
 31
0.0
  0
LINE
  5
EF7C89845
330
EF7C85532
100
AcDbEntity
  8
JISSEN
100
AcDbLine
 10
265.9249999647447
 20
142.7050378463298
 30
0.0
 11
265.9249999647449
 21
154.0785944315116
 31
0.0
  0
LINE
  5
EF7C89846
330
EF7C85532
100
AcDbEntity
  8
JISSEN
100
AcDbLine
 10
277.4999999647444
 20
142.4048958322103
 30
0.0
 11
272.4999165267281
 21
142.4048958322103
 31
0.0
  0
LINE
  5
EF7C89847
330
EF7C85532
100
AcDbEntity
  8
JISSEN
100
AcDbLine
 10
272.4999165267281
 20
142.7048958322102
 30
0.0
 11
277.4999999647444
 21
142.7048958322103
 31
0.0
  0
LINE
  5
EF7C89848
330
EF7C85532
100
AcDbEntity
  8
JISSEN
100
AcDbLine
 10
274.1336492807949
 20
145.7048958322102
 30
0.0
 11
272.4999165267285
 21
145.7048958322102
 31
0.0
  0
LINE
  5
EF7C89849
330
EF7C85532
100
AcDbEntity
  8
JISSEN
100
AcDbLine
 10
267.866350648694
 20
145.7048958322102
 30
0.0
 11
269.499916526729
 21
145.7048958322102
 31
0.0
  0
ARC
  5
EF7C8984A
330
EF7C85532
100
AcDbEntity
  8
JISSEN
100
AcDbCircle
 10
265.9109003335672
 20
143.4048958322103
 30
0.0
 40
0.7
100
AcDbArc
 50
270.0
 51
349.9999999999997
  0
LINE
  5
EF7C8984B
330
EF7C85532
100
AcDbEntity
  8
JISSEN
100
AcDbLine
 10
266.8815428956817
 20
144.8785440098773
 30
0.0
 11
266.6002657606757
 21
143.2833421078436
 31
0.0
  0
ARC
  5
EF7C8984C
330
EF7C85532
100
AcDbEntity
  8
JISSEN
100
AcDbCircle
 10
267.866350648694
 20
144.7048958322102
 30
0.0
 40
1.0
100
AcDbArc
 50
90.0
 51
169.9999999999995
  0
ARC
  5
EF7C8984D
330
EF7C85532
100
AcDbEntity
  8
JISSEN
100
AcDbCircle
 10
276.0890995959214
 20
143.4048958322103
 30
0.0
 40
0.7
100
AcDbArc
 50
190.0000000000002
 51
270.0
  0
LINE
  5
EF7C8984E
330
EF7C85532
100
AcDbEntity
  8
JISSEN
100
AcDbLine
 10
275.118457033807
 20
144.8785440098773
 30
0.0
 11
275.3997341688131
 21
143.2833421078436
 31
0.0
  0
ARC
  5
EF7C8984F
330
EF7C85532
100
AcDbEntity
  8
JISSEN
100
AcDbCircle
 10
274.1336492807949
 20
144.7048958322102
 30
0.0
 40
1.0
100
AcDbArc
 50
10.00000000000025
 51
90.0
  0
LINE
  5
EF7C89850
330
EF7C85532
100
AcDbEntity
  8
JISSEN
100
AcDbLine
 10
277.4999999647444
 20
142.7048958322103
 30
0.0
 11
277.4999999647444
 21
142.4048958322105
 31
0.0
  0
ELLIPSE
  5
EF7C89851
330
EF7C85532
100
AcDbEntity
  8
JISSEN
100
AcDbEllipse
 10
270.9999165267291
 20
154.8819514155407
 30
0.0
 11
0.0
 21
2.6733896743317
 31
0.0
210
0.0
220
0.0
230
1.0
 40
0.5610854318774398
 41
6.283185307179585
 42
7.853981633974482
  0
ELLIPSE
  5
EF7C89852
330
EF7C85532
100
AcDbEntity
  8
JISSEN
100
AcDbEllipse
 10
270.9999165267283
 20
154.8819514155407
 30
0.0
 11
0.0
 21
2.6733896743317
 31
0.0
210
0.0
220
0.0
230
-1.0
 40
0.5610854318774398
 41
6.283185307179585
 42
7.853981633974482
  0
ELLIPSE
  5
EF7C89853
330
EF7C85532
100
AcDbEntity
  8
JISSEN
100
AcDbEllipse
 10
270.9999165267291
 20
154.8819514155374
 30
0.0
 11
0.0
 21
2.6733896743317
 31
0.0
210
0.0
220
0.0
230
1.0
 40
0.5610854318774398
 41
4.712388980384688
 42
6.283185307179585
  0
LINE
  5
EF7C89854
330
EF7C85532
100
AcDbEntity
  8
JISSEN
100
AcDbLine
 10
289.2499999647458
 20
185.0785944315117
 30
0.0
 11
271.4999999647449
 21
185.078594431512
 31
0.0
  0
LINE
  5
EF7C89855
330
EF7C85532
100
AcDbEntity
  8
JISSEN
100
AcDbLine
 10
270.4999999647465
 20
185.0785944315117
 30
0.0
 11
270.4999999647465
 21
167.6785944315125
 31
0.0
  0
LINE
  5
EF7C89856
330
EF7C85532
100
AcDbEntity
  8
JISSEN
100
AcDbLine
 10
271.4999999647449
 20
185.0785944315117
 30
0.0
 11
271.4999999647449
 21
167.6785944315125
 31
0.0
  0
LINE
  5
EF7C89857
330
EF7C85532
100
AcDbEntity
  8
JISSEN
100
AcDbLine
 10
271.4999999647449
 20
167.6785944315125
 30
0.0
 11
270.9999999647458
 21
167.6785944315125
 31
0.0
  0
LINE
  5
EF7C89858
330
EF7C85532
100
AcDbEntity
  8
JISSEN
100
AcDbLine
 10
270.4999999647465
 20
167.6785944315125
 30
0.0
 11
270.9999999647458
 21
167.6785944315125
 31
0.0
  0
LINE
  5
EF7C89859
330
EF7C85532
100
AcDbEntity
  8
JISSEN
100
AcDbLine
 10
286.4980467205219
 20
185.0785944315117
 30
0.0
 11
286.4980467205219
 21
167.6785944315115
 31
0.0
  0
LINE
  5
EF7C8985A
330
EF7C85532
100
AcDbEntity
  8
JISSEN
100
AcDbLine
 10
287.4980467205219
 20
185.0785944315117
 30
0.0
 11
287.4980467205219
 21
167.6785944315115
 31
0.0
  0
LINE
  5
EF7C8985B
330
EF7C85532
100
AcDbEntity
  8
JISSEN
100
AcDbLine
 10
286.4980467205219
 20
167.6785944315115
 30
0.0
 11
287.4980467205219
 21
167.6785944315115
 31
0.0
  0
LINE
  5
EF7C8985C
330
EF7C85532
100
AcDbEntity
  8
JISSEN
100
AcDbLine
 10
289.2499999647458
 20
185.0785944315117
 30
0.0
 11
289.4999999647458
 21
184.8285944315117
 31
0.0
  0
LINE
  5
EF7C8985D
330
EF7C85532
100
AcDbEntity
  8
SUNPOU
 62
     7
100
AcDbLine
 10
260.73931982623
 20
196.3179142929975
 30
0.0
 11
270.9999999647448
 21
196.3179142929975
 31
0.0
  0
LINE
  5
EF7C8985E
330
EF7C85532
100
AcDbEntity
  8
HOJYO
100
AcDbLine
 10
270.9999999647448
 20
197.5785944315124
 30
0.0
 11
261.9999999647449
 21
197.5785944315123
 31
0.0
  0
LWPOLYLINE
  5
EF7C8985F
330
EF7C85532
100
AcDbEntity
  8
NITEN
100
AcDbPolyline
 90
       15
 70
     1
 43
0.0
 10
256.9999999647444
 20
187.9391433372356
 42
0.4142135623730927
 10
258.4999999647444
 20
186.4391433372357
 10
281.5940511357409
 20
186.4391433372357
 10
283.4999999647444
 20
186.4391433372357
 42
0.4142135623730925
 10
284.9999999647444
 20
187.9391433372356
 10
284.9999999647444
 20
198.9851593634536
 42
-0.4142135623730943
 10
289.9999999647444
 20
203.9851593634537
 42
0.4142135623730951
 10
291.9999999647444
 20
205.9851593634537
 10
291.9999999647444
 20
226.4391433372357
 42
0.414213562373095
 10
289.9999999647444
 20
228.4391433372357
 10
251.9999999647444
 20
228.4391433372357
 42
0.4142135623730951
 10
249.9999999647444
 20
226.4391433372357
 10
249.9999999647444
 20
205.9851593634537
 42
0.4142135623730951
 10
251.9999999647444
 20
203.9851593634537
 42
-0.4142135623730961
 10
256.9999999647444
 20
198.9851593634536
  0
LINE
  5
EF7C89860
330
EF7C85532
100
AcDbEntity
  8
JISSEN
100
AcDbLine
 10
260.7393198262301
 20
196.3179142929975
 30
0.0
 11
261.9999999647449
 21
197.5785944315123
 31
0.0
  0
LINE
  5
EF7C89861
330
EF7C85532
100
AcDbEntity
  8
HOJYO
100
AcDbLine
 10
262.9205913324917
 20
197.5785944315123
 30
0.0
 11
261.9999999647449
 21
197.5785944315123
 31
0.0
  0
LINE
  5
EF7C89862
330
EF7C85532
100
AcDbEntity
  8
SUNPOU
 62
     7
100
AcDbLine
 10
281.2606801032595
 20
196.3179142929975
 30
0.0
 11
270.9999999647448
 21
196.3179142929975
 31
0.0
  0
LINE
  5
EF7C89863
330
EF7C85532
100
AcDbEntity
  8
HOJYO
100
AcDbLine
 10
279.9999999647448
 20
197.5785944315123
 30
0.0
 11
279.079408596998
 21
197.5785944315123
 31
0.0
  0
LINE
  5
EF7C89864
330
EF7C85532
100
AcDbEntity
  8
HOJYO
100
AcDbLine
 10
270.9999999647448
 20
197.5785944315123
 30
0.0
 11
279.9999999647448
 21
197.5785944315123
 31
0.0
  0
LINE
  5
EF7C89865
330
EF7C85532
100
AcDbEntity
  8
JISSEN
100
AcDbLine
 10
281.2606801032595
 20
196.3179142929975
 30
0.0
 11
279.9999999647448
 21
197.5785944315123
 31
0.0
  0
LWPOLYLINE
  5
EF7C89866
330
EF7C85532
100
AcDbEntity
  8
NITEN
100
AcDbPolyline
 90
        2
 70
     0
 43
0.0
 10
287.9999999647444
 20
249.2768609883816
 42
0.5882352941176296
 10
270.9999999647444
 20
249.2768609883819
 42
0.5882352941176296
  0
INSERT
  5
EF7C89867
330
EF7C85532
100
AcDbEntity
  8
HATCH
100
AcDbBlockReference
  2
*X25
 10
360.9999999647444
 20
20.00000027095586
 30
0.0
 41
-1.0
1001
ACAD
1000
HATCH
1002
{
1070
    16
1000
_U
1040
2.0
1040
0.7853981633974483
1070
     0
1002
}
  0
LINE
  5
EF7C89868
330
EF7C85532
100
AcDbEntity
  8
JISSEN
100
AcDbLine
 10
295.9999999647444
 20
159.0785944315116
 30
0.0
 11
295.9999999647444
 21
164.0785944315116
 31
0.0
  0
ARC
  5
EF7C89869
330
EF7C85532
100
AcDbEntity
  8
JISSEN
100
AcDbCircle
 10
303.9999165267293
 20
158.574941412307
 30
0.0
 40
1.0
100
AcDbArc
 50
280.2483788343934
 51
0.0
  0
LINE
  5
EF7C8986A
330
EF7C85532
100
AcDbEntity
  8
JISSEN
100
AcDbLine
 10
304.9999165267292
 20
158.574941412307
 30
0.0
 11
304.9999165267292
 21
159.0785938491494
 31
0.0
  0
LWPOLYLINE
  5
EF7C8986B
330
EF7C85532
100
AcDbEntity
  8
HATCH
100
AcDbPolyline
 90
       13
 70
     0
 43
0.0
 10
339.7336689538699
 20
164.0785944315116
 10
339.5690817756199
 20
163.2589573532795
 10
339.4271764189395
 20
162.7423393765153
 10
339.1994677817917
 20
162.3239130898275
 10
338.8915802951326
 20
161.9857960661605
 10
338.5253570061529
 20
161.6955449935104
 10
338.1226409620442
 20
161.420716559873
 10
337.7052752099974
 20
161.128867453244
 10
337.2951027972036
 20
160.7875543616193
 10
336.9139667708539
 20
160.3643339729949
 10
336.5837101781394
 20
159.8267629753666
 10
336.3091301149366
 20
159.163144188079
 10
336.2759059204399
 20
159.0785944315116
  0
ENDSEC
  0
SECTION
  2
OBJECTS
  0
DICTIONARY
  5
EF7C85527
330
0
100
AcDbDictionary
281
     1
  3
ACAD_GROUP
350
EF7C85528
  3
ACAD_LAYOUT
350
EF7C85BB7
  3
ACAD_MLINESTYLE
350
EF7C85535
  3
ACAD_PLOTSETTINGS
350
EF7C85BB8
  3
ACAD_PLOTSTYLENAME
350
EF7C85BB5
  3
ACDBVARIABLEDICTIONARY
350
EF7C85DB7
  0
DICTIONARY
  5
EF7C8725C
330
EF7C8551D
100
AcDbDictionary
280
     1
281
     1
  3
ACAD_LAYERFILTERS
360
EF7C87685
  3
ACAD_LAYERSTATES
360
EF7C8725D
  0
DICTIONARY
  5
EF7C85D9A
330
EF7C85532
100
AcDbDictionary
280
     1
281
     1
  3
ACAD_LAYOUTSELFREF
360
EF7C8767C
  0
DICTIONARY
  5
EF7C85D98
330
EF7C8552F
100
AcDbDictionary
280
     1
281
     1
  3
ACAD_LAYOUTSELFREF
360
EF7C8767B
  0
DICTIONARY
  5
EF7C85528
102
{ACAD_REACTORS
330
EF7C85527
102
}
330
EF7C85527
100
AcDbDictionary
281
     1
  0
DICTIONARY
  5
EF7C85BB7
102
{ACAD_REACTORS
330
EF7C85527
102
}
330
EF7C85527
100
AcDbDictionary
281
     1
  3
Model
350
EF7C87682
  3
ﾚｲｱｳﾄ1
350
EF7C87683
  0
DICTIONARY
  5
EF7C85535
102
{ACAD_REACTORS
330
EF7C85527
102
}
330
EF7C85527
100
AcDbDictionary
281
     1
  3
STANDARD
350
EF7C85536
  0
DICTIONARY
  5
EF7C85BB8
102
{ACAD_REACTORS
330
EF7C85527
102
}
330
EF7C85527
100
AcDbDictionary
281
     1
  0
ACDBDICTIONARYWDFLT
  5
EF7C85BB5
102
{ACAD_REACTORS
330
EF7C85527
102
}
330
EF7C85527
100
AcDbDictionary
281
     1
  3
Normal
350
EF7C85BB6
100
AcDbDictionaryWithDefault
340
EF7C85BB6
  0
DICTIONARY
  5
EF7C85DB7
102
{ACAD_REACTORS
330
EF7C85527
102
}
330
EF7C85527
100
AcDbDictionary
281
     1
  3
DIMASSOC
350
EF7C87207
  3
SORTENTS
350
EF7C85DB8
  0
DICTIONARY
  5
EF7C87685
102
{ACAD_REACTORS
330
EF7C8725C
102
}
330
EF7C8725C
100
AcDbDictionary
280
     1
281
     1
  3
0
360
EF7C87686
  3
0-0
360
EF7C87687
  3
10画層
360
EF7C87688
  3
2
360
EF7C87689
  3
3
360
EF7C8768A
  3
3A
360
EF7C8768B
  3
4
360
EF7C8768C
  3
5画層
360
EF7C8768D
  3
6画層
360
EF7C8768E
  3
7
360
EF7C8768F
  3
7a画層
360
EF7C87690
  3
8
360
EF7C87691
  3
ASYST
360
EF7C87692
  3
ASYST PHASE 1
360
EF7C87693
  3
ASYST PHASE 2
360
EF7C87694
  3
cap-0
360
EF7C87695
  3
dims
360
EF7C87696
  3
elec
360
EF7C87697
  3
ELECTRICAL
360
EF7C87698
  3
F
360
EF7C87699
  3
Frame
360
EF7C8769A
  3
FROZEN
360
EF7C8769B
  3
FROZEN ACTIVE
360
EF7C8769C
  3
jiku-0
360
EF7C8769D
  3
MP
360
EF7C8769E
  3
MPR
360
EF7C8769F
  3
p-
360
EF7C876A0
  3
ST
360
EF7C876A1
  3
TC
360
EF7C876A2
  3
TEXT
360
EF7C876A3
  3
ｹｰﾌﾞﾙ図
360
EF7C876A4
  3
０画層
360
EF7C876A5
  3
３A画層
360
EF7C876A6
  3
３画層
360
EF7C876A7
  0
DICTIONARY
  5
EF7C8725D
102
{ACAD_REACTORS
330
EF7C8725C
102
}
330
EF7C8725C
100
AcDbDictionary
281
     1
  0
XRECORD
  5
EF7C8767C
102
{ACAD_REACTORS
330
EF7C85D9A
102
}
330
EF7C85D9A
100
AcDbXrecord
280
     1
340
EF7C85532
  0
XRECORD
  5
EF7C8767B
102
{ACAD_REACTORS
330
EF7C85D98
102
}
330
EF7C85D98
100
AcDbXrecord
280
     1
340
EF7C8552F
  0
LAYOUT
  5
EF7C87682
102
{ACAD_REACTORS
330
EF7C85BB7
102
}
330
EF7C85BB7
100
AcDbPlotSettings
  1

  2
FUJITSU XL-5900-3.pc3
  4
A4
  6

 40
5.873749732971191
 41
5.958403587341308
 42
6.000747680664062
 43
5.873748779296875
 44
210.1849975585937
 45
297.1799926757812
 46
4.821916739145933
 47
22.00725397057158
 48
0.0
 49
0.0
140
0.0
141
0.0
142
1.0
143
1.5
 70
 28324
 72
     1
 73
     1
 74
     2
  7
aclt.ctb
 75
     0
147
1.0
148
0.0
149
0.0
100
AcDbLayout
  1
Model
 70
     1
 71
     0
 10
0.0
 20
0.0
 11
12.0
 21
9.0
 12
0.0
 22
0.0
 32
0.0
 14
0.0
 24
0.0
 34
0.0
 15
0.0
 25
0.0
 35
0.0
146
0.0
 13
0.0
 23
0.0
 33
0.0
 16
1.0
 26
0.0
 36
0.0
 17
0.0
 27
1.0
 37
0.0
 76
     0
330
EF7C85532
  0
LAYOUT
  5
EF7C87683
102
{ACAD_REACTORS
330
EF7C85BB7
102
}
330
EF7C85BB7
100
AcDbPlotSettings
  1

  2
RICOH imagio Neo C355 RPCS
  4

  6

 40
0.0
 41
0.0
 42
0.0
 43
0.0
 44
0.0
 45
0.0
 46
0.0
 47
0.0
 48
0.0
 49
0.0
140
0.0
141
0.0
142
1.0
143
1.0
 70
   688
 72
     0
 73
     0
 74
     5
  7
aclt.ctb
 75
    16
147
1.0
148
0.0
149
0.0
100
AcDbLayout
  1
ﾚｲｱｳﾄ1
 70
     0
 71
     1
 10
0.0
 20
0.0
 11
12.0
 21
9.0
 12
0.0
 22
0.0
 32
0.0
 14
1.000000000000000E+20
 24
1.000000000000000E+20
 34
1.000000000000000E+20
 15
-1.000000000000000E+20
 25
-1.000000000000000E+20
 35
-1.000000000000000E+20
146
0.0
 13
0.0
 23
0.0
 33
0.0
 16
1.0
 26
0.0
 36
0.0
 17
0.0
 27
1.0
 37
0.0
 76
     0
330
EF7C8552F
  0
MLINESTYLE
  5
EF7C85536
102
{ACAD_REACTORS
330
EF7C85535
102
}
330
EF7C85535
100
AcDbMlineStyle
  2
STANDARD
 70
     0
  3

 62
   256
 51
90.0
 52
90.0
 71
     2
 49
0.5
 62
   256
  6
BYLAYER
 49
-0.5
 62
   256
  6
BYLAYER
  0
ACDBPLACEHOLDER
  5
EF7C85BB6
102
{ACAD_REACTORS
330
EF7C85BB5
102
}
330
EF7C85BB5
  0
DICTIONARYVAR
  5
EF7C87207
102
{ACAD_REACTORS
330
EF7C85DB7
102
}
330
EF7C85DB7
100
DictionaryVariables
280
     0
  1
0
  0
DICTIONARYVAR
  5
EF7C85DB8
102
{ACAD_REACTORS
330
EF7C85DB7
102
}
330
EF7C85DB7
100
DictionaryVariables
280
     0
  1
96
  0
XRECORD
  5
EF7C87686
102
{ACAD_REACTORS
330
EF7C87685
102
}
330
EF7C87685
100
AcDbXrecord
280
     1
  1
0
  1
*-0
  1
*
  1
*
 70
     0
  1
*
  1
*
  0
XRECORD
  5
EF7C87687
102
{ACAD_REACTORS
330
EF7C87685
102
}
330
EF7C87685
100
AcDbXrecord
280
     1
  1
0-0
  1
*-0
  1
*
  1
*
 70
     0
  1
*
  1
*
  0
XRECORD
  5
EF7C87688
102
{ACAD_REACTORS
330
EF7C87685
102
}
330
EF7C87685
100
AcDbXrecord
280
     1
  1
10画層
  1
*-10
  1
*
  1
*
 70
     0
  1
*
  1
*
  0
XRECORD
  5
EF7C87689
102
{ACAD_REACTORS
330
EF7C87685
102
}
330
EF7C87685
100
AcDbXrecord
280
     1
  1
2
  1
*-2
  1
*
  1
*
 70
     0
  1
*
  1
*
  0
XRECORD
  5
EF7C8768A
102
{ACAD_REACTORS
330
EF7C87685
102
}
330
EF7C87685
100
AcDbXrecord
280
     1
  1
3
  1
*-3
  1
*
  1
*
 70
     0
  1
*
  1
*
  0
XRECORD
  5
EF7C8768B
102
{ACAD_REACTORS
330
EF7C87685
102
}
330
EF7C87685
100
AcDbXrecord
280
     1
  1
3A
  1
*-3A
  1
*
  1
*
 70
     0
  1
*
  1
*
  0
XRECORD
  5
EF7C8768C
102
{ACAD_REACTORS
330
EF7C87685
102
}
330
EF7C87685
100
AcDbXrecord
280
     1
  1
4
  1
*-4
  1
*
  1
*
 70
     0
  1
*
  1
*
  0
XRECORD
  5
EF7C8768D
102
{ACAD_REACTORS
330
EF7C87685
102
}
330
EF7C87685
100
AcDbXrecord
280
     1
  1
5画層
  1
*-5
  1
*
  1
*
 70
     0
  1
*
  1
*
  0
XRECORD
  5
EF7C8768E
102
{ACAD_REACTORS
330
EF7C87685
102
}
330
EF7C87685
100
AcDbXrecord
280
     1
  1
6画層
  1
*-6
  1
*
  1
*
 70
     0
  1
*
  1
*
  0
XRECORD
  5
EF7C8768F
102
{ACAD_REACTORS
330
EF7C87685
102
}
330
EF7C87685
100
AcDbXrecord
280
     1
  1
7
  1
*-7*
  1
*
  1
*
 70
     0
  1
*
  1
*
  0
XRECORD
  5
EF7C87690
102
{ACAD_REACTORS
330
EF7C87685
102
}
330
EF7C87685
100
AcDbXrecord
280
     1
  1
7a画層
  1
*-7a
  1
*
  1
*
 70
     0
  1
*
  1
*
  0
XRECORD
  5
EF7C87691
102
{ACAD_REACTORS
330
EF7C87685
102
}
330
EF7C87685
100
AcDbXrecord
280
     1
  1
8
  1
*-8,8
  1
*
  1
*
 70
     0
  1
*
  1
*
  0
XRECORD
  5
EF7C87692
102
{ACAD_REACTORS
330
EF7C87685
102
}
330
EF7C87685
100
AcDbXrecord
280
     1
  1
ASYST
  1
ASYST*
  1
*
  1
*
 70
     0
  1
*
  1
*
  0
XRECORD
  5
EF7C87693
102
{ACAD_REACTORS
330
EF7C87685
102
}
330
EF7C87685
100
AcDbXrecord
280
     1
  1
ASYST PHASE 1
  1
A1.0-8$0$ASYT*
  1
*
  1
*
 70
     0
  1
*
  1
*
  0
XRECORD
  5
EF7C87694
102
{ACAD_REACTORS
330
EF7C87685
102
}
330
EF7C87685
100
AcDbXrecord
280
     1
  1
ASYST PHASE 2
  1
A2.0-8$0$ASYT*
  1
*
  1
*
 70
     0
  1
*
  1
*
  0
XRECORD
  5
EF7C87695
102
{ACAD_REACTORS
330
EF7C87685
102
}
330
EF7C87685
100
AcDbXrecord
280
     1
  1
cap-0
  1
*
  1
*
  1
*
 70
     0
  1
*
  1
*
  0
XRECORD
  5
EF7C87696
102
{ACAD_REACTORS
330
EF7C87685
102
}
330
EF7C87685
100
AcDbXrecord
280
     1
  1
dims
  1
*di*
  1
*
  1
*
 70
     0
  1
*
  1
*
  0
XRECORD
  5
EF7C87697
102
{ACAD_REACTORS
330
EF7C87685
102
}
330
EF7C87685
100
AcDbXrecord
280
     1
  1
elec
  1
e-*
  1
*
  1
*
 70
     0
  1
*
  1
*
  0
XRECORD
  5
EF7C87698
102
{ACAD_REACTORS
330
EF7C87685
102
}
330
EF7C87685
100
AcDbXrecord
280
     1
  1
ELECTRICAL
  1
E-*
  1
*
  1
*
 70
     0
  1
*
  1
*
  0
XRECORD
  5
EF7C87699
102
{ACAD_REACTORS
330
EF7C87685
102
}
330
EF7C87685
100
AcDbXrecord
280
     1
  1
F
  1
*
  1
*
  1
*
 70
     0
  1
*
  1
*
  0
XRECORD
  5
EF7C8769A
102
{ACAD_REACTORS
330
EF7C87685
102
}
330
EF7C87685
100
AcDbXrecord
280
     1
  1
Frame
  1
F*
  1
*
  1
*
 70
     0
  1
*
  1
*
  0
XRECORD
  5
EF7C8769B
102
{ACAD_REACTORS
330
EF7C87685
102
}
330
EF7C87685
100
AcDbXrecord
280
     1
  1
FROZEN
  1
*
  1
*
  1
*
 70
     4
  1
*
  1
*
  0
XRECORD
  5
EF7C8769C
102
{ACAD_REACTORS
330
EF7C87685
102
}
330
EF7C87685
100
AcDbXrecord
280
     1
  1
FROZEN ACTIVE
  1
*
  1
*
  1
*
 70
    16
  1
*
  1
*
  0
XRECORD
  5
EF7C8769D
102
{ACAD_REACTORS
330
EF7C87685
102
}
330
EF7C87685
100
AcDbXrecord
280
     1
  1
jiku-0
  1
*
  1
*
  1
*
 70
     0
  1
*
  1
*
  0
XRECORD
  5
EF7C8769E
102
{ACAD_REACTORS
330
EF7C87685
102
}
330
EF7C87685
100
AcDbXrecord
280
     1
  1
MP
  1
MP_*
  1
*
  1
*
 70
     0
  1
*
  1
*
  0
XRECORD
  5
EF7C8769F
102
{ACAD_REACTORS
330
EF7C87685
102
}
330
EF7C87685
100
AcDbXrecord
280
     1
  1
MPR
  1
MPR*
  1
*
  1
*
 70
     0
  1
*
  1
*
  0
XRECORD
  5
EF7C876A0
102
{ACAD_REACTORS
330
EF7C87685
102
}
330
EF7C87685
100
AcDbXrecord
280
     1
  1
p-
  1
p-*
  1
*
  1
*
 70
     0
  1
*
  1
*
  0
XRECORD
  5
EF7C876A1
102
{ACAD_REACTORS
330
EF7C87685
102
}
330
EF7C87685
100
AcDbXrecord
280
     1
  1
ST
  1
ST_*
  1
*
  1
*
 70
     0
  1
*
  1
*
  0
XRECORD
  5
EF7C876A2
102
{ACAD_REACTORS
330
EF7C87685
102
}
330
EF7C87685
100
AcDbXrecord
280
     1
  1
TC
  1
TC_*,0N
  1
*
  1
*
 70
     0
  1
*
  1
*
  0
XRECORD
  5
EF7C876A3
102
{ACAD_REACTORS
330
EF7C87685
102
}
330
EF7C87685
100
AcDbXrecord
280
     1
  1
TEXT
  1
TEXT
  1
*
  1
*
 70
     0
  1
*
  1
*
  0
XRECORD
  5
EF7C876A4
102
{ACAD_REACTORS
330
EF7C87685
102
}
330
EF7C87685
100
AcDbXrecord
280
     1
  1
ｹｰﾌﾞﾙ図
  1
*
  1
*
  1
*
 70
     0
  1
*
  1
*
  0
XRECORD
  5
EF7C876A5
102
{ACAD_REACTORS
330
EF7C87685
102
}
330
EF7C87685
100
AcDbXrecord
280
     1
  1
０画層
  1
*-0
  1
*
  1
*
 70
     0
  1
*
  1
*
  0
XRECORD
  5
EF7C876A6
102
{ACAD_REACTORS
330
EF7C87685
102
}
330
EF7C87685
100
AcDbXrecord
280
     1
  1
３A画層
  1
*-3A
  1
*
  1
*
 70
     0
  1
*
  1
*
  0
XRECORD
  5
EF7C876A7
102
{ACAD_REACTORS
330
EF7C87685
102
}
330
EF7C87685
100
AcDbXrecord
280
     1
  1
３画層
  1
*-3
  1
*
  1
*
 70
     0
  1
*
  1
*
  0
ENDSEC
  0
EOF
