  0
SECTION
  2
HEADER
  9
$ACADVER
  1
AC1027
  9
$ACADMAINTVER
 70
     8
  9
$DWGCODEPAGE
  3
ANSI_932
  9
$REQUIREDVERSIONS
160
                 0
  9
$INSBASE
 10
0.0
 20
0.0
 30
0.0
  9
$EXTMIN
 10
0.0008394096764732
 20
0.0058386906978285
 30
0.0
  9
$EXTMAX
 10
362.0008379616762
 20
283.0058386906978
 30
0.0
  9
$LIMMIN
 10
0.0
 20
0.0
  9
$LIMMAX
 10
297.0
 20
210.0
  9
$ORTHOMODE
 70
     0
  9
$REGENMODE
 70
     1
  9
$FILLMODE
 70
     1
  9
$QTEXTMODE
 70
     0
  9
$MIRRTEXT
 70
     1
  9
$LTSCALE
 40
0.25
  9
$ATTMODE
 70
     1
  9
$TEXTSIZE
 40
5.0
  9
$TRACEWID
 40
0.05
  9
$TEXTSTYLE
  7
Standard
  9
$CLAYER
  8
0
  9
$CELTYPE
  6
ByLayer
  9
$CECOLOR
 62
   256
  9
$CELTSCALE
 40
1.0
  9
$DISPSILH
 70
     0
  9
$DIMSCALE
 40
1.0
  9
$DIMASZ
 40
2.3
  9
$DIMEXO
 40
1.0
  9
$DIMDLI
 40
30.0
  9
$DIMRND
 40
0.0
  9
$DIMDLE
 40
0.0
  9
$DIMEXE
 40
1.0
  9
$DIMTP
 40
0.0
  9
$DIMTM
 40
0.0
  9
$DIMTXT
 40
3.3
  9
$DIMCEN
 40
0.09
  9
$DIMTSZ
 40
0.0
  9
$DIMTOL
 70
     0
  9
$DIMLIM
 70
     0
  9
$DIMTIH
 70
     0
  9
$DIMTOH
 70
     0
  9
$DIMSE1
 70
     0
  9
$DIMSE2
 70
     0
  9
$DIMTAD
 70
     3
  9
$DIMZIN
 70
     8
  9
$DIMBLK
  1

  9
$DIMASO
 70
     1
  9
$DIMSHO
 70
     1
  9
$DIMPOST
  1

  9
$DIMAPOST
  1

  9
$DIMALT
 70
     0
  9
$DIMALTD
 70
     2
  9
$DIMALTF
 40
25.4
  9
$DIMLFAC
 40
1.0
  9
$DIMTOFL
 70
     1
  9
$DIMTVP
 40
0.7
  9
$DIMTIX
 70
     0
  9
$DIMSOXD
 70
     0
  9
$DIMSAH
 70
     0
  9
$DIMBLK1
  1

  9
$DIMBLK2
  1

  9
$DIMSTYLE
  2
Standard
  9
$DIMCLRD
 70
     0
  9
$DIMCLRE
 70
     0
  9
$DIMCLRT
 70
     0
  9
$DIMTFAC
 40
0.5
  9
$DIMGAP
 40
0.09
  9
$DIMJUST
 70
     0
  9
$DIMSD1
 70
     0
  9
$DIMSD2
 70
     0
  9
$DIMTOLJ
 70
     1
  9
$DIMTZIN
 70
     8
  9
$DIMALTZ
 70
     0
  9
$DIMALTTZ
 70
     0
  9
$DIMUPT
 70
     1
  9
$DIMDEC
 70
     2
  9
$DIMTDEC
 70
     4
  9
$DIMALTU
 70
     2
  9
$DIMALTTD
 70
     2
  9
$DIMTXSTY
  7
Standard
  9
$DIMAUNIT
 70
     0
  9
$DIMADEC
 70
     0
  9
$DIMALTRND
 40
0.0
  9
$DIMAZIN
 70
     0
  9
$DIMDSEP
 70
    46
  9
$DIMATFIT
 70
     2
  9
$DIMFRAC
 70
     0
  9
$DIMLDRBLK
  1

  9
$DIMLUNIT
 70
     2
  9
$DIMLWD
 70
    -2
  9
$DIMLWE
 70
    -2
  9
$DIMTMOVE
 70
     2
  9
$DIMFXL
 40
1.0
  9
$DIMFXLON
 70
     0
  9
$DIMJOGANG
 40
0.7853981633974483
  9
$DIMTFILL
 70
     0
  9
$DIMTFILLCLR
 70
     0
  9
$DIMARCSYM
 70
     0
  9
$DIMLTYPE
  6

  9
$DIMLTEX1
  6

  9
$DIMLTEX2
  6

  9
$DIMTXTDIRECTION
 70
     0
  9
$LUNITS
 70
     2
  9
$LUPREC
 70
     4
  9
$SKETCHINC
 40
0.1
  9
$FILLETRAD
 40
0.5
  9
$AUNITS
 70
     0
  9
$AUPREC
 70
     0
  9
$MENU
  1
.
  9
$ELEVATION
 40
0.0
  9
$PELEVATION
 40
0.0
  9
$THICKNESS
 40
0.0
  9
$LIMCHECK
 70
     0
  9
$CHAMFERA
 40
0.0
  9
$CHAMFERB
 40
0.0
  9
$CHAMFERC
 40
0.0
  9
$CHAMFERD
 40
0.0
  9
$SKPOLY
 70
     0
  9
$TDCREATE
 40
2458997.115532408
  9
$TDUCREATE
 40
2458996.740532408
  9
$TDUPDATE
 40
2458996.740543021
  9
$TDUUPDATE
 40
2458996.365543021
  9
$TDINDWG
 40
0.0000000116
  9
$TDUSRTIMER
 40
0.0000000116
  9
$USRTIMER
 70
     1
  9
$ANGBASE
 50
0.0
  9
$ANGDIR
 70
     0
  9
$PDMODE
 70
     0
  9
$PDSIZE
 40
0.0
  9
$PLINEWID
 40
0.0
  9
$SPLFRAME
 70
     0
  9
$SPLINETYPE
 70
     6
  9
$SPLINESEGS
 70
     8
  9
$HANDSEED
  5
50E
  9
$SURFTAB1
 70
     6
  9
$SURFTAB2
 70
     6
  9
$SURFTYPE
 70
     6
  9
$SURFU
 70
     6
  9
$SURFV
 70
     6
  9
$UCSBASE
  2

  9
$UCSNAME
  2

  9
$UCSORG
 10
0.0
 20
0.0
 30
0.0
  9
$UCSXDIR
 10
1.0
 20
0.0
 30
0.0
  9
$UCSYDIR
 10
0.0
 20
1.0
 30
0.0
  9
$UCSORTHOREF
  2

  9
$UCSORTHOVIEW
 70
     0
  9
$UCSORGTOP
 10
0.0
 20
0.0
 30
0.0
  9
$UCSORGBOTTOM
 10
0.0
 20
0.0
 30
0.0
  9
$UCSORGLEFT
 10
0.0
 20
0.0
 30
0.0
  9
$UCSORGRIGHT
 10
0.0
 20
0.0
 30
0.0
  9
$UCSORGFRONT
 10
0.0
 20
0.0
 30
0.0
  9
$UCSORGBACK
 10
0.0
 20
0.0
 30
0.0
  9
$PUCSBASE
  2

  9
$PUCSNAME
  2

  9
$PUCSORG
 10
0.0
 20
0.0
 30
0.0
  9
$PUCSXDIR
 10
1.0
 20
0.0
 30
0.0
  9
$PUCSYDIR
 10
0.0
 20
1.0
 30
0.0
  9
$PUCSORTHOREF
  2

  9
$PUCSORTHOVIEW
 70
     0
  9
$PUCSORGTOP
 10
0.0
 20
0.0
 30
0.0
  9
$PUCSORGBOTTOM
 10
0.0
 20
0.0
 30
0.0
  9
$PUCSORGLEFT
 10
0.0
 20
0.0
 30
0.0
  9
$PUCSORGRIGHT
 10
0.0
 20
0.0
 30
0.0
  9
$PUCSORGFRONT
 10
0.0
 20
0.0
 30
0.0
  9
$PUCSORGBACK
 10
0.0
 20
0.0
 30
0.0
  9
$USERI1
 70
     0
  9
$USERI2
 70
     0
  9
$USERI3
 70
     0
  9
$USERI4
 70
     0
  9
$USERI5
 70
     0
  9
$USERR1
 40
0.0
  9
$USERR2
 40
0.0
  9
$USERR3
 40
0.0
  9
$USERR4
 40
0.0
  9
$USERR5
 40
0.0
  9
$WORLDVIEW
 70
     1
  9
$SHADEDGE
 70
     3
  9
$SHADEDIF
 70
    70
  9
$TILEMODE
 70
     1
  9
$MAXACTVP
 70
    64
  9
$PINSBASE
 10
0.0
 20
0.0
 30
0.0
  9
$PLIMCHECK
 70
     0
  9
$PEXTMIN
 10
0.0
 20
0.0
 30
0.0
  9
$PEXTMAX
 10
297.0
 20
210.0
 30
0.0
  9
$PLIMMIN
 10
0.0
 20
0.0
  9
$PLIMMAX
 10
297.0
 20
210.0
  9
$UNITMODE
 70
     0
  9
$VISRETAIN
 70
     1
  9
$PLINEGEN
 70
     0
  9
$PSLTSCALE
 70
     1
  9
$TREEDEPTH
 70
  3020
  9
$CMLSTYLE
  2
Standard
  9
$CMLJUST
 70
     0
  9
$CMLSCALE
 40
1.0
  9
$PROXYGRAPHICS
 70
     1
  9
$MEASUREMENT
 70
     1
  9
$CELWEIGHT
370
    -1
  9
$ENDCAPS
280
     0
  9
$JOINSTYLE
280
     0
  9
$LWDISPLAY
290
     0
  9
$INSUNITS
 70
     4
  9
$HYPERLINKBASE
  1

  9
$STYLESHEET
  1

  9
$XEDIT
290
     1
  9
$CEPSNTYPE
380
     0
  9
$PSTYLEMODE
290
     1
  9
$FINGERPRINTGUID
  2
{0A572327-C283-4B7B-A684-715A38E5A8DC}
  9
$VERSIONGUID
  2
{FAEB1C32-E019-11D5-929B-00C0DF256EC4}
  9
$EXTNAMES
290
     1
  9
$PSVPSCALE
 40
0.0
  9
$OLESTARTUP
290
     0
  9
$SORTENTS
280
   127
  9
$INDEXCTL
280
     0
  9
$HIDETEXT
280
     1
  9
$XCLIPFRAME
280
     2
  9
$HALOGAP
280
     0
  9
$OBSCOLOR
 70
   257
  9
$OBSLTYPE
280
     0
  9
$INTERSECTIONDISPLAY
280
     0
  9
$INTERSECTIONCOLOR
 70
   257
  9
$DIMASSOC
280
     1
  9
$PROJECTNAME
  1

  9
$CAMERADISPLAY
290
     0
  9
$LENSLENGTH
 40
50.0
  9
$CAMERAHEIGHT
 40
0.0
  9
$STEPSPERSEC
 40
2.0
  9
$STEPSIZE
 40
6.0
  9
$3DDWFPREC
 40
2.0
  9
$PSOLWIDTH
 40
0.25
  9
$PSOLHEIGHT
 40
4.0
  9
$LOFTANG1
 40
1.570796326794897
  9
$LOFTANG2
 40
1.570796326794897
  9
$LOFTMAG1
 40
0.0
  9
$LOFTMAG2
 40
0.0
  9
$LOFTPARAM
 70
     7
  9
$LOFTNORMALS
280
     1
  9
$LATITUDE
 40
37.795
  9
$LONGITUDE
 40
-122.394
  9
$NORTHDIRECTION
 40
0.0
  9
$TIMEZONE
 70
 -8000
  9
$LIGHTGLYPHDISPLAY
280
     1
  9
$TILEMODELIGHTSYNCH
280
     1
  9
$CMATERIAL
347
44
  9
$SOLIDHIST
280
     1
  9
$SHOWHIST
280
     1
  9
$DWFFRAME
280
     2
  9
$DGNFRAME
280
     2
  9
$REALWORLDSCALE
290
     1
  9
$INTERFERECOLOR
 62
   256
  9
$CSHADOW
280
     0
  9
$SHADOWPLANELOCATION
 40
0.0
  0
ENDSEC
  0
SECTION
  2
CLASSES
  0
CLASS
  1
ACDBDICTIONARYWDFLT
  2
AcDbDictionaryWithDefault
  3
ObjectDBX Classes
 90
        0
 91
        4
280
     0
281
     0
  0
CLASS
  1
VISUALSTYLE
  2
AcDbVisualStyle
  3
ObjectDBX Classes
 90
     4095
 91
        4
280
     0
281
     0
  0
CLASS
  1
MATERIAL
  2
AcDbMaterial
  3
ObjectDBX Classes
 90
     1153
 91
        4
280
     0
281
     0
  0
CLASS
  1
SCALE
  2
AcDbScale
  3
ObjectDBX Classes
 90
     1153
 91
        4
280
     0
281
     0
  0
CLASS
  1
SUN
  2
AcDbSun
  3
SCENEOE
 90
     1153
 91
        4
280
     0
281
     0
  0
CLASS
  1
DICTIONARYVAR
  2
AcDbDictionaryVar
  3
ObjectDBX Classes
 90
        0
 91
        4
280
     0
281
     0
  0
ENDSEC
  0
SECTION
  2
TABLES
  0
TABLE
  2
VPORT
  5
8
330
0
100
AcDbSymbolTable
 70
     1
  0
VPORT
  5
29
330
8
100
AcDbSymbolTableRecord
100
AcDbViewportTableRecord
  2
*Active
 70
     0
 10
0.0
 20
0.0
 11
1.0
 21
1.0
 12
10.42990654205607
 22
4.5
 13
0.0
 23
0.0
 14
0.5
 24
0.5
 15
0.5
 25
0.5
 16
0.0
 26
0.0
 36
1.0
 17
0.0
 27
0.0
 37
0.0
 40
9.0
 41
1.972972972850329
 42
50.0
 43
0.0
 44
0.0
 50
0.0
 51
0.0
 71
     0
 72
   100
 73
     1
 74
     3
 75
     0
 76
     0
 77
     0
 78
     0
281
     0
 65
     1
110
0.0
120
0.0
130
0.0
111
1.0
121
0.0
131
0.0
112
0.0
122
1.0
132
0.0
 79
     0
146
0.0
 60
     3
 61
     5
292
     1
282
     1
141
0.0
142
0.0
 63
   250
361
69
  0
ENDTAB
  0
TABLE
  2
LTYPE
  5
5
330
0
100
AcDbSymbolTable
 70
     9
  0
LTYPE
  5
14
330
5
100
AcDbSymbolTableRecord
100
AcDbLinetypeTableRecord
  2
ByBlock
 70
     0
  3

 72
    65
 73
     0
 40
0.0
  0
LTYPE
  5
15
330
5
100
AcDbSymbolTableRecord
100
AcDbLinetypeTableRecord
  2
ByLayer
 70
     0
  3

 72
    65
 73
     0
 40
0.0
  0
LTYPE
  5
16
330
5
100
AcDbSymbolTableRecord
100
AcDbLinetypeTableRecord
  2
Continuous
 70
     0
  3
Solid line
 72
    65
 73
     0
 40
0.0
  0
LTYPE
  5
B9
330
5
100
AcDbSymbolTableRecord
100
AcDbLinetypeTableRecord
  2
DOT
 70
     0
  3
DOT
 72
    65
 73
     2
 40
4.0
 49
6.0
 74
     0
 49
-2.0
 74
     0
  0
LTYPE
  5
BA
330
5
100
AcDbSymbolTableRecord
100
AcDbLinetypeTableRecord
  2
HIDDEN
 70
     0
  3
HIDDEN
 72
    65
 73
     2
 40
4.2
 49
8.4
 74
     0
 49
-4.2
 74
     0
  0
LTYPE
  5
BB
330
5
100
AcDbSymbolTableRecord
100
AcDbLinetypeTableRecord
  2
DASHDOT
 70
     0
  3
DASHDOT
 72
    65
 73
     4
 40
14.5
 49
30.0
 74
     0
 49
-9.0
 74
     0
 49
2.5
 74
     0
 49
-9.0
 74
     0
  0
LTYPE
  5
BC
330
5
100
AcDbSymbolTableRecord
100
AcDbLinetypeTableRecord
  2
PHANTOM
 70
     0
  3
PHANTOM
 72
    65
 73
     6
 40
12.0
 49
30.0
 74
     0
 49
-9.0
 74
     0
 49
2.5
 74
     0
 49
-5.0
 74
     0
 49
2.5
 74
     0
 49
-9.0
 74
     0
  0
LTYPE
  5
BD
330
5
100
AcDbSymbolTableRecord
100
AcDbLinetypeTableRecord
  2
ACAD_ISO14W100
 70
     0
  3
ACAD_ISO14W100
 72
    65
 73
     8
 40
1.5
 49
12.0
 74
     0
 49
-3.0
 74
     0
 49
0.5
 74
     0
 49
-3.0
 74
     0
 49
0.5
 74
     0
 49
-3.0
 74
     0
 49
0.5
 74
     0
 49
-3.0
 74
     0
  0
LTYPE
  5
BE
330
5
100
AcDbSymbolTableRecord
100
AcDbLinetypeTableRecord
  2
ACAD_ISO06W100
 70
     0
  3
ACAD_ISO06W100
 72
    65
 73
     8
 40
13.5
 49
24.0
 74
     0
 49
-3.0
 74
     0
 49
0.5
 74
     0
 49
-3.0
 74
     0
 49
0.5
 74
     0
 49
-3.0
 74
     0
 49
0.5
 74
     0
 49
-3.0
 74
     0
  0
LTYPE
  5
BF
330
5
100
AcDbSymbolTableRecord
100
AcDbLinetypeTableRecord
  2
ACAD_ISO11W100
 70
     0
  3
ACAD_ISO11W100
 72
    65
 73
     6
 40
15.5
 49
12.0
 74
     0
 49
-3.0
 74
     0
 49
12.0
 74
     0
 49
-3.0
 74
     0
 49
0.5
 74
     0
 49
-3.0
 74
     0
  0
LTYPE
  5
C0
330
5
100
AcDbSymbolTableRecord
100
AcDbLinetypeTableRecord
  2
ACAD_ISO13W100
 70
     0
  3
ACAD_ISO13W100
 72
    65
 73
     8
 40
13.0
 49
12.0
 74
     0
 49
-3.0
 74
     0
 49
12.0
 74
     0
 49
-3.0
 74
     0
 49
0.5
 74
     0
 49
-3.0
 74
     0
 49
0.5
 74
     0
 49
-3.0
 74
     0
  0
ENDTAB
  0
TABLE
  2
LAYER
  5
2
330
0
100
AcDbSymbolTable
 70
    35
  0
LAYER
  5
10
330
2
100
AcDbSymbolTableRecord
100
AcDbLayerTableRecord
  2
0
 70
     0
 62
     7
  6
Continuous
370
    -3
390
F
347
46
348
0
  0
LAYER
  5
C1
330
2
100
AcDbSymbolTableRecord
100
AcDbLayerTableRecord
  2
1
 70
     0
 62
     6
  6
Continuous
370
    53
390
F
347
46
348
0
  0
LAYER
  5
C2
330
2
100
AcDbSymbolTableRecord
100
AcDbLayerTableRecord
  2
2
 70
     0
 62
     2
  6
HIDDEN
370
    25
390
F
347
46
348
0
  0
LAYER
  5
C3
330
2
100
AcDbSymbolTableRecord
100
AcDbLayerTableRecord
  2
3
 70
     0
 62
     1
  6
DASHDOT
370
    25
390
F
347
46
348
0
  0
LAYER
  5
C4
330
2
100
AcDbSymbolTableRecord
100
AcDbLayerTableRecord
  2
4
 70
     0
 62
     2
  6
PHANTOM
370
    25
390
F
347
46
348
0
  0
LAYER
  5
C5
330
2
100
AcDbSymbolTableRecord
100
AcDbLayerTableRecord
  2
5
 70
     0
 62
     4
  6
Continuous
370
    25
390
F
347
46
348
0
  0
LAYER
  5
C6
330
2
100
AcDbSymbolTableRecord
100
AcDbLayerTableRecord
  2
6
 70
     0
 62
     3
  6
Continuous
370
    25
390
F
347
46
348
0
  0
LAYER
  5
C7
330
2
100
AcDbSymbolTableRecord
100
AcDbLayerTableRecord
  2
7
 70
     0
 62
     3
  6
Continuous
370
    25
390
F
347
46
348
0
  0
LAYER
  5
C8
330
2
100
AcDbSymbolTableRecord
100
AcDbLayerTableRecord
  2
8
 70
     0
 62
     4
  6
Continuous
370
    25
390
F
347
46
348
0
  0
LAYER
  5
C9
330
2
100
AcDbSymbolTableRecord
100
AcDbLayerTableRecord
  2
9
 70
     0
 62
     7
  6
Continuous
370
    35
390
F
347
46
348
0
  0
LAYER
  5
CA
330
2
100
AcDbSymbolTableRecord
100
AcDbLayerTableRecord
  2
10
 70
     0
 62
     6
  6
Continuous
370
    53
390
F
347
46
348
0
  0
LAYER
  5
CB
330
2
100
AcDbSymbolTableRecord
100
AcDbLayerTableRecord
  2
11
 70
     0
 62
     2
  6
HIDDEN
370
    25
390
F
347
46
348
0
  0
LAYER
  5
CC
330
2
100
AcDbSymbolTableRecord
100
AcDbLayerTableRecord
  2
12
 70
     0
 62
     5
  6
Continuous
370
    53
390
F
347
46
348
0
  0
LAYER
  5
CD
330
2
100
AcDbSymbolTableRecord
100
AcDbLayerTableRecord
  2
13
 70
     0
 62
     7
  6
Continuous
370
     9
390
F
347
46
348
0
  0
LAYER
  5
CE
330
2
100
AcDbSymbolTableRecord
100
AcDbLayerTableRecord
  2
14
 70
     0
 62
     7
  6
Continuous
370
     9
390
F
347
46
348
0
  0
LAYER
  5
CF
330
2
100
AcDbSymbolTableRecord
100
AcDbLayerTableRecord
  2
15
 70
     0
 62
     7
  6
Continuous
370
    35
390
F
347
46
348
0
  0
LAYER
  5
D0
330
2
100
AcDbSymbolTableRecord
100
AcDbLayerTableRecord
  2
16
 70
     0
 62
     7
  6
HIDDEN
370
     9
390
F
347
46
348
0
  0
LAYER
  5
D1
330
2
100
AcDbSymbolTableRecord
100
AcDbLayerTableRecord
  2
17
 70
     0
 62
     7
  6
Continuous
370
     9
390
F
347
46
348
0
  0
LAYER
  5
D2
330
2
100
AcDbSymbolTableRecord
100
AcDbLayerTableRecord
  2
18
 70
     0
 62
     4
  6
Continuous
370
     9
390
F
347
46
348
0
  0
LAYER
  5
D3
330
2
100
AcDbSymbolTableRecord
100
AcDbLayerTableRecord
  2
19
 70
     0
 62
     7
  6
Continuous
370
     9
390
F
347
46
348
0
  0
LAYER
  5
D4
330
2
100
AcDbSymbolTableRecord
100
AcDbLayerTableRecord
  2
20
 70
     0
 62
     6
  6
PHANTOM
370
     9
390
F
347
46
348
0
  0
LAYER
  5
D5
330
2
100
AcDbSymbolTableRecord
100
AcDbLayerTableRecord
  2
21
 70
     0
 62
     1
  6
Continuous
370
     9
390
F
347
46
348
0
  0
LAYER
  5
D6
330
2
100
AcDbSymbolTableRecord
100
AcDbLayerTableRecord
  2
22
 70
     0
 62
     7
  6
Continuous
370
     9
390
F
347
46
348
0
  0
LAYER
  5
D7
330
2
100
AcDbSymbolTableRecord
100
AcDbLayerTableRecord
  2
23
 70
     0
 62
     4
  6
Continuous
370
     9
390
F
347
46
348
0
  0
LAYER
  5
D8
330
2
100
AcDbSymbolTableRecord
100
AcDbLayerTableRecord
  2
24
 70
     0
 62
     1
  6
DASHDOT
370
     9
390
F
347
46
348
0
  0
LAYER
  5
D9
330
2
100
AcDbSymbolTableRecord
100
AcDbLayerTableRecord
  2
25
 70
     0
 62
     1
  6
HIDDEN
370
     9
390
F
347
46
348
0
  0
LAYER
  5
DA
330
2
100
AcDbSymbolTableRecord
100
AcDbLayerTableRecord
  2
26
 70
     0
 62
     2
  6
Continuous
370
     9
390
F
347
46
348
0
  0
LAYER
  5
DB
330
2
100
AcDbSymbolTableRecord
100
AcDbLayerTableRecord
  2
27
 70
     0
 62
     5
  6
HIDDEN
370
     9
390
F
347
46
348
0
  0
LAYER
  5
DC
330
2
100
AcDbSymbolTableRecord
100
AcDbLayerTableRecord
  2
28
 70
     0
 62
     3
  6
Continuous
370
     9
390
F
347
46
348
0
  0
LAYER
  5
DD
330
2
100
AcDbSymbolTableRecord
100
AcDbLayerTableRecord
  2
29
 70
     0
 62
     7
  6
HIDDEN
370
    50
390
F
347
46
348
0
  0
LAYER
  5
DE
330
2
100
AcDbSymbolTableRecord
100
AcDbLayerTableRecord
  2
30
 70
     0
 62
     7
  6
DASHDOT
370
    50
390
F
347
46
348
0
  0
LAYER
  5
DF
330
2
100
AcDbSymbolTableRecord
100
AcDbLayerTableRecord
  2
31
 70
     0
 62
     7
  6
Continuous
370
     9
390
F
347
46
348
0
  0
LAYER
  5
E0
330
2
100
AcDbSymbolTableRecord
100
AcDbLayerTableRecord
  2
32
 70
     0
 62
     7
  6
Continuous
370
     9
390
F
347
46
348
0
  0
LAYER
  5
E1
330
2
100
AcDbSymbolTableRecord
100
AcDbLayerTableRecord
  2
33
 70
     0
 62
     1
  6
DASHDOT
370
     9
390
F
347
46
348
0
  0
LAYER
  5
E2
330
2
100
AcDbSymbolTableRecord
100
AcDbLayerTableRecord
  2
34
 70
     0
 62
     7
  6
Continuous
370
     9
390
F
347
46
348
0
  0
ENDTAB
  0
TABLE
  2
STYLE
  5
3
330
0
100
AcDbSymbolTable
 70
     2
  0
STYLE
  5
11
330
3
100
AcDbSymbolTableRecord
100
AcDbTextStyleTableRecord
  2
Standard
 70
     0
 40
0.0
 41
1.0
 50
0.0
 71
     0
 42
5.0
  3
txt
  4
bigfont
  0
STYLE
  5
6C
330
3
100
AcDbSymbolTableRecord
100
AcDbTextStyleTableRecord
  2
T_STANDARD
 70
     4
 40
10.0
 41
1.0
 50
0.0
 71
     0
 42
5.0
  3
txt
  4
bigfont
1001
ACAD
1000

1071
      256
  0
ENDTAB
  0
TABLE
  2
VIEW
  5
6
330
0
100
AcDbSymbolTable
 70
     0
  0
ENDTAB
  0
TABLE
  2
UCS
  5
7
330
0
100
AcDbSymbolTable
 70
     0
  0
ENDTAB
  0
TABLE
  2
APPID
  5
9
330
0
100
AcDbSymbolTable
 70
     2
  0
APPID
  5
12
330
9
100
AcDbSymbolTableRecord
100
AcDbRegAppTableRecord
  2
ACAD
 70
     0
  0
APPID
  5
6B
330
9
100
AcDbSymbolTableRecord
100
AcDbRegAppTableRecord
  2
ODA
 70
     0
  0
ENDTAB
  0
TABLE
  2
DIMSTYLE
  5
A
330
0
100
AcDbSymbolTable
 70
     1
100
AcDbDimStyleTable
  0
DIMSTYLE
105
27
330
A
100
AcDbSymbolTableRecord
100
AcDbDimStyleTableRecord
  2
Standard
 70
     0
178
     0
340
11
  0
ENDTAB
  0
TABLE
  2
BLOCK_RECORD
  5
1
330
0
100
AcDbSymbolTable
 70
    26
  0
BLOCK_RECORD
  5
1F
330
1
100
AcDbSymbolTableRecord
100
AcDbBlockTableRecord
  2
*Model_Space
340
22
 70
     0
280
     1
281
     0
  0
BLOCK_RECORD
  5
1B
330
1
100
AcDbSymbolTableRecord
100
AcDbBlockTableRecord
  2
*Paper_Space
340
1E
 70
     0
280
     1
281
     0
  0
BLOCK_RECORD
  5
23
330
1
100
AcDbSymbolTableRecord
100
AcDbBlockTableRecord
  2
*Paper_Space0
340
26
 70
     0
280
     1
281
     0
  0
BLOCK_RECORD
  5
6D
330
1
100
AcDbSymbolTableRecord
100
AcDbBlockTableRecord
  2
_ORIGIN
340
0
 70
     0
280
     1
281
     0
  0
BLOCK_RECORD
  5
72
330
1
100
AcDbSymbolTableRecord
100
AcDbBlockTableRecord
  2
_DOTBLANK
340
0
 70
     0
280
     1
281
     0
  0
BLOCK_RECORD
  5
77
330
1
100
AcDbSymbolTableRecord
100
AcDbBlockTableRecord
  2
_DOT
340
0
 70
     0
280
     1
281
     0
  0
BLOCK_RECORD
  5
7C
330
1
100
AcDbSymbolTableRecord
100
AcDbBlockTableRecord
  2
_OPEN
340
0
102
{BLKREFS
331
4F9
331
500
102
}
 70
     0
280
     1
281
     0
  0
BLOCK_RECORD
  5
82
330
1
100
AcDbSymbolTableRecord
100
AcDbBlockTableRecord
  2
_CLOSED
340
0
 70
     0
280
     1
281
     0
  0
BLOCK_RECORD
  5
89
330
1
100
AcDbSymbolTableRecord
100
AcDbBlockTableRecord
  2
_CLOSEDBLANK
340
0
 70
     0
280
     1
281
     0
  0
BLOCK_RECORD
  5
8F
330
1
100
AcDbSymbolTableRecord
100
AcDbBlockTableRecord
  2
_ARROWFILLED
340
0
 70
     0
280
     1
281
     0
  0
BLOCK_RECORD
  5
93
330
1
100
AcDbSymbolTableRecord
100
AcDbBlockTableRecord
  2
_BOXBLANK
340
0
 70
     0
280
     1
281
     0
  0
BLOCK_RECORD
  5
9B
330
1
100
AcDbSymbolTableRecord
100
AcDbBlockTableRecord
  2
_BOXFILLED
340
0
 70
     0
280
     1
281
     0
  0
BLOCK_RECORD
  5
A0
330
1
100
AcDbSymbolTableRecord
100
AcDbBlockTableRecord
  2
_INTEGRAL
340
0
 70
     0
280
     1
281
     0
  0
BLOCK_RECORD
  5
A5
330
1
100
AcDbSymbolTableRecord
100
AcDbBlockTableRecord
  2
_OBLIQUE
340
0
 70
     0
280
     1
281
     0
  0
BLOCK_RECORD
  5
A9
330
1
100
AcDbSymbolTableRecord
100
AcDbBlockTableRecord
  2
_NONE
340
0
 70
     0
280
     1
281
     0
  0
BLOCK_RECORD
  5
AC
330
1
100
AcDbSymbolTableRecord
100
AcDbBlockTableRecord
  2
MARK_OPEN
340
0
 70
     0
280
     1
281
     0
  0
BLOCK_RECORD
  5
B1
330
1
100
AcDbSymbolTableRecord
100
AcDbBlockTableRecord
  2
MARK_ORIGIN
340
0
 70
     0
280
     1
281
     0
  0
BLOCK_RECORD
  5
B5
330
1
100
AcDbSymbolTableRecord
100
AcDbBlockTableRecord
  2
MARK_DOT
340
0
 70
     0
280
     1
281
     0
  0
BLOCK_RECORD
  5
EC
330
1
100
AcDbSymbolTableRecord
100
AcDbBlockTableRecord
  2
*G16
340
0
102
{BLKREFS
331
F3
102
}
 70
     0
280
     1
281
     0
  0
BLOCK_RECORD
  5
F4
330
1
100
AcDbSymbolTableRecord
100
AcDbBlockTableRecord
  2
*G17
340
0
102
{BLKREFS
331
FB
102
}
 70
     0
280
     1
281
     0
  0
BLOCK_RECORD
  5
13D
330
1
100
AcDbSymbolTableRecord
100
AcDbBlockTableRecord
  2
*G18
340
0
102
{BLKREFS
331
151
102
}
 70
     0
280
     1
281
     0
  0
BLOCK_RECORD
  5
163
330
1
100
AcDbSymbolTableRecord
100
AcDbBlockTableRecord
  2
*G19
340
0
102
{BLKREFS
331
177
102
}
 70
     0
280
     1
281
     0
  0
BLOCK_RECORD
  5
17D
330
1
100
AcDbSymbolTableRecord
100
AcDbBlockTableRecord
  2
*G20
340
0
102
{BLKREFS
331
1B6
102
}
 70
     0
280
     1
281
     0
  0
BLOCK_RECORD
  5
180
330
1
100
AcDbSymbolTableRecord
100
AcDbBlockTableRecord
  2
*G21
340
0
102
{BLKREFS
331
1B5
102
}
 70
     0
280
     1
281
     0
  0
BLOCK_RECORD
  5
291
330
1
100
AcDbSymbolTableRecord
100
AcDbBlockTableRecord
  2
*G22
340
0
102
{BLKREFS
331
2C3
102
}
 70
     0
280
     1
281
     0
  0
BLOCK_RECORD
  5
294
330
1
100
AcDbSymbolTableRecord
100
AcDbBlockTableRecord
  2
*G23
340
0
102
{BLKREFS
331
2C2
102
}
 70
     0
280
     1
281
     0
  0
BLOCK_RECORD
  5
3DB
330
1
100
AcDbSymbolTableRecord
100
AcDbBlockTableRecord
  2
*G24
340
0
102
{BLKREFS
331
3EF
102
}
 70
     0
280
     1
281
     0
  0
BLOCK_RECORD
  5
422
330
1
100
AcDbSymbolTableRecord
100
AcDbBlockTableRecord
  2
*G25
340
0
102
{BLKREFS
331
436
102
}
 70
     0
280
     1
281
     0
  0
ENDTAB
  0
ENDSEC
  0
SECTION
  2
BLOCKS
  0
BLOCK
  5
20
330
1F
100
AcDbEntity
  8
0
100
AcDbBlockBegin
  2
*Model_Space
 70
     0
 10
0.0
 20
0.0
 30
0.0
  3
*Model_Space
  1
*Model_Space
  0
ENDBLK
  5
21
330
1F
100
AcDbEntity
  8
0
100
AcDbBlockEnd
  0
BLOCK
  5
1C
330
1B
100
AcDbEntity
 67
     1
  8
0
100
AcDbBlockBegin
  2
*Paper_Space
 70
     0
 10
0.0
 20
0.0
 30
0.0
  3
*Paper_Space
  1
*Paper_Space
  0
ENDBLK
  5
1D
330
1B
100
AcDbEntity
 67
     1
  8
0
100
AcDbBlockEnd
  0
BLOCK
  5
24
330
23
100
AcDbEntity
  8
0
100
AcDbBlockBegin
  2
*Paper_Space0
 70
     0
 10
0.0
 20
0.0
 30
0.0
  3
*Paper_Space0
  1
*Paper_Space0
  0
ENDBLK
  5
25
330
23
100
AcDbEntity
  8
0
100
AcDbBlockEnd
  0
BLOCK
  5
70
330
6D
100
AcDbEntity
  8
0
100
AcDbBlockBegin
  2
_ORIGIN
 70
     0
 10
0.0
 20
0.0
 30
0.0
  3
_ORIGIN
  1
_ORIGIN
  0
CIRCLE
  5
6E
330
6D
100
AcDbEntity
  8
0
 62
     0
100
AcDbCircle
 10
0.0
 20
0.0
 30
0.0
 40
0.5
  0
LINE
  5
6F
330
6D
100
AcDbEntity
  8
0
 62
     0
100
AcDbLine
 10
0.0
 20
0.0
 30
0.0
 11
-1.0
 21
0.0
 31
0.0
  0
ENDBLK
  5
71
330
6D
100
AcDbEntity
  8
0
100
AcDbBlockEnd
  0
BLOCK
  5
75
330
72
100
AcDbEntity
  8
0
100
AcDbBlockBegin
  2
_DOTBLANK
 70
     0
 10
0.0
 20
0.0
 30
0.0
  3
_DOTBLANK
  1
_DOTBLANK
  0
CIRCLE
  5
73
330
72
100
AcDbEntity
  8
0
 62
     0
100
AcDbCircle
 10
0.0
 20
0.0
 30
0.0
 40
0.5
  0
LINE
  5
74
330
72
100
AcDbEntity
  8
0
 62
     0
100
AcDbLine
 10
-0.5
 20
0.0
 30
0.0
 11
-1.0
 21
0.0
 31
0.0
  0
ENDBLK
  5
76
330
72
100
AcDbEntity
  8
0
100
AcDbBlockEnd
  0
BLOCK
  5
7A
330
77
100
AcDbEntity
  8
0
100
AcDbBlockBegin
  2
_DOT
 70
     0
 10
0.0
 20
0.0
 30
0.0
  3
_DOT
  1
_DOT
  0
LWPOLYLINE
  5
78
330
77
100
AcDbEntity
  8
0
 62
     0
100
AcDbPolyline
 90
        2
 70
     1
 43
0.5
 10
-0.25
 20
0.0
 42
1.0
 10
0.25
 20
0.0
 42
1.0
  0
LINE
  5
79
330
77
100
AcDbEntity
  8
0
 62
     0
100
AcDbLine
 10
-0.5
 20
0.0
 30
0.0
 11
-1.0
 21
0.0
 31
0.0
  0
ENDBLK
  5
7B
330
77
100
AcDbEntity
  8
0
100
AcDbBlockEnd
  0
BLOCK
  5
80
330
7C
100
AcDbEntity
  8
0
100
AcDbBlockBegin
  2
_OPEN
 70
     0
 10
0.0
 20
0.0
 30
0.0
  3
_OPEN
  1
_OPEN
  0
LINE
  5
7D
330
7C
100
AcDbEntity
  8
0
 62
     0
100
AcDbLine
 10
0.0
 20
0.0
 30
0.0
 11
-1.0
 21
0.1666666666666667
 31
0.0
  0
LINE
  5
7E
330
7C
100
AcDbEntity
  8
0
 62
     0
100
AcDbLine
 10
0.0
 20
0.0
 30
0.0
 11
-1.0
 21
-0.1666666666666667
 31
0.0
  0
LINE
  5
7F
330
7C
100
AcDbEntity
  8
0
 62
     0
100
AcDbLine
 10
0.0
 20
0.0
 30
0.0
 11
-1.0
 21
0.0
 31
0.0
  0
ENDBLK
  5
81
330
7C
100
AcDbEntity
  8
0
100
AcDbBlockEnd
  0
BLOCK
  5
87
330
82
100
AcDbEntity
  8
0
100
AcDbBlockBegin
  2
_CLOSED
 70
     0
 10
0.0
 20
0.0
 30
0.0
  3
_CLOSED
  1
_CLOSED
  0
LINE
  5
83
330
82
100
AcDbEntity
  8
0
 62
     0
100
AcDbLine
 10
0.0
 20
0.0
 30
0.0
 11
-1.0
 21
0.1666666666666667
 31
0.0
  0
LINE
  5
84
330
82
100
AcDbEntity
  8
0
 62
     0
100
AcDbLine
 10
0.0
 20
0.0
 30
0.0
 11
-1.0
 21
-0.1666666666666667
 31
0.0
  0
LINE
  5
85
330
82
100
AcDbEntity
  8
0
 62
     0
100
AcDbLine
 10
-1.0
 20
0.1666666666666667
 30
0.0
 11
-1.0
 21
-0.1666666666666667
 31
0.0
  0
LINE
  5
86
330
82
100
AcDbEntity
  8
0
 62
     0
100
AcDbLine
 10
0.0
 20
0.0
 30
0.0
 11
-1.0
 21
0.0
 31
0.0
  0
ENDBLK
  5
88
330
82
100
AcDbEntity
  8
0
100
AcDbBlockEnd
  0
BLOCK
  5
8D
330
89
100
AcDbEntity
  8
0
100
AcDbBlockBegin
  2
_CLOSEDBLANK
 70
     0
 10
0.0
 20
0.0
 30
0.0
  3
_CLOSEDBLANK
  1
_CLOSEDBLANK
  0
LINE
  5
8A
330
89
100
AcDbEntity
  8
0
 62
     0
100
AcDbLine
 10
0.0
 20
0.0
 30
0.0
 11
-1.0
 21
0.1666666666666667
 31
0.0
  0
LINE
  5
8B
330
89
100
AcDbEntity
  8
0
 62
     0
100
AcDbLine
 10
0.0
 20
0.0
 30
0.0
 11
-1.0
 21
-0.1666666666666667
 31
0.0
  0
LINE
  5
8C
330
89
100
AcDbEntity
  8
0
 62
     0
100
AcDbLine
 10
-1.0
 20
0.1666666666666667
 30
0.0
 11
-1.0
 21
-0.1666666666666667
 31
0.0
  0
ENDBLK
  5
8E
330
89
100
AcDbEntity
  8
0
100
AcDbBlockEnd
  0
BLOCK
  5
91
330
8F
100
AcDbEntity
  8
0
100
AcDbBlockBegin
  2
_ARROWFILLED
 70
     0
 10
0.0
 20
0.0
 30
0.0
  3
_ARROWFILLED
  1
_ARROWFILLED
  0
SOLID
  5
90
330
8F
100
AcDbEntity
  8
0
 62
     0
100
AcDbTrace
 10
0.0
 20
0.0
 30
0.0
 11
-1.0
 21
-0.1666666666666667
 31
0.0
 12
-1.0
 22
0.1666666666666667
 32
0.0
 13
0.0
 23
0.0
 33
0.0
  0
ENDBLK
  5
92
330
8F
100
AcDbEntity
  8
0
100
AcDbBlockEnd
  0
BLOCK
  5
99
330
93
100
AcDbEntity
  8
0
100
AcDbBlockBegin
  2
_BOXBLANK
 70
     0
 10
0.0
 20
0.0
 30
0.0
  3
_BOXBLANK
  1
_BOXBLANK
  0
LINE
  5
94
330
93
100
AcDbEntity
  8
0
 62
     0
100
AcDbLine
 10
-0.5
 20
-0.5
 30
0.0
 11
0.5
 21
-0.5
 31
0.0
  0
LINE
  5
95
330
93
100
AcDbEntity
  8
0
 62
     0
100
AcDbLine
 10
0.5
 20
-0.5
 30
0.0
 11
0.5
 21
0.5
 31
0.0
  0
LINE
  5
96
330
93
100
AcDbEntity
  8
0
 62
     0
100
AcDbLine
 10
0.5
 20
0.5
 30
0.0
 11
-0.5
 21
0.5
 31
0.0
  0
LINE
  5
97
330
93
100
AcDbEntity
  8
0
 62
     0
100
AcDbLine
 10
-0.5
 20
0.5
 30
0.0
 11
-0.5
 21
-0.5
 31
0.0
  0
LINE
  5
98
330
93
100
AcDbEntity
  8
0
 62
     0
100
AcDbLine
 10
-0.5
 20
0.0
 30
0.0
 11
-1.0
 21
0.0
 31
0.0
  0
ENDBLK
  5
9A
330
93
100
AcDbEntity
  8
0
100
AcDbBlockEnd
  0
BLOCK
  5
9E
330
9B
100
AcDbEntity
  8
0
100
AcDbBlockBegin
  2
_BOXFILLED
 70
     0
 10
0.0
 20
0.0
 30
0.0
  3
_BOXFILLED
  1
_BOXFILLED
  0
SOLID
  5
9C
330
9B
100
AcDbEntity
  8
0
 62
     0
100
AcDbTrace
 10
-0.5
 20
0.5
 30
0.0
 11
0.5
 21
0.5
 31
0.0
 12
-0.5
 22
-0.5
 32
0.0
 13
0.5
 23
-0.5
 33
0.0
  0
LINE
  5
9D
330
9B
100
AcDbEntity
  8
0
 62
     0
100
AcDbLine
 10
-0.5
 20
0.0
 30
0.0
 11
-1.0
 21
0.0
 31
0.0
  0
ENDBLK
  5
9F
330
9B
100
AcDbEntity
  8
0
100
AcDbBlockEnd
  0
BLOCK
  5
A3
330
A0
100
AcDbEntity
  8
0
100
AcDbBlockBegin
  2
_INTEGRAL
 70
     0
 10
0.0
 20
0.0
 30
0.0
  3
_INTEGRAL
  1
_INTEGRAL
  0
ARC
  5
A1
330
A0
100
AcDbEntity
  8
0
 62
     0
100
AcDbCircle
 10
0.444888
 20
-0.0913346
 30
0.0
 40
0.4541666
100
AcDbArc
 50
101.9999999999999
 51
167.9999999999998
  0
ARC
  5
A2
330
A0
100
AcDbEntity
  8
0
 62
     0
100
AcDbCircle
 10
-0.444888
 20
0.0913346
 30
0.0
 40
0.4541666
100
AcDbArc
 50
281.9999999999997
 51
347.9999999999997
  0
ENDBLK
  5
A4
330
A0
100
AcDbEntity
  8
0
100
AcDbBlockEnd
  0
BLOCK
  5
A7
330
A5
100
AcDbEntity
  8
0
100
AcDbBlockBegin
  2
_OBLIQUE
 70
     0
 10
0.0
 20
0.0
 30
0.0
  3
_OBLIQUE
  1
_OBLIQUE
  0
LINE
  5
A6
330
A5
100
AcDbEntity
  8
0
 62
     0
100
AcDbLine
 10
-0.5
 20
-0.5
 30
0.0
 11
0.5
 21
0.5
 31
0.0
  0
ENDBLK
  5
A8
330
A5
100
AcDbEntity
  8
0
100
AcDbBlockEnd
  0
BLOCK
  5
AA
330
A9
100
AcDbEntity
  8
0
100
AcDbBlockBegin
  2
_NONE
 70
     0
 10
0.0
 20
0.0
 30
0.0
  3
_NONE
  1
_NONE
  0
ENDBLK
  5
AB
330
A9
100
AcDbEntity
  8
0
100
AcDbBlockEnd
  0
BLOCK
  5
AF
330
AC
100
AcDbEntity
  8
0
100
AcDbBlockBegin
  2
MARK_OPEN
 70
     0
 10
0.0
 20
0.0
 30
0.0
  3
MARK_OPEN
  1
MARK_OPEN
  0
LINE
  5
AD
330
AC
100
AcDbEntity
  8
0
 62
     0
100
AcDbLine
 10
0.0
 20
0.0
 30
0.0
 11
-1.0
 21
0.1666666666666667
 31
0.0
  0
LINE
  5
AE
330
AC
100
AcDbEntity
  8
0
 62
     0
100
AcDbLine
 10
0.0
 20
0.0
 30
0.0
 11
-1.0
 21
-0.1666666666666667
 31
0.0
  0
ENDBLK
  5
B0
330
AC
100
AcDbEntity
  8
0
100
AcDbBlockEnd
  0
BLOCK
  5
B3
330
B1
100
AcDbEntity
  8
0
100
AcDbBlockBegin
  2
MARK_ORIGIN
 70
     0
 10
0.0
 20
0.0
 30
0.0
  3
MARK_ORIGIN
  1
MARK_ORIGIN
  0
CIRCLE
  5
B2
330
B1
100
AcDbEntity
  8
0
 62
     0
100
AcDbCircle
 10
0.0
 20
0.0
 30
0.0
 40
0.5
  0
ENDBLK
  5
B4
330
B1
100
AcDbEntity
  8
0
100
AcDbBlockEnd
  0
BLOCK
  5
B7
330
B5
100
AcDbEntity
  8
0
100
AcDbBlockBegin
  2
MARK_DOT
 70
     0
 10
0.0
 20
0.0
 30
0.0
  3
MARK_DOT
  1
MARK_DOT
  0
LWPOLYLINE
  5
B6
330
B5
100
AcDbEntity
  8
0
 62
     0
100
AcDbPolyline
 90
        2
 70
     1
 43
0.5
 10
-0.25
 20
0.0
 42
1.0
 10
0.25
 20
0.0
 42
1.0
  0
ENDBLK
  5
B8
330
B5
100
AcDbEntity
  8
0
100
AcDbBlockEnd
  0
BLOCK
  5
ED
330
EC
100
AcDbEntity
  8
0
100
AcDbBlockBegin
  2
*G16
 70
     1
 10
0.0
 20
0.0
 30
0.0
  3
*G16
  1
*G16
  0
LINE
  5
EF
330
EC
100
AcDbEntity
  8
12
  6
Continuous
 62
     5
370
    53
100
AcDbLine
 10
181.0008386856764
 20
0.0058386906978285
 30
0.0
 11
181.0008386856764
 21
283.0058386906978
 31
0.0
  0
LINE
  5
F0
330
EC
100
AcDbEntity
  8
12
  6
Continuous
 62
     5
370
    53
100
AcDbLine
 10
0.0008394096764732
 20
283.0058386906978
 30
0.0
 11
181.0008386856764
 21
283.0058386906978
 31
0.0
  0
LINE
  5
F1
330
EC
100
AcDbEntity
  8
12
  6
Continuous
 62
     5
370
    53
100
AcDbLine
 10
181.0008386856764
 20
0.0058386906978285
 30
0.0
 11
0.0008394096764732
 21
0.0058386906978285
 31
0.0
  0
LINE
  5
F2
330
EC
100
AcDbEntity
  8
12
  6
Continuous
 62
     5
370
    53
100
AcDbLine
 10
0.0008394096764732
 20
0.0058386906978285
 30
0.0
 11
0.0008394096764732
 21
283.0058386906978
 31
0.0
  0
ENDBLK
  5
EE
330
EC
100
AcDbEntity
  8
0
100
AcDbBlockEnd
  0
BLOCK
  5
F5
330
F4
100
AcDbEntity
  8
0
100
AcDbBlockBegin
  2
*G17
 70
     1
 10
0.0
 20
0.0
 30
0.0
  3
*G17
  1
*G17
  0
LINE
  5
F7
330
F4
100
AcDbEntity
  8
12
  6
Continuous
 62
     5
370
    53
100
AcDbLine
 10
362.0008379616762
 20
0.0058386906978285
 30
0.0
 11
362.0008379616762
 21
283.0058386906978
 31
0.0
  0
LINE
  5
F8
330
F4
100
AcDbEntity
  8
12
  6
Continuous
 62
     5
370
    53
100
AcDbLine
 10
181.0008386856763
 20
283.0058386906978
 30
0.0
 11
362.0008379616762
 21
283.0058386906978
 31
0.0
  0
LINE
  5
F9
330
F4
100
AcDbEntity
  8
12
  6
Continuous
 62
     5
370
    53
100
AcDbLine
 10
362.0008379616762
 20
0.0058386906978285
 30
0.0
 11
181.0008386856763
 21
0.0058386906978285
 31
0.0
  0
LINE
  5
FA
330
F4
100
AcDbEntity
  8
12
  6
Continuous
 62
     5
370
    53
100
AcDbLine
 10
181.0008386856763
 20
0.0058386906978285
 30
0.0
 11
181.0008386856763
 21
283.0058386906978
 31
0.0
  0
ENDBLK
  5
F6
330
F4
100
AcDbEntity
  8
0
100
AcDbBlockEnd
  0
BLOCK
  5
13E
330
13D
100
AcDbEntity
  8
0
100
AcDbBlockBegin
  2
*G18
 70
     1
 10
0.0
 20
0.0
 30
0.0
  3
*G18
  1
*G18
  0
LINE
  5
140
330
13D
100
AcDbEntity
  8
5
  6
Continuous
 62
     4
370
    25
100
AcDbLine
 10
138.5413218381552
 20
174.6903019062299
 30
0.0
 11
133.5413218381553
 21
179.6903019062299
 31
0.0
  0
LINE
  5
141
330
13D
100
AcDbEntity
  8
5
  6
Continuous
 62
     4
370
    25
100
AcDbLine
 10
141.3697489629014
 20
174.6903019062299
 30
0.0
 11
136.3697489629014
 21
179.6903019062299
 31
0.0
  0
LINE
  5
142
330
13D
100
AcDbEntity
  8
5
  6
Continuous
 62
     4
370
    25
100
AcDbLine
 10
144.1981760876476
 20
174.6903019062299
 30
0.0
 11
139.1981760876476
 21
179.6903019062299
 31
0.0
  0
LINE
  5
143
330
13D
100
AcDbEntity
  8
5
  6
Continuous
 62
     4
370
    25
100
AcDbLine
 10
147.0266032123938
 20
174.6903019062299
 30
0.0
 11
142.0266032123938
 21
179.6903019062299
 31
0.0
  0
LINE
  5
144
330
13D
100
AcDbEntity
  8
5
  6
Continuous
 62
     4
370
    25
100
AcDbLine
 10
149.85503033714
 20
174.6903019062299
 30
0.0
 11
144.85503033714
 21
179.6903019062299
 31
0.0
  0
LINE
  5
145
330
13D
100
AcDbEntity
  8
5
  6
Continuous
 62
     4
370
    25
100
AcDbLine
 10
152.6834574618862
 20
174.6903019062299
 30
0.0
 11
147.6834574618861
 21
179.6903019062299
 31
0.0
  0
LINE
  5
146
330
13D
100
AcDbEntity
  8
5
  6
Continuous
 62
     4
370
    25
100
AcDbLine
 10
155.5118845866324
 20
174.6903019062299
 30
0.0
 11
150.5118845866324
 21
179.6903019062299
 31
0.0
  0
LINE
  5
147
330
13D
100
AcDbEntity
  8
5
  6
Continuous
 62
     4
370
    25
100
AcDbLine
 10
157.248327209077
 20
175.7822864085314
 30
0.0
 11
153.3403117113785
 21
179.6903019062299
 31
0.0
  0
LINE
  5
148
330
13D
100
AcDbEntity
  8
5
  6
Continuous
 62
     4
370
    25
100
AcDbLine
 10
158.7249746046447
 20
177.13406613771
 30
0.0
 11
156.1687388361247
 21
179.6903019062299
 31
0.0
  0
LINE
  5
149
330
13D
100
AcDbEntity
  8
5
  6
Continuous
 62
     4
370
    25
100
AcDbLine
 10
159.978155143835
 20
178.7093127232658
 30
0.0
 11
158.9971659608709
 21
179.6903019062299
 31
0.0
  0
LINE
  5
14A
330
13D
100
AcDbEntity
  8
5
  6
Continuous
 62
     4
370
    25
100
AcDbLine
 10
135.712894713409
 20
174.6903019062299
 30
0.0
 11
130.712894713409
 21
179.6903019062299
 31
0.0
  0
LINE
  5
14B
330
13D
100
AcDbEntity
  8
5
  6
Continuous
 62
     4
370
    25
100
AcDbLine
 10
132.8844675886628
 20
174.6903019062299
 30
0.0
 11
127.8844675886628
 21
179.6903019062299
 31
0.0
  0
LINE
  5
14C
330
13D
100
AcDbEntity
  8
5
  6
Continuous
 62
     4
370
    25
100
AcDbLine
 10
130.0560404639167
 20
174.6903019062299
 30
0.0
 11
125.0560404639166
 21
179.6903019062299
 31
0.0
  0
LINE
  5
14D
330
13D
100
AcDbEntity
  8
5
  6
Continuous
 62
     4
370
    25
100
AcDbLine
 10
127.2276133391705
 20
174.6903019062299
 30
0.0
 11
122.2276133391705
 21
179.6903019062299
 31
0.0
  0
LINE
  5
14E
330
13D
100
AcDbEntity
  8
5
  6
Continuous
 62
     4
370
    25
100
AcDbLine
 10
124.3991862144243
 20
174.6903019062299
 30
0.0
 11
119.3991862144243
 21
179.6903019062299
 31
0.0
  0
LINE
  5
14F
330
13D
100
AcDbEntity
  8
5
  6
Continuous
 62
     4
370
    25
100
AcDbLine
 10
121.5707590896781
 20
174.6903019062299
 30
0.0
 11
116.5707590896781
 21
179.6903019062299
 31
0.0
  0
LINE
  5
150
330
13D
100
AcDbEntity
  8
5
  6
Continuous
 62
     4
370
    25
100
AcDbLine
 10
118.7423319649319
 20
174.6903019062299
 30
0.0
 11
116.4533937573407
 21
176.9792401138209
 31
0.0
  0
ENDBLK
  5
13F
330
13D
100
AcDbEntity
  8
0
100
AcDbBlockEnd
  0
BLOCK
  5
164
330
163
100
AcDbEntity
  8
0
100
AcDbBlockBegin
  2
*G19
 70
     1
 10
0.0
 20
0.0
 30
0.0
  3
*G19
  1
*G19
  0
LINE
  5
166
330
163
100
AcDbEntity
  8
5
  6
Continuous
 62
     4
370
    25
100
AcDbLine
 10
44.36546567652601
 20
174.6903019062299
 30
0.0
 11
49.36546567652601
 21
179.6903019062299
 31
0.0
  0
LINE
  5
167
330
163
100
AcDbEntity
  8
5
  6
Continuous
 62
     4
370
    25
100
AcDbLine
 10
41.53703855177983
 20
174.6903019062299
 30
0.0
 11
46.53703855177984
 21
179.6903019062299
 31
0.0
  0
LINE
  5
168
330
163
100
AcDbEntity
  8
5
  6
Continuous
 62
     4
370
    25
100
AcDbLine
 10
38.70861142703365
 20
174.6903019062299
 30
0.0
 11
43.70861142703365
 21
179.6903019062299
 31
0.0
  0
LINE
  5
169
330
163
100
AcDbEntity
  8
5
  6
Continuous
 62
     4
370
    25
100
AcDbLine
 10
35.88018430228744
 20
174.6903019062299
 30
0.0
 11
40.88018430228744
 21
179.6903019062299
 31
0.0
  0
LINE
  5
16A
330
163
100
AcDbEntity
  8
5
  6
Continuous
 62
     4
370
    25
100
AcDbLine
 10
33.05175717754126
 20
174.6903019062299
 30
0.0
 11
38.05175717754127
 21
179.6903019062299
 31
0.0
  0
LINE
  5
16B
330
163
100
AcDbEntity
  8
5
  6
Continuous
 62
     4
370
    25
100
AcDbLine
 10
30.22333005279506
 20
174.6903019062299
 30
0.0
 11
35.22333005279507
 21
179.6903019062299
 31
0.0
  0
LINE
  5
16C
330
163
100
AcDbEntity
  8
5
  6
Continuous
 62
     4
370
    25
100
AcDbLine
 10
27.39490292804886
 20
174.6903019062299
 30
0.0
 11
32.39490292804887
 21
179.6903019062299
 31
0.0
  0
LINE
  5
16D
330
163
100
AcDbEntity
  8
5
  6
Continuous
 62
     4
370
    25
100
AcDbLine
 10
25.65846030560427
 20
175.7822864085314
 30
0.0
 11
29.56647580330269
 21
179.6903019062299
 31
0.0
  0
LINE
  5
16E
330
163
100
AcDbEntity
  8
5
  6
Continuous
 62
     4
370
    25
100
AcDbLine
 10
24.18181291003656
 20
177.13406613771
 30
0.0
 11
26.7380486785565
 21
179.6903019062299
 31
0.0
  0
LINE
  5
16F
330
163
100
AcDbEntity
  8
5
  6
Continuous
 62
     4
370
    25
100
AcDbLine
 10
22.92863237084622
 20
178.7093127232658
 30
0.0
 11
23.90962155381031
 21
179.6903019062299
 31
0.0
  0
LINE
  5
170
330
163
100
AcDbEntity
  8
5
  6
Continuous
 62
     4
370
    25
100
AcDbLine
 10
47.19389280127221
 20
174.6903019062299
 30
0.0
 11
52.19389280127223
 21
179.6903019062299
 31
0.0
  0
LINE
  5
171
330
163
100
AcDbEntity
  8
5
  6
Continuous
 62
     4
370
    25
100
AcDbLine
 10
50.0223199260184
 20
174.6903019062299
 30
0.0
 11
55.02231992601841
 21
179.6903019062299
 31
0.0
  0
LINE
  5
172
330
163
100
AcDbEntity
  8
5
  6
Continuous
 62
     4
370
    25
100
AcDbLine
 10
52.85074705076458
 20
174.6903019062299
 30
0.0
 11
57.8507470507646
 21
179.6903019062299
 31
0.0
  0
LINE
  5
173
330
163
100
AcDbEntity
  8
5
  6
Continuous
 62
     4
370
    25
100
AcDbLine
 10
55.67917417551077
 20
174.6903019062299
 30
0.0
 11
60.67917417551077
 21
179.6903019062299
 31
0.0
  0
LINE
  5
174
330
163
100
AcDbEntity
  8
5
  6
Continuous
 62
     4
370
    25
100
AcDbLine
 10
58.50760130025695
 20
174.6903019062299
 30
0.0
 11
63.50760130025697
 21
179.6903019062299
 31
0.0
  0
LINE
  5
175
330
163
100
AcDbEntity
  8
5
  6
Continuous
 62
     4
370
    25
100
AcDbLine
 10
61.33602842500315
 20
174.6903019062299
 30
0.0
 11
66.33602842500316
 21
179.6903019062299
 31
0.0
  0
LINE
  5
176
330
163
100
AcDbEntity
  8
5
  6
Continuous
 62
     4
370
    25
100
AcDbLine
 10
64.16445554974933
 20
174.6903019062299
 30
0.0
 11
66.45339375734055
 21
176.9792401138209
 31
0.0
  0
ENDBLK
  5
165
330
163
100
AcDbEntity
  8
0
100
AcDbBlockEnd
  0
BLOCK
  5
17E
330
17D
100
AcDbEntity
  8
0
100
AcDbBlockBegin
  2
*G20
 70
     1
 10
0.0
 20
0.0
 30
0.0
  3
*G20
  1
*G20
  0
INSERT
  5
1B5
330
17D
100
AcDbEntity
  8
5
100
AcDbBlockReference
  2
*G21
 10
0.0
 20
0.0
 30
0.0
  0
ENDBLK
  5
17F
330
17D
100
AcDbEntity
  8
0
100
AcDbBlockEnd
  0
BLOCK
  5
181
330
180
100
AcDbEntity
  8
0
100
AcDbBlockBegin
  2
*G21
 70
     1
 10
0.0
 20
0.0
 30
0.0
  3
*G21
  1
*G21
  0
LINE
  5
183
330
180
100
AcDbEntity
  8
5
  6
Continuous
 62
     4
370
    25
100
AcDbLine
 10
70.80327873697898
 20
147.691042834739
 30
0.0
 11
73.35041934283593
 21
150.238183440596
 31
0.0
  0
LINE
  5
184
330
180
100
AcDbEntity
  8
5
  6
Continuous
 62
     4
370
    25
100
AcDbLine
 10
69.64374262710201
 20
148.2992736778286
 30
0.0
 11
73.35041934283593
 21
152.0059503935625
 31
0.0
  0
LINE
  5
185
330
180
100
AcDbEntity
  8
5
  6
Continuous
 62
     4
370
    25
100
AcDbLine
 10
69.35041934283775
 20
149.7737173465307
 30
0.0
 11
73.35041934283593
 21
153.773717346529
 31
0.0
  0
LINE
  5
186
330
180
100
AcDbEntity
  8
5
  6
Continuous
 62
     4
370
    25
100
AcDbLine
 10
69.35041934283775
 20
151.5414842994972
 30
0.0
 11
73.35041934283593
 21
155.5414842994954
 31
0.0
  0
LINE
  5
187
330
180
100
AcDbEntity
  8
5
  6
Continuous
 62
     4
370
    25
100
AcDbLine
 10
69.35041934283775
 20
153.3092512524636
 30
0.0
 11
73.35041934283605
 21
157.3092512524619
 31
0.0
  0
LINE
  5
188
330
180
100
AcDbEntity
  8
5
  6
Continuous
 62
     4
370
    25
100
AcDbLine
 10
69.35041934283775
 20
155.0770182054301
 30
0.0
 11
73.35041934283616
 21
159.0770182054284
 31
0.0
  0
LINE
  5
189
330
180
100
AcDbEntity
  8
5
  6
Continuous
 62
     4
370
    25
100
AcDbLine
 10
69.35041934283775
 20
156.8447851583966
 30
0.0
 11
73.35041934283616
 21
160.8447851583949
 31
0.0
  0
LINE
  5
18A
330
180
100
AcDbEntity
  8
5
  6
Continuous
 62
     4
370
    25
100
AcDbLine
 10
69.35041934283775
 20
158.612552111363
 30
0.0
 11
73.35041934283616
 21
162.6125521113614
 31
0.0
  0
LINE
  5
18B
330
180
100
AcDbEntity
  8
5
  6
Continuous
 62
     4
370
    25
100
AcDbLine
 10
69.26441125943448
 20
160.2943109809261
 30
0.0
 11
73.35041934283616
 21
164.3803190643279
 31
0.0
  0
LINE
  5
18C
330
180
100
AcDbEntity
  8
5
  6
Continuous
 62
     4
370
    25
100
AcDbLine
 10
69.02064595677585
 20
161.818312631234
 30
0.0
 11
73.35041934283628
 21
166.1480860172944
 31
0.0
  0
LINE
  5
18D
330
180
100
AcDbEntity
  8
5
  6
Continuous
 62
     4
370
    25
100
AcDbLine
 10
68.65119983389637
 20
163.2166334613209
 30
0.0
 11
73.35041934283628
 21
167.9158529702609
 31
0.0
  0
LINE
  5
18E
330
180
100
AcDbEntity
  8
5
  6
Continuous
 62
     4
370
    25
100
AcDbLine
 10
68.17584060818079
 20
164.5090411885718
 30
0.0
 11
73.35041934283639
 21
169.6836199232274
 31
0.0
  0
LINE
  5
18F
330
180
100
AcDbEntity
  8
5
  6
Continuous
 62
     4
370
    25
100
AcDbLine
 10
73.37278423489384
 20
169.7059848152848
 30
0.0
 11
73.78879183230377
 21
170.1219924126948
 31
0.0
  0
LINE
  5
190
330
180
100
AcDbEntity
  8
5
  6
Continuous
 62
     4
370
    25
100
AcDbLine
 10
67.6073807326777
 20
165.7083482660351
 30
0.0
 11
72.50117208189509
 21
170.6021396152525
 31
0.0
  0
LINE
  5
191
330
180
100
AcDbEntity
  8
5
  6
Continuous
 62
     4
370
    25
100
AcDbLine
 10
73.25041934283648
 20
171.351386876194
 30
0.0
 11
73.96125690088489
 21
172.0622244342424
 31
0.0
  0
LINE
  5
192
330
180
100
AcDbEntity
  8
5
  6
Continuous
 62
     4
370
    25
100
AcDbLine
 10
66.95432057134222
 20
166.8230550576662
 30
0.0
 11
70.88226175966643
 21
170.7509962459904
 31
0.0
  0
LINE
  5
193
330
180
100
AcDbEntity
  8
5
  6
Continuous
 62
     4
370
    25
100
AcDbLine
 10
70.88226175966643
 20
170.7509962459904
 30
0.0
 11
72.25041934283557
 21
172.1191538291596
 31
0.0
  0
LINE
  5
194
330
180
100
AcDbEntity
  8
5
  6
Continuous
 62
     4
370
    25
100
AcDbLine
 10
72.8171010245553
 20
172.6858355108793
 30
0.0
 11
74.13372196946612
 21
174.0024564557901
 31
0.0
  0
LINE
  5
195
330
180
100
AcDbEntity
  8
5
  6
Continuous
 62
     4
370
    25
100
AcDbLine
 10
66.22223027608764
 20
167.858731715378
 30
0.0
 11
69.38516945183868
 21
171.021670891129
 31
0.0
  0
LINE
  5
196
330
180
100
AcDbEntity
  8
5
  6
Continuous
 62
     4
370
    25
100
AcDbLine
 10
69.38516945183868
 20
171.021670891129
 30
0.0
 11
74.30618703804724
 21
175.9426884773377
 31
0.0
  0
LINE
  5
197
330
180
100
AcDbEntity
  8
5
  6
Continuous
 62
     4
370
    25
100
AcDbLine
 10
65.41450674419319
 20
168.81877513645
 30
0.0
 11
67.88807714401092
 21
171.2923455362678
 31
0.0
  0
LINE
  5
198
330
180
100
AcDbEntity
  8
5
  6
Continuous
 62
     4
370
    25
100
AcDbLine
 10
67.88807714401092
 20
171.2923455362678
 30
0.0
 11
70.03961154609611
 21
173.4438799383529
 31
0.0
  0
LINE
  5
199
330
180
100
AcDbEntity
  8
5
  6
Continuous
 62
     4
370
    25
100
AcDbLine
 10
72.0004193428408
 20
175.4046877350976
 30
0.0
 11
74.47865210662847
 21
177.8829204988853
 31
0.0
  0
LINE
  5
19A
330
180
100
AcDbEntity
  8
5
  6
Continuous
 62
     4
370
    25
100
AcDbLine
 10
64.53278059324383
 20
169.7048159384672
 30
0.0
 11
66.39098483618316
 21
171.5630201814064
 31
0.0
  0
LINE
  5
19B
330
180
100
AcDbEntity
  8
5
  6
Continuous
 62
     4
370
    25
100
AcDbLine
 10
66.39098483618316
 20
171.5630201814064
 30
0.0
 11
68.54251923826835
 21
173.7145545834916
 31
0.0
  0
LINE
  5
19C
330
180
100
AcDbEntity
  8
5
  6
Continuous
 62
     4
370
    25
100
AcDbLine
 10
72.00041934284057
 20
177.1724546880639
 30
0.0
 11
74.6511171752097
 21
179.8231525204329
 31
0.0
  0
LINE
  5
19D
330
180
100
AcDbEntity
  8
5
  6
Continuous
 62
     4
370
    25
100
AcDbLine
 10
63.57709732155193
 20
170.5168996197417
 30
0.0
 11
64.8938925283553
 21
171.8336948265451
 31
0.0
  0
LINE
  5
19E
330
180
100
AcDbEntity
  8
5
  6
Continuous
 62
     4
370
    25
100
AcDbLine
 10
64.8938925283553
 20
171.8336948265451
 30
0.0
 11
67.04542693044048
 21
173.9852292286303
 31
0.0
  0
LINE
  5
19F
330
180
100
AcDbEntity
  8
5
  6
Continuous
 62
     4
370
    25
100
AcDbLine
 10
72.00041934284057
 20
178.9402216410303
 30
0.0
 11
75.2504193428383
 21
182.190221641028
 31
0.0
  0
LINE
  5
1A0
330
180
100
AcDbEntity
  8
5
  6
Continuous
 62
     4
370
    25
100
AcDbLine
 10
62.54592223315818
 20
171.2534914843143
 30
0.0
 11
63.39680022052765
 21
172.1043694716838
 31
0.0
  0
LINE
  5
1A1
330
180
100
AcDbEntity
  8
5
  6
Continuous
 62
     4
370
    25
100
AcDbLine
 10
63.39680022052765
 20
172.1043694716838
 30
0.0
 11
65.54833462261273
 21
174.2559038737689
 31
0.0
  0
LINE
  5
1A2
330
180
100
AcDbEntity
  8
5
  6
Continuous
 62
     4
370
    25
100
AcDbLine
 10
72.00041934284046
 20
180.7079885939966
 30
0.0
 11
74.91657599895892
 21
183.6241452501151
 31
0.0
  0
LINE
  5
1A3
330
180
100
AcDbEntity
  8
5
  6
Continuous
 62
     4
370
    25
100
AcDbLine
 10
61.43597042449436
 20
171.9113066286169
 30
0.0
 11
61.89970791269978
 21
172.3750441168224
 31
0.0
  0
LINE
  5
1A4
330
180
100
AcDbEntity
  8
5
  6
Continuous
 62
     4
370
    25
100
AcDbLine
 10
61.89970791269978
 20
172.3750441168224
 30
0.0
 11
64.05124231478497
 21
174.5265785189076
 31
0.0
  0
LINE
  5
1A5
330
180
100
AcDbEntity
  8
5
  6
Continuous
 62
     4
370
    25
100
AcDbLine
 10
72.00041934284035
 20
182.4757555469629
 30
0.0
 11
74.03269252247581
 21
184.5080287265984
 31
0.0
  0
LINE
  5
1A6
330
180
100
AcDbEntity
  8
5
  6
Continuous
 62
     4
370
    25
100
AcDbLine
 10
60.24181550041759
 20
172.4849186575066
 30
0.0
 11
60.40261560487203
 21
172.6457187619611
 31
0.0
  0
LINE
  5
1A7
330
180
100
AcDbEntity
  8
5
  6
Continuous
 62
     4
370
    25
100
AcDbLine
 10
60.40261560487203
 20
172.6457187619611
 30
0.0
 11
62.44719874914061
 21
174.6903019062297
 31
0.0
  0
LINE
  5
1A8
330
180
100
AcDbEntity
  8
5
  6
Continuous
 62
     4
370
    25
100
AcDbLine
 10
72.00041934284023
 20
184.2435224999293
 30
0.0
 11
73.14880904599248
 21
185.3919122030816
 31
0.0
  0
LINE
  5
1A9
330
180
100
AcDbEntity
  8
5
  6
Continuous
 62
     4
370
    25
100
AcDbLine
 10
58.90552329704097
 20
172.9163934070965
 30
0.0
 11
60.67943179617428
 21
174.6903019062298
 31
0.0
  0
LINE
  5
1AA
330
180
100
AcDbEntity
  8
5
  6
Continuous
 62
     4
370
    25
100
AcDbLine
 10
72.00041934284012
 20
186.0112894528956
 30
0.0
 11
72.85041934283878
 21
186.8612894528943
 31
0.0
  0
LINE
  5
1AB
330
180
100
AcDbEntity
  8
5
  6
Continuous
 62
     4
370
    25
100
AcDbLine
 10
57.40843098920116
 20
173.1870680522231
 30
0.0
 11
58.91166484320773
 21
174.6903019062297
 31
0.0
  0
LINE
  5
1AC
330
180
100
AcDbEntity
  8
5
  6
Continuous
 62
     4
370
    25
100
AcDbLine
 10
72.00041934284
 20
187.779056405862
 30
0.0
 11
72.85041934283923
 21
188.6290564058612
 31
0.0
  0
LINE
  5
1AD
330
180
100
AcDbEntity
  8
5
  6
Continuous
 62
     4
370
    25
100
AcDbLine
 10
56.50906132280794
 20
174.0554653387963
 30
0.0
 11
57.14389789024129
 21
174.6903019062297
 31
0.0
  0
LINE
  5
1AE
330
180
100
AcDbEntity
  8
5
  6
Continuous
 62
     4
370
    25
100
AcDbLine
 10
72.00041934283989
 20
189.5468233588283
 30
0.0
 11
72.85485958386822
 21
190.4012635998567
 31
0.0
  0
LINE
  5
1AF
330
180
100
AcDbEntity
  8
5
  6
Continuous
 62
     4
370
    25
100
AcDbLine
 10
72.00041934283978
 20
191.3145903117947
 30
0.0
 11
72.85041934283866
 21
192.1645903117935
 31
0.0
  0
LINE
  5
1B0
330
180
100
AcDbEntity
  8
5
  6
Continuous
 62
     4
370
    25
100
AcDbLine
 10
72.00041934283966
 20
193.082357264761
 30
0.0
 11
72.59733167579917
 21
193.6792695977205
 31
0.0
  0
LINE
  5
1B1
330
180
100
AcDbEntity
  8
5
  6
Continuous
 62
     4
370
    25
100
AcDbLine
 10
72.00041934283955
 20
194.8501242177273
 30
0.0
 11
72.85041934283866
 21
195.7001242177264
 31
0.0
  0
LINE
  5
1B2
330
180
100
AcDbEntity
  8
5
  6
Continuous
 62
     4
370
    25
100
AcDbLine
 10
72.00041934283944
 20
196.6178911706937
 30
0.0
 11
72.85616852991733
 21
197.4736403577716
 31
0.0
  0
LINE
  5
1B3
330
180
100
AcDbEntity
  8
5
  6
Continuous
 62
     4
370
    25
100
AcDbLine
 10
72.00041934283944
 20
198.3856581236601
 30
0.0
 11
72.85041934283866
 21
199.2356581236593
 31
0.0
  0
LINE
  5
1B4
330
180
100
AcDbEntity
  8
5
  6
Continuous
 62
     4
370
    25
100
AcDbLine
 10
72.00041934283921
 20
200.1534250766264
 30
0.0
 11
72.85041934283866
 21
201.0034250766258
 31
0.0
  0
ENDBLK
  5
182
330
180
100
AcDbEntity
  8
0
100
AcDbBlockEnd
  0
BLOCK
  5
292
330
291
100
AcDbEntity
  8
0
100
AcDbBlockBegin
  2
*G22
 70
     1
 10
0.0
 20
0.0
 30
0.0
  3
*G22
  1
*G22
  0
INSERT
  5
2C2
330
291
100
AcDbEntity
  8
5
100
AcDbBlockReference
  2
*G23
 10
0.0
 20
0.0
 30
0.0
  0
ENDBLK
  5
293
330
291
100
AcDbEntity
  8
0
100
AcDbBlockEnd
  0
BLOCK
  5
295
330
294
100
AcDbEntity
  8
0
100
AcDbBlockBegin
  2
*G23
 70
     1
 10
0.0
 20
0.0
 30
0.0
  3
*G23
  1
*G23
  0
LINE
  5
297
330
294
100
AcDbEntity
  8
5
  6
Continuous
 62
     4
370
    25
100
AcDbLine
 10
110.26251884887
 20
147.6944965375689
 30
0.0
 11
111.6462247114446
 21
149.0782024001435
 31
0.0
  0
LINE
  5
298
330
294
100
AcDbEntity
  8
5
  6
Continuous
 62
     4
370
    25
100
AcDbLine
 10
108.5965570596189
 20
147.7963017012842
 30
0.0
 11
111.6504193428397
 21
150.850163984505
 31
0.0
  0
LINE
  5
299
330
294
100
AcDbEntity
  8
5
  6
Continuous
 62
     4
370
    25
100
AcDbLine
 10
107.7327305718132
 20
148.7002421664449
 30
0.0
 11
111.6504193428396
 21
152.6179309374713
 31
0.0
  0
LINE
  5
29A
330
294
100
AcDbEntity
  8
5
  6
Continuous
 62
     4
370
    25
100
AcDbLine
 10
107.6504193428415
 20
150.3856978904395
 30
0.0
 11
111.6504193428396
 21
154.3856978904377
 31
0.0
  0
LINE
  5
29B
330
294
100
AcDbEntity
  8
5
  6
Continuous
 62
     4
370
    25
100
AcDbLine
 10
107.6504193428415
 20
152.1534648434059
 30
0.0
 11
111.6504193428396
 21
156.153464843404
 31
0.0
  0
LINE
  5
29C
330
294
100
AcDbEntity
  8
5
  6
Continuous
 62
     4
370
    25
100
AcDbLine
 10
107.6504193428414
 20
153.9212317963722
 30
0.0
 11
111.6504193428396
 21
157.9212317963703
 31
0.0
  0
LINE
  5
29D
330
294
100
AcDbEntity
  8
5
  6
Continuous
 62
     4
370
    25
100
AcDbLine
 10
107.6504193428414
 20
155.6889987493385
 30
0.0
 11
111.6861283636912
 21
159.7247077701884
 31
0.0
  0
LINE
  5
29E
330
294
100
AcDbEntity
  8
5
  6
Continuous
 62
     4
370
    25
100
AcDbLine
 10
107.6504193428413
 20
157.4567657023048
 30
0.0
 11
111.971655454923
 21
161.7780018143865
 31
0.0
  0
LINE
  5
29F
330
294
100
AcDbEntity
  8
5
  6
Continuous
 62
     4
370
    25
100
AcDbLine
 10
123.3340018552392
 20
173.1403482147027
 30
0.0
 11
124.5004193428397
 21
174.3067657023032
 31
0.0
  0
LINE
  5
2A0
330
294
100
AcDbEntity
  8
5
  6
Continuous
 62
     4
370
    25
100
AcDbLine
 10
107.6504193428413
 20
159.2245326552712
 30
0.0
 11
112.7476713370467
 21
164.3217846494766
 31
0.0
  0
LINE
  5
2A1
330
294
100
AcDbEntity
  8
5
  6
Continuous
 62
     4
370
    25
100
AcDbLine
 10
121.0189365995984
 20
172.5930499120282
 30
0.0
 11
121.176082585313
 21
172.7501958977429
 31
0.0
  0
LINE
  5
2A2
330
294
100
AcDbEntity
  8
5
  6
Continuous
 62
     4
370
    25
100
AcDbLine
 10
121.176082585313
 20
172.7501958977429
 30
0.0
 11
123.1161885938
 21
174.6903019062298
 31
0.0
  0
LINE
  5
2A3
330
294
100
AcDbEntity
  8
5
  6
Continuous
 62
     4
370
    25
100
AcDbLine
 10
107.6504193428412
 20
160.9922996082375
 30
0.0
 11
119.0181633153677
 21
172.3600435807639
 31
0.0
  0
LINE
  5
2A4
330
294
100
AcDbEntity
  8
5
  6
Continuous
 62
     4
370
    25
100
AcDbLine
 10
119.0181633153677
 20
172.3600435807639
 30
0.0
 11
121.3484216408336
 21
174.6903019062298
 31
0.0
  0
LINE
  5
2A5
330
294
100
AcDbEntity
  8
5
  6
Continuous
 62
     4
370
    25
100
AcDbLine
 10
107.6504193428412
 20
162.7600665612038
 30
0.0
 11
116.8602440454224
 21
171.969891263785
 31
0.0
  0
LINE
  5
2A6
330
294
100
AcDbEntity
  8
5
  6
Continuous
 62
     4
370
    25
100
AcDbLine
 10
116.8602440454224
 20
171.969891263785
 30
0.0
 11
119.5806546878672
 21
174.6903019062298
 31
0.0
  0
LINE
  5
2A7
330
294
100
AcDbEntity
  8
5
  6
Continuous
 62
     4
370
    25
100
AcDbLine
 10
107.6504193428411
 20
164.5278335141701
 30
0.0
 11
114.7023247754771
 21
171.579738946806
 31
0.0
  0
LINE
  5
2A8
330
294
100
AcDbEntity
  8
5
  6
Continuous
 62
     4
370
    25
100
AcDbLine
 10
114.7023247754771
 20
171.579738946806
 30
0.0
 11
117.8035614339878
 21
174.6809756053168
 31
0.0
  0
LINE
  5
2A9
330
294
100
AcDbEntity
  8
5
  6
Continuous
 62
     4
370
    25
100
AcDbLine
 10
107.6504193428411
 20
166.2956004671364
 30
0.0
 11
112.5444055055317
 21
171.1895866298271
 31
0.0
  0
LINE
  5
2AA
330
294
100
AcDbEntity
  8
5
  6
Continuous
 62
     4
370
    25
100
AcDbLine
 10
112.5444055055317
 20
171.1895866298271
 30
0.0
 11
115.6456421640425
 21
174.2908232883379
 31
0.0
  0
LINE
  5
2AB
330
294
100
AcDbEntity
  8
5
  6
Continuous
 62
     4
370
    25
100
AcDbLine
 10
107.650419342841
 20
168.0633674201027
 30
0.0
 11
110.3864862355864
 21
170.7994343128481
 31
0.0
  0
LINE
  5
2AC
330
294
100
AcDbEntity
  8
5
  6
Continuous
 62
     4
370
    25
100
AcDbLine
 10
110.3864862355864
 20
170.7994343128481
 30
0.0
 11
113.4877228940972
 21
173.9006709713589
 31
0.0
  0
LINE
  5
2AD
330
294
100
AcDbEntity
  8
5
  6
Continuous
 62
     4
370
    25
100
AcDbLine
 10
107.5095868760023
 20
169.6903019062304
 30
0.0
 11
107.7504193428409
 21
169.931134373069
 31
0.0
  0
LINE
  5
2AE
330
294
100
AcDbEntity
  8
5
  6
Continuous
 62
     4
370
    25
100
AcDbLine
 10
107.7504193428409
 20
169.931134373069
 30
0.0
 11
108.4214245850245
 21
170.6021396152526
 31
0.0
  0
LINE
  5
2AF
330
294
100
AcDbEntity
  8
5
  6
Continuous
 62
     4
370
    25
100
AcDbLine
 10
108.7729673149336
 20
170.9536823451617
 30
0.0
 11
111.3298036241519
 21
173.51051865438
 31
0.0
  0
LINE
  5
2B0
330
294
100
AcDbEntity
  8
5
  6
Continuous
 62
     4
370
    25
100
AcDbLine
 10
107.1272683697926
 20
171.075750352987
 30
0.0
 11
107.7504193428409
 21
171.6989013260354
 31
0.0
  0
LINE
  5
2B1
330
294
100
AcDbEntity
  8
5
  6
Continuous
 62
     4
370
    25
100
AcDbLine
 10
108.599646877292
 20
172.5481288604865
 30
0.0
 11
109.4824795413962
 21
173.4309615245907
 31
0.0
  0
LINE
  5
2B2
330
294
100
AcDbEntity
  8
5
  6
Continuous
 62
     4
370
    25
100
AcDbLine
 10
106.9829608634286
 20
172.6992097995894
 30
0.0
 11
109.0004193428365
 21
174.7166682789973
 31
0.0
  0
LINE
  5
2B3
330
294
100
AcDbEntity
  8
5
  6
Continuous
 62
     4
370
    25
100
AcDbLine
 10
106.8386533570646
 20
174.3226692461918
 30
0.0
 11
109.0004193428366
 21
176.4844352319638
 31
0.0
  0
LINE
  5
2B4
330
294
100
AcDbEntity
  8
5
  6
Continuous
 62
     4
370
    25
100
AcDbLine
 10
106.6943458507006
 20
175.9461286927942
 30
0.0
 11
109.0004193428367
 21
178.2522021849302
 31
0.0
  0
LINE
  5
2B5
330
294
100
AcDbEntity
  8
5
  6
Continuous
 62
     4
370
    25
100
AcDbLine
 10
106.5500383443366
 20
177.5695881393966
 30
0.0
 11
109.0004193428368
 21
180.0199691378967
 31
0.0
  0
LINE
  5
2B6
330
294
100
AcDbEntity
  8
5
  6
Continuous
 62
     4
370
    25
100
AcDbLine
 10
106.4057308379727
 20
179.193047585999
 30
0.0
 11
109.0004193428369
 21
181.7877360908632
 31
0.0
  0
LINE
  5
2B7
330
294
100
AcDbEntity
  8
5
  6
Continuous
 62
     4
370
    25
100
AcDbLine
 10
106.2614233316087
 20
180.8165070326014
 30
0.0
 11
109.000419342837
 21
183.5555030438297
 31
0.0
  0
LINE
  5
2B8
330
294
100
AcDbEntity
  8
5
  6
Continuous
 62
     4
370
    25
100
AcDbLine
 10
105.750419342839
 20
182.0732699967981
 30
0.0
 11
109.0004193428371
 21
185.3232699967962
 31
0.0
  0
LINE
  5
2B9
330
294
100
AcDbEntity
  8
5
  6
Continuous
 62
     4
370
    25
100
AcDbLine
 10
108.1504193428386
 20
186.241036949764
 30
0.0
 11
109.0004193428372
 21
187.0910369497626
 31
0.0
  0
LINE
  5
2BA
330
294
100
AcDbEntity
  8
5
  6
Continuous
 62
     4
370
    25
100
AcDbLine
 10
108.1504193428382
 20
188.00880390273
 30
0.0
 11
109.0004193428373
 21
188.8588039027291
 31
0.0
  0
LINE
  5
2BB
330
294
100
AcDbEntity
  8
5
  6
Continuous
 62
     4
370
    25
100
AcDbLine
 10
108.1504193428378
 20
189.776570855696
 30
0.0
 11
109.0004193428374
 21
190.6265708556956
 31
0.0
  0
LINE
  5
2BC
330
294
100
AcDbEntity
  8
5
  6
Continuous
 62
     4
370
    25
100
AcDbLine
 10
108.1504193428386
 20
191.5443378086632
 30
0.0
 11
109.0004193428375
 21
192.394337808662
 31
0.0
  0
LINE
  5
2BD
330
294
100
AcDbEntity
  8
5
  6
Continuous
 62
     4
370
    25
100
AcDbLine
 10
108.1504193428386
 20
193.3121047616295
 30
0.0
 11
109.0004193428376
 21
194.1621047616285
 31
0.0
  0
LINE
  5
2BE
330
294
100
AcDbEntity
  8
5
  6
Continuous
 62
     4
370
    25
100
AcDbLine
 10
108.1504193428386
 20
195.0798717145959
 30
0.0
 11
109.0004193428377
 21
195.929871714595
 31
0.0
  0
LINE
  5
2BF
330
294
100
AcDbEntity
  8
5
  6
Continuous
 62
     4
370
    25
100
AcDbLine
 10
108.4454511632806
 20
197.1426704880042
 30
0.0
 11
109.0004193428378
 21
197.6976386675614
 31
0.0
  0
LINE
  5
2C0
330
294
100
AcDbEntity
  8
5
  6
Continuous
 62
     4
370
    25
100
AcDbLine
 10
108.1504193428386
 20
198.6154056205286
 30
0.0
 11
109.0004193428379
 21
199.4654056205279
 31
0.0
  0
LINE
  5
2C1
330
294
100
AcDbEntity
  8
5
  6
Continuous
 62
     4
370
    25
100
AcDbLine
 10
108.1504193428386
 20
200.383172573495
 30
0.0
 11
109.0004193428381
 21
201.2331725734944
 31
0.0
  0
ENDBLK
  5
296
330
294
100
AcDbEntity
  8
0
100
AcDbBlockEnd
  0
BLOCK
  5
3DC
330
3DB
100
AcDbEntity
  8
0
100
AcDbBlockBegin
  2
*G24
 70
     1
 10
0.0
 20
0.0
 30
0.0
  3
*G24
  1
*G24
  0
LINE
  5
3DE
330
3DB
100
AcDbEntity
  8
5
  6
Continuous
 62
     4
370
    25
100
AcDbLine
 10
318.588766404491
 20
174.690301837188
 30
0.0
 11
313.588766404491
 21
179.690301837188
 31
0.0
  0
LINE
  5
3DF
330
3DB
100
AcDbEntity
  8
5
  6
Continuous
 62
     4
370
    25
100
AcDbLine
 10
321.4171935292372
 20
174.690301837188
 30
0.0
 11
316.4171935292372
 21
179.690301837188
 31
0.0
  0
LINE
  5
3E0
330
3DB
100
AcDbEntity
  8
5
  6
Continuous
 62
     4
370
    25
100
AcDbLine
 10
324.2456206539834
 20
174.690301837188
 30
0.0
 11
319.2456206539834
 21
179.690301837188
 31
0.0
  0
LINE
  5
3E1
330
3DB
100
AcDbEntity
  8
5
  6
Continuous
 62
     4
370
    25
100
AcDbLine
 10
327.0740477787296
 20
174.690301837188
 30
0.0
 11
322.0740477787296
 21
179.690301837188
 31
0.0
  0
LINE
  5
3E2
330
3DB
100
AcDbEntity
  8
5
  6
Continuous
 62
     4
370
    25
100
AcDbLine
 10
329.9024749034758
 20
174.690301837188
 30
0.0
 11
324.9024749034758
 21
179.690301837188
 31
0.0
  0
LINE
  5
3E3
330
3DB
100
AcDbEntity
  8
5
  6
Continuous
 62
     4
370
    25
100
AcDbLine
 10
332.730902028222
 20
174.690301837188
 30
0.0
 11
327.730902028222
 21
179.690301837188
 31
0.0
  0
LINE
  5
3E4
330
3DB
100
AcDbEntity
  8
5
  6
Continuous
 62
     4
370
    25
100
AcDbLine
 10
335.5593291529681
 20
174.690301837188
 30
0.0
 11
330.5593291529681
 21
179.690301837188
 31
0.0
  0
LINE
  5
3E5
330
3DB
100
AcDbEntity
  8
5
  6
Continuous
 62
     4
370
    25
100
AcDbLine
 10
337.2957717754128
 20
175.7822863394895
 30
0.0
 11
333.3877562777143
 21
179.690301837188
 31
0.0
  0
LINE
  5
3E6
330
3DB
100
AcDbEntity
  8
5
  6
Continuous
 62
     4
370
    25
100
AcDbLine
 10
338.7724191709805
 20
177.1340660686681
 30
0.0
 11
336.2161834024605
 21
179.690301837188
 31
0.0
  0
LINE
  5
3E7
330
3DB
100
AcDbEntity
  8
5
  6
Continuous
 62
     4
370
    25
100
AcDbLine
 10
340.0255997101708
 20
178.709312654224
 30
0.0
 11
339.0446105272067
 21
179.690301837188
 31
0.0
  0
LINE
  5
3E8
330
3DB
100
AcDbEntity
  8
5
  6
Continuous
 62
     4
370
    25
100
AcDbLine
 10
315.7603392797448
 20
174.690301837188
 30
0.0
 11
310.7603392797448
 21
179.690301837188
 31
0.0
  0
LINE
  5
3E9
330
3DB
100
AcDbEntity
  8
5
  6
Continuous
 62
     4
370
    25
100
AcDbLine
 10
312.9319121549986
 20
174.690301837188
 30
0.0
 11
307.9319121549986
 21
179.690301837188
 31
0.0
  0
LINE
  5
3EA
330
3DB
100
AcDbEntity
  8
5
  6
Continuous
 62
     4
370
    25
100
AcDbLine
 10
310.1034850302524
 20
174.690301837188
 30
0.0
 11
305.1034850302524
 21
179.690301837188
 31
0.0
  0
LINE
  5
3EB
330
3DB
100
AcDbEntity
  8
5
  6
Continuous
 62
     4
370
    25
100
AcDbLine
 10
307.2750579055062
 20
174.690301837188
 30
0.0
 11
302.2750579055062
 21
179.690301837188
 31
0.0
  0
LINE
  5
3EC
330
3DB
100
AcDbEntity
  8
5
  6
Continuous
 62
     4
370
    25
100
AcDbLine
 10
304.4466307807601
 20
174.690301837188
 30
0.0
 11
299.4466307807601
 21
179.690301837188
 31
0.0
  0
LINE
  5
3ED
330
3DB
100
AcDbEntity
  8
5
  6
Continuous
 62
     4
370
    25
100
AcDbLine
 10
301.6182036560139
 20
174.690301837188
 30
0.0
 11
296.6182036560139
 21
179.690301837188
 31
0.0
  0
LINE
  5
3EE
330
3DB
100
AcDbEntity
  8
5
  6
Continuous
 62
     4
370
    25
100
AcDbLine
 10
298.7897765312677
 20
174.690301837188
 30
0.0
 11
296.5008383236765
 21
176.9792400447791
 31
0.0
  0
ENDBLK
  5
3DD
330
3DB
100
AcDbEntity
  8
0
100
AcDbBlockEnd
  0
BLOCK
  5
423
330
422
100
AcDbEntity
  8
0
100
AcDbBlockBegin
  2
*G25
 70
     1
 10
0.0
 20
0.0
 30
0.0
  3
*G25
  1
*G25
  0
LINE
  5
425
330
422
100
AcDbEntity
  8
5
  6
Continuous
 62
     4
370
    25
100
AcDbLine
 10
224.4129102428617
 20
174.690301837188
 30
0.0
 11
229.4129102428617
 21
179.690301837188
 31
0.0
  0
LINE
  5
426
330
422
100
AcDbEntity
  8
5
  6
Continuous
 62
     4
370
    25
100
AcDbLine
 10
221.5844831181155
 20
174.690301837188
 30
0.0
 11
226.5844831181155
 21
179.690301837188
 31
0.0
  0
LINE
  5
427
330
422
100
AcDbEntity
  8
5
  6
Continuous
 62
     4
370
    25
100
AcDbLine
 10
218.7560559933693
 20
174.690301837188
 30
0.0
 11
223.7560559933693
 21
179.690301837188
 31
0.0
  0
LINE
  5
428
330
422
100
AcDbEntity
  8
5
  6
Continuous
 62
     4
370
    25
100
AcDbLine
 10
215.9276288686231
 20
174.690301837188
 30
0.0
 11
220.9276288686231
 21
179.690301837188
 31
0.0
  0
LINE
  5
429
330
422
100
AcDbEntity
  8
5
  6
Continuous
 62
     4
370
    25
100
AcDbLine
 10
213.099201743877
 20
174.690301837188
 30
0.0
 11
218.099201743877
 21
179.690301837188
 31
0.0
  0
LINE
  5
42A
330
422
100
AcDbEntity
  8
5
  6
Continuous
 62
     4
370
    25
100
AcDbLine
 10
210.2707746191307
 20
174.690301837188
 30
0.0
 11
215.2707746191308
 21
179.690301837188
 31
0.0
  0
LINE
  5
42B
330
422
100
AcDbEntity
  8
5
  6
Continuous
 62
     4
370
    25
100
AcDbLine
 10
207.4423474943846
 20
174.690301837188
 30
0.0
 11
212.4423474943846
 21
179.690301837188
 31
0.0
  0
LINE
  5
42C
330
422
100
AcDbEntity
  8
5
  6
Continuous
 62
     4
370
    25
100
AcDbLine
 10
205.70590487194
 20
175.7822863394895
 30
0.0
 11
209.6139203696384
 21
179.690301837188
 31
0.0
  0
LINE
  5
42D
330
422
100
AcDbEntity
  8
5
  6
Continuous
 62
     4
370
    25
100
AcDbLine
 10
204.2292574763723
 20
177.1340660686681
 30
0.0
 11
206.7854932448922
 21
179.690301837188
 31
0.0
  0
LINE
  5
42E
330
422
100
AcDbEntity
  8
5
  6
Continuous
 62
     4
370
    25
100
AcDbLine
 10
202.9760769371819
 20
178.709312654224
 30
0.0
 11
203.957066120146
 21
179.690301837188
 31
0.0
  0
LINE
  5
42F
330
422
100
AcDbEntity
  8
5
  6
Continuous
 62
     4
370
    25
100
AcDbLine
 10
227.2413373676079
 20
174.690301837188
 30
0.0
 11
232.2413373676079
 21
179.690301837188
 31
0.0
  0
LINE
  5
430
330
422
100
AcDbEntity
  8
5
  6
Continuous
 62
     4
370
    25
100
AcDbLine
 10
230.0697644923541
 20
174.690301837188
 30
0.0
 11
235.0697644923541
 21
179.690301837188
 31
0.0
  0
LINE
  5
431
330
422
100
AcDbEntity
  8
5
  6
Continuous
 62
     4
370
    25
100
AcDbLine
 10
232.8981916171003
 20
174.690301837188
 30
0.0
 11
237.8981916171003
 21
179.690301837188
 31
0.0
  0
LINE
  5
432
330
422
100
AcDbEntity
  8
5
  6
Continuous
 62
     4
370
    25
100
AcDbLine
 10
235.7266187418465
 20
174.690301837188
 30
0.0
 11
240.7266187418465
 21
179.690301837188
 31
0.0
  0
LINE
  5
433
330
422
100
AcDbEntity
  8
5
  6
Continuous
 62
     4
370
    25
100
AcDbLine
 10
238.5550458665926
 20
174.690301837188
 30
0.0
 11
243.5550458665927
 21
179.690301837188
 31
0.0
  0
LINE
  5
434
330
422
100
AcDbEntity
  8
5
  6
Continuous
 62
     4
370
    25
100
AcDbLine
 10
241.3834729913389
 20
174.690301837188
 30
0.0
 11
246.3834729913389
 21
179.690301837188
 31
0.0
  0
LINE
  5
435
330
422
100
AcDbEntity
  8
5
  6
Continuous
 62
     4
370
    25
100
AcDbLine
 10
244.211900116085
 20
174.690301837188
 30
0.0
 11
246.5008383236762
 21
176.9792400447791
 31
0.0
  0
ENDBLK
  5
424
330
422
100
AcDbEntity
  8
0
100
AcDbBlockEnd
  0
ENDSEC
  0
SECTION
  2
ENTITIES
  0
LINE
  5
E3
330
1F
100
AcDbEntity
  8
9
  6
Continuous
 62
     7
370
    35
100
AcDbLine
 10
163.5008386856763
 20
283.0058386906975
 30
0.0
 11
163.5008386856763
 21
265.0058386906977
 31
0.0
  0
MTEXT
  5
E4
330
1F
100
AcDbEntity
  8
7
  6
Continuous
 62
     3
370
     9
100
AcDbMText
 10
128.5008386856765
 20
280.0058386906977
 30
0.0
 40
3.3
 41
9.258200846136
 46
3.3
 71
     5
 72
     1
  1
{\fＭＳ Ｐゴシック;\W0.714286;番号}
 73
     1
 44
1.0
1001
ACAD
1000
ACAD_MTEXT_DEFINED_HEIGHT_BEGIN
1070
    46
1040
3.3
1000
ACAD_MTEXT_DEFINED_HEIGHT_END
  0
LINE
  5
E5
330
1F
100
AcDbEntity
  8
9
  6
Continuous
 62
     7
370
    35
100
AcDbLine
 10
123.5008386856764
 20
265.0058386906977
 30
0.0
 11
123.5008386856764
 21
283.0058386906975
 31
0.0
  0
LINE
  5
E6
330
1F
100
AcDbEntity
  8
9
  6
Continuous
 62
     7
370
    35
100
AcDbLine
 10
133.5008386856763
 20
283.0058386906975
 30
0.0
 11
133.5008386856763
 21
265.0058386906977
 31
0.0
  0
LINE
  5
E7
330
1F
100
AcDbEntity
  8
9
  6
Continuous
 62
     7
370
    35
100
AcDbLine
 10
123.5008386856764
 20
277.0058386906977
 30
0.0
 11
181.0008386856763
 21
277.0058386906977
 31
0.0
  0
LINE
  5
E8
330
1F
100
AcDbEntity
  8
9
  6
Continuous
 62
     7
370
    35
100
AcDbLine
 10
123.5008386856764
 20
271.0058386906977
 30
0.0
 11
181.0008386856763
 21
271.0058386906977
 31
0.0
  0
MTEXT
  5
E9
330
1F
100
AcDbEntity
  8
7
  6
Continuous
 62
     3
370
     9
100
AcDbMText
 10
148.5008386856763
 20
280.0058386906977
 30
0.0
 40
3.3
 41
18.04110721644
 46
3.3
 71
     5
 72
     1
  1
{\fＭＳ Ｐゴシック;\W0.714286;名      称}
 73
     1
 44
1.0
1001
ACAD
1000
ACAD_MTEXT_DEFINED_HEIGHT_BEGIN
1070
    46
1040
3.3
1000
ACAD_MTEXT_DEFINED_HEIGHT_END
  0
LINE
  5
EA
330
1F
100
AcDbEntity
  8
9
  6
Continuous
 62
     7
370
    35
100
AcDbLine
 10
123.5008386856764
 20
265.0058386906977
 30
0.0
 11
181.0008386856763
 21
265.0058386906977
 31
0.0
  0
MTEXT
  5
EB
330
1F
100
AcDbEntity
  8
7
  6
Continuous
 62
     3
370
     9
100
AcDbMText
 10
148.5008386856763
 20
274.0058386906977
 30
0.0
 40
3.3
 41
32.287903073052
 46
3.3
 71
     5
 72
     1
  1
{\fＭＳ Ｐゴシック;\W0.571429;スプリンクラーヘッド}
 73
     1
 44
1.0
1001
ACAD
1000
ACAD_MTEXT_DEFINED_HEIGHT_BEGIN
1070
    46
1040
3.3
1000
ACAD_MTEXT_DEFINED_HEIGHT_END
  0
INSERT
  5
F3
330
1F
100
AcDbEntity
  8
0
100
AcDbBlockReference
  2
*G16
 10
0.0
 20
0.0
 30
0.0
  0
INSERT
  5
FB
330
1F
100
AcDbEntity
  8
0
100
AcDbBlockReference
  2
*G17
 10
0.0
 20
0.0
 30
0.0
  0
LINE
  5
FC
330
1F
100
AcDbEntity
  8
9
  6
Continuous
 62
     7
370
    35
100
AcDbLine
 10
23.77195903947904
 20
118.3241259343888
 30
0.0
 11
154.3237709508702
 21
118.3241259343888
 31
0.0
  0
MTEXT
  5
FD
330
1F
100
AcDbEntity
  8
7
  6
Continuous
 62
     3
370
     9
100
AcDbMText
 10
128.5008386856763
 20
274.0058386906977
 30
0.0
 40
3.3
 41
1.007490402996
 46
3.3
 71
     5
 72
     1
  1
{\fＭＳ Ｐゴシック;\W0.714286;1}
 73
     1
 44
1.0
1001
ACAD
1000
ACAD_MTEXT_DEFINED_HEIGHT_BEGIN
1070
    46
1040
3.3
1000
ACAD_MTEXT_DEFINED_HEIGHT_END
  0
MTEXT
  5
FE
330
1F
100
AcDbEntity
  8
7
  6
Continuous
 62
     3
370
     9
100
AcDbMText
 10
128.5008386856763
 20
268.0058386906978
 30
0.0
 40
3.3
 41
1.937996489484
 46
3.3
 71
     5
 72
     1
  1
{\fＭＳ Ｐゴシック;\W0.714286;2}
 73
     1
 44
1.0
1001
ACAD
1000
ACAD_MTEXT_DEFINED_HEIGHT_BEGIN
1070
    46
1040
3.3
1000
ACAD_MTEXT_DEFINED_HEIGHT_END
  0
MTEXT
  5
FF
330
1F
100
AcDbEntity
  8
7
  6
Continuous
 62
     3
370
     9
100
AcDbMText
 10
148.5008386856763
 20
268.0058386906977
 30
0.0
 40
3.3
 41
12.260589189948
 46
3.3
 71
     5
 72
     1
  1
{\fＭＳ Ｐゴシック;\W0.714286;ガード}
 73
     1
 44
1.0
1001
ACAD
1000
ACAD_MTEXT_DEFINED_HEIGHT_BEGIN
1070
    46
1040
3.3
1000
ACAD_MTEXT_DEFINED_HEIGHT_END
  0
MTEXT
  5
100
330
1F
100
AcDbEntity
  8
7
  6
Continuous
 62
     3
370
     9
100
AcDbMText
 10
172.2508386856763
 20
280.0058386906977
 30
0.0
 40
3.3
 41
15.189340361448
 46
3.3
 71
     5
 72
     1
  1
{\fＭＳ Ｐゴシック;\W0.714286;備    考}
 73
     1
 44
1.0
1001
ACAD
1000
ACAD_MTEXT_DEFINED_HEIGHT_BEGIN
1070
    46
1040
3.3
1000
ACAD_MTEXT_DEFINED_HEIGHT_END
  0
ARC
  5
101
330
1F
100
AcDbEntity
  8
4
  6
PHANTOM
 62
     2
370
    25
100
AcDbCircle
 10
99.00041934283833
 20
260.1635684630987
 30
0.0
 40
9.725000000000689
100
AcDbArc
 50
29.06891016108427
 51
150.931089838913
  0
ARC
  5
102
330
1F
100
AcDbEntity
  8
4
  6
PHANTOM
 62
     2
370
    25
100
AcDbCircle
 10
78.00041934284303
 20
203.550850811955
 30
0.0
 40
1.500000000004349
100
AcDbArc
 50
180.0000000000431
 51
269.9999999999998
  0
POLYLINE
  5
103
330
1F
100
AcDbEntity
  8
4
  6
PHANTOM
 62
     2
370
    25
100
AcDb2dPolyline
 66
     1
 10
0.0
 20
0.0
 30
0.0
  0
VERTEX
  5
104
330
103
100
AcDbEntity
  8
4
  6
PHANTOM
 62
     2
370
    25
100
AcDbVertex
100
AcDb2dVertex
 10
78.00041934283863
 20
202.0508508119538
 30
0.0
  0
VERTEX
  5
105
330
103
100
AcDbEntity
  8
4
  6
PHANTOM
 62
     2
370
    25
100
AcDbVertex
100
AcDb2dVertex
 10
101.0944705138349
 20
202.0508508119538
 30
0.0
  0
VERTEX
  5
106
330
103
100
AcDbEntity
  8
4
  6
PHANTOM
 62
     2
370
    25
100
AcDbVertex
100
AcDb2dVertex
 10
103.0004193428384
 20
202.0508508119538
 30
0.0
  0
SEQEND
  5
107
330
103
100
AcDbEntity
  8
4
  6
PHANTOM
 62
     2
370
    25
  0
ARC
  5
108
330
1F
100
AcDbEntity
  8
4
  6
PHANTOM
 62
     2
370
    25
100
AcDbCircle
 10
103.0004193428429
 20
203.550850811948
 30
0.0
 40
1.499999999994202
100
AcDbArc
 50
269.9999999999998
 51
0.0000000002247253
  0
POLYLINE
  5
109
330
1F
100
AcDbEntity
  8
4
  6
PHANTOM
 62
     2
370
    25
100
AcDb2dPolyline
 66
     1
 10
0.0
 20
0.0
 30
0.0
  0
VERTEX
  5
10A
330
109
100
AcDbEntity
  8
4
  6
PHANTOM
 62
     2
370
    25
100
AcDbVertex
100
AcDb2dVertex
 10
104.5004193428385
 20
203.5508508119538
 30
0.0
  0
VERTEX
  5
10B
330
109
100
AcDbEntity
  8
4
  6
PHANTOM
 62
     2
370
    25
100
AcDbVertex
100
AcDb2dVertex
 10
104.5004193428385
 20
214.5968668381717
 30
0.0
  0
SEQEND
  5
10C
330
109
100
AcDbEntity
  8
4
  6
PHANTOM
 62
     2
370
    25
  0
ARC
  5
10D
330
1F
100
AcDbEntity
  8
4
  6
PHANTOM
 62
     2
370
    25
100
AcDbCircle
 10
109.5004193428385
 20
214.5968668381715
 30
0.0
 40
4.999999999999972
100
AcDbArc
 50
89.99999999999983
 51
179.9999999999971
  0
ARC
  5
10E
330
1F
100
AcDbEntity
  8
4
  6
PHANTOM
 62
     2
370
    25
100
AcDbCircle
 10
109.5004193428418
 20
221.5968668381691
 30
0.0
 40
1.999999999997215
100
AcDbArc
 50
269.9999999999993
 51
0.0000000000797938
  0
POLYLINE
  5
10F
330
1F
100
AcDbEntity
  8
4
  6
PHANTOM
 62
     2
370
    25
100
AcDb2dPolyline
 66
     1
 10
0.0
 20
0.0
 30
0.0
  0
VERTEX
  5
110
330
10F
100
AcDbEntity
  8
4
  6
PHANTOM
 62
     2
370
    25
100
AcDbVertex
100
AcDb2dVertex
 10
111.5004193428386
 20
221.5968668381718
 30
0.0
  0
VERTEX
  5
111
330
10F
100
AcDbEntity
  8
4
  6
PHANTOM
 62
     2
370
    25
100
AcDbVertex
100
AcDb2dVertex
 10
111.5004193428384
 20
242.0508508119538
 30
0.0
  0
SEQEND
  5
112
330
10F
100
AcDbEntity
  8
4
  6
PHANTOM
 62
     2
370
    25
  0
ARC
  5
113
330
1F
100
AcDbEntity
  8
4
  6
PHANTOM
 62
     2
370
    25
100
AcDbCircle
 10
109.5004193428349
 20
242.0508508119512
 30
0.0
 40
2.000000000003467
100
AcDbArc
 50
0.0000000000740942
 51
89.99999999999991
  0
POLYLINE
  5
114
330
1F
100
AcDbEntity
  8
4
  6
PHANTOM
 62
     2
370
    25
100
AcDb2dPolyline
 66
     1
 10
0.0
 20
0.0
 30
0.0
  0
VERTEX
  5
115
330
114
100
AcDbEntity
  8
4
  6
PHANTOM
 62
     2
370
    25
100
AcDbVertex
100
AcDb2dVertex
 10
109.5004193428386
 20
244.0508508119538
 30
0.0
  0
VERTEX
  5
116
330
114
100
AcDbEntity
  8
4
  6
PHANTOM
 62
     2
370
    25
100
AcDbVertex
100
AcDb2dVertex
 10
71.50041934283868
 20
244.0508508119538
 30
0.0
  0
SEQEND
  5
117
330
114
100
AcDbEntity
  8
4
  6
PHANTOM
 62
     2
370
    25
  0
ARC
  5
118
330
1F
100
AcDbEntity
  8
4
  6
PHANTOM
 62
     2
370
    25
100
AcDbCircle
 10
71.50041934283854
 20
242.0508508119544
 30
0.0
 40
1.999999999999318
100
AcDbArc
 50
89.99999999999991
 51
180.0000000000192
  0
POLYLINE
  5
119
330
1F
100
AcDbEntity
  8
4
  6
PHANTOM
 62
     2
370
    25
100
AcDb2dPolyline
 66
     1
 10
0.0
 20
0.0
 30
0.0
  0
VERTEX
  5
11A
330
119
100
AcDbEntity
  8
4
  6
PHANTOM
 62
     2
370
    25
100
AcDbVertex
100
AcDb2dVertex
 10
69.50041934283867
 20
242.0508508119538
 30
0.0
  0
VERTEX
  5
11B
330
119
100
AcDbEntity
  8
4
  6
PHANTOM
 62
     2
370
    25
100
AcDbVertex
100
AcDb2dVertex
 10
69.50041934283867
 20
221.5968668381718
 30
0.0
  0
SEQEND
  5
11C
330
119
100
AcDbEntity
  8
4
  6
PHANTOM
 62
     2
370
    25
  0
ARC
  5
11D
330
1F
100
AcDbEntity
  8
4
  6
PHANTOM
 62
     2
370
    25
100
AcDbCircle
 10
71.5004193428346
 20
221.5968668381668
 30
0.0
 40
1.999999999995936
100
AcDbArc
 50
179.9999999998551
 51
269.9999999999993
  0
ARC
  5
11E
330
1F
100
AcDbEntity
  8
4
  6
PHANTOM
 62
     2
370
    25
100
AcDbCircle
 10
71.50041934283767
 20
214.5968668381707
 30
0.0
 40
5.000000000001194
100
AcDbArc
 50
0.0000000000123762
 51
89.99999999999983
  0
POLYLINE
  5
11F
330
1F
100
AcDbEntity
  8
4
  6
PHANTOM
 62
     2
370
    25
100
AcDb2dPolyline
 66
     1
 10
0.0
 20
0.0
 30
0.0
  0
VERTEX
  5
120
330
11F
100
AcDbEntity
  8
4
  6
PHANTOM
 62
     2
370
    25
100
AcDbVertex
100
AcDb2dVertex
 10
76.50041934283868
 20
214.5968668381717
 30
0.0
  0
VERTEX
  5
121
330
11F
100
AcDbEntity
  8
4
  6
PHANTOM
 62
     2
370
    25
100
AcDbVertex
100
AcDb2dVertex
 10
76.50041934283868
 20
203.5508508119538
 30
0.0
  0
SEQEND
  5
122
330
11F
100
AcDbEntity
  8
4
  6
PHANTOM
 62
     2
370
    25
  0
POLYLINE
  5
123
330
1F
100
AcDbEntity
  8
4
  6
PHANTOM
 62
     2
370
    25
100
AcDb2dPolyline
 66
     1
 10
0.0
 20
0.0
 30
0.0
  0
VERTEX
  5
124
330
123
100
AcDbEntity
  8
4
  6
PHANTOM
 62
     2
370
    25
100
AcDbVertex
100
AcDb2dVertex
 10
107.5004193428386
 20
244.0508508119538
 30
0.0
  0
VERTEX
  5
125
330
123
100
AcDbEntity
  8
4
  6
PHANTOM
 62
     2
370
    25
100
AcDbVertex
100
AcDb2dVertex
 10
107.5004193428386
 20
264.8885684630996
 30
0.0
  0
SEQEND
  5
126
330
123
100
AcDbEntity
  8
4
  6
PHANTOM
 62
     2
370
    25
  0
ARC
  5
127
330
1F
100
AcDbEntity
  8
4
  6
PHANTOM
 62
     2
370
    25
100
AcDbCircle
 10
99.00041934283868
 20
269.6135684631001
 30
0.0
 40
9.725000000000158
100
AcDbArc
 50
209.0689101610818
 51
330.9310898389163
  0
ARC
  5
128
330
1F
100
AcDbEntity
  8
4
  6
PHANTOM
 62
     2
370
    25
100
AcDbCircle
 10
82.0004193428385
 20
260.1635684630992
 30
0.0
 40
9.725000000000366
100
AcDbArc
 50
29.06891016108188
 51
150.9310898389182
  0
POLYLINE
  5
129
330
1F
100
AcDbEntity
  8
4
  6
PHANTOM
 62
     2
370
    25
100
AcDb2dPolyline
 66
     1
 10
0.0
 20
0.0
 30
0.0
  0
VERTEX
  5
12A
330
129
100
AcDbEntity
  8
4
  6
PHANTOM
 62
     2
370
    25
100
AcDbVertex
100
AcDb2dVertex
 10
73.50041934283867
 20
264.8885684630994
 30
0.0
  0
VERTEX
  5
12B
330
129
100
AcDbEntity
  8
4
  6
PHANTOM
 62
     2
370
    25
100
AcDbVertex
100
AcDb2dVertex
 10
73.50041934283867
 20
244.0508508119538
 30
0.0
  0
SEQEND
  5
12C
330
129
100
AcDbEntity
  8
4
  6
PHANTOM
 62
     2
370
    25
  0
POLYLINE
  5
12D
330
1F
100
AcDbEntity
  8
5
  6
Continuous
 62
     4
370
    25
100
AcDb2dPolyline
 66
     1
 10
0.0
 20
0.0
 30
0.0
  0
VERTEX
  5
12E
330
12D
100
AcDbEntity
  8
5
  6
Continuous
 62
     4
370
    25
100
AcDbVertex
100
AcDb2dVertex
 10
160.1870627464659
 20
179.6903019062297
 30
0.0
  0
VERTEX
  5
12F
330
12D
100
AcDbEntity
  8
5
  6
Continuous
 62
     4
370
    25
100
AcDbVertex
100
AcDb2dVertex
 10
160.022475568216
 20
178.8706648279978
 30
0.0
  0
VERTEX
  5
130
330
12D
100
AcDbEntity
  8
5
  6
Continuous
 62
     4
370
    25
100
AcDbVertex
100
AcDb2dVertex
 10
159.8805702115356
 20
178.3540468512333
 30
0.0
  0
VERTEX
  5
131
330
12D
100
AcDbEntity
  8
5
  6
Continuous
 62
     4
370
    25
100
AcDbVertex
100
AcDb2dVertex
 10
159.6528615743878
 20
177.9356205645455
 30
0.0
  0
VERTEX
  5
132
330
12D
100
AcDbEntity
  8
5
  6
Continuous
 62
     4
370
    25
100
AcDbVertex
100
AcDb2dVertex
 10
159.3449740877284
 20
177.5975035408786
 30
0.0
  0
VERTEX
  5
133
330
12D
100
AcDbEntity
  8
5
  6
Continuous
 62
     4
370
    25
100
AcDbVertex
100
AcDb2dVertex
 10
158.9787507987489
 20
177.3072524682285
 30
0.0
  0
VERTEX
  5
134
330
12D
100
AcDbEntity
  8
5
  6
Continuous
 62
     4
370
    25
100
AcDbVertex
100
AcDb2dVertex
 10
158.5760347546403
 20
177.032424034591
 30
0.0
  0
VERTEX
  5
135
330
12D
100
AcDbEntity
  8
5
  6
Continuous
 62
     4
370
    25
100
AcDbVertex
100
AcDb2dVertex
 10
158.1586690025934
 20
176.740574927962
 30
0.0
  0
VERTEX
  5
136
330
12D
100
AcDbEntity
  8
5
  6
Continuous
 62
     4
370
    25
100
AcDbVertex
100
AcDb2dVertex
 10
157.7484965897995
 20
176.3992618363373
 30
0.0
  0
VERTEX
  5
137
330
12D
100
AcDbEntity
  8
5
  6
Continuous
 62
     4
370
    25
100
AcDbVertex
100
AcDb2dVertex
 10
157.3673605634499
 20
175.9760414477129
 30
0.0
  0
VERTEX
  5
138
330
12D
100
AcDbEntity
  8
5
  6
Continuous
 62
     4
370
    25
100
AcDbVertex
100
AcDb2dVertex
 10
157.0371039707354
 20
175.4384704500847
 30
0.0
  0
VERTEX
  5
139
330
12D
100
AcDbEntity
  8
5
  6
Continuous
 62
     4
370
    25
100
AcDbVertex
100
AcDb2dVertex
 10
156.7625239075328
 20
174.7748516627973
 30
0.0
  0
VERTEX
  5
13A
330
12D
100
AcDbEntity
  8
5
  6
Continuous
 62
     4
370
    25
100
AcDbVertex
100
AcDb2dVertex
 10
156.7292997130362
 20
174.6903019062297
 30
0.0
  0
SEQEND
  5
13B
330
12D
100
AcDbEntity
  8
5
  6
Continuous
 62
     4
370
    25
  0
LINE
  5
13C
330
1F
100
AcDbEntity
  8
9
  6
Continuous
 62
     7
370
    35
100
AcDbLine
 10
116.4533937573405
 20
174.6903019062297
 30
0.0
 11
116.4533937573405
 21
179.6903019062297
 31
0.0
  0
INSERT
  5
151
330
1F
100
AcDbEntity
  8
0
100
AcDbBlockReference
  2
*G18
 10
0.0
 20
0.0
 30
0.0
  0
LINE
  5
152
330
1F
100
AcDbEntity
  8
9
  6
Continuous
 62
     7
370
    35
100
AcDbLine
 10
160.1870627464659
 20
179.6903019062297
 30
0.0
 11
109.9533937573399
 21
179.6903019062297
 31
0.0
  0
LINE
  5
153
330
1F
100
AcDbEntity
  8
9
  6
Continuous
 62
     7
370
    35
100
AcDbLine
 10
66.45339375734055
 20
174.6903019062297
 30
0.0
 11
66.45339375734055
 21
179.6903019062297
 31
0.0
  0
POLYLINE
  5
154
330
1F
100
AcDbEntity
  8
5
  6
Continuous
 62
     4
370
    25
100
AcDb2dPolyline
 66
     1
 10
0.0
 20
0.0
 30
0.0
  0
VERTEX
  5
155
330
154
100
AcDbEntity
  8
5
  6
Continuous
 62
     4
370
    25
100
AcDbVertex
100
AcDb2dVertex
 10
22.71972476821512
 20
179.6903019062297
 30
0.0
  0
VERTEX
  5
156
330
154
100
AcDbEntity
  8
5
  6
Continuous
 62
     4
370
    25
100
AcDbVertex
100
AcDb2dVertex
 10
22.88431194646509
 20
178.8706648279978
 30
0.0
  0
VERTEX
  5
157
330
154
100
AcDbEntity
  8
5
  6
Continuous
 62
     4
370
    25
100
AcDbVertex
100
AcDb2dVertex
 10
23.0262173031454
 20
178.3540468512333
 30
0.0
  0
VERTEX
  5
158
330
154
100
AcDbEntity
  8
5
  6
Continuous
 62
     4
370
    25
100
AcDbVertex
100
AcDb2dVertex
 10
23.25392594029327
 20
177.9356205645455
 30
0.0
  0
VERTEX
  5
159
330
154
100
AcDbEntity
  8
5
  6
Continuous
 62
     4
370
    25
100
AcDbVertex
100
AcDb2dVertex
 10
23.56181342695251
 20
177.5975035408786
 30
0.0
  0
VERTEX
  5
15A
330
154
100
AcDbEntity
  8
5
  6
Continuous
 62
     4
370
    25
100
AcDbVertex
100
AcDb2dVertex
 10
23.92803671593205
 20
177.3072524682285
 30
0.0
  0
VERTEX
  5
15B
330
154
100
AcDbEntity
  8
5
  6
Continuous
 62
     4
370
    25
100
AcDbVertex
100
AcDb2dVertex
 10
24.33075276004078
 20
177.032424034591
 30
0.0
  0
VERTEX
  5
15C
330
154
100
AcDbEntity
  8
5
  6
Continuous
 62
     4
370
    25
100
AcDbVertex
100
AcDb2dVertex
 10
24.74811851208764
 20
176.740574927962
 30
0.0
  0
VERTEX
  5
15D
330
154
100
AcDbEntity
  8
5
  6
Continuous
 62
     4
370
    25
100
AcDbVertex
100
AcDb2dVertex
 10
25.15829092488148
 20
176.3992618363373
 30
0.0
  0
VERTEX
  5
15E
330
154
100
AcDbEntity
  8
5
  6
Continuous
 62
     4
370
    25
100
AcDbVertex
100
AcDb2dVertex
 10
25.53942695123115
 20
175.9760414477129
 30
0.0
  0
VERTEX
  5
15F
330
154
100
AcDbEntity
  8
5
  6
Continuous
 62
     4
370
    25
100
AcDbVertex
100
AcDb2dVertex
 10
25.86968354394564
 20
175.4384704500847
 30
0.0
  0
VERTEX
  5
160
330
154
100
AcDbEntity
  8
5
  6
Continuous
 62
     4
370
    25
100
AcDbVertex
100
AcDb2dVertex
 10
26.14426360714843
 20
174.7748516627973
 30
0.0
  0
VERTEX
  5
161
330
154
100
AcDbEntity
  8
5
  6
Continuous
 62
     4
370
    25
100
AcDbVertex
100
AcDb2dVertex
 10
26.17748780164503
 20
174.6903019062297
 30
0.0
  0
SEQEND
  5
162
330
154
100
AcDbEntity
  8
5
  6
Continuous
 62
     4
370
    25
  0
INSERT
  5
177
330
1F
100
AcDbEntity
  8
0
100
AcDbBlockReference
  2
*G19
 10
0.0
 20
0.0
 30
0.0
  0
LINE
  5
178
330
1F
100
AcDbEntity
  8
9
  6
Continuous
 62
     7
370
    35
100
AcDbLine
 10
72.95339375734106
 20
174.6903019062297
 30
0.0
 11
26.17748780164503
 21
174.6903019062297
 31
0.0
  0
LINE
  5
179
330
1F
100
AcDbEntity
  8
9
  6
Continuous
 62
     7
370
    35
100
AcDbLine
 10
22.71972476821512
 20
179.6903019062297
 30
0.0
 11
72.95339375734106
 21
179.6903019062297
 31
0.0
  0
LINE
  5
17A
330
1F
100
AcDbEntity
  8
9
  6
Continuous
 62
     7
370
    35
100
AcDbLine
 10
75.35041934283906
 20
175.8293648632298
 30
0.0
 11
75.35041934283906
 21
181.396352161338
 31
0.0
  0
LINE
  5
17B
330
1F
100
AcDbEntity
  8
9
  6
Continuous
 62
     7
370
    35
100
AcDbLine
 10
73.76662307990198
 20
169.8725939481748
 30
0.0
 11
74.75041934283733
 21
180.9403019062499
 31
0.0
  0
LINE
  5
17C
330
1F
100
AcDbEntity
  8
9
  6
Continuous
 62
     7
370
    35
100
AcDbLine
 10
72.00041934284086
 20
174.2863785936766
 30
0.0
 11
72.00041934283915
 21
201.4403019062353
 31
0.0
  0
INSERT
  5
1B6
330
1F
100
AcDbEntity
  8
0
100
AcDbBlockReference
  2
*G20
 10
0.0
 20
0.0
 30
0.0
  0
LINE
  5
1B7
330
1F
100
AcDbEntity
  8
9
  6
Continuous
 62
     7
370
    35
100
AcDbLine
 10
89.00041934283892
 20
150.6903019061744
 30
0.0
 11
73.35041934283588
 21
150.6903019061744
 31
0.0
  0
LINE
  5
1B8
330
1F
100
AcDbEntity
  8
9
  6
Continuous
 62
     7
370
    35
100
AcDbLine
 10
85.6668863012814
 20
163.1820523277868
 30
0.0
 11
83.63799478709977
 21
163.1820523277868
 31
0.0
  0
LINE
  5
1B9
330
1F
100
AcDbEntity
  8
9
  6
Continuous
 62
     7
370
    35
100
AcDbLine
 10
85.66688630128117
 20
163.1820523277868
 30
0.0
 11
84.52382015619712
 21
166.3947640129764
 31
0.0
  0
LINE
  5
1BA
330
1F
100
AcDbEntity
  8
9
  6
Continuous
 62
     7
370
    35
100
AcDbLine
 10
70.82250364055203
 20
173.302332861569
 30
0.0
 11
63.14569379676247
 21
174.6903019062297
 31
0.0
  0
ARC
  5
1BB
330
1F
100
AcDbEntity
  8
9
  6
Continuous
 62
     7
370
    35
100
AcDbCircle
 10
54.35041934283781
 20
158.6903019062353
 30
0.0
 40
15.0
100
AcDbArc
 50
0.0
 51
70.6116663826998
  0
ARC
  5
1BC
330
1F
100
AcDbEntity
  8
9
  6
Continuous
 62
     7
370
    35
100
AcDbCircle
 10
57.50041934283847
 20
174.1866494693924
 30
0.0
 40
1.0
100
AcDbArc
 50
179.9999999999739
 51
259.7516211655533
  0
LINE
  5
1BD
330
1F
100
AcDbEntity
  8
9
  6
Continuous
 62
     7
370
    35
100
AcDbLine
 10
56.50041934283756
 20
174.1866494693924
 30
0.0
 11
56.50041934283756
 21
174.6903019062297
 31
0.0
  0
LINE
  5
1BE
330
1F
100
AcDbEntity
  8
9
  6
Continuous
 62
     7
370
    35
100
AcDbLine
 10
81.25041934283892
 20
158.6320523277866
 30
0.0
 11
81.25041934283892
 21
158.7820523277867
 31
0.0
  0
ARC
  5
1BF
330
1F
100
AcDbEntity
  8
9
  6
Continuous
 62
     7
370
    35
100
AcDbCircle
 10
71.85041934283588
 20
149.1903019062349
 30
0.0
 40
1.5
100
AcDbArc
 50
269.9999999998433
 51
0.0
  0
ARC
  5
1C0
330
1F
100
AcDbEntity
  8
9
  6
Continuous
 62
     7
370
    35
100
AcDbCircle
 10
70.85041934283679
 20
149.190301906173
 30
0.0
 40
1.499999999999091
100
AcDbArc
 50
179.9999999991141
 51
269.9999999998433
  0
LINE
  5
1C1
330
1F
100
AcDbEntity
  8
9
  6
Continuous
 62
     7
370
    35
100
AcDbLine
 10
69.3504193428377
 20
149.190301906173
 30
0.0
 11
69.35041934283781
 21
158.6903019062353
 31
0.0
  0
LINE
  5
1C2
330
1F
100
AcDbEntity
  8
9
  6
Continuous
 62
     7
370
    35
100
AcDbLine
 10
81.2504193428387
 20
156.2820523277867
 30
0.0
 11
81.2504193428387
 21
156.5820523277867
 31
0.0
  0
ARC
  5
1C3
330
1F
100
AcDbEntity
  8
9
  6
Continuous
 62
     7
370
    35
100
AcDbCircle
 10
82.5004193428387
 20
156.3820523277869
 30
0.0
 40
0.2999999999999972
100
AcDbArc
 50
199.4712206348919
 51
269.9999999999998
  0
ARC
  5
1C4
330
1F
100
AcDbEntity
  8
9
  6
Continuous
 62
     7
370
    35
100
AcDbCircle
 10
83.00041934283892
 20
158.6320523277866
 30
0.0
 40
0.2999999999998693
100
AcDbArc
 50
179.9999999999998
 51
269.9999999999998
  0
LINE
  5
1C5
330
1F
100
AcDbEntity
  8
9
  6
Continuous
 62
     7
370
    35
100
AcDbLine
 10
73.35041934283838
 20
169.6903019062316
 30
0.0
 11
76.70041934283897
 21
169.6903019062316
 31
0.0
  0
ARC
  5
1C6
330
1F
100
AcDbEntity
  8
9
  6
Continuous
 62
     7
370
    35
100
AcDbCircle
 10
75.20041934283874
 20
171.7820523277869
 30
0.0
 40
1.5
100
AcDbArc
 50
0.0
 51
36.86989764583751
  0
ARC
  5
1C7
330
1F
100
AcDbEntity
  8
11
  6
HIDDEN
 62
     2
370
    25
100
AcDbCircle
 10
71.75041934283642
 20
171.1021396152525
 30
0.0
 40
0.5
100
AcDbArc
 50
259.7516211656064
 51
0.0000000000260551
  0
LINE
  5
1C8
330
1F
100
AcDbEntity
  8
11
  6
HIDDEN
 62
     2
370
    25
100
AcDbLine
 10
71.75041934283642
 20
170.6021396152525
 30
0.0
 11
73.25041934283642
 21
170.6021396152525
 31
0.0
  0
ARC
  5
1C9
330
1F
100
AcDbEntity
  8
9
  6
Continuous
 62
     7
370
    35
100
AcDbCircle
 10
71.00041934284086
 20
174.2863785936765
 30
0.0
 40
1.0
100
AcDbArc
 50
259.7516211655798
 51
0.0000000000065138
  0
ARC
  5
1CA
330
1F
100
AcDbEntity
  8
9
  6
Continuous
 62
     7
370
    35
100
AcDbCircle
 10
73.56740855176274
 20
169.8903019062315
 30
0.0
 40
0.2000000000000028
100
AcDbArc
 50
269.9999999999998
 51
354.9203921400296
  0
ARC
  5
1CB
330
1F
100
AcDbEntity
  8
11
  6
HIDDEN
 62
     2
370
    25
100
AcDbCircle
 10
73.45041934283624
 20
169.8903019062297
 30
0.0
 40
0.2000000000000028
100
AcDbArc
 50
179.9999999999998
 51
269.9999999999998
  0
LINE
  5
1CC
330
1F
100
AcDbEntity
  8
11
  6
HIDDEN
 62
     2
370
    25
100
AcDbLine
 10
72.25041934283551
 20
172.1903019062412
 30
0.0
 11
72.25041934283642
 21
171.1021396152529
 31
0.0
  0
ARC
  5
1CD
330
1F
100
AcDbEntity
  8
11
  6
HIDDEN
 62
     2
370
    25
100
AcDbCircle
 10
72.75041934283551
 20
172.1903019062417
 30
0.0
 40
0.5
100
AcDbArc
 50
0.0
 51
180.0000000000518
  0
LINE
  5
1CE
330
1F
100
AcDbEntity
  8
11
  6
HIDDEN
 62
     2
370
    25
100
AcDbLine
 10
73.25041934283642
 20
172.1903019062417
 30
0.0
 11
73.25041934283642
 21
169.8903019062297
 31
0.0
  0
LINE
  5
1CF
330
1F
100
AcDbEntity
  8
9
  6
Continuous
 62
     7
370
    35
100
AcDbLine
 10
76.40041934283879
 20
172.8820523277869
 30
0.0
 11
76.40041934283879
 21
172.6820523277868
 31
0.0
  0
LINE
  5
1D0
330
1F
100
AcDbEntity
  8
9
  6
Continuous
 62
     7
370
    35
100
AcDbLine
 10
75.60041934283906
 20
175.396352161338
 30
0.0
 11
75.35041934283906
 21
175.8293648632298
 31
0.0
  0
LINE
  5
1D1
330
1F
100
AcDbEntity
  8
9
  6
Continuous
 62
     7
370
    35
100
AcDbLine
 10
76.70041934283897
 20
171.7820523277869
 30
0.0
 11
76.70041934283897
 21
167.4680801181726
 31
0.0
  0
LINE
  5
1D2
330
1F
100
AcDbEntity
  8
9
  6
Continuous
 62
     7
370
    35
100
AcDbLine
 10
76.73311738558247
 20
167.3318829682508
 30
0.0
 11
78.9447781956291
 21
162.9912542278389
 31
0.0
  0
LINE
  5
1D3
330
1F
100
AcDbEntity
  8
9
  6
Continuous
 62
     7
370
    35
100
AcDbLine
 10
79.95600051604076
 20
163.1820523277868
 30
0.0
 11
78.16226761040927
 21
166.1587384812488
 31
0.0
  0
LINE
  5
1D4
330
1F
100
AcDbEntity
  8
9
  6
Continuous
 62
     7
370
    35
100
AcDbLine
 10
80.96777337588826
 20
163.1820523277868
 30
0.0
 11
78.92712960682381
 21
166.5684851865758
 31
0.0
  0
LINE
  5
1D5
330
1F
100
AcDbEntity
  8
9
  6
Continuous
 62
     7
370
    35
100
AcDbLine
 10
80.96777337588826
 20
163.1820523277868
 30
0.0
 11
79.95600051604099
 21
163.1820523277868
 31
0.0
  0
ARC
  5
1D6
330
1F
100
AcDbEntity
  8
9
  6
Continuous
 62
     7
370
    35
100
AcDbCircle
 10
79.12297950046666
 20
163.0820523277867
 30
0.0
 40
0.2000000000000028
100
AcDbArc
 50
206.9999999999985
 51
269.9999999999998
  0
SPLINE
  5
1D7
330
1F
100
AcDbEntity
  8
9
  6
Continuous
 62
     7
370
    35
100
AcDbSpline
210
0.0
220
0.0
230
1.0
 70
    12
 71
     3
 72
    12
 73
     8
 74
     0
 42
0.000000001
 43
0.0000001
 40
4.927655908264091
 40
4.927655908264091
 40
4.927655908264091
 40
4.927655908264091
 40
5.267374716391513
 40
5.267374716391513
 40
5.651619790278388
 40
5.651619790278388
 40
5.743457712309654
 40
5.743457712309654
 40
5.743457712309654
 40
5.743457712309654
 10
78.94009764501145
 20
166.5489782519178
 30
0.0
 41
1.0
 10
78.85404664496279
 20
166.6667317192869
 30
0.0
 41
1.0
 10
78.76270646967775
 20
166.7736026526402
 30
0.0
 41
1.0
 10
78.57234380107609
 20
166.9624121538643
 30
0.0
 41
1.0
 10
78.47346173505404
 20
167.0388557461752
 30
0.0
 41
1.0
 10
78.37313684666076
 20
167.0963982252129
 30
0.0
 41
1.0
 10
78.35484982558198
 20
167.1056883109325
 30
0.0
 41
1.0
 10
78.33794876166728
 20
167.1133779182185
 30
0.0
 41
1.0
  0
ARC
  5
1D8
330
1F
100
AcDbEntity
  8
9
  6
Continuous
 62
     7
370
    35
100
AcDbCircle
 10
78.3015054105155
 20
167.0332787162447
 30
0.0
 40
0.0879999999999939
100
AcDbArc
 50
65.53552317175944
 51
142.9939697501047
  0
ARC
  5
1D9
330
1F
100
AcDbEntity
  8
9
  6
Continuous
 62
     7
370
    35
100
AcDbCircle
 10
77.0004193428387
 20
167.4680801181726
 30
0.0
 40
0.2999999999999972
100
AcDbArc
 50
179.9999999999998
 51
207.0000000000034
  0
ARC
  5
1DA
330
1F
100
AcDbEntity
  8
9
  6
Continuous
 62
     7
370
    35
100
AcDbCircle
 10
79.30208669098913
 20
166.2791215189048
 30
0.0
 40
1.340962879392066
100
AcDbArc
 50
142.9939697501319
 51
166.4699450128808
  0
ELLIPSE
  5
1DB
330
1F
100
AcDbEntity
  8
9
  6
Continuous
 62
     7
370
    35
100
AcDbEllipse
 10
78.82460040083144
 20
166.1508035218399
 30
0.0
 11
-0.7365439769865108
 21
1.222289143954669
 31
0.0
210
0.0
220
0.0
230
1.0
 40
0.4069918413230565
 41
0.9713939910085836
 42
1.323987393323501
  0
LINE
  5
1DC
330
1F
100
AcDbEntity
  8
9
  6
Continuous
 62
     7
370
    35
100
AcDbLine
 10
83.63799478709977
 20
163.1820523277868
 30
0.0
 11
82.72287612699363
 21
165.7540928219449
 31
0.0
  0
LINE
  5
1DD
330
1F
100
AcDbEntity
  8
9
  6
Continuous
 62
     7
370
    35
100
AcDbLine
 10
81.25041934283892
 20
160.6320523277869
 30
0.0
 11
81.25041934283892
 21
160.4820523277868
 31
0.0
  0
ARC
  5
1DE
330
1F
100
AcDbEntity
  8
9
  6
Continuous
 62
     7
370
    35
100
AcDbCircle
 10
83.00041934283892
 20
160.6320523277869
 30
0.0
 40
0.2999999999998693
100
AcDbArc
 50
89.99999999999991
 51
179.9999999999998
  0
ARC
  5
1DF
330
1F
100
AcDbEntity
  8
9
  6
Continuous
 62
     7
370
    35
100
AcDbCircle
 10
83.9598297068623
 20
165.8724072889022
 30
0.0
 40
1.375879154787484
100
AcDbArc
 50
114.4167034614548
 51
165.014443309673
  0
ELLIPSE
  5
1E0
330
1F
100
AcDbEntity
  8
9
  6
Continuous
 62
     7
370
    35
100
AcDbEllipse
 10
83.74916934283799
 20
166.1190523277867
 30
0.0
 11
-0.4476083380395862
 21
1.257724841019467
 31
0.0
210
0.0
220
0.0
230
1.0
 40
0.8159202227897884
 41
1.20477460978218
 42
1.570595025455719
  0
SPLINE
  5
1E1
330
1F
100
AcDbEntity
  8
9
  6
Continuous
 62
     7
370
    35
100
AcDbSpline
210
0.0
220
0.0
230
1.0
 70
    12
 71
     3
 72
    14
 73
    10
 74
     0
 42
0.000000001
 43
0.0000001
 40
4.712392463599222
 40
4.712392463599222
 40
4.712392463599222
 40
4.712392463599222
 40
5.201868027680626
 40
5.201868027680626
 40
5.722054830448688
 40
5.722054830448688
 40
6.242241633216751
 40
6.242241633216751
 40
6.283185307179586
 40
6.283185307179586
 40
6.283185307179586
 40
6.283185307179586
 10
84.52381507564421
 20
166.3947389308674
 30
0.0
 41
1.0
 10
84.46259050367182
 20
166.566379332965
 30
0.0
 41
1.0
 10
84.36637586867998
 20
166.7252815469529
 30
0.0
 41
1.0
 10
84.12511391084551
 20
166.9832577593716
 30
0.0
 41
1.0
 10
83.97841253533731
 20
167.0772793668957
 30
0.0
 41
1.0
 10
83.68898735014788
 20
167.1714200456695
 30
0.0
 41
1.0
 10
83.54740463756018
 20
167.1729945471541
 30
0.0
 41
1.0
 10
83.4107659912692
 20
167.1319603096358
 30
0.0
 41
1.0
 10
83.40088059047427
 20
167.1287191555225
 30
0.0
 41
1.0
 10
83.39108267240651
 20
167.1252322006024
 30
0.0
 41
1.0
  0
LINE
  5
1E2
330
1F
100
AcDbEntity
  8
9
  6
Continuous
 62
     7
370
    35
100
AcDbLine
 10
84.11041934283905
 20
172.8820523277868
 30
0.0
 11
84.11041934283905
 21
175.396352161338
 31
0.0
  0
LINE
  5
1E3
330
1F
100
AcDbEntity
  8
9
  6
Continuous
 62
     7
370
    35
100
AcDbLine
 10
82.23790152702388
 20
175.396352161338
 30
0.0
 11
82.23790152702388
 21
172.8820523277868
 31
0.0
  0
ARC
  5
1E4
330
1F
100
AcDbEntity
  8
9
  6
Continuous
 62
     7
370
    35
100
AcDbCircle
 10
89.00041934283892
 20
149.1903019061753
 30
0.0
 40
1.499999999999091
100
AcDbArc
 50
0.0
 51
89.99999999999991
  0
LINE
  5
1E5
330
1F
100
AcDbEntity
  8
9
  6
Continuous
 62
     7
370
    35
100
AcDbLine
 10
89.00041934283938
 20
156.0820523277867
 30
0.0
 11
89.00041934283983
 21
150.6903019061744
 31
0.0
  0
ARC
  5
1E6
330
1F
100
AcDbEntity
  8
9
  6
Continuous
 62
     7
370
    35
100
AcDbCircle
 10
87.60041934283883
 20
156.6820523277866
 30
0.0
 40
0.0999999999999943
100
AcDbArc
 50
269.9999999999998
 51
0.0
  0
ARC
  5
1E7
330
1F
100
AcDbEntity
  8
9
  6
Continuous
 62
     7
370
    35
100
AcDbCircle
 10
88.00041934283892
 20
156.7820523277867
 30
0.0
 40
0.2999999999999972
100
AcDbArc
 50
89.99999999999991
 51
179.9999999999783
  0
LINE
  5
1E8
330
1F
100
AcDbEntity
  8
9
  6
Continuous
 62
     7
370
    35
100
AcDbLine
 10
87.70041934283897
 20
156.7820523277869
 30
0.0
 11
87.70041934283897
 21
156.6820523277866
 31
0.0
  0
LINE
  5
1E9
330
1F
100
AcDbEntity
  8
9
  6
Continuous
 62
     7
370
    35
100
AcDbLine
 10
88.40041934283902
 20
158.3320523277867
 30
0.0
 11
88.40041934283902
 21
157.0820523277867
 31
0.0
  0
LINE
  5
1EA
330
1F
100
AcDbEntity
  8
9
  6
Continuous
 62
     7
370
    35
100
AcDbLine
 10
89.00041934283892
 20
163.1820523277868
 30
0.0
 11
89.00041934283892
 21
165.8018333330416
 31
0.0
  0
ARC
  5
1EB
330
1F
100
AcDbEntity
  8
9
  6
Continuous
 62
     7
370
    35
100
AcDbCircle
 10
87.85041934283906
 20
159.2820523277867
 30
0.0
 40
0.3499999999999943
100
AcDbArc
 50
89.99999999999991
 51
179.9999999999998
  0
ARC
  5
1EC
330
1F
100
AcDbEntity
  8
9
  6
Continuous
 62
     7
370
    35
100
AcDbCircle
 10
87.85041934283906
 20
159.9820523277868
 30
0.0
 40
0.3499999999999943
100
AcDbArc
 50
179.9999999999998
 51
269.9999999999998
  0
LINE
  5
1ED
330
1F
100
AcDbEntity
  8
9
  6
Continuous
 62
     7
370
    35
100
AcDbLine
 10
87.50041934283892
 20
160.2820523277867
 30
0.0
 11
87.50041934283892
 21
159.9820523277868
 31
0.0
  0
ARC
  5
1EE
330
1F
100
AcDbEntity
  8
9
  6
Continuous
 62
     7
370
    35
100
AcDbCircle
 10
87.30041934283888
 20
160.2820523277867
 30
0.0
 40
0.2000000000000028
100
AcDbArc
 50
0.0
 51
89.99999999999991
  0
ARC
  5
1EF
330
1F
100
AcDbEntity
  8
9
  6
Continuous
 62
     7
370
    35
100
AcDbCircle
 10
87.30041934283888
 20
158.9820523277868
 30
0.0
 40
0.2000000000000028
100
AcDbArc
 50
269.9999999999998
 51
0.0
  0
LINE
  5
1F0
330
1F
100
AcDbEntity
  8
9
  6
Continuous
 62
     7
370
    35
100
AcDbLine
 10
87.50041934283892
 20
158.9820523277868
 30
0.0
 11
87.50041934283892
 21
159.2820523277867
 31
0.0
  0
LINE
  5
1F1
330
1F
100
AcDbEntity
  8
9
  6
Continuous
 62
     7
370
    35
100
AcDbLine
 10
88.40041934283902
 20
162.8820523277869
 30
0.0
 11
88.40041934283902
 21
160.9320523277868
 31
0.0
  0
LINE
  5
1F2
330
1F
100
AcDbEntity
  8
8
  6
Continuous
 62
     4
370
    25
100
AcDbLine
 10
88.8004193428391
 20
175.396352161338
 30
0.0
 11
88.8004193428391
 21
174.2320024236099
 31
0.0
  0
LINE
  5
1F3
330
1F
100
AcDbEntity
  8
9
  6
Continuous
 62
     7
370
    35
100
AcDbLine
 10
88.50041934283892
 20
174.5320024236099
 30
0.0
 11
88.50041934283892
 21
175.396352161338
 31
0.0
  0
LINE
  5
1F4
330
1F
100
AcDbEntity
  8
9
  6
Continuous
 62
     7
370
    35
100
AcDbLine
 10
85.42642773713935
 20
175.396352161338
 30
0.0
 11
85.42642773713935
 21
172.8820523277868
 31
0.0
  0
LINE
  5
1F5
330
1F
100
AcDbEntity
  8
9
  6
Continuous
 62
     7
370
    35
100
AcDbLine
 10
86.82642773713944
 20
175.396352161338
 30
0.0
 11
86.82642773713944
 21
172.8820523277868
 31
0.0
  0
LINE
  5
1F6
330
1F
100
AcDbEntity
  8
9
  6
Continuous
 62
     7
370
    35
100
AcDbLine
 10
88.50041934283892
 20
174.5320024236098
 30
0.0
 11
89.00041934283892
 21
174.0320024236098
 31
0.0
  0
LINE
  5
1F7
330
1F
100
AcDbEntity
  8
9
  6
Continuous
 62
     7
370
    35
100
AcDbLine
 10
89.00041934283892
 20
174.03200242361
 30
0.0
 11
89.00041934283892
 21
172.8820523277869
 31
0.0
  0
LINE
  5
1F8
330
1F
100
AcDbEntity
  8
9
  6
Continuous
 62
     7
370
    35
100
AcDbLine
 10
88.00041934283824
 20
194.6403019062372
 30
0.0
 11
73.00041934282164
 21
194.6403019062372
 31
0.0
  0
LINE
  5
1F9
330
1F
100
AcDbEntity
  8
9
  6
Continuous
 62
     7
370
    35
100
AcDbLine
 10
73.00041934283858
 20
195.1903019062298
 30
0.0
 11
88.00041934283824
 21
195.1903019062297
 31
0.0
  0
LINE
  5
1FA
330
1F
100
AcDbEntity
  8
9
  6
Continuous
 62
     7
370
    35
100
AcDbLine
 10
73.00041934283892
 20
190.1903019062298
 30
0.0
 11
88.00041934283824
 21
190.1903019062298
 31
0.0
  0
LINE
  5
1FB
330
1F
100
AcDbEntity
  8
9
  6
Continuous
 62
     7
370
    35
100
AcDbLine
 10
88.00041934283824
 20
190.7403019062305
 30
0.0
 11
73.00041934283836
 21
190.7403019062299
 31
0.0
  0
LINE
  5
1FC
330
1F
100
AcDbEntity
  8
9
  6
Continuous
 62
     7
370
    35
100
AcDbLine
 10
73.00041934283972
 20
193.7403019062305
 30
0.0
 11
88.00041934283824
 21
193.740301906227
 31
0.0
  0
LINE
  5
1FD
330
1F
100
AcDbEntity
  8
9
  6
Continuous
 62
     7
370
    35
100
AcDbLine
 10
88.00041934283824
 20
193.1403019062291
 30
0.0
 11
73.00041934284108
 21
193.1403019062291
 31
0.0
  0
LINE
  5
1FE
330
1F
100
AcDbEntity
  8
9
  6
Continuous
 62
     7
370
    35
100
AcDbLine
 10
73.00041934282017
 20
192.2403019062223
 30
0.0
 11
88.00041934283824
 21
192.2403019062258
 31
0.0
  0
LINE
  5
1FF
330
1F
100
AcDbEntity
  8
9
  6
Continuous
 62
     7
370
    35
100
AcDbLine
 10
88.00041934283824
 20
191.6403019062291
 30
0.0
 11
73.00041934283858
 21
191.6403019062291
 31
0.0
  0
LINE
  5
200
330
1F
100
AcDbEntity
  8
9
  6
Continuous
 62
     7
370
    35
100
AcDbLine
 10
72.8504193428377
 20
201.0903019062345
 30
0.0
 11
72.25041934283915
 21
201.6903019062353
 31
0.0
  0
LINE
  5
201
330
1F
100
AcDbEntity
  8
9
  6
Continuous
 62
     7
370
    35
100
AcDbLine
 10
80.23973920432415
 20
212.4296217677153
 30
0.0
 11
79.74493892184744
 21
196.6848214852388
 31
0.0
  0
LINE
  5
202
330
1F
100
AcDbEntity
  8
8
  6
Continuous
 62
     4
370
    25
100
AcDbLine
 10
81.24426275084686
 20
213.4341453142382
 30
0.0
 11
80.78003620953693
 21
198.6622172503243
 31
0.0
  0
LINE
  5
203
330
1F
100
AcDbEntity
  8
9
  6
Continuous
 62
     7
370
    35
100
AcDbLine
 10
75.35041934283883
 20
184.396352161338
 30
0.0
 11
79.4980842603208
 21
184.3963521613377
 31
0.0
  0
LINE
  5
204
330
1F
100
AcDbEntity
  8
9
  6
Continuous
 62
     7
370
    35
100
AcDbLine
 10
73.0004193428387
 20
190.7403019062289
 30
0.0
 11
73.0004193428387
 21
190.1903019062301
 31
0.0
  0
LINE
  5
205
330
1F
100
AcDbEntity
  8
9
  6
Continuous
 62
     7
370
    35
100
AcDbLine
 10
72.85041934284065
 20
196.3593544043057
 30
0.0
 11
72.8504193428386
 21
185.6903019062353
 31
0.0
  0
LINE
  5
206
330
1F
100
AcDbEntity
  8
9
  6
Continuous
 62
     7
370
    35
100
AcDbLine
 10
72.8504193428386
 20
185.6903019062349
 30
0.0
 11
75.25041934283824
 21
183.2903019062361
 31
0.0
  0
LINE
  5
207
330
1F
100
AcDbEntity
  8
9
  6
Continuous
 62
     7
370
    35
100
AcDbLine
 10
75.3504193428386
 20
189.6903019062301
 30
0.0
 11
75.35041934283883
 21
184.396352161338
 31
0.0
  0
LINE
  5
208
330
1F
100
AcDbEntity
  8
9
  6
Continuous
 62
     7
370
    35
100
AcDbLine
 10
75.25041934283824
 20
183.2903019062361
 30
0.0
 11
75.25041934283824
 21
180.9403019062349
 31
0.0
  0
LINE
  5
209
330
1F
100
AcDbEntity
  8
9
  6
Continuous
 62
     7
370
    35
100
AcDbLine
 10
74.75041934283733
 20
180.9403019062499
 30
0.0
 11
75.25041934283824
 21
180.9403019062499
 31
0.0
  0
LINE
  5
20A
330
1F
100
AcDbEntity
  8
9
  6
Continuous
 62
     7
370
    35
100
AcDbLine
 10
73.0004193428387
 20
190.1903019062301
 30
0.0
 11
73.5004193428387
 21
189.6903019062301
 31
0.0
  0
LINE
  5
20B
330
1F
100
AcDbEntity
  8
8
  6
Continuous
 62
     4
370
    25
100
AcDbLine
 10
75.8504193428386
 20
189.6903019062301
 30
0.0
 11
75.8504193428386
 21
188.3850272959328
 31
0.0
  0
LINE
  5
20C
330
1F
100
AcDbEntity
  8
8
  6
Continuous
 62
     4
370
    25
100
AcDbLine
 10
75.8504193428386
 20
188.3850272959327
 30
0.0
 11
75.3504193428386
 21
188.0963521613379
 31
0.0
  0
LINE
  5
20D
330
1F
100
AcDbEntity
  8
9
  6
Continuous
 62
     7
370
    35
100
AcDbLine
 10
73.5004193428387
 20
195.6903019062301
 30
0.0
 11
73.0004193428387
 21
195.1903019062301
 31
0.0
  0
LINE
  5
20E
330
1F
100
AcDbEntity
  8
9
  6
Continuous
 62
     7
370
    35
100
AcDbLine
 10
73.0004193428387
 20
195.1903019062301
 30
0.0
 11
73.0004193428387
 21
194.6403019062294
 31
0.0
  0
LINE
  5
20F
330
1F
100
AcDbEntity
  8
9
  6
Continuous
 62
     7
370
    35
100
AcDbLine
 10
73.0004193428387
 20
193.7403019062307
 30
0.0
 11
73.0004193428387
 21
193.1403019062294
 31
0.0
  0
ARC
  5
210
330
1F
100
AcDbEntity
  8
9
  6
Continuous
 62
     7
370
    35
100
AcDbCircle
 10
72.8129193428387
 20
191.1903019062301
 30
0.0
 40
0.4875000000000256
100
AcDbArc
 50
292.6198649480455
 51
67.38013505195417
  0
LINE
  5
211
330
1F
100
AcDbEntity
  8
9
  6
Continuous
 62
     7
370
    35
100
AcDbLine
 10
73.0004193428387
 20
192.2403019062307
 30
0.0
 11
73.0004193428387
 21
191.6403019062315
 31
0.0
  0
ARC
  5
212
330
1F
100
AcDbEntity
  8
9
  6
Continuous
 62
     7
370
    35
100
AcDbCircle
 10
72.8129193428387
 20
192.6903019062301
 30
0.0
 40
0.4875000000000256
100
AcDbArc
 50
292.6198649480455
 51
67.38013505195417
  0
ARC
  5
213
330
1F
100
AcDbEntity
  8
9
  6
Continuous
 62
     7
370
    35
100
AcDbCircle
 10
72.8129193428387
 20
194.1903019062301
 30
0.0
 40
0.4875000000000256
100
AcDbArc
 50
292.6198649480455
 51
67.38013505195417
  0
ARC
  5
214
330
1F
100
AcDbEntity
  8
9
  6
Continuous
 62
     7
370
    35
100
AcDbCircle
 10
72.90041934283879
 20
196.9403019062353
 30
0.0
 40
0.4000000000000057
100
AcDbArc
 50
284.4775121859832
 51
75.52248781407073
  0
ARC
  5
215
330
1F
100
AcDbEntity
  8
9
  6
Continuous
 62
     7
370
    35
100
AcDbCircle
 10
73.05041934283842
 20
196.3593544043057
 30
0.0
 40
0.2000000000000028
100
AcDbArc
 50
104.4775121859836
 51
179.9999999999998
  0
LINE
  5
216
330
1F
100
AcDbEntity
  8
9
  6
Continuous
 62
     7
370
    35
100
AcDbLine
 10
72.8504193428386
 20
201.090301906234
 30
0.0
 11
72.8504193428386
 21
197.5212494081658
 31
0.0
  0
ARC
  5
217
330
1F
100
AcDbEntity
  8
9
  6
Continuous
 62
     7
370
    35
100
AcDbCircle
 10
73.05041934283842
 20
197.5212494081658
 30
0.0
 40
0.2000000000000028
100
AcDbArc
 50
179.9999999999998
 51
255.5224878140714
  0
ARC
  5
218
330
1F
100
AcDbEntity
  8
9
  6
Continuous
 62
     7
370
    35
100
AcDbCircle
 10
79.49808426032057
 20
182.896352161338
 30
0.0
 40
1.5
100
AcDbArc
 50
269.9999999999998
 51
89.99999999999349
  0
ARC
  5
219
330
1F
100
AcDbEntity
  8
9
  6
Continuous
 62
     7
370
    35
100
AcDbCircle
 10
79.75041934283892
 20
181.3963521613385
 30
0.0
 40
2.500000000000014
100
AcDbArc
 50
65.66412066686061
 51
179.9999999999998
  0
LINE
  5
21A
330
1F
100
AcDbEntity
  8
9
  6
Continuous
 62
     7
370
    35
100
AcDbLine
 10
80.27520096476466
 20
181.6133519167261
 30
0.0
 11
80.0666638990571
 21
181.7836367862106
 31
0.0
  0
ARC
  5
21B
330
1F
100
AcDbEntity
  8
9
  6
Continuous
 62
     7
370
    35
100
AcDbCircle
 10
79.75041934283892
 20
181.3963521613385
 30
0.0
 40
0.5
100
AcDbArc
 50
50.76599557932764
 51
179.9999999999998
  0
LINE
  5
21C
330
1F
100
AcDbEntity
  8
9
  6
Continuous
 62
     7
370
    35
100
AcDbLine
 10
79.00041934283892
 20
184.3963521613378
 30
0.0
 11
79.00041934283892
 21
183.8963521613385
 31
0.0
  0
LINE
  5
21D
330
1F
100
AcDbEntity
  8
9
  6
Continuous
 62
     7
370
    35
100
AcDbLine
 10
79.00041934283892
 20
183.8963521613385
 30
0.0
 11
80.61611824906997
 21
183.8963521613385
 31
0.0
  0
LINE
  5
21E
330
1F
100
AcDbEntity
  8
9
  6
Continuous
 62
     7
370
    35
100
AcDbLine
 10
78.7504193428387
 20
195.6903019062301
 30
0.0
 11
79.74493892184744
 21
196.6848214852388
 31
0.0
  0
LINE
  5
21F
330
1F
100
AcDbEntity
  8
8
  6
Continuous
 62
     4
370
    25
100
AcDbLine
 10
79.75107265685635
 20
196.8800000979446
 30
0.0
 11
80.78003620953693
 21
198.6622172503243
 31
0.0
  0
LINE
  5
220
330
1F
100
AcDbEntity
  8
9
  6
Continuous
 62
     7
370
    35
100
AcDbLine
 10
79.91795561425572
 20
201.6903019062962
 30
0.0
 11
72.25041934284006
 21
201.6903019062962
 31
0.0
  0
LINE
  5
221
330
1F
100
AcDbEntity
  8
9
  6
Continuous
 62
     7
370
    35
100
AcDbLine
 10
72.25041934283915
 20
201.6903019062353
 30
0.0
 11
72.00041934283915
 21
201.4403019062353
 31
0.0
  0
LINE
  5
222
330
1F
100
AcDbEntity
  8
9
  6
Continuous
 62
     7
370
    35
100
AcDbLine
 10
80.23973920432415
 20
212.4296217677153
 30
0.0
 11
81.5004193428387
 21
213.6903019062301
 31
0.0
  0
LINE
  5
223
330
1F
100
AcDbEntity
  8
9
  6
Continuous
 62
     7
370
    35
100
AcDbLine
 10
88.00041934283824
 20
195.6903019062297
 30
0.0
 11
88.00041934283824
 21
189.6903019062297
 31
0.0
  0
LINE
  5
224
330
1F
100
AcDbEntity
  8
9
  6
Continuous
 62
     7
370
    35
100
AcDbLine
 10
93.00041934283898
 20
195.6903019062297
 30
0.0
 11
93.00041934283901
 21
189.6903019062297
 31
0.0
  0
LINE
  5
225
330
1F
100
AcDbEntity
  8
9
  6
Continuous
 62
     7
370
    35
100
AcDbLine
 10
100.761099481353
 20
212.4296217677153
 30
0.0
 11
99.50041934283847
 21
213.6903019062301
 31
0.0
  0
LINE
  5
226
330
1F
100
AcDbEntity
  8
9
  6
Continuous
 62
     7
370
    35
100
AcDbLine
 10
108.7504193428381
 20
201.6903019062354
 30
0.0
 11
109.0004193428381
 21
201.4403019062354
 31
0.0
  0
LINE
  5
227
330
1F
100
AcDbEntity
  8
9
  6
Continuous
 62
     7
370
    35
100
AcDbLine
 10
101.0828830714215
 20
201.6903019062963
 30
0.0
 11
108.7504193428372
 21
201.6903019062963
 31
0.0
  0
LINE
  5
228
330
1F
100
AcDbEntity
  8
8
  6
Continuous
 62
     4
370
    25
100
AcDbLine
 10
101.2497660288209
 20
196.8800000979447
 30
0.0
 11
100.2208024761403
 21
198.6622172503243
 31
0.0
  0
LINE
  5
229
330
1F
100
AcDbEntity
  8
9
  6
Continuous
 62
     7
370
    35
100
AcDbLine
 10
102.2504193428385
 20
195.6903019062301
 30
0.0
 11
101.2558997638298
 21
196.6848214852388
 31
0.0
  0
LINE
  5
22A
330
1F
100
AcDbEntity
  8
9
  6
Continuous
 62
     7
370
    35
100
AcDbLine
 10
102.0004193428384
 20
183.8963521613385
 30
0.0
 11
100.3847204366073
 21
183.8963521613385
 31
0.0
  0
LINE
  5
22B
330
1F
100
AcDbEntity
  8
9
  6
Continuous
 62
     7
370
    35
100
AcDbLine
 10
102.0004193428384
 20
184.3963521613378
 30
0.0
 11
102.0004193428384
 21
183.8963521613385
 31
0.0
  0
ARC
  5
22C
330
1F
100
AcDbEntity
  8
9
  6
Continuous
 62
     7
370
    35
100
AcDbCircle
 10
101.2504193428384
 20
181.3963521613385
 30
0.0
 40
0.5
100
AcDbArc
 50
0.0
 51
129.2340044206724
  0
LINE
  5
22D
330
1F
100
AcDbEntity
  8
9
  6
Continuous
 62
     7
370
    35
100
AcDbLine
 10
100.7256377209126
 20
181.6133519167261
 30
0.0
 11
100.9341747866202
 21
181.7836367862106
 31
0.0
  0
ARC
  5
22E
330
1F
100
AcDbEntity
  8
9
  6
Continuous
 62
     7
370
    35
100
AcDbCircle
 10
101.2504193428384
 20
181.3963521613385
 30
0.0
 40
2.500000000000014
100
AcDbArc
 50
0.0
 51
114.3358793331397
  0
ARC
  5
22F
330
1F
100
AcDbEntity
  8
9
  6
Continuous
 62
     7
370
    35
100
AcDbCircle
 10
101.5027544253567
 20
182.896352161338
 30
0.0
 40
1.5
100
AcDbArc
 50
90.00000000000651
 51
269.9999999999998
  0
ARC
  5
230
330
1F
100
AcDbEntity
  8
9
  6
Continuous
 62
     7
370
    35
100
AcDbCircle
 10
107.9504193428388
 20
197.5212494081659
 30
0.0
 40
0.2000000000000028
100
AcDbArc
 50
284.4775121859279
 51
0.0
  0
LINE
  5
231
330
1F
100
AcDbEntity
  8
9
  6
Continuous
 62
     7
370
    35
100
AcDbLine
 10
108.1504193428386
 20
201.0903019062341
 30
0.0
 11
108.1504193428386
 21
197.5212494081659
 31
0.0
  0
ARC
  5
232
330
1F
100
AcDbEntity
  8
9
  6
Continuous
 62
     7
370
    35
100
AcDbCircle
 10
107.9504193428388
 20
196.3593544043058
 30
0.0
 40
0.2000000000000028
100
AcDbArc
 50
0.0
 51
75.52248781401643
  0
ARC
  5
233
330
1F
100
AcDbEntity
  8
9
  6
Continuous
 62
     7
370
    35
100
AcDbCircle
 10
108.1004193428384
 20
196.9403019062354
 30
0.0
 40
0.4000000000000057
100
AcDbArc
 50
104.4775121859293
 51
255.522487814016
  0
ARC
  5
234
330
1F
100
AcDbEntity
  8
9
  6
Continuous
 62
     7
370
    35
100
AcDbCircle
 10
108.1879193428385
 20
194.1903019062301
 30
0.0
 40
0.4875000000000256
100
AcDbArc
 50
112.6198649480458
 51
247.3801350519554
  0
ARC
  5
235
330
1F
100
AcDbEntity
  8
9
  6
Continuous
 62
     7
370
    35
100
AcDbCircle
 10
108.1879193428386
 20
192.6903019062301
 30
0.0
 40
0.4875000000000256
100
AcDbArc
 50
112.6198649480458
 51
247.3801350519554
  0
LINE
  5
236
330
1F
100
AcDbEntity
  8
9
  6
Continuous
 62
     7
370
    35
100
AcDbLine
 10
108.0004193428386
 20
192.2403019062308
 30
0.0
 11
108.0004193428386
 21
191.6403019062315
 31
0.0
  0
ARC
  5
237
330
1F
100
AcDbEntity
  8
9
  6
Continuous
 62
     7
370
    35
100
AcDbCircle
 10
108.1879193428386
 20
191.1903019062301
 30
0.0
 40
0.4875000000000256
100
AcDbArc
 50
112.6198649480458
 51
247.3801350519554
  0
LINE
  5
238
330
1F
100
AcDbEntity
  8
9
  6
Continuous
 62
     7
370
    35
100
AcDbLine
 10
108.0004193428386
 20
193.7403019062308
 30
0.0
 11
108.0004193428386
 21
193.1403019062295
 31
0.0
  0
LINE
  5
239
330
1F
100
AcDbEntity
  8
9
  6
Continuous
 62
     7
370
    35
100
AcDbLine
 10
108.0004193428385
 20
195.1903019062301
 30
0.0
 11
108.0004193428385
 21
194.6403019062295
 31
0.0
  0
LINE
  5
23A
330
1F
100
AcDbEntity
  8
9
  6
Continuous
 62
     7
370
    35
100
AcDbLine
 10
107.5004193428385
 20
195.6903019062301
 30
0.0
 11
108.0004193428385
 21
195.1903019062301
 31
0.0
  0
LINE
  5
23B
330
1F
100
AcDbEntity
  8
8
  6
Continuous
 62
     4
370
    25
100
AcDbLine
 10
105.1504193428386
 20
188.3850272959327
 30
0.0
 11
105.6504193428386
 21
188.096352161338
 31
0.0
  0
LINE
  5
23C
330
1F
100
AcDbEntity
  8
8
  6
Continuous
 62
     4
370
    25
100
AcDbLine
 10
105.1504193428386
 20
189.6903019062301
 30
0.0
 11
105.1504193428386
 21
188.3850272959328
 31
0.0
  0
LINE
  5
23D
330
1F
100
AcDbEntity
  8
9
  6
Continuous
 62
     7
370
    35
100
AcDbLine
 10
108.0004193428386
 20
190.1903019062301
 30
0.0
 11
107.5004193428386
 21
189.6903019062301
 31
0.0
  0
LINE
  5
23E
330
1F
100
AcDbEntity
  8
9
  6
Continuous
 62
     7
370
    35
100
AcDbLine
 10
106.2504193428399
 20
180.9403019062499
 30
0.0
 11
105.750419342839
 21
180.9403019062499
 31
0.0
  0
LINE
  5
23F
330
1F
100
AcDbEntity
  8
9
  6
Continuous
 62
     7
370
    35
100
AcDbLine
 10
105.750419342839
 20
183.2903019062362
 30
0.0
 11
105.750419342839
 21
180.9403019062349
 31
0.0
  0
LINE
  5
240
330
1F
100
AcDbEntity
  8
9
  6
Continuous
 62
     7
370
    35
100
AcDbLine
 10
105.6504193428386
 20
189.6903019062301
 30
0.0
 11
105.6504193428384
 21
184.396352161338
 31
0.0
  0
LINE
  5
241
330
1F
100
AcDbEntity
  8
9
  6
Continuous
 62
     7
370
    35
100
AcDbLine
 10
108.1504193428387
 20
185.6903019062349
 30
0.0
 11
105.750419342839
 21
183.2903019062362
 31
0.0
  0
LINE
  5
242
330
1F
100
AcDbEntity
  8
9
  6
Continuous
 62
     7
370
    35
100
AcDbLine
 10
108.1504193428366
 20
196.3593544043058
 30
0.0
 11
108.1504193428387
 21
185.6903019062354
 31
0.0
  0
LINE
  5
243
330
1F
100
AcDbEntity
  8
9
  6
Continuous
 62
     7
370
    35
100
AcDbLine
 10
108.0004193428386
 20
190.740301906229
 30
0.0
 11
108.0004193428386
 21
190.1903019062301
 31
0.0
  0
LINE
  5
244
330
1F
100
AcDbEntity
  8
9
  6
Continuous
 62
     7
370
    35
100
AcDbLine
 10
105.6504193428384
 20
184.396352161338
 30
0.0
 11
101.5027544253565
 21
184.3963521613377
 31
0.0
  0
LINE
  5
245
330
1F
100
AcDbEntity
  8
8
  6
Continuous
 62
     4
370
    25
100
AcDbLine
 10
99.75657593483031
 20
213.4341453142383
 30
0.0
 11
100.2208024761403
 21
198.6622172503243
 31
0.0
  0
LINE
  5
246
330
1F
100
AcDbEntity
  8
9
  6
Continuous
 62
     7
370
    35
100
AcDbLine
 10
100.761099481353
 20
212.4296217677153
 30
0.0
 11
101.2558997638298
 21
196.6848214852388
 31
0.0
  0
LINE
  5
247
330
1F
100
AcDbEntity
  8
9
  6
Continuous
 62
     7
370
    35
100
AcDbLine
 10
108.1504193428395
 20
201.0903019062345
 30
0.0
 11
108.7504193428381
 21
201.6903019062354
 31
0.0
  0
LINE
  5
248
330
1F
100
AcDbEntity
  8
9
  6
Continuous
 62
     7
370
    35
100
AcDbLine
 10
93.00041934283901
 20
191.6403019062291
 30
0.0
 11
108.0004193428387
 21
191.6403019062292
 31
0.0
  0
LINE
  5
249
330
1F
100
AcDbEntity
  8
9
  6
Continuous
 62
     7
370
    35
100
AcDbLine
 10
108.0004193428571
 20
192.2403019062224
 30
0.0
 11
93.00041934283901
 21
192.2403019062258
 31
0.0
  0
LINE
  5
24A
330
1F
100
AcDbEntity
  8
9
  6
Continuous
 62
     7
370
    35
100
AcDbLine
 10
93.00041934283901
 20
193.1403019062291
 30
0.0
 11
108.0004193428362
 21
193.1403019062292
 31
0.0
  0
LINE
  5
24B
330
1F
100
AcDbEntity
  8
9
  6
Continuous
 62
     7
370
    35
100
AcDbLine
 10
108.0004193428375
 20
193.7403019062305
 30
0.0
 11
93.00041934283901
 21
193.740301906227
 31
0.0
  0
LINE
  5
24C
330
1F
100
AcDbEntity
  8
9
  6
Continuous
 62
     7
370
    35
100
AcDbLine
 10
93.00041934283901
 20
190.7403019062305
 30
0.0
 11
108.0004193428389
 21
190.7403019062299
 31
0.0
  0
LINE
  5
24D
330
1F
100
AcDbEntity
  8
9
  6
Continuous
 62
     7
370
    35
100
AcDbLine
 10
108.0004193428383
 20
190.1903019062299
 30
0.0
 11
93.00041934283901
 21
190.1903019062298
 31
0.0
  0
LINE
  5
24E
330
1F
100
AcDbEntity
  8
9
  6
Continuous
 62
     7
370
    35
100
AcDbLine
 10
108.0004193428386
 20
195.1903019062298
 30
0.0
 11
93.00041934283898
 21
195.1903019062297
 31
0.0
  0
LINE
  5
24F
330
1F
100
AcDbEntity
  8
9
  6
Continuous
 62
     7
370
    35
100
AcDbLine
 10
93.00041934283898
 20
194.6403019062372
 30
0.0
 11
108.0004193428556
 21
194.6403019062373
 31
0.0
  0
LINE
  5
250
330
1F
100
AcDbEntity
  8
9
  6
Continuous
 62
     7
370
    35
100
AcDbLine
 10
92.00041934283838
 20
174.03200242361
 30
0.0
 11
92.00041934283838
 21
172.8820523277869
 31
0.0
  0
LINE
  5
251
330
1F
100
AcDbEntity
  8
9
  6
Continuous
 62
     7
370
    35
100
AcDbLine
 10
92.50041934283838
 20
174.5320024236098
 30
0.0
 11
92.00041934283838
 21
174.0320024236098
 31
0.0
  0
LINE
  5
252
330
1F
100
AcDbEntity
  8
9
  6
Continuous
 62
     7
370
    35
100
AcDbLine
 10
94.17441094853787
 20
175.396352161338
 30
0.0
 11
94.17441094853787
 21
172.8820523277868
 31
0.0
  0
LINE
  5
253
330
1F
100
AcDbEntity
  8
9
  6
Continuous
 62
     7
370
    35
100
AcDbLine
 10
95.57441094853796
 20
175.396352161338
 30
0.0
 11
95.57441094853796
 21
172.8820523277868
 31
0.0
  0
LINE
  5
254
330
1F
100
AcDbEntity
  8
9
  6
Continuous
 62
     7
370
    35
100
AcDbLine
 10
92.50041934283838
 20
174.5320024236099
 30
0.0
 11
92.50041934283838
 21
175.396352161338
 31
0.0
  0
LINE
  5
255
330
1F
100
AcDbEntity
  8
8
  6
Continuous
 62
     4
370
    25
100
AcDbLine
 10
92.2004193428382
 20
175.396352161338
 30
0.0
 11
92.2004193428382
 21
174.2320024236099
 31
0.0
  0
LINE
  5
256
330
1F
100
AcDbEntity
  8
9
  6
Continuous
 62
     7
370
    35
100
AcDbLine
 10
92.60041934283832
 20
162.8820523277869
 30
0.0
 11
92.60041934283832
 21
160.9320523277868
 31
0.0
  0
LINE
  5
257
330
1F
100
AcDbEntity
  8
9
  6
Continuous
 62
     7
370
    35
100
AcDbLine
 10
93.50041934283844
 20
158.9820523277868
 30
0.0
 11
93.50041934283841
 21
159.2820523277867
 31
0.0
  0
ARC
  5
258
330
1F
100
AcDbEntity
  8
9
  6
Continuous
 62
     7
370
    35
100
AcDbCircle
 10
93.70041934283849
 20
158.9820523277868
 30
0.0
 40
0.2000000000000028
100
AcDbArc
 50
179.9999999999998
 51
269.9999999999998
  0
ARC
  5
259
330
1F
100
AcDbEntity
  8
9
  6
Continuous
 62
     7
370
    35
100
AcDbCircle
 10
93.70041934283846
 20
160.2820523277867
 30
0.0
 40
0.2000000000000028
100
AcDbArc
 50
89.99999999999991
 51
179.9999999999998
  0
LINE
  5
25A
330
1F
100
AcDbEntity
  8
9
  6
Continuous
 62
     7
370
    35
100
AcDbLine
 10
93.50041934283841
 20
160.2820523277867
 30
0.0
 11
93.50041934283841
 21
159.9820523277868
 31
0.0
  0
ARC
  5
25B
330
1F
100
AcDbEntity
  8
9
  6
Continuous
 62
     7
370
    35
100
AcDbCircle
 10
93.15041934283828
 20
159.9820523277868
 30
0.0
 40
0.3499999999999943
100
AcDbArc
 50
269.9999999999998
 51
0.0
  0
ARC
  5
25C
330
1F
100
AcDbEntity
  8
9
  6
Continuous
 62
     7
370
    35
100
AcDbCircle
 10
93.15041934283828
 20
159.2820523277867
 30
0.0
 40
0.3499999999999943
100
AcDbArc
 50
0.0
 51
89.99999999999991
  0
LINE
  5
25D
330
1F
100
AcDbEntity
  8
9
  6
Continuous
 62
     7
370
    35
100
AcDbLine
 10
92.00041934283841
 20
163.1820523277868
 30
0.0
 11
92.00041934283841
 21
165.8018333330416
 31
0.0
  0
LINE
  5
25E
330
1F
100
AcDbEntity
  8
9
  6
Continuous
 62
     7
370
    35
100
AcDbLine
 10
92.60041934283835
 20
158.3320523277867
 30
0.0
 11
92.60041934283835
 21
157.0820523277867
 31
0.0
  0
LINE
  5
25F
330
1F
100
AcDbEntity
  8
9
  6
Continuous
 62
     7
370
    35
100
AcDbLine
 10
93.3004193428384
 20
156.7820523277869
 30
0.0
 11
93.3004193428384
 21
156.6820523277866
 31
0.0
  0
ARC
  5
260
330
1F
100
AcDbEntity
  8
9
  6
Continuous
 62
     7
370
    35
100
AcDbCircle
 10
93.00041934283844
 20
156.7820523277867
 30
0.0
 40
0.2999999999999972
100
AcDbArc
 50
0.0000000000217126
 51
89.99999999999991
  0
ARC
  5
261
330
1F
100
AcDbEntity
  8
9
  6
Continuous
 62
     7
370
    35
100
AcDbCircle
 10
93.40041934283853
 20
156.6820523277866
 30
0.0
 40
0.0999999999999943
100
AcDbArc
 50
179.9999999999998
 51
269.9999999999998
  0
LINE
  5
262
330
1F
100
AcDbEntity
  8
9
  6
Continuous
 62
     7
370
    35
100
AcDbLine
 10
92.00041934283799
 20
156.0820523277867
 30
0.0
 11
92.00041934283756
 21
150.6903019061744
 31
0.0
  0
ARC
  5
263
330
1F
100
AcDbEntity
  8
9
  6
Continuous
 62
     7
370
    35
100
AcDbCircle
 10
92.00041934283847
 20
149.1903019061753
 30
0.0
 40
1.499999999999091
100
AcDbArc
 50
89.99999999999991
 51
179.9999999999998
  0
LINE
  5
264
330
1F
100
AcDbEntity
  8
9
  6
Continuous
 62
     7
370
    35
100
AcDbLine
 10
98.76293715865343
 20
175.396352161338
 30
0.0
 11
98.76293715865343
 21
172.8820523277869
 31
0.0
  0
LINE
  5
265
330
1F
100
AcDbEntity
  8
9
  6
Continuous
 62
     7
370
    35
100
AcDbLine
 10
96.89041934283826
 20
172.8820523277868
 30
0.0
 11
96.89041934283826
 21
175.396352161338
 31
0.0
  0
SPLINE
  5
266
330
1F
100
AcDbEntity
  8
9
  6
Continuous
 62
     7
370
    35
100
AcDbSpline
210
0.0
220
0.0
230
1.0
 70
    12
 71
     3
 72
    14
 73
    10
 74
     0
 42
0.000000001
 43
0.0000001
 40
4.712392463599222
 40
4.712392463599222
 40
4.712392463599222
 40
4.712392463599222
 40
5.201868027680626
 40
5.201868027680626
 40
5.722054830448688
 40
5.722054830448688
 40
6.242241633216751
 40
6.242241633216751
 40
6.283185307179586
 40
6.283185307179586
 40
6.283185307179586
 40
6.283185307179586
 10
96.47702361003311
 20
166.3947389308674
 30
0.0
 41
1.0
 10
96.5382481820055
 20
166.566379332965
 30
0.0
 41
1.0
 10
96.63446281699734
 20
166.7252815469529
 30
0.0
 41
1.0
 10
96.87572477483181
 20
166.9832577593716
 30
0.0
 41
1.0
 10
97.02242615034001
 20
167.0772793668957
 30
0.0
 41
1.0
 10
97.31185133552944
 20
167.1714200456695
 30
0.0
 41
1.0
 10
97.45343404811715
 20
167.1729945471541
 30
0.0
 41
1.0
 10
97.59007269440812
 20
167.1319603096358
 30
0.0
 41
1.0
 10
97.59995809520305
 20
167.1287191555225
 30
0.0
 41
1.0
 10
97.60975601327081
 20
167.1252322006024
 30
0.0
 41
1.0
  0
ELLIPSE
  5
267
330
1F
100
AcDbEntity
  8
9
  6
Continuous
 62
     7
370
    35
100
AcDbEllipse
 10
97.25166934283934
 20
166.1190523277867
 30
0.0
 11
0.4476083380395722
 21
1.257724841019467
 31
0.0
210
0.0
220
0.0
230
1.0
 40
0.8159202227897913
 41
-1.570595025455719
 42
-1.20477460978218
  0
ARC
  5
268
330
1F
100
AcDbEntity
  8
9
  6
Continuous
 62
     7
370
    35
100
AcDbCircle
 10
97.04100897881504
 20
165.8724072889023
 30
0.0
 40
1.375879154787484
100
AcDbArc
 50
14.98555669032832
 51
65.58329653854518
  0
ARC
  5
269
330
1F
100
AcDbEntity
  8
9
  6
Continuous
 62
     7
370
    35
100
AcDbCircle
 10
98.00041934283841
 20
160.6320523277869
 30
0.0
 40
0.2999999999998693
100
AcDbArc
 50
0.0
 51
89.99999999999991
  0
LINE
  5
26A
330
1F
100
AcDbEntity
  8
9
  6
Continuous
 62
     7
370
    35
100
AcDbLine
 10
99.75041934283841
 20
160.6320523277869
 30
0.0
 11
99.75041934283841
 21
160.4820523277868
 31
0.0
  0
LINE
  5
26B
330
1F
100
AcDbEntity
  8
9
  6
Continuous
 62
     7
370
    35
100
AcDbLine
 10
97.36284389857757
 20
163.1820523277868
 30
0.0
 11
98.27796255868371
 21
165.7540928219449
 31
0.0
  0
ELLIPSE
  5
26C
330
1F
100
AcDbEntity
  8
9
  6
Continuous
 62
     7
370
    35
100
AcDbEllipse
 10
102.1762382848459
 20
166.1508035218399
 30
0.0
 11
0.7365439769864964
 21
1.222289143954669
 31
0.0
210
0.0
220
0.0
230
1.0
 40
0.4069918413230587
 41
-1.323987393323501
 42
-0.9713939910085836
  0
ARC
  5
26D
330
1F
100
AcDbEntity
  8
9
  6
Continuous
 62
     7
370
    35
100
AcDbCircle
 10
101.6987519946882
 20
166.2791215189048
 30
0.0
 40
1.340962879392066
100
AcDbArc
 50
13.53005498712041
 51
37.00603024986814
  0
ARC
  5
26E
330
1F
100
AcDbEntity
  8
9
  6
Continuous
 62
     7
370
    35
100
AcDbCircle
 10
104.0004193428386
 20
167.4680801181726
 30
0.0
 40
0.2999999999999972
100
AcDbArc
 50
332.999999999996
 51
0.0
  0
ARC
  5
26F
330
1F
100
AcDbEntity
  8
9
  6
Continuous
 62
     7
370
    35
100
AcDbCircle
 10
102.6993332751618
 20
167.0332787162448
 30
0.0
 40
0.0879999999999939
100
AcDbArc
 50
37.00603024989528
 51
114.4644768282405
  0
SPLINE
  5
270
330
1F
100
AcDbEntity
  8
9
  6
Continuous
 62
     7
370
    35
100
AcDbSpline
210
0.0
220
0.0
230
1.0
 70
    12
 71
     3
 72
    12
 73
     8
 74
     0
 42
0.000000001
 43
0.0000001
 40
4.927655908264091
 40
4.927655908264091
 40
4.927655908264091
 40
4.927655908264091
 40
5.267374716391513
 40
5.267374716391513
 40
5.651619790278388
 40
5.651619790278388
 40
5.743457712309654
 40
5.743457712309654
 40
5.743457712309654
 40
5.743457712309654
 10
102.0607410406659
 20
166.5489782519178
 30
0.0
 41
1.0
 10
102.1467920407145
 20
166.6667317192869
 30
0.0
 41
1.0
 10
102.2381322159996
 20
166.7736026526402
 30
0.0
 41
1.0
 10
102.4284948846012
 20
166.9624121538644
 30
0.0
 41
1.0
 10
102.5273769506233
 20
167.0388557461752
 30
0.0
 41
1.0
 10
102.6277018390166
 20
167.0963982252129
 30
0.0
 41
1.0
 10
102.6459888600953
 20
167.1056883109325
 30
0.0
 41
1.0
 10
102.66288992401
 20
167.1133779182186
 30
0.0
 41
1.0
  0
ARC
  5
271
330
1F
100
AcDbEntity
  8
9
  6
Continuous
 62
     7
370
    35
100
AcDbCircle
 10
101.8778591852107
 20
163.0820523277867
 30
0.0
 40
0.2000000000000028
100
AcDbArc
 50
269.9999999999998
 51
333.0000000000008
  0
LINE
  5
272
330
1F
100
AcDbEntity
  8
9
  6
Continuous
 62
     7
370
    35
100
AcDbLine
 10
100.0330653097891
 20
163.1820523277868
 30
0.0
 11
101.0448381696363
 21
163.1820523277868
 31
0.0
  0
LINE
  5
273
330
1F
100
AcDbEntity
  8
9
  6
Continuous
 62
     7
370
    35
100
AcDbLine
 10
100.0330653097891
 20
163.1820523277868
 30
0.0
 11
102.0737090788535
 21
166.5684851865759
 31
0.0
  0
LINE
  5
274
330
1F
100
AcDbEntity
  8
9
  6
Continuous
 62
     7
370
    35
100
AcDbLine
 10
101.0448381696366
 20
163.1820523277868
 30
0.0
 11
102.8385710752681
 21
166.1587384812488
 31
0.0
  0
LINE
  5
275
330
1F
100
AcDbEntity
  8
9
  6
Continuous
 62
     7
370
    35
100
AcDbLine
 10
104.2677213000949
 20
167.3318829682508
 30
0.0
 11
102.0560604900482
 21
162.991254227839
 31
0.0
  0
LINE
  5
276
330
1F
100
AcDbEntity
  8
9
  6
Continuous
 62
     7
370
    35
100
AcDbLine
 10
104.3004193428383
 20
171.782052327787
 30
0.0
 11
104.3004193428384
 21
167.4680801181726
 31
0.0
  0
LINE
  5
277
330
1F
100
AcDbEntity
  8
9
  6
Continuous
 62
     7
370
    35
100
AcDbLine
 10
105.4004193428382
 20
175.396352161338
 30
0.0
 11
105.6504193428382
 21
175.8293648632298
 31
0.0
  0
LINE
  5
278
330
1F
100
AcDbEntity
  8
9
  6
Continuous
 62
     7
370
    35
100
AcDbLine
 10
104.6004193428385
 20
172.8820523277869
 30
0.0
 11
104.6004193428385
 21
172.6820523277868
 31
0.0
  0
LINE
  5
279
330
1F
100
AcDbEntity
  8
11
  6
HIDDEN
 62
     2
370
    25
100
AcDbLine
 10
107.7504193428409
 20
172.1903019062417
 30
0.0
 11
107.7504193428409
 21
169.8903019062297
 31
0.0
  0
ARC
  5
27A
330
1F
100
AcDbEntity
  8
11
  6
HIDDEN
 62
     2
370
    25
100
AcDbCircle
 10
108.2504193428418
 20
172.1903019062417
 30
0.0
 40
0.5
100
AcDbArc
 50
359.9999999999475
 51
179.9999999999998
  0
LINE
  5
27B
330
1F
100
AcDbEntity
  8
11
  6
HIDDEN
 62
     2
370
    25
100
AcDbLine
 10
108.7504193428418
 20
172.1903019062413
 30
0.0
 11
108.7504193428409
 21
171.102139615253
 31
0.0
  0
ARC
  5
27C
330
1F
100
AcDbEntity
  8
11
  6
HIDDEN
 62
     2
370
    25
100
AcDbCircle
 10
107.5504193428411
 20
169.8903019062297
 30
0.0
 40
0.2000000000000028
100
AcDbArc
 50
269.9999999999998
 51
0.0
  0
ARC
  5
27D
330
1F
100
AcDbEntity
  8
9
  6
Continuous
 62
     7
370
    35
100
AcDbCircle
 10
107.4334301339146
 20
169.8903019062315
 30
0.0
 40
0.2000000000000028
100
AcDbArc
 50
185.0796078599697
 51
269.9999999999998
  0
ARC
  5
27E
330
1F
100
AcDbEntity
  8
9
  6
Continuous
 62
     7
370
    35
100
AcDbCircle
 10
110.0004193428365
 20
174.2863785936765
 30
0.0
 40
1.0
100
AcDbArc
 50
179.9999999999935
 51
280.2483788344194
  0
LINE
  5
27F
330
1F
100
AcDbEntity
  8
11
  6
HIDDEN
 62
     2
370
    25
100
AcDbLine
 10
109.2504193428409
 20
170.6021396152525
 30
0.0
 11
107.7504193428409
 21
170.6021396152525
 31
0.0
  0
ARC
  5
280
330
1F
100
AcDbEntity
  8
11
  6
HIDDEN
 62
     2
370
    25
100
AcDbCircle
 10
109.2504193428409
 20
171.1021396152525
 30
0.0
 40
0.5
100
AcDbArc
 50
179.9999999999739
 51
280.248378834393
  0
ARC
  5
281
330
1F
100
AcDbEntity
  8
9
  6
Continuous
 62
     7
370
    35
100
AcDbCircle
 10
105.8004193428386
 20
171.782052327787
 30
0.0
 40
1.5
100
AcDbArc
 50
143.1301023541625
 51
179.9999999999998
  0
LINE
  5
282
330
1F
100
AcDbEntity
  8
9
  6
Continuous
 62
     7
370
    35
100
AcDbLine
 10
107.650419342839
 20
169.6903019062316
 30
0.0
 11
104.3004193428384
 21
169.6903019062316
 31
0.0
  0
ARC
  5
283
330
1F
100
AcDbEntity
  8
9
  6
Continuous
 62
     7
370
    35
100
AcDbCircle
 10
98.00041934283844
 20
158.6320523277867
 30
0.0
 40
0.2999999999998693
100
AcDbArc
 50
269.9999999999998
 51
0.0
  0
ARC
  5
284
330
1F
100
AcDbEntity
  8
9
  6
Continuous
 62
     7
370
    35
100
AcDbCircle
 10
98.50041934283867
 20
156.3820523277869
 30
0.0
 40
0.2999999999999972
100
AcDbArc
 50
269.9999999999998
 51
340.5287793651125
  0
LINE
  5
285
330
1F
100
AcDbEntity
  8
9
  6
Continuous
 62
     7
370
    35
100
AcDbLine
 10
99.75041934283867
 20
156.2820523277867
 30
0.0
 11
99.75041934283867
 21
156.5820523277867
 31
0.0
  0
LINE
  5
286
330
1F
100
AcDbEntity
  8
9
  6
Continuous
 62
     7
370
    35
100
AcDbLine
 10
111.6504193428397
 20
149.1903019061731
 30
0.0
 11
111.6504193428396
 21
158.6903019062354
 31
0.0
  0
ARC
  5
287
330
1F
100
AcDbEntity
  8
9
  6
Continuous
 62
     7
370
    35
100
AcDbCircle
 10
110.1504193428406
 20
149.1903019061731
 30
0.0
 40
1.499999999999091
100
AcDbArc
 50
270.000000000156
 51
0.0000000008858735
  0
ARC
  5
288
330
1F
100
AcDbEntity
  8
9
  6
Continuous
 62
     7
370
    35
100
AcDbCircle
 10
109.1504193428415
 20
149.1903019062349
 30
0.0
 40
1.5
100
AcDbArc
 50
179.9999999999998
 51
270.000000000156
  0
LINE
  5
289
330
1F
100
AcDbEntity
  8
9
  6
Continuous
 62
     7
370
    35
100
AcDbLine
 10
99.75041934283844
 20
158.6320523277867
 30
0.0
 11
99.75041934283844
 21
158.7820523277867
 31
0.0
  0
LINE
  5
28A
330
1F
100
AcDbEntity
  8
9
  6
Continuous
 62
     7
370
    35
100
AcDbLine
 10
124.5004193428397
 20
174.1866494693925
 30
0.0
 11
124.5004193428397
 21
174.6903019062298
 31
0.0
  0
ARC
  5
28B
330
1F
100
AcDbEntity
  8
9
  6
Continuous
 62
     7
370
    35
100
AcDbCircle
 10
123.5004193428388
 20
174.1866494693925
 30
0.0
 40
1.0
100
AcDbArc
 50
280.248378834446
 51
0.0000000000260551
  0
ARC
  5
28C
330
1F
100
AcDbEntity
  8
9
  6
Continuous
 62
     7
370
    35
100
AcDbCircle
 10
126.6504193428395
 20
158.6903019062354
 30
0.0
 40
15.0
100
AcDbArc
 50
109.3883336173004
 51
179.9999999999997
  0
LINE
  5
28D
330
1F
100
AcDbEntity
  8
9
  6
Continuous
 62
     7
370
    35
100
AcDbLine
 10
110.1783350451253
 20
173.3023328615691
 30
0.0
 11
117.8551448889148
 21
174.6903019062298
 31
0.0
  0
LINE
  5
28E
330
1F
100
AcDbEntity
  8
9
  6
Continuous
 62
     7
370
    35
100
AcDbLine
 10
95.33395238439617
 20
163.1820523277868
 30
0.0
 11
96.47701852948022
 21
166.3947640129764
 31
0.0
  0
LINE
  5
28F
330
1F
100
AcDbEntity
  8
9
  6
Continuous
 62
     7
370
    35
100
AcDbLine
 10
95.33395238439594
 20
163.1820523277868
 30
0.0
 11
97.36284389857757
 21
163.1820523277868
 31
0.0
  0
LINE
  5
290
330
1F
100
AcDbEntity
  8
9
  6
Continuous
 62
     7
370
    35
100
AcDbLine
 10
92.00041934283847
 20
150.6903019061744
 30
0.0
 11
107.6504193428415
 21
150.6903019061744
 31
0.0
  0
INSERT
  5
2C3
330
1F
100
AcDbEntity
  8
0
100
AcDbBlockReference
  2
*G22
 10
0.0
 20
0.0
 30
0.0
  0
LINE
  5
2C4
330
1F
100
AcDbEntity
  8
9
  6
Continuous
 62
     7
370
    35
100
AcDbLine
 10
109.0004193428365
 20
174.2863785936766
 30
0.0
 11
109.0004193428381
 21
201.4403019062354
 31
0.0
  0
LINE
  5
2C5
330
1F
100
AcDbEntity
  8
9
  6
Continuous
 62
     7
370
    35
100
AcDbLine
 10
107.2342156057754
 20
169.8725939481749
 30
0.0
 11
106.2504193428399
 21
180.9403019062499
 31
0.0
  0
LINE
  5
2C6
330
1F
100
AcDbEntity
  8
9
  6
Continuous
 62
     7
370
    35
100
AcDbLine
 10
105.6504193428382
 20
175.8293648632298
 30
0.0
 11
105.6504193428382
 21
181.396352161338
 31
0.0
  0
LINE
  5
2C7
330
1F
100
AcDbEntity
  8
9
  6
Continuous
 62
     7
370
    35
100
AcDbLine
 10
109.0004193428365
 20
174.6903019062298
 30
0.0
 11
156.7292997130362
 21
174.6903019062297
 31
0.0
  0
LINE
  5
2C8
330
1F
100
AcDbEntity
  8
9
  6
Continuous
 62
     7
370
    35
100
AcDbLine
 10
105.4004193428382
 20
175.396352161338
 30
0.0
 11
75.60041934283906
 21
175.396352161338
 31
0.0
  0
LINE
  5
2C9
330
1F
100
AcDbEntity
  8
9
  6
Continuous
 62
     7
370
    35
100
AcDbLine
 10
104.6004193428385
 20
172.8820523277869
 30
0.0
 11
76.40041934283879
 21
172.8820523277869
 31
0.0
  0
LINE
  5
2CA
330
1F
100
AcDbEntity
  8
9
  6
Continuous
 62
     7
370
    35
100
AcDbLine
 10
76.40041934283879
 20
172.6820523277868
 30
0.0
 11
104.6004193428385
 21
172.6820523277868
 31
0.0
  0
LINE
  5
2CB
330
1F
100
AcDbEntity
  8
9
  6
Continuous
 62
     7
370
    35
100
AcDbLine
 10
76.70282406009635
 20
167.4301717063177
 30
0.0
 11
104.298014625581
 21
167.4301717063177
 31
0.0
  0
LINE
  5
2CC
330
1F
100
AcDbEntity
  8
9
  6
Continuous
 62
     7
370
    35
100
AcDbLine
 10
101.8778591852107
 20
162.8820523277869
 30
0.0
 11
79.12297950046666
 21
162.8820523277869
 31
0.0
  0
LINE
  5
2CD
330
1F
100
AcDbEntity
  8
9
  6
Continuous
 62
     7
370
    35
100
AcDbLine
 10
99.75041934283841
 20
160.6320523277869
 30
0.0
 11
81.25041934283892
 21
160.6320523277869
 31
0.0
  0
LINE
  5
2CE
330
1F
100
AcDbEntity
  8
9
  6
Continuous
 62
     7
370
    35
100
AcDbLine
 10
99.75041934283841
 20
160.4820523277868
 30
0.0
 11
81.25041934283892
 21
160.4820523277868
 31
0.0
  0
LINE
  5
2CF
330
1F
100
AcDbEntity
  8
9
  6
Continuous
 62
     7
370
    35
100
AcDbLine
 10
98.00041934283841
 20
160.9320523277868
 30
0.0
 11
83.00041934283892
 21
160.9320523277868
 31
0.0
  0
LINE
  5
2D0
330
1F
100
AcDbEntity
  8
9
  6
Continuous
 62
     7
370
    35
100
AcDbLine
 10
99.75041934283867
 20
156.2820523277867
 30
0.0
 11
81.2504193428387
 21
156.2820523277867
 31
0.0
  0
LINE
  5
2D1
330
1F
100
AcDbEntity
  8
9
  6
Continuous
 62
     7
370
    35
100
AcDbLine
 10
81.2504193428387
 20
156.5820523277867
 30
0.0
 11
99.75041934283867
 21
156.5820523277867
 31
0.0
  0
LINE
  5
2D2
330
1F
100
AcDbEntity
  8
9
  6
Continuous
 62
     7
370
    35
100
AcDbLine
 10
99.75041934283844
 20
158.6320523277869
 30
0.0
 11
81.25041934283892
 21
158.6320523277869
 31
0.0
  0
LINE
  5
2D3
330
1F
100
AcDbEntity
  8
9
  6
Continuous
 62
     7
370
    35
100
AcDbLine
 10
99.75041934283844
 20
158.7820523277867
 30
0.0
 11
81.25041934283892
 21
158.7820523277867
 31
0.0
  0
LINE
  5
2D4
330
1F
100
AcDbEntity
  8
9
  6
Continuous
 62
     7
370
    35
100
AcDbLine
 10
98.50041934283867
 20
156.0820523277867
 30
0.0
 11
82.5004193428387
 21
156.0820523277867
 31
0.0
  0
LINE
  5
2D5
330
1F
100
AcDbEntity
  8
9
  6
Continuous
 62
     7
370
    35
100
AcDbLine
 10
98.00041934283844
 20
158.3320523277867
 30
0.0
 11
83.00041934283892
 21
158.3320523277867
 31
0.0
  0
LINE
  5
2D6
330
1F
100
AcDbEntity
  8
9
  6
Continuous
 62
     7
370
    35
100
AcDbLine
 10
110.1504193428406
 20
147.6903019062349
 30
0.0
 11
70.85041934283679
 21
147.6903019062349
 31
0.0
  0
LINE
  5
2D7
330
1F
100
AcDbEntity
  8
11
  6
HIDDEN
 62
     2
370
    25
100
AcDbLine
 10
71.66146149169406
 20
170.6101167492112
 30
0.0
 11
57.32250364054919
 21
173.2026037372849
 31
0.0
  0
LINE
  5
2D8
330
1F
100
AcDbEntity
  8
9
  6
Continuous
 62
     7
370
    35
100
AcDbLine
 10
73.35041934283633
 20
169.6903019062317
 30
0.0
 11
73.35041934283588
 21
149.1903019062349
 31
0.0
  0
LINE
  5
2D9
330
1F
100
AcDbEntity
  8
9
  6
Continuous
 62
     7
370
    35
100
AcDbLine
 10
88.0004193428387
 20
157.0820523277867
 30
0.0
 11
93.00041934283867
 21
157.0820523277867
 31
0.0
  0
ARC
  5
2DA
330
1F
100
AcDbEntity
  8
9
  6
Continuous
 62
     7
370
    35
100
AcDbCircle
 10
90.5004193428387
 20
165.7039313480578
 30
0.0
 40
1.50319153758376
100
AcDbArc
 50
3.734283802227213
 51
176.2657161977729
  0
LINE
  5
2DB
330
1F
100
AcDbEntity
  8
9
  6
Continuous
 62
     7
370
    35
100
AcDbLine
 10
92.00041934283841
 20
163.1820523277868
 30
0.0
 11
89.00041934283892
 21
163.1820523277868
 31
0.0
  0
LINE
  5
2DC
330
1F
100
AcDbEntity
  8
9
  6
Continuous
 62
     7
370
    35
100
AcDbLine
 10
93.15041934283828
 20
159.6320523277869
 30
0.0
 11
87.85041934283906
 21
159.6320523277869
 31
0.0
  0
LINE
  5
2DD
330
1F
100
AcDbEntity
  8
9
  6
Continuous
 62
     7
370
    35
100
AcDbLine
 10
99.50041934283847
 20
213.6903019062301
 30
0.0
 11
81.5004193428387
 21
213.6903019062301
 31
0.0
  0
LINE
  5
2DE
330
1F
100
AcDbEntity
  8
9
  6
Continuous
 62
     7
370
    35
100
AcDbLine
 10
75.35033590482242
 20
188.3850272959329
 30
0.0
 11
105.6505027808548
 21
188.385027295933
 31
0.0
  0
LINE
  5
2DF
330
1F
100
AcDbEntity
  8
9
  6
Continuous
 62
     7
370
    35
100
AcDbLine
 10
101.25589976383
 20
196.6848214852388
 30
0.0
 11
79.74493892184721
 21
196.6848214852388
 31
0.0
  0
LINE
  5
2E0
330
1F
100
AcDbEntity
  8
9
  6
Continuous
 62
     7
370
    35
100
AcDbLine
 10
101.1937575984434
 20
198.6622172503243
 30
0.0
 11
79.80708108723381
 21
198.6622172503243
 31
0.0
  0
LINE
  5
2E1
330
1F
100
AcDbEntity
  8
9
  6
Continuous
 62
     7
370
    35
100
AcDbLine
 10
107.5004193428385
 20
195.6903019062301
 30
0.0
 11
73.5004193428387
 21
195.6903019062301
 31
0.0
  0
LINE
  5
2E2
330
1F
100
AcDbEntity
  8
9
  6
Continuous
 62
     7
370
    35
100
AcDbLine
 10
73.5004193428387
 20
189.6903019062301
 30
0.0
 11
107.5004193428386
 21
189.6903019062301
 31
0.0
  0
LINE
  5
2E3
330
1F
100
AcDbEntity
  8
9
  6
Continuous
 62
     7
370
    35
100
AcDbLine
 10
79.49808426032057
 20
181.396352161338
 30
0.0
 11
75.35041934283906
 21
181.396352161338
 31
0.0
  0
LINE
  5
2E4
330
1F
100
AcDbEntity
  8
9
  6
Continuous
 62
     7
370
    35
100
AcDbLine
 10
101.5027544253567
 20
181.396352161338
 30
0.0
 11
105.6504193428382
 21
181.396352161338
 31
0.0
  0
LINE
  5
2E5
330
1F
100
AcDbEntity
  8
9
  6
Continuous
 62
     7
370
    35
100
AcDbLine
 10
107.650419342841
 20
169.6903019062317
 30
0.0
 11
107.6504193428415
 21
149.1903019062349
 31
0.0
  0
LINE
  5
2E6
330
1F
100
AcDbEntity
  8
9
  6
Continuous
 62
     7
370
    35
100
AcDbLine
 10
109.3393771939833
 20
170.6101167492113
 30
0.0
 11
123.6783350451281
 21
173.202603737285
 31
0.0
  0
LINE
  5
2E7
330
1F
100
AcDbEntity
  8
9
  6
Continuous
 62
     7
370
    35
100
AcDbLine
 10
80.23973920432393
 20
212.4296217677153
 30
0.0
 11
100.7610994813532
 21
212.4296217677153
 31
0.0
  0
LINE
  5
2E8
330
1F
100
AcDbEntity
  8
9
  6
Continuous
 62
     7
370
    35
100
AcDbLine
 10
89.00041934283892
 20
174.0320024236098
 30
0.0
 11
92.00041934283838
 21
174.0320024236098
 31
0.0
  0
LINE
  5
2E9
330
1F
100
AcDbEntity
  8
9
  6
Continuous
 62
     7
370
    35
100
AcDbLine
 10
88.50041934283892
 20
174.5320024236098
 30
0.0
 11
92.50041934283838
 21
174.5320024236098
 31
0.0
  0
LINE
  5
2EA
330
1F
100
AcDbEntity
  8
9
  6
Continuous
 62
     7
370
    35
100
AcDbLine
 10
75.35041934283906
 20
175.8293648632298
 30
0.0
 11
105.6504193428382
 21
175.8293648632298
 31
0.0
  0
ELLIPSE
  5
2EB
330
1F
100
AcDbEntity
  8
9
  6
Continuous
 62
     7
370
    35
100
AcDbEllipse
 10
90.50041934283907
 20
114.1274835007828
 30
0.0
 11
4.318980183710681E-15
 21
2.673389674331702
 31
0.0
210
0.0
220
0.0
230
1.0
 40
0.5610854318774396
 41
0.0000000000000062
 42
1.570796326794903
  0
ARC
  5
2EC
330
1F
100
AcDbEntity
  8
9
  6
Continuous
 62
     7
370
    35
100
AcDbCircle
 10
89.00041934283907
 20
92.82412593432876
 30
0.0
 40
1.499999999999091
100
AcDbArc
 50
0.0
 51
89.99999999999991
  0
LINE
  5
2ED
330
1F
100
AcDbEntity
  8
9
  6
Continuous
 62
     7
370
    35
100
AcDbLine
 10
89.00041934283816
 20
114.1274835007823
 30
0.0
 11
89.00041934283998
 21
94.32412593432785
 31
0.0
  0
ARC
  5
2EE
330
1F
100
AcDbEntity
  8
9
  6
Continuous
 62
     7
370
    35
100
AcDbCircle
 10
72.3504193428367
 20
114.6274835007823
 30
0.0
 40
0.5
100
AcDbArc
 50
259.7516211656064
 51
269.9999999999998
  0
LINE
  5
2EF
330
1F
100
AcDbEntity
  8
9
  6
Continuous
 62
     7
370
    35
100
AcDbLine
 10
56.50041934283816
 20
117.8204734975491
 30
0.0
 11
56.50041934283816
 21
118.3241259343915
 31
0.0
  0
ARC
  5
2F0
330
1F
100
AcDbEntity
  8
9
  6
Continuous
 62
     7
370
    35
100
AcDbCircle
 10
57.50041934283816
 20
117.8204734975491
 30
0.0
 40
1.0
100
AcDbArc
 50
179.9999999999998
 51
259.7516211656064
  0
LINE
  5
2F1
330
1F
100
AcDbEntity
  8
9
  6
Continuous
 62
     7
370
    35
100
AcDbLine
 10
72.26146149169251
 20
114.1354606347274
 30
0.0
 11
57.32250364054978
 21
116.8364277654416
 31
0.0
  0
LINE
  5
2F2
330
1F
100
AcDbEntity
  8
9
  6
Continuous
 62
     7
370
    35
100
AcDbLine
 10
69.35041934283852
 20
92.82412593432967
 30
0.0
 11
69.35041934283852
 21
102.3241259343915
 31
0.0
  0
LINE
  5
2F3
330
1F
100
AcDbEntity
  8
9
  6
Continuous
 62
     7
370
    35
100
AcDbLine
 10
69.34028773564076
 20
102.0643363686024
 30
0.0
 11
69.35041934283852
 21
92.82412593433058
 31
0.0
  0
LINE
  5
2F4
330
1F
100
AcDbEntity
  8
9
  6
Continuous
 62
     7
370
    35
100
AcDbLine
 10
73.3504193428367
 20
114.1274835007818
 30
0.0
 11
73.35041934283579
 21
94.3241259343274
 31
0.0
  0
ARC
  5
2F5
330
1F
100
AcDbEntity
  8
9
  6
Continuous
 62
     7
370
    35
100
AcDbCircle
 10
54.35041934283858
 20
102.324125934392
 30
0.0
 40
15.0
100
AcDbArc
 50
0.0
 51
70.61166638270313
  0
LINE
  5
2F6
330
1F
100
AcDbEntity
  8
9
  6
Continuous
 62
     7
370
    35
100
AcDbLine
 10
72.3504193428367
 20
114.1274835007823
 30
0.0
 11
89.00041934283816
 21
114.1274835007828
 31
0.0
  0
LINE
  5
2F7
330
1F
100
AcDbEntity
  8
9
  6
Continuous
 62
     7
370
    35
100
AcDbLine
 10
73.35041934283852
 20
113.3241259343883
 30
0.0
 11
89.00041934283816
 21
113.3241259343883
 31
0.0
  0
LINE
  5
2F8
330
1F
100
AcDbEntity
  8
9
  6
Continuous
 62
     7
370
    35
100
AcDbLine
 10
89.00041934283907
 20
94.32412593432785
 30
0.0
 11
70.85041934283761
 21
94.32412593432785
 31
0.0
  0
LINE
  5
2F9
330
1F
100
AcDbEntity
  8
9
  6
Continuous
 62
     7
370
    35
100
AcDbLine
 10
92.00041934283884
 20
94.32412593432785
 30
0.0
 11
110.1504193428403
 21
94.32412593432782
 31
0.0
  0
LINE
  5
2FA
330
1F
100
AcDbEntity
  8
9
  6
Continuous
 62
     7
370
    35
100
AcDbLine
 10
107.6504193428394
 20
113.3241259343883
 30
0.0
 11
92.00041934283975
 21
113.3241259343883
 31
0.0
  0
LINE
  5
2FB
330
1F
100
AcDbEntity
  8
9
  6
Continuous
 62
     7
370
    35
100
AcDbLine
 10
108.6504193428412
 20
114.1274835007823
 30
0.0
 11
92.00041934283975
 21
114.1274835007828
 31
0.0
  0
ARC
  5
2FC
330
1F
100
AcDbEntity
  8
9
  6
Continuous
 62
     7
370
    35
100
AcDbCircle
 10
126.6504193428393
 20
102.3241259343919
 30
0.0
 40
15.0
100
AcDbArc
 50
109.3883336172968
 51
179.9999999999999
  0
LINE
  5
2FD
330
1F
100
AcDbEntity
  8
9
  6
Continuous
 62
     7
370
    35
100
AcDbLine
 10
107.6504193428412
 20
114.1274835007818
 30
0.0
 11
107.6504193428421
 21
94.32412593432737
 31
0.0
  0
LINE
  5
2FE
330
1F
100
AcDbEntity
  8
9
  6
Continuous
 62
     7
370
    35
100
AcDbLine
 10
111.6605509500371
 20
102.0643363686024
 30
0.0
 11
111.6504193428394
 21
92.82412593433055
 31
0.0
  0
LINE
  5
2FF
330
1F
100
AcDbEntity
  8
9
  6
Continuous
 62
     7
370
    35
100
AcDbLine
 10
111.6504193428394
 20
92.82412593432964
 30
0.0
 11
111.6504193428394
 21
102.3241259343915
 31
0.0
  0
LINE
  5
300
330
1F
100
AcDbEntity
  8
9
  6
Continuous
 62
     7
370
    35
100
AcDbLine
 10
108.7393771939854
 20
114.1354606347274
 30
0.0
 11
123.6783350451281
 21
116.8364277654415
 31
0.0
  0
ARC
  5
301
330
1F
100
AcDbEntity
  8
9
  6
Continuous
 62
     7
370
    35
100
AcDbCircle
 10
123.5004193428397
 20
117.820473497549
 30
0.0
 40
1.0
100
AcDbArc
 50
280.248378834393
 51
0.0
  0
LINE
  5
302
330
1F
100
AcDbEntity
  8
9
  6
Continuous
 62
     7
370
    35
100
AcDbLine
 10
124.5004193428397
 20
117.820473497549
 30
0.0
 11
124.5004193428397
 21
118.3241259343915
 31
0.0
  0
ARC
  5
303
330
1F
100
AcDbEntity
  8
9
  6
Continuous
 62
     7
370
    35
100
AcDbCircle
 10
108.6504193428412
 20
114.6274835007823
 30
0.0
 40
0.5
100
AcDbArc
 50
269.9999999999998
 51
280.248378834393
  0
LINE
  5
304
330
1F
100
AcDbEntity
  8
9
  6
Continuous
 62
     7
370
    35
100
AcDbLine
 10
92.00041934283975
 20
114.1274835007823
 30
0.0
 11
92.00041934283793
 21
94.32412593432785
 31
0.0
  0
ARC
  5
305
330
1F
100
AcDbEntity
  8
9
  6
Continuous
 62
     7
370
    35
100
AcDbCircle
 10
92.00041934283884
 20
92.82412593432876
 30
0.0
 40
1.499999999999091
100
AcDbArc
 50
89.99999999999991
 51
179.9999999999998
  0
ELLIPSE
  5
306
330
1F
100
AcDbEntity
  8
9
  6
Continuous
 62
     7
370
    35
100
AcDbEllipse
 10
90.50041934283884
 20
114.1274835007828
 30
0.0
 11
4.318980183710681E-15
 21
2.673389674331702
 31
0.0
210
0.0
220
0.0
230
1.0
 40
0.5610854318774396
 41
-1.570796326794903
 42
-0.0000000000000062
  0
LINE
  5
307
330
1F
100
AcDbEntity
  8
9
  6
Continuous
 62
     7
370
    35
100
AcDbLine
 10
92.00041934283844
 20
99.71587635594346
 30
0.0
 11
98.50041934283907
 21
99.71587635594348
 31
0.0
  0
LINE
  5
308
330
1F
100
AcDbEntity
  8
9
  6
Continuous
 62
     7
370
    35
100
AcDbLine
 10
92.00041934283861
 20
101.9658763559435
 30
0.0
 11
98.00041934283884
 21
101.9658763559435
 31
0.0
  0
LINE
  5
309
330
1F
100
AcDbEntity
  8
9
  6
Continuous
 62
     7
370
    35
100
AcDbLine
 10
99.75041934283884
 20
102.2658763559434
 30
0.0
 11
99.75041934283884
 21
102.4158763559435
 31
0.0
  0
LINE
  5
30A
330
1F
100
AcDbEntity
  8
9
  6
Continuous
 62
     7
370
    35
100
AcDbLine
 10
99.75041934283907
 20
99.91587635594352
 30
0.0
 11
99.75041934283907
 21
100.2158763559435
 31
0.0
  0
ARC
  5
30B
330
1F
100
AcDbEntity
  8
9
  6
Continuous
 62
     7
370
    35
100
AcDbCircle
 10
98.50041934283907
 20
100.0158763559437
 30
0.0
 40
0.2999999999999972
100
AcDbArc
 50
269.9999999999998
 51
340.5287793651099
  0
ARC
  5
30C
330
1F
100
AcDbEntity
  8
9
  6
Continuous
 62
     7
370
    35
100
AcDbCircle
 10
98.00041934283884
 20
102.2658763559434
 30
0.0
 40
0.2999999999998693
100
AcDbArc
 50
269.9999999999998
 51
0.0
  0
LINE
  5
30D
330
1F
100
AcDbEntity
  8
9
  6
Continuous
 62
     7
370
    35
100
AcDbLine
 10
104.3004193428388
 20
113.3241259343883
 30
0.0
 11
104.3004193428388
 21
111.1019041463294
 31
0.0
  0
LINE
  5
30E
330
1F
100
AcDbEntity
  8
9
  6
Continuous
 62
     7
370
    35
100
AcDbLine
 10
104.2677213000953
 20
110.9657069964076
 30
0.0
 11
102.0560604900487
 21
106.6250782559957
 31
0.0
  0
LINE
  5
30F
330
1F
100
AcDbEntity
  8
9
  6
Continuous
 62
     7
370
    35
100
AcDbLine
 10
101.044838169637
 20
106.8158763559436
 30
0.0
 11
102.8385710752685
 21
109.7925625094056
 31
0.0
  0
LINE
  5
310
330
1F
100
AcDbEntity
  8
9
  6
Continuous
 62
     7
370
    35
100
AcDbLine
 10
100.0330653097895
 20
106.8158763559436
 30
0.0
 11
102.073709078854
 21
110.2023092147326
 31
0.0
  0
LINE
  5
311
330
1F
100
AcDbEntity
  8
9
  6
Continuous
 62
     7
370
    35
100
AcDbLine
 10
100.0330653097895
 20
106.8158763559436
 30
0.0
 11
101.0448381696368
 21
106.8158763559436
 31
0.0
  0
ARC
  5
312
330
1F
100
AcDbEntity
  8
9
  6
Continuous
 62
     7
370
    35
100
AcDbCircle
 10
101.8778591852111
 20
106.7158763559435
 30
0.0
 40
0.2000000000000028
100
AcDbArc
 50
269.9999999999998
 51
332.9999999999972
  0
SPLINE
  5
313
330
1F
100
AcDbEntity
  8
9
  6
Continuous
 62
     7
370
    35
100
AcDbSpline
210
0.0
220
0.0
230
1.0
 70
    12
 71
     3
 72
    12
 73
     8
 74
     0
 42
0.000000001
 43
0.0000001
 40
4.927655908264091
 40
4.927655908264091
 40
4.927655908264091
 40
4.927655908264091
 40
5.267374716391513
 40
5.267374716391513
 40
5.651619790278388
 40
5.651619790278388
 40
5.743457712309654
 40
5.743457712309654
 40
5.743457712309654
 40
5.743457712309654
 10
102.0607410406663
 20
110.1828022800746
 30
0.0
 41
1.0
 10
102.146792040715
 20
110.3005557474437
 30
0.0
 41
1.0
 10
102.238132216
 20
110.407426680797
 30
0.0
 41
1.0
 10
102.4284948846017
 20
110.5962361820212
 30
0.0
 41
1.0
 10
102.5273769506237
 20
110.672679774332
 30
0.0
 41
1.0
 10
102.627701839017
 20
110.7302222533697
 30
0.0
 41
1.0
 10
102.6459888600958
 20
110.7395123390893
 30
0.0
 41
1.0
 10
102.6628899240105
 20
110.7472019463753
 30
0.0
 41
1.0
  0
ARC
  5
314
330
1F
100
AcDbEntity
  8
9
  6
Continuous
 62
     7
370
    35
100
AcDbCircle
 10
102.6993332751623
 20
110.6671027444015
 30
0.0
 40
0.0879999999999939
100
AcDbArc
 50
37.00603024988789
 51
114.4644768282367
  0
ARC
  5
315
330
1F
100
AcDbEntity
  8
9
  6
Continuous
 62
     7
370
    35
100
AcDbCircle
 10
104.0004193428391
 20
111.1019041463294
 30
0.0
 40
0.2999999999999972
100
AcDbArc
 50
332.9999999999984
 51
0.0
  0
ARC
  5
316
330
1F
100
AcDbEntity
  8
9
  6
Continuous
 62
     7
370
    35
100
AcDbCircle
 10
101.6987519946886
 20
109.9129455470616
 30
0.0
 40
1.340962879392066
100
AcDbArc
 50
13.53005498711982
 51
37.00603024986814
  0
ELLIPSE
  5
317
330
1F
100
AcDbEntity
  8
9
  6
Continuous
 62
     7
370
    35
100
AcDbEllipse
 10
102.1762382848463
 20
109.7846275499967
 30
0.0
 11
0.7365439769864964
 21
1.222289143954683
 31
0.0
210
0.0
220
0.0
230
1.0
 40
0.4069918413230552
 41
-1.323987393323501
 42
-0.9713939910085836
  0
LINE
  5
318
330
1F
100
AcDbEntity
  8
9
  6
Continuous
 62
     7
370
    35
100
AcDbLine
 10
97.36284389857799
 20
106.8158763559436
 30
0.0
 11
98.27796255868414
 21
109.3879168501017
 31
0.0
  0
LINE
  5
319
330
1F
100
AcDbEntity
  8
9
  6
Continuous
 62
     7
370
    35
100
AcDbLine
 10
99.75041934283884
 20
104.2658763559437
 30
0.0
 11
99.75041934283884
 21
104.1158763559436
 31
0.0
  0
ARC
  5
31A
330
1F
100
AcDbEntity
  8
9
  6
Continuous
 62
     7
370
    35
100
AcDbCircle
 10
98.00041934283884
 20
104.2658763559437
 30
0.0
 40
0.2999999999998693
100
AcDbArc
 50
0.0
 51
89.99999999999991
  0
ARC
  5
31B
330
1F
100
AcDbEntity
  8
9
  6
Continuous
 62
     7
370
    35
100
AcDbCircle
 10
97.04100897881547
 20
109.506231317059
 30
0.0
 40
1.375879154787484
100
AcDbArc
 50
14.98555669032775
 51
65.58329653854518
  0
ELLIPSE
  5
31C
330
1F
100
AcDbEntity
  8
9
  6
Continuous
 62
     7
370
    35
100
AcDbEllipse
 10
97.25166934283976
 20
109.7528763559435
 30
0.0
 11
0.4476083380395722
 21
1.257724841019467
 31
0.0
210
0.0
220
0.0
230
1.0
 40
0.8159202227897876
 41
-1.570595025455719
 42
-1.20477460978218
  0
SPLINE
  5
31D
330
1F
100
AcDbEntity
  8
9
  6
Continuous
 62
     7
370
    35
100
AcDbSpline
210
0.0
220
0.0
230
1.0
 70
    12
 71
     3
 72
    14
 73
    10
 74
     0
 42
0.000000001
 43
0.0000001
 40
4.712392463599222
 40
4.712392463599222
 40
4.712392463599222
 40
4.712392463599222
 40
5.201868027680626
 40
5.201868027680626
 40
5.722054830448688
 40
5.722054830448688
 40
6.242241633216751
 40
6.242241633216751
 40
6.283185307179586
 40
6.283185307179586
 40
6.283185307179586
 40
6.283185307179586
 10
96.47702361003354
 20
110.0285629590241
 30
0.0
 41
1.0
 10
96.53824818200593
 20
110.2002033611218
 30
0.0
 41
1.0
 10
96.63446281699777
 20
110.3591055751096
 30
0.0
 41
1.0
 10
96.87572477483224
 20
110.6170817875284
 30
0.0
 41
1.0
 10
97.02242615034044
 20
110.7111033950525
 30
0.0
 41
1.0
 10
97.31185133552987
 20
110.8052440738263
 30
0.0
 41
1.0
 10
97.45343404811757
 20
110.8068185753109
 30
0.0
 41
1.0
 10
97.59007269440855
 20
110.7657843377926
 30
0.0
 41
1.0
 10
97.59995809520348
 20
110.7625431836793
 30
0.0
 41
1.0
 10
97.60975601327124
 20
110.7590562287591
 30
0.0
 41
1.0
  0
LINE
  5
31E
330
1F
100
AcDbEntity
  8
9
  6
Continuous
 62
     7
370
    35
100
AcDbLine
 10
93.00041934283907
 20
100.7158763559435
 30
0.0
 11
92.0004193428385
 21
100.7158763559435
 31
0.0
  0
ARC
  5
31F
330
1F
100
AcDbEntity
  8
9
  6
Continuous
 62
     7
370
    35
100
AcDbCircle
 10
93.40041934283893
 20
100.3158763559434
 30
0.0
 40
0.0999999999999943
100
AcDbArc
 50
179.9999999999998
 51
269.9999999999998
  0
ARC
  5
320
330
1F
100
AcDbEntity
  8
9
  6
Continuous
 62
     7
370
    35
100
AcDbCircle
 10
93.00041934283884
 20
100.4158763559435
 30
0.0
 40
0.2999999999999972
100
AcDbArc
 50
0.0000000000189985
 51
89.99999999999991
  0
LINE
  5
321
330
1F
100
AcDbEntity
  8
9
  6
Continuous
 62
     7
370
    35
100
AcDbLine
 10
93.3004193428388
 20
100.4158763559437
 30
0.0
 11
93.3004193428388
 21
100.3158763559434
 31
0.0
  0
LINE
  5
322
330
1F
100
AcDbEntity
  8
9
  6
Continuous
 62
     7
370
    35
100
AcDbLine
 10
92.60041934283875
 20
101.9658763559435
 30
0.0
 11
92.60041934283875
 21
100.7158763559435
 31
0.0
  0
LINE
  5
323
330
1F
100
AcDbEntity
  8
9
  6
Continuous
 62
     7
370
    35
100
AcDbLine
 10
92.00041934283873
 20
103.2658763559436
 30
0.0
 11
93.1504193428387
 21
103.2658763559436
 31
0.0
  0
ARC
  5
324
330
1F
100
AcDbEntity
  8
9
  6
Continuous
 62
     7
370
    35
100
AcDbCircle
 10
93.1504193428387
 20
102.9158763559435
 30
0.0
 40
0.3499999999999943
100
AcDbArc
 50
0.0
 51
89.99999999999991
  0
ARC
  5
325
330
1F
100
AcDbEntity
  8
9
  6
Continuous
 62
     7
370
    35
100
AcDbCircle
 10
93.1504193428387
 20
103.6158763559435
 30
0.0
 40
0.3499999999999943
100
AcDbArc
 50
269.9999999999998
 51
0.0
  0
LINE
  5
326
330
1F
100
AcDbEntity
  8
9
  6
Continuous
 62
     7
370
    35
100
AcDbLine
 10
93.50041934283884
 20
103.9158763559435
 30
0.0
 11
93.50041934283884
 21
103.6158763559435
 31
0.0
  0
ARC
  5
327
330
1F
100
AcDbEntity
  8
9
  6
Continuous
 62
     7
370
    35
100
AcDbCircle
 10
93.70041934283888
 20
103.9158763559435
 30
0.0
 40
0.2000000000000028
100
AcDbArc
 50
89.99999999999991
 51
179.9999999999998
  0
ARC
  5
328
330
1F
100
AcDbEntity
  8
9
  6
Continuous
 62
     7
370
    35
100
AcDbCircle
 10
93.70041934283888
 20
102.6158763559436
 30
0.0
 40
0.2000000000000028
100
AcDbArc
 50
179.9999999999998
 51
269.9999999999998
  0
LINE
  5
329
330
1F
100
AcDbEntity
  8
9
  6
Continuous
 62
     7
370
    35
100
AcDbLine
 10
93.50041934283884
 20
102.6158763559435
 30
0.0
 11
93.50041934283884
 21
102.9158763559435
 31
0.0
  0
LINE
  5
32A
330
1F
100
AcDbEntity
  8
9
  6
Continuous
 62
     7
370
    35
100
AcDbLine
 10
92.60041934283875
 20
106.5158763559436
 30
0.0
 11
92.60041934283875
 21
104.5658763559436
 31
0.0
  0
LINE
  5
32B
330
1F
100
AcDbEntity
  8
9
  6
Continuous
 62
     7
370
    35
100
AcDbLine
 10
104.2980146255814
 20
111.0639957344745
 30
0.0
 11
92.00041934283946
 21
111.0639957344745
 31
0.0
  0
LINE
  5
32C
330
1F
100
AcDbEntity
  8
9
  6
Continuous
 62
     7
370
    35
100
AcDbLine
 10
92.00041934283907
 20
106.5158763559436
 30
0.0
 11
101.8778591852111
 21
106.5158763559437
 31
0.0
  0
LINE
  5
32D
330
1F
100
AcDbEntity
  8
9
  6
Continuous
 62
     7
370
    35
100
AcDbLine
 10
92.00041934283884
 20
104.2658763559435
 30
0.0
 11
99.75041934283884
 21
104.2658763559437
 31
0.0
  0
LINE
  5
32E
330
1F
100
AcDbEntity
  8
9
  6
Continuous
 62
     7
370
    35
100
AcDbLine
 10
92.00041934283884
 20
104.1158763559435
 30
0.0
 11
99.75041934283884
 21
104.1158763559436
 31
0.0
  0
LINE
  5
32F
330
1F
100
AcDbEntity
  8
9
  6
Continuous
 62
     7
370
    35
100
AcDbLine
 10
95.33395238439637
 20
106.8158763559436
 30
0.0
 11
97.36284389857799
 21
106.8158763559436
 31
0.0
  0
LINE
  5
330
330
1F
100
AcDbEntity
  8
9
  6
Continuous
 62
     7
370
    35
100
AcDbLine
 10
95.3339523843966
 20
106.8158763559436
 30
0.0
 11
96.47701852948065
 21
110.0285880411332
 31
0.0
  0
LINE
  5
331
330
1F
100
AcDbEntity
  8
9
  6
Continuous
 62
     7
370
    35
100
AcDbLine
 10
92.00041934283884
 20
104.5658763559436
 30
0.0
 11
98.00041934283884
 21
104.5658763559436
 31
0.0
  0
LINE
  5
332
330
1F
100
AcDbEntity
  8
9
  6
Continuous
 62
     7
370
    35
100
AcDbLine
 10
92.00041934283844
 20
99.91587635594351
 30
0.0
 11
99.75041934283907
 21
99.91587635594352
 31
0.0
  0
LINE
  5
333
330
1F
100
AcDbEntity
  8
9
  6
Continuous
 62
     7
370
    35
100
AcDbLine
 10
99.75041934283907
 20
100.2158763559435
 30
0.0
 11
92.0004193428385
 21
100.2158763559435
 31
0.0
  0
LINE
  5
334
330
1F
100
AcDbEntity
  8
9
  6
Continuous
 62
     7
370
    35
100
AcDbLine
 10
92.00041934283867
 20
102.2658763559436
 30
0.0
 11
99.75041934283884
 21
102.2658763559437
 31
0.0
  0
LINE
  5
335
330
1F
100
AcDbEntity
  8
9
  6
Continuous
 62
     7
370
    35
100
AcDbLine
 10
92.00041934283867
 20
102.4158763559435
 30
0.0
 11
99.75041934283884
 21
102.4158763559435
 31
0.0
  0
LINE
  5
336
330
1F
100
AcDbEntity
  8
9
  6
Continuous
 62
     7
370
    35
100
AcDbLine
 10
88.40041934283944
 20
106.5158763559436
 30
0.0
 11
88.40041934283944
 21
104.5658763559436
 31
0.0
  0
LINE
  5
337
330
1F
100
AcDbEntity
  8
9
  6
Continuous
 62
     7
370
    35
100
AcDbLine
 10
87.50041934283935
 20
102.6158763559435
 30
0.0
 11
87.50041934283935
 21
102.9158763559435
 31
0.0
  0
ARC
  5
338
330
1F
100
AcDbEntity
  8
9
  6
Continuous
 62
     7
370
    35
100
AcDbCircle
 10
87.3004193428393
 20
102.6158763559435
 30
0.0
 40
0.2000000000000028
100
AcDbArc
 50
269.9999999999998
 51
0.0
  0
ARC
  5
339
330
1F
100
AcDbEntity
  8
9
  6
Continuous
 62
     7
370
    35
100
AcDbCircle
 10
87.3004193428393
 20
103.9158763559435
 30
0.0
 40
0.2000000000000028
100
AcDbArc
 50
0.0
 51
89.99999999999991
  0
LINE
  5
33A
330
1F
100
AcDbEntity
  8
9
  6
Continuous
 62
     7
370
    35
100
AcDbLine
 10
87.50041934283935
 20
103.9158763559435
 30
0.0
 11
87.50041934283935
 21
103.6158763559435
 31
0.0
  0
ARC
  5
33B
330
1F
100
AcDbEntity
  8
9
  6
Continuous
 62
     7
370
    35
100
AcDbCircle
 10
87.85041934283949
 20
103.6158763559435
 30
0.0
 40
0.3499999999999943
100
AcDbArc
 50
179.9999999999998
 51
269.9999999999998
  0
ARC
  5
33C
330
1F
100
AcDbEntity
  8
9
  6
Continuous
 62
     7
370
    35
100
AcDbCircle
 10
87.85041934283949
 20
102.9158763559435
 30
0.0
 40
0.3499999999999943
100
AcDbArc
 50
89.99999999999991
 51
179.9999999999998
  0
LINE
  5
33D
330
1F
100
AcDbEntity
  8
9
  6
Continuous
 62
     7
370
    35
100
AcDbLine
 10
89.00041934283918
 20
103.2658763559436
 30
0.0
 11
87.85041934283949
 21
103.2658763559436
 31
0.0
  0
LINE
  5
33E
330
1F
100
AcDbEntity
  8
9
  6
Continuous
 62
     7
370
    35
100
AcDbLine
 10
88.40041934283944
 20
101.9658763559435
 30
0.0
 11
88.40041934283944
 21
100.7158763559435
 31
0.0
  0
LINE
  5
33F
330
1F
100
AcDbEntity
  8
9
  6
Continuous
 62
     7
370
    35
100
AcDbLine
 10
87.7004193428394
 20
100.4158763559437
 30
0.0
 11
87.7004193428394
 21
100.3158763559434
 31
0.0
  0
ARC
  5
340
330
1F
100
AcDbEntity
  8
9
  6
Continuous
 62
     7
370
    35
100
AcDbCircle
 10
88.00041934283935
 20
100.4158763559435
 30
0.0
 40
0.2999999999999972
100
AcDbArc
 50
89.99999999999991
 51
179.999999999981
  0
ARC
  5
341
330
1F
100
AcDbEntity
  8
9
  6
Continuous
 62
     7
370
    35
100
AcDbCircle
 10
87.60041934283926
 20
100.3158763559434
 30
0.0
 40
0.0999999999999943
100
AcDbArc
 50
269.9999999999998
 51
0.0
  0
LINE
  5
342
330
1F
100
AcDbEntity
  8
9
  6
Continuous
 62
     7
370
    35
100
AcDbLine
 10
88.00041934283912
 20
100.7158763559435
 30
0.0
 11
89.00041934283941
 21
100.7158763559435
 31
0.0
  0
SPLINE
  5
343
330
1F
100
AcDbEntity
  8
9
  6
Continuous
 62
     7
370
    35
100
AcDbSpline
210
0.0
220
0.0
230
1.0
 70
    12
 71
     3
 72
    14
 73
    10
 74
     0
 42
0.000000001
 43
0.0000001
 40
4.712392463599222
 40
4.712392463599222
 40
4.712392463599222
 40
4.712392463599222
 40
5.201868027680626
 40
5.201868027680626
 40
5.722054830448688
 40
5.722054830448688
 40
6.242241633216751
 40
6.242241633216751
 40
6.283185307179586
 40
6.283185307179586
 40
6.283185307179586
 40
6.283185307179586
 10
84.52381507564463
 20
110.0285629590241
 30
0.0
 41
1.0
 10
84.46259050367225
 20
110.2002033611218
 30
0.0
 41
1.0
 10
84.36637586868041
 20
110.3591055751096
 30
0.0
 41
1.0
 10
84.12511391084594
 20
110.6170817875284
 30
0.0
 41
1.0
 10
83.97841253533774
 20
110.7111033950525
 30
0.0
 41
1.0
 10
83.68898735014831
 20
110.8052440738263
 30
0.0
 41
1.0
 10
83.5474046375606
 20
110.8068185753109
 30
0.0
 41
1.0
 10
83.41076599126963
 20
110.7657843377926
 30
0.0
 41
1.0
 10
83.4008805904747
 20
110.7625431836793
 30
0.0
 41
1.0
 10
83.39108267240694
 20
110.7590562287591
 30
0.0
 41
1.0
  0
ELLIPSE
  5
344
330
1F
100
AcDbEntity
  8
9
  6
Continuous
 62
     7
370
    35
100
AcDbEllipse
 10
83.74916934283841
 20
109.7528763559435
 30
0.0
 11
-0.4476083380395862
 21
1.257724841019467
 31
0.0
210
0.0
220
0.0
230
1.0
 40
0.8159202227897848
 41
1.20477460978218
 42
1.570595025455719
  0
ARC
  5
345
330
1F
100
AcDbEntity
  8
9
  6
Continuous
 62
     7
370
    35
100
AcDbCircle
 10
83.95982970686272
 20
109.506231317059
 30
0.0
 40
1.375879154787484
100
AcDbArc
 50
114.4167034614548
 51
165.0144433096724
  0
ARC
  5
346
330
1F
100
AcDbEntity
  8
9
  6
Continuous
 62
     7
370
    35
100
AcDbCircle
 10
83.00041934283935
 20
104.2658763559436
 30
0.0
 40
0.2999999999998693
100
AcDbArc
 50
89.99999999999991
 51
179.9999999999998
  0
LINE
  5
347
330
1F
100
AcDbEntity
  8
9
  6
Continuous
 62
     7
370
    35
100
AcDbLine
 10
81.25041934283935
 20
104.2658763559436
 30
0.0
 11
81.25041934283935
 21
104.1158763559435
 31
0.0
  0
LINE
  5
348
330
1F
100
AcDbEntity
  8
9
  6
Continuous
 62
     7
370
    35
100
AcDbLine
 10
83.6379947871002
 20
106.8158763559436
 30
0.0
 11
82.72287612699405
 21
109.3879168501016
 31
0.0
  0
ELLIPSE
  5
349
330
1F
100
AcDbEntity
  8
9
  6
Continuous
 62
     7
370
    35
100
AcDbEllipse
 10
78.82460040083187
 20
109.7846275499967
 30
0.0
 11
-0.7365439769865105
 21
1.222289143954683
 31
0.0
210
0.0
220
0.0
230
1.0
 40
0.406991841323053
 41
0.9713939910085836
 42
1.323987393323501
  0
ARC
  5
34A
330
1F
100
AcDbEntity
  8
9
  6
Continuous
 62
     7
370
    35
100
AcDbCircle
 10
79.30208669098955
 20
109.9129455470615
 30
0.0
 40
1.340962879392066
100
AcDbArc
 50
142.9939697501319
 51
166.4699450128802
  0
ARC
  5
34B
330
1F
100
AcDbEntity
  8
9
  6
Continuous
 62
     7
370
    35
100
AcDbCircle
 10
77.00041934283912
 20
111.1019041463294
 30
0.0
 40
0.2999999999999972
100
AcDbArc
 50
179.9999999999998
 51
207.0000000000009
  0
ARC
  5
34C
330
1F
100
AcDbEntity
  8
9
  6
Continuous
 62
     7
370
    35
100
AcDbCircle
 10
78.30150541051593
 20
110.6671027444015
 30
0.0
 40
0.0879999999999939
100
AcDbArc
 50
65.53552317176329
 51
142.9939697501121
  0
SPLINE
  5
34D
330
1F
100
AcDbEntity
  8
9
  6
Continuous
 62
     7
370
    35
100
AcDbSpline
210
0.0
220
0.0
230
1.0
 70
    12
 71
     3
 72
    12
 73
     8
 74
     0
 42
0.000000001
 43
0.0000001
 40
4.927655908264091
 40
4.927655908264091
 40
4.927655908264091
 40
4.927655908264091
 40
5.267374716391513
 40
5.267374716391513
 40
5.651619790278388
 40
5.651619790278388
 40
5.743457712309654
 40
5.743457712309654
 40
5.743457712309654
 40
5.743457712309654
 10
78.94009764501187
 20
110.1828022800746
 30
0.0
 41
1.0
 10
78.85404664496322
 20
110.3005557474437
 30
0.0
 41
1.0
 10
78.76270646967818
 20
110.407426680797
 30
0.0
 41
1.0
 10
78.57234380107651
 20
110.5962361820211
 30
0.0
 41
1.0
 10
78.47346173505447
 20
110.672679774332
 30
0.0
 41
1.0
 10
78.37313684666118
 20
110.7302222533697
 30
0.0
 41
1.0
 10
78.3548498255824
 20
110.7395123390893
 30
0.0
 41
1.0
 10
78.3379487616677
 20
110.7472019463753
 30
0.0
 41
1.0
  0
ARC
  5
34E
330
1F
100
AcDbEntity
  8
9
  6
Continuous
 62
     7
370
    35
100
AcDbCircle
 10
79.12297950046708
 20
106.7158763559435
 30
0.0
 40
0.2000000000000028
100
AcDbArc
 50
207.0000000000021
 51
269.9999999999998
  0
LINE
  5
34F
330
1F
100
AcDbEntity
  8
9
  6
Continuous
 62
     7
370
    35
100
AcDbLine
 10
80.96777337588868
 20
106.8158763559436
 30
0.0
 11
79.95600051604141
 21
106.8158763559436
 31
0.0
  0
LINE
  5
350
330
1F
100
AcDbEntity
  8
9
  6
Continuous
 62
     7
370
    35
100
AcDbLine
 10
80.96777337588868
 20
106.8158763559436
 30
0.0
 11
78.92712960682424
 21
110.2023092147326
 31
0.0
  0
LINE
  5
351
330
1F
100
AcDbEntity
  8
9
  6
Continuous
 62
     7
370
    35
100
AcDbLine
 10
79.95600051604119
 20
106.8158763559436
 30
0.0
 11
78.1622676104097
 21
109.7925625094056
 31
0.0
  0
LINE
  5
352
330
1F
100
AcDbEntity
  8
9
  6
Continuous
 62
     7
370
    35
100
AcDbLine
 10
76.7331173855829
 20
110.9657069964075
 30
0.0
 11
78.94477819562952
 21
106.6250782559957
 31
0.0
  0
LINE
  5
353
330
1F
100
AcDbEntity
  8
9
  6
Continuous
 62
     7
370
    35
100
AcDbLine
 10
76.7004193428394
 20
113.3241259343883
 30
0.0
 11
76.7004193428394
 21
111.1019041463294
 31
0.0
  0
ARC
  5
354
330
1F
100
AcDbEntity
  8
9
  6
Continuous
 62
     7
370
    35
100
AcDbCircle
 10
83.00041934283935
 20
102.2658763559434
 30
0.0
 40
0.2999999999998693
100
AcDbArc
 50
179.9999999999998
 51
269.9999999999998
  0
ARC
  5
355
330
1F
100
AcDbEntity
  8
9
  6
Continuous
 62
     7
370
    35
100
AcDbCircle
 10
82.50041934283912
 20
100.0158763559436
 30
0.0
 40
0.2999999999999972
100
AcDbArc
 50
199.4712206348893
 51
269.9999999999998
  0
LINE
  5
356
330
1F
100
AcDbEntity
  8
9
  6
Continuous
 62
     7
370
    35
100
AcDbLine
 10
81.25041934283912
 20
99.9158763559435
 30
0.0
 11
81.25041934283912
 21
100.2158763559435
 31
0.0
  0
LINE
  5
357
330
1F
100
AcDbEntity
  8
9
  6
Continuous
 62
     7
370
    35
100
AcDbLine
 10
81.25041934283935
 20
102.2658763559434
 30
0.0
 11
81.25041934283935
 21
102.4158763559435
 31
0.0
  0
LINE
  5
358
330
1F
100
AcDbEntity
  8
9
  6
Continuous
 62
     7
370
    35
100
AcDbLine
 10
89.0004193428393
 20
101.9658763559435
 30
0.0
 11
83.00041934283935
 21
101.9658763559435
 31
0.0
  0
LINE
  5
359
330
1F
100
AcDbEntity
  8
9
  6
Continuous
 62
     7
370
    35
100
AcDbLine
 10
89.00041934283946
 20
99.71587635594345
 30
0.0
 11
82.50041934283912
 21
99.71587635594345
 31
0.0
  0
LINE
  5
35A
330
1F
100
AcDbEntity
  8
9
  6
Continuous
 62
     7
370
    35
100
AcDbLine
 10
89.00041934283924
 20
102.4158763559435
 30
0.0
 11
81.25041934283935
 21
102.4158763559435
 31
0.0
  0
LINE
  5
35B
330
1F
100
AcDbEntity
  8
9
  6
Continuous
 62
     7
370
    35
100
AcDbLine
 10
89.00041934283924
 20
102.2658763559436
 30
0.0
 11
81.25041934283935
 21
102.2658763559436
 31
0.0
  0
LINE
  5
35C
330
1F
100
AcDbEntity
  8
9
  6
Continuous
 62
     7
370
    35
100
AcDbLine
 10
81.25041934283912
 20
100.2158763559435
 30
0.0
 11
89.00041934283946
 21
100.2158763559435
 31
0.0
  0
LINE
  5
35D
330
1F
100
AcDbEntity
  8
9
  6
Continuous
 62
     7
370
    35
100
AcDbLine
 10
89.00041934283946
 20
99.9158763559435
 30
0.0
 11
81.25041934283912
 21
99.9158763559435
 31
0.0
  0
LINE
  5
35E
330
1F
100
AcDbEntity
  8
9
  6
Continuous
 62
     7
370
    35
100
AcDbLine
 10
89.00041934283907
 20
104.5658763559436
 30
0.0
 11
83.00041934283935
 21
104.5658763559436
 31
0.0
  0
LINE
  5
35F
330
1F
100
AcDbEntity
  8
9
  6
Continuous
 62
     7
370
    35
100
AcDbLine
 10
85.6668863012816
 20
106.8158763559436
 30
0.0
 11
84.52382015619754
 21
110.0285880411331
 31
0.0
  0
LINE
  5
360
330
1F
100
AcDbEntity
  8
9
  6
Continuous
 62
     7
370
    35
100
AcDbLine
 10
85.66688630128182
 20
106.8158763559436
 30
0.0
 11
83.6379947871002
 21
106.8158763559436
 31
0.0
  0
LINE
  5
361
330
1F
100
AcDbEntity
  8
9
  6
Continuous
 62
     7
370
    35
100
AcDbLine
 10
89.00041934283907
 20
104.1158763559435
 30
0.0
 11
81.25041934283935
 21
104.1158763559435
 31
0.0
  0
LINE
  5
362
330
1F
100
AcDbEntity
  8
9
  6
Continuous
 62
     7
370
    35
100
AcDbLine
 10
89.00041934283907
 20
104.2658763559435
 30
0.0
 11
81.25041934283935
 21
104.2658763559436
 31
0.0
  0
LINE
  5
363
330
1F
100
AcDbEntity
  8
9
  6
Continuous
 62
     7
370
    35
100
AcDbLine
 10
89.00041934283884
 20
106.5158763559436
 30
0.0
 11
79.12297950046708
 21
106.5158763559436
 31
0.0
  0
LINE
  5
364
330
1F
100
AcDbEntity
  8
9
  6
Continuous
 62
     7
370
    35
100
AcDbLine
 10
76.70282406009677
 20
111.0639957344745
 30
0.0
 11
89.00041934283844
 21
111.0639957344745
 31
0.0
  0
ARC
  5
365
330
1F
100
AcDbEntity
  8
9
  6
Continuous
 62
     7
370
    35
100
AcDbCircle
 10
70.85041934283761
 20
92.82412593432967
 30
0.0
 40
1.499999999999091
100
AcDbArc
 50
89.99999999999991
 51
269.9999999998433
  0
LINE
  5
366
330
1F
100
AcDbEntity
  8
9
  6
Continuous
 62
     7
370
    35
100
AcDbLine
 10
70.85041934283761
 20
91.32412593439152
 30
0.0
 11
110.1504193428403
 21
91.32412593439149
 31
0.0
  0
ARC
  5
367
330
1F
100
AcDbEntity
  8
9
  6
Continuous
 62
     7
370
    35
100
AcDbCircle
 10
110.1504193428403
 20
92.82412593432964
 30
0.0
 40
1.499999999999091
100
AcDbArc
 50
270.000000000156
 51
89.99999999999991
  0
LINE
  5
368
330
1F
100
AcDbEntity
  8
9
  6
Continuous
 62
     7
370
    35
100
AcDbLine
 10
98.3908628247819
 20
36.34524216041928
 30
0.0
 11
97.4507847262458
 21
37.97350519016641
 31
0.0
  0
LINE
  5
369
330
1F
100
AcDbEntity
  8
9
  6
Continuous
 62
     7
370
    35
100
AcDbLine
 10
95.79278661342853
 20
34.84524216041928
 30
0.0
 11
94.85270851489243
 21
36.47350519016641
 31
0.0
  0
LINE
  5
36A
330
1F
100
AcDbEntity
  8
9
  6
Continuous
 62
     7
370
    35
100
AcDbLine
 10
104.25041934284
 20
36.18657361808846
 30
0.0
 11
103.6525676200934
 21
36.53174347115146
 31
0.0
  0
LINE
  5
36B
330
1F
100
AcDbEntity
  8
9
  6
Continuous
 62
     7
370
    35
100
AcDbLine
 10
82.60997586089759
 20
36.34524216041928
 30
0.0
 11
83.5500539594337
 21
37.97350519016641
 31
0.0
  0
LINE
  5
36C
330
1F
100
AcDbEntity
  8
9
  6
Continuous
 62
     7
370
    35
100
AcDbLine
 10
85.20805207225096
 20
34.84524216041928
 30
0.0
 11
86.14813017078707
 21
36.47350519016641
 31
0.0
  0
LINE
  5
36D
330
1F
100
AcDbEntity
  8
9
  6
Continuous
 62
     7
370
    35
100
AcDbLine
 10
77.34827106558676
 20
36.531743471151
 30
0.0
 11
76.75041934284054
 21
36.186573618088
 31
0.0
  0
ARC
  5
36E
330
1F
100
AcDbEntity
  8
9
  6
Continuous
 62
     7
370
    35
100
AcDbCircle
 10
90.50041934283975
 20
47.01189116539382
 30
0.0
 40
17.0
100
AcDbArc
 50
218.4565193352728
 51
321.5434806647336
  0
CIRCLE
  5
36F
330
1F
100
AcDbEntity
  8
9
  6
Continuous
 62
     7
370
    35
100
AcDbCircle
 10
90.50041934283975
 20
47.01189116539376
 30
0.0
 40
15.15000000000001
  0
CIRCLE
  5
370
330
1F
100
AcDbEntity
  8
9
  6
Continuous
 62
     7
370
    35
100
AcDbCircle
 10
90.50041934283975
 20
47.01189116539376
 30
0.0
 40
11.40175425099284
  0
CIRCLE
  5
371
330
1F
100
AcDbEntity
  8
9
  6
Continuous
 62
     7
370
    35
100
AcDbCircle
 10
90.50041934283975
 20
47.01189116539376
 30
0.0
 40
14.55000000000003
  0
CIRCLE
  5
372
330
1F
100
AcDbEntity
  8
9
  6
Continuous
 62
     7
370
    35
100
AcDbCircle
 10
90.50041934283975
 20
47.01189116539376
 30
0.0
 40
14.10000000000014
  0
ARC
  5
373
330
1F
100
AcDbEntity
  8
9
  6
Continuous
 62
     7
370
    35
100
AcDbCircle
 10
90.50041934283975
 20
47.01189116539382
 30
0.0
 40
17.5
100
AcDbArc
 50
218.2132107017351
 51
321.786789298259
  0
ARC
  5
374
330
1F
100
AcDbEntity
  8
9
  6
Continuous
 62
     7
370
    35
100
AcDbCircle
 10
83.50041934283975
 20
34.88753551241155
 30
0.0
 40
2.25
100
AcDbArc
 50
176.8557628338727
 51
303.1442371661219
  0
ELLIPSE
  5
375
330
1F
100
AcDbEntity
  8
9
  6
Continuous
 62
     7
370
    35
100
AcDbEllipse
 10
83.90901396657416
 20
35.59524216041928
 30
0.0
 11
-1.299038105676658
 21
0.7499999999999999
 31
0.0
210
0.0
220
0.0
230
1.0
 40
0.6114594983127563
 41
0.0
 42
3.141592653589799
  0
ELLIPSE
  5
376
330
1F
100
AcDbEntity
  8
9
  6
Continuous
 62
     7
370
    35
100
AcDbEllipse
 10
90.50041934283975
 20
33.82908041286271
 30
0.0
 11
-1.5
 21
4.846633723297760E-15
 31
0.0
210
0.0
220
0.0
230
1.0
 40
0.6114594983127546
 41
0.0
 42
3.141592653589799
  0
LINE
  5
377
330
1F
100
AcDbEntity
  8
9
  6
Continuous
 62
     7
370
    35
100
AcDbLine
 10
89.00041934283975
 20
33.82908041286271
 30
0.0
 11
89.00041934283975
 21
35.70923660993492
 31
0.0
  0
LINE
  5
378
330
1F
100
AcDbEntity
  8
9
  6
Continuous
 62
     7
370
    35
100
AcDbLine
 10
92.00041934283975
 20
33.82908041286271
 30
0.0
 11
92.00041934283975
 21
35.70923660993492
 31
0.0
  0
ELLIPSE
  5
379
330
1F
100
AcDbEntity
  8
9
  6
Continuous
 62
     7
370
    35
100
AcDbEllipse
 10
97.0918247191051
 20
35.59524216041928
 30
0.0
 11
-1.299038105676658
 21
-0.7499999999999999
 31
0.0
210
0.0
220
0.0
230
1.0
 40
0.6114594983127563
 41
0.0
 42
3.141592653589799
  0
LINE
  5
37A
330
1F
100
AcDbEntity
  8
9
  6
Continuous
 62
     7
370
    35
100
AcDbLine
 10
85.20805207225096
 20
59.17854017036824
 30
0.0
 11
86.14813017078707
 21
57.55027714062089
 31
0.0
  0
ARC
  5
37B
330
1F
100
AcDbEntity
  8
9
  6
Continuous
 62
     7
370
    35
100
AcDbCircle
 10
90.50041934283975
 20
47.01189116539382
 30
0.0
 40
17.0
100
AcDbArc
 50
98.45651933526935
 51
201.5434806647318
  0
ARC
  5
37C
330
1F
100
AcDbEntity
  8
9
  6
Continuous
 62
     7
370
    35
100
AcDbCircle
 10
90.50041934283975
 20
47.01189116539382
 30
0.0
 40
17.5
100
AcDbArc
 50
98.2132107017429
 51
201.7867892982595
  0
CIRCLE
  5
37D
330
1F
100
AcDbEntity
  8
9
  6
Continuous
 62
     7
370
    35
100
AcDbCircle
 10
90.50041934283975
 20
47.01189116539376
 30
0.0
 40
9.25
  0
CIRCLE
  5
37E
330
1F
100
AcDbEntity
  8
9
  6
Continuous
 62
     7
370
    35
100
AcDbCircle
 10
90.50041934283975
 20
47.01189116539376
 30
0.0
 40
8.282842712474633
  0
CIRCLE
  5
37F
330
1F
100
AcDbEntity
  8
9
  6
Continuous
 62
     7
370
    35
100
AcDbCircle
 10
90.50041934283975
 20
47.01189116539376
 30
0.0
 40
7.71715728752541
  0
ELLIPSE
  5
380
330
1F
100
AcDbEntity
  8
9
  6
Continuous
 62
     7
370
    35
100
AcDbEllipse
 10
83.90901396657416
 20
58.42854017036825
 30
0.0
 11
1.299038105676658
 21
0.7499999999999999
 31
0.0
210
0.0
220
0.0
230
1.0
 40
0.6114594983127563
 41
0.0
 42
3.141592653589799
  0
ELLIPSE
  5
381
330
1F
100
AcDbEntity
  8
9
  6
Continuous
 62
     7
370
    35
100
AcDbEllipse
 10
77.31760859030858
 20
47.01189116539376
 30
0.0
 11
2.423316861648880E-15
 21
1.5
 31
0.0
210
0.0
220
0.0
230
1.0
 40
0.6114594983127594
 41
0.0
 42
3.141592653589799
  0
ARC
  5
382
330
1F
100
AcDbEntity
  8
9
  6
Continuous
 62
     7
370
    35
100
AcDbCircle
 10
90.50041934283975
 20
47.01189116539382
 30
0.0
 40
16.25
100
AcDbArc
 50
203.1423515846504
 51
216.8576484153544
  0
ARC
  5
383
330
1F
100
AcDbEntity
  8
9
  6
Continuous
 62
     7
370
    35
100
AcDbCircle
 10
78.37606368985708
 20
54.01189116539324
 30
0.0
 40
2.25
100
AcDbArc
 50
86.85576283387927
 51
213.1442371661299
  0
LINE
  5
384
330
1F
100
AcDbEntity
  8
9
  6
Continuous
 62
     7
370
    35
100
AcDbLine
 10
74.25041934284032
 20
40.5167006370101
 30
0.0
 11
74.84827106558664
 21
40.86187049007322
 31
0.0
  0
ARC
  5
385
330
1F
100
AcDbEntity
  8
9
  6
Continuous
 62
     7
370
    35
100
AcDbCircle
 10
75.09827106558676
 20
40.42885778818101
 30
0.0
 40
0.5
100
AcDbArc
 50
23.14235158465141
 51
120.0000000000002
  0
LINE
  5
386
330
1F
100
AcDbEntity
  8
9
  6
Continuous
 62
     7
370
    35
100
AcDbLine
 10
79.83377033786526
 20
39.12144768345161
 30
0.0
 11
81.46203336761239
 21
40.06152578198771
 31
0.0
  0
LINE
  5
387
330
1F
100
AcDbEntity
  8
9
  6
Continuous
 62
     7
370
    35
100
AcDbLine
 10
78.33377033786526
 20
41.71952389480487
 30
0.0
 11
79.96203336761239
 21
42.65960199334097
 31
0.0
  0
ELLIPSE
  5
388
330
1F
100
AcDbEntity
  8
9
  6
Continuous
 62
     7
370
    35
100
AcDbEllipse
 10
79.08377033786526
 20
40.42048578912818
 30
0.0
 11
-0.7499999999999997
 21
1.299038105676658
 31
0.0
210
0.0
220
0.0
230
1.0
 40
0.6114594983127497
 41
0.0
 42
3.141592653589799
  0
ARC
  5
389
330
1F
100
AcDbEntity
  8
9
  6
Continuous
 62
     7
370
    35
100
AcDbCircle
 10
77.09827106558676
 20
36.96475617304321
 30
0.0
 40
0.5
100
AcDbArc
 50
299.9999999999998
 51
36.85764841535516
  0
LINE
  5
38A
330
1F
100
AcDbEntity
  8
9
  6
Continuous
 62
     7
370
    35
100
AcDbLine
 10
77.31760859030858
 20
45.51189116539376
 30
0.0
 11
79.19776478738079
 21
45.51189116539376
 31
0.0
  0
LINE
  5
38B
330
1F
100
AcDbEntity
  8
9
  6
Continuous
 62
     7
370
    35
100
AcDbLine
 10
79.83377033786526
 20
54.90233464733591
 30
0.0
 11
81.46203336761239
 21
53.96225654879981
 31
0.0
  0
ELLIPSE
  5
38C
330
1F
100
AcDbEntity
  8
9
  6
Continuous
 62
     7
370
    35
100
AcDbEllipse
 10
79.08377033786526
 20
53.60329654165912
 30
0.0
 11
0.7499999999999998
 21
1.299038105676658
 31
0.0
210
0.0
220
0.0
230
1.0
 40
0.6114594983127497
 41
0.0
 42
3.141592653589799
  0
LINE
  5
38D
330
1F
100
AcDbEntity
  8
9
  6
Continuous
 62
     7
370
    35
100
AcDbLine
 10
78.33377033786526
 20
52.30425843598254
 30
0.0
 11
79.96203336761239
 21
51.36418033744643
 31
0.0
  0
LINE
  5
38E
330
1F
100
AcDbEntity
  8
9
  6
Continuous
 62
     7
370
    35
100
AcDbLine
 10
77.31760859030858
 20
48.51189116539376
 30
0.0
 11
79.19776478738079
 21
48.51189116539376
 31
0.0
  0
LINE
  5
38F
330
1F
100
AcDbEntity
  8
9
  6
Continuous
 62
     7
370
    35
100
AcDbLine
 10
82.60997586089759
 20
57.67854017036824
 30
0.0
 11
83.5500539594337
 21
56.05027714062089
 31
0.0
  0
LINE
  5
390
330
1F
100
AcDbEntity
  8
9
  6
Continuous
 62
     7
370
    35
100
AcDbLine
 10
103.6832300953707
 20
48.51189116539376
 30
0.0
 11
101.8030738982985
 21
48.51189116539376
 31
0.0
  0
LINE
  5
391
330
1F
100
AcDbEntity
  8
9
  6
Continuous
 62
     7
370
    35
100
AcDbLine
 10
103.6832300953707
 20
45.51189116539376
 30
0.0
 11
101.8030738982985
 21
45.51189116539376
 31
0.0
  0
ARC
  5
392
330
1F
100
AcDbEntity
  8
9
  6
Continuous
 62
     7
370
    35
100
AcDbCircle
 10
90.50041934283975
 20
47.01189116539382
 30
0.0
 40
17.0
100
AcDbArc
 50
338.4565193352614
 51
81.54348066472413
  0
ARC
  5
393
330
1F
100
AcDbEntity
  8
9
  6
Continuous
 62
     7
370
    35
100
AcDbCircle
 10
90.50041934283975
 20
47.01189116539382
 30
0.0
 40
17.5
100
AcDbArc
 50
338.2132107017332
 51
81.78678929827026
  0
LINE
  5
394
330
1F
100
AcDbEntity
  8
9
  6
Continuous
 62
     7
370
    35
100
AcDbLine
 10
95.79278661342853
 20
59.17854017036824
 30
0.0
 11
94.85270851489243
 21
57.55027714062089
 31
0.0
  0
ELLIPSE
  5
395
330
1F
100
AcDbEntity
  8
9
  6
Continuous
 62
     7
370
    35
100
AcDbEllipse
 10
97.0918247191051
 20
58.42854017036825
 30
0.0
 11
1.299038105676658
 21
-0.7499999999999999
 31
0.0
210
0.0
220
0.0
230
1.0
 40
0.6114594983127563
 41
0.0
 42
3.141592653589799
  0
CIRCLE
  5
396
330
1F
100
AcDbEntity
  8
9
  6
Continuous
 62
     7
370
    35
100
AcDbCircle
 10
90.50041934283975
 20
47.01189116539376
 30
0.0
 40
1.0
  0
CIRCLE
  5
397
330
1F
100
AcDbEntity
  8
9
  6
Continuous
 62
     7
370
    35
100
AcDbCircle
 10
90.50041934283975
 20
47.01189116539376
 30
0.0
 40
1.25
  0
CIRCLE
  5
398
330
1F
100
AcDbEntity
  8
9
  6
Continuous
 62
     7
370
    35
100
AcDbCircle
 10
90.50041934283975
 20
47.01189116539376
 30
0.0
 40
1.449999999999989
  0
CIRCLE
  5
399
330
1F
100
AcDbEntity
  8
9
  6
Continuous
 62
     7
370
    35
100
AcDbCircle
 10
90.50041934283975
 20
47.01189116539376
 30
0.0
 40
2.25
  0
LINE
  5
39A
330
1F
100
AcDbEntity
  8
9
  6
Continuous
 62
     7
370
    35
100
AcDbLine
 10
102.6670683478142
 20
41.71952389480487
 30
0.0
 11
101.0388053180669
 21
42.65960199334097
 31
0.0
  0
LINE
  5
39B
330
1F
100
AcDbEntity
  8
9
  6
Continuous
 62
     7
370
    35
100
AcDbLine
 10
101.1670683478142
 20
39.12144768345161
 30
0.0
 11
99.53880531806688
 21
40.06152578198771
 31
0.0
  0
ELLIPSE
  5
39C
330
1F
100
AcDbEntity
  8
9
  6
Continuous
 62
     7
370
    35
100
AcDbEllipse
 10
101.9170683478142
 20
40.42048578912818
 30
0.0
 11
-0.7499999999999997
 21
-1.299038105676658
 31
0.0
210
0.0
220
0.0
230
1.0
 40
0.611459498312752
 41
0.0
 42
3.141592653589799
  0
LINE
  5
39D
330
1F
100
AcDbEntity
  8
9
  6
Continuous
 62
     7
370
    35
100
AcDbLine
 10
98.3908628247819
 20
57.67854017036824
 30
0.0
 11
97.4507847262458
 21
56.05027714062089
 31
0.0
  0
ELLIPSE
  5
39E
330
1F
100
AcDbEntity
  8
9
  6
Continuous
 62
     7
370
    35
100
AcDbEllipse
 10
101.9170683478142
 20
53.60329654165912
 30
0.0
 11
0.7499999999999998
 21
-1.299038105676658
 31
0.0
210
0.0
220
0.0
230
1.0
 40
0.6114594983127497
 41
0.0
 42
3.141592653589799
  0
LINE
  5
39F
330
1F
100
AcDbEntity
  8
9
  6
Continuous
 62
     7
370
    35
100
AcDbLine
 10
102.6670683478142
 20
52.30425843598254
 30
0.0
 11
101.0388053180669
 21
51.36418033744643
 31
0.0
  0
LINE
  5
3A0
330
1F
100
AcDbEntity
  8
9
  6
Continuous
 62
     7
370
    35
100
AcDbLine
 10
101.1670683478142
 20
54.90233464733591
 30
0.0
 11
99.53880531806688
 21
53.96225654879981
 31
0.0
  0
ARC
  5
3A1
330
1F
100
AcDbEntity
  8
9
  6
Continuous
 62
     7
370
    35
100
AcDbCircle
 10
90.50041934283975
 20
47.01189116539382
 30
0.0
 40
16.25
100
AcDbArc
 50
83.14235158464763
 51
96.85764841535239
  0
ELLIPSE
  5
3A2
330
1F
100
AcDbEntity
  8
9
  6
Continuous
 62
     7
370
    35
100
AcDbEllipse
 10
90.50041934283975
 20
60.1947019179247
 30
0.0
 11
1.5
 21
0.0
 31
0.0
210
0.0
220
0.0
230
1.0
 40
0.6114594983127546
 41
0.0
 42
3.141592653589799
  0
ARC
  5
3A3
330
1F
100
AcDbEntity
  8
9
  6
Continuous
 62
     7
370
    35
100
AcDbCircle
 10
88.50041934283884
 20
63.6420595349557
 30
0.0
 40
0.5
100
AcDbArc
 50
180.0000000000029
 51
276.8576484153519
  0
LINE
  5
3A4
330
1F
100
AcDbEntity
  8
9
  6
Continuous
 62
     7
370
    35
100
AcDbLine
 10
89.00041934283975
 20
60.1947019179247
 30
0.0
 11
89.00041934283975
 21
58.31454572085249
 31
0.0
  0
LINE
  5
3A5
330
1F
100
AcDbEntity
  8
9
  6
Continuous
 62
     7
370
    35
100
AcDbLine
 10
88.00041934283884
 20
64.33239924108193
 30
0.0
 11
88.00041934283895
 21
63.64205953495593
 31
0.0
  0
ARC
  5
3A6
330
1F
100
AcDbEntity
  8
9
  6
Continuous
 62
     7
370
    35
100
AcDbCircle
 10
92.50041934283884
 20
63.6420595349561
 30
0.0
 40
0.5
100
AcDbArc
 50
263.1423515846473
 51
0.0000000000032569
  0
LINE
  5
3A7
330
1F
100
AcDbEntity
  8
9
  6
Continuous
 62
     7
370
    35
100
AcDbLine
 10
92.00041934283975
 20
60.1947019179247
 30
0.0
 11
92.00041934283975
 21
58.31454572085249
 31
0.0
  0
LINE
  5
3A8
330
1F
100
AcDbEntity
  8
9
  6
Continuous
 62
     7
370
    35
100
AcDbLine
 10
93.00041934283895
 20
63.64205953495615
 30
0.0
 11
93.00041934283884
 21
64.33239924108227
 31
0.0
  0
ELLIPSE
  5
3A9
330
1F
100
AcDbEntity
  8
9
  6
Continuous
 62
     7
370
    35
100
AcDbEllipse
 10
103.6832300953707
 20
47.01189116539376
 30
0.0
 11
2.423316861648880E-15
 21
-1.5
 31
0.0
210
0.0
220
0.0
230
1.0
 40
0.6114594983127594
 41
0.0
 42
3.141592653589799
  0
ARC
  5
3AA
330
1F
100
AcDbEntity
  8
9
  6
Continuous
 62
     7
370
    35
100
AcDbCircle
 10
104.5004193428397
 20
47.01189116539376
 30
0.0
 40
2.25
100
AcDbArc
 50
296.8557628338751
 51
63.14423716612458
  0
ARC
  5
3AB
330
1F
100
AcDbEntity
  8
9
  6
Continuous
 62
     7
370
    35
100
AcDbCircle
 10
90.50041934283975
 20
47.01189116539382
 30
0.0
 40
16.25
100
AcDbArc
 50
323.1423515846526
 51
336.8576484153534
  0
ARC
  5
3AC
330
1F
100
AcDbEntity
  8
9
  6
Continuous
 62
     7
370
    35
100
AcDbCircle
 10
103.9025676200935
 20
36.96475617304367
 30
0.0
 40
0.5
100
AcDbArc
 50
143.142351584653
 51
239.9999999999995
  0
LINE
  5
3AD
330
1F
100
AcDbEntity
  8
9
  6
Continuous
 62
     7
370
    35
100
AcDbLine
 10
106.1525676200935
 20
40.8618704900739
 30
0.0
 11
106.7504193428399
 21
40.51670063701067
 31
0.0
  0
ARC
  5
3AE
330
1F
100
AcDbEntity
  8
9
  6
Continuous
 62
     7
370
    35
100
AcDbCircle
 10
105.9025676200934
 20
40.42885778818146
 30
0.0
 40
0.5
100
AcDbArc
 50
60.00000000000028
 51
156.8576484153544
  0
LINE
  5
3AF
330
1F
100
AcDbEntity
  8
9
  6
Continuous
 62
     7
370
    35
100
AcDbLine
 10
63.59144456888528
 20
45.51189116540013
 30
0.0
 11
69.30342663160748
 21
45.51189116539877
 31
0.0
  0
ARC
  5
3B0
330
1F
100
AcDbEntity
  8
9
  6
Continuous
 62
     7
370
    35
100
AcDbCircle
 10
70.81216764015728
 20
45.51189116539013
 30
0.0
 40
1.5
100
AcDbArc
 50
0.0000000000781653
 51
89.99999999999991
  0
ELLIPSE
  5
3B1
330
1F
100
AcDbEntity
  8
9
  6
Continuous
 62
     7
370
    35
100
AcDbEllipse
 10
63.59144456888528
 20
47.01189116539967
 30
0.0
 11
-3.286276802032262
 21
1.061825331521379E-14
 31
0.0
210
0.0
220
0.0
230
1.0
 40
0.4564435957043948
 41
0.0000000000000062
 42
1.570796326794903
  0
ARC
  5
3B2
330
1F
100
AcDbEntity
  8
9
  6
Continuous
 62
     7
370
    35
100
AcDbCircle
 10
90.50041934284248
 20
47.01189116540422
 30
0.0
 40
18.25
100
AcDbArc
 50
274.7145605408655
 51
355.5585553348859
  0
ELLIPSE
  5
3B3
330
1F
100
AcDbEntity
  8
9
  6
Continuous
 62
     7
370
    35
100
AcDbEllipse
 10
117.4093941167924
 20
47.01189116539967
 30
0.0
 11
3.286276802032262
 21
0.0
 31
0.0
210
0.0
220
0.0
230
1.0
 40
0.4564435957043948
 41
-1.570796326794903
 42
-0.0000000000000062
  0
ARC
  5
3B4
330
1F
100
AcDbEntity
  8
9
  6
Continuous
 62
     7
370
    35
100
AcDbCircle
 10
110.1886710455204
 20
45.51189116539013
 30
0.0
 40
1.5
100
AcDbArc
 50
89.99999999999991
 51
179.9999999999218
  0
ARC
  5
3B5
330
1F
100
AcDbEntity
  8
9
  6
Continuous
 62
     7
370
    35
100
AcDbCircle
 10
92.00041934283884
 20
27.32363946272494
 30
0.0
 40
1.5
100
AcDbArc
 50
89.99999999999991
 51
179.9999999998958
  0
ARC
  5
3B6
330
1F
100
AcDbEntity
  8
9
  6
Continuous
 62
     7
370
    35
100
AcDbCircle
 10
89.00041934283793
 20
27.32363946272767
 30
0.0
 40
1.5
100
AcDbArc
 50
0.0
 51
89.99999999989578
  0
LINE
  5
3B7
330
1F
100
AcDbEntity
  8
9
  6
Continuous
 62
     7
370
    35
100
AcDbLine
 10
89.00041934283884
 20
20.10291639144612
 30
0.0
 11
89.00041934283884
 21
25.81489845417377
 31
0.0
  0
LINE
  5
3B8
330
1F
100
AcDbEntity
  8
9
  6
Continuous
 62
     7
370
    35
100
AcDbLine
 10
91.99573924388672
 20
25.81456778735742
 30
0.0
 11
91.99573924388672
 21
19.84352114938588
 31
0.0
  0
ELLIPSE
  5
3B9
330
1F
100
AcDbEntity
  8
9
  6
Continuous
 62
     7
370
    35
100
AcDbEllipse
 10
90.50041934283884
 20
20.10291639144612
 30
0.0
 11
5.309126657606893E-15
 21
-3.286276802032262
 31
0.0
210
0.0
220
0.0
230
1.0
 40
0.4564435957043948
 41
-1.57079632679489
 42
1.570796326794903
  0
LINE
  5
3BA
330
1F
100
AcDbEntity
  8
9
  6
Continuous
 62
     7
370
    35
100
AcDbLine
 10
117.4093941167924
 20
45.51189116540013
 30
0.0
 11
111.6974120540702
 21
45.51189116539877
 31
0.0
  0
ARC
  5
3BB
330
1F
100
AcDbEntity
  8
9
  6
Continuous
 62
     7
370
    35
100
AcDbCircle
 10
90.50041934284157
 20
47.01189116540422
 30
0.0
 40
18.25
100
AcDbArc
 50
184.7145605408917
 51
265.2854394590295
  0
ARC
  5
3BC
330
1F
100
AcDbEntity
  8
9
  6
Continuous
 62
     7
370
    35
100
AcDbCircle
 10
90.50041934284157
 20
47.01189116539513
 30
0.0
 40
18.25
100
AcDbArc
 50
94.71456054097011
 51
175.2854394591079
  0
LINE
  5
3BD
330
1F
100
AcDbEntity
  8
9
  6
Continuous
 62
     7
370
    35
100
AcDbLine
 10
117.4093941167924
 20
48.51189116539922
 30
0.0
 11
111.6974120540702
 21
48.51189116540058
 31
0.0
  0
ELLIPSE
  5
3BE
330
1F
100
AcDbEntity
  8
9
  6
Continuous
 62
     7
370
    35
100
AcDbEllipse
 10
90.50041934283884
 20
73.92086593935323
 30
0.0
 11
5.309126657606893E-15
 21
3.286276802032262
 31
0.0
210
0.0
220
0.0
230
1.0
 40
0.4564435957043948
 41
-1.570796326794903
 42
1.57079632679489
  0
LINE
  5
3BF
330
1F
100
AcDbEntity
  8
9
  6
Continuous
 62
     7
370
    35
100
AcDbLine
 10
91.99573924388672
 20
68.20921454344193
 30
0.0
 11
91.99573924388672
 21
74.18026118141347
 31
0.0
  0
LINE
  5
3C0
330
1F
100
AcDbEntity
  8
9
  6
Continuous
 62
     7
370
    35
100
AcDbLine
 10
89.00041934283884
 20
73.92086593935323
 30
0.0
 11
89.00041934283884
 21
68.20888387662558
 31
0.0
  0
ARC
  5
3C1
330
1F
100
AcDbEntity
  8
9
  6
Continuous
 62
     7
370
    35
100
AcDbCircle
 10
89.00041934283793
 20
66.70014286807168
 30
0.0
 40
1.5
100
AcDbArc
 50
270.0000000001039
 51
0.0
  0
ARC
  5
3C2
330
1F
100
AcDbEntity
  8
9
  6
Continuous
 62
     7
370
    35
100
AcDbCircle
 10
92.00041934283884
 20
66.70014286807441
 30
0.0
 40
1.5
100
AcDbArc
 50
180.0000000001039
 51
269.9999999999998
  0
ARC
  5
3C3
330
1F
100
AcDbEntity
  8
9
  6
Continuous
 62
     7
370
    35
100
AcDbCircle
 10
110.1886710455204
 20
48.51189116540922
 30
0.0
 40
1.5
100
AcDbArc
 50
180.0000000000778
 51
269.9999999999998
  0
ELLIPSE
  5
3C4
330
1F
100
AcDbEntity
  8
9
  6
Continuous
 62
     7
370
    35
100
AcDbEllipse
 10
117.4093941167924
 20
47.01189116539967
 30
0.0
 11
3.286276802032262
 21
0.0
 31
0.0
210
0.0
220
0.0
230
1.0
 40
0.4564435957043948
 41
0.0000000000000062
 42
1.570796326794903
  0
ARC
  5
3C5
330
1F
100
AcDbEntity
  8
9
  6
Continuous
 62
     7
370
    35
100
AcDbCircle
 10
90.50041934284248
 20
47.01189116539513
 30
0.0
 40
18.25
100
AcDbArc
 50
4.441444665113722
 51
85.28543945913411
  0
ELLIPSE
  5
3C6
330
1F
100
AcDbEntity
  8
9
  6
Continuous
 62
     7
370
    35
100
AcDbEllipse
 10
63.59144456888528
 20
47.01189116539967
 30
0.0
 11
-3.286276802032262
 21
1.061825331521379E-14
 31
0.0
210
0.0
220
0.0
230
1.0
 40
0.4564435957043948
 41
-1.570796326794903
 42
-0.0000000000000062
  0
ARC
  5
3C7
330
1F
100
AcDbEntity
  8
9
  6
Continuous
 62
     7
370
    35
100
AcDbCircle
 10
70.81216764015728
 20
48.51189116540922
 30
0.0
 40
1.5
100
AcDbArc
 50
269.9999999999998
 51
359.9999999999214
  0
LINE
  5
3C8
330
1F
100
AcDbEntity
  8
9
  6
Continuous
 62
     7
370
    35
100
AcDbLine
 10
63.59144456888528
 20
48.51189116539922
 30
0.0
 11
69.30342663160748
 21
48.51189116540058
 31
0.0
  0
CIRCLE
  5
3C9
330
1F
100
AcDbEntity
  8
9
  6
Continuous
 62
     7
370
    35
100
AcDbCircle
 10
90.50041934283884
 20
47.01189116540513
 30
0.0
 40
21.25
  0
CIRCLE
  5
3CA
330
1F
100
AcDbEntity
  8
9
  6
Continuous
 62
     7
370
    35
100
AcDbCircle
 10
90.50041934283975
 20
47.01189116540559
 30
0.0
 40
34.0
  0
POLYLINE
  5
3CB
330
1F
100
AcDbEntity
  8
5
  6
Continuous
 62
     4
370
    25
100
AcDb2dPolyline
 66
     1
 10
0.0
 20
0.0
 30
0.0
  0
VERTEX
  5
3CC
330
3CB
100
AcDbEntity
  8
5
  6
Continuous
 62
     4
370
    25
100
AcDbVertex
100
AcDb2dVertex
 10
340.234507312802
 20
179.6903018371879
 30
0.0
  0
VERTEX
  5
3CD
330
3CB
100
AcDbEntity
  8
5
  6
Continuous
 62
     4
370
    25
100
AcDbVertex
100
AcDb2dVertex
 10
340.0699201345519
 20
178.8706647589557
 30
0.0
  0
VERTEX
  5
3CE
330
3CB
100
AcDbEntity
  8
5
  6
Continuous
 62
     4
370
    25
100
AcDbVertex
100
AcDb2dVertex
 10
339.9280147778715
 20
178.3540467821915
 30
0.0
  0
VERTEX
  5
3CF
330
3CB
100
AcDbEntity
  8
5
  6
Continuous
 62
     4
370
    25
100
AcDbVertex
100
AcDb2dVertex
 10
339.7003061407237
 20
177.9356204955037
 30
0.0
  0
VERTEX
  5
3D0
330
3CB
100
AcDbEntity
  8
5
  6
Continuous
 62
     4
370
    25
100
AcDbVertex
100
AcDb2dVertex
 10
339.3924186540644
 20
177.5975034718368
 30
0.0
  0
VERTEX
  5
3D1
330
3CB
100
AcDbEntity
  8
5
  6
Continuous
 62
     4
370
    25
100
AcDbVertex
100
AcDb2dVertex
 10
339.026195365085
 20
177.3072523991867
 30
0.0
  0
VERTEX
  5
3D2
330
3CB
100
AcDbEntity
  8
5
  6
Continuous
 62
     4
370
    25
100
AcDbVertex
100
AcDb2dVertex
 10
338.6234793209762
 20
177.0324239655492
 30
0.0
  0
VERTEX
  5
3D3
330
3CB
100
AcDbEntity
  8
5
  6
Continuous
 62
     4
370
    25
100
AcDbVertex
100
AcDb2dVertex
 10
338.2061135689294
 20
176.7405748589202
 30
0.0
  0
VERTEX
  5
3D4
330
3CB
100
AcDbEntity
  8
5
  6
Continuous
 62
     4
370
    25
100
AcDbVertex
100
AcDb2dVertex
 10
337.7959411561356
 20
176.3992617672954
 30
0.0
  0
VERTEX
  5
3D5
330
3CB
100
AcDbEntity
  8
5
  6
Continuous
 62
     4
370
    25
100
AcDbVertex
100
AcDb2dVertex
 10
337.4148051297861
 20
175.976041378671
 30
0.0
  0
VERTEX
  5
3D6
330
3CB
100
AcDbEntity
  8
5
  6
Continuous
 62
     4
370
    25
100
AcDbVertex
100
AcDb2dVertex
 10
337.0845485370714
 20
175.4384703810428
 30
0.0
  0
VERTEX
  5
3D7
330
3CB
100
AcDbEntity
  8
5
  6
Continuous
 62
     4
370
    25
100
AcDbVertex
100
AcDb2dVertex
 10
336.8099684738684
 20
174.7748515937554
 30
0.0
  0
VERTEX
  5
3D8
330
3CB
100
AcDbEntity
  8
5
  6
Continuous
 62
     4
370
    25
100
AcDbVertex
100
AcDb2dVertex
 10
336.7767442793719
 20
174.6903018371879
 30
0.0
  0
SEQEND
  5
3D9
330
3CB
100
AcDbEntity
  8
5
  6
Continuous
 62
     4
370
    25
  0
LINE
  5
3DA
330
1F
100
AcDbEntity
  8
9
  6
Continuous
 62
     7
370
    35
100
AcDbLine
 10
296.5008383236764
 20
174.6903018371879
 30
0.0
 11
296.5008383236764
 21
179.6903018371879
 31
0.0
  0
INSERT
  5
3EF
330
1F
100
AcDbEntity
  8
0
100
AcDbBlockReference
  2
*G24
 10
0.0
 20
0.0
 30
0.0
  0
ARC
  5
3F0
330
1F
100
AcDbEntity
  8
4
  6
PHANTOM
 62
     2
370
    25
100
AcDbCircle
 10
280.0008383236771
 20
260.1635683940568
 30
0.0
 40
9.724999999999763
100
AcDbArc
 50
29.06891016108807
 51
150.9310898389161
  0
ARC
  5
3F1
330
1F
100
AcDbEntity
  8
4
  6
PHANTOM
 62
     2
370
    25
100
AcDbCircle
 10
259.0008383236767
 20
203.5508507429111
 30
0.0
 40
1.500000000000455
100
AcDbArc
 50
179.9999999999685
 51
269.9999999999998
  0
POLYLINE
  5
3F2
330
1F
100
AcDbEntity
  8
4
  6
PHANTOM
 62
     2
370
    25
100
AcDb2dPolyline
 66
     1
 10
0.0
 20
0.0
 30
0.0
  0
VERTEX
  5
3F3
330
3F2
100
AcDbEntity
  8
4
  6
PHANTOM
 62
     2
370
    25
100
AcDbVertex
100
AcDb2dVertex
 10
259.0008383236762
 20
202.0508507429119
 30
0.0
  0
VERTEX
  5
3F4
330
3F2
100
AcDbEntity
  8
4
  6
PHANTOM
 62
     2
370
    25
100
AcDbVertex
100
AcDb2dVertex
 10
282.0948894946729
 20
202.0508507429119
 30
0.0
  0
VERTEX
  5
3F5
330
3F2
100
AcDbEntity
  8
4
  6
PHANTOM
 62
     2
370
    25
100
AcDbVertex
100
AcDb2dVertex
 10
284.0008383236762
 20
202.0508507429119
 30
0.0
  0
SEQEND
  5
3F6
330
3F2
100
AcDbEntity
  8
4
  6
PHANTOM
 62
     2
370
    25
  0
ARC
  5
3F7
330
1F
100
AcDbEntity
  8
4
  6
PHANTOM
 62
     2
370
    25
100
AcDbCircle
 10
284.0008383236714
 20
203.550850742916
 30
0.0
 40
1.500000000004064
100
AcDbArc
 50
269.9999999999998
 51
359.9999999998444
  0
POLYLINE
  5
3F8
330
1F
100
AcDbEntity
  8
4
  6
PHANTOM
 62
     2
370
    25
100
AcDb2dPolyline
 66
     1
 10
0.0
 20
0.0
 30
0.0
  0
VERTEX
  5
3F9
330
3F8
100
AcDbEntity
  8
4
  6
PHANTOM
 62
     2
370
    25
100
AcDbVertex
100
AcDb2dVertex
 10
285.5008383236762
 20
203.5508507429119
 30
0.0
  0
VERTEX
  5
3FA
330
3F8
100
AcDbEntity
  8
4
  6
PHANTOM
 62
     2
370
    25
100
AcDbVertex
100
AcDb2dVertex
 10
285.5008383236762
 20
214.5968667691299
 30
0.0
  0
SEQEND
  5
3FB
330
3F8
100
AcDbEntity
  8
4
  6
PHANTOM
 62
     2
370
    25
  0
ARC
  5
3FC
330
1F
100
AcDbEntity
  8
4
  6
PHANTOM
 62
     2
370
    25
100
AcDbCircle
 10
290.5008383236754
 20
214.5968667691295
 30
0.0
 40
4.999999999999147
100
AcDbArc
 50
89.99999999999991
 51
179.9999999999958
  0
ARC
  5
3FD
330
1F
100
AcDbEntity
  8
4
  6
PHANTOM
 62
     2
370
    25
100
AcDbCircle
 10
290.5008383236822
 20
221.5968667691298
 30
0.0
 40
1.999999999999858
100
AcDbArc
 50
269.9999999999998
 51
0.0000000000040711
  0
POLYLINE
  5
3FE
330
1F
100
AcDbEntity
  8
4
  6
PHANTOM
 62
     2
370
    25
100
AcDb2dPolyline
 66
     1
 10
0.0
 20
0.0
 30
0.0
  0
VERTEX
  5
3FF
330
3FE
100
AcDbEntity
  8
4
  6
PHANTOM
 62
     2
370
    25
100
AcDbVertex
100
AcDb2dVertex
 10
292.5008383236762
 20
221.5968667691299
 30
0.0
  0
VERTEX
  5
400
330
3FE
100
AcDbEntity
  8
4
  6
PHANTOM
 62
     2
370
    25
100
AcDbVertex
100
AcDb2dVertex
 10
292.5008383236762
 20
242.0508507429119
 30
0.0
  0
SEQEND
  5
401
330
3FE
100
AcDbEntity
  8
4
  6
PHANTOM
 62
     2
370
    25
  0
ARC
  5
402
330
1F
100
AcDbEntity
  8
4
  6
PHANTOM
 62
     2
370
    25
100
AcDbCircle
 10
290.5008383236723
 20
242.0508507429042
 30
0.0
 40
2.000000000003979
100
AcDbArc
 50
0.0000000002206542
 51
89.99999999999991
  0
POLYLINE
  5
403
330
1F
100
AcDbEntity
  8
4
  6
PHANTOM
 62
     2
370
    25
100
AcDb2dPolyline
 66
     1
 10
0.0
 20
0.0
 30
0.0
  0
VERTEX
  5
404
330
403
100
AcDbEntity
  8
4
  6
PHANTOM
 62
     2
370
    25
100
AcDbVertex
100
AcDb2dVertex
 10
290.5008383236762
 20
244.0508507429119
 30
0.0
  0
VERTEX
  5
405
330
403
100
AcDbEntity
  8
4
  6
PHANTOM
 62
     2
370
    25
100
AcDbVertex
100
AcDb2dVertex
 10
252.5008383236762
 20
244.0508507429119
 30
0.0
  0
SEQEND
  5
406
330
403
100
AcDbEntity
  8
4
  6
PHANTOM
 62
     2
370
    25
  0
ARC
  5
407
330
1F
100
AcDbEntity
  8
4
  6
PHANTOM
 62
     2
370
    25
100
AcDbCircle
 10
252.5008383236787
 20
242.0508507429105
 30
0.0
 40
2.000000000001478
100
AcDbArc
 50
89.99999999999991
 51
179.9999999999577
  0
POLYLINE
  5
408
330
1F
100
AcDbEntity
  8
4
  6
PHANTOM
 62
     2
370
    25
100
AcDb2dPolyline
 66
     1
 10
0.0
 20
0.0
 30
0.0
  0
VERTEX
  5
409
330
408
100
AcDbEntity
  8
4
  6
PHANTOM
 62
     2
370
    25
100
AcDbVertex
100
AcDb2dVertex
 10
250.5008383236762
 20
242.0508507429119
 30
0.0
  0
VERTEX
  5
40A
330
408
100
AcDbEntity
  8
4
  6
PHANTOM
 62
     2
370
    25
100
AcDbVertex
100
AcDb2dVertex
 10
250.5008383236762
 20
221.5968667691299
 30
0.0
  0
SEQEND
  5
40B
330
408
100
AcDbEntity
  8
4
  6
PHANTOM
 62
     2
370
    25
  0
ARC
  5
40C
330
1F
100
AcDbEntity
  8
4
  6
PHANTOM
 62
     2
370
    25
100
AcDbCircle
 10
252.5008383236776
 20
221.5968667691324
 30
0.0
 40
2.000000000001364
100
AcDbArc
 50
180.0000000000697
 51
269.9999999999998
  0
ARC
  5
40D
330
1F
100
AcDbEntity
  8
4
  6
PHANTOM
 62
     2
370
    25
100
AcDbCircle
 10
252.500838323677
 20
214.5968667691315
 30
0.0
 40
4.999999999998437
100
AcDbArc
 50
359.9999999999808
 51
89.99999999999991
  0
POLYLINE
  5
40E
330
1F
100
AcDbEntity
  8
4
  6
PHANTOM
 62
     2
370
    25
100
AcDb2dPolyline
 66
     1
 10
0.0
 20
0.0
 30
0.0
  0
VERTEX
  5
40F
330
40E
100
AcDbEntity
  8
4
  6
PHANTOM
 62
     2
370
    25
100
AcDbVertex
100
AcDb2dVertex
 10
257.5008383236762
 20
214.5968667691299
 30
0.0
  0
VERTEX
  5
410
330
40E
100
AcDbEntity
  8
4
  6
PHANTOM
 62
     2
370
    25
100
AcDbVertex
100
AcDb2dVertex
 10
257.5008383236762
 20
203.5508507429119
 30
0.0
  0
SEQEND
  5
411
330
40E
100
AcDbEntity
  8
4
  6
PHANTOM
 62
     2
370
    25
  0
LINE
  5
412
330
1F
100
AcDbEntity
  8
9
  6
Continuous
 62
     7
370
    35
100
AcDbLine
 10
246.5008383236762
 20
174.6903018371879
 30
0.0
 11
246.5008383236762
 21
179.6903018371879
 31
0.0
  0
POLYLINE
  5
413
330
1F
100
AcDbEntity
  8
5
  6
Continuous
 62
     4
370
    25
100
AcDb2dPolyline
 66
     1
 10
0.0
 20
0.0
 30
0.0
  0
VERTEX
  5
414
330
413
100
AcDbEntity
  8
5
  6
Continuous
 62
     4
370
    25
100
AcDbVertex
100
AcDb2dVertex
 10
202.7671693345509
 20
179.6903018371879
 30
0.0
  0
VERTEX
  5
415
330
413
100
AcDbEntity
  8
5
  6
Continuous
 62
     4
370
    25
100
AcDbVertex
100
AcDb2dVertex
 10
202.9317565128008
 20
178.8706647589557
 30
0.0
  0
VERTEX
  5
416
330
413
100
AcDbEntity
  8
5
  6
Continuous
 62
     4
370
    25
100
AcDbVertex
100
AcDb2dVertex
 10
203.0736618694812
 20
178.3540467821915
 30
0.0
  0
VERTEX
  5
417
330
413
100
AcDbEntity
  8
5
  6
Continuous
 62
     4
370
    25
100
AcDbVertex
100
AcDb2dVertex
 10
203.3013705066292
 20
177.9356204955037
 30
0.0
  0
VERTEX
  5
418
330
413
100
AcDbEntity
  8
5
  6
Continuous
 62
     4
370
    25
100
AcDbVertex
100
AcDb2dVertex
 10
203.6092579932885
 20
177.5975034718368
 30
0.0
  0
VERTEX
  5
419
330
413
100
AcDbEntity
  8
5
  6
Continuous
 62
     4
370
    25
100
AcDbVertex
100
AcDb2dVertex
 10
203.9754812822677
 20
177.3072523991867
 30
0.0
  0
VERTEX
  5
41A
330
413
100
AcDbEntity
  8
5
  6
Continuous
 62
     4
370
    25
100
AcDbVertex
100
AcDb2dVertex
 10
204.3781973263764
 20
177.0324239655492
 30
0.0
  0
VERTEX
  5
41B
330
413
100
AcDbEntity
  8
5
  6
Continuous
 62
     4
370
    25
100
AcDbVertex
100
AcDb2dVertex
 10
204.7955630784236
 20
176.7405748589202
 30
0.0
  0
VERTEX
  5
41C
330
413
100
AcDbEntity
  8
5
  6
Continuous
 62
     4
370
    25
100
AcDbVertex
100
AcDb2dVertex
 10
205.2057354912173
 20
176.3992617672954
 30
0.0
  0
VERTEX
  5
41D
330
413
100
AcDbEntity
  8
5
  6
Continuous
 62
     4
370
    25
100
AcDbVertex
100
AcDb2dVertex
 10
205.5868715175669
 20
175.976041378671
 30
0.0
  0
VERTEX
  5
41E
330
413
100
AcDbEntity
  8
5
  6
Continuous
 62
     4
370
    25
100
AcDbVertex
100
AcDb2dVertex
 10
205.9171281102814
 20
175.4384703810428
 30
0.0
  0
VERTEX
  5
41F
330
413
100
AcDbEntity
  8
5
  6
Continuous
 62
     4
370
    25
100
AcDbVertex
100
AcDb2dVertex
 10
206.1917081734842
 20
174.7748515937554
 30
0.0
  0
VERTEX
  5
420
330
413
100
AcDbEntity
  8
5
  6
Continuous
 62
     4
370
    25
100
AcDbVertex
100
AcDb2dVertex
 10
206.2249323679808
 20
174.6903018371879
 30
0.0
  0
SEQEND
  5
421
330
413
100
AcDbEntity
  8
5
  6
Continuous
 62
     4
370
    25
  0
INSERT
  5
436
330
1F
100
AcDbEntity
  8
0
100
AcDbBlockReference
  2
*G25
 10
0.0
 20
0.0
 30
0.0
  0
LINE
  5
437
330
1F
100
AcDbEntity
  8
9
  6
Continuous
 62
     7
370
    35
100
AcDbLine
 10
202.7671693345509
 20
179.6903018371879
 30
0.0
 11
253.0008383236767
 21
179.6903018371879
 31
0.0
  0
POLYLINE
  5
438
330
1F
100
AcDbEntity
  8
4
  6
PHANTOM
 62
     2
370
    25
100
AcDb2dPolyline
 66
     1
 10
0.0
 20
0.0
 30
0.0
  0
VERTEX
  5
439
330
438
100
AcDbEntity
  8
4
  6
PHANTOM
 62
     2
370
    25
100
AcDbVertex
100
AcDb2dVertex
 10
288.5008383236762
 20
244.0508507429119
 30
0.0
  0
VERTEX
  5
43A
330
438
100
AcDbEntity
  8
4
  6
PHANTOM
 62
     2
370
    25
100
AcDbVertex
100
AcDb2dVertex
 10
288.5008383236762
 20
264.8885683940579
 30
0.0
  0
SEQEND
  5
43B
330
438
100
AcDbEntity
  8
4
  6
PHANTOM
 62
     2
370
    25
  0
ARC
  5
43C
330
1F
100
AcDbEntity
  8
4
  6
PHANTOM
 62
     2
370
    25
100
AcDbCircle
 10
280.0008383236771
 20
269.6135683940598
 30
0.0
 40
9.725000000000204
100
AcDbArc
 50
209.068910161087
 51
330.9310898389065
  0
ARC
  5
43D
330
1F
100
AcDbEntity
  8
4
  6
PHANTOM
 62
     2
370
    25
100
AcDbCircle
 10
263.0008383236761
 20
260.1635683940571
 30
0.0
 40
9.725000000000518
100
AcDbArc
 50
29.06891016108368
 51
150.9310898389178
  0
POLYLINE
  5
43E
330
1F
100
AcDbEntity
  8
4
  6
PHANTOM
 62
     2
370
    25
100
AcDb2dPolyline
 66
     1
 10
0.0
 20
0.0
 30
0.0
  0
VERTEX
  5
43F
330
43E
100
AcDbEntity
  8
4
  6
PHANTOM
 62
     2
370
    25
100
AcDbVertex
100
AcDb2dVertex
 10
254.5008383236762
 20
264.8885683940574
 30
0.0
  0
VERTEX
  5
440
330
43E
100
AcDbEntity
  8
4
  6
PHANTOM
 62
     2
370
    25
100
AcDbVertex
100
AcDb2dVertex
 10
254.5008383236762
 20
244.0508507429119
 30
0.0
  0
SEQEND
  5
441
330
43E
100
AcDbEntity
  8
4
  6
PHANTOM
 62
     2
370
    25
  0
LINE
  5
442
330
1F
100
AcDbEntity
  8
9
  6
Continuous
 62
     7
370
    35
100
AcDbLine
 10
340.234507312802
 20
179.6903018371879
 30
0.0
 11
290.0008383236759
 21
179.6903018371879
 31
0.0
  0
LINE
  5
443
330
1F
100
AcDbEntity
  8
9
  6
Continuous
 62
     7
370
    35
100
AcDbLine
 10
261.2401581851618
 20
212.3873468203897
 30
0.0
 11
260.903990003642
 21
201.6903018371894
 31
0.0
  0
LINE
  5
444
330
1F
100
AcDbEntity
  8
8
  6
Continuous
 62
     4
370
    25
100
AcDbLine
 10
262.2446817316845
 20
213.3918703669126
 30
0.0
 11
261.8769451259449
 21
201.6903018371895
 31
0.0
  0
LINE
  5
445
330
1F
100
AcDbEntity
  8
9
  6
Continuous
 62
     7
370
    35
100
AcDbLine
 10
261.2401581851618
 20
212.3873468203897
 30
0.0
 11
262.5008383236764
 21
213.6480269589044
 31
0.0
  0
LINE
  5
446
330
1F
100
AcDbEntity
  8
9
  6
Continuous
 62
     7
370
    35
100
AcDbLine
 10
260.0018467179762
 20
157.4478769464085
 30
0.0
 11
260.0018467179762
 21
156.2478769464085
 31
0.0
  0
LINE
  5
447
330
1F
100
AcDbEntity
  8
9
  6
Continuous
 62
     7
370
    35
100
AcDbLine
 10
264.5008383236762
 20
157.7478769464085
 30
0.0
 11
264.5008383236762
 21
157.4478769464085
 31
0.0
  0
LINE
  5
448
330
1F
100
AcDbEntity
  8
9
  6
Continuous
 62
     7
370
    35
100
AcDbLine
 10
265.5008383236762
 20
159.2478769464085
 30
0.0
 11
265.5008383236762
 21
158.9478769464085
 31
0.0
  0
LINE
  5
449
330
1F
100
AcDbEntity
  8
9
  6
Continuous
 62
     7
370
    35
100
AcDbLine
 10
270.0008383236764
 20
159.2478769464083
 30
0.0
 11
265.5008383236762
 21
159.2478769464085
 31
0.0
  0
LINE
  5
44A
330
1F
100
AcDbEntity
  8
9
  6
Continuous
 62
     7
370
    35
100
AcDbLine
 10
264.5008383236762
 20
157.7478769464085
 30
0.0
 11
265.5008383236762
 21
158.9478769464085
 31
0.0
  0
LINE
  5
44B
330
1F
100
AcDbEntity
  8
9
  6
Continuous
 62
     7
370
    35
100
AcDbLine
 10
269.258515128722
 20
154.7685549262449
 30
0.0
 11
268.7508383236762
 21
155.6478769464084
 31
0.0
  0
LINE
  5
44C
330
1F
100
AcDbEntity
  8
9
  6
Continuous
 62
     7
370
    35
100
AcDbLine
 10
268.7508383236762
 20
155.6478769464084
 30
0.0
 11
268.7508383236762
 21
156.2478769464085
 31
0.0
  0
ARC
  5
44D
330
1F
100
AcDbEntity
  8
9
  6
Continuous
 62
     7
370
    35
100
AcDbCircle
 10
271.5008383236762
 20
162.4478769464085
 30
0.0
 40
8.0
100
AcDbArc
 50
253.7224625911075
 51
259.1930771251443
  0
LINE
  5
44E
330
1F
100
AcDbEntity
  8
9
  6
Continuous
 62
     7
370
    35
100
AcDbLine
 10
267.7508383236762
 20
160.9978769464091
 30
0.0
 11
267.7508383236762
 21
159.5478769464085
 31
0.0
  0
ARC
  5
44F
330
1F
100
AcDbEntity
  8
9
  6
Continuous
 62
     7
370
    35
100
AcDbCircle
 10
271.5008383236762
 20
160.9978769464091
 30
0.0
 40
3.75
100
AcDbArc
 50
113.5781784782056
 51
179.9999999999998
  0
ARC
  5
450
330
1F
100
AcDbEntity
  8
9
  6
Continuous
 62
     7
370
    35
100
AcDbCircle
 10
267.4508383236762
 20
159.5478769464085
 30
0.0
 40
0.3000000000000114
100
AcDbArc
 50
269.9999999999998
 51
0.0
  0
ARC
  5
451
330
1F
100
AcDbEntity
  8
9
  6
Continuous
 62
     7
370
    35
100
AcDbCircle
 10
266.1368467179768
 20
155.1978769464085
 30
0.0
 40
0.1499999999999773
100
AcDbArc
 50
0.0
 51
89.99999999999991
  0
LINE
  5
452
330
1F
100
AcDbEntity
  8
9
  6
Continuous
 62
     7
370
    35
100
AcDbLine
 10
266.2868467179766
 20
154.6478769464084
 30
0.0
 11
266.2868467179766
 21
155.1978769464085
 31
0.0
  0
LINE
  5
453
330
1F
100
AcDbEntity
  8
9
  6
Continuous
 62
     7
370
    35
100
AcDbLine
 10
265.6268467179767
 20
156.2478769464085
 30
0.0
 11
265.6268467179768
 21
155.3478769464085
 31
0.0
  0
LINE
  5
454
330
1F
100
AcDbEntity
  8
9
  6
Continuous
 62
     7
370
    35
100
AcDbLine
 10
266.4268467179766
 20
169.690301837186
 30
0.0
 11
266.4268467179766
 21
159.2478769464085
 31
0.0
  0
LINE
  5
455
330
1F
100
AcDbEntity
  8
9
  6
Continuous
 62
     7
370
    35
100
AcDbLine
 10
268.4268467179766
 20
156.2478769464085
 30
0.0
 11
268.4268467179767
 21
155.3478769464085
 31
0.0
  0
ARC
  5
456
330
1F
100
AcDbEntity
  8
9
  6
Continuous
 62
     7
370
    35
100
AcDbCircle
 10
267.9168467179767
 20
155.1978769464085
 30
0.0
 40
0.1499999999999773
100
AcDbArc
 50
89.99999999999991
 51
179.9999999999998
  0
LINE
  5
457
330
1F
100
AcDbEntity
  8
9
  6
Continuous
 62
     7
370
    35
100
AcDbLine
 10
267.7668467179766
 20
154.6478769464084
 30
0.0
 11
267.7668467179766
 21
155.1978769464085
 31
0.0
  0
LINE
  5
458
330
1F
100
AcDbEntity
  8
9
  6
Continuous
 62
     7
370
    35
100
AcDbLine
 10
267.8268467179767
 20
169.690301837186
 30
0.0
 11
267.8268467179767
 21
161.7490664572847
 31
0.0
  0
LINE
  5
459
330
1F
100
AcDbEntity
  8
9
  6
Continuous
 62
     7
370
    35
100
AcDbLine
 10
267.7668467179766
 20
154.6478769464084
 30
0.0
 11
266.2868467179766
 21
154.6478769464084
 31
0.0
  0
LINE
  5
45A
330
1F
100
AcDbEntity
  8
9
  6
Continuous
 62
     7
370
    35
100
AcDbLine
 10
268.4268467179767
 20
155.3478769464084
 30
0.0
 11
265.6268467179768
 21
155.3478769464085
 31
0.0
  0
LINE
  5
45B
330
1F
100
AcDbEntity
  8
9
  6
Continuous
 62
     7
370
    35
100
AcDbLine
 10
271.000838323676
 20
201.6903018371864
 30
0.0
 11
271.000838323676
 21
183.2903018371863
 31
0.0
  0
ELLIPSE
  5
45C
330
1F
100
AcDbEntity
  8
9
  6
Continuous
 62
     7
370
    35
100
AcDbEllipse
 10
271.5008383236763
 20
170.4936594035805
 30
0.0
 11
4.318980183710681E-15
 21
2.673389674331702
 31
0.0
210
0.0
220
0.0
230
1.0
 40
0.5610854318774396
 41
0.0000000000000062
 42
1.570796326794903
  0
ARC
  5
45D
330
1F
100
AcDbEntity
  8
9
  6
Continuous
 62
     7
370
    35
100
AcDbCircle
 10
270.0008383236763
 20
149.1903018371265
 30
0.0
 40
1.499999999999091
100
AcDbArc
 50
0.0
 51
89.99999999999991
  0
LINE
  5
45E
330
1F
100
AcDbEntity
  8
9
  6
Continuous
 62
     7
370
    35
100
AcDbLine
 10
270.0008383236754
 20
170.49365940358
 30
0.0
 11
270.0008383236772
 21
150.6903018371256
 31
0.0
  0
LINE
  5
45F
330
1F
100
AcDbEntity
  8
9
  6
Continuous
 62
     7
370
    35
100
AcDbLine
 10
253.2508383236763
 20
201.6903018371892
 30
0.0
 11
253.0008383236763
 21
201.4403018371892
 31
0.0
  0
LINE
  5
460
330
1F
100
AcDbEntity
  8
9
  6
Continuous
 62
     7
370
    35
100
AcDbLine
 10
256.0027915679001
 20
183.6903018371897
 30
0.0
 11
255.0027915679001
 21
183.6903018371897
 31
0.0
  0
LINE
  5
461
330
1F
100
AcDbEntity
  8
9
  6
Continuous
 62
     7
370
    35
100
AcDbLine
 10
255.0027915679001
 20
201.6903018371892
 30
0.0
 11
255.0027915679001
 21
183.6903018371897
 31
0.0
  0
LINE
  5
462
330
1F
100
AcDbEntity
  8
9
  6
Continuous
 62
     7
370
    35
100
AcDbLine
 10
256.0027915679001
 20
201.6903018371892
 30
0.0
 11
256.0027915679001
 21
183.6903018371897
 31
0.0
  0
ARC
  5
463
330
1F
100
AcDbEntity
  8
9
  6
Continuous
 62
     7
370
    35
100
AcDbCircle
 10
253.3508383236739
 20
170.99365940358
 30
0.0
 40
0.5
100
AcDbArc
 50
259.7516211656064
 51
269.9999999999998
  0
LINE
  5
464
330
1F
100
AcDbEntity
  8
9
  6
Continuous
 62
     7
370
    35
100
AcDbLine
 10
253.0008383236763
 20
174.6903018371888
 30
0.0
 11
253.0008383236763
 21
201.4403018371892
 31
0.0
  0
LINE
  5
465
330
1F
100
AcDbEntity
  8
9
  6
Continuous
 62
     7
370
    35
100
AcDbLine
 10
237.5008383236754
 20
174.1866494003468
 30
0.0
 11
237.5008383236754
 21
174.6903018371892
 31
0.0
  0
ARC
  5
466
330
1F
100
AcDbEntity
  8
9
  6
Continuous
 62
     7
370
    35
100
AcDbCircle
 10
238.5008383236754
 20
174.1866494003468
 30
0.0
 40
1.0
100
AcDbArc
 50
179.9999999999998
 51
259.7516211656064
  0
LINE
  5
467
330
1F
100
AcDbEntity
  8
9
  6
Continuous
 62
     7
370
    35
100
AcDbLine
 10
253.2618804725298
 20
170.5016365375251
 30
0.0
 11
238.322922621387
 21
173.2026036682393
 31
0.0
  0
LINE
  5
468
330
1F
100
AcDbEntity
  8
9
  6
Continuous
 62
     7
370
    35
100
AcDbLine
 10
250.3508383236758
 20
149.1903018371274
 30
0.0
 11
250.3508383236758
 21
158.6903018371892
 31
0.0
  0
LINE
  5
469
330
1F
100
AcDbEntity
  8
9
  6
Continuous
 62
     7
370
    35
100
AcDbLine
 10
250.340706716478
 20
158.4305122714001
 30
0.0
 11
250.3508383236758
 21
149.1903018371283
 31
0.0
  0
LINE
  5
46A
330
1F
100
AcDbEntity
  8
9
  6
Continuous
 62
     7
370
    35
100
AcDbLine
 10
254.3508383236739
 20
170.4936594035796
 30
0.0
 11
254.350838323673
 21
150.6903018371251
 31
0.0
  0
ARC
  5
46B
330
1F
100
AcDbEntity
  8
9
  6
Continuous
 62
     7
370
    35
100
AcDbCircle
 10
235.3508383236758
 20
158.6903018371897
 30
0.0
 40
15.0
100
AcDbArc
 50
0.0
 51
70.61166638270316
  0
LINE
  5
46C
330
1F
100
AcDbEntity
  8
9
  6
Continuous
 62
     7
370
    35
100
AcDbLine
 10
253.3508383236739
 20
170.49365940358
 30
0.0
 11
270.0008383236754
 21
170.4936594035805
 31
0.0
  0
LINE
  5
46D
330
1F
100
AcDbEntity
  8
9
  6
Continuous
 62
     7
370
    35
100
AcDbLine
 10
254.3508383236758
 20
169.690301837186
 30
0.0
 11
270.0008383236754
 21
169.690301837186
 31
0.0
  0
LINE
  5
46E
330
1F
100
AcDbEntity
  8
9
  6
Continuous
 62
     7
370
    35
100
AcDbLine
 10
270.0008383236763
 20
150.6903018371256
 30
0.0
 11
251.8508383236749
 21
150.6903018371256
 31
0.0
  0
LINE
  5
46F
330
1F
100
AcDbEntity
  8
9
  6
Continuous
 62
     7
370
    35
100
AcDbLine
 10
253.2508383236763
 20
201.6903018371892
 30
0.0
 11
271.0008383236759
 21
201.6903018371897
 31
0.0
  0
LINE
  5
470
330
1F
100
AcDbEntity
  8
9
  6
Continuous
 62
     7
370
    35
100
AcDbLine
 10
289.7508383236761
 20
201.6903018371892
 30
0.0
 11
272.0008383236766
 21
201.6903018371897
 31
0.0
  0
LINE
  5
471
330
1F
100
AcDbEntity
  8
9
  6
Continuous
 62
     7
370
    35
100
AcDbLine
 10
273.0008383236761
 20
150.6903018371256
 30
0.0
 11
291.1508383236775
 21
150.6903018371255
 31
0.0
  0
LINE
  5
472
330
1F
100
AcDbEntity
  8
9
  6
Continuous
 62
     7
370
    35
100
AcDbLine
 10
288.6508383236766
 20
169.690301837186
 30
0.0
 11
273.000838323677
 21
169.690301837186
 31
0.0
  0
LINE
  5
473
330
1F
100
AcDbEntity
  8
9
  6
Continuous
 62
     7
370
    35
100
AcDbLine
 10
289.6508383236784
 20
170.49365940358
 30
0.0
 11
273.000838323677
 21
170.4936594035805
 31
0.0
  0
ARC
  5
474
330
1F
100
AcDbEntity
  8
9
  6
Continuous
 62
     7
370
    35
100
AcDbCircle
 10
307.6508383236766
 20
158.6903018371896
 30
0.0
 40
15.0
100
AcDbArc
 50
109.3883336172968
 51
179.9999999999999
  0
LINE
  5
475
330
1F
100
AcDbEntity
  8
9
  6
Continuous
 62
     7
370
    35
100
AcDbLine
 10
288.6508383236784
 20
170.4936594035795
 30
0.0
 11
288.6508383236794
 21
150.6903018371251
 31
0.0
  0
LINE
  5
476
330
1F
100
AcDbEntity
  8
9
  6
Continuous
 62
     7
370
    35
100
AcDbLine
 10
292.6609699308744
 20
158.4305122714001
 30
0.0
 11
292.6508383236766
 21
149.1903018371283
 31
0.0
  0
LINE
  5
477
330
1F
100
AcDbEntity
  8
9
  6
Continuous
 62
     7
370
    35
100
AcDbLine
 10
292.6508383236766
 20
149.1903018371274
 30
0.0
 11
292.6508383236766
 21
158.6903018371892
 31
0.0
  0
LINE
  5
478
330
1F
100
AcDbEntity
  8
9
  6
Continuous
 62
     7
370
    35
100
AcDbLine
 10
289.7397961748226
 20
170.5016365375251
 30
0.0
 11
304.6787540259654
 21
173.2026036682392
 31
0.0
  0
ARC
  5
479
330
1F
100
AcDbEntity
  8
9
  6
Continuous
 62
     7
370
    35
100
AcDbCircle
 10
304.500838323677
 20
174.1866494003467
 30
0.0
 40
1.0
100
AcDbArc
 50
280.248378834393
 51
0.0
  0
LINE
  5
47A
330
1F
100
AcDbEntity
  8
9
  6
Continuous
 62
     7
370
    35
100
AcDbLine
 10
305.500838323677
 20
174.1866494003467
 30
0.0
 11
305.500838323677
 21
174.6903018371892
 31
0.0
  0
LINE
  5
47B
330
1F
100
AcDbEntity
  8
9
  6
Continuous
 62
     7
370
    35
100
AcDbLine
 10
290.0008383236761
 20
174.6903018371887
 30
0.0
 11
290.0008383236761
 21
201.4403018371892
 31
0.0
  0
ARC
  5
47C
330
1F
100
AcDbEntity
  8
9
  6
Continuous
 62
     7
370
    35
100
AcDbCircle
 10
289.6508383236784
 20
170.99365940358
 30
0.0
 40
0.5
100
AcDbArc
 50
269.9999999999998
 51
280.248378834393
  0
LINE
  5
47D
330
1F
100
AcDbEntity
  8
9
  6
Continuous
 62
     7
370
    35
100
AcDbLine
 10
286.9988850794523
 20
201.6903018371892
 30
0.0
 11
286.9988850794523
 21
183.6903018371896
 31
0.0
  0
LINE
  5
47E
330
1F
100
AcDbEntity
  8
9
  6
Continuous
 62
     7
370
    35
100
AcDbLine
 10
287.9988850794523
 20
201.6903018371892
 30
0.0
 11
287.9988850794523
 21
183.6903018371896
 31
0.0
  0
LINE
  5
47F
330
1F
100
AcDbEntity
  8
9
  6
Continuous
 62
     7
370
    35
100
AcDbLine
 10
286.9988850794523
 20
183.6903018371896
 30
0.0
 11
287.9988850794523
 21
183.6903018371896
 31
0.0
  0
LINE
  5
480
330
1F
100
AcDbEntity
  8
9
  6
Continuous
 62
     7
370
    35
100
AcDbLine
 10
289.7508383236761
 20
201.6903018371892
 30
0.0
 11
290.0008383236761
 21
201.4403018371892
 31
0.0
  0
LINE
  5
481
330
1F
100
AcDbEntity
  8
9
  6
Continuous
 62
     7
370
    35
100
AcDbLine
 10
273.000838323677
 20
170.49365940358
 30
0.0
 11
273.0008383236752
 21
150.6903018371256
 31
0.0
  0
ARC
  5
482
330
1F
100
AcDbEntity
  8
9
  6
Continuous
 62
     7
370
    35
100
AcDbCircle
 10
273.0008383236761
 20
149.1903018371265
 30
0.0
 40
1.499999999999091
100
AcDbArc
 50
89.99999999999991
 51
179.9999999999998
  0
ELLIPSE
  5
483
330
1F
100
AcDbEntity
  8
9
  6
Continuous
 62
     7
370
    35
100
AcDbEllipse
 10
271.5008383236761
 20
170.4936594035805
 30
0.0
 11
4.318980183710681E-15
 21
2.673389674331702
 31
0.0
210
0.0
220
0.0
230
1.0
 40
0.5610854318774396
 41
-1.570796326794903
 42
-0.0000000000000062
  0
LINE
  5
484
330
1F
100
AcDbEntity
  8
9
  6
Continuous
 62
     7
370
    35
100
AcDbLine
 10
272.0008383236765
 20
201.6903018371864
 30
0.0
 11
272.0008383236765
 21
183.2903018371863
 31
0.0
  0
LINE
  5
485
330
1F
100
AcDbEntity
  8
9
  6
Continuous
 62
     7
370
    35
100
AcDbLine
 10
274.5748299293757
 20
155.3478769464084
 30
0.0
 11
277.3748299293756
 21
155.3478769464085
 31
0.0
  0
LINE
  5
486
330
1F
100
AcDbEntity
  8
9
  6
Continuous
 62
     7
370
    35
100
AcDbLine
 10
275.2348299293757
 20
154.6478769464084
 30
0.0
 11
276.7148299293758
 21
154.6478769464084
 31
0.0
  0
LINE
  5
487
330
1F
100
AcDbEntity
  8
9
  6
Continuous
 62
     7
370
    35
100
AcDbLine
 10
275.1748299293757
 20
169.690301837186
 30
0.0
 11
275.1748299293757
 21
161.7490664572847
 31
0.0
  0
LINE
  5
488
330
1F
100
AcDbEntity
  8
9
  6
Continuous
 62
     7
370
    35
100
AcDbLine
 10
275.2348299293757
 20
154.6478769464084
 30
0.0
 11
275.2348299293757
 21
155.1978769464085
 31
0.0
  0
ARC
  5
489
330
1F
100
AcDbEntity
  8
9
  6
Continuous
 62
     7
370
    35
100
AcDbCircle
 10
275.0848299293756
 20
155.1978769464085
 30
0.0
 40
0.1499999999999773
100
AcDbArc
 50
0.0
 51
89.99999999999991
  0
LINE
  5
48A
330
1F
100
AcDbEntity
  8
9
  6
Continuous
 62
     7
370
    35
100
AcDbLine
 10
274.5748299293758
 20
156.2478769464085
 30
0.0
 11
274.5748299293757
 21
155.3478769464085
 31
0.0
  0
LINE
  5
48B
330
1F
100
AcDbEntity
  8
9
  6
Continuous
 62
     7
370
    35
100
AcDbLine
 10
276.5748299293758
 20
169.690301837186
 30
0.0
 11
276.5748299293758
 21
159.2478769464085
 31
0.0
  0
LINE
  5
48C
330
1F
100
AcDbEntity
  8
9
  6
Continuous
 62
     7
370
    35
100
AcDbLine
 10
277.3748299293757
 20
156.2478769464085
 30
0.0
 11
277.3748299293756
 21
155.3478769464085
 31
0.0
  0
LINE
  5
48D
330
1F
100
AcDbEntity
  8
9
  6
Continuous
 62
     7
370
    35
100
AcDbLine
 10
276.7148299293758
 20
154.6478769464084
 30
0.0
 11
276.7148299293758
 21
155.1978769464085
 31
0.0
  0
ARC
  5
48E
330
1F
100
AcDbEntity
  8
9
  6
Continuous
 62
     7
370
    35
100
AcDbCircle
 10
276.8648299293756
 20
155.1978769464085
 30
0.0
 40
0.1499999999999773
100
AcDbArc
 50
89.99999999999991
 51
179.9999999999998
  0
ARC
  5
48F
330
1F
100
AcDbEntity
  8
9
  6
Continuous
 62
     7
370
    35
100
AcDbCircle
 10
275.5508383236761
 20
159.5478769464085
 30
0.0
 40
0.3000000000000114
100
AcDbArc
 50
179.9999999999998
 51
269.9999999999998
  0
ARC
  5
490
330
1F
100
AcDbEntity
  8
9
  6
Continuous
 62
     7
370
    35
100
AcDbCircle
 10
271.5008383236762
 20
160.9978769464091
 30
0.0
 40
3.75
100
AcDbArc
 50
359.9999999999992
 51
66.42182152179444
  0
LINE
  5
491
330
1F
100
AcDbEntity
  8
9
  6
Continuous
 62
     7
370
    35
100
AcDbLine
 10
275.2508383236762
 20
160.9978769464091
 30
0.0
 11
275.2508383236762
 21
159.5478769464085
 31
0.0
  0
ARC
  5
492
330
1F
100
AcDbEntity
  8
9
  6
Continuous
 62
     7
370
    35
100
AcDbCircle
 10
271.5008383236762
 20
162.4478769464085
 30
0.0
 40
8.0
100
AcDbArc
 50
280.806922874855
 51
286.2775374088918
  0
LINE
  5
493
330
1F
100
AcDbEntity
  8
9
  6
Continuous
 62
     7
370
    35
100
AcDbLine
 10
274.2508383236762
 20
155.6478769464084
 30
0.0
 11
274.2508383236762
 21
156.2478769464085
 31
0.0
  0
LINE
  5
494
330
1F
100
AcDbEntity
  8
9
  6
Continuous
 62
     7
370
    35
100
AcDbLine
 10
273.7431615186304
 20
154.7685549262449
 30
0.0
 11
274.2508383236762
 21
155.6478769464084
 31
0.0
  0
LINE
  5
495
330
1F
100
AcDbEntity
  8
9
  6
Continuous
 62
     7
370
    35
100
AcDbLine
 10
278.5008383236762
 20
157.7478769464085
 30
0.0
 11
277.5008383236762
 21
158.9478769464085
 31
0.0
  0
LINE
  5
496
330
1F
100
AcDbEntity
  8
9
  6
Continuous
 62
     7
370
    35
100
AcDbLine
 10
273.000838323676
 20
159.2478769464083
 30
0.0
 11
277.5008383236762
 21
159.2478769464085
 31
0.0
  0
LINE
  5
497
330
1F
100
AcDbEntity
  8
9
  6
Continuous
 62
     7
370
    35
100
AcDbLine
 10
277.5008383236762
 20
159.2478769464085
 30
0.0
 11
277.5008383236762
 21
158.9478769464085
 31
0.0
  0
LINE
  5
498
330
1F
100
AcDbEntity
  8
9
  6
Continuous
 62
     7
370
    35
100
AcDbLine
 10
278.5008383236762
 20
157.7478769464085
 30
0.0
 11
278.5008383236762
 21
157.4478769464085
 31
0.0
  0
LINE
  5
499
330
1F
100
AcDbEntity
  8
9
  6
Continuous
 62
     7
370
    35
100
AcDbLine
 10
282.9998299293762
 20
157.4478769464084
 30
0.0
 11
282.9998299293762
 21
156.2478769464085
 31
0.0
  0
LINE
  5
49A
330
1F
100
AcDbEntity
  8
9
  6
Continuous
 62
     7
370
    35
100
AcDbLine
 10
281.7615184621907
 20
212.3873468203896
 30
0.0
 11
280.5008383236761
 21
213.6480269589044
 31
0.0
  0
LINE
  5
49B
330
1F
100
AcDbEntity
  8
8
  6
Continuous
 62
     4
370
    25
100
AcDbLine
 10
280.756994915668
 20
213.3918703669126
 30
0.0
 11
281.1247315214076
 21
201.6903018371894
 31
0.0
  0
LINE
  5
49C
330
1F
100
AcDbEntity
  8
9
  6
Continuous
 62
     7
370
    35
100
AcDbLine
 10
281.7615184621907
 20
212.3873468203896
 30
0.0
 11
282.0976866437105
 21
201.6903018371894
 31
0.0
  0
LINE
  5
49D
330
1F
100
AcDbEntity
  8
9
  6
Continuous
 62
     7
370
    35
100
AcDbLine
 10
272.0008383236765
 20
183.2903018371863
 30
0.0
 11
271.0008383236765
 21
183.2903018371863
 31
0.0
  0
LINE
  5
49E
330
1F
100
AcDbEntity
  8
9
  6
Continuous
 62
     7
370
    35
100
AcDbLine
 10
336.7767442793719
 20
174.6903018371879
 30
0.0
 11
206.2249323679807
 21
174.6903018371879
 31
0.0
  0
LINE
  5
49F
330
1F
100
AcDbEntity
  8
9
  6
Continuous
 62
     7
370
    35
100
AcDbLine
 10
280.5008383236761
 20
213.6480269589044
 30
0.0
 11
262.5008383236764
 21
213.6480269589044
 31
0.0
  0
LINE
  5
4A0
330
1F
100
AcDbEntity
  8
9
  6
Continuous
 62
     7
370
    35
100
AcDbLine
 10
260.0018467179762
 20
156.2478769464085
 30
0.0
 11
270.0008383236766
 21
156.2478769464085
 31
0.0
  0
LINE
  5
4A1
330
1F
100
AcDbEntity
  8
9
  6
Continuous
 62
     7
370
    35
100
AcDbLine
 10
260.0018467179762
 20
157.4478769464085
 30
0.0
 11
270.0008383236767
 21
157.4478769464085
 31
0.0
  0
ARC
  5
4A2
330
1F
100
AcDbEntity
  8
9
  6
Continuous
 62
     7
370
    35
100
AcDbCircle
 10
251.8508383236749
 20
149.1903018371274
 30
0.0
 40
1.499999999999091
100
AcDbArc
 50
89.99999999999991
 51
269.9999999998433
  0
LINE
  5
4A3
330
1F
100
AcDbEntity
  8
9
  6
Continuous
 62
     7
370
    35
100
AcDbLine
 10
251.8508383236749
 20
147.6903018371892
 30
0.0
 11
291.1508383236775
 21
147.6903018371892
 31
0.0
  0
ARC
  5
4A4
330
1F
100
AcDbEntity
  8
9
  6
Continuous
 62
     7
370
    35
100
AcDbCircle
 10
291.1508383236775
 20
149.1903018371274
 30
0.0
 40
1.499999999999091
100
AcDbArc
 50
270.000000000156
 51
89.99999999999991
  0
LINE
  5
4A5
330
1F
100
AcDbEntity
  8
9
  6
Continuous
 62
     7
370
    35
100
AcDbLine
 10
282.9998299293762
 20
157.4478769464084
 30
0.0
 11
273.0008383236757
 21
157.4478769464085
 31
0.0
  0
LINE
  5
4A6
330
1F
100
AcDbEntity
  8
9
  6
Continuous
 62
     7
370
    35
100
AcDbLine
 10
273.0008383236757
 20
156.2478769464085
 30
0.0
 11
282.9998299293762
 21
156.2478769464085
 31
0.0
  0
LINE
  5
4A7
330
1F
100
AcDbEntity
  8
9
  6
Continuous
 62
     7
370
    35
100
AcDbLine
 10
261.2401581851616
 20
212.3873468203897
 30
0.0
 11
281.7615184621909
 21
212.3873468203896
 31
0.0
  0
LINE
  5
4A8
330
1F
100
AcDbEntity
  8
9
  6
Continuous
 62
     7
370
    35
100
AcDbLine
 10
282.9998299293762
 20
101.0394260962883
 30
0.0
 11
282.9998299293762
 21
99.83942609628832
 31
0.0
  0
LINE
  5
4A9
330
1F
100
AcDbEntity
  8
9
  6
Continuous
 62
     7
370
    35
100
AcDbLine
 10
278.5008383236762
 20
101.3394260962883
 30
0.0
 11
278.5008383236762
 21
101.0394260962883
 31
0.0
  0
LINE
  5
4AA
330
1F
100
AcDbEntity
  8
9
  6
Continuous
 62
     7
370
    35
100
AcDbLine
 10
277.5008383236762
 20
102.8394260962883
 30
0.0
 11
277.5008383236762
 21
102.5394260962883
 31
0.0
  0
LINE
  5
4AB
330
1F
100
AcDbEntity
  8
9
  6
Continuous
 62
     7
370
    35
100
AcDbLine
 10
273.000838323676
 20
102.8394260962881
 30
0.0
 11
277.5008383236762
 21
102.8394260962883
 31
0.0
  0
LINE
  5
4AC
330
1F
100
AcDbEntity
  8
9
  6
Continuous
 62
     7
370
    35
100
AcDbLine
 10
278.5008383236762
 20
101.3394260962883
 30
0.0
 11
277.5008383236762
 21
102.5394260962883
 31
0.0
  0
LINE
  5
4AD
330
1F
100
AcDbEntity
  8
9
  6
Continuous
 62
     7
370
    35
100
AcDbLine
 10
273.7431615186304
 20
98.36010407612474
 30
0.0
 11
274.2508383236762
 21
99.23942609628821
 31
0.0
  0
LINE
  5
4AE
330
1F
100
AcDbEntity
  8
9
  6
Continuous
 62
     7
370
    35
100
AcDbLine
 10
274.2508383236762
 20
99.23942609628821
 30
0.0
 11
274.2508383236762
 21
99.83942609628835
 31
0.0
  0
ARC
  5
4AF
330
1F
100
AcDbEntity
  8
9
  6
Continuous
 62
     7
370
    35
100
AcDbCircle
 10
271.5008383236762
 20
106.0394260962883
 30
0.0
 40
8.0
100
AcDbArc
 50
280.806922874855
 51
286.2775374088917
  0
LINE
  5
4B0
330
1F
100
AcDbEntity
  8
9
  6
Continuous
 62
     7
370
    35
100
AcDbLine
 10
275.2508383236762
 20
104.5894260962889
 30
0.0
 11
275.2508383236762
 21
103.1394260962883
 31
0.0
  0
ARC
  5
4B1
330
1F
100
AcDbEntity
  8
9
  6
Continuous
 62
     7
370
    35
100
AcDbCircle
 10
271.5008383236762
 20
104.5894260962889
 30
0.0
 40
3.75
100
AcDbArc
 50
359.9999999999994
 51
66.42182152179436
  0
ARC
  5
4B2
330
1F
100
AcDbEntity
  8
9
  6
Continuous
 62
     7
370
    35
100
AcDbCircle
 10
275.5508383236761
 20
103.1394260962883
 30
0.0
 40
0.3000000000000114
100
AcDbArc
 50
179.9999999999998
 51
269.9999999999998
  0
ARC
  5
4B3
330
1F
100
AcDbEntity
  8
9
  6
Continuous
 62
     7
370
    35
100
AcDbCircle
 10
276.8648299293756
 20
98.78942609628834
 30
0.0
 40
0.1499999999999773
100
AcDbArc
 50
89.99999999999991
 51
179.9999999999998
  0
LINE
  5
4B4
330
1F
100
AcDbEntity
  8
9
  6
Continuous
 62
     7
370
    35
100
AcDbLine
 10
276.7148299293758
 20
98.23942609628827
 30
0.0
 11
276.7148299293758
 21
98.78942609628834
 31
0.0
  0
LINE
  5
4B5
330
1F
100
AcDbEntity
  8
9
  6
Continuous
 62
     7
370
    35
100
AcDbLine
 10
277.3748299293757
 20
99.83942609628835
 30
0.0
 11
277.3748299293756
 21
98.93942609628832
 31
0.0
  0
LINE
  5
4B6
330
1F
100
AcDbEntity
  8
9
  6
Continuous
 62
     7
370
    35
100
AcDbLine
 10
276.5748299293758
 20
113.2818509870659
 30
0.0
 11
276.5748299293758
 21
102.8394260962883
 31
0.0
  0
LINE
  5
4B7
330
1F
100
AcDbEntity
  8
9
  6
Continuous
 62
     7
370
    35
100
AcDbLine
 10
274.5748299293758
 20
99.83942609628832
 30
0.0
 11
274.5748299293757
 21
98.93942609628832
 31
0.0
  0
ARC
  5
4B8
330
1F
100
AcDbEntity
  8
9
  6
Continuous
 62
     7
370
    35
100
AcDbCircle
 10
275.0848299293756
 20
98.78942609628834
 30
0.0
 40
0.1499999999999773
100
AcDbArc
 50
0.0
 51
89.99999999999991
  0
LINE
  5
4B9
330
1F
100
AcDbEntity
  8
9
  6
Continuous
 62
     7
370
    35
100
AcDbLine
 10
275.2348299293757
 20
98.23942609628827
 30
0.0
 11
275.2348299293757
 21
98.78942609628834
 31
0.0
  0
LINE
  5
4BA
330
1F
100
AcDbEntity
  8
9
  6
Continuous
 62
     7
370
    35
100
AcDbLine
 10
275.1748299293757
 20
113.2818509870659
 30
0.0
 11
275.1748299293757
 21
105.3406156071646
 31
0.0
  0
LINE
  5
4BB
330
1F
100
AcDbEntity
  8
9
  6
Continuous
 62
     7
370
    35
100
AcDbLine
 10
275.2348299293757
 20
98.23942609628827
 30
0.0
 11
276.7148299293758
 21
98.23942609628827
 31
0.0
  0
LINE
  5
4BC
330
1F
100
AcDbEntity
  8
9
  6
Continuous
 62
     7
370
    35
100
AcDbLine
 10
274.5748299293757
 20
98.9394260962882
 30
0.0
 11
277.3748299293756
 21
98.93942609628832
 31
0.0
  0
ELLIPSE
  5
4BD
330
1F
100
AcDbEntity
  8
9
  6
Continuous
 62
     7
370
    35
100
AcDbEllipse
 10
271.5008383236761
 20
114.0852085534603
 30
0.0
 11
4.318980183710681E-15
 21
2.673389674331702
 31
0.0
210
0.0
220
0.0
230
1.0
 40
0.5610854318774396
 41
-1.570796326794903
 42
-0.0000000000000062
  0
ARC
  5
4BE
330
1F
100
AcDbEntity
  8
9
  6
Continuous
 62
     7
370
    35
100
AcDbCircle
 10
273.0008383236761
 20
92.7818509870063
 30
0.0
 40
1.499999999999091
100
AcDbArc
 50
89.99999999999991
 51
179.9999999999998
  0
LINE
  5
4BF
330
1F
100
AcDbEntity
  8
9
  6
Continuous
 62
     7
370
    35
100
AcDbLine
 10
273.000838323677
 20
114.0852085534598
 30
0.0
 11
273.0008383236752
 21
94.28185098700538
 31
0.0
  0
ARC
  5
4C0
330
1F
100
AcDbEntity
  8
9
  6
Continuous
 62
     7
370
    35
100
AcDbCircle
 10
289.6508383236784
 20
114.5852085534598
 30
0.0
 40
0.5
100
AcDbArc
 50
269.9999999999998
 51
280.248378834393
  0
LINE
  5
4C1
330
1F
100
AcDbEntity
  8
9
  6
Continuous
 62
     7
370
    35
100
AcDbLine
 10
305.500838323677
 20
117.7781985502265
 30
0.0
 11
305.500838323677
 21
118.281850987069
 31
0.0
  0
ARC
  5
4C2
330
1F
100
AcDbEntity
  8
9
  6
Continuous
 62
     7
370
    35
100
AcDbCircle
 10
304.500838323677
 20
117.7781985502265
 30
0.0
 40
1.0
100
AcDbArc
 50
280.248378834393
 51
0.0
  0
LINE
  5
4C3
330
1F
100
AcDbEntity
  8
9
  6
Continuous
 62
     7
370
    35
100
AcDbLine
 10
289.7397961748226
 20
114.0931856874049
 30
0.0
 11
304.6787540259654
 21
116.7941528181191
 31
0.0
  0
LINE
  5
4C4
330
1F
100
AcDbEntity
  8
9
  6
Continuous
 62
     7
370
    35
100
AcDbLine
 10
292.6508383236766
 20
92.78185098700718
 30
0.0
 11
292.6508383236766
 21
102.281850987069
 31
0.0
  0
LINE
  5
4C5
330
1F
100
AcDbEntity
  8
9
  6
Continuous
 62
     7
370
    35
100
AcDbLine
 10
292.6609699308744
 20
102.0220614212799
 30
0.0
 11
292.6508383236766
 21
92.78185098700808
 31
0.0
  0
LINE
  5
4C6
330
1F
100
AcDbEntity
  8
9
  6
Continuous
 62
     7
370
    35
100
AcDbLine
 10
288.6508383236784
 20
114.0852085534594
 30
0.0
 11
288.6508383236794
 21
94.2818509870049
 31
0.0
  0
ARC
  5
4C7
330
1F
100
AcDbEntity
  8
9
  6
Continuous
 62
     7
370
    35
100
AcDbCircle
 10
307.6508383236766
 20
102.2818509870694
 30
0.0
 40
15.0
100
AcDbArc
 50
109.3883336172968
 51
179.9999999999999
  0
LINE
  5
4C8
330
1F
100
AcDbEntity
  8
9
  6
Continuous
 62
     7
370
    35
100
AcDbLine
 10
289.6508383236784
 20
114.0852085534598
 30
0.0
 11
273.000838323677
 21
114.0852085534603
 31
0.0
  0
LINE
  5
4C9
330
1F
100
AcDbEntity
  8
9
  6
Continuous
 62
     7
370
    35
100
AcDbLine
 10
288.6508383236766
 20
113.2818509870658
 30
0.0
 11
273.000838323677
 21
113.2818509870659
 31
0.0
  0
LINE
  5
4CA
330
1F
100
AcDbEntity
  8
9
  6
Continuous
 62
     7
370
    35
100
AcDbLine
 10
273.0008383236761
 20
94.28185098700538
 30
0.0
 11
291.1508383236775
 21
94.28185098700536
 31
0.0
  0
LINE
  5
4CB
330
1F
100
AcDbEntity
  8
9
  6
Continuous
 62
     7
370
    35
100
AcDbLine
 10
270.0008383236763
 20
94.28185098700538
 30
0.0
 11
251.8508383236749
 21
94.28185098700538
 31
0.0
  0
LINE
  5
4CC
330
1F
100
AcDbEntity
  8
9
  6
Continuous
 62
     7
370
    35
100
AcDbLine
 10
254.3508383236758
 20
113.2818509870659
 30
0.0
 11
270.0008383236754
 21
113.2818509870659
 31
0.0
  0
LINE
  5
4CD
330
1F
100
AcDbEntity
  8
9
  6
Continuous
 62
     7
370
    35
100
AcDbLine
 10
253.3508383236739
 20
114.0852085534598
 30
0.0
 11
270.0008383236754
 21
114.0852085534603
 31
0.0
  0
ARC
  5
4CE
330
1F
100
AcDbEntity
  8
9
  6
Continuous
 62
     7
370
    35
100
AcDbCircle
 10
235.3508383236758
 20
102.2818509870695
 30
0.0
 40
15.0
100
AcDbArc
 50
0.0
 51
70.61166638270313
  0
LINE
  5
4CF
330
1F
100
AcDbEntity
  8
9
  6
Continuous
 62
     7
370
    35
100
AcDbLine
 10
254.3508383236739
 20
114.0852085534594
 30
0.0
 11
254.350838323673
 21
94.28185098700493
 31
0.0
  0
LINE
  5
4D0
330
1F
100
AcDbEntity
  8
9
  6
Continuous
 62
     7
370
    35
100
AcDbLine
 10
250.340706716478
 20
102.0220614212799
 30
0.0
 11
250.3508383236758
 21
92.78185098700811
 31
0.0
  0
LINE
  5
4D1
330
1F
100
AcDbEntity
  8
9
  6
Continuous
 62
     7
370
    35
100
AcDbLine
 10
250.3508383236758
 20
92.7818509870072
 30
0.0
 11
250.3508383236758
 21
102.281850987069
 31
0.0
  0
LINE
  5
4D2
330
1F
100
AcDbEntity
  8
9
  6
Continuous
 62
     7
370
    35
100
AcDbLine
 10
253.2618804725298
 20
114.093185687405
 30
0.0
 11
238.322922621387
 21
116.7941528181191
 31
0.0
  0
ARC
  5
4D3
330
1F
100
AcDbEntity
  8
9
  6
Continuous
 62
     7
370
    35
100
AcDbCircle
 10
238.5008383236754
 20
117.7781985502266
 30
0.0
 40
1.0
100
AcDbArc
 50
179.9999999999998
 51
259.7516211656064
  0
LINE
  5
4D4
330
1F
100
AcDbEntity
  8
9
  6
Continuous
 62
     7
370
    35
100
AcDbLine
 10
237.5008383236754
 20
117.7781985502266
 30
0.0
 11
237.5008383236754
 21
118.281850987069
 31
0.0
  0
ARC
  5
4D5
330
1F
100
AcDbEntity
  8
9
  6
Continuous
 62
     7
370
    35
100
AcDbCircle
 10
253.3508383236739
 20
114.5852085534598
 30
0.0
 40
0.5
100
AcDbArc
 50
259.7516211656064
 51
269.9999999999998
  0
LINE
  5
4D6
330
1F
100
AcDbEntity
  8
9
  6
Continuous
 62
     7
370
    35
100
AcDbLine
 10
270.0008383236754
 20
114.0852085534598
 30
0.0
 11
270.0008383236772
 21
94.28185098700538
 31
0.0
  0
ARC
  5
4D7
330
1F
100
AcDbEntity
  8
9
  6
Continuous
 62
     7
370
    35
100
AcDbCircle
 10
270.0008383236763
 20
92.7818509870063
 30
0.0
 40
1.499999999999091
100
AcDbArc
 50
0.0
 51
89.99999999999991
  0
ELLIPSE
  5
4D8
330
1F
100
AcDbEntity
  8
9
  6
Continuous
 62
     7
370
    35
100
AcDbEllipse
 10
271.5008383236763
 20
114.0852085534603
 30
0.0
 11
4.318980183710681E-15
 21
2.673389674331702
 31
0.0
210
0.0
220
0.0
230
1.0
 40
0.5610854318774396
 41
0.0000000000000062
 42
1.570796326794903
  0
LINE
  5
4D9
330
1F
100
AcDbEntity
  8
9
  6
Continuous
 62
     7
370
    35
100
AcDbLine
 10
268.4268467179767
 20
98.9394260962882
 30
0.0
 11
265.6268467179768
 21
98.93942609628832
 31
0.0
  0
LINE
  5
4DA
330
1F
100
AcDbEntity
  8
9
  6
Continuous
 62
     7
370
    35
100
AcDbLine
 10
267.7668467179766
 20
98.23942609628827
 30
0.0
 11
266.2868467179766
 21
98.23942609628827
 31
0.0
  0
LINE
  5
4DB
330
1F
100
AcDbEntity
  8
9
  6
Continuous
 62
     7
370
    35
100
AcDbLine
 10
267.8268467179767
 20
113.2818509870659
 30
0.0
 11
267.8268467179767
 21
105.3406156071646
 31
0.0
  0
LINE
  5
4DC
330
1F
100
AcDbEntity
  8
9
  6
Continuous
 62
     7
370
    35
100
AcDbLine
 10
267.7668467179766
 20
98.23942609628827
 30
0.0
 11
267.7668467179766
 21
98.78942609628834
 31
0.0
  0
ARC
  5
4DD
330
1F
100
AcDbEntity
  8
9
  6
Continuous
 62
     7
370
    35
100
AcDbCircle
 10
267.9168467179767
 20
98.78942609628834
 30
0.0
 40
0.1499999999999773
100
AcDbArc
 50
89.99999999999991
 51
179.9999999999998
  0
LINE
  5
4DE
330
1F
100
AcDbEntity
  8
9
  6
Continuous
 62
     7
370
    35
100
AcDbLine
 10
268.4268467179766
 20
99.83942609628832
 30
0.0
 11
268.4268467179767
 21
98.93942609628832
 31
0.0
  0
LINE
  5
4DF
330
1F
100
AcDbEntity
  8
9
  6
Continuous
 62
     7
370
    35
100
AcDbLine
 10
266.4268467179766
 20
113.2818509870659
 30
0.0
 11
266.4268467179766
 21
102.8394260962883
 31
0.0
  0
LINE
  5
4E0
330
1F
100
AcDbEntity
  8
9
  6
Continuous
 62
     7
370
    35
100
AcDbLine
 10
265.6268467179767
 20
99.83942609628835
 30
0.0
 11
265.6268467179768
 21
98.93942609628832
 31
0.0
  0
LINE
  5
4E1
330
1F
100
AcDbEntity
  8
9
  6
Continuous
 62
     7
370
    35
100
AcDbLine
 10
266.2868467179766
 20
98.23942609628827
 30
0.0
 11
266.2868467179766
 21
98.78942609628834
 31
0.0
  0
ARC
  5
4E2
330
1F
100
AcDbEntity
  8
9
  6
Continuous
 62
     7
370
    35
100
AcDbCircle
 10
266.1368467179768
 20
98.78942609628834
 30
0.0
 40
0.1499999999999773
100
AcDbArc
 50
0.0
 51
89.99999999999991
  0
ARC
  5
4E3
330
1F
100
AcDbEntity
  8
9
  6
Continuous
 62
     7
370
    35
100
AcDbCircle
 10
267.4508383236762
 20
103.1394260962883
 30
0.0
 40
0.3000000000000114
100
AcDbArc
 50
269.9999999999998
 51
0.0
  0
ARC
  5
4E4
330
1F
100
AcDbEntity
  8
9
  6
Continuous
 62
     7
370
    35
100
AcDbCircle
 10
271.5008383236762
 20
104.5894260962889
 30
0.0
 40
3.75
100
AcDbArc
 50
113.5781784782056
 51
179.9999999999998
  0
LINE
  5
4E5
330
1F
100
AcDbEntity
  8
9
  6
Continuous
 62
     7
370
    35
100
AcDbLine
 10
267.7508383236762
 20
104.5894260962889
 30
0.0
 11
267.7508383236762
 21
103.1394260962883
 31
0.0
  0
ARC
  5
4E6
330
1F
100
AcDbEntity
  8
9
  6
Continuous
 62
     7
370
    35
100
AcDbCircle
 10
271.5008383236762
 20
106.0394260962883
 30
0.0
 40
8.0
100
AcDbArc
 50
253.7224625911075
 51
259.1930771251443
  0
LINE
  5
4E7
330
1F
100
AcDbEntity
  8
9
  6
Continuous
 62
     7
370
    35
100
AcDbLine
 10
268.7508383236762
 20
99.23942609628821
 30
0.0
 11
268.7508383236762
 21
99.83942609628835
 31
0.0
  0
LINE
  5
4E8
330
1F
100
AcDbEntity
  8
9
  6
Continuous
 62
     7
370
    35
100
AcDbLine
 10
269.258515128722
 20
98.36010407612474
 30
0.0
 11
268.7508383236762
 21
99.23942609628821
 31
0.0
  0
LINE
  5
4E9
330
1F
100
AcDbEntity
  8
9
  6
Continuous
 62
     7
370
    35
100
AcDbLine
 10
264.5008383236762
 20
101.3394260962883
 30
0.0
 11
265.5008383236762
 21
102.5394260962883
 31
0.0
  0
LINE
  5
4EA
330
1F
100
AcDbEntity
  8
9
  6
Continuous
 62
     7
370
    35
100
AcDbLine
 10
270.0008383236764
 20
102.8394260962881
 30
0.0
 11
265.5008383236762
 21
102.8394260962883
 31
0.0
  0
LINE
  5
4EB
330
1F
100
AcDbEntity
  8
9
  6
Continuous
 62
     7
370
    35
100
AcDbLine
 10
265.5008383236762
 20
102.8394260962883
 30
0.0
 11
265.5008383236762
 21
102.5394260962883
 31
0.0
  0
LINE
  5
4EC
330
1F
100
AcDbEntity
  8
9
  6
Continuous
 62
     7
370
    35
100
AcDbLine
 10
264.5008383236762
 20
101.3394260962883
 30
0.0
 11
264.5008383236762
 21
101.0394260962883
 31
0.0
  0
LINE
  5
4ED
330
1F
100
AcDbEntity
  8
9
  6
Continuous
 62
     7
370
    35
100
AcDbLine
 10
260.0018467179762
 20
101.0394260962883
 30
0.0
 11
260.0018467179762
 21
99.83942609628835
 31
0.0
  0
LINE
  5
4EE
330
1F
100
AcDbEntity
  8
9
  6
Continuous
 62
     7
370
    35
100
AcDbLine
 10
282.9998299293762
 20
99.83942609628832
 30
0.0
 11
273.0008383236757
 21
99.83942609628829
 31
0.0
  0
LINE
  5
4EF
330
1F
100
AcDbEntity
  8
9
  6
Continuous
 62
     7
370
    35
100
AcDbLine
 10
282.9998299293762
 20
101.0394260962883
 30
0.0
 11
273.0008383236757
 21
101.0394260962883
 31
0.0
  0
ARC
  5
4F0
330
1F
100
AcDbEntity
  8
9
  6
Continuous
 62
     7
370
    35
100
AcDbCircle
 10
291.1508383236775
 20
92.78185098700718
 30
0.0
 40
1.499999999999091
100
AcDbArc
 50
270.000000000156
 51
89.99999999999991
  0
LINE
  5
4F1
330
1F
100
AcDbEntity
  8
9
  6
Continuous
 62
     7
370
    35
100
AcDbLine
 10
291.1508383236775
 20
91.28185098706902
 30
0.0
 11
251.8508383236749
 21
91.28185098706905
 31
0.0
  0
ARC
  5
4F2
330
1F
100
AcDbEntity
  8
9
  6
Continuous
 62
     7
370
    35
100
AcDbCircle
 10
251.8508383236749
 20
92.7818509870072
 30
0.0
 40
1.499999999999091
100
AcDbArc
 50
89.99999999999991
 51
269.9999999998433
  0
LINE
  5
4F3
330
1F
100
AcDbEntity
  8
9
  6
Continuous
 62
     7
370
    35
100
AcDbLine
 10
260.0018467179762
 20
101.0394260962883
 30
0.0
 11
270.0008383236767
 21
101.0394260962883
 31
0.0
  0
LINE
  5
4F4
330
1F
100
AcDbEntity
  8
9
  6
Continuous
 62
     7
370
    35
100
AcDbLine
 10
270.0008383236766
 20
99.83942609628829
 30
0.0
 11
260.0018467179762
 21
99.83942609628835
 31
0.0
  0
LINE
  5
4F5
330
1F
100
AcDbEntity
  8
9
  6
Continuous
 62
     7
370
    35
100
AcDbLine
 10
336.7767442793719
 20
118.2818509870677
 30
0.0
 11
206.2249323679807
 21
118.2818509870677
 31
0.0
  0
MTEXT
  5
4F6
330
1F
100
AcDbEntity
  8
6
  6
Continuous
 62
     3
370
     9
100
AcDbMText
 10
121.0008386856763
 20
3.005838690697828
 30
0.0
 40
3.3
 41
19.14566480112
 46
3.3
 71
     7
 72
     1
  1
{\fＭＳ Ｐゴシック;\W0.714286;尺度　1/1}
 73
     1
 44
1.0
1001
ACAD
1000
ACAD_MTEXT_DEFINED_HEIGHT_BEGIN
1070
    46
1040
3.3
1000
ACAD_MTEXT_DEFINED_HEIGHT_END
  0
MTEXT
  5
4F7
330
1F
100
AcDbEntity
  8
6
  6
Continuous
 62
     3
370
     9
100
AcDbMText
 10
302.0008379616762
 20
3.005838690697829
 30
0.0
 40
3.3
 41
19.14566480112
 46
3.3
 71
     7
 72
     1
  1
{\fＭＳ Ｐゴシック;\W0.714286;尺度　1/1}
 73
     1
 44
1.0
1001
ACAD
1000
ACAD_MTEXT_DEFINED_HEIGHT_BEGIN
1070
    46
1040
3.3
1000
ACAD_MTEXT_DEFINED_HEIGHT_END
  0
CIRCLE
  5
4F8
330
1F
100
AcDbEntity
  8
6
  6
Continuous
 62
     3
370
    25
100
AcDbCircle
 10
125.79590170683
 20
144.589112763675
 30
0.0
 40
5.0
  0
INSERT
  5
4F9
330
1F
100
AcDbEntity
  8
6
  6
Continuous
 62
     3
370
    25
100
AcDbBlockReference
  2
_OPEN
 10
113.2329220047243
 20
165.3963264500073
 30
0.0
 41
2.3
 42
2.3
 43
2.3
 50
121.1227400085845
  0
POLYLINE
  5
4FA
330
1F
100
AcDbEntity
  8
6
  6
Continuous
 62
     3
370
    25
100
AcDb2dPolyline
 66
     1
 10
0.0
 20
0.0
 30
0.0
  0
VERTEX
  5
4FB
330
4FA
100
AcDbEntity
  8
6
  6
Continuous
 62
     3
370
    25
100
AcDbVertex
100
AcDb2dVertex
 10
113.2329220047243
 20
165.3963264500073
 30
0.0
  0
VERTEX
  5
4FC
330
4FA
100
AcDbEntity
  8
6
  6
Continuous
 62
     3
370
    25
100
AcDbVertex
100
AcDb2dVertex
 10
123.2115360552059
 20
148.8694228200501
 30
0.0
  0
SEQEND
  5
4FD
330
4FA
100
AcDbEntity
  8
6
  6
Continuous
 62
     3
370
    25
  0
MTEXT
  5
4FE
330
1F
100
AcDbEntity
  8
6
  6
Continuous
 62
     3
370
     9
100
AcDbMText
 10
125.79590170683
 20
144.589112763675
 30
0.0
 40
6.6
 41
3.875992978967999
 46
6.6
 71
     5
 72
     1
  1
{\fＭＳ Ｐゴシック;\W0.714286;2}
 73
     1
 44
1.0
1001
ACAD
1000
ACAD_MTEXT_DEFINED_HEIGHT_BEGIN
1070
    46
1040
6.6
1000
ACAD_MTEXT_DEFINED_HEIGHT_END
  0
CIRCLE
  5
4FF
330
1F
100
AcDbEntity
  8
6
  6
Continuous
 62
     3
370
    25
100
AcDbCircle
 10
69.5186832512274
 20
134.1493792803931
 30
0.0
 40
5.0
  0
INSERT
  5
500
330
1F
100
AcDbEntity
  8
6
  6
Continuous
 62
     3
370
    25
100
AcDbBlockReference
  2
_OPEN
 10
85.22249201437934
 20
156.0820523277867
 30
0.0
 41
2.3
 42
2.3
 43
2.3
 50
54.39731080939969
  0
POLYLINE
  5
501
330
1F
100
AcDbEntity
  8
6
  6
Continuous
 62
     3
370
    25
100
AcDb2dPolyline
 66
     1
 10
0.0
 20
0.0
 30
0.0
  0
VERTEX
  5
502
330
501
100
AcDbEntity
  8
6
  6
Continuous
 62
     3
370
    25
100
AcDbVertex
100
AcDb2dVertex
 10
85.22249201437934
 20
156.0820523277867
 30
0.0
  0
VERTEX
  5
503
330
501
100
AcDbEntity
  8
6
  6
Continuous
 62
     3
370
    25
100
AcDbVertex
100
AcDb2dVertex
 10
72.42948891416478
 20
138.2147464707723
 30
0.0
  0
SEQEND
  5
504
330
501
100
AcDbEntity
  8
6
  6
Continuous
 62
     3
370
    25
  0
MTEXT
  5
505
330
1F
100
AcDbEntity
  8
6
  6
Continuous
 62
     3
370
     9
100
AcDbMText
 10
69.5186832512274
 20
134.1493792803931
 30
0.0
 40
6.6
 41
2.014980805992
 46
6.6
 71
     5
 72
     1
  1
{\fＭＳ Ｐゴシック;\W0.714286;1}
 73
     1
 44
1.0
1001
ACAD
1000
ACAD_MTEXT_DEFINED_HEIGHT_BEGIN
1070
    46
1040
6.6
1000
ACAD_MTEXT_DEFINED_HEIGHT_END
  0
MTEXT
  5
506
330
1F
100
AcDbEntity
  8
6
  6
Continuous
 62
     3
370
     9
100
AcDbMText
 10
302.0008379616762
 20
7.005838690697821
 30
0.0
 40
3.300000000000001
 41
73.75097521466401
 46
3.300000000000001
 71
     7
 72
     1
  1
{\fＭＳ Ｐゴシック;\W0.714286;RES-FⅡ　　ガードZNⅢ　　作動状態}
 73
     1
 44
1.0
1001
ACAD
1000
ACAD_MTEXT_DEFINED_HEIGHT_BEGIN
1070
    46
1040
3.300000000000001
1000
ACAD_MTEXT_DEFINED_HEIGHT_END
  0
MTEXT
  5
507
330
1F
100
AcDbEntity
  8
6
  6
Continuous
 62
     3
370
     9
100
AcDbMText
 10
121.0008386856763
 20
7.005838690697932
 30
0.0
 40
3.300000000000001
 41
73.75097521466401
 46
3.300000000000001
 71
     7
 72
     1
  1
{\fＭＳ Ｐゴシック;\W0.714286;RES-FⅡ　　ガードZNⅢ　　取付状態}
 73
     1
 44
1.0
1001
ACAD
1000
ACAD_MTEXT_DEFINED_HEIGHT_BEGIN
1070
    46
1040
3.300000000000001
1000
ACAD_MTEXT_DEFINED_HEIGHT_END
  0
VIEWPORT
  5
6A
330
1B
100
AcDbEntity
 67
     1
  8
0
100
AcDbViewport
 10
148.5
 20
105.0
 30
0.0
 40
297.0
 41
210.0
 68
     1
 69
     1
 12
148.5
 22
105.0
 13
0.0
 23
0.0
 14
0.5
 24
0.5
 15
0.5
 25
0.5
 16
0.0
 26
0.0
 36
1.0
 17
0.0
 27
0.0
 37
0.0
 42
50.0
 43
0.0
 44
0.0
 45
9.0
 50
0.0
 51
0.0
 72
   100
 90
   557152
  1

281
     0
 71
     1
 74
     0
110
0.0
120
0.0
130
0.0
111
1.0
121
0.0
131
0.0
112
0.0
122
1.0
132
0.0
 79
     0
146
0.0
170
     0
 61
     5
292
     1
282
     1
141
0.0
142
0.0
 63
   256
  0
ENDSEC
  0
SECTION
  2
OBJECTS
  0
DICTIONARY
  5
C
330
0
100
AcDbDictionary
281
     1
  3
ACAD_DETAILVIEWSTYLE
350
50C
  3
ACAD_GROUP
350
D
  3
ACAD_LAYOUT
350
1A
  3
ACAD_MATERIAL
350
43
  3
ACAD_MLEADERSTYLE
350
50B
  3
ACAD_MLINESTYLE
350
17
  3
ACAD_PLOTSETTINGS
350
19
  3
ACAD_PLOTSTYLENAME
350
E
  3
ACAD_SCALELIST
350
47
  3
ACAD_SECTIONVIEWSTYLE
350
50D
  3
ACAD_TABLESTYLE
350
50A
  3
ACAD_VISUALSTYLE
350
2A
  3
AcDbVariableDictionary
350
508
  0
SUN
  5
69
330
29
100
AcDbSun
 90
        1
290
     0
 63
     7
421
 16777215
 40
1.0
291
     1
 91
  2455826
 92
 54000000
292
     0
 70
     2
 71
   256
280
     1
  0
DICTIONARY
  5
50C
102
{ACAD_REACTORS
330
C
102
}
330
C
100
AcDbDictionary
281
     1
  0
DICTIONARY
  5
D
102
{ACAD_REACTORS
330
C
102
}
330
C
100
AcDbDictionary
281
     1
  0
DICTIONARY
  5
1A
102
{ACAD_REACTORS
330
C
102
}
330
C
100
AcDbDictionary
281
     1
  3
Layout1
350
1E
  3
Layout2
350
26
  3
Model
350
22
  0
DICTIONARY
  5
43
102
{ACAD_REACTORS
330
C
102
}
330
C
100
AcDbDictionary
281
     1
  3
ByBlock
350
45
  3
ByLayer
350
44
  3
Global
350
46
  0
DICTIONARY
  5
50B
102
{ACAD_REACTORS
330
C
102
}
330
C
100
AcDbDictionary
281
     1
  0
DICTIONARY
  5
17
102
{ACAD_REACTORS
330
C
102
}
330
C
100
AcDbDictionary
281
     1
  3
Standard
350
18
  0
DICTIONARY
  5
19
102
{ACAD_REACTORS
330
C
102
}
330
C
100
AcDbDictionary
281
     1
  0
ACDBDICTIONARYWDFLT
  5
E
102
{ACAD_REACTORS
330
C
102
}
330
C
100
AcDbDictionary
281
     1
  3
Normal
350
F
100
AcDbDictionaryWithDefault
340
F
  0
DICTIONARY
  5
47
102
{ACAD_REACTORS
330
C
102
}
330
C
100
AcDbDictionary
281
     1
  3
A0
350
48
  3
A1
350
49
  3
A2
350
4A
  3
A3
350
4B
  3
A4
350
4C
  3
A5
350
4D
  3
A6
350
4E
  3
A7
350
4F
  3
A8
350
50
  3
A9
350
51
  3
B0
350
52
  3
B1
350
53
  3
B2
350
54
  3
B3
350
55
  3
B4
350
56
  3
B5
350
57
  3
B6
350
58
  3
B7
350
59
  3
B8
350
5A
  3
B9
350
5B
  3
C0
350
5C
  3
C1
350
5D
  3
C2
350
5E
  3
C3
350
5F
  3
C4
350
60
  3
C5
350
61
  3
C6
350
62
  3
C7
350
63
  3
C8
350
64
  3
C9
350
65
  3
D0
350
66
  3
D1
350
67
  3
D2
350
68
  0
DICTIONARY
  5
50D
102
{ACAD_REACTORS
330
C
102
}
330
C
100
AcDbDictionary
281
     1
  0
DICTIONARY
  5
50A
102
{ACAD_REACTORS
330
C
102
}
330
C
100
AcDbDictionary
281
     1
  0
DICTIONARY
  5
2A
102
{ACAD_REACTORS
330
C
102
}
330
C
100
AcDbDictionary
281
     1
  3
2dWireframe
350
2F
  3
Basic
350
32
  3
Brighten
350
36
  3
ColorChange
350
3A
  3
Conceptual
350
34
  3
Dim
350
35
  3
EdgeColorOff
350
3D
  3
Facepattern
350
39
  3
Flat
350
2B
  3
FlatWithEdges
350
2C
  3
Gouraud
350
2D
  3
GouraudWithEdges
350
2E
  3
Hidden
350
31
  3
JitterOff
350
3B
  3
Linepattern
350
38
  3
OverhangOff
350
3C
  3
Realistic
350
33
  3
Shaded
350
42
  3
Shaded with edges
350
41
  3
Shades of Gray
350
3E
  3
Sketchy
350
3F
  3
Thicken
350
37
  3
Wireframe
350
30
  3
X-Ray
350
40
  0
DICTIONARY
  5
508
102
{ACAD_REACTORS
330
C
102
}
330
C
100
AcDbDictionary
281
     1
  3
CANNOSCALE
350
509
  0
LAYOUT
  5
1E
102
{ACAD_REACTORS
330
1A
102
}
330
1A
100
AcDbPlotSettings
  1

  2
none_device
  4

  6

 40
0.0
 41
0.0
 42
0.0
 43
0.0
 44
0.0
 45
0.0
 46
0.0
 47
0.0
 48
0.0
 49
0.0
140
0.0
141
0.0
142
1.0
143
1.0
 70
   688
 72
     0
 73
     0
 74
     5
  7

 75
    16
 76
     0
 77
     2
 78
   300
147
1.0
148
0.0
149
0.0
100
AcDbLayout
  1
Layout1
 70
     1
 71
     1
 10
0.0
 20
0.0
 11
297.0
 21
210.0
 12
0.0
 22
0.0
 32
0.0
 14
0.0
 24
0.0
 34
0.0
 15
297.0
 25
210.0
 35
0.0
146
0.0
 13
0.0
 23
0.0
 33
0.0
 16
1.0
 26
0.0
 36
0.0
 17
0.0
 27
1.0
 37
0.0
 76
     0
330
1B
331
6A
  0
LAYOUT
  5
26
102
{ACAD_REACTORS
330
1A
102
}
330
1A
100
AcDbPlotSettings
  1

  2
none_device
  4

  6

 40
0.0
 41
0.0
 42
0.0
 43
0.0
 44
0.0
 45
0.0
 46
0.0
 47
0.0
 48
0.0
 49
0.0
140
0.0
141
0.0
142
1.0
143
1.0
 70
   688
 72
     0
 73
     0
 74
     5
  7

 75
    16
 76
     0
 77
     2
 78
   300
147
1.0
148
0.0
149
0.0
100
AcDbLayout
  1
Layout2
 70
     1
 71
     2
 10
0.0
 20
0.0
 11
0.0
 21
0.0
 12
0.0
 22
0.0
 32
0.0
 14
0.0
 24
0.0
 34
0.0
 15
0.0
 25
0.0
 35
0.0
146
0.0
 13
0.0
 23
0.0
 33
0.0
 16
1.0
 26
0.0
 36
0.0
 17
0.0
 27
1.0
 37
0.0
 76
     0
330
23
  0
LAYOUT
  5
22
102
{ACAD_REACTORS
330
1A
102
}
330
1A
100
AcDbPlotSettings
  1

  2
none_device
  4
Letter_(8.50_x_11.00_Inches)
  6

 40
6.35
 41
6.35
 42
6.35000508
 43
6.35000508
 44
215.9
 45
279.4
 46
0.0
 47
0.0
 48
0.0
 49
0.0
140
0.0
141
0.0
142
1.0
143
1.0
 70
  1712
 72
     0
 73
     0
 74
     0
  7

 75
     0
 76
     0
 77
     2
 78
   300
147
1.0
148
0.0
149
0.0
100
AcDbLayout
  1
Model
 70
     1
 71
     0
 10
0.0
 20
0.0
 11
297.0
 21
210.0
 12
0.0
 22
0.0
 32
0.0
 14
0.0008394096764732
 24
0.0058386906978285
 34
0.0
 15
362.0008379616762
 25
283.0058386906978
 35
0.0
146
0.0
 13
0.0
 23
0.0
 33
0.0
 16
1.0
 26
0.0
 36
0.0
 17
0.0
 27
1.0
 37
0.0
 76
     0
330
1F
331
29
  0
MATERIAL
  5
45
102
{ACAD_REACTORS
330
43
102
}
330
43
100
AcDbMaterial
  1
ByBlock
 72
     1
 94
      127
  0
MATERIAL
  5
44
102
{ACAD_REACTORS
330
43
102
}
330
43
100
AcDbMaterial
  1
ByLayer
 72
     1
 94
      127
  0
MATERIAL
  5
46
102
{ACAD_REACTORS
330
43
102
}
330
43
100
AcDbMaterial
  1
Global
 72
     1
 94
      127
  0
MLINESTYLE
  5
18
102
{ACAD_REACTORS
330
17
102
}
330
17
100
AcDbMlineStyle
  2
Standard
 70
     0
  3

 62
   256
 51
90.0
 52
90.0
 71
     2
 49
0.5
 62
   256
  6
BYLAYER
 49
-0.5
 62
   256
  6
BYLAYER
  0
ACDBPLACEHOLDER
  5
F
102
{ACAD_REACTORS
330
E
102
}
330
E
  0
SCALE
  5
48
102
{ACAD_REACTORS
330
47
102
}
330
47
100
AcDbScale
 70
     0
300
1:1
140
1.0
141
1.0
290
     1
  0
SCALE
  5
49
102
{ACAD_REACTORS
330
47
102
}
330
47
100
AcDbScale
 70
     0
300
1:2
140
1.0
141
2.0
290
     0
  0
SCALE
  5
4A
102
{ACAD_REACTORS
330
47
102
}
330
47
100
AcDbScale
 70
     0
300
1:4
140
1.0
141
4.0
290
     0
  0
SCALE
  5
4B
102
{ACAD_REACTORS
330
47
102
}
330
47
100
AcDbScale
 70
     0
300
1:5
140
1.0
141
5.0
290
     0
  0
SCALE
  5
4C
102
{ACAD_REACTORS
330
47
102
}
330
47
100
AcDbScale
 70
     0
300
1:8
140
1.0
141
8.0
290
     0
  0
SCALE
  5
4D
102
{ACAD_REACTORS
330
47
102
}
330
47
100
AcDbScale
 70
     0
300
1:10
140
1.0
141
10.0
290
     0
  0
SCALE
  5
4E
102
{ACAD_REACTORS
330
47
102
}
330
47
100
AcDbScale
 70
     0
300
1:16
140
1.0
141
16.0
290
     0
  0
SCALE
  5
4F
102
{ACAD_REACTORS
330
47
102
}
330
47
100
AcDbScale
 70
     0
300
1:20
140
1.0
141
20.0
290
     0
  0
SCALE
  5
50
102
{ACAD_REACTORS
330
47
102
}
330
47
100
AcDbScale
 70
     0
300
1:30
140
1.0
141
30.0
290
     0
  0
SCALE
  5
51
102
{ACAD_REACTORS
330
47
102
}
330
47
100
AcDbScale
 70
     0
300
1:40
140
1.0
141
40.0
290
     0
  0
SCALE
  5
52
102
{ACAD_REACTORS
330
47
102
}
330
47
100
AcDbScale
 70
     0
300
1:50
140
1.0
141
50.0
290
     0
  0
SCALE
  5
53
102
{ACAD_REACTORS
330
47
102
}
330
47
100
AcDbScale
 70
     0
300
1:100
140
1.0
141
100.0
290
     0
  0
SCALE
  5
54
102
{ACAD_REACTORS
330
47
102
}
330
47
100
AcDbScale
 70
     0
300
2:1
140
2.0
141
1.0
290
     0
  0
SCALE
  5
55
102
{ACAD_REACTORS
330
47
102
}
330
47
100
AcDbScale
 70
     0
300
4:1
140
4.0
141
1.0
290
     0
  0
SCALE
  5
56
102
{ACAD_REACTORS
330
47
102
}
330
47
100
AcDbScale
 70
     0
300
8:1
140
8.0
141
1.0
290
     0
  0
SCALE
  5
57
102
{ACAD_REACTORS
330
47
102
}
330
47
100
AcDbScale
 70
     0
300
10:1
140
10.0
141
1.0
290
     0
  0
SCALE
  5
58
102
{ACAD_REACTORS
330
47
102
}
330
47
100
AcDbScale
 70
     0
300
100:1
140
100.0
141
1.0
290
     0
  0
SCALE
  5
59
102
{ACAD_REACTORS
330
47
102
}
330
47
100
AcDbScale
 70
     0
300
1/128" = 1'-0"
140
0.0078125
141
12.0
290
     0
  0
SCALE
  5
5A
102
{ACAD_REACTORS
330
47
102
}
330
47
100
AcDbScale
 70
     0
300
1/64" = 1'-0"
140
0.015625
141
12.0
290
     0
  0
SCALE
  5
5B
102
{ACAD_REACTORS
330
47
102
}
330
47
100
AcDbScale
 70
     0
300
1/32" = 1'-0"
140
0.03125
141
12.0
290
     0
  0
SCALE
  5
5C
102
{ACAD_REACTORS
330
47
102
}
330
47
100
AcDbScale
 70
     0
300
1/16" = 1'-0"
140
0.0625
141
12.0
290
     0
  0
SCALE
  5
5D
102
{ACAD_REACTORS
330
47
102
}
330
47
100
AcDbScale
 70
     0
300
3/32" = 1'-0"
140
0.09375
141
12.0
290
     0
  0
SCALE
  5
5E
102
{ACAD_REACTORS
330
47
102
}
330
47
100
AcDbScale
 70
     0
300
1/8" = 1'-0"
140
0.125
141
12.0
290
     0
  0
SCALE
  5
5F
102
{ACAD_REACTORS
330
47
102
}
330
47
100
AcDbScale
 70
     0
300
3/16" = 1'-0"
140
0.1875
141
12.0
290
     0
  0
SCALE
  5
60
102
{ACAD_REACTORS
330
47
102
}
330
47
100
AcDbScale
 70
     0
300
1/4" = 1'-0"
140
0.25
141
12.0
290
     0
  0
SCALE
  5
61
102
{ACAD_REACTORS
330
47
102
}
330
47
100
AcDbScale
 70
     0
300
3/8" = 1'-0"
140
0.375
141
12.0
290
     0
  0
SCALE
  5
62
102
{ACAD_REACTORS
330
47
102
}
330
47
100
AcDbScale
 70
     0
300
1/2" = 1'-0"
140
0.5
141
12.0
290
     0
  0
SCALE
  5
63
102
{ACAD_REACTORS
330
47
102
}
330
47
100
AcDbScale
 70
     0
300
3/4" = 1'-0"
140
0.75
141
12.0
290
     0
  0
SCALE
  5
64
102
{ACAD_REACTORS
330
47
102
}
330
47
100
AcDbScale
 70
     0
300
1" = 1'-0"
140
1.0
141
12.0
290
     0
  0
SCALE
  5
65
102
{ACAD_REACTORS
330
47
102
}
330
47
100
AcDbScale
 70
     0
300
1-1/2" = 1'-0"
140
1.5
141
12.0
290
     0
  0
SCALE
  5
66
102
{ACAD_REACTORS
330
47
102
}
330
47
100
AcDbScale
 70
     0
300
3" = 1'-0"
140
3.0
141
12.0
290
     0
  0
SCALE
  5
67
102
{ACAD_REACTORS
330
47
102
}
330
47
100
AcDbScale
 70
     0
300
6" = 1'-0"
140
6.0
141
12.0
290
     0
  0
SCALE
  5
68
102
{ACAD_REACTORS
330
47
102
}
330
47
100
AcDbScale
 70
     0
300
1'-0" = 1'-0"
140
12.0
141
12.0
290
     0
  0
VISUALSTYLE
  5
2F
102
{ACAD_REACTORS
330
2A
102
}
330
2A
100
AcDbVisualStyle
  2
2dWireframe
 70
     4
177
     3
291
     0
 70
    58
 90
        0
176
     1
 90
        2
176
     1
 90
        0
176
     1
 90
        0
176
     1
 40
0.6
176
     1
 40
30.0
176
     1
 62
     7
420
 16777215
176
     1
 90
        1
176
     1
 90
        4
176
     1
 62
     7
176
     1
 62
   257
176
     1
 90
        1
176
     1
 90
        1
176
     1
 40
1.0
176
     1
 90
        0
176
     1
 62
   257
176
     1
 40
1.0
176
     1
 90
        1
176
     1
 90
        6
176
     1
 90
        2
176
     1
 62
     7
176
     1
 90
        5
176
     1
 90
        0
176
     1
 90
        0
176
     1
290
     0
176
     1
 90
        1
176
     1
 40
0.0
176
     1
 90
        0
176
     1
290
     1
176
     1
290
     1
176
     1
290
     0
176
     1
290
     0
176
     1
290
     0
176
     1
290
     0
176
     1
290
     0
176
     1
290
     0
176
     1
290
     0
176
     1
 90
       50
176
     1
 40
0.0
176
     1
 40
1.0
176
     1
 90
        0
176
     1
 62
    18
420
        0
176
     1
 90
       50
176
     1
 90
        3
176
     1
 62
     5
420
      255
176
     1
290
     0
176
     1
 90
       50
176
     1
 90
       50
176
     1
 90
       50
176
     1
290
     0
176
     1
 90
       50
176
     1
 62
   256
176
     0
 40
1.0
176
     0
 90
        2
176
     1
  1
strokes_ogs.tif
176
     1
290
     0
176
     1
 40
1.0
176
     1
 40
1.0
176
     1
  0
VISUALSTYLE
  5
32
102
{ACAD_REACTORS
330
2A
102
}
330
2A
100
AcDbVisualStyle
  2
Basic
 70
     7
177
     3
291
     1
 70
    58
 90
        1
176
     1
 90
        0
176
     1
 90
        1
176
     1
 90
        0
176
     1
 40
0.6
176
     1
 40
30.0
176
     1
 62
     7
420
 16777215
176
     1
 90
        0
176
     1
 90
        4
176
     1
 62
     7
176
     1
 62
   257
176
     1
 90
        1
176
     1
 90
        1
176
     1
 40
1.0
176
     1
 90
        8
176
     1
 62
     7
176
     1
 40
1.0
176
     1
 90
        1
176
     1
 90
        6
176
     1
 90
        2
176
     1
 62
     7
176
     1
 90
        5
176
     1
 90
        0
176
     1
 90
        0
176
     1
290
     0
176
     1
 90
        1
176
     1
 40
0.0
176
     1
 90
        0
176
     1
290
     0
176
     1
290
     1
176
     1
290
     1
176
     1
290
     0
176
     1
290
     0
176
     1
290
     0
176
     1
290
     0
176
     1
290
     0
176
     1
290
     0
176
     1
 90
       50
176
     1
 40
0.0
176
     1
 40
1.0
176
     1
 90
        0
176
     1
 62
    18
420
        0
176
     1
 90
       50
176
     1
 90
        3
176
     1
 62
     5
420
      255
176
     1
290
     0
176
     1
 90
       50
176
     1
 90
       50
176
     1
 90
       50
176
     1
290
     0
176
     1
 90
       50
176
     1
 62
   256
176
     0
 40
1.0
176
     0
 90
        2
176
     1
  1
strokes_ogs.tif
176
     1
290
     0
176
     1
 40
1.0
176
     1
 40
1.0
176
     1
  0
VISUALSTYLE
  5
36
102
{ACAD_REACTORS
330
2A
102
}
330
2A
100
AcDbVisualStyle
  2
Brighten
 70
    12
177
     3
291
     1
 70
    58
 90
        2
176
     1
 90
        2
176
     1
 90
        0
176
     1
 90
        0
176
     1
 40
0.6
176
     1
 40
30.0
176
     1
 62
     7
420
 16777215
176
     1
 90
        1
176
     1
 90
        4
176
     1
 62
     7
176
     1
 62
   257
176
     1
 90
        1
176
     1
 90
        1
176
     1
 40
1.0
176
     1
 90
        8
176
     1
 62
     7
176
     1
 40
1.0
176
     1
 90
        1
176
     1
 90
        6
176
     1
 90
        2
176
     1
 62
     7
176
     1
 90
        5
176
     1
 90
        0
176
     1
 90
        0
176
     1
290
     0
176
     1
 90
        1
176
     1
 40
50.0
176
     1
 90
        0
176
     1
290
     0
176
     1
290
     1
176
     1
290
     1
176
     1
290
     0
176
     1
290
     0
176
     1
290
     0
176
     1
290
     0
176
     1
290
     0
176
     1
290
     0
176
     1
 90
       50
176
     1
 40
0.0
176
     1
 40
1.0
176
     1
 90
        0
176
     1
 62
    18
420
        0
176
     1
 90
       50
176
     1
 90
        3
176
     1
 62
     5
420
      255
176
     1
290
     0
176
     1
 90
       50
176
     1
 90
       50
176
     1
 90
       50
176
     1
290
     0
176
     1
 90
       50
176
     1
 62
   256
176
     0
 40
1.0
176
     0
 90
        2
176
     1
  1
strokes_ogs.tif
176
     1
290
     0
176
     1
 40
1.0
176
     1
 40
1.0
176
     1
  0
VISUALSTYLE
  5
3A
102
{ACAD_REACTORS
330
2A
102
}
330
2A
100
AcDbVisualStyle
  2
ColorChange
 70
    16
177
     3
291
     1
 70
    58
 90
        2
176
     1
 90
        2
176
     1
 90
        3
176
     1
 90
        0
176
     1
 40
0.6
176
     1
 40
30.0
176
     1
 62
     8
420
  8421504
176
     1
 90
        1
176
     1
 90
        4
176
     1
 62
     7
176
     1
 62
   257
176
     1
 90
        1
176
     1
 90
        1
176
     1
 40
1.0
176
     1
 90
        8
176
     1
 62
     8
420
  8421504
176
     1
 40
1.0
176
     1
 90
        1
176
     1
 90
        6
176
     1
 90
        2
176
     1
 62
     7
176
     1
 90
        5
176
     1
 90
        0
176
     1
 90
        0
176
     1
290
     0
176
     1
 90
        1
176
     1
 40
0.0
176
     1
 90
        0
176
     1
290
     0
176
     1
290
     1
176
     1
290
     1
176
     1
290
     0
176
     1
290
     0
176
     1
290
     0
176
     1
290
     0
176
     1
290
     0
176
     1
290
     0
176
     1
 90
       50
176
     1
 40
0.0
176
     1
 40
1.0
176
     1
 90
        0
176
     1
 62
    18
420
        0
176
     1
 90
       50
176
     1
 90
        3
176
     1
 62
     5
420
      255
176
     1
290
     0
176
     1
 90
       50
176
     1
 90
       50
176
     1
 90
       50
176
     1
290
     0
176
     1
 90
       50
176
     1
 62
   256
176
     0
 40
1.0
176
     0
 90
        2
176
     1
  1
strokes_ogs.tif
176
     1
290
     0
176
     1
 40
1.0
176
     1
 40
1.0
176
     1
  0
VISUALSTYLE
  5
34
102
{ACAD_REACTORS
330
2A
102
}
330
2A
100
AcDbVisualStyle
  2
Conceptual
 70
     9
177
     3
291
     0
 70
    58
 90
        3
176
     1
 90
        2
176
     1
 90
        0
176
     1
 90
        0
176
     1
 40
0.6
176
     1
 40
30.0
176
     1
 62
     7
420
 16777215
176
     1
 90
        2
176
     1
 90
        2
176
     1
 62
     7
176
     1
 62
   257
176
     1
 90
        1
176
     1
 90
        1
176
     1
 40
179.0
176
     1
 90
        8
176
     1
 62
     7
176
     1
 40
1.0
176
     1
 90
        1
176
     1
 90
        6
176
     1
 90
        2
176
     1
 62
     7
176
     1
 90
        3
176
     1
 90
        0
176
     1
 90
        0
176
     1
290
     0
176
     1
 90
        1
176
     1
 40
0.0
176
     1
 90
        0
176
     1
290
     0
176
     1
290
     1
176
     1
290
     1
176
     1
290
     0
176
     1
290
     0
176
     1
290
     0
176
     1
290
     0
176
     1
290
     0
176
     1
290
     0
176
     1
 90
       50
176
     1
 40
0.0
176
     1
 40
1.0
176
     1
 90
        0
176
     1
 62
    18
420
        0
176
     1
 90
       50
176
     1
 90
        3
176
     1
 62
     5
420
      255
176
     1
290
     0
176
     1
 90
       50
176
     1
 90
       50
176
     1
 90
       50
176
     1
290
     0
176
     1
 90
       50
176
     1
 62
   256
176
     0
 40
1.0
176
     0
 90
        2
176
     1
  1
strokes_ogs.tif
176
     1
290
     0
176
     1
 40
1.0
176
     1
 40
1.0
176
     1
  0
VISUALSTYLE
  5
35
102
{ACAD_REACTORS
330
2A
102
}
330
2A
100
AcDbVisualStyle
  2
Dim
 70
    11
177
     3
291
     1
 70
    58
 90
        2
176
     1
 90
        2
176
     1
 90
        0
176
     1
 90
        0
176
     1
 40
0.6
176
     1
 40
30.0
176
     1
 62
     7
420
 16777215
176
     1
 90
        1
176
     1
 90
        4
176
     1
 62
     7
176
     1
 62
   257
176
     1
 90
        1
176
     1
 90
        1
176
     1
 40
1.0
176
     1
 90
        8
176
     1
 62
     7
176
     1
 40
1.0
176
     1
 90
        1
176
     1
 90
        6
176
     1
 90
        2
176
     1
 62
     7
176
     1
 90
        5
176
     1
 90
        0
176
     1
 90
        0
176
     1
290
     0
176
     1
 90
        1
176
     1
 40
-50.0
176
     1
 90
        0
176
     1
290
     0
176
     1
290
     1
176
     1
290
     1
176
     1
290
     0
176
     1
290
     0
176
     1
290
     0
176
     1
290
     0
176
     1
290
     0
176
     1
290
     0
176
     1
 90
       50
176
     1
 40
0.0
176
     1
 40
1.0
176
     1
 90
        0
176
     1
 62
    18
420
        0
176
     1
 90
       50
176
     1
 90
        3
176
     1
 62
     5
420
      255
176
     1
290
     0
176
     1
 90
       50
176
     1
 90
       50
176
     1
 90
       50
176
     1
290
     0
176
     1
 90
       50
176
     1
 62
   256
176
     0
 40
1.0
176
     0
 90
        2
176
     1
  1
strokes_ogs.tif
176
     1
290
     0
176
     1
 40
1.0
176
     1
 40
1.0
176
     1
  0
VISUALSTYLE
  5
3D
102
{ACAD_REACTORS
330
2A
102
}
330
2A
100
AcDbVisualStyle
  2
EdgeColorOff
 70
    22
177
     3
291
     1
 70
    58
 90
        2
176
     0
 90
        2
176
     0
 90
        0
176
     0
 90
        0
176
     0
 40
0.6
176
     0
 40
30.0
176
     0
 62
     7
420
 16777215
176
     0
 90
        1
176
     0
 90
        4
176
     0
 62
     7
176
     0
 62
   257
176
     0
 90
        1
176
     0
 90
        1
176
     0
 40
1.0
176
     0
 90
        8
176
     2
 62
     7
176
     0
 40
1.0
176
     0
 90
        1
176
     0
 90
        6
176
     0
 90
        2
176
     0
 62
     7
176
     0
 90
        5
176
     0
 90
        0
176
     0
 90
        0
176
     0
290
     0
176
     0
 90
        1
176
     0
 40
0.0
176
     0
 90
        0
176
     0
290
     0
176
     0
290
     1
176
     0
290
     1
176
     0
290
     0
176
     0
290
     0
176
     0
290
     0
176
     0
290
     0
176
     0
290
     0
176
     0
290
     0
176
     0
 90
       50
176
     0
 40
0.0
176
     0
 40
1.0
176
     0
 90
        0
176
     0
 62
    18
420
        0
176
     0
 90
       50
176
     0
 90
        3
176
     0
 62
     5
420
      255
176
     0
290
     0
176
     0
 90
       50
176
     0
 90
       50
176
     0
 90
       50
176
     0
290
     0
176
     0
 90
       50
176
     0
 62
   256
176
     0
 40
1.0
176
     0
 90
        2
176
     0
  1
strokes_ogs.tif
176
     0
290
     0
176
     0
 40
1.0
176
     0
 40
1.0
176
     0
  0
VISUALSTYLE
  5
39
102
{ACAD_REACTORS
330
2A
102
}
330
2A
100
AcDbVisualStyle
  2
Facepattern
 70
    15
177
     3
291
     1
 70
    58
 90
        2
176
     1
 90
        2
176
     1
 90
        0
176
     1
 90
        0
176
     1
 40
0.6
176
     1
 40
30.0
176
     1
 62
     7
420
 16777215
176
     1
 90
        1
176
     1
 90
        4
176
     1
 62
     7
176
     1
 62
   257
176
     1
 90
        1
176
     1
 90
        1
176
     1
 40
1.0
176
     1
 90
        8
176
     1
 62
     7
176
     1
 40
1.0
176
     1
 90
        1
176
     1
 90
        6
176
     1
 90
        2
176
     1
 62
     7
176
     1
 90
        5
176
     1
 90
        0
176
     1
 90
        0
176
     1
290
     0
176
     1
 90
        1
176
     1
 40
0.0
176
     1
 90
        0
176
     1
290
     0
176
     1
290
     1
176
     1
290
     1
176
     1
290
     0
176
     1
290
     0
176
     1
290
     0
176
     1
290
     0
176
     1
290
     0
176
     1
290
     0
176
     1
 90
       50
176
     1
 40
0.0
176
     1
 40
1.0
176
     1
 90
        0
176
     1
 62
    18
420
        0
176
     1
 90
       50
176
     1
 90
        3
176
     1
 62
     5
420
      255
176
     1
290
     0
176
     1
 90
       50
176
     1
 90
       50
176
     1
 90
       50
176
     1
290
     0
176
     1
 90
       50
176
     1
 62
   256
176
     0
 40
1.0
176
     0
 90
        2
176
     1
  1
strokes_ogs.tif
176
     1
290
     0
176
     1
 40
1.0
176
     1
 40
1.0
176
     1
  0
VISUALSTYLE
  5
2B
102
{ACAD_REACTORS
330
2A
102
}
330
2A
100
AcDbVisualStyle
  2
Flat
 70
     0
177
     3
291
     1
 70
    58
 90
        2
176
     1
 90
        1
176
     1
 90
        1
176
     1
 90
        2
176
     1
 40
0.6
176
     1
 40
30.0
176
     1
 62
     7
420
 16777215
176
     1
 90
        0
176
     1
 90
        0
176
     1
 62
     7
176
     1
 62
   257
176
     1
 90
        1
176
     1
 90
        1
176
     1
 40
1.0
176
     1
 90
        8
176
     1
 62
     7
176
     1
 40
1.0
176
     1
 90
        1
176
     1
 90
        6
176
     1
 90
        2
176
     1
 62
     7
176
     1
 90
        5
176
     1
 90
        0
176
     1
 90
        0
176
     1
290
     0
176
     1
 90
       13
176
     1
 40
0.0
176
     1
 90
        0
176
     1
290
     0
176
     1
290
     1
176
     1
290
     1
176
     1
290
     0
176
     1
290
     0
176
     1
290
     0
176
     1
290
     0
176
     1
290
     0
176
     1
290
     0
176
     1
 90
       50
176
     1
 40
0.0
176
     1
 40
1.0
176
     1
 90
        0
176
     1
 62
    18
420
        0
176
     1
 90
       50
176
     1
 90
        3
176
     1
 62
     5
420
      255
176
     1
290
     0
176
     1
 90
       50
176
     1
 90
       50
176
     1
 90
       50
176
     1
290
     0
176
     1
 90
       50
176
     1
 62
   256
176
     0
 40
1.0
176
     0
 90
        2
176
     1
  1
strokes_ogs.tif
176
     1
290
     0
176
     1
 40
1.0
176
     1
 40
1.0
176
     1
  0
VISUALSTYLE
  5
2C
102
{ACAD_REACTORS
330
2A
102
}
330
2A
100
AcDbVisualStyle
  2
FlatWithEdges
 70
     1
177
     3
291
     1
 70
    58
 90
        2
176
     1
 90
        1
176
     1
 90
        1
176
     1
 90
        2
176
     1
 40
0.6
176
     1
 40
30.0
176
     1
 62
     7
420
 16777215
176
     1
 90
        1
176
     1
 90
        0
176
     1
 62
     7
176
     1
 62
   257
176
     1
 90
        1
176
     1
 90
        1
176
     1
 40
1.0
176
     1
 90
        0
176
     1
 62
   257
176
     1
 40
1.0
176
     1
 90
        1
176
     1
 90
        6
176
     1
 90
        2
176
     1
 62
     7
176
     1
 90
        5
176
     1
 90
        0
176
     1
 90
        0
176
     1
290
     0
176
     1
 90
       13
176
     1
 40
0.0
176
     1
 90
        0
176
     1
290
     0
176
     1
290
     1
176
     1
290
     1
176
     1
290
     0
176
     1
290
     0
176
     1
290
     0
176
     1
290
     0
176
     1
290
     0
176
     1
290
     0
176
     1
 90
       50
176
     1
 40
0.0
176
     1
 40
1.0
176
     1
 90
        0
176
     1
 62
    18
420
        0
176
     1
 90
       50
176
     1
 90
        3
176
     1
 62
     5
420
      255
176
     1
290
     0
176
     1
 90
       50
176
     1
 90
       50
176
     1
 90
       50
176
     1
290
     0
176
     1
 90
       50
176
     1
 62
   256
176
     0
 40
1.0
176
     0
 90
        2
176
     1
  1
strokes_ogs.tif
176
     1
290
     0
176
     1
 40
1.0
176
     1
 40
1.0
176
     1
  0
VISUALSTYLE
  5
2D
102
{ACAD_REACTORS
330
2A
102
}
330
2A
100
AcDbVisualStyle
  2
Gouraud
 70
     2
177
     3
291
     1
 70
    58
 90
        2
176
     1
 90
        2
176
     1
 90
        1
176
     1
 90
        2
176
     1
 40
0.6
176
     1
 40
30.0
176
     1
 62
     7
420
 16777215
176
     1
 90
        0
176
     1
 90
        0
176
     1
 62
     7
176
     1
 62
   257
176
     1
 90
        1
176
     1
 90
        1
176
     1
 40
1.0
176
     1
 90
        0
176
     1
 62
     7
176
     1
 40
1.0
176
     1
 90
        1
176
     1
 90
        6
176
     1
 90
        2
176
     1
 62
     7
176
     1
 90
        5
176
     1
 90
        0
176
     1
 90
        0
176
     1
290
     0
176
     1
 90
       13
176
     1
 40
0.0
176
     1
 90
        0
176
     1
290
     0
176
     1
290
     1
176
     1
290
     1
176
     1
290
     0
176
     1
290
     0
176
     1
290
     0
176
     1
290
     0
176
     1
290
     0
176
     1
290
     0
176
     1
 90
       50
176
     1
 40
0.0
176
     1
 40
1.0
176
     1
 90
        0
176
     1
 62
    18
420
        0
176
     1
 90
       50
176
     1
 90
        3
176
     1
 62
     5
420
      255
176
     1
290
     0
176
     1
 90
       50
176
     1
 90
       50
176
     1
 90
       50
176
     1
290
     0
176
     1
 90
       50
176
     1
 62
   256
176
     0
 40
1.0
176
     0
 90
        2
176
     1
  1
strokes_ogs.tif
176
     1
290
     0
176
     1
 40
1.0
176
     1
 40
1.0
176
     1
  0
VISUALSTYLE
  5
2E
102
{ACAD_REACTORS
330
2A
102
}
330
2A
100
AcDbVisualStyle
  2
GouraudWithEdges
 70
     3
177
     3
291
     1
 70
    58
 90
        2
176
     1
 90
        2
176
     1
 90
        1
176
     1
 90
        2
176
     1
 40
0.6
176
     1
 40
30.0
176
     1
 62
     7
420
 16777215
176
     1
 90
        1
176
     1
 90
        0
176
     1
 62
     7
176
     1
 62
   257
176
     1
 90
        1
176
     1
 90
        1
176
     1
 40
1.0
176
     1
 90
        0
176
     1
 62
   257
176
     1
 40
1.0
176
     1
 90
        1
176
     1
 90
        6
176
     1
 90
        2
176
     1
 62
     7
176
     1
 90
        5
176
     1
 90
        0
176
     1
 90
        0
176
     1
290
     0
176
     1
 90
       13
176
     1
 40
0.0
176
     1
 90
        0
176
     1
290
     0
176
     1
290
     1
176
     1
290
     1
176
     1
290
     0
176
     1
290
     0
176
     1
290
     0
176
     1
290
     0
176
     1
290
     0
176
     1
290
     0
176
     1
 90
       50
176
     1
 40
0.0
176
     1
 40
1.0
176
     1
 90
        0
176
     1
 62
    18
420
        0
176
     1
 90
       50
176
     1
 90
        3
176
     1
 62
     5
420
      255
176
     1
290
     0
176
     1
 90
       50
176
     1
 90
       50
176
     1
 90
       50
176
     1
290
     0
176
     1
 90
       50
176
     1
 62
   256
176
     0
 40
1.0
176
     0
 90
        2
176
     1
  1
strokes_ogs.tif
176
     1
290
     0
176
     1
 40
1.0
176
     1
 40
1.0
176
     1
  0
VISUALSTYLE
  5
31
102
{ACAD_REACTORS
330
2A
102
}
330
2A
100
AcDbVisualStyle
  2
Hidden
 70
     6
177
     3
291
     0
 70
    58
 90
        1
176
     1
 90
        2
176
     1
 90
        2
176
     1
 90
        0
176
     1
 40
0.6
176
     1
 40
30.0
176
     1
 62
     7
420
 16777215
176
     1
 90
        2
176
     1
 90
        2
176
     1
 62
     7
176
     1
 62
   257
176
     1
 90
        2
176
     1
 90
        1
176
     1
 40
40.0
176
     1
 90
        0
176
     1
 62
   257
176
     1
 40
1.0
176
     1
 90
        1
176
     1
 90
        6
176
     1
 90
        2
176
     1
 62
     7
176
     1
 90
        3
176
     1
 90
        0
176
     1
 90
        0
176
     1
290
     0
176
     1
 90
        1
176
     1
 40
0.0
176
     1
 90
        0
176
     1
290
     0
176
     1
290
     1
176
     1
290
     1
176
     1
290
     0
176
     1
290
     0
176
     1
290
     0
176
     1
290
     0
176
     1
290
     0
176
     1
290
     0
176
     1
 90
       50
176
     1
 40
0.0
176
     1
 40
1.0
176
     1
 90
        0
176
     1
 62
    18
420
        0
176
     1
 90
       50
176
     1
 90
        3
176
     1
 62
     5
420
      255
176
     1
290
     0
176
     1
 90
       50
176
     1
 90
       50
176
     1
 90
       50
176
     1
290
     0
176
     1
 90
       50
176
     1
 62
   256
176
     0
 40
1.0
176
     0
 90
        2
176
     1
  1
strokes_ogs.tif
176
     1
290
     0
176
     1
 40
1.0
176
     1
 40
1.0
176
     1
  0
VISUALSTYLE
  5
3B
102
{ACAD_REACTORS
330
2A
102
}
330
2A
100
AcDbVisualStyle
  2
JitterOff
 70
    20
177
     3
291
     1
 70
    58
 90
        2
176
     0
 90
        2
176
     0
 90
        0
176
     0
 90
        0
176
     0
 40
0.6
176
     0
 40
30.0
176
     0
 62
     7
420
 16777215
176
     0
 90
        1
176
     0
 90
        4
176
     0
 62
     7
176
     0
 62
   257
176
     0
 90
        1
176
     0
 90
        1
176
     0
 40
1.0
176
     0
 90
       10
176
     2
 62
     7
176
     0
 40
1.0
176
     0
 90
        1
176
     0
 90
        6
176
     0
 90
        2
176
     0
 62
     7
176
     0
 90
        5
176
     0
 90
        0
176
     0
 90
        0
176
     0
290
     0
176
     0
 90
        1
176
     0
 40
0.0
176
     0
 90
        0
176
     0
290
     0
176
     0
290
     1
176
     0
290
     1
176
     0
290
     0
176
     0
290
     0
176
     0
290
     0
176
     0
290
     0
176
     0
290
     0
176
     0
290
     0
176
     0
 90
       50
176
     0
 40
0.0
176
     0
 40
1.0
176
     0
 90
        0
176
     0
 62
    18
420
        0
176
     0
 90
       50
176
     0
 90
        3
176
     0
 62
     5
420
      255
176
     0
290
     0
176
     0
 90
       50
176
     0
 90
       50
176
     0
 90
       50
176
     0
290
     0
176
     0
 90
       50
176
     0
 62
   256
176
     0
 40
1.0
176
     0
 90
        2
176
     0
  1
strokes_ogs.tif
176
     0
290
     0
176
     0
 40
1.0
176
     0
 40
1.0
176
     0
  0
VISUALSTYLE
  5
38
102
{ACAD_REACTORS
330
2A
102
}
330
2A
100
AcDbVisualStyle
  2
Linepattern
 70
    14
177
     3
291
     1
 70
    58
 90
        2
176
     1
 90
        2
176
     1
 90
        0
176
     1
 90
        0
176
     1
 40
0.6
176
     1
 40
30.0
176
     1
 62
     7
420
 16777215
176
     1
 90
        1
176
     1
 90
        4
176
     1
 62
     7
176
     1
 62
   257
176
     1
 90
        7
176
     1
 90
        7
176
     1
 40
1.0
176
     1
 90
        8
176
     1
 62
     7
176
     1
 40
1.0
176
     1
 90
        1
176
     1
 90
        6
176
     1
 90
        2
176
     1
 62
     7
176
     1
 90
        5
176
     1
 90
        0
176
     1
 90
        0
176
     1
290
     0
176
     1
 90
        1
176
     1
 40
0.0
176
     1
 90
        0
176
     1
290
     0
176
     1
290
     1
176
     1
290
     1
176
     1
290
     0
176
     1
290
     0
176
     1
290
     0
176
     1
290
     0
176
     1
290
     0
176
     1
290
     0
176
     1
 90
       50
176
     1
 40
0.0
176
     1
 40
1.0
176
     1
 90
        0
176
     1
 62
    18
420
        0
176
     1
 90
       50
176
     1
 90
        3
176
     1
 62
     5
420
      255
176
     1
290
     0
176
     1
 90
       50
176
     1
 90
       50
176
     1
 90
       50
176
     1
290
     0
176
     1
 90
       50
176
     1
 62
   256
176
     0
 40
1.0
176
     0
 90
        2
176
     1
  1
strokes_ogs.tif
176
     1
290
     0
176
     1
 40
1.0
176
     1
 40
1.0
176
     1
  0
VISUALSTYLE
  5
3C
102
{ACAD_REACTORS
330
2A
102
}
330
2A
100
AcDbVisualStyle
  2
OverhangOff
 70
    21
177
     3
291
     1
 70
    58
 90
        2
176
     0
 90
        2
176
     0
 90
        0
176
     0
 90
        0
176
     0
 40
0.6
176
     0
 40
30.0
176
     0
 62
     7
420
 16777215
176
     0
 90
        1
176
     0
 90
        4
176
     0
 62
     7
176
     0
 62
   257
176
     0
 90
        1
176
     0
 90
        1
176
     0
 40
1.0
176
     0
 90
        9
176
     2
 62
     7
176
     0
 40
1.0
176
     0
 90
        1
176
     0
 90
        6
176
     0
 90
        2
176
     0
 62
     7
176
     0
 90
        5
176
     0
 90
        0
176
     0
 90
        0
176
     0
290
     0
176
     0
 90
        1
176
     0
 40
0.0
176
     0
 90
        0
176
     0
290
     0
176
     0
290
     1
176
     0
290
     1
176
     0
290
     0
176
     0
290
     0
176
     0
290
     0
176
     0
290
     0
176
     0
290
     0
176
     0
290
     0
176
     0
 90
       50
176
     0
 40
0.0
176
     0
 40
1.0
176
     0
 90
        0
176
     0
 62
    18
420
        0
176
     0
 90
       50
176
     0
 90
        3
176
     0
 62
     5
420
      255
176
     0
290
     0
176
     0
 90
       50
176
     0
 90
       50
176
     0
 90
       50
176
     0
290
     0
176
     0
 90
       50
176
     0
 62
   256
176
     0
 40
1.0
176
     0
 90
        2
176
     0
  1
strokes_ogs.tif
176
     0
290
     0
176
     0
 40
1.0
176
     0
 40
1.0
176
     0
  0
VISUALSTYLE
  5
33
102
{ACAD_REACTORS
330
2A
102
}
330
2A
100
AcDbVisualStyle
  2
Realistic
 70
     8
177
     3
291
     0
 70
    58
 90
        2
176
     1
 90
        3
176
     1
 90
        0
176
     1
 90
        2
176
     1
 40
0.6
176
     1
 40
30.0
176
     1
 62
     7
420
 16777215
176
     1
 90
        0
176
     1
 90
        0
176
     1
 62
     7
176
     1
 62
   257
176
     1
 90
        1
176
     1
 90
        1
176
     1
 40
1.0
176
     1
 90
        8
176
     1
 62
   257
176
     1
 40
1.0
176
     1
 90
        1
176
     1
 90
        6
176
     1
 90
        2
176
     1
 62
     7
176
     1
 90
        3
176
     1
 90
        0
176
     1
 90
        0
176
     1
290
     0
176
     1
 90
       13
176
     1
 40
0.0
176
     1
 90
        0
176
     1
290
     0
176
     1
290
     1
176
     1
290
     1
176
     1
290
     0
176
     1
290
     0
176
     1
290
     0
176
     1
290
     0
176
     1
290
     0
176
     1
290
     0
176
     1
 90
       50
176
     1
 40
0.0
176
     1
 40
1.0
176
     1
 90
        0
176
     1
 62
    18
420
        0
176
     1
 90
       50
176
     1
 90
        3
176
     1
 62
     5
420
      255
176
     1
290
     0
176
     1
 90
       50
176
     1
 90
       50
176
     1
 90
       50
176
     1
290
     0
176
     1
 90
       50
176
     1
 62
   256
176
     0
 40
1.0
176
     0
 90
        2
176
     1
  1
strokes_ogs.tif
176
     1
290
     0
176
     1
 40
1.0
176
     1
 40
1.0
176
     1
  0
VISUALSTYLE
  5
42
102
{ACAD_REACTORS
330
2A
102
}
330
2A
100
AcDbVisualStyle
  2
Shaded
 70
    27
177
     3
291
     0
 70
    58
 90
        2
176
     1
 90
        2
176
     1
 90
        1
176
     1
 90
        2
176
     1
 40
0.6
176
     1
 40
30.0
176
     1
 62
     7
420
 16777215
176
     1
 90
        0
176
     1
 90
        4
176
     1
 62
     7
176
     1
 62
   257
176
     1
 90
        1
176
     1
 90
        1
176
     1
 40
1.0
176
     1
 90
        8
176
     1
 62
   257
176
     1
 40
1.0
176
     1
 90
        1
176
     1
 90
        6
176
     1
 90
        2
176
     1
 62
     8
420
  7895160
176
     1
 90
        3
176
     1
 90
        0
176
     1
 90
        0
176
     1
290
     0
176
     1
 90
        5
176
     1
 40
0.0
176
     1
 90
        0
176
     1
290
     0
176
     1
290
     1
176
     1
290
     1
176
     1
290
     0
176
     1
290
     0
176
     1
290
     0
176
     1
290
     0
176
     1
290
     0
176
     1
290
     0
176
     1
 90
       50
176
     1
 40
0.0
176
     1
 40
1.0
176
     1
 90
        0
176
     1
 62
    18
420
        0
176
     1
 90
       50
176
     1
 90
        3
176
     1
 62
     5
420
      255
176
     1
290
     0
176
     1
 90
       50
176
     1
 90
       50
176
     1
 90
       50
176
     1
290
     0
176
     1
 90
       50
176
     1
 62
   256
176
     0
 40
1.0
176
     0
 90
        2
176
     1
  1
strokes_ogs.tif
176
     1
290
     0
176
     1
 40
1.0
176
     1
 40
1.0
176
     1
  0
VISUALSTYLE
  5
41
102
{ACAD_REACTORS
330
2A
102
}
330
2A
100
AcDbVisualStyle
  2
Shaded with edges
 70
    26
177
     3
291
     0
 70
    58
 90
        2
176
     1
 90
        2
176
     1
 90
        1
176
     1
 90
        2
176
     1
 40
0.6
176
     1
 40
30.0
176
     1
 62
     7
420
 16777215
176
     1
 90
        1
176
     1
 90
       10
176
     1
 62
     7
176
     1
 62
   257
176
     1
 90
        2
176
     1
 90
        1
176
     1
 40
1.0
176
     1
 90
        8
176
     1
 62
   257
176
     1
 40
1.0
176
     1
 90
        1
176
     1
 90
        6
176
     1
 90
        2
176
     1
 62
     7
176
     1
 90
        3
176
     1
 90
        0
176
     1
 90
        0
176
     1
290
     0
176
     1
 90
        5
176
     1
 40
0.0
176
     1
 90
        0
176
     1
290
     0
176
     1
290
     1
176
     1
290
     1
176
     1
290
     0
176
     1
290
     0
176
     1
290
     0
176
     1
290
     0
176
     1
290
     0
176
     1
290
     0
176
     1
 90
       50
176
     1
 40
0.0
176
     1
 40
1.0
176
     1
 90
        0
176
     1
 62
    18
420
        0
176
     1
 90
       50
176
     1
 90
        3
176
     1
 62
     5
420
      255
176
     1
290
     0
176
     1
 90
       50
176
     1
 90
       50
176
     1
 90
       50
176
     1
290
     0
176
     1
 90
       50
176
     1
 62
   256
176
     0
 40
1.0
176
     0
 90
        2
176
     1
  1
strokes_ogs.tif
176
     1
290
     0
176
     1
 40
1.0
176
     1
 40
1.0
176
     1
  0
VISUALSTYLE
  5
3E
102
{ACAD_REACTORS
330
2A
102
}
330
2A
100
AcDbVisualStyle
  2
Shades of Gray
 70
    23
177
     3
291
     0
 70
    58
 90
        2
176
     1
 90
        2
176
     1
 90
        3
176
     1
 90
        0
176
     1
 40
0.6
176
     1
 40
30.0
176
     1
 62
     7
420
 16777215
176
     1
 90
        2
176
     1
 90
        2
176
     1
 62
     7
176
     1
 62
     7
176
     1
 90
        1
176
     1
 90
        1
176
     1
 40
40.0
176
     1
 90
        8
176
     1
 62
     7
176
     1
 40
1.0
176
     1
 90
        1
176
     1
 90
        6
176
     1
 90
        2
176
     1
 62
     7
176
     1
 90
        3
176
     1
 90
        0
176
     1
 90
        0
176
     1
290
     0
176
     1
 90
        1
176
     1
 40
0.0
176
     1
 90
        0
176
     1
290
     0
176
     1
290
     1
176
     1
290
     1
176
     1
290
     0
176
     1
290
     0
176
     1
290
     0
176
     1
290
     0
176
     1
290
     0
176
     1
290
     0
176
     1
 90
       50
176
     1
 40
0.0
176
     1
 40
1.0
176
     1
 90
        0
176
     1
 62
    18
420
        0
176
     1
 90
       50
176
     1
 90
        3
176
     1
 62
     5
420
      255
176
     1
290
     0
176
     1
 90
       50
176
     1
 90
       50
176
     1
 90
       50
176
     1
290
     0
176
     1
 90
       50
176
     1
 62
   256
176
     0
 40
1.0
176
     0
 90
        2
176
     1
  1
strokes_ogs.tif
176
     1
290
     0
176
     1
 40
1.0
176
     1
 40
1.0
176
     1
  0
VISUALSTYLE
  5
3F
102
{ACAD_REACTORS
330
2A
102
}
330
2A
100
AcDbVisualStyle
  2
Sketchy
 70
    24
177
     3
291
     0
 70
    58
 90
        1
176
     1
 90
        2
176
     1
 90
        2
176
     1
 90
        0
176
     1
 40
0.6
176
     1
 40
30.0
176
     1
 62
     7
420
 16777215
176
     1
 90
        2
176
     1
 90
        2
176
     1
 62
     7
176
     1
 62
     7
176
     1
 90
        1
176
     1
 90
        1
176
     1
 40
40.0
176
     1
 90
       11
176
     1
 62
     7
176
     1
 40
1.0
176
     1
 90
        1
176
     1
 90
        6
176
     1
 90
        2
176
     1
 62
     7
176
     1
 90
        6
176
     1
 90
        0
176
     1
 90
        0
176
     1
290
     0
176
     1
 90
        1
176
     1
 40
0.0
176
     1
 90
        0
176
     1
290
     0
176
     1
290
     1
176
     1
290
     1
176
     1
290
     0
176
     1
290
     0
176
     1
290
     0
176
     1
290
     0
176
     1
290
     0
176
     1
290
     0
176
     1
 90
       50
176
     1
 40
0.0
176
     1
 40
1.0
176
     1
 90
        0
176
     1
 62
    18
420
        0
176
     1
 90
       50
176
     1
 90
        3
176
     1
 62
     5
420
      255
176
     1
290
     0
176
     1
 90
       50
176
     1
 90
       50
176
     1
 90
       50
176
     1
290
     0
176
     1
 90
       50
176
     1
 62
   256
176
     0
 40
1.0
176
     0
 90
        2
176
     1
  1
strokes_ogs.tif
176
     1
290
     0
176
     1
 40
1.0
176
     1
 40
1.0
176
     1
  0
VISUALSTYLE
  5
37
102
{ACAD_REACTORS
330
2A
102
}
330
2A
100
AcDbVisualStyle
  2
Thicken
 70
    13
177
     3
291
     1
 70
    58
 90
        2
176
     1
 90
        2
176
     1
 90
        0
176
     1
 90
        0
176
     1
 40
0.6
176
     1
 40
30.0
176
     1
 62
     7
420
 16777215
176
     1
 90
        1
176
     1
 90
        4
176
     1
 62
     7
176
     1
 62
   257
176
     1
 90
        1
176
     1
 90
        1
176
     1
 40
1.0
176
     1
 90
       12
176
     1
 62
     7
176
     1
 40
1.0
176
     1
 90
        1
176
     1
 90
        6
176
     1
 90
        2
176
     1
 62
     7
176
     1
 90
        5
176
     1
 90
        0
176
     1
 90
        0
176
     1
290
     0
176
     1
 90
        1
176
     1
 40
0.0
176
     1
 90
        0
176
     1
290
     0
176
     1
290
     1
176
     1
290
     1
176
     1
290
     0
176
     1
290
     0
176
     1
290
     0
176
     1
290
     0
176
     1
290
     0
176
     1
290
     0
176
     1
 90
       50
176
     1
 40
0.0
176
     1
 40
1.0
176
     1
 90
        0
176
     1
 62
    18
420
        0
176
     1
 90
       50
176
     1
 90
        3
176
     1
 62
     5
420
      255
176
     1
290
     0
176
     1
 90
       50
176
     1
 90
       50
176
     1
 90
       50
176
     1
290
     0
176
     1
 90
       50
176
     1
 62
   256
176
     0
 40
1.0
176
     0
 90
        2
176
     1
  1
strokes_ogs.tif
176
     1
290
     0
176
     1
 40
1.0
176
     1
 40
1.0
176
     1
  0
VISUALSTYLE
  5
30
102
{ACAD_REACTORS
330
2A
102
}
330
2A
100
AcDbVisualStyle
  2
Wireframe
 70
     5
177
     3
291
     0
 70
    58
 90
        0
176
     1
 90
        2
176
     1
 90
        0
176
     1
 90
        0
176
     1
 40
0.6
176
     1
 40
30.0
176
     1
 62
     7
420
 16777215
176
     1
 90
        1
176
     1
 90
        4
176
     1
 62
     7
176
     1
 62
   257
176
     1
 90
        1
176
     1
 90
        1
176
     1
 40
1.0
176
     1
 90
        0
176
     1
 62
   257
176
     1
 40
1.0
176
     1
 90
        1
176
     1
 90
        6
176
     1
 90
        2
176
     1
 62
     7
176
     1
 90
        3
176
     1
 90
        0
176
     1
 90
        0
176
     1
290
     0
176
     1
 90
        1
176
     1
 40
0.0
176
     1
 90
        0
176
     1
290
     0
176
     1
290
     1
176
     1
290
     1
176
     1
290
     0
176
     1
290
     0
176
     1
290
     0
176
     1
290
     0
176
     1
290
     0
176
     1
290
     0
176
     1
 90
       50
176
     1
 40
0.0
176
     1
 40
1.0
176
     1
 90
        0
176
     1
 62
    18
420
        0
176
     1
 90
       50
176
     1
 90
        3
176
     1
 62
     5
420
      255
176
     1
290
     0
176
     1
 90
       50
176
     1
 90
       50
176
     1
 90
       50
176
     1
290
     0
176
     1
 90
       50
176
     1
 62
   256
176
     0
 40
1.0
176
     0
 90
        2
176
     1
  1
strokes_ogs.tif
176
     1
290
     0
176
     1
 40
1.0
176
     1
 40
1.0
176
     1
  0
VISUALSTYLE
  5
40
102
{ACAD_REACTORS
330
2A
102
}
330
2A
100
AcDbVisualStyle
  2
X-Ray
 70
    25
177
     3
291
     0
 70
    58
 90
        2
176
     1
 90
        2
176
     1
 90
        1
176
     1
 90
        1
176
     1
 40
0.5
176
     1
 40
30.0
176
     1
 62
     7
420
 16777215
176
     1
 90
        1
176
     1
 90
        0
176
     1
 62
     7
176
     1
 62
   257
176
     1
 90
        1
176
     1
 90
        1
176
     1
 40
1.0
176
     1
 90
        8
176
     1
 62
     7
176
     1
 40
1.0
176
     1
 90
        1
176
     1
 90
        6
176
     1
 90
        2
176
     1
 62
     7
176
     1
 90
        3
176
     1
 90
        0
176
     1
 90
        0
176
     1
290
     0
176
     1
 90
       13
176
     1
 40
0.0
176
     1
 90
        0
176
     1
290
     0
176
     1
290
     1
176
     1
290
     1
176
     1
290
     0
176
     1
290
     0
176
     1
290
     0
176
     1
290
     0
176
     1
290
     0
176
     1
290
     0
176
     1
 90
       50
176
     1
 40
0.0
176
     1
 40
1.0
176
     1
 90
        0
176
     1
 62
    18
420
        0
176
     1
 90
       50
176
     1
 90
        3
176
     1
 62
     5
420
      255
176
     1
290
     0
176
     1
 90
       50
176
     1
 90
       50
176
     1
 90
       50
176
     1
290
     0
176
     1
 90
       50
176
     1
 62
   256
176
     0
 40
1.0
176
     0
 90
        2
176
     1
  1
strokes_ogs.tif
176
     1
290
     0
176
     1
 40
1.0
176
     1
 40
1.0
176
     1
  0
DICTIONARYVAR
  5
509
102
{ACAD_REACTORS
330
508
102
}
330
508
100
DictionaryVariables
280
     0
  1
1:1
  0
ENDSEC
  0
EOF
