  0
SECTION
  2
HEADER
  9
$ACADVER
  1
AC1015
  9
$ACADMAINTVER
 70
     6
  9
$DWGCODEPAGE
  3
ANSI_932
  9
$INSBASE
 10
0.0
 20
0.0
 30
0.0
  9
$EXTMIN
 10
86.9977116767327
 20
0.0124959948152537
 30
0.0
  9
$EXTMAX
 10
358.4977105907326
 20
409.5124959948156
 30
0.0
  9
$LIMMIN
 10
0.0
 20
0.0
  9
$LIMMAX
 10
297.0
 20
210.0
  9
$ORTHOMODE
 70
     0
  9
$REGENMODE
 70
     1
  9
$FILLMODE
 70
     1
  9
$QTEXTMODE
 70
     0
  9
$MIRRTEXT
 70
     1
  9
$LTSCALE
 40
0.375
  9
$ATTMODE
 70
     1
  9
$TEXTSIZE
 40
7.5
  9
$TRACEWID
 40
0.05
  9
$TEXTSTYLE
  7
Standard
  9
$CLAYER
  8
0
  9
$CELTYPE
  6
ByLayer
  9
$CECOLOR
 62
   256
  9
$CELTSCALE
 40
1.0
  9
$DISPSILH
 70
     0
  9
$DIMSCALE
 40
1.0
  9
$DIMASZ
 40
2.3
  9
$DIMEXO
 40
1.0
  9
$DIMDLI
 40
30.0
  9
$DIMRND
 40
0.0
  9
$DIMDLE
 40
0.0
  9
$DIMEXE
 40
1.0
  9
$DIMTP
 40
0.0
  9
$DIMTM
 40
0.0
  9
$DIMTXT
 40
3.3
  9
$DIMCEN
 40
0.09
  9
$DIMTSZ
 40
0.0
  9
$DIMTOL
 70
     0
  9
$DIMLIM
 70
     0
  9
$DIMTIH
 70
     0
  9
$DIMTOH
 70
     0
  9
$DIMSE1
 70
     0
  9
$DIMSE2
 70
     0
  9
$DIMTAD
 70
     3
  9
$DIMZIN
 70
     8
  9
$DIMBLK
  1

  9
$DIMASO
 70
     1
  9
$DIMSHO
 70
     1
  9
$DIMPOST
  1

  9
$DIMAPOST
  1

  9
$DIMALT
 70
     0
  9
$DIMALTD
 70
     2
  9
$DIMALTF
 40
25.4
  9
$DIMLFAC
 40
1.0
  9
$DIMTOFL
 70
     1
  9
$DIMTVP
 40
0.7
  9
$DIMTIX
 70
     0
  9
$DIMSOXD
 70
     0
  9
$DIMSAH
 70
     0
  9
$DIMBLK1
  1

  9
$DIMBLK2
  1

  9
$DIMSTYLE
  2
Standard
  9
$DIMCLRD
 70
     0
  9
$DIMCLRE
 70
     0
  9
$DIMCLRT
 70
     0
  9
$DIMTFAC
 40
0.5
  9
$DIMGAP
 40
0.09
  9
$DIMJUST
 70
     0
  9
$DIMSD1
 70
     0
  9
$DIMSD2
 70
     0
  9
$DIMTOLJ
 70
     1
  9
$DIMTZIN
 70
     8
  9
$DIMALTZ
 70
     0
  9
$DIMALTTZ
 70
     0
  9
$DIMUPT
 70
     1
  9
$DIMDEC
 70
     2
  9
$DIMTDEC
 70
     4
  9
$DIMALTU
 70
     2
  9
$DIMALTTD
 70
     2
  9
$DIMTXSTY
  7
Standard
  9
$DIMAUNIT
 70
     0
  9
$DIMADEC
 70
     0
  9
$DIMALTRND
 40
0.0
  9
$DIMAZIN
 70
     0
  9
$DIMDSEP
 70
    46
  9
$DIMATFIT
 70
     2
  9
$DIMFRAC
 70
     0
  9
$DIMLDRBLK
  1

  9
$DIMLUNIT
 70
     2
  9
$DIMLWD
 70
    -2
  9
$DIMLWE
 70
    -2
  9
$DIMTMOVE
 70
     2
  9
$LUNITS
 70
     2
  9
$LUPREC
 70
     4
  9
$SKETCHINC
 40
0.1
  9
$FILLETRAD
 40
0.5
  9
$AUNITS
 70
     0
  9
$AUPREC
 70
     0
  9
$MENU
  1
.
  9
$ELEVATION
 40
0.0
  9
$PELEVATION
 40
0.0
  9
$THICKNESS
 40
0.0
  9
$LIMCHECK
 70
     0
  9
$CHAMFERA
 40
0.0
  9
$CHAMFERB
 40
0.0
  9
$CHAMFERC
 40
0.0
  9
$CHAMFERD
 40
0.0
  9
$SKPOLY
 70
     0
  9
$TDCREATE
 40
2458193.775671296
  9
$TDUCREATE
 40
2458193.400671296
  9
$TDUPDATE
 40
2458193.400676088
  9
$TDUUPDATE
 40
2458193.025676088
  9
$TDINDWG
 40
0.0000000116
  9
$TDUSRTIMER
 40
0.0000000116
  9
$USRTIMER
 70
     1
  9
$ANGBASE
 50
0.0
  9
$ANGDIR
 70
     0
  9
$PDMODE
 70
     0
  9
$PDSIZE
 40
0.0
  9
$PLINEWID
 40
0.0
  9
$SPLFRAME
 70
     0
  9
$SPLINETYPE
 70
     6
  9
$SPLINESEGS
 70
     8
  9
$HANDSEED
  5
3EB
  9
$SURFTAB1
 70
     6
  9
$SURFTAB2
 70
     6
  9
$SURFTYPE
 70
     6
  9
$SURFU
 70
     6
  9
$SURFV
 70
     6
  9
$UCSBASE
  2

  9
$UCSNAME
  2

  9
$UCSORG
 10
0.0
 20
0.0
 30
0.0
  9
$UCSXDIR
 10
1.0
 20
0.0
 30
0.0
  9
$UCSYDIR
 10
0.0
 20
1.0
 30
0.0
  9
$UCSORTHOREF
  2

  9
$UCSORTHOVIEW
 70
     0
  9
$UCSORGTOP
 10
0.0
 20
0.0
 30
0.0
  9
$UCSORGBOTTOM
 10
0.0
 20
0.0
 30
0.0
  9
$UCSORGLEFT
 10
0.0
 20
0.0
 30
0.0
  9
$UCSORGRIGHT
 10
0.0
 20
0.0
 30
0.0
  9
$UCSORGFRONT
 10
0.0
 20
0.0
 30
0.0
  9
$UCSORGBACK
 10
0.0
 20
0.0
 30
0.0
  9
$PUCSBASE
  2

  9
$PUCSNAME
  2

  9
$PUCSORG
 10
0.0
 20
0.0
 30
0.0
  9
$PUCSXDIR
 10
1.0
 20
0.0
 30
0.0
  9
$PUCSYDIR
 10
0.0
 20
1.0
 30
0.0
  9
$PUCSORTHOREF
  2

  9
$PUCSORTHOVIEW
 70
     0
  9
$PUCSORGTOP
 10
0.0
 20
0.0
 30
0.0
  9
$PUCSORGBOTTOM
 10
0.0
 20
0.0
 30
0.0
  9
$PUCSORGLEFT
 10
0.0
 20
0.0
 30
0.0
  9
$PUCSORGRIGHT
 10
0.0
 20
0.0
 30
0.0
  9
$PUCSORGFRONT
 10
0.0
 20
0.0
 30
0.0
  9
$PUCSORGBACK
 10
0.0
 20
0.0
 30
0.0
  9
$USERI1
 70
     0
  9
$USERI2
 70
     0
  9
$USERI3
 70
     0
  9
$USERI4
 70
     0
  9
$USERI5
 70
     0
  9
$USERR1
 40
0.0
  9
$USERR2
 40
0.0
  9
$USERR3
 40
0.0
  9
$USERR4
 40
0.0
  9
$USERR5
 40
0.0
  9
$WORLDVIEW
 70
     1
  9
$SHADEDGE
 70
     3
  9
$SHADEDIF
 70
    70
  9
$TILEMODE
 70
     1
  9
$MAXACTVP
 70
    64
  9
$PINSBASE
 10
0.0
 20
0.0
 30
0.0
  9
$PLIMCHECK
 70
     0
  9
$PEXTMIN
 10
0.0
 20
0.0
 30
0.0
  9
$PEXTMAX
 10
297.0
 20
210.0
 30
0.0
  9
$PLIMMIN
 10
0.0
 20
0.0
  9
$PLIMMAX
 10
297.0
 20
210.0
  9
$UNITMODE
 70
     0
  9
$VISRETAIN
 70
     1
  9
$PLINEGEN
 70
     0
  9
$PSLTSCALE
 70
     1
  9
$TREEDEPTH
 70
  3020
  9
$CMLSTYLE
  2
Standard
  9
$CMLJUST
 70
     0
  9
$CMLSCALE
 40
1.0
  9
$PROXYGRAPHICS
 70
     1
  9
$MEASUREMENT
 70
     1
  9
$CELWEIGHT
370
    -1
  9
$ENDCAPS
280
     0
  9
$JOINSTYLE
280
     0
  9
$LWDISPLAY
290
     0
  9
$INSUNITS
 70
     4
  9
$HYPERLINKBASE
  1

  9
$STYLESHEET
  1

  9
$XEDIT
290
     1
  9
$CEPSNTYPE
380
     0
  9
$PSTYLEMODE
290
     1
  9
$FINGERPRINTGUID
  2
{7AB9CF36-5EA9-4FED-AB36-3D8248CD1FA9}
  9
$VERSIONGUID
  2
{FAEB1C32-E019-11D5-929B-00C0DF256EC4}
  9
$EXTNAMES
290
     1
  9
$PSVPSCALE
 40
0.0
  9
$OLESTARTUP
290
     0
  0
ENDSEC
  0
SECTION
  2
CLASSES
  0
CLASS
  1
ACDBDICTIONARYWDFLT
  2
AcDbDictionaryWithDefault
  3
ObjectDBX Classes
 90
        0
280
     0
281
     0
  0
CLASS
  1
VISUALSTYLE
  2
AcDbVisualStyle
  3
ObjectDBX Classes
 90
     4095
280
     0
281
     0
  0
CLASS
  1
MATERIAL
  2
AcDbMaterial
  3
ObjectDBX Classes
 90
     1153
280
     0
281
     0
  0
CLASS
  1
SCALE
  2
AcDbScale
  3
ObjectDBX Classes
 90
     1153
280
     0
281
     0
  0
CLASS
  1
SUN
  2
AcDbSun
  3
SCENEOE
 90
     1153
280
     0
281
     0
  0
CLASS
  1
DICTIONARYVAR
  2
AcDbDictionaryVar
  3
ObjectDBX Classes
 90
        0
280
     0
281
     0
  0
CLASS
  1
ACDBPLACEHOLDER
  2
AcDbPlaceHolder
  3
ObjectDBX Classes
 90
        0
280
     0
281
     0
  0
CLASS
  1
LAYOUT
  2
AcDbLayout
  3
ObjectDBX Classes
 90
        0
280
     0
281
     0
  0
ENDSEC
  0
SECTION
  2
TABLES
  0
TABLE
  2
VPORT
  5
8
102
{ACAD_XDICTIONARY
360
3B1
102
}
330
0
100
AcDbSymbolTable
 70
     1
  0
VPORT
  5
29
330
8
100
AcDbSymbolTableRecord
100
AcDbViewportTableRecord
  2
*Active
 70
     0
 10
0.0
 20
0.0
 11
1.0
 21
1.0
 12
10.42990654205607
 22
4.5
 13
0.0
 23
0.0
 14
0.5
 24
0.5
 15
0.5
 25
0.5
 16
0.0
 26
0.0
 36
1.0
 17
0.0
 27
0.0
 37
0.0
 40
9.0
 41
1.972972972850329
 42
50.0
 43
0.0
 44
0.0
 50
0.0
 51
0.0
 71
     0
 72
   100
 73
     1
 74
     3
 75
     0
 76
     0
 77
     0
 78
     0
281
     0
 65
     1
110
0.0
120
0.0
130
0.0
111
1.0
121
0.0
131
0.0
112
0.0
122
1.0
132
0.0
 79
     0
146
0.0
  0
ENDTAB
  0
TABLE
  2
LTYPE
  5
5
330
0
100
AcDbSymbolTable
 70
     9
  0
LTYPE
  5
14
330
5
100
AcDbSymbolTableRecord
100
AcDbLinetypeTableRecord
  2
ByBlock
 70
     0
  3

 72
    65
 73
     0
 40
0.0
  0
LTYPE
  5
15
330
5
100
AcDbSymbolTableRecord
100
AcDbLinetypeTableRecord
  2
ByLayer
 70
     0
  3

 72
    65
 73
     0
 40
0.0
  0
LTYPE
  5
16
330
5
100
AcDbSymbolTableRecord
100
AcDbLinetypeTableRecord
  2
Continuous
 70
     0
  3
Solid line
 72
    65
 73
     0
 40
0.0
  0
LTYPE
  5
B9
330
5
100
AcDbSymbolTableRecord
100
AcDbLinetypeTableRecord
  2
DOT
 70
     0
  3
DOT
 72
    65
 73
     2
 40
4.0
 49
6.0
 74
     0
 49
-2.0
 74
     0
  0
LTYPE
  5
BA
330
5
100
AcDbSymbolTableRecord
100
AcDbLinetypeTableRecord
  2
HIDDEN
 70
     0
  3
HIDDEN
 72
    65
 73
     2
 40
4.2
 49
8.4
 74
     0
 49
-4.2
 74
     0
  0
LTYPE
  5
BB
330
5
100
AcDbSymbolTableRecord
100
AcDbLinetypeTableRecord
  2
DASHDOT
 70
     0
  3
DASHDOT
 72
    65
 73
     4
 40
14.5
 49
30.0
 74
     0
 49
-9.0
 74
     0
 49
2.5
 74
     0
 49
-9.0
 74
     0
  0
LTYPE
  5
BC
330
5
100
AcDbSymbolTableRecord
100
AcDbLinetypeTableRecord
  2
PHANTOM
 70
     0
  3
PHANTOM
 72
    65
 73
     6
 40
12.0
 49
30.0
 74
     0
 49
-9.0
 74
     0
 49
2.5
 74
     0
 49
-5.0
 74
     0
 49
2.5
 74
     0
 49
-9.0
 74
     0
  0
LTYPE
  5
BD
330
5
100
AcDbSymbolTableRecord
100
AcDbLinetypeTableRecord
  2
ACAD_ISO14W100
 70
     0
  3
ACAD_ISO14W100
 72
    65
 73
     8
 40
1.5
 49
12.0
 74
     0
 49
-3.0
 74
     0
 49
0.5
 74
     0
 49
-3.0
 74
     0
 49
0.5
 74
     0
 49
-3.0
 74
     0
 49
0.5
 74
     0
 49
-3.0
 74
     0
  0
LTYPE
  5
BE
330
5
100
AcDbSymbolTableRecord
100
AcDbLinetypeTableRecord
  2
ACAD_ISO06W100
 70
     0
  3
ACAD_ISO06W100
 72
    65
 73
     8
 40
13.5
 49
24.0
 74
     0
 49
-3.0
 74
     0
 49
0.5
 74
     0
 49
-3.0
 74
     0
 49
0.5
 74
     0
 49
-3.0
 74
     0
 49
0.5
 74
     0
 49
-3.0
 74
     0
  0
LTYPE
  5
BF
330
5
100
AcDbSymbolTableRecord
100
AcDbLinetypeTableRecord
  2
ACAD_ISO11W100
 70
     0
  3
ACAD_ISO11W100
 72
    65
 73
     6
 40
15.5
 49
12.0
 74
     0
 49
-3.0
 74
     0
 49
12.0
 74
     0
 49
-3.0
 74
     0
 49
0.5
 74
     0
 49
-3.0
 74
     0
  0
LTYPE
  5
C0
330
5
100
AcDbSymbolTableRecord
100
AcDbLinetypeTableRecord
  2
ACAD_ISO13W100
 70
     0
  3
ACAD_ISO13W100
 72
    65
 73
     8
 40
13.0
 49
12.0
 74
     0
 49
-3.0
 74
     0
 49
12.0
 74
     0
 49
-3.0
 74
     0
 49
0.5
 74
     0
 49
-3.0
 74
     0
 49
0.5
 74
     0
 49
-3.0
 74
     0
  0
ENDTAB
  0
TABLE
  2
LAYER
  5
2
330
0
100
AcDbSymbolTable
 70
    34
  0
LAYER
  5
10
330
2
100
AcDbSymbolTableRecord
100
AcDbLayerTableRecord
  2
0
 70
     0
 62
     6
  6
Continuous
370
    53
390
F
  0
LAYER
  5
C1
330
2
100
AcDbSymbolTableRecord
100
AcDbLayerTableRecord
  2
HASEN
 70
     0
 62
     2
  6
HIDDEN
370
    25
390
F
  0
LAYER
  5
C2
330
2
100
AcDbSymbolTableRecord
100
AcDbLayerTableRecord
  2
ITTEN
 70
     0
 62
     1
  6
DASHDOT
370
    25
390
F
  0
LAYER
  5
C3
330
2
100
AcDbSymbolTableRecord
100
AcDbLayerTableRecord
  2
NITEN
 70
     0
 62
     2
  6
PHANTOM
370
    25
390
F
  0
LAYER
  5
C4
330
2
100
AcDbSymbolTableRecord
100
AcDbLayerTableRecord
  2
HATCH
 70
     0
 62
     4
  6
Continuous
370
    25
390
F
  0
LAYER
  5
C5
330
2
100
AcDbSymbolTableRecord
100
AcDbLayerTableRecord
  2
SUNPOU
 70
     0
 62
     3
  6
Continuous
370
    25
390
F
  0
LAYER
  5
C6
330
2
100
AcDbSymbolTableRecord
100
AcDbLayerTableRecord
  2
TEXT
 70
     0
 62
     3
  6
Continuous
370
    25
390
F
  0
LAYER
  5
C7
330
2
100
AcDbSymbolTableRecord
100
AcDbLayerTableRecord
  2
SAISEN
 70
     0
 62
     4
  6
Continuous
370
    25
390
F
  0
LAYER
  5
C8
330
2
100
AcDbSymbolTableRecord
100
AcDbLayerTableRecord
  2
JISSEN
 70
     0
 62
     7
  6
Continuous
370
    35
390
F
  0
LAYER
  5
C9
330
2
100
AcDbSymbolTableRecord
100
AcDbLayerTableRecord
  2
HOJO
 70
     0
 62
     6
  6
Continuous
370
    53
390
F
  0
LAYER
  5
CA
330
2
100
AcDbSymbolTableRecord
100
AcDbLayerTableRecord
  2
TENSEN
 70
     0
 62
     2
  6
HIDDEN
370
    25
390
F
  0
LAYER
  5
CB
330
2
100
AcDbSymbolTableRecord
100
AcDbLayerTableRecord
  2
WAKU
 70
     0
 62
     5
  6
Continuous
370
    53
390
F
  0
LAYER
  5
CC
330
2
100
AcDbSymbolTableRecord
100
AcDbLayerTableRecord
  2
DEFPOINTS
 70
     0
 62
     7
  6
Continuous
290
     0
370
     9
390
F
  0
LAYER
  5
CD
330
2
100
AcDbSymbolTableRecord
100
AcDbLayerTableRecord
  2
HOJYO
 70
     0
 62
     7
  6
Continuous
370
     9
390
F
  0
LAYER
  5
CE
330
2
100
AcDbSymbolTableRecord
100
AcDbLayerTableRecord
  2
BORDER
 70
     0
 62
     7
  6
Continuous
370
    35
390
F
  0
LAYER
  5
CF
330
2
100
AcDbSymbolTableRecord
100
AcDbLayerTableRecord
  2
HIDDEN
 70
     0
 62
     7
  6
HIDDEN
370
     9
390
F
  0
LAYER
  5
D0
330
2
100
AcDbSymbolTableRecord
100
AcDbLayerTableRecord
  2
ASSIST
 70
     0
 62
     7
  6
Continuous
370
     9
390
F
  0
LAYER
  5
D1
330
2
100
AcDbSymbolTableRecord
100
AcDbLayerTableRecord
  2
SCALE
 70
     0
 62
     4
  6
Continuous
370
     9
390
F
  0
LAYER
  5
D2
330
2
100
AcDbSymbolTableRecord
100
AcDbLayerTableRecord
  2
TXT1
 70
     0
 62
     7
  6
Continuous
370
     9
390
F
  0
LAYER
  5
D3
330
2
100
AcDbSymbolTableRecord
100
AcDbLayerTableRecord
  2
IMAGE
 70
     0
 62
     6
  6
PHANTOM
370
     9
390
F
  0
LAYER
  5
D4
330
2
100
AcDbSymbolTableRecord
100
AcDbLayerTableRecord
  2
HOJOORG
 70
     0
 62
     1
  6
Continuous
370
     9
390
F
  0
LAYER
  5
D5
330
2
100
AcDbSymbolTableRecord
100
AcDbLayerTableRecord
  2
POINT
 70
     0
 62
     7
  6
Continuous
370
     9
390
F
  0
LAYER
  5
D6
330
2
100
AcDbSymbolTableRecord
100
AcDbLayerTableRecord
  2
1
 70
     0
 62
     4
  6
Continuous
370
     9
390
F
  0
LAYER
  5
D7
330
2
100
AcDbSymbolTableRecord
100
AcDbLayerTableRecord
  2
CENTER
 70
     0
 62
     1
  6
DASHDOT
370
     9
390
F
  0
LAYER
  5
D8
330
2
100
AcDbSymbolTableRecord
100
AcDbLayerTableRecord
  2
ERROR
 70
     0
 62
     1
  6
HIDDEN
370
     9
390
F
  0
LAYER
  5
D9
330
2
100
AcDbSymbolTableRecord
100
AcDbLayerTableRecord
  2
FRAME
 70
     0
 62
     2
  6
Continuous
370
     9
390
F
  0
LAYER
  5
DA
330
2
100
AcDbSymbolTableRecord
100
AcDbLayerTableRecord
  2
TEMPORARY
 70
     0
 62
     5
  6
HIDDEN
370
     9
390
F
  0
LAYER
  5
DB
330
2
100
AcDbSymbolTableRecord
100
AcDbLayerTableRecord
  2
WINDOW
 70
     0
 62
     3
  6
Continuous
370
     9
390
F
  0
LAYER
  5
DC
330
2
100
AcDbSymbolTableRecord
100
AcDbLayerTableRecord
  2
word用点線
 70
     0
 62
     7
  6
HIDDEN
370
    50
390
F
  0
LAYER
  5
DD
330
2
100
AcDbSymbolTableRecord
100
AcDbLayerTableRecord
  2
word用中心
 70
     0
 62
     7
  6
DASHDOT
370
    50
390
F
  0
LAYER
  5
DE
330
2
100
AcDbSymbolTableRecord
100
AcDbLayerTableRecord
  2
WORK
 70
     0
 62
     7
  6
Continuous
370
     9
390
F
  0
LAYER
  5
DF
330
2
100
AcDbSymbolTableRecord
100
AcDbLayerTableRecord
  2
FORMAT
 70
     0
 62
     7
  6
Continuous
370
     9
390
F
  0
LAYER
  5
E0
330
2
100
AcDbSymbolTableRecord
100
AcDbLayerTableRecord
  2
L-CENTER
 70
     0
 62
     1
  6
DASHDOT
370
     9
390
F
  0
LAYER
  5
E1
330
2
100
AcDbSymbolTableRecord
100
AcDbLayerTableRecord
  2
切削線
 70
     0
 62
     7
  6
Continuous
370
     9
390
F
  0
ENDTAB
  0
TABLE
  2
STYLE
  5
3
330
0
100
AcDbSymbolTable
 70
     2
  0
STYLE
  5
11
330
3
100
AcDbSymbolTableRecord
100
AcDbTextStyleTableRecord
  2
Standard
 70
     0
 40
0.0
 41
1.0
 50
0.0
 71
     0
 42
7.5
  3
txt
  4
bigfont
  0
STYLE
  5
6C
330
3
100
AcDbSymbolTableRecord
100
AcDbTextStyleTableRecord
  2
T_STANDARD
 70
     4
 40
10.0
 41
1.0
 50
0.0
 71
     0
 42
7.5
  3
txt
  4
bigfont
1001
ACAD
1000

1071
      256
  0
ENDTAB
  0
TABLE
  2
VIEW
  5
6
330
0
100
AcDbSymbolTable
 70
     0
  0
ENDTAB
  0
TABLE
  2
UCS
  5
7
330
0
100
AcDbSymbolTable
 70
     0
  0
ENDTAB
  0
TABLE
  2
APPID
  5
9
330
0
100
AcDbSymbolTable
 70
     2
  0
APPID
  5
12
330
9
100
AcDbSymbolTableRecord
100
AcDbRegAppTableRecord
  2
ACAD
 70
     0
  0
APPID
  5
6B
330
9
100
AcDbSymbolTableRecord
100
AcDbRegAppTableRecord
  2
ODA
 70
     0
  0
ENDTAB
  0
TABLE
  2
DIMSTYLE
  5
A
330
0
100
AcDbSymbolTable
 70
     1
100
AcDbDimStyleTable
  0
DIMSTYLE
105
27
330
A
100
AcDbSymbolTableRecord
100
AcDbDimStyleTableRecord
  2
Standard
 70
     0
178
     0
340
11
  0
ENDTAB
  0
TABLE
  2
BLOCK_RECORD
  5
1
330
0
100
AcDbSymbolTable
 70
    18
  0
BLOCK_RECORD
  5
1F
330
1
100
AcDbSymbolTableRecord
100
AcDbBlockTableRecord
  2
*Model_Space
340
22
  0
BLOCK_RECORD
  5
1B
330
1
100
AcDbSymbolTableRecord
100
AcDbBlockTableRecord
  2
*Paper_Space
340
1E
  0
BLOCK_RECORD
  5
23
330
1
100
AcDbSymbolTableRecord
100
AcDbBlockTableRecord
  2
*Paper_Space0
340
26
  0
BLOCK_RECORD
  5
6D
330
1
100
AcDbSymbolTableRecord
100
AcDbBlockTableRecord
  2
_ORIGIN
340
0
  0
BLOCK_RECORD
  5
72
330
1
100
AcDbSymbolTableRecord
100
AcDbBlockTableRecord
  2
_DOTBLANK
340
0
  0
BLOCK_RECORD
  5
77
330
1
100
AcDbSymbolTableRecord
100
AcDbBlockTableRecord
  2
_DOT
340
0
  0
BLOCK_RECORD
  5
7C
330
1
100
AcDbSymbolTableRecord
100
AcDbBlockTableRecord
  2
_OPEN
340
0
  0
BLOCK_RECORD
  5
82
330
1
100
AcDbSymbolTableRecord
100
AcDbBlockTableRecord
  2
_CLOSED
340
0
  0
BLOCK_RECORD
  5
89
330
1
100
AcDbSymbolTableRecord
100
AcDbBlockTableRecord
  2
_CLOSEDBLANK
340
0
  0
BLOCK_RECORD
  5
8F
330
1
100
AcDbSymbolTableRecord
100
AcDbBlockTableRecord
  2
_ARROWFILLED
340
0
  0
BLOCK_RECORD
  5
93
330
1
100
AcDbSymbolTableRecord
100
AcDbBlockTableRecord
  2
_BOXBLANK
340
0
  0
BLOCK_RECORD
  5
9B
330
1
100
AcDbSymbolTableRecord
100
AcDbBlockTableRecord
  2
_BOXFILLED
340
0
  0
BLOCK_RECORD
  5
A0
330
1
100
AcDbSymbolTableRecord
100
AcDbBlockTableRecord
  2
_INTEGRAL
340
0
  0
BLOCK_RECORD
  5
A5
330
1
100
AcDbSymbolTableRecord
100
AcDbBlockTableRecord
  2
_OBLIQUE
340
0
  0
BLOCK_RECORD
  5
A9
330
1
100
AcDbSymbolTableRecord
100
AcDbBlockTableRecord
  2
_NONE
340
0
  0
BLOCK_RECORD
  5
AC
330
1
100
AcDbSymbolTableRecord
100
AcDbBlockTableRecord
  2
MARK_OPEN
340
0
  0
BLOCK_RECORD
  5
B1
330
1
100
AcDbSymbolTableRecord
100
AcDbBlockTableRecord
  2
MARK_ORIGIN
340
0
  0
BLOCK_RECORD
  5
B5
330
1
100
AcDbSymbolTableRecord
100
AcDbBlockTableRecord
  2
MARK_DOT
340
0
  0
BLOCK_RECORD
  5
382
330
1
100
AcDbSymbolTableRecord
100
AcDbBlockTableRecord
  2
*G16
340
0
102
{BLKREFS
331
388
102
}
  0
BLOCK_RECORD
  5
389
330
1
100
AcDbSymbolTableRecord
100
AcDbBlockTableRecord
  2
*G17
340
0
102
{BLKREFS
331
38F
102
}
  0
ENDTAB
  0
ENDSEC
  0
SECTION
  2
BLOCKS
  0
BLOCK
  5
20
330
1F
100
AcDbEntity
  8
0
100
AcDbBlockBegin
  2
*Model_Space
 70
     0
 10
0.0
 20
0.0
 30
0.0
  3
*Model_Space
  1
*Model_Space
  0
ENDBLK
  5
21
330
1F
100
AcDbEntity
  8
0
100
AcDbBlockEnd
  0
BLOCK
  5
1C
330
1B
100
AcDbEntity
 67
     1
  8
0
100
AcDbBlockBegin
  2
*Paper_Space
 70
     0
 10
0.0
 20
0.0
 30
0.0
  3
*Paper_Space
  1
*Paper_Space
  0
ENDBLK
  5
1D
330
1B
100
AcDbEntity
 67
     1
  8
0
100
AcDbBlockEnd
  0
BLOCK
  5
24
330
23
100
AcDbEntity
  8
0
100
AcDbBlockBegin
  2
*Paper_Space0
 70
     0
 10
0.0
 20
0.0
 30
0.0
  3
*Paper_Space0
  1
*Paper_Space0
  0
ENDBLK
  5
25
330
23
100
AcDbEntity
  8
0
100
AcDbBlockEnd
  0
BLOCK
  5
70
330
6D
100
AcDbEntity
  8
0
100
AcDbBlockBegin
  2
_ORIGIN
 70
     0
 10
0.0
 20
0.0
 30
0.0
  3
_ORIGIN
  1
_ORIGIN
  0
CIRCLE
  5
6E
330
6D
100
AcDbEntity
  8
0
 62
     0
100
AcDbCircle
 10
0.0
 20
0.0
 30
0.0
 40
0.5
  0
LINE
  5
6F
330
6D
100
AcDbEntity
  8
0
 62
     0
100
AcDbLine
 10
0.0
 20
0.0
 30
0.0
 11
-1.0
 21
0.0
 31
0.0
  0
ENDBLK
  5
71
330
6D
100
AcDbEntity
  8
0
100
AcDbBlockEnd
  0
BLOCK
  5
75
330
72
100
AcDbEntity
  8
0
100
AcDbBlockBegin
  2
_DOTBLANK
 70
     0
 10
0.0
 20
0.0
 30
0.0
  3
_DOTBLANK
  1
_DOTBLANK
  0
CIRCLE
  5
73
330
72
100
AcDbEntity
  8
0
 62
     0
100
AcDbCircle
 10
0.0
 20
0.0
 30
0.0
 40
0.5
  0
LINE
  5
74
330
72
100
AcDbEntity
  8
0
 62
     0
100
AcDbLine
 10
-0.5
 20
0.0
 30
0.0
 11
-1.0
 21
0.0
 31
0.0
  0
ENDBLK
  5
76
330
72
100
AcDbEntity
  8
0
100
AcDbBlockEnd
  0
BLOCK
  5
7A
330
77
100
AcDbEntity
  8
0
100
AcDbBlockBegin
  2
_DOT
 70
     0
 10
0.0
 20
0.0
 30
0.0
  3
_DOT
  1
_DOT
  0
LWPOLYLINE
  5
78
330
77
100
AcDbEntity
  8
0
 62
     0
100
AcDbPolyline
 90
        2
 70
     1
 43
0.5
 10
-0.25
 20
0.0
 42
1.0
 10
0.25
 20
0.0
 42
1.0
  0
LINE
  5
79
330
77
100
AcDbEntity
  8
0
 62
     0
100
AcDbLine
 10
-0.5
 20
0.0
 30
0.0
 11
-1.0
 21
0.0
 31
0.0
  0
ENDBLK
  5
7B
330
77
100
AcDbEntity
  8
0
100
AcDbBlockEnd
  0
BLOCK
  5
80
330
7C
100
AcDbEntity
  8
0
100
AcDbBlockBegin
  2
_OPEN
 70
     0
 10
0.0
 20
0.0
 30
0.0
  3
_OPEN
  1
_OPEN
  0
LINE
  5
7D
330
7C
100
AcDbEntity
  8
0
 62
     0
100
AcDbLine
 10
0.0
 20
0.0
 30
0.0
 11
-1.0
 21
0.1666666666666667
 31
0.0
  0
LINE
  5
7E
330
7C
100
AcDbEntity
  8
0
 62
     0
100
AcDbLine
 10
0.0
 20
0.0
 30
0.0
 11
-1.0
 21
-0.1666666666666667
 31
0.0
  0
LINE
  5
7F
330
7C
100
AcDbEntity
  8
0
 62
     0
100
AcDbLine
 10
0.0
 20
0.0
 30
0.0
 11
-1.0
 21
0.0
 31
0.0
  0
ENDBLK
  5
81
330
7C
100
AcDbEntity
  8
0
100
AcDbBlockEnd
  0
BLOCK
  5
87
330
82
100
AcDbEntity
  8
0
100
AcDbBlockBegin
  2
_CLOSED
 70
     0
 10
0.0
 20
0.0
 30
0.0
  3
_CLOSED
  1
_CLOSED
  0
LINE
  5
83
330
82
100
AcDbEntity
  8
0
 62
     0
100
AcDbLine
 10
0.0
 20
0.0
 30
0.0
 11
-1.0
 21
0.1666666666666667
 31
0.0
  0
LINE
  5
84
330
82
100
AcDbEntity
  8
0
 62
     0
100
AcDbLine
 10
0.0
 20
0.0
 30
0.0
 11
-1.0
 21
-0.1666666666666667
 31
0.0
  0
LINE
  5
85
330
82
100
AcDbEntity
  8
0
 62
     0
100
AcDbLine
 10
-1.0
 20
0.1666666666666667
 30
0.0
 11
-1.0
 21
-0.1666666666666667
 31
0.0
  0
LINE
  5
86
330
82
100
AcDbEntity
  8
0
 62
     0
100
AcDbLine
 10
0.0
 20
0.0
 30
0.0
 11
-1.0
 21
0.0
 31
0.0
  0
ENDBLK
  5
88
330
82
100
AcDbEntity
  8
0
100
AcDbBlockEnd
  0
BLOCK
  5
8D
330
89
100
AcDbEntity
  8
0
100
AcDbBlockBegin
  2
_CLOSEDBLANK
 70
     0
 10
0.0
 20
0.0
 30
0.0
  3
_CLOSEDBLANK
  1
_CLOSEDBLANK
  0
LINE
  5
8A
330
89
100
AcDbEntity
  8
0
 62
     0
100
AcDbLine
 10
0.0
 20
0.0
 30
0.0
 11
-1.0
 21
0.1666666666666667
 31
0.0
  0
LINE
  5
8B
330
89
100
AcDbEntity
  8
0
 62
     0
100
AcDbLine
 10
0.0
 20
0.0
 30
0.0
 11
-1.0
 21
-0.1666666666666667
 31
0.0
  0
LINE
  5
8C
330
89
100
AcDbEntity
  8
0
 62
     0
100
AcDbLine
 10
-1.0
 20
0.1666666666666667
 30
0.0
 11
-1.0
 21
-0.1666666666666667
 31
0.0
  0
ENDBLK
  5
8E
330
89
100
AcDbEntity
  8
0
100
AcDbBlockEnd
  0
BLOCK
  5
91
330
8F
100
AcDbEntity
  8
0
100
AcDbBlockBegin
  2
_ARROWFILLED
 70
     0
 10
0.0
 20
0.0
 30
0.0
  3
_ARROWFILLED
  1
_ARROWFILLED
  0
SOLID
  5
90
330
8F
100
AcDbEntity
  8
0
 62
     0
100
AcDbTrace
 10
0.0
 20
0.0
 30
0.0
 11
-1.0
 21
-0.1666666666666667
 31
0.0
 12
-1.0
 22
0.1666666666666667
 32
0.0
 13
0.0
 23
0.0
 33
0.0
  0
ENDBLK
  5
92
330
8F
100
AcDbEntity
  8
0
100
AcDbBlockEnd
  0
BLOCK
  5
99
330
93
100
AcDbEntity
  8
0
100
AcDbBlockBegin
  2
_BOXBLANK
 70
     0
 10
0.0
 20
0.0
 30
0.0
  3
_BOXBLANK
  1
_BOXBLANK
  0
LINE
  5
94
330
93
100
AcDbEntity
  8
0
 62
     0
100
AcDbLine
 10
-0.5
 20
-0.5
 30
0.0
 11
0.5
 21
-0.5
 31
0.0
  0
LINE
  5
95
330
93
100
AcDbEntity
  8
0
 62
     0
100
AcDbLine
 10
0.5
 20
-0.5
 30
0.0
 11
0.5
 21
0.5
 31
0.0
  0
LINE
  5
96
330
93
100
AcDbEntity
  8
0
 62
     0
100
AcDbLine
 10
0.5
 20
0.5
 30
0.0
 11
-0.5
 21
0.5
 31
0.0
  0
LINE
  5
97
330
93
100
AcDbEntity
  8
0
 62
     0
100
AcDbLine
 10
-0.5
 20
0.5
 30
0.0
 11
-0.5
 21
-0.5
 31
0.0
  0
LINE
  5
98
330
93
100
AcDbEntity
  8
0
 62
     0
100
AcDbLine
 10
-0.5
 20
0.0
 30
0.0
 11
-1.0
 21
0.0
 31
0.0
  0
ENDBLK
  5
9A
330
93
100
AcDbEntity
  8
0
100
AcDbBlockEnd
  0
BLOCK
  5
9E
330
9B
100
AcDbEntity
  8
0
100
AcDbBlockBegin
  2
_BOXFILLED
 70
     0
 10
0.0
 20
0.0
 30
0.0
  3
_BOXFILLED
  1
_BOXFILLED
  0
SOLID
  5
9C
330
9B
100
AcDbEntity
  8
0
 62
     0
100
AcDbTrace
 10
-0.5
 20
0.5
 30
0.0
 11
0.5
 21
0.5
 31
0.0
 12
-0.5
 22
-0.5
 32
0.0
 13
0.5
 23
-0.5
 33
0.0
  0
LINE
  5
9D
330
9B
100
AcDbEntity
  8
0
 62
     0
100
AcDbLine
 10
-0.5
 20
0.0
 30
0.0
 11
-1.0
 21
0.0
 31
0.0
  0
ENDBLK
  5
9F
330
9B
100
AcDbEntity
  8
0
100
AcDbBlockEnd
  0
BLOCK
  5
A3
330
A0
100
AcDbEntity
  8
0
100
AcDbBlockBegin
  2
_INTEGRAL
 70
     0
 10
0.0
 20
0.0
 30
0.0
  3
_INTEGRAL
  1
_INTEGRAL
  0
ARC
  5
A1
330
A0
100
AcDbEntity
  8
0
 62
     0
100
AcDbCircle
 10
0.444888
 20
-0.0913346
 30
0.0
 40
0.4541666
100
AcDbArc
 50
101.9999999999999
 51
167.9999999999998
  0
ARC
  5
A2
330
A0
100
AcDbEntity
  8
0
 62
     0
100
AcDbCircle
 10
-0.444888
 20
0.0913346
 30
0.0
 40
0.4541666
100
AcDbArc
 50
281.9999999999997
 51
347.9999999999997
  0
ENDBLK
  5
A4
330
A0
100
AcDbEntity
  8
0
100
AcDbBlockEnd
  0
BLOCK
  5
A7
330
A5
100
AcDbEntity
  8
0
100
AcDbBlockBegin
  2
_OBLIQUE
 70
     0
 10
0.0
 20
0.0
 30
0.0
  3
_OBLIQUE
  1
_OBLIQUE
  0
LINE
  5
A6
330
A5
100
AcDbEntity
  8
0
 62
     0
100
AcDbLine
 10
-0.5
 20
-0.5
 30
0.0
 11
0.5
 21
0.5
 31
0.0
  0
ENDBLK
  5
A8
330
A5
100
AcDbEntity
  8
0
100
AcDbBlockEnd
  0
BLOCK
  5
AA
330
A9
100
AcDbEntity
  8
0
100
AcDbBlockBegin
  2
_NONE
 70
     0
 10
0.0
 20
0.0
 30
0.0
  3
_NONE
  1
_NONE
  0
ENDBLK
  5
AB
330
A9
100
AcDbEntity
  8
0
100
AcDbBlockEnd
  0
BLOCK
  5
AF
330
AC
100
AcDbEntity
  8
0
100
AcDbBlockBegin
  2
MARK_OPEN
 70
     0
 10
0.0
 20
0.0
 30
0.0
  3
MARK_OPEN
  1
MARK_OPEN
  0
LINE
  5
AD
330
AC
100
AcDbEntity
  8
0
 62
     0
100
AcDbLine
 10
0.0
 20
0.0
 30
0.0
 11
-1.0
 21
0.1666666666666667
 31
0.0
  0
LINE
  5
AE
330
AC
100
AcDbEntity
  8
0
 62
     0
100
AcDbLine
 10
0.0
 20
0.0
 30
0.0
 11
-1.0
 21
-0.1666666666666667
 31
0.0
  0
ENDBLK
  5
B0
330
AC
100
AcDbEntity
  8
0
100
AcDbBlockEnd
  0
BLOCK
  5
B3
330
B1
100
AcDbEntity
  8
0
100
AcDbBlockBegin
  2
MARK_ORIGIN
 70
     0
 10
0.0
 20
0.0
 30
0.0
  3
MARK_ORIGIN
  1
MARK_ORIGIN
  0
CIRCLE
  5
B2
330
B1
100
AcDbEntity
  8
0
 62
     0
100
AcDbCircle
 10
0.0
 20
0.0
 30
0.0
 40
0.5
  0
ENDBLK
  5
B4
330
B1
100
AcDbEntity
  8
0
100
AcDbBlockEnd
  0
BLOCK
  5
B7
330
B5
100
AcDbEntity
  8
0
100
AcDbBlockBegin
  2
MARK_DOT
 70
     0
 10
0.0
 20
0.0
 30
0.0
  3
MARK_DOT
  1
MARK_DOT
  0
LWPOLYLINE
  5
B6
330
B5
100
AcDbEntity
  8
0
 62
     0
100
AcDbPolyline
 90
        2
 70
     1
 43
0.5
 10
-0.25
 20
0.0
 42
1.0
 10
0.25
 20
0.0
 42
1.0
  0
ENDBLK
  5
B8
330
B5
100
AcDbEntity
  8
0
100
AcDbBlockEnd
  0
BLOCK
  5
383
330
382
100
AcDbEntity
  8
0
100
AcDbBlockBegin
  2
*G16
 70
     1
 10
0.0
 20
0.0
 30
0.0
  3
*G16
  1
*G16
  0
LINE
  5
385
330
382
100
AcDbEntity
  8
TEXT
  6
Continuous
 62
     3
370
    25
100
AcDbLine
 10
142.2496380800781
 20
212.2544551387584
 30
0.0
 11
143.153966604533
 21
208.8794551387583
 31
0.0
  0
LINE
  5
386
330
382
100
AcDbEntity
  8
TEXT
  6
Continuous
 62
     3
370
    25
100
AcDbLine
 10
142.2496380800781
 20
210.0044551387584
 30
0.0
 11
142.2496380800781
 21
212.2544551387584
 31
0.0
  0
LINE
  5
387
330
382
100
AcDbEntity
  8
TEXT
  6
Continuous
 62
     3
370
    25
100
AcDbLine
 10
142.2496380800781
 20
212.2544551387584
 30
0.0
 11
141.3453095556229
 21
208.8794551387585
 31
0.0
  0
ENDBLK
  5
384
330
382
100
AcDbEntity
  8
0
100
AcDbBlockEnd
  0
BLOCK
  5
38A
330
389
100
AcDbEntity
  8
0
100
AcDbBlockBegin
  2
*G17
 70
     1
 10
0.0
 20
0.0
 30
0.0
  3
*G17
  1
*G17
  0
LINE
  5
38C
330
389
100
AcDbEntity
  8
TEXT
  6
Continuous
 62
     3
370
    25
100
AcDbLine
 10
142.2496380800781
 20
101.956184457667
 30
0.0
 11
141.3453095556231
 21
105.3311844576671
 31
0.0
  0
LINE
  5
38D
330
389
100
AcDbEntity
  8
TEXT
  6
Continuous
 62
     3
370
    25
100
AcDbLine
 10
142.2496380800781
 20
104.206184457667
 30
0.0
 11
142.2496380800781
 21
101.956184457667
 31
0.0
  0
LINE
  5
38E
330
389
100
AcDbEntity
  8
TEXT
  6
Continuous
 62
     3
370
    25
100
AcDbLine
 10
142.2496380800781
 20
101.956184457667
 30
0.0
 11
143.1539666045333
 21
105.3311844576669
 31
0.0
  0
ENDBLK
  5
38B
330
389
100
AcDbEntity
  8
0
100
AcDbBlockEnd
  0
ENDSEC
  0
SECTION
  2
ENTITIES
  0
POLYLINE
  5
E2
330
1F
100
AcDbEntity
  8
WAKU
  6
Continuous
 62
     5
370
    53
100
AcDb2dPolyline
 66
     1
 10
0.0
 20
0.0
 30
0.0
  0
VERTEX
  5
E3
330
E2
100
AcDbEntity
  8
WAKU
  6
Continuous
 62
     5
370
    53
100
AcDbVertex
100
AcDb2dVertex
 10
358.4977105907326
 20
0.0124959948152537
 30
0.0
  0
VERTEX
  5
E4
330
E2
100
AcDbEntity
  8
WAKU
  6
Continuous
 62
     5
370
    53
100
AcDbVertex
100
AcDb2dVertex
 10
86.9977116767327
 20
0.0124959948152537
 30
0.0
  0
VERTEX
  5
E5
330
E2
100
AcDbEntity
  8
WAKU
  6
Continuous
 62
     5
370
    53
100
AcDbVertex
100
AcDb2dVertex
 10
86.9977116767327
 20
409.5124959948156
 30
0.0
  0
VERTEX
  5
E6
330
E2
100
AcDbEntity
  8
WAKU
  6
Continuous
 62
     5
370
    53
100
AcDbVertex
100
AcDb2dVertex
 10
358.4977105907326
 20
409.5124959948156
 30
0.0
  0
VERTEX
  5
E7
330
E2
100
AcDbEntity
  8
WAKU
  6
Continuous
 62
     5
370
    53
100
AcDbVertex
100
AcDb2dVertex
 10
358.4977105907326
 20
0.0124959948152537
 30
0.0
  0
SEQEND
  5
E8
330
E2
100
AcDbEntity
  8
WAKU
  6
Continuous
 62
     5
370
    53
  0
LINE
  5
E9
330
1F
100
AcDbEntity
  8
ITTEN
  6
DASHDOT
 62
     1
370
    25
100
AcDbLine
 10
228.4196364910956
 20
141.9561844576677
 30
0.0
 11
177.4196364910956
 21
141.9561844576666
 31
0.0
  0
ARC
  5
EA
330
1F
100
AcDbEntity
  8
JISSEN
  6
Continuous
 62
     7
370
    35
100
AcDbCircle
 10
171.5343692257327
 20
194.2544551387516
 30
0.0
 40
2.0
100
AcDbArc
 50
193.3101069190292
 51
270.0000000000127
  0
LINE
  5
EB
330
1F
100
AcDbEntity
  8
JISSEN
  6
Continuous
 62
     7
370
    35
100
AcDbLine
 10
170.8636873731891
 20
176.904455138758
 30
0.0
 11
193.9755856090021
 21
176.904455138758
 31
0.0
  0
LINE
  5
EC
330
1F
100
AcDbEntity
  8
JISSEN
  6
Continuous
 62
     7
370
    35
100
AcDbLine
 10
169.3428138631257
 20
174.7544551387584
 30
0.0
 11
195.4964591190658
 21
174.7544551387584
 31
0.0
  0
LINE
  5
ED
330
1F
100
AcDbEntity
  8
JISSEN
  6
Continuous
 62
     7
370
    35
100
AcDbLine
 10
179.9196364910958
 20
192.2544551387534
 30
0.0
 11
165.5696364910957
 21
192.2544551387497
 31
0.0
  0
LINE
  5
EE
330
1F
100
AcDbEntity
  8
JISSEN
  6
Continuous
 62
     7
370
    35
100
AcDbLine
 10
163.9196364910956
 20
209.2544551387583
 30
0.0
 11
180.9196364910956
 21
209.2544551387583
 31
0.0
  0
LINE
  5
EF
330
1F
100
AcDbEntity
  8
JISSEN
  6
Continuous
 62
     7
370
    35
100
AcDbLine
 10
200.9196364910956
 20
212.2544551387583
 30
0.0
 11
163.9196364910956
 21
212.2544551387583
 31
0.0
  0
LINE
  5
F0
330
1F
100
AcDbEntity
  8
JISSEN
  6
Continuous
 62
     7
370
    35
100
AcDbLine
 10
201.4196364910956
 20
168.2544551387583
 30
0.0
 11
163.4196364910956
 21
168.2544551387583
 31
0.0
  0
POLYLINE
  5
F1
330
1F
100
AcDbEntity
  8
JISSEN
  6
Continuous
 62
     7
370
    35
100
AcDb2dPolyline
 66
     1
 10
0.0
 20
0.0
 30
0.0
  0
VERTEX
  5
F2
330
F1
100
AcDbEntity
  8
JISSEN
  6
Continuous
 62
     7
370
    35
100
AcDbVertex
100
AcDb2dVertex
 10
180.9196364910947
 20
201.9077650594713
 30
0.0
  0
VERTEX
  5
F3
330
F1
100
AcDbEntity
  8
JISSEN
  6
Continuous
 62
     7
370
    35
100
AcDbVertex
100
AcDb2dVertex
 10
170.4196364910902
 20
201.9077650594713
 30
0.0
  0
VERTEX
  5
F4
330
F1
100
AcDbEntity
  8
JISSEN
  6
Continuous
 62
     7
370
    35
100
AcDbVertex
100
AcDb2dVertex
 10
170.4196364910902
 20
201.7577650594713
 30
0.0
  0
VERTEX
  5
F5
330
F1
100
AcDbEntity
  8
JISSEN
  6
Continuous
 62
     7
370
    35
100
AcDbVertex
100
AcDb2dVertex
 10
180.9196364910947
 20
201.7577650594713
 30
0.0
  0
SEQEND
  5
F6
330
F1
100
AcDbEntity
  8
JISSEN
  6
Continuous
 62
     7
370
    35
  0
LINE
  5
F7
330
1F
100
AcDbEntity
  8
JISSEN
  6
Continuous
 62
     7
370
    35
100
AcDbLine
 10
180.9196364910947
 20
203.9061495211676
 30
0.0
 11
170.4196364910899
 21
203.9061495211675
 31
0.0
  0
LINE
  5
F8
330
1F
100
AcDbEntity
  8
JISSEN
  6
Continuous
 62
     7
370
    35
100
AcDbLine
 10
180.9196364910947
 20
204.0561495211676
 30
0.0
 11
170.4196364910899
 21
204.0561495211676
 31
0.0
  0
LINE
  5
F9
330
1F
100
AcDbEntity
  8
JISSEN
  6
Continuous
 62
     7
370
    35
100
AcDbLine
 10
171.4123661664428
 20
103.9561844576661
 30
0.0
 11
168.8707127701653
 21
103.9561844576661
 31
0.0
  0
LINE
  5
FA
330
1F
100
AcDbEntity
  8
JISSEN
  6
Continuous
 62
     7
370
    35
100
AcDbLine
 10
161.2837381062325
 20
101.956184457667
 30
0.0
 11
203.5555348759606
 21
101.956184457667
 31
0.0
  0
LINE
  5
FB
330
1F
100
AcDbEntity
  8
JISSEN
  6
Continuous
 62
     7
370
    35
100
AcDbLine
 10
180.4196364910954
 20
167.7561844576668
 30
0.0
 11
164.2196364910958
 21
167.7561844576667
 31
0.0
  0
LINE
  5
FC
330
1F
100
AcDbEntity
  8
JISSEN
  6
Continuous
 62
     7
370
    35
100
AcDbLine
 10
168.8707127701657
 20
113.9561844576661
 30
0.0
 11
171.4123661664432
 21
113.9561844576661
 31
0.0
  0
LINE
  5
FD
330
1F
100
AcDbEntity
  8
JISSEN
  6
Continuous
 62
     7
370
    35
100
AcDbLine
 10
163.4196364910961
 20
166.9561844576667
 30
0.0
 11
180.4196364910956
 21
166.9561844576664
 31
0.0
  0
LINE
  5
FE
330
1F
100
AcDbEntity
  8
JISSEN
  6
Continuous
 62
     7
370
    35
100
AcDbLine
 10
163.4196364910965
 20
124.3295821306137
 30
0.0
 11
197.4226200767118
 21
124.3295821306137
 31
0.0
  0
LINE
  5
FF
330
1F
100
AcDbEntity
  8
JISSEN
  6
Continuous
 62
     7
370
    35
100
AcDbLine
 10
163.4196364910961
 20
166.9561844576667
 30
0.0
 11
163.4196364910965
 21
125.2656599945482
 31
0.0
  0
ARC
  5
100
330
1F
100
AcDbEntity
  8
JISSEN
  6
Continuous
 62
     7
370
    35
100
AcDbCircle
 10
163.3670776078386
 20
113.2948250618077
 30
0.0
 40
10.83975130403496
100
AcDbArc
 50
239.4874507745662
 51
300.5125492254331
  0
LINE
  5
101
330
1F
100
AcDbEntity
  8
JISSEN
  6
Continuous
 62
     7
370
    35
100
AcDbLine
 10
161.2837381062325
 20
101.956184457667
 30
0.0
 11
157.8196364910975
 21
103.9561844576656
 31
0.0
  0
ARC
  5
102
330
1F
100
AcDbEntity
  8
JISSEN
  6
Continuous
 62
     7
370
    35
100
AcDbCircle
 10
161.4196364910965
 20
125.2656599945482
 30
0.0
 40
2.0
100
AcDbArc
 50
313.4325358229785
 51
0.0
  0
ARC
  5
103
330
1F
100
AcDbEntity
  8
JISSEN
  6
Continuous
 62
     7
370
    35
100
AcDbCircle
 10
166.9196364165907
 20
119.4561849047003
 30
0.0
 40
6.0
100
AcDbArc
 50
133.4325358229787
 51
179.9999999999998
  0
ARC
  5
104
330
1F
100
AcDbEntity
  8
JISSEN
  6
Continuous
 62
     7
370
    35
100
AcDbCircle
 10
163.3670776078391
 20
104.6175438535226
 30
0.0
 40
10.83975130403633
100
AcDbArc
 50
62.76133249183253
 51
117.2386675081675
  0
LINE
  5
105
330
1F
100
AcDbEntity
  8
JISSEN
  6
Continuous
 62
     7
370
    35
100
AcDbLine
 10
157.8634424455124
 20
103.9561844576654
 30
0.0
 11
157.8634424455124
 21
113.3661423727106
 31
0.0
  0
LINE
  5
106
330
1F
100
AcDbEntity
  8
JISSEN
  6
Continuous
 62
     7
370
    35
100
AcDbLine
 10
157.8196364910971
 20
103.9561844576661
 30
0.0
 11
157.8196364910971
 21
113.3788341884766
 31
0.0
  0
LINE
  5
107
330
1F
100
AcDbEntity
  8
JISSEN
  6
Continuous
 62
     7
370
    35
100
AcDbLine
 10
157.8634424455124
 20
103.9561844576661
 30
0.0
 11
157.8196364910966
 21
103.9561844576661
 31
0.0
  0
ARC
  5
108
330
1F
100
AcDbEntity
  8
JISSEN
  6
Continuous
 62
     7
370
    35
100
AcDbCircle
 10
158.9196364910961
 20
116.9006708305329
 30
0.0
 40
2.0
100
AcDbArc
 50
299.9999999999998
 51
0.0
  0
ARC
  5
109
330
1F
100
AcDbEntity
  8
JISSEN
  6
Continuous
 62
     7
370
    35
100
AcDbCircle
 10
158.863442445512
 20
113.3661423727106
 30
0.0
 40
1.0
100
AcDbArc
 50
117.2386675081672
 51
179.9999999999998
  0
LINE
  5
10A
330
1F
100
AcDbEntity
  8
JISSEN
  6
Continuous
 62
     7
370
    35
100
AcDbLine
 10
159.9196364910961
 20
115.1686200229639
 30
0.0
 11
158.3196364910971
 21
114.2448595922609
 31
0.0
  0
ARC
  5
10B
330
1F
100
AcDbEntity
  8
JISSEN
  6
Continuous
 62
     7
370
    35
100
AcDbCircle
 10
158.8196364910971
 20
113.3788341884766
 30
0.0
 40
1.0
100
AcDbArc
 50
119.9999999999997
 51
179.9999999999998
  0
LINE
  5
10C
330
1F
100
AcDbEntity
  8
JISSEN
  6
Continuous
 62
     7
370
    35
100
AcDbLine
 10
160.9196364910961
 20
116.9006708305326
 30
0.0
 11
160.9196364910965
 21
119.4571304573658
 31
0.0
  0
LINE
  5
10D
330
1F
100
AcDbEntity
  8
JISSEN
  6
Continuous
 62
     7
370
    35
100
AcDbLine
 10
168.8707127701657
 20
103.956184457666
 30
0.0
 11
168.8707127701657
 21
113.3661423727106
 31
0.0
  0
ARC
  5
10E
330
1F
100
AcDbEntity
  8
JISSEN
  6
Continuous
 62
     7
370
    35
100
AcDbCircle
 10
167.8707127701657
 20
113.3661423727106
 30
0.0
 40
1.0
100
AcDbArc
 50
0.0
 51
62.76133249183278
  0
LINE
  5
10F
330
1F
100
AcDbEntity
  8
JISSEN
  6
Continuous
 62
     7
370
    35
100
AcDbLine
 10
165.2767432722821
 20
187.2473483575721
 30
0.0
 11
162.8589763193158
 21
189.6651153105385
 31
0.0
  0
LINE
  5
110
330
1F
100
AcDbEntity
  8
JISSEN
  6
Continuous
 62
     7
370
    35
100
AcDbLine
 10
165.5696364910955
 20
176.904455138758
 30
0.0
 11
165.5696364910957
 21
198.2544551387501
 31
0.0
  0
LINE
  5
111
330
1F
100
AcDbEntity
  8
JISSEN
  6
Continuous
 62
     7
370
    35
100
AcDbLine
 10
163.4196364910956
 20
174.7544551387584
 30
0.0
 11
168.635707081939
 21
174.7544551387584
 31
0.0
  0
LINE
  5
112
330
1F
100
AcDbEntity
  8
JISSEN
  6
Continuous
 62
     7
370
    35
100
AcDbLine
 10
163.4196364910956
 20
174.7544551387584
 30
0.0
 11
165.5696364910955
 21
176.9044551387581
 31
0.0
  0
LINE
  5
113
330
1F
100
AcDbEntity
  8
JISSEN
  6
Continuous
 62
     7
370
    35
100
AcDbLine
 10
163.4196364910961
 20
166.9561844576667
 30
0.0
 11
164.2196364910958
 21
167.7561844576667
 31
0.0
  0
LINE
  5
114
330
1F
100
AcDbEntity
  8
JISSEN
  6
Continuous
 62
     7
370
    35
100
AcDbLine
 10
163.4196364910956
 20
174.7544551387583
 30
0.0
 11
163.4196364910956
 21
168.2544551387583
 31
0.0
  0
LINE
  5
115
330
1F
100
AcDbEntity
  8
JISSEN
  6
Continuous
 62
     7
370
    35
100
AcDbLine
 10
170.8636873731891
 20
177.7544551387582
 30
0.0
 11
170.8636873731891
 21
176.904455138758
 31
0.0
  0
LINE
  5
116
330
1F
100
AcDbEntity
  8
JISSEN
  6
Continuous
 62
     7
370
    35
100
AcDbLine
 10
170.1565805920025
 20
177.7544551387582
 30
0.0
 11
170.1565805920025
 21
176.904455138758
 31
0.0
  0
LINE
  5
117
330
1F
100
AcDbEntity
  8
JISSEN
  6
Continuous
 62
     7
370
    35
100
AcDbLine
 10
165.5696364910955
 20
176.904455138758
 30
0.0
 11
170.1565805920025
 21
176.904455138758
 31
0.0
  0
LINE
  5
118
330
1F
100
AcDbEntity
  8
JISSEN
  6
Continuous
 62
     7
370
    35
100
AcDbLine
 10
165.1196364910954
 20
168.2544551387584
 30
0.0
 11
165.1196364910954
 21
167.7561844576662
 31
0.0
  0
LINE
  5
119
330
1F
100
AcDbEntity
  8
JISSEN
  6
Continuous
 62
     7
370
    35
100
AcDbLine
 10
169.3428138631257
 20
174.7544551387583
 30
0.0
 11
170.8636873731891
 21
176.904455138758
 31
0.0
  0
LINE
  5
11A
330
1F
100
AcDbEntity
  8
JISSEN
  6
Continuous
 62
     7
370
    35
100
AcDbLine
 10
168.635707081939
 20
174.7544551387583
 30
0.0
 11
170.1565805920025
 21
176.904455138758
 31
0.0
  0
LINE
  5
11B
330
1F
100
AcDbEntity
  8
JISSEN
  6
Continuous
 62
     7
370
    35
100
AcDbLine
 10
169.3428138631257
 20
174.7544551387583
 30
0.0
 11
169.3428138631257
 21
168.2544551387582
 31
0.0
  0
LINE
  5
11C
330
1F
100
AcDbEntity
  8
JISSEN
  6
Continuous
 62
     7
370
    35
100
AcDbLine
 10
168.635707081939
 20
174.7544551387583
 30
0.0
 11
168.6357070819392
 21
168.2544551387582
 31
0.0
  0
ARC
  5
11D
330
1F
100
AcDbEntity
  8
JISSEN
  6
Continuous
 62
     7
370
    35
100
AcDbCircle
 10
164.5696364910957
 20
186.5402415763857
 30
0.0
 40
1.0
100
AcDbArc
 50
0.0
 51
45.00000000000691
  0
LINE
  5
11E
330
1F
100
AcDbEntity
  8
SUNPOU
  6
Continuous
 62
     3
370
    25
100
AcDbLine
 10
165.5696364910957
 20
186.9544551387586
 30
0.0
 11
165.2767432722821
 21
187.2473483575721
 31
0.0
  0
ELLIPSE
  5
11F
330
1F
100
AcDbEntity
  8
JISSEN
  6
Continuous
 62
     7
370
    35
100
AcDbEllipse
 10
170.5048872281038
 20
177.7544551387582
 30
0.0
 11
8.077722872162934E-16
 21
0.5
 31
0.0
210
0.0
220
0.0
230
1.0
 40
0.7176002901705942
 41
-1.57079632679489
 42
0.0000000000000062
  0
ELLIPSE
  5
120
330
1F
100
AcDbEntity
  8
JISSEN
  6
Continuous
 62
     7
370
    35
100
AcDbEllipse
 10
170.5048872281038
 20
177.7544551387582
 30
0.0
 11
8.077722872162934E-16
 21
0.5
 31
0.0
210
0.0
220
0.0
230
1.0
 40
0.6966132722027396
 41
0.0
 42
1.570796326794897
  0
LINE
  5
121
330
1F
100
AcDbEntity
  8
JISSEN
  6
Continuous
 62
     7
370
    35
100
AcDbLine
 10
162.419636491094
 20
190.7257754823183
 30
0.0
 11
162.4196364910943
 21
210.7544551387588
 31
0.0
  0
ARC
  5
122
330
1F
100
AcDbEntity
  8
JISSEN
  6
Continuous
 62
     7
370
    35
100
AcDbCircle
 10
163.9196364910956
 20
210.7544551387583
 30
0.0
 40
1.5
100
AcDbArc
 50
89.99999999999991
 51
269.9999999999998
  0
ARC
  5
123
330
1F
100
AcDbEntity
  8
JISSEN
  6
Continuous
 62
     7
370
    35
100
AcDbCircle
 10
163.9196364910956
 20
190.7257754823183
 30
0.0
 40
1.5
100
AcDbArc
 50
179.9999999999998
 51
225.0000000000027
  0
LINE
  5
124
330
1F
100
AcDbEntity
  8
JISSEN
  6
Continuous
 62
     7
370
    35
100
AcDbLine
 10
168.5332412340967
 20
198.2527258198507
 30
0.0
 11
166.0942165642525
 21
209.2544551387583
 31
0.0
  0
ARC
  5
125
330
1F
100
AcDbEntity
  8
JISSEN
  6
Continuous
 62
     7
370
    35
100
AcDbCircle
 10
167.8458939548689
 20
194.2544551387506
 30
0.0
 40
2.0
100
AcDbArc
 50
183.8851431954809
 51
270.0000000000127
  0
LINE
  5
126
330
1F
100
AcDbEntity
  8
JISSEN
  6
Continuous
 62
     7
370
    35
100
AcDbLine
 10
165.5696364910957
 20
198.2544551387501
 30
0.0
 11
165.8504901915283
 21
194.1189419613641
 31
0.0
  0
LINE
  5
127
330
1F
100
AcDbEntity
  8
JISSEN
  6
Continuous
 62
     7
370
    35
100
AcDbLine
 10
169.588092671554
 20
193.7940123359477
 30
0.0
 11
168.5328578533265
 21
198.2544551387509
 31
0.0
  0
LINE
  5
128
330
1F
100
AcDbEntity
  8
JISSEN
  6
Continuous
 62
     7
370
    35
100
AcDbLine
 10
170.4196364910899
 20
203.9061495211675
 30
0.0
 11
170.4196364910899
 21
204.0561495211676
 31
0.0
  0
ARC
  5
129
330
1F
100
AcDbEntity
  8
JISSEN
  6
Continuous
 62
     7
370
    35
100
AcDbCircle
 10
180.8134080246975
 20
141.9561844576675
 30
0.0
 40
41.10733916629192
100
AcDbArc
 50
344.468448743155
 51
15.53155125684151
  0
LINE
  5
12A
330
1F
100
AcDbEntity
  8
JISSEN
  6
Continuous
 62
     7
370
    35
100
AcDbLine
 10
222.4196364910952
 20
120.8202860728036
 30
0.0
 11
222.4196364910952
 21
163.0920828425317
 31
0.0
  0
ARC
  5
12B
330
1F
100
AcDbEntity
  8
JISSEN
  6
Continuous
 62
     7
370
    35
100
AcDbCircle
 10
181.4196364910965
 20
140.4561844576675
 30
0.0
 40
4.0
100
AcDbArc
 50
89.99999999998697
 51
179.9999999999998
  0
LINE
  5
12C
330
1F
100
AcDbEntity
  8
JISSEN
  6
Continuous
 62
     7
370
    35
100
AcDbLine
 10
186.4196364910965
 20
144.4561844576668
 30
0.0
 11
186.4196364910965
 21
146.9561844576659
 31
0.0
  0
LINE
  5
12D
330
1F
100
AcDbEntity
  8
JISSEN
  6
Continuous
 62
     7
370
    35
100
AcDbLine
 10
186.4196364910965
 20
146.9561844576659
 30
0.0
 11
195.0798905289387
 21
141.9561844576661
 31
0.0
  0
ARC
  5
12E
330
1F
100
AcDbEntity
  8
JISSEN
  6
Continuous
 62
     7
370
    35
100
AcDbCircle
 10
250.0258649575078
 20
141.9561844576679
 30
0.0
 40
41.10733916630466
100
AcDbArc
 50
165.5513515762235
 51
194.448648423776
  0
LINE
  5
12F
330
1F
100
AcDbEntity
  8
JISSEN
  6
Continuous
 62
     7
370
    35
100
AcDbLine
 10
199.2627817682312
 20
127.1130391805312
 30
0.0
 11
199.2627817682312
 21
159.0771153774968
 31
0.0
  0
ELLIPSE
  5
130
330
1F
100
AcDbEntity
  8
JISSEN
  6
Continuous
 62
     7
370
    35
100
AcDbEllipse
 10
201.4196364910952
 20
141.9561844576671
 30
0.0
 11
2.827203005257229E-14
 21
-17.50000000000125
 31
0.0
210
0.0
220
0.0
230
1.0
 40
0.6804312537319058
 41
-2.959627395725493
 42
-1.749196018027831
  0
LINE
  5
131
330
1F
100
AcDbEntity
  8
ITTEN
  6
DASHDOT
 62
     1
370
    25
100
AcDbLine
 10
182.4196364910947
 20
215.2544551387583
 30
0.0
 11
182.419636491097
 21
95.95618445766632
 31
0.0
  0
ARC
  5
132
330
1F
100
AcDbEntity
  8
JISSEN
  6
Continuous
 62
     7
370
    35
100
AcDbCircle
 10
201.4721953743544
 20
113.2948250618077
 30
0.0
 40
10.83975130403496
100
AcDbArc
 50
239.4874507745662
 51
300.5125492254331
  0
ARC
  5
133
330
1F
100
AcDbEntity
  8
JISSEN
  6
Continuous
 62
     7
370
    35
100
AcDbCircle
 10
201.4721953743544
 20
104.6175438535233
 30
0.0
 40
10.83975130403633
100
AcDbArc
 50
62.76133249183253
 51
117.2386675081675
  0
LINE
  5
134
330
1F
100
AcDbEntity
  8
JISSEN
  6
Continuous
 62
     7
370
    35
100
AcDbLine
 10
199.2627817682312
 20
125.1130391805312
 30
0.0
 11
203.8175524471083
 21
120.5582685016541
 31
0.0
  0
ARC
  5
135
330
1F
100
AcDbEntity
  8
JISSEN
  6
Continuous
 62
     7
370
    35
100
AcDbCircle
 10
182.4196364910961
 20
143.5624129240646
 30
0.0
 40
41.10733916629192
100
AcDbArc
 50
254.4684487431468
 51
285.5315512568525
  0
LINE
  5
136
330
1F
100
AcDbEntity
  8
JISSEN
  6
Continuous
 62
     7
370
    35
100
AcDbLine
 10
181.419636491097
 20
144.4561844576675
 30
0.0
 11
186.4196364910965
 21
144.4561844576668
 31
0.0
  0
LINE
  5
137
330
1F
100
AcDbEntity
  8
JISSEN
  6
Continuous
 62
     7
370
    35
100
AcDbLine
 10
186.4196364910965
 20
139.4561844576668
 30
0.0
 11
184.4196364910965
 21
139.4561844576668
 31
0.0
  0
ARC
  5
138
330
1F
100
AcDbEntity
  8
JISSEN
  6
Continuous
 62
     7
370
    35
100
AcDbCircle
 10
182.4196364910965
 20
74.34995599125438
 30
0.0
 40
41.10733916630466
100
AcDbArc
 50
75.55135157622234
 51
104.4486484237777
  0
ARC
  5
139
330
1F
100
AcDbEntity
  8
JISSEN
  6
Continuous
 62
     7
370
    35
100
AcDbCircle
 10
172.4123661664432
 20
113.1887664216769
 30
0.0
 40
1.0
100
AcDbArc
 50
104.4486484237777
 51
179.9999999999998
  0
LINE
  5
13A
330
1F
100
AcDbEntity
  8
JISSEN
  6
Continuous
 62
     7
370
    35
100
AcDbLine
 10
171.4123661664428
 20
103.9561844576661
 30
0.0
 11
171.4123661664432
 21
113.1887664216769
 31
0.0
  0
LINE
  5
13B
330
1F
100
AcDbEntity
  8
JISSEN
  6
Continuous
 62
     7
370
    35
100
AcDbLine
 10
177.4196364910961
 20
132.4561844576679
 30
0.0
 11
182.4196364910961
 21
132.4561844576672
 31
0.0
  0
LINE
  5
13C
330
1F
100
AcDbEntity
  8
JISSEN
  6
Continuous
 62
     7
370
    35
100
AcDbLine
 10
177.4196364910961
 20
132.4561844576679
 30
0.0
 11
177.4196364910965
 21
140.4561844576677
 31
0.0
  0
LINE
  5
13D
330
1F
100
AcDbEntity
  8
JISSEN
  6
Continuous
 62
     7
370
    35
100
AcDbLine
 10
182.4196364910965
 20
137.4561844576668
 30
0.0
 11
182.4196364910961
 21
132.4561844576672
 31
0.0
  0
ARC
  5
13E
330
1F
100
AcDbEntity
  8
JISSEN
  6
Continuous
 62
     7
370
    35
100
AcDbCircle
 10
184.4196364910965
 20
137.456184457667
 30
0.0
 40
2.0
100
AcDbArc
 50
89.99999999999991
 51
179.9999999999998
  0
ARC
  5
13F
330
1F
100
AcDbEntity
  8
JISSEN
  6
Continuous
 62
     7
370
    35
100
AcDbCircle
 10
192.4269068157503
 20
113.1887664216773
 30
0.0
 40
1.0
100
AcDbArc
 50
0.0
 51
75.55135157622233
  0
LINE
  5
140
330
1F
100
AcDbEntity
  8
JISSEN
  6
Continuous
 62
     7
370
    35
100
AcDbLine
 10
195.9685602120273
 20
103.956184457666
 30
0.0
 11
195.9685602120269
 21
113.3661423727111
 31
0.0
  0
LINE
  5
141
330
1F
100
AcDbEntity
  8
JISSEN
  6
Continuous
 62
     7
370
    35
100
AcDbLine
 10
195.9685602120273
 20
103.9561844576661
 30
0.0
 11
193.4269068157494
 21
103.9561844576661
 31
0.0
  0
LINE
  5
142
330
1F
100
AcDbEntity
  8
JISSEN
  6
Continuous
 62
     7
370
    35
100
AcDbLine
 10
193.4269068157498
 20
103.9561844576661
 30
0.0
 11
193.4269068157503
 21
113.1887664216773
 31
0.0
  0
ARC
  5
143
330
1F
100
AcDbEntity
  8
JISSEN
  6
Continuous
 62
     7
370
    35
100
AcDbCircle
 10
196.9685602120273
 20
113.3661423727111
 30
0.0
 40
1.0
100
AcDbArc
 50
117.2386675081818
 51
179.9999999999998
  0
LINE
  5
144
330
1F
100
AcDbEntity
  8
JISSEN
  6
Continuous
 62
     7
370
    35
100
AcDbLine
 10
193.4269068157498
 20
113.9561844576661
 30
0.0
 11
195.9685602120264
 21
113.9561844576661
 31
0.0
  0
LINE
  5
145
330
1F
100
AcDbEntity
  8
JISSEN
  6
Continuous
 62
     7
370
    35
100
AcDbLine
 10
195.0798905289437
 20
141.9561844576661
 30
0.0
 11
186.4196364910965
 21
136.9561844576659
 31
0.0
  0
ELLIPSE
  5
146
330
1F
100
AcDbEntity
  8
JISSEN
  6
Continuous
 62
     7
370
    35
100
AcDbEllipse
 10
201.4196364910952
 20
141.9561844576671
 30
0.0
 11
2.827203005257229E-14
 21
-17.50000000000125
 31
0.0
210
0.0
220
0.0
230
1.0
 40
0.6804312537319058
 41
-1.392396635561798
 42
-0.3526131621382902
  0
LINE
  5
147
330
1F
100
AcDbEntity
  8
JISSEN
  6
Continuous
 62
     7
370
    35
100
AcDbLine
 10
186.4196364910965
 20
136.9561844576659
 30
0.0
 11
186.4196364910965
 21
139.4561844576668
 31
0.0
  0
LINE
  5
148
330
1F
100
AcDbEntity
  8
JISSEN
  6
Continuous
 62
     7
370
    35
100
AcDbLine
 10
203.5555348759606
 20
101.956184457667
 30
0.0
 11
207.0196364910955
 21
103.9561844576656
 31
0.0
  0
LINE
  5
149
330
1F
100
AcDbEntity
  8
JISSEN
  6
Continuous
 62
     7
370
    35
100
AcDbLine
 10
220.4196364910961
 20
130.9489141330139
 30
0.0
 11
211.1870545270851
 21
130.9489141330139
 31
0.0
  0
LINE
  5
14A
330
1F
100
AcDbEntity
  8
JISSEN
  6
Continuous
 62
     7
370
    35
100
AcDbLine
 10
220.4196364910956
 20
128.4072607367369
 30
0.0
 11
211.0096785760518
 21
128.4072607367366
 31
0.0
  0
LINE
  5
14B
330
1F
100
AcDbEntity
  8
JISSEN
  6
Continuous
 62
     7
370
    35
100
AcDbLine
 10
220.4196364910965
 20
117.3999904120831
 30
0.0
 11
211.0096785760518
 21
117.3999904120831
 31
0.0
  0
LINE
  5
14C
330
1F
100
AcDbEntity
  8
JISSEN
  6
Continuous
 62
     7
370
    35
100
AcDbLine
 10
220.4196364910961
 20
117.356184457668
 30
0.0
 11
209.0196364910955
 21
117.356184457668
 31
0.0
  0
ARC
  5
14D
330
1F
100
AcDbEntity
  8
JISSEN
  6
Continuous
 62
     7
370
    35
100
AcDbCircle
 10
219.7582770952397
 20
122.9036255744098
 30
0.0
 40
10.83975130403633
100
AcDbArc
 50
152.7613324918344
 51
207.2386675081653
  0
ARC
  5
14E
330
1F
100
AcDbEntity
  8
JISSEN
  6
Continuous
 62
     7
370
    35
100
AcDbCircle
 10
205.9758305366811
 20
113.3661423727113
 30
0.0
 40
1.0
100
AcDbArc
 50
0.0
 51
62.76133249184734
  0
LINE
  5
14F
330
1F
100
AcDbEntity
  8
JISSEN
  6
Continuous
 62
     7
370
    35
100
AcDbLine
 10
204.9196364910961
 20
115.168620022964
 30
0.0
 11
206.5196364910955
 21
114.244859592261
 31
0.0
  0
LINE
  5
150
330
1F
100
AcDbEntity
  8
JISSEN
  6
Continuous
 62
     7
370
    35
100
AcDbLine
 10
207.4751501182288
 20
120.4561844576675
 30
0.0
 11
205.9196364910961
 21
120.4561844576676
 31
0.0
  0
ARC
  5
151
330
1F
100
AcDbEntity
  8
JISSEN
  6
Continuous
 62
     7
370
    35
100
AcDbCircle
 10
205.9196364910961
 20
116.9006708305329
 30
0.0
 40
2.0
100
AcDbArc
 50
179.9999999999998
 51
239.9999999999995
  0
ARC
  5
152
330
1F
100
AcDbEntity
  8
JISSEN
  6
Continuous
 62
     7
370
    35
100
AcDbCircle
 10
205.9196364910961
 20
118.4561844576676
 30
0.0
 40
2.0
100
AcDbArc
 50
89.99999999998697
 51
179.9999999999998
  0
LINE
  5
153
330
1F
100
AcDbEntity
  8
JISSEN
  6
Continuous
 62
     7
370
    35
100
AcDbLine
 10
203.9196364910961
 20
116.9006708305326
 30
0.0
 11
203.9196364910961
 21
118.4561844576672
 31
0.0
  0
LINE
  5
154
330
1F
100
AcDbEntity
  8
JISSEN
  6
Continuous
 62
     7
370
    35
100
AcDbLine
 10
206.9758305366811
 20
103.9561844576659
 30
0.0
 11
206.9758305366806
 21
113.3661423727114
 31
0.0
  0
LINE
  5
155
330
1F
100
AcDbEntity
  8
JISSEN
  6
Continuous
 62
     7
370
    35
100
AcDbLine
 10
207.0196364910964
 20
103.9561844576661
 30
0.0
 11
207.0196364910955
 21
115.3561844576679
 31
0.0
  0
LINE
  5
156
330
1F
100
AcDbEntity
  8
JISSEN
  6
Continuous
 62
     7
370
    35
100
AcDbLine
 10
207.0196364910964
 20
103.9561844576661
 30
0.0
 11
206.9758305366815
 21
103.9561844576661
 31
0.0
  0
LINE
  5
157
330
1F
100
AcDbEntity
  8
JISSEN
  6
Continuous
 62
     7
370
    35
100
AcDbLine
 10
209.2072009257979
 20
119.4561844576672
 30
0.0
 11
210.1309613565011
 21
117.856184457668
 31
0.0
  0
ARC
  5
158
330
1F
100
AcDbEntity
  8
JISSEN
  6
Continuous
 62
     7
370
    35
100
AcDbCircle
 10
207.4751501182288
 20
118.4561844576672
 30
0.0
 40
2.0
100
AcDbArc
 50
29.99999999999306
 51
89.99999999999991
  0
ARC
  5
159
330
1F
100
AcDbEntity
  8
JISSEN
  6
Continuous
 62
     7
370
    35
100
AcDbCircle
 10
206.0196364910955
 20
113.3788341884766
 30
0.0
 40
1.0
100
AcDbArc
 50
0.0
 51
60.00000000000028
  0
ARC
  5
15A
330
1F
100
AcDbEntity
  8
JISSEN
  6
Continuous
 62
     7
370
    35
100
AcDbCircle
 10
209.0196364910955
 20
115.356184457668
 30
0.0
 40
2.0
100
AcDbArc
 50
89.99999999999991
 51
179.9999999999998
  0
ARC
  5
15B
330
1F
100
AcDbEntity
  8
JISSEN
  6
Continuous
 62
     7
370
    35
100
AcDbCircle
 10
211.0096785760518
 20
118.3999904120829
 30
0.0
 40
1.0
100
AcDbArc
 50
207.2386675081639
 51
269.9999999999998
  0
ARC
  5
15C
330
1F
100
AcDbEntity
  8
JISSEN
  6
Continuous
 62
     7
370
    35
100
AcDbCircle
 10
210.9969867602852
 20
118.356184457668
 30
0.0
 40
1.0
100
AcDbArc
 50
209.9999999999927
 51
269.9999999999998
  0
ARC
  5
15D
330
1F
100
AcDbEntity
  8
JISSEN
  6
Continuous
 62
     7
370
    35
100
AcDbCircle
 10
211.1870545270851
 20
131.9489141330139
 30
0.0
 40
1.0
100
AcDbArc
 50
194.4486484237745
 51
269.9999999999998
  0
ARC
  5
15E
330
1F
100
AcDbEntity
  8
JISSEN
  6
Continuous
 62
     7
370
    35
100
AcDbCircle
 10
211.0096785760518
 20
127.4072607367366
 30
0.0
 40
1.0
100
AcDbArc
 50
89.99999999999991
 51
152.7613324918357
  0
LINE
  5
15F
330
1F
100
AcDbEntity
  8
JISSEN
  6
Continuous
 62
     7
370
    35
100
AcDbLine
 10
210.4196364910961
 20
128.4072607367366
 30
0.0
 11
210.4196364910961
 21
130.9489141330139
 31
0.0
  0
ARC
  5
160
330
1F
100
AcDbEntity
  8
JISSEN
  6
Continuous
 62
     7
370
    35
100
AcDbCircle
 10
211.0809958869543
 20
122.9036255744098
 30
0.0
 40
10.83975130403496
100
AcDbArc
 50
329.4874507745715
 51
30.5125492254281
  0
LINE
  5
161
330
1F
100
AcDbEntity
  8
JISSEN
  6
Continuous
 62
     7
370
    35
100
AcDbLine
 10
222.4196364910952
 20
120.8202860728036
 30
0.0
 11
220.4196364910965
 21
117.3561844576687
 31
0.0
  0
LINE
  5
162
330
1F
100
AcDbEntity
  8
JISSEN
  6
Continuous
 62
     7
370
    35
100
AcDbLine
 10
220.4196364910961
 20
117.3999904120836
 30
0.0
 11
220.4196364910961
 21
117.3561844576678
 31
0.0
  0
LINE
  5
163
330
1F
100
AcDbEntity
  8
JISSEN
  6
Continuous
 62
     7
370
    35
100
AcDbLine
 10
220.4196364910961
 20
130.9489141330139
 30
0.0
 11
220.4196364910961
 21
128.4072607367366
 31
0.0
  0
ARC
  5
164
330
1F
100
AcDbEntity
  8
JISSEN
  6
Continuous
 62
     7
370
    35
100
AcDbCircle
 10
200.2696364910955
 20
186.5402415763857
 30
0.0
 40
1.0
100
AcDbArc
 50
134.9999999999931
 51
179.9999999999998
  0
LINE
  5
165
330
1F
100
AcDbEntity
  8
JISSEN
  6
Continuous
 62
     7
370
    35
100
AcDbLine
 10
196.2035659002522
 20
174.7544551387584
 30
0.0
 11
201.4196364910956
 21
174.7544551387584
 31
0.0
  0
LINE
  5
166
330
1F
100
AcDbEntity
  8
JISSEN
  6
Continuous
 62
     7
370
    35
100
AcDbLine
 10
201.4196364910956
 20
174.7544551387584
 30
0.0
 11
199.2696364910958
 21
176.9044551387581
 31
0.0
  0
LINE
  5
167
330
1F
100
AcDbEntity
  8
JISSEN
  6
Continuous
 62
     7
370
    35
100
AcDbLine
 10
200.9196364910956
 20
209.2544551387583
 30
0.0
 11
183.9196364910956
 21
209.2544551387583
 31
0.0
  0
LINE
  5
168
330
1F
100
AcDbEntity
  8
JISSEN
  6
Continuous
 62
     7
370
    35
100
AcDbLine
 10
200.6196364910932
 20
167.756184457667
 30
0.0
 11
184.4196364910954
 21
167.7561844576668
 31
0.0
  0
LINE
  5
169
330
1F
100
AcDbEntity
  8
JISSEN
  6
Continuous
 62
     7
370
    35
100
AcDbLine
 10
184.4196364910954
 20
166.9561844576664
 30
0.0
 11
201.4196364910961
 21
166.9561844576661
 31
0.0
  0
ARC
  5
16A
330
1F
100
AcDbEntity
  8
JISSEN
  6
Continuous
 62
     7
370
    35
100
AcDbCircle
 10
201.2627817682312
 20
159.0771153774968
 30
0.0
 40
2.0
100
AcDbArc
 50
156.0942891496548
 51
179.9999999999998
  0
ARC
  5
16B
330
1F
100
AcDbEntity
  8
JISSEN
  6
Continuous
 62
     7
370
    35
100
AcDbCircle
 10
204.919636044064
 20
157.4561845321724
 30
0.0
 40
6.0
100
AcDbArc
 50
89.99999999999991
 51
156.0942891496539
  0
LINE
  5
16C
330
1F
100
AcDbEntity
  8
JISSEN
  6
Continuous
 62
     7
370
    35
100
AcDbLine
 10
199.2696364910955
 20
176.9025773083481
 30
0.0
 11
199.2696364910955
 21
198.2544551387501
 31
0.0
  0
LINE
  5
16D
330
1F
100
AcDbEntity
  8
JISSEN
  6
Continuous
 62
     7
370
    35
100
AcDbLine
 10
199.2696364910955
 20
176.9025773083477
 30
0.0
 11
199.2696364910955
 21
192.2544551387508
 31
0.0
  0
LINE
  5
16E
330
1F
100
AcDbEntity
  8
JISSEN
  6
Continuous
 62
     7
370
    35
100
AcDbLine
 10
180.4196364910954
 20
168.2544551387583
 30
0.0
 11
180.4196364910956
 21
165.9561844576673
 31
0.0
  0
LINE
  5
16F
330
1F
100
AcDbEntity
  8
JISSEN
  6
Continuous
 62
     7
370
    35
100
AcDbLine
 10
184.4196364910954
 20
168.2544551387583
 30
0.0
 11
184.4196364910956
 21
165.9561844576673
 31
0.0
  0
LINE
  5
170
330
1F
100
AcDbEntity
  8
JISSEN
  6
Continuous
 62
     7
370
    35
100
AcDbLine
 10
184.4196364910956
 20
165.9561844576673
 30
0.0
 11
180.4196364910956
 21
165.9561844576673
 31
0.0
  0
LINE
  5
171
330
1F
100
AcDbEntity
  8
JISSEN
  6
Continuous
 62
     7
370
    35
100
AcDbLine
 10
193.9755856090021
 20
177.7544551387582
 30
0.0
 11
193.9755856090021
 21
176.904455138758
 31
0.0
  0
LINE
  5
172
330
1F
100
AcDbEntity
  8
JISSEN
  6
Continuous
 62
     7
370
    35
100
AcDbLine
 10
194.6826923901888
 20
177.7544551387582
 30
0.0
 11
194.6826923901888
 21
176.904455138758
 31
0.0
  0
LINE
  5
173
330
1F
100
AcDbEntity
  8
JISSEN
  6
Continuous
 62
     7
370
    35
100
AcDbLine
 10
194.6826923901888
 20
176.9044551387581
 30
0.0
 11
199.2696364910958
 21
176.9044551387581
 31
0.0
  0
LINE
  5
174
330
1F
100
AcDbEntity
  8
JISSEN
  6
Continuous
 62
     7
370
    35
100
AcDbLine
 10
196.2035659002522
 20
174.7544551387583
 30
0.0
 11
194.6826923901888
 21
176.904455138758
 31
0.0
  0
LINE
  5
175
330
1F
100
AcDbEntity
  8
JISSEN
  6
Continuous
 62
     7
370
    35
100
AcDbLine
 10
195.4964591190655
 20
174.7544551387584
 30
0.0
 11
193.9755856090021
 21
176.904455138758
 31
0.0
  0
LINE
  5
176
330
1F
100
AcDbEntity
  8
JISSEN
  6
Continuous
 62
     7
370
    35
100
AcDbLine
 10
195.4964591190655
 20
174.7544551387583
 30
0.0
 11
195.4964591190655
 21
168.2544551387582
 31
0.0
  0
LINE
  5
177
330
1F
100
AcDbEntity
  8
JISSEN
  6
Continuous
 62
     7
370
    35
100
AcDbLine
 10
196.2035659002522
 20
174.7544551387583
 30
0.0
 11
196.203565900252
 21
168.2544551387582
 31
0.0
  0
ELLIPSE
  5
178
330
1F
100
AcDbEntity
  8
JISSEN
  6
Continuous
 62
     7
370
    35
100
AcDbEllipse
 10
194.3343857540874
 20
177.7544551387582
 30
0.0
 11
8.077722872162934E-16
 21
0.5
 31
0.0
210
0.0
220
0.0
230
1.0
 40
0.7176002901705942
 41
-0.0000000000000062
 42
1.57079632679489
  0
ELLIPSE
  5
179
330
1F
100
AcDbEntity
  8
JISSEN
  6
Continuous
 62
     7
370
    35
100
AcDbEllipse
 10
194.3343857540874
 20
177.7544551387582
 30
0.0
 11
8.077722872162934E-16
 21
0.5
 31
0.0
210
0.0
220
0.0
230
1.0
 40
0.6966132722027396
 41
-1.570796326794897
 42
0.0
  0
LINE
  5
17A
330
1F
100
AcDbEntity
  8
JISSEN
  6
Continuous
 62
     7
370
    35
100
AcDbLine
 10
186.9196364910922
 20
195.7641353065084
 30
0.0
 11
184.8260387838352
 21
195.7641353065085
 31
0.0
  0
LINE
  5
17B
330
1F
100
AcDbEntity
  8
JISSEN
  6
Continuous
 62
     7
370
    35
100
AcDbLine
 10
188.8096364910914
 20
196.2642230909217
 30
0.0
 11
184.6440217157885
 21
196.264223090922
 31
0.0
  0
LINE
  5
17C
330
1F
100
AcDbEntity
  8
JISSEN
  6
Continuous
 62
     7
370
    35
100
AcDbLine
 10
188.8096364910916
 20
197.7642230909217
 30
0.0
 11
184.0980663643893
 21
197.764223090922
 31
0.0
  0
LINE
  5
17D
330
1F
100
AcDbEntity
  8
JISSEN
  6
Continuous
 62
     7
370
    35
100
AcDbLine
 10
183.9799438703096
 20
198.0887619761352
 30
0.0
 11
185.6244877315401
 21
193.5704148521019
 31
0.0
  0
LINE
  5
17E
330
1F
100
AcDbEntity
  8
JISSEN
  6
Continuous
 62
     7
370
    35
100
AcDbLine
 10
199.2696364910935
 20
192.2544551387584
 30
0.0
 11
184.9196364910958
 21
192.2544551387547
 31
0.0
  0
POLYLINE
  5
17F
330
1F
100
AcDbEntity
  8
JISSEN
  6
Continuous
 62
     7
370
    35
100
AcDb2dPolyline
 66
     1
 10
0.0
 20
0.0
 30
0.0
  0
VERTEX
  5
180
330
17F
100
AcDbEntity
  8
JISSEN
  6
Continuous
 62
     7
370
    35
100
AcDbVertex
100
AcDb2dVertex
 10
183.9196364910947
 20
201.7577650594713
 30
0.0
  0
VERTEX
  5
181
330
17F
100
AcDbEntity
  8
JISSEN
  6
Continuous
 62
     7
370
    35
100
AcDbVertex
100
AcDb2dVertex
 10
194.4196364910902
 20
201.7577650594713
 30
0.0
  0
VERTEX
  5
182
330
17F
100
AcDbEntity
  8
JISSEN
  6
Continuous
 62
     7
370
    35
100
AcDbVertex
100
AcDb2dVertex
 10
194.4196364910902
 20
201.9077650594713
 30
0.0
  0
VERTEX
  5
183
330
17F
100
AcDbEntity
  8
JISSEN
  6
Continuous
 62
     7
370
    35
100
AcDbVertex
100
AcDb2dVertex
 10
183.9196364910947
 20
201.9077650594713
 30
0.0
  0
SEQEND
  5
184
330
17F
100
AcDbEntity
  8
JISSEN
  6
Continuous
 62
     7
370
    35
  0
LINE
  5
185
330
1F
100
AcDbEntity
  8
JISSEN
  6
Continuous
 62
     7
370
    35
100
AcDbLine
 10
194.4196364910902
 20
203.9061495211675
 30
0.0
 11
183.9196364910947
 21
203.9061495211676
 31
0.0
  0
LINE
  5
186
330
1F
100
AcDbEntity
  8
JISSEN
  6
Continuous
 62
     7
370
    35
100
AcDbLine
 10
183.9196364910947
 20
202.4077650594713
 30
0.0
 11
192.4196364910902
 21
202.4077650594713
 31
0.0
  0
LINE
  5
187
330
1F
100
AcDbEntity
  8
JISSEN
  6
Continuous
 62
     7
370
    35
100
AcDbLine
 10
183.9196364910947
 20
204.0561495211676
 30
0.0
 11
194.4196364910902
 21
204.0561495211676
 31
0.0
  0
LINE
  5
188
330
1F
100
AcDbEntity
  8
JISSEN
  6
Continuous
 62
     7
370
    35
100
AcDbLine
 10
183.9196364910956
 20
209.2544551387583
 30
0.0
 11
182.4196364910956
 21
210.7544551387583
 31
0.0
  0
LINE
  5
189
330
1F
100
AcDbEntity
  8
JISSEN
  6
Continuous
 62
     7
370
    35
100
AcDbLine
 10
180.9196364910956
 20
209.2544551387583
 30
0.0
 11
182.4196364910956
 21
210.7544551387583
 31
0.0
  0
LINE
  5
18A
330
1F
100
AcDbEntity
  8
JISSEN
  6
Continuous
 62
     7
370
    35
100
AcDbLine
 10
176.0296364910923
 20
197.7642230909221
 30
0.0
 11
180.741206617801
 21
197.764223090922
 31
0.0
  0
LINE
  5
18B
330
1F
100
AcDbEntity
  8
JISSEN
  6
Continuous
 62
     7
370
    35
100
AcDbLine
 10
176.0296364910923
 20
196.2642230909222
 30
0.0
 11
180.1952512664018
 21
196.2642230909221
 31
0.0
  0
LINE
  5
18C
330
1F
100
AcDbEntity
  8
JISSEN
  6
Continuous
 62
     7
370
    35
100
AcDbLine
 10
177.9196364910913
 20
195.7641353065087
 30
0.0
 11
180.0132341983553
 21
195.7641353065088
 31
0.0
  0
ARC
  5
18D
330
1F
100
AcDbEntity
  8
JISSEN
  6
Continuous
 62
     7
370
    35
100
AcDbCircle
 10
177.3354000090785
 20
194.2544551387532
 30
0.0
 40
2.0
100
AcDbArc
 50
270.0000000000127
 51
339.999999999999
  0
LINE
  5
18E
330
1F
100
AcDbEntity
  8
JISSEN
  6
Continuous
 62
     7
370
    35
100
AcDbLine
 10
172.4196364910902
 20
202.4077650594713
 30
0.0
 11
180.9196364910947
 21
202.4077650594713
 31
0.0
  0
LINE
  5
18F
330
1F
100
AcDbEntity
  8
JISSEN
  6
Continuous
 62
     7
370
    35
100
AcDbLine
 10
174.1571186752769
 20
192.254455138752
 30
0.0
 11
174.1571186752774
 21
199.756123524975
 31
0.0
  0
LINE
  5
190
330
1F
100
AcDbEntity
  8
JISSEN
  6
Continuous
 62
     7
370
    35
100
AcDbLine
 10
176.0296364910923
 20
199.7561235249748
 30
0.0
 11
176.0296364910921
 21
192.2544551387524
 31
0.0
  0
ARC
  5
191
330
1F
100
AcDbEntity
  8
JISSEN
  6
Continuous
 62
     7
370
    35
100
AcDbCircle
 10
173.3193141744478
 20
197.9300372480516
 30
0.0
 40
0.2300000000000182
100
AcDbArc
 50
120.0000000000038
 51
209.999999999977
  0
ARC
  5
192
330
1F
100
AcDbEntity
  8
JISSEN
  6
Continuous
 62
     7
370
    35
100
AcDbCircle
 10
173.8735704328701
 20
198.2500372480517
 30
0.0
 40
0.2300000000000182
100
AcDbArc
 50
29.99999999998962
 51
120.0000000000038
  0
LINE
  5
193
330
1F
100
AcDbEntity
  8
JISSEN
  6
Continuous
 62
     7
370
    35
100
AcDbLine
 10
173.1201283315777
 20
197.8150372480518
 30
0.0
 11
173.7845511949836
 21
196.6642230909222
 31
0.0
  0
LINE
  5
194
330
1F
100
AcDbEntity
  8
JISSEN
  6
Continuous
 62
     7
370
    35
100
AcDbLine
 10
173.204314174448
 20
198.1292230909223
 30
0.0
 11
173.7585704328706
 21
198.4492230909223
 31
0.0
  0
LINE
  5
195
330
1F
100
AcDbEntity
  8
JISSEN
  6
Continuous
 62
     7
370
    35
100
AcDbLine
 10
174.0727562757409
 20
198.365037248052
 30
0.0
 11
174.1571186752772
 21
198.2189172858061
 31
0.0
  0
ARC
  5
196
330
1F
100
AcDbEntity
  8
JISSEN
  6
Continuous
 62
     7
370
    35
100
AcDbCircle
 10
174.4773715180113
 20
197.064223090922
 30
0.0
 40
0.7999999999999545
100
AcDbArc
 50
209.9999999999852
 51
246.4020620116609
  0
LINE
  5
197
330
1F
100
AcDbEntity
  8
JISSEN
  6
Continuous
 62
     7
370
    35
100
AcDbLine
 10
177.9196364910913
 20
195.7641353065087
 30
0.0
 11
177.9196364910913
 21
196.2641353065085
 31
0.0
  0
LINE
  5
198
330
1F
100
AcDbEntity
  8
JISSEN
  6
Continuous
 62
     7
370
    35
100
AcDbLine
 10
174.1571186752774
 20
199.756123524975
 30
0.0
 11
176.0296364910926
 21
199.7561235249748
 31
0.0
  0
LINE
  5
199
330
1F
100
AcDbEntity
  8
JISSEN
  6
Continuous
 62
     7
370
    35
100
AcDbLine
 10
177.5106323852128
 20
202.4077650594713
 30
0.0
 11
173.3938549110408
 21
203.9061495211675
 31
0.0
  0
ARC
  5
19A
330
1F
100
AcDbEntity
  8
JISSEN
  6
Continuous
 62
     7
370
    35
100
AcDbCircle
 10
172.4196364910902
 20
201.9077650594713
 30
0.0
 40
0.5
100
AcDbArc
 50
89.99999999999991
 51
179.9999999999998
  0
LINE
  5
19B
330
1F
100
AcDbEntity
  8
JISSEN
  6
Continuous
 62
     7
370
    35
100
AcDbLine
 10
178.8696364910895
 20
197.7642230909221
 30
0.0
 11
178.8696364910898
 21
201.7560357405619
 31
0.0
  0
LINE
  5
19C
330
1F
100
AcDbEntity
  8
JISSEN
  6
Continuous
 62
     7
370
    35
100
AcDbLine
 10
183.9196364910956
 20
209.2544551387583
 30
0.0
 11
183.9196364910956
 21
193.0757754823157
 31
0.0
  0
LINE
  5
19D
330
1F
100
AcDbEntity
  8
JISSEN
  6
Continuous
 62
     7
370
    35
100
AcDbLine
 10
180.9196364910956
 20
209.2544551387583
 30
0.0
 11
180.9196364910956
 21
193.0757754823157
 31
0.0
  0
ELLIPSE
  5
19E
330
1F
100
AcDbEntity
  8
JISSEN
  6
Continuous
 62
     7
370
    35
100
AcDbEllipse
 10
182.4196364910956
 20
193.0757754823157
 30
0.0
 11
3.427087571667789E-15
 21
-2.1213203435575
 31
0.0
210
0.0
220
0.0
230
1.0
 40
0.7071067811872618
 41
-1.57079632679489
 42
1.570796326794903
  0
ARC
  5
19F
330
1F
100
AcDbEntity
  8
JISSEN
  6
Continuous
 62
     7
370
    35
100
AcDbCircle
 10
179.9196364910947
 20
198.4307821194609
 30
0.0
 40
1.0
100
AcDbArc
 50
340.0000000000013
 51
0.0
  0
LINE
  5
1A0
330
1F
100
AcDbEntity
  8
JISSEN
  6
Continuous
 62
     7
370
    35
100
AcDbLine
 10
180.8593291118807
 20
198.0887619761352
 30
0.0
 11
179.2147852506503
 21
193.5704148521019
 31
0.0
  0
ARC
  5
1A1
330
1F
100
AcDbEntity
  8
JISSEN
  6
Continuous
 62
     7
370
    35
100
AcDbCircle
 10
179.9196364910956
 20
198.4307821194609
 30
0.0
 40
1.0
100
AcDbArc
 50
340.0000000000013
 51
0.0
  0
ARC
  5
1A2
330
1F
100
AcDbEntity
  8
JISSEN
  6
Continuous
 62
     7
370
    35
100
AcDbCircle
 10
179.9196364910956
 20
193.2544551387547
 30
0.0
 40
1.0
100
AcDbArc
 50
269.9999999999998
 51
0.0
  0
ARC
  5
1A3
330
1F
100
AcDbEntity
  8
JISSEN
  6
Continuous
 62
     7
370
    35
100
AcDbCircle
 10
184.9196364910956
 20
198.4307821194609
 30
0.0
 40
1.0
100
AcDbArc
 50
179.9999999999998
 51
199.999999999998
  0
ARC
  5
1A4
330
1F
100
AcDbEntity
  8
JISSEN
  6
Continuous
 62
     7
370
    35
100
AcDbCircle
 10
184.9196364910956
 20
193.2544551387547
 30
0.0
 40
1.0
100
AcDbArc
 50
179.9999999999998
 51
269.9999999999998
  0
LINE
  5
1A5
330
1F
100
AcDbEntity
  8
JISSEN
  6
Continuous
 62
     7
370
    35
100
AcDbLine
 10
178.8696364910929
 20
201.7577650594712
 30
0.0
 11
180.9196364910947
 21
201.757765059471
 31
0.0
  0
LINE
  5
1A6
330
1F
100
AcDbEntity
  8
JISSEN
  6
Continuous
 62
     7
370
    35
100
AcDbLine
 10
180.9196364910886
 20
198.9505853824987
 30
0.0
 11
180.9196364910888
 21
202.757765059471
 31
0.0
  0
LINE
  5
1A7
330
1F
100
AcDbEntity
  8
JISSEN
  6
Continuous
 62
     7
370
    35
100
AcDbLine
 10
183.9196364910936
 20
198.9505853824984
 30
0.0
 11
183.9196364910938
 21
202.7577650594707
 31
0.0
  0
ARC
  5
1A8
330
1F
100
AcDbEntity
  8
JISSEN
  6
Continuous
 62
     7
370
    35
100
AcDbCircle
 10
192.4196364910902
 20
201.9077650594713
 30
0.0
 40
0.5
100
AcDbArc
 50
0.0
 51
89.99999999999991
  0
LINE
  5
1A9
330
1F
100
AcDbEntity
  8
JISSEN
  6
Continuous
 62
     7
370
    35
100
AcDbLine
 10
185.9696364910947
 20
197.7642230909219
 30
0.0
 11
185.9696364910947
 21
201.7560357405616
 31
0.0
  0
LINE
  5
1AA
330
1F
100
AcDbEntity
  8
JISSEN
  6
Continuous
 62
     7
370
    35
100
AcDbLine
 10
190.6821543069063
 20
192.2544551387562
 30
0.0
 11
190.682154306907
 21
199.7561235249743
 31
0.0
  0
LINE
  5
1AB
330
1F
100
AcDbEntity
  8
JISSEN
  6
Continuous
 62
     7
370
    35
100
AcDbLine
 10
188.8096364910919
 20
199.7561235249744
 30
0.0
 11
188.8096364910914
 21
192.2544551387557
 31
0.0
  0
LINE
  5
1AC
330
1F
100
AcDbEntity
  8
JISSEN
  6
Continuous
 62
     7
370
    35
100
AcDbLine
 10
186.9196364910922
 20
195.7641353065084
 30
0.0
 11
186.9196364910922
 21
196.2641353065083
 31
0.0
  0
ARC
  5
1AD
330
1F
100
AcDbEntity
  8
JISSEN
  6
Continuous
 62
     7
370
    35
100
AcDbCircle
 10
187.503872973112
 20
194.2544551387532
 30
0.0
 40
2.0
100
AcDbArc
 50
199.9999999999988
 51
269.9999999999866
  0
ARC
  5
1AE
330
1F
100
AcDbEntity
  8
JISSEN
  6
Continuous
 62
     7
370
    35
100
AcDbCircle
 10
190.3619014641727
 20
197.0642230909216
 30
0.0
 40
0.7999999999999545
100
AcDbArc
 50
293.5979379883368
 51
330.0000000000024
  0
LINE
  5
1AF
330
1F
100
AcDbEntity
  8
JISSEN
  6
Continuous
 62
     7
370
    35
100
AcDbLine
 10
190.7665167064436
 20
198.3650372480513
 30
0.0
 11
190.6821543069068
 21
198.2189172858056
 31
0.0
  0
LINE
  5
1B0
330
1F
100
AcDbEntity
  8
JISSEN
  6
Continuous
 62
     7
370
    35
100
AcDbLine
 10
191.6349588077355
 20
198.1292230909216
 30
0.0
 11
191.0807025493139
 21
198.4492230909216
 31
0.0
  0
LINE
  5
1B1
330
1F
100
AcDbEntity
  8
JISSEN
  6
Continuous
 62
     7
370
    35
100
AcDbLine
 10
191.7191446506063
 20
197.8150372480511
 30
0.0
 11
191.0547217871999
 21
196.6642230909215
 31
0.0
  0
ARC
  5
1B2
330
1F
100
AcDbEntity
  8
JISSEN
  6
Continuous
 62
     7
370
    35
100
AcDbCircle
 10
190.9657025493134
 20
198.2500372480512
 30
0.0
 40
0.2300000000000182
100
AcDbArc
 50
59.99999999999623
 51
150.0000000000104
  0
ARC
  5
1B3
330
1F
100
AcDbEntity
  8
JISSEN
  6
Continuous
 62
     7
370
    35
100
AcDbCircle
 10
191.5199588077357
 20
197.930037248051
 30
0.0
 40
0.2300000000000182
100
AcDbArc
 50
330.00000000001
 51
59.99999999999623
  0
LINE
  5
1B4
330
1F
100
AcDbEntity
  8
JISSEN
  6
Continuous
 62
     7
370
    35
100
AcDbLine
 10
187.3286405969579
 20
202.4077650594713
 30
0.0
 11
191.4454180711298
 21
203.9061495211675
 31
0.0
  0
LINE
  5
1B5
330
1F
100
AcDbEntity
  8
JISSEN
  6
Continuous
 62
     7
370
    35
100
AcDbLine
 10
190.682154306907
 20
199.7561235249743
 30
0.0
 11
188.8096364910919
 21
199.7561235249744
 31
0.0
  0
LINE
  5
1B6
330
1F
100
AcDbEntity
  8
JISSEN
  6
Continuous
 62
     7
370
    35
100
AcDbLine
 10
196.3060317480945
 20
198.2527258198507
 30
0.0
 11
198.7450564179387
 21
209.2544551387583
 31
0.0
  0
LINE
  5
1B7
330
1F
100
AcDbEntity
  8
JISSEN
  6
Continuous
 62
     7
370
    35
100
AcDbLine
 10
195.2511803106383
 20
193.7940123359523
 30
0.0
 11
196.3064151288647
 21
198.2544551387509
 31
0.0
  0
ARC
  5
1B8
330
1F
100
AcDbEntity
  8
JISSEN
  6
Continuous
 62
     7
370
    35
100
AcDbCircle
 10
193.3049037564595
 20
194.2544551387562
 30
0.0
 40
2.0
100
AcDbArc
 50
270.0000000000257
 51
346.6898930809701
  0
ARC
  5
1B9
330
1F
100
AcDbEntity
  8
JISSEN
  6
Continuous
 62
     7
370
    35
100
AcDbCircle
 10
196.9933790273215
 20
194.2544551387512
 30
0.0
 40
2.0
100
AcDbArc
 50
269.9999999999866
 51
356.1148568045217
  0
LINE
  5
1BA
330
1F
100
AcDbEntity
  8
JISSEN
  6
Continuous
 62
     7
370
    35
100
AcDbLine
 10
199.2696364910946
 20
198.2544551387507
 30
0.0
 11
198.9887827906621
 21
194.1189419613647
 31
0.0
  0
LINE
  5
1BB
330
1F
100
AcDbEntity
  8
JISSEN
  6
Continuous
 62
     7
370
    35
100
AcDbLine
 10
194.4196364910902
 20
203.9061495211675
 30
0.0
 11
194.4196364910902
 21
204.0561495211676
 31
0.0
  0
LINE
  5
1BC
330
1F
100
AcDbEntity
  8
JISSEN
  6
Continuous
 62
     7
370
    35
100
AcDbLine
 10
199.5625297099089
 20
187.2473483575722
 30
0.0
 11
201.9802966628756
 21
189.6651153105386
 31
0.0
  0
LINE
  5
1BD
330
1F
100
AcDbEntity
  8
JISSEN
  6
Continuous
 62
     7
370
    35
100
AcDbLine
 10
220.4196364910961
 20
166.512378503252
 30
0.0
 11
211.0096785760504
 21
166.5123785032516
 31
0.0
  0
LINE
  5
1BE
330
1F
100
AcDbEntity
  8
JISSEN
  6
Continuous
 62
     7
370
    35
100
AcDbLine
 10
220.4196364910961
 20
152.9634547823206
 30
0.0
 11
211.1870545270847
 21
152.963454782321
 31
0.0
  0
LINE
  5
1BF
330
1F
100
AcDbEntity
  8
JISSEN
  6
Continuous
 62
     7
370
    35
100
AcDbLine
 10
220.4196364910961
 20
155.5051081785981
 30
0.0
 11
211.0096785760509
 21
155.5051081785978
 31
0.0
  0
LINE
  5
1C0
330
1F
100
AcDbEntity
  8
JISSEN
  6
Continuous
 62
     7
370
    35
100
AcDbLine
 10
220.4196364910961
 20
166.5561844576671
 30
0.0
 11
210.9969867602852
 21
166.5561844576665
 31
0.0
  0
ARC
  5
1C1
330
1F
100
AcDbEntity
  8
JISSEN
  6
Continuous
 62
     7
370
    35
100
AcDbCircle
 10
211.0096785760504
 20
165.512378503252
 30
0.0
 40
1.0
100
AcDbArc
 50
89.99999999999991
 51
152.7613324918458
  0
ARC
  5
1C2
330
1F
100
AcDbEntity
  8
JISSEN
  6
Continuous
 62
     7
370
    35
100
AcDbCircle
 10
202.2338500534672
 20
167.5561844576665
 30
0.0
 40
1.0
100
AcDbArc
 50
225.0000000000089
 51
269.9999999999998
  0
LINE
  5
1C3
330
1F
100
AcDbEntity
  8
JISSEN
  6
Continuous
 62
     7
370
    35
100
AcDbLine
 10
201.4196364910961
 20
166.9561844576661
 30
0.0
 11
201.4196364910933
 21
165.4561844576675
 31
0.0
  0
ARC
  5
1C4
330
1F
100
AcDbEntity
  8
JISSEN
  6
Continuous
 62
     7
370
    35
100
AcDbCircle
 10
210.9969867602852
 20
165.5561844576665
 30
0.0
 40
1.0
100
AcDbArc
 50
89.99999999999991
 51
150.0000000000055
  0
LINE
  5
1C5
330
1F
100
AcDbEntity
  8
JISSEN
  6
Continuous
 62
     7
370
    35
100
AcDbLine
 10
207.4751501182293
 20
163.456184457667
 30
0.0
 11
203.4196364910938
 21
163.4561844576675
 31
0.0
  0
LINE
  5
1C6
330
1F
100
AcDbEntity
  8
JISSEN
  6
Continuous
 62
     7
370
    35
100
AcDbLine
 10
210.9969867602852
 20
166.5561844576665
 30
0.0
 11
202.2338500534672
 21
166.5561844576665
 31
0.0
  0
ARC
  5
1C7
330
1F
100
AcDbEntity
  8
JISSEN
  6
Continuous
 62
     7
370
    35
100
AcDbCircle
 10
203.4196364910933
 20
165.4561844576675
 30
0.0
 40
2.0
100
AcDbArc
 50
179.9999999999998
 51
269.9999999999998
  0
ARC
  5
1C8
330
1F
100
AcDbEntity
  8
JISSEN
  6
Continuous
 62
     7
370
    35
100
AcDbCircle
 10
211.0096785760509
 20
156.5051081785983
 30
0.0
 40
1.0
100
AcDbArc
 50
207.2386675081829
 51
269.9999999999998
  0
ARC
  5
1C9
330
1F
100
AcDbEntity
  8
JISSEN
  6
Continuous
 62
     7
370
    35
100
AcDbCircle
 10
211.1870545270847
 20
151.963454782321
 30
0.0
 40
1.0
100
AcDbArc
 50
89.99999999999991
 51
165.5513515762235
  0
LINE
  5
1CA
330
1F
100
AcDbEntity
  8
JISSEN
  6
Continuous
 62
     7
370
    35
100
AcDbLine
 10
210.4196364910961
 20
152.9634547823208
 30
0.0
 11
210.4196364910956
 21
155.5051081785971
 31
0.0
  0
ARC
  5
1CB
330
1F
100
AcDbEntity
  8
JISSEN
  6
Continuous
 62
     7
370
    35
100
AcDbCircle
 10
219.7582770952388
 20
161.0087433409252
 30
0.0
 40
10.83975130403633
100
AcDbArc
 50
152.7613324918342
 51
207.2386675081654
  0
LINE
  5
1CC
330
1F
100
AcDbEntity
  8
JISSEN
  6
Continuous
 62
     7
370
    35
100
AcDbLine
 10
209.2072009257979
 20
164.4561844576672
 30
0.0
 11
210.1309613565011
 21
166.0561844576665
 31
0.0
  0
ARC
  5
1CD
330
1F
100
AcDbEntity
  8
JISSEN
  6
Continuous
 62
     7
370
    35
100
AcDbCircle
 10
207.4751501182288
 20
165.4561844576672
 30
0.0
 40
2.0
100
AcDbArc
 50
269.9999999999998
 51
330.0000000000066
  0
LINE
  5
1CE
330
1F
100
AcDbEntity
  8
JISSEN
  6
Continuous
 62
     7
370
    35
100
AcDbLine
 10
201.4196364910956
 20
174.7544551387583
 30
0.0
 11
201.4196364910956
 21
168.2544551387583
 31
0.0
  0
LINE
  5
1CF
330
1F
100
AcDbEntity
  8
JISSEN
  6
Continuous
 62
     7
370
    35
100
AcDbLine
 10
199.7235755263357
 20
168.2544551387584
 30
0.0
 11
199.7235755263357
 21
167.7561844576662
 31
0.0
  0
LINE
  5
1D0
330
1F
100
AcDbEntity
  8
JISSEN
  6
Continuous
 62
     7
370
    35
100
AcDbLine
 10
201.526743272281
 20
166.8490776764798
 30
0.0
 11
200.6196364910927
 21
167.756184457667
 31
0.0
  0
ARC
  5
1D1
330
1F
100
AcDbEntity
  8
JISSEN
  6
Continuous
 62
     7
370
    35
100
AcDbCircle
 10
211.0809958869543
 20
161.0087433409256
 30
0.0
 40
10.83975130403496
100
AcDbArc
 50
329.4874507745714
 51
30.51254922542823
  0
LINE
  5
1D2
330
1F
100
AcDbEntity
  8
JISSEN
  6
Continuous
 62
     7
370
    35
100
AcDbLine
 10
222.4196364910952
 20
163.0920828425317
 30
0.0
 11
220.4196364910965
 21
166.5561844576667
 31
0.0
  0
LINE
  5
1D3
330
1F
100
AcDbEntity
  8
JISSEN
  6
Continuous
 62
     7
370
    35
100
AcDbLine
 10
220.4196364910961
 20
155.5051081785985
 30
0.0
 11
220.4196364910961
 21
152.9634547823205
 31
0.0
  0
LINE
  5
1D4
330
1F
100
AcDbEntity
  8
JISSEN
  6
Continuous
 62
     7
370
    35
100
AcDbLine
 10
220.4196364910961
 20
166.5561844576676
 30
0.0
 11
220.4196364910961
 21
166.5123785032527
 31
0.0
  0
LINE
  5
1D5
330
1F
100
AcDbEntity
  8
JISSEN
  6
Continuous
 62
     7
370
    35
100
AcDbLine
 10
202.4196364910956
 20
190.7257754823183
 30
0.0
 11
202.4196364910956
 21
210.7544551387588
 31
0.0
  0
ARC
  5
1D6
330
1F
100
AcDbEntity
  8
JISSEN
  6
Continuous
 62
     7
370
    35
100
AcDbCircle
 10
200.9196364910956
 20
210.7544551387583
 30
0.0
 40
1.5
100
AcDbArc
 50
269.9999999999998
 51
89.99999999999991
  0
ARC
  5
1D7
330
1F
100
AcDbEntity
  8
JISSEN
  6
Continuous
 62
     7
370
    35
100
AcDbCircle
 10
200.9196364910956
 20
190.7257754823183
 30
0.0
 40
1.5
100
AcDbArc
 50
314.9999999999966
 51
0.0
  0
ARC
  5
1D8
330
1F
100
AcDbEntity
  8
JISSEN
  6
Continuous
 62
     7
370
    35
100
AcDbCircle
 10
182.419636491094
 20
260.4346683080051
 30
0.0
 40
16.84999999999786
100
AcDbArc
 50
188.0510880344717
 51
261.9489119655242
  0
ARC
  5
1D9
330
1F
100
AcDbEntity
  8
JISSEN
  6
Continuous
 62
     7
370
    35
100
AcDbCircle
 10
182.4196364910938
 20
260.4346683080051
 30
0.0
 40
13.0
100
AcDbArc
 50
179.9999999999998
 51
0.0
  0
ARC
  5
1DA
330
1F
100
AcDbEntity
  8
JISSEN
  6
Continuous
 62
     7
370
    35
100
AcDbCircle
 10
182.4196364910938
 20
260.4346683080051
 30
0.0
 40
17.0
100
AcDbArc
 50
186.9620626910849
 51
263.0379373089085
  0
ARC
  5
1DB
330
1F
100
AcDbEntity
  8
JISSEN
  6
Continuous
 62
     7
370
    35
100
AcDbCircle
 10
182.419636491094
 20
260.4346683080053
 30
0.0
 40
16.84999999999786
100
AcDbArc
 50
98.05108803447541
 51
171.9489119655279
  0
ARC
  5
1DC
330
1F
100
AcDbEntity
  8
JISSEN
  6
Continuous
 62
     7
370
    35
100
AcDbCircle
 10
182.4196364910938
 20
260.4346683080053
 30
0.0
 40
13.0
100
AcDbArc
 50
0.0
 51
179.9999999999998
  0
ARC
  5
1DD
330
1F
100
AcDbEntity
  8
JISSEN
  6
Continuous
 62
     7
370
    35
100
AcDbCircle
 10
182.4196364910938
 20
260.4346683080053
 30
0.0
 40
17.0
100
AcDbArc
 50
96.96206269107807
 51
173.0379373089148
  0
CIRCLE
  5
1DE
330
1F
100
AcDbEntity
  8
JISSEN
  6
Continuous
 62
     7
370
    35
100
AcDbCircle
 10
182.4196364910938
 20
260.4346683080052
 30
0.0
 40
20.0
  0
ARC
  5
1DF
330
1F
100
AcDbEntity
  8
JISSEN
  6
Continuous
 62
     7
370
    35
100
AcDbCircle
 10
182.4196364910938
 20
260.4346683080052
 30
0.0
 40
21.49999999999568
100
AcDbArc
 50
54.48401623549207
 51
305.5159837645076
  0
ARC
  5
1E0
330
1F
100
AcDbEntity
  8
JISSEN
  6
Continuous
 62
     7
370
    35
100
AcDbCircle
 10
182.4196364910938
 20
260.4346683080052
 30
0.0
 40
24.59999999999991
100
AcDbArc
 50
116.5801967716964
 51
123.4198032283014
  0
ARC
  5
1E1
330
1F
100
AcDbEntity
  8
JISSEN
  6
Continuous
 62
     7
370
    35
100
AcDbCircle
 10
182.4196364910938
 20
260.4346683080052
 30
0.0
 40
24.59999999999991
100
AcDbArc
 50
236.5801967716983
 51
243.4198032283033
  0
CIRCLE
  5
1E2
330
1F
100
AcDbEntity
  8
JISSEN
  6
Continuous
 62
     7
370
    35
100
AcDbCircle
 10
182.4196364910938
 20
260.4346683080052
 30
0.0
 40
12.0
  0
LINE
  5
1E3
330
1F
100
AcDbEntity
  8
ITTEN
  6
DASHDOT
 62
     1
370
    25
100
AcDbLine
 10
227.4196364910933
 20
260.4346683080062
 30
0.0
 11
152.8196364910937
 21
260.4346683080051
 31
0.0
  0
POLYLINE
  5
1E4
330
1F
100
AcDbEntity
  8
JISSEN
  6
Continuous
 62
     7
370
    35
100
AcDb2dPolyline
 66
     1
 10
0.0
 20
0.0
 30
0.0
  0
VERTEX
  5
1E5
330
1E4
100
AcDbEntity
  8
JISSEN
  6
Continuous
 62
     7
370
    35
100
AcDbVertex
100
AcDb2dVertex
 10
168.8707127701625
 20
280.9672440354774
 30
0.0
  0
VERTEX
  5
1E6
330
1E4
100
AcDbEntity
  8
JISSEN
  6
Continuous
 62
     7
370
    35
100
AcDbVertex
100
AcDb2dVertex
 10
157.8634424455092
 20
261.9020925805314
 30
0.0
  0
SEQEND
  5
1E7
330
1E4
100
AcDbEntity
  8
JISSEN
  6
Continuous
 62
     7
370
    35
  0
POLYLINE
  5
1E8
330
1F
100
AcDbEntity
  8
JISSEN
  6
Continuous
 62
     7
370
    35
100
AcDb2dPolyline
 66
     1
 10
0.0
 20
0.0
 30
0.0
  0
VERTEX
  5
1E9
330
1E8
100
AcDbEntity
  8
JISSEN
  6
Continuous
 62
     7
370
    35
100
AcDbVertex
100
AcDb2dVertex
 10
168.8707127701639
 20
239.902092580532
 30
0.0
  0
VERTEX
  5
1EA
330
1E8
100
AcDbEntity
  8
JISSEN
  6
Continuous
 62
     7
370
    35
100
AcDbVertex
100
AcDb2dVertex
 10
157.8634424455092
 20
258.9672440354768
 30
0.0
  0
SEQEND
  5
1EB
330
1E8
100
AcDbEntity
  8
JISSEN
  6
Continuous
 62
     7
370
    35
  0
ARC
  5
1EC
330
1F
100
AcDbEntity
  8
JISSEN
  6
Continuous
 62
     7
370
    35
100
AcDbCircle
 10
182.4196364910938
 20
260.4346683080052
 30
0.0
 40
24.59999999999991
100
AcDbArc
 50
176.5801967716982
 51
183.4198032283079
  0
LINE
  5
1ED
330
1F
100
AcDbEntity
  8
JISSEN
  6
Continuous
 62
     7
370
    35
100
AcDbLine
 10
167.6785420643471
 20
258.9346683080048
 30
0.0
 11
166.0412971369346
 21
258.9346683080054
 31
0.0
  0
LINE
  5
1EE
330
1F
100
AcDbEntity
  8
JISSEN
  6
Continuous
 62
     7
370
    35
100
AcDbLine
 10
167.6785420643471
 20
261.9346683080053
 30
0.0
 11
166.0412971369346
 21
261.9346683080046
 31
0.0
  0
ARC
  5
1EF
330
1F
100
AcDbEntity
  8
JISSEN
  6
Continuous
 62
     7
370
    35
100
AcDbCircle
 10
164.7455735739286
 20
257.9346683080049
 30
0.0
 40
1.0
100
AcDbArc
 50
8.051088034475296
 51
36.42804374997509
  0
LINE
  5
1F0
330
1F
100
AcDbEntity
  8
JISSEN
  6
Continuous
 62
     7
370
    35
100
AcDbLine
 10
165.4859422692182
 20
258.9346683080048
 30
0.0
 11
164.2252552988145
 21
260.4346683080047
 31
0.0
  0
ARC
  5
1F1
330
1F
100
AcDbEntity
  8
JISSEN
  6
Continuous
 62
     7
370
    35
100
AcDbCircle
 10
166.0412971369346
 20
258.4346683080048
 30
0.0
 40
0.5
100
AcDbArc
 50
89.99999999999991
 51
186.9620626910849
  0
ARC
  5
1F2
330
1F
100
AcDbEntity
  8
JISSEN
  6
Continuous
 62
     7
370
    35
100
AcDbCircle
 10
164.7455735739286
 20
262.934668308005
 30
0.0
 40
1.0
100
AcDbArc
 50
323.5719562500402
 51
351.9489119655244
  0
LINE
  5
1F3
330
1F
100
AcDbEntity
  8
JISSEN
  6
Continuous
 62
     7
370
    35
100
AcDbLine
 10
165.4859422692182
 20
261.9346683080052
 30
0.0
 11
164.2252552988145
 21
260.4346683080053
 31
0.0
  0
ARC
  5
1F4
330
1F
100
AcDbEntity
  8
JISSEN
  6
Continuous
 62
     7
370
    35
100
AcDbCircle
 10
166.0412971369346
 20
262.4346683080051
 30
0.0
 40
0.5
100
AcDbArc
 50
173.0379373089148
 51
269.9999999999998
  0
LINE
  5
1F5
330
1F
100
AcDbEntity
  8
JISSEN
  6
Continuous
 62
     7
370
    35
100
AcDbLine
 10
169.734009635408
 20
257.5930365094949
 30
0.0
 11
169.0184268460328
 21
258.450593258535
 31
0.0
  0
ARC
  5
1F6
330
1F
100
AcDbEntity
  8
JISSEN
  6
Continuous
 62
     7
370
    35
100
AcDbCircle
 10
170.5540305430463
 20
259.7319680224969
 30
0.0
 40
2.0
100
AcDbArc
 50
183.389189808663
 51
219.8430949580788
  0
ARC
  5
1F7
330
1F
100
AcDbEntity
  8
JISSEN
  6
Continuous
 62
     7
370
    35
100
AcDbCircle
 10
167.6785420643464
 20
256.9346683080046
 30
0.0
 40
2.0
100
AcDbArc
 50
39.84309495807913
 51
90.00000000001303
  0
ARC
  5
1F8
330
1F
100
AcDbEntity
  8
JISSEN
  6
Continuous
 62
     7
370
    35
100
AcDbCircle
 10
182.4196364910938
 20
260.4346683080051
 30
0.0
 40
13.88639525699887
100
AcDbArc
 50
179.9999999999998
 51
183.3891898086467
  0
ELLIPSE
  5
1F9
330
1F
100
AcDbEntity
  8
JISSEN
  6
Continuous
 62
     7
370
    35
100
AcDbEllipse
 10
167.5808693178469
 20
260.4346683080049
 30
0.0
 11
-0.05062983887569302
 21
-1.500413542621175
 31
0.0
210
0.0
220
0.0
230
1.0
 40
0.634162839635039
 41
0.0531600530802843
 42
1.592192203259945
  0
LINE
  5
1FA
330
1F
100
AcDbEntity
  8
JISSEN
  6
Continuous
 62
     7
370
    35
100
AcDbLine
 10
169.734009635408
 20
263.2763001065151
 30
0.0
 11
169.0184268460328
 21
262.418743357475
 31
0.0
  0
ARC
  5
1FB
330
1F
100
AcDbEntity
  8
JISSEN
  6
Continuous
 62
     7
370
    35
100
AcDbCircle
 10
170.5540305430463
 20
261.1373685935132
 30
0.0
 40
2.0
100
AcDbArc
 50
140.1569050419209
 51
176.6108101913366
  0
ARC
  5
1FC
330
1F
100
AcDbEntity
  8
JISSEN
  6
Continuous
 62
     7
370
    35
100
AcDbCircle
 10
167.6785420643464
 20
263.9346683080055
 30
0.0
 40
2.0
100
AcDbArc
 50
269.9999999999736
 51
320.1569050419205
  0
ARC
  5
1FD
330
1F
100
AcDbEntity
  8
JISSEN
  6
Continuous
 62
     7
370
    35
100
AcDbCircle
 10
182.4196364910938
 20
260.4346683080053
 30
0.0
 40
13.88639525699887
100
AcDbArc
 50
176.6108101913529
 51
179.9999999999998
  0
ELLIPSE
  5
1FE
330
1F
100
AcDbEntity
  8
JISSEN
  6
Continuous
 62
     7
370
    35
100
AcDbEllipse
 10
167.5808693178469
 20
260.4346683080051
 30
0.0
 11
-0.05062983887569302
 21
1.500413542621175
 31
0.0
210
0.0
220
0.0
230
1.0
 40
0.634162839635039
 41
-1.592192203259945
 42
-0.0531600530802843
  0
ARC
  5
1FF
330
1F
100
AcDbEntity
  8
JISSEN
  6
Continuous
 62
     7
370
    35
100
AcDbCircle
 10
182.4196364910933
 20
260.4346683080051
 30
0.0
 40
16.84999999999786
100
AcDbArc
 50
278.0510880344751
 51
351.9489119655308
  0
LINE
  5
200
330
1F
100
AcDbEntity
  8
JISSEN
  6
Continuous
 62
     7
370
    35
100
AcDbLine
 10
199.3533307129692
 20
258.9346683080056
 30
0.0
 11
200.614017683373
 21
260.4346683080055
 31
0.0
  0
ARC
  5
201
330
1F
100
AcDbEntity
  8
JISSEN
  6
Continuous
 62
     7
370
    35
100
AcDbCircle
 10
198.7979758452527
 20
258.4346683080056
 30
0.0
 40
0.5
100
AcDbArc
 50
353.0379373089144
 51
89.99999999999991
  0
ARC
  5
202
330
1F
100
AcDbEntity
  8
JISSEN
  6
Continuous
 62
     7
370
    35
100
AcDbCircle
 10
182.4196364910936
 20
260.4346683080051
 30
0.0
 40
17.0
100
AcDbArc
 50
276.9620626910777
 51
353.0379373089136
  0
ARC
  5
203
330
1F
100
AcDbEntity
  8
JISSEN
  6
Continuous
 62
     7
370
    35
100
AcDbCircle
 10
182.4196364910933
 20
260.4346683080053
 30
0.0
 40
16.84999999999786
100
AcDbArc
 50
8.051088034472077
 51
81.9489119655246
  0
LINE
  5
204
330
1F
100
AcDbEntity
  8
JISSEN
  6
Continuous
 62
     7
370
    35
100
AcDbLine
 10
199.3533307129692
 20
261.9346683080052
 30
0.0
 11
200.614017683373
 21
260.4346683080053
 31
0.0
  0
ARC
  5
205
330
1F
100
AcDbEntity
  8
JISSEN
  6
Continuous
 62
     7
370
    35
100
AcDbCircle
 10
198.7979758452527
 20
262.4346683080051
 30
0.0
 40
0.5
100
AcDbArc
 50
269.9999999999998
 51
6.962062691085242
  0
ARC
  5
206
330
1F
100
AcDbEntity
  8
JISSEN
  6
Continuous
 62
     7
370
    35
100
AcDbCircle
 10
182.4196364910936
 20
260.4346683080053
 30
0.0
 40
17.0
100
AcDbArc
 50
6.962062691085255
 51
83.03793730892191
  0
ARC
  5
207
330
1F
100
AcDbEntity
  8
JISSEN
  6
Continuous
 62
     7
370
    35
100
AcDbCircle
 10
197.9914327707718
 20
240.9346683080045
 30
0.0
 40
2.0
100
AcDbArc
 50
29.99999938386441
 51
89.99999999999991
  0
ARC
  5
208
330
1F
100
AcDbEntity
  8
JISSEN
  6
Continuous
 62
     7
370
    35
100
AcDbCircle
 10
204.9196360440626
 20
244.9346682335005
 30
0.0
 40
6.0
100
AcDbArc
 50
209.9999993838587
 51
269.9999999999998
  0
ARC
  5
209
330
1F
100
AcDbEntity
  8
JISSEN
  6
Continuous
 62
     7
370
    35
100
AcDbCircle
 10
197.9914327707718
 20
279.9346683080072
 30
0.0
 40
2.0
100
AcDbArc
 50
269.9999999999998
 51
330.0000006161353
  0
ARC
  5
20A
330
1F
100
AcDbEntity
  8
JISSEN
  6
Continuous
 62
     7
370
    35
100
AcDbCircle
 10
204.9196360440626
 20
275.9346683825112
 30
0.0
 40
6.0
100
AcDbArc
 50
89.99999999999991
 51
150.0000006161409
  0
ARC
  5
20B
330
1F
100
AcDbEntity
  8
JISSEN
  6
Continuous
 62
     7
370
    35
100
AcDbCircle
 10
179.9196364910938
 20
278.1087312251706
 30
0.0
 40
1.0
100
AcDbArc
 50
278.0510880344754
 51
306.428043749961
  0
ARC
  5
20C
330
1F
100
AcDbEntity
  8
JISSEN
  6
Continuous
 62
     7
370
    35
100
AcDbCircle
 10
184.9196364910938
 20
278.1087312251706
 30
0.0
 40
1.0
100
AcDbArc
 50
233.5719562500382
 51
261.9489119655238
  0
ARC
  5
20D
330
1F
100
AcDbEntity
  8
JISSEN
  6
Continuous
 62
     7
370
    35
100
AcDbCircle
 10
184.4196364910938
 20
276.8130076621644
 30
0.0
 40
0.5
100
AcDbArc
 50
83.03793730892201
 51
179.9999999999998
  0
ARC
  5
20E
330
1F
100
AcDbEntity
  8
JISSEN
  6
Continuous
 62
     7
370
    35
100
AcDbCircle
 10
180.4196364910938
 20
276.8130076621644
 30
0.0
 40
0.5
100
AcDbArc
 50
0.0
 51
96.96206269107799
  0
LINE
  5
20F
330
1F
100
AcDbEntity
  8
JISSEN
  6
Continuous
 62
     7
370
    35
100
AcDbLine
 10
199.2627817682289
 20
277.9346683080072
 30
0.0
 11
199.2627817682289
 21
271.2193081802181
 31
0.0
  0
LINE
  5
210
330
1F
100
AcDbEntity
  8
ITTEN
  6
DASHDOT
 62
     1
370
    25
100
AcDbLine
 10
182.4196364910945
 20
235.4346683080054
 30
0.0
 11
182.4196364910933
 21
285.4346683080054
 31
0.0
  0
LINE
  5
211
330
1F
100
AcDbEntity
  8
JISSEN
  6
Continuous
 62
     7
370
    35
100
AcDbLine
 10
184.4037115405638
 20
247.0334586629441
 30
0.0
 11
185.261268289604
 21
247.7490414523202
 31
0.0
  0
LINE
  5
212
330
1F
100
AcDbEntity
  8
JISSEN
  6
Continuous
 62
     7
370
    35
100
AcDbLine
 10
184.4037115405636
 20
273.8358779530664
 30
0.0
 11
185.2612682896038
 21
273.1202951636903
 31
0.0
  0
POLYLINE
  5
213
330
1F
100
AcDbEntity
  8
JISSEN
  6
Continuous
 62
     7
370
    35
100
AcDb2dPolyline
 66
     1
 10
0.0
 20
0.0
 30
0.0
  0
VERTEX
  5
214
330
213
100
AcDbEntity
  8
JISSEN
  6
Continuous
 62
     7
370
    35
100
AcDbVertex
100
AcDb2dVertex
 10
193.4269068157489
 20
238.4346683080057
 30
0.0
  0
VERTEX
  5
215
330
213
100
AcDbEntity
  8
JISSEN
  6
Continuous
 62
     7
370
    35
100
AcDbVertex
100
AcDb2dVertex
 10
171.4123661664414
 20
238.4346683080047
 30
0.0
  0
SEQEND
  5
216
330
213
100
AcDbEntity
  8
JISSEN
  6
Continuous
 62
     7
370
    35
  0
ELLIPSE
  5
217
330
1F
100
AcDbEntity
  8
JISSEN
  6
Continuous
 62
     7
370
    35
100
AcDbEllipse
 10
185.4627772264839
 20
265.7055426762822
 30
0.0
 11
1.948557158515086
 21
-1.125
 31
0.0
210
0.0
220
0.0
230
1.0
 40
0.9396926207858498
 41
-3.129216106575835
 42
-0.0123765470139459
  0
ELLIPSE
  5
218
330
1F
100
AcDbEntity
  8
JISSEN
  6
Continuous
 62
     7
370
    35
100
AcDbEllipse
 10
185.4366100572722
 20
265.6602198097176
 30
0.0
 11
1.948557158515086
 21
-1.125
 31
0.0
210
0.0
220
0.0
230
1.0
 40
0.9396926207858498
 41
0.0
 42
6.283185307179586
  0
ELLIPSE
  5
219
330
1F
100
AcDbEntity
  8
JISSEN
  6
Continuous
 62
     7
370
    35
100
AcDbEllipse
 10
185.4627772264839
 20
255.1637939397276
 30
0.0
 11
-1.948557158515087
 21
-1.125
 31
0.0
210
0.0
220
0.0
230
1.0
 40
0.9396926207858498
 41
-3.129216106575835
 42
-0.0123765470139459
  0
ELLIPSE
  5
21A
330
1F
100
AcDbEntity
  8
JISSEN
  6
Continuous
 62
     7
370
    35
100
AcDbEllipse
 10
185.4366100572724
 20
255.2091168062922
 30
0.0
 11
-1.948557158515087
 21
-1.125
 31
0.0
210
0.0
220
0.0
230
1.0
 40
0.9396926207858498
 41
0.0
 42
6.283185307179586
  0
CIRCLE
  5
21B
330
1F
100
AcDbEntity
  8
JISSEN
  6
Continuous
 62
     7
370
    35
100
AcDbCircle
 10
182.4196364910938
 20
260.4346683080052
 30
0.0
 40
9.265263925847648
  0
CIRCLE
  5
21C
330
1F
100
AcDbEntity
  8
JISSEN
  6
Continuous
 62
     7
370
    35
100
AcDbCircle
 10
182.4196364910938
 20
260.4346683080052
 30
0.0
 40
3.500000000007503
  0
CIRCLE
  5
21D
330
1F
100
AcDbEntity
  8
JISSEN
  6
Continuous
 62
     7
370
    35
100
AcDbCircle
 10
182.4196364910938
 20
260.4346683080052
 30
0.0
 40
3.046410161518452
  0
ELLIPSE
  5
21E
330
1F
100
AcDbEntity
  8
JISSEN
  6
Continuous
 62
     7
370
    35
100
AcDbEllipse
 10
179.3764957557046
 20
255.1637939397276
 30
0.0
 11
-1.948557158515087
 21
1.125
 31
0.0
210
0.0
220
0.0
230
1.0
 40
0.9396926207858498
 41
-3.129216106575835
 42
-0.0123765470139459
  0
ELLIPSE
  5
21F
330
1F
100
AcDbEntity
  8
JISSEN
  6
Continuous
 62
     7
370
    35
100
AcDbEllipse
 10
179.4026629249161
 20
255.2091168062922
 30
0.0
 11
-1.948557158515087
 21
1.125
 31
0.0
210
0.0
220
0.0
230
1.0
 40
0.9396926207858498
 41
0.0
 42
6.283185307179586
  0
LINE
  5
220
330
1F
100
AcDbEntity
  8
JISSEN
  6
Continuous
 62
     7
370
    35
100
AcDbLine
 10
183.9196364910943
 20
245.5959011347579
 30
0.0
 11
183.9196364910943
 21
244.056328953846
 31
0.0
  0
LINE
  5
221
330
1F
100
AcDbEntity
  8
JISSEN
  6
Continuous
 62
     7
370
    35
100
AcDbLine
 10
180.9196364910943
 20
244.0563289538459
 30
0.0
 11
180.9196364910945
 21
245.6935738812565
 31
0.0
  0
LINE
  5
222
330
1F
100
AcDbEntity
  8
JISSEN
  6
Continuous
 62
     7
370
    35
100
AcDbLine
 10
180.9196364910943
 20
243.5009740861294
 30
0.0
 11
182.4196364910943
 21
242.2402871157257
 31
0.0
  0
ARC
  5
223
330
1F
100
AcDbEntity
  8
JISSEN
  6
Continuous
 62
     7
370
    35
100
AcDbCircle
 10
179.9196364910943
 20
242.7606053908397
 30
0.0
 40
1.0
100
AcDbArc
 50
53.57195625003857
 51
81.94891196552426
  0
ARC
  5
224
330
1F
100
AcDbEntity
  8
JISSEN
  6
Continuous
 62
     7
370
    35
100
AcDbCircle
 10
180.4196364910943
 20
244.0563289538459
 30
0.0
 40
0.5
100
AcDbArc
 50
263.0379373089216
 51
0.0
  0
LINE
  5
225
330
1F
100
AcDbEntity
  8
JISSEN
  6
Continuous
 62
     7
370
    35
100
AcDbLine
 10
183.9196364910943
 20
243.5009740861295
 30
0.0
 11
182.4196364910945
 21
242.2402871157257
 31
0.0
  0
ARC
  5
226
330
1F
100
AcDbEntity
  8
JISSEN
  6
Continuous
 62
     7
370
    35
100
AcDbCircle
 10
184.9196364910943
 20
242.7606053908398
 30
0.0
 40
1.0
100
AcDbArc
 50
98.05108803447575
 51
126.4280437499614
  0
ARC
  5
227
330
1F
100
AcDbEntity
  8
JISSEN
  6
Continuous
 62
     7
370
    35
100
AcDbCircle
 10
184.4196364910943
 20
244.056328953846
 30
0.0
 40
0.5
100
AcDbArc
 50
179.9999999999998
 51
276.9620626910776
  0
ARC
  5
228
330
1F
100
AcDbEntity
  8
JISSEN
  6
Continuous
 62
     7
370
    35
100
AcDbCircle
 10
182.419636491094
 20
260.4346683080051
 30
0.0
 40
13.88639525699887
100
AcDbArc
 50
266.6108101913489
 51
273.3891898086503
  0
ELLIPSE
  5
229
330
1F
100
AcDbEntity
  8
JISSEN
  6
Continuous
 62
     7
370
    35
100
AcDbEllipse
 10
182.4196364910943
 20
245.595901134758
 30
0.0
 11
1.500413542621118
 21
-0.05062983887569317
 31
0.0
210
0.0
220
0.0
230
1.0
 40
0.6341628396349888
 41
0.0531600530802843
 42
3.131224353439632
  0
ARC
  5
22A
330
1F
100
AcDbEntity
  8
JISSEN
  6
Continuous
 62
     7
370
    35
100
AcDbCircle
 10
181.7169362055859
 20
248.5690623599574
 30
0.0
 40
2.0
100
AcDbArc
 50
230.1569050419474
 51
266.6108101913491
  0
LINE
  5
22B
330
1F
100
AcDbEntity
  8
JISSEN
  6
Continuous
 62
     7
370
    35
100
AcDbLine
 10
180.4355614416247
 20
247.0334586629435
 30
0.0
 11
179.5780046925843
 21
247.7490414523193
 31
0.0
  0
ARC
  5
22C
330
1F
100
AcDbEntity
  8
JISSEN
  6
Continuous
 62
     7
370
    35
100
AcDbCircle
 10
178.9196364910945
 20
245.6935738812566
 30
0.0
 40
2.0
100
AcDbArc
 50
359.9999999999964
 51
50.15690504194776
  0
ARC
  5
22D
330
1F
100
AcDbEntity
  8
JISSEN
  6
Continuous
 62
     7
370
    35
100
AcDbCircle
 10
183.1223367766022
 20
248.5690623599576
 30
0.0
 40
2.0
100
AcDbArc
 50
273.3891898086631
 51
309.8430949580692
  0
ARC
  5
22E
330
1F
100
AcDbEntity
  8
JISSEN
  6
Continuous
 62
     7
370
    35
100
AcDbCircle
 10
185.9196364910945
 20
245.6935738812577
 30
0.0
 40
2.0
100
AcDbArc
 50
129.8430949580695
 51
180.0000000000192
  0
ELLIPSE
  5
22F
330
1F
100
AcDbEntity
  8
JISSEN
  6
Continuous
 62
     7
370
    35
100
AcDbEllipse
 10
179.3764957557046
 20
265.7055426762822
 30
0.0
 11
1.948557158515086
 21
1.125
 31
0.0
210
0.0
220
0.0
230
1.0
 40
0.9396926207858498
 41
-3.129216106575835
 42
-0.0123765470139459
  0
ELLIPSE
  5
230
330
1F
100
AcDbEntity
  8
JISSEN
  6
Continuous
 62
     7
370
    35
100
AcDbEllipse
 10
179.4026629249161
 20
265.6602198097176
 30
0.0
 11
1.948557158515086
 21
1.125
 31
0.0
210
0.0
220
0.0
230
1.0
 40
0.9396926207858498
 41
0.0
 42
6.283185307179586
  0
ELLIPSE
  5
231
330
1F
100
AcDbEntity
  8
JISSEN
  6
Continuous
 62
     7
370
    35
100
AcDbEllipse
 10
176.3333550203149
 20
260.4346683080049
 30
0.0
 11
3.634975292473320E-15
 21
2.25
 31
0.0
210
0.0
220
0.0
230
1.0
 40
0.9396926207859401
 41
-3.129216106575835
 42
-0.0123765470139459
  0
ELLIPSE
  5
232
330
1F
100
AcDbEntity
  8
JISSEN
  6
Continuous
 62
     7
370
    35
100
AcDbEllipse
 10
176.3856893587381
 20
260.4346683080049
 30
0.0
 11
3.634975292473320E-15
 21
2.25
 31
0.0
210
0.0
220
0.0
230
1.0
 40
0.9396926207859401
 41
0.0
 42
6.283185307179586
  0
CIRCLE
  5
233
330
1F
100
AcDbEntity
  8
JISSEN
  6
Continuous
 62
     7
370
    35
100
AcDbCircle
 10
182.4196364910938
 20
260.4346683080052
 30
0.0
 40
2.000000000004775
  0
CIRCLE
  5
234
330
1F
100
AcDbEntity
  8
JISSEN
  6
Continuous
 62
     7
370
    35
100
AcDbCircle
 10
182.4196364910938
 20
260.4346683080052
 30
0.0
 40
1.950000000004593
  0
CIRCLE
  5
235
330
1F
100
AcDbEntity
  8
JISSEN
  6
Continuous
 62
     7
370
    35
100
AcDbCircle
 10
182.4196364910938
 20
260.4346683080052
 30
0.0
 40
1.500000000004775
  0
ARC
  5
236
330
1F
100
AcDbEntity
  8
JISSEN
  6
Continuous
 62
     7
370
    35
100
AcDbCircle
 10
182.419636491094
 20
260.4346683080053
 30
0.0
 40
13.88639525699887
100
AcDbArc
 50
86.61081019134933
 51
93.3891898086507
  0
ELLIPSE
  5
237
330
1F
100
AcDbEntity
  8
JISSEN
  6
Continuous
 62
     7
370
    35
100
AcDbEllipse
 10
182.4196364910938
 20
275.2734354812524
 30
0.0
 11
1.500413542621118
 21
0.05062983887575001
 31
0.0
210
0.0
220
0.0
230
1.0
 40
0.6341628396349879
 41
-3.131224353439632
 42
-0.0531600530802843
  0
ARC
  5
238
330
1F
100
AcDbEntity
  8
JISSEN
  6
Continuous
 62
     7
370
    35
100
AcDbCircle
 10
181.7169362055856
 20
272.3002742560529
 30
0.0
 40
2.0
100
AcDbArc
 50
93.38918980865047
 51
129.8430949580664
  0
LINE
  5
239
330
1F
100
AcDbEntity
  8
JISSEN
  6
Continuous
 62
     7
370
    35
100
AcDbLine
 10
180.4355614416245
 20
273.8358779530669
 30
0.0
 11
179.578004692584
 21
273.120295163691
 31
0.0
  0
ARC
  5
23A
330
1F
100
AcDbEntity
  8
JISSEN
  6
Continuous
 62
     7
370
    35
100
AcDbCircle
 10
178.919636491094
 20
275.1757627347537
 30
0.0
 40
2.0
100
AcDbArc
 50
309.843094958066
 51
0.0000000000032569
  0
LINE
  5
23B
330
1F
100
AcDbEntity
  8
JISSEN
  6
Continuous
 62
     7
370
    35
100
AcDbLine
 10
180.9196364910938
 20
276.8130076621644
 30
0.0
 11
180.919636491094
 21
275.1757627347538
 31
0.0
  0
ARC
  5
23C
330
1F
100
AcDbEntity
  8
JISSEN
  6
Continuous
 62
     7
370
    35
100
AcDbCircle
 10
183.122336776602
 20
272.3002742560528
 30
0.0
 40
2.0
100
AcDbArc
 50
50.15690504193046
 51
86.61081019133651
  0
ARC
  5
23D
330
1F
100
AcDbEntity
  8
JISSEN
  6
Continuous
 62
     7
370
    35
100
AcDbCircle
 10
185.9196364910943
 20
275.1757627347528
 30
0.0
 40
2.0
100
AcDbArc
 50
179.9999999999804
 51
230.1569050419159
  0
LINE
  5
23E
330
1F
100
AcDbEntity
  8
JISSEN
  6
Continuous
 62
     7
370
    35
100
AcDbLine
 10
183.9196364910938
 20
275.2734354812526
 30
0.0
 11
183.9196364910938
 21
276.8130076621644
 31
0.0
  0
LINE
  5
23F
330
1F
100
AcDbEntity
  8
JISSEN
  6
Continuous
 62
     7
370
    35
100
AcDbLine
 10
192.1020948566108
 20
242.9346683080043
 30
0.0
 11
197.9914327707718
 21
242.9346683080043
 31
0.0
  0
LINE
  5
240
330
1F
100
AcDbEntity
  8
JISSEN
  6
Continuous
 62
     7
370
    35
100
AcDbLine
 10
199.2627817682303
 20
242.9346683080043
 30
0.0
 11
199.2627817682294
 21
249.6500284357933
 31
0.0
  0
ARC
  5
241
330
1F
100
AcDbEntity
  8
JISSEN
  6
Continuous
 62
     7
370
    35
100
AcDbCircle
 10
182.4196364910938
 20
260.4346683080052
 30
0.0
 40
24.59999999999991
100
AcDbArc
 50
296.5801967716964
 51
303.419803228301
  0
POLYLINE
  5
242
330
1F
100
AcDbEntity
  8
JISSEN
  6
Continuous
 62
     7
370
    35
100
AcDb2dPolyline
 66
     1
 10
0.0
 20
0.0
 30
0.0
  0
VERTEX
  5
243
330
242
100
AcDbEntity
  8
JISSEN
  6
Continuous
 62
     7
370
    35
100
AcDbVertex
100
AcDb2dVertex
 10
197.7194186246195
 20
242.9346683080044
 30
0.0
  0
VERTEX
  5
244
330
242
100
AcDbEntity
  8
JISSEN
  6
Continuous
 62
     7
370
    35
100
AcDbVertex
100
AcDb2dVertex
 10
195.968560212026
 20
239.9020925805334
 30
0.0
  0
SEQEND
  5
245
330
242
100
AcDbEntity
  8
JISSEN
  6
Continuous
 62
     7
370
    35
  0
ELLIPSE
  5
246
330
1F
100
AcDbEntity
  8
JISSEN
  6
Continuous
 62
     7
370
    35
100
AcDbEllipse
 10
188.4535836234504
 20
260.434668308005
 30
0.0
 11
3.634975292473320E-15
 21
-2.25
 31
0.0
210
0.0
220
0.0
230
1.0
 40
0.9396926207859401
 41
0.0
 42
6.283185307179586
  0
ELLIPSE
  5
247
330
1F
100
AcDbEntity
  8
JISSEN
  6
Continuous
 62
     7
370
    35
100
AcDbEllipse
 10
188.5059179618734
 20
260.434668308005
 30
0.0
 11
3.634975292473320E-15
 21
-2.25
 31
0.0
210
0.0
220
0.0
230
1.0
 40
0.9396926207859401
 41
-3.129216106575835
 42
-0.0123765470139459
  0
ARC
  5
248
330
1F
100
AcDbEntity
  8
JISSEN
  6
Continuous
 62
     7
370
    35
100
AcDbCircle
 10
194.285242439141
 20
259.7319680224975
 30
0.0
 40
2.0
100
AcDbArc
 50
320.1569050419205
 51
356.6108101913363
  0
ARC
  5
249
330
1F
100
AcDbEntity
  8
JISSEN
  6
Continuous
 62
     7
370
    35
100
AcDbCircle
 10
197.1607309178412
 20
256.9346683080053
 30
0.0
 40
2.0
100
AcDbArc
 50
89.99999999997394
 51
140.1569050419209
  0
ARC
  5
24A
330
1F
100
AcDbEntity
  8
JISSEN
  6
Continuous
 62
     7
370
    35
100
AcDbCircle
 10
194.285242439141
 20
261.1373685935132
 30
0.0
 40
2.0
100
AcDbArc
 50
3.389189808663391
 51
39.84309495807913
  0
ARC
  5
24B
330
1F
100
AcDbEntity
  8
JISSEN
  6
Continuous
 62
     7
370
    35
100
AcDbCircle
 10
197.1607309178412
 20
263.9346683080055
 30
0.0
 40
2.0
100
AcDbArc
 50
219.8430949580788
 51
270.0000000000127
  0
LINE
  5
24C
330
1F
100
AcDbEntity
  8
JISSEN
  6
Continuous
 62
     7
370
    35
100
AcDbLine
 10
195.1052633467796
 20
257.5930365094956
 30
0.0
 11
195.8208461361548
 21
258.4505932585357
 31
0.0
  0
LINE
  5
24D
330
1F
100
AcDbEntity
  8
JISSEN
  6
Continuous
 62
     7
370
    35
100
AcDbLine
 10
195.1052633467793
 20
263.2763001065151
 30
0.0
 11
195.8208461361548
 21
262.418743357475
 31
0.0
  0
ARC
  5
24E
330
1F
100
AcDbEntity
  8
JISSEN
  6
Continuous
 62
     7
370
    35
100
AcDbCircle
 10
200.093699408259
 20
257.9346683080058
 30
0.0
 40
1.0
100
AcDbArc
 50
143.5719562500405
 51
171.9489119655279
  0
ELLIPSE
  5
24F
330
1F
100
AcDbEntity
  8
JISSEN
  6
Continuous
 62
     7
370
    35
100
AcDbEllipse
 10
197.2584036643407
 20
260.4346683080056
 30
0.0
 11
0.05062983887569321
 21
-1.500413542621175
 31
0.0
210
0.0
220
0.0
230
1.0
 40
0.6341628396350403
 41
-1.592192203259945
 42
-0.0531600530802843
  0
LINE
  5
250
330
1F
100
AcDbEntity
  8
JISSEN
  6
Continuous
 62
     7
370
    35
100
AcDbLine
 10
197.1607309178403
 20
258.9346683080055
 30
0.0
 11
198.7979758452527
 21
258.9346683080063
 31
0.0
  0
ARC
  5
251
330
1F
100
AcDbEntity
  8
JISSEN
  6
Continuous
 62
     7
370
    35
100
AcDbCircle
 10
182.4196364910936
 20
260.4346683080053
 30
0.0
 40
13.88639525699887
100
AcDbArc
 50
0.0
 51
3.389189808647128
  0
ARC
  5
252
330
1F
100
AcDbEntity
  8
JISSEN
  6
Continuous
 62
     7
370
    35
100
AcDbCircle
 10
200.093699408259
 20
262.934668308005
 30
0.0
 40
1.0
100
AcDbArc
 50
188.0510880344717
 51
216.4280437499591
  0
ELLIPSE
  5
253
330
1F
100
AcDbEntity
  8
JISSEN
  6
Continuous
 62
     7
370
    35
100
AcDbEllipse
 10
197.2584036643407
 20
260.4346683080051
 30
0.0
 11
0.05062983887569321
 21
1.500413542621175
 31
0.0
210
0.0
220
0.0
230
1.0
 40
0.634162839635039
 41
0.0531600530802843
 42
1.592192203259945
  0
LINE
  5
254
330
1F
100
AcDbEntity
  8
JISSEN
  6
Continuous
 62
     7
370
    35
100
AcDbLine
 10
197.1607309178403
 20
261.9346683080053
 30
0.0
 11
198.7979758452527
 21
261.9346683080046
 31
0.0
  0
POLYLINE
  5
255
330
1F
100
AcDbEntity
  8
JISSEN
  6
Continuous
 62
     7
370
    35
100
AcDb2dPolyline
 66
     1
 10
0.0
 20
0.0
 30
0.0
  0
VERTEX
  5
256
330
255
100
AcDbEntity
  8
JISSEN
  6
Continuous
 62
     7
370
    35
100
AcDbVertex
100
AcDb2dVertex
 10
171.4123661664396
 20
282.4346683080047
 30
0.0
  0
VERTEX
  5
257
330
255
100
AcDbEntity
  8
JISSEN
  6
Continuous
 62
     7
370
    35
100
AcDbVertex
100
AcDb2dVertex
 10
193.4269068157466
 20
282.4346683080057
 30
0.0
  0
SEQEND
  5
258
330
255
100
AcDbEntity
  8
JISSEN
  6
Continuous
 62
     7
370
    35
  0
LINE
  5
259
330
1F
100
AcDbEntity
  8
JISSEN
  6
Continuous
 62
     7
370
    35
100
AcDbLine
 10
180.9196364910938
 20
277.368362529881
 30
0.0
 11
182.4196364910938
 21
278.6290495002847
 31
0.0
  0
LINE
  5
25A
330
1F
100
AcDbEntity
  8
JISSEN
  6
Continuous
 62
     7
370
    35
100
AcDbLine
 10
183.919636491094
 20
277.368362529881
 30
0.0
 11
182.419636491094
 21
278.6290495002847
 31
0.0
  0
LINE
  5
25B
330
1F
100
AcDbEntity
  8
JISSEN
  6
Continuous
 62
     7
370
    35
100
AcDbLine
 10
192.1020948566086
 20
277.9346683080072
 30
0.0
 11
197.9914327707718
 21
277.9346683080072
 31
0.0
  0
ARC
  5
25C
330
1F
100
AcDbEntity
  8
JISSEN
  6
Continuous
 62
     7
370
    35
100
AcDbCircle
 10
182.4196364910938
 20
260.4346683080052
 30
0.0
 40
24.59999999999991
100
AcDbArc
 50
56.58019677169866
 51
63.4198032283032
  0
POLYLINE
  5
25D
330
1F
100
AcDbEntity
  8
JISSEN
  6
Continuous
 62
     7
370
    35
100
AcDb2dPolyline
 66
     1
 10
0.0
 20
0.0
 30
0.0
  0
VERTEX
  5
25E
330
25D
100
AcDbEntity
  8
JISSEN
  6
Continuous
 62
     7
370
    35
100
AcDbVertex
100
AcDb2dVertex
 10
195.9685602120237
 20
280.9672440354786
 30
0.0
  0
VERTEX
  5
25F
330
25D
100
AcDbEntity
  8
JISSEN
  6
Continuous
 62
     7
370
    35
100
AcDbVertex
100
AcDb2dVertex
 10
197.7194186246177
 20
277.9346683080072
 30
0.0
  0
SEQEND
  5
260
330
25D
100
AcDbEntity
  8
JISSEN
  6
Continuous
 62
     7
370
    35
  0
LINE
  5
261
330
1F
100
AcDbEntity
  8
JISSEN
  6
Continuous
 62
     7
370
    35
100
AcDbLine
 10
222.4196364910929
 20
281.4346683080046
 30
0.0
 11
222.4196364910938
 21
239.4346683080063
 31
0.0
  0
ARC
  5
262
330
1F
100
AcDbEntity
  8
JISSEN
  6
Continuous
 62
     7
370
    35
100
AcDbCircle
 10
190.8241430097021
 20
271.434668308005
 30
0.0
 40
31.01814321220149
100
AcDbArc
 50
342.102049552532
 51
17.89795044746754
  0
ARC
  5
263
330
1F
100
AcDbEntity
  8
JISSEN
  6
Continuous
 62
     7
370
    35
100
AcDbCircle
 10
234.9104624260569
 20
271.434668308007
 30
0.0
 40
26.28061176945175
100
AcDbArc
 50
159.6451437818982
 51
200.3548562181015
  0
LINE
  5
264
330
1F
100
AcDbEntity
  8
JISSEN
  6
Continuous
 62
     7
370
    35
100
AcDbLine
 10
210.8334420180806
 20
239.9020925805341
 30
0.0
 11
220.3411755220097
 21
239.9020925805345
 31
0.0
  0
LINE
  5
265
330
1F
100
AcDbEntity
  8
JISSEN
  6
Continuous
 62
     7
370
    35
100
AcDbLine
 10
210.833442018077
 20
261.9020925805342
 30
0.0
 11
220.3411755220102
 21
261.9020925805347
 31
0.0
  0
LINE
  5
266
330
1F
100
AcDbEntity
  8
JISSEN
  6
Continuous
 62
     7
370
    35
100
AcDbLine
 10
210.8334420180793
 20
258.9672440354793
 30
0.0
 11
220.3411755220102
 21
258.9672440354797
 31
0.0
  0
LINE
  5
267
330
1F
100
AcDbEntity
  8
JISSEN
  6
Continuous
 62
     7
370
    35
100
AcDbLine
 10
210.833850053468
 20
238.4346683080059
 30
0.0
 11
221.8422862219038
 21
238.4346683080069
 31
0.0
  0
ARC
  5
268
330
1F
100
AcDbEntity
  8
JISSEN
  6
Continuous
 62
     7
370
    35
100
AcDbCircle
 10
234.9104624260547
 20
249.4346683080084
 30
0.0
 40
26.2806117694488
100
AcDbArc
 50
159.6451437818982
 51
200.3548562181075
  0
LINE
  5
269
330
1F
100
AcDbEntity
  8
JISSEN
  6
Continuous
 62
     7
370
    35
100
AcDbLine
 10
207.4751501182275
 20
238.9346683080062
 30
0.0
 11
205.9196364910929
 21
238.9346683080063
 31
0.0
  0
LINE
  5
26A
330
1F
100
AcDbEntity
  8
JISSEN
  6
Continuous
 62
     7
370
    35
100
AcDbLine
 10
209.5109743979353
 20
238.9346683080061
 30
0.0
 11
204.9186904939186
 21
238.934668308006
 31
0.0
  0
LINE
  5
26B
330
1F
100
AcDbEntity
  8
JISSEN
  6
Continuous
 62
     7
370
    35
100
AcDbLine
 10
209.5109743979353
 20
238.9346683080061
 30
0.0
 11
204.9186904939186
 21
238.934668308006
 31
0.0
  0
ARC
  5
26C
330
1F
100
AcDbEntity
  8
JISSEN
  6
Continuous
 62
     7
370
    35
100
AcDbCircle
 10
209.5109743979353
 20
237.9346683080061
 30
0.0
 40
1.0
100
AcDbArc
 50
48.59037789071187
 51
89.99999999999991
  0
LINE
  5
26D
330
1F
100
AcDbEntity
  8
JISSEN
  6
Continuous
 62
     7
370
    35
100
AcDbLine
 10
210.4196364910956
 20
238.684668308007
 30
0.0
 11
210.4196364910974
 21
239.902092580535
 31
0.0
  0
ARC
  5
26E
330
1F
100
AcDbEntity
  8
JISSEN
  6
Continuous
 62
     7
370
    35
100
AcDbCircle
 10
210.8334420180806
 20
240.502092580534
 30
0.0
 40
0.599999999999909
100
AcDbArc
 50
200.3548562181049
 51
269.9999999999998
  0
ARC
  5
26F
330
1F
100
AcDbEntity
  8
JISSEN
  6
Continuous
 62
     7
370
    35
100
AcDbCircle
 10
210.833850053468
 20
239.4346683080059
 30
0.0
 40
1.0
100
AcDbArc
 50
228.5903778907115
 51
269.9999999999998
  0
LINE
  5
270
330
1F
100
AcDbEntity
  8
JISSEN
  6
Continuous
 62
     7
370
    35
100
AcDbLine
 10
210.4196364910979
 20
259.4346683080061
 30
0.0
 11
202.394620846532
 21
259.434668308006
 31
0.0
  0
LINE
  5
271
330
1F
100
AcDbEntity
  8
JISSEN
  6
Continuous
 62
     7
370
    35
100
AcDbLine
 10
210.4196364910965
 20
261.4346683080061
 30
0.0
 11
202.394620846532
 21
261.4346683080059
 31
0.0
  0
LINE
  5
272
330
1F
100
AcDbEntity
  8
JISSEN
  6
Continuous
 62
     7
370
    35
100
AcDbLine
 10
210.4196364910961
 20
261.9020925805336
 30
0.0
 11
210.4196364910983
 21
258.9672440354786
 31
0.0
  0
ARC
  5
273
330
1F
100
AcDbEntity
  8
JISSEN
  6
Continuous
 62
     7
370
    35
100
AcDbCircle
 10
210.8334420180797
 20
258.3672440354792
 30
0.0
 40
0.599999999999909
100
AcDbArc
 50
89.99999999999991
 51
159.6451437818998
  0
ARC
  5
274
330
1F
100
AcDbEntity
  8
JISSEN
  6
Continuous
 62
     7
370
    35
100
AcDbCircle
 10
210.833442018077
 20
262.5020925805342
 30
0.0
 40
0.599999999999909
100
AcDbArc
 50
200.3548562180999
 51
269.9999999999998
  0
ARC
  5
275
330
1F
100
AcDbEntity
  8
JISSEN
  6
Continuous
 62
     7
370
    35
100
AcDbCircle
 10
190.8241430097021
 20
249.4346683080054
 30
0.0
 40
31.01814321220149
100
AcDbArc
 50
342.1020495525382
 51
17.89795044746143
  0
LINE
  5
276
330
1F
100
AcDbEntity
  8
JISSEN
  6
Continuous
 62
     7
370
    35
100
AcDbLine
 10
220.3411755220102
 20
238.4346683080047
 30
0.0
 11
220.3411755220102
 21
239.9020925805339
 31
0.0
  0
LINE
  5
277
330
1F
100
AcDbEntity
  8
JISSEN
  6
Continuous
 62
     7
370
    35
100
AcDbLine
 10
222.4196364910938
 20
239.4346683080063
 30
0.0
 11
221.8422862219029
 21
238.4346683080053
 31
0.0
  0
LINE
  5
278
330
1F
100
AcDbEntity
  8
JISSEN
  6
Continuous
 62
     7
370
    35
100
AcDbLine
 10
220.3411755220102
 20
258.967244035477
 30
0.0
 11
220.3411755220102
 21
261.9020925805323
 31
0.0
  0
LINE
  5
279
330
1F
100
AcDbEntity
  8
JISSEN
  6
Continuous
 62
     7
370
    35
100
AcDbLine
 10
210.8334420180765
 20
280.9672440354782
 30
0.0
 11
220.3411755220102
 21
280.9672440354774
 31
0.0
  0
LINE
  5
27A
330
1F
100
AcDbEntity
  8
JISSEN
  6
Continuous
 62
     7
370
    35
100
AcDbLine
 10
210.8338500534671
 20
282.4346683080063
 30
0.0
 11
221.842286221902
 21
282.434668308007
 31
0.0
  0
LINE
  5
27B
330
1F
100
AcDbEntity
  8
JISSEN
  6
Continuous
 62
     7
370
    35
100
AcDbLine
 10
209.5109743979344
 20
281.9346683080061
 30
0.0
 11
204.9186904939631
 21
281.9346683080059
 31
0.0
  0
LINE
  5
27C
330
1F
100
AcDbEntity
  8
JISSEN
  6
Continuous
 62
     7
370
    35
100
AcDbLine
 10
209.5109743979344
 20
281.9346683080061
 30
0.0
 11
204.9186904939631
 21
281.9346683080059
 31
0.0
  0
ARC
  5
27D
330
1F
100
AcDbEntity
  8
JISSEN
  6
Continuous
 62
     7
370
    35
100
AcDbCircle
 10
209.5109743979344
 20
282.9346683080061
 30
0.0
 40
1.0
100
AcDbArc
 50
269.9999999999998
 51
311.4096221092878
  0
LINE
  5
27E
330
1F
100
AcDbEntity
  8
JISSEN
  6
Continuous
 62
     7
370
    35
100
AcDbLine
 10
210.4196364910956
 20
282.1846683080063
 30
0.0
 11
210.4196364910974
 21
280.9672440354782
 31
0.0
  0
ARC
  5
27F
330
1F
100
AcDbEntity
  8
JISSEN
  6
Continuous
 62
     7
370
    35
100
AcDbCircle
 10
210.8334420180765
 20
280.3672440354782
 30
0.0
 40
0.599999999999909
100
AcDbArc
 50
89.99999999999991
 51
159.6451437818998
  0
ARC
  5
280
330
1F
100
AcDbEntity
  8
JISSEN
  6
Continuous
 62
     7
370
    35
100
AcDbCircle
 10
210.8338500534671
 20
281.4346683080063
 30
0.0
 40
1.0
100
AcDbArc
 50
89.99999999999991
 51
131.4096221092881
  0
LINE
  5
281
330
1F
100
AcDbEntity
  8
JISSEN
  6
Continuous
 62
     7
370
    35
100
AcDbLine
 10
220.3411755220102
 20
280.9672440354777
 30
0.0
 11
220.3411755220102
 21
282.4346683080054
 31
0.0
  0
LINE
  5
282
330
1F
100
AcDbEntity
  8
JISSEN
  6
Continuous
 62
     7
370
    35
100
AcDbLine
 10
222.4196364910929
 20
281.4346683080046
 30
0.0
 11
221.8422862219029
 21
282.4346683080053
 31
0.0
  0
LINE
  5
283
330
1F
100
AcDbEntity
  8
ITTEN
  6
DASHDOT
 62
     1
370
    25
100
AcDbLine
 10
283.1561677914087
 20
215.2544551387582
 30
0.0
 11
283.1561677914108
 21
95.95618445766638
 31
0.0
  0
LINE
  5
284
330
1F
100
AcDbEntity
  8
JISSEN
  6
Continuous
 62
     7
370
    35
100
AcDbLine
 10
283.1561677914094
 20
166.9561844576665
 30
0.0
 11
302.1561677914099
 21
166.9561844576662
 31
0.0
  0
LINE
  5
285
330
1F
100
AcDbEntity
  8
JISSEN
  6
Continuous
 62
     7
370
    35
100
AcDbLine
 10
301.356167791407
 20
167.756184457667
 30
0.0
 11
283.1561677914094
 21
167.7561844576668
 31
0.0
  0
POLYLINE
  5
286
330
1F
100
AcDbEntity
  8
JISSEN
  6
Continuous
 62
     7
370
    35
100
AcDb2dPolyline
 66
     1
 10
0.0
 20
0.0
 30
0.0
  0
VERTEX
  5
287
330
286
100
AcDbEntity
  8
JISSEN
  6
Continuous
 62
     7
370
    35
100
AcDbVertex
100
AcDb2dVertex
 10
303.6887435188828
 20
155.5051081785978
 30
0.0
  0
VERTEX
  5
288
330
286
100
AcDbEntity
  8
JISSEN
  6
Continuous
 62
     7
370
    35
100
AcDbVertex
100
AcDb2dVertex
 10
284.6235920639376
 20
166.5123785032513
 30
0.0
  0
SEQEND
  5
289
330
286
100
AcDbEntity
  8
JISSEN
  6
Continuous
 62
     7
370
    35
  0
LINE
  5
28A
330
1F
100
AcDbEntity
  8
ITTEN
  6
DASHDOT
 62
     1
370
    25
100
AcDbLine
 10
311.1561677914103
 20
141.9561844576673
 30
0.0
 11
255.1561677914103
 21
141.956184457666
 31
0.0
  0
POLYLINE
  5
28B
330
1F
100
AcDbEntity
  8
JISSEN
  6
Continuous
 62
     7
370
    35
100
AcDb2dPolyline
 66
     1
 10
0.0
 20
0.0
 30
0.0
  0
VERTEX
  5
28C
330
28B
100
AcDbEntity
  8
JISSEN
  6
Continuous
 62
     7
370
    35
100
AcDbVertex
100
AcDb2dVertex
 10
284.6235920639376
 20
117.3999904120822
 30
0.0
  0
VERTEX
  5
28D
330
28B
100
AcDbEntity
  8
JISSEN
  6
Continuous
 62
     7
370
    35
100
AcDbVertex
100
AcDb2dVertex
 10
303.6887435188828
 20
128.4072607367357
 30
0.0
  0
SEQEND
  5
28E
330
28B
100
AcDbEntity
  8
JISSEN
  6
Continuous
 62
     7
370
    35
  0
ARC
  5
28F
330
1F
100
AcDbEntity
  8
JISSEN
  6
Continuous
 62
     7
370
    35
100
AcDbCircle
 10
294.1561677914096
 20
89.4653585227075
 30
0.0
 40
26.2806117694488
100
AcDbArc
 50
69.64514378188508
 51
110.3548562181017
  0
LINE
  5
290
330
1F
100
AcDbEntity
  8
JISSEN
  6
Continuous
 62
     7
370
    35
100
AcDbLine
 10
296.6259969961411
 20
124.3295821306137
 30
0.0
 11
302.1561677913915
 21
124.3295821306137
 31
0.0
  0
LINE
  5
291
330
1F
100
AcDbEntity
  8
JISSEN
  6
Continuous
 62
     7
370
    35
100
AcDbLine
 10
283.1561677914106
 20
101.9561844576671
 30
0.0
 11
304.2920661762744
 21
101.9561844576671
 31
0.0
  0
ARC
  5
292
330
1F
100
AcDbEntity
  8
JISSEN
  6
Continuous
 62
     7
370
    35
100
AcDbCircle
 10
294.1561677914101
 20
133.4732169699742
 30
0.0
 40
31.01814321220149
100
AcDbArc
 50
252.1020495525329
 51
287.8979504474664
  0
ARC
  5
293
330
1F
100
AcDbEntity
  8
JISSEN
  6
Continuous
 62
     7
370
    35
100
AcDbCircle
 10
283.1561677914101
 20
141.9561844576667
 30
0.0
 40
21.13589838486405
100
AcDbArc
 50
269.9999999999998
 51
89.99999999999991
  0
ARC
  5
294
330
1F
100
AcDbEntity
  8
JISSEN
  6
Continuous
 62
     7
370
    35
100
AcDbCircle
 10
283.1561677914101
 20
141.9561844576667
 30
0.0
 40
17.25003853647672
100
AcDbArc
 50
269.9999999999998
 51
89.99999999999991
  0
ARC
  5
295
330
1F
100
AcDbEntity
  8
JISSEN
  6
Continuous
 62
     7
370
    35
100
AcDbCircle
 10
283.1561677914101
 20
141.9561844576667
 30
0.0
 40
15.1439859378213
100
AcDbArc
 50
269.9999999999998
 51
89.99999999999991
  0
ARC
  5
296
330
1F
100
AcDbEntity
  8
SAISEN
  6
Continuous
 62
     4
370
    25
100
AcDbCircle
 10
283.1561677914101
 20
141.9561844576667
 30
0.0
 40
16.62271743005067
100
AcDbArc
 50
269.9999999999998
 51
89.99999999999991
  0
LINE
  5
297
330
1F
100
AcDbEntity
  8
JISSEN
  6
Continuous
 62
     7
370
    35
100
AcDbLine
 10
284.6235920639376
 20
113.5423789306824
 30
0.0
 11
284.6235920639374
 21
103.9561844576661
 31
0.0
  0
LINE
  5
298
330
1F
100
AcDbEntity
  8
JISSEN
  6
Continuous
 62
     7
370
    35
100
AcDbLine
 10
284.6235920639376
 20
103.9561844576661
 30
0.0
 11
283.1561677914106
 21
103.9561844576661
 31
0.0
  0
ARC
  5
299
330
1F
100
AcDbEntity
  8
JISSEN
  6
Continuous
 62
     7
370
    35
100
AcDbCircle
 10
283.1561677914101
 20
141.9561844576667
 30
0.0
 40
13.50000000000068
100
AcDbArc
 50
269.9999999999998
 51
89.99999999999991
  0
LINE
  5
29A
330
1F
100
AcDbEntity
  8
JISSEN
  6
Continuous
 62
     7
370
    35
100
AcDbLine
 10
287.1561677914094
 20
154.8499814158953
 30
0.0
 11
287.1561677914126
 21
133.8641844576639
 31
0.0
  0
LINE
  5
29B
330
1F
100
AcDbEntity
  8
JISSEN
  6
Continuous
 62
     7
370
    35
100
AcDbLine
 10
283.1561677914101
 20
133.6641844576661
 30
0.0
 11
287.6561677914099
 21
133.6641844576646
 31
0.0
  0
LINE
  5
29C
330
1F
100
AcDbEntity
  8
JISSEN
  6
Continuous
 62
     7
370
    35
100
AcDbLine
 10
287.1561677914124
 20
133.8641844576639
 30
0.0
 11
286.9561677914123
 21
133.6641844576641
 31
0.0
  0
LINE
  5
29D
330
1F
100
AcDbEntity
  8
JISSEN
  6
Continuous
 62
     7
370
    35
100
AcDbLine
 10
283.1561677914101
 20
133.8641844576651
 30
0.0
 11
287.1561677914126
 21
133.8641844576639
 31
0.0
  0
LINE
  5
29E
330
1F
100
AcDbEntity
  8
JISSEN
  6
Continuous
 62
     7
370
    35
100
AcDbLine
 10
288.1561677914099
 20
133.1641844576644
 30
0.0
 11
283.1561677914101
 21
133.1641844576644
 31
0.0
  0
LINE
  5
29F
330
1F
100
AcDbEntity
  8
JISSEN
  6
Continuous
 62
     7
370
    35
100
AcDbLine
 10
291.8925707125252
 20
131.6641844576691
 30
0.0
 11
283.1561677914099
 21
131.6641844576687
 31
0.0
  0
LINE
  5
2A0
330
1F
100
AcDbEntity
  8
JISSEN
  6
Continuous
 62
     7
370
    35
100
AcDbLine
 10
284.1561677914112
 20
113.9561844576695
 30
0.0
 11
284.1561677914112
 21
117.376518064488
 31
0.0
  0
LINE
  5
2A1
330
1F
100
AcDbEntity
  8
JISSEN
  6
Continuous
 62
     7
370
    35
100
AcDbLine
 10
284.6235920639378
 20
113.9561844576659
 30
0.0
 11
283.1561677914103
 21
113.9561844576647
 31
0.0
  0
ARC
  5
2A2
330
1F
100
AcDbEntity
  8
JISSEN
  6
Continuous
 62
     7
370
    35
100
AcDbCircle
 10
285.2235920639375
 20
113.5423789306824
 30
0.0
 40
0.599999999999909
100
AcDbArc
 50
110.3548562181012
 51
179.9999999999998
  0
ARC
  5
2A3
330
1F
100
AcDbEntity
  8
JISSEN
  6
Continuous
 62
     7
370
    35
100
AcDbCircle
 10
283.1561677914103
 20
141.9561844576667
 30
0.0
 40
24.59999999999991
100
AcDbArc
 50
269.9999999999998
 51
273.4198032283016
  0
LINE
  5
2A4
330
1F
100
AcDbEntity
  8
JISSEN
  6
Continuous
 62
     7
370
    35
100
AcDbLine
 10
283.1561677914099
 20
133.6641844576663
 30
0.0
 11
286.9561677914107
 21
133.6641844576641
 31
0.0
  0
LINE
  5
2A5
330
1F
100
AcDbEntity
  8
JISSEN
  6
Continuous
 62
     7
370
    35
100
AcDbLine
 10
283.1561677914099
 20
133.6641844576663
 30
0.0
 11
286.9561677914123
 21
133.6641844576641
 31
0.0
  0
LINE
  5
2A6
330
1F
100
AcDbEntity
  8
JISSEN
  6
Continuous
 62
     7
370
    35
100
AcDbLine
 10
288.1561677914099
 20
133.1641844576644
 30
0.0
 11
288.1561677914099
 21
132.2641844576691
 31
0.0
  0
ARC
  5
2A7
330
1F
100
AcDbEntity
  8
JISSEN
  6
Continuous
 62
     7
370
    35
100
AcDbCircle
 10
288.7561677914098
 20
132.2641844576691
 30
0.0
 40
0.599999999999909
100
AcDbArc
 50
179.9999999999998
 51
269.9999999999998
  0
LINE
  5
2A8
330
1F
100
AcDbEntity
  8
JISSEN
  6
Continuous
 62
     7
370
    35
100
AcDbLine
 10
287.6561677914099
 20
133.6641844576646
 30
0.0
 11
288.1561677914099
 21
133.1641844576644
 31
0.0
  0
ARC
  5
2A9
330
1F
100
AcDbEntity
  8
JISSEN
  6
Continuous
 62
     7
370
    35
100
AcDbCircle
 10
283.1561677914103
 20
141.9561844576667
 30
0.0
 40
24.59999999999991
100
AcDbArc
 50
86.58019677169808
 51
89.99999999999991
  0
LINE
  5
2AA
330
1F
100
AcDbEntity
  8
JISSEN
  6
Continuous
 62
     7
370
    35
100
AcDbLine
 10
305.156167791411
 20
113.5419708952946
 30
0.0
 11
305.156167791411
 21
102.4550737577734
 31
0.0
  0
LINE
  5
2AB
330
1F
100
AcDbEntity
  8
JISSEN
  6
Continuous
 62
     7
370
    35
100
AcDbLine
 10
303.6887435188828
 20
113.542378930682
 30
0.0
 11
303.6887435188833
 21
103.9561844576664
 31
0.0
  0
LINE
  5
2AC
330
1F
100
AcDbEntity
  8
JISSEN
  6
Continuous
 62
     7
370
    35
100
AcDbLine
 10
303.6887435188828
 20
103.9561844576661
 30
0.0
 11
305.1561677914106
 21
103.9561844576661
 31
0.0
  0
POLYLINE
  5
2AD
330
1F
100
AcDbEntity
  8
JISSEN
  6
Continuous
 62
     7
370
    35
100
AcDb2dPolyline
 66
     1
 10
0.0
 20
0.0
 30
0.0
  0
VERTEX
  5
2AE
330
2AD
100
AcDbEntity
  8
JISSEN
  6
Continuous
 62
     7
370
    35
100
AcDbVertex
100
AcDb2dVertex
 10
305.1561677914103
 20
130.948914133013
 30
0.0
  0
VERTEX
  5
2AF
330
2AD
100
AcDbEntity
  8
JISSEN
  6
Continuous
 62
     7
370
    35
100
AcDbVertex
100
AcDb2dVertex
 10
305.1561677914103
 20
152.9634547823202
 30
0.0
  0
SEQEND
  5
2B0
330
2AD
100
AcDbEntity
  8
JISSEN
  6
Continuous
 62
     7
370
    35
  0
ARC
  5
2B1
330
1F
100
AcDbEntity
  8
JISSEN
  6
Continuous
 62
     7
370
    35
100
AcDbCircle
 10
304.1561677913921
 20
125.2656599945639
 30
0.0
 40
2.0
100
AcDbArc
 50
179.9999999999772
 51
226.5674641771999
  0
ARC
  5
2B2
330
1F
100
AcDbEntity
  8
JISSEN
  6
Continuous
 62
     7
370
    35
100
AcDbCircle
 10
298.6561678659157
 20
119.4561849046991
 30
0.0
 40
6.0
100
AcDbArc
 50
0.0
 51
46.56746417720048
  0
ARC
  5
2B3
330
1F
100
AcDbEntity
  8
JISSEN
  6
Continuous
 62
     7
370
    35
100
AcDbCircle
 10
303.0887435188829
 20
113.542378930682
 30
0.0
 40
0.599999999999909
100
AcDbArc
 50
0.0
 51
69.64514378189882
  0
LINE
  5
2B4
330
1F
100
AcDbEntity
  8
JISSEN
  6
Continuous
 62
     7
370
    35
100
AcDbLine
 10
304.6561677914103
 20
114.8648465508273
 30
0.0
 11
304.6561677914101
 21
119.4571304547981
 31
0.0
  0
LINE
  5
2B5
330
1F
100
AcDbEntity
  8
JISSEN
  6
Continuous
 62
     7
370
    35
100
AcDbLine
 10
304.6561677914103
 20
114.8648465508273
 30
0.0
 11
304.6561677914101
 21
119.4571304547981
 31
0.0
  0
ARC
  5
2B6
330
1F
100
AcDbEntity
  8
JISSEN
  6
Continuous
 62
     7
370
    35
100
AcDbCircle
 10
305.6561677914106
 20
114.8648465508273
 30
0.0
 40
1.0
100
AcDbArc
 50
179.9999999999998
 51
221.4096221092902
  0
LINE
  5
2B7
330
1F
100
AcDbEntity
  8
JISSEN
  6
Continuous
 62
     7
370
    35
100
AcDbLine
 10
304.9061677914106
 20
113.9561844576661
 30
0.0
 11
303.6887435188826
 21
113.9561844576647
 31
0.0
  0
ARC
  5
2B8
330
1F
100
AcDbEntity
  8
JISSEN
  6
Continuous
 62
     7
370
    35
100
AcDbCircle
 10
304.156167791411
 20
113.5419708952946
 30
0.0
 40
1.0
100
AcDbArc
 50
0.0
 51
41.40962210929058
  0
LINE
  5
2B9
330
1F
100
AcDbEntity
  8
JISSEN
  6
Continuous
 62
     7
370
    35
100
AcDbLine
 10
302.1561677913926
 20
127.5224277279167
 30
0.0
 11
302.1561677913917
 21
125.2656599945647
 31
0.0
  0
ARC
  5
2BA
330
1F
100
AcDbEntity
  8
JISSEN
  6
Continuous
 62
     7
370
    35
100
AcDbCircle
 10
283.1561677914103
 20
141.9561844576667
 30
0.0
 40
24.59999999999991
100
AcDbArc
 50
326.5801967716895
 51
333.4198032283089
  0
LINE
  5
2BB
330
1F
100
AcDbEntity
  8
JISSEN
  6
Continuous
 62
     7
370
    35
100
AcDbLine
 10
302.1561677914099
 20
166.9561844576662
 30
0.0
 11
302.1561677913921
 21
156.389941187418
 31
0.0
  0
ARC
  5
2BC
330
1F
100
AcDbEntity
  8
JISSEN
  6
Continuous
 62
     7
370
    35
100
AcDbCircle
 10
283.1561677914103
 20
141.9561844576667
 30
0.0
 40
24.59999999999991
100
AcDbArc
 50
26.58019677169076
 51
33.41980322831012
  0
LINE
  5
2BD
330
1F
100
AcDbEntity
  8
JISSEN
  6
Continuous
 62
     7
370
    35
100
AcDbLine
 10
300.4561677914096
 20
168.2544551387555
 30
0.0
 11
300.4561677914096
 21
167.7561844576662
 31
0.0
  0
LINE
  5
2BE
330
1F
100
AcDbEntity
  8
JISSEN
  6
Continuous
 62
     7
370
    35
100
AcDbLine
 10
302.1561677914083
 20
166.9561844576662
 30
0.0
 11
301.3561677914065
 21
167.756184457667
 31
0.0
  0
ARC
  5
2BF
330
1F
100
AcDbEntity
  8
JISSEN
  6
Continuous
 62
     7
370
    35
100
AcDbCircle
 10
286.156167791409
 20
198.7561235249751
 30
0.0
 40
1.0
100
AcDbArc
 50
0.0
 51
89.99999999999991
  0
ARC
  5
2C0
330
1F
100
AcDbEntity
  8
JISSEN
  6
Continuous
 62
     7
370
    35
100
AcDbCircle
 10
286.156167791409
 20
198.7561235249751
 30
0.0
 40
1.0
100
AcDbArc
 50
0.0
 51
89.99999999999991
  0
LINE
  5
2C1
330
1F
100
AcDbEntity
  8
JISSEN
  6
Continuous
 62
     7
370
    35
100
AcDbLine
 10
284.6561677914106
 20
202.4060357405622
 30
0.0
 11
293.1561677914049
 21
202.4060357405622
 31
0.0
  0
LINE
  5
2C2
330
1F
100
AcDbEntity
  8
JISSEN
  6
Continuous
 62
     7
370
    35
100
AcDbLine
 10
284.6561677914103
 20
201.7560357405621
 30
0.0
 11
295.1561677914049
 21
201.7560357405622
 31
0.0
  0
LINE
  5
2C3
330
1F
100
AcDbEntity
  8
JISSEN
  6
Continuous
 62
     7
370
    35
100
AcDbLine
 10
284.6561677914103
 20
201.9060357405622
 30
0.0
 11
295.1561677914049
 21
201.9060357405622
 31
0.0
  0
LINE
  5
2C4
330
1F
100
AcDbEntity
  8
JISSEN
  6
Continuous
 62
     7
370
    35
100
AcDbLine
 10
295.1561677914049
 20
204.0544202022585
 30
0.0
 11
284.6561677914103
 21
204.0544202022585
 31
0.0
  0
LINE
  5
2C5
330
1F
100
AcDbEntity
  8
JISSEN
  6
Continuous
 62
     7
370
    35
100
AcDbLine
 10
295.1561677914049
 20
203.9044202022584
 30
0.0
 11
284.6561677914103
 21
203.9044202022584
 31
0.0
  0
LINE
  5
2C6
330
1F
100
AcDbEntity
  8
JISSEN
  6
Continuous
 62
     7
370
    35
100
AcDbLine
 10
285.1561677914092
 20
196.8807164290254
 30
0.0
 11
285.156167791409
 21
197.7561235249751
 31
0.0
  0
LINE
  5
2C7
330
1F
100
AcDbEntity
  8
JISSEN
  6
Continuous
 62
     7
370
    35
100
AcDbLine
 10
285.156167791409
 20
197.7561235249751
 30
0.0
 11
285.1561677914092
 21
196.8807164290254
 31
0.0
  0
LINE
  5
2C8
330
1F
100
AcDbEntity
  8
JISSEN
  6
Continuous
 62
     7
370
    35
100
AcDbLine
 10
286.156167791409
 20
199.7561235249751
 30
0.0
 11
284.6561677914103
 21
199.756123524975
 31
0.0
  0
LINE
  5
2C9
330
1F
100
AcDbEntity
  8
JISSEN
  6
Continuous
 62
     7
370
    35
100
AcDbLine
 10
284.6561677914103
 20
199.756123524975
 30
0.0
 11
286.156167791409
 21
199.7561235249751
 31
0.0
  0
LINE
  5
2CA
330
1F
100
AcDbEntity
  8
JISSEN
  6
Continuous
 62
     7
370
    35
100
AcDbLine
 10
285.5061677914084
 20
201.7560357405616
 30
0.0
 11
286.7061677914082
 21
201.7560357405614
 31
0.0
  0
LINE
  5
2CB
330
1F
100
AcDbEntity
  8
JISSEN
  6
Continuous
 62
     7
370
    35
100
AcDbLine
 10
286.7061677914082
 20
199.5912881794
 30
0.0
 11
286.7061677914082
 21
201.7560357405616
 31
0.0
  0
LINE
  5
2CC
330
1F
100
AcDbEntity
  8
JISSEN
  6
Continuous
 62
     7
370
    35
100
AcDbLine
 10
286.6914331875428
 20
201.9060357405612
 30
0.0
 11
285.5061677914018
 21
201.9060357405615
 31
0.0
  0
ARC
  5
2CD
330
1F
100
AcDbEntity
  8
JISSEN
  6
Continuous
 62
     7
370
    35
100
AcDbCircle
 10
284.906167791409
 20
197.406123524975
 30
0.0
 40
0.5
100
AcDbArc
 50
59.99999999999946
 51
103.6589340851829
  0
LINE
  5
2CE
330
1F
100
AcDbEntity
  8
JISSEN
  6
Continuous
 62
     7
370
    35
100
AcDbLine
 10
285.156167791409
 20
197.7561235249751
 30
0.0
 11
285.156167791409
 21
197.8391362268673
 31
0.0
  0
SPLINE
  5
2CF
330
1F
100
AcDbEntity
  8
JISSEN
  6
Continuous
 62
     7
370
    35
100
AcDbSpline
210
0.0
220
0.0
230
1.0
 70
    12
 71
     3
 72
    11
 73
     7
 74
     0
 42
0.000000001
 43
0.00000015
 40
0.0
 40
0.0
 40
0.0
 40
0.0
 40
0.1332546681913699
 40
0.2668322155333599
 40
0.3993593639044578
 40
0.5304071453302042
 40
0.5304071453302042
 40
0.5304071453302042
 40
0.5304071453302042
 10
284.7561677914089
 20
198.3044154697866
 30
0.0
 41
1.0
 10
284.7548547594147
 20
198.3247842040464
 30
0.0
 41
1.0
 10
284.7522255139195
 20
198.3655710264813
 30
0.0
 41
1.0
 10
284.7313792891277
 20
198.4236513534872
 30
0.0
 41
1.0
 10
284.6995831077363
 20
198.4757739541907
 30
0.0
 41
1.0
 10
284.6714871027186
 20
198.505180505653
 30
0.0
 41
1.0
 10
284.6561677914099
 20
198.5182495628746
 30
0.0
 41
1.0
  0
LINE
  5
2D0
330
1F
100
AcDbEntity
  8
JISSEN
  6
Continuous
 62
     7
370
    35
100
AcDbLine
 10
284.7561677914089
 20
198.3044154697866
 30
0.0
 11
284.7561677914089
 21
197.9797073968079
 31
0.0
  0
LINE
  5
2D1
330
1F
100
AcDbEntity
  8
JISSEN
  6
Continuous
 62
     7
370
    35
100
AcDbLine
 10
284.8345976647026
 20
197.7642230909219
 30
0.0
 11
285.156167791409
 21
197.764223090922
 31
0.0
  0
LINE
  5
2D2
330
1F
100
AcDbEntity
  8
JISSEN
  6
Continuous
 62
     7
370
    35
100
AcDbLine
 10
289.156167791409
 20
196.264223090922
 30
0.0
 11
289.156167791409
 21
197.564223090922
 31
0.0
  0
LINE
  5
2D3
330
1F
100
AcDbEntity
  8
JISSEN
  6
Continuous
 62
     7
370
    35
100
AcDbLine
 10
287.1561677914087
 20
192.5738507084751
 30
0.0
 11
287.156167791409
 21
198.7561235249751
 31
0.0
  0
LINE
  5
2D4
330
1F
100
AcDbEntity
  8
JISSEN
  6
Continuous
 62
     7
370
    35
100
AcDbLine
 10
287.156167791409
 20
198.7561235249751
 30
0.0
 11
287.156167791409
 21
192.5738507084749
 31
0.0
  0
LINE
  5
2D5
330
1F
100
AcDbEntity
  8
JISSEN
  6
Continuous
 62
     7
370
    35
100
AcDbLine
 10
287.656167791406
 20
195.7641353065084
 30
0.0
 11
287.656167791406
 21
196.2641353065083
 31
0.0
  0
LINE
  5
2D6
330
1F
100
AcDbEntity
  8
JISSEN
  6
Continuous
 62
     7
370
    35
100
AcDbLine
 10
287.156167791409
 20
195.7641353065087
 30
0.0
 11
287.656167791406
 21
195.7641353065087
 31
0.0
  0
LINE
  5
2D7
330
1F
100
AcDbEntity
  8
JISSEN
  6
Continuous
 62
     7
370
    35
100
AcDbLine
 10
287.156167791409
 20
196.264223090922
 30
0.0
 11
289.156167791409
 21
196.264223090922
 31
0.0
  0
LINE
  5
2D8
330
1F
100
AcDbEntity
  8
JISSEN
  6
Continuous
 62
     7
370
    35
100
AcDbLine
 10
288.0651718972726
 20
202.4060357405622
 30
0.0
 11
292.1819493714447
 21
203.9044202022584
 31
0.0
  0
ARC
  5
2D9
330
1F
100
AcDbEntity
  8
JISSEN
  6
Continuous
 62
     7
370
    35
100
AcDbCircle
 10
288.9561677914089
 20
197.564223090922
 30
0.0
 40
0.2000000000000455
100
AcDbArc
 50
0.0
 51
89.99999999999991
  0
LINE
  5
2DA
330
1F
100
AcDbEntity
  8
JISSEN
  6
Continuous
 62
     7
370
    35
100
AcDbLine
 10
287.156167791409
 20
197.764223090922
 30
0.0
 11
288.9561677914089
 21
197.764223090922
 31
0.0
  0
LINE
  5
2DB
330
1F
100
AcDbEntity
  8
JISSEN
  6
Continuous
 62
     7
370
    35
100
AcDbLine
 10
295.1561677914049
 20
203.9044202022584
 30
0.0
 11
295.1561677914049
 21
204.0544202022585
 31
0.0
  0
LINE
  5
2DC
330
1F
100
AcDbEntity
  8
JISSEN
  6
Continuous
 62
     7
370
    35
100
AcDbLine
 10
295.1561677914049
 20
201.7560357405622
 30
0.0
 11
295.1561677914049
 21
201.9060357405622
 31
0.0
  0
ARC
  5
2DD
330
1F
100
AcDbEntity
  8
JISSEN
  6
Continuous
 62
     7
370
    35
100
AcDbCircle
 10
293.1561677914049
 20
201.9060357405622
 30
0.0
 40
0.5
100
AcDbArc
 50
0.0
 51
89.99999999999991
  0
POLYLINE
  5
2DE
330
1F
100
AcDbEntity
  8
JISSEN
  6
Continuous
 62
     7
370
    35
100
AcDb2dPolyline
 66
     1
 10
0.0
 20
0.0
 30
0.0
  0
VERTEX
  5
2DF
330
2DE
100
AcDbEntity
  8
JISSEN
  6
Continuous
 62
     7
370
    35
100
AcDbVertex
100
AcDb2dVertex
 10
281.6887435188835
 20
117.3999904120821
 30
0.0
  0
VERTEX
  5
2E0
330
2DE
100
AcDbEntity
  8
JISSEN
  6
Continuous
 62
     7
370
    35
100
AcDbVertex
100
AcDb2dVertex
 10
262.6235920639378
 20
128.407260736735
 30
0.0
  0
SEQEND
  5
2E1
330
2DE
100
AcDbEntity
  8
JISSEN
  6
Continuous
 62
     7
370
    35
  0
ARC
  5
2E2
330
1F
100
AcDbEntity
  8
JISSEN
  6
Continuous
 62
     7
370
    35
100
AcDbCircle
 10
283.1561677914101
 20
141.9561844576667
 30
0.0
 40
21.13589838486405
100
AcDbArc
 50
90.00000000000186
 51
270.0000000000015
  0
ARC
  5
2E3
330
1F
100
AcDbEntity
  8
JISSEN
  6
Continuous
 62
     7
370
    35
100
AcDbCircle
 10
267.6561677169054
 20
119.4561849046986
 30
0.0
 40
6.0
100
AcDbArc
 50
133.4325358228022
 51
180.0000000000018
  0
ARC
  5
2E4
330
1F
100
AcDbEntity
  8
JISSEN
  6
Continuous
 62
     7
370
    35
100
AcDbCircle
 10
272.1561677914124
 20
89.46535852270713
 30
0.0
 40
26.2806117694488
100
AcDbArc
 50
69.64514378190042
 51
110.354856218117
  0
LINE
  5
2E5
330
1F
100
AcDbEntity
  8
JISSEN
  6
Continuous
 62
     7
370
    35
100
AcDbLine
 10
283.156167791411
 20
101.9561844576671
 30
0.0
 11
262.0202694065472
 21
101.9561844576663
 31
0.0
  0
ARC
  5
2E6
330
1F
100
AcDbEntity
  8
JISSEN
  6
Continuous
 62
     7
370
    35
100
AcDbCircle
 10
272.1561677914103
 20
133.4732169699738
 30
0.0
 40
31.01814321220149
100
AcDbArc
 50
252.102049552535
 51
287.8979504474682
  0
LINE
  5
2E7
330
1F
100
AcDbEntity
  8
JISSEN
  6
Continuous
 62
     7
370
    35
100
AcDbLine
 10
281.6887435188835
 20
113.5423789306824
 30
0.0
 11
281.6887435188842
 21
103.9561844576661
 31
0.0
  0
LINE
  5
2E8
330
1F
100
AcDbEntity
  8
JISSEN
  6
Continuous
 62
     7
370
    35
100
AcDbLine
 10
281.6887435188839
 20
103.9561844576661
 30
0.0
 11
283.156167791411
 21
103.9561844576661
 31
0.0
  0
LINE
  5
2E9
330
1F
100
AcDbEntity
  8
JISSEN
  6
Continuous
 62
     7
370
    35
100
AcDbLine
 10
282.1561677914099
 20
113.9561844576695
 30
0.0
 11
282.1561677914099
 21
117.376518064488
 31
0.0
  0
LINE
  5
2EA
330
1F
100
AcDbEntity
  8
JISSEN
  6
Continuous
 62
     7
370
    35
100
AcDbLine
 10
281.6887435188833
 20
113.9561844576658
 30
0.0
 11
283.1561677914108
 21
113.9561844576647
 31
0.0
  0
ARC
  5
2EB
330
1F
100
AcDbEntity
  8
JISSEN
  6
Continuous
 62
     7
370
    35
100
AcDbCircle
 10
283.1561677914099
 20
141.9561844576667
 30
0.0
 40
24.59999999999991
100
AcDbArc
 50
266.5801967716998
 51
270.0000000000017
  0
ARC
  5
2EC
330
1F
100
AcDbEntity
  8
JISSEN
  6
Continuous
 62
     7
370
    35
100
AcDbCircle
 10
281.0887435188836
 20
113.5423789306824
 30
0.0
 40
0.599999999999909
100
AcDbArc
 50
0.0000000000027141
 51
69.64514378189882
  0
LINE
  5
2ED
330
1F
100
AcDbEntity
  8
JISSEN
  6
Continuous
 62
     7
370
    35
100
AcDbLine
 10
261.4061677914106
 20
113.9561844576653
 30
0.0
 11
262.6235920639385
 21
113.956184457664
 31
0.0
  0
LINE
  5
2EE
330
1F
100
AcDbEntity
  8
JISSEN
  6
Continuous
 62
     7
370
    35
100
AcDbLine
 10
262.6235920639388
 20
103.9561844576654
 30
0.0
 11
261.156167791411
 21
103.9561844576653
 31
0.0
  0
LINE
  5
2EF
330
1F
100
AcDbEntity
  8
JISSEN
  6
Continuous
 62
     7
370
    35
100
AcDbLine
 10
262.6235920639383
 20
113.5423789306813
 30
0.0
 11
262.6235920639383
 21
103.9561844576657
 31
0.0
  0
ARC
  5
2F0
330
1F
100
AcDbEntity
  8
JISSEN
  6
Continuous
 62
     7
370
    35
100
AcDbCircle
 10
263.2235920639382
 20
113.5423789306813
 30
0.0
 40
0.599999999999909
100
AcDbArc
 50
110.3548562181021
 51
180.0000000000024
  0
LINE
  5
2F1
330
1F
100
AcDbEntity
  8
JISSEN
  6
Continuous
 62
     7
370
    35
100
AcDbLine
 10
261.1561677914101
 20
113.5419708952938
 30
0.0
 11
261.1561677914106
 21
102.4550737577727
 31
0.0
  0
LINE
  5
2F2
330
1F
100
AcDbEntity
  8
JISSEN
  6
Continuous
 62
     7
370
    35
100
AcDbLine
 10
261.6561677914108
 20
114.8648465508265
 30
0.0
 11
261.656167791411
 21
119.4571304547974
 31
0.0
  0
LINE
  5
2F3
330
1F
100
AcDbEntity
  8
JISSEN
  6
Continuous
 62
     7
370
    35
100
AcDbLine
 10
261.6561677914108
 20
114.8648465508265
 30
0.0
 11
261.656167791411
 21
119.4571304547974
 31
0.0
  0
ARC
  5
2F4
330
1F
100
AcDbEntity
  8
JISSEN
  6
Continuous
 62
     7
370
    35
100
AcDbCircle
 10
260.6561677914106
 20
114.8648465508265
 30
0.0
 40
1.0
100
AcDbArc
 50
318.5903778907103
 51
0.0000000000016284
  0
ARC
  5
2F5
330
1F
100
AcDbEntity
  8
JISSEN
  6
Continuous
 62
     7
370
    35
100
AcDbCircle
 10
262.1561677914101
 20
113.5419708952938
 30
0.0
 40
1.0
100
AcDbArc
 50
138.5903778907106
 51
180.0000000000013
  0
ARC
  5
2F6
330
1F
100
AcDbEntity
  8
JISSEN
  6
Continuous
 62
     7
370
    35
100
AcDbCircle
 10
273.1561677914133
 20
201.9060357405618
 30
0.0
 40
0.5
100
AcDbArc
 50
89.99999999999991
 51
179.9999999999998
  0
LINE
  5
2F7
330
1F
100
AcDbEntity
  8
JISSEN
  6
Continuous
 62
     7
370
    35
100
AcDbLine
 10
281.6561677914106
 20
201.7560357405621
 30
0.0
 11
271.1561677914133
 21
201.7560357405618
 31
0.0
  0
LINE
  5
2F8
330
1F
100
AcDbEntity
  8
JISSEN
  6
Continuous
 62
     7
370
    35
100
AcDbLine
 10
281.6561677914106
 20
201.9060357405622
 30
0.0
 11
271.1561677914133
 21
201.9060357405618
 31
0.0
  0
LINE
  5
2F9
330
1F
100
AcDbEntity
  8
JISSEN
  6
Continuous
 62
     7
370
    35
100
AcDbLine
 10
271.1561677914131
 20
204.0544202022581
 30
0.0
 11
281.6561677914103
 21
204.0544202022584
 31
0.0
  0
LINE
  5
2FA
330
1F
100
AcDbEntity
  8
JISSEN
  6
Continuous
 62
     7
370
    35
100
AcDbLine
 10
271.1561677914131
 20
203.9044202022581
 30
0.0
 11
281.6561677914103
 21
203.9044202022583
 31
0.0
  0
LINE
  5
2FB
330
1F
100
AcDbEntity
  8
JISSEN
  6
Continuous
 62
     7
370
    35
100
AcDbLine
 10
283.1561677914099
 20
166.9561844576665
 30
0.0
 11
264.1561677914094
 21
166.9561844576655
 31
0.0
  0
LINE
  5
2FC
330
1F
100
AcDbEntity
  8
JISSEN
  6
Continuous
 62
     7
370
    35
100
AcDbLine
 10
264.9561677914123
 20
167.7561844576664
 30
0.0
 11
283.1561677914099
 21
167.7561844576669
 31
0.0
  0
POLYLINE
  5
2FD
330
1F
100
AcDbEntity
  8
JISSEN
  6
Continuous
 62
     7
370
    35
100
AcDb2dPolyline
 66
     1
 10
0.0
 20
0.0
 30
0.0
  0
VERTEX
  5
2FE
330
2FD
100
AcDbEntity
  8
JISSEN
  6
Continuous
 62
     7
370
    35
100
AcDbVertex
100
AcDb2dVertex
 10
262.6235920639369
 20
155.5051081785971
 30
0.0
  0
VERTEX
  5
2FF
330
2FD
100
AcDbEntity
  8
JISSEN
  6
Continuous
 62
     7
370
    35
100
AcDbVertex
100
AcDb2dVertex
 10
281.6887435188817
 20
166.5123785032513
 30
0.0
  0
SEQEND
  5
300
330
2FD
100
AcDbEntity
  8
JISSEN
  6
Continuous
 62
     7
370
    35
  0
ARC
  5
301
330
1F
100
AcDbEntity
  8
JISSEN
  6
Continuous
 62
     7
370
    35
100
AcDbCircle
 10
283.1561677914101
 20
141.9561844576667
 30
0.0
 40
17.25003853647672
100
AcDbArc
 50
90.00000000000226
 51
270.0000000000019
  0
ARC
  5
302
330
1F
100
AcDbEntity
  8
JISSEN
  6
Continuous
 62
     7
370
    35
100
AcDbCircle
 10
283.1561677914101
 20
141.9561844576667
 30
0.0
 40
15.1439859378213
100
AcDbArc
 50
90.00000000000173
 51
270.0000000000014
  0
ARC
  5
303
330
1F
100
AcDbEntity
  8
SAISEN
  6
Continuous
 62
     4
370
    25
100
AcDbCircle
 10
283.1561677914101
 20
141.9561844576667
 30
0.0
 40
16.62271743005067
100
AcDbArc
 50
90.00000000000236
 51
270.000000000002
  0
ARC
  5
304
330
1F
100
AcDbEntity
  8
JISSEN
  6
Continuous
 62
     7
370
    35
100
AcDbCircle
 10
283.1561677914101
 20
141.9561844576667
 30
0.0
 40
13.50000000000068
100
AcDbArc
 50
90.00000000000193
 51
270.0000000000015
  0
LINE
  5
305
330
1F
100
AcDbEntity
  8
JISSEN
  6
Continuous
 62
     7
370
    35
100
AcDbLine
 10
279.1561677914103
 20
154.8499814158952
 30
0.0
 11
279.1561677914078
 21
133.8641844576638
 31
0.0
  0
LINE
  5
306
330
1F
100
AcDbEntity
  8
JISSEN
  6
Continuous
 62
     7
370
    35
100
AcDbLine
 10
278.6561677914106
 20
133.6641844576645
 30
0.0
 11
278.1561677914106
 21
133.1641844576643
 31
0.0
  0
LINE
  5
307
330
1F
100
AcDbEntity
  8
JISSEN
  6
Continuous
 62
     7
370
    35
100
AcDbLine
 10
278.1561677914106
 20
133.1641844576643
 30
0.0
 11
283.1561677914103
 21
133.1641844576644
 31
0.0
  0
LINE
  5
308
330
1F
100
AcDbEntity
  8
JISSEN
  6
Continuous
 62
     7
370
    35
100
AcDbLine
 10
274.4197648702955
 20
131.6641844576689
 30
0.0
 11
283.1561677914108
 21
131.6641844576687
 31
0.0
  0
LINE
  5
309
330
1F
100
AcDbEntity
  8
JISSEN
  6
Continuous
 62
     7
370
    35
100
AcDbLine
 10
283.1561677914103
 20
133.8641844576652
 30
0.0
 11
279.1561677914078
 21
133.8641844576638
 31
0.0
  0
LINE
  5
30A
330
1F
100
AcDbEntity
  8
JISSEN
  6
Continuous
 62
     7
370
    35
100
AcDbLine
 10
283.1561677914106
 20
133.6641844576663
 30
0.0
 11
279.3561677914097
 21
133.664184457664
 31
0.0
  0
LINE
  5
30B
330
1F
100
AcDbEntity
  8
JISSEN
  6
Continuous
 62
     7
370
    35
100
AcDbLine
 10
283.1561677914106
 20
133.6641844576663
 30
0.0
 11
279.3561677914081
 21
133.664184457664
 31
0.0
  0
LINE
  5
30C
330
1F
100
AcDbEntity
  8
JISSEN
  6
Continuous
 62
     7
370
    35
100
AcDbLine
 10
283.1561677914103
 20
133.6641844576661
 30
0.0
 11
278.6561677914106
 21
133.6641844576645
 31
0.0
  0
LINE
  5
30D
330
1F
100
AcDbEntity
  8
JISSEN
  6
Continuous
 62
     7
370
    35
100
AcDbLine
 10
279.1561677914081
 20
133.8641844576638
 30
0.0
 11
279.3561677914081
 21
133.664184457664
 31
0.0
  0
LINE
  5
30E
330
1F
100
AcDbEntity
  8
JISSEN
  6
Continuous
 62
     7
370
    35
100
AcDbLine
 10
278.1561677914106
 20
133.1641844576643
 30
0.0
 11
278.1561677914108
 21
132.264184457669
 31
0.0
  0
ARC
  5
30F
330
1F
100
AcDbEntity
  8
JISSEN
  6
Continuous
 62
     7
370
    35
100
AcDbCircle
 10
277.5561677914109
 20
132.2641844576689
 30
0.0
 40
0.599999999999909
100
AcDbArc
 50
269.9999999999998
 51
0.0000000000027141
  0
ARC
  5
310
330
1F
100
AcDbEntity
  8
JISSEN
  6
Continuous
 62
     7
370
    35
100
AcDbCircle
 10
283.1561677914099
 20
141.9561844576667
 30
0.0
 40
24.59999999999991
100
AcDbArc
 50
90.00000000000212
 51
93.41980322830405
  0
LINE
  5
311
330
1F
100
AcDbEntity
  8
JISSEN
  6
Continuous
 62
     7
370
    35
100
AcDbLine
 10
279.6061677914099
 20
199.5912881793999
 30
0.0
 11
279.6061677914099
 21
201.7560357405615
 31
0.0
  0
LINE
  5
312
330
1F
100
AcDbEntity
  8
JISSEN
  6
Continuous
 62
     7
370
    35
100
AcDbLine
 10
279.1561677914092
 20
196.2642230909219
 30
0.0
 11
277.1561677914092
 21
196.2642230909218
 31
0.0
  0
LINE
  5
313
330
1F
100
AcDbEntity
  8
JISSEN
  6
Continuous
 62
     7
370
    35
100
AcDbLine
 10
279.1561677914092
 20
197.7642230909219
 30
0.0
 11
277.3561677914092
 21
197.7642230909218
 31
0.0
  0
LINE
  5
314
330
1F
100
AcDbEntity
  8
JISSEN
  6
Continuous
 62
     7
370
    35
100
AcDbLine
 10
279.156167791409
 20
192.5738507084736
 30
0.0
 11
279.1561677914092
 21
198.756123524975
 31
0.0
  0
LINE
  5
315
330
1F
100
AcDbEntity
  8
JISSEN
  6
Continuous
 62
     7
370
    35
100
AcDbLine
 10
279.1561677914092
 20
198.756123524975
 30
0.0
 11
279.1561677914092
 21
192.5738507084738
 31
0.0
  0
LINE
  5
316
330
1F
100
AcDbEntity
  8
JISSEN
  6
Continuous
 62
     7
370
    35
100
AcDbLine
 10
280.1561677914092
 20
199.756123524975
 30
0.0
 11
281.6561677914103
 21
199.756123524975
 31
0.0
  0
LINE
  5
317
330
1F
100
AcDbEntity
  8
JISSEN
  6
Continuous
 62
     7
370
    35
100
AcDbLine
 10
281.6561677914103
 20
199.756123524975
 30
0.0
 11
280.1561677914092
 21
199.756123524975
 31
0.0
  0
LINE
  5
318
330
1F
100
AcDbEntity
  8
JISSEN
  6
Continuous
 62
     7
370
    35
100
AcDbLine
 10
281.1561677914096
 20
196.8807164290227
 30
0.0
 11
281.1561677914092
 21
197.756123524975
 31
0.0
  0
LINE
  5
319
330
1F
100
AcDbEntity
  8
JISSEN
  6
Continuous
 62
     7
370
    35
100
AcDbLine
 10
281.1561677914092
 20
197.756123524975
 30
0.0
 11
281.1561677914096
 21
196.8807164290227
 31
0.0
  0
LINE
  5
31A
330
1F
100
AcDbEntity
  8
JISSEN
  6
Continuous
 62
     7
370
    35
100
AcDbLine
 10
281.1561677914092
 20
197.756123524975
 30
0.0
 11
281.1561677914092
 21
197.8391362268673
 31
0.0
  0
SPLINE
  5
31B
330
1F
100
AcDbEntity
  8
JISSEN
  6
Continuous
 62
     7
370
    35
100
AcDbSpline
210
0.0
220
0.0
230
1.0
 70
    12
 71
     3
 72
    11
 73
     7
 74
     0
 42
0.000000001
 43
0.00000015
 40
0.0
 40
0.0
 40
0.0
 40
0.0
 40
0.1332546681913699
 40
0.2668322155333599
 40
0.3993593639044578
 40
0.530407145337485
 40
0.530407145337485
 40
0.530407145337485
 40
0.530407145337485
 10
281.5561677914093
 20
198.3044154697866
 30
0.0
 41
1.0
 10
281.5574808234035
 20
198.3247842040464
 30
0.0
 41
1.0
 10
281.5601100688987
 20
198.3655710264813
 30
0.0
 41
1.0
 10
281.5809562936904
 20
198.4236513534871
 30
0.0
 41
1.0
 10
281.6127524750823
 20
198.4757739541917
 30
0.0
 41
1.0
 10
281.6408484801007
 20
198.5051805056546
 30
0.0
 41
1.0
 10
281.6561677914103
 20
198.5182495628767
 30
0.0
 41
1.0
  0
LINE
  5
31C
330
1F
100
AcDbEntity
  8
JISSEN
  6
Continuous
 62
     7
370
    35
100
AcDbLine
 10
281.5561677914093
 20
198.3044154697866
 30
0.0
 11
281.5561677914093
 21
197.979707396804
 31
0.0
  0
ARC
  5
31D
330
1F
100
AcDbEntity
  8
JISSEN
  6
Continuous
 62
     7
370
    35
100
AcDbCircle
 10
281.4061677914092
 20
197.406123524975
 30
0.0
 40
0.5
100
AcDbArc
 50
76.34106591468279
 51
120.0000000000006
  0
LINE
  5
31E
330
1F
100
AcDbEntity
  8
JISSEN
  6
Continuous
 62
     7
370
    35
100
AcDbLine
 10
281.4777379181166
 20
197.7642230909219
 30
0.0
 11
281.1561677914092
 21
197.7642230909219
 31
0.0
  0
LINE
  5
31F
330
1F
100
AcDbEntity
  8
JISSEN
  6
Continuous
 62
     7
370
    35
100
AcDbLine
 10
278.6561677914121
 20
195.7641353065083
 30
0.0
 11
278.6561677914121
 21
196.2641353065081
 31
0.0
  0
ARC
  5
320
330
1F
100
AcDbEntity
  8
JISSEN
  6
Continuous
 62
     7
370
    35
100
AcDbCircle
 10
280.1561677914092
 20
198.756123524975
 30
0.0
 40
1.0
100
AcDbArc
 50
89.99999999999991
 51
180.0000000000029
  0
ARC
  5
321
330
1F
100
AcDbEntity
  8
JISSEN
  6
Continuous
 62
     7
370
    35
100
AcDbCircle
 10
280.1561677914092
 20
198.756123524975
 30
0.0
 40
1.0
100
AcDbArc
 50
89.99999999999991
 51
180.0000000000029
  0
LINE
  5
322
330
1F
100
AcDbEntity
  8
JISSEN
  6
Continuous
 62
     7
370
    35
100
AcDbLine
 10
279.1561677914092
 20
195.7641353065086
 30
0.0
 11
278.6561677914121
 21
195.7641353065086
 31
0.0
  0
LINE
  5
323
330
1F
100
AcDbEntity
  8
JISSEN
  6
Continuous
 62
     7
370
    35
100
AcDbLine
 10
277.1561677914092
 20
196.2642230909218
 30
0.0
 11
277.1561677914092
 21
197.5642230909218
 31
0.0
  0
ARC
  5
324
330
1F
100
AcDbEntity
  8
JISSEN
  6
Continuous
 62
     7
370
    35
100
AcDbCircle
 10
277.3561677914092
 20
197.5642230909218
 30
0.0
 40
0.2000000000000455
100
AcDbArc
 50
89.99999999999991
 51
179.9999999999998
  0
LINE
  5
325
330
1F
100
AcDbEntity
  8
JISSEN
  6
Continuous
 62
     7
370
    35
100
AcDbLine
 10
281.6561677914103
 20
202.4060357405622
 30
0.0
 11
273.1561677914131
 21
202.4060357405618
 31
0.0
  0
LINE
  5
326
330
1F
100
AcDbEntity
  8
JISSEN
  6
Continuous
 62
     7
370
    35
100
AcDbLine
 10
280.8061677914097
 20
201.7560357405616
 30
0.0
 11
279.6061677914099
 21
201.7560357405613
 31
0.0
  0
LINE
  5
327
330
1F
100
AcDbEntity
  8
JISSEN
  6
Continuous
 62
     7
370
    35
100
AcDbLine
 10
279.6209023952754
 20
201.906035740561
 30
0.0
 11
280.8061677914163
 21
201.9060357405614
 31
0.0
  0
LINE
  5
328
330
1F
100
AcDbEntity
  8
JISSEN
  6
Continuous
 62
     7
370
    35
100
AcDbLine
 10
278.2471636855453
 20
202.406035740562
 30
0.0
 11
274.1303862113732
 21
203.9044202022581
 31
0.0
  0
ARC
  5
329
330
1F
100
AcDbEntity
  8
JISSEN
  6
Continuous
 62
     7
370
    35
100
AcDbCircle
 10
283.1561677914099
 20
141.9561844576667
 30
0.0
 40
24.59999999999991
100
AcDbArc
 50
146.5801967716919
 51
153.4198032283114
  0
ARC
  5
32A
330
1F
100
AcDbEntity
  8
JISSEN
  6
Continuous
 62
     7
370
    35
100
AcDbCircle
 10
283.1561677914099
 20
141.9561844576667
 30
0.0
 40
24.59999999999991
100
AcDbArc
 50
206.5801967716925
 51
213.4198032283117
  0
LINE
  5
32B
330
1F
100
AcDbEntity
  8
JISSEN
  6
Continuous
 62
     7
370
    35
100
AcDbLine
 10
269.6863385866798
 20
124.3295821306132
 30
0.0
 11
264.1561677914294
 21
124.329582130613
 31
0.0
  0
ARC
  5
32C
330
1F
100
AcDbEntity
  8
JISSEN
  6
Continuous
 62
     7
370
    35
100
AcDbCircle
 10
262.1561677914287
 20
125.2656599945632
 30
0.0
 40
2.0
100
AcDbArc
 50
313.4325358228004
 51
0.0000000000252409
  0
LINE
  5
32D
330
1F
100
AcDbEntity
  8
JISSEN
  6
Continuous
 62
     7
370
    35
100
AcDbLine
 10
264.1561677914281
 20
127.522427727916
 30
0.0
 11
264.1561677914292
 21
125.2656599945641
 31
0.0
  0
POLYLINE
  5
32E
330
1F
100
AcDbEntity
  8
JISSEN
  6
Continuous
 62
     7
370
    35
100
AcDb2dPolyline
 66
     1
 10
0.0
 20
0.0
 30
0.0
  0
VERTEX
  5
32F
330
32E
100
AcDbEntity
  8
JISSEN
  6
Continuous
 62
     7
370
    35
100
AcDbVertex
100
AcDb2dVertex
 10
261.1561677914103
 20
130.9489141330122
 30
0.0
  0
VERTEX
  5
330
330
32E
100
AcDbEntity
  8
JISSEN
  6
Continuous
 62
     7
370
    35
100
AcDbVertex
100
AcDb2dVertex
 10
261.1561677914094
 20
152.9634547823194
 30
0.0
  0
SEQEND
  5
331
330
32E
100
AcDbEntity
  8
JISSEN
  6
Continuous
 62
     7
370
    35
  0
LINE
  5
332
330
1F
100
AcDbEntity
  8
JISSEN
  6
Continuous
 62
     7
370
    35
100
AcDbLine
 10
265.8561677914097
 20
168.2544551387555
 30
0.0
 11
265.8561677914097
 21
167.7561844576655
 31
0.0
  0
LINE
  5
333
330
1F
100
AcDbEntity
  8
JISSEN
  6
Continuous
 62
     7
370
    35
100
AcDbLine
 10
264.1561677914094
 20
166.9561844576655
 30
0.0
 11
264.1561677914276
 21
156.3899411874173
 31
0.0
  0
LINE
  5
334
330
1F
100
AcDbEntity
  8
JISSEN
  6
Continuous
 62
     7
370
    35
100
AcDbLine
 10
264.156167791411
 20
166.9561844576656
 30
0.0
 11
264.9561677914128
 21
167.7561844576664
 31
0.0
  0
LINE
  5
335
330
1F
100
AcDbEntity
  8
JISSEN
  6
Continuous
 62
     7
370
    35
100
AcDbLine
 10
271.1561677914131
 20
203.904420202258
 30
0.0
 11
271.1561677914131
 21
204.0544202022581
 31
0.0
  0
LINE
  5
336
330
1F
100
AcDbEntity
  8
JISSEN
  6
Continuous
 62
     7
370
    35
100
AcDbLine
 10
271.1561677914133
 20
201.7560357405618
 30
0.0
 11
271.1561677914133
 21
201.9060357405618
 31
0.0
  0
ARC
  5
337
330
1F
100
AcDbEntity
  8
HATCH
  6
Continuous
 62
     4
370
    25
100
AcDbCircle
 10
264.6561677914103
 20
190.7257754823156
 30
0.0
 40
1.5
100
AcDbArc
 50
179.9999999999998
 51
225.0000000000027
  0
ARC
  5
338
330
1F
100
AcDbEntity
  8
HATCH
  6
Continuous
 62
     4
370
    25
100
AcDbCircle
 10
264.6561677914103
 20
210.7544551387556
 30
0.0
 40
1.5
100
AcDbArc
 50
89.99999999999991
 51
269.9999999999998
  0
LINE
  5
339
330
1F
100
AcDbEntity
  8
HATCH
  6
Continuous
 62
     4
370
    25
100
AcDbLine
 10
263.1561677914087
 20
190.7257754823156
 30
0.0
 11
263.156167791409
 21
210.754455138756
 31
0.0
  0
LINE
  5
33A
330
1F
100
AcDbEntity
  8
HATCH
  6
Continuous
 62
     4
370
    25
100
AcDbLine
 10
300.0061677914102
 20
176.902577308345
 30
0.0
 11
300.0061677914102
 21
192.2544551387481
 31
0.0
  0
LINE
  5
33B
330
1F
100
AcDbEntity
  8
HATCH
  6
Continuous
 62
     4
370
    25
100
AcDbLine
 10
300.0061677914102
 20
176.9025773083454
 30
0.0
 11
300.0061677914102
 21
198.2544551387474
 31
0.0
  0
LINE
  5
33C
330
1F
100
AcDbEntity
  8
HATCH
  6
Continuous
 62
     4
370
    25
100
AcDbLine
 10
266.3061677914102
 20
176.9044551387553
 30
0.0
 11
266.3061677914104
 21
198.2544551387474
 31
0.0
  0
LINE
  5
33D
330
1F
100
AcDbEntity
  8
HATCH
  6
Continuous
 62
     4
370
    25
100
AcDbLine
 10
302.1561677914103
 20
168.2544551387555
 30
0.0
 11
264.1561677914103
 21
168.2544551387555
 31
0.0
  0
LINE
  5
33E
330
1F
100
AcDbEntity
  8
HATCH
  6
Continuous
 62
     4
370
    25
100
AcDbLine
 10
270.0793451634404
 20
174.7544551387556
 30
0.0
 11
296.2329904193805
 21
174.7544551387556
 31
0.0
  0
LINE
  5
33F
330
1F
100
AcDbEntity
  8
HATCH
  6
Continuous
 62
     4
370
    25
100
AcDbLine
 10
271.6002186735038
 20
176.9044551387553
 30
0.0
 11
294.7121169093168
 21
176.9044551387553
 31
0.0
  0
LINE
  5
340
330
1F
100
AcDbEntity
  8
HATCH
  6
Continuous
 62
     4
370
    25
100
AcDbLine
 10
269.3722383822537
 20
174.7544551387556
 30
0.0
 11
269.372238382254
 21
168.2544551387555
 31
0.0
  0
LINE
  5
341
330
1F
100
AcDbEntity
  8
HATCH
  6
Continuous
 62
     4
370
    25
100
AcDbLine
 10
270.0793451634404
 20
174.7544551387556
 30
0.0
 11
270.0793451634404
 21
168.2544551387555
 31
0.0
  0
LINE
  5
342
330
1F
100
AcDbEntity
  8
HATCH
  6
Continuous
 62
     4
370
    25
100
AcDbLine
 10
264.1561677914103
 20
174.7544551387556
 30
0.0
 11
264.1561677914103
 21
168.2544551387555
 31
0.0
  0
LINE
  5
343
330
1F
100
AcDbEntity
  8
HATCH
  6
Continuous
 62
     4
370
    25
100
AcDbLine
 10
266.3061677914102
 20
176.9044551387553
 30
0.0
 11
270.8931118923172
 21
176.9044551387553
 31
0.0
  0
LINE
  5
344
330
1F
100
AcDbEntity
  8
HATCH
  6
Continuous
 62
     4
370
    25
100
AcDbLine
 10
264.1561677914103
 20
174.7544551387556
 30
0.0
 11
269.3722383822537
 21
174.7544551387556
 31
0.0
  0
LINE
  5
345
330
1F
100
AcDbEntity
  8
HATCH
  6
Continuous
 62
     4
370
    25
100
AcDbLine
 10
264.1561677914103
 20
174.7544551387556
 30
0.0
 11
266.3061677914102
 21
176.9044551387553
 31
0.0
  0
LINE
  5
346
330
1F
100
AcDbEntity
  8
HATCH
  6
Continuous
 62
     4
370
    25
100
AcDbLine
 10
270.8931118923172
 20
177.7544551387555
 30
0.0
 11
270.8931118923172
 21
176.9044551387553
 31
0.0
  0
LINE
  5
347
330
1F
100
AcDbEntity
  8
HATCH
  6
Continuous
 62
     4
370
    25
100
AcDbLine
 10
271.6002186735038
 20
177.7544551387555
 30
0.0
 11
271.6002186735038
 21
176.9044551387553
 31
0.0
  0
LINE
  5
348
330
1F
100
AcDbEntity
  8
HATCH
  6
Continuous
 62
     4
370
    25
100
AcDbLine
 10
270.0793451634404
 20
174.7544551387556
 30
0.0
 11
271.6002186735038
 21
176.9044551387553
 31
0.0
  0
LINE
  5
349
330
1F
100
AcDbEntity
  8
HATCH
  6
Continuous
 62
     4
370
    25
100
AcDbLine
 10
269.3722383822537
 20
174.7544551387556
 30
0.0
 11
270.8931118923172
 21
176.9044551387553
 31
0.0
  0
ELLIPSE
  5
34A
330
1F
100
AcDbEntity
  8
HATCH
  6
Continuous
 62
     4
370
    25
100
AcDbEllipse
 10
271.2414185284185
 20
177.7544551387555
 30
0.0
 11
8.077722872162934E-16
 21
0.5
 31
0.0
210
0.0
220
0.0
230
1.0
 40
0.7176002901705942
 41
-1.57079632679489
 42
0.0000000000000062
  0
ELLIPSE
  5
34B
330
1F
100
AcDbEntity
  8
HATCH
  6
Continuous
 62
     4
370
    25
100
AcDbEllipse
 10
271.2414185284185
 20
177.7544551387555
 30
0.0
 11
8.077722872162934E-16
 21
0.5
 31
0.0
210
0.0
220
0.0
230
1.0
 40
0.6966132722027396
 41
0.0
 42
1.570796326794897
  0
LINE
  5
34C
330
1F
100
AcDbEntity
  8
HATCH
  6
Continuous
 62
     4
370
    25
100
AcDbLine
 10
296.2329904193803
 20
174.7544551387556
 30
0.0
 11
294.7121169093168
 21
176.9044551387553
 31
0.0
  0
LINE
  5
34D
330
1F
100
AcDbEntity
  8
HATCH
  6
Continuous
 62
     4
370
    25
100
AcDbLine
 10
296.9400972005669
 20
174.7544551387556
 30
0.0
 11
295.4192236905035
 21
176.9044551387553
 31
0.0
  0
LINE
  5
34E
330
1F
100
AcDbEntity
  8
HATCH
  6
Continuous
 62
     4
370
    25
100
AcDbLine
 10
295.4192236905035
 20
176.9044551387553
 30
0.0
 11
300.0061677914105
 21
176.9044551387553
 31
0.0
  0
LINE
  5
34F
330
1F
100
AcDbEntity
  8
HATCH
  6
Continuous
 62
     4
370
    25
100
AcDbLine
 10
295.4192236905035
 20
177.7544551387555
 30
0.0
 11
295.4192236905035
 21
176.9044551387553
 31
0.0
  0
LINE
  5
350
330
1F
100
AcDbEntity
  8
HATCH
  6
Continuous
 62
     4
370
    25
100
AcDbLine
 10
294.7121169093168
 20
177.7544551387555
 30
0.0
 11
294.7121169093168
 21
176.9044551387553
 31
0.0
  0
ELLIPSE
  5
351
330
1F
100
AcDbEntity
  8
HATCH
  6
Continuous
 62
     4
370
    25
100
AcDbEllipse
 10
295.0709170544021
 20
177.7544551387555
 30
0.0
 11
8.077722872162934E-16
 21
0.5
 31
0.0
210
0.0
220
0.0
230
1.0
 40
0.6966132722027396
 41
-1.570796326794897
 42
0.0
  0
ELLIPSE
  5
352
330
1F
100
AcDbEntity
  8
HATCH
  6
Continuous
 62
     4
370
    25
100
AcDbEllipse
 10
295.0709170544021
 20
177.7544551387555
 30
0.0
 11
8.077722872162934E-16
 21
0.5
 31
0.0
210
0.0
220
0.0
230
1.0
 40
0.7176002901705942
 41
-0.0000000000000062
 42
1.57079632679489
  0
LINE
  5
353
330
1F
100
AcDbEntity
  8
HATCH
  6
Continuous
 62
     4
370
    25
100
AcDbLine
 10
302.1561677914103
 20
174.7544551387556
 30
0.0
 11
302.1561677914103
 21
168.2544551387555
 31
0.0
  0
LINE
  5
354
330
1F
100
AcDbEntity
  8
HATCH
  6
Continuous
 62
     4
370
    25
100
AcDbLine
 10
296.9400972005669
 20
174.7544551387556
 30
0.0
 11
296.9400972005667
 21
168.2544551387555
 31
0.0
  0
LINE
  5
355
330
1F
100
AcDbEntity
  8
HATCH
  6
Continuous
 62
     4
370
    25
100
AcDbLine
 10
296.2329904193803
 20
174.7544551387556
 30
0.0
 11
296.2329904193803
 21
168.2544551387555
 31
0.0
  0
LINE
  5
356
330
1F
100
AcDbEntity
  8
HATCH
  6
Continuous
 62
     4
370
    25
100
AcDbLine
 10
302.1561677914103
 20
174.7544551387556
 30
0.0
 11
300.0061677914105
 21
176.9044551387553
 31
0.0
  0
LINE
  5
357
330
1F
100
AcDbEntity
  8
HATCH
  6
Continuous
 62
     4
370
    25
100
AcDbLine
 10
296.9400972005669
 20
174.7544551387556
 30
0.0
 11
302.1561677914103
 21
174.7544551387556
 31
0.0
  0
ARC
  5
358
330
1F
100
AcDbEntity
  8
HATCH
  6
Continuous
 62
     4
370
    25
100
AcDbCircle
 10
285.6561677914103
 20
193.254455138752
 30
0.0
 40
1.0
100
AcDbArc
 50
179.9999999999998
 51
269.9999999999998
  0
LINE
  5
359
330
1F
100
AcDbEntity
  8
HATCH
  6
Continuous
 62
     4
370
    25
100
AcDbLine
 10
284.7164751706243
 20
198.0887619761325
 30
0.0
 11
286.3610190318548
 21
193.5704148520991
 31
0.0
  0
LINE
  5
35A
330
1F
100
AcDbEntity
  8
HATCH
  6
Continuous
 62
     4
370
    25
100
AcDbLine
 10
301.6561677914103
 20
209.2544551387556
 30
0.0
 11
284.6561677914103
 21
209.2544551387556
 31
0.0
  0
LINE
  5
35B
330
1F
100
AcDbEntity
  8
HATCH
  6
Continuous
 62
     4
370
    25
100
AcDbLine
 10
301.6561677914103
 20
212.2544551387556
 30
0.0
 11
264.6561677914103
 21
212.2544551387556
 31
0.0
  0
LINE
  5
35C
330
1F
100
AcDbEntity
  8
HATCH
  6
Continuous
 62
     4
370
    25
100
AcDbLine
 10
264.6561677914103
 20
209.2544551387556
 30
0.0
 11
281.6561677914103
 21
209.2544551387556
 31
0.0
  0
LINE
  5
35D
330
1F
100
AcDbEntity
  8
HATCH
  6
Continuous
 62
     4
370
    25
100
AcDbLine
 10
280.6561677914106
 20
192.2544551387507
 30
0.0
 11
266.3061677914104
 21
192.254455138747
 31
0.0
  0
LINE
  5
35E
330
1F
100
AcDbEntity
  8
HATCH
  6
Continuous
 62
     4
370
    25
100
AcDbLine
 10
269.2697725344115
 20
198.252725819848
 30
0.0
 11
266.8307478645672
 21
209.2544551387556
 31
0.0
  0
ARC
  5
35F
330
1F
100
AcDbEntity
  8
HATCH
  6
Continuous
 62
     4
370
    25
100
AcDbCircle
 10
268.5824252551836
 20
194.2544551387479
 30
0.0
 40
2.0
100
AcDbArc
 50
183.8851431954809
 51
270.0000000000127
  0
LINE
  5
360
330
1F
100
AcDbEntity
  8
HATCH
  6
Continuous
 62
     4
370
    25
100
AcDbLine
 10
266.3061677914104
 20
186.9544551387559
 30
0.0
 11
266.0132745725969
 21
187.2473483575694
 31
0.0
  0
ARC
  5
361
330
1F
100
AcDbEntity
  8
HATCH
  6
Continuous
 62
     4
370
    25
100
AcDbCircle
 10
265.3061677914104
 20
186.5402415763829
 30
0.0
 40
1.0
100
AcDbArc
 50
0.0
 51
45.00000000000691
  0
LINE
  5
362
330
1F
100
AcDbEntity
  8
HATCH
  6
Continuous
 62
     4
370
    25
100
AcDbLine
 10
266.0132745725969
 20
187.2473483575694
 30
0.0
 11
263.5955076196306
 21
189.6651153105357
 31
0.0
  0
LINE
  5
363
330
1F
100
AcDbEntity
  8
HATCH
  6
Continuous
 62
     4
370
    25
100
AcDbLine
 10
266.3061677914104
 20
198.2544551387474
 30
0.0
 11
266.587021491843
 21
194.1189419613614
 31
0.0
  0
ARC
  5
364
330
1F
100
AcDbEntity
  8
HATCH
  6
Continuous
 62
     4
370
    25
100
AcDbCircle
 10
272.2709005260474
 20
194.2544551387489
 30
0.0
 40
2.0
100
AcDbArc
 50
193.3101069190292
 51
270.0000000000127
  0
LINE
  5
365
330
1F
100
AcDbEntity
  8
HATCH
  6
Continuous
 62
     4
370
    25
100
AcDbLine
 10
270.3246239718687
 20
193.794012335945
 30
0.0
 11
269.2693891536412
 21
198.2544551387482
 31
0.0
  0
LINE
  5
366
330
1F
100
AcDbEntity
  8
HATCH
  6
Continuous
 62
     4
370
    25
100
AcDbLine
 10
284.6561677914083
 20
198.9505853824957
 30
0.0
 11
284.6561677914085
 21
202.757765059468
 31
0.0
  0
LINE
  5
367
330
1F
100
AcDbEntity
  8
HATCH
  6
Continuous
 62
     4
370
    25
100
AcDbLine
 10
281.6561677914033
 20
198.9505853824959
 30
0.0
 11
281.6561677914035
 21
202.7577650594682
 31
0.0
  0
LINE
  5
368
330
1F
100
AcDbEntity
  8
HATCH
  6
Continuous
 62
     4
370
    25
100
AcDbLine
 10
281.6561677914103
 20
209.2544551387556
 30
0.0
 11
281.6561677914103
 21
193.075775482313
 31
0.0
  0
LINE
  5
369
330
1F
100
AcDbEntity
  8
HATCH
  6
Continuous
 62
     4
370
    25
100
AcDbLine
 10
284.6561677914103
 20
209.2544551387556
 30
0.0
 11
284.6561677914103
 21
193.075775482313
 31
0.0
  0
ARC
  5
36A
330
1F
100
AcDbEntity
  8
HATCH
  6
Continuous
 62
     4
370
    25
100
AcDbCircle
 10
278.0719313093932
 20
194.2544551387505
 30
0.0
 40
2.0
100
AcDbArc
 50
270.0000000000127
 51
339.999999999999
  0
ELLIPSE
  5
36B
330
1F
100
AcDbEntity
  8
HATCH
  6
Continuous
 62
     4
370
    25
100
AcDbEllipse
 10
283.1561677914103
 20
193.075775482313
 30
0.0
 11
3.427087571667789E-15
 21
-2.1213203435575
 31
0.0
210
0.0
220
0.0
230
1.0
 40
0.7071067811872618
 41
-1.57079632679489
 42
1.570796326794903
  0
ARC
  5
36C
330
1F
100
AcDbEntity
  8
HATCH
  6
Continuous
 62
     4
370
    25
100
AcDbCircle
 10
280.6561677914103
 20
193.254455138752
 30
0.0
 40
1.0
100
AcDbArc
 50
269.9999999999998
 51
0.0
  0
ARC
  5
36D
330
1F
100
AcDbEntity
  8
HATCH
  6
Continuous
 62
     4
370
    25
100
AcDbCircle
 10
280.6561677914103
 20
198.4307821194582
 30
0.0
 40
1.0
100
AcDbArc
 50
340.0000000000013
 51
0.0
  0
LINE
  5
36E
330
1F
100
AcDbEntity
  8
HATCH
  6
Continuous
 62
     4
370
    25
100
AcDbLine
 10
281.5958604121954
 20
198.0887619761325
 30
0.0
 11
279.951316550965
 21
193.5704148520991
 31
0.0
  0
ARC
  5
36F
330
1F
100
AcDbEntity
  8
HATCH
  6
Continuous
 62
     4
370
    25
100
AcDbCircle
 10
280.6561677914094
 20
198.4307821194582
 30
0.0
 40
1.0
100
AcDbArc
 50
340.0000000000013
 51
0.0
  0
ARC
  5
370
330
1F
100
AcDbEntity
  8
HATCH
  6
Continuous
 62
     4
370
    25
100
AcDbCircle
 10
285.6561677914103
 20
198.4307821194582
 30
0.0
 40
1.0
100
AcDbArc
 50
179.9999999999998
 51
199.999999999998
  0
LINE
  5
371
330
1F
100
AcDbEntity
  8
HATCH
  6
Continuous
 62
     4
370
    25
100
AcDbLine
 10
281.6561677914103
 20
209.2544551387556
 30
0.0
 11
283.1561677914103
 21
210.7544551387556
 31
0.0
  0
LINE
  5
372
330
1F
100
AcDbEntity
  8
HATCH
  6
Continuous
 62
     4
370
    25
100
AcDbLine
 10
284.6561677914103
 20
209.2544551387556
 30
0.0
 11
283.1561677914103
 21
210.7544551387556
 31
0.0
  0
ARC
  5
373
330
1F
100
AcDbEntity
  8
HATCH
  6
Continuous
 62
     4
370
    25
100
AcDbCircle
 10
294.0414350567742
 20
194.2544551387534
 30
0.0
 40
2.0
100
AcDbArc
 50
270.0000000000257
 51
346.6898930809701
  0
LINE
  5
374
330
1F
100
AcDbEntity
  8
HATCH
  6
Continuous
 62
     4
370
    25
100
AcDbLine
 10
295.9877116109531
 20
193.7940123359496
 30
0.0
 11
297.0429464291794
 21
198.2544551387482
 31
0.0
  0
LINE
  5
375
330
1F
100
AcDbEntity
  8
HATCH
  6
Continuous
 62
     4
370
    25
100
AcDbLine
 10
300.0061677914082
 20
192.2544551387557
 30
0.0
 11
285.6561677914106
 21
192.254455138752
 31
0.0
  0
ARC
  5
376
330
1F
100
AcDbEntity
  8
HATCH
  6
Continuous
 62
     4
370
    25
100
AcDbCircle
 10
288.2404042734267
 20
194.2544551387505
 30
0.0
 40
2.0
100
AcDbArc
 50
199.9999999999988
 51
269.9999999999866
  0
LINE
  5
377
330
1F
100
AcDbEntity
  8
HATCH
  6
Continuous
 62
     4
370
    25
100
AcDbLine
 10
303.1561677914103
 20
190.7257754823156
 30
0.0
 11
303.1561677914103
 21
210.754455138756
 31
0.0
  0
LINE
  5
378
330
1F
100
AcDbEntity
  8
HATCH
  6
Continuous
 62
     4
370
    25
100
AcDbLine
 10
297.0425630484092
 20
198.252725819848
 30
0.0
 11
299.4815877182534
 21
209.2544551387556
 31
0.0
  0
LINE
  5
379
330
1F
100
AcDbEntity
  8
HATCH
  6
Continuous
 62
     4
370
    25
100
AcDbLine
 10
300.2990610102236
 20
187.2473483575695
 30
0.0
 11
302.7168279631903
 21
189.6651153105358
 31
0.0
  0
ARC
  5
37A
330
1F
100
AcDbEntity
  8
HATCH
  6
Continuous
 62
     4
370
    25
100
AcDbCircle
 10
297.7299103276362
 20
194.2544551387484
 30
0.0
 40
2.0
100
AcDbArc
 50
269.9999999999866
 51
356.1148568045217
  0
ARC
  5
37B
330
1F
100
AcDbEntity
  8
HATCH
  6
Continuous
 62
     4
370
    25
100
AcDbCircle
 10
301.0061677914102
 20
186.5402415763829
 30
0.0
 40
1.0
100
AcDbArc
 50
134.9999999999931
 51
179.9999999999998
  0
LINE
  5
37C
330
1F
100
AcDbEntity
  8
HATCH
  6
Continuous
 62
     4
370
    25
100
AcDbLine
 10
300.0061677914093
 20
198.254455138748
 30
0.0
 11
299.7253140909768
 21
194.1189419613619
 31
0.0
  0
ARC
  5
37D
330
1F
100
AcDbEntity
  8
HATCH
  6
Continuous
 62
     4
370
    25
100
AcDbCircle
 10
301.6561677914103
 20
190.7257754823156
 30
0.0
 40
1.5
100
AcDbArc
 50
314.9999999999966
 51
0.0
  0
ARC
  5
37E
330
1F
100
AcDbEntity
  8
HATCH
  6
Continuous
 62
     4
370
    25
100
AcDbCircle
 10
301.6561677914103
 20
210.7544551387556
 30
0.0
 40
1.5
100
AcDbArc
 50
269.9999999999998
 51
89.99999999999991
  0
LINE
  5
37F
330
1F
100
AcDbEntity
  8
TEXT
  6
Continuous
 62
     3
370
    25
100
AcDbLine
 10
162.4196364910956
 20
212.2544551387583
 30
0.0
 11
140.7496380800781
 21
212.2544551387584
 31
0.0
  0
LINE
  5
380
330
1F
100
AcDbEntity
  8
TEXT
  6
Continuous
 62
     3
370
    25
100
AcDbLine
 10
159.7837381062325
 20
101.956184457667
 30
0.0
 11
140.7496380800781
 21
101.956184457667
 31
0.0
  0
LINE
  5
381
330
1F
100
AcDbEntity
  8
TEXT
  6
Continuous
 62
     3
370
    25
100
AcDbLine
 10
142.2496380800781
 20
210.0044551387584
 30
0.0
 11
142.2496380800781
 21
104.206184457667
 31
0.0
  0
INSERT
  5
388
330
1F
100
AcDbEntity
  8
0
100
AcDbBlockReference
  2
*G16
 10
0.0
 20
0.0
 30
0.0
  0
INSERT
  5
38F
330
1F
100
AcDbEntity
  8
0
100
AcDbBlockReference
  2
*G17
 10
0.0
 20
0.0
 30
0.0
  0
MTEXT
  5
390
330
1F
100
AcDbEntity
  8
TEXT
  6
Continuous
 62
     3
370
     9
100
AcDbMText
 10
138.4996380800781
 20
157.1053197982129
 30
0.0
 40
4.950000000000002
 41
19.98747156641401
 71
     5
 72
     1
  1
{\fＭＳ Ｐゴシック;\W0.714286;(110.3)}
 11
6.123233995736766E-17
 21
1.0
 31
0.0
 73
     1
 44
1.0
1001
ACAD
1000
ACAD_MTEXT_DEFINED_HEIGHT_BEGIN
1070
    46
1040
4.950000000000002
1000
ACAD_MTEXT_DEFINED_HEIGHT_END
  0
MTEXT
  5
391
330
1F
100
AcDbEntity
  8
SUNPOU
  6
Continuous
 62
     3
370
     9
100
AcDbMText
 10
298.6860253443263
 20
9.911769908816709
 30
0.0
 40
4.949999999999999
 41
32.222957174892
 71
     5
 72
     1
  1
{\fＭＳ Ｐゴシック;\W0.714286;尺度 1/1.5}
 73
     1
 44
1.0
1001
ACAD
1000
ACAD_MTEXT_DEFINED_HEIGHT_BEGIN
1070
    46
1040
4.949999999999999
1000
ACAD_MTEXT_DEFINED_HEIGHT_END
  0
MTEXT
  5
392
330
1F
100
AcDbEntity
  8
0
  6
Continuous
 62
     6
370
     9
100
AcDbMText
 10
182.4318348093545
 20
150.8711526654459
 30
0.0
 40
7.5
 41
17.3671140897
 71
     5
 72
     1
  1
{\fＭＳ Ｐゴシック;\W0.714286;25A}
 73
     1
 44
1.0
1001
ACAD
1000
ACAD_MTEXT_DEFINED_HEIGHT_BEGIN
1070
    46
1040
7.5
1000
ACAD_MTEXT_DEFINED_HEIGHT_END
  0
LINE
  5
393
330
1F
100
AcDbEntity
  8
JISSEN
  6
Continuous
 62
     7
370
    35
100
AcDbLine
 10
191.3705042068588
 20
206.2060357405621
 30
0.0
 11
194.4196364910948
 21
206.2060357405621
 31
0.0
  0
LINE
  5
394
330
1F
100
AcDbEntity
  8
JISSEN
  6
Continuous
 62
     7
370
    35
100
AcDbLine
 10
194.4196364910948
 20
206.2060357405621
 30
0.0
 11
194.4196364910948
 21
206.0560357405621
 31
0.0
  0
LINE
  5
395
330
1F
100
AcDbEntity
  8
JISSEN
  6
Continuous
 62
     7
370
    35
100
AcDbLine
 10
170.4196364910948
 20
206.2060357405622
 30
0.0
 11
173.4687687753307
 21
206.2060357405622
 31
0.0
  0
LINE
  5
396
330
1F
100
AcDbEntity
  8
JISSEN
  6
Continuous
 62
     7
370
    35
100
AcDbLine
 10
170.4196364910948
 20
206.2060357405621
 30
0.0
 11
170.4196364910948
 21
206.0560357405621
 31
0.0
  0
LINE
  5
397
330
1F
100
AcDbEntity
  8
JISSEN
  6
Continuous
 62
     7
370
    35
100
AcDbLine
 10
176.1472721765343
 20
204.0544202022584
 30
0.0
 11
173.4196367972565
 21
206.0560357405621
 31
0.0
  0
LINE
  5
398
330
1F
100
AcDbEntity
  8
JISSEN
  6
Continuous
 62
     7
370
    35
100
AcDbLine
 10
188.692001111817
 20
204.0544202022584
 30
0.0
 11
191.4196364910948
 21
206.0560357405621
 31
0.0
  0
LINE
  5
399
330
1F
100
AcDbEntity
  8
JISSEN
  6
Continuous
 62
     7
370
    35
100
AcDbLine
 10
191.3705042068588
 20
206.2060357405621
 30
0.0
 11
183.9196364910956
 21
206.2060357405621
 31
0.0
  0
LINE
  5
39A
330
1F
100
AcDbEntity
  8
JISSEN
  6
Continuous
 62
     7
370
    35
100
AcDbLine
 10
180.9196364910956
 20
206.2060357405622
 30
0.0
 11
173.4687687753307
 21
206.2060357405622
 31
0.0
  0
LINE
  5
39B
330
1F
100
AcDbEntity
  8
JISSEN
  6
Continuous
 62
     7
370
    35
100
AcDbLine
 10
194.4196364910948
 20
206.0560357405621
 30
0.0
 11
183.9196364910956
 21
206.0560357405622
 31
0.0
  0
LINE
  5
39C
330
1F
100
AcDbEntity
  8
JISSEN
  6
Continuous
 62
     7
370
    35
100
AcDbLine
 10
180.9196364910956
 20
206.0560357405622
 30
0.0
 11
170.4196364910948
 21
206.0560357405622
 31
0.0
  0
LINE
  5
39D
330
1F
100
AcDbEntity
  8
JISSEN
  6
Continuous
 62
     7
370
    35
100
AcDbLine
 10
292.1070355071738
 20
206.2060357405621
 30
0.0
 11
295.1561677914098
 21
206.2060357405621
 31
0.0
  0
LINE
  5
39E
330
1F
100
AcDbEntity
  8
JISSEN
  6
Continuous
 62
     7
370
    35
100
AcDbLine
 10
295.1561677914098
 20
206.2060357405621
 30
0.0
 11
295.1561677914098
 21
206.0560357405621
 31
0.0
  0
LINE
  5
39F
330
1F
100
AcDbEntity
  8
JISSEN
  6
Continuous
 62
     7
370
    35
100
AcDbLine
 10
271.1561677914098
 20
206.2060357405622
 30
0.0
 11
274.2053000756457
 21
206.2060357405622
 31
0.0
  0
LINE
  5
3A0
330
1F
100
AcDbEntity
  8
JISSEN
  6
Continuous
 62
     7
370
    35
100
AcDbLine
 10
271.1561677914098
 20
206.2060357405621
 30
0.0
 11
271.1561677914098
 21
206.0560357405621
 31
0.0
  0
LINE
  5
3A1
330
1F
100
AcDbEntity
  8
JISSEN
  6
Continuous
 62
     7
370
    35
100
AcDbLine
 10
276.8838034768493
 20
204.0544202022584
 30
0.0
 11
274.1561680975715
 21
206.0560357405621
 31
0.0
  0
LINE
  5
3A2
330
1F
100
AcDbEntity
  8
JISSEN
  6
Continuous
 62
     7
370
    35
100
AcDbLine
 10
289.428532412132
 20
204.0544202022584
 30
0.0
 11
292.1561677914098
 21
206.0560357405621
 31
0.0
  0
LINE
  5
3A3
330
1F
100
AcDbEntity
  8
JISSEN
  6
Continuous
 62
     7
370
    35
100
AcDbLine
 10
292.1070355071738
 20
206.2060357405621
 30
0.0
 11
284.6561677914106
 21
206.2060357405621
 31
0.0
  0
LINE
  5
3A4
330
1F
100
AcDbEntity
  8
JISSEN
  6
Continuous
 62
     7
370
    35
100
AcDbLine
 10
281.6561677914106
 20
206.2060357405622
 30
0.0
 11
274.2053000756457
 21
206.2060357405622
 31
0.0
  0
LINE
  5
3A5
330
1F
100
AcDbEntity
  8
JISSEN
  6
Continuous
 62
     7
370
    35
100
AcDbLine
 10
295.1561677914098
 20
206.0560357405621
 30
0.0
 11
284.6561677914106
 21
206.0560357405622
 31
0.0
  0
LINE
  5
3A6
330
1F
100
AcDbEntity
  8
JISSEN
  6
Continuous
 62
     7
370
    35
100
AcDbLine
 10
281.6561677914106
 20
206.0560357405622
 30
0.0
 11
271.1561677914098
 21
206.0560357405622
 31
0.0
  0
MTEXT
  5
3A7
330
1F
100
AcDbEntity
  8
SUNPOU
  6
Continuous
 62
     3
370
     9
100
AcDbMText
 10
313.2934514433136
 20
19.78851134372803
 30
0.0
 40
4.949999999999999
 41
75.391075870704
 71
     5
 72
     1
  1
{\fＭＳ Ｐゴシック;\W0.714286;感熱開放継手  NKTⅢ96}
 73
     1
 44
1.0
1001
ACAD
1000
ACAD_MTEXT_DEFINED_HEIGHT_BEGIN
1070
    46
1040
4.949999999999999
1000
ACAD_MTEXT_DEFINED_HEIGHT_END
  0
VIEWPORT
  5
6A
102
{ACAD_XDICTIONARY
360
3AF
102
}
330
1B
100
AcDbEntity
 67
     1
  8
0
100
AcDbViewport
 10
222.75
 20
157.5
 30
0.0
 40
445.5
 41
315.0
 68
     1
 69
     1
 12
222.75
 22
157.5
 13
0.0
 23
0.0
 14
0.5
 24
0.5
 15
0.5
 25
0.5
 16
0.0
 26
0.0
 36
1.0
 17
0.0
 27
0.0
 37
0.0
 42
50.0
 43
0.0
 44
0.0
 45
9.0
 50
0.0
 51
0.0
 72
   100
 90
   557152
  1

281
     0
 71
     1
 74
     0
110
0.0
120
0.0
130
0.0
111
1.0
121
0.0
131
0.0
112
0.0
122
1.0
132
0.0
 79
     0
146
0.0
  0
ENDSEC
  0
SECTION
  2
OBJECTS
  0
DICTIONARY
  5
C
330
0
100
AcDbDictionary
281
     1
  3
ACAD_GROUP
350
D
  3
ACAD_LAYOUT
350
1A
  3
ACAD_MATERIAL
350
43
  3
ACAD_MLEADERSTYLE
350
3AA
  3
ACAD_MLINESTYLE
350
17
  3
ACAD_PLOTSETTINGS
350
19
  3
ACAD_PLOTSTYLENAME
350
E
  3
ACAD_SCALELIST
350
47
  3
ACAD_VISUALSTYLE
350
2A
  3
AcDbVariableDictionary
350
3A8
  0
DICTIONARY
  5
3B1
330
8
100
AcDbDictionary
280
     1
281
     1
  3
ACAD_XREC_ROUNDTRIP
360
3B2
  0
DICTIONARY
  5
3AF
330
6A
100
AcDbDictionary
280
     1
281
     1
  3
ACAD_XREC_ROUNDTRIP
360
3B0
  0
DICTIONARY
  5
D
102
{ACAD_REACTORS
330
C
102
}
330
C
100
AcDbDictionary
281
     1
  0
DICTIONARY
  5
1A
102
{ACAD_REACTORS
330
C
102
}
330
C
100
AcDbDictionary
281
     1
  3
Layout1
350
1E
  3
Layout2
350
26
  3
Model
350
22
  0
DICTIONARY
  5
43
102
{ACAD_REACTORS
330
C
102
}
330
C
100
AcDbDictionary
281
     1
  3
ByBlock
350
45
  3
ByLayer
350
44
  3
Global
350
46
  0
DICTIONARY
  5
3AA
102
{ACAD_REACTORS
330
C
102
}
330
C
100
AcDbDictionary
281
     1
  0
DICTIONARY
  5
17
102
{ACAD_REACTORS
330
C
102
}
330
C
100
AcDbDictionary
281
     1
  3
Standard
350
18
  0
DICTIONARY
  5
19
102
{ACAD_REACTORS
330
C
102
}
330
C
100
AcDbDictionary
281
     1
  0
ACDBDICTIONARYWDFLT
  5
E
102
{ACAD_REACTORS
330
C
102
}
330
C
100
AcDbDictionary
281
     1
  3
Normal
350
F
100
AcDbDictionaryWithDefault
340
F
  0
DICTIONARY
  5
47
102
{ACAD_REACTORS
330
C
102
}
330
C
100
AcDbDictionary
281
     1
  3
A0
350
48
  3
A1
350
49
  3
A2
350
4A
  3
A3
350
4B
  3
A4
350
4C
  3
A5
350
4D
  3
A6
350
4E
  3
A7
350
4F
  3
A8
350
50
  3
A9
350
51
  3
B0
350
52
  3
B1
350
53
  3
B2
350
54
  3
B3
350
55
  3
B4
350
56
  3
B5
350
57
  3
B6
350
58
  3
B7
350
59
  3
B8
350
5A
  3
B9
350
5B
  3
C0
350
5C
  3
C1
350
5D
  3
C2
350
5E
  3
C3
350
5F
  3
C4
350
60
  3
C5
350
61
  3
C6
350
62
  3
C7
350
63
  3
C8
350
64
  3
C9
350
65
  3
D0
350
66
  3
D1
350
67
  3
D2
350
68
  0
DICTIONARY
  5
2A
102
{ACAD_REACTORS
330
C
102
}
330
C
100
AcDbDictionary
281
     1
  3
2dWireframe
350
2F
  3
Basic
350
32
  3
Brighten
350
36
  3
ColorChange
350
3A
  3
Conceptual
350
34
  3
Dim
350
35
  3
EdgeColorOff
350
3D
  3
Facepattern
350
39
  3
Flat
350
2B
  3
FlatWithEdges
350
2C
  3
Gouraud
350
2D
  3
GouraudWithEdges
350
2E
  3
Hidden
350
31
  3
JitterOff
350
3B
  3
Linepattern
350
38
  3
OverhangOff
350
3C
  3
Realistic
350
33
  3
Shaded
350
42
  3
Shaded with edges
350
41
  3
Shades of Gray
350
3E
  3
Sketchy
350
3F
  3
Thicken
350
37
  3
Wireframe
350
30
  3
X-Ray
350
40
  0
DICTIONARY
  5
3A8
102
{ACAD_REACTORS
330
C
102
}
330
C
100
AcDbDictionary
281
     1
  3
CANNOSCALE
350
3B3
  3
DIMASSOC
350
3AB
  3
HIDETEXT
350
3AE
  3
MSLTSCALE
350
3B4
  0
XRECORD
  5
3B2
102
{ACAD_REACTORS
330
3B1
102
}
330
3B1
100
AcDbXrecord
280
     1
102
VTR_0.000_0.000_1.000_1.000_GRIDDISPLAY
 70
     3
102
VTR_0.000_0.000_1.000_1.000_GRIDMAJOR
 70
     5
102
VTR_0.000_0.000_1.000_1.000_DEFAULTLIGHTING
280
     1
102
VTR_0.000_0.000_1.000_1.000_DEFAULTLIGHTINGTYPE
 70
     1
102
VTR_0.000_0.000_1.000_1.000_BRIGHTNESS
141
0.0
102
VTR_0.000_0.000_1.000_1.000_CONTRAST
142
0.0
  0
XRECORD
  5
3B0
102
{ACAD_REACTORS
330
3AF
102
}
330
3AF
100
AcDbXrecord
280
     1
102
GRIDDISPLAY
 70
     2
102
GRIDMAJOR
 70
     5
102
DEFAULTLIGHTING
280
     1
102
DEFAULTLIGHTINGTYPE
 70
     1
102
BRIGHTNESS
141
0.0
102
CONTRAST
142
0.0
  0
LAYOUT
  5
1E
102
{ACAD_REACTORS
330
1A
102
}
330
1A
100
AcDbPlotSettings
  1

  2
none_device
  4

  6

 40
0.0
 41
0.0
 42
0.0
 43
0.0
 44
0.0
 45
0.0
 46
0.0
 47
0.0
 48
0.0
 49
0.0
140
0.0
141
0.0
142
1.0
143
1.0
 70
   688
 72
     0
 73
     0
 74
     5
  7

 75
    16
147
1.0
148
0.0
149
0.0
100
AcDbLayout
  1
Layout1
 70
     1
 71
     1
 10
0.0
 20
0.0
 11
297.0
 21
210.0
 12
0.0
 22
0.0
 32
0.0
 14
0.0
 24
0.0
 34
0.0
 15
297.0
 25
210.0
 35
0.0
146
0.0
 13
0.0
 23
0.0
 33
0.0
 16
1.0
 26
0.0
 36
0.0
 17
0.0
 27
1.0
 37
0.0
 76
     0
330
1B
331
6A
  0
LAYOUT
  5
26
102
{ACAD_REACTORS
330
1A
102
}
330
1A
100
AcDbPlotSettings
  1

  2
none_device
  4

  6

 40
0.0
 41
0.0
 42
0.0
 43
0.0
 44
0.0
 45
0.0
 46
0.0
 47
0.0
 48
0.0
 49
0.0
140
0.0
141
0.0
142
1.0
143
1.0
 70
   688
 72
     0
 73
     0
 74
     5
  7

 75
    16
147
1.0
148
0.0
149
0.0
100
AcDbLayout
  1
Layout2
 70
     1
 71
     2
 10
0.0
 20
0.0
 11
0.0
 21
0.0
 12
0.0
 22
0.0
 32
0.0
 14
0.0
 24
0.0
 34
0.0
 15
0.0
 25
0.0
 35
0.0
146
0.0
 13
0.0
 23
0.0
 33
0.0
 16
1.0
 26
0.0
 36
0.0
 17
0.0
 27
1.0
 37
0.0
 76
     0
330
23
  0
LAYOUT
  5
22
102
{ACAD_REACTORS
330
1A
102
}
330
1A
100
AcDbPlotSettings
  1

  2
none_device
  4
Letter_(8.50_x_11.00_Inches)
  6

 40
6.35
 41
6.35
 42
6.35000508
 43
6.35000508
 44
215.9
 45
279.4
 46
0.0
 47
0.0
 48
0.0
 49
0.0
140
0.0
141
0.0
142
1.0
143
1.0
 70
  1712
 72
     0
 73
     0
 74
     0
  7

 75
     0
147
1.0
148
0.0
149
0.0
100
AcDbLayout
  1
Model
 70
     1
 71
     0
 10
0.0
 20
0.0
 11
297.0
 21
210.0
 12
0.0
 22
0.0
 32
0.0
 14
86.9977116767327
 24
0.0124959948152537
 34
0.0
 15
358.4977105907326
 25
409.5124959948156
 35
0.0
146
0.0
 13
0.0
 23
0.0
 33
0.0
 16
1.0
 26
0.0
 36
0.0
 17
0.0
 27
1.0
 37
0.0
 76
     0
330
1F
331
29
  0
MATERIAL
  5
45
102
{ACAD_REACTORS
330
43
102
}
102
{ACAD_XDICTIONARY
360
3E7
102
}
330
43
100
AcDbMaterial
  1
ByBlock
  0
MATERIAL
  5
44
102
{ACAD_REACTORS
330
43
102
}
102
{ACAD_XDICTIONARY
360
3E5
102
}
330
43
100
AcDbMaterial
  1
ByLayer
  0
MATERIAL
  5
46
102
{ACAD_REACTORS
330
43
102
}
102
{ACAD_XDICTIONARY
360
3E9
102
}
330
43
100
AcDbMaterial
  1
Global
  0
MLINESTYLE
  5
18
102
{ACAD_REACTORS
330
17
102
}
330
17
100
AcDbMlineStyle
  2
Standard
 70
     0
  3

 62
   256
 51
90.0
 52
90.0
 71
     2
 49
0.5
 62
   256
  6
BYLAYER
 49
-0.5
 62
   256
  6
BYLAYER
  0
ACDBPLACEHOLDER
  5
F
102
{ACAD_REACTORS
330
E
102
}
330
E
  0
SCALE
  5
48
102
{ACAD_REACTORS
330
47
102
}
330
47
100
AcDbScale
 70
     0
300
1:1
140
1.0
141
1.0
290
     1
  0
SCALE
  5
49
102
{ACAD_REACTORS
330
47
102
}
330
47
100
AcDbScale
 70
     0
300
1:2
140
1.0
141
2.0
290
     0
  0
SCALE
  5
4A
102
{ACAD_REACTORS
330
47
102
}
330
47
100
AcDbScale
 70
     0
300
1:4
140
1.0
141
4.0
290
     0
  0
SCALE
  5
4B
102
{ACAD_REACTORS
330
47
102
}
330
47
100
AcDbScale
 70
     0
300
1:5
140
1.0
141
5.0
290
     0
  0
SCALE
  5
4C
102
{ACAD_REACTORS
330
47
102
}
330
47
100
AcDbScale
 70
     0
300
1:8
140
1.0
141
8.0
290
     0
  0
SCALE
  5
4D
102
{ACAD_REACTORS
330
47
102
}
330
47
100
AcDbScale
 70
     0
300
1:10
140
1.0
141
10.0
290
     0
  0
SCALE
  5
4E
102
{ACAD_REACTORS
330
47
102
}
330
47
100
AcDbScale
 70
     0
300
1:16
140
1.0
141
16.0
290
     0
  0
SCALE
  5
4F
102
{ACAD_REACTORS
330
47
102
}
330
47
100
AcDbScale
 70
     0
300
1:20
140
1.0
141
20.0
290
     0
  0
SCALE
  5
50
102
{ACAD_REACTORS
330
47
102
}
330
47
100
AcDbScale
 70
     0
300
1:30
140
1.0
141
30.0
290
     0
  0
SCALE
  5
51
102
{ACAD_REACTORS
330
47
102
}
330
47
100
AcDbScale
 70
     0
300
1:40
140
1.0
141
40.0
290
     0
  0
SCALE
  5
52
102
{ACAD_REACTORS
330
47
102
}
330
47
100
AcDbScale
 70
     0
300
1:50
140
1.0
141
50.0
290
     0
  0
SCALE
  5
53
102
{ACAD_REACTORS
330
47
102
}
330
47
100
AcDbScale
 70
     0
300
1:100
140
1.0
141
100.0
290
     0
  0
SCALE
  5
54
102
{ACAD_REACTORS
330
47
102
}
330
47
100
AcDbScale
 70
     0
300
2:1
140
2.0
141
1.0
290
     0
  0
SCALE
  5
55
102
{ACAD_REACTORS
330
47
102
}
330
47
100
AcDbScale
 70
     0
300
4:1
140
4.0
141
1.0
290
     0
  0
SCALE
  5
56
102
{ACAD_REACTORS
330
47
102
}
330
47
100
AcDbScale
 70
     0
300
8:1
140
8.0
141
1.0
290
     0
  0
SCALE
  5
57
102
{ACAD_REACTORS
330
47
102
}
330
47
100
AcDbScale
 70
     0
300
10:1
140
10.0
141
1.0
290
     0
  0
SCALE
  5
58
102
{ACAD_REACTORS
330
47
102
}
330
47
100
AcDbScale
 70
     0
300
100:1
140
100.0
141
1.0
290
     0
  0
SCALE
  5
59
102
{ACAD_REACTORS
330
47
102
}
330
47
100
AcDbScale
 70
     0
300
1/128" = 1'-0"
140
0.0078125
141
12.0
290
     0
  0
SCALE
  5
5A
102
{ACAD_REACTORS
330
47
102
}
330
47
100
AcDbScale
 70
     0
300
1/64" = 1'-0"
140
0.015625
141
12.0
290
     0
  0
SCALE
  5
5B
102
{ACAD_REACTORS
330
47
102
}
330
47
100
AcDbScale
 70
     0
300
1/32" = 1'-0"
140
0.03125
141
12.0
290
     0
  0
SCALE
  5
5C
102
{ACAD_REACTORS
330
47
102
}
330
47
100
AcDbScale
 70
     0
300
1/16" = 1'-0"
140
0.0625
141
12.0
290
     0
  0
SCALE
  5
5D
102
{ACAD_REACTORS
330
47
102
}
330
47
100
AcDbScale
 70
     0
300
3/32" = 1'-0"
140
0.09375
141
12.0
290
     0
  0
SCALE
  5
5E
102
{ACAD_REACTORS
330
47
102
}
330
47
100
AcDbScale
 70
     0
300
1/8" = 1'-0"
140
0.125
141
12.0
290
     0
  0
SCALE
  5
5F
102
{ACAD_REACTORS
330
47
102
}
330
47
100
AcDbScale
 70
     0
300
3/16" = 1'-0"
140
0.1875
141
12.0
290
     0
  0
SCALE
  5
60
102
{ACAD_REACTORS
330
47
102
}
330
47
100
AcDbScale
 70
     0
300
1/4" = 1'-0"
140
0.25
141
12.0
290
     0
  0
SCALE
  5
61
102
{ACAD_REACTORS
330
47
102
}
330
47
100
AcDbScale
 70
     0
300
3/8" = 1'-0"
140
0.375
141
12.0
290
     0
  0
SCALE
  5
62
102
{ACAD_REACTORS
330
47
102
}
330
47
100
AcDbScale
 70
     0
300
1/2" = 1'-0"
140
0.5
141
12.0
290
     0
  0
SCALE
  5
63
102
{ACAD_REACTORS
330
47
102
}
330
47
100
AcDbScale
 70
     0
300
3/4" = 1'-0"
140
0.75
141
12.0
290
     0
  0
SCALE
  5
64
102
{ACAD_REACTORS
330
47
102
}
330
47
100
AcDbScale
 70
     0
300
1" = 1'-0"
140
1.0
141
12.0
290
     0
  0
SCALE
  5
65
102
{ACAD_REACTORS
330
47
102
}
330
47
100
AcDbScale
 70
     0
300
1-1/2" = 1'-0"
140
1.5
141
12.0
290
     0
  0
SCALE
  5
66
102
{ACAD_REACTORS
330
47
102
}
330
47
100
AcDbScale
 70
     0
300
3" = 1'-0"
140
3.0
141
12.0
290
     0
  0
SCALE
  5
67
102
{ACAD_REACTORS
330
47
102
}
330
47
100
AcDbScale
 70
     0
300
6" = 1'-0"
140
6.0
141
12.0
290
     0
  0
SCALE
  5
68
102
{ACAD_REACTORS
330
47
102
}
330
47
100
AcDbScale
 70
     0
300
1'-0" = 1'-0"
140
12.0
141
12.0
290
     0
  0
VISUALSTYLE
  5
2F
102
{ACAD_REACTORS
330
2A
102
}
102
{ACAD_XDICTIONARY
360
3BD
102
}
330
2A
100
AcDbVisualStyle
  2
2dWireframe
 70
     4
 71
     0
 72
     2
 73
     0
 90
        0
 40
0.6
 41
30.0
 62
     5
 63
     7
 74
     1
 91
        4
 64
     7
 65
   257
 75
     1
175
     1
 42
1.0
 92
        0
 66
   257
 43
1.0
 76
     1
 77
     6
 78
     2
 67
     7
 79
     5
170
     0
171
     0
290
     0
174
     0
 93
        1
 44
0.0
173
     0
291
     0
 45
0.0
1001
ACAD
1000
AcDbSavedByObjectVersion
1070
     0
  0
VISUALSTYLE
  5
32
102
{ACAD_REACTORS
330
2A
102
}
102
{ACAD_XDICTIONARY
360
3C3
102
}
330
2A
100
AcDbVisualStyle
  2
Basic
 70
     7
 71
     1
 72
     0
 73
     1
 90
        0
 40
0.6
 41
30.0
 62
     5
 63
     7
 74
     0
 91
        4
 64
     7
 65
   257
 75
     1
175
     1
 42
1.0
 92
        8
 66
     7
 43
1.0
 76
     1
 77
     6
 78
     2
 67
     7
 79
     5
170
     0
171
     0
290
     0
174
     0
 93
        1
 44
0.0
173
     0
291
     1
 45
0.0
1001
ACAD
1000
AcDbSavedByObjectVersion
1070
     0
  0
VISUALSTYLE
  5
36
102
{ACAD_REACTORS
330
2A
102
}
102
{ACAD_XDICTIONARY
360
3CB
102
}
330
2A
100
AcDbVisualStyle
  2
Brighten
 70
    12
 71
     2
 72
     2
 73
     0
 90
        0
 40
0.6
 41
30.0
 62
     5
 63
     7
 74
     1
 91
        4
 64
     7
 65
   257
 75
     1
175
     1
 42
1.0
 92
        8
 66
     7
 43
1.0
 76
     1
 77
     6
 78
     2
 67
     7
 79
     5
170
     0
171
     0
290
     0
174
     0
 93
        1
 44
50.0
173
     0
291
     1
 45
0.0
1001
ACAD
1000
AcDbSavedByObjectVersion
1070
     0
  0
VISUALSTYLE
  5
3A
102
{ACAD_REACTORS
330
2A
102
}
102
{ACAD_XDICTIONARY
360
3D3
102
}
330
2A
100
AcDbVisualStyle
  2
ColorChange
 70
    16
 71
     2
 72
     2
 73
     3
 90
        0
 40
0.6
 41
30.0
 62
     5
 63
     8
 74
     1
 91
        4
 64
     7
 65
   257
 75
     1
175
     1
 42
1.0
 92
        8
 66
     8
 43
1.0
 76
     1
 77
     6
 78
     2
 67
     7
 79
     5
170
     0
171
     0
290
     0
174
     0
 93
        1
 44
0.0
173
     0
291
     1
 45
0.0
1001
ACAD
1000
AcDbSavedByObjectVersion
1070
     0
  0
VISUALSTYLE
  5
34
102
{ACAD_REACTORS
330
2A
102
}
102
{ACAD_XDICTIONARY
360
3C7
102
}
330
2A
100
AcDbVisualStyle
  2
Conceptual
 70
     9
 71
     3
 72
     2
 73
     0
 90
        0
 40
0.6
 41
30.0
 62
     5
 63
     7
 74
     2
 91
        2
 64
     7
 65
   257
 75
     1
175
     1
 42
179.0
 92
        8
 66
     7
 43
1.0
 76
     1
 77
     6
 78
     2
 67
     7
 79
     3
170
     0
171
     0
290
     0
174
     0
 93
        1
 44
0.0
173
     0
291
     0
 45
0.0
1001
ACAD
1000
AcDbSavedByObjectVersion
1070
     0
  0
VISUALSTYLE
  5
35
102
{ACAD_REACTORS
330
2A
102
}
102
{ACAD_XDICTIONARY
360
3C9
102
}
330
2A
100
AcDbVisualStyle
  2
Dim
 70
    11
 71
     2
 72
     2
 73
     0
 90
        0
 40
0.6
 41
30.0
 62
     5
 63
     7
 74
     1
 91
        4
 64
     7
 65
   257
 75
     1
175
     1
 42
1.0
 92
        8
 66
     7
 43
1.0
 76
     1
 77
     6
 78
     2
 67
     7
 79
     5
170
     0
171
     0
290
     0
174
     0
 93
        1
 44
-50.0
173
     0
291
     1
 45
0.0
1001
ACAD
1000
AcDbSavedByObjectVersion
1070
     0
  0
VISUALSTYLE
  5
3D
102
{ACAD_REACTORS
330
2A
102
}
102
{ACAD_XDICTIONARY
360
3D9
102
}
330
2A
100
AcDbVisualStyle
  2
EdgeColorOff
 70
    22
 71
     2
 72
     2
 73
     0
 90
        0
 40
0.6
 41
30.0
 62
     5
 63
     7
 74
     1
 91
        4
 64
     7
 65
   257
 75
     1
175
     1
 42
1.0
 92
        8
 66
     7
 43
1.0
 76
     1
 77
     6
 78
     2
 67
     7
 79
     5
170
     0
171
     0
290
     0
174
     0
 93
        1
 44
0.0
173
     0
291
     1
 45
0.0
1001
ACAD
1000
AcDbSavedByObjectVersion
1070
     0
  0
VISUALSTYLE
  5
39
102
{ACAD_REACTORS
330
2A
102
}
102
{ACAD_XDICTIONARY
360
3D1
102
}
330
2A
100
AcDbVisualStyle
  2
Facepattern
 70
    15
 71
     2
 72
     2
 73
     0
 90
        0
 40
0.6
 41
30.0
 62
     5
 63
     7
 74
     1
 91
        4
 64
     7
 65
   257
 75
     1
175
     1
 42
1.0
 92
        8
 66
     7
 43
1.0
 76
     1
 77
     6
 78
     2
 67
     7
 79
     5
170
     0
171
     0
290
     0
174
     0
 93
        1
 44
0.0
173
     0
291
     1
 45
0.0
1001
ACAD
1000
AcDbSavedByObjectVersion
1070
     0
  0
VISUALSTYLE
  5
2B
102
{ACAD_REACTORS
330
2A
102
}
102
{ACAD_XDICTIONARY
360
3B5
102
}
330
2A
100
AcDbVisualStyle
  2
Flat
 70
     0
 71
     2
 72
     1
 73
     1
 90
        2
 40
0.6
 41
30.0
 62
     5
 63
     7
 74
     0
 91
        0
 64
     7
 65
   257
 75
     1
175
     1
 42
1.0
 92
        8
 66
     7
 43
1.0
 76
     1
 77
     6
 78
     2
 67
     7
 79
     5
170
     0
171
     0
290
     0
174
     0
 93
       13
 44
0.0
173
     0
291
     1
 45
0.0
1001
ACAD
1000
AcDbSavedByObjectVersion
1070
     0
  0
VISUALSTYLE
  5
2C
102
{ACAD_REACTORS
330
2A
102
}
102
{ACAD_XDICTIONARY
360
3B7
102
}
330
2A
100
AcDbVisualStyle
  2
FlatWithEdges
 70
     1
 71
     2
 72
     1
 73
     1
 90
        2
 40
0.6
 41
30.0
 62
     5
 63
     7
 74
     1
 91
        0
 64
     7
 65
   257
 75
     1
175
     1
 42
1.0
 92
        0
 66
   257
 43
1.0
 76
     1
 77
     6
 78
     2
 67
     7
 79
     5
170
     0
171
     0
290
     0
174
     0
 93
       13
 44
0.0
173
     0
291
     1
 45
0.0
1001
ACAD
1000
AcDbSavedByObjectVersion
1070
     0
  0
VISUALSTYLE
  5
2D
102
{ACAD_REACTORS
330
2A
102
}
102
{ACAD_XDICTIONARY
360
3B9
102
}
330
2A
100
AcDbVisualStyle
  2
Gouraud
 70
     2
 71
     2
 72
     2
 73
     1
 90
        2
 40
0.6
 41
30.0
 62
     5
 63
     7
 74
     0
 91
        0
 64
     7
 65
   257
 75
     1
175
     1
 42
1.0
 92
        0
 66
     7
 43
1.0
 76
     1
 77
     6
 78
     2
 67
     7
 79
     5
170
     0
171
     0
290
     0
174
     0
 93
       13
 44
0.0
173
     0
291
     1
 45
0.0
1001
ACAD
1000
AcDbSavedByObjectVersion
1070
     0
  0
VISUALSTYLE
  5
2E
102
{ACAD_REACTORS
330
2A
102
}
102
{ACAD_XDICTIONARY
360
3BB
102
}
330
2A
100
AcDbVisualStyle
  2
GouraudWithEdges
 70
     3
 71
     2
 72
     2
 73
     1
 90
        2
 40
0.6
 41
30.0
 62
     5
 63
     7
 74
     1
 91
        0
 64
     7
 65
   257
 75
     1
175
     1
 42
1.0
 92
        0
 66
   257
 43
1.0
 76
     1
 77
     6
 78
     2
 67
     7
 79
     5
170
     0
171
     0
290
     0
174
     0
 93
       13
 44
0.0
173
     0
291
     1
 45
0.0
1001
ACAD
1000
AcDbSavedByObjectVersion
1070
     0
  0
VISUALSTYLE
  5
31
102
{ACAD_REACTORS
330
2A
102
}
102
{ACAD_XDICTIONARY
360
3C1
102
}
330
2A
100
AcDbVisualStyle
  2
Hidden
 70
     6
 71
     1
 72
     2
 73
     2
 90
        0
 40
0.6
 41
30.0
 62
     5
 63
     7
 74
     2
 91
        2
 64
     7
 65
   257
 75
     2
175
     1
 42
40.0
 92
        0
 66
   257
 43
1.0
 76
     1
 77
     6
 78
     2
 67
     7
 79
     3
170
     0
171
     0
290
     0
174
     0
 93
        1
 44
0.0
173
     0
291
     0
 45
0.0
1001
ACAD
1000
AcDbSavedByObjectVersion
1070
     0
  0
VISUALSTYLE
  5
3B
102
{ACAD_REACTORS
330
2A
102
}
102
{ACAD_XDICTIONARY
360
3D5
102
}
330
2A
100
AcDbVisualStyle
  2
JitterOff
 70
    20
 71
     2
 72
     2
 73
     0
 90
        0
 40
0.6
 41
30.0
 62
     5
 63
     7
 74
     1
 91
        4
 64
     7
 65
   257
 75
     1
175
     1
 42
1.0
 92
       10
 66
     7
 43
1.0
 76
     1
 77
     6
 78
     2
 67
     7
 79
     5
170
     0
171
     0
290
     0
174
     0
 93
        1
 44
0.0
173
     0
291
     1
 45
0.0
1001
ACAD
1000
AcDbSavedByObjectVersion
1070
     0
  0
VISUALSTYLE
  5
38
102
{ACAD_REACTORS
330
2A
102
}
102
{ACAD_XDICTIONARY
360
3CF
102
}
330
2A
100
AcDbVisualStyle
  2
Linepattern
 70
    14
 71
     2
 72
     2
 73
     0
 90
        0
 40
0.6
 41
30.0
 62
     5
 63
     7
 74
     1
 91
        4
 64
     7
 65
   257
 75
     7
175
     7
 42
1.0
 92
        8
 66
     7
 43
1.0
 76
     1
 77
     6
 78
     2
 67
     7
 79
     5
170
     0
171
     0
290
     0
174
     0
 93
        1
 44
0.0
173
     0
291
     1
 45
0.0
1001
ACAD
1000
AcDbSavedByObjectVersion
1070
     0
  0
VISUALSTYLE
  5
3C
102
{ACAD_REACTORS
330
2A
102
}
102
{ACAD_XDICTIONARY
360
3D7
102
}
330
2A
100
AcDbVisualStyle
  2
OverhangOff
 70
    21
 71
     2
 72
     2
 73
     0
 90
        0
 40
0.6
 41
30.0
 62
     5
 63
     7
 74
     1
 91
        4
 64
     7
 65
   257
 75
     1
175
     1
 42
1.0
 92
        9
 66
     7
 43
1.0
 76
     1
 77
     6
 78
     2
 67
     7
 79
     5
170
     0
171
     0
290
     0
174
     0
 93
        1
 44
0.0
173
     0
291
     1
 45
0.0
1001
ACAD
1000
AcDbSavedByObjectVersion
1070
     0
  0
VISUALSTYLE
  5
33
102
{ACAD_REACTORS
330
2A
102
}
102
{ACAD_XDICTIONARY
360
3C5
102
}
330
2A
100
AcDbVisualStyle
  2
Realistic
 70
     8
 71
     2
 72
     3
 73
     0
 90
        2
 40
0.6
 41
30.0
 62
     5
 63
     7
 74
     0
 91
        0
 64
     7
 65
   257
 75
     1
175
     1
 42
1.0
 92
        8
 66
   257
 43
1.0
 76
     1
 77
     6
 78
     2
 67
     7
 79
     3
170
     0
171
     0
290
     0
174
     0
 93
       13
 44
0.0
173
     0
291
     0
 45
0.0
1001
ACAD
1000
AcDbSavedByObjectVersion
1070
     0
  0
VISUALSTYLE
  5
42
102
{ACAD_REACTORS
330
2A
102
}
102
{ACAD_XDICTIONARY
360
3E3
102
}
330
2A
100
AcDbVisualStyle
  2
Shaded
 70
    27
 71
     2
 72
     2
 73
     1
 90
        2
 40
0.6
 41
30.0
 62
     5
 63
     7
 74
     0
 91
        4
 64
     7
 65
   257
 75
     1
175
     1
 42
1.0
 92
        8
 66
   257
 43
1.0
 76
     1
 77
     6
 78
     2
 67
     8
 79
     3
170
     0
171
     0
290
     0
174
     0
 93
        5
 44
0.0
173
     0
291
     0
 45
0.0
1001
ACAD
1000
AcDbSavedByObjectVersion
1070
     0
  0
VISUALSTYLE
  5
41
102
{ACAD_REACTORS
330
2A
102
}
102
{ACAD_XDICTIONARY
360
3E1
102
}
330
2A
100
AcDbVisualStyle
  2
Shaded with edges
 70
    26
 71
     2
 72
     2
 73
     1
 90
        2
 40
0.6
 41
30.0
 62
     5
 63
     7
 74
     1
 91
       10
 64
     7
 65
   257
 75
     2
175
     1
 42
1.0
 92
        8
 66
   257
 43
1.0
 76
     1
 77
     6
 78
     2
 67
     7
 79
     3
170
     0
171
     0
290
     0
174
     0
 93
        5
 44
0.0
173
     0
291
     0
 45
0.0
1001
ACAD
1000
AcDbSavedByObjectVersion
1070
     0
  0
VISUALSTYLE
  5
3E
102
{ACAD_REACTORS
330
2A
102
}
102
{ACAD_XDICTIONARY
360
3DB
102
}
330
2A
100
AcDbVisualStyle
  2
Shades of Gray
 70
    23
 71
     2
 72
     2
 73
     3
 90
        0
 40
0.6
 41
30.0
 62
     5
 63
     7
 74
     2
 91
        2
 64
     7
 65
     7
 75
     1
175
     1
 42
40.0
 92
        8
 66
     7
 43
1.0
 76
     1
 77
     6
 78
     2
 67
     7
 79
     3
170
     0
171
     0
290
     0
174
     0
 93
        1
 44
0.0
173
     0
291
     0
 45
0.0
1001
ACAD
1000
AcDbSavedByObjectVersion
1070
     0
  0
VISUALSTYLE
  5
3F
102
{ACAD_REACTORS
330
2A
102
}
102
{ACAD_XDICTIONARY
360
3DD
102
}
330
2A
100
AcDbVisualStyle
  2
Sketchy
 70
    24
 71
     1
 72
     2
 73
     2
 90
        0
 40
0.6
 41
30.0
 62
     5
 63
     7
 74
     2
 91
        2
 64
     7
 65
     7
 75
     1
175
     1
 42
40.0
 92
       11
 66
     7
 43
1.0
 76
     1
 77
     6
 78
     2
 67
     7
 79
     6
170
     0
171
     0
290
     0
174
     0
 93
        1
 44
0.0
173
     0
291
     0
 45
0.0
1001
ACAD
1000
AcDbSavedByObjectVersion
1070
     0
  0
VISUALSTYLE
  5
37
102
{ACAD_REACTORS
330
2A
102
}
102
{ACAD_XDICTIONARY
360
3CD
102
}
330
2A
100
AcDbVisualStyle
  2
Thicken
 70
    13
 71
     2
 72
     2
 73
     0
 90
        0
 40
0.6
 41
30.0
 62
     5
 63
     7
 74
     1
 91
        4
 64
     7
 65
   257
 75
     1
175
     1
 42
1.0
 92
       12
 66
     7
 43
1.0
 76
     1
 77
     6
 78
     2
 67
     7
 79
     5
170
     0
171
     0
290
     0
174
     0
 93
        1
 44
0.0
173
     0
291
     1
 45
0.0
1001
ACAD
1000
AcDbSavedByObjectVersion
1070
     0
  0
VISUALSTYLE
  5
30
102
{ACAD_REACTORS
330
2A
102
}
102
{ACAD_XDICTIONARY
360
3BF
102
}
330
2A
100
AcDbVisualStyle
  2
Wireframe
 70
     5
 71
     0
 72
     2
 73
     0
 90
        0
 40
0.6
 41
30.0
 62
     5
 63
     7
 74
     1
 91
        4
 64
     7
 65
   257
 75
     1
175
     1
 42
1.0
 92
        0
 66
   257
 43
1.0
 76
     1
 77
     6
 78
     2
 67
     7
 79
     3
170
     0
171
     0
290
     0
174
     0
 93
        1
 44
0.0
173
     0
291
     0
 45
0.0
1001
ACAD
1000
AcDbSavedByObjectVersion
1070
     0
  0
VISUALSTYLE
  5
40
102
{ACAD_REACTORS
330
2A
102
}
102
{ACAD_XDICTIONARY
360
3DF
102
}
330
2A
100
AcDbVisualStyle
  2
X-Ray
 70
    25
 71
     2
 72
     2
 73
     1
 90
        1
 40
0.5
 41
30.0
 62
     5
 63
     7
 74
     1
 91
        0
 64
     7
 65
   257
 75
     1
175
     1
 42
1.0
 92
        8
 66
     7
 43
1.0
 76
     1
 77
     6
 78
     2
 67
     7
 79
     3
170
     0
171
     0
290
     0
174
     0
 93
       13
 44
0.0
173
     0
291
     0
 45
0.0
1001
ACAD
1000
AcDbSavedByObjectVersion
1070
     0
  0
DICTIONARYVAR
  5
3B3
102
{ACAD_REACTORS
330
3A8
102
}
330
3A8
100
DictionaryVariables
280
     0
  1
1:1
  0
DICTIONARYVAR
  5
3AB
102
{ACAD_REACTORS
330
3A8
102
}
330
3A8
100
DictionaryVariables
280
     0
  1
1
  0
DICTIONARYVAR
  5
3AE
102
{ACAD_REACTORS
330
3A8
102
}
330
3A8
100
DictionaryVariables
280
     0
  1
1
  0
DICTIONARYVAR
  5
3B4
102
{ACAD_REACTORS
330
3A8
102
}
330
3A8
100
DictionaryVariables
280
     0
  1
1
  0
DICTIONARY
  5
3E7
330
45
100
AcDbDictionary
280
     1
281
     1
  3
ACAD_XREC_ROUNDTRIP
360
3E8
  0
DICTIONARY
  5
3E5
330
44
100
AcDbDictionary
280
     1
281
     1
  3
ACAD_XREC_ROUNDTRIP
360
3E6
  0
DICTIONARY
  5
3E9
330
46
100
AcDbDictionary
280
     1
281
     1
  3
ACAD_XREC_ROUNDTRIP
360
3EA
  0
DICTIONARY
  5
3BD
330
2F
100
AcDbDictionary
280
     1
281
     1
  3
ACAD_XREC_ROUNDTRIP
360
3BE
  0
DICTIONARY
  5
3C3
330
32
100
AcDbDictionary
280
     1
281
     1
  3
ACAD_XREC_ROUNDTRIP
360
3C4
  0
DICTIONARY
  5
3CB
330
36
100
AcDbDictionary
280
     1
281
     1
  3
ACAD_XREC_ROUNDTRIP
360
3CC
  0
DICTIONARY
  5
3D3
330
3A
100
AcDbDictionary
280
     1
281
     1
  3
ACAD_XREC_ROUNDTRIP
360
3D4
  0
DICTIONARY
  5
3C7
330
34
100
AcDbDictionary
280
     1
281
     1
  3
ACAD_XREC_ROUNDTRIP
360
3C8
  0
DICTIONARY
  5
3C9
330
35
100
AcDbDictionary
280
     1
281
     1
  3
ACAD_XREC_ROUNDTRIP
360
3CA
  0
DICTIONARY
  5
3D9
330
3D
100
AcDbDictionary
280
     1
281
     1
  3
ACAD_XREC_ROUNDTRIP
360
3DA
  0
DICTIONARY
  5
3D1
330
39
100
AcDbDictionary
280
     1
281
     1
  3
ACAD_XREC_ROUNDTRIP
360
3D2
  0
DICTIONARY
  5
3B5
330
2B
100
AcDbDictionary
280
     1
281
     1
  3
ACAD_XREC_ROUNDTRIP
360
3B6
  0
DICTIONARY
  5
3B7
330
2C
100
AcDbDictionary
280
     1
281
     1
  3
ACAD_XREC_ROUNDTRIP
360
3B8
  0
DICTIONARY
  5
3B9
330
2D
100
AcDbDictionary
280
     1
281
     1
  3
ACAD_XREC_ROUNDTRIP
360
3BA
  0
DICTIONARY
  5
3BB
330
2E
100
AcDbDictionary
280
     1
281
     1
  3
ACAD_XREC_ROUNDTRIP
360
3BC
  0
DICTIONARY
  5
3C1
330
31
100
AcDbDictionary
280
     1
281
     1
  3
ACAD_XREC_ROUNDTRIP
360
3C2
  0
DICTIONARY
  5
3D5
330
3B
100
AcDbDictionary
280
     1
281
     1
  3
ACAD_XREC_ROUNDTRIP
360
3D6
  0
DICTIONARY
  5
3CF
330
38
100
AcDbDictionary
280
     1
281
     1
  3
ACAD_XREC_ROUNDTRIP
360
3D0
  0
DICTIONARY
  5
3D7
330
3C
100
AcDbDictionary
280
     1
281
     1
  3
ACAD_XREC_ROUNDTRIP
360
3D8
  0
DICTIONARY
  5
3C5
330
33
100
AcDbDictionary
280
     1
281
     1
  3
ACAD_XREC_ROUNDTRIP
360
3C6
  0
DICTIONARY
  5
3E3
330
42
100
AcDbDictionary
280
     1
281
     1
  3
ACAD_XREC_ROUNDTRIP
360
3E4
  0
DICTIONARY
  5
3E1
330
41
100
AcDbDictionary
280
     1
281
     1
  3
ACAD_XREC_ROUNDTRIP
360
3E2
  0
DICTIONARY
  5
3DB
330
3E
100
AcDbDictionary
280
     1
281
     1
  3
ACAD_XREC_ROUNDTRIP
360
3DC
  0
DICTIONARY
  5
3DD
330
3F
100
AcDbDictionary
280
     1
281
     1
  3
ACAD_XREC_ROUNDTRIP
360
3DE
  0
DICTIONARY
  5
3CD
330
37
100
AcDbDictionary
280
     1
281
     1
  3
ACAD_XREC_ROUNDTRIP
360
3CE
  0
DICTIONARY
  5
3BF
330
30
100
AcDbDictionary
280
     1
281
     1
  3
ACAD_XREC_ROUNDTRIP
360
3C0
  0
DICTIONARY
  5
3DF
330
40
100
AcDbDictionary
280
     1
281
     1
  3
ACAD_XREC_ROUNDTRIP
360
3E0
  0
XRECORD
  5
3E8
102
{ACAD_REACTORS
330
3E7
102
}
330
3E7
100
AcDbXrecord
280
     1
102
MATERIAL
148
0.0
149
0.0
149
0.0
 93
        0
 94
      127
282
     0
 72
     1
 77
     1
171
     1
175
     1
179
     1
273
     0
  0
XRECORD
  5
3E6
102
{ACAD_REACTORS
330
3E5
102
}
330
3E5
100
AcDbXrecord
280
     1
102
MATERIAL
148
0.0
149
0.0
149
0.0
 93
        0
 94
      127
282
     0
 72
     1
 77
     1
171
     1
175
     1
179
     1
273
     0
  0
XRECORD
  5
3EA
102
{ACAD_REACTORS
330
3E9
102
}
330
3E9
100
AcDbXrecord
280
     1
102
MATERIAL
148
0.0
149
0.0
149
0.0
 93
        0
 94
      127
282
     0
 72
     1
 77
     1
171
     1
175
     1
179
     1
273
     0
  0
XRECORD
  5
3BE
102
{ACAD_REACTORS
330
3BD
102
}
330
3BD
100
AcDbXrecord
280
     1
102
RTVSPropertyOp0
 70
     1
102
RTVSPropertyOp1
 70
     1
102
RTVSPropertyOp2
 70
     1
102
RTVSPropertyOp3
 70
     1
102
RTVSPropertyOp4
 70
     1
102
RTVSPropertyOp5
 70
     1
102
RTVSPropertyOp6
 70
     1
102
RTVSPropertyOp7
 70
     1
102
RTVSPropertyOp8
 70
     1
102
RTVSPropertyOp9
 70
     1
102
RTVSPropertyOp10
 70
     1
102
RTVSPropertyOp11
 70
     1
102
RTVSPropertyOp12
 70
     1
102
RTVSPropertyOp13
 70
     1
102
RTVSPropertyOp14
 70
     1
102
RTVSPropertyOp15
 70
     1
102
RTVSPropertyOp16
 70
     1
102
RTVSPropertyOp17
 70
     1
102
RTVSPropertyOp18
 70
     1
102
RTVSPropertyOp19
 70
     1
102
RTVSPropertyOp20
 70
     1
102
RTVSPropertyOp21
 70
     1
102
RTVSPropertyOp22
 70
     1
102
RTVSPropertyOp23
 70
     1
102
RTVSPropertyOp24
 70
     1
102
RTVSPropertyOp25
 70
     1
102
RTVSPropertyOp26
 70
     1
102
RTVSPropertyOp27
 70
     1
102
RTVSPropertyOp28
 70
     1
102
RTVSPropertyOp29
 70
     1
102
RTVSPropertyOp30
 70
     1
102
RTVSPropertyOp31
 70
     1
102
RTVSPropertyOp32
 70
     1
102
RTVSPropertyOp33
 70
     1
102
RTVSPropertyOp34
 70
     1
102
RTVSPropertyOp35
 70
     1
102
RTVSPropertyOp36
 70
     1
102
RTVSPropertyOp37
 70
     1
102
RTVSPropertyOp38
 70
     1
102
RTVSPropertyOp39
 70
     1
102
RTVSPropertyOp40
 70
     1
102
RTVSPropertyOp41
 70
     1
102
RTVSPropertyOp42
 70
     1
102
RTVSPropertyOp43
 70
     1
102
RTVSPropertyOp44
 70
     1
102
RTVSPropertyOp45
 70
     1
102
RTVSPropertyOp46
 70
     1
102
RTVSPropertyOp47
 70
     1
102
RTVSPropertyOp48
 70
     1
102
RTVSPropertyOp49
 70
     1
102
RTVSPropertyOp50
 70
     1
102
RTVSPropertyOp51
 70
     0
102
RTVSPropertyOp52
 70
     0
102
RTVSPropertyOp53
 70
     1
102
RTVSPropertyOp54
 70
     1
102
RTVSPropertyOp55
 70
     1
102
RTVSPropertyOp56
 70
     1
102
RTVSPropertyOp57
 70
     1
102
RTVSPost2010Prop28
280
     1
102
RTVSPost2010PropOp28
 70
     1
102
RTVSPost2010Prop29
280
     1
102
RTVSPost2010PropOp29
 70
     1
102
RTVSPost2010Prop30
280
     0
102
RTVSPost2010PropOp30
 70
     1
102
RTVSPost2010Prop31
280
     0
102
RTVSPost2010PropOp31
 70
     1
102
RTVSPost2010Prop32
280
     0
102
RTVSPost2010PropOp32
 70
     1
102
RTVSPost2010Prop33
280
     0
102
RTVSPost2010PropOp33
 70
     1
102
RTVSPost2010Prop34
280
     0
102
RTVSPost2010PropOp34
 70
     1
102
RTVSPost2010Prop35
280
     0
102
RTVSPost2010PropOp35
 70
     1
102
RTVSPost2010Prop36
280
     0
102
RTVSPost2010PropOp36
 70
     1
102
RTVSPost2010Prop37
 90
       50
102
RTVSPost2010PropOp37
 70
     1
102
RTVSPost2010Prop38
140
0.0
102
RTVSPost2010PropOp38
 70
     1
102
RTVSPost2010Prop39
140
1.0
102
RTVSPost2010PropOp39
 70
     1
102
RTVSPost2010Prop40
 90
        0
102
RTVSPost2010PropOp40
 70
     1
102
RTVSPost2010Prop41ColorIndex
 90
       18
102
RTVSPost2010Prop41ColorRGB
 90
        0
102
RTVSPost2010PropOp41
 70
     1
102
RTVSPost2010Prop42
 90
       50
102
RTVSPost2010PropOp42
 70
     1
102
RTVSPost2010Prop43
 90
        3
102
RTVSPost2010PropOp43
 70
     1
102
RTVSPost2010Prop44ColorIndex
 90
        5
102
RTVSPost2010Prop44ColorRGB
 90
      255
102
RTVSPost2010PropOp44
 70
     1
102
RTVSPost2010Prop45
280
     0
102
RTVSPost2010PropOp45
 70
     1
102
RTVSPost2010Prop46
 90
       50
102
RTVSPost2010PropOp46
 70
     1
102
RTVSPost2010Prop47
 90
       50
102
RTVSPost2010PropOp47
 70
     1
102
RTVSPost2010Prop48
 90
       50
102
RTVSPost2010PropOp48
 70
     1
102
RTVSPost2010Prop49
280
     0
102
RTVSPost2010PropOp49
 70
     1
102
RTVSPost2010Prop50
 90
       50
102
RTVSPost2010PropOp50
 70
     1
102
RTVSPost2010Prop51ColorIndex
 90
      256
102
RTVSPost2010Prop51ColorRGB
 90
-16777216
102
RTVSPost2010PropOp51
 70
     0
102
RTVSPost2010Prop52
140
1.0
102
RTVSPost2010PropOp52
 70
     0
102
RTVSPost2010Prop53
 90
        2
102
RTVSPost2010PropOp53
 70
     1
102
RTVSPost2010Prop54
  1
strokes_ogs.tif
102
RTVSPost2010PropOp54
 70
     1
102
RTVSPost2010Prop55
280
     0
102
RTVSPost2010PropOp55
 70
     1
102
RTVSPost2010Prop56
140
1.0
102
RTVSPost2010PropOp56
 70
     1
102
RTVSPost2010Prop57
140
1.0
102
RTVSPost2010PropOp57
 70
     1
  0
XRECORD
  5
3C4
102
{ACAD_REACTORS
330
3C3
102
}
330
3C3
100
AcDbXrecord
280
     1
102
RTVSPropertyOp0
 70
     1
102
RTVSPropertyOp1
 70
     1
102
RTVSPropertyOp2
 70
     1
102
RTVSPropertyOp3
 70
     1
102
RTVSPropertyOp4
 70
     1
102
RTVSPropertyOp5
 70
     1
102
RTVSPropertyOp6
 70
     1
102
RTVSPropertyOp7
 70
     1
102
RTVSPropertyOp8
 70
     1
102
RTVSPropertyOp9
 70
     1
102
RTVSPropertyOp10
 70
     1
102
RTVSPropertyOp11
 70
     1
102
RTVSPropertyOp12
 70
     1
102
RTVSPropertyOp13
 70
     1
102
RTVSPropertyOp14
 70
     1
102
RTVSPropertyOp15
 70
     1
102
RTVSPropertyOp16
 70
     1
102
RTVSPropertyOp17
 70
     1
102
RTVSPropertyOp18
 70
     1
102
RTVSPropertyOp19
 70
     1
102
RTVSPropertyOp20
 70
     1
102
RTVSPropertyOp21
 70
     1
102
RTVSPropertyOp22
 70
     1
102
RTVSPropertyOp23
 70
     1
102
RTVSPropertyOp24
 70
     1
102
RTVSPropertyOp25
 70
     1
102
RTVSPropertyOp26
 70
     1
102
RTVSPropertyOp27
 70
     1
102
RTVSPropertyOp28
 70
     1
102
RTVSPropertyOp29
 70
     1
102
RTVSPropertyOp30
 70
     1
102
RTVSPropertyOp31
 70
     1
102
RTVSPropertyOp32
 70
     1
102
RTVSPropertyOp33
 70
     1
102
RTVSPropertyOp34
 70
     1
102
RTVSPropertyOp35
 70
     1
102
RTVSPropertyOp36
 70
     1
102
RTVSPropertyOp37
 70
     1
102
RTVSPropertyOp38
 70
     1
102
RTVSPropertyOp39
 70
     1
102
RTVSPropertyOp40
 70
     1
102
RTVSPropertyOp41
 70
     1
102
RTVSPropertyOp42
 70
     1
102
RTVSPropertyOp43
 70
     1
102
RTVSPropertyOp44
 70
     1
102
RTVSPropertyOp45
 70
     1
102
RTVSPropertyOp46
 70
     1
102
RTVSPropertyOp47
 70
     1
102
RTVSPropertyOp48
 70
     1
102
RTVSPropertyOp49
 70
     1
102
RTVSPropertyOp50
 70
     1
102
RTVSPropertyOp51
 70
     0
102
RTVSPropertyOp52
 70
     0
102
RTVSPropertyOp53
 70
     1
102
RTVSPropertyOp54
 70
     1
102
RTVSPropertyOp55
 70
     1
102
RTVSPropertyOp56
 70
     1
102
RTVSPropertyOp57
 70
     1
102
RTVSPost2010Prop28
280
     0
102
RTVSPost2010PropOp28
 70
     1
102
RTVSPost2010Prop29
280
     1
102
RTVSPost2010PropOp29
 70
     1
102
RTVSPost2010Prop30
280
     1
102
RTVSPost2010PropOp30
 70
     1
102
RTVSPost2010Prop31
280
     0
102
RTVSPost2010PropOp31
 70
     1
102
RTVSPost2010Prop32
280
     0
102
RTVSPost2010PropOp32
 70
     1
102
RTVSPost2010Prop33
280
     0
102
RTVSPost2010PropOp33
 70
     1
102
RTVSPost2010Prop34
280
     0
102
RTVSPost2010PropOp34
 70
     1
102
RTVSPost2010Prop35
280
     0
102
RTVSPost2010PropOp35
 70
     1
102
RTVSPost2010Prop36
280
     0
102
RTVSPost2010PropOp36
 70
     1
102
RTVSPost2010Prop37
 90
       50
102
RTVSPost2010PropOp37
 70
     1
102
RTVSPost2010Prop38
140
0.0
102
RTVSPost2010PropOp38
 70
     1
102
RTVSPost2010Prop39
140
1.0
102
RTVSPost2010PropOp39
 70
     1
102
RTVSPost2010Prop40
 90
        0
102
RTVSPost2010PropOp40
 70
     1
102
RTVSPost2010Prop41ColorIndex
 90
       18
102
RTVSPost2010Prop41ColorRGB
 90
        0
102
RTVSPost2010PropOp41
 70
     1
102
RTVSPost2010Prop42
 90
       50
102
RTVSPost2010PropOp42
 70
     1
102
RTVSPost2010Prop43
 90
        3
102
RTVSPost2010PropOp43
 70
     1
102
RTVSPost2010Prop44ColorIndex
 90
        5
102
RTVSPost2010Prop44ColorRGB
 90
      255
102
RTVSPost2010PropOp44
 70
     1
102
RTVSPost2010Prop45
280
     0
102
RTVSPost2010PropOp45
 70
     1
102
RTVSPost2010Prop46
 90
       50
102
RTVSPost2010PropOp46
 70
     1
102
RTVSPost2010Prop47
 90
       50
102
RTVSPost2010PropOp47
 70
     1
102
RTVSPost2010Prop48
 90
       50
102
RTVSPost2010PropOp48
 70
     1
102
RTVSPost2010Prop49
280
     0
102
RTVSPost2010PropOp49
 70
     1
102
RTVSPost2010Prop50
 90
       50
102
RTVSPost2010PropOp50
 70
     1
102
RTVSPost2010Prop51ColorIndex
 90
      256
102
RTVSPost2010Prop51ColorRGB
 90
-16777216
102
RTVSPost2010PropOp51
 70
     0
102
RTVSPost2010Prop52
140
1.0
102
RTVSPost2010PropOp52
 70
     0
102
RTVSPost2010Prop53
 90
        2
102
RTVSPost2010PropOp53
 70
     1
102
RTVSPost2010Prop54
  1
strokes_ogs.tif
102
RTVSPost2010PropOp54
 70
     1
102
RTVSPost2010Prop55
280
     0
102
RTVSPost2010PropOp55
 70
     1
102
RTVSPost2010Prop56
140
1.0
102
RTVSPost2010PropOp56
 70
     1
102
RTVSPost2010Prop57
140
1.0
102
RTVSPost2010PropOp57
 70
     1
  0
XRECORD
  5
3CC
102
{ACAD_REACTORS
330
3CB
102
}
330
3CB
100
AcDbXrecord
280
     1
102
RTVSPropertyOp0
 70
     1
102
RTVSPropertyOp1
 70
     1
102
RTVSPropertyOp2
 70
     1
102
RTVSPropertyOp3
 70
     1
102
RTVSPropertyOp4
 70
     1
102
RTVSPropertyOp5
 70
     1
102
RTVSPropertyOp6
 70
     1
102
RTVSPropertyOp7
 70
     1
102
RTVSPropertyOp8
 70
     1
102
RTVSPropertyOp9
 70
     1
102
RTVSPropertyOp10
 70
     1
102
RTVSPropertyOp11
 70
     1
102
RTVSPropertyOp12
 70
     1
102
RTVSPropertyOp13
 70
     1
102
RTVSPropertyOp14
 70
     1
102
RTVSPropertyOp15
 70
     1
102
RTVSPropertyOp16
 70
     1
102
RTVSPropertyOp17
 70
     1
102
RTVSPropertyOp18
 70
     1
102
RTVSPropertyOp19
 70
     1
102
RTVSPropertyOp20
 70
     1
102
RTVSPropertyOp21
 70
     1
102
RTVSPropertyOp22
 70
     1
102
RTVSPropertyOp23
 70
     1
102
RTVSPropertyOp24
 70
     1
102
RTVSPropertyOp25
 70
     1
102
RTVSPropertyOp26
 70
     1
102
RTVSPropertyOp27
 70
     1
102
RTVSPropertyOp28
 70
     1
102
RTVSPropertyOp29
 70
     1
102
RTVSPropertyOp30
 70
     1
102
RTVSPropertyOp31
 70
     1
102
RTVSPropertyOp32
 70
     1
102
RTVSPropertyOp33
 70
     1
102
RTVSPropertyOp34
 70
     1
102
RTVSPropertyOp35
 70
     1
102
RTVSPropertyOp36
 70
     1
102
RTVSPropertyOp37
 70
     1
102
RTVSPropertyOp38
 70
     1
102
RTVSPropertyOp39
 70
     1
102
RTVSPropertyOp40
 70
     1
102
RTVSPropertyOp41
 70
     1
102
RTVSPropertyOp42
 70
     1
102
RTVSPropertyOp43
 70
     1
102
RTVSPropertyOp44
 70
     1
102
RTVSPropertyOp45
 70
     1
102
RTVSPropertyOp46
 70
     1
102
RTVSPropertyOp47
 70
     1
102
RTVSPropertyOp48
 70
     1
102
RTVSPropertyOp49
 70
     1
102
RTVSPropertyOp50
 70
     1
102
RTVSPropertyOp51
 70
     0
102
RTVSPropertyOp52
 70
     0
102
RTVSPropertyOp53
 70
     1
102
RTVSPropertyOp54
 70
     1
102
RTVSPropertyOp55
 70
     1
102
RTVSPropertyOp56
 70
     1
102
RTVSPropertyOp57
 70
     1
102
RTVSPost2010Prop28
280
     0
102
RTVSPost2010PropOp28
 70
     1
102
RTVSPost2010Prop29
280
     1
102
RTVSPost2010PropOp29
 70
     1
102
RTVSPost2010Prop30
280
     1
102
RTVSPost2010PropOp30
 70
     1
102
RTVSPost2010Prop31
280
     0
102
RTVSPost2010PropOp31
 70
     1
102
RTVSPost2010Prop32
280
     0
102
RTVSPost2010PropOp32
 70
     1
102
RTVSPost2010Prop33
280
     0
102
RTVSPost2010PropOp33
 70
     1
102
RTVSPost2010Prop34
280
     0
102
RTVSPost2010PropOp34
 70
     1
102
RTVSPost2010Prop35
280
     0
102
RTVSPost2010PropOp35
 70
     1
102
RTVSPost2010Prop36
280
     0
102
RTVSPost2010PropOp36
 70
     1
102
RTVSPost2010Prop37
 90
       50
102
RTVSPost2010PropOp37
 70
     1
102
RTVSPost2010Prop38
140
0.0
102
RTVSPost2010PropOp38
 70
     1
102
RTVSPost2010Prop39
140
1.0
102
RTVSPost2010PropOp39
 70
     1
102
RTVSPost2010Prop40
 90
        0
102
RTVSPost2010PropOp40
 70
     1
102
RTVSPost2010Prop41ColorIndex
 90
       18
102
RTVSPost2010Prop41ColorRGB
 90
        0
102
RTVSPost2010PropOp41
 70
     1
102
RTVSPost2010Prop42
 90
       50
102
RTVSPost2010PropOp42
 70
     1
102
RTVSPost2010Prop43
 90
        3
102
RTVSPost2010PropOp43
 70
     1
102
RTVSPost2010Prop44ColorIndex
 90
        5
102
RTVSPost2010Prop44ColorRGB
 90
      255
102
RTVSPost2010PropOp44
 70
     1
102
RTVSPost2010Prop45
280
     0
102
RTVSPost2010PropOp45
 70
     1
102
RTVSPost2010Prop46
 90
       50
102
RTVSPost2010PropOp46
 70
     1
102
RTVSPost2010Prop47
 90
       50
102
RTVSPost2010PropOp47
 70
     1
102
RTVSPost2010Prop48
 90
       50
102
RTVSPost2010PropOp48
 70
     1
102
RTVSPost2010Prop49
280
     0
102
RTVSPost2010PropOp49
 70
     1
102
RTVSPost2010Prop50
 90
       50
102
RTVSPost2010PropOp50
 70
     1
102
RTVSPost2010Prop51ColorIndex
 90
      256
102
RTVSPost2010Prop51ColorRGB
 90
-16777216
102
RTVSPost2010PropOp51
 70
     0
102
RTVSPost2010Prop52
140
1.0
102
RTVSPost2010PropOp52
 70
     0
102
RTVSPost2010Prop53
 90
        2
102
RTVSPost2010PropOp53
 70
     1
102
RTVSPost2010Prop54
  1
strokes_ogs.tif
102
RTVSPost2010PropOp54
 70
     1
102
RTVSPost2010Prop55
280
     0
102
RTVSPost2010PropOp55
 70
     1
102
RTVSPost2010Prop56
140
1.0
102
RTVSPost2010PropOp56
 70
     1
102
RTVSPost2010Prop57
140
1.0
102
RTVSPost2010PropOp57
 70
     1
  0
XRECORD
  5
3D4
102
{ACAD_REACTORS
330
3D3
102
}
330
3D3
100
AcDbXrecord
280
     1
102
RTVSPropertyOp0
 70
     1
102
RTVSPropertyOp1
 70
     1
102
RTVSPropertyOp2
 70
     1
102
RTVSPropertyOp3
 70
     1
102
RTVSPropertyOp4
 70
     1
102
RTVSPropertyOp5
 70
     1
102
RTVSPropertyOp6
 70
     1
102
RTVSPropertyOp7
 70
     1
102
RTVSPropertyOp8
 70
     1
102
RTVSPropertyOp9
 70
     1
102
RTVSPropertyOp10
 70
     1
102
RTVSPropertyOp11
 70
     1
102
RTVSPropertyOp12
 70
     1
102
RTVSPropertyOp13
 70
     1
102
RTVSPropertyOp14
 70
     1
102
RTVSPropertyOp15
 70
     1
102
RTVSPropertyOp16
 70
     1
102
RTVSPropertyOp17
 70
     1
102
RTVSPropertyOp18
 70
     1
102
RTVSPropertyOp19
 70
     1
102
RTVSPropertyOp20
 70
     1
102
RTVSPropertyOp21
 70
     1
102
RTVSPropertyOp22
 70
     1
102
RTVSPropertyOp23
 70
     1
102
RTVSPropertyOp24
 70
     1
102
RTVSPropertyOp25
 70
     1
102
RTVSPropertyOp26
 70
     1
102
RTVSPropertyOp27
 70
     1
102
RTVSPropertyOp28
 70
     1
102
RTVSPropertyOp29
 70
     1
102
RTVSPropertyOp30
 70
     1
102
RTVSPropertyOp31
 70
     1
102
RTVSPropertyOp32
 70
     1
102
RTVSPropertyOp33
 70
     1
102
RTVSPropertyOp34
 70
     1
102
RTVSPropertyOp35
 70
     1
102
RTVSPropertyOp36
 70
     1
102
RTVSPropertyOp37
 70
     1
102
RTVSPropertyOp38
 70
     1
102
RTVSPropertyOp39
 70
     1
102
RTVSPropertyOp40
 70
     1
102
RTVSPropertyOp41
 70
     1
102
RTVSPropertyOp42
 70
     1
102
RTVSPropertyOp43
 70
     1
102
RTVSPropertyOp44
 70
     1
102
RTVSPropertyOp45
 70
     1
102
RTVSPropertyOp46
 70
     1
102
RTVSPropertyOp47
 70
     1
102
RTVSPropertyOp48
 70
     1
102
RTVSPropertyOp49
 70
     1
102
RTVSPropertyOp50
 70
     1
102
RTVSPropertyOp51
 70
     0
102
RTVSPropertyOp52
 70
     0
102
RTVSPropertyOp53
 70
     1
102
RTVSPropertyOp54
 70
     1
102
RTVSPropertyOp55
 70
     1
102
RTVSPropertyOp56
 70
     1
102
RTVSPropertyOp57
 70
     1
102
RTVSPost2010Prop28
280
     0
102
RTVSPost2010PropOp28
 70
     1
102
RTVSPost2010Prop29
280
     1
102
RTVSPost2010PropOp29
 70
     1
102
RTVSPost2010Prop30
280
     1
102
RTVSPost2010PropOp30
 70
     1
102
RTVSPost2010Prop31
280
     0
102
RTVSPost2010PropOp31
 70
     1
102
RTVSPost2010Prop32
280
     0
102
RTVSPost2010PropOp32
 70
     1
102
RTVSPost2010Prop33
280
     0
102
RTVSPost2010PropOp33
 70
     1
102
RTVSPost2010Prop34
280
     0
102
RTVSPost2010PropOp34
 70
     1
102
RTVSPost2010Prop35
280
     0
102
RTVSPost2010PropOp35
 70
     1
102
RTVSPost2010Prop36
280
     0
102
RTVSPost2010PropOp36
 70
     1
102
RTVSPost2010Prop37
 90
       50
102
RTVSPost2010PropOp37
 70
     1
102
RTVSPost2010Prop38
140
0.0
102
RTVSPost2010PropOp38
 70
     1
102
RTVSPost2010Prop39
140
1.0
102
RTVSPost2010PropOp39
 70
     1
102
RTVSPost2010Prop40
 90
        0
102
RTVSPost2010PropOp40
 70
     1
102
RTVSPost2010Prop41ColorIndex
 90
       18
102
RTVSPost2010Prop41ColorRGB
 90
        0
102
RTVSPost2010PropOp41
 70
     1
102
RTVSPost2010Prop42
 90
       50
102
RTVSPost2010PropOp42
 70
     1
102
RTVSPost2010Prop43
 90
        3
102
RTVSPost2010PropOp43
 70
     1
102
RTVSPost2010Prop44ColorIndex
 90
        5
102
RTVSPost2010Prop44ColorRGB
 90
      255
102
RTVSPost2010PropOp44
 70
     1
102
RTVSPost2010Prop45
280
     0
102
RTVSPost2010PropOp45
 70
     1
102
RTVSPost2010Prop46
 90
       50
102
RTVSPost2010PropOp46
 70
     1
102
RTVSPost2010Prop47
 90
       50
102
RTVSPost2010PropOp47
 70
     1
102
RTVSPost2010Prop48
 90
       50
102
RTVSPost2010PropOp48
 70
     1
102
RTVSPost2010Prop49
280
     0
102
RTVSPost2010PropOp49
 70
     1
102
RTVSPost2010Prop50
 90
       50
102
RTVSPost2010PropOp50
 70
     1
102
RTVSPost2010Prop51ColorIndex
 90
      256
102
RTVSPost2010Prop51ColorRGB
 90
-16777216
102
RTVSPost2010PropOp51
 70
     0
102
RTVSPost2010Prop52
140
1.0
102
RTVSPost2010PropOp52
 70
     0
102
RTVSPost2010Prop53
 90
        2
102
RTVSPost2010PropOp53
 70
     1
102
RTVSPost2010Prop54
  1
strokes_ogs.tif
102
RTVSPost2010PropOp54
 70
     1
102
RTVSPost2010Prop55
280
     0
102
RTVSPost2010PropOp55
 70
     1
102
RTVSPost2010Prop56
140
1.0
102
RTVSPost2010PropOp56
 70
     1
102
RTVSPost2010Prop57
140
1.0
102
RTVSPost2010PropOp57
 70
     1
  0
XRECORD
  5
3C8
102
{ACAD_REACTORS
330
3C7
102
}
330
3C7
100
AcDbXrecord
280
     1
102
RTVSPropertyOp0
 70
     1
102
RTVSPropertyOp1
 70
     1
102
RTVSPropertyOp2
 70
     1
102
RTVSPropertyOp3
 70
     1
102
RTVSPropertyOp4
 70
     1
102
RTVSPropertyOp5
 70
     1
102
RTVSPropertyOp6
 70
     1
102
RTVSPropertyOp7
 70
     1
102
RTVSPropertyOp8
 70
     1
102
RTVSPropertyOp9
 70
     1
102
RTVSPropertyOp10
 70
     1
102
RTVSPropertyOp11
 70
     1
102
RTVSPropertyOp12
 70
     1
102
RTVSPropertyOp13
 70
     1
102
RTVSPropertyOp14
 70
     1
102
RTVSPropertyOp15
 70
     1
102
RTVSPropertyOp16
 70
     1
102
RTVSPropertyOp17
 70
     1
102
RTVSPropertyOp18
 70
     1
102
RTVSPropertyOp19
 70
     1
102
RTVSPropertyOp20
 70
     1
102
RTVSPropertyOp21
 70
     1
102
RTVSPropertyOp22
 70
     1
102
RTVSPropertyOp23
 70
     1
102
RTVSPropertyOp24
 70
     1
102
RTVSPropertyOp25
 70
     1
102
RTVSPropertyOp26
 70
     1
102
RTVSPropertyOp27
 70
     1
102
RTVSPropertyOp28
 70
     1
102
RTVSPropertyOp29
 70
     1
102
RTVSPropertyOp30
 70
     1
102
RTVSPropertyOp31
 70
     1
102
RTVSPropertyOp32
 70
     1
102
RTVSPropertyOp33
 70
     1
102
RTVSPropertyOp34
 70
     1
102
RTVSPropertyOp35
 70
     1
102
RTVSPropertyOp36
 70
     1
102
RTVSPropertyOp37
 70
     1
102
RTVSPropertyOp38
 70
     1
102
RTVSPropertyOp39
 70
     1
102
RTVSPropertyOp40
 70
     1
102
RTVSPropertyOp41
 70
     1
102
RTVSPropertyOp42
 70
     1
102
RTVSPropertyOp43
 70
     1
102
RTVSPropertyOp44
 70
     1
102
RTVSPropertyOp45
 70
     1
102
RTVSPropertyOp46
 70
     1
102
RTVSPropertyOp47
 70
     1
102
RTVSPropertyOp48
 70
     1
102
RTVSPropertyOp49
 70
     1
102
RTVSPropertyOp50
 70
     1
102
RTVSPropertyOp51
 70
     0
102
RTVSPropertyOp52
 70
     0
102
RTVSPropertyOp53
 70
     1
102
RTVSPropertyOp54
 70
     1
102
RTVSPropertyOp55
 70
     1
102
RTVSPropertyOp56
 70
     1
102
RTVSPropertyOp57
 70
     1
102
RTVSPost2010Prop28
280
     0
102
RTVSPost2010PropOp28
 70
     1
102
RTVSPost2010Prop29
280
     1
102
RTVSPost2010PropOp29
 70
     1
102
RTVSPost2010Prop30
280
     1
102
RTVSPost2010PropOp30
 70
     1
102
RTVSPost2010Prop31
280
     0
102
RTVSPost2010PropOp31
 70
     1
102
RTVSPost2010Prop32
280
     0
102
RTVSPost2010PropOp32
 70
     1
102
RTVSPost2010Prop33
280
     0
102
RTVSPost2010PropOp33
 70
     1
102
RTVSPost2010Prop34
280
     0
102
RTVSPost2010PropOp34
 70
     1
102
RTVSPost2010Prop35
280
     0
102
RTVSPost2010PropOp35
 70
     1
102
RTVSPost2010Prop36
280
     0
102
RTVSPost2010PropOp36
 70
     1
102
RTVSPost2010Prop37
 90
       50
102
RTVSPost2010PropOp37
 70
     1
102
RTVSPost2010Prop38
140
0.0
102
RTVSPost2010PropOp38
 70
     1
102
RTVSPost2010Prop39
140
1.0
102
RTVSPost2010PropOp39
 70
     1
102
RTVSPost2010Prop40
 90
        0
102
RTVSPost2010PropOp40
 70
     1
102
RTVSPost2010Prop41ColorIndex
 90
       18
102
RTVSPost2010Prop41ColorRGB
 90
        0
102
RTVSPost2010PropOp41
 70
     1
102
RTVSPost2010Prop42
 90
       50
102
RTVSPost2010PropOp42
 70
     1
102
RTVSPost2010Prop43
 90
        3
102
RTVSPost2010PropOp43
 70
     1
102
RTVSPost2010Prop44ColorIndex
 90
        5
102
RTVSPost2010Prop44ColorRGB
 90
      255
102
RTVSPost2010PropOp44
 70
     1
102
RTVSPost2010Prop45
280
     0
102
RTVSPost2010PropOp45
 70
     1
102
RTVSPost2010Prop46
 90
       50
102
RTVSPost2010PropOp46
 70
     1
102
RTVSPost2010Prop47
 90
       50
102
RTVSPost2010PropOp47
 70
     1
102
RTVSPost2010Prop48
 90
       50
102
RTVSPost2010PropOp48
 70
     1
102
RTVSPost2010Prop49
280
     0
102
RTVSPost2010PropOp49
 70
     1
102
RTVSPost2010Prop50
 90
       50
102
RTVSPost2010PropOp50
 70
     1
102
RTVSPost2010Prop51ColorIndex
 90
      256
102
RTVSPost2010Prop51ColorRGB
 90
-16777216
102
RTVSPost2010PropOp51
 70
     0
102
RTVSPost2010Prop52
140
1.0
102
RTVSPost2010PropOp52
 70
     0
102
RTVSPost2010Prop53
 90
        2
102
RTVSPost2010PropOp53
 70
     1
102
RTVSPost2010Prop54
  1
strokes_ogs.tif
102
RTVSPost2010PropOp54
 70
     1
102
RTVSPost2010Prop55
280
     0
102
RTVSPost2010PropOp55
 70
     1
102
RTVSPost2010Prop56
140
1.0
102
RTVSPost2010PropOp56
 70
     1
102
RTVSPost2010Prop57
140
1.0
102
RTVSPost2010PropOp57
 70
     1
  0
XRECORD
  5
3CA
102
{ACAD_REACTORS
330
3C9
102
}
330
3C9
100
AcDbXrecord
280
     1
102
RTVSPropertyOp0
 70
     1
102
RTVSPropertyOp1
 70
     1
102
RTVSPropertyOp2
 70
     1
102
RTVSPropertyOp3
 70
     1
102
RTVSPropertyOp4
 70
     1
102
RTVSPropertyOp5
 70
     1
102
RTVSPropertyOp6
 70
     1
102
RTVSPropertyOp7
 70
     1
102
RTVSPropertyOp8
 70
     1
102
RTVSPropertyOp9
 70
     1
102
RTVSPropertyOp10
 70
     1
102
RTVSPropertyOp11
 70
     1
102
RTVSPropertyOp12
 70
     1
102
RTVSPropertyOp13
 70
     1
102
RTVSPropertyOp14
 70
     1
102
RTVSPropertyOp15
 70
     1
102
RTVSPropertyOp16
 70
     1
102
RTVSPropertyOp17
 70
     1
102
RTVSPropertyOp18
 70
     1
102
RTVSPropertyOp19
 70
     1
102
RTVSPropertyOp20
 70
     1
102
RTVSPropertyOp21
 70
     1
102
RTVSPropertyOp22
 70
     1
102
RTVSPropertyOp23
 70
     1
102
RTVSPropertyOp24
 70
     1
102
RTVSPropertyOp25
 70
     1
102
RTVSPropertyOp26
 70
     1
102
RTVSPropertyOp27
 70
     1
102
RTVSPropertyOp28
 70
     1
102
RTVSPropertyOp29
 70
     1
102
RTVSPropertyOp30
 70
     1
102
RTVSPropertyOp31
 70
     1
102
RTVSPropertyOp32
 70
     1
102
RTVSPropertyOp33
 70
     1
102
RTVSPropertyOp34
 70
     1
102
RTVSPropertyOp35
 70
     1
102
RTVSPropertyOp36
 70
     1
102
RTVSPropertyOp37
 70
     1
102
RTVSPropertyOp38
 70
     1
102
RTVSPropertyOp39
 70
     1
102
RTVSPropertyOp40
 70
     1
102
RTVSPropertyOp41
 70
     1
102
RTVSPropertyOp42
 70
     1
102
RTVSPropertyOp43
 70
     1
102
RTVSPropertyOp44
 70
     1
102
RTVSPropertyOp45
 70
     1
102
RTVSPropertyOp46
 70
     1
102
RTVSPropertyOp47
 70
     1
102
RTVSPropertyOp48
 70
     1
102
RTVSPropertyOp49
 70
     1
102
RTVSPropertyOp50
 70
     1
102
RTVSPropertyOp51
 70
     0
102
RTVSPropertyOp52
 70
     0
102
RTVSPropertyOp53
 70
     1
102
RTVSPropertyOp54
 70
     1
102
RTVSPropertyOp55
 70
     1
102
RTVSPropertyOp56
 70
     1
102
RTVSPropertyOp57
 70
     1
102
RTVSPost2010Prop28
280
     0
102
RTVSPost2010PropOp28
 70
     1
102
RTVSPost2010Prop29
280
     1
102
RTVSPost2010PropOp29
 70
     1
102
RTVSPost2010Prop30
280
     1
102
RTVSPost2010PropOp30
 70
     1
102
RTVSPost2010Prop31
280
     0
102
RTVSPost2010PropOp31
 70
     1
102
RTVSPost2010Prop32
280
     0
102
RTVSPost2010PropOp32
 70
     1
102
RTVSPost2010Prop33
280
     0
102
RTVSPost2010PropOp33
 70
     1
102
RTVSPost2010Prop34
280
     0
102
RTVSPost2010PropOp34
 70
     1
102
RTVSPost2010Prop35
280
     0
102
RTVSPost2010PropOp35
 70
     1
102
RTVSPost2010Prop36
280
     0
102
RTVSPost2010PropOp36
 70
     1
102
RTVSPost2010Prop37
 90
       50
102
RTVSPost2010PropOp37
 70
     1
102
RTVSPost2010Prop38
140
0.0
102
RTVSPost2010PropOp38
 70
     1
102
RTVSPost2010Prop39
140
1.0
102
RTVSPost2010PropOp39
 70
     1
102
RTVSPost2010Prop40
 90
        0
102
RTVSPost2010PropOp40
 70
     1
102
RTVSPost2010Prop41ColorIndex
 90
       18
102
RTVSPost2010Prop41ColorRGB
 90
        0
102
RTVSPost2010PropOp41
 70
     1
102
RTVSPost2010Prop42
 90
       50
102
RTVSPost2010PropOp42
 70
     1
102
RTVSPost2010Prop43
 90
        3
102
RTVSPost2010PropOp43
 70
     1
102
RTVSPost2010Prop44ColorIndex
 90
        5
102
RTVSPost2010Prop44ColorRGB
 90
      255
102
RTVSPost2010PropOp44
 70
     1
102
RTVSPost2010Prop45
280
     0
102
RTVSPost2010PropOp45
 70
     1
102
RTVSPost2010Prop46
 90
       50
102
RTVSPost2010PropOp46
 70
     1
102
RTVSPost2010Prop47
 90
       50
102
RTVSPost2010PropOp47
 70
     1
102
RTVSPost2010Prop48
 90
       50
102
RTVSPost2010PropOp48
 70
     1
102
RTVSPost2010Prop49
280
     0
102
RTVSPost2010PropOp49
 70
     1
102
RTVSPost2010Prop50
 90
       50
102
RTVSPost2010PropOp50
 70
     1
102
RTVSPost2010Prop51ColorIndex
 90
      256
102
RTVSPost2010Prop51ColorRGB
 90
-16777216
102
RTVSPost2010PropOp51
 70
     0
102
RTVSPost2010Prop52
140
1.0
102
RTVSPost2010PropOp52
 70
     0
102
RTVSPost2010Prop53
 90
        2
102
RTVSPost2010PropOp53
 70
     1
102
RTVSPost2010Prop54
  1
strokes_ogs.tif
102
RTVSPost2010PropOp54
 70
     1
102
RTVSPost2010Prop55
280
     0
102
RTVSPost2010PropOp55
 70
     1
102
RTVSPost2010Prop56
140
1.0
102
RTVSPost2010PropOp56
 70
     1
102
RTVSPost2010Prop57
140
1.0
102
RTVSPost2010PropOp57
 70
     1
  0
XRECORD
  5
3DA
102
{ACAD_REACTORS
330
3D9
102
}
330
3D9
100
AcDbXrecord
280
     1
102
RTVSPropertyOp0
 70
     0
102
RTVSPropertyOp1
 70
     0
102
RTVSPropertyOp2
 70
     0
102
RTVSPropertyOp3
 70
     0
102
RTVSPropertyOp4
 70
     0
102
RTVSPropertyOp5
 70
     0
102
RTVSPropertyOp6
 70
     0
102
RTVSPropertyOp7
 70
     0
102
RTVSPropertyOp8
 70
     0
102
RTVSPropertyOp9
 70
     0
102
RTVSPropertyOp10
 70
     0
102
RTVSPropertyOp11
 70
     0
102
RTVSPropertyOp12
 70
     0
102
RTVSPropertyOp13
 70
     0
102
RTVSPropertyOp14
 70
     2
102
RTVSPropertyOp15
 70
     0
102
RTVSPropertyOp16
 70
     0
102
RTVSPropertyOp17
 70
     0
102
RTVSPropertyOp18
 70
     0
102
RTVSPropertyOp19
 70
     0
102
RTVSPropertyOp20
 70
     0
102
RTVSPropertyOp21
 70
     0
102
RTVSPropertyOp22
 70
     0
102
RTVSPropertyOp23
 70
     0
102
RTVSPropertyOp24
 70
     0
102
RTVSPropertyOp25
 70
     0
102
RTVSPropertyOp26
 70
     0
102
RTVSPropertyOp27
 70
     0
102
RTVSPropertyOp28
 70
     0
102
RTVSPropertyOp29
 70
     0
102
RTVSPropertyOp30
 70
     0
102
RTVSPropertyOp31
 70
     0
102
RTVSPropertyOp32
 70
     0
102
RTVSPropertyOp33
 70
     0
102
RTVSPropertyOp34
 70
     0
102
RTVSPropertyOp35
 70
     0
102
RTVSPropertyOp36
 70
     0
102
RTVSPropertyOp37
 70
     0
102
RTVSPropertyOp38
 70
     0
102
RTVSPropertyOp39
 70
     0
102
RTVSPropertyOp40
 70
     0
102
RTVSPropertyOp41
 70
     0
102
RTVSPropertyOp42
 70
     0
102
RTVSPropertyOp43
 70
     0
102
RTVSPropertyOp44
 70
     0
102
RTVSPropertyOp45
 70
     0
102
RTVSPropertyOp46
 70
     0
102
RTVSPropertyOp47
 70
     0
102
RTVSPropertyOp48
 70
     0
102
RTVSPropertyOp49
 70
     0
102
RTVSPropertyOp50
 70
     0
102
RTVSPropertyOp51
 70
     0
102
RTVSPropertyOp52
 70
     0
102
RTVSPropertyOp53
 70
     0
102
RTVSPropertyOp54
 70
     0
102
RTVSPropertyOp55
 70
     0
102
RTVSPropertyOp56
 70
     0
102
RTVSPropertyOp57
 70
     0
102
RTVSPost2010Prop28
280
     0
102
RTVSPost2010PropOp28
 70
     0
102
RTVSPost2010Prop29
280
     1
102
RTVSPost2010PropOp29
 70
     0
102
RTVSPost2010Prop30
280
     1
102
RTVSPost2010PropOp30
 70
     0
102
RTVSPost2010Prop31
280
     0
102
RTVSPost2010PropOp31
 70
     0
102
RTVSPost2010Prop32
280
     0
102
RTVSPost2010PropOp32
 70
     0
102
RTVSPost2010Prop33
280
     0
102
RTVSPost2010PropOp33
 70
     0
102
RTVSPost2010Prop34
280
     0
102
RTVSPost2010PropOp34
 70
     0
102
RTVSPost2010Prop35
280
     0
102
RTVSPost2010PropOp35
 70
     0
102
RTVSPost2010Prop36
280
     0
102
RTVSPost2010PropOp36
 70
     0
102
RTVSPost2010Prop37
 90
       50
102
RTVSPost2010PropOp37
 70
     0
102
RTVSPost2010Prop38
140
0.0
102
RTVSPost2010PropOp38
 70
     0
102
RTVSPost2010Prop39
140
1.0
102
RTVSPost2010PropOp39
 70
     0
102
RTVSPost2010Prop40
 90
        0
102
RTVSPost2010PropOp40
 70
     0
102
RTVSPost2010Prop41ColorIndex
 90
       18
102
RTVSPost2010Prop41ColorRGB
 90
        0
102
RTVSPost2010PropOp41
 70
     0
102
RTVSPost2010Prop42
 90
       50
102
RTVSPost2010PropOp42
 70
     0
102
RTVSPost2010Prop43
 90
        3
102
RTVSPost2010PropOp43
 70
     0
102
RTVSPost2010Prop44ColorIndex
 90
        5
102
RTVSPost2010Prop44ColorRGB
 90
      255
102
RTVSPost2010PropOp44
 70
     0
102
RTVSPost2010Prop45
280
     0
102
RTVSPost2010PropOp45
 70
     0
102
RTVSPost2010Prop46
 90
       50
102
RTVSPost2010PropOp46
 70
     0
102
RTVSPost2010Prop47
 90
       50
102
RTVSPost2010PropOp47
 70
     0
102
RTVSPost2010Prop48
 90
       50
102
RTVSPost2010PropOp48
 70
     0
102
RTVSPost2010Prop49
280
     0
102
RTVSPost2010PropOp49
 70
     0
102
RTVSPost2010Prop50
 90
       50
102
RTVSPost2010PropOp50
 70
     0
102
RTVSPost2010Prop51ColorIndex
 90
      256
102
RTVSPost2010Prop51ColorRGB
 90
-16777216
102
RTVSPost2010PropOp51
 70
     0
102
RTVSPost2010Prop52
140
1.0
102
RTVSPost2010PropOp52
 70
     0
102
RTVSPost2010Prop53
 90
        2
102
RTVSPost2010PropOp53
 70
     0
102
RTVSPost2010Prop54
  1
strokes_ogs.tif
102
RTVSPost2010PropOp54
 70
     0
102
RTVSPost2010Prop55
280
     0
102
RTVSPost2010PropOp55
 70
     0
102
RTVSPost2010Prop56
140
1.0
102
RTVSPost2010PropOp56
 70
     0
102
RTVSPost2010Prop57
140
1.0
102
RTVSPost2010PropOp57
 70
     0
  0
XRECORD
  5
3D2
102
{ACAD_REACTORS
330
3D1
102
}
330
3D1
100
AcDbXrecord
280
     1
102
RTVSPropertyOp0
 70
     1
102
RTVSPropertyOp1
 70
     1
102
RTVSPropertyOp2
 70
     1
102
RTVSPropertyOp3
 70
     1
102
RTVSPropertyOp4
 70
     1
102
RTVSPropertyOp5
 70
     1
102
RTVSPropertyOp6
 70
     1
102
RTVSPropertyOp7
 70
     1
102
RTVSPropertyOp8
 70
     1
102
RTVSPropertyOp9
 70
     1
102
RTVSPropertyOp10
 70
     1
102
RTVSPropertyOp11
 70
     1
102
RTVSPropertyOp12
 70
     1
102
RTVSPropertyOp13
 70
     1
102
RTVSPropertyOp14
 70
     1
102
RTVSPropertyOp15
 70
     1
102
RTVSPropertyOp16
 70
     1
102
RTVSPropertyOp17
 70
     1
102
RTVSPropertyOp18
 70
     1
102
RTVSPropertyOp19
 70
     1
102
RTVSPropertyOp20
 70
     1
102
RTVSPropertyOp21
 70
     1
102
RTVSPropertyOp22
 70
     1
102
RTVSPropertyOp23
 70
     1
102
RTVSPropertyOp24
 70
     1
102
RTVSPropertyOp25
 70
     1
102
RTVSPropertyOp26
 70
     1
102
RTVSPropertyOp27
 70
     1
102
RTVSPropertyOp28
 70
     1
102
RTVSPropertyOp29
 70
     1
102
RTVSPropertyOp30
 70
     1
102
RTVSPropertyOp31
 70
     1
102
RTVSPropertyOp32
 70
     1
102
RTVSPropertyOp33
 70
     1
102
RTVSPropertyOp34
 70
     1
102
RTVSPropertyOp35
 70
     1
102
RTVSPropertyOp36
 70
     1
102
RTVSPropertyOp37
 70
     1
102
RTVSPropertyOp38
 70
     1
102
RTVSPropertyOp39
 70
     1
102
RTVSPropertyOp40
 70
     1
102
RTVSPropertyOp41
 70
     1
102
RTVSPropertyOp42
 70
     1
102
RTVSPropertyOp43
 70
     1
102
RTVSPropertyOp44
 70
     1
102
RTVSPropertyOp45
 70
     1
102
RTVSPropertyOp46
 70
     1
102
RTVSPropertyOp47
 70
     1
102
RTVSPropertyOp48
 70
     1
102
RTVSPropertyOp49
 70
     1
102
RTVSPropertyOp50
 70
     1
102
RTVSPropertyOp51
 70
     0
102
RTVSPropertyOp52
 70
     0
102
RTVSPropertyOp53
 70
     1
102
RTVSPropertyOp54
 70
     1
102
RTVSPropertyOp55
 70
     1
102
RTVSPropertyOp56
 70
     1
102
RTVSPropertyOp57
 70
     1
102
RTVSPost2010Prop28
280
     0
102
RTVSPost2010PropOp28
 70
     1
102
RTVSPost2010Prop29
280
     1
102
RTVSPost2010PropOp29
 70
     1
102
RTVSPost2010Prop30
280
     1
102
RTVSPost2010PropOp30
 70
     1
102
RTVSPost2010Prop31
280
     0
102
RTVSPost2010PropOp31
 70
     1
102
RTVSPost2010Prop32
280
     0
102
RTVSPost2010PropOp32
 70
     1
102
RTVSPost2010Prop33
280
     0
102
RTVSPost2010PropOp33
 70
     1
102
RTVSPost2010Prop34
280
     0
102
RTVSPost2010PropOp34
 70
     1
102
RTVSPost2010Prop35
280
     0
102
RTVSPost2010PropOp35
 70
     1
102
RTVSPost2010Prop36
280
     0
102
RTVSPost2010PropOp36
 70
     1
102
RTVSPost2010Prop37
 90
       50
102
RTVSPost2010PropOp37
 70
     1
102
RTVSPost2010Prop38
140
0.0
102
RTVSPost2010PropOp38
 70
     1
102
RTVSPost2010Prop39
140
1.0
102
RTVSPost2010PropOp39
 70
     1
102
RTVSPost2010Prop40
 90
        0
102
RTVSPost2010PropOp40
 70
     1
102
RTVSPost2010Prop41ColorIndex
 90
       18
102
RTVSPost2010Prop41ColorRGB
 90
        0
102
RTVSPost2010PropOp41
 70
     1
102
RTVSPost2010Prop42
 90
       50
102
RTVSPost2010PropOp42
 70
     1
102
RTVSPost2010Prop43
 90
        3
102
RTVSPost2010PropOp43
 70
     1
102
RTVSPost2010Prop44ColorIndex
 90
        5
102
RTVSPost2010Prop44ColorRGB
 90
      255
102
RTVSPost2010PropOp44
 70
     1
102
RTVSPost2010Prop45
280
     0
102
RTVSPost2010PropOp45
 70
     1
102
RTVSPost2010Prop46
 90
       50
102
RTVSPost2010PropOp46
 70
     1
102
RTVSPost2010Prop47
 90
       50
102
RTVSPost2010PropOp47
 70
     1
102
RTVSPost2010Prop48
 90
       50
102
RTVSPost2010PropOp48
 70
     1
102
RTVSPost2010Prop49
280
     0
102
RTVSPost2010PropOp49
 70
     1
102
RTVSPost2010Prop50
 90
       50
102
RTVSPost2010PropOp50
 70
     1
102
RTVSPost2010Prop51ColorIndex
 90
      256
102
RTVSPost2010Prop51ColorRGB
 90
-16777216
102
RTVSPost2010PropOp51
 70
     0
102
RTVSPost2010Prop52
140
1.0
102
RTVSPost2010PropOp52
 70
     0
102
RTVSPost2010Prop53
 90
        2
102
RTVSPost2010PropOp53
 70
     1
102
RTVSPost2010Prop54
  1
strokes_ogs.tif
102
RTVSPost2010PropOp54
 70
     1
102
RTVSPost2010Prop55
280
     0
102
RTVSPost2010PropOp55
 70
     1
102
RTVSPost2010Prop56
140
1.0
102
RTVSPost2010PropOp56
 70
     1
102
RTVSPost2010Prop57
140
1.0
102
RTVSPost2010PropOp57
 70
     1
  0
XRECORD
  5
3B6
102
{ACAD_REACTORS
330
3B5
102
}
330
3B5
100
AcDbXrecord
280
     1
102
RTVSPropertyOp0
 70
     1
102
RTVSPropertyOp1
 70
     1
102
RTVSPropertyOp2
 70
     1
102
RTVSPropertyOp3
 70
     1
102
RTVSPropertyOp4
 70
     1
102
RTVSPropertyOp5
 70
     1
102
RTVSPropertyOp6
 70
     1
102
RTVSPropertyOp7
 70
     1
102
RTVSPropertyOp8
 70
     1
102
RTVSPropertyOp9
 70
     1
102
RTVSPropertyOp10
 70
     1
102
RTVSPropertyOp11
 70
     1
102
RTVSPropertyOp12
 70
     1
102
RTVSPropertyOp13
 70
     1
102
RTVSPropertyOp14
 70
     1
102
RTVSPropertyOp15
 70
     1
102
RTVSPropertyOp16
 70
     1
102
RTVSPropertyOp17
 70
     1
102
RTVSPropertyOp18
 70
     1
102
RTVSPropertyOp19
 70
     1
102
RTVSPropertyOp20
 70
     1
102
RTVSPropertyOp21
 70
     1
102
RTVSPropertyOp22
 70
     1
102
RTVSPropertyOp23
 70
     1
102
RTVSPropertyOp24
 70
     1
102
RTVSPropertyOp25
 70
     1
102
RTVSPropertyOp26
 70
     1
102
RTVSPropertyOp27
 70
     1
102
RTVSPropertyOp28
 70
     1
102
RTVSPropertyOp29
 70
     1
102
RTVSPropertyOp30
 70
     1
102
RTVSPropertyOp31
 70
     1
102
RTVSPropertyOp32
 70
     1
102
RTVSPropertyOp33
 70
     1
102
RTVSPropertyOp34
 70
     1
102
RTVSPropertyOp35
 70
     1
102
RTVSPropertyOp36
 70
     1
102
RTVSPropertyOp37
 70
     1
102
RTVSPropertyOp38
 70
     1
102
RTVSPropertyOp39
 70
     1
102
RTVSPropertyOp40
 70
     1
102
RTVSPropertyOp41
 70
     1
102
RTVSPropertyOp42
 70
     1
102
RTVSPropertyOp43
 70
     1
102
RTVSPropertyOp44
 70
     1
102
RTVSPropertyOp45
 70
     1
102
RTVSPropertyOp46
 70
     1
102
RTVSPropertyOp47
 70
     1
102
RTVSPropertyOp48
 70
     1
102
RTVSPropertyOp49
 70
     1
102
RTVSPropertyOp50
 70
     1
102
RTVSPropertyOp51
 70
     0
102
RTVSPropertyOp52
 70
     0
102
RTVSPropertyOp53
 70
     1
102
RTVSPropertyOp54
 70
     1
102
RTVSPropertyOp55
 70
     1
102
RTVSPropertyOp56
 70
     1
102
RTVSPropertyOp57
 70
     1
102
RTVSPost2010Prop28
280
     0
102
RTVSPost2010PropOp28
 70
     1
102
RTVSPost2010Prop29
280
     1
102
RTVSPost2010PropOp29
 70
     1
102
RTVSPost2010Prop30
280
     1
102
RTVSPost2010PropOp30
 70
     1
102
RTVSPost2010Prop31
280
     0
102
RTVSPost2010PropOp31
 70
     1
102
RTVSPost2010Prop32
280
     0
102
RTVSPost2010PropOp32
 70
     1
102
RTVSPost2010Prop33
280
     0
102
RTVSPost2010PropOp33
 70
     1
102
RTVSPost2010Prop34
280
     0
102
RTVSPost2010PropOp34
 70
     1
102
RTVSPost2010Prop35
280
     0
102
RTVSPost2010PropOp35
 70
     1
102
RTVSPost2010Prop36
280
     0
102
RTVSPost2010PropOp36
 70
     1
102
RTVSPost2010Prop37
 90
       50
102
RTVSPost2010PropOp37
 70
     1
102
RTVSPost2010Prop38
140
0.0
102
RTVSPost2010PropOp38
 70
     1
102
RTVSPost2010Prop39
140
1.0
102
RTVSPost2010PropOp39
 70
     1
102
RTVSPost2010Prop40
 90
        0
102
RTVSPost2010PropOp40
 70
     1
102
RTVSPost2010Prop41ColorIndex
 90
       18
102
RTVSPost2010Prop41ColorRGB
 90
        0
102
RTVSPost2010PropOp41
 70
     1
102
RTVSPost2010Prop42
 90
       50
102
RTVSPost2010PropOp42
 70
     1
102
RTVSPost2010Prop43
 90
        3
102
RTVSPost2010PropOp43
 70
     1
102
RTVSPost2010Prop44ColorIndex
 90
        5
102
RTVSPost2010Prop44ColorRGB
 90
      255
102
RTVSPost2010PropOp44
 70
     1
102
RTVSPost2010Prop45
280
     0
102
RTVSPost2010PropOp45
 70
     1
102
RTVSPost2010Prop46
 90
       50
102
RTVSPost2010PropOp46
 70
     1
102
RTVSPost2010Prop47
 90
       50
102
RTVSPost2010PropOp47
 70
     1
102
RTVSPost2010Prop48
 90
       50
102
RTVSPost2010PropOp48
 70
     1
102
RTVSPost2010Prop49
280
     0
102
RTVSPost2010PropOp49
 70
     1
102
RTVSPost2010Prop50
 90
       50
102
RTVSPost2010PropOp50
 70
     1
102
RTVSPost2010Prop51ColorIndex
 90
      256
102
RTVSPost2010Prop51ColorRGB
 90
-16777216
102
RTVSPost2010PropOp51
 70
     0
102
RTVSPost2010Prop52
140
1.0
102
RTVSPost2010PropOp52
 70
     0
102
RTVSPost2010Prop53
 90
        2
102
RTVSPost2010PropOp53
 70
     1
102
RTVSPost2010Prop54
  1
strokes_ogs.tif
102
RTVSPost2010PropOp54
 70
     1
102
RTVSPost2010Prop55
280
     0
102
RTVSPost2010PropOp55
 70
     1
102
RTVSPost2010Prop56
140
1.0
102
RTVSPost2010PropOp56
 70
     1
102
RTVSPost2010Prop57
140
1.0
102
RTVSPost2010PropOp57
 70
     1
  0
XRECORD
  5
3B8
102
{ACAD_REACTORS
330
3B7
102
}
330
3B7
100
AcDbXrecord
280
     1
102
RTVSPropertyOp0
 70
     1
102
RTVSPropertyOp1
 70
     1
102
RTVSPropertyOp2
 70
     1
102
RTVSPropertyOp3
 70
     1
102
RTVSPropertyOp4
 70
     1
102
RTVSPropertyOp5
 70
     1
102
RTVSPropertyOp6
 70
     1
102
RTVSPropertyOp7
 70
     1
102
RTVSPropertyOp8
 70
     1
102
RTVSPropertyOp9
 70
     1
102
RTVSPropertyOp10
 70
     1
102
RTVSPropertyOp11
 70
     1
102
RTVSPropertyOp12
 70
     1
102
RTVSPropertyOp13
 70
     1
102
RTVSPropertyOp14
 70
     1
102
RTVSPropertyOp15
 70
     1
102
RTVSPropertyOp16
 70
     1
102
RTVSPropertyOp17
 70
     1
102
RTVSPropertyOp18
 70
     1
102
RTVSPropertyOp19
 70
     1
102
RTVSPropertyOp20
 70
     1
102
RTVSPropertyOp21
 70
     1
102
RTVSPropertyOp22
 70
     1
102
RTVSPropertyOp23
 70
     1
102
RTVSPropertyOp24
 70
     1
102
RTVSPropertyOp25
 70
     1
102
RTVSPropertyOp26
 70
     1
102
RTVSPropertyOp27
 70
     1
102
RTVSPropertyOp28
 70
     1
102
RTVSPropertyOp29
 70
     1
102
RTVSPropertyOp30
 70
     1
102
RTVSPropertyOp31
 70
     1
102
RTVSPropertyOp32
 70
     1
102
RTVSPropertyOp33
 70
     1
102
RTVSPropertyOp34
 70
     1
102
RTVSPropertyOp35
 70
     1
102
RTVSPropertyOp36
 70
     1
102
RTVSPropertyOp37
 70
     1
102
RTVSPropertyOp38
 70
     1
102
RTVSPropertyOp39
 70
     1
102
RTVSPropertyOp40
 70
     1
102
RTVSPropertyOp41
 70
     1
102
RTVSPropertyOp42
 70
     1
102
RTVSPropertyOp43
 70
     1
102
RTVSPropertyOp44
 70
     1
102
RTVSPropertyOp45
 70
     1
102
RTVSPropertyOp46
 70
     1
102
RTVSPropertyOp47
 70
     1
102
RTVSPropertyOp48
 70
     1
102
RTVSPropertyOp49
 70
     1
102
RTVSPropertyOp50
 70
     1
102
RTVSPropertyOp51
 70
     0
102
RTVSPropertyOp52
 70
     0
102
RTVSPropertyOp53
 70
     1
102
RTVSPropertyOp54
 70
     1
102
RTVSPropertyOp55
 70
     1
102
RTVSPropertyOp56
 70
     1
102
RTVSPropertyOp57
 70
     1
102
RTVSPost2010Prop28
280
     0
102
RTVSPost2010PropOp28
 70
     1
102
RTVSPost2010Prop29
280
     1
102
RTVSPost2010PropOp29
 70
     1
102
RTVSPost2010Prop30
280
     1
102
RTVSPost2010PropOp30
 70
     1
102
RTVSPost2010Prop31
280
     0
102
RTVSPost2010PropOp31
 70
     1
102
RTVSPost2010Prop32
280
     0
102
RTVSPost2010PropOp32
 70
     1
102
RTVSPost2010Prop33
280
     0
102
RTVSPost2010PropOp33
 70
     1
102
RTVSPost2010Prop34
280
     0
102
RTVSPost2010PropOp34
 70
     1
102
RTVSPost2010Prop35
280
     0
102
RTVSPost2010PropOp35
 70
     1
102
RTVSPost2010Prop36
280
     0
102
RTVSPost2010PropOp36
 70
     1
102
RTVSPost2010Prop37
 90
       50
102
RTVSPost2010PropOp37
 70
     1
102
RTVSPost2010Prop38
140
0.0
102
RTVSPost2010PropOp38
 70
     1
102
RTVSPost2010Prop39
140
1.0
102
RTVSPost2010PropOp39
 70
     1
102
RTVSPost2010Prop40
 90
        0
102
RTVSPost2010PropOp40
 70
     1
102
RTVSPost2010Prop41ColorIndex
 90
       18
102
RTVSPost2010Prop41ColorRGB
 90
        0
102
RTVSPost2010PropOp41
 70
     1
102
RTVSPost2010Prop42
 90
       50
102
RTVSPost2010PropOp42
 70
     1
102
RTVSPost2010Prop43
 90
        3
102
RTVSPost2010PropOp43
 70
     1
102
RTVSPost2010Prop44ColorIndex
 90
        5
102
RTVSPost2010Prop44ColorRGB
 90
      255
102
RTVSPost2010PropOp44
 70
     1
102
RTVSPost2010Prop45
280
     0
102
RTVSPost2010PropOp45
 70
     1
102
RTVSPost2010Prop46
 90
       50
102
RTVSPost2010PropOp46
 70
     1
102
RTVSPost2010Prop47
 90
       50
102
RTVSPost2010PropOp47
 70
     1
102
RTVSPost2010Prop48
 90
       50
102
RTVSPost2010PropOp48
 70
     1
102
RTVSPost2010Prop49
280
     0
102
RTVSPost2010PropOp49
 70
     1
102
RTVSPost2010Prop50
 90
       50
102
RTVSPost2010PropOp50
 70
     1
102
RTVSPost2010Prop51ColorIndex
 90
      256
102
RTVSPost2010Prop51ColorRGB
 90
-16777216
102
RTVSPost2010PropOp51
 70
     0
102
RTVSPost2010Prop52
140
1.0
102
RTVSPost2010PropOp52
 70
     0
102
RTVSPost2010Prop53
 90
        2
102
RTVSPost2010PropOp53
 70
     1
102
RTVSPost2010Prop54
  1
strokes_ogs.tif
102
RTVSPost2010PropOp54
 70
     1
102
RTVSPost2010Prop55
280
     0
102
RTVSPost2010PropOp55
 70
     1
102
RTVSPost2010Prop56
140
1.0
102
RTVSPost2010PropOp56
 70
     1
102
RTVSPost2010Prop57
140
1.0
102
RTVSPost2010PropOp57
 70
     1
  0
XRECORD
  5
3BA
102
{ACAD_REACTORS
330
3B9
102
}
330
3B9
100
AcDbXrecord
280
     1
102
RTVSPropertyOp0
 70
     1
102
RTVSPropertyOp1
 70
     1
102
RTVSPropertyOp2
 70
     1
102
RTVSPropertyOp3
 70
     1
102
RTVSPropertyOp4
 70
     1
102
RTVSPropertyOp5
 70
     1
102
RTVSPropertyOp6
 70
     1
102
RTVSPropertyOp7
 70
     1
102
RTVSPropertyOp8
 70
     1
102
RTVSPropertyOp9
 70
     1
102
RTVSPropertyOp10
 70
     1
102
RTVSPropertyOp11
 70
     1
102
RTVSPropertyOp12
 70
     1
102
RTVSPropertyOp13
 70
     1
102
RTVSPropertyOp14
 70
     1
102
RTVSPropertyOp15
 70
     1
102
RTVSPropertyOp16
 70
     1
102
RTVSPropertyOp17
 70
     1
102
RTVSPropertyOp18
 70
     1
102
RTVSPropertyOp19
 70
     1
102
RTVSPropertyOp20
 70
     1
102
RTVSPropertyOp21
 70
     1
102
RTVSPropertyOp22
 70
     1
102
RTVSPropertyOp23
 70
     1
102
RTVSPropertyOp24
 70
     1
102
RTVSPropertyOp25
 70
     1
102
RTVSPropertyOp26
 70
     1
102
RTVSPropertyOp27
 70
     1
102
RTVSPropertyOp28
 70
     1
102
RTVSPropertyOp29
 70
     1
102
RTVSPropertyOp30
 70
     1
102
RTVSPropertyOp31
 70
     1
102
RTVSPropertyOp32
 70
     1
102
RTVSPropertyOp33
 70
     1
102
RTVSPropertyOp34
 70
     1
102
RTVSPropertyOp35
 70
     1
102
RTVSPropertyOp36
 70
     1
102
RTVSPropertyOp37
 70
     1
102
RTVSPropertyOp38
 70
     1
102
RTVSPropertyOp39
 70
     1
102
RTVSPropertyOp40
 70
     1
102
RTVSPropertyOp41
 70
     1
102
RTVSPropertyOp42
 70
     1
102
RTVSPropertyOp43
 70
     1
102
RTVSPropertyOp44
 70
     1
102
RTVSPropertyOp45
 70
     1
102
RTVSPropertyOp46
 70
     1
102
RTVSPropertyOp47
 70
     1
102
RTVSPropertyOp48
 70
     1
102
RTVSPropertyOp49
 70
     1
102
RTVSPropertyOp50
 70
     1
102
RTVSPropertyOp51
 70
     0
102
RTVSPropertyOp52
 70
     0
102
RTVSPropertyOp53
 70
     1
102
RTVSPropertyOp54
 70
     1
102
RTVSPropertyOp55
 70
     1
102
RTVSPropertyOp56
 70
     1
102
RTVSPropertyOp57
 70
     1
102
RTVSPost2010Prop28
280
     0
102
RTVSPost2010PropOp28
 70
     1
102
RTVSPost2010Prop29
280
     1
102
RTVSPost2010PropOp29
 70
     1
102
RTVSPost2010Prop30
280
     1
102
RTVSPost2010PropOp30
 70
     1
102
RTVSPost2010Prop31
280
     0
102
RTVSPost2010PropOp31
 70
     1
102
RTVSPost2010Prop32
280
     0
102
RTVSPost2010PropOp32
 70
     1
102
RTVSPost2010Prop33
280
     0
102
RTVSPost2010PropOp33
 70
     1
102
RTVSPost2010Prop34
280
     0
102
RTVSPost2010PropOp34
 70
     1
102
RTVSPost2010Prop35
280
     0
102
RTVSPost2010PropOp35
 70
     1
102
RTVSPost2010Prop36
280
     0
102
RTVSPost2010PropOp36
 70
     1
102
RTVSPost2010Prop37
 90
       50
102
RTVSPost2010PropOp37
 70
     1
102
RTVSPost2010Prop38
140
0.0
102
RTVSPost2010PropOp38
 70
     1
102
RTVSPost2010Prop39
140
1.0
102
RTVSPost2010PropOp39
 70
     1
102
RTVSPost2010Prop40
 90
        0
102
RTVSPost2010PropOp40
 70
     1
102
RTVSPost2010Prop41ColorIndex
 90
       18
102
RTVSPost2010Prop41ColorRGB
 90
        0
102
RTVSPost2010PropOp41
 70
     1
102
RTVSPost2010Prop42
 90
       50
102
RTVSPost2010PropOp42
 70
     1
102
RTVSPost2010Prop43
 90
        3
102
RTVSPost2010PropOp43
 70
     1
102
RTVSPost2010Prop44ColorIndex
 90
        5
102
RTVSPost2010Prop44ColorRGB
 90
      255
102
RTVSPost2010PropOp44
 70
     1
102
RTVSPost2010Prop45
280
     0
102
RTVSPost2010PropOp45
 70
     1
102
RTVSPost2010Prop46
 90
       50
102
RTVSPost2010PropOp46
 70
     1
102
RTVSPost2010Prop47
 90
       50
102
RTVSPost2010PropOp47
 70
     1
102
RTVSPost2010Prop48
 90
       50
102
RTVSPost2010PropOp48
 70
     1
102
RTVSPost2010Prop49
280
     0
102
RTVSPost2010PropOp49
 70
     1
102
RTVSPost2010Prop50
 90
       50
102
RTVSPost2010PropOp50
 70
     1
102
RTVSPost2010Prop51ColorIndex
 90
      256
102
RTVSPost2010Prop51ColorRGB
 90
-16777216
102
RTVSPost2010PropOp51
 70
     0
102
RTVSPost2010Prop52
140
1.0
102
RTVSPost2010PropOp52
 70
     0
102
RTVSPost2010Prop53
 90
        2
102
RTVSPost2010PropOp53
 70
     1
102
RTVSPost2010Prop54
  1
strokes_ogs.tif
102
RTVSPost2010PropOp54
 70
     1
102
RTVSPost2010Prop55
280
     0
102
RTVSPost2010PropOp55
 70
     1
102
RTVSPost2010Prop56
140
1.0
102
RTVSPost2010PropOp56
 70
     1
102
RTVSPost2010Prop57
140
1.0
102
RTVSPost2010PropOp57
 70
     1
  0
XRECORD
  5
3BC
102
{ACAD_REACTORS
330
3BB
102
}
330
3BB
100
AcDbXrecord
280
     1
102
RTVSPropertyOp0
 70
     1
102
RTVSPropertyOp1
 70
     1
102
RTVSPropertyOp2
 70
     1
102
RTVSPropertyOp3
 70
     1
102
RTVSPropertyOp4
 70
     1
102
RTVSPropertyOp5
 70
     1
102
RTVSPropertyOp6
 70
     1
102
RTVSPropertyOp7
 70
     1
102
RTVSPropertyOp8
 70
     1
102
RTVSPropertyOp9
 70
     1
102
RTVSPropertyOp10
 70
     1
102
RTVSPropertyOp11
 70
     1
102
RTVSPropertyOp12
 70
     1
102
RTVSPropertyOp13
 70
     1
102
RTVSPropertyOp14
 70
     1
102
RTVSPropertyOp15
 70
     1
102
RTVSPropertyOp16
 70
     1
102
RTVSPropertyOp17
 70
     1
102
RTVSPropertyOp18
 70
     1
102
RTVSPropertyOp19
 70
     1
102
RTVSPropertyOp20
 70
     1
102
RTVSPropertyOp21
 70
     1
102
RTVSPropertyOp22
 70
     1
102
RTVSPropertyOp23
 70
     1
102
RTVSPropertyOp24
 70
     1
102
RTVSPropertyOp25
 70
     1
102
RTVSPropertyOp26
 70
     1
102
RTVSPropertyOp27
 70
     1
102
RTVSPropertyOp28
 70
     1
102
RTVSPropertyOp29
 70
     1
102
RTVSPropertyOp30
 70
     1
102
RTVSPropertyOp31
 70
     1
102
RTVSPropertyOp32
 70
     1
102
RTVSPropertyOp33
 70
     1
102
RTVSPropertyOp34
 70
     1
102
RTVSPropertyOp35
 70
     1
102
RTVSPropertyOp36
 70
     1
102
RTVSPropertyOp37
 70
     1
102
RTVSPropertyOp38
 70
     1
102
RTVSPropertyOp39
 70
     1
102
RTVSPropertyOp40
 70
     1
102
RTVSPropertyOp41
 70
     1
102
RTVSPropertyOp42
 70
     1
102
RTVSPropertyOp43
 70
     1
102
RTVSPropertyOp44
 70
     1
102
RTVSPropertyOp45
 70
     1
102
RTVSPropertyOp46
 70
     1
102
RTVSPropertyOp47
 70
     1
102
RTVSPropertyOp48
 70
     1
102
RTVSPropertyOp49
 70
     1
102
RTVSPropertyOp50
 70
     1
102
RTVSPropertyOp51
 70
     0
102
RTVSPropertyOp52
 70
     0
102
RTVSPropertyOp53
 70
     1
102
RTVSPropertyOp54
 70
     1
102
RTVSPropertyOp55
 70
     1
102
RTVSPropertyOp56
 70
     1
102
RTVSPropertyOp57
 70
     1
102
RTVSPost2010Prop28
280
     0
102
RTVSPost2010PropOp28
 70
     1
102
RTVSPost2010Prop29
280
     1
102
RTVSPost2010PropOp29
 70
     1
102
RTVSPost2010Prop30
280
     1
102
RTVSPost2010PropOp30
 70
     1
102
RTVSPost2010Prop31
280
     0
102
RTVSPost2010PropOp31
 70
     1
102
RTVSPost2010Prop32
280
     0
102
RTVSPost2010PropOp32
 70
     1
102
RTVSPost2010Prop33
280
     0
102
RTVSPost2010PropOp33
 70
     1
102
RTVSPost2010Prop34
280
     0
102
RTVSPost2010PropOp34
 70
     1
102
RTVSPost2010Prop35
280
     0
102
RTVSPost2010PropOp35
 70
     1
102
RTVSPost2010Prop36
280
     0
102
RTVSPost2010PropOp36
 70
     1
102
RTVSPost2010Prop37
 90
       50
102
RTVSPost2010PropOp37
 70
     1
102
RTVSPost2010Prop38
140
0.0
102
RTVSPost2010PropOp38
 70
     1
102
RTVSPost2010Prop39
140
1.0
102
RTVSPost2010PropOp39
 70
     1
102
RTVSPost2010Prop40
 90
        0
102
RTVSPost2010PropOp40
 70
     1
102
RTVSPost2010Prop41ColorIndex
 90
       18
102
RTVSPost2010Prop41ColorRGB
 90
        0
102
RTVSPost2010PropOp41
 70
     1
102
RTVSPost2010Prop42
 90
       50
102
RTVSPost2010PropOp42
 70
     1
102
RTVSPost2010Prop43
 90
        3
102
RTVSPost2010PropOp43
 70
     1
102
RTVSPost2010Prop44ColorIndex
 90
        5
102
RTVSPost2010Prop44ColorRGB
 90
      255
102
RTVSPost2010PropOp44
 70
     1
102
RTVSPost2010Prop45
280
     0
102
RTVSPost2010PropOp45
 70
     1
102
RTVSPost2010Prop46
 90
       50
102
RTVSPost2010PropOp46
 70
     1
102
RTVSPost2010Prop47
 90
       50
102
RTVSPost2010PropOp47
 70
     1
102
RTVSPost2010Prop48
 90
       50
102
RTVSPost2010PropOp48
 70
     1
102
RTVSPost2010Prop49
280
     0
102
RTVSPost2010PropOp49
 70
     1
102
RTVSPost2010Prop50
 90
       50
102
RTVSPost2010PropOp50
 70
     1
102
RTVSPost2010Prop51ColorIndex
 90
      256
102
RTVSPost2010Prop51ColorRGB
 90
-16777216
102
RTVSPost2010PropOp51
 70
     0
102
RTVSPost2010Prop52
140
1.0
102
RTVSPost2010PropOp52
 70
     0
102
RTVSPost2010Prop53
 90
        2
102
RTVSPost2010PropOp53
 70
     1
102
RTVSPost2010Prop54
  1
strokes_ogs.tif
102
RTVSPost2010PropOp54
 70
     1
102
RTVSPost2010Prop55
280
     0
102
RTVSPost2010PropOp55
 70
     1
102
RTVSPost2010Prop56
140
1.0
102
RTVSPost2010PropOp56
 70
     1
102
RTVSPost2010Prop57
140
1.0
102
RTVSPost2010PropOp57
 70
     1
  0
XRECORD
  5
3C2
102
{ACAD_REACTORS
330
3C1
102
}
330
3C1
100
AcDbXrecord
280
     1
102
RTVSPropertyOp0
 70
     1
102
RTVSPropertyOp1
 70
     1
102
RTVSPropertyOp2
 70
     1
102
RTVSPropertyOp3
 70
     1
102
RTVSPropertyOp4
 70
     1
102
RTVSPropertyOp5
 70
     1
102
RTVSPropertyOp6
 70
     1
102
RTVSPropertyOp7
 70
     1
102
RTVSPropertyOp8
 70
     1
102
RTVSPropertyOp9
 70
     1
102
RTVSPropertyOp10
 70
     1
102
RTVSPropertyOp11
 70
     1
102
RTVSPropertyOp12
 70
     1
102
RTVSPropertyOp13
 70
     1
102
RTVSPropertyOp14
 70
     1
102
RTVSPropertyOp15
 70
     1
102
RTVSPropertyOp16
 70
     1
102
RTVSPropertyOp17
 70
     1
102
RTVSPropertyOp18
 70
     1
102
RTVSPropertyOp19
 70
     1
102
RTVSPropertyOp20
 70
     1
102
RTVSPropertyOp21
 70
     1
102
RTVSPropertyOp22
 70
     1
102
RTVSPropertyOp23
 70
     1
102
RTVSPropertyOp24
 70
     1
102
RTVSPropertyOp25
 70
     1
102
RTVSPropertyOp26
 70
     1
102
RTVSPropertyOp27
 70
     1
102
RTVSPropertyOp28
 70
     1
102
RTVSPropertyOp29
 70
     1
102
RTVSPropertyOp30
 70
     1
102
RTVSPropertyOp31
 70
     1
102
RTVSPropertyOp32
 70
     1
102
RTVSPropertyOp33
 70
     1
102
RTVSPropertyOp34
 70
     1
102
RTVSPropertyOp35
 70
     1
102
RTVSPropertyOp36
 70
     1
102
RTVSPropertyOp37
 70
     1
102
RTVSPropertyOp38
 70
     1
102
RTVSPropertyOp39
 70
     1
102
RTVSPropertyOp40
 70
     1
102
RTVSPropertyOp41
 70
     1
102
RTVSPropertyOp42
 70
     1
102
RTVSPropertyOp43
 70
     1
102
RTVSPropertyOp44
 70
     1
102
RTVSPropertyOp45
 70
     1
102
RTVSPropertyOp46
 70
     1
102
RTVSPropertyOp47
 70
     1
102
RTVSPropertyOp48
 70
     1
102
RTVSPropertyOp49
 70
     1
102
RTVSPropertyOp50
 70
     1
102
RTVSPropertyOp51
 70
     0
102
RTVSPropertyOp52
 70
     0
102
RTVSPropertyOp53
 70
     1
102
RTVSPropertyOp54
 70
     1
102
RTVSPropertyOp55
 70
     1
102
RTVSPropertyOp56
 70
     1
102
RTVSPropertyOp57
 70
     1
102
RTVSPost2010Prop28
280
     0
102
RTVSPost2010PropOp28
 70
     1
102
RTVSPost2010Prop29
280
     1
102
RTVSPost2010PropOp29
 70
     1
102
RTVSPost2010Prop30
280
     1
102
RTVSPost2010PropOp30
 70
     1
102
RTVSPost2010Prop31
280
     0
102
RTVSPost2010PropOp31
 70
     1
102
RTVSPost2010Prop32
280
     0
102
RTVSPost2010PropOp32
 70
     1
102
RTVSPost2010Prop33
280
     0
102
RTVSPost2010PropOp33
 70
     1
102
RTVSPost2010Prop34
280
     0
102
RTVSPost2010PropOp34
 70
     1
102
RTVSPost2010Prop35
280
     0
102
RTVSPost2010PropOp35
 70
     1
102
RTVSPost2010Prop36
280
     0
102
RTVSPost2010PropOp36
 70
     1
102
RTVSPost2010Prop37
 90
       50
102
RTVSPost2010PropOp37
 70
     1
102
RTVSPost2010Prop38
140
0.0
102
RTVSPost2010PropOp38
 70
     1
102
RTVSPost2010Prop39
140
1.0
102
RTVSPost2010PropOp39
 70
     1
102
RTVSPost2010Prop40
 90
        0
102
RTVSPost2010PropOp40
 70
     1
102
RTVSPost2010Prop41ColorIndex
 90
       18
102
RTVSPost2010Prop41ColorRGB
 90
        0
102
RTVSPost2010PropOp41
 70
     1
102
RTVSPost2010Prop42
 90
       50
102
RTVSPost2010PropOp42
 70
     1
102
RTVSPost2010Prop43
 90
        3
102
RTVSPost2010PropOp43
 70
     1
102
RTVSPost2010Prop44ColorIndex
 90
        5
102
RTVSPost2010Prop44ColorRGB
 90
      255
102
RTVSPost2010PropOp44
 70
     1
102
RTVSPost2010Prop45
280
     0
102
RTVSPost2010PropOp45
 70
     1
102
RTVSPost2010Prop46
 90
       50
102
RTVSPost2010PropOp46
 70
     1
102
RTVSPost2010Prop47
 90
       50
102
RTVSPost2010PropOp47
 70
     1
102
RTVSPost2010Prop48
 90
       50
102
RTVSPost2010PropOp48
 70
     1
102
RTVSPost2010Prop49
280
     0
102
RTVSPost2010PropOp49
 70
     1
102
RTVSPost2010Prop50
 90
       50
102
RTVSPost2010PropOp50
 70
     1
102
RTVSPost2010Prop51ColorIndex
 90
      256
102
RTVSPost2010Prop51ColorRGB
 90
-16777216
102
RTVSPost2010PropOp51
 70
     0
102
RTVSPost2010Prop52
140
1.0
102
RTVSPost2010PropOp52
 70
     0
102
RTVSPost2010Prop53
 90
        2
102
RTVSPost2010PropOp53
 70
     1
102
RTVSPost2010Prop54
  1
strokes_ogs.tif
102
RTVSPost2010PropOp54
 70
     1
102
RTVSPost2010Prop55
280
     0
102
RTVSPost2010PropOp55
 70
     1
102
RTVSPost2010Prop56
140
1.0
102
RTVSPost2010PropOp56
 70
     1
102
RTVSPost2010Prop57
140
1.0
102
RTVSPost2010PropOp57
 70
     1
  0
XRECORD
  5
3D6
102
{ACAD_REACTORS
330
3D5
102
}
330
3D5
100
AcDbXrecord
280
     1
102
RTVSPropertyOp0
 70
     0
102
RTVSPropertyOp1
 70
     0
102
RTVSPropertyOp2
 70
     0
102
RTVSPropertyOp3
 70
     0
102
RTVSPropertyOp4
 70
     0
102
RTVSPropertyOp5
 70
     0
102
RTVSPropertyOp6
 70
     0
102
RTVSPropertyOp7
 70
     0
102
RTVSPropertyOp8
 70
     0
102
RTVSPropertyOp9
 70
     0
102
RTVSPropertyOp10
 70
     0
102
RTVSPropertyOp11
 70
     0
102
RTVSPropertyOp12
 70
     0
102
RTVSPropertyOp13
 70
     0
102
RTVSPropertyOp14
 70
     2
102
RTVSPropertyOp15
 70
     0
102
RTVSPropertyOp16
 70
     0
102
RTVSPropertyOp17
 70
     0
102
RTVSPropertyOp18
 70
     0
102
RTVSPropertyOp19
 70
     0
102
RTVSPropertyOp20
 70
     0
102
RTVSPropertyOp21
 70
     0
102
RTVSPropertyOp22
 70
     0
102
RTVSPropertyOp23
 70
     0
102
RTVSPropertyOp24
 70
     0
102
RTVSPropertyOp25
 70
     0
102
RTVSPropertyOp26
 70
     0
102
RTVSPropertyOp27
 70
     0
102
RTVSPropertyOp28
 70
     0
102
RTVSPropertyOp29
 70
     0
102
RTVSPropertyOp30
 70
     0
102
RTVSPropertyOp31
 70
     0
102
RTVSPropertyOp32
 70
     0
102
RTVSPropertyOp33
 70
     0
102
RTVSPropertyOp34
 70
     0
102
RTVSPropertyOp35
 70
     0
102
RTVSPropertyOp36
 70
     0
102
RTVSPropertyOp37
 70
     0
102
RTVSPropertyOp38
 70
     0
102
RTVSPropertyOp39
 70
     0
102
RTVSPropertyOp40
 70
     0
102
RTVSPropertyOp41
 70
     0
102
RTVSPropertyOp42
 70
     0
102
RTVSPropertyOp43
 70
     0
102
RTVSPropertyOp44
 70
     0
102
RTVSPropertyOp45
 70
     0
102
RTVSPropertyOp46
 70
     0
102
RTVSPropertyOp47
 70
     0
102
RTVSPropertyOp48
 70
     0
102
RTVSPropertyOp49
 70
     0
102
RTVSPropertyOp50
 70
     0
102
RTVSPropertyOp51
 70
     0
102
RTVSPropertyOp52
 70
     0
102
RTVSPropertyOp53
 70
     0
102
RTVSPropertyOp54
 70
     0
102
RTVSPropertyOp55
 70
     0
102
RTVSPropertyOp56
 70
     0
102
RTVSPropertyOp57
 70
     0
102
RTVSPost2010Prop28
280
     0
102
RTVSPost2010PropOp28
 70
     0
102
RTVSPost2010Prop29
280
     1
102
RTVSPost2010PropOp29
 70
     0
102
RTVSPost2010Prop30
280
     1
102
RTVSPost2010PropOp30
 70
     0
102
RTVSPost2010Prop31
280
     0
102
RTVSPost2010PropOp31
 70
     0
102
RTVSPost2010Prop32
280
     0
102
RTVSPost2010PropOp32
 70
     0
102
RTVSPost2010Prop33
280
     0
102
RTVSPost2010PropOp33
 70
     0
102
RTVSPost2010Prop34
280
     0
102
RTVSPost2010PropOp34
 70
     0
102
RTVSPost2010Prop35
280
     0
102
RTVSPost2010PropOp35
 70
     0
102
RTVSPost2010Prop36
280
     0
102
RTVSPost2010PropOp36
 70
     0
102
RTVSPost2010Prop37
 90
       50
102
RTVSPost2010PropOp37
 70
     0
102
RTVSPost2010Prop38
140
0.0
102
RTVSPost2010PropOp38
 70
     0
102
RTVSPost2010Prop39
140
1.0
102
RTVSPost2010PropOp39
 70
     0
102
RTVSPost2010Prop40
 90
        0
102
RTVSPost2010PropOp40
 70
     0
102
RTVSPost2010Prop41ColorIndex
 90
       18
102
RTVSPost2010Prop41ColorRGB
 90
        0
102
RTVSPost2010PropOp41
 70
     0
102
RTVSPost2010Prop42
 90
       50
102
RTVSPost2010PropOp42
 70
     0
102
RTVSPost2010Prop43
 90
        3
102
RTVSPost2010PropOp43
 70
     0
102
RTVSPost2010Prop44ColorIndex
 90
        5
102
RTVSPost2010Prop44ColorRGB
 90
      255
102
RTVSPost2010PropOp44
 70
     0
102
RTVSPost2010Prop45
280
     0
102
RTVSPost2010PropOp45
 70
     0
102
RTVSPost2010Prop46
 90
       50
102
RTVSPost2010PropOp46
 70
     0
102
RTVSPost2010Prop47
 90
       50
102
RTVSPost2010PropOp47
 70
     0
102
RTVSPost2010Prop48
 90
       50
102
RTVSPost2010PropOp48
 70
     0
102
RTVSPost2010Prop49
280
     0
102
RTVSPost2010PropOp49
 70
     0
102
RTVSPost2010Prop50
 90
       50
102
RTVSPost2010PropOp50
 70
     0
102
RTVSPost2010Prop51ColorIndex
 90
      256
102
RTVSPost2010Prop51ColorRGB
 90
-16777216
102
RTVSPost2010PropOp51
 70
     0
102
RTVSPost2010Prop52
140
1.0
102
RTVSPost2010PropOp52
 70
     0
102
RTVSPost2010Prop53
 90
        2
102
RTVSPost2010PropOp53
 70
     0
102
RTVSPost2010Prop54
  1
strokes_ogs.tif
102
RTVSPost2010PropOp54
 70
     0
102
RTVSPost2010Prop55
280
     0
102
RTVSPost2010PropOp55
 70
     0
102
RTVSPost2010Prop56
140
1.0
102
RTVSPost2010PropOp56
 70
     0
102
RTVSPost2010Prop57
140
1.0
102
RTVSPost2010PropOp57
 70
     0
  0
XRECORD
  5
3D0
102
{ACAD_REACTORS
330
3CF
102
}
330
3CF
100
AcDbXrecord
280
     1
102
RTVSPropertyOp0
 70
     1
102
RTVSPropertyOp1
 70
     1
102
RTVSPropertyOp2
 70
     1
102
RTVSPropertyOp3
 70
     1
102
RTVSPropertyOp4
 70
     1
102
RTVSPropertyOp5
 70
     1
102
RTVSPropertyOp6
 70
     1
102
RTVSPropertyOp7
 70
     1
102
RTVSPropertyOp8
 70
     1
102
RTVSPropertyOp9
 70
     1
102
RTVSPropertyOp10
 70
     1
102
RTVSPropertyOp11
 70
     1
102
RTVSPropertyOp12
 70
     1
102
RTVSPropertyOp13
 70
     1
102
RTVSPropertyOp14
 70
     1
102
RTVSPropertyOp15
 70
     1
102
RTVSPropertyOp16
 70
     1
102
RTVSPropertyOp17
 70
     1
102
RTVSPropertyOp18
 70
     1
102
RTVSPropertyOp19
 70
     1
102
RTVSPropertyOp20
 70
     1
102
RTVSPropertyOp21
 70
     1
102
RTVSPropertyOp22
 70
     1
102
RTVSPropertyOp23
 70
     1
102
RTVSPropertyOp24
 70
     1
102
RTVSPropertyOp25
 70
     1
102
RTVSPropertyOp26
 70
     1
102
RTVSPropertyOp27
 70
     1
102
RTVSPropertyOp28
 70
     1
102
RTVSPropertyOp29
 70
     1
102
RTVSPropertyOp30
 70
     1
102
RTVSPropertyOp31
 70
     1
102
RTVSPropertyOp32
 70
     1
102
RTVSPropertyOp33
 70
     1
102
RTVSPropertyOp34
 70
     1
102
RTVSPropertyOp35
 70
     1
102
RTVSPropertyOp36
 70
     1
102
RTVSPropertyOp37
 70
     1
102
RTVSPropertyOp38
 70
     1
102
RTVSPropertyOp39
 70
     1
102
RTVSPropertyOp40
 70
     1
102
RTVSPropertyOp41
 70
     1
102
RTVSPropertyOp42
 70
     1
102
RTVSPropertyOp43
 70
     1
102
RTVSPropertyOp44
 70
     1
102
RTVSPropertyOp45
 70
     1
102
RTVSPropertyOp46
 70
     1
102
RTVSPropertyOp47
 70
     1
102
RTVSPropertyOp48
 70
     1
102
RTVSPropertyOp49
 70
     1
102
RTVSPropertyOp50
 70
     1
102
RTVSPropertyOp51
 70
     0
102
RTVSPropertyOp52
 70
     0
102
RTVSPropertyOp53
 70
     1
102
RTVSPropertyOp54
 70
     1
102
RTVSPropertyOp55
 70
     1
102
RTVSPropertyOp56
 70
     1
102
RTVSPropertyOp57
 70
     1
102
RTVSPost2010Prop28
280
     0
102
RTVSPost2010PropOp28
 70
     1
102
RTVSPost2010Prop29
280
     1
102
RTVSPost2010PropOp29
 70
     1
102
RTVSPost2010Prop30
280
     1
102
RTVSPost2010PropOp30
 70
     1
102
RTVSPost2010Prop31
280
     0
102
RTVSPost2010PropOp31
 70
     1
102
RTVSPost2010Prop32
280
     0
102
RTVSPost2010PropOp32
 70
     1
102
RTVSPost2010Prop33
280
     0
102
RTVSPost2010PropOp33
 70
     1
102
RTVSPost2010Prop34
280
     0
102
RTVSPost2010PropOp34
 70
     1
102
RTVSPost2010Prop35
280
     0
102
RTVSPost2010PropOp35
 70
     1
102
RTVSPost2010Prop36
280
     0
102
RTVSPost2010PropOp36
 70
     1
102
RTVSPost2010Prop37
 90
       50
102
RTVSPost2010PropOp37
 70
     1
102
RTVSPost2010Prop38
140
0.0
102
RTVSPost2010PropOp38
 70
     1
102
RTVSPost2010Prop39
140
1.0
102
RTVSPost2010PropOp39
 70
     1
102
RTVSPost2010Prop40
 90
        0
102
RTVSPost2010PropOp40
 70
     1
102
RTVSPost2010Prop41ColorIndex
 90
       18
102
RTVSPost2010Prop41ColorRGB
 90
        0
102
RTVSPost2010PropOp41
 70
     1
102
RTVSPost2010Prop42
 90
       50
102
RTVSPost2010PropOp42
 70
     1
102
RTVSPost2010Prop43
 90
        3
102
RTVSPost2010PropOp43
 70
     1
102
RTVSPost2010Prop44ColorIndex
 90
        5
102
RTVSPost2010Prop44ColorRGB
 90
      255
102
RTVSPost2010PropOp44
 70
     1
102
RTVSPost2010Prop45
280
     0
102
RTVSPost2010PropOp45
 70
     1
102
RTVSPost2010Prop46
 90
       50
102
RTVSPost2010PropOp46
 70
     1
102
RTVSPost2010Prop47
 90
       50
102
RTVSPost2010PropOp47
 70
     1
102
RTVSPost2010Prop48
 90
       50
102
RTVSPost2010PropOp48
 70
     1
102
RTVSPost2010Prop49
280
     0
102
RTVSPost2010PropOp49
 70
     1
102
RTVSPost2010Prop50
 90
       50
102
RTVSPost2010PropOp50
 70
     1
102
RTVSPost2010Prop51ColorIndex
 90
      256
102
RTVSPost2010Prop51ColorRGB
 90
-16777216
102
RTVSPost2010PropOp51
 70
     0
102
RTVSPost2010Prop52
140
1.0
102
RTVSPost2010PropOp52
 70
     0
102
RTVSPost2010Prop53
 90
        2
102
RTVSPost2010PropOp53
 70
     1
102
RTVSPost2010Prop54
  1
strokes_ogs.tif
102
RTVSPost2010PropOp54
 70
     1
102
RTVSPost2010Prop55
280
     0
102
RTVSPost2010PropOp55
 70
     1
102
RTVSPost2010Prop56
140
1.0
102
RTVSPost2010PropOp56
 70
     1
102
RTVSPost2010Prop57
140
1.0
102
RTVSPost2010PropOp57
 70
     1
  0
XRECORD
  5
3D8
102
{ACAD_REACTORS
330
3D7
102
}
330
3D7
100
AcDbXrecord
280
     1
102
RTVSPropertyOp0
 70
     0
102
RTVSPropertyOp1
 70
     0
102
RTVSPropertyOp2
 70
     0
102
RTVSPropertyOp3
 70
     0
102
RTVSPropertyOp4
 70
     0
102
RTVSPropertyOp5
 70
     0
102
RTVSPropertyOp6
 70
     0
102
RTVSPropertyOp7
 70
     0
102
RTVSPropertyOp8
 70
     0
102
RTVSPropertyOp9
 70
     0
102
RTVSPropertyOp10
 70
     0
102
RTVSPropertyOp11
 70
     0
102
RTVSPropertyOp12
 70
     0
102
RTVSPropertyOp13
 70
     0
102
RTVSPropertyOp14
 70
     2
102
RTVSPropertyOp15
 70
     0
102
RTVSPropertyOp16
 70
     0
102
RTVSPropertyOp17
 70
     0
102
RTVSPropertyOp18
 70
     0
102
RTVSPropertyOp19
 70
     0
102
RTVSPropertyOp20
 70
     0
102
RTVSPropertyOp21
 70
     0
102
RTVSPropertyOp22
 70
     0
102
RTVSPropertyOp23
 70
     0
102
RTVSPropertyOp24
 70
     0
102
RTVSPropertyOp25
 70
     0
102
RTVSPropertyOp26
 70
     0
102
RTVSPropertyOp27
 70
     0
102
RTVSPropertyOp28
 70
     0
102
RTVSPropertyOp29
 70
     0
102
RTVSPropertyOp30
 70
     0
102
RTVSPropertyOp31
 70
     0
102
RTVSPropertyOp32
 70
     0
102
RTVSPropertyOp33
 70
     0
102
RTVSPropertyOp34
 70
     0
102
RTVSPropertyOp35
 70
     0
102
RTVSPropertyOp36
 70
     0
102
RTVSPropertyOp37
 70
     0
102
RTVSPropertyOp38
 70
     0
102
RTVSPropertyOp39
 70
     0
102
RTVSPropertyOp40
 70
     0
102
RTVSPropertyOp41
 70
     0
102
RTVSPropertyOp42
 70
     0
102
RTVSPropertyOp43
 70
     0
102
RTVSPropertyOp44
 70
     0
102
RTVSPropertyOp45
 70
     0
102
RTVSPropertyOp46
 70
     0
102
RTVSPropertyOp47
 70
     0
102
RTVSPropertyOp48
 70
     0
102
RTVSPropertyOp49
 70
     0
102
RTVSPropertyOp50
 70
     0
102
RTVSPropertyOp51
 70
     0
102
RTVSPropertyOp52
 70
     0
102
RTVSPropertyOp53
 70
     0
102
RTVSPropertyOp54
 70
     0
102
RTVSPropertyOp55
 70
     0
102
RTVSPropertyOp56
 70
     0
102
RTVSPropertyOp57
 70
     0
102
RTVSPost2010Prop28
280
     0
102
RTVSPost2010PropOp28
 70
     0
102
RTVSPost2010Prop29
280
     1
102
RTVSPost2010PropOp29
 70
     0
102
RTVSPost2010Prop30
280
     1
102
RTVSPost2010PropOp30
 70
     0
102
RTVSPost2010Prop31
280
     0
102
RTVSPost2010PropOp31
 70
     0
102
RTVSPost2010Prop32
280
     0
102
RTVSPost2010PropOp32
 70
     0
102
RTVSPost2010Prop33
280
     0
102
RTVSPost2010PropOp33
 70
     0
102
RTVSPost2010Prop34
280
     0
102
RTVSPost2010PropOp34
 70
     0
102
RTVSPost2010Prop35
280
     0
102
RTVSPost2010PropOp35
 70
     0
102
RTVSPost2010Prop36
280
     0
102
RTVSPost2010PropOp36
 70
     0
102
RTVSPost2010Prop37
 90
       50
102
RTVSPost2010PropOp37
 70
     0
102
RTVSPost2010Prop38
140
0.0
102
RTVSPost2010PropOp38
 70
     0
102
RTVSPost2010Prop39
140
1.0
102
RTVSPost2010PropOp39
 70
     0
102
RTVSPost2010Prop40
 90
        0
102
RTVSPost2010PropOp40
 70
     0
102
RTVSPost2010Prop41ColorIndex
 90
       18
102
RTVSPost2010Prop41ColorRGB
 90
        0
102
RTVSPost2010PropOp41
 70
     0
102
RTVSPost2010Prop42
 90
       50
102
RTVSPost2010PropOp42
 70
     0
102
RTVSPost2010Prop43
 90
        3
102
RTVSPost2010PropOp43
 70
     0
102
RTVSPost2010Prop44ColorIndex
 90
        5
102
RTVSPost2010Prop44ColorRGB
 90
      255
102
RTVSPost2010PropOp44
 70
     0
102
RTVSPost2010Prop45
280
     0
102
RTVSPost2010PropOp45
 70
     0
102
RTVSPost2010Prop46
 90
       50
102
RTVSPost2010PropOp46
 70
     0
102
RTVSPost2010Prop47
 90
       50
102
RTVSPost2010PropOp47
 70
     0
102
RTVSPost2010Prop48
 90
       50
102
RTVSPost2010PropOp48
 70
     0
102
RTVSPost2010Prop49
280
     0
102
RTVSPost2010PropOp49
 70
     0
102
RTVSPost2010Prop50
 90
       50
102
RTVSPost2010PropOp50
 70
     0
102
RTVSPost2010Prop51ColorIndex
 90
      256
102
RTVSPost2010Prop51ColorRGB
 90
-16777216
102
RTVSPost2010PropOp51
 70
     0
102
RTVSPost2010Prop52
140
1.0
102
RTVSPost2010PropOp52
 70
     0
102
RTVSPost2010Prop53
 90
        2
102
RTVSPost2010PropOp53
 70
     0
102
RTVSPost2010Prop54
  1
strokes_ogs.tif
102
RTVSPost2010PropOp54
 70
     0
102
RTVSPost2010Prop55
280
     0
102
RTVSPost2010PropOp55
 70
     0
102
RTVSPost2010Prop56
140
1.0
102
RTVSPost2010PropOp56
 70
     0
102
RTVSPost2010Prop57
140
1.0
102
RTVSPost2010PropOp57
 70
     0
  0
XRECORD
  5
3C6
102
{ACAD_REACTORS
330
3C5
102
}
330
3C5
100
AcDbXrecord
280
     1
102
RTVSPropertyOp0
 70
     1
102
RTVSPropertyOp1
 70
     1
102
RTVSPropertyOp2
 70
     1
102
RTVSPropertyOp3
 70
     1
102
RTVSPropertyOp4
 70
     1
102
RTVSPropertyOp5
 70
     1
102
RTVSPropertyOp6
 70
     1
102
RTVSPropertyOp7
 70
     1
102
RTVSPropertyOp8
 70
     1
102
RTVSPropertyOp9
 70
     1
102
RTVSPropertyOp10
 70
     1
102
RTVSPropertyOp11
 70
     1
102
RTVSPropertyOp12
 70
     1
102
RTVSPropertyOp13
 70
     1
102
RTVSPropertyOp14
 70
     1
102
RTVSPropertyOp15
 70
     1
102
RTVSPropertyOp16
 70
     1
102
RTVSPropertyOp17
 70
     1
102
RTVSPropertyOp18
 70
     1
102
RTVSPropertyOp19
 70
     1
102
RTVSPropertyOp20
 70
     1
102
RTVSPropertyOp21
 70
     1
102
RTVSPropertyOp22
 70
     1
102
RTVSPropertyOp23
 70
     1
102
RTVSPropertyOp24
 70
     1
102
RTVSPropertyOp25
 70
     1
102
RTVSPropertyOp26
 70
     1
102
RTVSPropertyOp27
 70
     1
102
RTVSPropertyOp28
 70
     1
102
RTVSPropertyOp29
 70
     1
102
RTVSPropertyOp30
 70
     1
102
RTVSPropertyOp31
 70
     1
102
RTVSPropertyOp32
 70
     1
102
RTVSPropertyOp33
 70
     1
102
RTVSPropertyOp34
 70
     1
102
RTVSPropertyOp35
 70
     1
102
RTVSPropertyOp36
 70
     1
102
RTVSPropertyOp37
 70
     1
102
RTVSPropertyOp38
 70
     1
102
RTVSPropertyOp39
 70
     1
102
RTVSPropertyOp40
 70
     1
102
RTVSPropertyOp41
 70
     1
102
RTVSPropertyOp42
 70
     1
102
RTVSPropertyOp43
 70
     1
102
RTVSPropertyOp44
 70
     1
102
RTVSPropertyOp45
 70
     1
102
RTVSPropertyOp46
 70
     1
102
RTVSPropertyOp47
 70
     1
102
RTVSPropertyOp48
 70
     1
102
RTVSPropertyOp49
 70
     1
102
RTVSPropertyOp50
 70
     1
102
RTVSPropertyOp51
 70
     0
102
RTVSPropertyOp52
 70
     0
102
RTVSPropertyOp53
 70
     1
102
RTVSPropertyOp54
 70
     1
102
RTVSPropertyOp55
 70
     1
102
RTVSPropertyOp56
 70
     1
102
RTVSPropertyOp57
 70
     1
102
RTVSPost2010Prop28
280
     0
102
RTVSPost2010PropOp28
 70
     1
102
RTVSPost2010Prop29
280
     1
102
RTVSPost2010PropOp29
 70
     1
102
RTVSPost2010Prop30
280
     1
102
RTVSPost2010PropOp30
 70
     1
102
RTVSPost2010Prop31
280
     0
102
RTVSPost2010PropOp31
 70
     1
102
RTVSPost2010Prop32
280
     0
102
RTVSPost2010PropOp32
 70
     1
102
RTVSPost2010Prop33
280
     0
102
RTVSPost2010PropOp33
 70
     1
102
RTVSPost2010Prop34
280
     0
102
RTVSPost2010PropOp34
 70
     1
102
RTVSPost2010Prop35
280
     0
102
RTVSPost2010PropOp35
 70
     1
102
RTVSPost2010Prop36
280
     0
102
RTVSPost2010PropOp36
 70
     1
102
RTVSPost2010Prop37
 90
       50
102
RTVSPost2010PropOp37
 70
     1
102
RTVSPost2010Prop38
140
0.0
102
RTVSPost2010PropOp38
 70
     1
102
RTVSPost2010Prop39
140
1.0
102
RTVSPost2010PropOp39
 70
     1
102
RTVSPost2010Prop40
 90
        0
102
RTVSPost2010PropOp40
 70
     1
102
RTVSPost2010Prop41ColorIndex
 90
       18
102
RTVSPost2010Prop41ColorRGB
 90
        0
102
RTVSPost2010PropOp41
 70
     1
102
RTVSPost2010Prop42
 90
       50
102
RTVSPost2010PropOp42
 70
     1
102
RTVSPost2010Prop43
 90
        3
102
RTVSPost2010PropOp43
 70
     1
102
RTVSPost2010Prop44ColorIndex
 90
        5
102
RTVSPost2010Prop44ColorRGB
 90
      255
102
RTVSPost2010PropOp44
 70
     1
102
RTVSPost2010Prop45
280
     0
102
RTVSPost2010PropOp45
 70
     1
102
RTVSPost2010Prop46
 90
       50
102
RTVSPost2010PropOp46
 70
     1
102
RTVSPost2010Prop47
 90
       50
102
RTVSPost2010PropOp47
 70
     1
102
RTVSPost2010Prop48
 90
       50
102
RTVSPost2010PropOp48
 70
     1
102
RTVSPost2010Prop49
280
     0
102
RTVSPost2010PropOp49
 70
     1
102
RTVSPost2010Prop50
 90
       50
102
RTVSPost2010PropOp50
 70
     1
102
RTVSPost2010Prop51ColorIndex
 90
      256
102
RTVSPost2010Prop51ColorRGB
 90
-16777216
102
RTVSPost2010PropOp51
 70
     0
102
RTVSPost2010Prop52
140
1.0
102
RTVSPost2010PropOp52
 70
     0
102
RTVSPost2010Prop53
 90
        2
102
RTVSPost2010PropOp53
 70
     1
102
RTVSPost2010Prop54
  1
strokes_ogs.tif
102
RTVSPost2010PropOp54
 70
     1
102
RTVSPost2010Prop55
280
     0
102
RTVSPost2010PropOp55
 70
     1
102
RTVSPost2010Prop56
140
1.0
102
RTVSPost2010PropOp56
 70
     1
102
RTVSPost2010Prop57
140
1.0
102
RTVSPost2010PropOp57
 70
     1
  0
XRECORD
  5
3E4
102
{ACAD_REACTORS
330
3E3
102
}
330
3E3
100
AcDbXrecord
280
     1
102
RTVSPropertyOp0
 70
     1
102
RTVSPropertyOp1
 70
     1
102
RTVSPropertyOp2
 70
     1
102
RTVSPropertyOp3
 70
     1
102
RTVSPropertyOp4
 70
     1
102
RTVSPropertyOp5
 70
     1
102
RTVSPropertyOp6
 70
     1
102
RTVSPropertyOp7
 70
     1
102
RTVSPropertyOp8
 70
     1
102
RTVSPropertyOp9
 70
     1
102
RTVSPropertyOp10
 70
     1
102
RTVSPropertyOp11
 70
     1
102
RTVSPropertyOp12
 70
     1
102
RTVSPropertyOp13
 70
     1
102
RTVSPropertyOp14
 70
     1
102
RTVSPropertyOp15
 70
     1
102
RTVSPropertyOp16
 70
     1
102
RTVSPropertyOp17
 70
     1
102
RTVSPropertyOp18
 70
     1
102
RTVSPropertyOp19
 70
     1
102
RTVSPropertyOp20
 70
     1
102
RTVSPropertyOp21
 70
     1
102
RTVSPropertyOp22
 70
     1
102
RTVSPropertyOp23
 70
     1
102
RTVSPropertyOp24
 70
     1
102
RTVSPropertyOp25
 70
     1
102
RTVSPropertyOp26
 70
     1
102
RTVSPropertyOp27
 70
     1
102
RTVSPropertyOp28
 70
     1
102
RTVSPropertyOp29
 70
     1
102
RTVSPropertyOp30
 70
     1
102
RTVSPropertyOp31
 70
     1
102
RTVSPropertyOp32
 70
     1
102
RTVSPropertyOp33
 70
     1
102
RTVSPropertyOp34
 70
     1
102
RTVSPropertyOp35
 70
     1
102
RTVSPropertyOp36
 70
     1
102
RTVSPropertyOp37
 70
     1
102
RTVSPropertyOp38
 70
     1
102
RTVSPropertyOp39
 70
     1
102
RTVSPropertyOp40
 70
     1
102
RTVSPropertyOp41
 70
     1
102
RTVSPropertyOp42
 70
     1
102
RTVSPropertyOp43
 70
     1
102
RTVSPropertyOp44
 70
     1
102
RTVSPropertyOp45
 70
     1
102
RTVSPropertyOp46
 70
     1
102
RTVSPropertyOp47
 70
     1
102
RTVSPropertyOp48
 70
     1
102
RTVSPropertyOp49
 70
     1
102
RTVSPropertyOp50
 70
     1
102
RTVSPropertyOp51
 70
     0
102
RTVSPropertyOp52
 70
     0
102
RTVSPropertyOp53
 70
     1
102
RTVSPropertyOp54
 70
     1
102
RTVSPropertyOp55
 70
     1
102
RTVSPropertyOp56
 70
     1
102
RTVSPropertyOp57
 70
     1
102
RTVSPost2010Prop28
280
     0
102
RTVSPost2010PropOp28
 70
     1
102
RTVSPost2010Prop29
280
     1
102
RTVSPost2010PropOp29
 70
     1
102
RTVSPost2010Prop30
280
     1
102
RTVSPost2010PropOp30
 70
     1
102
RTVSPost2010Prop31
280
     0
102
RTVSPost2010PropOp31
 70
     1
102
RTVSPost2010Prop32
280
     0
102
RTVSPost2010PropOp32
 70
     1
102
RTVSPost2010Prop33
280
     0
102
RTVSPost2010PropOp33
 70
     1
102
RTVSPost2010Prop34
280
     0
102
RTVSPost2010PropOp34
 70
     1
102
RTVSPost2010Prop35
280
     0
102
RTVSPost2010PropOp35
 70
     1
102
RTVSPost2010Prop36
280
     0
102
RTVSPost2010PropOp36
 70
     1
102
RTVSPost2010Prop37
 90
       50
102
RTVSPost2010PropOp37
 70
     1
102
RTVSPost2010Prop38
140
0.0
102
RTVSPost2010PropOp38
 70
     1
102
RTVSPost2010Prop39
140
1.0
102
RTVSPost2010PropOp39
 70
     1
102
RTVSPost2010Prop40
 90
        0
102
RTVSPost2010PropOp40
 70
     1
102
RTVSPost2010Prop41ColorIndex
 90
       18
102
RTVSPost2010Prop41ColorRGB
 90
        0
102
RTVSPost2010PropOp41
 70
     1
102
RTVSPost2010Prop42
 90
       50
102
RTVSPost2010PropOp42
 70
     1
102
RTVSPost2010Prop43
 90
        3
102
RTVSPost2010PropOp43
 70
     1
102
RTVSPost2010Prop44ColorIndex
 90
        5
102
RTVSPost2010Prop44ColorRGB
 90
      255
102
RTVSPost2010PropOp44
 70
     1
102
RTVSPost2010Prop45
280
     0
102
RTVSPost2010PropOp45
 70
     1
102
RTVSPost2010Prop46
 90
       50
102
RTVSPost2010PropOp46
 70
     1
102
RTVSPost2010Prop47
 90
       50
102
RTVSPost2010PropOp47
 70
     1
102
RTVSPost2010Prop48
 90
       50
102
RTVSPost2010PropOp48
 70
     1
102
RTVSPost2010Prop49
280
     0
102
RTVSPost2010PropOp49
 70
     1
102
RTVSPost2010Prop50
 90
       50
102
RTVSPost2010PropOp50
 70
     1
102
RTVSPost2010Prop51ColorIndex
 90
      256
102
RTVSPost2010Prop51ColorRGB
 90
-16777216
102
RTVSPost2010PropOp51
 70
     0
102
RTVSPost2010Prop52
140
1.0
102
RTVSPost2010PropOp52
 70
     0
102
RTVSPost2010Prop53
 90
        2
102
RTVSPost2010PropOp53
 70
     1
102
RTVSPost2010Prop54
  1
strokes_ogs.tif
102
RTVSPost2010PropOp54
 70
     1
102
RTVSPost2010Prop55
280
     0
102
RTVSPost2010PropOp55
 70
     1
102
RTVSPost2010Prop56
140
1.0
102
RTVSPost2010PropOp56
 70
     1
102
RTVSPost2010Prop57
140
1.0
102
RTVSPost2010PropOp57
 70
     1
  0
XRECORD
  5
3E2
102
{ACAD_REACTORS
330
3E1
102
}
330
3E1
100
AcDbXrecord
280
     1
102
RTVSPropertyOp0
 70
     1
102
RTVSPropertyOp1
 70
     1
102
RTVSPropertyOp2
 70
     1
102
RTVSPropertyOp3
 70
     1
102
RTVSPropertyOp4
 70
     1
102
RTVSPropertyOp5
 70
     1
102
RTVSPropertyOp6
 70
     1
102
RTVSPropertyOp7
 70
     1
102
RTVSPropertyOp8
 70
     1
102
RTVSPropertyOp9
 70
     1
102
RTVSPropertyOp10
 70
     1
102
RTVSPropertyOp11
 70
     1
102
RTVSPropertyOp12
 70
     1
102
RTVSPropertyOp13
 70
     1
102
RTVSPropertyOp14
 70
     1
102
RTVSPropertyOp15
 70
     1
102
RTVSPropertyOp16
 70
     1
102
RTVSPropertyOp17
 70
     1
102
RTVSPropertyOp18
 70
     1
102
RTVSPropertyOp19
 70
     1
102
RTVSPropertyOp20
 70
     1
102
RTVSPropertyOp21
 70
     1
102
RTVSPropertyOp22
 70
     1
102
RTVSPropertyOp23
 70
     1
102
RTVSPropertyOp24
 70
     1
102
RTVSPropertyOp25
 70
     1
102
RTVSPropertyOp26
 70
     1
102
RTVSPropertyOp27
 70
     1
102
RTVSPropertyOp28
 70
     1
102
RTVSPropertyOp29
 70
     1
102
RTVSPropertyOp30
 70
     1
102
RTVSPropertyOp31
 70
     1
102
RTVSPropertyOp32
 70
     1
102
RTVSPropertyOp33
 70
     1
102
RTVSPropertyOp34
 70
     1
102
RTVSPropertyOp35
 70
     1
102
RTVSPropertyOp36
 70
     1
102
RTVSPropertyOp37
 70
     1
102
RTVSPropertyOp38
 70
     1
102
RTVSPropertyOp39
 70
     1
102
RTVSPropertyOp40
 70
     1
102
RTVSPropertyOp41
 70
     1
102
RTVSPropertyOp42
 70
     1
102
RTVSPropertyOp43
 70
     1
102
RTVSPropertyOp44
 70
     1
102
RTVSPropertyOp45
 70
     1
102
RTVSPropertyOp46
 70
     1
102
RTVSPropertyOp47
 70
     1
102
RTVSPropertyOp48
 70
     1
102
RTVSPropertyOp49
 70
     1
102
RTVSPropertyOp50
 70
     1
102
RTVSPropertyOp51
 70
     0
102
RTVSPropertyOp52
 70
     0
102
RTVSPropertyOp53
 70
     1
102
RTVSPropertyOp54
 70
     1
102
RTVSPropertyOp55
 70
     1
102
RTVSPropertyOp56
 70
     1
102
RTVSPropertyOp57
 70
     1
102
RTVSPost2010Prop28
280
     0
102
RTVSPost2010PropOp28
 70
     1
102
RTVSPost2010Prop29
280
     1
102
RTVSPost2010PropOp29
 70
     1
102
RTVSPost2010Prop30
280
     1
102
RTVSPost2010PropOp30
 70
     1
102
RTVSPost2010Prop31
280
     0
102
RTVSPost2010PropOp31
 70
     1
102
RTVSPost2010Prop32
280
     0
102
RTVSPost2010PropOp32
 70
     1
102
RTVSPost2010Prop33
280
     0
102
RTVSPost2010PropOp33
 70
     1
102
RTVSPost2010Prop34
280
     0
102
RTVSPost2010PropOp34
 70
     1
102
RTVSPost2010Prop35
280
     0
102
RTVSPost2010PropOp35
 70
     1
102
RTVSPost2010Prop36
280
     0
102
RTVSPost2010PropOp36
 70
     1
102
RTVSPost2010Prop37
 90
       50
102
RTVSPost2010PropOp37
 70
     1
102
RTVSPost2010Prop38
140
0.0
102
RTVSPost2010PropOp38
 70
     1
102
RTVSPost2010Prop39
140
1.0
102
RTVSPost2010PropOp39
 70
     1
102
RTVSPost2010Prop40
 90
        0
102
RTVSPost2010PropOp40
 70
     1
102
RTVSPost2010Prop41ColorIndex
 90
       18
102
RTVSPost2010Prop41ColorRGB
 90
        0
102
RTVSPost2010PropOp41
 70
     1
102
RTVSPost2010Prop42
 90
       50
102
RTVSPost2010PropOp42
 70
     1
102
RTVSPost2010Prop43
 90
        3
102
RTVSPost2010PropOp43
 70
     1
102
RTVSPost2010Prop44ColorIndex
 90
        5
102
RTVSPost2010Prop44ColorRGB
 90
      255
102
RTVSPost2010PropOp44
 70
     1
102
RTVSPost2010Prop45
280
     0
102
RTVSPost2010PropOp45
 70
     1
102
RTVSPost2010Prop46
 90
       50
102
RTVSPost2010PropOp46
 70
     1
102
RTVSPost2010Prop47
 90
       50
102
RTVSPost2010PropOp47
 70
     1
102
RTVSPost2010Prop48
 90
       50
102
RTVSPost2010PropOp48
 70
     1
102
RTVSPost2010Prop49
280
     0
102
RTVSPost2010PropOp49
 70
     1
102
RTVSPost2010Prop50
 90
       50
102
RTVSPost2010PropOp50
 70
     1
102
RTVSPost2010Prop51ColorIndex
 90
      256
102
RTVSPost2010Prop51ColorRGB
 90
-16777216
102
RTVSPost2010PropOp51
 70
     0
102
RTVSPost2010Prop52
140
1.0
102
RTVSPost2010PropOp52
 70
     0
102
RTVSPost2010Prop53
 90
        2
102
RTVSPost2010PropOp53
 70
     1
102
RTVSPost2010Prop54
  1
strokes_ogs.tif
102
RTVSPost2010PropOp54
 70
     1
102
RTVSPost2010Prop55
280
     0
102
RTVSPost2010PropOp55
 70
     1
102
RTVSPost2010Prop56
140
1.0
102
RTVSPost2010PropOp56
 70
     1
102
RTVSPost2010Prop57
140
1.0
102
RTVSPost2010PropOp57
 70
     1
  0
XRECORD
  5
3DC
102
{ACAD_REACTORS
330
3DB
102
}
330
3DB
100
AcDbXrecord
280
     1
102
RTVSPropertyOp0
 70
     1
102
RTVSPropertyOp1
 70
     1
102
RTVSPropertyOp2
 70
     1
102
RTVSPropertyOp3
 70
     1
102
RTVSPropertyOp4
 70
     1
102
RTVSPropertyOp5
 70
     1
102
RTVSPropertyOp6
 70
     1
102
RTVSPropertyOp7
 70
     1
102
RTVSPropertyOp8
 70
     1
102
RTVSPropertyOp9
 70
     1
102
RTVSPropertyOp10
 70
     1
102
RTVSPropertyOp11
 70
     1
102
RTVSPropertyOp12
 70
     1
102
RTVSPropertyOp13
 70
     1
102
RTVSPropertyOp14
 70
     1
102
RTVSPropertyOp15
 70
     1
102
RTVSPropertyOp16
 70
     1
102
RTVSPropertyOp17
 70
     1
102
RTVSPropertyOp18
 70
     1
102
RTVSPropertyOp19
 70
     1
102
RTVSPropertyOp20
 70
     1
102
RTVSPropertyOp21
 70
     1
102
RTVSPropertyOp22
 70
     1
102
RTVSPropertyOp23
 70
     1
102
RTVSPropertyOp24
 70
     1
102
RTVSPropertyOp25
 70
     1
102
RTVSPropertyOp26
 70
     1
102
RTVSPropertyOp27
 70
     1
102
RTVSPropertyOp28
 70
     1
102
RTVSPropertyOp29
 70
     1
102
RTVSPropertyOp30
 70
     1
102
RTVSPropertyOp31
 70
     1
102
RTVSPropertyOp32
 70
     1
102
RTVSPropertyOp33
 70
     1
102
RTVSPropertyOp34
 70
     1
102
RTVSPropertyOp35
 70
     1
102
RTVSPropertyOp36
 70
     1
102
RTVSPropertyOp37
 70
     1
102
RTVSPropertyOp38
 70
     1
102
RTVSPropertyOp39
 70
     1
102
RTVSPropertyOp40
 70
     1
102
RTVSPropertyOp41
 70
     1
102
RTVSPropertyOp42
 70
     1
102
RTVSPropertyOp43
 70
     1
102
RTVSPropertyOp44
 70
     1
102
RTVSPropertyOp45
 70
     1
102
RTVSPropertyOp46
 70
     1
102
RTVSPropertyOp47
 70
     1
102
RTVSPropertyOp48
 70
     1
102
RTVSPropertyOp49
 70
     1
102
RTVSPropertyOp50
 70
     1
102
RTVSPropertyOp51
 70
     0
102
RTVSPropertyOp52
 70
     0
102
RTVSPropertyOp53
 70
     1
102
RTVSPropertyOp54
 70
     1
102
RTVSPropertyOp55
 70
     1
102
RTVSPropertyOp56
 70
     1
102
RTVSPropertyOp57
 70
     1
102
RTVSPost2010Prop28
280
     0
102
RTVSPost2010PropOp28
 70
     1
102
RTVSPost2010Prop29
280
     1
102
RTVSPost2010PropOp29
 70
     1
102
RTVSPost2010Prop30
280
     1
102
RTVSPost2010PropOp30
 70
     1
102
RTVSPost2010Prop31
280
     0
102
RTVSPost2010PropOp31
 70
     1
102
RTVSPost2010Prop32
280
     0
102
RTVSPost2010PropOp32
 70
     1
102
RTVSPost2010Prop33
280
     0
102
RTVSPost2010PropOp33
 70
     1
102
RTVSPost2010Prop34
280
     0
102
RTVSPost2010PropOp34
 70
     1
102
RTVSPost2010Prop35
280
     0
102
RTVSPost2010PropOp35
 70
     1
102
RTVSPost2010Prop36
280
     0
102
RTVSPost2010PropOp36
 70
     1
102
RTVSPost2010Prop37
 90
       50
102
RTVSPost2010PropOp37
 70
     1
102
RTVSPost2010Prop38
140
0.0
102
RTVSPost2010PropOp38
 70
     1
102
RTVSPost2010Prop39
140
1.0
102
RTVSPost2010PropOp39
 70
     1
102
RTVSPost2010Prop40
 90
        0
102
RTVSPost2010PropOp40
 70
     1
102
RTVSPost2010Prop41ColorIndex
 90
       18
102
RTVSPost2010Prop41ColorRGB
 90
        0
102
RTVSPost2010PropOp41
 70
     1
102
RTVSPost2010Prop42
 90
       50
102
RTVSPost2010PropOp42
 70
     1
102
RTVSPost2010Prop43
 90
        3
102
RTVSPost2010PropOp43
 70
     1
102
RTVSPost2010Prop44ColorIndex
 90
        5
102
RTVSPost2010Prop44ColorRGB
 90
      255
102
RTVSPost2010PropOp44
 70
     1
102
RTVSPost2010Prop45
280
     0
102
RTVSPost2010PropOp45
 70
     1
102
RTVSPost2010Prop46
 90
       50
102
RTVSPost2010PropOp46
 70
     1
102
RTVSPost2010Prop47
 90
       50
102
RTVSPost2010PropOp47
 70
     1
102
RTVSPost2010Prop48
 90
       50
102
RTVSPost2010PropOp48
 70
     1
102
RTVSPost2010Prop49
280
     0
102
RTVSPost2010PropOp49
 70
     1
102
RTVSPost2010Prop50
 90
       50
102
RTVSPost2010PropOp50
 70
     1
102
RTVSPost2010Prop51ColorIndex
 90
      256
102
RTVSPost2010Prop51ColorRGB
 90
-16777216
102
RTVSPost2010PropOp51
 70
     0
102
RTVSPost2010Prop52
140
1.0
102
RTVSPost2010PropOp52
 70
     0
102
RTVSPost2010Prop53
 90
        2
102
RTVSPost2010PropOp53
 70
     1
102
RTVSPost2010Prop54
  1
strokes_ogs.tif
102
RTVSPost2010PropOp54
 70
     1
102
RTVSPost2010Prop55
280
     0
102
RTVSPost2010PropOp55
 70
     1
102
RTVSPost2010Prop56
140
1.0
102
RTVSPost2010PropOp56
 70
     1
102
RTVSPost2010Prop57
140
1.0
102
RTVSPost2010PropOp57
 70
     1
  0
XRECORD
  5
3DE
102
{ACAD_REACTORS
330
3DD
102
}
330
3DD
100
AcDbXrecord
280
     1
102
RTVSPropertyOp0
 70
     1
102
RTVSPropertyOp1
 70
     1
102
RTVSPropertyOp2
 70
     1
102
RTVSPropertyOp3
 70
     1
102
RTVSPropertyOp4
 70
     1
102
RTVSPropertyOp5
 70
     1
102
RTVSPropertyOp6
 70
     1
102
RTVSPropertyOp7
 70
     1
102
RTVSPropertyOp8
 70
     1
102
RTVSPropertyOp9
 70
     1
102
RTVSPropertyOp10
 70
     1
102
RTVSPropertyOp11
 70
     1
102
RTVSPropertyOp12
 70
     1
102
RTVSPropertyOp13
 70
     1
102
RTVSPropertyOp14
 70
     1
102
RTVSPropertyOp15
 70
     1
102
RTVSPropertyOp16
 70
     1
102
RTVSPropertyOp17
 70
     1
102
RTVSPropertyOp18
 70
     1
102
RTVSPropertyOp19
 70
     1
102
RTVSPropertyOp20
 70
     1
102
RTVSPropertyOp21
 70
     1
102
RTVSPropertyOp22
 70
     1
102
RTVSPropertyOp23
 70
     1
102
RTVSPropertyOp24
 70
     1
102
RTVSPropertyOp25
 70
     1
102
RTVSPropertyOp26
 70
     1
102
RTVSPropertyOp27
 70
     1
102
RTVSPropertyOp28
 70
     1
102
RTVSPropertyOp29
 70
     1
102
RTVSPropertyOp30
 70
     1
102
RTVSPropertyOp31
 70
     1
102
RTVSPropertyOp32
 70
     1
102
RTVSPropertyOp33
 70
     1
102
RTVSPropertyOp34
 70
     1
102
RTVSPropertyOp35
 70
     1
102
RTVSPropertyOp36
 70
     1
102
RTVSPropertyOp37
 70
     1
102
RTVSPropertyOp38
 70
     1
102
RTVSPropertyOp39
 70
     1
102
RTVSPropertyOp40
 70
     1
102
RTVSPropertyOp41
 70
     1
102
RTVSPropertyOp42
 70
     1
102
RTVSPropertyOp43
 70
     1
102
RTVSPropertyOp44
 70
     1
102
RTVSPropertyOp45
 70
     1
102
RTVSPropertyOp46
 70
     1
102
RTVSPropertyOp47
 70
     1
102
RTVSPropertyOp48
 70
     1
102
RTVSPropertyOp49
 70
     1
102
RTVSPropertyOp50
 70
     1
102
RTVSPropertyOp51
 70
     0
102
RTVSPropertyOp52
 70
     0
102
RTVSPropertyOp53
 70
     1
102
RTVSPropertyOp54
 70
     1
102
RTVSPropertyOp55
 70
     1
102
RTVSPropertyOp56
 70
     1
102
RTVSPropertyOp57
 70
     1
102
RTVSPost2010Prop28
280
     0
102
RTVSPost2010PropOp28
 70
     1
102
RTVSPost2010Prop29
280
     1
102
RTVSPost2010PropOp29
 70
     1
102
RTVSPost2010Prop30
280
     1
102
RTVSPost2010PropOp30
 70
     1
102
RTVSPost2010Prop31
280
     0
102
RTVSPost2010PropOp31
 70
     1
102
RTVSPost2010Prop32
280
     0
102
RTVSPost2010PropOp32
 70
     1
102
RTVSPost2010Prop33
280
     0
102
RTVSPost2010PropOp33
 70
     1
102
RTVSPost2010Prop34
280
     0
102
RTVSPost2010PropOp34
 70
     1
102
RTVSPost2010Prop35
280
     0
102
RTVSPost2010PropOp35
 70
     1
102
RTVSPost2010Prop36
280
     0
102
RTVSPost2010PropOp36
 70
     1
102
RTVSPost2010Prop37
 90
       50
102
RTVSPost2010PropOp37
 70
     1
102
RTVSPost2010Prop38
140
0.0
102
RTVSPost2010PropOp38
 70
     1
102
RTVSPost2010Prop39
140
1.0
102
RTVSPost2010PropOp39
 70
     1
102
RTVSPost2010Prop40
 90
        0
102
RTVSPost2010PropOp40
 70
     1
102
RTVSPost2010Prop41ColorIndex
 90
       18
102
RTVSPost2010Prop41ColorRGB
 90
        0
102
RTVSPost2010PropOp41
 70
     1
102
RTVSPost2010Prop42
 90
       50
102
RTVSPost2010PropOp42
 70
     1
102
RTVSPost2010Prop43
 90
        3
102
RTVSPost2010PropOp43
 70
     1
102
RTVSPost2010Prop44ColorIndex
 90
        5
102
RTVSPost2010Prop44ColorRGB
 90
      255
102
RTVSPost2010PropOp44
 70
     1
102
RTVSPost2010Prop45
280
     0
102
RTVSPost2010PropOp45
 70
     1
102
RTVSPost2010Prop46
 90
       50
102
RTVSPost2010PropOp46
 70
     1
102
RTVSPost2010Prop47
 90
       50
102
RTVSPost2010PropOp47
 70
     1
102
RTVSPost2010Prop48
 90
       50
102
RTVSPost2010PropOp48
 70
     1
102
RTVSPost2010Prop49
280
     0
102
RTVSPost2010PropOp49
 70
     1
102
RTVSPost2010Prop50
 90
       50
102
RTVSPost2010PropOp50
 70
     1
102
RTVSPost2010Prop51ColorIndex
 90
      256
102
RTVSPost2010Prop51ColorRGB
 90
-16777216
102
RTVSPost2010PropOp51
 70
     0
102
RTVSPost2010Prop52
140
1.0
102
RTVSPost2010PropOp52
 70
     0
102
RTVSPost2010Prop53
 90
        2
102
RTVSPost2010PropOp53
 70
     1
102
RTVSPost2010Prop54
  1
strokes_ogs.tif
102
RTVSPost2010PropOp54
 70
     1
102
RTVSPost2010Prop55
280
     0
102
RTVSPost2010PropOp55
 70
     1
102
RTVSPost2010Prop56
140
1.0
102
RTVSPost2010PropOp56
 70
     1
102
RTVSPost2010Prop57
140
1.0
102
RTVSPost2010PropOp57
 70
     1
  0
XRECORD
  5
3CE
102
{ACAD_REACTORS
330
3CD
102
}
330
3CD
100
AcDbXrecord
280
     1
102
RTVSPropertyOp0
 70
     1
102
RTVSPropertyOp1
 70
     1
102
RTVSPropertyOp2
 70
     1
102
RTVSPropertyOp3
 70
     1
102
RTVSPropertyOp4
 70
     1
102
RTVSPropertyOp5
 70
     1
102
RTVSPropertyOp6
 70
     1
102
RTVSPropertyOp7
 70
     1
102
RTVSPropertyOp8
 70
     1
102
RTVSPropertyOp9
 70
     1
102
RTVSPropertyOp10
 70
     1
102
RTVSPropertyOp11
 70
     1
102
RTVSPropertyOp12
 70
     1
102
RTVSPropertyOp13
 70
     1
102
RTVSPropertyOp14
 70
     1
102
RTVSPropertyOp15
 70
     1
102
RTVSPropertyOp16
 70
     1
102
RTVSPropertyOp17
 70
     1
102
RTVSPropertyOp18
 70
     1
102
RTVSPropertyOp19
 70
     1
102
RTVSPropertyOp20
 70
     1
102
RTVSPropertyOp21
 70
     1
102
RTVSPropertyOp22
 70
     1
102
RTVSPropertyOp23
 70
     1
102
RTVSPropertyOp24
 70
     1
102
RTVSPropertyOp25
 70
     1
102
RTVSPropertyOp26
 70
     1
102
RTVSPropertyOp27
 70
     1
102
RTVSPropertyOp28
 70
     1
102
RTVSPropertyOp29
 70
     1
102
RTVSPropertyOp30
 70
     1
102
RTVSPropertyOp31
 70
     1
102
RTVSPropertyOp32
 70
     1
102
RTVSPropertyOp33
 70
     1
102
RTVSPropertyOp34
 70
     1
102
RTVSPropertyOp35
 70
     1
102
RTVSPropertyOp36
 70
     1
102
RTVSPropertyOp37
 70
     1
102
RTVSPropertyOp38
 70
     1
102
RTVSPropertyOp39
 70
     1
102
RTVSPropertyOp40
 70
     1
102
RTVSPropertyOp41
 70
     1
102
RTVSPropertyOp42
 70
     1
102
RTVSPropertyOp43
 70
     1
102
RTVSPropertyOp44
 70
     1
102
RTVSPropertyOp45
 70
     1
102
RTVSPropertyOp46
 70
     1
102
RTVSPropertyOp47
 70
     1
102
RTVSPropertyOp48
 70
     1
102
RTVSPropertyOp49
 70
     1
102
RTVSPropertyOp50
 70
     1
102
RTVSPropertyOp51
 70
     0
102
RTVSPropertyOp52
 70
     0
102
RTVSPropertyOp53
 70
     1
102
RTVSPropertyOp54
 70
     1
102
RTVSPropertyOp55
 70
     1
102
RTVSPropertyOp56
 70
     1
102
RTVSPropertyOp57
 70
     1
102
RTVSPost2010Prop28
280
     0
102
RTVSPost2010PropOp28
 70
     1
102
RTVSPost2010Prop29
280
     1
102
RTVSPost2010PropOp29
 70
     1
102
RTVSPost2010Prop30
280
     1
102
RTVSPost2010PropOp30
 70
     1
102
RTVSPost2010Prop31
280
     0
102
RTVSPost2010PropOp31
 70
     1
102
RTVSPost2010Prop32
280
     0
102
RTVSPost2010PropOp32
 70
     1
102
RTVSPost2010Prop33
280
     0
102
RTVSPost2010PropOp33
 70
     1
102
RTVSPost2010Prop34
280
     0
102
RTVSPost2010PropOp34
 70
     1
102
RTVSPost2010Prop35
280
     0
102
RTVSPost2010PropOp35
 70
     1
102
RTVSPost2010Prop36
280
     0
102
RTVSPost2010PropOp36
 70
     1
102
RTVSPost2010Prop37
 90
       50
102
RTVSPost2010PropOp37
 70
     1
102
RTVSPost2010Prop38
140
0.0
102
RTVSPost2010PropOp38
 70
     1
102
RTVSPost2010Prop39
140
1.0
102
RTVSPost2010PropOp39
 70
     1
102
RTVSPost2010Prop40
 90
        0
102
RTVSPost2010PropOp40
 70
     1
102
RTVSPost2010Prop41ColorIndex
 90
       18
102
RTVSPost2010Prop41ColorRGB
 90
        0
102
RTVSPost2010PropOp41
 70
     1
102
RTVSPost2010Prop42
 90
       50
102
RTVSPost2010PropOp42
 70
     1
102
RTVSPost2010Prop43
 90
        3
102
RTVSPost2010PropOp43
 70
     1
102
RTVSPost2010Prop44ColorIndex
 90
        5
102
RTVSPost2010Prop44ColorRGB
 90
      255
102
RTVSPost2010PropOp44
 70
     1
102
RTVSPost2010Prop45
280
     0
102
RTVSPost2010PropOp45
 70
     1
102
RTVSPost2010Prop46
 90
       50
102
RTVSPost2010PropOp46
 70
     1
102
RTVSPost2010Prop47
 90
       50
102
RTVSPost2010PropOp47
 70
     1
102
RTVSPost2010Prop48
 90
       50
102
RTVSPost2010PropOp48
 70
     1
102
RTVSPost2010Prop49
280
     0
102
RTVSPost2010PropOp49
 70
     1
102
RTVSPost2010Prop50
 90
       50
102
RTVSPost2010PropOp50
 70
     1
102
RTVSPost2010Prop51ColorIndex
 90
      256
102
RTVSPost2010Prop51ColorRGB
 90
-16777216
102
RTVSPost2010PropOp51
 70
     0
102
RTVSPost2010Prop52
140
1.0
102
RTVSPost2010PropOp52
 70
     0
102
RTVSPost2010Prop53
 90
        2
102
RTVSPost2010PropOp53
 70
     1
102
RTVSPost2010Prop54
  1
strokes_ogs.tif
102
RTVSPost2010PropOp54
 70
     1
102
RTVSPost2010Prop55
280
     0
102
RTVSPost2010PropOp55
 70
     1
102
RTVSPost2010Prop56
140
1.0
102
RTVSPost2010PropOp56
 70
     1
102
RTVSPost2010Prop57
140
1.0
102
RTVSPost2010PropOp57
 70
     1
  0
XRECORD
  5
3C0
102
{ACAD_REACTORS
330
3BF
102
}
330
3BF
100
AcDbXrecord
280
     1
102
RTVSPropertyOp0
 70
     1
102
RTVSPropertyOp1
 70
     1
102
RTVSPropertyOp2
 70
     1
102
RTVSPropertyOp3
 70
     1
102
RTVSPropertyOp4
 70
     1
102
RTVSPropertyOp5
 70
     1
102
RTVSPropertyOp6
 70
     1
102
RTVSPropertyOp7
 70
     1
102
RTVSPropertyOp8
 70
     1
102
RTVSPropertyOp9
 70
     1
102
RTVSPropertyOp10
 70
     1
102
RTVSPropertyOp11
 70
     1
102
RTVSPropertyOp12
 70
     1
102
RTVSPropertyOp13
 70
     1
102
RTVSPropertyOp14
 70
     1
102
RTVSPropertyOp15
 70
     1
102
RTVSPropertyOp16
 70
     1
102
RTVSPropertyOp17
 70
     1
102
RTVSPropertyOp18
 70
     1
102
RTVSPropertyOp19
 70
     1
102
RTVSPropertyOp20
 70
     1
102
RTVSPropertyOp21
 70
     1
102
RTVSPropertyOp22
 70
     1
102
RTVSPropertyOp23
 70
     1
102
RTVSPropertyOp24
 70
     1
102
RTVSPropertyOp25
 70
     1
102
RTVSPropertyOp26
 70
     1
102
RTVSPropertyOp27
 70
     1
102
RTVSPropertyOp28
 70
     1
102
RTVSPropertyOp29
 70
     1
102
RTVSPropertyOp30
 70
     1
102
RTVSPropertyOp31
 70
     1
102
RTVSPropertyOp32
 70
     1
102
RTVSPropertyOp33
 70
     1
102
RTVSPropertyOp34
 70
     1
102
RTVSPropertyOp35
 70
     1
102
RTVSPropertyOp36
 70
     1
102
RTVSPropertyOp37
 70
     1
102
RTVSPropertyOp38
 70
     1
102
RTVSPropertyOp39
 70
     1
102
RTVSPropertyOp40
 70
     1
102
RTVSPropertyOp41
 70
     1
102
RTVSPropertyOp42
 70
     1
102
RTVSPropertyOp43
 70
     1
102
RTVSPropertyOp44
 70
     1
102
RTVSPropertyOp45
 70
     1
102
RTVSPropertyOp46
 70
     1
102
RTVSPropertyOp47
 70
     1
102
RTVSPropertyOp48
 70
     1
102
RTVSPropertyOp49
 70
     1
102
RTVSPropertyOp50
 70
     1
102
RTVSPropertyOp51
 70
     0
102
RTVSPropertyOp52
 70
     0
102
RTVSPropertyOp53
 70
     1
102
RTVSPropertyOp54
 70
     1
102
RTVSPropertyOp55
 70
     1
102
RTVSPropertyOp56
 70
     1
102
RTVSPropertyOp57
 70
     1
102
RTVSPost2010Prop28
280
     0
102
RTVSPost2010PropOp28
 70
     1
102
RTVSPost2010Prop29
280
     1
102
RTVSPost2010PropOp29
 70
     1
102
RTVSPost2010Prop30
280
     1
102
RTVSPost2010PropOp30
 70
     1
102
RTVSPost2010Prop31
280
     0
102
RTVSPost2010PropOp31
 70
     1
102
RTVSPost2010Prop32
280
     0
102
RTVSPost2010PropOp32
 70
     1
102
RTVSPost2010Prop33
280
     0
102
RTVSPost2010PropOp33
 70
     1
102
RTVSPost2010Prop34
280
     0
102
RTVSPost2010PropOp34
 70
     1
102
RTVSPost2010Prop35
280
     0
102
RTVSPost2010PropOp35
 70
     1
102
RTVSPost2010Prop36
280
     0
102
RTVSPost2010PropOp36
 70
     1
102
RTVSPost2010Prop37
 90
       50
102
RTVSPost2010PropOp37
 70
     1
102
RTVSPost2010Prop38
140
0.0
102
RTVSPost2010PropOp38
 70
     1
102
RTVSPost2010Prop39
140
1.0
102
RTVSPost2010PropOp39
 70
     1
102
RTVSPost2010Prop40
 90
        0
102
RTVSPost2010PropOp40
 70
     1
102
RTVSPost2010Prop41ColorIndex
 90
       18
102
RTVSPost2010Prop41ColorRGB
 90
        0
102
RTVSPost2010PropOp41
 70
     1
102
RTVSPost2010Prop42
 90
       50
102
RTVSPost2010PropOp42
 70
     1
102
RTVSPost2010Prop43
 90
        3
102
RTVSPost2010PropOp43
 70
     1
102
RTVSPost2010Prop44ColorIndex
 90
        5
102
RTVSPost2010Prop44ColorRGB
 90
      255
102
RTVSPost2010PropOp44
 70
     1
102
RTVSPost2010Prop45
280
     0
102
RTVSPost2010PropOp45
 70
     1
102
RTVSPost2010Prop46
 90
       50
102
RTVSPost2010PropOp46
 70
     1
102
RTVSPost2010Prop47
 90
       50
102
RTVSPost2010PropOp47
 70
     1
102
RTVSPost2010Prop48
 90
       50
102
RTVSPost2010PropOp48
 70
     1
102
RTVSPost2010Prop49
280
     0
102
RTVSPost2010PropOp49
 70
     1
102
RTVSPost2010Prop50
 90
       50
102
RTVSPost2010PropOp50
 70
     1
102
RTVSPost2010Prop51ColorIndex
 90
      256
102
RTVSPost2010Prop51ColorRGB
 90
-16777216
102
RTVSPost2010PropOp51
 70
     0
102
RTVSPost2010Prop52
140
1.0
102
RTVSPost2010PropOp52
 70
     0
102
RTVSPost2010Prop53
 90
        2
102
RTVSPost2010PropOp53
 70
     1
102
RTVSPost2010Prop54
  1
strokes_ogs.tif
102
RTVSPost2010PropOp54
 70
     1
102
RTVSPost2010Prop55
280
     0
102
RTVSPost2010PropOp55
 70
     1
102
RTVSPost2010Prop56
140
1.0
102
RTVSPost2010PropOp56
 70
     1
102
RTVSPost2010Prop57
140
1.0
102
RTVSPost2010PropOp57
 70
     1
  0
XRECORD
  5
3E0
102
{ACAD_REACTORS
330
3DF
102
}
330
3DF
100
AcDbXrecord
280
     1
102
RTVSPropertyOp0
 70
     1
102
RTVSPropertyOp1
 70
     1
102
RTVSPropertyOp2
 70
     1
102
RTVSPropertyOp3
 70
     1
102
RTVSPropertyOp4
 70
     1
102
RTVSPropertyOp5
 70
     1
102
RTVSPropertyOp6
 70
     1
102
RTVSPropertyOp7
 70
     1
102
RTVSPropertyOp8
 70
     1
102
RTVSPropertyOp9
 70
     1
102
RTVSPropertyOp10
 70
     1
102
RTVSPropertyOp11
 70
     1
102
RTVSPropertyOp12
 70
     1
102
RTVSPropertyOp13
 70
     1
102
RTVSPropertyOp14
 70
     1
102
RTVSPropertyOp15
 70
     1
102
RTVSPropertyOp16
 70
     1
102
RTVSPropertyOp17
 70
     1
102
RTVSPropertyOp18
 70
     1
102
RTVSPropertyOp19
 70
     1
102
RTVSPropertyOp20
 70
     1
102
RTVSPropertyOp21
 70
     1
102
RTVSPropertyOp22
 70
     1
102
RTVSPropertyOp23
 70
     1
102
RTVSPropertyOp24
 70
     1
102
RTVSPropertyOp25
 70
     1
102
RTVSPropertyOp26
 70
     1
102
RTVSPropertyOp27
 70
     1
102
RTVSPropertyOp28
 70
     1
102
RTVSPropertyOp29
 70
     1
102
RTVSPropertyOp30
 70
     1
102
RTVSPropertyOp31
 70
     1
102
RTVSPropertyOp32
 70
     1
102
RTVSPropertyOp33
 70
     1
102
RTVSPropertyOp34
 70
     1
102
RTVSPropertyOp35
 70
     1
102
RTVSPropertyOp36
 70
     1
102
RTVSPropertyOp37
 70
     1
102
RTVSPropertyOp38
 70
     1
102
RTVSPropertyOp39
 70
     1
102
RTVSPropertyOp40
 70
     1
102
RTVSPropertyOp41
 70
     1
102
RTVSPropertyOp42
 70
     1
102
RTVSPropertyOp43
 70
     1
102
RTVSPropertyOp44
 70
     1
102
RTVSPropertyOp45
 70
     1
102
RTVSPropertyOp46
 70
     1
102
RTVSPropertyOp47
 70
     1
102
RTVSPropertyOp48
 70
     1
102
RTVSPropertyOp49
 70
     1
102
RTVSPropertyOp50
 70
     1
102
RTVSPropertyOp51
 70
     0
102
RTVSPropertyOp52
 70
     0
102
RTVSPropertyOp53
 70
     1
102
RTVSPropertyOp54
 70
     1
102
RTVSPropertyOp55
 70
     1
102
RTVSPropertyOp56
 70
     1
102
RTVSPropertyOp57
 70
     1
102
RTVSPost2010Prop28
280
     0
102
RTVSPost2010PropOp28
 70
     1
102
RTVSPost2010Prop29
280
     1
102
RTVSPost2010PropOp29
 70
     1
102
RTVSPost2010Prop30
280
     1
102
RTVSPost2010PropOp30
 70
     1
102
RTVSPost2010Prop31
280
     0
102
RTVSPost2010PropOp31
 70
     1
102
RTVSPost2010Prop32
280
     0
102
RTVSPost2010PropOp32
 70
     1
102
RTVSPost2010Prop33
280
     0
102
RTVSPost2010PropOp33
 70
     1
102
RTVSPost2010Prop34
280
     0
102
RTVSPost2010PropOp34
 70
     1
102
RTVSPost2010Prop35
280
     0
102
RTVSPost2010PropOp35
 70
     1
102
RTVSPost2010Prop36
280
     0
102
RTVSPost2010PropOp36
 70
     1
102
RTVSPost2010Prop37
 90
       50
102
RTVSPost2010PropOp37
 70
     1
102
RTVSPost2010Prop38
140
0.0
102
RTVSPost2010PropOp38
 70
     1
102
RTVSPost2010Prop39
140
1.0
102
RTVSPost2010PropOp39
 70
     1
102
RTVSPost2010Prop40
 90
        0
102
RTVSPost2010PropOp40
 70
     1
102
RTVSPost2010Prop41ColorIndex
 90
       18
102
RTVSPost2010Prop41ColorRGB
 90
        0
102
RTVSPost2010PropOp41
 70
     1
102
RTVSPost2010Prop42
 90
       50
102
RTVSPost2010PropOp42
 70
     1
102
RTVSPost2010Prop43
 90
        3
102
RTVSPost2010PropOp43
 70
     1
102
RTVSPost2010Prop44ColorIndex
 90
        5
102
RTVSPost2010Prop44ColorRGB
 90
      255
102
RTVSPost2010PropOp44
 70
     1
102
RTVSPost2010Prop45
280
     0
102
RTVSPost2010PropOp45
 70
     1
102
RTVSPost2010Prop46
 90
       50
102
RTVSPost2010PropOp46
 70
     1
102
RTVSPost2010Prop47
 90
       50
102
RTVSPost2010PropOp47
 70
     1
102
RTVSPost2010Prop48
 90
       50
102
RTVSPost2010PropOp48
 70
     1
102
RTVSPost2010Prop49
280
     0
102
RTVSPost2010PropOp49
 70
     1
102
RTVSPost2010Prop50
 90
       50
102
RTVSPost2010PropOp50
 70
     1
102
RTVSPost2010Prop51ColorIndex
 90
      256
102
RTVSPost2010Prop51ColorRGB
 90
-16777216
102
RTVSPost2010PropOp51
 70
     0
102
RTVSPost2010Prop52
140
1.0
102
RTVSPost2010PropOp52
 70
     0
102
RTVSPost2010Prop53
 90
        2
102
RTVSPost2010PropOp53
 70
     1
102
RTVSPost2010Prop54
  1
strokes_ogs.tif
102
RTVSPost2010PropOp54
 70
     1
102
RTVSPost2010Prop55
280
     0
102
RTVSPost2010PropOp55
 70
     1
102
RTVSPost2010Prop56
140
1.0
102
RTVSPost2010PropOp56
 70
     1
102
RTVSPost2010Prop57
140
1.0
102
RTVSPost2010PropOp57
 70
     1
  0
ENDSEC
  0
EOF
