  0
SECTION
  2
HEADER
  9
$ACADVER
  1
AC1015
  9
$ACADMAINTVER
 70
    10
  9
$DWGCODEPAGE
  3
ANSI_932
  9
$INSBASE
 10
0.0
 20
0.0
 30
0.0
  9
$EXTMIN
 10
-0.0533518504889798
 20
-0.0254228145836351
 30
-0.0427208528044503
  9
$EXTMAX
 10
780.0102143897839
 20
546.0347375179954
 30
960.2885138920456
  9
$LIMMIN
 10
0.0
 20
0.0
  9
$LIMMAX
 10
780.0
 20
546.0
  9
$ORTHOMODE
 70
     1
  9
$REGENMODE
 70
     1
  9
$FILLMODE
 70
     1
  9
$QTEXTMODE
 70
     0
  9
$MIRRTEXT
 70
     0
  9
$LTSCALE
 40
5.0
  9
$ATTMODE
 70
     1
  9
$TEXTSIZE
 40
3.0
  9
$TRACEWID
 40
0.05
  9
$TEXTSTYLE
  7
K
  9
$CLAYER
  8
SUNPOU
  9
$CELTYPE
  6
BYLAYER
  9
$CECOLOR
 62
   256
  9
$CELTSCALE
 40
1.0
  9
$DISPSILH
 70
     0
  9
$DIMSCALE
 40
2.0
  9
$DIMASZ
 40
1.5
  9
$DIMEXO
 40
0.75
  9
$DIMDLI
 40
6.0
  9
$DIMRND
 40
0.0
  9
$DIMDLE
 40
0.0
  9
$DIMEXE
 40
1.0
  9
$DIMTP
 40
495.0
  9
$DIMTM
 40
0.0
  9
$DIMTXT
 40
3.0
  9
$DIMCEN
 40
0.0
  9
$DIMTSZ
 40
0.0
  9
$DIMTOL
 70
     0
  9
$DIMLIM
 70
     0
  9
$DIMTIH
 70
     0
  9
$DIMTOH
 70
     0
  9
$DIMSE1
 70
     0
  9
$DIMSE2
 70
     0
  9
$DIMTAD
 70
     3
  9
$DIMZIN
 70
     8
  9
$DIMBLK
  1

  9
$DIMASO
 70
     0
  9
$DIMSHO
 70
     0
  9
$DIMPOST
  1

  9
$DIMAPOST
  1

  9
$DIMALT
 70
     0
  9
$DIMALTD
 70
     2
  9
$DIMALTF
 40
25.4
  9
$DIMLFAC
 40
1.0
  9
$DIMTOFL
 70
     1
  9
$DIMTVP
 40
0.0
  9
$DIMTIX
 70
     1
  9
$DIMSOXD
 70
     0
  9
$DIMSAH
 70
     1
  9
$DIMBLK1
  1
ARROWANG
  9
$DIMBLK2
  1
ARROWANG
  9
$DIMSTYLE
  2
IMAO
  9
$DIMCLRD
 70
   256
  9
$DIMCLRE
 70
   256
  9
$DIMCLRT
 70
   256
  9
$DIMTFAC
 40
1.0
  9
$DIMGAP
 40
1.0
  9
$DIMJUST
 70
     0
  9
$DIMSD1
 70
     0
  9
$DIMSD2
 70
     0
  9
$DIMTOLJ
 70
     1
  9
$DIMTZIN
 70
     0
  9
$DIMALTZ
 70
     0
  9
$DIMALTTZ
 70
     0
  9
$DIMUPT
 70
     0
  9
$DIMDEC
 70
     2
  9
$DIMTDEC
 70
     2
  9
$DIMALTU
 70
     2
  9
$DIMALTTD
 70
     2
  9
$DIMTXSTY
  7
K
  9
$DIMAUNIT
 70
     0
  9
$DIMADEC
 70
     0
  9
$DIMALTRND
 40
0.0
  9
$DIMAZIN
 70
     0
  9
$DIMDSEP
 70
    46
  9
$DIMATFIT
 70
     3
  9
$DIMFRAC
 70
     0
  9
$DIMLDRBLK
  1
ARROWANG
  9
$DIMLUNIT
 70
     2
  9
$DIMLWD
 70
    -2
  9
$DIMLWE
 70
    -2
  9
$DIMTMOVE
 70
     0
  9
$LUNITS
 70
     2
  9
$LUPREC
 70
     2
  9
$SKETCHINC
 40
0.1
  9
$FILLETRAD
 40
3.0
  9
$AUNITS
 70
     0
  9
$AUPREC
 70
     2
  9
$MENU
  1
STDR12J
  9
$ELEVATION
 40
0.0
  9
$PELEVATION
 40
0.0
  9
$THICKNESS
 40
0.0
  9
$LIMCHECK
 70
     0
  9
$CHAMFERA
 40
0.0
  9
$CHAMFERB
 40
0.0
  9
$CHAMFERC
 40
0.0
  9
$CHAMFERD
 40
0.0
  9
$SKPOLY
 70
     0
  9
$TDCREATE
 40
2450694.736564815
  9
$TDUCREATE
 40
2450694.361564815
  9
$TDUPDATE
 40
2454634.557901400
  9
$TDUUPDATE
 40
2454634.182901400
  9
$TDINDWG
 40
0.3473231481
  9
$TDUSRTIMER
 40
0.3473231481
  9
$USRTIMER
 70
     1
  9
$ANGBASE
 50
0.0
  9
$ANGDIR
 70
     0
  9
$PDMODE
 70
     0
  9
$PDSIZE
 40
0.0
  9
$PLINEWID
 40
0.0
  9
$SPLFRAME
 70
     0
  9
$SPLINETYPE
 70
     6
  9
$SPLINESEGS
 70
     8
  9
$HANDSEED
  5
5EF128D7
  9
$SURFTAB1
 70
     6
  9
$SURFTAB2
 70
     6
  9
$SURFTYPE
 70
     6
  9
$SURFU
 70
     6
  9
$SURFV
 70
     6
  9
$UCSBASE
  2

  9
$UCSNAME
  2

  9
$UCSORG
 10
0.0
 20
0.0
 30
0.0
  9
$UCSXDIR
 10
1.0
 20
0.0
 30
0.0
  9
$UCSYDIR
 10
0.0
 20
1.0
 30
0.0
  9
$UCSORTHOREF
  2

  9
$UCSORTHOVIEW
 70
     0
  9
$UCSORGTOP
 10
0.0
 20
0.0
 30
0.0
  9
$UCSORGBOTTOM
 10
0.0
 20
0.0
 30
0.0
  9
$UCSORGLEFT
 10
0.0
 20
0.0
 30
0.0
  9
$UCSORGRIGHT
 10
0.0
 20
0.0
 30
0.0
  9
$UCSORGFRONT
 10
0.0
 20
0.0
 30
0.0
  9
$UCSORGBACK
 10
0.0
 20
0.0
 30
0.0
  9
$PUCSBASE
  2

  9
$PUCSNAME
  2

  9
$PUCSORG
 10
0.0
 20
0.0
 30
0.0
  9
$PUCSXDIR
 10
1.0
 20
0.0
 30
0.0
  9
$PUCSYDIR
 10
0.0
 20
1.0
 30
0.0
  9
$PUCSORTHOREF
  2

  9
$PUCSORTHOVIEW
 70
     0
  9
$PUCSORGTOP
 10
0.0
 20
0.0
 30
0.0
  9
$PUCSORGBOTTOM
 10
0.0
 20
0.0
 30
0.0
  9
$PUCSORGLEFT
 10
0.0
 20
0.0
 30
0.0
  9
$PUCSORGRIGHT
 10
0.0
 20
0.0
 30
0.0
  9
$PUCSORGFRONT
 10
0.0
 20
0.0
 30
0.0
  9
$PUCSORGBACK
 10
0.0
 20
0.0
 30
0.0
  9
$USERI1
 70
     3
  9
$USERI2
 70
     1
  9
$USERI3
 70
     1
  9
$USERI4
 70
     1
  9
$USERI5
 70
     1
  9
$USERR1
 40
1.0
  9
$USERR2
 40
3.0
  9
$USERR3
 40
3.0
  9
$USERR4
 40
1.5
  9
$USERR5
 40
10.0
  9
$WORLDVIEW
 70
     1
  9
$SHADEDGE
 70
     3
  9
$SHADEDIF
 70
    70
  9
$TILEMODE
 70
     1
  9
$MAXACTVP
 70
    16
  9
$PINSBASE
 10
0.0
 20
0.0
 30
0.0
  9
$PLIMCHECK
 70
     0
  9
$PEXTMIN
 10
1.000000000000000E+20
 20
1.000000000000000E+20
 30
1.000000000000000E+20
  9
$PEXTMAX
 10
-1.000000000000000E+20
 20
-1.000000000000000E+20
 30
-1.000000000000000E+20
  9
$PLIMMIN
 10
0.0
 20
0.0
  9
$PLIMMAX
 10
12.0
 20
9.0
  9
$UNITMODE
 70
     0
  9
$VISRETAIN
 70
     0
  9
$PLINEGEN
 70
     0
  9
$PSLTSCALE
 70
     0
  9
$TREEDEPTH
 70
     0
  9
$CMLSTYLE
  2
STANDARD
  9
$CMLJUST
 70
     0
  9
$CMLSCALE
 40
1.0
  9
$PROXYGRAPHICS
 70
     1
  9
$MEASUREMENT
 70
     0
  9
$CELWEIGHT
370
    -1
  9
$ENDCAPS
280
     0
  9
$JOINSTYLE
280
     0
  9
$LWDISPLAY
290
     0
  9
$INSUNITS
 70
     0
  9
$HYPERLINKBASE
  1

  9
$STYLESHEET
  1
aclt(XL).ctb
  9
$XEDIT
290
     1
  9
$CEPSNTYPE
380
     0
  9
$PSTYLEMODE
290
     1
  9
$FINGERPRINTGUID
  2
{65593C7E-58AB-4548-9DBE-C99EC0C7B61B}
  9
$VERSIONGUID
  2
{F253AF41-6C44-4CA1-814E-C2166C28CB48}
  9
$EXTNAMES
290
     1
  9
$PSVPSCALE
 40
0.0
  9
$OLESTARTUP
290
     0
  0
ENDSEC
  0
SECTION
  2
CLASSES
  0
CLASS
  1
LWPOLYLINE
  2
AcDbPolyline
  3
AutoCAD 2000
 90
    32768
280
     0
281
     1
  0
CLASS
  1
HATCH
  2
AcDbHatch
  3
AutoCAD 2000
 90
    32768
280
     0
281
     1
  0
CLASS
  1
DICTIONARYVAR
  2
AcDbDictionaryVar
  3
AutoCAD 2000
 90
        0
280
     0
281
     0
  0
CLASS
  1
ACDBDICTIONARYWDFLT
  2
AcDbDictionaryWithDefault
  3
AutoCAD 2000
 90
        0
280
     0
281
     0
  0
CLASS
  1
ACDBPLACEHOLDER
  2
AcDbPlaceHolder
  3
AutoCAD 2000
 90
        0
280
     0
281
     0
  0
CLASS
  1
LAYOUT
  2
AcDbLayout
  3
AutoCAD 2000
 90
        0
280
     0
281
     0
  0
CLASS
  1
LONG_TRANSACTION
  2
AcDbLongTransaction
  3
AutoCAD 2000
 90
    32768
280
     0
281
     0
  0
CLASS
  1
LWPOLYLINE
  2
AcDbPolyline
  3
AutoCAD 2000
 90
    32768
280
     0
281
     1
  0
CLASS
  1
HATCH
  2
AcDbHatch
  3
AutoCAD 2000
 90
    32768
280
     0
281
     1
  0
CLASS
  1
XRECORD
  2
AcDbXrecord
  3
AutoCAD 2000
 90
    32768
280
     0
281
     0
  0
CLASS
  1
LONG_TRANSACTION
  2
AcDbLongTransaction
  3
AutoCAD 2000
 90
    32768
280
     0
281
     0
  0
CLASS
  1
LWPOLYLINE
  2
AcDbPolyline
  3
AutoCAD 2000
 90
    32768
280
     0
281
     1
  0
CLASS
  1
HATCH
  2
AcDbHatch
  3
AutoCAD 2000
 90
    32768
280
     0
281
     1
  0
CLASS
  1
XRECORD
  2
AcDbXrecord
  3
AutoCAD 2000
 90
    32768
280
     0
281
     0
  0
CLASS
  1
LONG_TRANSACTION
  2
AcDbLongTransaction
  3
AutoCAD 2000
 90
    32768
280
     0
281
     0
  0
CLASS
  1
LWPOLYLINE
  2
AcDbPolyline
  3
AutoCAD 2000
 90
    32768
280
     0
281
     1
  0
CLASS
  1
HATCH
  2
AcDbHatch
  3
AutoCAD 2000
 90
    32768
280
     0
281
     1
  0
CLASS
  1
XRECORD
  2
AcDbXrecord
  3
AutoCAD 2000
 90
    32768
280
     0
281
     0
  0
CLASS
  1
LONG_TRANSACTION
  2
AcDbLongTransaction
  3
AutoCAD 2000
 90
    32768
280
     0
281
     0
  0
CLASS
  1
LWPOLYLINE
  2
AcDbPolyline
  3
AutoCAD 2000
 90
    32768
280
     0
281
     1
  0
CLASS
  1
HATCH
  2
AcDbHatch
  3
AutoCAD 2000
 90
    32768
280
     0
281
     1
  0
CLASS
  1
XRECORD
  2
AcDbXrecord
  3
AutoCAD 2000
 90
    32768
280
     0
281
     0
  0
CLASS
  1
LONG_TRANSACTION
  2
AcDbLongTransaction
  3
AutoCAD 2000
 90
    32768
280
     0
281
     0
  0
CLASS
  1
LWPOLYLINE
  2
AcDbPolyline
  3
AutoCAD 2000
 90
    32768
280
     0
281
     1
  0
CLASS
  1
HATCH
  2
AcDbHatch
  3
AutoCAD 2000
 90
    32768
280
     0
281
     1
  0
CLASS
  1
XRECORD
  2
AcDbXrecord
  3
AutoCAD 2000
 90
    32768
280
     0
281
     0
  0
CLASS
  1
LONG_TRANSACTION
  2
AcDbLongTransaction
  3
AutoCAD 2000
 90
    32768
280
     0
281
     0
  0
CLASS
  1
LWPOLYLINE
  2
AcDbPolyline
  3
AutoCAD 2000
 90
    32768
280
     0
281
     1
  0
CLASS
  1
HATCH
  2
AcDbHatch
  3
AutoCAD 2000
 90
    32768
280
     0
281
     1
  0
CLASS
  1
XRECORD
  2
AcDbXrecord
  3
AutoCAD 2000
 90
    32768
280
     0
281
     0
  0
CLASS
  1
LONG_TRANSACTION
  2
AcDbLongTransaction
  3
AutoCAD 2000
 90
    32768
280
     0
281
     0
  0
CLASS
  1
LWPOLYLINE
  2
AcDbPolyline
  3
AutoCAD 2000
 90
    32768
280
     0
281
     1
  0
CLASS
  1
HATCH
  2
AcDbHatch
  3
AutoCAD 2000
 90
    32768
280
     0
281
     1
  0
CLASS
  1
XRECORD
  2
AcDbXrecord
  3
AutoCAD 2000
 90
    32768
280
     0
281
     0
  0
CLASS
  1
LONG_TRANSACTION
  2
AcDbLongTransaction
  3
AutoCAD 2000
 90
    32768
280
     0
281
     0
  0
CLASS
  1
LWPOLYLINE
  2
AcDbPolyline
  3
AutoCAD 2000
 90
    32768
280
     0
281
     1
  0
CLASS
  1
HATCH
  2
AcDbHatch
  3
AutoCAD 2000
 90
    32768
280
     0
281
     1
  0
CLASS
  1
XRECORD
  2
AcDbXrecord
  3
AutoCAD 2000
 90
    32768
280
     0
281
     0
  0
CLASS
  1
LONG_TRANSACTION
  2
AcDbLongTransaction
  3
AutoCAD 2000
 90
    32768
280
     0
281
     0
  0
CLASS
  1
LWPOLYLINE
  2
AcDbPolyline
  3
AutoCAD 2000
 90
    32768
280
     0
281
     1
  0
CLASS
  1
HATCH
  2
AcDbHatch
  3
AutoCAD 2000
 90
    32768
280
     0
281
     1
  0
CLASS
  1
XRECORD
  2
AcDbXrecord
  3
AutoCAD 2000
 90
    32768
280
     0
281
     0
  0
ENDSEC
  0
SECTION
  2
TABLES
  0
TABLE
  2
VPORT
  5
5EF092B1
330
0
100
AcDbSymbolTable
 70
    12
  0
VPORT
  5
5EF092D4
330
5EF092B1
100
AcDbSymbolTableRecord
100
AcDbViewportTableRecord
  2
2
 70
     0
 10
0.5
 20
0.0
 11
1.0
 21
1.0
 12
0.9240312421264802
 22
1.052650975462765
 13
0.0
 23
0.0
 14
1.0
 24
1.0
 15
10.0
 25
10.0
 16
0.0
 26
0.0
 36
1.0
 17
0.0
 27
0.0
 37
0.0
 40
2.105301950925533
 41
0.8778135048231511
 42
50.0
 43
0.0
 44
0.0
 50
0.0
 51
0.0
 71
     0
 72
   500
 73
     1
 74
     1
 75
     0
 76
     0
 77
     0
 78
     0
281
     0
 65
     1
110
0.0
120
0.0
130
0.0
111
1.0
121
0.0
131
0.0
112
0.0
122
1.0
132
0.0
 79
     0
146
0.0
  0
VPORT
  5
5EF092D5
330
5EF092B1
100
AcDbSymbolTableRecord
100
AcDbViewportTableRecord
  2
2
 70
     0
 10
0.0
 20
0.0
 11
0.5
 21
1.0
 12
0.9240312421264802
 22
1.052650975462765
 13
0.0
 23
0.0
 14
1.0
 24
1.0
 15
10.0
 25
10.0
 16
0.0
 26
0.0
 36
1.0
 17
0.0
 27
0.0
 37
0.0
 40
2.105301950925533
 41
0.8778135048231511
 42
50.0
 43
0.0
 44
0.0
 50
0.0
 51
0.0
 71
     0
 72
   500
 73
     1
 74
     1
 75
     0
 76
     0
 77
     0
 78
     0
281
     0
 65
     1
110
0.0
120
0.0
130
0.0
111
1.0
121
0.0
131
0.0
112
0.0
122
1.0
132
0.0
 79
     0
146
0.0
  0
VPORT
  5
5EF092D6
330
5EF092B1
100
AcDbSymbolTableRecord
100
AcDbViewportTableRecord
  2
3
 70
     0
 10
0.0
 20
0.5
 11
1.0
 21
1.0
 12
2.832169994473273
 22
1.052650975462765
 13
0.0
 23
0.0
 14
1.0
 24
1.0
 15
10.0
 25
10.0
 16
0.0
 26
0.0
 36
1.0
 17
0.0
 27
0.0
 37
0.0
 40
2.105301950925533
 41
3.571428571428571
 42
50.0
 43
0.0
 44
0.0
 50
0.0
 51
0.0
 71
     0
 72
   500
 73
     1
 74
     1
 75
     0
 76
     0
 77
     0
 78
     0
281
     0
 65
     1
110
0.0
120
0.0
130
0.0
111
1.0
121
0.0
131
0.0
112
0.0
122
1.0
132
0.0
 79
     0
146
0.0
  0
VPORT
  5
5EF092D7
330
5EF092B1
100
AcDbSymbolTableRecord
100
AcDbViewportTableRecord
  2
3
 70
     0
 10
0.0
 20
0.0
 11
1.0
 21
0.5
 12
2.856741679241311
 22
1.052650975462765
 13
0.0
 23
0.0
 14
1.0
 24
1.0
 15
10.0
 25
10.0
 16
0.0
 26
0.0
 36
1.0
 17
0.0
 27
0.0
 37
0.0
 40
2.105301950925533
 41
3.594771241830064
 42
50.0
 43
0.0
 44
0.0
 50
0.0
 51
0.0
 71
     0
 72
   500
 73
     1
 74
     1
 75
     0
 76
     0
 77
     0
 78
     0
281
     0
 65
     1
110
0.0
120
0.0
130
0.0
111
1.0
121
0.0
131
0.0
112
0.0
122
1.0
132
0.0
 79
     0
146
0.0
  0
VPORT
  5
5EF092D8
330
5EF092B1
100
AcDbSymbolTableRecord
100
AcDbViewportTableRecord
  2
4
 70
     0
 10
0.5
 20
0.0
 11
1.0
 21
0.5
 12
2.886857516709718
 22
1.052650975462765
 13
0.0
 23
0.0
 14
1.0
 24
1.0
 15
10.0
 25
10.0
 16
0.0
 26
0.0
 36
1.0
 17
0.0
 27
0.0
 37
0.0
 40
4.275207030309069
 41
1.784313725490195
 42
50.0
 43
0.0
 44
0.0
 50
0.0
 51
0.0
 71
     0
 72
   500
 73
     1
 74
     1
 75
     0
 76
     0
 77
     0
 78
     0
281
     0
 65
     1
110
0.0
120
0.0
130
0.0
111
1.0
121
0.0
131
0.0
112
0.0
122
1.0
132
0.0
 79
     0
146
0.0
  0
VPORT
  5
5EF092D9
330
5EF092B1
100
AcDbSymbolTableRecord
100
AcDbViewportTableRecord
  2
4
 70
     0
 10
0.5
 20
0.5
 11
1.0
 21
1.0
 12
2.862090274555523
 22
1.052650975462765
 13
0.0
 23
0.0
 14
1.0
 24
1.0
 15
10.0
 25
10.0
 16
0.0
 26
0.0
 36
1.0
 17
0.0
 27
0.0
 37
0.0
 40
4.275207030309069
 41
1.772727272727271
 42
50.0
 43
0.0
 44
0.0
 50
0.0
 51
0.0
 71
     0
 72
   500
 73
     1
 74
     1
 75
     0
 76
     0
 77
     0
 78
     0
281
     0
 65
     1
110
0.0
120
0.0
130
0.0
111
1.0
121
0.0
131
0.0
112
0.0
122
1.0
132
0.0
 79
     0
146
0.0
  0
VPORT
  5
5EF092DA
330
5EF092B1
100
AcDbSymbolTableRecord
100
AcDbViewportTableRecord
  2
4
 70
     0
 10
0.0
 20
0.5
 11
0.5
 21
1.0
 12
2.862090274555523
 22
1.052650975462765
 13
0.0
 23
0.0
 14
1.0
 24
1.0
 15
10.0
 25
10.0
 16
0.0
 26
0.0
 36
1.0
 17
0.0
 27
0.0
 37
0.0
 40
4.275207030309069
 41
1.772727272727271
 42
50.0
 43
0.0
 44
0.0
 50
0.0
 51
0.0
 71
     0
 72
   500
 73
     1
 74
     1
 75
     0
 76
     0
 77
     0
 78
     0
281
     0
 65
     1
110
0.0
120
0.0
130
0.0
111
1.0
121
0.0
131
0.0
112
0.0
122
1.0
132
0.0
 79
     0
146
0.0
  0
VPORT
  5
5EF092DB
330
5EF092B1
100
AcDbSymbolTableRecord
100
AcDbViewportTableRecord
  2
4
 70
     0
 10
0.0
 20
0.0
 11
0.5
 21
0.5
 12
2.886857516709718
 22
1.052650975462765
 13
0.0
 23
0.0
 14
1.0
 24
1.0
 15
10.0
 25
10.0
 16
0.0
 26
0.0
 36
1.0
 17
0.0
 27
0.0
 37
0.0
 40
4.275207030309069
 41
1.784313725490195
 42
50.0
 43
0.0
 44
0.0
 50
0.0
 51
0.0
 71
     0
 72
   500
 73
     1
 74
     1
 75
     0
 76
     0
 77
     0
 78
     0
281
     0
 65
     1
110
0.0
120
0.0
130
0.0
111
1.0
121
0.0
131
0.0
112
0.0
122
1.0
132
0.0
 79
     0
146
0.0
  0
VPORT
  5
5EF128D6
330
5EF092B1
100
AcDbSymbolTableRecord
100
AcDbViewportTableRecord
  2
*Active
 70
     0
 10
0.0
 20
0.0
 11
1.0
 21
1.0
 12
389.9784312696474
 22
273.0046573517058
 13
0.0
 23
0.0
 14
1.0
 24
1.0
 15
10.0
 25
10.0
 16
0.0
 26
0.0
 36
1.0
 17
0.0
 27
0.0
 37
0.0
 40
668.1280518914104
 41
1.17481662591687
 42
50.0
 43
0.0
 44
0.0
 50
0.0
 51
0.0
 71
     0
 72
   500
 73
     1
 74
     0
 75
     0
 76
     0
 77
     0
 78
     0
281
     0
 65
     1
110
0.0
120
0.0
130
0.0
111
1.0
121
0.0
131
0.0
112
0.0
122
1.0
132
0.0
 79
     0
146
0.0
  0
ENDTAB
  0
TABLE
  2
LTYPE
  5
5EF092AE
330
0
100
AcDbSymbolTable
 70
     4
  0
LTYPE
  5
5EF092BB
330
5EF092AE
100
AcDbSymbolTableRecord
100
AcDbLinetypeTableRecord
  2
BYBLOCK
 70
     0
  3

 72
    65
 73
     0
 40
0.0
  0
LTYPE
  5
5EF092BC
330
5EF092AE
100
AcDbSymbolTableRecord
100
AcDbLinetypeTableRecord
  2
BYLAYER
 70
     0
  3

 72
    65
 73
     0
 40
0.0
  0
LTYPE
  5
5EF092BD
330
5EF092AE
100
AcDbSymbolTableRecord
100
AcDbLinetypeTableRecord
  2
CONTINUOUS
 70
     0
  3
実線
 72
    65
 73
     0
 40
0.0
  0
LTYPE
  5
5EF092D1
330
5EF092AE
100
AcDbSymbolTableRecord
100
AcDbLinetypeTableRecord
  2
CENTER
 70
     0
  3
____ _ ____ _ ____ _ ____ _ ____ _ ____ _ ____
 72
    65
 73
     4
 40
2.0
 49
1.25
 74
     0
 49
-0.25
 74
     0
 49
0.25
 74
     0
 49
-0.25
 74
     0
  0
LTYPE
  5
5EF092D3
330
5EF092AE
100
AcDbSymbolTableRecord
100
AcDbLinetypeTableRecord
  2
HIDDEN
 70
     0
  3
_ _ _ _ _ _ _ _ _ _ _ _ _ _ _ _ _ _ _ _ _ _ _
 72
    65
 73
     2
 40
0.375
 49
0.25
 74
     0
 49
-0.125
 74
     0
  0
LTYPE
  5
5EF10E8E
330
5EF092AE
100
AcDbSymbolTableRecord
100
AcDbLinetypeTableRecord
  2
PHANTOM
 70
     0
  3
_____ _ _ _____ _ _ _____ _ _ _____ _ _ ____
 72
    65
 73
     6
 40
2.5
 49
1.25
 74
     0
 49
-0.25
 74
     0
 49
0.25
 74
     0
 49
-0.25
 74
     0
 49
0.25
 74
     0
 49
-0.25
 74
     0
  0
ENDTAB
  0
TABLE
  2
LAYER
  5
5EF092AB
102
{ACAD_XDICTIONARY
360
5EF0FE16
102
}
330
0
100
AcDbSymbolTable
 70
    14
  0
LAYER
  5
5EF092B8
330
5EF092AB
100
AcDbSymbolTableRecord
100
AcDbLayerTableRecord
  2
0
 70
     0
 62
     7
  6
CONTINUOUS
370
    -3
390
5EF0F401
  0
LAYER
  5
5EF092E0
330
5EF092AB
100
AcDbSymbolTableRecord
100
AcDbLayerTableRecord
  2
ITTEN
 70
     0
 62
     1
  6
CENTER
370
    -3
390
5EF0F401
  0
LAYER
  5
5EF092E3
330
5EF092AB
100
AcDbSymbolTableRecord
100
AcDbLayerTableRecord
  2
SUNPOU
 70
     0
 62
     3
  6
CONTINUOUS
370
    -3
390
5EF0F401
  0
LAYER
  5
5EF092E5
330
5EF092AB
100
AcDbSymbolTableRecord
100
AcDbLayerTableRecord
  2
SAISEN
 70
     0
 62
     4
  6
CONTINUOUS
370
    -3
390
5EF0F401
  0
LAYER
  5
5EF092E6
330
5EF092AB
100
AcDbSymbolTableRecord
100
AcDbLayerTableRecord
  2
JISSEN
 70
     0
 62
     7
  6
CONTINUOUS
370
    -3
390
5EF0F401
  0
LAYER
  5
5EF092E8
330
5EF092AB
100
AcDbSymbolTableRecord
100
AcDbLayerTableRecord
  2
TENSEN
 70
     0
 62
     2
  6
HIDDEN
370
    -3
390
5EF0F401
  0
LAYER
  5
5EF092EA
330
5EF092AB
100
AcDbSymbolTableRecord
100
AcDbLayerTableRecord
  2
WAKU
 70
     0
 62
     5
  6
CONTINUOUS
370
    -3
390
5EF0F401
  0
LAYER
  5
5EF092FD
330
5EF092AB
100
AcDbSymbolTableRecord
100
AcDbLayerTableRecord
  2
SCALE
 70
     0
 62
     7
  6
CONTINUOUS
370
    -3
390
5EF0F401
  0
LAYER
  5
5EF0FE10
330
5EF092AB
100
AcDbSymbolTableRecord
100
AcDbLayerTableRecord
  2
DEFPOINTS
 70
     0
 62
     7
  6
CONTINUOUS
290
     0
370
    -3
390
5EF0F401
  0
LAYER
  5
5EF0FE11
330
5EF092AB
100
AcDbSymbolTableRecord
100
AcDbLayerTableRecord
  2
HATCH
 70
     0
 62
     4
  6
CONTINUOUS
370
    -3
390
5EF0F401
  0
LAYER
  5
5EF10E8F
330
5EF092AB
100
AcDbSymbolTableRecord
100
AcDbLayerTableRecord
  2
NITEN
 70
     0
 62
     2
  6
PHANTOM
370
    -3
390
5EF0F401
  0
LAYER
  5
5EF10E90
330
5EF092AB
100
AcDbSymbolTableRecord
100
AcDbLayerTableRecord
  2
TEXT
 70
     0
 62
     4
  6
CONTINUOUS
370
    -3
390
5EF0F401
  0
LAYER
  5
5EF10E91
330
5EF092AB
100
AcDbSymbolTableRecord
100
AcDbLayerTableRecord
  2
BORDER
 70
     0
 62
     5
  6
CONTINUOUS
370
    -3
390
5EF0F401
  0
LAYER
  5
5EF11E9A
330
5EF092AB
100
AcDbSymbolTableRecord
100
AcDbLayerTableRecord
  2
ASSIST
 70
     0
 62
     7
  6
CONTINUOUS
370
    -3
390
5EF0F401
  0
ENDTAB
  0
TABLE
  2
STYLE
  5
5EF092AC
330
0
100
AcDbSymbolTable
 70
     2
  0
STYLE
  5
5EF092B9
330
5EF092AC
100
AcDbSymbolTableRecord
100
AcDbTextStyleTableRecord
  2
STANDARD
 70
     0
 40
0.0
 41
1.0
 50
0.0
 71
     0
 42
0.2
  3
ROMANS
  4
EXTFONT
  0
STYLE
  5
5EF092CF
330
5EF092AC
100
AcDbSymbolTableRecord
100
AcDbTextStyleTableRecord
  2
K
 70
     0
 40
0.0
 41
1.0
 50
0.0
 71
     0
 42
3.0
  3
ROMANS
  4
EXTFONT
  0
ENDTAB
  0
TABLE
  2
VIEW
  5
5EF092AF
330
0
100
AcDbSymbolTable
 70
     0
  0
ENDTAB
  0
TABLE
  2
UCS
  5
5EF092B0
330
0
100
AcDbSymbolTable
 70
     0
  0
ENDTAB
  0
TABLE
  2
APPID
  5
5EF092B2
330
0
100
AcDbSymbolTable
 70
     1
  0
APPID
  5
5EF092BA
330
5EF092B2
100
AcDbSymbolTableRecord
100
AcDbRegAppTableRecord
  2
ACAD
 70
     0
  0
ENDTAB
  0
TABLE
  2
DIMSTYLE
  5
5EF092B3
330
0
100
AcDbSymbolTable
 70
     2
100
AcDbDimStyleTable
 71
     1
340
5EF092DE
  0
DIMSTYLE
105
5EF092DE
330
5EF092B3
100
AcDbSymbolTableRecord
100
AcDbDimStyleTableRecord
  2
IMAO
 70
     0
 41
1.5
 42
0.75
 43
6.0
 44
1.0
 47
495.0
 73
     0
 74
     0
 77
     3
 78
     8
140
3.0
141
0.0
147
1.0
172
     1
173
     1
174
     1
176
   256
177
   256
178
   256
271
     2
272
     2
340
5EF092CF
341
5EF092CB
342
5EF092CB
343
5EF092CB
344
5EF092CB
  0
DIMSTYLE
105
5EF10E92
330
5EF092B3
100
AcDbSymbolTableRecord
100
AcDbDimStyleTableRecord
  2
STANDARD
 70
     0
 40
0.666666666666667
 41
2.0
 42
0.1
 43
10.0
 44
1.5
 48
0.0000000001
 71
     1
 73
     0
 74
     0
 78
     8
140
3.0
145
1.0
146
0.4
147
1.0
172
     1
173
     1
176
     3
177
     3
178
     3
271
     2
272
     2
283
     2
284
     8
340
5EF092CF
341
5EF10E22
343
5EF10E22
344
5EF10E22
  0
ENDTAB
  0
TABLE
  2
BLOCK_RECORD
  5
5EF092AA
330
0
100
AcDbSymbolTable
 70
    27
  0
BLOCK_RECORD
  5
5EF092C1
102
{ACAD_XDICTIONARY
360
5EF0FABC
102
}
330
5EF092AA
100
AcDbSymbolTableRecord
100
AcDbBlockTableRecord
  2
*MODEL_SPACE
340
5EF10E1D
  0
BLOCK_RECORD
  5
5EF092BE
102
{ACAD_XDICTIONARY
360
5EF0FABA
102
}
330
5EF092AA
100
AcDbSymbolTableRecord
100
AcDbBlockTableRecord
  2
*PAPER_SPACE
340
5EF10E1E
  0
BLOCK_RECORD
  5
5EF092CB
330
5EF092AA
100
AcDbSymbolTableRecord
100
AcDbBlockTableRecord
  2
ARROWANG
340
0
102
{BLKREFS
331
5EF0FA5D
331
5EF0FA5E
331
5EF0FA63
331
5EF0FA64
331
5EF0FA74
331
5EF0FA75
331
5EF0FA7B
331
5EF0FA7F
331
5EF0FA80
331
5EF0FA85
331
5EF0FA86
331
5EF0FAD9
331
5EF0FADA
331
5EF10DC7
331
5EF10DC8
331
5EF10DCD
331
5EF10DCE
331
5EF11F1A
331
5EF11F1B
331
5EF11F23
331
5EF11F24
331
5EF11F29
331
5EF11F2E
331
5EF11F2F
331
5EF11F33
331
5EF11F34
331
5EF11F3A
331
5EF11F3B
331
5EF11F3F
331
5EF11F40
331
5EF11F4A
331
5EF11F4B
331
5EF11F4F
331
5EF11F50
331
5EF11F57
331
5EF11F58
331
5EF122BB
331
5EF122BC
331
5EF122C4
331
5EF122C5
331
5EF122CA
331
5EF122CF
331
5EF122D0
331
5EF122D4
331
5EF122D5
331
5EF122DB
331
5EF122DC
331
5EF122E0
331
5EF122E1
331
5EF122EB
331
5EF122EC
331
5EF122F0
331
5EF122F1
331
5EF122F8
331
5EF122F9
331
5EF125DE
331
5EF125DF
331
5EF12896
331
5EF12897
331
5EF1289A
331
5EF128A0
331
5EF128A1
331
5EF128A6
331
5EF128A7
331
5EF128AC
331
5EF128AD
331
5EF128B2
331
5EF128B3
331
5EF128B8
331
5EF128B9
331
5EF128BF
331
5EF128C0
331
5EF128C5
331
5EF128C6
331
5EF128CB
331
5EF128CC
331
5EF128D2
331
5EF128D3
102
}
  0
BLOCK_RECORD
  5
5EF10E22
330
5EF092AA
100
AcDbSymbolTableRecord
100
AcDbBlockTableRecord
  2
AR_OPEN
340
0
  0
ENDTAB
  0
ENDSEC
  0
SECTION
  2
BLOCKS
  0
BLOCK
  5
5EF092EF
330
5EF092C1
100
AcDbEntity
  8
0
100
AcDbBlockBegin
  2
*MODEL_SPACE
 70
     0
 10
0.0
 20
0.0
 30
0.0
  3
*MODEL_SPACE
  1

  0
ENDBLK
  5
5EF092F0
330
5EF092C1
100
AcDbEntity
  8
0
100
AcDbBlockEnd
  0
BLOCK
  5
5EF092ED
330
5EF092BE
100
AcDbEntity
 67
     1
  8
0
100
AcDbBlockBegin
  2
*PAPER_SPACE
 70
     0
 10
0.0
 20
0.0
 30
0.0
  3
*PAPER_SPACE
  1

  0
ENDBLK
  5
5EF092EE
330
5EF092BE
100
AcDbEntity
 67
     1
  8
0
100
AcDbBlockEnd
  0
BLOCK
  5
1D
330
5EF092CB
100
AcDbEntity
  8
0
100
AcDbBlockBegin
  2
ARROWANG
 70
     0
 10
0.0
 20
0.0
 30
0.0
  3
ARROWANG
  1

  0
LINE
  5
1E
330
5EF092CB
100
AcDbEntity
  8
SUNPOU
100
AcDbLine
 10
0.0
 20
0.0
 30
0.0
 11
-1.499999999999956
 21
0.401923788646741
 31
0.0
  0
LINE
  5
1F
330
5EF092CB
100
AcDbEntity
  8
SUNPOU
100
AcDbLine
 10
0.0
 20
0.0
 30
0.0
 11
-1.500000000000027
 21
-0.4019237886467124
 31
0.0
  0
ENDBLK
  5
20
330
5EF092CB
100
AcDbEntity
  8
0
100
AcDbBlockEnd
  0
BLOCK
  5
5EF10E26
330
5EF10E22
100
AcDbEntity
  8
0
100
AcDbBlockBegin
  2
AR_OPEN
 70
     0
 10
0.0
 20
0.0
 30
0.0
  3
AR_OPEN
  1

  0
LINE
  5
5EF10E23
330
5EF10E22
100
AcDbEntity
  8
0
 62
     0
100
AcDbLine
 10
-1.0
 20
0.0
 30
0.0
 11
0.0
 21
0.0
 31
0.0
  0
LINE
  5
5EF10E24
330
5EF10E22
100
AcDbEntity
  8
0
 62
     0
100
AcDbLine
 10
0.0
 20
0.0
 30
0.0
 11
-1.0
 21
0.2679491924311037
 31
0.0
  0
LINE
  5
5EF10E25
330
5EF10E22
100
AcDbEntity
  8
0
 62
     0
100
AcDbLine
 10
0.0
 20
0.0
 30
0.0
 11
-1.0
 21
-0.2679491924311037
 31
0.0
  0
ENDBLK
  5
5EF10E27
330
5EF10E22
100
AcDbEntity
  8
0
100
AcDbBlockEnd
  0
ENDSEC
  0
SECTION
  2
ENTITIES
  0
TEXT
  5
2D6D6C92
330
5EF092C1
100
AcDbEntity
  8
JISSEN
100
AcDbText
 10
349.9540407660655
 20
1.542807100332488
 30
0.0
 40
3.5
  1

  7
K
100
AcDbText
  0
LWPOLYLINE
  5
5EF0A015
330
5EF092C1
100
AcDbEntity
  8
WAKU
100
AcDbPolyline
 90
        4
 70
     1
 43
0.0
 10
0.0
 20
0.0
 10
780.0
 20
0.0
 10
780.0
 20
546.0
 10
0.0
 20
546.0
  0
TEXT
  5
5EF0FB6F
330
5EF092C1
100
AcDbEntity
  8
SUNPOU
100
AcDbText
 10
678.6006182813224
 20
7.614403698276305
 30
0.0
 40
6.0
  1
A3 用紙、印刷尺度：1/2
  7
K
100
AcDbText
  0
TEXT
  5
5EF0FB74
330
5EF092C1
100
AcDbEntity
  8
SUNPOU
100
AcDbText
 10
678.6006182813224
 20
17.6144036982763
 30
0.0
 40
6.0
  1
一斉開放弁 NDV65 外観図
  7
K
100
AcDbText
  0
ARC
  5
5EF11683
330
5EF092C1
100
AcDbEntity
  8
JISSEN
100
AcDbCircle
 10
229.6741115320309
 20
201.3135186816319
 30
0.0
 40
6.0
100
AcDbArc
 50
194.9999999999944
 51
118.0724869358546
  0
ARC
  5
5EF11684
330
5EF092C1
100
AcDbEntity
  8
JISSEN
100
AcDbCircle
 10
234.6741115320303
 20
212.3135186816319
 30
0.0
 40
1.0
100
AcDbArc
 50
270.0
 51
90.0
  0
LINE
  5
5EF11685
330
5EF092C1
100
AcDbEntity
  8
JISSEN
100
AcDbLine
 10
214.507908301749
 20
172.3135186816319
 30
0.0
 11
208.9002131472079
 21
172.3135186816319
 31
0.0
  0
LINE
  5
5EF11686
330
5EF092C1
100
AcDbEntity
  8
JISSEN
100
AcDbLine
 10
208.9002131472079
 20
176.3135186816319
 30
0.0
 11
214.507908301749
 21
176.3135186816319
 31
0.0
  0
LINE
  5
5EF11687
330
5EF092C1
100
AcDbEntity
  8
JISSEN
100
AcDbLine
 10
214.507908301749
 20
176.3135186816319
 30
0.0
 11
214.507908301749
 21
178.3135186816583
 31
0.0
  0
LINE
  5
5EF11688
330
5EF092C1
100
AcDbEntity
  8
JISSEN
100
AcDbLine
 10
201.4361115320361
 20
178.3135186816414
 30
0.0
 11
208.9002131472079
 21
176.3135186816319
 31
0.0
  0
LINE
  5
5EF11689
330
5EF092C1
100
AcDbEntity
  8
JISSEN
100
AcDbLine
 10
214.507908301749
 20
178.3135186816583
 30
0.0
 11
221.4361115320243
 21
174.3135186816319
 31
0.0
  0
LINE
  5
5EF1168A
330
5EF092C1
100
AcDbEntity
  8
JISSEN
100
AcDbLine
 10
181.4361115320362
 20
178.3135186816355
 30
0.0
 11
201.4361115320361
 21
178.3135186816414
 31
0.0
  0
LINE
  5
5EF1168B
330
5EF092C1
100
AcDbEntity
  8
JISSEN
100
AcDbLine
 10
201.4361115320707
 20
170.3135186816319
 30
0.0
 11
181.4361115320362
 21
170.3135186816319
 31
0.0
  0
LINE
  5
5EF1168C
330
5EF092C1
100
AcDbEntity
  8
JISSEN
100
AcDbLine
 10
181.4361115320362
 20
170.3135186816319
 30
0.0
 11
181.4361115320362
 21
178.3135186816319
 31
0.0
  0
LINE
  5
5EF1168D
330
5EF092C1
100
AcDbEntity
  8
JISSEN
100
AcDbLine
 10
208.9002131472079
 20
172.3135186816319
 30
0.0
 11
201.4361115320707
 21
170.3135186816319
 31
0.0
  0
LINE
  5
5EF1168E
330
5EF092C1
100
AcDbEntity
  8
JISSEN
100
AcDbLine
 10
221.4361115320243
 20
174.3135186816319
 30
0.0
 11
214.507908301749
 21
170.3135186816319
 31
0.0
  0
LINE
  5
5EF1168F
330
5EF092C1
100
AcDbEntity
  8
JISSEN
100
AcDbLine
 10
214.507908301749
 20
170.3135186816319
 30
0.0
 11
214.507908301749
 21
172.3135186816319
 31
0.0
  0
ARC
  5
5EF11690
330
5EF092C1
100
AcDbEntity
  8
JISSEN
100
AcDbCircle
 10
229.6741115320309
 20
201.3135186816319
 30
0.0
 40
4.0
100
AcDbArc
 50
194.9999999999944
 51
118.0724869358546
  0
LINE
  5
5EF11691
330
5EF092C1
100
AcDbEntity
  8
JISSEN
100
AcDbLine
 10
224.6741115320308
 20
213.3135186816319
 30
0.0
 11
234.6741115320303
 21
213.3135186816319
 31
0.0
  0
LINE
  5
5EF11692
330
5EF092C1
100
AcDbEntity
  8
JISSEN
100
AcDbLine
 10
234.6741115320303
 20
211.3135186816319
 30
0.0
 11
225.6741115320309
 21
211.3135186816319
 31
0.0
  0
ARC
  5
5EF11693
330
5EF092C1
100
AcDbEntity
  8
JISSEN
100
AcDbCircle
 10
206.4361115320333
 20
204.3135186816319
 30
0.0
 40
1.0
100
AcDbArc
 50
270.0
 51
90.0
  0
LINE
  5
5EF11694
330
5EF092C1
100
AcDbEntity
  8
JISSEN
100
AcDbLine
 10
195.4102494630625
 20
211.6238635092189
 30
0.0
 11
190.7401131245952
 21
206.7202203538248
 31
0.0
  0
ARC
  5
5EF11695
330
5EF092C1
100
AcDbEntity
  8
JISSEN
100
AcDbCircle
 10
194.6861115320299
 20
212.3135186816319
 30
0.0
 40
1.0
100
AcDbArc
 50
316.3971810273277
 51
136.3971810273271
  0
ARC
  5
5EF11696
330
5EF092C1
100
AcDbEntity
  8
JISSEN
100
AcDbCircle
 10
184.6861115320299
 20
212.3135186816319
 30
0.0
 40
1.0
100
AcDbArc
 50
0.0
 51
180.0
  0
ARC
  5
5EF11697
330
5EF092C1
100
AcDbEntity
  8
JISSEN
100
AcDbCircle
 10
176.1861115320299
 20
207.3135186816319
 30
0.0
 40
4.0
100
AcDbArc
 50
0.0
 51
180.0
  0
ARC
  5
5EF11698
330
5EF092C1
100
AcDbEntity
  8
JISSEN
100
AcDbCircle
 10
167.6861115320299
 20
212.3135186816319
 30
0.0
 40
1.0
100
AcDbArc
 50
0.0
 51
180.0
  0
ARC
  5
5EF11699
330
5EF092C1
100
AcDbEntity
  8
JISSEN
100
AcDbCircle
 10
176.1861115320299
 20
207.3135186816319
 30
0.0
 40
6.0
100
AcDbArc
 50
0.0
 51
180.0
  0
ARC
  5
5EF1169A
330
5EF092C1
100
AcDbEntity
  8
JISSEN
100
AcDbCircle
 10
196.4361115320333
 20
204.3135186816319
 30
0.0
 40
1.0
100
AcDbArc
 50
90.0
 51
270.0
  0
ARC
  5
5EF1169B
330
5EF092C1
100
AcDbEntity
  8
JISSEN
100
AcDbCircle
 10
194.6861115320299
 20
196.3135186816337
 30
0.0
 40
1.0
100
AcDbArc
 50
205.9206115365625
 51
25.92061153656258
  0
LINE
  5
5EF1169C
330
5EF092C1
100
AcDbEntity
  8
JISSEN
100
AcDbLine
 10
189.267773477006
 20
205.1742637238579
 30
0.0
 11
185.6861115320299
 21
201.4135186816322
 31
0.0
  0
ARC
  5
5EF1169D
330
5EF092C1
100
AcDbEntity
  8
JISSEN
100
AcDbCircle
 10
184.6861115320299
 20
196.3135186816319
 30
0.0
 40
1.0
100
AcDbArc
 50
180.0
 51
0.0
  0
LINE
  5
5EF1169E
330
5EF092C1
100
AcDbEntity
  8
JISSEN
100
AcDbLine
 10
185.6861115320299
 20
201.4135186816322
 30
0.0
 11
185.6861115320299
 21
196.3135186816319
 31
0.0
  0
LINE
  5
5EF1169F
330
5EF092C1
100
AcDbEntity
  8
JISSEN
100
AcDbLine
 10
189.267773477006
 20
205.1742637238579
 30
0.0
 11
193.7867109459931
 21
195.8763933153598
 31
0.0
  0
ARC
  5
5EF116A0
330
5EF092C1
100
AcDbEntity
  8
JISSEN
100
AcDbCircle
 10
176.1861115320299
 20
201.3135186816319
 30
0.0
 40
4.0
100
AcDbArc
 50
180.0
 51
0.0
  0
ARC
  5
5EF116A1
330
5EF092C1
100
AcDbEntity
  8
JISSEN
100
AcDbCircle
 10
167.6861115320299
 20
196.3135186816319
 30
0.0
 40
1.0
100
AcDbArc
 50
180.0
 51
0.0
  0
ARC
  5
5EF116A2
330
5EF092C1
100
AcDbEntity
  8
JISSEN
100
AcDbCircle
 10
176.1861115320299
 20
201.3135186816319
 30
0.0
 40
6.0
100
AcDbArc
 50
180.0
 51
0.0
  0
LINE
  5
5EF116A3
330
5EF092C1
100
AcDbEntity
  8
JISSEN
100
AcDbLine
 10
168.6861115320299
 20
212.3135186816319
 30
0.0
 11
168.6861115320299
 21
196.3135186816319
 31
0.0
  0
LINE
  5
5EF116A4
330
5EF092C1
100
AcDbEntity
  8
JISSEN
100
AcDbLine
 10
166.6861115320299
 20
196.3135186816319
 30
0.0
 11
166.6861115320299
 21
212.3135186816319
 31
0.0
  0
LINE
  5
5EF116A5
330
5EF092C1
100
AcDbEntity
  8
JISSEN
100
AcDbLine
 10
170.1861115320299
 20
207.3135186816319
 30
0.0
 11
170.1861115320299
 21
201.3135186816319
 31
0.0
  0
LINE
  5
5EF116A6
330
5EF092C1
100
AcDbEntity
  8
JISSEN
100
AcDbLine
 10
172.1861115320299
 20
207.3135186816319
 30
0.0
 11
172.1861115320299
 21
201.3135186816319
 31
0.0
  0
LINE
  5
5EF116A7
330
5EF092C1
100
AcDbEntity
  8
JISSEN
100
AcDbLine
 10
180.1861115320299
 20
207.3135186816319
 30
0.0
 11
180.1861115320299
 21
201.3135186816319
 31
0.0
  0
LINE
  5
5EF116A8
330
5EF092C1
100
AcDbEntity
  8
JISSEN
100
AcDbLine
 10
193.9619736009936
 20
213.0031738540468
 30
0.0
 11
185.6861115320299
 21
204.3135186816319
 31
0.0
  0
LINE
  5
5EF116A9
330
5EF092C1
100
AcDbEntity
  8
JISSEN
100
AcDbLine
 10
185.6861115320299
 20
212.3135186816319
 30
0.0
 11
185.6861115320299
 21
204.3135186816319
 31
0.0
  0
LINE
  5
5EF116AA
330
5EF092C1
100
AcDbEntity
  8
JISSEN
100
AcDbLine
 10
183.6861115320299
 20
196.3135186816319
 30
0.0
 11
183.6861115320299
 21
212.3135186816319
 31
0.0
  0
LINE
  5
5EF116AB
330
5EF092C1
100
AcDbEntity
  8
JISSEN
100
AcDbLine
 10
190.7401131245952
 20
206.7202203538248
 30
0.0
 11
195.5855121180667
 21
196.7506440479058
 31
0.0
  0
LINE
  5
5EF116AC
330
5EF092C1
100
AcDbEntity
  8
JISSEN
100
AcDbLine
 10
182.1861115320299
 20
207.3135186816319
 30
0.0
 11
182.1861115320299
 21
201.3135186816319
 31
0.0
  0
LINE
  5
5EF116AD
330
5EF092C1
100
AcDbEntity
  8
JISSEN
100
AcDbLine
 10
196.4361115320333
 20
205.3135186816319
 30
0.0
 11
206.4361115320333
 21
205.3135186816319
 31
0.0
  0
LINE
  5
5EF116AE
330
5EF092C1
100
AcDbEntity
  8
JISSEN
100
AcDbLine
 10
206.4361115320333
 20
203.3135186816319
 30
0.0
 11
196.4361115320333
 21
203.3135186816319
 31
0.0
  0
ARC
  5
5EF116AF
330
5EF092C1
100
AcDbEntity
  8
JISSEN
100
AcDbCircle
 10
224.6741115320308
 20
212.3135186816319
 30
0.0
 40
1.0
100
AcDbArc
 50
90.0
 51
180.0
  0
ARC
  5
5EF116B0
330
5EF092C1
100
AcDbEntity
  8
JISSEN
100
AcDbCircle
 10
224.844482400586
 20
200.0194234561198
 30
0.0
 40
1.00000000000044
100
AcDbArc
 50
14.99999999999445
 51
194.9999999999944
  0
ARC
  5
5EF116B1
330
5EF092C1
100
AcDbEntity
  8
JISSEN
100
AcDbCircle
 10
224.6741115320308
 20
204.3135186816319
 30
0.0
 40
1.0
100
AcDbArc
 50
180.0
 51
298.0724869358546
  0
LINE
  5
5EF116B2
330
5EF092C1
100
AcDbEntity
  8
JISSEN
100
AcDbLine
 10
225.1446997673245
 20
203.4311657404553
 30
0.0
 11
227.7917585908543
 21
204.8429304463378
 31
0.0
  0
LINE
  5
5EF116B3
330
5EF092C1
100
AcDbEntity
  8
JISSEN
100
AcDbLine
 10
225.6741115320309
 20
205.9801853482988
 30
0.0
 11
226.850582120266
 21
206.6076363286909
 31
0.0
  0
LINE
  5
5EF116B4
330
5EF092C1
100
AcDbEntity
  8
JISSEN
100
AcDbLine
 10
212.1741115320303
 20
207.3135186816319
 30
0.0
 11
212.1741115320303
 21
205.7856546366318
 31
0.0
  0
LINE
  5
5EF116B5
330
5EF092C1
100
AcDbEntity
  8
JISSEN
100
AcDbLine
 10
210.1741115320303
 20
207.3135186816319
 30
0.0
 11
210.1741115320303
 21
201.3135186816319
 31
0.0
  0
CIRCLE
  5
5EF116B6
330
5EF092C1
100
AcDbEntity
  8
JISSEN
100
AcDbCircle
 10
216.1741115320308
 20
201.3135186816319
 30
0.0
 40
4.0
  0
ARC
  5
5EF116B7
330
5EF092C1
100
AcDbEntity
  8
JISSEN
100
AcDbCircle
 10
216.1741115320308
 20
201.3135186816319
 30
0.0
 40
6.0
100
AcDbArc
 50
180.0
 51
131.8103148957827
  0
LINE
  5
5EF116B8
330
5EF092C1
100
AcDbEntity
  8
JISSEN
100
AcDbLine
 10
223.6741115320309
 20
212.3135186816319
 30
0.0
 11
223.6741115320309
 21
204.3135186816319
 31
0.0
  0
ARC
  5
5EF116B9
330
5EF092C1
100
AcDbEntity
  8
JISSEN
100
AcDbCircle
 10
216.1741115320308
 20
207.3135186816319
 30
0.0
 40
4.0
100
AcDbArc
 50
14.99999999999445
 51
180.0
  0
ARC
  5
5EF116BA
330
5EF092C1
100
AcDbEntity
  8
JISSEN
100
AcDbCircle
 10
216.1741115320308
 20
207.3135186816319
 30
0.0
 40
6.0
100
AcDbArc
 50
14.99999999999445
 51
180.0
  0
LINE
  5
5EF116BB
330
5EF092C1
100
AcDbEntity
  8
JISSEN
100
AcDbLine
 10
225.6741115320309
 20
211.3135186816319
 30
0.0
 11
225.6741115320309
 21
205.9801853482988
 31
0.0
  0
ARC
  5
5EF116BC
330
5EF092C1
100
AcDbEntity
  8
JISSEN
100
AcDbCircle
 10
221.0037406634758
 20
208.6076139071445
 30
0.0
 40
1.0
100
AcDbArc
 50
194.9999999999944
 51
14.99999999999445
  0
SPLINE
  5
5EF116E7
330
5EF092C1
100
AcDbEntity
  8
NITEN
100
AcDbSpline
210
0.0
220
0.0
230
1.0
 70
     8
 71
     3
 72
    14
 73
    10
 74
     8
 42
0.0000000001
 43
0.0000000001
 44
0.0000000001
 40
0.0
 40
0.0
 40
0.0
 40
0.0
 40
3.317428780124243
 40
14.19849619572834
 40
24.83466874224827
 40
35.25268064972763
 40
45.48316464876633
 40
55.66975663643863
 40
65.82731225131242
 40
65.82731225131242
 40
65.82731225131242
 40
65.82731225131242
 10
264.4361115320252
 20
199.324044414405
 30
0.0
 10
263.4375664247776
 20
198.8489415871006
 30
0.0
 10
259.1638231596726
 20
196.8155156620354
 30
0.0
 10
251.5487491212043
 20
193.5539444189307
 30
0.0
 10
241.5385116374636
 20
189.9223423770192
 30
0.0
 10
231.534144408431
 20
186.9346502931642
 30
0.0
 10
221.4502500645299
 20
184.9121379371117
 30
0.0
 10
211.4528161211458
 20
182.9385628397903
 30
0.0
 10
204.7718345641634
 20
181.7734309721129
 30
0.0
 10
201.4361115320271
 20
181.1916965108905
 30
0.0
 11
264.4361115320252
 21
199.324044414405
 31
0.0
 11
261.4361115320253
 21
197.9079463559371
 31
0.0
 11
251.4361115320252
 21
193.618700722621
 31
0.0
 11
241.4361115320261
 21
189.995419552278
 31
0.0
 11
231.4361115320262
 21
187.0739520949234
 31
0.0
 11
221.4361115320262
 21
184.9145996793629
 31
0.0
 11
211.436111532027
 21
182.9738121270204
 31
0.0
 11
201.4361115320271
 21
181.1916965108905
 31
0.0
  0
SPLINE
  5
5EF116E8
330
5EF092C1
100
AcDbEntity
  8
NITEN
100
AcDbSpline
210
0.0
220
0.0
230
1.0
 70
     8
 71
     3
 72
    14
 73
    10
 74
     8
 42
0.0000000001
 43
0.0000000001
 44
0.0000000001
 40
0.0
 40
0.0
 40
0.0
 40
0.0
 40
3.317428780124048
 40
14.19849619572779
 40
24.83466874224826
 40
35.25268064972737
 40
45.48316464876579
 40
55.6697566364388
 40
65.82731225131244
 40
65.82731225131244
 40
65.82731225131244
 40
65.82731225131244
 10
138.4361115320307
 20
199.3240444143987
 30
0.0
 10
139.4346566392783
 20
198.8489415870944
 30
0.0
 10
143.7083999043828
 20
196.8155156620299
 30
0.0
 10
151.3234739428523
 20
193.5539444189253
 30
0.0
 10
161.3337114265928
 20
189.9223423770154
 30
0.0
 10
171.3380786556258
 20
186.9346502931608
 30
0.0
 10
181.421972999527
 20
184.9121379371099
 30
0.0
 10
191.4194069429115
 20
182.9385628397894
 30
0.0
 10
198.1003884998942
 20
181.7734309721125
 30
0.0
 10
201.4361115320307
 20
181.1916965108905
 30
0.0
 11
138.4361115320307
 21
199.3240444143987
 31
0.0
 11
141.4361115320307
 21
197.9079463559312
 31
0.0
 11
151.4361115320307
 21
193.618700722616
 31
0.0
 11
161.4361115320307
 21
189.9954195522739
 31
0.0
 11
171.4361115320307
 21
187.0739520949202
 31
0.0
 11
181.4361115320307
 21
184.9145996793611
 31
0.0
 11
191.4361115320307
 21
182.9738121270195
 31
0.0
 11
201.4361115320307
 21
181.1916965108905
 31
0.0
  0
LINE
  5
5EF11A15
330
5EF092C1
100
AcDbEntity
  8
ITTEN
100
AcDbLine
 10
700.1107037368401
 20
144.3135186817191
 30
0.0
 11
509.1107037368328
 21
144.3135186817191
 31
0.0
  0
LINE
  5
5EF11A16
330
5EF092C1
100
AcDbEntity
  8
ITTEN
100
AcDbLine
 10
604.6107037368365
 20
28.70351868172042
 30
0.0
 11
604.6107037368365
 21
318.8135186817201
 31
0.0
  0
CIRCLE
  5
5EF11A17
330
5EF092C1
100
AcDbEntity
  8
JISSEN
100
AcDbCircle
 10
604.6107037368365
 20
144.3135186817191
 30
0.0
 40
32.49999999999909
  0
CIRCLE
  5
5EF11A18
330
5EF092C1
100
AcDbEntity
  8
JISSEN
100
AcDbCircle
 10
604.6107037368365
 20
144.3135186817191
 30
0.0
 40
34.5
  0
LINE
  5
5EF11A19
330
5EF092C1
100
AcDbEntity
  8
JISSEN
100
AcDbLine
 10
573.3817107975828
 20
135.3135186817201
 30
0.0
 11
635.8396966760901
 21
135.3135186817201
 31
0.0
  0
LINE
  5
5EF11A1A
330
5EF092C1
100
AcDbEntity
  8
JISSEN
100
AcDbLine
 10
618.0457325793809
 20
38.70351868172042
 30
0.0
 11
591.1756748942921
 21
38.70351868172042
 31
0.0
  0
CIRCLE
  5
5EF11A1B
330
5EF092C1
100
AcDbEntity
  8
ITTEN
100
AcDbCircle
 10
604.6107037368365
 20
144.3135186817191
 30
0.0
 40
70.0
  0
ARC
  5
5EF11A1C
330
5EF092C1
100
AcDbEntity
  8
JISSEN
100
AcDbCircle
 10
524.1107037368364
 20
262.8135186819092
 30
0.0
 40
1.5
100
AcDbArc
 50
90.0
 51
180.0
  0
LINE
  5
5EF11A1D
330
5EF092C1
100
AcDbEntity
  8
JISSEN
100
AcDbLine
 10
522.6107037368356
 20
262.8135186819092
 30
0.0
 11
522.6107037368356
 21
246.3135186819092
 31
0.0
  0
LINE
  5
5EF11A1E
330
5EF092C1
100
AcDbEntity
  8
JISSEN
100
AcDbLine
 10
524.1107037368364
 20
264.3135186819083
 30
0.0
 11
585.6107037368365
 21
264.3135186819074
 31
0.0
  0
LINE
  5
5EF11A1F
330
5EF092C1
100
AcDbEntity
  8
JISSEN
100
AcDbLine
 10
588.6107037368356
 20
287.3135186819083
 30
0.0
 11
588.6107037368356
 21
274.5604694478668
 31
0.0
  0
LINE
  5
5EF11A20
330
5EF092C1
100
AcDbEntity
  8
JISSEN
100
AcDbLine
 10
617.6107037368374
 20
288.3135186819083
 30
0.0
 11
619.6107037368355
 21
288.3135186819083
 31
0.0
  0
LINE
  5
5EF11A21
330
5EF092C1
100
AcDbEntity
  8
JISSEN
100
AcDbLine
 10
610.8607037368383
 20
288.3135186819083
 30
0.0
 11
619.6107037368355
 21
288.3135186819083
 31
0.0
  0
ARC
  5
5EF11A22
330
5EF092C1
100
AcDbEntity
  8
JISSEN
100
AcDbCircle
 10
589.6107037368356
 20
287.3135186819083
 30
0.0
 40
1.0
100
AcDbArc
 50
90.0
 51
180.0
  0
LINE
  5
5EF11A23
330
5EF092C1
100
AcDbEntity
  8
JISSEN
100
AcDbLine
 10
591.6107037368374
 20
288.3135186819083
 30
0.0
 11
589.6107037368356
 21
288.3135186819083
 31
0.0
  0
LINE
  5
5EF11A24
330
5EF092C1
100
AcDbEntity
  8
JISSEN
100
AcDbLine
 10
598.3607037368383
 20
288.3135186819083
 30
0.0
 11
589.6107037368356
 21
288.3135186819083
 31
0.0
  0
LINE
  5
5EF11A25
330
5EF092C1
100
AcDbEntity
  8
JISSEN
100
AcDbLine
 10
686.6107037368374
 20
262.8135186819092
 30
0.0
 11
686.6107037368374
 21
246.3135186819092
 31
0.0
  0
ARC
  5
5EF11A26
330
5EF092C1
100
AcDbEntity
  8
JISSEN
100
AcDbCircle
 10
685.1107037368365
 20
262.8135186819092
 30
0.0
 40
1.5
100
AcDbArc
 50
0.0
 51
90.0
  0
LINE
  5
5EF11A27
330
5EF092C1
100
AcDbEntity
  8
JISSEN
100
AcDbLine
 10
685.1107037368365
 20
264.3135186819083
 30
0.0
 11
623.6107037368364
 21
264.3135186819079
 31
0.0
  0
LINE
  5
5EF11A28
330
5EF092C1
100
AcDbEntity
  8
JISSEN
100
AcDbLine
 10
617.6107037368356
 20
288.3135186819083
 30
0.0
 11
619.6107037368374
 21
288.3135186819083
 31
0.0
  0
ARC
  5
5EF11A29
330
5EF092C1
100
AcDbEntity
  8
JISSEN
100
AcDbCircle
 10
619.6107037368374
 20
287.3135186819083
 30
0.0
 40
1.0
100
AcDbArc
 50
0.0
 51
90.0
  0
LINE
  5
5EF11A2A
330
5EF092C1
100
AcDbEntity
  8
JISSEN
100
AcDbLine
 10
620.6107037368374
 20
287.3135186819083
 30
0.0
 11
620.6107037368374
 21
274.5604694478668
 31
0.0
  0
LINE
  5
5EF11A2B
330
5EF092C1
100
AcDbEntity
  8
JISSEN
100
AcDbLine
 10
610.8607037368346
 20
288.3135186819083
 30
0.0
 11
619.6107037368374
 21
288.3135186819083
 31
0.0
  0
ARC
  5
5EF11A2C
330
5EF092C1
100
AcDbEntity
  8
JISSEN
100
AcDbCircle
 10
604.6107037368365
 20
264.3135186819083
 30
0.0
 40
19.0
100
AcDbArc
 50
359.9999999999985
 51
180.0000000000013
  0
CIRCLE
  5
5EF11A2D
330
5EF092C1
100
AcDbEntity
  8
SAISEN
100
AcDbCircle
 10
604.6107037368365
 20
264.3135186819083
 30
0.0
 40
10.47749999999541
  0
CIRCLE
  5
5EF11A2E
330
5EF092C1
100
AcDbEntity
  8
JISSEN
100
AcDbCircle
 10
604.6107037368365
 20
264.3135186819083
 30
0.0
 40
9.315500000000611
  0
LINE
  5
5EF11A2F
330
5EF092C1
100
AcDbEntity
  8
JISSEN
100
AcDbLine
 10
522.6107037368356
 20
246.3135186819092
 30
0.0
 11
686.6107037368374
 21
246.3135186819092
 31
0.0
  0
ARC
  5
5EF11A30
330
5EF092C1
100
AcDbEntity
  8
JISSEN
100
AcDbCircle
 10
524.1107037368364
 20
229.8135186819092
 30
0.0
 40
1.5
100
AcDbArc
 50
180.0
 51
270.0
  0
LINE
  5
5EF11A31
330
5EF092C1
100
AcDbEntity
  8
JISSEN
100
AcDbLine
 10
522.6107037368356
 20
229.8135186819092
 30
0.0
 11
522.6107037368356
 21
246.3135186819092
 31
0.0
  0
LINE
  5
5EF11A32
330
5EF092C1
100
AcDbEntity
  8
JISSEN
100
AcDbLine
 10
521.1107037368356
 20
228.3135186819101
 30
0.0
 11
546.6451967523226
 21
228.3135186819101
 31
0.0
  0
ARC
  5
5EF11A33
330
5EF092C1
100
AcDbEntity
  8
JISSEN
100
AcDbCircle
 10
685.1107037368365
 20
229.8135186819092
 30
0.0
 40
1.5
100
AcDbArc
 50
270.0
 51
0.0
  0
LINE
  5
5EF11A34
330
5EF092C1
100
AcDbEntity
  8
JISSEN
100
AcDbLine
 10
686.6107037368374
 20
229.8135186819092
 30
0.0
 11
686.6107037368374
 21
246.3135186819092
 31
0.0
  0
LINE
  5
5EF11A35
330
5EF092C1
100
AcDbEntity
  8
JISSEN
100
AcDbLine
 10
685.1107037368365
 20
228.3135186819101
 30
0.0
 11
662.5762107213504
 21
228.3135186819101
 31
0.0
  0
LINE
  5
5EF11A36
330
5EF092C1
100
AcDbEntity
  8
JISSEN
100
AcDbLine
 10
585.6107037368365
 20
264.3135186819074
 30
0.0
 11
585.6107037368365
 21
246.3135186819092
 31
0.0
  0
LINE
  5
5EF11A37
330
5EF092C1
100
AcDbEntity
  8
JISSEN
100
AcDbLine
 10
623.6107037368364
 20
264.3135186819079
 30
0.0
 11
623.6107037368364
 21
246.3135186819092
 31
0.0
  0
LINE
  5
5EF11A38
330
5EF092C1
100
AcDbEntity
  8
JISSEN
100
AcDbLine
 10
606.6722565496448
 20
308.8135186817201
 30
0.0
 11
607.6107037368355
 21
308.313518681721
 31
0.0
  0
LINE
  5
5EF11A39
330
5EF092C1
100
AcDbEntity
  8
JISSEN
100
AcDbLine
 10
607.6107037368355
 20
308.313518681721
 30
0.0
 11
609.6107037368356
 21
308.313518681721
 31
0.0
  0
LINE
  5
5EF11A3A
330
5EF092C1
100
AcDbEntity
  8
JISSEN
100
AcDbLine
 10
609.6107037368356
 20
308.313518681721
 30
0.0
 11
609.1107037368365
 21
308.8135186817201
 31
0.0
  0
LINE
  5
5EF11A3B
330
5EF092C1
100
AcDbEntity
  8
JISSEN
100
AcDbLine
 10
604.6107037368383
 20
308.8135186817201
 30
0.0
 11
609.1107037368365
 21
308.8135186817201
 31
0.0
  0
LINE
  5
5EF11A3C
330
5EF092C1
100
AcDbEntity
  8
SAISEN
100
AcDbLine
 10
604.6107037368383
 20
302.5635186817173
 30
0.0
 11
607.6107037368355
 21
296.813518681721
 31
0.0
  0
LINE
  5
5EF11A3D
330
5EF092C1
100
AcDbEntity
  8
JISSEN
100
AcDbLine
 10
604.6107037368383
 20
296.813518681721
 30
0.0
 11
609.6107037368356
 21
296.813518681721
 31
0.0
  0
LINE
  5
5EF11A3E
330
5EF092C1
100
AcDbEntity
  8
JISSEN
100
AcDbLine
 10
610.8607037368383
 20
291.813518681721
 30
0.0
 11
610.8607037368356
 21
289.31351868172
 31
0.0
  0
LINE
  5
5EF11A3F
330
5EF092C1
100
AcDbEntity
  8
JISSEN
100
AcDbLine
 10
609.6107037368356
 20
296.813518681721
 30
0.0
 11
610.8607037368383
 21
294.648455172258
 31
0.0
  0
LINE
  5
5EF11A40
330
5EF092C1
100
AcDbEntity
  8
JISSEN
100
AcDbLine
 10
604.6107037368383
 20
294.6484551722599
 30
0.0
 11
610.8607037368337
 21
294.6484551722599
 31
0.0
  0
LINE
  5
5EF11A41
330
5EF092C1
100
AcDbEntity
  8
JISSEN
100
AcDbLine
 10
610.8607037368383
 20
294.648455172258
 30
0.0
 11
610.8607037368346
 21
288.3135186819083
 31
0.0
  0
LINE
  5
5EF11A42
330
5EF092C1
100
AcDbEntity
  8
JISSEN
100
AcDbLine
 10
607.6107037368355
 20
308.313518681721
 30
0.0
 11
607.6107037368355
 21
296.813518681721
 31
0.0
  0
LINE
  5
5EF11A43
330
5EF092C1
100
AcDbEntity
  8
JISSEN
100
AcDbLine
 10
609.6107037368356
 20
308.313518681721
 30
0.0
 11
609.6107037368356
 21
296.813518681721
 31
0.0
  0
LINE
  5
5EF11A44
330
5EF092C1
100
AcDbEntity
  8
SAISEN
100
AcDbLine
 10
607.6107037368355
 20
308.313518681721
 30
0.0
 11
604.6107037368383
 21
302.5635186817246
 31
0.0
  0
LINE
  5
5EF11A45
330
5EF092C1
100
AcDbEntity
  8
SAISEN
100
AcDbLine
 10
601.610703736841
 20
308.3135186817214
 30
0.0
 11
604.6107037368374
 21
302.5635186817246
 31
0.0
  0
LINE
  5
5EF11A46
330
5EF092C1
100
AcDbEntity
  8
JISSEN
100
AcDbLine
 10
599.6107037368402
 20
308.3135186817219
 30
0.0
 11
599.6107037368392
 21
296.8135186817219
 31
0.0
  0
LINE
  5
5EF11A47
330
5EF092C1
100
AcDbEntity
  8
JISSEN
100
AcDbLine
 10
601.610703736841
 20
308.3135186817214
 30
0.0
 11
601.6107037368392
 21
296.8135186817214
 31
0.0
  0
LINE
  5
5EF11A48
330
5EF092C1
100
AcDbEntity
  8
JISSEN
100
AcDbLine
 10
598.3607037368365
 20
294.648455172259
 30
0.0
 11
598.3607037368387
 21
288.3135186819092
 31
0.0
  0
LINE
  5
5EF11A49
330
5EF092C1
100
AcDbEntity
  8
JISSEN
100
AcDbLine
 10
604.6107037368365
 20
294.6484551722599
 30
0.0
 11
598.360703736841
 21
294.6484551722608
 31
0.0
  0
LINE
  5
5EF11A4A
330
5EF092C1
100
AcDbEntity
  8
JISSEN
100
AcDbLine
 10
599.6107037368392
 20
296.8135186817219
 30
0.0
 11
598.3607037368365
 21
294.648455172259
 31
0.0
  0
LINE
  5
5EF11A4B
330
5EF092C1
100
AcDbEntity
  8
JISSEN
100
AcDbLine
 10
598.360703736836
 20
291.8135186817219
 30
0.0
 11
598.3607037368383
 21
289.313518681721
 31
0.0
  0
LINE
  5
5EF11A4C
330
5EF092C1
100
AcDbEntity
  8
JISSEN
100
AcDbLine
 10
604.6107037368365
 20
296.813518681721
 30
0.0
 11
599.6107037368392
 21
296.8135186817219
 31
0.0
  0
LINE
  5
5EF11A4D
330
5EF092C1
100
AcDbEntity
  8
SAISEN
100
AcDbLine
 10
604.6107037368374
 20
302.5635186817173
 30
0.0
 11
601.6107037368392
 21
296.8135186817214
 31
0.0
  0
LINE
  5
5EF11A4E
330
5EF092C1
100
AcDbEntity
  8
JISSEN
100
AcDbLine
 10
604.6107037368383
 20
308.8135186817201
 30
0.0
 11
600.1107037368401
 21
308.8135186817209
 31
0.0
  0
LINE
  5
5EF11A4F
330
5EF092C1
100
AcDbEntity
  8
JISSEN
100
AcDbLine
 10
599.6107037368402
 20
308.3135186817219
 30
0.0
 11
600.1107037368401
 21
308.8135186817209
 31
0.0
  0
LINE
  5
5EF11A50
330
5EF092C1
100
AcDbEntity
  8
JISSEN
100
AcDbLine
 10
601.610703736841
 20
308.3135186817214
 30
0.0
 11
599.6107037368402
 21
308.3135186817219
 31
0.0
  0
LINE
  5
5EF11A51
330
5EF092C1
100
AcDbEntity
  8
JISSEN
100
AcDbLine
 10
602.5491509240318
 20
308.8135186817205
 30
0.0
 11
601.610703736841
 21
308.3135186817214
 31
0.0
  0
LINE
  5
5EF11A52
330
5EF092C1
100
AcDbEntity
  8
JISSEN
100
AcDbLine
 10
598.3607037368387
 20
288.3135186819092
 30
0.0
 11
610.8607037368346
 21
288.3135186819083
 31
0.0
  0
LINE
  5
5EF11A53
330
5EF092C1
100
AcDbEntity
  8
ITTEN
100
AcDbLine
 10
664.3612267470999
 20
204.064041691982
 30
0.0
 11
643.8551300926897
 21
183.5579450375728
 31
0.0
  0
CIRCLE
  5
5EF11A54
330
5EF092C1
100
AcDbEntity
  8
JISSEN
100
AcDbCircle
 10
654.108178419895
 20
193.8109933647772
 30
0.0
 40
9.5
  0
LINE
  5
5EF11A55
330
5EF092C1
100
AcDbEntity
  8
ITTEN
100
AcDbLine
 10
664.3612267470989
 20
84.56299567145538
 30
0.0
 11
643.8551300926897
 21
105.0690923258655
 31
0.0
  0
CIRCLE
  5
5EF11A56
330
5EF092C1
100
AcDbEntity
  8
JISSEN
100
AcDbCircle
 10
654.108178419895
 20
94.81604399866114
 30
0.0
 40
9.5
  0
CIRCLE
  5
5EF11A57
330
5EF092C1
100
AcDbEntity
  8
JISSEN
100
AcDbCircle
 10
555.113229053778
 20
94.81604399866114
 30
0.0
 40
9.5
  0
LINE
  5
5EF11A58
330
5EF092C1
100
AcDbEntity
  8
ITTEN
100
AcDbLine
 10
544.8601807265731
 20
84.56299567145583
 30
0.0
 11
565.3662773809833
 21
105.0690923258659
 31
0.0
  0
CIRCLE
  5
5EF11A59
330
5EF092C1
100
AcDbEntity
  8
JISSEN
100
AcDbCircle
 10
555.113229053778
 20
193.8109933647772
 30
0.0
 40
9.5
  0
LINE
  5
5EF11A5A
330
5EF092C1
100
AcDbEntity
  8
ITTEN
100
AcDbLine
 10
544.8601807265727
 20
204.064041691982
 30
0.0
 11
565.3662773809833
 21
183.5579450375728
 31
0.0
  0
LINE
  5
5EF11A5B
330
5EF092C1
100
AcDbEntity
  8
JISSEN
100
AcDbLine
 10
544.6107037368358
 20
274.3135186819065
 30
0.0
 11
546.5803588514392
 21
273.1763377712798
 31
0.0
  0
ARC
  5
5EF11A5C
330
5EF092C1
100
AcDbEntity
  8
JISSEN
100
AcDbCircle
 10
543.8379450727881
 20
270.4381398066341
 30
0.0
 40
3.875378875274283
100
AcDbArc
 50
90.0
 51
135.0440732373291
  0
ARC
  5
5EF11A5D
330
5EF092C1
100
AcDbEntity
  8
JISSEN
100
AcDbCircle
 10
535.6107037368358
 20
260.5177745467542
 30
0.0
 40
13.79574413515414
100
AcDbArc
 50
66.57340249133092
 51
113.4265975086688
  0
LINE
  5
5EF11A5E
330
5EF092C1
100
AcDbEntity
  8
JISSEN
100
AcDbLine
 10
546.5803588514392
 20
273.1763377712798
 30
0.0
 11
546.5803588514392
 21
264.3135186819083
 31
0.0
  0
LINE
  5
5EF11A5F
330
5EF092C1
100
AcDbEntity
  8
JISSEN
100
AcDbLine
 10
541.095531294138
 20
273.1763377712798
 30
0.0
 11
541.0955312941375
 21
264.3135186819083
 31
0.0
  0
LINE
  5
5EF11A60
330
5EF092C1
100
AcDbEntity
  8
JISSEN
100
AcDbLine
 10
530.1258761795345
 20
264.3135186819083
 30
0.0
 11
530.1258761795345
 21
273.1763377712798
 31
0.0
  0
LINE
  5
5EF11A61
330
5EF092C1
100
AcDbEntity
  8
JISSEN
100
AcDbLine
 10
526.6107037368358
 20
274.3135186819065
 30
0.0
 11
524.6410486222332
 21
273.1763377712798
 31
0.0
  0
LINE
  5
5EF11A62
330
5EF092C1
100
AcDbEntity
  8
JISSEN
100
AcDbLine
 10
524.6410486222332
 20
264.3135186819083
 30
0.0
 11
524.6410486222332
 21
273.1763377712798
 31
0.0
  0
LINE
  5
5EF11A63
330
5EF092C1
100
AcDbEntity
  8
JISSEN
100
AcDbLine
 10
526.6107037368376
 20
274.3135186819074
 30
0.0
 11
544.6107037368358
 21
274.3135186819065
 31
0.0
  0
ARC
  5
5EF11A64
330
5EF092C1
100
AcDbEntity
  8
JISSEN
100
AcDbCircle
 10
527.3834624008843
 20
270.4381398066341
 30
0.0
 40
3.875378875274283
100
AcDbArc
 50
44.95592676267089
 51
90.0
  0
LINE
  5
5EF11A65
330
5EF092C1
100
AcDbEntity
  8
ITTEN
100
AcDbLine
 10
618.6107037368365
 20
264.3135186819083
 30
0.0
 11
590.6107037368364
 21
264.3135186819083
 31
0.0
  0
LINE
  5
5EF11A66
330
5EF092C1
100
AcDbEntity
  8
ITTEN
100
AcDbLine
 10
82.93611153203073
 20
436.2600286326007
 30
0.0
 11
319.9361115320307
 21
436.2600286326007
 31
0.0
  0
CIRCLE
  5
5EF11A67
330
5EF092C1
100
AcDbEntity
  8
JISSEN
100
AcDbCircle
 10
604.6107037368365
 20
144.3135186817191
 30
0.0
 40
87.50000000000364
  0
CIRCLE
  5
5EF11A68
330
5EF092C1
100
AcDbEntity
  8
JISSEN
100
AcDbCircle
 10
604.6107037368365
 20
144.3135186817191
 30
0.0
 40
86.0
  0
LINE
  5
5EF11A69
330
5EF092C1
100
AcDbEntity
  8
SAISEN
100
AcDbLine
 10
619.8239359675016
 20
58.14619561144787
 30
0.0
 11
620.0565312448148
 21
50.70351868172043
 31
0.0
  0
LINE
  5
5EF11A6A
330
5EF092C1
100
AcDbEntity
  8
JISSEN
100
AcDbLine
 10
621.535531244815
 20
50.70351868172043
 30
0.0
 11
621.2944168401291
 21
58.41879406438533
 31
0.0
  0
LINE
  5
5EF11A6B
330
5EF092C1
100
AcDbEntity
  8
SAISEN
100
AcDbLine
 10
589.3974715061712
 20
58.14619561144787
 30
0.0
 11
589.1648762288582
 21
50.70351868172043
 31
0.0
  0
LINE
  5
5EF11A6C
330
5EF092C1
100
AcDbEntity
  8
JISSEN
100
AcDbLine
 10
587.685876228858
 20
50.70351868172043
 30
0.0
 11
587.9269906335439
 21
58.41879406438533
 31
0.0
  0
LINE
  5
5EF11A6D
330
5EF092C1
100
AcDbEntity
  8
JISSEN
100
AcDbLine
 10
621.535531244815
 20
50.70351868172043
 30
0.0
 11
587.685876228858
 21
50.70351868172043
 31
0.0
  0
LINE
  5
5EF11A6E
330
5EF092C1
100
AcDbEntity
  8
JISSEN
100
AcDbLine
 10
618.0457325793809
 20
38.70351868172042
 30
0.0
 11
591.1756748942921
 21
38.70351868172042
 31
0.0
  0
LINE
  5
5EF11A6F
330
5EF092C1
100
AcDbEntity
  8
SAISEN
100
AcDbLine
 39
960.208308198174
 10
618.0457325793809
 20
50.70351868172043
 30
0.0
 11
604.6107037368365
 21
38.70351868172042
 31
0.0
  0
LINE
  5
5EF11A70
330
5EF092C1
100
AcDbEntity
  8
SAISEN
100
AcDbLine
 39
960.208308198174
 10
604.6107037368365
 20
50.70351868172043
 30
0.0
 11
618.0457325793809
 21
38.70351868172042
 31
0.0
  0
LINE
  5
5EF11A71
330
5EF092C1
100
AcDbEntity
  8
SAISEN
100
AcDbLine
 39
960.208308198174
 10
604.6107037368365
 20
38.70351868172042
 30
0.0
 11
591.1756748942921
 21
50.70351868172043
 31
0.0
  0
LINE
  5
5EF11A72
330
5EF092C1
100
AcDbEntity
  8
SAISEN
100
AcDbLine
 39
960.208308198174
 10
604.6107037368365
 20
50.70351868172043
 30
0.0
 11
591.1756748942921
 21
38.70351868172042
 31
0.0
  0
LINE
  5
5EF11A73
330
5EF092C1
100
AcDbEntity
  8
JISSEN
100
AcDbLine
 10
591.1756748942921
 20
38.70351868172042
 30
0.0
 11
591.1756748942921
 21
50.70351868172043
 31
0.0
  0
LINE
  5
5EF11A74
330
5EF092C1
100
AcDbEntity
  8
JISSEN
100
AcDbLine
 10
618.0457325793809
 20
50.70351868172043
 30
0.0
 11
618.0457325793809
 21
38.70351868172042
 31
0.0
  0
CIRCLE
  5
5EF11A75
330
5EF092C1
100
AcDbEntity
  8
JISSEN
100
AcDbCircle
 10
141.6803586709041
 20
470.7600286326005
 30
0.0
 40
9.0
  0
LWPOLYLINE
  5
5EF11A76
330
5EF092C1
100
AcDbEntity
  8
JISSEN
100
AcDbPolyline
 90
        6
 70
     1
 43
0.0
 10
136.4842062481969
 20
479.7600286326015
 10
131.2880538254906
 20
470.7600286326011
 10
136.4842062481974
 20
461.7600286326008
 10
146.8765110936104
 20
461.7600286326012
 10
152.0726635163172
 20
470.7600286326009
 10
146.87651109361
 20
479.7600286326018
  0
CIRCLE
  5
5EF11A77
330
5EF092C1
100
AcDbEntity
  8
JISSEN
100
AcDbCircle
 10
261.1918643931571
 20
470.7600286326005
 30
0.0
 40
9.0
  0
LWPOLYLINE
  5
5EF11A78
330
5EF092C1
100
AcDbEntity
  8
JISSEN
100
AcDbPolyline
 90
        6
 70
     1
 43
0.0
 10
250.7995595477428
 20
470.7600286326005
 10
255.9957119704499
 20
461.7600286326005
 10
266.3880168158634
 20
461.7600286326005
 10
271.5841692385697
 20
470.7600286326005
 10
266.3880168158634
 20
479.7600286326005
 10
255.995711970449
 20
479.7600286326005
  0
LWPOLYLINE
  5
5EF11A79
330
5EF092C1
100
AcDbEntity
  8
JISSEN
100
AcDbPolyline
 90
        6
 70
     1
 43
0.0
 10
271.5841692385715
 20
401.760028632601
 10
266.3880168158643
 20
392.760028632601
 10
255.9957119704508
 20
392.760028632601
 10
250.7995595477445
 20
401.760028632601
 10
255.9957119704508
 20
410.760028632601
 10
266.3880168158653
 20
410.760028632601
  0
CIRCLE
  5
5EF11A7A
330
5EF092C1
100
AcDbEntity
  8
JISSEN
100
AcDbCircle
 10
261.1918643931571
 20
401.7600286326009
 30
0.0
 40
9.0
  0
LWPOLYLINE
  5
5EF11A7B
330
5EF092C1
100
AcDbEntity
  8
JISSEN
100
AcDbPolyline
 90
        6
 70
     1
 43
0.0
 10
136.4842062481971
 20
410.760028632602
 10
146.8765110936107
 20
410.7600286326015
 10
152.0726635163174
 20
401.7600286326013
 10
146.8765110936105
 20
392.7600286326015
 10
136.4842062481975
 20
392.7600286326013
 10
131.2880538254903
 20
401.7600286326022
  0
CIRCLE
  5
5EF11A7C
330
5EF092C1
100
AcDbEntity
  8
JISSEN
100
AcDbCircle
 10
141.6803586709044
 20
401.7600286326011
 30
0.0
 40
9.0
  0
CIRCLE
  5
5EF11A7D
330
5EF092C1
100
AcDbEntity
  8
JISSEN
100
AcDbCircle
 10
201.4361115320307
 20
436.2600286326007
 30
0.0
 40
16.00000000000068
  0
CIRCLE
  5
5EF11A7E
330
5EF092C1
100
AcDbEntity
  8
JISSEN
100
AcDbCircle
 10
201.4361115320307
 20
436.2600286326007
 30
0.0
 40
5.000000000000682
  0
ARC
  5
5EF11A7F
330
5EF092C1
100
AcDbEntity
  8
JISSEN
100
AcDbCircle
 10
201.4361115320307
 20
436.2600286326007
 30
0.0
 40
4.500000000001136
100
AcDbArc
 50
117.2660444507609
 51
242.733955549239
  0
LINE
  5
5EF11A80
330
5EF092C1
100
AcDbEntity
  8
ITTEN
100
AcDbLine
 10
82.93611153203073
 20
144.3135186817191
 30
0.0
 11
319.9361115320257
 21
144.3135186817191
 31
0.0
  0
LINE
  5
5EF11A81
330
5EF092C1
100
AcDbEntity
  8
ITTEN
100
AcDbLine
 10
201.4361115320307
 20
531.7600286326007
 30
0.0
 11
201.4361115320307
 21
340.7600286326007
 31
0.0
  0
LINE
  5
5EF11A82
330
5EF092C1
100
AcDbEntity
  8
JISSEN
100
AcDbLine
 10
255.9361115320307
 20
455.2600286326008
 30
0.0
 11
281.9361115320307
 21
455.2600286326008
 31
0.0
  0
LINE
  5
5EF11A83
330
5EF092C1
100
AcDbEntity
  8
JISSEN
100
AcDbLine
 10
255.9361115320307
 20
417.2600286326007
 30
0.0
 11
281.9361115320307
 21
417.2600286326007
 31
0.0
  0
LINE
  5
5EF11A84
330
5EF092C1
100
AcDbEntity
  8
JISSEN
100
AcDbLine
 10
283.4361115320307
 20
418.7600286326008
 30
0.0
 11
283.4361115320307
 21
453.7600286326007
 31
0.0
  0
LINE
  5
5EF11A85
330
5EF092C1
100
AcDbEntity
  8
JISSEN
100
AcDbLine
 10
254.4361115320307
 20
450.7600286326002
 30
0.0
 11
254.4361115320307
 21
453.7600286326007
 31
0.0
  0
ARC
  5
5EF11A86
330
5EF092C1
100
AcDbEntity
  8
JISSEN
100
AcDbCircle
 10
255.9361115320307
 20
453.7600286326007
 30
0.0
 40
1.5
100
AcDbArc
 50
90.0
 51
180.0
  0
ARC
  5
5EF11A87
330
5EF092C1
100
AcDbEntity
  8
JISSEN
100
AcDbCircle
 10
255.9361115320307
 20
418.7600286326008
 30
0.0
 40
1.5
100
AcDbArc
 50
180.0
 51
270.0
  0
ARC
  5
5EF11A88
330
5EF092C1
100
AcDbEntity
  8
JISSEN
100
AcDbCircle
 10
281.9361115320307
 20
418.7600286326008
 30
0.0
 40
1.5
100
AcDbArc
 50
270.0
 51
0.0
  0
ARC
  5
5EF11A89
330
5EF092C1
100
AcDbEntity
  8
JISSEN
100
AcDbCircle
 10
281.9361115320307
 20
453.7600286326007
 30
0.0
 40
1.5
100
AcDbArc
 50
0.0
 51
90.0
  0
LINE
  5
5EF11A8A
330
5EF092C1
100
AcDbEntity
  8
JISSEN
100
AcDbLine
 10
210.7634905851209
 20
449.2600286326007
 30
0.0
 11
252.9361115320307
 21
449.2600286326003
 31
0.0
  0
LINE
  5
5EF11A8B
330
5EF092C1
100
AcDbEntity
  8
JISSEN
100
AcDbLine
 10
210.7634905851209
 20
423.2600286326007
 30
0.0
 11
252.9361115320307
 21
423.2600286325999
 31
0.0
  0
ARC
  5
5EF11A8C
330
5EF092C1
100
AcDbEntity
  8
JISSEN
100
AcDbCircle
 10
252.9361115320307
 20
450.7600286326002
 30
0.0
 40
1.5
100
AcDbArc
 50
270.0
 51
0.0
  0
LINE
  5
5EF11A8D
330
5EF092C1
100
AcDbEntity
  8
JISSEN
100
AcDbLine
 10
254.4361115320307
 20
421.7600286325998
 30
0.0
 11
254.4361115320307
 21
418.7600286326008
 31
0.0
  0
ARC
  5
5EF11A8E
330
5EF092C1
100
AcDbEntity
  8
JISSEN
100
AcDbCircle
 10
252.9361115320307
 20
421.7600286325998
 30
0.0
 40
1.5
100
AcDbArc
 50
0.0000000000004071
 51
90.0
  0
LINE
  5
5EF11A8F
330
5EF092C1
100
AcDbEntity
  8
JISSEN
100
AcDbLine
 10
254.4361115320307
 20
421.7600286325998
 30
0.0
 11
254.4361115320307
 21
450.7600286326002
 31
0.0
  0
ARC
  5
5EF11A90
330
5EF092C1
100
AcDbEntity
  8
JISSEN
100
AcDbCircle
 10
133.4531173349524
 20
270.2971236552545
 30
0.0
 40
3.875378875274283
100
AcDbArc
 50
44.95592676267089
 51
90.0
  0
LINE
  5
5EF11A91
330
5EF092C1
100
AcDbEntity
  8
JISSEN
100
AcDbLine
 10
132.680358670908
 20
274.1725025305287
 30
0.0
 11
150.6803586709007
 21
274.1725025305287
 31
0.0
  0
LINE
  5
5EF11A92
330
5EF092C1
100
AcDbEntity
  8
JISSEN
100
AcDbLine
 10
130.7107035563013
 20
264.1725025305287
 30
0.0
 11
130.7107035563013
 21
273.0353216199002
 31
0.0
  0
LINE
  5
5EF11A93
330
5EF092C1
100
AcDbEntity
  8
JISSEN
100
AcDbLine
 10
132.6803586709044
 20
274.1725025305269
 30
0.0
 11
130.7107035563013
 21
273.0353216199002
 31
0.0
  0
LINE
  5
5EF11A94
330
5EF092C1
100
AcDbEntity
  8
JISSEN
100
AcDbLine
 10
136.1955311136031
 20
264.1725025305287
 30
0.0
 11
136.1955311136031
 21
273.0353216199002
 31
0.0
  0
LINE
  5
5EF11A95
330
5EF092C1
100
AcDbEntity
  8
JISSEN
100
AcDbLine
 10
147.1651862282061
 20
273.0353216199002
 30
0.0
 11
147.1651862282061
 21
264.1725025305287
 31
0.0
  0
LINE
  5
5EF11A96
330
5EF092C1
100
AcDbEntity
  8
JISSEN
100
AcDbLine
 10
152.6500137855074
 20
273.0353216199002
 30
0.0
 11
152.6500137855074
 21
264.1725025305287
 31
0.0
  0
ARC
  5
5EF11A97
330
5EF092C1
100
AcDbEntity
  8
JISSEN
100
AcDbCircle
 10
141.6803586709044
 20
260.3767583953746
 30
0.0
 40
13.79574413515414
100
AcDbArc
 50
66.57340249133092
 51
113.4265975086688
  0
ARC
  5
5EF11A98
330
5EF092C1
100
AcDbEntity
  8
JISSEN
100
AcDbCircle
 10
149.9076000068563
 20
270.2971236552545
 30
0.0
 40
3.875378875274283
100
AcDbArc
 50
90.0
 51
135.0440732373291
  0
LINE
  5
5EF11A99
330
5EF092C1
100
AcDbEntity
  8
JISSEN
100
AcDbLine
 10
150.6803586709044
 20
274.1725025305269
 30
0.0
 11
152.6500137855074
 21
273.0353216199002
 31
0.0
  0
LINE
  5
5EF11A9A
330
5EF092C1
100
AcDbEntity
  8
JISSEN
100
AcDbLine
 39
960.208308198174
 10
214.8711403745742
 20
38.70351868172042
 30
0.0
 11
214.8711403745742
 21
50.70351868171997
 31
0.0
  0
LINE
  5
5EF11A9B
330
5EF092C1
100
AcDbEntity
  8
JISSEN
100
AcDbLine
 39
960.208308198174
 10
188.0010826894858
 20
38.70351868172042
 30
0.0
 11
188.0010826894858
 21
50.70351868171997
 31
0.0
  0
LINE
  5
5EF11A9C
330
5EF092C1
100
AcDbEntity
  8
JISSEN
100
AcDbLine
 10
214.8711403745742
 20
38.70351868172042
 30
0.0
 11
188.0010826894858
 21
38.70351868172042
 31
0.0
  0
LINE
  5
5EF11A9D
330
5EF092C1
100
AcDbEntity
  8
JISSEN
100
AcDbLine
 10
188.0010826894858
 20
50.70351868171997
 30
0.0
 11
184.5425490320312
 21
50.70351868171997
 31
0.0
  0
LINE
  5
5EF11A9E
330
5EF092C1
100
AcDbEntity
  8
JISSEN
100
AcDbLine
 10
218.3296740320324
 20
50.70351868171997
 30
0.0
 11
214.8711403745742
 21
50.70351868171997
 31
0.0
  0
LINE
  5
5EF11A9F
330
5EF092C1
100
AcDbEntity
  8
ITTEN
100
AcDbLine
 10
201.4361115320307
 20
321.3003762341477
 30
0.0
 11
201.4361115320307
 21
28.33870800663021
 31
0.0
  0
LINE
  5
5EF11AA0
330
5EF092C1
100
AcDbEntity
  8
SAISEN
100
AcDbLine
 10
186.3001352008086
 20
59.31351868171919
 30
0.0
 11
186.0215490320329
 21
50.70351868171997
 31
0.0
  0
LINE
  5
5EF11AA1
330
5EF092C1
100
AcDbEntity
  8
JISSEN
100
AcDbLine
 10
184.8116183630109
 20
59.31351868171919
 30
0.0
 11
184.5425490320312
 21
50.70351868171997
 31
0.0
  0
LINE
  5
5EF11AA2
330
5EF092C1
100
AcDbEntity
  8
JISSEN
100
AcDbLine
 10
218.0606047010505
 20
59.31351868171919
 30
0.0
 11
218.3296740320324
 21
50.70351868171997
 31
0.0
  0
LINE
  5
5EF11AA3
330
5EF092C1
100
AcDbEntity
  8
SAISEN
100
AcDbLine
 10
216.5816041857824
 20
59.31351868171919
 30
0.0
 11
216.8506740320308
 21
50.70351868171997
 31
0.0
  0
LINE
  5
5EF11AA4
330
5EF092C1
100
AcDbEntity
  8
JISSEN
100
AcDbLine
 10
252.9361115320298
 20
277.3135186819083
 30
0.0
 11
218.9361115320298
 21
277.3135186819083
 31
0.0
  0
LINE
  5
5EF11AA5
330
5EF092C1
100
AcDbEntity
  8
JISSEN
100
AcDbLine
 10
203.497664344839
 20
308.8135186817201
 30
0.0
 11
204.4361115320298
 21
308.313518681721
 31
0.0
  0
LINE
  5
5EF11AA6
330
5EF092C1
100
AcDbEntity
  8
JISSEN
100
AcDbLine
 10
204.4361115320298
 20
308.313518681721
 30
0.0
 11
206.4361115320298
 21
308.313518681721
 31
0.0
  0
LINE
  5
5EF11AA7
330
5EF092C1
100
AcDbEntity
  8
JISSEN
100
AcDbLine
 10
206.4361115320298
 20
308.313518681721
 30
0.0
 11
205.9361115320307
 21
308.8135186817201
 31
0.0
  0
LINE
  5
5EF11AA8
330
5EF092C1
100
AcDbEntity
  8
JISSEN
100
AcDbLine
 10
201.4361115320325
 20
308.8135186817201
 30
0.0
 11
205.9361115320307
 21
308.8135186817201
 31
0.0
  0
LINE
  5
5EF11AA9
330
5EF092C1
100
AcDbEntity
  8
JISSEN
100
AcDbLine
 10
217.4361115320302
 20
287.3135186819083
 30
0.0
 11
217.4361115320302
 21
264.3135186819083
 31
0.0
  0
ARC
  5
5EF11AAA
330
5EF092C1
100
AcDbEntity
  8
JISSEN
100
AcDbCircle
 10
218.9361115320298
 20
278.8135186819092
 30
0.0
 40
1.5
100
AcDbArc
 50
180.0
 51
270.0
  0
ARC
  5
5EF11AAB
330
5EF092C1
100
AcDbEntity
  8
JISSEN
100
AcDbCircle
 10
216.4361115320298
 20
287.3135186819083
 30
0.0
 40
1.0
100
AcDbArc
 50
0.0
 51
90.0
  0
LINE
  5
5EF11AAC
330
5EF092C1
100
AcDbEntity
  8
JISSEN
100
AcDbLine
 10
214.4361115320316
 20
288.3135186819083
 30
0.0
 11
216.4361115320298
 21
288.3135186819083
 31
0.0
  0
LINE
  5
5EF11AAD
330
5EF092C1
100
AcDbEntity
  8
SAISEN
100
AcDbLine
 10
201.4361115320325
 20
302.5635186817173
 30
0.0
 11
204.4361115320298
 21
296.813518681721
 31
0.0
  0
LINE
  5
5EF11AAE
330
5EF092C1
100
AcDbEntity
  8
JISSEN
100
AcDbLine
 10
207.6861115320298
 20
288.3135186819083
 30
0.0
 11
210.9361115320316
 21
288.3135186819083
 31
0.0
  0
LINE
  5
5EF11AAF
330
5EF092C1
100
AcDbEntity
  8
JISSEN
100
AcDbLine
 10
201.4361115320325
 20
296.813518681721
 30
0.0
 11
206.4361115320298
 21
296.813518681721
 31
0.0
  0
LINE
  5
5EF11AB0
330
5EF092C1
100
AcDbEntity
  8
JISSEN
100
AcDbLine
 10
207.6861115320325
 20
291.813518681721
 30
0.0
 11
207.6861115320298
 21
289.31351868172
 31
0.0
  0
LINE
  5
5EF11AB1
330
5EF092C1
100
AcDbEntity
  8
JISSEN
100
AcDbLine
 10
206.4361115320298
 20
296.813518681721
 30
0.0
 11
207.6861115320325
 21
294.648455172258
 31
0.0
  0
LINE
  5
5EF11AB2
330
5EF092C1
100
AcDbEntity
  8
JISSEN
100
AcDbLine
 10
201.4361115320325
 20
294.6484551722599
 30
0.0
 11
207.686111532028
 21
294.6484551722599
 31
0.0
  0
LINE
  5
5EF11AB3
330
5EF092C1
100
AcDbEntity
  8
JISSEN
100
AcDbLine
 10
207.6861115320298
 20
291.8135186817201
 30
0.0
 11
207.6861115320298
 21
289.31351868172
 31
0.0
  0
LINE
  5
5EF11AB4
330
5EF092C1
100
AcDbEntity
  8
JISSEN
100
AcDbLine
 10
195.1861115320334
 20
288.3135186819083
 30
0.0
 11
216.4361115320298
 21
288.3135186819083
 31
0.0
  0
LINE
  5
5EF11AB5
330
5EF092C1
100
AcDbEntity
  8
JISSEN
100
AcDbLine
 10
204.4361115320298
 20
308.313518681721
 30
0.0
 11
204.4361115320298
 21
296.813518681721
 31
0.0
  0
LINE
  5
5EF11AB6
330
5EF092C1
100
AcDbEntity
  8
JISSEN
100
AcDbLine
 10
206.4361115320298
 20
308.313518681721
 30
0.0
 11
206.4361115320298
 21
296.813518681721
 31
0.0
  0
LINE
  5
5EF11AB7
330
5EF092C1
100
AcDbEntity
  8
SAISEN
100
AcDbLine
 10
204.4361115320298
 20
308.313518681721
 30
0.0
 11
201.4361115320325
 21
302.5635186817246
 31
0.0
  0
ARC
  5
5EF11AB8
330
5EF092C1
100
AcDbEntity
  8
JISSEN
100
AcDbCircle
 10
281.9361115320298
 20
281.8135186819083
 30
0.0
 40
1.5
100
AcDbArc
 50
0.0
 51
90.0
  0
LINE
  5
5EF11AB9
330
5EF092C1
100
AcDbEntity
  8
JISSEN
100
AcDbLine
 10
283.4361115320307
 20
281.8135186819083
 30
0.0
 11
283.4361115320307
 21
265.3135186817201
 31
0.0
  0
LINE
  5
5EF11ABA
330
5EF092C1
100
AcDbEntity
  8
JISSEN
100
AcDbLine
 10
254.4361115320298
 20
281.8135186819083
 30
0.0
 11
254.4361115320298
 21
274.3135186819083
 31
0.0
  0
ARC
  5
5EF11ABB
330
5EF092C1
100
AcDbEntity
  8
JISSEN
100
AcDbCircle
 10
255.9361115320307
 20
281.8135186819083
 30
0.0
 40
1.5
100
AcDbArc
 50
90.0
 51
180.0
  0
ARC
  5
5EF11ABC
330
5EF092C1
100
AcDbEntity
  8
JISSEN
100
AcDbCircle
 10
252.9361115320298
 20
278.8135186819092
 30
0.0
 40
1.5
100
AcDbArc
 50
270.0
 51
0.0
  0
LINE
  5
5EF11ABD
330
5EF092C1
100
AcDbEntity
  8
JISSEN
100
AcDbLine
 10
281.9361115320298
 20
283.3135186819083
 30
0.0
 11
255.9361115320307
 21
283.3135186819083
 31
0.0
  0
LINE
  5
5EF11ABE
330
5EF092C1
100
AcDbEntity
  8
JISSEN
100
AcDbLine
 10
140.4361115318252
 20
246.3135186819083
 30
0.0
 11
143.4361115317951
 21
246.3135186819083
 31
0.0
  0
LINE
  5
5EF11ABF
330
5EF092C1
100
AcDbEntity
  8
JISSEN
100
AcDbLine
 10
119.4361115320352
 20
246.3135186819092
 30
0.0
 11
129.4361115319329
 21
246.3135186819092
 31
0.0
  0
LINE
  5
5EF11AC0
330
5EF092C1
100
AcDbEntity
  8
JISSEN
100
AcDbLine
 10
119.4361115320298
 20
246.3135186817191
 30
0.0
 11
143.4361115320316
 21
246.3135186817191
 31
0.0
  0
LINE
  5
5EF11AC1
330
5EF092C1
100
AcDbEntity
  8
JISSEN
100
AcDbLine
 10
192.9361115320289
 20
246.3135186818046
 30
0.0
 11
209.9361115320284
 21
246.3135186818246
 31
0.0
  0
LINE
  5
5EF11AC2
330
5EF092C1
100
AcDbEntity
  8
JISSEN
100
AcDbLine
 10
120.9361115320307
 20
264.3135186819083
 30
0.0
 11
281.9361115320307
 21
264.3135186819083
 31
0.0
  0
ARC
  5
5EF11AC3
330
5EF092C1
100
AcDbEntity
  8
JISSEN
100
AcDbCircle
 10
120.9361115320307
 20
262.8135186819092
 30
0.0
 40
1.5
100
AcDbArc
 50
90.0
 51
180.0
  0
LINE
  5
5EF11AC4
330
5EF092C1
100
AcDbEntity
  8
JISSEN
100
AcDbLine
 10
195.1861115320334
 20
288.3135186819083
 30
0.0
 11
191.9361115320316
 21
288.3135186819083
 31
0.0
  0
ARC
  5
5EF11AC5
330
5EF092C1
100
AcDbEntity
  8
JISSEN
100
AcDbCircle
 10
186.4361115320298
 20
287.3135186819083
 30
0.0
 40
1.0
100
AcDbArc
 50
90.0
 51
180.0
  0
LINE
  5
5EF11AC6
330
5EF092C1
100
AcDbEntity
  8
JISSEN
100
AcDbLine
 10
188.4361115320316
 20
288.3135186819083
 30
0.0
 11
186.4361115320298
 21
288.3135186819083
 31
0.0
  0
ARC
  5
5EF11AC7
330
5EF092C1
100
AcDbEntity
  8
JISSEN
100
AcDbCircle
 10
183.9361115320298
 20
265.8135186819083
 30
0.0
 40
1.5
100
AcDbArc
 50
270.0
 51
0.0
  0
LINE
  5
5EF11AC8
330
5EF092C1
100
AcDbEntity
  8
JISSEN
100
AcDbLine
 10
185.4361115320298
 20
287.3135186819083
 30
0.0
 11
185.4361115320298
 21
265.8135186819083
 31
0.0
  0
LINE
  5
5EF11AC9
330
5EF092C1
100
AcDbEntity
  8
JISSEN
100
AcDbLine
 10
195.1861115320325
 20
288.3135186819083
 30
0.0
 11
186.4361115320298
 21
288.3135186819083
 31
0.0
  0
LINE
  5
5EF11ACA
330
5EF092C1
100
AcDbEntity
  8
JISSEN
100
AcDbLine
 10
283.4361115320693
 20
229.8135186819114
 30
0.0
 11
283.4361115320307
 21
265.3135186817201
 31
0.0
  0
LINE
  5
5EF11ACB
330
5EF092C1
100
AcDbEntity
  8
JISSEN
100
AcDbLine
 10
283.4361115320307
 20
246.3135186819092
 30
0.0
 11
283.4361115320307
 21
281.8135186819083
 31
0.0
  0
LINE
  5
5EF11ACC
330
5EF092C1
100
AcDbEntity
  8
JISSEN
100
AcDbLine
 10
119.4361115320298
 20
262.8135186819092
 30
0.0
 11
119.4361115320689
 21
229.8135186815291
 31
0.0
  0
LINE
  5
5EF11ACD
330
5EF092C1
100
AcDbEntity
  8
JISSEN
100
AcDbLine
 10
311.4361115320257
 20
230.3135186817192
 30
0.0
 11
311.4361115320357
 21
58.31351868172919
 31
0.0
  0
LINE
  5
5EF11ACE
330
5EF092C1
100
AcDbEntity
  8
ITTEN
100
AcDbLine
 10
316.4361115320348
 20
74.31351868171919
 30
0.0
 11
282.4361115320307
 21
74.31351868171919
 31
0.0
  0
LINE
  5
5EF11ACF
330
5EF092C1
100
AcDbEntity
  8
ITTEN
100
AcDbLine
 10
316.4361115320266
 20
214.3135186817191
 30
0.0
 11
282.4361115320307
 21
214.3135186817191
 31
0.0
  0
ARC
  5
5EF11AD0
330
5EF092C1
100
AcDbEntity
  8
JISSEN
100
AcDbCircle
 10
201.4361115320307
 20
184.3135186817191
 30
0.0
 40
113.0
100
AcDbArc
 50
226.6509861010024
 51
255.52248781407
  0
LINE
  5
5EF11AD1
330
5EF092C1
100
AcDbEntity
  8
ITTEN
100
AcDbLine
 10
120.4361115320307
 20
74.31351868171919
 30
0.0
 11
86.43611153203073
 21
74.31351868171919
 31
0.0
  0
LINE
  5
5EF11AD2
330
5EF092C1
100
AcDbEntity
  8
ITTEN
100
AcDbLine
 10
120.4361115320307
 20
214.3135186817191
 30
0.0
 11
86.43611153203073
 21
214.3135186817191
 31
0.0
  0
LINE
  5
5EF11AD3
330
5EF092C1
100
AcDbEntity
  8
JISSEN
100
AcDbLine
 10
178.4361115320307
 20
59.31351868171919
 30
0.0
 11
186.2906115320288
 21
59.31351868171919
 31
0.0
  0
LINE
  5
5EF11AD4
330
5EF092C1
100
AcDbEntity
  8
JISSEN
100
AcDbLine
 10
186.2906115320288
 20
59.31351868171919
 30
0.0
 11
224.4361115320307
 21
59.31351868171919
 31
0.0
  0
LINE
  5
5EF11AD5
330
5EF092C1
100
AcDbEntity
  8
ITTEN
100
AcDbLine
 10
283.8755008410807
 20
74.31351868171919
 30
0.0
 11
283.8755008410807
 21
74.31351868171919
 31
0.0
  0
LINE
  5
5EF11AD6
330
5EF092C1
100
AcDbEntity
  8
JISSEN
100
AcDbLine
 10
207.6861115320325
 20
294.648455172258
 30
0.0
 11
207.6861115320298
 21
288.3135186819083
 31
0.0
  0
LINE
  5
5EF11AD7
330
5EF092C1
100
AcDbEntity
  8
JISSEN
100
AcDbLine
 10
195.1861115320316
 20
288.3135186819083
 30
0.0
 11
191.9361115320298
 21
288.3135186819083
 31
0.0
  0
LINE
  5
5EF11AD8
330
5EF092C1
100
AcDbEntity
  8
JISSEN
100
AcDbLine
 10
274.4361115320075
 20
228.3135186818901
 30
0.0
 11
281.9361115320725
 21
228.3135186819079
 31
0.0
  0
ARC
  5
5EF11AD9
330
5EF092C1
100
AcDbEntity
  8
JISSEN
100
AcDbCircle
 10
281.9361115320307
 20
262.8135186819092
 30
0.0
 40
1.5
100
AcDbArc
 50
0.0
 51
90.0
  0
LINE
  5
5EF11ADA
330
5EF092C1
100
AcDbEntity
  8
JISSEN
100
AcDbLine
 10
252.4361115320348
 20
274.3135186819065
 30
0.0
 11
250.4664564174317
 21
273.1763377712798
 31
0.0
  0
ARC
  5
5EF11ADB
330
5EF092C1
100
AcDbEntity
  8
JISSEN
100
AcDbCircle
 10
253.2088701960828
 20
270.4381398066341
 30
0.0
 40
3.875378875274283
100
AcDbArc
 50
44.95592676267089
 51
90.0
  0
ARC
  5
5EF11ADC
330
5EF092C1
100
AcDbEntity
  8
JISSEN
100
AcDbCircle
 10
261.4361115320348
 20
260.5177745467542
 30
0.0
 40
13.79574413515414
100
AcDbArc
 50
66.57340249133112
 51
113.426597508669
  0
LINE
  5
5EF11ADD
330
5EF092C1
100
AcDbEntity
  8
JISSEN
100
AcDbLine
 10
250.4664564174317
 20
273.1763377712798
 30
0.0
 11
250.4664564174317
 21
264.3135186819083
 31
0.0
  0
LINE
  5
5EF11ADE
330
5EF092C1
100
AcDbEntity
  8
JISSEN
100
AcDbLine
 10
255.9512839747331
 20
273.1763377712798
 30
0.0
 11
255.9512839747331
 21
264.3135186819083
 31
0.0
  0
LINE
  5
5EF11ADF
330
5EF092C1
100
AcDbEntity
  8
JISSEN
100
AcDbLine
 10
266.9209390893361
 20
264.3135186819083
 30
0.0
 11
266.9209390893361
 21
273.1763377712798
 31
0.0
  0
LINE
  5
5EF11AE0
330
5EF092C1
100
AcDbEntity
  8
JISSEN
100
AcDbLine
 10
270.4361115320348
 20
274.3135186819065
 30
0.0
 11
272.4057666466378
 21
273.1763377712798
 31
0.0
  0
LINE
  5
5EF11AE1
330
5EF092C1
100
AcDbEntity
  8
JISSEN
100
AcDbLine
 10
272.4057666466378
 20
264.3135186819083
 30
0.0
 11
272.4057666466378
 21
273.1763377712798
 31
0.0
  0
LINE
  5
5EF11AE2
330
5EF092C1
100
AcDbEntity
  8
JISSEN
100
AcDbLine
 10
270.4361115320311
 20
274.3135186819083
 30
0.0
 11
252.4361115320384
 21
274.3135186819083
 31
0.0
  0
ARC
  5
5EF11AE3
330
5EF092C1
100
AcDbEntity
  8
JISSEN
100
AcDbCircle
 10
269.6633528679867
 20
270.4381398066341
 30
0.0
 40
3.875378875274283
100
AcDbArc
 50
90.0
 51
135.0440732373291
  0
ARC
  5
5EF11AE4
330
5EF092C1
100
AcDbEntity
  8
JISSEN
100
AcDbCircle
 10
120.9361115320689
 20
229.8135186815327
 30
0.0
 40
1.5
100
AcDbArc
 50
180.0000000001334
 51
270.0000000001302
  0
ARC
  5
5EF11AE5
330
5EF092C1
100
AcDbEntity
  8
JISSEN
100
AcDbCircle
 10
281.9361115320694
 20
229.8135186819079
 30
0.0
 40
1.5
100
AcDbArc
 50
270.0000000001302
 51
0.0000000001334306
  0
LINE
  5
5EF11AE6
330
5EF092C1
100
AcDbEntity
  8
JISSEN
100
AcDbLine
 10
214.8711403745751
 20
50.70351868172043
 30
0.0
 11
214.8711403745751
 21
38.70351868172042
 31
0.0
  0
LINE
  5
5EF11AE7
330
5EF092C1
100
AcDbEntity
  8
JISSEN
100
AcDbLine
 10
188.0010826894863
 20
38.70351868172042
 30
0.0
 11
188.0010826894863
 21
50.70351868172043
 31
0.0
  0
LINE
  5
5EF11AE8
330
5EF092C1
100
AcDbEntity
  8
SAISEN
100
AcDbLine
 39
960.208308198174
 10
201.4361115320307
 20
50.70351868172043
 30
0.0
 11
188.0010826894863
 21
38.70351868172042
 31
0.0
  0
LINE
  5
5EF11AE9
330
5EF092C1
100
AcDbEntity
  8
SAISEN
100
AcDbLine
 39
960.208308198174
 10
201.4361115320307
 20
38.70351868172042
 30
0.0
 11
188.0010826894863
 21
50.70351868172043
 31
0.0
  0
LINE
  5
5EF11AEA
330
5EF092C1
100
AcDbEntity
  8
SAISEN
100
AcDbLine
 39
960.208308198174
 10
201.4361115320307
 20
50.70351868172043
 30
0.0
 11
214.8711403745751
 21
38.70351868172042
 31
0.0
  0
LINE
  5
5EF11AEB
330
5EF092C1
100
AcDbEntity
  8
SAISEN
100
AcDbLine
 39
960.208308198174
 10
214.8711403745751
 20
50.70351868172043
 30
0.0
 11
201.4361115320307
 21
38.70351868172042
 31
0.0
  0
LINE
  5
5EF11AEC
330
5EF092C1
100
AcDbEntity
  8
JISSEN
100
AcDbLine
 10
214.8711403745751
 20
38.70351868172042
 30
0.0
 11
188.0010826894863
 21
38.70351868172042
 31
0.0
  0
LINE
  5
5EF11AED
330
5EF092C1
100
AcDbEntity
  8
JISSEN
100
AcDbLine
 10
214.8711403745751
 20
38.70351868172042
 30
0.0
 11
188.0010826894863
 21
38.70351868172042
 31
0.0
  0
LINE
  5
5EF11AEE
330
5EF092C1
100
AcDbEntity
  8
JISSEN
100
AcDbLine
 10
188.0010826894867
 20
50.70351868171997
 30
0.0
 11
214.8711403745742
 21
50.70351868171951
 31
0.0
  0
LINE
  5
5EF11AEF
330
5EF092C1
100
AcDbEntity
  8
JISSEN
100
AcDbLine
 10
309.9361115320266
 20
231.8135186817191
 30
0.0
 11
309.9361115320357
 21
56.81351868171919
 31
0.0
  0
CIRCLE
  5
5EF11AF0
330
5EF092C1
100
AcDbEntity
  8
JISSEN
100
AcDbCircle
 10
201.4361115320307
 20
436.2600286326007
 30
0.0
 40
13.0
  0
CIRCLE
  5
5EF11AF1
330
5EF092C1
100
AcDbEntity
  8
JISSEN
100
AcDbCircle
 10
201.4361115320307
 20
436.2600286326007
 30
0.0
 40
11.70000000000004
  0
CIRCLE
  5
5EF11AF2
330
5EF092C1
100
AcDbEntity
  8
JISSEN
100
AcDbCircle
 10
201.4361115320307
 20
436.2600286326007
 30
0.0
 40
10.20000000000004
  0
CIRCLE
  5
5EF11AF3
330
5EF092C1
100
AcDbEntity
  8
JISSEN
100
AcDbCircle
 10
201.4361115320307
 20
436.2600286326007
 30
0.0
 40
8.700000000000045
  0
CIRCLE
  5
5EF11AF4
330
5EF092C1
100
AcDbEntity
  8
JISSEN
100
AcDbCircle
 10
201.4361115320307
 20
436.2600286326007
 30
0.0
 40
6.200000000000045
  0
LINE
  5
5EF11AF5
330
5EF092C1
100
AcDbEntity
  8
JISSEN
100
AcDbLine
 10
198.4361115320298
 20
440.2600286326007
 30
0.0
 11
204.4361115320316
 21
440.2600286326007
 31
0.0
  0
LINE
  5
5EF11AF6
330
5EF092C1
100
AcDbEntity
  8
JISSEN
100
AcDbLine
 10
198.4361115320298
 20
432.2600286326007
 30
0.0
 11
204.4361115320316
 21
432.2600286326007
 31
0.0
  0
ARC
  5
5EF11AF7
330
5EF092C1
100
AcDbEntity
  8
JISSEN
100
AcDbCircle
 10
201.4361115320307
 20
436.2600286326007
 30
0.0
 40
4.500000000001136
100
AcDbArc
 50
297.2660444507609
 51
62.73395554923903
  0
LINE
  5
5EF11AF8
330
5EF092C1
100
AcDbEntity
  8
JISSEN
100
AcDbLine
 10
191.4361115320307
 20
351.2600286326007
 30
0.0
 11
211.4361115320307
 21
351.2600286326007
 31
0.0
  0
LINE
  5
5EF11AF9
330
5EF092C1
100
AcDbEntity
  8
JISSEN
100
AcDbLine
 10
191.4361115320307
 20
353.5557361200592
 30
0.0
 11
191.4361115320307
 21
351.2600286326007
 31
0.0
  0
LINE
  5
5EF11AFA
330
5EF092C1
100
AcDbEntity
  8
JISSEN
100
AcDbLine
 10
211.4361115320307
 20
353.5557361200592
 30
0.0
 11
211.4361115320307
 21
351.2600286326007
 31
0.0
  0
ARC
  5
5EF11AFB
330
5EF092C1
100
AcDbEntity
  8
JISSEN
100
AcDbCircle
 10
189.9361115320307
 20
353.5557361200592
 30
0.0
 40
1.5
100
AcDbArc
 50
0.0
 51
82.08380286887196
  0
ARC
  5
5EF11AFC
330
5EF092C1
100
AcDbEntity
  8
JISSEN
100
AcDbCircle
 10
212.9361115320307
 20
353.5557361200592
 30
0.0
 40
1.5
100
AcDbArc
 50
97.91619713112803
 51
180.0
  0
LINE
  5
5EF11AFD
330
5EF092C1
100
AcDbEntity
  8
JISSEN
100
AcDbLine
 10
546.6451967523226
 20
228.3135186819101
 30
0.0
 11
580.1107037374785
 21
228.3135186819101
 31
0.0
  0
LINE
  5
5EF11AFE
330
5EF092C1
100
AcDbEntity
  8
JISSEN
100
AcDbLine
 10
629.1107037361943
 20
228.3135186819101
 30
0.0
 11
662.5762107213504
 21
228.3135186819101
 31
0.0
  0
LINE
  5
5EF11AFF
330
5EF092C1
100
AcDbEntity
  8
JISSEN
100
AcDbLine
 10
209.9361115320343
 20
228.3135186817401
 30
0.0
 11
192.9361115320343
 21
228.3135186817005
 31
0.0
  0
LINE
  5
5EF11B00
330
5EF092C1
100
AcDbEntity
  8
JISSEN
100
AcDbLine
 10
138.4361115320307
 20
218.3135186818901
 30
0.0
 11
138.4361115320307
 21
200.7500262916487
 31
0.0
  0
ARC
  5
5EF11B01
330
5EF092C1
100
AcDbEntity
  8
JISSEN
100
AcDbCircle
 10
128.4361115320307
 20
218.3135186818901
 30
0.0
 40
10.0
100
AcDbArc
 50
0.0
 51
89.9999999998632
  0
LINE
  5
5EF11B06
330
5EF092C1
100
AcDbEntity
  8
JISSEN
100
AcDbLine
 10
191.4361115320307
 20
229.8135186817005
 30
0.0
 11
191.4361115320307
 21
244.8135186818046
 31
0.0
  0
LINE
  5
5EF11B07
330
5EF092C1
100
AcDbEntity
  8
JISSEN
100
AcDbLine
 10
211.4361115320307
 20
229.81351868174
 30
0.0
 11
211.4361115320302
 21
244.8135186818246
 31
0.0
  0
ARC
  5
5EF11B08
330
5EF092C1
100
AcDbEntity
  8
JISSEN
100
AcDbCircle
 10
192.9361115320307
 20
244.8135186818046
 30
0.0
 40
1.5
100
AcDbArc
 50
90.00000000006513
 51
180.0
  0
LINE
  5
5EF11B09
330
5EF092C1
100
AcDbEntity
  8
JISSEN
100
AcDbLine
 10
192.9361115320289
 20
246.3135186818046
 30
0.0
 11
143.4361115320316
 21
246.3135186817191
 31
0.0
  0
LINE
  5
5EF11B0A
330
5EF092C1
100
AcDbEntity
  8
JISSEN
100
AcDbLine
 10
120.9361115320725
 20
228.3135186815327
 30
0.0
 11
192.9361115320343
 21
228.3135186817005
 31
0.0
  0
ARC
  5
5EF11B0B
330
5EF092C1
100
AcDbEntity
  8
JISSEN
100
AcDbCircle
 10
192.9361115320307
 20
229.8135186817005
 30
0.0
 40
1.5
100
AcDbArc
 50
180.0000000000007
 51
270.0000000001302
  0
ARC
  5
5EF11B0C
330
5EF092C1
100
AcDbEntity
  8
JISSEN
100
AcDbCircle
 10
209.9361115320302
 20
244.8135186818246
 30
0.0
 40
1.5
100
AcDbArc
 50
0.0
 51
90.00000000006513
  0
LINE
  5
5EF11B0D
330
5EF092C1
100
AcDbEntity
  8
JISSEN
100
AcDbLine
 10
209.9361115320284
 20
246.3135186818246
 30
0.0
 11
283.4361115320512
 21
246.3135186818246
 31
0.0
  0
ARC
  5
5EF11B0E
330
5EF092C1
100
AcDbEntity
  8
JISSEN
100
AcDbCircle
 10
209.9361115320307
 20
229.81351868174
 30
0.0
 40
1.5
100
AcDbArc
 50
270.0000000001302
 51
0.0000000000008142
  0
LINE
  5
5EF11B0F
330
5EF092C1
100
AcDbEntity
  8
JISSEN
100
AcDbLine
 10
209.9361115320343
 20
228.3135186817401
 30
0.0
 11
274.436111532007
 21
228.3135186818906
 31
0.0
  0
LINE
  5
5EF11B10
330
5EF092C1
100
AcDbEntity
  8
SAISEN
100
AcDbLine
 10
191.8113547489874
 20
228.8210862260655
 30
0.0
 11
211.060868315074
 21
245.8059511374597
 31
0.0
  0
LINE
  5
5EF11B11
330
5EF092C1
100
AcDbEntity
  8
SAISEN
100
AcDbLine
 10
211.0608683150762
 20
228.8210862261073
 30
0.0
 11
191.8113547489847
 21
245.8059511374374
 31
0.0
  0
CIRCLE
  5
5EF11B12
330
5EF092C1
100
AcDbEntity
  8
JISSEN
100
AcDbCircle
 10
201.4361115258407
 20
108.3135186817191
 30
0.0
 40
22.0
  0
CIRCLE
  5
5EF11B13
330
5EF092C1
100
AcDbEntity
  8
NITEN
100
AcDbCircle
 10
201.4361115320307
 20
108.3135186793244
 30
0.0
 40
20.0
  0
ARC
  5
5EF11B14
330
5EF092C1
100
AcDbEntity
  8
JISSEN
100
AcDbCircle
 10
201.4361115382198
 20
-24.10353423152059
 30
0.0
 40
111.6923054989555
100
AcDbArc
 50
96.74289788978519
 51
100.315208192152
  0
ARC
  5
5EF11B15
330
5EF092C1
100
AcDbEntity
  8
JISSEN
100
AcDbCircle
 10
201.4361115382198
 20
-24.10353423152059
 30
0.0
 40
111.6923054989555
100
AcDbArc
 50
79.68479180784794
 51
83.25710211652468
  0
LINE
  5
5EF11B16
330
5EF092C1
100
AcDbEntity
  8
JISSEN
100
AcDbLine
 10
519.6107037368355
 20
229.8135186819101
 30
0.0
 11
519.6107037368355
 21
244.8135186819088
 31
0.0
  0
LINE
  5
5EF11B17
330
5EF092C1
100
AcDbEntity
  8
JISSEN
100
AcDbLine
 10
521.1107037368356
 20
246.3135186819088
 30
0.0
 11
522.6107037368356
 21
246.3135186819092
 31
0.0
  0
ARC
  5
5EF11B18
330
5EF092C1
100
AcDbEntity
  8
JISSEN
100
AcDbCircle
 10
521.1107037368356
 20
244.8135186819088
 30
0.0
 40
1.5
100
AcDbArc
 50
90.0
 51
180.0
  0
ARC
  5
5EF11B19
330
5EF092C1
100
AcDbEntity
  8
JISSEN
100
AcDbCircle
 10
521.1107037368356
 20
229.8135186819101
 30
0.0
 40
1.5
100
AcDbArc
 50
180.0
 51
270.0
  0
LWPOLYLINE
  5
5EF11D3F
330
5EF092C1
100
AcDbEntity
  8
JISSEN
100
AcDbPolyline
 90
        6
 70
     1
 43
0.0
 10
196.2399591093235
 20
514.2600286326017
 10
191.0438066866172
 20
505.2600286326012
 10
196.2399591093239
 20
496.2600286326011
 10
206.632263954737
 20
496.2600286326013
 10
211.8284163774437
 20
505.260028632601
 10
206.6322639547365
 20
514.2600286326021
  0
CIRCLE
  5
5EF11D40
330
5EF092C1
100
AcDbEntity
  8
JISSEN
100
AcDbCircle
 10
201.4361115320307
 20
505.2600286326008
 30
0.0
 40
9.0
  0
CIRCLE
  5
5EF11D41
330
5EF092C1
100
AcDbEntity
  8
JISSEN
100
AcDbCircle
 10
201.4361115320307
 20
367.2600286326007
 30
0.0
 40
9.0
  0
LWPOLYLINE
  5
5EF11D42
330
5EF092C1
100
AcDbEntity
  8
JISSEN
100
AcDbPolyline
 90
        6
 70
     1
 43
0.0
 10
196.2399591093235
 20
376.2600286326017
 10
191.0438066866172
 20
367.2600286326013
 10
196.2399591093239
 20
358.2600286326011
 10
206.632263954737
 20
358.2600286326014
 10
211.8284163774437
 20
367.2600286326011
 10
206.6322639547365
 20
376.2600286326021
  0
LINE
  5
5EF11D43
330
5EF092C1
100
AcDbEntity
  8
JISSEN
100
AcDbLine
 10
273.9361115320307
 20
228.3135186818901
 30
0.0
 11
279.4361115320307
 21
228.3135186818901
 31
0.0
  0
LINE
  5
5EF11D44
330
5EF092C1
100
AcDbEntity
  8
JISSEN
100
AcDbLine
 10
138.4361115320307
 20
218.3135186818901
 30
0.0
 11
138.4361115320307
 21
200.7500262916487
 31
0.0
  0
ARC
  5
5EF11D45
330
5EF092C1
100
AcDbEntity
  8
JISSEN
100
AcDbCircle
 10
128.4361115320307
 20
218.3135186818901
 30
0.0
 40
10.0
100
AcDbArc
 50
0.0
 51
89.9999999998632
  0
LINE
  5
5EF11D46
330
5EF092C1
100
AcDbEntity
  8
JISSEN
100
AcDbLine
 10
128.9361115320307
 20
228.3135186818901
 30
0.0
 11
123.4361115320307
 21
228.3135186818901
 31
0.0
  0
LINE
  5
5EF11D4B
330
5EF092C1
100
AcDbEntity
  8
JISSEN
100
AcDbLine
 10
212.4057666466337
 20
273.0353216199002
 30
0.0
 11
212.4057666466337
 21
264.1725025305287
 31
0.0
  0
LINE
  5
5EF11D4C
330
5EF092C1
100
AcDbEntity
  8
JISSEN
100
AcDbLine
 10
206.9209390893324
 20
273.0353216199002
 30
0.0
 11
206.9209390893324
 21
264.1725025305287
 31
0.0
  0
LINE
  5
5EF11D4D
330
5EF092C1
100
AcDbEntity
  8
JISSEN
100
AcDbLine
 10
195.9512839747294
 20
264.1725025305287
 30
0.0
 11
195.9512839747294
 21
273.0353216199002
 31
0.0
  0
LINE
  5
5EF11D4E
330
5EF092C1
100
AcDbEntity
  8
JISSEN
100
AcDbLine
 10
190.4664564174277
 20
264.1725025305287
 30
0.0
 11
190.4664564174277
 21
273.0353216199002
 31
0.0
  0
LINE
  5
5EF11D4F
330
5EF092C1
100
AcDbEntity
  8
JISSEN
100
AcDbLine
 10
210.4361115320307
 20
274.1725025305269
 30
0.0
 11
212.4057666466337
 21
273.0353216199002
 31
0.0
  0
ARC
  5
5EF11D50
330
5EF092C1
100
AcDbEntity
  8
JISSEN
100
AcDbCircle
 10
209.6633528679826
 20
270.2971236552545
 30
0.0
 40
3.875378875274283
100
AcDbArc
 50
90.0
 51
135.0440732373291
  0
ARC
  5
5EF11D51
330
5EF092C1
100
AcDbEntity
  8
JISSEN
100
AcDbCircle
 10
201.4361115320307
 20
260.3767583953746
 30
0.0
 40
13.79574413515414
100
AcDbArc
 50
66.57340249133092
 51
113.4265975086688
  0
LINE
  5
5EF11D52
330
5EF092C1
100
AcDbEntity
  8
JISSEN
100
AcDbLine
 10
192.4361115320307
 20
274.1725025305269
 30
0.0
 11
190.4664564174277
 21
273.0353216199002
 31
0.0
  0
LINE
  5
5EF11D53
330
5EF092C1
100
AcDbEntity
  8
JISSEN
100
AcDbLine
 10
192.4361115320343
 20
274.1725025305287
 30
0.0
 11
210.4361115320271
 21
274.1725025305287
 31
0.0
  0
ARC
  5
5EF11D54
330
5EF092C1
100
AcDbEntity
  8
JISSEN
100
AcDbCircle
 10
193.2088701960788
 20
270.2971236552545
 30
0.0
 40
3.875378875274283
100
AcDbArc
 50
44.95592676267089
 51
90.0
  0
LINE
  5
5EF11D55
330
5EF092C1
100
AcDbEntity
  8
JISSEN
100
AcDbLine
 10
575.5955312941387
 20
273.1763377712798
 30
0.0
 11
575.5955312941382
 21
264.3135186819083
 31
0.0
  0
LINE
  5
5EF11D56
330
5EF092C1
100
AcDbEntity
  8
JISSEN
100
AcDbLine
 10
581.0803588514399
 20
273.1763377712798
 30
0.0
 11
581.0803588514399
 21
264.3135186819083
 31
0.0
  0
LINE
  5
5EF11D57
330
5EF092C1
100
AcDbEntity
  8
JISSEN
100
AcDbLine
 10
559.1410486222339
 20
264.3135186819083
 30
0.0
 11
559.1410486222339
 21
273.1763377712798
 31
0.0
  0
LINE
  5
5EF11D58
330
5EF092C1
100
AcDbEntity
  8
JISSEN
100
AcDbLine
 10
564.6258761795352
 20
264.3135186819083
 30
0.0
 11
564.6258761795352
 21
273.1763377712798
 31
0.0
  0
ARC
  5
5EF11D59
330
5EF092C1
100
AcDbEntity
  8
JISSEN
100
AcDbCircle
 10
561.883462400885
 20
270.4381398066341
 30
0.0
 40
3.875378875274283
100
AcDbArc
 50
44.95592676267089
 51
90.0
  0
LINE
  5
5EF11D5A
330
5EF092C1
100
AcDbEntity
  8
JISSEN
100
AcDbLine
 10
561.1107037368383
 20
274.3135186819074
 30
0.0
 11
579.1107037368365
 21
274.3135186819065
 31
0.0
  0
LINE
  5
5EF11D5B
330
5EF092C1
100
AcDbEntity
  8
JISSEN
100
AcDbLine
 10
561.1107037368364
 20
274.3135186819065
 30
0.0
 11
559.1410486222339
 21
273.1763377712798
 31
0.0
  0
ARC
  5
5EF11D5C
330
5EF092C1
100
AcDbEntity
  8
JISSEN
100
AcDbCircle
 10
570.1107037368365
 20
260.5177745467542
 30
0.0
 40
13.79574413515414
100
AcDbArc
 50
66.57340249133092
 51
113.4265975086688
  0
ARC
  5
5EF11D5D
330
5EF092C1
100
AcDbEntity
  8
JISSEN
100
AcDbCircle
 10
578.3379450727888
 20
270.4381398066341
 30
0.0
 40
3.875378875274283
100
AcDbArc
 50
90.0
 51
135.0440732373291
  0
LINE
  5
5EF11D5E
330
5EF092C1
100
AcDbEntity
  8
JISSEN
100
AcDbLine
 10
579.1107037368365
 20
274.3135186819065
 30
0.0
 11
581.0803588514399
 21
273.1763377712798
 31
0.0
  0
LINE
  5
5EF11D5F
330
5EF092C1
100
AcDbEntity
  8
JISSEN
100
AcDbLine
 10
630.1107037368365
 20
274.3135186819065
 30
0.0
 11
628.141048622233
 21
273.1763377712798
 31
0.0
  0
ARC
  5
5EF11D60
330
5EF092C1
100
AcDbEntity
  8
JISSEN
100
AcDbCircle
 10
630.8834624008841
 20
270.4381398066341
 30
0.0
 40
3.875378875274283
100
AcDbArc
 50
44.95592676267089
 51
90.0
  0
ARC
  5
5EF11D61
330
5EF092C1
100
AcDbEntity
  8
JISSEN
100
AcDbCircle
 10
639.1107037368365
 20
260.5177745467542
 30
0.0
 40
13.79574413515414
100
AcDbArc
 50
66.57340249133112
 51
113.426597508669
  0
LINE
  5
5EF11D62
330
5EF092C1
100
AcDbEntity
  8
JISSEN
100
AcDbLine
 10
648.1107037368365
 20
274.3135186819065
 30
0.0
 11
650.0803588514391
 21
273.1763377712798
 31
0.0
  0
LINE
  5
5EF11D63
330
5EF092C1
100
AcDbEntity
  8
JISSEN
100
AcDbLine
 10
648.1107037368347
 20
274.3135186819074
 30
0.0
 11
630.1107037368365
 21
274.3135186819065
 31
0.0
  0
ARC
  5
5EF11D64
330
5EF092C1
100
AcDbEntity
  8
JISSEN
100
AcDbCircle
 10
647.337945072788
 20
270.4381398066341
 30
0.0
 40
3.875378875274283
100
AcDbArc
 50
90.0
 51
135.0440732373291
  0
LINE
  5
5EF11D65
330
5EF092C1
100
AcDbEntity
  8
JISSEN
100
AcDbLine
 10
644.5955312941378
 20
264.3135186819083
 30
0.0
 11
644.5955312941378
 21
273.1763377712798
 31
0.0
  0
LINE
  5
5EF11D66
330
5EF092C1
100
AcDbEntity
  8
JISSEN
100
AcDbLine
 10
650.0803588514391
 20
264.3135186819083
 30
0.0
 11
650.0803588514391
 21
273.1763377712798
 31
0.0
  0
LINE
  5
5EF11D67
330
5EF092C1
100
AcDbEntity
  8
JISSEN
100
AcDbLine
 10
628.141048622233
 20
273.1763377712798
 30
0.0
 11
628.141048622233
 21
264.3135186819083
 31
0.0
  0
LINE
  5
5EF11D68
330
5EF092C1
100
AcDbEntity
  8
JISSEN
100
AcDbLine
 10
633.6258761795343
 20
273.1763377712798
 30
0.0
 11
633.6258761795347
 21
264.3135186819083
 31
0.0
  0
ARC
  5
5EF11D69
330
5EF092C1
100
AcDbEntity
  8
JISSEN
100
AcDbCircle
 10
681.8379450727887
 20
270.4381398066341
 30
0.0
 40
3.875378875274283
100
AcDbArc
 50
90.0
 51
135.0440732373291
  0
LINE
  5
5EF11D6A
330
5EF092C1
100
AcDbEntity
  8
JISSEN
100
AcDbLine
 10
682.6107037368354
 20
274.3135186819074
 30
0.0
 11
664.6107037368372
 21
274.3135186819065
 31
0.0
  0
LINE
  5
5EF11D6B
330
5EF092C1
100
AcDbEntity
  8
JISSEN
100
AcDbLine
 10
684.5803588514398
 20
264.3135186819083
 30
0.0
 11
684.5803588514398
 21
273.1763377712798
 31
0.0
  0
LINE
  5
5EF11D6C
330
5EF092C1
100
AcDbEntity
  8
JISSEN
100
AcDbLine
 10
682.6107037368371
 20
274.3135186819065
 30
0.0
 11
684.5803588514398
 21
273.1763377712798
 31
0.0
  0
LINE
  5
5EF11D6D
330
5EF092C1
100
AcDbEntity
  8
JISSEN
100
AcDbLine
 10
679.0955312941385
 20
264.3135186819083
 30
0.0
 11
679.0955312941385
 21
273.1763377712798
 31
0.0
  0
LINE
  5
5EF11D6E
330
5EF092C1
100
AcDbEntity
  8
JISSEN
100
AcDbLine
 10
668.125876179535
 20
273.1763377712798
 30
0.0
 11
668.1258761795354
 21
264.3135186819083
 31
0.0
  0
LINE
  5
5EF11D6F
330
5EF092C1
100
AcDbEntity
  8
JISSEN
100
AcDbLine
 10
662.6410486222336
 20
273.1763377712798
 30
0.0
 11
662.6410486222336
 21
264.3135186819083
 31
0.0
  0
ARC
  5
5EF11D70
330
5EF092C1
100
AcDbEntity
  8
JISSEN
100
AcDbCircle
 10
673.6107037368372
 20
260.5177745467542
 30
0.0
 40
13.79574413515414
100
AcDbArc
 50
66.57340249133112
 51
113.426597508669
  0
ARC
  5
5EF11D71
330
5EF092C1
100
AcDbEntity
  8
JISSEN
100
AcDbCircle
 10
665.3834624008847
 20
270.4381398066341
 30
0.0
 40
3.875378875274283
100
AcDbArc
 50
44.95592676267089
 51
90.0
  0
LINE
  5
5EF11D72
330
5EF092C1
100
AcDbEntity
  8
JISSEN
100
AcDbLine
 10
664.6107037368372
 20
274.3135186819065
 30
0.0
 11
662.6410486222336
 21
273.1763377712798
 31
0.0
  0
LINE
  5
5EF11D73
330
5EF092C1
100
AcDbEntity
  8
JISSEN
100
AcDbLine
 10
541.6107037368365
 20
218.3135186818901
 30
0.0
 11
541.6107037368365
 21
205.0362491868655
 31
0.0
  0
LINE
  5
5EF11D74
330
5EF092C1
100
AcDbEntity
  8
JISSEN
100
AcDbLine
 10
667.6107037368365
 20
218.3135186818901
 30
0.0
 11
667.6107037368365
 21
205.0362491868655
 31
0.0
  0
ARC
  5
5EF11D75
330
5EF092C1
100
AcDbEntity
  8
JISSEN
100
AcDbCircle
 10
677.6107037368364
 20
218.3135186818901
 30
0.0
 40
10.0
100
AcDbArc
 50
90.00000000013027
 51
180.0
  0
ARC
  5
5EF11D76
330
5EF092C1
100
AcDbEntity
  8
JISSEN
100
AcDbCircle
 10
531.6107037368364
 20
218.3135186818901
 30
0.0
 40
10.0
100
AcDbArc
 50
0.0
 51
89.9999999998632
  0
ARC
  5
5EF11D77
330
5EF092C1
100
AcDbEntity
  8
JISSEN
100
AcDbCircle
 10
201.4361115320307
 20
184.3135186817191
 30
0.0
 40
113.0
100
AcDbArc
 50
284.4775121859299
 51
313.3490138989975
  0
LINE
  5
5EF11D78
330
5EF092C1
100
AcDbEntity
  8
JISSEN
100
AcDbLine
 10
287.4361115320307
 20
229.8135186817191
 30
0.0
 11
287.4361115320307
 21
58.81351868171918
 31
0.0
  0
LINE
  5
5EF11D79
330
5EF092C1
100
AcDbEntity
  8
JISSEN
100
AcDbLine
 10
115.4361115320307
 20
521.7600286326006
 30
0.0
 11
115.4361115320307
 21
350.7600286326009
 31
0.0
  0
LINE
  5
5EF11D7A
330
5EF092C1
100
AcDbEntity
  8
JISSEN
100
AcDbLine
 10
92.93611153203551
 20
348.7600286326007
 30
0.0
 11
92.93611153203347
 21
523.7600286325988
 31
0.0
  0
LINE
  5
5EF11D7B
330
5EF092C1
100
AcDbEntity
  8
JISSEN
100
AcDbLine
 10
91.43611153203073
 20
468.7600286326008
 30
0.0
 11
91.43611153203073
 21
350.3060588991677
 31
0.0
  0
LINE
  5
5EF11D7C
330
5EF092C1
100
AcDbEntity
  8
JISSEN
100
AcDbLine
 10
91.4361115320354
 20
522.2600286326008
 30
0.0
 11
91.43611153203073
 21
350.3060588991677
 31
0.0
  0
LINE
  5
5EF11D7D
330
5EF092C1
100
AcDbEntity
  8
JISSEN
100
AcDbLine
 10
287.4361115320307
 20
521.7600286326006
 30
0.0
 11
287.4361115320307
 21
350.7600286326009
 31
0.0
  0
LINE
  5
5EF11D7E
330
5EF092C1
100
AcDbEntity
  8
JISSEN
100
AcDbLine
 10
309.9361115320268
 20
523.7600286326007
 30
0.0
 11
309.9361115320259
 21
348.7600286326007
 31
0.0
  0
LINE
  5
5EF11D7F
330
5EF092C1
100
AcDbEntity
  8
JISSEN
100
AcDbLine
 10
311.4361115320261
 20
522.2600286326008
 30
0.0
 11
311.4361115320261
 21
350.2600286326007
 31
0.0
  0
ARC
  5
5EF11D80
330
5EF092C1
100
AcDbEntity
  8
JISSEN
100
AcDbCircle
 10
201.4361115320307
 20
436.2600286326007
 30
0.0
 40
82.0
100
AcDbArc
 50
13.39760950171219
 51
346.6023904982876
  0
ARC
  5
5EF11D81
330
5EF092C1
100
AcDbEntity
  8
JISSEN
100
AcDbCircle
 10
120.4361115320307
 20
404.5110128998258
 30
0.0
 40
5.0
100
AcDbArc
 50
21.40334963940719
 51
180.0
  0
ARC
  5
5EF11D82
330
5EF092C1
100
AcDbEntity
  8
JISSEN
100
AcDbCircle
 10
120.4361115320307
 20
468.0090443653758
 30
0.0
 40
5.0
100
AcDbArc
 50
180.0
 51
338.5966503605928
  0
ARC
  5
5EF11D83
330
5EF092C1
100
AcDbEntity
  8
JISSEN
100
AcDbCircle
 10
282.4361115320307
 20
404.5110128998258
 30
0.0
 40
5.0
100
AcDbArc
 50
0.0
 51
158.5966503605928
  0
ARC
  5
5EF11D84
330
5EF092C1
100
AcDbEntity
  8
JISSEN
100
AcDbCircle
 10
282.4361115320307
 20
468.0090443653758
 30
0.0
 40
5.0
100
AcDbArc
 50
201.4033496394071
 51
0.0
  0
LINE
  5
5EF11D85
330
5EF092C1
100
AcDbEntity
  8
ITTEN
100
AcDbLine
 10
120.4361115320307
 20
366.2600286326007
 30
0.0
 11
86.43611153203073
 21
366.2600286326007
 31
0.0
  0
LINE
  5
5EF11D86
330
5EF092C1
100
AcDbEntity
  8
ITTEN
100
AcDbLine
 10
120.4361115320307
 20
506.2600286326008
 30
0.0
 11
86.43611153203073
 21
506.2600286326008
 31
0.0
  0
LINE
  5
5EF11D87
330
5EF092C1
100
AcDbEntity
  8
ITTEN
100
AcDbLine
 10
316.4361115320348
 20
366.2600286326007
 30
0.0
 11
282.4361115320307
 21
366.2600286326007
 31
0.0
  0
LINE
  5
5EF11D88
330
5EF092C1
100
AcDbEntity
  8
ITTEN
100
AcDbLine
 10
316.4361115320266
 20
506.2600286326008
 30
0.0
 11
282.4361115320307
 21
506.2600286326008
 31
0.0
  0
ARC
  5
5EF11D89
330
5EF092C1
100
AcDbEntity
  8
JISSEN
100
AcDbCircle
 10
274.4361115320307
 20
218.3135186818901
 30
0.0
 40
10.0
100
AcDbArc
 50
90.00000000013027
 51
180.0
  0
LINE
  5
5EF11D8A
330
5EF092C1
100
AcDbEntity
  8
JISSEN
100
AcDbLine
 10
264.4361115320307
 20
218.3135186818901
 30
0.0
 11
264.4361115320307
 21
200.7500262916487
 31
0.0
  0
ARC
  5
5EF11D8B
330
5EF092C1
100
AcDbEntity
  8
JISSEN
100
AcDbCircle
 10
274.4361115320307
 20
218.3135186818901
 30
0.0
 40
10.0
100
AcDbArc
 50
90.00000000013027
 51
180.0
  0
LINE
  5
5EF11D8C
330
5EF092C1
100
AcDbEntity
  8
JISSEN
100
AcDbLine
 10
264.4361115320307
 20
218.3135186818901
 30
0.0
 11
264.4361115320307
 21
200.7500262916487
 31
0.0
  0
LINE
  5
5EF11D94
330
5EF092C1
100
AcDbEntity
  8
JISSEN
100
AcDbLine
 10
175.4361115320307
 20
71.99700164170412
 30
0.0
 11
175.4361115320307
 21
62.31351868171919
 31
0.0
  0
LINE
  5
5EF11D95
330
5EF092C1
100
AcDbEntity
  8
JISSEN
100
AcDbLine
 10
227.4361115320307
 20
71.99700164170412
 30
0.0
 11
227.4361115320307
 21
62.31351868171919
 31
0.0
  0
ARC
  5
5EF11D96
330
5EF092C1
100
AcDbEntity
  8
JISSEN
100
AcDbCircle
 10
178.4361115320307
 20
62.31351868171919
 30
0.0
 40
3.0
100
AcDbArc
 50
179.9999999999998
 51
270.0
  0
ARC
  5
5EF11D97
330
5EF092C1
100
AcDbEntity
  8
JISSEN
100
AcDbCircle
 10
224.4361115320307
 20
62.31351868171919
 30
0.0
 40
3.0
100
AcDbArc
 50
270.0
 51
0.0
  0
ARC
  5
5EF11D98
330
5EF092C1
100
AcDbEntity
  8
JISSEN
100
AcDbCircle
 10
230.4361115320307
 20
71.99700164170412
 30
0.0
 40
3.0
100
AcDbArc
 50
104.4775121859299
 51
180.0
  0
ARC
  5
5EF11D99
330
5EF092C1
100
AcDbEntity
  8
JISSEN
100
AcDbCircle
 10
172.4361115320307
 20
71.99700164170412
 30
0.0
 40
3.0
100
AcDbArc
 50
0.0
 51
75.52248781407012
  0
ARC
  5
5EF11DA0
330
5EF092C1
100
AcDbEntity
  8
JISSEN
100
AcDbCircle
 10
201.4361115320307
 20
104.3135186817191
 30
0.0
 40
113.0
100
AcDbArc
 50
125.1887028463195
 51
133.3490138989975
  0
ARC
  5
5EF11DA1
330
5EF092C1
100
AcDbEntity
  8
JISSEN
100
AcDbCircle
 10
201.4361115320307
 20
104.3135186817191
 30
0.0
 40
113.0
100
AcDbArc
 50
46.65098610100244
 51
54.81129715368044
  0
ARC
  5
5EF11DA2
330
5EF092C1
100
AcDbEntity
  8
JISSEN
100
AcDbCircle
 10
120.4361115320307
 20
190.1214437236405
 30
0.0
 40
5.0
100
AcDbArc
 50
180.0000000000003
 51
313.3490138989975
  0
ARC
  5
5EF11DA3
330
5EF092C1
100
AcDbEntity
  8
JISSEN
100
AcDbCircle
 10
133.4361115320307
 20
200.7500262916487
 30
0.0
 40
5.0
100
AcDbArc
 50
305.1887028463195
 51
0.0000000000003053
  0
ARC
  5
5EF11DA4
330
5EF092C1
100
AcDbEntity
  8
JISSEN
100
AcDbCircle
 10
282.4361115320307
 20
190.1214437236405
 30
0.0
 40
5.0
100
AcDbArc
 50
226.6509861010024
 51
0.0000000000003053
  0
ARC
  5
5EF11DA5
330
5EF092C1
100
AcDbEntity
  8
JISSEN
100
AcDbCircle
 10
269.4361115320307
 20
200.7500262916487
 30
0.0
 40
5.0
100
AcDbArc
 50
180.0
 51
234.8112971536804
  0
ARC
  5
5EF11DA6
330
5EF092C1
100
AcDbEntity
  8
JISSEN
100
AcDbCircle
 10
120.4361115320307
 20
98.50559363979778
 30
0.0
 40
5.0
100
AcDbArc
 50
46.65098610100272
 51
180.0000000000001
  0
ARC
  5
5EF11DA7
330
5EF092C1
100
AcDbEntity
  8
JISSEN
100
AcDbCircle
 10
282.4361115320307
 20
98.50559363979778
 30
0.0
 40
5.0
100
AcDbArc
 50
0.0
 51
133.3490138989975
  0
ARC
  5
5EF11DBA
330
5EF092C1
100
AcDbEntity
  8
JISSEN
100
AcDbCircle
 10
201.4361115320307
 20
476.2600286326008
 30
0.0
 40
113.0
100
AcDbArc
 50
226.6509861010024
 51
237.7454926564404
  0
ARC
  5
5EF11DBB
330
5EF092C1
100
AcDbEntity
  8
JISSEN
100
AcDbCircle
 10
120.4361115320307
 20
390.4521035906793
 30
0.0
 40
5.0
100
AcDbArc
 50
46.65098610100272
 51
180.0000000000001
  0
ARC
  5
5EF11DBC
330
5EF092C1
100
AcDbEntity
  8
JISSEN
100
AcDbCircle
 10
201.4361115320307
 20
396.2600286326008
 30
0.0
 40
113.0
100
AcDbArc
 50
122.2545073435595
 51
133.3490138989975
  0
ARC
  5
5EF11DBD
330
5EF092C1
100
AcDbEntity
  8
JISSEN
100
AcDbCircle
 10
120.4361115320307
 20
482.0679536745221
 30
0.0
 40
5.0
100
AcDbArc
 50
179.9999999999998
 51
313.3490138989972
  0
ARC
  5
5EF11DBE
330
5EF092C1
100
AcDbEntity
  8
JISSEN
100
AcDbCircle
 10
282.4361115320307
 20
390.4521035906793
 30
0.0
 40
5.0
100
AcDbArc
 50
359.9999999999998
 51
133.3490138989972
  0
ARC
  5
5EF11DBF
330
5EF092C1
100
AcDbEntity
  8
JISSEN
100
AcDbCircle
 10
201.4361115320307
 20
476.2600286326008
 30
0.0
 40
113.0
100
AcDbArc
 50
302.2545073435595
 51
313.3490138989975
  0
ARC
  5
5EF11DC0
330
5EF092C1
100
AcDbEntity
  8
JISSEN
100
AcDbCircle
 10
282.4361115320307
 20
482.0679536745221
 30
0.0
 40
5.0
100
AcDbArc
 50
226.6509861010026
 51
0.0000000000002036
  0
ARC
  5
5EF11DC1
330
5EF092C1
100
AcDbEntity
  8
JISSEN
100
AcDbCircle
 10
201.4361115320307
 20
396.2600286326008
 30
0.0
 40
113.0
100
AcDbArc
 50
46.65098610100244
 51
57.74549265644045
  0
ARC
  5
5EF11DC2
330
5EF092C1
100
AcDbEntity
  8
JISSEN
100
AcDbCircle
 10
277.4361115320307
 20
218.3135186818901
 30
0.0
 40
10.0
100
AcDbArc
 50
0.0
 51
90.0
  0
ARC
  5
5EF11DC3
330
5EF092C1
100
AcDbEntity
  8
JISSEN
100
AcDbCircle
 10
125.4361115320307
 20
218.3135186818901
 30
0.0
 40
10.0
100
AcDbArc
 50
90.0
 51
180.0
  0
LINE
  5
5EF11DC4
330
5EF092C1
100
AcDbEntity
  8
JISSEN
100
AcDbLine
 10
289.4361115320307
 20
523.7600286326006
 30
0.0
 11
309.9361115320259
 21
523.7600286326007
 31
0.0
  0
LINE
  5
5EF11DC6
330
5EF092C1
100
AcDbEntity
  8
JISSEN
100
AcDbLine
 10
288.4361115320616
 20
231.8135186817191
 30
0.0
 11
309.9361115320257
 21
231.8135186817191
 31
0.0
  0
ARC
  5
5EF11DC7
330
5EF092C1
100
AcDbEntity
  8
JISSEN
100
AcDbCircle
 10
289.4361115320307
 20
229.8135186817191
 30
0.0
 40
2.0
100
AcDbArc
 50
90.0
 51
180.0
  0
LINE
  5
5EF11DC8
330
5EF092C1
100
AcDbEntity
  8
JISSEN
100
AcDbLine
 10
311.4361115320257
 20
230.3135186817192
 30
0.0
 11
309.9361115320257
 21
231.8135186817191
 31
0.0
  0
ARC
  5
5EF11DC9
330
5EF092C1
100
AcDbEntity
  8
JISSEN
100
AcDbCircle
 10
288.4361115320616
 20
236.8135186817192
 30
0.0
 40
5.0
100
AcDbArc
 50
180.0000000000624
 51
270.0
  0
ARC
  5
5EF11DCA
330
5EF092C1
100
AcDbEntity
  8
JISSEN
100
AcDbCircle
 10
289.4361115320307
 20
58.81351868171918
 30
0.0
 40
2.0
100
AcDbArc
 50
180.0
 51
270.0
  0
LINE
  5
5EF11DCB
330
5EF092C1
100
AcDbEntity
  8
JISSEN
100
AcDbLine
 10
289.4361115320307
 20
56.81351868171919
 30
0.0
 11
309.9361115320357
 21
56.81351868171919
 31
0.0
  0
LINE
  5
5EF11DCC
330
5EF092C1
100
AcDbEntity
  8
JISSEN
100
AcDbLine
 10
311.4361115320257
 20
58.31351868171918
 30
0.0
 11
309.9361115320257
 21
56.81351868171919
 31
0.0
  0
ARC
  5
5EF11DCD
330
5EF092C1
100
AcDbEntity
  8
JISSEN
100
AcDbCircle
 10
114.4361115319997
 20
236.8135186817192
 30
0.0
 40
5.0
100
AcDbArc
 50
270.0
 51
359.9999999999376
  0
LINE
  5
5EF11DCE
330
5EF092C1
100
AcDbEntity
  8
JISSEN
100
AcDbLine
 10
91.43611153203574
 20
230.3135186817192
 30
0.0
 11
92.93611153203585
 21
231.8135186817191
 31
0.0
  0
ARC
  5
5EF11DCF
330
5EF092C1
100
AcDbEntity
  8
JISSEN
100
AcDbCircle
 10
113.4361115320307
 20
229.8135186817191
 30
0.0
 40
2.0
100
AcDbArc
 50
0.0
 51
90.0
  0
LINE
  5
5EF11DD0
330
5EF092C1
100
AcDbEntity
  8
JISSEN
100
AcDbLine
 10
114.4361115319997
 20
231.8135186817191
 30
0.0
 11
92.93611153203585
 21
231.8135186817191
 31
0.0
  0
LINE
  5
5EF11DD1
330
5EF092C1
100
AcDbEntity
  8
JISSEN
100
AcDbLine
 10
92.93611153203483
 20
231.8135186817191
 30
0.0
 11
92.93611153202574
 21
56.81351868171919
 31
0.0
  0
LINE
  5
5EF11DD2
330
5EF092C1
100
AcDbEntity
  8
JISSEN
100
AcDbLine
 10
115.4361115320307
 20
229.8135186817191
 30
0.0
 11
115.4361115320307
 21
58.81351868171918
 31
0.0
  0
LINE
  5
5EF11DD3
330
5EF092C1
100
AcDbEntity
  8
JISSEN
100
AcDbLine
 10
91.43611153203574
 20
58.31351868171918
 30
0.0
 11
92.93611153203585
 21
56.81351868171919
 31
0.0
  0
LINE
  5
5EF11DD4
330
5EF092C1
100
AcDbEntity
  8
JISSEN
100
AcDbLine
 10
113.4361115320307
 20
56.81351868171919
 30
0.0
 11
92.93611153202574
 21
56.81351868171919
 31
0.0
  0
ARC
  5
5EF11DD5
330
5EF092C1
100
AcDbEntity
  8
JISSEN
100
AcDbCircle
 10
113.4361115320307
 20
58.81351868171918
 30
0.0
 40
2.0
100
AcDbArc
 50
270.0
 51
0.0
  0
LINE
  5
5EF11DD6
330
5EF092C1
100
AcDbEntity
  8
JISSEN
100
AcDbLine
 10
91.43611153203574
 20
230.3135186817192
 30
0.0
 11
91.43611153202574
 21
58.31351868172919
 31
0.0
  0
ARC
  5
5EF11DE2
330
5EF092C1
100
AcDbEntity
  8
JISSEN
100
AcDbCircle
 10
289.4361115320307
 20
521.7600286326006
 30
0.0
 40
2.0
100
AcDbArc
 50
90.0
 51
180.0
  0
LINE
  5
5EF11DE3
330
5EF092C1
100
AcDbEntity
  8
JISSEN
100
AcDbLine
 10
311.4361115320261
 20
522.2600286326008
 30
0.0
 11
309.9361115320259
 21
523.7600286326007
 31
0.0
  0
LINE
  5
5EF11DE4
330
5EF092C1
100
AcDbEntity
  8
JISSEN
100
AcDbLine
 10
311.4361115320261
 20
350.2600286326007
 30
0.0
 11
309.9361115320259
 21
348.7600286326007
 31
0.0
  0
ARC
  5
5EF11DE5
330
5EF092C1
100
AcDbEntity
  8
JISSEN
100
AcDbCircle
 10
289.4361115320307
 20
350.7600286326009
 30
0.0
 40
2.0
100
AcDbArc
 50
180.0
 51
270.0
  0
LINE
  5
5EF11DE6
330
5EF092C1
100
AcDbEntity
  8
JISSEN
100
AcDbLine
 10
289.4361115320307
 20
348.7600286326009
 30
0.0
 11
309.9361115320259
 21
348.7600286326007
 31
0.0
  0
LINE
  5
5EF11DE7
330
5EF092C1
100
AcDbEntity
  8
JISSEN
100
AcDbLine
 10
91.4361115320354
 20
522.2600286326008
 30
0.0
 11
92.93611153203551
 21
523.7600286326007
 31
0.0
  0
ARC
  5
5EF11DE8
330
5EF092C1
100
AcDbEntity
  8
JISSEN
100
AcDbCircle
 10
113.4361115320307
 20
521.7600286326006
 30
0.0
 40
2.0
100
AcDbArc
 50
0.0
 51
90.0
  0
LINE
  5
5EF11DE9
330
5EF092C1
100
AcDbEntity
  8
JISSEN
100
AcDbLine
 10
113.4361115320307
 20
523.7600286326006
 30
0.0
 11
92.93611153203551
 21
523.7600286326007
 31
0.0
  0
LINE
  5
5EF11DEA
330
5EF092C1
100
AcDbEntity
  8
JISSEN
100
AcDbLine
 10
113.4361115320307
 20
348.7600286326009
 30
0.0
 11
92.93611153203551
 21
348.7600286326007
 31
0.0
  0
ARC
  5
5EF11DEB
330
5EF092C1
100
AcDbEntity
  8
JISSEN
100
AcDbCircle
 10
113.4361115320307
 20
350.7600286326009
 30
0.0
 40
2.0
100
AcDbArc
 50
270.0
 51
0.0
  0
LINE
  5
5EF11DEC
330
5EF092C1
100
AcDbEntity
  8
JISSEN
100
AcDbLine
 10
91.4361115320354
 20
350.2600286326007
 30
0.0
 11
92.93611153203551
 21
348.7600286326007
 31
0.0
  0
LINE
  5
5EF125E6
330
5EF092C1
100
AcDbEntity
  8
TENSEN
100
AcDbLine
 10
602.5491509240318
 20
336.8135186817214
 30
0.0
 11
601.610703736841
 21
336.3135186817223
 31
0.0
  0
LINE
  5
5EF125E7
330
5EF092C1
100
AcDbEntity
  8
TENSEN
100
AcDbLine
 10
601.610703736841
 20
336.3135186817223
 30
0.0
 11
599.6107037368402
 21
336.3135186817228
 31
0.0
  0
LINE
  5
5EF125E8
330
5EF092C1
100
AcDbEntity
  8
TENSEN
100
AcDbLine
 10
599.6107037368402
 20
336.3135186817228
 30
0.0
 11
600.1107037368401
 21
336.8135186817219
 31
0.0
  0
LINE
  5
5EF125E9
330
5EF092C1
100
AcDbEntity
  8
TENSEN
100
AcDbLine
 10
604.6107037368383
 20
336.813518681721
 30
0.0
 11
600.1107037368401
 21
336.8135186817219
 31
0.0
  0
LINE
  5
5EF125EA
330
5EF092C1
100
AcDbEntity
  8
TENSEN
100
AcDbLine
 10
604.6107037368374
 20
330.5635186817182
 30
0.0
 11
601.6107037368392
 21
324.8135186817223
 31
0.0
  0
LINE
  5
5EF125EB
330
5EF092C1
100
AcDbEntity
  8
TENSEN
100
AcDbLine
 10
604.6107037368365
 20
324.8135186817219
 30
0.0
 11
599.6107037368392
 21
324.8135186817228
 31
0.0
  0
LINE
  5
5EF125ED
330
5EF092C1
100
AcDbEntity
  8
TENSEN
100
AcDbLine
 10
599.6107037368392
 20
324.8135186817228
 30
0.0
 11
598.3607037368365
 21
322.6484551722599
 31
0.0
  0
LINE
  5
5EF125EE
330
5EF092C1
100
AcDbEntity
  8
TENSEN
100
AcDbLine
 10
604.6107037368365
 20
322.6484551722608
 30
0.0
 11
598.360703736841
 21
322.6484551722617
 31
0.0
  0
LINE
  5
5EF125EF
330
5EF092C1
100
AcDbEntity
  8
TENSEN
100
AcDbLine
 10
598.3607037368365
 20
322.6484551722599
 30
0.0
 11
598.3607037368463
 21
294.6484551722608
 31
0.0
  0
LINE
  5
5EF125F0
330
5EF092C1
100
AcDbEntity
  8
TENSEN
100
AcDbLine
 10
601.610703736841
 20
336.3135186817223
 30
0.0
 11
601.6107037368392
 21
324.8135186817223
 31
0.0
  0
LINE
  5
5EF125F1
330
5EF092C1
100
AcDbEntity
  8
TENSEN
100
AcDbLine
 10
599.6107037368402
 20
336.3135186817228
 30
0.0
 11
599.6107037368392
 21
324.8135186817228
 31
0.0
  0
LINE
  5
5EF125F2
330
5EF092C1
100
AcDbEntity
  8
TENSEN
100
AcDbLine
 10
601.610703736841
 20
336.3135186817223
 30
0.0
 11
604.6107037368374
 21
330.5635186817255
 31
0.0
  0
LINE
  5
5EF125F3
330
5EF092C1
100
AcDbEntity
  8
TENSEN
100
AcDbLine
 10
607.6107037368355
 20
336.3135186817219
 30
0.0
 11
604.6107037368383
 21
330.5635186817255
 31
0.0
  0
LINE
  5
5EF125F4
330
5EF092C1
100
AcDbEntity
  8
TENSEN
100
AcDbLine
 10
609.6107037368356
 20
336.3135186817219
 30
0.0
 11
609.6107037368356
 21
324.8135186817219
 31
0.0
  0
LINE
  5
5EF125F5
330
5EF092C1
100
AcDbEntity
  8
TENSEN
100
AcDbLine
 10
607.6107037368355
 20
336.3135186817219
 30
0.0
 11
607.6107037368355
 21
324.8135186817219
 31
0.0
  0
LINE
  5
5EF125F6
330
5EF092C1
100
AcDbEntity
  8
TENSEN
100
AcDbLine
 10
610.8607037368383
 20
322.6484551722589
 30
0.0
 11
610.8607037368222
 21
294.6484551722599
 31
0.0
  0
LINE
  5
5EF125F7
330
5EF092C1
100
AcDbEntity
  8
TENSEN
100
AcDbLine
 10
604.6107037368383
 20
322.6484551722608
 30
0.0
 11
610.8607037368337
 21
322.6484551722608
 31
0.0
  0
LINE
  5
5EF125F8
330
5EF092C1
100
AcDbEntity
  8
TENSEN
100
AcDbLine
 10
609.6107037368356
 20
324.8135186817219
 30
0.0
 11
610.8607037368383
 21
322.6484551722589
 31
0.0
  0
LINE
  5
5EF125FA
330
5EF092C1
100
AcDbEntity
  8
TENSEN
100
AcDbLine
 10
604.6107037368383
 20
324.8135186817219
 30
0.0
 11
609.6107037368356
 21
324.8135186817219
 31
0.0
  0
LINE
  5
5EF125FB
330
5EF092C1
100
AcDbEntity
  8
TENSEN
100
AcDbLine
 10
604.6107037368383
 20
330.5635186817182
 30
0.0
 11
607.6107037368355
 21
324.8135186817219
 31
0.0
  0
LINE
  5
5EF125FC
330
5EF092C1
100
AcDbEntity
  8
TENSEN
100
AcDbLine
 10
604.6107037368383
 20
336.813518681721
 30
0.0
 11
609.1107037368365
 21
336.813518681721
 31
0.0
  0
LINE
  5
5EF125FD
330
5EF092C1
100
AcDbEntity
  8
TENSEN
100
AcDbLine
 10
609.6107037368356
 20
336.3135186817219
 30
0.0
 11
609.1107037368365
 21
336.813518681721
 31
0.0
  0
LINE
  5
5EF125FE
330
5EF092C1
100
AcDbEntity
  8
TENSEN
100
AcDbLine
 10
607.6107037368355
 20
336.3135186817219
 30
0.0
 11
609.6107037368356
 21
336.3135186817219
 31
0.0
  0
LINE
  5
5EF125FF
330
5EF092C1
100
AcDbEntity
  8
TENSEN
100
AcDbLine
 10
606.6722565496448
 20
336.813518681721
 30
0.0
 11
607.6107037368355
 21
336.3135186817219
 31
0.0
  0
LINE
  5
5EF12884
330
5EF092C1
100
AcDbEntity
  8
JISSEN
100
AcDbLine
 10
195.1861115320324
 20
294.6484551722616
 30
0.0
 11
195.1861115320315
 21
288.3135186819119
 31
0.0
  0
LINE
  5
5EF12885
330
5EF092C1
100
AcDbEntity
  8
SAISEN
100
AcDbLine
 10
198.4361115320431
 20
308.3135186817226
 30
0.0
 11
201.4361115320369
 21
302.5635186817246
 31
0.0
  0
LINE
  5
5EF12886
330
5EF092C1
100
AcDbEntity
  8
JISSEN
100
AcDbLine
 10
196.4361115320431
 20
308.3135186817238
 30
0.0
 11
196.4361115320364
 21
296.8135186817238
 31
0.0
  0
LINE
  5
5EF12887
330
5EF092C1
100
AcDbEntity
  8
JISSEN
100
AcDbLine
 10
198.4361115320431
 20
308.3135186817226
 30
0.0
 11
198.4361115320364
 21
296.8135186817227
 31
0.0
  0
LINE
  5
5EF12888
330
5EF092C1
100
AcDbEntity
  8
JISSEN
100
AcDbLine
 10
195.1861115320335
 20
291.8135186817236
 30
0.0
 11
195.1861115320322
 21
289.3135186817236
 31
0.0
  0
LINE
  5
5EF12889
330
5EF092C1
100
AcDbEntity
  8
JISSEN
100
AcDbLine
 10
201.4361115320324
 20
294.6484551722599
 30
0.0
 11
195.186111532037
 21
294.6484551722635
 31
0.0
  0
LINE
  5
5EF1288A
330
5EF092C1
100
AcDbEntity
  8
JISSEN
100
AcDbLine
 10
196.4361115320364
 20
296.8135186817238
 30
0.0
 11
195.1861115320324
 21
294.6484551722616
 31
0.0
  0
LINE
  5
5EF1288B
330
5EF092C1
100
AcDbEntity
  8
JISSEN
100
AcDbLine
 10
195.1861115320308
 20
291.8135186817245
 30
0.0
 11
195.1861115320322
 21
289.3135186817236
 31
0.0
  0
LINE
  5
5EF1288C
330
5EF092C1
100
AcDbEntity
  8
JISSEN
100
AcDbLine
 10
201.4361115320336
 20
296.813518681721
 30
0.0
 11
196.4361115320364
 21
296.8135186817238
 31
0.0
  0
LINE
  5
5EF1288D
330
5EF092C1
100
AcDbEntity
  8
JISSEN
100
AcDbLine
 10
195.1861115320315
 20
288.3135186819119
 30
0.0
 11
191.9361115320297
 21
288.3135186819138
 31
0.0
  0
LINE
  5
5EF1288E
330
5EF092C1
100
AcDbEntity
  8
SAISEN
100
AcDbLine
 10
201.4361115320369
 20
302.5635186817173
 30
0.0
 11
198.4361115320364
 21
296.8135186817227
 31
0.0
  0
LINE
  5
5EF1288F
330
5EF092C1
100
AcDbEntity
  8
JISSEN
100
AcDbLine
 10
201.4361115320406
 20
308.8135186817201
 30
0.0
 11
196.9361115320424
 21
308.8135186817225
 31
0.0
  0
LINE
  5
5EF12890
330
5EF092C1
100
AcDbEntity
  8
JISSEN
100
AcDbLine
 10
196.4361115320431
 20
308.3135186817238
 30
0.0
 11
196.9361115320424
 21
308.8135186817225
 31
0.0
  0
LINE
  5
5EF12891
330
5EF092C1
100
AcDbEntity
  8
JISSEN
100
AcDbLine
 10
198.4361115320431
 20
308.3135186817226
 30
0.0
 11
196.4361115320431
 21
308.3135186817238
 31
0.0
  0
LINE
  5
5EF12892
330
5EF092C1
100
AcDbEntity
  8
JISSEN
100
AcDbLine
 10
199.3745587192341
 20
308.8135186817212
 30
0.0
 11
198.4361115320431
 21
308.3135186817226
 31
0.0
  0
LINE
  5
5EF12893
330
5EF092C1
100
AcDbEntity
  8
SUNPOU
100
AcDbLine
 10
646.4973698466369
 20
305.9796978605532
 30
0.0
 11
684.8282281793954
 21
305.9796978605532
 31
0.0
  0
MTEXT
  5
5EF12894
330
5EF092C1
100
AcDbEntity
  8
SUNPOU
100
AcDbMText
 10
667.5996567508241
 20
311.2113205030917
 30
0.0
 40
6.0
 41
0.0
 71
     5
 72
     1
  1
Rc 1/2
  7
K
 73
     1
 44
1.0
1001
ACAD
1000
MTEXTBEGIN
1070
    73
1070
     1
1070
    44
1040
1.0
1070
    74
1070
     0
1000
MTEXTEND
  0
LINE
  5
5EF12895
330
5EF092C1
100
AcDbEntity
  8
SUNPOU
100
AcDbLine
 10
646.4973698466369
 20
305.9796978605532
 30
0.0
 11
612.1288382318011
 21
271.6111662457171
 31
0.0
  0
INSERT
  5
5EF12896
330
5EF092C1
100
AcDbEntity
  8
SUNPOU
100
AcDbBlockReference
  2
ARROWANG
 10
612.1288382318011
 20
271.6111662457171
 30
0.0
 41
6.0
 42
6.0
 43
6.0
 50
225.0
  0
INSERT
  5
5EF12897
330
5EF092C1
100
AcDbEntity
  8
SUNPOU
100
AcDbBlockReference
  2
ARROWANG
 10
561.8307434750549
 20
101.5335584199352
 30
0.0
 41
6.0
 42
6.0
 43
6.0
 50
225.0
  0
LINE
  5
5EF12898
330
5EF092C1
100
AcDbEntity
  8
SUNPOU
100
AcDbLine
 10
566.073384162174
 20
105.7761991070544
 30
0.0
 11
570.3160248492936
 21
110.0188397941737
 31
0.0
  0
LINE
  5
5EF12899
330
5EF092C1
100
AcDbEntity
  8
SUNPOU
100
AcDbLine
 10
567.5296782000937
 20
107.2324931449741
 30
0.0
 11
526.5764196701825
 21
66.27923461506305
 31
0.0
  0
INSERT
  5
5EF1289A
330
5EF092C1
100
AcDbEntity
  8
SUNPOU
100
AcDbBlockReference
  2
ARROWANG
 10
548.3957146325106
 20
88.09852957739087
 30
0.0
 41
6.0
 42
6.0
 43
6.0
 50
45.0
  0
TEXT
  5
5EF1289B
330
5EF092C1
100
AcDbEntity
  8
SUNPOU
100
AcDbText
 10
494.1628658911436
 20
67.08434692909804
 30
0.0
 40
6.0
  1
4-%%c19
  7
K
100
AcDbText
  0
LINE
  5
5EF1289C
330
5EF092C1
100
AcDbEntity
  8
SUNPOU
100
AcDbLine
 10
526.5764196701825
 20
66.27923461506305
 30
0.0
 11
493.5198110013211
 21
66.27923461506305
 31
0.0
  0
LINE
  5
5EF1289D
330
5EF092C1
100
AcDbEntity
  8
SUNPOU
100
AcDbLine
 10
507.6107037368329
 20
144.3135186817191
 30
0.0
 11
485.5781286945266
 21
144.3135186817191
 31
0.0
  0
LINE
  5
5EF1289E
330
5EF092C1
100
AcDbEntity
  8
SUNPOU
100
AcDbLine
 10
589.1107037368365
 20
264.3135186819083
 30
0.0
 11
485.5781286945266
 21
264.3135186819084
 31
0.0
  0
LINE
  5
5EF1289F
330
5EF092C1
100
AcDbEntity
  8
SUNPOU
100
AcDbLine
 10
487.5781286945266
 20
147.3135186817191
 30
0.0
 11
487.5781286945266
 21
261.3135186819084
 31
0.0
  0
INSERT
  5
5EF128A0
330
5EF092C1
100
AcDbEntity
  8
SUNPOU
100
AcDbBlockReference
  2
ARROWANG
 10
487.5781286945266
 20
144.3135186817191
 30
0.0
 41
3.0
 42
3.0
 43
3.0
 50
270.0
  0
INSERT
  5
5EF128A1
330
5EF092C1
100
AcDbEntity
  8
SUNPOU
100
AcDbBlockReference
  2
ARROWANG
 10
487.5781286945266
 20
264.3135186819084
 30
0.0
 41
3.0
 42
3.0
 43
3.0
 50
90.0
  0
MTEXT
  5
5EF128A2
330
5EF092C1
100
AcDbEntity
  8
SUNPOU
100
AcDbMText
 10
482.5781286945266
 20
204.3135186818139
 30
0.0
 40
6.0
 41
0.0
 71
     5
 72
     1
  1
\A1;120
  7
K
 11
0.0000000000000001
 21
1.0
 31
0.0
 73
     1
 44
1.0
  0
LINE
  5
5EF128A3
330
5EF092C1
100
AcDbEntity
  8
SUNPOU
100
AcDbLine
 10
507.6107037368329
 20
144.3135186817191
 30
0.0
 11
468.3789885870137
 21
144.3135186817191
 31
0.0
  0
LINE
  5
5EF128A4
330
5EF092C1
100
AcDbEntity
  8
SUNPOU
100
AcDbLine
 10
598.6107037368401
 20
336.8135186817219
 30
0.0
 11
468.3789885870137
 21
336.8135186817219
 31
0.0
  0
LINE
  5
5EF128A5
330
5EF092C1
100
AcDbEntity
  8
SUNPOU
100
AcDbLine
 10
470.3789885870137
 20
147.3135186817191
 30
0.0
 11
470.3789885870137
 21
333.8135186817219
 31
0.0
  0
INSERT
  5
5EF128A6
330
5EF092C1
100
AcDbEntity
  8
SUNPOU
100
AcDbBlockReference
  2
ARROWANG
 10
470.3789885870137
 20
144.3135186817191
 30
0.0
 41
3.0
 42
3.0
 43
3.0
 50
270.0
  0
INSERT
  5
5EF128A7
330
5EF092C1
100
AcDbEntity
  8
SUNPOU
100
AcDbBlockReference
  2
ARROWANG
 10
470.3789885870137
 20
336.8135186817219
 30
0.0
 41
3.0
 42
3.0
 43
3.0
 50
90.0
  0
MTEXT
  5
5EF128A8
330
5EF092C1
100
AcDbEntity
  8
SUNPOU
100
AcDbMText
 10
463.807560015585
 20
240.5635186817207
 30
0.0
 40
6.0
 41
0.0
 71
     5
 72
     1
  1
193(全開時)
  7
K
 11
0.0000000000000001
 21
1.0
 31
0.0
 73
     1
 44
1.0
  0
LINE
  5
5EF128A9
330
5EF092C1
100
AcDbEntity
  8
SUNPOU
100
AcDbLine
 10
81.43611153203073
 20
144.3135186817191
 30
0.0
 11
62.48573821143873
 21
144.3135186817191
 31
0.0
  0
LINE
  5
5EF128AA
330
5EF092C1
100
AcDbEntity
  8
SUNPOU
100
AcDbLine
 10
195.4361115320424
 20
308.8135186817225
 30
0.0
 11
62.48573821143884
 21
308.8135186817227
 31
0.0
  0
LINE
  5
5EF128AB
330
5EF092C1
100
AcDbEntity
  8
SUNPOU
100
AcDbLine
 10
64.48573821143873
 20
147.3135186817191
 30
0.0
 11
64.48573821143884
 21
305.8135186817227
 31
0.0
  0
INSERT
  5
5EF128AC
330
5EF092C1
100
AcDbEntity
  8
SUNPOU
100
AcDbBlockReference
  2
ARROWANG
 10
64.48573821143873
 20
144.3135186817191
 30
0.0
 41
3.0
 42
3.0
 43
3.0
 50
270.0
  0
INSERT
  5
5EF128AD
330
5EF092C1
100
AcDbEntity
  8
SUNPOU
100
AcDbBlockReference
  2
ARROWANG
 10
64.48573821143884
 20
308.8135186817227
 30
0.0
 41
3.0
 42
3.0
 43
3.0
 50
90.0
  0
MTEXT
  5
5EF128AE
330
5EF092C1
100
AcDbEntity
  8
SUNPOU
100
AcDbMText
 10
57.91430964001017
 20
226.563518681721
 30
0.0
 40
6.0
 41
0.0
 71
     5
 72
     1
  1
\A1;165(全閉時)
  7
K
 11
0.0000000000000001
 21
1.0
 31
0.0
 73
     1
 44
1.0
  0
LINE
  5
5EF128AF
330
5EF092C1
100
AcDbEntity
  8
SUNPOU
100
AcDbLine
 10
317.9361115320266
 20
214.3135186817191
 30
0.0
 11
336.3730241605217
 21
214.3135186817191
 31
0.0
  0
LINE
  5
5EF128B0
330
5EF092C1
100
AcDbEntity
  8
SUNPOU
100
AcDbLine
 10
317.9361115320348
 20
74.31351868171919
 30
0.0
 11
336.3730241605217
 21
74.31351868171919
 31
0.0
  0
LINE
  5
5EF128B1
330
5EF092C1
100
AcDbEntity
  8
SUNPOU
100
AcDbLine
 10
334.3730241605217
 20
211.3135186817191
 30
0.0
 11
334.3730241605217
 21
77.31351868171919
 31
0.0
  0
INSERT
  5
5EF128B2
330
5EF092C1
100
AcDbEntity
  8
SUNPOU
100
AcDbBlockReference
  2
ARROWANG
 10
334.3730241605217
 20
214.3135186817191
 30
0.0
 41
3.0
 42
3.0
 43
3.0
 50
90.0
  0
INSERT
  5
5EF128B3
330
5EF092C1
100
AcDbEntity
  8
SUNPOU
100
AcDbBlockReference
  2
ARROWANG
 10
334.3730241605217
 20
74.31351868171919
 30
0.0
 41
3.0
 42
3.0
 43
3.0
 50
270.0
  0
MTEXT
  5
5EF128B4
330
5EF092C1
100
AcDbEntity
  8
SUNPOU
100
AcDbMText
 10
329.3730241605217
 20
144.3135186817193
 30
0.0
 40
6.0
 41
0.0
 71
     5
 72
     1
  1
\A1;%%C140
  7
K
 11
0.0000000000000001
 21
1.0
 31
0.0
 73
     1
 44
1.0
  0
LINE
  5
5EF128B5
330
5EF092C1
100
AcDbEntity
  8
SUNPOU
100
AcDbLine
 10
311.4361115320266
 20
231.8135186817191
 30
0.0
 11
358.8187662912905
 21
231.8135186817191
 31
0.0
  0
LINE
  5
5EF128B6
330
5EF092C1
100
AcDbEntity
  8
SUNPOU
100
AcDbLine
 10
311.4361115320357
 20
56.81351868171919
 30
0.0
 11
358.8187662912905
 21
56.81351868171919
 31
0.0
  0
LINE
  5
5EF128B7
330
5EF092C1
100
AcDbEntity
  8
SUNPOU
100
AcDbLine
 10
356.8187662912905
 20
228.8135186817191
 30
0.0
 11
356.8187662912905
 21
59.81351868171919
 31
0.0
  0
INSERT
  5
5EF128B8
330
5EF092C1
100
AcDbEntity
  8
SUNPOU
100
AcDbBlockReference
  2
ARROWANG
 10
356.8187662912905
 20
231.8135186817191
 30
0.0
 41
3.0
 42
3.0
 43
3.0
 50
90.0
  0
INSERT
  5
5EF128B9
330
5EF092C1
100
AcDbEntity
  8
SUNPOU
100
AcDbBlockReference
  2
ARROWANG
 10
356.8187662912905
 20
56.81351868171919
 30
0.0
 41
3.0
 42
3.0
 43
3.0
 50
270.0
  0
MTEXT
  5
5EF128BA
330
5EF092C1
100
AcDbEntity
  8
SUNPOU
100
AcDbMText
 10
351.8187662912905
 20
144.3135186817193
 30
0.0
 40
6.0
 41
0.0
 71
     5
 72
     1
  1
\A1;%%C175
  7
K
 11
0.0000000000000001
 21
1.0
 31
0.0
 73
     1
 44
1.0
  0
LINE
  5
5EF128C2
330
5EF092C1
100
AcDbEntity
  8
SUNPOU
100
AcDbLine
 10
287.4361115320307
 20
57.31351868171919
 30
0.0
 11
287.4361115320307
 21
40.12713016599173
 31
0.0
  0
LINE
  5
5EF128C3
330
5EF092C1
100
AcDbEntity
  8
SUNPOU
100
AcDbLine
 10
311.4361115320357
 20
56.81351868172919
 30
0.0
 11
311.4361115320357
 21
40.12713016599173
 31
0.0
  0
LINE
  5
5EF128C4
330
5EF092C1
100
AcDbEntity
  8
SUNPOU
100
AcDbLine
 10
290.4361115320307
 20
42.12713016599173
 30
0.0
 11
308.4361115320357
 21
42.12713016599173
 31
0.0
  0
INSERT
  5
5EF128C5
330
5EF092C1
100
AcDbEntity
  8
SUNPOU
100
AcDbBlockReference
  2
ARROWANG
 10
287.4361115320307
 20
42.12713016599173
 30
0.0
 41
3.0
 42
3.0
 43
3.0
 50
180.0
  0
INSERT
  5
5EF128C6
330
5EF092C1
100
AcDbEntity
  8
SUNPOU
100
AcDbBlockReference
  2
ARROWANG
 10
311.4361115320357
 20
42.12713016599173
 30
0.0
 41
3.0
 42
3.0
 43
3.0
  0
MTEXT
  5
5EF128C7
330
5EF092C1
100
AcDbEntity
  8
SUNPOU
100
AcDbMText
 10
299.4361115320332
 20
47.12713016599173
 30
0.0
 40
6.0
 41
0.0
 71
     5
 72
     1
  1
\A1;22
  7
K
 73
     1
 44
1.0
  0
LINE
  5
5EF128CF
330
5EF092C1
100
AcDbEntity
  8
SUNPOU
100
AcDbLine
 10
91.43611153202574
 20
56.81351868172919
 30
0.0
 11
91.43611153202574
 21
11.19469422253223
 31
0.0
  0
LINE
  5
5EF128D0
330
5EF092C1
100
AcDbEntity
  8
SUNPOU
100
AcDbLine
 10
311.4361115320357
 20
56.81351868172919
 30
0.0
 11
311.4361115320357
 21
11.19469422253223
 31
0.0
  0
LINE
  5
5EF128D1
330
5EF092C1
100
AcDbEntity
  8
SUNPOU
100
AcDbLine
 10
94.43611153202573
 20
13.19469422253223
 30
0.0
 11
308.4361115320357
 21
13.19469422253223
 31
0.0
  0
INSERT
  5
5EF128D2
330
5EF092C1
100
AcDbEntity
  8
SUNPOU
100
AcDbBlockReference
  2
ARROWANG
 10
91.43611153202574
 20
13.19469422253223
 30
0.0
 41
3.0
 42
3.0
 43
3.0
 50
180.0
  0
INSERT
  5
5EF128D3
330
5EF092C1
100
AcDbEntity
  8
SUNPOU
100
AcDbBlockReference
  2
ARROWANG
 10
311.4361115320357
 20
13.19469422253223
 30
0.0
 41
3.0
 42
3.0
 43
3.0
  0
MTEXT
  5
5EF128D4
330
5EF092C1
100
AcDbEntity
  8
SUNPOU
100
AcDbMText
 10
201.4361115320307
 20
18.19469422253223
 30
0.0
 40
6.0
 41
0.0
 71
     5
 72
     1
  1
\A1;220
  7
K
 73
     1
 44
1.0
  0
ENDSEC
  0
SECTION
  2
OBJECTS
  0
DICTIONARY
  5
5EF092B5
330
0
100
AcDbDictionary
281
     1
  3
ACAD_GROUP
350
5EF092B6
  3
ACAD_LAYOUT
350
5EF0F402
  3
ACAD_MLINESTYLE
350
5EF092B7
  3
ACAD_PLOTSETTINGS
350
5EF0F403
  3
ACAD_PLOTSTYLENAME
350
5EF0F400
  3
ACDBVARIABLEDICTIONARY
350
5EF095CB
  0
DICTIONARY
  5
5EF0FE16
330
5EF092AB
100
AcDbDictionary
280
     1
281
     1
  3
ACAD_LAYERSTATES
360
5EF0FE17
  0
DICTIONARY
  5
5EF0FABC
330
5EF092C1
100
AcDbDictionary
280
     1
281
     1
  3
ACAD_LAYOUTSELFREF
360
5EF10E18
  0
DICTIONARY
  5
5EF0FABA
330
5EF092BE
100
AcDbDictionary
280
     1
281
     1
  3
ACAD_LAYOUTSELFREF
360
5EF10E17
  0
DICTIONARY
  5
5EF092B6
102
{ACAD_REACTORS
330
5EF092B5
102
}
330
5EF092B5
100
AcDbDictionary
281
     1
  0
DICTIONARY
  5
5EF0F402
102
{ACAD_REACTORS
330
5EF092B5
102
}
330
5EF092B5
100
AcDbDictionary
281
     1
  3
Model
350
5EF10E1D
  3
ﾚｲｱｳﾄ1
350
5EF10E1E
  0
DICTIONARY
  5
5EF092B7
102
{ACAD_REACTORS
330
5EF092B5
102
}
330
5EF092B5
100
AcDbDictionary
281
     1
  3
STANDARD
350
5EF092C4
  0
DICTIONARY
  5
5EF0F403
102
{ACAD_REACTORS
330
5EF092B5
102
}
330
5EF092B5
100
AcDbDictionary
281
     1
  0
ACDBDICTIONARYWDFLT
  5
5EF0F400
102
{ACAD_REACTORS
330
5EF092B5
102
}
330
5EF092B5
100
AcDbDictionary
281
     1
  3
Normal
350
5EF0F401
100
AcDbDictionaryWithDefault
340
5EF0F401
  0
DICTIONARY
  5
5EF095CB
102
{ACAD_REACTORS
330
5EF092B5
102
}
330
5EF092B5
100
AcDbDictionary
281
     1
  3
DIMASSOC
350
5EF0FDB2
  3
SORTENTS
350
5EF095CC
  0
DICTIONARY
  5
5EF0FE17
102
{ACAD_REACTORS
330
5EF0FE16
102
}
330
5EF0FE16
100
AcDbDictionary
281
     1
  0
XRECORD
  5
5EF10E18
102
{ACAD_REACTORS
330
5EF0FABC
102
}
330
5EF0FABC
100
AcDbXrecord
280
     1
340
5EF092C1
  0
XRECORD
  5
5EF10E17
102
{ACAD_REACTORS
330
5EF0FABA
102
}
330
5EF0FABA
100
AcDbXrecord
280
     1
340
5EF092BE
  0
LAYOUT
  5
5EF10E1D
102
{ACAD_REACTORS
330
5EF0F402
102
}
330
5EF0F402
100
AcDbPlotSettings
  1

  2
\\Nt_honsya\GL-8300A
  4

  6

 40
0.0
 41
0.0
 42
0.0
 43
0.0
 44
0.0
 45
0.0
 46
0.0
 47
0.0
 48
0.0
 49
0.0
140
0.0
141
0.0
142
1.0
143
1.0
 70
 11952
 72
     0
 73
     1
 74
     0
  7

 75
     0
147
1.0
148
-1420.225895228132
149
1550.907962287583
100
AcDbLayout
  1
Model
 70
     1
 71
     0
 10
0.0
 20
0.0
 11
12.0
 21
9.0
 12
0.0
 22
0.0
 32
0.0
 14
0.0
 24
0.0
 34
0.0
 15
0.0
 25
0.0
 35
0.0
146
0.0
 13
0.0
 23
0.0
 33
0.0
 16
1.0
 26
0.0
 36
0.0
 17
0.0
 27
1.0
 37
0.0
 76
     0
330
5EF092C1
  0
LAYOUT
  5
5EF10E1E
102
{ACAD_REACTORS
330
5EF0F402
102
}
330
5EF0F402
100
AcDbPlotSettings
  1

  2
\\Nt_honsya\GL-8300A
  4

  6

 40
0.0
 41
0.0
 42
0.0
 43
0.0
 44
0.0
 45
0.0
 46
0.0
 47
0.0
 48
0.0
 49
0.0
140
0.0
141
0.0
142
1.0
143
1.0
 70
   688
 72
     0
 73
     0
 74
     5
  7
aclt(XL).ctb
 75
    16
147
1.0
148
0.0
149
0.0
100
AcDbLayout
  1
ﾚｲｱｳﾄ1
 70
     0
 71
     1
 10
0.0
 20
0.0
 11
12.0
 21
9.0
 12
0.0
 22
0.0
 32
0.0
 14
1.000000000000000E+20
 24
1.000000000000000E+20
 34
1.000000000000000E+20
 15
-1.000000000000000E+20
 25
-1.000000000000000E+20
 35
-1.000000000000000E+20
146
0.0
 13
0.0
 23
0.0
 33
0.0
 16
1.0
 26
0.0
 36
0.0
 17
0.0
 27
1.0
 37
0.0
 76
     0
330
5EF092BE
  0
MLINESTYLE
  5
5EF092C4
102
{ACAD_REACTORS
330
5EF092B7
102
}
330
5EF092B7
100
AcDbMlineStyle
  2
STANDARD
 70
     0
  3

 62
     0
 51
90.0
 52
90.0
 71
     2
 49
0.5
 62
   256
  6
BYLAYER
 49
-0.5
 62
   256
  6
BYLAYER
  0
ACDBPLACEHOLDER
  5
5EF0F401
102
{ACAD_REACTORS
330
5EF0F400
102
}
330
5EF0F400
  0
DICTIONARYVAR
  5
5EF0FDB2
102
{ACAD_REACTORS
330
5EF095CB
102
}
330
5EF095CB
100
DictionaryVariables
280
     0
  1
0
  0
DICTIONARYVAR
  5
5EF095CC
102
{ACAD_REACTORS
330
5EF095CB
102
}
330
5EF095CB
100
DictionaryVariables
280
     0
  1
96
  0
ENDSEC
  0
EOF
