  0
SECTION
  2
HEADER
  9
$ACADVER
  1
AC1015
  9
$ACADMAINTVER
 70
    10
  9
$DWGCODEPAGE
  3
ANSI_932
  9
$INSBASE
 10
0.0
 20
0.0
 30
0.0
  9
$EXTMIN
 10
-0.0587920483933431
 20
-1.316338644602637
 30
-0.0000000000000053
  9
$EXTMAX
 10
905.0431143409145
 20
681.2216092084206
 30
0.0000000000000099
  9
$LIMMIN
 10
0.0
 20
0.0
  9
$LIMMAX
 10
180.9999992799999
 20
272.9999999999999
  9
$ORTHOMODE
 70
     1
  9
$REGENMODE
 70
     1
  9
$FILLMODE
 70
     1
  9
$QTEXTMODE
 70
     0
  9
$MIRRTEXT
 70
     0
  9
$LTSCALE
 40
5.0
  9
$ATTMODE
 70
     1
  9
$TEXTSIZE
 40
3.0
  9
$TRACEWID
 40
0.05
  9
$TEXTSTYLE
  7
K
  9
$CLAYER
  8
JISSEN
  9
$CELTYPE
  6
BYLAYER
  9
$CECOLOR
 62
   256
  9
$CELTSCALE
 40
1.0
  9
$DISPSILH
 70
     0
  9
$DIMSCALE
 40
2.5
  9
$DIMASZ
 40
3.0
  9
$DIMEXO
 40
0.75
  9
$DIMDLI
 40
6.0
  9
$DIMRND
 40
0.0
  9
$DIMDLE
 40
0.0
  9
$DIMEXE
 40
1.0
  9
$DIMTP
 40
495.0
  9
$DIMTM
 40
0.0
  9
$DIMTXT
 40
3.0
  9
$DIMCEN
 40
0.0
  9
$DIMTSZ
 40
0.0
  9
$DIMTOL
 70
     0
  9
$DIMLIM
 70
     0
  9
$DIMTIH
 70
     0
  9
$DIMTOH
 70
     0
  9
$DIMSE1
 70
     0
  9
$DIMSE2
 70
     0
  9
$DIMTAD
 70
     3
  9
$DIMZIN
 70
     8
  9
$DIMBLK
  1
ARROWANG
  9
$DIMASO
 70
     0
  9
$DIMSHO
 70
     0
  9
$DIMPOST
  1

  9
$DIMAPOST
  1

  9
$DIMALT
 70
     0
  9
$DIMALTD
 70
     2
  9
$DIMALTF
 40
25.4
  9
$DIMLFAC
 40
1.0
  9
$DIMTOFL
 70
     1
  9
$DIMTVP
 40
0.0
  9
$DIMTIX
 70
     1
  9
$DIMSOXD
 70
     0
  9
$DIMSAH
 70
     1
  9
$DIMBLK1
  1
ARROWANG
  9
$DIMBLK2
  1
ARROWANG
  9
$DIMSTYLE
  2
IMAO
  9
$DIMCLRD
 70
   256
  9
$DIMCLRE
 70
   256
  9
$DIMCLRT
 70
   256
  9
$DIMTFAC
 40
1.0
  9
$DIMGAP
 40
1.0
  9
$DIMJUST
 70
     0
  9
$DIMSD1
 70
     0
  9
$DIMSD2
 70
     0
  9
$DIMTOLJ
 70
     1
  9
$DIMTZIN
 70
     0
  9
$DIMALTZ
 70
     0
  9
$DIMALTTZ
 70
     0
  9
$DIMUPT
 70
     0
  9
$DIMDEC
 70
     2
  9
$DIMTDEC
 70
     2
  9
$DIMALTU
 70
     2
  9
$DIMALTTD
 70
     2
  9
$DIMTXSTY
  7
K
  9
$DIMAUNIT
 70
     0
  9
$DIMADEC
 70
     0
  9
$DIMALTRND
 40
0.0
  9
$DIMAZIN
 70
     0
  9
$DIMDSEP
 70
    46
  9
$DIMATFIT
 70
     3
  9
$DIMFRAC
 70
     0
  9
$DIMLDRBLK
  1
ARROWANG
  9
$DIMLUNIT
 70
     2
  9
$DIMLWD
 70
    -2
  9
$DIMLWE
 70
    -2
  9
$DIMTMOVE
 70
     0
  9
$LUNITS
 70
     2
  9
$LUPREC
 70
     2
  9
$SKETCHINC
 40
0.1
  9
$FILLETRAD
 40
1.0
  9
$AUNITS
 70
     0
  9
$AUPREC
 70
     2
  9
$MENU
  1
STDR12J
  9
$ELEVATION
 40
0.0
  9
$PELEVATION
 40
0.0
  9
$THICKNESS
 40
0.0
  9
$LIMCHECK
 70
     0
  9
$CHAMFERA
 40
0.0
  9
$CHAMFERB
 40
0.0
  9
$CHAMFERC
 40
0.0
  9
$CHAMFERD
 40
0.0
  9
$SKPOLY
 70
     0
  9
$TDCREATE
 40
2450694.750535185
  9
$TDUCREATE
 40
2450694.375535185
  9
$TDUPDATE
 40
2456085.414967639
  9
$TDUUPDATE
 40
2456085.039967639
  9
$TDINDWG
 40
0.1776198958
  9
$TDUSRTIMER
 40
0.1776197106
  9
$USRTIMER
 70
     1
  9
$ANGBASE
 50
0.0
  9
$ANGDIR
 70
     0
  9
$PDMODE
 70
     0
  9
$PDSIZE
 40
0.0
  9
$PLINEWID
 40
0.0
  9
$SPLFRAME
 70
     0
  9
$SPLINETYPE
 70
     6
  9
$SPLINESEGS
 70
     8
  9
$HANDSEED
  5
31834417
  9
$SURFTAB1
 70
     6
  9
$SURFTAB2
 70
     6
  9
$SURFTYPE
 70
     6
  9
$SURFU
 70
     6
  9
$SURFV
 70
     6
  9
$UCSBASE
  2

  9
$UCSNAME
  2

  9
$UCSORG
 10
0.0
 20
0.0
 30
0.0
  9
$UCSXDIR
 10
1.0
 20
0.0
 30
0.0
  9
$UCSYDIR
 10
0.0
 20
1.0
 30
0.0
  9
$UCSORTHOREF
  2

  9
$UCSORTHOVIEW
 70
     0
  9
$UCSORGTOP
 10
0.0
 20
0.0
 30
0.0
  9
$UCSORGBOTTOM
 10
0.0
 20
0.0
 30
0.0
  9
$UCSORGLEFT
 10
0.0
 20
0.0
 30
0.0
  9
$UCSORGRIGHT
 10
0.0
 20
0.0
 30
0.0
  9
$UCSORGFRONT
 10
0.0
 20
0.0
 30
0.0
  9
$UCSORGBACK
 10
0.0
 20
0.0
 30
0.0
  9
$PUCSBASE
  2

  9
$PUCSNAME
  2

  9
$PUCSORG
 10
0.0
 20
0.0
 30
0.0
  9
$PUCSXDIR
 10
1.0
 20
0.0
 30
0.0
  9
$PUCSYDIR
 10
0.0
 20
1.0
 30
0.0
  9
$PUCSORTHOREF
  2

  9
$PUCSORTHOVIEW
 70
     0
  9
$PUCSORGTOP
 10
0.0
 20
0.0
 30
0.0
  9
$PUCSORGBOTTOM
 10
0.0
 20
0.0
 30
0.0
  9
$PUCSORGLEFT
 10
0.0
 20
0.0
 30
0.0
  9
$PUCSORGRIGHT
 10
0.0
 20
0.0
 30
0.0
  9
$PUCSORGFRONT
 10
0.0
 20
0.0
 30
0.0
  9
$PUCSORGBACK
 10
0.0
 20
0.0
 30
0.0
  9
$USERI1
 70
     4
  9
$USERI2
 70
     1
  9
$USERI3
 70
     1
  9
$USERI4
 70
     1
  9
$USERI5
 70
     1
  9
$USERR1
 40
1.0
  9
$USERR2
 40
3.0
  9
$USERR3
 40
3.0
  9
$USERR4
 40
1.5
  9
$USERR5
 40
10.0
  9
$WORLDVIEW
 70
     1
  9
$SHADEDGE
 70
     3
  9
$SHADEDIF
 70
    70
  9
$TILEMODE
 70
     1
  9
$MAXACTVP
 70
    16
  9
$PINSBASE
 10
0.0
 20
0.0
 30
0.0
  9
$PLIMCHECK
 70
     0
  9
$PEXTMIN
 10
1.000000000000000E+20
 20
1.000000000000000E+20
 30
1.000000000000000E+20
  9
$PEXTMAX
 10
-1.000000000000000E+20
 20
-1.000000000000000E+20
 30
-1.000000000000000E+20
  9
$PLIMMIN
 10
0.0
 20
0.0
  9
$PLIMMAX
 10
12.0
 20
9.0
  9
$UNITMODE
 70
     0
  9
$VISRETAIN
 70
     0
  9
$PLINEGEN
 70
     0
  9
$PSLTSCALE
 70
     0
  9
$TREEDEPTH
 70
     0
  9
$CMLSTYLE
  2
STANDARD
  9
$CMLJUST
 70
     0
  9
$CMLSCALE
 40
1.0
  9
$PROXYGRAPHICS
 70
     1
  9
$MEASUREMENT
 70
     0
  9
$CELWEIGHT
370
    -1
  9
$ENDCAPS
280
     0
  9
$JOINSTYLE
280
     0
  9
$LWDISPLAY
290
     0
  9
$INSUNITS
 70
     0
  9
$HYPERLINKBASE
  1

  9
$STYLESHEET
  1
pdf001.ctb
  9
$XEDIT
290
     1
  9
$CEPSNTYPE
380
     0
  9
$PSTYLEMODE
290
     1
  9
$FINGERPRINTGUID
  2
{E5228D24-DA15-4356-9063-6B42BC255E94}
  9
$VERSIONGUID
  2
{521E4F89-4419-4BA9-9ABC-6EB95D12533A}
  9
$EXTNAMES
290
     1
  9
$PSVPSCALE
 40
0.0
  9
$OLESTARTUP
290
     0
  0
ENDSEC
  0
SECTION
  2
CLASSES
  0
CLASS
  1
LWPOLYLINE
  2
AcDbPolyline
  3
AutoCAD 2000
 90
    32768
280
     0
281
     1
  0
CLASS
  1
ACDBDICTIONARYWDFLT
  2
AcDbDictionaryWithDefault
  3
AutoCAD 2000
 90
        0
280
     0
281
     0
  0
CLASS
  1
ACDBPLACEHOLDER
  2
AcDbPlaceHolder
  3
AutoCAD 2000
 90
        0
280
     0
281
     0
  0
CLASS
  1
LAYOUT
  2
AcDbLayout
  3
AutoCAD 2000
 90
        0
280
     0
281
     0
  0
CLASS
  1
DICTIONARYVAR
  2
AcDbDictionaryVar
  3
AutoCAD 2000
 90
        0
280
     0
281
     0
  0
CLASS
  1
LONG_TRANSACTION
  2
AcDbLongTransaction
  3
AutoCAD 2000
 90
    32768
280
     0
281
     0
  0
CLASS
  1
LWPOLYLINE
  2
AcDbPolyline
  3
AutoCAD 2000
 90
    32768
280
     0
281
     1
  0
CLASS
  1
HATCH
  2
AcDbHatch
  3
AutoCAD 2000
 90
    32768
280
     0
281
     1
  0
CLASS
  1
XRECORD
  2
AcDbXrecord
  3
AutoCAD 2000
 90
    32768
280
     0
281
     0
  0
CLASS
  1
LONG_TRANSACTION
  2
AcDbLongTransaction
  3
AutoCAD 2000
 90
    32768
280
     0
281
     0
  0
CLASS
  1
LWPOLYLINE
  2
AcDbPolyline
  3
AutoCAD 2000
 90
    32768
280
     0
281
     1
  0
CLASS
  1
HATCH
  2
AcDbHatch
  3
AutoCAD 2000
 90
    32768
280
     0
281
     1
  0
CLASS
  1
XRECORD
  2
AcDbXrecord
  3
AutoCAD 2000
 90
    32768
280
     0
281
     0
  0
CLASS
  1
LONG_TRANSACTION
  2
AcDbLongTransaction
  3
AutoCAD 2000
 90
    32768
280
     0
281
     0
  0
CLASS
  1
LWPOLYLINE
  2
AcDbPolyline
  3
AutoCAD 2000
 90
    32768
280
     0
281
     1
  0
CLASS
  1
HATCH
  2
AcDbHatch
  3
AutoCAD 2000
 90
    32768
280
     0
281
     1
  0
CLASS
  1
XRECORD
  2
AcDbXrecord
  3
AutoCAD 2000
 90
    32768
280
     0
281
     0
  0
ENDSEC
  0
SECTION
  2
TABLES
  0
TABLE
  2
VPORT
  5
3183249F
330
0
100
AcDbSymbolTable
 70
    10
  0
VPORT
  5
318324C3
330
3183249F
100
AcDbSymbolTableRecord
100
AcDbViewportTableRecord
  2
2
 70
     0
 10
0.5
 20
0.0
 11
1.0
 21
1.0
 12
0.9240312421264802
 22
1.052650975462765
 13
0.0
 23
0.0
 14
1.0
 24
1.0
 15
10.0
 25
10.0
 16
0.0
 26
0.0
 36
1.0
 17
0.0
 27
0.0
 37
0.0
 40
2.105301950925533
 41
0.8778135048231511
 42
50.0
 43
0.0
 44
0.0
 50
0.0
 51
0.0
 71
     0
 72
   500
 73
     1
 74
     1
 75
     0
 76
     0
 77
     0
 78
     0
281
     0
 65
     1
110
0.0
120
0.0
130
0.0
111
1.0
121
0.0
131
0.0
112
0.0
122
1.0
132
0.0
 79
     0
146
0.0
  0
VPORT
  5
318324C4
330
3183249F
100
AcDbSymbolTableRecord
100
AcDbViewportTableRecord
  2
2
 70
     0
 10
0.0
 20
0.0
 11
0.5
 21
1.0
 12
0.9240312421264802
 22
1.052650975462765
 13
0.0
 23
0.0
 14
1.0
 24
1.0
 15
10.0
 25
10.0
 16
0.0
 26
0.0
 36
1.0
 17
0.0
 27
0.0
 37
0.0
 40
2.105301950925533
 41
0.8778135048231511
 42
50.0
 43
0.0
 44
0.0
 50
0.0
 51
0.0
 71
     0
 72
   500
 73
     1
 74
     1
 75
     0
 76
     0
 77
     0
 78
     0
281
     0
 65
     1
110
0.0
120
0.0
130
0.0
111
1.0
121
0.0
131
0.0
112
0.0
122
1.0
132
0.0
 79
     0
146
0.0
  0
VPORT
  5
318324C5
330
3183249F
100
AcDbSymbolTableRecord
100
AcDbViewportTableRecord
  2
3
 70
     0
 10
0.0
 20
0.5
 11
1.0
 21
1.0
 12
2.832169994473273
 22
1.052650975462765
 13
0.0
 23
0.0
 14
1.0
 24
1.0
 15
10.0
 25
10.0
 16
0.0
 26
0.0
 36
1.0
 17
0.0
 27
0.0
 37
0.0
 40
2.105301950925533
 41
3.571428571428571
 42
50.0
 43
0.0
 44
0.0
 50
0.0
 51
0.0
 71
     0
 72
   500
 73
     1
 74
     1
 75
     0
 76
     0
 77
     0
 78
     0
281
     0
 65
     1
110
0.0
120
0.0
130
0.0
111
1.0
121
0.0
131
0.0
112
0.0
122
1.0
132
0.0
 79
     0
146
0.0
  0
VPORT
  5
318324C6
330
3183249F
100
AcDbSymbolTableRecord
100
AcDbViewportTableRecord
  2
3
 70
     0
 10
0.0
 20
0.0
 11
1.0
 21
0.5
 12
2.856741679241311
 22
1.052650975462765
 13
0.0
 23
0.0
 14
1.0
 24
1.0
 15
10.0
 25
10.0
 16
0.0
 26
0.0
 36
1.0
 17
0.0
 27
0.0
 37
0.0
 40
2.105301950925533
 41
3.594771241830064
 42
50.0
 43
0.0
 44
0.0
 50
0.0
 51
0.0
 71
     0
 72
   500
 73
     1
 74
     1
 75
     0
 76
     0
 77
     0
 78
     0
281
     0
 65
     1
110
0.0
120
0.0
130
0.0
111
1.0
121
0.0
131
0.0
112
0.0
122
1.0
132
0.0
 79
     0
146
0.0
  0
VPORT
  5
318324C7
330
3183249F
100
AcDbSymbolTableRecord
100
AcDbViewportTableRecord
  2
4
 70
     0
 10
0.5
 20
0.0
 11
1.0
 21
0.5
 12
2.886857516709718
 22
1.052650975462765
 13
0.0
 23
0.0
 14
1.0
 24
1.0
 15
10.0
 25
10.0
 16
0.0
 26
0.0
 36
1.0
 17
0.0
 27
0.0
 37
0.0
 40
4.275207030309069
 41
1.784313725490195
 42
50.0
 43
0.0
 44
0.0
 50
0.0
 51
0.0
 71
     0
 72
   500
 73
     1
 74
     1
 75
     0
 76
     0
 77
     0
 78
     0
281
     0
 65
     1
110
0.0
120
0.0
130
0.0
111
1.0
121
0.0
131
0.0
112
0.0
122
1.0
132
0.0
 79
     0
146
0.0
  0
VPORT
  5
318324C8
330
3183249F
100
AcDbSymbolTableRecord
100
AcDbViewportTableRecord
  2
4
 70
     0
 10
0.5
 20
0.5
 11
1.0
 21
1.0
 12
2.862090274555523
 22
1.052650975462765
 13
0.0
 23
0.0
 14
1.0
 24
1.0
 15
10.0
 25
10.0
 16
0.0
 26
0.0
 36
1.0
 17
0.0
 27
0.0
 37
0.0
 40
4.275207030309069
 41
1.772727272727271
 42
50.0
 43
0.0
 44
0.0
 50
0.0
 51
0.0
 71
     0
 72
   500
 73
     1
 74
     1
 75
     0
 76
     0
 77
     0
 78
     0
281
     0
 65
     1
110
0.0
120
0.0
130
0.0
111
1.0
121
0.0
131
0.0
112
0.0
122
1.0
132
0.0
 79
     0
146
0.0
  0
VPORT
  5
318324C9
330
3183249F
100
AcDbSymbolTableRecord
100
AcDbViewportTableRecord
  2
4
 70
     0
 10
0.0
 20
0.5
 11
0.5
 21
1.0
 12
2.862090274555523
 22
1.052650975462765
 13
0.0
 23
0.0
 14
1.0
 24
1.0
 15
10.0
 25
10.0
 16
0.0
 26
0.0
 36
1.0
 17
0.0
 27
0.0
 37
0.0
 40
4.275207030309069
 41
1.772727272727271
 42
50.0
 43
0.0
 44
0.0
 50
0.0
 51
0.0
 71
     0
 72
   500
 73
     1
 74
     1
 75
     0
 76
     0
 77
     0
 78
     0
281
     0
 65
     1
110
0.0
120
0.0
130
0.0
111
1.0
121
0.0
131
0.0
112
0.0
122
1.0
132
0.0
 79
     0
146
0.0
  0
VPORT
  5
318324CA
330
3183249F
100
AcDbSymbolTableRecord
100
AcDbViewportTableRecord
  2
4
 70
     0
 10
0.0
 20
0.0
 11
0.5
 21
0.5
 12
2.886857516709718
 22
1.052650975462765
 13
0.0
 23
0.0
 14
1.0
 24
1.0
 15
10.0
 25
10.0
 16
0.0
 26
0.0
 36
1.0
 17
0.0
 27
0.0
 37
0.0
 40
4.275207030309069
 41
1.784313725490195
 42
50.0
 43
0.0
 44
0.0
 50
0.0
 51
0.0
 71
     0
 72
   500
 73
     1
 74
     1
 75
     0
 76
     0
 77
     0
 78
     0
281
     0
 65
     1
110
0.0
120
0.0
130
0.0
111
1.0
121
0.0
131
0.0
112
0.0
122
1.0
132
0.0
 79
     0
146
0.0
  0
VPORT
  5
31834416
330
3183249F
100
AcDbSymbolTableRecord
100
AcDbViewportTableRecord
  2
*Active
 70
     0
 10
0.0
 20
0.0
 11
1.0
 21
1.0
 12
452.4921611462607
 22
339.952635281909
 13
0.0
 23
0.0
 14
1.0
 24
1.0
 15
10.0
 25
10.0
 16
0.0
 26
0.0
 36
1.0
 17
0.0
 27
0.0
 37
0.0
 40
687.7021694004611
 41
1.588383838383838
 42
50.0
 43
0.0
 44
0.0
 50
0.0
 51
0.0
 71
     0
 72
   500
 73
     1
 74
     0
 75
     0
 76
     0
 77
     0
 78
     0
281
     0
 65
     1
110
0.0
120
0.0
130
0.0
111
1.0
121
0.0
131
0.0
112
0.0
122
1.0
132
0.0
 79
     0
146
0.0
  0
ENDTAB
  0
TABLE
  2
LTYPE
  5
3183249C
330
0
100
AcDbSymbolTable
 70
     3
  0
LTYPE
  5
318324A9
330
3183249C
100
AcDbSymbolTableRecord
100
AcDbLinetypeTableRecord
  2
BYBLOCK
 70
     0
  3

 72
    65
 73
     0
 40
0.0
  0
LTYPE
  5
318324AA
330
3183249C
100
AcDbSymbolTableRecord
100
AcDbLinetypeTableRecord
  2
BYLAYER
 70
     0
  3

 72
    65
 73
     0
 40
0.0
  0
LTYPE
  5
318324AB
330
3183249C
100
AcDbSymbolTableRecord
100
AcDbLinetypeTableRecord
  2
CONTINUOUS
 70
     0
  3
実線
 72
    65
 73
     0
 40
0.0
  0
LTYPE
  5
31832AE1
330
3183249C
100
AcDbSymbolTableRecord
100
AcDbLinetypeTableRecord
  2
DASHED
 70
     0
  3
Dashed __ __ __ __ __ __ __ __ __ __ __ __ __ _
 72
    65
 73
     2
 40
0.75
 49
0.5
 74
     0
 49
-0.25
 74
     0
  0
LTYPE
  5
31832AEF
330
3183249C
100
AcDbSymbolTableRecord
100
AcDbLinetypeTableRecord
  2
PHANTOM
 70
     0
  3
_____ _ _ _____ _ _ _____ _ _ _____ _ _ ____
 72
    65
 73
     6
 40
2.5
 49
1.25
 74
     0
 49
-0.25
 74
     0
 49
0.25
 74
     0
 49
-0.25
 74
     0
 49
0.25
 74
     0
 49
-0.25
 74
     0
  0
ENDTAB
  0
TABLE
  2
LAYER
  5
31832499
330
0
100
AcDbSymbolTable
 70
    10
  0
LAYER
  5
318324A6
330
31832499
100
AcDbSymbolTableRecord
100
AcDbLayerTableRecord
  2
0
 70
     0
 62
     7
  6
CONTINUOUS
370
    -3
390
318327C0
  0
LAYER
  5
318324D2
330
31832499
100
AcDbSymbolTableRecord
100
AcDbLayerTableRecord
  2
SUNPOU
 70
     0
 62
     3
  6
CONTINUOUS
370
    -3
390
318327C0
  0
LAYER
  5
318324D5
330
31832499
100
AcDbSymbolTableRecord
100
AcDbLayerTableRecord
  2
JISSEN
 70
     0
 62
     7
  6
CONTINUOUS
370
    -3
390
318327C0
  0
LAYER
  5
318324D9
330
31832499
100
AcDbSymbolTableRecord
100
AcDbLayerTableRecord
  2
WAKU
 70
     0
 62
     5
  6
CONTINUOUS
370
    -3
390
318327C0
  0
LAYER
  5
3183283F
330
31832499
100
AcDbSymbolTableRecord
100
AcDbLayerTableRecord
  2
SAISEN
 70
     0
 62
     4
  6
CONTINUOUS
370
    -3
390
318327C0
  0
LAYER
  5
31832AE2
330
31832499
100
AcDbSymbolTableRecord
100
AcDbLayerTableRecord
  2
TENSEN
 70
     0
 62
     3
  6
DASHED
370
    -3
390
318327C0
  0
LAYER
  5
31832AF0
330
31832499
100
AcDbSymbolTableRecord
100
AcDbLayerTableRecord
  2
NITEN
 70
     0
 62
     2
  6
PHANTOM
370
    -3
390
318327C0
  0
LAYER
  5
31832CC7
330
31832499
100
AcDbSymbolTableRecord
100
AcDbLayerTableRecord
  2
DEFPOINTS
 70
     0
 62
     7
  6
CONTINUOUS
290
     0
370
    -3
390
318327C0
  0
LAYER
  5
31833C6D
330
31832499
100
AcDbSymbolTableRecord
100
AcDbLayerTableRecord
  2
MAC-0
 70
     0
 62
     7
  6
CONTINUOUS
370
    -3
390
318327C0
  0
LAYER
  5
31833C6E
330
31832499
100
AcDbSymbolTableRecord
100
AcDbLayerTableRecord
  2
5
 70
     0
 62
     2
  6
CONTINUOUS
370
    -3
390
318327C0
  0
ENDTAB
  0
TABLE
  2
STYLE
  5
3183249A
330
0
100
AcDbSymbolTable
 70
     2
  0
STYLE
  5
318324A7
330
3183249A
100
AcDbSymbolTableRecord
100
AcDbTextStyleTableRecord
  2
STANDARD
 70
     0
 40
0.0
 41
1.0
 50
0.0
 71
     0
 42
0.2
  3
ROMANS
  4
EXTFONT
  0
STYLE
  5
318324BE
330
3183249A
100
AcDbSymbolTableRecord
100
AcDbTextStyleTableRecord
  2
K
 70
     0
 40
0.0
 41
1.0
 50
0.0
 71
     0
 42
3.0
  3
ROMANS.shx
  4
bigfont.shx
  0
ENDTAB
  0
TABLE
  2
VIEW
  5
3183249D
330
0
100
AcDbSymbolTable
 70
     0
  0
ENDTAB
  0
TABLE
  2
UCS
  5
3183249E
330
0
100
AcDbSymbolTable
 70
     0
  0
ENDTAB
  0
TABLE
  2
APPID
  5
318324A0
330
0
100
AcDbSymbolTable
 70
     1
  0
APPID
  5
318324A8
330
318324A0
100
AcDbSymbolTableRecord
100
AcDbRegAppTableRecord
  2
ACAD
 70
     0
  0
ENDTAB
  0
TABLE
  2
DIMSTYLE
  5
318324A1
330
0
100
AcDbSymbolTable
 70
     1
100
AcDbDimStyleTable
 71
     0
  0
DIMSTYLE
105
318324CD
330
318324A1
100
AcDbSymbolTableRecord
100
AcDbDimStyleTableRecord
  2
IMAO
 70
     0
 41
1.5
 42
0.75
 43
6.0
 44
1.0
 47
495.0
 73
     0
 74
     0
 77
     3
 78
     8
140
3.0
141
0.0
147
1.0
172
     1
173
     1
174
     1
176
   256
177
   256
178
   256
271
     2
272
     2
340
318324BE
341
318324B9
342
318324B9
343
318324B9
344
318324B9
  0
ENDTAB
  0
TABLE
  2
BLOCK_RECORD
  5
31832498
330
0
100
AcDbSymbolTable
 70
     5
  0
BLOCK_RECORD
  5
318324AF
102
{ACAD_XDICTIONARY
360
318335CC
102
}
330
31832498
100
AcDbSymbolTableRecord
100
AcDbBlockTableRecord
  2
*MODEL_SPACE
340
31834404
  0
BLOCK_RECORD
  5
318324AC
102
{ACAD_XDICTIONARY
360
318335CA
102
}
330
31832498
100
AcDbSymbolTableRecord
100
AcDbBlockTableRecord
  2
*PAPER_SPACE
340
31834405
  0
BLOCK_RECORD
  5
318324B9
330
31832498
100
AcDbSymbolTableRecord
100
AcDbBlockTableRecord
  2
ARROWANG
340
0
102
{BLKREFS
331
31833ECF
102
}
  0
BLOCK_RECORD
  5
31833C0B
330
31832498
100
AcDbSymbolTableRecord
100
AcDbBlockTableRecord
  2
B016
340
0
102
{BLKREFS
331
31833E4C
331
31833ED1
102
}
  0
BLOCK_RECORD
  5
31833C17
330
31832498
100
AcDbSymbolTableRecord
100
AcDbBlockTableRecord
  2
NT016
340
0
102
{BLKREFS
331
31833E4B
331
31833ED0
102
}
  0
BLOCK_RECORD
  5
31833C23
330
31832498
100
AcDbSymbolTableRecord
100
AcDbBlockTableRecord
  2
FB16
340
0
102
{BLKREFS
331
31833E5F
331
31833EF7
331
31834345
331
31834353
102
}
  0
BLOCK_RECORD
  5
31833C2D
330
31832498
100
AcDbSymbolTableRecord
100
AcDbBlockTableRecord
  2
FB26
340
0
102
{BLKREFS
331
31833E45
331
31833EE2
102
}
  0
ENDTAB
  0
ENDSEC
  0
SECTION
  2
BLOCKS
  0
BLOCK
  5
318324DE
330
318324AF
100
AcDbEntity
  8
0
100
AcDbBlockBegin
  2
*MODEL_SPACE
 70
     0
 10
0.0
 20
0.0
 30
0.0
  3
*MODEL_SPACE
  1

  0
ENDBLK
  5
318324DF
330
318324AF
100
AcDbEntity
  8
0
100
AcDbBlockEnd
  0
BLOCK
  5
318324DC
330
318324AC
100
AcDbEntity
 67
     1
  8
0
100
AcDbBlockBegin
  2
*PAPER_SPACE
 70
     0
 10
0.0
 20
0.0
 30
0.0
  3
*PAPER_SPACE
  1

  0
ENDBLK
  5
318324DD
330
318324AC
100
AcDbEntity
 67
     1
  8
0
100
AcDbBlockEnd
  0
BLOCK
  5
1D
330
318324B9
100
AcDbEntity
  8
0
100
AcDbBlockBegin
  2
ARROWANG
 70
     0
 10
0.0
 20
0.0
 30
0.0
  3
ARROWANG
  1

  0
LINE
  5
1E
330
318324B9
100
AcDbEntity
  8
SUNPOU
100
AcDbLine
 10
0.0
 20
0.0
 30
0.0
 11
-1.499999999999956
 21
0.401923788646741
 31
0.0
  0
LINE
  5
1F
330
318324B9
100
AcDbEntity
  8
SUNPOU
100
AcDbLine
 10
0.0
 20
0.0
 30
0.0
 11
-1.500000000000027
 21
-0.4019237886467124
 31
0.0
  0
ENDBLK
  5
20
330
318324B9
100
AcDbEntity
  8
0
100
AcDbBlockEnd
  0
BLOCK
  5
31833C15
330
31833C0B
100
AcDbEntity
  8
0
100
AcDbBlockBegin
  2
B016
 70
     0
 10
0.0
 20
0.0
 30
0.0
  3
B016
  1

  0
LINE
  5
31833C0C
330
31833C0B
100
AcDbEntity
  8
MAC-0
100
AcDbLine
 10
-3.293206293432318
 20
5.75
 30
0.0
 11
0.0
 21
5.75
 31
0.0
  0
LINE
  5
31833C0D
330
31833C0B
100
AcDbEntity
  8
MAC-0
100
AcDbLine
 10
0.0
 20
5.75
 30
0.0
 11
0.0
 21
-5.75
 31
0.0
  0
LINE
  5
31833C0E
330
31833C0B
100
AcDbEntity
  8
MAC-0
100
AcDbLine
 10
0.0
 20
-5.75
 30
0.0
 11
-3.293206293432318
 21
-5.75
 31
0.0
  0
LINE
  5
31833C0F
330
31833C0B
100
AcDbEntity
  8
MAC-0
100
AcDbLine
 10
0.0
 20
2.889999999999986
 30
0.0
 11
-3.293206293432318
 21
2.889999999999986
 31
0.0
  0
LINE
  5
31833C10
330
31833C0B
100
AcDbEntity
  8
MAC-0
100
AcDbLine
 10
0.0
 20
-2.889999999999986
 30
0.0
 11
-3.293206293432318
 21
-2.889999999999986
 31
0.0
  0
LINE
  5
31833C11
330
31833C0B
100
AcDbEntity
  8
MAC-0
100
AcDbLine
 10
-4.0
 20
4.319999999999993
 30
0.0
 11
-4.0
 21
-4.319999999999993
 31
0.0
  0
ARC
  5
31833C12
330
31833C0B
100
AcDbEntity
  8
MAC-0
100
AcDbCircle
 10
-2.199999999993336
 20
4.319999999999963
 30
0.0
 40
1.800000000004081
100
AcDbArc
 50
127.3971865214607
 51
232.6028134785381
  0
ARC
  5
31833C13
330
31833C0B
100
AcDbEntity
  8
MAC-0
100
AcDbCircle
 10
2.261839389202861
 20
0.0000000000000284
 30
0.0
 40
6.261839389202147
100
AcDbArc
 50
152.5143959800035
 51
207.4856040199967
  0
ARC
  5
31833C14
330
31833C0B
100
AcDbEntity
  8
MAC-0
100
AcDbCircle
 10
-2.199999999993336
 20
-4.319999999999993
 30
0.0
 40
1.800000000004059
100
AcDbArc
 50
127.3971865214612
 51
232.6028134785386
  0
ENDBLK
  5
31833C16
330
31833C0B
100
AcDbEntity
  8
0
100
AcDbBlockEnd
  0
BLOCK
  5
31833C21
330
31833C17
100
AcDbEntity
  8
0
100
AcDbBlockBegin
  2
NT016
 70
     0
 10
0.0
 20
0.0
 30
0.0
  3
NT016
  1

  0
ARC
  5
31833C18
330
31833C17
100
AcDbEntity
  8
MAC-0
100
AcDbCircle
 10
3.200000000006468
 20
4.320000000000447
 30
0.0
 40
1.799999999996446
100
AcDbArc
 50
307.3971865211206
 51
52.60281347886188
  0
ARC
  5
31833C19
330
31833C17
100
AcDbEntity
  8
MAC-0
100
AcDbCircle
 10
-1.261839389192231
 20
-0.0000000000004547
 30
0.0
 40
6.261839389192521
100
AcDbArc
 50
332.5143959799622
 51
27.48560402004519
  0
ARC
  5
31833C1A
330
31833C17
100
AcDbEntity
  8
MAC-0
100
AcDbCircle
 10
3.200000000003909
 20
-4.31999999999951
 30
0.0
 40
1.799999999998022
100
AcDbArc
 50
307.3971865211846
 51
52.60281347879665
  0
LINE
  5
31833C1B
330
31833C17
100
AcDbEntity
  8
MAC-0
100
AcDbLine
 10
5.0
 20
-4.319999999999993
 30
0.0
 11
5.0
 21
4.319999999999993
 31
0.0
  0
LINE
  5
31833C1C
330
31833C17
100
AcDbEntity
  8
MAC-0
100
AcDbLine
 10
0.0
 20
2.889999999999986
 30
0.0
 11
4.293206293432318
 21
2.889999999999986
 31
0.0
  0
LINE
  5
31833C1D
330
31833C17
100
AcDbEntity
  8
MAC-0
100
AcDbLine
 10
0.0
 20
-2.889999999999986
 30
0.0
 11
4.293206293432318
 21
-2.889999999999986
 31
0.0
  0
LINE
  5
31833C1E
330
31833C17
100
AcDbEntity
  8
MAC-0
100
AcDbLine
 10
0.0
 20
5.75
 30
0.0
 11
4.293206293432318
 21
5.75
 31
0.0
  0
LINE
  5
31833C1F
330
31833C17
100
AcDbEntity
  8
MAC-0
100
AcDbLine
 10
0.0
 20
-5.75
 30
0.0
 11
0.0
 21
5.75
 31
0.0
  0
LINE
  5
31833C20
330
31833C17
100
AcDbEntity
  8
MAC-0
100
AcDbLine
 10
4.293206293432318
 20
-5.75
 30
0.0
 11
0.0
 21
-5.75
 31
0.0
  0
ENDBLK
  5
31833C22
330
31833C17
100
AcDbEntity
  8
0
100
AcDbBlockEnd
  0
BLOCK
  5
31833C2B
330
31833C23
100
AcDbEntity
  8
0
100
AcDbBlockBegin
  2
FB16
 70
     0
 10
0.0
 20
0.0
 30
0.0
  3
FB16
  1

  0
CIRCLE
  5
31833C24
330
31833C23
100
AcDbEntity
  8
0
100
AcDbCircle
 10
0.0
 20
0.0
 30
0.0
 40
5.000000000000047
  0
LINE
  5
31833C25
330
31833C23
100
AcDbEntity
  8
0
100
AcDbLine
 10
5.000002431889186
 20
2.886752749999999
 30
0.0
 11
0.0
 21
5.773505499999997
 31
0.0
  0
LINE
  5
31833C26
330
31833C23
100
AcDbEntity
  8
0
100
AcDbLine
 10
0.0
 20
5.773505499999997
 30
0.0
 11
-5.000002431889186
 21
2.886752749999999
 31
0.0
  0
LINE
  5
31833C27
330
31833C23
100
AcDbEntity
  8
0
100
AcDbLine
 10
-5.000002431889186
 20
2.886752749999999
 30
0.0
 11
-5.000002431889186
 21
-2.886752749999999
 31
0.0
  0
LINE
  5
31833C28
330
31833C23
100
AcDbEntity
  8
0
100
AcDbLine
 10
-5.000002431889186
 20
-2.886752749999999
 30
0.0
 11
0.0
 21
-5.773505499999997
 31
0.0
  0
LINE
  5
31833C29
330
31833C23
100
AcDbEntity
  8
0
100
AcDbLine
 10
0.0
 20
-5.773505499999997
 30
0.0
 11
5.000002431889186
 21
-2.886752749999999
 31
0.0
  0
LINE
  5
31833C2A
330
31833C23
100
AcDbEntity
  8
0
100
AcDbLine
 10
5.000002431889186
 20
-2.886752749999999
 30
0.0
 11
5.000002431889186
 21
2.886752749999999
 31
0.0
  0
ENDBLK
  5
31833C2C
330
31833C23
100
AcDbEntity
  8
0
100
AcDbBlockEnd
  0
BLOCK
  5
31833C37
330
31833C2D
100
AcDbEntity
  8
0
100
AcDbBlockBegin
  2
FB26
 70
     0
 10
0.0
 20
0.0
 30
0.0
  3
FB26
  1

  0
CIRCLE
  5
31833C2E
330
31833C2D
100
AcDbEntity
  8
0
100
AcDbCircle
 10
0.0
 20
0.0
 30
0.0
 40
2.449999999999988
  0
LINE
  5
31833C2F
330
31833C2D
100
AcDbEntity
  8
MAC-0
100
AcDbLine
 10
0.0
 20
-5.75
 30
0.0
 11
5.0
 21
-2.886750000000006
 31
0.0
  0
LINE
  5
31833C30
330
31833C2D
100
AcDbEntity
  8
MAC-0
100
AcDbLine
 10
-5.0
 20
-2.886750000000006
 30
0.0
 11
0.0
 21
-5.75
 31
0.0
  0
LINE
  5
31833C31
330
31833C2D
100
AcDbEntity
  8
MAC-0
100
AcDbLine
 10
0.0
 20
5.75
 30
0.0
 11
5.0
 21
2.886750000000006
 31
0.0
  0
LINE
  5
31833C32
330
31833C2D
100
AcDbEntity
  8
MAC-0
100
AcDbLine
 10
-5.0
 20
2.886750000000006
 30
0.0
 11
0.0
 21
5.75
 31
0.0
  0
LINE
  5
31833C33
330
31833C2D
100
AcDbEntity
  8
MAC-0
100
AcDbLine
 10
5.0
 20
-2.886750000000006
 30
0.0
 11
5.0
 21
2.886750000000006
 31
0.0
  0
LINE
  5
31833C34
330
31833C2D
100
AcDbEntity
  8
MAC-0
100
AcDbLine
 10
-5.0
 20
-2.886750000000006
 30
0.0
 11
-5.0
 21
2.886750000000006
 31
0.0
  0
CIRCLE
  5
31833C35
330
31833C2D
100
AcDbEntity
  8
5
100
AcDbCircle
 10
0.0
 20
0.0
 30
0.0
 40
3.0
  0
CIRCLE
  5
31833C36
330
31833C2D
100
AcDbEntity
  8
MAC-0
100
AcDbCircle
 10
0.0
 20
0.0
 30
0.0
 40
5.0
  0
ENDBLK
  5
31833C38
330
31833C2D
100
AcDbEntity
  8
0
100
AcDbBlockEnd
  0
ENDSEC
  0
SECTION
  2
ENTITIES
  0
LWPOLYLINE
  5
3183277D
330
318324AF
100
AcDbEntity
  8
WAKU
100
AcDbPolyline
 90
        4
 70
     1
 43
0.0
 10
0.0
 20
-1.294302090607742
 10
452.4999981999997
 20
-1.294302090607742
 10
452.4999981999997
 20
681.2056979093921
 10
0.0
 20
681.2056979093921
  0
TEXT
  5
318327DC
330
318324AF
100
AcDbEntity
  8
SUNPOU
100
AcDbText
 10
355.7480850793403
 20
13.45470748047374
 30
0.0
 40
6.0
  1
防護板 C
  7
K
100
AcDbText
  0
TEXT
  5
318327DD
330
318324AF
100
AcDbEntity
  8
SUNPOU
100
AcDbText
 10
355.7480850793403
 20
3.954707480473756
 30
0.0
 40
6.0
  1
A4 用紙、印刷尺度：1/2
  7
K
100
AcDbText
  0
LWPOLYLINE
  5
3183282D
330
318324AF
100
AcDbEntity
  8
WAKU
100
AcDbPolyline
 90
        4
 70
     1
 43
0.0
 10
452.4999981999997
 20
-1.294302090607742
 10
904.9999963999999
 20
-1.294302090607742
 10
904.9999963999999
 20
681.2056979093921
 10
452.4999981999997
 20
681.2056979093921
  0
TEXT
  5
31833558
330
318324AF
100
AcDbEntity
  8
SUNPOU
100
AcDbText
 10
768.2116295403035
 20
13.45470748047374
 30
0.0
 40
6.0
  1
防護板 C 取付状態（ヘッドはDU 型）
  7
K
100
AcDbText
  0
TEXT
  5
31833559
330
318324AF
100
AcDbEntity
  8
SUNPOU
100
AcDbText
 10
768.2116295403035
 20
3.954707480473756
 30
0.0
 40
6.0
  1
A4 用紙、印刷尺度：1/2
  7
K
100
AcDbText
  0
ARC
  5
31833DEF
330
318324AF
100
AcDbEntity
  8
JISSEN
100
AcDbCircle
 10
226.2499990999998
 20
222.4701963576214
 30
0.0
 40
18.0
100
AcDbArc
 50
183.1847385367197
 51
356.8152614632803
  0
ARC
  5
31833DF0
330
318324AF
100
AcDbEntity
  8
JISSEN
100
AcDbCircle
 10
226.2499990999998
 20
222.4701963576214
 30
0.0
 40
20.0
100
AcDbArc
 50
188.6269265586775
 51
351.3730734413223
  0
ARC
  5
31833DF1
330
318324AF
100
AcDbEntity
  8
JISSEN
100
AcDbCircle
 10
226.2499990999998
 20
222.4701963576214
 30
0.0
 40
20.0
100
AcDbArc
 50
8.626926558677597
 51
171.3730734413223
  0
LINE
  5
31833E0E
330
318324AF
100
AcDbEntity
  8
JISSEN
100
AcDbLine
 10
267.2499990999999
 20
466.205697909392
 30
0.0
 11
185.2499991
 21
466.2056979093921
 31
0.0
  0
LINE
  5
31833E0F
330
318324AF
100
AcDbEntity
  8
JISSEN
100
AcDbLine
 10
185.2499991
 20
497.205697909392
 30
0.0
 11
267.2499990999999
 21
497.205697909392
 31
0.0
  0
LWPOLYLINE
  5
31833E12
330
318324AF
100
AcDbEntity
  8
JISSEN
100
AcDbPolyline
 90
        6
 70
     1
 43
0.0
 10
426.2499990999998
 20
641.2056979093921
 10
26.24999910000007
 20
641.2056979093921
 10
26.24999910000007
 20
643.2056979093921
 42
-0.4142135623730951
 10
44.24999910000007
 20
661.2056979093921
 10
408.2499990999998
 20
661.2056979093921
 42
-0.4142135623730951
 10
426.2499990999998
 20
643.2056979093921
  0
ARC
  5
31833E13
330
318324AF
100
AcDbEntity
  8
JISSEN
100
AcDbCircle
 10
226.2499990999998
 20
222.4701963576214
 30
0.0
 40
18.0
100
AcDbArc
 50
3.184738536719707
 51
176.8152614632801
  0
CIRCLE
  5
31833E1A
330
318324AF
100
AcDbEntity
  8
JISSEN
100
AcDbCircle
 10
226.2499990999998
 20
222.4701963576214
 30
0.0
 40
200.0
  0
LINE
  5
31833E43
330
318324AF
100
AcDbEntity
  8
JISSEN
100
AcDbLine
 10
76.25249911562514
 20
223.4701963576215
 30
0.0
 11
208.2777983443885
 21
223.4701963576215
 31
0.0
  0
LINE
  5
31833E44
330
318324AF
100
AcDbEntity
  8
JISSEN
100
AcDbLine
 10
75.09779857724584
 20
221.4701963576215
 30
0.0
 11
208.2777983443885
 21
221.4701963576215
 31
0.0
  0
INSERT
  5
31833E45
330
318324AF
100
AcDbEntity
  8
JISSEN
100
AcDbBlockReference
  2
FB26
 10
84.25249911562501
 20
211.7978554045534
 30
0.0
 50
210.0000000000004
  0
LINE
  5
31833E46
330
318324AF
100
AcDbEntity
  8
JISSEN
100
AcDbLine
 10
68.17514884643539
 20
209.4798153008551
 30
0.0
 11
89.82578394104608
 21
196.9798153008549
 31
0.0
  0
LINE
  5
31833E47
330
318324AF
100
AcDbEntity
  8
JISSEN
100
AcDbLine
 10
76.25249911562514
 20
223.4701963576215
 30
0.0
 11
68.17514884643539
 21
209.4798153008551
 31
0.0
  0
LINE
  5
31833E48
330
318324AF
100
AcDbEntity
  8
JISSEN
100
AcDbLine
 10
89.82578394104619
 20
196.9798153008547
 30
0.0
 11
103.9653120367272
 21
221.4701963576215
 31
0.0
  0
LINE
  5
31833E49
330
318324AF
100
AcDbEntity
  8
JISSEN
100
AcDbLine
 10
206.4762791667146
 20
219.4701963576215
 30
0.0
 11
183.7499990999999
 21
219.4701963576215
 31
0.0
  0
LINE
  5
31833E4A
330
318324AF
100
AcDbEntity
  8
JISSEN
100
AcDbLine
 10
183.7499990999999
 20
225.4701963576215
 30
0.0
 11
206.4762791667146
 21
225.4701963576215
 31
0.0
  0
INSERT
  5
31833E4B
330
318324AF
100
AcDbEntity
  8
JISSEN
100
AcDbBlockReference
  2
NT016
 10
196.7499990999998
 20
219.4701963576215
 30
0.0
 50
270.0
  0
INSERT
  5
31833E4C
330
318324AF
100
AcDbEntity
  8
JISSEN
100
AcDbBlockReference
  2
B016
 10
196.7499990999998
 20
225.4701963576215
 30
0.0
 50
270.0
  0
LINE
  5
31833E4D
330
318324AF
100
AcDbEntity
  8
SAISEN
100
AcDbLine
 10
193.7499990999999
 20
212.9701963576215
 30
0.0
 11
199.7499990999999
 21
212.9701963576215
 31
0.0
  0
LINE
  5
31833E4E
330
318324AF
100
AcDbEntity
  8
JISSEN
100
AcDbLine
 10
194.2499990999999
 20
212.4701963576214
 30
0.0
 11
199.2499990999999
 21
212.4701963576214
 31
0.0
  0
LINE
  5
31833E4F
330
318324AF
100
AcDbEntity
  8
JISSEN
100
AcDbLine
 10
183.7499990999999
 20
219.4701963576215
 30
0.0
 11
183.7499990999999
 21
221.4701963576215
 31
0.0
  0
LINE
  5
31833E50
330
318324AF
100
AcDbEntity
  8
SAISEN
100
AcDbLine
 10
194.2499990999999
 20
214.4701963576214
 30
0.0
 11
194.2499990999999
 21
212.4701963576214
 31
0.0
  0
LINE
  5
31833E51
330
318324AF
100
AcDbEntity
  8
JISSEN
100
AcDbLine
 10
193.7499990999999
 20
212.9701963576215
 30
0.0
 11
194.2499990999999
 21
212.4701963576214
 31
0.0
  0
LINE
  5
31833E52
330
318324AF
100
AcDbEntity
  8
JISSEN
100
AcDbLine
 10
193.7499990999999
 20
214.4701963576214
 30
0.0
 11
193.7499990999999
 21
212.9701963576215
 31
0.0
  0
LINE
  5
31833E53
330
318324AF
100
AcDbEntity
  8
JISSEN
100
AcDbLine
 10
183.7499990999999
 20
223.4701963576215
 30
0.0
 11
183.7499990999999
 21
225.4701963576215
 31
0.0
  0
LINE
  5
31833E54
330
318324AF
100
AcDbEntity
  8
JISSEN
100
AcDbLine
 10
206.4762791667149
 20
223.4701963576215
 30
0.0
 11
206.4762791667146
 21
221.4701963576215
 31
0.0
  0
LINE
  5
31833E55
330
318324AF
100
AcDbEntity
  8
SAISEN
100
AcDbLine
 10
199.2499990999999
 20
214.4701963576214
 30
0.0
 11
199.2499990999999
 21
212.4701963576214
 31
0.0
  0
LINE
  5
31833E56
330
318324AF
100
AcDbEntity
  8
JISSEN
100
AcDbLine
 10
199.7499990999999
 20
212.9701963576215
 30
0.0
 11
199.7499990999999
 21
214.4701963576214
 31
0.0
  0
LINE
  5
31833E57
330
318324AF
100
AcDbEntity
  8
JISSEN
100
AcDbLine
 10
199.2499990999999
 20
212.4701963576214
 30
0.0
 11
199.7499990999999
 21
212.9701963576215
 31
0.0
  0
LINE
  5
31833E59
330
318324AF
100
AcDbEntity
  8
JISSEN
100
AcDbLine
 10
115.1175125594803
 20
641.2056979093921
 30
0.0
 11
198.2559513227774
 21
497.205697909392
 31
0.0
  0
LINE
  5
31833E5A
330
318324AF
100
AcDbEntity
  8
JISSEN
100
AcDbLine
 10
86.24999910000008
 20
641.2056979093921
 30
0.0
 11
185.2499991
 21
469.7326679600546
 31
0.0
  0
LINE
  5
31833E5B
330
318324AF
100
AcDbEntity
  8
JISSEN
100
AcDbLine
 10
208.2499990999999
 20
497.205697909392
 30
0.0
 11
208.2499990999999
 21
466.205697909392
 31
0.0
  0
LINE
  5
31833E5C
330
318324AF
100
AcDbEntity
  8
JISSEN
100
AcDbLine
 10
185.2499991
 20
497.205697909392
 30
0.0
 11
185.2499991
 21
466.205697909392
 31
0.0
  0
LINE
  5
31833E5D
330
318324AF
100
AcDbEntity
  8
JISSEN
100
AcDbLine
 10
185.2499991
 20
466.2056979093921
 30
0.0
 11
185.2499991
 21
497.205697909392
 31
0.0
  0
INSERT
  5
31833E5F
330
318324AF
100
AcDbEntity
  8
JISSEN
100
AcDbBlockReference
  2
FB16
 10
196.7499990999998
 20
481.705697909392
 30
0.0
 41
-1.0
 50
300.0000000000005
  0
LINE
  5
31833E67
330
318324AF
100
AcDbEntity
  8
JISSEN
100
AcDbLine
 10
81.24999910000008
 20
666.2056979093921
 30
0.0
 11
87.24999910000008
 21
666.2056979093921
 31
0.0
  0
LINE
  5
31833E68
330
318324AF
100
AcDbEntity
  8
JISSEN
100
AcDbLine
 10
78.24999910000008
 20
663.2056979093921
 30
0.0
 11
78.24999910000008
 21
661.2056979093921
 31
0.0
  0
ARC
  5
31833E69
330
318324AF
100
AcDbEntity
  8
JISSEN
100
AcDbCircle
 10
81.24999910000008
 20
663.2056979093921
 30
0.0
 40
3.0
100
AcDbArc
 50
90.0
 51
180.0
  0
ARC
  5
31833E6A
330
318324AF
100
AcDbEntity
  8
JISSEN
100
AcDbCircle
 10
87.24999910000008
 20
663.2056979093921
 30
0.0
 40
3.0
100
AcDbArc
 50
0.0
 51
90.0
  0
LINE
  5
31833E6B
330
318324AF
100
AcDbEntity
  8
JISSEN
100
AcDbLine
 10
90.24999910000008
 20
661.2056979093921
 30
0.0
 11
90.24999910000008
 21
663.2056979093921
 31
0.0
  0
LINE
  5
31833EC9
330
318324AF
100
AcDbEntity
  8
JISSEN
100
AcDbLine
 10
244.2221998556113
 20
221.4701963576215
 30
0.0
 11
376.2499990999998
 21
221.4701963576215
 31
0.0
  0
LINE
  5
31833ECA
330
318324AF
100
AcDbEntity
  8
JISSEN
100
AcDbLine
 10
244.2221998556113
 20
223.4701963576215
 30
0.0
 11
377.4046996383792
 21
223.4701963576215
 31
0.0
  0
LINE
  5
31833ECB
330
318324AF
100
AcDbEntity
  8
SUNPOU
100
AcDbLine
 10
750.9191118753396
 20
272.5638791538498
 30
0.0
 11
832.8060086104716
 21
272.5638791538498
 31
0.0
  0
TEXT
  5
31833ECC
330
318324AF
100
AcDbEntity
  8
SUNPOU
100
AcDbText
 10
761.0064041044023
 20
275.5638791538498
 30
0.0
 40
12.0
  1
パイプ固定
  7
K
100
AcDbText
  0
LINE
  5
31833ECD
330
318324AF
100
AcDbEntity
  8
JISSEN
100
AcDbLine
 10
377.4046996383792
 20
223.4701963576215
 30
0.0
 11
244.2221998556113
 21
223.4701963576215
 31
0.0
  0
LINE
  5
31833ECE
330
318324AF
100
AcDbEntity
  8
SUNPOU
100
AcDbLine
 10
695.7499972999995
 20
316.2056979093926
 30
0.0
 11
750.9191118753396
 21
272.5638791538498
 31
0.0
  0
INSERT
  5
31833ECF
330
318324AF
100
AcDbEntity
  8
SUNPOU
100
AcDbBlockReference
  2
ARROWANG
 10
695.7499972999995
 20
316.2056979093923
 30
0.0
 41
5.999999999999972
 42
6.0
 43
6.0
 50
141.6540552609306
  0
INSERT
  5
31833ED0
330
318324AF
100
AcDbEntity
  8
JISSEN
100
AcDbBlockReference
  2
NT016
 10
255.7499990999999
 20
219.4701963576215
 30
0.0
 50
270.0
  0
INSERT
  5
31833ED1
330
318324AF
100
AcDbEntity
  8
JISSEN
100
AcDbBlockReference
  2
B016
 10
255.7499990999999
 20
225.4701963576215
 30
0.0
 50
270.0
  0
LINE
  5
31833ED2
330
318324AF
100
AcDbEntity
  8
JISSEN
100
AcDbLine
 10
268.7499990999999
 20
219.4701963576215
 30
0.0
 11
246.0237190332851
 21
219.4701963576215
 31
0.0
  0
LINE
  5
31833ED3
330
318324AF
100
AcDbEntity
  8
JISSEN
100
AcDbLine
 10
246.0237190332851
 20
225.4701963576215
 30
0.0
 11
268.7499990999999
 21
225.4701963576215
 31
0.0
  0
LINE
  5
31833ED4
330
318324AF
100
AcDbEntity
  8
JISSEN
100
AcDbLine
 10
246.0237190332851
 20
223.4701963576215
 30
0.0
 11
246.0237190332851
 21
221.4701963576215
 31
0.0
  0
LINE
  5
31833ED5
330
318324AF
100
AcDbEntity
  8
JISSEN
100
AcDbLine
 10
253.2499990999999
 20
212.4701963576216
 30
0.0
 11
258.2499990999999
 21
212.4701963576216
 31
0.0
  0
LINE
  5
31833ED6
330
318324AF
100
AcDbEntity
  8
SAISEN
100
AcDbLine
 10
252.7499990999999
 20
212.9701963576215
 30
0.0
 11
258.7499990999999
 21
212.9701963576215
 31
0.0
  0
LINE
  5
31833ED7
330
318324AF
100
AcDbEntity
  8
JISSEN
100
AcDbLine
 10
252.7499990999999
 20
214.4701963576216
 30
0.0
 11
252.7499990999999
 21
212.9701963576215
 31
0.0
  0
LINE
  5
31833ED8
330
318324AF
100
AcDbEntity
  8
JISSEN
100
AcDbLine
 10
252.7499990999999
 20
212.9701963576215
 30
0.0
 11
253.2499990999999
 21
212.4701963576216
 31
0.0
  0
LINE
  5
31833ED9
330
318324AF
100
AcDbEntity
  8
SAISEN
100
AcDbLine
 10
253.2499990999999
 20
214.4701963576216
 30
0.0
 11
253.2499990999999
 21
212.4701963576216
 31
0.0
  0
LINE
  5
31833EDA
330
318324AF
100
AcDbEntity
  8
JISSEN
100
AcDbLine
 10
258.2499990999999
 20
212.4701963576216
 30
0.0
 11
258.7499990999999
 21
212.9701963576215
 31
0.0
  0
LINE
  5
31833EDB
330
318324AF
100
AcDbEntity
  8
JISSEN
100
AcDbLine
 10
258.7499990999999
 20
212.9701963576215
 30
0.0
 11
258.7499990999999
 21
214.4701963576216
 31
0.0
  0
LINE
  5
31833EDC
330
318324AF
100
AcDbEntity
  8
SAISEN
100
AcDbLine
 10
258.2499990999999
 20
214.4701963576216
 30
0.0
 11
258.2499990999999
 21
212.4701963576216
 31
0.0
  0
LINE
  5
31833EDD
330
318324AF
100
AcDbEntity
  8
JISSEN
100
AcDbLine
 10
268.7499990999999
 20
221.4701963576215
 30
0.0
 11
268.7499990999999
 21
219.4701963576215
 31
0.0
  0
LINE
  5
31833EDE
330
318324AF
100
AcDbEntity
  8
JISSEN
100
AcDbLine
 10
268.7499990999999
 20
225.4701963576215
 30
0.0
 11
268.7499990999999
 21
223.4701963576215
 31
0.0
  0
TEXT
  5
31833EDF
330
318324AF
100
AcDbEntity
  8
SUNPOU
100
AcDbText
 10
778.4385493055482
 20
258.3164111267822
 30
0.0
 40
12.0
  1
25A
  7
K
100
AcDbText
  0
LINE
  5
31833EE0
330
318324AF
100
AcDbEntity
  8
JISSEN
100
AcDbLine
 10
362.6767142745788
 20
247.9605774143882
 30
0.0
 11
348.5371861788978
 21
223.4701963576215
 31
0.0
  0
LINE
  5
31833EE1
330
318324AF
100
AcDbEntity
  8
JISSEN
100
AcDbLine
 10
384.3273493691896
 20
235.4605774143879
 30
0.0
 11
362.6767142745788
 21
247.960577414388
 31
0.0
  0
INSERT
  5
31833EE2
330
318324AF
100
AcDbEntity
  8
JISSEN
100
AcDbBlockReference
  2
FB26
 10
368.2499991
 20
233.1425373106897
 30
0.0
 50
90.0
  0
LINE
  5
31833EE3
330
318324AF
100
AcDbEntity
  8
JISSEN
100
AcDbLine
 10
376.2499990999998
 20
221.4701963576215
 30
0.0
 11
384.3273493691896
 21
235.4605774143879
 31
0.0
  0
LINE
  5
31833EED
330
318324AF
100
AcDbEntity
  8
JISSEN
100
AcDbLine
 10
366.2499990999998
 20
641.2056979093921
 30
0.0
 11
267.2499990999999
 21
469.7326679600546
 31
0.0
  0
LINE
  5
31833EEE
330
318324AF
100
AcDbEntity
  8
JISSEN
100
AcDbLine
 10
337.3824856405196
 20
641.2056979093921
 30
0.0
 11
254.2440468772225
 21
497.205697909392
 31
0.0
  0
LINE
  5
31833EF0
330
318324AF
100
AcDbEntity
  8
JISSEN
100
AcDbLine
 10
244.2499990999999
 20
497.205697909392
 30
0.0
 11
244.2499990999999
 21
466.205697909392
 31
0.0
  0
LINE
  5
31833EF1
330
318324AF
100
AcDbEntity
  8
JISSEN
100
AcDbLine
 10
267.2499990999999
 20
497.205697909392
 30
0.0
 11
267.2499990999999
 21
466.205697909392
 31
0.0
  0
INSERT
  5
31833EF7
330
318324AF
100
AcDbEntity
  8
JISSEN
100
AcDbBlockReference
  2
FB16
 10
255.7499990999999
 20
481.705697909392
 30
0.0
 50
59.99999999999944
  0
ARC
  5
31833F5F
330
318324AF
100
AcDbEntity
  8
JISSEN
100
AcDbCircle
 10
365.2499990999998
 20
663.2056979093921
 30
0.0
 40
3.0
100
AcDbArc
 50
90.0
 51
180.0
  0
LINE
  5
31833F60
330
318324AF
100
AcDbEntity
  8
JISSEN
100
AcDbLine
 10
362.2499990999998
 20
661.2056979093921
 30
0.0
 11
362.2499990999998
 21
663.2056979093921
 31
0.0
  0
ARC
  5
31833F61
330
318324AF
100
AcDbEntity
  8
JISSEN
100
AcDbCircle
 10
371.2499990999998
 20
663.2056979093921
 30
0.0
 40
3.0
100
AcDbArc
 50
0.0
 51
90.0
  0
LINE
  5
31833F62
330
318324AF
100
AcDbEntity
  8
JISSEN
100
AcDbLine
 10
371.2499990999998
 20
666.2056979093921
 30
0.0
 11
365.2499990999998
 21
666.2056979093921
 31
0.0
  0
LINE
  5
31833F63
330
318324AF
100
AcDbEntity
  8
JISSEN
100
AcDbLine
 10
374.2499990999998
 20
663.2056979093921
 30
0.0
 11
374.2499990999998
 21
661.2056979093921
 31
0.0
  0
CIRCLE
  5
31833F6C
330
318324AF
100
AcDbEntity
  8
JISSEN
100
AcDbCircle
 10
226.2499990999998
 20
222.4701963576214
 30
0.0
 40
199.1999999999999
  0
LINE
  5
318341FC
330
318324AF
100
AcDbEntity
  8
JISSEN
100
AcDbLine
 10
685.351230970375
 20
474.6449766005938
 30
0.0
 11
684.9815981965832
 21
475.6587872441616
 31
0.0
  0
LINE
  5
318341FD
330
318324AF
100
AcDbEntity
  8
JISSEN
100
AcDbLine
 10
685.5324984878921
 20
474.7095540069088
 30
0.0
 11
685.1865067263283
 21
476.2936481164561
 31
0.0
  0
LINE
  5
318341FE
330
318324AF
100
AcDbEntity
  8
JISSEN
100
AcDbLine
 10
686.5104914613911
 20
474.7143596650929
 30
0.0
 11
686.8366063363244
 21
476.2811534051778
 31
0.0
  0
LINE
  5
318341FF
330
318324AF
100
AcDbEntity
  8
JISSEN
100
AcDbLine
 10
688.3231232106401
 20
477.3162468151165
 30
0.0
 11
688.1093295971091
 21
477.3162468151165
 31
0.0
  0
ARC
  5
31834200
330
318324AF
100
AcDbEntity
  8
JISSEN
100
AcDbCircle
 10
688.3231232106401
 20
476.0162468151166
 30
0.0
 40
1.3
100
AcDbArc
 50
11.2989559157519
 51
90.0
  0
ARC
  5
31834201
330
318324AF
100
AcDbEntity
  8
JISSEN
100
AcDbCircle
 10
688.3936443782021
 20
475.5162468151166
 30
0.0
 40
0.8
100
AcDbArc
 50
18.04996662058596
 51
90.0
  0
LINE
  5
31834202
330
318324AF
100
AcDbEntity
  8
JISSEN
100
AcDbLine
 10
697.3109319717025
 20
477.3181751577975
 30
0.0
 11
690.8718666434053
 21
478.1087929667577
 31
0.0
  0
LINE
  5
31834203
330
318324AF
100
AcDbEntity
  8
JISSEN
100
AcDbLine
 10
692.0513935063142
 20
476.3162468151165
 30
0.0
 11
691.0171582551178
 21
476.3162468151165
 31
0.0
  0
LINE
  5
31834204
330
318324AF
100
AcDbEntity
  8
JISSEN
100
AcDbLine
 10
691.9895790385623
 20
477.3162468151165
 30
0.0
 11
691.1243659707595
 21
477.3162468151165
 31
0.0
  0
ARC
  5
31834205
330
318324AF
100
AcDbEntity
  8
JISSEN
100
AcDbCircle
 10
683.3823948168904
 20
476.0162468151166
 30
0.0
 40
1.3
100
AcDbArc
 50
90.0
 51
168.8861928075022
  0
LINE
  5
31834206
330
318324AF
100
AcDbEntity
  8
JISSEN
100
AcDbLine
 10
684.0420951074612
 20
476.3162468151165
 30
0.0
 11
682.1174837528234
 21
476.3162468151165
 31
0.0
  0
LINE
  5
31834207
330
318324AF
100
AcDbEntity
  8
JISSEN
100
AcDbLine
 10
682.1067747031097
 20
476.2668327790448
 30
0.0
 11
681.8187426970037
 21
474.8005917548423
 31
0.0
  0
LINE
  5
31834208
330
318324AF
100
AcDbEntity
  8
JISSEN
100
AcDbLine
 10
683.3791039822736
 20
476.087613729341
 30
0.0
 11
683.4059748001227
 21
476.3162468151165
 31
0.0
  0
ARC
  5
31834209
330
318324AF
100
AcDbEntity
  8
JISSEN
100
AcDbCircle
 10
683.8756861344541
 20
476.0292513601629
 30
0.0
 40
0.5
100
AcDbArc
 50
173.2968846703452
 51
220.219098744555
  0
LINE
  5
3183420A
330
318324AF
100
AcDbEntity
  8
JISSEN
100
AcDbLine
 10
683.3823948168904
 20
477.3162468151165
 30
0.0
 11
683.9164482560147
 21
477.3162468151165
 31
0.0
  0
ARC
  5
3183420B
330
318324AF
100
AcDbEntity
  8
JISSEN
100
AcDbCircle
 10
681.1299949521822
 20
474.916246815117
 30
0.0
 40
0.6
100
AcDbArc
 50
197.3059974608008
 51
270.0
  0
LINE
  5
3183420C
330
318324AF
100
AcDbEntity
  8
JISSEN
100
AcDbLine
 10
679.0721295742921
 20
477.3162468151165
 30
0.0
 11
678.4278650257081
 21
477.3162468151165
 31
0.0
  0
LINE
  5
3183420D
330
318324AF
100
AcDbEntity
  8
JISSEN
100
AcDbLine
 10
679.1823284787506
 20
476.3162468151165
 30
0.0
 11
678.7499973000001
 21
476.3162468151165
 31
0.0
  0
LINE
  5
3183420E
330
318324AF
100
AcDbEntity
  8
JISSEN
100
AcDbLine
 10
678.3176661212496
 20
476.3162468151165
 30
0.0
 11
678.7499973000001
 21
476.3162468151165
 31
0.0
  0
ARC
  5
3183420F
330
318324AF
100
AcDbEntity
  8
JISSEN
100
AcDbCircle
 10
679.072129574292
 20
476.0162468151166
 30
0.0
 40
1.3
100
AcDbArc
 50
11.31883372739365
 51
90.0
  0
ARC
  5
31834210
330
318324AF
100
AcDbEntity
  8
JISSEN
100
AcDbCircle
 10
679.1823284787506
 20
475.1162468151163
 30
0.0
 40
1.199999999999999
100
AcDbArc
 50
17.305997460804
 51
90.0
  0
LINE
  5
31834211
330
318324AF
100
AcDbEntity
  8
JISSEN
100
AcDbLine
 10
680.6416648345802
 20
474.7984857318945
 30
0.0
 11
680.3468448290975
 21
476.2713958287656
 31
0.0
  0
LINE
  5
31834212
330
318324AF
100
AcDbEntity
  8
JISSEN
100
AcDbLine
 10
680.5571571523257
 20
474.7377619276451
 30
0.0
 11
680.3280040784629
 21
475.4732165900602
 31
0.0
  0
LINE
  5
31834213
330
318324AF
100
AcDbEntity
  8
JISSEN
100
AcDbLine
 10
681.2299949521822
 20
474.3162468151165
 30
0.0
 11
681.1299949521822
 21
474.3162468151165
 31
0.0
  0
ARC
  5
31834214
330
318324AF
100
AcDbEntity
  8
JISSEN
100
AcDbCircle
 10
681.2299949521822
 20
474.916246815117
 30
0.0
 40
0.6
100
AcDbArc
 50
191.3188337273936
 51
348.8861928075053
  0
LINE
  5
31834215
330
318324AF
100
AcDbEntity
  8
JISSEN
100
AcDbLine
 10
675.3932198968904
 20
476.2668327790448
 30
0.0
 11
675.6812519029962
 21
474.8005917548423
 31
0.0
  0
ARC
  5
31834216
330
318324AF
100
AcDbEntity
  8
JISSEN
100
AcDbCircle
 10
676.3699996478181
 20
474.916246815117
 30
0.0
 40
0.6
100
AcDbArc
 50
270.0
 51
342.694002539196
  0
LINE
  5
31834217
330
318324AF
100
AcDbEntity
  8
JISSEN
100
AcDbLine
 10
676.3699996478181
 20
474.3162468151165
 30
0.0
 11
676.2699996478182
 21
474.3162468151165
 31
0.0
  0
LINE
  5
31834218
330
318324AF
100
AcDbEntity
  8
JISSEN
100
AcDbLine
 10
676.8583297654202
 20
474.7984857318945
 30
0.0
 11
677.1531497709028
 21
476.2713958287656
 31
0.0
  0
LINE
  5
31834219
330
318324AF
100
AcDbEntity
  8
JISSEN
100
AcDbLine
 10
676.9428374476745
 20
474.7377619276451
 30
0.0
 11
677.171990521537
 21
475.4732165900602
 31
0.0
  0
ARC
  5
3183421A
330
318324AF
100
AcDbEntity
  8
JISSEN
100
AcDbCircle
 10
676.2699996478182
 20
474.916246815117
 30
0.0
 40
0.6
100
AcDbArc
 50
191.1138071924976
 51
348.6811662726062
  0
LINE
  5
3183421B
330
318324AF
100
AcDbEntity
  8
JISSEN
100
AcDbLine
 10
674.1175997831095
 20
477.3162468151165
 30
0.0
 11
673.5835463439855
 21
477.3162468151165
 31
0.0
  0
ARC
  5
3183421C
330
318324AF
100
AcDbEntity
  8
JISSEN
100
AcDbCircle
 10
671.4790120850643
 20
474.8162468151165
 30
0.0
 40
0.5
100
AcDbArc
 50
191.7577571472651
 51
347.6791678141193
  0
ARC
  5
3183421D
330
318324AF
100
AcDbEntity
  8
JISSEN
100
AcDbCircle
 10
671.6790120850641
 20
474.8162468151165
 30
0.0
 40
0.5
100
AcDbArc
 50
270.0
 51
339.9682734747168
  0
LINE
  5
3183421E
330
318324AF
100
AcDbEntity
  8
JISSEN
100
AcDbLine
 10
671.6790120850641
 20
474.3162468151165
 30
0.0
 11
671.4790120850643
 21
474.3162468151165
 31
0.0
  0
ARC
  5
3183421F
330
318324AF
100
AcDbEntity
  8
JISSEN
100
AcDbCircle
 10
672.7499973000001
 20
475.7696817972556
 30
0.0
 40
1.0
100
AcDbArc
 50
319.7809012554443
 51
333.0351766874628
  0
ARC
  5
31834220
330
318324AF
100
AcDbEntity
  8
JISSEN
100
AcDbCircle
 10
673.4578994925389
 20
475.3162468151165
 30
0.0
 40
1.0
100
AcDbArc
 50
90.0
 51
159.9682734747169
  0
ARC
  5
31834221
330
318324AF
100
AcDbEntity
  8
JISSEN
100
AcDbCircle
 10
673.5835463439855
 20
476.0162468151166
 30
0.0
 40
1.3
100
AcDbArc
 50
90.0
 51
167.6791678141228
  0
LINE
  5
31834222
330
318324AF
100
AcDbEntity
  8
JISSEN
100
AcDbLine
 10
671.9674961121081
 20
474.7095540069088
 30
0.0
 11
672.3134878736718
 21
476.2936481164561
 31
0.0
  0
LINE
  5
31834223
330
318324AF
100
AcDbEntity
  8
JISSEN
100
AcDbLine
 10
672.1487636296251
 20
474.6449766005938
 30
0.0
 11
672.518396403417
 21
475.6587872441616
 31
0.0
  0
LINE
  5
31834224
330
318324AF
100
AcDbEntity
  8
JISSEN
100
AcDbLine
 10
674.1208906177263
 20
476.087613729341
 30
0.0
 11
674.0940197998773
 21
476.3162468151165
 31
0.0
  0
ARC
  5
31834225
330
318324AF
100
AcDbEntity
  8
JISSEN
100
AcDbCircle
 10
673.6243084655463
 20
476.0292513601629
 30
0.0
 40
0.5
100
AcDbArc
 50
319.7809012554443
 51
6.703115329654639
  0
LINE
  5
31834226
330
318324AF
100
AcDbEntity
  8
JISSEN
100
AcDbLine
 10
673.4578994925389
 20
476.3162468151165
 30
0.0
 11
675.3825108471772
 21
476.3162468151165
 31
0.0
  0
ARC
  5
31834227
330
318324AF
100
AcDbEntity
  8
JISSEN
100
AcDbCircle
 10
674.1175997831095
 20
476.0162468151166
 30
0.0
 40
1.3
100
AcDbArc
 50
11.11380719249771
 51
90.0
  0
LINE
  5
31834228
330
318324AF
100
AcDbEntity
  8
JISSEN
100
AcDbLine
 10
670.9999973000001
 20
478.1162468151165
 30
0.0
 11
678.7499973000001
 21
478.1162468151165
 31
0.0
  0
ARC
  5
31834229
330
318324AF
100
AcDbEntity
  8
JISSEN
100
AcDbCircle
 10
678.4278650257081
 20
476.0162468151166
 30
0.0
 40
1.3
100
AcDbArc
 50
90.0
 51
168.6811662726062
  0
ARC
  5
3183422A
330
318324AF
100
AcDbEntity
  8
JISSEN
100
AcDbCircle
 10
678.3176661212496
 20
475.1162468151163
 30
0.0
 40
1.199999999999999
100
AcDbArc
 50
90.0
 51
162.6940025391991
  0
ARC
  5
3183422B
330
318324AF
100
AcDbEntity
  8
JISSEN
100
AcDbCircle
 10
682.9999973000001
 20
463.7825638781873
 30
0.0
 40
1.0
100
AcDbArc
 50
57.81811607959803
 51
125.5633285759494
  0
ARC
  5
3183422C
330
318324AF
100
AcDbEntity
  8
JISSEN
100
AcDbCircle
 10
681.5459912092141
 20
465.8162468151165
 30
0.0
 40
1.5
100
AcDbArc
 50
270.0
 51
305.5633285759493
  0
LINE
  5
3183422D
330
318324AF
100
AcDbEntity
  8
JISSEN
100
AcDbLine
 10
681.1784668381918
 20
464.3162468151165
 30
0.0
 11
680.0693276999425
 21
463.2071076768673
 31
0.0
  0
LINE
  5
3183422E
330
318324AF
100
AcDbEntity
  8
SAISEN
100
AcDbLine
 10
680.7499973000001
 20
464.3162468151165
 30
0.0
 11
680.7499973000001
 21
463.8877772769249
 31
0.0
  0
LINE
  5
3183422F
330
318324AF
100
AcDbEntity
  8
JISSEN
100
AcDbLine
 10
681.5459912092141
 20
464.3162468151165
 30
0.0
 11
678.7499973000001
 21
464.3162468151165
 31
0.0
  0
ARC
  5
31834230
330
318324AF
100
AcDbEntity
  8
JISSEN
100
AcDbCircle
 10
675.9540033907859
 20
465.8162468151165
 30
0.0
 40
1.5
100
AcDbArc
 50
234.4366714240504
 51
270.0
  0
LINE
  5
31834231
330
318324AF
100
AcDbEntity
  8
JISSEN
100
AcDbLine
 10
676.3215277618085
 20
464.3162468151165
 30
0.0
 11
677.4306669000576
 21
463.2071076768673
 31
0.0
  0
LINE
  5
31834232
330
318324AF
100
AcDbEntity
  8
SAISEN
100
AcDbLine
 10
676.7499973000001
 20
464.3162468151165
 30
0.0
 11
676.7499973000001
 21
463.8877772769249
 31
0.0
  0
ARC
  5
31834233
330
318324AF
100
AcDbEntity
  8
JISSEN
100
AcDbCircle
 10
674.4999973000001
 20
463.7825638781873
 30
0.0
 40
1.0
100
AcDbArc
 50
54.4366714240506
 51
122.1818839204019
  0
LINE
  5
31834234
330
318324AF
100
AcDbEntity
  8
JISSEN
100
AcDbLine
 10
675.9540033907859
 20
464.3162468151165
 30
0.0
 11
678.7499973000001
 21
464.3162468151165
 31
0.0
  0
LINE
  5
31834235
330
318324AF
100
AcDbEntity
  8
JISSEN
100
AcDbLine
 10
674.5881147912967
 20
463.2054524888742
 30
0.0
 11
682.5881147912967
 21
463.2054524888742
 31
0.0
  0
ARC
  5
31834236
330
318324AF
100
AcDbEntity
  8
JISSEN
100
AcDbCircle
 10
661.9999973000001
 20
470.3162468151165
 30
0.0
 40
12.49999999999999
100
AcDbArc
 50
343.7397952916863
 51
16.26020470831368
  0
ARC
  5
31834237
330
318324AF
100
AcDbEntity
  8
JISSEN
100
AcDbCircle
 10
695.4999973000001
 20
470.3162468151165
 30
0.0
 40
12.49999999999999
100
AcDbArc
 50
163.7397952916863
 51
196.2602047083136
  0
LINE
  5
31834238
330
318324AF
100
AcDbEntity
  8
JISSEN
100
AcDbLine
 10
669.1063502217982
 20
476.3162468151165
 30
0.0
 11
670.6555760669584
 21
476.3162468151165
 31
0.0
  0
ARC
  5
31834239
330
318324AF
100
AcDbEntity
  8
JISSEN
100
AcDbCircle
 10
669.1768713893602
 20
476.0162468151166
 30
0.0
 40
1.3
100
AcDbArc
 50
90.0
 51
168.701044084248
  0
ARC
  5
3183423A
330
318324AF
100
AcDbEntity
  8
JISSEN
100
AcDbCircle
 10
669.1063502217982
 20
475.5162468151166
 30
0.0
 40
0.8
100
AcDbArc
 50
90.0
 51
161.950033379414
  0
ARC
  5
3183423B
330
318324AF
100
AcDbEntity
  8
JISSEN
100
AcDbCircle
 10
667.5835301488349
 20
474.7162468151163
 30
0.0
 40
0.4
100
AcDbArc
 50
270.0
 51
341.9500333794141
  0
LINE
  5
3183423C
330
318324AF
100
AcDbEntity
  8
JISSEN
100
AcDbLine
 10
667.5757774404565
 20
474.637875505214
 30
0.0
 11
667.9020676915911
 21
476.2709535722988
 31
0.0
  0
LINE
  5
3183423D
330
318324AF
100
AcDbEntity
  8
JISSEN
100
AcDbLine
 10
668.3457208885945
 20
475.7641238359756
 30
0.0
 11
667.9638448154369
 21
474.5923083046868
 31
0.0
  0
LINE
  5
3183423E
330
318324AF
100
AcDbEntity
  8
JISSEN
100
AcDbLine
 10
669.1768713893602
 20
477.3162468151165
 30
0.0
 11
669.3906650028911
 21
477.3162468151165
 31
0.0
  0
LINE
  5
3183423F
330
318324AF
100
AcDbEntity
  8
JISSEN
100
AcDbLine
 10
666.7901472878829
 20
474.6437904509423
 30
0.0
 11
666.4980537247648
 21
476.2296359848038
 31
0.0
  0
ARC
  5
31834240
330
318324AF
100
AcDbEntity
  8
JISSEN
100
AcDbCircle
 10
665.4486010936859
 20
475.7162468151165
 30
0.0
 40
0.6
100
AcDbArc
 50
90.0
 51
167.2223180644377
  0
ARC
  5
31834241
330
318324AF
100
AcDbEntity
  8
JISSEN
100
AcDbCircle
 10
665.5104155614378
 20
476.0162468151166
 30
0.0
 40
1.3
100
AcDbArc
 50
90.0
 51
171.2564626852238
  0
ARC
  5
31834242
330
318324AF
100
AcDbEntity
  8
JISSEN
100
AcDbCircle
 10
664.2762838344676
 20
474.6162468151166
 30
0.0
 40
0.3
100
AcDbArc
 50
270.0
 51
347.2223180644377
  0
LINE
  5
31834243
330
318324AF
100
AcDbEntity
  8
JISSEN
100
AcDbLine
 10
663.9727974333553
 20
474.570643244261
 30
0.0
 11
664.2255232995919
 21
476.2138622888237
 31
0.0
  0
LINE
  5
31834244
330
318324AF
100
AcDbEntity
  8
JISSEN
100
AcDbLine
 10
664.8634597464559
 20
475.8489479973345
 30
0.0
 11
664.5688545080827
 21
474.5498962240078
 31
0.0
  0
ARC
  5
31834245
330
318324AF
100
AcDbEntity
  8
JISSEN
100
AcDbCircle
 10
674.5188110525174
 20
477.6835120536226
 30
0.0
 40
8.151460220977577
100
AcDbArc
 50
182.5823439498859
 51
190.2741177283829
  0
LINE
  5
31834246
330
318324AF
100
AcDbEntity
  8
JISSEN
100
AcDbLine
 10
665.5104155614378
 20
477.3162468151165
 30
0.0
 11
666.3756286292405
 21
477.3162468151165
 31
0.0
  0
LINE
  5
31834247
330
318324AF
100
AcDbEntity
  8
JISSEN
100
AcDbLine
 10
665.4486010936859
 20
476.3162468151165
 30
0.0
 11
666.4828363448821
 21
476.3162468151165
 31
0.0
  0
ARC
  5
31834248
330
318324AF
100
AcDbEntity
  8
JISSEN
100
AcDbCircle
 10
667.1835301488349
 20
474.7162468151163
 30
0.0
 40
0.4
100
AcDbArc
 50
190.4362216586944
 51
348.7010440842447
  0
LINE
  5
31834249
330
318324AF
100
AcDbEntity
  8
JISSEN
100
AcDbLine
 10
667.5835301488349
 20
474.3162468151165
 30
0.0
 11
667.1835301488349
 21
474.3162468151165
 31
0.0
  0
ARC
  5
3183424A
330
318324AF
100
AcDbEntity
  8
JISSEN
100
AcDbCircle
 10
664.5008047960295
 20
476.3198519882852
 30
0.0
 40
1.346883607168649
100
AcDbArc
 50
132.2874941588425
 51
183.8406207871288
  0
LINE
  5
3183424B
330
318324AF
100
AcDbEntity
  8
JISSEN
100
AcDbLine
 10
662.8377645051361
 20
477.3162468151165
 30
0.0
 11
663.5945527337844
 21
477.3162468151165
 31
0.0
  0
LINE
  5
3183424C
330
318324AF
100
AcDbEntity
  8
JISSEN
100
AcDbLine
 10
662.7291051461727
 20
476.3162468151165
 30
0.0
 11
663.1539260138127
 21
476.3162468151165
 31
0.0
  0
ARC
  5
3183424D
330
318324AF
100
AcDbEntity
  8
JISSEN
100
AcDbCircle
 10
662.8377645051361
 20
476.0162468151166
 30
0.0
 40
1.3
100
AcDbArc
 50
90.0
 51
174.8427865251736
  0
LINE
  5
3183424E
330
318324AF
100
AcDbEntity
  8
JISSEN
100
AcDbLine
 10
661.9962861822862
 20
474.3162468151165
 30
0.0
 11
661.1962861822863
 21
474.3162468151165
 31
0.0
  0
ARC
  5
3183424F
330
318324AF
100
AcDbEntity
  8
JISSEN
100
AcDbCircle
 10
661.1962861822863
 20
474.5162468151163
 30
0.0
 40
0.2
100
AcDbArc
 50
183.9176963714479
 51
354.8427865251737
  0
ARC
  5
31834250
330
318324AF
100
AcDbEntity
  8
JISSEN
100
AcDbCircle
 10
662.1189632683442
 20
476.330039063181
 30
0.0
 40
1.244540968917422
100
AcDbArc
 50
127.5871082537659
 51
184.6273535933096
  0
LINE
  5
31834251
330
318324AF
100
AcDbEntity
  8
JISSEN
100
AcDbLine
 10
661.0128739323499
 20
474.4364975419339
 30
0.0
 11
661.0125327022672
 21
474.4146827893785
 31
0.0
  0
LINE
  5
31834252
330
318324AF
100
AcDbEntity
  8
JISSEN
100
AcDbLine
 10
660.8784789092465
 20
476.2296359848029
 30
0.0
 11
660.9967535374764
 21
474.5025821286903
 31
0.0
  0
ARC
  5
31834253
330
318324AF
100
AcDbEntity
  8
JISSEN
100
AcDbCircle
 10
660.9125449338978
 20
474.4162468151174
 30
0.0
 40
0.1
100
AcDbArc
 50
270.0
 51
359.1038427224347
  0
ARC
  5
31834254
330
318324AF
100
AcDbEntity
  8
JISSEN
100
AcDbCircle
 10
662.7291051461727
 20
475.9162468151164
 30
0.0
 40
0.4
100
AcDbArc
 50
90.00000000000161
 51
174.6856104413449
  0
ARC
  5
31834255
330
318324AF
100
AcDbEntity
  8
JISSEN
100
AcDbCircle
 10
661.9962861822862
 20
474.5162468151163
 30
0.0
 40
0.2
100
AcDbArc
 50
270.0
 51
354.6856104413449
  0
LINE
  5
31834256
330
318324AF
100
AcDbEntity
  8
JISSEN
100
AcDbLine
 10
661.3954765427331
 20
474.4982690425872
 30
0.0
 11
661.5430271622325
 21
476.1331023365564
 31
0.0
  0
LINE
  5
31834257
330
318324AF
100
AcDbEntity
  8
JISSEN
100
AcDbLine
 10
662.3308245588307
 20
475.9532950775108
 30
0.0
 11
662.1954264759574
 21
474.4977226839193
 31
0.0
  0
ARC
  5
31834258
330
318324AF
100
AcDbEntity
  8
JISSEN
100
AcDbCircle
 10
663.6762838344678
 20
474.6162468151166
 30
0.0
 40
0.3
100
AcDbArc
 50
186.095601459984
 51
187.6479080428996
  0
LINE
  5
31834259
330
318324AF
100
AcDbEntity
  8
JISSEN
100
AcDbLine
 10
663.1569459775612
 20
476.229635984802
 30
0.0
 11
663.3789524523164
 21
474.5763212695584
 31
0.0
  0
ARC
  5
3183425A
330
318324AF
100
AcDbEntity
  8
JISSEN
100
AcDbCircle
 10
659.9125449338978
 20
474.4162468151129
 30
0.0
 40
0.1
100
AcDbArc
 50
270.0
 51
358.8942957104791
  0
LINE
  5
3183425B
330
318324AF
100
AcDbEntity
  8
JISSEN
100
AcDbLine
 10
660.0125263134875
 20
474.414317116854
 30
0.0
 11
660.0439286558296
 21
476.0413328924842
 31
0.0
  0
LINE
  5
3183425C
330
318324AF
100
AcDbEntity
  8
JISSEN
100
AcDbLine
 10
659.7499973000001
 20
474.3162468151165
 30
0.0
 11
659.7499973000001
 21
476.8219020819771
 31
0.0
  0
ARC
  5
3183425D
330
318324AF
100
AcDbEntity
  8
JISSEN
100
AcDbCircle
 10
660.2499973000001
 20
476.8219020819771
 30
0.0
 40
0.5
100
AcDbArc
 50
96.99999999999954
 51
180.0
  0
LINE
  5
3183425E
330
318324AF
100
AcDbEntity
  8
JISSEN
100
AcDbLine
 10
660.9125449338978
 20
474.3162468151165
 30
0.0
 11
659.7499973000001
 21
474.3162468151165
 31
0.0
  0
ARC
  5
3183425F
330
318324AF
100
AcDbEntity
  8
JISSEN
100
AcDbCircle
 10
661.3436865904938
 20
476.0162468151166
 30
0.0
 40
1.3
100
AcDbArc
 50
90.0
 51
178.8942957104758
  0
LINE
  5
31834260
330
318324AF
100
AcDbEntity
  8
JISSEN
100
AcDbLine
 10
660.1890626282973
 20
477.3181751577975
 30
0.0
 11
666.6281279565947
 21
478.1087929667577
 31
0.0
  0
ARC
  5
31834261
330
318324AF
100
AcDbEntity
  8
JISSEN
100
AcDbCircle
 10
663.6762838344678
 20
474.6162468151166
 30
0.0
 40
0.3
100
AcDbArc
 50
187.6479080428996
 51
351.2564626852238
  0
LINE
  5
31834262
330
318324AF
100
AcDbEntity
  8
JISSEN
100
AcDbLine
 10
664.2762838344676
 20
474.3162468151165
 30
0.0
 11
663.6762838344678
 21
474.3162468151165
 31
0.0
  0
LINE
  5
31834263
330
318324AF
100
AcDbEntity
  8
JISSEN
100
AcDbLine
 10
663.8425723418942
 20
463.6876143917421
 30
0.0
 11
674.0060988815145
 21
475.7063952338858
 31
0.0
  0
ARC
  5
31834264
330
318324AF
100
AcDbEntity
  8
JISSEN
100
AcDbCircle
 10
669.3906650028911
 20
476.0162468151166
 30
0.0
 40
1.3
100
AcDbArc
 50
11.75775714726836
 51
90.0
  0
LINE
  5
31834265
330
318324AF
100
AcDbEntity
  8
JISSEN
100
AcDbLine
 10
670.9999973000001
 20
478.1162468151165
 30
0.0
 11
666.7499973000001
 21
478.1162468151165
 31
0.0
  0
LINE
  5
31834266
330
318324AF
100
AcDbEntity
  8
JISSEN
100
AcDbLine
 10
670.989503138609
 20
474.7143596650929
 30
0.0
 11
670.6633882636757
 21
476.2811534051778
 31
0.0
  0
LINE
  5
31834267
330
318324AF
100
AcDbEntity
  8
JISSEN
100
AcDbLine
 10
678.7499973000001
 20
478.1162468151165
 30
0.0
 11
690.7499973000001
 21
478.1162468151165
 31
0.0
  0
LINE
  5
31834268
330
318324AF
100
AcDbEntity
  8
JISSEN
100
AcDbLine
 10
693.6574222581059
 20
463.6876143917421
 30
0.0
 11
683.4938957184856
 21
475.7063952338858
 31
0.0
  0
ARC
  5
31834269
330
318324AF
100
AcDbEntity
  8
JISSEN
100
AcDbCircle
 10
684.0420951074612
 20
475.3162468151165
 30
0.0
 40
1.0
100
AcDbArc
 50
20.03172652528303
 51
90.0
  0
ARC
  5
3183426A
330
318324AF
100
AcDbEntity
  8
JISSEN
100
AcDbCircle
 10
683.9164482560147
 20
476.0162468151166
 30
0.0
 40
1.3
100
AcDbArc
 50
12.32083218587719
 51
89.99999999999836
  0
ARC
  5
3183426B
330
318324AF
100
AcDbEntity
  8
JISSEN
100
AcDbCircle
 10
670.7499973000001
 20
444.3162468151165
 30
0.0
 40
26.0
100
AcDbArc
 50
0.0
 51
23.8188413934551
  0
LINE
  5
3183426C
330
318324AF
100
AcDbEntity
  8
JISSEN
100
AcDbLine
 10
686.0881147912968
 20
451.9770050919564
 30
0.0
 11
686.0881147912968
 21
446.9770050919565
 31
0.0
  0
ARC
  5
3183426D
330
318324AF
100
AcDbEntity
  8
JISSEN
100
AcDbCircle
 10
670.7499973000001
 20
444.3162468151165
 30
0.0
 40
28.0
100
AcDbArc
 50
0.0
 51
22.02431283704207
  0
LINE
  5
3183426E
330
318324AF
100
AcDbEntity
  8
JISSEN
100
AcDbLine
 10
686.2499973000001
 20
435.5286602799488
 30
0.0
 11
686.2499973000001
 21
438.1286602799488
 31
0.0
  0
LINE
  5
3183426F
330
318324AF
100
AcDbEntity
  8
JISSEN
100
AcDbLine
 10
685.2481117904832
 20
435.5286602799488
 30
0.0
 11
686.0807988036529
 21
435.0479082087447
 31
0.0
  0
LINE
  5
31834270
330
318324AF
100
AcDbEntity
  8
JISSEN
100
AcDbLine
 10
686.2499973000001
 20
432.3162468151165
 30
0.0
 11
686.2499973000001
 21
434.1162468151166
 31
0.0
  0
ARC
  5
31834271
330
318324AF
100
AcDbEntity
  8
JISSEN
100
AcDbCircle
 10
686.4999973000001
 20
435.3204382449987
 30
0.0
 40
0.5
100
AcDbArc
 50
213.0287688719123
 51
284.8402148385182
  0
ARC
  5
31834272
330
318324AF
100
AcDbEntity
  8
JISSEN
100
AcDbCircle
 10
689.7238680229247
 20
436.2967163684017
 30
0.0
 40
5.0
100
AcDbArc
 50
284.6790800521974
 51
306.6829888003604
  0
LINE
  5
31834273
330
318324AF
100
AcDbEntity
  8
JISSEN
100
AcDbLine
 10
688.2499973000001
 20
428.3162468151165
 30
0.0
 11
688.2499973000001
 21
426.8162468151165
 31
0.0
  0
LINE
  5
31834274
330
318324AF
100
AcDbEntity
  8
JISSEN
100
AcDbLine
 10
689.4135116543258
 20
426.4284086970078
 30
0.0
 11
688.2499973000001
 21
426.8162468151165
 31
0.0
  0
ARC
  5
31834275
330
318324AF
100
AcDbEntity
  8
JISSEN
100
AcDbCircle
 10
692.6377458316684
 20
425.1731294867401
 30
0.0
 40
6.498907295833106
100
AcDbArc
 50
104.6790800521973
 51
140.8990391255044
  0
LINE
  5
31834276
330
318324AF
100
AcDbEntity
  8
JISSEN
100
AcDbLine
 10
686.9494587872329
 20
428.3162468151165
 30
0.0
 11
686.9494587872329
 21
432.3162468151165
 31
0.0
  0
ARC
  5
31834277
330
318324AF
100
AcDbEntity
  8
JISSEN
100
AcDbCircle
 10
683.7499973000001
 20
444.3162468151165
 30
0.0
 40
15.0
100
AcDbArc
 50
306.6829888003604
 51
0.0
  0
ARC
  5
31834278
330
318324AF
100
AcDbEntity
  8
JISSEN
100
AcDbCircle
 10
685.9612440835222
 20
444.9179045379612
 30
0.0
 40
10.80551655320168
100
AcDbArc
 50
271.5312836036175
 51
356.8080854238723
  0
ARC
  5
31834279
330
318324AF
100
AcDbEntity
  8
JISSEN
100
AcDbCircle
 10
683.8106922523242
 20
445.4701987525448
 30
0.0
 40
11.0
100
AcDbArc
 50
284.8402148385182
 51
353.978322807366
  0
ARC
  5
3183427A
330
318324AF
100
AcDbEntity
  8
JISSEN
100
AcDbCircle
 10
683.7499973000001
 20
444.3162468151165
 30
0.0
 40
17.0
100
AcDbArc
 50
289.7499227956426
 51
0.0
  0
LINE
  5
3183427B
330
318324AF
100
AcDbEntity
  8
JISSEN
100
AcDbLine
 10
682.3324914628657
 20
460.4368647345936
 30
0.0
 11
682.2188840220659
 21
458.8842297103292
 31
0.0
  0
LINE
  5
3183427C
330
318324AF
100
AcDbEntity
  8
JISSEN
100
AcDbLine
 10
683.6588484111455
 20
459.7028614922757
 30
0.0
 11
682.2787839085498
 21
459.7028614922757
 31
0.0
  0
ARC
  5
3183427D
330
318324AF
100
AcDbEntity
  8
JISSEN
100
AcDbCircle
 10
682.8178793294246
 20
460.4013485492357
 30
0.0
 40
0.4866855046380604
100
AcDbArc
 50
118.1707402297517
 51
175.8150838748825
  0
ARC
  5
3183427E
330
318324AF
100
AcDbEntity
  8
JISSEN
100
AcDbCircle
 10
682.5881147912967
 20
457.4303835564831
 30
0.0
 40
1.5
100
AcDbArc
 50
104.2500326978044
 51
180.0
  0
LINE
  5
3183427F
330
318324AF
100
AcDbEntity
  8
JISSEN
100
AcDbLine
 10
681.2131147912968
 20
452.2270050919566
 30
0.0
 11
681.2131147912968
 21
456.7270050919566
 31
0.0
  0
ARC
  5
31834280
330
318324AF
100
AcDbEntity
  8
JISSEN
100
AcDbCircle
 10
679.3600474641197
 20
476.9942132109689
 30
0.0
 40
24.90306398983089
100
AcDbArc
 50
273.1059406144217
 51
274.3288820286085
  0
ARC
  5
31834281
330
318324AF
100
AcDbEntity
  8
JISSEN
100
AcDbCircle
 10
681.2131147912968
 20
451.9270050919566
 30
0.0
 40
1.199999999999999
100
AcDbArc
 50
90.0
 51
111.4232972478952
  0
ARC
  5
31834282
330
318324AF
100
AcDbEntity
  8
JISSEN
100
AcDbCircle
 10
679.3600474641197
 20
427.7316173348701
 30
0.0
 40
24.90306398983085
100
AcDbArc
 50
85.73260694220001
 51
86.81694511180104
  0
LINE
  5
31834283
330
318324AF
100
AcDbEntity
  8
JISSEN
100
AcDbLine
 10
681.5881147912968
 20
452.2270050919566
 30
0.0
 11
681.2131147912968
 21
452.2270050919566
 31
0.0
  0
ARC
  5
31834284
330
318324AF
100
AcDbEntity
  8
JISSEN
100
AcDbCircle
 10
680.4848446434585
 20
462.1350744600729
 30
0.0
 40
10.00141397672717
100
AcDbArc
 50
274.328882028612
 51
277.3680971917952
  0
ARC
  5
31834285
330
318324AF
100
AcDbEntity
  8
JISSEN
100
AcDbCircle
 10
674.5881147912967
 20
457.4303835564831
 30
0.0
 40
1.5
100
AcDbArc
 50
0.0
 51
75.74996730219716
  0
LINE
  5
31834286
330
318324AF
100
AcDbEntity
  8
JISSEN
100
AcDbLine
 10
674.9573455605275
 20
458.8842297103292
 30
0.0
 11
674.8437381197277
 21
460.4368647345936
 31
0.0
  0
ARC
  5
31834287
330
318324AF
100
AcDbEntity
  8
JISSEN
100
AcDbCircle
 10
674.3583502531691
 20
460.4013485492357
 30
0.0
 40
0.4866855046380604
100
AcDbArc
 50
4.184916125117464
 51
61.82925977024825
  0
LINE
  5
31834288
330
318324AF
100
AcDbEntity
  8
JISSEN
100
AcDbLine
 10
674.8974456740436
 20
459.7028614922757
 30
0.0
 11
673.5173811714481
 21
459.7028614922757
 31
0.0
  0
LINE
  5
31834289
330
318324AF
100
AcDbEntity
  8
JISSEN
100
AcDbLine
 10
675.9631147912967
 20
452.2270050919566
 30
0.0
 11
675.9631147912967
 21
456.7270050919566
 31
0.0
  0
LINE
  5
3183428A
330
318324AF
100
AcDbEntity
  8
JISSEN
100
AcDbLine
 10
675.5881147912967
 20
452.2270050919566
 30
0.0
 11
675.9631147912967
 21
452.2270050919566
 31
0.0
  0
ARC
  5
3183428B
330
318324AF
100
AcDbEntity
  8
JISSEN
100
AcDbCircle
 10
676.6913849391348
 20
462.1350744600745
 30
0.0
 40
10.00141397672889
100
AcDbArc
 50
262.631902808207
 51
265.6711179713894
  0
ARC
  5
3183428C
330
318324AF
100
AcDbEntity
  8
JISSEN
100
AcDbCircle
 10
677.8161821184735
 20
476.9942132109674
 30
0.0
 40
24.90306398982923
100
AcDbArc
 50
265.6711179713905
 51
266.8940593855781
  0
ARC
  5
3183428D
330
318324AF
100
AcDbEntity
  8
JISSEN
100
AcDbCircle
 10
675.9631147912967
 20
451.9270050919566
 30
0.0
 40
1.199999999999999
100
AcDbArc
 50
68.57670275211505
 51
90.0
  0
ARC
  5
3183428E
330
318324AF
100
AcDbEntity
  8
JISSEN
100
AcDbCircle
 10
677.8161821184727
 20
427.7316173348716
 30
0.0
 40
24.90306398982923
100
AcDbArc
 50
93.1830548881973
 51
94.26739305779756
  0
LINE
  5
3183428F
330
318324AF
100
AcDbEntity
  8
JISSEN
100
AcDbLine
 10
682.3381147912968
 20
446.4960007534629
 30
0.0
 11
682.3381147912968
 21
447.3063650571918
 31
0.0
  0
ARC
  5
31834290
330
318324AF
100
AcDbEntity
  8
JISSEN
100
AcDbCircle
 10
682.2707021303881
 20
446.4960007534629
 30
0.0
 40
0.0674126609085984
100
AcDbArc
 50
280.3564926490368
 51
0.0
  0
LINE
  5
31834291
330
318324AF
100
AcDbEntity
  8
JISSEN
100
AcDbLine
 10
682.3381147912968
 20
448.6386061402241
 30
0.0
 11
682.3381147912968
 21
448.3302169086264
 31
0.0
  0
LINE
  5
31834292
330
318324AF
100
AcDbEntity
  8
JISSEN
100
AcDbLine
 10
682.338114791325
 20
448.3302169090203
 30
0.0
 11
682.338114791325
 21
448.3302169084784
 31
0.0
  0
LINE
  5
31834293
330
318324AF
100
AcDbEntity
  8
JISSEN
100
AcDbLine
 10
682.3381147911877
 20
447.3063650794156
 30
0.0
 11
682.3381147911877
 21
447.3063650030806
 31
0.0
  0
LINE
  5
31834294
330
318324AF
100
AcDbEntity
  8
JISSEN
100
AcDbLine
 10
682.3381147912968
 20
447.6129349784021
 30
0.0
 11
682.3381147912968
 21
447.3063650571918
 31
0.0
  0
LINE
  5
31834295
330
318324AF
100
AcDbEntity
  8
JISSEN
100
AcDbLine
 10
682.3381147912968
 20
447.6129349784021
 30
0.0
 11
682.3381147912968
 21
448.3302169086264
 31
0.0
  0
LINE
  5
31834296
330
318324AF
100
AcDbEntity
  8
JISSEN
100
AcDbLine
 10
683.0881147912967
 20
450.7270050919564
 30
0.0
 11
683.0881147912967
 21
446.9770050919565
 31
0.0
  0
ARC
  5
31834297
330
318324AF
100
AcDbEntity
  8
JISSEN
100
AcDbCircle
 10
679.3600474641197
 20
471.1272986915123
 30
0.0
 40
24.90306398983088
100
AcDbArc
 50
272.1375861418071
 51
274.3288820286085
  0
ARC
  5
31834298
330
318324AF
100
AcDbEntity
  8
JISSEN
100
AcDbCircle
 10
680.4848446434585
 20
456.2681599406161
 30
0.0
 40
10.00141397672716
100
AcDbArc
 50
274.3288820286104
 51
280.3564926490368
  0
LINE
  5
31834299
330
318324AF
100
AcDbEntity
  8
JISSEN
100
AcDbLine
 10
681.3150844830054
 20
443.2770050919566
 30
0.0
 11
680.7881147912967
 21
443.2770050919566
 31
0.0
  0
ARC
  5
3183429A
330
318324AF
100
AcDbEntity
  8
JISSEN
100
AcDbCircle
 10
680.7881147912967
 20
443.0770050919566
 30
0.0
 40
0.2
100
AcDbArc
 50
90.0
 51
180.0
  0
ARC
  5
3183429B
330
318324AF
100
AcDbEntity
  8
JISSEN
100
AcDbCircle
 10
679.1642049322063
 20
453.4895003489501
 30
0.0
 40
9.665948963623756
100
AcDbArc
 50
276.9756762829854
 51
278.562612181495
  0
ARC
  5
3183429C
330
318324AF
100
AcDbEntity
  8
JISSEN
100
AcDbCircle
 10
680.2881147912967
 20
442.0594718744929
 30
0.0
 40
0.3
100
AcDbArc
 50
279.5940682268376
 51
0.0
  0
ARC
  5
3183429D
330
318324AF
100
AcDbEntity
  8
JISSEN
100
AcDbCircle
 10
678.5881147912966
 20
439.4854407897132
 30
0.0
 40
5.0
100
AcDbArc
 50
59.99999999999944
 51
63.67919017839034
  0
ARC
  5
3183429E
330
318324AF
100
AcDbEntity
  8
JISSEN
100
AcDbCircle
 10
680.0185511436857
 20
447.8153594352636
 30
0.0
 40
3.927849752435323
100
AcDbArc
 50
278.5626121814974
 51
283.659105185298
  0
LINE
  5
3183429F
330
318324AF
100
AcDbEntity
  8
JISSEN
100
AcDbLine
 10
680.3381147912967
 20
443.9993219309221
 30
0.0
 11
680.3381147912967
 21
441.4869514293261
 31
0.0
  0
ARC
  5
318342A0
330
318324AF
100
AcDbEntity
  8
JISSEN
100
AcDbCircle
 10
681.3150844830054
 20
444.7770050919566
 30
0.0
 40
1.5
100
AcDbArc
 50
270.0
 51
345.8509954910671
  0
LINE
  5
318342A1
330
318324AF
100
AcDbEntity
  8
JISSEN
100
AcDbLine
 10
681.8500707994153
 20
443.3756523022373
 30
0.0
 11
681.0881147912964
 21
443.8155678086355
 31
0.0
  0
ARC
  5
318342A2
330
318324AF
100
AcDbEntity
  8
JISSEN
100
AcDbCircle
 10
680.7939837209861
 20
444.6245111622497
 30
0.0
 40
0.6441310703106079
100
AcDbArc
 50
283.6591051852963
 51
0.0
  0
LINE
  5
318342A3
330
318324AF
100
AcDbEntity
  8
JISSEN
100
AcDbLine
 10
681.4381147912968
 20
446.3122793889465
 30
0.0
 11
681.4381147912968
 21
444.6245111622497
 31
0.0
  0
ARC
  5
318342A4
330
318324AF
100
AcDbEntity
  8
JISSEN
100
AcDbCircle
 10
672.5881147912968
 20
446.9770050919565
 30
0.0
 40
10.5
100
AcDbArc
 50
345.8509954910671
 51
0.0
  0
LINE
  5
318342A5
330
318324AF
100
AcDbEntity
  8
JISSEN
100
AcDbLine
 10
674.8381147912968
 20
447.3063650571918
 30
0.0
 11
674.8381147912968
 21
446.4960007534629
 31
0.0
  0
ARC
  5
318342A6
330
318324AF
100
AcDbEntity
  8
JISSEN
100
AcDbCircle
 10
674.9055274522053
 20
446.4960007534629
 30
0.0
 40
0.0674126609086159
100
AcDbArc
 50
180.000000000013
 51
259.6435073509599
  0
ARC
  5
318342A7
330
318324AF
100
AcDbEntity
  8
JISSEN
100
AcDbCircle
 10
677.8161821184743
 20
471.1272986915107
 30
0.0
 40
24.90306398982921
100
AcDbArc
 50
265.6711179713886
 51
267.8624138581913
  0
ARC
  5
318342A8
330
318324AF
100
AcDbEntity
  8
JISSEN
100
AcDbCircle
 10
676.6913849391348
 20
456.2681599406179
 30
0.0
 40
10.0014139767289
100
AcDbArc
 50
259.6435073509648
 51
265.6711179713886
  0
LINE
  5
318342A9
330
318324AF
100
AcDbEntity
  8
JISSEN
100
AcDbLine
 10
674.8380396342587
 20
448.6420942581291
 30
0.0
 11
674.8380396342587
 21
448.3133604775597
 31
0.0
  0
LINE
  5
318342AA
330
318324AF
100
AcDbEntity
  8
JISSEN
100
AcDbLine
 10
674.8380396342587
 20
447.608930279346
 30
0.0
 11
674.8380396342587
 21
447.3049135284276
 31
0.0
  0
LINE
  5
318342AB
330
318324AF
100
AcDbEntity
  8
JISSEN
100
AcDbLine
 10
674.8381147912968
 20
448.3302169086264
 30
0.0
 11
674.8381147912968
 21
447.6129349784021
 31
0.0
  0
LINE
  5
318342AC
330
318324AF
100
AcDbEntity
  8
JISSEN
100
AcDbLine
 10
674.0881147912967
 20
450.7270050919564
 30
0.0
 11
674.0881147912967
 21
446.9770050919565
 31
0.0
  0
ARC
  5
318342AD
330
318324AF
100
AcDbEntity
  8
JISSEN
100
AcDbCircle
 10
676.3881147912967
 20
443.0770050919566
 30
0.0
 40
0.2
100
AcDbArc
 50
0.0
 51
90.0
  0
ARC
  5
318342AE
330
318324AF
100
AcDbEntity
  8
JISSEN
100
AcDbCircle
 10
678.0120246503874
 20
453.4895003489492
 30
0.0
 40
9.665948963622831
100
AcDbArc
 50
261.4373878185034
 51
263.024323717012
  0
ARC
  5
318342AF
330
318324AF
100
AcDbEntity
  8
JISSEN
100
AcDbCircle
 10
676.8881147912967
 20
442.0594718744929
 30
0.0
 40
0.3
100
AcDbArc
 50
180.0
 51
260.4059317731344
  0
LINE
  5
318342B0
330
318324AF
100
AcDbEntity
  8
JISSEN
100
AcDbLine
 10
675.8611450995882
 20
443.2770050919566
 30
0.0
 11
676.3881147912967
 21
443.2770050919566
 31
0.0
  0
LINE
  5
318342B1
330
318324AF
100
AcDbEntity
  8
JISSEN
100
AcDbLine
 10
675.3261587831777
 20
443.3756523022373
 30
0.0
 11
676.0881147912964
 21
443.8155678086355
 31
0.0
  0
ARC
  5
318342B2
330
318324AF
100
AcDbEntity
  8
JISSEN
100
AcDbCircle
 10
676.3822458616073
 20
444.6245111622497
 30
0.0
 40
0.6441310703106079
100
AcDbArc
 50
180.0
 51
256.3408948147034
  0
ARC
  5
318342B3
330
318324AF
100
AcDbEntity
  8
JISSEN
100
AcDbCircle
 10
678.5881147912966
 20
439.4854407897132
 30
0.0
 40
5.0
100
AcDbArc
 50
116.3208098216067
 51
120.0000000000005
  0
ARC
  5
318342B4
330
318324AF
100
AcDbEntity
  8
JISSEN
100
AcDbCircle
 10
677.1576784389075
 20
447.8153594352638
 30
0.0
 40
3.927849752435347
100
AcDbArc
 50
256.3408948147043
 51
261.4373878185042
  0
LINE
  5
318342B5
330
318324AF
100
AcDbEntity
  8
JISSEN
100
AcDbLine
 10
676.8381147912967
 20
441.4869514293261
 30
0.0
 11
676.8381147912967
 21
443.9993219309221
 31
0.0
  0
ARC
  5
318342B6
330
318324AF
100
AcDbEntity
  8
JISSEN
100
AcDbCircle
 10
675.8611450995882
 20
444.7770050919566
 30
0.0
 40
1.5
100
AcDbArc
 50
194.1490045089326
 51
270.0
  0
ARC
  5
318342B7
330
318324AF
100
AcDbEntity
  8
JISSEN
100
AcDbCircle
 10
684.5881147912968
 20
446.9770050919565
 30
0.0
 40
10.5
100
AcDbArc
 50
180.0
 51
194.1490045089326
  0
LINE
  5
318342B8
330
318324AF
100
AcDbEntity
  8
JISSEN
100
AcDbLine
 10
675.7381147912967
 20
444.6245111622497
 30
0.0
 11
675.7381147912967
 21
446.3122793889465
 31
0.0
  0
LINE
  5
318342B9
330
318324AF
100
AcDbEntity
  8
JISSEN
100
AcDbLine
 10
676.8381147912967
 20
443.9993219309221
 30
0.0
 11
680.3381147912967
 21
443.9993219309221
 31
0.0
  0
LINE
  5
318342BA
330
318324AF
100
AcDbEntity
  8
JISSEN
100
AcDbLine
 10
676.8381147912967
 20
443.2161507907582
 30
0.0
 11
680.3381147912967
 21
443.2161507907582
 31
0.0
  0
LINE
  5
318342BB
330
318324AF
100
AcDbEntity
  8
JISSEN
100
AcDbLine
 10
680.3381147912967
 20
441.4869514293261
 30
0.0
 11
676.8381147912967
 21
441.4869514293261
 31
0.0
  0
ARC
  5
318342BC
330
318324AF
100
AcDbEntity
  8
JISSEN
100
AcDbCircle
 10
681.5881147912968
 20
450.7270050919564
 30
0.0
 40
1.5
100
AcDbArc
 50
0.0
 51
90.0
  0
ARC
  5
318342BD
330
318324AF
100
AcDbEntity
  8
JISSEN
100
AcDbCircle
 10
675.5881147912967
 20
450.7270050919564
 30
0.0
 40
1.5
100
AcDbArc
 50
90.0
 51
180.0
  0
LINE
  5
318342BE
330
318324AF
100
AcDbEntity
  8
JISSEN
100
AcDbLine
 10
676.0881147912968
 20
457.4303835564831
 30
0.0
 11
677.0474763359795
 21
443.9993219309221
 31
0.0
  0
LINE
  5
318342BF
330
318324AF
100
AcDbEntity
  8
JISSEN
100
AcDbLine
 10
680.1287532466139
 20
443.9993219309221
 30
0.0
 11
681.0881147912968
 21
457.4303835564831
 31
0.0
  0
LINE
  5
318342C0
330
318324AF
100
AcDbEntity
  8
JISSEN
100
AcDbLine
 10
671.0881147912967
 20
451.9770050919564
 30
0.0
 11
671.0881147912967
 21
446.9770050919565
 31
0.0
  0
LINE
  5
318342C1
330
318324AF
100
AcDbEntity
  8
JISSEN
100
AcDbLine
 10
674.8381147912968
 20
452.0260431976332
 30
0.0
 11
674.8381147912968
 21
448.6386061402241
 31
0.0
  0
LINE
  5
318342C2
330
318324AF
100
AcDbEntity
  8
JISSEN
100
AcDbLine
 10
682.3381147912968
 20
448.6386061402241
 30
0.0
 11
682.3381147912968
 21
452.0260431976334
 31
0.0
  0
ARC
  5
318342C3
330
318324AF
100
AcDbEntity
  8
JISSEN
100
AcDbCircle
 10
686.7499973000001
 20
444.3162468151165
 30
0.0
 40
28.0
100
AcDbArc
 50
157.9756871629579
 51
180.0
  0
ARC
  5
318342C4
330
318324AF
100
AcDbEntity
  8
JISSEN
100
AcDbCircle
 10
686.7499973000001
 20
444.3162468151165
 30
0.0
 40
26.0
100
AcDbArc
 50
156.1811586065449
 51
180.0
  0
ARC
  5
318342C5
330
318324AF
100
AcDbEntity
  8
JISSEN
100
AcDbCircle
 10
684.5881147912968
 20
451.9770050919564
 30
0.0
 40
13.5
100
AcDbArc
 50
137.7945535962687
 51
180.0
  0
LINE
  5
318342C6
330
318324AF
100
AcDbEntity
  8
JISSEN
100
AcDbLine
 10
684.7499973000005
 20
435.5286602799488
 30
0.0
 11
680.4387413047592
 21
435.5286602799488
 31
0.0
  0
ARC
  5
318342C7
330
318324AF
100
AcDbEntity
  8
JISSEN
100
AcDbCircle
 10
678.7499973000001
 20
429.1286602799488
 30
0.0
 40
9.4
100
AcDbArc
 50
73.22525573590368
 51
84.14964969883433
  0
LINE
  5
318342C8
330
318324AF
100
AcDbEntity
  8
JISSEN
100
AcDbLine
 10
681.7499973000001
 20
431.0069724434696
 30
0.0
 11
681.7499973000001
 21
429.6069724434696
 31
0.0
  0
ARC
  5
318342C9
330
318324AF
100
AcDbEntity
  8
JISSEN
100
AcDbCircle
 10
681.4499973000001
 20
431.0069724434696
 30
0.0
 40
0.3
100
AcDbArc
 50
0.0
 51
90.0
  0
LINE
  5
318342CA
330
318324AF
100
AcDbEntity
  8
JISSEN
100
AcDbLine
 10
679.9999973000001
 20
431.3069724434696
 30
0.0
 11
679.9999973000001
 21
433.0894145430626
 31
0.0
  0
LINE
  5
318342CB
330
318324AF
100
AcDbEntity
  8
JISSEN
100
AcDbLine
 10
680.2499973000001
 20
434.1162468151166
 30
0.0
 11
680.2499973000001
 21
432.3162468151165
 31
0.0
  0
LINE
  5
318342CC
330
318324AF
100
AcDbEntity
  8
JISSEN
100
AcDbLine
 10
679.9999973000001
 20
431.3069724434696
 30
0.0
 11
681.4499973000001
 21
431.3069724434696
 31
0.0
  0
ARC
  5
318342CD
330
318324AF
100
AcDbEntity
  8
JISSEN
100
AcDbCircle
 10
686.9999973000001
 20
433.0894145430626
 30
0.0
 40
7.0
100
AcDbArc
 50
156.9632903547651
 51
180.0
  0
ARC
  5
318342CE
330
318324AF
100
AcDbEntity
  8
JISSEN
100
AcDbCircle
 10
678.7499973000001
 20
429.1286602799488
 30
0.0
 40
9.4
100
AcDbArc
 50
95.85035030116562
 51
106.7747442640962
  0
LINE
  5
318342CF
330
318324AF
100
AcDbEntity
  8
JISSEN
100
AcDbLine
 10
671.2499973000001
 20
435.5286602799488
 30
0.0
 11
671.2499973000001
 21
438.1286602799488
 31
0.0
  0
LINE
  5
318342D0
330
318324AF
100
AcDbEntity
  8
JISSEN
100
AcDbLine
 10
672.2518828095169
 20
435.5286602799488
 30
0.0
 11
671.4191957963463
 21
435.0479082087439
 31
0.0
  0
LINE
  5
318342D1
330
318324AF
100
AcDbEntity
  8
JISSEN
100
AcDbLine
 10
672.7499972999996
 20
435.5286602799488
 30
0.0
 11
671.2499973000001
 21
435.5286602799488
 31
0.0
  0
LINE
  5
318342D2
330
318324AF
100
AcDbEntity
  8
JISSEN
100
AcDbLine
 10
672.7499972999996
 20
435.5286602799488
 30
0.0
 11
677.0612532952408
 21
435.5286602799488
 31
0.0
  0
LINE
  5
318342D3
330
318324AF
100
AcDbEntity
  8
JISSEN
100
AcDbLine
 10
671.4999973000001
 20
435.0945589786293
 30
0.0
 11
677.2066653097136
 21
435.0945589786293
 31
0.0
  0
LINE
  5
318342D4
330
318324AF
100
AcDbEntity
  8
JISSEN
100
AcDbLine
 10
675.7499973000001
 20
429.6069724434696
 30
0.0
 11
675.7499973000001
 21
431.0069724434696
 31
0.0
  0
LINE
  5
318342D5
330
318324AF
100
AcDbEntity
  8
JISSEN
100
AcDbLine
 10
676.0499972999999
 20
431.3069724434696
 30
0.0
 11
677.4999973000001
 21
431.3069724434696
 31
0.0
  0
LINE
  5
318342D6
330
318324AF
100
AcDbEntity
  8
JISSEN
100
AcDbLine
 10
677.2499973000001
 20
432.3162468151165
 30
0.0
 11
677.2499973000001
 21
434.1162468151166
 31
0.0
  0
ARC
  5
318342D7
330
318324AF
100
AcDbEntity
  8
JISSEN
100
AcDbCircle
 10
676.0499972999999
 20
431.0069724434696
 30
0.0
 40
0.3
100
AcDbArc
 50
90.0
 51
180.0
  0
LINE
  5
318342D8
330
318324AF
100
AcDbEntity
  8
JISSEN
100
AcDbLine
 10
677.4999973000001
 20
431.3069724434696
 30
0.0
 11
677.4999973000001
 21
433.0894145430626
 31
0.0
  0
LINE
  5
318342D9
330
318324AF
100
AcDbEntity
  8
JISSEN
100
AcDbLine
 10
671.2499973000001
 20
432.3162468151165
 30
0.0
 11
671.2499973000001
 21
434.1162468151166
 31
0.0
  0
LINE
  5
318342DA
330
318324AF
100
AcDbEntity
  8
JISSEN
100
AcDbLine
 10
671.2499973000001
 20
434.1162468151166
 30
0.0
 11
677.2499973000001
 21
434.1162468151166
 31
0.0
  0
ARC
  5
318342DB
330
318324AF
100
AcDbEntity
  8
JISSEN
100
AcDbCircle
 10
670.9999973000001
 20
435.3204382449987
 30
0.0
 40
0.5
100
AcDbArc
 50
255.1597851614815
 51
326.9712311280871
  0
ARC
  5
318342DC
330
318324AF
100
AcDbEntity
  8
JISSEN
100
AcDbCircle
 10
670.4999973000001
 20
433.0894145430626
 30
0.0
 40
7.0
100
AcDbArc
 50
0.0
 51
23.03670964523477
  0
LINE
  5
318342DD
330
318324AF
100
AcDbEntity
  8
JISSEN
100
AcDbLine
 10
671.2499973000001
 20
435.8286602799489
 30
0.0
 11
678.7499973000001
 21
435.8286602799489
 31
0.0
  0
LINE
  5
318342DE
330
318324AF
100
AcDbEntity
  8
JISSEN
100
AcDbLine
 10
673.631677895132
 20
439.089895954867
 30
0.0
 11
683.5445516874616
 21
439.089895954867
 31
0.0
  0
LINE
  5
318342DF
330
318324AF
100
AcDbEntity
  8
JISSEN
100
AcDbLine
 10
677.7918502441021
 20
438.47970055466
 30
0.0
 11
679.7081443558981
 21
438.4797005546602
 31
0.0
  0
LINE
  5
318342E0
330
318324AF
100
AcDbEntity
  8
JISSEN
100
AcDbLine
 10
681.7499973000001
 20
428.3162468151165
 30
0.0
 11
681.7499973000001
 21
426.8162468151165
 31
0.0
  0
LINE
  5
318342E1
330
318324AF
100
AcDbEntity
  8
JISSEN
100
AcDbLine
 10
675.7499973000001
 20
426.8162468151165
 30
0.0
 11
675.7499973000001
 21
428.3162468151165
 31
0.0
  0
LINE
  5
318342E2
330
318324AF
100
AcDbEntity
  8
JISSEN
100
AcDbLine
 10
681.4499973000001
 20
429.3069724434697
 30
0.0
 11
676.0499972999999
 21
429.3069724434697
 31
0.0
  0
LINE
  5
318342E3
330
318324AF
100
AcDbEntity
  8
JISSEN
100
AcDbLine
 10
674.7499973000001
 20
432.3162468151165
 30
0.0
 11
674.7499973000001
 21
428.3162468151165
 31
0.0
  0
ARC
  5
318342E4
330
318324AF
100
AcDbEntity
  8
JISSEN
100
AcDbCircle
 10
676.0499972999999
 20
429.6069724434696
 30
0.0
 40
0.3
100
AcDbArc
 50
180.0
 51
270.0
  0
LINE
  5
318342E5
330
318324AF
100
AcDbEntity
  8
JISSEN
100
AcDbLine
 10
682.7499973000001
 20
432.3162468151165
 30
0.0
 11
682.7499973000001
 21
428.3162468151165
 31
0.0
  0
ARC
  5
318342E6
330
318324AF
100
AcDbEntity
  8
JISSEN
100
AcDbCircle
 10
681.4499973000001
 20
429.6069724434696
 30
0.0
 40
0.3
100
AcDbArc
 50
270.0
 51
0.0
  0
ARC
  5
318342E7
330
318324AF
100
AcDbEntity
  8
JISSEN
100
AcDbCircle
 10
667.7761265770755
 20
436.2967163684017
 30
0.0
 40
5.0
100
AcDbArc
 50
233.3170111996394
 51
255.3209199478025
  0
LINE
  5
318342E8
330
318324AF
100
AcDbEntity
  8
JISSEN
100
AcDbLine
 10
668.0864829456743
 20
426.4284086970078
 30
0.0
 11
669.2499973000001
 21
426.8162468151165
 31
0.0
  0
LINE
  5
318342E9
330
318324AF
100
AcDbEntity
  8
JISSEN
100
AcDbLine
 10
669.2499973000001
 20
428.3162468151165
 30
0.0
 11
669.2499973000001
 21
426.8162468151165
 31
0.0
  0
ARC
  5
318342EA
330
318324AF
100
AcDbEntity
  8
JISSEN
100
AcDbCircle
 10
664.8622487683317
 20
425.1731294867401
 30
0.0
 40
6.498907295833106
100
AcDbArc
 50
39.10096087449549
 51
75.32091994780263
  0
LINE
  5
318342EB
330
318324AF
100
AcDbEntity
  8
JISSEN
100
AcDbLine
 10
670.5505358127672
 20
428.3162468151165
 30
0.0
 11
670.5505358127672
 21
432.3162468151165
 31
0.0
  0
LINE
  5
318342EC
330
318324AF
100
AcDbEntity
  8
JISSEN
100
AcDbLine
 10
668.0054346534619
 20
428.3162468151165
 30
0.0
 11
675.7499973000001
 21
428.3162468151165
 31
0.0
  0
LINE
  5
318342ED
330
318324AF
100
AcDbEntity
  8
JISSEN
100
AcDbLine
 10
669.2499973000001
 20
426.8162468151165
 30
0.0
 11
678.7499973000001
 21
426.8162468151165
 31
0.0
  0
LINE
  5
318342EE
330
318324AF
100
AcDbEntity
  8
JISSEN
100
AcDbLine
 10
668.0864829456743
 20
426.4284086970078
 30
0.0
 11
678.7499973000001
 21
426.4284086970078
 31
0.0
  0
LINE
  5
318342EF
330
318324AF
100
AcDbEntity
  8
JISSEN
100
AcDbLine
 10
670.5505358127672
 20
432.3162468151165
 30
0.0
 11
677.2499973000001
 21
432.3162468151165
 31
0.0
  0
ARC
  5
318342F0
330
318324AF
100
AcDbEntity
  8
JISSEN
100
AcDbCircle
 10
673.6893023476758
 20
445.4701987525448
 30
0.0
 40
11.0
100
AcDbArc
 50
186.0216771926339
 51
255.1597851614815
  0
ARC
  5
318342F1
330
318324AF
100
AcDbEntity
  8
JISSEN
100
AcDbCircle
 10
671.5387505164777
 20
444.9179045379612
 30
0.0
 40
10.80551655320168
100
AcDbArc
 50
183.1919145761243
 51
268.4687163963805
  0
ARC
  5
318342F2
330
318324AF
100
AcDbEntity
  8
JISSEN
100
AcDbCircle
 10
673.7499973000001
 20
444.3162468151165
 30
0.0
 40
15.0
100
AcDbArc
 50
180.0
 51
233.3170111996394
  0
LINE
  5
318342F3
330
318324AF
100
AcDbEntity
  8
JISSEN
100
AcDbLine
 10
680.5881147912968
 20
443.0770050919566
 30
0.0
 11
680.5881147912968
 21
440.2636678853387
 31
0.0
  0
LINE
  5
318342F4
330
318324AF
100
AcDbEntity
  8
JISSEN
100
AcDbLine
 10
676.5881147912968
 20
443.0770050919566
 30
0.0
 11
676.5881147912968
 21
440.2636678853387
 31
0.0
  0
ARC
  5
318342F5
330
318324AF
100
AcDbEntity
  8
JISSEN
100
AcDbCircle
 10
684.5881147912968
 20
446.9770050919565
 30
0.0
 40
13.5
100
AcDbArc
 50
180.0
 51
220.961788552354
  0
LINE
  5
318342F6
330
318324AF
100
AcDbEntity
  8
JISSEN
100
AcDbLine
 10
686.2499973000001
 20
438.1286602799488
 30
0.0
 11
671.2499973000001
 21
438.1286602799488
 31
0.0
  0
LINE
  5
318342F7
330
318324AF
100
AcDbEntity
  8
JISSEN
100
AcDbLine
 10
686.9494587872329
 20
432.3162468151165
 30
0.0
 11
680.2499973000001
 21
432.3162468151165
 31
0.0
  0
LINE
  5
318342F8
330
318324AF
100
AcDbEntity
  8
JISSEN
100
AcDbLine
 10
685.9999973000001
 20
435.0945589786293
 30
0.0
 11
680.2933292902864
 21
435.0945589786293
 31
0.0
  0
LINE
  5
318342F9
330
318324AF
100
AcDbEntity
  8
JISSEN
100
AcDbLine
 10
689.4135116543258
 20
426.4284086970078
 30
0.0
 11
678.7499973000001
 21
426.4284086970078
 31
0.0
  0
LINE
  5
318342FA
330
318324AF
100
AcDbEntity
  8
JISSEN
100
AcDbLine
 10
686.2499973000001
 20
434.1162468151166
 30
0.0
 11
680.2499973000001
 21
434.1162468151166
 31
0.0
  0
LINE
  5
318342FB
330
318324AF
100
AcDbEntity
  8
JISSEN
100
AcDbLine
 10
688.2499973000001
 20
426.8162468151165
 30
0.0
 11
678.7499973000001
 21
426.8162468151165
 31
0.0
  0
LINE
  5
318342FC
330
318324AF
100
AcDbEntity
  8
JISSEN
100
AcDbLine
 10
686.2499973000001
 20
435.8286602799489
 30
0.0
 11
678.7499973000001
 21
435.8286602799489
 31
0.0
  0
TEXT
  5
318342FD
330
318324AF
100
AcDbEntity
  8
JISSEN
100
AcDbText
 10
683.2322129233348
 20
428.8575782814882
 30
0.0
 40
3.0
  1
D
  7
K
 72
     4
 11
684.8036414947634
 21
430.3575782814881
 31
0.0
100
AcDbText
  0
LINE
  5
318342FE
330
318324AF
100
AcDbEntity
  8
JISSEN
100
AcDbLine
 10
689.4945599465382
 20
428.3162468151165
 30
0.0
 11
681.7499973000001
 21
428.3162468151165
 31
0.0
  0
LINE
  5
318342FF
330
318324AF
100
AcDbEntity
  8
JISSEN
100
AcDbLine
 10
684.7499973000005
 20
435.5286602799488
 30
0.0
 11
686.2499973000001
 21
435.5286602799488
 31
0.0
  0
ARC
  5
31834300
330
318324AF
100
AcDbEntity
  8
JISSEN
100
AcDbCircle
 10
672.5881147912968
 20
451.9770050919564
 30
0.0
 40
13.5
100
AcDbArc
 50
0.0
 51
42.20544640373407
  0
ARC
  5
31834301
330
318324AF
100
AcDbEntity
  8
JISSEN
100
AcDbCircle
 10
672.5881147912968
 20
446.9770050919565
 30
0.0
 40
13.5
100
AcDbArc
 50
319.0382114476459
 51
0.0
  0
ARC
  5
31834302
330
318324AF
100
AcDbEntity
  8
JISSEN
100
AcDbCircle
 10
686.7499973000001
 20
444.3162468151165
 30
0.0
 40
24.0
100
AcDbArc
 50
122.181883920405
 51
180.0
  0
ARC
  5
31834303
330
318324AF
100
AcDbEntity
  8
JISSEN
100
AcDbCircle
 10
670.7499973000001
 20
444.3162468151165
 30
0.0
 40
30.0
100
AcDbArc
 50
0.0
 51
40.21909874455507
  0
ARC
  5
31834304
330
318324AF
100
AcDbEntity
  8
JISSEN
100
AcDbCircle
 10
670.7499973000001
 20
444.3162468151165
 30
0.0
 40
24.0
100
AcDbArc
 50
0.0
 51
57.81811607959493
  0
LINE
  5
31834305
330
318324AF
100
AcDbEntity
  8
JISSEN
100
AcDbLine
 10
674.5881147912967
 20
460.8303835564831
 30
0.0
 11
674.5881147912967
 21
463.2054524888742
 31
0.0
  0
LINE
  5
31834306
330
318324AF
100
AcDbEntity
  8
JISSEN
100
AcDbLine
 10
682.5881147912967
 20
463.2054524888742
 30
0.0
 11
682.5881147912967
 21
460.8303835564831
 31
0.0
  0
ARC
  5
31834307
330
318324AF
100
AcDbEntity
  8
JISSEN
100
AcDbCircle
 10
686.7499973000001
 20
444.3162468151165
 30
0.0
 40
30.0
100
AcDbArc
 50
139.7809012554449
 51
180.0
  0
ARC
  5
31834308
330
318324AF
100
AcDbEntity
  8
JISSEN
100
AcDbCircle
 10
673.7499973000001
 20
444.3162468151165
 30
0.0
 40
17.0
100
AcDbArc
 50
180.0
 51
250.2500772043573
  0
LINE
  5
31834309
330
318324AF
100
AcDbEntity
  8
JISSEN
100
AcDbLine
 10
687.2499973000001
 20
412.3162468151165
 30
0.0
 11
689.0280515279123
 21
414.0943010430287
 31
0.0
  0
LINE
  5
3183430A
330
318324AF
100
AcDbEntity
  8
JISSEN
100
AcDbLine
 10
670.2499973000001
 20
412.3162468151165
 30
0.0
 11
668.4719430720877
 21
414.0943010430287
 31
0.0
  0
LINE
  5
3183430B
330
318324AF
100
AcDbEntity
  8
JISSEN
100
AcDbLine
 10
670.2499973000001
 20
412.3162468151165
 30
0.0
 11
678.7499973000001
 21
412.3162468151165
 31
0.0
  0
LINE
  5
3183430C
330
318324AF
100
AcDbEntity
  8
JISSEN
100
AcDbLine
 10
687.2499973000001
 20
412.3162468151165
 30
0.0
 11
678.7499973000001
 21
412.3162468151165
 31
0.0
  0
LINE
  5
3183430D
330
318324AF
100
AcDbEntity
  8
JISSEN
100
AcDbLine
 10
668.4719430720877
 20
414.0943010430287
 30
0.0
 11
689.0280515279123
 21
414.0943010430287
 31
0.0
  0
LINE
  5
3183430E
330
318324AF
100
AcDbEntity
  8
JISSEN
100
AcDbLine
 10
668.0864829456743
 20
426.4284086970077
 30
0.0
 11
668.4719430720877
 21
414.0943010430287
 31
0.0
  0
LINE
  5
3183430F
330
318324AF
100
AcDbEntity
  8
SAISEN
100
AcDbLine
 10
669.6714288767257
 20
412.8948152383909
 30
0.0
 11
669.23650297174
 21
426.8117487056964
 31
0.0
  0
LINE
  5
31834310
330
318324AF
100
AcDbEntity
  8
SAISEN
100
AcDbLine
 10
687.8285657232745
 20
412.8948152383909
 30
0.0
 11
688.2634916282602
 21
426.8117487056964
 31
0.0
  0
LINE
  5
31834311
330
318324AF
100
AcDbEntity
  8
JISSEN
100
AcDbLine
 10
689.4135116543258
 20
426.4284086970077
 30
0.0
 11
689.0280515279123
 21
414.0943010430287
 31
0.0
  0
LWPOLYLINE
  5
31834312
330
318324AF
100
AcDbEntity
  8
NITEN
100
AcDbPolyline
 90
       15
 70
     1
 43
0.0
 10
692.7499973000001
 20
422.7056979093926
 42
0.4142135623730927
 10
691.2499973000001
 20
424.2056979093927
 10
668.1559461290036
 20
424.2056979093927
 10
666.2499973000001
 20
424.2056979093927
 42
0.4142135623730925
 10
664.7499973000001
 20
422.7056979093926
 10
664.7499973000001
 20
411.6596818831748
 42
-0.4142135623730943
 10
659.7499973000001
 20
406.6596818831746
 42
0.4142135623730951
 10
657.7499973000001
 20
404.6596818831748
 10
657.7499973000001
 20
384.2056979093927
 42
0.4142135623730949
 10
659.7499973000001
 20
382.2056979093927
 10
697.7499973000001
 20
382.2056979093927
 42
0.4142135623730951
 10
699.7499973000001
 20
384.2056979093927
 10
699.7499973000001
 20
404.6596818831748
 42
0.4142135623730951
 10
697.7499973000001
 20
406.6596818831746
 42
-0.4142135623730961
 10
692.7499973000001
 20
411.6596818831748
  0
ARC
  5
31834313
330
318324AF
100
AcDbEntity
  8
JISSEN
100
AcDbCircle
 10
695.3810313316559
 20
476.330039063181
 30
0.0
 40
1.244540968917422
100
AcDbArc
 50
355.3726464066901
 51
52.41289174619106
  0
ARC
  5
31834314
330
318324AF
100
AcDbEntity
  8
JISSEN
100
AcDbCircle
 10
696.1563080095065
 20
476.0162468151166
 30
0.0
 40
1.3
100
AcDbArc
 50
1.10570428952415
 51
90.0
  0
LINE
  5
31834315
330
318324AF
100
AcDbEntity
  8
JISSEN
100
AcDbLine
 10
696.5874496661024
 20
474.3162468151165
 30
0.0
 11
697.7499973000001
 21
474.3162468151165
 31
0.0
  0
ARC
  5
31834316
330
318324AF
100
AcDbEntity
  8
JISSEN
100
AcDbCircle
 10
696.5874496661024
 20
474.4162468151174
 30
0.0
 40
0.1
100
AcDbArc
 50
180.8961572775652
 51
270.0
  0
LINE
  5
31834317
330
318324AF
100
AcDbEntity
  8
JISSEN
100
AcDbLine
 10
696.4871206676499
 20
474.4364975419339
 30
0.0
 11
696.487461897733
 21
474.4146827893785
 31
0.0
  0
ARC
  5
31834318
330
318324AF
100
AcDbEntity
  8
JISSEN
100
AcDbCircle
 10
696.3037084177138
 20
474.5162468151163
 30
0.0
 40
0.2
100
AcDbArc
 50
185.1572134748261
 51
356.0823036285518
  0
LINE
  5
31834319
330
318324AF
100
AcDbEntity
  8
JISSEN
100
AcDbLine
 10
696.104518057267
 20
474.4982690425872
 30
0.0
 11
695.9569674377678
 21
476.1331023365564
 31
0.0
  0
LINE
  5
3183431A
330
318324AF
100
AcDbEntity
  8
JISSEN
100
AcDbLine
 10
696.6215156907536
 20
476.2296359848029
 30
0.0
 11
696.5032410625237
 21
474.5025821286903
 31
0.0
  0
ARC
  5
3183431B
330
318324AF
100
AcDbEntity
  8
JISSEN
100
AcDbCircle
 10
697.2499973000001
 20
476.8219020819771
 30
0.0
 40
0.5
100
AcDbArc
 50
0.0
 51
83.00000000000045
  0
ARC
  5
3183431C
330
318324AF
100
AcDbEntity
  8
JISSEN
100
AcDbCircle
 10
697.5874496661024
 20
474.4162468151129
 30
0.0
 40
0.1
100
AcDbArc
 50
181.1057042895209
 51
270.0
  0
LINE
  5
3183431D
330
318324AF
100
AcDbEntity
  8
JISSEN
100
AcDbLine
 10
697.4874682865126
 20
474.414317116854
 30
0.0
 11
697.4560659441706
 21
476.0413328924842
 31
0.0
  0
LINE
  5
3183431E
330
318324AF
100
AcDbEntity
  8
JISSEN
100
AcDbLine
 10
697.7499973000001
 20
474.3162468151165
 30
0.0
 11
697.7499973000001
 21
476.8219020819771
 31
0.0
  0
ARC
  5
3183431F
330
318324AF
100
AcDbEntity
  8
JISSEN
100
AcDbCircle
 10
694.7708894538274
 20
475.9162468151164
 30
0.0
 40
0.4
100
AcDbArc
 50
5.314389558654911
 51
89.99999999999836
  0
ARC
  5
31834320
330
318324AF
100
AcDbEntity
  8
JISSEN
100
AcDbCircle
 10
691.9895790385623
 20
476.0162468151166
 30
0.0
 40
1.3
100
AcDbArc
 50
8.743537314776144
 51
90.0
  0
ARC
  5
31834321
330
318324AF
100
AcDbEntity
  8
JISSEN
100
AcDbCircle
 10
693.2237107655326
 20
474.6162468151166
 30
0.0
 40
0.3
100
AcDbArc
 50
192.7776819355621
 51
270.0
  0
ARC
  5
31834322
330
318324AF
100
AcDbEntity
  8
JISSEN
100
AcDbCircle
 10
692.0513935063142
 20
475.7162468151165
 30
0.0
 40
0.6
100
AcDbArc
 50
12.77768193556227
 51
90.0
  0
LINE
  5
31834323
330
318324AF
100
AcDbEntity
  8
JISSEN
100
AcDbLine
 10
692.6365348535441
 20
475.8489479973345
 30
0.0
 11
692.9311400919175
 21
474.5498962240078
 31
0.0
  0
LINE
  5
31834324
330
318324AF
100
AcDbEntity
  8
JISSEN
100
AcDbLine
 10
694.7708894538274
 20
476.3162468151165
 30
0.0
 11
694.3460685861874
 21
476.3162468151165
 31
0.0
  0
LINE
  5
31834325
330
318324AF
100
AcDbEntity
  8
JISSEN
100
AcDbLine
 10
694.662230094864
 20
477.3162468151165
 30
0.0
 11
693.9054418662158
 21
477.3162468151165
 31
0.0
  0
ARC
  5
31834326
330
318324AF
100
AcDbEntity
  8
JISSEN
100
AcDbCircle
 10
692.9991898039706
 20
476.3198519882852
 30
0.0
 40
1.346883607168649
100
AcDbArc
 50
356.1593792128711
 51
47.71250584115743
  0
ARC
  5
31834327
330
318324AF
100
AcDbEntity
  8
JISSEN
100
AcDbCircle
 10
693.8237107655325
 20
474.6162468151166
 30
0.0
 40
0.3
100
AcDbArc
 50
188.743537314776
 51
352.352091957097
  0
ARC
  5
31834328
330
318324AF
100
AcDbEntity
  8
JISSEN
100
AcDbCircle
 10
693.8237107655325
 20
474.6162468151166
 30
0.0
 40
0.3
100
AcDbArc
 50
352.352091957097
 51
353.9043985400158
  0
LINE
  5
31834329
330
318324AF
100
AcDbEntity
  8
JISSEN
100
AcDbLine
 10
693.2237107655326
 20
474.3162468151165
 30
0.0
 11
693.8237107655325
 21
474.3162468151165
 31
0.0
  0
LINE
  5
3183432A
330
318324AF
100
AcDbEntity
  8
JISSEN
100
AcDbLine
 10
693.527197166645
 20
474.570643244261
 30
0.0
 11
693.2744713004082
 21
476.2138622888237
 31
0.0
  0
LINE
  5
3183432B
330
318324AF
100
AcDbEntity
  8
JISSEN
100
AcDbLine
 10
694.3430486224388
 20
476.229635984802
 30
0.0
 11
694.1210421476837
 21
474.5763212695584
 31
0.0
  0
ARC
  5
3183432C
330
318324AF
100
AcDbEntity
  8
JISSEN
100
AcDbCircle
 10
695.5037084177138
 20
474.5162468151163
 30
0.0
 40
0.2
100
AcDbArc
 50
185.3143895586549
 51
270.0
  0
LINE
  5
3183432D
330
318324AF
100
AcDbEntity
  8
JISSEN
100
AcDbLine
 10
695.1691700411694
 20
475.9532950775108
 30
0.0
 11
695.3045681240427
 21
474.4977226839193
 31
0.0
  0
ARC
  5
3183432E
330
318324AF
100
AcDbEntity
  8
JISSEN
100
AcDbCircle
 10
694.662230094864
 20
476.0162468151166
 30
0.0
 40
1.3
100
AcDbArc
 50
5.157213474826274
 51
90.0
  0
LINE
  5
3183432F
330
318324AF
100
AcDbEntity
  8
JISSEN
100
AcDbLine
 10
695.5037084177138
 20
474.3162468151165
 30
0.0
 11
696.3037084177138
 21
474.3162468151165
 31
0.0
  0
ARC
  5
31834330
330
318324AF
100
AcDbEntity
  8
JISSEN
100
AcDbCircle
 10
689.9164644511651
 20
474.7162468151163
 30
0.0
 40
0.4
100
AcDbArc
 50
198.0499666205856
 51
270.0
  0
LINE
  5
31834331
330
318324AF
100
AcDbEntity
  8
JISSEN
100
AcDbLine
 10
689.9242171595438
 20
474.637875505214
 30
0.0
 11
689.597926908409
 21
476.2709535722988
 31
0.0
  0
LINE
  5
31834332
330
318324AF
100
AcDbEntity
  8
JISSEN
100
AcDbLine
 10
689.1542737114058
 20
475.7641238359756
 30
0.0
 11
689.5361497845633
 21
474.5923083046868
 31
0.0
  0
ARC
  5
31834333
330
318324AF
100
AcDbEntity
  8
JISSEN
100
AcDbCircle
 10
682.9811835474827
 20
477.6835120536226
 30
0.0
 40
8.151460220977577
100
AcDbArc
 50
349.7258822716169
 51
357.4176560501139
  0
LINE
  5
31834334
330
318324AF
100
AcDbEntity
  8
JISSEN
100
AcDbLine
 10
689.9164644511651
 20
474.3162468151165
 30
0.0
 11
690.3164644511649
 21
474.3162468151165
 31
0.0
  0
ARC
  5
31834335
330
318324AF
100
AcDbEntity
  8
JISSEN
100
AcDbCircle
 10
690.3164644511649
 20
474.7162468151163
 30
0.0
 40
0.4
100
AcDbArc
 50
191.2989559157551
 51
349.5637783413021
  0
LINE
  5
31834336
330
318324AF
100
AcDbEntity
  8
JISSEN
100
AcDbLine
 10
690.7098473121172
 20
474.6437904509423
 30
0.0
 11
691.0019408752352
 21
476.2296359848038
 31
0.0
  0
LINE
  5
31834337
330
318324AF
100
AcDbEntity
  8
JISSEN
100
AcDbLine
 10
688.3936443782021
 20
476.3162468151165
 30
0.0
 11
686.8444185330417
 21
476.3162468151165
 31
0.0
  0
ARC
  5
31834338
330
318324AF
100
AcDbEntity
  8
JISSEN
100
AcDbCircle
 10
688.1093295971091
 20
476.0162468151166
 30
0.0
 40
1.3
100
AcDbArc
 50
90.0
 51
168.2422428527315
  0
ARC
  5
31834339
330
318324AF
100
AcDbEntity
  8
JISSEN
100
AcDbCircle
 10
686.0209825149357
 20
474.8162468151165
 30
0.0
 40
0.5
100
AcDbArc
 50
192.320832185877
 51
348.2422428527316
  0
LINE
  5
3183433A
330
318324AF
100
AcDbEntity
  8
JISSEN
100
AcDbLine
 10
685.8209825149359
 20
474.3162468151165
 30
0.0
 11
686.0209825149357
 21
474.3162468151165
 31
0.0
  0
ARC
  5
3183433B
330
318324AF
100
AcDbEntity
  8
JISSEN
100
AcDbCircle
 10
685.8209825149359
 20
474.8162468151165
 30
0.0
 40
0.5
100
AcDbArc
 50
200.031726525283
 51
270.0
  0
LINE
  5
3183433C
330
318324AF
100
AcDbEntity
  8
JISSEN
100
AcDbLine
 10
637.7499973000001
 20
347.205697909392
 30
0.0
 11
719.7499972999998
 21
347.205697909392
 31
0.0
  0
LINE
  5
3183433D
330
318324AF
100
AcDbEntity
  8
JISSEN
100
AcDbLine
 10
719.7499972999998
 20
316.205697909392
 30
0.0
 11
637.7499973000001
 21
316.2056979093921
 31
0.0
  0
ARC
  5
3183433E
330
318324AF
100
AcDbEntity
  8
TENSEN
100
AcDbCircle
 10
670.2499973000001
 20
268.0172329907554
 30
0.0
 40
8.7125
100
AcDbArc
 50
192.6803834918209
 51
347.3196165081788
  0
LINE
  5
3183433F
330
318324AF
100
AcDbEntity
  8
JISSEN
100
AcDbLine
 10
826.7499972999997
 20
513.2056979093921
 30
0.0
 11
826.7499972999997
 21
511.205697909392
 31
0.0
  0
LINE
  5
31834340
330
318324AF
100
AcDbEntity
  8
JISSEN
100
AcDbLine
 10
823.7499972999996
 20
516.2056979093921
 30
0.0
 11
817.7499972999997
 21
516.2056979093921
 31
0.0
  0
ARC
  5
31834341
330
318324AF
100
AcDbEntity
  8
JISSEN
100
AcDbCircle
 10
823.7499972999996
 20
513.2056979093921
 30
0.0
 40
3.0
100
AcDbArc
 50
0.0
 51
90.0
  0
LINE
  5
31834342
330
318324AF
100
AcDbEntity
  8
JISSEN
100
AcDbLine
 10
814.7499972999996
 20
511.205697909392
 30
0.0
 11
814.7499972999996
 21
513.2056979093921
 31
0.0
  0
ARC
  5
31834343
330
318324AF
100
AcDbEntity
  8
JISSEN
100
AcDbCircle
 10
817.7499972999997
 20
513.2056979093921
 30
0.0
 40
3.0
100
AcDbArc
 50
90.0
 51
180.0
  0
LINE
  5
31834344
330
318324AF
100
AcDbEntity
  8
TENSEN
100
AcDbLine
 10
695.7499972999998
 20
347.205697909392
 30
0.0
 11
695.7499972999998
 21
382.205697909392
 31
0.0
  0
INSERT
  5
31834345
330
318324AF
100
AcDbEntity
  8
JISSEN
100
AcDbBlockReference
  2
FB16
 10
708.2499972999998
 20
331.7056979093921
 30
0.0
 50
59.99999999999944
  0
ARC
  5
31834346
330
318324AF
100
AcDbEntity
  8
TENSEN
100
AcDbCircle
 10
687.2499973000001
 20
268.017232990755
 30
0.0
 40
8.712499999999806
100
AcDbArc
 50
192.6803834918178
 51
347.3196165081819
  0
ARC
  5
31834347
330
318324AF
100
AcDbEntity
  8
TENSEN
100
AcDbCircle
 10
687.2499973000001
 20
264.1922329907553
 30
0.0
 40
8.712500000000034
100
AcDbArc
 50
12.68038349182109
 51
167.3196165081789
  0
LINE
  5
31834348
330
318324AF
100
AcDbEntity
  8
TENSEN
100
AcDbLine
 10
695.7499972999998
 20
316.205697909392
 30
0.0
 11
695.7499972999999
 21
266.1047329907553
 31
0.0
  0
LINE
  5
31834349
330
318324AF
100
AcDbEntity
  8
JISSEN
100
AcDbLine
 10
719.7499972999998
 20
347.205697909392
 30
0.0
 11
719.7499972999998
 21
316.205697909392
 31
0.0
  0
LINE
  5
3183434A
330
318324AF
100
AcDbEntity
  8
JISSEN
100
AcDbLine
 10
696.7499972999997
 20
347.205697909392
 30
0.0
 11
696.7499972999997
 21
316.205697909392
 31
0.0
  0
LINE
  5
3183434B
330
318324AF
100
AcDbEntity
  8
JISSEN
100
AcDbLine
 10
789.8824838405195
 20
491.2056979093921
 30
0.0
 11
706.7440450772226
 21
347.205697909392
 31
0.0
  0
LINE
  5
3183434C
330
318324AF
100
AcDbEntity
  8
JISSEN
100
AcDbLine
 10
818.7499972999997
 20
491.2056979093921
 30
0.0
 11
719.7499972999998
 21
319.7326679600546
 31
0.0
  0
LINE
  5
3183434D
330
318324AF
100
AcDbEntity
  8
JISSEN
100
AcDbLine
 10
542.7499973000001
 20
511.205697909392
 30
0.0
 11
542.7499973000001
 21
513.2056979093921
 31
0.0
  0
ARC
  5
3183434E
330
318324AF
100
AcDbEntity
  8
JISSEN
100
AcDbCircle
 10
539.7499973000001
 20
513.2056979093921
 30
0.0
 40
3.0
100
AcDbArc
 50
0.0
 51
90.0
  0
ARC
  5
3183434F
330
318324AF
100
AcDbEntity
  8
JISSEN
100
AcDbCircle
 10
533.7499973000001
 20
513.2056979093921
 30
0.0
 40
3.0
100
AcDbArc
 50
90.0
 51
180.0
  0
LINE
  5
31834350
330
318324AF
100
AcDbEntity
  8
JISSEN
100
AcDbLine
 10
530.7499973000001
 20
513.2056979093921
 30
0.0
 11
530.7499973000001
 21
511.205697909392
 31
0.0
  0
LINE
  5
31834351
330
318324AF
100
AcDbEntity
  8
JISSEN
100
AcDbLine
 10
533.7499973000001
 20
516.2056979093921
 30
0.0
 11
539.7499973000001
 21
516.2056979093921
 31
0.0
  0
LINE
  5
31834352
330
318324AF
100
AcDbEntity
  8
TENSEN
100
AcDbLine
 10
661.7499972999998
 20
347.205697909392
 30
0.0
 11
661.7499972999998
 21
382.205697909392
 31
0.0
  0
INSERT
  5
31834353
330
318324AF
100
AcDbEntity
  8
JISSEN
100
AcDbBlockReference
  2
FB16
 10
649.2499972999998
 20
331.7056979093921
 30
0.0
 41
-1.0
 50
300.0000000000005
  0
LINE
  5
31834354
330
318324AF
100
AcDbEntity
  8
TENSEN
100
AcDbLine
 10
661.7499972999998
 20
316.2056979093921
 30
0.0
 11
661.7499972999998
 21
266.104732990757
 31
0.0
  0
LINE
  5
31834355
330
318324AF
100
AcDbEntity
  8
JISSEN
100
AcDbLine
 10
637.7499973000001
 20
316.2056979093921
 30
0.0
 11
637.7499973000001
 21
347.205697909392
 31
0.0
  0
LINE
  5
31834356
330
318324AF
100
AcDbEntity
  8
JISSEN
100
AcDbLine
 10
637.7499973000001
 20
347.205697909392
 30
0.0
 11
637.7499973000001
 21
316.205697909392
 31
0.0
  0
LINE
  5
31834357
330
318324AF
100
AcDbEntity
  8
JISSEN
100
AcDbLine
 10
660.7499972999997
 20
347.205697909392
 30
0.0
 11
660.7499972999997
 21
316.205697909392
 31
0.0
  0
LINE
  5
31834358
330
318324AF
100
AcDbEntity
  8
JISSEN
100
AcDbLine
 10
538.7499973000001
 20
491.2056979093921
 30
0.0
 11
637.7499973000001
 21
319.7326679600546
 31
0.0
  0
LINE
  5
31834359
330
318324AF
100
AcDbEntity
  8
JISSEN
100
AcDbLine
 10
567.6175107594803
 20
491.2056979093921
 30
0.0
 11
650.7559495227772
 21
347.205697909392
 31
0.0
  0
LWPOLYLINE
  5
3183435A
330
318324AF
100
AcDbEntity
  8
JISSEN
100
AcDbPolyline
 90
        6
 70
     1
 43
0.0
 10
878.7499972999997
 20
491.2056979093921
 10
478.7499973
 20
491.2056979093921
 10
478.7499973
 20
493.205697909392
 42
-0.4142135623730951
 10
496.7499973
 20
511.205697909392
 10
860.7499972999997
 20
511.205697909392
 42
-0.4142135623730951
 10
878.7499972999997
 20
493.205697909392
  0
ENDSEC
  0
SECTION
  2
OBJECTS
  0
DICTIONARY
  5
318324A3
330
0
100
AcDbDictionary
281
     1
  3
ACAD_GROUP
350
318324A4
  3
ACAD_LAYOUT
350
318327C1
  3
ACAD_MLINESTYLE
350
318324A5
  3
ACAD_PLOTSETTINGS
350
318327C2
  3
ACAD_PLOTSTYLENAME
350
318327BF
  3
ACDBVARIABLEDICTIONARY
350
318335E4
  0
DICTIONARY
  5
318335CC
330
318324AF
100
AcDbDictionary
280
     1
281
     1
  3
ACAD_LAYOUTSELFREF
360
318343FF
  0
DICTIONARY
  5
318335CA
330
318324AC
100
AcDbDictionary
280
     1
281
     1
  3
ACAD_LAYOUTSELFREF
360
318343FE
  0
DICTIONARY
  5
318324A4
102
{ACAD_REACTORS
330
318324A3
102
}
330
318324A3
100
AcDbDictionary
281
     1
  0
DICTIONARY
  5
318327C1
102
{ACAD_REACTORS
330
318324A3
102
}
330
318324A3
100
AcDbDictionary
281
     1
  3
Model
350
31834404
  3
ﾚｲｱｳﾄ1
350
31834405
  0
DICTIONARY
  5
318324A5
102
{ACAD_REACTORS
330
318324A3
102
}
330
318324A3
100
AcDbDictionary
281
     1
  3
STANDARD
350
318324B2
  0
DICTIONARY
  5
318327C2
102
{ACAD_REACTORS
330
318324A3
102
}
330
318324A3
100
AcDbDictionary
281
     1
  0
ACDBDICTIONARYWDFLT
  5
318327BF
102
{ACAD_REACTORS
330
318324A3
102
}
330
318324A3
100
AcDbDictionary
281
     1
  3
Normal
350
318327C0
100
AcDbDictionaryWithDefault
340
318327C0
  0
DICTIONARY
  5
318335E4
102
{ACAD_REACTORS
330
318324A3
102
}
330
318324A3
100
AcDbDictionary
281
     1
  3
DIMASSOC
350
318335E5
  0
XRECORD
  5
318343FF
102
{ACAD_REACTORS
330
318335CC
102
}
330
318335CC
100
AcDbXrecord
280
     1
340
318324AF
  0
XRECORD
  5
318343FE
102
{ACAD_REACTORS
330
318335CA
102
}
330
318335CA
100
AcDbXrecord
280
     1
340
318324AC
  0
LAYOUT
  5
31834404
102
{ACAD_REACTORS
330
318327C1
102
}
330
318327C1
100
AcDbPlotSettings
  1

  2
\\Nt_honsya\GL-8300A
  4

  6

 40
0.0
 41
0.0
 42
0.0
 43
0.0
 44
0.0
 45
0.0
 46
0.0
 47
0.0
 48
0.0
 49
0.0
140
0.0
141
0.0
142
1.0
143
1.0
 70
 11952
 72
     0
 73
     1
 74
     0
  7

 75
     0
147
1.0
148
2473.583129947055
149
3807.984531386938
100
AcDbLayout
  1
Model
 70
     1
 71
     0
 10
0.0
 20
0.0
 11
12.0
 21
9.0
 12
0.0
 22
0.0
 32
0.0
 14
0.0
 24
0.0
 34
0.0
 15
0.0
 25
0.0
 35
0.0
146
0.0
 13
0.0
 23
0.0
 33
0.0
 16
1.0
 26
0.0
 36
0.0
 17
0.0
 27
1.0
 37
0.0
 76
     0
330
318324AF
  0
LAYOUT
  5
31834405
102
{ACAD_REACTORS
330
318327C1
102
}
330
318327C1
100
AcDbPlotSettings
  1

  2
\\Nt_honsya\GL-8300A
  4

  6

 40
0.0
 41
0.0
 42
0.0
 43
0.0
 44
0.0
 45
0.0
 46
0.0
 47
0.0
 48
0.0
 49
0.0
140
0.0
141
0.0
142
1.0
143
1.0
 70
   688
 72
     0
 73
     0
 74
     5
  7
pdf001.ctb
 75
    16
147
1.0
148
0.0
149
0.0
100
AcDbLayout
  1
ﾚｲｱｳﾄ1
 70
     0
 71
     1
 10
0.0
 20
0.0
 11
12.0
 21
9.0
 12
0.0
 22
0.0
 32
0.0
 14
1.000000000000000E+20
 24
1.000000000000000E+20
 34
1.000000000000000E+20
 15
-1.000000000000000E+20
 25
-1.000000000000000E+20
 35
-1.000000000000000E+20
146
0.0
 13
0.0
 23
0.0
 33
0.0
 16
1.0
 26
0.0
 36
0.0
 17
0.0
 27
1.0
 37
0.0
 76
     0
330
318324AC
  0
MLINESTYLE
  5
318324B2
102
{ACAD_REACTORS
330
318324A5
102
}
330
318324A5
100
AcDbMlineStyle
  2
STANDARD
 70
     0
  3

 62
     0
 51
90.0
 52
90.0
 71
     2
 49
0.5
 62
   256
  6
BYLAYER
 49
-0.5
 62
   256
  6
BYLAYER
  0
ACDBPLACEHOLDER
  5
318327C0
102
{ACAD_REACTORS
330
318327BF
102
}
330
318327BF
  0
DICTIONARYVAR
  5
318335E5
102
{ACAD_REACTORS
330
318335E4
102
}
330
318335E4
100
DictionaryVariables
280
     0
  1
0
  0
ENDSEC
  0
EOF
